  0
SECTION
  2
HEADER
  9
$ACADVER
  1
AC1009
  9
$DWGCODEPAGE
  3
iso8859-1
  9
$INSBASE
 10
0.0
 20
0.0
 30
0.0
  9
$EXTMIN
 10
1.0E20
 20
1.0E20
  9
$EXTMAX
 10
-1.0E20
 20
-1.0E20
  9
$LIMMIN
 10
0.0
 20
0.0
  9
$LIMMAX
 10
12.0
 20
9.0
  9
$ORTHOMODE
 70
     0
  9
$REGENMODE
 70
     1
  9
$FILLMODE
 70
     1
  9
$QTEXTMODE
 70
     0
  9
$MIRRTEXT
 70
     1
  9
$DRAGMODE
 70
     2
  9
$LTSCALE
 40
15.0
  9
$OSMODE
 70
     0
  9
$ATTMODE
 70
     1
  9
$TEXTSIZE
 40
0.2
  9
$TRACEWID
 40
0.05
  9
$TEXTSTYLE
  7
STANDARD
  9
$CLAYER
  8
0
  9
$CELTYPE
  6
DASHED
  9
$CECOLOR
 62
   256
  9
$DIMSCALE
 40
1.0
  9
$DIMASZ
 40
0.18
  9
$DIMEXO
 40
0.0625
  9
$DIMDLI
 40
0.38
  9
$DIMRND
 40
0.0
  9
$DIMDLE
 40
0.0
  9
$DIMEXE
 40
0.18
  9
$DIMTP
 40
0.0
  9
$DIMTM
 40
0.0
  9
$DIMTXT
 40
0.18
  9
$DIMCEN
 40
0.09
  9
$DIMTSZ
 40
0.0
  9
$DIMTOL
 70
     0
  9
$DIMLIM
 70
     0
  9
$DIMTIH
 70
     1
  9
$DIMTOH
 70
     1
  9
$DIMSE1
 70
     0
  9
$DIMSE2
 70
     0
  9
$DIMTAD
 70
     0
  9
$DIMZIN
 70
     0
  9
$DIMBLK
  1

  9
$DIMASO
 70
     1
  9
$DIMSHO
 70
     1
  9
$DIMPOST
  1

  9
$DIMAPOST
  1

  9
$DIMALT
 70
     0
  9
$DIMALTD
 70
     2
  9
$DIMALTF
 40
25.4
  9
$DIMLFAC
 40
1.0
  9
$DIMTOFL
 70
     0
  9
$DIMTVP
 40
0.0
  9
$DIMTIX
 70
     0
  9
$DIMSOXD
 70
     0
  9
$DIMSAH
 70
     0
  9
$DIMBLK1
  1

  9
$DIMBLK2
  1

  9
$DIMSTYLE
  2
STANDARD
  9
$DIMCLRD
 70
     0
  9
$DIMCLRE
 70
     0
  9
$DIMCLRT
 70
     0
  9
$DIMTFAC
 40
1.0
  9
$DIMGAP
 40
0.09
  9
$LUNITS
 70
     2
  9
$LUPREC
 70
     4
  9
$AXISMODE
 70
     0
  9
$AXISUNIT
 10
0.0
 20
0.0
  9
$SKETCHINC
 40
0.1
  9
$FILLETRAD
 40
0.0
  9
$AUNITS
 70
     0
  9
$AUPREC
 70
     0
  9
$MENU
  1
acad
  9
$ELEVATION
 40
0.0
  9
$PELEVATION
 40
0.0
  9
$THICKNESS
 40
0.0
  9
$LIMCHECK
 70
     0
  9
$BLIPMODE
 70
     1
  9
$CHAMFERA
 40
0.0
  9
$CHAMFERB
 40
0.0
  9
$SKPOLY
 70
     0
  9
$TDCREATE
 40
0.000000000
  9
$TDUPDATE
 40
0.000000000
  9
$TDINDWG
 40
0.0
  9
$TDUSRTIMER
 40
0.0
  9
$USRTIMER
 70
     1
  9
$ANGBASE
 50
0.0
  9
$ANGDIR
 70
     0
  9
$PDMODE
 70
     0
  9
$PDSIZE
 40
0.0
  9
$PLINEWID
 40
0.0
  9
$COORDS
 70
     1
  9
$SPLFRAME
 70
     0
  9
$SPLINETYPE
 70
     6
  9
$SPLINESEGS
 70
     8
  9
$ATTDIA
 70
     0
  9
$ATTREQ
 70
     1
  9
$HANDLING
 70
     1
  9
$HANDSEED
  5
   7E8
  9
$SURFTAB1
 70
     6
  9
$SURFTAB2
 70
     6
  9
$SURFTYPE
 70
     6
  9
$SURFU
 70
     6
  9
$SURFV
 70
     6
  9
$UCSNAME
  2

  9
$UCSORG
 10
0.0
 20
0.0
 30
0.0
  9
$UCSXDIR
 10
1.0
 20
0.0
 30
0.0
  9
$UCSYDIR
 10
0.0
 20
1.0
 30
0.0
  9
$PUCSNAME
  2

  9
$PUCSORG
 10
0.0
 20
0.0
 30
0.0
  9
$PUCSXDIR
 10
1.0
 20
0.0
 30
0.0
  9
$PUCSYDIR
 10
0.0
 20
1.0
 30
0.0
  9
$USERI1
 70
     0
  9
$USERI2
 70
     0
  9
$USERI3
 70
     0
  9
$USERI4
 70
     0
  9
$USERI5
 70
     0
  9
$USERR1
 40
0.0
  9
$USERR2
 40
0.0
  9
$USERR3
 40
0.0
  9
$USERR4
 40
0.0
  9
$USERR5
 40
0.0
  9
$WORLDVIEW
 70
     1
  9
$SHADEDGE
 70
     3
  9
$SHADEDIF
 70
    70
  9
$TILEMODE
 70
     1
  9
$MAXACTVP
 70
    16
  9
$PINSBASE
 10
0.0
 20
0.0
 30
0.0
  9
$PLIMCHECK
 70
     0
  9
$PEXTMIN
 10
1.0E20
 20
1.0E20
 30
1.0E20
  9
$PEXTMAX
 10
-1.0E20
 20
-1.0E20
 30
-1.0E20
  9
$PLIMMIN
 10
0.0
 20
0.0
  9
$PLIMMAX
 10
12.0
 20
9.0
  9
$UNITMODE
 70
     0
  9
$VISRETAIN
 70
     0
  0
ENDSEC
  0
SECTION
  2
TABLES
  0
TABLE
  2
VPORT
 70
     1
  0
VPORT
  2
*ACTIVE
 70
     0
 10
0.0
 20
0.0
 11
1.0
 21
1.0
 12
6.801242
 22
4.5
 13
0.0
 23
0.0
 14
1.0
 24
1.0
 15
0.0
 25
0.0
 16
0.0
 26
0.0
 36
1.0
 17
0.0
 27
0.0
 37
0.0
 40
9.0
 41
1.511387
 42
50.0
 43
0.0
 44
0.0
 50
0.0
 51
0.0
 71
     0
 72
   100
 73
     1
 74
     1
 75
     0
 76
     0
 77
     0
 78
     0
  0
ENDTAB
  0
TABLE
  2
LTYPE
 70
    41
  0
LTYPE
  2
BYBLOCK
 70
     0
  3

 72
    65
 73
     0
 40
0.0
  0
LTYPE
  2
BYLAYER
 70
     0
  3

 72
    65
 73
     0
 40
0.0
  0
LTYPE
  2
CONTINUOUS
 70
     0
  3
Solid line
 72
    65
 73
     0
 40
0.0
  0
LTYPE
  2
BORDER
 70
    64
  3
__ __ . __ __ . __ __ . __ __ . __ __ . __ __ .
 72
    65
 73
     6
 40
1.75
 49
0.5
 49
-0.25
 49
0.5
 49
-0.25
 49
0.0
 49
-0.25
  0
LTYPE
  2
BORDER2
 70
    64
  3
__.__.__.__.__.__.__.__.__.__.__.__.__.__.__.__
 72
    65
 73
     6
 40
0.875
 49
0.25
 49
-0.125
 49
0.25
 49
-0.125
 49
0.0
 49
-0.125
  0
LTYPE
  2
BORDERX2
 70
    64
  3
____  ____  .  ____  ____  .  ____  ____  .  __
 72
    65
 73
     6
 40
3.5
 49
1.0
 49
-0.5
 49
1.0
 49
-0.5
 49
0.0
 49
-0.5
  0
LTYPE
  2
CENTER
 70
    64
  3
____ _ ____ _ ____ _ ____ _ ____ _ ____ _ ____
 72
    65
 73
     4
 40
2.0
 49
1.25
 49
-0.25
 49
0.25
 49
-0.25
  0
LTYPE
  2
CENTER2
 70
    64
  3
___ _ ___ _ ___ _ ___ _ ___ _ ___ _ ___ _ ___ _
 72
    65
 73
     4
 40
1.125
 49
0.75
 49
-0.125
 49
0.125
 49
-0.125
  0
LTYPE
  2
CENTERX2
 70
    64
  3
________  __  ________  __  ________  __  _____
 72
    65
 73
     4
 40
4.0
 49
2.5
 49
-0.5
 49
0.5
 49
-0.5
  0
LTYPE
  2
DASHDOT
 70
    64
  3
__ . __ . __ . __ . __ . __ . __ . __ . __ . __
 72
    65
 73
     4
 40
1.0
 49
0.5
 49
-0.25
 49
0.0
 49
-0.25
  0
LTYPE
  2
DASHDOT2
 70
    64
  3
_._._._._._._._._._._._._._._._._._._._._._._._
 72
    65
 73
     4
 40
0.5
 49
0.25
 49
-0.125
 49
0.0
 49
-0.125
  0
LTYPE
  2
DASHDOTX2
 70
    64
  3
____  .  ____  .  ____  .  ____  .  ____  .  __
 72
    65
 73
     4
 40
2.0
 49
1.0
 49
-0.5
 49
0.0
 49
-0.5
  0
LTYPE
  2
DASHED
 70
    64
  3
__ __ __ __ __ __ __ __ __ __ __ __ __ __ __ __
 72
    65
 73
     2
 40
0.75
 49
0.5
 49
-0.25
  0
LTYPE
  2
DASHED2
 70
    64
  3
_ _ _ _ _ _ _ _ _ _ _ _ _ _ _ _ _ _ _ _ _ _ _ _
 72
    65
 73
     2
 40
0.375
 49
0.25
 49
-0.125
  0
LTYPE
  2
DASHEDX2
 70
    64
  3
____  ____  ____  ____  ____  ____  ____  ____
 72
    65
 73
     2
 40
1.5
 49
1.0
 49
-0.5
  0
LTYPE
  2
DIVIDE
 70
    64
  3
____ . . ____ . . ____ . . ____ . . ____ . . __
 72
    65
 73
     6
 40
1.25
 49
0.5
 49
-0.25
 49
0.0
 49
-0.25
 49
0.0
 49
-0.25
  0
LTYPE
  2
DIVIDE2
 70
    64
  3
__..__..__..__..__..__..__..__..__..__..__..__.
 72
    65
 73
     6
 40
0.625
 49
0.25
 49
-0.125
 49
0.0
 49
-0.125
 49
0.0
 49
-0.125
  0
LTYPE
  2
DIVIDEX2
 70
    64
  3
________  .  .  ________  .  .  ________  .  .
 72
    65
 73
     6
 40
2.5
 49
1.0
 49
-0.5
 49
0.0
 49
-0.5
 49
0.0
 49
-0.5
  0
LTYPE
  2
DOT
 70
    64
  3
. . . . . . . . . . . . . . . . . . . . . . . .
 72
    65
 73
     2
 40
0.25
 49
0.0
 49
-0.25
  0
LTYPE
  2
DOT2
 70
    64
  3
...............................................
 72
    65
 73
     2
 40
0.125
 49
0.0
 49
-0.125
  0
LTYPE
  2
DOTX2
 70
    64
  3
.  .  .  .  .  .  .  .  .  .  .  .  .  .  .  .
 72
    65
 73
     2
 40
0.5
 49
0.0
 49
-0.5
  0
LTYPE
  2
HIDDEN
 70
    64
  3
__ __ __ __ __ __ __ __ __ __ __ __ __ __ __ __
 72
    65
 73
     2
 40
0.375
 49
0.25
 49
-0.125
  0
LTYPE
  2
HIDDEN2
 70
    64
  3
_ _ _ _ _ _ _ _ _ _ _ _ _ _ _ _ _ _ _ _ _ _ _ _
 72
    65
 73
     2
 40
0.1875
 49
0.125
 49
-0.0625
  0
LTYPE
  2
HIDDENX2
 70
    64
  3
____ ____ ____ ____ ____ ____ ____ ____ ____ __
 72
    65
 73
     2
 40
0.75
 49
0.5
 49
-0.25
  0
LTYPE
  2
PHANTOM
 70
    64
  3
______  __  __  ______  __  __  ______  __  __
 72
    65
 73
     6
 40
2.5
 49
1.25
 49
-0.25
 49
0.25
 49
-0.25
 49
0.25
 49
-0.25
  0
LTYPE
  2
PHANTOM2
 70
    64
  3
___ _ _ ___ _ _ ___ _ _ ___ _ _ ___ _ _ ___ _ _
 72
    65
 73
     6
 40
1.25
 49
0.625
 49
-0.125
 49
0.125
 49
-0.125
 49
0.125
 49
-0.125
  0
LTYPE
  2
PHANTOMX2
 70
    64
  3
____________    ____    ____    ____________
 72
    65
 73
     6
 40
5.0
 49
2.5
 49
-0.5
 49
0.5
 49
-0.5
 49
0.5
 49
-0.5
  0
LTYPE
  2
ACAD_ISO02W100
 70
    64
  3
__ __ __ __ __ __ __ __ __ __ __ __ __ __ __ __
 72
    65
 73
     2
 40
15.0
 49
12.0
 49
-3.0
  0
LTYPE
  2
ACAD_ISO03W100
 70
    64
  3
__    __    __    __    __    __    __    __
 72
    65
 73
     2
 40
30.0
 49
12.0
 49
-18.0
  0
LTYPE
  2
ACAD_ISO04W100
 70
    64
  3
____ . ____ . ____ . ____ . ____ . ____ . ____
 72
    65
 73
     4
 40
30.5
 49
24.0
 49
-3.0
 49
0.5
 49
-3.0
  0
LTYPE
  2
ACAD_ISO05W100
 70
    64
  3
____ .. ____ .. ____ .. ____ .. ____ .. ____ ..
 72
    65
 73
     6
 40
34.0
 49
24.0
 49
-3.0
 49
0.5
 49
-3.0
 49
0.5
 49
-3.0
  0
LTYPE
  2
ACAD_ISO06W100
 70
    64
  3
____ ... ____ ... ____ ... ____ ... ____ ... __
 72
    65
 73
     8
 40
37.5
 49
24.0
 49
-3.0
 49
0.5
 49
-3.0
 49
0.5
 49
-3.0
 49
0.5
 49
-3.0
  0
LTYPE
  2
ACAD_ISO07W100
 70
    64
  3
. . . . . . . . . . . . . . . . . . . . . . . .
 72
    65
 73
     2
 40
3.5
 49
0.5
 49
-3.0
  0
LTYPE
  2
ACAD_ISO08W100
 70
    64
  3
____ __ ____ __ ____ __ ____ ____ __ __ ____ __
 72
    65
 73
     4
 40
36.0
 49
24.0
 49
-3.0
 49
6.0
 49
-3.0
  0
LTYPE
  2
ACAD_ISO09W100
 70
    64
  3
____ __ __ ____ __ __ ____ __ __ ____ __ __ ___
 72
    65
 73
     6
 40
45.0
 49
24.0
 49
-3.0
 49
6.0
 49
-3.0
 49
6.0
 49
-3.0
  0
LTYPE
  2
ACAD_ISO10W100
 70
    64
  3
__ . __ . __ . __ . __ . __ . __ . __ . __ . __
 72
    65
 73
     4
 40
18.5
 49
12.0
 49
-3.0
 49
0.5
 49
-3.0
  0
LTYPE
  2
ACAD_ISO11W100
 70
    64
  3
__ __ . __ __ . __ __ . __ __ . __ __ . __ __ .
 72
    65
 73
     6
 40
33.5
 49
12.0
 49
-3.0
 49
12.0
 49
-3.0
 49
0.5
 49
-3.0
  0
LTYPE
  2
ACAD_ISO12W100
 70
    64
  3
__ . . __ . . __ . . __ . . __ . . __ . . __ .
 72
    65
 73
     6
 40
22.0
 49
12.0
 49
-3.0
 49
0.5
 49
-3.0
 49
0.5
 49
-3.0
  0
LTYPE
  2
ACAD_ISO13W100
 70
    64
  3
__ __ . . __ __ . . __ __ . . __ __ . . __ __ .
 72
    65
 73
     8
 40
37.0
 49
12.0
 49
-3.0
 49
12.0
 49
-3.0
 49
0.5
 49
-3.0
 49
0.5
 49
-3.0
  0
LTYPE
  2
ACAD_ISO14W100
 70
    64
  3
__ . . . __ . . . __ . . . __ . . . __ . . . __
 72
    65
 73
     8
 40
25.5
 49
12.0
 49
-3.0
 49
0.5
 49
-3.0
 49
0.5
 49
-3.0
 49
0.5
 49
-3.0
  0
LTYPE
  2
ACAD_ISO15W100
 70
    64
  3
__ __ . . . __ __ . . . __ __ . . . __ __ . . .
 72
    65
 73
    10
 40
40.5
 49
12.0
 49
-3.0
 49
12.0
 49
-3.0
 49
0.5
 49
-3.0
 49
0.5
 49
-3.0
 49
0.5
 49
-3.0
  0
ENDTAB
  0
TABLE
  2
STYLE
 70
     4
  0
STYLE
  2
STANDARD
 70
    64
 40
0.0
 41
1.0
 50
0.0
 71
     0
 42
0.2
  3
txt
  4

  0
STYLE
  2
TOLERANCE
 70
    64
 40
0.0
 41
1.0
 50
0.0
 71
     0
 42
0.2
  3
../igesfont/iges1003.shx
  4

  0
STYLE
  2
ROMANS
 70
    64
 40
0.0
 41
1.0
 50
0.0
 71
     0
 42
0.2
  3
romans.shx
  4

  0
STYLE
  2
ROMANC
 70
    64
 40
0.0
 41
1.0
 50
0.0
 71
     0
 42
0.2
  3
romanc.shx
  4

  0
ENDTAB
  0
TABLE
  2
DIMSTYLE
 70
     2
  0
DIMSTYLE
  2
UNNAMED
 70
     0
  3

  4

  5

  6

  7

 40
1.0
 41
0.18
 42
0.0625
 43
0.38
 44
0.18
 45
0.0
 46
0.0
 47
0.0
 48
0.0
140
0.18
141
0.09
142
0.0
143
25.4
144
1.0
145
0.0
146
1.0
147
0.09
 71
     0
 72
     0
 73
     1
 74
     1
 75
     0
 76
     0
 77
     0
 78
     0
170
     0
171
     2
172
     0
173
     0
174
     0
175
     0
176
     0
177
     0
178
     0
  0
DIMSTYLE
  2
STANDARD
 70
     0
  3

  4

  5

  6

  7

 40
1.0
 41
0.18
 42
0.0625
 43
0.38
 44
0.18
 45
0.0
 46
0.0
 47
0.0
 48
0.0
140
0.18
141
0.09
142
0.0
143
25.4
144
1.0
145
0.0
146
1.0
147
0.09
 71
     0
 72
     0
 73
     1
 74
     1
 75
     0
 76
     0
 77
     0
 78
     0
170
     0
171
     2
172
     0
173
     0
174
     0
175
     0
176
     0
177
     0
178
     0
  0
ENDTAB
  0
TABLE
  2
LAYER
 70
     1
  0
LAYER
  2
0
 70
     0
 62
     7
  6
CONTINUOUS
  0
ENDTAB
  0
ENDSEC
  0
SECTION
  2
BLOCKS
  0
BLOCK
  5
     B
  8
0
  6
CONTINUOUS
 62
     7
  2
*UDIM310
 70
    65
 10
0.0
 20
0.0
 30
0.0
  3
*UDIM310
  0
TEXT
  5
     C
  8
0
  6
CONTINUOUS
 62
     7
 10
17.2648487657309
 20
-15.3161739429539
 30
0.0
 40
3.00000002980232
  1
220
 41
0.933333333333333
 72
     1
 11
21.1648488044739
 21
-13.8161739280527
 31
0.0
 73
     2
  0
TEXT
  5
     D
  8
0
  6
CONTINUOUS
 62
     7
 10
13.3481821378072
 20
-19.8161739429539
 30
0.0
 40
3.5
  1
=   =
 41
0.933333333333333
 72
     1
 11
21.1648488044739
 21
-18.0661739429539
 31
0.0
 73
     2
  0
LINE
  5
     E
  8
0
  6
CONTINUOUS
 62
     7
 10
-6.33515119552612
 20
-2.25
 30
0.0
 11
-6.33515119552612
 21
-18.3161739429539
 31
0.0
  0
LINE
  5
     F
  8
0
  6
CONTINUOUS
 62
     7
 10
48.6648488044739
 20
-2.25000000000001
 30
0.0
 11
48.6648488044739
 21
-18.3161739429539
 31
0.0
  0
LINE
  5
    10
  8
0
  6
CONTINUOUS
 62
     7
 10
-6.33515119552612
 20
-16.3161739429539
 30
0.0
 11
48.6648488044739
 21
-16.3161739429539
 31
0.0
  0
LINE
  5
    11
  8
0
  6
CONTINUOUS
 62
     7
 10
-3.43737372231559
 20
-15.5397167865353
 30
0.0
 11
-6.33515119552612
 21
-16.3161739429539
 31
0.0
  0
LINE
  5
    12
  8
0
  6
CONTINUOUS
 62
     7
 10
-6.33515119552612
 20
-16.3161739429539
 30
0.0
 11
-3.43737372231559
 21
-17.0926310993724
 31
0.0
  0
LINE
  5
    13
  8
0
  6
CONTINUOUS
 62
     7
 10
45.7670713312633
 20
-17.0926310993724
 30
0.0
 11
48.6648488044739
 21
-16.3161739429539
 31
0.0
  0
LINE
  5
    14
  8
0
  6
CONTINUOUS
 62
     7
 10
48.6648488044739
 20
-16.3161739429539
 30
0.0
 11
45.7670713312633
 21
-15.5397167865353
 31
0.0
  0
ENDBLK
  5
    15
  8
0
  6
CONTINUOUS
 62
     7
  0
BLOCK
  5
    16
  8
0
  6
CONTINUOUS
 62
     7
  2
*UDIM311
 70
    65
 10
0.0
 20
0.0
 30
0.0
  3
*UDIM311
  0
TEXT
  5
    17
  8
0
  6
CONTINUOUS
 62
     7
 10
-12.6443913792372
 20
195.3741133925
 30
0.0
 40
3.00000002980232
  1
43,75
 41
0.933333333333333
 72
     1
 11
-5.94439131267868
 21
196.874113407401
 31
0.0
 73
     2
  0
LINE
  5
    18
  8
0
  6
CONTINUOUS
 62
     7
 10
5.18989907543338
 20
180.875006394292
 30
0.0
 11
5.18989907543338
 21
196.3741133925
 31
0.0
  0
LINE
  5
    19
  8
0
  6
CONTINUOUS
 62
     7
 10
16.1273958748929
 20
180.875011789546
 30
0.0
 11
16.1273958748929
 21
196.3741133925
 31
0.0
  0
LINE
  5
    1A
  8
0
  6
CONTINUOUS
 62
     7
 10
-12.6443913792372
 20
194.3741133925
 30
0.0
 11
16.1273958748929
 21
194.3741133925
 31
0.0
  0
LINE
  5
    1B
  8
0
  6
CONTINUOUS
 62
     7
 10
2.29212160222284
 20
193.597656236082
 30
0.0
 11
5.18989907543338
 21
194.3741133925
 31
0.0
  0
LINE
  5
    1C
  8
0
  6
CONTINUOUS
 62
     7
 10
5.18989907543338
 20
194.3741133925
 30
0.0
 11
2.29212160222284
 21
195.150570548919
 31
0.0
  0
CIRCLE
  5
    1D
  8
0
  6
CONTINUOUS
 62
     7
 10
16.1273958748929
 20
194.3741133925
 30
0.0
 40
0.5
  0
ENDBLK
  5
    1E
  8
0
  6
CONTINUOUS
 62
     7
  0
BLOCK
  5
    1F
  8
0
  6
CONTINUOUS
 62
     7
  2
*UDIM312
 70
    65
 10
0.0
 20
0.0
 30
0.0
  3
*UDIM312
  0
TEXT
  5
    20
  8
0
  6
CONTINUOUS
 62
     7
 10
14.8961184762052
 20
195.3741133925
 30
0.0
 40
3.00000002980232
  1
43,75
 41
0.933333333333333
 72
     1
 11
21.5961185427637
 21
196.874113407401
 31
0.0
 73
     2
  0
LINE
  5
    21
  8
0
  6
CONTINUOUS
 62
     7
 10
27.0648412106346
 20
180.875012172951
 30
0.0
 11
27.0648412106346
 21
196.3741133925
 31
0.0
  0
LINE
  5
    22
  8
0
  6
CONTINUOUS
 62
     7
 10
14.8961184762052
 20
194.3741133925
 30
0.0
 11
28.2961186093222
 21
194.3741133925
 31
0.0
  0
CIRCLE
  5
    23
  8
0
  6
CONTINUOUS
 62
     7
 10
16.1273958748929
 20
194.3741133925
 30
0.0
 40
0.5
  0
CIRCLE
  5
    24
  8
0
  6
CONTINUOUS
 62
     7
 10
27.0648412106346
 20
194.3741133925
 30
0.0
 40
0.5
  0
ENDBLK
  5
    25
  8
0
  6
CONTINUOUS
 62
     7
  0
BLOCK
  5
    26
  8
0
  6
CONTINUOUS
 62
     7
  2
*UDIM313
 70
    65
 10
0.0
 20
0.0
 30
0.0
  3
*UDIM313
  0
TEXT
  5
    27
  8
0
  6
CONTINUOUS
 62
     7
 10
41.9031919193227
 20
195.3741133925
 30
0.0
 40
3.00000002980232
  1
43,75
 41
0.933333333333333
 72
     1
 11
48.6031919858812
 21
196.874113407401
 31
0.0
 73
     2
  0
LINE
  5
    28
  8
0
  6
CONTINUOUS
 62
     7
 10
38.0023635313915
 20
180.875016726265
 30
0.0
 11
38.0023635313915
 21
196.3741133925
 31
0.0
  0
LINE
  5
    29
  8
0
  6
CONTINUOUS
 62
     7
 10
27.0648412106346
 20
194.3741133925
 30
0.0
 11
55.3031920524397
 21
194.3741133925
 31
0.0
  0
CIRCLE
  5
    2A
  8
0
  6
CONTINUOUS
 62
     7
 10
27.0648412106346
 20
194.3741133925
 30
0.0
 40
0.5
  0
LINE
  5
    2B
  8
0
  6
CONTINUOUS
 62
     7
 10
40.900141004602
 20
195.150570548919
 30
0.0
 11
38.0023635313915
 21
194.3741133925
 31
0.0
  0
LINE
  5
    2C
  8
0
  6
CONTINUOUS
 62
     7
 10
38.0023635313915
 20
194.3741133925
 30
0.0
 11
40.900141004602
 21
193.597656236082
 31
0.0
  0
ENDBLK
  5
    2D
  8
0
  6
CONTINUOUS
 62
     7
  0
BLOCK
  5
    2E
  8
0
  6
CONTINUOUS
 62
     7
  2
*UDIM314
 70
    65
 10
0.0
 20
0.0
 30
0.0
  3
*UDIM314
  0
TEXT
  5
    2F
  8
0
  6
CONTINUOUS
 62
     7
 10
56.5171294083879
 20
-8.05035209655762
 30
0.0
 40
3.00000002980232
  1
11,5
 41
0.933333333333333
 72
     1
 11
61.8171294610386
 21
-6.55035208165646
 31
0.0
 73
     2
  0
LINE
  5
    30
  8
0
  6
CONTINUOUS
 62
     7
 10
48.6648488044739
 20
-2.25000000000001
 30
0.0
 11
48.6648488044739
 21
-11.0503520965576
 31
0.0
  0
LINE
  5
    31
  8
0
  6
CONTINUOUS
 62
     7
 10
51.5335676035653
 20
39.7499635239331
 30
0.0
 11
51.5335676035653
 21
-11.0503520965576
 31
0.0
  0
LINE
  5
    32
  8
0
  6
CONTINUOUS
 62
     7
 10
48.6648488044739
 20
-9.05035209655762
 30
0.0
 11
67.1171295136894
 21
-9.05035209655762
 31
0.0
  0
LINE
  5
    33
  8
0
  6
CONTINUOUS
 62
     7
 10
45.7104255427923
 20
-9.57129661455795
 30
0.0
 11
48.6648488044739
 21
-9.05035209655762
 31
0.0
  0
LINE
  5
    34
  8
0
  6
CONTINUOUS
 62
     7
 10
48.6648488044739
 20
-9.05035209655762
 30
0.0
 11
45.7104255427923
 21
-8.52940757855728
 31
0.0
  0
LINE
  5
    35
  8
0
  6
CONTINUOUS
 62
     7
 10
54.4879908652469
 20
-8.52940757855728
 30
0.0
 11
51.5335676035653
 21
-9.05035209655762
 31
0.0
  0
LINE
  5
    36
  8
0
  6
CONTINUOUS
 62
     7
 10
51.5335676035653
 20
-9.05035209655762
 30
0.0
 11
54.4879908652469
 21
-9.57129661455795
 31
0.0
  0
ENDBLK
  5
    37
  8
0
  6
CONTINUOUS
 62
     7
  0
BLOCK
  5
    38
  8
0
  6
CONTINUOUS
 62
     7
  2
*UDIM315
 70
    65
 10
0.0
 20
0.0
 30
0.0
  3
*UDIM315
  0
TEXT
  5
    39
  8
0
  6
CONTINUOUS
 62
     7
 10
72.0451359748889
 20
39.0749847092093
 30
0.0
 40
3.00000002980232
  1
254
 50
90.0
 41
0.933333333333333
 72
     1
 11
70.5451359599829
 21
42.9749847479505
 31
0.0
 73
     2
  0
LINE
  5
    3A
  8
0
  6
CONTINUOUS
 62
     7
 10
33.7460636272467
 20
11.4999892349836
 30
0.0
 11
75.045135974884
 21
11.4999892349836
 31
0.0
  0
LINE
  5
    3B
  8
0
  6
CONTINUOUS
 62
     7
 10
33.7460715019753
 20
74.9999768753735
 30
0.0
 11
75.045135974884
 21
74.9999768753735
 31
0.0
  0
LINE
  5
    3C
  8
0
  6
CONTINUOUS
 62
     7
 10
73.045135974884
 20
11.4999892349836
 30
0.0
 11
73.045135974884
 21
74.9999768753735
 31
0.0
  0
LINE
  5
    3D
  8
0
  6
CONTINUOUS
 62
     7
 10
72.5241914568837
 20
14.4544124966652
 30
0.0
 11
73.045135974884
 21
11.4999892349836
 31
0.0
  0
LINE
  5
    3E
  8
0
  6
CONTINUOUS
 62
     7
 10
73.045135974884
 20
11.4999892349836
 30
0.0
 11
73.5660804928844
 21
14.4544124966652
 31
0.0
  0
LINE
  5
    3F
  8
0
  6
CONTINUOUS
 62
     7
 10
73.5660804928844
 20
72.0455536136919
 30
0.0
 11
73.045135974884
 21
74.9999768753735
 31
0.0
  0
LINE
  5
    40
  8
0
  6
CONTINUOUS
 62
     7
 10
73.045135974884
 20
74.9999768753735
 30
0.0
 11
72.5241914568837
 21
72.0455536136919
 31
0.0
  0
ENDBLK
  5
    41
  8
0
  6
CONTINUOUS
 62
     7
  0
BLOCK
  5
    42
  8
0
  6
CONTINUOUS
 62
     7
  2
*UDIM316
 70
    65
 10
0.0
 20
0.0
 30
0.0
  3
*UDIM316
  0
TEXT
  5
    43
  8
0
  6
CONTINUOUS
 62
     7
 10
60.6817402839745
 20
52.3624747464961
 30
0.0
 40
3.00000002980232
  1
125,3
 50
90.0
 41
0.933333333333333
 72
     1
 11
59.1817402690649
 21
59.0624748130528
 31
0.0
 73
     2
  0
LINE
  5
    44
  8
0
  6
CONTINUOUS
 62
     7
 10
53.5687741620187
 20
43.6749768753735
 30
0.0
 11
63.6817402839661
 21
43.6749768753735
 31
0.0
  0
LINE
  5
    45
  8
0
  6
CONTINUOUS
 62
     7
 10
33.7460715019753
 20
74.9999768753735
 30
0.0
 11
63.6817402839661
 21
74.9999768753735
 31
0.0
  0
LINE
  5
    46
  8
0
  6
CONTINUOUS
 62
     7
 10
61.6817402839661
 20
43.6749768753735
 30
0.0
 11
61.6817402839661
 21
74.9999768753735
 31
0.0
  0
LINE
  5
    47
  8
0
  6
CONTINUOUS
 62
     7
 10
61.1607957659657
 20
46.6294001370551
 30
0.0
 11
61.6817402839661
 21
43.6749768753735
 31
0.0
  0
LINE
  5
    48
  8
0
  6
CONTINUOUS
 62
     7
 10
61.6817402839661
 20
43.6749768753735
 30
0.0
 11
62.2026848019664
 21
46.6294001370551
 31
0.0
  0
LINE
  5
    49
  8
0
  6
CONTINUOUS
 62
     7
 10
62.2026848019664
 20
72.0455536136919
 30
0.0
 11
61.6817402839661
 21
74.9999768753735
 31
0.0
  0
LINE
  5
    4A
  8
0
  6
CONTINUOUS
 62
     7
 10
61.6817402839661
 20
74.9999768753735
 30
0.0
 11
61.1607957659657
 21
72.0455536136919
 31
0.0
  0
ENDBLK
  5
    4B
  8
0
  6
CONTINUOUS
 62
     7
  0
BLOCK
  5
    4C
  8
0
  6
CONTINUOUS
 62
     7
  2
*UDIM317
 70
    65
 10
0.0
 20
0.0
 30
0.0
  3
*UDIM317
  0
TEXT
  5
    4D
  8
0
  6
CONTINUOUS
 62
     7
 10
72.0451283454944
 20
137.574984698344
 30
0.0
 40
3.00000002980232
  1
254
 50
90.0
 41
0.933333333333333
 72
     1
 11
70.5451283305883
 21
141.474984737085
 31
0.0
 73
     2
  0
LINE
  5
    4E
  8
0
  6
CONTINUOUS
 62
     7
 10
44.6835659068618
 20
109.999987239037
 30
0.0
 11
75.0451283454895
 21
109.999987239037
 31
0.0
  0
LINE
  5
    4F
  8
0
  6
CONTINUOUS
 62
     7
 10
44.6835738885987
 20
173.499974856078
 30
0.0
 11
75.0451283454895
 21
173.499974856078
 31
0.0
  0
LINE
  5
    50
  8
0
  6
CONTINUOUS
 62
     7
 10
73.0451283454895
 20
109.999987239037
 30
0.0
 11
73.0451283454895
 21
173.499974856078
 31
0.0
  0
LINE
  5
    51
  8
0
  6
CONTINUOUS
 62
     7
 10
72.5241838274892
 20
112.954410500719
 30
0.0
 11
73.0451283454895
 21
109.999987239037
 31
0.0
  0
LINE
  5
    52
  8
0
  6
CONTINUOUS
 62
     7
 10
73.0451283454895
 20
109.999987239037
 30
0.0
 11
73.5660728634898
 21
112.954410500719
 31
0.0
  0
LINE
  5
    53
  8
0
  6
CONTINUOUS
 62
     7
 10
73.5660728634898
 20
170.545551594397
 30
0.0
 11
73.0451283454895
 21
173.499974856078
 31
0.0
  0
LINE
  5
    54
  8
0
  6
CONTINUOUS
 62
     7
 10
73.0451283454895
 20
173.499974856078
 30
0.0
 11
72.5241838274892
 21
170.545551594397
 31
0.0
  0
ENDBLK
  5
    55
  8
0
  6
CONTINUOUS
 62
     7
  0
BLOCK
  5
    56
  8
0
  6
CONTINUOUS
 62
     7
  2
*UDIM318
 70
    65
 10
0.0
 20
0.0
 30
0.0
  3
*UDIM318
  0
TEXT
  5
    57
  8
0
  6
CONTINUOUS
 62
     7
 10
61.5817341804589
 20
150.862478571706
 30
0.0
 40
3.00000002980232
  1
125,3
 50
90.0
 41
0.933333333333333
 72
     1
 11
60.0817341655493
 21
157.562478638263
 31
0.0
 73
     2
  0
LINE
  5
    58
  8
0
  6
CONTINUOUS
 62
     7
 10
54.4687741620187
 20
142.174966041091
 30
0.0
 11
64.5817341804504
 21
142.174966041091
 31
0.0
  0
LINE
  5
    59
  8
0
  6
CONTINUOUS
 62
     7
 10
44.6835738885987
 20
173.499974856078
 30
0.0
 11
64.5817341804504
 21
173.499974856078
 31
0.0
  0
LINE
  5
    5A
  8
0
  6
CONTINUOUS
 62
     7
 10
62.5817341804504
 20
142.174966041091
 30
0.0
 11
62.5817341804504
 21
173.499974856078
 31
0.0
  0
LINE
  5
    5B
  8
0
  6
CONTINUOUS
 62
     7
 10
62.0607896624501
 20
145.129389302772
 30
0.0
 11
62.5817341804504
 21
142.174966041091
 31
0.0
  0
LINE
  5
    5C
  8
0
  6
CONTINUOUS
 62
     7
 10
62.5817341804504
 20
142.174966041091
 30
0.0
 11
63.1026786984508
 21
145.129389302772
 31
0.0
  0
LINE
  5
    5D
  8
0
  6
CONTINUOUS
 62
     7
 10
63.1026786984508
 20
170.545551594397
 30
0.0
 11
62.5817341804504
 21
173.499974856078
 31
0.0
  0
LINE
  5
    5E
  8
0
  6
CONTINUOUS
 62
     7
 10
62.5817341804504
 20
173.499974856078
 30
0.0
 11
62.0607896624501
 21
170.545551594397
 31
0.0
  0
ENDBLK
  5
    5F
  8
0
  6
CONTINUOUS
 62
     7
  0
BLOCK
  5
    60
  8
0
  6
CONTINUOUS
 62
     7
  2
*UDIM319
 70
    65
 10
0.0
 20
0.0
 30
0.0
  3
*UDIM319
  0
TEXT
  5
    61
  8
0
  6
CONTINUOUS
 62
     7
 10
-29.0744299888562
 20
88.3249999552984
 30
0.0
 40
3.00000002980232
  1
750
 50
90.0
 41
0.933333333333333
 72
     1
 11
-30.5744300037622
 21
92.2249999940395
 31
0.0
 73
     2
  0
LINE
  5
    62
  8
0
  6
CONTINUOUS
 62
     7
 10
-7.33515119552612
 20
-1.25
 30
0.0
 11
-30.0744299888611
 21
-1.25
 31
0.0
  0
LINE
  5
    63
  8
0
  6
CONTINUOUS
 62
     7
 10
-7.33515119552612
 20
186.25
 30
0.0
 11
-30.0744299888611
 21
186.25
 31
0.0
  0
LINE
  5
    64
  8
0
  6
CONTINUOUS
 62
     7
 10
-28.0744299888611
 20
-1.25
 30
0.0
 11
-28.0744299888611
 21
186.25
 31
0.0
  0
LINE
  5
    65
  8
0
  6
CONTINUOUS
 62
     7
 10
-28.5953745068614
 20
1.70442326168161
 30
0.0
 11
-28.0744299888611
 21
-1.25
 31
0.0
  0
LINE
  5
    66
  8
0
  6
CONTINUOUS
 62
     7
 10
-28.0744299888611
 20
-1.25
 30
0.0
 11
-27.5534854708607
 21
1.70442326168161
 31
0.0
  0
LINE
  5
    67
  8
0
  6
CONTINUOUS
 62
     7
 10
-27.5534854708607
 20
183.295576738318
 30
0.0
 11
-28.0744299888611
 21
186.25
 31
0.0
  0
LINE
  5
    68
  8
0
  6
CONTINUOUS
 62
     7
 10
-28.0744299888611
 20
186.25
 30
0.0
 11
-28.5953745068614
 21
183.295576738318
 31
0.0
  0
ENDBLK
  5
    69
  8
0
  6
CONTINUOUS
 62
     7
  0
BLOCK
  5
    6A
  8
0
  6
CONTINUOUS
 62
     7
  2
*UDIM320
 70
    65
 10
0.0
 20
0.0
 30
0.0
  3
*UDIM320
  0
TEXT
  5
    6B
  8
0
  6
CONTINUOUS
 62
     7
 10
-18.7669234275734
 20
61.1124861896001
 30
0.0
 40
3.00000002980232
  1
195,5
 50
90.0
 41
0.933333333333333
 72
     1
 11
-20.2669234424829
 21
67.8124862561567
 31
0.0
 73
     2
  0
LINE
  5
    6C
  8
0
  6
CONTINUOUS
 62
     7
 10
-13.5029322578476
 20
43.6749768753735
 30
0.0
 11
-19.7669234275818
 21
43.6749768753735
 31
0.0
  0
LINE
  5
    6D
  8
0
  6
CONTINUOUS
 62
     7
 10
-12.6029322578476
 20
92.5
 30
0.0
 11
-19.7669234275818
 21
92.5
 31
0.0
  0
LINE
  5
    6E
  8
0
  6
CONTINUOUS
 62
     7
 10
-17.7669234275818
 20
43.6749768753735
 30
0.0
 11
-17.7669234275818
 21
92.5
 31
0.0
  0
LINE
  5
    6F
  8
0
  6
CONTINUOUS
 62
     7
 10
-18.2878679455821
 20
46.6294001370551
 30
0.0
 11
-17.7669234275818
 21
43.6749768753735
 31
0.0
  0
LINE
  5
    70
  8
0
  6
CONTINUOUS
 62
     7
 10
-17.7669234275818
 20
43.6749768753735
 30
0.0
 11
-17.2459789095814
 21
46.6294001370551
 31
0.0
  0
LINE
  5
    71
  8
0
  6
CONTINUOUS
 62
     7
 10
-17.2459789095814
 20
89.5455767383184
 30
0.0
 11
-17.7669234275818
 21
92.5
 31
0.0
  0
LINE
  5
    72
  8
0
  6
CONTINUOUS
 62
     7
 10
-17.7669234275818
 20
92.5
 30
0.0
 11
-18.2878679455821
 21
89.5455767383184
 31
0.0
  0
ENDBLK
  5
    73
  8
0
  6
CONTINUOUS
 62
     7
  0
BLOCK
  5
    74
  8
0
  6
CONTINUOUS
 62
     7
  2
*UDIM321
 70
    65
 10
0.0
 20
0.0
 30
0.0
  3
*UDIM321
  0
TEXT
  5
    75
  8
0
  6
CONTINUOUS
 62
     7
 10
-18.7669234275734
 20
110.362478567087
 30
0.0
 40
3.00000002980232
  1
198,5
 50
90.0
 41
0.933333333333333
 72
     1
 11
-20.2669234424829
 21
117.062478633644
 31
0.0
 73
     2
  0
LINE
  5
    76
  8
0
  6
CONTINUOUS
 62
     7
 10
-12.6029322578476
 20
142.174966041091
 30
0.0
 11
-19.7669234275818
 21
142.174966041091
 31
0.0
  0
LINE
  5
    77
  8
0
  6
CONTINUOUS
 62
     7
 10
-17.7669234275818
 20
92.5
 30
0.0
 11
-17.7669234275818
 21
142.174966041091
 31
0.0
  0
LINE
  5
    78
  8
0
  6
CONTINUOUS
 62
     7
 10
-18.2878679455821
 20
95.4544232616816
 30
0.0
 11
-17.7669234275818
 21
92.5
 31
0.0
  0
LINE
  5
    79
  8
0
  6
CONTINUOUS
 62
     7
 10
-17.7669234275818
 20
92.5
 30
0.0
 11
-17.2459789095814
 21
95.4544232616816
 31
0.0
  0
LINE
  5
    7A
  8
0
  6
CONTINUOUS
 62
     7
 10
-17.2459789095814
 20
139.220542779409
 30
0.0
 11
-17.7669234275818
 21
142.174966041091
 31
0.0
  0
LINE
  5
    7B
  8
0
  6
CONTINUOUS
 62
     7
 10
-17.7669234275818
 20
142.174966041091
 30
0.0
 11
-18.2878679455821
 21
139.220542779409
 31
0.0
  0
ENDBLK
  5
    7C
  8
0
  6
CONTINUOUS
 62
     7
  0
BLOCK
  5
    7D
  8
0
  6
CONTINUOUS
 62
     7
  2
*UDIM322
 70
    65
 10
0.0
 20
0.0
 30
0.0
  3
*UDIM322
  0
TEXT
  5
    7E
  8
0
  6
CONTINUOUS
 62
     7
 10
-124.96794808761
 20
-12.7631711912036
 30
0.0
 40
3.00000002980232
  1
27,5
 50
359.999999948034
 41
0.933333333333333
 72
     1
 11
-119.667948033607
 21
-11.2631711810827
 31
0.0
 73
     2
  0
LINE
  5
    7F
  8
0
  6
CONTINUOUS
 62
     7
 10
-112.89768960694
 20
29.5625165557387
 30
0.0
 11
-112.89768960694
 21
-15.7631711959839
 31
0.0
  0
LINE
  5
    80
  8
0
  6
CONTINUOUS
 62
     7
 10
-119.77268960694
 20
29.5625165557387
 30
0.0
 11
-119.77268960694
 21
-15.7631711959839
 31
0.0
  0
LINE
  5
    81
  8
0
  6
CONTINUOUS
 62
     7
 10
-112.89768960694
 20
-13.7631711959839
 30
0.0
 11
-124.967948086258
 21
-13.7631711959839
 31
0.0
  0
LINE
  5
    82
  8
0
  6
CONTINUOUS
 62
     7
 10
-109.943266345259
 20
-13.2422266779836
 30
0.0
 11
-112.89768960694
 21
-13.7631711959839
 31
0.0
  0
LINE
  5
    83
  8
0
  6
CONTINUOUS
 62
     7
 10
-112.89768960694
 20
-13.7631711959839
 30
0.0
 11
-109.943266345259
 21
-14.2841157139842
 31
0.0
  0
LINE
  5
    84
  8
0
  6
CONTINUOUS
 62
     7
 10
-122.727112868622
 20
-14.2841157139842
 30
0.0
 11
-119.77268960694
 21
-13.7631711959839
 31
0.0
  0
LINE
  5
    85
  8
0
  6
CONTINUOUS
 62
     7
 10
-119.77268960694
 20
-13.7631711959839
 30
0.0
 11
-122.727112868622
 21
-13.2422266779836
 31
0.0
  0
ENDBLK
  5
    86
  8
0
  6
CONTINUOUS
 62
     7
  0
BLOCK
  5
    87
  8
0
  6
CONTINUOUS
 62
     7
  2
*UDIM323
 70
    65
 10
0.0
 20
0.0
 30
0.0
  3
*UDIM323
  0
TEXT
  5
    88
  8
0
  6
CONTINUOUS
 62
     7
 10
-87.8530758196717
 20
-12.7631711924663
 30
0.0
 40
3.00000002980232
  1
275
 50
359.999999948034
 41
0.933333333333333
 72
     1
 11
-83.9530757795757
 21
-11.2631711810827
 31
0.0
 73
     2
  0
LINE
  5
    89
  8
0
  6
CONTINUOUS
 62
     7
 10
-59.9584617614762
 20
-2.25
 30
0.0
 11
-59.9584617614762
 21
-15.7631711959839
 31
0.0
  0
LINE
  5
    8A
  8
0
  6
CONTINUOUS
 62
     7
 10
-112.89768960694
 20
29.5625165557387
 30
0.0
 11
-112.89768960694
 21
-15.7631711959839
 31
0.0
  0
LINE
  5
    8B
  8
0
  6
CONTINUOUS
 62
     7
 10
-59.9584617614762
 20
-13.7631711959839
 30
0.0
 11
-112.89768960694
 21
-13.7631711959839
 31
0.0
  0
LINE
  5
    8C
  8
0
  6
CONTINUOUS
 62
     7
 10
-62.9128850231578
 20
-14.2841157139842
 30
0.0
 11
-59.9584617614762
 21
-13.7631711959839
 31
0.0
  0
LINE
  5
    8D
  8
0
  6
CONTINUOUS
 62
     7
 10
-59.9584617614762
 20
-13.7631711959839
 30
0.0
 11
-62.9128850231578
 21
-13.2422266779836
 31
0.0
  0
LINE
  5
    8E
  8
0
  6
CONTINUOUS
 62
     7
 10
-109.943266345259
 20
-13.2422266779836
 30
0.0
 11
-112.89768960694
 21
-13.7631711959839
 31
0.0
  0
LINE
  5
    8F
  8
0
  6
CONTINUOUS
 62
     7
 10
-112.89768960694
 20
-13.7631711959839
 30
0.0
 11
-109.943266345259
 21
-14.2841157139842
 31
0.0
  0
ENDBLK
  5
    90
  8
0
  6
CONTINUOUS
 62
     7
  0
BLOCK
  5
    91
  8
0
  6
CONTINUOUS
 62
     7
  2
*UDIM324
 70
    65
 10
0.0
 20
0.0
 30
0.0
  3
*UDIM324
  0
TEXT
  5
    92
  8
0
  6
CONTINUOUS
 62
     7
 10
-54.608461793624
 20
200.590728762021
 30
0.0
 40
3.00000002980232
  1
65
 50
359.999999948034
 41
0.933333333333333
 72
     1
 11
-52.1084617674359
 21
202.090728774667
 31
0.0
 73
     2
  0
LINE
  5
    93
  8
0
  6
CONTINUOUS
 62
     7
 10
-43.7084617614746
 20
191.589284018869
 30
0.0
 11
-43.7084617614746
 21
201.590728759766
 31
0.0
  0
LINE
  5
    94
  8
0
  6
CONTINUOUS
 62
     7
 10
-59.9584617614762
 20
187.25
 30
0.0
 11
-59.9584617614762
 21
201.590728759766
 31
0.0
  0
LINE
  5
    95
  8
0
  6
CONTINUOUS
 62
     7
 10
-43.7084617614746
 20
199.590728759766
 30
0.0
 11
-59.9584617614762
 21
199.590728759766
 31
0.0
  0
LINE
  5
    96
  8
0
  6
CONTINUOUS
 62
     7
 10
-46.6628850231562
 20
199.069784241765
 30
0.0
 11
-43.7084617614746
 21
199.590728759766
 31
0.0
  0
LINE
  5
    97
  8
0
  6
CONTINUOUS
 62
     7
 10
-43.7084617614746
 20
199.590728759766
 30
0.0
 11
-46.6628850231562
 21
200.111673277766
 31
0.0
  0
LINE
  5
    98
  8
0
  6
CONTINUOUS
 62
     7
 10
-57.0040384997946
 20
200.111673277766
 30
0.0
 11
-59.9584617614762
 21
199.590728759766
 31
0.0
  0
LINE
  5
    99
  8
0
  6
CONTINUOUS
 62
     7
 10
-59.9584617614762
 20
199.590728759766
 30
0.0
 11
-57.0040384997946
 21
199.069784241765
 31
0.0
  0
ENDBLK
  5
    9A
  8
0
  6
CONTINUOUS
 62
     7
  0
BLOCK
  5
    9B
  8
0
  6
CONTINUOUS
 62
     7
  2
*UDIM325
 70
    65
 10
0.0
 20
0.0
 30
0.0
  3
*UDIM325
  0
TEXT
  5
    9C
  8
0
  6
CONTINUOUS
 62
     7
 10
-79.870961835348
 20
200.590728765809
 30
0.0
 40
3.00000002980232
  1
103,5
 50
359.999999948034
 41
0.933333333333333
 72
     1
 11
-73.1709617674366
 21
202.090728774667
 31
0.0
 73
     2
  0
LINE
  5
    9D
  8
0
  6
CONTINUOUS
 62
     7
 10
-85.8334579467789
 20
156.312495804216
 30
0.0
 11
-85.8334579467789
 21
201.590728759766
 31
0.0
  0
LINE
  5
    9E
  8
0
  6
CONTINUOUS
 62
     7
 10
-59.9584617614762
 20
199.590728759766
 30
0.0
 11
-85.8334579467789
 21
199.590728759766
 31
0.0
  0
LINE
  5
    9F
  8
0
  6
CONTINUOUS
 62
     7
 10
-62.9128850231578
 20
199.069784241765
 30
0.0
 11
-59.9584617614762
 21
199.590728759766
 31
0.0
  0
LINE
  5
    A0
  8
0
  6
CONTINUOUS
 62
     7
 10
-59.9584617614762
 20
199.590728759766
 30
0.0
 11
-62.9128850231578
 21
200.111673277766
 31
0.0
  0
LINE
  5
    A1
  8
0
  6
CONTINUOUS
 62
     7
 10
-82.8790346850973
 20
200.111673277766
 30
0.0
 11
-85.8334579467789
 21
199.590728759766
 31
0.0
  0
LINE
  5
    A2
  8
0
  6
CONTINUOUS
 62
     7
 10
-85.8334579467789
 20
199.590728759766
 30
0.0
 11
-82.8790346850973
 21
199.069784241765
 31
0.0
  0
ENDBLK
  5
    A3
  8
0
  6
CONTINUOUS
 62
     7
  0
BLOCK
  5
    A4
  8
0
  6
CONTINUOUS
 62
     7
  2
*UDIM326
 70
    65
 10
0.0
 20
0.0
 30
0.0
  3
*UDIM326
  0
TEXT
  5
    A5
  8
0
  6
CONTINUOUS
 62
     7
 10
-124.331878665642
 20
39.5125228575713
 30
0.0
 40
3.00000002980232
  1
105
 50
89.9999999480344
 41
0.933333333333333
 72
     1
 11
-125.831878677011
 21
43.4125228976729
 31
0.0
 73
     2
  0
LINE
  5
    A6
  8
0
  6
CONTINUOUS
 62
     7
 10
-113.58518960694
 20
30.5625165557387
 30
0.0
 11
-125.331878662109
 21
30.5625165557387
 31
0.0
  0
LINE
  5
    A7
  8
0
  6
CONTINUOUS
 62
     7
 10
-113.58518960694
 20
56.8125289535048
 30
0.0
 11
-125.331878662109
 21
56.8125289535048
 31
0.0
  0
LINE
  5
    A8
  8
0
  6
CONTINUOUS
 62
     7
 10
-123.331878662109
 20
30.5625165557387
 30
0.0
 11
-123.331878662109
 21
56.8125289535048
 31
0.0
  0
LINE
  5
    A9
  8
0
  6
CONTINUOUS
 62
     7
 10
-123.85282318011
 20
33.5169398174203
 30
0.0
 11
-123.331878662109
 21
30.5625165557387
 31
0.0
  0
LINE
  5
    AA
  8
0
  6
CONTINUOUS
 62
     7
 10
-123.331878662109
 20
30.5625165557387
 30
0.0
 11
-122.810934144109
 21
33.5169398174203
 31
0.0
  0
LINE
  5
    AB
  8
0
  6
CONTINUOUS
 62
     7
 10
-122.810934144109
 20
53.8581056918232
 30
0.0
 11
-123.331878662109
 21
56.8125289535048
 31
0.0
  0
LINE
  5
    AC
  8
0
  6
CONTINUOUS
 62
     7
 10
-123.331878662109
 20
56.8125289535048
 30
0.0
 11
-123.85282318011
 21
53.8581056918232
 31
0.0
  0
ENDBLK
  5
    AD
  8
0
  6
CONTINUOUS
 62
     7
  0
BLOCK
  5
    AE
  8
0
  6
CONTINUOUS
 62
     7
  2
*UDIM327
 70
    65
 10
0.0
 20
0.0
 30
0.0
  3
*UDIM327
  0
TEXT
  5
    AF
  8
0
  6
CONTINUOUS
 62
     7
 10
-102.682014468864
 20
138.012499960282
 30
0.0
 40
3.00000002980232
  1
105
 50
89.9999999480344
 41
0.933333333333333
 72
     1
 11
-104.182014480233
 21
141.912500000383
 31
0.0
 73
     2
  0
LINE
  5
    B0
  8
0
  6
CONTINUOUS
 62
     7
 10
-89.0834579467789
 20
129.062503433611
 30
0.0
 11
-103.682014465332
 21
129.062503433611
 31
0.0
  0
LINE
  5
    B1
  8
0
  6
CONTINUOUS
 62
     7
 10
-89.0834579467789
 20
155.312495804216
 30
0.0
 11
-103.682014465332
 21
155.312495804216
 31
0.0
  0
LINE
  5
    B2
  8
0
  6
CONTINUOUS
 62
     7
 10
-101.682014465332
 20
129.062503433611
 30
0.0
 11
-101.682014465332
 21
155.312495804216
 31
0.0
  0
LINE
  5
    B3
  8
0
  6
CONTINUOUS
 62
     7
 10
-102.202958983332
 20
132.016926695293
 30
0.0
 11
-101.682014465332
 21
129.062503433611
 31
0.0
  0
LINE
  5
    B4
  8
0
  6
CONTINUOUS
 62
     7
 10
-101.682014465332
 20
129.062503433611
 30
0.0
 11
-101.161069947332
 21
132.016926695293
 31
0.0
  0
LINE
  5
    B5
  8
0
  6
CONTINUOUS
 62
     7
 10
-101.161069947332
 20
152.358072542535
 30
0.0
 11
-101.682014465332
 21
155.312495804216
 31
0.0
  0
LINE
  5
    B6
  8
0
  6
CONTINUOUS
 62
     7
 10
-101.682014465332
 20
155.312495804216
 30
0.0
 11
-102.202958983332
 21
152.358072542535
 31
0.0
  0
ENDBLK
  5
    B7
  8
0
  6
CONTINUOUS
 62
     7
  0
BLOCK
  5
    B8
  8
0
  6
CONTINUOUS
 62
     7
  2
*UDIM328
 70
    65
 10
0.0
 20
0.0
 30
0.0
  3
*UDIM328
  0
TEXT
  5
    B9
  8
0
  6
CONTINUOUS
 62
     7
 10
168.146365275011
 20
88.5999999598984
 30
0.0
 40
3.00000002980232
  1
490
 50
89.9999999480344
 41
0.933333333333333
 72
     1
 11
166.646365263642
 21
92.5
 31
0.0
 73
     2
  0
LINE
  5
    BA
  8
0
  6
CONTINUOUS
 62
     7
 10
158.87784158148
 20
31.25
 30
0.0
 11
171.146365278543
 21
31.25
 31
0.0
  0
LINE
  5
    BB
  8
0
  6
CONTINUOUS
 62
     7
 10
152.023256518859
 20
153.75
 30
0.0
 11
171.146365278543
 21
153.75
 31
0.0
  0
LINE
  5
    BC
  8
0
  6
CONTINUOUS
 62
     7
 10
169.146365278543
 20
31.25
 30
0.0
 11
169.146365278543
 21
153.75
 31
0.0
  0
LINE
  5
    BD
  8
0
  6
CONTINUOUS
 62
     7
 10
168.369908122125
 20
34.1477774732105
 30
0.0
 11
169.146365278543
 21
31.25
 31
0.0
  0
LINE
  5
    BE
  8
0
  6
CONTINUOUS
 62
     7
 10
169.146365278543
 20
31.25
 30
0.0
 11
169.922822434962
 21
34.1477774732105
 31
0.0
  0
LINE
  5
    BF
  8
0
  6
CONTINUOUS
 62
     7
 10
169.922822434962
 20
150.852222526789
 30
0.0
 11
169.146365278543
 21
153.75
 31
0.0
  0
LINE
  5
    C0
  8
0
  6
CONTINUOUS
 62
     7
 10
169.146365278543
 20
153.75
 30
0.0
 11
168.369908122125
 21
150.852222526789
 31
0.0
  0
ENDBLK
  5
    C1
  8
0
  6
CONTINUOUS
 62
     7
  0
BLOCK
  5
    C2
  8
0
  6
CONTINUOUS
 62
     7
  2
*UDIM329
 70
    65
 10
0.0
 20
0.0
 30
0.0
  3
*UDIM329
  0
TEXT
  5
    C3
  8
0
  6
CONTINUOUS
 62
     7
 10
168.146365277547
 20
162.112180125348
 30
0.0
 40
3.00000002980232
  1
9
 50
89.9999999480344
 41
0.933333333333334
 72
     1
 11
166.646365263642
 21
163.212180137634
 31
0.0
 73
     2
  0
LINE
  5
    C4
  8
0
  6
CONTINUOUS
 62
     7
 10
151.068340301514
 20
156.0
 30
0.0
 11
171.146365278543
 21
156.0
 31
0.0
  0
LINE
  5
    C5
  8
0
  6
CONTINUOUS
 62
     7
 10
169.146365278543
 20
153.75
 30
0.0
 11
169.146365278543
 21
164.312180148562
 31
0.0
  0
LINE
  5
    C6
  8
0
  6
CONTINUOUS
 62
     7
 10
169.922822434962
 20
150.852222526789
 30
0.0
 11
169.146365278543
 21
153.75
 31
0.0
  0
LINE
  5
    C7
  8
0
  6
CONTINUOUS
 62
     7
 10
169.146365278543
 20
153.75
 30
0.0
 11
168.369908122125
 21
150.852222526789
 31
0.0
  0
LINE
  5
    C8
  8
0
  6
CONTINUOUS
 62
     7
 10
168.369908122125
 20
158.897777473211
 30
0.0
 11
169.146365278543
 21
156.0
 31
0.0
  0
LINE
  5
    C9
  8
0
  6
CONTINUOUS
 62
     7
 10
169.146365278543
 20
156.0
 30
0.0
 11
169.922822434962
 21
158.897777473211
 31
0.0
  0
ENDBLK
  5
    CA
  8
0
  6
CONTINUOUS
 62
     7
  0
BLOCK
  5
    CB
  8
0
  6
CONTINUOUS
 62
     7
  2
*UDIM330
 70
    65
 10
0.0
 20
0.0
 30
0.0
  3
*UDIM330
  0
TEXT
  5
    CC
  8
0
  6
CONTINUOUS
 62
     7
 10
168.146365277547
 20
19.2687114592715
 30
0.0
 40
3.00000002980232
  1
9
 50
89.9999999480344
 41
0.933333333333334
 72
     1
 11
166.646365263642
 21
20.3687114715576
 31
0.0
 73
     2
  0
LINE
  5
    CD
  8
0
  6
CONTINUOUS
 62
     7
 10
151.068340301514
 20
29.0
 30
0.0
 11
171.146365278543
 21
29.0
 31
0.0
  0
LINE
  5
    CE
  8
0
  6
CONTINUOUS
 62
     7
 10
169.146365278543
 20
19.2687114606301
 30
0.0
 11
169.146365278543
 21
31.25
 31
0.0
  0
LINE
  5
    CF
  8
0
  6
CONTINUOUS
 62
     7
 10
169.922822434962
 20
26.1022225267895
 30
0.0
 11
169.146365278543
 21
29.0
 31
0.0
  0
LINE
  5
    D0
  8
0
  6
CONTINUOUS
 62
     7
 10
169.146365278543
 20
29.0
 30
0.0
 11
168.369908122125
 21
26.1022225267895
 31
0.0
  0
LINE
  5
    D1
  8
0
  6
CONTINUOUS
 62
     7
 10
168.369908122125
 20
34.1477774732105
 30
0.0
 11
169.146365278543
 21
31.25
 31
0.0
  0
LINE
  5
    D2
  8
0
  6
CONTINUOUS
 62
     7
 10
169.146365278543
 20
31.25
 30
0.0
 11
169.922822434962
 21
34.1477774732105
 31
0.0
  0
ENDBLK
  5
    D3
  8
0
  6
CONTINUOUS
 62
     7
  0
BLOCK
  5
    D4
  8
0
  6
CONTINUOUS
 62
     7
  2
*UDIM331
 70
    65
 10
0.0
 20
0.0
 30
0.0
  3
*UDIM331
  0
TEXT
  5
    D5
  8
0
  6
CONTINUOUS
 62
     7
 10
110.33084024751
 20
166.093467206232
 30
0.0
 40
3.00000002980232
  1
98,5
 50
359.999999948034
 41
0.933333333333333
 72
     1
 11
115.630840301514
 21
167.593467216353
 31
0.0
 73
     2
  0
LINE
  5
    D6
  8
0
  6
CONTINUOUS
 62
     7
 10
127.943340301514
 20
165.093467201452
 30
0.0
 11
103.318340301514
 21
165.093467201452
 31
0.0
  0
LINE
  5
    D7
  8
0
  6
CONTINUOUS
 62
     7
 10
125.045562828303
 20
164.317010045033
 30
0.0
 11
127.943340301514
 21
165.093467201452
 31
0.0
  0
LINE
  5
    D8
  8
0
  6
CONTINUOUS
 62
     7
 10
127.943340301514
 20
165.093467201452
 30
0.0
 11
125.045562828303
 21
165.86992435787
 31
0.0
  0
LINE
  5
    D9
  8
0
  6
CONTINUOUS
 62
     7
 10
106.216117774724
 20
165.86992435787
 30
0.0
 11
103.318340301514
 21
165.093467201452
 31
0.0
  0
LINE
  5
    DA
  8
0
  6
CONTINUOUS
 62
     7
 10
103.318340301514
 20
165.093467201452
 30
0.0
 11
106.216117774724
 21
164.317010045033
 31
0.0
  0
ENDBLK
  5
    DB
  8
0
  6
CONTINUOUS
 62
     7
  0
BLOCK
  5
    DC
  8
0
  6
CONTINUOUS
 62
     7
  2
*UDIM332
 70
    65
 10
0.0
 20
0.0
 30
0.0
  3
*UDIM332
  0
TEXT
  5
    DD
  8
0
  6
CONTINUOUS
 62
     7
 10
94.3940624114256
 20
195.387800273699
 30
0.0
 40
3.00000002980232
  1
2
 50
359.999999948034
 41
0.933333333333334
 72
     1
 11
95.4940624237061
 21
196.887800287608
 31
0.0
 73
     2
  0
LINE
  5
    DE
  8
0
  6
CONTINUOUS
 62
     7
 10
103.318340301514
 20
180.0
 30
0.0
 11
103.318340301514
 21
196.387800272707
 31
0.0
  0
LINE
  5
    DF
  8
0
  6
CONTINUOUS
 62
     7
 10
102.818340301514
 20
186.239768890856
 30
0.0
 11
102.818340301514
 21
196.387800272707
 31
0.0
  0
LINE
  5
    E0
  8
0
  6
CONTINUOUS
 62
     7
 10
103.318340301514
 20
194.387800272707
 30
0.0
 11
94.3940624127785
 21
194.387800272707
 31
0.0
  0
LINE
  5
    E1
  8
0
  6
CONTINUOUS
 62
     7
 10
106.216117774724
 20
195.164257429125
 30
0.0
 11
103.318340301514
 21
194.387800272707
 31
0.0
  0
LINE
  5
    E2
  8
0
  6
CONTINUOUS
 62
     7
 10
103.318340301514
 20
194.387800272707
 30
0.0
 11
106.216117774724
 21
193.611343116288
 31
0.0
  0
LINE
  5
    E3
  8
0
  6
CONTINUOUS
 62
     7
 10
99.9205628283031
 20
193.611343116288
 30
0.0
 11
102.818340301514
 21
194.387800272707
 31
0.0
  0
LINE
  5
    E4
  8
0
  6
CONTINUOUS
 62
     7
 10
102.818340301514
 20
194.387800272707
 30
0.0
 11
99.9205628283031
 21
195.164257429125
 31
0.0
  0
ENDBLK
  5
    E5
  8
0
  6
CONTINUOUS
 62
     7
  0
BLOCK
  5
    E6
  8
0
  6
CONTINUOUS
 62
     7
  2
*UDIM333
 70
    65
 10
0.0
 20
0.0
 30
0.0
  3
*UDIM333
  0
TEXT
  5
    E7
  8
0
  6
CONTINUOUS
 62
     7
 10
116.185177381474
 20
195.387800276224
 30
0.0
 40
3.00000002980232
  1
202
 50
359.999999948034
 41
0.933333333333333
 72
     1
 11
120.08517742157
 21
196.887800287608
 31
0.0
 73
     2
  0
LINE
  5
    E8
  8
0
  6
CONTINUOUS
 62
     7
 10
153.818340301514
 20
180.0
 30
0.0
 11
153.818340301514
 21
196.387800272707
 31
0.0
  0
LINE
  5
    E9
  8
0
  6
CONTINUOUS
 62
     7
 10
153.818340301514
 20
194.387800272707
 30
0.0
 11
103.318340301514
 21
194.387800272707
 31
0.0
  0
LINE
  5
    EA
  8
0
  6
CONTINUOUS
 62
     7
 10
150.920562828303
 20
193.611343116288
 30
0.0
 11
153.818340301514
 21
194.387800272707
 31
0.0
  0
LINE
  5
    EB
  8
0
  6
CONTINUOUS
 62
     7
 10
153.818340301514
 20
194.387800272707
 30
0.0
 11
150.920562828303
 21
195.164257429125
 31
0.0
  0
LINE
  5
    EC
  8
0
  6
CONTINUOUS
 62
     7
 10
106.216117774724
 20
195.164257429125
 30
0.0
 11
103.318340301514
 21
194.387800272707
 31
0.0
  0
LINE
  5
    ED
  8
0
  6
CONTINUOUS
 62
     7
 10
103.318340301514
 20
194.387800272707
 30
0.0
 11
106.216117774724
 21
193.611343116288
 31
0.0
  0
ENDBLK
  5
    EE
  8
0
  6
CONTINUOUS
 62
     7
  0
BLOCK
  5
    EF
  8
0
  6
CONTINUOUS
 62
     7
  2
*UDIM334
 70
    65
 10
0.0
 20
0.0
 30
0.0
  3
*UDIM334
  0
TEXT
  5
    F0
  8
0
  6
CONTINUOUS
 62
     7
 10
88.4470672572099
 20
165.474999959898
 30
0.0
 40
3.00000002980232
  1
107
 50
89.9999999480344
 41
0.933333333333333
 72
     1
 11
86.947067245841
 21
169.375
 31
0.0
 73
     2
  0
LINE
  5
    F1
  8
0
  6
CONTINUOUS
 62
     7
 10
106.068340301514
 20
156.0
 30
0.0
 11
87.4470672607422
 21
156.0
 31
0.0
  0
LINE
  5
    F2
  8
0
  6
CONTINUOUS
 62
     7
 10
106.068340301514
 20
182.75
 30
0.0
 11
87.4470672607422
 21
182.75
 31
0.0
  0
LINE
  5
    F3
  8
0
  6
CONTINUOUS
 62
     7
 10
89.4470672607422
 20
156.0
 30
0.0
 11
89.4470672607422
 21
182.75
 31
0.0
  0
LINE
  5
    F4
  8
0
  6
CONTINUOUS
 62
     7
 10
88.6706101043236
 20
158.897777473211
 30
0.0
 11
89.4470672607422
 21
156.0
 31
0.0
  0
LINE
  5
    F5
  8
0
  6
CONTINUOUS
 62
     7
 10
89.4470672607422
 20
156.0
 30
0.0
 11
90.2235244171607
 21
158.897777473211
 31
0.0
  0
LINE
  5
    F6
  8
0
  6
CONTINUOUS
 62
     7
 10
90.2235244171607
 20
179.852222526789
 30
0.0
 11
89.4470672607422
 21
182.75
 31
0.0
  0
LINE
  5
    F7
  8
0
  6
CONTINUOUS
 62
     7
 10
89.4470672607422
 20
182.75
 30
0.0
 11
88.6706101043236
 21
179.852222526789
 31
0.0
  0
ENDBLK
  5
    F8
  8
0
  6
CONTINUOUS
 62
     7
  0
BLOCK
  5
    F9
  8
0
  6
CONTINUOUS
 62
     7
  2
*UDIM335
 70
    65
 10
0.0
 20
0.0
 30
0.0
  3
*UDIM335
  0
TEXT
  5
    FA
  8
0
  6
CONTINUOUS
 62
     7
 10
88.4470672572099
 20
137.849999959898
 30
0.0
 40
3.00000002980232
  1
114
 50
89.9999999480344
 41
0.933333333333333
 72
     1
 11
86.947067245841
 21
141.75
 31
0.0
 73
     2
  0
LINE
  5
    FB
  8
0
  6
CONTINUOUS
 62
     7
 10
106.068340301514
 20
127.5
 30
0.0
 11
87.4470672607422
 21
127.5
 31
0.0
  0
LINE
  5
    FC
  8
0
  6
CONTINUOUS
 62
     7
 10
89.4470672607422
 20
127.5
 30
0.0
 11
89.4470672607422
 21
156.0
 31
0.0
  0
LINE
  5
    FD
  8
0
  6
CONTINUOUS
 62
     7
 10
88.6706101043236
 20
130.397777473211
 30
0.0
 11
89.4470672607422
 21
127.5
 31
0.0
  0
LINE
  5
    FE
  8
0
  6
CONTINUOUS
 62
     7
 10
89.4470672607422
 20
127.5
 30
0.0
 11
90.2235244171607
 21
130.397777473211
 31
0.0
  0
LINE
  5
    FF
  8
0
  6
CONTINUOUS
 62
     7
 10
90.2235244171607
 20
153.102222526789
 30
0.0
 11
89.4470672607422
 21
156.0
 31
0.0
  0
LINE
  5
   100
  8
0
  6
CONTINUOUS
 62
     7
 10
89.4470672607422
 20
156.0
 30
0.0
 11
88.6706101043236
 21
153.102222526789
 31
0.0
  0
ENDBLK
  5
   101
  8
0
  6
CONTINUOUS
 62
     7
  0
BLOCK
  5
   102
  8
0
  6
CONTINUOUS
 62
     7
  2
*UDIM336
 70
    65
 10
0.0
 20
0.0
 30
0.0
  3
*UDIM336
  0
TEXT
  5
   103
  8
0
  6
CONTINUOUS
 62
     7
 10
88.4470672572099
 20
110.224999959898
 30
0.0
 40
3.00000002980232
  1
107
 50
89.9999999480344
 41
0.933333333333333
 72
     1
 11
86.947067245841
 21
114.125
 31
0.0
 73
     2
  0
LINE
  5
   104
  8
0
  6
CONTINUOUS
 62
     7
 10
106.068340301514
 20
100.75
 30
0.0
 11
87.4470672607422
 21
100.75
 31
0.0
  0
LINE
  5
   105
  8
0
  6
CONTINUOUS
 62
     7
 10
89.4470672607422
 20
100.75
 30
0.0
 11
89.4470672607422
 21
127.5
 31
0.0
  0
LINE
  5
   106
  8
0
  6
CONTINUOUS
 62
     7
 10
88.6706101043236
 20
103.647777473211
 30
0.0
 11
89.4470672607422
 21
100.75
 31
0.0
  0
LINE
  5
   107
  8
0
  6
CONTINUOUS
 62
     7
 10
89.4470672607422
 20
100.75
 30
0.0
 11
90.2235244171607
 21
103.647777473211
 31
0.0
  0
LINE
  5
   108
  8
0
  6
CONTINUOUS
 62
     7
 10
90.2235244171607
 20
124.602222526789
 30
0.0
 11
89.4470672607422
 21
127.5
 31
0.0
  0
LINE
  5
   109
  8
0
  6
CONTINUOUS
 62
     7
 10
89.4470672607422
 20
127.5
 30
0.0
 11
88.6706101043236
 21
124.602222526789
 31
0.0
  0
ENDBLK
  5
   10A
  8
0
  6
CONTINUOUS
 62
     7
  0
BLOCK
  5
   10B
  8
0
  6
CONTINUOUS
 62
     7
  2
*UDIM337
 70
    65
 10
0.0
 20
0.0
 30
0.0
  3
*UDIM337
  0
TEXT
  5
   10C
  8
0
  6
CONTINUOUS
 62
     7
 10
88.4470672584779
 20
89.9999999738062
 30
0.0
 40
3.00000002980232
  1
66
 50
89.9999999480344
 41
0.933333333333333
 72
     1
 11
86.947067245841
 21
92.5
 31
0.0
 73
     2
  0
TEXT
  5
   10D
  8
0
  6
CONTINUOUS
 62
     7
 10
92.9470672551419
 20
86.3166666650817
 30
0.0
 40
3.5
  1
=  =
 50
89.9999999480344
 41
0.933333333333333
 72
     1
 11
91.1970672607422
 21
92.5
 31
0.0
 73
     2
  0
LINE
  5
   10E
  8
0
  6
CONTINUOUS
 62
     7
 10
106.068340301514
 20
84.25
 30
0.0
 11
87.4470672607422
 21
84.25
 31
0.0
  0
LINE
  5
   10F
  8
0
  6
CONTINUOUS
 62
     7
 10
89.4470672607422
 20
84.25
 30
0.0
 11
89.4470672607422
 21
100.75
 31
0.0
  0
LINE
  5
   110
  8
0
  6
CONTINUOUS
 62
     7
 10
90.2235244171607
 20
81.3522225267895
 30
0.0
 11
89.4470672607422
 21
84.25
 31
0.0
  0
LINE
  5
   111
  8
0
  6
CONTINUOUS
 62
     7
 10
89.4470672607422
 20
84.25
 30
0.0
 11
88.6706101043236
 21
81.3522225267895
 31
0.0
  0
LINE
  5
   112
  8
0
  6
CONTINUOUS
 62
     7
 10
88.6706101043236
 20
103.647777473211
 30
0.0
 11
89.4470672607422
 21
100.75
 31
0.0
  0
LINE
  5
   113
  8
0
  6
CONTINUOUS
 62
     7
 10
89.4470672607422
 20
100.75
 30
0.0
 11
90.2235244171607
 21
103.647777473211
 31
0.0
  0
ENDBLK
  5
   114
  8
0
  6
CONTINUOUS
 62
     7
  0
BLOCK
  5
   115
  8
0
  6
CONTINUOUS
 62
     7
  2
*UDIM338
 70
    65
 10
0.0
 20
0.0
 30
0.0
  3
*UDIM338
  0
TEXT
  5
   116
  8
0
  6
CONTINUOUS
 62
     7
 10
88.4470672572099
 20
66.9749999598984
 30
0.0
 40
3.00000002980232
  1
107
 50
89.9999999480344
 41
0.933333333333333
 72
     1
 11
86.947067245841
 21
70.875
 31
0.0
 73
     2
  0
LINE
  5
   117
  8
0
  6
CONTINUOUS
 62
     7
 10
106.068340301514
 20
57.5
 30
0.0
 11
87.4470672607422
 21
57.5
 31
0.0
  0
LINE
  5
   118
  8
0
  6
CONTINUOUS
 62
     7
 10
89.4470672607422
 20
57.5
 30
0.0
 11
89.4470672607422
 21
84.25
 31
0.0
  0
LINE
  5
   119
  8
0
  6
CONTINUOUS
 62
     7
 10
88.6706101043236
 20
60.3977774732105
 30
0.0
 11
89.4470672607422
 21
57.5
 31
0.0
  0
LINE
  5
   11A
  8
0
  6
CONTINUOUS
 62
     7
 10
89.4470672607422
 20
57.5
 30
0.0
 11
90.2235244171607
 21
60.3977774732105
 31
0.0
  0
LINE
  5
   11B
  8
0
  6
CONTINUOUS
 62
     7
 10
90.2235244171607
 20
81.3522225267895
 30
0.0
 11
89.4470672607422
 21
84.25
 31
0.0
  0
LINE
  5
   11C
  8
0
  6
CONTINUOUS
 62
     7
 10
89.4470672607422
 20
84.25
 30
0.0
 11
88.6706101043236
 21
81.3522225267895
 31
0.0
  0
ENDBLK
  5
   11D
  8
0
  6
CONTINUOUS
 62
     7
  0
BLOCK
  5
   11E
  8
0
  6
CONTINUOUS
 62
     7
  2
*UDIM339
 70
    65
 10
0.0
 20
0.0
 30
0.0
  3
*UDIM339
  0
TEXT
  5
   11F
  8
0
  6
CONTINUOUS
 62
     7
 10
88.4470672572099
 20
39.3499999598984
 30
0.0
 40
3.00000002980232
  1
114
 50
89.9999999480344
 41
0.933333333333333
 72
     1
 11
86.947067245841
 21
43.25
 31
0.0
 73
     2
  0
LINE
  5
   120
  8
0
  6
CONTINUOUS
 62
     7
 10
106.068340301514
 20
29.0
 30
0.0
 11
87.4470672607422
 21
29.0
 31
0.0
  0
LINE
  5
   121
  8
0
  6
CONTINUOUS
 62
     7
 10
89.4470672607422
 20
29.0
 30
0.0
 11
89.4470672607422
 21
57.5
 31
0.0
  0
LINE
  5
   122
  8
0
  6
CONTINUOUS
 62
     7
 10
88.6706101043236
 20
31.8977774732105
 30
0.0
 11
89.4470672607422
 21
29.0
 31
0.0
  0
LINE
  5
   123
  8
0
  6
CONTINUOUS
 62
     7
 10
89.4470672607422
 20
29.0
 30
0.0
 11
90.2235244171607
 21
31.8977774732105
 31
0.0
  0
LINE
  5
   124
  8
0
  6
CONTINUOUS
 62
     7
 10
90.2235244171607
 20
54.6022225267895
 30
0.0
 11
89.4470672607422
 21
57.5
 31
0.0
  0
LINE
  5
   125
  8
0
  6
CONTINUOUS
 62
     7
 10
89.4470672607422
 20
57.5
 30
0.0
 11
88.6706101043236
 21
54.6022225267895
 31
0.0
  0
ENDBLK
  5
   126
  8
0
  6
CONTINUOUS
 62
     7
  0
BLOCK
  5
   127
  8
0
  6
CONTINUOUS
 62
     7
  2
*UDIM340
 70
    65
 10
0.0
 20
0.0
 30
0.0
  3
*UDIM340
  0
TEXT
  5
   128
  8
0
  6
CONTINUOUS
 62
     7
 10
88.4470672572099
 20
11.7249999598984
 30
0.0
 40
3.00000002980232
  1
107
 50
89.9999999480344
 41
0.933333333333333
 72
     1
 11
86.947067245841
 21
15.625
 31
0.0
 73
     2
  0
LINE
  5
   129
  8
0
  6
CONTINUOUS
 62
     7
 10
106.068340301514
 20
2.25
 30
0.0
 11
87.4470672607422
 21
2.25
 31
0.0
  0
LINE
  5
   12A
  8
0
  6
CONTINUOUS
 62
     7
 10
89.4470672607422
 20
2.25
 30
0.0
 11
89.4470672607422
 21
29.0
 31
0.0
  0
LINE
  5
   12B
  8
0
  6
CONTINUOUS
 62
     7
 10
88.6706101043236
 20
5.14777747321054
 30
0.0
 11
89.4470672607422
 21
2.25
 31
0.0
  0
LINE
  5
   12C
  8
0
  6
CONTINUOUS
 62
     7
 10
89.4470672607422
 20
2.25
 30
0.0
 11
90.2235244171607
 21
5.14777747321054
 31
0.0
  0
LINE
  5
   12D
  8
0
  6
CONTINUOUS
 62
     7
 10
90.2235244171607
 20
26.1022225267895
 30
0.0
 11
89.4470672607422
 21
29.0
 31
0.0
  0
LINE
  5
   12E
  8
0
  6
CONTINUOUS
 62
     7
 10
89.4470672607422
 20
29.0
 30
0.0
 11
88.6706101043236
 21
26.1022225267895
 31
0.0
  0
ENDBLK
  5
   12F
  8
0
  6
CONTINUOUS
 62
     7
  0
BLOCK
  5
   130
  8
0
  6
CONTINUOUS
 62
     7
  2
*UDIM341
 70
    65
 10
0.0
 20
0.0
 30
0.0
  3
*UDIM341
  0
TEXT
  5
   131
  8
0
  6
CONTINUOUS
 62
     7
 10
112.960341846583
 20
-17.0328273611745
 30
0.0
 40
3.00000002980232
  1
Ø7 (N°8 FORI)
 50
359.999999948034
 41
0.933333333333333
 72
     1
 11
130.860342025757
 21
-15.5328273624182
 31
0.0
 73
     2
  0
LINE
  5
   132
  8
0
  6
CONTINUOUS
 62
     7
 10
154.068340301514
 20
30.25
 30
0.0
 11
154.068340301514
 21
-20.0328273773193
 31
0.0
  0
LINE
  5
   133
  8
0
  6
CONTINUOUS
 62
     7
 10
152.068340301514
 20
30.25
 30
0.0
 11
152.068340301514
 21
-20.0328273773193
 31
0.0
  0
LINE
  5
   134
  8
0
  6
CONTINUOUS
 62
     7
 10
154.068340301514
 20
-18.0328273773193
 30
0.0
 11
112.960341847936
 21
-18.0328273773193
 31
0.0
  0
LINE
  5
   135
  8
0
  6
CONTINUOUS
 62
     7
 10
157.022763563195
 20
-17.511882859319
 30
0.0
 11
154.068340301514
 21
-18.0328273773193
 31
0.0
  0
LINE
  5
   136
  8
0
  6
CONTINUOUS
 62
     7
 10
154.068340301514
 20
-18.0328273773193
 30
0.0
 11
157.022763563195
 21
-18.5537718953197
 31
0.0
  0
LINE
  5
   137
  8
0
  6
CONTINUOUS
 62
     7
 10
149.113917039832
 20
-18.5537718953197
 30
0.0
 11
152.068340301514
 21
-18.0328273773193
 31
0.0
  0
LINE
  5
   138
  8
0
  6
CONTINUOUS
 62
     7
 10
152.068340301514
 20
-18.0328273773193
 30
0.0
 11
149.113917039832
 21
-17.511882859319
 31
0.0
  0
ENDBLK
  5
   139
  8
0
  6
CONTINUOUS
 62
     7
  0
BLOCK
  5
   13A
  8
0
  6
CONTINUOUS
 62
     7
  2
*UDIM342
 70
    65
 10
0.0
 20
0.0
 30
0.0
  3
*UDIM342
  0
TEXT
  5
   13B
  8
0
  6
CONTINUOUS
 62
     7
 10
123.768340255457
 20
204.672868732155
 30
0.0
 40
3.00000002980232
  1
201
 50
359.999999948034
 41
0.933333333333333
 72
     1
 11
127.668340295553
 21
206.172868743539
 31
0.0
 73
     2
  0
LINE
  5
   13C
  8
0
  6
CONTINUOUS
 62
     7
 10
153.068340301514
 20
185.60463830098
 30
0.0
 11
153.068340301514
 21
205.672868728638
 31
0.0
  0
LINE
  5
   13D
  8
0
  6
CONTINUOUS
 62
     7
 10
102.818340301514
 20
186.239768890856
 30
0.0
 11
102.818340301514
 21
205.672868728638
 31
0.0
  0
LINE
  5
   13E
  8
0
  6
CONTINUOUS
 62
     7
 10
153.068340301514
 20
203.672868728638
 30
0.0
 11
102.818340301514
 21
203.672868728638
 31
0.0
  0
LINE
  5
   13F
  8
0
  6
CONTINUOUS
 62
     7
 10
150.113917039832
 20
203.151924210637
 30
0.0
 11
153.068340301514
 21
203.672868728638
 31
0.0
  0
LINE
  5
   140
  8
0
  6
CONTINUOUS
 62
     7
 10
153.068340301514
 20
203.672868728638
 30
0.0
 11
150.113917039832
 21
204.193813246638
 31
0.0
  0
LINE
  5
   141
  8
0
  6
CONTINUOUS
 62
     7
 10
105.772763563195
 20
204.193813246638
 30
0.0
 11
102.818340301514
 21
203.672868728638
 31
0.0
  0
LINE
  5
   142
  8
0
  6
CONTINUOUS
 62
     7
 10
102.818340301514
 20
203.672868728638
 30
0.0
 11
105.772763563195
 21
203.151924210637
 31
0.0
  0
ENDBLK
  5
   143
  8
0
  6
CONTINUOUS
 62
     7
  0
ENDSEC
  0
SECTION
  2
ENTITIES
  0
LINE
  5
   144
  8
0
  6
CONTINUOUS
 62
     7
 10
-6.33515119552612
 20
-1.25
 30
0.0
 11
48.6648488044739
 21
-1.25
 31
0.0
  0
LINE
  5
   145
  8
0
  6
CONTINUOUS
 62
     7
 10
-6.33515119552612
 20
186.25
 30
0.0
 11
48.6648488044739
 21
186.25
 31
0.0
  0
CIRCLE
  5
   146
  8
0
  6
DOT
 62
     7
 10
46.2898535711542
 20
31.25
 30
0.0
 40
0.412498676810681
  0
CIRCLE
  5
   147
  8
0
  6
DOT
 62
     7
 10
-3.96015119552612
 20
31.2500044739538
 30
0.0
 40
0.412497445328809
  0
ARC
  5
   148
  8
0
  6
CONTINUOUS
 62
     7
 10
41.7898453885273
 20
60.1249996485996
 30
0.0
 40
0.649999727599731
 50
213.219834723585
 51
506.780165276415
  0
CIRCLE
  5
   149
  8
0
  6
DOT
 62
     7
 10
-3.96014823168529
 20
153.750017449834
 30
0.0
 40
0.412502953020876
  0
CIRCLE
  5
   14A
  8
0
  6
DOT
 62
     7
 10
46.2898777697083
 20
153.75
 30
0.0
 40
0.412505182863821
  0
LINE
  5
   14B
  8
0
  6
DASHDOT
 62
     7
 10
45.1273548943435
 20
31.25
 30
0.0
 11
47.4523522479649
 21
31.25
 31
0.0
  0
LINE
  5
   14C
  8
0
  6
DASHDOT
 62
     7
 10
46.2898535711542
 20
30.0875013231893
 30
0.0
 11
46.2898535711542
 21
32.4124986768107
 31
0.0
  0
LINE
  5
   14D
  8
0
  6
DASHDOT
 62
     7
 10
27.0648779543595
 20
5.12500244759666
 30
0.0
 11
27.0648779543595
 21
19.5567073166375
 31
0.0
  0
LINE
  5
   14E
  8
0
  6
DASHDOT
 62
     7
 10
16.127361027038
 20
5.12499953229272
 30
0.0
 11
16.127361027038
 21
18.9994688711347
 31
0.0
  0
LINE
  5
   14F
  8
0
  6
DASHDOT
 62
     7
 10
-5.12264864085493
 20
31.2500044739538
 30
0.0
 11
-2.79765375019731
 21
31.2500044739538
 31
0.0
  0
LINE
  5
   150
  8
0
  6
DASHDOT
 62
     7
 10
-3.96015119552612
 20
30.087507028625
 30
0.0
 11
-3.96015119552612
 21
32.4125019192826
 31
0.0
  0
LINE
  5
   151
  8
0
  6
DASHDOT
 62
     7
 10
38.0023619036063
 20
65.2725493856887
 30
0.0
 11
38.0023619036063
 21
81.3749961256308
 31
0.0
  0
LINE
  5
   152
  8
0
  6
DASHDOT
 62
     7
 10
27.0648703590342
 20
65.4285761504294
 30
0.0
 11
27.0648703590342
 21
81.3749953727087
 31
0.0
  0
LINE
  5
   153
  8
0
  6
DASHDOT
 62
     7
 10
16.1273579593909
 20
18.2862036608911
 30
0.0
 11
16.1273579593909
 21
81.3749909739974
 31
0.0
  0
LINE
  5
   154
  8
0
  6
DASHDOT
 62
     7
 10
5.18987136377391
 20
67.0111333356574
 30
0.0
 11
5.18987136377391
 21
81.3749982696394
 31
0.0
  0
LINE
  5
   155
  8
0
  6
DASHDOT
 62
     7
 10
5.18984880447481
 20
81.7444550272255
 30
0.0
 11
5.18984880447481
 21
117.962856067402
 31
0.0
  0
LINE
  5
   156
  8
0
  6
DASHDOT
 62
     7
 10
38.0023462844818
 20
82.616404688848
 30
0.0
 11
38.0023462844818
 21
117.216505008258
 31
0.0
  0
LINE
  5
   157
  8
0
  6
DASHDOT
 62
     7
 10
16.1273697487763
 20
81.8690192646001
 30
0.0
 11
16.1273697487763
 21
118.270512229187
 31
0.0
  0
LINE
  5
   158
  8
0
  6
DASHDOT
 62
     7
 10
-5.12265118470619
 20
153.750017449834
 30
0.0
 11
-2.79764527866444
 21
153.750017449834
 31
0.0
  0
LINE
  5
   159
  8
0
  6
DASHDOT
 62
     7
 10
-3.96014823168533
 20
152.587514496813
 30
0.0
 11
-3.96014823168533
 21
154.912520402855
 31
0.0
  0
LINE
  5
   15A
  8
0
  6
DASHDOT
 62
     7
 10
45.1273725868444
 20
153.75
 30
0.0
 11
47.4523829525721
 21
153.75
 31
0.0
  0
LINE
  5
   15B
  8
0
  6
DASHDOT
 62
     7
 10
46.2898777697083
 20
152.462480030024
 30
0.0
 11
46.2898777697083
 21
154.787490395751
 31
0.0
  0
LINE
  5
   15C
  8
0
  6
DASHDOT
 62
     7
 10
38.0023635313915
 20
163.854900200261
 30
0.0
 11
38.0023635313915
 21
179.875016726265
 31
0.0
  0
LINE
  5
   15D
  8
0
  6
DASHDOT
 62
     7
 10
16.1273958748929
 20
164.652527286369
 30
0.0
 11
16.1273958748929
 21
179.875011789546
 31
0.0
  0
LINE
  5
   15E
  8
0
  6
DASHDOT
 62
     7
 10
5.18989907543338
 20
164.008728281154
 30
0.0
 11
5.18989907543338
 21
179.875006394292
 31
0.0
  0
LINE
  5
   15F
  8
0
  6
DASHDOT
 62
     7
 10
5.18986492956954
 20
11.6250163253419
 30
0.0
 11
5.18986492956954
 21
20.375000329353
 31
0.0
  0
LINE
  5
   160
  8
0
  6
DASHDOT
 62
     7
 10
5.18986263601093
 20
5.1249996004011
 30
0.0
 11
5.18986263601093
 21
13.8749991452211
 31
0.0
  0
ARC
  5
   161
  8
0
  6
CONTINUOUS
 62
     7
 10
41.7898492474434
 20
26.3750004797247
 30
0.0
 40
0.649998655935545
 50
185.520258451988
 51
506.780930580463
  0
LINE
  5
   162
  8
0
  6
DASHDOT
 62
     7
 10
-11.6029322578476
 20
92.5
 30
0.0
 11
67.8134351501651
 21
92.5
 31
0.0
  0
LINE
  5
   163
  8
0
  6
CONTINUOUS
 62
     7
 10
-1.71015119552519
 20
40.625
 30
0.0
 11
-1.71015119552519
 21
47.625
 31
0.0
  0
LINE
  5
   164
  8
0
  6
CONTINUOUS
 62
     7
 10
-1.71015119552519
 20
137.375
 30
0.0
 11
-1.71015119552519
 21
144.375
 31
0.0
  0
ARC
  5
   165
  8
0
  6
CONTINUOUS
 62
     7
 10
-0.96015119552518
 20
47.625
 30
0.0
 40
0.75
 50
120.556006881906
 51
180.0
  0
ARC
  5
   166
  8
0
  6
CONTINUOUS
 62
     7
 10
-0.960151195525158
 20
137.375
 30
0.0
 40
0.75
 50
180.0
 51
236.056356625079
  0
LINE
  5
   167
  8
0
  6
DOT
 62
     7
 10
-2.58515119552612
 20
29.2499825501659
 30
0.0
 11
-2.58515119552612
 21
41.75
 31
0.0
  0
LINE
  5
   168
  8
0
  6
DOT
 62
     7
 10
-2.58515119552612
 20
143.5
 30
0.0
 11
-2.58515119552612
 21
155.750017449834
 31
0.0
  0
LINE
  5
   169
  8
0
  6
CONTINUOUS
 62
     7
 10
-6.33515119552612
 20
-1.25
 30
0.0
 11
-6.33515119552612
 21
186.25
 31
0.0
  0
LINE
  5
   16A
  8
0
  6
CONTINUOUS
 62
     7
 10
48.6648488044739
 20
-1.25000000000001
 30
0.0
 11
48.6648488044739
 21
186.25
 31
0.0
  0
LINE
  5
   16B
  8
0
  6
DOT
 62
     7
 10
44.9148488044739
 20
143.25
 30
0.0
 11
44.9148488044739
 21
155.750017449834
 31
0.0
  0
LINE
  5
   16C
  8
0
  6
DOT
 62
     7
 10
44.9148488044739
 20
29.2499825501659
 30
0.0
 11
44.9148488044739
 21
41.75
 31
0.0
  0
LINE
  5
   16D
  8
0
  6
DOT
 62
     7
 10
-6.33515119552612
 20
42.5
 30
0.0
 11
-3.33515119552612
 21
42.5
 31
0.0
  0
LINE
  5
   16E
  8
0
  6
DOT
 62
     7
 10
45.6648488044739
 20
42.5
 30
0.0
 11
48.6648488044739
 21
42.5
 31
0.0
  0
LINE
  5
   16F
  8
0
  6
DOT
 62
     7
 10
-6.33515119552611
 20
142.5
 30
0.0
 11
-3.58515119552612
 21
142.5
 31
0.0
  0
LINE
  5
   170
  8
0
  6
DOT
 62
     7
 10
45.6648488044739
 20
142.5
 30
0.0
 11
48.6648488044739
 21
142.5
 31
0.0
  0
ARC
  5
   171
  8
0
  6
CONTINUOUS
 62
     7
 10
-0.960151195525182
 20
40.625
 30
0.0
 40
0.75
 50
180.0
 51
239.443993118094
  0
ARC
  5
   172
  8
0
  6
DOT
 62
     7
 10
-3.33515119552611
 20
41.75
 30
0.0
 40
0.75
 50
0.0
 51
90.0
  0
ARC
  5
   173
  8
0
  6
DOT
 62
     7
 10
45.6648488044739
 20
143.25
 30
0.0
 40
0.75
 50
180.0
 51
270.0
  0
ARC
  5
   174
  8
0
  6
CONTINUOUS
 62
     7
 10
-0.960151195525156
 20
144.375
 30
0.0
 40
0.75
 50
123.943643374921
 51
180.0
  0
LINE
  5
   175
  8
0
  6
DASHDOT
 62
     7
 10
27.0648412106346
 20
81.8690192646001
 30
0.0
 11
27.0648412106346
 21
179.875012172951
 31
0.0
  0
LINE
  5
   176
  8
0
  6
CONTINUOUS
 62
     7
 10
11.0898160138701
 20
173.499974856078
 30
0.0
 11
21.1523160138701
 21
173.499974856078
 31
0.0
  0
LINE
  5
   177
  8
0
  6
CONTINUOUS
 62
     7
 10
32.9648160138701
 20
173.499974856078
 30
0.0
 11
43.6835738885987
 21
173.499974856078
 31
0.0
  0
LINE
  5
   178
  8
0
  6
CONTINUOUS
 62
     7
 10
43.6585738885987
 20
167.499978670776
 30
0.0
 11
43.6585738885987
 21
172.799974856078
 31
0.0
  0
LINE
  5
   179
  8
0
  6
CONTINUOUS
 62
     7
 10
-1.37892229775625
 20
167.499978670776
 30
0.0
 11
-1.37892229775625
 21
172.799974856078
 31
0.0
  0
CIRCLE
  5
   17A
  8
0
  6
CONTINUOUS
 62
     7
 10
16.1210799716003
 20
168.999988385093
 30
0.0
 40
1.37500302487836
  0
CIRCLE
  5
   17B
  8
0
  6
CONTINUOUS
 62
     7
 10
27.0585795235662
 20
169.000006184996
 30
0.0
 40
1.37498109944959
  0
CIRCLE
  5
   17C
  8
0
  6
CONTINUOUS
 62
     7
 10
37.9960627363958
 20
168.999953477037
 30
0.0
 40
1.37502680581791
  0
ARC
  5
   17D
  8
0
  6
CONTINUOUS
 62
     7
 10
-0.503928948121526
 20
173.24997058133
 30
0.0
 40
0.249995459760766
 50
89.9994296869838
 51
180.000998362904
  0
ARC
  5
   17E
  8
0
  6
CONTINUOUS
 62
     7
 10
42.7835660005079
 20
173.249966996588
 30
0.0
 40
0.250005972812733
 50
5.41499766423824E-4
 51
89.999463229329
  0
LINE
  5
   17F
  8
0
  6
CONTINUOUS
 62
     7
 10
-1.37892229775625
 20
172.799974856078
 30
0.0
 11
-0.753922296704008
 21
172.799974856078
 31
0.0
  0
LINE
  5
   180
  8
0
  6
CONTINUOUS
 62
     7
 10
43.0335738885987
 20
172.799974856078
 30
0.0
 11
43.6585738885987
 21
172.799974856078
 31
0.0
  0
LINE
  5
   181
  8
0
  6
CONTINUOUS
 62
     7
 10
22.0273160138701
 20
173.499974856078
 30
0.0
 11
32.0898160138701
 21
173.499974856078
 31
0.0
  0
CIRCLE
  5
   182
  8
0
  6
CONTINUOUS
 62
     7
 10
16.1210776320996
 20
172.499977437106
 30
0.0
 40
0.349999755135928
  0
CIRCLE
  5
   183
  8
0
  6
CONTINUOUS
 62
     7
 10
27.0585652693915
 20
172.499976717429
 30
0.0
 40
0.350000301444015
  0
CIRCLE
  5
   184
  8
0
  6
CONTINUOUS
 62
     7
 10
37.9960785959244
 20
172.499981698639
 30
0.0
 40
0.34999895162251
  0
LINE
  5
   185
  8
0
  6
CONTINUOUS
 62
     7
 10
33.8398334317017
 20
168.499978692266
 30
0.0
 11
33.8398563198853
 21
167.499978692279
 31
0.0
  0
LINE
  5
   186
  8
0
  6
CONTINUOUS
 62
     7
 10
31.2148334310142
 20
168.499978692266
 30
0.0
 11
31.2148563191977
 21
167.499978692279
 31
0.0
  0
LINE
  5
   187
  8
0
  6
CONTINUOUS
 62
     7
 10
22.9023458237148
 20
168.499978674163
 30
0.0
 11
22.9023553604579
 21
167.499978674193
 31
0.0
  0
LINE
  5
   188
  8
0
  6
CONTINUOUS
 62
     7
 10
20.2773458235954
 20
168.499978674163
 30
0.0
 11
20.2773553603386
 21
167.499978674193
 31
0.0
  0
ARC
  5
   189
  8
0
  6
CONTINUOUS
 62
     7
 10
21.5898514191009
 20
168.499995804217
 30
0.0
 40
1.31251834316505
 50
310.367380719529
 51
589.632619280471
  0
ARC
  5
   18A
  8
0
  6
CONTINUOUS
 62
     7
 10
32.5273210288963
 20
168.4999834939
 30
0.0
 40
1.3125010649791
 50
310.367323156252
 51
589.632676843748
  0
LINE
  5
   18B
  8
0
  6
CONTINUOUS
 62
     7
 10
43.033577703296
 20
167.499978670776
 30
0.0
 11
43.033577703296
 21
172.799974856078
 31
0.0
  0
LINE
  5
   18C
  8
0
  6
CONTINUOUS
 62
     7
 10
43.6585660138701
 20
110.699987978628
 30
0.0
 11
43.6585660138701
 21
125.374978655875
 31
0.0
  0
LINE
  5
   18D
  8
0
  6
CONTINUOUS
 62
     7
 10
-1.37893398612994
 20
110.699987203768
 30
0.0
 11
-1.37893398612994
 21
125.374978655875
 31
0.0
  0
LINE
  5
   18E
  8
0
  6
CONTINUOUS
 62
     7
 10
-1.37893398612994
 20
110.699987203768
 30
0.0
 11
-0.753933986129937
 21
110.699987203768
 31
0.0
  0
LINE
  5
   18F
  8
0
  6
CONTINUOUS
 62
     7
 10
-0.753933986129944
 20
110.249987215689
 30
0.0
 11
-0.753933986129944
 21
110.699987203768
 31
0.0
  0
LINE
  5
   190
  8
0
  6
CONTINUOUS
 62
     7
 10
11.0898160138701
 20
109.999987215689
 30
0.0
 11
21.1523160138701
 21
109.999987215689
 31
0.0
  0
LINE
  5
   191
  8
0
  6
CONTINUOUS
 62
     7
 10
-0.753933986129944
 20
110.699987203768
 30
0.0
 11
-0.753933986129944
 21
115.999987394503
 31
0.0
  0
LINE
  5
   192
  8
0
  6
CONTINUOUS
 62
     7
 10
11.9648160138701
 20
115.999987215689
 30
0.0
 11
20.2773160138701
 21
115.999987215689
 31
0.0
  0
ARC
  5
   193
  8
0
  6
CONTINUOUS
 62
     7
 10
-0.503934074748436
 20
110.24998718402
 30
0.0
 40
0.249999944982627
 50
179.999990894686
 51
269.999993096142
  0
LINE
  5
   194
  8
0
  6
CONTINUOUS
 62
     7
 10
43.6585659160567
 20
155.437482485473
 30
0.0
 11
43.6585659160567
 21
167.499978670776
 31
0.0
  0
LINE
  5
   195
  8
0
  6
CONTINUOUS
 62
     7
 10
-1.3789340839433
 20
125.374978655875
 30
0.0
 11
-1.3789340839433
 21
129.187474856078
 31
0.0
  0
LINE
  5
   196
  8
0
  6
CONTINUOUS
 62
     7
 10
-1.3789340839433
 20
155.437474856078
 30
0.0
 11
-1.3789340839433
 21
167.499978670776
 31
0.0
  0
LINE
  5
   197
  8
0
  6
CONTINUOUS
 62
     7
 10
-1.37893398612994
 20
125.124978670776
 30
0.0
 11
43.6585659160567
 21
125.124978670776
 31
0.0
  0
LINE
  5
   198
  8
0
  6
CONTINUOUS
 62
     7
 10
-1.3789340839433
 20
129.187478670776
 30
0.0
 11
-1.3789340839433
 21
155.312474856078
 31
0.0
  0
LINE
  5
   199
  8
0
  6
CONTINUOUS
 62
     7
 10
43.6585659160567
 20
125.374978655875
 30
0.0
 11
43.6585659160567
 21
155.437478670776
 31
0.0
  0
LINE
  5
   19A
  8
0
  6
CONTINUOUS
 62
     7
 10
34.1835621013594
 20
125.374978655875
 30
0.0
 11
43.6585659160567
 21
125.374978655875
 31
0.0
  0
LINE
  5
   19B
  8
0
  6
CONTINUOUS
 62
     7
 10
30.9335659160567
 20
125.374978670776
 30
0.0
 11
34.1835621013594
 21
125.374978670776
 31
0.0
  0
LINE
  5
   19C
  8
0
  6
CONTINUOUS
 62
     7
 10
-1.37893398612994
 20
125.374978655875
 30
0.0
 11
30.9335659160567
 21
125.374978655875
 31
0.0
  0
LINE
  5
   19D
  8
0
  6
CONTINUOUS
 62
     7
 10
43.4085621013594
 20
125.124978670776
 30
0.0
 11
43.4085621013594
 21
125.374978655874
 31
0.0
  0
LINE
  5
   19E
  8
0
  6
CONTINUOUS
 62
     7
 10
13.8460682048751
 20
129.187474856078
 30
0.0
 11
13.8460682048751
 21
155.437474856078
 31
0.0
  0
LINE
  5
   19F
  8
0
  6
CONTINUOUS
 62
     7
 10
41.6210621013594
 20
129.187474856078
 30
0.0
 11
41.6210621013594
 21
155.437474856078
 31
0.0
  0
LINE
  5
   1A0
  8
0
  6
CONTINUOUS
 62
     7
 10
40.7210643901778
 20
129.187474856078
 30
0.0
 11
40.7210643901778
 21
155.437474856078
 31
0.0
  0
LINE
  5
   1A1
  8
0
  6
CONTINUOUS
 62
     7
 10
43.0960621013594
 20
129.187478670776
 30
0.0
 11
43.0960621013594
 21
155.437474856078
 31
0.0
  0
LINE
  5
   1A2
  8
0
  6
CONTINUOUS
 62
     7
 10
42.5210651531173
 20
129.187474856078
 30
0.0
 11
42.5210651531173
 21
155.437474856078
 31
0.0
  0
LINE
  5
   1A3
  8
0
  6
CONTINUOUS
 62
     7
 10
41.6210636272383
 20
129.187474856078
 30
0.0
 11
41.6210636272383
 21
155.437474856078
 31
0.0
  0
LINE
  5
   1A4
  8
0
  6
CONTINUOUS
 62
     7
 10
40.2710636272383
 20
129.187474856078
 30
0.0
 11
40.2710636272383
 21
155.437474856078
 31
0.0
  0
LINE
  5
   1A5
  8
0
  6
CONTINUOUS
 62
     7
 10
41.6210621013594
 20
155.437474856078
 30
0.0
 11
41.6210621013594
 21
167.499974856078
 31
0.0
  0
LINE
  5
   1A6
  8
0
  6
CONTINUOUS
 62
     7
 10
40.7210643901778
 20
155.437474856078
 30
0.0
 11
40.7210643901778
 21
167.499974856078
 31
0.0
  0
LINE
  5
   1A7
  8
0
  6
CONTINUOUS
 62
     7
 10
43.0960621013594
 20
155.437474856078
 30
0.0
 11
43.0960621013594
 21
167.499974856078
 31
0.0
  0
LINE
  5
   1A8
  8
0
  6
CONTINUOUS
 62
     7
 10
42.5210651531173
 20
155.437474856078
 30
0.0
 11
42.5210651531173
 21
167.499974856078
 31
0.0
  0
LINE
  5
   1A9
  8
0
  6
CONTINUOUS
 62
     7
 10
41.6210636272383
 20
155.437474856078
 30
0.0
 11
41.6210636272383
 21
167.499974856078
 31
0.0
  0
LINE
  5
   1AA
  8
0
  6
CONTINUOUS
 62
     7
 10
40.2710636272383
 20
155.437474856078
 30
0.0
 11
40.2710636272383
 21
167.499974856078
 31
0.0
  0
LINE
  5
   1AB
  8
0
  6
CONTINUOUS
 62
     7
 10
41.6210621013594
 20
116.124987215689
 30
0.0
 11
41.6210621013594
 21
124.874987215689
 31
0.0
  0
LINE
  5
   1AC
  8
0
  6
CONTINUOUS
 62
     7
 10
40.7210643901778
 20
116.124987215689
 30
0.0
 11
40.7210643901778
 21
124.874987215689
 31
0.0
  0
LINE
  5
   1AD
  8
0
  6
CONTINUOUS
 62
     7
 10
43.0960621013594
 20
116.124987215689
 30
0.0
 11
43.0960621013594
 21
124.874987215689
 31
0.0
  0
LINE
  5
   1AE
  8
0
  6
CONTINUOUS
 62
     7
 10
42.5210651531173
 20
116.124987215689
 30
0.0
 11
42.5210651531173
 21
124.874987215689
 31
0.0
  0
LINE
  5
   1AF
  8
0
  6
CONTINUOUS
 62
     7
 10
41.6210636272383
 20
116.124987215689
 30
0.0
 11
41.6210636272383
 21
124.874987215689
 31
0.0
  0
LINE
  5
   1B0
  8
0
  6
CONTINUOUS
 62
     7
 10
40.2710636272383
 20
116.124987215689
 30
0.0
 11
40.2710636272383
 21
124.874987215689
 31
0.0
  0
LINE
  5
   1B1
  8
0
  6
CONTINUOUS
 62
     7
 10
14.3085659160567
 20
155.437478670776
 30
0.0
 11
14.3085659160567
 21
166.249978670776
 31
0.0
  0
LINE
  5
   1B2
  8
0
  6
CONTINUOUS
 62
     7
 10
39.8085659160567
 20
155.437478670776
 30
0.0
 11
39.8085659160567
 21
166.249978670776
 31
0.0
  0
LINE
  5
   1B3
  8
0
  6
CONTINUOUS
 62
     7
 10
14.3085659160567
 20
166.249978670776
 30
0.0
 11
39.8085659160567
 21
166.249978670776
 31
0.0
  0
LINE
  5
   1B4
  8
0
  6
CONTINUOUS
 62
     7
 10
40.1835659160567
 20
129.312474856078
 30
0.0
 11
40.1835659160567
 21
133.812474856078
 31
0.0
  0
LINE
  5
   1B5
  8
0
  6
CONTINUOUS
 62
     7
 10
13.9335659160567
 20
129.312474856078
 30
0.0
 11
13.9335659160567
 21
133.812474856078
 31
0.0
  0
LINE
  5
   1B6
  8
0
  6
CONTINUOUS
 62
     7
 10
29.7460659160567
 20
134.749974856078
 30
0.0
 11
29.7460659160567
 21
144.749971041381
 31
0.0
  0
LINE
  5
   1B7
  8
0
  6
CONTINUOUS
 62
     7
 10
24.3710659160567
 20
134.749974856078
 30
0.0
 11
24.3710659160567
 21
144.749971041381
 31
0.0
  0
LINE
  5
   1B8
  8
0
  6
CONTINUOUS
 62
     7
 10
13.9335659160567
 20
152.437471041381
 30
0.0
 11
40.1835659160567
 21
152.437471041381
 31
0.0
  0
LINE
  5
   1B9
  8
0
  6
CONTINUOUS
 62
     7
 10
13.9335659160567
 20
154.937471041381
 30
0.0
 11
40.1835659160567
 21
154.937471041381
 31
0.0
  0
LINE
  5
   1BA
  8
0
  6
CONTINUOUS
 62
     7
 10
24.3710659160567
 20
144.683854708373
 30
0.0
 11
29.7460659160567
 21
144.683854708373
 31
0.0
  0
LINE
  5
   1BB
  8
0
  6
CONTINUOUS
 62
     7
 10
24.3710659160567
 20
144.749971041381
 30
0.0
 11
29.7460659160567
 21
144.749971041381
 31
0.0
  0
LINE
  5
   1BC
  8
0
  6
CONTINUOUS
 62
     7
 10
24.3710659160567
 20
134.749974856078
 30
0.0
 11
29.7460659160567
 21
134.749974856078
 31
0.0
  0
LINE
  5
   1BD
  8
0
  6
CONTINUOUS
 62
     7
 10
24.3710659160567
 20
134.816098818481
 30
0.0
 11
29.7460659160567
 21
134.816098818481
 31
0.0
  0
LINE
  5
   1BE
  8
0
  6
CONTINUOUS
 62
     7
 10
40.1835621013594
 20
134.062474856078
 30
0.0
 11
40.1835621013594
 21
137.062472867769
 31
0.0
  0
LINE
  5
   1BF
  8
0
  6
CONTINUOUS
 62
     7
 10
40.1835621013594
 20
145.687474856078
 30
0.0
 11
40.1835621013594
 21
155.062474856078
 31
0.0
  0
LINE
  5
   1C0
  8
0
  6
CONTINUOUS
 62
     7
 10
40.1835621013594
 20
137.312472867769
 30
0.0
 11
40.1835621013594
 21
142.187474856078
 31
0.0
  0
LINE
  5
   1C1
  8
0
  6
CONTINUOUS
 62
     7
 10
40.1835621013594
 20
142.437474856078
 30
0.0
 11
40.1835621013594
 21
145.437474856078
 31
0.0
  0
LINE
  5
   1C2
  8
0
  6
CONTINUOUS
 62
     7
 10
13.9335659160554
 20
134.062474856078
 30
0.0
 11
13.9335659160554
 21
137.062474856079
 31
0.0
  0
LINE
  5
   1C3
  8
0
  6
CONTINUOUS
 62
     7
 10
13.933565916051
 20
137.312474856079
 30
0.0
 11
13.933565916051
 21
142.187474856078
 31
0.0
  0
LINE
  5
   1C4
  8
0
  6
CONTINUOUS
 62
     7
 10
13.933565916058
 20
142.437474856078
 30
0.0
 11
13.933565916058
 21
145.437474856078
 31
0.0
  0
LINE
  5
   1C5
  8
0
  6
CONTINUOUS
 62
     7
 10
13.9335659160637
 20
145.687474856078
 30
0.0
 11
13.9335659160637
 21
155.062474856078
 31
0.0
  0
LINE
  5
   1C6
  8
0
  6
CONTINUOUS
 62
     7
 10
14.1835659011555
 20
137.062479664935
 30
0.0
 11
24.3710639226257
 21
137.062479664935
 31
0.0
  0
LINE
  5
   1C7
  8
0
  6
CONTINUOUS
 62
     7
 10
39.9335621013594
 20
137.062477676623
 30
0.0
 11
40.1835621013594
 21
137.062477676623
 31
0.0
  0
LINE
  5
   1C8
  8
0
  6
CONTINUOUS
 62
     7
 10
14.1835659011555
 20
137.312479664936
 30
0.0
 11
24.3710590328537
 21
137.312479664936
 31
0.0
  0
LINE
  5
   1C9
  8
0
  6
CONTINUOUS
 62
     7
 10
39.9335621013594
 20
137.312477676623
 30
0.0
 11
40.1835621013594
 21
137.312477676623
 31
0.0
  0
LINE
  5
   1CA
  8
0
  6
CONTINUOUS
 62
     7
 10
14.1835659011555
 20
137.062474856078
 30
0.0
 11
14.1835659011555
 21
137.312474856078
 31
0.0
  0
LINE
  5
   1CB
  8
0
  6
CONTINUOUS
 62
     7
 10
39.9335621013594
 20
137.062474856078
 30
0.0
 11
39.9335621013594
 21
137.312474856078
 31
0.0
  0
LINE
  5
   1CC
  8
0
  6
CONTINUOUS
 62
     7
 10
39.9335621013594
 20
133.812474856078
 30
0.0
 11
40.1835659160567
 21
133.812474856078
 31
0.0
  0
LINE
  5
   1CD
  8
0
  6
CONTINUOUS
 62
     7
 10
39.9335621013594
 20
134.062474856078
 30
0.0
 11
40.1835621013594
 21
134.062474856078
 31
0.0
  0
LINE
  5
   1CE
  8
0
  6
CONTINUOUS
 62
     7
 10
14.1835659011555
 20
133.812474856078
 30
0.0
 11
14.1835659011555
 21
134.062474856078
 31
0.0
  0
LINE
  5
   1CF
  8
0
  6
CONTINUOUS
 62
     7
 10
39.9335621013594
 20
133.812474856078
 30
0.0
 11
39.9335621013594
 21
134.062474856078
 31
0.0
  0
LINE
  5
   1D0
  8
0
  6
CONTINUOUS
 62
     7
 10
39.9335621013594
 20
145.437474856078
 30
0.0
 11
40.1835621013594
 21
145.437474856078
 31
0.0
  0
LINE
  5
   1D1
  8
0
  6
CONTINUOUS
 62
     7
 10
39.9335621013594
 20
145.687474856078
 30
0.0
 11
40.1835621013594
 21
145.687474856078
 31
0.0
  0
LINE
  5
   1D2
  8
0
  6
CONTINUOUS
 62
     7
 10
14.1835659011555
 20
145.437474856078
 30
0.0
 11
14.1835659011555
 21
145.687474856078
 31
0.0
  0
LINE
  5
   1D3
  8
0
  6
CONTINUOUS
 62
     7
 10
39.9335621013594
 20
145.437474856078
 30
0.0
 11
39.9335621013594
 21
145.687474856078
 31
0.0
  0
LINE
  5
   1D4
  8
0
  6
CONTINUOUS
 62
     7
 10
14.1835659011555
 20
142.187474856078
 30
0.0
 11
24.3710639342023
 21
142.187474856078
 31
0.0
  0
LINE
  5
   1D5
  8
0
  6
CONTINUOUS
 62
     7
 10
39.9335621013594
 20
142.187474856078
 30
0.0
 11
40.1835621013594
 21
142.187474856078
 31
0.0
  0
LINE
  5
   1D6
  8
0
  6
CONTINUOUS
 62
     7
 10
14.1835659011555
 20
142.437474856078
 30
0.0
 11
24.3710659160567
 21
142.437474856078
 31
0.0
  0
LINE
  5
   1D7
  8
0
  6
CONTINUOUS
 62
     7
 10
39.9335621013594
 20
142.437474856078
 30
0.0
 11
40.1835621013594
 21
142.437474856078
 31
0.0
  0
LINE
  5
   1D8
  8
0
  6
CONTINUOUS
 62
     7
 10
14.1835659011555
 20
142.187474856078
 30
0.0
 11
14.1835659011555
 21
142.437474856078
 31
0.0
  0
LINE
  5
   1D9
  8
0
  6
CONTINUOUS
 62
     7
 10
39.9335621013594
 20
142.187474856078
 30
0.0
 11
39.9335621013594
 21
142.437474856078
 31
0.0
  0
LINE
  5
   1DA
  8
0
  6
CONTINUOUS
 62
     7
 10
-1.37893398612994
 20
124.874987215689
 30
0.0
 11
43.6585660138701
 21
124.874987215689
 31
0.0
  0
LINE
  5
   1DB
  8
0
  6
CONTINUOUS
 62
     7
 10
-1.37893398612994
 20
116.124987215689
 30
0.0
 11
43.6585660138701
 21
116.124987215689
 31
0.0
  0
LINE
  5
   1DC
  8
0
  6
DASHDOT
 62
     7
 10
34.1210359305779
 20
168.999953477037
 30
0.0
 11
41.8710895422138
 21
168.999953477037
 31
0.0
  0
LINE
  5
   1DD
  8
0
  6
DASHDOT
 62
     7
 10
35.1460796443019
 20
172.499981698639
 30
0.0
 11
40.846077547547
 21
172.499981698639
 31
0.0
  0
LINE
  5
   1DE
  8
0
  6
DASHDOT
 62
     7
 10
32.5273210288963
 20
164.687482428921
 30
0.0
 11
32.5273210288963
 21
172.312484558879
 31
0.0
  0
LINE
  5
   1DF
  8
0
  6
DASHDOT
 62
     7
 10
28.7148199639172
 20
168.4999834939
 30
0.0
 11
36.3398220938755
 21
168.4999834939
 31
0.0
  0
LINE
  5
   1E0
  8
0
  6
DASHDOT
 62
     7
 10
24.2085649679475
 20
172.499976717429
 30
0.0
 11
29.9085655708355
 21
172.499976717429
 31
0.0
  0
LINE
  5
   1E1
  8
0
  6
DASHDOT
 62
     7
 10
23.1835984241167
 20
169.000006184996
 30
0.0
 11
30.9335606230158
 21
169.000006184996
 31
0.0
  0
LINE
  5
   1E2
  8
0
  6
DASHDOT
 62
     7
 10
21.5898514191009
 20
164.687477461051
 30
0.0
 11
21.5898514191009
 21
175.127063116126
 31
0.0
  0
LINE
  5
   1E3
  8
0
  6
DASHDOT
 62
     7
 10
17.7773330759359
 20
168.499995804217
 30
0.0
 11
25.402369762266
 21
168.499995804217
 31
0.0
  0
LINE
  5
   1E4
  8
0
  6
DASHDOT
 62
     7
 10
13.2710778769637
 20
172.499977437106
 30
0.0
 11
18.9710773872355
 21
172.499977437106
 31
0.0
  0
LINE
  5
   1E5
  8
0
  6
DASHDOT
 62
     7
 10
12.246076946722
 20
168.999988385093
 30
0.0
 11
19.9960829964787
 21
168.999988385093
 31
0.0
  0
LINE
  5
   1E6
  8
0
  6
CONTINUOUS
 62
     7
 10
24.3710659160567
 20
136.919800084272
 30
0.0
 11
29.7460659160567
 21
136.919800084272
 31
0.0
  0
LINE
  5
   1E7
  8
0
  6
CONTINUOUS
 62
     7
 10
24.3710659160567
 20
138.156330378258
 30
0.0
 11
29.7460659160567
 21
138.156330378258
 31
0.0
  0
LINE
  5
   1E8
  8
0
  6
CONTINUOUS
 62
     7
 10
24.3710659160567
 20
134.939562171112
 30
0.0
 11
29.7460659160567
 21
134.939562171112
 31
0.0
  0
LINE
  5
   1E9
  8
0
  6
CONTINUOUS
 62
     7
 10
-0.753922296704012
 20
172.799974856078
 30
0.0
 11
-0.753922296704012
 21
173.249978670776
 31
0.0
  0
LINE
  5
   1EA
  8
0
  6
CONTINUOUS
 62
     7
 10
43.033577703296
 20
172.799974856078
 30
0.0
 11
43.033577703296
 21
173.249978670776
 31
0.0
  0
LINE
  5
   1EB
  8
0
  6
CONTINUOUS
 62
     7
 10
13.9335659160637
 20
145.687474856078
 30
0.0
 11
14.1835659011556
 21
145.687474856078
 31
0.0
  0
LINE
  5
   1EC
  8
0
  6
CONTINUOUS
 62
     7
 10
13.933565916058
 20
145.437474856078
 30
0.0
 11
14.1835659011556
 21
145.437474856078
 31
0.0
  0
LINE
  5
   1ED
  8
0
  6
CONTINUOUS
 62
     7
 10
13.933565916058
 20
142.437474856078
 30
0.0
 11
14.1835659011555
 21
142.437474856078
 31
0.0
  0
LINE
  5
   1EE
  8
0
  6
CONTINUOUS
 62
     7
 10
13.933565916051
 20
142.187474856078
 30
0.0
 11
14.1835659011555
 21
142.187474856078
 31
0.0
  0
LINE
  5
   1EF
  8
0
  6
CONTINUOUS
 62
     7
 10
13.933565916051
 20
137.312479664936
 30
0.0
 11
14.1835659011555
 21
137.312479664936
 31
0.0
  0
LINE
  5
   1F0
  8
0
  6
CONTINUOUS
 62
     7
 10
13.9335659160554
 20
137.062479664935
 30
0.0
 11
14.1835659011555
 21
137.062479664935
 31
0.0
  0
LINE
  5
   1F1
  8
0
  6
CONTINUOUS
 62
     7
 10
13.9335659160554
 20
134.062474856078
 30
0.0
 11
14.1835659011555
 21
134.062474856078
 31
0.0
  0
LINE
  5
   1F2
  8
0
  6
CONTINUOUS
 62
     7
 10
13.9335659160567
 20
133.812474856078
 30
0.0
 11
14.1835659011555
 21
133.812474856078
 31
0.0
  0
LINE
  5
   1F3
  8
0
  6
CONTINUOUS
 62
     7
 10
14.1835659011555
 20
133.812474856078
 30
0.0
 11
39.9335621013594
 21
133.812474856078
 31
0.0
  0
LINE
  5
   1F4
  8
0
  6
CONTINUOUS
 62
     7
 10
14.1835659011555
 20
134.062474856078
 30
0.0
 11
39.9335621013594
 21
134.062474856078
 31
0.0
  0
LINE
  5
   1F5
  8
0
  6
CONTINUOUS
 62
     7
 10
29.7460650782699
 20
137.062477676623
 30
0.0
 11
39.9335621013594
 21
137.062477676623
 31
0.0
  0
LINE
  5
   1F6
  8
0
  6
CONTINUOUS
 62
     7
 10
29.7460651698671
 20
137.312477676623
 30
0.0
 11
39.9335621013594
 21
137.312477676623
 31
0.0
  0
LINE
  5
   1F7
  8
0
  6
CONTINUOUS
 62
     7
 10
29.7460659160567
 20
142.187474856078
 30
0.0
 11
39.9335621013594
 21
142.187474856078
 31
0.0
  0
LINE
  5
   1F8
  8
0
  6
CONTINUOUS
 62
     7
 10
29.7460659160567
 20
142.437474856078
 30
0.0
 11
39.9335621013594
 21
142.437474856078
 31
0.0
  0
LINE
  5
   1F9
  8
0
  6
CONTINUOUS
 62
     7
 10
14.1835659011556
 20
145.437474856078
 30
0.0
 11
39.9335621013594
 21
145.437474856078
 31
0.0
  0
LINE
  5
   1FA
  8
0
  6
CONTINUOUS
 62
     7
 10
14.1835659011556
 20
145.687474856078
 30
0.0
 11
39.9335621013594
 21
145.687474856078
 31
0.0
  0
LINE
  5
   1FB
  8
0
  6
CONTINUOUS
 62
     7
 10
31.9023160138701
 20
171.874962496468
 30
0.0
 11
33.1523160138701
 21
171.874962496468
 31
0.0
  0
LINE
  5
   1FC
  8
0
  6
CONTINUOUS
 62
     7
 10
31.9023160138701
 20
171.874962496468
 30
0.0
 11
31.9023160138701
 21
172.749962556073
 31
0.0
  0
LINE
  5
   1FD
  8
0
  6
CONTINUOUS
 62
     7
 10
31.9023160138701
 20
172.749962496468
 30
0.0
 11
32.0898160138701
 21
172.749962496468
 31
0.0
  0
LINE
  5
   1FE
  8
0
  6
CONTINUOUS
 62
     7
 10
32.0898160138701
 20
172.749962496468
 30
0.0
 11
32.0898160138701
 21
173.499962496468
 31
0.0
  0
LINE
  5
   1FF
  8
0
  6
CONTINUOUS
 62
     7
 10
32.9648160138701
 20
172.749962496468
 30
0.0
 11
32.9648160138701
 21
173.499962496468
 31
0.0
  0
LINE
  5
   200
  8
0
  6
CONTINUOUS
 62
     7
 10
32.9648160138701
 20
172.749962496468
 30
0.0
 11
33.1523160138701
 21
172.749962496468
 31
0.0
  0
LINE
  5
   201
  8
0
  6
CONTINUOUS
 62
     7
 10
33.1523160138701
 20
171.874962496468
 30
0.0
 11
33.1523160138701
 21
172.749962496468
 31
0.0
  0
LINE
  5
   202
  8
0
  6
CONTINUOUS
 62
     7
 10
20.9648160138701
 20
171.874962496468
 30
0.0
 11
22.2148160138701
 21
171.874962496468
 31
0.0
  0
LINE
  5
   203
  8
0
  6
CONTINUOUS
 62
     7
 10
20.9648160138701
 20
171.874962496468
 30
0.0
 11
20.9648160138701
 21
172.749962556073
 31
0.0
  0
LINE
  5
   204
  8
0
  6
CONTINUOUS
 62
     7
 10
20.9648160138701
 20
172.749962496468
 30
0.0
 11
21.1523160138701
 21
172.749962496468
 31
0.0
  0
LINE
  5
   205
  8
0
  6
CONTINUOUS
 62
     7
 10
21.1523160138701
 20
172.749962496468
 30
0.0
 11
21.1523160138701
 21
173.499962496468
 31
0.0
  0
LINE
  5
   206
  8
0
  6
CONTINUOUS
 62
     7
 10
22.0273160138701
 20
172.749962496468
 30
0.0
 11
22.0273160138701
 21
173.499962496468
 31
0.0
  0
LINE
  5
   207
  8
0
  6
CONTINUOUS
 62
     7
 10
22.0273160138701
 20
172.749962496468
 30
0.0
 11
22.2148160138701
 21
172.749962496468
 31
0.0
  0
LINE
  5
   208
  8
0
  6
CONTINUOUS
 62
     7
 10
22.2148160138701
 20
171.874962496468
 30
0.0
 11
22.2148160138701
 21
172.749962496468
 31
0.0
  0
LINE
  5
   209
  8
0
  6
CONTINUOUS
 62
     7
 10
10.0273160138701
 20
111.624987215689
 30
0.0
 11
11.2773160138701
 21
111.624987215689
 31
0.0
  0
LINE
  5
   20A
  8
0
  6
CONTINUOUS
 62
     7
 10
10.0273160138701
 20
110.749987156084
 30
0.0
 11
10.0273160138701
 21
111.624987215689
 31
0.0
  0
LINE
  5
   20B
  8
0
  6
CONTINUOUS
 62
     7
 10
10.0273160138701
 20
110.749987215689
 30
0.0
 11
10.2148160138701
 21
110.749987215689
 31
0.0
  0
LINE
  5
   20C
  8
0
  6
CONTINUOUS
 62
     7
 10
10.2148160138701
 20
109.999987215689
 30
0.0
 11
10.2148160138701
 21
110.749987215689
 31
0.0
  0
LINE
  5
   20D
  8
0
  6
CONTINUOUS
 62
     7
 10
11.0898160138701
 20
109.999987215689
 30
0.0
 11
11.0898160138701
 21
110.749987215689
 31
0.0
  0
LINE
  5
   20E
  8
0
  6
CONTINUOUS
 62
     7
 10
11.0898160138701
 20
110.749987215689
 30
0.0
 11
11.2773160138701
 21
110.749987215689
 31
0.0
  0
LINE
  5
   20F
  8
0
  6
CONTINUOUS
 62
     7
 10
11.2773160138701
 20
110.749987215689
 30
0.0
 11
11.2773160138701
 21
111.624987215689
 31
0.0
  0
LINE
  5
   210
  8
0
  6
CONTINUOUS
 62
     7
 10
10.2148160138701
 20
172.749962496468
 30
0.0
 11
10.2148160138701
 21
173.499962496468
 31
0.0
  0
LINE
  5
   211
  8
0
  6
CONTINUOUS
 62
     7
 10
11.0898160138701
 20
172.749962496468
 30
0.0
 11
11.0898160138701
 21
173.499962496468
 31
0.0
  0
LINE
  5
   212
  8
0
  6
CONTINUOUS
 62
     7
 10
11.0898160138701
 20
172.749962496468
 30
0.0
 11
11.2773160138701
 21
172.749962496468
 31
0.0
  0
LINE
  5
   213
  8
0
  6
CONTINUOUS
 62
     7
 10
11.2773160138701
 20
171.874962496468
 30
0.0
 11
11.2773160138701
 21
172.749962496468
 31
0.0
  0
LINE
  5
   214
  8
0
  6
CONTINUOUS
 62
     7
 10
10.0273160138701
 20
171.874962496468
 30
0.0
 11
11.2773160138701
 21
171.874962496468
 31
0.0
  0
LINE
  5
   215
  8
0
  6
CONTINUOUS
 62
     7
 10
10.0273160138701
 20
171.874962496468
 30
0.0
 11
10.0273160138701
 21
172.749962556073
 31
0.0
  0
LINE
  5
   216
  8
0
  6
CONTINUOUS
 62
     7
 10
10.0273160138701
 20
172.749962496468
 30
0.0
 11
10.2148160138701
 21
172.749962496468
 31
0.0
  0
CIRCLE
  5
   217
  8
0
  6
CONTINUOUS
 62
     7
 10
5.1835776320996
 20
172.499977437106
 30
0.0
 40
0.349999755135928
  0
CIRCLE
  5
   218
  8
0
  6
CONTINUOUS
 62
     7
 10
5.18357997160032
 20
168.999988385093
 30
0.0
 40
1.37500302487836
  0
ARC
  5
   219
  8
0
  6
CONTINUOUS
 62
     7
 10
10.6523514191009
 20
168.499995804217
 30
0.0
 40
1.31251834316505
 50
310.367380719529
 51
589.632619280471
  0
LINE
  5
   21A
  8
0
  6
CONTINUOUS
 62
     7
 10
9.3398458235954
 20
168.499978673977
 30
0.0
 11
9.33985536033857
 21
167.499978674007
 31
0.0
  0
LINE
  5
   21B
  8
0
  6
CONTINUOUS
 62
     7
 10
11.9648458237148
 20
168.499978674163
 30
0.0
 11
11.9648553604579
 21
167.499978674193
 31
0.0
  0
CIRCLE
  5
   21C
  8
0
  6
CONTINUOUS
 62
     7
 10
5.18356582244723
 20
110.999986917287
 30
0.0
 40
0.350000021041935
  0
CIRCLE
  5
   21D
  8
0
  6
CONTINUOUS
 62
     7
 10
5.18356607364044
 20
114.49998715756
 30
0.0
 40
1.37500007979863
  0
LINE
  5
   21E
  8
0
  6
CONTINUOUS
 62
     7
 10
10.0273160138701
 20
113.374987215689
 30
0.0
 11
10.0273160138701
 21
113.869399637869
 31
0.0
  0
LINE
  5
   21F
  8
0
  6
CONTINUOUS
 62
     7
 10
10.0273160138701
 20
113.374987215689
 30
0.0
 11
11.2773160138701
 21
113.374987215689
 31
0.0
  0
LINE
  5
   220
  8
0
  6
CONTINUOUS
 62
     7
 10
11.2773160138701
 20
113.374987215689
 30
0.0
 11
11.2773160138701
 21
113.869399637869
 31
0.0
  0
ARC
  5
   221
  8
0
  6
CONTINUOUS
 62
     7
 10
10.6523147130424
 20
114.999990315583
 30
0.0
 40
1.31249703276873
 50
121.002766302877
 51
418.997233697123
  0
LINE
  5
   222
  8
0
  6
CONTINUOUS
 62
     7
 10
11.9648160138701
 20
114.999987215689
 30
0.0
 11
11.9648160138701
 21
115.999987215689
 31
0.0
  0
LINE
  5
   223
  8
0
  6
CONTINUOUS
 62
     7
 10
9.33981601387006
 20
114.999987215689
 30
0.0
 11
9.33981601387006
 21
115.999987215689
 31
0.0
  0
CIRCLE
  5
   224
  8
0
  6
CONTINUOUS
 62
     7
 10
10.6523161061612
 20
114.999987549482
 30
0.0
 40
0.687499804755065
  0
LINE
  5
   225
  8
0
  6
CONTINUOUS
 62
     7
 10
-0.753933986129937
 20
115.999987215689
 30
0.0
 11
9.33981601387006
 21
115.999987215689
 31
0.0
  0
LINE
  5
   226
  8
0
  6
CONTINUOUS
 62
     7
 10
-0.753922296704012
 20
167.499978670776
 30
0.0
 11
-0.753922296704012
 21
172.799974856078
 31
0.0
  0
LINE
  5
   227
  8
0
  6
CONTINUOUS
 62
     7
 10
-0.503928948121516
 20
173.499966041091
 30
0.0
 11
10.2148160138701
 21
173.499966041091
 31
0.0
  0
LINE
  5
   228
  8
0
  6
CONTINUOUS
 62
     7
 10
-0.503934074748429
 20
109.999987239037
 30
0.0
 11
10.2148160138701
 21
109.999987239037
 31
0.0
  0
LINE
  5
   229
  8
0
  6
DASHDOT
 62
     7
 10
1.30857694672197
 20
168.999988385093
 30
0.0
 11
9.05858299647869
 21
168.999988385093
 31
0.0
  0
LINE
  5
   22A
  8
0
  6
DASHDOT
 62
     7
 10
10.6523514191009
 20
164.687477461051
 30
0.0
 11
10.6523514191009
 21
172.312514147382
 31
0.0
  0
LINE
  5
   22B
  8
0
  6
DASHDOT
 62
     7
 10
6.83983307593587
 20
168.499995804217
 30
0.0
 11
14.464869762266
 21
168.499995804217
 31
0.0
  0
LINE
  5
   22C
  8
0
  6
DASHDOT
 62
     7
 10
2.33357787696368
 20
172.499977437106
 30
0.0
 11
8.03357738723554
 21
172.499977437106
 31
0.0
  0
LINE
  5
   22D
  8
0
  6
DASHDOT
 62
     7
 10
2.3335658014053
 20
110.999986917287
 30
0.0
 11
8.03356584348917
 21
110.999986917287
 31
0.0
  0
LINE
  5
   22E
  8
0
  6
DASHDOT
 62
     7
 10
1.30856599384182
 20
114.49998715756
 30
0.0
 11
9.05856615343907
 21
114.49998715756
 31
0.0
  0
LINE
  5
   22F
  8
0
  6
DASHDOT
 62
     7
 10
10.6523161061612
 20
111.812487744727
 30
0.0
 11
10.6523161061612
 21
118.864309895599
 31
0.0
  0
LINE
  5
   230
  8
0
  6
DASHDOT
 62
     7
 10
7.46481630140613
 20
114.999987549482
 30
0.0
 11
13.8398159109163
 21
114.999987549482
 31
0.0
  0
LINE
  5
   231
  8
0
  6
CONTINUOUS
 62
     7
 10
3.93356591605671
 20
129.312474856078
 30
0.0
 11
13.9335659160567
 21
129.312474856078
 31
0.0
  0
LINE
  5
   232
  8
0
  6
CONTINUOUS
 62
     7
 10
-1.37893408394329
 20
129.312474856078
 30
0.0
 11
3.30856591605671
 21
129.312474856078
 31
0.0
  0
LINE
  5
   233
  8
0
  6
CONTINUOUS
 62
     7
 10
3.3085659160567
 20
152.062474856078
 30
0.0
 11
3.3085659160567
 21
153.312474856078
 31
0.0
  0
LINE
  5
   234
  8
0
  6
CONTINUOUS
 62
     7
 10
3.30856591605671
 20
152.062474856078
 30
0.0
 11
3.93356591605671
 21
152.062474856078
 31
0.0
  0
LINE
  5
   235
  8
0
  6
CONTINUOUS
 62
     7
 10
3.9335659160567
 20
152.062474856078
 30
0.0
 11
3.9335659160567
 21
153.312474856078
 31
0.0
  0
LINE
  5
   236
  8
0
  6
CONTINUOUS
 62
     7
 10
3.30856591605671
 20
153.312474856078
 30
0.0
 11
3.93356591605671
 21
153.312474856078
 31
0.0
  0
LINE
  5
   237
  8
0
  6
CONTINUOUS
 62
     7
 10
3.3085659160567
 20
128.687478432357
 30
0.0
 11
3.3085659160567
 21
130.937474856078
 31
0.0
  0
LINE
  5
   238
  8
0
  6
CONTINUOUS
 62
     7
 10
3.30856591605671
 20
128.687478432357
 30
0.0
 11
3.93356591605671
 21
128.687478432357
 31
0.0
  0
LINE
  5
   239
  8
0
  6
CONTINUOUS
 62
     7
 10
3.9335659160567
 20
128.687478432357
 30
0.0
 11
3.9335659160567
 21
130.937474856078
 31
0.0
  0
LINE
  5
   23A
  8
0
  6
CONTINUOUS
 62
     7
 10
3.30856591605671
 20
130.937474856078
 30
0.0
 11
3.93356591605671
 21
130.937474856078
 31
0.0
  0
LINE
  5
   23B
  8
0
  6
CONTINUOUS
 62
     7
 10
-1.31643026924603
 20
167.499974856078
 30
0.0
 11
43.6585659160567
 21
167.499974856078
 31
0.0
  0
LINE
  5
   23C
  8
0
  6
CONTINUOUS
 62
     7
 10
3.6835659160567
 20
152.062474856078
 30
0.0
 11
3.6835659160567
 21
153.312474856078
 31
0.0
  0
LINE
  5
   23D
  8
0
  6
CONTINUOUS
 62
     7
 10
3.68356973075397
 20
128.687478432357
 30
0.0
 11
3.68356973075397
 21
130.937474856078
 31
0.0
  0
LINE
  5
   23E
  8
0
  6
CONTINUOUS
 62
     7
 10
7.83356744193561
 20
129.187474856078
 30
0.0
 11
7.83356744193561
 21
155.437474856078
 31
0.0
  0
LINE
  5
   23F
  8
0
  6
CONTINUOUS
 62
     7
 10
6.93356973075397
 20
129.187474856078
 30
0.0
 11
6.93356973075397
 21
155.437474856078
 31
0.0
  0
LINE
  5
   240
  8
0
  6
CONTINUOUS
 62
     7
 10
9.63356667899615
 20
129.187474856078
 30
0.0
 11
9.63356667899615
 21
155.437474856078
 31
0.0
  0
LINE
  5
   241
  8
0
  6
CONTINUOUS
 62
     7
 10
8.73356896781451
 20
129.187474856078
 30
0.0
 11
8.73356896781451
 21
155.437474856078
 31
0.0
  0
LINE
  5
   242
  8
0
  6
CONTINUOUS
 62
     7
 10
11.433569730754
 20
129.187474856078
 30
0.0
 11
11.433569730754
 21
155.437474856078
 31
0.0
  0
LINE
  5
   243
  8
0
  6
CONTINUOUS
 62
     7
 10
10.5335682048751
 20
129.187474856078
 30
0.0
 11
10.5335682048751
 21
155.437474856078
 31
0.0
  0
LINE
  5
   244
  8
0
  6
CONTINUOUS
 62
     7
 10
13.2335689678145
 20
129.187474856078
 30
0.0
 11
13.2335689678145
 21
155.437474856078
 31
0.0
  0
LINE
  5
   245
  8
0
  6
CONTINUOUS
 62
     7
 10
12.3335674419356
 20
129.187474856078
 30
0.0
 11
12.3335674419356
 21
155.437474856078
 31
0.0
  0
LINE
  5
   246
  8
0
  6
CONTINUOUS
 62
     7
 10
2.43356973075397
 20
129.187474856078
 30
0.0
 11
2.43356973075397
 21
155.437474856078
 31
0.0
  0
LINE
  5
   247
  8
0
  6
CONTINUOUS
 62
     7
 10
1.53356820487506
 20
129.187474856078
 30
0.0
 11
1.53356820487506
 21
155.437474856078
 31
0.0
  0
LINE
  5
   248
  8
0
  6
CONTINUOUS
 62
     7
 10
0.633566678996154
 20
129.187474856078
 30
0.0
 11
0.633566678996154
 21
155.437474856078
 31
0.0
  0
LINE
  5
   249
  8
0
  6
CONTINUOUS
 62
     7
 10
-0.141431032185487
 20
129.187474856078
 30
0.0
 11
-0.141431032185487
 21
155.437474856078
 31
0.0
  0
LINE
  5
   24A
  8
0
  6
CONTINUOUS
 62
     7
 10
-0.71643179512494
 20
129.187478670776
 30
0.0
 11
-0.71643179512494
 21
155.437474856078
 31
0.0
  0
LINE
  5
   24B
  8
0
  6
CONTINUOUS
 62
     7
 10
6.03356820487506
 20
129.187474856078
 30
0.0
 11
6.03356820487506
 21
155.437474856078
 31
0.0
  0
LINE
  5
   24C
  8
0
  6
CONTINUOUS
 62
     7
 10
5.13356667899615
 20
129.187474856078
 30
0.0
 11
5.13356667899615
 21
155.437474856078
 31
0.0
  0
LINE
  5
   24D
  8
0
  6
CONTINUOUS
 62
     7
 10
4.23356896781451
 20
129.187474856078
 30
0.0
 11
4.23356896781451
 21
155.437474856078
 31
0.0
  0
LINE
  5
   24E
  8
0
  6
CONTINUOUS
 62
     7
 10
3.33356744193561
 20
130.937474856078
 30
0.0
 11
3.33356744193561
 21
152.062474856078
 31
0.0
  0
LINE
  5
   24F
  8
0
  6
CONTINUOUS
 62
     7
 10
3.33356744193561
 20
153.312474856078
 30
0.0
 11
3.33356744193561
 21
155.437474856078
 31
0.0
  0
LINE
  5
   250
  8
0
  6
CONTINUOUS
 62
     7
 10
13.2335689678145
 20
155.437474856078
 30
0.0
 11
13.2335689678145
 21
167.499974856078
 31
0.0
  0
LINE
  5
   251
  8
0
  6
CONTINUOUS
 62
     7
 10
11.433569730754
 20
155.437474856078
 30
0.0
 11
11.433569730754
 21
167.499974856078
 31
0.0
  0
LINE
  5
   252
  8
0
  6
CONTINUOUS
 62
     7
 10
12.3335674419356
 20
155.437474856078
 30
0.0
 11
12.3335674419356
 21
167.499974856078
 31
0.0
  0
LINE
  5
   253
  8
0
  6
CONTINUOUS
 62
     7
 10
9.63356667899615
 20
155.437474856078
 30
0.0
 11
9.63356667899615
 21
167.499974856078
 31
0.0
  0
LINE
  5
   254
  8
0
  6
CONTINUOUS
 62
     7
 10
10.5335682048751
 20
155.437474856078
 30
0.0
 11
10.5335682048751
 21
167.499974856078
 31
0.0
  0
LINE
  5
   255
  8
0
  6
CONTINUOUS
 62
     7
 10
7.83356744193561
 20
155.437474856078
 30
0.0
 11
7.83356744193561
 21
167.499974856078
 31
0.0
  0
LINE
  5
   256
  8
0
  6
CONTINUOUS
 62
     7
 10
8.73356896781451
 20
155.437474856078
 30
0.0
 11
8.73356896781451
 21
167.499974856078
 31
0.0
  0
LINE
  5
   257
  8
0
  6
CONTINUOUS
 62
     7
 10
6.03356820487506
 20
155.437474856078
 30
0.0
 11
6.03356820487506
 21
167.499974856078
 31
0.0
  0
LINE
  5
   258
  8
0
  6
CONTINUOUS
 62
     7
 10
6.93356973075397
 20
155.437474856078
 30
0.0
 11
6.93356973075397
 21
167.499974856078
 31
0.0
  0
LINE
  5
   259
  8
0
  6
CONTINUOUS
 62
     7
 10
4.23356896781451
 20
155.437474856078
 30
0.0
 11
4.23356896781451
 21
167.499974856078
 31
0.0
  0
LINE
  5
   25A
  8
0
  6
CONTINUOUS
 62
     7
 10
5.13356667899615
 20
155.437474856078
 30
0.0
 11
5.13356667899615
 21
167.499974856078
 31
0.0
  0
LINE
  5
   25B
  8
0
  6
CONTINUOUS
 62
     7
 10
-0.71643179512494
 20
155.437474856078
 30
0.0
 11
-0.71643179512494
 21
167.499974856078
 31
0.0
  0
LINE
  5
   25C
  8
0
  6
CONTINUOUS
 62
     7
 10
-0.141431032185487
 20
155.437474856078
 30
0.0
 11
-0.141431032185487
 21
167.499974856078
 31
0.0
  0
LINE
  5
   25D
  8
0
  6
CONTINUOUS
 62
     7
 10
2.43356973075397
 20
155.437474856078
 30
0.0
 11
2.43356973075397
 21
167.499974856078
 31
0.0
  0
LINE
  5
   25E
  8
0
  6
CONTINUOUS
 62
     7
 10
3.33356744193561
 20
155.437474856078
 30
0.0
 11
3.33356744193561
 21
167.499974856078
 31
0.0
  0
LINE
  5
   25F
  8
0
  6
CONTINUOUS
 62
     7
 10
0.633566678996154
 20
155.437474856078
 30
0.0
 11
0.633566678996154
 21
167.499974856078
 31
0.0
  0
LINE
  5
   260
  8
0
  6
CONTINUOUS
 62
     7
 10
1.53356820487506
 20
155.437474856078
 30
0.0
 11
1.53356820487506
 21
167.499974856078
 31
0.0
  0
LINE
  5
   261
  8
0
  6
CONTINUOUS
 62
     7
 10
7.83356744193561
 20
116.124987215689
 30
0.0
 11
7.83356744193561
 21
124.874987215689
 31
0.0
  0
LINE
  5
   262
  8
0
  6
CONTINUOUS
 62
     7
 10
8.73356896781451
 20
116.124987215689
 30
0.0
 11
8.73356896781451
 21
124.874987215689
 31
0.0
  0
LINE
  5
   263
  8
0
  6
CONTINUOUS
 62
     7
 10
13.2335689678145
 20
116.124987215689
 30
0.0
 11
13.2335689678145
 21
124.874987215689
 31
0.0
  0
LINE
  5
   264
  8
0
  6
CONTINUOUS
 62
     7
 10
5.13356667899615
 20
116.124987215689
 30
0.0
 11
5.13356667899615
 21
124.874987215689
 31
0.0
  0
LINE
  5
   265
  8
0
  6
CONTINUOUS
 62
     7
 10
6.93356973075397
 20
116.124987215689
 30
0.0
 11
6.93356973075397
 21
124.874987215689
 31
0.0
  0
LINE
  5
   266
  8
0
  6
CONTINUOUS
 62
     7
 10
6.03356820487506
 20
116.124987215689
 30
0.0
 11
6.03356820487506
 21
124.874987215689
 31
0.0
  0
LINE
  5
   267
  8
0
  6
CONTINUOUS
 62
     7
 10
11.433569730754
 20
116.124987215689
 30
0.0
 11
11.433569730754
 21
124.874987215689
 31
0.0
  0
LINE
  5
   268
  8
0
  6
CONTINUOUS
 62
     7
 10
12.3335674419356
 20
116.124987215689
 30
0.0
 11
12.3335674419356
 21
124.874987215689
 31
0.0
  0
LINE
  5
   269
  8
0
  6
CONTINUOUS
 62
     7
 10
9.63356667899615
 20
116.124987215689
 30
0.0
 11
9.63356667899615
 21
124.874987215689
 31
0.0
  0
LINE
  5
   26A
  8
0
  6
CONTINUOUS
 62
     7
 10
10.5335682048751
 20
116.124987215689
 30
0.0
 11
10.5335682048751
 21
124.874987215689
 31
0.0
  0
LINE
  5
   26B
  8
0
  6
CONTINUOUS
 62
     7
 10
2.43356973075397
 20
116.124987215689
 30
0.0
 11
2.43356973075397
 21
124.874987215689
 31
0.0
  0
LINE
  5
   26C
  8
0
  6
CONTINUOUS
 62
     7
 10
3.33356744193561
 20
116.124987215689
 30
0.0
 11
3.33356744193561
 21
124.874987215689
 31
0.0
  0
LINE
  5
   26D
  8
0
  6
CONTINUOUS
 62
     7
 10
4.23356896781451
 20
116.124987215689
 30
0.0
 11
4.23356896781451
 21
124.874987215689
 31
0.0
  0
LINE
  5
   26E
  8
0
  6
CONTINUOUS
 62
     7
 10
-0.71643179512494
 20
116.124987215689
 30
0.0
 11
-0.71643179512494
 21
124.874987215689
 31
0.0
  0
LINE
  5
   26F
  8
0
  6
CONTINUOUS
 62
     7
 10
-0.141431032185487
 20
116.124987215689
 30
0.0
 11
-0.141431032185487
 21
124.874987215689
 31
0.0
  0
LINE
  5
   270
  8
0
  6
CONTINUOUS
 62
     7
 10
0.633566678996154
 20
116.124987215689
 30
0.0
 11
0.633566678996154
 21
124.874987215689
 31
0.0
  0
LINE
  5
   271
  8
0
  6
CONTINUOUS
 62
     7
 10
1.53356820487506
 20
116.124987215689
 30
0.0
 11
1.53356820487506
 21
124.874987215689
 31
0.0
  0
LINE
  5
   272
  8
0
  6
CONTINUOUS
 62
     7
 10
40.1835659160567
 20
129.312478670776
 30
0.0
 11
43.6585659160567
 21
129.312478670776
 31
0.0
  0
LINE
  5
   273
  8
0
  6
CONTINUOUS
 62
     7
 10
41.6210621013594
 20
125.374978655875
 30
0.0
 11
41.6210621013594
 21
129.187478894293
 31
0.0
  0
LINE
  5
   274
  8
0
  6
CONTINUOUS
 62
     7
 10
40.7210643901778
 20
125.374978655875
 30
0.0
 11
40.7210643901778
 21
129.187478894293
 31
0.0
  0
LINE
  5
   275
  8
0
  6
CONTINUOUS
 62
     7
 10
43.0960621013594
 20
125.374978655875
 30
0.0
 11
43.0960621013594
 21
129.187478894293
 31
0.0
  0
LINE
  5
   276
  8
0
  6
CONTINUOUS
 62
     7
 10
42.5210651531173
 20
125.374978655875
 30
0.0
 11
42.5210651531173
 21
129.187478894293
 31
0.0
  0
LINE
  5
   277
  8
0
  6
CONTINUOUS
 62
     7
 10
41.6210636272383
 20
125.374978655875
 30
0.0
 11
41.6210636272383
 21
129.187478894293
 31
0.0
  0
LINE
  5
   278
  8
0
  6
CONTINUOUS
 62
     7
 10
40.2710636272383
 20
125.374978655875
 30
0.0
 11
40.2710636272383
 21
129.187478894293
 31
0.0
  0
LINE
  5
   279
  8
0
  6
CONTINUOUS
 62
     7
 10
7.83356744193561
 20
125.374978655875
 30
0.0
 11
7.83356744193561
 21
129.187474856078
 31
0.0
  0
LINE
  5
   27A
  8
0
  6
CONTINUOUS
 62
     7
 10
8.73356896781451
 20
125.374978655875
 30
0.0
 11
8.73356896781451
 21
129.187474856078
 31
0.0
  0
LINE
  5
   27B
  8
0
  6
CONTINUOUS
 62
     7
 10
13.2335689678145
 20
125.374978655875
 30
0.0
 11
13.2335689678145
 21
129.187474856078
 31
0.0
  0
LINE
  5
   27C
  8
0
  6
CONTINUOUS
 62
     7
 10
5.13356667899615
 20
125.374978655875
 30
0.0
 11
5.13356667899615
 21
129.187474856078
 31
0.0
  0
LINE
  5
   27D
  8
0
  6
CONTINUOUS
 62
     7
 10
6.93356973075397
 20
125.374978655875
 30
0.0
 11
6.93356973075397
 21
129.187474856078
 31
0.0
  0
LINE
  5
   27E
  8
0
  6
CONTINUOUS
 62
     7
 10
6.03356820487506
 20
125.374978655875
 30
0.0
 11
6.03356820487506
 21
129.187474856078
 31
0.0
  0
LINE
  5
   27F
  8
0
  6
CONTINUOUS
 62
     7
 10
11.433569730754
 20
125.374978655875
 30
0.0
 11
11.433569730754
 21
129.187474856078
 31
0.0
  0
LINE
  5
   280
  8
0
  6
CONTINUOUS
 62
     7
 10
12.3335674419356
 20
125.374978655875
 30
0.0
 11
12.3335674419356
 21
129.187474856078
 31
0.0
  0
LINE
  5
   281
  8
0
  6
CONTINUOUS
 62
     7
 10
9.63356667899615
 20
125.374978655875
 30
0.0
 11
9.63356667899615
 21
129.187474856078
 31
0.0
  0
LINE
  5
   282
  8
0
  6
CONTINUOUS
 62
     7
 10
10.5335682048751
 20
125.374978655875
 30
0.0
 11
10.5335682048751
 21
129.187474856078
 31
0.0
  0
LINE
  5
   283
  8
0
  6
CONTINUOUS
 62
     7
 10
2.43356973075397
 20
125.374978655875
 30
0.0
 11
2.43356973075397
 21
129.187474856078
 31
0.0
  0
LINE
  5
   284
  8
0
  6
CONTINUOUS
 62
     7
 10
3.33356744193561
 20
125.374978655875
 30
0.0
 11
3.33356744193561
 21
128.687478432357
 31
0.0
  0
LINE
  5
   285
  8
0
  6
CONTINUOUS
 62
     7
 10
4.23356896781451
 20
125.374978655875
 30
0.0
 11
4.23356896781451
 21
129.187474856078
 31
0.0
  0
LINE
  5
   286
  8
0
  6
CONTINUOUS
 62
     7
 10
-0.71643179512494
 20
125.374978655875
 30
0.0
 11
-0.71643179512494
 21
129.187474856078
 31
0.0
  0
LINE
  5
   287
  8
0
  6
CONTINUOUS
 62
     7
 10
-0.141431032185487
 20
125.374978655875
 30
0.0
 11
-0.141431032185487
 21
129.187474856078
 31
0.0
  0
LINE
  5
   288
  8
0
  6
CONTINUOUS
 62
     7
 10
0.633566678996154
 20
125.374978655875
 30
0.0
 11
0.633566678996154
 21
129.187474856078
 31
0.0
  0
LINE
  5
   289
  8
0
  6
CONTINUOUS
 62
     7
 10
1.53356820487506
 20
125.374978655875
 30
0.0
 11
1.53356820487506
 21
129.187474856078
 31
0.0
  0
LINE
  5
   28A
  8
0
  6
CONTINUOUS
 62
     7
 10
14.1835659160637
 20
155.312474856078
 30
0.0
 11
39.9335621013594
 21
155.312474856078
 31
0.0
  0
LINE
  5
   28B
  8
0
  6
CONTINUOUS
 62
     7
 10
14.1835659160567
 20
129.062474856078
 30
0.0
 11
39.9335659160567
 21
129.062474856078
 31
0.0
  0
ARC
  5
   28C
  8
0
  6
CONTINUOUS
 62
     7
 10
39.9335659160567
 20
129.312474856078
 30
0.0
 40
0.25
 50
270.0
 51
360.0
  0
ARC
  5
   28D
  8
0
  6
CONTINUOUS
 62
     7
 10
14.1835659160567
 20
129.312474856078
 30
0.0
 40
0.25
 50
180.0
 51
270.0
  0
ARC
  5
   28E
  8
0
  6
CONTINUOUS
 62
     7
 10
14.1835659160637
 20
155.062474856078
 30
0.0
 40
0.25
 50
90.0
 51
180.0
  0
ARC
  5
   28F
  8
0
  6
CONTINUOUS
 62
     7
 10
39.9335621013594
 20
155.062474856078
 30
0.0
 40
0.25
 50
0.0
 51
90.0
  0
LINE
  5
   290
  8
0
  6
CONTINUOUS
 62
     7
 10
-1.37893408394329
 20
155.312474856078
 30
0.0
 11
14.1835659160637
 21
155.312474856078
 31
0.0
  0
LINE
  5
   291
  8
0
  6
CONTINUOUS
 62
     7
 10
39.9335621013594
 20
155.312474856078
 30
0.0
 11
43.6585659160567
 21
155.312474856078
 31
0.0
  0
LINE
  5
   292
  8
0
  6
CONTINUOUS
 62
     7
 10
43.0335658182433
 20
110.699987203768
 30
0.0
 11
43.0335658182433
 21
115.999987394503
 31
0.0
  0
LINE
  5
   293
  8
0
  6
DASHDOT
 62
     7
 10
34.1210656786743
 20
114.49998715756
 30
0.0
 11
41.8710658382716
 21
114.49998715756
 31
0.0
  0
CIRCLE
  5
   294
  8
0
  6
CONTINUOUS
 62
     7
 10
37.996065758473
 20
114.49998715756
 30
0.0
 40
1.37500007979863
  0
CIRCLE
  5
   295
  8
0
  6
CONTINUOUS
 62
     7
 10
37.9960660096662
 20
110.999986917287
 30
0.0
 40
0.350000021041935
  0
LINE
  5
   296
  8
0
  6
DASHDOT
 62
     7
 10
35.1460659886242
 20
110.999986917287
 30
0.0
 11
40.8460660307081
 21
110.999986917287
 31
0.0
  0
LINE
  5
   297
  8
0
  6
CONTINUOUS
 62
     7
 10
43.0335658182434
 20
110.699987203768
 30
0.0
 11
43.6585658182434
 21
110.699987203768
 31
0.0
  0
LINE
  5
   298
  8
0
  6
CONTINUOUS
 62
     7
 10
43.0335658182433
 20
110.249987215689
 30
0.0
 11
43.0335658182433
 21
110.699987203768
 31
0.0
  0
ARC
  5
   299
  8
0
  6
CONTINUOUS
 62
     7
 10
42.7835659068618
 20
110.24998718402
 30
0.0
 40
0.249999944982627
 50
270.000006903858
 51
360.000009105314
  0
LINE
  5
   29A
  8
0
  6
CONTINUOUS
 62
     7
 10
32.9648158182434
 20
109.999987239037
 30
0.0
 11
43.6835659068618
 21
109.999987239037
 31
0.0
  0
LINE
  5
   29B
  8
0
  6
CONTINUOUS
 62
     7
 10
32.9648158182434
 20
110.749987215689
 30
0.0
 11
33.1523158182434
 21
110.749987215689
 31
0.0
  0
LINE
  5
   29C
  8
0
  6
CONTINUOUS
 62
     7
 10
33.1523158182433
 20
110.749987156084
 30
0.0
 11
33.1523158182433
 21
111.624987215689
 31
0.0
  0
LINE
  5
   29D
  8
0
  6
CONTINUOUS
 62
     7
 10
31.9023158182434
 20
111.624987215689
 30
0.0
 11
33.1523158182434
 21
111.624987215689
 31
0.0
  0
LINE
  5
   29E
  8
0
  6
CONTINUOUS
 62
     7
 10
31.9023158182433
 20
110.749987215689
 30
0.0
 11
31.9023158182433
 21
111.624987215689
 31
0.0
  0
LINE
  5
   29F
  8
0
  6
CONTINUOUS
 62
     7
 10
31.9023158182434
 20
110.749987215689
 30
0.0
 11
32.0898158182434
 21
110.749987215689
 31
0.0
  0
LINE
  5
   2A0
  8
0
  6
CONTINUOUS
 62
     7
 10
32.0898158182433
 20
109.999987215689
 30
0.0
 11
32.0898158182433
 21
110.749987215689
 31
0.0
  0
LINE
  5
   2A1
  8
0
  6
CONTINUOUS
 62
     7
 10
22.0273160138701
 20
109.999987215689
 30
0.0
 11
32.0898158182434
 21
109.999987215689
 31
0.0
  0
LINE
  5
   2A2
  8
0
  6
CONTINUOUS
 62
     7
 10
32.9648158182433
 20
109.999987215689
 30
0.0
 11
32.9648158182433
 21
110.749987215689
 31
0.0
  0
LINE
  5
   2A3
  8
0
  6
CONTINUOUS
 62
     7
 10
22.9023158182434
 20
115.999987215689
 30
0.0
 11
31.2148158182434
 21
115.999987215689
 31
0.0
  0
LINE
  5
   2A4
  8
0
  6
CONTINUOUS
 62
     7
 10
31.2148158182433
 20
114.999987215689
 30
0.0
 11
31.2148158182433
 21
115.999987215689
 31
0.0
  0
ARC
  5
   2A5
  8
0
  6
CONTINUOUS
 62
     7
 10
32.527317119071
 20
114.999990315583
 30
0.0
 40
1.31249703276873
 50
121.002766302877
 51
418.997233697123
  0
LINE
  5
   2A6
  8
0
  6
DASHDOT
 62
     7
 10
32.5273157259522
 20
111.812487744727
 30
0.0
 11
32.5273157259522
 21
118.864309895599
 31
0.0
  0
LINE
  5
   2A7
  8
0
  6
DASHDOT
 62
     7
 10
29.3398159211972
 20
114.999987549482
 30
0.0
 11
35.7148155307073
 21
114.999987549482
 31
0.0
  0
LINE
  5
   2A8
  8
0
  6
CONTINUOUS
 62
     7
 10
33.8398158182433
 20
114.999987215689
 30
0.0
 11
33.8398158182433
 21
115.999987215689
 31
0.0
  0
LINE
  5
   2A9
  8
0
  6
CONTINUOUS
 62
     7
 10
33.1523158182433
 20
113.374987215689
 30
0.0
 11
33.1523158182433
 21
113.869399637869
 31
0.0
  0
LINE
  5
   2AA
  8
0
  6
CONTINUOUS
 62
     7
 10
31.9023158182434
 20
113.374987215689
 30
0.0
 11
33.1523158182434
 21
113.374987215689
 31
0.0
  0
LINE
  5
   2AB
  8
0
  6
CONTINUOUS
 62
     7
 10
31.9023158182433
 20
113.374987215689
 30
0.0
 11
31.9023158182433
 21
113.869399637869
 31
0.0
  0
LINE
  5
   2AC
  8
0
  6
DASHDOT
 62
     7
 10
12.2460659938418
 20
114.49998715756
 30
0.0
 11
19.9960661534391
 21
114.49998715756
 31
0.0
  0
CIRCLE
  5
   2AD
  8
0
  6
CONTINUOUS
 62
     7
 10
16.1210660736404
 20
114.49998715756
 30
0.0
 40
1.37500007979863
  0
LINE
  5
   2AE
  8
0
  6
DASHDOT
 62
     7
 10
13.2710658014053
 20
110.999986917287
 30
0.0
 11
18.9710658434892
 21
110.999986917287
 31
0.0
  0
CIRCLE
  5
   2AF
  8
0
  6
CONTINUOUS
 62
     7
 10
16.1210658224472
 20
110.999986917287
 30
0.0
 40
0.350000021041935
  0
LINE
  5
   2B0
  8
0
  6
DASHDOT
 62
     7
 10
23.1835659938418
 20
114.49998715756
 30
0.0
 11
30.9335661534391
 21
114.49998715756
 31
0.0
  0
CIRCLE
  5
   2B1
  8
0
  6
CONTINUOUS
 62
     7
 10
27.0585660736404
 20
114.49998715756
 30
0.0
 40
1.37500007979863
  0
LINE
  5
   2B2
  8
0
  6
DASHDOT
 62
     7
 10
24.2085658014053
 20
110.999986917287
 30
0.0
 11
29.9085658434892
 21
110.999986917287
 31
0.0
  0
CIRCLE
  5
   2B3
  8
0
  6
CONTINUOUS
 62
     7
 10
27.0585658224472
 20
110.999986917287
 30
0.0
 40
0.350000021041935
  0
LINE
  5
   2B4
  8
0
  6
CONTINUOUS
 62
     7
 10
21.1523160138701
 20
109.999987215689
 30
0.0
 11
21.1523160138701
 21
110.749987215689
 31
0.0
  0
LINE
  5
   2B5
  8
0
  6
CONTINUOUS
 62
     7
 10
20.9648160138701
 20
110.749987215689
 30
0.0
 11
21.1523160138701
 21
110.749987215689
 31
0.0
  0
LINE
  5
   2B6
  8
0
  6
CONTINUOUS
 62
     7
 10
20.9648160138701
 20
110.749987156084
 30
0.0
 11
20.9648160138701
 21
111.624987215689
 31
0.0
  0
LINE
  5
   2B7
  8
0
  6
CONTINUOUS
 62
     7
 10
20.9648160138701
 20
111.624987215689
 30
0.0
 11
22.2148160138701
 21
111.624987215689
 31
0.0
  0
LINE
  5
   2B8
  8
0
  6
CONTINUOUS
 62
     7
 10
22.2148160138701
 20
110.749987215689
 30
0.0
 11
22.2148160138701
 21
111.624987215689
 31
0.0
  0
LINE
  5
   2B9
  8
0
  6
CONTINUOUS
 62
     7
 10
22.0273160138701
 20
110.749987215689
 30
0.0
 11
22.2148160138701
 21
110.749987215689
 31
0.0
  0
LINE
  5
   2BA
  8
0
  6
CONTINUOUS
 62
     7
 10
22.0273160138701
 20
109.999987215689
 30
0.0
 11
22.0273160138701
 21
110.749987215689
 31
0.0
  0
CIRCLE
  5
   2BB
  8
0
  6
CONTINUOUS
 62
     7
 10
21.5898161061612
 20
114.999987549482
 30
0.0
 40
0.687499804755065
  0
CIRCLE
  5
   2BC
  8
0
  6
CONTINUOUS
 62
     7
 10
32.5273161061612
 20
114.999987549482
 30
0.0
 40
0.687499804755065
  0
ARC
  5
   2BD
  8
0
  6
CONTINUOUS
 62
     7
 10
21.5898147130424
 20
114.999990315583
 30
0.0
 40
1.31249703276873
 50
121.002766302877
 51
418.997233697123
  0
LINE
  5
   2BE
  8
0
  6
CONTINUOUS
 62
     7
 10
22.9023160138701
 20
114.999987215689
 30
0.0
 11
22.9023160138701
 21
115.999987215689
 31
0.0
  0
LINE
  5
   2BF
  8
0
  6
CONTINUOUS
 62
     7
 10
20.2773160138701
 20
114.999987215689
 30
0.0
 11
20.2773160138701
 21
115.999987215689
 31
0.0
  0
LINE
  5
   2C0
  8
0
  6
CONTINUOUS
 62
     7
 10
20.9648160138701
 20
113.374987215689
 30
0.0
 11
20.9648160138701
 21
113.869399637869
 31
0.0
  0
LINE
  5
   2C1
  8
0
  6
CONTINUOUS
 62
     7
 10
20.9648160138701
 20
113.374987215689
 30
0.0
 11
22.2148160138701
 21
113.374987215689
 31
0.0
  0
LINE
  5
   2C2
  8
0
  6
CONTINUOUS
 62
     7
 10
22.2148160138701
 20
113.374987215689
 30
0.0
 11
22.2148160138701
 21
113.869399637869
 31
0.0
  0
LINE
  5
   2C3
  8
0
  6
CONTINUOUS
 62
     7
 10
33.8398158182434
 20
115.999987215689
 30
0.0
 11
43.6585660138701
 21
115.999987215689
 31
0.0
  0
LINE
  5
   2C4
  8
0
  6
DASHDOT
 62
     7
 10
21.5898147130424
 20
112.576694849187
 30
0.0
 11
21.5898147130424
 21
117.326694998526
 31
0.0
  0
LINE
  5
   2C5
  8
0
  6
DASHDOT
 62
     7
 10
19.2645222079764
 20
114.999990315583
 30
0.0
 11
24.2581121085637
 21
114.999990315583
 31
0.0
  0
LINE
  5
   2C6
  8
0
  6
CONTINUOUS
 62
     7
 10
7.77733851302249
 20
152.327268530336
 30
0.0
 11
7.90680908685619
 21
152.34364525786
 31
0.0
  0
LINE
  5
   2C7
  8
0
  6
CONTINUOUS
 62
     7
 10
32.6858084597307
 20
152.338846227709
 30
0.0
 11
32.7773383080381
 21
152.327268620986
 31
0.0
  0
LINE
  5
   2C8
  8
0
  6
DASHDOT
 62
     7
 10
41.7898453885273
 20
58.7249999209999
 30
0.0
 11
41.7898453885273
 21
61.5249993761993
 31
0.0
  0
LINE
  5
   2C9
  8
0
  6
DASHDOT
 62
     7
 10
40.3898456609276
 20
60.1249996485996
 30
0.0
 11
43.1898451161271
 21
60.1249996485996
 31
0.0
  0
LINE
  5
   2CA
  8
0
  6
DASHDOT
 62
     7
 10
41.7898492474434
 20
24.9750018237891
 30
0.0
 11
41.7898492474434
 21
27.7749991356602
 31
0.0
  0
LINE
  5
   2CB
  8
0
  6
DASHDOT
 62
     7
 10
40.3898505915079
 20
26.3750004797247
 30
0.0
 11
43.189847903379
 21
26.3750004797247
 31
0.0
  0
LINE
  5
   2CC
  8
0
  6
DASHDOT
 62
     7
 10
10.6523490324775
 20
68.6249965839823
 30
0.0
 11
10.6523490324775
 21
71.3749990630406
 31
0.0
  0
LINE
  5
   2CD
  8
0
  6
DASHDOT
 62
     7
 10
9.27734779294838
 20
69.9999978235115
 30
0.0
 11
12.0273502720067
 21
69.9999978235115
 31
0.0
  0
LINE
  5
   2CE
  8
0
  6
DASHDOT
 62
     7
 10
22.6523412943955
 20
70.5000200170467
 30
0.0
 11
31.4023773181319
 21
70.5000200170467
 31
0.0
  0
LINE
  5
   2CF
  8
0
  6
DASHDOT
 62
     7
 10
11.7148412943955
 20
70.5000200170467
 30
0.0
 11
20.4648773181319
 21
70.5000200170467
 31
0.0
  0
LINE
  5
   2D0
  8
0
  6
DASHDOT
 62
     7
 10
0.777341294395463
 20
70.5000200170467
 30
0.0
 11
9.52737731813186
 21
70.5000200170467
 31
0.0
  0
LINE
  5
   2D1
  8
0
  6
DASHDOT
 62
     7
 10
21.5898490324775
 20
68.6249965839823
 30
0.0
 11
21.5898490324775
 21
71.3749990630406
 31
0.0
  0
LINE
  5
   2D2
  8
0
  6
DASHDOT
 62
     7
 10
20.2148477929484
 20
69.9999978235115
 30
0.0
 11
22.9648502720067
 21
69.9999978235115
 31
0.0
  0
LINE
  5
   2D3
  8
0
  6
DASHDOT
 62
     7
 10
10.6523504812538
 20
15.1250008639902
 30
0.0
 11
10.6523504812538
 21
17.8750015192376
 31
0.0
  0
LINE
  5
   2D4
  8
0
  6
DASHDOT
 62
     7
 10
9.27735015363007
 20
16.5000011916139
 30
0.0
 11
12.0273508088775
 21
16.5000011916139
 31
0.0
  0
LINE
  5
   2D5
  8
0
  6
DASHDOT
 62
     7
 10
0.777356561498344
 20
16.0000043382951
 30
0.0
 11
9.52734931861036
 21
16.0000043382951
 31
0.0
  0
LINE
  5
   2D6
  8
0
  6
DASHDOT
 62
     7
 10
21.5898504812538
 20
15.1250008639902
 30
0.0
 11
21.5898504812538
 21
17.8750015192376
 31
0.0
  0
LINE
  5
   2D7
  8
0
  6
DASHDOT
 62
     7
 10
20.2148501536301
 20
16.5000011916139
 30
0.0
 11
22.9648508088775
 21
16.5000011916139
 31
0.0
  0
LINE
  5
   2D8
  8
0
  6
DASHDOT
 62
     7
 10
22.6523565614983
 20
16.0000043382951
 30
0.0
 11
31.4023493186103
 21
16.0000043382951
 31
0.0
  0
LINE
  5
   2D9
  8
0
  6
DASHDOT
 62
     7
 10
7.52734987456126
 20
41.1407007252248
 30
0.0
 11
7.52734987456126
 21
44.4865040062194
 31
0.0
  0
LINE
  5
   2DA
  8
0
  6
CONTINUOUS
 62
     7
 10
-0.503924683327391
 20
74.9999768753735
 30
0.0
 11
10.2148136272467
 21
74.9999768753735
 31
0.0
  0
LINE
  5
   2DB
  8
0
  6
CONTINUOUS
 62
     7
 10
22.0273136272467
 20
74.9999768753735
 30
0.0
 11
32.7460715019753
 21
74.9999768753735
 31
0.0
  0
LINE
  5
   2DC
  8
0
  6
CONTINUOUS
 62
     7
 10
33.6210715019753
 20
68.9999806900707
 30
0.0
 11
33.6210715019753
 21
74.2999768753735
 31
0.0
  0
LINE
  5
   2DD
  8
0
  6
CONTINUOUS
 62
     7
 10
-1.37892468437963
 20
68.9999806900707
 30
0.0
 11
-1.37892468437963
 21
74.2999768753735
 31
0.0
  0
CIRCLE
  5
   2DE
  8
0
  6
CONTINUOUS
 62
     7
 10
5.18357758497695
 20
70.4999904043883
 30
0.0
 40
1.37500302487836
  0
CIRCLE
  5
   2DF
  8
0
  6
CONTINUOUS
 62
     7
 10
16.1210771369429
 20
70.5000082042913
 30
0.0
 40
1.37498109944959
  0
CIRCLE
  5
   2E0
  8
0
  6
CONTINUOUS
 62
     7
 10
27.0585603497725
 20
70.4999554963319
 30
0.0
 40
1.37502680581791
  0
ARC
  5
   2E1
  8
0
  6
CONTINUOUS
 62
     7
 10
-0.503931334744903
 20
74.749972600625
 30
0.0
 40
0.249995459760766
 50
89.9994296869838
 51
180.000998362904
  0
ARC
  5
   2E2
  8
0
  6
CONTINUOUS
 62
     7
 10
32.7460636138845
 20
74.7499690158831
 30
0.0
 40
0.250005972812733
 50
5.41499766423824E-4
 51
89.999463229329
  0
LINE
  5
   2E3
  8
0
  6
CONTINUOUS
 62
     7
 10
-1.37892468437963
 20
74.2999768753735
 30
0.0
 11
-0.753924683327391
 21
74.2999768753735
 31
0.0
  0
LINE
  5
   2E4
  8
0
  6
CONTINUOUS
 62
     7
 10
32.9960715019753
 20
74.2999768753735
 30
0.0
 11
33.6210715019753
 21
74.2999768753735
 31
0.0
  0
LINE
  5
   2E5
  8
0
  6
CONTINUOUS
 62
     7
 10
11.0898136272467
 20
74.9999768753735
 30
0.0
 11
21.1523136272467
 21
74.9999768753735
 31
0.0
  0
LINE
  5
   2E6
  8
0
  6
CONTINUOUS
 62
     7
 10
-0.753924683327405
 20
68.9999806900707
 30
0.0
 11
9.33982044797756
 21
68.9999806900707
 31
0.0
  0
LINE
  5
   2E7
  8
0
  6
CONTINUOUS
 62
     7
 10
11.9648204479776
 20
68.9999806900707
 30
0.0
 11
20.2773102400045
 21
68.9999806900707
 31
0.0
  0
LINE
  5
   2E8
  8
0
  6
CONTINUOUS
 62
     7
 10
22.9023102400045
 20
68.9999806900707
 30
0.0
 11
32.9960753166726
 21
68.9999806900707
 31
0.0
  0
CIRCLE
  5
   2E9
  8
0
  6
CONTINUOUS
 62
     7
 10
5.18357524547622
 20
73.9999794564011
 30
0.0
 40
0.349999755135928
  0
CIRCLE
  5
   2EA
  8
0
  6
CONTINUOUS
 62
     7
 10
16.1210628827681
 20
73.9999787367239
 30
0.0
 40
0.350000301444015
  0
CIRCLE
  5
   2EB
  8
0
  6
CONTINUOUS
 62
     7
 10
27.0585762093011
 20
73.9999837179335
 30
0.0
 40
0.34999895162251
  0
LINE
  5
   2EC
  8
0
  6
CONTINUOUS
 62
     7
 10
22.9023310450783
 20
69.9999807116185
 30
0.0
 11
22.9023539332619
 21
68.9999807116311
 31
0.0
  0
LINE
  5
   2ED
  8
0
  6
CONTINUOUS
 62
     7
 10
20.2773310443908
 20
69.9999807116185
 30
0.0
 11
20.2773539325743
 21
68.9999807116311
 31
0.0
  0
LINE
  5
   2EE
  8
0
  6
CONTINUOUS
 62
     7
 10
11.9648434370914
 20
69.999980693985
 30
0.0
 11
11.9648529738346
 21
68.9999806940151
 31
0.0
  0
LINE
  5
   2EF
  8
0
  6
CONTINUOUS
 62
     7
 10
9.33984343697202
 20
69.9999806936124
 30
0.0
 11
9.33985297371518
 21
68.9999806936426
 31
0.0
  0
ARC
  5
   2F0
  8
0
  6
CONTINUOUS
 62
     7
 10
10.6523490324775
 20
69.9999978235115
 30
0.0
 40
1.31251834316505
 50
310.367380719529
 51
589.632619280471
  0
ARC
  5
   2F1
  8
0
  6
CONTINUOUS
 62
     7
 10
21.589818642273
 20
69.999985513195
 30
0.0
 40
1.3125010649791
 50
310.367323156252
 51
589.632676843748
  0
LINE
  5
   2F2
  8
0
  6
CONTINUOUS
 62
     7
 10
-0.753924683327392
 20
68.9999806900707
 30
0.0
 11
-0.753924683327392
 21
74.2999768753735
 31
0.0
  0
LINE
  5
   2F3
  8
0
  6
CONTINUOUS
 62
     7
 10
32.9960753166726
 20
68.9999806900707
 30
0.0
 11
32.9960753166726
 21
74.2999768753735
 31
0.0
  0
LINE
  5
   2F4
  8
0
  6
CONTINUOUS
 62
     7
 10
33.6210636272467
 20
29.1249892349837
 30
0.0
 11
33.6210636272467
 21
29.6249892349837
 31
0.0
  0
LINE
  5
   2F5
  8
0
  6
CONTINUOUS
 62
     7
 10
-1.37893637275332
 20
29.1249892349837
 30
0.0
 11
-1.37893637275332
 21
29.6249892349837
 31
0.0
  0
LINE
  5
   2F6
  8
0
  6
CONTINUOUS
 62
     7
 10
33.6210636272467
 20
12.1999899979232
 30
0.0
 11
33.6210636272467
 21
29.1249892349837
 31
0.0
  0
LINE
  5
   2F7
  8
0
  6
CONTINUOUS
 62
     7
 10
-1.37893637275332
 20
12.1999892230628
 30
0.0
 11
-1.37893637275332
 21
29.1249884601233
 31
0.0
  0
LINE
  5
   2F8
  8
0
  6
CONTINUOUS
 62
     7
 10
-1.37893637275332
 20
12.1999892230628
 30
0.0
 11
-0.753936372753323
 21
12.1999892230628
 31
0.0
  0
LINE
  5
   2F9
  8
0
  6
CONTINUOUS
 62
     7
 10
-0.753936372753324
 20
11.7499892349837
 30
0.0
 11
-0.753936372753324
 21
12.1999892230628
 31
0.0
  0
LINE
  5
   2FA
  8
0
  6
CONTINUOUS
 62
     7
 10
-0.503936372753322
 20
11.4999892349837
 30
0.0
 11
10.2148136272467
 21
11.4999892349837
 31
0.0
  0
LINE
  5
   2FB
  8
0
  6
CONTINUOUS
 62
     7
 10
11.0898136272467
 20
11.4999892349838
 30
0.0
 11
21.1523136272467
 21
11.4999892349838
 31
0.0
  0
LINE
  5
   2FC
  8
0
  6
CONTINUOUS
 62
     7
 10
22.0273136272467
 20
11.4999892349836
 30
0.0
 11
32.7460636272467
 21
11.4999892349836
 31
0.0
  0
LINE
  5
   2FD
  8
0
  6
CONTINUOUS
 62
     7
 10
32.9960636272467
 20
11.7499892349837
 30
0.0
 11
32.9960636272467
 21
12.1999892230628
 31
0.0
  0
LINE
  5
   2FE
  8
0
  6
CONTINUOUS
 62
     7
 10
32.9960636272467
 20
12.1999892230628
 30
0.0
 11
33.6210636272467
 21
12.1999892230628
 31
0.0
  0
LINE
  5
   2FF
  8
0
  6
CONTINUOUS
 62
     7
 10
-0.753936372753324
 20
12.1999892230628
 30
0.0
 11
-0.753936372753324
 21
17.4999894137976
 31
0.0
  0
LINE
  5
   300
  8
0
  6
CONTINUOUS
 62
     7
 10
-0.753936372753323
 20
17.4999892349837
 30
0.0
 11
9.33981362724668
 21
17.4999892349837
 31
0.0
  0
LINE
  5
   301
  8
0
  6
CONTINUOUS
 62
     7
 10
9.33981362724668
 20
16.4999892349837
 30
0.0
 11
9.33981362724668
 21
17.4999892349837
 31
0.0
  0
LINE
  5
   302
  8
0
  6
CONTINUOUS
 62
     7
 10
11.9648136272467
 20
16.4999892349837
 30
0.0
 11
11.9648136272467
 21
17.4999892349837
 31
0.0
  0
LINE
  5
   303
  8
0
  6
CONTINUOUS
 62
     7
 10
11.9648136272467
 20
17.4999892349837
 30
0.0
 11
20.2773136272467
 21
17.4999892349837
 31
0.0
  0
LINE
  5
   304
  8
0
  6
CONTINUOUS
 62
     7
 10
20.2773136272467
 20
16.4999892349837
 30
0.0
 11
20.2773136272467
 21
17.4999892349837
 31
0.0
  0
LINE
  5
   305
  8
0
  6
CONTINUOUS
 62
     7
 10
22.9023136272467
 20
16.4999892349837
 30
0.0
 11
22.9023136272467
 21
17.4999892349837
 31
0.0
  0
LINE
  5
   306
  8
0
  6
CONTINUOUS
 62
     7
 10
22.9023136272467
 20
17.4999892349837
 30
0.0
 11
32.9960636272467
 21
17.4999892349837
 31
0.0
  0
LINE
  5
   307
  8
0
  6
CONTINUOUS
 62
     7
 10
32.9960636272467
 20
12.1999892230628
 30
0.0
 11
32.9960636272467
 21
17.4999894137976
 31
0.0
  0
LINE
  5
   308
  8
0
  6
CONTINUOUS
 62
     7
 10
11.2773136272467
 20
14.8749892349837
 30
0.0
 11
11.2773136272467
 21
15.3694016571639
 31
0.0
  0
LINE
  5
   309
  8
0
  6
CONTINUOUS
 62
     7
 10
10.0273136272467
 20
14.8749892349837
 30
0.0
 11
10.0273136272467
 21
15.3694016571639
 31
0.0
  0
LINE
  5
   30A
  8
0
  6
CONTINUOUS
 62
     7
 10
10.0273136272467
 20
14.8749892349837
 30
0.0
 11
11.2773136272467
 21
14.8749892349837
 31
0.0
  0
LINE
  5
   30B
  8
0
  6
CONTINUOUS
 62
     7
 10
20.9648136272467
 20
14.8749892349837
 30
0.0
 11
20.9648136272467
 21
15.3694016571639
 31
0.0
  0
LINE
  5
   30C
  8
0
  6
CONTINUOUS
 62
     7
 10
22.2148136272467
 20
14.8749892349837
 30
0.0
 11
22.2148136272467
 21
15.3694016571639
 31
0.0
  0
LINE
  5
   30D
  8
0
  6
CONTINUOUS
 62
     7
 10
20.9648136272467
 20
14.8749892349837
 30
0.0
 11
22.2148136272467
 21
14.8749892349837
 31
0.0
  0
LINE
  5
   30E
  8
0
  6
CONTINUOUS
 62
     7
 10
22.2148136272467
 20
12.2499892349837
 30
0.0
 11
22.2148136272467
 21
13.1249892349837
 31
0.0
  0
LINE
  5
   30F
  8
0
  6
CONTINUOUS
 62
     7
 10
20.9648136272467
 20
12.2499891753791
 30
0.0
 11
20.9648136272467
 21
13.1249892349837
 31
0.0
  0
LINE
  5
   310
  8
0
  6
CONTINUOUS
 62
     7
 10
22.0273136272467
 20
11.4999892349838
 30
0.0
 11
22.0273136272467
 21
12.2499892349838
 31
0.0
  0
LINE
  5
   311
  8
0
  6
CONTINUOUS
 62
     7
 10
22.0273136272467
 20
12.2499892349837
 30
0.0
 11
22.2148136272467
 21
12.2499892349837
 31
0.0
  0
LINE
  5
   312
  8
0
  6
CONTINUOUS
 62
     7
 10
21.1523136272467
 20
11.4999892349838
 30
0.0
 11
21.1523136272467
 21
12.2499892349838
 31
0.0
  0
LINE
  5
   313
  8
0
  6
CONTINUOUS
 62
     7
 10
20.9648136272467
 20
12.2499892349837
 30
0.0
 11
21.1523136272467
 21
12.2499892349837
 31
0.0
  0
LINE
  5
   314
  8
0
  6
CONTINUOUS
 62
     7
 10
11.2773136272467
 20
12.2499892349837
 30
0.0
 11
11.2773136272467
 21
13.1249892349837
 31
0.0
  0
LINE
  5
   315
  8
0
  6
CONTINUOUS
 62
     7
 10
10.0273136272467
 20
12.2499891753791
 30
0.0
 11
10.0273136272467
 21
13.1249892349837
 31
0.0
  0
LINE
  5
   316
  8
0
  6
CONTINUOUS
 62
     7
 10
10.2148136272467
 20
11.4999892349838
 30
0.0
 11
10.2148136272467
 21
12.2499892349838
 31
0.0
  0
LINE
  5
   317
  8
0
  6
CONTINUOUS
 62
     7
 10
10.0273136272467
 20
12.2499892349837
 30
0.0
 11
10.2148136272467
 21
12.2499892349837
 31
0.0
  0
LINE
  5
   318
  8
0
  6
CONTINUOUS
 62
     7
 10
11.0898136272467
 20
11.4999892349838
 30
0.0
 11
11.0898136272467
 21
12.2499892349838
 31
0.0
  0
LINE
  5
   319
  8
0
  6
CONTINUOUS
 62
     7
 10
11.0898136272467
 20
12.2499892349837
 30
0.0
 11
11.2773136272467
 21
12.2499892349837
 31
0.0
  0
CIRCLE
  5
   31A
  8
0
  6
CONTINUOUS
 62
     7
 10
27.0585641832231
 20
15.9999896456314
 30
0.0
 40
1.37500042079548
  0
CIRCLE
  5
   31B
  8
0
  6
CONTINUOUS
 62
     7
 10
21.5898138728364
 20
16.4999888835247
 30
0.0
 40
0.687500398817321
  0
ARC
  5
   31C
  8
0
  6
CONTINUOUS
 62
     7
 10
21.5898116647685
 20
16.4999839362929
 30
0.0
 40
1.31250537678673
 50
121.002660653818
 51
418.997339346182
  0
CIRCLE
  5
   31D
  8
0
  6
CONTINUOUS
 62
     7
 10
10.6523137195378
 20
16.4999895687766
 30
0.0
 40
0.687499804755065
  0
CIRCLE
  5
   31E
  8
0
  6
CONTINUOUS
 62
     7
 10
16.1210635294333
 20
15.9999891823192
 30
0.0
 40
1.37499992425119
  0
CIRCLE
  5
   31F
  8
0
  6
CONTINUOUS
 62
     7
 10
27.058563489867
 20
12.499990473995
 30
0.0
 40
0.349999235913912
  0
CIRCLE
  5
   320
  8
0
  6
CONTINUOUS
 62
     7
 10
16.1210641119726
 20
12.4999899136292
 30
0.0
 40
0.350000510348169
  0
CIRCLE
  5
   321
  8
0
  6
CONTINUOUS
 62
     7
 10
5.18356343582385
 20
12.4999889365822
 30
0.0
 40
0.350000021041935
  0
CIRCLE
  5
   322
  8
0
  6
CONTINUOUS
 62
     7
 10
5.18356368701706
 20
15.999989176855
 30
0.0
 40
1.37500007979863
  0
ARC
  5
   323
  8
0
  6
CONTINUOUS
 62
     7
 10
10.652312326419
 20
16.4999923348776
 30
0.0
 40
1.31249703276873
 50
121.002766302877
 51
418.997233697123
  0
ARC
  5
   324
  8
0
  6
CONTINUOUS
 62
     7
 10
32.7460654274952
 20
11.749986953172
 30
0.0
 40
0.249997600230323
 50
269.999729143711
 51
360.000478763791
  0
ARC
  5
   325
  8
0
  6
CONTINUOUS
 62
     7
 10
-0.503936461371816
 20
11.7499892033147
 30
0.0
 40
0.249999944982627
 50
179.999990894686
 51
269.999993096142
  0
LINE
  5
   326
  8
0
  6
CONTINUOUS
 62
     7
 10
33.6210635294333
 20
56.937484504768
 30
0.0
 11
33.6210635294333
 21
68.9999806900707
 31
0.0
  0
LINE
  5
   327
  8
0
  6
CONTINUOUS
 62
     7
 10
33.6210635294333
 20
26.8749806751696
 30
0.0
 11
33.6210635294333
 21
30.687484504768
 31
0.0
  0
LINE
  5
   328
  8
0
  6
CONTINUOUS
 62
     7
 10
-1.37893647056668
 20
26.8749806751696
 30
0.0
 11
-1.37893647056668
 21
30.6874768753735
 31
0.0
  0
LINE
  5
   329
  8
0
  6
CONTINUOUS
 62
     7
 10
-1.37893647056668
 20
56.9374768753735
 30
0.0
 11
-1.37893647056668
 21
68.9999806900707
 31
0.0
  0
LINE
  5
   32A
  8
0
  6
CONTINUOUS
 62
     7
 10
-1.37893647056668
 20
68.9999806900707
 30
0.0
 11
33.6210635294333
 21
68.9999806900707
 31
0.0
  0
LINE
  5
   32B
  8
0
  6
CONTINUOUS
 62
     7
 10
-1.1289326558694
 20
26.6249806900707
 30
0.0
 11
33.3710597147361
 21
26.6249806900707
 31
0.0
  0
LINE
  5
   32C
  8
0
  6
CONTINUOUS
 62
     7
 10
-1.37893647056668
 20
30.6874806900707
 30
0.0
 11
-1.37893647056668
 21
56.9374806900707
 31
0.0
  0
LINE
  5
   32D
  8
0
  6
CONTINUOUS
 62
     7
 10
33.6210635294333
 20
40.0624806900707
 30
0.0
 11
33.6210635294333
 21
56.9374806900707
 31
0.0
  0
ARC
  5
   32E
  8
0
  6
CONTINUOUS
 62
     7
 10
33.4960635294333
 20
30.8124806900707
 30
0.0
 40
0.125
 50
270.0
 51
360.0
  0
ARC
  5
   32F
  8
0
  6
CONTINUOUS
 62
     7
 10
-1.25393647056668
 20
30.8124806900707
 30
0.0
 40
0.125
 50
180.0
 51
270.0
  0
LINE
  5
   330
  8
0
  6
CONTINUOUS
 62
     7
 10
23.2460597147361
 20
26.8749806751696
 30
0.0
 11
33.6210635294333
 21
26.8749806751696
 31
0.0
  0
LINE
  5
   331
  8
0
  6
CONTINUOUS
 62
     7
 10
19.9960635294333
 20
26.8749806900707
 30
0.0
 11
23.2460597147361
 21
26.8749806900707
 31
0.0
  0
LINE
  5
   332
  8
0
  6
CONTINUOUS
 62
     7
 10
-1.37893647056666
 20
26.8749806751696
 30
0.0
 11
19.9960635294333
 21
26.8749806751696
 31
0.0
  0
LINE
  5
   333
  8
0
  6
CONTINUOUS
 62
     7
 10
33.3710597147361
 20
26.6249806900706
 30
0.0
 11
33.3710597147361
 21
26.8749806751695
 31
0.0
  0
LINE
  5
   334
  8
0
  6
CONTINUOUS
 62
     7
 10
-1.12893265586941
 20
26.6249806900707
 30
0.0
 11
-1.12893265586941
 21
26.8749806751695
 31
0.0
  0
LINE
  5
   335
  8
0
  6
CONTINUOUS
 62
     7
 10
1.43356734413059
 20
30.6874768753735
 30
0.0
 11
1.43356734413059
 21
56.9374768753735
 31
0.0
  0
LINE
  5
   336
  8
0
  6
CONTINUOUS
 62
     7
 10
2.33356505531223
 20
30.6874768753735
 30
0.0
 11
2.33356505531223
 21
56.9374768753735
 31
0.0
  0
LINE
  5
   337
  8
0
  6
CONTINUOUS
 62
     7
 10
-0.816432655869414
 20
30.6874806900707
 30
0.0
 11
-0.816432655869414
 21
56.9374768753735
 31
0.0
  0
LINE
  5
   338
  8
0
  6
CONTINUOUS
 62
     7
 10
-0.241435707627226
 20
30.6874768753735
 30
0.0
 11
-0.241435707627226
 21
56.9374768753735
 31
0.0
  0
LINE
  5
   339
  8
0
  6
CONTINUOUS
 62
     7
 10
0.53356581825168
 20
30.6874768753735
 30
0.0
 11
0.53356581825168
 21
56.9374768753735
 31
0.0
  0
LINE
  5
   33A
  8
0
  6
CONTINUOUS
 62
     7
 10
2.90856581825168
 20
30.6874768753735
 30
0.0
 11
2.90856581825168
 21
56.9374768753735
 31
0.0
  0
LINE
  5
   33B
  8
0
  6
CONTINUOUS
 62
     7
 10
1.43356734413059
 20
56.9374768753735
 30
0.0
 11
1.43356734413059
 21
68.9999768753735
 31
0.0
  0
LINE
  5
   33C
  8
0
  6
CONTINUOUS
 62
     7
 10
2.33356505531223
 20
56.9374768753735
 30
0.0
 11
2.33356505531223
 21
68.9999768753735
 31
0.0
  0
LINE
  5
   33D
  8
0
  6
CONTINUOUS
 62
     7
 10
-0.816432655869414
 20
56.9374768753735
 30
0.0
 11
-0.816432655869414
 21
68.9999768753735
 31
0.0
  0
LINE
  5
   33E
  8
0
  6
CONTINUOUS
 62
     7
 10
-0.241435707627226
 20
56.9374768753735
 30
0.0
 11
-0.241435707627226
 21
68.9999768753735
 31
0.0
  0
LINE
  5
   33F
  8
0
  6
CONTINUOUS
 62
     7
 10
0.53356581825168
 20
56.9374768753735
 30
0.0
 11
0.53356581825168
 21
68.9999768753735
 31
0.0
  0
LINE
  5
   340
  8
0
  6
CONTINUOUS
 62
     7
 10
2.90856581825168
 20
56.9374768753735
 30
0.0
 11
2.90856581825168
 21
68.9999768753735
 31
0.0
  0
LINE
  5
   341
  8
0
  6
CONTINUOUS
 62
     7
 10
1.43356734413059
 20
26.8749806751696
 30
0.0
 11
1.43356734413059
 21
30.6874809135882
 31
0.0
  0
LINE
  5
   342
  8
0
  6
CONTINUOUS
 62
     7
 10
2.33356505531223
 20
26.8749806751696
 30
0.0
 11
2.33356505531223
 21
30.6874809135882
 31
0.0
  0
LINE
  5
   343
  8
0
  6
CONTINUOUS
 62
     7
 10
-0.816432655869414
 20
26.8749806751696
 30
0.0
 11
-0.816432655869414
 21
30.6874809135882
 31
0.0
  0
LINE
  5
   344
  8
0
  6
CONTINUOUS
 62
     7
 10
-0.241435707627226
 20
26.8749806751696
 30
0.0
 11
-0.241435707627226
 21
30.6874809135882
 31
0.0
  0
LINE
  5
   345
  8
0
  6
CONTINUOUS
 62
     7
 10
0.53356581825168
 20
26.8749806751696
 30
0.0
 11
0.53356581825168
 21
30.6874809135882
 31
0.0
  0
LINE
  5
   346
  8
0
  6
CONTINUOUS
 62
     7
 10
2.90856581825168
 20
26.8749806751696
 30
0.0
 11
2.90856581825168
 21
30.6874809135882
 31
0.0
  0
LINE
  5
   347
  8
0
  6
CONTINUOUS
 62
     7
 10
30.6835597147361
 20
40.0624806900707
 30
0.0
 11
30.6835597147361
 21
56.9374768753735
 31
0.0
  0
LINE
  5
   348
  8
0
  6
CONTINUOUS
 62
     7
 10
29.7835620035544
 20
40.0624806900707
 30
0.0
 11
29.7835620035544
 21
56.9374768753735
 31
0.0
  0
LINE
  5
   349
  8
0
  6
CONTINUOUS
 62
     7
 10
33.0585597147361
 20
40.0624806900707
 30
0.0
 11
33.0585597147361
 21
56.9374768753735
 31
0.0
  0
LINE
  5
   34A
  8
0
  6
CONTINUOUS
 62
     7
 10
32.4835627664939
 20
40.0624806900707
 30
0.0
 11
32.4835627664939
 21
56.9374768753735
 31
0.0
  0
LINE
  5
   34B
  8
0
  6
CONTINUOUS
 62
     7
 10
31.583561240615
 20
40.0624806900707
 30
0.0
 11
31.583561240615
 21
56.9374768753735
 31
0.0
  0
LINE
  5
   34C
  8
0
  6
CONTINUOUS
 62
     7
 10
29.333561240615
 20
40.0624806900707
 30
0.0
 11
29.333561240615
 21
56.9374768753735
 31
0.0
  0
LINE
  5
   34D
  8
0
  6
CONTINUOUS
 62
     7
 10
30.6835597147361
 20
56.9374768753735
 30
0.0
 11
30.6835597147361
 21
68.9999768753735
 31
0.0
  0
LINE
  5
   34E
  8
0
  6
CONTINUOUS
 62
     7
 10
29.7835620035544
 20
56.9374768753735
 30
0.0
 11
29.7835620035544
 21
68.9999768753735
 31
0.0
  0
LINE
  5
   34F
  8
0
  6
CONTINUOUS
 62
     7
 10
33.0585597147361
 20
56.9374768753735
 30
0.0
 11
33.0585597147361
 21
68.9999768753735
 31
0.0
  0
LINE
  5
   350
  8
0
  6
CONTINUOUS
 62
     7
 10
32.4835627664939
 20
56.9374768753735
 30
0.0
 11
32.4835627664939
 21
68.9999768753735
 31
0.0
  0
LINE
  5
   351
  8
0
  6
CONTINUOUS
 62
     7
 10
31.583561240615
 20
56.9374768753735
 30
0.0
 11
31.583561240615
 21
68.9999768753735
 31
0.0
  0
LINE
  5
   352
  8
0
  6
CONTINUOUS
 62
     7
 10
29.333561240615
 20
56.9374768753735
 30
0.0
 11
29.333561240615
 21
68.9999768753735
 31
0.0
  0
LINE
  5
   353
  8
0
  6
CONTINUOUS
 62
     7
 10
30.6835597147361
 20
26.8749806751696
 30
0.0
 11
30.6835597147361
 21
30.6874809135882
 31
0.0
  0
LINE
  5
   354
  8
0
  6
CONTINUOUS
 62
     7
 10
29.7835620035544
 20
26.8749806751696
 30
0.0
 11
29.7835620035544
 21
30.6874809135882
 31
0.0
  0
LINE
  5
   355
  8
0
  6
CONTINUOUS
 62
     7
 10
33.0585597147361
 20
26.8749806751696
 30
0.0
 11
33.0585597147361
 21
30.6874809135882
 31
0.0
  0
LINE
  5
   356
  8
0
  6
CONTINUOUS
 62
     7
 10
32.4835627664939
 20
26.8749806751696
 30
0.0
 11
32.4835627664939
 21
30.6874809135882
 31
0.0
  0
LINE
  5
   357
  8
0
  6
CONTINUOUS
 62
     7
 10
31.583561240615
 20
26.8749806751696
 30
0.0
 11
31.583561240615
 21
30.6874809135882
 31
0.0
  0
LINE
  5
   358
  8
0
  6
CONTINUOUS
 62
     7
 10
29.333561240615
 20
26.8749806751696
 30
0.0
 11
29.333561240615
 21
30.6874809135882
 31
0.0
  0
LINE
  5
   359
  8
0
  6
CONTINUOUS
 62
     7
 10
3.37106352943332
 20
56.9374806900707
 30
0.0
 11
3.37106352943332
 21
67.7499806900707
 31
0.0
  0
LINE
  5
   35A
  8
0
  6
CONTINUOUS
 62
     7
 10
28.8710635294333
 20
56.9374806900707
 30
0.0
 11
28.8710635294333
 21
67.7499806900707
 31
0.0
  0
LINE
  5
   35B
  8
0
  6
CONTINUOUS
 62
     7
 10
3.37106352943332
 20
67.7499806900707
 30
0.0
 11
28.8710635294333
 21
67.7499806900707
 31
0.0
  0
LINE
  5
   35C
  8
0
  6
CONTINUOUS
 62
     7
 10
-1.37893637275332
 20
26.3749892349838
 30
0.0
 11
33.6210636272467
 21
26.3749892349838
 31
0.0
  0
LINE
  5
   35D
  8
0
  6
CONTINUOUS
 62
     7
 10
-1.37893637275332
 20
17.6249892349838
 30
0.0
 11
33.6210636272467
 21
17.6249892349838
 31
0.0
  0
LINE
  5
   35E
  8
0
  6
DASHDOT
 62
     7
 10
24.2085772576785
 20
73.9999837179335
 30
0.0
 11
29.9085751609236
 21
73.9999837179335
 31
0.0
  0
LINE
  5
   35F
  8
0
  6
DASHDOT
 62
     7
 10
21.589818642273
 20
66.1874844482159
 30
0.0
 11
21.589818642273
 21
73.8124865781741
 31
0.0
  0
LINE
  5
   360
  8
0
  6
DASHDOT
 62
     7
 10
13.2710625813241
 20
73.9999787367239
 30
0.0
 11
18.9710631842121
 21
73.9999787367239
 31
0.0
  0
LINE
  5
   361
  8
0
  6
DASHDOT
 62
     7
 10
10.6523490324775
 20
66.1874794803464
 30
0.0
 11
10.6523490324775
 21
73.8125161666765
 31
0.0
  0
LINE
  5
   362
  8
0
  6
DASHDOT
 62
     7
 10
2.3335754903403
 20
73.9999794564011
 30
0.0
 11
8.03357500061215
 21
73.9999794564011
 31
0.0
  0
LINE
  5
   363
  8
0
  6
DASHDOT
 62
     7
 10
2.33356341478191
 20
12.4999889365822
 30
0.0
 11
8.03356345686579
 21
12.4999889365822
 31
0.0
  0
LINE
  5
   364
  8
0
  6
DASHDOT
 62
     7
 10
13.2710636016245
 20
12.4999899136292
 30
0.0
 11
18.9710646223208
 21
12.4999899136292
 31
0.0
  0
LINE
  5
   365
  8
0
  6
DASHDOT
 62
     7
 10
10.652312326419
 20
12.6874953021089
 30
0.0
 11
10.652312326419
 21
20.3124893676463
 31
0.0
  0
LINE
  5
   366
  8
0
  6
DASHDOT
 62
     7
 10
6.83981529365028
 20
16.4999923348776
 30
0.0
 11
14.4648093591877
 21
16.4999923348776
 31
0.0
  0
LINE
  5
   367
  8
0
  6
DASHDOT
 62
     7
 10
21.5898116647685
 20
12.6874785595062
 30
0.0
 11
21.5898116647685
 21
20.3124893130796
 31
0.0
  0
LINE
  5
   368
  8
0
  6
DASHDOT
 62
     7
 10
17.7773062879818
 20
16.4999839362929
 30
0.0
 11
25.4023170415553
 21
16.4999839362929
 31
0.0
  0
LINE
  5
   369
  8
0
  6
DASHDOT
 62
     7
 10
24.2085642539531
 20
12.499990473995
 30
0.0
 11
29.9085627257809
 21
12.499990473995
 31
0.0
  0
LINE
  5
   36A
  8
0
  6
CONTINUOUS
 62
     7
 10
-0.753924683327392
 20
74.2999768753735
 30
0.0
 11
-0.753924683327392
 21
74.7499806900707
 31
0.0
  0
LINE
  5
   36B
  8
0
  6
CONTINUOUS
 62
     7
 10
32.9960753166726
 20
74.2999768753735
 30
0.0
 11
32.9960753166726
 21
74.7499806900707
 31
0.0
  0
LINE
  5
   36C
  8
0
  6
CONTINUOUS
 62
     7
 10
20.9648136272467
 20
13.1249892349837
 30
0.0
 11
22.2148136272467
 21
13.1249892349837
 31
0.0
  0
LINE
  5
   36D
  8
0
  6
CONTINUOUS
 62
     7
 10
10.0273136272467
 20
13.1249892349837
 30
0.0
 11
11.2773136272467
 21
13.1249892349837
 31
0.0
  0
LINE
  5
   36E
  8
0
  6
CONTINUOUS
 62
     7
 10
20.9648136272467
 20
73.3749645157632
 30
0.0
 11
22.2148136272467
 21
73.3749645157632
 31
0.0
  0
LINE
  5
   36F
  8
0
  6
CONTINUOUS
 62
     7
 10
20.9648136272467
 20
73.3749645157632
 30
0.0
 11
20.9648136272467
 21
74.2499645753679
 31
0.0
  0
LINE
  5
   370
  8
0
  6
CONTINUOUS
 62
     7
 10
20.9648136272467
 20
74.2499645157632
 30
0.0
 11
21.1523136272467
 21
74.2499645157632
 31
0.0
  0
LINE
  5
   371
  8
0
  6
CONTINUOUS
 62
     7
 10
21.1523136272467
 20
74.2499645157631
 30
0.0
 11
21.1523136272467
 21
74.9999645157631
 31
0.0
  0
LINE
  5
   372
  8
0
  6
CONTINUOUS
 62
     7
 10
22.0273136272467
 20
74.2499645157631
 30
0.0
 11
22.0273136272467
 21
74.9999645157631
 31
0.0
  0
LINE
  5
   373
  8
0
  6
CONTINUOUS
 62
     7
 10
22.0273136272467
 20
74.2499645157632
 30
0.0
 11
22.2148136272467
 21
74.2499645157632
 31
0.0
  0
LINE
  5
   374
  8
0
  6
CONTINUOUS
 62
     7
 10
22.2148136272467
 20
73.3749645157632
 30
0.0
 11
22.2148136272467
 21
74.2499645157632
 31
0.0
  0
LINE
  5
   375
  8
0
  6
CONTINUOUS
 62
     7
 10
10.0273136272467
 20
73.3749645157632
 30
0.0
 11
11.2773136272467
 21
73.3749645157632
 31
0.0
  0
LINE
  5
   376
  8
0
  6
CONTINUOUS
 62
     7
 10
10.0273136272467
 20
73.3749645157632
 30
0.0
 11
10.0273136272467
 21
74.2499645753679
 31
0.0
  0
LINE
  5
   377
  8
0
  6
CONTINUOUS
 62
     7
 10
10.0273136272467
 20
74.2499645157632
 30
0.0
 11
10.2148136272467
 21
74.2499645157632
 31
0.0
  0
LINE
  5
   378
  8
0
  6
CONTINUOUS
 62
     7
 10
10.2148136272467
 20
74.2499645157631
 30
0.0
 11
10.2148136272467
 21
74.9999645157631
 31
0.0
  0
LINE
  5
   379
  8
0
  6
CONTINUOUS
 62
     7
 10
11.0898136272467
 20
74.2499645157631
 30
0.0
 11
11.0898136272467
 21
74.9999645157631
 31
0.0
  0
LINE
  5
   37A
  8
0
  6
CONTINUOUS
 62
     7
 10
11.0898136272467
 20
74.2499645157632
 30
0.0
 11
11.2773136272467
 21
74.2499645157632
 31
0.0
  0
LINE
  5
   37B
  8
0
  6
CONTINUOUS
 62
     7
 10
11.2773136272467
 20
73.3749645157632
 30
0.0
 11
11.2773136272467
 21
74.2499645157632
 31
0.0
  0
LINE
  5
   37C
  8
0
  6
CONTINUOUS
 62
     7
 10
-1.37893647056668
 20
30.5624806900707
 30
0.0
 11
3.12106352943332
 21
30.5624806900707
 31
0.0
  0
LINE
  5
   37D
  8
0
  6
CONTINUOUS
 62
     7
 10
29.2460635294333
 20
56.6874806900707
 30
0.0
 11
33.6210635294333
 21
56.6874806900707
 31
0.0
  0
LINE
  5
   37E
  8
0
  6
CONTINUOUS
 62
     7
 10
-1.37893647056668
 20
56.8124806900707
 30
0.0
 11
3.12106352944028
 21
56.8124806900707
 31
0.0
  0
LINE
  5
   37F
  8
0
  6
CONTINUOUS
 62
     7
 10
2.90856581825168
 20
17.6249892349838
 30
0.0
 11
2.90856581825168
 21
26.3749892349838
 31
0.0
  0
LINE
  5
   380
  8
0
  6
CONTINUOUS
 62
     7
 10
2.33356505531223
 20
17.6249892349838
 30
0.0
 11
2.33356505531223
 21
26.3749892349838
 31
0.0
  0
LINE
  5
   381
  8
0
  6
CONTINUOUS
 62
     7
 10
1.43356734413059
 20
17.6249892349838
 30
0.0
 11
1.43356734413059
 21
26.3749892349838
 31
0.0
  0
LINE
  5
   382
  8
0
  6
CONTINUOUS
 62
     7
 10
0.53356581825168
 20
17.6249892349838
 30
0.0
 11
0.53356581825168
 21
26.3749892349838
 31
0.0
  0
LINE
  5
   383
  8
0
  6
CONTINUOUS
 62
     7
 10
-0.241435707627226
 20
17.6249892349838
 30
0.0
 11
-0.241435707627226
 21
26.3749892349838
 31
0.0
  0
LINE
  5
   384
  8
0
  6
CONTINUOUS
 62
     7
 10
-0.816432655869414
 20
17.6249892349838
 30
0.0
 11
-0.816432655869414
 21
26.3749892349838
 31
0.0
  0
LINE
  5
   385
  8
0
  6
CONTINUOUS
 62
     7
 10
29.3335612406149
 20
17.6249892349838
 30
0.0
 11
29.3335612406149
 21
26.3749892349838
 31
0.0
  0
LINE
  5
   386
  8
0
  6
CONTINUOUS
 62
     7
 10
29.9085620035544
 20
17.6249892349838
 30
0.0
 11
29.9085620035544
 21
26.3749892349838
 31
0.0
  0
LINE
  5
   387
  8
0
  6
CONTINUOUS
 62
     7
 10
30.808559714736
 20
17.6249892349838
 30
0.0
 11
30.808559714736
 21
26.3749892349838
 31
0.0
  0
LINE
  5
   388
  8
0
  6
CONTINUOUS
 62
     7
 10
31.7085612406149
 20
17.6249892349838
 30
0.0
 11
31.7085612406149
 21
26.3749892349838
 31
0.0
  0
LINE
  5
   389
  8
0
  6
CONTINUOUS
 62
     7
 10
32.4835627664938
 20
17.6249892349838
 30
0.0
 11
32.4835627664938
 21
26.3749892349838
 31
0.0
  0
LINE
  5
   38A
  8
0
  6
CONTINUOUS
 62
     7
 10
33.058559714736
 20
17.6249892349838
 30
0.0
 11
33.058559714736
 21
26.3749892349838
 31
0.0
  0
LINE
  5
   38B
  8
0
  6
CONTINUOUS
 62
     7
 10
29.1210635294333
 20
30.5624806900707
 30
0.0
 11
33.6210635294333
 21
30.5624806900707
 31
0.0
  0
LINE
  5
   38C
  8
0
  6
CONTINUOUS
 62
     7
 10
3.12106352943332
 20
56.8124806900707
 30
0.0
 11
29.1210635294333
 21
56.8124806900707
 31
0.0
  0
LINE
  5
   38D
  8
0
  6
CONTINUOUS
 62
     7
 10
3.12106352943332
 20
30.5624806900707
 30
0.0
 11
29.1210635294333
 21
30.5624806900707
 31
0.0
  0
LINE
  5
   38E
  8
0
  6
CONTINUOUS
 62
     7
 10
2.99606352943332
 20
30.6874806900707
 30
0.0
 11
2.99606352943332
 21
56.6874806900707
 31
0.0
  0
LINE
  5
   38F
  8
0
  6
CONTINUOUS
 62
     7
 10
29.2460635294333
 20
30.6874806900707
 30
0.0
 11
29.2460635294333
 21
56.6874806900707
 31
0.0
  0
ARC
  5
   390
  8
0
  6
CONTINUOUS
 62
     7
 10
3.12106352943332
 20
56.6874806900707
 30
0.0
 40
0.125
 50
90.0
 51
180.0
  0
ARC
  5
   391
  8
0
  6
CONTINUOUS
 62
     7
 10
29.1210635294333
 20
56.6874806900707
 30
0.0
 40
0.125
 50
0.0
 51
90.0
  0
ARC
  5
   392
  8
0
  6
CONTINUOUS
 62
     7
 10
29.1210635294333
 20
30.6874806900707
 30
0.0
 40
0.125
 50
270.0
 51
360.0
  0
ARC
  5
   393
  8
0
  6
CONTINUOUS
 62
     7
 10
3.12106352943332
 20
30.6874806900707
 30
0.0
 40
0.125
 50
180.0
 51
270.0
  0
LINE
  5
   394
  8
0
  6
CONTINUOUS
 62
     7
 10
3.18356352943332
 20
56.6249806900707
 30
0.0
 11
29.0585635294333
 21
56.6249806900707
 31
0.0
  0
LINE
  5
   395
  8
0
  6
CONTINUOUS
 62
     7
 10
3.18356352943332
 20
30.7499806900707
 30
0.0
 11
29.0585635294333
 21
30.7499806900707
 31
0.0
  0
LINE
  5
   396
  8
0
  6
CONTINUOUS
 62
     7
 10
3.18356352943332
 20
30.7499806900707
 30
0.0
 11
3.18356352943332
 21
56.6249806900707
 31
0.0
  0
LINE
  5
   397
  8
0
  6
CONTINUOUS
 62
     7
 10
29.0585635294333
 20
30.7499806900707
 30
0.0
 11
29.0585635294333
 21
56.6249806900707
 31
0.0
  0
LINE
  5
   398
  8
0
  6
CONTINUOUS
 62
     7
 10
3.18356352943332
 20
53.8124806900707
 30
0.0
 11
29.0585635294333
 21
53.8124806900707
 31
0.0
  0
LINE
  5
   399
  8
0
  6
CONTINUOUS
 62
     7
 10
3.18356352943332
 20
56.3124806900707
 30
0.0
 11
29.0585635294333
 21
56.3124806900707
 31
0.0
  0
LINE
  5
   39A
  8
0
  6
CONTINUOUS
 62
     7
 10
20.6210635294333
 20
30.7499806900707
 30
0.0
 11
20.6210635294333
 21
53.8124806900707
 31
0.0
  0
LINE
  5
   39B
  8
0
  6
CONTINUOUS
 62
     7
 10
28.1210635294333
 20
30.7499806900707
 30
0.0
 11
28.1210635294333
 21
53.8124806900707
 31
0.0
  0
LINE
  5
   39C
  8
0
  6
CONTINUOUS
 62
     7
 10
20.3710635294333
 20
30.7499806900707
 30
0.0
 11
20.3710635294333
 21
53.8124806900707
 31
0.0
  0
LINE
  5
   39D
  8
0
  6
CONTINUOUS
 62
     7
 10
28.3710635294333
 20
30.7499806900707
 30
0.0
 11
28.3710635294333
 21
53.8124806900707
 31
0.0
  0
CIRCLE
  5
   39E
  8
0
  6
CONTINUOUS
 62
     7
 10
24.3710635294333
 20
49.1874806900707
 30
0.0
 40
2.6875
  0
CIRCLE
  5
   39F
  8
0
  6
CONTINUOUS
 62
     7
 10
24.3710635294333
 20
36.8624806900707
 30
0.0
 40
2.6875
  0
LINE
  5
   3A0
  8
0
  6
DASHDOT
 62
     7
 10
24.3710635294333
 20
45.7499806900707
 30
0.0
 11
24.3710635294333
 21
52.6249806900707
 31
0.0
  0
LINE
  5
   3A1
  8
0
  6
DASHDOT
 62
     7
 10
20.9335635294333
 20
49.1874806900707
 30
0.0
 11
27.8085635294333
 21
49.1874806900707
 31
0.0
  0
LINE
  5
   3A2
  8
0
  6
DASHDOT
 62
     7
 10
24.3710635294333
 20
33.4249806900707
 30
0.0
 11
24.3710635294333
 21
40.2999806900707
 31
0.0
  0
LINE
  5
   3A3
  8
0
  6
DASHDOT
 62
     7
 10
20.9335635294333
 20
36.8624806900707
 30
0.0
 11
27.8085635294333
 21
36.8624806900707
 31
0.0
  0
ARC
  5
   3A4
  8
0
  6
CONTINUOUS
 62
     7
 10
11.0585635294333
 20
37.9374806900707
 30
0.0
 40
1.3125
 50
0.0
 51
180.0
  0
ARC
  5
   3A5
  8
0
  6
CONTINUOUS
 62
     7
 10
11.0585635294333
 20
35.4374806900707
 30
0.0
 40
1.3125
 50
1.56165987539835
 51
360.0
  0
LINE
  5
   3A6
  8
0
  6
CONTINUOUS
 62
     7
 10
12.3710635294333
 20
35.4374806900707
 30
0.0
 11
12.3710635294333
 21
37.9374806900707
 31
0.0
  0
LINE
  5
   3A7
  8
0
  6
CONTINUOUS
 62
     7
 10
9.74606352943332
 20
35.4374806900707
 30
0.0
 11
9.74606352943332
 21
37.9374806900707
 31
0.0
  0
LINE
  5
   3A8
  8
0
  6
DASHDOT
 62
     7
 10
11.0585635294333
 20
33.3749806900707
 30
0.0
 11
11.0585635294333
 21
37.4999806900707
 31
0.0
  0
LINE
  5
   3A9
  8
0
  6
DASHDOT
 62
     7
 10
8.99606352943332
 20
35.4374806900707
 30
0.0
 11
13.1210635294333
 21
35.4374806900707
 31
0.0
  0
LINE
  5
   3AA
  8
0
  6
CONTINUOUS
 62
     7
 10
9.7700930214278
 20
35.6874806900707
 30
0.0
 11
12.3470340374388
 21
35.6874806900707
 31
0.0
  0
LINE
  5
   3AB
  8
0
  6
CONTINUOUS
 62
     7
 10
9.7700930214278
 20
35.1874806900707
 30
0.0
 11
12.3470340374388
 21
35.1874806900707
 31
0.0
  0
LINE
  5
   3AC
  8
0
  6
CONTINUOUS
 62
     7
 10
26.1835635294333
 20
45.8749806900707
 30
0.0
 11
26.8085635294333
 21
45.8749806900707
 31
0.0
  0
LINE
  5
   3AD
  8
0
  6
CONTINUOUS
 62
     7
 10
26.1835635294333
 20
41.4999806900707
 30
0.0
 11
26.8085635294333
 21
41.4999806900707
 31
0.0
  0
LINE
  5
   3AE
  8
0
  6
CONTINUOUS
 62
     7
 10
26.1835635294333
 20
41.4999806900707
 30
0.0
 11
26.1835635294333
 21
45.8749806900707
 31
0.0
  0
LINE
  5
   3AF
  8
0
  6
CONTINUOUS
 62
     7
 10
26.8085635294333
 20
41.4999806900707
 30
0.0
 11
26.8085635294333
 21
45.8749806900707
 31
0.0
  0
LINE
  5
   3B0
  8
0
  6
CONTINUOUS
 62
     7
 10
8.05856352943332
 20
51.6874806900707
 30
0.0
 11
8.05856352943332
 21
53.2774830308942
 31
0.0
  0
LINE
  5
   3B1
  8
0
  6
CONTINUOUS
 62
     7
 10
8.05856352943332
 20
51.6874806900707
 30
0.0
 11
9.68356352943333
 21
51.6874806900707
 31
0.0
  0
LINE
  5
   3B2
  8
0
  6
CONTINUOUS
 62
     7
 10
9.68356352943332
 20
41.9688124969141
 30
0.0
 11
9.68356352943332
 21
51.6874806900707
 31
0.0
  0
ARC
  5
   3B3
  8
0
  6
CONTINUOUS
 62
     7
 10
11.0585635294333
 20
47.9374806900707
 30
0.0
 40
5.75
 50
146.0
 51
256.164776385962
  0
ARC
  5
   3B4
  8
0
  6
CONTINUOUS
 62
     7
 10
11.0585635294333
 20
47.9374806900707
 30
0.0
 40
6.125
 50
119.327168765378
 51
257.027121849249
  0
LINE
  5
   3B5
  8
0
  6
CONTINUOUS
 62
     7
 10
5.9807083975337
 20
51.3625372238291
 30
0.0
 11
6.29159748724182
 21
51.1528398850276
 31
0.0
  0
LINE
  5
   3B6
  8
0
  6
CONTINUOUS
 62
     7
 10
6.30856352943332
 20
47.9374806900707
 30
0.0
 11
8.18356352943331
 21
49.8124806900707
 31
0.0
  0
LINE
  5
   3B7
  8
0
  6
CONTINUOUS
 62
     7
 10
6.30856352943331
 20
47.9374806900707
 30
0.0
 11
8.18356352943331
 21
46.0624806900707
 31
0.0
  0
LINE
  5
   3B8
  8
0
  6
CONTINUOUS
 62
     7
 10
8.18356352943332
 20
46.0624806900707
 30
0.0
 11
8.18356352943332
 21
49.8124806900707
 31
0.0
  0
ARC
  5
   3B9
  8
0
  6
CONTINUOUS
 62
     7
 10
11.0585635294333
 20
47.9374806900707
 30
0.0
 40
5.625
 50
284.149004508935
 51
435.850995491065
  0
LINE
  5
   3BA
  8
0
  6
CONTINUOUS
 62
     7
 10
12.4335635294333
 20
42.4831246327529
 30
0.0
 11
12.4335635294333
 21
53.3918367473886
 31
0.0
  0
LINE
  5
   3BB
  8
0
  6
CONTINUOUS
 62
     7
 10
12.4335635294333
 20
49.9374806900707
 30
0.0
 11
16.3159987406366
 21
49.9374806900707
 31
0.0
  0
LINE
  5
   3BC
  8
0
  6
CONTINUOUS
 62
     7
 10
12.4335635294333
 20
45.9374806900707
 30
0.0
 11
16.3159987406366
 21
45.9374806900707
 31
0.0
  0
LINE
  5
   3BD
  8
0
  6
CONTINUOUS
 62
     7
 10
12.3085635294333
 20
42.4531279479507
 30
0.0
 11
12.3085635294333
 21
53.4218334321908
 31
0.0
  0
LINE
  5
   3BE
  8
0
  6
CONTINUOUS
 62
     7
 10
10.0585635294333
 20
40.9374806900707
 30
0.0
 11
10.0585635294333
 21
53.2598979040817
 31
0.0
  0
ARC
  5
   3BF
  8
0
  6
CONTINUOUS
 62
     7
 10
11.0585635294333
 20
47.9374806900707
 30
0.0
 40
5.625
 50
77.1604115930958
 51
87.4526818174296
  0
LINE
  5
   3C0
  8
0
  6
CONTINUOUS
 62
     7
 10
11.3085635294333
 20
42.3180389918235
 30
0.0
 11
11.3085635294333
 21
53.556922388318
 31
0.0
  0
LINE
  5
   3C1
  8
0
  6
CONTINUOUS
 62
     7
 10
10.8085635294333
 20
40.9374806900707
 30
0.0
 11
10.8085635294333
 21
53.556922388318
 31
0.0
  0
ARC
  5
   3C2
  8
0
  6
CONTINUOUS
 62
     7
 10
11.0585635294333
 20
47.9374806900707
 30
0.0
 40
5.625
 50
92.5473181825704
 51
116.387799961243
  0
ARC
  5
   3C3
  8
0
  6
CONTINUOUS
 62
     7
 10
11.0585635294333
 20
47.9374806900707
 30
0.0
 40
5.625
 50
259.759651678814
 51
267.45268181743
  0
LINE
  5
   3C4
  8
0
  6
CONTINUOUS
 62
     7
 10
10.8085635294333
 20
52.5624806900707
 30
0.0
 11
11.3085635294333
 21
52.5624806900707
 31
0.0
  0
LINE
  5
   3C5
  8
0
  6
CONTINUOUS
 62
     7
 10
10.8085635294333
 20
43.3124806900707
 30
0.0
 11
11.3085635294333
 21
43.3124806900707
 31
0.0
  0
LINE
  5
   3C6
  8
0
  6
CONTINUOUS
 62
     7
 10
8.55856352943332
 20
52.1874806900707
 30
0.0
 11
8.55856352943332
 21
52.9763917827573
 31
0.0
  0
LINE
  5
   3C7
  8
0
  6
CONTINUOUS
 62
     7
 10
8.80856352943333
 20
51.9374806900707
 30
0.0
 11
10.0585635294333
 21
51.9374806900707
 31
0.0
  0
ARC
  5
   3C8
  8
0
  6
CONTINUOUS
 62
     7
 10
8.80856352943332
 20
52.1874806900707
 30
0.0
 40
0.25
 50
180.0
 51
270.0
  0
ARC
  5
   3C9
  8
0
  6
CONTINUOUS
 62
     7
 10
10.3085635294333
 20
53.2598979040817
 30
0.0
 40
0.25
 50
98.0209328752446
 51
180.0
  0
LINE
  5
   3CA
  8
0
  6
CONTINUOUS
 62
     7
 10
10.0585635294333
 20
40.9374806900707
 30
0.0
 11
10.8085635294333
 21
40.9374806900707
 31
0.0
  0
ARC
  5
   3CB
  8
0
  6
CONTINUOUS
 62
     7
 10
11.0585635294333
 20
47.9374806900707
 30
0.0
 40
5.625
 50
272.54731818257
 51
282.839588406904
  0
CIRCLE
  5
   3CC
  8
0
  6
CONTINUOUS
 62
     7
 10
4.24606352943332
 20
47.9374806900707
 30
0.0
 40
0.625
  0
CIRCLE
  5
   3CD
  8
0
  6
CONTINUOUS
 62
     7
 10
4.24606352943332
 20
47.9374806900707
 30
0.0
 40
0.375
  0
LINE
  5
   3CE
  8
0
  6
CONTINUOUS
 62
     7
 10
10.8085635294333
 20
40.1249806900707
 30
0.0
 11
10.8085635294333
 21
42.1249806900707
 31
0.0
  0
LINE
  5
   3CF
  8
0
  6
CONTINUOUS
 62
     7
 10
11.3085635294333
 20
40.1249806900707
 30
0.0
 11
11.3085635294333
 21
42.1249806900707
 31
0.0
  0
LINE
  5
   3D0
  8
0
  6
CONTINUOUS
 62
     7
 10
10.8085635294333
 20
42.1249806900707
 30
0.0
 11
11.3085635294333
 21
42.1249806900707
 31
0.0
  0
LINE
  5
   3D1
  8
0
  6
CONTINUOUS
 62
     7
 10
10.8085635294333
 20
40.1249806900707
 30
0.0
 11
11.3085635294333
 21
40.1249806900707
 31
0.0
  0
LINE
  5
   3D2
  8
0
  6
DASHDOT
 62
     7
 10
14.4960636051821
 20
15.9999891823192
 30
0.0
 11
17.7460634536845
 21
15.9999891823192
 31
0.0
  0
LINE
  5
   3D3
  8
0
  6
CONTINUOUS
 62
     7
 10
33.6210635294333
 20
56.2499768753735
 30
0.0
 11
33.8710721125022
 21
56.2499768753735
 31
0.0
  0
LINE
  5
   3D4
  8
0
  6
CONTINUOUS
 62
     7
 10
33.6210635294333
 20
57.2499768753735
 30
0.0
 11
33.8710721125022
 21
57.2499768753735
 31
0.0
  0
LINE
  5
   3D5
  8
0
  6
CONTINUOUS
 62
     7
 10
33.6210663904563
 20
28.999966384956
 30
0.0
 11
34.6210287203208
 21
28.999966384956
 31
0.0
  0
LINE
  5
   3D6
  8
0
  6
CONTINUOUS
 62
     7
 10
37.5585544695273
 20
54.3749806900707
 30
0.0
 11
37.5585544695273
 21
54.4999806900707
 31
0.0
  0
LINE
  5
   3D7
  8
0
  6
CONTINUOUS
 62
     7
 10
34.6209948514902
 20
28.4999406918773
 30
0.0
 11
34.6210711454353
 21
29.6249740704433
 31
0.0
  0
LINE
  5
   3D8
  8
0
  6
CONTINUOUS
 62
     7
 10
35.6210796861601
 20
28.4999730606851
 30
0.0
 11
35.6210796861601
 21
29.6249749680337
 31
0.0
  0
LINE
  5
   3D9
  8
0
  6
CONTINUOUS
 62
     7
 10
34.6210711588226
 20
29.6249795695057
 30
0.0
 11
35.6210682977996
 21
29.6249795695057
 31
0.0
  0
LINE
  5
   3DA
  8
0
  6
CONTINUOUS
 62
     7
 10
36.3710721125022
 20
31.2499759216991
 30
0.0
 11
36.9960740198508
 21
31.2499759216991
 31
0.0
  0
LINE
  5
   3DB
  8
0
  6
CONTINUOUS
 62
     7
 10
36.3710678209302
 20
30.2499749690974
 30
0.0
 11
36.3710721124646
 21
31.2499759227583
 31
0.0
  0
LINE
  5
   3DC
  8
0
  6
CONTINUOUS
 62
     7
 10
34.6210711588278
 20
31.2499759216991
 30
0.0
 11
36.3710711588278
 21
31.2499759216991
 31
0.0
  0
LINE
  5
   3DD
  8
0
  6
CONTINUOUS
 62
     7
 10
34.6209943866441
 20
28.4999244236443
 30
0.0
 11
36.3710759254359
 21
28.4999377750845
 31
0.0
  0
LINE
  5
   3DE
  8
0
  6
CONTINUOUS
 62
     7
 10
34.620992473683
 20
27.4999568482498
 30
0.0
 11
36.1160676993588
 21
27.4999606629469
 31
0.0
  0
LINE
  5
   3DF
  8
0
  6
CONTINUOUS
 62
     7
 10
34.6210667398774
 20
29.6249701996544
 30
0.0
 11
34.6210667398774
 21
31.2499759217003
 31
0.0
  0
LINE
  5
   3E0
  8
0
  6
CONTINUOUS
 62
     7
 10
33.6210635294333
 20
62.4999768753735
 30
0.0
 11
33.8710721125022
 21
62.4999768753735
 31
0.0
  0
LINE
  5
   3E1
  8
0
  6
CONTINUOUS
 62
     7
 10
33.6210635294333
 20
61.4999768753735
 30
0.0
 11
33.871071635665
 21
61.4999768753735
 31
0.0
  0
LINE
  5
   3E2
  8
0
  6
CONTINUOUS
 62
     7
 10
33.6210635294333
 20
28.499909164497
 30
0.0
 11
33.8709219087973
 21
28.499909164497
 31
0.0
  0
LINE
  5
   3E3
  8
0
  6
CONTINUOUS
 62
     7
 10
33.6210635274879
 20
27.4999091645794
 30
0.0
 11
33.8709133237511
 21
27.4999101182537
 31
0.0
  0
LINE
  5
   3E4
  8
0
  6
CONTINUOUS
 62
     7
 10
33.6210635294333
 20
31.2499778290478
 30
0.0
 11
34.621071635665
 21
31.2499778290478
 31
0.0
  0
LINE
  5
   3E5
  8
0
  6
CONTINUOUS
 62
     7
 10
33.6210635294333
 20
30.2499740143505
 30
0.0
 11
34.6210711588278
 21
30.2499740143505
 31
0.0
  0
LINE
  5
   3E6
  8
0
  6
CONTINUOUS
 62
     7
 10
40.7460627694741
 20
54.4999806900707
 30
0.0
 11
40.9960602064744
 21
54.4999806900707
 31
0.0
  0
LINE
  5
   3E7
  8
0
  6
CONTINUOUS
 62
     7
 10
40.7460628290788
 20
62.4999768753735
 30
0.0
 11
40.996059431614
 21
62.4999768753735
 31
0.0
  0
LINE
  5
   3E8
  8
0
  6
CONTINUOUS
 62
     7
 10
40.2460710396186
 20
62.4999768753735
 30
0.0
 11
41.2460720567232
 21
62.4999768753735
 31
0.0
  0
LINE
  5
   3E9
  8
0
  6
CONTINUOUS
 62
     7
 10
40.2460710396186
 20
54.4999806900707
 30
0.0
 11
40.9960707415953
 21
54.4999806900707
 31
0.0
  0
LINE
  5
   3EA
  8
0
  6
CONTINUOUS
 62
     7
 10
35.6210454096213
 20
48.4999654312817
 30
0.0
 11
35.6210454096213
 21
54.4999806900707
 31
0.0
  0
LINE
  5
   3EB
  8
0
  6
CONTINUOUS
 62
     7
 10
36.0535657991782
 20
26.4999721070019
 30
0.0
 11
36.1160677065268
 21
26.4999721070019
 31
0.0
  0
LINE
  5
   3EC
  8
0
  6
CONTINUOUS
 62
     7
 10
36.1160675873175
 20
26.3124721070019
 30
0.0
 11
41.2460710396186
 21
26.3124721070019
 31
0.0
  0
LINE
  5
   3ED
  8
0
  6
CONTINUOUS
 62
     7
 10
41.2460720557118
 20
26.312472107002
 30
0.0
 11
41.2460720557118
 21
27.4999701996534
 31
0.0
  0
LINE
  5
   3EE
  8
0
  6
CONTINUOUS
 62
     7
 10
36.1160677065268
 20
26.3124721070019
 30
0.0
 11
36.1160677065268
 21
27.4999701996533
 31
0.0
  0
LINE
  5
   3EF
  8
0
  6
CONTINUOUS
 62
     7
 10
33.6210507137414
 20
26.9374721070019
 30
0.0
 11
36.0535529245749
 21
26.9374721070019
 31
0.0
  0
LINE
  5
   3F0
  8
0
  6
CONTINUOUS
 62
     7
 10
33.6210636272467
 20
26.3124721070019
 30
0.0
 11
36.1160672296897
 21
26.3124721070019
 31
0.0
  0
LINE
  5
   3F1
  8
0
  6
CONTINUOUS
 62
     7
 10
33.6210379129582
 20
26.312472111811
 30
0.0
 11
33.6210622316532
 21
27.4998357365394
 31
0.0
  0
LINE
  5
   3F2
  8
0
  6
CONTINUOUS
 62
     7
 10
33.871071635665
 20
55.8749806900707
 30
0.0
 11
33.871071635665
 21
59.1874806900707
 31
0.0
  0
LINE
  5
   3F3
  8
0
  6
CONTINUOUS
 62
     7
 10
35.3710631867066
 20
57.3749806900707
 30
0.0
 11
35.3710631867066
 21
59.1874806900707
 31
0.0
  0
LINE
  5
   3F4
  8
0
  6
CONTINUOUS
 62
     7
 10
35.3710631867066
 20
57.3749806900707
 30
0.0
 11
36.3710634251252
 21
57.3749806900707
 31
0.0
  0
LINE
  5
   3F5
  8
0
  6
CONTINUOUS
 62
     7
 10
36.371064465199
 20
57.3749847538414
 30
0.0
 11
36.7460644734367
 21
57.7499847620791
 31
0.0
  0
LINE
  5
   3F6
  8
0
  6
CONTINUOUS
 62
     7
 10
36.5585669714096
 20
57.5624758515209
 30
0.0
 11
36.7460781814698
 21
57.7499796645128
 31
0.0
  0
LINE
  5
   3F7
  8
0
  6
CONTINUOUS
 62
     7
 10
36.7460753460462
 20
59.1874806975654
 30
0.0
 11
36.7460784454877
 21
57.7499806942291
 31
0.0
  0
LINE
  5
   3F8
  8
0
  6
CONTINUOUS
 62
     7
 10
36.7460634251252
 20
57.7499806900707
 30
0.0
 11
36.7460634251252
 21
59.1874806900707
 31
0.0
  0
LINE
  5
   3F9
  8
0
  6
CONTINUOUS
 62
     7
 10
34.8710702051535
 20
54.4999806900707
 30
0.0
 11
34.8710702051535
 21
55.4999730606762
 31
0.0
  0
LINE
  5
   3FA
  8
0
  6
CONTINUOUS
 62
     7
 10
34.8710700710431
 20
54.4999806900707
 30
0.0
 11
35.6210454096213
 21
54.4999806900707
 31
0.0
  0
LINE
  5
   3FB
  8
0
  6
CONTINUOUS
 62
     7
 10
33.8710715015546
 20
62.4999768753735
 30
0.0
 11
40.2460710247174
 21
62.4999768753735
 31
0.0
  0
LINE
  5
   3FC
  8
0
  6
CONTINUOUS
 62
     7
 10
33.871071635665
 20
59.1874806900707
 30
0.0
 11
33.871071635665
 21
62.4999768753735
 31
0.0
  0
LINE
  5
   3FD
  8
0
  6
CONTINUOUS
 62
     7
 10
33.871071635665
 20
59.1874806900707
 30
0.0
 11
37.7460713972464
 21
59.1874806900707
 31
0.0
  0
LINE
  5
   3FE
  8
0
  6
CONTINUOUS
 62
     7
 10
37.7460713972464
 20
56.6249806900707
 30
0.0
 11
37.7460713972464
 21
59.1874806900707
 31
0.0
  0
LINE
  5
   3FF
  8
0
  6
CONTINUOUS
 62
     7
 10
34.8710702051535
 20
56.6249806900707
 30
0.0
 11
37.7460713972464
 21
56.6249806900707
 31
0.0
  0
LINE
  5
   400
  8
0
  6
CONTINUOUS
 62
     7
 10
33.871071635665
 20
55.8749806900707
 30
0.0
 11
34.8710702051535
 21
55.8749806900707
 31
0.0
  0
LINE
  5
   401
  8
0
  6
CONTINUOUS
 62
     7
 10
36.9960704435721
 20
38.1874654312817
 30
0.0
 11
36.9960704435721
 21
46.9999692459789
 31
0.0
  0
LINE
  5
   402
  8
0
  6
CONTINUOUS
 62
     7
 10
36.9960865082657
 20
31.2499759217095
 30
0.0
 11
36.9960865082657
 21
35.562465431292
 31
0.0
  0
LINE
  5
   403
  8
0
  6
CONTINUOUS
 62
     7
 10
35.6210702076902
 20
46.9999692460086
 30
0.0
 11
36.9960704485585
 21
46.9999711533573
 31
0.0
  0
LINE
  5
   404
  8
0
  6
CONTINUOUS
 62
     7
 10
40.7460630674973
 20
46.9999749680248
 30
0.0
 11
40.9960609813348
 21
46.9999749680248
 31
0.0
  0
LINE
  5
   405
  8
0
  6
CONTINUOUS
 62
     7
 10
38.2460713972464
 20
54.3749806900707
 30
0.0
 11
38.2460713972464
 21
54.4999806900707
 31
0.0
  0
LINE
  5
   406
  8
0
  6
CONTINUOUS
 62
     7
 10
36.3710635294333
 20
38.1874654312817
 30
0.0
 11
36.9960704435721
 21
38.1874654312817
 31
0.0
  0
LINE
  5
   407
  8
0
  6
CONTINUOUS
 62
     7
 10
36.9960704435721
 20
38.1874654312817
 30
0.0
 11
37.8710713972464
 21
38.1874654312817
 31
0.0
  0
LINE
  5
   408
  8
0
  6
CONTINUOUS
 62
     7
 10
36.3710635294333
 20
35.5624654312817
 30
0.0
 11
36.9960702051535
 21
35.5624654312817
 31
0.0
  0
LINE
  5
   409
  8
0
  6
CONTINUOUS
 62
     7
 10
36.9960704435721
 20
35.5624654312817
 30
0.0
 11
37.8710713972464
 21
35.5624654312817
 31
0.0
  0
LINE
  5
   40A
  8
0
  6
CONTINUOUS
 62
     7
 10
35.6210698814751
 20
31.9999765546379
 30
0.0
 11
36.3710703404925
 21
31.2499765381625
 31
0.0
  0
LINE
  5
   40B
  8
0
  6
CONTINUOUS
 62
     7
 10
38.6835713972464
 20
54.3749806900707
 30
0.0
 11
38.6835713972464
 21
54.4999806900707
 31
0.0
  0
LINE
  5
   40C
  8
0
  6
CONTINUOUS
 62
     7
 10
39.3085713972464
 20
54.3749806900707
 30
0.0
 11
39.3085713972464
 21
54.4999806900707
 31
0.0
  0
LINE
  5
   40D
  8
0
  6
CONTINUOUS
 62
     7
 10
41.2460720567232
 20
27.4999692459794
 30
0.0
 11
41.2460720567232
 21
62.4999768753739
 31
0.0
  0
LINE
  5
   40E
  8
0
  6
CONTINUOUS
 62
     7
 10
41.4960676035653
 20
40.7499635239331
 30
0.0
 11
41.4960676035653
 21
45.7499635239331
 31
0.0
  0
LINE
  5
   40F
  8
0
  6
CONTINUOUS
 62
     7
 10
35.3710702051535
 20
46.9999692459789
 30
0.0
 11
35.6210702051535
 21
46.9999692459789
 31
0.0
  0
LINE
  5
   410
  8
0
  6
CONTINUOUS
 62
     7
 10
35.3710702051535
 20
40.0624806900707
 30
0.0
 11
35.3710702051535
 21
46.9999692459789
 31
0.0
  0
LINE
  5
   411
  8
0
  6
CONTINUOUS
 62
     7
 10
35.3710704728294
 20
32.2499764354347
 30
0.0
 11
35.6210704642714
 21
31.9999754746133
 31
0.0
  0
LINE
  5
   412
  8
0
  6
CONTINUOUS
 62
     7
 10
35.3710702051535
 20
32.2499768753735
 30
0.0
 11
35.3710702051535
 21
32.9374806900707
 31
0.0
  0
LINE
  5
   413
  8
0
  6
CONTINUOUS
 62
     7
 10
36.371067820938
 20
30.2499749729922
 30
0.0
 11
36.3710744966583
 21
28.4999330121514
 31
0.0
  0
LINE
  5
   414
  8
0
  6
CONTINUOUS
 62
     7
 10
36.3710425485887
 20
28.4999730551207
 30
0.0
 11
36.3710463632861
 21
30.2499730550716
 31
0.0
  0
LINE
  5
   415
  8
0
  6
CONTINUOUS
 62
     7
 10
33.620913933933
 20
28.4999091670439
 30
0.0
 11
34.37098641332
 21
28.4999244258331
 31
0.0
  0
LINE
  5
   416
  8
0
  6
CONTINUOUS
 62
     7
 10
33.6209053533651
 20
27.4999406335183
 30
0.0
 11
33.6209139364339
 21
28.4999091624213
 31
0.0
  0
LINE
  5
   417
  8
0
  6
CONTINUOUS
 62
     7
 10
33.6209053508376
 20
27.4999406383915
 30
0.0
 11
34.3709845057282
 21
27.4999568508545
 31
0.0
  0
LINE
  5
   418
  8
0
  6
CONTINUOUS
 62
     7
 10
33.8710434357631
 20
27.4998357960823
 30
0.0
 11
34.621057264064
 21
27.499915904723
 31
0.0
  0
LINE
  5
   419
  8
0
  6
CONTINUOUS
 62
     7
 10
33.8710644733394
 20
28.499909174688
 30
0.0
 11
34.621057320765
 21
28.4999396922652
 31
0.0
  0
LINE
  5
   41A
  8
0
  6
CONTINUOUS
 62
     7
 10
33.6210630525962
 20
55.4999730606762
 30
0.0
 11
34.8710697283164
 21
55.4999730606762
 31
0.0
  0
LINE
  5
   41B
  8
0
  6
CONTINUOUS
 62
     7
 10
33.6210635294333
 20
59.4999730606762
 30
0.0
 11
33.871071635665
 21
59.4999730606762
 31
0.0
  0
LINE
  5
   41C
  8
0
  6
CONTINUOUS
 62
     7
 10
36.9960713972464
 20
54.3749806900707
 30
0.0
 11
38.6210713972464
 21
54.3749806900707
 31
0.0
  0
LINE
  5
   41D
  8
0
  6
CONTINUOUS
 62
     7
 10
36.9960713972464
 20
46.9999692459789
 30
0.0
 11
36.9960713972464
 21
54.3749806900707
 31
0.0
  0
LINE
  5
   41E
  8
0
  6
CONTINUOUS
 62
     7
 10
36.9960713899202
 20
46.9999692463183
 30
0.0
 11
38.6210713899626
 21
46.9999768757131
 31
0.0
  0
LINE
  5
   41F
  8
0
  6
CONTINUOUS
 62
     7
 10
39.3710713972464
 20
54.3749806900707
 30
0.0
 11
40.9960713972464
 21
54.3749806900707
 31
0.0
  0
LINE
  5
   420
  8
0
  6
CONTINUOUS
 62
     7
 10
40.9960713972464
 20
46.9999749680248
 30
0.0
 11
40.9960713972464
 21
54.3749806900707
 31
0.0
  0
LINE
  5
   421
  8
0
  6
CONTINUOUS
 62
     7
 10
39.121063425797
 20
46.9999768753948
 30
0.0
 11
40.7460634256274
 21
46.9999749680461
 31
0.0
  0
LINE
  5
   422
  8
0
  6
CONTINUOUS
 62
     7
 10
34.8710711588278
 20
46.9999692459789
 30
0.0
 11
35.3710702051535
 21
46.9999692459789
 31
0.0
  0
LINE
  5
   423
  8
0
  6
CONTINUOUS
 62
     7
 10
34.8710711588278
 20
48.4999654312817
 30
0.0
 11
35.6210454096213
 21
48.4999654312817
 31
0.0
  0
LINE
  5
   424
  8
0
  6
CONTINUOUS
 62
     7
 10
34.8710711588278
 20
46.9999692459789
 30
0.0
 11
34.8710711588278
 21
48.4999654312817
 31
0.0
  0
LINE
  5
   425
  8
0
  6
CONTINUOUS
 62
     7
 10
38.6210713972464
 20
46.9999768753735
 30
0.0
 11
39.3710713972464
 21
46.9999768753735
 31
0.0
  0
LINE
  5
   426
  8
0
  6
CONTINUOUS
 62
     7
 10
38.6210713972464
 20
54.3749806900707
 30
0.0
 11
39.3710713972464
 21
54.3749806900707
 31
0.0
  0
LINE
  5
   427
  8
0
  6
CONTINUOUS
 62
     7
 10
37.3710713972464
 20
51.5624768753735
 30
0.0
 11
37.9960713972464
 21
51.5624768753735
 31
0.0
  0
LINE
  5
   428
  8
0
  6
CONTINUOUS
 62
     7
 10
37.3710713972464
 20
49.8124768753735
 30
0.0
 11
37.3710713972464
 21
51.5624768753735
 31
0.0
  0
LINE
  5
   429
  8
0
  6
CONTINUOUS
 62
     7
 10
37.3710713972464
 20
49.8124768753735
 30
0.0
 11
37.9960713972464
 21
49.8124768753735
 31
0.0
  0
LINE
  5
   42A
  8
0
  6
CONTINUOUS
 62
     7
 10
37.9960713972464
 20
49.8124768753735
 30
0.0
 11
37.9960713972464
 21
51.5624768753735
 31
0.0
  0
LINE
  5
   42B
  8
0
  6
CONTINUOUS
 62
     7
 10
39.9960713823453
 20
51.5624768753735
 30
0.0
 11
40.6210713823453
 21
51.5624768753735
 31
0.0
  0
LINE
  5
   42C
  8
0
  6
CONTINUOUS
 62
     7
 10
40.6210713823453
 20
49.8124768753735
 30
0.0
 11
40.6210713823453
 21
51.5624768753735
 31
0.0
  0
LINE
  5
   42D
  8
0
  6
CONTINUOUS
 62
     7
 10
39.9960713823453
 20
49.8124768753735
 30
0.0
 11
40.6210713823453
 21
49.8124768753735
 31
0.0
  0
LINE
  5
   42E
  8
0
  6
CONTINUOUS
 62
     7
 10
39.9960713972464
 20
49.8124768753735
 30
0.0
 11
39.9960713972464
 21
51.5624768753735
 31
0.0
  0
LINE
  5
   42F
  8
0
  6
CONTINUOUS
 62
     7
 10
34.8710796861596
 20
28.4999721070115
 30
0.0
 11
34.8710796861596
 21
29.6249740143602
 31
0.0
  0
LINE
  5
   430
  8
0
  6
CONTINUOUS
 62
     7
 10
36.0535657991782
 20
26.4999721070019
 30
0.0
 11
36.0535657991782
 21
27.4999721070019
 31
0.0
  0
LINE
  5
   431
  8
0
  6
CONTINUOUS
 62
     7
 10
35.9960631867066
 20
58.1249806900707
 30
0.0
 11
35.9960631867066
 21
59.1874806900707
 31
0.0
  0
LINE
  5
   432
  8
0
  6
CONTINUOUS
 62
     7
 10
35.9960647459771
 20
58.1249768959683
 30
0.0
 11
36.5585649743363
 21
57.5624769046851
 31
0.0
  0
LINE
  5
   433
  8
0
  6
CONTINUOUS
 62
     7
 10
35.3710631867066
 20
58.1249806900707
 30
0.0
 11
35.9960631867066
 21
58.1249806900707
 31
0.0
  0
LINE
  5
   434
  8
0
  6
CONTINUOUS
 62
     7
 10
33.871071635665
 20
59.9374806900707
 30
0.0
 11
38.496071635665
 21
59.9374806900707
 31
0.0
  0
LINE
  5
   435
  8
0
  6
CONTINUOUS
 62
     7
 10
34.8710702051535
 20
55.8749806900707
 30
0.0
 11
38.4960713972464
 21
55.8749806900707
 31
0.0
  0
LINE
  5
   436
  8
0
  6
CONTINUOUS
 62
     7
 10
37.7460698512885
 20
56.6249847709964
 30
0.0
 11
38.4960698677639
 21
55.8749847545209
 31
0.0
  0
LINE
  5
   437
  8
0
  6
CONTINUOUS
 62
     7
 10
38.4960713972464
 20
55.8749806900707
 30
0.0
 11
38.4960713972464
 21
59.9374806900707
 31
0.0
  0
LINE
  5
   438
  8
0
  6
CONTINUOUS
 62
     7
 10
37.7460726537137
 20
59.1874850164207
 30
0.0
 11
38.4960726701892
 21
59.9374850328962
 31
0.0
  0
LINE
  5
   439
  8
0
  6
CONTINUOUS
 62
     7
 10
41.2460696687117
 20
45.749963523933
 30
0.0
 11
41.4960690130606
 21
45.749963523933
 31
0.0
  0
LINE
  5
   43A
  8
0
  6
CONTINUOUS
 62
     7
 10
41.2460694302932
 20
40.749963523933
 30
0.0
 11
41.4960687746421
 21
40.749963523933
 31
0.0
  0
LINE
  5
   43B
  8
0
  6
CONTINUOUS
 62
     7
 10
36.9960797418465
 20
28.4999635268214
 30
0.0
 11
36.9960837949622
 21
27.7499902296205
 31
0.0
  0
LINE
  5
   43C
  8
0
  6
CONTINUOUS
 62
     7
 10
36.996067344044
 20
30.2499730607487
 30
0.0
 11
36.9960797418105
 21
28.4999635245119
 31
0.0
  0
LINE
  5
   43D
  8
0
  6
CONTINUOUS
 62
     7
 10
36.9960673440537
 20
30.2499730584841
 30
0.0
 11
36.9960740197739
 21
31.2499759195061
 31
0.0
  0
LINE
  5
   43E
  8
0
  6
CONTINUOUS
 62
     7
 10
33.6209074994399
 20
27.7499686105079
 30
0.0
 11
34.6209924784291
 21
27.7499749682583
 31
0.0
  0
LINE
  5
   43F
  8
0
  6
CONTINUOUS
 62
     7
 10
34.6209924784169
 20
27.7499749682634
 30
0.0
 11
36.9960837932601
 21
27.7499902270528
 31
0.0
  0
LINE
  5
   440
  8
0
  6
CONTINUOUS
 62
     7
 10
36.3710743080911
 20
28.4999333699838
 30
0.0
 11
36.996083609439
 21
27.7499905800053
 31
0.0
  0
LINE
  5
   441
  8
0
  6
CONTINUOUS
 62
     7
 10
34.8710711588278
 20
47.1249692459789
 30
0.0
 11
36.9960713972464
 21
47.1249692459789
 31
0.0
  0
ARC
  5
   442
  8
0
  6
CONTINUOUS
 62
     7
 10
37.8711076483678
 20
36.8749664113679
 30
0.0
 40
1.31248470979948
 50
269.998416840227
 51
450.00158871796
  0
LINE
  5
   443
  8
0
  6
DASHDOT
 62
     7
 10
37.8711076483678
 20
35.3124817015684
 30
0.0
 11
37.8711076483678
 21
38.4374511211674
 31
0.0
  0
LINE
  5
   444
  8
0
  6
DASHDOT
 62
     7
 10
36.0586149664471
 20
36.8749664113679
 30
0.0
 11
39.183584386046
 21
36.8749664113679
 31
0.0
  0
LINE
  5
   445
  8
0
  6
CONTINUOUS
 62
     7
 10
34.8710702051535
 20
55.4999730606762
 30
0.0
 11
34.8710702051535
 21
56.6249806900707
 31
0.0
  0
LINE
  5
   446
  8
0
  6
CONTINUOUS
 62
     7
 10
35.6210454096213
 20
54.4999806900707
 30
0.0
 11
40.2460710396186
 21
54.4999806900707
 31
0.0
  0
LINE
  5
   447
  8
0
  6
CONTINUOUS
 62
     7
 10
29.2460635294333
 20
40.0624806900707
 30
0.0
 11
35.8710635294333
 21
40.0624806900707
 31
0.0
  0
LINE
  5
   448
  8
0
  6
CONTINUOUS
 62
     7
 10
29.2460635294333
 20
32.9374806900707
 30
0.0
 11
35.8710635294333
 21
32.9374806900707
 31
0.0
  0
LINE
  5
   449
  8
0
  6
CONTINUOUS
 62
     7
 10
36.3710635294333
 20
33.4374806900707
 30
0.0
 11
36.3710635294333
 21
39.5624806900707
 31
0.0
  0
ARC
  5
   44A
  8
0
  6
CONTINUOUS
 62
     7
 10
35.8710635294333
 20
39.5624806900707
 30
0.0
 40
0.5
 50
0.0
 51
90.0
  0
ARC
  5
   44B
  8
0
  6
CONTINUOUS
 62
     7
 10
35.8710635294333
 20
33.4374806900707
 30
0.0
 40
0.5
 50
270.0
 51
360.0
  0
LINE
  5
   44C
  8
0
  6
CONTINUOUS
 62
     7
 10
33.6210635294333
 20
30.6874806900707
 30
0.0
 11
33.6210635294333
 21
32.9374806900707
 31
0.0
  0
LINE
  5
   44D
  8
0
  6
CONTINUOUS
 62
     7
 10
33.0585597147361
 20
30.6874806900707
 30
0.0
 11
33.0585597147361
 21
32.9374806900707
 31
0.0
  0
LINE
  5
   44E
  8
0
  6
CONTINUOUS
 62
     7
 10
32.4835627664939
 20
30.6874768753735
 30
0.0
 11
32.4835627664939
 21
32.9374806900707
 31
0.0
  0
LINE
  5
   44F
  8
0
  6
CONTINUOUS
 62
     7
 10
31.583561240615
 20
30.6874768753735
 30
0.0
 11
31.583561240615
 21
32.9374806900707
 31
0.0
  0
LINE
  5
   450
  8
0
  6
CONTINUOUS
 62
     7
 10
30.6835597147361
 20
30.6874768753735
 30
0.0
 11
30.6835597147361
 21
32.9374806900707
 31
0.0
  0
LINE
  5
   451
  8
0
  6
CONTINUOUS
 62
     7
 10
29.7835620035544
 20
30.6874768753735
 30
0.0
 11
29.7835620035544
 21
32.9374806900707
 31
0.0
  0
LINE
  5
   452
  8
0
  6
CONTINUOUS
 62
     7
 10
29.333561240615
 20
30.6874768753735
 30
0.0
 11
29.333561240615
 21
32.9374806900707
 31
0.0
  0
LINE
  5
   453
  8
0
  6
DOT
 62
     7
 10
43.9085715015546
 20
62.4999768753735
 30
0.0
 11
51.2835720567232
 21
62.4999768753735
 31
0.0
  0
LINE
  5
   454
  8
0
  6
DOT
 62
     7
 10
51.2835720567232
 20
26.3124721070019
 30
0.0
 11
51.2835720567232
 21
62.4999768753739
 31
0.0
  0
LINE
  5
   455
  8
0
  6
DOT
 62
     7
 10
51.2835696687117
 20
45.749963523933
 30
0.0
 11
51.5335690130606
 21
45.749963523933
 31
0.0
  0
LINE
  5
   456
  8
0
  6
DOT
 62
     7
 10
51.5335676035653
 20
40.7499635239331
 30
0.0
 11
51.5335676035653
 21
45.7499635239331
 31
0.0
  0
LINE
  5
   457
  8
0
  6
DOT
 62
     7
 10
51.2835694302932
 20
40.749963523933
 30
0.0
 11
51.5335687746421
 21
40.749963523933
 31
0.0
  0
LINE
  5
   458
  8
0
  6
DOT
 62
     7
 10
44.094708850094
 20
26.3124721070019
 30
0.0
 11
51.2835710396186
 21
26.3124721070019
 31
0.0
  0
LINE
  5
   459
  8
0
  6
DASHDOT
 62
     7
 10
21.1648488044739
 20
-4.07994146448601
 30
0.0
 11
21.1648488044739
 21
188.587535196219
 31
0.0
  0
LINE
  5
   45A
  8
0
  6
DASHDOT
 62
     7
 10
-12.5029322578476
 20
43.6749768753735
 30
0.0
 11
52.5687741620187
 21
43.6749768753735
 31
0.0
  0
LINE
  5
   45B
  8
0
  6
DASHDOT
 62
     7
 10
-11.6029322578476
 20
142.174966041091
 30
0.0
 11
53.4687741620187
 21
142.174966041091
 31
0.0
  0
LINE
  5
   45C
  8
0
  6
CONTINUOUS
 62
     7
 10
51.6876004018182
 20
-9.0725254687089
 30
0.0
 11
69.3678022589919
 21
-9.0725254687089
 31
0.0
  0
INSERT
  5
   45D
  8
0
  6
CONTINUOUS
 62
     7
  2
*UDIM310
 10
0.0
 20
0.0
 30
0.0
  0
LINE
  5
   45E
  8
0
  6
DOT
 62
     7
 10
-6.33515119552611
 20
158.250017449834
 30
0.0
 11
-5.08515119552613
 21
158.250017449834
 31
0.0
  0
LINE
  5
   45F
  8
0
  6
DOT
 62
     7
 10
-5.08515119552612
 20
158.250017449834
 30
0.0
 11
-2.58515119552612
 21
155.750017449834
 31
0.0
  0
LINE
  5
   460
  8
0
  6
DOT
 62
     7
 10
44.9148488044739
 20
155.750017449834
 30
0.0
 11
47.4148488044739
 21
158.250017449834
 31
0.0
  0
LINE
  5
   461
  8
0
  6
DOT
 62
     7
 10
47.4148488044739
 20
158.250017449834
 30
0.0
 11
48.6648488044739
 21
158.250017449834
 31
0.0
  0
LINE
  5
   462
  8
0
  6
DOT
 62
     7
 10
47.4148488044739
 20
26.7499825501659
 30
0.0
 11
48.6648488044739
 21
26.7499825501659
 31
0.0
  0
LINE
  5
   463
  8
0
  6
DOT
 62
     7
 10
44.9148488044739
 20
29.2499825501659
 30
0.0
 11
47.4148488044739
 21
26.7499825501659
 31
0.0
  0
LINE
  5
   464
  8
0
  6
DOT
 62
     7
 10
-5.08515119552612
 20
26.7499825501659
 30
0.0
 11
-2.58515119552612
 21
29.2499825501659
 31
0.0
  0
LINE
  5
   465
  8
0
  6
DOT
 62
     7
 10
-6.33515119552611
 20
26.7499825501659
 30
0.0
 11
-5.08515119552613
 21
26.7499825501659
 31
0.0
  0
ARC
  5
   466
  8
0
  6
DOT
 62
     7
 10
45.6648488044739
 20
41.75
 30
0.0
 40
0.75
 50
90.0
 51
180.0
  0
LINE
  5
   467
  8
0
  6
CONTINUOUS
 62
     7
 10
-0.960151195526123
 20
179.5
 30
0.0
 11
44.5398488044739
 21
179.5
 31
0.0
  0
LINE
  5
   468
  8
0
  6
CONTINUOUS
 62
     7
 10
43.6585659160567
 20
163.0
 30
0.0
 11
44.5398488044739
 21
163.0
 31
0.0
  0
LINE
  5
   469
  8
0
  6
CONTINUOUS
 62
     7
 10
-1.96015119552612
 20
164.0
 30
0.0
 11
-1.96015119552612
 21
178.5
 31
0.0
  0
LINE
  5
   46A
  8
0
  6
CONTINUOUS
 62
     7
 10
45.5398488044739
 20
164.0
 30
0.0
 11
45.5398488044739
 21
178.5
 31
0.0
  0
ARC
  5
   46B
  8
0
  6
CONTINUOUS
 62
     7
 10
-0.960151195526123
 20
178.5
 30
0.0
 40
1.0
 50
90.0
 51
180.0
  0
ARC
  5
   46C
  8
0
  6
CONTINUOUS
 62
     7
 10
44.5398488044739
 20
164.0
 30
0.0
 40
1.0
 50
270.0
 51
360.0
  0
ARC
  5
   46D
  8
0
  6
CONTINUOUS
 62
     7
 10
44.5398488044739
 20
178.5
 30
0.0
 40
1.0
 50
0.0
 51
90.0
  0
LINE
  5
   46E
  8
0
  6
CONTINUOUS
 62
     7
 10
-1.96015119552612
 20
105.0
 30
0.0
 11
-1.96015119552612
 21
119.5
 31
0.0
  0
ARC
  5
   46F
  8
0
  6
CONTINUOUS
 62
     7
 10
-0.960151195526123
 20
119.5
 30
0.0
 40
1.0
 50
114.757763799596
 51
180.0
  0
LINE
  5
   470
  8
0
  6
CONTINUOUS
 62
     7
 10
43.6585660138701
 20
120.5
 30
0.0
 11
44.5398488044739
 21
120.5
 31
0.0
  0
ARC
  5
   471
  8
0
  6
CONTINUOUS
 62
     7
 10
44.5398488044739
 20
119.5
 30
0.0
 40
1.0
 50
0.0
 51
90.0
  0
LINE
  5
   472
  8
0
  6
CONTINUOUS
 62
     7
 10
45.5398488044739
 20
105.0
 30
0.0
 11
45.5398488044739
 21
119.5
 31
0.0
  0
ARC
  5
   473
  8
0
  6
CONTINUOUS
 62
     7
 10
44.5398488044739
 20
105.0
 30
0.0
 40
1.0
 50
270.0
 51
360.0
  0
LINE
  5
   474
  8
0
  6
CONTINUOUS
 62
     7
 10
-0.960151195526123
 20
104.0
 30
0.0
 11
44.5398488044739
 21
104.0
 31
0.0
  0
ARC
  5
   475
  8
0
  6
CONTINUOUS
 62
     7
 10
-0.960151195526123
 20
105.0
 30
0.0
 40
1.0
 50
180.0
 51
270.0
  0
ARC
  5
   476
  8
0
  6
CONTINUOUS
 62
     7
 10
-0.960151195526123
 20
65.5
 30
0.0
 40
1.0
 50
180.0
 51
245.242079444591
  0
LINE
  5
   477
  8
0
  6
CONTINUOUS
 62
     7
 10
33.6210635294333
 20
64.5
 30
0.0
 11
44.5398488044739
 21
64.5
 31
0.0
  0
LINE
  5
   478
  8
0
  6
CONTINUOUS
 62
     7
 10
-1.96015119552612
 20
65.5
 30
0.0
 11
-1.96015119552612
 21
80.0
 31
0.0
  0
ARC
  5
   479
  8
0
  6
CONTINUOUS
 62
     7
 10
-0.960151195526123
 20
80.0
 30
0.0
 40
1.0
 50
90.0
 51
180.0
  0
LINE
  5
   47A
  8
0
  6
CONTINUOUS
 62
     7
 10
-0.960151195526123
 20
81.0
 30
0.0
 11
44.5398488044739
 21
81.0
 31
0.0
  0
ARC
  5
   47B
  8
0
  6
CONTINUOUS
 62
     7
 10
44.5398488044739
 20
80.0
 30
0.0
 40
1.0
 50
0.0
 51
90.0
  0
LINE
  5
   47C
  8
0
  6
CONTINUOUS
 62
     7
 10
45.5398488044739
 20
65.5
 30
0.0
 11
45.5398488044739
 21
80.0
 31
0.0
  0
ARC
  5
   47D
  8
0
  6
CONTINUOUS
 62
     7
 10
44.5398488044739
 20
65.5
 30
0.0
 40
1.0
 50
270.0
 51
360.0
  0
LINE
  5
   47E
  8
0
  6
CONTINUOUS
 62
     7
 10
33.6210636272467
 20
22.0
 30
0.0
 11
44.5398488044739
 21
22.0
 31
0.0
  0
ARC
  5
   47F
  8
0
  6
CONTINUOUS
 62
     7
 10
44.5398488044739
 20
21.0
 30
0.0
 40
1.0
 50
0.0
 51
90.0
  0
LINE
  5
   480
  8
0
  6
CONTINUOUS
 62
     7
 10
45.5398488044739
 20
6.5
 30
0.0
 11
45.5398488044739
 21
21.0
 31
0.0
  0
ARC
  5
   481
  8
0
  6
CONTINUOUS
 62
     7
 10
44.5398488044739
 20
6.5
 30
0.0
 40
1.0
 50
270.0
 51
360.0
  0
LINE
  5
   482
  8
0
  6
CONTINUOUS
 62
     7
 10
-0.960151195526123
 20
5.5
 30
0.0
 11
44.5398488044739
 21
5.5
 31
0.0
  0
ARC
  5
   483
  8
0
  6
CONTINUOUS
 62
     7
 10
-0.960151195526123
 20
21.0
 30
0.0
 40
1.0
 50
114.757914383858
 51
180.0
  0
LINE
  5
   484
  8
0
  6
CONTINUOUS
 62
     7
 10
-1.96015119552612
 20
6.5
 30
0.0
 11
-1.96015119552612
 21
21.0
 31
0.0
  0
ARC
  5
   485
  8
0
  6
CONTINUOUS
 62
     7
 10
-0.960151195526123
 20
6.5
 30
0.0
 40
1.0
 50
180.0
 51
270.0
  0
ARC
  5
   486
  8
0
  6
DOT
 62
     7
 10
-3.58515119552612
 20
143.5
 30
0.0
 40
1.0
 50
270.0
 51
360.0
  0
ARC
  5
   487
  8
0
  6
CONTINUOUS
 62
     7
 10
-0.960151195526123
 20
164.0
 30
0.0
 40
1.0
 50
180.0
 51
245.242230028883
  0
INSERT
  5
   488
  8
0
  6
CONTINUOUS
 62
     7
  2
*UDIM311
 10
0.0
 20
0.0
 30
0.0
  0
INSERT
  5
   489
  8
0
  6
CONTINUOUS
 62
     7
  2
*UDIM312
 10
0.0
 20
0.0
 30
0.0
  0
INSERT
  5
   48A
  8
0
  6
CONTINUOUS
 62
     7
  2
*UDIM313
 10
0.0
 20
0.0
 30
0.0
  0
INSERT
  5
   48B
  8
0
  6
CONTINUOUS
 62
     7
  2
*UDIM314
 10
0.0
 20
0.0
 30
0.0
  0
TEXT
  5
   48C
  8
0
  6
CONTINUOUS
 62
     7
 10
68.7771078050137
 20
90.8946990817785
 30
0.0
 40
3.00000002980232
  1
X
 41
0.916666604744064
 72
     1
 11
69.8771077394485
 21
92.3946990966797
 31
0.0
 73
     2
  0
INSERT
  5
   48D
  8
0
  6
CONTINUOUS
 62
     7
  2
*UDIM315
 10
0.0
 20
0.0
 30
0.0
  0
INSERT
  5
   48E
  8
0
  6
CONTINUOUS
 62
     7
  2
*UDIM316
 10
0.0
 20
0.0
 30
0.0
  0
INSERT
  5
   48F
  8
0
  6
CONTINUOUS
 62
     7
  2
*UDIM317
 10
0.0
 20
0.0
 30
0.0
  0
INSERT
  5
   490
  8
0
  6
CONTINUOUS
 62
     7
  2
*UDIM318
 10
0.0
 20
0.0
 30
0.0
  0
TEXT
  5
   491
  8
0
  6
CONTINUOUS
 62
     7
 10
-23.4607042997013
 20
86.9320605687816
 30
0.0
 40
3.00000002980232
  1
=  =
 50
90.0
 41
0.916666604744064
 72
     1
 11
-24.960704314609
 21
92.1570602655411
 31
0.0
 73
     2
  0
INSERT
  5
   492
  8
0
  6
CONTINUOUS
 62
     7
  2
*UDIM319
 10
0.0
 20
0.0
 30
0.0
  0
INSERT
  5
   493
  8
0
  6
CONTINUOUS
 62
     7
  2
*UDIM320
 10
0.0
 20
0.0
 30
0.0
  0
INSERT
  5
   494
  8
0
  6
CONTINUOUS
 62
     7
  2
*UDIM321
 10
0.0
 20
0.0
 30
0.0
  0
TEXT
  5
   495
  8
0
  6
CONTINUOUS
 62
     7
 10
19.4450879991055
 20
-32.026056304574
 30
0.0
 40
3.00000002980232
  1
Y
 41
0.916666604744064
 72
     1
 11
20.5450879335403
 21
-30.5260562896729
 31
0.0
 73
     2
  0
TEXT
  5
   496
  8
0
  6
CONTINUOUS
 62
     7
 10
18.2071233689785
 20
208.120895370841
 30
0.0
 40
3.00000002980232
  1
Y
 41
0.916666604744064
 72
     1
 11
19.3071233034134
 21
209.620895385742
 31
0.0
 73
     2
  0
LINE
  5
   497
  8
0
  6
DASHDOT
 62
     7
 10
-57.0021875927909
 20
114.999987549482
 30
0.0
 11
-62.2684454384244
 21
114.999987549482
 31
0.0
  0
LINE
  5
   498
  8
0
  6
CONTINUOUS
 62
     7
 10
-60.4584541320816
 20
149.124991074001
 30
0.0
 11
-60.4584541320816
 21
149.249983444606
 31
0.0
  0
LINE
  5
   499
  8
0
  6
CONTINUOUS
 62
     7
 10
-60.4584541320816
 20
152.999983444606
 30
0.0
 11
-60.4584541320816
 21
157.999975815212
 31
0.0
  0
LINE
  5
   49A
  8
0
  6
CONTINUOUS
 62
     7
 10
-61.0834617614761
 20
149.249983444606
 30
0.0
 11
-61.0834617614761
 21
152.999983444606
 31
0.0
  0
LINE
  5
   49B
  8
0
  6
CONTINUOUS
 62
     7
 10
-60.4584541320816
 20
149.249983444606
 30
0.0
 11
-61.0834617614761
 21
149.249983444606
 31
0.0
  0
LINE
  5
   49C
  8
0
  6
CONTINUOUS
 62
     7
 10
-60.4584541320816
 20
152.999983444606
 30
0.0
 11
-61.0834617614761
 21
152.999983444606
 31
0.0
  0
LINE
  5
   49D
  8
0
  6
CONTINUOUS
 62
     7
 10
-61.0834617614761
 20
157.999975815212
 30
0.0
 11
-61.0834617614761
 21
161.749975815212
 31
0.0
  0
LINE
  5
   49E
  8
0
  6
CONTINUOUS
 62
     7
 10
-60.4584541320816
 20
157.999975815212
 30
0.0
 11
-61.0834617614761
 21
157.999975815212
 31
0.0
  0
LINE
  5
   49F
  8
0
  6
CONTINUOUS
 62
     7
 10
-60.4584541320816
 20
161.749975815212
 30
0.0
 11
-61.0834617614761
 21
161.749975815212
 31
0.0
  0
LINE
  5
   4A0
  8
0
  6
CONTINUOUS
 62
     7
 10
-77.5834503173843
 20
149.124983444606
 30
0.0
 11
-77.5834503173843
 21
162.874975815212
 31
0.0
  0
LINE
  5
   4A1
  8
0
  6
CONTINUOUS
 62
     7
 10
-60.4584213280187
 20
162.749975815212
 30
0.0
 11
-60.4584213280187
 21
167.903631821071
 31
0.0
  0
LINE
  5
   4A2
  8
0
  6
CONTINUOUS
 62
     7
 10
-77.5834541320816
 20
167.249975815212
 30
0.0
 11
-78.4584541320816
 21
167.249975815212
 31
0.0
  0
LINE
  5
   4A3
  8
0
  6
CONTINUOUS
 62
     7
 10
-77.5834061241961
 20
162.874973635408
 30
0.0
 11
-77.5834061241961
 21
167.249973635408
 31
0.0
  0
LINE
  5
   4A4
  8
0
  6
CONTINUOUS
 62
     7
 10
-77.5834503173843
 20
146.749987259303
 30
0.0
 11
-77.5834503173843
 21
149.124991074001
 31
0.0
  0
LINE
  5
   4A5
  8
0
  6
CONTINUOUS
 62
     7
 10
-60.4584566819122
 20
131.499993618836
 30
0.0
 11
-60.4584643113065
 21
131.573552396406
 31
0.0
  0
LINE
  5
   4A6
  8
0
  6
CONTINUOUS
 62
     7
 10
-60.4584753701134
 20
135.426433948883
 30
0.0
 11
-60.4584753701134
 21
149.124988941558
 31
0.0
  0
LINE
  5
   4A7
  8
0
  6
CONTINUOUS
 62
     7
 10
-61.2084457397473
 20
134.874991074001
 30
0.0
 11
-78.2084541320816
 21
134.874991074001
 31
0.0
  0
LINE
  5
   4A8
  8
0
  6
CONTINUOUS
 62
     7
 10
-61.2084457397473
 20
132.124991074001
 30
0.0
 11
-78.2084541320816
 21
132.124991074001
 31
0.0
  0
LINE
  5
   4A9
  8
0
  6
CONTINUOUS
 62
     7
 10
-62.5164688811441
 20
134.874993616306
 30
0.0
 11
-60.4584626826418
 21
135.426436472841
 31
0.0
  0
LINE
  5
   4AA
  8
0
  6
CONTINUOUS
 62
     7
 10
-60.4584638361371
 20
131.573550258982
 30
0.0
 11
-62.5164700820259
 21
132.124991341181
 31
0.0
  0
LINE
  5
   4AB
  8
0
  6
CONTINUOUS
 62
     7
 10
-76.4584503173844
 20
135.624991074001
 30
0.0
 11
-78.4584503173843
 21
135.624991074001
 31
0.0
  0
LINE
  5
   4AC
  8
0
  6
CONTINUOUS
 62
     7
 10
-76.4584503173843
 20
135.624991074001
 30
0.0
 11
-76.4584503173843
 21
146.249987259303
 31
0.0
  0
LINE
  5
   4AD
  8
0
  6
CONTINUOUS
 62
     7
 10
-60.7084617614761
 20
133.624991074001
 30
0.0
 11
-60.7084617614761
 21
135.359446182643
 31
0.0
  0
LINE
  5
   4AE
  8
0
  6
CONTINUOUS
 62
     7
 10
-60.708458240226
 20
131.640538450694
 30
0.0
 11
-60.7084620549201
 21
131.874993559336
 31
0.0
  0
LINE
  5
   4AF
  8
0
  6
CONTINUOUS
 62
     7
 10
-59.9584617614761
 20
135.624991074001
 30
0.0
 11
-60.4584617614761
 21
135.624991074001
 31
0.0
  0
LINE
  5
   4B0
  8
0
  6
CONTINUOUS
 62
     7
 10
-59.9584617614761
 20
136.999991074001
 30
0.0
 11
-60.4584617614761
 21
136.999991074001
 31
0.0
  0
LINE
  5
   4B1
  8
0
  6
CONTINUOUS
 62
     7
 10
-78.4584449148851
 20
131.875000830549
 30
0.0
 11
-78.2084487377313
 21
132.124997007703
 31
0.0
  0
LINE
  5
   4B2
  8
0
  6
CONTINUOUS
 62
     7
 10
-78.2084509729504
 20
134.87499142449
 30
0.0
 11
-78.4584509643933
 21
135.124991415933
 31
0.0
  0
LINE
  5
   4B3
  8
0
  6
CONTINUOUS
 62
     7
 10
-77.5834503173843
 20
146.249987259303
 30
0.0
 11
-77.5834503173843
 21
146.749987259303
 31
0.0
  0
LINE
  5
   4B4
  8
0
  6
CONTINUOUS
 62
     7
 10
-59.9584617614761
 20
126.999998703396
 30
0.0
 11
-60.9584617614761
 21
126.999998703396
 31
0.0
  0
LINE
  5
   4B5
  8
0
  6
CONTINUOUS
 62
     7
 10
-60.4584541320816
 20
130.499991074001
 30
0.0
 11
-60.4584541320816
 21
131.499991074001
 31
0.0
  0
LINE
  5
   4B6
  8
0
  6
CONTINUOUS
 62
     7
 10
-75.9584541320816
 20
128.249998703395
 30
0.0
 11
-78.4584503173843
 21
128.249998703395
 31
0.0
  0
LINE
  5
   4B7
  8
0
  6
CONTINUOUS
 62
     7
 10
-75.9584541320816
 20
126.999998703395
 30
0.0
 11
-75.9584541320816
 21
128.249998703395
 31
0.0
  0
LINE
  5
   4B8
  8
0
  6
CONTINUOUS
 62
     7
 10
-60.4584541320816
 20
127.625003433611
 30
0.0
 11
-60.4584541320816
 21
130.499991074001
 31
0.0
  0
LINE
  5
   4B9
  8
0
  6
CONTINUOUS
 62
     7
 10
-60.3334617614761
 20
162.749975815212
 30
0.0
 11
-60.4584541320816
 21
162.749975815212
 31
0.0
  0
LINE
  5
   4BA
  8
0
  6
CONTINUOUS
 62
     7
 10
-60.3334617614761
 20
145.124991074001
 30
0.0
 11
-60.4584579467789
 21
145.124991074001
 31
0.0
  0
LINE
  5
   4BB
  8
0
  6
CONTINUOUS
 62
     7
 10
-60.3334617614761
 20
137.124992027675
 30
0.0
 11
-60.4584617614761
 21
137.124992027675
 31
0.0
  0
LINE
  5
   4BC
  8
0
  6
CONTINUOUS
 62
     7
 10
-60.3334617614761
 20
135.249991312419
 30
0.0
 11
-60.7084617614761
 21
135.249991312419
 31
0.0
  0
LINE
  5
   4BD
  8
0
  6
CONTINUOUS
 62
     7
 10
-60.3334617614761
 20
131.249994888698
 30
0.0
 11
-60.4584541320816
 21
131.249994888698
 31
0.0
  0
LINE
  5
   4BE
  8
0
  6
CONTINUOUS
 62
     7
 10
-60.3334617614761
 20
127.850001091123
 30
0.0
 11
-60.3334617614761
 21
135.624987259303
 31
0.0
  0
LINE
  5
   4BF
  8
0
  6
CONTINUOUS
 62
     7
 10
-60.3334617614761
 20
136.999987259303
 30
0.0
 11
-60.3334617614761
 21
162.749972000514
 31
0.0
  0
LINE
  5
   4C0
  8
0
  6
CONTINUOUS
 62
     7
 10
-60.7084617614761
 20
157.999987259303
 30
0.0
 11
-60.7084617614761
 21
161.749975815212
 31
0.0
  0
LINE
  5
   4C1
  8
0
  6
CONTINUOUS
 62
     7
 10
-60.7084617614761
 20
149.249998703395
 30
0.0
 11
-60.7084617614761
 21
152.999994888698
 31
0.0
  0
LINE
  5
   4C2
  8
0
  6
CONTINUOUS
 62
     7
 10
-60.7084617614761
 20
131.875010147487
 30
0.0
 11
-60.7084617614761
 21
133.625010147487
 31
0.0
  0
LINE
  5
   4C3
  8
0
  6
CONTINUOUS
 62
     7
 10
-60.4334598092181
 20
127.750003043381
 30
0.0
 11
-60.3334613362496
 21
127.85000151635
 31
0.0
  0
LINE
  5
   4C4
  8
0
  6
CONTINUOUS
 62
     7
 10
-59.9584617614761
 20
166.749975815212
 30
0.0
 11
-60.4584617614761
 21
166.749975815212
 31
0.0
  0
LINE
  5
   4C5
  8
0
  6
CONTINUOUS
 62
     7
 10
-59.9584617614761
 20
169.499975815212
 30
0.0
 11
-60.4584617614761
 21
169.499975815212
 31
0.0
  0
LINE
  5
   4C6
  8
0
  6
CONTINUOUS
 62
     7
 10
-59.9584617614761
 20
168.827887192165
 30
0.0
 11
-60.4584617614761
 21
168.827887192165
 31
0.0
  0
LINE
  5
   4C7
  8
0
  6
CONTINUOUS
 62
     7
 10
-59.9584617614761
 20
167.903631821071
 30
0.0
 11
-60.4584617614761
 21
167.903631821071
 31
0.0
  0
LINE
  5
   4C8
  8
0
  6
CONTINUOUS
 62
     7
 10
-77.7084465026868
 20
149.874974770891
 30
0.0
 11
-77.7084465026868
 21
163.499986214982
 31
0.0
  0
LINE
  5
   4C9
  8
0
  6
CONTINUOUS
 62
     7
 10
-84.7084350585924
 20
167.499983088574
 30
0.0
 11
-84.7084350585924
 21
173.499983088574
 31
0.0
  0
LINE
  5
   4CA
  8
0
  6
CONTINUOUS
 62
     7
 10
-84.5834541320816
 20
167.499984360125
 30
0.0
 11
-84.7084541320816
 21
167.499984360125
 31
0.0
  0
LINE
  5
   4CB
  8
0
  6
CONTINUOUS
 62
     7
 10
-84.5834541320816
 20
167.374984360125
 30
0.0
 11
-84.5834541320816
 21
167.499984360125
 31
0.0
  0
LINE
  5
   4CC
  8
0
  6
CONTINUOUS
 62
     7
 10
-78.4584541320816
 20
167.124980545427
 30
0.0
 11
-78.4584541320816
 21
167.374984360125
 31
0.0
  0
LINE
  5
   4CD
  8
0
  6
CONTINUOUS
 62
     7
 10
-78.4584507239274
 20
172.799979511147
 30
0.0
 11
-78.4584545386246
 21
173.49998790335
 31
0.0
  0
LINE
  5
   4CE
  8
0
  6
CONTINUOUS
 62
     7
 10
-78.4584560394274
 20
173.499991989515
 30
0.0
 11
-84.7084560394274
 21
173.499991989515
 31
0.0
  0
LINE
  5
   4CF
  8
0
  6
CONTINUOUS
 62
     7
 10
-84.0084533691422
 20
167.374984360125
 30
0.0
 11
-84.0834541320816
 21
167.374984360125
 31
0.0
  0
LINE
  5
   4D0
  8
0
  6
CONTINUOUS
 62
     7
 10
-77.7084541320816
 20
167.124988174822
 30
0.0
 11
-78.4584541320816
 21
167.124988174822
 31
0.0
  0
LINE
  5
   4D1
  8
0
  6
CONTINUOUS
 62
     7
 10
-77.7084541320816
 20
163.499988174822
 30
0.0
 11
-77.7084541320816
 21
167.124988174822
 31
0.0
  0
LINE
  5
   4D2
  8
0
  6
CONTINUOUS
 62
     7
 10
-78.4584426879898
 20
128.499991989519
 30
0.0
 11
-78.4584426879898
 21
130.31914482155
 31
0.0
  0
LINE
  5
   4D3
  8
0
  6
CONTINUOUS
 62
     7
 10
-77.7084503173843
 20
146.874984360125
 30
0.0
 11
-77.7084503173843
 21
149.87497673073
 31
0.0
  0
LINE
  5
   4D4
  8
0
  6
CONTINUOUS
 62
     7
 10
-77.4584503173844
 20
146.24997673073
 30
0.0
 11
-77.7084503173844
 21
146.24997673073
 31
0.0
  0
LINE
  5
   4D5
  8
0
  6
CONTINUOUS
 62
     7
 10
-78.4584424989806
 20
127.749999618919
 30
0.0
 11
-84.0084455507384
 21
127.749999618919
 31
0.0
  0
LINE
  5
   4D6
  8
0
  6
CONTINUOUS
 62
     7
 10
-78.4584426879898
 20
127.749991989519
 30
0.0
 11
-78.4584426879898
 21
128.499991989519
 31
0.0
  0
LINE
  5
   4D7
  8
0
  6
CONTINUOUS
 62
     7
 10
-78.4584465026871
 20
130.31914482155
 30
0.0
 11
-78.4584465026871
 21
132.06249429209
 31
0.0
  0
LINE
  5
   4D8
  8
0
  6
CONTINUOUS
 62
     7
 10
-84.0834426879898
 20
126.999988174822
 30
0.0
 11
-84.0834426879898
 21
127.749988174822
 31
0.0
  0
LINE
  5
   4D9
  8
0
  6
CONTINUOUS
 62
     7
 10
-84.0084457546488
 20
127.749988174822
 30
0.0
 11
-84.0834426879898
 21
127.749988174822
 31
0.0
  0
LINE
  5
   4DA
  8
0
  6
CONTINUOUS
 62
     7
 10
-76.4584503173844
 20
146.24997673073
 30
0.0
 11
-77.4584503173844
 21
146.24997673073
 31
0.0
  0
LINE
  5
   4DB
  8
0
  6
CONTINUOUS
 62
     7
 10
-77.7084503173843
 20
146.24997673073
 30
0.0
 11
-77.7084503173843
 21
146.874984360125
 31
0.0
  0
LINE
  5
   4DC
  8
0
  6
CONTINUOUS
 62
     7
 10
-78.4584454630985
 20
132.062499618918
 30
0.0
 11
-84.008444700159
 21
132.062499618918
 31
0.0
  0
LINE
  5
   4DD
  8
0
  6
CONTINUOUS
 62
     7
 10
-78.4584436244832
 20
134.937499618917
 30
0.0
 11
-84.0084428615438
 21
134.937499618917
 31
0.0
  0
LINE
  5
   4DE
  8
0
  6
CONTINUOUS
 62
     7
 10
-78.7832028645178
 20
128.687496268684
 30
0.0
 11
-78.8334424196349
 21
128.874996266095
 31
0.0
  0
LINE
  5
   4DF
  8
0
  6
CONTINUOUS
 62
     7
 10
-78.6459450234601
 20
128.550234002319
 30
0.0
 11
-78.7832016367103
 21
128.687494433679
 31
0.0
  0
LINE
  5
   4E0
  8
0
  6
CONTINUOUS
 62
     7
 10
-78.4584383666407
 20
128.499997848439
 30
0.0
 11
-78.6459421737773
 21
128.55023740738
 31
0.0
  0
LINE
  5
   4E1
  8
0
  6
CONTINUOUS
 62
     7
 10
-78.645944262719
 20
131.449752970643
 30
0.0
 11
-78.4584442640939
 21
131.499996343906
 31
0.0
  0
LINE
  5
   4E2
  8
0
  6
CONTINUOUS
 62
     7
 10
-78.7832005578898
 20
131.312494256288
 30
0.0
 11
-78.6459439427298
 21
131.449750871448
 31
0.0
  0
LINE
  5
   4E3
  8
0
  6
CONTINUOUS
 62
     7
 10
-78.833439824674
 20
131.124994603871
 30
0.0
 11
-78.7831964514104
 21
131.312494602496
 31
0.0
  0
LINE
  5
   4E4
  8
0
  6
CONTINUOUS
 62
     7
 10
-78.8334405687223
 20
128.874993472703
 30
0.0
 11
-78.8334443834193
 21
131.124993472621
 31
0.0
  0
LINE
  5
   4E5
  8
0
  6
CONTINUOUS
 62
     7
 10
-84.0084457397472
 20
127.749988174822
 30
0.0
 11
-84.0084457397472
 21
167.374981231928
 31
0.0
  0
LINE
  5
   4E6
  8
0
  6
CONTINUOUS
 62
     7
 10
-60.4584213280187
 20
172.799987411882
 30
0.0
 11
-84.0084571838394
 21
172.799987411882
 31
0.0
  0
LINE
  5
   4E7
  8
0
  6
CONTINUOUS
 62
     7
 10
-84.0084304809553
 20
167.374982637383
 30
0.0
 11
-84.0084304809553
 21
172.799985689141
 31
0.0
  0
LINE
  5
   4E8
  8
0
  6
CONTINUOUS
 62
     7
 10
-78.4584541320816
 20
167.374988174822
 30
0.0
 11
-78.4584541320816
 21
172.799987411882
 31
0.0
  0
LINE
  5
   4E9
  8
0
  6
CONTINUOUS
 62
     7
 10
-88.0834579467789
 20
129.062503433611
 30
0.0
 11
-88.0834579467789
 21
133.812491074001
 31
0.0
  0
LINE
  5
   4EA
  8
0
  6
CONTINUOUS
 62
     7
 10
-88.0834579467789
 20
154.749995804216
 30
0.0
 11
-88.0834579467789
 21
154.812495804216
 31
0.0
  0
LINE
  5
   4EB
  8
0
  6
CONTINUOUS
 62
     7
 10
-85.8334579467789
 20
155.312495804216
 30
0.0
 11
-88.0834579467789
 21
155.312495804216
 31
0.0
  0
LINE
  5
   4EC
  8
0
  6
CONTINUOUS
 62
     7
 10
-85.8334579467789
 20
129.062503433611
 30
0.0
 11
-88.0834579467789
 21
129.062503433611
 31
0.0
  0
LINE
  5
   4ED
  8
0
  6
CONTINUOUS
 62
     7
 10
-84.0834579467789
 20
125.000003433611
 30
0.0
 11
-84.0834579467789
 21
127.749988174822
 31
0.0
  0
LINE
  5
   4EE
  8
0
  6
CONTINUOUS
 62
     7
 10
-85.3334579467789
 20
125.000003433611
 30
0.0
 11
-85.3334579467789
 21
129.062503433611
 31
0.0
  0
LINE
  5
   4EF
  8
0
  6
CONTINUOUS
 62
     7
 10
-85.3334579467789
 20
155.312495804216
 30
0.0
 11
-85.3334579467789
 21
167.374995804216
 31
0.0
  0
LINE
  5
   4F0
  8
0
  6
CONTINUOUS
 62
     7
 10
-84.0834579467789
 20
167.374995804216
 30
0.0
 11
-85.3334579467789
 21
167.374995804216
 31
0.0
  0
LINE
  5
   4F1
  8
0
  6
CONTINUOUS
 62
     7
 10
-84.0834579467789
 20
125.000003433611
 30
0.0
 11
-85.3334579467789
 21
125.000003433611
 31
0.0
  0
LINE
  5
   4F2
  8
0
  6
CONTINUOUS
 62
     7
 10
-85.8334579467789
 20
129.062503433611
 30
0.0
 11
-85.8334579467789
 21
155.312495804216
 31
0.0
  0
LINE
  5
   4F3
  8
0
  6
CONTINUOUS
 62
     7
 10
-85.3334579467789
 20
129.062503433611
 30
0.0
 11
-85.8334579467789
 21
129.062503433611
 31
0.0
  0
LINE
  5
   4F4
  8
0
  6
CONTINUOUS
 62
     7
 10
-85.3334579467789
 20
155.312495804216
 30
0.0
 11
-85.8334579467789
 21
155.312495804216
 31
0.0
  0
LINE
  5
   4F5
  8
0
  6
CONTINUOUS
 62
     7
 10
-84.0084399496899
 20
135.074984335926
 30
0.0
 11
-84.0834407091517
 21
135.08154561442
 31
0.0
  0
LINE
  5
   4F6
  8
0
  6
CONTINUOUS
 62
     7
 10
-84.0834536021701
 20
131.918427978149
 30
0.0
 11
-84.008452840611
 21
131.924993071352
 31
0.0
  0
LINE
  5
   4F7
  8
0
  6
CONTINUOUS
 62
     7
 10
-78.4584465026871
 20
134.937494292091
 30
0.0
 11
-78.4584465026871
 21
135.624984360125
 31
0.0
  0
LINE
  5
   4F8
  8
0
  6
CONTINUOUS
 62
     7
 10
-60.4584615230576
 20
110.700003242876
 30
0.0
 11
-84.0084569454208
 21
110.700003242876
 31
0.0
  0
LINE
  5
   4F9
  8
0
  6
CONTINUOUS
 62
     7
 10
-60.4584541320816
 20
127.625003433611
 30
0.0
 11
-60.9584617614761
 21
127.625003433611
 31
0.0
  0
LINE
  5
   4FA
  8
0
  6
CONTINUOUS
 62
     7
 10
-79.7084579467789
 20
127.625003433611
 30
0.0
 11
-84.0084609985367
 21
127.625003433611
 31
0.0
  0
LINE
  5
   4FB
  8
0
  6
CONTINUOUS
 62
     7
 10
-84.7084617614761
 20
110.000003433611
 30
0.0
 11
-84.7084617614761
 21
115.999999618914
 31
0.0
  0
LINE
  5
   4FC
  8
0
  6
CONTINUOUS
 62
     7
 10
-60.9584617614761
 20
127.000003433611
 30
0.0
 11
-60.9584617614761
 21
127.625003433611
 31
0.0
  0
LINE
  5
   4FD
  8
0
  6
CONTINUOUS
 62
     7
 10
-84.0084589469455
 20
116.99999961869
 30
0.0
 11
-84.0834579456779
 21
117.000000498991
 31
0.0
  0
LINE
  5
   4FE
  8
0
  6
CONTINUOUS
 62
     7
 10
-84.0084609985367
 20
115.999999618914
 30
0.0
 11
-84.7084617614761
 21
115.999999618914
 31
0.0
  0
LINE
  5
   4FF
  8
0
  6
CONTINUOUS
 62
     7
 10
-84.0084609985367
 20
110.70000419655
 30
0.0
 11
-84.0084609985367
 21
117.000003433611
 31
0.0
  0
LINE
  5
   500
  8
0
  6
CONTINUOUS
 62
     7
 10
-84.0084609985367
 20
117.000003433611
 30
0.0
 11
-84.0084609985367
 21
127.625003433611
 31
0.0
  0
LINE
  5
   501
  8
0
  6
CONTINUOUS
 62
     7
 10
-84.0084609985367
 20
124.750003433611
 30
0.0
 11
-84.0834579467789
 21
124.750003433611
 31
0.0
  0
LINE
  5
   502
  8
0
  6
CONTINUOUS
 62
     7
 10
-59.9584617606139
 20
118.499999619161
 30
0.0
 11
-60.458461522192
 21
118.500003433858
 31
0.0
  0
LINE
  5
   503
  8
0
  6
CONTINUOUS
 62
     7
 10
-60.4584615230576
 20
110.000003433611
 30
0.0
 11
-60.4584615230576
 21
118.499999618914
 31
0.0
  0
LINE
  5
   504
  8
0
  6
CONTINUOUS
 62
     7
 10
-78.4584550862943
 20
127.625003434642
 30
0.0
 11
-78.4584589009916
 21
128.125003434649
 31
0.0
  0
LINE
  5
   505
  8
0
  6
CONTINUOUS
 62
     7
 10
-75.9584617614761
 20
128.125003433611
 30
0.0
 11
-78.4584617614761
 21
128.125003433611
 31
0.0
  0
LINE
  5
   506
  8
0
  6
CONTINUOUS
 62
     7
 10
-78.4584579467789
 20
127.625003433611
 30
0.0
 11
-79.7084579467789
 21
127.625003433611
 31
0.0
  0
LINE
  5
   507
  8
0
  6
CONTINUOUS
 62
     7
 10
-59.9584617614761
 20
113.633101797487
 30
0.0
 11
-60.4584617614761
 21
113.633101797487
 31
0.0
  0
LINE
  5
   508
  8
0
  6
CONTINUOUS
 62
     7
 10
-59.9584617614761
 20
114.24634895363
 30
0.0
 11
-60.4584617614761
 21
114.24634895363
 31
0.0
  0
LINE
  5
   509
  8
0
  6
CONTINUOUS
 62
     7
 10
-59.9584617614761
 20
115.780555344011
 30
0.0
 11
-60.4584617614761
 21
115.780555344011
 31
0.0
  0
LINE
  5
   50A
  8
0
  6
CONTINUOUS
 62
     7
 10
-84.0834579467789
 20
124.875003433611
 30
0.0
 11
-85.3334579467789
 21
124.875003433611
 31
0.0
  0
LINE
  5
   50B
  8
0
  6
CONTINUOUS
 62
     7
 10
-84.0834579467789
 20
116.125003433611
 30
0.0
 11
-85.3334579467789
 21
116.125003433611
 31
0.0
  0
LINE
  5
   50C
  8
0
  6
CONTINUOUS
 62
     7
 10
-85.3334579467789
 20
116.125003433611
 30
0.0
 11
-85.3334579467789
 21
124.875003433611
 31
0.0
  0
LINE
  5
   50D
  8
0
  6
CONTINUOUS
 62
     7
 10
-84.8334579467789
 20
116.125003433611
 30
0.0
 11
-84.8334579467789
 21
124.875003433611
 31
0.0
  0
LINE
  5
   50E
  8
0
  6
CONTINUOUS
 62
     7
 10
-84.0834579467789
 20
116.125003433611
 30
0.0
 11
-84.0834579467789
 21
124.875003433611
 31
0.0
  0
ARC
  5
   50F
  8
0
  6
CONTINUOUS
 62
     7
 10
-93.252221139407
 20
136.676533067345
 30
0.0
 40
0.249999948938953
 50
103.311211189133
 51
191.376426527034
  0
ARC
  5
   510
  8
0
  6
CONTINUOUS
 62
     7
 10
-92.9530350394479
 20
135.189578575346
 30
0.0
 40
0.250000186311685
 50
191.376426527034
 51
279.406007700058
  0
LINE
  5
   511
  8
0
  6
CONTINUOUS
 62
     7
 10
-93.3097811255807
 20
136.919816302195
 30
0.0
 11
-88.083457946779
 21
138.156346596181
 31
0.0
  0
LINE
  5
   512
  8
0
  6
CONTINUOUS
 62
     7
 10
-93.1981232618881
 20
135.140265049704
 30
0.0
 11
-93.4973092797006
 21
136.627219558232
 31
0.0
  0
LINE
  5
   513
  8
0
  6
CONTINUOUS
 62
     7
 10
-92.9121776701513
 20
134.94293971391
 30
0.0
 11
-88.0834579467789
 21
135.742849281361
 31
0.0
  0
LINE
  5
   514
  8
0
  6
CONTINUOUS
 62
     7
 10
-61.2084457397473
 20
132.124991074001
 30
0.0
 11
-61.2084457397473
 21
134.874991074001
 31
0.0
  0
LINE
  5
   515
  8
0
  6
CONTINUOUS
 62
     7
 10
-60.4584213280187
 20
168.827887192165
 30
0.0
 11
-60.4584213280187
 21
173.499986990034
 31
0.0
  0
LINE
  5
   516
  8
0
  6
CONTINUOUS
 62
     7
 10
-60.4584213280187
 20
173.499987259303
 30
0.0
 11
-78.4584465026871
 21
173.499987259303
 31
0.0
  0
LINE
  5
   517
  8
0
  6
CONTINUOUS
 62
     7
 10
-60.4584615230576
 20
110.000003433611
 30
0.0
 11
-84.7084615230575
 21
110.000003433611
 31
0.0
  0
LINE
  5
   518
  8
0
  6
CONTINUOUS
 62
     7
 10
-60.9584617614761
 20
126.999998703396
 30
0.0
 11
-75.9584541320816
 21
126.999998703396
 31
0.0
  0
LINE
  5
   519
  8
0
  6
CONTINUOUS
 62
     7
 10
-88.0834579467789
 20
145.687491074001
 30
0.0
 11
-88.0834579467789
 21
155.312495804216
 31
0.0
  0
LINE
  5
   51A
  8
0
  6
CONTINUOUS
 62
     7
 10
-88.0834579467789
 20
142.437491074001
 30
0.0
 11
-88.0834579467789
 21
145.437491074001
 31
0.0
  0
LINE
  5
   51B
  8
0
  6
CONTINUOUS
 62
     7
 10
-88.0834579467789
 20
137.312493894545
 30
0.0
 11
-88.0834579467789
 21
142.187491074001
 31
0.0
  0
LINE
  5
   51C
  8
0
  6
CONTINUOUS
 62
     7
 10
-88.0834579467789
 20
134.062491074001
 30
0.0
 11
-88.0834579467789
 21
137.062493894545
 31
0.0
  0
LINE
  5
   51D
  8
0
  6
CONTINUOUS
 62
     7
 10
-88.0834579467789
 20
129.062503433611
 30
0.0
 11
-88.0834579467789
 21
155.312495804216
 31
0.0
  0
LINE
  5
   51E
  8
0
  6
CONTINUOUS
 62
     7
 10
-59.9584746856865
 20
123.685874596034
 30
0.0
 11
-59.9584746856865
 21
123.742965355312
 31
0.0
  0
LINE
  5
   51F
  8
0
  6
DASHDOT
 62
     7
 10
-41.4119358685114
 20
142.187495804216
 30
0.0
 11
-95.9923456782575
 21
142.187495804216
 31
0.0
  0
LINE
  5
   520
  8
0
  6
CONTINUOUS
 62
     7
 10
-59.9584617614761
 20
166.749975815212
 30
0.0
 11
-59.9584617614761
 21
169.499975815212
 31
0.0
  0
LINE
  5
   521
  8
0
  6
CONTINUOUS
 62
     7
 10
-59.9584617614761
 20
135.624991074001
 30
0.0
 11
-59.9584617614761
 21
136.999991074001
 31
0.0
  0
LINE
  5
   522
  8
0
  6
CONTINUOUS
 62
     7
 10
-59.9584617614761
 20
118.499999619161
 30
0.0
 11
-59.9584617614761
 21
126.999998703396
 31
0.0
  0
LINE
  5
   523
  8
0
  6
CONTINUOUS
 62
     7
 10
-59.9584617614761
 20
113.633101797487
 30
0.0
 11
-59.9584617614761
 21
115.780555344011
 31
0.0
  0
LINE
  5
   524
  8
0
  6
CONTINUOUS
 62
     7
 10
-59.9584617614762
 20
-1.25
 30
0.0
 11
-59.9584617614762
 21
186.25
 31
0.0
  0
LINE
  5
   525
  8
0
  6
CONTINUOUS
 62
     7
 10
-43.7084617614746
 20
142.5
 30
0.0
 11
-43.7084617614746
 21
158.25
 31
0.0
  0
LINE
  5
   526
  8
0
  6
CONTINUOUS
 62
     7
 10
-43.7084617614746
 20
26.75
 30
0.0
 11
-43.7084617614746
 21
42.5
 31
0.0
  0
LINE
  5
   527
  8
0
  6
CONTINUOUS
 62
     7
 10
-44.9584617614746
 20
142.5
 30
0.0
 11
-46.7084617614746
 21
142.5
 31
0.0
  0
LINE
  5
   528
  8
0
  6
CONTINUOUS
 62
     7
 10
-44.9584617614746
 20
42.5
 30
0.0
 11
-46.7084617614746
 21
42.5
 31
0.0
  0
LINE
  5
   529
  8
0
  6
CONTINUOUS
 62
     7
 10
-44.4584617614746
 20
142.5
 30
0.0
 11
-44.4584617614746
 21
158.25
 31
0.0
  0
LINE
  5
   52A
  8
0
  6
DASHDOT
 62
     7
 10
-39.4730179250259
 20
92.5
 30
0.0
 11
-98.3781876222412
 21
92.5
 31
0.0
  0
LINE
  5
   52B
  8
0
  6
CONTINUOUS
 62
     7
 10
-59.2084617614762
 20
-1.25
 30
0.0
 11
-59.2084617614762
 21
186.25
 31
0.0
  0
LINE
  5
   52C
  8
0
  6
CONTINUOUS
 62
     7
 10
-44.4584617614746
 20
26.75
 30
0.0
 11
-44.4584617614746
 21
42.5
 31
0.0
  0
LINE
  5
   52D
  8
0
  6
DASHDOT
 62
     7
 10
-55.6188885792634
 20
168.500001486085
 30
0.0
 11
-63.6736240521825
 21
168.500001486085
 31
0.0
  0
LINE
  5
   52E
  8
0
  6
DASHDOT
 62
     7
 10
-55.4584607692518
 20
50.6250024490709
 30
0.0
 11
-58.4584704821242
 21
50.6250024490709
 31
0.0
  0
LINE
  5
   52F
  8
0
  6
DASHDOT
 62
     7
 10
-56.958465625688
 20
49.1249975926347
 30
0.0
 11
-56.958465625688
 21
52.125007305507
 31
0.0
  0
LINE
  5
   530
  8
0
  6
DASHDOT
 62
     7
 10
-55.458461231939
 20
134.375000369505
 30
0.0
 11
-58.4584618609915
 21
134.375000369505
 31
0.0
  0
LINE
  5
   531
  8
0
  6
DASHDOT
 62
     7
 10
-56.9584615464653
 20
132.875000054979
 30
0.0
 11
-56.9584615464653
 21
135.875000684031
 31
0.0
  0
LINE
  5
   532
  8
0
  6
CONTINUOUS
 62
     7
 10
-50.7084617614746
 20
-1.25
 30
0.0
 11
-59.9584617614746
 21
-1.25
 31
0.0
  0
LINE
  5
   533
  8
0
  6
CONTINUOUS
 62
     7
 10
-50.7084617614761
 20
186.25
 30
0.0
 11
-59.9584617614761
 21
186.25
 31
0.0
  0
LINE
  5
   534
  8
0
  6
CONTINUOUS
 62
     7
 10
-49.9584617614746
 20
-0.499998182679304
 30
0.0
 11
-49.9584617614746
 21
26.0
 31
0.0
  0
LINE
  5
   535
  8
0
  6
CONTINUOUS
 62
     7
 10
-43.7084617614746
 20
42.5
 30
0.0
 11
-49.2084617614746
 21
42.5
 31
0.0
  0
LINE
  5
   536
  8
0
  6
CONTINUOUS
 62
     7
 10
-49.9584617614746
 20
43.25
 30
0.0
 11
-49.9584617614746
 21
46.0576989654333
 31
0.0
  0
LINE
  5
   537
  8
0
  6
CONTINUOUS
 62
     7
 10
-43.7084617614746
 20
142.5
 30
0.0
 11
-49.2084617614746
 21
142.5
 31
0.0
  0
LINE
  5
   538
  8
0
  6
CONTINUOUS
 62
     7
 10
-49.9584617614746
 20
159.0
 30
0.0
 11
-49.9584617614746
 21
185.500131186784
 31
0.0
  0
ARC
  5
   539
  8
0
  6
CONTINUOUS
 62
     7
 10
-50.7084659601154
 20
-0.499998182679304
 30
0.0
 40
0.7500041876755
 50
270.000280272412
 51
359.999860846256
  0
ARC
  5
   53A
  8
0
  6
CONTINUOUS
 62
     7
 10
-49.2084687855764
 20
43.2499893867508
 30
0.0
 40
0.74998973743092
 50
179.998874560271
 51
270.000593596893
  0
ARC
  5
   53B
  8
0
  6
CONTINUOUS
 62
     7
 10
-49.2084896636647
 20
141.750038803989
 30
0.0
 40
0.749954968461902
 50
449.998019816231
 51
540.003597119888
  0
ARC
  5
   53C
  8
0
  6
CONTINUOUS
 62
     7
 10
-50.7083893288932
 20
185.500131186784
 30
0.0
 40
0.749860910626624
 50
359.999999948034
 51
449.999999948034
  0
LINE
  5
   53D
  8
0
  6
CONTINUOUS
 62
     7
 10
-56.1306100774509
 20
133.578511194267
 30
0.0
 11
-56.492321262164
 21
133.787348028974
 31
0.0
  0
LINE
  5
   53E
  8
0
  6
CONTINUOUS
 62
     7
 10
-57.1185851862663
 20
133.467070185308
 30
0.0
 11
-57.0887556285795
 21
133.636245721549
 31
0.0
  0
LINE
  5
   53F
  8
0
  6
CONTINUOUS
 62
     7
 10
-57.8685809146397
 20
134.197861483062
 30
0.0
 11
-57.6970791183938
 21
134.243814017938
 31
0.0
  0
LINE
  5
   540
  8
0
  6
CONTINUOUS
 62
     7
 10
-57.6970499344075
 20
134.506240183554
 30
0.0
 11
-57.8685831313078
 21
134.552193598914
 31
0.0
  0
LINE
  5
   541
  8
0
  6
CONTINUOUS
 62
     7
 10
-57.0887266293792
 20
135.11364933143
 30
0.0
 11
-57.1185840171316
 21
135.282975654387
 31
0.0
  0
LINE
  5
   542
  8
0
  6
CONTINUOUS
 62
     7
 10
-56.492437058687
 20
134.962633771402
 30
0.0
 11
-56.1306062904485
 21
135.171540704321
 31
0.0
  0
LINE
  5
   543
  8
0
  6
CONTINUOUS
 62
     7
 10
-56.1306109078152
 20
49.8285127269568
 30
0.0
 11
-56.503941968432
 21
50.0440545623613
 31
0.0
  0
LINE
  5
   544
  8
0
  6
CONTINUOUS
 62
     7
 10
-57.1185840843764
 20
49.7170749649169
 30
0.0
 11
-57.0862526186435
 21
49.900436013345
 31
0.0
  0
LINE
  5
   545
  8
0
  6
CONTINUOUS
 62
     7
 10
-57.8685817508183
 20
50.4478540995255
 30
0.0
 11
-57.6831302420378
 21
50.4975443483252
 31
0.0
  0
LINE
  5
   546
  8
0
  6
CONTINUOUS
 62
     7
 10
-57.6831309296364
 20
50.7525029060125
 30
0.0
 11
-57.8685824384168
 21
50.8021931548123
 31
0.0
  0
LINE
  5
   547
  8
0
  6
CONTINUOUS
 62
     7
 10
-57.0862526747326
 20
51.3496089600355
 30
0.0
 11
-57.1185841404655
 21
51.5329700084635
 31
0.0
  0
LINE
  5
   548
  8
0
  6
CONTINUOUS
 62
     7
 10
-56.5039426250336
 20
51.2059878618346
 30
0.0
 11
-56.1306115644168
 21
51.4215296972391
 31
0.0
  0
LINE
  5
   549
  8
0
  6
CONTINUOUS
 62
     7
 10
-53.9875556254502
 20
52.2649002670082
 30
0.0
 11
-56.7073146644237
 21
52.6091881375771
 31
0.0
  0
LINE
  5
   54A
  8
0
  6
CONTINUOUS
 62
     7
 10
-53.609695470609
 20
52.2170672877071
 30
0.0
 11
-53.9875564899051
 21
52.2648997759357
 31
0.0
  0
LINE
  5
   54B
  8
0
  6
CONTINUOUS
 62
     7
 10
-49.2666997827565
 20
51.6672917641644
 30
0.0
 11
-53.6096982471484
 21
52.2170659522008
 31
0.0
  0
LINE
  5
   54C
  8
0
  6
CONTINUOUS
 62
     7
 10
-54.3427069888535
 20
41.8268581932269
 30
0.0
 11
-48.0812402472916
 21
48.2916884129726
 31
0.0
  0
LINE
  5
   54D
  8
0
  6
CONTINUOUS
 62
     7
 10
-55.6085590936569
 20
41.3823113633015
 30
0.0
 11
-56.3698105382076
 21
41.4786782491898
 31
0.0
  0
LINE
  5
   54E
  8
0
  6
CONTINUOUS
 62
     7
 10
-56.8024069742734
 20
41.9069872584068
 30
0.0
 11
-56.9063517525386
 21
42.6672430529202
 31
0.0
  0
LINE
  5
   54F
  8
0
  6
CONTINUOUS
 62
     7
 10
-55.9536240327857
 20
44.6284023342363
 30
0.0
 11
-55.8502724454443
 21
45.4448352826915
 31
0.0
  0
LINE
  5
   550
  8
0
  6
CONTINUOUS
 62
     7
 10
-55.8502716184996
 20
45.4448368274829
 30
0.0
 11
-55.5677036288599
 21
47.6770241506553
 31
0.0
  0
LINE
  5
   551
  8
0
  6
CONTINUOUS
 62
     7
 10
-56.2175790204209
 20
48.5152687216911
 30
0.0
 11
-56.3154107468466
 21
48.5276550443757
 31
0.0
  0
LINE
  5
   552
  8
0
  6
CONTINUOUS
 62
     7
 10
-56.3154062882078
 20
48.5276574367113
 30
0.0
 11
-57.209659075987
 21
48.6408585759221
 31
0.0
  0
LINE
  5
   553
  8
0
  6
CONTINUOUS
 62
     7
 10
-53.8491634160357
 20
44.1331344112651
 30
0.0
 11
-50.7097114694892
 21
47.3745512637661
 31
0.0
  0
LINE
  5
   554
  8
0
  6
CONTINUOUS
 62
     7
 10
-54.7043619525979
 20
44.5437874706058
 30
0.0
 11
-54.4672174701821
 21
46.4171395691906
 31
0.0
  0
LINE
  5
   555
  8
0
  6
CONTINUOUS
 62
     7
 10
-53.3442429154741
 20
50.3642642425066
 30
0.0
 11
-53.3412102311157
 21
50.388567678792
 31
0.0
  0
LINE
  5
   556
  8
0
  6
CONTINUOUS
 62
     7
 10
-51.8914523934965
 20
50.739581811546
 30
0.0
 11
-52.779479609044
 21
50.851993304231
 31
0.0
  0
LINE
  5
   557
  8
0
  6
CONTINUOUS
 62
     7
 10
-55.2255215840471
 20
45.3657476266743
 30
0.0
 11
-55.8502717317596
 21
45.4448339287151
 31
0.0
  0
LINE
  5
   558
  8
0
  6
CONTINUOUS
 62
     7
 10
-54.6851283525449
 20
45.7138152071397
 30
0.0
 11
-53.4958754514085
 21
49.5522017228677
 31
0.0
  0
LINE
  5
   559
  8
0
  6
CONTINUOUS
 62
     7
 10
-54.6527218859323
 20
131.885228821433
 30
0.0
 11
-57.3430351585766
 21
132.412336053137
 31
0.0
  0
LINE
  5
   55A
  8
0
  6
CONTINUOUS
 62
     7
 10
-54.2789518332166
 20
131.811995205007
 30
0.0
 11
-54.6527215914302
 21
131.885229764472
 31
0.0
  0
LINE
  5
   55B
  8
0
  6
CONTINUOUS
 62
     7
 10
-54.2789518332166
 20
131.811995205007
 30
0.0
 11
-54.6527215914302
 21
131.885229764472
 31
0.0
  0
LINE
  5
   55C
  8
0
  6
CONTINUOUS
 62
     7
 10
-49.9829738388391
 20
130.970297056389
 30
0.0
 11
-54.2789524217947
 21
131.811994734884
 31
0.0
  0
LINE
  5
   55D
  8
0
  6
CONTINUOUS
 62
     7
 10
-47.79755458682
 20
133.802957544421
 30
0.0
 11
-51.7124410042209
 21
141.906885370887
 31
0.0
  0
LINE
  5
   55E
  8
0
  6
CONTINUOUS
 62
     7
 10
-52.7746878183083
 20
142.726425161446
 30
0.0
 11
-53.5276976372707
 21
142.873954765618
 31
0.0
  0
LINE
  5
   55F
  8
0
  6
CONTINUOUS
 62
     7
 10
-54.4103074905823
 20
141.913968828297
 30
0.0
 11
-54.0729051577704
 21
142.603132016026
 31
0.0
  0
LINE
  5
   560
  8
0
  6
CONTINUOUS
 62
     7
 10
-54.2797824495701
 20
138.945252197351
 30
0.0
 11
-54.1215526171255
 21
139.752846493559
 31
0.0
  0
LINE
  5
   561
  8
0
  6
CONTINUOUS
 62
     7
 10
-54.7123935003808
 20
136.737238592961
 30
0.0
 11
-54.2797820247781
 21
138.945254052431
 31
0.0
  0
LINE
  5
   562
  8
0
  6
CONTINUOUS
 62
     7
 10
-55.5926045481264
 20
136.145433667396
 30
0.0
 11
-55.6893757882304
 21
136.164392713206
 31
0.0
  0
LINE
  5
   563
  8
0
  6
CONTINUOUS
 62
     7
 10
-55.6893736286925
 20
136.16439977383
 30
0.0
 11
-56.5739428208076
 21
136.337709104239
 31
0.0
  0
LINE
  5
   564
  8
0
  6
CONTINUOUS
 62
     7
 10
-50.005116400329
 20
135.499049043911
 30
0.0
 11
-51.9680108274516
 21
139.562296848738
 31
0.0
  0
LINE
  5
   565
  8
0
  6
CONTINUOUS
 62
     7
 10
-53.2719707670664
 20
137.587842103233
 30
0.0
 11
-52.9089031497776
 21
139.440915230786
 31
0.0
  0
LINE
  5
   566
  8
0
  6
CONTINUOUS
 62
     7
 10
-53.449903684253
 20
133.463727370463
 30
0.0
 11
-53.4451467568167
 21
133.487759963533
 31
0.0
  0
LINE
  5
   567
  8
0
  6
CONTINUOUS
 62
     7
 10
-52.1836844768317
 20
132.67525394106
 30
0.0
 11
-53.0620986248562
 21
132.847357818087
 31
0.0
  0
LINE
  5
   568
  8
0
  6
CONTINUOUS
 62
     7
 10
-53.6617938257282
 20
138.824174555187
 30
0.0
 11
-54.2797824216996
 21
138.945253043376
 31
0.0
  0
LINE
  5
   569
  8
0
  6
CONTINUOUS
 62
     7
 10
-53.3341402089006
 20
134.306361626785
 30
0.0
 11
-53.2580179214148
 21
138.324038970938
 31
0.0
  0
LINE
  5
   56A
  8
0
  6
CONTINUOUS
 62
     7
 10
-49.1323651559912
 20
133.520598893212
 30
0.0
 11
-48.7705422868677
 21
133.729501265492
 31
0.0
  0
LINE
  5
   56B
  8
0
  6
CONTINUOUS
 62
     7
 10
-49.7286592014769
 20
133.671595709223
 30
0.0
 11
-49.7585217659216
 21
133.840941400201
 31
0.0
  0
LINE
  5
   56C
  8
0
  6
CONTINUOUS
 62
     7
 10
-50.3368142530816
 20
133.064153451442
 30
0.0
 11
-50.5085210464899
 21
133.110160913669
 31
0.0
  0
LINE
  5
   56D
  8
0
  6
CONTINUOUS
 62
     7
 10
-50.5085187153297
 20
132.755822005351
 30
0.0
 11
-50.3367967788422
 21
132.801833525044
 31
0.0
  0
LINE
  5
   56E
  8
0
  6
CONTINUOUS
 62
     7
 10
-49.75852233483
 20
132.025036264912
 30
0.0
 11
-49.728642542746
 21
132.194486704368
 31
0.0
  0
LINE
  5
   56F
  8
0
  6
CONTINUOUS
 62
     7
 10
-48.7705463618522
 20
132.136471621577
 30
0.0
 11
-49.1324520581793
 21
132.345417537668
 31
0.0
  0
LINE
  5
   570
  8
0
  6
CONTINUOUS
 62
     7
 10
-49.0633191365498
 20
50.2640957486161
 30
0.0
 11
-48.6899861682045
 21
50.4796375941964
 31
0.0
  0
LINE
  5
   571
  8
0
  6
CONTINUOUS
 62
     7
 10
-49.648104836994
 20
50.4217357651202
 30
0.0
 11
-49.6779625805154
 21
50.591077622917
 31
0.0
  0
LINE
  5
   572
  8
0
  6
CONTINUOUS
 62
     7
 10
-50.2563209602485
 20
49.8143088172059
 30
0.0
 11
-50.4279614322303
 21
49.8602985091365
 31
0.0
  0
LINE
  5
   573
  8
0
  6
CONTINUOUS
 62
     7
 10
-50.42796076344
 20
49.5059596024273
 30
0.0
 11
-50.2563246852388
 21
49.5519481170796
 31
0.0
  0
LINE
  5
   574
  8
0
  6
CONTINUOUS
 62
     7
 10
-49.67796212607
 20
48.7751829017275
 30
0.0
 11
-49.648108595905
 21
48.9445008629565
 31
0.0
  0
LINE
  5
   575
  8
0
  6
CONTINUOUS
 62
     7
 10
-48.6899898909457
 20
48.8866139787691
 30
0.0
 11
-49.0633228667493
 21
49.1021596322031
 31
0.0
  0
LINE
  5
   576
  8
0
  6
CONTINUOUS
 62
     7
 10
-60.6701780362193
 20
44.8748409617014
 30
0.0
 11
-60.9584909482066
 21
44.8748409617014
 31
0.0
  0
LINE
  5
   577
  8
0
  6
CONTINUOUS
 62
     7
 10
-60.6701780362193
 20
44.8748409617014
 30
0.0
 11
-60.6701780362193
 21
45.0623409617014
 31
0.0
  0
LINE
  5
   578
  8
0
  6
CONTINUOUS
 62
     7
 10
-59.958489040858
 20
45.0623409617014
 30
0.0
 11
-60.6701780362193
 21
45.0623409617014
 31
0.0
  0
LINE
  5
   579
  8
0
  6
CONTINUOUS
 62
     7
 10
-56.9201780362193
 20
45.0623409617014
 30
0.0
 11
-59.208489040858
 21
45.0623409617014
 31
0.0
  0
LINE
  5
   57A
  8
0
  6
CONTINUOUS
 62
     7
 10
-56.9201780362193
 20
41.3123409617014
 30
0.0
 11
-56.9201780362193
 21
45.0623409617014
 31
0.0
  0
LINE
  5
   57B
  8
0
  6
CONTINUOUS
 62
     7
 10
-56.9201780362193
 20
41.3123409617014
 30
0.0
 11
-59.208489040858
 21
41.3123409617014
 31
0.0
  0
LINE
  5
   57C
  8
0
  6
CONTINUOUS
 62
     7
 10
-59.958489040858
 20
41.3123409617014
 30
0.0
 11
-60.458489040858
 21
41.3123409617014
 31
0.0
  0
LINE
  5
   57D
  8
0
  6
CONTINUOUS
 62
     7
 10
-60.6701780362193
 20
41.6323368418284
 30
0.0
 11
-60.6701780362193
 21
42.4373409617014
 31
0.0
  0
LINE
  5
   57E
  8
0
  6
CONTINUOUS
 62
     7
 10
-60.6701780362193
 20
43.9373409617014
 30
0.0
 11
-60.6701780362193
 21
44.8748409617014
 31
0.0
  0
LINE
  5
   57F
  8
0
  6
CONTINUOUS
 62
     7
 10
-58.0451780362193
 20
44.1873409617014
 30
0.0
 11
-59.208489040858
 21
44.1873409617014
 31
0.0
  0
LINE
  5
   580
  8
0
  6
CONTINUOUS
 62
     7
 10
-59.958489040858
 20
44.1873409617014
 30
0.0
 11
-60.6534315152232
 21
44.1873409617014
 31
0.0
  0
LINE
  5
   581
  8
0
  6
CONTINUOUS
 62
     7
 10
-57.8684006962042
 20
44.1141180888931
 30
0.0
 11
-58.0451775822215
 21
44.1873412030347
 31
0.0
  0
LINE
  5
   582
  8
0
  6
CONTINUOUS
 62
     7
 10
-57.7951777947797
 20
43.9373414138833
 30
0.0
 11
-57.8684009089213
 21
44.1141182999007
 31
0.0
  0
LINE
  5
   583
  8
0
  6
CONTINUOUS
 62
     7
 10
-57.7951780362193
 20
42.4373409617014
 30
0.0
 11
-57.7951780362193
 21
43.9373409617014
 31
0.0
  0
LINE
  5
   584
  8
0
  6
CONTINUOUS
 62
     7
 10
-57.8684019742608
 20
42.2605648178726
 30
0.0
 11
-57.7951788601229
 21
42.4373397942785
 31
0.0
  0
LINE
  5
   585
  8
0
  6
CONTINUOUS
 62
     7
 10
-58.045177289196
 20
42.1873414534229
 30
0.0
 11
-57.8684004014907
 21
42.2605664721815
 31
0.0
  0
LINE
  5
   586
  8
0
  6
CONTINUOUS
 62
     7
 10
-59.958489040858
 20
42.1873409617014
 30
0.0
 11
-60.6534315152232
 21
42.1873409617014
 31
0.0
  0
LINE
  5
   587
  8
0
  6
CONTINUOUS
 62
     7
 10
-58.0451780362193
 20
42.1873409617014
 30
0.0
 11
-59.208489040858
 21
42.1873409617014
 31
0.0
  0
LINE
  5
   588
  8
0
  6
CONTINUOUS
 62
     7
 10
-52.2701577252409
 20
52.0474954484475
 30
0.0
 11
-52.346978097792
 21
131.433474439946
 31
0.0
  0
LINE
  5
   589
  8
0
  6
CONTINUOUS
 62
     7
 10
-50.2452252112664
 20
46.0574216347578
 30
0.0
 11
-48.3893635979235
 21
46.0592164498057
 31
0.0
  0
LINE
  5
   58A
  8
0
  6
CONTINUOUS
 62
     7
 10
-46.7659325931587
 20
47.6857970848635
 30
0.0
 11
-46.8508439398271
 21
135.435760472709
 31
0.0
  0
LINE
  5
   58B
  8
0
  6
CONTINUOUS
 62
     7
 10
-49.370164318968
 20
137.058313272882
 30
0.0
 11
-48.4774183557259
 21
137.059175394449
 31
0.0
  0
LINE
  5
   58C
  8
0
  6
CONTINUOUS
 62
     7
 10
-49.0452054144126
 20
77.9335962865181
 30
0.0
 11
-47.7952054144126
 21
77.934805545575
 31
0.0
  0
LINE
  5
   58D
  8
0
  6
CONTINUOUS
 62
     7
 10
-49.0214967120913
 20
53.433607453778
 30
0.0
 11
-49.0452050548987
 21
77.9335957712618
 31
0.0
  0
LINE
  5
   58E
  8
0
  6
CONTINUOUS
 62
     7
 10
-49.0214970711243
 20
53.4336079486378
 30
0.0
 11
-47.7714970711243
 21
53.4348172076946
 31
0.0
  0
LINE
  5
   58F
  8
0
  6
CONTINUOUS
 62
     7
 10
-47.7714967225863
 20
53.4348168971252
 30
0.0
 11
-47.7952050653937
 21
77.934805214609
 31
0.0
  0
LINE
  5
   590
  8
0
  6
CONTINUOUS
 62
     7
 10
-51.2952051633126
 20
77.9314182771408
 30
0.0
 11
-50.0452051633126
 21
77.9326313508385
 31
0.0
  0
LINE
  5
   591
  8
0
  6
CONTINUOUS
 62
     7
 10
-51.2714966926793
 20
53.4314292616634
 30
0.0
 11
-51.2952050354867
 21
77.9314175791472
 31
0.0
  0
LINE
  5
   592
  8
0
  6
CONTINUOUS
 62
     7
 10
-51.271496819929
 20
53.4314298668164
 30
0.0
 11
-50.021496819929
 21
53.4326429405141
 31
0.0
  0
LINE
  5
   593
  8
0
  6
CONTINUOUS
 62
     7
 10
-50.0214967031744
 20
53.432642519706
 30
0.0
 11
-50.0452050459817
 21
77.9326308371898
 31
0.0
  0
LINE
  5
   594
  8
0
  6
CONTINUOUS
 62
     7
 10
-49.0696387738181
 20
103.183588175903
 30
0.0
 11
-47.8196387738181
 21
103.184793620246
 31
0.0
  0
LINE
  5
   595
  8
0
  6
CONTINUOUS
 62
     7
 10
-49.0461739912323
 20
78.9335957429031
 30
0.0
 11
-49.0696381941081
 21
103.183587994298
 31
0.0
  0
LINE
  5
   596
  8
0
  6
CONTINUOUS
 62
     7
 10
-49.0461743475236
 20
78.933596277619
 30
0.0
 11
-47.7961743475236
 21
78.9348055366758
 31
0.0
  0
LINE
  5
   597
  8
0
  6
CONTINUOUS
 62
     7
 10
-47.7961740021212
 20
78.9348050019376
 30
0.0
 11
-47.8196382055405
 21
103.184793438638
 31
0.0
  0
LINE
  5
   598
  8
0
  6
CONTINUOUS
 62
     7
 10
-51.3196382991305
 20
103.181406683009
 30
0.0
 11
-50.0696382991305
 21
103.182619756706
 31
0.0
  0
LINE
  5
   599
  8
0
  6
CONTINUOUS
 62
     7
 10
-51.2961739716151
 20
78.9314175507916
 30
0.0
 11
-51.3196381750344
 21
103.181405987492
 31
0.0
  0
LINE
  5
   59A
  8
0
  6
CONTINUOUS
 62
     7
 10
-51.296174307479
 20
78.9314180855191
 30
0.0
 11
-50.046174307479
 21
78.9326273445759
 31
0.0
  0
LINE
  5
   59B
  8
0
  6
CONTINUOUS
 62
     7
 10
-50.0461739825161
 20
78.9326268097925
 30
0.0
 11
-50.0696381853919
 21
103.182619061188
 31
0.0
  0
LINE
  5
   59C
  8
0
  6
CONTINUOUS
 62
     7
 10
-51.3206072322429
 20
104.181406677066
 30
0.0
 11
-50.0706072322429
 21
104.182619750764
 31
0.0
  0
LINE
  5
   59D
  8
0
  6
CONTINUOUS
 62
     7
 10
-50.0706071149186
 20
104.182618755863
 30
0.0
 11
-50.0943154583128
 21
128.682603258654
 31
0.0
  0
LINE
  5
   59E
  8
0
  6
CONTINUOUS
 62
     7
 10
-51.3443121819098
 20
128.681398237989
 30
0.0
 11
-50.0943159966091
 21
128.682603682291
 31
0.0
  0
LINE
  5
   59F
  8
0
  6
CONTINUOUS
 62
     7
 10
-51.3206071088433
 20
104.181405463863
 30
0.0
 11
-51.3443116377047
 21
128.681397596045
 31
0.0
  0
LINE
  5
   5A0
  8
0
  6
CONTINUOUS
 62
     7
 10
-47.8206071367001
 20
104.184793122252
 30
0.0
 11
-47.844555805954
 21
128.934785135233
 31
0.0
  0
LINE
  5
   5A1
  8
0
  6
CONTINUOUS
 62
     7
 10
-49.0945559282688
 20
128.933573278018
 30
0.0
 11
-47.8445559282688
 21
128.934786351716
 31
0.0
  0
LINE
  5
   5A2
  8
0
  6
CONTINUOUS
 62
     7
 10
-49.0706071257698
 20
104.183587605458
 30
0.0
 11
-49.0945557948446
 21
128.933571989043
 31
0.0
  0
LINE
  5
   5A3
  8
0
  6
CONTINUOUS
 62
     7
 10
-49.0706077069036
 20
104.183588164057
 30
0.0
 11
-47.8206077069036
 21
104.1847936084
 31
0.0
  0
LINE
  5
   5A4
  8
0
  6
CONTINUOUS
 62
     7
 10
-47.6363344177637
 20
49.0599470796474
 30
0.0
 11
-47.2672662691818
 21
49.060305661192
 31
0.0
  0
LINE
  5
   5A5
  8
0
  6
CONTINUOUS
 62
     7
 10
-47.6236051398037
 20
50.3099621724184
 30
0.0
 11
-47.2684758883897
 21
50.3103054951805
 31
0.0
  0
LINE
  5
   5A6
  8
0
  6
CONTINUOUS
 62
     7
 10
-47.7192585320339
 20
133.559908177581
 30
0.0
 11
-47.3490345307684
 21
133.560266759129
 31
0.0
  0
LINE
  5
   5A7
  8
0
  6
CONTINUOUS
 62
     7
 10
-47.7118834951651
 20
132.309910046877
 30
0.0
 11
-47.3478202270184
 21
132.310268628406
 31
0.0
  0
LINE
  5
   5A8
  8
0
  6
CONTINUOUS
 62
     7
 10
-60.1701780362193
 20
41.3123409617014
 30
0.0
 11
-60.1701780362193
 21
42.1873409617014
 31
0.0
  0
LINE
  5
   5A9
  8
0
  6
CONTINUOUS
 62
     7
 10
-60.1701780362193
 20
44.1873409617014
 30
0.0
 11
-60.1701780362193
 21
45.0623409617014
 31
0.0
  0
LINE
  5
   5AA
  8
0
  6
CONTINUOUS
 62
     7
 10
-60.6701780362193
 20
41.9373409617014
 30
0.0
 11
-60.9584909482066
 21
41.9373409617014
 31
0.0
  0
LINE
  5
   5AB
  8
0
  6
CONTINUOUS
 62
     7
 10
-58.0451780362193
 20
43.9373409617014
 30
0.0
 11
-59.208489040858
 21
43.9373409617014
 31
0.0
  0
LINE
  5
   5AC
  8
0
  6
CONTINUOUS
 62
     7
 10
-59.958489040858
 20
43.9373409617014
 30
0.0
 11
-60.6701780362193
 21
43.9373409617014
 31
0.0
  0
LINE
  5
   5AD
  8
0
  6
CONTINUOUS
 62
     7
 10
-60.6701775872748
 20
44.1614550133797
 30
0.0
 11
-60.6534310659126
 21
44.1873415493926
 31
0.0
  0
LINE
  5
   5AE
  8
0
  6
CONTINUOUS
 62
     7
 10
-58.0451780362193
 20
42.4373409617014
 30
0.0
 11
-59.208489040858
 21
42.4373409617014
 31
0.0
  0
LINE
  5
   5AF
  8
0
  6
CONTINUOUS
 62
     7
 10
-59.958489040858
 20
42.4373409617014
 30
0.0
 11
-60.6701780362193
 21
42.4373409617014
 31
0.0
  0
LINE
  5
   5B0
  8
0
  6
CONTINUOUS
 62
     7
 10
-58.045178985803
 20
43.9373400106925
 30
0.0
 11
-57.868402103871
 21
44.1141168926246
 31
0.0
  0
LINE
  5
   5B1
  8
0
  6
CONTINUOUS
 62
     7
 10
-58.0451780362193
 20
42.4373409617014
 30
0.0
 11
-58.0451780362193
 21
43.9373409617014
 31
0.0
  0
LINE
  5
   5B2
  8
0
  6
CONTINUOUS
 62
     7
 10
-57.8683992200613
 20
42.2605676753123
 30
0.0
 11
-58.0451761117238
 21
42.4373426596345
 31
0.0
  0
LINE
  5
   5B3
  8
0
  6
CONTINUOUS
 62
     7
 10
-52.3380638511731
 20
122.222901908791
 30
0.0
 11
-51.3380638511731
 21
122.223863212494
 31
0.0
  0
LINE
  5
   5B4
  8
0
  6
CONTINUOUS
 62
     7
 10
-52.3403216597629
 20
124.555429833102
 30
0.0
 11
-51.3403216597629
 21
124.556398766203
 31
0.0
  0
LINE
  5
   5B5
  8
0
  6
CONTINUOUS
 62
     7
 10
-50.0880672070838
 20
122.225077067178
 30
0.0
 11
-49.0880672070838
 21
122.22604600028
 31
0.0
  0
LINE
  5
   5B6
  8
0
  6
CONTINUOUS
 62
     7
 10
-50.0903216931583
 20
124.557604210511
 30
0.0
 11
-49.0903216931583
 21
124.558573143612
 31
0.0
  0
LINE
  5
   5B7
  8
0
  6
CONTINUOUS
 62
     7
 10
-47.8380672404939
 20
122.227251444587
 30
0.0
 11
-46.838067240494
 21
122.228220377689
 31
0.0
  0
LINE
  5
   5B8
  8
0
  6
CONTINUOUS
 62
     7
 10
-47.840325541253
 20
124.559786217314
 30
0.0
 11
-46.840325541253
 21
124.560755150416
 31
0.0
  0
LINE
  5
   5B9
  8
0
  6
CONTINUOUS
 62
     7
 10
-52.2787142993582
 20
60.8879917985494
 30
0.0
 11
-51.2787142993582
 21
60.8889607316512
 31
0.0
  0
LINE
  5
   5BA
  8
0
  6
CONTINUOUS
 62
     7
 10
-50.0287143327611
 20
60.8901699906557
 30
0.0
 11
-49.028714332761
 21
60.8911389237575
 31
0.0
  0
LINE
  5
   5BB
  8
0
  6
CONTINUOUS
 62
     7
 10
-47.7787146461578
 20
60.8923480177278
 30
0.0
 11
-46.7787146461578
 21
60.8933131361306
 31
0.0
  0
LINE
  5
   5BC
  8
0
  6
CONTINUOUS
 62
     7
 10
-47.7764563451326
 20
58.5598170684522
 30
0.0
 11
-46.7764601598245
 21
58.5607821868404
 31
0.0
  0
LINE
  5
   5BD
  8
0
  6
CONTINUOUS
 62
     7
 10
-50.0264560320021
 20
58.5576390326255
 30
0.0
 11
-49.0264560320021
 21
58.5586079657274
 31
0.0
  0
LINE
  5
   5BE
  8
0
  6
CONTINUOUS
 62
     7
 10
-52.2764559985992
 20
58.5554608405192
 30
0.0
 11
-51.2764559985992
 21
58.556429773621
 31
0.0
  0
LINE
  5
   5BF
  8
0
  6
CONTINUOUS
 62
     7
 10
-57.4380942386615
 20
140.31251071573
 30
0.0
 11
-57.4380942386615
 21
141.25001071573
 31
0.0
  0
LINE
  5
   5C0
  8
0
  6
CONTINUOUS
 62
     7
 10
-57.4380942386615
 20
143.75001071573
 30
0.0
 11
-57.4380942386615
 21
144.81251071573
 31
0.0
  0
LINE
  5
   5C1
  8
0
  6
CONTINUOUS
 62
     7
 10
-54.5630942386616
 20
145.81251071573
 30
0.0
 11
-55.5739851993549
 21
145.81251071573
 31
0.0
  0
LINE
  5
   5C2
  8
0
  6
CONTINUOUS
 62
     7
 10
-54.5631766499619
 20
142.812510715782
 30
0.0
 11
-54.5631766499619
 21
145.812510715782
 31
0.0
  0
LINE
  5
   5C3
  8
0
  6
CONTINUOUS
 62
     7
 10
-57.4380942386616
 20
143.75001071573
 30
0.0
 11
-59.208489040858
 21
143.75001071573
 31
0.0
  0
LINE
  5
   5C4
  8
0
  6
CONTINUOUS
 62
     7
 10
-57.4380942386616
 20
140.893367038972
 30
0.0
 11
-59.208489040858
 21
140.893367038972
 31
0.0
  0
LINE
  5
   5C5
  8
0
  6
DOT
 62
     7
 10
-70.0630947154987
 20
140.893367038972
 30
0.0
 11
-70.0630947154987
 21
143.75001071573
 31
0.0
  0
LINE
  5
   5C6
  8
0
  6
CONTINUOUS
 62
     7
 10
-55.5739851993549
 20
145.81251071573
 30
0.0
 11
-57.4380961460102
 21
145.81251071573
 31
0.0
  0
LINE
  5
   5C7
  8
0
  6
CONTINUOUS
 62
     7
 10
-57.4380961460102
 20
144.81251071573
 30
0.0
 11
-57.4380961460102
 21
145.81251071573
 31
0.0
  0
LINE
  5
   5C8
  8
0
  6
CONTINUOUS
 62
     7
 10
-56.3130961460102
 20
144.81251071573
 30
0.0
 11
-57.4380961460102
 21
144.81251071573
 31
0.0
  0
LINE
  5
   5C9
  8
0
  6
CONTINUOUS
 62
     7
 10
-56.9328992753824
 20
142.812505592154
 30
0.0
 11
-56.7558172126969
 21
142.886037697868
 31
0.0
  0
LINE
  5
   5CA
  8
0
  6
CONTINUOUS
 62
     7
 10
-56.9328967136371
 20
142.81251071573
 30
0.0
 11
-57.4380961460102
 21
142.81251071573
 31
0.0
  0
LINE
  5
   5CB
  8
0
  6
CONTINUOUS
 62
     7
 10
-57.4380961460102
 20
141.81251071573
 30
0.0
 11
-57.4380961460102
 21
142.81251071573
 31
0.0
  0
LINE
  5
   5CC
  8
0
  6
CONTINUOUS
 62
     7
 10
-56.1880961460102
 20
141.81251071573
 30
0.0
 11
-57.4380961460102
 21
141.81251071573
 31
0.0
  0
LINE
  5
   5CD
  8
0
  6
CONTINUOUS
 62
     7
 10
-55.9380961460102
 20
140.56251071573
 30
0.0
 11
-55.9380961460102
 21
141.56251071573
 31
0.0
  0
LINE
  5
   5CE
  8
0
  6
CONTINUOUS
 62
     7
 10
-56.1880961460102
 20
140.31251071573
 30
0.0
 11
-57.4380961460102
 21
140.31251071573
 31
0.0
  0
LINE
  5
   5CF
  8
0
  6
CONTINUOUS
 62
     7
 10
-57.4380961460102
 20
139.31251071573
 30
0.0
 11
-57.4380961460102
 21
140.31251071573
 31
0.0
  0
LINE
  5
   5D0
  8
0
  6
CONTINUOUS
 62
     7
 10
-55.0630961460102
 20
139.31251071573
 30
0.0
 11
-57.4380961460102
 21
139.31251071573
 31
0.0
  0
LINE
  5
   5D1
  8
0
  6
CONTINUOUS
 62
     7
 10
-54.5630961460102
 20
139.81251071573
 30
0.0
 11
-54.5630961460102
 21
142.81251071573
 31
0.0
  0
LINE
  5
   5D2
  8
0
  6
CONTINUOUS
 62
     7
 10
-54.5630961460102
 20
142.81251071573
 30
0.0
 11
-55.4147501987446
 21
142.81251071573
 31
0.0
  0
LINE
  5
   5D3
  8
0
  6
CONTINUOUS
 62
     7
 10
-54.6300840797177
 20
139.562510991558
 30
0.0
 11
-54.5630960881617
 21
139.812510989656
 31
0.0
  0
LINE
  5
   5D4
  8
0
  6
CONTINUOUS
 62
     7
 10
-54.8131014412617
 20
139.379485303061
 30
0.0
 11
-54.6300894260479
 21
139.562499215776
 31
0.0
  0
LINE
  5
   5D5
  8
0
  6
CONTINUOUS
 62
     7
 10
-55.0630915255969
 20
139.312520158649
 30
0.0
 11
-54.8130915232171
 21
139.379506244994
 31
0.0
  0
LINE
  5
   5D6
  8
0
  6
DOT
 62
     7
 10
-72.1701828045909
 20
41.8125107157297
 30
0.0
 11
-72.1701828045909
 21
42.7500107157297
 31
0.0
  0
LINE
  5
   5D7
  8
0
  6
DOT
 62
     7
 10
-72.1701828045909
 20
45.2500107157297
 30
0.0
 11
-72.1701828045909
 21
46.3125107157297
 31
0.0
  0
LINE
  5
   5D8
  8
0
  6
DOT
 62
     7
 10
-69.2951837582652
 20
47.3125107157297
 30
0.0
 11
-70.3060737652843
 21
47.3125107157297
 31
0.0
  0
LINE
  5
   5D9
  8
0
  6
DOT
 62
     7
 10
-69.2952035449448
 20
44.3125107157423
 30
0.0
 11
-69.2952035449448
 21
47.3125107157423
 31
0.0
  0
LINE
  5
   5DA
  8
0
  6
DOT
 62
     7
 10
-72.1701828045909
 20
45.2500107157297
 30
0.0
 11
-84.7951828045909
 21
45.2500107157297
 31
0.0
  0
LINE
  5
   5DB
  8
0
  6
DOT
 62
     7
 10
-72.1701828045909
 20
42.3933651316233
 30
0.0
 11
-84.7951828045909
 21
42.3933651316233
 31
0.0
  0
LINE
  5
   5DC
  8
0
  6
DOT
 62
     7
 10
-84.7951832218234
 20
42.3933651316233
 30
0.0
 11
-84.7951832218234
 21
45.2500107157297
 31
0.0
  0
LINE
  5
   5DD
  8
0
  6
DOT
 62
     7
 10
-70.3060747189586
 20
47.3125107157297
 30
0.0
 11
-72.1701847119396
 21
47.3125107157297
 31
0.0
  0
LINE
  5
   5DE
  8
0
  6
DOT
 62
     7
 10
-72.1701847119396
 20
46.3125107157297
 30
0.0
 11
-72.1701847119396
 21
47.3125107157297
 31
0.0
  0
LINE
  5
   5DF
  8
0
  6
DOT
 62
     7
 10
-71.0451847119396
 20
46.3125107157297
 30
0.0
 11
-72.1701847119396
 21
46.3125107157297
 31
0.0
  0
LINE
  5
   5E0
  8
0
  6
DOT
 62
     7
 10
-71.6649844364104
 20
44.3125115816069
 30
0.0
 11
-71.4879023760976
 21
44.3860417787235
 31
0.0
  0
LINE
  5
   5E1
  8
0
  6
DOT
 62
     7
 10
-71.6649852795665
 20
44.3125107157297
 30
0.0
 11
-72.1701847119396
 21
44.3125107157297
 31
0.0
  0
LINE
  5
   5E2
  8
0
  6
DOT
 62
     7
 10
-72.1701847119396
 20
43.3125107157297
 30
0.0
 11
-72.1701847119396
 21
44.3125107157297
 31
0.0
  0
LINE
  5
   5E3
  8
0
  6
DOT
 62
     7
 10
-70.9201847119396
 20
43.3125107157297
 30
0.0
 11
-72.1701847119396
 21
43.3125107157297
 31
0.0
  0
LINE
  5
   5E4
  8
0
  6
DOT
 62
     7
 10
-70.7434076282044
 20
43.2392878815349
 30
0.0
 11
-70.9201845142217
 21
43.3125109956765
 31
0.0
  0
LINE
  5
   5E5
  8
0
  6
DOT
 62
     7
 10
-70.6701846277284
 20
43.0625111997948
 30
0.0
 11
-70.74340774187
 21
43.2392880858121
 31
0.0
  0
LINE
  5
   5E6
  8
0
  6
DOT
 62
     7
 10
-70.6701847119396
 20
42.0625107157297
 30
0.0
 11
-70.6701847119396
 21
43.0625107157297
 31
0.0
  0
LINE
  5
   5E7
  8
0
  6
DOT
 62
     7
 10
-70.7434075404503
 20
41.885734405489
 30
0.0
 11
-70.6701844263087
 21
42.0625112915063
 31
0.0
  0
LINE
  5
   5E8
  8
0
  6
DOT
 62
     7
 10
-70.9201843113366
 20
41.8125110936679
 30
0.0
 11
-70.7434074253193
 21
41.8857342078094
 31
0.0
  0
LINE
  5
   5E9
  8
0
  6
DOT
 62
     7
 10
-70.9201847119396
 20
41.8125107157297
 30
0.0
 11
-72.1701847119396
 21
41.8125107157297
 31
0.0
  0
LINE
  5
   5EA
  8
0
  6
DOT
 62
     7
 10
-72.1701847119396
 20
40.8125107157297
 30
0.0
 11
-72.1701847119396
 21
41.8125107157297
 31
0.0
  0
LINE
  5
   5EB
  8
0
  6
DOT
 62
     7
 10
-69.7951847119396
 20
40.8125107157297
 30
0.0
 11
-72.1701847119396
 21
40.8125107157297
 31
0.0
  0
LINE
  5
   5EC
  8
0
  6
DOT
 62
     7
 10
-69.2951837582652
 20
41.3125107157297
 30
0.0
 11
-69.2951837582652
 21
44.3125107157297
 31
0.0
  0
LINE
  5
   5ED
  8
0
  6
DOT
 62
     7
 10
-69.2951837582652
 20
44.3125107157297
 30
0.0
 11
-70.1468378109996
 21
44.3125107157297
 31
0.0
  0
LINE
  5
   5EE
  8
0
  6
DOT
 62
     7
 10
-69.3621717227598
 20
41.062510774903
 30
0.0
 11
-69.2951837312038
 21
41.3125107730011
 31
0.0
  0
LINE
  5
   5EF
  8
0
  6
DOT
 62
     7
 10
-69.5451843843623
 20
40.879497935059
 30
0.0
 11
-69.3621723820619
 21
41.0625099373594
 31
0.0
  0
LINE
  5
   5F0
  8
0
  6
DOT
 62
     7
 10
-69.7951849981411
 20
40.8125104818978
 30
0.0
 11
-69.5451840459443
 21
40.8794984734551
 31
0.0
  0
LINE
  5
   5F1
  8
0
  6
DOT
 62
     7
 10
-60.6701780362193
 20
41.3123409617014
 30
0.0
 11
-60.6701780362193
 21
41.4998409617014
 31
0.0
  0
LINE
  5
   5F2
  8
0
  6
CONTINUOUS
 62
     7
 10
-60.6701780362193
 20
41.4998409617014
 30
0.0
 11
-60.6701780362193
 21
41.6323368418284
 31
0.0
  0
LINE
  5
   5F3
  8
0
  6
DOT
 62
     7
 10
-60.6701780362193
 20
41.521254764802
 30
0.0
 11
-69.2951837582652
 21
41.521254764802
 31
0.0
  0
LINE
  5
   5F4
  8
0
  6
DOT
 62
     7
 10
-59.208489040858
 20
143.75001071573
 30
0.0
 11
-59.958489040858
 21
143.75001071573
 31
0.0
  0
LINE
  5
   5F5
  8
0
  6
DOT
 62
     7
 10
-59.208489040858
 20
140.893367038972
 30
0.0
 11
-59.958489040858
 21
140.893367038972
 31
0.0
  0
LINE
  5
   5F6
  8
0
  6
DOT
 62
     7
 10
-59.208489040858
 20
45.0623409617014
 30
0.0
 11
-59.958489040858
 21
45.0623409617014
 31
0.0
  0
LINE
  5
   5F7
  8
0
  6
DOT
 62
     7
 10
-59.208489040858
 20
44.1873409617014
 30
0.0
 11
-59.958489040858
 21
44.1873409617014
 31
0.0
  0
LINE
  5
   5F8
  8
0
  6
DOT
 62
     7
 10
-59.208489040858
 20
43.9373409617014
 30
0.0
 11
-59.958489040858
 21
43.9373409617014
 31
0.0
  0
LINE
  5
   5F9
  8
0
  6
DOT
 62
     7
 10
-59.208489040858
 20
42.4373409617014
 30
0.0
 11
-59.958489040858
 21
42.4373409617014
 31
0.0
  0
LINE
  5
   5FA
  8
0
  6
DOT
 62
     7
 10
-59.208489040858
 20
42.1873409617014
 30
0.0
 11
-59.958489040858
 21
42.1873409617014
 31
0.0
  0
LINE
  5
   5FB
  8
0
  6
DOT
 62
     7
 10
-59.208489040858
 20
41.3123409617014
 30
0.0
 11
-59.958489040858
 21
41.3123409617014
 31
0.0
  0
LINE
  5
   5FC
  8
0
  6
DOT
 62
     7
 10
-60.4585500760143
 20
41.3123409617014
 30
0.0
 11
-60.6701780362193
 21
41.3123409617014
 31
0.0
  0
LINE
  5
   5FD
  8
0
  6
DOT
 62
     7
 10
-60.9584909482066
 20
44.8748409617014
 30
0.0
 11
-69.2951780362193
 21
44.8748409617014
 31
0.0
  0
LINE
  5
   5FE
  8
0
  6
DOT
 62
     7
 10
-60.9584909482066
 20
41.9373409617014
 30
0.0
 11
-69.2951837582652
 21
41.9373409617014
 31
0.0
  0
ARC
  5
   5FF
  8
0
  6
CONTINUOUS
 62
     7
 10
-56.9584871960329
 20
50.6250241051219
 30
0.0
 40
1.99999967543207
 50
442.785348034685
 51
622.785347870261
  0
ARC
  5
   600
  8
0
  6
CONTINUOUS
 62
     7
 10
-56.958488147133
 20
50.6250094464406
 30
0.0
 40
1.41248795303004
 50
413.10879337948
 51
666.892555958853
  0
CIRCLE
  5
   601
  8
0
  6
CONTINUOUS
 62
     7
 10
-56.9584899173103
 20
50.6250150565523
 30
0.0
 40
0.624992302909675
  0
CIRCLE
  5
   602
  8
0
  6
CONTINUOUS
 62
     7
 10
-56.9584880778422
 20
50.6250315722836
 30
0.0
 40
0.750006975145277
  0
ARC
  5
   603
  8
0
  6
CONTINUOUS
 62
     7
 10
-57.1924445064417
 20
51.5199486244576
 30
0.0
 40
7.49991266056972E-2
 50
369.999989548482
 51
464.650868616615
  0
ARC
  5
   604
  8
0
  6
CONTINUOUS
 62
     7
 10
-57.849171495413
 20
50.8746374109505
 30
0.0
 40
7.50010032796931E-2
 50
164.344015768398
 51
255.000384256703
  0
ARC
  5
   605
  8
0
  6
CONTINUOUS
 62
     7
 10
-57.8491743380566
 20
50.3754106321972
 30
0.0
 40
7.49973305189071E-2
 50
104.999615639364
 51
195.654776095813
  0
ARC
  5
   606
  8
0
  6
CONTINUOUS
 62
     7
 10
-57.1924453782343
 20
49.730097085379
 30
0.0
 40
7.49988623621114E-2
 50
255.348810750251
 51
350.000010347587
  0
ARC
  5
   607
  8
0
  6
CONTINUOUS
 62
     7
 10
-56.2306297774378
 20
51.5947357052621
 30
0.0
 40
0.200016656417564
 50
299.999890260925
 51
413.10879337948
  0
ARC
  5
   608
  8
0
  6
CONTINUOUS
 62
     7
 10
-56.2306306219034
 20
49.6552990395449
 30
0.0
 40
0.200017727390803
 50
306.891624273075
 51
420.000109635144
  0
ARC
  5
   609
  8
0
  6
CONTINUOUS
 62
     7
 10
-56.9584829215798
 20
50.625014292728
 30
0.0
 40
1.00000991837321
 50
195.654776095813
 51
255.348810750251
  0
ARC
  5
   60A
  8
0
  6
CONTINUOUS
 62
     7
 10
-56.9584829215798
 20
50.625014292728
 30
0.0
 40
1.00000991837321
 50
104.650868616615
 51
164.3440157684
  0
ARC
  5
   60B
  8
0
  6
CONTINUOUS
 62
     7
 10
-56.3117594709286
 20
47.7712161040564
 30
0.0
 40
0.749991750893169
 50
352.784981031124
 51
442.786037559047
  0
ARC
  5
   60C
  8
0
  6
CONTINUOUS
 62
     7
 10
-49.5178561910573
 20
49.6831233828499
 30
0.0
 40
1.41251189627873
 50
413.108766241899
 51
666.892030960495
  0
CIRCLE
  5
   60D
  8
0
  6
CONTINUOUS
 62
     7
 10
-49.5178694961748
 20
49.6831285776131
 30
0.0
 40
0.624999465674181
  0
CIRCLE
  5
   60E
  8
0
  6
CONTINUOUS
 62
     7
 10
-49.5178728891179
 20
49.6831179826507
 30
0.0
 40
0.750011059136962
  0
ARC
  5
   60F
  8
0
  6
CONTINUOUS
 62
     7
 10
-48.7900036275739
 20
50.6528409493888
 30
0.0
 40
0.200013253401966
 50
299.999764654435
 51
413.108766241899
  0
ARC
  5
   610
  8
0
  6
CONTINUOUS
 62
     7
 10
-48.7899852742599
 20
48.7134094712526
 30
0.0
 40
0.199995814578595
 50
306.892030960496
 51
419.999797440822
  0
ARC
  5
   611
  8
0
  6
CONTINUOUS
 62
     7
 10
-49.7518276274285
 20
48.7882035386211
 30
0.0
 40
0.075002955015946
 50
255.347586409527
 51
359.999999948034
  0
ARC
  5
   612
  8
0
  6
CONTINUOUS
 62
     7
 10
-50.4085533815607
 20
49.4335160329397
 30
0.0
 40
7.49975281664594E-2
 50
104.999615639366
 51
195.653447779728
  0
ARC
  5
   613
  8
0
  6
CONTINUOUS
 62
     7
 10
-50.4085512455379
 20
49.9327424875209
 30
0.0
 40
7.50005915770405E-2
 50
164.343119982189
 51
255.000384256703
  0
ARC
  5
   614
  8
0
  6
CONTINUOUS
 62
     7
 10
-49.7518270749665
 20
50.5780466485315
 30
0.0
 40
7.50020702436668E-2
 50
369.999410942215
 51
464.651618711891
  0
ARC
  5
   615
  8
0
  6
CONTINUOUS
 62
     7
 10
-49.517849958772
 20
49.6831007869429
 30
0.0
 40
1.00002999820734
 50
104.651618711891
 51
164.34311998219
  0
ARC
  5
   616
  8
0
  6
CONTINUOUS
 62
     7
 10
-49.517849958772
 20
49.6831007869429
 30
0.0
 40
1.00002999820734
 50
195.653447779726
 51
255.347586409529
  0
ARC
  5
   617
  8
0
  6
CONTINUOUS
 62
     7
 10
-54.0503467883279
 20
51.7688651034817
 30
0.0
 40
0.499992453423494
 50
381.471023627111
 51
442.785435717569
  0
ARC
  5
   618
  8
0
  6
CONTINUOUS
 62
     7
 10
-52.8422809767509
 20
50.3559711921802
 30
0.0
 40
0.499982470461088
 50
442.785548391966
 51
536.260277507458
  0
ARC
  5
   619
  8
0
  6
CONTINUOUS
 62
     7
 10
-51.9542363646101
 20
50.2435536123295
 30
0.0
 40
0.499985570224054
 50
347.04511724812
 51
442.785548391966
  0
ARC
  5
   61A
  8
0
  6
CONTINUOUS
 62
     7
 10
-49.5179235425401
 20
49.6831068289539
 30
0.0
 40
1.99994469835972
 50
167.04511724812
 51
231.65587882288
  0
ARC
  5
   61B
  8
0
  6
CONTINUOUS
 62
     7
 10
-51.0688451418994
 20
47.7224055799394
 30
0.0
 40
0.499979401550246
 50
315.915496216315
 51
411.65587882288
  0
ARC
  5
   61C
  8
0
  6
CONTINUOUS
 62
     7
 10
-56.9584799099782
 20
50.6250196082393
 30
0.0
 40
3.62498970729039
 50
342.785374127555
 51
381.471023627111
  0
ARC
  5
   61D
  8
0
  6
CONTINUOUS
 62
     7
 10
-55.1627335336558
 20
45.8617913118034
 30
0.0
 40
0.50000396978696
 50
262.785376415822
 51
342.785374127556
  0
ARC
  5
   61E
  8
0
  6
CONTINUOUS
 62
     7
 10
-54.2083166074328
 20
44.4809993017986
 30
0.0
 40
0.500004597841786
 50
172.785397591174
 51
315.915496216315
  0
ARC
  5
   61F
  8
0
  6
CONTINUOUS
 62
     7
 10
-55.4201690180457
 20
42.8704327290781
 30
0.0
 40
1.50000905003373
 50
262.785297621983
 51
315.915496216315
  0
ARC
  5
   620
  8
0
  6
CONTINUOUS
 62
     7
 10
-56.6976830414389
 20
44.7225850295637
 30
0.0
 40
0.749993665098146
 50
304.595802215213
 51
352.78534803547
  0
ARC
  5
   621
  8
0
  6
CONTINUOUS
 62
     7
 10
-56.3070148240857
 20
41.9747200749353
 30
0.0
 40
0.500001694190673
 50
187.78540319404
 51
262.785297621983
  0
ARC
  5
   622
  8
0
  6
CONTINUOUS
 62
     7
 10
-55.4201690180457
 20
42.8704327290781
 30
0.0
 40
1.50000905003373
 50
124.595802215213
 51
187.78540319404
  0
ARC
  5
   623
  8
0
  6
CONTINUOUS
 62
     7
 10
-49.517903239497
 20
49.68313087942
 30
0.0
 40
2.00003226280672
 50
315.915496216315
 51
442.785380222003
  0
ARC
  5
   624
  8
0
  6
CONTINUOUS
 62
     7
 10
-47.268956200234
 20
50.8103029885397
 30
0.0
 40
0.499998067239078
 50
270.054985657937
 51
360.055665491546
  0
ARC
  5
   625
  8
0
  6
CONTINUOUS
 62
     7
 10
-48.3948119222187
 20
51.6842208573453
 30
0.0
 40
0.750009198462351
 50
298.617778026223
 51
542.776473672618
  0
ARC
  5
   626
  8
0
  6
CONTINUOUS
 62
     7
 10
-50.6447908855584
 20
51.6820682922868
 30
0.0
 40
0.749970968449087
 50
364.979320554096
 51
520.591439889909
  0
ARC
  5
   627
  8
0
  6
CONTINUOUS
 62
     7
 10
-48.3909777579756
 20
47.6842360277668
 30
0.0
 40
0.750046882687025
 50
210.440415065562
 51
421.48934642304
  0
ARC
  5
   628
  8
0
  6
CONTINUOUS
 62
     7
 10
-47.266792050937
 20
48.5603011874263
 30
0.0
 40
0.500010378094046
 50
360.055958426252
 51
450.054068273037
  0
ARC
  5
   629
  8
0
  6
CONTINUOUS
 62
     7
 10
-48.3908901265185
 20
47.6841769083603
 30
0.0
 40
1.62494301953138
 50
270.053975807475
 51
360.056747699089
  0
ARC
  5
   62A
  8
0
  6
CONTINUOUS
 62
     7
 10
-56.2306151171144
 20
135.344742221444
 30
0.0
 40
0.200005546837953
 50
300.000456168237
 51
431.578173582236
  0
CIRCLE
  5
   62B
  8
0
  6
CONTINUOUS
 62
     7
 10
-56.9585421907168
 20
134.374944970882
 30
0.0
 40
0.750088075069682
  0
CIRCLE
  5
   62C
  8
0
  6
CONTINUOUS
 62
     7
 10
-56.9585050960561
 20
134.374998002367
 30
0.0
 40
0.62502968750119
  0
ARC
  5
   62D
  8
0
  6
CONTINUOUS
 62
     7
 10
-57.1924411844909
 20
135.269950215042
 30
0.0
 40
7.49956288275005E-2
 50
370.000193067405
 51
464.649841042817
  0
ARC
  5
   62E
  8
0
  6
CONTINUOUS
 62
     7
 10
-57.8491674483703
 20
134.624640174667
 30
0.0
 40
7.50076029646313E-2
 50
164.343979667931
 51
255.002731944714
  0
ARC
  5
   62F
  8
0
  6
CONTINUOUS
 62
     7
 10
-56.9584811689289
 20
134.37501942066
 30
0.0
 40
1.41250839669382
 50
415.158634283667
 51
666.892150426925
  0
ARC
  5
   630
  8
0
  6
CONTINUOUS
 62
     7
 10
-57.8491829279038
 20
134.125420333217
 30
0.0
 40
7.49902241730112E-2
 50
104.999615639366
 51
195.654765066508
  0
ARC
  5
   631
  8
0
  6
CONTINUOUS
 62
     7
 10
-57.1924505612473
 20
133.48009859543
 30
0.0
 40
7.50055024942994E-2
 50
255.34951846025
 51
350.000214707327
  0
ARC
  5
   632
  8
0
  6
CONTINUOUS
 62
     7
 10
-56.2306070615351
 20
133.405303925313
 30
0.0
 40
0.199997871564071
 50
306.892106614663
 51
419.999669105549
  0
ARC
  5
   633
  8
0
  6
CONTINUOUS
 62
     7
 10
-56.9584615464653
 20
134.375000369505
 30
0.0
 40
2.0000352437092
 50
438.915454165864
 51
618.913680972796
  0
ARC
  5
   634
  8
0
  6
CONTINUOUS
 62
     7
 10
-54.5565915237454
 20
132.375915757744
 30
0.0
 40
0.500015707468923
 50
258.914586729548
 51
320.229993540726
  0
ARC
  5
   635
  8
0
  6
CONTINUOUS
 62
     7
 10
-56.9586315389881
 20
134.375090665845
 30
0.0
 40
3.62515555426103
 50
320.229993540726
 51
358.914555886878
  0
ARC
  5
   636
  8
0
  6
CONTINUOUS
 62
     7
 10
-55.4483960178822
 20
136.881441485775
 30
0.0
 40
0.749996804840081
 50
258.914452267196
 51
348.915565399083
  0
ARC
  5
   637
  8
0
  6
CONTINUOUS
 62
     7
 10
-52.9659587836107
 20
133.338016940971
 30
0.0
 40
0.500005683165443
 50
165.4395110333
 51
258.914705929299
  0
ARC
  5
   638
  8
0
  6
CONTINUOUS
 62
     7
 10
-52.0875388754484
 20
133.165890930143
 30
0.0
 40
0.499973051491461
 50
258.914705929299
 51
354.654346730976
  0
ARC
  5
   639
  8
0
  6
CONTINUOUS
 62
     7
 10
-49.5984536238115
 20
132.932984956115
 30
0.0
 40
1.99997477491169
 50
110.045404574869
 51
174.654346730975
  0
ARC
  5
   63A
  8
0
  6
CONTINUOUS
 62
     7
 10
-50.4553692174392
 20
135.281548677896
 30
0.0
 40
0.500032981388342
 50
290.04540457487
 51
385.784495466471
  0
ARC
  5
   63B
  8
0
  6
CONTINUOUS
 62
     7
 10
-49.5984536238115
 20
132.932984956115
 30
0.0
 40
1.99997477491169
 50
258.914638970051
 51
385.784493876919
  0
ARC
  5
   63C
  8
0
  6
CONTINUOUS
 62
     7
 10
-49.5984001066185
 20
132.932946728936
 30
0.0
 40
1.00004223623663
 50
104.651492469975
 51
164.34149801801
  0
CIRCLE
  5
   63D
  8
0
  6
CONTINUOUS
 62
     7
 10
-49.5984144713478
 20
132.933042675593
 30
0.0
 40
0.749949513772966
  0
CIRCLE
  5
   63E
  8
0
  6
CONTINUOUS
 62
     7
 10
-49.5984257152733
 20
132.933009800229
 30
0.0
 40
0.624978357388308
  0
ARC
  5
   63F
  8
0
  6
CONTINUOUS
 62
     7
 10
-48.870545162545
 20
133.902702340444
 30
0.0
 40
0.199999497205595
 50
300.000456168236
 51
413.108349330755
  0
ARC
  5
   640
  8
0
  6
CONTINUOUS
 62
     7
 10
-49.8323798206056
 20
133.827910584837
 30
0.0
 40
7.49958967312688E-2
 50
370.000771080632
 51
464.651492469977
  0
ARC
  5
   641
  8
0
  6
CONTINUOUS
 62
     7
 10
-50.4890933732134
 20
133.182613376857
 30
0.0
 40
7.50157277935369E-2
 50
164.341498018006
 51
255.000384256702
  0
ARC
  5
   642
  8
0
  6
CONTINUOUS
 62
     7
 10
-50.4891108940049
 20
132.683375148772
 30
0.0
 40
7.49984019386955E-2
 50
104.999615639368
 51
195.652538968768
  0
ARC
  5
   643
  8
0
  6
CONTINUOUS
 62
     7
 10
-49.8323890829399
 20
132.038059191352
 30
0.0
 40
7.50056499063673E-2
 50
255.346756600072
 51
349.999636694068
  0
ARC
  5
   644
  8
0
  6
CONTINUOUS
 62
     7
 10
-48.8705434709871
 20
131.963264427123
 30
0.0
 40
0.199997855970618
 50
306.890968745396
 51
420.000051611382
  0
ARC
  5
   645
  8
0
  6
CONTINUOUS
 62
     7
 10
-49.5984270405446
 20
132.93303264213
 30
0.0
 40
1.41254456951418
 50
413.106300431844
 51
666.891107158561
  0
ARC
  5
   646
  8
0
  6
CONTINUOUS
 62
     7
 10
-49.5984001066185
 20
132.932946728936
 30
0.0
 40
1.00004223623663
 50
195.652538968769
 51
255.346756600074
  0
ARC
  5
   647
  8
0
  6
CONTINUOUS
 62
     7
 10
-54.8575506655746
 20
139.89705160554
 30
0.0
 40
0.749992337725081
 50
348.914611502425
 51
397.104148232325
  0
ARC
  5
   648
  8
0
  6
CONTINUOUS
 62
     7
 10
-53.063080080696
 20
141.254403295619
 30
0.0
 40
1.50001555961044
 50
385.784493876919
 51
438.915024399353
  0
ARC
  5
   649
  8
0
  6
CONTINUOUS
 62
     7
 10
-53.6238570223677
 20
142.383303274497
 30
0.0
 40
0.499969430311921
 50
438.915024399353
 51
513.914432215881
  0
ARC
  5
   64A
  8
0
  6
CONTINUOUS
 62
     7
 10
-52.4182222806538
 20
139.344778865687
 30
0.0
 40
0.500010834252806
 50
385.784495466471
 51
528.914615691644
  0
ARC
  5
   64B
  8
0
  6
CONTINUOUS
 62
     7
 10
-53.7579600064747
 20
138.333476386012
 30
0.0
 40
0.500036127340476
 50
358.914555886879
 51
438.914825491493
  0
ARC
  5
   64C
  8
0
  6
CONTINUOUS
 62
     7
 10
-53.063080080696
 20
141.254403295619
 30
0.0
 40
1.50001555961044
 50
153.914432215882
 51
217.104148232325
  0
ARC
  5
   64D
  8
0
  6
CONTINUOUS
 62
     7
 10
-48.4756030480629
 20
135.18417248166
 30
0.0
 40
0.749997089852628
 50
296.527717756333
 51
475.041269997506
  0
ARC
  5
   64E
  8
0
  6
CONTINUOUS
 62
     7
 10
-48.4758366344454
 20
135.434186372208
 30
0.0
 40
1.62498745464359
 50
360.055345010257
 51
450.055802879728
  0
ARC
  5
   64F
  8
0
  6
CONTINUOUS
 62
     7
 10
-47.3495051714996
 20
134.060256774463
 30
0.0
 40
0.499985942106568
 50
270.053829653206
 51
360.054457126888
  0
ARC
  5
   650
  8
0
  6
CONTINUOUS
 62
     7
 10
-47.3473387140253
 20
131.810297445346
 30
0.0
 40
0.499980956102481
 50
360.05317936528
 51
450.054770248749
  0
ARC
  5
   651
  8
0
  6
CONTINUOUS
 62
     7
 10
-48.4712545141567
 20
130.684189374846
 30
0.0
 40
0.75000377524601
 50
156.627018486345
 51
436.617223986777
  0
ARC
  5
   652
  8
0
  6
CONTINUOUS
 62
     7
 10
-50.7210090897838
 20
130.431983288894
 30
0.0
 40
0.74999501507329
 50
105.589348992347
 51
412.239928947756
  0
ARC
  5
   653
  8
0
  6
DOT
 62
     7
 10
-73.1702070161136
 20
46.0625086390331
 30
0.0
 40
3.12502136322927
 50
333.61238758824
 51
383.578049024604
  0
ARC
  5
   654
  8
0
  6
DOT
 62
     7
 10
-70.1468389897837
 20
44.5625103722209
 30
0.0
 40
0.249999194934912
 50
153.61238758824
 51
269.999999948034
  0
ARC
  5
   655
  8
0
  6
DOT
 62
     7
 10
-73.1701939740513
 20
46.0625138605629
 30
0.0
 40
2.37500995692732
 50
315.09937820352
 51
359.999999948034
  0
ARC
  5
   656
  8
0
  6
DOT
 62
     7
 10
-71.0451836020891
 20
46.0625120723158
 30
0.0
 40
0.249998961263034
 50
359.999813955908
 51
450.000212216809
  0
ARC
  5
   657
  8
0
  6
CONTINUOUS
 62
     7
 10
-58.4381228089847
 20
144.562510886241
 30
0.0
 40
3.12502668617424
 50
333.612391066367
 51
383.577961477224
  0
ARC
  5
   658
  8
0
  6
CONTINUOUS
 62
     7
 10
-58.4381531614677
 20
144.56252265749
 30
0.0
 40
2.37505826872054
 50
315.100366921352
 51
359.999999948034
  0
ARC
  5
   659
  8
0
  6
CONTINUOUS
 62
     7
 10
-56.3131035140924
 20
144.562505609937
 30
0.0
 40
0.250008671343176
 50
359.998464058805
 51
449.998390640638
  0
ARC
  5
   65A
  8
0
  6
CONTINUOUS
 62
     7
 10
-55.4147503916349
 20
143.0625106696
 30
0.0
 40
0.249999568047851
 50
153.612391066368
 51
269.999999948034
  0
ARC
  5
   65B
  8
0
  6
CONTINUOUS
 62
     7
 10
-56.1880783123524
 20
140.56249338064
 30
0.0
 40
0.249978918711994
 50
269.996351272176
 51
360.001213434459
  0
ARC
  5
   65C
  8
0
  6
CONTINUOUS
 62
     7
 10
-56.1880619194035
 20
141.562546285961
 30
0.0
 40
0.249964000357179
 50
359.999999948034
 51
449.999999948034
  0
ARC
  5
   65D
  8
0
  6
CONTINUOUS
 62
     7
 10
-56.9584983197936
 20
134.37502190088
 30
0.0
 40
0.999993181879694
 50
104.649841042816
 51
164.343979667932
  0
ARC
  5
   65E
  8
0
  6
CONTINUOUS
 62
     7
 10
-56.9584983197936
 20
134.37502190088
 30
0.0
 40
0.999993181879694
 50
195.654765066503
 51
255.34951846025
  0
LINE
  5
   65F
  8
0
  6
DASHDOT
 62
     7
 10
-49.5984536238115
 20
130.183010181204
 30
0.0
 11
-49.5984536238115
 21
135.682959731027
 31
0.0
  0
LINE
  5
   660
  8
0
  6
DASHDOT
 62
     7
 10
-46.8484788488998
 20
132.932984956115
 30
0.0
 11
-52.3484283987232
 21
132.932984956115
 31
0.0
  0
LINE
  5
   661
  8
0
  6
DASHDOT
 62
     7
 10
-48.4756030480629
 20
134.441450418038
 30
0.0
 11
-48.4756030480629
 21
136.684169571513
 31
0.0
  0
LINE
  5
   662
  8
0
  6
DASHDOT
 62
     7
 10
-46.9756059582103
 20
135.18417248166
 30
0.0
 11
-49.2997928866702
 21
135.18417248166
 31
0.0
  0
LINE
  5
   663
  8
0
  6
DASHDOT
 62
     7
 10
-48.4712545141567
 20
129.1841855996
 30
0.0
 11
-48.4712545141567
 21
131.704111130247
 31
0.0
  0
LINE
  5
   664
  8
0
  6
DASHDOT
 62
     7
 10
-46.9712507389107
 20
130.684189374846
 30
0.0
 11
-49.9712582894027
 21
130.684189374846
 31
0.0
  0
LINE
  5
   665
  8
0
  6
DASHDOT
 62
     7
 10
-50.7210090897838
 20
128.931988273821
 30
0.0
 11
-50.7210090897838
 21
131.524524258483
 31
0.0
  0
LINE
  5
   666
  8
0
  6
DASHDOT
 62
     7
 10
-49.2210140747105
 20
130.431983288894
 30
0.0
 11
-52.2210041048571
 21
130.431983288894
 31
0.0
  0
LINE
  5
   667
  8
0
  6
DASHDOT
 62
     7
 10
-49.517903239497
 20
46.9330986166133
 30
0.0
 11
-49.517903239497
 21
52.4331631422268
 31
0.0
  0
LINE
  5
   668
  8
0
  6
DASHDOT
 62
     7
 10
-46.7678709766903
 20
49.68313087942
 30
0.0
 11
-52.2679355023037
 21
49.68313087942
 31
0.0
  0
LINE
  5
   669
  8
0
  6
DASHDOT
 62
     7
 10
-48.3948119222187
 20
50.8682507309471
 30
0.0
 11
-48.3948119222187
 21
53.1842300558076
 31
0.0
  0
LINE
  5
   66A
  8
0
  6
DASHDOT
 62
     7
 10
-46.8948027237563
 20
51.6842208573453
 30
0.0
 11
-49.894821120681
 21
51.6842208573453
 31
0.0
  0
LINE
  5
   66B
  8
0
  6
DASHDOT
 62
     7
 10
-50.6447908855584
 20
51.1947723159719
 30
0.0
 11
-50.6447908855584
 21
53.1820392607359
 31
0.0
  0
LINE
  5
   66C
  8
0
  6
DASHDOT
 62
     7
 10
-49.1448199171093
 20
51.6820682922868
 30
0.0
 11
-51.6888424837681
 21
51.6820682922868
 31
0.0
  0
LINE
  5
   66D
  8
0
  6
DASHDOT
 62
     7
 10
-48.3909777579756
 20
46.1841891450798
 30
0.0
 11
-48.3909777579756
 21
48.5717155829395
 31
0.0
  0
LINE
  5
   66E
  8
0
  6
DASHDOT
 62
     7
 10
-46.8909308752886
 20
47.6842360277668
 30
0.0
 11
-49.3215609923385
 21
47.6842360277668
 31
0.0
  0
LINE
  5
   66F
  8
0
  6
CONTINUOUS
 62
     7
 10
-57.833489040858
 20
114.500025974519
 30
0.0
 11
-57.833489040858
 21
115.500025974519
 31
0.0
  0
LINE
  5
   670
  8
0
  6
CONTINUOUS
 62
     7
 10
-57.958489040858
 20
169.125025974519
 30
0.0
 11
-59.208489040858
 21
169.125025974519
 31
0.0
  0
LINE
  5
   671
  8
0
  6
CONTINUOUS
 62
     7
 10
-57.958489040858
 20
167.875025974519
 30
0.0
 11
-59.208489040858
 21
167.875025974519
 31
0.0
  0
LINE
  5
   672
  8
0
  6
CONTINUOUS
 62
     7
 10
-57.958489040858
 20
114.375025974519
 30
0.0
 11
-57.958489040858
 21
115.625025974519
 31
0.0
  0
LINE
  5
   673
  8
0
  6
CONTINUOUS
 62
     7
 10
-57.833489040858
 20
169.000025974519
 30
0.0
 11
-59.208489040858
 21
169.000025974519
 31
0.0
  0
LINE
  5
   674
  8
0
  6
CONTINUOUS
 62
     7
 10
-57.833489040858
 20
168.000025974519
 30
0.0
 11
-59.208489040858
 21
168.000025974519
 31
0.0
  0
LINE
  5
   675
  8
0
  6
CONTINUOUS
 62
     7
 10
-57.958489040858
 20
115.625025974519
 30
0.0
 11
-59.208489040858
 21
115.625025974519
 31
0.0
  0
LINE
  5
   676
  8
0
  6
CONTINUOUS
 62
     7
 10
-57.958489040858
 20
114.375025974519
 30
0.0
 11
-59.208489040858
 21
114.375025974519
 31
0.0
  0
LINE
  5
   677
  8
0
  6
CONTINUOUS
 62
     7
 10
-57.833489040858
 20
115.500025974519
 30
0.0
 11
-59.208489040858
 21
115.500025974519
 31
0.0
  0
LINE
  5
   678
  8
0
  6
CONTINUOUS
 62
     7
 10
-57.833489040858
 20
114.500025974519
 30
0.0
 11
-59.208489040858
 21
114.500025974519
 31
0.0
  0
LINE
  5
   679
  8
0
  6
CONTINUOUS
 62
     7
 10
-57.833489040858
 20
168.000025974519
 30
0.0
 11
-57.833489040858
 21
169.000025974519
 31
0.0
  0
LINE
  5
   67A
  8
0
  6
CONTINUOUS
 62
     7
 10
-57.958489040858
 20
167.875025974519
 30
0.0
 11
-57.958489040858
 21
169.125025974519
 31
0.0
  0
LINE
  5
   67B
  8
0
  6
CONTINUOUS
 62
     7
 10
-57.833489040858
 20
115.500025974519
 30
0.0
 11
-57.958489040858
 21
115.625025974519
 31
0.0
  0
LINE
  5
   67C
  8
0
  6
CONTINUOUS
 62
     7
 10
-57.958489040858
 20
114.375025974519
 30
0.0
 11
-57.833489040858
 21
114.500025974519
 31
0.0
  0
LINE
  5
   67D
  8
0
  6
CONTINUOUS
 62
     7
 10
-57.833489040858
 20
169.000025974519
 30
0.0
 11
-57.958489040858
 21
169.125025974519
 31
0.0
  0
LINE
  5
   67E
  8
0
  6
CONTINUOUS
 62
     7
 10
-57.958489040858
 20
167.875025974519
 30
0.0
 11
-57.833489040858
 21
168.000025974519
 31
0.0
  0
LINE
  5
   67F
  8
0
  6
DASHDOT
 62
     7
 10
-56.7598197305361
 20
26.375017509413
 30
0.0
 11
-60.7370244552687
 21
26.375017509413
 31
0.0
  0
LINE
  5
   680
  8
0
  6
CONTINUOUS
 62
     7
 10
-57.833489040858
 20
26.000017509413
 30
0.0
 11
-57.833489040858
 21
26.750017509413
 31
0.0
  0
LINE
  5
   681
  8
0
  6
CONTINUOUS
 62
     7
 10
-59.083489040858
 20
25.412517509413
 30
0.0
 11
-59.083489040858
 21
27.337517509413
 31
0.0
  0
LINE
  5
   682
  8
0
  6
CONTINUOUS
 62
     7
 10
-58.283489040858
 20
25.412517509413
 30
0.0
 11
-58.283489040858
 21
27.337517509413
 31
0.0
  0
LINE
  5
   683
  8
0
  6
CONTINUOUS
 62
     7
 10
-58.283489040858
 20
27.337517509413
 30
0.0
 11
-59.208489040858
 21
27.337517509413
 31
0.0
  0
LINE
  5
   684
  8
0
  6
CONTINUOUS
 62
     7
 10
-58.283489040858
 20
25.412517509413
 30
0.0
 11
-59.208489040858
 21
25.412517509413
 31
0.0
  0
LINE
  5
   685
  8
0
  6
CONTINUOUS
 62
     7
 10
-57.958489040858
 20
26.875017509413
 30
0.0
 11
-58.283489040858
 21
26.875017509413
 31
0.0
  0
LINE
  5
   686
  8
0
  6
CONTINUOUS
 62
     7
 10
-57.958489040858
 20
25.875017509413
 30
0.0
 11
-58.283489040858
 21
25.875017509413
 31
0.0
  0
LINE
  5
   687
  8
0
  6
CONTINUOUS
 62
     7
 10
-57.958489040858
 20
25.875017509413
 30
0.0
 11
-57.958489040858
 21
26.875017509413
 31
0.0
  0
LINE
  5
   688
  8
0
  6
CONTINUOUS
 62
     7
 10
-57.958489040858
 20
25.875017509413
 30
0.0
 11
-57.833489040858
 21
26.000017509413
 31
0.0
  0
LINE
  5
   689
  8
0
  6
CONTINUOUS
 62
     7
 10
-57.833489040858
 20
26.750017509413
 30
0.0
 11
-57.958489040858
 21
26.875017509413
 31
0.0
  0
LINE
  5
   68A
  8
0
  6
CONTINUOUS
 62
     7
 10
-57.958489040858
 20
26.775017509413
 30
0.0
 11
-59.083489040858
 21
26.775017509413
 31
0.0
  0
LINE
  5
   68B
  8
0
  6
CONTINUOUS
 62
     7
 10
-57.958489040858
 20
25.975017509413
 30
0.0
 11
-59.083489040858
 21
25.975017509413
 31
0.0
  0
LINE
  5
   68C
  8
0
  6
DASHDOT
 62
     7
 10
-56.7598197305361
 20
60.125017509413
 30
0.0
 11
-60.7370244552687
 21
60.125017509413
 31
0.0
  0
LINE
  5
   68D
  8
0
  6
CONTINUOUS
 62
     7
 10
-57.833489040858
 20
59.750017509413
 30
0.0
 11
-57.833489040858
 21
60.500017509413
 31
0.0
  0
LINE
  5
   68E
  8
0
  6
CONTINUOUS
 62
     7
 10
-59.083489040858
 20
59.162517509413
 30
0.0
 11
-59.083489040858
 21
61.087517509413
 31
0.0
  0
LINE
  5
   68F
  8
0
  6
CONTINUOUS
 62
     7
 10
-58.283489040858
 20
59.162517509413
 30
0.0
 11
-58.283489040858
 21
61.087517509413
 31
0.0
  0
LINE
  5
   690
  8
0
  6
CONTINUOUS
 62
     7
 10
-58.283489040858
 20
61.087517509413
 30
0.0
 11
-59.208489040858
 21
61.087517509413
 31
0.0
  0
LINE
  5
   691
  8
0
  6
CONTINUOUS
 62
     7
 10
-58.283489040858
 20
59.162517509413
 30
0.0
 11
-59.208489040858
 21
59.162517509413
 31
0.0
  0
LINE
  5
   692
  8
0
  6
CONTINUOUS
 62
     7
 10
-57.958489040858
 20
60.625017509413
 30
0.0
 11
-58.283489040858
 21
60.625017509413
 31
0.0
  0
LINE
  5
   693
  8
0
  6
CONTINUOUS
 62
     7
 10
-57.958489040858
 20
59.625017509413
 30
0.0
 11
-58.283489040858
 21
59.625017509413
 31
0.0
  0
LINE
  5
   694
  8
0
  6
CONTINUOUS
 62
     7
 10
-57.958489040858
 20
59.625017509413
 30
0.0
 11
-57.958489040858
 21
60.625017509413
 31
0.0
  0
LINE
  5
   695
  8
0
  6
CONTINUOUS
 62
     7
 10
-57.958489040858
 20
59.625017509413
 30
0.0
 11
-57.833489040858
 21
59.750017509413
 31
0.0
  0
LINE
  5
   696
  8
0
  6
CONTINUOUS
 62
     7
 10
-57.833489040858
 20
60.500017509413
 30
0.0
 11
-57.958489040858
 21
60.625017509413
 31
0.0
  0
LINE
  5
   697
  8
0
  6
CONTINUOUS
 62
     7
 10
-57.958489040858
 20
60.525017509413
 30
0.0
 11
-59.083489040858
 21
60.525017509413
 31
0.0
  0
LINE
  5
   698
  8
0
  6
CONTINUOUS
 62
     7
 10
-57.958489040858
 20
59.725017509413
 30
0.0
 11
-59.083489040858
 21
59.725017509413
 31
0.0
  0
LINE
  5
   699
  8
0
  6
CONTINUOUS
 62
     7
 10
-59.958489040858
 20
143.75001071573
 30
0.0
 11
-60.3334928555553
 21
143.75001071573
 31
0.0
  0
LINE
  5
   69A
  8
0
  6
CONTINUOUS
 62
     7
 10
-59.958489040858
 20
140.893367038972
 30
0.0
 11
-60.3334928555553
 21
140.893367038972
 31
0.0
  0
LINE
  5
   69B
  8
0
  6
DOT
 62
     7
 10
-60.3334928555553
 20
140.893367038972
 30
0.0
 11
-70.0630942386616
 21
140.893367038972
 31
0.0
  0
LINE
  5
   69C
  8
0
  6
DOT
 62
     7
 10
-60.3334928555553
 20
143.75001071573
 30
0.0
 11
-70.0630942386616
 21
143.75001071573
 31
0.0
  0
LINE
  5
   69D
  8
0
  6
CONTINUOUS
 62
     7
 10
-49.9584617614746
 20
138.276097737009
 30
0.0
 11
-49.9584617614746
 21
141.75
 31
0.0
  0
LINE
  5
   69E
  8
0
  6
CONTINUOUS
 62
     7
 10
-62.0834655761734
 20
74.3000205611708
 30
0.0
 11
-63.0834617614762
 21
74.3000205611708
 31
0.0
  0
LINE
  5
   69F
  8
0
  6
CONTINUOUS
 62
     7
 10
-60.3334617614762
 20
74.3000205611708
 30
0.0
 11
-62.0834655761734
 21
74.3000205611708
 31
0.0
  0
LINE
  5
   6A0
  8
0
  6
CONTINUOUS
 62
     7
 10
-62.0834655761734
 20
66.6999839400771
 30
0.0
 11
-63.0834617614762
 21
66.6999839400771
 31
0.0
  0
LINE
  5
   6A1
  8
0
  6
CONTINUOUS
 62
     7
 10
-60.3334617614762
 20
66.6999839400771
 30
0.0
 11
-62.0834655761734
 21
66.6999839400771
 31
0.0
  0
LINE
  5
   6A2
  8
0
  6
CONTINUOUS
 62
     7
 10
-62.0834655761734
 20
12.2000144576552
 30
0.0
 11
-63.0834617614762
 21
12.2000144576552
 31
0.0
  0
LINE
  5
   6A3
  8
0
  6
CONTINUOUS
 62
     7
 10
-60.3334617614762
 20
12.2000144576552
 30
0.0
 11
-62.0834655761734
 21
12.2000144576552
 31
0.0
  0
LINE
  5
   6A4
  8
0
  6
CONTINUOUS
 62
     7
 10
-60.3334617614762
 20
12.2000144576552
 30
0.0
 11
-60.3334617614762
 21
19.8000510787489
 31
0.0
  0
LINE
  5
   6A5
  8
0
  6
CONTINUOUS
 62
     7
 10
-62.0834655761734
 20
19.8000510787489
 30
0.0
 11
-63.0834617614762
 21
19.8000510787489
 31
0.0
  0
LINE
  5
   6A6
  8
0
  6
CONTINUOUS
 62
     7
 10
-60.3334617614762
 20
19.8000510787489
 30
0.0
 11
-62.0834655761734
 21
19.8000510787489
 31
0.0
  0
LINE
  5
   6A7
  8
0
  6
CONTINUOUS
 62
     7
 10
-63.0834617614762
 20
75.000017509413
 30
0.0
 11
-72.333473205568
 21
75.000017509413
 31
0.0
  0
LINE
  5
   6A8
  8
0
  6
CONTINUOUS
 62
     7
 10
-72.8334503172684
 20
64.2500060653212
 30
0.0
 11
-72.8334503172684
 21
69.4036620711806
 31
0.0
  0
LINE
  5
   6A9
  8
0
  6
CONTINUOUS
 62
     7
 10
-89.9584655761734
 20
68.7500060653212
 30
0.0
 11
-90.8334655761734
 21
68.7500060653212
 31
0.0
  0
LINE
  5
   6AA
  8
0
  6
CONTINUOUS
 62
     7
 10
-89.958438873115
 20
64.3750038855178
 30
0.0
 11
-89.958438873115
 21
68.7500038855178
 31
0.0
  0
LINE
  5
   6AB
  8
0
  6
CONTINUOUS
 62
     7
 10
-72.8334655761734
 20
64.8750060653212
 30
0.0
 11
-73.8334655761734
 21
64.8750060653212
 31
0.0
  0
LINE
  5
   6AC
  8
0
  6
CONTINUOUS
 62
     7
 10
-73.8334662118648
 20
64.875002890922
 30
0.0
 11
-73.8334901809111
 21
74.3000176620216
 31
0.0
  0
LINE
  5
   6AD
  8
0
  6
CONTINUOUS
 62
     7
 10
-72.708473205568
 20
64.2500060653212
 30
0.0
 11
-72.8334655761734
 21
64.2500060653212
 31
0.0
  0
LINE
  5
   6AE
  8
0
  6
CONTINUOUS
 62
     7
 10
-72.333473205568
 20
68.2500060653212
 30
0.0
 11
-72.833473205568
 21
68.2500060653212
 31
0.0
  0
LINE
  5
   6AF
  8
0
  6
CONTINUOUS
 62
     7
 10
-72.333473205568
 20
71.0000060653212
 30
0.0
 11
-72.833473205568
 21
71.0000060653212
 31
0.0
  0
LINE
  5
   6B0
  8
0
  6
CONTINUOUS
 62
     7
 10
-72.333473205568
 20
70.3279174422743
 30
0.0
 11
-72.833473205568
 21
70.3279174422743
 31
0.0
  0
LINE
  5
   6B1
  8
0
  6
CONTINUOUS
 62
     7
 10
-72.333473205568
 20
69.4036620711806
 30
0.0
 11
-72.833473205568
 21
69.4036620711806
 31
0.0
  0
LINE
  5
   6B2
  8
0
  6
CONTINUOUS
 62
     7
 10
-90.8334655761734
 20
68.625010795537
 30
0.0
 11
-90.8334655761734
 21
68.8750146102342
 31
0.0
  0
LINE
  5
   6B3
  8
0
  6
CONTINUOUS
 62
     7
 10
-96.383464813234
 20
68.8750146102342
 30
0.0
 11
-96.4584655761734
 21
68.8750146102342
 31
0.0
  0
LINE
  5
   6B4
  8
0
  6
CONTINUOUS
 62
     7
 10
-90.0834655761734
 20
68.6250184249315
 30
0.0
 11
-90.8334655761734
 21
68.6250184249315
 31
0.0
  0
LINE
  5
   6B5
  8
0
  6
CONTINUOUS
 62
     7
 10
-90.0834655761734
 20
62.5000136947157
 30
0.0
 11
-90.0834655761734
 21
68.6250184249315
 31
0.0
  0
LINE
  5
   6B6
  8
0
  6
CONTINUOUS
 62
     7
 10
-96.3834571838391
 20
62.5000136947157
 30
0.0
 11
-96.3834571838391
 21
68.8750114820379
 31
0.0
  0
LINE
  5
   6B7
  8
0
  6
CONTINUOUS
 62
     7
 10
-72.8334503172684
 20
74.300017661992
 30
0.0
 11
-96.3834686279312
 21
74.300017661992
 31
0.0
  0
LINE
  5
   6B8
  8
0
  6
CONTINUOUS
 62
     7
 10
-96.3834419250471
 20
68.8750128874927
 30
0.0
 11
-96.3834419250471
 21
74.3000159392505
 31
0.0
  0
LINE
  5
   6B9
  8
0
  6
CONTINUOUS
 62
     7
 10
-90.8334655761734
 20
68.8750184249315
 30
0.0
 11
-90.8334655761734
 21
74.300017661992
 31
0.0
  0
LINE
  5
   6BA
  8
0
  6
CONTINUOUS
 62
     7
 10
-97.7084693908707
 20
26.5000336837206
 30
0.0
 11
-97.7084693908707
 21
27.5000079726698
 31
0.0
  0
LINE
  5
   6BB
  8
0
  6
CONTINUOUS
 62
     7
 10
-97.7084693908707
 20
62.5000136947157
 30
0.0
 11
-97.7084693908707
 21
68.875026054326
 31
0.0
  0
LINE
  5
   6BC
  8
0
  6
CONTINUOUS
 62
     7
 10
-96.4584693908707
 20
68.875026054326
 30
0.0
 11
-97.7084693908707
 21
68.875026054326
 31
0.0
  0
LINE
  5
   6BD
  8
0
  6
CONTINUOUS
 62
     7
 10
-96.4584693908707
 20
26.5000336837206
 30
0.0
 11
-97.7084693908707
 21
26.5000336837206
 31
0.0
  0
LINE
  5
   6BE
  8
0
  6
CONTINUOUS
 62
     7
 10
-72.8334729671494
 20
12.2000334929856
 30
0.0
 11
-96.3834683895126
 21
12.2000334929856
 31
0.0
  0
LINE
  5
   6BF
  8
0
  6
CONTINUOUS
 62
     7
 10
-96.3834703919722
 20
18.5000298687993
 30
0.0
 11
-96.4584693907038
 21
18.5000307491002
 31
0.0
  0
LINE
  5
   6C0
  8
0
  6
CONTINUOUS
 62
     7
 10
-96.3834724426285
 20
17.5000298690232
 30
0.0
 11
-97.4584693908707
 21
17.5000298690232
 31
0.0
  0
LINE
  5
   6C1
  8
0
  6
CONTINUOUS
 62
     7
 10
-96.3834724426285
 20
12.2000344466599
 30
0.0
 11
-96.3834724426285
 21
18.5000336837204
 31
0.0
  0
LINE
  5
   6C2
  8
0
  6
CONTINUOUS
 62
     7
 10
-96.3834724426285
 20
18.5000336837204
 30
0.0
 11
-96.3834724426285
 21
26.5000089263441
 31
0.0
  0
LINE
  5
   6C3
  8
0
  6
CONTINUOUS
 62
     7
 10
-96.3834724426285
 20
26.2500336837204
 30
0.0
 11
-96.4584693908707
 21
26.2500336837204
 31
0.0
  0
LINE
  5
   6C4
  8
0
  6
CONTINUOUS
 62
     7
 10
-72.3334732053788
 20
20.0000298692706
 30
0.0
 11
-72.8334729669489
 21
20.0000336839678
 31
0.0
  0
LINE
  5
   6C5
  8
0
  6
CONTINUOUS
 62
     7
 10
-72.8334729671494
 20
11.5000251388079
 30
0.0
 11
-72.8334729671494
 21
20.0000298690233
 31
0.0
  0
LINE
  5
   6C6
  8
0
  6
CONTINUOUS
 62
     7
 10
-72.333473205568
 20
17.3125298690232
 30
0.0
 11
-72.833473205568
 21
17.3125298690232
 31
0.0
  0
LINE
  5
   6C7
  8
0
  6
CONTINUOUS
 62
     7
 10
-72.3334732055679
 20
15.1331320475968
 30
0.0
 11
-72.8334732055679
 21
15.1331320475968
 31
0.0
  0
LINE
  5
   6C8
  8
0
  6
CONTINUOUS
 62
     7
 10
-72.333473205568
 20
15.74637920374
 30
0.0
 11
-72.833473205568
 21
15.74637920374
 31
0.0
  0
LINE
  5
   6C9
  8
0
  6
CONTINUOUS
 62
     7
 10
-96.4584693908707
 20
26.3750336837206
 30
0.0
 11
-97.7084693908707
 21
26.3750336837206
 31
0.0
  0
LINE
  5
   6CA
  8
0
  6
CONTINUOUS
 62
     7
 10
-96.4584693908707
 20
17.6250336837206
 30
0.0
 11
-97.7084693908707
 21
17.6250336837206
 31
0.0
  0
LINE
  5
   6CB
  8
0
  6
CONTINUOUS
 62
     7
 10
-97.7084693908707
 20
17.6250336837206
 30
0.0
 11
-97.7084693908707
 21
26.3750336837206
 31
0.0
  0
LINE
  5
   6CC
  8
0
  6
CONTINUOUS
 62
     7
 10
-97.2084693908707
 20
17.6250336837206
 30
0.0
 11
-97.2084693908707
 21
26.3750336837206
 31
0.0
  0
LINE
  5
   6CD
  8
0
  6
CONTINUOUS
 62
     7
 10
-96.4584693908707
 20
17.6250336837206
 30
0.0
 11
-96.4584693908707
 21
26.3750336837206
 31
0.0
  0
LINE
  5
   6CE
  8
0
  6
CONTINUOUS
 62
     7
 10
-72.8334503172684
 20
70.3279174422743
 30
0.0
 11
-72.8334503172684
 21
75.000017509413
 31
0.0
  0
LINE
  5
   6CF
  8
0
  6
CONTINUOUS
 62
     7
 10
-72.333473205568
 20
68.2500060653212
 30
0.0
 11
-72.333473205568
 21
71.0000060653212
 31
0.0
  0
LINE
  5
   6D0
  8
0
  6
CONTINUOUS
 62
     7
 10
-72.333473205568
 20
15.1331320475965
 30
0.0
 11
-72.333473205568
 21
17.3125298690228
 31
0.0
  0
LINE
  5
   6D1
  8
0
  6
CONTINUOUS
 62
     7
 10
-60.3334617614762
 20
66.6999839400771
 30
0.0
 11
-60.3334617614762
 21
74.3000205611708
 31
0.0
  0
LINE
  5
   6D2
  8
0
  6
CONTINUOUS
 62
     7
 10
-63.0834636959298
 20
11.5000251388079
 30
0.0
 11
-72.3334751400216
 21
11.5000251388079
 31
0.0
  0
LINE
  5
   6D3
  8
0
  6
CONTINUOUS
 62
     7
 10
-72.333473205568
 20
16.0000136947157
 30
0.0
 11
-72.333473205568
 21
26.3125079726698
 31
0.0
  0
LINE
  5
   6D4
  8
0
  6
CONTINUOUS
 62
     7
 10
-72.333473205568
 20
11.5000136947157
 30
0.0
 11
-72.333473205568
 21
12.200025901747
 31
0.0
  0
LINE
  5
   6D5
  8
0
  6
CONTINUOUS
 62
     7
 10
-72.333473205568
 20
74.3000243758681
 30
0.0
 11
-72.333473205568
 21
75.000017509413
 31
0.0
  0
LINE
  5
   6D6
  8
0
  6
CONTINUOUS
 62
     7
 10
-72.333473205568
 20
62.5000136947157
 30
0.0
 11
-72.333473205568
 21
70.5000251388075
 31
0.0
  0
LINE
  5
   6D7
  8
0
  6
CONTINUOUS
 62
     7
 10
-63.0834617614762
 20
74.3000129317763
 30
0.0
 11
-63.0834617614762
 21
75.000017509413
 31
0.0
  0
LINE
  5
   6D8
  8
0
  6
CONTINUOUS
 62
     7
 10
-63.0834617614762
 20
11.5000098800185
 30
0.0
 11
-63.0834617614762
 21
12.2000204181197
 31
0.0
  0
LINE
  5
   6D9
  8
0
  6
CONTINUOUS
 62
     7
 10
-63.0834617614762
 20
16.0000060653212
 30
0.0
 11
-63.0834617614762
 21
19.8000510787489
 31
0.0
  0
LINE
  5
   6DA
  8
0
  6
CONTINUOUS
 62
     7
 10
-59.9584617614762
 20
58.250017509413
 30
0.0
 11
-59.9584617614762
 21
62.000017509413
 31
0.0
  0
LINE
  5
   6DB
  8
0
  6
CONTINUOUS
 62
     7
 10
-59.9584617614762
 20
24.500032768202
 30
0.0
 11
-59.9584617614762
 21
28.250032768202
 31
0.0
  0
LINE
  5
   6DC
  8
0
  6
CONTINUOUS
 62
     7
 10
-60.4584617614762
 20
35.0000060653212
 30
0.0
 11
-60.9584623233311
 21
35.0000060653212
 31
0.0
  0
LINE
  5
   6DD
  8
0
  6
CONTINUOUS
 62
     7
 10
-60.4584617614762
 20
36.7500022506239
 30
0.0
 11
-60.9584625303296
 21
36.7500022506239
 31
0.0
  0
LINE
  5
   6DE
  8
0
  6
CONTINUOUS
 62
     7
 10
-63.0834617614762
 20
74.3000205611708
 30
0.0
 11
-72.333473205568
 21
74.3000205611708
 31
0.0
  0
LINE
  5
   6DF
  8
0
  6
CONTINUOUS
 62
     7
 10
-72.333473205568
 20
70.500017509413
 30
0.0
 11
-72.333473205568
 21
74.3000205611708
 31
0.0
  0
LINE
  5
   6E0
  8
0
  6
CONTINUOUS
 62
     7
 10
-63.0834617614762
 20
70.5000213241103
 30
0.0
 11
-63.0834617614762
 21
74.3000205611708
 31
0.0
  0
LINE
  5
   6E1
  8
0
  6
CONTINUOUS
 62
     7
 10
-63.0834617614762
 20
12.200021371794
 30
0.0
 11
-72.333473205568
 21
12.200021371794
 31
0.0
  0
LINE
  5
   6E2
  8
0
  6
CONTINUOUS
 62
     7
 10
-72.333473205568
 20
12.200021371794
 30
0.0
 11
-72.333473205568
 21
16.0000098800185
 31
0.0
  0
LINE
  5
   6E3
  8
0
  6
CONTINUOUS
 62
     7
 10
-60.0834617614762
 20
28.5000136947157
 30
0.0
 11
-60.4584617614762
 21
28.5000136947157
 31
0.0
  0
LINE
  5
   6E4
  8
0
  6
CONTINUOUS
 62
     7
 10
-60.0834617614762
 20
24.2500136947157
 30
0.0
 11
-60.4584617614762
 21
24.2500136947157
 31
0.0
  0
LINE
  5
   6E5
  8
0
  6
CONTINUOUS
 62
     7
 10
-60.0834617614762
 20
21.5000136947157
 30
0.0
 11
-60.4584617614762
 21
21.5000136947157
 31
0.0
  0
LINE
  5
   6E6
  8
0
  6
CONTINUOUS
 62
     7
 10
-60.0834617614762
 20
65.0000136947157
 30
0.0
 11
-60.4584617614762
 21
65.0000136947157
 31
0.0
  0
LINE
  5
   6E7
  8
0
  6
CONTINUOUS
 62
     7
 10
-60.0834617614762
 20
62.2500136947157
 30
0.0
 11
-60.4584617614762
 21
62.2500136947157
 31
0.0
  0
LINE
  5
   6E8
  8
0
  6
CONTINUOUS
 62
     7
 10
-60.0834617614762
 20
58.0000136947157
 30
0.0
 11
-60.4584617614762
 21
58.0000136947157
 31
0.0
  0
LINE
  5
   6E9
  8
0
  6
CONTINUOUS
 62
     7
 10
-60.4584617614762
 20
62.000017509413
 30
0.0
 11
-60.4584617614762
 21
65.0000136947157
 31
0.0
  0
LINE
  5
   6EA
  8
0
  6
CONTINUOUS
 62
     7
 10
-60.4584617614762
 20
28.2500518416884
 30
0.0
 11
-60.4584617614762
 21
58.2500251388075
 31
0.0
  0
LINE
  5
   6EB
  8
0
  6
CONTINUOUS
 62
     7
 10
-60.4584617614762
 20
21.5000136947157
 30
0.0
 11
-60.4584617614762
 21
24.5000518416884
 31
0.0
  0
LINE
  5
   6EC
  8
0
  6
CONTINUOUS
 62
     7
 10
-60.0834617614762
 20
21.5000136947157
 30
0.0
 11
-60.0834617614762
 21
24.5000289535048
 31
0.0
  0
LINE
  5
   6ED
  8
0
  6
CONTINUOUS
 62
     7
 10
-60.0834617614762
 20
28.2500251388075
 30
0.0
 11
-60.0834617614762
 21
58.2499908065321
 31
0.0
  0
LINE
  5
   6EE
  8
0
  6
CONTINUOUS
 62
     7
 10
-60.0834617614762
 20
61.9999984359267
 30
0.0
 11
-60.0834617614762
 21
65.0000136947157
 31
0.0
  0
LINE
  5
   6EF
  8
0
  6
CONTINUOUS
 62
     7
 10
-59.9584617614762
 20
62.000017509413
 30
0.0
 11
-60.9584655170309
 21
62.000017509413
 31
0.0
  0
LINE
  5
   6F0
  8
0
  6
CONTINUOUS
 62
     7
 10
-59.9584617614762
 20
58.250017509413
 30
0.0
 11
-60.9584650734617
 21
58.250017509413
 31
0.0
  0
LINE
  5
   6F1
  8
0
  6
CONTINUOUS
 62
     7
 10
-59.9584617614762
 20
28.250032768202
 30
0.0
 11
-60.9584645356646
 21
28.250032768202
 31
0.0
  0
LINE
  5
   6F2
  8
0
  6
CONTINUOUS
 62
     7
 10
-59.9584617614762
 20
24.500032768202
 30
0.0
 11
-63.0834617614762
 21
24.500032768202
 31
0.0
  0
LINE
  5
   6F3
  8
0
  6
CONTINUOUS
 62
     7
 10
-63.0834617614762
 20
66.6999839400771
 30
0.0
 11
-63.0834617614762
 21
70.5000022506239
 31
0.0
  0
LINE
  5
   6F4
  8
0
  6
CONTINUOUS
 62
     7
 10
-63.0834617614762
 20
62.5000136947157
 30
0.0
 11
-63.0834617614762
 21
66.6999839400771
 31
0.0
  0
LINE
  5
   6F5
  8
0
  6
CONTINUOUS
 62
     7
 10
-63.0834617614762
 20
24.500032768202
 30
0.0
 11
-63.0834617614762
 21
27.4999511797519
 31
0.0
  0
LINE
  5
   6F6
  8
0
  6
CONTINUOUS
 62
     7
 10
-63.0834617614762
 20
19.8000510787489
 30
0.0
 11
-63.0834617614762
 21
24.500032768202
 31
0.0
  0
LINE
  5
   6F7
  8
0
  6
CONTINUOUS
 62
     7
 10
-63.0834617614762
 20
12.2000144576552
 30
0.0
 11
-63.0834617614762
 21
16.0000098800185
 31
0.0
  0
LINE
  5
   6F8
  8
0
  6
CONTINUOUS
 62
     7
 10
-104.708445072725
 20
30.2500051139845
 30
0.0
 11
-104.708457947328
 21
31.2500117896849
 31
0.0
  0
LINE
  5
   6F9
  8
0
  6
CONTINUOUS
 62
     7
 10
-104.708457947288
 20
27.5000060672501
 30
0.0
 11
-104.708445549522
 21
28.5000022524909
 31
0.0
  0
LINE
  5
   6FA
  8
0
  6
CONTINUOUS
 62
     7
 10
-71.8334731016495
 20
27.4999765238163
 30
0.0
 11
-72.3334731016495
 21
27.5000079950687
 31
0.0
  0
LINE
  5
   6FB
  8
0
  6
CONTINUOUS
 62
     7
 10
-73.5834770202652
 20
27.5000079726698
 30
0.0
 11
-103.458457946779
 21
27.5000079726698
 31
0.0
  0
LINE
  5
   6FC
  8
0
  6
CONTINUOUS
 62
     7
 10
-60.9584655761734
 20
62.5000136947157
 30
0.0
 11
-71.8334770202652
 21
62.5000136947157
 31
0.0
  0
LINE
  5
   6FD
  8
0
  6
CONTINUOUS
 62
     7
 10
-60.9584655750895
 20
27.4999450302123
 30
0.0
 11
-71.8334732049552
 21
27.4999765014641
 31
0.0
  0
LINE
  5
   6FE
  8
0
  6
CONTINUOUS
 62
     7
 10
-60.9584655761377
 20
27.4999450289273
 30
0.0
 11
-60.9584617614406
 21
30.2499993874558
 31
0.0
  0
LINE
  5
   6FF
  8
0
  6
CONTINUOUS
 62
     7
 10
-82.0834617614762
 20
54.500017509413
 30
0.0
 11
-104.708457946779
 21
54.500017509413
 31
0.0
  0
LINE
  5
   700
  8
0
  6
CONTINUOUS
 62
     7
 10
-82.0834617614762
 20
47.0000041579726
 30
0.0
 11
-104.708457946779
 21
47.0000041579726
 31
0.0
  0
LINE
  5
   701
  8
0
  6
CONTINUOUS
 62
     7
 10
-104.708448903008
 20
28.5000022506248
 30
0.0
 11
-104.708448903008
 21
30.2500051116478
 31
0.0
  0
LINE
  5
   702
  8
0
  6
CONTINUOUS
 62
     7
 10
-71.8334770202652
 20
62.5000136947157
 30
0.0
 11
-104.708457946779
 21
62.5000136947157
 31
0.0
  0
LINE
  5
   703
  8
0
  6
CONTINUOUS
 62
     7
 10
-104.708457946779
 20
54.500017509413
 30
0.0
 11
-104.708457946779
 21
62.5000136947157
 31
0.0
  0
LINE
  5
   704
  8
0
  6
CONTINUOUS
 62
     7
 10
-79.1459770193376
 20
28.5000175094333
 30
0.0
 11
-72.8334732038813
 21
28.500028953525
 31
0.0
  0
LINE
  5
   705
  8
0
  6
CONTINUOUS
 62
     7
 10
-80.1459770202583
 20
28.5000063756586
 30
0.0
 11
-89.3647117614693
 21
28.5000063756586
 31
0.0
  0
LINE
  5
   706
  8
0
  6
CONTINUOUS
 62
     7
 10
-90.3647112846358
 20
28.5000068224396
 30
0.0
 11
-103.708430767058
 21
28.5000068224396
 31
0.0
  0
LINE
  5
   707
  8
0
  6
CONTINUOUS
 62
     7
 10
-90.3647108077987
 20
29.6250087297868
 30
0.0
 11
-103.708428382872
 21
29.6250087297868
 31
0.0
  0
LINE
  5
   708
  8
0
  6
CONTINUOUS
 62
     7
 10
-80.1459751129097
 20
29.6250092366811
 30
0.0
 11
-89.3647108077949
 21
29.6250092366811
 31
0.0
  0
LINE
  5
   709
  8
0
  6
CONTINUOUS
 62
     7
 10
-72.8334732055587
 20
29.6250098800275
 30
0.0
 11
-79.1459751129074
 21
29.6250098800275
 31
0.0
  0
LINE
  5
   70A
  8
0
  6
CONTINUOUS
 62
     7
 10
-103.708430767069
 20
28.5000032055747
 30
0.0
 11
-103.70842885972
 21
29.6250051129441
 31
0.0
  0
LINE
  5
   70B
  8
0
  6
CONTINUOUS
 62
     7
 10
-72.833473205568
 20
28.5000289535048
 30
0.0
 11
-72.833473205568
 21
29.6250251388075
 31
0.0
  0
LINE
  5
   70C
  8
0
  6
CONTINUOUS
 62
     7
 10
-79.145977020238
 20
28.500017505743
 30
0.0
 11
-79.1459751128894
 21
29.6250270422939
 31
0.0
  0
LINE
  5
   70D
  8
0
  6
CONTINUOUS
 62
     7
 10
-80.1459770202394
 20
28.5000175076244
 30
0.0
 11
-80.1459751128908
 21
29.6250260907182
 31
0.0
  0
LINE
  5
   70E
  8
0
  6
CONTINUOUS
 62
     7
 10
-89.3647221960784
 20
28.5000117873767
 30
0.0
 11
-89.3647221960784
 21
29.6250203704456
 31
0.0
  0
LINE
  5
   70F
  8
0
  6
CONTINUOUS
 62
     7
 10
-90.36472171925
 20
28.5000117873759
 30
0.0
 11
-90.36472171925
 21
29.6250194167705
 31
0.0
  0
LINE
  5
   710
  8
0
  6
CONTINUOUS
 62
     7
 10
-96.7084583044068
 20
26.5000089263441
 30
0.0
 11
-96.7084583044068
 21
27.5000089263441
 31
0.0
  0
LINE
  5
   711
  8
0
  6
CONTINUOUS
 62
     7
 10
-95.7084581851975
 20
26.5000089263441
 30
0.0
 11
-95.7084581851975
 21
27.5000089263441
 31
0.0
  0
LINE
  5
   712
  8
0
  6
CONTINUOUS
 62
     7
 10
-95.7084581851975
 20
26.5000089263441
 30
0.0
 11
-96.7084583044068
 21
26.5000089263441
 31
0.0
  0
LINE
  5
   713
  8
0
  6
CONTINUOUS
 62
     7
 10
-75.7709579467789
 20
26.5000222777846
 30
0.0
 11
-75.7709579467789
 21
27.5000041579726
 31
0.0
  0
LINE
  5
   714
  8
0
  6
CONTINUOUS
 62
     7
 10
-74.7709579467789
 20
26.5000222777846
 30
0.0
 11
-74.7709579467789
 21
27.5000041579726
 31
0.0
  0
LINE
  5
   715
  8
0
  6
CONTINUOUS
 62
     7
 10
-74.7709579467789
 20
26.5000222777846
 30
0.0
 11
-75.7709579467789
 21
26.5000222777846
 31
0.0
  0
LINE
  5
   716
  8
0
  6
CONTINUOUS
 62
     7
 10
-103.458457946779
 20
26.3125079726698
 30
0.0
 11
-103.458457946779
 21
26.9375079726698
 31
0.0
  0
LINE
  5
   717
  8
0
  6
CONTINUOUS
 62
     7
 10
-104.708457946779
 20
26.3125079726698
 30
0.0
 11
-104.708457946779
 21
27.5000060653212
 31
0.0
  0
LINE
  5
   718
  8
0
  6
CONTINUOUS
 62
     7
 10
-103.458457946779
 20
26.3125079726698
 30
0.0
 11
-104.708457946779
 21
26.3125079726698
 31
0.0
  0
LINE
  5
   719
  8
0
  6
CONTINUOUS
 62
     7
 10
-103.458457946779
 20
26.9375079726698
 30
0.0
 11
-103.458457946779
 21
27.5000079726698
 31
0.0
  0
LINE
  5
   71A
  8
0
  6
CONTINUOUS
 62
     7
 10
-73.5834808349625
 20
26.3125079726698
 30
0.0
 11
-73.5834808349625
 21
26.9375079726698
 31
0.0
  0
LINE
  5
   71B
  8
0
  6
CONTINUOUS
 62
     7
 10
-72.3334808349625
 20
26.3125079726698
 30
0.0
 11
-73.5834808349625
 21
26.3125079726698
 31
0.0
  0
LINE
  5
   71C
  8
0
  6
CONTINUOUS
 62
     7
 10
-72.333480834431
 20
26.3125079718723
 30
0.0
 11
-72.3334732050365
 21
27.5000079718609
 31
0.0
  0
LINE
  5
   71D
  8
0
  6
CONTINUOUS
 62
     7
 10
-73.5834808343991
 20
26.9375079727111
 30
0.0
 11
-73.5834770197018
 21
27.5000041579183
 31
0.0
  0
LINE
  5
   71E
  8
0
  6
CONTINUOUS
 62
     7
 10
-102.958459821395
 20
57.3750218232646
 30
0.0
 11
-103.708459837871
 21
58.12502183974
 31
0.0
  0
LINE
  5
   71F
  8
0
  6
CONTINUOUS
 62
     7
 10
-104.708457946779
 20
31.2500117873671
 30
0.0
 11
-104.708457946779
 21
47.0000098800185
 31
0.0
  0
LINE
  5
   720
  8
0
  6
CONTINUOUS
 62
     7
 10
-82.0834617614762
 20
47.0000041579726
 30
0.0
 11
-82.0834617614762
 21
54.500017509413
 31
0.0
  0
LINE
  5
   721
  8
0
  6
CONTINUOUS
 62
     7
 10
-100.833458185197
 20
54.375017509413
 30
0.0
 11
-100.833458185197
 21
54.500017509413
 31
0.0
  0
LINE
  5
   722
  8
0
  6
CONTINUOUS
 62
     7
 10
-72.8334732055587
 20
59.1875022506319
 30
0.0
 11
-79.145977020256
 21
59.1875022506319
 31
0.0
  0
LINE
  5
   723
  8
0
  6
CONTINUOUS
 62
     7
 10
-79.1459770202652
 20
57.3750136947157
 30
0.0
 11
-79.1459770202652
 21
59.1875136947157
 31
0.0
  0
LINE
  5
   724
  8
0
  6
CONTINUOUS
 62
     7
 10
-72.8334732055587
 20
57.3750022506322
 30
0.0
 11
-79.145977020256
 21
57.3750022506322
 31
0.0
  0
LINE
  5
   725
  8
0
  6
CONTINUOUS
 62
     7
 10
-72.833473205568
 20
57.375017509413
 30
0.0
 11
-72.833473205568
 21
59.187517509413
 31
0.0
  0
LINE
  5
   726
  8
0
  6
CONTINUOUS
 62
     7
 10
-90.364711284639
 20
57.375017509413
 30
0.0
 11
-90.364711284639
 21
59.187517509413
 31
0.0
  0
LINE
  5
   727
  8
0
  6
CONTINUOUS
 62
     7
 10
-80.1459770202652
 20
57.375017509413
 30
0.0
 11
-90.3647117614762
 21
57.375017509413
 31
0.0
  0
LINE
  5
   728
  8
0
  6
CONTINUOUS
 62
     7
 10
-80.1459770202652
 20
57.375017509413
 30
0.0
 11
-80.1459770202652
 21
59.187517509413
 31
0.0
  0
LINE
  5
   729
  8
0
  6
CONTINUOUS
 62
     7
 10
-80.1459770202652
 20
59.187517509413
 30
0.0
 11
-90.3647117614762
 21
59.187517509413
 31
0.0
  0
LINE
  5
   72A
  8
0
  6
CONTINUOUS
 62
     7
 10
-91.364711284639
 20
57.375017509413
 30
0.0
 11
-103.708457469942
 21
57.375017509413
 31
0.0
  0
LINE
  5
   72B
  8
0
  6
CONTINUOUS
 62
     7
 10
-91.364711284639
 20
57.375017509413
 30
0.0
 11
-91.364711284639
 21
59.187517509413
 31
0.0
  0
LINE
  5
   72C
  8
0
  6
CONTINUOUS
 62
     7
 10
-91.364711284639
 20
59.187517509413
 30
0.0
 11
-103.708457469942
 21
59.187517509413
 31
0.0
  0
LINE
  5
   72D
  8
0
  6
CONTINUOUS
 62
     7
 10
-103.708457946779
 20
57.375017509413
 30
0.0
 11
-103.708457946779
 21
59.187517509413
 31
0.0
  0
LINE
  5
   72E
  8
0
  6
CONTINUOUS
 62
     7
 10
-101.208458185197
 20
28.5000051116469
 30
0.0
 11
-101.208458185197
 21
29.6250127410414
 31
0.0
  0
LINE
  5
   72F
  8
0
  6
CONTINUOUS
 62
     7
 10
-100.208457469942
 20
28.5000060653212
 30
0.0
 11
-100.208457469942
 21
29.6250127410414
 31
0.0
  0
LINE
  5
   730
  8
0
  6
CONTINUOUS
 62
     7
 10
-103.708365412459
 20
28.4999974822546
 30
0.0
 11
-103.708365412459
 21
29.6250051116491
 31
0.0
  0
LINE
  5
   731
  8
0
  6
CONTINUOUS
 62
     7
 10
-104.708457946827
 20
27.4999946217888
 30
0.0
 11
-104.708456993153
 21
27.7500127415131
 31
0.0
  0
LINE
  5
   732
  8
0
  6
CONTINUOUS
 62
     7
 10
-71.8334751069899
 20
27.4999784100825
 30
0.0
 11
-72.3334731996485
 21
27.4999860394771
 31
0.0
  0
LINE
  5
   733
  8
0
  6
CONTINUOUS
 62
     7
 10
-60.9584600984779
 20
30.2499993896012
 30
0.0
 11
-60.9584600984779
 21
62.5000146483902
 31
0.0
  0
LINE
  5
   734
  8
0
  6
CONTINUOUS
 62
     7
 10
-79.1329612731949
 20
28.5000136947157
 30
0.0
 11
-79.1329612731949
 21
29.6250213241103
 31
0.0
  0
LINE
  5
   735
  8
0
  6
CONTINUOUS
 62
     7
 10
-80.1462802886978
 20
28.5000022506239
 30
0.0
 11
-80.1462802886978
 21
29.6250203704359
 31
0.0
  0
LINE
  5
   736
  8
0
  6
CONTINUOUS
 62
     7
 10
-85.7084579467789
 20
54.375017509413
 30
0.0
 11
-104.708457946779
 21
54.375017509413
 31
0.0
  0
LINE
  5
   737
  8
0
  6
CONTINUOUS
 62
     7
 10
-85.7084579467789
 20
47.0000041579726
 30
0.0
 11
-85.7084579467789
 21
54.375017509413
 31
0.0
  0
LINE
  5
   738
  8
0
  6
CONTINUOUS
 62
     7
 10
-104.708457946779
 20
47.0000098800185
 30
0.0
 11
-104.708457946779
 21
54.375017509413
 31
0.0
  0
LINE
  5
   739
  8
0
  6
CONTINUOUS
 62
     7
 10
-104.708448886873
 20
30.5625165557387
 30
0.0
 11
-108.833460807802
 21
30.5625165557387
 31
0.0
  0
LINE
  5
   73A
  8
0
  6
CONTINUOUS
 62
     7
 10
-104.708457946779
 20
56.8125289535048
 30
0.0
 11
-108.833460807802
 21
56.8125289535048
 31
0.0
  0
LINE
  5
   73B
  8
0
  6
CONTINUOUS
 62
     7
 10
-102.958423165545
 20
28.5000098800209
 30
0.0
 11
-102.958423165545
 21
29.6250117873695
 31
0.0
  0
LINE
  5
   73C
  8
0
  6
CONTINUOUS
 62
     7
 10
-72.833473205568
 20
57.750017509413
 30
0.0
 11
-79.145973205568
 21
57.750017509413
 31
0.0
  0
LINE
  5
   73D
  8
0
  6
CONTINUOUS
 62
     7
 10
-80.1459751129166
 20
57.750017509413
 30
0.0
 11
-90.3647089004532
 21
57.750017509413
 31
0.0
  0
LINE
  5
   73E
  8
0
  6
CONTINUOUS
 62
     7
 10
-91.3647089004532
 20
57.750017509413
 30
0.0
 11
-102.958457946779
 21
57.750017509413
 31
0.0
  0
LINE
  5
   73F
  8
0
  6
CONTINUOUS
 62
     7
 10
-103.145957046183
 20
57.5625215294347
 30
0.0
 11
-102.958457042065
 21
57.7500215335536
 31
0.0
  0
LINE
  5
   740
  8
0
  6
CONTINUOUS
 62
     7
 10
-102.958457946779
 20
57.750017509413
 30
0.0
 11
-102.958457946779
 21
59.187517509413
 31
0.0
  0
CIRCLE
  5
   741
  8
0
  6
CONTINUOUS
 62
     7
 10
-101.70847866626
 20
43.2500018391028
 30
0.0
 40
2.49999787095492
  0
CIRCLE
  5
   742
  8
0
  6
CONTINUOUS
 62
     7
 10
-101.708476492774
 20
43.2500003416647
 30
0.0
 40
0.687501010267709
  0
CIRCLE
  5
   743
  8
0
  6
CONTINUOUS
 62
     7
 10
-66.0834638371483
 20
56.7499977743695
 30
0.0
 40
1.50001688672818
  0
CIRCLE
  5
   744
  8
0
  6
CONTINUOUS
 62
     7
 10
-66.0834735831643
 20
56.7500089105458
 30
0.0
 40
0.812502374682159
  0
CIRCLE
  5
   745
  8
0
  6
CONTINUOUS
 62
     7
 10
-66.0834741701146
 20
31.7500102044433
 30
0.0
 40
1.50000059275942
  0
CIRCLE
  5
   746
  8
0
  6
CONTINUOUS
 62
     7
 10
-66.0834717442791
 20
31.7500123350255
 30
0.0
 40
0.812502102053758
  0
LINE
  5
   747
  8
0
  6
DASHDOT
 62
     7
 10
-66.0834638371483
 20
54.9999808876413
 30
0.0
 11
-66.0834638371483
 21
58.5000146610976
 31
0.0
  0
LINE
  5
   748
  8
0
  6
DASHDOT
 62
     7
 10
-64.3334469504201
 20
56.7499977743695
 30
0.0
 11
-67.8334807238765
 21
56.7499977743695
 31
0.0
  0
LINE
  5
   749
  8
0
  6
DASHDOT
 62
     7
 10
-66.0834741701146
 20
30.0000096116839
 30
0.0
 11
-66.0834741701146
 21
33.5000107972028
 31
0.0
  0
LINE
  5
   74A
  8
0
  6
DASHDOT
 62
     7
 10
-64.3334735773551
 20
31.7500102044433
 30
0.0
 11
-67.833474762874
 21
31.7500102044433
 31
0.0
  0
LINE
  5
   74B
  8
0
  6
CONTINUOUS
 62
     7
 10
-72.708473205568
 20
62.5000136947157
 30
0.0
 11
-72.708473205568
 21
64.2500060653212
 31
0.0
  0
LINE
  5
   74C
  8
0
  6
DASHDOT
 62
     7
 10
-101.70847866626
 20
40.5000039681479
 30
0.0
 11
-101.70847866626
 21
45.9999997100577
 31
0.0
  0
LINE
  5
   74D
  8
0
  6
DASHDOT
 62
     7
 10
-98.9584807953052
 20
43.2500018391028
 30
0.0
 11
-104.458476537215
 21
43.2500018391028
 31
0.0
  0
LINE
  5
   74E
  8
0
  6
CONTINUOUS
 62
     7
 10
-108.833460807802
 20
29.1766318179143
 30
0.0
 11
-108.833460807802
 21
57.6892111844925
 31
0.0
  0
LINE
  5
   74F
  8
0
  6
CONTINUOUS
 62
     7
 10
-108.833460807802
 20
38.749981269789
 30
0.0
 11
-108.833460807802
 21
38.9999831771376
 31
0.0
  0
LINE
  5
   750
  8
0
  6
CONTINUOUS
 62
     7
 10
-97.0084724426285
 20
11.5000251388079
 30
0.0
 11
-97.0084724426285
 21
17.5000298690232
 31
0.0
  0
LINE
  5
   751
  8
0
  6
CONTINUOUS
 62
     7
 10
-97.0084419250471
 20
68.875026054326
 30
0.0
 11
-97.0084419250471
 21
75.000017509413
 31
0.0
  0
LINE
  5
   752
  8
0
  6
CONTINUOUS
 62
     7
 10
-109.831820857846
 20
29.5513491094703
 30
0.0
 11
-109.831820857846
 21
57.7232763928158
 31
0.0
  0
LINE
  5
   753
  8
0
  6
CONTINUOUS
 62
     7
 10
-112.89768960694
 20
30.5625165557387
 30
0.0
 11
-112.89768960694
 21
56.8125289535048
 31
0.0
  0
ARC
  5
   754
  8
0
  6
CONTINUOUS
 62
     7
 10
-112.58518960694
 20
56.5000289535048
 30
0.0
 40
0.3125
 50
89.9999999480344
 51
179.999999948034
  0
ARC
  5
   755
  8
0
  6
CONTINUOUS
 62
     7
 10
-112.58518960694
 20
30.8750165557387
 30
0.0
 40
0.3125
 50
179.999999948034
 51
269.999999948034
  0
LINE
  5
   756
  8
0
  6
CONTINUOUS
 62
     7
 10
-109.831820857846
 20
56.8125289535048
 30
0.0
 11
-112.58518960694
 21
56.8125289535048
 31
0.0
  0
LINE
  5
   757
  8
0
  6
CONTINUOUS
 62
     7
 10
-109.831820857846
 20
30.5625165557387
 30
0.0
 11
-112.58518960694
 21
30.5625165557387
 31
0.0
  0
LINE
  5
   758
  8
0
  6
CONTINUOUS
 62
     7
 10
-72.8334729671494
 20
11.5000251388079
 30
0.0
 11
-97.0084724426285
 21
11.5000251388079
 31
0.0
  0
LINE
  5
   759
  8
0
  6
CONTINUOUS
 62
     7
 10
-72.8334503172684
 20
75.000017509413
 30
0.0
 11
-97.0084419250471
 21
75.000017509413
 31
0.0
  0
LINE
  5
   75A
  8
0
  6
DASHDOT
 62
     7
 10
-41.2239937286745
 20
43.687517509413
 30
0.0
 11
-120.540083647888
 21
43.687517509413
 31
0.0
  0
LINE
  5
   75B
  8
0
  6
DOT
 62
     7
 10
-43.7084617614746
 20
-7.32368092098631
 30
0.0
 11
-43.7084617614746
 21
190.589284018868
 31
0.0
  0
LINE
  5
   75C
  8
0
  6
DOT
 62
     7
 10
-42.9584617614746
 20
-7.32368092098631
 30
0.0
 11
-42.9584617614746
 21
190.589284018868
 31
0.0
  0
LINE
  5
   75D
  8
0
  6
CONTINUOUS
 62
     7
 10
-39.1628750199046
 20
190.589284018868
 30
0.0
 11
-47.8378885271144
 21
190.589284018868
 31
0.0
  0
LINE
  5
   75E
  8
0
  6
CONTINUOUS
 62
     7
 10
-39.2716836271786
 20
-7.32368092098631
 30
0.0
 11
-46.9575279773519
 21
-7.32368092098631
 31
0.0
  0
CIRCLE
  5
   75F
  8
0
  6
CONTINUOUS
 62
     7
 10
-49.6022564887733
 20
96.1730879797384
 30
0.0
 40
0.375
  0
LINE
  5
   760
  8
0
  6
DASHDOT
 62
     7
 10
-38.0293949737686
 20
153.75
 30
0.0
 11
-50.7175012867877
 21
153.75
 31
0.0
  0
LINE
  5
   761
  8
0
  6
CONTINUOUS
 62
     7
 10
-46.9584617614746
 20
152.75
 30
0.0
 11
-46.9584617614746
 21
154.75
 31
0.0
  0
LINE
  5
   762
  8
0
  6
CONTINUOUS
 62
     7
 10
-44.9584617614746
 20
152.625
 30
0.0
 11
-44.9584617614746
 21
154.875
 31
0.0
  0
LINE
  5
   763
  8
0
  6
CONTINUOUS
 62
     7
 10
-44.9584617614746
 20
154.875
 30
0.0
 11
-46.8334617614746
 21
154.875
 31
0.0
  0
LINE
  5
   764
  8
0
  6
CONTINUOUS
 62
     7
 10
-44.9584617614746
 20
152.625
 30
0.0
 11
-46.8334617614746
 21
152.625
 31
0.0
  0
ARC
  5
   765
  8
0
  6
CONTINUOUS
 62
     7
 10
-44.7084617614746
 20
154.875
 30
0.0
 40
0.25
 50
359.999999948034
 51
539.999999948034
  0
ARC
  5
   766
  8
0
  6
CONTINUOUS
 62
     7
 10
-44.7084617614746
 20
152.625
 30
0.0
 40
0.25
 50
179.999999948034
 51
359.999999948034
  0
LINE
  5
   767
  8
0
  6
CONTINUOUS
 62
     7
 10
-46.9584617614746
 20
154.75
 30
0.0
 11
-46.8334617614746
 21
154.875
 31
0.0
  0
LINE
  5
   768
  8
0
  6
CONTINUOUS
 62
     7
 10
-46.8334617614746
 20
152.625
 30
0.0
 11
-46.9584617614746
 21
152.75
 31
0.0
  0
LINE
  5
   769
  8
0
  6
CONTINUOUS
 62
     7
 10
-46.8334617614746
 20
152.625
 30
0.0
 11
-46.8334617614746
 21
154.875
 31
0.0
  0
LINE
  5
   76A
  8
0
  6
DASHDOT
 62
     7
 10
-38.0293949737686
 20
31.25
 30
0.0
 11
-50.7175012867877
 21
31.25
 31
0.0
  0
LINE
  5
   76B
  8
0
  6
CONTINUOUS
 62
     7
 10
-46.9584617614746
 20
30.25
 30
0.0
 11
-46.9584617614746
 21
32.25
 31
0.0
  0
LINE
  5
   76C
  8
0
  6
CONTINUOUS
 62
     7
 10
-44.9584617614746
 20
30.125
 30
0.0
 11
-44.9584617614746
 21
32.375
 31
0.0
  0
LINE
  5
   76D
  8
0
  6
CONTINUOUS
 62
     7
 10
-44.9584617614746
 20
30.125
 30
0.0
 11
-46.8334617614746
 21
30.125
 31
0.0
  0
LINE
  5
   76E
  8
0
  6
CONTINUOUS
 62
     7
 10
-44.9584617614746
 20
32.375
 30
0.0
 11
-46.8334617614746
 21
32.375
 31
0.0
  0
ARC
  5
   76F
  8
0
  6
CONTINUOUS
 62
     7
 10
-44.7084617614746
 20
30.125
 30
0.0
 40
0.25
 50
179.999999948034
 51
359.999999948034
  0
ARC
  5
   770
  8
0
  6
CONTINUOUS
 62
     7
 10
-44.7084617614746
 20
32.375
 30
0.0
 40
0.25
 50
359.999999948034
 51
539.999999948034
  0
LINE
  5
   771
  8
0
  6
CONTINUOUS
 62
     7
 10
-46.8334617614746
 20
30.125
 30
0.0
 11
-46.9584617614746
 21
30.25
 31
0.0
  0
LINE
  5
   772
  8
0
  6
CONTINUOUS
 62
     7
 10
-46.9584617614746
 20
32.25
 30
0.0
 11
-46.8334617614746
 21
32.375
 31
0.0
  0
LINE
  5
   773
  8
0
  6
CONTINUOUS
 62
     7
 10
-46.8334617614746
 20
30.125
 30
0.0
 11
-46.8334617614746
 21
32.375
 31
0.0
  0
LINE
  5
   774
  8
0
  6
CONTINUOUS
 62
     2
 10
-41.7084617614746
 20
152.375
 30
0.0
 11
-41.7084617614746
 21
155.125
 31
0.0
  0
LINE
  5
   775
  8
0
  6
CONTINUOUS
 62
     2
 10
-41.7084617614746
 20
155.125
 30
0.0
 11
-42.9584617614746
 21
155.125
 31
0.0
  0
LINE
  5
   776
  8
0
  6
CONTINUOUS
 62
     2
 10
-41.7084617614746
 20
152.375
 30
0.0
 11
-42.9584617614746
 21
152.375
 31
0.0
  0
LINE
  5
   777
  8
0
  6
CONTINUOUS
 62
     2
 10
-41.7084617614746
 20
154.375
 30
0.0
 11
-42.9584617614746
 21
154.375
 31
0.0
  0
LINE
  5
   778
  8
0
  6
CONTINUOUS
 62
     2
 10
-41.7084617614746
 20
153.125
 30
0.0
 11
-42.9584617614746
 21
153.125
 31
0.0
  0
LINE
  5
   779
  8
0
  6
CONTINUOUS
 62
     2
 10
-41.7084617614746
 20
32.625
 30
0.0
 11
-42.9584617614746
 21
32.625
 31
0.0
  0
LINE
  5
   77A
  8
0
  6
CONTINUOUS
 62
     2
 10
-41.7084617614746
 20
31.875
 30
0.0
 11
-42.9584617614746
 21
31.875
 31
0.0
  0
LINE
  5
   77B
  8
0
  6
CONTINUOUS
 62
     2
 10
-41.7084617614746
 20
30.625
 30
0.0
 11
-42.9584617614746
 21
30.625
 31
0.0
  0
LINE
  5
   77C
  8
0
  6
CONTINUOUS
 62
     2
 10
-41.7084617614746
 20
29.875
 30
0.0
 11
-42.9584617614746
 21
29.875
 31
0.0
  0
LINE
  5
   77D
  8
0
  6
CONTINUOUS
 62
     2
 10
-41.7084617614746
 20
29.875
 30
0.0
 11
-41.7084617614746
 21
32.625
 31
0.0
  0
LINE
  5
   77E
  8
0
  6
DOT
 62
     7
 10
-119.77268960694
 20
30.5625165557387
 30
0.0
 11
-119.77268960694
 21
56.8125289535048
 31
0.0
  0
LINE
  5
   77F
  8
0
  6
DOT
 62
     7
 10
-112.89768960694
 20
56.8125289535048
 30
0.0
 11
-119.77268960694
 21
56.8125289535048
 31
0.0
  0
LINE
  5
   780
  8
0
  6
DOT
 62
     7
 10
-112.89768960694
 20
30.5625165557387
 30
0.0
 11
-119.77268960694
 21
30.5625165557387
 31
0.0
  0
LINE
  5
   781
  8
0
  6
CONTINUOUS
 62
     7
 10
-125.326021119304
 20
-26.6072071784056
 30
0.0
 11
-125.326021119304
 21
-13.7755339548407
 31
0.0
  0
LINE
  5
   782
  8
0
  6
CONTINUOUS
 62
     7
 10
-60.7158652551816
 20
-26.6072071784056
 30
0.0
 11
-125.326021119304
 21
-26.6072071784056
 31
0.0
  0
LINE
  5
   783
  8
0
  6
CONTINUOUS
 62
     7
 10
-43.7084617614746
 20
158.25
 30
0.0
 11
-49.2084617614746
 21
158.25
 31
0.0
  0
ARC
  5
   784
  8
0
  6
CONTINUOUS
 62
     7
 10
-49.2084617614746
 20
159.0
 30
0.0
 40
0.75
 50
179.999999948034
 51
269.999999948034
  0
LINE
  5
   785
  8
0
  6
CONTINUOUS
 62
     7
 10
-43.7084617614746
 20
26.75
 30
0.0
 11
-49.2084617614746
 21
26.75
 31
0.0
  0
ARC
  5
   786
  8
0
  6
CONTINUOUS
 62
     7
 10
-49.2084617614746
 20
26.0
 30
0.0
 40
0.75
 50
89.9999999480344
 51
179.999999948034
  0
TEXT
  5
   787
  8
0
  6
CONTINUOUS
 62
     7
 10
-119.233312991867
 20
-21.3212699698191
 30
0.0
 40
3.00000002980232
  1
ISOLATING DISTANCE
 50
359.999999948034
 41
0.916666604744064
 72
     1
 11
-94.7583144028955
 21
-19.821269976993
 31
0.0
 73
     2
  0
TEXT
  5
   788
  8
0
  6
CONTINUOUS
 62
     7
 10
-123.358312929039
 20
-25.3212699660986
 30
0.0
 40
3.00000002980232
  1
CORSA DI SEZIONAMENTO
 50
359.999999948034
 41
0.916666604744064
 72
     1
 11
-94.7583145777411
 21
-23.821269976993
 31
0.0
 73
     2
  0
INSERT
  5
   789
  8
0
  6
CONTINUOUS
 62
     7
  2
*UDIM322
 10
0.0
 20
0.0
 30
0.0
  0
INSERT
  5
   78A
  8
0
  6
CONTINUOUS
 62
     7
  2
*UDIM323
 10
0.0
 20
0.0
 30
0.0
  0
TEXT
  5
   78B
  8
0
  6
CONTINUOUS
 62
     7
 10
-38.4345912052809
 20
90.8153305034827
 30
0.0
 40
3.00000002980232
  1
X
 50
359.999999948034
 41
0.916666604744064
 72
     1
 11
-37.3345912694931
 21
92.3153305173917
 31
0.0
 73
     2
  0
TEXT
  5
   78C
  8
0
  6
CONTINUOUS
 62
     7
 10
-102.295352847737
 20
90.5581436138343
 30
0.0
 40
3.00000002980232
  1
X
 50
359.999999948034
 41
0.916666604744064
 72
     1
 11
-101.195352911949
 21
92.0581436277433
 31
0.0
 73
     2
  0
TEXT
  5
   78D
  8
0
  6
CONTINUOUS
 62
     7
 10
-120.369510640466
 20
37.8206561484758
 30
0.0
 40
3.00000002980232
  1
=  =
 50
89.9999999480344
 41
0.916666604744064
 72
     1
 11
-121.869510650635
 21
43.0456558465958
 31
0.0
 73
     2
  0
TEXT
  5
   78E
  8
0
  6
CONTINUOUS
 62
     7
 10
-97.3628806966183
 20
136.738693563027
 30
0.0
 40
3.00000002980232
  1
=  =
 50
89.9999999480344
 41
0.916666604744064
 72
     1
 11
-98.8628807067871
 21
141.963693261147
 31
0.0
 73
     2
  0
INSERT
  5
   78F
  8
0
  6
CONTINUOUS
 62
     7
  2
*UDIM324
 10
0.0
 20
0.0
 30
0.0
  0
INSERT
  5
   790
  8
0
  6
CONTINUOUS
 62
     7
  2
*UDIM325
 10
0.0
 20
0.0
 30
0.0
  0
INSERT
  5
   791
  8
0
  6
CONTINUOUS
 62
     7
  2
*UDIM326
 10
0.0
 20
0.0
 30
0.0
  0
INSERT
  5
   792
  8
0
  6
CONTINUOUS
 62
     7
  2
*UDIM327
 10
0.0
 20
0.0
 30
0.0
  0
LINE
  5
   793
  8
0
  6
CONTINUOUS
 62
     7
 10
100.005840301514
 20
-1.68146193230703
 30
0.0
 11
100.005840301514
 21
185.780318733291
 31
0.0
  0
LINE
  5
   794
  8
0
  6
CONTINUOUS
 62
     7
 10
155.880840301514
 20
-1.68146193230703
 30
0.0
 11
155.880840301514
 21
185.780318733291
 31
0.0
  0
LINE
  5
   795
  8
0
  6
DASHDOT
 62
     7
 10
153.691180390632
 20
92.5
 30
0.0
 11
91.1939770310464
 21
92.5
 31
0.0
  0
LINE
  5
   796
  8
0
  6
DASHDOT
 62
     7
 10
127.943340301514
 20
-1.2783365538792
 30
0.0
 11
127.943340301514
 21
202.316083076395
 31
0.0
  0
LINE
  5
   797
  8
0
  6
DASHDOT
 62
     7
 10
102.818340301514
 20
18.4121339500867
 30
0.0
 11
102.818340301514
 21
185.239768890856
 31
0.0
  0
LINE
  5
   798
  8
0
  6
DASHDOT
 62
     7
 10
151.023256518859
 20
153.75
 30
0.0
 11
97.9638559365089
 21
153.75
 31
0.0
  0
LINE
  5
   799
  8
0
  6
DASHDOT
 62
     7
 10
153.068340301514
 20
18.2709938190031
 30
0.0
 11
153.068340301514
 21
184.60463830098
 31
0.0
  0
LINE
  5
   79A
  8
0
  6
DASHDOT
 62
     7
 10
157.87784158148
 20
31.25
 30
0.0
 11
98.9518368540938
 21
31.25
 31
0.0
  0
LINE
  5
   79B
  8
0
  6
CONTINUOUS
 62
   212
 10
136.693254389729
 20
43.5608695974015
 30
0.0
 11
136.693254389729
 21
43.8108695974015
 31
0.0
  0
CIRCLE
  5
   79C
  8
0
  6
CONTINUOUS
 62
     7
 10
102.818340301514
 20
153.75
 30
0.0
 40
1.0
  0
CIRCLE
  5
   79D
  8
0
  6
CONTINUOUS
 62
     7
 10
153.068340301514
 20
153.75
 30
0.0
 40
1.0
  0
CIRCLE
  5
   79E
  8
0
  6
CONTINUOUS
 62
     7
 10
102.818340301514
 20
31.25
 30
0.0
 40
1.0
  0
CIRCLE
  5
   79F
  8
0
  6
CONTINUOUS
 62
     7
 10
153.068340301514
 20
31.25
 30
0.0
 40
1.0
  0
LINE
  5
   7A0
  8
0
  6
CONTINUOUS
 62
     7
 10
155.880840301514
 20
185.780318733291
 30
0.0
 11
100.005840301514
 21
185.780318733291
 31
0.0
  0
LINE
  5
   7A1
  8
0
  6
CONTINUOUS
 62
     7
 10
155.880840301514
 20
-1.68146193230703
 30
0.0
 11
100.005840301514
 21
-1.68146193230703
 31
0.0
  0
POINT
  5
   7A2
  8
0
  6
CONTINUOUS
 62
     7
 10
152.068340301514
 20
31.25
 30
0.0
  0
POINT
  5
   7A3
  8
0
  6
CONTINUOUS
 62
     7
 10
154.068340301514
 20
31.25
 30
0.0
  0
INSERT
  5
   7A4
  8
0
  6
CONTINUOUS
 62
     7
  2
*UDIM328
 10
0.0
 20
0.0
 30
0.0
  0
INSERT
  5
   7A5
  8
0
  6
CONTINUOUS
 62
     7
  2
*UDIM329
 10
0.0
 20
0.0
 30
0.0
  0
INSERT
  5
   7A6
  8
0
  6
CONTINUOUS
 62
     7
  2
*UDIM330
 10
0.0
 20
0.0
 30
0.0
  0
TEXT
  5
   7A7
  8
0
  6
CONTINUOUS
 62
     2
 10
155.829988048814
 20
-47.8144989140862
 30
0.0
 40
2.00000008940697
  1
N0002 99-02-11
 50
359.999999948034
 41
0.749999861419206
 72
     1
 11
166.179986596107
 21
-46.8144988787178
 31
0.0
 73
     2
  0
LINE
  5
   7A8
  8
0
  6
CONTINUOUS
 62
     7
 10
150.068340301514
 20
156.0
 30
0.0
 11
107.068340301514
 21
156.0
 31
0.0
  0
LINE
  5
   7A9
  8
0
  6
CONTINUOUS
 62
     7
 10
150.068340301514
 20
182.75
 30
0.0
 11
107.068340301514
 21
182.75
 31
0.0
  0
LINE
  5
   7AA
  8
0
  6
CONTINUOUS
 62
     7
 10
150.068340301514
 20
127.5
 30
0.0
 11
107.068340301514
 21
127.5
 31
0.0
  0
LINE
  5
   7AB
  8
0
  6
CONTINUOUS
 62
     7
 10
150.068340301514
 20
100.75
 30
0.0
 11
107.068340301514
 21
100.75
 31
0.0
  0
LINE
  5
   7AC
  8
0
  6
CONTINUOUS
 62
     7
 10
150.068340301514
 20
84.25
 30
0.0
 11
107.068340301514
 21
84.25
 31
0.0
  0
LINE
  5
   7AD
  8
0
  6
CONTINUOUS
 62
     7
 10
150.068340301514
 20
57.5
 30
0.0
 11
107.068340301514
 21
57.5
 31
0.0
  0
LINE
  5
   7AE
  8
0
  6
CONTINUOUS
 62
     7
 10
150.068340301514
 20
29.0
 30
0.0
 11
107.068340301514
 21
29.0
 31
0.0
  0
LINE
  5
   7AF
  8
0
  6
CONTINUOUS
 62
     7
 10
150.068340301514
 20
2.25
 30
0.0
 11
107.068340301514
 21
2.25
 31
0.0
  0
LINE
  5
   7B0
  8
0
  6
CONTINUOUS
 62
     7
 10
103.318340301514
 20
159.75
 30
0.0
 11
103.318340301514
 21
179.0
 31
0.0
  0
LINE
  5
   7B1
  8
0
  6
CONTINUOUS
 62
     7
 10
103.318340301514
 20
104.5
 30
0.0
 11
103.318340301514
 21
123.75
 31
0.0
  0
LINE
  5
   7B2
  8
0
  6
CONTINUOUS
 62
     7
 10
103.318340301514
 20
61.25
 30
0.0
 11
103.318340301514
 21
80.5
 31
0.0
  0
LINE
  5
   7B3
  8
0
  6
CONTINUOUS
 62
     7
 10
103.318340301514
 20
6.0
 30
0.0
 11
103.318340301514
 21
25.25
 31
0.0
  0
LINE
  5
   7B4
  8
0
  6
CONTINUOUS
 62
     7
 10
153.818340301514
 20
6.0
 30
0.0
 11
153.818340301514
 21
25.25
 31
0.0
  0
LINE
  5
   7B5
  8
0
  6
CONTINUOUS
 62
     7
 10
153.818340301514
 20
61.25
 30
0.0
 11
153.818340301514
 21
80.5
 31
0.0
  0
LINE
  5
   7B6
  8
0
  6
CONTINUOUS
 62
     7
 10
153.818340301514
 20
104.5
 30
0.0
 11
153.818340301514
 21
123.75
 31
0.0
  0
LINE
  5
   7B7
  8
0
  6
CONTINUOUS
 62
     7
 10
153.818340301514
 20
159.75
 30
0.0
 11
153.818340301514
 21
179.0
 31
0.0
  0
ARC
  5
   7B8
  8
0
  6
CONTINUOUS
 62
     7
 10
150.068340301514
 20
179.0
 30
0.0
 40
3.75
 50
359.999999948034
 51
449.999999948034
  0
ARC
  5
   7B9
  8
0
  6
CONTINUOUS
 62
     7
 10
150.068340301514
 20
159.75
 30
0.0
 40
3.75
 50
269.999999948034
 51
359.999999948034
  0
ARC
  5
   7BA
  8
0
  6
CONTINUOUS
 62
     7
 10
107.068340301514
 20
159.75
 30
0.0
 40
3.75
 50
179.999999948034
 51
269.999999948034
  0
ARC
  5
   7BB
  8
0
  6
CONTINUOUS
 62
     7
 10
107.068340301514
 20
179.0
 30
0.0
 40
3.75
 50
89.9999999480344
 51
179.999999948034
  0
ARC
  5
   7BC
  8
0
  6
CONTINUOUS
 62
     7
 10
107.068340301514
 20
123.75
 30
0.0
 40
3.75
 50
89.9999999480344
 51
179.999999948034
  0
ARC
  5
   7BD
  8
0
  6
CONTINUOUS
 62
     7
 10
107.068340301514
 20
104.5
 30
0.0
 40
3.75
 50
179.999999948034
 51
269.999999948034
  0
ARC
  5
   7BE
  8
0
  6
CONTINUOUS
 62
     7
 10
150.068340301514
 20
123.75
 30
0.0
 40
3.75
 50
359.999999948034
 51
449.999999948034
  0
ARC
  5
   7BF
  8
0
  6
CONTINUOUS
 62
     7
 10
150.068340301514
 20
104.5
 30
0.0
 40
3.75
 50
269.999999948034
 51
359.999999948034
  0
ARC
  5
   7C0
  8
0
  6
CONTINUOUS
 62
     7
 10
150.068340301514
 20
80.5
 30
0.0
 40
3.75
 50
359.999999948034
 51
449.999999948034
  0
ARC
  5
   7C1
  8
0
  6
CONTINUOUS
 62
     7
 10
150.068340301514
 20
61.25
 30
0.0
 40
3.75
 50
269.999999948034
 51
359.999999948034
  0
ARC
  5
   7C2
  8
0
  6
CONTINUOUS
 62
     7
 10
107.068340301514
 20
61.25
 30
0.0
 40
3.75
 50
179.999999948034
 51
269.999999948034
  0
ARC
  5
   7C3
  8
0
  6
CONTINUOUS
 62
     7
 10
107.068340301514
 20
80.5
 30
0.0
 40
3.75
 50
89.9999999480344
 51
179.999999948034
  0
ARC
  5
   7C4
  8
0
  6
CONTINUOUS
 62
     7
 10
107.068340301514
 20
25.25
 30
0.0
 40
3.75
 50
89.9999999480344
 51
179.999999948034
  0
ARC
  5
   7C5
  8
0
  6
CONTINUOUS
 62
     7
 10
107.068340301514
 20
6.0
 30
0.0
 40
3.75
 50
179.999999948034
 51
269.999999948034
  0
ARC
  5
   7C6
  8
0
  6
CONTINUOUS
 62
     7
 10
150.068340301514
 20
25.25
 30
0.0
 40
3.75
 50
359.999999948034
 51
449.999999948034
  0
ARC
  5
   7C7
  8
0
  6
CONTINUOUS
 62
     7
 10
150.068340301514
 20
6.0
 30
0.0
 40
3.75
 50
269.999999948034
 51
359.999999948034
  0
INSERT
  5
   7C8
  8
0
  6
CONTINUOUS
 62
     7
  2
*UDIM331
 10
0.0
 20
0.0
 30
0.0
  0
INSERT
  5
   7C9
  8
0
  6
CONTINUOUS
 62
     7
  2
*UDIM332
 10
0.0
 20
0.0
 30
0.0
  0
INSERT
  5
   7CA
  8
0
  6
CONTINUOUS
 62
     7
  2
*UDIM333
 10
0.0
 20
0.0
 30
0.0
  0
INSERT
  5
   7CB
  8
0
  6
CONTINUOUS
 62
     7
  2
*UDIM334
 10
0.0
 20
0.0
 30
0.0
  0
INSERT
  5
   7CC
  8
0
  6
CONTINUOUS
 62
     7
  2
*UDIM335
 10
0.0
 20
0.0
 30
0.0
  0
INSERT
  5
   7CD
  8
0
  6
CONTINUOUS
 62
     7
  2
*UDIM336
 10
0.0
 20
0.0
 30
0.0
  0
INSERT
  5
   7CE
  8
0
  6
CONTINUOUS
 62
     7
  2
*UDIM337
 10
0.0
 20
0.0
 30
0.0
  0
INSERT
  5
   7CF
  8
0
  6
CONTINUOUS
 62
     7
  2
*UDIM338
 10
0.0
 20
0.0
 30
0.0
  0
INSERT
  5
   7D0
  8
0
  6
CONTINUOUS
 62
     7
  2
*UDIM339
 10
0.0
 20
0.0
 30
0.0
  0
INSERT
  5
   7D1
  8
0
  6
CONTINUOUS
 62
     7
  2
*UDIM340
 10
0.0
 20
0.0
 30
0.0
  0
TEXT
  5
   7D2
  8
0
  6
CONTINUOUS
 62
     2
 10
200.965241191154
 20
-49.82155805654
 30
0.0
 40
2.50000005960464
  1
S5 400-630
 50
359.999999948034
 41
1.09999991695086
 72
     1
 11
214.256907165051
 21
-48.571558038726
 31
0.0
 73
     2
  0
TEXT
  5
   7D3
  8
0
  6
CONTINUOUS
 62
     2
 10
93.3185119617632
 20
-43.48621930096
 30
0.0
 40
2.50000005960464
  1
BARCELLA
 50
359.999999948034
 41
1.09799996061325
 11
93.3185119628906
 21
-42.2362192711577
 31
0.0
 73
     2
  0
TEXT
  5
   7D4
  8
0
  6
CONTINUOUS
 62
     2
 10
130.239991815976
 20
-47.8144970304992
 30
0.0
 40
2.00000008940697
  1
M 3193 95-10-26
 50
359.999999948034
 41
0.749999861419206
 72
     1
 11
141.339990258217
 21
-46.8144969958073
 31
0.0
 73
     2
  0
TEXT
  5
   7D5
  8
0
  6
CONTINUOUS
 62
     2
 10
105.466645868711
 20
-47.4231739408996
 30
0.0
 40
2.00000008940697
  1
M 3076 95-01-16
 50
359.999999948034
 41
0.749999861419206
 72
     1
 11
116.566644310951
 21
-46.4231739062077
 31
0.0
 73
     2
  0
TEXT
  5
   7D6
  8
0
  6
CONTINUOUS
 62
     2
 10
253.844909883405
 20
-36.6600628218778
 30
0.0
 40
2.50000005960464
  1
ENG
 50
359.999999948034
 41
1.09999991695086
 72
     1
 11
257.511576354504
 21
-35.4100627953826
 31
0.0
 73
     2
  0
TEXT
  5
   7D7
  8
0
  6
CONTINUOUS
 62
     2
 10
253.844909883405
 20
-60.5936413130887
 30
0.0
 40
2.50000005960464
  1
1/1
 50
359.999999948034
 41
1.09999991695086
 72
     1
 11
257.511576354504
 21
-59.3436412865935
 31
0.0
 73
     2
  0
TEXT
  5
   7D8
  8
0
  6
CONTINUOUS
 62
     2
 10
253.844909883405
 20
-52.1268444380887
 30
0.0
 40
2.50000005960464
  1
1:1
 50
359.999999948034
 41
1.09999991695086
 72
     1
 11
257.511576354504
 21
-50.8768444115935
 31
0.0
 73
     2
  0
TEXT
  5
   7D9
  8
0
  6
CONTINUOUS
 62
     2
 10
253.844909883405
 20
-42.6600628218778
 30
0.0
 40
2.50000005960464
  1
ITA
 50
359.999999948034
 41
1.09999991695086
 72
     1
 11
257.511576354504
 21
-41.4100627953826
 31
0.0
 73
     2
  0
TEXT
  5
   7DA
  8
0
  6
CONTINUOUS
 62
     2
 10
93.3185119617632
 20
-35.0194682023272
 30
0.0
 40
2.50000005960464
  1
BARCELLA
 50
359.999999948034
 41
1.09799996061325
 11
93.3185119628906
 21
-33.7694681725249
 31
0.0
 73
     2
  0
TEXT
  5
   7DB
  8
0
  6
CONTINUOUS
 62
     2
 10
93.3185119617632
 20
-31.0194682020813
 30
0.0
 40
2.50000005960464
  1
94-05-16
 50
359.999999948034
 41
1.09999991695086
 11
93.3185119628906
 21
-29.769468172279
 31
0.0
 73
     2
  0
TEXT
  5
   7DC
  8
0
  6
CONTINUOUS
 62
     2
 10
193.965242072401
 20
-59.2883052410494
 30
0.0
 40
4.49999994039536
  1
601812/661
 50
359.999999948034
 41
1.09999994414824
 72
     1
 11
217.890240550041
 21
-57.0383052924308
 31
0.0
 73
     2
  0
TEXT
  5
   7DD
  8
0
  6
CONTINUOUS
 62
     1
 10
204.074645124962
 20
-31.3231487613494
 30
0.0
 40
2.00000008940697
  1
INTERLOCK APPLICATION BETWEEN
 50
359.999999948034
 41
0.625
 72
     1
 11
222.074645930527
 21
-30.3231487328809
 31
0.0
 73
     2
  0
TEXT
  5
   7DE
  8
0
  6
CONTINUOUS
 62
     1
 10
200.324645088458
 20
-34.3231487579671
 30
0.0
 40
2.00000008940697
  1
 TWO DOWNSTREAM MCCBS ISOMAX SERIES
 50
359.999999948034
 41
0.625
 72
     1
 11
222.074646061661
 21
-33.3231487328809
 31
0.0
 73
     2
  0
TEXT
  5
   7DF
  8
0
  6
CONTINUOUS
 62
     1
 10
204.152037731027
 20
-39.3934154855459
 30
0.0
 40
2.00000008940697
  1
APPLICAZIONE INTERBLOCCO TRA
 50
359.999999948034
 41
0.625
 72
     1
 11
221.527038508652
 21
-38.3934154565137
 31
0.0
 73
     2
  0
TEXT
  5
   7E0
  8
0
  6
CONTINUOUS
 62
     1
 10
196.027037498945
 20
-42.3934154782176
 30
0.0
 40
2.00000008940697
  1
DUE INTERRUTTORI SOVRAPPOSTI SERIE ISOMAX
 50
359.999999948034
 41
0.625
 72
     1
 11
221.527038639786
 21
-41.3934154565137
 31
0.0
 73
     2
  0
INSERT
  5
   7E1
  8
0
  6
CONTINUOUS
 62
     7
  2
*UDIM341
 10
0.0
 20
0.0
 30
0.0
  0
TEXT
  5
   7E2
  8
0
  6
CONTINUOUS
 62
     7
 10
126.812229244548
 20
-9.68771936228114
 30
0.0
 40
3.00000002980232
  1
Y
 50
359.999999948034
 41
0.916666604744064
 72
     1
 11
127.912229180336
 21
-8.18771934837212
 31
0.0
 73
     2
  0
TEXT
  5
   7E3
  8
0
  6
CONTINUOUS
 62
     7
 10
172.748558053357
 20
85.740465569131
 30
0.0
 40
3.00000002980232
  1
=   =
 50
89.9999999480344
 41
0.916666604744064
 72
     1
 11
171.248558044434
 21
92.3404651880264
 31
0.0
 73
     2
  0
TEXT
  5
   7E4
  8
0
  6
CONTINUOUS
 62
     7
 10
121.991337148237
 20
200.539155961915
 30
0.0
 40
3.00000002980232
  1
=  =
 50
359.999999948034
 41
0.916666604744064
 72
     1
 11
127.216336846352
 21
202.039155972104
 31
0.0
 73
     2
  0
TEXT
  5
   7E5
  8
0
  6
CONTINUOUS
 62
     7
 10
126.077034084636
 20
210.578981397648
 30
0.0
 40
3.00000002980232
  1
Y
 50
359.999999948034
 41
0.916666604744064
 72
     1
 11
127.177034020424
 21
212.078981411557
 31
0.0
 73
     2
  0
INSERT
  5
   7E6
  8
0
  6
CONTINUOUS
 62
     7
  2
*UDIM342
 10
0.0
 20
0.0
 30
0.0
  0
TEXT
  5
   7E7
  8
0
  6
CONTINUOUS
 62
     7
 10
174.26560219987
 20
90.9527988414954
 30
0.0
 40
3.00000002980232
  1
X
 50
359.999999948034
 41
0.916666604744064
 72
     1
 11
175.365602135658
 21
92.4527988554044
 31
0.0
 73
     2
  0
ENDSEC
  0
EOF
