  0
SECTION
  2
HEADER
  9
$ACADVER
  1
AC1009
999
I-DEAS Drafting Master Series 7m3 Not Encoded
  9
$EXTMIN
 10
0.0
 20
0.0
  9
$EXTMAX
 10
3.66E+002
 20
2.4405E+002
  9
$TEXTSIZE
 40
1.25E-001
  9
$LTSCALE
 40
1.0
  9
$CLAYER
  8
V1L0
  9
$CECOLOR
 62
2
  9
$DIMASZ
 40
1.25E-001
  9
$DIMEXO
 40
6.25E-002
  9
$DIMDLI
 40
2.5E-001
  9
$DIMEXE
 40
1.25E-001
  9
$DIMTP
 40
5.0E-003
  9
$DIMTM
 40
-5.0E-003
  9
$DIMTXT
 40
3.0
  9
$DIMLIM
 70
0
  9
$DIMTIH
 70
1
  9
$DIMTOH
 70
1
  9
$DIMSE1
 70
0
  9
$DIMSE2
 70
0
  9
$DIMTAD
 70
0
  9
$DIMASO
 70
1
  9
$DIMALT
 70
0
  9
$DIMALTD
 70
0
  9
$DIMTOFL
 70
1
  9
$DIMTIX
 70
0
  9
$DIMSAH
 70
0
  9
$DIMTFAC
 40
1.0
  9
$DIMGAP
 40
6.25E-002
  9
$LUNITS
 70
2
  9
$LUPREC
 70
3
  9
$FILLETRAD
 40
1.0E+001
  9
$AUNITS
 70
0
  9
$AUPREC
 70
1
  9
$CHAMFERA
 40
6.0
  9
$CHAMFERB
 40
6.0
  9
$ANGBASE
 50
0.0
  9
$ANGDIR
 70
0
  9
$PDMODE
 70
2
  9
$PDSIZE
 40
-1.0E-002
  9
$SPLINETYPE
 70
6
  0
ENDSEC
  0
SECTION
  2
TABLES
  0
TABLE
  2
LTYPE
 70
8
  0
LTYPE
  2
HIDDENNEW00
  3
_ 
 70
64
 72
65
 73
2
 40
4.5
 49
3.0
 49
-1.5
  0
LTYPE
  2
HIDDENNEW01
  3
_ 
 70
64
 72
65
 73
2
 40
4.5
 49
3.0
 49
-1.5
  0
LTYPE
  2
HIDDEN
  3
_ 
 70
64
 72
65
 73
2
 40
4.5
 49
3.0
 49
-1.5
  0
LTYPE
  2
CENTERLINE
  3
_ 
 70
64
 72
65
 73
4
 40
3.0E+001
 49
2.4E+001
 49
-1.5
 49
3.0
 49
-1.5
  0
LTYPE
  2
PHANTOM
  3
_ 
 70
64
 72
65
 73
6
 40
2.95E+001
 49
1.9E+001
 49
-1.5
 49
3.0
 49
-1.5
 49
3.0
 49
-1.5
  0
LTYPE
  2
SHORT_DASH
  3
_ 
 70
64
 72
65
 73
2
 40
3.0
 49
1.5
 49
-1.5
  0
LTYPE
  2
LONG_DASH
  3
_ 
 70
64
 72
65
 73
2
 40
9.0
 49
4.5
 49
-4.5
  0
LTYPE
  2
DASHED
  3
_ 
 70
64
 72
65
 73
2
 40
1.375
 49
1.125
 49
-2.5E-001
  0
ENDTAB
  0
TABLE
  2
LAYER
 70
258
  0
LAYER
  2
V1L0
 70
0
 62
7
  6
HIDDENNEW00
  0
LAYER
  2
Drafting_Hidden_Entities
 70
1
 62
7
  6
CONTINUOUS
  0
ENDTAB
  0
TABLE
  2
STYLE
 70
1
  0
STYLE
  2
STANDARD
 70
64
 40
0.0
 41
1.0
 50
0.0
 71
0
 42
1.0
  3
monotxt.shx
  4

  0
ENDTAB
  0
TABLE
  2
VIEW
 70
0
  0
ENDTAB
  0
TABLE
  2
DIMSTYLE
 70
0
  0
ENDTAB
  0
ENDSEC
  0
SECTION
  2
BLOCKS
  0
ENDSEC
  0
SECTION
  2
ENTITIES
  0
LINE
  8
V1L0
  6
CONTINUOUS
 62
40
 10
1.82E+002
 20
9.5E+001
 11
1.84E+002
 21
9.5E+001
  0
LINE
  8
V1L0
  6
CONTINUOUS
 62
40
 10
1.84E+002
 20
1.0
 11
1.84E+002
 21
9.5E+001
  0
LINE
  8
V1L0
  6
CONTINUOUS
 62
40
 10
1.82E+002
 20
7.35E+001
 11
1.82E+002
 21
9.5E+001
  0
LINE
  8
V1L0
  6
CONTINUOUS
 62
40
 10
1.62E+002
 20
2.25E+001
 11
1.82E+002
 21
2.25E+001
  0
LINE
  8
V1L0
  6
CONTINUOUS
 62
40
 10
1.62E+002
 20
7.35E+001
 11
1.82E+002
 21
7.35E+001
  0
LINE
  8
V1L0
  6
CONTINUOUS
 62
40
 10
1.82E+002
 20
2.25E+001
 11
1.82E+002
 21
7.35E+001
  0
LINE
  8
V1L0
  6
CONTINUOUS
 62
40
 10
1.535E+002
 20
6.4E+001
 11
1.535E+002
 21
6.7E+001
  0
LINE
  8
V1L0
  6
CONTINUOUS
 62
40
 10
1.535E+002
 20
6.4E+001
 11
1.62E+002
 21
6.4E+001
  0
LINE
  8
V1L0
  6
CONTINUOUS
 62
40
 10
1.535E+002
 20
6.7E+001
 11
1.62E+002
 21
6.7E+001
  0
LINE
  8
V1L0
  6
CONTINUOUS
 62
40
 10
1.535E+002
 20
3.2E+001
 11
1.62E+002
 21
3.2E+001
  0
LINE
  8
V1L0
  6
CONTINUOUS
 62
40
 10
1.535E+002
 20
2.9E+001
 11
1.535E+002
 21
3.2E+001
  0
LINE
  8
V1L0
  6
CONTINUOUS
 62
40
 10
1.535E+002
 20
2.9E+001
 11
1.62E+002
 21
2.9E+001
  0
LINE
  8
V1L0
  6
CONTINUOUS
 62
40
 10
1.725E+002
 20
7.6E+001
 11
1.725E+002
 21
7.775E+001
  0
LINE
  8
V1L0
  6
CONTINUOUS
 62
40
 10
1.725E+002
 20
7.6E+001
 11
1.8E+002
 21
7.6E+001
  0
LINE
  8
V1L0
  6
CONTINUOUS
 62
40
 10
1.72E+002
 20
7.564E+001
 11
1.725E+002
 21
7.6E+001
  0
LINE
  8
V1L0
  6
CONTINUOUS
 62
40
 10
1.76E+002
 20
7.35E+001
 11
1.76E+002
 21
7.6E+001
  0
LINE
  8
V1L0
  6
CONTINUOUS
 62
40
 10
1.725E+002
 20
8.45E+001
 11
1.8E+002
 21
8.45E+001
  0
LINE
  8
V1L0
  6
CONTINUOUS
 62
40
 10
1.8E+002
 20
7.6E+001
 11
1.8E+002
 21
8.45E+001
  0
ARC
  8
V1L0
  6
CONTINUOUS
 62
40
 10
1.7625237E+002
 20
8.02484E+001
 40
3.5
 50
2.0179E+002
 51
5.1821E+002
  0
LINE
  8
V1L0
  6
CONTINUOUS
 62
40
 10
1.7392E+002
 20
7.764E+001
 11
1.7619E+002
 21
7.955E+001
  0
LINE
  8
V1L0
  6
CONTINUOUS
 62
40
 10
1.7327E+002
 20
7.841E+001
 11
1.7555E+002
 21
8.031E+001
  0
LINE
  8
V1L0
  6
CONTINUOUS
 62
40
 10
1.7426E+002
 20
8.184E+001
 11
1.7555E+002
 21
8.031E+001
  0
LINE
  8
V1L0
  6
CONTINUOUS
 62
40
 10
1.7503E+002
 20
8.249E+001
 11
1.7631E+002
 21
8.095E+001
  0
LINE
  8
V1L0
  6
CONTINUOUS
 62
40
 10
1.7747E+002
 20
7.801E+001
 11
1.7824E+002
 21
7.866E+001
  0
LINE
  8
V1L0
  6
CONTINUOUS
 62
40
 10
1.7426E+002
 20
8.184E+001
 11
1.7503E+002
 21
8.249E+001
  0
LINE
  8
V1L0
  6
CONTINUOUS
 62
40
 10
1.7631E+002
 20
8.095E+001
 11
1.7858E+002
 21
8.286E+001
  0
LINE
  8
V1L0
  6
CONTINUOUS
 62
40
 10
1.7695E+002
 20
8.019E+001
 11
1.7923E+002
 21
8.209E+001
  0
LINE
  8
V1L0
  6
CONTINUOUS
 62
40
 10
1.7619E+002
 20
7.955E+001
 11
1.7747E+002
 21
7.801E+001
  0
LINE
  8
V1L0
  6
CONTINUOUS
 62
40
 10
1.7695E+002
 20
8.019E+001
 11
1.7824E+002
 21
7.866E+001
  0
LINE
  8
V1L0
  6
CONTINUOUS
 62
40
 10
1.715E+002
 20
7.6E+001
 11
1.715E+002
 21
8.45E+001
  0
LINE
  8
V1L0
  6
CONTINUOUS
 62
40
 10
1.64E+002
 20
7.6E+001
 11
1.715E+002
 21
7.6E+001
  0
LINE
  8
V1L0
  6
CONTINUOUS
 62
40
 10
1.715E+002
 20
7.6E+001
 11
1.75E+002
 21
7.35E+001
  0
LINE
  8
V1L0
  6
CONTINUOUS
 62
40
 10
1.68E+002
 20
7.35E+001
 11
1.68E+002
 21
7.6E+001
  0
LINE
  8
V1L0
  6
CONTINUOUS
 62
40
 10
1.64E+002
 20
8.45E+001
 11
1.715E+002
 21
8.45E+001
  0
LINE
  8
V1L0
  6
CONTINUOUS
 62
40
 10
1.64E+002
 20
7.6E+001
 11
1.64E+002
 21
8.45E+001
  0
LINE
  8
V1L0
  6
CONTINUOUS
 62
40
 10
1.73E+002
 20
7.775E+001
 11
1.73E+002
 21
8.275E+001
  0
LINE
  8
V1L0
  6
CONTINUOUS
 62
40
 10
1.715E+002
 20
7.775E+001
 11
1.73E+002
 21
7.775E+001
  0
LINE
  8
V1L0
  6
CONTINUOUS
 62
40
 10
1.715E+002
 20
8.275E+001
 11
1.73E+002
 21
8.275E+001
  0
CIRCLE
  8
V1L0
  6
CONTINUOUS
 62
40
 10
1.6775237E+002
 20
8.02484E+001
 40
3.5
  0
LINE
  8
V1L0
  6
CONTINUOUS
 62
40
 10
1.6781E+002
 20
7.955E+001
 11
1.7008E+002
 21
7.764E+001
  0
LINE
  8
V1L0
  6
CONTINUOUS
 62
40
 10
1.6845E+002
 20
8.031E+001
 11
1.7073E+002
 21
7.841E+001
  0
LINE
  8
V1L0
  6
CONTINUOUS
 62
40
 10
1.6845E+002
 20
8.031E+001
 11
1.6974E+002
 21
8.184E+001
  0
LINE
  8
V1L0
  6
CONTINUOUS
 62
40
 10
1.6769E+002
 20
8.095E+001
 11
1.6897E+002
 21
8.249E+001
  0
LINE
  8
V1L0
  6
CONTINUOUS
 62
40
 10
1.6576E+002
 20
7.866E+001
 11
1.6653E+002
 21
7.801E+001
  0
LINE
  8
V1L0
  6
CONTINUOUS
 62
40
 10
1.6897E+002
 20
8.249E+001
 11
1.6974E+002
 21
8.184E+001
  0
LINE
  8
V1L0
  6
CONTINUOUS
 62
40
 10
1.6542E+002
 20
8.286E+001
 11
1.6769E+002
 21
8.095E+001
  0
LINE
  8
V1L0
  6
CONTINUOUS
 62
40
 10
1.6477E+002
 20
8.209E+001
 11
1.6705E+002
 21
8.019E+001
  0
LINE
  8
V1L0
  6
CONTINUOUS
 62
40
 10
1.6653E+002
 20
7.801E+001
 11
1.6781E+002
 21
7.955E+001
  0
LINE
  8
V1L0
  6
CONTINUOUS
 62
40
 10
1.6576E+002
 20
7.866E+001
 11
1.6705E+002
 21
8.019E+001
  0
LINE
  8
V1L0
  6
CONTINUOUS
 62
40
 10
1.725E+002
 20
8.275E+001
 11
1.725E+002
 21
8.45E+001
  0
LINE
  8
V1L0
  6
CONTINUOUS
 62
40
 10
1.715E+002
 20
1.825E+001
 11
1.715E+002
 21
2.0E+001
  0
LINE
  8
V1L0
  6
CONTINUOUS
 62
40
 10
1.64E+002
 20
2.0E+001
 11
1.715E+002
 21
2.0E+001
  0
LINE
  8
V1L0
  6
CONTINUOUS
 62
40
 10
1.715E+002
 20
2.0E+001
 11
1.72E+002
 21
2.036E+001
  0
LINE
  8
V1L0
  6
CONTINUOUS
 62
40
 10
1.68E+002
 20
2.0E+001
 11
1.68E+002
 21
2.25E+001
  0
LINE
  8
V1L0
  6
CONTINUOUS
 62
40
 10
1.64E+002
 20
1.15E+001
 11
1.715E+002
 21
1.15E+001
  0
LINE
  8
V1L0
  6
CONTINUOUS
 62
40
 10
1.64E+002
 20
1.15E+001
 11
1.64E+002
 21
2.0E+001
  0
ARC
  8
V1L0
  6
CONTINUOUS
 62
40
 10
1.6775237E+002
 20
1.57484E+001
 40
3.5
 50
2.179E+001
 51
3.3821E+002
  0
LINE
  8
V1L0
  6
CONTINUOUS
 62
40
 10
1.6781E+002
 20
1.645E+001
 11
1.7008E+002
 21
1.836E+001
  0
LINE
  8
V1L0
  6
CONTINUOUS
 62
40
 10
1.6845E+002
 20
1.569E+001
 11
1.7073E+002
 21
1.759E+001
  0
LINE
  8
V1L0
  6
CONTINUOUS
 62
40
 10
1.6845E+002
 20
1.569E+001
 11
1.6974E+002
 21
1.416E+001
  0
LINE
  8
V1L0
  6
CONTINUOUS
 62
40
 10
1.6769E+002
 20
1.505E+001
 11
1.6897E+002
 21
1.351E+001
  0
LINE
  8
V1L0
  6
CONTINUOUS
 62
40
 10
1.6576E+002
 20
1.734E+001
 11
1.6653E+002
 21
1.799E+001
  0
LINE
  8
V1L0
  6
CONTINUOUS
 62
40
 10
1.6897E+002
 20
1.351E+001
 11
1.6974E+002
 21
1.416E+001
  0
LINE
  8
V1L0
  6
CONTINUOUS
 62
40
 10
1.6542E+002
 20
1.314E+001
 11
1.6769E+002
 21
1.505E+001
  0
LINE
  8
V1L0
  6
CONTINUOUS
 62
40
 10
1.6477E+002
 20
1.391E+001
 11
1.6705E+002
 21
1.581E+001
  0
LINE
  8
V1L0
  6
CONTINUOUS
 62
40
 10
1.6653E+002
 20
1.799E+001
 11
1.6781E+002
 21
1.645E+001
  0
LINE
  8
V1L0
  6
CONTINUOUS
 62
40
 10
1.6576E+002
 20
1.734E+001
 11
1.6705E+002
 21
1.581E+001
  0
LINE
  8
V1L0
  6
CONTINUOUS
 62
40
 10
1.725E+002
 20
1.15E+001
 11
1.725E+002
 21
2.0E+001
  0
LINE
  8
V1L0
  6
CONTINUOUS
 62
40
 10
1.725E+002
 20
2.0E+001
 11
1.8E+002
 21
2.0E+001
  0
LINE
  8
V1L0
  6
CONTINUOUS
 62
40
 10
1.69E+002
 20
2.25E+001
 11
1.725E+002
 21
2.0E+001
  0
LINE
  8
V1L0
  6
CONTINUOUS
 62
40
 10
1.76E+002
 20
2.0E+001
 11
1.76E+002
 21
2.25E+001
  0
LINE
  8
V1L0
  6
CONTINUOUS
 62
40
 10
1.725E+002
 20
1.15E+001
 11
1.8E+002
 21
1.15E+001
  0
LINE
  8
V1L0
  6
CONTINUOUS
 62
40
 10
1.8E+002
 20
1.15E+001
 11
1.8E+002
 21
2.0E+001
  0
LINE
  8
V1L0
  6
CONTINUOUS
 62
40
 10
1.71E+002
 20
1.325E+001
 11
1.71E+002
 21
1.825E+001
  0
LINE
  8
V1L0
  6
CONTINUOUS
 62
40
 10
1.71E+002
 20
1.825E+001
 11
1.725E+002
 21
1.825E+001
  0
LINE
  8
V1L0
  6
CONTINUOUS
 62
40
 10
1.71E+002
 20
1.325E+001
 11
1.725E+002
 21
1.325E+001
  0
CIRCLE
  8
V1L0
  6
CONTINUOUS
 62
40
 10
1.7625237E+002
 20
1.57484E+001
 40
3.5
  0
LINE
  8
V1L0
  6
CONTINUOUS
 62
40
 10
1.7392E+002
 20
1.836E+001
 11
1.7619E+002
 21
1.645E+001
  0
LINE
  8
V1L0
  6
CONTINUOUS
 62
40
 10
1.7327E+002
 20
1.759E+001
 11
1.7555E+002
 21
1.569E+001
  0
LINE
  8
V1L0
  6
CONTINUOUS
 62
40
 10
1.7426E+002
 20
1.416E+001
 11
1.7555E+002
 21
1.569E+001
  0
LINE
  8
V1L0
  6
CONTINUOUS
 62
40
 10
1.7503E+002
 20
1.351E+001
 11
1.7631E+002
 21
1.505E+001
  0
LINE
  8
V1L0
  6
CONTINUOUS
 62
40
 10
1.7747E+002
 20
1.799E+001
 11
1.7824E+002
 21
1.734E+001
  0
LINE
  8
V1L0
  6
CONTINUOUS
 62
40
 10
1.7426E+002
 20
1.416E+001
 11
1.7503E+002
 21
1.351E+001
  0
LINE
  8
V1L0
  6
CONTINUOUS
 62
40
 10
1.7631E+002
 20
1.505E+001
 11
1.7858E+002
 21
1.314E+001
  0
LINE
  8
V1L0
  6
CONTINUOUS
 62
40
 10
1.7695E+002
 20
1.581E+001
 11
1.7923E+002
 21
1.391E+001
  0
LINE
  8
V1L0
  6
CONTINUOUS
 62
40
 10
1.7619E+002
 20
1.645E+001
 11
1.7747E+002
 21
1.799E+001
  0
LINE
  8
V1L0
  6
CONTINUOUS
 62
40
 10
1.7695E+002
 20
1.581E+001
 11
1.7824E+002
 21
1.734E+001
  0
LINE
  8
V1L0
  6
CONTINUOUS
 62
40
 10
1.715E+002
 20
1.15E+001
 11
1.715E+002
 21
1.325E+001
  0
LINE
  8
V1L0
  6
CONTINUOUS
 62
40
 10
8.35E+001
 20
2.25E+001
 11
8.35E+001
 21
7.35E+001
  0
LINE
  8
V1L0
  6
CONTINUOUS
 62
40
 10
1.085E+002
 20
4.8E+001
 11
1.085E+002
 21
8.023E+001
  0
LINE
  8
V1L0
  6
CONTINUOUS
 62
40
 10
8.35E+001
 20
7.35E+001
 11
1.085E+002
 21
7.35E+001
  0
LINE
  8
V1L0
  6
CONTINUOUS
 62
40
 10
8.35E+001
 20
2.25E+001
 11
1.085E+002
 21
2.25E+001
  0
LINE
  8
V1L0
  6
CONTINUOUS
 62
40
 10
1.0
 20
9.5E+001
 11
1.085E+002
 21
9.5E+001
  0
LINE
  8
V1L0
  6
CONTINUOUS
 62
40
 10
1.0
 20
1.0
 11
1.085E+002
 21
1.0
  0
LINE
  8
V1L0
  6
CONTINUOUS
 62
40
 10
1.085E+002
 20
1.0
 11
1.085E+002
 21
1.547E+001
  0
CIRCLE
  8
V1L0
  6
CONTINUOUS
 62
40
 10
9.6002371E+001
 20
3.04984E+001
 40
2.75
  0
LINE
  8
V1L0
  6
CONTINUOUS
 62
40
 10
9.388E+001
 20
3.225E+001
 11
9.736E+001
 21
2.811E+001
  0
LINE
  8
V1L0
  6
CONTINUOUS
 62
40
 10
9.465E+001
 20
3.289E+001
 11
9.812E+001
 21
2.875E+001
  0
CIRCLE
  8
V1L0
  6
CONTINUOUS
 62
40
 10
9.6002371E+001
 20
6.54984E+001
 40
2.75
  0
LINE
  8
V1L0
  6
CONTINUOUS
 62
40
 10
9.465E+001
 20
6.789E+001
 11
9.812E+001
 21
6.375E+001
  0
LINE
  8
V1L0
  6
CONTINUOUS
 62
40
 10
9.388E+001
 20
6.725E+001
 11
9.736E+001
 21
6.311E+001
  0
LINE
  8
V1L0
  6
CONTINUOUS
 62
40
 10
1.02E+002
 20
7.35E+001
 11
1.0295E+002
 21
7.696E+001
  0
LINE
  8
V1L0
  6
CONTINUOUS
 62
40
 10
1.05E+002
 20
8.45E+001
 11
1.0645E+002
 21
8.411E+001
  0
LINE
  8
V1L0
  6
CONTINUOUS
 62
40
 10
1.0356E+002
 20
7.35E+001
 11
1.0645E+002
 21
8.411E+001
  0
LINE
  8
V1L0
  6
CONTINUOUS
 62
40
 10
9.979E+001
 20
7.679E+001
 11
1.0211E+002
 21
8.529E+001
  0
LINE
  8
V1L0
  6
CONTINUOUS
 62
40
 10
9.772E+001
 20
7.868E+001
 11
9.936E+001
 21
8.471E+001
  0
LINE
  8
V1L0
  6
CONTINUOUS
 62
40
 10
9.979E+001
 20
7.679E+001
 11
1.024E+002
 21
7.608E+001
  0
LINE
  8
V1L0
  6
CONTINUOUS
 62
40
 10
9.998E+001
 20
8.507E+001
 11
1.019E+002
 21
8.454E+001
  0
LINE
  8
V1L0
  6
CONTINUOUS
 62
40
 10
9.807E+001
 20
7.807E+001
 11
1.0E+002
 21
7.754E+001
  0
ARC
  8
V1L0
  6
CONTINUOUS
 62
40
 10
9.9842371E+001
 20
8.45784E+001
 40
5.0E-001
 50
7.474E+001
 51
1.6474E+002
  0
ARC
  8
V1L0
  6
CONTINUOUS
 62
40
 10
9.8202371E+001
 20
7.85484E+001
 40
5.0E-001
 50
1.6474E+002
 51
2.5474E+002
  0
LINE
  8
V1L0
  6
CONTINUOUS
 62
40
 10
1.0471E+002
 20
8.458E+001
 11
1.0474E+002
 21
8.354E+001
  0
LINE
  8
V1L0
  6
CONTINUOUS
 62
40
 10
1.0211E+002
 20
8.529E+001
 11
1.0471E+002
 21
8.458E+001
  0
LINE
  8
V1L0
  6
CONTINUOUS
 62
40
 10
1.024E+002
 20
7.608E+001
 11
1.0295E+002
 21
7.696E+001
  0
LINE
  8
V1L0
  6
CONTINUOUS
 62
40
 10
1.0295E+002
 20
7.696E+001
 11
1.05E+002
 21
8.45E+001
  0
LINE
  8
V1L0
  6
CONTINUOUS
 62
40
 10
1.049E+002
 20
7.841E+001
 11
1.0779E+002
 21
7.762E+001
  0
LINE
  8
V1L0
  6
CONTINUOUS
 62
40
 10
1.0569E+002
 20
8.13E+001
 11
1.0858E+002
 21
8.051E+001
  0
LINE
  8
V1L0
  6
CONTINUOUS
 62
40
 10
1.0779E+002
 20
7.762E+001
 11
1.0858E+002
 21
8.051E+001
  0
LINE
  8
V1L0
  6
CONTINUOUS
 62
40
 10
8.844E+001
 20
7.35E+001
 11
8.939E+001
 21
7.696E+001
  0
LINE
  8
V1L0
  6
CONTINUOUS
 62
40
 10
9.144E+001
 20
8.45E+001
 11
9.289E+001
 21
8.411E+001
  0
LINE
  8
V1L0
  6
CONTINUOUS
 62
40
 10
9.0E+001
 20
7.35E+001
 11
9.289E+001
 21
8.411E+001
  0
LINE
  8
V1L0
  6
CONTINUOUS
 62
40
 10
8.623E+001
 20
7.679E+001
 11
8.855E+001
 21
8.529E+001
  0
LINE
  8
V1L0
  6
CONTINUOUS
 62
40
 10
8.416E+001
 20
7.868E+001
 11
8.58E+001
 21
8.471E+001
  0
LINE
  8
V1L0
  6
CONTINUOUS
 62
40
 10
8.623E+001
 20
7.679E+001
 11
8.884E+001
 21
7.608E+001
  0
LINE
  8
V1L0
  6
CONTINUOUS
 62
40
 10
8.642E+001
 20
8.507E+001
 11
8.834E+001
 21
8.454E+001
  0
LINE
  8
V1L0
  6
CONTINUOUS
 62
40
 10
8.451E+001
 20
7.807E+001
 11
8.644E+001
 21
7.754E+001
  0
ARC
  8
V1L0
  6
CONTINUOUS
 62
40
 10
8.6282371E+001
 20
8.45784E+001
 40
5.0E-001
 50
7.474E+001
 51
1.6474E+002
  0
ARC
  8
V1L0
  6
CONTINUOUS
 62
40
 10
8.4642371E+001
 20
7.85484E+001
 40
5.0E-001
 50
1.6474E+002
 51
2.5474E+002
  0
LINE
  8
V1L0
  6
CONTINUOUS
 62
40
 10
9.115E+001
 20
8.458E+001
 11
9.118E+001
 21
8.354E+001
  0
LINE
  8
V1L0
  6
CONTINUOUS
 62
40
 10
8.855E+001
 20
8.529E+001
 11
9.115E+001
 21
8.458E+001
  0
LINE
  8
V1L0
  6
CONTINUOUS
 62
40
 10
8.884E+001
 20
7.608E+001
 11
8.939E+001
 21
7.696E+001
  0
LINE
  8
V1L0
  6
CONTINUOUS
 62
40
 10
8.939E+001
 20
7.696E+001
 11
8.963E+001
 21
7.784E+001
  0
LINE
  8
V1L0
  6
CONTINUOUS
 62
40
 10
8.721E+001
 20
7.85E+001
 11
8.853E+001
 21
8.332E+001
  0
LINE
  8
V1L0
  6
CONTINUOUS
 62
40
 10
8.721E+001
 20
7.85E+001
 11
9.107E+001
 21
7.744E+001
  0
LINE
  8
V1L0
  6
CONTINUOUS
 62
40
 10
8.853E+001
 20
8.332E+001
 11
9.239E+001
 21
8.227E+001
  0
LINE
  8
V1L0
  6
CONTINUOUS
 62
40
 10
9.134E+001
 20
7.841E+001
 11
9.423E+001
 21
7.762E+001
  0
LINE
  8
V1L0
  6
CONTINUOUS
 62
40
 10
9.213E+001
 20
8.13E+001
 11
9.502E+001
 21
8.051E+001
  0
LINE
  8
V1L0
  6
CONTINUOUS
 62
40
 10
9.423E+001
 20
7.762E+001
 11
9.502E+001
 21
8.051E+001
  0
LINE
  8
V1L0
  6
CONTINUOUS
 62
40
 10
9.094E+001
 20
8.266E+001
 11
9.144E+001
 21
8.45E+001
  0
LINE
  8
V1L0
  6
CONTINUOUS
 62
40
 10
1.02E+002
 20
2.25E+001
 11
1.0295E+002
 21
1.904E+001
  0
LINE
  8
V1L0
  6
CONTINUOUS
 62
40
 10
1.05E+002
 20
1.15E+001
 11
1.0645E+002
 21
1.189E+001
  0
LINE
  8
V1L0
  6
CONTINUOUS
 62
40
 10
1.0356E+002
 20
2.25E+001
 11
1.0645E+002
 21
1.189E+001
  0
LINE
  8
V1L0
  6
CONTINUOUS
 62
40
 10
9.979E+001
 20
1.921E+001
 11
1.0211E+002
 21
1.071E+001
  0
LINE
  8
V1L0
  6
CONTINUOUS
 62
40
 10
9.772E+001
 20
1.732E+001
 11
9.936E+001
 21
1.129E+001
  0
LINE
  8
V1L0
  6
CONTINUOUS
 62
40
 10
9.979E+001
 20
1.921E+001
 11
1.024E+002
 21
1.992E+001
  0
LINE
  8
V1L0
  6
CONTINUOUS
 62
40
 10
9.998E+001
 20
1.093E+001
 11
1.019E+002
 21
1.146E+001
  0
LINE
  8
V1L0
  6
CONTINUOUS
 62
40
 10
9.807E+001
 20
1.793E+001
 11
1.0E+002
 21
1.846E+001
  0
ARC
  8
V1L0
  6
CONTINUOUS
 62
40
 10
9.9842371E+001
 20
1.14184E+001
 40
5.0E-001
 50
1.9526E+002
 51
2.8526E+002
  0
ARC
  8
V1L0
  6
CONTINUOUS
 62
40
 10
9.8202371E+001
 20
1.74484E+001
 40
5.0E-001
 50
1.0526E+002
 51
1.9526E+002
  0
LINE
  8
V1L0
  6
CONTINUOUS
 62
40
 10
1.0471E+002
 20
1.142E+001
 11
1.0474E+002
 21
1.246E+001
  0
LINE
  8
V1L0
  6
CONTINUOUS
 62
40
 10
1.0211E+002
 20
1.071E+001
 11
1.0471E+002
 21
1.142E+001
  0
LINE
  8
V1L0
  6
CONTINUOUS
 62
40
 10
1.024E+002
 20
1.992E+001
 11
1.0295E+002
 21
1.904E+001
  0
LINE
  8
V1L0
  6
CONTINUOUS
 62
40
 10
1.045E+002
 20
1.334E+001
 11
1.05E+002
 21
1.15E+001
  0
LINE
  8
V1L0
  6
CONTINUOUS
 62
40
 10
1.049E+002
 20
1.759E+001
 11
1.0779E+002
 21
1.838E+001
  0
LINE
  8
V1L0
  6
CONTINUOUS
 62
40
 10
1.0569E+002
 20
1.47E+001
 11
1.0858E+002
 21
1.549E+001
  0
LINE
  8
V1L0
  6
CONTINUOUS
 62
40
 10
8.844E+001
 20
2.25E+001
 11
8.939E+001
 21
1.904E+001
  0
LINE
  8
V1L0
  6
CONTINUOUS
 62
40
 10
9.144E+001
 20
1.15E+001
 11
9.289E+001
 21
1.189E+001
  0
LINE
  8
V1L0
  6
CONTINUOUS
 62
40
 10
9.0E+001
 20
2.25E+001
 11
9.289E+001
 21
1.189E+001
  0
LINE
  8
V1L0
  6
CONTINUOUS
 62
40
 10
8.623E+001
 20
1.921E+001
 11
8.855E+001
 21
1.071E+001
  0
LINE
  8
V1L0
  6
CONTINUOUS
 62
40
 10
8.416E+001
 20
1.732E+001
 11
8.58E+001
 21
1.129E+001
  0
LINE
  8
V1L0
  6
CONTINUOUS
 62
40
 10
8.623E+001
 20
1.921E+001
 11
8.884E+001
 21
1.992E+001
  0
LINE
  8
V1L0
  6
CONTINUOUS
 62
40
 10
8.642E+001
 20
1.093E+001
 11
8.834E+001
 21
1.146E+001
  0
LINE
  8
V1L0
  6
CONTINUOUS
 62
40
 10
8.451E+001
 20
1.793E+001
 11
8.644E+001
 21
1.846E+001
  0
ARC
  8
V1L0
  6
CONTINUOUS
 62
40
 10
8.6282371E+001
 20
1.14184E+001
 40
5.0E-001
 50
1.9526E+002
 51
2.8526E+002
  0
ARC
  8
V1L0
  6
CONTINUOUS
 62
40
 10
8.4642371E+001
 20
1.74484E+001
 40
5.0E-001
 50
1.0526E+002
 51
1.9526E+002
  0
LINE
  8
V1L0
  6
CONTINUOUS
 62
40
 10
9.115E+001
 20
1.142E+001
 11
9.118E+001
 21
1.246E+001
  0
LINE
  8
V1L0
  6
CONTINUOUS
 62
40
 10
8.855E+001
 20
1.071E+001
 11
9.115E+001
 21
1.142E+001
  0
LINE
  8
V1L0
  6
CONTINUOUS
 62
40
 10
8.884E+001
 20
1.992E+001
 11
8.939E+001
 21
1.904E+001
  0
LINE
  8
V1L0
  6
CONTINUOUS
 62
40
 10
8.939E+001
 20
1.904E+001
 11
9.144E+001
 21
1.15E+001
  0
LINE
  8
V1L0
  6
CONTINUOUS
 62
40
 10
1.0077E+002
 20
1.75E+001
 11
1.0209E+002
 21
1.268E+001
  0
LINE
  8
V1L0
  6
CONTINUOUS
 62
40
 10
1.0077E+002
 20
1.75E+001
 11
1.0463E+002
 21
1.856E+001
  0
LINE
  8
V1L0
  6
CONTINUOUS
 62
40
 10
1.0209E+002
 20
1.268E+001
 11
1.0595E+002
 21
1.373E+001
  0
LINE
  8
V1L0
  6
CONTINUOUS
 62
40
 10
9.134E+001
 20
1.759E+001
 11
9.423E+001
 21
1.838E+001
  0
LINE
  8
V1L0
  6
CONTINUOUS
 62
40
 10
9.213E+001
 20
1.47E+001
 11
9.502E+001
 21
1.549E+001
  0
LINE
  8
V1L0
  6
CONTINUOUS
 62
40
 10
9.423E+001
 20
1.838E+001
 11
9.502E+001
 21
1.549E+001
  0
LINE
  8
V1L0
  6
CONTINUOUS
 62
40
 10
1.0779E+002
 20
1.838E+001
 11
1.0858E+002
 21
1.549E+001
  0
LINE
  8
V1L0
  6
CONTINUOUS
 62
40
 10
1.0295E+002
 20
1.904E+001
 11
1.0319E+002
 21
1.816E+001
  0
LINE
  8
V1L0
  6
CONTINUOUS
 62
40
 10
2.04E+002
 20
1.3555E+002
 11
2.04E+002
 21
1.6055E+002
  0
LINE
  8
V1L0
  6
CONTINUOUS
 62
40
 10
1.84E+002
 20
1.3555E+002
 11
1.84E+002
 21
2.4305E+002
  0
LINE
  8
V1L0
  6
CONTINUOUS
 62
40
 10
1.84E+002
 20
1.6055E+002
 11
2.04E+002
 21
1.6055E+002
  0
LINE
  8
V1L0
  6
CONTINUOUS
 62
40
 10
1.82E+002
 20
1.3555E+002
 11
1.8882E+002
 21
1.3555E+002
  0
LINE
  8
V1L0
  6
CONTINUOUS
 62
40
 10
1.945E+002
 20
1.5261E+002
 11
1.945E+002
 21
1.5684E+002
  0
LINE
  8
V1L0
  6
CONTINUOUS
 62
40
 10
2.02E+002
 20
1.5117E+002
 11
2.02E+002
 21
1.5663E+002
  0
LINE
  8
V1L0
  6
CONTINUOUS
 62
40
 10
1.93E+002
 20
1.5117E+002
 11
1.93E+002
 21
1.5684E+002
  0
LINE
  8
V1L0
  6
CONTINUOUS
 62
40
 10
1.93E+002
 20
1.5117E+002
 11
2.02E+002
 21
1.5117E+002
  0
LINE
  8
V1L0
  6
CONTINUOUS
 62
40
 10
1.945E+002
 20
1.5261E+002
 11
2.02E+002
 21
1.5261E+002
  0
LINE
  8
V1L0
  6
CONTINUOUS
 62
40
 10
1.93E+002
 20
1.5553E+002
 11
1.945E+002
 21
1.5553E+002
  0
LINE
  8
V1L0
  6
CONTINUOUS
 62
40
 10
1.93E+002
 20
1.5684E+002
 11
1.945E+002
 21
1.5684E+002
  0
LINE
  8
V1L0
  6
CONTINUOUS
 62
40
 10
1.993E+002
 20
1.5362E+002
 11
2.0151E+002
 21
1.528E+002
  0
LINE
  8
V1L0
  6
CONTINUOUS
 62
40
 10
1.9499E+002
 20
1.528E+002
 11
1.972E+002
 21
1.5362E+002
  0
ARC
  8
V1L0
  6
CONTINUOUS
 62
40
 10
1.9825237E+002
 20
1.508084E+002
 40
3.0
 50
6.96E+001
 51
1.104E+002
  0
ARC
  8
V1L0
  6
CONTINUOUS
 62
40
 10
1.9825237E+002
 20
1.523084E+002
 40
3.0
 50
6.96E+001
 51
1.104E+002
  0
LINE
  8
V1L0
  6
CONTINUOUS
 62
40
 10
1.993E+002
 20
1.5512E+002
 11
2.02E+002
 21
1.5411E+002
  0
LINE
  8
V1L0
  6
CONTINUOUS
 62
40
 10
1.945E+002
 20
1.5411E+002
 11
1.972E+002
 21
1.5512E+002
  0
LINE
  8
V1L0
  6
CONTINUOUS
 62
40
 10
2.0166E+002
 20
1.5676E+002
 11
2.02E+002
 21
1.5663E+002
  0
LINE
  8
V1L0
  6
CONTINUOUS
 62
40
 10
1.945E+002
 20
1.5663E+002
 11
1.9484E+002
 21
1.5676E+002
  0
LINE
  8
V1L0
  6
CONTINUOUS
 62
40
 10
2.0151E+002
 20
1.528E+002
 11
2.02E+002
 21
1.5411E+002
  0
LINE
  8
V1L0
  6
CONTINUOUS
 62
40
 10
1.945E+002
 20
1.5411E+002
 11
1.9499E+002
 21
1.528E+002
  0
LINE
  8
V1L0
  6
CONTINUOUS
 62
40
 10
2.0141E+002
 20
1.5908E+002
 11
2.0166E+002
 21
1.5676E+002
  0
LINE
  8
V1L0
  6
CONTINUOUS
 62
40
 10
1.9484E+002
 20
1.5676E+002
 11
1.9509E+002
 21
1.5908E+002
  0
LINE
  8
V1L0
  6
CONTINUOUS
 62
40
 10
1.9841E+002
 20
1.5853E+002
 11
1.9882E+002
 21
1.5894E+002
  0
LINE
  8
V1L0
  6
CONTINUOUS
 62
40
 10
1.9704E+002
 20
1.5857E+002
 11
1.974E+002
 21
1.5894E+002
  0
LINE
  8
V1L0
  6
CONTINUOUS
 62
40
 10
1.9704E+002
 20
1.5811E+002
 11
1.9704E+002
 21
1.5857E+002
  0
LINE
  8
V1L0
  6
CONTINUOUS
 62
40
 10
1.9841E+002
 20
1.5806E+002
 11
1.9841E+002
 21
1.5853E+002
  0
LINE
  8
V1L0
  6
CONTINUOUS
 62
40
 10
1.9809E+002
 20
1.5916E+002
 11
1.9809E+002
 21
1.5963E+002
  0
LINE
  8
V1L0
  6
CONTINUOUS
 62
40
 10
1.9704E+002
 20
1.5811E+002
 11
1.9809E+002
 21
1.5916E+002
  0
LINE
  8
V1L0
  6
CONTINUOUS
 62
40
 10
1.9625E+002
 20
1.592E+002
 11
1.9766E+002
 21
1.592E+002
  0
LINE
  8
V1L0
  6
CONTINUOUS
 62
40
 10
2.0023E+002
 20
1.5894E+002
 11
2.0049E+002
 21
1.592E+002
  0
LINE
  8
V1L0
  6
CONTINUOUS
 62
40
 10
1.9599E+002
 20
1.5894E+002
 11
1.9625E+002
 21
1.592E+002
  0
LINE
  8
V1L0
  6
CONTINUOUS
 62
40
 10
1.9599E+002
 20
1.5894E+002
 11
1.974E+002
 21
1.5894E+002
  0
LINE
  8
V1L0
  6
CONTINUOUS
 62
40
 10
1.974E+002
 20
1.5847E+002
 11
1.974E+002
 21
1.5894E+002
  0
LINE
  8
V1L0
  6
CONTINUOUS
 62
40
 10
1.9766E+002
 20
1.5873E+002
 11
1.9766E+002
 21
1.592E+002
  0
LINE
  8
V1L0
  6
CONTINUOUS
 62
40
 10
1.9882E+002
 20
1.5894E+002
 11
2.0023E+002
 21
1.5894E+002
  0
LINE
  8
V1L0
  6
CONTINUOUS
 62
40
 10
1.9908E+002
 20
1.592E+002
 11
2.0049E+002
 21
1.592E+002
  0
LINE
  8
V1L0
  6
CONTINUOUS
 62
40
 10
1.9766E+002
 20
1.592E+002
 11
1.9809E+002
 21
1.5963E+002
  0
LINE
  8
V1L0
  6
CONTINUOUS
 62
40
 10
1.9908E+002
 20
1.592E+002
 11
1.9946E+002
 21
1.5959E+002
  0
LINE
  8
V1L0
  6
CONTINUOUS
 62
40
 10
1.974E+002
 20
1.5873E+002
 11
1.9766E+002
 21
1.5873E+002
  0
LINE
  8
V1L0
  6
CONTINUOUS
 62
40
 10
1.9908E+002
 20
1.5894E+002
 11
1.9908E+002
 21
1.592E+002
  0
LINE
  8
V1L0
  6
CONTINUOUS
 62
40
 10
1.8625E+002
 20
1.3761E+002
 11
1.9325E+002
 21
1.3761E+002
  0
LINE
  8
V1L0
  6
CONTINUOUS
 62
40
 10
1.935E+002
 20
1.3905E+002
 11
1.935E+002
 21
1.4328E+002
  0
LINE
  8
V1L0
  6
CONTINUOUS
 62
40
 10
1.86E+002
 20
1.3761E+002
 11
1.86E+002
 21
1.4307E+002
  0
LINE
  8
V1L0
  6
CONTINUOUS
 62
40
 10
1.95E+002
 20
1.3761E+002
 11
1.95E+002
 21
1.4328E+002
  0
LINE
  8
V1L0
  6
CONTINUOUS
 62
40
 10
1.86E+002
 20
1.3761E+002
 11
1.95E+002
 21
1.3761E+002
  0
LINE
  8
V1L0
  6
CONTINUOUS
 62
40
 10
1.86E+002
 20
1.3905E+002
 11
1.935E+002
 21
1.3905E+002
  0
LINE
  8
V1L0
  6
CONTINUOUS
 62
40
 10
1.935E+002
 20
1.4197E+002
 11
1.95E+002
 21
1.4197E+002
  0
LINE
  8
V1L0
  6
CONTINUOUS
 62
40
 10
1.935E+002
 20
1.4328E+002
 11
1.95E+002
 21
1.4328E+002
  0
LINE
  8
V1L0
  6
CONTINUOUS
 62
40
 10
1.8649E+002
 20
1.3924E+002
 11
1.887E+002
 21
1.4006E+002
  0
LINE
  8
V1L0
  6
CONTINUOUS
 62
40
 10
1.908E+002
 20
1.4006E+002
 11
1.9301E+002
 21
1.3924E+002
  0
ARC
  8
V1L0
  6
CONTINUOUS
 62
40
 10
1.8975237E+002
 20
1.372484E+002
 40
3.0
 50
6.96E+001
 51
1.104E+002
  0
ARC
  8
V1L0
  6
CONTINUOUS
 62
40
 10
1.8975237E+002
 20
1.387484E+002
 40
3.0
 50
6.96E+001
 51
1.104E+002
  0
LINE
  8
V1L0
  6
CONTINUOUS
 62
40
 10
1.86E+002
 20
1.4055E+002
 11
1.887E+002
 21
1.4156E+002
  0
LINE
  8
V1L0
  6
CONTINUOUS
 62
40
 10
1.908E+002
 20
1.4156E+002
 11
1.935E+002
 21
1.4055E+002
  0
LINE
  8
V1L0
  6
CONTINUOUS
 62
40
 10
1.86E+002
 20
1.4307E+002
 11
1.8634E+002
 21
1.432E+002
  0
LINE
  8
V1L0
  6
CONTINUOUS
 62
40
 10
1.9316E+002
 20
1.432E+002
 11
1.935E+002
 21
1.4307E+002
  0
LINE
  8
V1L0
  6
CONTINUOUS
 62
40
 10
1.86E+002
 20
1.4055E+002
 11
1.8649E+002
 21
1.3924E+002
  0
LINE
  8
V1L0
  6
CONTINUOUS
 62
40
 10
1.9301E+002
 20
1.3924E+002
 11
1.935E+002
 21
1.4055E+002
  0
LINE
  8
V1L0
  6
CONTINUOUS
 62
40
 10
1.8634E+002
 20
1.432E+002
 11
1.8659E+002
 21
1.4552E+002
  0
LINE
  8
V1L0
  6
CONTINUOUS
 62
40
 10
1.9291E+002
 20
1.4552E+002
 11
1.9316E+002
 21
1.432E+002
  0
LINE
  8
V1L0
  6
CONTINUOUS
 62
40
 10
1.8918E+002
 20
1.4538E+002
 11
1.8959E+002
 21
1.4497E+002
  0
LINE
  8
V1L0
  6
CONTINUOUS
 62
40
 10
1.906E+002
 20
1.4538E+002
 11
1.9096E+002
 21
1.4501E+002
  0
LINE
  8
V1L0
  6
CONTINUOUS
 62
40
 10
1.9096E+002
 20
1.4455E+002
 11
1.9096E+002
 21
1.4501E+002
  0
LINE
  8
V1L0
  6
CONTINUOUS
 62
40
 10
1.8959E+002
 20
1.445E+002
 11
1.8959E+002
 21
1.4497E+002
  0
LINE
  8
V1L0
  6
CONTINUOUS
 62
40
 10
1.8991E+002
 20
1.456E+002
 11
1.8991E+002
 21
1.4607E+002
  0
LINE
  8
V1L0
  6
CONTINUOUS
 62
40
 10
1.8991E+002
 20
1.456E+002
 11
1.9096E+002
 21
1.4455E+002
  0
LINE
  8
V1L0
  6
CONTINUOUS
 62
40
 10
1.9034E+002
 20
1.4564E+002
 11
1.9175E+002
 21
1.4564E+002
  0
LINE
  8
V1L0
  6
CONTINUOUS
 62
40
 10
1.8751E+002
 20
1.4564E+002
 11
1.8777E+002
 21
1.4538E+002
  0
LINE
  8
V1L0
  6
CONTINUOUS
 62
40
 10
1.9175E+002
 20
1.4564E+002
 11
1.9201E+002
 21
1.4538E+002
  0
LINE
  8
V1L0
  6
CONTINUOUS
 62
40
 10
1.906E+002
 20
1.4538E+002
 11
1.9201E+002
 21
1.4538E+002
  0
LINE
  8
V1L0
  6
CONTINUOUS
 62
40
 10
1.906E+002
 20
1.4491E+002
 11
1.906E+002
 21
1.4538E+002
  0
LINE
  8
V1L0
  6
CONTINUOUS
 62
40
 10
1.9034E+002
 20
1.4517E+002
 11
1.9034E+002
 21
1.4564E+002
  0
LINE
  8
V1L0
  6
CONTINUOUS
 62
40
 10
1.8777E+002
 20
1.4538E+002
 11
1.8918E+002
 21
1.4538E+002
  0
LINE
  8
V1L0
  6
CONTINUOUS
 62
40
 10
1.8751E+002
 20
1.4564E+002
 11
1.8892E+002
 21
1.4564E+002
  0
LINE
  8
V1L0
  6
CONTINUOUS
 62
40
 10
1.8991E+002
 20
1.4607E+002
 11
1.9034E+002
 21
1.4564E+002
  0
LINE
  8
V1L0
  6
CONTINUOUS
 62
40
 10
1.8854E+002
 20
1.4603E+002
 11
1.8892E+002
 21
1.4564E+002
  0
LINE
  8
V1L0
  6
CONTINUOUS
 62
40
 10
1.9034E+002
 20
1.4517E+002
 11
1.906E+002
 21
1.4517E+002
  0
LINE
  8
V1L0
  6
CONTINUOUS
 62
40
 10
1.8892E+002
 20
1.4538E+002
 11
1.8892E+002
 21
1.4564E+002
  0
LINE
  8
V1L0
  6
CONTINUOUS
 62
40
 10
1.8825E+002
 20
1.3568E+002
 11
1.8825E+002
 21
1.3761E+002
  0
LINE
  8
V1L0
  6
CONTINUOUS
 62
40
 10
1.9125E+002
 20
1.3568E+002
 11
1.9125E+002
 21
1.3761E+002
  0
LINE
  8
V1L0
  6
CONTINUOUS
 62
40
 10
1.9068E+002
 20
1.3555E+002
 11
2.04E+002
 21
1.3555E+002
  0
LINE
  8
V1L0
  6
CONTINUOUS
 62
40
 10
1.9675E+002
 20
1.4924E+002
 11
1.9675E+002
 21
1.5117E+002
  0
LINE
  8
V1L0
  6
CONTINUOUS
 62
40
 10
1.9975E+002
 20
1.4924E+002
 11
1.9975E+002
 21
1.5117E+002
  0
LINE
  8
V1L0
  6
CONTINUOUS
 62
40
 10
1.535E+002
 20
1.468E+002
 11
1.62E+002
 21
1.468E+002
  0
LINE
  8
V1L0
  6
CONTINUOUS
 62
40
 10
1.535E+002
 20
1.493E+002
 11
1.62E+002
 21
1.493E+002
  0
CIRCLE
  8
V1L0
  6
CONTINUOUS
 62
40
 10
1.2400237E+002
 20
4.79984E+001
 40
1.5E+001
  0
CIRCLE
  8
V1L0
  6
LONG_DASH
 62
40
 10
1.3100237E+002
 20
4.79984E+001
 40
4.0
  0
TEXT
  8
V1L0
  6
CONTINUOUS
 62
40
 10
1.9593E+002
 20
2.91E+001
 40
4.0
  1
OESA ZX25
 50
9.0E+001
  0
LINE
  8
V1L0
  6
CONTINUOUS
 62
40
 10
1.665E+002
 20
1.0505E+002
 11
2.015E+002
 21
1.0505E+002
  0
LINE
  8
V1L0
  6
CONTINUOUS
 62
40
 10
1.665E+002
 20
1.0505E+002
 11
1.665E+002
 21
1.3505E+002
  0
LINE
  8
V1L0
  6
LONG_DASH
 62
40
 10
1.665E+002
 20
1.0905E+002
 11
1.765E+002
 21
1.0905E+002
  0
LINE
  8
V1L0
  6
LONG_DASH
 62
40
 10
1.665E+002
 20
1.1705E+002
 11
1.765E+002
 21
1.1705E+002
  0
LINE
  8
V1L0
  6
CONTINUOUS
 62
40
 10
1.685E+002
 20
1.0205E+002
 11
1.725E+002
 21
1.0205E+002
  0
LINE
  8
V1L0
  6
CONTINUOUS
 62
40
 10
1.735E+002
 20
1.0305E+002
 11
1.735E+002
 21
1.0505E+002
  0
LINE
  8
V1L0
  6
CONTINUOUS
 62
40
 10
1.675E+002
 20
1.0305E+002
 11
1.675E+002
 21
1.0505E+002
  0
ARC
  8
V1L0
  6
CONTINUOUS
 62
40
 10
1.6850237E+002
 20
1.030484E+002
 40
1.0
 50
1.8E+002
 51
2.7E+002
  0
ARC
  8
V1L0
  6
CONTINUOUS
 62
40
 10
1.7250237E+002
 20
1.030484E+002
 40
1.0
 50
2.7E+002
 51
3.6E+002
  0
LINE
  8
V1L0
  6
CONTINUOUS
 62
40
 10
1.387E+002
 20
4.5E+001
 11
1.41E+002
 21
4.5E+001
  0
LINE
  8
V1L0
  6
CONTINUOUS
 62
40
 10
1.387E+002
 20
5.1E+001
 11
1.41E+002
 21
5.1E+001
  0
LINE
  8
V1L0
  6
CONTINUOUS
 62
40
 10
1.42E+002
 20
4.6E+001
 11
1.42E+002
 21
5.0E+001
  0
ARC
  8
V1L0
  6
CONTINUOUS
 62
40
 10
1.4100237E+002
 20
4.99984E+001
 40
1.0
 50
0.0
 51
9.0E+001
  0
ARC
  8
V1L0
  6
CONTINUOUS
 62
40
 10
1.4100237E+002
 20
4.59984E+001
 40
1.0
 50
2.7E+002
 51
3.6E+002
  0
LINE
  8
V1L0
  6
CONTINUOUS
 62
40
 10
1.665E+002
 20
1.3505E+002
 11
2.015E+002
 21
1.3505E+002
  0
LINE
  8
V1L0
  6
CONTINUOUS
 62
40
 10
2.575E+002
 20
9.5E+001
 11
3.65E+002
 21
9.5E+001
  0
LINE
  8
V1L0
  6
CONTINUOUS
 62
40
 10
2.575E+002
 20
1.0
 11
3.65E+002
 21
1.0
  0
CIRCLE
  8
V1L0
  6
CONTINUOUS
 62
40
 10
2.4200237E+002
 20
4.79984E+001
 40
1.5E+001
  0
CIRCLE
  8
V1L0
  6
CONTINUOUS
 62
40
 10
2.3500237E+002
 20
4.79984E+001
 40
4.0
  0
LINE
  8
V1L0
  6
CONTINUOUS
 62
40
 10
2.25E+002
 20
4.5E+001
 11
2.273E+002
 21
4.5E+001
  0
LINE
  8
V1L0
  6
CONTINUOUS
 62
40
 10
2.25E+002
 20
5.1E+001
 11
2.273E+002
 21
5.1E+001
  0
LINE
  8
V1L0
  6
CONTINUOUS
 62
40
 10
2.24E+002
 20
4.6E+001
 11
2.24E+002
 21
5.0E+001
  0
ARC
  8
V1L0
  6
CONTINUOUS
 62
40
 10
2.2500237E+002
 20
4.99984E+001
 40
1.0
 50
9.0E+001
 51
1.8E+002
  0
ARC
  8
V1L0
  6
CONTINUOUS
 62
40
 10
2.2500237E+002
 20
4.59984E+001
 40
1.0
 50
1.8E+002
 51
2.7E+002
  0
CIRCLE
  8
V1L0
  6
CONTINUOUS
 62
40
 10
2.7000237E+002
 20
3.04984E+001
 40
1.5
  0
CIRCLE
  8
V1L0
  6
CONTINUOUS
 62
40
 10
2.7000237E+002
 20
6.54984E+001
 40
1.5
  0
LINE
  8
V1L0
  6
CONTINUOUS
 62
40
 10
5.6E+001
 20
2.25E+001
 11
5.6E+001
 21
7.35E+001
  0
LINE
  8
V1L0
  6
CONTINUOUS
 62
40
 10
5.6E+001
 20
7.35E+001
 11
8.1E+001
 21
7.35E+001
  0
LINE
  8
V1L0
  6
CONTINUOUS
 62
40
 10
5.6E+001
 20
2.25E+001
 11
8.1E+001
 21
2.25E+001
  0
CIRCLE
  8
V1L0
  6
CONTINUOUS
 62
40
 10
6.8502371E+001
 20
3.04984E+001
 40
2.75
  0
LINE
  8
V1L0
  6
CONTINUOUS
 62
40
 10
6.638E+001
 20
3.225E+001
 11
6.986E+001
 21
2.811E+001
  0
LINE
  8
V1L0
  6
CONTINUOUS
 62
40
 10
6.715E+001
 20
3.289E+001
 11
7.062E+001
 21
2.875E+001
  0
CIRCLE
  8
V1L0
  6
CONTINUOUS
 62
40
 10
6.8502371E+001
 20
6.54984E+001
 40
2.75
  0
LINE
  8
V1L0
  6
CONTINUOUS
 62
40
 10
6.715E+001
 20
6.789E+001
 11
7.062E+001
 21
6.375E+001
  0
LINE
  8
V1L0
  6
CONTINUOUS
 62
40
 10
6.638E+001
 20
6.725E+001
 11
6.986E+001
 21
6.311E+001
  0
LINE
  8
V1L0
  6
CONTINUOUS
 62
40
 10
7.45E+001
 20
7.35E+001
 11
7.545E+001
 21
7.696E+001
  0
LINE
  8
V1L0
  6
CONTINUOUS
 62
40
 10
7.75E+001
 20
8.45E+001
 11
7.895E+001
 21
8.411E+001
  0
LINE
  8
V1L0
  6
CONTINUOUS
 62
40
 10
7.606E+001
 20
7.35E+001
 11
7.895E+001
 21
8.411E+001
  0
LINE
  8
V1L0
  6
CONTINUOUS
 62
40
 10
7.229E+001
 20
7.679E+001
 11
7.461E+001
 21
8.529E+001
  0
LINE
  8
V1L0
  6
CONTINUOUS
 62
40
 10
7.022E+001
 20
7.868E+001
 11
7.186E+001
 21
8.471E+001
  0
LINE
  8
V1L0
  6
CONTINUOUS
 62
40
 10
7.229E+001
 20
7.679E+001
 11
7.49E+001
 21
7.608E+001
  0
LINE
  8
V1L0
  6
CONTINUOUS
 62
40
 10
7.248E+001
 20
8.507E+001
 11
7.44E+001
 21
8.454E+001
  0
LINE
  8
V1L0
  6
CONTINUOUS
 62
40
 10
7.057E+001
 20
7.807E+001
 11
7.25E+001
 21
7.754E+001
  0
ARC
  8
V1L0
  6
CONTINUOUS
 62
40
 10
7.2342371E+001
 20
8.45784E+001
 40
5.0E-001
 50
7.474E+001
 51
1.6474E+002
  0
ARC
  8
V1L0
  6
CONTINUOUS
 62
40
 10
7.0702371E+001
 20
7.85484E+001
 40
5.0E-001
 50
1.6474E+002
 51
2.5474E+002
  0
LINE
  8
V1L0
  6
CONTINUOUS
 62
40
 10
7.721E+001
 20
8.458E+001
 11
7.724E+001
 21
8.354E+001
  0
LINE
  8
V1L0
  6
CONTINUOUS
 62
40
 10
7.461E+001
 20
8.529E+001
 11
7.721E+001
 21
8.458E+001
  0
LINE
  8
V1L0
  6
CONTINUOUS
 62
40
 10
7.49E+001
 20
7.608E+001
 11
7.545E+001
 21
7.696E+001
  0
LINE
  8
V1L0
  6
CONTINUOUS
 62
40
 10
7.545E+001
 20
7.696E+001
 11
7.75E+001
 21
8.45E+001
  0
LINE
  8
V1L0
  6
CONTINUOUS
 62
40
 10
7.74E+001
 20
7.841E+001
 11
8.029E+001
 21
7.762E+001
  0
LINE
  8
V1L0
  6
CONTINUOUS
 62
40
 10
7.819E+001
 20
8.13E+001
 11
8.108E+001
 21
8.051E+001
  0
LINE
  8
V1L0
  6
CONTINUOUS
 62
40
 10
6.094E+001
 20
7.35E+001
 11
6.189E+001
 21
7.696E+001
  0
LINE
  8
V1L0
  6
CONTINUOUS
 62
40
 10
6.394E+001
 20
8.45E+001
 11
6.539E+001
 21
8.411E+001
  0
LINE
  8
V1L0
  6
CONTINUOUS
 62
40
 10
6.25E+001
 20
7.35E+001
 11
6.539E+001
 21
8.411E+001
  0
LINE
  8
V1L0
  6
CONTINUOUS
 62
40
 10
5.873E+001
 20
7.679E+001
 11
6.105E+001
 21
8.529E+001
  0
LINE
  8
V1L0
  6
CONTINUOUS
 62
40
 10
5.666E+001
 20
7.868E+001
 11
5.83E+001
 21
8.471E+001
  0
LINE
  8
V1L0
  6
CONTINUOUS
 62
40
 10
5.873E+001
 20
7.679E+001
 11
6.134E+001
 21
7.608E+001
  0
LINE
  8
V1L0
  6
CONTINUOUS
 62
40
 10
5.892E+001
 20
8.507E+001
 11
6.084E+001
 21
8.454E+001
  0
LINE
  8
V1L0
  6
CONTINUOUS
 62
40
 10
5.701E+001
 20
7.807E+001
 11
5.894E+001
 21
7.754E+001
  0
ARC
  8
V1L0
  6
CONTINUOUS
 62
40
 10
5.8782371E+001
 20
8.45784E+001
 40
5.0E-001
 50
7.474E+001
 51
1.6474E+002
  0
ARC
  8
V1L0
  6
CONTINUOUS
 62
40
 10
5.7142371E+001
 20
7.85484E+001
 40
5.0E-001
 50
1.6474E+002
 51
2.5474E+002
  0
LINE
  8
V1L0
  6
CONTINUOUS
 62
40
 10
6.365E+001
 20
8.458E+001
 11
6.368E+001
 21
8.354E+001
  0
LINE
  8
V1L0
  6
CONTINUOUS
 62
40
 10
6.105E+001
 20
8.529E+001
 11
6.365E+001
 21
8.458E+001
  0
LINE
  8
V1L0
  6
CONTINUOUS
 62
40
 10
6.134E+001
 20
7.608E+001
 11
6.189E+001
 21
7.696E+001
  0
LINE
  8
V1L0
  6
CONTINUOUS
 62
40
 10
6.189E+001
 20
7.696E+001
 11
6.213E+001
 21
7.784E+001
  0
LINE
  8
V1L0
  6
CONTINUOUS
 62
40
 10
5.971E+001
 20
7.85E+001
 11
6.103E+001
 21
8.332E+001
  0
LINE
  8
V1L0
  6
CONTINUOUS
 62
40
 10
5.971E+001
 20
7.85E+001
 11
6.357E+001
 21
7.744E+001
  0
LINE
  8
V1L0
  6
CONTINUOUS
 62
40
 10
6.103E+001
 20
8.332E+001
 11
6.489E+001
 21
8.227E+001
  0
LINE
  8
V1L0
  6
CONTINUOUS
 62
40
 10
6.384E+001
 20
7.841E+001
 11
6.673E+001
 21
7.762E+001
  0
LINE
  8
V1L0
  6
CONTINUOUS
 62
40
 10
6.463E+001
 20
8.13E+001
 11
6.752E+001
 21
8.051E+001
  0
LINE
  8
V1L0
  6
CONTINUOUS
 62
40
 10
6.673E+001
 20
7.762E+001
 11
6.752E+001
 21
8.051E+001
  0
LINE
  8
V1L0
  6
CONTINUOUS
 62
40
 10
6.344E+001
 20
8.266E+001
 11
6.394E+001
 21
8.45E+001
  0
LINE
  8
V1L0
  6
CONTINUOUS
 62
40
 10
7.45E+001
 20
2.25E+001
 11
7.545E+001
 21
1.904E+001
  0
LINE
  8
V1L0
  6
CONTINUOUS
 62
40
 10
7.75E+001
 20
1.15E+001
 11
7.895E+001
 21
1.189E+001
  0
LINE
  8
V1L0
  6
CONTINUOUS
 62
40
 10
7.606E+001
 20
2.25E+001
 11
7.895E+001
 21
1.189E+001
  0
LINE
  8
V1L0
  6
CONTINUOUS
 62
40
 10
7.229E+001
 20
1.921E+001
 11
7.461E+001
 21
1.071E+001
  0
LINE
  8
V1L0
  6
CONTINUOUS
 62
40
 10
7.022E+001
 20
1.732E+001
 11
7.186E+001
 21
1.129E+001
  0
LINE
  8
V1L0
  6
CONTINUOUS
 62
40
 10
7.229E+001
 20
1.921E+001
 11
7.49E+001
 21
1.992E+001
  0
LINE
  8
V1L0
  6
CONTINUOUS
 62
40
 10
7.248E+001
 20
1.093E+001
 11
7.44E+001
 21
1.146E+001
  0
LINE
  8
V1L0
  6
CONTINUOUS
 62
40
 10
7.057E+001
 20
1.793E+001
 11
7.25E+001
 21
1.846E+001
  0
ARC
  8
V1L0
  6
CONTINUOUS
 62
40
 10
7.2342371E+001
 20
1.14184E+001
 40
5.0E-001
 50
1.9526E+002
 51
2.8526E+002
  0
ARC
  8
V1L0
  6
CONTINUOUS
 62
40
 10
7.0702371E+001
 20
1.74484E+001
 40
5.0E-001
 50
1.0526E+002
 51
1.9526E+002
  0
LINE
  8
V1L0
  6
CONTINUOUS
 62
40
 10
7.721E+001
 20
1.142E+001
 11
7.724E+001
 21
1.246E+001
  0
LINE
  8
V1L0
  6
CONTINUOUS
 62
40
 10
7.461E+001
 20
1.071E+001
 11
7.721E+001
 21
1.142E+001
  0
LINE
  8
V1L0
  6
CONTINUOUS
 62
40
 10
7.49E+001
 20
1.992E+001
 11
7.545E+001
 21
1.904E+001
  0
LINE
  8
V1L0
  6
CONTINUOUS
 62
40
 10
7.7E+001
 20
1.334E+001
 11
7.75E+001
 21
1.15E+001
  0
LINE
  8
V1L0
  6
CONTINUOUS
 62
40
 10
7.74E+001
 20
1.759E+001
 11
8.029E+001
 21
1.838E+001
  0
LINE
  8
V1L0
  6
CONTINUOUS
 62
40
 10
7.819E+001
 20
1.47E+001
 11
8.108E+001
 21
1.549E+001
  0
LINE
  8
V1L0
  6
CONTINUOUS
 62
40
 10
6.094E+001
 20
2.25E+001
 11
6.189E+001
 21
1.904E+001
  0
LINE
  8
V1L0
  6
CONTINUOUS
 62
40
 10
6.394E+001
 20
1.15E+001
 11
6.539E+001
 21
1.189E+001
  0
LINE
  8
V1L0
  6
CONTINUOUS
 62
40
 10
6.25E+001
 20
2.25E+001
 11
6.539E+001
 21
1.189E+001
  0
LINE
  8
V1L0
  6
CONTINUOUS
 62
40
 10
5.873E+001
 20
1.921E+001
 11
6.105E+001
 21
1.071E+001
  0
LINE
  8
V1L0
  6
CONTINUOUS
 62
40
 10
5.666E+001
 20
1.732E+001
 11
5.83E+001
 21
1.129E+001
  0
LINE
  8
V1L0
  6
CONTINUOUS
 62
40
 10
5.873E+001
 20
1.921E+001
 11
6.134E+001
 21
1.992E+001
  0
LINE
  8
V1L0
  6
CONTINUOUS
 62
40
 10
5.892E+001
 20
1.093E+001
 11
6.084E+001
 21
1.146E+001
  0
LINE
  8
V1L0
  6
CONTINUOUS
 62
40
 10
5.701E+001
 20
1.793E+001
 11
5.894E+001
 21
1.846E+001
  0
ARC
  8
V1L0
  6
CONTINUOUS
 62
40
 10
5.8782371E+001
 20
1.14184E+001
 40
5.0E-001
 50
1.9526E+002
 51
2.8526E+002
  0
ARC
  8
V1L0
  6
CONTINUOUS
 62
40
 10
5.7142371E+001
 20
1.74484E+001
 40
5.0E-001
 50
1.0526E+002
 51
1.9526E+002
  0
LINE
  8
V1L0
  6
CONTINUOUS
 62
40
 10
6.365E+001
 20
1.142E+001
 11
6.368E+001
 21
1.246E+001
  0
LINE
  8
V1L0
  6
CONTINUOUS
 62
40
 10
6.105E+001
 20
1.071E+001
 11
6.365E+001
 21
1.142E+001
  0
LINE
  8
V1L0
  6
CONTINUOUS
 62
40
 10
6.134E+001
 20
1.992E+001
 11
6.189E+001
 21
1.904E+001
  0
LINE
  8
V1L0
  6
CONTINUOUS
 62
40
 10
6.189E+001
 20
1.904E+001
 11
6.394E+001
 21
1.15E+001
  0
LINE
  8
V1L0
  6
CONTINUOUS
 62
40
 10
7.327E+001
 20
1.75E+001
 11
7.459E+001
 21
1.268E+001
  0
LINE
  8
V1L0
  6
CONTINUOUS
 62
40
 10
7.327E+001
 20
1.75E+001
 11
7.713E+001
 21
1.856E+001
  0
LINE
  8
V1L0
  6
CONTINUOUS
 62
40
 10
7.459E+001
 20
1.268E+001
 11
7.845E+001
 21
1.373E+001
  0
LINE
  8
V1L0
  6
CONTINUOUS
 62
40
 10
6.384E+001
 20
1.759E+001
 11
6.673E+001
 21
1.838E+001
  0
LINE
  8
V1L0
  6
CONTINUOUS
 62
40
 10
6.463E+001
 20
1.47E+001
 11
6.752E+001
 21
1.549E+001
  0
LINE
  8
V1L0
  6
CONTINUOUS
 62
40
 10
6.673E+001
 20
1.838E+001
 11
6.752E+001
 21
1.549E+001
  0
LINE
  8
V1L0
  6
CONTINUOUS
 62
40
 10
7.545E+001
 20
1.904E+001
 11
7.569E+001
 21
1.816E+001
  0
LINE
  8
V1L0
  6
CONTINUOUS
 62
40
 10
8.1E+001
 20
2.25E+001
 11
8.1E+001
 21
7.35E+001
  0
LINE
  8
V1L0
  6
CONTINUOUS
 62
40
 10
8.029E+001
 20
7.762E+001
 11
8.108E+001
 21
8.051E+001
  0
LINE
  8
V1L0
  6
CONTINUOUS
 62
40
 10
8.029E+001
 20
1.838E+001
 11
8.108E+001
 21
1.549E+001
  0
LINE
  8
V1L0
  6
CONTINUOUS
 62
40
 10
1.535E+002
 20
1.768E+002
 11
1.62E+002
 21
1.768E+002
  0
LINE
  8
V1L0
  6
CONTINUOUS
 62
40
 10
1.535E+002
 20
1.743E+002
 11
1.62E+002
 21
1.743E+002
  0
LINE
  8
V1L0
  6
CONTINUOUS
 62
40
 10
8.1E+001
 20
4.55E+001
 11
8.35E+001
 21
4.55E+001
  0
LINE
  8
V1L0
  6
CONTINUOUS
 62
40
 10
8.1E+001
 20
5.05E+001
 11
8.35E+001
 21
5.05E+001
  0
CIRCLE
  8
V1L0
  6
CONTINUOUS
 62
40
 10
2.9750237E+002
 20
6.54984E+001
 40
1.5
  0
CIRCLE
  8
V1L0
  6
CONTINUOUS
 62
40
 10
2.9750237E+002
 20
3.04984E+001
 40
1.5
  0
LINE
  8
V1L0
  6
CONTINUOUS
 62
40
 10
1.82E+002
 20
1.0
 11
1.82E+002
 21
2.25E+001
  0
LINE
  8
V1L0
  6
CONTINUOUS
 62
40
 10
1.82E+002
 20
1.0
 11
1.84E+002
 21
1.0
  0
LINE
  8
V1L0
  6
CONTINUOUS
 62
40
 10
1.84E+002
 20
7.35E+001
 11
2.04E+002
 21
7.35E+001
  0
LINE
  8
V1L0
  6
CONTINUOUS
 62
40
 10
2.04E+002
 20
2.25E+001
 11
2.04E+002
 21
7.35E+001
  0
LINE
  8
V1L0
  6
CONTINUOUS
 62
40
 10
1.84E+002
 20
2.25E+001
 11
2.04E+002
 21
2.25E+001
  0
LINE
  8
V1L0
  6
CONTINUOUS
 62
40
 10
1.935E+002
 20
1.825E+001
 11
1.935E+002
 21
2.0E+001
  0
LINE
  8
V1L0
  6
CONTINUOUS
 62
40
 10
1.86E+002
 20
2.0E+001
 11
1.935E+002
 21
2.0E+001
  0
LINE
  8
V1L0
  6
CONTINUOUS
 62
40
 10
1.935E+002
 20
2.0E+001
 11
1.94E+002
 21
2.036E+001
  0
LINE
  8
V1L0
  6
CONTINUOUS
 62
40
 10
1.9E+002
 20
2.0E+001
 11
1.9E+002
 21
2.25E+001
  0
LINE
  8
V1L0
  6
CONTINUOUS
 62
40
 10
1.86E+002
 20
1.15E+001
 11
1.935E+002
 21
1.15E+001
  0
LINE
  8
V1L0
  6
CONTINUOUS
 62
40
 10
1.86E+002
 20
1.15E+001
 11
1.86E+002
 21
2.0E+001
  0
ARC
  8
V1L0
  6
CONTINUOUS
 62
40
 10
1.8975237E+002
 20
1.57484E+001
 40
3.5
 50
2.179E+001
 51
3.3821E+002
  0
LINE
  8
V1L0
  6
CONTINUOUS
 62
40
 10
1.8981E+002
 20
1.645E+001
 11
1.9208E+002
 21
1.836E+001
  0
LINE
  8
V1L0
  6
CONTINUOUS
 62
40
 10
1.9045E+002
 20
1.569E+001
 11
1.9273E+002
 21
1.759E+001
  0
LINE
  8
V1L0
  6
CONTINUOUS
 62
40
 10
1.9045E+002
 20
1.569E+001
 11
1.9174E+002
 21
1.416E+001
  0
LINE
  8
V1L0
  6
CONTINUOUS
 62
40
 10
1.8969E+002
 20
1.505E+001
 11
1.9097E+002
 21
1.351E+001
  0
LINE
  8
V1L0
  6
CONTINUOUS
 62
40
 10
1.8776E+002
 20
1.734E+001
 11
1.8853E+002
 21
1.799E+001
  0
LINE
  8
V1L0
  6
CONTINUOUS
 62
40
 10
1.9097E+002
 20
1.351E+001
 11
1.9174E+002
 21
1.416E+001
  0
LINE
  8
V1L0
  6
CONTINUOUS
 62
40
 10
1.8742E+002
 20
1.314E+001
 11
1.8969E+002
 21
1.505E+001
  0
LINE
  8
V1L0
  6
CONTINUOUS
 62
40
 10
1.8677E+002
 20
1.391E+001
 11
1.8905E+002
 21
1.581E+001
  0
LINE
  8
V1L0
  6
CONTINUOUS
 62
40
 10
1.8853E+002
 20
1.799E+001
 11
1.8981E+002
 21
1.645E+001
  0
LINE
  8
V1L0
  6
CONTINUOUS
 62
40
 10
1.8776E+002
 20
1.734E+001
 11
1.8905E+002
 21
1.581E+001
  0
LINE
  8
V1L0
  6
CONTINUOUS
 62
40
 10
1.945E+002
 20
1.15E+001
 11
1.945E+002
 21
2.0E+001
  0
LINE
  8
V1L0
  6
CONTINUOUS
 62
40
 10
1.945E+002
 20
2.0E+001
 11
2.02E+002
 21
2.0E+001
  0
LINE
  8
V1L0
  6
CONTINUOUS
 62
40
 10
1.91E+002
 20
2.25E+001
 11
1.945E+002
 21
2.0E+001
  0
LINE
  8
V1L0
  6
CONTINUOUS
 62
40
 10
1.98E+002
 20
2.0E+001
 11
1.98E+002
 21
2.25E+001
  0
LINE
  8
V1L0
  6
CONTINUOUS
 62
40
 10
1.945E+002
 20
1.15E+001
 11
2.02E+002
 21
1.15E+001
  0
LINE
  8
V1L0
  6
CONTINUOUS
 62
40
 10
2.02E+002
 20
1.15E+001
 11
2.02E+002
 21
2.0E+001
  0
LINE
  8
V1L0
  6
CONTINUOUS
 62
40
 10
1.93E+002
 20
1.325E+001
 11
1.93E+002
 21
1.825E+001
  0
LINE
  8
V1L0
  6
CONTINUOUS
 62
40
 10
1.93E+002
 20
1.825E+001
 11
1.945E+002
 21
1.825E+001
  0
LINE
  8
V1L0
  6
CONTINUOUS
 62
40
 10
1.93E+002
 20
1.325E+001
 11
1.945E+002
 21
1.325E+001
  0
CIRCLE
  8
V1L0
  6
CONTINUOUS
 62
40
 10
1.9825237E+002
 20
1.57484E+001
 40
3.5
  0
LINE
  8
V1L0
  6
CONTINUOUS
 62
40
 10
1.9592E+002
 20
1.836E+001
 11
1.9819E+002
 21
1.645E+001
  0
LINE
  8
V1L0
  6
CONTINUOUS
 62
40
 10
1.9527E+002
 20
1.759E+001
 11
1.9755E+002
 21
1.569E+001
  0
LINE
  8
V1L0
  6
CONTINUOUS
 62
40
 10
1.9626E+002
 20
1.416E+001
 11
1.9755E+002
 21
1.569E+001
  0
LINE
  8
V1L0
  6
CONTINUOUS
 62
40
 10
1.9703E+002
 20
1.351E+001
 11
1.9831E+002
 21
1.505E+001
  0
LINE
  8
V1L0
  6
CONTINUOUS
 62
40
 10
1.9947E+002
 20
1.799E+001
 11
2.0024E+002
 21
1.734E+001
  0
LINE
  8
V1L0
  6
CONTINUOUS
 62
40
 10
1.9626E+002
 20
1.416E+001
 11
1.9703E+002
 21
1.351E+001
  0
LINE
  8
V1L0
  6
CONTINUOUS
 62
40
 10
1.9831E+002
 20
1.505E+001
 11
2.0058E+002
 21
1.314E+001
  0
LINE
  8
V1L0
  6
CONTINUOUS
 62
40
 10
1.9895E+002
 20
1.581E+001
 11
2.0123E+002
 21
1.391E+001
  0
LINE
  8
V1L0
  6
CONTINUOUS
 62
40
 10
1.9819E+002
 20
1.645E+001
 11
1.9947E+002
 21
1.799E+001
  0
LINE
  8
V1L0
  6
CONTINUOUS
 62
40
 10
1.9895E+002
 20
1.581E+001
 11
2.0024E+002
 21
1.734E+001
  0
LINE
  8
V1L0
  6
CONTINUOUS
 62
40
 10
1.935E+002
 20
1.15E+001
 11
1.935E+002
 21
1.325E+001
  0
LINE
  8
V1L0
  6
CONTINUOUS
 62
40
 10
1.945E+002
 20
7.6E+001
 11
1.945E+002
 21
7.775E+001
  0
LINE
  8
V1L0
  6
CONTINUOUS
 62
40
 10
1.945E+002
 20
7.6E+001
 11
2.02E+002
 21
7.6E+001
  0
LINE
  8
V1L0
  6
CONTINUOUS
 62
40
 10
1.94E+002
 20
7.564E+001
 11
1.945E+002
 21
7.6E+001
  0
LINE
  8
V1L0
  6
CONTINUOUS
 62
40
 10
1.98E+002
 20
7.35E+001
 11
1.98E+002
 21
7.6E+001
  0
LINE
  8
V1L0
  6
CONTINUOUS
 62
40
 10
1.945E+002
 20
8.45E+001
 11
2.02E+002
 21
8.45E+001
  0
LINE
  8
V1L0
  6
CONTINUOUS
 62
40
 10
2.02E+002
 20
7.6E+001
 11
2.02E+002
 21
8.45E+001
  0
ARC
  8
V1L0
  6
CONTINUOUS
 62
40
 10
1.9825237E+002
 20
8.02484E+001
 40
3.5
 50
2.0179E+002
 51
5.1821E+002
  0
LINE
  8
V1L0
  6
CONTINUOUS
 62
40
 10
1.9592E+002
 20
7.764E+001
 11
1.9819E+002
 21
7.955E+001
  0
LINE
  8
V1L0
  6
CONTINUOUS
 62
40
 10
1.9527E+002
 20
7.841E+001
 11
1.9755E+002
 21
8.031E+001
  0
LINE
  8
V1L0
  6
CONTINUOUS
 62
40
 10
1.9626E+002
 20
8.184E+001
 11
1.9755E+002
 21
8.031E+001
  0
LINE
  8
V1L0
  6
CONTINUOUS
 62
40
 10
1.9703E+002
 20
8.249E+001
 11
1.9831E+002
 21
8.095E+001
  0
LINE
  8
V1L0
  6
CONTINUOUS
 62
40
 10
1.9947E+002
 20
7.801E+001
 11
2.0024E+002
 21
7.866E+001
  0
LINE
  8
V1L0
  6
CONTINUOUS
 62
40
 10
1.9626E+002
 20
8.184E+001
 11
1.9703E+002
 21
8.249E+001
  0
LINE
  8
V1L0
  6
CONTINUOUS
 62
40
 10
1.9831E+002
 20
8.095E+001
 11
2.0058E+002
 21
8.286E+001
  0
LINE
  8
V1L0
  6
CONTINUOUS
 62
40
 10
1.9895E+002
 20
8.019E+001
 11
2.0123E+002
 21
8.209E+001
  0
LINE
  8
V1L0
  6
CONTINUOUS
 62
40
 10
1.9819E+002
 20
7.955E+001
 11
1.9947E+002
 21
7.801E+001
  0
LINE
  8
V1L0
  6
CONTINUOUS
 62
40
 10
1.9895E+002
 20
8.019E+001
 11
2.0024E+002
 21
7.866E+001
  0
LINE
  8
V1L0
  6
CONTINUOUS
 62
40
 10
1.935E+002
 20
7.6E+001
 11
1.935E+002
 21
8.45E+001
  0
LINE
  8
V1L0
  6
CONTINUOUS
 62
40
 10
1.86E+002
 20
7.6E+001
 11
1.935E+002
 21
7.6E+001
  0
LINE
  8
V1L0
  6
CONTINUOUS
 62
40
 10
1.935E+002
 20
7.6E+001
 11
1.97E+002
 21
7.35E+001
  0
LINE
  8
V1L0
  6
CONTINUOUS
 62
40
 10
1.9E+002
 20
7.35E+001
 11
1.9E+002
 21
7.6E+001
  0
LINE
  8
V1L0
  6
CONTINUOUS
 62
40
 10
1.86E+002
 20
8.45E+001
 11
1.935E+002
 21
8.45E+001
  0
LINE
  8
V1L0
  6
CONTINUOUS
 62
40
 10
1.86E+002
 20
7.6E+001
 11
1.86E+002
 21
8.45E+001
  0
LINE
  8
V1L0
  6
CONTINUOUS
 62
40
 10
1.95E+002
 20
7.775E+001
 11
1.95E+002
 21
8.275E+001
  0
LINE
  8
V1L0
  6
CONTINUOUS
 62
40
 10
1.935E+002
 20
7.775E+001
 11
1.95E+002
 21
7.775E+001
  0
LINE
  8
V1L0
  6
CONTINUOUS
 62
40
 10
1.935E+002
 20
8.275E+001
 11
1.95E+002
 21
8.275E+001
  0
CIRCLE
  8
V1L0
  6
CONTINUOUS
 62
40
 10
1.8975237E+002
 20
8.02484E+001
 40
3.5
  0
LINE
  8
V1L0
  6
CONTINUOUS
 62
40
 10
1.8981E+002
 20
7.955E+001
 11
1.9208E+002
 21
7.764E+001
  0
LINE
  8
V1L0
  6
CONTINUOUS
 62
40
 10
1.9045E+002
 20
8.031E+001
 11
1.9273E+002
 21
7.841E+001
  0
LINE
  8
V1L0
  6
CONTINUOUS
 62
40
 10
1.9045E+002
 20
8.031E+001
 11
1.9174E+002
 21
8.184E+001
  0
LINE
  8
V1L0
  6
CONTINUOUS
 62
40
 10
1.8969E+002
 20
8.095E+001
 11
1.9097E+002
 21
8.249E+001
  0
LINE
  8
V1L0
  6
CONTINUOUS
 62
40
 10
1.8776E+002
 20
7.866E+001
 11
1.8853E+002
 21
7.801E+001
  0
LINE
  8
V1L0
  6
CONTINUOUS
 62
40
 10
1.9097E+002
 20
8.249E+001
 11
1.9174E+002
 21
8.184E+001
  0
LINE
  8
V1L0
  6
CONTINUOUS
 62
40
 10
1.8742E+002
 20
8.286E+001
 11
1.8969E+002
 21
8.095E+001
  0
LINE
  8
V1L0
  6
CONTINUOUS
 62
40
 10
1.8677E+002
 20
8.209E+001
 11
1.8905E+002
 21
8.019E+001
  0
LINE
  8
V1L0
  6
CONTINUOUS
 62
40
 10
1.8853E+002
 20
7.801E+001
 11
1.8981E+002
 21
7.955E+001
  0
LINE
  8
V1L0
  6
CONTINUOUS
 62
40
 10
1.8776E+002
 20
7.866E+001
 11
1.8905E+002
 21
8.019E+001
  0
LINE
  8
V1L0
  6
CONTINUOUS
 62
40
 10
1.945E+002
 20
8.275E+001
 11
1.945E+002
 21
8.45E+001
  0
LINE
  8
V1L0
  6
CONTINUOUS
 62
40
 10
2.015E+002
 20
1.0505E+002
 11
2.015E+002
 21
1.3505E+002
  0
LINE
  8
V1L0
  6
LONG_DASH
 62
40
 10
1.765E+002
 20
1.0905E+002
 11
1.765E+002
 21
1.1705E+002
  0
LINE
  8
V1L0
  6
CONTINUOUS
 62
40
 10
1.62E+002
 20
1.3555E+002
 11
1.62E+002
 21
1.6055E+002
  0
LINE
  8
V1L0
  6
CONTINUOUS
 62
40
 10
1.82E+002
 20
1.3555E+002
 11
1.82E+002
 21
2.4305E+002
  0
LINE
  8
V1L0
  6
CONTINUOUS
 62
40
 10
1.62E+002
 20
1.6055E+002
 11
1.82E+002
 21
1.6055E+002
  0
LINE
  8
V1L0
  6
CONTINUOUS
 62
40
 10
1.62E+002
 20
1.3555E+002
 11
1.6682E+002
 21
1.3555E+002
  0
LINE
  8
V1L0
  6
CONTINUOUS
 62
40
 10
1.725E+002
 20
1.5261E+002
 11
1.725E+002
 21
1.5684E+002
  0
LINE
  8
V1L0
  6
CONTINUOUS
 62
40
 10
1.8E+002
 20
1.5117E+002
 11
1.8E+002
 21
1.5663E+002
  0
LINE
  8
V1L0
  6
CONTINUOUS
 62
40
 10
1.71E+002
 20
1.5117E+002
 11
1.71E+002
 21
1.5684E+002
  0
LINE
  8
V1L0
  6
CONTINUOUS
 62
40
 10
1.71E+002
 20
1.5117E+002
 11
1.8E+002
 21
1.5117E+002
  0
LINE
  8
V1L0
  6
CONTINUOUS
 62
40
 10
1.725E+002
 20
1.5261E+002
 11
1.8E+002
 21
1.5261E+002
  0
LINE
  8
V1L0
  6
CONTINUOUS
 62
40
 10
1.71E+002
 20
1.5553E+002
 11
1.725E+002
 21
1.5553E+002
  0
LINE
  8
V1L0
  6
CONTINUOUS
 62
40
 10
1.71E+002
 20
1.5684E+002
 11
1.725E+002
 21
1.5684E+002
  0
LINE
  8
V1L0
  6
CONTINUOUS
 62
40
 10
1.773E+002
 20
1.5362E+002
 11
1.7951E+002
 21
1.528E+002
  0
LINE
  8
V1L0
  6
CONTINUOUS
 62
40
 10
1.7299E+002
 20
1.528E+002
 11
1.752E+002
 21
1.5362E+002
  0
ARC
  8
V1L0
  6
CONTINUOUS
 62
40
 10
1.7625237E+002
 20
1.508084E+002
 40
3.0
 50
6.96E+001
 51
1.104E+002
  0
ARC
  8
V1L0
  6
CONTINUOUS
 62
40
 10
1.7625237E+002
 20
1.523084E+002
 40
3.0
 50
6.96E+001
 51
1.104E+002
  0
LINE
  8
V1L0
  6
CONTINUOUS
 62
40
 10
1.773E+002
 20
1.5512E+002
 11
1.8E+002
 21
1.5411E+002
  0
LINE
  8
V1L0
  6
CONTINUOUS
 62
40
 10
1.725E+002
 20
1.5411E+002
 11
1.752E+002
 21
1.5512E+002
  0
LINE
  8
V1L0
  6
CONTINUOUS
 62
40
 10
1.7966E+002
 20
1.5676E+002
 11
1.8E+002
 21
1.5663E+002
  0
LINE
  8
V1L0
  6
CONTINUOUS
 62
40
 10
1.725E+002
 20
1.5663E+002
 11
1.7284E+002
 21
1.5676E+002
  0
LINE
  8
V1L0
  6
CONTINUOUS
 62
40
 10
1.7951E+002
 20
1.528E+002
 11
1.8E+002
 21
1.5411E+002
  0
LINE
  8
V1L0
  6
CONTINUOUS
 62
40
 10
1.725E+002
 20
1.5411E+002
 11
1.7299E+002
 21
1.528E+002
  0
LINE
  8
V1L0
  6
CONTINUOUS
 62
40
 10
1.7941E+002
 20
1.5908E+002
 11
1.7966E+002
 21
1.5676E+002
  0
LINE
  8
V1L0
  6
CONTINUOUS
 62
40
 10
1.7284E+002
 20
1.5676E+002
 11
1.7309E+002
 21
1.5908E+002
  0
LINE
  8
V1L0
  6
CONTINUOUS
 62
40
 10
1.7641E+002
 20
1.5853E+002
 11
1.7682E+002
 21
1.5894E+002
  0
LINE
  8
V1L0
  6
CONTINUOUS
 62
40
 10
1.7504E+002
 20
1.5857E+002
 11
1.754E+002
 21
1.5894E+002
  0
LINE
  8
V1L0
  6
CONTINUOUS
 62
40
 10
1.7504E+002
 20
1.5811E+002
 11
1.7504E+002
 21
1.5857E+002
  0
LINE
  8
V1L0
  6
CONTINUOUS
 62
40
 10
1.7641E+002
 20
1.5806E+002
 11
1.7641E+002
 21
1.5853E+002
  0
LINE
  8
V1L0
  6
CONTINUOUS
 62
40
 10
1.7609E+002
 20
1.5916E+002
 11
1.7609E+002
 21
1.5963E+002
  0
LINE
  8
V1L0
  6
CONTINUOUS
 62
40
 10
1.7504E+002
 20
1.5811E+002
 11
1.7609E+002
 21
1.5916E+002
  0
LINE
  8
V1L0
  6
CONTINUOUS
 62
40
 10
1.7425E+002
 20
1.592E+002
 11
1.7566E+002
 21
1.592E+002
  0
LINE
  8
V1L0
  6
CONTINUOUS
 62
40
 10
1.7823E+002
 20
1.5894E+002
 11
1.7849E+002
 21
1.592E+002
  0
LINE
  8
V1L0
  6
CONTINUOUS
 62
40
 10
1.7399E+002
 20
1.5894E+002
 11
1.7425E+002
 21
1.592E+002
  0
LINE
  8
V1L0
  6
CONTINUOUS
 62
40
 10
1.7399E+002
 20
1.5894E+002
 11
1.754E+002
 21
1.5894E+002
  0
LINE
  8
V1L0
  6
CONTINUOUS
 62
40
 10
1.754E+002
 20
1.5847E+002
 11
1.754E+002
 21
1.5894E+002
  0
LINE
  8
V1L0
  6
CONTINUOUS
 62
40
 10
1.7566E+002
 20
1.5873E+002
 11
1.7566E+002
 21
1.592E+002
  0
LINE
  8
V1L0
  6
CONTINUOUS
 62
40
 10
1.7682E+002
 20
1.5894E+002
 11
1.7823E+002
 21
1.5894E+002
  0
LINE
  8
V1L0
  6
CONTINUOUS
 62
40
 10
1.7708E+002
 20
1.592E+002
 11
1.7849E+002
 21
1.592E+002
  0
LINE
  8
V1L0
  6
CONTINUOUS
 62
40
 10
1.7566E+002
 20
1.592E+002
 11
1.7609E+002
 21
1.5963E+002
  0
LINE
  8
V1L0
  6
CONTINUOUS
 62
40
 10
1.7708E+002
 20
1.592E+002
 11
1.7746E+002
 21
1.5959E+002
  0
LINE
  8
V1L0
  6
CONTINUOUS
 62
40
 10
1.754E+002
 20
1.5873E+002
 11
1.7566E+002
 21
1.5873E+002
  0
LINE
  8
V1L0
  6
CONTINUOUS
 62
40
 10
1.7708E+002
 20
1.5894E+002
 11
1.7708E+002
 21
1.592E+002
  0
LINE
  8
V1L0
  6
CONTINUOUS
 62
40
 10
1.6425E+002
 20
1.3761E+002
 11
1.7125E+002
 21
1.3761E+002
  0
LINE
  8
V1L0
  6
CONTINUOUS
 62
40
 10
1.715E+002
 20
1.3905E+002
 11
1.715E+002
 21
1.4328E+002
  0
LINE
  8
V1L0
  6
CONTINUOUS
 62
40
 10
1.64E+002
 20
1.3761E+002
 11
1.64E+002
 21
1.4307E+002
  0
LINE
  8
V1L0
  6
CONTINUOUS
 62
40
 10
1.73E+002
 20
1.3761E+002
 11
1.73E+002
 21
1.4328E+002
  0
LINE
  8
V1L0
  6
CONTINUOUS
 62
40
 10
1.64E+002
 20
1.3761E+002
 11
1.73E+002
 21
1.3761E+002
  0
LINE
  8
V1L0
  6
CONTINUOUS
 62
40
 10
1.64E+002
 20
1.3905E+002
 11
1.715E+002
 21
1.3905E+002
  0
LINE
  8
V1L0
  6
CONTINUOUS
 62
40
 10
1.715E+002
 20
1.4197E+002
 11
1.73E+002
 21
1.4197E+002
  0
LINE
  8
V1L0
  6
CONTINUOUS
 62
40
 10
1.715E+002
 20
1.4328E+002
 11
1.73E+002
 21
1.4328E+002
  0
LINE
  8
V1L0
  6
CONTINUOUS
 62
40
 10
1.6449E+002
 20
1.3924E+002
 11
1.667E+002
 21
1.4006E+002
  0
LINE
  8
V1L0
  6
CONTINUOUS
 62
40
 10
1.688E+002
 20
1.4006E+002
 11
1.7101E+002
 21
1.3924E+002
  0
ARC
  8
V1L0
  6
CONTINUOUS
 62
40
 10
1.6775237E+002
 20
1.372484E+002
 40
3.0
 50
6.96E+001
 51
1.104E+002
  0
ARC
  8
V1L0
  6
CONTINUOUS
 62
40
 10
1.6775237E+002
 20
1.387484E+002
 40
3.0
 50
6.96E+001
 51
1.104E+002
  0
LINE
  8
V1L0
  6
CONTINUOUS
 62
40
 10
1.64E+002
 20
1.4055E+002
 11
1.667E+002
 21
1.4156E+002
  0
LINE
  8
V1L0
  6
CONTINUOUS
 62
40
 10
1.688E+002
 20
1.4156E+002
 11
1.715E+002
 21
1.4055E+002
  0
LINE
  8
V1L0
  6
CONTINUOUS
 62
40
 10
1.64E+002
 20
1.4307E+002
 11
1.6434E+002
 21
1.432E+002
  0
LINE
  8
V1L0
  6
CONTINUOUS
 62
40
 10
1.7116E+002
 20
1.432E+002
 11
1.715E+002
 21
1.4307E+002
  0
LINE
  8
V1L0
  6
CONTINUOUS
 62
40
 10
1.64E+002
 20
1.4055E+002
 11
1.6449E+002
 21
1.3924E+002
  0
LINE
  8
V1L0
  6
CONTINUOUS
 62
40
 10
1.7101E+002
 20
1.3924E+002
 11
1.715E+002
 21
1.4055E+002
  0
LINE
  8
V1L0
  6
CONTINUOUS
 62
40
 10
1.6434E+002
 20
1.432E+002
 11
1.6459E+002
 21
1.4552E+002
  0
LINE
  8
V1L0
  6
CONTINUOUS
 62
40
 10
1.7091E+002
 20
1.4552E+002
 11
1.7116E+002
 21
1.432E+002
  0
LINE
  8
V1L0
  6
CONTINUOUS
 62
40
 10
1.6718E+002
 20
1.4538E+002
 11
1.6759E+002
 21
1.4497E+002
  0
LINE
  8
V1L0
  6
CONTINUOUS
 62
40
 10
1.686E+002
 20
1.4538E+002
 11
1.6896E+002
 21
1.4501E+002
  0
LINE
  8
V1L0
  6
CONTINUOUS
 62
40
 10
1.6896E+002
 20
1.4455E+002
 11
1.6896E+002
 21
1.4501E+002
  0
LINE
  8
V1L0
  6
CONTINUOUS
 62
40
 10
1.6759E+002
 20
1.445E+002
 11
1.6759E+002
 21
1.4497E+002
  0
LINE
  8
V1L0
  6
CONTINUOUS
 62
40
 10
1.6791E+002
 20
1.456E+002
 11
1.6791E+002
 21
1.4607E+002
  0
LINE
  8
V1L0
  6
CONTINUOUS
 62
40
 10
1.6791E+002
 20
1.456E+002
 11
1.6896E+002
 21
1.4455E+002
  0
LINE
  8
V1L0
  6
CONTINUOUS
 62
40
 10
1.6834E+002
 20
1.4564E+002
 11
1.6975E+002
 21
1.4564E+002
  0
LINE
  8
V1L0
  6
CONTINUOUS
 62
40
 10
1.6551E+002
 20
1.4564E+002
 11
1.6577E+002
 21
1.4538E+002
  0
LINE
  8
V1L0
  6
CONTINUOUS
 62
40
 10
1.6975E+002
 20
1.4564E+002
 11
1.7001E+002
 21
1.4538E+002
  0
LINE
  8
V1L0
  6
CONTINUOUS
 62
40
 10
1.686E+002
 20
1.4538E+002
 11
1.7001E+002
 21
1.4538E+002
  0
LINE
  8
V1L0
  6
CONTINUOUS
 62
40
 10
1.686E+002
 20
1.4491E+002
 11
1.686E+002
 21
1.4538E+002
  0
LINE
  8
V1L0
  6
CONTINUOUS
 62
40
 10
1.6834E+002
 20
1.4517E+002
 11
1.6834E+002
 21
1.4564E+002
  0
LINE
  8
V1L0
  6
CONTINUOUS
 62
40
 10
1.6577E+002
 20
1.4538E+002
 11
1.6718E+002
 21
1.4538E+002
  0
LINE
  8
V1L0
  6
CONTINUOUS
 62
40
 10
1.6551E+002
 20
1.4564E+002
 11
1.6692E+002
 21
1.4564E+002
  0
LINE
  8
V1L0
  6
CONTINUOUS
 62
40
 10
1.6791E+002
 20
1.4607E+002
 11
1.6834E+002
 21
1.4564E+002
  0
LINE
  8
V1L0
  6
CONTINUOUS
 62
40
 10
1.6654E+002
 20
1.4603E+002
 11
1.6692E+002
 21
1.4564E+002
  0
LINE
  8
V1L0
  6
CONTINUOUS
 62
40
 10
1.6834E+002
 20
1.4517E+002
 11
1.686E+002
 21
1.4517E+002
  0
LINE
  8
V1L0
  6
CONTINUOUS
 62
40
 10
1.6692E+002
 20
1.4538E+002
 11
1.6692E+002
 21
1.4564E+002
  0
LINE
  8
V1L0
  6
CONTINUOUS
 62
40
 10
1.6625E+002
 20
1.3568E+002
 11
1.6625E+002
 21
1.3761E+002
  0
LINE
  8
V1L0
  6
CONTINUOUS
 62
40
 10
1.6925E+002
 20
1.3568E+002
 11
1.6925E+002
 21
1.3761E+002
  0
LINE
  8
V1L0
  6
CONTINUOUS
 62
40
 10
1.6868E+002
 20
1.3555E+002
 11
1.82E+002
 21
1.3555E+002
  0
LINE
  8
V1L0
  6
CONTINUOUS
 62
40
 10
1.7475E+002
 20
1.4924E+002
 11
1.7475E+002
 21
1.5117E+002
  0
LINE
  8
V1L0
  6
CONTINUOUS
 62
40
 10
1.7775E+002
 20
1.4924E+002
 11
1.7775E+002
 21
1.5117E+002
  0
LINE
  8
V1L0
  6
CONTINUOUS
 62
40
 10
2.04E+002
 20
6.7E+001
 11
2.125E+002
 21
6.7E+001
  0
LINE
  8
V1L0
  6
CONTINUOUS
 62
40
 10
2.125E+002
 20
6.4E+001
 11
2.125E+002
 21
6.7E+001
  0
LINE
  8
V1L0
  6
CONTINUOUS
 62
40
 10
2.04E+002
 20
6.4E+001
 11
2.125E+002
 21
6.4E+001
  0
LINE
  8
V1L0
  6
CONTINUOUS
 62
40
 10
2.04E+002
 20
2.9E+001
 11
2.125E+002
 21
2.9E+001
  0
LINE
  8
V1L0
  6
CONTINUOUS
 62
40
 10
2.125E+002
 20
2.9E+001
 11
2.125E+002
 21
3.2E+001
  0
LINE
  8
V1L0
  6
CONTINUOUS
 62
40
 10
2.04E+002
 20
3.2E+001
 11
2.125E+002
 21
3.2E+001
  0
LINE
  8
V1L0
  6
CONTINUOUS
 62
40
 10
1.535E+002
 20
1.743E+002
 11
1.535E+002
 21
1.768E+002
  0
LINE
  8
V1L0
  6
CONTINUOUS
 62
40
 10
1.535E+002
 20
1.468E+002
 11
1.535E+002
 21
1.493E+002
  0
LINE
  8
V1L0
  6
CONTINUOUS
 62
40
 10
2.04E+002
 20
1.9055E+002
 11
2.04E+002
 21
2.1555E+002
  0
LINE
  8
V1L0
  6
CONTINUOUS
 62
40
 10
1.84E+002
 20
2.1555E+002
 11
2.04E+002
 21
2.1555E+002
  0
LINE
  8
V1L0
  6
CONTINUOUS
 62
40
 10
1.84E+002
 20
1.9055E+002
 11
1.8882E+002
 21
1.9055E+002
  0
LINE
  8
V1L0
  6
CONTINUOUS
 62
40
 10
1.945E+002
 20
2.0761E+002
 11
1.945E+002
 21
2.1184E+002
  0
LINE
  8
V1L0
  6
CONTINUOUS
 62
40
 10
2.02E+002
 20
2.0617E+002
 11
2.02E+002
 21
2.1163E+002
  0
LINE
  8
V1L0
  6
CONTINUOUS
 62
40
 10
1.93E+002
 20
2.0617E+002
 11
1.93E+002
 21
2.1184E+002
  0
LINE
  8
V1L0
  6
CONTINUOUS
 62
40
 10
1.93E+002
 20
2.0617E+002
 11
2.02E+002
 21
2.0617E+002
  0
LINE
  8
V1L0
  6
CONTINUOUS
 62
40
 10
1.945E+002
 20
2.0761E+002
 11
2.02E+002
 21
2.0761E+002
  0
LINE
  8
V1L0
  6
CONTINUOUS
 62
40
 10
1.93E+002
 20
2.1053E+002
 11
1.945E+002
 21
2.1053E+002
  0
LINE
  8
V1L0
  6
CONTINUOUS
 62
40
 10
1.93E+002
 20
2.1184E+002
 11
1.945E+002
 21
2.1184E+002
  0
LINE
  8
V1L0
  6
CONTINUOUS
 62
40
 10
1.993E+002
 20
2.0862E+002
 11
2.0151E+002
 21
2.078E+002
  0
LINE
  8
V1L0
  6
CONTINUOUS
 62
40
 10
1.9499E+002
 20
2.078E+002
 11
1.972E+002
 21
2.0862E+002
  0
ARC
  8
V1L0
  6
CONTINUOUS
 62
40
 10
1.9825237E+002
 20
2.058084E+002
 40
3.0
 50
6.96E+001
 51
1.104E+002
  0
ARC
  8
V1L0
  6
CONTINUOUS
 62
40
 10
1.9825237E+002
 20
2.073084E+002
 40
3.0
 50
6.96E+001
 51
1.104E+002
  0
LINE
  8
V1L0
  6
CONTINUOUS
 62
40
 10
1.993E+002
 20
2.1012E+002
 11
2.02E+002
 21
2.0911E+002
  0
LINE
  8
V1L0
  6
CONTINUOUS
 62
40
 10
1.945E+002
 20
2.0911E+002
 11
1.972E+002
 21
2.1012E+002
  0
LINE
  8
V1L0
  6
CONTINUOUS
 62
40
 10
2.0166E+002
 20
2.1176E+002
 11
2.02E+002
 21
2.1163E+002
  0
LINE
  8
V1L0
  6
CONTINUOUS
 62
40
 10
1.945E+002
 20
2.1163E+002
 11
1.9484E+002
 21
2.1176E+002
  0
LINE
  8
V1L0
  6
CONTINUOUS
 62
40
 10
2.0151E+002
 20
2.078E+002
 11
2.02E+002
 21
2.0911E+002
  0
LINE
  8
V1L0
  6
CONTINUOUS
 62
40
 10
1.945E+002
 20
2.0911E+002
 11
1.9499E+002
 21
2.078E+002
  0
LINE
  8
V1L0
  6
CONTINUOUS
 62
40
 10
2.0141E+002
 20
2.1408E+002
 11
2.0166E+002
 21
2.1176E+002
  0
LINE
  8
V1L0
  6
CONTINUOUS
 62
40
 10
1.9484E+002
 20
2.1176E+002
 11
1.9509E+002
 21
2.1408E+002
  0
LINE
  8
V1L0
  6
CONTINUOUS
 62
40
 10
1.9841E+002
 20
2.1353E+002
 11
1.9882E+002
 21
2.1394E+002
  0
LINE
  8
V1L0
  6
CONTINUOUS
 62
40
 10
1.9704E+002
 20
2.1357E+002
 11
1.974E+002
 21
2.1394E+002
  0
LINE
  8
V1L0
  6
CONTINUOUS
 62
40
 10
1.9704E+002
 20
2.1311E+002
 11
1.9704E+002
 21
2.1357E+002
  0
LINE
  8
V1L0
  6
CONTINUOUS
 62
40
 10
1.9841E+002
 20
2.1306E+002
 11
1.9841E+002
 21
2.1353E+002
  0
LINE
  8
V1L0
  6
CONTINUOUS
 62
40
 10
1.9809E+002
 20
2.1416E+002
 11
1.9809E+002
 21
2.1463E+002
  0
LINE
  8
V1L0
  6
CONTINUOUS
 62
40
 10
1.9704E+002
 20
2.1311E+002
 11
1.9809E+002
 21
2.1416E+002
  0
LINE
  8
V1L0
  6
CONTINUOUS
 62
40
 10
1.9625E+002
 20
2.142E+002
 11
1.9766E+002
 21
2.142E+002
  0
LINE
  8
V1L0
  6
CONTINUOUS
 62
40
 10
2.0023E+002
 20
2.1394E+002
 11
2.0049E+002
 21
2.142E+002
  0
LINE
  8
V1L0
  6
CONTINUOUS
 62
40
 10
1.9599E+002
 20
2.1394E+002
 11
1.9625E+002
 21
2.142E+002
  0
LINE
  8
V1L0
  6
CONTINUOUS
 62
40
 10
1.9599E+002
 20
2.1394E+002
 11
1.974E+002
 21
2.1394E+002
  0
LINE
  8
V1L0
  6
CONTINUOUS
 62
40
 10
1.974E+002
 20
2.1347E+002
 11
1.974E+002
 21
2.1394E+002
  0
LINE
  8
V1L0
  6
CONTINUOUS
 62
40
 10
1.9766E+002
 20
2.1373E+002
 11
1.9766E+002
 21
2.142E+002
  0
LINE
  8
V1L0
  6
CONTINUOUS
 62
40
 10
1.9882E+002
 20
2.1394E+002
 11
2.0023E+002
 21
2.1394E+002
  0
LINE
  8
V1L0
  6
CONTINUOUS
 62
40
 10
1.9908E+002
 20
2.142E+002
 11
2.0049E+002
 21
2.142E+002
  0
LINE
  8
V1L0
  6
CONTINUOUS
 62
40
 10
1.9766E+002
 20
2.142E+002
 11
1.9809E+002
 21
2.1463E+002
  0
LINE
  8
V1L0
  6
CONTINUOUS
 62
40
 10
1.9908E+002
 20
2.142E+002
 11
1.9946E+002
 21
2.1459E+002
  0
LINE
  8
V1L0
  6
CONTINUOUS
 62
40
 10
1.974E+002
 20
2.1373E+002
 11
1.9766E+002
 21
2.1373E+002
  0
LINE
  8
V1L0
  6
CONTINUOUS
 62
40
 10
1.9908E+002
 20
2.1394E+002
 11
1.9908E+002
 21
2.142E+002
  0
LINE
  8
V1L0
  6
CONTINUOUS
 62
40
 10
1.8625E+002
 20
1.9261E+002
 11
1.9325E+002
 21
1.9261E+002
  0
LINE
  8
V1L0
  6
CONTINUOUS
 62
40
 10
1.935E+002
 20
1.9405E+002
 11
1.935E+002
 21
1.9828E+002
  0
LINE
  8
V1L0
  6
CONTINUOUS
 62
40
 10
1.86E+002
 20
1.9261E+002
 11
1.86E+002
 21
1.9807E+002
  0
LINE
  8
V1L0
  6
CONTINUOUS
 62
40
 10
1.95E+002
 20
1.9261E+002
 11
1.95E+002
 21
1.9828E+002
  0
LINE
  8
V1L0
  6
CONTINUOUS
 62
40
 10
1.86E+002
 20
1.9261E+002
 11
1.95E+002
 21
1.9261E+002
  0
LINE
  8
V1L0
  6
CONTINUOUS
 62
40
 10
1.86E+002
 20
1.9405E+002
 11
1.935E+002
 21
1.9405E+002
  0
LINE
  8
V1L0
  6
CONTINUOUS
 62
40
 10
1.935E+002
 20
1.9697E+002
 11
1.95E+002
 21
1.9697E+002
  0
LINE
  8
V1L0
  6
CONTINUOUS
 62
40
 10
1.935E+002
 20
1.9828E+002
 11
1.95E+002
 21
1.9828E+002
  0
LINE
  8
V1L0
  6
CONTINUOUS
 62
40
 10
1.8649E+002
 20
1.9424E+002
 11
1.887E+002
 21
1.9506E+002
  0
LINE
  8
V1L0
  6
CONTINUOUS
 62
40
 10
1.908E+002
 20
1.9506E+002
 11
1.9301E+002
 21
1.9424E+002
  0
ARC
  8
V1L0
  6
CONTINUOUS
 62
40
 10
1.8975237E+002
 20
1.922484E+002
 40
3.0
 50
6.96E+001
 51
1.104E+002
  0
ARC
  8
V1L0
  6
CONTINUOUS
 62
40
 10
1.8975237E+002
 20
1.937484E+002
 40
3.0
 50
6.96E+001
 51
1.104E+002
  0
LINE
  8
V1L0
  6
CONTINUOUS
 62
40
 10
1.86E+002
 20
1.9555E+002
 11
1.887E+002
 21
1.9656E+002
  0
LINE
  8
V1L0
  6
CONTINUOUS
 62
40
 10
1.908E+002
 20
1.9656E+002
 11
1.935E+002
 21
1.9555E+002
  0
LINE
  8
V1L0
  6
CONTINUOUS
 62
40
 10
1.86E+002
 20
1.9807E+002
 11
1.8634E+002
 21
1.982E+002
  0
LINE
  8
V1L0
  6
CONTINUOUS
 62
40
 10
1.9316E+002
 20
1.982E+002
 11
1.935E+002
 21
1.9807E+002
  0
LINE
  8
V1L0
  6
CONTINUOUS
 62
40
 10
1.86E+002
 20
1.9555E+002
 11
1.8649E+002
 21
1.9424E+002
  0
LINE
  8
V1L0
  6
CONTINUOUS
 62
40
 10
1.9301E+002
 20
1.9424E+002
 11
1.935E+002
 21
1.9555E+002
  0
LINE
  8
V1L0
  6
CONTINUOUS
 62
40
 10
1.8634E+002
 20
1.982E+002
 11
1.8659E+002
 21
2.0052E+002
  0
LINE
  8
V1L0
  6
CONTINUOUS
 62
40
 10
1.9291E+002
 20
2.0052E+002
 11
1.9316E+002
 21
1.982E+002
  0
LINE
  8
V1L0
  6
CONTINUOUS
 62
40
 10
1.8918E+002
 20
2.0038E+002
 11
1.8959E+002
 21
1.9997E+002
  0
LINE
  8
V1L0
  6
CONTINUOUS
 62
40
 10
1.906E+002
 20
2.0038E+002
 11
1.9096E+002
 21
2.0001E+002
  0
LINE
  8
V1L0
  6
CONTINUOUS
 62
40
 10
1.9096E+002
 20
1.9955E+002
 11
1.9096E+002
 21
2.0001E+002
  0
LINE
  8
V1L0
  6
CONTINUOUS
 62
40
 10
1.8959E+002
 20
1.995E+002
 11
1.8959E+002
 21
1.9997E+002
  0
LINE
  8
V1L0
  6
CONTINUOUS
 62
40
 10
1.8991E+002
 20
2.006E+002
 11
1.8991E+002
 21
2.0107E+002
  0
LINE
  8
V1L0
  6
CONTINUOUS
 62
40
 10
1.8991E+002
 20
2.006E+002
 11
1.9096E+002
 21
1.9955E+002
  0
LINE
  8
V1L0
  6
CONTINUOUS
 62
40
 10
1.9034E+002
 20
2.0064E+002
 11
1.9175E+002
 21
2.0064E+002
  0
LINE
  8
V1L0
  6
CONTINUOUS
 62
40
 10
1.8751E+002
 20
2.0064E+002
 11
1.8777E+002
 21
2.0038E+002
  0
LINE
  8
V1L0
  6
CONTINUOUS
 62
40
 10
1.9175E+002
 20
2.0064E+002
 11
1.9201E+002
 21
2.0038E+002
  0
LINE
  8
V1L0
  6
CONTINUOUS
 62
40
 10
1.906E+002
 20
2.0038E+002
 11
1.9201E+002
 21
2.0038E+002
  0
LINE
  8
V1L0
  6
CONTINUOUS
 62
40
 10
1.906E+002
 20
1.9991E+002
 11
1.906E+002
 21
2.0038E+002
  0
LINE
  8
V1L0
  6
CONTINUOUS
 62
40
 10
1.9034E+002
 20
2.0017E+002
 11
1.9034E+002
 21
2.0064E+002
  0
LINE
  8
V1L0
  6
CONTINUOUS
 62
40
 10
1.8777E+002
 20
2.0038E+002
 11
1.8918E+002
 21
2.0038E+002
  0
LINE
  8
V1L0
  6
CONTINUOUS
 62
40
 10
1.8751E+002
 20
2.0064E+002
 11
1.8892E+002
 21
2.0064E+002
  0
LINE
  8
V1L0
  6
CONTINUOUS
 62
40
 10
1.8991E+002
 20
2.0107E+002
 11
1.9034E+002
 21
2.0064E+002
  0
LINE
  8
V1L0
  6
CONTINUOUS
 62
40
 10
1.8854E+002
 20
2.0103E+002
 11
1.8892E+002
 21
2.0064E+002
  0
LINE
  8
V1L0
  6
CONTINUOUS
 62
40
 10
1.9034E+002
 20
2.0017E+002
 11
1.906E+002
 21
2.0017E+002
  0
LINE
  8
V1L0
  6
CONTINUOUS
 62
40
 10
1.8892E+002
 20
2.0038E+002
 11
1.8892E+002
 21
2.0064E+002
  0
LINE
  8
V1L0
  6
CONTINUOUS
 62
40
 10
1.8825E+002
 20
1.9068E+002
 11
1.8825E+002
 21
1.9261E+002
  0
LINE
  8
V1L0
  6
CONTINUOUS
 62
40
 10
1.9125E+002
 20
1.9068E+002
 11
1.9125E+002
 21
1.9261E+002
  0
LINE
  8
V1L0
  6
CONTINUOUS
 62
40
 10
1.9068E+002
 20
1.9055E+002
 11
2.04E+002
 21
1.9055E+002
  0
LINE
  8
V1L0
  6
CONTINUOUS
 62
40
 10
1.9675E+002
 20
2.0424E+002
 11
1.9675E+002
 21
2.0617E+002
  0
LINE
  8
V1L0
  6
CONTINUOUS
 62
40
 10
1.9975E+002
 20
2.0424E+002
 11
1.9975E+002
 21
2.0617E+002
  0
LINE
  8
V1L0
  6
CONTINUOUS
 62
40
 10
1.62E+002
 20
2.1555E+002
 11
1.82E+002
 21
2.1555E+002
  0
LINE
  8
V1L0
  6
CONTINUOUS
 62
40
 10
1.62E+002
 20
1.9055E+002
 11
1.6682E+002
 21
1.9055E+002
  0
LINE
  8
V1L0
  6
CONTINUOUS
 62
40
 10
1.725E+002
 20
2.0761E+002
 11
1.725E+002
 21
2.1184E+002
  0
LINE
  8
V1L0
  6
CONTINUOUS
 62
40
 10
1.8E+002
 20
2.0617E+002
 11
1.8E+002
 21
2.1163E+002
  0
LINE
  8
V1L0
  6
CONTINUOUS
 62
40
 10
1.71E+002
 20
2.0617E+002
 11
1.71E+002
 21
2.1184E+002
  0
LINE
  8
V1L0
  6
CONTINUOUS
 62
40
 10
1.71E+002
 20
2.0617E+002
 11
1.8E+002
 21
2.0617E+002
  0
LINE
  8
V1L0
  6
CONTINUOUS
 62
40
 10
1.725E+002
 20
2.0761E+002
 11
1.8E+002
 21
2.0761E+002
  0
LINE
  8
V1L0
  6
CONTINUOUS
 62
40
 10
1.71E+002
 20
2.1053E+002
 11
1.725E+002
 21
2.1053E+002
  0
LINE
  8
V1L0
  6
CONTINUOUS
 62
40
 10
1.71E+002
 20
2.1184E+002
 11
1.725E+002
 21
2.1184E+002
  0
LINE
  8
V1L0
  6
CONTINUOUS
 62
40
 10
1.773E+002
 20
2.0862E+002
 11
1.7951E+002
 21
2.078E+002
  0
LINE
  8
V1L0
  6
CONTINUOUS
 62
40
 10
1.7299E+002
 20
2.078E+002
 11
1.752E+002
 21
2.0862E+002
  0
ARC
  8
V1L0
  6
CONTINUOUS
 62
40
 10
1.7625237E+002
 20
2.058084E+002
 40
3.0
 50
6.96E+001
 51
1.104E+002
  0
ARC
  8
V1L0
  6
CONTINUOUS
 62
40
 10
1.7625237E+002
 20
2.073084E+002
 40
3.0
 50
6.96E+001
 51
1.104E+002
  0
LINE
  8
V1L0
  6
CONTINUOUS
 62
40
 10
1.773E+002
 20
2.1012E+002
 11
1.8E+002
 21
2.0911E+002
  0
LINE
  8
V1L0
  6
CONTINUOUS
 62
40
 10
1.725E+002
 20
2.0911E+002
 11
1.752E+002
 21
2.1012E+002
  0
LINE
  8
V1L0
  6
CONTINUOUS
 62
40
 10
1.7966E+002
 20
2.1176E+002
 11
1.8E+002
 21
2.1163E+002
  0
LINE
  8
V1L0
  6
CONTINUOUS
 62
40
 10
1.725E+002
 20
2.1163E+002
 11
1.7284E+002
 21
2.1176E+002
  0
LINE
  8
V1L0
  6
CONTINUOUS
 62
40
 10
1.7951E+002
 20
2.078E+002
 11
1.8E+002
 21
2.0911E+002
  0
LINE
  8
V1L0
  6
CONTINUOUS
 62
40
 10
1.725E+002
 20
2.0911E+002
 11
1.7299E+002
 21
2.078E+002
  0
LINE
  8
V1L0
  6
CONTINUOUS
 62
40
 10
1.7941E+002
 20
2.1408E+002
 11
1.7966E+002
 21
2.1176E+002
  0
LINE
  8
V1L0
  6
CONTINUOUS
 62
40
 10
1.7284E+002
 20
2.1176E+002
 11
1.7309E+002
 21
2.1408E+002
  0
LINE
  8
V1L0
  6
CONTINUOUS
 62
40
 10
1.7641E+002
 20
2.1353E+002
 11
1.7682E+002
 21
2.1394E+002
  0
LINE
  8
V1L0
  6
CONTINUOUS
 62
40
 10
1.7504E+002
 20
2.1357E+002
 11
1.754E+002
 21
2.1394E+002
  0
LINE
  8
V1L0
  6
CONTINUOUS
 62
40
 10
1.7504E+002
 20
2.1311E+002
 11
1.7504E+002
 21
2.1357E+002
  0
LINE
  8
V1L0
  6
CONTINUOUS
 62
40
 10
1.7641E+002
 20
2.1306E+002
 11
1.7641E+002
 21
2.1353E+002
  0
LINE
  8
V1L0
  6
CONTINUOUS
 62
40
 10
1.7609E+002
 20
2.1416E+002
 11
1.7609E+002
 21
2.1463E+002
  0
LINE
  8
V1L0
  6
CONTINUOUS
 62
40
 10
1.7504E+002
 20
2.1311E+002
 11
1.7609E+002
 21
2.1416E+002
  0
LINE
  8
V1L0
  6
CONTINUOUS
 62
40
 10
1.7425E+002
 20
2.142E+002
 11
1.7566E+002
 21
2.142E+002
  0
LINE
  8
V1L0
  6
CONTINUOUS
 62
40
 10
1.7823E+002
 20
2.1394E+002
 11
1.7849E+002
 21
2.142E+002
  0
LINE
  8
V1L0
  6
CONTINUOUS
 62
40
 10
1.7399E+002
 20
2.1394E+002
 11
1.7425E+002
 21
2.142E+002
  0
LINE
  8
V1L0
  6
CONTINUOUS
 62
40
 10
1.7399E+002
 20
2.1394E+002
 11
1.754E+002
 21
2.1394E+002
  0
LINE
  8
V1L0
  6
CONTINUOUS
 62
40
 10
1.754E+002
 20
2.1347E+002
 11
1.754E+002
 21
2.1394E+002
  0
LINE
  8
V1L0
  6
CONTINUOUS
 62
40
 10
1.7566E+002
 20
2.1373E+002
 11
1.7566E+002
 21
2.142E+002
  0
LINE
  8
V1L0
  6
CONTINUOUS
 62
40
 10
1.7682E+002
 20
2.1394E+002
 11
1.7823E+002
 21
2.1394E+002
  0
LINE
  8
V1L0
  6
CONTINUOUS
 62
40
 10
1.7708E+002
 20
2.142E+002
 11
1.7849E+002
 21
2.142E+002
  0
LINE
  8
V1L0
  6
CONTINUOUS
 62
40
 10
1.7566E+002
 20
2.142E+002
 11
1.7609E+002
 21
2.1463E+002
  0
LINE
  8
V1L0
  6
CONTINUOUS
 62
40
 10
1.7708E+002
 20
2.142E+002
 11
1.7746E+002
 21
2.1459E+002
  0
LINE
  8
V1L0
  6
CONTINUOUS
 62
40
 10
1.754E+002
 20
2.1373E+002
 11
1.7566E+002
 21
2.1373E+002
  0
LINE
  8
V1L0
  6
CONTINUOUS
 62
40
 10
1.7708E+002
 20
2.1394E+002
 11
1.7708E+002
 21
2.142E+002
  0
LINE
  8
V1L0
  6
CONTINUOUS
 62
40
 10
1.6425E+002
 20
1.9261E+002
 11
1.7125E+002
 21
1.9261E+002
  0
LINE
  8
V1L0
  6
CONTINUOUS
 62
40
 10
1.715E+002
 20
1.9405E+002
 11
1.715E+002
 21
1.9828E+002
  0
LINE
  8
V1L0
  6
CONTINUOUS
 62
40
 10
1.64E+002
 20
1.9261E+002
 11
1.64E+002
 21
1.9807E+002
  0
LINE
  8
V1L0
  6
CONTINUOUS
 62
40
 10
1.73E+002
 20
1.9261E+002
 11
1.73E+002
 21
1.9828E+002
  0
LINE
  8
V1L0
  6
CONTINUOUS
 62
40
 10
1.64E+002
 20
1.9261E+002
 11
1.73E+002
 21
1.9261E+002
  0
LINE
  8
V1L0
  6
CONTINUOUS
 62
40
 10
1.64E+002
 20
1.9405E+002
 11
1.715E+002
 21
1.9405E+002
  0
LINE
  8
V1L0
  6
CONTINUOUS
 62
40
 10
1.715E+002
 20
1.9697E+002
 11
1.73E+002
 21
1.9697E+002
  0
LINE
  8
V1L0
  6
CONTINUOUS
 62
40
 10
1.715E+002
 20
1.9828E+002
 11
1.73E+002
 21
1.9828E+002
  0
LINE
  8
V1L0
  6
CONTINUOUS
 62
40
 10
1.6449E+002
 20
1.9424E+002
 11
1.667E+002
 21
1.9506E+002
  0
LINE
  8
V1L0
  6
CONTINUOUS
 62
40
 10
1.688E+002
 20
1.9506E+002
 11
1.7101E+002
 21
1.9424E+002
  0
ARC
  8
V1L0
  6
CONTINUOUS
 62
40
 10
1.6775237E+002
 20
1.922484E+002
 40
3.0
 50
6.96E+001
 51
1.104E+002
  0
ARC
  8
V1L0
  6
CONTINUOUS
 62
40
 10
1.6775237E+002
 20
1.937484E+002
 40
3.0
 50
6.96E+001
 51
1.104E+002
  0
LINE
  8
V1L0
  6
CONTINUOUS
 62
40
 10
1.64E+002
 20
1.9555E+002
 11
1.667E+002
 21
1.9656E+002
  0
LINE
  8
V1L0
  6
CONTINUOUS
 62
40
 10
1.688E+002
 20
1.9656E+002
 11
1.715E+002
 21
1.9555E+002
  0
LINE
  8
V1L0
  6
CONTINUOUS
 62
40
 10
1.64E+002
 20
1.9807E+002
 11
1.6434E+002
 21
1.982E+002
  0
LINE
  8
V1L0
  6
CONTINUOUS
 62
40
 10
1.7116E+002
 20
1.982E+002
 11
1.715E+002
 21
1.9807E+002
  0
LINE
  8
V1L0
  6
CONTINUOUS
 62
40
 10
1.64E+002
 20
1.9555E+002
 11
1.6449E+002
 21
1.9424E+002
  0
LINE
  8
V1L0
  6
CONTINUOUS
 62
40
 10
1.7101E+002
 20
1.9424E+002
 11
1.715E+002
 21
1.9555E+002
  0
LINE
  8
V1L0
  6
CONTINUOUS
 62
40
 10
1.6434E+002
 20
1.982E+002
 11
1.6459E+002
 21
2.0052E+002
  0
LINE
  8
V1L0
  6
CONTINUOUS
 62
40
 10
1.7091E+002
 20
2.0052E+002
 11
1.7116E+002
 21
1.982E+002
  0
LINE
  8
V1L0
  6
CONTINUOUS
 62
40
 10
1.6718E+002
 20
2.0038E+002
 11
1.6759E+002
 21
1.9997E+002
  0
LINE
  8
V1L0
  6
CONTINUOUS
 62
40
 10
1.686E+002
 20
2.0038E+002
 11
1.6896E+002
 21
2.0001E+002
  0
LINE
  8
V1L0
  6
CONTINUOUS
 62
40
 10
1.6896E+002
 20
1.9955E+002
 11
1.6896E+002
 21
2.0001E+002
  0
LINE
  8
V1L0
  6
CONTINUOUS
 62
40
 10
1.6759E+002
 20
1.995E+002
 11
1.6759E+002
 21
1.9997E+002
  0
LINE
  8
V1L0
  6
CONTINUOUS
 62
40
 10
1.6791E+002
 20
2.006E+002
 11
1.6791E+002
 21
2.0107E+002
  0
LINE
  8
V1L0
  6
CONTINUOUS
 62
40
 10
1.6791E+002
 20
2.006E+002
 11
1.6896E+002
 21
1.9955E+002
  0
LINE
  8
V1L0
  6
CONTINUOUS
 62
40
 10
1.6834E+002
 20
2.0064E+002
 11
1.6975E+002
 21
2.0064E+002
  0
LINE
  8
V1L0
  6
CONTINUOUS
 62
40
 10
1.6551E+002
 20
2.0064E+002
 11
1.6577E+002
 21
2.0038E+002
  0
LINE
  8
V1L0
  6
CONTINUOUS
 62
40
 10
1.6975E+002
 20
2.0064E+002
 11
1.7001E+002
 21
2.0038E+002
  0
LINE
  8
V1L0
  6
CONTINUOUS
 62
40
 10
1.686E+002
 20
2.0038E+002
 11
1.7001E+002
 21
2.0038E+002
  0
LINE
  8
V1L0
  6
CONTINUOUS
 62
40
 10
1.686E+002
 20
1.9991E+002
 11
1.686E+002
 21
2.0038E+002
  0
LINE
  8
V1L0
  6
CONTINUOUS
 62
40
 10
1.6834E+002
 20
2.0017E+002
 11
1.6834E+002
 21
2.0064E+002
  0
LINE
  8
V1L0
  6
CONTINUOUS
 62
40
 10
1.6577E+002
 20
2.0038E+002
 11
1.6718E+002
 21
2.0038E+002
  0
LINE
  8
V1L0
  6
CONTINUOUS
 62
40
 10
1.6551E+002
 20
2.0064E+002
 11
1.6692E+002
 21
2.0064E+002
  0
LINE
  8
V1L0
  6
CONTINUOUS
 62
40
 10
1.6791E+002
 20
2.0107E+002
 11
1.6834E+002
 21
2.0064E+002
  0
LINE
  8
V1L0
  6
CONTINUOUS
 62
40
 10
1.6654E+002
 20
2.0103E+002
 11
1.6692E+002
 21
2.0064E+002
  0
LINE
  8
V1L0
  6
CONTINUOUS
 62
40
 10
1.6834E+002
 20
2.0017E+002
 11
1.686E+002
 21
2.0017E+002
  0
LINE
  8
V1L0
  6
CONTINUOUS
 62
40
 10
1.6692E+002
 20
2.0038E+002
 11
1.6692E+002
 21
2.0064E+002
  0
LINE
  8
V1L0
  6
CONTINUOUS
 62
40
 10
1.6625E+002
 20
1.9068E+002
 11
1.6625E+002
 21
1.9261E+002
  0
LINE
  8
V1L0
  6
CONTINUOUS
 62
40
 10
1.6925E+002
 20
1.9068E+002
 11
1.6925E+002
 21
1.9261E+002
  0
LINE
  8
V1L0
  6
CONTINUOUS
 62
40
 10
1.6868E+002
 20
1.9055E+002
 11
1.82E+002
 21
1.9055E+002
  0
LINE
  8
V1L0
  6
CONTINUOUS
 62
40
 10
1.7475E+002
 20
2.0424E+002
 11
1.7475E+002
 21
2.0617E+002
  0
LINE
  8
V1L0
  6
CONTINUOUS
 62
40
 10
1.7775E+002
 20
2.0424E+002
 11
1.7775E+002
 21
2.0617E+002
  0
LINE
  8
V1L0
  6
CONTINUOUS
 62
40
 10
2.04E+002
 20
1.6305E+002
 11
2.04E+002
 21
1.8805E+002
  0
LINE
  8
V1L0
  6
CONTINUOUS
 62
40
 10
1.84E+002
 20
1.8805E+002
 11
2.04E+002
 21
1.8805E+002
  0
LINE
  8
V1L0
  6
CONTINUOUS
 62
40
 10
1.84E+002
 20
1.6305E+002
 11
1.8882E+002
 21
1.6305E+002
  0
LINE
  8
V1L0
  6
CONTINUOUS
 62
40
 10
1.945E+002
 20
1.8011E+002
 11
1.945E+002
 21
1.8434E+002
  0
LINE
  8
V1L0
  6
CONTINUOUS
 62
40
 10
2.02E+002
 20
1.7867E+002
 11
2.02E+002
 21
1.8413E+002
  0
LINE
  8
V1L0
  6
CONTINUOUS
 62
40
 10
1.93E+002
 20
1.7867E+002
 11
1.93E+002
 21
1.8434E+002
  0
LINE
  8
V1L0
  6
CONTINUOUS
 62
40
 10
1.93E+002
 20
1.7867E+002
 11
2.02E+002
 21
1.7867E+002
  0
LINE
  8
V1L0
  6
CONTINUOUS
 62
40
 10
1.945E+002
 20
1.8011E+002
 11
2.02E+002
 21
1.8011E+002
  0
LINE
  8
V1L0
  6
CONTINUOUS
 62
40
 10
1.93E+002
 20
1.8303E+002
 11
1.945E+002
 21
1.8303E+002
  0
LINE
  8
V1L0
  6
CONTINUOUS
 62
40
 10
1.93E+002
 20
1.8434E+002
 11
1.945E+002
 21
1.8434E+002
  0
LINE
  8
V1L0
  6
CONTINUOUS
 62
40
 10
1.993E+002
 20
1.8112E+002
 11
2.0151E+002
 21
1.803E+002
  0
LINE
  8
V1L0
  6
CONTINUOUS
 62
40
 10
1.9499E+002
 20
1.803E+002
 11
1.972E+002
 21
1.8112E+002
  0
ARC
  8
V1L0
  6
CONTINUOUS
 62
40
 10
1.9825237E+002
 20
1.783084E+002
 40
3.0
 50
6.96E+001
 51
1.104E+002
  0
ARC
  8
V1L0
  6
CONTINUOUS
 62
40
 10
1.9825237E+002
 20
1.798084E+002
 40
3.0
 50
6.96E+001
 51
1.104E+002
  0
LINE
  8
V1L0
  6
CONTINUOUS
 62
40
 10
1.993E+002
 20
1.8262E+002
 11
2.02E+002
 21
1.8161E+002
  0
LINE
  8
V1L0
  6
CONTINUOUS
 62
40
 10
1.945E+002
 20
1.8161E+002
 11
1.972E+002
 21
1.8262E+002
  0
LINE
  8
V1L0
  6
CONTINUOUS
 62
40
 10
2.0166E+002
 20
1.8426E+002
 11
2.02E+002
 21
1.8413E+002
  0
LINE
  8
V1L0
  6
CONTINUOUS
 62
40
 10
1.945E+002
 20
1.8413E+002
 11
1.9484E+002
 21
1.8426E+002
  0
LINE
  8
V1L0
  6
CONTINUOUS
 62
40
 10
2.0151E+002
 20
1.803E+002
 11
2.02E+002
 21
1.8161E+002
  0
LINE
  8
V1L0
  6
CONTINUOUS
 62
40
 10
1.945E+002
 20
1.8161E+002
 11
1.9499E+002
 21
1.803E+002
  0
LINE
  8
V1L0
  6
CONTINUOUS
 62
40
 10
2.0141E+002
 20
1.8658E+002
 11
2.0166E+002
 21
1.8426E+002
  0
LINE
  8
V1L0
  6
CONTINUOUS
 62
40
 10
1.9484E+002
 20
1.8426E+002
 11
1.9509E+002
 21
1.8658E+002
  0
LINE
  8
V1L0
  6
CONTINUOUS
 62
40
 10
1.9841E+002
 20
1.8603E+002
 11
1.9882E+002
 21
1.8644E+002
  0
LINE
  8
V1L0
  6
CONTINUOUS
 62
40
 10
1.9704E+002
 20
1.8607E+002
 11
1.974E+002
 21
1.8644E+002
  0
LINE
  8
V1L0
  6
CONTINUOUS
 62
40
 10
1.9704E+002
 20
1.8561E+002
 11
1.9704E+002
 21
1.8607E+002
  0
LINE
  8
V1L0
  6
CONTINUOUS
 62
40
 10
1.9841E+002
 20
1.8556E+002
 11
1.9841E+002
 21
1.8603E+002
  0
LINE
  8
V1L0
  6
CONTINUOUS
 62
40
 10
1.9809E+002
 20
1.8666E+002
 11
1.9809E+002
 21
1.8713E+002
  0
LINE
  8
V1L0
  6
CONTINUOUS
 62
40
 10
1.9704E+002
 20
1.8561E+002
 11
1.9809E+002
 21
1.8666E+002
  0
LINE
  8
V1L0
  6
CONTINUOUS
 62
40
 10
1.9625E+002
 20
1.867E+002
 11
1.9766E+002
 21
1.867E+002
  0
LINE
  8
V1L0
  6
CONTINUOUS
 62
40
 10
2.0023E+002
 20
1.8644E+002
 11
2.0049E+002
 21
1.867E+002
  0
LINE
  8
V1L0
  6
CONTINUOUS
 62
40
 10
1.9599E+002
 20
1.8644E+002
 11
1.9625E+002
 21
1.867E+002
  0
LINE
  8
V1L0
  6
CONTINUOUS
 62
40
 10
1.9599E+002
 20
1.8644E+002
 11
1.974E+002
 21
1.8644E+002
  0
LINE
  8
V1L0
  6
CONTINUOUS
 62
40
 10
1.974E+002
 20
1.8597E+002
 11
1.974E+002
 21
1.8644E+002
  0
LINE
  8
V1L0
  6
CONTINUOUS
 62
40
 10
1.9766E+002
 20
1.8623E+002
 11
1.9766E+002
 21
1.867E+002
  0
LINE
  8
V1L0
  6
CONTINUOUS
 62
40
 10
1.9882E+002
 20
1.8644E+002
 11
2.0023E+002
 21
1.8644E+002
  0
LINE
  8
V1L0
  6
CONTINUOUS
 62
40
 10
1.9908E+002
 20
1.867E+002
 11
2.0049E+002
 21
1.867E+002
  0
LINE
  8
V1L0
  6
CONTINUOUS
 62
40
 10
1.9766E+002
 20
1.867E+002
 11
1.9809E+002
 21
1.8713E+002
  0
LINE
  8
V1L0
  6
CONTINUOUS
 62
40
 10
1.9908E+002
 20
1.867E+002
 11
1.9946E+002
 21
1.8709E+002
  0
LINE
  8
V1L0
  6
CONTINUOUS
 62
40
 10
1.974E+002
 20
1.8623E+002
 11
1.9766E+002
 21
1.8623E+002
  0
LINE
  8
V1L0
  6
CONTINUOUS
 62
40
 10
1.9908E+002
 20
1.8644E+002
 11
1.9908E+002
 21
1.867E+002
  0
LINE
  8
V1L0
  6
CONTINUOUS
 62
40
 10
1.8625E+002
 20
1.6511E+002
 11
1.9325E+002
 21
1.6511E+002
  0
LINE
  8
V1L0
  6
CONTINUOUS
 62
40
 10
1.935E+002
 20
1.6655E+002
 11
1.935E+002
 21
1.7078E+002
  0
LINE
  8
V1L0
  6
CONTINUOUS
 62
40
 10
1.86E+002
 20
1.6511E+002
 11
1.86E+002
 21
1.7057E+002
  0
LINE
  8
V1L0
  6
CONTINUOUS
 62
40
 10
1.95E+002
 20
1.6511E+002
 11
1.95E+002
 21
1.7078E+002
  0
LINE
  8
V1L0
  6
CONTINUOUS
 62
40
 10
1.86E+002
 20
1.6511E+002
 11
1.95E+002
 21
1.6511E+002
  0
LINE
  8
V1L0
  6
CONTINUOUS
 62
40
 10
1.86E+002
 20
1.6655E+002
 11
1.935E+002
 21
1.6655E+002
  0
LINE
  8
V1L0
  6
CONTINUOUS
 62
40
 10
1.935E+002
 20
1.6947E+002
 11
1.95E+002
 21
1.6947E+002
  0
LINE
  8
V1L0
  6
CONTINUOUS
 62
40
 10
1.935E+002
 20
1.7078E+002
 11
1.95E+002
 21
1.7078E+002
  0
LINE
  8
V1L0
  6
CONTINUOUS
 62
40
 10
1.8649E+002
 20
1.6674E+002
 11
1.887E+002
 21
1.6756E+002
  0
LINE
  8
V1L0
  6
CONTINUOUS
 62
40
 10
1.908E+002
 20
1.6756E+002
 11
1.9301E+002
 21
1.6674E+002
  0
ARC
  8
V1L0
  6
CONTINUOUS
 62
40
 10
1.8975237E+002
 20
1.647484E+002
 40
3.0
 50
6.96E+001
 51
1.104E+002
  0
ARC
  8
V1L0
  6
CONTINUOUS
 62
40
 10
1.8975237E+002
 20
1.662484E+002
 40
3.0
 50
6.96E+001
 51
1.104E+002
  0
LINE
  8
V1L0
  6
CONTINUOUS
 62
40
 10
1.86E+002
 20
1.6805E+002
 11
1.887E+002
 21
1.6906E+002
  0
LINE
  8
V1L0
  6
CONTINUOUS
 62
40
 10
1.908E+002
 20
1.6906E+002
 11
1.935E+002
 21
1.6805E+002
  0
LINE
  8
V1L0
  6
CONTINUOUS
 62
40
 10
1.86E+002
 20
1.7057E+002
 11
1.8634E+002
 21
1.707E+002
  0
LINE
  8
V1L0
  6
CONTINUOUS
 62
40
 10
1.9316E+002
 20
1.707E+002
 11
1.935E+002
 21
1.7057E+002
  0
LINE
  8
V1L0
  6
CONTINUOUS
 62
40
 10
1.86E+002
 20
1.6805E+002
 11
1.8649E+002
 21
1.6674E+002
  0
LINE
  8
V1L0
  6
CONTINUOUS
 62
40
 10
1.9301E+002
 20
1.6674E+002
 11
1.935E+002
 21
1.6805E+002
  0
LINE
  8
V1L0
  6
CONTINUOUS
 62
40
 10
1.8634E+002
 20
1.707E+002
 11
1.8659E+002
 21
1.7302E+002
  0
LINE
  8
V1L0
  6
CONTINUOUS
 62
40
 10
1.9291E+002
 20
1.7302E+002
 11
1.9316E+002
 21
1.707E+002
  0
LINE
  8
V1L0
  6
CONTINUOUS
 62
40
 10
1.8918E+002
 20
1.7288E+002
 11
1.8959E+002
 21
1.7247E+002
  0
LINE
  8
V1L0
  6
CONTINUOUS
 62
40
 10
1.906E+002
 20
1.7288E+002
 11
1.9096E+002
 21
1.7251E+002
  0
LINE
  8
V1L0
  6
CONTINUOUS
 62
40
 10
1.9096E+002
 20
1.7205E+002
 11
1.9096E+002
 21
1.7251E+002
  0
LINE
  8
V1L0
  6
CONTINUOUS
 62
40
 10
1.8959E+002
 20
1.72E+002
 11
1.8959E+002
 21
1.7247E+002
  0
LINE
  8
V1L0
  6
CONTINUOUS
 62
40
 10
1.8991E+002
 20
1.731E+002
 11
1.8991E+002
 21
1.7357E+002
  0
LINE
  8
V1L0
  6
CONTINUOUS
 62
40
 10
1.8991E+002
 20
1.731E+002
 11
1.9096E+002
 21
1.7205E+002
  0
LINE
  8
V1L0
  6
CONTINUOUS
 62
40
 10
1.9034E+002
 20
1.7314E+002
 11
1.9175E+002
 21
1.7314E+002
  0
LINE
  8
V1L0
  6
CONTINUOUS
 62
40
 10
1.8751E+002
 20
1.7314E+002
 11
1.8777E+002
 21
1.7288E+002
  0
LINE
  8
V1L0
  6
CONTINUOUS
 62
40
 10
1.9175E+002
 20
1.7314E+002
 11
1.9201E+002
 21
1.7288E+002
  0
LINE
  8
V1L0
  6
CONTINUOUS
 62
40
 10
1.906E+002
 20
1.7288E+002
 11
1.9201E+002
 21
1.7288E+002
  0
LINE
  8
V1L0
  6
CONTINUOUS
 62
40
 10
1.906E+002
 20
1.7241E+002
 11
1.906E+002
 21
1.7288E+002
  0
LINE
  8
V1L0
  6
CONTINUOUS
 62
40
 10
1.9034E+002
 20
1.7267E+002
 11
1.9034E+002
 21
1.7314E+002
  0
LINE
  8
V1L0
  6
CONTINUOUS
 62
40
 10
1.8777E+002
 20
1.7288E+002
 11
1.8918E+002
 21
1.7288E+002
  0
LINE
  8
V1L0
  6
CONTINUOUS
 62
40
 10
1.8751E+002
 20
1.7314E+002
 11
1.8892E+002
 21
1.7314E+002
  0
LINE
  8
V1L0
  6
CONTINUOUS
 62
40
 10
1.8991E+002
 20
1.7357E+002
 11
1.9034E+002
 21
1.7314E+002
  0
LINE
  8
V1L0
  6
CONTINUOUS
 62
40
 10
1.8854E+002
 20
1.7353E+002
 11
1.8892E+002
 21
1.7314E+002
  0
LINE
  8
V1L0
  6
CONTINUOUS
 62
40
 10
1.9034E+002
 20
1.7267E+002
 11
1.906E+002
 21
1.7267E+002
  0
LINE
  8
V1L0
  6
CONTINUOUS
 62
40
 10
1.8892E+002
 20
1.7288E+002
 11
1.8892E+002
 21
1.7314E+002
  0
LINE
  8
V1L0
  6
CONTINUOUS
 62
40
 10
1.8825E+002
 20
1.6318E+002
 11
1.8825E+002
 21
1.6511E+002
  0
LINE
  8
V1L0
  6
CONTINUOUS
 62
40
 10
1.9125E+002
 20
1.6318E+002
 11
1.9125E+002
 21
1.6511E+002
  0
LINE
  8
V1L0
  6
CONTINUOUS
 62
40
 10
1.9068E+002
 20
1.6305E+002
 11
2.04E+002
 21
1.6305E+002
  0
LINE
  8
V1L0
  6
CONTINUOUS
 62
40
 10
1.9675E+002
 20
1.7674E+002
 11
1.9675E+002
 21
1.7867E+002
  0
LINE
  8
V1L0
  6
CONTINUOUS
 62
40
 10
1.9975E+002
 20
1.7674E+002
 11
1.9975E+002
 21
1.7867E+002
  0
LINE
  8
V1L0
  6
CONTINUOUS
 62
40
 10
1.62E+002
 20
1.8805E+002
 11
1.82E+002
 21
1.8805E+002
  0
LINE
  8
V1L0
  6
CONTINUOUS
 62
40
 10
1.62E+002
 20
1.6305E+002
 11
1.6682E+002
 21
1.6305E+002
  0
LINE
  8
V1L0
  6
CONTINUOUS
 62
40
 10
1.725E+002
 20
1.8011E+002
 11
1.725E+002
 21
1.8434E+002
  0
LINE
  8
V1L0
  6
CONTINUOUS
 62
40
 10
1.8E+002
 20
1.7867E+002
 11
1.8E+002
 21
1.8413E+002
  0
LINE
  8
V1L0
  6
CONTINUOUS
 62
40
 10
1.71E+002
 20
1.7867E+002
 11
1.71E+002
 21
1.8434E+002
  0
LINE
  8
V1L0
  6
CONTINUOUS
 62
40
 10
1.71E+002
 20
1.7867E+002
 11
1.8E+002
 21
1.7867E+002
  0
LINE
  8
V1L0
  6
CONTINUOUS
 62
40
 10
1.725E+002
 20
1.8011E+002
 11
1.8E+002
 21
1.8011E+002
  0
LINE
  8
V1L0
  6
CONTINUOUS
 62
40
 10
1.71E+002
 20
1.8303E+002
 11
1.725E+002
 21
1.8303E+002
  0
LINE
  8
V1L0
  6
CONTINUOUS
 62
40
 10
1.71E+002
 20
1.8434E+002
 11
1.725E+002
 21
1.8434E+002
  0
LINE
  8
V1L0
  6
CONTINUOUS
 62
40
 10
1.773E+002
 20
1.8112E+002
 11
1.7951E+002
 21
1.803E+002
  0
LINE
  8
V1L0
  6
CONTINUOUS
 62
40
 10
1.7299E+002
 20
1.803E+002
 11
1.752E+002
 21
1.8112E+002
  0
ARC
  8
V1L0
  6
CONTINUOUS
 62
40
 10
1.7625237E+002
 20
1.783084E+002
 40
3.0
 50
6.96E+001
 51
1.104E+002
  0
ARC
  8
V1L0
  6
CONTINUOUS
 62
40
 10
1.7625237E+002
 20
1.798084E+002
 40
3.0
 50
6.96E+001
 51
1.104E+002
  0
LINE
  8
V1L0
  6
CONTINUOUS
 62
40
 10
1.773E+002
 20
1.8262E+002
 11
1.8E+002
 21
1.8161E+002
  0
LINE
  8
V1L0
  6
CONTINUOUS
 62
40
 10
1.725E+002
 20
1.8161E+002
 11
1.752E+002
 21
1.8262E+002
  0
LINE
  8
V1L0
  6
CONTINUOUS
 62
40
 10
1.7966E+002
 20
1.8426E+002
 11
1.8E+002
 21
1.8413E+002
  0
LINE
  8
V1L0
  6
CONTINUOUS
 62
40
 10
1.725E+002
 20
1.8413E+002
 11
1.7284E+002
 21
1.8426E+002
  0
LINE
  8
V1L0
  6
CONTINUOUS
 62
40
 10
1.7951E+002
 20
1.803E+002
 11
1.8E+002
 21
1.8161E+002
  0
LINE
  8
V1L0
  6
CONTINUOUS
 62
40
 10
1.725E+002
 20
1.8161E+002
 11
1.7299E+002
 21
1.803E+002
  0
LINE
  8
V1L0
  6
CONTINUOUS
 62
40
 10
1.7941E+002
 20
1.8658E+002
 11
1.7966E+002
 21
1.8426E+002
  0
LINE
  8
V1L0
  6
CONTINUOUS
 62
40
 10
1.7284E+002
 20
1.8426E+002
 11
1.7309E+002
 21
1.8658E+002
  0
LINE
  8
V1L0
  6
CONTINUOUS
 62
40
 10
1.7641E+002
 20
1.8603E+002
 11
1.7682E+002
 21
1.8644E+002
  0
LINE
  8
V1L0
  6
CONTINUOUS
 62
40
 10
1.7504E+002
 20
1.8607E+002
 11
1.754E+002
 21
1.8644E+002
  0
LINE
  8
V1L0
  6
CONTINUOUS
 62
40
 10
1.7504E+002
 20
1.8561E+002
 11
1.7504E+002
 21
1.8607E+002
  0
LINE
  8
V1L0
  6
CONTINUOUS
 62
40
 10
1.7641E+002
 20
1.8556E+002
 11
1.7641E+002
 21
1.8603E+002
  0
LINE
  8
V1L0
  6
CONTINUOUS
 62
40
 10
1.7609E+002
 20
1.8666E+002
 11
1.7609E+002
 21
1.8713E+002
  0
LINE
  8
V1L0
  6
CONTINUOUS
 62
40
 10
1.7504E+002
 20
1.8561E+002
 11
1.7609E+002
 21
1.8666E+002
  0
LINE
  8
V1L0
  6
CONTINUOUS
 62
40
 10
1.7425E+002
 20
1.867E+002
 11
1.7566E+002
 21
1.867E+002
  0
LINE
  8
V1L0
  6
CONTINUOUS
 62
40
 10
1.7823E+002
 20
1.8644E+002
 11
1.7849E+002
 21
1.867E+002
  0
LINE
  8
V1L0
  6
CONTINUOUS
 62
40
 10
1.7399E+002
 20
1.8644E+002
 11
1.7425E+002
 21
1.867E+002
  0
LINE
  8
V1L0
  6
CONTINUOUS
 62
40
 10
1.7399E+002
 20
1.8644E+002
 11
1.754E+002
 21
1.8644E+002
  0
LINE
  8
V1L0
  6
CONTINUOUS
 62
40
 10
1.754E+002
 20
1.8597E+002
 11
1.754E+002
 21
1.8644E+002
  0
LINE
  8
V1L0
  6
CONTINUOUS
 62
40
 10
1.7566E+002
 20
1.8623E+002
 11
1.7566E+002
 21
1.867E+002
  0
LINE
  8
V1L0
  6
CONTINUOUS
 62
40
 10
1.7682E+002
 20
1.8644E+002
 11
1.7823E+002
 21
1.8644E+002
  0
LINE
  8
V1L0
  6
CONTINUOUS
 62
40
 10
1.7708E+002
 20
1.867E+002
 11
1.7849E+002
 21
1.867E+002
  0
LINE
  8
V1L0
  6
CONTINUOUS
 62
40
 10
1.7566E+002
 20
1.867E+002
 11
1.7609E+002
 21
1.8713E+002
  0
LINE
  8
V1L0
  6
CONTINUOUS
 62
40
 10
1.7708E+002
 20
1.867E+002
 11
1.7746E+002
 21
1.8709E+002
  0
LINE
  8
V1L0
  6
CONTINUOUS
 62
40
 10
1.754E+002
 20
1.8623E+002
 11
1.7566E+002
 21
1.8623E+002
  0
LINE
  8
V1L0
  6
CONTINUOUS
 62
40
 10
1.7708E+002
 20
1.8644E+002
 11
1.7708E+002
 21
1.867E+002
  0
LINE
  8
V1L0
  6
CONTINUOUS
 62
40
 10
1.6425E+002
 20
1.6511E+002
 11
1.7125E+002
 21
1.6511E+002
  0
LINE
  8
V1L0
  6
CONTINUOUS
 62
40
 10
1.715E+002
 20
1.6655E+002
 11
1.715E+002
 21
1.7078E+002
  0
LINE
  8
V1L0
  6
CONTINUOUS
 62
40
 10
1.64E+002
 20
1.6511E+002
 11
1.64E+002
 21
1.7057E+002
  0
LINE
  8
V1L0
  6
CONTINUOUS
 62
40
 10
1.73E+002
 20
1.6511E+002
 11
1.73E+002
 21
1.7078E+002
  0
LINE
  8
V1L0
  6
CONTINUOUS
 62
40
 10
1.64E+002
 20
1.6511E+002
 11
1.73E+002
 21
1.6511E+002
  0
LINE
  8
V1L0
  6
CONTINUOUS
 62
40
 10
1.64E+002
 20
1.6655E+002
 11
1.715E+002
 21
1.6655E+002
  0
LINE
  8
V1L0
  6
CONTINUOUS
 62
40
 10
1.715E+002
 20
1.6947E+002
 11
1.73E+002
 21
1.6947E+002
  0
LINE
  8
V1L0
  6
CONTINUOUS
 62
40
 10
1.715E+002
 20
1.7078E+002
 11
1.73E+002
 21
1.7078E+002
  0
LINE
  8
V1L0
  6
CONTINUOUS
 62
40
 10
1.6449E+002
 20
1.6674E+002
 11
1.667E+002
 21
1.6756E+002
  0
LINE
  8
V1L0
  6
CONTINUOUS
 62
40
 10
1.688E+002
 20
1.6756E+002
 11
1.7101E+002
 21
1.6674E+002
  0
ARC
  8
V1L0
  6
CONTINUOUS
 62
40
 10
1.6775237E+002
 20
1.647484E+002
 40
3.0
 50
6.96E+001
 51
1.104E+002
  0
ARC
  8
V1L0
  6
CONTINUOUS
 62
40
 10
1.6775237E+002
 20
1.662484E+002
 40
3.0
 50
6.96E+001
 51
1.104E+002
  0
LINE
  8
V1L0
  6
CONTINUOUS
 62
40
 10
1.64E+002
 20
1.6805E+002
 11
1.667E+002
 21
1.6906E+002
  0
LINE
  8
V1L0
  6
CONTINUOUS
 62
40
 10
1.688E+002
 20
1.6906E+002
 11
1.715E+002
 21
1.6805E+002
  0
LINE
  8
V1L0
  6
CONTINUOUS
 62
40
 10
1.64E+002
 20
1.7057E+002
 11
1.6434E+002
 21
1.707E+002
  0
LINE
  8
V1L0
  6
CONTINUOUS
 62
40
 10
1.7116E+002
 20
1.707E+002
 11
1.715E+002
 21
1.7057E+002
  0
LINE
  8
V1L0
  6
CONTINUOUS
 62
40
 10
1.64E+002
 20
1.6805E+002
 11
1.6449E+002
 21
1.6674E+002
  0
LINE
  8
V1L0
  6
CONTINUOUS
 62
40
 10
1.7101E+002
 20
1.6674E+002
 11
1.715E+002
 21
1.6805E+002
  0
LINE
  8
V1L0
  6
CONTINUOUS
 62
40
 10
1.6434E+002
 20
1.707E+002
 11
1.6459E+002
 21
1.7302E+002
  0
LINE
  8
V1L0
  6
CONTINUOUS
 62
40
 10
1.7091E+002
 20
1.7302E+002
 11
1.7116E+002
 21
1.707E+002
  0
LINE
  8
V1L0
  6
CONTINUOUS
 62
40
 10
1.6718E+002
 20
1.7288E+002
 11
1.6759E+002
 21
1.7247E+002
  0
LINE
  8
V1L0
  6
CONTINUOUS
 62
40
 10
1.686E+002
 20
1.7288E+002
 11
1.6896E+002
 21
1.7251E+002
  0
LINE
  8
V1L0
  6
CONTINUOUS
 62
40
 10
1.6896E+002
 20
1.7205E+002
 11
1.6896E+002
 21
1.7251E+002
  0
LINE
  8
V1L0
  6
CONTINUOUS
 62
40
 10
1.6759E+002
 20
1.72E+002
 11
1.6759E+002
 21
1.7247E+002
  0
LINE
  8
V1L0
  6
CONTINUOUS
 62
40
 10
1.6791E+002
 20
1.731E+002
 11
1.6791E+002
 21
1.7357E+002
  0
LINE
  8
V1L0
  6
CONTINUOUS
 62
40
 10
1.6791E+002
 20
1.731E+002
 11
1.6896E+002
 21
1.7205E+002
  0
LINE
  8
V1L0
  6
CONTINUOUS
 62
40
 10
1.6834E+002
 20
1.7314E+002
 11
1.6975E+002
 21
1.7314E+002
  0
LINE
  8
V1L0
  6
CONTINUOUS
 62
40
 10
1.6551E+002
 20
1.7314E+002
 11
1.6577E+002
 21
1.7288E+002
  0
LINE
  8
V1L0
  6
CONTINUOUS
 62
40
 10
1.6975E+002
 20
1.7314E+002
 11
1.7001E+002
 21
1.7288E+002
  0
LINE
  8
V1L0
  6
CONTINUOUS
 62
40
 10
1.686E+002
 20
1.7288E+002
 11
1.7001E+002
 21
1.7288E+002
  0
LINE
  8
V1L0
  6
CONTINUOUS
 62
40
 10
1.686E+002
 20
1.7241E+002
 11
1.686E+002
 21
1.7288E+002
  0
LINE
  8
V1L0
  6
CONTINUOUS
 62
40
 10
1.6834E+002
 20
1.7267E+002
 11
1.6834E+002
 21
1.7314E+002
  0
LINE
  8
V1L0
  6
CONTINUOUS
 62
40
 10
1.6577E+002
 20
1.7288E+002
 11
1.6718E+002
 21
1.7288E+002
  0
LINE
  8
V1L0
  6
CONTINUOUS
 62
40
 10
1.6551E+002
 20
1.7314E+002
 11
1.6692E+002
 21
1.7314E+002
  0
LINE
  8
V1L0
  6
CONTINUOUS
 62
40
 10
1.6791E+002
 20
1.7357E+002
 11
1.6834E+002
 21
1.7314E+002
  0
LINE
  8
V1L0
  6
CONTINUOUS
 62
40
 10
1.6654E+002
 20
1.7353E+002
 11
1.6692E+002
 21
1.7314E+002
  0
LINE
  8
V1L0
  6
CONTINUOUS
 62
40
 10
1.6834E+002
 20
1.7267E+002
 11
1.686E+002
 21
1.7267E+002
  0
LINE
  8
V1L0
  6
CONTINUOUS
 62
40
 10
1.6692E+002
 20
1.7288E+002
 11
1.6692E+002
 21
1.7314E+002
  0
LINE
  8
V1L0
  6
CONTINUOUS
 62
40
 10
1.6625E+002
 20
1.6318E+002
 11
1.6625E+002
 21
1.6511E+002
  0
LINE
  8
V1L0
  6
CONTINUOUS
 62
40
 10
1.6925E+002
 20
1.6318E+002
 11
1.6925E+002
 21
1.6511E+002
  0
LINE
  8
V1L0
  6
CONTINUOUS
 62
40
 10
1.6868E+002
 20
1.6305E+002
 11
1.82E+002
 21
1.6305E+002
  0
LINE
  8
V1L0
  6
CONTINUOUS
 62
40
 10
1.7475E+002
 20
1.7674E+002
 11
1.7475E+002
 21
1.7867E+002
  0
LINE
  8
V1L0
  6
CONTINUOUS
 62
40
 10
1.7775E+002
 20
1.7674E+002
 11
1.7775E+002
 21
1.7867E+002
  0
LINE
  8
V1L0
  6
CONTINUOUS
 62
40
 10
2.04E+002
 20
2.1805E+002
 11
2.04E+002
 21
2.4305E+002
  0
LINE
  8
V1L0
  6
CONTINUOUS
 62
40
 10
1.82E+002
 20
2.4305E+002
 11
1.84E+002
 21
2.4305E+002
  0
LINE
  8
V1L0
  6
CONTINUOUS
 62
40
 10
1.84E+002
 20
2.1805E+002
 11
1.8882E+002
 21
2.1805E+002
  0
LINE
  8
V1L0
  6
CONTINUOUS
 62
40
 10
1.945E+002
 20
2.3511E+002
 11
1.945E+002
 21
2.3934E+002
  0
LINE
  8
V1L0
  6
CONTINUOUS
 62
40
 10
2.02E+002
 20
2.3367E+002
 11
2.02E+002
 21
2.3913E+002
  0
LINE
  8
V1L0
  6
CONTINUOUS
 62
40
 10
1.93E+002
 20
2.3367E+002
 11
1.93E+002
 21
2.3934E+002
  0
LINE
  8
V1L0
  6
CONTINUOUS
 62
40
 10
1.93E+002
 20
2.3367E+002
 11
2.02E+002
 21
2.3367E+002
  0
LINE
  8
V1L0
  6
CONTINUOUS
 62
40
 10
1.945E+002
 20
2.3511E+002
 11
2.02E+002
 21
2.3511E+002
  0
LINE
  8
V1L0
  6
CONTINUOUS
 62
40
 10
1.93E+002
 20
2.3803E+002
 11
1.945E+002
 21
2.3803E+002
  0
LINE
  8
V1L0
  6
CONTINUOUS
 62
40
 10
1.93E+002
 20
2.3934E+002
 11
1.945E+002
 21
2.3934E+002
  0
LINE
  8
V1L0
  6
CONTINUOUS
 62
40
 10
1.993E+002
 20
2.3612E+002
 11
2.0151E+002
 21
2.353E+002
  0
LINE
  8
V1L0
  6
CONTINUOUS
 62
40
 10
1.9499E+002
 20
2.353E+002
 11
1.972E+002
 21
2.3612E+002
  0
ARC
  8
V1L0
  6
CONTINUOUS
 62
40
 10
1.9825237E+002
 20
2.333084E+002
 40
3.0
 50
6.96E+001
 51
1.104E+002
  0
ARC
  8
V1L0
  6
CONTINUOUS
 62
40
 10
1.9825237E+002
 20
2.348084E+002
 40
3.0
 50
6.96E+001
 51
1.104E+002
  0
LINE
  8
V1L0
  6
CONTINUOUS
 62
40
 10
1.993E+002
 20
2.3762E+002
 11
2.02E+002
 21
2.3661E+002
  0
LINE
  8
V1L0
  6
CONTINUOUS
 62
40
 10
1.945E+002
 20
2.3661E+002
 11
1.972E+002
 21
2.3762E+002
  0
LINE
  8
V1L0
  6
CONTINUOUS
 62
40
 10
2.0166E+002
 20
2.3926E+002
 11
2.02E+002
 21
2.3913E+002
  0
LINE
  8
V1L0
  6
CONTINUOUS
 62
40
 10
1.945E+002
 20
2.3913E+002
 11
1.9484E+002
 21
2.3926E+002
  0
LINE
  8
V1L0
  6
CONTINUOUS
 62
40
 10
2.0151E+002
 20
2.353E+002
 11
2.02E+002
 21
2.3661E+002
  0
LINE
  8
V1L0
  6
CONTINUOUS
 62
40
 10
1.945E+002
 20
2.3661E+002
 11
1.9499E+002
 21
2.353E+002
  0
LINE
  8
V1L0
  6
CONTINUOUS
 62
40
 10
2.0141E+002
 20
2.4158E+002
 11
2.0166E+002
 21
2.3926E+002
  0
LINE
  8
V1L0
  6
CONTINUOUS
 62
40
 10
1.9484E+002
 20
2.3926E+002
 11
1.9509E+002
 21
2.4158E+002
  0
LINE
  8
V1L0
  6
CONTINUOUS
 62
40
 10
1.9841E+002
 20
2.4103E+002
 11
1.9882E+002
 21
2.4144E+002
  0
LINE
  8
V1L0
  6
CONTINUOUS
 62
40
 10
1.9704E+002
 20
2.4107E+002
 11
1.974E+002
 21
2.4144E+002
  0
LINE
  8
V1L0
  6
CONTINUOUS
 62
40
 10
1.9704E+002
 20
2.4061E+002
 11
1.9704E+002
 21
2.4107E+002
  0
LINE
  8
V1L0
  6
CONTINUOUS
 62
40
 10
1.9841E+002
 20
2.4056E+002
 11
1.9841E+002
 21
2.4103E+002
  0
LINE
  8
V1L0
  6
CONTINUOUS
 62
40
 10
1.9809E+002
 20
2.4166E+002
 11
1.9809E+002
 21
2.4213E+002
  0
LINE
  8
V1L0
  6
CONTINUOUS
 62
40
 10
1.9704E+002
 20
2.4061E+002
 11
1.9809E+002
 21
2.4166E+002
  0
LINE
  8
V1L0
  6
CONTINUOUS
 62
40
 10
1.9625E+002
 20
2.417E+002
 11
1.9766E+002
 21
2.417E+002
  0
LINE
  8
V1L0
  6
CONTINUOUS
 62
40
 10
2.0023E+002
 20
2.4144E+002
 11
2.0049E+002
 21
2.417E+002
  0
LINE
  8
V1L0
  6
CONTINUOUS
 62
40
 10
1.9599E+002
 20
2.4144E+002
 11
1.9625E+002
 21
2.417E+002
  0
LINE
  8
V1L0
  6
CONTINUOUS
 62
40
 10
1.9599E+002
 20
2.4144E+002
 11
1.974E+002
 21
2.4144E+002
  0
LINE
  8
V1L0
  6
CONTINUOUS
 62
40
 10
1.974E+002
 20
2.4097E+002
 11
1.974E+002
 21
2.4144E+002
  0
LINE
  8
V1L0
  6
CONTINUOUS
 62
40
 10
1.9766E+002
 20
2.4123E+002
 11
1.9766E+002
 21
2.417E+002
  0
LINE
  8
V1L0
  6
CONTINUOUS
 62
40
 10
1.9882E+002
 20
2.4144E+002
 11
2.0023E+002
 21
2.4144E+002
  0
LINE
  8
V1L0
  6
CONTINUOUS
 62
40
 10
1.9908E+002
 20
2.417E+002
 11
2.0049E+002
 21
2.417E+002
  0
LINE
  8
V1L0
  6
CONTINUOUS
 62
40
 10
1.9766E+002
 20
2.417E+002
 11
1.9809E+002
 21
2.4213E+002
  0
LINE
  8
V1L0
  6
CONTINUOUS
 62
40
 10
1.9908E+002
 20
2.417E+002
 11
1.9946E+002
 21
2.4209E+002
  0
LINE
  8
V1L0
  6
CONTINUOUS
 62
40
 10
1.974E+002
 20
2.4123E+002
 11
1.9766E+002
 21
2.4123E+002
  0
LINE
  8
V1L0
  6
CONTINUOUS
 62
40
 10
1.9908E+002
 20
2.4144E+002
 11
1.9908E+002
 21
2.417E+002
  0
LINE
  8
V1L0
  6
CONTINUOUS
 62
40
 10
1.8625E+002
 20
2.2011E+002
 11
1.9325E+002
 21
2.2011E+002
  0
LINE
  8
V1L0
  6
CONTINUOUS
 62
40
 10
1.935E+002
 20
2.2155E+002
 11
1.935E+002
 21
2.2578E+002
  0
LINE
  8
V1L0
  6
CONTINUOUS
 62
40
 10
1.86E+002
 20
2.2011E+002
 11
1.86E+002
 21
2.2557E+002
  0
LINE
  8
V1L0
  6
CONTINUOUS
 62
40
 10
1.95E+002
 20
2.2011E+002
 11
1.95E+002
 21
2.2578E+002
  0
LINE
  8
V1L0
  6
CONTINUOUS
 62
40
 10
1.86E+002
 20
2.2011E+002
 11
1.95E+002
 21
2.2011E+002
  0
LINE
  8
V1L0
  6
CONTINUOUS
 62
40
 10
1.86E+002
 20
2.2155E+002
 11
1.935E+002
 21
2.2155E+002
  0
LINE
  8
V1L0
  6
CONTINUOUS
 62
40
 10
1.935E+002
 20
2.2447E+002
 11
1.95E+002
 21
2.2447E+002
  0
LINE
  8
V1L0
  6
CONTINUOUS
 62
40
 10
1.935E+002
 20
2.2578E+002
 11
1.95E+002
 21
2.2578E+002
  0
LINE
  8
V1L0
  6
CONTINUOUS
 62
40
 10
1.8649E+002
 20
2.2174E+002
 11
1.887E+002
 21
2.2256E+002
  0
LINE
  8
V1L0
  6
CONTINUOUS
 62
40
 10
1.908E+002
 20
2.2256E+002
 11
1.9301E+002
 21
2.2174E+002
  0
ARC
  8
V1L0
  6
CONTINUOUS
 62
40
 10
1.8975237E+002
 20
2.197484E+002
 40
3.0
 50
6.96E+001
 51
1.104E+002
  0
ARC
  8
V1L0
  6
CONTINUOUS
 62
40
 10
1.8975237E+002
 20
2.212484E+002
 40
3.0
 50
6.96E+001
 51
1.104E+002
  0
LINE
  8
V1L0
  6
CONTINUOUS
 62
40
 10
1.86E+002
 20
2.2305E+002
 11
1.887E+002
 21
2.2406E+002
  0
LINE
  8
V1L0
  6
CONTINUOUS
 62
40
 10
1.908E+002
 20
2.2406E+002
 11
1.935E+002
 21
2.2305E+002
  0
LINE
  8
V1L0
  6
CONTINUOUS
 62
40
 10
1.86E+002
 20
2.2557E+002
 11
1.8634E+002
 21
2.257E+002
  0
LINE
  8
V1L0
  6
CONTINUOUS
 62
40
 10
1.9316E+002
 20
2.257E+002
 11
1.935E+002
 21
2.2557E+002
  0
LINE
  8
V1L0
  6
CONTINUOUS
 62
40
 10
1.86E+002
 20
2.2305E+002
 11
1.8649E+002
 21
2.2174E+002
  0
LINE
  8
V1L0
  6
CONTINUOUS
 62
40
 10
1.9301E+002
 20
2.2174E+002
 11
1.935E+002
 21
2.2305E+002
  0
LINE
  8
V1L0
  6
CONTINUOUS
 62
40
 10
1.8634E+002
 20
2.257E+002
 11
1.8659E+002
 21
2.2802E+002
  0
LINE
  8
V1L0
  6
CONTINUOUS
 62
40
 10
1.9291E+002
 20
2.2802E+002
 11
1.9316E+002
 21
2.257E+002
  0
LINE
  8
V1L0
  6
CONTINUOUS
 62
40
 10
1.8918E+002
 20
2.2788E+002
 11
1.8959E+002
 21
2.2747E+002
  0
LINE
  8
V1L0
  6
CONTINUOUS
 62
40
 10
1.906E+002
 20
2.2788E+002
 11
1.9096E+002
 21
2.2751E+002
  0
LINE
  8
V1L0
  6
CONTINUOUS
 62
40
 10
1.9096E+002
 20
2.2705E+002
 11
1.9096E+002
 21
2.2751E+002
  0
LINE
  8
V1L0
  6
CONTINUOUS
 62
40
 10
1.8959E+002
 20
2.27E+002
 11
1.8959E+002
 21
2.2747E+002
  0
LINE
  8
V1L0
  6
CONTINUOUS
 62
40
 10
1.8991E+002
 20
2.281E+002
 11
1.8991E+002
 21
2.2857E+002
  0
LINE
  8
V1L0
  6
CONTINUOUS
 62
40
 10
1.8991E+002
 20
2.281E+002
 11
1.9096E+002
 21
2.2705E+002
  0
LINE
  8
V1L0
  6
CONTINUOUS
 62
40
 10
1.9034E+002
 20
2.2814E+002
 11
1.9175E+002
 21
2.2814E+002
  0
LINE
  8
V1L0
  6
CONTINUOUS
 62
40
 10
1.8751E+002
 20
2.2814E+002
 11
1.8777E+002
 21
2.2788E+002
  0
LINE
  8
V1L0
  6
CONTINUOUS
 62
40
 10
1.9175E+002
 20
2.2814E+002
 11
1.9201E+002
 21
2.2788E+002
  0
LINE
  8
V1L0
  6
CONTINUOUS
 62
40
 10
1.906E+002
 20
2.2788E+002
 11
1.9201E+002
 21
2.2788E+002
  0
LINE
  8
V1L0
  6
CONTINUOUS
 62
40
 10
1.906E+002
 20
2.2741E+002
 11
1.906E+002
 21
2.2788E+002
  0
LINE
  8
V1L0
  6
CONTINUOUS
 62
40
 10
1.9034E+002
 20
2.2767E+002
 11
1.9034E+002
 21
2.2814E+002
  0
LINE
  8
V1L0
  6
CONTINUOUS
 62
40
 10
1.8777E+002
 20
2.2788E+002
 11
1.8918E+002
 21
2.2788E+002
  0
LINE
  8
V1L0
  6
CONTINUOUS
 62
40
 10
1.8751E+002
 20
2.2814E+002
 11
1.8892E+002
 21
2.2814E+002
  0
LINE
  8
V1L0
  6
CONTINUOUS
 62
40
 10
1.8991E+002
 20
2.2857E+002
 11
1.9034E+002
 21
2.2814E+002
  0
LINE
  8
V1L0
  6
CONTINUOUS
 62
40
 10
1.8854E+002
 20
2.2853E+002
 11
1.8892E+002
 21
2.2814E+002
  0
LINE
  8
V1L0
  6
CONTINUOUS
 62
40
 10
1.9034E+002
 20
2.2767E+002
 11
1.906E+002
 21
2.2767E+002
  0
LINE
  8
V1L0
  6
CONTINUOUS
 62
40
 10
1.8892E+002
 20
2.2788E+002
 11
1.8892E+002
 21
2.2814E+002
  0
LINE
  8
V1L0
  6
CONTINUOUS
 62
40
 10
1.8825E+002
 20
2.1818E+002
 11
1.8825E+002
 21
2.2011E+002
  0
LINE
  8
V1L0
  6
CONTINUOUS
 62
40
 10
1.9125E+002
 20
2.1818E+002
 11
1.9125E+002
 21
2.2011E+002
  0
LINE
  8
V1L0
  6
CONTINUOUS
 62
40
 10
1.9068E+002
 20
2.1805E+002
 11
2.04E+002
 21
2.1805E+002
  0
LINE
  8
V1L0
  6
CONTINUOUS
 62
40
 10
1.9675E+002
 20
2.3174E+002
 11
1.9675E+002
 21
2.3367E+002
  0
LINE
  8
V1L0
  6
CONTINUOUS
 62
40
 10
1.9975E+002
 20
2.3174E+002
 11
1.9975E+002
 21
2.3367E+002
  0
LINE
  8
V1L0
  6
CONTINUOUS
 62
40
 10
1.62E+002
 20
2.4305E+002
 11
1.82E+002
 21
2.4305E+002
  0
LINE
  8
V1L0
  6
CONTINUOUS
 62
40
 10
1.62E+002
 20
2.1805E+002
 11
1.6682E+002
 21
2.1805E+002
  0
LINE
  8
V1L0
  6
CONTINUOUS
 62
40
 10
1.725E+002
 20
2.3511E+002
 11
1.725E+002
 21
2.3934E+002
  0
LINE
  8
V1L0
  6
CONTINUOUS
 62
40
 10
1.8E+002
 20
2.3367E+002
 11
1.8E+002
 21
2.3913E+002
  0
LINE
  8
V1L0
  6
CONTINUOUS
 62
40
 10
1.71E+002
 20
2.3367E+002
 11
1.71E+002
 21
2.3934E+002
  0
LINE
  8
V1L0
  6
CONTINUOUS
 62
40
 10
1.71E+002
 20
2.3367E+002
 11
1.8E+002
 21
2.3367E+002
  0
LINE
  8
V1L0
  6
CONTINUOUS
 62
40
 10
1.725E+002
 20
2.3511E+002
 11
1.8E+002
 21
2.3511E+002
  0
LINE
  8
V1L0
  6
CONTINUOUS
 62
40
 10
1.71E+002
 20
2.3803E+002
 11
1.725E+002
 21
2.3803E+002
  0
LINE
  8
V1L0
  6
CONTINUOUS
 62
40
 10
1.71E+002
 20
2.3934E+002
 11
1.725E+002
 21
2.3934E+002
  0
LINE
  8
V1L0
  6
CONTINUOUS
 62
40
 10
1.773E+002
 20
2.3612E+002
 11
1.7951E+002
 21
2.353E+002
  0
LINE
  8
V1L0
  6
CONTINUOUS
 62
40
 10
1.7299E+002
 20
2.353E+002
 11
1.752E+002
 21
2.3612E+002
  0
ARC
  8
V1L0
  6
CONTINUOUS
 62
40
 10
1.7625237E+002
 20
2.333084E+002
 40
3.0
 50
6.96E+001
 51
1.104E+002
  0
ARC
  8
V1L0
  6
CONTINUOUS
 62
40
 10
1.7625237E+002
 20
2.348084E+002
 40
3.0
 50
6.96E+001
 51
1.104E+002
  0
LINE
  8
V1L0
  6
CONTINUOUS
 62
40
 10
1.773E+002
 20
2.3762E+002
 11
1.8E+002
 21
2.3661E+002
  0
LINE
  8
V1L0
  6
CONTINUOUS
 62
40
 10
1.725E+002
 20
2.3661E+002
 11
1.752E+002
 21
2.3762E+002
  0
LINE
  8
V1L0
  6
CONTINUOUS
 62
40
 10
1.7966E+002
 20
2.3926E+002
 11
1.8E+002
 21
2.3913E+002
  0
LINE
  8
V1L0
  6
CONTINUOUS
 62
40
 10
1.725E+002
 20
2.3913E+002
 11
1.7284E+002
 21
2.3926E+002
  0
LINE
  8
V1L0
  6
CONTINUOUS
 62
40
 10
1.7951E+002
 20
2.353E+002
 11
1.8E+002
 21
2.3661E+002
  0
LINE
  8
V1L0
  6
CONTINUOUS
 62
40
 10
1.725E+002
 20
2.3661E+002
 11
1.7299E+002
 21
2.353E+002
  0
LINE
  8
V1L0
  6
CONTINUOUS
 62
40
 10
1.7941E+002
 20
2.4158E+002
 11
1.7966E+002
 21
2.3926E+002
  0
LINE
  8
V1L0
  6
CONTINUOUS
 62
40
 10
1.7284E+002
 20
2.3926E+002
 11
1.7309E+002
 21
2.4158E+002
  0
LINE
  8
V1L0
  6
CONTINUOUS
 62
40
 10
1.7641E+002
 20
2.4103E+002
 11
1.7682E+002
 21
2.4144E+002
  0
LINE
  8
V1L0
  6
CONTINUOUS
 62
40
 10
1.7504E+002
 20
2.4107E+002
 11
1.754E+002
 21
2.4144E+002
  0
LINE
  8
V1L0
  6
CONTINUOUS
 62
40
 10
1.7504E+002
 20
2.4061E+002
 11
1.7504E+002
 21
2.4107E+002
  0
LINE
  8
V1L0
  6
CONTINUOUS
 62
40
 10
1.7641E+002
 20
2.4056E+002
 11
1.7641E+002
 21
2.4103E+002
  0
LINE
  8
V1L0
  6
CONTINUOUS
 62
40
 10
1.7609E+002
 20
2.4166E+002
 11
1.7609E+002
 21
2.4213E+002
  0
LINE
  8
V1L0
  6
CONTINUOUS
 62
40
 10
1.7504E+002
 20
2.4061E+002
 11
1.7609E+002
 21
2.4166E+002
  0
LINE
  8
V1L0
  6
CONTINUOUS
 62
40
 10
1.7425E+002
 20
2.417E+002
 11
1.7566E+002
 21
2.417E+002
  0
LINE
  8
V1L0
  6
CONTINUOUS
 62
40
 10
1.7823E+002
 20
2.4144E+002
 11
1.7849E+002
 21
2.417E+002
  0
LINE
  8
V1L0
  6
CONTINUOUS
 62
40
 10
1.7399E+002
 20
2.4144E+002
 11
1.7425E+002
 21
2.417E+002
  0
LINE
  8
V1L0
  6
CONTINUOUS
 62
40
 10
1.7399E+002
 20
2.4144E+002
 11
1.754E+002
 21
2.4144E+002
  0
LINE
  8
V1L0
  6
CONTINUOUS
 62
40
 10
1.754E+002
 20
2.4097E+002
 11
1.754E+002
 21
2.4144E+002
  0
LINE
  8
V1L0
  6
CONTINUOUS
 62
40
 10
1.7566E+002
 20
2.4123E+002
 11
1.7566E+002
 21
2.417E+002
  0
LINE
  8
V1L0
  6
CONTINUOUS
 62
40
 10
1.7682E+002
 20
2.4144E+002
 11
1.7823E+002
 21
2.4144E+002
  0
LINE
  8
V1L0
  6
CONTINUOUS
 62
40
 10
1.7708E+002
 20
2.417E+002
 11
1.7849E+002
 21
2.417E+002
  0
LINE
  8
V1L0
  6
CONTINUOUS
 62
40
 10
1.7566E+002
 20
2.417E+002
 11
1.7609E+002
 21
2.4213E+002
  0
LINE
  8
V1L0
  6
CONTINUOUS
 62
40
 10
1.7708E+002
 20
2.417E+002
 11
1.7746E+002
 21
2.4209E+002
  0
LINE
  8
V1L0
  6
CONTINUOUS
 62
40
 10
1.754E+002
 20
2.4123E+002
 11
1.7566E+002
 21
2.4123E+002
  0
LINE
  8
V1L0
  6
CONTINUOUS
 62
40
 10
1.7708E+002
 20
2.4144E+002
 11
1.7708E+002
 21
2.417E+002
  0
LINE
  8
V1L0
  6
CONTINUOUS
 62
40
 10
1.6425E+002
 20
2.2011E+002
 11
1.7125E+002
 21
2.2011E+002
  0
LINE
  8
V1L0
  6
CONTINUOUS
 62
40
 10
1.715E+002
 20
2.2155E+002
 11
1.715E+002
 21
2.2578E+002
  0
LINE
  8
V1L0
  6
CONTINUOUS
 62
40
 10
1.64E+002
 20
2.2011E+002
 11
1.64E+002
 21
2.2557E+002
  0
LINE
  8
V1L0
  6
CONTINUOUS
 62
40
 10
1.73E+002
 20
2.2011E+002
 11
1.73E+002
 21
2.2578E+002
  0
LINE
  8
V1L0
  6
CONTINUOUS
 62
40
 10
1.64E+002
 20
2.2011E+002
 11
1.73E+002
 21
2.2011E+002
  0
LINE
  8
V1L0
  6
CONTINUOUS
 62
40
 10
1.64E+002
 20
2.2155E+002
 11
1.715E+002
 21
2.2155E+002
  0
LINE
  8
V1L0
  6
CONTINUOUS
 62
40
 10
1.715E+002
 20
2.2447E+002
 11
1.73E+002
 21
2.2447E+002
  0
LINE
  8
V1L0
  6
CONTINUOUS
 62
40
 10
1.715E+002
 20
2.2578E+002
 11
1.73E+002
 21
2.2578E+002
  0
LINE
  8
V1L0
  6
CONTINUOUS
 62
40
 10
1.6449E+002
 20
2.2174E+002
 11
1.667E+002
 21
2.2256E+002
  0
LINE
  8
V1L0
  6
CONTINUOUS
 62
40
 10
1.688E+002
 20
2.2256E+002
 11
1.7101E+002
 21
2.2174E+002
  0
ARC
  8
V1L0
  6
CONTINUOUS
 62
40
 10
1.6775237E+002
 20
2.197484E+002
 40
3.0
 50
6.96E+001
 51
1.104E+002
  0
ARC
  8
V1L0
  6
CONTINUOUS
 62
40
 10
1.6775237E+002
 20
2.212484E+002
 40
3.0
 50
6.96E+001
 51
1.104E+002
  0
LINE
  8
V1L0
  6
CONTINUOUS
 62
40
 10
1.64E+002
 20
2.2305E+002
 11
1.667E+002
 21
2.2406E+002
  0
LINE
  8
V1L0
  6
CONTINUOUS
 62
40
 10
1.688E+002
 20
2.2406E+002
 11
1.715E+002
 21
2.2305E+002
  0
LINE
  8
V1L0
  6
CONTINUOUS
 62
40
 10
1.64E+002
 20
2.2557E+002
 11
1.6434E+002
 21
2.257E+002
  0
LINE
  8
V1L0
  6
CONTINUOUS
 62
40
 10
1.7116E+002
 20
2.257E+002
 11
1.715E+002
 21
2.2557E+002
  0
LINE
  8
V1L0
  6
CONTINUOUS
 62
40
 10
1.64E+002
 20
2.2305E+002
 11
1.6449E+002
 21
2.2174E+002
  0
LINE
  8
V1L0
  6
CONTINUOUS
 62
40
 10
1.7101E+002
 20
2.2174E+002
 11
1.715E+002
 21
2.2305E+002
  0
LINE
  8
V1L0
  6
CONTINUOUS
 62
40
 10
1.6434E+002
 20
2.257E+002
 11
1.6459E+002
 21
2.2802E+002
  0
LINE
  8
V1L0
  6
CONTINUOUS
 62
40
 10
1.7091E+002
 20
2.2802E+002
 11
1.7116E+002
 21
2.257E+002
  0
LINE
  8
V1L0
  6
CONTINUOUS
 62
40
 10
1.6718E+002
 20
2.2788E+002
 11
1.6759E+002
 21
2.2747E+002
  0
LINE
  8
V1L0
  6
CONTINUOUS
 62
40
 10
1.686E+002
 20
2.2788E+002
 11
1.6896E+002
 21
2.2751E+002
  0
LINE
  8
V1L0
  6
CONTINUOUS
 62
40
 10
1.6896E+002
 20
2.2705E+002
 11
1.6896E+002
 21
2.2751E+002
  0
LINE
  8
V1L0
  6
CONTINUOUS
 62
40
 10
1.6759E+002
 20
2.27E+002
 11
1.6759E+002
 21
2.2747E+002
  0
LINE
  8
V1L0
  6
CONTINUOUS
 62
40
 10
1.6791E+002
 20
2.281E+002
 11
1.6791E+002
 21
2.2857E+002
  0
LINE
  8
V1L0
  6
CONTINUOUS
 62
40
 10
1.6791E+002
 20
2.281E+002
 11
1.6896E+002
 21
2.2705E+002
  0
LINE
  8
V1L0
  6
CONTINUOUS
 62
40
 10
1.6834E+002
 20
2.2814E+002
 11
1.6975E+002
 21
2.2814E+002
  0
LINE
  8
V1L0
  6
CONTINUOUS
 62
40
 10
1.6551E+002
 20
2.2814E+002
 11
1.6577E+002
 21
2.2788E+002
  0
LINE
  8
V1L0
  6
CONTINUOUS
 62
40
 10
1.6975E+002
 20
2.2814E+002
 11
1.7001E+002
 21
2.2788E+002
  0
LINE
  8
V1L0
  6
CONTINUOUS
 62
40
 10
1.686E+002
 20
2.2788E+002
 11
1.7001E+002
 21
2.2788E+002
  0
LINE
  8
V1L0
  6
CONTINUOUS
 62
40
 10
1.686E+002
 20
2.2741E+002
 11
1.686E+002
 21
2.2788E+002
  0
LINE
  8
V1L0
  6
CONTINUOUS
 62
40
 10
1.6834E+002
 20
2.2767E+002
 11
1.6834E+002
 21
2.2814E+002
  0
LINE
  8
V1L0
  6
CONTINUOUS
 62
40
 10
1.6577E+002
 20
2.2788E+002
 11
1.6718E+002
 21
2.2788E+002
  0
LINE
  8
V1L0
  6
CONTINUOUS
 62
40
 10
1.6551E+002
 20
2.2814E+002
 11
1.6692E+002
 21
2.2814E+002
  0
LINE
  8
V1L0
  6
CONTINUOUS
 62
40
 10
1.6791E+002
 20
2.2857E+002
 11
1.6834E+002
 21
2.2814E+002
  0
LINE
  8
V1L0
  6
CONTINUOUS
 62
40
 10
1.6654E+002
 20
2.2853E+002
 11
1.6692E+002
 21
2.2814E+002
  0
LINE
  8
V1L0
  6
CONTINUOUS
 62
40
 10
1.6834E+002
 20
2.2767E+002
 11
1.686E+002
 21
2.2767E+002
  0
LINE
  8
V1L0
  6
CONTINUOUS
 62
40
 10
1.6692E+002
 20
2.2788E+002
 11
1.6692E+002
 21
2.2814E+002
  0
LINE
  8
V1L0
  6
CONTINUOUS
 62
40
 10
1.6625E+002
 20
2.1818E+002
 11
1.6625E+002
 21
2.2011E+002
  0
LINE
  8
V1L0
  6
CONTINUOUS
 62
40
 10
1.6925E+002
 20
2.1818E+002
 11
1.6925E+002
 21
2.2011E+002
  0
LINE
  8
V1L0
  6
CONTINUOUS
 62
40
 10
1.6868E+002
 20
2.1805E+002
 11
1.82E+002
 21
2.1805E+002
  0
LINE
  8
V1L0
  6
CONTINUOUS
 62
40
 10
1.7475E+002
 20
2.3174E+002
 11
1.7475E+002
 21
2.3367E+002
  0
LINE
  8
V1L0
  6
CONTINUOUS
 62
40
 10
1.7775E+002
 20
2.3174E+002
 11
1.7775E+002
 21
2.3367E+002
  0
LINE
  8
V1L0
  6
CONTINUOUS
 62
40
 10
1.62E+002
 20
2.1805E+002
 11
1.62E+002
 21
2.4305E+002
  0
LINE
  8
V1L0
  6
CONTINUOUS
 62
40
 10
1.84E+002
 20
2.4305E+002
 11
2.04E+002
 21
2.4305E+002
  0
LINE
  8
V1L0
  6
CONTINUOUS
 62
40
 10
1.535E+002
 20
2.293E+002
 11
1.62E+002
 21
2.293E+002
  0
LINE
  8
V1L0
  6
CONTINUOUS
 62
40
 10
1.535E+002
 20
2.293E+002
 11
1.535E+002
 21
2.318E+002
  0
LINE
  8
V1L0
  6
CONTINUOUS
 62
40
 10
1.535E+002
 20
2.318E+002
 11
1.62E+002
 21
2.318E+002
  0
LINE
  8
V1L0
  6
CONTINUOUS
 62
40
 10
2.04E+002
 20
2.018E+002
 11
2.125E+002
 21
2.018E+002
  0
LINE
  8
V1L0
  6
CONTINUOUS
 62
40
 10
2.125E+002
 20
2.018E+002
 11
2.125E+002
 21
2.043E+002
  0
LINE
  8
V1L0
  6
CONTINUOUS
 62
40
 10
2.04E+002
 20
2.043E+002
 11
2.125E+002
 21
2.043E+002
  0
LINE
  8
V1L0
  6
CONTINUOUS
 62
40
 10
2.85E+001
 20
2.25E+001
 11
2.85E+001
 21
7.35E+001
  0
LINE
  8
V1L0
  6
CONTINUOUS
 62
40
 10
2.85E+001
 20
7.35E+001
 11
5.35E+001
 21
7.35E+001
  0
LINE
  8
V1L0
  6
CONTINUOUS
 62
40
 10
2.85E+001
 20
2.25E+001
 11
5.35E+001
 21
2.25E+001
  0
LINE
  8
V1L0
  6
CONTINUOUS
 62
40
 10
4.7E+001
 20
7.35E+001
 11
4.795E+001
 21
7.696E+001
  0
LINE
  8
V1L0
  6
CONTINUOUS
 62
40
 10
5.0E+001
 20
8.45E+001
 11
5.145E+001
 21
8.411E+001
  0
LINE
  8
V1L0
  6
CONTINUOUS
 62
40
 10
4.856E+001
 20
7.35E+001
 11
5.145E+001
 21
8.411E+001
  0
LINE
  8
V1L0
  6
CONTINUOUS
 62
40
 10
4.479E+001
 20
7.679E+001
 11
4.711E+001
 21
8.529E+001
  0
LINE
  8
V1L0
  6
CONTINUOUS
 62
40
 10
4.272E+001
 20
7.868E+001
 11
4.436E+001
 21
8.471E+001
  0
LINE
  8
V1L0
  6
CONTINUOUS
 62
40
 10
4.479E+001
 20
7.679E+001
 11
4.74E+001
 21
7.608E+001
  0
LINE
  8
V1L0
  6
CONTINUOUS
 62
40
 10
4.498E+001
 20
8.507E+001
 11
4.69E+001
 21
8.454E+001
  0
LINE
  8
V1L0
  6
CONTINUOUS
 62
40
 10
4.307E+001
 20
7.807E+001
 11
4.5E+001
 21
7.754E+001
  0
ARC
  8
V1L0
  6
CONTINUOUS
 62
40
 10
4.4842371E+001
 20
8.45784E+001
 40
5.0E-001
 50
7.474E+001
 51
1.6474E+002
  0
ARC
  8
V1L0
  6
CONTINUOUS
 62
40
 10
4.3202371E+001
 20
7.85484E+001
 40
5.0E-001
 50
1.6474E+002
 51
2.5474E+002
  0
LINE
  8
V1L0
  6
CONTINUOUS
 62
40
 10
4.971E+001
 20
8.458E+001
 11
4.974E+001
 21
8.354E+001
  0
LINE
  8
V1L0
  6
CONTINUOUS
 62
40
 10
4.711E+001
 20
8.529E+001
 11
4.971E+001
 21
8.458E+001
  0
LINE
  8
V1L0
  6
CONTINUOUS
 62
40
 10
4.74E+001
 20
7.608E+001
 11
4.795E+001
 21
7.696E+001
  0
LINE
  8
V1L0
  6
CONTINUOUS
 62
40
 10
4.795E+001
 20
7.696E+001
 11
5.0E+001
 21
8.45E+001
  0
LINE
  8
V1L0
  6
CONTINUOUS
 62
40
 10
4.99E+001
 20
7.841E+001
 11
5.279E+001
 21
7.762E+001
  0
LINE
  8
V1L0
  6
CONTINUOUS
 62
40
 10
5.069E+001
 20
8.13E+001
 11
5.358E+001
 21
8.051E+001
  0
LINE
  8
V1L0
  6
CONTINUOUS
 62
40
 10
3.344E+001
 20
7.35E+001
 11
3.439E+001
 21
7.696E+001
  0
LINE
  8
V1L0
  6
CONTINUOUS
 62
40
 10
3.644E+001
 20
8.45E+001
 11
3.789E+001
 21
8.411E+001
  0
LINE
  8
V1L0
  6
CONTINUOUS
 62
40
 10
3.5E+001
 20
7.35E+001
 11
3.789E+001
 21
8.411E+001
  0
LINE
  8
V1L0
  6
CONTINUOUS
 62
40
 10
3.123E+001
 20
7.679E+001
 11
3.355E+001
 21
8.529E+001
  0
LINE
  8
V1L0
  6
CONTINUOUS
 62
40
 10
2.916E+001
 20
7.868E+001
 11
3.08E+001
 21
8.471E+001
  0
LINE
  8
V1L0
  6
CONTINUOUS
 62
40
 10
3.123E+001
 20
7.679E+001
 11
3.384E+001
 21
7.608E+001
  0
LINE
  8
V1L0
  6
CONTINUOUS
 62
40
 10
3.142E+001
 20
8.507E+001
 11
3.334E+001
 21
8.454E+001
  0
LINE
  8
V1L0
  6
CONTINUOUS
 62
40
 10
2.951E+001
 20
7.807E+001
 11
3.144E+001
 21
7.754E+001
  0
ARC
  8
V1L0
  6
CONTINUOUS
 62
40
 10
3.1282371E+001
 20
8.45784E+001
 40
5.0E-001
 50
7.474E+001
 51
1.6474E+002
  0
ARC
  8
V1L0
  6
CONTINUOUS
 62
40
 10
2.9642371E+001
 20
7.85484E+001
 40
5.0E-001
 50
1.6474E+002
 51
2.5474E+002
  0
LINE
  8
V1L0
  6
CONTINUOUS
 62
40
 10
3.615E+001
 20
8.458E+001
 11
3.618E+001
 21
8.354E+001
  0
LINE
  8
V1L0
  6
CONTINUOUS
 62
40
 10
3.355E+001
 20
8.529E+001
 11
3.615E+001
 21
8.458E+001
  0
LINE
  8
V1L0
  6
CONTINUOUS
 62
40
 10
3.384E+001
 20
7.608E+001
 11
3.439E+001
 21
7.696E+001
  0
LINE
  8
V1L0
  6
CONTINUOUS
 62
40
 10
3.439E+001
 20
7.696E+001
 11
3.463E+001
 21
7.784E+001
  0
LINE
  8
V1L0
  6
CONTINUOUS
 62
40
 10
3.221E+001
 20
7.85E+001
 11
3.353E+001
 21
8.332E+001
  0
LINE
  8
V1L0
  6
CONTINUOUS
 62
40
 10
3.221E+001
 20
7.85E+001
 11
3.607E+001
 21
7.744E+001
  0
LINE
  8
V1L0
  6
CONTINUOUS
 62
40
 10
3.353E+001
 20
8.332E+001
 11
3.739E+001
 21
8.227E+001
  0
LINE
  8
V1L0
  6
CONTINUOUS
 62
40
 10
3.634E+001
 20
7.841E+001
 11
3.923E+001
 21
7.762E+001
  0
LINE
  8
V1L0
  6
CONTINUOUS
 62
40
 10
3.713E+001
 20
8.13E+001
 11
4.002E+001
 21
8.051E+001
  0
LINE
  8
V1L0
  6
CONTINUOUS
 62
40
 10
3.923E+001
 20
7.762E+001
 11
4.002E+001
 21
8.051E+001
  0
LINE
  8
V1L0
  6
CONTINUOUS
 62
40
 10
3.594E+001
 20
8.266E+001
 11
3.644E+001
 21
8.45E+001
  0
LINE
  8
V1L0
  6
CONTINUOUS
 62
40
 10
4.7E+001
 20
2.25E+001
 11
4.795E+001
 21
1.904E+001
  0
LINE
  8
V1L0
  6
CONTINUOUS
 62
40
 10
5.0E+001
 20
1.15E+001
 11
5.145E+001
 21
1.189E+001
  0
LINE
  8
V1L0
  6
CONTINUOUS
 62
40
 10
4.856E+001
 20
2.25E+001
 11
5.145E+001
 21
1.189E+001
  0
LINE
  8
V1L0
  6
CONTINUOUS
 62
40
 10
4.479E+001
 20
1.921E+001
 11
4.711E+001
 21
1.071E+001
  0
LINE
  8
V1L0
  6
CONTINUOUS
 62
40
 10
4.272E+001
 20
1.732E+001
 11
4.436E+001
 21
1.129E+001
  0
LINE
  8
V1L0
  6
CONTINUOUS
 62
40
 10
4.479E+001
 20
1.921E+001
 11
4.74E+001
 21
1.992E+001
  0
LINE
  8
V1L0
  6
CONTINUOUS
 62
40
 10
4.498E+001
 20
1.093E+001
 11
4.69E+001
 21
1.146E+001
  0
LINE
  8
V1L0
  6
CONTINUOUS
 62
40
 10
4.307E+001
 20
1.793E+001
 11
4.5E+001
 21
1.846E+001
  0
ARC
  8
V1L0
  6
CONTINUOUS
 62
40
 10
4.4842371E+001
 20
1.14184E+001
 40
5.0E-001
 50
1.9526E+002
 51
2.8526E+002
  0
ARC
  8
V1L0
  6
CONTINUOUS
 62
40
 10
4.3202371E+001
 20
1.74484E+001
 40
5.0E-001
 50
1.0526E+002
 51
1.9526E+002
  0
LINE
  8
V1L0
  6
CONTINUOUS
 62
40
 10
4.971E+001
 20
1.142E+001
 11
4.974E+001
 21
1.246E+001
  0
LINE
  8
V1L0
  6
CONTINUOUS
 62
40
 10
4.711E+001
 20
1.071E+001
 11
4.971E+001
 21
1.142E+001
  0
LINE
  8
V1L0
  6
CONTINUOUS
 62
40
 10
4.74E+001
 20
1.992E+001
 11
4.795E+001
 21
1.904E+001
  0
LINE
  8
V1L0
  6
CONTINUOUS
 62
40
 10
4.95E+001
 20
1.334E+001
 11
5.0E+001
 21
1.15E+001
  0
LINE
  8
V1L0
  6
CONTINUOUS
 62
40
 10
4.99E+001
 20
1.759E+001
 11
5.279E+001
 21
1.838E+001
  0
LINE
  8
V1L0
  6
CONTINUOUS
 62
40
 10
5.069E+001
 20
1.47E+001
 11
5.358E+001
 21
1.549E+001
  0
LINE
  8
V1L0
  6
CONTINUOUS
 62
40
 10
3.344E+001
 20
2.25E+001
 11
3.439E+001
 21
1.904E+001
  0
LINE
  8
V1L0
  6
CONTINUOUS
 62
40
 10
3.644E+001
 20
1.15E+001
 11
3.789E+001
 21
1.189E+001
  0
LINE
  8
V1L0
  6
CONTINUOUS
 62
40
 10
3.5E+001
 20
2.25E+001
 11
3.789E+001
 21
1.189E+001
  0
LINE
  8
V1L0
  6
CONTINUOUS
 62
40
 10
3.123E+001
 20
1.921E+001
 11
3.355E+001
 21
1.071E+001
  0
LINE
  8
V1L0
  6
CONTINUOUS
 62
40
 10
2.916E+001
 20
1.732E+001
 11
3.08E+001
 21
1.129E+001
  0
LINE
  8
V1L0
  6
CONTINUOUS
 62
40
 10
3.123E+001
 20
1.921E+001
 11
3.384E+001
 21
1.992E+001
  0
LINE
  8
V1L0
  6
CONTINUOUS
 62
40
 10
3.142E+001
 20
1.093E+001
 11
3.334E+001
 21
1.146E+001
  0
LINE
  8
V1L0
  6
CONTINUOUS
 62
40
 10
2.951E+001
 20
1.793E+001
 11
3.144E+001
 21
1.846E+001
  0
ARC
  8
V1L0
  6
CONTINUOUS
 62
40
 10
3.1282371E+001
 20
1.14184E+001
 40
5.0E-001
 50
1.9526E+002
 51
2.8526E+002
  0
ARC
  8
V1L0
  6
CONTINUOUS
 62
40
 10
2.9642371E+001
 20
1.74484E+001
 40
5.0E-001
 50
1.0526E+002
 51
1.9526E+002
  0
LINE
  8
V1L0
  6
CONTINUOUS
 62
40
 10
3.615E+001
 20
1.142E+001
 11
3.618E+001
 21
1.246E+001
  0
LINE
  8
V1L0
  6
CONTINUOUS
 62
40
 10
3.355E+001
 20
1.071E+001
 11
3.615E+001
 21
1.142E+001
  0
LINE
  8
V1L0
  6
CONTINUOUS
 62
40
 10
3.384E+001
 20
1.992E+001
 11
3.439E+001
 21
1.904E+001
  0
LINE
  8
V1L0
  6
CONTINUOUS
 62
40
 10
3.439E+001
 20
1.904E+001
 11
3.644E+001
 21
1.15E+001
  0
LINE
  8
V1L0
  6
CONTINUOUS
 62
40
 10
4.577E+001
 20
1.75E+001
 11
4.709E+001
 21
1.268E+001
  0
LINE
  8
V1L0
  6
CONTINUOUS
 62
40
 10
4.577E+001
 20
1.75E+001
 11
4.963E+001
 21
1.856E+001
  0
LINE
  8
V1L0
  6
CONTINUOUS
 62
40
 10
4.709E+001
 20
1.268E+001
 11
5.095E+001
 21
1.373E+001
  0
LINE
  8
V1L0
  6
CONTINUOUS
 62
40
 10
3.634E+001
 20
1.759E+001
 11
3.923E+001
 21
1.838E+001
  0
LINE
  8
V1L0
  6
CONTINUOUS
 62
40
 10
3.713E+001
 20
1.47E+001
 11
4.002E+001
 21
1.549E+001
  0
LINE
  8
V1L0
  6
CONTINUOUS
 62
40
 10
3.923E+001
 20
1.838E+001
 11
4.002E+001
 21
1.549E+001
  0
LINE
  8
V1L0
  6
CONTINUOUS
 62
40
 10
4.795E+001
 20
1.904E+001
 11
4.819E+001
 21
1.816E+001
  0
LINE
  8
V1L0
  6
CONTINUOUS
 62
40
 10
5.35E+001
 20
2.25E+001
 11
5.35E+001
 21
7.35E+001
  0
LINE
  8
V1L0
  6
CONTINUOUS
 62
40
 10
5.279E+001
 20
7.762E+001
 11
5.358E+001
 21
8.051E+001
  0
LINE
  8
V1L0
  6
CONTINUOUS
 62
40
 10
5.279E+001
 20
1.838E+001
 11
5.358E+001
 21
1.549E+001
  0
LINE
  8
V1L0
  6
CONTINUOUS
 62
40
 10
5.35E+001
 20
4.55E+001
 11
5.6E+001
 21
4.55E+001
  0
LINE
  8
V1L0
  6
CONTINUOUS
 62
40
 10
5.35E+001
 20
5.05E+001
 11
5.6E+001
 21
5.05E+001
  0
LINE
  8
V1L0
  6
CONTINUOUS
 62
40
 10
1.0
 20
1.0
 11
1.0
 21
2.25E+001
  0
LINE
  8
V1L0
  6
CONTINUOUS
 62
40
 10
1.0
 20
7.35E+001
 11
2.6E+001
 21
7.35E+001
  0
LINE
  8
V1L0
  6
CONTINUOUS
 62
40
 10
1.0
 20
2.25E+001
 11
2.6E+001
 21
2.25E+001
  0
CIRCLE
  8
V1L0
  6
CONTINUOUS
 62
40
 10
1.3502371E+001
 20
3.04984E+001
 40
2.75
  0
LINE
  8
V1L0
  6
CONTINUOUS
 62
40
 10
1.138E+001
 20
3.225E+001
 11
1.486E+001
 21
2.811E+001
  0
LINE
  8
V1L0
  6
CONTINUOUS
 62
40
 10
1.215E+001
 20
3.289E+001
 11
1.562E+001
 21
2.875E+001
  0
CIRCLE
  8
V1L0
  6
CONTINUOUS
 62
40
 10
1.3502371E+001
 20
6.54984E+001
 40
2.75
  0
LINE
  8
V1L0
  6
CONTINUOUS
 62
40
 10
1.215E+001
 20
6.789E+001
 11
1.562E+001
 21
6.375E+001
  0
LINE
  8
V1L0
  6
CONTINUOUS
 62
40
 10
1.138E+001
 20
6.725E+001
 11
1.486E+001
 21
6.311E+001
  0
LINE
  8
V1L0
  6
CONTINUOUS
 62
40
 10
1.95E+001
 20
7.35E+001
 11
2.045E+001
 21
7.696E+001
  0
LINE
  8
V1L0
  6
CONTINUOUS
 62
40
 10
2.25E+001
 20
8.45E+001
 11
2.395E+001
 21
8.411E+001
  0
LINE
  8
V1L0
  6
CONTINUOUS
 62
40
 10
2.106E+001
 20
7.35E+001
 11
2.395E+001
 21
8.411E+001
  0
LINE
  8
V1L0
  6
CONTINUOUS
 62
40
 10
1.729E+001
 20
7.679E+001
 11
1.961E+001
 21
8.529E+001
  0
LINE
  8
V1L0
  6
CONTINUOUS
 62
40
 10
1.522E+001
 20
7.868E+001
 11
1.686E+001
 21
8.471E+001
  0
LINE
  8
V1L0
  6
CONTINUOUS
 62
40
 10
1.729E+001
 20
7.679E+001
 11
1.99E+001
 21
7.608E+001
  0
LINE
  8
V1L0
  6
CONTINUOUS
 62
40
 10
1.748E+001
 20
8.507E+001
 11
1.94E+001
 21
8.454E+001
  0
LINE
  8
V1L0
  6
CONTINUOUS
 62
40
 10
1.557E+001
 20
7.807E+001
 11
1.75E+001
 21
7.754E+001
  0
ARC
  8
V1L0
  6
CONTINUOUS
 62
40
 10
1.7342371E+001
 20
8.45784E+001
 40
5.0E-001
 50
7.474E+001
 51
1.6474E+002
  0
ARC
  8
V1L0
  6
CONTINUOUS
 62
40
 10
1.5702371E+001
 20
7.85484E+001
 40
5.0E-001
 50
1.6474E+002
 51
2.5474E+002
  0
LINE
  8
V1L0
  6
CONTINUOUS
 62
40
 10
2.221E+001
 20
8.458E+001
 11
2.224E+001
 21
8.354E+001
  0
LINE
  8
V1L0
  6
CONTINUOUS
 62
40
 10
1.961E+001
 20
8.529E+001
 11
2.221E+001
 21
8.458E+001
  0
LINE
  8
V1L0
  6
CONTINUOUS
 62
40
 10
1.99E+001
 20
7.608E+001
 11
2.045E+001
 21
7.696E+001
  0
LINE
  8
V1L0
  6
CONTINUOUS
 62
40
 10
2.045E+001
 20
7.696E+001
 11
2.25E+001
 21
8.45E+001
  0
LINE
  8
V1L0
  6
CONTINUOUS
 62
40
 10
2.24E+001
 20
7.841E+001
 11
2.529E+001
 21
7.762E+001
  0
LINE
  8
V1L0
  6
CONTINUOUS
 62
40
 10
2.319E+001
 20
8.13E+001
 11
2.608E+001
 21
8.051E+001
  0
LINE
  8
V1L0
  6
CONTINUOUS
 62
40
 10
5.94
 20
7.35E+001
 11
6.89
 21
7.696E+001
  0
LINE
  8
V1L0
  6
CONTINUOUS
 62
40
 10
8.94
 20
8.45E+001
 11
1.039E+001
 21
8.411E+001
  0
LINE
  8
V1L0
  6
CONTINUOUS
 62
40
 10
7.5
 20
7.35E+001
 11
1.039E+001
 21
8.411E+001
  0
LINE
  8
V1L0
  6
CONTINUOUS
 62
40
 10
3.73
 20
7.679E+001
 11
6.05
 21
8.529E+001
  0
LINE
  8
V1L0
  6
CONTINUOUS
 62
40
 10
1.66
 20
7.868E+001
 11
3.3
 21
8.471E+001
  0
LINE
  8
V1L0
  6
CONTINUOUS
 62
40
 10
3.73
 20
7.679E+001
 11
6.34
 21
7.608E+001
  0
LINE
  8
V1L0
  6
CONTINUOUS
 62
40
 10
3.92
 20
8.507E+001
 11
5.84
 21
8.454E+001
  0
LINE
  8
V1L0
  6
CONTINUOUS
 62
40
 10
2.01
 20
7.807E+001
 11
3.94
 21
7.754E+001
  0
ARC
  8
V1L0
  6
CONTINUOUS
 62
40
 10
3.7823707
 20
8.45784E+001
 40
5.0E-001
 50
7.474E+001
 51
1.6474E+002
  0
ARC
  8
V1L0
  6
CONTINUOUS
 62
40
 10
2.1423707
 20
7.85484E+001
 40
5.0E-001
 50
1.6474E+002
 51
2.5474E+002
  0
LINE
  8
V1L0
  6
CONTINUOUS
 62
40
 10
8.65
 20
8.458E+001
 11
8.68
 21
8.354E+001
  0
LINE
  8
V1L0
  6
CONTINUOUS
 62
40
 10
6.05
 20
8.529E+001
 11
8.65
 21
8.458E+001
  0
LINE
  8
V1L0
  6
CONTINUOUS
 62
40
 10
6.34
 20
7.608E+001
 11
6.89
 21
7.696E+001
  0
LINE
  8
V1L0
  6
CONTINUOUS
 62
40
 10
6.89
 20
7.696E+001
 11
7.13
 21
7.784E+001
  0
LINE
  8
V1L0
  6
CONTINUOUS
 62
40
 10
4.71
 20
7.85E+001
 11
6.03
 21
8.332E+001
  0
LINE
  8
V1L0
  6
CONTINUOUS
 62
40
 10
4.71
 20
7.85E+001
 11
8.57
 21
7.744E+001
  0
LINE
  8
V1L0
  6
CONTINUOUS
 62
40
 10
6.03
 20
8.332E+001
 11
9.89
 21
8.227E+001
  0
LINE
  8
V1L0
  6
CONTINUOUS
 62
40
 10
8.84
 20
7.841E+001
 11
1.173E+001
 21
7.762E+001
  0
LINE
  8
V1L0
  6
CONTINUOUS
 62
40
 10
9.63
 20
8.13E+001
 11
1.252E+001
 21
8.051E+001
  0
LINE
  8
V1L0
  6
CONTINUOUS
 62
40
 10
1.173E+001
 20
7.762E+001
 11
1.252E+001
 21
8.051E+001
  0
LINE
  8
V1L0
  6
CONTINUOUS
 62
40
 10
8.44
 20
8.266E+001
 11
8.94
 21
8.45E+001
  0
LINE
  8
V1L0
  6
CONTINUOUS
 62
40
 10
1.95E+001
 20
2.25E+001
 11
2.045E+001
 21
1.904E+001
  0
LINE
  8
V1L0
  6
CONTINUOUS
 62
40
 10
2.25E+001
 20
1.15E+001
 11
2.395E+001
 21
1.189E+001
  0
LINE
  8
V1L0
  6
CONTINUOUS
 62
40
 10
2.106E+001
 20
2.25E+001
 11
2.395E+001
 21
1.189E+001
  0
LINE
  8
V1L0
  6
CONTINUOUS
 62
40
 10
1.729E+001
 20
1.921E+001
 11
1.961E+001
 21
1.071E+001
  0
LINE
  8
V1L0
  6
CONTINUOUS
 62
40
 10
1.522E+001
 20
1.732E+001
 11
1.686E+001
 21
1.129E+001
  0
LINE
  8
V1L0
  6
CONTINUOUS
 62
40
 10
1.729E+001
 20
1.921E+001
 11
1.99E+001
 21
1.992E+001
  0
LINE
  8
V1L0
  6
CONTINUOUS
 62
40
 10
1.748E+001
 20
1.093E+001
 11
1.94E+001
 21
1.146E+001
  0
LINE
  8
V1L0
  6
CONTINUOUS
 62
40
 10
1.557E+001
 20
1.793E+001
 11
1.75E+001
 21
1.846E+001
  0
ARC
  8
V1L0
  6
CONTINUOUS
 62
40
 10
1.7342371E+001
 20
1.14184E+001
 40
5.0E-001
 50
1.9526E+002
 51
2.8526E+002
  0
ARC
  8
V1L0
  6
CONTINUOUS
 62
40
 10
1.5702371E+001
 20
1.74484E+001
 40
5.0E-001
 50
1.0526E+002
 51
1.9526E+002
  0
LINE
  8
V1L0
  6
CONTINUOUS
 62
40
 10
2.221E+001
 20
1.142E+001
 11
2.224E+001
 21
1.246E+001
  0
LINE
  8
V1L0
  6
CONTINUOUS
 62
40
 10
1.961E+001
 20
1.071E+001
 11
2.221E+001
 21
1.142E+001
  0
LINE
  8
V1L0
  6
CONTINUOUS
 62
40
 10
1.99E+001
 20
1.992E+001
 11
2.045E+001
 21
1.904E+001
  0
LINE
  8
V1L0
  6
CONTINUOUS
 62
40
 10
2.2E+001
 20
1.334E+001
 11
2.25E+001
 21
1.15E+001
  0
LINE
  8
V1L0
  6
CONTINUOUS
 62
40
 10
2.24E+001
 20
1.759E+001
 11
2.529E+001
 21
1.838E+001
  0
LINE
  8
V1L0
  6
CONTINUOUS
 62
40
 10
2.319E+001
 20
1.47E+001
 11
2.608E+001
 21
1.549E+001
  0
LINE
  8
V1L0
  6
CONTINUOUS
 62
40
 10
5.94
 20
2.25E+001
 11
6.89
 21
1.904E+001
  0
LINE
  8
V1L0
  6
CONTINUOUS
 62
40
 10
8.94
 20
1.15E+001
 11
1.039E+001
 21
1.189E+001
  0
LINE
  8
V1L0
  6
CONTINUOUS
 62
40
 10
7.5
 20
2.25E+001
 11
1.039E+001
 21
1.189E+001
  0
LINE
  8
V1L0
  6
CONTINUOUS
 62
40
 10
3.73
 20
1.921E+001
 11
6.05
 21
1.071E+001
  0
LINE
  8
V1L0
  6
CONTINUOUS
 62
40
 10
1.66
 20
1.732E+001
 11
3.3
 21
1.129E+001
  0
LINE
  8
V1L0
  6
CONTINUOUS
 62
40
 10
3.73
 20
1.921E+001
 11
6.34
 21
1.992E+001
  0
LINE
  8
V1L0
  6
CONTINUOUS
 62
40
 10
3.92
 20
1.093E+001
 11
5.84
 21
1.146E+001
  0
LINE
  8
V1L0
  6
CONTINUOUS
 62
40
 10
2.01
 20
1.793E+001
 11
3.94
 21
1.846E+001
  0
ARC
  8
V1L0
  6
CONTINUOUS
 62
40
 10
3.7823707
 20
1.14184E+001
 40
5.0E-001
 50
1.9526E+002
 51
2.8526E+002
  0
ARC
  8
V1L0
  6
CONTINUOUS
 62
40
 10
2.1423707
 20
1.74484E+001
 40
5.0E-001
 50
1.0526E+002
 51
1.9526E+002
  0
LINE
  8
V1L0
  6
CONTINUOUS
 62
40
 10
8.65
 20
1.142E+001
 11
8.68
 21
1.246E+001
  0
LINE
  8
V1L0
  6
CONTINUOUS
 62
40
 10
6.05
 20
1.071E+001
 11
8.65
 21
1.142E+001
  0
LINE
  8
V1L0
  6
CONTINUOUS
 62
40
 10
6.34
 20
1.992E+001
 11
6.89
 21
1.904E+001
  0
LINE
  8
V1L0
  6
CONTINUOUS
 62
40
 10
6.89
 20
1.904E+001
 11
8.94
 21
1.15E+001
  0
LINE
  8
V1L0
  6
CONTINUOUS
 62
40
 10
1.827E+001
 20
1.75E+001
 11
1.959E+001
 21
1.268E+001
  0
LINE
  8
V1L0
  6
CONTINUOUS
 62
40
 10
1.827E+001
 20
1.75E+001
 11
2.213E+001
 21
1.856E+001
  0
LINE
  8
V1L0
  6
CONTINUOUS
 62
40
 10
1.959E+001
 20
1.268E+001
 11
2.345E+001
 21
1.373E+001
  0
LINE
  8
V1L0
  6
CONTINUOUS
 62
40
 10
8.84
 20
1.759E+001
 11
1.173E+001
 21
1.838E+001
  0
LINE
  8
V1L0
  6
CONTINUOUS
 62
40
 10
9.63
 20
1.47E+001
 11
1.252E+001
 21
1.549E+001
  0
LINE
  8
V1L0
  6
CONTINUOUS
 62
40
 10
1.173E+001
 20
1.838E+001
 11
1.252E+001
 21
1.549E+001
  0
LINE
  8
V1L0
  6
CONTINUOUS
 62
40
 10
2.045E+001
 20
1.904E+001
 11
2.069E+001
 21
1.816E+001
  0
LINE
  8
V1L0
  6
CONTINUOUS
 62
40
 10
2.6E+001
 20
2.25E+001
 11
2.6E+001
 21
7.35E+001
  0
LINE
  8
V1L0
  6
CONTINUOUS
 62
40
 10
2.529E+001
 20
7.762E+001
 11
2.608E+001
 21
8.051E+001
  0
LINE
  8
V1L0
  6
CONTINUOUS
 62
40
 10
2.529E+001
 20
1.838E+001
 11
2.608E+001
 21
1.549E+001
  0
LINE
  8
V1L0
  6
CONTINUOUS
 62
40
 10
2.6E+001
 20
4.55E+001
 11
2.85E+001
 21
4.55E+001
  0
LINE
  8
V1L0
  6
CONTINUOUS
 62
40
 10
2.6E+001
 20
5.05E+001
 11
2.85E+001
 21
5.05E+001
  0
LINE
  8
V1L0
  6
CONTINUOUS
 62
40
 10
1.0
 20
7.35E+001
 11
1.0
 21
9.5E+001
  0
LINE
  8
V1L0
  6
CONTINUOUS
 62
40
 10
1.0
 20
2.25E+001
 11
1.0
 21
7.35E+001
  0
CIRCLE
  8
V1L0
  6
CONTINUOUS
 62
40
 10
4.1002371E+001
 20
6.54984E+001
 40
1.5
  0
CIRCLE
  8
V1L0
  6
CONTINUOUS
 62
40
 10
4.1002371E+001
 20
3.04984E+001
 40
1.5
  0
LINE
  8
V1L0
  6
CONTINUOUS
 62
40
 10
3.375E+002
 20
2.25E+001
 11
3.375E+002
 21
7.35E+001
  0
LINE
  8
V1L0
  6
CONTINUOUS
 62
40
 10
3.1325E+002
 20
7.35E+001
 11
3.375E+002
 21
7.35E+001
  0
LINE
  8
V1L0
  6
CONTINUOUS
 62
40
 10
3.1325E+002
 20
2.25E+001
 11
3.375E+002
 21
2.25E+001
  0
LINE
  8
V1L0
  6
CONTINUOUS
 62
40
 10
3.1805E+002
 20
7.696E+001
 11
3.19E+002
 21
7.35E+001
  0
LINE
  8
V1L0
  6
CONTINUOUS
 62
40
 10
3.1455E+002
 20
8.411E+001
 11
3.16E+002
 21
8.45E+001
  0
LINE
  8
V1L0
  6
CONTINUOUS
 62
40
 10
3.1455E+002
 20
8.411E+001
 11
3.1744E+002
 21
7.35E+001
  0
LINE
  8
V1L0
  6
CONTINUOUS
 62
40
 10
3.1889E+002
 20
8.529E+001
 11
3.2121E+002
 21
7.679E+001
  0
LINE
  8
V1L0
  6
CONTINUOUS
 62
40
 10
3.2164E+002
 20
8.471E+001
 11
3.2328E+002
 21
7.868E+001
  0
LINE
  8
V1L0
  6
CONTINUOUS
 62
40
 10
3.186E+002
 20
7.608E+001
 11
3.2121E+002
 21
7.679E+001
  0
LINE
  8
V1L0
  6
CONTINUOUS
 62
40
 10
3.191E+002
 20
8.454E+001
 11
3.2102E+002
 21
8.507E+001
  0
LINE
  8
V1L0
  6
CONTINUOUS
 62
40
 10
3.21E+002
 20
7.754E+001
 11
3.2293E+002
 21
7.807E+001
  0
ARC
  8
V1L0
  6
CONTINUOUS
 62
40
 10
3.2116237E+002
 20
8.45784E+001
 40
5.0E-001
 50
1.526E+001
 51
1.0526E+002
  0
ARC
  8
V1L0
  6
CONTINUOUS
 62
40
 10
3.2280237E+002
 20
7.85484E+001
 40
5.0E-001
 50
2.8526E+002
 51
3.7526E+002
  0
LINE
  8
V1L0
  6
CONTINUOUS
 62
40
 10
3.1626E+002
 20
8.354E+001
 11
3.1629E+002
 21
8.458E+001
  0
LINE
  8
V1L0
  6
CONTINUOUS
 62
40
 10
3.1629E+002
 20
8.458E+001
 11
3.1889E+002
 21
8.529E+001
  0
LINE
  8
V1L0
  6
CONTINUOUS
 62
40
 10
3.1805E+002
 20
7.696E+001
 11
3.186E+002
 21
7.608E+001
  0
LINE
  8
V1L0
  6
CONTINUOUS
 62
40
 10
3.16E+002
 20
8.45E+001
 11
3.165E+002
 21
8.266E+001
  0
LINE
  8
V1L0
  6
CONTINUOUS
 62
40
 10
3.1325E+002
 20
7.763E+001
 11
3.161E+002
 21
7.841E+001
  0
LINE
  8
V1L0
  6
CONTINUOUS
 62
40
 10
3.1325E+002
 20
8.074E+001
 11
3.1531E+002
 21
8.13E+001
  0
LINE
  8
V1L0
  6
CONTINUOUS
 62
40
 10
3.3161E+002
 20
7.696E+001
 11
3.3256E+002
 21
7.35E+001
  0
LINE
  8
V1L0
  6
CONTINUOUS
 62
40
 10
3.2811E+002
 20
8.411E+001
 11
3.2956E+002
 21
8.45E+001
  0
LINE
  8
V1L0
  6
CONTINUOUS
 62
40
 10
3.2811E+002
 20
8.411E+001
 11
3.31E+002
 21
7.35E+001
  0
LINE
  8
V1L0
  6
CONTINUOUS
 62
40
 10
3.3245E+002
 20
8.529E+001
 11
3.3477E+002
 21
7.679E+001
  0
LINE
  8
V1L0
  6
CONTINUOUS
 62
40
 10
3.352E+002
 20
8.471E+001
 11
3.3684E+002
 21
7.868E+001
  0
LINE
  8
V1L0
  6
CONTINUOUS
 62
40
 10
3.3216E+002
 20
7.608E+001
 11
3.3477E+002
 21
7.679E+001
  0
LINE
  8
V1L0
  6
CONTINUOUS
 62
40
 10
3.3266E+002
 20
8.454E+001
 11
3.3458E+002
 21
8.507E+001
  0
LINE
  8
V1L0
  6
CONTINUOUS
 62
40
 10
3.3456E+002
 20
7.754E+001
 11
3.3649E+002
 21
7.807E+001
  0
ARC
  8
V1L0
  6
CONTINUOUS
 62
40
 10
3.3472237E+002
 20
8.45784E+001
 40
5.0E-001
 50
1.526E+001
 51
1.0526E+002
  0
ARC
  8
V1L0
  6
CONTINUOUS
 62
40
 10
3.3636237E+002
 20
7.85484E+001
 40
5.0E-001
 50
2.8526E+002
 51
3.7526E+002
  0
LINE
  8
V1L0
  6
CONTINUOUS
 62
40
 10
3.2982E+002
 20
8.354E+001
 11
3.2985E+002
 21
8.458E+001
  0
LINE
  8
V1L0
  6
CONTINUOUS
 62
40
 10
3.2985E+002
 20
8.458E+001
 11
3.3245E+002
 21
8.529E+001
  0
LINE
  8
V1L0
  6
CONTINUOUS
 62
40
 10
3.3161E+002
 20
7.696E+001
 11
3.3216E+002
 21
7.608E+001
  0
LINE
  8
V1L0
  6
CONTINUOUS
 62
40
 10
3.2982E+002
 20
8.354E+001
 11
3.3161E+002
 21
7.696E+001
  0
LINE
  8
V1L0
  6
CONTINUOUS
 62
40
 10
3.1891E+002
 20
8.332E+001
 11
3.2023E+002
 21
7.85E+001
  0
LINE
  8
V1L0
  6
CONTINUOUS
 62
40
 10
3.1637E+002
 20
7.744E+001
 11
3.2023E+002
 21
7.85E+001
  0
LINE
  8
V1L0
  6
CONTINUOUS
 62
40
 10
3.1505E+002
 20
8.227E+001
 11
3.1891E+002
 21
8.332E+001
  0
LINE
  8
V1L0
  6
CONTINUOUS
 62
40
 10
3.2677E+002
 20
7.762E+001
 11
3.2966E+002
 21
7.841E+001
  0
LINE
  8
V1L0
  6
CONTINUOUS
 62
40
 10
3.2598E+002
 20
8.051E+001
 11
3.2887E+002
 21
8.13E+001
  0
LINE
  8
V1L0
  6
CONTINUOUS
 62
40
 10
3.2598E+002
 20
8.051E+001
 11
3.2677E+002
 21
7.762E+001
  0
LINE
  8
V1L0
  6
CONTINUOUS
 62
40
 10
3.2956E+002
 20
8.45E+001
 11
3.3006E+002
 21
8.266E+001
  0
LINE
  8
V1L0
  6
CONTINUOUS
 62
40
 10
3.1805E+002
 20
1.904E+001
 11
3.19E+002
 21
2.25E+001
  0
LINE
  8
V1L0
  6
CONTINUOUS
 62
40
 10
3.1455E+002
 20
1.189E+001
 11
3.16E+002
 21
1.15E+001
  0
LINE
  8
V1L0
  6
CONTINUOUS
 62
40
 10
3.1455E+002
 20
1.189E+001
 11
3.1744E+002
 21
2.25E+001
  0
LINE
  8
V1L0
  6
CONTINUOUS
 62
40
 10
3.1889E+002
 20
1.071E+001
 11
3.2121E+002
 21
1.921E+001
  0
LINE
  8
V1L0
  6
CONTINUOUS
 62
40
 10
3.2164E+002
 20
1.129E+001
 11
3.2328E+002
 21
1.732E+001
  0
LINE
  8
V1L0
  6
CONTINUOUS
 62
40
 10
3.186E+002
 20
1.992E+001
 11
3.2121E+002
 21
1.921E+001
  0
LINE
  8
V1L0
  6
CONTINUOUS
 62
40
 10
3.191E+002
 20
1.146E+001
 11
3.2102E+002
 21
1.093E+001
  0
LINE
  8
V1L0
  6
CONTINUOUS
 62
40
 10
3.21E+002
 20
1.846E+001
 11
3.2293E+002
 21
1.793E+001
  0
ARC
  8
V1L0
  6
CONTINUOUS
 62
40
 10
3.2116237E+002
 20
1.14184E+001
 40
5.0E-001
 50
2.5474E+002
 51
3.4474E+002
  0
ARC
  8
V1L0
  6
CONTINUOUS
 62
40
 10
3.2280237E+002
 20
1.74484E+001
 40
5.0E-001
 50
3.4474E+002
 51
4.3474E+002
  0
LINE
  8
V1L0
  6
CONTINUOUS
 62
40
 10
3.1626E+002
 20
1.246E+001
 11
3.1629E+002
 21
1.142E+001
  0
LINE
  8
V1L0
  6
CONTINUOUS
 62
40
 10
3.1629E+002
 20
1.142E+001
 11
3.1889E+002
 21
1.071E+001
  0
LINE
  8
V1L0
  6
CONTINUOUS
 62
40
 10
3.1805E+002
 20
1.904E+001
 11
3.186E+002
 21
1.992E+001
  0
LINE
  8
V1L0
  6
CONTINUOUS
 62
40
 10
3.1325E+002
 20
1.837E+001
 11
3.161E+002
 21
1.759E+001
  0
LINE
  8
V1L0
  6
CONTINUOUS
 62
40
 10
3.1325E+002
 20
1.526E+001
 11
3.1531E+002
 21
1.47E+001
  0
LINE
  8
V1L0
  6
CONTINUOUS
 62
40
 10
3.3161E+002
 20
1.904E+001
 11
3.3256E+002
 21
2.25E+001
  0
LINE
  8
V1L0
  6
CONTINUOUS
 62
40
 10
3.2811E+002
 20
1.189E+001
 11
3.2956E+002
 21
1.15E+001
  0
LINE
  8
V1L0
  6
CONTINUOUS
 62
40
 10
3.2811E+002
 20
1.189E+001
 11
3.31E+002
 21
2.25E+001
  0
LINE
  8
V1L0
  6
CONTINUOUS
 62
40
 10
3.3245E+002
 20
1.071E+001
 11
3.3477E+002
 21
1.921E+001
  0
LINE
  8
V1L0
  6
CONTINUOUS
 62
40
 10
3.352E+002
 20
1.129E+001
 11
3.3684E+002
 21
1.732E+001
  0
LINE
  8
V1L0
  6
CONTINUOUS
 62
40
 10
3.3216E+002
 20
1.992E+001
 11
3.3477E+002
 21
1.921E+001
  0
LINE
  8
V1L0
  6
CONTINUOUS
 62
40
 10
3.3266E+002
 20
1.146E+001
 11
3.3458E+002
 21
1.093E+001
  0
LINE
  8
V1L0
  6
CONTINUOUS
 62
40
 10
3.3456E+002
 20
1.846E+001
 11
3.3649E+002
 21
1.793E+001
  0
ARC
  8
V1L0
  6
CONTINUOUS
 62
40
 10
3.3472237E+002
 20
1.14184E+001
 40
5.0E-001
 50
2.5474E+002
 51
3.4474E+002
  0
ARC
  8
V1L0
  6
CONTINUOUS
 62
40
 10
3.3636237E+002
 20
1.74484E+001
 40
5.0E-001
 50
3.4474E+002
 51
4.3474E+002
  0
LINE
  8
V1L0
  6
CONTINUOUS
 62
40
 10
3.2982E+002
 20
1.246E+001
 11
3.2985E+002
 21
1.142E+001
  0
LINE
  8
V1L0
  6
CONTINUOUS
 62
40
 10
3.2985E+002
 20
1.142E+001
 11
3.3245E+002
 21
1.071E+001
  0
LINE
  8
V1L0
  6
CONTINUOUS
 62
40
 10
3.3161E+002
 20
1.904E+001
 11
3.3216E+002
 21
1.992E+001
  0
LINE
  8
V1L0
  6
CONTINUOUS
 62
40
 10
3.2956E+002
 20
1.15E+001
 11
3.3006E+002
 21
1.334E+001
  0
LINE
  8
V1L0
  6
CONTINUOUS
 62
40
 10
3.3247E+002
 20
1.268E+001
 11
3.3379E+002
 21
1.75E+001
  0
LINE
  8
V1L0
  6
CONTINUOUS
 62
40
 10
3.2993E+002
 20
1.856E+001
 11
3.3379E+002
 21
1.75E+001
  0
LINE
  8
V1L0
  6
CONTINUOUS
 62
40
 10
3.2861E+002
 20
1.373E+001
 11
3.3247E+002
 21
1.268E+001
  0
LINE
  8
V1L0
  6
CONTINUOUS
 62
40
 10
3.2677E+002
 20
1.838E+001
 11
3.2966E+002
 21
1.759E+001
  0
LINE
  8
V1L0
  6
CONTINUOUS
 62
40
 10
3.2598E+002
 20
1.549E+001
 11
3.2887E+002
 21
1.47E+001
  0
LINE
  8
V1L0
  6
CONTINUOUS
 62
40
 10
3.2598E+002
 20
1.549E+001
 11
3.2677E+002
 21
1.838E+001
  0
LINE
  8
V1L0
  6
CONTINUOUS
 62
40
 10
3.16E+002
 20
1.15E+001
 11
3.1805E+002
 21
1.904E+001
  0
LINE
  8
V1L0
  6
CONTINUOUS
 62
40
 10
3.4E+002
 20
7.35E+001
 11
3.65E+002
 21
7.35E+001
  0
LINE
  8
V1L0
  6
CONTINUOUS
 62
40
 10
3.4E+002
 20
2.25E+001
 11
3.65E+002
 21
2.25E+001
  0
CIRCLE
  8
V1L0
  6
CONTINUOUS
 62
40
 10
3.2500237E+002
 20
3.04984E+001
 40
2.75
  0
LINE
  8
V1L0
  6
CONTINUOUS
 62
40
 10
3.2364E+002
 20
2.811E+001
 11
3.2712E+002
 21
3.225E+001
  0
LINE
  8
V1L0
  6
CONTINUOUS
 62
40
 10
3.2288E+002
 20
2.875E+001
 11
3.2635E+002
 21
3.289E+001
  0
CIRCLE
  8
V1L0
  6
CONTINUOUS
 62
40
 10
3.2500237E+002
 20
6.54984E+001
 40
2.75
  0
LINE
  8
V1L0
  6
CONTINUOUS
 62
40
 10
3.2288E+002
 20
6.375E+001
 11
3.2635E+002
 21
6.789E+001
  0
LINE
  8
V1L0
  6
CONTINUOUS
 62
40
 10
3.2364E+002
 20
6.311E+001
 11
3.2712E+002
 21
6.725E+001
  0
LINE
  8
V1L0
  6
CONTINUOUS
 62
40
 10
3.4555E+002
 20
7.696E+001
 11
3.465E+002
 21
7.35E+001
  0
LINE
  8
V1L0
  6
CONTINUOUS
 62
40
 10
3.4205E+002
 20
8.411E+001
 11
3.435E+002
 21
8.45E+001
  0
LINE
  8
V1L0
  6
CONTINUOUS
 62
40
 10
3.4205E+002
 20
8.411E+001
 11
3.4494E+002
 21
7.35E+001
  0
LINE
  8
V1L0
  6
CONTINUOUS
 62
40
 10
3.4639E+002
 20
8.529E+001
 11
3.4871E+002
 21
7.679E+001
  0
LINE
  8
V1L0
  6
CONTINUOUS
 62
40
 10
3.4914E+002
 20
8.471E+001
 11
3.5078E+002
 21
7.868E+001
  0
LINE
  8
V1L0
  6
CONTINUOUS
 62
40
 10
3.461E+002
 20
7.608E+001
 11
3.4871E+002
 21
7.679E+001
  0
LINE
  8
V1L0
  6
CONTINUOUS
 62
40
 10
3.466E+002
 20
8.454E+001
 11
3.4852E+002
 21
8.507E+001
  0
LINE
  8
V1L0
  6
CONTINUOUS
 62
40
 10
3.485E+002
 20
7.754E+001
 11
3.5043E+002
 21
7.807E+001
  0
ARC
  8
V1L0
  6
CONTINUOUS
 62
40
 10
3.4866237E+002
 20
8.45784E+001
 40
5.0E-001
 50
1.526E+001
 51
1.0526E+002
  0
ARC
  8
V1L0
  6
CONTINUOUS
 62
40
 10
3.5030237E+002
 20
7.85484E+001
 40
5.0E-001
 50
2.8526E+002
 51
3.7526E+002
  0
LINE
  8
V1L0
  6
CONTINUOUS
 62
40
 10
3.4376E+002
 20
8.354E+001
 11
3.4379E+002
 21
8.458E+001
  0
LINE
  8
V1L0
  6
CONTINUOUS
 62
40
 10
3.4379E+002
 20
8.458E+001
 11
3.4639E+002
 21
8.529E+001
  0
LINE
  8
V1L0
  6
CONTINUOUS
 62
40
 10
3.4555E+002
 20
7.696E+001
 11
3.461E+002
 21
7.608E+001
  0
LINE
  8
V1L0
  6
CONTINUOUS
 62
40
 10
3.435E+002
 20
8.45E+001
 11
3.44E+002
 21
8.266E+001
  0
LINE
  8
V1L0
  6
CONTINUOUS
 62
40
 10
3.4071E+002
 20
7.762E+001
 11
3.436E+002
 21
7.841E+001
  0
LINE
  8
V1L0
  6
CONTINUOUS
 62
40
 10
3.3992E+002
 20
8.051E+001
 11
3.4281E+002
 21
8.13E+001
  0
LINE
  8
V1L0
  6
CONTINUOUS
 62
40
 10
3.5911E+002
 20
7.696E+001
 11
3.6006E+002
 21
7.35E+001
  0
LINE
  8
V1L0
  6
CONTINUOUS
 62
40
 10
3.5561E+002
 20
8.411E+001
 11
3.5706E+002
 21
8.45E+001
  0
LINE
  8
V1L0
  6
CONTINUOUS
 62
40
 10
3.5561E+002
 20
8.411E+001
 11
3.585E+002
 21
7.35E+001
  0
LINE
  8
V1L0
  6
CONTINUOUS
 62
40
 10
3.5995E+002
 20
8.529E+001
 11
3.6227E+002
 21
7.679E+001
  0
LINE
  8
V1L0
  6
CONTINUOUS
 62
40
 10
3.627E+002
 20
8.471E+001
 11
3.6434E+002
 21
7.868E+001
  0
LINE
  8
V1L0
  6
CONTINUOUS
 62
40
 10
3.5966E+002
 20
7.608E+001
 11
3.6227E+002
 21
7.679E+001
  0
LINE
  8
V1L0
  6
CONTINUOUS
 62
40
 10
3.6016E+002
 20
8.454E+001
 11
3.6208E+002
 21
8.507E+001
  0
LINE
  8
V1L0
  6
CONTINUOUS
 62
40
 10
3.6206E+002
 20
7.754E+001
 11
3.6399E+002
 21
7.807E+001
  0
ARC
  8
V1L0
  6
CONTINUOUS
 62
40
 10
3.6222237E+002
 20
8.45784E+001
 40
5.0E-001
 50
1.526E+001
 51
1.0526E+002
  0
ARC
  8
V1L0
  6
CONTINUOUS
 62
40
 10
3.6386237E+002
 20
7.85484E+001
 40
5.0E-001
 50
2.8526E+002
 51
3.7526E+002
  0
LINE
  8
V1L0
  6
CONTINUOUS
 62
40
 10
3.5732E+002
 20
8.354E+001
 11
3.5735E+002
 21
8.458E+001
  0
LINE
  8
V1L0
  6
CONTINUOUS
 62
40
 10
3.5735E+002
 20
8.458E+001
 11
3.5995E+002
 21
8.529E+001
  0
LINE
  8
V1L0
  6
CONTINUOUS
 62
40
 10
3.5911E+002
 20
7.696E+001
 11
3.5966E+002
 21
7.608E+001
  0
LINE
  8
V1L0
  6
CONTINUOUS
 62
40
 10
3.5706E+002
 20
8.45E+001
 11
3.5911E+002
 21
7.696E+001
  0
LINE
  8
V1L0
  6
CONTINUOUS
 62
40
 10
3.4641E+002
 20
8.332E+001
 11
3.4773E+002
 21
7.85E+001
  0
LINE
  8
V1L0
  6
CONTINUOUS
 62
40
 10
3.4387E+002
 20
7.744E+001
 11
3.4773E+002
 21
7.85E+001
  0
LINE
  8
V1L0
  6
CONTINUOUS
 62
40
 10
3.4255E+002
 20
8.227E+001
 11
3.4641E+002
 21
8.332E+001
  0
LINE
  8
V1L0
  6
CONTINUOUS
 62
40
 10
3.5427E+002
 20
7.762E+001
 11
3.5716E+002
 21
7.841E+001
  0
LINE
  8
V1L0
  6
CONTINUOUS
 62
40
 10
3.5348E+002
 20
8.051E+001
 11
3.5637E+002
 21
8.13E+001
  0
LINE
  8
V1L0
  6
CONTINUOUS
 62
40
 10
3.5348E+002
 20
8.051E+001
 11
3.5427E+002
 21
7.762E+001
  0
LINE
  8
V1L0
  6
CONTINUOUS
 62
40
 10
3.5706E+002
 20
8.45E+001
 11
3.5756E+002
 21
8.266E+001
  0
LINE
  8
V1L0
  6
CONTINUOUS
 62
40
 10
3.4555E+002
 20
1.904E+001
 11
3.465E+002
 21
2.25E+001
  0
LINE
  8
V1L0
  6
CONTINUOUS
 62
40
 10
3.4205E+002
 20
1.189E+001
 11
3.435E+002
 21
1.15E+001
  0
LINE
  8
V1L0
  6
CONTINUOUS
 62
40
 10
3.4205E+002
 20
1.189E+001
 11
3.4494E+002
 21
2.25E+001
  0
LINE
  8
V1L0
  6
CONTINUOUS
 62
40
 10
3.4639E+002
 20
1.071E+001
 11
3.4871E+002
 21
1.921E+001
  0
LINE
  8
V1L0
  6
CONTINUOUS
 62
40
 10
3.4914E+002
 20
1.129E+001
 11
3.5078E+002
 21
1.732E+001
  0
LINE
  8
V1L0
  6
CONTINUOUS
 62
40
 10
3.461E+002
 20
1.992E+001
 11
3.4871E+002
 21
1.921E+001
  0
LINE
  8
V1L0
  6
CONTINUOUS
 62
40
 10
3.466E+002
 20
1.146E+001
 11
3.4852E+002
 21
1.093E+001
  0
LINE
  8
V1L0
  6
CONTINUOUS
 62
40
 10
3.485E+002
 20
1.846E+001
 11
3.5043E+002
 21
1.793E+001
  0
ARC
  8
V1L0
  6
CONTINUOUS
 62
40
 10
3.4866237E+002
 20
1.14184E+001
 40
5.0E-001
 50
2.5474E+002
 51
3.4474E+002
  0
ARC
  8
V1L0
  6
CONTINUOUS
 62
40
 10
3.5030237E+002
 20
1.74484E+001
 40
5.0E-001
 50
3.4474E+002
 51
4.3474E+002
  0
LINE
  8
V1L0
  6
CONTINUOUS
 62
40
 10
3.4376E+002
 20
1.246E+001
 11
3.4379E+002
 21
1.142E+001
  0
LINE
  8
V1L0
  6
CONTINUOUS
 62
40
 10
3.4379E+002
 20
1.142E+001
 11
3.4639E+002
 21
1.071E+001
  0
LINE
  8
V1L0
  6
CONTINUOUS
 62
40
 10
3.4555E+002
 20
1.904E+001
 11
3.461E+002
 21
1.992E+001
  0
LINE
  8
V1L0
  6
CONTINUOUS
 62
40
 10
3.4071E+002
 20
1.838E+001
 11
3.436E+002
 21
1.759E+001
  0
LINE
  8
V1L0
  6
CONTINUOUS
 62
40
 10
3.3992E+002
 20
1.549E+001
 11
3.4281E+002
 21
1.47E+001
  0
LINE
  8
V1L0
  6
CONTINUOUS
 62
40
 10
3.5911E+002
 20
1.904E+001
 11
3.6006E+002
 21
2.25E+001
  0
LINE
  8
V1L0
  6
CONTINUOUS
 62
40
 10
3.5561E+002
 20
1.189E+001
 11
3.5706E+002
 21
1.15E+001
  0
LINE
  8
V1L0
  6
CONTINUOUS
 62
40
 10
3.5561E+002
 20
1.189E+001
 11
3.585E+002
 21
2.25E+001
  0
LINE
  8
V1L0
  6
CONTINUOUS
 62
40
 10
3.5995E+002
 20
1.071E+001
 11
3.6227E+002
 21
1.921E+001
  0
LINE
  8
V1L0
  6
CONTINUOUS
 62
40
 10
3.627E+002
 20
1.129E+001
 11
3.6434E+002
 21
1.732E+001
  0
LINE
  8
V1L0
  6
CONTINUOUS
 62
40
 10
3.5966E+002
 20
1.992E+001
 11
3.6227E+002
 21
1.921E+001
  0
LINE
  8
V1L0
  6
CONTINUOUS
 62
40
 10
3.6016E+002
 20
1.146E+001
 11
3.6208E+002
 21
1.093E+001
  0
LINE
  8
V1L0
  6
CONTINUOUS
 62
40
 10
3.6206E+002
 20
1.846E+001
 11
3.6399E+002
 21
1.793E+001
  0
ARC
  8
V1L0
  6
CONTINUOUS
 62
40
 10
3.6222237E+002
 20
1.14184E+001
 40
5.0E-001
 50
2.5474E+002
 51
3.4474E+002
  0
ARC
  8
V1L0
  6
CONTINUOUS
 62
40
 10
3.6386237E+002
 20
1.74484E+001
 40
5.0E-001
 50
3.4474E+002
 51
4.3474E+002
  0
LINE
  8
V1L0
  6
CONTINUOUS
 62
40
 10
3.5732E+002
 20
1.246E+001
 11
3.5735E+002
 21
1.142E+001
  0
LINE
  8
V1L0
  6
CONTINUOUS
 62
40
 10
3.5735E+002
 20
1.142E+001
 11
3.5995E+002
 21
1.071E+001
  0
LINE
  8
V1L0
  6
CONTINUOUS
 62
40
 10
3.5911E+002
 20
1.904E+001
 11
3.5966E+002
 21
1.992E+001
  0
LINE
  8
V1L0
  6
CONTINUOUS
 62
40
 10
3.5706E+002
 20
1.15E+001
 11
3.5756E+002
 21
1.334E+001
  0
LINE
  8
V1L0
  6
CONTINUOUS
 62
40
 10
3.5997E+002
 20
1.268E+001
 11
3.6129E+002
 21
1.75E+001
  0
LINE
  8
V1L0
  6
CONTINUOUS
 62
40
 10
3.5743E+002
 20
1.856E+001
 11
3.6129E+002
 21
1.75E+001
  0
LINE
  8
V1L0
  6
CONTINUOUS
 62
40
 10
3.5611E+002
 20
1.373E+001
 11
3.5997E+002
 21
1.268E+001
  0
LINE
  8
V1L0
  6
CONTINUOUS
 62
40
 10
3.5427E+002
 20
1.838E+001
 11
3.5716E+002
 21
1.759E+001
  0
LINE
  8
V1L0
  6
CONTINUOUS
 62
40
 10
3.5348E+002
 20
1.549E+001
 11
3.5637E+002
 21
1.47E+001
  0
LINE
  8
V1L0
  6
CONTINUOUS
 62
40
 10
3.5348E+002
 20
1.549E+001
 11
3.5427E+002
 21
1.838E+001
  0
LINE
  8
V1L0
  6
CONTINUOUS
 62
40
 10
3.435E+002
 20
1.15E+001
 11
3.4555E+002
 21
1.904E+001
  0
LINE
  8
V1L0
  6
CONTINUOUS
 62
40
 10
3.4E+002
 20
2.25E+001
 11
3.4E+002
 21
7.35E+001
  0
LINE
  8
V1L0
  6
CONTINUOUS
 62
40
 10
3.3992E+002
 20
8.051E+001
 11
3.4071E+002
 21
7.762E+001
  0
LINE
  8
V1L0
  6
CONTINUOUS
 62
40
 10
3.3992E+002
 20
1.549E+001
 11
3.4071E+002
 21
1.838E+001
  0
LINE
  8
V1L0
  6
CONTINUOUS
 62
40
 10
3.375E+002
 20
4.55E+001
 11
3.4E+002
 21
4.55E+001
  0
LINE
  8
V1L0
  6
CONTINUOUS
 62
40
 10
3.375E+002
 20
5.05E+001
 11
3.4E+002
 21
5.05E+001
  0
CIRCLE
  8
V1L0
  6
CONTINUOUS
 62
40
 10
3.5250237E+002
 20
6.54984E+001
 40
1.5
  0
CIRCLE
  8
V1L0
  6
CONTINUOUS
 62
40
 10
3.5250237E+002
 20
3.04984E+001
 40
1.5
  0
LINE
  8
V1L0
  6
CONTINUOUS
 62
40
 10
3.65E+002
 20
1.0
 11
3.65E+002
 21
2.25E+001
  0
LINE
  8
V1L0
  6
CONTINUOUS
 62
40
 10
3.65E+002
 20
7.35E+001
 11
3.65E+002
 21
9.5E+001
  0
LINE
  8
V1L0
  6
CONTINUOUS
 62
40
 10
3.65E+002
 20
2.25E+001
 11
3.65E+002
 21
7.35E+001
  0
LINE
  8
V1L0
  6
CONTINUOUS
 62
40
 10
3.3137E+002
 20
1.816E+001
 11
3.3161E+002
 21
1.904E+001
  0
LINE
  8
V1L0
  6
CONTINUOUS
 62
40
 10
3.5887E+002
 20
1.816E+001
 11
3.5911E+002
 21
1.904E+001
  0
LINE
  8
V1L0
  6
CONTINUOUS
 62
40
 10
3.4531E+002
 20
7.784E+001
 11
3.4555E+002
 21
7.696E+001
  0
LINE
  8
V1L0
  6
CONTINUOUS
 62
40
 10
3.1781E+002
 20
7.784E+001
 11
3.1805E+002
 21
7.696E+001
  0
LINE
  8
V1L0
  6
CONTINUOUS
 62
40
 10
1.62E+002
 20
2.25E+001
 11
1.62E+002
 21
7.35E+001
  0
LINE
  8
V1L0
  6
CONTINUOUS
 62
40
 10
1.62E+002
 20
1.6305E+002
 11
1.62E+002
 21
1.8805E+002
  0
LINE
  8
V1L0
  6
CONTINUOUS
 62
40
 10
1.62E+002
 20
1.9055E+002
 11
1.62E+002
 21
2.1555E+002
  0
LINE
  8
V1L0
  6
CONTINUOUS
 62
40
 10
2.825E+002
 20
2.25E+001
 11
2.825E+002
 21
7.35E+001
  0
LINE
  8
V1L0
  6
CONTINUOUS
 62
40
 10
2.575E+002
 20
4.8E+001
 11
2.575E+002
 21
8.023E+001
  0
LINE
  8
V1L0
  6
CONTINUOUS
 62
40
 10
2.575E+002
 20
7.35E+001
 11
2.825E+002
 21
7.35E+001
  0
LINE
  8
V1L0
  6
CONTINUOUS
 62
40
 10
2.575E+002
 20
2.25E+001
 11
2.825E+002
 21
2.25E+001
  0
LINE
  8
V1L0
  6
CONTINUOUS
 62
40
 10
2.575E+002
 20
1.0
 11
2.575E+002
 21
1.547E+001
  0
LINE
  8
V1L0
  6
CONTINUOUS
 62
40
 10
2.6305E+002
 20
7.696E+001
 11
2.64E+002
 21
7.35E+001
  0
LINE
  8
V1L0
  6
CONTINUOUS
 62
40
 10
2.5955E+002
 20
8.411E+001
 11
2.61E+002
 21
8.45E+001
  0
LINE
  8
V1L0
  6
CONTINUOUS
 62
40
 10
2.5955E+002
 20
8.411E+001
 11
2.6244E+002
 21
7.35E+001
  0
LINE
  8
V1L0
  6
CONTINUOUS
 62
40
 10
2.6389E+002
 20
8.529E+001
 11
2.6621E+002
 21
7.679E+001
  0
LINE
  8
V1L0
  6
CONTINUOUS
 62
40
 10
2.6664E+002
 20
8.471E+001
 11
2.6828E+002
 21
7.868E+001
  0
LINE
  8
V1L0
  6
CONTINUOUS
 62
40
 10
2.636E+002
 20
7.608E+001
 11
2.6621E+002
 21
7.679E+001
  0
LINE
  8
V1L0
  6
CONTINUOUS
 62
40
 10
2.641E+002
 20
8.454E+001
 11
2.6602E+002
 21
8.507E+001
  0
LINE
  8
V1L0
  6
CONTINUOUS
 62
40
 10
2.66E+002
 20
7.754E+001
 11
2.6793E+002
 21
7.807E+001
  0
ARC
  8
V1L0
  6
CONTINUOUS
 62
40
 10
2.6616237E+002
 20
8.45784E+001
 40
5.0E-001
 50
1.526E+001
 51
1.0526E+002
  0
ARC
  8
V1L0
  6
CONTINUOUS
 62
40
 10
2.6780237E+002
 20
7.85484E+001
 40
5.0E-001
 50
2.8526E+002
 51
3.7526E+002
  0
LINE
  8
V1L0
  6
CONTINUOUS
 62
40
 10
2.6126E+002
 20
8.354E+001
 11
2.6129E+002
 21
8.458E+001
  0
LINE
  8
V1L0
  6
CONTINUOUS
 62
40
 10
2.6129E+002
 20
8.458E+001
 11
2.6389E+002
 21
8.529E+001
  0
LINE
  8
V1L0
  6
CONTINUOUS
 62
40
 10
2.6305E+002
 20
7.696E+001
 11
2.636E+002
 21
7.608E+001
  0
LINE
  8
V1L0
  6
CONTINUOUS
 62
40
 10
2.61E+002
 20
8.45E+001
 11
2.615E+002
 21
8.266E+001
  0
LINE
  8
V1L0
  6
CONTINUOUS
 62
40
 10
2.5821E+002
 20
7.762E+001
 11
2.611E+002
 21
7.841E+001
  0
LINE
  8
V1L0
  6
CONTINUOUS
 62
40
 10
2.5742E+002
 20
8.051E+001
 11
2.6031E+002
 21
8.13E+001
  0
LINE
  8
V1L0
  6
CONTINUOUS
 62
40
 10
2.5742E+002
 20
8.051E+001
 11
2.5821E+002
 21
7.762E+001
  0
LINE
  8
V1L0
  6
CONTINUOUS
 62
40
 10
2.7311E+002
 20
8.411E+001
 11
2.7456E+002
 21
8.45E+001
  0
LINE
  8
V1L0
  6
CONTINUOUS
 62
40
 10
2.7311E+002
 20
8.411E+001
 11
2.76E+002
 21
7.35E+001
  0
LINE
  8
V1L0
  6
CONTINUOUS
 62
40
 10
2.7745E+002
 20
8.529E+001
 11
2.7977E+002
 21
7.679E+001
  0
LINE
  8
V1L0
  6
CONTINUOUS
 62
40
 10
2.802E+002
 20
8.471E+001
 11
2.8184E+002
 21
7.868E+001
  0
LINE
  8
V1L0
  6
CONTINUOUS
 62
40
 10
2.7716E+002
 20
7.608E+001
 11
2.7977E+002
 21
7.679E+001
  0
LINE
  8
V1L0
  6
CONTINUOUS
 62
40
 10
2.7766E+002
 20
8.454E+001
 11
2.7958E+002
 21
8.507E+001
  0
LINE
  8
V1L0
  6
CONTINUOUS
 62
40
 10
2.7956E+002
 20
7.754E+001
 11
2.8149E+002
 21
7.807E+001
  0
ARC
  8
V1L0
  6
CONTINUOUS
 62
40
 10
2.7972237E+002
 20
8.45784E+001
 40
5.0E-001
 50
1.526E+001
 51
1.0526E+002
  0
ARC
  8
V1L0
  6
CONTINUOUS
 62
40
 10
2.8136237E+002
 20
7.85484E+001
 40
5.0E-001
 50
2.8526E+002
 51
3.7526E+002
  0
LINE
  8
V1L0
  6
CONTINUOUS
 62
40
 10
2.7482E+002
 20
8.354E+001
 11
2.7485E+002
 21
8.458E+001
  0
LINE
  8
V1L0
  6
CONTINUOUS
 62
40
 10
2.7485E+002
 20
8.458E+001
 11
2.7745E+002
 21
8.529E+001
  0
LINE
  8
V1L0
  6
CONTINUOUS
 62
40
 10
2.7661E+002
 20
7.696E+001
 11
2.7716E+002
 21
7.608E+001
  0
LINE
  8
V1L0
  6
CONTINUOUS
 62
40
 10
2.6391E+002
 20
8.332E+001
 11
2.6523E+002
 21
7.85E+001
  0
LINE
  8
V1L0
  6
CONTINUOUS
 62
40
 10
2.6137E+002
 20
7.744E+001
 11
2.6523E+002
 21
7.85E+001
  0
LINE
  8
V1L0
  6
CONTINUOUS
 62
40
 10
2.6005E+002
 20
8.227E+001
 11
2.6391E+002
 21
8.332E+001
  0
LINE
  8
V1L0
  6
CONTINUOUS
 62
40
 10
2.7177E+002
 20
7.762E+001
 11
2.7466E+002
 21
7.841E+001
  0
LINE
  8
V1L0
  6
CONTINUOUS
 62
40
 10
2.7098E+002
 20
8.051E+001
 11
2.7387E+002
 21
8.13E+001
  0
LINE
  8
V1L0
  6
CONTINUOUS
 62
40
 10
2.7098E+002
 20
8.051E+001
 11
2.7177E+002
 21
7.762E+001
  0
LINE
  8
V1L0
  6
CONTINUOUS
 62
40
 10
2.7456E+002
 20
8.45E+001
 11
2.7756E+002
 21
7.35E+001
  0
LINE
  8
V1L0
  6
CONTINUOUS
 62
40
 10
2.5955E+002
 20
1.189E+001
 11
2.61E+002
 21
1.15E+001
  0
LINE
  8
V1L0
  6
CONTINUOUS
 62
40
 10
2.5955E+002
 20
1.189E+001
 11
2.6244E+002
 21
2.25E+001
  0
LINE
  8
V1L0
  6
CONTINUOUS
 62
40
 10
2.6389E+002
 20
1.071E+001
 11
2.6621E+002
 21
1.921E+001
  0
LINE
  8
V1L0
  6
CONTINUOUS
 62
40
 10
2.6664E+002
 20
1.129E+001
 11
2.6828E+002
 21
1.732E+001
  0
LINE
  8
V1L0
  6
CONTINUOUS
 62
40
 10
2.636E+002
 20
1.992E+001
 11
2.6621E+002
 21
1.921E+001
  0
LINE
  8
V1L0
  6
CONTINUOUS
 62
40
 10
2.641E+002
 20
1.146E+001
 11
2.6602E+002
 21
1.093E+001
  0
LINE
  8
V1L0
  6
CONTINUOUS
 62
40
 10
2.66E+002
 20
1.846E+001
 11
2.6793E+002
 21
1.793E+001
  0
ARC
  8
V1L0
  6
CONTINUOUS
 62
40
 10
2.6616237E+002
 20
1.14184E+001
 40
5.0E-001
 50
2.5474E+002
 51
3.4474E+002
  0
ARC
  8
V1L0
  6
CONTINUOUS
 62
40
 10
2.6780237E+002
 20
1.74484E+001
 40
5.0E-001
 50
3.4474E+002
 51
4.3474E+002
  0
LINE
  8
V1L0
  6
CONTINUOUS
 62
40
 10
2.6126E+002
 20
1.246E+001
 11
2.6129E+002
 21
1.142E+001
  0
LINE
  8
V1L0
  6
CONTINUOUS
 62
40
 10
2.6129E+002
 20
1.142E+001
 11
2.6389E+002
 21
1.071E+001
  0
LINE
  8
V1L0
  6
CONTINUOUS
 62
40
 10
2.6305E+002
 20
1.904E+001
 11
2.636E+002
 21
1.992E+001
  0
LINE
  8
V1L0
  6
CONTINUOUS
 62
40
 10
2.61E+002
 20
1.15E+001
 11
2.64E+002
 21
2.25E+001
  0
LINE
  8
V1L0
  6
CONTINUOUS
 62
40
 10
2.5821E+002
 20
1.838E+001
 11
2.611E+002
 21
1.759E+001
  0
LINE
  8
V1L0
  6
CONTINUOUS
 62
40
 10
2.5742E+002
 20
1.549E+001
 11
2.6031E+002
 21
1.47E+001
  0
LINE
  8
V1L0
  6
CONTINUOUS
 62
40
 10
2.7661E+002
 20
1.904E+001
 11
2.7756E+002
 21
2.25E+001
  0
LINE
  8
V1L0
  6
CONTINUOUS
 62
40
 10
2.7311E+002
 20
1.189E+001
 11
2.7456E+002
 21
1.15E+001
  0
LINE
  8
V1L0
  6
CONTINUOUS
 62
40
 10
2.7311E+002
 20
1.189E+001
 11
2.76E+002
 21
2.25E+001
  0
LINE
  8
V1L0
  6
CONTINUOUS
 62
40
 10
2.7745E+002
 20
1.071E+001
 11
2.7977E+002
 21
1.921E+001
  0
LINE
  8
V1L0
  6
CONTINUOUS
 62
40
 10
2.802E+002
 20
1.129E+001
 11
2.8184E+002
 21
1.732E+001
  0
LINE
  8
V1L0
  6
CONTINUOUS
 62
40
 10
2.7716E+002
 20
1.992E+001
 11
2.7977E+002
 21
1.921E+001
  0
LINE
  8
V1L0
  6
CONTINUOUS
 62
40
 10
2.7766E+002
 20
1.146E+001
 11
2.7958E+002
 21
1.093E+001
  0
LINE
  8
V1L0
  6
CONTINUOUS
 62
40
 10
2.7956E+002
 20
1.846E+001
 11
2.8149E+002
 21
1.793E+001
  0
ARC
  8
V1L0
  6
CONTINUOUS
 62
40
 10
2.7972237E+002
 20
1.14184E+001
 40
5.0E-001
 50
2.5474E+002
 51
3.4474E+002
  0
ARC
  8
V1L0
  6
CONTINUOUS
 62
40
 10
2.8136237E+002
 20
1.74484E+001
 40
5.0E-001
 50
3.4474E+002
 51
4.3474E+002
  0
LINE
  8
V1L0
  6
CONTINUOUS
 62
40
 10
2.7482E+002
 20
1.246E+001
 11
2.7485E+002
 21
1.142E+001
  0
LINE
  8
V1L0
  6
CONTINUOUS
 62
40
 10
2.7485E+002
 20
1.142E+001
 11
2.7745E+002
 21
1.071E+001
  0
LINE
  8
V1L0
  6
CONTINUOUS
 62
40
 10
2.7661E+002
 20
1.904E+001
 11
2.7716E+002
 21
1.992E+001
  0
LINE
  8
V1L0
  6
CONTINUOUS
 62
40
 10
2.7456E+002
 20
1.15E+001
 11
2.7506E+002
 21
1.334E+001
  0
LINE
  8
V1L0
  6
CONTINUOUS
 62
40
 10
2.7747E+002
 20
1.268E+001
 11
2.7879E+002
 21
1.75E+001
  0
LINE
  8
V1L0
  6
CONTINUOUS
 62
40
 10
2.7493E+002
 20
1.856E+001
 11
2.7879E+002
 21
1.75E+001
  0
LINE
  8
V1L0
  6
CONTINUOUS
 62
40
 10
2.7361E+002
 20
1.373E+001
 11
2.7747E+002
 21
1.268E+001
  0
LINE
  8
V1L0
  6
CONTINUOUS
 62
40
 10
2.7177E+002
 20
1.838E+001
 11
2.7466E+002
 21
1.759E+001
  0
LINE
  8
V1L0
  6
CONTINUOUS
 62
40
 10
2.7098E+002
 20
1.549E+001
 11
2.7387E+002
 21
1.47E+001
  0
LINE
  8
V1L0
  6
CONTINUOUS
 62
40
 10
2.7098E+002
 20
1.549E+001
 11
2.7177E+002
 21
1.838E+001
  0
LINE
  8
V1L0
  6
CONTINUOUS
 62
40
 10
2.5742E+002
 20
1.549E+001
 11
2.5821E+002
 21
1.838E+001
  0
LINE
  8
V1L0
  6
CONTINUOUS
 62
40
 10
3.1E+002
 20
2.25E+001
 11
3.1E+002
 21
7.35E+001
  0
LINE
  8
V1L0
  6
CONTINUOUS
 62
40
 10
2.85E+002
 20
7.35E+001
 11
3.1E+002
 21
7.35E+001
  0
LINE
  8
V1L0
  6
CONTINUOUS
 62
40
 10
2.85E+002
 20
2.25E+001
 11
3.1E+002
 21
2.25E+001
  0
LINE
  8
V1L0
  6
CONTINUOUS
 62
40
 10
2.9055E+002
 20
7.696E+001
 11
2.915E+002
 21
7.35E+001
  0
LINE
  8
V1L0
  6
CONTINUOUS
 62
40
 10
2.8705E+002
 20
8.411E+001
 11
2.885E+002
 21
8.45E+001
  0
LINE
  8
V1L0
  6
CONTINUOUS
 62
40
 10
2.8705E+002
 20
8.411E+001
 11
2.8994E+002
 21
7.35E+001
  0
LINE
  8
V1L0
  6
CONTINUOUS
 62
40
 10
2.9139E+002
 20
8.529E+001
 11
2.9371E+002
 21
7.679E+001
  0
LINE
  8
V1L0
  6
CONTINUOUS
 62
40
 10
2.9414E+002
 20
8.471E+001
 11
2.9578E+002
 21
7.868E+001
  0
LINE
  8
V1L0
  6
CONTINUOUS
 62
40
 10
2.911E+002
 20
7.608E+001
 11
2.9371E+002
 21
7.679E+001
  0
LINE
  8
V1L0
  6
CONTINUOUS
 62
40
 10
2.916E+002
 20
8.454E+001
 11
2.9352E+002
 21
8.507E+001
  0
LINE
  8
V1L0
  6
CONTINUOUS
 62
40
 10
2.935E+002
 20
7.754E+001
 11
2.9543E+002
 21
7.807E+001
  0
ARC
  8
V1L0
  6
CONTINUOUS
 62
40
 10
2.9366237E+002
 20
8.45784E+001
 40
5.0E-001
 50
1.526E+001
 51
1.0526E+002
  0
ARC
  8
V1L0
  6
CONTINUOUS
 62
40
 10
2.9530237E+002
 20
7.85484E+001
 40
5.0E-001
 50
2.8526E+002
 51
3.7526E+002
  0
LINE
  8
V1L0
  6
CONTINUOUS
 62
40
 10
2.8876E+002
 20
8.354E+001
 11
2.8879E+002
 21
8.458E+001
  0
LINE
  8
V1L0
  6
CONTINUOUS
 62
40
 10
2.8879E+002
 20
8.458E+001
 11
2.9139E+002
 21
8.529E+001
  0
LINE
  8
V1L0
  6
CONTINUOUS
 62
40
 10
2.9055E+002
 20
7.696E+001
 11
2.911E+002
 21
7.608E+001
  0
LINE
  8
V1L0
  6
CONTINUOUS
 62
40
 10
2.885E+002
 20
8.45E+001
 11
2.89E+002
 21
8.266E+001
  0
LINE
  8
V1L0
  6
CONTINUOUS
 62
40
 10
2.8571E+002
 20
7.762E+001
 11
2.886E+002
 21
7.841E+001
  0
LINE
  8
V1L0
  6
CONTINUOUS
 62
40
 10
2.8492E+002
 20
8.051E+001
 11
2.8781E+002
 21
8.13E+001
  0
LINE
  8
V1L0
  6
CONTINUOUS
 62
40
 10
3.0061E+002
 20
8.411E+001
 11
3.0206E+002
 21
8.45E+001
  0
LINE
  8
V1L0
  6
CONTINUOUS
 62
40
 10
3.0061E+002
 20
8.411E+001
 11
3.035E+002
 21
7.35E+001
  0
LINE
  8
V1L0
  6
CONTINUOUS
 62
40
 10
3.0495E+002
 20
8.529E+001
 11
3.0727E+002
 21
7.679E+001
  0
LINE
  8
V1L0
  6
CONTINUOUS
 62
40
 10
3.077E+002
 20
8.471E+001
 11
3.0934E+002
 21
7.868E+001
  0
LINE
  8
V1L0
  6
CONTINUOUS
 62
40
 10
3.0466E+002
 20
7.608E+001
 11
3.0727E+002
 21
7.679E+001
  0
LINE
  8
V1L0
  6
CONTINUOUS
 62
40
 10
3.0516E+002
 20
8.454E+001
 11
3.0708E+002
 21
8.507E+001
  0
LINE
  8
V1L0
  6
CONTINUOUS
 62
40
 10
3.0706E+002
 20
7.754E+001
 11
3.0899E+002
 21
7.807E+001
  0
ARC
  8
V1L0
  6
CONTINUOUS
 62
40
 10
3.0722237E+002
 20
8.45784E+001
 40
5.0E-001
 50
1.526E+001
 51
1.0526E+002
  0
ARC
  8
V1L0
  6
CONTINUOUS
 62
40
 10
3.0886237E+002
 20
7.85484E+001
 40
5.0E-001
 50
2.8526E+002
 51
3.7526E+002
  0
LINE
  8
V1L0
  6
CONTINUOUS
 62
40
 10
3.0232E+002
 20
8.354E+001
 11
3.0235E+002
 21
8.458E+001
  0
LINE
  8
V1L0
  6
CONTINUOUS
 62
40
 10
3.0235E+002
 20
8.458E+001
 11
3.0495E+002
 21
8.529E+001
  0
LINE
  8
V1L0
  6
CONTINUOUS
 62
40
 10
3.0411E+002
 20
7.696E+001
 11
3.0466E+002
 21
7.608E+001
  0
LINE
  8
V1L0
  6
CONTINUOUS
 62
40
 10
2.9141E+002
 20
8.332E+001
 11
2.9273E+002
 21
7.85E+001
  0
LINE
  8
V1L0
  6
CONTINUOUS
 62
40
 10
2.8887E+002
 20
7.744E+001
 11
2.9273E+002
 21
7.85E+001
  0
LINE
  8
V1L0
  6
CONTINUOUS
 62
40
 10
2.8755E+002
 20
8.227E+001
 11
2.9141E+002
 21
8.332E+001
  0
LINE
  8
V1L0
  6
CONTINUOUS
 62
40
 10
2.9927E+002
 20
7.762E+001
 11
3.0216E+002
 21
7.841E+001
  0
LINE
  8
V1L0
  6
CONTINUOUS
 62
40
 10
2.9848E+002
 20
8.051E+001
 11
3.0137E+002
 21
8.13E+001
  0
LINE
  8
V1L0
  6
CONTINUOUS
 62
40
 10
2.9848E+002
 20
8.051E+001
 11
2.9927E+002
 21
7.762E+001
  0
LINE
  8
V1L0
  6
CONTINUOUS
 62
40
 10
3.0206E+002
 20
8.45E+001
 11
3.0506E+002
 21
7.35E+001
  0
LINE
  8
V1L0
  6
CONTINUOUS
 62
40
 10
2.8705E+002
 20
1.189E+001
 11
2.885E+002
 21
1.15E+001
  0
LINE
  8
V1L0
  6
CONTINUOUS
 62
40
 10
2.8705E+002
 20
1.189E+001
 11
2.8994E+002
 21
2.25E+001
  0
LINE
  8
V1L0
  6
CONTINUOUS
 62
40
 10
2.9139E+002
 20
1.071E+001
 11
2.9371E+002
 21
1.921E+001
  0
LINE
  8
V1L0
  6
CONTINUOUS
 62
40
 10
2.9414E+002
 20
1.129E+001
 11
2.9578E+002
 21
1.732E+001
  0
LINE
  8
V1L0
  6
CONTINUOUS
 62
40
 10
2.911E+002
 20
1.992E+001
 11
2.9371E+002
 21
1.921E+001
  0
LINE
  8
V1L0
  6
CONTINUOUS
 62
40
 10
2.916E+002
 20
1.146E+001
 11
2.9352E+002
 21
1.093E+001
  0
LINE
  8
V1L0
  6
CONTINUOUS
 62
40
 10
2.935E+002
 20
1.846E+001
 11
2.9543E+002
 21
1.793E+001
  0
ARC
  8
V1L0
  6
CONTINUOUS
 62
40
 10
2.9366237E+002
 20
1.14184E+001
 40
5.0E-001
 50
2.5474E+002
 51
3.4474E+002
  0
ARC
  8
V1L0
  6
CONTINUOUS
 62
40
 10
2.9530237E+002
 20
1.74484E+001
 40
5.0E-001
 50
3.4474E+002
 51
4.3474E+002
  0
LINE
  8
V1L0
  6
CONTINUOUS
 62
40
 10
2.8876E+002
 20
1.246E+001
 11
2.8879E+002
 21
1.142E+001
  0
LINE
  8
V1L0
  6
CONTINUOUS
 62
40
 10
2.8879E+002
 20
1.142E+001
 11
2.9139E+002
 21
1.071E+001
  0
LINE
  8
V1L0
  6
CONTINUOUS
 62
40
 10
2.9055E+002
 20
1.904E+001
 11
2.911E+002
 21
1.992E+001
  0
LINE
  8
V1L0
  6
CONTINUOUS
 62
40
 10
2.885E+002
 20
1.15E+001
 11
2.915E+002
 21
2.25E+001
  0
LINE
  8
V1L0
  6
CONTINUOUS
 62
40
 10
2.8571E+002
 20
1.838E+001
 11
2.886E+002
 21
1.759E+001
  0
LINE
  8
V1L0
  6
CONTINUOUS
 62
40
 10
2.8492E+002
 20
1.549E+001
 11
2.8781E+002
 21
1.47E+001
  0
LINE
  8
V1L0
  6
CONTINUOUS
 62
40
 10
3.0411E+002
 20
1.904E+001
 11
3.0506E+002
 21
2.25E+001
  0
LINE
  8
V1L0
  6
CONTINUOUS
 62
40
 10
3.0061E+002
 20
1.189E+001
 11
3.0206E+002
 21
1.15E+001
  0
LINE
  8
V1L0
  6
CONTINUOUS
 62
40
 10
3.0061E+002
 20
1.189E+001
 11
3.035E+002
 21
2.25E+001
  0
LINE
  8
V1L0
  6
CONTINUOUS
 62
40
 10
3.0495E+002
 20
1.071E+001
 11
3.0727E+002
 21
1.921E+001
  0
LINE
  8
V1L0
  6
CONTINUOUS
 62
40
 10
3.077E+002
 20
1.129E+001
 11
3.0934E+002
 21
1.732E+001
  0
LINE
  8
V1L0
  6
CONTINUOUS
 62
40
 10
3.0466E+002
 20
1.992E+001
 11
3.0727E+002
 21
1.921E+001
  0
LINE
  8
V1L0
  6
CONTINUOUS
 62
40
 10
3.0516E+002
 20
1.146E+001
 11
3.0708E+002
 21
1.093E+001
  0
LINE
  8
V1L0
  6
CONTINUOUS
 62
40
 10
3.0706E+002
 20
1.846E+001
 11
3.0899E+002
 21
1.793E+001
  0
ARC
  8
V1L0
  6
CONTINUOUS
 62
40
 10
3.0722237E+002
 20
1.14184E+001
 40
5.0E-001
 50
2.5474E+002
 51
3.4474E+002
  0
ARC
  8
V1L0
  6
CONTINUOUS
 62
40
 10
3.0886237E+002
 20
1.74484E+001
 40
5.0E-001
 50
3.4474E+002
 51
4.3474E+002
  0
LINE
  8
V1L0
  6
CONTINUOUS
 62
40
 10
3.0232E+002
 20
1.246E+001
 11
3.0235E+002
 21
1.142E+001
  0
LINE
  8
V1L0
  6
CONTINUOUS
 62
40
 10
3.0235E+002
 20
1.142E+001
 11
3.0495E+002
 21
1.071E+001
  0
LINE
  8
V1L0
  6
CONTINUOUS
 62
40
 10
3.0411E+002
 20
1.904E+001
 11
3.0466E+002
 21
1.992E+001
  0
LINE
  8
V1L0
  6
CONTINUOUS
 62
40
 10
3.0206E+002
 20
1.15E+001
 11
3.0256E+002
 21
1.334E+001
  0
LINE
  8
V1L0
  6
CONTINUOUS
 62
40
 10
3.0497E+002
 20
1.268E+001
 11
3.0629E+002
 21
1.75E+001
  0
LINE
  8
V1L0
  6
CONTINUOUS
 62
40
 10
3.0243E+002
 20
1.856E+001
 11
3.0629E+002
 21
1.75E+001
  0
LINE
  8
V1L0
  6
CONTINUOUS
 62
40
 10
3.0111E+002
 20
1.373E+001
 11
3.0497E+002
 21
1.268E+001
  0
LINE
  8
V1L0
  6
CONTINUOUS
 62
40
 10
2.9927E+002
 20
1.838E+001
 11
3.0216E+002
 21
1.759E+001
  0
LINE
  8
V1L0
  6
CONTINUOUS
 62
40
 10
2.9848E+002
 20
1.549E+001
 11
3.0137E+002
 21
1.47E+001
  0
LINE
  8
V1L0
  6
CONTINUOUS
 62
40
 10
2.9848E+002
 20
1.549E+001
 11
2.9927E+002
 21
1.838E+001
  0
LINE
  8
V1L0
  6
CONTINUOUS
 62
40
 10
2.85E+002
 20
2.25E+001
 11
2.85E+002
 21
7.35E+001
  0
LINE
  8
V1L0
  6
CONTINUOUS
 62
40
 10
2.8492E+002
 20
8.051E+001
 11
2.8571E+002
 21
7.762E+001
  0
LINE
  8
V1L0
  6
CONTINUOUS
 62
40
 10
2.8492E+002
 20
1.549E+001
 11
2.8571E+002
 21
1.838E+001
  0
LINE
  8
V1L0
  6
CONTINUOUS
 62
40
 10
2.825E+002
 20
4.55E+001
 11
2.85E+002
 21
4.55E+001
  0
LINE
  8
V1L0
  6
CONTINUOUS
 62
40
 10
2.825E+002
 20
5.05E+001
 11
2.85E+002
 21
5.05E+001
  0
LINE
  8
V1L0
  6
CONTINUOUS
 62
40
 10
3.1E+002
 20
4.55E+001
 11
3.125E+002
 21
4.55E+001
  0
LINE
  8
V1L0
  6
CONTINUOUS
 62
40
 10
3.1E+002
 20
5.05E+001
 11
3.125E+002
 21
5.05E+001
  0
LINE
  8
V1L0
  6
CONTINUOUS
 62
40
 10
3.125E+002
 20
2.25E+001
 11
3.125E+002
 21
7.35E+001
  0
LINE
  8
V1L0
  6
CONTINUOUS
 62
40
 10
2.6281E+002
 20
7.784E+001
 11
2.6305E+002
 21
7.696E+001
  0
LINE
  8
V1L0
  6
CONTINUOUS
 62
40
 10
2.9031E+002
 20
7.784E+001
 11
2.9055E+002
 21
7.696E+001
  0
LINE
  8
V1L0
  6
CONTINUOUS
 62
40
 10
3.0387E+002
 20
1.816E+001
 11
3.0411E+002
 21
1.904E+001
  0
LINE
  8
V1L0
  6
CONTINUOUS
 62
40
 10
2.7637E+002
 20
1.816E+001
 11
2.7661E+002
 21
1.904E+001
  0
LINE
  8
V1L0
  6
CONTINUOUS
 62
40
 10
2.575E+002
 20
1.577E+001
 11
2.575E+002
 21
4.8E+001
  0
LINE
  8
V1L0
  6
CONTINUOUS
 62
40
 10
2.575E+002
 20
8.053E+001
 11
2.575E+002
 21
9.5E+001
  0
LINE
  8
V1L0
  6
CONTINUOUS
 62
40
 10
1.085E+002
 20
8.053E+001
 11
1.085E+002
 21
9.5E+001
  0
LINE
  8
V1L0
  6
CONTINUOUS
 62
40
 10
1.085E+002
 20
1.577E+001
 11
1.085E+002
 21
4.8E+001
  0
ENDSEC
  0
EOF
