  0
SECTION
  2
HEADER
  9
$ACADVER
  1
AC1009
999
I-DEAS Drafting Master Series 7m3 Not Encoded
  9
$EXTMIN
 10
0.0
 20
0.0
  9
$EXTMAX
 10
1.2739005E+002
 20
1.5941421E+002
  9
$TEXTSIZE
 40
1.25E-001
  9
$LTSCALE
 40
1.0
  9
$CLAYER
  8
AUTOCAD0
  9
$CECOLOR
 62
1
  9
$DIMASZ
 40
1.25E-001
  9
$DIMEXO
 40
6.25E-002
  9
$DIMDLI
 40
2.5E-001
  9
$DIMEXE
 40
1.25E-001
  9
$DIMTP
 40
5.0E-003
  9
$DIMTM
 40
-5.0E-003
  9
$DIMTXT
 40
1.25E-001
  9
$DIMLIM
 70
0
  9
$DIMTIH
 70
1
  9
$DIMTOH
 70
1
  9
$DIMSE1
 70
0
  9
$DIMSE2
 70
0
  9
$DIMTAD
 70
0
  9
$DIMASO
 70
1
  9
$DIMALT
 70
0
  9
$DIMALTD
 70
0
  9
$DIMTOFL
 70
1
  9
$DIMTIX
 70
0
  9
$DIMSAH
 70
0
  9
$DIMTFAC
 40
1.0
  9
$DIMGAP
 40
6.25E-002
  9
$LUNITS
 70
2
  9
$LUPREC
 70
3
  9
$FILLETRAD
 40
2.5E-001
  9
$AUNITS
 70
0
  9
$AUPREC
 70
1
  9
$CHAMFERA
 40
2.5E-001
  9
$CHAMFERB
 40
2.5E-001
  9
$ANGBASE
 50
0.0
  9
$ANGDIR
 70
0
  9
$PDMODE
 70
2
  9
$PDSIZE
 40
-1.0E-002
  9
$SPLINETYPE
 70
6
  0
ENDSEC
  0
SECTION
  2
TABLES
  0
TABLE
  2
LTYPE
 70
7
  0
LTYPE
  2
HIDDENNEW00
  3
_ 
 70
64
 72
65
 73
2
 40
1.875E-001
 49
1.25E-001
 49
-6.25E-002
  0
LTYPE
  2
HIDDENNEW01
  3
_ 
 70
64
 72
65
 73
2
 40
1.875E-001
 49
1.25E-001
 49
-6.25E-002
  0
LTYPE
  2
HIDDEN
  3
_ 
 70
64
 72
65
 73
2
 40
1.875E-001
 49
1.25E-001
 49
-6.25E-002
  0
LTYPE
  2
CENTERLINE
  3
_ 
 70
64
 72
65
 73
4
 40
1.25
 49
1.0
 49
-6.25E-002
 49
1.25E-001
 49
-6.25E-002
  0
LTYPE
  2
PHANTOM
  3
_ 
 70
64
 72
65
 73
6
 40
1.1875
 49
7.5E-001
 49
-6.25E-002
 49
1.25E-001
 49
-6.25E-002
 49
1.25E-001
 49
-6.25E-002
  0
LTYPE
  2
SHORT_DASH
  3
_ 
 70
64
 72
65
 73
2
 40
1.25E-001
 49
6.25E-002
 49
-6.25E-002
  0
LTYPE
  2
LONG_DASH
  3
_ 
 70
64
 72
65
 73
2
 40
3.75E-001
 49
1.875E-001
 49
-1.875E-001
  0
ENDTAB
  0
TABLE
  2
LAYER
 70
258
  0
LAYER
  2
AUTOCAD0
 70
0
 62
7
  6
HIDDENNEW00
  0
LAYER
  2
Drafting_Hidden_Entities
 70
1
 62
7
  6
CONTINUOUS
  0
ENDTAB
  0
TABLE
  2
STYLE
 70
1
  0
STYLE
  2
STANDARD
 70
64
 40
0.0
 41
1.0
 50
0.0
 71
0
 42
1.0
  3
monotxt.shx
  4

  0
ENDTAB
  0
TABLE
  2
VIEW
 70
0
  0
ENDTAB
  0
TABLE
  2
DIMSTYLE
 70
0
  0
ENDTAB
  0
ENDSEC
  0
SECTION
  2
BLOCKS
  0
ENDSEC
  0
SECTION
  2
ENTITIES
  0
TEXT
  8
AUTOCAD0
  6
CONTINUOUS
 62
40
 10
9.3651798E+001
 20
7.7040468E+001
 40
2.0
  1
OESAZX 169
 41
9.265E-001
  0
LINE
  8
AUTOCAD0
  6
CONTINUOUS
 62
40
 10
8.4975831E+001
 20
1.25E+001
 11
1.2697583E+002
 21
1.25E+001
  0
LINE
  8
AUTOCAD0
  6
CONTINUOUS
 62
40
 10
1.2697583E+002
 20
1.25E+001
 11
1.2697583E+002
 21
8.25E+001
  0
LINE
  8
AUTOCAD0
  6
CONTINUOUS
 62
40
 10
8.4975831E+001
 20
8.25E+001
 11
1.2697583E+002
 21
8.25E+001
  0
LINE
  8
AUTOCAD0
  6
CONTINUOUS
 62
40
 10
9.1975831E+001
 20
1.45E+001
 11
9.1975831E+001
 21
8.05E+001
  0
LINE
  8
AUTOCAD0
  6
CONTINUOUS
 62
40
 10
1.1797583E+002
 20
1.45E+001
 11
1.1797583E+002
 21
2.5E+001
  0
LINE
  8
AUTOCAD0
  6
CONTINUOUS
 62
40
 10
1.0097583E+002
 20
1.45E+001
 11
1.0097583E+002
 21
2.5E+001
  0
LINE
  8
AUTOCAD0
  6
CONTINUOUS
 62
40
 10
8.4975831E+001
 20
8.05E+001
 11
1.2697583E+002
 21
8.05E+001
  0
LINE
  8
AUTOCAD0
  6
CONTINUOUS
 62
40
 10
8.4975831E+001
 20
1.45E+001
 11
1.2697583E+002
 21
1.45E+001
  0
LINE
  8
AUTOCAD0
  6
CONTINUOUS
 62
40
 10
9.1975831E+001
 20
2.6E+001
 11
1.2697583E+002
 21
2.6E+001
  0
LINE
  8
AUTOCAD0
  6
CONTINUOUS
 62
40
 10
9.1975831E+001
 20
3.7E+001
 11
1.2697583E+002
 21
3.7E+001
  0
LINE
  8
AUTOCAD0
  6
CONTINUOUS
 62
40
 10
9.1975831E+001
 20
4.8E+001
 11
1.2697583E+002
 21
4.8E+001
  0
LINE
  8
AUTOCAD0
  6
CONTINUOUS
 62
40
 10
9.1975831E+001
 20
5.9E+001
 11
1.2697583E+002
 21
5.9E+001
  0
LINE
  8
AUTOCAD0
  6
CONTINUOUS
 62
40
 10
9.1975831E+001
 20
7.0E+001
 11
1.2697583E+002
 21
7.0E+001
  0
LINE
  8
AUTOCAD0
  6
CONTINUOUS
 62
40
 10
9.1975831E+001
 20
6.9E+001
 11
1.2697583E+002
 21
6.9E+001
  0
LINE
  8
AUTOCAD0
  6
CONTINUOUS
 62
40
 10
9.1975831E+001
 20
5.8E+001
 11
1.2697583E+002
 21
5.8E+001
  0
LINE
  8
AUTOCAD0
  6
CONTINUOUS
 62
40
 10
9.1975831E+001
 20
4.7E+001
 11
1.2697583E+002
 21
4.7E+001
  0
LINE
  8
AUTOCAD0
  6
CONTINUOUS
 62
40
 10
9.1975831E+001
 20
3.6E+001
 11
1.2697583E+002
 21
3.6E+001
  0
LINE
  8
AUTOCAD0
  6
CONTINUOUS
 62
40
 10
9.1975831E+001
 20
2.5E+001
 11
1.2697583E+002
 21
2.5E+001
  0
LINE
  8
AUTOCAD0
  6
CONTINUOUS
 62
40
 10
8.4975831E+001
 20
8.35E+001
 11
8.4975831E+001
 21
8.3E+001
  0
LINE
  8
AUTOCAD0
  6
CONTINUOUS
 62
40
 10
8.4975831E+001
 20
1.45E+001
 11
8.4975831E+001
 21
1.25E+001
  0
LINE
  8
AUTOCAD0
  6
CONTINUOUS
 62
40
 10
1.1797583E+002
 20
2.6E+001
 11
1.1797583E+002
 21
3.6E+001
  0
LINE
  8
AUTOCAD0
  6
CONTINUOUS
 62
40
 10
1.0097583E+002
 20
2.6E+001
 11
1.0097583E+002
 21
3.6E+001
  0
LINE
  8
AUTOCAD0
  6
CONTINUOUS
 62
40
 10
1.1797583E+002
 20
4.8E+001
 11
1.1797583E+002
 21
5.8E+001
  0
LINE
  8
AUTOCAD0
  6
CONTINUOUS
 62
40
 10
1.0097583E+002
 20
4.8E+001
 11
1.0097583E+002
 21
5.8E+001
  0
LINE
  8
AUTOCAD0
  6
CONTINUOUS
 62
40
 10
1.0097583E+002
 20
3.7E+001
 11
1.0097583E+002
 21
4.7E+001
  0
LINE
  8
AUTOCAD0
  6
CONTINUOUS
 62
40
 10
1.1797583E+002
 20
3.7E+001
 11
1.1797583E+002
 21
4.7E+001
  0
LINE
  8
AUTOCAD0
  6
CONTINUOUS
 62
40
 10
1.1797583E+002
 20
7.0E+001
 11
1.1797583E+002
 21
8.05E+001
  0
LINE
  8
AUTOCAD0
  6
CONTINUOUS
 62
40
 10
1.0097583E+002
 20
7.0E+001
 11
1.0097583E+002
 21
8.05E+001
  0
LINE
  8
AUTOCAD0
  6
CONTINUOUS
 62
40
 10
1.0097583E+002
 20
5.9E+001
 11
1.0097583E+002
 21
6.9E+001
  0
LINE
  8
AUTOCAD0
  6
CONTINUOUS
 62
40
 10
1.1797583E+002
 20
5.9E+001
 11
1.1797583E+002
 21
6.9E+001
  0
LINE
  8
AUTOCAD0
  6
CONTINUOUS
 62
40
 10
7.8975831E+001
 20
9.5E+001
 11
8.3975831E+001
 21
9.5E+001
  0
LINE
  8
AUTOCAD0
  6
CONTINUOUS
 62
40
 10
8.6475831E+001
 20
8.5E+001
 11
8.8475831E+001
 21
8.5E+001
  0
LINE
  8
AUTOCAD0
  6
CONTINUOUS
 62
40
 10
8.8475831E+001
 20
8.5E+001
 11
8.8475831E+001
 21
8.25E+001
  0
LINE
  8
AUTOCAD0
  6
CONTINUOUS
 62
40
 10
8.6975831E+001
 20
8.3E+001
 11
8.6975831E+001
 21
8.25E+001
  0
LINE
  8
AUTOCAD0
  6
CONTINUOUS
 62
40
 10
8.4975831E+001
 20
8.3E+001
 11
8.6975831E+001
 21
8.3E+001
  0
LINE
  8
AUTOCAD0
  6
CONTINUOUS
 62
40
 10
8.4975831E+001
 20
8.35E+001
 11
8.6475831E+001
 21
8.5E+001
  0
LINE
  8
AUTOCAD0
  6
CONTINUOUS
 62
40
 10
8.4975831E+001
 20
8.05E+001
 11
8.4975831E+001
 21
8.25E+001
  0
LINE
  8
AUTOCAD0
  6
CONTINUOUS
 62
40
 10
9.6975831E+001
 20
8.6027864E+001
 11
9.6975831E+001
 21
8.25E+001
  0
LINE
  8
AUTOCAD0
  6
CONTINUOUS
 62
40
 10
7.8975831E+001
 20
9.3E+001
 11
7.8975831E+001
 21
9.5E+001
  0
LINE
  8
AUTOCAD0
  6
CONTINUOUS
 62
40
 10
8.3975831E+001
 20
9.5E+001
 11
9.4764685E+001
 21
8.9605573E+001
  0
ARC
  8
AUTOCAD0
  6
CONTINUOUS
 62
40
 10
9.2975831E+001
 20
8.6027864E+001
 40
4.0
 50
0.0
 51
6.3434949E+001
  0
LINE
  8
AUTOCAD0
  6
CONTINUOUS
 62
40
 10
8.0975831E+001
 20
9.2E+001
 11
8.1975831E+001
 21
9.2E+001
  0
LINE
  8
AUTOCAD0
  6
CONTINUOUS
 62
40
 10
7.8975831E+001
 20
9.3E+001
 11
8.0975831E+001
 21
9.2E+001
  0
LINE
  8
AUTOCAD0
  6
CONTINUOUS
 62
40
 10
8.1475831E+001
 20
9.35E+001
 11
8.3621729E+001
 21
9.35E+001
  0
LINE
  8
AUTOCAD0
  6
CONTINUOUS
 62
40
 10
8.3621729E+001
 20
9.35E+001
 11
9.3945767E+001
 21
8.7774845E+001
  0
LINE
  8
AUTOCAD0
  6
CONTINUOUS
 62
40
 10
9.4975831E+001
 20
8.6025781E+001
 11
9.4975831E+001
 21
8.25E+001
  0
ARC
  8
AUTOCAD0
  6
CONTINUOUS
 62
40
 10
9.2975831E+001
 20
8.6025781E+001
 40
2.0
 50
0.0
 51
6.0989613E+001
  0
LINE
  8
AUTOCAD0
  6
CONTINUOUS
 62
40
 10
8.1975831E+001
 20
9.2E+001
 11
8.1475831E+001
 21
9.35E+001
  0
LINE
  8
AUTOCAD0
  6
CONTINUOUS
 62
40
 10
8.1975831E+001
 20
3.0
 11
8.1475831E+001
 21
1.5
  0
ARC
  8
AUTOCAD0
  6
CONTINUOUS
 62
40
 10
9.2975831E+001
 20
8.974218
 40
2.0
 50
2.9901039E+002
 51
3.6E+002
  0
LINE
  8
AUTOCAD0
  6
CONTINUOUS
 62
40
 10
9.4975831E+001
 20
8.974218
 11
9.4975831E+001
 21
1.25E+001
  0
LINE
  8
AUTOCAD0
  6
CONTINUOUS
 62
40
 10
8.3621729E+001
 20
1.5
 11
9.3945767E+001
 21
7.225155
  0
LINE
  8
AUTOCAD0
  6
CONTINUOUS
 62
40
 10
8.1475831E+001
 20
1.5
 11
8.3621729E+001
 21
1.5
  0
LINE
  8
AUTOCAD0
  6
CONTINUOUS
 62
40
 10
7.8975831E+001
 20
2.0
 11
8.0975831E+001
 21
3.0
  0
LINE
  8
AUTOCAD0
  6
CONTINUOUS
 62
40
 10
8.0975831E+001
 20
3.0
 11
8.1975831E+001
 21
3.0
  0
ARC
  8
AUTOCAD0
  6
CONTINUOUS
 62
40
 10
9.2975831E+001
 20
8.972136
 40
4.0
 50
2.9656505E+002
 51
3.6E+002
  0
LINE
  8
AUTOCAD0
  6
CONTINUOUS
 62
40
 10
8.3975831E+001
 20
0.0
 11
9.4764685E+001
 21
5.394427
  0
LINE
  8
AUTOCAD0
  6
CONTINUOUS
 62
40
 10
7.8975831E+001
 20
2.0
 11
7.8975831E+001
 21
0.0
  0
LINE
  8
AUTOCAD0
  6
CONTINUOUS
 62
40
 10
9.6975831E+001
 20
8.972136
 11
9.6975831E+001
 21
1.25E+001
  0
LINE
  8
AUTOCAD0
  6
CONTINUOUS
 62
40
 10
8.4975831E+001
 20
1.15E+001
 11
8.6475831E+001
 21
1.0E+001
  0
LINE
  8
AUTOCAD0
  6
CONTINUOUS
 62
40
 10
8.8975831E+001
 20
1.0E+001
 11
8.8975831E+001
 21
1.25E+001
  0
LINE
  8
AUTOCAD0
  6
CONTINUOUS
 62
40
 10
8.6475831E+001
 20
1.0E+001
 11
8.8975831E+001
 21
1.0E+001
  0
LINE
  8
AUTOCAD0
  6
CONTINUOUS
 62
40
 10
7.8975831E+001
 20
0.0
 11
8.3975831E+001
 21
0.0
  0
LINE
  8
AUTOCAD0
  6
CONTINUOUS
 62
40
 10
8.4975831E+001
 20
1.2E+001
 11
8.7475831E+001
 21
1.2E+001
  0
LINE
  8
AUTOCAD0
  6
CONTINUOUS
 62
40
 10
8.7475831E+001
 20
1.2E+001
 11
8.7475831E+001
 21
1.25E+001
  0
LINE
  8
AUTOCAD0
  6
CONTINUOUS
 62
40
 10
8.4975831E+001
 20
1.15E+001
 11
8.4975831E+001
 21
1.2E+001
  0
LINE
  8
AUTOCAD0
  6
CONTINUOUS
 62
40
 10
1.2697583E+002
 20
1.53E+002
 11
1.2697583E+002
 21
1.57E+002
  0
LINE
  8
AUTOCAD0
  6
CONTINUOUS
 62
40
 10
8.4975831E+001
 20
1.5E+002
 11
8.4975831E+001
 21
1.57E+002
  0
LINE
  8
AUTOCAD0
  6
CONTINUOUS
 62
40
 10
8.6975831E+001
 20
1.15E+002
 11
1.2547583E+002
 21
1.15E+002
  0
LINE
  8
AUTOCAD0
  6
CONTINUOUS
 62
40
 10
8.6975831E+001
 20
1.59E+002
 11
1.2497583E+002
 21
1.59E+002
  0
ARC
  8
AUTOCAD0
  6
CONTINUOUS
 62
40
 10
8.6975831E+001
 20
1.57E+002
 40
2.0
 50
9.0E+001
 51
1.8E+002
  0
ARC
  8
AUTOCAD0
  6
CONTINUOUS
 62
40
 10
1.2497583E+002
 20
1.57E+002
 40
2.0
 50
0.0
 51
9.0E+001
  0
LINE
  8
AUTOCAD0
  6
CONTINUOUS
 62
40
 10
1.2547583E+002
 20
1.53E+002
 11
1.2697583E+002
 21
1.53E+002
  0
LINE
  8
AUTOCAD0
  6
CONTINUOUS
 62
40
 10
1.2547583E+002
 20
1.15E+002
 11
1.2547583E+002
 21
1.53E+002
  0
LINE
  8
AUTOCAD0
  6
CONTINUOUS
 62
40
 10
8.6975831E+001
 20
1.15E+002
 11
8.6975831E+001
 21
1.26E+002
  0
LINE
  8
AUTOCAD0
  6
CONTINUOUS
 62
40
 10
8.4975831E+001
 20
1.5E+002
 11
8.6975831E+001
 21
1.48E+002
  0
LINE
  8
AUTOCAD0
  6
CONTINUOUS
 62
40
 10
8.6975831E+001
 20
1.23E+002
 11
8.8475831E+001
 21
1.23E+002
  0
LINE
  8
AUTOCAD0
  6
CONTINUOUS
 62
40
 10
8.5475831E+001
 20
1.28E+002
 11
8.8475831E+001
 21
1.28E+002
  0
LINE
  8
AUTOCAD0
  6
CONTINUOUS
 62
40
 10
8.8475831E+001
 20
1.23E+002
 11
8.8475831E+001
 21
1.28E+002
  0
LINE
  8
AUTOCAD0
  6
CONTINUOUS
 62
40
 10
8.4975831E+001
 20
1.265E+002
 11
8.4975831E+001
 21
1.275E+002
  0
LINE
  8
AUTOCAD0
  6
CONTINUOUS
 62
40
 10
8.5475831E+001
 20
1.26E+002
 11
8.6975831E+001
 21
1.26E+002
  0
LINE
  8
AUTOCAD0
  6
CONTINUOUS
 62
40
 10
8.6975831E+001
 20
1.28E+002
 11
8.6975831E+001
 21
1.29E+002
  0
LINE
  8
AUTOCAD0
  6
CONTINUOUS
 62
40
 10
8.4975831E+001
 20
1.265E+002
 11
8.5475831E+001
 21
1.26E+002
  0
LINE
  8
AUTOCAD0
  6
CONTINUOUS
 62
40
 10
8.4975831E+001
 20
1.275E+002
 11
8.5475831E+001
 21
1.28E+002
  0
LINE
  8
AUTOCAD0
  6
CONTINUOUS
 62
40
 10
7.8975831E+001
 20
1.29E+002
 11
9.6975831E+001
 21
1.29E+002
  0
LINE
  8
AUTOCAD0
  6
CONTINUOUS
 62
40
 10
7.8975831E+001
 20
1.39E+002
 11
9.6975831E+001
 21
1.39E+002
  0
LINE
  8
AUTOCAD0
  6
CONTINUOUS
 62
40
 10
9.6975831E+001
 20
1.29E+002
 11
9.6975831E+001
 21
1.39E+002
  0
LINE
  8
AUTOCAD0
  6
CONTINUOUS
 62
40
 10
7.8975831E+001
 20
1.29E+002
 11
7.8975831E+001
 21
1.39E+002
  0
LINE
  8
AUTOCAD0
  6
CONTINUOUS
 62
40
 10
8.6975831E+001
 20
1.39E+002
 11
8.6975831E+001
 21
1.415E+002
  0
LINE
  8
AUTOCAD0
  6
CONTINUOUS
 62
40
 10
8.6975831E+001
 20
1.445E+002
 11
9.0475831E+001
 21
1.445E+002
  0
LINE
  8
AUTOCAD0
  6
CONTINUOUS
 62
40
 10
8.6975831E+001
 20
1.415E+002
 11
9.0475831E+001
 21
1.415E+002
  0
ARC
  8
AUTOCAD0
  6
CONTINUOUS
 62
40
 10
9.0475831E+001
 20
1.43E+002
 40
1.5
 50
2.7E+002
 51
4.5E+002
  0
LINE
  8
AUTOCAD0
  6
CONTINUOUS
 62
40
 10
8.6975831E+001
 20
1.445E+002
 11
8.6975831E+001
 21
1.48E+002
  0
LINE
  8
AUTOCAD0
  6
CONTINUOUS
 62
40
 10
0.0
 20
8.25E+001
 11
0.0
 21
8.05E+001
  0
LINE
  8
AUTOCAD0
  6
CONTINUOUS
 62
40
 10
6.0
 20
8.25E+001
 11
6.0
 21
1.25E+001
  0
LINE
  8
AUTOCAD0
  6
CONTINUOUS
 62
40
 10
4.4E+001
 20
8.25E+001
 11
4.4E+001
 21
1.25E+001
  0
LINE
  8
AUTOCAD0
  6
CONTINUOUS
 62
40
 10
4.4E+001
 20
8.25E+001
 11
0.0
 21
8.25E+001
  0
LINE
  8
AUTOCAD0
  6
CONTINUOUS
 62
40
 10
4.4E+001
 20
1.25E+001
 11
0.0
 21
1.25E+001
  0
LINE
  8
AUTOCAD0
  6
CONTINUOUS
 62
40
 10
5.0
 20
8.05E+001
 11
0.0
 21
8.05E+001
  0
LINE
  8
AUTOCAD0
  6
CONTINUOUS
 62
40
 10
5.0
 20
1.45E+001
 11
0.0
 21
1.45E+001
  0
LINE
  8
AUTOCAD0
  6
CONTINUOUS
 62
40
 10
5.0
 20
8.05E+001
 11
5.0
 21
7.0E+001
  0
LINE
  8
AUTOCAD0
  6
CONTINUOUS
 62
40
 10
0.0
 20
2.5E+001
 11
5.0
 21
2.5E+001
  0
LINE
  8
AUTOCAD0
  6
CONTINUOUS
 62
40
 10
0.0
 20
3.6E+001
 11
5.0
 21
3.6E+001
  0
LINE
  8
AUTOCAD0
  6
CONTINUOUS
 62
40
 10
0.0
 20
4.7E+001
 11
5.0
 21
4.7E+001
  0
LINE
  8
AUTOCAD0
  6
CONTINUOUS
 62
40
 10
0.0
 20
5.8E+001
 11
5.0
 21
5.8E+001
  0
LINE
  8
AUTOCAD0
  6
CONTINUOUS
 62
40
 10
0.0
 20
6.9E+001
 11
5.0
 21
6.9E+001
  0
LINE
  8
AUTOCAD0
  6
CONTINUOUS
 62
40
 10
0.0
 20
7.0E+001
 11
5.0
 21
7.0E+001
  0
LINE
  8
AUTOCAD0
  6
CONTINUOUS
 62
40
 10
0.0
 20
5.9E+001
 11
5.0
 21
5.9E+001
  0
LINE
  8
AUTOCAD0
  6
CONTINUOUS
 62
40
 10
0.0
 20
4.8E+001
 11
5.0
 21
4.8E+001
  0
LINE
  8
AUTOCAD0
  6
CONTINUOUS
 62
40
 10
0.0
 20
3.7E+001
 11
5.0
 21
3.7E+001
  0
LINE
  8
AUTOCAD0
  6
CONTINUOUS
 62
40
 10
0.0
 20
2.6E+001
 11
5.0
 21
2.6E+001
  0
LINE
  8
AUTOCAD0
  6
CONTINUOUS
 62
40
 10
5.0
 20
2.5E+001
 11
5.0
 21
1.45E+001
  0
LINE
  8
AUTOCAD0
  6
CONTINUOUS
 62
40
 10
5.0
 20
4.7E+001
 11
5.0
 21
3.7E+001
  0
LINE
  8
AUTOCAD0
  6
CONTINUOUS
 62
40
 10
5.0
 20
5.8E+001
 11
5.0
 21
4.8E+001
  0
LINE
  8
AUTOCAD0
  6
CONTINUOUS
 62
40
 10
5.0
 20
6.9E+001
 11
5.0
 21
5.9E+001
  0
LINE
  8
AUTOCAD0
  6
CONTINUOUS
 62
40
 10
3.6E+001
 20
8.5E+001
 11
3.6E+001
 21
8.25E+001
  0
LINE
  8
AUTOCAD0
  6
CONTINUOUS
 62
40
 10
3.1E+001
 20
8.5E+001
 11
3.1E+001
 21
8.25E+001
  0
LINE
  8
AUTOCAD0
  6
CONTINUOUS
 62
40
 10
3.6E+001
 20
8.5E+001
 11
3.1E+001
 21
8.5E+001
  0
LINE
  8
AUTOCAD0
  6
CONTINUOUS
 62
40
 10
2.0E+001
 20
9.5E+001
 11
2.0E+001
 21
8.25E+001
  0
LINE
  8
AUTOCAD0
  6
CONTINUOUS
 62
40
 10
3.0E+001
 20
9.5E+001
 11
3.0E+001
 21
8.25E+001
  0
LINE
  8
AUTOCAD0
  6
CONTINUOUS
 62
40
 10
3.0E+001
 20
9.5E+001
 11
2.0E+001
 21
9.5E+001
  0
LINE
  8
AUTOCAD0
  6
CONTINUOUS
 62
40
 10
3.0E+001
 20
0.0
 11
2.0E+001
 21
0.0
  0
LINE
  8
AUTOCAD0
  6
CONTINUOUS
 62
40
 10
3.0E+001
 20
0.0
 11
3.0E+001
 21
1.25E+001
  0
LINE
  8
AUTOCAD0
  6
CONTINUOUS
 62
40
 10
2.0E+001
 20
0.0
 11
2.0E+001
 21
1.25E+001
  0
LINE
  8
AUTOCAD0
  6
CONTINUOUS
 62
40
 10
3.6E+001
 20
1.0E+001
 11
3.1E+001
 21
1.0E+001
  0
LINE
  8
AUTOCAD0
  6
CONTINUOUS
 62
40
 10
3.1E+001
 20
1.0E+001
 11
3.1E+001
 21
1.25E+001
  0
LINE
  8
AUTOCAD0
  6
CONTINUOUS
 62
40
 10
3.6E+001
 20
1.0E+001
 11
3.6E+001
 21
1.25E+001
  0
LINE
  8
AUTOCAD0
  6
CONTINUOUS
 62
40
 10
0.0
 20
7.0E+001
 11
0.0
 21
6.9E+001
  0
LINE
  8
AUTOCAD0
  6
CONTINUOUS
 62
40
 10
0.0
 20
5.9E+001
 11
0.0
 21
5.8E+001
  0
LINE
  8
AUTOCAD0
  6
CONTINUOUS
 62
40
 10
0.0
 20
4.8E+001
 11
0.0
 21
4.7E+001
  0
LINE
  8
AUTOCAD0
  6
CONTINUOUS
 62
40
 10
0.0
 20
1.45E+001
 11
0.0
 21
1.25E+001
  0
LINE
  8
AUTOCAD0
  6
CONTINUOUS
 62
40
 10
0.0
 20
2.6E+001
 11
0.0
 21
2.5E+001
  0
LINE
  8
AUTOCAD0
  6
CONTINUOUS
 62
40
 10
0.0
 20
3.7E+001
 11
0.0
 21
3.6E+001
  0
LINE
  8
AUTOCAD0
  6
CONTINUOUS
 62
40
 10
5.0
 20
3.6E+001
 11
5.0
 21
2.6E+001
  0
ENDSEC
  0
EOF
