  0
SECTION
  2
HEADER
  9
$ACADVER
  1
AC1009
  9
$DWGCODEPAGE
  3
iso8859-1
  9
$INSBASE
 10
0.0
 20
0.0
 30
0.0
  9
$EXTMIN
 10
1.0E20
 20
1.0E20
  9
$EXTMAX
 10
-1.0E20
 20
-1.0E20
  9
$LIMMIN
 10
0.0
 20
0.0
  9
$LIMMAX
 10
12.0
 20
9.0
  9
$ORTHOMODE
 70
     0
  9
$REGENMODE
 70
     1
  9
$FILLMODE
 70
     1
  9
$QTEXTMODE
 70
     0
  9
$MIRRTEXT
 70
     1
  9
$DRAGMODE
 70
     2
  9
$LTSCALE
 40
15.0
  9
$OSMODE
 70
     0
  9
$ATTMODE
 70
     1
  9
$TEXTSIZE
 40
0.2
  9
$TRACEWID
 40
0.05
  9
$TEXTSTYLE
  7
STANDARD
  9
$CLAYER
  8
0
  9
$CELTYPE
  6
DASHED
  9
$CECOLOR
 62
   256
  9
$DIMSCALE
 40
1.0
  9
$DIMASZ
 40
0.18
  9
$DIMEXO
 40
0.0625
  9
$DIMDLI
 40
0.38
  9
$DIMRND
 40
0.0
  9
$DIMDLE
 40
0.0
  9
$DIMEXE
 40
0.18
  9
$DIMTP
 40
0.0
  9
$DIMTM
 40
0.0
  9
$DIMTXT
 40
0.18
  9
$DIMCEN
 40
0.09
  9
$DIMTSZ
 40
0.0
  9
$DIMTOL
 70
     0
  9
$DIMLIM
 70
     0
  9
$DIMTIH
 70
     1
  9
$DIMTOH
 70
     1
  9
$DIMSE1
 70
     0
  9
$DIMSE2
 70
     0
  9
$DIMTAD
 70
     0
  9
$DIMZIN
 70
     0
  9
$DIMBLK
  1

  9
$DIMASO
 70
     1
  9
$DIMSHO
 70
     1
  9
$DIMPOST
  1

  9
$DIMAPOST
  1

  9
$DIMALT
 70
     0
  9
$DIMALTD
 70
     2
  9
$DIMALTF
 40
25.4
  9
$DIMLFAC
 40
1.0
  9
$DIMTOFL
 70
     0
  9
$DIMTVP
 40
0.0
  9
$DIMTIX
 70
     0
  9
$DIMSOXD
 70
     0
  9
$DIMSAH
 70
     0
  9
$DIMBLK1
  1

  9
$DIMBLK2
  1

  9
$DIMSTYLE
  2
STANDARD
  9
$DIMCLRD
 70
     0
  9
$DIMCLRE
 70
     0
  9
$DIMCLRT
 70
     0
  9
$DIMTFAC
 40
1.0
  9
$DIMGAP
 40
0.09
  9
$LUNITS
 70
     2
  9
$LUPREC
 70
     4
  9
$AXISMODE
 70
     0
  9
$AXISUNIT
 10
0.0
 20
0.0
  9
$SKETCHINC
 40
0.1
  9
$FILLETRAD
 40
0.0
  9
$AUNITS
 70
     0
  9
$AUPREC
 70
     0
  9
$MENU
  1
acad
  9
$ELEVATION
 40
0.0
  9
$PELEVATION
 40
0.0
  9
$THICKNESS
 40
0.0
  9
$LIMCHECK
 70
     0
  9
$BLIPMODE
 70
     1
  9
$CHAMFERA
 40
0.0
  9
$CHAMFERB
 40
0.0
  9
$SKPOLY
 70
     0
  9
$TDCREATE
 40
0.000000000
  9
$TDUPDATE
 40
0.000000000
  9
$TDINDWG
 40
0.0
  9
$TDUSRTIMER
 40
0.0
  9
$USRTIMER
 70
     1
  9
$ANGBASE
 50
0.0
  9
$ANGDIR
 70
     0
  9
$PDMODE
 70
     0
  9
$PDSIZE
 40
0.0
  9
$PLINEWID
 40
0.0
  9
$COORDS
 70
     1
  9
$SPLFRAME
 70
     0
  9
$SPLINETYPE
 70
     6
  9
$SPLINESEGS
 70
     8
  9
$ATTDIA
 70
     0
  9
$ATTREQ
 70
     1
  9
$HANDLING
 70
     1
  9
$HANDSEED
  5
   7E9
  9
$SURFTAB1
 70
     6
  9
$SURFTAB2
 70
     6
  9
$SURFTYPE
 70
     6
  9
$SURFU
 70
     6
  9
$SURFV
 70
     6
  9
$UCSNAME
  2

  9
$UCSORG
 10
0.0
 20
0.0
 30
0.0
  9
$UCSXDIR
 10
1.0
 20
0.0
 30
0.0
  9
$UCSYDIR
 10
0.0
 20
1.0
 30
0.0
  9
$PUCSNAME
  2

  9
$PUCSORG
 10
0.0
 20
0.0
 30
0.0
  9
$PUCSXDIR
 10
1.0
 20
0.0
 30
0.0
  9
$PUCSYDIR
 10
0.0
 20
1.0
 30
0.0
  9
$USERI1
 70
     0
  9
$USERI2
 70
     0
  9
$USERI3
 70
     0
  9
$USERI4
 70
     0
  9
$USERI5
 70
     0
  9
$USERR1
 40
0.0
  9
$USERR2
 40
0.0
  9
$USERR3
 40
0.0
  9
$USERR4
 40
0.0
  9
$USERR5
 40
0.0
  9
$WORLDVIEW
 70
     1
  9
$SHADEDGE
 70
     3
  9
$SHADEDIF
 70
    70
  9
$TILEMODE
 70
     1
  9
$MAXACTVP
 70
    16
  9
$PINSBASE
 10
0.0
 20
0.0
 30
0.0
  9
$PLIMCHECK
 70
     0
  9
$PEXTMIN
 10
1.0E20
 20
1.0E20
 30
1.0E20
  9
$PEXTMAX
 10
-1.0E20
 20
-1.0E20
 30
-1.0E20
  9
$PLIMMIN
 10
0.0
 20
0.0
  9
$PLIMMAX
 10
12.0
 20
9.0
  9
$UNITMODE
 70
     0
  9
$VISRETAIN
 70
     0
  0
ENDSEC
  0
SECTION
  2
TABLES
  0
TABLE
  2
VPORT
 70
     1
  0
VPORT
  2
*ACTIVE
 70
     0
 10
0.0
 20
0.0
 11
1.0
 21
1.0
 12
6.801242
 22
4.5
 13
0.0
 23
0.0
 14
1.0
 24
1.0
 15
0.0
 25
0.0
 16
0.0
 26
0.0
 36
1.0
 17
0.0
 27
0.0
 37
0.0
 40
9.0
 41
1.511387
 42
50.0
 43
0.0
 44
0.0
 50
0.0
 51
0.0
 71
     0
 72
   100
 73
     1
 74
     1
 75
     0
 76
     0
 77
     0
 78
     0
  0
ENDTAB
  0
TABLE
  2
LTYPE
 70
    41
  0
LTYPE
  2
BYBLOCK
 70
     0
  3

 72
    65
 73
     0
 40
0.0
  0
LTYPE
  2
BYLAYER
 70
     0
  3

 72
    65
 73
     0
 40
0.0
  0
LTYPE
  2
CONTINUOUS
 70
     0
  3
Solid line
 72
    65
 73
     0
 40
0.0
  0
LTYPE
  2
BORDER
 70
    64
  3
__ __ . __ __ . __ __ . __ __ . __ __ . __ __ .
 72
    65
 73
     6
 40
1.75
 49
0.5
 49
-0.25
 49
0.5
 49
-0.25
 49
0.0
 49
-0.25
  0
LTYPE
  2
BORDER2
 70
    64
  3
__.__.__.__.__.__.__.__.__.__.__.__.__.__.__.__
 72
    65
 73
     6
 40
0.875
 49
0.25
 49
-0.125
 49
0.25
 49
-0.125
 49
0.0
 49
-0.125
  0
LTYPE
  2
BORDERX2
 70
    64
  3
____  ____  .  ____  ____  .  ____  ____  .  __
 72
    65
 73
     6
 40
3.5
 49
1.0
 49
-0.5
 49
1.0
 49
-0.5
 49
0.0
 49
-0.5
  0
LTYPE
  2
CENTER
 70
    64
  3
____ _ ____ _ ____ _ ____ _ ____ _ ____ _ ____
 72
    65
 73
     4
 40
2.0
 49
1.25
 49
-0.25
 49
0.25
 49
-0.25
  0
LTYPE
  2
CENTER2
 70
    64
  3
___ _ ___ _ ___ _ ___ _ ___ _ ___ _ ___ _ ___ _
 72
    65
 73
     4
 40
1.125
 49
0.75
 49
-0.125
 49
0.125
 49
-0.125
  0
LTYPE
  2
CENTERX2
 70
    64
  3
________  __  ________  __  ________  __  _____
 72
    65
 73
     4
 40
4.0
 49
2.5
 49
-0.5
 49
0.5
 49
-0.5
  0
LTYPE
  2
DASHDOT
 70
    64
  3
__ . __ . __ . __ . __ . __ . __ . __ . __ . __
 72
    65
 73
     4
 40
1.0
 49
0.5
 49
-0.25
 49
0.0
 49
-0.25
  0
LTYPE
  2
DASHDOT2
 70
    64
  3
_._._._._._._._._._._._._._._._._._._._._._._._
 72
    65
 73
     4
 40
0.5
 49
0.25
 49
-0.125
 49
0.0
 49
-0.125
  0
LTYPE
  2
DASHDOTX2
 70
    64
  3
____  .  ____  .  ____  .  ____  .  ____  .  __
 72
    65
 73
     4
 40
2.0
 49
1.0
 49
-0.5
 49
0.0
 49
-0.5
  0
LTYPE
  2
DASHED
 70
    64
  3
__ __ __ __ __ __ __ __ __ __ __ __ __ __ __ __
 72
    65
 73
     2
 40
0.75
 49
0.5
 49
-0.25
  0
LTYPE
  2
DASHED2
 70
    64
  3
_ _ _ _ _ _ _ _ _ _ _ _ _ _ _ _ _ _ _ _ _ _ _ _
 72
    65
 73
     2
 40
0.375
 49
0.25
 49
-0.125
  0
LTYPE
  2
DASHEDX2
 70
    64
  3
____  ____  ____  ____  ____  ____  ____  ____
 72
    65
 73
     2
 40
1.5
 49
1.0
 49
-0.5
  0
LTYPE
  2
DIVIDE
 70
    64
  3
____ . . ____ . . ____ . . ____ . . ____ . . __
 72
    65
 73
     6
 40
1.25
 49
0.5
 49
-0.25
 49
0.0
 49
-0.25
 49
0.0
 49
-0.25
  0
LTYPE
  2
DIVIDE2
 70
    64
  3
__..__..__..__..__..__..__..__..__..__..__..__.
 72
    65
 73
     6
 40
0.625
 49
0.25
 49
-0.125
 49
0.0
 49
-0.125
 49
0.0
 49
-0.125
  0
LTYPE
  2
DIVIDEX2
 70
    64
  3
________  .  .  ________  .  .  ________  .  .
 72
    65
 73
     6
 40
2.5
 49
1.0
 49
-0.5
 49
0.0
 49
-0.5
 49
0.0
 49
-0.5
  0
LTYPE
  2
DOT
 70
    64
  3
. . . . . . . . . . . . . . . . . . . . . . . .
 72
    65
 73
     2
 40
0.25
 49
0.0
 49
-0.25
  0
LTYPE
  2
DOT2
 70
    64
  3
...............................................
 72
    65
 73
     2
 40
0.125
 49
0.0
 49
-0.125
  0
LTYPE
  2
DOTX2
 70
    64
  3
.  .  .  .  .  .  .  .  .  .  .  .  .  .  .  .
 72
    65
 73
     2
 40
0.5
 49
0.0
 49
-0.5
  0
LTYPE
  2
HIDDEN
 70
    64
  3
__ __ __ __ __ __ __ __ __ __ __ __ __ __ __ __
 72
    65
 73
     2
 40
0.375
 49
0.25
 49
-0.125
  0
LTYPE
  2
HIDDEN2
 70
    64
  3
_ _ _ _ _ _ _ _ _ _ _ _ _ _ _ _ _ _ _ _ _ _ _ _
 72
    65
 73
     2
 40
0.1875
 49
0.125
 49
-0.0625
  0
LTYPE
  2
HIDDENX2
 70
    64
  3
____ ____ ____ ____ ____ ____ ____ ____ ____ __
 72
    65
 73
     2
 40
0.75
 49
0.5
 49
-0.25
  0
LTYPE
  2
PHANTOM
 70
    64
  3
______  __  __  ______  __  __  ______  __  __
 72
    65
 73
     6
 40
2.5
 49
1.25
 49
-0.25
 49
0.25
 49
-0.25
 49
0.25
 49
-0.25
  0
LTYPE
  2
PHANTOM2
 70
    64
  3
___ _ _ ___ _ _ ___ _ _ ___ _ _ ___ _ _ ___ _ _
 72
    65
 73
     6
 40
1.25
 49
0.625
 49
-0.125
 49
0.125
 49
-0.125
 49
0.125
 49
-0.125
  0
LTYPE
  2
PHANTOMX2
 70
    64
  3
____________    ____    ____    ____________
 72
    65
 73
     6
 40
5.0
 49
2.5
 49
-0.5
 49
0.5
 49
-0.5
 49
0.5
 49
-0.5
  0
LTYPE
  2
ACAD_ISO02W100
 70
    64
  3
__ __ __ __ __ __ __ __ __ __ __ __ __ __ __ __
 72
    65
 73
     2
 40
15.0
 49
12.0
 49
-3.0
  0
LTYPE
  2
ACAD_ISO03W100
 70
    64
  3
__    __    __    __    __    __    __    __
 72
    65
 73
     2
 40
30.0
 49
12.0
 49
-18.0
  0
LTYPE
  2
ACAD_ISO04W100
 70
    64
  3
____ . ____ . ____ . ____ . ____ . ____ . ____
 72
    65
 73
     4
 40
30.5
 49
24.0
 49
-3.0
 49
0.5
 49
-3.0
  0
LTYPE
  2
ACAD_ISO05W100
 70
    64
  3
____ .. ____ .. ____ .. ____ .. ____ .. ____ ..
 72
    65
 73
     6
 40
34.0
 49
24.0
 49
-3.0
 49
0.5
 49
-3.0
 49
0.5
 49
-3.0
  0
LTYPE
  2
ACAD_ISO06W100
 70
    64
  3
____ ... ____ ... ____ ... ____ ... ____ ... __
 72
    65
 73
     8
 40
37.5
 49
24.0
 49
-3.0
 49
0.5
 49
-3.0
 49
0.5
 49
-3.0
 49
0.5
 49
-3.0
  0
LTYPE
  2
ACAD_ISO07W100
 70
    64
  3
. . . . . . . . . . . . . . . . . . . . . . . .
 72
    65
 73
     2
 40
3.5
 49
0.5
 49
-3.0
  0
LTYPE
  2
ACAD_ISO08W100
 70
    64
  3
____ __ ____ __ ____ __ ____ ____ __ __ ____ __
 72
    65
 73
     4
 40
36.0
 49
24.0
 49
-3.0
 49
6.0
 49
-3.0
  0
LTYPE
  2
ACAD_ISO09W100
 70
    64
  3
____ __ __ ____ __ __ ____ __ __ ____ __ __ ___
 72
    65
 73
     6
 40
45.0
 49
24.0
 49
-3.0
 49
6.0
 49
-3.0
 49
6.0
 49
-3.0
  0
LTYPE
  2
ACAD_ISO10W100
 70
    64
  3
__ . __ . __ . __ . __ . __ . __ . __ . __ . __
 72
    65
 73
     4
 40
18.5
 49
12.0
 49
-3.0
 49
0.5
 49
-3.0
  0
LTYPE
  2
ACAD_ISO11W100
 70
    64
  3
__ __ . __ __ . __ __ . __ __ . __ __ . __ __ .
 72
    65
 73
     6
 40
33.5
 49
12.0
 49
-3.0
 49
12.0
 49
-3.0
 49
0.5
 49
-3.0
  0
LTYPE
  2
ACAD_ISO12W100
 70
    64
  3
__ . . __ . . __ . . __ . . __ . . __ . . __ .
 72
    65
 73
     6
 40
22.0
 49
12.0
 49
-3.0
 49
0.5
 49
-3.0
 49
0.5
 49
-3.0
  0
LTYPE
  2
ACAD_ISO13W100
 70
    64
  3
__ __ . . __ __ . . __ __ . . __ __ . . __ __ .
 72
    65
 73
     8
 40
37.0
 49
12.0
 49
-3.0
 49
12.0
 49
-3.0
 49
0.5
 49
-3.0
 49
0.5
 49
-3.0
  0
LTYPE
  2
ACAD_ISO14W100
 70
    64
  3
__ . . . __ . . . __ . . . __ . . . __ . . . __
 72
    65
 73
     8
 40
25.5
 49
12.0
 49
-3.0
 49
0.5
 49
-3.0
 49
0.5
 49
-3.0
 49
0.5
 49
-3.0
  0
LTYPE
  2
ACAD_ISO15W100
 70
    64
  3
__ __ . . . __ __ . . . __ __ . . . __ __ . . .
 72
    65
 73
    10
 40
40.5
 49
12.0
 49
-3.0
 49
12.0
 49
-3.0
 49
0.5
 49
-3.0
 49
0.5
 49
-3.0
 49
0.5
 49
-3.0
  0
ENDTAB
  0
TABLE
  2
STYLE
 70
     4
  0
STYLE
  2
STANDARD
 70
    64
 40
0.0
 41
1.0
 50
0.0
 71
     0
 42
0.2
  3
txt
  4

  0
STYLE
  2
TOLERANCE
 70
    64
 40
0.0
 41
1.0
 50
0.0
 71
     0
 42
0.2
  3
../igesfont/iges1003.shx
  4

  0
STYLE
  2
ROMANS
 70
    64
 40
0.0
 41
1.0
 50
0.0
 71
     0
 42
0.2
  3
romans.shx
  4

  0
STYLE
  2
ROMANC
 70
    64
 40
0.0
 41
1.0
 50
0.0
 71
     0
 42
0.2
  3
romanc.shx
  4

  0
ENDTAB
  0
TABLE
  2
DIMSTYLE
 70
     2
  0
DIMSTYLE
  2
UNNAMED
 70
     0
  3

  4

  5

  6

  7

 40
1.0
 41
0.18
 42
0.0625
 43
0.38
 44
0.18
 45
0.0
 46
0.0
 47
0.0
 48
0.0
140
0.18
141
0.09
142
0.0
143
25.4
144
1.0
145
0.0
146
1.0
147
0.09
 71
     0
 72
     0
 73
     1
 74
     1
 75
     0
 76
     0
 77
     0
 78
     0
170
     0
171
     2
172
     0
173
     0
174
     0
175
     0
176
     0
177
     0
178
     0
  0
DIMSTYLE
  2
STANDARD
 70
     0
  3

  4

  5

  6

  7

 40
1.0
 41
0.18
 42
0.0625
 43
0.38
 44
0.18
 45
0.0
 46
0.0
 47
0.0
 48
0.0
140
0.18
141
0.09
142
0.0
143
25.4
144
1.0
145
0.0
146
1.0
147
0.09
 71
     0
 72
     0
 73
     1
 74
     1
 75
     0
 76
     0
 77
     0
 78
     0
170
     0
171
     2
172
     0
173
     0
174
     0
175
     0
176
     0
177
     0
178
     0
  0
ENDTAB
  0
TABLE
  2
LAYER
 70
     2
  0
LAYER
  2
0
 70
     0
 62
     7
  6
CONTINUOUS
  0
LAYER
  2
255
 70
     0
 62
     7
  6
CONTINUOUS
  0
ENDTAB
  0
ENDSEC
  0
SECTION
  2
BLOCKS
  0
BLOCK
  5
     B
  8
0
  6
CONTINUOUS
 62
     7
  2
*UDIM1755
 70
    65
 10
0.0
 20
0.0
 30
0.0
  3
*UDIM1755
  0
TEXT
  5
     C
  8
0
  6
CONTINUOUS
 62
     7
 10
79.3598757035895
 20
-75.7895959957011
 30
0.0
 40
2.50000001341104
  1
214
 50
359.999999896069
 41
0.933333333333333
 72
     1
 11
82.609875723285
 21
-74.5395959948746
 31
0.0
 73
     2
  0
LINE
  5
     D
  8
0
  6
CONTINUOUS
 62
     7
 10
104.239042982459
 20
-84.7546138353646
 30
0.0
 11
104.239042982459
 21
-74.7895960015801
 31
0.0
  0
LINE
  5
     E
  8
0
  6
CONTINUOUS
 62
     7
 10
61.4390423446894
 20
-84.7546138353646
 30
0.0
 11
61.4390423446894
 21
-74.7895960015801
 31
0.0
  0
LINE
  5
     F
  8
0
  6
CONTINUOUS
 62
     7
 10
104.239042982459
 20
-76.7895960015801
 30
0.0
 11
61.4390423446894
 21
-76.7895960015801
 31
0.0
  0
LINE
  5
    10
  8
0
  6
CONTINUOUS
 62
     7
 10
101.284619720777
 20
-77.3105405195804
 30
0.0
 11
104.239042982459
 21
-76.7895960015801
 31
0.0
  0
LINE
  5
    11
  8
0
  6
CONTINUOUS
 62
     7
 10
104.239042982459
 20
-76.7895960015801
 30
0.0
 11
101.284619720777
 21
-76.2686514835798
 31
0.0
  0
LINE
  5
    12
  8
0
  6
CONTINUOUS
 62
     7
 10
64.393465606371
 20
-76.2686514835798
 30
0.0
 11
61.4390423446894
 21
-76.7895960015801
 31
0.0
  0
LINE
  5
    13
  8
0
  6
CONTINUOUS
 62
     7
 10
61.4390423446894
 20
-76.7895960015801
 30
0.0
 11
64.393465606371
 21
-77.3105405195804
 31
0.0
  0
ENDBLK
  5
    14
  8
0
  6
CONTINUOUS
 62
     7
  0
BLOCK
  5
    15
  8
0
  6
CONTINUOUS
 62
     7
  2
*UDIM1756
 70
    65
 10
0.0
 20
0.0
 30
0.0
  3
*UDIM1756
  0
TEXT
  5
    16
  8
0
  6
CONTINUOUS
 62
     7
 10
40.973441460708
 20
-96.7486725365474
 30
0.0
 40
2.50000001341104
  1
77,5
 50
449.999999896069
 41
0.933333333333333
 72
     1
 11
39.7234414619863
 21
-92.3320058439283
 31
0.0
 73
     2
  0
LINE
  5
    17
  8
0
  6
CONTINUOUS
 62
     7
 10
60.8390423506498
 20
-85.3546138294041
 30
0.0
 11
39.9734414686918
 21
-85.3546138294041
 31
0.0
  0
LINE
  5
    18
  8
0
  6
CONTINUOUS
 62
     7
 10
60.8390423506498
 20
-100.854614060372
 30
0.0
 11
39.9734414686918
 21
-100.854614060372
 31
0.0
  0
LINE
  5
    19
  8
0
  6
CONTINUOUS
 62
     7
 10
41.9734414686918
 20
-85.3546138294041
 30
0.0
 11
41.9734414686918
 21
-100.854614060372
 31
0.0
  0
LINE
  5
    1A
  8
0
  6
CONTINUOUS
 62
     7
 10
42.4943859866922
 20
-88.3090370910857
 30
0.0
 11
41.9734414686918
 21
-85.3546138294041
 31
0.0
  0
LINE
  5
    1B
  8
0
  6
CONTINUOUS
 62
     7
 10
41.9734414686918
 20
-85.3546138294041
 30
0.0
 11
41.4524969506915
 21
-88.3090370910857
 31
0.0
  0
LINE
  5
    1C
  8
0
  6
CONTINUOUS
 62
     7
 10
41.4524969506915
 20
-97.9001907986905
 30
0.0
 11
41.9734414686918
 21
-100.854614060372
 31
0.0
  0
LINE
  5
    1D
  8
0
  6
CONTINUOUS
 62
     7
 10
41.9734414686918
 20
-100.854614060372
 30
0.0
 11
42.4943859866922
 21
-97.9001907986905
 31
0.0
  0
ENDBLK
  5
    1E
  8
0
  6
CONTINUOUS
 62
     7
  0
BLOCK
  5
    1F
  8
0
  6
CONTINUOUS
 62
     7
  2
*UDIM1757
 70
    65
 10
0.0
 20
0.0
 30
0.0
  3
*UDIM1757
  0
TEXT
  5
    20
  8
0
  6
CONTINUOUS
 62
     7
 10
40.973441460708
 20
-109.981602726409
 30
0.0
 40
2.50000001341104
  1
57,5
 50
449.999999896069
 41
0.933333333333333
 72
     1
 11
39.7234414619863
 21
-105.56493603379
 31
0.0
 73
     2
  0
LINE
  5
    21
  8
0
  6
CONTINUOUS
 62
     7
 10
56.109829822657
 20
-112.354614231735
 30
0.0
 11
39.9734414686918
 21
-112.354614231735
 31
0.0
  0
LINE
  5
    22
  8
0
  6
CONTINUOUS
 62
     7
 10
41.9734414686918
 20
-100.854614060372
 30
0.0
 11
41.9734414686918
 21
-112.354614231735
 31
0.0
  0
LINE
  5
    23
  8
0
  6
CONTINUOUS
 62
     7
 10
41.4524969506915
 20
-97.9001907986905
 30
0.0
 11
41.9734414686918
 21
-100.854614060372
 31
0.0
  0
LINE
  5
    24
  8
0
  6
CONTINUOUS
 62
     7
 10
41.9734414686918
 20
-100.854614060372
 30
0.0
 11
42.4943859866922
 21
-97.9001907986905
 31
0.0
  0
LINE
  5
    25
  8
0
  6
CONTINUOUS
 62
     7
 10
42.4943859866922
 20
-115.309037493417
 30
0.0
 11
41.9734414686918
 21
-112.354614231735
 31
0.0
  0
LINE
  5
    26
  8
0
  6
CONTINUOUS
 62
     7
 10
41.9734414686918
 20
-112.354614231735
 30
0.0
 11
41.4524969506915
 21
-115.309037493417
 31
0.0
  0
ENDBLK
  5
    27
  8
0
  6
CONTINUOUS
 62
     7
  0
BLOCK
  5
    28
  8
0
  6
CONTINUOUS
 62
     7
  2
*UDIM1758
 70
    65
 10
0.0
 20
0.0
 30
0.0
  3
*UDIM1758
  0
TEXT
  5
    29
  8
0
  6
CONTINUOUS
 62
     7
 10
40.973441460708
 20
-125.650449114106
 30
0.0
 40
2.50000001341104
  1
86,5
 50
449.999999896069
 41
0.933333333333333
 72
     1
 11
39.7234414619863
 21
-121.233782421487
 31
0.0
 73
     2
  0
LINE
  5
    2A
  8
0
  6
CONTINUOUS
 62
     7
 10
60.8390423506498
 20
-129.654614489526
 30
0.0
 11
39.9734414686918
 21
-129.654614489526
 31
0.0
  0
LINE
  5
    2B
  8
0
  6
CONTINUOUS
 62
     7
 10
41.9734414686918
 20
-112.354614231735
 30
0.0
 11
41.9734414686918
 21
-129.654614489526
 31
0.0
  0
LINE
  5
    2C
  8
0
  6
CONTINUOUS
 62
     7
 10
42.4943859866922
 20
-115.309037493417
 30
0.0
 11
41.9734414686918
 21
-112.354614231735
 31
0.0
  0
LINE
  5
    2D
  8
0
  6
CONTINUOUS
 62
     7
 10
41.9734414686918
 20
-112.354614231735
 30
0.0
 11
41.4524969506915
 21
-115.309037493417
 31
0.0
  0
LINE
  5
    2E
  8
0
  6
CONTINUOUS
 62
     7
 10
41.4524969506915
 20
-126.700191227844
 30
0.0
 11
41.9734414686918
 21
-129.654614489526
 31
0.0
  0
LINE
  5
    2F
  8
0
  6
CONTINUOUS
 62
     7
 10
41.9734414686918
 20
-129.654614489526
 30
0.0
 11
42.4943859866922
 21
-126.700191227844
 31
0.0
  0
ENDBLK
  5
    30
  8
0
  6
CONTINUOUS
 62
     7
  0
BLOCK
  5
    31
  8
0
  6
CONTINUOUS
 62
     7
  2
*UDIM1759
 70
    65
 10
0.0
 20
0.0
 30
0.0
  3
*UDIM1759
  0
TEXT
  5
    32
  8
0
  6
CONTINUOUS
 62
     7
 10
40.973441460708
 20
-141.005847878648
 30
0.0
 40
2.50000001341104
  1
77,5
 50
449.999999896069
 41
0.933333333333333
 72
     1
 11
39.7234414619863
 21
-136.589181186029
 31
0.0
 73
     2
  0
LINE
  5
    33
  8
0
  6
CONTINUOUS
 62
     7
 10
60.8390423506498
 20
-145.154614720494
 30
0.0
 11
39.9734414686918
 21
-145.154614720494
 31
0.0
  0
LINE
  5
    34
  8
0
  6
CONTINUOUS
 62
     7
 10
41.9734414686918
 20
-129.654614489526
 30
0.0
 11
41.9734414686918
 21
-145.154614720494
 31
0.0
  0
LINE
  5
    35
  8
0
  6
CONTINUOUS
 62
     7
 10
42.4943859866922
 20
-132.609037751207
 30
0.0
 11
41.9734414686918
 21
-129.654614489526
 31
0.0
  0
LINE
  5
    36
  8
0
  6
CONTINUOUS
 62
     7
 10
41.9734414686918
 20
-129.654614489526
 30
0.0
 11
41.4524969506915
 21
-132.609037751207
 31
0.0
  0
LINE
  5
    37
  8
0
  6
CONTINUOUS
 62
     7
 10
41.4524969506915
 20
-142.200191458812
 30
0.0
 11
41.9734414686918
 21
-145.154614720494
 31
0.0
  0
LINE
  5
    38
  8
0
  6
CONTINUOUS
 62
     7
 10
41.9734414686918
 20
-145.154614720494
 30
0.0
 11
42.4943859866922
 21
-142.200191458812
 31
0.0
  0
ENDBLK
  5
    39
  8
0
  6
CONTINUOUS
 62
     7
  0
BLOCK
  5
    3A
  8
0
  6
CONTINUOUS
 62
     7
  2
*UDIM1760
 70
    65
 10
0.0
 20
0.0
 30
0.0
  3
*UDIM1760
  0
TEXT
  5
    3B
  8
0
  6
CONTINUOUS
 62
     7
 10
112.842693585605
 20
-130.374202381807
 30
0.0
 40
2.50000001341104
  1
8,5
 50
345.453431325576
 41
0.933333333333333
 72
     1
 11
116.302469522702
 21
-129.980564737297
 31
0.0
 73
     2
  0
TEXT
  5
    3C
  8
0
  6
CONTINUOUS
 62
     7
 10
110.301841033436
 20
-129.714889509133
 30
0.0
 40
2.50000001341104
  1
Ø
 50
345.453431325576
 41
0.933333333333333
 72
     1
 11
111.503081384047
 21
-128.735195973572
 31
0.0
 73
     2
  0
TEXT
  5
    3D
  8
0
  6
CONTINUOUS
 62
     7
 10
119.577969335057
 20
-132.121904749314
 30
0.0
 40
2.50000001341104
  1
 - M8
 50
345.453431325576
 41
0.933333333333333
 72
     1
 11
125.296280858639
 21
-132.314322995855
 31
0.0
 73
     2
  0
LINE
  5
    3E
  8
0
  6
CONTINUOUS
 62
     7
 10
130.135508553468
 20
-135.894544608177
 30
0.0
 11
96.0162906145953
 21
-127.041122664332
 31
0.0
  0
LINE
  5
    3F
  8
0
  6
CONTINUOUS
 62
     7
 10
100.652354833202
 20
-127.705914275656
 30
0.0
 11
97.6617951297856
 21
-127.468106243193
 31
0.0
  0
LINE
  5
    40
  8
0
  6
CONTINUOUS
 62
     7
 10
97.6617951297856
 20
-127.468106243193
 30
0.0
 11
100.390666890414
 21
-128.714404327138
 31
0.0
  0
LINE
  5
    41
  8
0
  6
CONTINUOUS
 62
     7
 10
93.0257309111792
 20
-126.80331463187
 30
0.0
 11
96.0162906145953
 21
-127.041122664332
 31
0.0
  0
LINE
  5
    42
  8
0
  6
CONTINUOUS
 62
     7
 10
96.0162906145953
 20
-127.041122664332
 30
0.0
 11
93.2874188539667
 21
-125.794824580388
 31
0.0
  0
ENDBLK
  5
    43
  8
0
  6
CONTINUOUS
 62
     7
  0
BLOCK
  5
    44
  8
0
  6
CONTINUOUS
 62
     7
  2
*UDIM1761
 70
    65
 10
0.0
 20
0.0
 30
0.0
  3
*UDIM1761
  0
TEXT
  5
    45
  8
0
  6
CONTINUOUS
 62
     7
 10
47.9630655904079
 20
-118.733781234932
 30
0.0
 40
2.50000001341104
  1
120
 50
449.999999896069
 41
0.933333333333333
 72
     1
 11
46.7130655895773
 21
-115.483781215238
 31
0.0
 73
     2
  0
LINE
  5
    46
  8
0
  6
CONTINUOUS
 62
     7
 10
64.9890424124897
 20
-103.254614096135
 30
0.0
 11
46.9630655962828
 21
-103.254614096135
 31
0.0
  0
LINE
  5
    47
  8
0
  6
CONTINUOUS
 62
     7
 10
64.9890424124897
 20
-127.254614453763
 30
0.0
 11
46.9630655962828
 21
-127.254614453763
 31
0.0
  0
LINE
  5
    48
  8
0
  6
CONTINUOUS
 62
     7
 10
48.9630655962828
 20
-103.254614096135
 30
0.0
 11
48.9630655962828
 21
-127.254614453763
 31
0.0
  0
LINE
  5
    49
  8
0
  6
CONTINUOUS
 62
     7
 10
49.4840101142832
 20
-106.209037357817
 30
0.0
 11
48.9630655962828
 21
-103.254614096135
 31
0.0
  0
LINE
  5
    4A
  8
0
  6
CONTINUOUS
 62
     7
 10
48.9630655962828
 20
-103.254614096135
 30
0.0
 11
48.4421210782825
 21
-106.209037357817
 31
0.0
  0
LINE
  5
    4B
  8
0
  6
CONTINUOUS
 62
     7
 10
48.4421210782825
 20
-124.300191192081
 30
0.0
 11
48.9630655962828
 21
-127.254614453763
 31
0.0
  0
LINE
  5
    4C
  8
0
  6
CONTINUOUS
 62
     7
 10
48.9630655962828
 20
-127.254614453763
 30
0.0
 11
49.4840101142832
 21
-124.300191192081
 31
0.0
  0
ENDBLK
  5
    4D
  8
0
  6
CONTINUOUS
 62
     7
  0
BLOCK
  5
    4E
  8
0
  6
CONTINUOUS
 62
     7
  2
*UDIM1762
 70
    65
 10
0.0
 20
0.0
 30
0.0
  3
*UDIM1762
  0
TEXT
  5
    4F
  8
0
  6
CONTINUOUS
 62
     7
 10
52.7212931982646
 20
-100.317114266815
 30
0.0
 40
2.50000001341104
  1
45,5
 50
449.999999896069
 41
0.933333333333333
 72
     1
 11
51.4712931995429
 21
-95.9004475741958
 31
0.0
 73
     2
  0
LINE
  5
    50
  8
0
  6
CONTINUOUS
 62
     7
 10
72.5079581382176
 20
-103.254614096135
 30
0.0
 11
51.7212932062484
 21
-103.254614096135
 31
0.0
  0
LINE
  5
    51
  8
0
  6
CONTINUOUS
 62
     7
 10
56.109829822657
 20
-112.354614231735
 30
0.0
 11
51.7212932062484
 21
-112.354614231735
 31
0.0
  0
LINE
  5
    52
  8
0
  6
CONTINUOUS
 62
     7
 10
53.7212932062485
 20
-91.4837808838363
 30
0.0
 11
53.7212932062485
 21
-112.354614231735
 31
0.0
  0
LINE
  5
    53
  8
0
  6
CONTINUOUS
 62
     7
 10
53.2003486882481
 20
-100.300190834453
 30
0.0
 11
53.7212932062485
 21
-103.254614096135
 31
0.0
  0
LINE
  5
    54
  8
0
  6
CONTINUOUS
 62
     7
 10
53.7212932062485
 20
-103.254614096135
 30
0.0
 11
54.2422377242488
 21
-100.300190834453
 31
0.0
  0
LINE
  5
    55
  8
0
  6
CONTINUOUS
 62
     7
 10
54.2422377242488
 20
-115.309037493417
 30
0.0
 11
53.7212932062485
 21
-112.354614231735
 31
0.0
  0
LINE
  5
    56
  8
0
  6
CONTINUOUS
 62
     7
 10
53.7212932062485
 20
-112.354614231735
 30
0.0
 11
53.2003486882481
 21
-115.309037493417
 31
0.0
  0
ENDBLK
  5
    57
  8
0
  6
CONTINUOUS
 62
     7
  0
BLOCK
  5
    58
  8
0
  6
CONTINUOUS
 62
     7
  2
*UDIM1763
 70
    65
 10
0.0
 20
0.0
 30
0.0
  3
*UDIM1763
  0
TEXT
  5
    59
  8
0
  6
CONTINUOUS
 62
     7
 10
79.3598757035895
 20
-90.4315548320474
 30
0.0
 40
2.50000001341104
  1
140
 50
359.999999896069
 41
0.933333333333333
 72
     1
 11
82.609875723285
 21
-89.1815548312208
 31
0.0
 73
     2
  0
LINE
  5
    5A
  8
0
  6
CONTINUOUS
 62
     7
 10
96.8390428721905
 20
-99.4046140536666
 30
0.0
 11
96.8390428721905
 21
-89.4315548379264
 31
0.0
  0
LINE
  5
    5B
  8
0
  6
CONTINUOUS
 62
     7
 10
68.839042454958
 20
-99.4046140536666
 30
0.0
 11
68.839042454958
 21
-89.4315548379264
 31
0.0
  0
LINE
  5
    5C
  8
0
  6
CONTINUOUS
 62
     7
 10
96.8390428721905
 20
-91.4315548379263
 30
0.0
 11
68.839042454958
 21
-91.4315548379263
 31
0.0
  0
LINE
  5
    5D
  8
0
  6
CONTINUOUS
 62
     7
 10
93.8846196105089
 20
-91.9524993559267
 30
0.0
 11
96.8390428721905
 21
-91.4315548379263
 31
0.0
  0
LINE
  5
    5E
  8
0
  6
CONTINUOUS
 62
     7
 10
96.8390428721905
 20
-91.4315548379263
 30
0.0
 11
93.8846196105089
 21
-90.910610319926
 31
0.0
  0
LINE
  5
    5F
  8
0
  6
CONTINUOUS
 62
     7
 10
71.7934657166396
 20
-90.910610319926
 30
0.0
 11
68.839042454958
 21
-91.4315548379263
 31
0.0
  0
LINE
  5
    60
  8
0
  6
CONTINUOUS
 62
     7
 10
68.839042454958
 20
-91.4315548379263
 30
0.0
 11
71.7934657166396
 21
-91.9524993559267
 31
0.0
  0
ENDBLK
  5
    61
  8
0
  6
CONTINUOUS
 62
     7
  0
BLOCK
  5
    62
  8
0
  6
CONTINUOUS
 62
     7
  2
*HATCH335
 70
    65
 10
0.0
 20
0.0
 30
0.0
  3
*HATCH335
  0
LINE
  5
    63
  8
0
  6
CONTINUOUS
 62
    52
 10
92.5330276489258
 20
39.5000114440918
 30
0.0
 11
90.5330276489258
 21
37.5000114440918
 31
0.0
  0
LINE
  5
    64
  8
0
  6
CONTINUOUS
 62
    52
 10
96.7756729125977
 20
39.5000114440918
 30
0.0
 11
94.7756729125977
 21
37.5000114440918
 31
0.0
  0
LINE
  5
    65
  8
0
  6
CONTINUOUS
 62
    52
 10
101.01831817627
 20
39.5000114440918
 30
0.0
 11
99.0183181762695
 21
37.5000114440918
 31
0.0
  0
LINE
  5
    66
  8
0
  6
CONTINUOUS
 62
    52
 10
105.260963439941
 20
39.5000114440918
 30
0.0
 11
103.260963439941
 21
37.5000114440918
 31
0.0
  0
LINE
  5
    67
  8
0
  6
CONTINUOUS
 62
    52
 10
109.503608703613
 20
39.5000114440918
 30
0.0
 11
107.503608703613
 21
37.5000114440918
 31
0.0
  0
LINE
  5
    68
  8
0
  6
CONTINUOUS
 62
    52
 10
113.746253967285
 20
39.5000114440918
 30
0.0
 11
111.746253967285
 21
37.5000114440918
 31
0.0
  0
LINE
  5
    69
  8
0
  6
CONTINUOUS
 62
    52
 10
117.988899230957
 20
39.5000114440918
 30
0.0
 11
115.988899230957
 21
37.5000114440918
 31
0.0
  0
ENDBLK
  5
    6A
  8
0
  6
CONTINUOUS
 62
     7
  0
BLOCK
  5
    6B
  8
0
  6
CONTINUOUS
 62
     7
  2
BASETT
 70
    64
 10
0.0
 20
0.0
 30
0.0
  3
BASETT
  0
LINE
  5
    6C
  8
0
  6
CONTINUOUS
 62
     1
 10
9.37916411203332E-13
 20
8.29115314964895E-16
 30
0.0
 11
48.5000000000009
 21
8.29115314964895E-16
 31
0.0
  0
LINE
  5
    6D
  8
0
  6
CONTINUOUS
 62
     1
 10
-2.00000000000001
 20
16.4999999606765
 30
0.0
 11
48.5000000000058
 21
16.4999900306657
 31
0.0
  0
LINE
  5
    6E
  8
0
  6
CONTINUOUS
 62
     1
 10
-2.5
 20
278.499999567409
 30
0.0
 11
48.5
 21
278.499999567409
 31
0.0
  0
LINE
  5
    6F
  8
0
  6
CONTINUOUS
 62
     1
 10
1.49317556230405E-11
 20
294.999952060667
 30
0.0
 11
48.5000000000149
 21
294.999952060667
 31
0.0
  0
LINE
  5
    70
  8
0
  6
CONTINUOUS
 62
     1
 10
0.0
 20
0.0
 30
0.0
 11
0.0
 21
16.4999995674088
 31
0.0
  0
LINE
  5
    71
  8
0
  6
CONTINUOUS
 62
     1
 10
0.0
 20
224.499952060667
 30
0.0
 11
0.0
 21
263.499999567409
 31
0.0
  0
LINE
  5
    72
  8
0
  6
CONTINUOUS
 62
     1
 10
48.5
 20
74.4999564682283
 30
0.0
 11
48.5
 21
81.4999995674093
 31
0.0
  0
LINE
  5
    73
  8
0
  6
CONTINUOUS
 62
     1
 10
45.5000901428785
 20
77.4999576057394
 30
0.0
 11
47.5
 21
77.4999576057394
 31
0.0
  0
LINE
  5
    74
  8
0
  6
CONTINUOUS
 62
     1
 10
49.5
 20
198.49998430862
 30
0.0
 11
49.5
 21
216.49998430862
 31
0.0
  0
LINE
  5
    75
  8
0
  6
CONTINUOUS
 62
     1
 10
49.5
 20
78.4999919380148
 30
0.0
 11
49.5
 21
96.4999919380148
 31
0.0
  0
LINE
  5
    76
  8
0
  6
CONTINUOUS
 62
     1
 10
48.5
 20
294.999999567409
 30
0.0
 11
61.0
 21
294.999999567409
 31
0.0
  0
LINE
  5
    77
  8
0
  6
CONTINUOUS
 62
     1
 10
48.5
 20
278.499999567409
 30
0.0
 11
63.0
 21
278.499999567409
 31
0.0
  0
LINE
  5
    78
  8
0
  6
CONTINUOUS
 62
     1
 10
63.0
 20
223.499960071298
 30
0.0
 11
63.0
 21
293.000130967507
 31
0.0
  0
LINE
  5
    79
  8
0
  6
CONTINUOUS
 62
     1
 10
48.5000000000152
 20
3.42048471119702E-5
 30
0.0
 11
61.0000000000152
 21
3.42048471119702E-5
 31
0.0
  0
LINE
  5
    7A
  8
0
  6
CONTINUOUS
 62
     1
 10
48.5000000000458
 20
16.499990030663
 30
0.0
 11
63.0000000000458
 21
16.4999824012685
 31
0.0
  0
LINE
  5
    7B
  8
0
  6
CONTINUOUS
 62
     1
 10
63.0
 20
1.99997801527987
 30
0.0
 11
63.0
 21
71.5000155985656
 31
0.0
  0
LINE
  5
    7C
  8
0
  6
CONTINUOUS
 62
     1
 10
47.5
 20
143.499991938015
 30
0.0
 11
47.5
 21
151.499991938015
 31
0.0
  0
LINE
  5
    7D
  8
0
  6
CONTINUOUS
 62
     1
 10
48.5
 20
216.49998430862
 30
0.0
 11
49.5
 21
216.49998430862
 31
0.0
  0
LINE
  5
    7E
  8
0
  6
CONTINUOUS
 62
     1
 10
45.5
 20
198.49998430862
 30
0.0
 11
49.5
 21
198.49998430862
 31
0.0
  0
LINE
  5
    7F
  8
0
  6
CONTINUOUS
 62
     1
 10
45.5
 20
96.4999919380148
 30
0.0
 11
49.5
 21
96.4999919380148
 31
0.0
  0
LINE
  5
    80
  8
0
  6
CONTINUOUS
 62
     1
 10
48.5
 20
78.4999919380148
 30
0.0
 11
49.5
 21
78.4999919380148
 31
0.0
  0
LINE
  5
    81
  8
0
  6
CONTINUOUS
 62
     1
 10
45.5
 20
151.499991938015
 30
0.0
 11
47.5
 21
151.499991938015
 31
0.0
  0
LINE
  5
    82
  8
0
  6
CONTINUOUS
 62
     1
 10
45.5
 20
143.499991938015
 30
0.0
 11
47.5
 21
143.499991938015
 31
0.0
  0
ARC
  5
    83
  8
0
  6
CONTINUOUS
 62
     1
 10
61.0001195664684
 20
293.000130967507
 30
0.0
 40
1.99983675500225
 50
359.996219692575
 51
450.003067297461
  0
ARC
  5
    84
  8
0
  6
CONTINUOUS
 62
     1
 10
60.999997541172
 20
1.99997801527987
 30
0.0
 40
1.99998559606681
 50
270.000149683848
 51
360.00043490088
  0
LINE
  5
    85
  8
0
  6
CONTINUOUS
 62
     1
 10
-2.5
 20
263.499999567409
 30
0.0
 11
-2.5
 21
278.499999567409
 31
0.0
  0
LINE
  5
    86
  8
0
  6
CONTINUOUS
 62
     1
 10
-2.0
 20
16.4999999606765
 30
0.0
 11
-2.0
 21
31.499999567409
 31
0.0
  0
LINE
  5
    87
  8
0
  6
CONTINUOUS
 62
     1
 10
-2.5
 20
263.499999567409
 30
0.0
 11
-1.92386683707583E-15
 21
263.499999567409
 31
0.0
  0
LINE
  5
    88
  8
0
  6
CONTINUOUS
 62
     1
 10
-2.0
 20
31.499999567409
 30
0.0
 11
-1.92881868216852E-15
 21
31.499999567409
 31
0.0
  0
LINE
  5
    89
  8
0
  6
CONTINUOUS
 62
     1
 10
0.0
 20
31.499999567409
 30
0.0
 11
0.0
 21
85.5
 31
0.0
  0
LINE
  5
    8A
  8
0
  6
CONTINUOUS
 62
     1
 10
0.0
 20
278.499999567409
 30
0.0
 11
0.0
 21
294.999952060667
 31
0.0
  0
LINE
  5
    8B
  8
0
  6
CONTINUOUS
 62
     1
 10
49.5
 20
73.499980493923
 30
0.0
 11
61.0
 21
73.499980493923
 31
0.0
  0
LINE
  5
    8C
  8
0
  6
CONTINUOUS
 62
     1
 10
48.7928895797786
 20
73.7928770569176
 30
0.0
 11
49.1173066946318
 21
73.5761030782846
 31
0.0
  0
LINE
  5
    8D
  8
0
  6
CONTINUOUS
 62
     1
 10
45.5
 20
217.499953791042
 30
0.0
 11
47.5
 21
217.499953791042
 31
0.0
  0
LINE
  5
    8E
  8
0
  6
CONTINUOUS
 62
     1
 10
48.5
 20
218.499953791042
 30
0.0
 11
48.5
 21
220.49998430862
 31
0.0
  0
LINE
  5
    8F
  8
0
  6
CONTINUOUS
 62
     1
 10
49.5
 20
221.49998430862
 30
0.0
 11
61.0
 21
221.49998430862
 31
0.0
  0
LINE
  5
    90
  8
0
  6
CONTINUOUS
 62
     1
 10
48.5
 20
213.499999567409
 30
0.0
 11
48.5
 21
218.49998430862
 31
0.0
  0
LINE
  5
    91
  8
0
  6
CONTINUOUS
 62
     1
 10
85.0
 20
20.4999995674093
 30
0.0
 11
85.0
 21
66.4999995674093
 31
0.0
  0
LINE
  5
    92
  8
0
  6
CONTINUOUS
 62
     1
 10
85.0
 20
228.499999567409
 30
0.0
 11
85.0
 21
274.499999567409
 31
0.0
  0
LINE
  5
    93
  8
0
  6
CONTINUOUS
 62
     1
 10
65.0
 20
18.4999995674093
 30
0.0
 11
83.0
 21
18.4999995674093
 31
0.0
  0
LINE
  5
    94
  8
0
  6
CONTINUOUS
 62
     1
 10
65.0
 20
68.4999995674093
 30
0.0
 11
83.0
 21
68.4999995674093
 31
0.0
  0
LINE
  5
    95
  8
0
  6
CONTINUOUS
 62
     1
 10
65.0
 20
276.499999567409
 30
0.0
 11
83.0
 21
276.499999567409
 31
0.0
  0
LINE
  5
    96
  8
0
  6
CONTINUOUS
 62
     1
 10
65.0
 20
226.499999567409
 30
0.0
 11
83.0
 21
226.499999567409
 31
0.0
  0
ARC
  5
    97
  8
0
  6
CONTINUOUS
 62
     1
 10
64.9999165137627
 20
278.499791758427
 30
0.0
 40
1.99978487451056
 50
179.993632987589
 51
270.002663206323
  0
ARC
  5
    98
  8
0
  6
CONTINUOUS
 62
     1
 10
82.9999340347904
 20
274.4999314475
 30
0.0
 40
2.0000757729629
 50
0.002355312465183
 51
89.9978053040706
  0
ARC
  5
    99
  8
0
  6
CONTINUOUS
 62
     1
 10
82.9999116167853
 20
228.500087346486
 30
0.0
 40
2.00011549437606
 50
270.002897544432
 51
359.997857039135
  0
ARC
  5
    9A
  8
0
  6
CONTINUOUS
 62
     1
 10
64.9999184375488
 20
224.50012847784
 30
0.0
 40
1.99984640930379
 50
89.9973313750434
 51
180.003331076003
  0
ARC
  5
    9B
  8
0
  6
CONTINUOUS
 62
     1
 10
61.0000256605929
 20
223.499960071298
 30
0.0
 40
1.99997025751221
 50
269.999590543356
 51
360.001042404463
  0
ARC
  5
    9C
  8
0
  6
CONTINUOUS
 62
     1
 10
49.4998375253428
 20
220.500158338518
 30
0.0
 40
0.999767477268007
 50
90.0
 51
180.0
  0
ARC
  5
    9D
  8
0
  6
CONTINUOUS
 62
     1
 10
47.4999789081749
 20
218.49996520695
 30
0.0
 40
1.00002296670393
 50
270.001612621459
 51
359.998496043313
  0
ARC
  5
    9E
  8
0
  6
CONTINUOUS
 62
     1
 10
61.0000128593571
 20
71.5000155985656
 30
0.0
 40
1.99996077363452
 50
359.998963444352
 51
450.00007365585
  0
ARC
  5
    9F
  8
0
  6
CONTINUOUS
 62
     1
 10
65.0000025173283
 20
70.5000043721036
 30
0.0
 40
2.00000239651892
 50
180.000166916245
 51
270.000162708079
  0
ARC
  5
    A0
  8
0
  6
CONTINUOUS
 62
     1
 10
83.0000105972873
 20
66.500007360899
 30
0.0
 40
1.99998409967202
 50
359.99975548358
 51
450.00004232059
  0
ARC
  5
    A1
  8
0
  6
CONTINUOUS
 62
     1
 10
82.9999123216256
 20
20.500063832728
 30
0.0
 40
2.00010029490385
 50
270.002773926169
 51
359.998166697101
  0
ARC
  5
    A2
  8
0
  6
CONTINUOUS
 62
     1
 10
64.9999636318814
 20
16.5000487387311
 30
0.0
 40
1.9999391421224
 50
89.9987223290514
 51
180.001392964213
  0
ARC
  5
    A3
  8
0
  6
CONTINUOUS
 62
     1
 10
49.4999889213575
 20
74.4999564682283
 30
0.0
 40
0.999975386078343
 50
180.0
 51
270.0
  0
ARC
  5
    A4
  8
0
  6
CONTINUOUS
 62
     1
 10
47.5
 20
76.4999576057394
 30
0.0
 40
1.0
 50
0.0
 51
90.0
  0
LINE
  5
    A5
  8
0
  6
DASHDOT
 62
     1
 10
-4.2589963029921
 20
251.499999567409
 30
0.0
 11
89.4453946237602
 21
251.499999567409
 31
0.0
  0
LINE
  5
    A6
  8
0
  6
CONTINUOUS
 62
     1
 10
47.5
 20
85.4999919380148
 30
0.0
 11
47.5
 21
89.4999919380148
 31
0.0
  0
LINE
  5
    A7
  8
0
  6
CONTINUOUS
 62
     1
 10
47.5
 20
205.49998430862
 30
0.0
 11
47.5
 21
209.49998430862
 31
0.0
  0
LINE
  5
    A8
  8
0
  6
CONTINUOUS
 62
     1
 10
45.5
 20
209.49998430862
 30
0.0
 11
47.5
 21
209.49998430862
 31
0.0
  0
LINE
  5
    A9
  8
0
  6
CONTINUOUS
 62
     1
 10
45.5
 20
205.49998430862
 30
0.0
 11
47.5
 21
205.49998430862
 31
0.0
  0
LINE
  5
    AA
  8
0
  6
CONTINUOUS
 62
     1
 10
45.5
 20
89.4999919380148
 30
0.0
 11
47.5
 21
89.4999919380148
 31
0.0
  0
LINE
  5
    AB
  8
0
  6
CONTINUOUS
 62
     1
 10
45.5
 20
85.4999919380148
 30
0.0
 11
47.5
 21
85.4999919380148
 31
0.0
  0
LINE
  5
    AC
  8
0
  6
DASHDOT
 62
     1
 10
-4.2589963029921
 20
43.4999995674093
 30
0.0
 11
99.2454243656788
 21
43.4999995674093
 31
0.0
  0
ENDBLK
  5
    AD
  8
0
  6
CONTINUOUS
 62
     7
  0
BLOCK
  5
    AE
  8
0
  6
CONTINUOUS
 62
     7
  2
*HATCH336
 70
    65
 10
0.0
 20
0.0
 30
0.0
  3
*HATCH336
  0
LINE
  5
    AF
  8
0
  6
CONTINUOUS
 62
    52
 10
41.621337890625
 20
39.5000152587891
 30
0.0
 11
39.621337890625
 21
37.5000152587891
 31
0.0
  0
LINE
  5
    B0
  8
0
  6
CONTINUOUS
 62
    52
 10
45.8639755249023
 20
39.5000152587891
 30
0.0
 11
43.8639755249023
 21
37.5000152587891
 31
0.0
  0
LINE
  5
    B1
  8
0
  6
CONTINUOUS
 62
    52
 10
50.1066131591797
 20
39.5000152587891
 30
0.0
 11
48.1066131591797
 21
37.5000152587891
 31
0.0
  0
LINE
  5
    B2
  8
0
  6
CONTINUOUS
 62
    52
 10
54.349250793457
 20
39.5000152587891
 30
0.0
 11
52.349250793457
 21
37.5000152587891
 31
0.0
  0
LINE
  5
    B3
  8
0
  6
CONTINUOUS
 62
    52
 10
58.5918884277344
 20
39.5000152587891
 30
0.0
 11
56.5918884277344
 21
37.5000152587891
 31
0.0
  0
LINE
  5
    B4
  8
0
  6
CONTINUOUS
 62
    52
 10
62.8345260620117
 20
39.5000152587891
 30
0.0
 11
60.8345260620117
 21
37.5000152587891
 31
0.0
  0
LINE
  5
    B5
  8
0
  6
CONTINUOUS
 62
    52
 10
67.0771713256836
 20
39.5000152587891
 30
0.0
 11
65.0771636962891
 21
37.5000152587891
 31
0.0
  0
LINE
  5
    B6
  8
0
  6
CONTINUOUS
 62
    52
 10
71.3198165893555
 20
39.5000152587891
 30
0.0
 11
69.3198089599609
 21
37.5000152587891
 31
0.0
  0
LINE
  5
    B7
  8
0
  6
CONTINUOUS
 62
    52
 10
75.2372512817383
 20
39.1748008728027
 30
0.0
 11
73.5624618530273
 21
37.5000152587891
 31
0.0
  0
ENDBLK
  5
    B8
  8
0
  6
CONTINUOUS
 62
     7
  0
BLOCK
  5
    B9
  8
0
  6
CONTINUOUS
 62
     7
  2
*HATCH337
 70
    65
 10
0.0
 20
0.0
 30
0.0
  3
*HATCH337
  0
LINE
  5
    BA
  8
0
  6
CONTINUOUS
 62
    52
 10
-22.018274307251
 20
39.5000152587891
 30
0.0
 11
-24.018274307251
 21
37.5000152587891
 31
0.0
  0
LINE
  5
    BB
  8
0
  6
CONTINUOUS
 62
    52
 10
-17.7756328582764
 20
39.5000152587891
 30
0.0
 11
-19.7756328582764
 21
37.5000152587891
 31
0.0
  0
LINE
  5
    BC
  8
0
  6
CONTINUOUS
 62
    52
 10
-13.5329914093018
 20
39.5000152587891
 30
0.0
 11
-15.5329914093018
 21
37.5000152587891
 31
0.0
  0
LINE
  5
    BD
  8
0
  6
CONTINUOUS
 62
    52
 10
-9.29034996032715
 20
39.5000152587891
 30
0.0
 11
-11.2903499603271
 21
37.5000152587891
 31
0.0
  0
LINE
  5
    BE
  8
0
  6
CONTINUOUS
 62
    52
 10
-5.04770851135254
 20
39.5000152587891
 30
0.0
 11
-7.04770851135254
 21
37.5000152587891
 31
0.0
  0
LINE
  5
    BF
  8
0
  6
CONTINUOUS
 62
    52
 10
-0.805067539215088
 20
39.5000152587891
 30
0.0
 11
-2.80506730079651
 21
37.5000152587891
 31
0.0
  0
LINE
  5
    C0
  8
0
  6
CONTINUOUS
 62
    52
 10
3.43757343292236
 20
39.5000152587891
 30
0.0
 11
1.43757367134094
 21
37.5000152587891
 31
0.0
  0
LINE
  5
    C1
  8
0
  6
CONTINUOUS
 62
    52
 10
7.68021488189697
 20
39.5000152587891
 30
0.0
 11
5.68021488189697
 21
37.5000152587891
 31
0.0
  0
LINE
  5
    C2
  8
0
  6
CONTINUOUS
 62
    52
 10
11.9228563308716
 20
39.5000152587891
 30
0.0
 11
9.92285633087158
 21
37.5000152587891
 31
0.0
  0
LINE
  5
    C3
  8
0
  6
CONTINUOUS
 62
    52
 10
16.1654968261719
 20
39.5000152587891
 30
0.0
 11
14.1654977798462
 21
37.5000152587891
 31
0.0
  0
LINE
  5
    C4
  8
0
  6
CONTINUOUS
 62
    52
 10
20.4081382751465
 20
39.5000152587891
 30
0.0
 11
18.4081382751465
 21
37.5000152587891
 31
0.0
  0
LINE
  5
    C5
  8
0
  6
CONTINUOUS
 62
    52
 10
24.6507797241211
 20
39.5000152587891
 30
0.0
 11
22.6507797241211
 21
37.5000152587891
 31
0.0
  0
LINE
  5
    C6
  8
0
  6
CONTINUOUS
 62
    52
 10
28.8934211730957
 20
39.5000152587891
 30
0.0
 11
26.8934211730957
 21
37.5000152587891
 31
0.0
  0
ENDBLK
  5
    C7
  8
0
  6
CONTINUOUS
 62
     7
  0
BLOCK
  5
    C8
  8
0
  6
CONTINUOUS
 62
     7
  2
*HATCH338
 70
    65
 10
0.0
 20
0.0
 30
0.0
  3
*HATCH338
  0
LINE
  5
    C9
  8
0
  6
CONTINUOUS
 62
    52
 10
128.595474243164
 20
39.5000152587891
 30
0.0
 11
126.595474243164
 21
37.5000114440918
 31
0.0
  0
LINE
  5
    CA
  8
0
  6
CONTINUOUS
 62
    52
 10
132.838119506836
 20
39.5000152587891
 30
0.0
 11
130.838119506836
 21
37.5000114440918
 31
0.0
  0
LINE
  5
    CB
  8
0
  6
CONTINUOUS
 62
    52
 10
137.080764770508
 20
39.5000152587891
 30
0.0
 11
135.080764770508
 21
37.5000114440918
 31
0.0
  0
LINE
  5
    CC
  8
0
  6
CONTINUOUS
 62
    52
 10
141.32341003418
 20
39.5000152587891
 30
0.0
 11
139.32341003418
 21
37.5000114440918
 31
0.0
  0
LINE
  5
    CD
  8
0
  6
CONTINUOUS
 62
    52
 10
145.566055297852
 20
39.5000152587891
 30
0.0
 11
143.566055297852
 21
37.5000114440918
 31
0.0
  0
LINE
  5
    CE
  8
0
  6
CONTINUOUS
 62
    52
 10
149.808700561523
 20
39.5000152587891
 30
0.0
 11
147.808700561523
 21
37.5000114440918
 31
0.0
  0
LINE
  5
    CF
  8
0
  6
CONTINUOUS
 62
    52
 10
154.051345825195
 20
39.5000152587891
 30
0.0
 11
152.051345825195
 21
37.5000114440918
 31
0.0
  0
LINE
  5
    D0
  8
0
  6
CONTINUOUS
 62
    52
 10
158.293991088867
 20
39.5000152587891
 30
0.0
 11
156.293991088867
 21
37.5000114440918
 31
0.0
  0
LINE
  5
    D1
  8
0
  6
CONTINUOUS
 62
    52
 10
162.536636352539
 20
39.5000152587891
 30
0.0
 11
160.536636352539
 21
37.5000114440918
 31
0.0
  0
LINE
  5
    D2
  8
0
  6
CONTINUOUS
 62
    52
 10
166.779281616211
 20
39.5000152587891
 30
0.0
 11
164.779281616211
 21
37.5000114440918
 31
0.0
  0
LINE
  5
    D3
  8
0
  6
CONTINUOUS
 62
    52
 10
171.021926879883
 20
39.5000152587891
 30
0.0
 11
169.021926879883
 21
37.5000114440918
 31
0.0
  0
LINE
  5
    D4
  8
0
  6
CONTINUOUS
 62
    52
 10
175.264572143555
 20
39.5000152587891
 30
0.0
 11
173.264572143555
 21
37.5000114440918
 31
0.0
  0
LINE
  5
    D5
  8
0
  6
CONTINUOUS
 62
    52
 10
179.507217407227
 20
39.5000152587891
 30
0.0
 11
177.507217407227
 21
37.5000114440918
 31
0.0
  0
LINE
  5
    D6
  8
0
  6
CONTINUOUS
 62
    52
 10
183.749862670898
 20
39.5000152587891
 30
0.0
 11
181.749862670898
 21
37.5000114440918
 31
0.0
  0
LINE
  5
    D7
  8
0
  6
CONTINUOUS
 62
    52
 10
187.99250793457
 20
39.5000152587891
 30
0.0
 11
185.99250793457
 21
37.5000114440918
 31
0.0
  0
LINE
  5
    D8
  8
0
  6
CONTINUOUS
 62
    52
 10
192.235153198242
 20
39.5000152587891
 30
0.0
 11
190.235153198242
 21
37.5000114440918
 31
0.0
  0
LINE
  5
    D9
  8
0
  6
CONTINUOUS
 62
    52
 10
196.477798461914
 20
39.5000152587891
 30
0.0
 11
194.477798461914
 21
37.5000114440918
 31
0.0
  0
LINE
  5
    DA
  8
0
  6
CONTINUOUS
 62
    52
 10
200.720443725586
 20
39.5000152587891
 30
0.0
 11
198.720443725586
 21
37.5000114440918
 31
0.0
  0
LINE
  5
    DB
  8
0
  6
CONTINUOUS
 62
    52
 10
204.963088989258
 20
39.5000152587891
 30
0.0
 11
202.963088989258
 21
37.5000114440918
 31
0.0
  0
LINE
  5
    DC
  8
0
  6
CONTINUOUS
 62
    52
 10
207.737045288086
 20
38.0314140319824
 30
0.0
 11
207.205642700195
 21
37.5000114440918
 31
0.0
  0
ENDBLK
  5
    DD
  8
0
  6
CONTINUOUS
 62
     7
  0
BLOCK
  5
    DE
  8
0
  6
CONTINUOUS
 62
     7
  2
*HATCH339
 70
    65
 10
0.0
 20
0.0
 30
0.0
  3
*HATCH339
  0
LINE
  5
    DF
  8
0
  6
CONTINUOUS
 62
    52
 10
217.691177368164
 20
39.5002555847168
 30
0.0
 11
215.694412231445
 21
37.503490447998
 31
0.0
  0
LINE
  5
    E0
  8
0
  6
CONTINUOUS
 62
    52
 10
221.934158325195
 20
39.5005989074707
 30
0.0
 11
219.952499389648
 21
37.5189399719238
 31
0.0
  0
LINE
  5
    E1
  8
0
  6
CONTINUOUS
 62
    52
 10
226.177139282227
 20
39.5009422302246
 30
0.0
 11
224.210586547852
 21
37.5343894958496
 31
0.0
  0
LINE
  5
    E2
  8
0
  6
CONTINUOUS
 62
    52
 10
230.420120239258
 20
39.5012855529785
 30
0.0
 11
228.468673706055
 21
37.5498390197754
 31
0.0
  0
LINE
  5
    E3
  8
0
  6
CONTINUOUS
 62
    52
 10
234.663101196289
 20
39.5016288757324
 30
0.0
 11
232.726760864258
 21
37.5652885437012
 31
0.0
  0
LINE
  5
    E4
  8
0
  6
CONTINUOUS
 62
    52
 10
238.90608215332
 20
39.5019721984863
 30
0.0
 11
236.984848022461
 21
37.580738067627
 31
0.0
  0
LINE
  5
    E5
  8
0
  6
CONTINUOUS
 62
    52
 10
243.149063110352
 20
39.5023155212402
 30
0.0
 11
241.242935180664
 21
37.5961875915527
 31
0.0
  0
LINE
  5
    E6
  8
0
  6
CONTINUOUS
 62
    52
 10
247.392044067383
 20
39.5026588439941
 30
0.0
 11
245.501022338867
 21
37.6116371154785
 31
0.0
  0
LINE
  5
    E7
  8
0
  6
CONTINUOUS
 62
    52
 10
251.635025024414
 20
39.503002166748
 30
0.0
 11
249.75910949707
 21
37.6270866394043
 31
0.0
  0
LINE
  5
    E8
  8
0
  6
CONTINUOUS
 62
    52
 10
255.878005981445
 20
39.503345489502
 30
0.0
 11
254.017196655273
 21
37.6425361633301
 31
0.0
  0
LINE
  5
    E9
  8
0
  6
CONTINUOUS
 62
    52
 10
260.121002197266
 20
39.5036888122559
 30
0.0
 11
258.275299072266
 21
37.6579856872559
 31
0.0
  0
LINE
  5
    EA
  8
0
  6
CONTINUOUS
 62
    52
 10
264.363983154297
 20
39.5040321350098
 30
0.0
 11
262.533416748047
 21
37.6734352111816
 31
0.0
  0
LINE
  5
    EB
  8
0
  6
CONTINUOUS
 62
    52
 10
268.606964111328
 20
39.5043754577637
 30
0.0
 11
266.791534423828
 21
37.6888847351074
 31
0.0
  0
LINE
  5
    EC
  8
0
  6
CONTINUOUS
 62
    52
 10
272.849945068359
 20
39.5047187805176
 30
0.0
 11
271.049652099609
 21
37.7043342590332
 31
0.0
  0
LINE
  5
    ED
  8
0
  6
CONTINUOUS
 62
    52
 10
277.092926025391
 20
39.5050621032715
 30
0.0
 11
275.307769775391
 21
37.719783782959
 31
0.0
  0
LINE
  5
    EE
  8
0
  6
CONTINUOUS
 62
    52
 10
281.335906982422
 20
39.5054054260254
 30
0.0
 11
279.565887451172
 21
37.7352333068848
 31
0.0
  0
LINE
  5
    EF
  8
0
  6
CONTINUOUS
 62
    52
 10
285.578887939453
 20
39.5057487487793
 30
0.0
 11
283.824005126953
 21
37.7506828308105
 31
0.0
  0
LINE
  5
    F0
  8
0
  6
CONTINUOUS
 62
    52
 10
289.821868896484
 20
39.5060920715332
 30
0.0
 11
288.082122802734
 21
37.7661323547363
 31
0.0
  0
LINE
  5
    F1
  8
0
  6
CONTINUOUS
 62
    52
 10
294.064849853516
 20
39.5064353942871
 30
0.0
 11
292.340240478516
 21
37.7815818786621
 31
0.0
  0
LINE
  5
    F2
  8
0
  6
CONTINUOUS
 62
    52
 10
298.307830810547
 20
39.506778717041
 30
0.0
 11
296.598358154297
 21
37.7970314025879
 31
0.0
  0
LINE
  5
    F3
  8
0
  6
CONTINUOUS
 62
    52
 10
302.550811767578
 20
39.5071220397949
 30
0.0
 11
300.856475830078
 21
37.8124809265137
 31
0.0
  0
LINE
  5
    F4
  8
0
  6
CONTINUOUS
 62
    52
 10
306.793792724609
 20
39.5074653625488
 30
0.0
 11
305.114593505859
 21
37.8279304504395
 31
0.0
  0
LINE
  5
    F5
  8
0
  6
CONTINUOUS
 62
    52
 10
311.036773681641
 20
39.5078086853027
 30
0.0
 11
309.372711181641
 21
37.8433799743652
 31
0.0
  0
LINE
  5
    F6
  8
0
  6
CONTINUOUS
 62
    52
 10
315.279754638672
 20
39.5081520080566
 30
0.0
 11
313.630828857422
 21
37.858829498291
 31
0.0
  0
LINE
  5
    F7
  8
0
  6
CONTINUOUS
 62
    52
 10
319.522735595703
 20
39.5084953308105
 30
0.0
 11
317.888946533203
 21
37.8742790222168
 31
0.0
  0
LINE
  5
    F8
  8
0
  6
CONTINUOUS
 62
    52
 10
323.765716552734
 20
39.5088386535645
 30
0.0
 11
322.147064208984
 21
37.8897285461426
 31
0.0
  0
LINE
  5
    F9
  8
0
  6
CONTINUOUS
 62
    52
 10
328.008697509766
 20
39.5091819763184
 30
0.0
 11
326.405181884766
 21
37.9051780700684
 31
0.0
  0
LINE
  5
    FA
  8
0
  6
CONTINUOUS
 62
    52
 10
332.251678466797
 20
39.5095252990723
 30
0.0
 11
330.663299560547
 21
37.9206275939941
 31
0.0
  0
LINE
  5
    FB
  8
0
  6
CONTINUOUS
 62
    52
 10
336.494659423828
 20
39.5098686218262
 30
0.0
 11
334.921417236328
 21
37.9360771179199
 31
0.0
  0
LINE
  5
    FC
  8
0
  6
CONTINUOUS
 62
    52
 10
340.737640380859
 20
39.5102119445801
 30
0.0
 11
339.179534912109
 21
37.9515266418457
 31
0.0
  0
LINE
  5
    FD
  8
0
  6
CONTINUOUS
 62
    52
 10
344.980621337891
 20
39.510555267334
 30
0.0
 11
343.437652587891
 21
37.9669761657715
 31
0.0
  0
LINE
  5
    FE
  8
0
  6
CONTINUOUS
 62
    52
 10
349.223602294922
 20
39.5108985900879
 30
0.0
 11
347.695770263672
 21
37.9824256896973
 31
0.0
  0
LINE
  5
    FF
  8
0
  6
CONTINUOUS
 62
    52
 10
353.466583251953
 20
39.5112419128418
 30
0.0
 11
351.953887939453
 21
37.997875213623
 31
0.0
  0
LINE
  5
   100
  8
0
  6
CONTINUOUS
 62
    52
 10
357.709564208984
 20
39.5115852355957
 30
0.0
 11
356.212005615234
 21
38.0133247375488
 31
0.0
  0
LINE
  5
   101
  8
0
  6
CONTINUOUS
 62
    52
 10
361.952545166016
 20
39.5119285583496
 30
0.0
 11
360.470123291016
 21
38.0287742614746
 31
0.0
  0
LINE
  5
   102
  8
0
  6
CONTINUOUS
 62
    52
 10
366.195526123047
 20
39.5122718811035
 30
0.0
 11
364.728240966797
 21
38.0442237854004
 31
0.0
  0
LINE
  5
   103
  8
0
  6
CONTINUOUS
 62
    52
 10
370.438507080078
 20
39.5126152038574
 30
0.0
 11
368.986358642578
 21
38.0596733093262
 31
0.0
  0
LINE
  5
   104
  8
0
  6
CONTINUOUS
 62
    52
 10
374.681488037109
 20
39.5129585266113
 30
0.0
 11
373.244476318359
 21
38.075122833252
 31
0.0
  0
LINE
  5
   105
  8
0
  6
CONTINUOUS
 62
    52
 10
378.924468994141
 20
39.5133018493652
 30
0.0
 11
377.502593994141
 21
38.0905723571777
 31
0.0
  0
LINE
  5
   106
  8
0
  6
CONTINUOUS
 62
    52
 10
382.896850585938
 20
39.2429428100586
 30
0.0
 11
381.760040283203
 21
38.1061325073242
 31
0.0
  0
ENDBLK
  5
   107
  8
0
  6
CONTINUOUS
 62
     7
  0
BLOCK
  5
   108
  8
0
  6
CONTINUOUS
 62
     7
  2
*HATCH340
 70
    65
 10
0.0
 20
0.0
 30
0.0
  3
*HATCH340
  0
LINE
  5
   109
  8
0
  6
CONTINUOUS
 62
    52
 10
198.084335327148
 20
30.5000228881836
 30
0.0
 11
195.584335327148
 21
28.0000171661377
 31
0.0
  0
LINE
  5
   10A
  8
0
  6
CONTINUOUS
 62
    52
 10
202.32698059082
 20
30.5000228881836
 30
0.0
 11
199.82698059082
 21
28.0000171661377
 31
0.0
  0
ENDBLK
  5
   10B
  8
0
  6
CONTINUOUS
 62
     7
  0
BLOCK
  5
   10C
  8
0
  6
CONTINUOUS
 62
     7
  2
*UDIM1764
 70
    65
 10
0.0
 20
0.0
 30
0.0
  3
*UDIM1764
  0
TEXT
  5
   10D
  8
0
  6
CONTINUOUS
 62
     7
 10
145.917185263656
 20
123.437983368879
 30
0.0
 40
2.4999999335834
  1
14
 50
421.318116650303
 41
0.933333333333333
 72
     1
 11
145.82045056935
 21
125.865620051553
 31
0.0
 73
     2
  0
TEXT
  5
   10E
  8
0
  6
CONTINUOUS
 62
     7
 10
144.657326704909
 20
121.135076236458
 30
0.0
 40
2.4999999335834
  1
Ø
 50
421.318116650303
 41
0.933333333333333
 72
     1
 11
144.000654880775
 21
122.539198654731
 31
0.0
 73
     2
  0
LINE
  5
   10F
  8
0
  6
CONTINUOUS
 62
     7
 10
140.502128337615
 20
111.456183447807
 30
0.0
 11
148.794258690877
 21
126.613445334669
 31
0.0
  0
LINE
  5
   110
  8
0
  6
CONTINUOUS
 62
     7
 10
139.541187912095
 20
108.61424863177
 30
0.0
 11
140.502128337615
 21
111.456183447807
 31
0.0
  0
LINE
  5
   111
  8
0
  6
CONTINUOUS
 62
     7
 10
140.502128337615
 20
111.456183447807
 30
0.0
 11
138.627140781417
 21
109.114299235447
 31
0.0
  0
LINE
  5
   112
  8
0
  6
CONTINUOUS
 62
     7
 10
143.81480472697
 20
118.59687821744
 30
0.0
 11
142.85386430145
 21
115.754943401403
 31
0.0
  0
LINE
  5
   113
  8
0
  6
CONTINUOUS
 62
     7
 10
142.85386430145
 20
115.754943401403
 30
0.0
 11
144.728851857648
 21
118.096827613763
 31
0.0
  0
ENDBLK
  5
   114
  8
0
  6
CONTINUOUS
 62
     7
  0
BLOCK
  5
   115
  8
0
  6
CONTINUOUS
 62
     7
  2
*UDIM1765
 70
    65
 10
0.0
 20
0.0
 30
0.0
  3
*UDIM1765
  0
TEXT
  5
   116
  8
0
  6
CONTINUOUS
 62
     7
 10
153.018112989819
 20
111.293060768724
 30
0.0
 40
2.4999999335834
  1
40
 50
89.9999999480344
 41
0.933333333333333
 72
     1
 11
151.768113024914
 21
113.376394047843
 31
0.0
 73
     2
  0
LINE
  5
   117
  8
0
  6
CONTINUOUS
 62
     7
 10
149.677996200323
 20
106.605563543814
 30
0.0
 11
156.018112991706
 21
106.605563543814
 31
0.0
  0
LINE
  5
   118
  8
0
  6
CONTINUOUS
 62
     7
 10
149.677996200323
 20
120.605563305396
 30
0.0
 11
156.018112991706
 21
120.605563305396
 31
0.0
  0
LINE
  5
   119
  8
0
  6
CONTINUOUS
 62
     7
 10
154.018112991706
 20
106.605563543814
 30
0.0
 11
154.018112991706
 21
120.605563305396
 31
0.0
  0
LINE
  5
   11A
  8
0
  6
CONTINUOUS
 62
     7
 10
153.497168473706
 20
109.559986805496
 30
0.0
 11
154.018112991706
 21
106.605563543814
 31
0.0
  0
LINE
  5
   11B
  8
0
  6
CONTINUOUS
 62
     7
 10
154.018112991706
 20
106.605563543814
 30
0.0
 11
154.539057509706
 21
109.559986805496
 31
0.0
  0
LINE
  5
   11C
  8
0
  6
CONTINUOUS
 62
     7
 10
154.539057509706
 20
117.651140043714
 30
0.0
 11
154.018112991706
 21
120.605563305396
 31
0.0
  0
LINE
  5
   11D
  8
0
  6
CONTINUOUS
 62
     7
 10
154.018112991706
 20
120.605563305396
 30
0.0
 11
153.497168473706
 21
117.651140043714
 31
0.0
  0
ENDBLK
  5
   11E
  8
0
  6
CONTINUOUS
 62
     7
  0
BLOCK
  5
   11F
  8
0
  6
CONTINUOUS
 62
     7
  2
*UDIM1766
 70
    65
 10
0.0
 20
0.0
 30
0.0
  3
*UDIM1766
  0
TEXT
  5
   120
  8
0
  6
CONTINUOUS
 62
     7
 10
83.7738366124115
 20
0.314264600284808
 30
0.0
 40
2.4999999335834
  1
190
 50
359.999999948034
 41
0.933333333333333
 72
     1
 11
87.0238365271973
 21
1.56426456414518
 31
0.0
 73
     2
  0
LINE
  5
   121
  8
0
  6
CONTINUOUS
 62
     7
 10
120.502996680141
 20
14.04388375611
 30
0.0
 11
120.502996680141
 21
-2.68573540264651
 31
0.0
  0
LINE
  5
   122
  8
0
  6
CONTINUOUS
 62
     7
 10
54.0030084937812
 20
29.4096715513221
 30
0.0
 11
54.0030084937812
 21
-2.68573540264651
 31
0.0
  0
LINE
  5
   123
  8
0
  6
CONTINUOUS
 62
     7
 10
120.502996680141
 20
-0.685735402646515
 30
0.0
 11
54.0030084937812
 21
-0.685735402646515
 31
0.0
  0
LINE
  5
   124
  8
0
  6
CONTINUOUS
 62
     7
 10
117.548573418459
 20
-1.20667992064686
 30
0.0
 11
120.502996680141
 21
-0.685735402646515
 31
0.0
  0
LINE
  5
   125
  8
0
  6
CONTINUOUS
 62
     7
 10
120.502996680141
 20
-0.685735402646515
 30
0.0
 11
117.548573418459
 21
-0.164790884646173
 31
0.0
  0
LINE
  5
   126
  8
0
  6
CONTINUOUS
 62
     7
 10
56.9574317554628
 20
-0.164790884646173
 30
0.0
 11
54.0030084937812
 21
-0.685735402646515
 31
0.0
  0
LINE
  5
   127
  8
0
  6
CONTINUOUS
 62
     7
 10
54.0030084937812
 20
-0.685735402646515
 30
0.0
 11
56.9574317554628
 21
-1.20667992064686
 31
0.0
  0
ENDBLK
  5
   128
  8
0
  6
CONTINUOUS
 62
     7
  0
BLOCK
  5
   129
  8
0
  6
CONTINUOUS
 62
     7
  2
*UDIM1767
 70
    65
 10
0.0
 20
0.0
 30
0.0
  3
*UDIM1767
  0
TEXT
  5
   12A
  8
0
  6
CONTINUOUS
 62
     7
 10
48.0113412691946
 20
0.314264598180269
 30
0.0
 40
2.4999999335834
  1
2
 50
359.999999948034
 41
0.933333333333333
 72
     1
 11
48.9280079126359
 21
1.56426456414518
 31
0.0
 73
     2
  0
LINE
  5
   12B
  8
0
  6
CONTINUOUS
 62
     7
 10
53.3030085057021
 20
29.2638700270875
 30
0.0
 11
53.3030085057021
 21
-2.68573540264651
 31
0.0
  0
LINE
  5
   12C
  8
0
  6
CONTINUOUS
 62
     7
 10
54.0030084937812
 20
-0.685735402646515
 30
0.0
 11
48.011341270322
 21
-0.685735402646515
 31
0.0
  0
LINE
  5
   12D
  8
0
  6
CONTINUOUS
 62
     7
 10
56.9574317554628
 20
-0.164790884646173
 30
0.0
 11
54.0030084937812
 21
-0.685735402646515
 31
0.0
  0
LINE
  5
   12E
  8
0
  6
CONTINUOUS
 62
     7
 10
54.0030084937812
 20
-0.685735402646515
 30
0.0
 11
56.9574317554628
 21
-1.20667992064686
 31
0.0
  0
LINE
  5
   12F
  8
0
  6
CONTINUOUS
 62
     7
 10
50.3485852440205
 20
-1.20667992064686
 30
0.0
 11
53.3030085057021
 21
-0.685735402646515
 31
0.0
  0
LINE
  5
   130
  8
0
  6
CONTINUOUS
 62
     7
 10
53.3030085057021
 20
-0.685735402646515
 30
0.0
 11
50.3485852440205
 21
-0.164790884646173
 31
0.0
  0
ENDBLK
  5
   131
  8
0
  6
CONTINUOUS
 62
     7
  0
BLOCK
  5
   132
  8
0
  6
CONTINUOUS
 62
     7
  2
*UDIM1768
 70
    65
 10
0.0
 20
0.0
 30
0.0
  3
*UDIM1768
  0
TEXT
  5
   133
  8
0
  6
CONTINUOUS
 62
     7
 10
151.657161881322
 20
185.001099985529
 30
0.0
 40
2.4999999335834
  1
20
 50
359.999999948034
 41
0.933333333333333
 72
     1
 11
153.740495160435
 21
186.251099950441
 31
0.0
 73
     2
  0
LINE
  5
   134
  8
0
  6
CONTINUOUS
 62
     7
 10
148.677996200323
 20
121.605563305396
 30
0.0
 11
148.677996200323
 21
186.00109998365
 31
0.0
  0
LINE
  5
   135
  8
0
  6
CONTINUOUS
 62
     7
 10
141.677996319533
 20
120.555563323277
 30
0.0
 11
141.677996319533
 21
186.00109998365
 31
0.0
  0
LINE
  5
   136
  8
0
  6
CONTINUOUS
 62
     7
 10
155.823828438421
 20
184.00109998365
 30
0.0
 11
141.677996319533
 21
184.00109998365
 31
0.0
  0
LINE
  5
   137
  8
0
  6
CONTINUOUS
 62
     7
 10
145.723572938642
 20
183.480155465649
 30
0.0
 11
148.677996200323
 21
184.00109998365
 31
0.0
  0
LINE
  5
   138
  8
0
  6
CONTINUOUS
 62
     7
 10
148.677996200323
 20
184.00109998365
 30
0.0
 11
145.723572938642
 21
184.52204450165
 31
0.0
  0
LINE
  5
   139
  8
0
  6
CONTINUOUS
 62
     7
 10
144.632419581214
 20
184.52204450165
 30
0.0
 11
141.677996319533
 21
184.00109998365
 31
0.0
  0
LINE
  5
   13A
  8
0
  6
CONTINUOUS
 62
     7
 10
141.677996319533
 20
184.00109998365
 30
0.0
 11
144.632419581214
 21
183.480155465649
 31
0.0
  0
ENDBLK
  5
   13B
  8
0
  6
CONTINUOUS
 62
     7
  0
BLOCK
  5
   13C
  8
0
  6
CONTINUOUS
 62
     7
  2
*UDIM1769
 70
    65
 10
0.0
 20
0.0
 30
0.0
  3
*UDIM1769
  0
TEXT
  5
   13D
  8
0
  6
CONTINUOUS
 62
     7
 10
126.444660510032
 20
185.001099987633
 30
0.0
 40
2.4999999335834
  1
60,5
 50
359.999999948034
 41
0.933333333333333
 72
     1
 11
130.86132706049
 21
186.251099950441
 31
0.0
 73
     2
  0
LINE
  5
   13E
  8
0
  6
CONTINUOUS
 62
     7
 10
120.502996680141
 20
174.336494448102
 30
0.0
 11
120.502996680141
 21
186.00109998365
 31
0.0
  0
LINE
  5
   13F
  8
0
  6
CONTINUOUS
 62
     7
 10
141.677996319533
 20
184.00109998365
 30
0.0
 11
120.502996680141
 21
184.00109998365
 31
0.0
  0
LINE
  5
   140
  8
0
  6
CONTINUOUS
 62
     7
 10
138.723573057851
 20
183.480155465649
 30
0.0
 11
141.677996319533
 21
184.00109998365
 31
0.0
  0
LINE
  5
   141
  8
0
  6
CONTINUOUS
 62
     7
 10
141.677996319533
 20
184.00109998365
 30
0.0
 11
138.723573057851
 21
184.52204450165
 31
0.0
  0
LINE
  5
   142
  8
0
  6
CONTINUOUS
 62
     7
 10
123.457419941822
 20
184.52204450165
 30
0.0
 11
120.502996680141
 21
184.00109998365
 31
0.0
  0
LINE
  5
   143
  8
0
  6
CONTINUOUS
 62
     7
 10
120.502996680141
 20
184.00109998365
 30
0.0
 11
123.457419941822
 21
183.480155465649
 31
0.0
  0
ENDBLK
  5
   144
  8
0
  6
CONTINUOUS
 62
     7
  0
BLOCK
  5
   145
  8
0
  6
CONTINUOUS
 62
     7
  2
*UDIM1770
 70
    65
 10
0.0
 20
0.0
 30
0.0
  3
*UDIM1770
  0
TEXT
  5
   146
  8
0
  6
CONTINUOUS
 62
     7
 10
80.4780019597293
 20
185.001099988685
 30
0.0
 40
2.4999999335834
  1
195,5
 50
359.999999948034
 41
0.933333333333333
 72
     1
 11
86.0613351458597
 21
186.251099950441
 31
0.0
 73
     2
  0
LINE
  5
   147
  8
0
  6
CONTINUOUS
 62
     7
 10
52.0780098617078
 20
117.580563373941
 30
0.0
 11
52.0780098617078
 21
186.00109998365
 31
0.0
  0
LINE
  5
   148
  8
0
  6
CONTINUOUS
 62
     7
 10
120.502996680141
 20
184.00109998365
 30
0.0
 11
52.0780098617078
 21
184.00109998365
 31
0.0
  0
LINE
  5
   149
  8
0
  6
CONTINUOUS
 62
     7
 10
117.548573418459
 20
183.480155465649
 30
0.0
 11
120.502996680141
 21
184.00109998365
 31
0.0
  0
LINE
  5
   14A
  8
0
  6
CONTINUOUS
 62
     7
 10
120.502996680141
 20
184.00109998365
 30
0.0
 11
117.548573418459
 21
184.52204450165
 31
0.0
  0
LINE
  5
   14B
  8
0
  6
CONTINUOUS
 62
     7
 10
55.0324331233894
 20
184.52204450165
 30
0.0
 11
52.0780098617078
 21
184.00109998365
 31
0.0
  0
LINE
  5
   14C
  8
0
  6
CONTINUOUS
 62
     7
 10
52.0780098617078
 20
184.00109998365
 30
0.0
 11
55.0324331233894
 21
183.480155465649
 31
0.0
  0
ENDBLK
  5
   14D
  8
0
  6
CONTINUOUS
 62
     7
  0
BLOCK
  5
   14E
  8
0
  6
CONTINUOUS
 62
     7
  2
*UDIM1771
 70
    65
 10
0.0
 20
0.0
 30
0.0
  3
*UDIM1771
  0
TEXT
  5
   14F
  8
0
  6
CONTINUOUS
 62
     7
 10
42.9656351476682
 20
185.001099987633
 30
0.0
 40
2.4999999335834
  1
27,5
 50
359.999999948034
 41
0.933333333333333
 72
     1
 11
47.3823016981263
 21
186.251099950441
 31
0.0
 73
     2
  0
LINE
  5
   150
  8
0
  6
CONTINUOUS
 62
     7
 10
42.4530100256205
 20
107.78056220569
 30
0.0
 11
42.4530100256205
 21
186.00109998365
 31
0.0
  0
LINE
  5
   151
  8
0
  6
CONTINUOUS
 62
     7
 10
52.0780098617078
 20
184.00109998365
 30
0.0
 11
42.4530100256205
 21
184.00109998365
 31
0.0
  0
LINE
  5
   152
  8
0
  6
CONTINUOUS
 62
     7
 10
55.0324331233894
 20
184.52204450165
 30
0.0
 11
52.0780098617078
 21
184.00109998365
 31
0.0
  0
LINE
  5
   153
  8
0
  6
CONTINUOUS
 62
     7
 10
52.0780098617078
 20
184.00109998365
 30
0.0
 11
55.0324331233894
 21
183.480155465649
 31
0.0
  0
LINE
  5
   154
  8
0
  6
CONTINUOUS
 62
     7
 10
39.4985867639389
 20
183.480155465649
 30
0.0
 11
42.4530100256205
 21
184.00109998365
 31
0.0
  0
LINE
  5
   155
  8
0
  6
CONTINUOUS
 62
     7
 10
42.4530100256205
 20
184.00109998365
 30
0.0
 11
39.4985867639389
 21
184.52204450165
 31
0.0
  0
ENDBLK
  5
   156
  8
0
  6
CONTINUOUS
 62
     7
  0
BLOCK
  5
   157
  8
0
  6
CONTINUOUS
 62
     7
  2
*UDIM1772
 70
    65
 10
0.0
 20
0.0
 30
0.0
  3
*UDIM1772
  0
TEXT
  5
   158
  8
0
  6
CONTINUOUS
 62
     7
 10
157.621406521045
 20
2.22643542169985
 30
0.0
 40
2.4999999335834
  1
20
 50
89.9999999480344
 41
0.933333333333333
 72
     1
 11
156.37140655614
 21
4.30976870081815
 31
0.0
 73
     2
  0
LINE
  5
   159
  8
0
  6
CONTINUOUS
 62
     7
 10
110.652996864915
 20
9.8306012407711
 30
0.0
 11
160.621406522931
 21
9.8306012407711
 31
0.0
  0
LINE
  5
   15A
  8
0
  6
CONTINUOUS
 62
     7
 10
115.625711549916
 20
16.8305650726733
 30
0.0
 11
160.621406522931
 21
16.8305650726733
 31
0.0
  0
LINE
  5
   15B
  8
0
  6
CONTINUOUS
 62
     7
 10
158.621406522931
 20
2.22643542283199
 30
0.0
 11
158.621406522931
 21
16.8305650726733
 31
0.0
  0
LINE
  5
   15C
  8
0
  6
CONTINUOUS
 62
     7
 10
158.100462004931
 20
12.7850245024527
 30
0.0
 11
158.621406522931
 21
9.8306012407711
 31
0.0
  0
LINE
  5
   15D
  8
0
  6
CONTINUOUS
 62
     7
 10
158.621406522931
 20
9.8306012407711
 30
0.0
 11
159.142351040932
 21
12.7850245024527
 31
0.0
  0
LINE
  5
   15E
  8
0
  6
CONTINUOUS
 62
     7
 10
159.142351040932
 20
13.8761418109917
 30
0.0
 11
158.621406522931
 21
16.8305650726733
 31
0.0
  0
LINE
  5
   15F
  8
0
  6
CONTINUOUS
 62
     7
 10
158.621406522931
 20
16.8305650726733
 30
0.0
 11
158.100462004931
 21
13.8761418109917
 31
0.0
  0
ENDBLK
  5
   160
  8
0
  6
CONTINUOUS
 62
     7
  0
BLOCK
  5
   161
  8
0
  6
CONTINUOUS
 62
     7
  2
*UDIM1773
 70
    65
 10
0.0
 20
0.0
 30
0.0
  3
*UDIM1773
  0
TEXT
  5
   162
  8
0
  6
CONTINUOUS
 62
     7
 10
157.621406519988
 20
46.0763972056716
 30
0.0
 40
2.4999999335834
  1
187
 50
89.9999999480344
 41
0.933333333333333
 72
     1
 11
156.37140655614
 21
49.3263971204621
 31
0.0
 73
     2
  0
LINE
  5
   163
  8
0
  6
CONTINUOUS
 62
     7
 10
132.931379209418
 20
82.2805639580664
 30
0.0
 11
160.621406522931
 21
82.2805639580664
 31
0.0
  0
LINE
  5
   164
  8
0
  6
CONTINUOUS
 62
     7
 10
158.621406522931
 20
16.8305650726733
 30
0.0
 11
158.621406522931
 21
82.2805639580664
 31
0.0
  0
LINE
  5
   165
  8
0
  6
CONTINUOUS
 62
     7
 10
158.100462004931
 20
19.7849883343549
 30
0.0
 11
158.621406522931
 21
16.8305650726733
 31
0.0
  0
LINE
  5
   166
  8
0
  6
CONTINUOUS
 62
     7
 10
158.621406522931
 20
16.8305650726733
 30
0.0
 11
159.142351040932
 21
19.7849883343549
 31
0.0
  0
LINE
  5
   167
  8
0
  6
CONTINUOUS
 62
     7
 10
159.142351040932
 20
79.3261406963848
 30
0.0
 11
158.621406522931
 21
82.2805639580664
 31
0.0
  0
LINE
  5
   168
  8
0
  6
CONTINUOUS
 62
     7
 10
158.621406522931
 20
82.2805639580664
 30
0.0
 11
158.100462004931
 21
79.3261406963848
 31
0.0
  0
ENDBLK
  5
   169
  8
0
  6
CONTINUOUS
 62
     7
  0
BLOCK
  5
   16A
  8
0
  6
CONTINUOUS
 62
     7
  2
*UDIM1774
 70
    65
 10
0.0
 20
0.0
 30
0.0
  3
*UDIM1774
  0
TEXT
  5
   16B
  8
0
  6
CONTINUOUS
 62
     7
 10
157.621406518931
 20
93.2972317069579
 30
0.0
 40
2.4999999335834
  1
89,5
 50
89.9999999480344
 41
0.933333333333333
 72
     1
 11
156.37140655614
 21
97.7138982574207
 31
0.0
 73
     2
  0
LINE
  5
   16C
  8
0
  6
CONTINUOUS
 62
     7
 10
148.627996218205
 20
113.605563424605
 30
0.0
 11
160.621406522931
 21
113.605563424605
 31
0.0
  0
LINE
  5
   16D
  8
0
  6
CONTINUOUS
 62
     7
 10
158.621406522931
 20
82.2805639580664
 30
0.0
 11
158.621406522931
 21
113.605563424605
 31
0.0
  0
LINE
  5
   16E
  8
0
  6
CONTINUOUS
 62
     7
 10
158.100462004931
 20
85.234987219748
 30
0.0
 11
158.621406522931
 21
82.2805639580664
 31
0.0
  0
LINE
  5
   16F
  8
0
  6
CONTINUOUS
 62
     7
 10
158.621406522931
 20
82.2805639580664
 30
0.0
 11
159.142351040932
 21
85.234987219748
 31
0.0
  0
LINE
  5
   170
  8
0
  6
CONTINUOUS
 62
     7
 10
159.142351040932
 20
110.651140162923
 30
0.0
 11
158.621406522931
 21
113.605563424605
 31
0.0
  0
LINE
  5
   171
  8
0
  6
CONTINUOUS
 62
     7
 10
158.621406522931
 20
113.605563424605
 30
0.0
 11
158.100462004931
 21
110.651140162923
 31
0.0
  0
ENDBLK
  5
   172
  8
0
  6
CONTINUOUS
 62
     7
  0
BLOCK
  5
   173
  8
0
  6
CONTINUOUS
 62
     7
  2
*UDIM1775
 70
    65
 10
0.0
 20
0.0
 30
0.0
  3
*UDIM1775
  0
TEXT
  5
   174
  8
0
  6
CONTINUOUS
 62
     7
 10
124.552995696899
 20
5.10514853453634
 30
0.0
 40
2.4999999335834
  1
3
 50
359.999999948034
 41
0.933333333333333
 72
     1
 11
125.46966234034
 21
6.35514850050125
 31
0.0
 73
     2
  0
LINE
  5
   175
  8
0
  6
CONTINUOUS
 62
     7
 10
121.552996662259
 20
14.3078004383239
 30
0.0
 11
121.552996662259
 21
2.10514853370955
 31
0.0
  0
LINE
  5
   176
  8
0
  6
CONTINUOUS
 62
     7
 10
120.502996680141
 20
14.04388375611
 30
0.0
 11
120.502996680141
 21
2.10514853370955
 31
0.0
  0
LINE
  5
   177
  8
0
  6
CONTINUOUS
 62
     7
 10
126.386328982654
 20
4.10514853370955
 30
0.0
 11
120.502996680141
 21
4.10514853370955
 31
0.0
  0
LINE
  5
   178
  8
0
  6
CONTINUOUS
 62
     7
 10
124.507419923941
 20
4.62609305170989
 30
0.0
 11
121.552996662259
 21
4.10514853370955
 31
0.0
  0
LINE
  5
   179
  8
0
  6
CONTINUOUS
 62
     7
 10
121.552996662259
 20
4.10514853370955
 30
0.0
 11
124.507419923941
 21
3.58420401570921
 31
0.0
  0
LINE
  5
   17A
  8
0
  6
CONTINUOUS
 62
     7
 10
117.548573418459
 20
3.58420401570921
 30
0.0
 11
120.502996680141
 21
4.10514853370955
 31
0.0
  0
LINE
  5
   17B
  8
0
  6
CONTINUOUS
 62
     7
 10
120.502996680141
 20
4.10514853370955
 30
0.0
 11
117.548573418459
 21
4.62609305170989
 31
0.0
  0
ENDBLK
  5
   17C
  8
0
  6
CONTINUOUS
 62
     7
  0
BLOCK
  5
   17D
  8
0
  6
CONTINUOUS
 62
     7
  2
*UDIM1776
 70
    65
 10
0.0
 20
0.0
 30
0.0
  3
*UDIM1776
  0
TEXT
  5
   17E
  8
0
  6
CONTINUOUS
 62
     7
 10
112.765495451796
 20
5.10514853558861
 30
0.0
 40
2.4999999335834
  1
31
 50
359.999999948034
 41
0.933333333333333
 72
     1
 11
114.84882873091
 21
6.35514850050125
 31
0.0
 73
     2
  0
LINE
  5
   17F
  8
0
  6
CONTINUOUS
 62
     7
 10
109.652996864915
 20
8.83060124077111
 30
0.0
 11
109.652996864915
 21
2.10514853370955
 31
0.0
  0
LINE
  5
   180
  8
0
  6
CONTINUOUS
 62
     7
 10
120.502996680141
 20
4.10514853370955
 30
0.0
 11
109.652996864915
 21
4.10514853370955
 31
0.0
  0
LINE
  5
   181
  8
0
  6
CONTINUOUS
 62
     7
 10
117.548573418459
 20
3.58420401570921
 30
0.0
 11
120.502996680141
 21
4.10514853370955
 31
0.0
  0
LINE
  5
   182
  8
0
  6
CONTINUOUS
 62
     7
 10
120.502996680141
 20
4.10514853370955
 30
0.0
 11
117.548573418459
 21
4.62609305170989
 31
0.0
  0
LINE
  5
   183
  8
0
  6
CONTINUOUS
 62
     7
 10
112.607420126597
 20
4.62609305170989
 30
0.0
 11
109.652996864915
 21
4.10514853370955
 31
0.0
  0
LINE
  5
   184
  8
0
  6
CONTINUOUS
 62
     7
 10
109.652996864915
 20
4.10514853370955
 30
0.0
 11
112.607420126597
 21
3.58420401570921
 31
0.0
  0
ENDBLK
  5
   185
  8
0
  6
CONTINUOUS
 62
     7
  0
BLOCK
  5
   186
  8
0
  6
CONTINUOUS
 62
     7
  2
*UDIM1777
 70
    65
 10
0.0
 20
0.0
 30
0.0
  3
*UDIM1777
  0
TEXT
  5
   187
  8
0
  6
CONTINUOUS
 62
     7
 10
98.5488311054533
 20
5.10514853558861
 30
0.0
 40
2.4999999335834
  1
10
 50
359.999999948034
 41
0.933333333333333
 72
     1
 11
100.632164384567
 21
6.35514850050125
 31
0.0
 73
     2
  0
LINE
  5
   188
  8
0
  6
CONTINUOUS
 62
     7
 10
106.15299692452
 20
8.83060124077111
 30
0.0
 11
106.15299692452
 21
2.10514853370955
 31
0.0
  0
LINE
  5
   189
  8
0
  6
CONTINUOUS
 62
     7
 10
109.652996864915
 20
4.10514853370955
 30
0.0
 11
98.5488311065807
 21
4.10514853370955
 31
0.0
  0
LINE
  5
   18A
  8
0
  6
CONTINUOUS
 62
     7
 10
112.607420126597
 20
4.62609305170989
 30
0.0
 11
109.652996864915
 21
4.10514853370955
 31
0.0
  0
LINE
  5
   18B
  8
0
  6
CONTINUOUS
 62
     7
 10
109.652996864915
 20
4.10514853370955
 30
0.0
 11
112.607420126597
 21
3.58420401570921
 31
0.0
  0
LINE
  5
   18C
  8
0
  6
CONTINUOUS
 62
     7
 10
103.198573662838
 20
3.58420401570921
 30
0.0
 11
106.15299692452
 21
4.10514853370955
 31
0.0
  0
LINE
  5
   18D
  8
0
  6
CONTINUOUS
 62
     7
 10
106.15299692452
 20
4.10514853370955
 30
0.0
 11
103.198573662838
 21
4.62609305170989
 31
0.0
  0
ENDBLK
  5
   18E
  8
0
  6
CONTINUOUS
 62
     7
  0
BLOCK
  5
   18F
  8
0
  6
CONTINUOUS
 62
     7
  2
*UDIM1778
 70
    65
 10
0.0
 20
0.0
 30
0.0
  3
*UDIM1778
  0
TEXT
  5
   190
  8
0
  6
CONTINUOUS
 62
     7
 10
163.208076346722
 20
73.7263913965847
 30
0.0
 40
2.4999999335834
  1
295
 50
89.9999999480344
 41
0.933333333333333
 72
     1
 11
161.958076382874
 21
76.9763913113753
 31
0.0
 73
     2
  0
LINE
  5
   191
  8
0
  6
CONTINUOUS
 62
     7
 10
121.152996686102
 20
25.5805690805007
 30
0.0
 11
166.208076349666
 21
25.5805690805007
 31
0.0
  0
LINE
  5
   192
  8
0
  6
CONTINUOUS
 62
     7
 10
121.152996686106
 20
128.830550543398
 30
0.0
 11
166.208076349666
 21
128.830550543398
 31
0.0
  0
LINE
  5
   193
  8
0
  6
CONTINUOUS
 62
     7
 10
164.208076349666
 20
25.5805690805007
 30
0.0
 11
164.208076349666
 21
128.830550543398
 31
0.0
  0
LINE
  5
   194
  8
0
  6
CONTINUOUS
 62
     7
 10
163.687131831666
 20
28.5349923421823
 30
0.0
 11
164.208076349666
 21
25.5805690805007
 31
0.0
  0
LINE
  5
   195
  8
0
  6
CONTINUOUS
 62
     7
 10
164.208076349666
 20
25.5805690805007
 30
0.0
 11
164.729020867666
 21
28.5349923421823
 31
0.0
  0
LINE
  5
   196
  8
0
  6
CONTINUOUS
 62
     7
 10
164.729020867666
 20
125.876127281716
 30
0.0
 11
164.208076349666
 21
128.830550543398
 31
0.0
  0
LINE
  5
   197
  8
0
  6
CONTINUOUS
 62
     7
 10
164.208076349666
 20
128.830550543398
 30
0.0
 11
163.687131831666
 21
125.876127281716
 31
0.0
  0
ENDBLK
  5
   198
  8
0
  6
CONTINUOUS
 62
     7
  0
BLOCK
  5
   199
  8
0
  6
CONTINUOUS
 62
     7
  2
*UDIM1779
 70
    65
 10
0.0
 20
0.0
 30
0.0
  3
*UDIM1779
  0
TEXT
  5
   19A
  8
0
  6
CONTINUOUS
 62
     7
 10
150.578756798615
 20
50.4513997937108
 30
0.0
 40
2.4999999335834
  1
162
 50
89.9999999480344
 41
0.933333333333333
 72
     1
 11
149.328756834767
 21
53.7013997085014
 31
0.0
 73
     2
  0
LINE
  5
   19B
  8
0
  6
CONTINUOUS
 62
     7
 10
121.152996686102
 20
25.5805690805007
 30
0.0
 11
153.578756801559
 21
25.5805690805007
 31
0.0
  0
LINE
  5
   19C
  8
0
  6
CONTINUOUS
 62
     7
 10
132.931379209418
 20
82.2805639580664
 30
0.0
 11
153.578756801559
 21
82.2805639580664
 31
0.0
  0
LINE
  5
   19D
  8
0
  6
CONTINUOUS
 62
     7
 10
151.578756801559
 20
25.5805690805007
 30
0.0
 11
151.578756801559
 21
82.2805639580664
 31
0.0
  0
LINE
  5
   19E
  8
0
  6
CONTINUOUS
 62
     7
 10
151.057812283558
 20
28.5349923421823
 30
0.0
 11
151.578756801559
 21
25.5805690805007
 31
0.0
  0
LINE
  5
   19F
  8
0
  6
CONTINUOUS
 62
     7
 10
151.578756801559
 20
25.5805690805007
 30
0.0
 11
152.099701319559
 21
28.5349923421823
 31
0.0
  0
LINE
  5
   1A0
  8
0
  6
CONTINUOUS
 62
     7
 10
152.099701319559
 20
79.3261406963848
 30
0.0
 11
151.578756801559
 21
82.2805639580664
 31
0.0
  0
LINE
  5
   1A1
  8
0
  6
CONTINUOUS
 62
     7
 10
151.578756801559
 20
82.2805639580664
 30
0.0
 11
151.057812283558
 21
79.3261406963848
 31
0.0
  0
ENDBLK
  5
   1A2
  8
0
  6
CONTINUOUS
 62
     7
  0
BLOCK
  5
   1A3
  8
0
  6
CONTINUOUS
 62
     7
  2
*UDIM1780
 70
    65
 10
0.0
 20
0.0
 30
0.0
  3
*UDIM1780
  0
TEXT
  5
   1A4
  8
0
  6
CONTINUOUS
 62
     7
 10
70.508728982795
 20
74.280717993435
 30
0.0
 40
2.4999999335834
  1
5,5
 50
334.502457004493
 41
0.933333333333333
 72
     1
 11
73.9802815507429
 21
74.0099374111676
 31
0.0
 73
     2
  0
TEXT
  5
   1A5
  8
0
  6
CONTINUOUS
 62
     7
 10
68.1393941761387
 20
75.4107080033782
 30
0.0
 40
2.4999999335834
  1
Ø
 50
334.502457004493
 41
0.933333333333333
 72
     1
 11
69.5048713949189
 21
76.1443629734443
 31
0.0
 73
     2
  0
LINE
  5
   1A6
  8
0
  6
CONTINUOUS
 62
     7
 10
75.9451807818494
 20
70.5800437829425
 30
0.0
 11
61.1842349551583
 21
77.6198767812366
 31
0.0
  0
LINE
  5
   1A7
  8
0
  6
CONTINUOUS
 62
     7
 10
65.8126738250301
 20
75.9896258182736
 30
0.0
 11
62.9217480916012
 21
76.7912169882589
 31
0.0
  0
LINE
  5
   1A8
  8
0
  6
CONTINUOUS
 62
     7
 10
62.9217480916012
 20
76.7912169882589
 30
0.0
 11
65.3641693613868
 21
75.0492128720471
 31
0.0
  0
LINE
  5
   1A9
  8
0
  6
CONTINUOUS
 62
     7
 10
58.2933092217294
 20
78.4214679512219
 30
0.0
 11
61.1842349551583
 21
77.6198767812366
 31
0.0
  0
LINE
  5
   1AA
  8
0
  6
CONTINUOUS
 62
     7
 10
61.1842349551583
 20
77.6198767812366
 30
0.0
 11
58.7418136853727
 21
79.3618808974484
 31
0.0
  0
ENDBLK
  5
   1AB
  8
0
  6
CONTINUOUS
 62
     7
  0
BLOCK
  5
   1AC
  8
0
  6
CONTINUOUS
 62
     7
  2
*UDIM1781
 70
    65
 10
0.0
 20
0.0
 30
0.0
  3
*UDIM1781
  0
TEXT
  5
   1AD
  8
0
  6
CONTINUOUS
 62
     7
 10
87.798825845003
 20
179.052296376951
 30
0.0
 40
2.4999999335834
  1
167
 50
359.999999948034
 41
0.933333333333333
 72
     1
 11
91.0488257597889
 21
180.302296340811
 31
0.0
 73
     2
  0
LINE
  5
   1AE
  8
0
  6
CONTINUOUS
 62
     7
 10
120.502996680141
 20
174.336494448102
 30
0.0
 11
120.502996680141
 21
180.05229637402
 31
0.0
  0
LINE
  5
   1AF
  8
0
  6
CONTINUOUS
 62
     7
 10
62.0529916736917
 20
82.0555463369754
 30
0.0
 11
62.0529916736917
 21
180.05229637402
 31
0.0
  0
LINE
  5
   1B0
  8
0
  6
CONTINUOUS
 62
     7
 10
120.502996680141
 20
178.05229637402
 30
0.0
 11
62.0529916736917
 21
178.05229637402
 31
0.0
  0
LINE
  5
   1B1
  8
0
  6
CONTINUOUS
 62
     7
 10
117.548573418459
 20
177.531351856019
 30
0.0
 11
120.502996680141
 21
178.05229637402
 31
0.0
  0
LINE
  5
   1B2
  8
0
  6
CONTINUOUS
 62
     7
 10
120.502996680141
 20
178.05229637402
 30
0.0
 11
117.548573418459
 21
178.57324089202
 31
0.0
  0
LINE
  5
   1B3
  8
0
  6
CONTINUOUS
 62
     7
 10
65.0074149353733
 20
178.57324089202
 30
0.0
 11
62.0529916736917
 21
178.05229637402
 31
0.0
  0
LINE
  5
   1B4
  8
0
  6
CONTINUOUS
 62
     7
 10
62.0529916736917
 20
178.05229637402
 30
0.0
 11
65.0074149353733
 21
177.531351856019
 31
0.0
  0
ENDBLK
  5
   1B5
  8
0
  6
CONTINUOUS
 62
     7
  0
BLOCK
  5
   1B6
  8
0
  6
CONTINUOUS
 62
     7
  2
*UDIM1782
 70
    65
 10
0.0
 20
0.0
 30
0.0
  3
*UDIM1782
  0
TEXT
  5
   1B7
  8
0
  6
CONTINUOUS
 62
     7
 10
145.500376300382
 20
73.7263967347949
 30
0.0
 40
2.4999999335834
  1
145
 50
89.9999999480344
 41
0.933333333333333
 72
     1
 11
144.250376336534
 21
76.9763966495855
 31
0.0
 73
     2
  0
LINE
  5
   1B8
  8
0
  6
CONTINUOUS
 62
     7
 10
128.502996560931
 20
51.8305631414828
 30
0.0
 11
148.500376303326
 21
51.8305631414828
 31
0.0
  0
LINE
  5
   1B9
  8
0
  6
CONTINUOUS
 62
     7
 10
128.502996560931
 20
102.580562277215
 30
0.0
 11
148.500376303326
 21
102.580562277215
 31
0.0
  0
LINE
  5
   1BA
  8
0
  6
CONTINUOUS
 62
     7
 10
146.500376303326
 20
51.8305631414828
 30
0.0
 11
146.500376303326
 21
102.580562277215
 31
0.0
  0
LINE
  5
   1BB
  8
0
  6
CONTINUOUS
 62
     7
 10
145.979431785326
 20
54.7849864031644
 30
0.0
 11
146.500376303326
 21
51.8305631414828
 31
0.0
  0
LINE
  5
   1BC
  8
0
  6
CONTINUOUS
 62
     7
 10
146.500376303326
 20
51.8305631414828
 30
0.0
 11
147.021320821326
 21
54.7849864031644
 31
0.0
  0
LINE
  5
   1BD
  8
0
  6
CONTINUOUS
 62
     7
 10
147.021320821326
 20
99.6261390155338
 30
0.0
 11
146.500376303326
 21
102.580562277215
 31
0.0
  0
LINE
  5
   1BE
  8
0
  6
CONTINUOUS
 62
     7
 10
146.500376303326
 20
102.580562277215
 30
0.0
 11
145.979431785326
 21
99.6261390155338
 31
0.0
  0
ENDBLK
  5
   1BF
  8
0
  6
CONTINUOUS
 62
     7
  0
BLOCK
  5
   1C0
  8
0
  6
CONTINUOUS
 62
     7
  2
*UDIM1783
 70
    65
 10
0.0
 20
0.0
 30
0.0
  3
*UDIM1783
  0
TEXT
  5
   1C1
  8
0
  6
CONTINUOUS
 62
     7
 10
140.097128560204
 20
90.1180611293326
 30
0.0
 40
2.4999999335834
  1
58
 50
89.9999999480344
 41
0.933333333333333
 72
     1
 11
138.847128595299
 21
92.2013944084509
 31
0.0
 73
     2
  0
LINE
  5
   1C2
  8
0
  6
CONTINUOUS
 62
     7
 10
132.931379209418
 20
82.2805639580664
 30
0.0
 11
143.097128562091
 21
82.2805639580664
 31
0.0
  0
LINE
  5
   1C3
  8
0
  6
CONTINUOUS
 62
     7
 10
128.502996560931
 20
102.580562277215
 30
0.0
 11
143.097128562091
 21
102.580562277215
 31
0.0
  0
LINE
  5
   1C4
  8
0
  6
CONTINUOUS
 62
     7
 10
141.097128562091
 20
82.2805639580664
 30
0.0
 11
141.097128562091
 21
102.580562277215
 31
0.0
  0
LINE
  5
   1C5
  8
0
  6
CONTINUOUS
 62
     7
 10
140.57618404409
 20
85.234987219748
 30
0.0
 11
141.097128562091
 21
82.2805639580664
 31
0.0
  0
LINE
  5
   1C6
  8
0
  6
CONTINUOUS
 62
     7
 10
141.097128562091
 20
82.2805639580664
 30
0.0
 11
141.618073080091
 21
85.234987219748
 31
0.0
  0
LINE
  5
   1C7
  8
0
  6
CONTINUOUS
 62
     7
 10
141.618073080091
 20
99.6261390155338
 30
0.0
 11
141.097128562091
 21
102.580562277215
 31
0.0
  0
LINE
  5
   1C8
  8
0
  6
CONTINUOUS
 62
     7
 10
141.097128562091
 20
102.580562277215
 30
0.0
 11
140.57618404409
 21
99.6261390155338
 31
0.0
  0
ENDBLK
  5
   1C9
  8
0
  6
CONTINUOUS
 62
     7
  0
BLOCK
  5
   1CA
  8
0
  6
CONTINUOUS
 62
     7
  2
*UDIM1784
 70
    65
 10
0.0
 20
0.0
 30
0.0
  3
*UDIM1784
  0
TEXT
  5
   1CB
  8
0
  6
CONTINUOUS
 62
     7
 10
37.6764069594096
 20
89.2329673972408
 30
0.0
 40
2.4999999335834
  1
14,5
 50
89.9999999480344
 41
0.933333333333333
 72
     1
 11
36.4264069966181
 21
93.6496339477036
 31
0.0
 73
     2
  0
LINE
  5
   1CC
  8
0
  6
CONTINUOUS
 62
     7
 10
57.2029924753734
 20
77.2055471386571
 30
0.0
 11
36.6764069634098
 21
77.2055471386571
 31
0.0
  0
LINE
  5
   1CD
  8
0
  6
CONTINUOUS
 62
     7
 10
38.6764069634098
 20
77.2055471386571
 30
0.0
 11
38.6764069634098
 21
98.0663004970342
 31
0.0
  0
LINE
  5
   1CE
  8
0
  6
CONTINUOUS
 62
     7
 10
39.1973514814102
 20
74.2511238769755
 30
0.0
 11
38.6764069634098
 21
77.2055471386571
 31
0.0
  0
LINE
  5
   1CF
  8
0
  6
CONTINUOUS
 62
     7
 10
38.6764069634098
 20
77.2055471386571
 30
0.0
 11
38.1554624454095
 21
74.2511238769755
 31
0.0
  0
LINE
  5
   1D0
  8
0
  6
CONTINUOUS
 62
     7
 10
38.1554624454095
 20
85.234987219748
 30
0.0
 11
38.6764069634098
 21
82.2805639580664
 31
0.0
  0
LINE
  5
   1D1
  8
0
  6
CONTINUOUS
 62
     7
 10
38.6764069634098
 20
82.2805639580664
 30
0.0
 11
39.1973514814102
 21
85.234987219748
 31
0.0
  0
ENDBLK
  5
   1D2
  8
0
  6
CONTINUOUS
 62
     7
  0
BLOCK
  5
   1D3
  8
0
  6
CONTINUOUS
 62
     7
  2
*UDIM1785
 70
    65
 10
0.0
 20
0.0
 30
0.0
  3
*UDIM1785
  0
TEXT
  5
   1D4
  8
0
  6
CONTINUOUS
 62
     7
 10
31.762496004661
 20
78.8013966483682
 30
0.0
 40
2.4999999335834
  1
140
 50
89.9999999480344
 41
0.933333333333333
 72
     1
 11
30.5124960408129
 21
82.0513965631587
 31
0.0
 73
     2
  0
LINE
  5
   1D5
  8
0
  6
CONTINUOUS
 62
     7
 10
53.0030084937812
 20
57.7805643752989
 30
0.0
 11
30.7624960076046
 21
57.7805643752989
 31
0.0
  0
LINE
  5
   1D6
  8
0
  6
CONTINUOUS
 62
     7
 10
53.0030098289252
 20
106.78056220569
 30
0.0
 11
30.7624960076046
 21
106.78056220569
 31
0.0
  0
LINE
  5
   1D7
  8
0
  6
CONTINUOUS
 62
     7
 10
32.7624960076046
 20
57.7805643752989
 30
0.0
 11
32.7624960076046
 21
106.78056220569
 31
0.0
  0
LINE
  5
   1D8
  8
0
  6
CONTINUOUS
 62
     7
 10
32.2415514896042
 20
60.7349876369805
 30
0.0
 11
32.7624960076046
 21
57.7805643752989
 31
0.0
  0
LINE
  5
   1D9
  8
0
  6
CONTINUOUS
 62
     7
 10
32.7624960076046
 20
57.7805643752989
 30
0.0
 11
33.2834405256049
 21
60.7349876369805
 31
0.0
  0
LINE
  5
   1DA
  8
0
  6
CONTINUOUS
 62
     7
 10
33.2834405256049
 20
103.826138944008
 30
0.0
 11
32.7624960076046
 21
106.78056220569
 31
0.0
  0
LINE
  5
   1DB
  8
0
  6
CONTINUOUS
 62
     7
 10
32.7624960076046
 20
106.78056220569
 30
0.0
 11
32.2415514896042
 21
103.826138944008
 31
0.0
  0
ENDBLK
  5
   1DC
  8
0
  6
CONTINUOUS
 62
     7
  0
BLOCK
  5
   1DD
  8
0
  6
CONTINUOUS
 62
     0
  2
$1MOSTRA
 70
    64
 10
0.0
 20
0.0
 30
0.0
  3
$1MOSTRA
  0
LINE
  5
   1DE
  8
0
  6
CONTINUOUS
 62
     0
 10
131.0
 20
-24.0000152587891
 30
0.0
 11
131.0
 21
169.499984741211
 31
0.0
  0
LINE
  5
   1DF
  8
0
  6
CONTINUOUS
 62
     0
 10
-94.7500023146612
 20
-25.250020980835
 30
0.0
 11
129.75
 21
-25.250020980835
 31
0.0
  0
LINE
  5
   1E0
  8
0
  6
CONTINUOUS
 62
     0
 10
-96.0
 20
-24.000020980835
 30
0.0
 11
-96.0
 21
169.499979019165
 31
0.0
  0
LINE
  5
   1E1
  8
0
  6
CONTINUOUS
 62
     0
 10
-87.0
 20
170.749984741211
 30
0.0
 11
129.75
 21
170.749984741211
 31
0.0
  0
LINE
  5
   1E2
  8
0
  6
CONTINUOUS
 62
     0
 10
-94.7500138961029
 20
170.749984741211
 30
0.0
 11
-87.0
 21
170.749984741211
 31
0.0
  0
LINE
  5
   1E3
  8
0
  6
CONTINUOUS
 62
     0
 10
78.0
 20
-5.25002145767212
 30
0.0
 11
78.0
 21
-4.2500216960907
 31
0.0
  0
LINE
  5
   1E4
  8
0
  6
CONTINUOUS
 62
     0
 10
-87.0
 20
-5.25002145767211
 30
0.0
 11
-87.0
 21
-4.25002169609069
 31
0.0
  0
LINE
  5
   1E5
  8
0
  6
CONTINUOUS
 62
     0
 10
-86.0
 20
-5.25002145767211
 30
0.0
 11
77.0
 21
-5.25002145767212
 31
0.0
  0
LINE
  5
   1E6
  8
0
  6
CONTINUOUS
 62
     0
 10
78.0
 20
149.749984741211
 30
0.0
 11
78.0
 21
150.749984741211
 31
0.0
  0
LINE
  5
   1E7
  8
0
  6
CONTINUOUS
 62
     0
 10
-87.0
 20
149.749984741211
 30
0.0
 11
-87.0
 21
150.749984741211
 31
0.0
  0
LINE
  5
   1E8
  8
0
  6
CONTINUOUS
 62
     0
 10
-86.0
 20
-25.250020980835
 30
0.0
 11
-86.0
 21
-5.25002098083496
 31
0.0
  0
LINE
  5
   1E9
  8
0
  6
CONTINUOUS
 62
     0
 10
-87.0
 20
-25.250020980835
 30
0.0
 11
-87.0
 21
-5.25002098083496
 31
0.0
  0
LINE
  5
   1EA
  8
0
  6
CONTINUOUS
 62
     0
 10
-87.0
 20
-4.25002169609069
 30
0.0
 11
-87.0
 21
149.749978303909
 31
0.0
  0
LINE
  5
   1EB
  8
0
  6
CONTINUOUS
 62
     0
 10
-87.0
 20
150.749984741211
 30
0.0
 11
-87.0
 21
170.749984741211
 31
0.0
  0
LINE
  5
   1EC
  8
0
  6
CONTINUOUS
 62
     0
 10
78.0
 20
-25.250020980835
 30
0.0
 11
78.0
 21
-5.25002098083497
 31
0.0
  0
LINE
  5
   1ED
  8
0
  6
CONTINUOUS
 62
     0
 10
78.0
 20
-4.2500216960907
 30
0.0
 11
78.0
 21
22.6249783039093
 31
0.0
  0
LINE
  5
   1EE
  8
0
  6
CONTINUOUS
 62
     0
 10
78.0
 20
23.624979019165
 30
0.0
 11
78.0
 21
64.624979019165
 31
0.0
  0
LINE
  5
   1EF
  8
0
  6
CONTINUOUS
 62
     0
 10
78.0
 20
65.6249771118164
 30
0.0
 11
78.0
 21
149.749984741211
 31
0.0
  0
LINE
  5
   1F0
  8
0
  6
CONTINUOUS
 62
     0
 10
78.0
 20
150.749984741211
 30
0.0
 11
78.0
 21
170.749984741211
 31
0.0
  0
LINE
  5
   1F1
  8
0
  6
CONTINUOUS
 62
     0
 10
77.0
 20
-25.250020980835
 30
0.0
 11
77.0
 21
-5.25002098083497
 31
0.0
  0
LINE
  5
   1F2
  8
0
  6
CONTINUOUS
 62
     0
 10
112.0
 20
23.624979019165
 30
0.0
 11
112.0
 21
64.624979019165
 31
0.0
  0
LINE
  5
   1F3
  8
0
  6
CONTINUOUS
 62
     0
 10
-86.0
 20
150.749984741211
 30
0.0
 11
77.0
 21
150.749984741211
 31
0.0
  0
LINE
  5
   1F4
  8
0
  6
DOT
 62
     0
 10
78.0
 20
22.6249809265137
 30
0.0
 11
78.0
 21
23.6249809265137
 31
0.0
  0
LINE
  5
   1F5
  8
0
  6
DOT
 62
     0
 10
78.0
 20
64.6249847412109
 30
0.0
 11
78.0
 21
65.6249847412109
 31
0.0
  0
LINE
  5
   1F6
  8
0
  6
CONTINUOUS
 62
     0
 10
-95.2283575359481
 20
170.654833276614
 30
0.0
 11
-94.7500021275396
 21
170.749987082197
 31
0.0
  0
LINE
  5
   1F7
  8
0
  6
CONTINUOUS
 62
     0
 10
-95.6338828572815
 20
170.383870758251
 30
0.0
 11
-95.2283576589463
 21
170.654836342308
 31
0.0
  0
LINE
  5
   1F8
  8
0
  6
CONTINUOUS
 62
     0
 10
-95.9048442813714
 20
169.978321294716
 30
0.0
 11
-95.6338787006842
 21
170.38385412157
 31
0.0
  0
LINE
  5
   1F9
  8
0
  6
CONTINUOUS
 62
     0
 10
-96.0000009070014
 20
169.49998927381
 30
0.0
 11
-95.9048471000262
 21
169.978337054874
 31
0.0
  0
LINE
  5
   1FA
  8
0
  6
CONTINUOUS
 62
     0
 10
129.750003154688
 20
170.749986935154
 30
0.0
 11
130.228350935752
 21
170.654833128179
 31
0.0
  0
LINE
  5
   1FB
  8
0
  6
CONTINUOUS
 62
     0
 10
130.228341409222
 20
170.654823450862
 30
0.0
 11
130.633874236076
 21
170.383857870175
 31
0.0
  0
LINE
  5
   1FC
  8
0
  6
CONTINUOUS
 62
     0
 10
130.633876465973
 20
170.383854910394
 30
0.0
 11
130.90484204666
 21
169.97832208354
 31
0.0
  0
LINE
  5
   1FD
  8
0
  6
CONTINUOUS
 62
     0
 10
130.90484765696
 20
169.978336952213
 30
0.0
 11
131.000001463935
 21
169.499989171149
 31
0.0
  0
LINE
  5
   1FE
  8
0
  6
CONTINUOUS
 62
     0
 10
129.750001912704
 20
-25.2500209810903
 30
0.0
 11
130.228349689786
 21
-25.1548709896053
 31
0.0
  0
LINE
  5
   1FF
  8
0
  6
CONTINUOUS
 62
     0
 10
130.228338306514
 20
-25.1548722950462
 30
0.0
 11
130.633871133368
 21
-24.8839067143591
 31
0.0
  0
LINE
  5
   200
  8
0
  6
CONTINUOUS
 62
     0
 10
130.633879356188
 20
-24.8839055654524
 30
0.0
 11
130.904844938572
 21
-24.4783765528653
 31
0.0
  0
LINE
  5
   201
  8
0
  6
CONTINUOUS
 62
     0
 10
130.904848088874
 20
-24.4783766972257
 30
0.0
 11
131.000001894457
 21
-24.0000212888173
 31
0.0
  0
LINE
  5
   202
  8
0
  6
CONTINUOUS
 62
     0
 10
-95.2283572980338
 20
-25.1548710672825
 30
0.0
 11
-94.750001893597
 21
-25.2500210645891
 31
0.0
  0
LINE
  5
   203
  8
0
  6
CONTINUOUS
 62
     0
 10
-95.6338848795916
 20
-24.8839050834456
 30
0.0
 11
-95.2283596812563
 21
-25.1548706675021
 31
0.0
  0
LINE
  5
   204
  8
0
  6
CONTINUOUS
 62
     0
 10
-95.9048453281177
 20
-24.4783764153605
 30
0.0
 11
-95.6338797457343
 21
-24.8839054279476
 31
0.0
  0
LINE
  5
   205
  8
0
  6
CONTINUOUS
 62
     0
 10
-96.0000013278323
 20
-24.0000213932639
 30
0.0
 11
-95.9048475222492
 21
-24.4783768016722
 31
0.0
  0
LINE
  5
   206
  8
0
  6
CONTINUOUS
 62
     0
 10
71.0
 20
161.499984741211
 30
0.0
 11
71.5
 21
161.499984741211
 31
0.0
  0
LINE
  5
   207
  8
0
  6
CONTINUOUS
 62
     0
 10
70.6249985834239
 20
161.39948892087
 30
0.0
 11
70.9999985887286
 21
161.499983299907
 31
0.0
  0
LINE
  5
   208
  8
0
  6
CONTINUOUS
 62
     0
 10
70.3504841000321
 20
161.124991898345
 30
0.0
 11
70.6250049664647
 21
161.399497515692
 31
0.0
  0
LINE
  5
   209
  8
0
  6
CONTINUOUS
 62
     0
 10
70.2500005005121
 20
160.74998610992
 30
0.0
 11
70.3504796223163
 21
161.124986104743
 31
0.0
  0
LINE
  5
   20A
  8
0
  6
CONTINUOUS
 62
     0
 10
70.2500001717027
 20
160.749985945318
 30
0.0
 11
70.3504792935069
 21
160.374985950495
 31
0.0
  0
LINE
  5
   20B
  8
0
  6
CONTINUOUS
 62
     0
 10
70.3504785443499
 20
160.374981262897
 30
0.0
 11
70.6249994243228
 21
160.100460382924
 31
0.0
  0
LINE
  5
   20C
  8
0
  6
CONTINUOUS
 62
     0
 10
70.6250004494111
 20
160.100464493128
 30
0.0
 11
71.000000444234
 21
159.999985371324
 31
0.0
  0
LINE
  5
   20D
  8
0
  6
CONTINUOUS
 62
     0
 10
71.0
 20
159.999984741211
 30
0.0
 11
71.5
 21
159.999984741211
 31
0.0
  0
LINE
  5
   20E
  8
0
  6
CONTINUOUS
 62
     0
 10
-71.0000005237262
 20
159.999985364975
 30
0.0
 11
-70.6250005289034
 21
160.100464486779
 31
0.0
  0
LINE
  5
   20F
  8
0
  6
CONTINUOUS
 62
     0
 10
-70.6249991572831
 20
160.100460461707
 30
0.0
 11
-70.3504782773103
 21
160.37498134168
 31
0.0
  0
LINE
  5
   210
  8
0
  6
CONTINUOUS
 62
     0
 10
-70.3504793419514
 20
160.374985939145
 30
0.0
 11
-70.2500002201472
 21
160.749985933968
 31
0.0
  0
LINE
  5
   211
  8
0
  6
CONTINUOUS
 62
     0
 10
-70.3504796707608
 20
161.124986116093
 30
0.0
 11
-70.2500005489566
 21
160.74998612127
 31
0.0
  0
LINE
  5
   212
  8
0
  6
CONTINUOUS
 62
     0
 10
-70.625005364328
 20
161.399497643651
 30
0.0
 11
-70.3504844978953
 21
161.124992026304
 31
0.0
  0
LINE
  5
   213
  8
0
  6
CONTINUOUS
 62
     0
 10
-70.9999984404592
 20
161.499983275092
 30
0.0
 11
-70.6249984351544
 21
161.399488896056
 31
0.0
  0
LINE
  5
   214
  8
0
  6
CONTINUOUS
 62
     0
 10
-71.5
 20
161.499984741211
 30
0.0
 11
-71.0
 21
161.499984741211
 31
0.0
  0
LINE
  5
   215
  8
0
  6
CONTINUOUS
 62
     0
 10
-71.5
 20
159.999984741211
 30
0.0
 11
-71.0
 21
159.999984741211
 31
0.0
  0
LINE
  5
   216
  8
0
  6
DOT
 62
     0
 10
129.207102522664
 20
93.2070806462287
 30
0.0
 11
129.423868885951
 21
92.8826559114065
 31
0.0
  0
LINE
  5
   217
  8
0
  6
CONTINUOUS
 62
     0
 10
78.0
 20
64.6249771118164
 30
0.0
 11
112.0
 21
64.6249771118164
 31
0.0
  0
LINE
  5
   218
  8
0
  6
CONTINUOUS
 62
     0
 10
78.0
 20
23.624979019165
 30
0.0
 11
112.0
 21
23.624979019165
 31
0.0
  0
LINE
  5
   219
  8
0
  6
CONTINUOUS
 62
     0
 10
78.0
 20
22.624979019165
 30
0.0
 11
131.0
 21
22.624979019165
 31
0.0
  0
LINE
  5
   21A
  8
0
  6
CONTINUOUS
 62
     0
 10
113.0
 20
22.6249771118164
 30
0.0
 11
113.0
 21
65.6249771118164
 31
0.0
  0
LINE
  5
   21B
  8
0
  6
CONTINUOUS
 62
     0
 10
121.443762073863
 20
22.6249762341869
 30
0.0
 11
121.469671496571
 21
22.655306892856
 31
0.0
  0
LINE
  5
   21C
  8
0
  6
CONTINUOUS
 62
     0
 10
122.530331822982
 20
22.6553070669901
 30
0.0
 11
122.556233618116
 21
22.6249802236221
 31
0.0
  0
LINE
  5
   21D
  8
0
  6
CONTINUOUS
 62
     0
 10
77.0
 20
-4.2500216960907
 30
0.0
 11
77.0
 21
149.749978303909
 31
0.0
  0
LINE
  5
   21E
  8
0
  6
CONTINUOUS
 62
     0
 10
-86.0
 20
149.749984741211
 30
0.0
 11
77.0
 21
149.749984741211
 31
0.0
  0
LINE
  5
   21F
  8
0
  6
CONTINUOUS
 62
     0
 10
-86.0
 20
-4.25002169609069
 30
0.0
 11
77.0
 21
-4.2500216960907
 31
0.0
  0
LINE
  5
   220
  8
0
  6
CONTINUOUS
 62
     0
 10
-86.0
 20
-4.25002169609069
 30
0.0
 11
-86.0
 21
149.749978303909
 31
0.0
  0
LINE
  5
   221
  8
0
  6
CONTINUOUS
 62
     0
 10
70.0000086006236
 20
142.749981641769
 30
0.0
 11
77.0000047406314
 21
149.749991353068
 31
0.0
  0
LINE
  5
   222
  8
0
  6
CONTINUOUS
 62
     0
 10
70.0000002534282
 20
2.74998164176941
 30
0.0
 11
77.0000028943928
 21
-4.25002276936366
 31
0.0
  0
LINE
  5
   223
  8
0
  6
CONTINUOUS
 62
     0
 10
-86.0000010794079
 20
149.749986269664
 30
0.0
 11
-70.0
 21
142.220568727026
 31
0.0
  0
LINE
  5
   224
  8
0
  6
CONTINUOUS
 62
     0
 10
-86.0000042824209
 20
-4.25002269924179
 30
0.0
 11
-70.0
 21
3.27939166971828
 31
0.0
  0
LINE
  5
   225
  8
0
  6
CONTINUOUS
 62
     0
 10
71.5
 20
150.749984741211
 30
0.0
 11
71.5
 21
170.749984741211
 31
0.0
  0
LINE
  5
   226
  8
0
  6
CONTINUOUS
 62
     0
 10
77.0
 20
150.749984741211
 30
0.0
 11
77.0
 21
170.749984741211
 31
0.0
  0
LINE
  5
   227
  8
0
  6
CONTINUOUS
 62
     0
 10
-71.5
 20
150.749984741211
 30
0.0
 11
-71.5
 21
170.749984741211
 31
0.0
  0
LINE
  5
   228
  8
0
  6
CONTINUOUS
 62
     0
 10
-86.0
 20
150.749984741211
 30
0.0
 11
-86.0
 21
170.749984741211
 31
0.0
  0
LINE
  5
   229
  8
0
  6
CONTINUOUS
 62
     0
 10
78.0
 20
65.6249771118164
 30
0.0
 11
131.0
 21
65.6249771118164
 31
0.0
  0
POINT
  5
   22A
  8
0
  6
CONTINUOUS
 62
     0
 10
4.30031180087553E-6
 20
72.749980198372
 30
0.0
  0
ENDBLK
  5
   22B
  8
0
  6
CONTINUOUS
 62
     0
  0
BLOCK
  5
   22C
  8
0
  6
CONTINUOUS
 62
     7
  2
*UDIM1786
 70
    65
 10
0.0
 20
0.0
 30
0.0
  3
*UDIM1786
  0
TEXT
  5
   22D
  8
0
  6
CONTINUOUS
 62
     7
 10
229.501886202501
 20
4.62658218138586
 30
0.0
 40
2.4999999335834
  1
40
 41
0.933333333333333
 72
     1
 11
231.585219480488
 21
5.87658214817755
 31
0.0
 73
     2
  0
LINE
  5
   22E
  8
0
  6
CONTINUOUS
 62
     7
 10
224.814386306171
 20
8.83059055961894
 30
0.0
 11
224.814386306171
 21
1.62658218138586
 31
0.0
  0
LINE
  5
   22F
  8
0
  6
CONTINUOUS
 62
     7
 10
238.814386067752
 20
8.83059055961894
 30
0.0
 11
238.814386067752
 21
1.62658218138586
 31
0.0
  0
LINE
  5
   230
  8
0
  6
CONTINUOUS
 62
     7
 10
224.814386306171
 20
3.62658218138586
 30
0.0
 11
238.814386067752
 21
3.62658218138586
 31
0.0
  0
LINE
  5
   231
  8
0
  6
CONTINUOUS
 62
     7
 10
227.768809567853
 20
4.1475266993862
 30
0.0
 11
224.814386306171
 21
3.62658218138586
 31
0.0
  0
LINE
  5
   232
  8
0
  6
CONTINUOUS
 62
     7
 10
224.814386306171
 20
3.62658218138586
 30
0.0
 11
227.768809567853
 21
3.10563766338552
 31
0.0
  0
LINE
  5
   233
  8
0
  6
CONTINUOUS
 62
     7
 10
235.859962806071
 20
3.10563766338552
 30
0.0
 11
238.814386067752
 21
3.62658218138586
 31
0.0
  0
LINE
  5
   234
  8
0
  6
CONTINUOUS
 62
     7
 10
238.814386067752
 20
3.62658218138586
 30
0.0
 11
235.859962806071
 21
4.1475266993862
 31
0.0
  0
ENDBLK
  5
   235
  8
0
  6
CONTINUOUS
 62
     7
  0
BLOCK
  5
   236
  8
0
  6
CONTINUOUS
 62
     7
  2
*UDIM1787
 70
    65
 10
0.0
 20
0.0
 30
0.0
  3
*UDIM1787
  0
TEXT
  5
   237
  8
0
  6
CONTINUOUS
 62
     7
 10
228.33522021354
 20
186.108329579051
 30
0.0
 40
2.4999999335834
  1
210
 41
0.933333333333333
 72
     1
 11
231.585220127198
 21
187.358329545843
 31
0.0
 73
     2
  0
LINE
  5
   238
  8
0
  6
CONTINUOUS
 62
     7
 10
195.06438681281
 20
173.84303653389
 30
0.0
 11
195.06438681281
 21
187.108329579051
 31
0.0
  0
LINE
  5
   239
  8
0
  6
CONTINUOUS
 62
     7
 10
268.564385561113
 20
173.84303653389
 30
0.0
 11
268.564385561113
 21
187.108329579051
 31
0.0
  0
LINE
  5
   23A
  8
0
  6
CONTINUOUS
 62
     7
 10
195.06438681281
 20
185.108329579051
 30
0.0
 11
268.564385561113
 21
185.108329579051
 31
0.0
  0
LINE
  5
   23B
  8
0
  6
CONTINUOUS
 62
     7
 10
198.018810074492
 20
185.629274097052
 30
0.0
 11
195.06438681281
 21
185.108329579051
 31
0.0
  0
LINE
  5
   23C
  8
0
  6
CONTINUOUS
 62
     7
 10
195.06438681281
 20
185.108329579051
 30
0.0
 11
198.018810074492
 21
184.587385061051
 31
0.0
  0
LINE
  5
   23D
  8
0
  6
CONTINUOUS
 62
     7
 10
265.609962299431
 20
184.587385061051
 30
0.0
 11
268.564385561113
 21
185.108329579051
 31
0.0
  0
LINE
  5
   23E
  8
0
  6
CONTINUOUS
 62
     7
 10
268.564385561113
 20
185.108329579051
 30
0.0
 11
265.609962299431
 21
185.629274097052
 31
0.0
  0
ENDBLK
  5
   23F
  8
0
  6
CONTINUOUS
 62
     7
  0
BLOCK
  5
   240
  8
0
  6
CONTINUOUS
 62
     7
  2
*UDIM1788
 70
    65
 10
0.0
 20
0.0
 30
0.0
  3
*UDIM1788
  0
TEXT
  5
   241
  8
0
  6
CONTINUOUS
 62
     7
 10
204.389401934345
 20
-6.91463771484177
 30
0.0
 40
2.4999999335834
  1
123,5
 41
0.933333333333333
 72
     1
 11
209.972735119348
 21
-5.66463774805008
 31
0.0
 73
     2
  0
LINE
  5
   242
  8
0
  6
CONTINUOUS
 62
     7
 10
188.589426977406
 20
72.7054906711767
 30
0.0
 11
188.589426977406
 21
-9.91463771484177
 31
0.0
  0
LINE
  5
   243
  8
0
  6
CONTINUOUS
 62
     7
 10
231.814377300087
 20
13.9055700330503
 30
0.0
 11
231.814377300087
 21
-9.91463771484177
 31
0.0
  0
LINE
  5
   244
  8
0
  6
CONTINUOUS
 62
     7
 10
188.589426977406
 20
-7.91463771484177
 30
0.0
 11
231.814377300087
 21
-7.91463771484177
 31
0.0
  0
LINE
  5
   245
  8
0
  6
CONTINUOUS
 62
     7
 10
191.543850239088
 20
-7.39369319684144
 30
0.0
 11
188.589426977406
 21
-7.91463771484177
 31
0.0
  0
LINE
  5
   246
  8
0
  6
CONTINUOUS
 62
     7
 10
188.589426977406
 20
-7.91463771484177
 30
0.0
 11
191.543850239088
 21
-8.43558223284211
 31
0.0
  0
LINE
  5
   247
  8
0
  6
CONTINUOUS
 62
     7
 10
228.859954038405
 20
-8.43558223284211
 30
0.0
 11
231.814377300087
 21
-7.91463771484177
 31
0.0
  0
LINE
  5
   248
  8
0
  6
CONTINUOUS
 62
     7
 10
231.814377300087
 20
-7.91463771484177
 30
0.0
 11
228.859954038405
 21
-7.39369319684144
 31
0.0
  0
ENDBLK
  5
   249
  8
0
  6
CONTINUOUS
 62
     7
  0
BLOCK
  5
   24A
  8
0
  6
CONTINUOUS
 62
     7
  2
*UDIM1789
 70
    65
 10
0.0
 20
0.0
 30
0.0
  3
*UDIM1789
  0
TEXT
  5
   24B
  8
0
  6
CONTINUOUS
 62
     7
 10
249.889405164917
 20
-6.91463771484177
 30
0.0
 40
2.4999999335834
  1
136,5
 41
0.933333333333333
 72
     1
 11
255.47273834992
 21
-5.66463774805008
 31
0.0
 73
     2
  0
LINE
  5
   24C
  8
0
  6
CONTINUOUS
 62
     7
 10
279.589432103406
 20
72.7055467472255
 30
0.0
 11
279.589432103406
 21
-9.91463771484177
 31
0.0
  0
LINE
  5
   24D
  8
0
  6
CONTINUOUS
 62
     7
 10
231.814377300087
 20
-7.91463771484177
 30
0.0
 11
279.589432103406
 21
-7.91463771484177
 31
0.0
  0
LINE
  5
   24E
  8
0
  6
CONTINUOUS
 62
     7
 10
234.768800561769
 20
-7.39369319684144
 30
0.0
 11
231.814377300087
 21
-7.91463771484177
 31
0.0
  0
LINE
  5
   24F
  8
0
  6
CONTINUOUS
 62
     7
 10
231.814377300087
 20
-7.91463771484177
 30
0.0
 11
234.768800561769
 21
-8.43558223284211
 31
0.0
  0
LINE
  5
   250
  8
0
  6
CONTINUOUS
 62
     7
 10
276.635008841724
 20
-8.43558223284211
 30
0.0
 11
279.589432103406
 21
-7.91463771484177
 31
0.0
  0
LINE
  5
   251
  8
0
  6
CONTINUOUS
 62
     7
 10
279.589432103406
 20
-7.91463771484177
 30
0.0
 11
276.635008841724
 21
-7.39369319684144
 31
0.0
  0
ENDBLK
  5
   252
  8
0
  6
CONTINUOUS
 62
     7
  0
BLOCK
  5
   253
  8
0
  6
CONTINUOUS
 62
     7
  2
*UDIM1790
 70
    65
 10
0.0
 20
0.0
 30
0.0
  3
*UDIM1790
  0
TEXT
  5
   254
  8
0
  6
CONTINUOUS
 62
     7
 10
212.701881146581
 20
-0.85644575563424
 30
0.0
 40
2.4999999335834
  1
96
 41
0.933333333333333
 72
     1
 11
214.785214424567
 21
0.393554211157458
 31
0.0
 73
     2
  0
LINE
  5
   255
  8
0
  6
CONTINUOUS
 62
     7
 10
198.214385254057
 20
47.4180627868749
 30
0.0
 11
198.214385254057
 21
-3.85644575563424
 31
0.0
  0
LINE
  5
   256
  8
0
  6
CONTINUOUS
 62
     7
 10
231.814377300087
 20
13.9055700330503
 30
0.0
 11
231.814377300087
 21
-3.85644575563424
 31
0.0
  0
LINE
  5
   257
  8
0
  6
CONTINUOUS
 62
     7
 10
198.214385254057
 20
-1.85644575563424
 30
0.0
 11
231.814377300087
 21
-1.85644575563424
 31
0.0
  0
LINE
  5
   258
  8
0
  6
CONTINUOUS
 62
     7
 10
201.168808515739
 20
-1.3355012376339
 30
0.0
 11
198.214385254057
 21
-1.85644575563424
 31
0.0
  0
LINE
  5
   259
  8
0
  6
CONTINUOUS
 62
     7
 10
198.214385254057
 20
-1.85644575563424
 30
0.0
 11
201.168808515739
 21
-2.37739027363458
 31
0.0
  0
LINE
  5
   25A
  8
0
  6
CONTINUOUS
 62
     7
 10
228.859954038405
 20
-2.37739027363458
 30
0.0
 11
231.814377300087
 21
-1.85644575563424
 31
0.0
  0
LINE
  5
   25B
  8
0
  6
CONTINUOUS
 62
     7
 10
231.814377300087
 20
-1.85644575563424
 30
0.0
 11
228.859954038405
 21
-1.3355012376339
 31
0.0
  0
ENDBLK
  5
   25C
  8
0
  6
CONTINUOUS
 62
     7
  0
BLOCK
  5
   25D
  8
0
  6
CONTINUOUS
 62
     7
  2
*UDIM1791
 70
    65
 10
0.0
 20
0.0
 30
0.0
  3
*UDIM1791
  0
TEXT
  5
   25E
  8
0
  6
CONTINUOUS
 62
     7
 10
251.260213145962
 20
-0.85644575563424
 30
0.0
 40
2.4999999335834
  1
131
 41
0.933333333333333
 72
     1
 11
254.51021305962
 21
0.393554211157458
 31
0.0
 73
     2
  0
LINE
  5
   25F
  8
0
  6
CONTINUOUS
 62
     7
 10
277.664383901032
 20
47.4180647895909
 30
0.0
 11
277.664383901032
 21
-3.85644575563425
 31
0.0
  0
LINE
  5
   260
  8
0
  6
CONTINUOUS
 62
     7
 10
231.814377300087
 20
-1.85644575563424
 30
0.0
 11
277.664383901032
 21
-1.85644575563425
 31
0.0
  0
LINE
  5
   261
  8
0
  6
CONTINUOUS
 62
     7
 10
234.768800561769
 20
-1.3355012376339
 30
0.0
 11
231.814377300087
 21
-1.85644575563424
 31
0.0
  0
LINE
  5
   262
  8
0
  6
CONTINUOUS
 62
     7
 10
231.814377300087
 20
-1.85644575563424
 30
0.0
 11
234.768800561769
 21
-2.37739027363458
 31
0.0
  0
LINE
  5
   263
  8
0
  6
CONTINUOUS
 62
     7
 10
274.70996063935
 20
-2.37739027363458
 30
0.0
 11
277.664383901032
 21
-1.85644575563425
 31
0.0
  0
LINE
  5
   264
  8
0
  6
CONTINUOUS
 62
     7
 10
277.664383901032
 20
-1.85644575563425
 30
0.0
 11
274.70996063935
 21
-1.33550123763391
 31
0.0
  0
ENDBLK
  5
   265
  8
0
  6
CONTINUOUS
 62
     7
  0
BLOCK
  5
   266
  8
0
  6
CONTINUOUS
 62
     7
  2
*UDIM1792
 70
    65
 10
0.0
 20
0.0
 30
0.0
  3
*UDIM1792
  0
TEXT
  5
   267
  8
0
  6
CONTINUOUS
 62
     7
 10
228.335261603011
 20
180.638607687337
 30
0.0
 40
2.4999999335834
  1
140
 41
0.933333333333333
 72
     1
 11
231.585261516669
 21
181.888607654129
 31
0.0
 73
     2
  0
LINE
  5
   268
  8
0
  6
CONTINUOUS
 62
     7
 10
207.314427326094
 20
107.780563540834
 30
0.0
 11
207.314427326094
 21
181.638607687337
 31
0.0
  0
LINE
  5
   269
  8
0
  6
CONTINUOUS
 62
     7
 10
256.314427159201
 20
107.78056220569
 30
0.0
 11
256.314427159201
 21
181.638607687337
 31
0.0
  0
LINE
  5
   26A
  8
0
  6
CONTINUOUS
 62
     7
 10
207.314427326094
 20
179.638607687337
 30
0.0
 11
256.314427159201
 21
179.638607687337
 31
0.0
  0
LINE
  5
   26B
  8
0
  6
CONTINUOUS
 62
     7
 10
210.268850587775
 20
180.159552205337
 30
0.0
 11
207.314427326094
 21
179.638607687337
 31
0.0
  0
LINE
  5
   26C
  8
0
  6
CONTINUOUS
 62
     7
 10
207.314427326094
 20
179.638607687337
 30
0.0
 11
210.268850587775
 21
179.117663169337
 31
0.0
  0
LINE
  5
   26D
  8
0
  6
CONTINUOUS
 62
     7
 10
253.360003897519
 20
179.117663169337
 30
0.0
 11
256.314427159201
 21
179.638607687337
 31
0.0
  0
LINE
  5
   26E
  8
0
  6
CONTINUOUS
 62
     7
 10
256.314427159201
 20
179.638607687337
 30
0.0
 11
253.360003897519
 21
180.159552205337
 31
0.0
  0
ENDBLK
  5
   26F
  8
0
  6
CONTINUOUS
 62
     7
  0
BLOCK
  5
   270
  8
0
  6
CONTINUOUS
 62
     7
  2
*UDIM1793
 70
    65
 10
0.0
 20
0.0
 30
0.0
  3
*UDIM1793
  0
TEXT
  5
   271
  8
0
  6
CONTINUOUS
 62
     7
 10
169.687494184439
 20
97.8763802947557
 30
0.0
 40
2.4999999335834
  1
411
 50
90.0
 41
0.933333333333333
 72
     1
 11
168.437494217643
 21
101.126380208413
 31
0.0
 73
     2
  0
LINE
  5
   272
  8
0
  6
CONTINUOUS
 62
     7
 10
194.50188680536
 20
29.4305526720528
 30
0.0
 11
168.687494184435
 21
29.4305526720528
 31
0.0
  0
LINE
  5
   273
  8
0
  6
CONTINUOUS
 62
     7
 10
194.50188680536
 20
173.28053652644
 30
0.0
 11
168.687494184435
 21
173.28053652644
 31
0.0
  0
LINE
  5
   274
  8
0
  6
CONTINUOUS
 62
     7
 10
170.687494184435
 20
29.4305526720528
 30
0.0
 11
170.687494184435
 21
173.28053652644
 31
0.0
  0
LINE
  5
   275
  8
0
  6
CONTINUOUS
 62
     7
 10
170.166549666435
 20
32.3849759337344
 30
0.0
 11
170.687494184435
 21
29.4305526720528
 31
0.0
  0
LINE
  5
   276
  8
0
  6
CONTINUOUS
 62
     7
 10
170.687494184435
 20
29.4305526720528
 30
0.0
 11
171.208438702435
 21
32.3849759337344
 31
0.0
  0
LINE
  5
   277
  8
0
  6
CONTINUOUS
 62
     7
 10
171.208438702435
 20
170.326113264758
 30
0.0
 11
170.687494184435
 21
173.28053652644
 31
0.0
  0
LINE
  5
   278
  8
0
  6
CONTINUOUS
 62
     7
 10
170.687494184435
 20
173.28053652644
 30
0.0
 11
170.166549666435
 21
170.326113264758
 31
0.0
  0
ENDBLK
  5
   279
  8
0
  6
CONTINUOUS
 62
     7
  0
BLOCK
  5
   27A
  8
0
  6
CONTINUOUS
 62
     7
  2
*UDIM1794
 70
    65
 10
0.0
 20
0.0
 30
0.0
  3
*UDIM1794
  0
TEXT
  5
   27B
  8
0
  6
CONTINUOUS
 62
     7
 10
176.074350536243
 20
52.3763917575136
 30
0.0
 40
2.4999999335834
  1
151
 50
90.0
 41
0.933333333333333
 72
     1
 11
174.824350569447
 21
55.6263916711704
 31
0.0
 73
     2
  0
LINE
  5
   27C
  8
0
  6
CONTINUOUS
 62
     7
 10
194.50188680536
 20
29.4305526720528
 30
0.0
 11
175.074350536239
 21
29.4305526720528
 31
0.0
  0
LINE
  5
   27D
  8
0
  6
CONTINUOUS
 62
     7
 10
181.979402669683
 20
82.2805626229224
 30
0.0
 11
175.074350536239
 21
82.2805626229224
 31
0.0
  0
LINE
  5
   27E
  8
0
  6
CONTINUOUS
 62
     7
 10
177.074350536239
 20
29.4305526720528
 30
0.0
 11
177.074350536239
 21
82.2805626229224
 31
0.0
  0
LINE
  5
   27F
  8
0
  6
CONTINUOUS
 62
     7
 10
176.553406018239
 20
32.3849759337344
 30
0.0
 11
177.074350536239
 21
29.4305526720528
 31
0.0
  0
LINE
  5
   280
  8
0
  6
CONTINUOUS
 62
     7
 10
177.074350536239
 20
29.4305526720528
 30
0.0
 11
177.595295054239
 21
32.3849759337344
 31
0.0
  0
LINE
  5
   281
  8
0
  6
CONTINUOUS
 62
     7
 10
177.595295054239
 20
79.3261393612408
 30
0.0
 11
177.074350536239
 21
82.2805626229224
 31
0.0
  0
LINE
  5
   282
  8
0
  6
CONTINUOUS
 62
     7
 10
177.074350536239
 20
82.2805626229224
 30
0.0
 11
176.553406018239
 21
79.3261393612408
 31
0.0
  0
ENDBLK
  5
   283
  8
0
  6
CONTINUOUS
 62
     7
  0
BLOCK
  5
   284
  8
0
  6
CONTINUOUS
 62
     7
  2
*UDIM1795
 70
    65
 10
0.0
 20
0.0
 30
0.0
  3
*UDIM1795
  0
TEXT
  5
   285
  8
0
  6
CONTINUOUS
 62
     7
 10
182.276081158778
 20
78.8013966331504
 30
0.0
 40
2.4999999335834
  1
196
 50
90.0
 41
0.933333333333333
 72
     1
 11
181.026081191982
 21
82.0513965468072
 31
0.0
 73
     2
  0
LINE
  5
   286
  8
0
  6
CONTINUOUS
 62
     7
 10
197.651884436475
 20
47.9805627943255
 30
0.0
 11
181.276081158773
 21
47.9805627943255
 31
0.0
  0
LINE
  5
   287
  8
0
  6
CONTINUOUS
 62
     7
 10
200.364385200413
 20
116.580563628791
 30
0.0
 11
181.276081158773
 21
116.580563628791
 31
0.0
  0
LINE
  5
   288
  8
0
  6
CONTINUOUS
 62
     7
 10
183.276081158773
 20
47.9805627943255
 30
0.0
 11
183.276081158773
 21
116.580563628791
 31
0.0
  0
LINE
  5
   289
  8
0
  6
CONTINUOUS
 62
     7
 10
182.755136640773
 20
50.9349860560071
 30
0.0
 11
183.276081158773
 21
47.9805627943255
 31
0.0
  0
LINE
  5
   28A
  8
0
  6
CONTINUOUS
 62
     7
 10
183.276081158773
 20
47.9805627943255
 30
0.0
 11
183.797025676774
 21
50.9349860560071
 31
0.0
  0
LINE
  5
   28B
  8
0
  6
CONTINUOUS
 62
     7
 10
183.797025676774
 20
113.626140367109
 30
0.0
 11
183.276081158773
 21
116.580563628791
 31
0.0
  0
LINE
  5
   28C
  8
0
  6
CONTINUOUS
 62
     7
 10
183.276081158773
 20
116.580563628791
 30
0.0
 11
182.755136640773
 21
113.626140367109
 31
0.0
  0
ENDBLK
  5
   28D
  8
0
  6
CONTINUOUS
 62
     7
  0
BLOCK
  5
   28E
  8
0
  6
CONTINUOUS
 62
     7
  2
*UDIM1796
 70
    65
 10
0.0
 20
0.0
 30
0.0
  3
*UDIM1796
  0
TEXT
  5
   28F
  8
0
  6
CONTINUOUS
 62
     7
 10
266.763651419836
 20
14.5558660333119
 30
0.0
 40
2.4999999335834
  1
14
 50
342.353162155895
 41
0.933333333333333
 72
     1
 11
269.127885875558
 21
15.1154845663488
 31
0.0
 73
     2
  0
TEXT
  5
   290
  8
0
  6
CONTINUOUS
 62
     7
 10
264.262175627052
 20
15.3516321463896
 30
0.0
 40
2.4999999335834
  1
Ø
 50
342.353162155895
 41
0.933333333333333
 72
     1
 11
265.51464308108
 21
16.2649245019427
 31
0.0
 73
     2
  0
LINE
  5
   291
  8
0
  6
CONTINUOUS
 62
     7
 10
253.979678625893
 20
17.5733057345046
 30
0.0
 11
270.431098855665
 21
12.3398020689784
 31
0.0
  0
LINE
  5
   292
  8
0
  6
CONTINUOUS
 62
     7
 10
251.006357349437
 20
17.9725056680927
 30
0.0
 11
253.979678625893
 21
17.5733057345046
 31
0.0
  0
LINE
  5
   293
  8
0
  6
CONTINUOUS
 62
     7
 10
253.979678625893
 20
17.5733057345046
 30
0.0
 11
251.322204967547
 21
18.9653667084566
 31
0.0
  0
LINE
  5
   294
  8
0
  6
CONTINUOUS
 62
     7
 10
261.622417478957
 20
15.6886769648801
 30
0.0
 11
258.649096202502
 21
16.0878768984682
 31
0.0
  0
LINE
  5
   295
  8
0
  6
CONTINUOUS
 62
     7
 10
258.649096202502
 20
16.0878768984682
 30
0.0
 11
261.306569860847
 21
14.6958159245162
 31
0.0
  0
ENDBLK
  5
   296
  8
0
  6
CONTINUOUS
 62
     7
  0
BLOCK
  5
   297
  8
0
  6
CONTINUOUS
 62
     7
  2
*HATCH341
 70
    65
 10
0.0
 20
0.0
 30
0.0
  3
*HATCH341
  0
LINE
  5
   298
  8
0
  6
CONTINUOUS
 62
    52
 10
79.7483520507813
 20
-251.177612304688
 30
0.0
 11
72.7667999267578
 21
-258.1591796875
 31
0.0
  0
LINE
  5
   299
  8
0
  6
CONTINUOUS
 62
    52
 10
88.233642578125
 20
-251.177612304688
 30
0.0
 11
80.233642578125
 21
-259.177612304688
 31
0.0
  0
LINE
  5
   29A
  8
0
  6
CONTINUOUS
 62
    52
 10
96.7189331054688
 20
-251.177612304688
 30
0.0
 11
88.7189331054688
 21
-259.177612304688
 31
0.0
  0
LINE
  5
   29B
  8
0
  6
CONTINUOUS
 62
    52
 10
105.204223632812
 20
-251.177612304688
 30
0.0
 11
97.2042236328125
 21
-259.177612304688
 31
0.0
  0
LINE
  5
   29C
  8
0
  6
CONTINUOUS
 62
    52
 10
109.486633300781
 20
-255.380462646484
 30
0.0
 11
105.689491271973
 21
-259.177612304688
 31
0.0
  0
ENDBLK
  5
   29D
  8
0
  6
CONTINUOUS
 62
     7
  0
BLOCK
  5
   29E
  8
0
  6
CONTINUOUS
 62
     7
  2
*HATCH342
 70
    65
 10
0.0
 20
0.0
 30
0.0
  3
*HATCH342
  0
LINE
  5
   29F
  8
0
  6
CONTINUOUS
 62
    52
 10
143.387969970703
 20
-251.177612304688
 30
0.0
 11
135.387969970703
 21
-259.177612304688
 31
0.0
  0
LINE
  5
   2A0
  8
0
  6
CONTINUOUS
 62
    52
 10
151.873260498047
 20
-251.177612304688
 30
0.0
 11
143.873260498047
 21
-259.177612304688
 31
0.0
  0
LINE
  5
   2A1
  8
0
  6
CONTINUOUS
 62
    52
 10
158.672821044922
 20
-252.863327026367
 30
0.0
 11
152.358535766602
 21
-259.177612304688
 31
0.0
  0
ENDBLK
  5
   2A2
  8
0
  6
CONTINUOUS
 62
     7
  0
BLOCK
  5
   2A3
  8
0
  6
CONTINUOUS
 62
     7
  2
*UDIM1797
 70
    65
 10
0.0
 20
0.0
 30
0.0
  3
*UDIM1797
  0
TEXT
  5
   2A4
  8
0
  6
CONTINUOUS
 62
     7
 10
204.555958036673
 20
-90.5085760444713
 30
0.0
 40
2.99999994933605
  1
7
 50
348.201909227505
 41
0.933333333333333
 72
     1
 11
205.939414786465
 21
-89.2651745386861
 31
0.0
 73
     2
  0
TEXT
  5
   2A5
  8
0
  6
CONTINUOUS
 62
     7
 10
200.64046127427
 20
-89.6907223299826
 30
0.0
 40
2.99999994933605
  1
Ø
 50
348.201909227505
 41
1.2
 72
     1
 11
202.41546769845
 21
-88.5291061962582
 31
0.0
 73
     2
  0
LINE
  5
   2A6
  8
0
  6
CONTINUOUS
 62
     7
 10
200.435997846479
 20
-90.6695965378582
 30
0.0
 11
225.093959615392
 21
-95.8200555525871
 31
0.0
  0
LINE
  5
   2A7
  8
0
  6
CONTINUOUS
 62
     7
 10
215.833847986519
 20
-94.6790539461715
 30
0.0
 11
218.829164695422
 21
-94.511489590267
 31
0.0
  0
LINE
  5
   2A8
  8
0
  6
CONTINUOUS
 62
     7
 10
218.829164695422
 20
-94.511489590267
 30
0.0
 11
216.151362174887
 21
-93.158946185781
 31
0.0
  0
LINE
  5
   2A9
  8
0
  6
CONTINUOUS
 62
     7
 10
223.194905309022
 20
-94.6301740419524
 30
0.0
 11
220.199588600119
 21
-94.7977383978569
 31
0.0
  0
LINE
  5
   2AA
  8
0
  6
CONTINUOUS
 62
     7
 10
220.199588600119
 20
-94.7977383978569
 30
0.0
 11
222.877391120654
 21
-96.1502818023429
 31
0.0
  0
ENDBLK
  5
   2AB
  8
0
  6
CONTINUOUS
 62
     7
  0
BLOCK
  5
   2AC
  8
0
  6
CONTINUOUS
 62
     7
  2
*UDIM1798
 70
    65
 10
0.0
 20
0.0
 30
0.0
  3
*UDIM1798
  0
TEXT
  5
   2AD
  8
0
  6
CONTINUOUS
 62
     7
 10
262.111215280293
 20
-146.508152659953
 30
0.0
 40
2.99999994933605
  1
7
 50
298.566349316533
 41
0.933333333333333
 72
     1
 11
263.954604934574
 21
-146.756978835478
 31
0.0
 73
     2
  0
TEXT
  5
   2AE
  8
0
  6
CONTINUOUS
 62
     7
 10
260.198510805338
 20
-142.995096841128
 30
0.0
 40
2.99999994933605
  1
Ø
 50
298.566349316533
 41
1.2
 72
     1
 11
262.233170905448
 21
-143.59522859752
 31
0.0
 73
     2
  0
LINE
  5
   2AF
  8
0
  6
CONTINUOUS
 62
     7
 10
249.288773214377
 20
-125.048509907911
 30
0.0
 11
262.284938771226
 21
-148.918509481904
 31
0.0
  0
LINE
  5
   2B0
  8
0
  6
CONTINUOUS
 62
     7
 10
249.612071494804
 20
-127.266099475384
 30
0.0
 11
251.679653839547
 21
-129.439829736412
 31
0.0
  0
LINE
  5
   2B1
  8
0
  6
CONTINUOUS
 62
     7
 10
251.679653839547
 20
-129.439829736412
 30
0.0
 11
250.975940177589
 21
-126.523532926762
 31
0.0
  0
LINE
  5
   2B2
  8
0
  6
CONTINUOUS
 62
     7
 10
254.416682769313
 20
-132.843129567742
 30
0.0
 11
252.34910042457
 21
-130.669399306714
 31
0.0
  0
LINE
  5
   2B3
  8
0
  6
CONTINUOUS
 62
     7
 10
252.34910042457
 20
-130.669399306714
 30
0.0
 11
253.052814086528
 21
-133.585696116364
 31
0.0
  0
ENDBLK
  5
   2B4
  8
0
  6
CONTINUOUS
 62
     7
  0
BLOCK
  5
   2B5
  8
0
  6
CONTINUOUS
 62
     7
  2
*UDIM1799
 70
    65
 10
0.0
 20
0.0
 30
0.0
  3
*UDIM1799
  0
TEXT
  5
   2B6
  8
0
  6
CONTINUOUS
 62
     7
 10
256.834212852894
 20
-87.8209024529353
 30
0.0
 40
2.50000001341104
  1
8
 50
407.936580148673
 41
0.933333333333333
 72
     1
 11
256.520331576309
 21
-86.3029247364433
 31
0.0
 73
     2
  0
TEXT
  5
   2B7
  8
0
  6
CONTINUOUS
 62
     7
 10
255.075586810998
 20
-89.7697122437319
 30
0.0
 40
2.50000001341104
  1
Ø
 50
407.936580148673
 41
0.933333333333333
 72
     1
 11
254.761705534413
 21
-88.2517345272399
 31
0.0
 73
     2
  0
TEXT
  5
   2B8
  8
0
  6
CONTINUOUS
 62
     7
 10
258.369521261612
 20
-86.1195605839257
 30
0.0
 40
2.50000001341104
  1
(5 fori)
 50
407.936580148673
 41
0.933333333333333
 72
     1
 11
263.526920988163
 21
-78.5386191247807
 31
0.0
 73
     2
  0
LINE
  5
   2B9
  8
0
  6
CONTINUOUS
 62
     7
 10
271.28273372908
 20
-73.3025123566127
 30
0.0
 11
251.478414907844
 21
-95.2485369800535
 31
0.0
  0
LINE
  5
   2BA
  8
0
  6
CONTINUOUS
 62
     7
 10
254.142912256208
 20
-91.5183079609297
 30
0.0
 11
252.550339356272
 21
-94.0606910080704
 31
0.0
  0
LINE
  5
   2BB
  8
0
  6
CONTINUOUS
 62
     7
 10
252.550339356272
 20
-94.0606910080704
 30
0.0
 11
254.916414553849
 21
-92.2163244069274
 31
0.0
  0
LINE
  5
   2BC
  8
0
  6
CONTINUOUS
 62
     7
 10
249.885842007908
 20
-97.7909200271942
 30
0.0
 11
251.478414907844
 21
-95.2485369800535
 31
0.0
  0
LINE
  5
   2BD
  8
0
  6
CONTINUOUS
 62
     7
 10
251.478414907844
 20
-95.2485369800535
 30
0.0
 11
249.112339710267
 21
-97.0929035811966
 31
0.0
  0
ENDBLK
  5
   2BE
  8
0
  6
CONTINUOUS
 62
     7
  0
BLOCK
  5
   2BF
  8
0
  6
CONTINUOUS
 62
     7
  2
*UDIM1800
 70
    65
 10
0.0
 20
0.0
 30
0.0
  3
*UDIM1800
  0
TEXT
  5
   2C0
  8
0
  6
CONTINUOUS
 62
     7
 10
166.197408089094
 20
-143.293343543506
 30
0.0
 40
2.50000001341104
  1
Ø4
 50
449.999999844103
 41
0.933333333333333
 72
     1
 11
164.947408088044
 21
-141.210010195604
 31
0.0
 73
     2
  0
LINE
  5
   2C1
  8
0
  6
CONTINUOUS
 62
     7
 10
178.626130263094
 20
-134.889178802588
 30
0.0
 11
165.197408094749
 21
-134.889178802588
 31
0.0
  0
LINE
  5
   2C2
  8
0
  6
CONTINUOUS
 62
     7
 10
178.656308077461
 20
-138.089178850272
 30
0.0
 11
165.197408094749
 21
-138.089178850272
 31
0.0
  0
LINE
  5
   2C3
  8
0
  6
CONTINUOUS
 62
     7
 10
167.197408094749
 20
-134.889178802588
 30
0.0
 11
167.197408094749
 21
-143.293343540113
 31
0.0
  0
LINE
  5
   2C4
  8
0
  6
CONTINUOUS
 62
     7
 10
166.676463576749
 20
-131.934755540906
 30
0.0
 11
167.197408094749
 21
-134.889178802588
 31
0.0
  0
LINE
  5
   2C5
  8
0
  6
CONTINUOUS
 62
     7
 10
167.197408094749
 20
-134.889178802588
 30
0.0
 11
167.71835261275
 21
-131.934755540906
 31
0.0
  0
LINE
  5
   2C6
  8
0
  6
CONTINUOUS
 62
     7
 10
167.71835261275
 20
-141.043602111953
 30
0.0
 11
167.197408094749
 21
-138.089178850272
 31
0.0
  0
LINE
  5
   2C7
  8
0
  6
CONTINUOUS
 62
     7
 10
167.197408094749
 20
-138.089178850272
 30
0.0
 11
166.676463576749
 21
-141.043602111953
 31
0.0
  0
ENDBLK
  5
   2C8
  8
0
  6
CONTINUOUS
 62
     7
  0
BLOCK
  5
   2C9
  8
0
  6
CONTINUOUS
 62
     7
  2
*UDIM1801
 70
    65
 10
0.0
 20
0.0
 30
0.0
  3
*UDIM1801
  0
TEXT
  5
   2CA
  8
0
  6
CONTINUOUS
 62
     7
 10
194.510338829552
 20
-139.73677963072
 30
0.0
 40
2.50000001341104
  1
80
 50
449.138233404105
 41
0.933333333333333
 72
     1
 11
193.291813745082
 21
-137.634881807412
 31
0.0
 73
     2
  0
TEXT
  5
   2CB
  8
0
  6
CONTINUOUS
 62
     7
 10
194.073062436615
 20
-135.563064180152
 30
0.0
 40
2.50000001341104
  1
°
 50
449.138233404105
 41
0.933333333333333
 72
     1
 11
192.836990571757
 21
-134.627701069664
 31
0.0
 73
     2
  0
LINE
  5
   2CC
  8
0
  6
CONTINUOUS
 62
     7
 10
182.344898064669
 20
-140.074525889848
 30
0.0
 11
192.998635166299
 21
-149.014072762486
 31
0.0
  0
LINE
  5
   2CD
  8
0
  6
CONTINUOUS
 62
     7
 10
182.344898064669
 20
-132.903831763012
 30
0.0
 11
192.998635166299
 21
-123.964284890374
 31
0.0
  0
ARC
  5
   2CE
  8
0
  6
CONTINUOUS
 62
     7
 10
178.072047821143
 20
-136.48917882643
 30
0.0
 40
17.4852759252214
 50
319.999999815233
 51
399.999999769042
  0
LINE
  5
   2CF
  8
0
  6
CONTINUOUS
 62
     7
 10
192.966546293252
 20
-145.130421339375
 30
0.0
 11
191.466546280061
 21
-147.728497543113
 31
0.0
  0
LINE
  5
   2D0
  8
0
  6
CONTINUOUS
 62
     7
 10
191.466546280061
 20
-147.728497543113
 30
0.0
 11
193.764679599627
 21
-145.800134702385
 31
0.0
  0
LINE
  5
   2D1
  8
0
  6
CONTINUOUS
 62
     7
 10
193.764679599627
 20
-127.178222950475
 30
0.0
 11
191.466546280061
 21
-125.249860109747
 31
0.0
  0
LINE
  5
   2D2
  8
0
  6
CONTINUOUS
 62
     7
 10
191.466546280061
 20
-125.249860109747
 30
0.0
 11
192.966546293252
 21
-127.847936313485
 31
0.0
  0
ENDBLK
  5
   2D3
  8
0
  6
CONTINUOUS
 62
     7
  0
BLOCK
  5
   2D4
  8
0
  6
CONTINUOUS
 62
     7
  2
*UDIM1802
 70
    65
 10
0.0
 20
0.0
 30
0.0
  3
*UDIM1802
  0
TEXT
  5
   2D5
  8
0
  6
CONTINUOUS
 62
     7
 10
244.164385883245
 20
-158.402802186907
 30
0.0
 40
2.50000001341104
  1
R min.200
 50
359.999999844103
 41
0.933333333333333
 72
     1
 11
254.414385941625
 21
-157.152802208039
 31
0.0
 73
     2
  0
LINE
  5
   2D6
  8
0
  6
CONTINUOUS
 62
     7
 10
271.814377427101
 20
-156.513492347943
 30
0.0
 11
271.814377427101
 21
-161.402802214745
 31
0.0
  0
LINE
  5
   2D7
  8
0
  6
CONTINUOUS
 62
     7
 10
231.814376831055
 20
-159.402802214745
 30
0.0
 11
271.814377427101
 21
-159.402802214745
 31
0.0
  0
LINE
  5
   2D8
  8
0
  6
CONTINUOUS
 62
     7
 10
234.768800092736
 20
-158.881857696744
 30
0.0
 11
231.814376831055
 21
-159.402802214745
 31
0.0
  0
LINE
  5
   2D9
  8
0
  6
CONTINUOUS
 62
     7
 10
231.814376831055
 20
-159.402802214745
 30
0.0
 11
234.768800092736
 21
-159.923746732745
 31
0.0
  0
LINE
  5
   2DA
  8
0
  6
CONTINUOUS
 62
     7
 10
268.85995416542
 20
-159.923746732745
 30
0.0
 11
271.814377427101
 21
-159.402802214745
 31
0.0
  0
LINE
  5
   2DB
  8
0
  6
CONTINUOUS
 62
     7
 10
271.814377427101
 20
-159.402802214745
 30
0.0
 11
268.85995416542
 21
-158.881857696744
 31
0.0
  0
ENDBLK
  5
   2DC
  8
0
  6
CONTINUOUS
 62
     7
  0
BLOCK
  5
   2DD
  8
0
  6
CONTINUOUS
 62
     7
  2
*UDIM1803
 70
    65
 10
0.0
 20
0.0
 30
0.0
  3
*UDIM1803
  0
TEXT
  5
   2DE
  8
0
  6
CONTINUOUS
 62
     7
 10
202.596667054337
 20
-105.667114054266
 30
0.0
 40
2.50000001341104
  1
90
 50
449.999999844103
 41
0.933333333333333
 72
     1
 11
201.346667053287
 21
-103.583780706363
 31
0.0
 73
     2
  0
LINE
  5
   2DF
  8
0
  6
CONTINUOUS
 62
     7
 10
228.928376802951
 20
-94.3546139895916
 30
0.0
 11
201.596667059992
 21
-94.3546139895916
 31
0.0
  0
LINE
  5
   2E0
  8
0
  6
CONTINUOUS
 62
     7
 10
206.969556723311
 20
-112.354614257813
 30
0.0
 11
201.596667059992
 21
-112.354614257813
 31
0.0
  0
LINE
  5
   2E1
  8
0
  6
CONTINUOUS
 62
     7
 10
203.596667059992
 20
-94.3546139895916
 30
0.0
 11
203.596667059992
 21
-112.354614257813
 31
0.0
  0
LINE
  5
   2E2
  8
0
  6
CONTINUOUS
 62
     7
 10
204.117611577992
 20
-97.3090372512732
 30
0.0
 11
203.596667059992
 21
-94.3546139895916
 31
0.0
  0
LINE
  5
   2E3
  8
0
  6
CONTINUOUS
 62
     7
 10
203.596667059992
 20
-94.3546139895916
 30
0.0
 11
203.075722541992
 21
-97.3090372512732
 31
0.0
  0
LINE
  5
   2E4
  8
0
  6
CONTINUOUS
 62
     7
 10
203.075722541992
 20
-109.400190996131
 30
0.0
 11
203.596667059992
 21
-112.354614257813
 31
0.0
  0
LINE
  5
   2E5
  8
0
  6
CONTINUOUS
 62
     7
 10
203.596667059992
 20
-112.354614257813
 30
0.0
 11
204.117611577992
 21
-109.400190996131
 31
0.0
  0
ENDBLK
  5
   2E6
  8
0
  6
CONTINUOUS
 62
     7
  0
BLOCK
  5
   2E7
  8
0
  6
CONTINUOUS
 62
     7
  2
*UDIM1804
 70
    65
 10
0.0
 20
0.0
 30
0.0
  3
*UDIM1804
  0
TEXT
  5
   2E8
  8
0
  6
CONTINUOUS
 62
     7
 10
207.599807384511
 20
-115.833781218929
 30
0.0
 40
2.50000001341104
  1
161
 50
449.999999844103
 41
0.933333333333333
 72
     1
 11
206.349807386628
 21
-112.583781198102
 31
0.0
 73
     2
  0
LINE
  5
   2E9
  8
0
  6
CONTINUOUS
 62
     7
 10
212.914376564324
 20
-96.2546140179038
 30
0.0
 11
206.599807393334
 21
-96.2546140179038
 31
0.0
  0
LINE
  5
   2EA
  8
0
  6
CONTINUOUS
 62
     7
 10
212.914376564324
 20
-128.454614497721
 30
0.0
 11
206.599807393334
 21
-128.454614497721
 31
0.0
  0
LINE
  5
   2EB
  8
0
  6
CONTINUOUS
 62
     7
 10
208.599807393334
 20
-96.2546140179038
 30
0.0
 11
208.599807393334
 21
-128.454614497721
 31
0.0
  0
LINE
  5
   2EC
  8
0
  6
CONTINUOUS
 62
     7
 10
209.120751911334
 20
-99.2090372795854
 30
0.0
 11
208.599807393334
 21
-96.2546140179038
 31
0.0
  0
LINE
  5
   2ED
  8
0
  6
CONTINUOUS
 62
     7
 10
208.599807393334
 20
-96.2546140179038
 30
0.0
 11
208.078862875333
 21
-99.2090372795854
 31
0.0
  0
LINE
  5
   2EE
  8
0
  6
CONTINUOUS
 62
     7
 10
208.078862875333
 20
-125.50019123604
 30
0.0
 11
208.599807393334
 21
-128.454614497721
 31
0.0
  0
LINE
  5
   2EF
  8
0
  6
CONTINUOUS
 62
     7
 10
208.599807393334
 20
-128.454614497721
 30
0.0
 11
209.120751911334
 21
-125.50019123604
 31
0.0
  0
ENDBLK
  5
   2F0
  8
0
  6
CONTINUOUS
 62
     7
  0
BLOCK
  5
   2F1
  8
0
  6
CONTINUOUS
 62
     7
  2
*UDIM1805
 70
    65
 10
0.0
 20
0.0
 30
0.0
  3
*UDIM1805
  0
TEXT
  5
   2F2
  8
0
  6
CONTINUOUS
 62
     7
 10
264.322629274669
 20
-115.833781218929
 30
0.0
 40
2.50000001341104
  1
177
 50
449.999999844103
 41
0.933333333333333
 72
     1
 11
263.072629276786
 21
-112.583781198102
 31
0.0
 73
     2
  0
LINE
  5
   2F3
  8
0
  6
CONTINUOUS
 62
     7
 10
254.31437715143
 20
-94.6546139940619
 30
0.0
 11
267.322629283492
 21
-94.6546139940619
 31
0.0
  0
LINE
  5
   2F4
  8
0
  6
CONTINUOUS
 62
     7
 10
254.31437715143
 20
-130.054614521563
 30
0.0
 11
267.322629283492
 21
-130.054614521563
 31
0.0
  0
LINE
  5
   2F5
  8
0
  6
CONTINUOUS
 62
     7
 10
265.322629283492
 20
-94.6546139940619
 30
0.0
 11
265.322629283492
 21
-130.054614521563
 31
0.0
  0
LINE
  5
   2F6
  8
0
  6
CONTINUOUS
 62
     7
 10
265.843573801492
 20
-97.6090372557436
 30
0.0
 11
265.322629283492
 21
-94.6546139940619
 31
0.0
  0
LINE
  5
   2F7
  8
0
  6
CONTINUOUS
 62
     7
 10
265.322629283492
 20
-94.6546139940619
 30
0.0
 11
264.801684765491
 21
-97.6090372557436
 31
0.0
  0
LINE
  5
   2F8
  8
0
  6
CONTINUOUS
 62
     7
 10
264.801684765491
 20
-127.100191259881
 30
0.0
 11
265.322629283492
 21
-130.054614521563
 31
0.0
  0
LINE
  5
   2F9
  8
0
  6
CONTINUOUS
 62
     7
 10
265.322629283492
 20
-130.054614521563
 30
0.0
 11
265.843573801492
 21
-127.100191259881
 31
0.0
  0
ENDBLK
  5
   2FA
  8
0
  6
CONTINUOUS
 62
     7
  0
BLOCK
  5
   2FB
  8
0
  6
CONTINUOUS
 62
     7
  2
*UDIM1806
 70
    65
 10
0.0
 20
0.0
 30
0.0
  3
*UDIM1806
  0
TEXT
  5
   2FC
  8
0
  6
CONTINUOUS
 62
     7
 10
239.761105477508
 20
-109.354614462073
 30
0.0
 40
2.50000001341104
  1
9
 50
449.999999844103
 41
0.933333333333333
 72
     1
 11
238.511105473291
 21
-108.437947787096
 31
0.0
 73
     2
  0
LINE
  5
   2FD
  8
0
  6
CONTINUOUS
 62
     7
 10
255.014377191663
 20
-114.154614284635
 30
0.0
 11
238.761105479996
 21
-114.154614284635
 31
0.0
  0
LINE
  5
   2FE
  8
0
  6
CONTINUOUS
 62
     7
 10
240.761105479996
 20
-107.521281115512
 30
0.0
 11
240.761105479996
 21
-114.154614284635
 31
0.0
  0
LINE
  5
   2FF
  8
0
  6
CONTINUOUS
 62
     7
 10
240.240160961996
 20
-109.400190996131
 30
0.0
 11
240.761105479996
 21
-112.354614257813
 31
0.0
  0
LINE
  5
   300
  8
0
  6
CONTINUOUS
 62
     7
 10
240.761105479996
 20
-112.354614257813
 30
0.0
 11
241.282049997997
 21
-109.400190996131
 31
0.0
  0
LINE
  5
   301
  8
0
  6
CONTINUOUS
 62
     7
 10
241.282049997997
 20
-117.109037546316
 30
0.0
 11
240.761105479996
 21
-114.154614284635
 31
0.0
  0
LINE
  5
   302
  8
0
  6
CONTINUOUS
 62
     7
 10
240.761105479996
 20
-114.154614284635
 30
0.0
 11
240.240160961996
 21
-117.109037546316
 31
0.0
  0
ENDBLK
  5
   303
  8
0
  6
CONTINUOUS
 62
     7
  0
BLOCK
  5
   304
  8
0
  6
CONTINUOUS
 62
     7
  2
*UDIM1807
 70
    65
 10
0.0
 20
0.0
 30
0.0
  3
*UDIM1807
  0
TEXT
  5
   305
  8
0
  6
CONTINUOUS
 62
     7
 10
239.761105474341
 20
-120.525861376509
 30
0.0
 40
2.50000001341104
  1
39
 50
449.999999844103
 41
0.933333333333333
 72
     1
 11
238.511105473291
 21
-118.442528028606
 31
0.0
 73
     2
  0
LINE
  5
   306
  8
0
  6
CONTINUOUS
 62
     7
 10
255.014377191663
 20
-121.954614400864
 30
0.0
 11
238.761105479996
 21
-121.954614400864
 31
0.0
  0
LINE
  5
   307
  8
0
  6
CONTINUOUS
 62
     7
 10
240.761105479996
 20
-114.154614284635
 30
0.0
 11
240.761105479996
 21
-121.954614400864
 31
0.0
  0
LINE
  5
   308
  8
0
  6
CONTINUOUS
 62
     7
 10
240.240160961996
 20
-111.200191022953
 30
0.0
 11
240.761105479996
 21
-114.154614284635
 31
0.0
  0
LINE
  5
   309
  8
0
  6
CONTINUOUS
 62
     7
 10
240.761105479996
 20
-114.154614284635
 30
0.0
 11
241.282049997997
 21
-111.200191022953
 31
0.0
  0
LINE
  5
   30A
  8
0
  6
CONTINUOUS
 62
     7
 10
241.282049997997
 20
-124.909037662545
 30
0.0
 11
240.761105479996
 21
-121.954614400864
 31
0.0
  0
LINE
  5
   30B
  8
0
  6
CONTINUOUS
 62
     7
 10
240.761105479996
 20
-121.954614400864
 30
0.0
 11
240.240160961996
 21
-124.909037662545
 31
0.0
  0
ENDBLK
  5
   30C
  8
0
  6
CONTINUOUS
 62
     7
  0
BLOCK
  5
   30D
  8
0
  6
CONTINUOUS
 62
     7
  2
*UDIM1808
 70
    65
 10
0.0
 20
0.0
 30
0.0
  3
*UDIM1808
  0
TEXT
  5
   30E
  8
0
  6
CONTINUOUS
 62
     7
 10
240.43521005024
 20
-151.576511210644
 30
0.0
 40
2.50000001341104
  1
121
 50
359.999999844103
 41
0.933333333333333
 72
     1
 11
243.685210071069
 21
-150.326511212765
 31
0.0
 73
     2
  0
LINE
  5
   30F
  8
0
  6
CONTINUOUS
 62
     7
 10
256.014377191663
 20
-123.554614409804
 30
0.0
 11
256.014377191663
 21
-154.57651121947
 31
0.0
  0
LINE
  5
   310
  8
0
  6
CONTINUOUS
 62
     7
 10
231.814376831055
 20
-152.57651121947
 30
0.0
 11
256.014377191663
 21
-152.57651121947
 31
0.0
  0
LINE
  5
   311
  8
0
  6
CONTINUOUS
 62
     7
 10
234.768800092736
 20
-152.05556670147
 30
0.0
 11
231.814376831055
 21
-152.57651121947
 31
0.0
  0
LINE
  5
   312
  8
0
  6
CONTINUOUS
 62
     7
 10
231.814376831055
 20
-152.57651121947
 30
0.0
 11
234.768800092736
 21
-153.097455737471
 31
0.0
  0
LINE
  5
   313
  8
0
  6
CONTINUOUS
 62
     7
 10
253.059953929981
 20
-153.097455737471
 30
0.0
 11
256.014377191663
 21
-152.57651121947
 31
0.0
  0
LINE
  5
   314
  8
0
  6
CONTINUOUS
 62
     7
 10
256.014377191663
 20
-152.57651121947
 30
0.0
 11
253.059953929981
 21
-152.05556670147
 31
0.0
  0
ENDBLK
  5
   315
  8
0
  6
CONTINUOUS
 62
     7
  0
BLOCK
  5
   316
  8
0
  6
CONTINUOUS
 62
     7
  2
*UDIM1809
 70
    65
 10
0.0
 20
0.0
 30
0.0
  3
*UDIM1809
  0
TEXT
  5
   317
  8
0
  6
CONTINUOUS
 62
     7
 10
259.674500960593
 20
-136.624266423135
 30
0.0
 40
2.50000001341104
  1
16
 50
359.999999844103
 41
0.933333333333333
 72
     1
 11
261.757834308497
 21
-135.374266422088
 31
0.0
 73
     2
  0
LINE
  5
   318
  8
0
  6
CONTINUOUS
 62
     7
 10
254.414377167821
 20
-121.354614377022
 30
0.0
 11
254.414377167821
 21
-139.624266428793
 31
0.0
  0
LINE
  5
   319
  8
0
  6
CONTINUOUS
 62
     7
 10
257.614377215505
 20
-121.354614377022
 30
0.0
 11
257.614377215505
 21
-139.624266428793
 31
0.0
  0
LINE
  5
   31A
  8
0
  6
CONTINUOUS
 62
     7
 10
254.414377167821
 20
-137.624266428793
 30
0.0
 11
263.841167653006
 21
-137.624266428793
 31
0.0
  0
LINE
  5
   31B
  8
0
  6
CONTINUOUS
 62
     7
 10
251.459953906139
 20
-138.145210946794
 30
0.0
 11
254.414377167821
 21
-137.624266428793
 31
0.0
  0
LINE
  5
   31C
  8
0
  6
CONTINUOUS
 62
     7
 10
254.414377167821
 20
-137.624266428793
 30
0.0
 11
251.459953906139
 21
-137.103321910793
 31
0.0
  0
LINE
  5
   31D
  8
0
  6
CONTINUOUS
 62
     7
 10
260.568800477186
 20
-137.103321910793
 30
0.0
 11
257.614377215505
 21
-137.624266428793
 31
0.0
  0
LINE
  5
   31E
  8
0
  6
CONTINUOUS
 62
     7
 10
257.614377215505
 20
-137.624266428793
 30
0.0
 11
260.568800477186
 21
-138.145210946794
 31
0.0
  0
ENDBLK
  5
   31F
  8
0
  6
CONTINUOUS
 62
     7
  0
BLOCK
  5
   320
  8
0
  6
CONTINUOUS
 62
     7
  2
*UDIM1810
 70
    65
 10
0.0
 20
0.0
 30
0.0
  3
*UDIM1810
  0
TEXT
  5
   321
  8
0
  6
CONTINUOUS
 62
     7
 10
229.951877417411
 20
-146.830673731244
 30
0.0
 40
2.50000001341104
  1
162,5
 50
359.999999844103
 41
0.933333333333333
 72
     1
 11
235.53521078409
 21
-145.580673739702
 31
0.0
 73
     2
  0
LINE
  5
   322
  8
0
  6
CONTINUOUS
 62
     7
 10
219.51437664777
 20
-132.354614540935
 30
0.0
 11
219.51437664777
 21
-149.830673746408
 31
0.0
  0
LINE
  5
   323
  8
0
  6
CONTINUOUS
 62
     7
 10
252.014377132058
 20
-132.354614540935
 30
0.0
 11
252.014377132058
 21
-149.830673746408
 31
0.0
  0
LINE
  5
   324
  8
0
  6
CONTINUOUS
 62
     7
 10
219.51437664777
 20
-147.830673746408
 30
0.0
 11
252.014377132058
 21
-147.830673746408
 31
0.0
  0
LINE
  5
   325
  8
0
  6
CONTINUOUS
 62
     7
 10
222.468799909452
 20
-147.309729228408
 30
0.0
 11
219.51437664777
 21
-147.830673746408
 31
0.0
  0
LINE
  5
   326
  8
0
  6
CONTINUOUS
 62
     7
 10
219.51437664777
 20
-147.830673746408
 30
0.0
 11
222.468799909452
 21
-148.351618264408
 31
0.0
  0
LINE
  5
   327
  8
0
  6
CONTINUOUS
 62
     7
 10
249.059953870377
 20
-148.351618264408
 30
0.0
 11
252.014377132058
 21
-147.830673746408
 31
0.0
  0
LINE
  5
   328
  8
0
  6
CONTINUOUS
 62
     7
 10
252.014377132058
 20
-147.830673746408
 30
0.0
 11
249.059953870377
 21
-147.309729228408
 31
0.0
  0
ENDBLK
  5
   329
  8
0
  6
CONTINUOUS
 62
     7
  0
BLOCK
  5
   32A
  8
0
  6
CONTINUOUS
 62
     7
  2
*UDIM1811
 70
    65
 10
0.0
 20
0.0
 30
0.0
  3
*UDIM1811
  0
TEXT
  5
   32B
  8
0
  6
CONTINUOUS
 62
     7
 10
238.435210020438
 20
-141.513049756975
 30
0.0
 40
2.50000001341104
  1
101
 50
359.999999844103
 41
0.933333333333333
 72
     1
 11
241.685210041267
 21
-140.263049759096
 31
0.0
 73
     2
  0
LINE
  5
   32C
  8
0
  6
CONTINUOUS
 62
     7
 10
252.014377132058
 20
-132.354614540935
 30
0.0
 11
252.014377132058
 21
-144.513049765802
 31
0.0
  0
LINE
  5
   32D
  8
0
  6
CONTINUOUS
 62
     7
 10
231.814376831055
 20
-142.513049765802
 30
0.0
 11
252.014377132058
 21
-142.513049765802
 31
0.0
  0
LINE
  5
   32E
  8
0
  6
CONTINUOUS
 62
     7
 10
234.768800092736
 20
-141.992105247802
 30
0.0
 11
231.814376831055
 21
-142.513049765802
 31
0.0
  0
LINE
  5
   32F
  8
0
  6
CONTINUOUS
 62
     7
 10
231.814376831055
 20
-142.513049765802
 30
0.0
 11
234.768800092736
 21
-143.033994283802
 31
0.0
  0
LINE
  5
   330
  8
0
  6
CONTINUOUS
 62
     7
 10
249.059953870377
 20
-143.033994283802
 30
0.0
 11
252.014377132058
 21
-142.513049765802
 31
0.0
  0
LINE
  5
   331
  8
0
  6
CONTINUOUS
 62
     7
 10
252.014377132058
 20
-142.513049765802
 30
0.0
 11
249.059953870377
 21
-141.992105247802
 31
0.0
  0
ENDBLK
  5
   332
  8
0
  6
CONTINUOUS
 62
     7
  0
BLOCK
  5
   333
  8
0
  6
CONTINUOUS
 62
     7
  2
*UDIM1812
 70
    65
 10
0.0
 20
0.0
 30
0.0
  3
*UDIM1812
  0
TEXT
  5
   334
  8
0
  6
CONTINUOUS
 62
     7
 10
217.272711269118
 20
-136.081068773699
 30
0.0
 40
2.50000001341104
  1
19,75
 50
359.999999844103
 41
0.933333333333333
 72
     1
 11
222.856044635798
 21
-134.831068782158
 31
0.0
 73
     2
  0
LINE
  5
   335
  8
0
  6
CONTINUOUS
 62
     7
 10
235.764376889914
 20
-132.354614540935
 30
0.0
 11
235.764376889914
 21
-139.081068788863
 31
0.0
  0
LINE
  5
   336
  8
0
  6
CONTINUOUS
 62
     7
 10
217.272711272513
 20
-137.081068788863
 30
0.0
 11
235.764376889914
 21
-137.081068788863
 31
0.0
  0
LINE
  5
   337
  8
0
  6
CONTINUOUS
 62
     7
 10
228.859953569373
 20
-137.602013306863
 30
0.0
 11
231.814376831055
 21
-137.081068788863
 31
0.0
  0
LINE
  5
   338
  8
0
  6
CONTINUOUS
 62
     7
 10
231.814376831055
 20
-137.081068788863
 30
0.0
 11
228.859953569373
 21
-136.560124270863
 31
0.0
  0
LINE
  5
   339
  8
0
  6
CONTINUOUS
 62
     7
 10
238.718800151596
 20
-136.560124270863
 30
0.0
 11
235.764376889914
 21
-137.081068788863
 31
0.0
  0
LINE
  5
   33A
  8
0
  6
CONTINUOUS
 62
     7
 10
235.764376889914
 20
-137.081068788863
 30
0.0
 11
238.718800151596
 21
-137.602013306863
 31
0.0
  0
ENDBLK
  5
   33B
  8
0
  6
CONTINUOUS
 62
     7
  0
BLOCK
  5
   33C
  8
0
  6
CONTINUOUS
 62
     7
  2
*UDIM1813
 70
    65
 10
0.0
 20
0.0
 30
0.0
  3
*UDIM1813
  0
TEXT
  5
   33D
  8
0
  6
CONTINUOUS
 62
     7
 10
227.435209856525
 20
-78.181630966584
 30
0.0
 40
2.50000001341104
  1
170
 50
359.999999844103
 41
0.933333333333333
 72
     1
 11
230.685209877354
 21
-76.9316309687051
 31
0.0
 73
     2
  0
LINE
  5
   33E
  8
0
  6
CONTINUOUS
 62
     7
 10
213.914376564324
 20
-95.2546140179038
 30
0.0
 11
213.914376564324
 21
-77.1816309754106
 31
0.0
  0
LINE
  5
   33F
  8
0
  6
CONTINUOUS
 62
     7
 10
247.914377070963
 20
-95.2546140179038
 30
0.0
 11
247.914377070963
 21
-77.1816309754106
 31
0.0
  0
LINE
  5
   340
  8
0
  6
CONTINUOUS
 62
     7
 10
213.914376564324
 20
-79.1816309754106
 30
0.0
 11
247.914377070963
 21
-79.1816309754106
 31
0.0
  0
LINE
  5
   341
  8
0
  6
CONTINUOUS
 62
     7
 10
216.868799826006
 20
-78.6606864574103
 30
0.0
 11
213.914376564324
 21
-79.1816309754106
 31
0.0
  0
LINE
  5
   342
  8
0
  6
CONTINUOUS
 62
     7
 10
213.914376564324
 20
-79.1816309754106
 30
0.0
 11
216.868799826006
 21
-79.7025754934109
 31
0.0
  0
LINE
  5
   343
  8
0
  6
CONTINUOUS
 62
     7
 10
244.959953809282
 20
-79.7025754934109
 30
0.0
 11
247.914377070963
 21
-79.1816309754106
 31
0.0
  0
LINE
  5
   344
  8
0
  6
CONTINUOUS
 62
     7
 10
247.914377070963
 20
-79.1816309754106
 30
0.0
 11
244.959953809282
 21
-78.6606864574103
 31
0.0
  0
ENDBLK
  5
   345
  8
0
  6
CONTINUOUS
 62
     7
  0
BLOCK
  5
   346
  8
0
  6
CONTINUOUS
 62
     7
  2
*UDIM1814
 70
    65
 10
0.0
 20
0.0
 30
0.0
  3
*UDIM1814
  0
TEXT
  5
   347
  8
0
  6
CONTINUOUS
 62
     7
 10
235.218543722277
 20
-82.6701625244404
 30
0.0
 40
2.50000001341104
  1
80,5
 50
359.999999844103
 41
0.933333333333333
 72
     1
 11
239.635210416031
 21
-81.42016252973
 31
0.0
 73
     2
  0
LINE
  5
   348
  8
0
  6
CONTINUOUS
 62
     7
 10
231.814376831055
 20
-86.4924555556416
 30
0.0
 11
231.814376831055
 21
-81.6701625364356
 31
0.0
  0
LINE
  5
   349
  8
0
  6
CONTINUOUS
 62
     7
 10
247.914377070963
 20
-95.2546140179038
 30
0.0
 11
247.914377070963
 21
-81.6701625364356
 31
0.0
  0
LINE
  5
   34A
  8
0
  6
CONTINUOUS
 62
     7
 10
231.814376831055
 20
-83.6701625364356
 30
0.0
 11
247.914377070963
 21
-83.6701625364356
 31
0.0
  0
LINE
  5
   34B
  8
0
  6
CONTINUOUS
 62
     7
 10
234.768800092736
 20
-83.1492180184352
 30
0.0
 11
231.814376831055
 21
-83.6701625364356
 31
0.0
  0
LINE
  5
   34C
  8
0
  6
CONTINUOUS
 62
     7
 10
231.814376831055
 20
-83.6701625364356
 30
0.0
 11
234.768800092736
 21
-84.1911070544359
 31
0.0
  0
LINE
  5
   34D
  8
0
  6
CONTINUOUS
 62
     7
 10
244.959953809282
 20
-84.1911070544359
 30
0.0
 11
247.914377070963
 21
-83.6701625364356
 31
0.0
  0
LINE
  5
   34E
  8
0
  6
CONTINUOUS
 62
     7
 10
247.914377070963
 20
-83.6701625364356
 30
0.0
 11
244.959953809282
 21
-83.1492180184352
 31
0.0
  0
ENDBLK
  5
   34F
  8
0
  6
CONTINUOUS
 62
     7
  0
BLOCK
  5
   350
  8
0
  6
CONTINUOUS
 62
     7
  2
*UDIM1815
 70
    65
 10
0.0
 20
0.0
 30
0.0
  3
*UDIM1815
  0
TEXT
  5
   351
  8
0
  6
CONTINUOUS
 62
     7
 10
234.097239608393
 20
-86.9871593602424
 30
0.0
 40
2.50000001341104
  1
45
 50
359.999999844103
 41
0.933333333333333
 72
     1
 11
236.180572956297
 21
-85.737159359195
 31
0.0
 73
     2
  0
LINE
  5
   352
  8
0
  6
CONTINUOUS
 62
     7
 10
231.264376822859
 20
-92.0186139696836
 30
0.0
 11
231.264376822859
 21
-85.9871593659005
 31
0.0
  0
LINE
  5
   353
  8
0
  6
CONTINUOUS
 62
     7
 10
240.26437695697
 20
-92.0186139696836
 30
0.0
 11
240.26437695697
 21
-85.9871593659005
 31
0.0
  0
LINE
  5
   354
  8
0
  6
CONTINUOUS
 62
     7
 10
231.264376822859
 20
-87.9871593659005
 30
0.0
 11
240.26437695697
 21
-87.9871593659005
 31
0.0
  0
LINE
  5
   355
  8
0
  6
CONTINUOUS
 62
     7
 10
234.218800084541
 20
-87.4662148479002
 30
0.0
 11
231.264376822859
 21
-87.9871593659005
 31
0.0
  0
LINE
  5
   356
  8
0
  6
CONTINUOUS
 62
     7
 10
231.264376822859
 20
-87.9871593659005
 30
0.0
 11
234.218800084541
 21
-88.5081038839009
 31
0.0
  0
LINE
  5
   357
  8
0
  6
CONTINUOUS
 62
     7
 10
237.309953695288
 20
-88.5081038839009
 30
0.0
 11
240.26437695697
 21
-87.9871593659005
 31
0.0
  0
LINE
  5
   358
  8
0
  6
CONTINUOUS
 62
     7
 10
240.26437695697
 20
-87.9871593659005
 30
0.0
 11
237.309953695288
 21
-87.4662148479002
 31
0.0
  0
ENDBLK
  5
   359
  8
0
  6
CONTINUOUS
 62
     7
  0
BLOCK
  5
   35A
  8
0
  6
CONTINUOUS
 62
     7
  2
BASETT_1
 70
    64
 10
0.0
 20
0.0
 30
0.0
  3
BASETT_1
  0
LINE
  5
   35B
  8
0
  6
CONTINUOUS
 62
     1
 10
0.0
 20
2.54761783868335
 30
0.0
 11
0.0
 21
7.54761783868335
 31
0.0
  0
LINE
  5
   35C
  8
0
  6
CONTINUOUS
 62
     1
 10
152.0
 20
44.0476178386834
 30
0.0
 11
198.0
 21
44.0476178386834
 31
0.0
  0
LINE
  5
   35D
  8
0
  6
CONTINUOUS
 62
     1
 10
210.0
 20
-5.0
 30
0.0
 11
210.0
 21
22.0476178386834
 31
0.0
  0
LINE
  5
   35E
  8
0
  6
CONTINUOUS
 62
     1
 10
82.0
 20
44.0476178386834
 30
0.0
 11
128.0
 21
44.0476178386834
 31
0.0
  0
LINE
  5
   35F
  8
0
  6
CONTINUOUS
 62
     1
 10
12.0
 20
44.0476178386834
 30
0.0
 11
58.0
 21
44.0476178386834
 31
0.0
  0
LINE
  5
   360
  8
0
  6
CONTINUOUS
 62
     1
 10
0.0
 20
-5.0
 30
0.0
 11
0.0
 21
22.0476178386834
 31
0.0
  0
LINE
  5
   361
  8
0
  6
CONTINUOUS
 62
     1
 10
200.0
 20
24.0476178386834
 30
0.0
 11
200.0
 21
42.0476178386834
 31
0.0
  0
LINE
  5
   362
  8
0
  6
CONTINUOUS
 62
     1
 10
150.0
 20
24.0476178386834
 30
0.0
 11
150.0
 21
42.0476178386834
 31
0.0
  0
LINE
  5
   363
  8
0
  6
CONTINUOUS
 62
     1
 10
130.0
 20
24.0476178386834
 30
0.0
 11
130.0
 21
42.0476178386834
 31
0.0
  0
LINE
  5
   364
  8
0
  6
CONTINUOUS
 62
     1
 10
80.0
 20
24.0476178386834
 30
0.0
 11
80.0
 21
42.0476178386834
 31
0.0
  0
LINE
  5
   365
  8
0
  6
CONTINUOUS
 62
     1
 10
60.0
 20
24.0476178386834
 30
0.0
 11
60.0
 21
42.0476178386834
 31
0.0
  0
LINE
  5
   366
  8
0
  6
CONTINUOUS
 62
     1
 10
10.0
 20
24.0476178386834
 30
0.0
 11
10.0
 21
42.0476178386834
 31
0.0
  0
ARC
  5
   367
  8
0
  6
CONTINUOUS
 62
     1
 10
12.0000111838347
 20
42.0475380330993
 30
0.0
 40
2.00007783126227
 50
90.0001807661626
 51
179.997830672605
  0
ARC
  5
   368
  8
0
  6
CONTINUOUS
 62
     1
 10
58.0000129063801
 20
42.0476401501283
 30
0.0
 40
1.99997510265494
 50
359.999226374319
 51
450.000285340162
  0
ARC
  5
   369
  8
0
  6
CONTINUOUS
 62
     1
 10
81.9999903249801
 20
42.0476447404943
 30
0.0
 40
1.99997081808889
 50
89.9996952185933
 51
180.000394138682
  0
ARC
  5
   36A
  8
0
  6
CONTINUOUS
 62
     1
 10
127.999995507033
 20
42.0476121773215
 30
0.0
 40
2.00000657851261
 50
5.38727676514194E-4
 51
89.9998988942161
  0
ARC
  5
   36B
  8
0
  6
CONTINUOUS
 62
     1
 10
151.999999983491
 20
42.0476201025244
 30
0.0
 40
1.99999862788034
 50
90.0000839312064
 51
180.000255608246
  0
ARC
  5
   36C
  8
0
  6
CONTINUOUS
 62
     1
 10
197.99998881617
 20
42.0475380331107
 30
0.0
 40
2.00007783125045
 50
2.16932706530805E-3
 51
89.9998192339624
  0
ARC
  5
   36D
  8
0
  6
CONTINUOUS
 62
     1
 10
7.99999999999999
 20
24.0476178386834
 30
0.0
 40
2.0
 50
270.0
 51
360.0
  0
ARC
  5
   36E
  8
0
  6
CONTINUOUS
 62
     1
 10
62.0
 20
24.0476178386834
 30
0.0
 40
2.0
 50
180.0
 51
270.0
  0
ARC
  5
   36F
  8
0
  6
CONTINUOUS
 62
     1
 10
78.0
 20
24.0476178386834
 30
0.0
 40
2.0
 50
270.0
 51
360.0
  0
ARC
  5
   370
  8
0
  6
CONTINUOUS
 62
     1
 10
132.0
 20
24.0476178386834
 30
0.0
 40
2.0
 50
180.0
 51
270.0
  0
ARC
  5
   371
  8
0
  6
CONTINUOUS
 62
     1
 10
148.0
 20
24.0476178386834
 30
0.0
 40
2.0
 50
270.0
 51
360.0
  0
ARC
  5
   372
  8
0
  6
CONTINUOUS
 62
     1
 10
202.0
 20
24.0476178386834
 30
0.0
 40
2.0
 50
180.0
 51
270.0
  0
LINE
  5
   373
  8
0
  6
DASHDOT
 62
     1
 10
35.0
 20
-10.891941734382
 30
0.0
 11
35.0
 21
48.6276703687375
 31
0.0
  0
LINE
  5
   374
  8
0
  6
DASHDOT
 62
     1
 10
105.0
 20
-23.4141373583782
 30
0.0
 11
105.0
 21
48.6276703687375
 31
0.0
  0
LINE
  5
   375
  8
0
  6
DASHDOT
 62
     1
 10
175.0
 20
-11.8663007393746
 30
0.0
 11
175.0
 21
48.6276703687375
 31
0.0
  0
LINE
  5
   376
  8
0
  6
CONTINUOUS
 62
     1
 10
-4.33699977453108
 20
-5.0
 30
0.0
 11
216.015126792606
 21
-5.0
 31
0.0
  0
LINE
  5
   377
  8
0
  6
CONTINUOUS
 62
     1
 10
30.0
 20
44.0476178386834
 30
0.0
 11
30.0
 21
84.0476178386834
 31
0.0
  0
LINE
  5
   378
  8
0
  6
CONTINUOUS
 62
     1
 10
40.0
 20
44.0476178386834
 30
0.0
 11
40.0
 21
84.0476178386834
 31
0.0
  0
LINE
  5
   379
  8
0
  6
CONTINUOUS
 62
     1
 10
35.0
 20
44.0476178386834
 30
0.0
 11
35.0
 21
84.0476178386834
 31
0.0
  0
LINE
  5
   37A
  8
0
  6
CONTINUOUS
 62
     1
 10
30.0
 20
84.0476178386834
 30
0.0
 11
40.0
 21
84.0476178386834
 31
0.0
  0
LINE
  5
   37B
  8
0
  6
CONTINUOUS
 62
     1
 10
110.0
 20
44.0476178386834
 30
0.0
 11
110.0
 21
84.0476178386834
 31
0.0
  0
LINE
  5
   37C
  8
0
  6
CONTINUOUS
 62
     1
 10
105.0
 20
44.0476178386834
 30
0.0
 11
105.0
 21
84.0476178386834
 31
0.0
  0
LINE
  5
   37D
  8
0
  6
CONTINUOUS
 62
     1
 10
100.0
 20
44.0476178386834
 30
0.0
 11
100.0
 21
84.0476178386834
 31
0.0
  0
LINE
  5
   37E
  8
0
  6
CONTINUOUS
 62
     1
 10
100.0
 20
84.0476178386834
 30
0.0
 11
110.0
 21
84.0476178386834
 31
0.0
  0
LINE
  5
   37F
  8
0
  6
CONTINUOUS
 62
     1
 10
180.0
 20
44.0476178386834
 30
0.0
 11
180.0
 21
84.0476178386834
 31
0.0
  0
LINE
  5
   380
  8
0
  6
CONTINUOUS
 62
     1
 10
175.0
 20
44.0476178386834
 30
0.0
 11
175.0
 21
84.0476178386834
 31
0.0
  0
LINE
  5
   381
  8
0
  6
CONTINUOUS
 62
     1
 10
170.0
 20
44.0476178386834
 30
0.0
 11
170.0
 21
84.0476178386834
 31
0.0
  0
LINE
  5
   382
  8
0
  6
CONTINUOUS
 62
     1
 10
170.0
 20
84.0476178386834
 30
0.0
 11
180.0
 21
84.0476178386834
 31
0.0
  0
LINE
  5
   383
  8
0
  6
DASHDOT
 62
     1
 10
24.6373634119567
 20
64.0476178386834
 30
0.0
 11
45.2380966603725
 21
64.0476178386834
 31
0.0
  0
LINE
  5
   384
  8
0
  6
DASHDOT
 62
     1
 10
164.805865987326
 20
64.0476178386834
 30
0.0
 11
184.849822661461
 21
64.0476178386834
 31
0.0
  0
LINE
  5
   385
  8
0
  6
DASHDOT
 62
     1
 10
94.3040322689304
 20
64.0476178386834
 30
0.0
 11
114.626377230205
 21
64.0476178386834
 31
0.0
  0
LINE
  5
   386
  8
0
  6
DOT
 62
     1
 10
170.0
 20
71.0476178386834
 30
0.0
 11
180.0
 21
71.0476178386834
 31
0.0
  0
LINE
  5
   387
  8
0
  6
DOT
 62
     1
 10
170.0
 20
57.0476178386834
 30
0.0
 11
180.0
 21
57.0476178386834
 31
0.0
  0
LINE
  5
   388
  8
0
  6
DOT
 62
     1
 10
100.0
 20
71.0476178386834
 30
0.0
 11
110.0
 21
71.0476178386834
 31
0.0
  0
LINE
  5
   389
  8
0
  6
DOT
 62
     1
 10
100.0
 20
57.0476178386834
 30
0.0
 11
110.0
 21
57.0476178386834
 31
0.0
  0
LINE
  5
   38A
  8
0
  6
DOT
 62
     1
 10
30.0
 20
71.0476178386833
 30
0.0
 11
40.0
 21
71.0476178386833
 31
0.0
  0
LINE
  5
   38B
  8
0
  6
DOT
 62
     1
 10
30.0
 20
57.0476178386834
 30
0.0
 11
40.0
 21
57.0476178386834
 31
0.0
  0
LINE
  5
   38C
  8
0
  6
CONTINUOUS
 62
     1
 10
0.0
 20
22.0476178386834
 30
0.0
 11
210.0
 21
22.0476178386834
 31
0.0
  0
LINE
  5
   38D
  8
0
  6
CONTINUOUS
 62
     1
 10
73.5
 20
-5.0
 30
0.0
 11
73.5
 21
22.0476178386834
 31
0.0
  0
LINE
  5
   38E
  8
0
  6
CONTINUOUS
 62
     1
 10
66.5
 20
-5.0
 30
0.0
 11
66.5
 21
22.0476178386834
 31
0.0
  0
LINE
  5
   38F
  8
0
  6
CONTINUOUS
 62
     1
 10
2.5
 20
-5.0
 30
0.0
 11
2.5
 21
22.0476178386834
 31
0.0
  0
LINE
  5
   390
  8
0
  6
CONTINUOUS
 62
     1
 10
207.5
 20
-5.0
 30
0.0
 11
207.5
 21
22.0476178386834
 31
0.0
  0
LINE
  5
   391
  8
0
  6
CONTINUOUS
 62
     1
 10
143.5
 20
-5.0
 30
0.0
 11
143.5
 21
22.0476178386834
 31
0.0
  0
LINE
  5
   392
  8
0
  6
CONTINUOUS
 62
     1
 10
136.5
 20
-5.0
 30
0.0
 11
136.5
 21
22.0476178386834
 31
0.0
  0
LINE
  5
   393
  8
0
  6
CONTINUOUS
 62
     1
 10
57.5
 20
-5.0
 30
0.0
 11
57.5
 21
0.047617838683351
 31
0.0
  0
LINE
  5
   394
  8
0
  6
CONTINUOUS
 62
     1
 10
12.5
 20
0.047617838683351
 30
0.0
 11
57.5
 21
0.047617838683351
 31
0.0
  0
LINE
  5
   395
  8
0
  6
CONTINUOUS
 62
     1
 10
12.5
 20
-5.0
 30
0.0
 11
12.5
 21
0.047617838683351
 31
0.0
  0
LINE
  5
   396
  8
0
  6
CONTINUOUS
 62
     1
 10
127.5
 20
-5.0
 30
0.0
 11
127.5
 21
0.047617838683351
 31
0.0
  0
LINE
  5
   397
  8
0
  6
CONTINUOUS
 62
     1
 10
82.5
 20
-5.0
 30
0.0
 11
82.5
 21
0.047617838683351
 31
0.0
  0
LINE
  5
   398
  8
0
  6
CONTINUOUS
 62
     1
 10
82.5
 20
0.047617838683351
 30
0.0
 11
127.5
 21
0.047617838683351
 31
0.0
  0
LINE
  5
   399
  8
0
  6
CONTINUOUS
 62
     1
 10
152.5
 20
0.047617838683351
 30
0.0
 11
197.5
 21
0.047617838683351
 31
0.0
  0
LINE
  5
   39A
  8
0
  6
CONTINUOUS
 62
     1
 10
197.5
 20
-5.0
 30
0.0
 11
197.5
 21
0.047617838683351
 31
0.0
  0
LINE
  5
   39B
  8
0
  6
CONTINUOUS
 62
     1
 10
152.5
 20
-5.0
 30
0.0
 11
152.5
 21
0.047617838683351
 31
0.0
  0
ENDBLK
  5
   39C
  8
0
  6
CONTINUOUS
 62
     7
  0
BLOCK
  5
   39D
  8
0
  6
CONTINUOUS
 62
     7
  2
*UDIM1816
 70
    65
 10
0.0
 20
0.0
 30
0.0
  3
*UDIM1816
  0
TEXT
  5
   39E
  8
0
  6
CONTINUOUS
 62
     7
 10
258.311728674618
 20
-24.0714316151548
 30
0.0
 40
2.4999999335834
  1
10
 50
359.999999896069
 41
0.933333333333333
 72
     1
 11
260.395061954866
 21
-22.8214316521317
 31
0.0
 73
     2
  0
LINE
  5
   39F
  8
0
  6
CONTINUOUS
 62
     7
 10
258.064370466237
 20
-28.1691573165057
 30
0.0
 11
258.064370466237
 21
-23.0714316189234
 31
0.0
  0
LINE
  5
   3A0
  8
0
  6
CONTINUOUS
 62
     7
 10
254.564370525841
 20
-28.1691573165057
 30
0.0
 11
254.564370525841
 21
-23.0714316189234
 31
0.0
  0
LINE
  5
   3A1
  8
0
  6
CONTINUOUS
 62
     7
 10
262.478395232852
 20
-25.0714316189234
 30
0.0
 11
254.564370525841
 21
-25.0714316189234
 31
0.0
  0
LINE
  5
   3A2
  8
0
  6
CONTINUOUS
 62
     7
 10
261.018793727918
 20
-24.550487100923
 30
0.0
 11
258.064370466237
 21
-25.0714316189234
 31
0.0
  0
LINE
  5
   3A3
  8
0
  6
CONTINUOUS
 62
     7
 10
258.064370466237
 20
-25.0714316189234
 30
0.0
 11
261.018793727918
 21
-25.5923761369237
 31
0.0
  0
LINE
  5
   3A4
  8
0
  6
CONTINUOUS
 62
     7
 10
251.60994726416
 20
-25.5923761369237
 30
0.0
 11
254.564370525841
 21
-25.0714316189234
 31
0.0
  0
LINE
  5
   3A5
  8
0
  6
CONTINUOUS
 62
     7
 10
254.564370525841
 20
-25.0714316189234
 30
0.0
 11
251.60994726416
 21
-24.550487100923
 31
0.0
  0
ENDBLK
  5
   3A6
  8
0
  6
CONTINUOUS
 62
     7
  0
BLOCK
  5
   3A7
  8
0
  6
CONTINUOUS
 62
     7
  2
*UDIM1817
 70
    65
 10
0.0
 20
0.0
 30
0.0
  3
*UDIM1817
  0
TEXT
  5
   3A8
  8
0
  6
CONTINUOUS
 62
     7
 10
241.751868047646
 20
-18.9956110738897
 30
0.0
 40
2.4999999335834
  1
70
 50
359.999999896069
 41
0.933333333333333
 72
     1
 11
243.835201327893
 21
-17.7456111108666
 31
0.0
 73
     2
  0
LINE
  5
   3A9
  8
0
  6
CONTINUOUS
 62
     7
 10
256.314370496039
 20
-40.5661387198674
 30
0.0
 11
256.314370496039
 21
-17.9956110776583
 31
0.0
  0
LINE
  5
   3AA
  8
0
  6
CONTINUOUS
 62
     7
 10
231.814370913271
 20
-40.5661387198674
 30
0.0
 11
231.814370913271
 21
-17.9956110776583
 31
0.0
  0
LINE
  5
   3AB
  8
0
  6
CONTINUOUS
 62
     7
 10
256.314370496039
 20
-19.9956110776583
 30
0.0
 11
231.814370913271
 21
-19.9956110776583
 31
0.0
  0
LINE
  5
   3AC
  8
0
  6
CONTINUOUS
 62
     7
 10
253.359947234357
 20
-20.5165555956586
 30
0.0
 11
256.314370496039
 21
-19.9956110776583
 31
0.0
  0
LINE
  5
   3AD
  8
0
  6
CONTINUOUS
 62
     7
 10
256.314370496039
 20
-19.9956110776583
 30
0.0
 11
253.359947234357
 21
-19.474666559658
 31
0.0
  0
LINE
  5
   3AE
  8
0
  6
CONTINUOUS
 62
     7
 10
234.768794174953
 20
-19.474666559658
 30
0.0
 11
231.814370913271
 21
-19.9956110776583
 31
0.0
  0
LINE
  5
   3AF
  8
0
  6
CONTINUOUS
 62
     7
 10
231.814370913271
 20
-19.9956110776583
 30
0.0
 11
234.768794174953
 21
-20.5165555956586
 31
0.0
  0
ENDBLK
  5
   3B0
  8
0
  6
CONTINUOUS
 62
     7
  0
BLOCK
  5
   3B1
  8
0
  6
CONTINUOUS
 62
     7
  2
*UDIM1818
 70
    65
 10
0.0
 20
0.0
 30
0.0
  3
*UDIM1818
  0
TEXT
  5
   3B2
  8
0
  6
CONTINUOUS
 62
     7
 10
217.251871135166
 20
-18.9956110738897
 30
0.0
 40
2.4999999335834
  1
70
 50
359.999999896069
 41
0.933333333333333
 72
     1
 11
219.335204415414
 21
-17.7456111108666
 31
0.0
 73
     2
  0
LINE
  5
   3B3
  8
0
  6
CONTINUOUS
 62
     7
 10
207.314371330504
 20
-40.5661387198674
 30
0.0
 11
207.314371330504
 21
-17.9956110776583
 31
0.0
  0
LINE
  5
   3B4
  8
0
  6
CONTINUOUS
 62
     7
 10
231.814370913271
 20
-19.9956110776583
 30
0.0
 11
207.314371330504
 21
-19.9956110776583
 31
0.0
  0
LINE
  5
   3B5
  8
0
  6
CONTINUOUS
 62
     7
 10
228.85994765159
 20
-20.5165555956586
 30
0.0
 11
231.814370913271
 21
-19.9956110776583
 31
0.0
  0
LINE
  5
   3B6
  8
0
  6
CONTINUOUS
 62
     7
 10
231.814370913271
 20
-19.9956110776583
 30
0.0
 11
228.85994765159
 21
-19.474666559658
 31
0.0
  0
LINE
  5
   3B7
  8
0
  6
CONTINUOUS
 62
     7
 10
210.268794592186
 20
-19.474666559658
 30
0.0
 11
207.314371330504
 21
-19.9956110776583
 31
0.0
  0
LINE
  5
   3B8
  8
0
  6
CONTINUOUS
 62
     7
 10
207.314371330504
 20
-19.9956110776583
 30
0.0
 11
210.268794592186
 21
-20.5165555956586
 31
0.0
  0
ENDBLK
  5
   3B9
  8
0
  6
CONTINUOUS
 62
     7
  0
ENDSEC
  0
SECTION
  2
ENTITIES
  0
LINE
  5
   3BA
  8
0
  6
DASHDOT
 62
     2
 10
82.8390426635742
 20
-78.281240068792
 30
0.0
 11
82.8390426635742
 21
-156.219033266223
 31
0.0
  0
LINE
  5
   3BB
  8
0
  6
DASHDOT
 62
     2
 10
116.151936945322
 20
-112.354614231735
 30
0.0
 11
57.109829822657
 21
-112.354614231735
 31
0.0
  0
CIRCLE
  5
   3BC
  8
0
  6
CONTINUOUS
 62
     7
 10
68.839042454958
 20
-103.254614096135
 30
0.0
 40
0.850000012665987
  0
CIRCLE
  5
   3BD
  8
0
  6
CONTINUOUS
 62
     7
 10
96.8390428721905
 20
-103.254614096135
 30
0.0
 40
0.850000012665987
  0
CIRCLE
  5
   3BE
  8
0
  6
CONTINUOUS
 62
     7
 10
96.8390428721905
 20
-127.254614453763
 30
0.0
 40
0.850000012665987
  0
CIRCLE
  5
   3BF
  8
0
  6
CONTINUOUS
 62
     7
 10
68.839042454958
 20
-127.254614453763
 30
0.0
 40
0.850000012665987
  0
LINE
  5
   3C0
  8
0
  6
DASHDOT
 62
     7
 10
68.839042454958
 20
-100.404614053667
 30
0.0
 11
68.839042454958
 21
-106.104614138603
 31
0.0
  0
LINE
  5
   3C1
  8
0
  6
DASHDOT
 62
     7
 10
71.6890424974263
 20
-103.254614096135
 30
0.0
 11
65.9890424124897
 21
-103.254614096135
 31
0.0
  0
LINE
  5
   3C2
  8
0
  6
DASHDOT
 62
     7
 10
96.8390428721905
 20
-100.404614053667
 30
0.0
 11
96.8390428721905
 21
-123.931427006416
 31
0.0
  0
LINE
  5
   3C3
  8
0
  6
DASHDOT
 62
     7
 10
99.6890429146588
 20
-103.254614096135
 30
0.0
 11
73.5079581382176
 21
-103.254614096135
 31
0.0
  0
LINE
  5
   3C4
  8
0
  6
DASHDOT
 62
     7
 10
96.8390428721905
 20
-124.404614411294
 30
0.0
 11
96.8390428721905
 21
-130.104614496231
 31
0.0
  0
LINE
  5
   3C5
  8
0
  6
DASHDOT
 62
     7
 10
99.6890429146588
 20
-127.254614453763
 30
0.0
 11
73.2140255725446
 21
-127.254614453763
 31
0.0
  0
LINE
  5
   3C6
  8
0
  6
DASHDOT
 62
     7
 10
68.839042454958
 20
-107.633380073205
 30
0.0
 11
68.839042454958
 21
-130.104614496231
 31
0.0
  0
LINE
  5
   3C7
  8
0
  6
DASHDOT
 62
     7
 10
71.6890424974263
 20
-127.254614453763
 30
0.0
 11
65.9890424124897
 21
-127.254614453763
 31
0.0
  0
LINE
  5
   3C8
  8
0
  6
CONTINUOUS
 62
     7
 10
103.839042976499
 20
-100.854614060372
 30
0.0
 11
61.8390423506498
 21
-100.854614060372
 31
0.0
  0
LINE
  5
   3C9
  8
0
  6
CONTINUOUS
 62
     7
 10
103.839042976499
 20
-129.654614489526
 30
0.0
 11
61.8390423506498
 21
-129.654614489526
 31
0.0
  0
LINE
  5
   3CA
  8
0
  6
CONTINUOUS
 62
     7
 10
103.839042976499
 20
-85.3546138294041
 30
0.0
 11
61.8390423506498
 21
-85.3546138294041
 31
0.0
  0
LINE
  5
   3CB
  8
0
  6
CONTINUOUS
 62
     7
 10
103.839042976499
 20
-145.154614720494
 30
0.0
 11
61.8390423506498
 21
-145.154614720494
 31
0.0
  0
LINE
  5
   3CC
  8
0
  6
CONTINUOUS
 62
     7
 10
104.239042982459
 20
-85.7546138353646
 30
0.0
 11
104.239042982459
 21
-100.454614054412
 31
0.0
  0
LINE
  5
   3CD
  8
0
  6
CONTINUOUS
 62
     7
 10
61.4390423446894
 20
-85.7546138353646
 30
0.0
 11
61.4390423446894
 21
-100.454614054412
 31
0.0
  0
LINE
  5
   3CE
  8
0
  6
CONTINUOUS
 62
     7
 10
104.239042982459
 20
-130.054614495486
 30
0.0
 11
104.239042982459
 21
-144.754614714533
 31
0.0
  0
LINE
  5
   3CF
  8
0
  6
CONTINUOUS
 62
     7
 10
61.4390423446894
 20
-130.054614495486
 30
0.0
 11
61.4390423446894
 21
-144.754614714533
 31
0.0
  0
ARC
  5
   3D0
  8
0
  6
CONTINUOUS
 62
     7
 10
61.8390423506498
 20
-85.7546138353646
 30
0.0
 40
0.400000005960464
 50
449.999999896069
 51
539.999999896069
  0
ARC
  5
   3D1
  8
0
  6
CONTINUOUS
 62
     7
 10
61.8390423506498
 20
-100.454614054412
 30
0.0
 40
0.400000005960464
 50
179.999999896069
 51
269.999999896069
  0
ARC
  5
   3D2
  8
0
  6
CONTINUOUS
 62
     7
 10
103.839042976499
 20
-100.454614054412
 30
0.0
 40
0.400000005960464
 50
269.999999896069
 51
359.999999896069
  0
ARC
  5
   3D3
  8
0
  6
CONTINUOUS
 62
     7
 10
103.839042976499
 20
-85.7546138353646
 30
0.0
 40
0.400000005960464
 50
359.999999896069
 51
449.999999896069
  0
ARC
  5
   3D4
  8
0
  6
CONTINUOUS
 62
     7
 10
103.839042976499
 20
-130.054614495486
 30
0.0
 40
0.400000005960464
 50
359.999999896069
 51
449.999999896069
  0
ARC
  5
   3D5
  8
0
  6
CONTINUOUS
 62
     7
 10
103.839042976499
 20
-144.754614714533
 30
0.0
 40
0.400000005960464
 50
269.999999896069
 51
359.999999896069
  0
ARC
  5
   3D6
  8
0
  6
CONTINUOUS
 62
     7
 10
61.8390423506498
 20
-144.754614714533
 30
0.0
 40
0.400000005960464
 50
179.999999896069
 51
269.999999896069
  0
ARC
  5
   3D7
  8
0
  6
CONTINUOUS
 62
     7
 10
61.8390423506498
 20
-130.054614495486
 30
0.0
 40
0.400000005960464
 50
449.999999896069
 51
539.999999896069
  0
LINE
  5
   3D8
  8
0
  6
CONTINUOUS
 62
     7
 10
106.839043021202
 20
-82.2546137832105
 30
0.0
 11
58.8390423059464
 21
-82.2546137832105
 31
0.0
  0
LINE
  5
   3D9
  8
0
  6
CONTINUOUS
 62
     7
 10
106.839043021202
 20
-148.254614766687
 30
0.0
 11
58.8390423059464
 21
-148.254614766687
 31
0.0
  0
LINE
  5
   3DA
  8
0
  6
CONTINUOUS
 62
     7
 10
106.839043021202
 20
-82.2546137832105
 30
0.0
 11
106.839043021202
 21
-148.254614766687
 31
0.0
  0
LINE
  5
   3DB
  8
0
  6
CONTINUOUS
 62
     7
 10
58.8390423059464
 20
-82.2546137832105
 30
0.0
 11
58.8390423059464
 21
-148.254614766687
 31
0.0
  0
INSERT
  5
   3DC
  8
0
  6
CONTINUOUS
 62
     7
  2
*UDIM1755
 10
0.0
 20
0.0
 30
0.0
  0
INSERT
  5
   3DD
  8
0
  6
CONTINUOUS
 62
     7
  2
*UDIM1756
 10
0.0
 20
0.0
 30
0.0
  0
INSERT
  5
   3DE
  8
0
  6
CONTINUOUS
 62
     7
  2
*UDIM1757
 10
0.0
 20
0.0
 30
0.0
  0
INSERT
  5
   3DF
  8
0
  6
CONTINUOUS
 62
     7
  2
*UDIM1758
 10
0.0
 20
0.0
 30
0.0
  0
INSERT
  5
   3E0
  8
0
  6
CONTINUOUS
 62
     7
  2
*UDIM1759
 10
0.0
 20
0.0
 30
0.0
  0
INSERT
  5
   3E1
  8
0
  6
CONTINUOUS
 62
     7
  2
*UDIM1760
 10
0.0
 20
0.0
 30
0.0
  0
INSERT
  5
   3E2
  8
0
  6
CONTINUOUS
 62
     7
  2
*UDIM1761
 10
0.0
 20
0.0
 30
0.0
  0
INSERT
  5
   3E3
  8
0
  6
CONTINUOUS
 62
     7
  2
*UDIM1762
 10
0.0
 20
0.0
 30
0.0
  0
INSERT
  5
   3E4
  8
0
  6
CONTINUOUS
 62
     7
  2
*UDIM1763
 10
0.0
 20
0.0
 30
0.0
  0
TEXT
  5
   3E5
  8
0
  6
CONTINUOUS
 62
     7
 10
81.8618061846595
 20
-159.672748384395
 30
0.0
 40
2.99999994933605
  1
Y
 50
359.999999896069
 41
0.916666607525612
 72
     2
 11
84.0618060028653
 21
-159.672748388375
 31
0.0
  0
TEXT
  5
   3E6
  8
0
  6
CONTINUOUS
 62
     7
 10
81.2079538075152
 20
-70.7739769180988
 30
0.0
 40
2.99999994933605
  1
Y
 50
359.999999896069
 41
0.916666607525612
 72
     2
 11
83.407953625721
 21
-70.7739769220784
 31
0.0
  0
TEXT
  5
   3E7
  8
0
  6
CONTINUOUS
 62
     7
 10
29.5229224816231
 20
-113.753675358229
 30
0.0
 40
2.99999994933605
  1
X
 50
359.999999896069
 41
0.916666607525612
 72
     2
 11
31.722922299829
 21
-113.753675362208
 31
0.0
  0
TEXT
  5
   3E8
  8
0
  6
CONTINUOUS
 62
     7
 10
117.704265348362
 20
-114.268730068663
 30
0.0
 40
2.99999994933605
  1
X
 50
359.999999896069
 41
0.916666607525612
 72
     2
 11
119.904265166568
 21
-114.268730072642
 31
0.0
  0
LINE
  5
   3E9
  8
0
  6
CONTINUOUS
 62
     7
 10
148.677996200323
 20
120.605563305396
 30
0.0
 11
132.927996468544
 21
120.605563305396
 31
0.0
  0
LINE
  5
   3EA
  8
0
  6
CONTINUOUS
 62
     7
 10
148.677996200323
 20
106.605563543814
 30
0.0
 11
132.927996468544
 21
106.605563543814
 31
0.0
  0
LINE
  5
   3EB
  8
0
  6
CONTINUOUS
 62
     7
 10
148.677996200323
 20
106.605563543814
 30
0.0
 11
148.677996200323
 21
120.605563305396
 31
0.0
  0
CIRCLE
  5
   3EC
  8
0
  6
CONTINUOUS
 62
     7
 10
141.677996319533
 20
113.605563424605
 30
0.0
 40
2.44999995827675
  0
LINE
  5
   3ED
  8
0
  6
DASHDOT
 62
     7
 10
141.677996319533
 20
107.655563525933
 30
0.0
 11
141.677996319533
 21
119.555563323277
 31
0.0
  0
LINE
  5
   3EE
  8
0
  6
DASHDOT
 62
     7
 10
147.627996218205
 20
113.605563424605
 30
0.0
 11
135.727996420861
 21
113.605563424605
 31
0.0
  0
LINE
  5
   3EF
  8
0
  6
DOT
 62
     7
 10
148.677996200323
 20
115.355563394803
 30
0.0
 11
132.927996468544
 21
115.355563394803
 31
0.0
  0
LINE
  5
   3F0
  8
0
  6
DOT
 62
     7
 10
148.677996200323
 20
111.855567459839
 30
0.0
 11
132.927996468544
 21
111.855567459839
 31
0.0
  0
LINE
  5
   3F1
  8
0
  6
CONTINUOUS
 62
   210
 10
106.15299692452
 20
9.8306012407711
 30
0.0
 11
106.15299692452
 21
25.5805582479416
 31
0.0
  0
LINE
  5
   3F2
  8
0
  6
CONTINUOUS
 62
   210
 10
107.902996894717
 20
9.8306012407711
 30
0.0
 11
107.902996894717
 21
25.5805582479416
 31
0.0
  0
LINE
  5
   3F3
  8
0
  6
CONTINUOUS
 62
     3
 10
109.652996864915
 20
9.8306012407711
 30
0.0
 11
109.652996864915
 21
25.5805582479416
 31
0.0
  0
LINE
  5
   3F4
  8
0
  6
CONTINUOUS
 62
     3
 10
109.652996864915
 20
9.8306012407711
 30
0.0
 11
107.902996894717
 21
9.8306012407711
 31
0.0
  0
LINE
  5
   3F5
  8
0
  6
CONTINUOUS
 62
   210
 10
107.902996894717
 20
9.8306012407711
 30
0.0
 11
106.15299692452
 21
9.8306012407711
 31
0.0
  0
LINE
  5
   3F6
  8
0
  6
DASHDOT
 62
     2
 10
114.625711549916
 20
16.8305650726733
 30
0.0
 11
99.9499689499411
 21
16.8305650726733
 31
0.0
  0
LINE
  5
   3F7
  8
0
  6
CONTINUOUS
 62
     3
 10
102.652991643547
 20
54.6305627600131
 30
0.0
 11
102.302991670369
 21
54.6305627600131
 31
0.0
  0
LINE
  5
   3F8
  8
0
  6
CONTINUOUS
 62
     3
 10
102.302991670369
 20
54.6305627600131
 30
0.0
 11
86.7405636517044
 21
54.6305627600131
 31
0.0
  0
LINE
  5
   3F9
  8
0
  6
CONTINUOUS
 62
     3
 10
103.177991523345
 20
54.630562537489
 30
0.0
 11
102.652991532285
 21
54.630562537489
 31
0.0
  0
LINE
  5
   3FA
  8
0
  6
CONTINUOUS
 62
     3
 10
86.5530110559587
 20
53.9305615436271
 30
0.0
 11
86.7405720729343
 21
54.6305611669747
 31
0.0
  0
LINE
  5
   3FB
  8
0
  6
CONTINUOUS
 62
     3
 10
86.7279972553243
 20
53.93056310572
 30
0.0
 11
75.3530134707677
 21
53.93056310572
 31
0.0
  0
LINE
  5
   3FC
  8
0
  6
CONTINUOUS
 62
     3
 10
67.6530136018992
 20
53.9305470839918
 30
0.0
 11
67.6530136018992
 21
55.1555555879409
 31
0.0
  0
LINE
  5
   3FD
  8
0
  6
CONTINUOUS
 62
     3
 10
67.6530136018992
 20
104.155562250393
 30
0.0
 11
67.6530136018992
 21
115.530540694374
 31
0.0
  0
LINE
  5
   3FE
  8
0
  6
CONTINUOUS
 62
     3
 10
69.4030135720968
 20
115.530540694374
 30
0.0
 11
67.6530136018992
 21
115.530540694374
 31
0.0
  0
LINE
  5
   3FF
  8
0
  6
CONTINUOUS
 62
     3
 10
70.4530185610055
 20
53.9305470839918
 30
0.0
 11
67.6530136018992
 21
53.9305470839918
 31
0.0
  0
LINE
  5
   400
  8
0
  6
CONTINUOUS
 62
     3
 10
76.4030134528875
 20
104.155562250393
 30
0.0
 11
76.4030134528875
 21
114.724209502738
 31
0.0
  0
LINE
  5
   401
  8
0
  6
CONTINUOUS
 62
     3
 10
76.4030137866319
 20
113.080550470175
 30
0.0
 11
76.4030141204179
 21
113.255550467195
 31
0.0
  0
LINE
  5
   402
  8
0
  6
CONTINUOUS
 62
     3
 10
75.3530134707689
 20
53.93056310572
 30
0.0
 11
69.4030189126729
 21
53.93056310572
 31
0.0
  0
LINE
  5
   403
  8
0
  6
CONTINUOUS
 62
     3
 10
75.3530134707689
 20
115.005547036279
 30
0.0
 11
75.3530134707689
 21
124.105556570071
 31
0.0
  0
LINE
  5
   404
  8
0
  6
CONTINUOUS
 62
     3
 10
68.7030189245938
 20
115.530551375526
 30
0.0
 11
68.0030112087738
 21
115.530551375526
 31
0.0
  0
LINE
  5
   405
  8
0
  6
CONTINUOUS
 62
     3
 10
69.4030135720968
 20
104.155562250393
 30
0.0
 11
69.4030135720968
 21
115.530540694374
 31
0.0
  0
LINE
  5
   406
  8
0
  6
CONTINUOUS
 62
     3
 10
76.4030141844998
 20
114.724205220275
 30
0.0
 11
75.3530145551009
 21
115.005546745738
 31
0.0
  0
LINE
  5
   407
  8
0
  6
CONTINUOUS
 62
     3
 10
69.4030203738952
 20
112.623475237313
 30
0.0
 11
69.5080160937578
 21
112.668175853016
 31
0.0
  0
LINE
  5
   408
  8
0
  6
CONTINUOUS
 62
     3
 10
69.508010385185
 20
114.192937382456
 30
0.0
 11
69.4030146599026
 21
114.237632657871
 31
0.0
  0
LINE
  5
   409
  8
0
  6
CONTINUOUS
 62
     3
 10
102.477996987105
 20
31.285557883757
 30
0.0
 11
69.5079986166944
 21
31.285557883757
 31
0.0
  0
LINE
  5
   40A
  8
0
  6
CONTINUOUS
 62
     2
 10
102.477996987103
 20
30.3055581674753
 30
0.0
 11
86.5574139147235
 21
30.3055581674753
 31
0.0
  0
LINE
  5
   40B
  8
0
  6
CONTINUOUS
 62
     2
 10
86.5574032335713
 20
30.3055581674761
 30
0.0
 11
68.5279975652685
 21
30.3055581674761
 31
0.0
  0
LINE
  5
   40C
  8
0
  6
CONTINUOUS
 62
     3
 10
103.177996975182
 20
54.455557756203
 30
0.0
 11
86.7279972553243
 21
54.455557756203
 31
0.0
  0
LINE
  5
   40D
  8
0
  6
CONTINUOUS
 62
     2
 10
68.5279975652685
 20
30.3055581674751
 30
0.0
 11
68.5279975652685
 21
38.7055526838478
 31
0.0
  0
LINE
  5
   40E
  8
0
  6
CONTINUOUS
 62
     2
 10
69.5079972815503
 20
38.7055526838478
 30
0.0
 11
68.0029975742092
 21
38.7055526838478
 31
0.0
  0
LINE
  5
   40F
  8
0
  6
CONTINUOUS
 62
     3
 10
69.5079972815503
 20
31.285559218901
 30
0.0
 11
69.5079972815503
 21
38.7055526838478
 31
0.0
  0
LINE
  5
   410
  8
0
  6
CONTINUOUS
 62
     3
 10
86.7279972553243
 20
53.9305524245676
 30
0.0
 11
86.7279972553243
 21
54.455557756203
 31
0.0
  0
LINE
  5
   411
  8
0
  6
CONTINUOUS
 62
     2
 10
69.5079972815503
 20
40.105552660006
 30
0.0
 11
69.5079972815503
 21
53.7555577681242
 31
0.0
  0
LINE
  5
   412
  8
0
  6
CONTINUOUS
 62
     3
 10
82.9654973193993
 20
30.3055581674759
 30
0.0
 11
82.9654973193993
 21
31.2855578837577
 31
0.0
  0
LINE
  5
   413
  8
0
  6
CONTINUOUS
 62
     2
 10
102.477996987103
 20
29.4305581823765
 30
0.0
 11
102.477996987103
 21
33.9805581048902
 31
0.0
  0
LINE
  5
   414
  8
0
  6
CONTINUOUS
 62
     3
 10
83.0485753209142
 20
30.3055581674757
 30
0.0
 11
83.0485753209142
 21
31.2855568823996
 31
0.0
  0
LINE
  5
   415
  8
0
  6
CONTINUOUS
 62
     7
 10
67.6529973131408
 20
40.1055524902752
 30
0.0
 11
67.6529973131408
 21
53.7555522578171
 31
0.0
  0
LINE
  5
   416
  8
0
  6
CONTINUOUS
 62
     7
 10
69.5079972815503
 20
53.7555522578171
 30
0.0
 11
67.6529973131408
 21
53.7555522578171
 31
0.0
  0
LINE
  5
   417
  8
0
  6
CONTINUOUS
 62
     7
 10
69.5079972815503
 20
40.1055524902752
 30
0.0
 11
67.6529973131408
 21
40.1055524902752
 31
0.0
  0
LINE
  5
   418
  8
0
  6
CONTINUOUS
 62
     7
 10
68.5279972982396
 20
40.1055524902752
 30
0.0
 11
68.5279972982396
 21
53.7555522578171
 31
0.0
  0
LINE
  5
   419
  8
0
  6
CONTINUOUS
 62
     2
 10
69.5079972815503
 20
38.7055526838478
 30
0.0
 11
69.5079972815503
 21
40.105552660006
 31
0.0
  0
LINE
  5
   41A
  8
0
  6
CONTINUOUS
 62
     7
 10
70.4530185610055
 20
53.7555577681242
 30
0.0
 11
70.4530185610055
 21
55.1555577442823
 31
0.0
  0
LINE
  5
   41B
  8
0
  6
CONTINUOUS
 62
     7
 10
70.4530185610055
 20
53.7555577681242
 30
0.0
 11
69.0530184179544
 21
53.7555577681242
 31
0.0
  0
LINE
  5
   41C
  8
0
  6
CONTINUOUS
 62
     7
 10
102.477996987103
 20
29.4305581823765
 30
0.0
 11
67.6529975801696
 21
29.4305581823765
 31
0.0
  0
LINE
  5
   41D
  8
0
  6
CONTINUOUS
 62
     7
 10
67.6529975801696
 20
29.4305581823765
 30
0.0
 11
67.6529975801696
 21
38.3555526898083
 31
0.0
  0
LINE
  5
   41E
  8
0
  6
CONTINUOUS
 62
     7
 10
68.0029975742092
 20
38.3555526898083
 30
0.0
 11
67.6529975801696
 21
38.3555526898083
 31
0.0
  0
LINE
  5
   41F
  8
0
  6
CONTINUOUS
 62
     7
 10
68.0029975742092
 20
38.3555526898083
 30
0.0
 11
68.0029975742092
 21
38.7055526838478
 31
0.0
  0
LINE
  5
   420
  8
0
  6
CONTINUOUS
 62
     7
 10
69.5780187427997
 20
53.7555577681242
 30
0.0
 11
68.1780184328555
 21
53.7555577681242
 31
0.0
  0
LINE
  5
   421
  8
0
  6
CONTINUOUS
 62
     7
 10
57.8530371330438
 20
59.0055536765477
 30
0.0
 11
57.8530191085989
 21
60.4055629987139
 31
0.0
  0
LINE
  5
   422
  8
0
  6
CONTINUOUS
 62
     3
 10
62.6475640099096
 20
56.5555523812456
 30
0.0
 11
62.7530186914175
 21
56.5555537163896
 31
0.0
  0
LINE
  5
   423
  8
0
  6
CONTINUOUS
 62
     7
 10
57.8530191086554
 20
55.1555550764279
 30
0.0
 11
57.8530364655277
 21
56.5555497120099
 31
0.0
  0
LINE
  5
   424
  8
0
  6
CONTINUOUS
 62
     7
 10
103.877997108855
 20
55.1555137158882
 30
0.0
 11
103.177997120776
 21
55.1555577756408
 31
0.0
  0
LINE
  5
   425
  8
0
  6
CONTINUOUS
 62
     7
 10
59.6030190795661
 20
55.1555550739943
 30
0.0
 11
101.42799166441
 21
55.1555577442823
 31
0.0
  0
LINE
  5
   426
  8
0
  6
CONTINUOUS
 62
     7
 10
119.103007385135
 20
104.155562250393
 30
0.0
 11
103.877991622687
 21
104.155562250393
 31
0.0
  0
LINE
  5
   427
  8
0
  6
CONTINUOUS
 62
     7
 10
119.10300738557
 20
55.1554696248433
 30
0.0
 11
103.877996963698
 21
55.1555136845951
 31
0.0
  0
LINE
  5
   428
  8
0
  6
CONTINUOUS
 62
     7
 10
119.103007385185
 20
55.1554696248074
 30
0.0
 11
119.103012725761
 21
59.0055456624515
 31
0.0
  0
LINE
  5
   429
  8
0
  6
CONTINUOUS
 62
     3
 10
89.5280132293701
 20
92.9555677817043
 30
0.0
 11
57.8530191093682
 21
92.9555677817043
 31
0.0
  0
LINE
  5
   42A
  8
0
  6
CONTINUOUS
 62
     3
 10
89.5280132293701
 20
82.45555193879
 30
0.0
 11
77.453006759286
 21
82.45555193879
 31
0.0
  0
LINE
  5
   42B
  8
0
  6
CONTINUOUS
 62
     7
 10
57.8530364662402
 20
56.5555497095776
 30
0.0
 11
57.8530371338122
 21
59.0055536732864
 31
0.0
  0
LINE
  5
   42C
  8
0
  6
CONTINUOUS
 62
     7
 10
103.877991622687
 20
104.155562250393
 30
0.0
 11
57.8530191093682
 21
104.155562250393
 31
0.0
  0
LINE
  5
   42D
  8
0
  6
CONTINUOUS
 62
     7
 10
57.8530191093682
 20
92.9555677817043
 30
0.0
 11
57.8530191093682
 21
104.155562250393
 31
0.0
  0
LINE
  5
   42E
  8
0
  6
CONTINUOUS
 62
     3
 10
93.6404917971465
 20
56.5555710719091
 30
0.0
 11
102.477996987221
 21
56.5555870936372
 31
0.0
  0
LINE
  5
   42F
  8
0
  6
CONTINUOUS
 62
     3
 10
79.3342634029783
 20
56.5555630610202
 30
0.0
 11
92.2404918208819
 21
56.555571071884
 31
0.0
  0
LINE
  5
   430
  8
0
  6
CONTINUOUS
 62
     3
 10
59.2530571371354
 20
56.5555497095801
 30
0.0
 11
77.934264094387
 21
56.5555617258761
 31
0.0
  0
LINE
  5
   431
  8
0
  6
CONTINUOUS
 62
     3
 10
59.2530604749955
 20
58.13055368819
 30
0.0
 11
77.934264761959
 21
58.1305657044864
 31
0.0
  0
LINE
  5
   432
  8
0
  6
CONTINUOUS
 62
     3
 10
79.3342647381223
 20
58.1305670396304
 30
0.0
 11
92.2404944911699
 21
58.1305750504943
 31
0.0
  0
LINE
  5
   433
  8
0
  6
CONTINUOUS
 62
     3
 10
93.6404944673313
 20
58.1305763856381
 30
0.0
 11
102.477996987118
 21
58.1305817262142
 31
0.0
  0
LINE
  5
   434
  8
0
  6
CONTINUOUS
 62
     3
 10
59.2530571371196
 20
56.5555497096259
 30
0.0
 11
59.2530598074077
 21
58.1305536882358
 31
0.0
  0
LINE
  5
   435
  8
0
  6
CONTINUOUS
 62
     3
 10
102.477996987105
 20
56.5555870936089
 30
0.0
 11
102.477996987105
 21
58.1305817262107
 31
0.0
  0
LINE
  5
   436
  8
0
  6
CONTINUOUS
 62
     3
 10
93.6404917970685
 20
56.5555710719347
 30
0.0
 11
93.6404944673565
 21
58.1305830614088
 31
0.0
  0
LINE
  5
   437
  8
0
  6
CONTINUOUS
 62
     3
 10
92.2404918209083
 20
56.5555710719302
 30
0.0
 11
92.2404944911964
 21
58.1305817262603
 31
0.0
  0
LINE
  5
   438
  8
0
  6
CONTINUOUS
 62
     3
 10
79.334263402973
 20
56.55556306103
 30
0.0
 11
79.3342647381171
 21
58.1305737153601
 31
0.0
  0
LINE
  5
   439
  8
0
  6
CONTINUOUS
 62
     3
 10
77.9342640943864
 20
56.5555617258849
 30
0.0
 11
77.9342654295304
 21
58.130573715359
 31
0.0
  0
LINE
  5
   43A
  8
0
  6
CONTINUOUS
 62
     7
 10
70.4530185610055
 20
53.7555577681242
 30
0.0
 11
70.4530185610055
 21
55.1555577442823
 31
0.0
  0
LINE
  5
   43B
  8
0
  6
CONTINUOUS
 62
     7
 10
70.4530185610055
 20
53.7555577681242
 30
0.0
 11
69.0530184179544
 21
53.7555577681242
 31
0.0
  0
LINE
  5
   43C
  8
0
  6
CONTINUOUS
 62
     7
 10
98.3655184194445
 20
53.7555764601404
 30
0.0
 11
98.3655184194445
 21
55.1555524037062
 31
0.0
  0
LINE
  5
   43D
  8
0
  6
CONTINUOUS
 62
     7
 10
99.7655183956026
 20
53.7555764601404
 30
0.0
 11
99.7655183956026
 21
55.1555524037062
 31
0.0
  0
LINE
  5
   43E
  8
0
  6
CONTINUOUS
 62
     7
 10
99.7655183956026
 20
53.7555764601404
 30
0.0
 11
98.3655184194445
 21
53.7555764601404
 31
0.0
  0
LINE
  5
   43F
  8
0
  6
CONTINUOUS
 62
     7
 10
59.6030190795659
 20
53.4930577725945
 30
0.0
 11
59.6030190795659
 21
54.3680577576934
 31
0.0
  0
LINE
  5
   440
  8
0
  6
CONTINUOUS
 62
     7
 10
57.8530191093682
 20
53.4930577725945
 30
0.0
 11
57.8530191093682
 21
55.1555550739943
 31
0.0
  0
LINE
  5
   441
  8
0
  6
CONTINUOUS
 62
     7
 10
59.6030190795659
 20
53.4930577725945
 30
0.0
 11
57.8530191093682
 21
53.4930577725945
 31
0.0
  0
LINE
  5
   442
  8
0
  6
CONTINUOUS
 62
     7
 10
59.6030190795659
 20
54.3680577576934
 30
0.0
 11
59.6030190795659
 21
55.1555577442823
 31
0.0
  0
LINE
  5
   443
  8
0
  6
CONTINUOUS
 62
     7
 10
101.427986323834
 20
53.4930577725945
 30
0.0
 11
101.427986323834
 21
54.3680577576934
 31
0.0
  0
LINE
  5
   444
  8
0
  6
CONTINUOUS
 62
     7
 10
103.177986294032
 20
53.4930577725945
 30
0.0
 11
101.427986323834
 21
53.4930577725945
 31
0.0
  0
LINE
  5
   445
  8
0
  6
CONTINUOUS
 62
     7
 10
103.177986294776
 20
53.4930577731794
 30
0.0
 11
103.177996975928
 21
55.1555577448672
 31
0.0
  0
LINE
  5
   446
  8
0
  6
CONTINUOUS
 62
     7
 10
101.427986324623
 20
54.3680577583853
 30
0.0
 11
101.427991665199
 21
55.1555524043982
 31
0.0
  0
LINE
  5
   447
  8
0
  6
CONTINUOUS
 62
     3
 10
60.3030164431813
 20
96.9805737525527
 30
0.0
 11
59.2530164379971
 21
98.030573757737
 31
0.0
  0
LINE
  5
   448
  8
0
  6
CONTINUOUS
 62
     7
 10
57.8530191093682
 20
60.4055629954514
 30
0.0
 11
57.8530191093682
 21
82.4555599496541
 31
0.0
  0
LINE
  5
   449
  8
0
  6
CONTINUOUS
 62
     3
 10
77.4530054241418
 20
82.4555572793665
 30
0.0
 11
57.8530191093681
 21
82.4555599496545
 31
0.0
  0
LINE
  5
   44A
  8
0
  6
CONTINUOUS
 62
     3
 10
89.5280132293701
 20
82.45555193879
 30
0.0
 11
89.5280132293701
 21
92.9555677817043
 31
0.0
  0
LINE
  5
   44B
  8
0
  6
CONTINUOUS
 62
     3
 10
93.6404917970432
 20
99.5180623293804
 30
0.0
 11
102.477996987118
 21
99.5180676699566
 31
0.0
  0
LINE
  5
   44C
  8
0
  6
CONTINUOUS
 62
     3
 10
93.6404917970303
 20
96.9805623725829
 30
0.0
 11
93.6404917970303
 21
99.5180623293695
 31
0.0
  0
LINE
  5
   44D
  8
0
  6
CONTINUOUS
 62
     3
 10
93.6404917970432
 20
96.9805623725933
 30
0.0
 11
102.477996987118
 21
96.9805677131695
 31
0.0
  0
LINE
  5
   44E
  8
0
  6
CONTINUOUS
 62
     3
 10
102.477996987105
 20
96.980567713159
 30
0.0
 11
102.477996987105
 21
99.5180676699456
 31
0.0
  0
LINE
  5
   44F
  8
0
  6
CONTINUOUS
 62
     3
 10
77.9342640943825
 20
96.980567713159
 30
0.0
 11
77.9342640943825
 21
99.5180676699456
 31
0.0
  0
LINE
  5
   450
  8
0
  6
CONTINUOUS
 62
     3
 10
92.2404918208722
 20
96.980567713159
 30
0.0
 11
77.9342634268105
 21
96.980567713159
 31
0.0
  0
LINE
  5
   451
  8
0
  6
CONTINUOUS
 62
     3
 10
92.2404918208722
 20
96.980567713159
 30
0.0
 11
92.2404918208722
 21
99.5180676699456
 31
0.0
  0
LINE
  5
   452
  8
0
  6
CONTINUOUS
 62
     3
 10
92.2404918208722
 20
99.5180676699456
 30
0.0
 11
77.9342634268105
 21
99.5180676699456
 31
0.0
  0
LINE
  5
   453
  8
0
  6
CONTINUOUS
 62
     3
 10
76.5342641182244
 20
96.980567713159
 30
0.0
 11
59.2530197530984
 21
96.980567713159
 31
0.0
  0
LINE
  5
   454
  8
0
  6
CONTINUOUS
 62
     3
 10
76.5342641182244
 20
96.980567713159
 30
0.0
 11
76.5342641182244
 21
99.5180676699456
 31
0.0
  0
LINE
  5
   455
  8
0
  6
CONTINUOUS
 62
     3
 10
76.5342641182244
 20
99.5180676699456
 30
0.0
 11
59.2530197530984
 21
99.5180676699456
 31
0.0
  0
LINE
  5
   456
  8
0
  6
CONTINUOUS
 62
     3
 10
59.2530190855264
 20
96.980567713159
 30
0.0
 11
59.2530190855264
 21
99.5180676699456
 31
0.0
  0
LINE
  5
   457
  8
0
  6
CONTINUOUS
 62
     3
 10
62.7530186921357
 20
56.5555537150084
 30
0.0
 11
62.7530186921357
 21
58.1305616990504
 31
0.0
  0
LINE
  5
   458
  8
0
  6
CONTINUOUS
 62
     3
 10
64.1530196696519
 20
56.5555537150084
 30
0.0
 11
64.1530196696519
 21
58.1305630341944
 31
0.0
  0
LINE
  5
   459
  8
0
  6
CONTINUOUS
 62
     3
 10
59.2531559377877
 20
56.5555403635713
 30
0.0
 11
59.2531566053597
 21
58.1305536881894
 31
0.0
  0
LINE
  5
   45A
  8
0
  6
CONTINUOUS
 62
     7
 10
57.8530191093008
 20
55.1555363822083
 30
0.0
 11
57.8530204444448
 21
55.5055617439843
 31
0.0
  0
LINE
  5
   45B
  8
0
  6
CONTINUOUS
 62
     7
 10
103.877994301531
 20
55.1555136863728
 30
0.0
 11
103.17799698374
 21
55.155524367525
 31
0.0
  0
LINE
  5
   45C
  8
0
  6
CONTINUOUS
 62
     7
 10
119.103012725711
 20
59.0055456624213
 30
0.0
 11
119.103007385135
 21
104.15556091525
 31
0.0
  0
LINE
  5
   45D
  8
0
  6
CONTINUOUS
 62
     3
 10
93.6587138426185
 20
56.5555643961606
 30
0.0
 11
93.6587138426185
 21
58.1305763856346
 31
0.0
  0
LINE
  5
   45E
  8
0
  6
CONTINUOUS
 62
     3
 10
92.2400672450738
 20
56.5555483744323
 30
0.0
 11
92.2400672450738
 21
58.1305750504906
 31
0.0
  0
LINE
  5
   45F
  8
0
  6
CONTINUOUS
 62
     3
 10
73.602997478843
 20
70.1180468083203
 30
0.0
 11
68.8780189216136
 21
70.1180468083203
 31
0.0
  0
LINE
  5
   460
  8
0
  6
CONTINUOUS
 62
     3
 10
73.602997478843
 20
66.4430468709052
 30
0.0
 11
68.8780189216136
 21
66.4430468709052
 31
0.0
  0
LINE
  5
   461
  8
0
  6
CONTINUOUS
 62
     3
 10
68.8780187547206
 20
66.4430468709052
 30
0.0
 11
68.8780187547206
 21
70.1180468083203
 31
0.0
  0
LINE
  5
   462
  8
0
  6
CONTINUOUS
 62
     3
 10
73.602997478843
 20
66.4430468709052
 30
0.0
 11
73.602997478843
 21
70.1180468083203
 31
0.0
  0
LINE
  5
   463
  8
0
  6
CONTINUOUS
 62
   130
 10
63.978010326624
 20
106.78056220569
 30
0.0
 11
54.0030098289252
 21
106.78056220569
 31
0.0
  0
LINE
  5
   464
  8
0
  6
CONTINUOUS
 62
   130
 10
63.978010326624
 20
105.730562223571
 30
0.0
 11
63.978010326624
 21
106.78056220569
 31
0.0
  0
LINE
  5
   465
  8
0
  6
CONTINUOUS
 62
   130
 10
63.978010326624
 20
104.155562250393
 30
0.0
 11
63.978010326624
 21
105.730562223571
 31
0.0
  0
LINE
  5
   466
  8
0
  6
CONTINUOUS
 62
     3
 10
63.978010326624
 20
57.7805643752989
 30
0.0
 11
63.978010326624
 21
58.1305563584743
 31
0.0
  0
LINE
  5
   467
  8
0
  6
CONTINUOUS
 62
     3
 10
63.978010326624
 20
57.7805643752989
 30
0.0
 11
62.7530186921357
 21
57.7805643752989
 31
0.0
  0
LINE
  5
   468
  8
0
  6
CONTINUOUS
 62
   130
 10
57.8530371338125
 20
57.7805643752989
 30
0.0
 11
54.0030084937812
 21
57.7805643752989
 31
0.0
  0
LINE
  5
   469
  8
0
  6
CONTINUOUS
 62
   130
 10
52.0780098617078
 20
106.080562217611
 30
0.0
 11
52.0780098617078
 21
106.78056220569
 31
0.0
  0
LINE
  5
   46A
  8
0
  6
CONTINUOUS
 62
     3
 10
64.1530196696519
 20
57.7805630401549
 30
0.0
 11
63.978010326624
 21
57.7805630401549
 31
0.0
  0
LINE
  5
   46B
  8
0
  6
CONTINUOUS
 62
     2
 10
67.6530100971461
 20
106.78056220569
 30
0.0
 11
63.978010159731
 21
106.78056220569
 31
0.0
  0
LINE
  5
   46C
  8
0
  6
CONTINUOUS
 62
     3
 10
60.303060457109
 20
56.5555590555878
 30
0.0
 11
60.303059789537
 21
58.1305603639098
 31
0.0
  0
LINE
  5
   46D
  8
0
  6
CONTINUOUS
 62
     3
 10
102.477996987105
 20
97.5055677042183
 30
0.0
 11
93.6404971376064
 21
97.5055677042183
 31
0.0
  0
LINE
  5
   46E
  8
0
  6
CONTINUOUS
 62
     3
 10
92.2404944911602
 20
97.5055677042183
 30
0.0
 11
77.9342674322426
 21
97.5055677042183
 31
0.0
  0
LINE
  5
   46F
  8
0
  6
CONTINUOUS
 62
     3
 10
76.5342674560844
 20
97.5055677042183
 30
0.0
 11
60.303019067645
 21
97.5055677042183
 31
0.0
  0
LINE
  5
   470
  8
0
  6
CONTINUOUS
 62
     3
 10
60.0405203329495
 20
97.2430733367205
 30
0.0
 11
60.3030203342455
 21
97.5055733380166
 31
0.0
  0
LINE
  5
   471
  8
0
  6
CONTINUOUS
 62
     3
 10
60.303019067645
 20
97.5055677042183
 30
0.0
 11
60.303019067645
 21
99.5180676699456
 31
0.0
  0
LINE
  5
   472
  8
0
  6
CONTINUOUS
 62
     3
 10
69.7530187398194
 20
67.3617968552589
 30
0.0
 11
69.7530187398194
 21
67.8049658693183
 31
0.0
  0
LINE
  5
   473
  8
0
  6
CONTINUOUS
 62
     3
 10
69.7530187398194
 20
67.8049658693183
 30
0.0
 11
69.7530187398194
 21
68.2805468396127
 31
0.0
  0
LINE
  5
   474
  8
0
  6
CONTINUOUS
 62
     3
 10
69.7530187398194
 20
68.2805468396127
 30
0.0
 11
69.7530187398194
 21
68.7561278099072
 31
0.0
  0
LINE
  5
   475
  8
0
  6
CONTINUOUS
 62
     3
 10
69.7530187398194
 20
68.7561278099072
 30
0.0
 11
69.7530187398194
 21
69.1992968239665
 31
0.0
  0
LINE
  5
   476
  8
0
  6
CONTINUOUS
 62
     3
 10
69.7530187398194
 20
69.1992968239665
 30
0.0
 11
69.7530187398194
 21
69.5798555943411
 31
0.0
  0
LINE
  5
   477
  8
0
  6
CONTINUOUS
 62
     3
 10
69.7530187398194
 20
69.5798555943411
 30
0.0
 11
69.7530187398194
 21
69.8718676132939
 31
0.0
  0
LINE
  5
   478
  8
0
  6
CONTINUOUS
 62
     3
 10
69.7530187398194
 20
69.8718676132939
 30
0.0
 11
69.7530187398194
 21
70.0554365646356
 31
0.0
  0
LINE
  5
   479
  8
0
  6
CONTINUOUS
 62
     3
 10
69.7530187398194
 20
70.0554365646356
 30
0.0
 11
69.7530187398194
 21
70.1180468083203
 31
0.0
  0
LINE
  5
   47A
  8
0
  6
CONTINUOUS
 62
     3
 10
69.7530187398194
 20
66.4430468709052
 30
0.0
 11
69.7530187398194
 21
66.5056571145899
 31
0.0
  0
LINE
  5
   47B
  8
0
  6
CONTINUOUS
 62
     3
 10
69.7530187398194
 20
66.5056571145899
 30
0.0
 11
69.7530187398194
 21
66.6892260659315
 31
0.0
  0
LINE
  5
   47C
  8
0
  6
CONTINUOUS
 62
     3
 10
69.7530187398194
 20
66.6892260659315
 30
0.0
 11
69.7530187398194
 21
66.9812380848844
 31
0.0
  0
LINE
  5
   47D
  8
0
  6
CONTINUOUS
 62
     3
 10
69.7530187398194
 20
66.9812380848844
 30
0.0
 11
69.7530187398194
 21
67.3617968552589
 31
0.0
  0
LINE
  5
   47E
  8
0
  6
CONTINUOUS
 62
     7
 10
57.8530191093674
 20
82.4555599496544
 30
0.0
 11
57.8530191093674
 21
92.9555677817042
 31
0.0
  0
LINE
  5
   47F
  8
0
  6
CONTINUOUS
 62
     7
 10
52.0780098617078
 20
102.580562277215
 30
0.0
 11
52.0780098617078
 21
106.080562217611
 31
0.0
  0
CIRCLE
  5
   480
  8
0
  6
CONTINUOUS
 62
     7
 10
62.0529916736917
 20
77.2055471386571
 30
0.0
 40
3.49999920427875
  0
CIRCLE
  5
   481
  8
0
  6
CONTINUOUS
 62
     7
 10
62.0529915233797
 20
77.2055468847477
 30
0.0
 40
0.962500513221885
  0
CIRCLE
  5
   482
  8
0
  6
CONTINUOUS
 62
     7
 10
111.927995418977
 20
96.1055754904352
 30
0.0
 40
2.10000119521557
  0
CIRCLE
  5
   483
  8
0
  6
CONTINUOUS
 62
     7
 10
111.927998013916
 20
96.1055720525265
 30
0.0
 40
1.13749792246321
  0
CIRCLE
  5
   484
  8
0
  6
CONTINUOUS
 62
     7
 10
111.927995437699
 20
61.1055600047571
 30
0.0
 40
2.10000165327577
  0
CIRCLE
  5
   485
  8
0
  6
CONTINUOUS
 62
     7
 10
111.927993610745
 20
61.1055617734413
 30
0.0
 40
1.13749951227535
  0
LINE
  5
   486
  8
0
  6
DASHDOT
 62
     7
 10
111.927995437699
 20
58.6555583574418
 30
0.0
 11
111.927995437699
 21
63.5555616520724
 31
0.0
  0
LINE
  5
   487
  8
0
  6
DASHDOT
 62
     7
 10
114.377997085014
 20
61.1055600047571
 30
0.0
 11
109.477993790384
 21
61.1055600047571
 31
0.0
  0
LINE
  5
   488
  8
0
  6
DASHDOT
 62
     7
 10
111.927995418977
 20
93.6555743011801
 30
0.0
 11
111.927995418977
 21
98.5555766796903
 31
0.0
  0
LINE
  5
   489
  8
0
  6
DASHDOT
 62
     7
 10
114.377996608232
 20
96.1055754904352
 30
0.0
 11
109.477994229722
 21
96.1055754904352
 31
0.0
  0
LINE
  5
   48A
  8
0
  6
DASHDOT
 62
     7
 10
62.0529916736917
 20
73.3555479403388
 30
0.0
 11
62.0529916736917
 21
81.0555463369754
 31
0.0
  0
LINE
  5
   48B
  8
0
  6
DASHDOT
 62
     7
 10
65.90299087201
 20
77.2055471386571
 30
0.0
 11
58.2029924753734
 21
77.2055471386571
 31
0.0
  0
LINE
  5
   48C
  8
0
  6
CONTINUOUS
 62
     3
 10
84.2780133187771
 20
82.45555193879
 30
0.0
 11
84.2780133187771
 21
92.9555677817043
 31
0.0
  0
LINE
  5
   48D
  8
0
  6
DASHDOT
 62
     2
 10
131.931379209418
 20
82.2805639580664
 30
0.0
 11
31.4666130509734
 21
82.2805639580664
 31
0.0
  0
LINE
  5
   48E
  8
0
  6
DASHDOT
 62
     2
 10
128.063380238145
 20
98.2055623517213
 30
0.0
 11
116.244858570357
 21
98.2055623517213
 31
0.0
  0
LINE
  5
   48F
  8
0
  6
DASHDOT
 62
     2
 10
128.811261540971
 20
56.205565737265
 30
0.0
 11
116.244858570357
 21
56.205565737265
 31
0.0
  0
LINE
  5
   490
  8
0
  6
DASHDOT
 62
     2
 10
128.677379935221
 20
77.2055627093491
 30
0.0
 11
112.744004178806
 21
77.2055627093491
 31
0.0
  0
LINE
  5
   491
  8
0
  6
DOT
 62
     7
 10
120.502996680141
 20
15.04388375611
 30
0.0
 11
120.502996680141
 21
173.336494448102
 31
0.0
  0
LINE
  5
   492
  8
0
  6
DOT
 62
     7
 10
121.552996662259
 20
15.3078004383238
 30
0.0
 11
121.552996662259
 21
171.371675030121
 31
0.0
  0
LINE
  5
   493
  8
0
  6
DOT
 62
     7
 10
127.502996560931
 20
101.530562295097
 30
0.0
 11
127.502996560931
 21
102.580562277215
 31
0.0
  0
LINE
  5
   494
  8
0
  6
CONTINUOUS
 62
     7
 10
124.352996614576
 20
100.722062308866
 30
0.0
 11
121.552996662259
 21
100.722062308866
 31
0.0
  0
LINE
  5
   495
  8
0
  6
CONTINUOUS
 62
     7
 10
124.352996614576
 20
95.689062394577
 30
0.0
 11
121.552996662259
 21
95.689062394577
 31
0.0
  0
LINE
  5
   496
  8
0
  6
CONTINUOUS
 62
     7
 10
124.352996614576
 20
95.689062394577
 30
0.0
 11
124.352996614576
 21
100.722062308866
 31
0.0
  0
LINE
  5
   497
  8
0
  6
CONTINUOUS
 62
     7
 10
124.352996614576
 20
53.6890631098327
 30
0.0
 11
124.352996614576
 21
58.7220630241213
 31
0.0
  0
LINE
  5
   498
  8
0
  6
CONTINUOUS
 62
     7
 10
124.352996614576
 20
53.6890631098327
 30
0.0
 11
121.552996662259
 21
53.6890631098327
 31
0.0
  0
LINE
  5
   499
  8
0
  6
CONTINUOUS
 62
     7
 10
124.352996614576
 20
58.7220630241213
 30
0.0
 11
121.552996662259
 21
58.7220630241213
 31
0.0
  0
LINE
  5
   49A
  8
0
  6
CONTINUOUS
 62
     7
 10
54.0030084937812
 20
30.4096715513221
 30
0.0
 11
54.0030084937812
 21
50.2555645034489
 31
0.0
  0
LINE
  5
   49B
  8
0
  6
CONTINUOUS
 62
     7
 10
53.3030085057021
 20
30.2638700270875
 30
0.0
 11
53.3030085057021
 21
54.1055631027398
 31
0.0
  0
LINE
  5
   49C
  8
0
  6
CONTINUOUS
 62
     7
 10
55.4516736746377
 20
173.142837179601
 30
0.0
 11
52.2895676852103
 21
174.009866241218
 31
0.0
  0
LINE
  5
   49D
  8
0
  6
CONTINUOUS
 62
     7
 10
53.3030085057021
 20
54.1055631027398
 30
0.0
 11
53.3030085057021
 21
173.731987306567
 31
0.0
  0
LINE
  5
   49E
  8
0
  6
CONTINUOUS
 62
     7
 10
56.8030097812415
 20
66.0056343302891
 30
0.0
 11
56.8030097812415
 21
70.5555621550259
 31
0.0
  0
LINE
  5
   49F
  8
0
  6
CONTINUOUS
 62
     1
 10
52.0780098617078
 20
47.9805645421919
 30
0.0
 11
52.0780098617078
 21
65.6555622384724
 31
0.0
  0
LINE
  5
   4A0
  8
0
  6
CONTINUOUS
 62
     1
 10
52.0780098617078
 20
75.7180620671091
 30
0.0
 11
52.0780098617078
 21
116.580563373941
 31
0.0
  0
LINE
  5
   4A1
  8
0
  6
CONTINUOUS
 62
     1
 10
54.0030098289252
 20
83.330564607757
 30
0.0
 11
54.0030098289252
 21
112.205563448447
 31
0.0
  0
LINE
  5
   4A2
  8
0
  6
CONTINUOUS
 62
     1
 10
54.0030098289252
 20
70.5555621550259
 30
0.0
 11
54.0030098289252
 21
81.2305673138079
 31
0.0
  0
LINE
  5
   4A3
  8
0
  6
CONTINUOUS
 62
     7
 10
55.5780098021031
 20
112.407634825621
 30
0.0
 11
55.5780098021031
 21
114.10349203551
 31
0.0
  0
LINE
  5
   4A4
  8
0
  6
CONTINUOUS
 62
     7
 10
55.5780098021031
 20
81.4326360206938
 30
0.0
 11
55.5780098021031
 21
83.128490560295
 31
0.0
  0
LINE
  5
   4A5
  8
0
  6
CONTINUOUS
 62
     7
 10
52.4280098557473
 20
65.6555622384724
 30
0.0
 11
52.0780098617078
 21
65.6555622384724
 31
0.0
  0
LINE
  5
   4A6
  8
0
  6
CONTINUOUS
 62
     7
 10
52.4280098557473
 20
64.2555622623143
 30
0.0
 11
52.4280098557473
 21
65.6555622384724
 31
0.0
  0
LINE
  5
   4A7
  8
0
  6
CONTINUOUS
 62
     7
 10
52.7780098497868
 20
64.2555622623143
 30
0.0
 11
52.4280098557473
 21
64.2555622623143
 31
0.0
  0
LINE
  5
   4A8
  8
0
  6
CONTINUOUS
 62
     7
 10
52.7780098497868
 20
64.2555622623143
 30
0.0
 11
52.7780098497868
 21
72.3055621252236
 31
0.0
  0
LINE
  5
   4A9
  8
0
  6
CONTINUOUS
 62
     7
 10
52.7780098497868
 20
72.3055621252236
 30
0.0
 11
52.4280098557473
 21
72.3055621252236
 31
0.0
  0
LINE
  5
   4AA
  8
0
  6
CONTINUOUS
 62
     7
 10
52.4280098557473
 20
70.9055621490655
 30
0.0
 11
52.4280098557473
 21
72.3055621252236
 31
0.0
  0
LINE
  5
   4AB
  8
0
  6
CONTINUOUS
 62
     7
 10
52.4280098557473
 20
70.9055621490655
 30
0.0
 11
52.0780098617078
 21
70.9055621490655
 31
0.0
  0
LINE
  5
   4AC
  8
0
  6
CONTINUOUS
 62
     7
 10
56.8030097812415
 20
66.0056343302891
 30
0.0
 11
53.3030098408461
 21
66.0056343302891
 31
0.0
  0
LINE
  5
   4AD
  8
0
  6
CONTINUOUS
 62
     7
 10
56.8030097812415
 20
70.5555621550259
 30
0.0
 11
53.3030098408461
 21
70.5555621550259
 31
0.0
  0
LINE
  5
   4AE
  8
0
  6
CONTINUOUS
 62
     1
 10
52.0780098617078
 20
70.9055621490655
 30
0.0
 11
52.0780098617078
 21
75.7180647373971
 31
0.0
  0
LINE
  5
   4AF
  8
0
  6
CONTINUOUS
 62
     7
 10
55.2280098080636
 20
112.205563448447
 30
0.0
 11
53.3030098408461
 21
112.205563448447
 31
0.0
  0
LINE
  5
   4B0
  8
0
  6
CONTINUOUS
 62
     7
 10
55.2280098080636
 20
114.305563412684
 30
0.0
 11
53.3030098408461
 21
114.305563412684
 31
0.0
  0
LINE
  5
   4B1
  8
0
  6
CONTINUOUS
 62
     7
 10
55.2280098080636
 20
112.205562734308
 30
0.0
 11
55.2280098080636
 21
114.305562818738
 31
0.0
  0
LINE
  5
   4B2
  8
0
  6
CONTINUOUS
 62
     7
 10
55.2280097445687
 20
112.20556269765
 30
0.0
 11
55.5780097501326
 21
112.407634077357
 31
0.0
  0
LINE
  5
   4B3
  8
0
  6
CONTINUOUS
 62
     7
 10
55.5780103165484
 20
114.10349114867
 30
0.0
 11
55.2280103109845
 21
114.305562528378
 31
0.0
  0
LINE
  5
   4B4
  8
0
  6
CONTINUOUS
 62
     7
 10
55.2280098080636
 20
81.2305646435198
 30
0.0
 11
53.3030098408461
 21
81.2305646435198
 31
0.0
  0
LINE
  5
   4B5
  8
0
  6
CONTINUOUS
 62
     7
 10
55.2280098080636
 20
83.330564607757
 30
0.0
 11
53.3030098408461
 21
83.330564607757
 31
0.0
  0
LINE
  5
   4B6
  8
0
  6
CONTINUOUS
 62
     7
 10
55.2280098080636
 20
81.2305646435198
 30
0.0
 11
55.2280098080636
 21
83.330564607757
 31
0.0
  0
LINE
  5
   4B7
  8
0
  6
CONTINUOUS
 62
     7
 10
55.2280098556694
 20
81.2305642134433
 30
0.0
 11
55.5780098612333
 21
81.4326355931508
 31
0.0
  0
LINE
  5
   4B8
  8
0
  6
CONTINUOUS
 62
     7
 10
55.5780103619626
 20
83.1284897723793
 30
0.0
 11
55.228010356399
 21
83.3305638190407
 31
0.0
  0
LINE
  5
   4B9
  8
0
  6
CONTINUOUS
 62
     7
 10
54.0030084937812
 20
52.3555644676861
 30
0.0
 11
54.0030084937812
 21
66.0056343302891
 31
0.0
  0
LINE
  5
   4BA
  8
0
  6
CONTINUOUS
 62
     7
 10
54.0030098289252
 20
65.6556343362495
 30
0.0
 11
53.3030098408461
 21
65.6556343362495
 31
0.0
  0
LINE
  5
   4BB
  8
0
  6
CONTINUOUS
 62
     7
 10
54.0030098289252
 20
70.9055621490655
 30
0.0
 11
53.3030098408461
 21
70.9055621490655
 31
0.0
  0
LINE
  5
   4BC
  8
0
  6
CONTINUOUS
 62
     7
 10
54.0030098289252
 20
83.5055646047768
 30
0.0
 11
53.3030098408461
 21
83.5055646047768
 31
0.0
  0
LINE
  5
   4BD
  8
0
  6
CONTINUOUS
 62
     7
 10
54.0030098289252
 20
81.0555646465001
 30
0.0
 11
53.3030098408461
 21
81.0555646465001
 31
0.0
  0
LINE
  5
   4BE
  8
0
  6
CONTINUOUS
 62
     7
 10
54.0030084937812
 20
114.305563412684
 30
0.0
 11
54.0030084937812
 21
173.540051825964
 31
0.0
  0
LINE
  5
   4BF
  8
0
  6
CONTINUOUS
 62
     7
 10
54.0030084937812
 20
114.480563409704
 30
0.0
 11
53.3030098408461
 21
114.480563409704
 31
0.0
  0
LINE
  5
   4C0
  8
0
  6
CONTINUOUS
 62
     7
 10
54.0030084937812
 20
112.030563451427
 30
0.0
 11
53.3030098408461
 21
112.030563451427
 31
0.0
  0
LINE
  5
   4C1
  8
0
  6
CONTINUOUS
 62
   130
 10
52.0780098617078
 20
65.6555622384724
 30
0.0
 11
52.0780098617078
 21
70.9055621490655
 31
0.0
  0
LINE
  5
   4C2
  8
0
  6
CONTINUOUS
 62
     7
 10
51.0523653123301
 20
29.7950882932445
 30
0.0
 11
56.2817584877517
 21
30.8843075915057
 31
0.0
  0
INSERT
  5
   4C3
  8
0
  6
CONTINUOUS
 62
     7
  2
*HATCH335
 10
67.1280136108398
 20
39.3225975036621
 30
0.0
 41
0.349999994039536
 42
0.349999994039536
 50
89.9999999480344
 43
0.349999994039536
  0
INSERT
  5
   4C4
  8
255
  6
CONTINUOUS
 62
     7
  2
BASETT
 10
103.177996975184
 20
25.5805690805007
 30
0.0
 41
0.349999994039536
 42
0.349999994039536
 50
3.50835464724173E-15
 43
0.349999994039536
  0
LINE
  5
   4C5
  8
0
  6
DOT
 62
     7
 10
127.502996560931
 20
102.580562277215
 30
0.0
 11
122.077996653319
 21
102.580562277215
 31
0.0
  0
LINE
  5
   4C6
  8
0
  6
DOT
 62
     7
 10
127.502996560931
 20
101.530562295097
 30
0.0
 11
122.077996653319
 21
101.530562295097
 31
0.0
  0
LINE
  5
   4C7
  8
0
  6
DOT
 62
     7
 10
127.502996560931
 20
51.8305631414828
 30
0.0
 11
122.077996653319
 21
51.8305631414828
 31
0.0
  0
LINE
  5
   4C8
  8
0
  6
DOT
 62
     7
 10
127.502996560931
 20
52.8805631236014
 30
0.0
 11
122.077996653319
 21
52.8805631236014
 31
0.0
  0
LINE
  5
   4C9
  8
0
  6
DOT
 62
     7
 10
127.502996560931
 20
51.8305631414828
 30
0.0
 11
127.502996560931
 21
52.8805631236014
 31
0.0
  0
ARC
  5
   4CA
  8
0
  6
DOT
 62
     7
 10
122.077996653319
 20
53.4055631146607
 30
0.0
 40
0.524999991059303
 50
179.999999948034
 51
269.999999948034
  0
ARC
  5
   4CB
  8
0
  6
DOT
 62
     7
 10
122.077996653319
 20
53.4055631146607
 30
0.0
 40
1.57499997317791
 50
179.999999948034
 51
269.999999948034
  0
ARC
  5
   4CC
  8
0
  6
DOT
 62
     7
 10
122.077996653319
 20
101.005562304038
 30
0.0
 40
1.57499997317791
 50
89.9999999480344
 51
179.999999948034
  0
ARC
  5
   4CD
  8
0
  6
DOT
 62
     7
 10
122.077996653319
 20
101.005562304038
 30
0.0
 40
0.524999991059303
 50
89.9999999480344
 51
179.999999948034
  0
LINE
  5
   4CE
  8
0
  6
CONTINUOUS
 62
     7
 10
54.0030084937812
 20
50.0805645064291
 30
0.0
 11
53.3030098408461
 21
50.0805645064291
 31
0.0
  0
LINE
  5
   4CF
  8
0
  6
CONTINUOUS
 62
     7
 10
55.2280098080636
 20
50.2555645034489
 30
0.0
 11
53.3030098408461
 21
50.2555645034489
 31
0.0
  0
LINE
  5
   4D0
  8
0
  6
CONTINUOUS
 62
     7
 10
55.2280098080636
 20
52.3555644676861
 30
0.0
 11
53.3030098408461
 21
52.3555644676861
 31
0.0
  0
LINE
  5
   4D1
  8
0
  6
CONTINUOUS
 62
     7
 10
54.0030084937812
 20
52.5305644647059
 30
0.0
 11
53.3030098408461
 21
52.5305644647059
 31
0.0
  0
LINE
  5
   4D2
  8
0
  6
CONTINUOUS
 62
     7
 10
55.2280098080636
 20
50.2555650973953
 30
0.0
 11
55.2280098080636
 21
52.3555651818244
 31
0.0
  0
LINE
  5
   4D3
  8
0
  6
CONTINUOUS
 62
     7
 10
55.5780098021031
 20
50.4576358806229
 30
0.0
 11
55.5780098021031
 21
52.1534930905121
 31
0.0
  0
LINE
  5
   4D4
  8
0
  6
CONTINUOUS
 62
     7
 10
55.5780097501326
 20
52.1534938387754
 30
0.0
 11
55.2280097445687
 21
52.3555652184829
 31
0.0
  0
LINE
  5
   4D5
  8
0
  6
CONTINUOUS
 62
     7
 10
55.2280103109845
 20
50.255565387755
 30
0.0
 11
55.5780103165484
 21
50.4576367674625
 31
0.0
  0
LINE
  5
   4D6
  8
0
  6
CONTINUOUS
 62
     7
 10
53.3030098408461
 20
116.580563373941
 30
0.0
 11
52.0780098617078
 21
116.580563373941
 31
0.0
  0
LINE
  5
   4D7
  8
0
  6
CONTINUOUS
 62
     7
 10
53.3030098408461
 20
47.9805645421919
 30
0.0
 11
52.0780098617078
 21
47.9805645421919
 31
0.0
  0
INSERT
  5
   4D8
  8
0
  6
CONTINUOUS
 62
     7
  2
*HATCH336
 10
67.1280136108398
 20
39.3225975036621
 30
0.0
 41
0.349999994039536
 42
0.349999994039536
 50
89.9999999480344
 43
0.349999994039536
  0
INSERT
  5
   4D9
  8
0
  6
CONTINUOUS
 62
     7
  2
*HATCH337
 10
67.1280136108398
 20
39.3225975036621
 30
0.0
 41
0.349999994039536
 42
0.349999994039536
 50
89.9999999480344
 43
0.349999994039536
  0
INSERT
  5
   4DA
  8
0
  6
CONTINUOUS
 62
     7
  2
*HATCH338
 10
67.1280136108398
 20
39.3225975036621
 30
0.0
 41
0.349999994039536
 42
0.349999994039536
 50
89.9999999480344
 43
0.349999994039536
  0
INSERT
  5
   4DB
  8
0
  6
CONTINUOUS
 62
     7
  2
*HATCH339
 10
67.1280136108398
 20
39.3225975036621
 30
0.0
 41
0.349999994039536
 42
0.349999994039536
 50
89.9999999480344
 43
0.349999994039536
  0
LINE
  5
   4DC
  8
0
  6
CONTINUOUS
 62
     7
 10
57.3280077695848
 20
107.305563531893
 30
0.0
 11
56.4530057817699
 21
107.305563531893
 31
0.0
  0
LINE
  5
   4DD
  8
0
  6
CONTINUOUS
 62
     7
 10
57.3280077695848
 20
107.305563531893
 30
0.0
 11
57.3280077695848
 21
110.980563469308
 31
0.0
  0
LINE
  5
   4DE
  8
0
  6
CONTINUOUS
 62
     7
 10
56.1030057877304
 20
112.205563448447
 30
0.0
 11
55.2280058026315
 21
112.205563448447
 31
0.0
  0
LINE
  5
   4DF
  8
0
  6
CONTINUOUS
 62
     7
 10
54.878005808592
 20
114.305563412684
 30
0.0
 11
54.878005808592
 21
115.355563394803
 31
0.0
  0
LINE
  5
   4E0
  8
0
  6
CONTINUOUS
 62
     7
 10
54.878005808592
 20
115.355563394803
 30
0.0
 11
54.0030084937812
 21
115.355563394803
 31
0.0
  0
LINE
  5
   4E1
  8
0
  6
CONTINUOUS
 62
     7
 10
56.1030057877304
 20
111.330563463348
 30
0.0
 11
55.2280058026315
 21
111.330563463348
 31
0.0
  0
LINE
  5
   4E2
  8
0
  6
CONTINUOUS
 62
     7
 10
56.4530057817699
 20
107.305563531893
 30
0.0
 11
56.4530057817699
 21
110.980563469308
 31
0.0
  0
ARC
  5
   4E3
  8
0
  6
CONTINUOUS
 62
     7
 10
56.1030006590031
 20
110.980559029102
 30
0.0
 40
1.2250064377287
 50
360.000319242658
 51
449.999813057862
  0
ARC
  5
   4E4
  8
0
  6
CONTINUOUS
 62
     7
 10
56.1030212745826
 20
110.980577782482
 30
0.0
 40
0.349982431475061
 50
359.998830132094
 51
450.002235749312
  0
ARC
  5
   4E5
  8
0
  6
CONTINUOUS
 62
     7
 10
55.2279990292981
 20
112.555552226059
 30
0.0
 40
1.22498984871903
 50
196.601143374767
 51
270.000346548696
  0
LINE
  5
   4E6
  8
0
  6
CONTINUOUS
 62
     7
 10
57.3280077695848
 20
110.455563478249
 30
0.0
 11
56.4530057817699
 21
110.455563478249
 31
0.0
  0
INSERT
  5
   4E7
  8
0
  6
CONTINUOUS
 62
     7
  2
*HATCH340
 10
67.1280136108398
 20
39.3225975036621
 30
0.0
 41
0.349999994039536
 42
0.349999994039536
 50
89.9999999480344
 43
0.349999994039536
  0
LINE
  5
   4E8
  8
0
  6
DOT
 62
     7
 10
47.7410634162847
 20
106.78056220569
 30
0.0
 11
42.4530100256205
 21
106.78056220569
 31
0.0
  0
LINE
  5
   4E9
  8
0
  6
DOT
 62
     7
 10
42.4530100256205
 20
57.7805643752989
 30
0.0
 11
42.4530100256205
 21
106.78056220569
 31
0.0
  0
LINE
  5
   4EA
  8
0
  6
DOT
 62
     7
 10
48.2280372977253
 20
57.7805643752989
 30
0.0
 11
42.4530100256205
 21
57.7805643752989
 31
0.0
  0
LINE
  5
   4EB
  8
0
  6
CONTINUOUS
 62
     7
 10
125.752996590734
 20
57.6055657134232
 30
0.0
 11
121.552996662259
 21
57.6055657134232
 31
0.0
  0
LINE
  5
   4EC
  8
0
  6
CONTINUOUS
 62
     7
 10
125.752996590734
 20
54.8055657611069
 30
0.0
 11
121.552996662259
 21
54.8055657611069
 31
0.0
  0
LINE
  5
   4ED
  8
0
  6
CONTINUOUS
 62
     7
 10
125.752996590734
 20
54.8055657611069
 30
0.0
 11
125.752996590734
 21
57.6055657134232
 31
0.0
  0
LINE
  5
   4EE
  8
0
  6
CONTINUOUS
 62
     7
 10
125.752996590734
 20
99.6055623278794
 30
0.0
 11
121.552996662259
 21
99.6055623278794
 31
0.0
  0
LINE
  5
   4EF
  8
0
  6
CONTINUOUS
 62
     7
 10
125.752996590734
 20
96.8055623755631
 30
0.0
 11
121.552996662259
 21
96.8055623755631
 31
0.0
  0
LINE
  5
   4F0
  8
0
  6
CONTINUOUS
 62
     7
 10
125.752996590734
 20
96.8055623755631
 30
0.0
 11
125.752996590734
 21
99.6055623278794
 31
0.0
  0
LINE
  5
   4F1
  8
0
  6
CONTINUOUS
 62
   130
 10
103.177988913655
 20
168.73054728508
 30
0.0
 11
102.302989262343
 21
168.73054728508
 31
0.0
  0
LINE
  5
   4F2
  8
0
  6
CONTINUOUS
 62
   130
 10
103.177988913655
 20
165.230542004108
 30
0.0
 11
102.302989262343
 21
165.230542004108
 31
0.0
  0
LINE
  5
   4F3
  8
0
  6
CONTINUOUS
 62
   130
 10
103.177988913655
 20
165.230542004108
 30
0.0
 11
103.177988913655
 21
165.698376468798
 31
0.0
  0
LINE
  5
   4F4
  8
0
  6
CONTINUOUS
 62
   130
 10
103.177988913655
 20
165.698408512254
 30
0.0
 11
103.177988913655
 21
166.303250115723
 31
0.0
  0
LINE
  5
   4F5
  8
0
  6
CONTINUOUS
 62
   130
 10
103.177988913655
 20
166.303292840332
 30
0.0
 11
103.177988913655
 21
168.730546951294
 31
0.0
  0
LINE
  5
   4F6
  8
0
  6
CONTINUOUS
 62
   130
 10
102.302989260974
 20
160.155542097279
 30
0.0
 11
102.652989255017
 21
160.155547437855
 31
0.0
  0
LINE
  5
   4F7
  8
0
  6
CONTINUOUS
 62
   130
 10
102.302989208537
 20
160.155532553502
 30
0.0
 11
102.30298989697
 21
160.366298388421
 31
0.0
  0
LINE
  5
   4F8
  8
0
  6
CONTINUOUS
 62
   130
 10
102.302989262343
 20
160.155542090535
 30
0.0
 11
102.302989262343
 21
173.28053652644
 31
0.0
  0
LINE
  5
   4F9
  8
0
  6
CONTINUOUS
 62
     3
 10
67.6530112147342
 20
115.985542842746
 30
0.0
 11
67.6530112147342
 21
163.830526006222
 31
0.0
  0
LINE
  5
   4FA
  8
0
  6
CONTINUOUS
 62
     3
 10
102.652989256382
 20
123.049820833399
 30
0.0
 11
102.652989256382
 21
159.10931235772
 31
0.0
  0
LINE
  5
   4FB
  8
0
  6
CONTINUOUS
 62
     3
 10
69.4030111849319
 20
163.83054202795
 30
0.0
 11
67.6530112147342
 21
163.83054202795
 31
0.0
  0
LINE
  5
   4FC
  8
0
  6
CONTINUOUS
 62
   130
 10
102.652989256382
 20
159.10931235772
 30
0.0
 11
102.652989256382
 21
160.155547431111
 31
0.0
  0
LINE
  5
   4FD
  8
0
  6
CONTINUOUS
 62
     7
 10
102.302989262343
 20
173.28053652644
 30
0.0
 11
68.0905112072837
 21
173.28053652644
 31
0.0
  0
LINE
  5
   4FE
  8
0
  6
CONTINUOUS
 62
     7
 10
67.6530112147342
 20
164.285542020202
 30
0.0
 11
67.6530112147342
 21
172.84303653389
 31
0.0
  0
ARC
  5
   4FF
  8
0
  6
CONTINUOUS
 62
     7
 10
68.0905112072837
 20
172.84303653389
 30
0.0
 40
0.437499992549419
 50
449.999999948034
 51
539.999999948034
  0
LINE
  5
   500
  8
0
  6
CONTINUOUS
 62
     7
 10
68.0030112087738
 20
163.83054202795
 30
0.0
 11
68.0030112087738
 21
164.285542020202
 31
0.0
  0
LINE
  5
   501
  8
0
  6
CONTINUOUS
 62
     7
 10
68.0030112087738
 20
164.285542020202
 30
0.0
 11
67.6530112147342
 21
164.285542020202
 31
0.0
  0
LINE
  5
   502
  8
0
  6
CONTINUOUS
 62
     7
 10
102.302989262343
 20
171.530536556242
 30
0.0
 11
69.4030111849319
 21
171.530536556242
 31
0.0
  0
LINE
  5
   503
  8
0
  6
CONTINUOUS
 62
     7
 10
69.4030111849319
 20
115.635537508128
 30
0.0
 11
69.4030111849319
 21
163.83054202795
 31
0.0
  0
LINE
  5
   504
  8
0
  6
CONTINUOUS
 62
     7
 10
69.5780111819517
 20
104.155562250393
 30
0.0
 11
69.5780111819517
 21
124.105537363885
 31
0.0
  0
LINE
  5
   505
  8
0
  6
CONTINUOUS
 62
     7
 10
102.302989262343
 20
171.355536559222
 30
0.0
 11
69.5780111819517
 21
171.355536559222
 31
0.0
  0
LINE
  5
   506
  8
0
  6
CONTINUOUS
 62
     7
 10
69.4030111849319
 20
163.935536685584
 30
0.0
 11
68.0030112087738
 21
163.935536685584
 31
0.0
  0
LINE
  5
   507
  8
0
  6
CONTINUOUS
 62
     7
 10
69.4030135720968
 20
115.635537508128
 30
0.0
 11
68.0030112087738
 21
115.635537508128
 31
0.0
  0
LINE
  5
   508
  8
0
  6
CONTINUOUS
 62
     7
 10
68.0030112087738
 20
115.985537502168
 30
0.0
 11
67.6530136018992
 21
115.985537502168
 31
0.0
  0
LINE
  5
   509
  8
0
  6
CONTINUOUS
 62
     7
 10
68.0030112087738
 20
115.530551375526
 30
0.0
 11
68.0030112087738
 21
115.985542842746
 31
0.0
  0
LINE
  5
   50A
  8
0
  6
CONTINUOUS
 62
     7
 10
69.4030111849319
 20
163.935536685584
 30
0.0
 11
69.4030111849319
 21
171.530536556242
 31
0.0
  0
LINE
  5
   50B
  8
0
  6
CONTINUOUS
 62
     7
 10
102.652989256382
 20
124.105537363885
 30
0.0
 11
69.5780111819517
 21
124.105537363885
 31
0.0
  0
LINE
  5
   50C
  8
0
  6
CONTINUOUS
 62
     7
 10
102.652989256382
 20
124.280537360905
 30
0.0
 11
69.5780111819517
 21
124.280537360905
 31
0.0
  0
LINE
  5
   50D
  8
0
  6
CONTINUOUS
 62
     7
 10
69.5780111819517
 20
124.280537360905
 30
0.0
 11
69.5780111819517
 21
171.355536559222
 31
0.0
  0
LINE
  5
   50E
  8
0
  6
CONTINUOUS
 62
     3
 10
76.4030134528875
 20
126.730537319181
 30
0.0
 11
75.3530134707689
 21
126.730537319181
 31
0.0
  0
LINE
  5
   50F
  8
0
  6
CONTINUOUS
 62
     3
 10
76.4030134528875
 20
163.130536699293
 30
0.0
 11
75.3530134707689
 21
163.130536699293
 31
0.0
  0
LINE
  5
   510
  8
0
  6
CONTINUOUS
 62
     3
 10
75.3530134707689
 20
124.280537360905
 30
0.0
 11
75.3530134707689
 21
126.730537319181
 31
0.0
  0
LINE
  5
   511
  8
0
  6
CONTINUOUS
 62
     3
 10
76.4030134528875
 20
126.730537319181
 30
0.0
 11
76.4030134528875
 21
163.130536699293
 31
0.0
  0
LINE
  5
   512
  8
0
  6
CONTINUOUS
 62
     3
 10
75.3530134707689
 20
163.130536699293
 30
0.0
 11
75.3530134707689
 21
171.530536556242
 31
0.0
  0
LINE
  5
   513
  8
0
  6
CONTINUOUS
 62
     7
 10
42.9882129308596
 20
185.928971915289
 30
0.0
 11
34.2537559599861
 21
185.928971915289
 31
0.0
  0
LINE
  5
   514
  8
0
  6
CONTINUOUS
 62
     7
 10
34.2537559599861
 20
151.227210436413
 30
0.0
 11
34.2537559599861
 21
185.928971915289
 31
0.0
  0
TEXT
  5
   515
  8
0
  6
CONTINUOUS
 62
     7
 10
133.166402164651
 20
80.8296803572279
 30
0.0
 40
2.99999997871263
  1
X
 50
359.999999948034
 41
0.91666663951344
 72
     2
 11
135.366402100364
 21
80.8296803552436
 31
0.0
  0
INSERT
  5
   516
  8
0
  6
CONTINUOUS
 62
     7
  2
*UDIM1764
 10
0.0
 20
0.0
 30
0.0
  0
INSERT
  5
   517
  8
0
  6
CONTINUOUS
 62
     7
  2
*UDIM1765
 10
0.0
 20
0.0
 30
0.0
  0
INSERT
  5
   518
  8
0
  6
CONTINUOUS
 62
     7
  2
*UDIM1766
 10
0.0
 20
0.0
 30
0.0
  0
INSERT
  5
   519
  8
0
  6
CONTINUOUS
 62
     7
  2
*UDIM1767
 10
0.0
 20
0.0
 30
0.0
  0
TEXT
  5
   51A
  8
0
  6
CONTINUOUS
 62
     7
 10
33.5380997701937
 20
131.311662966124
 30
0.0
 40
2.00000003448554
  1
              CORSA DI SEZIONAMENTO
 50
89.9999999480344
 41
0.749999888539317
 72
     1
 11
32.5380997765901
 21
157.411659539784
 31
0.0
 73
     2
  0
TEXT
  5
   51B
  8
0
  6
CONTINUOUS
 62
     7
 10
37.048099765412
 20
136.561662276423
 30
0.0
 40
2.00000003448554
  1
          ISOLATING DISTANCE
 50
89.9999999480344
 41
0.749999888539317
 72
     1
 11
36.0480997670534
 21
157.411659539784
 31
0.0
 73
     2
  0
INSERT
  5
   51C
  8
0
  6
CONTINUOUS
 62
     7
  2
*UDIM1768
 10
0.0
 20
0.0
 30
0.0
  0
INSERT
  5
   51D
  8
0
  6
CONTINUOUS
 62
     7
  2
*UDIM1769
 10
0.0
 20
0.0
 30
0.0
  0
INSERT
  5
   51E
  8
0
  6
CONTINUOUS
 62
     7
  2
*UDIM1770
 10
0.0
 20
0.0
 30
0.0
  0
INSERT
  5
   51F
  8
0
  6
CONTINUOUS
 62
     7
  2
*UDIM1771
 10
0.0
 20
0.0
 30
0.0
  0
INSERT
  5
   520
  8
0
  6
CONTINUOUS
 62
     7
  2
*UDIM1772
 10
0.0
 20
0.0
 30
0.0
  0
INSERT
  5
   521
  8
0
  6
CONTINUOUS
 62
     7
  2
*UDIM1773
 10
0.0
 20
0.0
 30
0.0
  0
INSERT
  5
   522
  8
0
  6
CONTINUOUS
 62
     7
  2
*UDIM1774
 10
0.0
 20
0.0
 30
0.0
  0
INSERT
  5
   523
  8
0
  6
CONTINUOUS
 62
     7
  2
*UDIM1775
 10
0.0
 20
0.0
 30
0.0
  0
INSERT
  5
   524
  8
0
  6
CONTINUOUS
 62
     7
  2
*UDIM1776
 10
0.0
 20
0.0
 30
0.0
  0
INSERT
  5
   525
  8
0
  6
CONTINUOUS
 62
     7
  2
*UDIM1777
 10
0.0
 20
0.0
 30
0.0
  0
INSERT
  5
   526
  8
0
  6
CONTINUOUS
 62
     7
  2
*UDIM1778
 10
0.0
 20
0.0
 30
0.0
  0
INSERT
  5
   527
  8
0
  6
CONTINUOUS
 62
     7
  2
*UDIM1779
 10
0.0
 20
0.0
 30
0.0
  0
INSERT
  5
   528
  8
0
  6
CONTINUOUS
 62
     7
  2
*UDIM1780
 10
0.0
 20
0.0
 30
0.0
  0
INSERT
  5
   529
  8
0
  6
CONTINUOUS
 62
     7
  2
*UDIM1781
 10
0.0
 20
0.0
 30
0.0
  0
INSERT
  5
   52A
  8
0
  6
CONTINUOUS
 62
     7
  2
*UDIM1782
 10
0.0
 20
0.0
 30
0.0
  0
INSERT
  5
   52B
  8
0
  6
CONTINUOUS
 62
     7
  2
*UDIM1783
 10
0.0
 20
0.0
 30
0.0
  0
TEXT
  5
   52C
  8
0
  6
CONTINUOUS
 62
     7
 10
44.637474190954
 20
82.7122521418117
 30
0.0
 40
2.99999997871263
  1
X
 50
359.999999948034
 41
0.91666663951344
 72
     2
 11
46.8374741266661
 21
82.7122521398274
 31
0.0
  0
INSERT
  5
   52D
  8
0
  6
CONTINUOUS
 62
     7
  2
*UDIM1784
 10
0.0
 20
0.0
 30
0.0
  0
INSERT
  5
   52E
  8
0
  6
CONTINUOUS
 62
     7
  2
*UDIM1785
 10
0.0
 20
0.0
 30
0.0
  0
LINE
  5
   52F
  8
0
  6
CONTINUOUS
 62
     7
 10
249.314385888938
 20
9.83059055961894
 30
0.0
 11
263.31438565052
 21
9.83059055961894
 31
0.0
  0
LINE
  5
   530
  8
0
  6
CONTINUOUS
 62
     7
 10
224.814386306171
 20
9.83059055961894
 30
0.0
 11
238.814386067752
 21
9.83059055961894
 31
0.0
  0
LINE
  5
   531
  8
0
  6
CONTINUOUS
 62
     7
 10
200.314386723403
 20
9.83059055961894
 30
0.0
 11
214.314386484985
 21
9.83059055961894
 31
0.0
  0
LINE
  5
   532
  8
0
  6
CONTINUOUS
 62
     7
 10
200.314386723403
 20
9.83059055961894
 30
0.0
 11
200.314386723403
 21
25.5805662588057
 31
0.0
  0
LINE
  5
   533
  8
0
  6
CONTINUOUS
 62
     7
 10
214.314386484985
 20
9.83059055961894
 30
0.0
 11
214.314386484985
 21
25.5805662588057
 31
0.0
  0
LINE
  5
   534
  8
0
  6
CONTINUOUS
 62
     7
 10
224.814386306171
 20
9.83059055961894
 30
0.0
 11
224.814386306171
 21
25.5805662588057
 31
0.0
  0
LINE
  5
   535
  8
0
  6
CONTINUOUS
 62
     7
 10
238.814386067752
 20
9.83059055961894
 30
0.0
 11
238.814386067752
 21
25.5805662588057
 31
0.0
  0
LINE
  5
   536
  8
0
  6
CONTINUOUS
 62
     7
 10
249.314385888938
 20
9.83059055961894
 30
0.0
 11
249.314385888938
 21
25.5805662588057
 31
0.0
  0
LINE
  5
   537
  8
0
  6
CONTINUOUS
 62
     7
 10
263.31438565052
 20
9.83059055961894
 30
0.0
 11
263.31438565052
 21
25.5805662588057
 31
0.0
  0
CIRCLE
  5
   538
  8
0
  6
CONTINUOUS
 62
     7
 10
256.314387414197
 20
16.8305913164864
 30
0.0
 40
2.44999792508453
  0
CIRCLE
  5
   539
  8
0
  6
CONTINUOUS
 62
     7
 10
231.814377300087
 20
16.8305788654453
 30
0.0
 40
2.4500088234543
  0
CIRCLE
  5
   53A
  8
0
  6
CONTINUOUS
 62
     7
 10
207.314386491129
 20
16.8305551224184
 30
0.0
 40
2.4499673102628
  0
LINE
  5
   53B
  8
0
  6
DASHDOT
 62
     7
 10
207.314386491129
 20
14.9055878032149
 30
0.0
 11
207.314386491129
 21
20.5055224118196
 31
0.0
  0
LINE
  5
   53C
  8
0
  6
DASHDOT
 62
     7
 10
204.514419186827
 20
16.8305551224184
 30
0.0
 11
210.114353795432
 21
16.8305551224184
 31
0.0
  0
LINE
  5
   53D
  8
0
  6
DASHDOT
 62
     7
 10
231.814377300087
 20
14.9055700330503
 30
0.0
 11
231.814377300087
 21
20.505587668038
 31
0.0
  0
LINE
  5
   53E
  8
0
  6
DASHDOT
 62
     7
 10
229.014368482593
 20
16.8305788654453
 30
0.0
 11
234.614386117581
 21
16.8305788654453
 31
0.0
  0
LINE
  5
   53F
  8
0
  6
DASHDOT
 62
     7
 10
256.314387414197
 20
14.9055933824612
 30
0.0
 11
256.314387414197
 21
20.5055892207093
 31
0.0
  0
LINE
  5
   540
  8
0
  6
DASHDOT
 62
     7
 10
253.514389495073
 20
16.8305913164864
 30
0.0
 11
259.114385333321
 21
16.8305913164864
 31
0.0
  0
LINE
  5
   541
  8
0
  6
CONTINUOUS
 62
     1
 10
195.50189457487
 20
53.9305522548369
 30
0.0
 11
198.214385254057
 21
53.9305522548369
 31
0.0
  0
LINE
  5
   542
  8
0
  6
CONTINUOUS
 62
     1
 10
195.151894601692
 20
54.2805522280148
 30
0.0
 11
198.214385254057
 21
54.2805522280148
 31
0.0
  0
LINE
  5
   543
  8
0
  6
CONTINUOUS
 62
     1
 10
195.50189457487
 20
53.9305522548369
 30
0.0
 11
195.50189457487
 21
54.2805522280148
 31
0.0
  0
LINE
  5
   544
  8
0
  6
CONTINUOUS
 62
     1
 10
267.006889105547
 20
116.580563628791
 30
0.0
 11
267.006889105547
 21
163.760536688564
 31
0.0
  0
LINE
  5
   545
  8
0
  6
CONTINUOUS
 62
     1
 10
267.811890159954
 20
116.580563628791
 30
0.0
 11
267.811890159954
 21
163.760536688564
 31
0.0
  0
LINE
  5
   546
  8
0
  6
CONTINUOUS
 62
     1
 10
261.966891327609
 20
116.580563628791
 30
0.0
 11
261.966891327609
 21
163.760536688564
 31
0.0
  0
LINE
  5
   547
  8
0
  6
CONTINUOUS
 62
     1
 10
263.226888101805
 20
116.580563628791
 30
0.0
 11
263.226888101805
 21
163.760536688564
 31
0.0
  0
LINE
  5
   548
  8
0
  6
CONTINUOUS
 62
     1
 10
264.486890216578
 20
116.580563628791
 30
0.0
 11
264.486890216578
 21
163.760536688564
 31
0.0
  0
LINE
  5
   549
  8
0
  6
CONTINUOUS
 62
     1
 10
265.746892331351
 20
116.580563628791
 30
0.0
 11
265.746892331351
 21
163.760536688564
 31
0.0
  0
LINE
  5
   54A
  8
0
  6
CONTINUOUS
 62
     1
 10
258.186890323866
 20
116.580563628791
 30
0.0
 11
258.186890323866
 21
163.760536688564
 31
0.0
  0
LINE
  5
   54B
  8
0
  6
CONTINUOUS
 62
     1
 10
259.446892438639
 20
116.580563628791
 30
0.0
 11
259.446892438639
 21
163.760536688564
 31
0.0
  0
LINE
  5
   54C
  8
0
  6
CONTINUOUS
 62
     1
 10
260.706889212836
 20
116.580563628791
 30
0.0
 11
260.706889212836
 21
163.760536688564
 31
0.0
  0
LINE
  5
   54D
  8
0
  6
CONTINUOUS
 62
     1
 10
196.6218945099
 20
98.6430461528115
 30
0.0
 11
196.6218945099
 21
115.460537511108
 31
0.0
  0
LINE
  5
   54E
  8
0
  6
CONTINUOUS
 62
     1
 10
195.816894456852
 20
98.6430461528115
 30
0.0
 11
195.816894456852
 21
115.460537511108
 31
0.0
  0
LINE
  5
   54F
  8
0
  6
CONTINUOUS
 62
     1
 10
201.661891286481
 20
116.580563628791
 30
0.0
 11
201.661891286481
 21
163.760536688564
 31
0.0
  0
LINE
  5
   550
  8
0
  6
CONTINUOUS
 62
     1
 10
200.401894512285
 20
116.580563628791
 30
0.0
 11
200.401894512285
 21
163.760536688564
 31
0.0
  0
LINE
  5
   551
  8
0
  6
CONTINUOUS
 62
     1
 10
197.881894288171
 20
98.6430461528115
 30
0.0
 11
197.881894288171
 21
115.460537511108
 31
0.0
  0
LINE
  5
   552
  8
0
  6
CONTINUOUS
 62
     1
 10
206.701894404996
 20
116.580563628791
 30
0.0
 11
206.701894404996
 21
163.760536688564
 31
0.0
  0
LINE
  5
   553
  8
0
  6
CONTINUOUS
 62
     1
 10
205.441892290224
 20
116.580563628791
 30
0.0
 11
205.441892290224
 21
163.760536688564
 31
0.0
  0
LINE
  5
   554
  8
0
  6
CONTINUOUS
 62
     1
 10
204.181890175451
 20
116.580563628791
 30
0.0
 11
204.181890175451
 21
163.760536688564
 31
0.0
  0
LINE
  5
   555
  8
0
  6
CONTINUOUS
 62
     1
 10
202.921893401254
 20
116.580563628791
 30
0.0
 11
202.921893401254
 21
163.760536688564
 31
0.0
  0
LINE
  5
   556
  8
0
  6
CONTINUOUS
 62
     1
 10
197.881894288171
 20
61.8930467786602
 30
0.0
 11
197.881894288171
 21
98.6430461528115
 31
0.0
  0
LINE
  5
   557
  8
0
  6
CONTINUOUS
 62
     1
 10
196.6218945099
 20
61.8930467786602
 30
0.0
 11
196.6218945099
 21
98.6430461528115
 31
0.0
  0
LINE
  5
   558
  8
0
  6
CONTINUOUS
 62
     1
 10
195.816894456852
 20
61.8930467786602
 30
0.0
 11
195.816894456852
 21
98.6430461528115
 31
0.0
  0
LINE
  5
   559
  8
0
  6
CONTINUOUS
 62
     1
 10
196.6218945099
 20
54.2805522280148
 30
0.0
 11
196.6218945099
 21
61.8930467577986
 31
0.0
  0
LINE
  5
   55A
  8
0
  6
CONTINUOUS
 62
     1
 10
195.816894456852
 20
54.2805522280148
 30
0.0
 11
195.816894456852
 21
61.8930467577986
 31
0.0
  0
LINE
  5
   55B
  8
0
  6
CONTINUOUS
 62
     1
 10
197.881894288171
 20
54.2805522280148
 30
0.0
 11
197.881894288171
 21
61.8930467577986
 31
0.0
  0
ARC
  5
   55C
  8
0
  6
CONTINUOUS
 62
     1
 10
195.326894598711
 20
98.4680461557917
 30
0.0
 40
0.174999997019768
 50
90.0
 51
180.0
  0
ARC
  5
   55D
  8
0
  6
CONTINUOUS
 62
     1
 10
195.326894598711
 20
62.06804677568
 30
0.0
 40
0.174999997019768
 50
180.0
 51
270.0
  0
LINE
  5
   55E
  8
0
  6
CONTINUOUS
 62
     1
 10
224.464386312131
 20
84.905557067912
 30
0.0
 11
239.164386061792
 21
84.905557067912
 31
0.0
  0
LINE
  5
   55F
  8
0
  6
CONTINUOUS
 62
     7
 10
224.464386312131
 20
85.0711683321815
 30
0.0
 11
239.164386061792
 21
85.0711683321815
 31
0.0
  0
LINE
  5
   560
  8
0
  6
DASHDOT
 62
     7
 10
231.814386186962
 20
164.285536679624
 30
0.0
 11
231.814386186962
 21
173.28053652644
 31
0.0
  0
LINE
  5
   561
  8
0
  6
CONTINUOUS
 62
     1
 10
267.864369623207
 20
38.0755525248293
 30
0.0
 11
267.864369623207
 21
47.9805627943255
 31
0.0
  0
LINE
  5
   562
  8
0
  6
CONTINUOUS
 62
     1
 10
195.764394591261
 20
38.0755525248293
 30
0.0
 11
195.764394591261
 21
53.9305522548369
 31
0.0
  0
LINE
  5
   563
  8
0
  6
CONTINUOUS
 62
     1
 10
243.871885981624
 20
81.895557119172
 30
0.0
 11
243.871885981624
 21
83.1205570983104
 31
0.0
  0
LINE
  5
   564
  8
0
  6
CONTINUOUS
 62
     7
 10
224.464386312131
 20
69.68841214575
 30
0.0
 11
239.164386061792
 21
69.68841214575
 31
0.0
  0
LINE
  5
   565
  8
0
  6
CONTINUOUS
 62
     7
 10
224.464386312131
 20
72.5655898438818
 30
0.0
 11
239.164386061792
 21
72.5655898438818
 31
0.0
  0
LINE
  5
   566
  8
0
  6
CONTINUOUS
 62
     7
 10
224.464386312131
 20
66.6649543164024
 30
0.0
 11
239.164386061792
 21
66.6649543164024
 31
0.0
  0
LINE
  5
   567
  8
0
  6
CONTINUOUS
 62
     7
 10
239.164386061792
 20
72.5655898438818
 30
0.0
 11
239.164386061792
 21
85.0711683321815
 31
0.0
  0
LINE
  5
   568
  8
0
  6
CONTINUOUS
 62
     7
 10
224.464386312131
 20
72.5655898438818
 30
0.0
 11
224.464386312131
 21
85.0711683321815
 31
0.0
  0
LINE
  5
   569
  8
0
  6
CONTINUOUS
 62
     1
 10
195.326894598711
 20
98.6430461528115
 30
0.0
 11
198.214385254057
 21
98.6430461528115
 31
0.0
  0
LINE
  5
   56A
  8
0
  6
CONTINUOUS
 62
   130
 10
195.939386797909
 20
25.836504880085
 30
0.0
 11
195.939386797909
 21
29.4305526720528
 31
0.0
  0
LINE
  5
   56B
  8
0
  6
CONTINUOUS
 62
   130
 10
195.939387174864
 20
26.8055695906587
 30
0.0
 11
195.966029973392
 21
26.6716306168366
 31
0.0
  0
LINE
  5
   56C
  8
0
  6
CONTINUOUS
 62
   130
 10
195.966029788214
 20
25.7966301796372
 30
0.0
 11
196.041899345309
 21
25.6830815190853
 31
0.0
  0
LINE
  5
   56D
  8
0
  6
CONTINUOUS
 62
   130
 10
196.041899427164
 20
25.6830814442085
 30
0.0
 11
196.155448087716
 21
25.6072118871141
 31
0.0
  0
LINE
  5
   56E
  8
0
  6
CONTINUOUS
 62
   130
 10
196.155447480406
 20
25.6072115836942
 30
0.0
 11
196.289386461078
 21
25.5805661153007
 31
0.0
  0
LINE
  5
   56F
  8
0
  6
CONTINUOUS
 62
   130
 10
196.289386791949
 20
25.5805662588057
 30
0.0
 11
267.339385581975
 21
25.5805662588057
 31
0.0
  0
LINE
  5
   570
  8
0
  6
CONTINUOUS
 62
   130
 10
267.339383960559
 20
25.580566293927
 30
0.0
 11
267.473325606725
 21
25.6072117623708
 31
0.0
  0
LINE
  5
   571
  8
0
  6
CONTINUOUS
 62
   130
 10
267.473328376499
 20
25.6072118504355
 30
0.0
 11
267.586874367607
 21
25.6830814104273
 31
0.0
  0
LINE
  5
   572
  8
0
  6
CONTINUOUS
 62
   130
 10
267.586870423939
 20
25.683081085301
 30
0.0
 11
267.662738649797
 21
25.7966297405551
 31
0.0
  0
LINE
  5
   573
  8
0
  6
CONTINUOUS
 62
   130
 10
267.662740936783
 20
25.796630066548
 30
0.0
 11
267.689385070241
 21
25.9305690437954
 31
0.0
  0
LINE
  5
   574
  8
0
  6
CONTINUOUS
 62
   130
 10
267.689385576014
 20
25.9305715862959
 30
0.0
 11
267.689385576014
 21
29.4305526720528
 31
0.0
  0
LINE
  5
   575
  8
0
  6
CONTINUOUS
 62
   130
 10
196.155448579985
 20
25.6072080537936
 30
0.0
 11
196.289387553807
 21
25.5805652552659
 31
0.0
  0
LINE
  5
   576
  8
0
  6
CONTINUOUS
 62
   130
 10
196.041899276417
 20
25.683078686577
 30
0.0
 11
196.15544793412
 21
25.6072077900969
 31
0.0
  0
LINE
  5
   577
  8
0
  6
CONTINUOUS
 62
   130
 10
267.662743567909
 20
25.7966254296554
 30
0.0
 11
267.689387701382
 21
25.9305657426768
 31
0.0
  0
LINE
  5
   578
  8
0
  6
CONTINUOUS
 62
   130
 10
267.586873109958
 20
25.6830786088708
 30
0.0
 11
267.662741334377
 21
25.7966259291302
 31
0.0
  0
LINE
  5
   579
  8
0
  6
CONTINUOUS
 62
   130
 10
267.473326139003
 20
25.6072076060744
 30
0.0
 11
267.586872127268
 21
25.6830784973038
 31
0.0
  0
LINE
  5
   57A
  8
0
  6
CONTINUOUS
 62
   130
 10
267.339385502239
 20
25.5805649253894
 30
0.0
 11
267.473327149705
 21
25.6072077239202
 31
0.0
  0
LINE
  5
   57B
  8
0
  6
DASHDOT
 62
     7
 10
231.814377300087
 20
14.9055700330503
 30
0.0
 11
231.814377300087
 21
181.384558227781
 31
0.0
  0
LINE
  5
   57C
  8
0
  6
CONTINUOUS
 62
   130
 10
207.314427326094
 20
106.78056220569
 30
0.0
 11
256.314426491629
 21
106.78056220569
 31
0.0
  0
LINE
  5
   57D
  8
0
  6
CONTINUOUS
 62
   130
 10
207.314427326094
 20
57.7805643752989
 30
0.0
 11
256.314426491629
 21
57.7805643752989
 31
0.0
  0
LINE
  5
   57E
  8
0
  6
CONTINUOUS
 62
     1
 10
207.314427326094
 20
102.580562277215
 30
0.0
 11
256.314426491629
 21
102.580562277215
 31
0.0
  0
LINE
  5
   57F
  8
0
  6
CONTINUOUS
 62
     1
 10
207.314427993666
 20
106.080562217611
 30
0.0
 11
256.314427159201
 21
106.080562217611
 31
0.0
  0
LINE
  5
   580
  8
0
  6
CONTINUOUS
 62
   130
 10
207.314427326094
 20
57.7805643752989
 30
0.0
 11
207.314427326094
 21
106.780563540834
 31
0.0
  0
LINE
  5
   581
  8
0
  6
CONTINUOUS
 62
   130
 10
256.314427159201
 20
57.7805630401549
 30
0.0
 11
256.314427159201
 21
106.78056220569
 31
0.0
  0
LINE
  5
   582
  8
0
  6
CONTINUOUS
 62
   130
 10
208.539424301158
 20
101.530562295097
 30
0.0
 11
243.889421028863
 21
101.530562295097
 31
0.0
  0
LINE
  5
   583
  8
0
  6
CONTINUOUS
 62
   130
 10
208.539424301158
 20
59.0055630192933
 30
0.0
 11
243.889421028863
 21
59.0055630192933
 31
0.0
  0
LINE
  5
   584
  8
0
  6
CONTINUOUS
 62
   130
 10
208.539424301158
 20
59.0055630192933
 30
0.0
 11
208.539424301158
 21
101.530562295097
 31
0.0
  0
LINE
  5
   585
  8
0
  6
CONTINUOUS
 62
   130
 10
243.889422030221
 20
59.0055630192933
 30
0.0
 11
243.889422030221
 21
101.530562295097
 31
0.0
  0
LINE
  5
   586
  8
0
  6
CONTINUOUS
 62
     1
 10
254.214429865251
 20
86.3055625543771
 30
0.0
 11
254.214429865251
 21
87.0055358395757
 31
0.0
  0
LINE
  5
   587
  8
0
  6
CONTINUOUS
 62
     1
 10
254.214429865573
 20
85.0805625758944
 30
0.0
 11
254.214432535861
 21
84.3805625878153
 31
0.0
  0
LINE
  5
   588
  8
0
  6
CONTINUOUS
 62
     1
 10
253.164421873525
 20
77.5555627056141
 30
0.0
 11
253.164427214101
 21
78.2555626936932
 31
0.0
  0
LINE
  5
   589
  8
0
  6
CONTINUOUS
 62
     1
 10
251.44979838012
 20
64.779889129658
 30
0.0
 11
251.869412767096
 21
64.2798536557724
 31
0.0
  0
LINE
  5
   58A
  8
0
  6
CONTINUOUS
 62
     1
 10
250.919777534998
 20
65.1609267026426
 30
0.0
 11
251.44980033343
 21
64.7798899658466
 31
0.0
  0
LINE
  5
   58B
  8
0
  6
CONTINUOUS
 62
     1
 10
250.312123698931
 20
65.3993993537053
 30
0.0
 11
250.919777097422
 21
65.1609266063326
 31
0.0
  0
LINE
  5
   58C
  8
0
  6
CONTINUOUS
 62
     1
 10
249.664420878467
 20
65.4805641394963
 30
0.0
 11
250.312128631816
 21
65.3994007351047
 31
0.0
  0
LINE
  5
   58D
  8
0
  6
CONTINUOUS
 62
     1
 10
249.016713434038
 20
65.3994012811081
 30
0.0
 11
249.664421187388
 21
65.4805646854997
 31
0.0
  0
LINE
  5
   58E
  8
0
  6
CONTINUOUS
 62
     1
 10
248.409054673604
 20
65.16092635854
 30
0.0
 11
249.016708072095
 21
65.3993991059127
 31
0.0
  0
LINE
  5
   58F
  8
0
  6
CONTINUOUS
 62
     1
 10
247.879032350965
 20
64.7798898114056
 30
0.0
 11
248.409055149397
 21
65.1609265482017
 31
0.0
  0
LINE
  5
   590
  8
0
  6
CONTINUOUS
 62
     1
 10
247.459416709311
 20
64.2798555622762
 30
0.0
 11
247.87903376435
 21
64.7798910306165
 31
0.0
  0
LINE
  5
   591
  8
0
  6
CONTINUOUS
 62
     1
 10
247.459415560733
 20
61.431274037554
 30
0.0
 11
247.459415560733
 21
64.2798545401904
 31
0.0
  0
LINE
  5
   592
  8
0
  6
CONTINUOUS
 62
     1
 10
247.45941633453
 20
61.4312743129998
 30
0.0
 11
247.879033389568
 21
60.9312388446596
 31
0.0
  0
LINE
  5
   593
  8
0
  6
CONTINUOUS
 62
     1
 10
247.879032435315
 20
60.9312385277281
 30
0.0
 11
248.409055233747
 21
60.5502017909321
 31
0.0
  0
LINE
  5
   594
  8
0
  6
CONTINUOUS
 62
     1
 10
248.40905331304
 20
60.5502014551762
 30
0.0
 11
249.016706710703
 21
60.3117273770991
 31
0.0
  0
LINE
  5
   595
  8
0
  6
CONTINUOUS
 62
     1
 10
249.016713104303
 20
60.3117286755175
 30
0.0
 11
249.664420857652
 21
60.2305652711259
 31
0.0
  0
LINE
  5
   596
  8
0
  6
CONTINUOUS
 62
     1
 10
249.664421208202
 20
60.2305658171293
 30
0.0
 11
250.312128961552
 21
60.3117292215209
 31
0.0
  0
LINE
  5
   597
  8
0
  6
CONTINUOUS
 62
     1
 10
250.312121614629
 20
60.3117265032223
 30
0.0
 11
250.919775012292
 21
60.5502005812994
 31
0.0
  0
LINE
  5
   598
  8
0
  6
CONTINUOUS
 62
     1
 10
250.919777450648
 20
60.5502016364911
 30
0.0
 11
251.44980024908
 21
60.9312383732872
 31
0.0
  0
LINE
  5
   599
  8
0
  6
CONTINUOUS
 62
     1
 10
251.449797323174
 20
60.9312360208684
 30
0.0
 11
251.86941171015
 21
61.431271494754
 31
0.0
  0
LINE
  5
   59A
  8
0
  6
CONTINUOUS
 62
     1
 10
251.869414951573
 20
61.431274037554
 30
0.0
 11
251.869414951573
 21
64.2798545401904
 31
0.0
  0
LINE
  5
   59B
  8
0
  6
CONTINUOUS
 62
     1
 10
254.338160770443
 20
69.3668551608691
 30
0.0
 11
254.389416949469
 21
69.2431113427643
 31
0.0
  0
LINE
  5
   59C
  8
0
  6
CONTINUOUS
 62
     1
 10
254.214417289779
 20
69.4181111124521
 30
0.0
 11
254.338161107884
 21
69.3668549334259
 31
0.0
  0
LINE
  5
   59D
  8
0
  6
CONTINUOUS
 62
     1
 10
253.164416531693
 20
69.4181109071542
 30
0.0
 11
254.214416513811
 21
69.4181109071542
 31
0.0
  0
LINE
  5
   59E
  8
0
  6
CONTINUOUS
 62
     1
 10
253.040673697243
 20
69.3668552685453
 30
0.0
 11
253.164417515348
 21
69.4181114475715
 31
0.0
  0
LINE
  5
   59F
  8
0
  6
CONTINUOUS
 62
     1
 10
252.989417186035
 20
69.2431116789096
 30
0.0
 11
253.040673365061
 21
69.3668554970143
 31
0.0
  0
LINE
  5
   5A0
  8
0
  6
CONTINUOUS
 62
     1
 10
252.989416534673
 20
68.3681109250356
 30
0.0
 11
252.989416534673
 21
69.2431109101344
 31
0.0
  0
LINE
  5
   5A1
  8
0
  6
CONTINUOUS
 62
     1
 10
252.989416534673
 20
67.6681109369565
 30
0.0
 11
252.989416534673
 21
68.3681109250356
 31
0.0
  0
LINE
  5
   5A2
  8
0
  6
CONTINUOUS
 62
     1
 10
252.989416534673
 20
66.9681109488774
 30
0.0
 11
252.989416534673
 21
67.6681109369565
 31
0.0
  0
LINE
  5
   5A3
  8
0
  6
CONTINUOUS
 62
     1
 10
252.989416534673
 20
66.2681109607984
 30
0.0
 11
252.989416534673
 21
66.9681109488774
 31
0.0
  0
LINE
  5
   5A4
  8
0
  6
CONTINUOUS
 62
     1
 10
252.989416534673
 20
65.3931109756995
 30
0.0
 11
252.989416534673
 21
66.2681109607984
 31
0.0
  0
LINE
  5
   5A5
  8
0
  6
CONTINUOUS
 62
     1
 10
252.989416971684
 20
65.3931113334023
 30
0.0
 11
253.04067315071
 21
65.2693675152975
 31
0.0
  0
LINE
  5
   5A6
  8
0
  6
CONTINUOUS
 62
     1
 10
253.040673481866
 20
65.2693673156808
 30
0.0
 11
253.164417299971
 21
65.2181111366546
 31
0.0
  0
LINE
  5
   5A7
  8
0
  6
CONTINUOUS
 62
     1
 10
253.164416531693
 20
65.2181109786798
 30
0.0
 11
254.214416513811
 21
65.2181109786798
 31
0.0
  0
LINE
  5
   5A8
  8
0
  6
CONTINUOUS
 62
     1
 10
254.214417505156
 20
65.2181114717741
 30
0.0
 11
254.338161323261
 21
65.2693676508003
 31
0.0
  0
LINE
  5
   5A9
  8
0
  6
CONTINUOUS
 62
     1
 10
254.338160984794
 20
65.2693678514428
 30
0.0
 11
254.38941716382
 21
65.3931116695476
 31
0.0
  0
LINE
  5
   5AA
  8
0
  6
CONTINUOUS
 62
     1
 10
254.389416510831
 20
65.3931109756995
 30
0.0
 11
254.389416510831
 21
66.2681109607984
 31
0.0
  0
LINE
  5
   5AB
  8
0
  6
CONTINUOUS
 62
     1
 10
254.389416510831
 20
66.2681109607984
 30
0.0
 11
254.389416510831
 21
66.9681109488774
 31
0.0
  0
LINE
  5
   5AC
  8
0
  6
CONTINUOUS
 62
     1
 10
254.389416510831
 20
66.9681109488774
 30
0.0
 11
254.389416510831
 21
67.6681109369565
 31
0.0
  0
LINE
  5
   5AD
  8
0
  6
CONTINUOUS
 62
     1
 10
254.389416510831
 20
67.6681109369565
 30
0.0
 11
254.389416510831
 21
68.3681109250356
 31
0.0
  0
LINE
  5
   5AE
  8
0
  6
CONTINUOUS
 62
     1
 10
254.389416510831
 20
68.3681109250356
 30
0.0
 11
254.389416510831
 21
69.2431109101344
 31
0.0
  0
LINE
  5
   5AF
  8
0
  6
CONTINUOUS
 62
     1
 10
253.164427212845
 20
99.16806233533
 30
0.0
 11
253.164427212845
 21
100.218062317449
 31
0.0
  0
LINE
  5
   5B0
  8
0
  6
CONTINUOUS
 62
     1
 10
253.164426314061
 20
99.1680593043495
 30
0.0
 11
253.264692956487
 21
98.8594701315633
 31
0.0
  0
LINE
  5
   5B1
  8
0
  6
CONTINUOUS
 62
     1
 10
253.264693559737
 20
98.8594727572825
 30
0.0
 11
253.527193552949
 21
98.6687554393639
 31
0.0
  0
LINE
  5
   5B2
  8
0
  6
CONTINUOUS
 62
     1
 10
253.527193854006
 20
98.668755855796
 30
0.0
 11
253.851660553802
 21
98.668755855796
 31
0.0
  0
LINE
  5
   5B3
  8
0
  6
CONTINUOUS
 62
     1
 10
253.85165985812
 20
98.6687551606379
 30
0.0
 11
254.114159851332
 21
98.8594724785566
 31
0.0
  0
LINE
  5
   5B4
  8
0
  6
CONTINUOUS
 62
     1
 10
254.114158563693
 20
98.859469356886
 30
0.0
 11
254.214425206118
 21
99.1680585296722
 31
0.0
  0
LINE
  5
   5B5
  8
0
  6
CONTINUOUS
 62
     1
 10
254.214427194963
 20
99.16806233533
 30
0.0
 11
254.214427194963
 21
100.218062317449
 31
0.0
  0
LINE
  5
   5B6
  8
0
  6
CONTINUOUS
 62
     1
 10
254.114159631209
 20
100.526648383948
 30
0.0
 11
254.214426273634
 21
100.218059211162
 31
0.0
  0
LINE
  5
   5B7
  8
0
  6
CONTINUOUS
 62
     1
 10
253.851660254458
 20
100.717368370714
 30
0.0
 11
254.114160247671
 21
100.526651052795
 31
0.0
  0
LINE
  5
   5B8
  8
0
  6
CONTINUOUS
 62
     1
 10
253.527193854006
 20
100.717368796983
 30
0.0
 11
253.851660553802
 21
100.717368796983
 31
0.0
  0
LINE
  5
   5B9
  8
0
  6
CONTINUOUS
 62
     1
 10
253.264693163399
 20
100.526650774069
 30
0.0
 11
253.527193156611
 21
100.717368091988
 31
0.0
  0
LINE
  5
   5BA
  8
0
  6
CONTINUOUS
 62
     1
 10
253.164425246545
 20
100.218058436485
 30
0.0
 11
253.26469188897
 21
100.526647609271
 31
0.0
  0
LINE
  5
   5BB
  8
0
  6
CONTINUOUS
 62
     1
 10
253.16442721286
 20
77.5555627034161
 30
0.0
 11
253.164435223724
 21
87.0055625424836
 31
0.0
  0
LINE
  5
   5BC
  8
0
  6
CONTINUOUS
 62
     1
 10
253.164427212845
 20
77.5555627033887
 30
0.0
 11
254.214440546403
 21
77.5555627033887
 31
0.0
  0
LINE
  5
   5BD
  8
0
  6
CONTINUOUS
 62
     1
 10
254.21442986528
 20
87.0055358396246
 30
0.0
 11
254.214440546432
 21
77.5555627034375
 31
0.0
  0
LINE
  5
   5BE
  8
0
  6
CONTINUOUS
 62
     1
 10
253.164435251628
 20
87.0055625578754
 30
0.0
 11
254.21442989317
 21
87.0055358549959
 31
0.0
  0
LINE
  5
   5BF
  8
0
  6
CONTINUOUS
 62
     5
 10
189.289440316466
 20
55.1555831122619
 30
0.0
 11
195.064429536966
 21
55.1555510688059
 31
0.0
  0
LINE
  5
   5C0
  8
0
  6
CONTINUOUS
 62
     5
 10
189.289440316926
 20
104.155562250393
 30
0.0
 11
195.064429537426
 21
104.155562250393
 31
0.0
  0
LINE
  5
   5C1
  8
0
  6
CONTINUOUS
 62
     5
 10
195.064429537426
 20
102.755524890203
 30
0.0
 11
195.064429537426
 21
104.155562250393
 31
0.0
  0
LINE
  5
   5C2
  8
0
  6
CONTINUOUS
 62
     5
 10
195.064429537426
 20
55.1555510685622
 30
0.0
 11
195.064429537426
 21
56.5555069849677
 31
0.0
  0
LINE
  5
   5C3
  8
0
  6
CONTINUOUS
 62
     5
 10
188.939426971446
 20
55.5055163488575
 30
0.0
 11
188.939433647166
 21
103.805563591498
 31
0.0
  0
LINE
  5
   5C4
  8
0
  6
CONTINUOUS
 62
     1
 10
194.714426873098
 20
55.155604474323
 30
0.0
 11
194.714426873098
 21
56.5555136606878
 31
0.0
  0
LINE
  5
   5C5
  8
0
  6
CONTINUOUS
 62
     1
 10
194.714426873098
 20
99.5181424380107
 30
0.0
 11
194.714426873098
 21
104.155562250393
 31
0.0
  0
LINE
  5
   5C6
  8
0
  6
CONTINUOUS
 62
     5
 10
188.939433468519
 20
55.5056047229728
 30
0.0
 11
188.966069592573
 21
55.3715776246104
 31
0.0
  0
LINE
  5
   5C7
  8
0
  6
CONTINUOUS
 62
     5
 10
188.966083353664
 20
55.3716652456969
 30
0.0
 11
189.041940894399
 21
55.2580284704361
 31
0.0
  0
LINE
  5
   5C8
  8
0
  6
CONTINUOUS
 62
     5
 10
189.04195333683
 20
55.2581163641764
 30
0.0
 11
189.155501997382
 21
55.182246807082
 31
0.0
  0
LINE
  5
   5C9
  8
0
  6
CONTINUOUS
 62
     5
 10
189.155501755198
 20
55.1822470794742
 30
0.0
 11
189.289440734868
 21
55.1555829174012
 31
0.0
  0
LINE
  5
   5CA
  8
0
  6
CONTINUOUS
 62
     5
 10
189.15550158963
 20
104.128917559765
 30
0.0
 11
189.289440566877
 21
104.155561693223
 31
0.0
  0
LINE
  5
   5CB
  8
0
  6
CONTINUOUS
 62
     5
 10
189.041955603284
 20
104.053046475859
 30
0.0
 11
189.155501589089
 21
104.128914696483
 31
0.0
  0
LINE
  5
   5CC
  8
0
  6
CONTINUOUS
 62
     5
 10
188.966083151049
 20
103.939505155021
 30
0.0
 11
189.041952711041
 21
104.053051146129
 31
0.0
  0
LINE
  5
   5CD
  8
0
  6
CONTINUOUS
 62
     5
 10
188.939433674983
 20
103.805561898361
 30
0.0
 11
188.966083150369
 21
103.939503546641
 31
0.0
  0
LINE
  5
   5CE
  8
0
  6
CONTINUOUS
 62
     1
 10
194.714426871097
 20
56.5555176672483
 30
0.0
 11
195.06442820028
 21
56.5555136618163
 31
0.0
  0
LINE
  5
   5CF
  8
0
  6
CONTINUOUS
 62
     1
 10
194.714426869622
 20
102.755556941044
 30
0.0
 11
195.064428198805
 21
102.75556228162
 31
0.0
  0
LINE
  5
   5D0
  8
0
  6
CONTINUOUS
 62
     1
 10
193.751926889069
 20
60.4054722059308
 30
0.0
 11
195.064426866718
 21
60.4054655302104
 31
0.0
  0
LINE
  5
   5D1
  8
0
  6
CONTINUOUS
 62
     1
 10
193.75192688949
 20
59.0054655537798
 30
0.0
 11
195.064426867138
 21
59.0054655537798
 31
0.0
  0
LINE
  5
   5D2
  8
0
  6
CONTINUOUS
 62
     1
 10
194.714426873098
 20
96.8055143103784
 30
0.0
 11
195.064426867138
 21
96.8055143103784
 31
0.0
  0
LINE
  5
   5D3
  8
0
  6
CONTINUOUS
 62
     1
 10
194.714426873098
 20
95.4055143342202
 30
0.0
 11
195.064426867138
 21
95.4055143342202
 31
0.0
  0
LINE
  5
   5D4
  8
0
  6
CONTINUOUS
 62
     5
 10
195.064426867138
 20
62.8554935262391
 30
0.0
 11
195.064426867138
 21
94.3554929897973
 31
0.0
  0
LINE
  5
   5D5
  8
0
  6
CONTINUOUS
 62
     5
 10
195.064426867111
 20
57.2554936216718
 30
0.0
 11
195.064428202255
 21
56.555513660753
 31
0.0
  0
LINE
  5
   5D6
  8
0
  6
CONTINUOUS
 62
     5
 10
195.064426867138
 20
58.655780653729
 30
0.0
 11
195.064426867138
 21
60.7551984951734
 31
0.0
  0
LINE
  5
   5D7
  8
0
  6
CONTINUOUS
 62
     5
 10
195.064426867136
 20
99.9554928944443
 30
0.0
 11
195.06442820228
 21
102.755524890217
 31
0.0
  0
LINE
  5
   5D8
  8
0
  6
CONTINUOUS
 62
     5
 10
195.064426867138
 20
95.0554983184525
 30
0.0
 11
195.064426867138
 21
97.1554982826897
 31
0.0
  0
LINE
  5
   5D9
  8
0
  6
CONTINUOUS
 62
     1
 10
192.089426917802
 20
60.4054815516662
 30
0.0
 11
192.089426917802
 21
60.7556430981322
 31
0.0
  0
LINE
  5
   5DA
  8
0
  6
CONTINUOUS
 62
     1
 10
194.714428208242
 20
99.9554928944299
 30
0.0
 11
195.064426867138
 21
99.9554928944299
 31
0.0
  0
LINE
  5
   5DB
  8
0
  6
CONTINUOUS
 62
     1
 10
193.31442689694
 20
94.3554929897973
 30
0.0
 11
195.064426867138
 21
94.3554929897973
 31
0.0
  0
LINE
  5
   5DC
  8
0
  6
CONTINUOUS
 62
     1
 10
193.75192688949
 20
57.2554976270386
 30
0.0
 11
195.064426867138
 21
57.2554976270386
 31
0.0
  0
LINE
  5
   5DD
  8
0
  6
CONTINUOUS
 62
     1
 10
193.31442689694
 20
62.8554988668152
 30
0.0
 11
195.064426867138
 21
62.8554988668152
 31
0.0
  0
LINE
  5
   5DE
  8
0
  6
CONTINUOUS
 62
     5
 10
188.589426977406
 20
73.7054906711767
 30
0.0
 11
188.589426977406
 21
80.7054905519674
 31
0.0
  0
LINE
  5
   5DF
  8
0
  6
CONTINUOUS
 62
     1
 10
190.601917597126
 20
99.5179875613044
 30
0.0
 11
191.826926922272
 21
99.5179875613044
 31
0.0
  0
LINE
  5
   5E0
  8
0
  6
CONTINUOUS
 62
     1
 10
190.601917597126
 20
99.5179875613044
 30
0.0
 11
191.826926922272
 21
99.5179875613044
 31
0.0
  0
LINE
  5
   5E1
  8
0
  6
CONTINUOUS
 62
     1
 10
193.31442689694
 20
94.7055196867173
 30
0.0
 11
194.714426873098
 21
94.7055196867173
 31
0.0
  0
LINE
  5
   5E2
  8
0
  6
CONTINUOUS
 62
     1
 10
194.714426873098
 20
94.7055196867173
 30
0.0
 11
194.714426873098
 21
99.5179875613044
 31
0.0
  0
LINE
  5
   5E3
  8
0
  6
CONTINUOUS
 62
     1
 10
192.614425572746
 20
92.9556051672978
 30
0.0
 11
193.314417549961
 21
92.9555998267218
 31
0.0
  0
LINE
  5
   5E4
  8
0
  6
CONTINUOUS
 62
     1
 10
193.314417550864
 20
92.9555998256113
 30
0.0
 11
193.314421556296
 21
94.3555624177369
 31
0.0
  0
LINE
  5
   5E5
  8
0
  6
CONTINUOUS
 62
     1
 10
192.61442556967
 20
93.8306104977575
 30
0.0
 11
193.314418882029
 21
93.8305998166054
 31
0.0
  0
LINE
  5
   5E6
  8
0
  6
CONTINUOUS
 62
     1
 10
191.826926922272
 20
97.5054875955771
 30
0.0
 11
191.826926922272
 21
99.5179875613044
 31
0.0
  0
LINE
  5
   5E7
  8
0
  6
CONTINUOUS
 62
     1
 10
191.826923196046
 20
97.5054940099064
 30
0.0
 11
192.351923198638
 21
96.9804940073143
 31
0.0
  0
LINE
  5
   5E8
  8
0
  6
CONTINUOUS
 62
     1
 10
192.351926913331
 20
96.9804876045178
 30
0.0
 11
193.57692689247
 21
96.9804876045178
 31
0.0
  0
LINE
  5
   5E9
  8
0
  6
CONTINUOUS
 62
     1
 10
193.57692689247
 20
96.9804876045178
 30
0.0
 11
193.57692689247
 21
99.5181424380107
 31
0.0
  0
LINE
  5
   5EA
  8
0
  6
CONTINUOUS
 62
     1
 10
191.826926922272
 20
99.5180676699456
 30
0.0
 11
194.714426873098
 21
99.5180676699456
 31
0.0
  0
LINE
  5
   5EB
  8
0
  6
CONTINUOUS
 62
     1
 10
192.351926913267
 20
58.1305443422124
 30
0.0
 11
193.751926889425
 21
58.1305416719243
 31
0.0
  0
LINE
  5
   5EC
  8
0
  6
CONTINUOUS
 62
     1
 10
193.75192688949
 20
56.5556431696577
 30
0.0
 11
193.75192688949
 21
58.1305416718901
 31
0.0
  0
LINE
  5
   5ED
  8
0
  6
CONTINUOUS
 62
     1
 10
192.351926913331
 20
56.5556431696577
 30
0.0
 11
192.351926913331
 21
58.1305443421782
 31
0.0
  0
LINE
  5
   5EE
  8
0
  6
CONTINUOUS
 62
     1
 10
191.126922928639
 20
60.4055109249028
 30
0.0
 11
193.751926889367
 21
60.4055176006232
 31
0.0
  0
LINE
  5
   5EF
  8
0
  6
CONTINUOUS
 62
     1
 10
193.75192688949
 20
58.1305176392978
 30
0.0
 11
193.75192688949
 21
60.4055176005547
 31
0.0
  0
LINE
  5
   5F0
  8
0
  6
CONTINUOUS
 62
     1
 10
193.31442689694
 20
90.8555731580432
 30
0.0
 11
193.31442689694
 21
92.9555838034326
 31
0.0
  0
LINE
  5
   5F1
  8
0
  6
CONTINUOUS
 62
     1
 10
191.12692323222
 20
60.4055105445438
 30
0.0
 11
191.153644804254
 21
60.4322321165784
 31
0.0
  0
LINE
  5
   5F2
  8
0
  6
CONTINUOUS
 62
     1
 10
191.126923936896
 20
60.4055589779774
 30
0.0
 11
191.477016057343
 21
60.7556417437015
 31
0.0
  0
LINE
  5
   5F3
  8
0
  6
CONTINUOUS
 62
     1
 10
193.314422891508
 20
90.8555731580441
 30
0.0
 11
193.31442689694
 21
60.7556430981331
 31
0.0
  0
LINE
  5
   5F4
  8
0
  6
CONTINUOUS
 62
     1
 10
193.31442689694
 20
94.3555624172864
 30
0.0
 11
193.31442689694
 21
95.9306424991055
 31
0.0
  0
LINE
  5
   5F5
  8
0
  6
CONTINUOUS
 62
     1
 10
191.126926934193
 20
60.7556430981322
 30
0.0
 11
193.31442689694
 21
60.7556430981322
 31
0.0
  0
LINE
  5
   5F6
  8
0
  6
CONTINUOUS
 62
     1
 10
191.126926934193
 20
56.5556431696577
 30
0.0
 11
194.714426873098
 21
56.5556431696577
 31
0.0
  0
LINE
  5
   5F7
  8
0
  6
CONTINUOUS
 62
     1
 10
191.126926934193
 20
56.5556431696577
 30
0.0
 11
191.126926934193
 21
60.7556430981322
 31
0.0
  0
LINE
  5
   5F8
  8
0
  6
CONTINUOUS
 62
     1
 10
190.601924272846
 20
95.9306424991055
 30
0.0
 11
193.31442689694
 21
95.9306424991055
 31
0.0
  0
LINE
  5
   5F9
  8
0
  6
CONTINUOUS
 62
     1
 10
190.601924272846
 20
95.9306424991055
 30
0.0
 11
190.601924272846
 21
99.5181424380107
 31
0.0
  0
LINE
  5
   5FA
  8
0
  6
CONTINUOUS
 62
     1
 10
192.964426902901
 20
94.3555624172864
 30
0.0
 11
193.31442689694
 21
94.3555624172864
 31
0.0
  0
LINE
  5
   5FB
  8
0
  6
CONTINUOUS
 62
     1
 10
192.830488128688
 20
94.3289178099403
 30
0.0
 11
192.964427105935
 21
94.3555619433984
 31
0.0
  0
LINE
  5
   5FC
  8
0
  6
CONTINUOUS
 62
     1
 10
192.716939421624
 20
94.2530474891262
 30
0.0
 11
192.830488076878
 21
94.3289157149847
 31
0.0
  0
LINE
  5
   5FD
  8
0
  6
CONTINUOUS
 62
     1
 10
192.641069740569
 20
94.1395051350677
 30
0.0
 11
192.716939300561
 21
94.2530511261757
 31
0.0
  0
LINE
  5
   5FE
  8
0
  6
CONTINUOUS
 62
     1
 10
192.614426914353
 20
94.0055623479195
 30
0.0
 11
192.641069712884
 21
94.1395039953857
 31
0.0
  0
LINE
  5
   5FF
  8
0
  6
CONTINUOUS
 62
     1
 10
192.614426908861
 20
91.2055731520827
 30
0.0
 11
192.614426908861
 21
94.0055624232468
 31
0.0
  0
LINE
  5
   600
  8
0
  6
CONTINUOUS
 62
     1
 10
192.614426929482
 20
91.2055730754668
 30
0.0
 11
192.641069728013
 21
91.0716314280006
 31
0.0
  0
LINE
  5
   601
  8
0
  6
CONTINUOUS
 62
     1
 10
192.641069123187
 20
91.071632704088
 30
0.0
 11
192.716938683179
 21
90.9580867129799
 31
0.0
  0
LINE
  5
   602
  8
0
  6
CONTINUOUS
 62
     1
 10
192.716941401605
 20
90.9580824769774
 30
0.0
 11
192.83049005686
 21
90.8822142511189
 31
0.0
  0
LINE
  5
   603
  8
0
  6
CONTINUOUS
 62
     1
 10
192.830488308024
 20
90.8822167925237
 30
0.0
 11
192.964427285271
 21
90.8555726590656
 31
0.0
  0
LINE
  5
   604
  8
0
  6
CONTINUOUS
 62
     1
 10
192.964426902901
 20
90.8555731580432
 30
0.0
 11
193.314422891508
 21
90.8555731580432
 31
0.0
  0
LINE
  5
   605
  8
0
  6
CONTINUOUS
 62
     1
 10
278.889437455903
 20
92.9555677817043
 30
0.0
 11
279.239432109366
 21
92.9555677817043
 31
0.0
  0
LINE
  5
   606
  8
0
  6
CONTINUOUS
 62
     7
 10
278.889437455903
 20
104.155562250393
 30
0.0
 11
279.239432109366
 21
104.155562250393
 31
0.0
  0
LINE
  5
   607
  8
0
  6
DOT
 62
     7
 10
268.564385561113
 20
104.155562250393
 30
0.0
 11
277.664383901032
 21
104.155562250393
 31
0.0
  0
LINE
  5
   608
  8
0
  6
DOT
 62
     7
 10
268.564385561113
 20
92.9555677817043
 30
0.0
 11
277.664383901032
 21
92.9555677817043
 31
0.0
  0
LINE
  5
   609
  8
0
  6
DOT
 62
     7
 10
268.564385561113
 20
53.4930577725945
 30
0.0
 11
277.664383901032
 21
53.4930577725945
 31
0.0
  0
LINE
  5
   60A
  8
0
  6
CONTINUOUS
 62
     7
 10
279.239437449942
 20
53.4930577725945
 30
0.0
 11
279.239437449942
 21
55.1555550739943
 31
0.0
  0
LINE
  5
   60B
  8
0
  6
DOT
 62
     7
 10
268.564385561113
 20
82.45554909045
 30
0.0
 11
277.664383901032
 21
82.4555583474537
 31
0.0
  0
LINE
  5
   60C
  8
0
  6
CONTINUOUS
 62
     7
 10
279.239432109367
 20
104.155562250394
 30
0.0
 11
279.239437449943
 21
55.155552403707
 31
0.0
  0
LINE
  5
   60D
  8
0
  6
CONTINUOUS
 62
     7
 10
279.589432103406
 20
73.7055467472255
 30
0.0
 11
279.589432103406
 21
80.7055466280162
 31
0.0
  0
LINE
  5
   60E
  8
0
  6
CONTINUOUS
 62
     1
 10
208.539424634944
 20
86.7626037148066
 30
0.0
 11
243.889421362649
 21
86.7626037148066
 31
0.0
  0
LINE
  5
   60F
  8
0
  6
CONTINUOUS
 62
     1
 10
208.539424634944
 20
87.1126037088461
 30
0.0
 11
243.889421362649
 21
87.1126037088461
 31
0.0
  0
LINE
  5
   610
  8
0
  6
CONTINUOUS
 62
   210
 10
224.464426366459
 20
65.1061164279747
 30
0.0
 11
224.464426366459
 21
85.8050063800401
 31
0.0
  0
LINE
  5
   611
  8
0
  6
CONTINUOUS
 62
   210
 10
239.164427451263
 20
65.1061164279747
 30
0.0
 11
239.164427451263
 21
85.8050063800401
 31
0.0
  0
LINE
  5
   612
  8
0
  6
CONTINUOUS
 62
     1
 10
208.539424634944
 20
80.1126038280554
 30
0.0
 11
224.464427034031
 21
80.1126038280554
 31
0.0
  0
LINE
  5
   613
  8
0
  6
CONTINUOUS
 62
     1
 10
239.164427451263
 20
80.1126038280554
 30
0.0
 11
243.889422030221
 21
80.1126038280554
 31
0.0
  0
LINE
  5
   614
  8
0
  6
CONTINUOUS
 62
     1
 10
239.164427451263
 20
80.4626038220949
 30
0.0
 11
243.889422030221
 21
80.4626038220949
 31
0.0
  0
LINE
  5
   615
  8
0
  6
CONTINUOUS
 62
     1
 10
208.539424634944
 20
80.4626038220949
 30
0.0
 11
224.464427034031
 21
80.4626038220949
 31
0.0
  0
LINE
  5
   616
  8
0
  6
CONTINUOUS
 62
     1
 10
239.164427451263
 20
70.722202147763
 30
0.0
 11
243.889422030221
 21
70.722202147763
 31
0.0
  0
LINE
  5
   617
  8
0
  6
CONTINUOUS
 62
     1
 10
208.539424634944
 20
70.722202147763
 30
0.0
 11
224.464427034031
 21
70.722202147763
 31
0.0
  0
LINE
  5
   618
  8
0
  6
CONTINUOUS
 62
     1
 10
208.539424634944
 20
70.3722021537235
 30
0.0
 11
224.464427034031
 21
70.3722021537235
 31
0.0
  0
LINE
  5
   619
  8
0
  6
CONTINUOUS
 62
     1
 10
239.164427451263
 20
70.3722021537235
 30
0.0
 11
243.889422030221
 21
70.3722021537235
 31
0.0
  0
LINE
  5
   61A
  8
0
  6
CONTINUOUS
 62
     1
 10
208.539424634944
 20
64.0722022610119
 30
0.0
 11
243.889421362649
 21
64.0722022610119
 31
0.0
  0
LINE
  5
   61B
  8
0
  6
CONTINUOUS
 62
     1
 10
208.539424634944
 20
63.7222022669723
 30
0.0
 11
243.889421362649
 21
63.7222022669723
 31
0.0
  0
LINE
  5
   61C
  8
0
  6
CONTINUOUS
 62
     1
 10
188.939433647166
 20
103.805562256354
 30
0.0
 11
194.714426873098
 21
103.805562256354
 31
0.0
  0
LINE
  5
   61D
  8
0
  6
CONTINUOUS
 62
     1
 10
188.939433637259
 20
55.5056044723872
 30
0.0
 11
190.076926942168
 21
55.5056298401232
 31
0.0
  0
LINE
  5
   61E
  8
0
  6
CONTINUOUS
 62
     1
 10
192.089426917802
 20
60.7554842159938
 30
0.0
 11
195.064426867138
 21
60.7554842159938
 31
0.0
  0
LINE
  5
   61F
  8
0
  6
CONTINUOUS
 62
     1
 10
193.75192688949
 20
58.6554842517566
 30
0.0
 11
195.064426867138
 21
58.6554842517566
 31
0.0
  0
LINE
  5
   620
  8
0
  6
CONTINUOUS
 62
     1
 10
194.714426873098
 20
97.1554982826897
 30
0.0
 11
195.064426867138
 21
97.1554982826897
 31
0.0
  0
LINE
  5
   621
  8
0
  6
CONTINUOUS
 62
     1
 10
194.714426873098
 20
95.0554983184525
 30
0.0
 11
195.064426867138
 21
95.0554983184525
 31
0.0
  0
LINE
  5
   622
  8
0
  6
CONTINUOUS
 62
     5
 10
195.064426867138
 20
97.3304929391334
 30
0.0
 11
195.064426867138
 21
99.9554928944299
 31
0.0
  0
LINE
  5
   623
  8
0
  6
CONTINUOUS
 62
     5
 10
195.064426867138
 20
97.1554982826897
 30
0.0
 11
195.064426867138
 21
97.3304929391334
 31
0.0
  0
LINE
  5
   624
  8
0
  6
CONTINUOUS
 62
     5
 10
195.064426867138
 20
94.8804929808566
 30
0.0
 11
195.064426867138
 21
95.0554983184525
 31
0.0
  0
LINE
  5
   625
  8
0
  6
CONTINUOUS
 62
     5
 10
195.064426867138
 20
94.3554929897973
 30
0.0
 11
195.064426867138
 21
94.8804929808566
 31
0.0
  0
LINE
  5
   626
  8
0
  6
CONTINUOUS
 62
     5
 10
195.064426867138
 20
60.9304842130135
 30
0.0
 11
195.064426867138
 21
62.8554988668152
 31
0.0
  0
LINE
  5
   627
  8
0
  6
CONTINUOUS
 62
     5
 10
195.064426867138
 20
60.7554842159938
 30
0.0
 11
195.064426867138
 21
60.9304842130135
 31
0.0
  0
LINE
  5
   628
  8
0
  6
CONTINUOUS
 62
     5
 10
195.064426867138
 20
58.4804842547368
 30
0.0
 11
195.064426867138
 21
58.6554842517566
 31
0.0
  0
LINE
  5
   629
  8
0
  6
CONTINUOUS
 62
     5
 10
195.064426867138
 20
57.2554976270386
 30
0.0
 11
195.064426867138
 21
58.4804842547368
 31
0.0
  0
LINE
  5
   62A
  8
0
  6
CONTINUOUS
 62
     5
 10
188.589426977406
 20
73.7054906711767
 30
0.0
 11
188.939426971446
 21
73.7054906711767
 31
0.0
  0
LINE
  5
   62B
  8
0
  6
CONTINUOUS
 62
     5
 10
188.589426977406
 20
80.7054905519674
 30
0.0
 11
188.939426971446
 21
80.7054905519674
 31
0.0
  0
LINE
  5
   62C
  8
0
  6
CONTINUOUS
 62
     1
 10
192.089426881857
 20
97.2429862663788
 30
0.0
 11
192.876926878369
 21
98.0304862628913
 31
0.0
  0
LINE
  5
   62D
  8
0
  6
CONTINUOUS
 62
     1
 10
190.076926952074
 20
55.5056298360989
 30
0.0
 11
190.076926952074
 21
61.8056457505388
 31
0.0
  0
LINE
  5
   62E
  8
0
  6
CONTINUOUS
 62
     1
 10
190.076926952074
 20
61.8056457505388
 30
0.0
 11
191.126926934193
 21
61.8056457505388
 31
0.0
  0
LINE
  5
   62F
  8
0
  6
CONTINUOUS
 62
     1
 10
190.076927655783
 20
61.8056450029513
 30
0.0
 11
191.126927660965
 21
60.755642342514
 31
0.0
  0
LINE
  5
   630
  8
0
  6
CONTINUOUS
 62
     1
 10
190.0769269518
 20
55.5056298362167
 30
0.0
 11
191.126926933918
 21
55.5056338416487
 31
0.0
  0
LINE
  5
   631
  8
0
  6
CONTINUOUS
 62
     1
 10
190.076926406248
 20
55.5056301947327
 30
0.0
 11
191.12692641139
 21
56.555643564725
 31
0.0
  0
LINE
  5
   632
  8
0
  6
CONTINUOUS
 62
     1
 10
193.40192689545
 20
56.5556351587936
 30
0.0
 11
193.40192689545
 21
58.1305416718901
 31
0.0
  0
LINE
  5
   633
  8
0
  6
CONTINUOUS
 62
     1
 10
191.126926934193
 20
61.8056457505388
 30
0.0
 11
193.31442689694
 21
61.8056457505388
 31
0.0
  0
LINE
  5
   634
  8
0
  6
CONTINUOUS
 62
     1
 10
191.126926934022
 20
55.5056338416218
 30
0.0
 11
194.714426872927
 21
55.505645857918
 31
0.0
  0
LINE
  5
   635
  8
0
  6
CONTINUOUS
 62
     1
 10
189.551926961015
 20
94.880647857563
 30
0.0
 11
189.551926961015
 21
100.568147760705
 31
0.0
  0
LINE
  5
   636
  8
0
  6
CONTINUOUS
 62
     1
 10
189.551926961015
 20
100.568147760705
 30
0.0
 11
190.601924272846
 21
100.568147760705
 31
0.0
  0
LINE
  5
   637
  8
0
  6
CONTINUOUS
 62
     1
 10
189.551928009488
 20
100.568146014234
 30
0.0
 11
190.601925359416
 21
99.5181406985413
 31
0.0
  0
LINE
  5
   638
  8
0
  6
CONTINUOUS
 62
     1
 10
189.551926767055
 20
94.880652769442
 30
0.0
 11
190.60192408748
 21
95.9306474346255
 31
0.0
  0
LINE
  5
   639
  8
0
  6
CONTINUOUS
 62
     1
 10
192.876926904391
 20
98.0304875866364
 30
0.0
 11
193.57692689247
 21
98.0304875866364
 31
0.0
  0
LINE
  5
   63A
  8
0
  6
CONTINUOUS
 62
     1
 10
192.876926904391
 20
98.0304875866364
 30
0.0
 11
192.876926904391
 21
99.5180676699456
 31
0.0
  0
LINE
  5
   63B
  8
0
  6
CONTINUOUS
 62
     1
 10
190.601924272846
 20
100.568147760705
 30
0.0
 11
194.714426873098
 21
100.568147760705
 31
0.0
  0
LINE
  5
   63C
  8
0
  6
CONTINUOUS
 62
     1
 10
189.551926961015
 20
94.880647857563
 30
0.0
 11
193.31442689694
 21
94.880647857563
 31
0.0
  0
LINE
  5
   63D
  8
0
  6
CONTINUOUS
 62
     7
 10
279.239437449942
 20
80.7055466280162
 30
0.0
 11
279.589432103406
 21
80.7055466280162
 31
0.0
  0
LINE
  5
   63E
  8
0
  6
CONTINUOUS
 62
     7
 10
279.239432109366
 20
73.7055467472255
 30
0.0
 11
279.589432103406
 21
73.7055467472255
 31
0.0
  0
LINE
  5
   63F
  8
0
  6
CONTINUOUS
 62
   210
 10
224.464426366459
 20
65.1061164279747
 30
0.0
 11
239.164427451263
 21
65.1061164279747
 31
0.0
  0
LINE
  5
   640
  8
0
  6
CONTINUOUS
 62
   210
 10
224.464426366459
 20
65.4882853820377
 30
0.0
 11
239.164427451263
 21
65.4882853820377
 31
0.0
  0
LINE
  5
   641
  8
0
  6
CONTINUOUS
 62
   210
 10
224.464426366459
 20
85.4228400962652
 30
0.0
 11
239.164427451263
 21
85.4228400962652
 31
0.0
  0
LINE
  5
   642
  8
0
  6
CONTINUOUS
 62
   210
 10
224.464426366459
 20
85.8050063800401
 30
0.0
 11
239.164427451263
 21
85.8050063800401
 31
0.0
  0
CIRCLE
  5
   643
  8
0
  6
CONTINUOUS
 62
     7
 10
274.514436835343
 20
68.2805497913071
 30
0.0
 40
1.83750002924935
  0
LINE
  5
   644
  8
0
  6
CONTINUOUS
 62
     1
 10
195.064426867138
 20
61.8930467786602
 30
0.0
 11
198.214385254057
 21
61.8930467786602
 31
0.0
  0
LINE
  5
   645
  8
0
  6
DASHDOT
 62
     2
 10
182.979402669683
 20
82.2805626229224
 30
0.0
 11
283.566604544632
 21
82.2805626229224
 31
0.0
  0
LINE
  5
   646
  8
0
  6
CONTINUOUS
 62
     7
 10
195.50188680536
 20
29.4305526720528
 30
0.0
 11
268.126885568563
 21
29.4305526720528
 31
0.0
  0
LINE
  5
   647
  8
0
  6
CONTINUOUS
 62
     1
 10
207.961894383539
 20
164.285536679624
 30
0.0
 11
207.961894383539
 21
173.28053652644
 31
0.0
  0
LINE
  5
   648
  8
0
  6
CONTINUOUS
 62
     1
 10
209.221894362081
 20
164.285536679624
 30
0.0
 11
209.221894362081
 21
173.28053652644
 31
0.0
  0
LINE
  5
   649
  8
0
  6
CONTINUOUS
 62
     1
 10
210.481894340623
 20
164.285536679624
 30
0.0
 11
210.481894340623
 21
173.28053652644
 31
0.0
  0
LINE
  5
   64A
  8
0
  6
CONTINUOUS
 62
     1
 10
211.741894319166
 20
164.285536679624
 30
0.0
 11
211.741894319166
 21
173.28053652644
 31
0.0
  0
LINE
  5
   64B
  8
0
  6
CONTINUOUS
 62
     1
 10
213.001894297708
 20
164.285536679624
 30
0.0
 11
213.001894297708
 21
173.28053652644
 31
0.0
  0
LINE
  5
   64C
  8
0
  6
CONTINUOUS
 62
     1
 10
214.26189427625
 20
164.285536679624
 30
0.0
 11
214.26189427625
 21
173.28053652644
 31
0.0
  0
LINE
  5
   64D
  8
0
  6
CONTINUOUS
 62
     1
 10
215.521894254793
 20
164.285536679624
 30
0.0
 11
215.521894254793
 21
173.28053652644
 31
0.0
  0
LINE
  5
   64E
  8
0
  6
CONTINUOUS
 62
     1
 10
216.781894233335
 20
164.285536679624
 30
0.0
 11
216.781894233335
 21
173.28053652644
 31
0.0
  0
LINE
  5
   64F
  8
0
  6
CONTINUOUS
 62
     1
 10
218.041894211877
 20
164.285536679624
 30
0.0
 11
218.041894211877
 21
173.28053652644
 31
0.0
  0
LINE
  5
   650
  8
0
  6
CONTINUOUS
 62
     1
 10
219.30189419042
 20
164.285536679624
 30
0.0
 11
219.30189419042
 21
173.28053652644
 31
0.0
  0
LINE
  5
   651
  8
0
  6
CONTINUOUS
 62
     1
 10
220.561894168962
 20
164.285536679624
 30
0.0
 11
220.561894168962
 21
173.28053652644
 31
0.0
  0
LINE
  5
   652
  8
0
  6
CONTINUOUS
 62
     1
 10
221.821894147504
 20
164.285536679624
 30
0.0
 11
221.821894147504
 21
173.28053652644
 31
0.0
  0
LINE
  5
   653
  8
0
  6
CONTINUOUS
 62
     1
 10
223.081894126047
 20
164.285536679624
 30
0.0
 11
223.081894126047
 21
173.28053652644
 31
0.0
  0
LINE
  5
   654
  8
0
  6
CONTINUOUS
 62
     1
 10
224.341894104589
 20
164.285536679624
 30
0.0
 11
224.341894104589
 21
173.28053652644
 31
0.0
  0
LINE
  5
   655
  8
0
  6
CONTINUOUS
 62
     1
 10
225.601894083131
 20
164.285536679624
 30
0.0
 11
225.601894083131
 21
173.28053652644
 31
0.0
  0
LINE
  5
   656
  8
0
  6
CONTINUOUS
 62
     1
 10
226.861894061674
 20
164.285536679624
 30
0.0
 11
226.861894061674
 21
173.28053652644
 31
0.0
  0
LINE
  5
   657
  8
0
  6
CONTINUOUS
 62
     1
 10
228.121894040216
 20
164.285536679624
 30
0.0
 11
228.121894040216
 21
173.28053652644
 31
0.0
  0
LINE
  5
   658
  8
0
  6
CONTINUOUS
 62
     1
 10
229.381894018758
 20
164.285536679624
 30
0.0
 11
229.381894018758
 21
173.28053652644
 31
0.0
  0
LINE
  5
   659
  8
0
  6
CONTINUOUS
 62
     1
 10
230.641893997301
 20
164.285536679624
 30
0.0
 11
230.641893997301
 21
173.28053652644
 31
0.0
  0
LINE
  5
   65A
  8
0
  6
CONTINUOUS
 62
     1
 10
255.666877990385
 20
164.285536679624
 30
0.0
 11
255.666877990385
 21
173.28053652644
 31
0.0
  0
LINE
  5
   65B
  8
0
  6
CONTINUOUS
 62
     1
 10
254.406878011842
 20
164.285536679624
 30
0.0
 11
254.406878011842
 21
173.28053652644
 31
0.0
  0
LINE
  5
   65C
  8
0
  6
CONTINUOUS
 62
     1
 10
253.1468780333
 20
164.285536679624
 30
0.0
 11
253.1468780333
 21
173.28053652644
 31
0.0
  0
LINE
  5
   65D
  8
0
  6
CONTINUOUS
 62
     1
 10
251.886878054758
 20
164.285536679624
 30
0.0
 11
251.886878054758
 21
173.28053652644
 31
0.0
  0
LINE
  5
   65E
  8
0
  6
CONTINUOUS
 62
     1
 10
250.626878076215
 20
164.285536679624
 30
0.0
 11
250.626878076215
 21
173.28053652644
 31
0.0
  0
LINE
  5
   65F
  8
0
  6
CONTINUOUS
 62
     1
 10
249.366878097673
 20
164.285536679624
 30
0.0
 11
249.366878097673
 21
173.28053652644
 31
0.0
  0
LINE
  5
   660
  8
0
  6
CONTINUOUS
 62
     1
 10
248.106878119131
 20
164.285536679624
 30
0.0
 11
248.106878119131
 21
173.28053652644
 31
0.0
  0
LINE
  5
   661
  8
0
  6
CONTINUOUS
 62
     1
 10
246.846878140588
 20
164.285536679624
 30
0.0
 11
246.846878140588
 21
173.28053652644
 31
0.0
  0
LINE
  5
   662
  8
0
  6
CONTINUOUS
 62
     1
 10
245.586878162046
 20
164.285536679624
 30
0.0
 11
245.586878162046
 21
173.28053652644
 31
0.0
  0
LINE
  5
   663
  8
0
  6
CONTINUOUS
 62
     1
 10
244.326878183504
 20
164.285536679624
 30
0.0
 11
244.326878183504
 21
173.28053652644
 31
0.0
  0
LINE
  5
   664
  8
0
  6
CONTINUOUS
 62
     1
 10
243.066878204961
 20
164.285536679624
 30
0.0
 11
243.066878204961
 21
173.28053652644
 31
0.0
  0
LINE
  5
   665
  8
0
  6
CONTINUOUS
 62
     1
 10
241.806878226419
 20
164.285536679624
 30
0.0
 11
241.806878226419
 21
173.28053652644
 31
0.0
  0
LINE
  5
   666
  8
0
  6
CONTINUOUS
 62
     1
 10
240.546878247877
 20
164.285536679624
 30
0.0
 11
240.546878247877
 21
173.28053652644
 31
0.0
  0
LINE
  5
   667
  8
0
  6
CONTINUOUS
 62
     1
 10
239.286878269334
 20
164.285536679624
 30
0.0
 11
239.286878269334
 21
173.28053652644
 31
0.0
  0
LINE
  5
   668
  8
0
  6
CONTINUOUS
 62
     1
 10
238.026878290792
 20
164.285536679624
 30
0.0
 11
238.026878290792
 21
173.28053652644
 31
0.0
  0
LINE
  5
   669
  8
0
  6
CONTINUOUS
 62
     1
 10
236.76687831225
 20
164.285536679624
 30
0.0
 11
236.76687831225
 21
173.28053652644
 31
0.0
  0
LINE
  5
   66A
  8
0
  6
CONTINUOUS
 62
     1
 10
235.506878333707
 20
164.285536679624
 30
0.0
 11
235.506878333707
 21
173.28053652644
 31
0.0
  0
LINE
  5
   66B
  8
0
  6
CONTINUOUS
 62
     1
 10
234.246878355165
 20
164.285536679624
 30
0.0
 11
234.246878355165
 21
173.28053652644
 31
0.0
  0
LINE
  5
   66C
  8
0
  6
CONTINUOUS
 62
     1
 10
232.986878376623
 20
164.285536679624
 30
0.0
 11
232.986878376623
 21
173.28053652644
 31
0.0
  0
LINE
  5
   66D
  8
0
  6
CONTINUOUS
 62
     1
 10
207.961894383539
 20
29.4305526720528
 30
0.0
 11
207.961894383539
 21
37.55055253377
 31
0.0
  0
LINE
  5
   66E
  8
0
  6
CONTINUOUS
 62
     1
 10
209.221894362081
 20
29.4305526720528
 30
0.0
 11
209.221894362081
 21
37.55055253377
 31
0.0
  0
LINE
  5
   66F
  8
0
  6
CONTINUOUS
 62
     1
 10
210.481894340623
 20
29.4305526720528
 30
0.0
 11
210.481894340623
 21
37.55055253377
 31
0.0
  0
LINE
  5
   670
  8
0
  6
CONTINUOUS
 62
     1
 10
211.741894319166
 20
29.4305526720528
 30
0.0
 11
211.741894319166
 21
37.55055253377
 31
0.0
  0
LINE
  5
   671
  8
0
  6
CONTINUOUS
 62
     1
 10
213.001894297708
 20
29.4305526720528
 30
0.0
 11
213.001894297708
 21
37.55055253377
 31
0.0
  0
LINE
  5
   672
  8
0
  6
CONTINUOUS
 62
     1
 10
214.26189427625
 20
29.4305526720528
 30
0.0
 11
214.26189427625
 21
37.55055253377
 31
0.0
  0
LINE
  5
   673
  8
0
  6
CONTINUOUS
 62
     1
 10
215.521894254793
 20
29.4305526720528
 30
0.0
 11
215.521894254793
 21
37.55055253377
 31
0.0
  0
LINE
  5
   674
  8
0
  6
CONTINUOUS
 62
     1
 10
216.781894233335
 20
29.4305526720528
 30
0.0
 11
216.781894233335
 21
37.55055253377
 31
0.0
  0
LINE
  5
   675
  8
0
  6
CONTINUOUS
 62
     1
 10
218.041894211877
 20
29.4305526720528
 30
0.0
 11
218.041894211877
 21
37.55055253377
 31
0.0
  0
LINE
  5
   676
  8
0
  6
CONTINUOUS
 62
     1
 10
219.30189419042
 20
29.4305526720528
 30
0.0
 11
219.30189419042
 21
37.55055253377
 31
0.0
  0
LINE
  5
   677
  8
0
  6
CONTINUOUS
 62
     1
 10
220.561894168962
 20
29.4305526720528
 30
0.0
 11
220.561894168962
 21
37.55055253377
 31
0.0
  0
LINE
  5
   678
  8
0
  6
CONTINUOUS
 62
     1
 10
221.821894147504
 20
29.4305526720528
 30
0.0
 11
221.821894147504
 21
37.55055253377
 31
0.0
  0
LINE
  5
   679
  8
0
  6
CONTINUOUS
 62
     1
 10
223.081894126047
 20
29.4305526720528
 30
0.0
 11
223.081894126047
 21
37.55055253377
 31
0.0
  0
LINE
  5
   67A
  8
0
  6
CONTINUOUS
 62
     1
 10
224.341894104589
 20
29.4305526720528
 30
0.0
 11
224.341894104589
 21
37.55055253377
 31
0.0
  0
LINE
  5
   67B
  8
0
  6
CONTINUOUS
 62
     1
 10
225.601894083131
 20
29.4305526720528
 30
0.0
 11
225.601894083131
 21
37.55055253377
 31
0.0
  0
LINE
  5
   67C
  8
0
  6
CONTINUOUS
 62
     1
 10
226.861894061674
 20
29.4305526720528
 30
0.0
 11
226.861894061674
 21
37.55055253377
 31
0.0
  0
LINE
  5
   67D
  8
0
  6
CONTINUOUS
 62
     1
 10
228.121894040216
 20
29.4305526720528
 30
0.0
 11
228.121894040216
 21
37.55055253377
 31
0.0
  0
LINE
  5
   67E
  8
0
  6
CONTINUOUS
 62
     1
 10
229.381894018758
 20
29.4305526720528
 30
0.0
 11
229.381894018758
 21
37.55055253377
 31
0.0
  0
LINE
  5
   67F
  8
0
  6
CONTINUOUS
 62
     1
 10
230.641893997301
 20
29.4305526720528
 30
0.0
 11
230.641893997301
 21
37.55055253377
 31
0.0
  0
LINE
  5
   680
  8
0
  6
CONTINUOUS
 62
     1
 10
255.666877990385
 20
29.4305526720528
 30
0.0
 11
255.666877990385
 21
37.55055253377
 31
0.0
  0
LINE
  5
   681
  8
0
  6
CONTINUOUS
 62
     1
 10
254.406878011842
 20
29.4305526720528
 30
0.0
 11
254.406878011842
 21
37.55055253377
 31
0.0
  0
LINE
  5
   682
  8
0
  6
CONTINUOUS
 62
     1
 10
253.1468780333
 20
29.4305526720528
 30
0.0
 11
253.1468780333
 21
37.55055253377
 31
0.0
  0
LINE
  5
   683
  8
0
  6
CONTINUOUS
 62
     1
 10
251.886878054758
 20
29.4305526720528
 30
0.0
 11
251.886878054758
 21
37.55055253377
 31
0.0
  0
LINE
  5
   684
  8
0
  6
CONTINUOUS
 62
     1
 10
250.626878076215
 20
29.4305526720528
 30
0.0
 11
250.626878076215
 21
37.55055253377
 31
0.0
  0
LINE
  5
   685
  8
0
  6
CONTINUOUS
 62
     1
 10
249.366878097673
 20
29.4305526720528
 30
0.0
 11
249.366878097673
 21
37.55055253377
 31
0.0
  0
LINE
  5
   686
  8
0
  6
CONTINUOUS
 62
     1
 10
248.106878119131
 20
29.4305526720528
 30
0.0
 11
248.106878119131
 21
37.55055253377
 31
0.0
  0
LINE
  5
   687
  8
0
  6
CONTINUOUS
 62
     1
 10
246.846878140588
 20
29.4305526720528
 30
0.0
 11
246.846878140588
 21
37.55055253377
 31
0.0
  0
LINE
  5
   688
  8
0
  6
CONTINUOUS
 62
     1
 10
245.586878162046
 20
29.4305526720528
 30
0.0
 11
245.586878162046
 21
37.55055253377
 31
0.0
  0
LINE
  5
   689
  8
0
  6
CONTINUOUS
 62
     1
 10
244.326878183504
 20
29.4305526720528
 30
0.0
 11
244.326878183504
 21
37.55055253377
 31
0.0
  0
LINE
  5
   68A
  8
0
  6
CONTINUOUS
 62
     1
 10
243.066878204961
 20
29.4305526720528
 30
0.0
 11
243.066878204961
 21
37.55055253377
 31
0.0
  0
LINE
  5
   68B
  8
0
  6
CONTINUOUS
 62
     1
 10
241.806878226419
 20
29.4305526720528
 30
0.0
 11
241.806878226419
 21
37.55055253377
 31
0.0
  0
LINE
  5
   68C
  8
0
  6
CONTINUOUS
 62
     1
 10
240.546878247877
 20
29.4305526720528
 30
0.0
 11
240.546878247877
 21
37.55055253377
 31
0.0
  0
LINE
  5
   68D
  8
0
  6
CONTINUOUS
 62
     1
 10
239.286878269334
 20
29.4305526720528
 30
0.0
 11
239.286878269334
 21
37.55055253377
 31
0.0
  0
LINE
  5
   68E
  8
0
  6
CONTINUOUS
 62
     1
 10
238.026878290792
 20
29.4305526720528
 30
0.0
 11
238.026878290792
 21
37.55055253377
 31
0.0
  0
LINE
  5
   68F
  8
0
  6
CONTINUOUS
 62
     1
 10
236.76687831225
 20
29.4305526720528
 30
0.0
 11
236.76687831225
 21
37.55055253377
 31
0.0
  0
LINE
  5
   690
  8
0
  6
CONTINUOUS
 62
     1
 10
235.506878333707
 20
29.4305526720528
 30
0.0
 11
235.506878333707
 21
37.55055253377
 31
0.0
  0
LINE
  5
   691
  8
0
  6
CONTINUOUS
 62
     1
 10
234.246878355165
 20
29.4305526720528
 30
0.0
 11
234.246878355165
 21
37.55055253377
 31
0.0
  0
LINE
  5
   692
  8
0
  6
CONTINUOUS
 62
     1
 10
232.986878376623
 20
29.4305526720528
 30
0.0
 11
232.986878376623
 21
37.55055253377
 31
0.0
  0
LINE
  5
   693
  8
0
  6
CONTINUOUS
 62
     1
 10
206.701894404996
 20
29.4305526720528
 30
0.0
 11
206.701894404996
 21
37.55055253377
 31
0.0
  0
LINE
  5
   694
  8
0
  6
CONTINUOUS
 62
     1
 10
205.441894426454
 20
29.4305526720528
 30
0.0
 11
205.441894426454
 21
37.55055253377
 31
0.0
  0
LINE
  5
   695
  8
0
  6
CONTINUOUS
 62
     1
 10
204.181894447912
 20
29.4305526720528
 30
0.0
 11
204.181894447912
 21
37.55055253377
 31
0.0
  0
LINE
  5
   696
  8
0
  6
CONTINUOUS
 62
     1
 10
202.921894469369
 20
29.4305526720528
 30
0.0
 11
202.921894469369
 21
37.55055253377
 31
0.0
  0
LINE
  5
   697
  8
0
  6
CONTINUOUS
 62
     1
 10
201.661894490827
 20
29.4305526720528
 30
0.0
 11
201.661894490827
 21
37.55055253377
 31
0.0
  0
LINE
  5
   698
  8
0
  6
CONTINUOUS
 62
     1
 10
200.401894512285
 20
29.4305526720528
 30
0.0
 11
200.401894512285
 21
37.55055253377
 31
0.0
  0
LINE
  5
   699
  8
0
  6
CONTINUOUS
 62
     1
 10
199.141894533742
 20
29.4305526720528
 30
0.0
 11
199.141894533742
 21
37.55055253377
 31
0.0
  0
LINE
  5
   69A
  8
0
  6
CONTINUOUS
 62
     1
 10
197.8818945552
 20
29.4305526720528
 30
0.0
 11
197.8818945552
 21
37.55055253377
 31
0.0
  0
LINE
  5
   69B
  8
0
  6
CONTINUOUS
 62
     1
 10
196.621894576658
 20
29.4305526720528
 30
0.0
 11
196.621894576658
 21
37.55055253377
 31
0.0
  0
LINE
  5
   69C
  8
0
  6
CONTINUOUS
 62
     1
 10
256.926877968927
 20
29.4305526720528
 30
0.0
 11
256.926877968927
 21
37.55055253377
 31
0.0
  0
LINE
  5
   69D
  8
0
  6
CONTINUOUS
 62
     1
 10
258.186877947469
 20
29.4305526720528
 30
0.0
 11
258.186877947469
 21
37.55055253377
 31
0.0
  0
LINE
  5
   69E
  8
0
  6
CONTINUOUS
 62
     1
 10
259.446877926012
 20
29.4305526720528
 30
0.0
 11
259.446877926012
 21
37.55055253377
 31
0.0
  0
LINE
  5
   69F
  8
0
  6
CONTINUOUS
 62
     1
 10
260.706877904554
 20
29.4305526720528
 30
0.0
 11
260.706877904554
 21
37.55055253377
 31
0.0
  0
LINE
  5
   6A0
  8
0
  6
CONTINUOUS
 62
     1
 10
261.966877883096
 20
29.4305526720528
 30
0.0
 11
261.966877883096
 21
37.55055253377
 31
0.0
  0
LINE
  5
   6A1
  8
0
  6
CONTINUOUS
 62
     1
 10
263.226877861639
 20
29.4305526720528
 30
0.0
 11
263.226877861639
 21
37.55055253377
 31
0.0
  0
LINE
  5
   6A2
  8
0
  6
CONTINUOUS
 62
     1
 10
264.486877840181
 20
29.4305526720528
 30
0.0
 11
264.486877840181
 21
37.55055253377
 31
0.0
  0
LINE
  5
   6A3
  8
0
  6
CONTINUOUS
 62
     1
 10
265.746877818723
 20
29.4305526720528
 30
0.0
 11
265.746877818723
 21
37.55055253377
 31
0.0
  0
LINE
  5
   6A4
  8
0
  6
CONTINUOUS
 62
     1
 10
267.006877797266
 20
29.4305526720528
 30
0.0
 11
267.006877797266
 21
37.55055253377
 31
0.0
  0
LINE
  5
   6A5
  8
0
  6
CONTINUOUS
 62
     7
 10
277.664383901032
 20
104.155562250393
 30
0.0
 11
278.889437455903
 21
104.155562250393
 31
0.0
  0
LINE
  5
   6A6
  8
0
  6
CONTINUOUS
 62
     1
 10
277.664383901032
 20
92.9555677817043
 30
0.0
 11
278.889437455903
 21
92.9555677817043
 31
0.0
  0
LINE
  5
   6A7
  8
0
  6
CONTINUOUS
 62
     1
 10
277.664383901032
 20
82.4555583474537
 30
0.0
 11
279.23943210943
 21
82.4555599496768
 31
0.0
  0
LINE
  5
   6A8
  8
0
  6
CONTINUOUS
 62
     7
 10
277.664383901032
 20
53.4930577725945
 30
0.0
 11
279.239437449942
 21
53.4930577725945
 31
0.0
  0
LINE
  5
   6A9
  8
0
  6
DASHDOT
 62
     7
 10
274.514436835343
 20
65.3930497799391
 30
0.0
 11
274.514436835343
 21
71.168049802675
 31
0.0
  0
LINE
  5
   6AA
  8
0
  6
DASHDOT
 62
     7
 10
271.626936823975
 20
68.2805497913071
 30
0.0
 11
277.401936846711
 21
68.2805497913071
 31
0.0
  0
INSERT
  5
   6AB
  8
255
  6
CONTINUOUS
 62
     2
  2
$1MOSTRA
 10
231.814384681853
 20
56.8180699871159
 30
0.0
 41
0.349999994039536
 42
0.349999994039536
 50
359.999999792138
 43
0.349999994039536
  0
LINE
  5
   6AC
  8
0
  6
CONTINUOUS
 62
     7
 10
195.50188680536
 20
173.28053652644
 30
0.0
 11
268.126885568563
 21
173.28053652644
 31
0.0
  0
LINE
  5
   6AD
  8
0
  6
CONTINUOUS
 62
     7
 10
195.06438681281
 20
29.8680526646022
 30
0.0
 11
195.06438681281
 21
172.84303653389
 31
0.0
  0
ARC
  5
   6AE
  8
0
  6
CONTINUOUS
 62
     7
 10
195.50188680536
 20
29.8680526646022
 30
0.0
 40
0.437499992549419
 50
180.0
 51
270.0
  0
LINE
  5
   6AF
  8
0
  6
CONTINUOUS
 62
     7
 10
268.564385561113
 20
29.8680526646022
 30
0.0
 11
268.564385561113
 21
47.9805627943255
 31
0.0
  0
LINE
  5
   6B0
  8
0
  6
CONTINUOUS
 62
     7
 10
268.564385561113
 20
116.580563628791
 30
0.0
 11
268.564385561113
 21
172.84303653389
 31
0.0
  0
ARC
  5
   6B1
  8
0
  6
CONTINUOUS
 62
     7
 10
268.126885568563
 20
29.8680526646022
 30
0.0
 40
0.437499992549419
 50
270.0
 51
360.0
  0
LINE
  5
   6B2
  8
0
  6
DOT
 62
     7
 10
268.564385561113
 20
47.9805627943255
 30
0.0
 11
268.564385561113
 21
116.580563628791
 31
0.0
  0
LINE
  5
   6B3
  8
0
  6
CONTINUOUS
 62
     7
 10
195.41438680685
 20
115.635537508128
 30
0.0
 11
198.214385254057
 21
115.635537508128
 31
0.0
  0
LINE
  5
   6B4
  8
0
  6
CONTINUOUS
 62
     7
 10
195.06438681281
 20
115.460537511108
 30
0.0
 11
198.214385254057
 21
115.460537511108
 31
0.0
  0
LINE
  5
   6B5
  8
0
  6
CONTINUOUS
 62
     7
 10
195.06438681281
 20
115.985537502168
 30
0.0
 11
198.214385254057
 21
115.985537502168
 31
0.0
  0
LINE
  5
   6B6
  8
0
  6
CONTINUOUS
 62
     7
 10
195.41438680685
 20
115.460537511108
 30
0.0
 11
195.41438680685
 21
115.985537502168
 31
0.0
  0
LINE
  5
   6B7
  8
0
  6
CONTINUOUS
 62
     7
 10
268.214385567073
 20
116.580563628791
 30
0.0
 11
268.214385567073
 21
116.847664454602
 31
0.0
  0
LINE
  5
   6B8
  8
0
  6
CONTINUOUS
 62
     1
 10
195.816894456852
 20
115.985537502168
 30
0.0
 11
195.816894456852
 21
163.760536688564
 31
0.0
  0
LINE
  5
   6B9
  8
0
  6
CONTINUOUS
 62
     1
 10
196.6218945099
 20
115.985537502168
 30
0.0
 11
196.6218945099
 21
163.760536688564
 31
0.0
  0
LINE
  5
   6BA
  8
0
  6
CONTINUOUS
 62
     1
 10
197.881894288171
 20
115.985537502168
 30
0.0
 11
197.881894288171
 21
163.760536688564
 31
0.0
  0
LINE
  5
   6BB
  8
0
  6
CONTINUOUS
 62
     1
 10
199.141894400228
 20
116.580563628791
 30
0.0
 11
199.141894400228
 21
163.760536688564
 31
0.0
  0
ARC
  5
   6BC
  8
0
  6
CONTINUOUS
 62
     7
 10
195.50188680536
 20
172.84303653389
 30
0.0
 40
0.437499992549419
 50
90.0
 51
180.0
  0
ARC
  5
   6BD
  8
0
  6
CONTINUOUS
 62
     7
 10
268.126885568563
 20
172.84303653389
 30
0.0
 40
0.437499992549419
 50
0.0
 51
90.0
  0
LINE
  5
   6BE
  8
0
  6
CONTINUOUS
 62
     1
 10
195.41438680685
 20
163.935536685584
 30
0.0
 11
268.214385567073
 21
163.935536685584
 31
0.0
  0
LINE
  5
   6BF
  8
0
  6
CONTINUOUS
 62
     1
 10
195.06438681281
 20
163.760536688564
 30
0.0
 11
268.564385561113
 21
163.760536688564
 31
0.0
  0
LINE
  5
   6C0
  8
0
  6
CONTINUOUS
 62
     1
 10
195.06438681281
 20
164.285536679624
 30
0.0
 11
268.564385561113
 21
164.285536679624
 31
0.0
  0
LINE
  5
   6C1
  8
0
  6
CONTINUOUS
 62
     1
 10
195.41438680685
 20
164.635536673663
 30
0.0
 11
195.41438680685
 21
165.160536664722
 31
0.0
  0
LINE
  5
   6C2
  8
0
  6
CONTINUOUS
 62
     1
 10
268.214385567073
 20
164.635536673663
 30
0.0
 11
268.214385567073
 21
165.160536664722
 31
0.0
  0
LINE
  5
   6C3
  8
0
  6
CONTINUOUS
 62
     1
 10
206.701894404996
 20
164.285536679624
 30
0.0
 11
206.701894404996
 21
173.28053652644
 31
0.0
  0
LINE
  5
   6C4
  8
0
  6
CONTINUOUS
 62
     1
 10
205.441892290224
 20
164.285536679624
 30
0.0
 11
205.441892290224
 21
173.28053652644
 31
0.0
  0
LINE
  5
   6C5
  8
0
  6
CONTINUOUS
 62
     1
 10
204.181890175451
 20
164.285536679624
 30
0.0
 11
204.181890175451
 21
173.28053652644
 31
0.0
  0
LINE
  5
   6C6
  8
0
  6
CONTINUOUS
 62
     1
 10
201.661891286481
 20
164.285536679624
 30
0.0
 11
201.661891286481
 21
173.28053652644
 31
0.0
  0
LINE
  5
   6C7
  8
0
  6
CONTINUOUS
 62
     1
 10
200.401894512285
 20
164.285536679624
 30
0.0
 11
200.401894512285
 21
173.28053652644
 31
0.0
  0
LINE
  5
   6C8
  8
0
  6
CONTINUOUS
 62
     1
 10
202.921893401254
 20
164.285536679624
 30
0.0
 11
202.921893401254
 21
173.28053652644
 31
0.0
  0
LINE
  5
   6C9
  8
0
  6
CONTINUOUS
 62
     1
 10
195.816894456852
 20
164.285536679624
 30
0.0
 11
195.816894456852
 21
173.28053652644
 31
0.0
  0
LINE
  5
   6CA
  8
0
  6
CONTINUOUS
 62
     1
 10
196.6218945099
 20
164.285536679624
 30
0.0
 11
196.6218945099
 21
173.28053652644
 31
0.0
  0
LINE
  5
   6CB
  8
0
  6
CONTINUOUS
 62
     1
 10
197.881894288171
 20
164.285536679624
 30
0.0
 11
197.881894288171
 21
173.28053652644
 31
0.0
  0
LINE
  5
   6CC
  8
0
  6
CONTINUOUS
 62
     1
 10
199.141894400228
 20
164.285536679624
 30
0.0
 11
199.141894400228
 21
173.28053652644
 31
0.0
  0
LINE
  5
   6CD
  8
0
  6
CONTINUOUS
 62
     1
 10
267.006889105547
 20
164.285536679624
 30
0.0
 11
267.006889105547
 21
173.28053652644
 31
0.0
  0
LINE
  5
   6CE
  8
0
  6
CONTINUOUS
 62
     1
 10
267.811890159954
 20
164.285536679624
 30
0.0
 11
267.811890159954
 21
173.28053652644
 31
0.0
  0
LINE
  5
   6CF
  8
0
  6
CONTINUOUS
 62
     1
 10
261.966891327609
 20
164.285536679624
 30
0.0
 11
261.966891327609
 21
173.28053652644
 31
0.0
  0
LINE
  5
   6D0
  8
0
  6
CONTINUOUS
 62
     1
 10
263.226888101805
 20
164.285536679624
 30
0.0
 11
263.226888101805
 21
173.28053652644
 31
0.0
  0
LINE
  5
   6D1
  8
0
  6
CONTINUOUS
 62
     1
 10
264.486890216578
 20
164.285536679624
 30
0.0
 11
264.486890216578
 21
173.28053652644
 31
0.0
  0
LINE
  5
   6D2
  8
0
  6
CONTINUOUS
 62
     1
 10
265.746892331351
 20
164.285536679624
 30
0.0
 11
265.746892331351
 21
173.28053652644
 31
0.0
  0
LINE
  5
   6D3
  8
0
  6
CONTINUOUS
 62
     1
 10
257.101888206113
 20
164.285536679624
 30
0.0
 11
257.101888206113
 21
173.28053652644
 31
0.0
  0
LINE
  5
   6D4
  8
0
  6
CONTINUOUS
 62
     1
 10
258.186890323866
 20
164.285536679624
 30
0.0
 11
258.186890323866
 21
173.28053652644
 31
0.0
  0
LINE
  5
   6D5
  8
0
  6
CONTINUOUS
 62
     1
 10
259.446892438639
 20
164.285536679624
 30
0.0
 11
259.446892438639
 21
173.28053652644
 31
0.0
  0
LINE
  5
   6D6
  8
0
  6
CONTINUOUS
 62
     1
 10
260.706889212836
 20
164.285536679624
 30
0.0
 11
260.706889212836
 21
173.28053652644
 31
0.0
  0
LINE
  5
   6D7
  8
0
  6
CONTINUOUS
 62
     7
 10
195.41438680685
 20
37.9005525278096
 30
0.0
 11
268.214385567073
 21
37.9005525278096
 31
0.0
  0
LINE
  5
   6D8
  8
0
  6
CONTINUOUS
 62
     7
 10
195.06438681281
 20
37.55055253377
 30
0.0
 11
268.564385561113
 21
37.55055253377
 31
0.0
  0
LINE
  5
   6D9
  8
0
  6
CONTINUOUS
 62
     7
 10
195.06438681281
 20
38.0755525248293
 30
0.0
 11
268.564385561113
 21
38.0755525248293
 31
0.0
  0
LINE
  5
   6DA
  8
0
  6
CONTINUOUS
 62
     7
 10
195.41438680685
 20
37.55055253377
 30
0.0
 11
195.41438680685
 21
38.0755525248293
 31
0.0
  0
LINE
  5
   6DB
  8
0
  6
CONTINUOUS
 62
     7
 10
268.214385567073
 20
37.55055253377
 30
0.0
 11
268.214385567073
 21
38.0755525248293
 31
0.0
  0
LINE
  5
   6DC
  8
0
  6
CONTINUOUS
 62
     1
 10
206.701894404996
 20
38.0755525248293
 30
0.0
 11
206.701894404996
 21
47.9805627943255
 31
0.0
  0
LINE
  5
   6DD
  8
0
  6
CONTINUOUS
 62
     1
 10
205.441894426454
 20
38.0755525248293
 30
0.0
 11
205.441894426454
 21
47.9805627943255
 31
0.0
  0
LINE
  5
   6DE
  8
0
  6
CONTINUOUS
 62
     1
 10
204.181894447912
 20
38.0755525248293
 30
0.0
 11
204.181894447912
 21
47.9805627943255
 31
0.0
  0
LINE
  5
   6DF
  8
0
  6
CONTINUOUS
 62
     1
 10
202.921894469369
 20
38.0755525248293
 30
0.0
 11
202.921894469369
 21
47.9805627943255
 31
0.0
  0
LINE
  5
   6E0
  8
0
  6
CONTINUOUS
 62
     1
 10
201.661894490827
 20
38.0755525248293
 30
0.0
 11
201.661894490827
 21
47.9805627943255
 31
0.0
  0
LINE
  5
   6E1
  8
0
  6
CONTINUOUS
 62
     1
 10
200.401894512285
 20
38.0755525248293
 30
0.0
 11
200.401894512285
 21
47.9805627943255
 31
0.0
  0
LINE
  5
   6E2
  8
0
  6
CONTINUOUS
 62
     1
 10
199.141894533742
 20
38.0755525248293
 30
0.0
 11
199.141894533742
 21
47.9805627943255
 31
0.0
  0
LINE
  5
   6E3
  8
0
  6
CONTINUOUS
 62
     1
 10
197.8818945552
 20
38.0755525248293
 30
0.0
 11
197.8818945552
 21
53.9305522548369
 31
0.0
  0
LINE
  5
   6E4
  8
0
  6
CONTINUOUS
 62
     1
 10
196.621894576658
 20
38.0755525248293
 30
0.0
 11
196.621894576658
 21
54.2805522280148
 31
0.0
  0
LINE
  5
   6E5
  8
0
  6
CONTINUOUS
 62
     1
 10
256.926877968927
 20
38.0755525248293
 30
0.0
 11
256.926877968927
 21
47.9805627943255
 31
0.0
  0
LINE
  5
   6E6
  8
0
  6
CONTINUOUS
 62
     1
 10
258.186877947469
 20
38.0755525248293
 30
0.0
 11
258.186877947469
 21
47.9805627943255
 31
0.0
  0
LINE
  5
   6E7
  8
0
  6
CONTINUOUS
 62
     1
 10
259.446877926012
 20
38.0755525248293
 30
0.0
 11
259.446877926012
 21
47.9805627943255
 31
0.0
  0
LINE
  5
   6E8
  8
0
  6
CONTINUOUS
 62
     1
 10
260.706877904554
 20
38.0755525248293
 30
0.0
 11
260.706877904554
 21
47.9805627943255
 31
0.0
  0
LINE
  5
   6E9
  8
0
  6
CONTINUOUS
 62
     1
 10
261.966877883096
 20
38.0755525248293
 30
0.0
 11
261.966877883096
 21
47.9805627943255
 31
0.0
  0
LINE
  5
   6EA
  8
0
  6
CONTINUOUS
 62
     1
 10
263.226877861639
 20
38.0755525248293
 30
0.0
 11
263.226877861639
 21
47.9805627943255
 31
0.0
  0
LINE
  5
   6EB
  8
0
  6
CONTINUOUS
 62
     1
 10
264.486877840181
 20
38.0755525248293
 30
0.0
 11
264.486877840181
 21
47.9805627943255
 31
0.0
  0
LINE
  5
   6EC
  8
0
  6
CONTINUOUS
 62
     1
 10
265.746877818723
 20
38.0755525248293
 30
0.0
 11
265.746877818723
 21
47.9805627943255
 31
0.0
  0
LINE
  5
   6ED
  8
0
  6
CONTINUOUS
 62
     1
 10
267.006877797266
 20
38.0755525248293
 30
0.0
 11
267.006877797266
 21
47.9805627943255
 31
0.0
  0
LINE
  5
   6EE
  8
0
  6
CONTINUOUS
 62
     1
 10
256.314385769729
 20
38.0755525248293
 30
0.0
 11
256.314385769729
 21
47.9805627943255
 31
0.0
  0
LINE
  5
   6EF
  8
0
  6
CONTINUOUS
 62
     1
 10
207.314386604194
 20
38.0755525248293
 30
0.0
 11
207.314386604194
 21
47.9805627943255
 31
0.0
  0
LINE
  5
   6F0
  8
0
  6
CONTINUOUS
 62
     1
 10
207.839386595253
 20
162.080536717174
 30
0.0
 11
255.78938577867
 21
162.080536717174
 31
0.0
  0
LINE
  5
   6F1
  8
0
  6
CONTINUOUS
 62
     1
 10
207.839386595253
 20
154.730536842344
 30
0.0
 11
255.78938577867
 21
154.730536842344
 31
0.0
  0
LINE
  5
   6F2
  8
0
  6
CONTINUOUS
 62
     1
 10
207.839386595253
 20
154.730536842344
 30
0.0
 11
207.839386595253
 21
162.080536717174
 31
0.0
  0
LINE
  5
   6F3
  8
0
  6
CONTINUOUS
 62
     1
 10
255.78938577867
 20
154.730536842344
 30
0.0
 11
255.78938577867
 21
162.080536717174
 31
0.0
  0
LINE
  5
   6F4
  8
0
  6
CONTINUOUS
 62
     1
 10
226.686886274282
 20
117.280537480114
 30
0.0
 11
227.316886263554
 21
117.280537480114
 31
0.0
  0
LINE
  5
   6F5
  8
0
  6
CONTINUOUS
 62
     1
 10
226.686886274282
 20
121.480537408588
 30
0.0
 11
227.316886263554
 21
121.480537408588
 31
0.0
  0
LINE
  5
   6F6
  8
0
  6
CONTINUOUS
 62
     1
 10
232.356886177723
 20
117.280537480114
 30
0.0
 11
232.356886177723
 21
120.25553742945
 31
0.0
  0
LINE
  5
   6F7
  8
0
  6
CONTINUOUS
 62
     1
 10
231.726886188452
 20
117.280537480114
 30
0.0
 11
231.726886188452
 21
120.25553742945
 31
0.0
  0
LINE
  5
   6F8
  8
0
  6
CONTINUOUS
 62
     1
 10
230.466886209909
 20
117.280537480114
 30
0.0
 11
230.466886209909
 21
120.25553742945
 31
0.0
  0
LINE
  5
   6F9
  8
0
  6
CONTINUOUS
 62
     1
 10
231.096886199181
 20
117.280537480114
 30
0.0
 11
231.096886199181
 21
120.25553742945
 31
0.0
  0
LINE
  5
   6FA
  8
0
  6
CONTINUOUS
 62
     1
 10
229.836886220638
 20
117.280537480114
 30
0.0
 11
229.836886220638
 21
121.480537408588
 31
0.0
  0
LINE
  5
   6FB
  8
0
  6
CONTINUOUS
 62
     1
 10
232.986886166994
 20
117.280537480114
 30
0.0
 11
232.986886166994
 21
121.480537408588
 31
0.0
  0
LINE
  5
   6FC
  8
0
  6
CONTINUOUS
 62
     1
 10
233.616886156265
 20
117.280537480114
 30
0.0
 11
233.616886156265
 21
121.480537408588
 31
0.0
  0
LINE
  5
   6FD
  8
0
  6
CONTINUOUS
 62
     1
 10
234.246886145536
 20
117.280537480114
 30
0.0
 11
234.246886145536
 21
121.480537408588
 31
0.0
  0
LINE
  5
   6FE
  8
0
  6
CONTINUOUS
 62
     1
 10
234.876886134808
 20
117.280537480114
 30
0.0
 11
234.876886134808
 21
121.480537408588
 31
0.0
  0
LINE
  5
   6FF
  8
0
  6
CONTINUOUS
 62
     1
 10
235.506886124079
 20
117.280537480114
 30
0.0
 11
235.506886124079
 21
121.480537408588
 31
0.0
  0
LINE
  5
   700
  8
0
  6
CONTINUOUS
 62
     1
 10
236.13688611335
 20
117.280537480114
 30
0.0
 11
236.13688611335
 21
121.480537408588
 31
0.0
  0
LINE
  5
   701
  8
0
  6
CONTINUOUS
 62
     1
 10
229.206886231367
 20
117.280537480114
 30
0.0
 11
229.206886231367
 21
121.480537408588
 31
0.0
  0
LINE
  5
   702
  8
0
  6
CONTINUOUS
 62
     1
 10
228.576886242096
 20
117.280537480114
 30
0.0
 11
228.576886242096
 21
121.480537408588
 31
0.0
  0
LINE
  5
   703
  8
0
  6
CONTINUOUS
 62
     1
 10
227.946886252825
 20
117.280537480114
 30
0.0
 11
227.946886252825
 21
121.480537408588
 31
0.0
  0
LINE
  5
   704
  8
0
  6
CONTINUOUS
 62
     1
 10
227.316886263554
 20
117.280537480114
 30
0.0
 11
227.316886263554
 21
121.480537408588
 31
0.0
  0
LINE
  5
   705
  8
0
  6
CONTINUOUS
 62
     1
 10
226.686886274282
 20
117.280537480114
 30
0.0
 11
226.686886274282
 21
121.480537408588
 31
0.0
  0
LINE
  5
   706
  8
0
  6
CONTINUOUS
 62
     1
 10
229.206886231367
 20
121.480537408588
 30
0.0
 11
229.836886220638
 21
121.480537408588
 31
0.0
  0
LINE
  5
   707
  8
0
  6
CONTINUOUS
 62
     1
 10
227.946886252825
 20
121.480537408588
 30
0.0
 11
228.576886242096
 21
121.480537408588
 31
0.0
  0
LINE
  5
   708
  8
0
  6
CONTINUOUS
 62
     1
 10
227.946886252825
 20
117.280537480114
 30
0.0
 11
228.576886242096
 21
117.280537480114
 31
0.0
  0
LINE
  5
   709
  8
0
  6
CONTINUOUS
 62
     1
 10
229.206886231367
 20
117.280537480114
 30
0.0
 11
229.836886220638
 21
117.280537480114
 31
0.0
  0
LINE
  5
   70A
  8
0
  6
CONTINUOUS
 62
     1
 10
234.246886145536
 20
121.480537408588
 30
0.0
 11
234.876886134808
 21
121.480537408588
 31
0.0
  0
LINE
  5
   70B
  8
0
  6
CONTINUOUS
 62
     1
 10
234.246886145536
 20
117.280537480114
 30
0.0
 11
234.876886134808
 21
117.280537480114
 31
0.0
  0
LINE
  5
   70C
  8
0
  6
CONTINUOUS
 62
     1
 10
235.506886124079
 20
117.280537480114
 30
0.0
 11
236.13688611335
 21
117.280537480114
 31
0.0
  0
LINE
  5
   70D
  8
0
  6
CONTINUOUS
 62
     1
 10
235.506886124079
 20
121.480537408588
 30
0.0
 11
236.13688611335
 21
121.480537408588
 31
0.0
  0
LINE
  5
   70E
  8
0
  6
CONTINUOUS
 62
     1
 10
232.986886166994
 20
121.480537408588
 30
0.0
 11
233.616886156265
 21
121.480537408588
 31
0.0
  0
LINE
  5
   70F
  8
0
  6
CONTINUOUS
 62
     1
 10
230.466886209909
 20
120.25553742945
 30
0.0
 11
231.096886199181
 21
120.25553742945
 31
0.0
  0
LINE
  5
   710
  8
0
  6
CONTINUOUS
 62
     1
 10
231.726886188452
 20
120.25553742945
 30
0.0
 11
232.30999325458
 21
120.25553742945
 31
0.0
  0
LINE
  5
   711
  8
0
  6
CONTINUOUS
 62
     1
 10
231.726886188452
 20
117.280537480114
 30
0.0
 11
232.356886177723
 21
117.280537480114
 31
0.0
  0
LINE
  5
   712
  8
0
  6
CONTINUOUS
 62
     1
 10
230.466886209909
 20
117.280537480114
 30
0.0
 11
231.096886199181
 21
117.280537480114
 31
0.0
  0
LINE
  5
   713
  8
0
  6
CONTINUOUS
 62
     1
 10
232.986886166994
 20
117.280537480114
 30
0.0
 11
233.616886156265
 21
117.280537480114
 31
0.0
  0
LINE
  5
   714
  8
0
  6
CONTINUOUS
 62
     1
 10
202.291894480098
 20
117.280537480114
 30
0.0
 11
202.291894480098
 21
121.480537408588
 31
0.0
  0
LINE
  5
   715
  8
0
  6
CONTINUOUS
 62
     1
 10
202.291894480098
 20
121.480537408588
 30
0.0
 11
202.921894469369
 21
121.480537408588
 31
0.0
  0
LINE
  5
   716
  8
0
  6
CONTINUOUS
 62
     1
 10
202.291894480098
 20
117.280537480114
 30
0.0
 11
202.921894469369
 21
117.280537480114
 31
0.0
  0
LINE
  5
   717
  8
0
  6
CONTINUOUS
 62
     1
 10
203.55189445864
 20
121.480537408588
 30
0.0
 11
204.181894447912
 21
121.480537408588
 31
0.0
  0
LINE
  5
   718
  8
0
  6
CONTINUOUS
 62
     1
 10
203.55189445864
 20
117.280537480114
 30
0.0
 11
203.55189445864
 21
121.480537408588
 31
0.0
  0
LINE
  5
   719
  8
0
  6
CONTINUOUS
 62
     1
 10
203.55189445864
 20
117.280537480114
 30
0.0
 11
204.181894447912
 21
117.280537480114
 31
0.0
  0
LINE
  5
   71A
  8
0
  6
CONTINUOUS
 62
     1
 10
204.811894437183
 20
121.480537408588
 30
0.0
 11
205.441894426454
 21
121.480537408588
 31
0.0
  0
LINE
  5
   71B
  8
0
  6
CONTINUOUS
 62
     1
 10
204.811894437183
 20
117.280537480114
 30
0.0
 11
204.811894437183
 21
121.480537408588
 31
0.0
  0
LINE
  5
   71C
  8
0
  6
CONTINUOUS
 62
     1
 10
204.811894437183
 20
117.280537480114
 30
0.0
 11
205.441894426454
 21
117.280537480114
 31
0.0
  0
LINE
  5
   71D
  8
0
  6
CONTINUOUS
 62
     1
 10
206.071894415725
 20
120.25553742945
 30
0.0
 11
206.701894404996
 21
120.25553742945
 31
0.0
  0
LINE
  5
   71E
  8
0
  6
CONTINUOUS
 62
     1
 10
206.071894415725
 20
117.280537480114
 30
0.0
 11
206.701894404996
 21
117.280537480114
 31
0.0
  0
LINE
  5
   71F
  8
0
  6
CONTINUOUS
 62
     1
 10
207.331894394267
 20
117.280537480114
 30
0.0
 11
207.961894383539
 21
117.280537480114
 31
0.0
  0
LINE
  5
   720
  8
0
  6
CONTINUOUS
 62
     1
 10
207.331894394267
 20
117.280537480114
 30
0.0
 11
207.331894394267
 21
120.25553742945
 31
0.0
  0
LINE
  5
   721
  8
0
  6
CONTINUOUS
 62
     1
 10
207.331894394267
 20
120.25553742945
 30
0.0
 11
207.915001460395
 21
120.25553742945
 31
0.0
  0
LINE
  5
   722
  8
0
  6
CONTINUOUS
 62
     1
 10
206.071894415725
 20
117.280537480114
 30
0.0
 11
206.071894415725
 21
120.25553742945
 31
0.0
  0
LINE
  5
   723
  8
0
  6
CONTINUOUS
 62
     1
 10
207.961894383539
 20
117.280537480114
 30
0.0
 11
207.961894383539
 21
120.25553742945
 31
0.0
  0
LINE
  5
   724
  8
0
  6
CONTINUOUS
 62
     1
 10
208.59189437281
 20
121.480537408588
 30
0.0
 11
209.221894362081
 21
121.480537408588
 31
0.0
  0
LINE
  5
   725
  8
0
  6
CONTINUOUS
 62
     1
 10
208.59189437281
 20
117.280537480114
 30
0.0
 11
208.59189437281
 21
121.480537408588
 31
0.0
  0
LINE
  5
   726
  8
0
  6
CONTINUOUS
 62
     1
 10
208.59189437281
 20
117.280537480114
 30
0.0
 11
209.221894362081
 21
117.280537480114
 31
0.0
  0
LINE
  5
   727
  8
0
  6
CONTINUOUS
 62
     1
 10
209.221894362081
 20
117.280537480114
 30
0.0
 11
209.221894362081
 21
121.480537408588
 31
0.0
  0
LINE
  5
   728
  8
0
  6
CONTINUOUS
 62
     1
 10
209.851894351352
 20
121.480537408588
 30
0.0
 11
210.481894340623
 21
121.480537408588
 31
0.0
  0
LINE
  5
   729
  8
0
  6
CONTINUOUS
 62
     1
 10
211.111894329894
 20
121.480537408588
 30
0.0
 11
211.741894319166
 21
121.480537408588
 31
0.0
  0
LINE
  5
   72A
  8
0
  6
CONTINUOUS
 62
     1
 10
211.741894319166
 20
117.280537480114
 30
0.0
 11
211.741894319166
 21
121.480537408588
 31
0.0
  0
LINE
  5
   72B
  8
0
  6
CONTINUOUS
 62
     1
 10
211.111894329894
 20
117.280537480114
 30
0.0
 11
211.111894329894
 21
121.480537408588
 31
0.0
  0
LINE
  5
   72C
  8
0
  6
CONTINUOUS
 62
     1
 10
210.481894340623
 20
117.280537480114
 30
0.0
 11
210.481894340623
 21
121.480537408588
 31
0.0
  0
LINE
  5
   72D
  8
0
  6
CONTINUOUS
 62
     1
 10
209.851894351352
 20
117.280537480114
 30
0.0
 11
209.851894351352
 21
121.480537408588
 31
0.0
  0
LINE
  5
   72E
  8
0
  6
CONTINUOUS
 62
     1
 10
209.851894351352
 20
117.280537480114
 30
0.0
 11
210.481894340623
 21
117.280537480114
 31
0.0
  0
LINE
  5
   72F
  8
0
  6
CONTINUOUS
 62
     1
 10
211.111894329894
 20
117.280537480114
 30
0.0
 11
211.741894319166
 21
117.280537480114
 31
0.0
  0
LINE
  5
   730
  8
0
  6
CONTINUOUS
 62
     1
 10
258.186890323866
 20
117.280537480114
 30
0.0
 11
258.816890313138
 21
117.280537480114
 31
0.0
  0
LINE
  5
   731
  8
0
  6
CONTINUOUS
 62
     1
 10
255.666890366782
 20
117.280537480114
 30
0.0
 11
256.296890356053
 21
117.280537480114
 31
0.0
  0
LINE
  5
   732
  8
0
  6
CONTINUOUS
 62
     1
 10
256.926890345324
 20
117.280537480114
 30
0.0
 11
257.556890334595
 21
117.280537480114
 31
0.0
  0
LINE
  5
   733
  8
0
  6
CONTINUOUS
 62
     1
 10
256.926890345324
 20
120.25553742945
 30
0.0
 11
257.556890334595
 21
120.25553742945
 31
0.0
  0
LINE
  5
   734
  8
0
  6
CONTINUOUS
 62
     1
 10
255.666890366782
 20
120.25553742945
 30
0.0
 11
256.296890356053
 21
120.25553742945
 31
0.0
  0
LINE
  5
   735
  8
0
  6
CONTINUOUS
 62
     1
 10
258.186890323866
 20
121.480537408588
 30
0.0
 11
258.816890313138
 21
121.480537408588
 31
0.0
  0
LINE
  5
   736
  8
0
  6
CONTINUOUS
 62
     1
 10
259.446890302409
 20
117.280537480114
 30
0.0
 11
260.07689029168
 21
117.280537480114
 31
0.0
  0
LINE
  5
   737
  8
0
  6
CONTINUOUS
 62
     1
 10
259.446890302409
 20
121.480537408588
 30
0.0
 11
260.07689029168
 21
121.480537408588
 31
0.0
  0
LINE
  5
   738
  8
0
  6
CONTINUOUS
 62
     1
 10
254.406890388239
 20
117.280537480114
 30
0.0
 11
255.036890377511
 21
117.280537480114
 31
0.0
  0
LINE
  5
   739
  8
0
  6
CONTINUOUS
 62
     1
 10
253.146890409697
 20
117.280537480114
 30
0.0
 11
253.776890398968
 21
117.280537480114
 31
0.0
  0
LINE
  5
   73A
  8
0
  6
CONTINUOUS
 62
     1
 10
253.146890409697
 20
121.480537408588
 30
0.0
 11
253.776890398968
 21
121.480537408588
 31
0.0
  0
LINE
  5
   73B
  8
0
  6
CONTINUOUS
 62
     1
 10
254.406890388239
 20
121.480537408588
 30
0.0
 11
255.036890377511
 21
121.480537408588
 31
0.0
  0
LINE
  5
   73C
  8
0
  6
CONTINUOUS
 62
     1
 10
251.886890431155
 20
117.280537480114
 30
0.0
 11
251.886890431155
 21
121.480537408588
 31
0.0
  0
LINE
  5
   73D
  8
0
  6
CONTINUOUS
 62
     1
 10
252.516890420426
 20
117.280537480114
 30
0.0
 11
252.516890420426
 21
121.480537408588
 31
0.0
  0
LINE
  5
   73E
  8
0
  6
CONTINUOUS
 62
     1
 10
253.146890409697
 20
117.280537480114
 30
0.0
 11
253.146890409697
 21
121.480537408588
 31
0.0
  0
LINE
  5
   73F
  8
0
  6
CONTINUOUS
 62
     1
 10
253.776890398968
 20
117.280537480114
 30
0.0
 11
253.776890398968
 21
121.480537408588
 31
0.0
  0
LINE
  5
   740
  8
0
  6
CONTINUOUS
 62
     1
 10
254.406890388239
 20
117.280537480114
 30
0.0
 11
254.406890388239
 21
121.480537408588
 31
0.0
  0
LINE
  5
   741
  8
0
  6
CONTINUOUS
 62
     1
 10
261.336890270222
 20
117.280537480114
 30
0.0
 11
261.336890270222
 21
121.480537408588
 31
0.0
  0
LINE
  5
   742
  8
0
  6
CONTINUOUS
 62
     1
 10
260.07689029168
 20
117.280537480114
 30
0.0
 11
260.07689029168
 21
121.480537408588
 31
0.0
  0
LINE
  5
   743
  8
0
  6
CONTINUOUS
 62
     1
 10
258.816890313138
 20
117.280537480114
 30
0.0
 11
258.816890313138
 21
121.480537408588
 31
0.0
  0
LINE
  5
   744
  8
0
  6
CONTINUOUS
 62
     1
 10
255.036890377511
 20
117.280537480114
 30
0.0
 11
255.036890377511
 21
121.480537408588
 31
0.0
  0
LINE
  5
   745
  8
0
  6
CONTINUOUS
 62
     1
 10
256.296890356053
 20
117.280537480114
 30
0.0
 11
256.296890356053
 21
120.25553742945
 31
0.0
  0
LINE
  5
   746
  8
0
  6
CONTINUOUS
 62
     1
 10
255.666890366782
 20
117.280537480114
 30
0.0
 11
255.666890366782
 21
120.25553742945
 31
0.0
  0
LINE
  5
   747
  8
0
  6
CONTINUOUS
 62
     1
 10
257.556890334595
 20
117.280537480114
 30
0.0
 11
257.556890334595
 21
120.25553742945
 31
0.0
  0
LINE
  5
   748
  8
0
  6
CONTINUOUS
 62
     1
 10
251.886890431155
 20
121.480537408588
 30
0.0
 11
252.516890420426
 21
121.480537408588
 31
0.0
  0
LINE
  5
   749
  8
0
  6
CONTINUOUS
 62
     1
 10
251.886890431155
 20
117.280537480114
 30
0.0
 11
252.516890420426
 21
117.280537480114
 31
0.0
  0
LINE
  5
   74A
  8
0
  6
CONTINUOUS
 62
     1
 10
256.926890345324
 20
116.580563628791
 30
0.0
 11
256.926890345324
 21
163.760536688564
 31
0.0
  0
LINE
  5
   74B
  8
0
  6
CONTINUOUS
 62
     1
 10
260.706889212836
 20
121.480537408588
 30
0.0
 11
261.336890270222
 21
121.480537408588
 31
0.0
  0
LINE
  5
   74C
  8
0
  6
CONTINUOUS
 62
     1
 10
260.706889212836
 20
117.280537480114
 30
0.0
 11
261.336890270222
 21
117.280537480114
 31
0.0
  0
CIRCLE
  5
   74D
  8
0
  6
CONTINUOUS
 62
     1
 10
219.564386395578
 20
118.348037461935
 30
0.0
 40
1.39999997615814
  0
CIRCLE
  5
   74E
  8
0
  6
CONTINUOUS
 62
     1
 10
244.064385978345
 20
118.348037461935
 30
0.0
 40
1.39999997615814
  0
LINE
  5
   74F
  8
0
  6
CONTINUOUS
 62
     1
 10
267.864369623207
 20
29.4305526720528
 30
0.0
 11
267.864369623207
 21
37.55055253377
 31
0.0
  0
LINE
  5
   750
  8
0
  6
CONTINUOUS
 62
     1
 10
195.764394591261
 20
29.4305526720528
 30
0.0
 11
195.764394591261
 21
37.55055253377
 31
0.0
  0
TEXT
  5
   751
  8
0
  6
CONTINUOUS
 62
     7
 10
172.14014807198
 20
80.392561190337
 30
0.0
 40
2.99999997871263
  1
X
 41
0.933333333333333
 72
     1
 11
173.240148064175
 21
81.8925611796933
 31
0.0
 73
     2
  0
TEXT
  5
   752
  8
0
  6
CONTINUOUS
 62
     7
 10
285.935867556024
 20
80.392561190337
 30
0.0
 40
2.99999997871263
  1
X
 41
0.933333333333333
 72
     1
 11
287.035867548219
 21
81.8925611796933
 31
0.0
 73
     2
  0
INSERT
  5
   753
  8
0
  6
CONTINUOUS
 62
     7
  2
*UDIM1786
 10
0.0
 20
0.0
 30
0.0
  0
INSERT
  5
   754
  8
0
  6
CONTINUOUS
 62
     7
  2
*UDIM1787
 10
0.0
 20
0.0
 30
0.0
  0
INSERT
  5
   755
  8
0
  6
CONTINUOUS
 62
     7
  2
*UDIM1788
 10
0.0
 20
0.0
 30
0.0
  0
INSERT
  5
   756
  8
0
  6
CONTINUOUS
 62
     7
  2
*UDIM1789
 10
0.0
 20
0.0
 30
0.0
  0
INSERT
  5
   757
  8
0
  6
CONTINUOUS
 62
     7
  2
*UDIM1790
 10
0.0
 20
0.0
 30
0.0
  0
INSERT
  5
   758
  8
0
  6
CONTINUOUS
 62
     7
  2
*UDIM1791
 10
0.0
 20
0.0
 30
0.0
  0
INSERT
  5
   759
  8
0
  6
CONTINUOUS
 62
     7
  2
*UDIM1792
 10
0.0
 20
0.0
 30
0.0
  0
INSERT
  5
   75A
  8
0
  6
CONTINUOUS
 62
     7
  2
*UDIM1793
 10
0.0
 20
0.0
 30
0.0
  0
INSERT
  5
   75B
  8
0
  6
CONTINUOUS
 62
     7
  2
*UDIM1794
 10
0.0
 20
0.0
 30
0.0
  0
INSERT
  5
   75C
  8
0
  6
CONTINUOUS
 62
     7
  2
*UDIM1795
 10
0.0
 20
0.0
 30
0.0
  0
TEXT
  5
   75D
  8
0
  6
CONTINUOUS
 62
     7
 10
230.857347198277
 20
-15.1189736458839
 30
0.0
 40
2.99999997871263
  1
Y
 41
0.91666663951344
 72
     2
 11
233.057347133989
 21
-15.1189736458839
 31
0.0
  0
INSERT
  5
   75E
  8
0
  6
CONTINUOUS
 62
     7
  2
*UDIM1796
 10
0.0
 20
0.0
 30
0.0
  0
LINE
  5
   75F
  8
0
  6
CONTINUOUS
 62
     7
 10
181.57885362155
 20
-126.922570089395
 30
0.0
 11
181.57885362155
 21
-146.055787563465
 31
0.0
  0
LINE
  5
   760
  8
0
  6
CONTINUOUS
 62
     7
 10
179.978853597708
 20
-126.922570089395
 30
0.0
 11
179.978853597708
 21
-146.055787563465
 31
0.0
  0
LINE
  5
   761
  8
0
  6
CONTINUOUS
 62
     7
 10
181.57885362155
 20
-133.546619372699
 30
0.0
 11
179.978853597708
 21
-134.889178802588
 31
0.0
  0
LINE
  5
   762
  8
0
  6
CONTINUOUS
 62
     7
 10
179.978853597708
 20
-138.089178850272
 30
0.0
 11
181.57885362155
 21
-139.431738280161
 31
0.0
  0
LINE
  5
   763
  8
0
  6
CONTINUOUS
 62
     7
 10
179.978853597708
 20
-144.089178939679
 30
0.0
 11
181.57885362155
 21
-144.089178939679
 31
0.0
  0
CIRCLE
  5
   764
  8
0
  6
CONTINUOUS
 62
     7
 10
180.778853609629
 20
-136.48917882643
 30
0.0
 40
9.60000014305115
  0
LINE
  5
   765
  8
0
  6
CONTINUOUS
 62
     7
 10
175.178859629698
 20
-140.089178880074
 30
0.0
 11
177.1788596595
 21
-140.089178880074
 31
0.0
  0
LINE
  5
   766
  8
0
  6
CONTINUOUS
 62
     7
 10
177.978859671421
 20
-132.889178772786
 30
0.0
 11
177.978859671421
 21
-139.289178868153
 31
0.0
  0
LINE
  5
   767
  8
0
  6
CONTINUOUS
 62
     7
 10
177.978859671421
 20
-132.889178772786
 30
0.0
 11
179.978853597708
 21
-132.889178772786
 31
0.0
  0
LINE
  5
   768
  8
0
  6
CONTINUOUS
 62
     7
 10
175.178859629698
 20
-142.089178909876
 30
0.0
 11
177.1788596595
 21
-142.089178909876
 31
0.0
  0
LINE
  5
   769
  8
0
  6
CONTINUOUS
 62
     7
 10
174.378859617777
 20
-142.889178921797
 30
0.0
 11
174.378859617777
 21
-143.644601920199
 31
0.0
  0
ARC
  5
   76A
  8
0
  6
CONTINUOUS
 62
     7
 10
177.178862977324
 20
-139.289179405224
 30
0.0
 40
0.79999759416018
 50
629.999840735313
 51
720.000252836193
  0
ARC
  5
   76B
  8
0
  6
CONTINUOUS
 62
     7
 10
175.178871352503
 20
-142.889189070841
 30
0.0
 40
2.80001480421589
 50
450.000186734275
 51
513.408761128067
  0
ARC
  5
   76C
  8
0
  6
CONTINUOUS
 62
     7
 10
175.178824231177
 20
-142.889146205971
 30
0.0
 40
0.799959868915134
 50
449.997764042825
 51
540.001169660043
  0
ARC
  5
   76D
  8
0
  6
CONTINUOUS
 62
     7
 10
177.178875141406
 20
-139.289204505701
 30
0.0
 40
2.79997688647829
 50
629.999653243441
 51
720.000420168909
  0
INSERT
  5
   76E
  8
0
  6
CONTINUOUS
 62
     7
  2
*HATCH341
 10
231.814376831055
 20
-112.354614257813
 30
0.0
 41
0.200000002980232
 42
0.200000002980232
 50
269.999999844103
 43
0.200000002980232
  0
INSERT
  5
   76F
  8
0
  6
CONTINUOUS
 62
     7
  2
*HATCH342
 10
231.814376831055
 20
-112.354614257813
 30
0.0
 41
0.200000002980232
 42
0.200000002980232
 50
269.999999844103
 43
0.200000002980232
  0
LINE
  5
   770
  8
0
  6
DASHDOT
 62
     2
 10
231.814376831055
 20
-87.4924555556416
 30
0.0
 11
231.814376831055
 21
-163.716538462561
 31
0.0
  0
LINE
  5
   771
  8
0
  6
DASHDOT
 62
     2
 10
207.969556723311
 20
-112.354614257813
 30
0.0
 11
274.67062444092
 21
-112.354614257813
 31
0.0
  0
LINE
  5
   772
  8
0
  6
CONTINUOUS
 62
     7
 10
213.914376564324
 20
-96.2546140179038
 30
0.0
 11
247.914377070963
 21
-96.2546140179038
 31
0.0
  0
LINE
  5
   773
  8
0
  6
CONTINUOUS
 62
     7
 10
213.914376564324
 20
-128.454614497721
 30
0.0
 11
247.914377070963
 21
-128.454614497721
 31
0.0
  0
CIRCLE
  5
   774
  8
0
  6
CONTINUOUS
 62
     7
 10
252.014377132058
 20
-112.354614257813
 30
0.0
 40
0.800000011920929
  0
CIRCLE
  5
   775
  8
0
  6
CONTINUOUS
 62
     7
 10
235.764376889914
 20
-94.6546139940619
 30
0.0
 40
0.700000010430813
  0
CIRCLE
  5
   776
  8
0
  6
CONTINUOUS
 62
     7
 10
219.51437664777
 20
-94.6546139940619
 30
0.0
 40
0.700000010430813
  0
CIRCLE
  5
   777
  8
0
  6
CONTINUOUS
 62
     7
 10
252.014377132058
 20
-130.054614521563
 30
0.0
 40
0.700000010430813
  0
CIRCLE
  5
   778
  8
0
  6
CONTINUOUS
 62
     7
 10
235.764376889914
 20
-130.054614521563
 30
0.0
 40
0.800000011920929
  0
CIRCLE
  5
   779
  8
0
  6
CONTINUOUS
 62
     7
 10
219.51437664777
 20
-130.054614521563
 30
0.0
 40
0.800000011920929
  0
CIRCLE
  5
   77A
  8
0
  6
CONTINUOUS
 62
     7
 10
252.014377132058
 20
-94.6546139940619
 30
0.0
 40
0.800000011920929
  0
LINE
  5
   77B
  8
0
  6
DASHDOT
 62
     7
 10
252.014377132058
 20
-93.3546139746904
 30
0.0
 11
252.014377132058
 21
-111.215054881996
 31
0.0
  0
LINE
  5
   77C
  8
0
  6
DASHDOT
 62
     7
 10
250.714377112687
 20
-94.6546139940619
 30
0.0
 11
253.31437715143
 21
-94.6546139940619
 31
0.0
  0
LINE
  5
   77D
  8
0
  6
DASHDOT
 62
     7
 10
235.764376889914
 20
-87.4374520096693
 30
0.0
 11
235.764376889914
 21
-95.9546140134335
 31
0.0
  0
LINE
  5
   77E
  8
0
  6
DASHDOT
 62
     7
 10
234.464376870543
 20
-94.6546139940619
 30
0.0
 11
237.064376909286
 21
-94.6546139940619
 31
0.0
  0
LINE
  5
   77F
  8
0
  6
DASHDOT
 62
     7
 10
219.51437664777
 20
-93.3546139746904
 30
0.0
 11
219.51437664777
 21
-95.9546140134335
 31
0.0
  0
LINE
  5
   780
  8
0
  6
DASHDOT
 62
     7
 10
218.214376628399
 20
-94.6546139940619
 30
0.0
 11
220.814376667142
 21
-94.6546139940619
 31
0.0
  0
LINE
  5
   781
  8
0
  6
DASHDOT
 62
     7
 10
235.764376889914
 20
-128.754614502192
 30
0.0
 11
235.764376889914
 21
-131.354614540935
 31
0.0
  0
LINE
  5
   782
  8
0
  6
DASHDOT
 62
     7
 10
234.464376870543
 20
-130.054614521563
 30
0.0
 11
237.064376909286
 21
-130.054614521563
 31
0.0
  0
LINE
  5
   783
  8
0
  6
DASHDOT
 62
     7
 10
252.014377132058
 20
-128.754614502192
 30
0.0
 11
252.014377132058
 21
-131.354614540935
 31
0.0
  0
LINE
  5
   784
  8
0
  6
DASHDOT
 62
     7
 10
250.714377112687
 20
-130.054614521563
 30
0.0
 11
253.31437715143
 21
-130.054614521563
 31
0.0
  0
LINE
  5
   785
  8
0
  6
DASHDOT
 62
     7
 10
219.51437664777
 20
-128.754614502192
 30
0.0
 11
219.51437664777
 21
-131.354614540935
 31
0.0
  0
LINE
  5
   786
  8
0
  6
DASHDOT
 62
     7
 10
218.214376628399
 20
-130.054614521563
 30
0.0
 11
220.814376667142
 21
-130.054614521563
 31
0.0
  0
LINE
  5
   787
  8
0
  6
DASHDOT
 62
     7
 10
252.014377132058
 20
-111.054614238441
 30
0.0
 11
252.014377132058
 21
-128.577636063163
 31
0.0
  0
ARC
  5
   788
  8
0
  6
CONTINUOUS
 62
     7
 10
256.014377191663
 20
-115.754614308476
 30
0.0
 40
1.60000002384186
 50
359.999999844103
 51
539.999999844103
  0
ARC
  5
   789
  8
0
  6
CONTINUOUS
 62
     7
 10
256.014377191663
 20
-120.354614377022
 30
0.0
 40
1.60000002384186
 50
539.999999844103
 51
719.999999844103
  0
LINE
  5
   78A
  8
0
  6
CONTINUOUS
 62
     7
 10
257.614377215505
 20
-115.754614308476
 30
0.0
 11
257.614377215505
 21
-120.354614377022
 31
0.0
  0
LINE
  5
   78B
  8
0
  6
CONTINUOUS
 62
     7
 10
254.414377167821
 20
-115.754614308476
 30
0.0
 11
254.414377167821
 21
-120.354614377022
 31
0.0
  0
LINE
  5
   78C
  8
0
  6
DASHDOT
 62
     7
 10
256.014377191663
 20
-113.554614275694
 30
0.0
 11
256.014377191663
 21
-117.954614341259
 31
0.0
  0
LINE
  5
   78D
  8
0
  6
DASHDOT
 62
     7
 10
253.81437715888
 20
-115.754614308476
 30
0.0
 11
258.214377224445
 21
-115.754614308476
 31
0.0
  0
LINE
  5
   78E
  8
0
  6
DASHDOT
 62
     7
 10
256.014377191663
 20
-118.154614344239
 30
0.0
 11
256.014377191663
 21
-122.554614409804
 31
0.0
  0
LINE
  5
   78F
  8
0
  6
DASHDOT
 62
     7
 10
253.81437715888
 20
-120.354614377022
 30
0.0
 11
258.214377224445
 21
-120.354614377022
 31
0.0
  0
POINT
  5
   790
  8
0
  6
CONTINUOUS
 62
     7
 10
256.014377191663
 20
-114.154614284635
 30
0.0
  0
POINT
  5
   791
  8
0
  6
CONTINUOUS
 62
     7
 10
256.014377191663
 20
-121.954614400864
 30
0.0
  0
CIRCLE
  5
   792
  8
0
  6
CONTINUOUS
 62
     7
 10
240.26437695697
 20
-94.3546139895916
 30
0.0
 40
0.400000005960464
  0
CIRCLE
  5
   793
  8
0
  6
CONTINUOUS
 62
     7
 10
231.264376822859
 20
-94.3546139895916
 30
0.0
 40
0.400000005960464
  0
CIRCLE
  5
   794
  8
0
  6
CONTINUOUS
 62
     7
 10
231.264376822859
 20
-94.3546139895916
 30
0.0
 40
0.736000010967255
  0
CIRCLE
  5
   795
  8
0
  6
CONTINUOUS
 62
     7
 10
240.26437695697
 20
-94.3546139895916
 30
0.0
 40
0.736000010967255
  0
LINE
  5
   796
  8
0
  6
DASHDOT
 62
     7
 10
240.26437695697
 20
-93.0186139696836
 30
0.0
 11
240.26437695697
 21
-95.6906140094996
 31
0.0
  0
LINE
  5
   797
  8
0
  6
DASHDOT
 62
     7
 10
238.928376937062
 20
-94.3546139895916
 30
0.0
 11
241.600376976877
 21
-94.3546139895916
 31
0.0
  0
LINE
  5
   798
  8
0
  6
DASHDOT
 62
     7
 10
231.264376822859
 20
-93.0186139696836
 30
0.0
 11
231.264376822859
 21
-95.6906140094996
 31
0.0
  0
LINE
  5
   799
  8
0
  6
DASHDOT
 62
     7
 10
229.928376802951
 20
-94.3546139895916
 30
0.0
 11
232.600376842767
 21
-94.3546139895916
 31
0.0
  0
LINE
  5
   79A
  8
0
  6
CONTINUOUS
 62
     7
 10
211.807036026103
 20
-91.0615796624348
 30
0.0
 11
270.432648806112
 21
-91.0615796624348
 31
0.0
  0
LINE
  5
   79B
  8
0
  6
CONTINUOUS
 62
     7
 10
211.807036026103
 20
-132.549292963955
 30
0.0
 11
270.432648806112
 21
-132.549292963955
 31
0.0
  0
LINE
  5
   79C
  8
0
  6
CONTINUOUS
 62
     7
 10
211.807036026103
 20
-91.0615796624348
 30
0.0
 11
211.807036026103
 21
-132.549292963955
 31
0.0
  0
LINE
  5
   79D
  8
0
  6
CONTINUOUS
 62
     7
 10
247.914377070963
 20
-96.2546140179038
 30
0.0
 11
247.914377070963
 21
-128.454614497721
 31
0.0
  0
LINE
  5
   79E
  8
0
  6
CONTINUOUS
 62
     7
 10
213.914376564324
 20
-96.2546140179038
 30
0.0
 11
213.914376564324
 21
-128.454614497721
 31
0.0
  0
LINE
  5
   79F
  8
0
  6
CONTINUOUS
 62
     7
 10
273.19610604809
 20
-97.1738394617462
 30
0.0
 11
273.19610604809
 21
-103.928957164359
 31
0.0
  0
LINE
  5
   7A0
  8
0
  6
CONTINUOUS
 62
     7
 10
270.432648806112
 20
-91.0615796624348
 30
0.0
 11
270.432648806112
 21
-120.780271351267
 31
0.0
  0
LINE
  5
   7A1
  8
0
  6
CONTINUOUS
 62
     7
 10
270.432648806112
 20
-97.1738394617462
 30
0.0
 11
273.19610604809
 21
-97.1738394617462
 31
0.0
  0
LINE
  5
   7A2
  8
0
  6
CONTINUOUS
 62
     7
 10
270.432648806112
 20
-103.928957164359
 30
0.0
 11
273.19610604809
 21
-103.928957164359
 31
0.0
  0
LINE
  5
   7A3
  8
0
  6
CONTINUOUS
 62
     7
 10
270.432648806112
 20
-127.535389053879
 30
0.0
 11
273.19610604809
 21
-127.535389053879
 31
0.0
  0
LINE
  5
   7A4
  8
0
  6
CONTINUOUS
 62
     7
 10
270.432648806112
 20
-120.780271351267
 30
0.0
 11
273.19610604809
 21
-120.780271351267
 31
0.0
  0
LINE
  5
   7A5
  8
0
  6
CONTINUOUS
 62
     7
 10
273.19610604809
 20
-120.780271351267
 30
0.0
 11
273.19610604809
 21
-127.535389053879
 31
0.0
  0
LINE
  5
   7A6
  8
0
  6
CONTINUOUS
 62
     7
 10
270.432648806112
 20
-120.780271351267
 30
0.0
 11
270.432648806112
 21
-132.549292963955
 31
0.0
  0
LINE
  5
   7A7
  8
0
  6
DASHDOT
 62
     2
 10
271.814377427101
 20
-92.0563260506763
 30
0.0
 11
271.814377427101
 21
-155.513492347943
 31
0.0
  0
CIRCLE
  5
   7A8
  8
0
  6
CONTINUOUS
 62
     1
 10
231.264376822859
 20
-94.3546139895916
 30
0.0
 40
1.53600002288818
  0
CIRCLE
  5
   7A9
  8
0
  6
CONTINUOUS
 62
     1
 10
240.26437695697
 20
-94.3546139895916
 30
0.0
 40
1.53600002288818
  0
LINE
  5
   7AA
  8
0
  6
CONTINUOUS
 62
     7
 10
179.626130263094
 20
-134.889178802588
 30
0.0
 11
179.978853597708
 21
-134.889178802588
 31
0.0
  0
LINE
  5
   7AB
  8
0
  6
CONTINUOUS
 62
     7
 10
179.656308077461
 20
-138.089178850272
 30
0.0
 11
179.978853597708
 21
-138.089178850272
 31
0.0
  0
LINE
  5
   7AC
  8
0
  6
DASHDOT
 62
     7
 10
177.289535599599
 20
-136.48917882643
 30
0.0
 11
182.880462877995
 21
-136.48917882643
 31
0.0
  0
LINE
  5
   7AD
  8
0
  6
CONTINUOUS
 62
     1
 10
238.357289189403
 20
-105.230330653664
 30
0.0
 11
189.057176267433
 21
-131.628173095117
 31
0.0
  0
LINE
  5
   7AE
  8
0
  6
CONTINUOUS
 62
     1
 10
229.476357882596
 20
-105.374118664902
 30
0.0
 11
188.67180447727
 21
-131.024626754431
 31
0.0
  0
LINE
  5
   7AF
  8
0
  6
CONTINUOUS
 62
     1
 10
231.007689479308
 20
-95.8690140945748
 30
0.0
 11
229.476357882596
 21
-105.374118664902
 31
0.0
  0
LINE
  5
   7B0
  8
0
  6
CONTINUOUS
 62
     1
 10
240.03536531977
 20
-95.8734456920325
 30
0.0
 11
238.357289189403
 21
-105.230330653664
 31
0.0
  0
LINE
  5
   7B1
  8
0
  6
CONTINUOUS
 62
     7
 10
240.03536531977
 20
-95.8734456920325
 30
0.0
 11
240.205866104958
 21
-97.8901299141526
 31
0.0
  0
LINE
  5
   7B2
  8
0
  6
CONTINUOUS
 62
     7
 10
240.03536531977
 20
-95.8734456920325
 30
0.0
 11
239.169249865937
 21
-97.7167551268901
 31
0.0
  0
LINE
  5
   7B3
  8
0
  6
CONTINUOUS
 62
     7
 10
231.007689479308
 20
-95.8690140945748
 30
0.0
 11
231.214709240332
 21
-97.890265203141
 31
0.0
  0
LINE
  5
   7B4
  8
0
  6
CONTINUOUS
 62
     7
 10
231.007689479308
 20
-95.8690140945748
 30
0.0
 11
230.177883519753
 21
-97.7195550997646
 31
0.0
  0
TEXT
  5
   7B5
  8
0
  6
CONTINUOUS
 62
     7
 10
230.580986833493
 20
-71.7239335692563
 30
0.0
 40
2.99999994933605
  1
Y
 50
359.999999844103
 41
0.91666673368878
 72
     1
 11
231.680986913562
 21
-70.2239335975757
 31
0.0
 73
     2
  0
TEXT
  5
   7B6
  8
0
  6
CONTINUOUS
 62
     7
 10
230.790865902983
 20
-167.154970560483
 30
0.0
 40
2.99999994933605
  1
Y
 50
359.999999844103
 41
0.916666607525612
 72
     2
 11
232.990865721189
 21
-167.154970566458
 31
0.0
  0
TEXT
  5
   7B7
  8
0
  6
CONTINUOUS
 62
     1
 10
233.059402461747
 20
-195.708282387177
 30
0.0
 40
2.99999994933605
  1
  S6X III
 50
359.999999844103
 41
0.916666607525612
 72
     2
 11
257.259400489031
 21
-195.708282452901
 31
0.0
  0
TEXT
  5
   7B8
  8
0
  6
CONTINUOUS
 62
     1
 10
219.67497728702
 20
-177.398010208185
 30
0.0
 40
2.00000007748604
  1
3 POLE LOW VOLTAGE M.C.C.B SER.ISOMAX SUPERLIMIT.
 50
359.999999844103
 41
0.637500002980232
 72
     1
 11
250.774978637695
 21
-176.398010253906
 31
0.0
 73
     2
  0
TEXT
  5
   7B9
  8
0
  6
CONTINUOUS
 62
     1
 10
226.849977022599
 20
-180.398010227672
 30
0.0
 40
2.00000007748604
  1
WITHDRAWABLE VERSION REAR TERMINALS
 50
359.999999844103
 41
0.687500019669532
 72
     1
 11
250.774978637695
 21
-179.398010253906
 31
0.0
 73
     2
  0
TEXT
  5
   7BA
  8
0
  6
CONTINUOUS
 62
     1
 10
212.877375177559
 20
-185.468276922991
 30
0.0
 40
2.00000007748604
  1
INTERR.AUTOMATICO SERIE ISOMAX SUPERLIMITATORE
 50
359.999999844103
 41
0.749999884366991
 72
     1
 11
247.22737121582
 21
-184.468276977539
 31
0.0
 73
     2
  0
TEXT
  5
   7BB
  8
0
  6
CONTINUOUS
 62
     1
 10
214.377375004407
 20
-188.468276927065
 30
0.0
 40
2.00000007748604
  1
TRIPOL ESECUZIONE ESTRAIBILE TERMINALI MISTI
 50
359.999999844103
 41
0.749999884366991
 72
     1
 11
247.22737121582
 21
-187.468276977539
 31
0.0
 73
     2
  0
INSERT
  5
   7BC
  8
0
  6
CONTINUOUS
 62
     7
  2
*UDIM1797
 10
0.0
 20
0.0
 30
0.0
  0
INSERT
  5
   7BD
  8
0
  6
CONTINUOUS
 62
     7
  2
*UDIM1798
 10
0.0
 20
0.0
 30
0.0
  0
INSERT
  5
   7BE
  8
0
  6
CONTINUOUS
 62
     7
  2
*UDIM1799
 10
0.0
 20
0.0
 30
0.0
  0
TEXT
  5
   7BF
  8
0
  6
CONTINUOUS
 62
     1
 10
130.357192990448
 20
-187.156173761542
 30
0.0
 40
2.00000007748604
  1
SCARPELLINI
 50
359.999999844103
 41
0.749999884366991
 72
     2
 11
146.557191121843
 21
-187.156173805539
 31
0.0
  0
TEXT
  5
   7C0
  8
0
  6
CONTINUOUS
 62
     1
 10
161.722581257787
 20
-193.442703255667
 30
0.0
 40
2.00000007748604
  1
M 4504 98-11-17
 50
359.999999844103
 41
0.749999884366991
 72
     1
 11
172.822579979897
 21
-192.44270324707
 31
0.0
 73
     2
  0
INSERT
  5
   7C1
  8
0
  6
CONTINUOUS
 62
     7
  2
*UDIM1800
 10
0.0
 20
0.0
 30
0.0
  0
INSERT
  5
   7C2
  8
0
  6
CONTINUOUS
 62
     7
  2
*UDIM1801
 10
0.0
 20
0.0
 30
0.0
  0
TEXT
  5
   7C3
  8
0
  6
CONTINUOUS
 62
     1
 10
136.88258367294
 20
-193.442701399103
 30
0.0
 40
2.00000007748604
  1
M 4352 96-12-17
 50
359.999999844103
 41
0.749999884366991
 72
     1
 11
147.98258239505
 21
-192.442701390507
 31
0.0
 73
     2
  0
TEXT
  5
   7C4
  8
0
  6
CONTINUOUS
 62
     1
 10
130.357191490543
 20
-178.689423470078
 30
0.0
 40
2.00000007748604
  1
96-11-29 ZANCHI.
 50
359.999999844103
 41
0.749999884366991
 72
     2
 11
154.05718875618
 21
-178.689423534445
 31
0.0
  0
TEXT
  5
   7C5
  8
0
  6
CONTINUOUS
 62
     1
 10
231.973709127238
 20
-204.689863262793
 30
0.0
 40
4.00000015497208
  1
605031/081
 50
359.999999844103
 41
0.93749995827675
 72
     2
 11
268.723708882113
 21
-204.689863362601
 31
0.0
  0
INSERT
  5
   7C6
  8
0
  6
CONTINUOUS
 62
     7
  2
*UDIM1802
 10
0.0
 20
0.0
 30
0.0
  0
TEXT
  5
   7C7
  8
0
  6
CONTINUOUS
 62
     7
 10
198.416570748071
 20
-113.374525822097
 30
0.0
 40
2.99999994933605
  1
X
 50
359.999999844103
 41
0.916666607525612
 72
     2
 11
200.616570566277
 21
-113.374525828072
 31
0.0
  0
TEXT
  5
   7C8
  8
0
  6
CONTINUOUS
 62
     7
 10
276.408390147544
 20
-113.517472735085
 30
0.0
 40
2.99999994933605
  1
X
 50
359.999999844103
 41
0.916666607525612
 72
     2
 11
278.60838996575
 21
-113.51747274106
 31
0.0
  0
TEXT
  5
   7C9
  8
0
  6
CONTINUOUS
 62
     7
 10
210.572473929204
 20
-117.685867193511
 30
0.0
 40
2.50000001341104
  1
=  =
 50
449.999999844103
 41
0.899999922823905
 72
     2
 11
210.572473952414
 21
-109.135867900035
 31
0.0
  0
INSERT
  5
   7CA
  8
0
  6
CONTINUOUS
 62
     7
  2
*UDIM1803
 10
0.0
 20
0.0
 30
0.0
  0
INSERT
  5
   7CB
  8
0
  6
CONTINUOUS
 62
     7
  2
*UDIM1804
 10
0.0
 20
0.0
 30
0.0
  0
INSERT
  5
   7CC
  8
0
  6
CONTINUOUS
 62
     7
  2
*UDIM1805
 10
0.0
 20
0.0
 30
0.0
  0
INSERT
  5
   7CD
  8
0
  6
CONTINUOUS
 62
     7
  2
*UDIM1806
 10
0.0
 20
0.0
 30
0.0
  0
INSERT
  5
   7CE
  8
0
  6
CONTINUOUS
 62
     7
  2
*UDIM1807
 10
0.0
 20
0.0
 30
0.0
  0
INSERT
  5
   7CF
  8
0
  6
CONTINUOUS
 62
     7
  2
*UDIM1808
 10
0.0
 20
0.0
 30
0.0
  0
INSERT
  5
   7D0
  8
0
  6
CONTINUOUS
 62
     7
  2
*UDIM1809
 10
0.0
 20
0.0
 30
0.0
  0
INSERT
  5
   7D1
  8
0
  6
CONTINUOUS
 62
     7
  2
*UDIM1810
 10
0.0
 20
0.0
 30
0.0
  0
INSERT
  5
   7D2
  8
0
  6
CONTINUOUS
 62
     7
  2
*UDIM1811
 10
0.0
 20
0.0
 30
0.0
  0
INSERT
  5
   7D3
  8
0
  6
CONTINUOUS
 62
     7
  2
*UDIM1812
 10
0.0
 20
0.0
 30
0.0
  0
INSERT
  5
   7D4
  8
0
  6
CONTINUOUS
 62
     7
  2
*UDIM1813
 10
0.0
 20
0.0
 30
0.0
  0
INSERT
  5
   7D5
  8
0
  6
CONTINUOUS
 62
     7
  2
*UDIM1814
 10
0.0
 20
0.0
 30
0.0
  0
TEXT
  5
   7D6
  8
0
  6
CONTINUOUS
 62
     7
 10
230.647872176064
 20
-89.8168791315484
 30
0.0
 40
2.50000001341104
  1
=  =
 50
359.999999844103
 41
0.899999922823905
 72
     2
 11
239.197871469541
 21
-89.8168791547692
 31
0.0
  0
INSERT
  5
   7D7
  8
0
  6
CONTINUOUS
 62
     7
  2
*UDIM1815
 10
0.0
 20
0.0
 30
0.0
  0
TEXT
  5
   7D8
  8
0
  6
CONTINUOUS
 62
     7
 10
169.235499759655
 20
-121.037731238986
 30
0.0
 40
2.99999994933605
  1
PART. Z
 50
359.999999844103
 41
0.91666673368878
 72
     1
 11
178.585500303598
 21
-119.537731289712
 31
0.0
 73
     2
  0
INSERT
  5
   7D9
  8
255
  6
CONTINUOUS
 62
     7
  2
BASETT_1
 10
195.06437153912
 20
-58.585823059082
 30
0.0
 41
0.349999994039536
 42
0.349999994039536
 50
7.01670929448346E-15
 43
0.349999994039536
  0
LINE
  5
   7DA
  8
0
  6
DOT
 62
     7
 10
200.314371449713
 20
-29.1691573165057
 30
0.0
 11
200.314371449713
 21
-43.1691570780871
 31
0.0
  0
LINE
  5
   7DB
  8
0
  6
DOT
 62
     7
 10
214.314371211295
 20
-29.1691573165057
 30
0.0
 11
214.314371211295
 21
-43.1691570780871
 31
0.0
  0
LINE
  5
   7DC
  8
0
  6
DOT
 62
     7
 10
224.814371032481
 20
-29.1691573165057
 30
0.0
 11
224.814371032481
 21
-43.1691570780871
 31
0.0
  0
LINE
  5
   7DD
  8
0
  6
DOT
 62
     7
 10
238.814370794062
 20
-29.1691573165057
 30
0.0
 11
238.814370794062
 21
-43.1691570780871
 31
0.0
  0
LINE
  5
   7DE
  8
0
  6
DOT
 62
     7
 10
249.314370615248
 20
-29.1691573165057
 30
0.0
 11
249.314370615248
 21
-43.1691570780871
 31
0.0
  0
LINE
  5
   7DF
  8
0
  6
DOT
 62
     7
 10
263.31437037683
 20
-29.1691573165057
 30
0.0
 11
263.31437037683
 21
-43.1691570780871
 31
0.0
  0
LINE
  5
   7E0
  8
0
  6
DOT
 62
     7
 10
263.31437037683
 20
-29.1691573165057
 30
0.0
 11
258.064370466237
 21
-29.1691573165057
 31
0.0
  0
LINE
  5
   7E1
  8
0
  6
DOT
 62
     7
 10
254.564370525841
 20
-29.1691573165057
 30
0.0
 11
249.314370615248
 21
-29.1691573165057
 31
0.0
  0
LINE
  5
   7E2
  8
0
  6
DOT
 62
     7
 10
238.814370794062
 20
-29.1691573165057
 30
0.0
 11
233.564370883469
 21
-29.1691573165057
 31
0.0
  0
LINE
  5
   7E3
  8
0
  6
DOT
 62
     7
 10
230.064370943074
 20
-29.1691573165057
 30
0.0
 11
224.814371032481
 21
-29.1691573165057
 31
0.0
  0
LINE
  5
   7E4
  8
0
  6
DOT
 62
     7
 10
214.314371211295
 20
-29.1691573165057
 30
0.0
 11
209.064371300702
 21
-29.1691573165057
 31
0.0
  0
LINE
  5
   7E5
  8
0
  6
DOT
 62
     7
 10
205.564371360306
 20
-29.1691573165057
 30
0.0
 11
200.314371449713
 21
-29.1691573165057
 31
0.0
  0
INSERT
  5
   7E6
  8
0
  6
CONTINUOUS
 62
     7
  2
*UDIM1816
 10
0.0
 20
0.0
 30
0.0
  0
INSERT
  5
   7E7
  8
0
  6
CONTINUOUS
 62
     7
  2
*UDIM1817
 10
0.0
 20
0.0
 30
0.0
  0
INSERT
  5
   7E8
  8
0
  6
CONTINUOUS
 62
     7
  2
*UDIM1818
 10
0.0
 20
0.0
 30
0.0
  0
ENDSEC
  0
EOF
