  0
SECTION
  2
HEADER
  9
$ACADVER
  1
AC1009
999
I-DEAS Drafting Master Series 7m3 Not Encoded
  9
$EXTMIN
 10
0.0
 20
0.0
  9
$EXTMAX
 10
2.9901E+002
 20
1.945E+002
  9
$TEXTSIZE
 40
1.25E-001
  9
$LTSCALE
 40
1.0
  9
$CLAYER
  8
V1L0
  9
$CECOLOR
 62
2
  9
$DIMASZ
 40
1.25E-001
  9
$DIMEXO
 40
6.25E-002
  9
$DIMDLI
 40
2.5E-001
  9
$DIMEXE
 40
1.25E-001
  9
$DIMTP
 40
5.0E-003
  9
$DIMTM
 40
-5.0E-003
  9
$DIMTXT
 40
3.0
  9
$DIMLIM
 70
0
  9
$DIMTIH
 70
1
  9
$DIMTOH
 70
1
  9
$DIMSE1
 70
0
  9
$DIMSE2
 70
0
  9
$DIMTAD
 70
0
  9
$DIMASO
 70
1
  9
$DIMALT
 70
0
  9
$DIMALTD
 70
0
  9
$DIMTOFL
 70
1
  9
$DIMTIX
 70
0
  9
$DIMSAH
 70
0
  9
$DIMTFAC
 40
1.0
  9
$DIMGAP
 40
6.25E-002
  9
$LUNITS
 70
2
  9
$LUPREC
 70
3
  9
$FILLETRAD
 40
1.0E+001
  9
$AUNITS
 70
0
  9
$AUPREC
 70
1
  9
$CHAMFERA
 40
6.0
  9
$CHAMFERB
 40
6.0
  9
$ANGBASE
 50
0.0
  9
$ANGDIR
 70
0
  9
$PDMODE
 70
2
  9
$PDSIZE
 40
-1.0E-002
  9
$SPLINETYPE
 70
6
  0
ENDSEC
  0
SECTION
  2
TABLES
  0
TABLE
  2
LTYPE
 70
8
  0
LTYPE
  2
HIDDENNEW00
  3
_ 
 70
64
 72
65
 73
2
 40
4.5
 49
3.0
 49
-1.5
  0
LTYPE
  2
HIDDENNEW01
  3
_ 
 70
64
 72
65
 73
2
 40
4.5
 49
3.0
 49
-1.5
  0
LTYPE
  2
HIDDEN
  3
_ 
 70
64
 72
65
 73
2
 40
4.5
 49
3.0
 49
-1.5
  0
LTYPE
  2
CENTERLINE
  3
_ 
 70
64
 72
65
 73
4
 40
3.0E+001
 49
2.4E+001
 49
-1.5
 49
3.0
 49
-1.5
  0
LTYPE
  2
PHANTOM
  3
_ 
 70
64
 72
65
 73
6
 40
2.95E+001
 49
1.9E+001
 49
-1.5
 49
3.0
 49
-1.5
 49
3.0
 49
-1.5
  0
LTYPE
  2
SHORT_DASH
  3
_ 
 70
64
 72
65
 73
2
 40
3.0
 49
1.5
 49
-1.5
  0
LTYPE
  2
LONG_DASH
  3
_ 
 70
64
 72
65
 73
2
 40
9.0
 49
4.5
 49
-4.5
  0
LTYPE
  2
DASHED
  3
_ 
 70
64
 72
65
 73
2
 40
1.375
 49
1.125
 49
-2.5E-001
  0
ENDTAB
  0
TABLE
  2
LAYER
 70
258
  0
LAYER
  2
V1L0
 70
0
 62
7
  6
HIDDENNEW00
  0
LAYER
  2
Drafting_Hidden_Entities
 70
1
 62
7
  6
CONTINUOUS
  0
ENDTAB
  0
TABLE
  2
STYLE
 70
1
  0
STYLE
  2
STANDARD
 70
64
 40
0.0
 41
1.0
 50
0.0
 71
0
 42
1.0
  3
monotxt.shx
  4

  0
ENDTAB
  0
TABLE
  2
VIEW
 70
0
  0
ENDTAB
  0
TABLE
  2
DIMSTYLE
 70
0
  0
ENDTAB
  0
ENDSEC
  0
SECTION
  2
BLOCKS
  0
ENDSEC
  0
SECTION
  2
ENTITIES
  0
LINE
  8
V1L0
  6
CONTINUOUS
 62
40
 10
1.0801E+002
 20
1.0
 11
2.7501E+002
 21
1.0
  0
LINE
  8
V1L0
  6
CONTINUOUS
 62
40
 10
9.301E+001
 20
8.2E+001
 11
2.9001E+002
 21
8.2E+001
  0
LINE
  8
V1L0
  6
CONTINUOUS
 62
40
 10
2.7801E+002
 20
4.0
 11
2.7801E+002
 21
8.2E+001
  0
LINE
  8
V1L0
  6
CONTINUOUS
 62
40
 10
1.0501E+002
 20
4.0
 11
1.0501E+002
 21
8.2E+001
  0
LINE
  8
V1L0
  6
CONTINUOUS
 62
40
 10
2.9001E+002
 20
4.0
 11
2.9001E+002
 21
8.2E+001
  0
LINE
  8
V1L0
  6
CONTINUOUS
 62
40
 10
9.301E+001
 20
4.0
 11
9.301E+001
 21
8.2E+001
  0
LINE
  8
V1L0
  6
CONTINUOUS
 62
40
 10
9.301E+001
 20
4.0
 11
1.0801E+002
 21
4.0
  0
LINE
  8
V1L0
  6
CONTINUOUS
 62
40
 10
1.0801E+002
 20
1.0
 11
1.0801E+002
 21
4.0
  0
LINE
  8
V1L0
  6
CONTINUOUS
 62
40
 10
2.7501E+002
 20
4.0
 11
2.9001E+002
 21
4.0
  0
LINE
  8
V1L0
  6
CONTINUOUS
 62
40
 10
2.7501E+002
 20
1.0
 11
2.7501E+002
 21
4.0
  0
CIRCLE
  8
V1L0
  6
CONTINUOUS
 62
40
 10
9.9005621E+001
 20
5.6994113E+001
 40
3.5
  0
LINE
  8
V1L0
  6
CONTINUOUS
 62
40
 10
9.691E+001
 20
5.42E+001
 11
1.0181E+002
 21
5.91E+001
  0
LINE
  8
V1L0
  6
CONTINUOUS
 62
40
 10
9.62E+001
 20
5.491E+001
 11
1.011E+002
 21
5.981E+001
  0
CIRCLE
  8
V1L0
  6
CONTINUOUS
 62
40
 10
2.8400562E+002
 20
5.6994113E+001
 40
3.5
  0
LINE
  8
V1L0
  6
CONTINUOUS
 62
40
 10
2.812E+002
 20
5.491E+001
 11
2.861E+002
 21
5.981E+001
  0
LINE
  8
V1L0
  6
CONTINUOUS
 62
40
 10
2.8191E+002
 20
5.42E+001
 11
2.8681E+002
 21
5.91E+001
  0
LINE
  8
V1L0
  6
CONTINUOUS
 62
40
 10
2.9801E+002
 20
4.9E+001
 11
2.9801E+002
 21
1.09E+002
  0
LINE
  8
V1L0
  6
LONG_DASH
 62
40
 10
2.7901E+002
 20
4.9E+001
 11
2.7901E+002
 21
8.2E+001
  0
LINE
  8
V1L0
  6
LONG_DASH
 62
40
 10
2.7901E+002
 20
4.9E+001
 11
2.9001E+002
 21
4.9E+001
  0
LINE
  8
V1L0
  6
CONTINUOUS
 62
40
 10
2.9101E+002
 20
4.9E+001
 11
2.9801E+002
 21
4.9E+001
  0
LINE
  8
V1L0
  6
CONTINUOUS
 62
40
 10
2.7901E+002
 20
1.09E+002
 11
2.9801E+002
 21
1.09E+002
  0
CIRCLE
  8
V1L0
  6
CONTINUOUS
 62
40
 10
2.9050562E+002
 20
1.0149411E+002
 40
3.5
  0
LINE
  8
V1L0
  6
LONG_DASH
 62
40
 10
1.0401E+002
 20
4.9E+001
 11
1.0401E+002
 21
8.2E+001
  0
LINE
  8
V1L0
  6
CONTINUOUS
 62
40
 10
8.501E+001
 20
1.09E+002
 11
1.0401E+002
 21
1.09E+002
  0
LINE
  8
V1L0
  6
CONTINUOUS
 62
40
 10
8.501E+001
 20
4.9E+001
 11
8.501E+001
 21
1.09E+002
  0
LINE
  8
V1L0
  6
CONTINUOUS
 62
40
 10
8.501E+001
 20
4.9E+001
 11
9.201E+001
 21
4.9E+001
  0
LINE
  8
V1L0
  6
LONG_DASH
 62
40
 10
9.301E+001
 20
4.9E+001
 11
1.0401E+002
 21
4.9E+001
  0
CIRCLE
  8
V1L0
  6
CONTINUOUS
 62
40
 10
9.2505621E+001
 20
1.0149411E+002
 40
3.5
  0
LINE
  8
V1L0
  6
CONTINUOUS
 62
40
 10
1.0401E+002
 20
8.2E+001
 11
1.0401E+002
 21
1.09E+002
  0
LINE
  8
V1L0
  6
CONTINUOUS
 62
40
 10
2.7901E+002
 20
8.2E+001
 11
2.7901E+002
 21
1.09E+002
  0
LINE
  8
V1L0
  6
CONTINUOUS
 62
40
 10
5.95E+001
 20
4.0
 11
5.95E+001
 21
8.2E+001
  0
LINE
  8
V1L0
  6
CONTINUOUS
 62
40
 10
6.1E+001
 20
4.0
 11
6.1E+001
 21
8.2E+001
  0
LINE
  8
V1L0
  6
CONTINUOUS
 62
40
 10
6.3E+001
 20
4.9E+001
 11
6.3E+001
 21
1.09E+002
  0
LINE
  8
V1L0
  6
CONTINUOUS
 62
40
 10
1.0
 20
3.0
 11
1.0
 21
8.2E+001
  0
LINE
  8
V1L0
  6
CONTINUOUS
 62
40
 10
2.1E+001
 20
1.0
 11
2.1E+001
 21
2.5
  0
LINE
  8
V1L0
  6
CONTINUOUS
 62
40
 10
6.1E+001
 20
1.09E+002
 11
6.3E+001
 21
1.09E+002
  0
LINE
  8
V1L0
  6
CONTINUOUS
 62
40
 10
6.1E+001
 20
4.9E+001
 11
6.3E+001
 21
4.9E+001
  0
LINE
  8
V1L0
  6
LONG_DASH
 62
40
 10
6.1E+001
 20
9.8E+001
 11
6.3E+001
 21
9.8E+001
  0
LINE
  8
V1L0
  6
LONG_DASH
 62
40
 10
6.1E+001
 20
1.05E+002
 11
6.3E+001
 21
1.05E+002
  0
LINE
  8
V1L0
  6
CONTINUOUS
 62
40
 10
5.75E+001
 20
6.05E+001
 11
5.95E+001
 21
6.05E+001
  0
LINE
  8
V1L0
  6
CONTINUOUS
 62
40
 10
5.75E+001
 20
5.35E+001
 11
5.95E+001
 21
5.35E+001
  0
LINE
  8
V1L0
  6
CONTINUOUS
 62
40
 10
5.7E+001
 20
5.4E+001
 11
5.7E+001
 21
6.0E+001
  0
LINE
  8
V1L0
  6
CONTINUOUS
 62
40
 10
6.5E+001
 20
5.5E+001
 11
6.5E+001
 21
5.9E+001
  0
LINE
  8
V1L0
  6
CONTINUOUS
 62
40
 10
6.3E+001
 20
5.5E+001
 11
6.5E+001
 21
5.5E+001
  0
LINE
  8
V1L0
  6
CONTINUOUS
 62
40
 10
6.3E+001
 20
5.9E+001
 11
6.5E+001
 21
5.9E+001
  0
ARC
  8
V1L0
  6
CONTINUOUS
 62
40
 10
5.7495621E+001
 20
5.9994113E+001
 40
5.0E-001
 50
9.0E+001
 51
1.8E+002
  0
ARC
  8
V1L0
  6
CONTINUOUS
 62
40
 10
5.7495621E+001
 20
5.3994113E+001
 40
5.0E-001
 50
1.8E+002
 51
2.7E+002
  0
LINE
  8
V1L0
  6
CONTINUOUS
 62
40
 10
1.0
 20
8.2E+001
 11
6.1E+001
 21
8.2E+001
  0
LINE
  8
V1L0
  6
CONTINUOUS
 62
40
 10
3.0
 20
1.0
 11
2.1E+001
 21
1.0
  0
LINE
  8
V1L0
  6
CONTINUOUS
 62
40
 10
1.0
 20
4.0
 11
6.1E+001
 21
4.0
  0
LINE
  8
V1L0
  6
CONTINUOUS
 62
40
 10
3.5
 20
2.5
 11
2.1E+001
 21
2.5
  0
LINE
  8
V1L0
  6
CONTINUOUS
 62
40
 10
2.5
 20
3.5
 11
2.5
 21
4.0
  0
ARC
  8
V1L0
  6
CONTINUOUS
 62
40
 10
3.4956214
 20
3.4941129
 40
1.0
 50
1.8E+002
 51
2.7E+002
  0
ARC
  8
V1L0
  6
CONTINUOUS
 62
40
 10
2.9956214
 20
2.9941129
 40
2.0
 50
1.8E+002
 51
2.7E+002
  0
LINE
  8
V1L0
  6
CONTINUOUS
 62
40
 10
8.501E+001
 20
1.3101E+002
 11
8.501E+001
 21
1.3301E+002
  0
LINE
  8
V1L0
  6
CONTINUOUS
 62
40
 10
1.0401E+002
 20
1.3101E+002
 11
1.0401E+002
 21
1.3301E+002
  0
LINE
  8
V1L0
  6
CONTINUOUS
 62
40
 10
8.501E+001
 20
1.3301E+002
 11
1.0401E+002
 21
1.3301E+002
  0
LINE
  8
V1L0
  6
CONTINUOUS
 62
40
 10
8.501E+001
 20
1.3101E+002
 11
1.0401E+002
 21
1.3101E+002
  0
LINE
  8
V1L0
  6
CONTINUOUS
 62
40
 10
2.7901E+002
 20
1.3101E+002
 11
2.7901E+002
 21
1.3301E+002
  0
LINE
  8
V1L0
  6
CONTINUOUS
 62
40
 10
2.9801E+002
 20
1.3101E+002
 11
2.9801E+002
 21
1.3301E+002
  0
LINE
  8
V1L0
  6
CONTINUOUS
 62
40
 10
2.7901E+002
 20
1.3101E+002
 11
2.9801E+002
 21
1.3101E+002
  0
LINE
  8
V1L0
  6
CONTINUOUS
 62
40
 10
2.7901E+002
 20
1.3301E+002
 11
2.9801E+002
 21
1.3301E+002
  0
LINE
  8
V1L0
  6
CONTINUOUS
 62
40
 10
9.301E+001
 20
1.3301E+002
 11
9.301E+001
 21
1.3451E+002
  0
LINE
  8
V1L0
  6
CONTINUOUS
 62
40
 10
2.9001E+002
 20
1.3301E+002
 11
2.9001E+002
 21
1.3451E+002
  0
LINE
  8
V1L0
  6
CONTINUOUS
 62
40
 10
9.301E+001
 20
1.3301E+002
 11
1.0451E+002
 21
1.3301E+002
  0
LINE
  8
V1L0
  6
CONTINUOUS
 62
40
 10
9.301E+001
 20
1.3451E+002
 11
1.0401E+002
 21
1.3451E+002
  0
LINE
  8
V1L0
  6
CONTINUOUS
 62
40
 10
1.0801E+002
 20
1.7301E+002
 11
1.0801E+002
 21
1.9301E+002
  0
LINE
  8
V1L0
  6
CONTINUOUS
 62
40
 10
2.7501E+002
 20
1.7301E+002
 11
2.7501E+002
 21
1.9301E+002
  0
LINE
  8
V1L0
  6
CONTINUOUS
 62
40
 10
1.0701E+002
 20
1.9301E+002
 11
2.7601E+002
 21
1.9301E+002
  0
LINE
  8
V1L0
  6
CONTINUOUS
 62
40
 10
1.0801E+002
 20
1.7301E+002
 11
2.7501E+002
 21
1.7301E+002
  0
LINE
  8
V1L0
  6
CONTINUOUS
 62
40
 10
1.0501E+002
 20
1.3551E+002
 11
1.0501E+002
 21
1.9101E+002
  0
LINE
  8
V1L0
  6
CONTINUOUS
 62
40
 10
2.7801E+002
 20
1.3551E+002
 11
2.7801E+002
 21
1.9101E+002
  0
LINE
  8
V1L0
  6
CONTINUOUS
 62
40
 10
1.0651E+002
 20
1.3501E+002
 11
1.0651E+002
 21
1.9051E+002
  0
LINE
  8
V1L0
  6
CONTINUOUS
 62
40
 10
1.0751E+002
 20
1.9151E+002
 11
1.0801E+002
 21
1.9151E+002
  0
LINE
  8
V1L0
  6
CONTINUOUS
 62
40
 10
2.7651E+002
 20
1.3501E+002
 11
2.7651E+002
 21
1.9051E+002
  0
LINE
  8
V1L0
  6
CONTINUOUS
 62
40
 10
2.7501E+002
 20
1.9151E+002
 11
2.7551E+002
 21
1.9151E+002
  0
LINE
  8
V1L0
  6
CONTINUOUS
 62
40
 10
2.7851E+002
 20
1.3301E+002
 11
2.9001E+002
 21
1.3301E+002
  0
LINE
  8
V1L0
  6
CONTINUOUS
 62
40
 10
2.7901E+002
 20
1.3451E+002
 11
2.9001E+002
 21
1.3451E+002
  0
ARC
  8
V1L0
  6
CONTINUOUS
 62
40
 10
2.7600562E+002
 20
1.9100411E+002
 40
2.0
 50
0.0
 51
9.0E+001
  0
ARC
  8
V1L0
  6
CONTINUOUS
 62
40
 10
2.7850562E+002
 20
1.3500411E+002
 40
2.0
 50
1.8E+002
 51
2.7E+002
  0
ARC
  8
V1L0
  6
CONTINUOUS
 62
40
 10
1.0450562E+002
 20
1.3500411E+002
 40
2.0
 50
2.7E+002
 51
3.6E+002
  0
ARC
  8
V1L0
  6
CONTINUOUS
 62
40
 10
1.0700562E+002
 20
1.9100411E+002
 40
2.0
 50
9.0E+001
 51
1.8E+002
  0
ARC
  8
V1L0
  6
CONTINUOUS
 62
40
 10
1.0750562E+002
 20
1.9050411E+002
 40
1.0
 50
9.0E+001
 51
1.8E+002
  0
ARC
  8
V1L0
  6
CONTINUOUS
 62
40
 10
2.7550562E+002
 20
1.9050411E+002
 40
1.0
 50
0.0
 51
9.0E+001
  0
ARC
  8
V1L0
  6
CONTINUOUS
 62
40
 10
2.7900562E+002
 20
1.3550411E+002
 40
1.0
 50
1.8E+002
 51
2.7E+002
  0
LINE
  8
V1L0
  6
CONTINUOUS
 62
40
 10
1.0251E+002
 20
1.3451E+002
 11
1.0251E+002
 21
1.3651E+002
  0
LINE
  8
V1L0
  6
CONTINUOUS
 62
40
 10
9.551E+001
 20
1.3451E+002
 11
9.551E+001
 21
1.3651E+002
  0
LINE
  8
V1L0
  6
CONTINUOUS
 62
40
 10
9.601E+001
 20
1.3701E+002
 11
1.0201E+002
 21
1.3701E+002
  0
LINE
  8
V1L0
  6
CONTINUOUS
 62
40
 10
9.701E+001
 20
1.2901E+002
 11
1.0101E+002
 21
1.2901E+002
  0
LINE
  8
V1L0
  6
CONTINUOUS
 62
40
 10
1.0101E+002
 20
1.2901E+002
 11
1.0101E+002
 21
1.3101E+002
  0
LINE
  8
V1L0
  6
CONTINUOUS
 62
40
 10
9.701E+001
 20
1.2901E+002
 11
9.701E+001
 21
1.3101E+002
  0
ARC
  8
V1L0
  6
CONTINUOUS
 62
40
 10
9.6005621E+001
 20
1.3650411E+002
 40
5.0E-001
 50
9.0E+001
 51
1.8E+002
  0
ARC
  8
V1L0
  6
CONTINUOUS
 62
40
 10
1.0200562E+002
 20
1.3650411E+002
 40
5.0E-001
 50
0.0
 51
9.0E+001
  0
ARC
  8
V1L0
  6
CONTINUOUS
 62
40
 10
1.0400562E+002
 20
1.3550411E+002
 40
1.0
 50
2.7E+002
 51
3.6E+002
  0
LINE
  8
V1L0
  6
CONTINUOUS
 62
40
 10
2.8751E+002
 20
1.3451E+002
 11
2.8751E+002
 21
1.3651E+002
  0
ARC
  8
V1L0
  6
CONTINUOUS
 62
40
 10
2.8700562E+002
 20
1.3650411E+002
 40
5.0E-001
 50
0.0
 51
9.0E+001
  0
LINE
  8
V1L0
  6
CONTINUOUS
 62
40
 10
2.8101E+002
 20
1.3701E+002
 11
2.8701E+002
 21
1.3701E+002
  0
ARC
  8
V1L0
  6
CONTINUOUS
 62
40
 10
2.8100562E+002
 20
1.3650411E+002
 40
5.0E-001
 50
9.0E+001
 51
1.8E+002
  0
LINE
  8
V1L0
  6
CONTINUOUS
 62
40
 10
2.8051E+002
 20
1.3451E+002
 11
2.8051E+002
 21
1.3651E+002
  0
LINE
  8
V1L0
  6
CONTINUOUS
 62
40
 10
2.8601E+002
 20
1.2901E+002
 11
2.8601E+002
 21
1.3101E+002
  0
LINE
  8
V1L0
  6
CONTINUOUS
 62
40
 10
2.8201E+002
 20
1.2901E+002
 11
2.8601E+002
 21
1.2901E+002
  0
LINE
  8
V1L0
  6
CONTINUOUS
 62
40
 10
2.8201E+002
 20
1.2901E+002
 11
2.8201E+002
 21
1.3101E+002
  0
LINE
  8
V1L0
  6
LONG_DASH
 62
40
 10
2.9401E+002
 20
1.3101E+002
 11
2.9401E+002
 21
1.3301E+002
  0
LINE
  8
V1L0
  6
LONG_DASH
 62
40
 10
2.8701E+002
 20
1.3101E+002
 11
2.8701E+002
 21
1.3301E+002
  0
LINE
  8
V1L0
  6
LONG_DASH
 62
40
 10
8.901E+001
 20
1.3101E+002
 11
8.901E+001
 21
1.3301E+002
  0
LINE
  8
V1L0
  6
LONG_DASH
 62
40
 10
9.601E+001
 20
1.3101E+002
 11
9.601E+001
 21
1.3301E+002
  0
TEXT
  8
V1L0
  6
CONTINUOUS
 62
40
 10
1.7648E+002
 20
3.01
 40
4.0
  1
OESAZX 41
  0
LINE
  8
V1L0
  6
CONTINUOUS
 62
40
 10
6.1E+001
 20
8.2E+001
 11
6.1E+001
 21
1.09E+002
  0
LINE
  8
V1L0
  6
CONTINUOUS
 62
40
 10
1.7151E+002
 20
2.7E+001
 11
2.1151E+002
 21
2.7E+001
  0
LINE
  8
V1L0
  6
CONTINUOUS
 62
40
 10
1.7151E+002
 20
5.9E+001
 11
2.1151E+002
 21
5.9E+001
  0
LINE
  8
V1L0
  6
CONTINUOUS
 62
40
 10
2.1151E+002
 20
2.7E+001
 11
2.1151E+002
 21
5.9E+001
  0
LINE
  8
V1L0
  6
CONTINUOUS
 62
40
 10
1.7151E+002
 20
2.7E+001
 11
1.7151E+002
 21
5.9E+001
  0
LINE
  8
V1L0
  6
CONTINUOUS
 62
40
 10
1.8012E+002
 20
3.1E+001
 11
2.0289E+002
 21
3.1E+001
  0
LINE
  8
V1L0
  6
CONTINUOUS
 62
40
 10
1.7882E+002
 20
3.326E+001
 11
1.9021E+002
 21
5.278E+001
  0
LINE
  8
V1L0
  6
CONTINUOUS
 62
40
 10
1.928E+002
 20
5.278E+001
 11
2.0419E+002
 21
3.326E+001
  0
ARC
  8
V1L0
  6
CONTINUOUS
 62
40
 10
1.9150562E+002
 20
5.2024113E+001
 40
1.5
 50
3.026E+001
 51
1.4974E+002
  0
ARC
  8
V1L0
  6
CONTINUOUS
 62
40
 10
2.0288562E+002
 20
3.2494113E+001
 40
1.5
 50
2.7E+002
 51
3.9026E+002
  0
ARC
  8
V1L0
  6
CONTINUOUS
 62
40
 10
1.8011562E+002
 20
3.2494113E+001
 40
1.5
 50
1.4974E+002
 51
2.7E+002
  0
LINE
  8
V1L0
  6
CONTINUOUS
 62
40
 10
1.909E+002
 20
4.94E+001
 11
1.9188E+002
 21
4.923E+001
  0
LINE
  8
V1L0
  6
CONTINUOUS
 62
40
 10
1.8959E+002
 20
4.051E+001
 11
1.909E+002
 21
4.94E+001
  0
LINE
  8
V1L0
  6
CONTINUOUS
 62
40
 10
1.9019E+002
 20
4.1E+001
 11
1.9188E+002
 21
4.923E+001
  0
LINE
  8
V1L0
  6
CONTINUOUS
 62
40
 10
1.9161E+002
 20
3.503E+001
 11
1.9256E+002
 21
4.148E+001
  0
LINE
  8
V1L0
  6
CONTINUOUS
 62
40
 10
1.9221E+002
 20
3.492E+001
 11
1.9375E+002
 21
4.246E+001
  0
LINE
  8
V1L0
  6
CONTINUOUS
 62
40
 10
1.9019E+002
 20
4.1E+001
 11
1.9375E+002
 21
4.246E+001
  0
LINE
  8
V1L0
  6
CONTINUOUS
 62
40
 10
1.8959E+002
 20
4.051E+001
 11
1.9256E+002
 21
4.148E+001
  0
LINE
  8
V1L0
  6
CONTINUOUS
 62
40
 10
1.9093E+002
 20
3.515E+001
 11
1.9144E+002
 21
3.228E+001
  0
LINE
  8
V1L0
  6
CONTINUOUS
 62
40
 10
1.9144E+002
 20
3.228E+001
 11
1.9289E+002
 21
3.48E+001
  0
LINE
  8
V1L0
  6
CONTINUOUS
 62
40
 10
1.9093E+002
 20
3.515E+001
 11
1.9161E+002
 21
3.503E+001
  0
LINE
  8
V1L0
  6
CONTINUOUS
 62
40
 10
1.9221E+002
 20
3.492E+001
 11
1.9289E+002
 21
3.48E+001
  0
ENDSEC
  0
EOF
