  0
SECTION
  2
HEADER
  9
$ACADVER
  1
AC1009
  9
$DWGCODEPAGE
  3
iso8859-1
  9
$INSBASE
 10
0.0
 20
0.0
 30
0.0
  9
$EXTMIN
 10
1.0E20
 20
1.0E20
  9
$EXTMAX
 10
-1.0E20
 20
-1.0E20
  9
$LIMMIN
 10
0.0
 20
0.0
  9
$LIMMAX
 10
12.0
 20
9.0
  9
$ORTHOMODE
 70
     0
  9
$REGENMODE
 70
     1
  9
$FILLMODE
 70
     1
  9
$QTEXTMODE
 70
     0
  9
$MIRRTEXT
 70
     1
  9
$DRAGMODE
 70
     2
  9
$LTSCALE
 40
15.0
  9
$OSMODE
 70
     0
  9
$ATTMODE
 70
     1
  9
$TEXTSIZE
 40
0.2
  9
$TRACEWID
 40
0.05
  9
$TEXTSTYLE
  7
STANDARD
  9
$CLAYER
  8
0
  9
$CELTYPE
  6
DASHED
  9
$CECOLOR
 62
   256
  9
$DIMSCALE
 40
1.0
  9
$DIMASZ
 40
0.18
  9
$DIMEXO
 40
0.0625
  9
$DIMDLI
 40
0.38
  9
$DIMRND
 40
0.0
  9
$DIMDLE
 40
0.0
  9
$DIMEXE
 40
0.18
  9
$DIMTP
 40
0.0
  9
$DIMTM
 40
0.0
  9
$DIMTXT
 40
0.18
  9
$DIMCEN
 40
0.09
  9
$DIMTSZ
 40
0.0
  9
$DIMTOL
 70
     0
  9
$DIMLIM
 70
     0
  9
$DIMTIH
 70
     1
  9
$DIMTOH
 70
     1
  9
$DIMSE1
 70
     0
  9
$DIMSE2
 70
     0
  9
$DIMTAD
 70
     0
  9
$DIMZIN
 70
     0
  9
$DIMBLK
  1

  9
$DIMASO
 70
     1
  9
$DIMSHO
 70
     1
  9
$DIMPOST
  1

  9
$DIMAPOST
  1

  9
$DIMALT
 70
     0
  9
$DIMALTD
 70
     2
  9
$DIMALTF
 40
25.4
  9
$DIMLFAC
 40
1.0
  9
$DIMTOFL
 70
     0
  9
$DIMTVP
 40
0.0
  9
$DIMTIX
 70
     0
  9
$DIMSOXD
 70
     0
  9
$DIMSAH
 70
     0
  9
$DIMBLK1
  1

  9
$DIMBLK2
  1

  9
$DIMSTYLE
  2
STANDARD
  9
$DIMCLRD
 70
     0
  9
$DIMCLRE
 70
     0
  9
$DIMCLRT
 70
     0
  9
$DIMTFAC
 40
1.0
  9
$DIMGAP
 40
0.09
  9
$LUNITS
 70
     2
  9
$LUPREC
 70
     4
  9
$AXISMODE
 70
     0
  9
$AXISUNIT
 10
0.0
 20
0.0
  9
$SKETCHINC
 40
0.1
  9
$FILLETRAD
 40
0.0
  9
$AUNITS
 70
     0
  9
$AUPREC
 70
     0
  9
$MENU
  1
acad
  9
$ELEVATION
 40
0.0
  9
$PELEVATION
 40
0.0
  9
$THICKNESS
 40
0.0
  9
$LIMCHECK
 70
     0
  9
$BLIPMODE
 70
     1
  9
$CHAMFERA
 40
0.0
  9
$CHAMFERB
 40
0.0
  9
$SKPOLY
 70
     0
  9
$TDCREATE
 40
0.000000000
  9
$TDUPDATE
 40
0.000000000
  9
$TDINDWG
 40
0.0
  9
$TDUSRTIMER
 40
0.0
  9
$USRTIMER
 70
     1
  9
$ANGBASE
 50
0.0
  9
$ANGDIR
 70
     0
  9
$PDMODE
 70
     0
  9
$PDSIZE
 40
0.0
  9
$PLINEWID
 40
0.0
  9
$COORDS
 70
     1
  9
$SPLFRAME
 70
     0
  9
$SPLINETYPE
 70
     6
  9
$SPLINESEGS
 70
     8
  9
$ATTDIA
 70
     0
  9
$ATTREQ
 70
     1
  9
$HANDLING
 70
     1
  9
$HANDSEED
  5
   6DA
  9
$SURFTAB1
 70
     6
  9
$SURFTAB2
 70
     6
  9
$SURFTYPE
 70
     6
  9
$SURFU
 70
     6
  9
$SURFV
 70
     6
  9
$UCSNAME
  2

  9
$UCSORG
 10
0.0
 20
0.0
 30
0.0
  9
$UCSXDIR
 10
1.0
 20
0.0
 30
0.0
  9
$UCSYDIR
 10
0.0
 20
1.0
 30
0.0
  9
$PUCSNAME
  2

  9
$PUCSORG
 10
0.0
 20
0.0
 30
0.0
  9
$PUCSXDIR
 10
1.0
 20
0.0
 30
0.0
  9
$PUCSYDIR
 10
0.0
 20
1.0
 30
0.0
  9
$USERI1
 70
     0
  9
$USERI2
 70
     0
  9
$USERI3
 70
     0
  9
$USERI4
 70
     0
  9
$USERI5
 70
     0
  9
$USERR1
 40
0.0
  9
$USERR2
 40
0.0
  9
$USERR3
 40
0.0
  9
$USERR4
 40
0.0
  9
$USERR5
 40
0.0
  9
$WORLDVIEW
 70
     1
  9
$SHADEDGE
 70
     3
  9
$SHADEDIF
 70
    70
  9
$TILEMODE
 70
     1
  9
$MAXACTVP
 70
    16
  9
$PINSBASE
 10
0.0
 20
0.0
 30
0.0
  9
$PLIMCHECK
 70
     0
  9
$PEXTMIN
 10
1.0E20
 20
1.0E20
 30
1.0E20
  9
$PEXTMAX
 10
-1.0E20
 20
-1.0E20
 30
-1.0E20
  9
$PLIMMIN
 10
0.0
 20
0.0
  9
$PLIMMAX
 10
12.0
 20
9.0
  9
$UNITMODE
 70
     0
  9
$VISRETAIN
 70
     0
  0
ENDSEC
  0
SECTION
  2
TABLES
  0
TABLE
  2
VPORT
 70
     1
  0
VPORT
  2
*ACTIVE
 70
     0
 10
0.0
 20
0.0
 11
1.0
 21
1.0
 12
6.801242
 22
4.5
 13
0.0
 23
0.0
 14
1.0
 24
1.0
 15
0.0
 25
0.0
 16
0.0
 26
0.0
 36
1.0
 17
0.0
 27
0.0
 37
0.0
 40
9.0
 41
1.511387
 42
50.0
 43
0.0
 44
0.0
 50
0.0
 51
0.0
 71
     0
 72
   100
 73
     1
 74
     1
 75
     0
 76
     0
 77
     0
 78
     0
  0
ENDTAB
  0
TABLE
  2
LTYPE
 70
    41
  0
LTYPE
  2
BYBLOCK
 70
     0
  3

 72
    65
 73
     0
 40
0.0
  0
LTYPE
  2
BYLAYER
 70
     0
  3

 72
    65
 73
     0
 40
0.0
  0
LTYPE
  2
CONTINUOUS
 70
     0
  3
Solid line
 72
    65
 73
     0
 40
0.0
  0
LTYPE
  2
BORDER
 70
    64
  3
__ __ . __ __ . __ __ . __ __ . __ __ . __ __ .
 72
    65
 73
     6
 40
1.75
 49
0.5
 49
-0.25
 49
0.5
 49
-0.25
 49
0.0
 49
-0.25
  0
LTYPE
  2
BORDER2
 70
    64
  3
__.__.__.__.__.__.__.__.__.__.__.__.__.__.__.__
 72
    65
 73
     6
 40
0.875
 49
0.25
 49
-0.125
 49
0.25
 49
-0.125
 49
0.0
 49
-0.125
  0
LTYPE
  2
BORDERX2
 70
    64
  3
____  ____  .  ____  ____  .  ____  ____  .  __
 72
    65
 73
     6
 40
3.5
 49
1.0
 49
-0.5
 49
1.0
 49
-0.5
 49
0.0
 49
-0.5
  0
LTYPE
  2
CENTER
 70
    64
  3
____ _ ____ _ ____ _ ____ _ ____ _ ____ _ ____
 72
    65
 73
     4
 40
2.0
 49
1.25
 49
-0.25
 49
0.25
 49
-0.25
  0
LTYPE
  2
CENTER2
 70
    64
  3
___ _ ___ _ ___ _ ___ _ ___ _ ___ _ ___ _ ___ _
 72
    65
 73
     4
 40
1.125
 49
0.75
 49
-0.125
 49
0.125
 49
-0.125
  0
LTYPE
  2
CENTERX2
 70
    64
  3
________  __  ________  __  ________  __  _____
 72
    65
 73
     4
 40
4.0
 49
2.5
 49
-0.5
 49
0.5
 49
-0.5
  0
LTYPE
  2
DASHDOT
 70
    64
  3
__ . __ . __ . __ . __ . __ . __ . __ . __ . __
 72
    65
 73
     4
 40
1.0
 49
0.5
 49
-0.25
 49
0.0
 49
-0.25
  0
LTYPE
  2
DASHDOT2
 70
    64
  3
_._._._._._._._._._._._._._._._._._._._._._._._
 72
    65
 73
     4
 40
0.5
 49
0.25
 49
-0.125
 49
0.0
 49
-0.125
  0
LTYPE
  2
DASHDOTX2
 70
    64
  3
____  .  ____  .  ____  .  ____  .  ____  .  __
 72
    65
 73
     4
 40
2.0
 49
1.0
 49
-0.5
 49
0.0
 49
-0.5
  0
LTYPE
  2
DASHED
 70
    64
  3
__ __ __ __ __ __ __ __ __ __ __ __ __ __ __ __
 72
    65
 73
     2
 40
0.75
 49
0.5
 49
-0.25
  0
LTYPE
  2
DASHED2
 70
    64
  3
_ _ _ _ _ _ _ _ _ _ _ _ _ _ _ _ _ _ _ _ _ _ _ _
 72
    65
 73
     2
 40
0.375
 49
0.25
 49
-0.125
  0
LTYPE
  2
DASHEDX2
 70
    64
  3
____  ____  ____  ____  ____  ____  ____  ____
 72
    65
 73
     2
 40
1.5
 49
1.0
 49
-0.5
  0
LTYPE
  2
DIVIDE
 70
    64
  3
____ . . ____ . . ____ . . ____ . . ____ . . __
 72
    65
 73
     6
 40
1.25
 49
0.5
 49
-0.25
 49
0.0
 49
-0.25
 49
0.0
 49
-0.25
  0
LTYPE
  2
DIVIDE2
 70
    64
  3
__..__..__..__..__..__..__..__..__..__..__..__.
 72
    65
 73
     6
 40
0.625
 49
0.25
 49
-0.125
 49
0.0
 49
-0.125
 49
0.0
 49
-0.125
  0
LTYPE
  2
DIVIDEX2
 70
    64
  3
________  .  .  ________  .  .  ________  .  .
 72
    65
 73
     6
 40
2.5
 49
1.0
 49
-0.5
 49
0.0
 49
-0.5
 49
0.0
 49
-0.5
  0
LTYPE
  2
DOT
 70
    64
  3
. . . . . . . . . . . . . . . . . . . . . . . .
 72
    65
 73
     2
 40
0.25
 49
0.0
 49
-0.25
  0
LTYPE
  2
DOT2
 70
    64
  3
...............................................
 72
    65
 73
     2
 40
0.125
 49
0.0
 49
-0.125
  0
LTYPE
  2
DOTX2
 70
    64
  3
.  .  .  .  .  .  .  .  .  .  .  .  .  .  .  .
 72
    65
 73
     2
 40
0.5
 49
0.0
 49
-0.5
  0
LTYPE
  2
HIDDEN
 70
    64
  3
__ __ __ __ __ __ __ __ __ __ __ __ __ __ __ __
 72
    65
 73
     2
 40
0.375
 49
0.25
 49
-0.125
  0
LTYPE
  2
HIDDEN2
 70
    64
  3
_ _ _ _ _ _ _ _ _ _ _ _ _ _ _ _ _ _ _ _ _ _ _ _
 72
    65
 73
     2
 40
0.1875
 49
0.125
 49
-0.0625
  0
LTYPE
  2
HIDDENX2
 70
    64
  3
____ ____ ____ ____ ____ ____ ____ ____ ____ __
 72
    65
 73
     2
 40
0.75
 49
0.5
 49
-0.25
  0
LTYPE
  2
PHANTOM
 70
    64
  3
______  __  __  ______  __  __  ______  __  __
 72
    65
 73
     6
 40
2.5
 49
1.25
 49
-0.25
 49
0.25
 49
-0.25
 49
0.25
 49
-0.25
  0
LTYPE
  2
PHANTOM2
 70
    64
  3
___ _ _ ___ _ _ ___ _ _ ___ _ _ ___ _ _ ___ _ _
 72
    65
 73
     6
 40
1.25
 49
0.625
 49
-0.125
 49
0.125
 49
-0.125
 49
0.125
 49
-0.125
  0
LTYPE
  2
PHANTOMX2
 70
    64
  3
____________    ____    ____    ____________
 72
    65
 73
     6
 40
5.0
 49
2.5
 49
-0.5
 49
0.5
 49
-0.5
 49
0.5
 49
-0.5
  0
LTYPE
  2
ACAD_ISO02W100
 70
    64
  3
__ __ __ __ __ __ __ __ __ __ __ __ __ __ __ __
 72
    65
 73
     2
 40
15.0
 49
12.0
 49
-3.0
  0
LTYPE
  2
ACAD_ISO03W100
 70
    64
  3
__    __    __    __    __    __    __    __
 72
    65
 73
     2
 40
30.0
 49
12.0
 49
-18.0
  0
LTYPE
  2
ACAD_ISO04W100
 70
    64
  3
____ . ____ . ____ . ____ . ____ . ____ . ____
 72
    65
 73
     4
 40
30.5
 49
24.0
 49
-3.0
 49
0.5
 49
-3.0
  0
LTYPE
  2
ACAD_ISO05W100
 70
    64
  3
____ .. ____ .. ____ .. ____ .. ____ .. ____ ..
 72
    65
 73
     6
 40
34.0
 49
24.0
 49
-3.0
 49
0.5
 49
-3.0
 49
0.5
 49
-3.0
  0
LTYPE
  2
ACAD_ISO06W100
 70
    64
  3
____ ... ____ ... ____ ... ____ ... ____ ... __
 72
    65
 73
     8
 40
37.5
 49
24.0
 49
-3.0
 49
0.5
 49
-3.0
 49
0.5
 49
-3.0
 49
0.5
 49
-3.0
  0
LTYPE
  2
ACAD_ISO07W100
 70
    64
  3
. . . . . . . . . . . . . . . . . . . . . . . .
 72
    65
 73
     2
 40
3.5
 49
0.5
 49
-3.0
  0
LTYPE
  2
ACAD_ISO08W100
 70
    64
  3
____ __ ____ __ ____ __ ____ ____ __ __ ____ __
 72
    65
 73
     4
 40
36.0
 49
24.0
 49
-3.0
 49
6.0
 49
-3.0
  0
LTYPE
  2
ACAD_ISO09W100
 70
    64
  3
____ __ __ ____ __ __ ____ __ __ ____ __ __ ___
 72
    65
 73
     6
 40
45.0
 49
24.0
 49
-3.0
 49
6.0
 49
-3.0
 49
6.0
 49
-3.0
  0
LTYPE
  2
ACAD_ISO10W100
 70
    64
  3
__ . __ . __ . __ . __ . __ . __ . __ . __ . __
 72
    65
 73
     4
 40
18.5
 49
12.0
 49
-3.0
 49
0.5
 49
-3.0
  0
LTYPE
  2
ACAD_ISO11W100
 70
    64
  3
__ __ . __ __ . __ __ . __ __ . __ __ . __ __ .
 72
    65
 73
     6
 40
33.5
 49
12.0
 49
-3.0
 49
12.0
 49
-3.0
 49
0.5
 49
-3.0
  0
LTYPE
  2
ACAD_ISO12W100
 70
    64
  3
__ . . __ . . __ . . __ . . __ . . __ . . __ .
 72
    65
 73
     6
 40
22.0
 49
12.0
 49
-3.0
 49
0.5
 49
-3.0
 49
0.5
 49
-3.0
  0
LTYPE
  2
ACAD_ISO13W100
 70
    64
  3
__ __ . . __ __ . . __ __ . . __ __ . . __ __ .
 72
    65
 73
     8
 40
37.0
 49
12.0
 49
-3.0
 49
12.0
 49
-3.0
 49
0.5
 49
-3.0
 49
0.5
 49
-3.0
  0
LTYPE
  2
ACAD_ISO14W100
 70
    64
  3
__ . . . __ . . . __ . . . __ . . . __ . . . __
 72
    65
 73
     8
 40
25.5
 49
12.0
 49
-3.0
 49
0.5
 49
-3.0
 49
0.5
 49
-3.0
 49
0.5
 49
-3.0
  0
LTYPE
  2
ACAD_ISO15W100
 70
    64
  3
__ __ . . . __ __ . . . __ __ . . . __ __ . . .
 72
    65
 73
    10
 40
40.5
 49
12.0
 49
-3.0
 49
12.0
 49
-3.0
 49
0.5
 49
-3.0
 49
0.5
 49
-3.0
 49
0.5
 49
-3.0
  0
ENDTAB
  0
TABLE
  2
STYLE
 70
     4
  0
STYLE
  2
STANDARD
 70
    64
 40
0.0
 41
1.0
 50
0.0
 71
     0
 42
0.2
  3
txt
  4

  0
STYLE
  2
TOLERANCE
 70
    64
 40
0.0
 41
1.0
 50
0.0
 71
     0
 42
0.2
  3
../igesfont/iges1003.shx
  4

  0
STYLE
  2
ROMANS
 70
    64
 40
0.0
 41
1.0
 50
0.0
 71
     0
 42
0.2
  3
romans.shx
  4

  0
STYLE
  2
ROMANC
 70
    64
 40
0.0
 41
1.0
 50
0.0
 71
     0
 42
0.2
  3
romanc.shx
  4

  0
ENDTAB
  0
TABLE
  2
DIMSTYLE
 70
     2
  0
DIMSTYLE
  2
UNNAMED
 70
     0
  3

  4

  5

  6

  7

 40
1.0
 41
0.18
 42
0.0625
 43
0.38
 44
0.18
 45
0.0
 46
0.0
 47
0.0
 48
0.0
140
0.18
141
0.09
142
0.0
143
25.4
144
1.0
145
0.0
146
1.0
147
0.09
 71
     0
 72
     0
 73
     1
 74
     1
 75
     0
 76
     0
 77
     0
 78
     0
170
     0
171
     2
172
     0
173
     0
174
     0
175
     0
176
     0
177
     0
178
     0
  0
DIMSTYLE
  2
STANDARD
 70
     0
  3

  4

  5

  6

  7

 40
1.0
 41
0.18
 42
0.0625
 43
0.38
 44
0.18
 45
0.0
 46
0.0
 47
0.0
 48
0.0
140
0.18
141
0.09
142
0.0
143
25.4
144
1.0
145
0.0
146
1.0
147
0.09
 71
     0
 72
     0
 73
     1
 74
     1
 75
     0
 76
     0
 77
     0
 78
     0
170
     0
171
     2
172
     0
173
     0
174
     0
175
     0
176
     0
177
     0
178
     0
  0
ENDTAB
  0
TABLE
  2
LAYER
 70
     2
  0
LAYER
  2
0
 70
     0
 62
     7
  6
CONTINUOUS
  0
LAYER
  2
255
 70
     0
 62
     7
  6
CONTINUOUS
  0
ENDTAB
  0
ENDSEC
  0
SECTION
  2
BLOCKS
  0
BLOCK
  5
     B
  8
0
  6
CONTINUOUS
 62
     7
  2
BASETT
 70
    64
 10
0.0
 20
0.0
 30
0.0
  3
BASETT
  0
LINE
  5
     C
  8
0
  6
CONTINUOUS
 62
     1
 10
9.37916411203332E-13
 20
8.29115314964895E-16
 30
0.0
 11
48.5000000000009
 21
8.29115314964895E-16
 31
0.0
  0
LINE
  5
     D
  8
0
  6
CONTINUOUS
 62
     1
 10
-2.00000000000001
 20
16.4999999606765
 30
0.0
 11
48.5000000000058
 21
16.4999900306657
 31
0.0
  0
LINE
  5
     E
  8
0
  6
CONTINUOUS
 62
     1
 10
-2.5
 20
278.499999567409
 30
0.0
 11
48.5
 21
278.499999567409
 31
0.0
  0
LINE
  5
     F
  8
0
  6
CONTINUOUS
 62
     1
 10
1.49317556230405E-11
 20
294.999952060667
 30
0.0
 11
48.5000000000149
 21
294.999952060667
 31
0.0
  0
LINE
  5
    10
  8
0
  6
CONTINUOUS
 62
     1
 10
0.0
 20
0.0
 30
0.0
 11
0.0
 21
16.4999995674088
 31
0.0
  0
LINE
  5
    11
  8
0
  6
CONTINUOUS
 62
     1
 10
0.0
 20
224.499952060667
 30
0.0
 11
0.0
 21
263.499999567409
 31
0.0
  0
LINE
  5
    12
  8
0
  6
CONTINUOUS
 62
     1
 10
48.5
 20
74.4999564682283
 30
0.0
 11
48.5
 21
81.4999995674093
 31
0.0
  0
LINE
  5
    13
  8
0
  6
CONTINUOUS
 62
     1
 10
45.5000901428785
 20
77.4999576057394
 30
0.0
 11
47.5
 21
77.4999576057394
 31
0.0
  0
LINE
  5
    14
  8
0
  6
CONTINUOUS
 62
     1
 10
49.5
 20
198.49998430862
 30
0.0
 11
49.5
 21
216.49998430862
 31
0.0
  0
LINE
  5
    15
  8
0
  6
CONTINUOUS
 62
     1
 10
49.5
 20
78.4999919380148
 30
0.0
 11
49.5
 21
96.4999919380148
 31
0.0
  0
LINE
  5
    16
  8
0
  6
CONTINUOUS
 62
     1
 10
48.5
 20
294.999999567409
 30
0.0
 11
61.0
 21
294.999999567409
 31
0.0
  0
LINE
  5
    17
  8
0
  6
CONTINUOUS
 62
     1
 10
48.5
 20
278.499999567409
 30
0.0
 11
63.0
 21
278.499999567409
 31
0.0
  0
LINE
  5
    18
  8
0
  6
CONTINUOUS
 62
     1
 10
63.0
 20
223.499960071298
 30
0.0
 11
63.0
 21
293.000130967507
 31
0.0
  0
LINE
  5
    19
  8
0
  6
CONTINUOUS
 62
     1
 10
48.5000000000152
 20
3.42048471119702E-5
 30
0.0
 11
61.0000000000152
 21
3.42048471119702E-5
 31
0.0
  0
LINE
  5
    1A
  8
0
  6
CONTINUOUS
 62
     1
 10
48.5000000000458
 20
16.499990030663
 30
0.0
 11
63.0000000000458
 21
16.4999824012685
 31
0.0
  0
LINE
  5
    1B
  8
0
  6
CONTINUOUS
 62
     1
 10
63.0
 20
1.99997801527987
 30
0.0
 11
63.0
 21
71.5000155985656
 31
0.0
  0
LINE
  5
    1C
  8
0
  6
CONTINUOUS
 62
     1
 10
47.5
 20
143.499991938015
 30
0.0
 11
47.5
 21
151.499991938015
 31
0.0
  0
LINE
  5
    1D
  8
0
  6
CONTINUOUS
 62
     1
 10
48.5
 20
216.49998430862
 30
0.0
 11
49.5
 21
216.49998430862
 31
0.0
  0
LINE
  5
    1E
  8
0
  6
CONTINUOUS
 62
     1
 10
45.5
 20
198.49998430862
 30
0.0
 11
49.5
 21
198.49998430862
 31
0.0
  0
LINE
  5
    1F
  8
0
  6
CONTINUOUS
 62
     1
 10
45.5
 20
96.4999919380148
 30
0.0
 11
49.5
 21
96.4999919380148
 31
0.0
  0
LINE
  5
    20
  8
0
  6
CONTINUOUS
 62
     1
 10
48.5
 20
78.4999919380148
 30
0.0
 11
49.5
 21
78.4999919380148
 31
0.0
  0
LINE
  5
    21
  8
0
  6
CONTINUOUS
 62
     1
 10
45.5
 20
151.499991938015
 30
0.0
 11
47.5
 21
151.499991938015
 31
0.0
  0
LINE
  5
    22
  8
0
  6
CONTINUOUS
 62
     1
 10
45.5
 20
143.499991938015
 30
0.0
 11
47.5
 21
143.499991938015
 31
0.0
  0
ARC
  5
    23
  8
0
  6
CONTINUOUS
 62
     1
 10
61.0001195664684
 20
293.000130967507
 30
0.0
 40
1.99983675500225
 50
359.996219692575
 51
450.003067297461
  0
ARC
  5
    24
  8
0
  6
CONTINUOUS
 62
     1
 10
60.999997541172
 20
1.99997801527987
 30
0.0
 40
1.99998559606681
 50
270.000149683848
 51
360.00043490088
  0
LINE
  5
    25
  8
0
  6
CONTINUOUS
 62
     1
 10
-2.5
 20
263.499999567409
 30
0.0
 11
-2.5
 21
278.499999567409
 31
0.0
  0
LINE
  5
    26
  8
0
  6
CONTINUOUS
 62
     1
 10
-2.0
 20
16.4999999606765
 30
0.0
 11
-2.0
 21
31.499999567409
 31
0.0
  0
LINE
  5
    27
  8
0
  6
CONTINUOUS
 62
     1
 10
-2.5
 20
263.499999567409
 30
0.0
 11
-1.92386683707583E-15
 21
263.499999567409
 31
0.0
  0
LINE
  5
    28
  8
0
  6
CONTINUOUS
 62
     1
 10
-2.0
 20
31.499999567409
 30
0.0
 11
-1.92881868216852E-15
 21
31.499999567409
 31
0.0
  0
LINE
  5
    29
  8
0
  6
CONTINUOUS
 62
     1
 10
0.0
 20
31.499999567409
 30
0.0
 11
0.0
 21
85.5
 31
0.0
  0
LINE
  5
    2A
  8
0
  6
CONTINUOUS
 62
     1
 10
0.0
 20
278.499999567409
 30
0.0
 11
0.0
 21
294.999952060667
 31
0.0
  0
LINE
  5
    2B
  8
0
  6
CONTINUOUS
 62
     1
 10
49.5
 20
73.499980493923
 30
0.0
 11
61.0
 21
73.499980493923
 31
0.0
  0
LINE
  5
    2C
  8
0
  6
CONTINUOUS
 62
     1
 10
48.7928895797786
 20
73.7928770569176
 30
0.0
 11
49.1173066946318
 21
73.5761030782846
 31
0.0
  0
LINE
  5
    2D
  8
0
  6
CONTINUOUS
 62
     1
 10
45.5
 20
217.499953791042
 30
0.0
 11
47.5
 21
217.499953791042
 31
0.0
  0
LINE
  5
    2E
  8
0
  6
CONTINUOUS
 62
     1
 10
48.5
 20
218.499953791042
 30
0.0
 11
48.5
 21
220.49998430862
 31
0.0
  0
LINE
  5
    2F
  8
0
  6
CONTINUOUS
 62
     1
 10
49.5
 20
221.49998430862
 30
0.0
 11
61.0
 21
221.49998430862
 31
0.0
  0
LINE
  5
    30
  8
0
  6
CONTINUOUS
 62
     1
 10
48.5
 20
213.499999567409
 30
0.0
 11
48.5
 21
218.49998430862
 31
0.0
  0
LINE
  5
    31
  8
0
  6
CONTINUOUS
 62
     1
 10
85.0
 20
20.4999995674093
 30
0.0
 11
85.0
 21
66.4999995674093
 31
0.0
  0
LINE
  5
    32
  8
0
  6
CONTINUOUS
 62
     1
 10
85.0
 20
228.499999567409
 30
0.0
 11
85.0
 21
274.499999567409
 31
0.0
  0
LINE
  5
    33
  8
0
  6
CONTINUOUS
 62
     1
 10
65.0
 20
18.4999995674093
 30
0.0
 11
83.0
 21
18.4999995674093
 31
0.0
  0
LINE
  5
    34
  8
0
  6
CONTINUOUS
 62
     1
 10
65.0
 20
68.4999995674093
 30
0.0
 11
83.0
 21
68.4999995674093
 31
0.0
  0
LINE
  5
    35
  8
0
  6
CONTINUOUS
 62
     1
 10
65.0
 20
276.499999567409
 30
0.0
 11
83.0
 21
276.499999567409
 31
0.0
  0
LINE
  5
    36
  8
0
  6
CONTINUOUS
 62
     1
 10
65.0
 20
226.499999567409
 30
0.0
 11
83.0
 21
226.499999567409
 31
0.0
  0
ARC
  5
    37
  8
0
  6
CONTINUOUS
 62
     1
 10
64.9999165137627
 20
278.499791758427
 30
0.0
 40
1.99978487451056
 50
179.993632987589
 51
270.002663206323
  0
ARC
  5
    38
  8
0
  6
CONTINUOUS
 62
     1
 10
82.9999340347904
 20
274.4999314475
 30
0.0
 40
2.0000757729629
 50
0.002355312465183
 51
89.9978053040706
  0
ARC
  5
    39
  8
0
  6
CONTINUOUS
 62
     1
 10
82.9999116167853
 20
228.500087346486
 30
0.0
 40
2.00011549437606
 50
270.002897544432
 51
359.997857039135
  0
ARC
  5
    3A
  8
0
  6
CONTINUOUS
 62
     1
 10
64.9999184375488
 20
224.50012847784
 30
0.0
 40
1.99984640930379
 50
89.9973313750434
 51
180.003331076003
  0
ARC
  5
    3B
  8
0
  6
CONTINUOUS
 62
     1
 10
61.0000256605929
 20
223.499960071298
 30
0.0
 40
1.99997025751221
 50
269.999590543356
 51
360.001042404463
  0
ARC
  5
    3C
  8
0
  6
CONTINUOUS
 62
     1
 10
49.4998375253428
 20
220.500158338518
 30
0.0
 40
0.999767477268007
 50
90.0
 51
180.0
  0
ARC
  5
    3D
  8
0
  6
CONTINUOUS
 62
     1
 10
47.4999789081749
 20
218.49996520695
 30
0.0
 40
1.00002296670393
 50
270.001612621459
 51
359.998496043313
  0
ARC
  5
    3E
  8
0
  6
CONTINUOUS
 62
     1
 10
61.0000128593571
 20
71.5000155985656
 30
0.0
 40
1.99996077363452
 50
359.998963444352
 51
450.00007365585
  0
ARC
  5
    3F
  8
0
  6
CONTINUOUS
 62
     1
 10
65.0000025173283
 20
70.5000043721036
 30
0.0
 40
2.00000239651892
 50
180.000166916245
 51
270.000162708079
  0
ARC
  5
    40
  8
0
  6
CONTINUOUS
 62
     1
 10
83.0000105972873
 20
66.500007360899
 30
0.0
 40
1.99998409967202
 50
359.99975548358
 51
450.00004232059
  0
ARC
  5
    41
  8
0
  6
CONTINUOUS
 62
     1
 10
82.9999123216256
 20
20.500063832728
 30
0.0
 40
2.00010029490385
 50
270.002773926169
 51
359.998166697101
  0
ARC
  5
    42
  8
0
  6
CONTINUOUS
 62
     1
 10
64.9999636318814
 20
16.5000487387311
 30
0.0
 40
1.9999391421224
 50
89.9987223290514
 51
180.001392964213
  0
ARC
  5
    43
  8
0
  6
CONTINUOUS
 62
     1
 10
49.4999889213575
 20
74.4999564682283
 30
0.0
 40
0.999975386078343
 50
180.0
 51
270.0
  0
ARC
  5
    44
  8
0
  6
CONTINUOUS
 62
     1
 10
47.5
 20
76.4999576057394
 30
0.0
 40
1.0
 50
0.0
 51
90.0
  0
LINE
  5
    45
  8
0
  6
DASHDOT
 62
     1
 10
-4.2589963029921
 20
251.499999567409
 30
0.0
 11
89.4453946237602
 21
251.499999567409
 31
0.0
  0
LINE
  5
    46
  8
0
  6
CONTINUOUS
 62
     1
 10
47.5
 20
85.4999919380148
 30
0.0
 11
47.5
 21
89.4999919380148
 31
0.0
  0
LINE
  5
    47
  8
0
  6
CONTINUOUS
 62
     1
 10
47.5
 20
205.49998430862
 30
0.0
 11
47.5
 21
209.49998430862
 31
0.0
  0
LINE
  5
    48
  8
0
  6
CONTINUOUS
 62
     1
 10
45.5
 20
209.49998430862
 30
0.0
 11
47.5
 21
209.49998430862
 31
0.0
  0
LINE
  5
    49
  8
0
  6
CONTINUOUS
 62
     1
 10
45.5
 20
205.49998430862
 30
0.0
 11
47.5
 21
205.49998430862
 31
0.0
  0
LINE
  5
    4A
  8
0
  6
CONTINUOUS
 62
     1
 10
45.5
 20
89.4999919380148
 30
0.0
 11
47.5
 21
89.4999919380148
 31
0.0
  0
LINE
  5
    4B
  8
0
  6
CONTINUOUS
 62
     1
 10
45.5
 20
85.4999919380148
 30
0.0
 11
47.5
 21
85.4999919380148
 31
0.0
  0
LINE
  5
    4C
  8
0
  6
DASHDOT
 62
     1
 10
-4.2589963029921
 20
43.4999995674093
 30
0.0
 11
99.2454243656788
 21
43.4999995674093
 31
0.0
  0
ENDBLK
  5
    4D
  8
0
  6
CONTINUOUS
 62
     7
  0
BLOCK
  5
    4E
  8
0
  6
CONTINUOUS
 62
     7
  2
*HATCH247
 70
    65
 10
0.0
 20
0.0
 30
0.0
  3
*HATCH247
  0
LINE
  5
    4F
  8
0
  6
CONTINUOUS
 62
    52
 10
217.690933227539
 20
39.5000152587891
 30
0.0
 11
215.690933227539
 21
37.5000152587891
 31
0.0
  0
LINE
  5
    50
  8
0
  6
CONTINUOUS
 62
    52
 10
221.933578491211
 20
39.5000152587891
 30
0.0
 11
219.933578491211
 21
37.5000152587891
 31
0.0
  0
LINE
  5
    51
  8
0
  6
CONTINUOUS
 62
    52
 10
226.176223754883
 20
39.5000152587891
 30
0.0
 11
224.176223754883
 21
37.5000152587891
 31
0.0
  0
LINE
  5
    52
  8
0
  6
CONTINUOUS
 62
    52
 10
230.418869018555
 20
39.5000152587891
 30
0.0
 11
228.418869018555
 21
37.5000152587891
 31
0.0
  0
LINE
  5
    53
  8
0
  6
CONTINUOUS
 62
    52
 10
234.661514282227
 20
39.5000152587891
 30
0.0
 11
232.661514282227
 21
37.5000152587891
 31
0.0
  0
LINE
  5
    54
  8
0
  6
CONTINUOUS
 62
    52
 10
238.904159545898
 20
39.5000152587891
 30
0.0
 11
236.904159545898
 21
37.5000152587891
 31
0.0
  0
LINE
  5
    55
  8
0
  6
CONTINUOUS
 62
    52
 10
242.12809753418
 20
38.4813385009766
 30
0.0
 11
241.146774291992
 21
37.5000152587891
 31
0.0
  0
ENDBLK
  5
    56
  8
0
  6
CONTINUOUS
 62
     7
  0
BLOCK
  5
    57
  8
0
  6
CONTINUOUS
 62
     7
  2
*HATCH248
 70
    65
 10
0.0
 20
0.0
 30
0.0
  3
*HATCH248
  0
LINE
  5
    58
  8
0
  6
CONTINUOUS
 62
    52
 10
128.595474243164
 20
39.5000114440918
 30
0.0
 11
126.595474243164
 21
37.5000152587891
 31
0.0
  0
LINE
  5
    59
  8
0
  6
CONTINUOUS
 62
    52
 10
132.838119506836
 20
39.5000114440918
 30
0.0
 11
130.838119506836
 21
37.5000152587891
 31
0.0
  0
LINE
  5
    5A
  8
0
  6
CONTINUOUS
 62
    52
 10
137.080764770508
 20
39.5000114440918
 30
0.0
 11
135.080764770508
 21
37.5000152587891
 31
0.0
  0
LINE
  5
    5B
  8
0
  6
CONTINUOUS
 62
    52
 10
141.32341003418
 20
39.5000114440918
 30
0.0
 11
139.32341003418
 21
37.5000152587891
 31
0.0
  0
LINE
  5
    5C
  8
0
  6
CONTINUOUS
 62
    52
 10
145.566055297852
 20
39.5000114440918
 30
0.0
 11
143.566055297852
 21
37.5000152587891
 31
0.0
  0
LINE
  5
    5D
  8
0
  6
CONTINUOUS
 62
    52
 10
149.808700561523
 20
39.5000114440918
 30
0.0
 11
147.808700561523
 21
37.5000152587891
 31
0.0
  0
LINE
  5
    5E
  8
0
  6
CONTINUOUS
 62
    52
 10
154.051345825195
 20
39.5000114440918
 30
0.0
 11
152.051345825195
 21
37.5000152587891
 31
0.0
  0
LINE
  5
    5F
  8
0
  6
CONTINUOUS
 62
    52
 10
158.293991088867
 20
39.5000114440918
 30
0.0
 11
156.293991088867
 21
37.5000152587891
 31
0.0
  0
LINE
  5
    60
  8
0
  6
CONTINUOUS
 62
    52
 10
162.536636352539
 20
39.5000114440918
 30
0.0
 11
160.536636352539
 21
37.5000152587891
 31
0.0
  0
LINE
  5
    61
  8
0
  6
CONTINUOUS
 62
    52
 10
166.779281616211
 20
39.5000114440918
 30
0.0
 11
164.779281616211
 21
37.5000152587891
 31
0.0
  0
LINE
  5
    62
  8
0
  6
CONTINUOUS
 62
    52
 10
171.021926879883
 20
39.5000114440918
 30
0.0
 11
169.021926879883
 21
37.5000152587891
 31
0.0
  0
LINE
  5
    63
  8
0
  6
CONTINUOUS
 62
    52
 10
175.264572143555
 20
39.5000114440918
 30
0.0
 11
173.264572143555
 21
37.5000152587891
 31
0.0
  0
LINE
  5
    64
  8
0
  6
CONTINUOUS
 62
    52
 10
179.507217407227
 20
39.5000114440918
 30
0.0
 11
177.507217407227
 21
37.5000152587891
 31
0.0
  0
LINE
  5
    65
  8
0
  6
CONTINUOUS
 62
    52
 10
183.749862670898
 20
39.5000114440918
 30
0.0
 11
181.749862670898
 21
37.5000152587891
 31
0.0
  0
LINE
  5
    66
  8
0
  6
CONTINUOUS
 62
    52
 10
187.99250793457
 20
39.5000114440918
 30
0.0
 11
185.99250793457
 21
37.5000152587891
 31
0.0
  0
LINE
  5
    67
  8
0
  6
CONTINUOUS
 62
    52
 10
192.235153198242
 20
39.5000114440918
 30
0.0
 11
190.235153198242
 21
37.5000152587891
 31
0.0
  0
LINE
  5
    68
  8
0
  6
CONTINUOUS
 62
    52
 10
196.477798461914
 20
39.5000114440918
 30
0.0
 11
194.477798461914
 21
37.5000152587891
 31
0.0
  0
LINE
  5
    69
  8
0
  6
CONTINUOUS
 62
    52
 10
200.720443725586
 20
39.5000114440918
 30
0.0
 11
198.720443725586
 21
37.5000152587891
 31
0.0
  0
LINE
  5
    6A
  8
0
  6
CONTINUOUS
 62
    52
 10
204.963088989258
 20
39.5000114440918
 30
0.0
 11
202.963088989258
 21
37.5000152587891
 31
0.0
  0
LINE
  5
    6B
  8
0
  6
CONTINUOUS
 62
    52
 10
207.737045288086
 20
38.0314140319824
 30
0.0
 11
207.205657958984
 21
37.5000152587891
 31
0.0
  0
ENDBLK
  5
    6C
  8
0
  6
CONTINUOUS
 62
     7
  0
BLOCK
  5
    6D
  8
0
  6
CONTINUOUS
 62
     7
  2
*HATCH249
 70
    65
 10
0.0
 20
0.0
 30
0.0
  3
*HATCH249
  0
LINE
  5
    6E
  8
0
  6
CONTINUOUS
 62
    52
 10
92.5330276489258
 20
39.5000114440918
 30
0.0
 11
90.5330276489258
 21
37.5000114440918
 31
0.0
  0
LINE
  5
    6F
  8
0
  6
CONTINUOUS
 62
    52
 10
96.7756729125977
 20
39.5000114440918
 30
0.0
 11
94.7756729125977
 21
37.5000114440918
 31
0.0
  0
LINE
  5
    70
  8
0
  6
CONTINUOUS
 62
    52
 10
101.01831817627
 20
39.5000114440918
 30
0.0
 11
99.0183181762695
 21
37.5000114440918
 31
0.0
  0
LINE
  5
    71
  8
0
  6
CONTINUOUS
 62
    52
 10
105.260963439941
 20
39.5000114440918
 30
0.0
 11
103.260963439941
 21
37.5000114440918
 31
0.0
  0
LINE
  5
    72
  8
0
  6
CONTINUOUS
 62
    52
 10
109.503608703613
 20
39.5000114440918
 30
0.0
 11
107.503608703613
 21
37.5000114440918
 31
0.0
  0
LINE
  5
    73
  8
0
  6
CONTINUOUS
 62
    52
 10
113.746253967285
 20
39.5000114440918
 30
0.0
 11
111.746253967285
 21
37.5000114440918
 31
0.0
  0
LINE
  5
    74
  8
0
  6
CONTINUOUS
 62
    52
 10
117.988899230957
 20
39.5000114440918
 30
0.0
 11
115.988899230957
 21
37.5000114440918
 31
0.0
  0
ENDBLK
  5
    75
  8
0
  6
CONTINUOUS
 62
     7
  0
BLOCK
  5
    76
  8
0
  6
CONTINUOUS
 62
     7
  2
*HATCH250
 70
    65
 10
0.0
 20
0.0
 30
0.0
  3
*HATCH250
  0
LINE
  5
    77
  8
0
  6
CONTINUOUS
 62
    52
 10
41.6213340759277
 20
39.5000114440918
 30
0.0
 11
39.621337890625
 21
37.5000152587891
 31
0.0
  0
LINE
  5
    78
  8
0
  6
CONTINUOUS
 62
    52
 10
45.8639717102051
 20
39.5000114440918
 30
0.0
 11
43.8639755249023
 21
37.5000152587891
 31
0.0
  0
LINE
  5
    79
  8
0
  6
CONTINUOUS
 62
    52
 10
50.1066093444824
 20
39.5000114440918
 30
0.0
 11
48.1066131591797
 21
37.5000152587891
 31
0.0
  0
LINE
  5
    7A
  8
0
  6
CONTINUOUS
 62
    52
 10
54.3492469787598
 20
39.5000114440918
 30
0.0
 11
52.349250793457
 21
37.5000152587891
 31
0.0
  0
LINE
  5
    7B
  8
0
  6
CONTINUOUS
 62
    52
 10
58.5918846130371
 20
39.5000114440918
 30
0.0
 11
56.5918884277344
 21
37.5000152587891
 31
0.0
  0
LINE
  5
    7C
  8
0
  6
CONTINUOUS
 62
    52
 10
62.8345222473145
 20
39.5000114440918
 30
0.0
 11
60.8345260620117
 21
37.5000152587891
 31
0.0
  0
LINE
  5
    7D
  8
0
  6
CONTINUOUS
 62
    52
 10
67.0771636962891
 20
39.5000114440918
 30
0.0
 11
65.0771636962891
 21
37.5000152587891
 31
0.0
  0
LINE
  5
    7E
  8
0
  6
CONTINUOUS
 62
    52
 10
71.3198089599609
 20
39.5000114440918
 30
0.0
 11
69.3198089599609
 21
37.5000152587891
 31
0.0
  0
LINE
  5
    7F
  8
0
  6
CONTINUOUS
 62
    52
 10
75.2372512817383
 20
39.1748008728027
 30
0.0
 11
73.5624618530273
 21
37.5000114440918
 31
0.0
  0
ENDBLK
  5
    80
  8
0
  6
CONTINUOUS
 62
     7
  0
BLOCK
  5
    81
  8
0
  6
CONTINUOUS
 62
     7
  2
*HATCH251
 70
    65
 10
0.0
 20
0.0
 30
0.0
  3
*HATCH251
  0
LINE
  5
    82
  8
0
  6
CONTINUOUS
 62
    52
 10
-22.018274307251
 20
39.5000152587891
 30
0.0
 11
-24.018274307251
 21
37.5000152587891
 31
0.0
  0
LINE
  5
    83
  8
0
  6
CONTINUOUS
 62
    52
 10
-17.7756328582764
 20
39.5000152587891
 30
0.0
 11
-19.7756328582764
 21
37.5000152587891
 31
0.0
  0
LINE
  5
    84
  8
0
  6
CONTINUOUS
 62
    52
 10
-13.5329914093018
 20
39.5000152587891
 30
0.0
 11
-15.5329914093018
 21
37.5000152587891
 31
0.0
  0
LINE
  5
    85
  8
0
  6
CONTINUOUS
 62
    52
 10
-9.29034996032715
 20
39.5000152587891
 30
0.0
 11
-11.2903499603271
 21
37.5000152587891
 31
0.0
  0
LINE
  5
    86
  8
0
  6
CONTINUOUS
 62
    52
 10
-5.04770851135254
 20
39.5000152587891
 30
0.0
 11
-7.04770851135254
 21
37.5000152587891
 31
0.0
  0
LINE
  5
    87
  8
0
  6
CONTINUOUS
 62
    52
 10
-0.805067539215088
 20
39.5000152587891
 30
0.0
 11
-2.80506730079651
 21
37.5000152587891
 31
0.0
  0
LINE
  5
    88
  8
0
  6
CONTINUOUS
 62
    52
 10
3.43757343292236
 20
39.5000152587891
 30
0.0
 11
1.43757367134094
 21
37.5000152587891
 31
0.0
  0
LINE
  5
    89
  8
0
  6
CONTINUOUS
 62
    52
 10
7.68021488189697
 20
39.5000152587891
 30
0.0
 11
5.68021488189697
 21
37.5000152587891
 31
0.0
  0
LINE
  5
    8A
  8
0
  6
CONTINUOUS
 62
    52
 10
11.9228563308716
 20
39.5000152587891
 30
0.0
 11
9.92285633087158
 21
37.5000152587891
 31
0.0
  0
LINE
  5
    8B
  8
0
  6
CONTINUOUS
 62
    52
 10
16.1654968261719
 20
39.5000152587891
 30
0.0
 11
14.1654977798462
 21
37.5000152587891
 31
0.0
  0
LINE
  5
    8C
  8
0
  6
CONTINUOUS
 62
    52
 10
20.4081382751465
 20
39.5000152587891
 30
0.0
 11
18.4081382751465
 21
37.5000152587891
 31
0.0
  0
LINE
  5
    8D
  8
0
  6
CONTINUOUS
 62
    52
 10
24.6507797241211
 20
39.5000152587891
 30
0.0
 11
22.6507797241211
 21
37.5000152587891
 31
0.0
  0
LINE
  5
    8E
  8
0
  6
CONTINUOUS
 62
    52
 10
28.8934211730957
 20
39.5000152587891
 30
0.0
 11
26.8934211730957
 21
37.5000152587891
 31
0.0
  0
ENDBLK
  5
    8F
  8
0
  6
CONTINUOUS
 62
     7
  0
BLOCK
  5
    90
  8
0
  6
CONTINUOUS
 62
     7
  2
*HATCH252
 70
    65
 10
0.0
 20
0.0
 30
0.0
  3
*HATCH252
  0
LINE
  5
    91
  8
0
  6
CONTINUOUS
 62
    52
 10
198.084335327148
 20
30.5000228881836
 30
0.0
 11
195.584335327148
 21
28.0000171661377
 31
0.0
  0
LINE
  5
    92
  8
0
  6
CONTINUOUS
 62
    52
 10
202.32698059082
 20
30.5000228881836
 30
0.0
 11
199.82698059082
 21
28.0000171661377
 31
0.0
  0
ENDBLK
  5
    93
  8
0
  6
CONTINUOUS
 62
     7
  0
BLOCK
  5
    94
  8
0
  6
CONTINUOUS
 62
     7
  2
*UDIM1073
 70
    65
 10
0.0
 20
0.0
 30
0.0
  3
*UDIM1073
  0
TEXT
  5
    95
  8
0
  6
CONTINUOUS
 62
     7
 10
-42.2925513311754
 20
-31.8724550218363
 30
0.0
 40
2.99999994933605
  1
5,5
 50
335.553324734861
 41
0.933333333333333
 72
     1
 11
-38.1214295165318
 21
-32.1209348352531
 31
0.0
 73
     2
  0
TEXT
  5
    96
  8
0
  6
CONTINUOUS
 62
     7
 10
-45.160143798462
 20
-30.5688396136762
 30
0.0
 40
2.99999994933605
  1
Ø
 50
335.553324734861
 41
0.933333333333333
 72
     1
 11
-43.5379930605399
 21
-29.6585501725676
 31
0.0
 73
     2
  0
LINE
  5
    97
  8
0
  6
CONTINUOUS
 62
     7
 10
-35.6056923546896
 20
-36.0108019142332
 30
0.0
 11
-54.133663822829
 21
-27.5879352012061
 31
0.0
  0
LINE
  5
    98
  8
0
  6
CONTINUOUS
 62
     7
 10
-49.2257589496156
 20
-29.2468339300222
 30
0.0
 11
-52.1308996674735
 21
-28.4983972864482
 31
0.0
  0
LINE
  5
    99
  8
0
  6
CONTINUOUS
 62
     7
 10
-52.1308996674735
 20
-28.4983972864482
 30
0.0
 11
-49.6569406622875
 21
-30.195314149662
 31
0.0
  0
LINE
  5
    9A
  8
0
  6
CONTINUOUS
 62
     7
 10
-57.0388045406868
 20
-26.8394985576321
 30
0.0
 11
-54.133663822829
 21
-27.5879352012061
 31
0.0
  0
LINE
  5
    9B
  8
0
  6
CONTINUOUS
 62
     7
 10
-54.133663822829
 20
-27.5879352012061
 30
0.0
 11
-56.6076228280149
 21
-25.8910183379923
 31
0.0
  0
ENDBLK
  5
    9C
  8
0
  6
CONTINUOUS
 62
     7
  0
BLOCK
  5
    9D
  8
0
  6
CONTINUOUS
 62
     7
  2
*UDIM1074
 70
    65
 10
0.0
 20
0.0
 30
0.0
  3
*UDIM1074
  0
TEXT
  5
    9E
  8
0
  6
CONTINUOUS
 62
     7
 10
-88.0121761897809
 20
63.1764393722296
 30
0.0
 40
2.99999994933605
  1
27,5
 50
359.999999948034
 41
0.933333333333333
 72
     1
 11
-82.7121762779343
 21
64.6764393421174
 31
0.0
 73
     2
  0
TEXT
  5
    9F
  8
0
  6
CONTINUOUS
 62
     7
 10
-76.8621763568726
 20
63.1764394000096
 30
0.0
 40
2.99999994933605
  1
     CORSA DI SEZIONAMENTO
 50
359.999999948034
 41
0.933333333333333
 72
     1
 11
-40.7621769651759
 21
64.6764393421174
 31
0.0
 73
     2
  0
LINE
  5
    A0
  8
0
  6
CONTINUOUS
 62
     7
 10
-64.5322611510754
 20
17.9568540378633
 30
0.0
 11
-64.5322611510754
 21
64.1764393674493
 31
0.0
  0
LINE
  5
    A1
  8
0
  6
CONTINUOUS
 62
     7
 10
-75.5322613149882
 20
6.75685234509135
 30
0.0
 11
-75.5322613149882
 21
64.1764393674493
 31
0.0
  0
LINE
  5
    A2
  8
0
  6
CONTINUOUS
 62
     7
 10
-4.66217757483204
 20
62.1764393674493
 30
0.0
 11
-88.012176188428
 21
62.1764393674493
 31
0.0
  0
LINE
  5
    A3
  8
0
  6
CONTINUOUS
 62
     7
 10
-61.5778378738685
 20
62.697383797401
 30
0.0
 11
-64.5322611510754
 21
62.1764393674493
 31
0.0
  0
LINE
  5
    A4
  8
0
  6
CONTINUOUS
 62
     7
 10
-64.5322611510754
 20
62.1764393674493
 30
0.0
 11
-61.5778378738685
 21
61.6554949374977
 31
0.0
  0
LINE
  5
    A5
  8
0
  6
CONTINUOUS
 62
     7
 10
-78.4866845921952
 20
61.6554949374977
 30
0.0
 11
-75.5322613149882
 21
62.1764393674493
 31
0.0
  0
LINE
  5
    A6
  8
0
  6
CONTINUOUS
 62
     7
 10
-75.5322613149882
 20
62.1764393674493
 30
0.0
 11
-78.4866845921952
 21
62.697383797401
 31
0.0
  0
ENDBLK
  5
    A7
  8
0
  6
CONTINUOUS
 62
     7
  0
BLOCK
  5
    A8
  8
0
  6
CONTINUOUS
 62
     7
  2
*UDIM1075
 70
    65
 10
0.0
 20
0.0
 30
0.0
  3
*UDIM1075
  0
TEXT
  5
    A9
  8
0
  6
CONTINUOUS
 62
     7
 10
31.1970112218293
 20
-32.2181481458448
 30
0.0
 40
2.99999994933605
  1
145
 50
89.9999999480344
 41
0.933333333333333
 72
     1
 11
29.6970112506936
 21
-28.3181482103494
 31
0.0
 73
     2
  0
LINE
  5
    AA
  8
0
  6
CONTINUOUS
 62
     7
 10
24.0098788711101
 20
-57.0431485907016
 30
0.0
 11
34.1970112253616
 21
-57.0431485907016
 31
0.0
  0
LINE
  5
    AB
  8
0
  6
CONTINUOUS
 62
     7
 10
24.0098788711101
 20
0.956852273565801
 30
0.0
 11
34.1970112253616
 21
0.956852273565801
 31
0.0
  0
LINE
  5
    AC
  8
0
  6
CONTINUOUS
 62
     7
 10
32.1970112253616
 20
-57.0431485907016
 30
0.0
 11
32.1970112253616
 21
0.956852273565801
 31
0.0
  0
LINE
  5
    AD
  8
0
  6
CONTINUOUS
 62
     7
 10
31.67606679541
 20
-54.0887253134946
 30
0.0
 11
32.1970112253616
 21
-57.0431485907016
 31
0.0
  0
LINE
  5
    AE
  8
0
  6
CONTINUOUS
 62
     7
 10
32.1970112253616
 20
-57.0431485907016
 30
0.0
 11
32.7179556553133
 21
-54.0887253134946
 31
0.0
  0
LINE
  5
    AF
  8
0
  6
CONTINUOUS
 62
     7
 10
32.7179556553133
 20
-1.99757100364116
 30
0.0
 11
32.1970112253616
 21
0.956852273565801
 31
0.0
  0
LINE
  5
    B0
  8
0
  6
CONTINUOUS
 62
     7
 10
32.1970112253616
 20
0.956852273565801
 30
0.0
 11
31.67606679541
 21
-1.99757100364116
 31
0.0
  0
ENDBLK
  5
    B1
  8
0
  6
CONTINUOUS
 62
     7
  0
BLOCK
  5
    B2
  8
0
  6
CONTINUOUS
 62
     7
  2
*UDIM1076
 70
    65
 10
0.0
 20
0.0
 30
0.0
  3
*UDIM1076
  0
TEXT
  5
    B3
  8
0
  6
CONTINUOUS
 62
     7
 10
25.261073634645
 20
-13.4181479102078
 30
0.0
 40
2.99999994933605
  1
58
 50
89.9999999480344
 41
0.933333333333333
 72
     1
 11
23.7610736622412
 21
-10.9181479510692
 31
0.0
 73
     2
  0
LINE
  5
    B4
  8
0
  6
CONTINUOUS
 62
     7
 10
24.0098788711101
 20
0.956852273565801
 30
0.0
 11
28.2610736369093
 21
0.956852273565801
 31
0.0
  0
LINE
  5
    B5
  8
0
  6
CONTINUOUS
 62
     7
 10
26.2610736369093
 20
-22.2431465462622
 30
0.0
 11
26.2610736369093
 21
0.956852273565801
 31
0.0
  0
LINE
  5
    B6
  8
0
  6
CONTINUOUS
 62
     7
 10
25.7401292069576
 20
-19.2887232690552
 30
0.0
 11
26.2610736369093
 21
-22.2431465462622
 31
0.0
  0
LINE
  5
    B7
  8
0
  6
CONTINUOUS
 62
     7
 10
26.2610736369093
 20
-22.2431465462622
 30
0.0
 11
26.7820180668609
 21
-19.2887232690552
 31
0.0
  0
LINE
  5
    B8
  8
0
  6
CONTINUOUS
 62
     7
 10
26.7820180668609
 20
-1.99757100364116
 30
0.0
 11
26.2610736369093
 21
0.956852273565801
 31
0.0
  0
LINE
  5
    B9
  8
0
  6
CONTINUOUS
 62
     7
 10
26.2610736369093
 20
0.956852273565801
 30
0.0
 11
25.7401292069576
 21
-1.99757100364116
 31
0.0
  0
ENDBLK
  5
    BA
  8
0
  6
CONTINUOUS
 62
     7
  0
BLOCK
  5
    BB
  8
0
  6
CONTINUOUS
 62
     7
  2
*UDIM1077
 70
    65
 10
0.0
 20
0.0
 30
0.0
  3
*UDIM1077
  0
TEXT
  5
    BC
  8
0
  6
CONTINUOUS
 62
     7
 10
-32.4072681855034
 20
-123.941544371814
 30
0.0
 40
2.99999994933605
  1
195,5
 50
359.999999948034
 41
0.933333333333333
 72
     1
 11
-25.7072682972999
 21
-122.441544403189
 31
0.0
 73
     2
  0
LINE
  5
    BD
  8
0
  6
CONTINUOUS
 62
     7
 10
13.667726281285
 20
-98.6062414349886
 30
0.0
 11
13.667726281285
 21
-126.941544377857
 31
0.0
  0
LINE
  5
    BE
  8
0
  6
CONTINUOUS
 62
     7
 10
-64.5322611510754
 20
-62.4431471303877
 30
0.0
 11
-64.5322611510754
 21
-126.941544377857
 31
0.0
  0
LINE
  5
    BF
  8
0
  6
CONTINUOUS
 62
     7
 10
13.667726281285
 20
-124.941544377857
 30
0.0
 11
-64.5322611510754
 21
-124.941544377857
 31
0.0
  0
LINE
  5
    C0
  8
0
  6
CONTINUOUS
 62
     7
 10
10.713303004078
 20
-125.462488807809
 30
0.0
 11
13.667726281285
 21
-124.941544377857
 31
0.0
  0
LINE
  5
    C1
  8
0
  6
CONTINUOUS
 62
     7
 10
13.667726281285
 20
-124.941544377857
 30
0.0
 11
10.713303004078
 21
-124.420599947905
 31
0.0
  0
LINE
  5
    C2
  8
0
  6
CONTINUOUS
 62
     7
 10
-61.5778378738685
 20
-124.420599947905
 30
0.0
 11
-64.5322611510754
 21
-124.941544377857
 31
0.0
  0
LINE
  5
    C3
  8
0
  6
CONTINUOUS
 62
     7
 10
-64.5322611510754
 20
-124.941544377857
 30
0.0
 11
-61.5778378738685
 21
-125.462488807809
 31
0.0
  0
ENDBLK
  5
    C4
  8
0
  6
CONTINUOUS
 62
     7
  0
BLOCK
  5
    C5
  8
0
  6
CONTINUOUS
 62
     7
  2
*UDIM1078
 70
    65
 10
0.0
 20
0.0
 30
0.0
  3
*UDIM1078
  0
TEXT
  5
    C6
  8
0
  6
CONTINUOUS
 62
     7
 10
-28.5072681687147
 20
-115.103958793431
 30
0.0
 40
2.99999994933605
  1
190
 50
359.999999948034
 41
0.933333333333333
 72
     1
 11
-24.6072682332249
 21
-113.60395882228
 31
0.0
 73
     2
  0
LINE
  5
    C7
  8
0
  6
CONTINUOUS
 62
     7
 10
13.667726281285
 20
-98.6062414349886
 30
0.0
 11
13.667726281285
 21
-118.103958796948
 31
0.0
  0
LINE
  5
    C8
  8
0
  6
CONTINUOUS
 62
     7
 10
-62.3322626441718
 20
-82.5241683325901
 30
0.0
 11
-62.3322626441718
 21
-118.103958796948
 31
0.0
  0
LINE
  5
    C9
  8
0
  6
CONTINUOUS
 62
     7
 10
13.667726281285
 20
-116.103958796948
 30
0.0
 11
-62.3322626441718
 21
-116.103958796948
 31
0.0
  0
LINE
  5
    CA
  8
0
  6
CONTINUOUS
 62
     7
 10
10.713303004078
 20
-116.6249032269
 30
0.0
 11
13.667726281285
 21
-116.103958796948
 31
0.0
  0
LINE
  5
    CB
  8
0
  6
CONTINUOUS
 62
     7
 10
13.667726281285
 20
-116.103958796948
 30
0.0
 11
10.713303004078
 21
-115.583014366996
 31
0.0
  0
LINE
  5
    CC
  8
0
  6
CONTINUOUS
 62
     7
 10
-59.3778393669648
 20
-115.583014366996
 30
0.0
 11
-62.3322626441718
 21
-116.103958796948
 31
0.0
  0
LINE
  5
    CD
  8
0
  6
CONTINUOUS
 62
     7
 10
-62.3322626441718
 20
-116.103958796948
 30
0.0
 11
-59.3778393669648
 21
-116.6249032269
 31
0.0
  0
ENDBLK
  5
    CE
  8
0
  6
CONTINUOUS
 62
     7
  0
BLOCK
  5
    CF
  8
0
  6
CONTINUOUS
 62
     7
  2
*UDIM1079
 70
    65
 10
0.0
 20
0.0
 30
0.0
  3
*UDIM1079
  0
TEXT
  5
    D0
  8
0
  6
CONTINUOUS
 62
     7
 10
-68.8822627081593
 20
-115.103958795956
 30
0.0
 40
2.99999994933605
  1
2
 50
359.999999948034
 41
0.933333333333333
 72
     1
 11
-67.7822627253831
 21
-113.60395882228
 31
0.0
 73
     2
  0
LINE
  5
    D1
  8
0
  6
CONTINUOUS
 62
     7
 10
-63.1322626560927
 20
-82.6907986513218
 30
0.0
 11
-63.1322626560927
 21
-118.103958796948
 31
0.0
  0
LINE
  5
    D2
  8
0
  6
CONTINUOUS
 62
     7
 10
-62.3322626441718
 20
-116.103958796948
 30
0.0
 11
-68.8822627068064
 21
-116.103958796948
 31
0.0
  0
LINE
  5
    D3
  8
0
  6
CONTINUOUS
 62
     7
 10
-59.3778393669648
 20
-115.583014366996
 30
0.0
 11
-62.3322626441718
 21
-116.103958796948
 31
0.0
  0
LINE
  5
    D4
  8
0
  6
CONTINUOUS
 62
     7
 10
-62.3322626441718
 20
-116.103958796948
 30
0.0
 11
-59.3778393669648
 21
-116.6249032269
 31
0.0
  0
LINE
  5
    D5
  8
0
  6
CONTINUOUS
 62
     7
 10
-66.0866859332997
 20
-116.6249032269
 30
0.0
 11
-63.1322626560927
 21
-116.103958796948
 31
0.0
  0
LINE
  5
    D6
  8
0
  6
CONTINUOUS
 62
     7
 10
-63.1322626560927
 20
-116.103958796948
 30
0.0
 11
-66.0866859332997
 21
-115.583014366996
 31
0.0
  0
ENDBLK
  5
    D7
  8
0
  6
CONTINUOUS
 62
     7
  0
BLOCK
  5
    D8
  8
0
  6
CONTINUOUS
 62
     7
  2
*UDIM1080
 70
    65
 10
0.0
 20
0.0
 30
0.0
  3
*UDIM1080
  0
TEXT
  5
    D9
  8
0
  6
CONTINUOUS
 62
     7
 10
-23.907277275684
 20
-106.696521534361
 30
0.0
 40
2.99999994933605
  1
167
 50
359.999999948034
 41
0.933333333333333
 72
     1
 11
-20.0072773401942
 21
-105.19652156321
 31
0.0
 73
     2
  0
LINE
  5
    DA
  8
0
  6
CONTINUOUS
 62
     7
 10
13.667726281285
 20
-98.6062414349886
 30
0.0
 11
13.667726281285
 21
-109.696521537878
 31
0.0
  0
LINE
  5
    DB
  8
0
  6
CONTINUOUS
 62
     7
 10
-53.1322815733661
 20
-33.443165177934
 30
0.0
 11
-53.1322815733661
 21
-109.696521537878
 31
0.0
  0
LINE
  5
    DC
  8
0
  6
CONTINUOUS
 62
     7
 10
13.667726281285
 20
-107.696521537878
 30
0.0
 11
-53.1322815733661
 21
-107.696521537878
 31
0.0
  0
LINE
  5
    DD
  8
0
  6
CONTINUOUS
 62
     7
 10
10.713303004078
 20
-108.21746596783
 30
0.0
 11
13.667726281285
 21
-107.696521537878
 31
0.0
  0
LINE
  5
    DE
  8
0
  6
CONTINUOUS
 62
     7
 10
13.667726281285
 20
-107.696521537878
 30
0.0
 11
10.713303004078
 21
-107.175577107927
 31
0.0
  0
LINE
  5
    DF
  8
0
  6
CONTINUOUS
 62
     7
 10
-50.1778582961592
 20
-107.175577107927
 30
0.0
 11
-53.1322815733661
 21
-107.696521537878
 31
0.0
  0
LINE
  5
    E0
  8
0
  6
CONTINUOUS
 62
     7
 10
-53.1322815733661
 20
-107.696521537878
 30
0.0
 11
-50.1778582961592
 21
-108.21746596783
 31
0.0
  0
ENDBLK
  5
    E1
  8
0
  6
CONTINUOUS
 62
     7
  0
BLOCK
  5
    E2
  8
0
  6
CONTINUOUS
 62
     7
  2
*UDIM1081
 70
    65
 10
0.0
 20
0.0
 30
0.0
  3
*UDIM1081
  0
TEXT
  5
    E3
  8
0
  6
CONTINUOUS
 62
     7
 10
17.867726377485
 20
54.0517688223171
 30
0.0
 40
2.99999994933605
  1
3
 50
359.999999948034
 41
0.933333333333333
 72
     1
 11
18.9677263602612
 21
55.5517687959929
 31
0.0
 73
     2
  0
TEXT
  5
    E4
  8
0
  6
CONTINUOUS
 62
     7
 10
15.1177264027176
 20
54.0517688223171
 30
0.0
 40
2.99999994933605
  1
_
 50
359.999999948034
 41
0.933333333333333
 72
     1
 11
16.2177263854938
 21
55.5517687959929
 31
0.0
 73
     2
  0
LINE
  5
    E5
  8
0
  6
CONTINUOUS
 62
     7
 10
14.8677262991664
 20
45.1892950064332
 30
0.0
 11
14.8677262991664
 21
55.0517688213249
 31
0.0
  0
LINE
  5
    E6
  8
0
  6
CONTINUOUS
 62
     7
 10
13.667726281285
 20
42.7740963088045
 30
0.0
 11
13.667726281285
 21
55.0517688213249
 31
0.0
  0
LINE
  5
    E7
  8
0
  6
CONTINUOUS
 62
     7
 10
20.0677263416844
 20
53.0517688213249
 30
0.0
 11
13.667726281285
 21
53.0517688213249
 31
0.0
  0
LINE
  5
    E8
  8
0
  6
CONTINUOUS
 62
     7
 10
17.8221495763734
 20
53.5727132512766
 30
0.0
 11
14.8677262991664
 21
53.0517688213249
 31
0.0
  0
LINE
  5
    E9
  8
0
  6
CONTINUOUS
 62
     7
 10
14.8677262991664
 20
53.0517688213249
 30
0.0
 11
17.8221495763734
 21
52.5308243913732
 31
0.0
  0
LINE
  5
    EA
  8
0
  6
CONTINUOUS
 62
     7
 10
10.713303004078
 20
52.5308243913732
 30
0.0
 11
13.667726281285
 21
53.0517688213249
 31
0.0
  0
LINE
  5
    EB
  8
0
  6
CONTINUOUS
 62
     7
 10
13.667726281285
 20
53.0517688213249
 30
0.0
 11
10.713303004078
 21
53.5727132512766
 31
0.0
  0
ENDBLK
  5
    EC
  8
0
  6
CONTINUOUS
 62
     7
  0
BLOCK
  5
    ED
  8
0
  6
CONTINUOUS
 62
     7
  2
*UDIM1082
 70
    65
 10
0.0
 20
0.0
 30
0.0
  3
*UDIM1082
  0
TEXT
  5
    EE
  8
0
  6
CONTINUOUS
 62
     7
 10
4.69272617798332
 20
54.0517688235798
 30
0.0
 40
2.99999994933605
  1
31
 50
359.999999948034
 41
0.933333333333333
 72
     1
 11
7.19272613711628
 21
55.5517687959929
 31
0.0
 73
     2
  0
LINE
  5
    EF
  8
0
  6
CONTINUOUS
 62
     7
 10
1.26772609651061
 20
48.9568224563418
 30
0.0
 11
1.26772609651061
 21
55.0517688213249
 31
0.0
  0
LINE
  5
    F0
  8
0
  6
CONTINUOUS
 62
     7
 10
13.667726281285
 20
53.0517688213249
 30
0.0
 11
1.26772609651061
 21
53.0517688213249
 31
0.0
  0
LINE
  5
    F1
  8
0
  6
CONTINUOUS
 62
     7
 10
10.713303004078
 20
52.5308243913732
 30
0.0
 11
13.667726281285
 21
53.0517688213249
 31
0.0
  0
LINE
  5
    F2
  8
0
  6
CONTINUOUS
 62
     7
 10
13.667726281285
 20
53.0517688213249
 30
0.0
 11
10.713303004078
 21
53.5727132512766
 31
0.0
  0
LINE
  5
    F3
  8
0
  6
CONTINUOUS
 62
     7
 10
4.22214937371758
 20
53.5727132512766
 30
0.0
 11
1.26772609651061
 21
53.0517688213249
 31
0.0
  0
LINE
  5
    F4
  8
0
  6
CONTINUOUS
 62
     7
 10
1.26772609651061
 20
53.0517688213249
 30
0.0
 11
4.22214937371758
 21
52.5308243913732
 31
0.0
  0
ENDBLK
  5
    F5
  8
0
  6
CONTINUOUS
 62
     7
  0
BLOCK
  5
    F6
  8
0
  6
CONTINUOUS
 62
     7
  2
*UDIM1083
 70
    65
 10
0.0
 20
0.0
 30
0.0
  3
*UDIM1083
  0
TEXT
  5
    F7
  8
0
  6
CONTINUOUS
 62
     7
 10
-11.2572740120065
 20
54.0517688235798
 30
0.0
 40
2.99999994933605
  1
10
 50
359.999999948034
 41
0.933333333333333
 72
     1
 11
-8.75727405287353
 21
55.5517687959929
 31
0.0
 73
     2
  0
LINE
  5
    F8
  8
0
  6
CONTINUOUS
 62
     7
 10
-2.73227396309403
 20
48.9568224563418
 30
0.0
 11
-2.73227396309403
 21
55.0517688213249
 31
0.0
  0
LINE
  5
    F9
  8
0
  6
CONTINUOUS
 62
     7
 10
1.26772609651061
 20
53.0517688213249
 30
0.0
 11
-11.2572740106536
 21
53.0517688213249
 31
0.0
  0
LINE
  5
    FA
  8
0
  6
CONTINUOUS
 62
     7
 10
4.22214937371758
 20
53.5727132512766
 30
0.0
 11
1.26772609651061
 21
53.0517688213249
 31
0.0
  0
LINE
  5
    FB
  8
0
  6
CONTINUOUS
 62
     7
 10
1.26772609651061
 20
53.0517688213249
 30
0.0
 11
4.22214937371758
 21
52.5308243913732
 31
0.0
  0
LINE
  5
    FC
  8
0
  6
CONTINUOUS
 62
     7
 10
-5.68669724030099
 20
52.5308243913732
 30
0.0
 11
-2.73227396309403
 21
53.0517688213249
 31
0.0
  0
LINE
  5
    FD
  8
0
  6
CONTINUOUS
 62
     7
 10
-2.73227396309403
 20
53.0517688213249
 30
0.0
 11
-5.68669724030099
 21
53.5727132512766
 31
0.0
  0
ENDBLK
  5
    FE
  8
0
  6
CONTINUOUS
 62
     7
  0
BLOCK
  5
    FF
  8
0
  6
CONTINUOUS
 62
     7
  2
*UDIM1084
 70
    65
 10
0.0
 20
0.0
 30
0.0
  3
*UDIM1084
  0
TEXT
  5
   100
  8
0
  6
CONTINUOUS
 62
     7
 10
-23.7312900740083
 20
-41.8727927151774
 30
0.0
 40
2.99999994933605
  1
14,5
 50
89.9999999480344
 41
0.933333333333333
 72
     1
 11
-25.2312900438761
 21
-36.5727928033251
 31
0.0
 73
     2
  0
LINE
  5
   101
  8
0
  6
CONTINUOUS
 62
     7
 10
-47.7322823490772
 20
-28.043165953645
 30
0.0
 11
-20.7312900692081
 21
-28.043165953645
 31
0.0
  0
LINE
  5
   102
  8
0
  6
CONTINUOUS
 62
     7
 10
-22.7312900692081
 20
-41.8727927138188
 30
0.0
 11
-22.7312900692081
 21
-22.2431465462622
 31
0.0
  0
LINE
  5
   103
  8
0
  6
CONTINUOUS
 62
     7
 10
-22.2103456392564
 20
-30.997589230852
 30
0.0
 11
-22.7312900692081
 21
-28.043165953645
 31
0.0
  0
LINE
  5
   104
  8
0
  6
CONTINUOUS
 62
     7
 10
-22.7312900692081
 20
-28.043165953645
 30
0.0
 11
-23.2522344991597
 21
-30.997589230852
 31
0.0
  0
LINE
  5
   105
  8
0
  6
CONTINUOUS
 62
     7
 10
-23.2522344991597
 20
-19.2887232690552
 30
0.0
 11
-22.7312900692081
 21
-22.2431465462622
 31
0.0
  0
LINE
  5
   106
  8
0
  6
CONTINUOUS
 62
     7
 10
-22.7312900692081
 20
-22.2431465462622
 30
0.0
 11
-22.2103456392564
 21
-19.2887232690552
 31
0.0
  0
ENDBLK
  5
   107
  8
0
  6
CONTINUOUS
 62
     7
  0
BLOCK
  5
   108
  8
0
  6
CONTINUOUS
 62
     7
  2
*UDIM1085
 70
    65
 10
0.0
 20
0.0
 30
0.0
  3
*UDIM1085
  0
TEXT
  5
   109
  8
0
  6
CONTINUOUS
 62
     7
 10
-85.6823881028172
 20
-26.4181480594181
 30
0.0
 40
2.99999994933605
  1
140
 50
89.9999999480344
 41
0.933333333333333
 72
     1
 11
-87.1823880739529
 21
-22.5181481239227
 31
0.0
 73
     2
  0
LINE
  5
   10A
  8
0
  6
CONTINUOUS
 62
     7
 10
-63.3322626441718
 20
-50.2431469634947
 30
0.0
 11
-86.6823880992849
 21
-50.2431469634947
 31
0.0
  0
LINE
  5
   10B
  8
0
  6
CONTINUOUS
 62
     7
 10
-63.3322611182929
 20
5.75685234509137
 30
0.0
 11
-86.6823880992849
 21
5.75685234509137
 31
0.0
  0
LINE
  5
   10C
  8
0
  6
CONTINUOUS
 62
     7
 10
-84.6823880992849
 20
-50.2431469634947
 30
0.0
 11
-84.6823880992849
 21
5.75685234509137
 31
0.0
  0
LINE
  5
   10D
  8
0
  6
CONTINUOUS
 62
     7
 10
-85.2033325292366
 20
-47.2887236862878
 30
0.0
 11
-84.6823880992849
 21
-50.2431469634947
 31
0.0
  0
LINE
  5
   10E
  8
0
  6
CONTINUOUS
 62
     7
 10
-84.6823880992849
 20
-50.2431469634947
 30
0.0
 11
-84.1614436693333
 21
-47.2887236862878
 31
0.0
  0
LINE
  5
   10F
  8
0
  6
CONTINUOUS
 62
     7
 10
-84.1614436693333
 20
2.80242906788442
 30
0.0
 11
-84.6823880992849
 21
5.75685234509137
 31
0.0
  0
LINE
  5
   110
  8
0
  6
CONTINUOUS
 62
     7
 10
-84.6823880992849
 20
5.75685234509137
 30
0.0
 11
-85.2033325292366
 21
2.80242906788442
 31
0.0
  0
ENDBLK
  5
   111
  8
0
  6
CONTINUOUS
 62
     7
  0
BLOCK
  5
   112
  8
0
  6
CONTINUOUS
 62
     7
  2
MOSTRA
 70
    64
 10
0.0
 20
0.0
 30
0.0
  3
MOSTRA
  0
LINE
  5
   113
  8
0
  6
CONTINUOUS
 62
     3
 10
131.0
 20
-24.0000152587891
 30
0.0
 11
131.0
 21
169.499984741211
 31
0.0
  0
LINE
  5
   114
  8
0
  6
CONTINUOUS
 62
     3
 10
-94.7500023146612
 20
-25.250020980835
 30
0.0
 11
129.75
 21
-25.250020980835
 31
0.0
  0
LINE
  5
   115
  8
0
  6
CONTINUOUS
 62
     3
 10
-96.0
 20
-24.000020980835
 30
0.0
 11
-96.0
 21
169.499979019165
 31
0.0
  0
LINE
  5
   116
  8
0
  6
CONTINUOUS
 62
     3
 10
-87.0
 20
170.749984741211
 30
0.0
 11
129.75
 21
170.749984741211
 31
0.0
  0
LINE
  5
   117
  8
0
  6
CONTINUOUS
 62
     3
 10
-94.7500138961029
 20
170.749984741211
 30
0.0
 11
-87.0
 21
170.749984741211
 31
0.0
  0
LINE
  5
   118
  8
0
  6
CONTINUOUS
 62
     3
 10
78.0
 20
-5.25002145767212
 30
0.0
 11
78.0
 21
-4.2500216960907
 31
0.0
  0
LINE
  5
   119
  8
0
  6
CONTINUOUS
 62
     3
 10
-87.0
 20
-5.25002145767211
 30
0.0
 11
-87.0
 21
-4.25002169609069
 31
0.0
  0
LINE
  5
   11A
  8
0
  6
CONTINUOUS
 62
     3
 10
-86.0
 20
-5.25002145767211
 30
0.0
 11
77.0
 21
-5.25002145767212
 31
0.0
  0
LINE
  5
   11B
  8
0
  6
CONTINUOUS
 62
     3
 10
78.0
 20
149.749984741211
 30
0.0
 11
78.0
 21
150.749984741211
 31
0.0
  0
LINE
  5
   11C
  8
0
  6
CONTINUOUS
 62
     3
 10
-87.0
 20
149.749984741211
 30
0.0
 11
-87.0
 21
150.749984741211
 31
0.0
  0
LINE
  5
   11D
  8
0
  6
CONTINUOUS
 62
     3
 10
-86.0
 20
-25.250020980835
 30
0.0
 11
-86.0
 21
-5.25002098083496
 31
0.0
  0
LINE
  5
   11E
  8
0
  6
CONTINUOUS
 62
     3
 10
-87.0
 20
-25.250020980835
 30
0.0
 11
-87.0
 21
-5.25002098083496
 31
0.0
  0
LINE
  5
   11F
  8
0
  6
CONTINUOUS
 62
     3
 10
-87.0
 20
-4.25002169609069
 30
0.0
 11
-87.0
 21
149.749978303909
 31
0.0
  0
LINE
  5
   120
  8
0
  6
CONTINUOUS
 62
     3
 10
-87.0
 20
150.749984741211
 30
0.0
 11
-87.0
 21
170.749984741211
 31
0.0
  0
LINE
  5
   121
  8
0
  6
CONTINUOUS
 62
     3
 10
78.0
 20
-25.250020980835
 30
0.0
 11
78.0
 21
-5.25002098083497
 31
0.0
  0
LINE
  5
   122
  8
0
  6
CONTINUOUS
 62
     3
 10
78.0
 20
-4.2500216960907
 30
0.0
 11
78.0
 21
22.6249783039093
 31
0.0
  0
LINE
  5
   123
  8
0
  6
CONTINUOUS
 62
     3
 10
78.0
 20
23.624979019165
 30
0.0
 11
78.0
 21
64.624979019165
 31
0.0
  0
LINE
  5
   124
  8
0
  6
CONTINUOUS
 62
     3
 10
78.0
 20
65.6249771118164
 30
0.0
 11
78.0
 21
149.749984741211
 31
0.0
  0
LINE
  5
   125
  8
0
  6
CONTINUOUS
 62
     3
 10
78.0
 20
150.749984741211
 30
0.0
 11
78.0
 21
170.749984741211
 31
0.0
  0
LINE
  5
   126
  8
0
  6
CONTINUOUS
 62
     3
 10
77.0
 20
-25.250020980835
 30
0.0
 11
77.0
 21
-5.25002098083497
 31
0.0
  0
LINE
  5
   127
  8
0
  6
CONTINUOUS
 62
     3
 10
112.0
 20
23.624979019165
 30
0.0
 11
112.0
 21
64.624979019165
 31
0.0
  0
LINE
  5
   128
  8
0
  6
CONTINUOUS
 62
     3
 10
-86.0
 20
150.749984741211
 30
0.0
 11
77.0
 21
150.749984741211
 31
0.0
  0
LINE
  5
   129
  8
0
  6
DOT
 62
     3
 10
78.0
 20
22.6249809265137
 30
0.0
 11
78.0
 21
23.6249809265137
 31
0.0
  0
LINE
  5
   12A
  8
0
  6
DOT
 62
     3
 10
78.0
 20
64.6249847412109
 30
0.0
 11
78.0
 21
65.6249847412109
 31
0.0
  0
LINE
  5
   12B
  8
0
  6
CONTINUOUS
 62
     3
 10
-95.2283575359481
 20
170.654833276614
 30
0.0
 11
-94.7500021275396
 21
170.749987082197
 31
0.0
  0
LINE
  5
   12C
  8
0
  6
CONTINUOUS
 62
     3
 10
-95.6338828572815
 20
170.383870758251
 30
0.0
 11
-95.2283576589463
 21
170.654836342308
 31
0.0
  0
LINE
  5
   12D
  8
0
  6
CONTINUOUS
 62
     3
 10
-95.9048442813714
 20
169.978321294716
 30
0.0
 11
-95.6338787006842
 21
170.38385412157
 31
0.0
  0
LINE
  5
   12E
  8
0
  6
CONTINUOUS
 62
     3
 10
-96.0000009070014
 20
169.49998927381
 30
0.0
 11
-95.9048471000262
 21
169.978337054874
 31
0.0
  0
LINE
  5
   12F
  8
0
  6
CONTINUOUS
 62
     3
 10
129.750003154688
 20
170.749986935154
 30
0.0
 11
130.228350935752
 21
170.654833128179
 31
0.0
  0
LINE
  5
   130
  8
0
  6
CONTINUOUS
 62
     3
 10
130.228341409222
 20
170.654823450862
 30
0.0
 11
130.633874236076
 21
170.383857870175
 31
0.0
  0
LINE
  5
   131
  8
0
  6
CONTINUOUS
 62
     3
 10
130.633876465973
 20
170.383854910394
 30
0.0
 11
130.90484204666
 21
169.97832208354
 31
0.0
  0
LINE
  5
   132
  8
0
  6
CONTINUOUS
 62
     3
 10
130.90484765696
 20
169.978336952213
 30
0.0
 11
131.000001463935
 21
169.499989171149
 31
0.0
  0
LINE
  5
   133
  8
0
  6
CONTINUOUS
 62
     3
 10
129.750001912704
 20
-25.2500209810903
 30
0.0
 11
130.228349689786
 21
-25.1548709896053
 31
0.0
  0
LINE
  5
   134
  8
0
  6
CONTINUOUS
 62
     3
 10
130.228338306514
 20
-25.1548722950462
 30
0.0
 11
130.633871133368
 21
-24.8839067143591
 31
0.0
  0
LINE
  5
   135
  8
0
  6
CONTINUOUS
 62
     3
 10
130.633879356188
 20
-24.8839055654524
 30
0.0
 11
130.904844938572
 21
-24.4783765528653
 31
0.0
  0
LINE
  5
   136
  8
0
  6
CONTINUOUS
 62
     3
 10
130.904848088874
 20
-24.4783766972257
 30
0.0
 11
131.000001894457
 21
-24.0000212888173
 31
0.0
  0
LINE
  5
   137
  8
0
  6
CONTINUOUS
 62
     3
 10
-95.2283572980338
 20
-25.1548710672825
 30
0.0
 11
-94.750001893597
 21
-25.2500210645891
 31
0.0
  0
LINE
  5
   138
  8
0
  6
CONTINUOUS
 62
     3
 10
-95.6338848795916
 20
-24.8839050834456
 30
0.0
 11
-95.2283596812563
 21
-25.1548706675021
 31
0.0
  0
LINE
  5
   139
  8
0
  6
CONTINUOUS
 62
     3
 10
-95.9048453281177
 20
-24.4783764153605
 30
0.0
 11
-95.6338797457343
 21
-24.8839054279476
 31
0.0
  0
LINE
  5
   13A
  8
0
  6
CONTINUOUS
 62
     3
 10
-96.0000013278323
 20
-24.0000213932639
 30
0.0
 11
-95.9048475222492
 21
-24.4783768016722
 31
0.0
  0
LINE
  5
   13B
  8
0
  6
CONTINUOUS
 62
     3
 10
71.0
 20
161.499984741211
 30
0.0
 11
71.5
 21
161.499984741211
 31
0.0
  0
LINE
  5
   13C
  8
0
  6
CONTINUOUS
 62
     3
 10
70.6249985834239
 20
161.39948892087
 30
0.0
 11
70.9999985887286
 21
161.499983299907
 31
0.0
  0
LINE
  5
   13D
  8
0
  6
CONTINUOUS
 62
     3
 10
70.3504841000321
 20
161.124991898345
 30
0.0
 11
70.6250049664647
 21
161.399497515692
 31
0.0
  0
LINE
  5
   13E
  8
0
  6
CONTINUOUS
 62
     3
 10
70.2500005005121
 20
160.74998610992
 30
0.0
 11
70.3504796223163
 21
161.124986104743
 31
0.0
  0
LINE
  5
   13F
  8
0
  6
CONTINUOUS
 62
     3
 10
70.2500001717027
 20
160.749985945318
 30
0.0
 11
70.3504792935069
 21
160.374985950495
 31
0.0
  0
LINE
  5
   140
  8
0
  6
CONTINUOUS
 62
     3
 10
70.3504785443499
 20
160.374981262897
 30
0.0
 11
70.6249994243228
 21
160.100460382924
 31
0.0
  0
LINE
  5
   141
  8
0
  6
CONTINUOUS
 62
     3
 10
70.6250004494111
 20
160.100464493128
 30
0.0
 11
71.000000444234
 21
159.999985371324
 31
0.0
  0
LINE
  5
   142
  8
0
  6
CONTINUOUS
 62
     3
 10
71.0
 20
159.999984741211
 30
0.0
 11
71.5
 21
159.999984741211
 31
0.0
  0
LINE
  5
   143
  8
0
  6
CONTINUOUS
 62
     3
 10
-71.0000005237262
 20
159.999985364975
 30
0.0
 11
-70.6250005289034
 21
160.100464486779
 31
0.0
  0
LINE
  5
   144
  8
0
  6
CONTINUOUS
 62
     3
 10
-70.6249991572831
 20
160.100460461707
 30
0.0
 11
-70.3504782773103
 21
160.37498134168
 31
0.0
  0
LINE
  5
   145
  8
0
  6
CONTINUOUS
 62
     3
 10
-70.3504793419514
 20
160.374985939145
 30
0.0
 11
-70.2500002201472
 21
160.749985933968
 31
0.0
  0
LINE
  5
   146
  8
0
  6
CONTINUOUS
 62
     3
 10
-70.3504796707608
 20
161.124986116093
 30
0.0
 11
-70.2500005489566
 21
160.74998612127
 31
0.0
  0
LINE
  5
   147
  8
0
  6
CONTINUOUS
 62
     3
 10
-70.625005364328
 20
161.399497643651
 30
0.0
 11
-70.3504844978953
 21
161.124992026304
 31
0.0
  0
LINE
  5
   148
  8
0
  6
CONTINUOUS
 62
     3
 10
-70.9999984404592
 20
161.499983275092
 30
0.0
 11
-70.6249984351544
 21
161.399488896056
 31
0.0
  0
LINE
  5
   149
  8
0
  6
CONTINUOUS
 62
     3
 10
-71.5
 20
161.499984741211
 30
0.0
 11
-71.0
 21
161.499984741211
 31
0.0
  0
LINE
  5
   14A
  8
0
  6
CONTINUOUS
 62
     3
 10
-71.5
 20
159.999984741211
 30
0.0
 11
-71.0
 21
159.999984741211
 31
0.0
  0
LINE
  5
   14B
  8
0
  6
DOT
 62
     3
 10
129.207102522664
 20
93.2070806462287
 30
0.0
 11
129.423868885951
 21
92.8826559114065
 31
0.0
  0
LINE
  5
   14C
  8
0
  6
CONTINUOUS
 62
     3
 10
78.0
 20
64.6249771118164
 30
0.0
 11
112.0
 21
64.6249771118164
 31
0.0
  0
LINE
  5
   14D
  8
0
  6
CONTINUOUS
 62
     3
 10
78.0
 20
23.624979019165
 30
0.0
 11
112.0
 21
23.624979019165
 31
0.0
  0
LINE
  5
   14E
  8
0
  6
CONTINUOUS
 62
     3
 10
78.0
 20
22.624979019165
 30
0.0
 11
131.0
 21
22.624979019165
 31
0.0
  0
LINE
  5
   14F
  8
0
  6
CONTINUOUS
 62
     3
 10
113.0
 20
22.6249771118164
 30
0.0
 11
113.0
 21
65.6249771118164
 31
0.0
  0
LINE
  5
   150
  8
0
  6
CONTINUOUS
 62
     3
 10
121.443762073863
 20
22.6249762341869
 30
0.0
 11
121.469671496571
 21
22.655306892856
 31
0.0
  0
LINE
  5
   151
  8
0
  6
CONTINUOUS
 62
     3
 10
122.530331822982
 20
22.6553070669901
 30
0.0
 11
122.556233618116
 21
22.6249802236221
 31
0.0
  0
LINE
  5
   152
  8
0
  6
CONTINUOUS
 62
     3
 10
77.0
 20
-4.2500216960907
 30
0.0
 11
77.0
 21
149.749978303909
 31
0.0
  0
LINE
  5
   153
  8
0
  6
CONTINUOUS
 62
     3
 10
-86.0
 20
149.749984741211
 30
0.0
 11
77.0
 21
149.749984741211
 31
0.0
  0
LINE
  5
   154
  8
0
  6
CONTINUOUS
 62
     3
 10
-86.0
 20
-4.25002169609069
 30
0.0
 11
77.0
 21
-4.2500216960907
 31
0.0
  0
LINE
  5
   155
  8
0
  6
CONTINUOUS
 62
     3
 10
-86.0
 20
-4.25002169609069
 30
0.0
 11
-86.0
 21
149.749978303909
 31
0.0
  0
LINE
  5
   156
  8
0
  6
CONTINUOUS
 62
     3
 10
70.0000086006236
 20
142.749981641769
 30
0.0
 11
77.0000047406314
 21
149.749991353068
 31
0.0
  0
LINE
  5
   157
  8
0
  6
CONTINUOUS
 62
     3
 10
70.0000002534282
 20
2.74998164176941
 30
0.0
 11
77.0000028943928
 21
-4.25002276936366
 31
0.0
  0
LINE
  5
   158
  8
0
  6
CONTINUOUS
 62
     3
 10
-86.0000010794079
 20
149.749986269664
 30
0.0
 11
-70.0
 21
142.220568727026
 31
0.0
  0
LINE
  5
   159
  8
0
  6
CONTINUOUS
 62
     3
 10
-86.0000042824209
 20
-4.25002269924179
 30
0.0
 11
-70.0
 21
3.27939166971828
 31
0.0
  0
LINE
  5
   15A
  8
0
  6
CONTINUOUS
 62
     3
 10
71.5
 20
150.749984741211
 30
0.0
 11
71.5
 21
170.749984741211
 31
0.0
  0
LINE
  5
   15B
  8
0
  6
CONTINUOUS
 62
     3
 10
77.0
 20
150.749984741211
 30
0.0
 11
77.0
 21
170.749984741211
 31
0.0
  0
LINE
  5
   15C
  8
0
  6
CONTINUOUS
 62
     3
 10
-71.5
 20
150.749984741211
 30
0.0
 11
-71.5
 21
170.749984741211
 31
0.0
  0
LINE
  5
   15D
  8
0
  6
CONTINUOUS
 62
     3
 10
-86.0
 20
150.749984741211
 30
0.0
 11
-86.0
 21
170.749984741211
 31
0.0
  0
LINE
  5
   15E
  8
0
  6
CONTINUOUS
 62
     3
 10
78.0
 20
65.6249771118164
 30
0.0
 11
131.0
 21
65.6249771118164
 31
0.0
  0
POINT
  5
   15F
  8
0
  6
CONTINUOUS
 62
     3
 10
4.30031180087553E-6
 20
72.749980198372
 30
0.0
  0
ENDBLK
  5
   160
  8
0
  6
CONTINUOUS
 62
     7
  0
BLOCK
  5
   161
  8
0
  6
CONTINUOUS
 62
     7
  2
*UDIM1086
 70
    65
 10
0.0
 20
0.0
 30
0.0
  3
*UDIM1086
  0
TEXT
  5
   162
  8
0
  6
CONTINUOUS
 62
     7
 10
116.761363318194
 20
-124.716031694085
 30
0.0
 40
2.99999994933605
  1
96
 41
0.933333333333333
 72
     1
 11
119.261363275974
 21
-123.216031719417
 31
0.0
 73
     2
  0
LINE
  5
   163
  8
0
  6
CONTINUOUS
 62
     7
 10
100.336361299442
 20
-61.9431491204988
 30
0.0
 11
100.336361299442
 21
-127.716031694085
 31
0.0
  0
LINE
  5
   164
  8
0
  6
CONTINUOUS
 62
     7
 10
138.736363591772
 20
-84.5280493845559
 30
0.0
 11
138.736363591772
 21
-127.716031694085
 31
0.0
  0
LINE
  5
   165
  8
0
  6
CONTINUOUS
 62
     7
 10
100.336361299442
 20
-125.716031694085
 30
0.0
 11
138.736363591772
 21
-125.716031694085
 31
0.0
  0
LINE
  5
   166
  8
0
  6
CONTINUOUS
 62
     7
 10
103.290784576649
 20
-125.195087264134
 30
0.0
 11
100.336361299442
 21
-125.716031694085
 31
0.0
  0
LINE
  5
   167
  8
0
  6
CONTINUOUS
 62
     7
 10
100.336361299442
 20
-125.716031694085
 30
0.0
 11
103.290784576649
 21
-126.236976124037
 31
0.0
  0
LINE
  5
   168
  8
0
  6
CONTINUOUS
 62
     7
 10
135.781940314565
 20
-126.236976124037
 30
0.0
 11
138.736363591772
 21
-125.716031694085
 31
0.0
  0
LINE
  5
   169
  8
0
  6
CONTINUOUS
 62
     7
 10
138.736363591772
 20
-125.716031694085
 30
0.0
 11
135.781940314565
 21
-125.195087264134
 31
0.0
  0
ENDBLK
  5
   16A
  8
0
  6
CONTINUOUS
 62
     7
  0
BLOCK
  5
   16B
  8
0
  6
CONTINUOUS
 62
     7
  2
*UDIM1087
 70
    65
 10
0.0
 20
0.0
 30
0.0
  3
*UDIM1087
  0
TEXT
  5
   16C
  8
0
  6
CONTINUOUS
 62
     7
 10
160.761362468629
 20
-124.716031694085
 30
0.0
 40
2.99999994933605
  1
131
 41
0.933333333333333
 72
     1
 11
164.661362402766
 21
-123.216031719417
 31
0.0
 73
     2
  0
LINE
  5
   16D
  8
0
  6
CONTINUOUS
 62
     7
 10
191.136362652468
 20
-61.9431468316805
 30
0.0
 11
191.136362652468
 21
-127.716031694085
 31
0.0
  0
LINE
  5
   16E
  8
0
  6
CONTINUOUS
 62
     7
 10
138.736363591772
 20
-125.716031694085
 30
0.0
 11
191.136362652468
 21
-125.716031694085
 31
0.0
  0
LINE
  5
   16F
  8
0
  6
CONTINUOUS
 62
     7
 10
141.690786868979
 20
-125.195087264134
 30
0.0
 11
138.736363591772
 21
-125.716031694085
 31
0.0
  0
LINE
  5
   170
  8
0
  6
CONTINUOUS
 62
     7
 10
138.736363591772
 20
-125.716031694085
 30
0.0
 11
141.690786868979
 21
-126.236976124037
 31
0.0
  0
LINE
  5
   171
  8
0
  6
CONTINUOUS
 62
     7
 10
188.181939375261
 20
-126.236976124037
 30
0.0
 11
191.136362652468
 21
-125.716031694085
 31
0.0
  0
LINE
  5
   172
  8
0
  6
CONTINUOUS
 62
     7
 10
191.136362652468
 20
-125.716031694085
 30
0.0
 11
188.181939375261
 21
-125.195087264134
 31
0.0
  0
ENDBLK
  5
   173
  8
0
  6
CONTINUOUS
 62
     7
  0
BLOCK
  5
   174
  8
0
  6
CONTINUOUS
 62
     7
  2
*UDIM1088
 70
    65
 10
0.0
 20
0.0
 30
0.0
  3
*UDIM1088
  0
TEXT
  5
   175
  8
0
  6
CONTINUOUS
 62
     7
 10
85.2846767140017
 20
-26.4181480767451
 30
0.0
 40
2.99999994933605
  1
196
 50
90.0
 41
0.933333333333333
 72
     1
 11
83.7846767393287
 21
-22.5181481426101
 31
0.0
 73
     2
  0
LINE
  5
   176
  8
0
  6
CONTINUOUS
 62
     7
 10
99.8363603810283
 20
-61.4431491279494
 30
0.0
 11
84.2846767139968
 21
-61.4431491279494
 31
0.0
  0
LINE
  5
   177
  8
0
  6
CONTINUOUS
 62
     7
 10
102.936361353086
 20
16.95685432912
 30
0.0
 11
84.2846767139968
 21
16.95685432912
 31
0.0
  0
LINE
  5
   178
  8
0
  6
CONTINUOUS
 62
     7
 10
86.2846767139968
 20
-61.4431491279494
 30
0.0
 11
86.2846767139968
 21
16.95685432912
 31
0.0
  0
LINE
  5
   179
  8
0
  6
CONTINUOUS
 62
     7
 10
85.7637322840451
 20
-58.4887258507425
 30
0.0
 11
86.2846767139968
 21
-61.4431491279494
 31
0.0
  0
LINE
  5
   17A
  8
0
  6
CONTINUOUS
 62
     7
 10
86.2846767139968
 20
-61.4431491279494
 30
0.0
 11
86.8056211439484
 21
-58.4887258507425
 31
0.0
  0
LINE
  5
   17B
  8
0
  6
CONTINUOUS
 62
     7
 10
86.8056211439484
 20
14.002431051913
 30
0.0
 11
86.2846767139968
 21
16.95685432912
 31
0.0
  0
LINE
  5
   17C
  8
0
  6
CONTINUOUS
 62
     7
 10
86.2846767139968
 20
16.95685432912
 30
0.0
 11
85.7637322840451
 21
14.002431051913
 31
0.0
  0
ENDBLK
  5
   17D
  8
0
  6
CONTINUOUS
 62
     7
  0
BLOCK
  5
   17E
  8
0
  6
CONTINUOUS
 62
     7
  2
*UDIM1089
 70
    65
 10
0.0
 20
0.0
 30
0.0
  3
*UDIM1089
  0
TEXT
  5
   17F
  8
0
  6
CONTINUOUS
 62
     7
 10
50.0411031907829
 20
-103.609051950413
 30
0.0
 40
2.99999994933605
  1
20
 50
90.0
 41
0.933333333333333
 72
     1
 11
48.5411032161117
 21
-101.109051992635
 31
0.0
 73
     2
  0
LINE
  5
   180
  8
0
  6
CONTINUOUS
 62
     7
 10
101.73636305533
 20
-105.043118788379
 30
0.0
 11
49.0411031907797
 21
-105.043118788379
 31
0.0
  0
LINE
  5
   181
  8
0
  6
CONTINUOUS
 62
     7
 10
106.536400309655
 20
-97.0431590325893
 30
0.0
 11
49.0411031907797
 21
-97.0431590325893
 31
0.0
  0
LINE
  5
   182
  8
0
  6
CONTINUOUS
 62
     7
 10
51.0411031907797
 20
-105.043118788379
 30
0.0
 11
51.0411031907797
 21
-97.0431590325893
 31
0.0
  0
LINE
  5
   183
  8
0
  6
CONTINUOUS
 62
     7
 10
51.5620476207314
 20
-107.997542065586
 30
0.0
 11
51.0411031907797
 21
-105.043118788379
 31
0.0
  0
LINE
  5
   184
  8
0
  6
CONTINUOUS
 62
     7
 10
51.0411031907797
 20
-105.043118788379
 30
0.0
 11
50.5201587608281
 21
-107.997542065586
 31
0.0
  0
LINE
  5
   185
  8
0
  6
CONTINUOUS
 62
     7
 10
50.5201587608281
 20
-94.0887357553823
 30
0.0
 11
51.0411031907797
 21
-97.0431590325893
 31
0.0
  0
LINE
  5
   186
  8
0
  6
CONTINUOUS
 62
     7
 10
51.0411031907797
 20
-97.0431590325893
 30
0.0
 11
51.5620476207314
 21
-94.0887357553823
 31
0.0
  0
ENDBLK
  5
   187
  8
0
  6
CONTINUOUS
 62
     7
  0
BLOCK
  5
   188
  8
0
  6
CONTINUOUS
 62
     7
  2
*UDIM1090
 70
    65
 10
0.0
 20
0.0
 30
0.0
  3
*UDIM1090
  0
TEXT
  5
   189
  8
0
  6
CONTINUOUS
 62
     7
 10
50.0410970872672
 20
42.7302354953419
 30
0.0
 40
2.99999994933605
  1
20
 50
90.0
 41
0.933333333333333
 72
     1
 11
48.541097112596
 21
45.2302354531201
 31
0.0
 73
     2
  0
LINE
  5
   18A
  8
0
  6
CONTINUOUS
 62
     7
 10
106.536400309655
 20
40.9568627154535
 30
0.0
 11
49.041097087264
 21
40.9568627154535
 31
0.0
  0
LINE
  5
   18B
  8
0
  6
CONTINUOUS
 62
     7
 10
101.73636305533
 20
48.9568628346628
 30
0.0
 11
49.041097087264
 21
48.9568628346628
 31
0.0
  0
LINE
  5
   18C
  8
0
  6
CONTINUOUS
 62
     7
 10
51.041097087264
 20
40.9568627154535
 30
0.0
 11
51.041097087264
 21
48.9568628346628
 31
0.0
  0
LINE
  5
   18D
  8
0
  6
CONTINUOUS
 62
     7
 10
51.5620415172157
 20
38.0024394382465
 30
0.0
 11
51.041097087264
 21
40.9568627154535
 31
0.0
  0
LINE
  5
   18E
  8
0
  6
CONTINUOUS
 62
     7
 10
51.041097087264
 20
40.9568627154535
 30
0.0
 11
50.5201526573124
 21
38.0024394382465
 31
0.0
  0
LINE
  5
   18F
  8
0
  6
CONTINUOUS
 62
     7
 10
50.5201526573124
 20
51.9112861118698
 30
0.0
 11
51.041097087264
 21
48.9568628346628
 31
0.0
  0
LINE
  5
   190
  8
0
  6
CONTINUOUS
 62
     7
 10
51.041097087264
 20
48.9568628346628
 30
0.0
 11
51.5620415172157
 21
51.9112861118698
 31
0.0
  0
ENDBLK
  5
   191
  8
0
  6
CONTINUOUS
 62
     7
  0
BLOCK
  5
   192
  8
0
  6
CONTINUOUS
 62
     7
  2
*UDIM1091
 70
    65
 10
0.0
 20
0.0
 30
0.0
  3
*UDIM1091
  0
TEXT
  5
   193
  8
0
  6
CONTINUOUS
 62
     7
 10
67.1424523225677
 20
0.181852338313235
 30
0.0
 40
2.99999994933605
  1
133
 50
90.0
 41
0.933333333333333
 72
     1
 11
65.6424523478948
 21
4.08185227244822
 31
0.0
 73
     2
  0
LINE
  5
   194
  8
0
  6
CONTINUOUS
 62
     7
 10
81.9249520756214
 20
-22.2431480721411
 30
0.0
 11
66.1424523225628
 21
-22.2431480721411
 31
0.0
  0
LINE
  5
   195
  8
0
  6
CONTINUOUS
 62
     7
 10
97.1363629867844
 20
30.9568527206006
 30
0.0
 11
66.1424523225628
 21
30.9568527206006
 31
0.0
  0
LINE
  5
   196
  8
0
  6
CONTINUOUS
 62
     7
 10
68.1424523225628
 20
-22.2431480721411
 30
0.0
 11
68.1424523225628
 21
30.9568527206006
 31
0.0
  0
LINE
  5
   197
  8
0
  6
CONTINUOUS
 62
     7
 10
67.6215078926111
 20
-19.2887247949342
 30
0.0
 11
68.1424523225628
 21
-22.2431480721411
 31
0.0
  0
LINE
  5
   198
  8
0
  6
CONTINUOUS
 62
     7
 10
68.1424523225628
 20
-22.2431480721411
 30
0.0
 11
68.6633967525145
 21
-19.2887247949342
 31
0.0
  0
LINE
  5
   199
  8
0
  6
CONTINUOUS
 62
     7
 10
68.6633967525145
 20
28.0024294433937
 30
0.0
 11
68.1424523225628
 21
30.9568527206006
 31
0.0
  0
LINE
  5
   19A
  8
0
  6
CONTINUOUS
 62
     7
 10
68.1424523225628
 20
30.9568527206006
 30
0.0
 11
67.6215078926111
 21
28.0024294433937
 31
0.0
  0
ENDBLK
  5
   19B
  8
0
  6
CONTINUOUS
 62
     7
  0
BLOCK
  5
   19C
  8
0
  6
CONTINUOUS
 62
     7
  2
*UDIM1092
 70
    65
 10
0.0
 20
0.0
 30
0.0
  3
*UDIM1092
  0
TEXT
  5
   19D
  8
0
  6
CONTINUOUS
 62
     7
 10
60.9975120454541
 20
-32.2181450927265
 30
0.0
 40
2.99999994933605
  1
295
 50
90.0
 41
0.933333333333333
 72
     1
 11
59.4975120707812
 21
-28.3181451585916
 31
0.0
 73
     2
  0
LINE
  5
   19E
  8
0
  6
CONTINUOUS
 62
     7
 10
97.1363629867844
 20
-87.0431459859785
 30
0.0
 11
59.9975120454492
 21
-87.0431459859785
 31
0.0
  0
LINE
  5
   19F
  8
0
  6
CONTINUOUS
 62
     7
 10
97.1363629867844
 20
30.9568527206006
 30
0.0
 11
59.9975120454492
 21
30.9568527206006
 31
0.0
  0
LINE
  5
   1A0
  8
0
  6
CONTINUOUS
 62
     7
 10
61.9975120454492
 20
-87.0431459859785
 30
0.0
 11
61.9975120454492
 21
30.9568527206006
 31
0.0
  0
LINE
  5
   1A1
  8
0
  6
CONTINUOUS
 62
     7
 10
61.4765676154975
 20
-84.0887227087716
 30
0.0
 11
61.9975120454492
 21
-87.0431459859785
 31
0.0
  0
LINE
  5
   1A2
  8
0
  6
CONTINUOUS
 62
     7
 10
61.9975120454492
 20
-87.0431459859785
 30
0.0
 11
62.5184564754008
 21
-84.0887227087716
 31
0.0
  0
LINE
  5
   1A3
  8
0
  6
CONTINUOUS
 62
     7
 10
62.5184564754008
 20
28.0024294433937
 30
0.0
 11
61.9975120454492
 21
30.9568527206006
 31
0.0
  0
LINE
  5
   1A4
  8
0
  6
CONTINUOUS
 62
     7
 10
61.9975120454492
 20
30.9568527206006
 30
0.0
 11
61.4765676154975
 21
28.0024294433937
 31
0.0
  0
ENDBLK
  5
   1A5
  8
0
  6
CONTINUOUS
 62
     7
  0
BLOCK
  5
   1A6
  8
0
  6
CONTINUOUS
 62
     7
  2
*UDIM1093
 70
    65
 10
0.0
 20
0.0
 30
0.0
  3
*UDIM1093
  0
TEXT
  5
   1A7
  8
0
  6
CONTINUOUS
 62
     7
 10
49.0420309102723
 20
-32.2181450927265
 30
0.0
 40
2.99999994933605
  1
345
 50
90.0
 41
0.933333333333333
 72
     1
 11
47.5420309355994
 21
-28.3181451585916
 31
0.0
 73
     2
  0
LINE
  5
   1A8
  8
0
  6
CONTINUOUS
 62
     7
 10
106.536400309655
 20
-97.0431590325893
 30
0.0
 11
48.0420309102674
 21
-97.0431590325893
 31
0.0
  0
LINE
  5
   1A9
  8
0
  6
CONTINUOUS
 62
     7
 10
106.536400309655
 20
40.9568627154535
 30
0.0
 11
48.0420309102674
 21
40.9568627154535
 31
0.0
  0
LINE
  5
   1AA
  8
0
  6
CONTINUOUS
 62
     7
 10
50.0420309102674
 20
-97.0431590325893
 30
0.0
 11
50.0420309102674
 21
40.9568627154535
 31
0.0
  0
LINE
  5
   1AB
  8
0
  6
CONTINUOUS
 62
     7
 10
49.5210864803157
 20
-94.0887357553823
 30
0.0
 11
50.0420309102674
 21
-97.0431590325893
 31
0.0
  0
LINE
  5
   1AC
  8
0
  6
CONTINUOUS
 62
     7
 10
50.0420309102674
 20
-97.0431590325893
 30
0.0
 11
50.562975340219
 21
-94.0887357553823
 31
0.0
  0
LINE
  5
   1AD
  8
0
  6
CONTINUOUS
 62
     7
 10
50.562975340219
 20
38.0024394382465
 30
0.0
 11
50.0420309102674
 21
40.9568627154535
 31
0.0
  0
LINE
  5
   1AE
  8
0
  6
CONTINUOUS
 62
     7
 10
50.0420309102674
 20
40.9568627154535
 30
0.0
 11
49.5210864803157
 21
38.0024394382465
 31
0.0
  0
ENDBLK
  5
   1AF
  8
0
  6
CONTINUOUS
 62
     7
  0
BLOCK
  5
   1B0
  8
0
  6
CONTINUOUS
 62
     7
  2
*UDIM1094
 70
    65
 10
0.0
 20
0.0
 30
0.0
  3
*UDIM1094
  0
TEXT
  5
   1B1
  8
0
  6
CONTINUOUS
 62
     7
 10
55.1869772909016
 20
5.18185850399072
 30
0.0
 40
2.99999994933605
  1
158
 50
90.0
 41
0.933333333333333
 72
     1
 11
53.6869773162287
 21
9.08185843812571
 31
0.0
 73
     2
  0
LINE
  5
   1B2
  8
0
  6
CONTINUOUS
 62
     7
 10
81.9249520756214
 20
-22.2431480721411
 30
0.0
 11
54.1869772908967
 21
-22.2431480721411
 31
0.0
  0
LINE
  5
   1B3
  8
0
  6
CONTINUOUS
 62
     7
 10
106.536400309655
 20
40.9568627154535
 30
0.0
 11
54.1869772908967
 21
40.9568627154535
 31
0.0
  0
LINE
  5
   1B4
  8
0
  6
CONTINUOUS
 62
     7
 10
56.1869772908967
 20
-22.2431480721411
 30
0.0
 11
56.1869772908967
 21
40.9568627154535
 31
0.0
  0
LINE
  5
   1B5
  8
0
  6
CONTINUOUS
 62
     7
 10
55.6660328609451
 20
-19.2887247949342
 30
0.0
 11
56.1869772908967
 21
-22.2431480721411
 31
0.0
  0
LINE
  5
   1B6
  8
0
  6
CONTINUOUS
 62
     7
 10
56.1869772908967
 20
-22.2431480721411
 30
0.0
 11
56.7079217208484
 21
-19.2887247949342
 31
0.0
  0
LINE
  5
   1B7
  8
0
  6
CONTINUOUS
 62
     7
 10
56.7079217208484
 20
38.0024394382465
 30
0.0
 11
56.1869772908967
 21
40.9568627154535
 31
0.0
  0
LINE
  5
   1B8
  8
0
  6
CONTINUOUS
 62
     7
 10
56.1869772908967
 20
40.9568627154535
 30
0.0
 11
55.6660328609451
 21
38.0024394382465
 31
0.0
  0
ENDBLK
  5
   1B9
  8
0
  6
CONTINUOUS
 62
     7
  0
BLOCK
  5
   1BA
  8
0
  6
CONTINUOUS
 62
     7
  2
*UDIM1095
 70
    65
 10
0.0
 20
0.0
 30
0.0
  3
*UDIM1095
  0
TEXT
  5
   1BB
  8
0
  6
CONTINUOUS
 62
     7
 10
73.0783899110201
 20
-32.2181542496325
 30
0.0
 40
2.99999994933605
  1
273
 50
90.0
 41
0.933333333333333
 72
     1
 11
71.5783899363472
 21
-28.3181543154975
 31
0.0
 73
     2
  0
LINE
  5
   1BC
  8
0
  6
CONTINUOUS
 62
     7
 10
96.3363718781452
 20
-82.6431613731999
 30
0.0
 11
72.0783899110152
 21
-82.6431613731999
 31
0.0
  0
LINE
  5
   1BD
  8
0
  6
CONTINUOUS
 62
     7
 10
96.4363629763539
 20
26.5568465515175
 30
0.0
 11
72.0783899110152
 21
26.5568465515175
 31
0.0
  0
LINE
  5
   1BE
  8
0
  6
CONTINUOUS
 62
     7
 10
74.0783899110152
 20
-82.6431613731999
 30
0.0
 11
74.0783899110152
 21
26.5568465515175
 31
0.0
  0
LINE
  5
   1BF
  8
0
  6
CONTINUOUS
 62
     7
 10
73.5574454810635
 20
-79.6887380959929
 30
0.0
 11
74.0783899110152
 21
-82.6431613731999
 31
0.0
  0
LINE
  5
   1C0
  8
0
  6
CONTINUOUS
 62
     7
 10
74.0783899110152
 20
-82.6431613731999
 30
0.0
 11
74.5993343409668
 21
-79.6887380959929
 31
0.0
  0
LINE
  5
   1C1
  8
0
  6
CONTINUOUS
 62
     7
 10
74.5993343409668
 20
23.6024232743105
 30
0.0
 11
74.0783899110152
 21
26.5568465515175
 31
0.0
  0
LINE
  5
   1C2
  8
0
  6
CONTINUOUS
 62
     7
 10
74.0783899110152
 20
26.5568465515175
 30
0.0
 11
73.5574454810635
 21
23.6024232743105
 31
0.0
  0
ENDBLK
  5
   1C3
  8
0
  6
CONTINUOUS
 62
     7
  0
BLOCK
  5
   1C4
  8
0
  6
CONTINUOUS
 62
     7
  2
*UDIM1096
 70
    65
 10
0.0
 20
0.0
 30
0.0
  3
*UDIM1096
  0
TEXT
  5
   1C5
  8
0
  6
CONTINUOUS
 62
     7
 10
79.3069391981686
 20
-2.01815379798622
 30
0.0
 40
2.99999994933605
  1
122
 50
90.0
 41
0.933333333333333
 72
     1
 11
77.8069392234957
 21
1.88184613614877
 31
0.0
 73
     2
  0
LINE
  5
   1C6
  8
0
  6
CONTINUOUS
 62
     7
 10
81.9249520756214
 20
-22.2431480721411
 30
0.0
 11
78.3069391981637
 21
-22.2431480721411
 31
0.0
  0
LINE
  5
   1C7
  8
0
  6
CONTINUOUS
 62
     7
 10
96.4363629763539
 20
26.5568465515175
 30
0.0
 11
78.3069391981637
 21
26.5568465515175
 31
0.0
  0
LINE
  5
   1C8
  8
0
  6
CONTINUOUS
 62
     7
 10
80.3069391981637
 20
-22.2431480721411
 30
0.0
 11
80.3069391981637
 21
26.5568465515175
 31
0.0
  0
LINE
  5
   1C9
  8
0
  6
CONTINUOUS
 62
     7
 10
79.7859947682121
 20
-19.2887247949342
 30
0.0
 11
80.3069391981637
 21
-22.2431480721411
 31
0.0
  0
LINE
  5
   1CA
  8
0
  6
CONTINUOUS
 62
     7
 10
80.3069391981637
 20
-22.2431480721411
 30
0.0
 11
80.8278836281154
 21
-19.2887247949342
 31
0.0
  0
LINE
  5
   1CB
  8
0
  6
CONTINUOUS
 62
     7
 10
80.8278836281154
 20
23.6024232743105
 30
0.0
 11
80.3069391981637
 21
26.5568465515175
 31
0.0
  0
LINE
  5
   1CC
  8
0
  6
CONTINUOUS
 62
     7
 10
80.3069391981637
 20
26.5568465515175
 30
0.0
 11
79.7859947682121
 21
23.6024232743105
 31
0.0
  0
ENDBLK
  5
   1CD
  8
0
  6
CONTINUOUS
 62
     7
  0
BLOCK
  5
   1CE
  8
0
  6
CONTINUOUS
 62
     7
  2
*UDIM1097
 70
    65
 10
0.0
 20
0.0
 30
0.0
  3
*UDIM1097
  0
TEXT
  5
   1CF
  8
0
  6
CONTINUOUS
 62
     7
 10
107.061386125585
 20
-132.324064034016
 30
0.0
 40
2.99999994933605
  1
123,5
 41
0.933333333333333
 72
     1
 11
113.761386012435
 21
-130.824064059348
 31
0.0
 73
     2
  0
LINE
  5
   1D0
  8
0
  6
CONTINUOUS
 62
     7
 10
89.3364086320297
 20
-33.0432306156347
 30
0.0
 11
89.3364086320297
 21
-135.324064034016
 31
0.0
  0
LINE
  5
   1D1
  8
0
  6
CONTINUOUS
 62
     7
 10
138.736363591772
 20
-84.5280493845559
 30
0.0
 11
138.736363591772
 21
-135.324064034016
 31
0.0
  0
LINE
  5
   1D2
  8
0
  6
CONTINUOUS
 62
     7
 10
89.3364086320297
 20
-133.324064034016
 30
0.0
 11
138.736363591772
 21
-133.324064034016
 31
0.0
  0
LINE
  5
   1D3
  8
0
  6
CONTINUOUS
 62
     7
 10
92.2908319092367
 20
-132.803119604065
 30
0.0
 11
89.3364086320297
 21
-133.324064034016
 31
0.0
  0
LINE
  5
   1D4
  8
0
  6
CONTINUOUS
 62
     7
 10
89.3364086320297
 20
-133.324064034016
 30
0.0
 11
92.2908319092367
 21
-133.845008463968
 31
0.0
  0
LINE
  5
   1D5
  8
0
  6
CONTINUOUS
 62
     7
 10
135.781940314565
 20
-133.845008463968
 30
0.0
 11
138.736363591772
 21
-133.324064034016
 31
0.0
  0
LINE
  5
   1D6
  8
0
  6
CONTINUOUS
 62
     7
 10
138.736363591772
 20
-133.324064034016
 30
0.0
 11
135.781940314565
 21
-132.803119604065
 31
0.0
  0
ENDBLK
  5
   1D7
  8
0
  6
CONTINUOUS
 62
     7
  0
BLOCK
  5
   1D8
  8
0
  6
CONTINUOUS
 62
     7
  2
*UDIM1098
 70
    65
 10
0.0
 20
0.0
 30
0.0
  3
*UDIM1098
  0
TEXT
  5
   1D9
  8
0
  6
CONTINUOUS
 62
     7
 10
134.561410908108
 20
53.8292590523843
 30
0.0
 40
2.99999994933605
  1
140
 41
0.933333333333333
 72
     1
 11
138.461410842244
 21
55.3292590270523
 31
0.0
 73
     2
  0
LINE
  5
   1DA
  8
0
  6
CONTINUOUS
 62
     7
 10
110.736409713854
 20
6.7568538709703
 30
0.0
 11
110.736409713854
 21
54.8292590523843
 31
0.0
  0
LINE
  5
   1DB
  8
0
  6
CONTINUOUS
 62
     7
 10
166.736411311259
 20
6.75685234509137
 30
0.0
 11
166.736411311259
 21
54.8292590523843
 31
0.0
  0
LINE
  5
   1DC
  8
0
  6
CONTINUOUS
 62
     7
 10
110.736409713854
 20
52.8292590523843
 30
0.0
 11
166.736411311259
 21
52.8292590523843
 31
0.0
  0
LINE
  5
   1DD
  8
0
  6
CONTINUOUS
 62
     7
 10
113.690832991061
 20
53.3502034823359
 30
0.0
 11
110.736409713854
 21
52.8292590523843
 31
0.0
  0
LINE
  5
   1DE
  8
0
  6
CONTINUOUS
 62
     7
 10
110.736409713854
 20
52.8292590523843
 30
0.0
 11
113.690832991061
 21
52.3083146224326
 31
0.0
  0
LINE
  5
   1DF
  8
0
  6
CONTINUOUS
 62
     7
 10
163.781988034052
 20
52.3083146224326
 30
0.0
 11
166.736411311259
 21
52.8292590523843
 31
0.0
  0
LINE
  5
   1E0
  8
0
  6
CONTINUOUS
 62
     7
 10
166.736411311259
 20
52.8292590523843
 30
0.0
 11
163.781988034052
 21
53.3502034823359
 31
0.0
  0
ENDBLK
  5
   1E1
  8
0
  6
CONTINUOUS
 62
     7
  0
BLOCK
  5
   1E2
  8
0
  6
CONTINUOUS
 62
     7
  2
*UDIM1099
 70
    65
 10
0.0
 20
0.0
 30
0.0
  3
*UDIM1099
  0
TEXT
  5
   1E3
  8
0
  6
CONTINUOUS
 62
     7
 10
134.561363605853
 20
60.210106315435
 30
0.0
 40
2.99999994933605
  1
210
 41
0.933333333333333
 72
     1
 11
138.46136353999
 21
61.7101062901031
 31
0.0
 73
     2
  0
LINE
  5
   1E4
  8
0
  6
CONTINUOUS
 62
     7
 10
96.9363629689033
 20
27.0568465440669
 30
0.0
 11
96.9363629689033
 21
61.210106315435
 31
0.0
  0
LINE
  5
   1E5
  8
0
  6
CONTINUOUS
 62
     7
 10
180.53636421464
 20
27.0568465440669
 30
0.0
 11
180.53636421464
 21
61.210106315435
 31
0.0
  0
LINE
  5
   1E6
  8
0
  6
CONTINUOUS
 62
     7
 10
96.9363629689033
 20
59.210106315435
 30
0.0
 11
180.53636421464
 21
59.210106315435
 31
0.0
  0
LINE
  5
   1E7
  8
0
  6
CONTINUOUS
 62
     7
 10
99.8907862461103
 20
59.7310507453867
 30
0.0
 11
96.9363629689033
 21
59.210106315435
 31
0.0
  0
LINE
  5
   1E8
  8
0
  6
CONTINUOUS
 62
     7
 10
96.9363629689033
 20
59.210106315435
 30
0.0
 11
99.8907862461103
 21
58.6891618854834
 31
0.0
  0
LINE
  5
   1E9
  8
0
  6
CONTINUOUS
 62
     7
 10
177.581940937433
 20
58.6891618854834
 30
0.0
 11
180.53636421464
 21
59.210106315435
 31
0.0
  0
LINE
  5
   1EA
  8
0
  6
CONTINUOUS
 62
     7
 10
180.53636421464
 20
59.210106315435
 30
0.0
 11
177.581940937433
 21
59.7310507453867
 31
0.0
  0
ENDBLK
  5
   1EB
  8
0
  6
CONTINUOUS
 62
     7
  0
BLOCK
  5
   1EC
  8
0
  6
CONTINUOUS
 62
     7
  2
*UDIM1100
 70
    65
 10
0.0
 20
0.0
 30
0.0
  3
*UDIM1100
  0
TEXT
  5
   1ED
  8
0
  6
CONTINUOUS
 62
     7
 10
94.1196073301334
 20
-110.168811628682
 30
0.0
 40
2.99999994933605
  1
40
 41
0.933333333333333
 72
     1
 11
96.6196072879134
 21
-108.668811654014
 31
0.0
 73
     2
  0
LINE
  5
   1EE
  8
0
  6
CONTINUOUS
 62
     7
 10
102.73636305533
 20
-106.043118788379
 30
0.0
 11
102.73636305533
 21
-113.168811628682
 31
0.0
  0
LINE
  5
   1EF
  8
0
  6
CONTINUOUS
 62
     7
 10
118.736363293748
 20
-106.043118788379
 30
0.0
 11
118.736363293748
 21
-113.168811628682
 31
0.0
  0
LINE
  5
   1F0
  8
0
  6
CONTINUOUS
 62
     7
 10
94.1196073301334
 20
-111.168811628682
 30
0.0
 11
118.736363293748
 21
-111.168811628682
 31
0.0
  0
LINE
  5
   1F1
  8
0
  6
CONTINUOUS
 62
     7
 10
105.690786332537
 20
-110.64786719873
 30
0.0
 11
102.73636305533
 21
-111.168811628682
 31
0.0
  0
LINE
  5
   1F2
  8
0
  6
CONTINUOUS
 62
     7
 10
102.73636305533
 20
-111.168811628682
 30
0.0
 11
105.690786332537
 21
-111.689756058634
 31
0.0
  0
LINE
  5
   1F3
  8
0
  6
CONTINUOUS
 62
     7
 10
115.781940016541
 20
-111.689756058634
 30
0.0
 11
118.736363293748
 21
-111.168811628682
 31
0.0
  0
LINE
  5
   1F4
  8
0
  6
CONTINUOUS
 62
     7
 10
118.736363293748
 20
-111.168811628682
 30
0.0
 11
115.781940016541
 21
-110.64786719873
 31
0.0
  0
ENDBLK
  5
   1F5
  8
0
  6
CONTINUOUS
 62
     7
  0
BLOCK
  5
   1F6
  8
0
  6
CONTINUOUS
 62
     7
  2
*UDIM1101
 70
    65
 10
0.0
 20
0.0
 30
0.0
  3
*UDIM1101
  0
TEXT
  5
   1F7
  8
0
  6
CONTINUOUS
 62
     7
 10
182.756461452544
 20
-110.58338288847
 30
0.0
 40
2.99999994933605
  1
14
 50
317.062777392586
 41
0.933333333333333
 72
     1
 11
185.60850761758
 21
-111.188223681912
 31
0.0
 73
     2
  0
TEXT
  5
   1F8
  8
0
  6
CONTINUOUS
 62
     7
 10
180.450344884759
 20
-108.437613547042
 30
0.0
 40
2.99999994933605
  1
Ø
 50
317.062777392586
 41
0.933333333333333
 72
     1
 11
182.277450354336
 21
-108.088779078881
 31
0.0
 73
     2
  0
LINE
  5
   1F9
  8
0
  6
CONTINUOUS
 62
     7
 10
164.686486133468
 20
-95.1357686669533
 30
0.0
 11
185.735767309374
 21
-114.721466474742
 31
0.0
  0
LINE
  5
   1FA
  8
0
  6
CONTINUOUS
 62
     7
 10
162.168685759574
 20
-93.5046091783633
 30
0.0
 11
164.686486133468
 21
-95.1357686669533
 31
0.0
  0
LINE
  5
   1FB
  8
0
  6
CONTINUOUS
 62
     7
 10
164.686486133468
 20
-95.1357686669533
 30
0.0
 11
162.878416936584
 21
-92.7418418135851
 31
0.0
  0
LINE
  5
   1FC
  8
0
  6
CONTINUOUS
 62
     7
 10
171.304046017219
 20
-100.581626157514
 30
0.0
 11
168.786245643324
 21
-98.9504666689243
 31
0.0
  0
LINE
  5
   1FD
  8
0
  6
CONTINUOUS
 62
     7
 10
168.786245643324
 20
-98.9504666689243
 30
0.0
 11
170.594314840209
 21
-101.344393522293
 31
0.0
  0
ENDBLK
  5
   1FE
  8
0
  6
CONTINUOUS
 62
     7
  0
BLOCK
  5
   1FF
  8
0
  6
CONTINUOUS
 62
     7
  2
*UDIM1102
 70
    65
 10
0.0
 20
0.0
 30
0.0
  3
*UDIM1102
  0
TEXT
  5
   200
  8
0
  6
CONTINUOUS
 62
     7
 10
159.061393003961
 20
-132.324064034016
 30
0.0
 40
2.99999994933605
  1
136,5
 41
0.933333333333333
 72
     1
 11
165.761392890811
 21
-130.824064059348
 31
0.0
 73
     2
  0
LINE
  5
   201
  8
0
  6
CONTINUOUS
 62
     7
 10
138.736363591772
 20
-84.5280493845559
 30
0.0
 11
138.736363591772
 21
-135.324064034016
 31
0.0
  0
LINE
  5
   202
  8
0
  6
CONTINUOUS
 62
     7
 10
193.336417811145
 20
-33.0431665287197
 30
0.0
 11
193.336417811145
 21
-135.324064034016
 31
0.0
  0
LINE
  5
   203
  8
0
  6
CONTINUOUS
 62
     7
 10
138.736363591772
 20
-133.324064034016
 30
0.0
 11
193.336417811145
 21
-133.324064034016
 31
0.0
  0
LINE
  5
   204
  8
0
  6
CONTINUOUS
 62
     7
 10
141.690786868979
 20
-132.803119604065
 30
0.0
 11
138.736363591772
 21
-133.324064034016
 31
0.0
  0
LINE
  5
   205
  8
0
  6
CONTINUOUS
 62
     7
 10
138.736363591772
 20
-133.324064034016
 30
0.0
 11
141.690786868979
 21
-133.845008463968
 31
0.0
  0
LINE
  5
   206
  8
0
  6
CONTINUOUS
 62
     7
 10
190.381994533938
 20
-133.845008463968
 30
0.0
 11
193.336417811145
 21
-133.324064034016
 31
0.0
  0
LINE
  5
   207
  8
0
  6
CONTINUOUS
 62
     7
 10
193.336417811145
 20
-133.324064034016
 30
0.0
 11
190.381994533938
 21
-132.803119604065
 31
0.0
  0
ENDBLK
  5
   208
  8
0
  6
CONTINUOUS
 62
     7
  0
BLOCK
  5
   209
  8
0
  6
CONTINUOUS
 62
     7
  2
*UDIM1103
 70
    65
 10
0.0
 20
0.0
 30
0.0
  3
*UDIM1103
  0
TEXT
  5
   20A
  8
0
  6
CONTINUOUS
 62
     7
 10
121.961358802976
 20
-117.56782907292
 30
0.0
 40
2.99999994933605
  1
70
 41
0.933333333333333
 72
     1
 11
124.461358760756
 21
-116.067829098252
 31
0.0
 73
     2
  0
LINE
  5
   20B
  8
0
  6
CONTINUOUS
 62
     7
 10
110.736363045322
 20
-100.243121753355
 30
0.0
 11
110.736363045322
 21
-120.56782907292
 31
0.0
  0
LINE
  5
   20C
  8
0
  6
CONTINUOUS
 62
     7
 10
138.736353435343
 20
-100.243142062115
 30
0.0
 11
138.736353435343
 21
-120.56782907292
 31
0.0
  0
LINE
  5
   20D
  8
0
  6
CONTINUOUS
 62
     7
 10
110.736363045322
 20
-118.56782907292
 30
0.0
 11
138.736353435343
 21
-118.56782907292
 31
0.0
  0
LINE
  5
   20E
  8
0
  6
CONTINUOUS
 62
     7
 10
113.690786322529
 20
-118.046884642969
 30
0.0
 11
110.736363045322
 21
-118.56782907292
 31
0.0
  0
LINE
  5
   20F
  8
0
  6
CONTINUOUS
 62
     7
 10
110.736363045322
 20
-118.56782907292
 30
0.0
 11
113.690786322529
 21
-119.088773502872
 31
0.0
  0
LINE
  5
   210
  8
0
  6
CONTINUOUS
 62
     7
 10
135.781930158136
 20
-119.088773502872
 30
0.0
 11
138.736353435343
 21
-118.56782907292
 31
0.0
  0
LINE
  5
   211
  8
0
  6
CONTINUOUS
 62
     7
 10
138.736353435343
 20
-118.56782907292
 30
0.0
 11
135.781930158136
 21
-118.046884642969
 31
0.0
  0
ENDBLK
  5
   212
  8
0
  6
CONTINUOUS
 62
     7
  0
BLOCK
  5
   213
  8
0
  6
CONTINUOUS
 62
     7
  2
*UDIM1104
 70
    65
 10
0.0
 20
0.0
 30
0.0
  3
*UDIM1104
  0
TEXT
  5
   214
  8
0
  6
CONTINUOUS
 62
     7
 10
149.961359223155
 20
-117.56782907292
 30
0.0
 40
2.99999994933605
  1
70
 41
0.933333333333333
 72
     1
 11
152.461359180935
 21
-116.067829098252
 31
0.0
 73
     2
  0
LINE
  5
   215
  8
0
  6
CONTINUOUS
 62
     7
 10
166.736365888396
 20
-100.243115377073
 30
0.0
 11
166.736365888396
 21
-120.56782907292
 31
0.0
  0
LINE
  5
   216
  8
0
  6
CONTINUOUS
 62
     7
 10
138.736353435343
 20
-118.56782907292
 30
0.0
 11
166.736365888396
 21
-118.56782907292
 31
0.0
  0
LINE
  5
   217
  8
0
  6
CONTINUOUS
 62
     7
 10
141.69077671255
 20
-118.046884642969
 30
0.0
 11
138.736353435343
 21
-118.56782907292
 31
0.0
  0
LINE
  5
   218
  8
0
  6
CONTINUOUS
 62
     7
 10
138.736353435343
 20
-118.56782907292
 30
0.0
 11
141.69077671255
 21
-119.088773502872
 31
0.0
  0
LINE
  5
   219
  8
0
  6
CONTINUOUS
 62
     7
 10
163.781942611189
 20
-119.088773502872
 30
0.0
 11
166.736365888396
 21
-118.56782907292
 31
0.0
  0
LINE
  5
   21A
  8
0
  6
CONTINUOUS
 62
     7
 10
166.736365888396
 20
-118.56782907292
 30
0.0
 11
163.781942611189
 21
-118.046884642969
 31
0.0
  0
ENDBLK
  5
   21B
  8
0
  6
CONTINUOUS
 62
     7
  0
BLOCK
  5
   21C
  8
0
  6
CONTINUOUS
 62
     7
  2
*UDIM1105
 70
    65
 10
0.0
 20
0.0
 30
0.0
  3
*UDIM1105
  0
TEXT
  5
   21D
  8
0
  6
CONTINUOUS
 62
     7
 10
-42.9691894417568
 20
-136.232604478419
 30
0.0
 40
2.99999994933605
  1
214
 50
359.999999896069
 41
0.933333333333333
 72
     1
 11
-39.0691895049065
 21
-134.732604510805
 31
0.0
 73
     2
  0
LINE
  5
   21E
  8
0
  6
CONTINUOUS
 62
     7
 10
-17.3941891342402
 20
-141.101186711341
 30
0.0
 11
-17.3941891342402
 21
-135.232604485473
 31
0.0
  0
LINE
  5
   21F
  8
0
  6
CONTINUOUS
 62
     7
 10
-60.1941897720098
 20
-141.101186711341
 30
0.0
 11
-60.1941897720098
 21
-135.232604485473
 31
0.0
  0
LINE
  5
   220
  8
0
  6
CONTINUOUS
 62
     7
 10
-17.3941891342402
 20
-137.232604485473
 30
0.0
 11
-60.1941897720098
 21
-137.232604485473
 31
0.0
  0
LINE
  5
   221
  8
0
  6
CONTINUOUS
 62
     7
 10
-20.3486124114471
 20
-137.753548915425
 30
0.0
 11
-17.3941891342402
 21
-137.232604485473
 31
0.0
  0
LINE
  5
   222
  8
0
  6
CONTINUOUS
 62
     7
 10
-17.3941891342402
 20
-137.232604485473
 30
0.0
 11
-20.3486124114471
 21
-136.711660055522
 31
0.0
  0
LINE
  5
   223
  8
0
  6
CONTINUOUS
 62
     7
 10
-57.2397664948029
 20
-136.711660055522
 30
0.0
 11
-60.1941897720098
 21
-137.232604485473
 31
0.0
  0
LINE
  5
   224
  8
0
  6
CONTINUOUS
 62
     7
 10
-60.1941897720098
 20
-137.232604485473
 30
0.0
 11
-57.2397664948029
 21
-137.753548915425
 31
0.0
  0
ENDBLK
  5
   225
  8
0
  6
CONTINUOUS
 62
     7
  0
BLOCK
  5
   226
  8
0
  6
CONTINUOUS
 62
     7
  2
*UDIM1106
 70
    65
 10
0.0
 20
0.0
 30
0.0
  3
*UDIM1106
  0
TEXT
  5
   227
  8
0
  6
CONTINUOUS
 62
     7
 10
-80.659790657588
 20
-154.941079398471
 30
0.0
 40
2.99999994933605
  1
77,5
 50
449.999999896069
 41
0.933333333333333
 72
     1
 11
-82.1597906226754
 21
-149.641079485266
 31
0.0
 73
     2
  0
LINE
  5
   228
  8
0
  6
CONTINUOUS
 62
     7
 10
-60.7941897660494
 20
-141.701186705381
 30
0.0
 11
-81.6597906480074
 21
-141.701186705381
 31
0.0
  0
LINE
  5
   229
  8
0
  6
CONTINUOUS
 62
     7
 10
-60.7941897660494
 20
-157.201186936349
 30
0.0
 11
-81.6597906480074
 21
-157.201186936349
 31
0.0
  0
LINE
  5
   22A
  8
0
  6
CONTINUOUS
 62
     7
 10
-79.6597906480074
 20
-141.701186705381
 30
0.0
 11
-79.6597906480074
 21
-157.201186936349
 31
0.0
  0
LINE
  5
   22B
  8
0
  6
CONTINUOUS
 62
     7
 10
-80.1807350779591
 20
-138.746763428174
 30
0.0
 11
-79.6597906480074
 21
-141.701186705381
 31
0.0
  0
LINE
  5
   22C
  8
0
  6
CONTINUOUS
 62
     7
 10
-79.6597906480074
 20
-141.701186705381
 30
0.0
 11
-79.1388462180557
 21
-138.746763428174
 31
0.0
  0
LINE
  5
   22D
  8
0
  6
CONTINUOUS
 62
     7
 10
-79.1388462180557
 20
-160.155610213556
 30
0.0
 11
-79.6597906480074
 21
-157.201186936349
 31
0.0
  0
LINE
  5
   22E
  8
0
  6
CONTINUOUS
 62
     7
 10
-79.6597906480074
 20
-157.201186936349
 30
0.0
 11
-80.1807350779591
 21
-160.155610213556
 31
0.0
  0
ENDBLK
  5
   22F
  8
0
  6
CONTINUOUS
 62
     7
  0
BLOCK
  5
   230
  8
0
  6
CONTINUOUS
 62
     7
  2
*UDIM1107
 70
    65
 10
0.0
 20
0.0
 30
0.0
  3
*UDIM1107
  0
TEXT
  5
   231
  8
0
  6
CONTINUOUS
 62
     7
 10
-80.659790657588
 20
-168.174008056493
 30
0.0
 40
2.99999994933605
  1
57,5
 50
449.999999896069
 41
0.933333333333333
 72
     1
 11
-82.1597906226754
 21
-162.874008143288
 31
0.0
 73
     2
  0
LINE
  5
   232
  8
0
  6
CONTINUOUS
 62
     7
 10
-65.5234022940423
 20
-168.701187107712
 30
0.0
 11
-81.6597906480074
 21
-168.701187107712
 31
0.0
  0
LINE
  5
   233
  8
0
  6
CONTINUOUS
 62
     7
 10
-79.6597906480074
 20
-157.201186936349
 30
0.0
 11
-79.6597906480074
 21
-168.701187107712
 31
0.0
  0
LINE
  5
   234
  8
0
  6
CONTINUOUS
 62
     7
 10
-80.1807350779591
 20
-154.246763659142
 30
0.0
 11
-79.6597906480074
 21
-157.201186936349
 31
0.0
  0
LINE
  5
   235
  8
0
  6
CONTINUOUS
 62
     7
 10
-79.6597906480074
 20
-157.201186936349
 30
0.0
 11
-79.1388462180557
 21
-154.246763659142
 31
0.0
  0
LINE
  5
   236
  8
0
  6
CONTINUOUS
 62
     7
 10
-79.1388462180557
 20
-171.655610384919
 30
0.0
 11
-79.6597906480074
 21
-168.701187107712
 31
0.0
  0
LINE
  5
   237
  8
0
  6
CONTINUOUS
 62
     7
 10
-79.6597906480074
 20
-168.701187107712
 30
0.0
 11
-80.1807350779591
 21
-171.655610384919
 31
0.0
  0
ENDBLK
  5
   238
  8
0
  6
CONTINUOUS
 62
     7
  0
BLOCK
  5
   239
  8
0
  6
CONTINUOUS
 62
     7
  2
*UDIM1108
 70
    65
 10
0.0
 20
0.0
 30
0.0
  3
*UDIM1108
  0
TEXT
  5
   23A
  8
0
  6
CONTINUOUS
 62
     7
 10
-80.659790657588
 20
-182.926187225436
 30
0.0
 40
2.99999994933605
  1
86,5
 50
449.999999896069
 41
0.933333333333333
 72
     1
 11
-82.1597906226754
 21
-177.62618731223
 31
0.0
 73
     2
  0
LINE
  5
   23B
  8
0
  6
CONTINUOUS
 62
     7
 10
-60.7941897660494
 20
-186.001187365502
 30
0.0
 11
-81.6597906480074
 21
-186.001187365502
 31
0.0
  0
LINE
  5
   23C
  8
0
  6
CONTINUOUS
 62
     7
 10
-79.6597906480074
 20
-168.701187107712
 30
0.0
 11
-79.6597906480074
 21
-186.001187365502
 31
0.0
  0
LINE
  5
   23D
  8
0
  6
CONTINUOUS
 62
     7
 10
-79.1388462180557
 20
-171.655610384919
 30
0.0
 11
-79.6597906480074
 21
-168.701187107712
 31
0.0
  0
LINE
  5
   23E
  8
0
  6
CONTINUOUS
 62
     7
 10
-79.6597906480074
 20
-168.701187107712
 30
0.0
 11
-80.1807350779591
 21
-171.655610384919
 31
0.0
  0
LINE
  5
   23F
  8
0
  6
CONTINUOUS
 62
     7
 10
-80.1807350779591
 20
-183.046764088295
 30
0.0
 11
-79.6597906480074
 21
-186.001187365502
 31
0.0
  0
LINE
  5
   240
  8
0
  6
CONTINUOUS
 62
     7
 10
-79.6597906480074
 20
-186.001187365502
 30
0.0
 11
-79.1388462180557
 21
-183.046764088295
 31
0.0
  0
ENDBLK
  5
   241
  8
0
  6
CONTINUOUS
 62
     7
  0
BLOCK
  5
   242
  8
0
  6
CONTINUOUS
 62
     7
  2
*UDIM1109
 70
    65
 10
0.0
 20
0.0
 30
0.0
  3
*UDIM1109
  0
TEXT
  5
   243
  8
0
  6
CONTINUOUS
 62
     7
 10
-80.659790657588
 20
-199.198257792329
 30
0.0
 40
2.99999994933605
  1
77,5
 50
449.999999896069
 41
0.933333333333333
 72
     1
 11
-82.1597906226754
 21
-193.898257879124
 31
0.0
 73
     2
  0
LINE
  5
   244
  8
0
  6
CONTINUOUS
 62
     7
 10
-60.7941897660494
 20
-201.50118759647
 30
0.0
 11
-81.6597906480074
 21
-201.50118759647
 31
0.0
  0
LINE
  5
   245
  8
0
  6
CONTINUOUS
 62
     7
 10
-79.6597906480074
 20
-186.001187365502
 30
0.0
 11
-79.6597906480074
 21
-201.50118759647
 31
0.0
  0
LINE
  5
   246
  8
0
  6
CONTINUOUS
 62
     7
 10
-80.1807350779591
 20
-183.046764088295
 30
0.0
 11
-79.6597906480074
 21
-186.001187365502
 31
0.0
  0
LINE
  5
   247
  8
0
  6
CONTINUOUS
 62
     7
 10
-79.6597906480074
 20
-186.001187365502
 30
0.0
 11
-79.1388462180557
 21
-183.046764088295
 31
0.0
  0
LINE
  5
   248
  8
0
  6
CONTINUOUS
 62
     7
 10
-79.1388462180557
 20
-204.455610873677
 30
0.0
 11
-79.6597906480074
 21
-201.50118759647
 31
0.0
  0
LINE
  5
   249
  8
0
  6
CONTINUOUS
 62
     7
 10
-79.6597906480074
 20
-201.50118759647
 30
0.0
 11
-80.1807350779591
 21
-204.455610873677
 31
0.0
  0
ENDBLK
  5
   24A
  8
0
  6
CONTINUOUS
 62
     7
  0
BLOCK
  5
   24B
  8
0
  6
CONTINUOUS
 62
     7
  2
*UDIM1110
 70
    65
 10
0.0
 20
0.0
 30
0.0
  3
*UDIM1110
  0
TEXT
  5
   24C
  8
0
  6
CONTINUOUS
 62
     7
 10
-10.1295284360325
 20
-186.373327591496
 30
0.0
 40
2.99999994933605
  1
8,5
 50
345.453431325576
 41
0.933333333333333
 72
     1
 11
-5.97779740390266
 21
-185.900962428595
 31
0.0
 73
     2
  0
TEXT
  5
   24D
  8
0
  6
CONTINUOUS
 62
     7
 10
-13.1785514166338
 20
-185.582152165566
 30
0.0
 40
2.99999994933605
  1
Ø
 50
345.453431325576
 41
0.933333333333333
 72
     1
 11
-11.7370630279771
 21
-184.406519949053
 31
0.0
 73
     2
  0
TEXT
  5
   24E
  8
0
  6
CONTINUOUS
 62
     7
 10
-2.04719767007934
 20
-188.470570397892
 30
0.0
 40
2.99999994933605
  1
 - M8
 50
345.453431325576
 41
0.933333333333333
 72
     1
 11
4.81477600552353
 21
-188.701472288603
 31
0.0
 73
     2
  0
LINE
  5
   24F
  8
0
  6
CONTINUOUS
 62
     7
 10
10.6720824648609
 20
-192.804149390026
 30
0.0
 11
-25.6169415021039
 21
-183.387695540309
 31
0.0
  0
LINE
  5
   250
  8
0
  6
CONTINUOUS
 62
     7
 10
-20.9808772905847
 20
-184.052487240758
 30
0.0
 11
-23.9714369869136
 21
-183.81467911917
 31
0.0
  0
LINE
  5
   251
  8
0
  6
CONTINUOUS
 62
     7
 10
-23.9714369869136
 20
-183.81467911917
 30
0.0
 11
-21.2425651891423
 21
-185.060977121788
 31
0.0
  0
LINE
  5
   252
  8
0
  6
CONTINUOUS
 62
     7
 10
-28.6075011984328
 20
-183.149887418721
 30
0.0
 11
-25.6169415021039
 21
-183.387695540309
 31
0.0
  0
LINE
  5
   253
  8
0
  6
CONTINUOUS
 62
     7
 10
-25.6169415021039
 20
-183.387695540309
 30
0.0
 11
-28.3458132998752
 21
-182.141397537691
 31
0.0
  0
ENDBLK
  5
   254
  8
0
  6
CONTINUOUS
 62
     7
  0
BLOCK
  5
   255
  8
0
  6
CONTINUOUS
 62
     7
  2
*UDIM1111
 70
    65
 10
0.0
 20
0.0
 30
0.0
  3
*UDIM1111
  0
TEXT
  5
   256
  8
0
  6
CONTINUOUS
 62
     7
 10
-73.6701665274663
 20
-175.776187139555
 30
0.0
 40
2.99999994933605
  1
120
 50
449.999999896069
 41
0.933333333333333
 72
     1
 11
-75.1701664950844
 21
-171.876187202707
 31
0.0
 73
     2
  0
LINE
  5
   257
  8
0
  6
CONTINUOUS
 62
     7
 10
-56.6441897042096
 20
-159.601186972111
 30
0.0
 11
-74.6701665204164
 21
-159.601186972111
 31
0.0
  0
LINE
  5
   258
  8
0
  6
CONTINUOUS
 62
     7
 10
-56.6441897042096
 20
-183.601187329739
 30
0.0
 11
-74.6701665204164
 21
-183.601187329739
 31
0.0
  0
LINE
  5
   259
  8
0
  6
CONTINUOUS
 62
     7
 10
-72.6701665204164
 20
-159.601186972111
 30
0.0
 11
-72.6701665204164
 21
-183.601187329739
 31
0.0
  0
LINE
  5
   25A
  8
0
  6
CONTINUOUS
 62
     7
 10
-72.1492220904647
 20
-162.555610249318
 30
0.0
 11
-72.6701665204164
 21
-159.601186972111
 31
0.0
  0
LINE
  5
   25B
  8
0
  6
CONTINUOUS
 62
     7
 10
-72.6701665204164
 20
-159.601186972111
 30
0.0
 11
-73.1911109503681
 21
-162.555610249318
 31
0.0
  0
LINE
  5
   25C
  8
0
  6
CONTINUOUS
 62
     7
 10
-73.1911109503681
 20
-180.646764052532
 30
0.0
 11
-72.6701665204164
 21
-183.601187329739
 31
0.0
  0
LINE
  5
   25D
  8
0
  6
CONTINUOUS
 62
     7
 10
-72.6701665204164
 20
-183.601187329739
 30
0.0
 11
-72.1492220904647
 21
-180.646764052532
 31
0.0
  0
ENDBLK
  5
   25E
  8
0
  6
CONTINUOUS
 62
     7
  0
BLOCK
  5
   25F
  8
0
  6
CONTINUOUS
 62
     7
  2
*UDIM1112
 70
    65
 10
0.0
 20
0.0
 30
0.0
  3
*UDIM1112
  0
TEXT
  5
   260
  8
0
  6
CONTINUOUS
 62
     7
 10
-68.9119389200314
 20
-156.676186762755
 30
0.0
 40
2.99999994933605
  1
45,5
 50
449.999999896069
 41
0.933333333333333
 72
     1
 11
-70.4119388851188
 21
-151.376186849549
 31
0.0
 73
     2
  0
LINE
  5
   261
  8
0
  6
CONTINUOUS
 62
     7
 10
-49.1252739784817
 20
-159.601186972111
 30
0.0
 11
-69.9119389104508
 21
-159.601186972111
 31
0.0
  0
LINE
  5
   262
  8
0
  6
CONTINUOUS
 62
     7
 10
-65.5234022940423
 20
-168.701187107712
 30
0.0
 11
-69.9119389104508
 21
-168.701187107712
 31
0.0
  0
LINE
  5
   263
  8
0
  6
CONTINUOUS
 62
     7
 10
-67.9119389104508
 20
-146.076186939056
 30
0.0
 11
-67.9119389104508
 21
-168.701187107712
 31
0.0
  0
LINE
  5
   264
  8
0
  6
CONTINUOUS
 62
     7
 10
-68.4328833404024
 20
-156.646763694905
 30
0.0
 11
-67.9119389104508
 21
-159.601186972111
 31
0.0
  0
LINE
  5
   265
  8
0
  6
CONTINUOUS
 62
     7
 10
-67.9119389104508
 20
-159.601186972111
 30
0.0
 11
-67.3909944804991
 21
-156.646763694905
 31
0.0
  0
LINE
  5
   266
  8
0
  6
CONTINUOUS
 62
     7
 10
-67.3909944804991
 20
-171.655610384919
 30
0.0
 11
-67.9119389104508
 21
-168.701187107712
 31
0.0
  0
LINE
  5
   267
  8
0
  6
CONTINUOUS
 62
     7
 10
-67.9119389104508
 20
-168.701187107712
 30
0.0
 11
-68.4328833404024
 21
-171.655610384919
 31
0.0
  0
ENDBLK
  5
   268
  8
0
  6
CONTINUOUS
 62
     7
  0
BLOCK
  5
   269
  8
0
  6
CONTINUOUS
 62
     7
  2
*UDIM1113
 70
    65
 10
0.0
 20
0.0
 30
0.0
  3
*UDIM1113
  0
TEXT
  5
   26A
  8
0
  6
CONTINUOUS
 62
     7
 10
-42.9691894417568
 20
-146.778127706848
 30
0.0
 40
2.99999994933605
  1
140
 50
359.999999896069
 41
0.933333333333333
 72
     1
 11
-39.0691895049065
 21
-145.278127739235
 31
0.0
 73
     2
  0
LINE
  5
   26B
  8
0
  6
CONTINUOUS
 62
     7
 10
-24.7941892445087
 20
-155.751186929643
 30
0.0
 11
-24.7941892445087
 21
-145.778127713903
 31
0.0
  0
LINE
  5
   26C
  8
0
  6
CONTINUOUS
 62
     7
 10
-52.7941896617413
 20
-155.751186929643
 30
0.0
 11
-52.7941896617413
 21
-145.778127713903
 31
0.0
  0
LINE
  5
   26D
  8
0
  6
CONTINUOUS
 62
     7
 10
-24.7941892445087
 20
-147.778127713903
 30
0.0
 11
-52.7941896617413
 21
-147.778127713903
 31
0.0
  0
LINE
  5
   26E
  8
0
  6
CONTINUOUS
 62
     7
 10
-27.7486125217157
 20
-148.299072143855
 30
0.0
 11
-24.7941892445087
 21
-147.778127713903
 31
0.0
  0
LINE
  5
   26F
  8
0
  6
CONTINUOUS
 62
     7
 10
-24.7941892445087
 20
-147.778127713903
 30
0.0
 11
-27.7486125217157
 21
-147.257183283951
 31
0.0
  0
LINE
  5
   270
  8
0
  6
CONTINUOUS
 62
     7
 10
-49.8397663845343
 20
-147.257183283951
 30
0.0
 11
-52.7941896617413
 21
-147.778127713903
 31
0.0
  0
LINE
  5
   271
  8
0
  6
CONTINUOUS
 62
     7
 10
-52.7941896617413
 20
-147.778127713903
 30
0.0
 11
-49.8397663845343
 21
-148.299072143855
 31
0.0
  0
ENDBLK
  5
   272
  8
0
  6
CONTINUOUS
 62
     7
  0
BLOCK
  5
   273
  8
0
  6
CONTINUOUS
 62
     7
  2
*UDIM1114
 70
    65
 10
0.0
 20
0.0
 30
0.0
  3
*UDIM1114
  0
TEXT
  5
   274
  8
0
  6
CONTINUOUS
 62
     7
 10
205.141612117524
 20
38.5451448440102
 30
0.0
 40
3.00000002980232
  1
7
 50
335.564170568428
 41
0.933333333333334
 72
     1
 11
206.763590556189
 21
39.4557413590765
 31
0.0
 73
     2
  0
TEXT
  5
   275
  8
0
  6
CONTINUOUS
 62
     7
 10
201.499911480754
 20
40.1998401968063
 30
0.0
 40
3.00000002980232
  1
Ø
 50
335.564170568428
 41
1.2
 72
     1
 11
203.486059983596
 21
40.9449671752919
 31
0.0
 73
     2
  0
LINE
  5
   276
  8
0
  6
CONTINUOUS
 62
     7
 10
201.086237647908
 20
39.2894150388898
 30
0.0
 11
225.708900969307
 21
28.1015084518914
 31
0.0
  0
LINE
  5
   277
  8
0
  6
CONTINUOUS
 62
     7
 10
216.604121682256
 20
31.3856354321443
 30
0.0
 11
219.563531189786
 21
30.8938068372614
 31
0.0
  0
LINE
  5
   278
  8
0
  6
CONTINUOUS
 62
     7
 10
219.563531189786
 20
30.8938068372614
 30
0.0
 11
217.246521701272
 21
32.7994476822622
 31
0.0
  0
LINE
  5
   279
  8
0
  6
CONTINUOUS
 62
     7
 10
224.116184714228
 20
29.6780490313567
 30
0.0
 11
221.156775206699
 21
30.1698776262396
 31
0.0
  0
LINE
  5
   27A
  8
0
  6
CONTINUOUS
 62
     7
 10
221.156775206699
 20
30.1698776262396
 30
0.0
 11
223.473784695213
 21
28.2642367812388
 31
0.0
  0
ENDBLK
  5
   27B
  8
0
  6
CONTINUOUS
 62
     7
  0
BLOCK
  5
   27C
  8
0
  6
CONTINUOUS
 62
     7
  2
*UDIM1115
 70
    65
 10
0.0
 20
0.0
 30
0.0
  3
*UDIM1115
  0
TEXT
  5
   27D
  8
0
  6
CONTINUOUS
 62
     7
 10
271.164329793051
 20
-29.1875877564966
 30
0.0
 40
3.00000002980232
  1
7
 50
300.250117235064
 41
0.933333333333334
 72
     1
 11
273.014234842074
 21
-29.3821420634178
 31
0.0
 73
     2
  0
TEXT
  5
   27E
  8
0
  6
CONTINUOUS
 62
     7
 10
269.14922679129
 20
-25.7322498380415
 30
0.0
 40
3.00000002980232
  1
Ø
 50
300.250117235064
 41
1.2
 72
     1
 11
271.200642140145
 21
-26.2723379381591
 31
0.0
 73
     2
  0
LINE
  5
   27F
  8
0
  6
CONTINUOUS
 62
     7
 10
258.025470685079
 20
-8.64313023913436
 30
0.0
 11
271.408801973719
 21
-31.5917993680127
 31
0.0
  0
LINE
  5
   280
  8
0
  6
CONTINUOUS
 62
     7
 10
258.413788950154
 20
-10.8502628117054
 30
0.0
 11
260.544349419686
 21
-12.9623026043386
 31
0.0
  0
LINE
  5
   281
  8
0
  6
CONTINUOUS
 62
     7
 10
260.544349419686
 20
-12.9623026043386
 30
0.0
 11
259.755249867261
 21
-10.0679422438509
 31
0.0
  0
LINE
  5
   282
  8
0
  6
CONTINUOUS
 62
     7
 10
263.556517446331
 20
-16.5860527247936
 30
0.0
 11
261.425956976799
 21
-14.4740129321604
 31
0.0
  0
LINE
  5
   283
  8
0
  6
CONTINUOUS
 62
     7
 10
261.425956976799
 20
-14.4740129321604
 30
0.0
 11
262.215056529224
 21
-17.3683732926481
 31
0.0
  0
ENDBLK
  5
   284
  8
0
  6
CONTINUOUS
 62
     7
  0
BLOCK
  5
   285
  8
0
  6
CONTINUOUS
 62
     7
  2
*UDIM1116
 70
    65
 10
0.0
 20
0.0
 30
0.0
  3
*UDIM1116
  0
TEXT
  5
   286
  8
0
  6
CONTINUOUS
 62
     7
 10
267.272312557067
 20
38.9915587365039
 30
0.0
 40
3.00000002980232
  1
8
 50
407.936580148673
 41
0.933333333333334
 72
     1
 11
266.895655023444
 21
40.8131320046184
 31
0.0
 73
     2
  0
TEXT
  5
   287
  8
0
  6
CONTINUOUS
 62
     7
 10
265.161961324016
 20
36.6529870066348
 30
0.0
 40
3.00000002980232
  1
Ø
 50
407.936580148673
 41
0.933333333333334
 72
     1
 11
264.785303790393
 21
38.4745602747492
 31
0.0
 73
     2
  0
TEXT
  5
   288
  8
0
  6
CONTINUOUS
 62
     7
 10
269.114682678223
 20
41.0331690133295
 30
0.0
 40
3.00000002980232
  1
(5 fori)
 50
407.936580148673
 41
0.933333333333333
 72
     1
 11
275.303562378365
 21
50.1302988058745
 31
0.0
 73
     2
  0
LINE
  5
   289
  8
0
  6
CONTINUOUS
 62
     7
 10
284.462056961639
 20
56.5476175141197
 30
0.0
 11
260.315200427958
 21
29.7894385103238
 31
0.0
  0
LINE
  5
   28A
  8
0
  6
CONTINUOUS
 62
     7
 10
263.247678944232
 20
33.8166289528556
 30
0.0
 11
261.655105968527
 21
31.2742459531772
 31
0.0
  0
LINE
  5
   28B
  8
0
  6
CONTINUOUS
 62
     7
 10
261.655105968527
 20
31.2742459531772
 30
0.0
 11
264.021181111137
 21
33.1186126248348
 31
0.0
  0
LINE
  5
   28C
  8
0
  6
CONTINUOUS
 62
     7
 10
258.722627452253
 20
27.2470555106454
 30
0.0
 11
260.315200427958
 21
29.7894385103238
 31
0.0
  0
LINE
  5
   28D
  8
0
  6
CONTINUOUS
 62
     7
 10
260.315200427958
 20
29.7894385103238
 30
0.0
 11
257.949125285347
 21
27.9450718386662
 31
0.0
  0
ENDBLK
  5
   28E
  8
0
  6
CONTINUOUS
 62
     7
  0
BLOCK
  5
   28F
  8
0
  6
CONTINUOUS
 62
     7
  2
*UDIM1117
 70
    65
 10
0.0
 20
0.0
 30
0.0
  3
*UDIM1117
  0
TEXT
  5
   290
  8
0
  6
CONTINUOUS
 62
     7
 10
240.12657955143
 20
-51.6208791360712
 30
0.0
 40
3.00000002980232
  1
R min. 200
 50
359.999999844103
 41
0.933333333333333
 72
     1
 11
253.826579691601
 21
-50.1208791583776
 31
0.0
 73
     2
  0
LINE
  5
   291
  8
0
  6
CONTINUOUS
 62
     7
 10
235.735153198242
 20
-22.2643664427836
 30
0.0
 11
235.735153198242
 21
-54.6208791732788
 31
0.0
  0
LINE
  5
   292
  8
0
  6
CONTINUOUS
 62
     7
 10
275.060322287942
 20
-50.3486727974605
 30
0.0
 11
275.060322287942
 21
-54.6208791732788
 31
0.0
  0
LINE
  5
   293
  8
0
  6
CONTINUOUS
 62
     7
 10
235.735153198242
 20
-52.6208791732788
 30
0.0
 11
275.060322287942
 21
-52.6208791732788
 31
0.0
  0
LINE
  5
   294
  8
0
  6
CONTINUOUS
 62
     7
 10
238.689576475449
 20
-52.0999347433272
 30
0.0
 11
235.735153198242
 21
-52.6208791732788
 31
0.0
  0
LINE
  5
   295
  8
0
  6
CONTINUOUS
 62
     7
 10
235.735153198242
 20
-52.6208791732788
 30
0.0
 11
238.689576475449
 21
-53.1418236032305
 31
0.0
  0
LINE
  5
   296
  8
0
  6
CONTINUOUS
 62
     7
 10
272.105899010735
 20
-53.1418236032305
 30
0.0
 11
275.060322287942
 21
-52.6208791732788
 31
0.0
  0
LINE
  5
   297
  8
0
  6
CONTINUOUS
 62
     7
 10
275.060322287942
 20
-52.6208791732788
 30
0.0
 11
272.105899010735
 21
-52.0999347433272
 31
0.0
  0
ENDBLK
  5
   298
  8
0
  6
CONTINUOUS
 62
     7
  0
BLOCK
  5
   299
  8
0
  6
CONTINUOUS
 62
     7
  2
*UDIM1118
 70
    65
 10
0.0
 20
0.0
 30
0.0
  3
*UDIM1118
  0
TEXT
  5
   29A
  8
0
  6
CONTINUOUS
 62
     7
 10
199.463016503223
 20
16.8818421968828
 30
0.0
 40
3.00000002980232
  1
90
 50
449.999999844103
 41
0.933333333333333
 72
     1
 11
197.963016495109
 21
19.38184222579
 31
0.0
 73
     2
  0
LINE
  5
   29B
  8
0
  6
CONTINUOUS
 62
     7
 10
232.377653198242
 20
30.9068422317505
 30
0.0
 11
198.46301651001
 21
30.9068422317505
 31
0.0
  0
LINE
  5
   29C
  8
0
  6
CONTINUOUS
 62
     7
 10
204.929128507706
 20
8.40684223175049
 30
0.0
 11
198.46301651001
 21
8.40684223175049
 31
0.0
  0
LINE
  5
   29D
  8
0
  6
CONTINUOUS
 62
     7
 10
200.46301651001
 20
30.9068422317505
 30
0.0
 11
200.46301651001
 21
8.40684223175049
 31
0.0
  0
LINE
  5
   29E
  8
0
  6
CONTINUOUS
 62
     7
 10
200.983960939961
 20
27.9524189545435
 30
0.0
 11
200.46301651001
 21
30.9068422317505
 31
0.0
  0
LINE
  5
   29F
  8
0
  6
CONTINUOUS
 62
     7
 10
200.46301651001
 20
30.9068422317505
 30
0.0
 11
199.942072080058
 21
27.9524189545435
 31
0.0
  0
LINE
  5
   2A0
  8
0
  6
CONTINUOUS
 62
     7
 10
199.942072080058
 20
11.3612655089575
 30
0.0
 11
200.46301651001
 21
8.40684223175049
 31
0.0
  0
LINE
  5
   2A1
  8
0
  6
CONTINUOUS
 62
     7
 10
200.46301651001
 20
8.40684223175049
 30
0.0
 11
200.983960939961
 21
11.3612655089575
 31
0.0
  0
ENDBLK
  5
   2A2
  8
0
  6
CONTINUOUS
 62
     7
  0
BLOCK
  5
   2A3
  8
0
  6
CONTINUOUS
 62
     7
  2
*UDIM1119
 70
    65
 10
0.0
 20
0.0
 30
0.0
  3
*UDIM1119
  0
TEXT
  5
   2A4
  8
0
  6
CONTINUOUS
 62
     7
 10
205.716941822909
 20
4.23184218297506
 30
0.0
 40
3.00000002980232
  1
161
 50
449.999999844103
 41
0.933333333333333
 72
     1
 11
204.216941818595
 21
8.13184222579002
 31
0.0
 73
     2
  0
LINE
  5
   2A5
  8
0
  6
CONTINUOUS
 62
     7
 10
212.360153198242
 20
28.5318422317505
 30
0.0
 11
204.716941833496
 21
28.5318422317505
 31
0.0
  0
LINE
  5
   2A6
  8
0
  6
CONTINUOUS
 62
     7
 10
212.360153198242
 20
-11.7181577682495
 30
0.0
 11
204.716941833496
 21
-11.7181577682495
 31
0.0
  0
LINE
  5
   2A7
  8
0
  6
CONTINUOUS
 62
     7
 10
206.716941833496
 20
28.5318422317505
 30
0.0
 11
206.716941833496
 21
-11.7181577682495
 31
0.0
  0
LINE
  5
   2A8
  8
0
  6
CONTINUOUS
 62
     7
 10
207.237886263448
 20
25.5774189545435
 30
0.0
 11
206.716941833496
 21
28.5318422317505
 31
0.0
  0
LINE
  5
   2A9
  8
0
  6
CONTINUOUS
 62
     7
 10
206.716941833496
 20
28.5318422317505
 30
0.0
 11
206.195997403544
 21
25.5774189545435
 31
0.0
  0
LINE
  5
   2AA
  8
0
  6
CONTINUOUS
 62
     7
 10
206.195997403544
 20
-8.76373449104255
 30
0.0
 11
206.716941833496
 21
-11.7181577682495
 31
0.0
  0
LINE
  5
   2AB
  8
0
  6
CONTINUOUS
 62
     7
 10
206.716941833496
 20
-11.7181577682495
 30
0.0
 11
207.237886263448
 21
-8.76373449104255
 31
0.0
  0
ENDBLK
  5
   2AC
  8
0
  6
CONTINUOUS
 62
     7
  0
BLOCK
  5
   2AD
  8
0
  6
CONTINUOUS
 62
     7
  2
*UDIM1120
 70
    65
 10
0.0
 20
0.0
 30
0.0
  3
*UDIM1120
  0
TEXT
  5
   2AE
  8
0
  6
CONTINUOUS
 62
     7
 10
290.277912129306
 20
4.23184218297506
 30
0.0
 40
3.00000002980232
  1
177
 50
449.999999844103
 41
0.933333333333333
 72
     1
 11
288.777912124991
 21
8.13184222579002
 31
0.0
 73
     2
  0
LINE
  5
   2AF
  8
0
  6
CONTINUOUS
 62
     7
 10
263.610153198242
 20
30.5318422317505
 30
0.0
 11
293.277912139893
 21
30.5318422317505
 31
0.0
  0
LINE
  5
   2B0
  8
0
  6
CONTINUOUS
 62
     7
 10
263.610153198242
 20
-13.7181577682495
 30
0.0
 11
293.277912139893
 21
-13.7181577682495
 31
0.0
  0
LINE
  5
   2B1
  8
0
  6
CONTINUOUS
 62
     7
 10
291.277912139893
 20
30.5318422317505
 30
0.0
 11
291.277912139893
 21
-13.7181577682495
 31
0.0
  0
LINE
  5
   2B2
  8
0
  6
CONTINUOUS
 62
     7
 10
291.798856569844
 20
27.5774189545435
 30
0.0
 11
291.277912139893
 21
30.5318422317505
 31
0.0
  0
LINE
  5
   2B3
  8
0
  6
CONTINUOUS
 62
     7
 10
291.277912139893
 20
30.5318422317505
 30
0.0
 11
290.756967709941
 21
27.5774189545435
 31
0.0
  0
LINE
  5
   2B4
  8
0
  6
CONTINUOUS
 62
     7
 10
290.756967709941
 20
-10.7637344910425
 30
0.0
 11
291.277912139893
 21
-13.7181577682495
 31
0.0
  0
LINE
  5
   2B5
  8
0
  6
CONTINUOUS
 62
     7
 10
291.277912139893
 20
-13.7181577682495
 30
0.0
 11
291.798856569844
 21
-10.7637344910425
 31
0.0
  0
ENDBLK
  5
   2B6
  8
0
  6
CONTINUOUS
 62
     7
  0
BLOCK
  5
   2B7
  8
0
  6
CONTINUOUS
 62
     7
  2
*UDIM1121
 70
    65
 10
0.0
 20
0.0
 30
0.0
  3
*UDIM1121
  0
TEXT
  5
   2B8
  8
0
  6
CONTINUOUS
 62
     7
 10
283.630882260198
 20
17.6556835262985
 30
0.0
 40
3.00000002980232
  1
=
 50
449.999999844103
 41
0.933333333333334
 72
     1
 11
282.130882248282
 21
18.7556835412979
 31
0.0
 73
     2
  0
LINE
  5
   2B9
  8
0
  6
CONTINUOUS
 62
     7
 10
263.610153198242
 20
30.5318422317505
 30
0.0
 11
286.630882263184
 21
30.5318422317505
 31
0.0
  0
LINE
  5
   2BA
  8
0
  6
CONTINUOUS
 62
     7
 10
277.942621190886
 20
8.40684223175049
 30
0.0
 11
286.630882263184
 21
8.40684223175049
 31
0.0
  0
LINE
  5
   2BB
  8
0
  6
CONTINUOUS
 62
     7
 10
284.630882263184
 20
30.5318422317505
 30
0.0
 11
284.630882263184
 21
8.40684223175049
 31
0.0
  0
LINE
  5
   2BC
  8
0
  6
CONTINUOUS
 62
     7
 10
285.151826693135
 20
27.5774189545435
 30
0.0
 11
284.630882263184
 21
30.5318422317505
 31
0.0
  0
LINE
  5
   2BD
  8
0
  6
CONTINUOUS
 62
     7
 10
284.630882263184
 20
30.5318422317505
 30
0.0
 11
284.109937833232
 21
27.5774189545435
 31
0.0
  0
LINE
  5
   2BE
  8
0
  6
CONTINUOUS
 62
     7
 10
284.109937833232
 20
11.3612655089575
 30
0.0
 11
284.630882263184
 21
8.40684223175049
 31
0.0
  0
LINE
  5
   2BF
  8
0
  6
CONTINUOUS
 62
     7
 10
284.630882263184
 20
8.40684223175049
 30
0.0
 11
285.151826693135
 21
11.3612655089575
 31
0.0
  0
ENDBLK
  5
   2C0
  8
0
  6
CONTINUOUS
 62
     7
  0
BLOCK
  5
   2C1
  8
0
  6
CONTINUOUS
 62
     7
  2
*UDIM1122
 70
    65
 10
0.0
 20
0.0
 30
0.0
  3
*UDIM1122
  0
TEXT
  5
   2C2
  8
0
  6
CONTINUOUS
 62
     7
 10
283.630882260198
 20
-4.64403056214149
 30
0.0
 40
3.00000002980232
  1
=
 50
449.999999844103
 41
0.933333333333334
 72
     1
 11
282.130882248282
 21
-3.54403054714203
 31
0.0
 73
     2
  0
LINE
  5
   2C3
  8
0
  6
CONTINUOUS
 62
     7
 10
263.610153198242
 20
-13.7181577682495
 30
0.0
 11
286.630882263184
 21
-13.7181577682495
 31
0.0
  0
LINE
  5
   2C4
  8
0
  6
CONTINUOUS
 62
     7
 10
284.630882263184
 20
8.40684223175049
 30
0.0
 11
284.630882263184
 21
-13.7181577682495
 31
0.0
  0
LINE
  5
   2C5
  8
0
  6
CONTINUOUS
 62
     7
 10
285.151826693135
 20
5.45241895454352
 30
0.0
 11
284.630882263184
 21
8.40684223175049
 31
0.0
  0
LINE
  5
   2C6
  8
0
  6
CONTINUOUS
 62
     7
 10
284.630882263184
 20
8.40684223175049
 30
0.0
 11
284.109937833232
 21
5.45241895454352
 31
0.0
  0
LINE
  5
   2C7
  8
0
  6
CONTINUOUS
 62
     7
 10
284.109937833232
 20
-10.7637344910425
 30
0.0
 11
284.630882263184
 21
-13.7181577682495
 31
0.0
  0
LINE
  5
   2C8
  8
0
  6
CONTINUOUS
 62
     7
 10
284.630882263184
 20
-13.7181577682495
 30
0.0
 11
285.151826693135
 21
-10.7637344910425
 31
0.0
  0
ENDBLK
  5
   2C9
  8
0
  6
CONTINUOUS
 62
     7
  0
BLOCK
  5
   2CA
  8
0
  6
CONTINUOUS
 62
     7
  2
*UDIM1123
 70
    65
 10
0.0
 20
0.0
 30
0.0
  3
*UDIM1123
  0
TEXT
  5
   2CB
  8
0
  6
CONTINUOUS
 62
     7
 10
245.506441113347
 20
11.4068421213836
 30
0.0
 40
3.00000002980232
  1
9
 50
449.999999844103
 41
0.933333333333334
 72
     1
 11
244.006441101432
 21
12.5068421363831
 31
0.0
 73
     2
  0
LINE
  5
   2CC
  8
0
  6
CONTINUOUS
 62
     7
 10
264.985153198242
 20
6.15684223175049
 30
0.0
 11
244.506441116333
 21
6.15684223175049
 31
0.0
  0
LINE
  5
   2CD
  8
0
  6
CONTINUOUS
 62
     7
 10
246.506441116333
 20
13.6068421473106
 30
0.0
 11
246.506441116333
 21
6.15684223175049
 31
0.0
  0
LINE
  5
   2CE
  8
0
  6
CONTINUOUS
 62
     7
 10
245.985496686381
 20
11.3612655089575
 30
0.0
 11
246.506441116333
 21
8.40684223175049
 31
0.0
  0
LINE
  5
   2CF
  8
0
  6
CONTINUOUS
 62
     7
 10
246.506441116333
 20
8.40684223175049
 30
0.0
 11
247.027385546285
 21
11.3612655089575
 31
0.0
  0
LINE
  5
   2D0
  8
0
  6
CONTINUOUS
 62
     7
 10
247.027385546285
 20
3.20241895454352
 30
0.0
 11
246.506441116333
 21
6.15684223175049
 31
0.0
  0
LINE
  5
   2D1
  8
0
  6
CONTINUOUS
 62
     7
 10
246.506441116333
 20
6.15684223175049
 30
0.0
 11
245.985496686381
 21
3.20241895454352
 31
0.0
  0
ENDBLK
  5
   2D2
  8
0
  6
CONTINUOUS
 62
     7
  0
BLOCK
  5
   2D3
  8
0
  6
CONTINUOUS
 62
     7
  2
*UDIM1124
 70
    65
 10
0.0
 20
0.0
 30
0.0
  3
*UDIM1124
  0
TEXT
  5
   2D4
  8
0
  6
CONTINUOUS
 62
     7
 10
245.506441109546
 20
-1.00926440864697
 30
0.0
 40
3.00000002980232
  1
39
 50
449.999999844103
 41
0.933333333333333
 72
     1
 11
244.006441101432
 21
1.49073562026024
 31
0.0
 73
     2
  0
LINE
  5
   2D5
  8
0
  6
CONTINUOUS
 62
     7
 10
264.985153198242
 20
-3.59315776824951
 30
0.0
 11
244.506441116333
 21
-3.59315776824951
 31
0.0
  0
LINE
  5
   2D6
  8
0
  6
CONTINUOUS
 62
     7
 10
246.506441116333
 20
6.15684223175049
 30
0.0
 11
246.506441116333
 21
-3.59315776824951
 31
0.0
  0
LINE
  5
   2D7
  8
0
  6
CONTINUOUS
 62
     7
 10
245.985496686381
 20
9.11126550895745
 30
0.0
 11
246.506441116333
 21
6.15684223175049
 31
0.0
  0
LINE
  5
   2D8
  8
0
  6
CONTINUOUS
 62
     7
 10
246.506441116333
 20
6.15684223175049
 30
0.0
 11
247.027385546285
 21
9.11126550895745
 31
0.0
  0
LINE
  5
   2D9
  8
0
  6
CONTINUOUS
 62
     7
 10
247.027385546285
 20
-6.54758104545648
 30
0.0
 11
246.506441116333
 21
-3.59315776824951
 31
0.0
  0
LINE
  5
   2DA
  8
0
  6
CONTINUOUS
 62
     7
 10
246.506441116333
 20
-3.59315776824951
 30
0.0
 11
245.985496686381
 21
-6.54758104545648
 31
0.0
  0
ENDBLK
  5
   2DB
  8
0
  6
CONTINUOUS
 62
     7
  0
BLOCK
  5
   2DC
  8
0
  6
CONTINUOUS
 62
     7
  2
*UDIM1125
 70
    65
 10
0.0
 20
0.0
 30
0.0
  3
*UDIM1125
  0
TEXT
  5
   2DD
  8
0
  6
CONTINUOUS
 62
     7
 10
246.685153149465
 20
-40.8705282105384
 30
0.0
 40
3.00000002980232
  1
121
 50
359.999999844103
 41
0.933333333333333
 72
     1
 11
250.585153192282
 21
-39.3705282062292
 31
0.0
 73
     2
  0
LINE
  5
   2DE
  8
0
  6
CONTINUOUS
 62
     7
 10
235.735153198242
 20
-22.2643664427836
 30
0.0
 11
235.735153198242
 21
-43.8705282211304
 31
0.0
  0
LINE
  5
   2DF
  8
0
  6
CONTINUOUS
 62
     7
 10
265.985153198242
 20
-5.34315776824951
 30
0.0
 11
265.985153198242
 21
-43.8705282211304
 31
0.0
  0
LINE
  5
   2E0
  8
0
  6
CONTINUOUS
 62
     7
 10
235.735153198242
 20
-41.8705282211304
 30
0.0
 11
265.985153198242
 21
-41.8705282211304
 31
0.0
  0
LINE
  5
   2E1
  8
0
  6
CONTINUOUS
 62
     7
 10
238.689576475449
 20
-41.3495837911787
 30
0.0
 11
235.735153198242
 21
-41.8705282211304
 31
0.0
  0
LINE
  5
   2E2
  8
0
  6
CONTINUOUS
 62
     7
 10
235.735153198242
 20
-41.8705282211304
 30
0.0
 11
238.689576475449
 21
-42.391472651082
 31
0.0
  0
LINE
  5
   2E3
  8
0
  6
CONTINUOUS
 62
     7
 10
263.030729921035
 20
-42.391472651082
 30
0.0
 11
265.985153198242
 21
-41.8705282211304
 31
0.0
  0
LINE
  5
   2E4
  8
0
  6
CONTINUOUS
 62
     7
 10
265.985153198242
 20
-41.8705282211304
 30
0.0
 11
263.030729921035
 21
-41.3495837911787
 31
0.0
  0
ENDBLK
  5
   2E5
  8
0
  6
CONTINUOUS
 62
     7
  0
BLOCK
  5
   2E6
  8
0
  6
CONTINUOUS
 62
     7
  2
*UDIM1126
 70
    65
 10
0.0
 20
0.0
 30
0.0
  3
*UDIM1126
  0
TEXT
  5
   2E7
  8
0
  6
CONTINUOUS
 62
     7
 10
270.561349363028
 20
-22.1802225045018
 30
0.0
 40
3.00000002980232
  1
16
 50
359.999999844103
 41
0.933333333333333
 72
     1
 11
273.061349391937
 21
-20.6802224963903
 31
0.0
 73
     2
  0
LINE
  5
   2E8
  8
0
  6
CONTINUOUS
 62
     7
 10
263.985153198242
 20
-2.59315776824951
 30
0.0
 11
263.985153198242
 21
-25.1802225112915
 31
0.0
  0
LINE
  5
   2E9
  8
0
  6
CONTINUOUS
 62
     7
 10
267.985153198242
 20
-2.59315776824951
 30
0.0
 11
267.985153198242
 21
-25.1802225112915
 31
0.0
  0
LINE
  5
   2EA
  8
0
  6
CONTINUOUS
 62
     7
 10
263.985153198242
 20
-23.1802225112915
 30
0.0
 11
275.561349416773
 21
-23.1802225112915
 31
0.0
  0
LINE
  5
   2EB
  8
0
  6
CONTINUOUS
 62
     7
 10
261.030729921035
 20
-23.7011669412432
 30
0.0
 11
263.985153198242
 21
-23.1802225112915
 31
0.0
  0
LINE
  5
   2EC
  8
0
  6
CONTINUOUS
 62
     7
 10
263.985153198242
 20
-23.1802225112915
 30
0.0
 11
261.030729921035
 21
-22.6592780813398
 31
0.0
  0
LINE
  5
   2ED
  8
0
  6
CONTINUOUS
 62
     7
 10
270.939576475449
 20
-22.6592780813398
 30
0.0
 11
267.985153198242
 21
-23.1802225112915
 31
0.0
  0
LINE
  5
   2EE
  8
0
  6
CONTINUOUS
 62
     7
 10
267.985153198242
 20
-23.1802225112915
 30
0.0
 11
270.939576475449
 21
-23.7011669412432
 31
0.0
  0
ENDBLK
  5
   2EF
  8
0
  6
CONTINUOUS
 62
     7
  0
BLOCK
  5
   2F0
  8
0
  6
CONTINUOUS
 62
     7
  2
*UDIM1127
 70
    65
 10
0.0
 20
0.0
 30
0.0
  3
*UDIM1127
  0
TEXT
  5
   2F1
  8
0
  6
CONTINUOUS
 62
     7
 10
233.697653121649
 20
-34.9382314500043
 30
0.0
 40
3.00000002980232
  1
162,5
 50
359.999999844103
 41
0.933333333333333
 72
     1
 11
240.397653192282
 21
-33.4382314532995
 31
0.0
 73
     2
  0
LINE
  5
   2F2
  8
0
  6
CONTINUOUS
 62
     7
 10
220.360153198242
 20
-16.3431577682495
 30
0.0
 11
220.360153198242
 21
-37.9382314682007
 31
0.0
  0
LINE
  5
   2F3
  8
0
  6
CONTINUOUS
 62
     7
 10
260.985153198242
 20
-16.3431577682495
 30
0.0
 11
260.985153198242
 21
-37.9382314682007
 31
0.0
  0
LINE
  5
   2F4
  8
0
  6
CONTINUOUS
 62
     7
 10
220.360153198242
 20
-35.9382314682007
 30
0.0
 11
260.985153198242
 21
-35.9382314682007
 31
0.0
  0
LINE
  5
   2F5
  8
0
  6
CONTINUOUS
 62
     7
 10
223.314576475449
 20
-35.417287038249
 30
0.0
 11
220.360153198242
 21
-35.9382314682007
 31
0.0
  0
LINE
  5
   2F6
  8
0
  6
CONTINUOUS
 62
     7
 10
220.360153198242
 20
-35.9382314682007
 30
0.0
 11
223.314576475449
 21
-36.4591758981523
 31
0.0
  0
LINE
  5
   2F7
  8
0
  6
CONTINUOUS
 62
     7
 10
258.030729921035
 20
-36.4591758981523
 30
0.0
 11
260.985153198242
 21
-35.9382314682007
 31
0.0
  0
LINE
  5
   2F8
  8
0
  6
CONTINUOUS
 62
     7
 10
260.985153198242
 20
-35.9382314682007
 30
0.0
 11
258.030729921035
 21
-35.417287038249
 31
0.0
  0
ENDBLK
  5
   2F9
  8
0
  6
CONTINUOUS
 62
     7
  0
BLOCK
  5
   2FA
  8
0
  6
CONTINUOUS
 62
     7
  2
*UDIM1128
 70
    65
 10
0.0
 20
0.0
 30
0.0
  3
*UDIM1128
  0
TEXT
  5
   2FB
  8
0
  6
CONTINUOUS
 62
     7
 10
244.185153149465
 20
-28.2912015808997
 30
0.0
 40
3.00000002980232
  1
101
 50
359.999999844103
 41
0.933333333333333
 72
     1
 11
248.085153192282
 21
-26.7912015765905
 31
0.0
 73
     2
  0
LINE
  5
   2FC
  8
0
  6
CONTINUOUS
 62
     7
 10
235.735153198242
 20
-22.2643664427836
 30
0.0
 11
235.735153198242
 21
-31.2912015914917
 31
0.0
  0
LINE
  5
   2FD
  8
0
  6
CONTINUOUS
 62
     7
 10
260.985153198242
 20
-16.3431577682495
 30
0.0
 11
260.985153198242
 21
-31.2912015914917
 31
0.0
  0
LINE
  5
   2FE
  8
0
  6
CONTINUOUS
 62
     7
 10
235.735153198242
 20
-29.2912015914917
 30
0.0
 11
260.985153198242
 21
-29.2912015914917
 31
0.0
  0
LINE
  5
   2FF
  8
0
  6
CONTINUOUS
 62
     7
 10
238.689576475449
 20
-28.77025716154
 30
0.0
 11
235.735153198242
 21
-29.2912015914917
 31
0.0
  0
LINE
  5
   300
  8
0
  6
CONTINUOUS
 62
     7
 10
235.735153198242
 20
-29.2912015914917
 30
0.0
 11
238.689576475449
 21
-29.8121460214434
 31
0.0
  0
LINE
  5
   301
  8
0
  6
CONTINUOUS
 62
     7
 10
258.030729921035
 20
-29.8121460214434
 30
0.0
 11
260.985153198242
 21
-29.2912015914917
 31
0.0
  0
LINE
  5
   302
  8
0
  6
CONTINUOUS
 62
     7
 10
260.985153198242
 20
-29.2912015914917
 30
0.0
 11
258.030729921035
 21
-28.77025716154
 31
0.0
  0
ENDBLK
  5
   303
  8
0
  6
CONTINUOUS
 62
     7
  0
BLOCK
  5
   304
  8
0
  6
CONTINUOUS
 62
     7
  2
*UDIM1129
 70
    65
 10
0.0
 20
0.0
 30
0.0
  3
*UDIM1129
  0
TEXT
  5
   305
  8
0
  6
CONTINUOUS
 62
     7
 10
218.88515350908
 20
-21.5012254533002
 30
0.0
 40
3.00000002980232
  1
19,75
 50
359.999999844103
 41
0.933333333333333
 72
     1
 11
225.585153579712
 21
-20.0012254565954
 31
0.0
 73
     2
  0
LINE
  5
   306
  8
0
  6
CONTINUOUS
 62
     7
 10
235.735153198242
 20
-22.2643664427836
 30
0.0
 11
235.735153198242
 21
-24.5012254714966
 31
0.0
  0
LINE
  5
   307
  8
0
  6
CONTINUOUS
 62
     7
 10
240.672653198242
 20
-16.3431577682495
 30
0.0
 11
240.672653198242
 21
-24.5012254714966
 31
0.0
  0
LINE
  5
   308
  8
0
  6
CONTINUOUS
 62
     7
 10
218.885153513153
 20
-22.5012254714966
 30
0.0
 11
240.672653198242
 21
-22.5012254714966
 31
0.0
  0
LINE
  5
   309
  8
0
  6
CONTINUOUS
 62
     7
 10
232.780729921035
 20
-23.0221699014482
 30
0.0
 11
235.735153198242
 21
-22.5012254714966
 31
0.0
  0
LINE
  5
   30A
  8
0
  6
CONTINUOUS
 62
     7
 10
235.735153198242
 20
-22.5012254714966
 30
0.0
 11
232.780729921035
 21
-21.9802810415449
 31
0.0
  0
LINE
  5
   30B
  8
0
  6
CONTINUOUS
 62
     7
 10
243.627076475449
 20
-21.9802810415449
 30
0.0
 11
240.672653198242
 21
-22.5012254714966
 31
0.0
  0
LINE
  5
   30C
  8
0
  6
CONTINUOUS
 62
     7
 10
240.672653198242
 20
-22.5012254714966
 30
0.0
 11
243.627076475449
 21
-23.0221699014482
 31
0.0
  0
ENDBLK
  5
   30D
  8
0
  6
CONTINUOUS
 62
     7
  0
BLOCK
  5
   30E
  8
0
  6
CONTINUOUS
 62
     7
  2
*UDIM1130
 70
    65
 10
0.0
 20
0.0
 30
0.0
  3
*UDIM1130
  0
TEXT
  5
   30F
  8
0
  6
CONTINUOUS
 62
     7
 10
230.435153149465
 20
50.8730707274499
 30
0.0
 40
3.00000002980232
  1
170
 50
359.999999844103
 41
0.933333333333333
 72
     1
 11
234.335153192282
 21
52.3730707317591
 31
0.0
 73
     2
  0
LINE
  5
   310
  8
0
  6
CONTINUOUS
 62
     7
 10
213.360153198242
 20
29.5318422317505
 30
0.0
 11
213.360153198242
 21
51.8730707168579
 31
0.0
  0
LINE
  5
   311
  8
0
  6
CONTINUOUS
 62
     7
 10
255.860153198242
 20
29.5318422317505
 30
0.0
 11
255.860153198242
 21
51.8730707168579
 31
0.0
  0
LINE
  5
   312
  8
0
  6
CONTINUOUS
 62
     7
 10
213.360153198242
 20
49.8730707168579
 30
0.0
 11
255.860153198242
 21
49.8730707168579
 31
0.0
  0
LINE
  5
   313
  8
0
  6
CONTINUOUS
 62
     7
 10
216.314576475449
 20
50.3940151468096
 30
0.0
 11
213.360153198242
 21
49.8730707168579
 31
0.0
  0
LINE
  5
   314
  8
0
  6
CONTINUOUS
 62
     7
 10
213.360153198242
 20
49.8730707168579
 30
0.0
 11
216.314576475449
 21
49.3521262869062
 31
0.0
  0
LINE
  5
   315
  8
0
  6
CONTINUOUS
 62
     7
 10
252.905729921035
 20
49.3521262869062
 30
0.0
 11
255.860153198242
 21
49.8730707168579
 31
0.0
  0
LINE
  5
   316
  8
0
  6
CONTINUOUS
 62
     7
 10
255.860153198242
 20
49.8730707168579
 30
0.0
 11
252.905729921035
 21
50.3940151468096
 31
0.0
  0
ENDBLK
  5
   317
  8
0
  6
CONTINUOUS
 62
     7
  0
BLOCK
  5
   318
  8
0
  6
CONTINUOUS
 62
     7
  2
*UDIM1131
 70
    65
 10
0.0
 20
0.0
 30
0.0
  3
*UDIM1131
  0
TEXT
  5
   319
  8
0
  6
CONTINUOUS
 62
     7
 10
240.222653135557
 20
45.2624063635763
 30
0.0
 40
3.00000002980232
  1
80,5
 50
359.999999844103
 41
0.933333333333333
 72
     1
 11
245.522653192282
 21
46.7624063640833
 31
0.0
 73
     2
  0
LINE
  5
   31A
  8
0
  6
CONTINUOUS
 62
     7
 10
235.735153198242
 20
40.4845401463703
 30
0.0
 11
235.735153198242
 21
46.2624063491821
 31
0.0
  0
LINE
  5
   31B
  8
0
  6
CONTINUOUS
 62
     7
 10
255.860153198242
 20
29.5318422317505
 30
0.0
 11
255.860153198242
 21
46.2624063491821
 31
0.0
  0
LINE
  5
   31C
  8
0
  6
CONTINUOUS
 62
     7
 10
235.735153198242
 20
44.2624063491821
 30
0.0
 11
255.860153198242
 21
44.2624063491821
 31
0.0
  0
LINE
  5
   31D
  8
0
  6
CONTINUOUS
 62
     7
 10
238.689576475449
 20
44.7833507791338
 30
0.0
 11
235.735153198242
 21
44.2624063491821
 31
0.0
  0
LINE
  5
   31E
  8
0
  6
CONTINUOUS
 62
     7
 10
235.735153198242
 20
44.2624063491821
 30
0.0
 11
238.689576475449
 21
43.7414619192305
 31
0.0
  0
LINE
  5
   31F
  8
0
  6
CONTINUOUS
 62
     7
 10
252.905729921035
 20
43.7414619192305
 30
0.0
 11
255.860153198242
 21
44.2624063491821
 31
0.0
  0
LINE
  5
   320
  8
0
  6
CONTINUOUS
 62
     7
 10
255.860153198242
 20
44.2624063491821
 30
0.0
 11
252.905729921035
 21
44.7833507791338
 31
0.0
  0
ENDBLK
  5
   321
  8
0
  6
CONTINUOUS
 62
     7
  0
BLOCK
  5
   322
  8
0
  6
CONTINUOUS
 62
     7
  2
*UDIM1132
 70
    65
 10
0.0
 20
0.0
 30
0.0
  3
*UDIM1132
  0
TEXT
  5
   323
  8
0
  6
CONTINUOUS
 62
     7
 10
238.589773477017
 20
39.8661603995509
 30
0.0
 40
3.00000002980232
  1
45
 50
359.999999844103
 41
0.933333333333333
 72
     1
 11
241.089773505926
 21
41.3661604076624
 31
0.0
 73
     2
  0
LINE
  5
   324
  8
0
  6
CONTINUOUS
 62
     7
 10
235.047653198242
 20
33.5768422317505
 30
0.0
 11
235.047653198242
 21
40.8661603927612
 31
0.0
  0
LINE
  5
   325
  8
0
  6
CONTINUOUS
 62
     7
 10
246.297653198242
 20
33.5768422317505
 30
0.0
 11
246.297653198242
 21
40.8661603927612
 31
0.0
  0
LINE
  5
   326
  8
0
  6
CONTINUOUS
 62
     7
 10
235.047653198242
 20
38.8661603927612
 30
0.0
 11
246.297653198242
 21
38.8661603927612
 31
0.0
  0
LINE
  5
   327
  8
0
  6
CONTINUOUS
 62
     7
 10
232.093229921035
 20
38.3452159628096
 30
0.0
 11
235.047653198242
 21
38.8661603927612
 31
0.0
  0
LINE
  5
   328
  8
0
  6
CONTINUOUS
 62
     7
 10
235.047653198242
 20
38.8661603927612
 30
0.0
 11
232.093229921035
 21
39.3871048227129
 31
0.0
  0
LINE
  5
   329
  8
0
  6
CONTINUOUS
 62
     7
 10
249.252076475449
 20
39.3871048227129
 30
0.0
 11
246.297653198242
 21
38.8661603927612
 31
0.0
  0
LINE
  5
   32A
  8
0
  6
CONTINUOUS
 62
     7
 10
246.297653198242
 20
38.8661603927612
 30
0.0
 11
249.252076475449
 21
38.3452159628096
 31
0.0
  0
ENDBLK
  5
   32B
  8
0
  6
CONTINUOUS
 62
     7
  0
BLOCK
  5
   32C
  8
0
  6
CONTINUOUS
 62
     7
  2
*HATCH253
 70
    65
 10
0.0
 20
0.0
 30
0.0
  3
*HATCH253
  0
LINE
  5
   32D
  8
0
  6
CONTINUOUS
 62
    52
 10
-11.7279224395752
 20
1.0
 30
0.0
 11
-11.9763488769531
 21
0.75157368183136
 31
0.0
  0
LINE
  5
   32E
  8
0
  6
CONTINUOUS
 62
    52
 10
-9.60660171508789
 20
1.0
 30
0.0
 11
-11.6066026687622
 21
-1.0
 31
0.0
  0
LINE
  5
   32F
  8
0
  6
CONTINUOUS
 62
    52
 10
-7.48528146743774
 20
1.0
 30
0.0
 11
-9.48528289794922
 21
-1.0
 31
0.0
  0
LINE
  5
   330
  8
0
  6
CONTINUOUS
 62
    52
 10
-5.3639612197876
 20
1.0
 30
0.0
 11
-7.36396265029907
 21
-1.0
 31
0.0
  0
LINE
  5
   331
  8
0
  6
CONTINUOUS
 62
    52
 10
-3.47947335243225
 20
0.763167560100555
 30
0.0
 11
-5.24264097213745
 21
-1.0
 31
0.0
  0
LINE
  5
   332
  8
0
  6
CONTINUOUS
 62
    52
 10
-2.51160907745361
 20
-0.390288293361664
 30
0.0
 11
-3.1213207244873
 21
-1.0
 31
0.0
  0
ENDBLK
  5
   333
  8
0
  6
CONTINUOUS
 62
     7
  0
BLOCK
  5
   334
  8
0
  6
CONTINUOUS
 62
     7
  2
*HATCH254
 70
    65
 10
0.0
 20
0.0
 30
0.0
  3
*HATCH254
  0
LINE
  5
   335
  8
0
  6
CONTINUOUS
 62
    52
 10
5.24264097213745
 20
1.0
 30
0.0
 11
3.24264073371887
 21
-1.0
 31
0.0
  0
LINE
  5
   336
  8
0
  6
CONTINUOUS
 62
    52
 10
7.3639612197876
 20
1.0
 30
0.0
 11
5.3639612197876
 21
-1.0
 31
0.0
  0
LINE
  5
   337
  8
0
  6
CONTINUOUS
 62
    52
 10
9.48528099060059
 20
1.0
 30
0.0
 11
7.4852819442749
 21
-1.0
 31
0.0
  0
ENDBLK
  5
   338
  8
0
  6
CONTINUOUS
 62
     7
  0
BLOCK
  5
   339
  8
0
  6
CONTINUOUS
 62
     7
  2
*UDIM1133
 70
    65
 10
0.0
 20
0.0
 30
0.0
  3
*UDIM1133
  0
TEXT
  5
   33A
  8
0
  6
CONTINUOUS
 62
     7
 10
87.5029504336579
 20
-160.774211956333
 30
0.0
 40
3.00000002980232
  1
80
 50
449.241125536518
 41
0.933333333333333
 72
     1
 11
86.0361931637231
 21
-158.254564504808
 31
0.0
 73
     2
  0
TEXT
  5
   33B
  8
0
  6
CONTINUOUS
 62
     7
 10
86.9692253993963
 20
-155.766703784886
 30
0.0
 40
3.00000002980232
  1
°
 50
449.241125536518
 41
0.933333333333334
 72
     1
 11
85.4839258702345
 21
-154.646933550679
 31
0.0
 73
     2
  0
LINE
  5
   33C
  8
0
  6
CONTINUOUS
 62
     7
 10
70.4405210666541
 20
-161.200671320283
 30
0.0
 11
84.6424882328846
 21
-173.117536731459
 31
0.0
  0
LINE
  5
   33D
  8
0
  6
CONTINUOUS
 62
     7
 10
70.4405210666541
 20
-152.558697576201
 30
0.0
 11
84.6424882328846
 21
-140.641832165025
 31
0.0
  0
ARC
  5
   33E
  8
0
  6
CONTINUOUS
 62
     7
 10
65.2909694383467
 20
-156.879684448242
 30
0.0
 40
23.2616136940404
 50
319.999999815233
 51
399.999999769042
  0
LINE
  5
   33F
  8
0
  6
CONTINUOUS
 62
     7
 10
84.6103994372666
 20
-169.233885353052
 30
0.0
 11
83.1103993466467
 21
-171.831961512086
 31
0.0
  0
LINE
  5
   340
  8
0
  6
CONTINUOUS
 62
     7
 10
83.1103993466467
 20
-171.831961512086
 30
0.0
 11
85.4085326087431
 21
-169.903598602868
 31
0.0
  0
LINE
  5
   341
  8
0
  6
CONTINUOUS
 62
     7
 10
85.4085326087431
 20
-143.855770293616
 30
0.0
 11
83.1103993466467
 21
-141.927407384398
 31
0.0
  0
LINE
  5
   342
  8
0
  6
CONTINUOUS
 62
     7
 10
83.1103993466467
 20
-141.927407384398
 30
0.0
 11
84.6103994372666
 21
-144.525483543432
 31
0.0
  0
ENDBLK
  5
   343
  8
0
  6
CONTINUOUS
 62
     7
  0
BLOCK
  5
   344
  8
0
  6
CONTINUOUS
 62
     7
  2
*UDIM1134
 70
    65
 10
0.0
 20
0.0
 30
0.0
  3
*UDIM1134
  0
TEXT
  5
   345
  8
0
  6
CONTINUOUS
 62
     7
 10
47.2288093499029
 20
-150.994617491065
 30
0.0
 40
3.00000002980232
  1
Ø4
 50
449.999999844103
 41
0.933333333333333
 72
     1
 11
45.7288093417883
 21
-148.494617462158
 31
0.0
 73
     2
  0
LINE
  5
   346
  8
0
  6
CONTINUOUS
 62
     7
 10
66.6744766235352
 20
-154.879684448242
 30
0.0
 11
46.2288093566895
 21
-154.879684448242
 31
0.0
  0
LINE
  5
   347
  8
0
  6
CONTINUOUS
 62
     7
 10
66.6744766235352
 20
-158.879684448242
 30
0.0
 11
46.2288093566895
 21
-158.879684448242
 31
0.0
  0
LINE
  5
   348
  8
0
  6
CONTINUOUS
 62
     7
 10
48.2288093566895
 20
-145.994617437323
 30
0.0
 11
48.2288093566895
 21
-158.879684448242
 31
0.0
  0
LINE
  5
   349
  8
0
  6
CONTINUOUS
 62
     7
 10
47.7078649267378
 20
-151.925261171035
 30
0.0
 11
48.2288093566895
 21
-154.879684448242
 31
0.0
  0
LINE
  5
   34A
  8
0
  6
CONTINUOUS
 62
     7
 10
48.2288093566895
 20
-154.879684448242
 30
0.0
 11
48.7497537866411
 21
-151.925261171035
 31
0.0
  0
LINE
  5
   34B
  8
0
  6
CONTINUOUS
 62
     7
 10
48.7497537866411
 20
-161.834107725449
 30
0.0
 11
48.2288093566895
 21
-158.879684448242
 31
0.0
  0
LINE
  5
   34C
  8
0
  6
CONTINUOUS
 62
     7
 10
48.2288093566895
 20
-158.879684448242
 30
0.0
 11
47.7078649267378
 21
-161.834107725449
 31
0.0
  0
ENDBLK
  5
   34D
  8
0
  6
CONTINUOUS
 62
     7
  0
ENDSEC
  0
SECTION
  2
ENTITIES
  0
LINE
  5
   34E
  8
0
  6
CONTINUOUS
 62
   130
 10
-6.13227401375798
 20
25.6168465375127
 30
0.0
 11
-45.7322562932968
 21
25.6168465375127
 31
0.0
  0
LINE
  5
   34F
  8
0
  6
CONTINUOUS
 62
     3
 10
-6.73228012621585
 20
-53.8431489244876
 30
0.0
 11
-7.13228010833446
 21
-53.8431489244876
 31
0.0
  0
LINE
  5
   350
  8
0
  6
CONTINUOUS
 62
     3
 10
-7.13228010833446
 20
-53.8431489244876
 30
0.0
 11
-24.9179126975798
 21
-53.8431489244876
 31
0.0
  0
LINE
  5
   351
  8
0
  6
CONTINUOUS
 62
     3
 10
-6.13227401375798
 20
24.356852622253
 30
0.0
 11
-37.9322622567431
 21
24.356852622253
 31
0.0
  0
LINE
  5
   352
  8
0
  6
CONTINUOUS
 62
     3
 10
-6.13228024443148
 20
-53.8431491788009
 30
0.0
 11
-6.73228025337217
 21
-53.8431491788009
 31
0.0
  0
LINE
  5
   353
  8
0
  6
CONTINUOUS
 62
     3
 10
-25.1322585281334
 20
-54.6431503401879
 30
0.0
 11
-24.9179030733167
 21
-53.8431507451029
 31
0.0
  0
LINE
  5
   354
  8
0
  6
CONTINUOUS
 62
     3
 10
-24.9322742939013
 20
-54.6431485549388
 30
0.0
 11
-37.9322561770692
 21
-54.6431485549388
 31
0.0
  0
LINE
  5
   355
  8
0
  6
CONTINUOUS
 62
     3
 10
-46.732256308198
 20
-54.6431668654859
 30
0.0
 11
-46.732256308198
 21
-53.2431571019831
 31
0.0
  0
LINE
  5
   356
  8
0
  6
CONTINUOUS
 62
     3
 10
-46.732256308198
 20
2.75685230038789
 30
0.0
 11
-46.732256308198
 21
15.7568280800401
 31
0.0
  0
LINE
  5
   357
  8
0
  6
CONTINUOUS
 62
     3
 10
-44.7322562783957
 20
15.7568280800401
 30
0.0
 11
-46.732256308198
 21
15.7568280800401
 31
0.0
  0
LINE
  5
   358
  8
0
  6
CONTINUOUS
 62
     3
 10
-43.5322505384683
 20
-54.6431668654859
 30
0.0
 11
-46.732256308198
 21
-54.6431668654859
 31
0.0
  0
LINE
  5
   359
  8
0
  6
CONTINUOUS
 62
     3
 10
-36.7322561591864
 20
2.75685230038789
 30
0.0
 11
-36.7322561591864
 21
14.8353066887449
 31
0.0
  0
LINE
  5
   35A
  8
0
  6
CONTINUOUS
 62
     3
 10
-36.7322557777642
 20
12.9568391629776
 30
0.0
 11
-36.7322553962945
 21
13.1568391659578
 31
0.0
  0
LINE
  5
   35B
  8
0
  6
CONTINUOUS
 62
     3
 10
-37.9322519515479
 20
24.3568603408957
 30
0.0
 11
-45.2122508393252
 21
24.3568603408957
 31
0.0
  0
LINE
  5
   35C
  8
0
  6
CONTINUOUS
 62
     3
 10
-37.9322561770678
 20
-54.6431485549388
 30
0.0
 11
-44.7322501748799
 21
-54.6431485549388
 31
0.0
  0
LINE
  5
   35D
  8
0
  6
CONTINUOUS
 62
     3
 10
-45.5322562903166
 20
15.7568280800401
 30
0.0
 11
-45.5322562903166
 21
15.9568341865361
 31
0.0
  0
LINE
  5
   35E
  8
0
  6
CONTINUOUS
 62
     3
 10
-37.9322561770678
 20
15.1568353087732
 30
0.0
 11
-37.9322561770678
 21
25.5568465366187
 31
0.0
  0
LINE
  5
   35F
  8
0
  6
CONTINUOUS
 62
     3
 10
-45.5322562903166
 20
15.9568341865361
 30
0.0
 11
-45.7322562932968
 21
15.9568341865361
 31
0.0
  0
LINE
  5
   360
  8
0
  6
CONTINUOUS
 62
     3
 10
-45.7322562932968
 20
15.9568341865361
 30
0.0
 11
-45.7322562932968
 21
25.6168465375127
 31
0.0
  0
LINE
  5
   361
  8
0
  6
CONTINUOUS
 62
     3
 10
-44.6122508112448
 20
15.9568275098785
 30
0.0
 11
-45.5322520464335
 21
15.9568336133941
 31
0.0
  0
LINE
  5
   362
  8
0
  6
CONTINUOUS
 62
     3
 10
-45.2122550648451
 20
15.9568219795046
 30
0.0
 11
-45.2122550648451
 21
24.3568343117058
 31
0.0
  0
LINE
  5
   363
  8
0
  6
CONTINUOUS
 62
     3
 10
-45.5322501868009
 20
15.7568402870716
 30
0.0
 11
-46.732256308198
 21
15.7568402870716
 31
0.0
  0
LINE
  5
   364
  8
0
  6
CONTINUOUS
 62
     3
 10
-44.7322562783957
 20
2.75685230038789
 30
0.0
 11
-44.7322562783957
 21
15.7568280800401
 31
0.0
  0
LINE
  5
   365
  8
0
  6
CONTINUOUS
 62
     3
 10
-36.732255323058
 20
14.8353017945017
 30
0.0
 11
-37.9322549378312
 21
15.1568349767268
 31
0.0
  0
LINE
  5
   366
  8
0
  6
CONTINUOUS
 62
     3
 10
-44.7322485049116
 20
12.4344674515987
 30
0.0
 11
-44.6122533926655
 21
12.4855538711759
 31
0.0
  0
LINE
  5
   367
  8
0
  6
CONTINUOUS
 62
     3
 10
-44.612259916749
 20
14.2281385318921
 30
0.0
 11
-44.7322550351891
 21
14.279218848284
 31
0.0
  0
LINE
  5
   368
  8
0
  6
CONTINUOUS
 62
     3
 10
-6.93227402567891
 20
-80.5231553492726
 30
0.0
 11
-44.612273366453
 21
-80.5231553492726
 31
0.0
  0
LINE
  5
   369
  8
0
  6
CONTINUOUS
 62
     2
 10
-6.93227402568039
 20
-81.6431550607858
 30
0.0
 11
-25.1272266893844
 21
-81.6431550607858
 31
0.0
  0
LINE
  5
   36A
  8
0
  6
CONTINUOUS
 62
     2
 10
-25.1272388964159
 20
-81.6431550607849
 30
0.0
 11
-45.7322746038454
 21
-81.6431550607849
 31
0.0
  0
LINE
  5
   36B
  8
0
  6
CONTINUOUS
 62
     3
 10
-6.13227401375946
 20
-54.043154649514
 30
0.0
 11
-24.9322742939013
 21
-54.043154649514
 31
0.0
  0
LINE
  5
   36C
  8
0
  6
CONTINUOUS
 62
     2
 10
-45.7322746038454
 20
-81.6431550607861
 30
0.0
 11
-45.7322746038454
 21
-72.0431610212506
 31
0.0
  0
LINE
  5
   36D
  8
0
  6
CONTINUOUS
 62
     2
 10
-44.6122748923319
 20
-72.0431610212507
 30
0.0
 11
-46.3322746127861
 21
-72.0431610212507
 31
0.0
  0
LINE
  5
   36E
  8
0
  6
CONTINUOUS
 62
     3
 10
-44.6122748923319
 20
-80.5231538233936
 30
0.0
 11
-44.6122748923319
 21
-72.0431610212507
 31
0.0
  0
LINE
  5
   36F
  8
0
  6
CONTINUOUS
 62
     3
 10
-24.9322742939013
 20
-54.6431607619704
 30
0.0
 11
-24.9322742939013
 21
-54.043154649514
 31
0.0
  0
LINE
  5
   370
  8
0
  6
CONTINUOUS
 62
     2
 10
-44.6122748923319
 20
-70.4431609974088
 30
0.0
 11
-44.6122748923319
 21
-54.8431546614347
 31
0.0
  0
LINE
  5
   371
  8
0
  6
CONTINUOUS
 62
     3
 10
-29.2322743579763
 20
-81.6431550607852
 30
0.0
 11
-29.2322743579763
 21
-80.5231553492717
 31
0.0
  0
LINE
  5
   372
  8
0
  6
CONTINUOUS
 62
     2
 10
-6.93227402568039
 20
-82.643155075687
 30
0.0
 11
-6.93227402568039
 21
-77.4431549982012
 31
0.0
  0
LINE
  5
   373
  8
0
  6
CONTINUOUS
 62
     3
 10
-29.137328067499
 20
-81.6431550607854
 30
0.0
 11
-29.137328067499
 21
-80.523156493681
 31
0.0
  0
LINE
  5
   374
  8
0
  6
CONTINUOUS
 62
     7
 10
-46.7322749239224
 20
-70.4431611913868
 30
0.0
 11
-46.7322749239224
 21
-54.8431609589287
 31
0.0
  0
LINE
  5
   375
  8
0
  6
CONTINUOUS
 62
     7
 10
-44.6122748923319
 20
-54.8431609589287
 30
0.0
 11
-46.7322749239224
 21
-54.8431609589287
 31
0.0
  0
LINE
  5
   376
  8
0
  6
CONTINUOUS
 62
     7
 10
-44.6122748923319
 20
-70.4431611913868
 30
0.0
 11
-46.7322749239224
 21
-70.4431611913868
 31
0.0
  0
LINE
  5
   377
  8
0
  6
CONTINUOUS
 62
     7
 10
-45.7322749090212
 20
-70.4431611913868
 30
0.0
 11
-45.7322749090212
 21
-54.8431609589287
 31
0.0
  0
LINE
  5
   378
  8
0
  6
CONTINUOUS
 62
     2
 10
-44.6122748923319
 20
-72.0431610212507
 30
0.0
 11
-44.6122748923319
 21
-70.4431609974088
 31
0.0
  0
LINE
  5
   379
  8
0
  6
CONTINUOUS
 62
     7
 10
-43.5322505384683
 20
-54.8431546614347
 30
0.0
 11
-43.5322505384683
 21
-53.2431546375929
 31
0.0
  0
LINE
  5
   37A
  8
0
  6
CONTINUOUS
 62
     7
 10
-43.5322505384683
 20
-54.8431546614347
 30
0.0
 11
-45.132250753045
 21
-54.8431546614347
 31
0.0
  0
LINE
  5
   37B
  8
0
  6
CONTINUOUS
 62
     7
 10
-6.13227401375798
 20
26.6168465524139
 30
0.0
 11
-46.732256308198
 21
26.6168465524139
 31
0.0
  0
LINE
  5
   37C
  8
0
  6
CONTINUOUS
 62
     7
 10
-46.732256308198
 20
16.156840293032
 30
0.0
 11
-46.732256308198
 21
26.6168465524139
 31
0.0
  0
LINE
  5
   37D
  8
0
  6
CONTINUOUS
 62
     7
 10
-6.93227402568039
 20
-82.643155075687
 30
0.0
 11
-46.7322746187466
 21
-82.643155075687
 31
0.0
  0
LINE
  5
   37E
  8
0
  6
CONTINUOUS
 62
     7
 10
-46.7322746187466
 20
-82.643155075687
 30
0.0
 11
-46.7322746187466
 21
-72.4431610272111
 31
0.0
  0
LINE
  5
   37F
  8
0
  6
CONTINUOUS
 62
     7
 10
-46.3322563022375
 20
16.156840293032
 30
0.0
 11
-46.732256308198
 21
16.156840293032
 31
0.0
  0
LINE
  5
   380
  8
0
  6
CONTINUOUS
 62
     7
 10
-46.3322563022375
 20
15.7568402870716
 30
0.0
 11
-46.3322563022375
 21
16.156840293032
 31
0.0
  0
LINE
  5
   381
  8
0
  6
CONTINUOUS
 62
     7
 10
-46.3322746127861
 20
-72.4431610272111
 30
0.0
 11
-46.7322746187466
 21
-72.4431610272111
 31
0.0
  0
LINE
  5
   382
  8
0
  6
CONTINUOUS
 62
     7
 10
-46.3322746127861
 20
-72.4431610272111
 30
0.0
 11
-46.3322746127861
 21
-72.0431610212507
 31
0.0
  0
LINE
  5
   383
  8
0
  6
CONTINUOUS
 62
     7
 10
-44.5322503626346
 20
-54.8431546614347
 30
0.0
 11
-46.1322507679462
 21
-54.8431546614347
 31
0.0
  0
LINE
  5
   384
  8
0
  6
CONTINUOUS
 62
     7
 10
-57.9322297730882
 20
-48.8431591459359
 30
0.0
 11
-57.9322503724545
 21
-47.2431484409416
 31
0.0
  0
LINE
  5
   385
  8
0
  6
CONTINUOUS
 62
     3
 10
-52.4527703102767
 20
-51.6431607156882
 30
0.0
 11
-52.3322506704193
 21
-51.6431591898093
 31
0.0
  0
LINE
  5
   386
  8
0
  6
CONTINUOUS
 62
     7
 10
-57.9322503723899
 20
-53.2431576865694
 30
0.0
 11
-57.9322305359638
 21
-51.6431637662433
 31
0.0
  0
LINE
  5
   387
  8
0
  6
CONTINUOUS
 62
     7
 10
-5.33227383544551
 20
-53.2432049557592
 30
0.0
 11
-6.13227384736643
 21
-53.2431546017546
 31
0.0
  0
LINE
  5
   388
  8
0
  6
CONTINUOUS
 62
     7
 10
-55.9322503417728
 20
-53.2431576893507
 30
0.0
 11
-8.13228014707586
 21
-53.2431546375928
 31
0.0
  0
LINE
  5
   389
  8
0
  6
CONTINUOUS
 62
     7
 10
12.0677384644746
 20
2.75685230038789
 30
0.0
 11
-5.33228010535277
 21
2.75685230038789
 31
0.0
  0
LINE
  5
   38A
  8
0
  6
CONTINUOUS
 62
     7
 10
12.067738464972
 20
-53.2432553455264
 30
0.0
 11
-5.3322740013396
 21
-53.2432049915227
 31
0.0
  0
LINE
  5
   38B
  8
0
  6
CONTINUOUS
 62
     7
 10
12.0677384645317
 20
-53.2432553455673
 30
0.0
 11
12.0677445680472
 21
-48.8431683049033
 31
0.0
  0
LINE
  5
   38C
  8
0
  6
CONTINUOUS
 62
     3
 10
-21.7322559356689
 20
-10.0431417868313
 30
0.0
 11
-57.9322503715753
 21
-10.0431417868313
 31
0.0
  0
LINE
  5
   38D
  8
0
  6
CONTINUOUS
 62
     3
 10
-21.7322559356689
 20
-22.0431602761923
 30
0.0
 11
-35.5322637706996
 21
-22.0431602761923
 31
0.0
  0
LINE
  5
   38E
  8
0
  6
CONTINUOUS
 62
     7
 10
-57.9322305351496
 20
-51.6431637690231
 30
0.0
 11
-57.9322297722101
 21
-48.8431591496631
 31
0.0
  0
LINE
  5
   38F
  8
0
  6
CONTINUOUS
 62
     7
 10
-5.33228010535277
 20
2.75685230038789
 30
0.0
 11
-57.9322503715753
 21
2.75685230038789
 31
0.0
  0
LINE
  5
   390
  8
0
  6
CONTINUOUS
 62
     7
 10
-57.9322503715753
 20
-10.0431417868313
 30
0.0
 11
-57.9322503715753
 21
2.75685230038789
 31
0.0
  0
LINE
  5
   391
  8
0
  6
CONTINUOUS
 62
     3
 10
-17.0322802795636
 20
-51.6431393549292
 30
0.0
 11
-6.93227402554612
 21
-51.6431210443822
 31
0.0
  0
LINE
  5
   392
  8
0
  6
CONTINUOUS
 62
     3
 10
-33.3822561092564
 20
-51.6431485102311
 30
0.0
 11
-18.6322803035271
 21
-51.6431393549579
 31
0.0
  0
LINE
  5
   393
  8
0
  6
CONTINUOUS
 62
     3
 10
-56.3322068601788
 20
-51.6431637690202
 30
0.0
 11
-34.9822553701648
 21
-51.6431500361101
 31
0.0
  0
LINE
  5
   394
  8
0
  6
CONTINUOUS
 62
     3
 10
-56.3322030454815
 20
-49.8431591645614
 30
0.0
 11
-34.9822546072253
 21
-49.8431454316509
 31
0.0
  0
LINE
  5
   395
  8
0
  6
CONTINUOUS
 62
     3
 10
-33.3822545833775
 20
-49.843143905772
 30
0.0
 11
-18.6322772517693
 21
-49.8431347504987
 31
0.0
  0
LINE
  5
   396
  8
0
  6
CONTINUOUS
 62
     3
 10
-17.0322772279237
 20
-49.84313322462
 30
0.0
 11
-6.93227402566416
 21
-49.8431271211043
 31
0.0
  0
LINE
  5
   397
  8
0
  6
CONTINUOUS
 62
     3
 10
-56.3322068601969
 20
-51.643163768968
 30
0.0
 11
-56.332203808439
 21
-49.8431591645091
 31
0.0
  0
LINE
  5
   398
  8
0
  6
CONTINUOUS
 62
     3
 10
-6.93227402567891
 20
-51.6431210444146
 30
0.0
 11
-6.93227402567891
 21
-49.8431271211082
 31
0.0
  0
LINE
  5
   399
  8
0
  6
CONTINUOUS
 62
     3
 10
-17.0322802796528
 20
-51.6431393548999
 30
0.0
 11
-17.0322772278949
 21
-49.8431255951675
 31
0.0
  0
LINE
  5
   39A
  8
0
  6
CONTINUOUS
 62
     3
 10
-18.632280303497
 20
-51.6431393549051
 30
0.0
 11
-18.6322772517391
 21
-49.8431271210516
 31
0.0
  0
LINE
  5
   39B
  8
0
  6
CONTINUOUS
 62
     3
 10
-33.3822561092625
 20
-51.6431485102198
 30
0.0
 11
-33.3822545833835
 21
-49.8431362763663
 31
0.0
  0
LINE
  5
   39C
  8
0
  6
CONTINUOUS
 62
     3
 10
-34.9822553701654
 20
-51.6431500361001
 30
0.0
 11
-34.9822538442865
 21
-49.8431362763676
 31
0.0
  0
LINE
  5
   39D
  8
0
  6
CONTINUOUS
 62
     7
 10
-43.5322505384683
 20
-54.8431546614347
 30
0.0
 11
-43.5322505384683
 21
-53.2431546375929
 31
0.0
  0
LINE
  5
   39E
  8
0
  6
CONTINUOUS
 62
     7
 10
-43.5322505384683
 20
-54.8431546614347
 30
0.0
 11
-45.132250753045
 21
-54.8431546614347
 31
0.0
  0
LINE
  5
   39F
  8
0
  6
CONTINUOUS
 62
     7
 10
-11.6322496816515
 20
-54.8431332991297
 30
0.0
 11
-11.6322496816515
 21
-53.2431607411086
 31
0.0
  0
LINE
  5
   3A0
  8
0
  6
CONTINUOUS
 62
     7
 10
-10.0322496578096
 20
-54.8431332991297
 30
0.0
 11
-10.0322496578096
 21
-53.2431607411086
 31
0.0
  0
LINE
  5
   3A1
  8
0
  6
CONTINUOUS
 62
     7
 10
-10.0322496578096
 20
-54.8431332991297
 30
0.0
 11
-11.6322496816515
 21
-54.8431332991297
 31
0.0
  0
LINE
  5
   3A2
  8
0
  6
CONTINUOUS
 62
     7
 10
-55.9322503417729
 20
-55.1431546659051
 30
0.0
 11
-55.9322503417729
 21
-54.1431546510039
 31
0.0
  0
LINE
  5
   3A3
  8
0
  6
CONTINUOUS
 62
     7
 10
-57.9322503715753
 20
-55.1431546659051
 30
0.0
 11
-57.9322503715753
 21
-53.2431576893507
 31
0.0
  0
LINE
  5
   3A4
  8
0
  6
CONTINUOUS
 62
     7
 10
-55.9322503417729
 20
-55.1431546659051
 30
0.0
 11
-57.9322503715753
 21
-55.1431546659051
 31
0.0
  0
LINE
  5
   3A5
  8
0
  6
CONTINUOUS
 62
     7
 10
-55.9322503417729
 20
-54.1431546510039
 30
0.0
 11
-55.9322503417729
 21
-53.2431546375929
 31
0.0
  0
LINE
  5
   3A6
  8
0
  6
CONTINUOUS
 62
     7
 10
-8.13228625059173
 20
-55.1431546659051
 30
0.0
 11
-8.13228625059173
 21
-54.1431546510039
 31
0.0
  0
LINE
  5
   3A7
  8
0
  6
CONTINUOUS
 62
     7
 10
-6.13228622078941
 20
-55.1431546659051
 30
0.0
 11
-8.13228625059173
 21
-55.1431546659051
 31
0.0
  0
LINE
  5
   3A8
  8
0
  6
CONTINUOUS
 62
     7
 10
-6.13228621993909
 20
-55.1431546652366
 30
0.0
 11
-6.13227401290757
 21
-53.2431546369244
 31
0.0
  0
LINE
  5
   3A9
  8
0
  6
CONTINUOUS
 62
     7
 10
-8.13228624969029
 20
-54.1431546502131
 30
0.0
 11
-8.13228014617458
 21
-53.2431607403177
 31
0.0
  0
LINE
  5
   3AA
  8
0
  6
CONTINUOUS
 62
     3
 10
-55.1322533292391
 20
-5.44313481612139
 30
0.0
 11
-56.3322533734812
 21
-4.24313477187928
 31
0.0
  0
LINE
  5
   3AB
  8
0
  6
CONTINUOUS
 62
     7
 10
-57.9322503715753
 20
-47.2431484446702
 30
0.0
 11
-57.9322503715753
 21
-22.0431511209188
 31
0.0
  0
LINE
  5
   3AC
  8
0
  6
CONTINUOUS
 62
     3
 10
-35.5322652965787
 20
-22.0431541726761
 30
0.0
 11
-57.9322503715755
 21
-22.0431511209183
 31
0.0
  0
LINE
  5
   3AD
  8
0
  6
CONTINUOUS
 62
     3
 10
-21.7322559356689
 20
-22.0431602761923
 30
0.0
 11
-21.7322559356689
 21
-10.0431417868313
 31
0.0
  0
LINE
  5
   3AE
  8
0
  6
CONTINUOUS
 62
     3
 10
-17.0322802796816
 20
-2.54314777857584
 30
0.0
 11
-6.93227402566416
 21
-2.54314167505997
 31
0.0
  0
LINE
  5
   3AF
  8
0
  6
CONTINUOUS
 62
     3
 10
-17.0322802796964
 20
-5.44314782180163
 30
0.0
 11
-17.0322802796964
 21
-2.54314777858826
 31
0.0
  0
LINE
  5
   3B0
  8
0
  6
CONTINUOUS
 62
     3
 10
-17.0322802796816
 20
-5.44314782178975
 30
0.0
 11
-6.93227402566416
 21
-5.44314171827389
 31
0.0
  0
LINE
  5
   3B1
  8
0
  6
CONTINUOUS
 62
     3
 10
-6.93227402567891
 20
-5.44314171828591
 30
0.0
 11
-6.93227402567891
 21
-2.54314167507255
 31
0.0
  0
LINE
  5
   3B2
  8
0
  6
CONTINUOUS
 62
     3
 10
-34.9822553701699
 20
-5.44314171828591
 30
0.0
 11
-34.9822553701699
 21
-2.54314167507255
 31
0.0
  0
LINE
  5
   3B3
  8
0
  6
CONTINUOUS
 62
     3
 10
-18.6322803035382
 20
-5.44314171828591
 30
0.0
 11
-34.9822561331093
 21
-5.44314171828591
 31
0.0
  0
LINE
  5
   3B4
  8
0
  6
CONTINUOUS
 62
     3
 10
-18.6322803035382
 20
-5.44314171828591
 30
0.0
 11
-18.6322803035382
 21
-2.54314167507255
 31
0.0
  0
LINE
  5
   3B5
  8
0
  6
CONTINUOUS
 62
     3
 10
-18.6322803035382
 20
-2.54314167507255
 30
0.0
 11
-34.9822561331093
 21
-2.54314167507255
 31
0.0
  0
LINE
  5
   3B6
  8
0
  6
CONTINUOUS
 62
     3
 10
-36.5822553940117
 20
-5.44314171828591
 30
0.0
 11
-56.3322495847939
 21
-5.44314171828591
 31
0.0
  0
LINE
  5
   3B7
  8
0
  6
CONTINUOUS
 62
     3
 10
-36.5822553940117
 20
-5.44314171828591
 30
0.0
 11
-36.5822553940117
 21
-2.54314167507255
 31
0.0
  0
LINE
  5
   3B8
  8
0
  6
CONTINUOUS
 62
     3
 10
-36.5822553940117
 20
-2.54314167507255
 30
0.0
 11
-56.3322495847939
 21
-2.54314167507255
 31
0.0
  0
LINE
  5
   3B9
  8
0
  6
CONTINUOUS
 62
     3
 10
-56.3322503477334
 20
-5.44314171828591
 30
0.0
 11
-56.3322503477334
 21
-2.54314167507255
 31
0.0
  0
LINE
  5
   3BA
  8
0
  6
CONTINUOUS
 62
     3
 10
-52.3322506695985
 20
-51.6431591913878
 30
0.0
 11
-52.3322506695985
 21
-49.8431500092921
 31
0.0
  0
LINE
  5
   3BB
  8
0
  6
CONTINUOUS
 62
     3
 10
-50.7322495013474
 20
-51.6431591913878
 30
0.0
 11
-50.7322495013474
 21
-49.8431484834132
 31
0.0
  0
LINE
  5
   3BC
  8
0
  6
CONTINUOUS
 62
     3
 10
-56.332093945144
 20
-51.6431744501735
 30
0.0
 11
-56.3320931822046
 21
-49.8431591645622
 31
0.0
  0
LINE
  5
   3BD
  8
0
  6
CONTINUOUS
 62
     7
 10
-57.9322503716524
 20
-53.2431790513925
 30
0.0
 11
-57.9322488457735
 21
-52.8431500537323
 31
0.0
  0
LINE
  5
   3BE
  8
0
  6
CONTINUOUS
 62
     7
 10
-5.33227704381598
 20
-53.2432049894911
 30
0.0
 11
-6.13227400397905
 21
-53.2431927824596
 31
0.0
  0
LINE
  5
   3BF
  8
0
  6
CONTINUOUS
 62
     7
 10
12.0677445679907
 20
-48.8431683049378
 30
0.0
 11
12.0677384644751
 21
2.75685077450927
 31
0.0
  0
LINE
  5
   3C0
  8
0
  6
CONTINUOUS
 62
     3
 10
-17.0114550840735
 20
-51.6431469843564
 30
0.0
 11
-17.0114550840735
 21
-49.8431332246239
 31
0.0
  0
LINE
  5
   3C1
  8
0
  6
CONTINUOUS
 62
     3
 10
-18.6327655330376
 20
-51.6431652949035
 30
0.0
 11
-18.6327655330376
 21
-49.8431347505028
 31
0.0
  0
LINE
  5
   3C2
  8
0
  6
CONTINUOUS
 62
     3
 10
-39.9322745174172
 20
-36.1431665898144
 30
0.0
 11
-45.3322501838206
 21
-36.1431665898144
 31
0.0
  0
LINE
  5
   3C3
  8
0
  6
CONTINUOUS
 62
     3
 10
-39.9322745174172
 20
-40.3431666523993
 30
0.0
 11
-45.3322501838206
 21
-40.3431666523993
 31
0.0
  0
LINE
  5
   3C4
  8
0
  6
CONTINUOUS
 62
     3
 10
-45.3322503745555
 20
-40.3431666523993
 30
0.0
 11
-45.3322503745555
 21
-36.1431665898144
 31
0.0
  0
LINE
  5
   3C5
  8
0
  6
CONTINUOUS
 62
     3
 10
-39.9322745174172
 20
-40.3431666523993
 30
0.0
 11
-39.9322745174172
 21
-36.1431665898144
 31
0.0
  0
LINE
  5
   3C6
  8
0
  6
CONTINUOUS
 62
     3
 10
1.26772609651061
 20
30.9568274413516
 30
0.0
 11
1.26772609651061
 21
47.9568224563418
 31
0.0
  0
LINE
  5
   3C7
  8
0
  6
CONTINUOUS
 62
     3
 10
1.26772609651061
 20
47.9568224563418
 30
0.0
 11
-0.732273933291708
 21
47.9568224563418
 31
0.0
  0
LINE
  5
   3C8
  8
0
  6
CONTINUOUS
 62
   210
 10
-0.732273933291708
 20
47.9568224563418
 30
0.0
 11
-2.73227396309403
 21
47.9568224563418
 31
0.0
  0
LINE
  5
   3C9
  8
0
  6
CONTINUOUS
 62
   210
 10
-2.73227396309403
 20
30.9568274413516
 30
0.0
 11
-2.73227396309403
 21
47.9568224563418
 31
0.0
  0
LINE
  5
   3CA
  8
0
  6
CONTINUOUS
 62
   210
 10
-0.732273933291708
 20
30.9568274413516
 30
0.0
 11
-0.732273933291708
 21
47.9568224563418
 31
0.0
  0
LINE
  5
   3CB
  8
0
  6
CONTINUOUS
 62
   130
 10
-50.9322601854802
 20
5.75685234509137
 30
0.0
 11
-62.3322611182929
 21
5.75685234509137
 31
0.0
  0
LINE
  5
   3CC
  8
0
  6
CONTINUOUS
 62
   130
 10
-50.9322601854802
 20
4.55685232720998
 30
0.0
 11
-50.9322601854802
 21
5.75685234509137
 31
0.0
  0
LINE
  5
   3CD
  8
0
  6
CONTINUOUS
 62
   130
 10
-50.9322601854802
 20
2.75685230038789
 30
0.0
 11
-50.9322601854802
 21
4.55685232720998
 31
0.0
  0
LINE
  5
   3CE
  8
0
  6
CONTINUOUS
 62
     3
 10
-50.9322601854802
 20
-50.2431469634947
 30
0.0
 11
-50.9322601854802
 21
-49.8431561128078
 31
0.0
  0
LINE
  5
   3CF
  8
0
  6
CONTINUOUS
 62
     3
 10
-50.9322601854802
 20
-50.2431469634947
 30
0.0
 11
-52.3322506695985
 21
-50.2431469634947
 31
0.0
  0
LINE
  5
   3D0
  8
0
  6
CONTINUOUS
 62
   130
 10
-57.9322297722097
 20
-50.2431469634947
 30
0.0
 11
-62.3322626441718
 21
-50.2431469634947
 31
0.0
  0
LINE
  5
   3D1
  8
0
  6
CONTINUOUS
 62
   130
 10
-64.5322611510754
 20
4.95685233317045
 30
0.0
 11
-64.5322611510754
 21
5.75685234509137
 31
0.0
  0
LINE
  5
   3D2
  8
0
  6
CONTINUOUS
 62
     3
 10
-50.7322495013474
 20
-50.2431484893737
 30
0.0
 11
-50.9322601854802
 21
-50.2431484893737
 31
0.0
  0
LINE
  5
   3D3
  8
0
  6
CONTINUOUS
 62
     2
 10
-46.7322603136302
 20
5.75685234509137
 30
0.0
 11
-50.932260376215
 21
5.75685234509137
 31
0.0
  0
LINE
  5
   3D4
  8
0
  6
CONTINUOUS
 62
     3
 10
-55.1322030276059
 20
-51.6431530878682
 30
0.0
 11
-55.1322037905454
 21
-49.8431515351672
 31
0.0
  0
LINE
  5
   3D5
  8
0
  6
CONTINUOUS
 62
     3
 10
-6.93227402567891
 20
-4.84314170934522
 30
0.0
 11
-17.0322741761806
 21
-4.84314170934522
 31
0.0
  0
LINE
  5
   3D6
  8
0
  6
CONTINUOUS
 62
     3
 10
-18.6322772517804
 20
-4.84314170934522
 30
0.0
 11
-34.9822515554725
 21
-4.84314170934522
 31
0.0
  0
LINE
  5
   3D7
  8
0
  6
CONTINUOUS
 62
     3
 10
-36.5822515793144
 20
-4.84314170934522
 30
0.0
 11
-55.132250329852
 21
-4.84314170934522
 31
0.0
  0
LINE
  5
   3D8
  8
0
  6
CONTINUOUS
 62
     3
 10
-55.432248893369
 20
-5.14313528177888
 30
0.0
 11
-55.1322488823085
 21
-4.84313527071835
 31
0.0
  0
LINE
  5
   3D9
  8
0
  6
CONTINUOUS
 62
     3
 10
-55.132250329852
 20
-4.84314170934522
 30
0.0
 11
-55.132250329852
 21
-2.54314167507255
 31
0.0
  0
LINE
  5
   3DA
  8
0
  6
CONTINUOUS
 62
     3
 10
-44.3322503596543
 20
-39.2931666367531
 30
0.0
 11
-44.3322503596543
 21
-38.78668774737
 31
0.0
  0
LINE
  5
   3DB
  8
0
  6
CONTINUOUS
 62
     3
 10
-44.3322503596543
 20
-38.78668774737
 30
0.0
 11
-44.3322503596543
 21
-38.2431666211069
 31
0.0
  0
LINE
  5
   3DC
  8
0
  6
CONTINUOUS
 62
     3
 10
-44.3322503596543
 20
-38.2431666211069
 30
0.0
 11
-44.3322503596543
 21
-37.6996454948437
 31
0.0
  0
LINE
  5
   3DD
  8
0
  6
CONTINUOUS
 62
     3
 10
-44.3322503596543
 20
-37.6996454948437
 30
0.0
 11
-44.3322503596543
 21
-37.1931666054607
 31
0.0
  0
LINE
  5
   3DE
  8
0
  6
CONTINUOUS
 62
     3
 10
-44.3322503596543
 20
-37.1931666054607
 30
0.0
 11
-44.3322503596543
 21
-36.7582422825735
 31
0.0
  0
LINE
  5
   3DF
  8
0
  6
CONTINUOUS
 62
     3
 10
-44.3322503596543
 20
-36.7582422825735
 30
0.0
 11
-44.3322503596543
 21
-36.4245142502568
 31
0.0
  0
LINE
  5
   3E0
  8
0
  6
CONTINUOUS
 62
     3
 10
-44.3322503596543
 20
-36.4245142502568
 30
0.0
 11
-44.3322503596543
 21
-36.2147211563104
 31
0.0
  0
LINE
  5
   3E1
  8
0
  6
CONTINUOUS
 62
     3
 10
-44.3322503596543
 20
-36.2147211563104
 30
0.0
 11
-44.3322503596543
 21
-36.1431665898144
 31
0.0
  0
LINE
  5
   3E2
  8
0
  6
CONTINUOUS
 62
     3
 10
-44.3322503596543
 20
-40.3431666523993
 30
0.0
 11
-44.3322503596543
 21
-40.2716120859034
 31
0.0
  0
LINE
  5
   3E3
  8
0
  6
CONTINUOUS
 62
     3
 10
-44.3322503596543
 20
-40.2716120859034
 30
0.0
 11
-44.3322503596543
 21
-40.0618189919569
 31
0.0
  0
LINE
  5
   3E4
  8
0
  6
CONTINUOUS
 62
     3
 10
-44.3322503596543
 20
-40.0618189919569
 30
0.0
 11
-44.3322503596543
 21
-39.7280909596402
 31
0.0
  0
LINE
  5
   3E5
  8
0
  6
CONTINUOUS
 62
     3
 10
-44.3322503596543
 20
-39.7280909596402
 30
0.0
 11
-44.3322503596543
 21
-39.2931666367531
 31
0.0
  0
LINE
  5
   3E6
  8
0
  6
CONTINUOUS
 62
     7
 10
-57.9322503715763
 20
-22.0431511209185
 30
0.0
 11
-57.9322503715763
 21
-10.0431417868314
 31
0.0
  0
LINE
  5
   3E7
  8
0
  6
CONTINUOUS
 62
     7
 10
-64.5322611510754
 20
0.956852273565801
 30
0.0
 11
-64.5322611510754
 21
4.95685233317045
 31
0.0
  0
CIRCLE
  5
   3E8
  8
0
  6
CONTINUOUS
 62
     7
 10
-53.1322815733661
 20
-28.043165953645
 30
0.0
 40
3.99999921832849
  0
CIRCLE
  5
   3E9
  8
0
  6
CONTINUOUS
 62
     7
 10
-53.1322817451512
 20
-28.0431662438272
 30
0.0
 40
1.10000062166348
  0
CIRCLE
  5
   3EA
  8
0
  6
CONTINUOUS
 62
     7
 10
3.86772452703088
 20
-6.44313286190103
 30
0.0
 40
2.40000144259524
  0
CIRCLE
  5
   3EB
  8
0
  6
CONTINUOUS
 62
     7
 10
3.8677274926749
 20
-6.44313679093963
 30
0.0
 40
1.29999766718255
  0
CIRCLE
  5
   3EC
  8
0
  6
CONTINUOUS
 62
     7
 10
3.86772454842728
 20
-46.4431518370618
 30
0.0
 40
2.40000196609263
  0
CIRCLE
  5
   3ED
  8
0
  6
CONTINUOUS
 62
     7
 10
3.8677224604797
 20
-46.4431498157084
 30
0.0
 40
1.29999948411076
  0
LINE
  5
   3EE
  8
0
  6
DASHDOT
 62
     7
 10
3.86772454842728
 20
-49.2431538091149
 30
0.0
 11
3.86772454842728
 21
-43.6431498650087
 31
0.0
  0
LINE
  5
   3EF
  8
0
  6
DASHDOT
 62
     7
 10
6.66772652048037
 20
-46.4431518370618
 30
0.0
 11
1.06772257637417
 21
-46.4431518370618
 31
0.0
  0
LINE
  5
   3F0
  8
0
  6
DASHDOT
 62
     7
 10
3.86772452703088
 20
-9.24313431045673
 30
0.0
 11
3.86772452703088
 21
-3.64313141334533
 31
0.0
  0
LINE
  5
   3F1
  8
0
  6
DASHDOT
 62
     7
 10
6.66772597558658
 20
-6.44313286190103
 30
0.0
 11
1.06772307847518
 21
-6.44313286190103
 31
0.0
  0
LINE
  5
   3F2
  8
0
  6
DASHDOT
 62
     7
 10
-53.1322815733661
 20
-32.443165177934
 30
0.0
 11
-53.1322815733661
 21
-23.6431667293561
 31
0.0
  0
LINE
  5
   3F3
  8
0
  6
DASHDOT
 62
     7
 10
-48.7322823490772
 20
-28.043165953645
 30
0.0
 11
-57.5322807976551
 21
-28.043165953645
 31
0.0
  0
LINE
  5
   3F4
  8
0
  6
CONTINUOUS
 62
     3
 10
-27.7322560250759
 20
-22.0431602761924
 30
0.0
 11
-27.7322560250759
 21
-10.0431417868313
 31
0.0
  0
LINE
  5
   3F5
  8
0
  6
CONTINUOUS
 62
   210
 10
-2.73227396309403
 20
-104.043106566446
 30
0.0
 11
-2.73227396309403
 21
-87.0431551412521
 31
0.0
  0
LINE
  5
   3F6
  8
0
  6
CONTINUOUS
 62
   210
 10
-0.732273933291708
 20
-104.043106566446
 30
0.0
 11
-0.732273933291708
 21
-87.0431551412521
 31
0.0
  0
LINE
  5
   3F7
  8
0
  6
CONTINUOUS
 62
     3
 10
1.26772609651061
 20
-104.043106566446
 30
0.0
 11
1.26772609651061
 21
-87.0431551412521
 31
0.0
  0
LINE
  5
   3F8
  8
0
  6
CONTINUOUS
 62
     3
 10
1.26772609651061
 20
-104.043106566446
 30
0.0
 11
-0.732273933291708
 21
-104.043106566446
 31
0.0
  0
LINE
  5
   3F9
  8
0
  6
CONTINUOUS
 62
   210
 10
-0.732273933291708
 20
-104.043106566446
 30
0.0
 11
-2.73227396309403
 21
-104.043106566446
 31
0.0
  0
LINE
  5
   3FA
  8
0
  6
DASHDOT
 62
     2
 10
26.7287353032256
 20
-22.2431465462622
 30
0.0
 11
-72.5262605056493
 21
-22.2431465462622
 31
0.0
  0
LINE
  5
   3FB
  8
0
  6
DASHDOT
 62
     2
 10
22.5824689476085
 20
-4.04314780094001
 30
0.0
 11
8.80128257185518
 21
-4.04314780094001
 31
0.0
  0
LINE
  5
   3FC
  8
0
  6
DASHDOT
 62
     2
 10
22.7078760294096
 20
-52.0431454644379
 30
0.0
 11
8.80128257185518
 21
-52.0431454644379
 31
0.0
  0
LINE
  5
   3FD
  8
0
  6
DASHDOT
 62
     2
 10
23.0098788711101
 20
-28.0431481585679
 30
0.0
 11
4.8003059966137
 21
-28.0431481585679
 31
0.0
  0
LINE
  5
   3FE
  8
0
  6
DOT
 62
     7
 10
13.667726281285
 20
-97.6062414349886
 30
0.0
 11
13.667726281285
 21
41.7740963088045
 31
0.0
  0
LINE
  5
   3FF
  8
0
  6
DOT
 62
     7
 10
14.8677262991664
 20
-98.6969763306919
 30
0.0
 11
14.8677262991664
 21
44.1892950064332
 31
0.0
  0
LINE
  5
   400
  8
0
  6
CONTINUOUS
 62
     7
 10
18.0677263468501
 20
-1.16714775808427
 30
0.0
 11
14.8677262991664
 21
-1.16714775808427
 31
0.0
  0
LINE
  5
   401
  8
0
  6
CONTINUOUS
 62
     7
 10
18.0677263468501
 20
-6.91914784379574
 30
0.0
 11
14.8677262991664
 21
-6.91914784379574
 31
0.0
  0
LINE
  5
   402
  8
0
  6
CONTINUOUS
 62
     7
 10
18.0677263468501
 20
-6.91914784379574
 30
0.0
 11
18.0677263468501
 21
-1.16714775808427
 31
0.0
  0
LINE
  5
   403
  8
0
  6
CONTINUOUS
 62
     7
 10
18.0677263468501
 20
-54.9191485590515
 30
0.0
 11
18.0677263468501
 21
-49.16714847334
 31
0.0
  0
LINE
  5
   404
  8
0
  6
CONTINUOUS
 62
     7
 10
18.0677263468501
 20
-54.9191485590515
 30
0.0
 11
14.8677262991664
 21
-54.9191485590515
 31
0.0
  0
LINE
  5
   405
  8
0
  6
CONTINUOUS
 62
     7
 10
18.0677263468501
 20
-49.16714847334
 30
0.0
 11
14.8677262991664
 21
-49.16714847334
 31
0.0
  0
LINE
  5
   406
  8
0
  6
DASHDOT
 62
     2
 10
6.95082877512222
 20
40.9568543954912
 30
0.0
 11
-9.11673146323498
 21
40.9568543954912
 31
0.0
  0
LINE
  5
   407
  8
0
  6
DASHDOT
 62
     2
 10
6.95082877512222
 20
-97.0431476608691
 30
0.0
 11
-9.82144901754891
 21
-97.0431476608691
 31
0.0
  0
LINE
  5
   408
  8
0
  6
CONTINUOUS
 62
     7
 10
-62.3322626441718
 20
-81.5241683325901
 30
0.0
 11
-62.3322626441718
 21
-58.8431470916447
 31
0.0
  0
LINE
  5
   409
  8
0
  6
CONTINUOUS
 62
     7
 10
-63.1322626560927
 20
-81.6907986513218
 30
0.0
 11
-63.1322626560927
 21
-43.2430926904846
 31
0.0
  0
LINE
  5
   40A
  8
0
  6
CONTINUOUS
 62
     7
 10
-60.4895195769256
 20
24.9003782933791
 30
0.0
 11
-64.1033551088076
 21
25.8912686811533
 31
0.0
  0
LINE
  5
   40B
  8
0
  6
CONTINUOUS
 62
     7
 10
-63.1322626560927
 20
-1.24307222820977
 30
0.0
 11
-63.1322626560927
 21
25.6250013957314
 31
0.0
  0
LINE
  5
   40C
  8
0
  6
CONTINUOUS
 62
     7
 10
-59.1322610706092
 20
-40.8430667147801
 30
0.0
 11
-59.1322610706092
 21
-35.6431490347562
 31
0.0
  0
LINE
  5
   40D
  8
0
  6
CONTINUOUS
 62
     1
 10
-63.1322611302138
 20
-61.4431471303877
 30
0.0
 11
-63.1322611302138
 21
16.9568540378633
 31
0.0
  0
LINE
  5
   40E
  8
0
  6
CONTINUOUS
 62
     1
 10
-64.5322611510754
 20
-61.4431471303877
 30
0.0
 11
-64.5322611510754
 21
-41.2431491182027
 31
0.0
  0
LINE
  5
   40F
  8
0
  6
CONTINUOUS
 62
     1
 10
-64.5322611510754
 20
-29.7431489468393
 30
0.0
 11
-64.5322611510754
 21
16.9568540378633
 31
0.0
  0
LINE
  5
   410
  8
0
  6
CONTINUOUS
 62
     7
 10
-62.3322611182929
 20
-35.6431490347562
 30
0.0
 11
-62.3322611182929
 21
-23.4431427494463
 31
0.0
  0
LINE
  5
   411
  8
0
  6
CONTINUOUS
 62
     7
 10
-60.5322610914708
 20
12.1877926875019
 30
0.0
 11
-60.5322610914708
 21
14.1259152749759
 31
0.0
  0
LINE
  5
   412
  8
0
  6
CONTINUOUS
 62
     7
 10
-60.5322610914708
 20
-23.2122070770598
 30
0.0
 11
-60.5322610914708
 21
-21.2740875413436
 31
0.0
  0
LINE
  5
   413
  8
0
  6
CONTINUOUS
 62
     7
 10
-64.132261145115
 20
-41.2431491182027
 30
0.0
 11
-64.5322611510754
 21
-41.2431491182027
 31
0.0
  0
LINE
  5
   414
  8
0
  6
CONTINUOUS
 62
     7
 10
-64.132261145115
 20
-42.8431491420445
 30
0.0
 11
-64.132261145115
 21
-41.2431491182027
 31
0.0
  0
LINE
  5
   415
  8
0
  6
CONTINUOUS
 62
     7
 10
-63.7322611391545
 20
-42.8431491420445
 30
0.0
 11
-64.132261145115
 21
-42.8431491420445
 31
0.0
  0
LINE
  5
   416
  8
0
  6
CONTINUOUS
 62
     7
 10
-63.7322611391545
 20
-42.8431491420445
 30
0.0
 11
-63.7322611391545
 21
-33.6431490049539
 31
0.0
  0
LINE
  5
   417
  8
0
  6
CONTINUOUS
 62
     7
 10
-63.7322611391545
 20
-33.6431490049538
 30
0.0
 11
-64.132261145115
 21
-33.6431490049538
 31
0.0
  0
LINE
  5
   418
  8
0
  6
CONTINUOUS
 62
     7
 10
-64.132261145115
 20
-35.2431490287957
 30
0.0
 11
-64.132261145115
 21
-33.6431490049539
 31
0.0
  0
LINE
  5
   419
  8
0
  6
CONTINUOUS
 62
     7
 10
-64.132261145115
 20
-35.2431490287957
 30
0.0
 11
-64.5322611510754
 21
-35.2431490287957
 31
0.0
  0
LINE
  5
   41A
  8
0
  6
CONTINUOUS
 62
     7
 10
-59.1322610706092
 20
-40.84306671478
 30
0.0
 11
-63.1322611302138
 21
-40.84306671478
 31
0.0
  0
LINE
  5
   41B
  8
0
  6
CONTINUOUS
 62
     7
 10
-59.1322610706092
 20
-35.6431490347562
 30
0.0
 11
-63.1322611302138
 21
-35.6431490347562
 31
0.0
  0
LINE
  5
   41C
  8
0
  6
CONTINUOUS
 62
     1
 10
-64.5322611510754
 20
-35.2431490287957
 30
0.0
 11
-64.5322611510754
 21
-29.7431458950815
 31
0.0
  0
LINE
  5
   41D
  8
0
  6
CONTINUOUS
 62
     7
 10
-60.9322610974313
 20
11.9568539633575
 30
0.0
 11
-63.1322611302138
 21
11.9568539633575
 31
0.0
  0
LINE
  5
   41E
  8
0
  6
CONTINUOUS
 62
     7
 10
-60.9322610974313
 20
14.3568539991203
 30
0.0
 11
-63.1322611302138
 21
14.3568539991203
 31
0.0
  0
LINE
  5
   41F
  8
0
  6
CONTINUOUS
 62
     7
 10
-60.9322610974313
 20
11.9568531471995
 30
0.0
 11
-60.9322610974313
 21
14.3568533203244
 31
0.0
  0
LINE
  5
   420
  8
0
  6
CONTINUOUS
 62
     7
 10
-60.9322611699968
 20
11.9568531053041
 30
0.0
 11
-60.5322611508656
 21
12.1877918323439
 31
0.0
  0
LINE
  5
   421
  8
0
  6
CONTINUOUS
 62
     7
 10
-60.5322605035333
 20
14.1259142614449
 30
0.0
 11
-60.9322605226645
 21
14.3568529884847
 31
0.0
  0
LINE
  5
   422
  8
0
  6
CONTINUOUS
 62
     7
 10
-60.9322610974313
 20
-23.4431458012041
 30
0.0
 11
-63.1322611302138
 21
-23.4431458012041
 31
0.0
  0
LINE
  5
   423
  8
0
  6
CONTINUOUS
 62
     7
 10
-60.9322610974313
 20
-21.0431457654414
 30
0.0
 11
-63.1322611302138
 21
-21.0431457654414
 31
0.0
  0
LINE
  5
   424
  8
0
  6
CONTINUOUS
 62
     7
 10
-60.9322610974313
 20
-23.4431458012041
 30
0.0
 11
-60.9322610974313
 21
-21.0431457654414
 31
0.0
  0
LINE
  5
   425
  8
0
  6
CONTINUOUS
 62
     7
 10
-60.9322610430246
 20
-23.4431462927202
 30
0.0
 11
-60.5322610238934
 21
-23.2122075656804
 31
0.0
  0
LINE
  5
   426
  8
0
  6
CONTINUOUS
 62
     7
 10
-60.5322604516314
 20
-21.2740884418187
 30
0.0
 11
-60.9322604707622
 21
-21.0431466668315
 31
0.0
  0
LINE
  5
   427
  8
0
  6
CONTINUOUS
 62
     7
 10
-62.3322626441718
 20
-56.4431470558819
 30
0.0
 11
-62.3322626441718
 21
-40.84306671478
 31
0.0
  0
LINE
  5
   428
  8
0
  6
CONTINUOUS
 62
     7
 10
-62.3322611182929
 20
-41.2430667207405
 30
0.0
 11
-63.1322611302138
 21
-41.2430667207405
 31
0.0
  0
LINE
  5
   429
  8
0
  6
CONTINUOUS
 62
     7
 10
-62.3322611182929
 20
-35.2431490287957
 30
0.0
 11
-63.1322611302138
 21
-35.2431490287957
 31
0.0
  0
LINE
  5
   42A
  8
0
  6
CONTINUOUS
 62
     7
 10
-62.3322611182929
 20
-20.8431457624611
 30
0.0
 11
-63.1322611302138
 21
-20.8431457624611
 31
0.0
  0
LINE
  5
   42B
  8
0
  6
CONTINUOUS
 62
     7
 10
-62.3322611182929
 20
-23.6431458041844
 30
0.0
 11
-63.1322611302138
 21
-23.6431458041844
 31
0.0
  0
LINE
  5
   42C
  8
0
  6
CONTINUOUS
 62
     7
 10
-62.3322626441718
 20
-21.0431457654414
 30
0.0
 11
-62.3322626441718
 21
11.9568539633575
 31
0.0
  0
LINE
  5
   42D
  8
0
  6
CONTINUOUS
 62
     7
 10
-62.3322626441718
 20
14.5568540021005
 30
0.0
 11
-63.1322611302138
 21
14.5568540021005
 31
0.0
  0
LINE
  5
   42E
  8
0
  6
CONTINUOUS
 62
     7
 10
-62.3322626441718
 20
11.7568539603773
 30
0.0
 11
-63.1322611302138
 21
11.7568539603773
 31
0.0
  0
LINE
  5
   42F
  8
0
  6
CONTINUOUS
 62
   130
 10
-64.5322611510754
 20
-41.2431491182027
 30
0.0
 11
-64.5322611510754
 21
-35.2431490287957
 31
0.0
  0
LINE
  5
   430
  8
0
  6
CONTINUOUS
 62
     7
 10
-65.7044263877926
 20
-82.2265492213923
 30
0.0
 11
-59.7279768536193
 21
-80.9817271264881
 31
0.0
  0
CIRCLE
  5
   431
  8
0
  6
CONTINUOUS
 62
     7
 10
-24.9517419428296
 20
-149.272108106047
 30
0.0
 40
0.160000002384186
  0
INSERT
  5
   432
  8
255
  6
CONTINUOUS
 62
     7
  2
BASETT
 10
-6.13227401375798
 20
-87.0431551412521
 30
0.0
 41
0.400000005960464
 42
0.400000005960464
 50
359.999999792138
 43
0.400000005960464
  0
LINE
  5
   433
  8
0
  6
DOT
 62
     7
 10
23.0098788711101
 20
0.956852273565801
 30
0.0
 11
15.4677263081071
 21
0.956852273565801
 31
0.0
  0
LINE
  5
   434
  8
0
  6
DOT
 62
     7
 10
23.0098788711101
 20
-0.243147744315593
 30
0.0
 11
15.4677263081071
 21
-0.243147744315593
 31
0.0
  0
LINE
  5
   435
  8
0
  6
DOT
 62
     7
 10
23.0098788711101
 20
-57.0431485907016
 30
0.0
 11
15.4677263081071
 21
-57.0431485907016
 31
0.0
  0
LINE
  5
   436
  8
0
  6
DOT
 62
     7
 10
23.0098788711101
 20
-55.8431485728202
 30
0.0
 11
15.4677263081071
 21
-55.8431485728202
 31
0.0
  0
LINE
  5
   437
  8
0
  6
DOT
 62
     7
 10
23.0098788711101
 20
-57.0431485907016
 30
0.0
 11
23.0098788711101
 21
-55.8431485728202
 31
0.0
  0
LINE
  5
   438
  8
0
  6
DOT
 62
     7
 10
23.0098788711101
 20
-0.243147744315593
 30
0.0
 11
23.0098788711101
 21
0.956852273565801
 31
0.0
  0
ARC
  5
   439
  8
0
  6
DOT
 62
     7
 10
15.4677263081071
 20
-0.843147753256289
 30
0.0
 40
1.80000002682209
 50
89.9999999480344
 51
179.999999948034
  0
ARC
  5
   43A
  8
0
  6
CONTINUOUS
 62
     7
 10
15.4677263081071
 20
-0.843147753256289
 30
0.0
 40
0.600000008940697
 50
89.9999999480344
 51
179.999999948034
  0
ARC
  5
   43B
  8
0
  6
DOT
 62
     7
 10
15.4677263081071
 20
-55.2431485638795
 30
0.0
 40
0.600000008940697
 50
179.999999948034
 51
269.999999948034
  0
ARC
  5
   43C
  8
0
  6
DOT
 62
     7
 10
15.4677263081071
 20
-55.2431485638795
 30
0.0
 40
1.80000002682209
 50
179.999999948034
 51
269.999999948034
  0
LINE
  5
   43D
  8
0
  6
CONTINUOUS
 62
     1
 10
-63.1322611302138
 20
16.9568540378633
 30
0.0
 11
-64.5322611510754
 21
16.9568540378633
 31
0.0
  0
LINE
  5
   43E
  8
0
  6
CONTINUOUS
 62
     1
 10
-63.1322611302138
 20
-61.4431471303877
 30
0.0
 11
-64.5322611510754
 21
-61.4431471303877
 31
0.0
  0
LINE
  5
   43F
  8
0
  6
CONTINUOUS
 62
     7
 10
-62.3322626441718
 20
14.3568539991203
 30
0.0
 11
-62.3322626441718
 21
25.4056465537531
 31
0.0
  0
INSERT
  5
   440
  8
0
  6
CONTINUOUS
 62
     7
  2
*HATCH247
 10
-47.3322563171387
 20
-71.3379669189453
 30
0.0
 41
0.400000005960464
 42
0.400000005960464
 50
89.9999999480344
 43
0.400000005960464
  0
INSERT
  5
   441
  8
0
  6
CONTINUOUS
 62
     7
  2
*HATCH248
 10
-47.3322563171387
 20
-71.3379669189453
 30
0.0
 41
0.400000005960464
 42
0.400000005960464
 50
89.9999999480344
 43
0.400000005960464
  0
LINE
  5
   442
  8
0
  6
CONTINUOUS
 62
     7
 10
-62.3322626441718
 20
-59.0431470946249
 30
0.0
 11
-63.1322611302138
 21
-59.0431470946249
 31
0.0
  0
LINE
  5
   443
  8
0
  6
CONTINUOUS
 62
     7
 10
-60.9322610974313
 20
-58.8431470916447
 30
0.0
 11
-63.1322611302138
 21
-58.8431470916447
 31
0.0
  0
LINE
  5
   444
  8
0
  6
CONTINUOUS
 62
     7
 10
-60.9322610974313
 20
-58.8431464128489
 30
0.0
 11
-60.9322610974313
 21
-56.4431462397239
 31
0.0
  0
LINE
  5
   445
  8
0
  6
CONTINUOUS
 62
     7
 10
-60.9322605226645
 20
-58.8431460810092
 30
0.0
 11
-60.5322605035333
 21
-58.6122073539694
 31
0.0
  0
LINE
  5
   446
  8
0
  6
CONTINUOUS
 62
     7
 10
-60.5322610914708
 20
-58.6122083675003
 30
0.0
 11
-60.5322610914708
 21
-56.6740857800263
 31
0.0
  0
LINE
  5
   447
  8
0
  6
CONTINUOUS
 62
     7
 10
-60.5322611508656
 20
-56.6740849248683
 30
0.0
 11
-60.9322611699968
 21
-56.4431461978285
 31
0.0
  0
LINE
  5
   448
  8
0
  6
CONTINUOUS
 62
     7
 10
-60.9322610974313
 20
-56.4431470558819
 30
0.0
 11
-63.1322611302138
 21
-56.4431470558819
 31
0.0
  0
LINE
  5
   449
  8
0
  6
CONTINUOUS
 62
     7
 10
-62.3322626441718
 20
-56.2431470529017
 30
0.0
 11
-63.1322611302138
 21
-56.2431470529017
 31
0.0
  0
INSERT
  5
   44A
  8
0
  6
CONTINUOUS
 62
     7
  2
*HATCH249
 10
-47.3322563171387
 20
-71.3379669189453
 30
0.0
 41
0.400000005960464
 42
0.400000005960464
 50
89.9999999480344
 43
0.400000005960464
  0
INSERT
  5
   44B
  8
0
  6
CONTINUOUS
 62
     7
  2
*HATCH250
 10
-47.3322563171387
 20
-71.3379669189453
 30
0.0
 41
0.400000005960464
 42
0.400000005960464
 50
89.9999999480344
 43
0.400000005960464
  0
INSERT
  5
   44C
  8
0
  6
CONTINUOUS
 62
     7
  2
*HATCH251
 10
-47.3322563171387
 20
-71.3379669189453
 30
0.0
 41
0.400000005960464
 42
0.400000005960464
 50
89.9999999480344
 43
0.400000005960464
  0
LINE
  5
   44D
  8
0
  6
CONTINUOUS
 62
     7
 10
-58.5322633504869
 20
6.356853879911
 30
0.0
 11
-59.5322656542064
 21
6.356853879911
 31
0.0
  0
LINE
  5
   44E
  8
0
  6
CONTINUOUS
 62
     7
 10
-58.5322633504869
 20
6.356853879911
 30
0.0
 11
-58.5322633504869
 21
10.5568539424959
 31
0.0
  0
LINE
  5
   44F
  8
0
  6
CONTINUOUS
 62
     7
 10
-59.9322656601669
 20
11.9568539633575
 30
0.0
 11
-60.932265675068
 21
11.9568539633575
 31
0.0
  0
LINE
  5
   450
  8
0
  6
CONTINUOUS
 62
     7
 10
-61.3322656810285
 20
14.3568539991203
 30
0.0
 11
-61.3322656810285
 21
15.5568540170017
 31
0.0
  0
LINE
  5
   451
  8
0
  6
CONTINUOUS
 62
     7
 10
-61.3322656810285
 20
15.5568540170017
 30
0.0
 11
-62.3322626441718
 21
15.5568540170017
 31
0.0
  0
LINE
  5
   452
  8
0
  6
CONTINUOUS
 62
     7
 10
-59.9322656601669
 20
10.9568539484563
 30
0.0
 11
-60.932265675068
 21
10.9568539484563
 31
0.0
  0
LINE
  5
   453
  8
0
  6
CONTINUOUS
 62
     7
 10
-59.5322656542064
 20
6.356853879911
 30
0.0
 11
-59.5322656542064
 21
10.5568539424959
 31
0.0
  0
ARC
  5
   454
  8
0
  6
CONTINUOUS
 62
     7
 10
-59.9322715215697
 20
10.556848867974
 30
0.0
 40
1.40000740210794
 50
360.000319242658
 51
449.999813057862
  0
ARC
  5
   455
  8
0
  6
CONTINUOUS
 62
     7
 10
-59.9322479609067
 20
10.5568703004091
 30
0.0
 40
0.399979934457567
 50
359.998830132094
 51
450.002235749312
  0
ARC
  5
   456
  8
0
  6
CONTINUOUS
 62
     7
 10
-60.9322734160208
 20
12.3568411505441
 30
0.0
 40
1.39998844323914
 50
196.601143374767
 51
270.000346548696
  0
LINE
  5
   457
  8
0
  6
CONTINUOUS
 62
     7
 10
-58.5322633504869
 20
9.95685393355518
 30
0.0
 11
-59.5322656542064
 21
9.95685393355518
 31
0.0
  0
INSERT
  5
   458
  8
0
  6
CONTINUOUS
 62
     7
  2
*HATCH252
 10
-47.3322563171387
 20
-71.3379669189453
 30
0.0
 41
0.400000005960464
 42
0.400000005960464
 50
89.9999999480344
 43
0.400000005960464
  0
LINE
  5
   459
  8
0
  6
CONTINUOUS
 62
     7
 10
-60.9322610974313
 20
5.75685234509137
 30
0.0
 11
-60.9322610974313
 21
8.55685238681463
 31
0.0
  0
LINE
  5
   45A
  8
0
  6
CONTINUOUS
 62
     7
 10
-60.1322610855103
 20
5.75685234509137
 30
0.0
 11
-60.1322610855103
 21
8.55685238681463
 31
0.0
  0
LINE
  5
   45B
  8
0
  6
CONTINUOUS
 62
     7
 10
-60.1322610855103
 20
8.55685238681463
 30
0.0
 11
-60.9322610974313
 21
8.55685238681463
 31
0.0
  0
LINE
  5
   45C
  8
0
  6
DOT
 62
     7
 10
-75.5322613149882
 20
-50.2431469634947
 30
0.0
 11
-75.5322613149882
 21
5.75685234509135
 31
0.0
  0
LINE
  5
   45D
  8
0
  6
DOT
 62
     7
 10
-68.1396976007539
 20
5.75685234509137
 30
0.0
 11
-75.5322613149882
 21
5.75685234509137
 31
0.0
  0
LINE
  5
   45E
  8
0
  6
DOT
 62
     7
 10
-68.1396976007539
 20
-50.2431469634947
 30
0.0
 11
-75.5322613149882
 21
-50.2431469634947
 31
0.0
  0
LINE
  5
   45F
  8
0
  6
CONTINUOUS
 62
     7
 10
12.1798138371193
 20
38.7794261889833
 30
0.0
 11
16.331724636811
 21
47.1358340278676
 31
0.0
  0
LINE
  5
   460
  8
0
  6
CONTINUOUS
 62
     7
 10
17.8277677528834
 20
-101.387493379181
 30
0.0
 11
11.6071421375389
 21
-95.7332822703006
 31
0.0
  0
LINE
  5
   461
  8
0
  6
CONTINUOUS
 62
     7
 10
19.667726370692
 20
-2.44314777709815
 30
0.0
 11
14.8677262991664
 21
-2.44314777709815
 31
0.0
  0
LINE
  5
   462
  8
0
  6
CONTINUOUS
 62
     7
 10
19.667726370692
 20
-5.64314782478186
 30
0.0
 11
14.8677262991664
 21
-5.64314782478186
 31
0.0
  0
LINE
  5
   463
  8
0
  6
CONTINUOUS
 62
     7
 10
19.667726370692
 20
-50.443145440596
 30
0.0
 11
14.8677262991664
 21
-50.443145440596
 31
0.0
  0
LINE
  5
   464
  8
0
  6
CONTINUOUS
 62
     7
 10
19.667726370692
 20
-53.6431454882797
 30
0.0
 11
14.8677262991664
 21
-53.6431454882797
 31
0.0
  0
LINE
  5
   465
  8
0
  6
CONTINUOUS
 62
     7
 10
19.667726370692
 20
-53.6431454882797
 30
0.0
 11
19.667726370692
 21
-50.443145440596
 31
0.0
  0
LINE
  5
   466
  8
0
  6
CONTINUOUS
 62
     7
 10
19.667726370692
 20
-5.64314782478186
 30
0.0
 11
19.667726370692
 21
-2.44314777709815
 31
0.0
  0
TEXT
  5
   467
  8
0
  6
CONTINUOUS
 62
     7
 10
-63.1199643377985
 20
57.5713002204506
 30
0.0
 40
2.99999994933605
  1
ISOLATING DISTANCE
 50
359.999999948034
 41
0.91666673368878
 72
     1
 11
-38.6449629461424
 21
59.0713001730435
 31
0.0
 73
     2
  0
INSERT
  5
   468
  8
0
  6
CONTINUOUS
 62
     7
  2
*UDIM1073
 10
0.0
 20
0.0
 30
0.0
  0
INSERT
  5
   469
  8
0
  6
CONTINUOUS
 62
     7
  2
*UDIM1074
 10
0.0
 20
0.0
 30
0.0
  0
INSERT
  5
   46A
  8
0
  6
CONTINUOUS
 62
     7
  2
*UDIM1075
 10
0.0
 20
0.0
 30
0.0
  0
INSERT
  5
   46B
  8
0
  6
CONTINUOUS
 62
     7
  2
*UDIM1076
 10
0.0
 20
0.0
 30
0.0
  0
INSERT
  5
   46C
  8
0
  6
CONTINUOUS
 62
     7
  2
*UDIM1077
 10
0.0
 20
0.0
 30
0.0
  0
INSERT
  5
   46D
  8
0
  6
CONTINUOUS
 62
     7
  2
*UDIM1078
 10
0.0
 20
0.0
 30
0.0
  0
INSERT
  5
   46E
  8
0
  6
CONTINUOUS
 62
     7
  2
*UDIM1079
 10
0.0
 20
0.0
 30
0.0
  0
INSERT
  5
   46F
  8
0
  6
CONTINUOUS
 62
     7
  2
*UDIM1080
 10
0.0
 20
0.0
 30
0.0
  0
INSERT
  5
   470
  8
0
  6
CONTINUOUS
 62
     7
  2
*UDIM1081
 10
0.0
 20
0.0
 30
0.0
  0
INSERT
  5
   471
  8
0
  6
CONTINUOUS
 62
     7
  2
*UDIM1082
 10
0.0
 20
0.0
 30
0.0
  0
INSERT
  5
   472
  8
0
  6
CONTINUOUS
 62
     7
  2
*UDIM1083
 10
0.0
 20
0.0
 30
0.0
  0
TEXT
  5
   473
  8
0
  6
CONTINUOUS
 62
     7
 10
-81.1709897462265
 20
-38.4715386862767
 30
0.0
 40
2.99999994933605
  1
=          =
 50
89.9999999480344
 41
0.916666607525612
 72
     2
 11
-81.1709897168361
 21
-6.02154133058709
 31
0.0
  0
TEXT
  5
   474
  8
0
  6
CONTINUOUS
 62
     7
 10
35.5182884649915
 20
-23.1147788713885
 30
0.0
 40
2.99999994933605
  1
X
 50
359.999999948034
 41
0.916666607525612
 72
     2
 11
37.7182882831973
 21
-23.1147788733728
 31
0.0
  0
TEXT
  5
   475
  8
0
  6
CONTINUOUS
 62
     7
 10
-93.8281490092956
 20
-22.1506827876864
 30
0.0
 40
2.99999994933605
  1
X
 50
359.999999948034
 41
0.916666607525612
 72
     2
 11
-91.6281491910898
 21
-22.1506827896707
 31
0.0
  0
INSERT
  5
   476
  8
0
  6
CONTINUOUS
 62
     7
  2
*UDIM1084
 10
0.0
 20
0.0
 30
0.0
  0
INSERT
  5
   477
  8
0
  6
CONTINUOUS
 62
     7
  2
*UDIM1085
 10
0.0
 20
0.0
 30
0.0
  0
LINE
  5
   478
  8
0
  6
CONTINUOUS
 62
     7
 10
96.9363629689033
 20
15.7568603642017
 30
0.0
 11
96.9363629689033
 21
26.0568465440669
 31
0.0
  0
LINE
  5
   479
  8
0
  6
CONTINUOUS
 62
     7
 10
180.53636421464
 20
16.95685432912
 30
0.0
 11
180.53636421464
 21
26.0568465440669
 31
0.0
  0
LINE
  5
   47A
  8
0
  6
CONTINUOUS
 62
     1
 10
180.636373119412
 20
-82.1431613657493
 30
0.0
 11
180.636373119412
 21
-61.4431491279494
 31
0.0
  0
LINE
  5
   47B
  8
0
  6
CONTINUOUS
 62
     1
 10
96.8363718706946
 20
-82.1431613657493
 30
0.0
 11
96.8363718706946
 21
-45.5431730273793
 31
0.0
  0
LINE
  5
   47C
  8
0
  6
CONTINUOUS
 62
     1
 10
96.8363718706946
 20
-3.54318460856197
 30
0.0
 11
96.8363718706946
 21
15.7568400930933
 31
0.0
  0
LINE
  5
   47D
  8
0
  6
CONTINUOUS
 62
     1
 10
96.8363718706946
 20
15.7568400930933
 30
0.0
 11
100.336361299442
 21
15.7568400930933
 31
0.0
  0
LINE
  5
   47E
  8
0
  6
CONTINUOUS
 62
     1
 10
97.2363718528133
 20
-54.6431609559484
 30
0.0
 11
100.336361299442
 21
-54.6431609559484
 31
0.0
  0
LINE
  5
   47F
  8
0
  6
CONTINUOUS
 62
     1
 10
96.8363718706946
 20
-45.5431669238636
 30
0.0
 11
96.8363718706946
 21
-3.54316629801482
 31
0.0
  0
LINE
  5
   480
  8
0
  6
CONTINUOUS
 62
     1
 10
96.8363718706946
 20
-54.2431609738298
 30
0.0
 11
100.336361299442
 21
-54.2431609738298
 31
0.0
  0
LINE
  5
   481
  8
0
  6
CONTINUOUS
 62
     1
 10
97.2363718528133
 20
-54.6431609559484
 30
0.0
 11
97.2363718528133
 21
-54.2431609738298
 31
0.0
  0
LINE
  5
   482
  8
0
  6
CONTINUOUS
 62
     1
 10
178.956368211565
 20
16.95685432912
 30
0.0
 11
178.956368211565
 21
26.5568465515175
 31
0.0
  0
LINE
  5
   483
  8
0
  6
CONTINUOUS
 62
     1
 10
179.876369445978
 20
16.95685432912
 30
0.0
 11
179.876369445978
 21
26.5568465515175
 31
0.0
  0
LINE
  5
   484
  8
0
  6
CONTINUOUS
 62
     1
 10
173.196370567141
 20
16.95685432912
 30
0.0
 11
173.196370567141
 21
26.5568465515175
 31
0.0
  0
LINE
  5
   485
  8
0
  6
CONTINUOUS
 62
     1
 10
174.636366926489
 20
16.95685432912
 30
0.0
 11
174.636366926489
 21
26.5568465515175
 31
0.0
  0
LINE
  5
   486
  8
0
  6
CONTINUOUS
 62
     1
 10
176.076369389353
 20
16.95685432912
 30
0.0
 11
176.076369389353
 21
26.5568465515175
 31
0.0
  0
LINE
  5
   487
  8
0
  6
CONTINUOUS
 62
     1
 10
177.516371852217
 20
16.95685432912
 30
0.0
 11
177.516371852217
 21
26.5568465515175
 31
0.0
  0
LINE
  5
   488
  8
0
  6
CONTINUOUS
 62
     1
 10
166.716371691285
 20
-3.54316629801482
 30
0.0
 11
166.716371691285
 21
15.7568400930933
 31
0.0
  0
LINE
  5
   489
  8
0
  6
CONTINUOUS
 62
     1
 10
167.636366822181
 20
16.95685432912
 30
0.0
 11
167.636366822181
 21
26.5568465515175
 31
0.0
  0
LINE
  5
   48A
  8
0
  6
CONTINUOUS
 62
     1
 10
168.876369282065
 20
16.95685432912
 30
0.0
 11
168.876369282065
 21
26.5568465515175
 31
0.0
  0
LINE
  5
   48B
  8
0
  6
CONTINUOUS
 62
     1
 10
170.316371744929
 20
16.95685432912
 30
0.0
 11
170.316371744929
 21
26.5568465515175
 31
0.0
  0
LINE
  5
   48C
  8
0
  6
CONTINUOUS
 62
     1
 10
171.756368104277
 20
16.95685432912
 30
0.0
 11
171.756368104277
 21
26.5568465515175
 31
0.0
  0
LINE
  5
   48D
  8
0
  6
CONTINUOUS
 62
     1
 10
98.5163718194346
 20
-3.54316629801482
 30
0.0
 11
98.5163718194346
 21
26.5568465515175
 31
0.0
  0
LINE
  5
   48E
  8
0
  6
CONTINUOUS
 62
     1
 10
97.5963717294316
 20
-3.54316629801482
 30
0.0
 11
97.5963717294316
 21
26.5568465515175
 31
0.0
  0
LINE
  5
   48F
  8
0
  6
CONTINUOUS
 62
     1
 10
104.27636831945
 20
16.95685432912
 30
0.0
 11
104.27636831945
 21
26.5568465515175
 31
0.0
  0
LINE
  5
   490
  8
0
  6
CONTINUOUS
 62
     1
 10
102.836371960102
 20
16.95685432912
 30
0.0
 11
102.836371960102
 21
26.5568465515175
 31
0.0
  0
LINE
  5
   491
  8
0
  6
CONTINUOUS
 62
     1
 10
101.396371786056
 20
16.95685432912
 30
0.0
 11
101.396371786056
 21
26.5568465515175
 31
0.0
  0
LINE
  5
   492
  8
0
  6
CONTINUOUS
 62
     1
 10
99.9563716120105
 20
-3.54316629801482
 30
0.0
 11
99.9563716120105
 21
26.5568465515175
 31
0.0
  0
LINE
  5
   493
  8
0
  6
CONTINUOUS
 62
     1
 10
110.756367195306
 20
-3.54316629801482
 30
0.0
 11
110.756367195306
 21
15.7568400930933
 31
0.0
  0
LINE
  5
   494
  8
0
  6
CONTINUOUS
 62
     1
 10
110.03637206739
 20
16.95685432912
 30
0.0
 11
110.03637206739
 21
26.5568465515175
 31
0.0
  0
LINE
  5
   495
  8
0
  6
CONTINUOUS
 62
     1
 10
108.596369604526
 20
16.95685432912
 30
0.0
 11
108.596369604526
 21
26.5568465515175
 31
0.0
  0
LINE
  5
   496
  8
0
  6
CONTINUOUS
 62
     1
 10
107.156367141662
 20
16.95685432912
 30
0.0
 11
107.156367141662
 21
26.5568465515175
 31
0.0
  0
LINE
  5
   497
  8
0
  6
CONTINUOUS
 62
     1
 10
105.716370782314
 20
16.95685432912
 30
0.0
 11
105.716370782314
 21
26.5568465515175
 31
0.0
  0
LINE
  5
   498
  8
0
  6
CONTINUOUS
 62
     1
 10
99.9563716120105
 20
-45.5431669238636
 30
0.0
 11
99.9563716120105
 21
-3.54316629801482
 31
0.0
  0
LINE
  5
   499
  8
0
  6
CONTINUOUS
 62
     1
 10
98.5163718194346
 20
-45.5431669238636
 30
0.0
 11
98.5163718194346
 21
-3.54316629801482
 31
0.0
  0
LINE
  5
   49A
  8
0
  6
CONTINUOUS
 62
     1
 10
97.5963717294316
 20
-45.5431669238636
 30
0.0
 11
97.5963717294316
 21
-3.54316629801482
 31
0.0
  0
LINE
  5
   49B
  8
0
  6
CONTINUOUS
 62
     1
 10
98.5163718194346
 20
-54.2431609738298
 30
0.0
 11
98.5163718194346
 21
-45.5431669477055
 31
0.0
  0
LINE
  5
   49C
  8
0
  6
CONTINUOUS
 62
     1
 10
97.5963717294316
 20
-54.2431609738298
 30
0.0
 11
97.5963717294316
 21
-45.5431669477055
 31
0.0
  0
LINE
  5
   49D
  8
0
  6
CONTINUOUS
 62
     1
 10
101.396371786056
 20
-54.2431609738298
 30
0.0
 11
101.396371786056
 21
-45.5431669477055
 31
0.0
  0
LINE
  5
   49E
  8
0
  6
CONTINUOUS
 62
     1
 10
99.9563716120105
 20
-54.2431609738298
 30
0.0
 11
99.9563716120105
 21
-45.5431669477055
 31
0.0
  0
ARC
  5
   49F
  8
0
  6
CONTINUOUS
 62
     1
 10
97.0363718736749
 20
-3.74316630099507
 30
0.0
 40
0.200000002980232
 50
90.0
 51
180.0
  0
ARC
  5
   4A0
  8
0
  6
CONTINUOUS
 62
     1
 10
97.0363718736749
 20
-45.3431669208834
 30
0.0
 40
0.200000002980232
 50
180.0
 51
270.0
  0
LINE
  5
   4A1
  8
0
  6
CONTINUOUS
 62
     1
 10
130.336363466602
 20
-19.2431543249315
 30
0.0
 11
147.136363716941
 21
-19.2431543249315
 31
0.0
  0
LINE
  5
   4A2
  8
0
  6
CONTINUOUS
 62
     7
 10
130.336363466602
 20
-19.0538843025799
 30
0.0
 11
147.136363716941
 21
-19.0538843025799
 31
0.0
  0
LINE
  5
   4A3
  8
0
  6
DASHDOT
 62
     7
 10
138.736363591772
 20
-54.47898313678
 30
0.0
 11
138.736363591772
 21
27.4942536094098
 31
0.0
  0
LINE
  5
   4A4
  8
0
  6
CONTINUOUS
 62
     1
 10
97.436350470025
 20
-70.4431611913841
 30
0.0
 11
98.7363504893965
 21
-70.4431611913841
 31
0.0
  0
LINE
  5
   4A5
  8
0
  6
DASHDOT
 62
     2
 10
138.736363591772
 20
-83.5280493845559
 30
0.0
 11
138.736363591772
 21
-52.7211462230286
 31
0.0
  0
LINE
  5
   4A6
  8
0
  6
CONTINUOUS
 62
     1
 10
179.936345977325
 20
-70.4431672948999
 30
0.0
 11
179.936345977325
 21
-61.4431491279494
 31
0.0
  0
LINE
  5
   4A7
  8
0
  6
CONTINUOUS
 62
     1
 10
97.5363718811255
 20
-70.4431611913841
 30
0.0
 11
97.5363718811255
 21
-54.6431609559484
 31
0.0
  0
LINE
  5
   4A8
  8
0
  6
CONTINUOUS
 62
     1
 10
152.51636379711
 20
-22.6831543761915
 30
0.0
 11
152.51636379711
 21
-21.2831543553298
 31
0.0
  0
LINE
  5
   4A9
  8
0
  6
CONTINUOUS
 62
     7
 10
130.336363466602
 20
-36.6341776484304
 30
0.0
 11
147.136363716941
 21
-36.6341776484304
 31
0.0
  0
LINE
  5
   4AA
  8
0
  6
CONTINUOUS
 62
     7
 10
130.336363466602
 20
-33.3459744598554
 30
0.0
 11
147.136363716941
 21
-33.3459744598554
 31
0.0
  0
LINE
  5
   4AB
  8
0
  6
CONTINUOUS
 62
     7
 10
130.336363466602
 20
-40.0895581351616
 30
0.0
 11
147.136363716941
 21
-40.0895581351616
 31
0.0
  0
LINE
  5
   4AC
  8
0
  6
CONTINUOUS
 62
     7
 10
147.136363716941
 20
-33.3459744598554
 30
0.0
 11
147.136363716941
 21
-19.0538843025799
 31
0.0
  0
LINE
  5
   4AD
  8
0
  6
CONTINUOUS
 62
     7
 10
130.336363466602
 20
-33.3459744598554
 30
0.0
 11
130.336363466602
 21
-19.0538843025799
 31
0.0
  0
LINE
  5
   4AE
  8
0
  6
DASHDOT
 62
     7
 10
166.736364009004
 20
16.95685432912
 30
0.0
 11
166.736364009004
 21
26.8979703388271
 31
0.0
  0
LINE
  5
   4AF
  8
0
  6
DASHDOT
 62
     7
 10
110.736363174539
 20
16.95685432912
 30
0.0
 11
110.736363174539
 21
28.4151111818254
 31
0.0
  0
LINE
  5
   4B0
  8
0
  6
CONTINUOUS
 62
     1
 10
97.0363718736749
 20
-3.54316629801482
 30
0.0
 11
100.336361299442
 21
-3.54316629801482
 31
0.0
  0
LINE
  5
   4B1
  8
0
  6
CONTINUOUS
 62
     1
 10
97.5363718811255
 20
-70.4431672966444
 30
0.0
 11
179.936345977084
 21
-70.4431672966444
 31
0.0
  0
LINE
  5
   4B2
  8
0
  6
CONTINUOUS
 62
   130
 10
97.7363629808239
 20
-86.6431459800181
 30
0.0
 11
97.7363629808239
 21
-82.6431613731999
 31
0.0
  0
LINE
  5
   4B3
  8
0
  6
CONTINUOUS
 62
   130
 10
98.1363629867844
 20
-87.0431459859785
 30
0.0
 11
179.336364196759
 21
-87.0431459859785
 31
0.0
  0
LINE
  5
   4B4
  8
0
  6
CONTINUOUS
 62
   130
 10
179.705913185483
 20
-85.7962158972013
 30
0.0
 11
179.736363624693
 21
-85.6431427754594
 31
0.0
  0
LINE
  5
   4B5
  8
0
  6
CONTINUOUS
 62
   130
 10
179.736364202719
 20
-86.6431459800181
 30
0.0
 11
179.736364202719
 21
-82.6431613731999
 31
0.0
  0
LINE
  5
   4B6
  8
0
  6
CONTINUOUS
 62
   130
 10
179.736364202719
 20
26.5568465515175
 30
0.0
 11
179.736364202719
 21
30.5568527146402
 31
0.0
  0
LINE
  5
   4B7
  8
0
  6
CONTINUOUS
 62
   130
 10
179.705914817704
 20
29.7099389567183
 30
0.0
 11
179.736365256945
 21
29.5568627793883
 31
0.0
  0
LINE
  5
   4B8
  8
0
  6
CONTINUOUS
 62
   130
 10
98.1363629867844
 20
30.9568527206006
 30
0.0
 11
179.336364196759
 21
30.9568527206006
 31
0.0
  0
LINE
  5
   4B9
  8
0
  6
CONTINUOUS
 62
   130
 10
97.7363629808239
 20
26.5568465515175
 30
0.0
 11
97.7363629808239
 21
30.5568527146402
 31
0.0
  0
LINE
  5
   4BA
  8
0
  6
CONTINUOUS
 62
   130
 10
179.705916192484
 20
-85.7962211965073
 30
0.0
 11
179.736366631712
 21
-85.6431465481665
 31
0.0
  0
LINE
  5
   4BB
  8
0
  6
CONTINUOUS
 62
   210
 10
158.736363889795
 20
30.9568527206006
 30
0.0
 11
158.736363889795
 21
48.9568214700124
 31
0.0
  0
LINE
  5
   4BC
  8
0
  6
CONTINUOUS
 62
   210
 10
174.736364128213
 20
30.9568527206006
 30
0.0
 11
174.736364128213
 21
48.9568214700124
 31
0.0
  0
LINE
  5
   4BD
  8
0
  6
CONTINUOUS
 62
   210
 10
102.73636305533
 20
30.9568527206006
 30
0.0
 11
102.73636305533
 21
48.9568628346628
 31
0.0
  0
LINE
  5
   4BE
  8
0
  6
CONTINUOUS
 62
   210
 10
118.736363293748
 20
30.9568527206006
 30
0.0
 11
118.736363293748
 21
48.9568628346628
 31
0.0
  0
LINE
  5
   4BF
  8
0
  6
CONTINUOUS
 62
   210
 10
130.736363472562
 20
30.9568527206006
 30
0.0
 11
130.736363472562
 21
48.956835699774
 31
0.0
  0
LINE
  5
   4C0
  8
0
  6
CONTINUOUS
 62
   210
 10
146.736363710981
 20
30.9568527206006
 30
0.0
 11
146.736363710981
 21
48.956835699774
 31
0.0
  0
LINE
  5
   4C1
  8
0
  6
CONTINUOUS
 62
     7
 10
158.736363889795
 20
-105.043118788379
 30
0.0
 11
174.736364128213
 21
-105.043118788379
 31
0.0
  0
LINE
  5
   4C2
  8
0
  6
CONTINUOUS
 62
     7
 10
130.736363472562
 20
-105.043118788379
 30
0.0
 11
146.736363710981
 21
-105.043118788379
 31
0.0
  0
LINE
  5
   4C3
  8
0
  6
CONTINUOUS
 62
     7
 10
102.73636305533
 20
-105.043118788379
 30
0.0
 11
118.736363293748
 21
-105.043118788379
 31
0.0
  0
LINE
  5
   4C4
  8
0
  6
CONTINUOUS
 62
     7
 10
102.73636305533
 20
-105.043118788379
 30
0.0
 11
102.73636305533
 21
-87.0431459859785
 31
0.0
  0
LINE
  5
   4C5
  8
0
  6
CONTINUOUS
 62
     7
 10
118.736363293748
 20
-105.043118788379
 30
0.0
 11
118.736363293748
 21
-87.0431459859785
 31
0.0
  0
LINE
  5
   4C6
  8
0
  6
CONTINUOUS
 62
     7
 10
130.736363472562
 20
-105.043118788379
 30
0.0
 11
130.736363472562
 21
-87.0431459859785
 31
0.0
  0
LINE
  5
   4C7
  8
0
  6
CONTINUOUS
 62
     7
 10
146.736363710981
 20
-105.043118788379
 30
0.0
 11
146.736363710981
 21
-87.0431459859785
 31
0.0
  0
LINE
  5
   4C8
  8
0
  6
CONTINUOUS
 62
     7
 10
158.736363889795
 20
-105.043118788379
 30
0.0
 11
158.736363889795
 21
-87.0431459859785
 31
0.0
  0
LINE
  5
   4C9
  8
0
  6
CONTINUOUS
 62
     7
 10
174.736364128213
 20
-105.043118788379
 30
0.0
 11
174.736364128213
 21
-87.0431459859785
 31
0.0
  0
CIRCLE
  5
   4CA
  8
0
  6
CONTINUOUS
 62
   210
 10
110.736363045322
 20
40.9568627154535
 30
0.0
 40
2.79996272970611
  0
CIRCLE
  5
   4CB
  8
0
  6
CONTINUOUS
 62
   210
 10
138.736353435343
 20
40.9568355805648
 30
0.0
 40
2.80001017335506
  0
CIRCLE
  5
   4CC
  8
0
  6
CONTINUOUS
 62
   210
 10
166.736365888396
 20
40.9568213508031
 30
0.0
 40
2.79999771807492
  0
LINE
  5
   4CD
  8
0
  6
DASHDOT
 62
     7
 10
166.736365888396
 20
36.7568236118665
 30
0.0
 11
166.736365888396
 21
43.1568190599373
 31
0.0
  0
LINE
  5
   4CE
  8
0
  6
DASHDOT
 62
     7
 10
163.536368164361
 20
40.9568213508031
 30
0.0
 11
169.936363612432
 21
40.9568213508031
 31
0.0
  0
LINE
  5
   4CF
  8
0
  6
DASHDOT
 62
     7
 10
138.736353435343
 20
31.8635964680373
 30
0.0
 11
138.736353435343
 21
49.0691099259769
 31
0.0
  0
LINE
  5
   4D0
  8
0
  6
DASHDOT
 62
     7
 10
135.536343256028
 20
40.9568355805647
 30
0.0
 11
141.936363614659
 21
40.9568355805647
 31
0.0
  0
LINE
  5
   4D1
  8
0
  6
DASHDOT
 62
     7
 10
110.736363045322
 20
36.7568999648858
 30
0.0
 11
110.736363045322
 21
43.156825436219
 31
0.0
  0
LINE
  5
   4D2
  8
0
  6
DASHDOT
 62
     7
 10
107.536400309655
 20
40.9568627154535
 30
0.0
 11
113.936325780989
 21
40.9568627154535
 31
0.0
  0
CIRCLE
  5
   4D3
  8
0
  6
CONTINUOUS
 62
     7
 10
166.736365888396
 20
-97.0431176679388
 30
0.0
 40
2.79999771807492
  0
CIRCLE
  5
   4D4
  8
0
  6
CONTINUOUS
 62
     7
 10
138.736353435343
 20
-97.0431318977005
 30
0.0
 40
2.80001017335506
  0
CIRCLE
  5
   4D5
  8
0
  6
CONTINUOUS
 62
     7
 10
110.736363045322
 20
-97.0431590325893
 30
0.0
 40
2.79996272970611
  0
LINE
  5
   4D6
  8
0
  6
DASHDOT
 62
     7
 10
110.736363045322
 20
-99.2431217533547
 30
0.0
 11
110.736363045322
 21
-92.8431962820216
 31
0.0
  0
LINE
  5
   4D7
  8
0
  6
DASHDOT
 62
     7
 10
107.536400309655
 20
-97.0431590325893
 30
0.0
 11
113.936325780989
 21
-97.0431590325893
 31
0.0
  0
LINE
  5
   4D8
  8
0
  6
DASHDOT
 62
     7
 10
138.736353435343
 20
-99.2431420621149
 30
0.0
 11
138.736353435343
 21
-92.8431217034838
 31
0.0
  0
LINE
  5
   4D9
  8
0
  6
DASHDOT
 62
     7
 10
135.536343256028
 20
-97.0431318977005
 30
0.0
 11
141.936363614659
 21
-97.0431318977005
 31
0.0
  0
LINE
  5
   4DA
  8
0
  6
DASHDOT
 62
     7
 10
166.736365888396
 20
-99.243115377073
 30
0.0
 11
166.736365888396
 21
-92.8431199290023
 31
0.0
  0
LINE
  5
   4DB
  8
0
  6
DASHDOT
 62
     7
 10
163.536368164361
 20
-97.0431176679388
 30
0.0
 11
169.936363612432
 21
-97.0431176679388
 31
0.0
  0
LINE
  5
   4DC
  8
0
  6
CONTINUOUS
 62
   130
 10
110.736409713854
 20
5.75685234509137
 30
0.0
 11
166.736410548319
 21
5.75685234509137
 31
0.0
  0
LINE
  5
   4DD
  8
0
  6
CONTINUOUS
 62
   130
 10
110.736409713854
 20
-50.2431469634947
 30
0.0
 11
166.736410548319
 21
-50.2431469634947
 31
0.0
  0
LINE
  5
   4DE
  8
0
  6
CONTINUOUS
 62
     1
 10
110.736409713854
 20
0.956852273565801
 30
0.0
 11
166.736410548319
 21
0.956852273565801
 31
0.0
  0
LINE
  5
   4DF
  8
0
  6
CONTINUOUS
 62
     1
 10
110.736410476794
 20
4.95685233317045
 30
0.0
 11
166.736411311259
 21
4.95685233317045
 31
0.0
  0
LINE
  5
   4E0
  8
0
  6
CONTINUOUS
 62
   130
 10
110.736409713854
 20
-50.2431469634947
 30
0.0
 11
110.736409713854
 21
5.7568538709703
 31
0.0
  0
LINE
  5
   4E1
  8
0
  6
CONTINUOUS
 62
   130
 10
166.736411311259
 20
-50.2431484893737
 30
0.0
 11
166.736411311259
 21
5.75685234509137
 31
0.0
  0
LINE
  5
   4E2
  8
0
  6
CONTINUOUS
 62
   130
 10
112.136406301488
 20
-0.243147744315593
 30
0.0
 11
152.536403851737
 21
-0.243147744315593
 31
0.0
  0
LINE
  5
   4E3
  8
0
  6
CONTINUOUS
 62
   130
 10
112.136406301488
 20
-48.843148468512
 30
0.0
 11
152.536403851737
 21
-48.843148468512
 31
0.0
  0
LINE
  5
   4E4
  8
0
  6
CONTINUOUS
 62
   130
 10
112.136406301488
 20
-48.843148468512
 30
0.0
 11
112.136406301488
 21
-0.243147744315593
 31
0.0
  0
LINE
  5
   4E5
  8
0
  6
CONTINUOUS
 62
   130
 10
152.536404996146
 20
-48.843148468512
 30
0.0
 11
152.536404996146
 21
-0.243147744315593
 31
0.0
  0
LINE
  5
   4E6
  8
0
  6
CONTINUOUS
 62
     1
 10
164.336414327254
 20
-17.6431480035958
 30
0.0
 11
164.336414327254
 21
-16.8431785092534
 31
0.0
  0
LINE
  5
   4E7
  8
0
  6
CONTINUOUS
 62
     1
 10
164.336414327621
 20
-19.0431480237081
 30
0.0
 11
164.336417379379
 21
-19.843148035629
 31
0.0
  0
LINE
  5
   4E8
  8
0
  6
CONTINUOUS
 62
     1
 10
163.136405155534
 20
-27.643148150064
 30
0.0
 11
163.13641125905
 21
-26.8431481381431
 31
0.0
  0
LINE
  5
   4E9
  8
0
  6
CONTINUOUS
 62
     1
 10
161.176835386215
 20
-42.2439184173748
 30
0.0
 11
161.656394700929
 21
-42.8153875486345
 31
0.0
  0
LINE
  5
   4EA
  8
0
  6
CONTINUOUS
 62
     1
 10
160.571097258162
 20
-41.8084468914873
 30
0.0
 11
161.176837618569
 21
-42.2439174617307
 31
0.0
  0
LINE
  5
   4EB
  8
0
  6
CONTINUOUS
 62
     1
 10
159.876635709054
 20
-41.5359067101418
 30
0.0
 11
160.571096758075
 21
-41.8084470015559
 31
0.0
  0
LINE
  5
   4EC
  8
0
  6
CONTINUOUS
 62
     1
 10
159.136403890601
 20
-41.4431469519901
 30
0.0
 11
159.876641346637
 21
-41.5359051313995
 31
0.0
  0
LINE
  5
   4ED
  8
0
  6
CONTINUOUS
 62
     1
 10
158.396166787618
 20
-41.5359045073957
 30
0.0
 11
159.136404243654
 21
-41.4431463279862
 31
0.0
  0
LINE
  5
   4EE
  8
0
  6
CONTINUOUS
 62
     1
 10
157.701699610661
 20
-41.8084472847474
 30
0.0
 11
158.396160659682
 21
-41.5359069933333
 31
0.0
  0
LINE
  5
   4EF
  8
0
  6
CONTINUOUS
 62
     1
 10
157.095959794017
 20
-42.2439176382346
 30
0.0
 11
157.701700154424
 21
-41.8084470679912
 31
0.0
  0
LINE
  5
   4F0
  8
0
  6
CONTINUOUS
 62
     1
 10
156.616399045385
 20
-42.8153853697729
 30
0.0
 11
157.095961409313
 21
-42.2439162448507
 31
0.0
  0
LINE
  5
   4F1
  8
0
  6
CONTINUOUS
 62
     1
 10
156.616397732724
 20
-46.0709072162649
 30
0.0
 11
156.616397732724
 21
-42.8153865378711
 31
0.0
  0
LINE
  5
   4F2
  8
0
  6
CONTINUOUS
 62
     1
 10
156.616398617063
 20
-46.0709069014696
 30
0.0
 11
157.095960980991
 21
-46.6423760263918
 31
0.0
  0
LINE
  5
   4F3
  8
0
  6
CONTINUOUS
 62
     1
 10
157.095959890417
 20
-46.6423763885992
 30
0.0
 11
157.701700250824
 21
-47.0778469588426
 31
0.0
  0
LINE
  5
   4F4
  8
0
  6
CONTINUOUS
 62
     1
 10
157.70169805573
 20
-47.0778473425636
 30
0.0
 11
158.396159103806
 21
-47.3503891547828
 31
0.0
  0
LINE
  5
   4F5
  8
0
  6
CONTINUOUS
 62
     1
 10
158.396166410777
 20
-47.3503876708761
 30
0.0
 11
159.136403866813
 21
-47.4431458502855
 31
0.0
  0
LINE
  5
   4F6
  8
0
  6
CONTINUOUS
 62
     1
 10
159.136404267442
 20
-47.4431452262816
 30
0.0
 11
159.876641723478
 21
-47.3503870468722
 31
0.0
  0
LINE
  5
   4F7
  8
0
  6
CONTINUOUS
 62
     1
 10
159.876633326994
 20
-47.3503901534992
 30
0.0
 11
160.571094375069
 21
-47.07784834128
 31
0.0
  0
LINE
  5
   4F8
  8
0
  6
CONTINUOUS
 62
     1
 10
160.571097161762
 20
-47.0778471353466
 30
0.0
 11
161.176837522169
 21
-46.6423765651032
 31
0.0
  0
LINE
  5
   4F9
  8
0
  6
CONTINUOUS
 62
     1
 10
161.176834178277
 20
-46.6423792535818
 30
0.0
 11
161.65639349299
 21
-46.0709101223221
 31
0.0
  0
LINE
  5
   4FA
  8
0
  6
CONTINUOUS
 62
     1
 10
161.656397197474
 20
-46.0709072162649
 30
0.0
 11
161.656397197474
 21
-42.8153865378711
 31
0.0
  0
LINE
  5
   4FB
  8
0
  6
CONTINUOUS
 62
     1
 10
164.477821080559
 20
-37.0016713571717
 30
0.0
 11
164.536399572745
 21
-37.1430928680929
 31
0.0
  0
LINE
  5
   4FC
  8
0
  6
CONTINUOUS
 62
     1
 10
164.336399955285
 20
-36.9430931249206
 30
0.0
 11
164.477821466206
 21
-37.0016716171068
 31
0.0
  0
LINE
  5
   4FD
  8
0
  6
CONTINUOUS
 62
     1
 10
163.136399050583
 20
-36.9430933595468
 30
0.0
 11
164.336399068464
 21
-36.9430933595468
 31
0.0
  0
LINE
  5
   4FE
  8
0
  6
CONTINUOUS
 62
     1
 10
162.994978663839
 20
-37.0016712341131
 30
0.0
 11
163.13640017476
 21
-36.9430927419269
 31
0.0
  0
LINE
  5
   4FF
  8
0
  6
CONTINUOUS
 62
     1
 10
162.936399792017
 20
-37.1430924839268
 30
0.0
 11
162.994978284203
 21
-37.0016709730056
 31
0.0
  0
LINE
  5
   500
  8
0
  6
CONTINUOUS
 62
     1
 10
162.936399047603
 20
-38.1430933774282
 30
0.0
 11
162.936399047603
 21
-37.143093362527
 31
0.0
  0
LINE
  5
   501
  8
0
  6
CONTINUOUS
 62
     1
 10
162.936399047603
 20
-38.9430933893491
 30
0.0
 11
162.936399047603
 21
-38.1430933774282
 31
0.0
  0
LINE
  5
   502
  8
0
  6
CONTINUOUS
 62
     1
 10
162.936399047603
 20
-39.74309340127
 30
0.0
 11
162.936399047603
 21
-38.9430933893491
 31
0.0
  0
LINE
  5
   503
  8
0
  6
CONTINUOUS
 62
     1
 10
162.936399047603
 20
-40.5430934131909
 30
0.0
 11
162.936399047603
 21
-39.74309340127
 31
0.0
  0
LINE
  5
   504
  8
0
  6
CONTINUOUS
 62
     1
 10
162.936399047603
 20
-41.5430934280921
 30
0.0
 11
162.936399047603
 21
-40.5430934131909
 31
0.0
  0
LINE
  5
   505
  8
0
  6
CONTINUOUS
 62
     1
 10
162.936399547044
 20
-41.5430930192889
 30
0.0
 11
162.99497803923
 21
-41.6845145302101
 31
0.0
  0
LINE
  5
   506
  8
0
  6
CONTINUOUS
 62
     1
 10
162.994978417694
 20
-41.6845147583435
 30
0.0
 11
163.136399928615
 21
-41.7430932505297
 31
0.0
  0
LINE
  5
   507
  8
0
  6
CONTINUOUS
 62
     1
 10
163.136399050583
 20
-41.7430934310723
 30
0.0
 11
164.336399068464
 21
-41.7430934310723
 31
0.0
  0
LINE
  5
   508
  8
0
  6
CONTINUOUS
 62
     1
 10
164.33640020143
 20
-41.743092867536
 30
0.0
 11
164.477821712352
 21
-41.6845143753498
 31
0.0
  0
LINE
  5
   509
  8
0
  6
CONTINUOUS
 62
     1
 10
164.477821325532
 20
-41.6845141460441
 30
0.0
 11
164.536399817718
 21
-41.5430926351229
 31
0.0
  0
LINE
  5
   50A
  8
0
  6
CONTINUOUS
 62
     1
 10
164.536399071445
 20
-41.5430934280921
 30
0.0
 11
164.536399071445
 21
-40.5430934131909
 31
0.0
  0
LINE
  5
   50B
  8
0
  6
CONTINUOUS
 62
     1
 10
164.536399071445
 20
-40.5430934131909
 30
0.0
 11
164.536399071445
 21
-39.74309340127
 31
0.0
  0
LINE
  5
   50C
  8
0
  6
CONTINUOUS
 62
     1
 10
164.536399071445
 20
-39.74309340127
 30
0.0
 11
164.536399071445
 21
-38.9430933893491
 31
0.0
  0
LINE
  5
   50D
  8
0
  6
CONTINUOUS
 62
     1
 10
164.536399071445
 20
-38.9430933893491
 30
0.0
 11
164.536399071445
 21
-38.1430933774282
 31
0.0
  0
LINE
  5
   50E
  8
0
  6
CONTINUOUS
 62
     1
 10
164.536399071445
 20
-38.1430933774282
 30
0.0
 11
164.536399071445
 21
-37.143093362527
 31
0.0
  0
LINE
  5
   50F
  8
0
  6
CONTINUOUS
 62
     1
 10
163.136411257614
 20
-2.94314778454873
 30
0.0
 11
163.136411257614
 21
-1.74314776666733
 31
0.0
  0
LINE
  5
   510
  8
0
  6
CONTINUOUS
 62
     1
 10
163.136410230433
 20
-2.94315124852652
 30
0.0
 11
163.251000682578
 21
-3.29582460011483
 31
0.0
  0
LINE
  5
   511
  8
0
  6
CONTINUOUS
 62
     1
 10
163.251001372008
 20
-3.29582159929276
 30
0.0
 11
163.551001373829
 21
-3.51378425530247
 31
0.0
  0
LINE
  5
   512
  8
0
  6
CONTINUOUS
 62
     1
 10
163.551001717894
 20
-3.51378377937999
 30
0.0
 11
163.921820815216
 21
-3.51378377937999
 31
0.0
  0
LINE
  5
   513
  8
0
  6
CONTINUOUS
 62
     1
 10
163.921820020151
 20
-3.51378457384644
 30
0.0
 11
164.221820021972
 21
-3.29582191783673
 31
0.0
  0
LINE
  5
   514
  8
0
  6
CONTINUOUS
 62
     1
 10
164.221818550385
 20
-3.29582548546038
 30
0.0
 11
164.33640900253
 21
-2.94315213387208
 31
0.0
  0
LINE
  5
   515
  8
0
  6
CONTINUOUS
 62
     1
 10
164.336411275496
 20
-2.94314778454873
 30
0.0
 11
164.336411275496
 21
-1.74314776666733
 31
0.0
  0
LINE
  5
   516
  8
0
  6
CONTINUOUS
 62
     1
 10
164.221819770403
 20
-1.39047796512094
 30
0.0
 11
164.336410222548
 21
-1.74315131670922
 31
0.0
  0
LINE
  5
   517
  8
0
  6
CONTINUOUS
 62
     1
 10
163.921820473109
 20
-1.17251225900014
 30
0.0
 11
164.221820474931
 21
-1.39047491500985
 31
0.0
  0
LINE
  5
   518
  8
0
  6
CONTINUOUS
 62
     1
 10
163.551001717894
 20
-1.17251177183607
 30
0.0
 11
163.921820815216
 21
-1.17251177183607
 31
0.0
  0
LINE
  5
   519
  8
0
  6
CONTINUOUS
 62
     1
 10
163.251000919049
 20
-1.39047523355381
 30
0.0
 11
163.551000920871
 21
-1.17251257754413
 31
0.0
  0
LINE
  5
   51A
  8
0
  6
CONTINUOUS
 62
     1
 10
163.136409010414
 20
-1.74315220205479
 30
0.0
 11
163.25099946256
 21
-1.39047885046649
 31
0.0
  0
LINE
  5
   51B
  8
0
  6
CONTINUOUS
 62
     1
 10
163.136411257632
 20
-27.643148152576
 30
0.0
 11
163.136420412906
 21
-16.8431479916435
 31
0.0
  0
LINE
  5
   51C
  8
0
  6
CONTINUOUS
 62
     1
 10
163.136411257614
 20
-27.6431481526074
 30
0.0
 11
164.336426534285
 21
-27.6431481526074
 31
0.0
  0
LINE
  5
   51D
  8
0
  6
CONTINUOUS
 62
     1
 10
164.336414327286
 20
-16.8431785091976
 30
0.0
 11
164.336426534317
 21
-27.6431481525516
 31
0.0
  0
LINE
  5
   51E
  8
0
  6
CONTINUOUS
 62
     1
 10
163.136420444795
 20
-16.8431479740528
 30
0.0
 11
164.336414359161
 21
-16.8431784916304
 31
0.0
  0
LINE
  5
   51F
  8
0
  6
CONTINUOUS
 62
     5
 10
90.1364239022145
 20
-53.2431256456153
 30
0.0
 11
96.7364117935308
 21
-53.2431622667089
 31
0.0
  0
LINE
  5
   520
  8
0
  6
CONTINUOUS
 62
     5
 10
90.1364239027399
 20
2.75685230038789
 30
0.0
 11
96.7364117940562
 21
2.75685230038789
 31
0.0
  0
LINE
  5
   521
  8
0
  6
CONTINUOUS
 62
     5
 10
96.7364117940562
 20
1.15680955193602
 30
0.0
 11
96.7364117940562
 21
2.75685230038789
 31
0.0
  0
LINE
  5
   522
  8
0
  6
CONTINUOUS
 62
     5
 10
96.7364117940562
 20
-53.2431622669875
 30
0.0
 11
96.7364117940562
 21
-51.6432125971503
 31
0.0
  0
LINE
  5
   523
  8
0
  6
CONTINUOUS
 62
     5
 10
89.7364086379899
 20
-52.8432019338788
 30
0.0
 11
89.7364162673849
 21
2.35685382030671
 31
0.0
  0
LINE
  5
   524
  8
0
  6
CONTINUOUS
 62
     1
 10
96.3364087363378
 20
-53.2431012318303
 30
0.0
 11
96.3364087363378
 21
-51.6432049677557
 31
0.0
  0
LINE
  5
   525
  8
0
  6
CONTINUOUS
 62
     1
 10
96.3364087363378
 20
-2.54305622585252
 30
0.0
 11
96.3364087363378
 21
2.75685230038789
 31
0.0
  0
LINE
  5
   526
  8
0
  6
CONTINUOUS
 62
     5
 10
89.7364160632172
 20
-52.8431009348867
 30
0.0
 11
89.7668573488221
 21
-52.9962747664776
 31
0.0
  0
LINE
  5
   527
  8
0
  6
CONTINUOUS
 62
     5
 10
89.7668730757835
 20
-52.9961746280899
 30
0.0
 11
89.8535674108206
 21
-53.1260452325348
 31
0.0
  0
LINE
  5
   528
  8
0
  6
CONTINUOUS
 62
     5
 10
89.8535816307418
 20
-53.1259447825427
 30
0.0
 11
89.983351532659
 21
-53.2126528505621
 31
0.0
  0
LINE
  5
   529
  8
0
  6
CONTINUOUS
 62
     5
 10
89.9833512558776
 20
-53.2126525392568
 30
0.0
 11
90.1364243803884
 21
-53.2431258683132
 31
0.0
  0
LINE
  5
   52A
  8
0
  6
CONTINUOUS
 62
     5
 10
89.9833510666568
 20
2.72640122441206
 30
0.0
 11
90.1364241883987
 21
2.75685166362226
 31
0.0
  0
LINE
  5
   52B
  8
0
  6
CONTINUOUS
 62
     5
 10
89.8535842209754
 20
2.63969141146423
 30
0.0
 11
89.9833510660388
 21
2.72639795208951
 31
0.0
  0
LINE
  5
   52C
  8
0
  6
CONTINUOUS
 62
     5
 10
89.7668728442233
 20
2.50992989779262
 30
0.0
 11
89.8535809155541
 21
2.6396967489168
 31
0.0
  0
LINE
  5
   52D
  8
0
  6
CONTINUOUS
 62
     5
 10
89.7364162991761
 20
2.3568518852933
 30
0.0
 11
89.766872843446
 21
2.50992805964353
 31
0.0
  0
LINE
  5
   52E
  8
0
  6
CONTINUOUS
 62
     1
 10
96.3364087340505
 20
-51.6432003888292
 30
0.0
 11
96.7364102658899
 21
-51.643204966466
 31
0.0
  0
LINE
  5
   52F
  8
0
  6
CONTINUOUS
 62
     1
 10
96.3364087323648
 20
1.15684618146973
 30
0.0
 11
96.7364102642042
 21
1.15685228498545
 31
0.0
  0
LINE
  5
   530
  8
0
  6
CONTINUOUS
 62
     1
 10
95.2364087194663
 20
-47.2432522041257
 30
0.0
 11
96.736408741818
 21
-47.2432598335205
 31
0.0
  0
LINE
  5
   531
  8
0
  6
CONTINUOUS
 62
     1
 10
95.2364087199466
 20
-48.8432598576738
 30
0.0
 11
96.7364087422983
 21
-48.8432598576738
 31
0.0
  0
LINE
  5
   532
  8
0
  6
CONTINUOUS
 62
     1
 10
96.3364087363378
 20
-5.64320275642331
 30
0.0
 11
96.7364087422983
 21
-5.64320275642331
 31
0.0
  0
LINE
  5
   533
  8
0
  6
CONTINUOUS
 62
     1
 10
96.3364087363378
 20
-7.24320278026516
 30
0.0
 11
96.7364087422983
 21
-7.24320278026516
 31
0.0
  0
LINE
  5
   534
  8
0
  6
CONTINUOUS
 62
     5
 10
96.7364087422983
 20
-44.4432277486512
 30
0.0
 11
96.7364087422983
 21
-8.44322721220942
 31
0.0
  0
LINE
  5
   535
  8
0
  6
CONTINUOUS
 62
     5
 10
96.7364087422673
 20
-50.8432278439441
 30
0.0
 11
96.7364102681462
 21
-51.6432049676811
 31
0.0
  0
LINE
  5
   536
  8
0
  6
CONTINUOUS
 62
     5
 10
96.7364087422983
 20
-49.2428997562071
 30
0.0
 11
96.7364087422983
 21
-46.8435650036573
 31
0.0
  0
LINE
  5
   537
  8
0
  6
CONTINUOUS
 62
     5
 10
96.7364087422964
 20
-2.04322711682551
 30
0.0
 11
96.7364102681753
 21
1.15680955195251
 31
0.0
  0
LINE
  5
   538
  8
0
  6
CONTINUOUS
 62
     5
 10
96.7364087422983
 20
-7.64322109677278
 30
0.0
 11
96.7364087422983
 21
-5.24322106100999
 31
0.0
  0
LINE
  5
   539
  8
0
  6
CONTINUOUS
 62
     1
 10
93.3364086916344
 20
-47.2432415232848
 30
0.0
 11
93.3364086916344
 21
-46.843056885974
 31
0.0
  0
LINE
  5
   53A
  8
0
  6
CONTINUOUS
 62
     1
 10
96.3364102622168
 20
-2.04322711684199
 30
0.0
 11
96.7364087422983
 21
-2.04322711684199
 31
0.0
  0
LINE
  5
   53B
  8
0
  6
CONTINUOUS
 62
     1
 10
94.736408712496
 20
-8.44322721220942
 30
0.0
 11
96.7364087422983
 21
-8.44322721220942
 31
0.0
  0
LINE
  5
   53C
  8
0
  6
CONTINUOUS
 62
     1
 10
95.2364087199466
 20
-50.8432232663819
 30
0.0
 11
96.7364087422983
 21
-50.8432232663819
 31
0.0
  0
LINE
  5
   53D
  8
0
  6
CONTINUOUS
 62
     1
 10
94.736408712496
 20
-44.4432216451355
 30
0.0
 11
96.7364087422983
 21
-44.4432216451355
 31
0.0
  0
LINE
  5
   53E
  8
0
  6
CONTINUOUS
 62
     5
 10
89.3364086320297
 20
-32.0432306156347
 30
0.0
 11
89.3364086320297
 21
-24.0432304964254
 31
0.0
  0
LINE
  5
   53F
  8
0
  6
CONTINUOUS
 62
     1
 10
91.6363979851499
 20
-2.54323322780829
 30
0.0
 11
93.036408687164
 21
-2.54323322780829
 31
0.0
  0
LINE
  5
   540
  8
0
  6
CONTINUOUS
 62
     1
 10
91.6363979851499
 20
-2.54323322780829
 30
0.0
 11
93.036408687164
 21
-2.54323322780829
 31
0.0
  0
LINE
  5
   541
  8
0
  6
CONTINUOUS
 62
     1
 10
94.736408712496
 20
-8.04319668867038
 30
0.0
 11
96.3364087363378
 21
-8.04319668867038
 31
0.0
  0
LINE
  5
   542
  8
0
  6
CONTINUOUS
 62
     1
 10
96.3364087363378
 20
-8.04319668867038
 30
0.0
 11
96.3364087363378
 21
-2.54323322780829
 31
0.0
  0
LINE
  5
   543
  8
0
  6
CONTINUOUS
 62
     1
 10
93.9364071735864
 20
-10.0430990604373
 30
0.0
 11
94.7363980302337
 21
-10.043105163953
 31
0.0
  0
LINE
  5
   544
  8
0
  6
CONTINUOUS
 62
     1
 10
94.7363980312655
 20
-10.0431051652221
 30
0.0
 11
94.7364026089022
 21
-8.44314786599027
 31
0.0
  0
LINE
  5
   545
  8
0
  6
CONTINUOUS
 62
     1
 10
93.9364071700708
 20
-9.04309293655213
 30
0.0
 11
94.7363995525971
 21
-9.04310514358355
 31
0.0
  0
LINE
  5
   546
  8
0
  6
CONTINUOUS
 62
     1
 10
93.036408687164
 20
-4.84323326208096
 30
0.0
 11
93.036408687164
 21
-2.54323322780829
 31
0.0
  0
LINE
  5
   547
  8
0
  6
CONTINUOUS
 62
     1
 10
93.0364044286195
 20
-4.84322593141859
 30
0.0
 11
93.6364044507406
 21
-5.44322595353964
 31
0.0
  0
LINE
  5
   548
  8
0
  6
CONTINUOUS
 62
     1
 10
93.6364086961047
 20
-5.44323327102165
 30
0.0
 11
95.0364087169663
 21
-5.44323327102165
 31
0.0
  0
LINE
  5
   549
  8
0
  6
CONTINUOUS
 62
     1
 10
95.0364087169663
 20
-5.44323327102165
 30
0.0
 11
95.0364087169663
 21
-2.54305622585252
 31
0.0
  0
LINE
  5
   54A
  8
0
  6
CONTINUOUS
 62
     1
 10
93.036408687164
 20
-2.54314167507255
 30
0.0
 11
96.3364087363378
 21
-2.54314167507255
 31
0.0
  0
LINE
  5
   54B
  8
0
  6
CONTINUOUS
 62
     1
 10
93.6364086960313
 20
-49.8431698456791
 30
0.0
 11
95.2364087198732
 21
-49.843172897437
 31
0.0
  0
LINE
  5
   54C
  8
0
  6
CONTINUOUS
 62
     1
 10
95.2364087199466
 20
-51.6430569574995
 30
0.0
 11
95.2364087199466
 21
-49.8431728974761
 31
0.0
  0
LINE
  5
   54D
  8
0
  6
CONTINUOUS
 62
     1
 10
93.6364086961047
 20
-51.6430569574995
 30
0.0
 11
93.6364086961047
 21
-49.8431698457182
 31
0.0
  0
LINE
  5
   54E
  8
0
  6
CONTINUOUS
 62
     1
 10
92.2364040974668
 20
-47.2432079538705
 30
0.0
 11
95.2364087198071
 21
-47.2432003244756
 31
0.0
  0
LINE
  5
   54F
  8
0
  6
CONTINUOUS
 62
     1
 10
95.2364087199466
 20
-49.8432003632968
 30
0.0
 11
95.2364087199466
 21
-47.2432003245538
 31
0.0
  0
LINE
  5
   550
  8
0
  6
CONTINUOUS
 62
     1
 10
94.736408712496
 20
-12.4431357190783
 30
0.0
 11
94.736408712496
 21
-10.0431234762841
 31
0.0
  0
LINE
  5
   551
  8
0
  6
CONTINUOUS
 62
     1
 10
92.2364044444165
 20
-47.2432083885665
 30
0.0
 11
92.2669433848597
 21
-47.2126694481233
 31
0.0
  0
LINE
  5
   552
  8
0
  6
CONTINUOUS
 62
     1
 10
92.2364052497609
 20
-47.2431530360692
 30
0.0
 11
92.6365105430475
 21
-46.8430584338947
 31
0.0
  0
LINE
  5
   553
  8
0
  6
CONTINUOUS
 62
     1
 10
94.736404134859
 20
-12.4431357190773
 30
0.0
 11
94.7364087124958
 21
-46.8430568859729
 31
0.0
  0
LINE
  5
   554
  8
0
  6
CONTINUOUS
 62
     1
 10
94.736408712496
 20
-8.44314786650511
 30
0.0
 11
94.736408712496
 21
-6.64305628694729
 31
0.0
  0
LINE
  5
   555
  8
0
  6
CONTINUOUS
 62
     1
 10
92.2364086752431
 20
-46.843056885974
 30
0.0
 11
94.736408712496
 21
-46.843056885974
 31
0.0
  0
LINE
  5
   556
  8
0
  6
CONTINUOUS
 62
     1
 10
92.2364086752431
 20
-51.6430569574995
 30
0.0
 11
96.3364087363378
 21
-51.6430569574995
 31
0.0
  0
LINE
  5
   557
  8
0
  6
CONTINUOUS
 62
     1
 10
92.2364086752431
 20
-51.6430569574995
 30
0.0
 11
92.2364086752431
 21
-46.843056885974
 31
0.0
  0
LINE
  5
   558
  8
0
  6
CONTINUOUS
 62
     1
 10
91.6364056145445
 20
-6.64305628694729
 30
0.0
 11
94.736408712496
 21
-6.64305628694729
 31
0.0
  0
LINE
  5
   559
  8
0
  6
CONTINUOUS
 62
     1
 10
91.6364056145445
 20
-6.64305628694729
 30
0.0
 11
91.6364056145445
 21
-2.54305622585252
 31
0.0
  0
LINE
  5
   55A
  8
0
  6
CONTINUOUS
 62
     1
 10
94.3364087065355
 20
-8.44314786650511
 30
0.0
 11
94.736408712496
 21
-8.44314786650511
 31
0.0
  0
LINE
  5
   55B
  8
0
  6
CONTINUOUS
 62
     1
 10
94.1833358168332
 20
-8.47359884730152
 30
0.0
 11
94.3364089385752
 21
-8.44314840809133
 31
0.0
  0
LINE
  5
   55C
  8
0
  6
CONTINUOUS
 62
     1
 10
94.0535658617592
 20
-8.5603077881435
 30
0.0
 11
94.1833357576218
 21
-8.47360124153658
 31
0.0
  0
LINE
  5
   55D
  8
0
  6
CONTINUOUS
 62
     1
 10
93.9668576520707
 20
-8.69007048263953
 30
0.0
 11
94.0535657234014
 21
-8.56030363151535
 31
0.0
  0
LINE
  5
   55E
  8
0
  6
CONTINUOUS
 62
     1
 10
93.936408706852
 20
-8.84314795855398
 30
0.0
 11
93.966857620431
 21
-8.6900717851333
 31
0.0
  0
LINE
  5
   55F
  8
0
  6
CONTINUOUS
 62
     1
 10
93.936408700575
 20
-12.0431357131179
 30
0.0
 11
93.936408700575
 21
-8.84314787246558
 31
0.0
  0
LINE
  5
   560
  8
0
  6
CONTINUOUS
 62
     1
 10
93.9364087241424
 20
-12.0431358006789
 30
0.0
 11
93.9668576377213
 21
-12.1962119740996
 31
0.0
  0
LINE
  5
   561
  8
0
  6
CONTINUOUS
 62
     1
 10
93.9668569464914
 20
-12.196210515714
 30
0.0
 11
94.0535650178222
 21
-12.3259773668382
 31
0.0
  0
LINE
  5
   562
  8
0
  6
CONTINUOUS
 62
     1
 10
94.0535681245955
 20
-12.3259822079841
 30
0.0
 11
94.1833380204581
 21
-12.412688754591
 31
0.0
  0
LINE
  5
   563
  8
0
  6
CONTINUOUS
 62
     1
 10
94.1833360217889
 20
-12.4126858501283
 30
0.0
 11
94.3364091435308
 21
-12.4431362893385
 31
0.0
  0
LINE
  5
   564
  8
0
  6
CONTINUOUS
 62
     1
 10
94.3364087065355
 20
-12.4431357190783
 30
0.0
 11
94.7364041348592
 21
-12.4431357190783
 31
0.0
  0
LINE
  5
   565
  8
0
  6
CONTINUOUS
 62
     1
 10
192.53642390274
 20
-10.0431417868313
 30
0.0
 11
192.936417805185
 21
-10.0431417868313
 31
0.0
  0
LINE
  5
   566
  8
0
  6
CONTINUOUS
 62
     7
 10
192.53642390274
 20
2.75685230038789
 30
0.0
 11
192.936417805185
 21
2.75685230038789
 31
0.0
  0
LINE
  5
   567
  8
0
  6
DOT
 62
     1
 10
180.636373119412
 20
2.75685230038789
 30
0.0
 11
191.136362652468
 21
2.75685230038789
 31
0.0
  0
LINE
  5
   568
  8
0
  6
CONTINUOUS
 62
     1
 10
191.336423884858
 20
-10.0431417868313
 30
0.0
 11
192.53642390274
 21
-10.0431417868313
 31
0.0
  0
LINE
  5
   569
  8
0
  6
CONTINUOUS
 62
     7
 10
192.9364239087
 20
-55.1431546659051
 30
0.0
 11
192.9364239087
 21
-53.2431576893507
 31
0.0
  0
LINE
  5
   56A
  8
0
  6
CONTINUOUS
 62
     7
 10
192.936417805185
 20
2.75685230038877
 30
0.0
 11
192.936423908701
 21
-53.2431607411077
 31
0.0
  0
LINE
  5
   56B
  8
0
  6
CONTINUOUS
 62
     7
 10
193.336417811145
 20
-32.0431665287197
 30
0.0
 11
193.336417811145
 21
-24.0431664095104
 31
0.0
  0
LINE
  5
   56C
  8
0
  6
CONTINUOUS
 62
     1
 10
112.136406682958
 20
-17.1208152321406
 30
0.0
 11
152.536404233207
 21
-17.1208152321406
 31
0.0
  0
LINE
  5
   56D
  8
0
  6
CONTINUOUS
 62
     1
 10
112.136406682958
 20
-16.7208152261801
 30
0.0
 11
152.536404233207
 21
-16.7208152261801
 31
0.0
  0
LINE
  5
   56E
  8
0
  6
CONTINUOUS
 62
   210
 10
130.336409242977
 20
-41.8710872073937
 30
0.0
 11
130.336409242977
 21
-18.2152122211046
 31
0.0
  0
LINE
  5
   56F
  8
0
  6
CONTINUOUS
 62
   210
 10
147.136411019196
 20
-41.8710872073937
 30
0.0
 11
147.136411019196
 21
-18.2152122211046
 31
0.0
  0
LINE
  5
   570
  8
0
  6
CONTINUOUS
 62
     1
 10
112.136406682958
 20
-24.7208153453894
 30
0.0
 11
130.336410005917
 21
-24.7208153453894
 31
0.0
  0
LINE
  5
   571
  8
0
  6
CONTINUOUS
 62
     1
 10
147.136411019196
 20
-24.7208153453894
 30
0.0
 11
152.536404996146
 21
-24.7208153453894
 31
0.0
  0
LINE
  5
   572
  8
0
  6
CONTINUOUS
 62
     1
 10
147.136411019196
 20
-24.3208153394289
 30
0.0
 11
152.536404996146
 21
-24.3208153394289
 31
0.0
  0
LINE
  5
   573
  8
0
  6
CONTINUOUS
 62
     1
 10
112.136406682958
 20
-24.3208153394289
 30
0.0
 11
130.336410005917
 21
-24.3208153394289
 31
0.0
  0
LINE
  5
   574
  8
0
  6
CONTINUOUS
 62
     1
 10
147.136411019196
 20
-35.4527033226898
 30
0.0
 11
152.536404996146
 21
-35.4527033226898
 31
0.0
  0
LINE
  5
   575
  8
0
  6
CONTINUOUS
 62
     1
 10
112.136406682958
 20
-35.4527033226898
 30
0.0
 11
130.336410005917
 21
-35.4527033226898
 31
0.0
  0
LINE
  5
   576
  8
0
  6
CONTINUOUS
 62
     1
 10
112.136406682958
 20
-35.8527033286503
 30
0.0
 11
130.336410005917
 21
-35.8527033286503
 31
0.0
  0
LINE
  5
   577
  8
0
  6
CONTINUOUS
 62
     1
 10
147.136411019196
 20
-35.8527033286503
 30
0.0
 11
152.536404996146
 21
-35.8527033286503
 31
0.0
  0
LINE
  5
   578
  8
0
  6
CONTINUOUS
 62
     1
 10
112.136406682958
 20
-43.0527034359386
 30
0.0
 11
152.536404233207
 21
-43.0527034359386
 31
0.0
  0
LINE
  5
   579
  8
0
  6
CONTINUOUS
 62
     1
 10
112.136406682958
 20
-43.4527034418991
 30
0.0
 11
152.536404233207
 21
-43.4527034418991
 31
0.0
  0
LINE
  5
   57A
  8
0
  6
CONTINUOUS
 62
     1
 10
89.7364162673848
 20
2.35685229442743
 30
0.0
 11
96.3364087363378
 21
2.35685229442743
 31
0.0
  0
LINE
  5
   57B
  8
0
  6
CONTINUOUS
 62
     1
 10
89.7364162560628
 20
-52.8431012212703
 30
0.0
 11
91.0364086460397
 21
-52.8430722295711
 31
0.0
  0
LINE
  5
   57C
  8
0
  6
CONTINUOUS
 62
     1
 10
93.3364086916344
 20
-46.8432384655665
 30
0.0
 11
96.7364087422983
 21
-46.8432384655665
 31
0.0
  0
LINE
  5
   57D
  8
0
  6
CONTINUOUS
 62
     1
 10
95.2364087199466
 20
-49.2432385013293
 30
0.0
 11
96.7364087422983
 21
-49.2432385013293
 31
0.0
  0
LINE
  5
   57E
  8
0
  6
CONTINUOUS
 62
     1
 10
96.3364087363378
 20
-5.24322106100999
 30
0.0
 11
96.7364087422983
 21
-5.24322106100999
 31
0.0
  0
LINE
  5
   57F
  8
0
  6
CONTINUOUS
 62
     1
 10
96.3364087363378
 20
-7.64322109677278
 30
0.0
 11
96.7364087422983
 21
-7.64322109677278
 31
0.0
  0
LINE
  5
   580
  8
0
  6
CONTINUOUS
 62
     5
 10
96.7364087422983
 20
-5.04322716154547
 30
0.0
 11
96.7364087422983
 21
-2.04322711684199
 31
0.0
  0
LINE
  5
   581
  8
0
  6
CONTINUOUS
 62
     5
 10
96.7364087422983
 20
-5.24322106100999
 30
0.0
 11
96.7364087422983
 21
-5.04322716154547
 31
0.0
  0
LINE
  5
   582
  8
0
  6
CONTINUOUS
 62
     5
 10
96.7364087422983
 20
-7.84322720326873
 30
0.0
 11
96.7364087422983
 21
-7.64322109677278
 31
0.0
  0
LINE
  5
   583
  8
0
  6
CONTINUOUS
 62
     5
 10
96.7364087422983
 20
-8.44322721220942
 30
0.0
 11
96.7364087422983
 21
-7.84322720326873
 31
0.0
  0
LINE
  5
   584
  8
0
  6
CONTINUOUS
 62
     5
 10
96.7364087422983
 20
-46.6432384625863
 30
0.0
 11
96.7364087422983
 21
-44.4432216451355
 31
0.0
  0
LINE
  5
   585
  8
0
  6
CONTINUOUS
 62
     5
 10
96.7364087422983
 20
-46.8432384655665
 30
0.0
 11
96.7364087422983
 21
-46.6432384625863
 31
0.0
  0
LINE
  5
   586
  8
0
  6
CONTINUOUS
 62
     5
 10
96.7364087422983
 20
-49.4432385043095
 30
0.0
 11
96.7364087422983
 21
-49.2432385013293
 31
0.0
  0
LINE
  5
   587
  8
0
  6
CONTINUOUS
 62
     5
 10
96.7364087422983
 20
-50.8432232663819
 30
0.0
 11
96.7364087422983
 21
-49.4432385043095
 31
0.0
  0
LINE
  5
   588
  8
0
  6
CONTINUOUS
 62
     5
 10
89.3364086320297
 20
-32.0432306156347
 30
0.0
 11
89.7364086379902
 21
-32.0432306156347
 31
0.0
  0
LINE
  5
   589
  8
0
  6
CONTINUOUS
 62
     5
 10
89.3364086320297
 20
-24.0432304964254
 30
0.0
 11
89.7364086379902
 21
-24.0432304964254
 31
0.0
  0
LINE
  5
   58A
  8
0
  6
CONTINUOUS
 62
     1
 10
93.3364086505545
 20
-5.14323479074406
 30
0.0
 11
94.2364086753067
 21
-4.24323476599186
 31
0.0
  0
LINE
  5
   58B
  8
0
  6
CONTINUOUS
 62
     1
 10
91.0364086573617
 20
-52.8430722341702
 30
0.0
 11
91.0364086573617
 21
-45.6430538163347
 31
0.0
  0
LINE
  5
   58C
  8
0
  6
CONTINUOUS
 62
     1
 10
91.0364086573617
 20
-45.6430538163347
 30
0.0
 11
92.2364086752431
 21
-45.6430538163347
 31
0.0
  0
LINE
  5
   58D
  8
0
  6
CONTINUOUS
 62
     1
 10
91.0364094616002
 20
-45.6430546707205
 30
0.0
 11
92.2364095058403
 21
-46.8430577495377
 31
0.0
  0
LINE
  5
   58E
  8
0
  6
CONTINUOUS
 62
     1
 10
91.0364086570479
 20
-52.8430722340357
 30
0.0
 11
92.2364086749293
 21
-52.8430676563989
 31
0.0
  0
LINE
  5
   58F
  8
0
  6
CONTINUOUS
 62
     1
 10
91.0364080335601
 20
-52.8430718243031
 30
0.0
 11
92.2364080777538
 21
-51.6430565059941
 31
0.0
  0
LINE
  5
   590
  8
0
  6
CONTINUOUS
 62
     1
 10
94.8364087139861
 20
-51.6430661127731
 30
0.0
 11
94.8364087139861
 21
-49.8431728974761
 31
0.0
  0
LINE
  5
   591
  8
0
  6
CONTINUOUS
 62
     1
 10
92.2364086752431
 20
-45.6430538163347
 30
0.0
 11
94.736408712496
 21
-45.6430538163347
 31
0.0
  0
LINE
  5
   592
  8
0
  6
CONTINUOUS
 62
     1
 10
92.2364086750471
 20
-52.8430676564296
 30
0.0
 11
96.3364087361419
 21
-52.8430539235193
 31
0.0
  0
LINE
  5
   593
  8
0
  6
CONTINUOUS
 62
     1
 10
90.436408648421
 20
-7.84305020131296
 30
0.0
 11
90.436408648421
 21
-1.34305010445541
 31
0.0
  0
LINE
  5
   594
  8
0
  6
CONTINUOUS
 62
     1
 10
90.436408648421
 20
-1.34305010445541
 30
0.0
 11
91.6364056145445
 21
-1.34305010445541
 31
0.0
  0
LINE
  5
   595
  8
0
  6
CONTINUOUS
 62
     1
 10
90.4364098466761
 20
-1.34305210042338
 30
0.0
 11
91.6364068563391
 21
-2.54305821381764
 31
0.0
  0
LINE
  5
   596
  8
0
  6
CONTINUOUS
 62
     1
 10
90.4364084267525
 20
-7.84304458773672
 30
0.0
 11
91.6364054026978
 21
-6.64305064635282
 31
0.0
  0
LINE
  5
   597
  8
0
  6
CONTINUOUS
 62
     1
 10
94.2364087050454
 20
-4.24323325314026
 30
0.0
 11
95.0364087169663
 21
-4.24323325314026
 31
0.0
  0
LINE
  5
   598
  8
0
  6
CONTINUOUS
 62
     1
 10
94.2364087050454
 20
-4.24323325314026
 30
0.0
 11
94.2364087050454
 21
-2.54314167507255
 31
0.0
  0
LINE
  5
   599
  8
0
  6
CONTINUOUS
 62
     1
 10
91.6364056145445
 20
-1.34305010445541
 30
0.0
 11
96.3364087363378
 21
-1.34305010445541
 31
0.0
  0
LINE
  5
   59A
  8
0
  6
CONTINUOUS
 62
     1
 10
90.436408648421
 20
-7.84305020131296
 30
0.0
 11
94.736408712496
 21
-7.84305020131296
 31
0.0
  0
LINE
  5
   59B
  8
0
  6
CONTINUOUS
 62
     7
 10
192.9364239087
 20
-24.0431664095104
 30
0.0
 11
193.336417811145
 21
-24.0431664095104
 31
0.0
  0
LINE
  5
   59C
  8
0
  6
CONTINUOUS
 62
     7
 10
192.936417805185
 20
-32.0431665287197
 30
0.0
 11
193.336417811145
 21
-32.0431665287197
 31
0.0
  0
LINE
  5
   59D
  8
0
  6
CONTINUOUS
 62
   210
 10
130.336409242977
 20
-41.8710872073937
 30
0.0
 11
147.136411019196
 21
-41.8710872073937
 31
0.0
  0
LINE
  5
   59E
  8
0
  6
CONTINUOUS
 62
   210
 10
130.336409242977
 20
-41.4343226745182
 30
0.0
 11
147.136411019196
 21
-41.4343226745182
 31
0.0
  0
LINE
  5
   59F
  8
0
  6
CONTINUOUS
 62
   210
 10
130.336409242977
 20
-18.6519737022222
 30
0.0
 11
147.136411019196
 21
-18.6519737022222
 31
0.0
  0
LINE
  5
   5A0
  8
0
  6
CONTINUOUS
 62
   210
 10
130.336409242977
 20
-18.2152122211046
 30
0.0
 11
147.136411019196
 21
-18.2152122211046
 31
0.0
  0
CIRCLE
  5
   5A1
  8
0
  6
CONTINUOUS
 62
     7
 10
187.536423033874
 20
-38.2431632477418
 30
0.0
 40
2.10000010048305
  0
LINE
  5
   5A2
  8
0
  6
CONTINUOUS
 62
     1
 10
96.7364087422983
 20
-45.5431669238636
 30
0.0
 11
100.336361299442
 21
-45.5431669238636
 31
0.0
  0
LINE
  5
   5A3
  8
0
  6
DASHDOT
 62
     2
 10
82.9249520756214
 20
-22.2431480721411
 30
0.0
 11
194.887209567652
 21
-22.2431480721411
 31
0.0
  0
LINE
  5
   5A4
  8
0
  6
CONTINUOUS
 62
     7
 10
97.4363629763539
 20
26.5568465515175
 30
0.0
 11
180.036364207189
 21
26.5568465515175
 31
0.0
  0
LINE
  5
   5A5
  8
0
  6
CONTINUOUS
 62
     7
 10
97.3363718781452
 20
-82.6431613731999
 30
0.0
 11
180.136373111961
 21
-82.6431613731999
 31
0.0
  0
ARC
  5
   5A6
  8
0
  6
CONTINUOUS
 62
     7
 10
97.4363629763539
 20
26.0568465440669
 30
0.0
 40
0.500000007450581
 50
90.0
 51
180.0
  0
ARC
  5
   5A7
  8
0
  6
CONTINUOUS
 62
     7
 10
180.036364207189
 20
26.0568465440669
 30
0.0
 40
0.500000007450581
 50
0.0
 51
90.0
  0
ARC
  5
   5A8
  8
0
  6
CONTINUOUS
 62
     7
 10
180.136373111961
 20
-82.1431613657493
 30
0.0
 40
0.500000007450581
 50
270.0
 51
360.0
  0
ARC
  5
   5A9
  8
0
  6
CONTINUOUS
 62
     7
 10
97.3363718781452
 20
-82.1431613657493
 30
0.0
 40
0.500000007450581
 50
180.0
 51
270.0
  0
LINE
  5
   5AA
  8
0
  6
CONTINUOUS
 62
     1
 10
111.476372088848
 20
16.95685432912
 30
0.0
 11
111.476372088848
 21
26.5568465515175
 31
0.0
  0
LINE
  5
   5AB
  8
0
  6
CONTINUOUS
 62
     1
 10
112.916372110305
 20
16.95685432912
 30
0.0
 11
112.916372110305
 21
26.5568465515175
 31
0.0
  0
LINE
  5
   5AC
  8
0
  6
CONTINUOUS
 62
     1
 10
114.356372131763
 20
16.95685432912
 30
0.0
 11
114.356372131763
 21
26.5568465515175
 31
0.0
  0
LINE
  5
   5AD
  8
0
  6
CONTINUOUS
 62
     1
 10
115.796372153221
 20
16.95685432912
 30
0.0
 11
115.796372153221
 21
26.5568465515175
 31
0.0
  0
LINE
  5
   5AE
  8
0
  6
CONTINUOUS
 62
     1
 10
117.236372174678
 20
16.95685432912
 30
0.0
 11
117.236372174678
 21
26.5568465515175
 31
0.0
  0
LINE
  5
   5AF
  8
0
  6
CONTINUOUS
 62
     1
 10
118.676372196136
 20
16.95685432912
 30
0.0
 11
118.676372196136
 21
26.5568465515175
 31
0.0
  0
LINE
  5
   5B0
  8
0
  6
CONTINUOUS
 62
     1
 10
120.116372217594
 20
16.95685432912
 30
0.0
 11
120.116372217594
 21
26.5568465515175
 31
0.0
  0
LINE
  5
   5B1
  8
0
  6
CONTINUOUS
 62
     1
 10
121.556372239051
 20
16.95685432912
 30
0.0
 11
121.556372239051
 21
26.5568465515175
 31
0.0
  0
LINE
  5
   5B2
  8
0
  6
CONTINUOUS
 62
     1
 10
122.996372260509
 20
16.95685432912
 30
0.0
 11
122.996372260509
 21
26.5568465515175
 31
0.0
  0
LINE
  5
   5B3
  8
0
  6
CONTINUOUS
 62
     1
 10
124.436372281967
 20
16.95685432912
 30
0.0
 11
124.436372281967
 21
26.5568465515175
 31
0.0
  0
LINE
  5
   5B4
  8
0
  6
CONTINUOUS
 62
     1
 10
125.876372303424
 20
16.95685432912
 30
0.0
 11
125.876372303424
 21
26.5568465515175
 31
0.0
  0
LINE
  5
   5B5
  8
0
  6
CONTINUOUS
 62
     1
 10
127.316372324882
 20
16.95685432912
 30
0.0
 11
127.316372324882
 21
26.5568465515175
 31
0.0
  0
LINE
  5
   5B6
  8
0
  6
CONTINUOUS
 62
     1
 10
128.75637234634
 20
16.95685432912
 30
0.0
 11
128.75637234634
 21
26.5568465515175
 31
0.0
  0
LINE
  5
   5B7
  8
0
  6
CONTINUOUS
 62
     1
 10
130.196372367797
 20
16.95685432912
 30
0.0
 11
130.196372367797
 21
26.5568465515175
 31
0.0
  0
LINE
  5
   5B8
  8
0
  6
CONTINUOUS
 62
     1
 10
131.636372389255
 20
16.95685432912
 30
0.0
 11
131.636372389255
 21
26.5568465515175
 31
0.0
  0
LINE
  5
   5B9
  8
0
  6
CONTINUOUS
 62
     1
 10
133.076372410713
 20
16.95685432912
 30
0.0
 11
133.076372410713
 21
26.5568465515175
 31
0.0
  0
LINE
  5
   5BA
  8
0
  6
CONTINUOUS
 62
     1
 10
134.51637243217
 20
16.95685432912
 30
0.0
 11
134.51637243217
 21
26.5568465515175
 31
0.0
  0
LINE
  5
   5BB
  8
0
  6
CONTINUOUS
 62
     1
 10
135.956372453628
 20
16.95685432912
 30
0.0
 11
135.956372453628
 21
26.5568465515175
 31
0.0
  0
LINE
  5
   5BC
  8
0
  6
CONTINUOUS
 62
     1
 10
137.396372475086
 20
16.95685432912
 30
0.0
 11
137.396372475086
 21
26.5568465515175
 31
0.0
  0
LINE
  5
   5BD
  8
0
  6
CONTINUOUS
 62
     1
 10
165.996355094695
 20
16.95685432912
 30
0.0
 11
165.996355094695
 21
26.5568465515175
 31
0.0
  0
LINE
  5
   5BE
  8
0
  6
CONTINUOUS
 62
     1
 10
164.556355073238
 20
16.95685432912
 30
0.0
 11
164.556355073238
 21
26.5568465515175
 31
0.0
  0
LINE
  5
   5BF
  8
0
  6
CONTINUOUS
 62
     1
 10
163.11635505178
 20
16.95685432912
 30
0.0
 11
163.11635505178
 21
26.5568465515175
 31
0.0
  0
LINE
  5
   5C0
  8
0
  6
CONTINUOUS
 62
     1
 10
161.676355030322
 20
16.95685432912
 30
0.0
 11
161.676355030322
 21
26.5568465515175
 31
0.0
  0
LINE
  5
   5C1
  8
0
  6
CONTINUOUS
 62
     1
 10
160.236355008865
 20
16.95685432912
 30
0.0
 11
160.236355008865
 21
26.5568465515175
 31
0.0
  0
LINE
  5
   5C2
  8
0
  6
CONTINUOUS
 62
     1
 10
158.796354987407
 20
16.95685432912
 30
0.0
 11
158.796354987407
 21
26.5568465515175
 31
0.0
  0
LINE
  5
   5C3
  8
0
  6
CONTINUOUS
 62
     1
 10
157.356354965949
 20
16.95685432912
 30
0.0
 11
157.356354965949
 21
26.5568465515175
 31
0.0
  0
LINE
  5
   5C4
  8
0
  6
CONTINUOUS
 62
     1
 10
155.916354944492
 20
16.95685432912
 30
0.0
 11
155.916354944492
 21
26.5568465515175
 31
0.0
  0
LINE
  5
   5C5
  8
0
  6
CONTINUOUS
 62
     1
 10
154.476354923034
 20
16.95685432912
 30
0.0
 11
154.476354923034
 21
26.5568465515175
 31
0.0
  0
LINE
  5
   5C6
  8
0
  6
CONTINUOUS
 62
     1
 10
153.036354901576
 20
16.95685432912
 30
0.0
 11
153.036354901576
 21
26.5568465515175
 31
0.0
  0
LINE
  5
   5C7
  8
0
  6
CONTINUOUS
 62
     1
 10
151.596354880119
 20
16.95685432912
 30
0.0
 11
151.596354880119
 21
26.5568465515175
 31
0.0
  0
LINE
  5
   5C8
  8
0
  6
CONTINUOUS
 62
     1
 10
150.156354858661
 20
16.95685432912
 30
0.0
 11
150.156354858661
 21
26.5568465515175
 31
0.0
  0
LINE
  5
   5C9
  8
0
  6
CONTINUOUS
 62
     1
 10
148.716354837203
 20
16.95685432912
 30
0.0
 11
148.716354837203
 21
26.5568465515175
 31
0.0
  0
LINE
  5
   5CA
  8
0
  6
CONTINUOUS
 62
     1
 10
147.276354815746
 20
16.95685432912
 30
0.0
 11
147.276354815746
 21
26.5568465515175
 31
0.0
  0
LINE
  5
   5CB
  8
0
  6
CONTINUOUS
 62
     1
 10
145.836354794288
 20
16.95685432912
 30
0.0
 11
145.836354794288
 21
26.5568465515175
 31
0.0
  0
LINE
  5
   5CC
  8
0
  6
CONTINUOUS
 62
     1
 10
144.39635477283
 20
16.95685432912
 30
0.0
 11
144.39635477283
 21
26.5568465515175
 31
0.0
  0
LINE
  5
   5CD
  8
0
  6
CONTINUOUS
 62
     1
 10
142.956354751373
 20
16.95685432912
 30
0.0
 11
142.956354751373
 21
26.5568465515175
 31
0.0
  0
LINE
  5
   5CE
  8
0
  6
CONTINUOUS
 62
     1
 10
141.516354729915
 20
16.95685432912
 30
0.0
 11
141.516354729915
 21
26.5568465515175
 31
0.0
  0
LINE
  5
   5CF
  8
0
  6
CONTINUOUS
 62
     1
 10
140.076354708457
 20
16.95685432912
 30
0.0
 11
140.076354708457
 21
26.5568465515175
 31
0.0
  0
LINE
  5
   5D0
  8
0
  6
CONTINUOUS
 62
     1
 10
111.476372088848
 20
-82.6431613731999
 30
0.0
 11
111.476372088848
 21
-70.4431672966444
 31
0.0
  0
LINE
  5
   5D1
  8
0
  6
CONTINUOUS
 62
     1
 10
112.916372110305
 20
-82.6431613731999
 30
0.0
 11
112.916372110305
 21
-70.4431672966444
 31
0.0
  0
LINE
  5
   5D2
  8
0
  6
CONTINUOUS
 62
     1
 10
114.356372131763
 20
-82.6431613731999
 30
0.0
 11
114.356372131763
 21
-70.4431672966444
 31
0.0
  0
LINE
  5
   5D3
  8
0
  6
CONTINUOUS
 62
     1
 10
115.796372153221
 20
-82.6431613731999
 30
0.0
 11
115.796372153221
 21
-70.4431672966444
 31
0.0
  0
LINE
  5
   5D4
  8
0
  6
CONTINUOUS
 62
     1
 10
117.236372174678
 20
-82.6431613731999
 30
0.0
 11
117.236372174678
 21
-70.4431672966444
 31
0.0
  0
LINE
  5
   5D5
  8
0
  6
CONTINUOUS
 62
     1
 10
118.676372196136
 20
-82.6431613731999
 30
0.0
 11
118.676372196136
 21
-70.4431672966444
 31
0.0
  0
LINE
  5
   5D6
  8
0
  6
CONTINUOUS
 62
     1
 10
120.116372217594
 20
-82.6431613731999
 30
0.0
 11
120.116372217594
 21
-70.4431672966444
 31
0.0
  0
LINE
  5
   5D7
  8
0
  6
CONTINUOUS
 62
     1
 10
121.556372239051
 20
-82.6431613731999
 30
0.0
 11
121.556372239051
 21
-70.4431672966444
 31
0.0
  0
LINE
  5
   5D8
  8
0
  6
CONTINUOUS
 62
     1
 10
122.996372260509
 20
-82.6431613731999
 30
0.0
 11
122.996372260509
 21
-70.4431672966444
 31
0.0
  0
LINE
  5
   5D9
  8
0
  6
CONTINUOUS
 62
     1
 10
124.436372281967
 20
-82.6431613731999
 30
0.0
 11
124.436372281967
 21
-70.4431672966444
 31
0.0
  0
LINE
  5
   5DA
  8
0
  6
CONTINUOUS
 62
     1
 10
125.876372303424
 20
-82.6431613731999
 30
0.0
 11
125.876372303424
 21
-70.4431672966444
 31
0.0
  0
LINE
  5
   5DB
  8
0
  6
CONTINUOUS
 62
     1
 10
127.316372324882
 20
-82.6431613731999
 30
0.0
 11
127.316372324882
 21
-70.4431672966444
 31
0.0
  0
LINE
  5
   5DC
  8
0
  6
CONTINUOUS
 62
     1
 10
128.75637234634
 20
-82.6431613731999
 30
0.0
 11
128.75637234634
 21
-70.4431672966444
 31
0.0
  0
LINE
  5
   5DD
  8
0
  6
CONTINUOUS
 62
     1
 10
130.196372367797
 20
-82.6431613731999
 30
0.0
 11
130.196372367797
 21
-70.4431672966444
 31
0.0
  0
LINE
  5
   5DE
  8
0
  6
CONTINUOUS
 62
     1
 10
131.636372389255
 20
-82.6431613731999
 30
0.0
 11
131.636372389255
 21
-70.4431672966444
 31
0.0
  0
LINE
  5
   5DF
  8
0
  6
CONTINUOUS
 62
     1
 10
133.076372410713
 20
-82.6431613731999
 30
0.0
 11
133.076372410713
 21
-70.4431672966444
 31
0.0
  0
LINE
  5
   5E0
  8
0
  6
CONTINUOUS
 62
     1
 10
134.51637243217
 20
-82.6431613731999
 30
0.0
 11
134.51637243217
 21
-70.4431672966444
 31
0.0
  0
LINE
  5
   5E1
  8
0
  6
CONTINUOUS
 62
     1
 10
135.956372453628
 20
-82.6431613731999
 30
0.0
 11
135.956372453628
 21
-70.4431672966444
 31
0.0
  0
LINE
  5
   5E2
  8
0
  6
CONTINUOUS
 62
     1
 10
137.396372475086
 20
-82.6431613731999
 30
0.0
 11
137.396372475086
 21
-70.4431672966444
 31
0.0
  0
LINE
  5
   5E3
  8
0
  6
CONTINUOUS
 62
     1
 10
165.996355094695
 20
-82.6431613731999
 30
0.0
 11
165.996355094695
 21
-70.4431672966444
 31
0.0
  0
LINE
  5
   5E4
  8
0
  6
CONTINUOUS
 62
     1
 10
164.556355073238
 20
-82.6431613731999
 30
0.0
 11
164.556355073238
 21
-70.4431672966444
 31
0.0
  0
LINE
  5
   5E5
  8
0
  6
CONTINUOUS
 62
     1
 10
163.11635505178
 20
-82.6431613731999
 30
0.0
 11
163.11635505178
 21
-70.4431672966444
 31
0.0
  0
LINE
  5
   5E6
  8
0
  6
CONTINUOUS
 62
     1
 10
161.676355030322
 20
-82.6431613731999
 30
0.0
 11
161.676355030322
 21
-70.4431672966444
 31
0.0
  0
LINE
  5
   5E7
  8
0
  6
CONTINUOUS
 62
     1
 10
160.236355008865
 20
-82.6431613731999
 30
0.0
 11
160.236355008865
 21
-70.4431672966444
 31
0.0
  0
LINE
  5
   5E8
  8
0
  6
CONTINUOUS
 62
     1
 10
158.796354987407
 20
-82.6431613731999
 30
0.0
 11
158.796354987407
 21
-70.4431672966444
 31
0.0
  0
LINE
  5
   5E9
  8
0
  6
CONTINUOUS
 62
     1
 10
157.356354965949
 20
-82.6431613731999
 30
0.0
 11
157.356354965949
 21
-70.4431672966444
 31
0.0
  0
LINE
  5
   5EA
  8
0
  6
CONTINUOUS
 62
     1
 10
155.916354944492
 20
-82.6431613731999
 30
0.0
 11
155.916354944492
 21
-70.4431672966444
 31
0.0
  0
LINE
  5
   5EB
  8
0
  6
CONTINUOUS
 62
     1
 10
154.476354923034
 20
-82.6431613731999
 30
0.0
 11
154.476354923034
 21
-70.4431672966444
 31
0.0
  0
LINE
  5
   5EC
  8
0
  6
CONTINUOUS
 62
     1
 10
153.036354901576
 20
-82.6431613731999
 30
0.0
 11
153.036354901576
 21
-70.4431672966444
 31
0.0
  0
LINE
  5
   5ED
  8
0
  6
CONTINUOUS
 62
     1
 10
151.596354880119
 20
-82.6431613731999
 30
0.0
 11
151.596354880119
 21
-70.4431672966444
 31
0.0
  0
LINE
  5
   5EE
  8
0
  6
CONTINUOUS
 62
     1
 10
150.156354858661
 20
-82.6431613731999
 30
0.0
 11
150.156354858661
 21
-70.4431672966444
 31
0.0
  0
LINE
  5
   5EF
  8
0
  6
CONTINUOUS
 62
     1
 10
148.716354837203
 20
-82.6431613731999
 30
0.0
 11
148.716354837203
 21
-70.4431672966444
 31
0.0
  0
LINE
  5
   5F0
  8
0
  6
CONTINUOUS
 62
     1
 10
147.276354815746
 20
-82.6431613731999
 30
0.0
 11
147.276354815746
 21
-70.4431672966444
 31
0.0
  0
LINE
  5
   5F1
  8
0
  6
CONTINUOUS
 62
     1
 10
145.836354794288
 20
-82.6431613731999
 30
0.0
 11
145.836354794288
 21
-70.4431672966444
 31
0.0
  0
LINE
  5
   5F2
  8
0
  6
CONTINUOUS
 62
     1
 10
144.39635477283
 20
-82.6431613731999
 30
0.0
 11
144.39635477283
 21
-70.4431672966444
 31
0.0
  0
LINE
  5
   5F3
  8
0
  6
CONTINUOUS
 62
     1
 10
142.956354751373
 20
-82.6431613731999
 30
0.0
 11
142.956354751373
 21
-70.4431672966444
 31
0.0
  0
LINE
  5
   5F4
  8
0
  6
CONTINUOUS
 62
     1
 10
141.516354729915
 20
-82.6431613731999
 30
0.0
 11
141.516354729915
 21
-70.4431672966444
 31
0.0
  0
LINE
  5
   5F5
  8
0
  6
CONTINUOUS
 62
     1
 10
140.076354708457
 20
-82.6431613731999
 30
0.0
 11
140.076354708457
 21
-70.4431672966444
 31
0.0
  0
LINE
  5
   5F6
  8
0
  6
CONTINUOUS
 62
     1
 10
110.03637206739
 20
-82.6431613731999
 30
0.0
 11
110.03637206739
 21
-61.4431491279494
 31
0.0
  0
LINE
  5
   5F7
  8
0
  6
CONTINUOUS
 62
     1
 10
108.596372045932
 20
-82.6431613731999
 30
0.0
 11
108.596372045932
 21
-61.4431491279494
 31
0.0
  0
LINE
  5
   5F8
  8
0
  6
CONTINUOUS
 62
     1
 10
107.156372024475
 20
-82.6431613731999
 30
0.0
 11
107.156372024475
 21
-61.4431491279494
 31
0.0
  0
LINE
  5
   5F9
  8
0
  6
CONTINUOUS
 62
     1
 10
105.716372003017
 20
-82.6431613731999
 30
0.0
 11
105.716372003017
 21
-61.4431491279494
 31
0.0
  0
LINE
  5
   5FA
  8
0
  6
CONTINUOUS
 62
     1
 10
104.276371981559
 20
-82.6431613731999
 30
0.0
 11
104.276371981559
 21
-61.4431491279494
 31
0.0
  0
LINE
  5
   5FB
  8
0
  6
CONTINUOUS
 62
     1
 10
102.836371960102
 20
-82.6431613731999
 30
0.0
 11
102.836371960102
 21
-61.4431491279494
 31
0.0
  0
LINE
  5
   5FC
  8
0
  6
CONTINUOUS
 62
     1
 10
101.396371938644
 20
-82.6431613731999
 30
0.0
 11
101.396371938644
 21
-61.4431491279494
 31
0.0
  0
LINE
  5
   5FD
  8
0
  6
CONTINUOUS
 62
     1
 10
99.9563719171863
 20
-82.6431613731999
 30
0.0
 11
99.9563719171863
 21
-54.6431609559484
 31
0.0
  0
LINE
  5
   5FE
  8
0
  6
CONTINUOUS
 62
     1
 10
98.5163718957286
 20
-82.6431613731999
 30
0.0
 11
98.5163718957286
 21
-54.2431609738298
 31
0.0
  0
LINE
  5
   5FF
  8
0
  6
CONTINUOUS
 62
     1
 10
167.436355116153
 20
-82.6431613731999
 30
0.0
 11
167.436355116153
 21
-61.4431491279494
 31
0.0
  0
LINE
  5
   600
  8
0
  6
CONTINUOUS
 62
     1
 10
168.876355137611
 20
-82.6431613731999
 30
0.0
 11
168.876355137611
 21
-61.4431491279494
 31
0.0
  0
LINE
  5
   601
  8
0
  6
CONTINUOUS
 62
     1
 10
170.316355159068
 20
-82.6431613731999
 30
0.0
 11
170.316355159068
 21
-61.4431491279494
 31
0.0
  0
LINE
  5
   602
  8
0
  6
CONTINUOUS
 62
     1
 10
171.756355180526
 20
-82.6431613731999
 30
0.0
 11
171.756355180526
 21
-61.4431491279494
 31
0.0
  0
LINE
  5
   603
  8
0
  6
CONTINUOUS
 62
     1
 10
173.196355201984
 20
-82.6431613731999
 30
0.0
 11
173.196355201984
 21
-61.4431491279494
 31
0.0
  0
LINE
  5
   604
  8
0
  6
CONTINUOUS
 62
     1
 10
174.636355223441
 20
-82.6431613731999
 30
0.0
 11
174.636355223441
 21
-61.4431491279494
 31
0.0
  0
LINE
  5
   605
  8
0
  6
CONTINUOUS
 62
     1
 10
176.076355244899
 20
-82.6431613731999
 30
0.0
 11
176.076355244899
 21
-61.4431491279494
 31
0.0
  0
LINE
  5
   606
  8
0
  6
CONTINUOUS
 62
     1
 10
177.516355266357
 20
-82.6431613731999
 30
0.0
 11
177.516355266357
 21
-61.4431491279494
 31
0.0
  0
LINE
  5
   607
  8
0
  6
CONTINUOUS
 62
     1
 10
178.956355287814
 20
-82.6431613731999
 30
0.0
 11
178.956355287814
 21
-61.4431491279494
 31
0.0
  0
LINE
  5
   608
  8
0
  6
CONTINUOUS
 62
     7
 10
102.73636305533
 20
48.9568628346628
 30
0.0
 11
118.736363293748
 21
48.9568628346628
 31
0.0
  0
LINE
  5
   609
  8
0
  6
CONTINUOUS
 62
     7
 10
130.736363472562
 20
48.956835699774
 30
0.0
 11
146.736363710981
 21
48.956835699774
 31
0.0
  0
LINE
  5
   60A
  8
0
  6
CONTINUOUS
 62
     7
 10
158.736363889795
 20
48.9568214700124
 30
0.0
 11
174.736364128213
 21
48.9568214700124
 31
0.0
  0
ARC
  5
   60B
  8
0
  6
CONTINUOUS
 62
     7
 10
98.1363629867844
 20
-86.6431459800181
 30
0.0
 40
0.400000005960464
 50
180.0
 51
270.0
  0
ARC
  5
   60C
  8
0
  6
CONTINUOUS
 62
     7
 10
179.336364196759
 20
-86.6431459800181
 30
0.0
 40
0.400000005960464
 50
270.0
 51
360.0
  0
ARC
  5
   60D
  8
0
  6
CONTINUOUS
 62
     7
 10
179.336364196759
 20
30.5568527146402
 30
0.0
 40
0.400000005960464
 50
0.0
 51
90.0
  0
ARC
  5
   60E
  8
0
  6
CONTINUOUS
 62
     7
 10
98.1363629867844
 20
30.5568527146402
 30
0.0
 40
0.400000005960464
 50
90.0
 51
180.0
  0
INSERT
  5
   60F
  8
255
  6
CONTINUOUS
 62
     7
  2
MOSTRA
 10
138.736361871647
 20
-51.3431405851136
 30
0.0
 41
0.400000005960464
 42
0.400000005960464
 43
0.400000005960464
  0
LINE
  5
   610
  8
0
  6
DOT
 62
     1
 10
180.636373119412
 20
-55.1431546659051
 30
0.0
 11
191.136362652468
 21
-55.1431546659051
 31
0.0
  0
LINE
  5
   611
  8
0
  6
CONTINUOUS
 62
     1
 10
191.136362652468
 20
-22.043152952005
 30
0.0
 11
192.936417805257
 21
-22.0431511208929
 31
0.0
  0
LINE
  5
   612
  8
0
  6
DOT
 62
     1
 10
180.636373119412
 20
-61.4431491279494
 30
0.0
 11
180.636373119412
 21
16.95685432912
 31
0.0
  0
LINE
  5
   613
  8
0
  6
DASHDOT
 62
     7
 10
187.536423033874
 20
-41.5431633661063
 30
0.0
 11
187.536423033874
 21
-34.9431631293774
 31
0.0
  0
LINE
  5
   614
  8
0
  6
DASHDOT
 62
     7
 10
184.236422915509
 20
-38.2431632477418
 30
0.0
 11
190.836423152238
 21
-38.2431632477418
 31
0.0
  0
LINE
  5
   615
  8
0
  6
CONTINUOUS
 62
     7
 10
191.136362652468
 20
2.75685230038789
 30
0.0
 11
192.53642390274
 21
2.75685230038789
 31
0.0
  0
LINE
  5
   616
  8
0
  6
CONTINUOUS
 62
     7
 10
191.136362652468
 20
-55.1431546659051
 30
0.0
 11
192.9364239087
 21
-55.1431546659051
 31
0.0
  0
TEXT
  5
   617
  8
0
  6
CONTINUOUS
 62
     1
 10
162.642173435241
 20
-193.620710411668
 30
0.0
 40
2.00000007748604
  1
M4371 97-07-07
 41
0.749999884366991
 72
     1
 11
172.992172241211
 21
-192.620710372925
 31
0.0
 73
     2
  0
TEXT
  5
   618
  8
0
  6
CONTINUOUS
 62
     1
 10
187.482173435241
 20
-193.620710411668
 30
0.0
 40
2.00000007748604
  1
M4504 98-11-17
 41
0.749999884366991
 72
     1
 11
197.832172241211
 21
-192.620710372925
 31
0.0
 73
     2
  0
TEXT
  5
   619
  8
0
  6
CONTINUOUS
 62
     1
 10
123.989456176758
 20
-186.621772843599
 30
0.0
 40
2.00000007748604
  1
SCARPELLINI
 41
0.749999884366991
 72
     2
 11
140.189454308152
 21
-186.621772843599
 31
0.0
  0
TEXT
  5
   61A
  8
0
  6
CONTINUOUS
 62
     1
 10
136.902177719639
 20
-193.620708035868
 30
0.0
 40
2.00000007748604
  1
M 3076 95-01-16
 41
0.749999884366991
 72
     1
 11
148.002176439033
 21
-192.620707997125
 31
0.0
 73
     2
  0
TEXT
  5
   61B
  8
0
  6
CONTINUOUS
 62
     7
 10
195.226109136641
 20
-24.1105095024786
 30
0.0
 40
2.99999994933605
  1
X
 41
0.916666607525612
 72
     1
 11
196.326109045744
 21
-22.6105095278106
 31
0.0
 73
     2
  0
INSERT
  5
   61C
  8
0
  6
CONTINUOUS
 62
     7
  2
*UDIM1086
 10
0.0
 20
0.0
 30
0.0
  0
INSERT
  5
   61D
  8
0
  6
CONTINUOUS
 62
     7
  2
*UDIM1087
 10
0.0
 20
0.0
 30
0.0
  0
TEXT
  5
   61E
  8
0
  6
CONTINUOUS
 62
     7
 10
89.4149684730425
 20
-35.9633881072744
 30
0.0
 40
2.99999994933605
  1
=        =
 50
90.0
 41
0.91666673368878
 72
     1
 11
87.9149684983575
 21
-22.4883873354706
 31
0.0
 73
     2
  0
INSERT
  5
   61F
  8
0
  6
CONTINUOUS
 62
     7
  2
*UDIM1088
 10
0.0
 20
0.0
 30
0.0
  0
INSERT
  5
   620
  8
0
  6
CONTINUOUS
 62
     7
  2
*UDIM1089
 10
0.0
 20
0.0
 30
0.0
  0
INSERT
  5
   621
  8
0
  6
CONTINUOUS
 62
     7
  2
*UDIM1090
 10
0.0
 20
0.0
 30
0.0
  0
INSERT
  5
   622
  8
0
  6
CONTINUOUS
 62
     7
  2
*UDIM1091
 10
0.0
 20
0.0
 30
0.0
  0
INSERT
  5
   623
  8
0
  6
CONTINUOUS
 62
     7
  2
*UDIM1092
 10
0.0
 20
0.0
 30
0.0
  0
TEXT
  5
   624
  8
0
  6
CONTINUOUS
 62
     1
 10
123.989456415999
 20
-178.155020548322
 30
0.0
 40
2.00000007748604
  1
93-04-05 FERRARI M.
 41
0.749999884366991
 72
     2
 11
152.189453162181
 21
-178.155020548322
 31
0.0
  0
INSERT
  5
   625
  8
0
  6
CONTINUOUS
 62
     7
  2
*UDIM1093
 10
0.0
 20
0.0
 30
0.0
  0
INSERT
  5
   626
  8
0
  6
CONTINUOUS
 62
     7
  2
*UDIM1094
 10
0.0
 20
0.0
 30
0.0
  0
INSERT
  5
   627
  8
0
  6
CONTINUOUS
 62
     7
  2
*UDIM1095
 10
0.0
 20
0.0
 30
0.0
  0
INSERT
  5
   628
  8
0
  6
CONTINUOUS
 62
     7
  2
*UDIM1096
 10
0.0
 20
0.0
 30
0.0
  0
INSERT
  5
   629
  8
0
  6
CONTINUOUS
 62
     7
  2
*UDIM1097
 10
0.0
 20
0.0
 30
0.0
  0
TEXT
  5
   62A
  8
0
  6
CONTINUOUS
 62
     7
 10
138.111563743062
 20
65.4770131471005
 30
0.0
 40
2.99999994933605
  1
Y
 41
0.916666607525612
 72
     2
 11
140.311563561268
 21
65.4770131471005
 31
0.0
  0
TEXT
  5
   62B
  8
0
  6
CONTINUOUS
 62
     7
 10
122.78820217019
 20
49.069114953385
 30
0.0
 40
2.99999994933605
  1
=          =
 41
0.916666607525612
 72
     2
 11
155.238199525879
 21
49.069114953385
 31
0.0
  0
INSERT
  5
   62C
  8
0
  6
CONTINUOUS
 62
     7
  2
*UDIM1098
 10
0.0
 20
0.0
 30
0.0
  0
INSERT
  5
   62D
  8
0
  6
CONTINUOUS
 62
     7
  2
*UDIM1099
 10
0.0
 20
0.0
 30
0.0
  0
INSERT
  5
   62E
  8
0
  6
CONTINUOUS
 62
     7
  2
*UDIM1100
 10
0.0
 20
0.0
 30
0.0
  0
INSERT
  5
   62F
  8
0
  6
CONTINUOUS
 62
     7
  2
*UDIM1101
 10
0.0
 20
0.0
 30
0.0
  0
INSERT
  5
   630
  8
0
  6
CONTINUOUS
 62
     7
  2
*UDIM1102
 10
0.0
 20
0.0
 30
0.0
  0
INSERT
  5
   631
  8
0
  6
CONTINUOUS
 62
     7
  2
*UDIM1103
 10
0.0
 20
0.0
 30
0.0
  0
INSERT
  5
   632
  8
0
  6
CONTINUOUS
 62
     7
  2
*UDIM1104
 10
0.0
 20
0.0
 30
0.0
  0
TEXT
  5
   633
  8
0
  6
CONTINUOUS
 62
     7
 10
137.250711679453
 20
-142.12346018591
 30
0.0
 40
2.99999994933605
  1
Y
 41
0.916666607525612
 72
     2
 11
139.450711497659
 21
-142.12346018591
 31
0.0
  0
TEXT
  5
   634
  8
0
  6
CONTINUOUS
 62
     1
 10
231.9737110422
 20
-204.689859484861
 30
0.0
 40
4.00000015497208
  1
601840/141
 41
0.93749995827675
 72
     2
 11
268.723710797076
 21
-204.689859484861
 31
0.0
  0
TEXT
  5
   635
  8
0
  6
CONTINUOUS
 62
     1
 10
233.059404374042
 20
-195.708280359437
 30
0.0
 40
2.99999994933605
  1
     S6
 41
0.916666607525612
 72
     2
 11
251.759402849057
 21
-195.708280359437
 31
0.0
  0
TEXT
  5
   636
  8
0
  6
CONTINUOUS
 62
     1
 10
221.524983929897
 20
-177.398014945389
 30
0.0
 40
2.00000007748604
  1
3POLE LOW VOLTAGE M.C.C.B SERIES ISOMAX
 41
0.749999884366991
 72
     1
 11
250.624980571473
 21
-176.398014906646
 31
0.0
 73
     2
  0
TEXT
  5
   637
  8
0
  6
CONTINUOUS
 62
     1
 10
223.774983932438
 20
-180.398014945389
 30
0.0
 40
2.00000007748604
  1
WITHDRAWABLE VERSION FRONT TERMINALS
 41
0.749999884366991
 72
     1
 11
250.624980833741
 21
-179.398014906646
 31
0.0
 73
     2
  0
TEXT
  5
   638
  8
0
  6
CONTINUOUS
 62
     1
 10
224.727375675976
 20
-185.46827873752
 30
0.0
 40
2.00000007748604
  1
INTERR.AUTOMATICO SERIE ISOMAX
 41
0.749999884366991
 72
     1
 11
247.077373096734
 21
-184.468278698777
 31
0.0
 73
     2
  0
TEXT
  5
   639
  8
0
  6
CONTINUOUS
 62
     1
 10
213.477377236881
 20
-188.46827873752
 30
0.0
 40
2.00000007748604
  1
TRIPOL.ESECUZIONE ESTRAIBILE TERMIN.ANTERIORI
 41
0.749999884366991
 72
     1
 11
247.077373359003
 21
-187.468278698777
 31
0.0
 73
     2
  0
LINE
  5
   63A
  8
0
  6
DASHDOT
 62
     2
 10
-38.794189453125
 20
-142.473579378603
 30
0.0
 11
-38.794189453125
 21
-200.970698756522
 31
0.0
  0
LINE
  5
   63B
  8
0
  6
DASHDOT
 62
     2
 10
-5.4812951713774
 20
-168.701187107712
 30
0.0
 11
-64.5234022940423
 21
-168.701187107712
 31
0.0
  0
CIRCLE
  5
   63C
  8
0
  6
CONTINUOUS
 62
     7
 10
-52.7941896617413
 20
-159.601186972111
 30
0.0
 40
0.850000012665987
  0
CIRCLE
  5
   63D
  8
0
  6
CONTINUOUS
 62
     7
 10
-24.7941892445087
 20
-159.601186972111
 30
0.0
 40
0.850000012665987
  0
CIRCLE
  5
   63E
  8
0
  6
CONTINUOUS
 62
     7
 10
-24.7941892445087
 20
-183.601187329739
 30
0.0
 40
0.850000012665987
  0
CIRCLE
  5
   63F
  8
0
  6
CONTINUOUS
 62
     7
 10
-52.7941896617413
 20
-183.601187329739
 30
0.0
 40
0.850000012665987
  0
LINE
  5
   640
  8
0
  6
DASHDOT
 62
     7
 10
-52.7941896617413
 20
-156.751186929643
 30
0.0
 11
-52.7941896617413
 21
-162.45118701458
 31
0.0
  0
LINE
  5
   641
  8
0
  6
DASHDOT
 62
     7
 10
-49.9441896192729
 20
-159.601186972111
 30
0.0
 11
-55.6441897042096
 21
-159.601186972111
 31
0.0
  0
LINE
  5
   642
  8
0
  6
DASHDOT
 62
     7
 10
-24.7941892445087
 20
-156.751186929643
 30
0.0
 11
-24.7941892445087
 21
-180.277999882392
 31
0.0
  0
LINE
  5
   643
  8
0
  6
DASHDOT
 62
     7
 10
-21.9441892020404
 20
-159.601186972111
 30
0.0
 11
-48.1252739784817
 21
-159.601186972111
 31
0.0
  0
LINE
  5
   644
  8
0
  6
DASHDOT
 62
     7
 10
-24.7941892445087
 20
-180.751187287271
 30
0.0
 11
-24.7941892445087
 21
-186.451187372208
 31
0.0
  0
LINE
  5
   645
  8
0
  6
DASHDOT
 62
     7
 10
-21.9441892020404
 20
-183.601187329739
 30
0.0
 11
-48.4192065441546
 21
-183.601187329739
 31
0.0
  0
LINE
  5
   646
  8
0
  6
DASHDOT
 62
     7
 10
-52.7941896617413
 20
-163.979952949182
 30
0.0
 11
-52.7941896617413
 21
-186.451187372208
 31
0.0
  0
LINE
  5
   647
  8
0
  6
DASHDOT
 62
     7
 10
-49.9441896192729
 20
-183.601187329739
 30
0.0
 11
-55.6441897042096
 21
-183.601187329739
 31
0.0
  0
LINE
  5
   648
  8
0
  6
CONTINUOUS
 62
     7
 10
-15.7941891103983
 20
-140.601186688989
 30
0.0
 11
-15.7941891103983
 21
-202.601187612861
 31
0.0
  0
LINE
  5
   649
  8
0
  6
CONTINUOUS
 62
     7
 10
-61.7941897958517
 20
-140.601186688989
 30
0.0
 11
-61.7941897958517
 21
-202.601187612861
 31
0.0
  0
LINE
  5
   64A
  8
0
  6
CONTINUOUS
 62
     7
 10
-15.7941891103983
 20
-202.601187612861
 30
0.0
 11
-61.7941897958517
 21
-202.601187612861
 31
0.0
  0
LINE
  5
   64B
  8
0
  6
CONTINUOUS
 62
     7
 10
-15.7941891103983
 20
-140.601186688989
 30
0.0
 11
-61.7941897958517
 21
-140.601186688989
 31
0.0
  0
LINE
  5
   64C
  8
0
  6
CONTINUOUS
 62
     7
 10
-17.7941891402006
 20
-157.201186936349
 30
0.0
 11
-59.7941897660494
 21
-157.201186936349
 31
0.0
  0
LINE
  5
   64D
  8
0
  6
CONTINUOUS
 62
     7
 10
-17.7941891402006
 20
-186.001187365502
 30
0.0
 11
-59.7941897660494
 21
-186.001187365502
 31
0.0
  0
LINE
  5
   64E
  8
0
  6
CONTINUOUS
 62
     7
 10
-17.7941891402006
 20
-141.701186705381
 30
0.0
 11
-59.7941897660494
 21
-141.701186705381
 31
0.0
  0
LINE
  5
   64F
  8
0
  6
CONTINUOUS
 62
     7
 10
-17.7941891402006
 20
-201.50118759647
 30
0.0
 11
-59.7941897660494
 21
-201.50118759647
 31
0.0
  0
LINE
  5
   650
  8
0
  6
CONTINUOUS
 62
     7
 10
-17.3941891342402
 20
-142.101186711341
 30
0.0
 11
-17.3941891342402
 21
-156.801186930388
 31
0.0
  0
LINE
  5
   651
  8
0
  6
CONTINUOUS
 62
     7
 10
-60.1941897720098
 20
-142.101186711341
 30
0.0
 11
-60.1941897720098
 21
-156.801186930388
 31
0.0
  0
LINE
  5
   652
  8
0
  6
CONTINUOUS
 62
     7
 10
-17.3941891342402
 20
-186.401187371463
 30
0.0
 11
-17.3941891342402
 21
-201.10118759051
 31
0.0
  0
LINE
  5
   653
  8
0
  6
CONTINUOUS
 62
     7
 10
-60.1941897720098
 20
-186.401187371463
 30
0.0
 11
-60.1941897720098
 21
-201.10118759051
 31
0.0
  0
ARC
  5
   654
  8
0
  6
CONTINUOUS
 62
     7
 10
-59.7941897660494
 20
-142.101186711341
 30
0.0
 40
0.400000005960464
 50
449.999999896069
 51
539.999999896069
  0
ARC
  5
   655
  8
0
  6
CONTINUOUS
 62
     7
 10
-59.7941897660494
 20
-156.801186930388
 30
0.0
 40
0.400000005960464
 50
179.999999896069
 51
269.999999896069
  0
ARC
  5
   656
  8
0
  6
CONTINUOUS
 62
     7
 10
-17.7941891402006
 20
-156.801186930388
 30
0.0
 40
0.400000005960464
 50
269.999999896069
 51
359.999999896069
  0
ARC
  5
   657
  8
0
  6
CONTINUOUS
 62
     7
 10
-17.7941891402006
 20
-142.101186711341
 30
0.0
 40
0.400000005960464
 50
359.999999896069
 51
449.999999896069
  0
ARC
  5
   658
  8
0
  6
CONTINUOUS
 62
     7
 10
-17.7941891402006
 20
-186.401187371463
 30
0.0
 40
0.400000005960464
 50
359.999999896069
 51
449.999999896069
  0
ARC
  5
   659
  8
0
  6
CONTINUOUS
 62
     7
 10
-17.7941891402006
 20
-201.10118759051
 30
0.0
 40
0.400000005960464
 50
269.999999896069
 51
359.999999896069
  0
ARC
  5
   65A
  8
0
  6
CONTINUOUS
 62
     7
 10
-59.7941897660494
 20
-201.10118759051
 30
0.0
 40
0.400000005960464
 50
179.999999896069
 51
269.999999896069
  0
ARC
  5
   65B
  8
0
  6
CONTINUOUS
 62
     7
 10
-59.7941897660494
 20
-186.401187371463
 30
0.0
 40
0.400000005960464
 50
449.999999896069
 51
539.999999896069
  0
TEXT
  5
   65C
  8
0
  6
CONTINUOUS
 62
     7
 10
-49.5200044350014
 20
-139.722338294524
 30
0.0
 40
2.99999994933605
  1
=      =
 50
359.999999896069
 41
0.916666607525612
 72
     2
 11
-28.0700061838514
 21
-139.722338333325
 31
0.0
  0
INSERT
  5
   65D
  8
0
  6
CONTINUOUS
 62
     7
  2
*UDIM1105
 10
0.0
 20
0.0
 30
0.0
  0
INSERT
  5
   65E
  8
0
  6
CONTINUOUS
 62
     7
  2
*UDIM1106
 10
0.0
 20
0.0
 30
0.0
  0
INSERT
  5
   65F
  8
0
  6
CONTINUOUS
 62
     7
  2
*UDIM1107
 10
0.0
 20
0.0
 30
0.0
  0
INSERT
  5
   660
  8
0
  6
CONTINUOUS
 62
     7
  2
*UDIM1108
 10
0.0
 20
0.0
 30
0.0
  0
INSERT
  5
   661
  8
0
  6
CONTINUOUS
 62
     7
  2
*UDIM1109
 10
0.0
 20
0.0
 30
0.0
  0
INSERT
  5
   662
  8
0
  6
CONTINUOUS
 62
     7
  2
*UDIM1110
 10
0.0
 20
0.0
 30
0.0
  0
TEXT
  5
   663
  8
0
  6
CONTINUOUS
 62
     7
 10
-48.8056306450595
 20
-150.982235312895
 30
0.0
 40
2.99999994933605
  1
=      =
 50
359.999999896069
 41
0.916666607525612
 72
     2
 11
-27.3556323939095
 21
-150.982235351697
 31
0.0
  0
INSERT
  5
   664
  8
0
  6
CONTINUOUS
 62
     7
  2
*UDIM1111
 10
0.0
 20
0.0
 30
0.0
  0
INSERT
  5
   665
  8
0
  6
CONTINUOUS
 62
     7
  2
*UDIM1112
 10
0.0
 20
0.0
 30
0.0
  0
INSERT
  5
   666
  8
0
  6
CONTINUOUS
 62
     7
  2
*UDIM1113
 10
0.0
 20
0.0
 30
0.0
  0
TEXT
  5
   667
  8
0
  6
CONTINUOUS
 62
     7
 10
-39.7754209691781
 20
-205.746020936389
 30
0.0
 40
2.99999994933605
  1
Y
 50
359.999999896069
 41
0.916666607525612
 72
     2
 11
-37.5754211509723
 21
-205.746020940369
 31
0.0
  0
TEXT
  5
   668
  8
0
  6
CONTINUOUS
 62
     7
 10
-39.9500428399137
 20
-131.997359559128
 30
0.0
 40
2.99999994933605
  1
Y
 50
359.999999896069
 41
0.916666607525612
 72
     2
 11
-37.7500430217079
 21
-131.997359563108
 31
0.0
  0
TEXT
  5
   669
  8
0
  6
CONTINUOUS
 62
     7
 10
-92.1103096350761
 20
-170.100248234205
 30
0.0
 40
2.99999994933605
  1
X
 50
359.999999896069
 41
0.916666607525612
 72
     2
 11
-89.9103098168703
 21
-170.100248238185
 31
0.0
  0
TEXT
  5
   66A
  8
0
  6
CONTINUOUS
 62
     7
 10
-3.92896676833733
 20
-170.615302944639
 30
0.0
 40
2.99999994933605
  1
X
 50
359.999999896069
 41
0.916666607525612
 72
     2
 11
-1.7289669501315
 21
-170.615302948619
 31
0.0
  0
LINE
  5
   66B
  8
0
  6
DASHDOT
 62
     2
 10
235.735153198242
 20
39.4845401463703
 30
0.0
 11
235.735153198242
 21
-21.2643664427836
 31
0.0
  0
LINE
  5
   66C
  8
0
  6
DASHDOT
 62
     2
 10
205.929128507706
 20
8.40684223175049
 30
0.0
 11
276.942621190886
 21
8.40684223175049
 31
0.0
  0
LINE
  5
   66D
  8
0
  6
CONTINUOUS
 62
     7
 10
213.360153198242
 20
28.5318422317505
 30
0.0
 11
255.860153198242
 21
28.5318422317505
 31
0.0
  0
LINE
  5
   66E
  8
0
  6
CONTINUOUS
 62
     7
 10
213.360153198242
 20
-11.7181577682495
 30
0.0
 11
255.860153198242
 21
-11.7181577682495
 31
0.0
  0
CIRCLE
  5
   66F
  8
0
  6
CONTINUOUS
 62
     7
 10
260.985153198242
 20
8.40684223175049
 30
0.0
 40
1.0
  0
CIRCLE
  5
   670
  8
0
  6
CONTINUOUS
 62
     7
 10
240.672653198242
 20
30.5318422317505
 30
0.0
 40
1.0
  0
CIRCLE
  5
   671
  8
0
  6
CONTINUOUS
 62
     7
 10
220.360153198242
 20
30.5318422317505
 30
0.0
 40
0.875
  0
CIRCLE
  5
   672
  8
0
  6
CONTINUOUS
 62
     7
 10
260.985153198242
 20
-13.7181577682495
 30
0.0
 40
0.875
  0
CIRCLE
  5
   673
  8
0
  6
CONTINUOUS
 62
     7
 10
240.672653198242
 20
-13.7181577682495
 30
0.0
 40
1.0
  0
CIRCLE
  5
   674
  8
0
  6
CONTINUOUS
 62
     7
 10
220.360153198242
 20
-13.7181577682495
 30
0.0
 40
1.0
  0
CIRCLE
  5
   675
  8
0
  6
CONTINUOUS
 62
     7
 10
260.985153198242
 20
30.5318422317505
 30
0.0
 40
1.0
  0
LINE
  5
   676
  8
0
  6
DASHDOT
 62
     7
 10
260.985153198242
 20
32.1568422317505
 30
0.0
 11
260.985153198242
 21
9.8312914302952
 31
0.0
  0
LINE
  5
   677
  8
0
  6
DASHDOT
 62
     7
 10
259.360153198242
 20
30.5318422317505
 30
0.0
 11
262.610153198242
 21
30.5318422317505
 31
0.0
  0
LINE
  5
   678
  8
0
  6
DASHDOT
 62
     7
 10
240.672653198242
 20
39.5532945778111
 30
0.0
 11
240.672653198242
 21
28.9068422317505
 31
0.0
  0
LINE
  5
   679
  8
0
  6
DASHDOT
 62
     7
 10
239.047653198242
 20
30.5318422317505
 30
0.0
 11
242.297653198242
 21
30.5318422317505
 31
0.0
  0
LINE
  5
   67A
  8
0
  6
DASHDOT
 62
     7
 10
220.360153198242
 20
32.1568422317505
 30
0.0
 11
220.360153198242
 21
28.9068422317505
 31
0.0
  0
LINE
  5
   67B
  8
0
  6
DASHDOT
 62
     7
 10
218.735153198242
 20
30.5318422317505
 30
0.0
 11
221.985153198242
 21
30.5318422317505
 31
0.0
  0
LINE
  5
   67C
  8
0
  6
DASHDOT
 62
     7
 10
240.672653198242
 20
-12.0931577682495
 30
0.0
 11
240.672653198242
 21
-15.3431577682495
 31
0.0
  0
LINE
  5
   67D
  8
0
  6
DASHDOT
 62
     7
 10
239.047653198242
 20
-13.7181577682495
 30
0.0
 11
242.297653198242
 21
-13.7181577682495
 31
0.0
  0
LINE
  5
   67E
  8
0
  6
DASHDOT
 62
     7
 10
260.985153198242
 20
-12.0931577682495
 30
0.0
 11
260.985153198242
 21
-15.3431577682495
 31
0.0
  0
LINE
  5
   67F
  8
0
  6
DASHDOT
 62
     7
 10
259.360153198242
 20
-13.7181577682495
 30
0.0
 11
262.610153198242
 21
-13.7181577682495
 31
0.0
  0
LINE
  5
   680
  8
0
  6
DASHDOT
 62
     7
 10
220.360153198242
 20
-12.0931577682495
 30
0.0
 11
220.360153198242
 21
-15.3431577682495
 31
0.0
  0
LINE
  5
   681
  8
0
  6
DASHDOT
 62
     7
 10
218.735153198242
 20
-13.7181577682495
 30
0.0
 11
221.985153198242
 21
-13.7181577682495
 31
0.0
  0
LINE
  5
   682
  8
0
  6
DASHDOT
 62
     7
 10
260.985153198242
 20
10.0318422317505
 30
0.0
 11
260.985153198242
 21
-11.8719347227598
 31
0.0
  0
ARC
  5
   683
  8
0
  6
CONTINUOUS
 62
     7
 10
265.985153198242
 20
4.15684223175049
 30
0.0
 40
2.0
 50
359.999999844103
 51
539.999999844103
  0
ARC
  5
   684
  8
0
  6
CONTINUOUS
 62
     7
 10
265.985153198242
 20
-1.59315776824951
 30
0.0
 40
2.0
 50
539.999999844103
 51
719.999999844103
  0
LINE
  5
   685
  8
0
  6
CONTINUOUS
 62
     7
 10
267.985153198242
 20
4.15684223175049
 30
0.0
 11
267.985153198242
 21
-1.59315776824951
 31
0.0
  0
LINE
  5
   686
  8
0
  6
CONTINUOUS
 62
     7
 10
263.985153198242
 20
4.15684223175049
 30
0.0
 11
263.985153198242
 21
-1.59315776824951
 31
0.0
  0
LINE
  5
   687
  8
0
  6
DASHDOT
 62
     7
 10
265.985153198242
 20
6.90684223175049
 30
0.0
 11
265.985153198242
 21
1.40684223175049
 31
0.0
  0
LINE
  5
   688
  8
0
  6
DASHDOT
 62
     7
 10
263.235153198242
 20
4.15684223175049
 30
0.0
 11
268.735153198242
 21
4.15684223175049
 31
0.0
  0
LINE
  5
   689
  8
0
  6
DASHDOT
 62
     7
 10
265.985153198242
 20
1.15684223175049
 30
0.0
 11
265.985153198242
 21
-4.34315776824951
 31
0.0
  0
LINE
  5
   68A
  8
0
  6
DASHDOT
 62
     7
 10
263.235153198242
 20
-1.59315776824951
 30
0.0
 11
268.735153198242
 21
-1.59315776824951
 31
0.0
  0
POINT
  5
   68B
  8
0
  6
CONTINUOUS
 62
     7
 10
265.985153198242
 20
6.15684223175049
 30
0.0
  0
POINT
  5
   68C
  8
0
  6
CONTINUOUS
 62
     7
 10
265.985153198242
 20
-3.59315776824951
 30
0.0
  0
CIRCLE
  5
   68D
  8
0
  6
CONTINUOUS
 62
     7
 10
246.297653198242
 20
30.9068422317505
 30
0.0
 40
0.5
  0
CIRCLE
  5
   68E
  8
0
  6
CONTINUOUS
 62
     7
 10
235.047653198242
 20
30.9068422317505
 30
0.0
 40
0.5
  0
CIRCLE
  5
   68F
  8
0
  6
CONTINUOUS
 62
     7
 10
235.047653198242
 20
30.9068422317505
 30
0.0
 40
0.92
  0
CIRCLE
  5
   690
  8
0
  6
CONTINUOUS
 62
     7
 10
246.297653198242
 20
30.9068422317505
 30
0.0
 40
0.92
  0
LINE
  5
   691
  8
0
  6
DASHDOT
 62
     7
 10
246.297653198242
 20
32.5768422317505
 30
0.0
 11
246.297653198242
 21
29.2368422317505
 31
0.0
  0
LINE
  5
   692
  8
0
  6
DASHDOT
 62
     7
 10
244.627653198242
 20
30.9068422317505
 30
0.0
 11
247.967653198242
 21
30.9068422317505
 31
0.0
  0
LINE
  5
   693
  8
0
  6
DASHDOT
 62
     7
 10
235.047653198242
 20
32.5768422317505
 30
0.0
 11
235.047653198242
 21
29.2368422317505
 31
0.0
  0
LINE
  5
   694
  8
0
  6
DASHDOT
 62
     7
 10
233.377653198242
 20
30.9068422317505
 30
0.0
 11
236.717653198242
 21
30.9068422317505
 31
0.0
  0
LINE
  5
   695
  8
0
  6
CONTINUOUS
 62
     7
 10
210.725977564719
 20
35.023135079359
 30
0.0
 11
272.279949729874
 21
35.023135079359
 31
0.0
  0
LINE
  5
   696
  8
0
  6
CONTINUOUS
 62
     7
 10
210.725977564719
 20
-16.8365057747724
 30
0.0
 11
272.279949729874
 21
-16.8365057747724
 31
0.0
  0
LINE
  5
   697
  8
0
  6
CONTINUOUS
 62
     7
 10
210.725977564719
 20
35.023135079359
 30
0.0
 11
210.725977564719
 21
-16.8365057747724
 31
0.0
  0
LINE
  5
   698
  8
0
  6
CONTINUOUS
 62
     7
 10
272.279949729874
 20
35.023135079359
 30
0.0
 11
272.279949729874
 21
-16.8365057747724
 31
0.0
  0
LINE
  5
   699
  8
0
  6
CONTINUOUS
 62
     7
 10
255.860153198242
 20
28.5318422317505
 30
0.0
 11
255.860153198242
 21
-11.7181577682495
 31
0.0
  0
LINE
  5
   69A
  8
0
  6
CONTINUOUS
 62
     7
 10
213.360153198242
 20
28.5318422317505
 30
0.0
 11
213.360153198242
 21
-11.7181577682495
 31
0.0
  0
LINE
  5
   69B
  8
0
  6
CONTINUOUS
 62
     7
 10
273.930632574535
 20
28.7167818807288
 30
0.0
 11
273.930632574535
 21
21.5490954232504
 31
0.0
  0
LINE
  5
   69C
  8
0
  6
CONTINUOUS
 62
     7
 10
276.190012001349
 20
28.7167818807288
 30
0.0
 11
276.190012001349
 21
21.5490954232504
 31
0.0
  0
LINE
  5
   69D
  8
0
  6
CONTINUOUS
 62
     7
 10
273.930632574535
 20
28.7167818807288
 30
0.0
 11
276.190012001349
 21
28.7167818807288
 31
0.0
  0
LINE
  5
   69E
  8
0
  6
CONTINUOUS
 62
     7
 10
273.930632574535
 20
21.5490954232504
 30
0.0
 11
276.190012001349
 21
21.5490954232504
 31
0.0
  0
LINE
  5
   69F
  8
0
  6
CONTINUOUS
 62
     7
 10
273.930632574535
 20
-11.9030974172278
 30
0.0
 11
276.190012001349
 21
-11.9030974172278
 31
0.0
  0
LINE
  5
   6A0
  8
0
  6
CONTINUOUS
 62
     7
 10
273.930632574535
 20
-4.73541095974937
 30
0.0
 11
276.190012001349
 21
-4.73541095974937
 31
0.0
  0
LINE
  5
   6A1
  8
0
  6
CONTINUOUS
 62
     7
 10
273.930632574535
 20
-4.73541095974937
 30
0.0
 11
273.930632574535
 21
-11.9030974172278
 31
0.0
  0
LINE
  5
   6A2
  8
0
  6
CONTINUOUS
 62
     7
 10
276.190012001349
 20
-4.73541095974937
 30
0.0
 11
276.190012001349
 21
-11.9030974172278
 31
0.0
  0
LINE
  5
   6A3
  8
0
  6
DASHDOT
 62
     2
 10
275.060322287942
 20
31.7552576616164
 30
0.0
 11
275.060322287942
 21
-49.3486727974605
 31
0.0
  0
LINE
  5
   6A4
  8
0
  6
CONTINUOUS
 62
     2
 10
213.636232328364
 20
61.4122355875579
 30
0.0
 11
233.099335993409
 21
32.5018726154349
 31
0.0
  0
LINE
  5
   6A5
  8
0
  6
CONTINUOUS
 62
     2
 10
213.636232328364
 20
61.4122355875578
 30
0.0
 11
238.654281116239
 21
61.4122355875578
 31
0.0
  0
LINE
  5
   6A6
  8
0
  6
CONTINUOUS
 62
     7
 10
229.83671323785
 20
35.3430975917677
 30
0.0
 11
233.099335993409
 21
32.5018726154349
 31
0.0
  0
LINE
  5
   6A7
  8
0
  6
CONTINUOUS
 62
     7
 10
231.772190486679
 20
36.3672860970414
 30
0.0
 11
233.099335993409
 21
32.5018726154349
 31
0.0
  0
INSERT
  5
   6A8
  8
0
  6
CONTINUOUS
 62
     7
  2
*UDIM1114
 10
0.0
 20
0.0
 30
0.0
  0
INSERT
  5
   6A9
  8
0
  6
CONTINUOUS
 62
     7
  2
*UDIM1115
 10
0.0
 20
0.0
 30
0.0
  0
INSERT
  5
   6AA
  8
0
  6
CONTINUOUS
 62
     7
  2
*UDIM1116
 10
0.0
 20
0.0
 30
0.0
  0
TEXT
  5
   6AB
  8
0
  6
CONTINUOUS
 62
     7
 10
216.572177553573
 20
62.7129945739722
 30
0.0
 40
3.00000002980232
  1
PART. Z
 50
359.999999844103
 41
0.916666689183977
 72
     1
 11
225.922177881002
 21
64.2129945634799
 31
0.0
 73
     2
  0
INSERT
  5
   6AC
  8
0
  6
CONTINUOUS
 62
     7
  2
*UDIM1117
 10
0.0
 20
0.0
 30
0.0
  0
TEXT
  5
   6AD
  8
0
  6
CONTINUOUS
 62
     7
 10
194.675396074749
 20
7.13195281267673
 30
0.0
 40
3.00000002980232
  1
X
 50
359.999999844103
 41
0.916666604744064
 72
     2
 11
196.875395943619
 21
7.13195280670179
 31
0.0
  0
TEXT
  5
   6AE
  8
0
  6
CONTINUOUS
 62
     7
 10
292.16516887138
 20
6.95326917410404
 30
0.0
 40
3.00000002980232
  1
X
 50
359.999999844103
 41
0.916666604744064
 72
     2
 11
294.36516874025
 21
6.95326916812909
 31
0.0
  0
TEXT
  5
   6AF
  8
0
  6
CONTINUOUS
 62
     7
 10
234.235944857098
 20
55.3050507807782
 30
0.0
 40
3.00000002980232
  1
Y
 50
359.999999844103
 41
0.916666604744064
 72
     2
 11
236.435944725968
 21
55.3050507748033
 31
0.0
  0
TEXT
  5
   6B0
  8
0
  6
CONTINUOUS
 62
     7
 10
234.524803270794
 20
-58.1843214726397
 30
0.0
 40
3.00000002980232
  1
Y
 50
359.999999844103
 41
0.916666604744064
 72
     2
 11
236.724803139664
 21
-58.1843214786147
 31
0.0
  0
TEXT
  5
   6B1
  8
0
  6
CONTINUOUS
 62
     7
 10
209.182775072759
 20
3.99277553626651
 30
0.0
 40
2.50000005960464
  1
=  =
 50
449.999999844103
 41
0.899999932169916
 72
     2
 11
209.182775095969
 21
12.542775081185
 31
0.0
  0
INSERT
  5
   6B2
  8
0
  6
CONTINUOUS
 62
     7
  2
*UDIM1118
 10
0.0
 20
0.0
 30
0.0
  0
INSERT
  5
   6B3
  8
0
  6
CONTINUOUS
 62
     7
  2
*UDIM1119
 10
0.0
 20
0.0
 30
0.0
  0
INSERT
  5
   6B4
  8
0
  6
CONTINUOUS
 62
     7
  2
*UDIM1120
 10
0.0
 20
0.0
 30
0.0
  0
INSERT
  5
   6B5
  8
0
  6
CONTINUOUS
 62
     7
  2
*UDIM1121
 10
0.0
 20
0.0
 30
0.0
  0
INSERT
  5
   6B6
  8
0
  6
CONTINUOUS
 62
     7
  2
*UDIM1122
 10
0.0
 20
0.0
 30
0.0
  0
INSERT
  5
   6B7
  8
0
  6
CONTINUOUS
 62
     7
  2
*UDIM1123
 10
0.0
 20
0.0
 30
0.0
  0
INSERT
  5
   6B8
  8
0
  6
CONTINUOUS
 62
     7
  2
*UDIM1124
 10
0.0
 20
0.0
 30
0.0
  0
INSERT
  5
   6B9
  8
0
  6
CONTINUOUS
 62
     7
  2
*UDIM1125
 10
0.0
 20
0.0
 30
0.0
  0
INSERT
  5
   6BA
  8
0
  6
CONTINUOUS
 62
     7
  2
*UDIM1126
 10
0.0
 20
0.0
 30
0.0
  0
INSERT
  5
   6BB
  8
0
  6
CONTINUOUS
 62
     7
  2
*UDIM1127
 10
0.0
 20
0.0
 30
0.0
  0
INSERT
  5
   6BC
  8
0
  6
CONTINUOUS
 62
     7
  2
*UDIM1128
 10
0.0
 20
0.0
 30
0.0
  0
INSERT
  5
   6BD
  8
0
  6
CONTINUOUS
 62
     7
  2
*UDIM1129
 10
0.0
 20
0.0
 30
0.0
  0
INSERT
  5
   6BE
  8
0
  6
CONTINUOUS
 62
     7
  2
*UDIM1130
 10
0.0
 20
0.0
 30
0.0
  0
INSERT
  5
   6BF
  8
0
  6
CONTINUOUS
 62
     7
  2
*UDIM1131
 10
0.0
 20
0.0
 30
0.0
  0
TEXT
  5
   6C0
  8
0
  6
CONTINUOUS
 62
     7
 10
236.527021817049
 20
36.579010768514
 30
0.0
 40
2.50000005960464
  1
=  =
 50
359.999999844103
 41
0.899999932169916
 72
     2
 11
245.077021361968
 21
36.5790107452932
 31
0.0
  0
INSERT
  5
   6C1
  8
0
  6
CONTINUOUS
 62
     7
  2
*UDIM1132
 10
0.0
 20
0.0
 30
0.0
  0
LINE
  5
   6C2
  8
0
  6
CONTINUOUS
 62
     7
 10
69.6744766235352
 20
-144.921423705141
 30
0.0
 11
69.6744766235352
 21
-168.837945191344
 31
0.0
  0
LINE
  5
   6C3
  8
0
  6
CONTINUOUS
 62
     7
 10
67.6744766235352
 20
-144.921423705141
 30
0.0
 11
67.6744766235352
 21
-168.837945191344
 31
0.0
  0
LINE
  5
   6C4
  8
0
  6
DASHDOT
 62
     7
 10
64.4718735211382
 20
-156.879684448242
 30
0.0
 11
72.8980927135755
 21
-156.879684448242
 31
0.0
  0
POINT
  5
   6C5
  8
0
  6
CONTINUOUS
 62
     7
 10
67.6744766235352
 20
-154.879684448242
 30
0.0
  0
POINT
  5
   6C6
  8
0
  6
CONTINUOUS
 62
     7
 10
67.6744766235352
 20
-158.879684448242
 30
0.0
  0
LINE
  5
   6C7
  8
0
  6
CONTINUOUS
 62
     7
 10
69.6744766235352
 20
-153.201485185888
 30
0.0
 11
67.6744766235352
 21
-154.879684448242
 31
0.0
  0
LINE
  5
   6C8
  8
0
  6
CONTINUOUS
 62
     7
 10
67.6744766235352
 20
-158.879684448242
 30
0.0
 11
69.6744766235352
 21
-160.557883710597
 31
0.0
  0
LINE
  5
   6C9
  8
0
  6
CONTINUOUS
 62
     7
 10
67.6744766235352
 20
-166.379684448242
 30
0.0
 11
69.6744766235352
 21
-166.379684448242
 31
0.0
  0
CIRCLE
  5
   6CA
  8
0
  6
CONTINUOUS
 62
     7
 10
68.6744766235352
 20
-156.879684448242
 30
0.0
 40
12.0
  0
LINE
  5
   6CB
  8
0
  6
CONTINUOUS
 62
     7
 10
61.6744842529297
 20
-161.379684448242
 30
0.0
 11
64.1744842529297
 21
-161.379684448242
 31
0.0
  0
LINE
  5
   6CC
  8
0
  6
CONTINUOUS
 62
     7
 10
65.1744842529297
 20
-152.379684448242
 30
0.0
 11
65.1744842529297
 21
-160.379684448242
 31
0.0
  0
LINE
  5
   6CD
  8
0
  6
CONTINUOUS
 62
     7
 10
65.1744842529297
 20
-152.379684448242
 30
0.0
 11
67.6744766235351
 21
-152.379684448242
 31
0.0
  0
LINE
  5
   6CE
  8
0
  6
CONTINUOUS
 62
     7
 10
61.6744842529297
 20
-163.879684448242
 30
0.0
 11
64.1744842529297
 21
-163.879684448242
 31
0.0
  0
LINE
  5
   6CF
  8
0
  6
CONTINUOUS
 62
     7
 10
60.6744842529297
 20
-164.879684448242
 30
0.0
 11
60.6744842529297
 21
-165.823963182173
 31
0.0
  0
ARC
  5
   6D0
  8
0
  6
CONTINUOUS
 62
     7
 10
64.1744884002096
 20
-160.379685119581
 30
0.0
 40
0.999996977799109
 50
629.999840735313
 51
720.000252836193
  0
ARC
  5
   6D1
  8
0
  6
CONTINUOUS
 62
     7
 10
61.6744989064364
 20
-164.879697134547
 30
0.0
 40
3.50001845311552
 50
450.000186734275
 51
513.408761128067
  0
ARC
  5
   6D2
  8
0
  6
CONTINUOUS
 62
     7
 10
61.6744400047797
 20
-164.87964355346
 30
0.0
 40
0.999949821243504
 50
449.997764042825
 51
540.001169660043
  0
ARC
  5
   6D3
  8
0
  6
CONTINUOUS
 62
     7
 10
64.1745036053113
 20
-160.379716495176
 30
0.0
 40
3.49997105594423
 50
629.999653243441
 51
720.000420168909
  0
INSERT
  5
   6D4
  8
0
  6
CONTINUOUS
 62
     7
  2
*HATCH253
 10
68.6744766235352
 20
-156.879684448242
 30
0.0
 50
269.999999844103
  0
INSERT
  5
   6D5
  8
0
  6
CONTINUOUS
 62
     7
  2
*HATCH254
 10
68.6744766235352
 20
-156.879684448242
 30
0.0
 50
269.999999844103
  0
LINE
  5
   6D6
  8
0
  6
CONTINUOUS
 62
     7
 10
48.3712609342725
 20
-144.910229750025
 30
0.0
 11
48.3712609342725
 21
-169.492417536609
 31
0.0
  0
TEXT
  5
   6D7
  8
0
  6
CONTINUOUS
 62
     7
 10
93.4642254356535
 20
-160.093588234522
 30
0.0
 40
3.00000002980232
  1
PART. Z
 50
359.999999844103
 41
0.916666689183977
 72
     1
 11
102.814225763083
 21
-158.593588245015
 31
0.0
 73
     2
  0
INSERT
  5
   6D8
  8
0
  6
CONTINUOUS
 62
     7
  2
*UDIM1133
 10
0.0
 20
0.0
 30
0.0
  0
INSERT
  5
   6D9
  8
0
  6
CONTINUOUS
 62
     7
  2
*UDIM1134
 10
0.0
 20
0.0
 30
0.0
  0
ENDSEC
  0
EOF
