  0
SECTION
  2
HEADER
  9
$ACADVER
  1
AC1009
  9
$DWGCODEPAGE
  3
iso8859-1
  9
$INSBASE
 10
0.0
 20
0.0
 30
0.0
  9
$EXTMIN
 10
1.0E20
 20
1.0E20
  9
$EXTMAX
 10
-1.0E20
 20
-1.0E20
  9
$LIMMIN
 10
0.0
 20
0.0
  9
$LIMMAX
 10
12.0
 20
9.0
  9
$ORTHOMODE
 70
     0
  9
$REGENMODE
 70
     1
  9
$FILLMODE
 70
     1
  9
$QTEXTMODE
 70
     0
  9
$MIRRTEXT
 70
     1
  9
$DRAGMODE
 70
     2
  9
$LTSCALE
 40
15.0
  9
$OSMODE
 70
     0
  9
$ATTMODE
 70
     1
  9
$TEXTSIZE
 40
0.2
  9
$TRACEWID
 40
0.05
  9
$TEXTSTYLE
  7
STANDARD
  9
$CLAYER
  8
0
  9
$CELTYPE
  6
DASHED
  9
$CECOLOR
 62
   256
  9
$DIMSCALE
 40
1.0
  9
$DIMASZ
 40
0.18
  9
$DIMEXO
 40
0.0625
  9
$DIMDLI
 40
0.38
  9
$DIMRND
 40
0.0
  9
$DIMDLE
 40
0.0
  9
$DIMEXE
 40
0.18
  9
$DIMTP
 40
0.0
  9
$DIMTM
 40
0.0
  9
$DIMTXT
 40
0.18
  9
$DIMCEN
 40
0.09
  9
$DIMTSZ
 40
0.0
  9
$DIMTOL
 70
     0
  9
$DIMLIM
 70
     0
  9
$DIMTIH
 70
     1
  9
$DIMTOH
 70
     1
  9
$DIMSE1
 70
     0
  9
$DIMSE2
 70
     0
  9
$DIMTAD
 70
     0
  9
$DIMZIN
 70
     0
  9
$DIMBLK
  1

  9
$DIMASO
 70
     1
  9
$DIMSHO
 70
     1
  9
$DIMPOST
  1

  9
$DIMAPOST
  1

  9
$DIMALT
 70
     0
  9
$DIMALTD
 70
     2
  9
$DIMALTF
 40
25.4
  9
$DIMLFAC
 40
1.0
  9
$DIMTOFL
 70
     0
  9
$DIMTVP
 40
0.0
  9
$DIMTIX
 70
     0
  9
$DIMSOXD
 70
     0
  9
$DIMSAH
 70
     0
  9
$DIMBLK1
  1

  9
$DIMBLK2
  1

  9
$DIMSTYLE
  2
STANDARD
  9
$DIMCLRD
 70
     0
  9
$DIMCLRE
 70
     0
  9
$DIMCLRT
 70
     0
  9
$DIMTFAC
 40
1.0
  9
$DIMGAP
 40
0.09
  9
$LUNITS
 70
     2
  9
$LUPREC
 70
     4
  9
$AXISMODE
 70
     0
  9
$AXISUNIT
 10
0.0
 20
0.0
  9
$SKETCHINC
 40
0.1
  9
$FILLETRAD
 40
0.0
  9
$AUNITS
 70
     0
  9
$AUPREC
 70
     0
  9
$MENU
  1
acad
  9
$ELEVATION
 40
0.0
  9
$PELEVATION
 40
0.0
  9
$THICKNESS
 40
0.0
  9
$LIMCHECK
 70
     0
  9
$BLIPMODE
 70
     1
  9
$CHAMFERA
 40
0.0
  9
$CHAMFERB
 40
0.0
  9
$SKPOLY
 70
     0
  9
$TDCREATE
 40
0.000000000
  9
$TDUPDATE
 40
0.000000000
  9
$TDINDWG
 40
0.0
  9
$TDUSRTIMER
 40
0.0
  9
$USRTIMER
 70
     1
  9
$ANGBASE
 50
0.0
  9
$ANGDIR
 70
     0
  9
$PDMODE
 70
     0
  9
$PDSIZE
 40
0.0
  9
$PLINEWID
 40
0.0
  9
$COORDS
 70
     1
  9
$SPLFRAME
 70
     0
  9
$SPLINETYPE
 70
     6
  9
$SPLINESEGS
 70
     8
  9
$ATTDIA
 70
     0
  9
$ATTREQ
 70
     1
  9
$HANDLING
 70
     1
  9
$HANDSEED
  5
   55F
  9
$SURFTAB1
 70
     6
  9
$SURFTAB2
 70
     6
  9
$SURFTYPE
 70
     6
  9
$SURFU
 70
     6
  9
$SURFV
 70
     6
  9
$UCSNAME
  2

  9
$UCSORG
 10
0.0
 20
0.0
 30
0.0
  9
$UCSXDIR
 10
1.0
 20
0.0
 30
0.0
  9
$UCSYDIR
 10
0.0
 20
1.0
 30
0.0
  9
$PUCSNAME
  2

  9
$PUCSORG
 10
0.0
 20
0.0
 30
0.0
  9
$PUCSXDIR
 10
1.0
 20
0.0
 30
0.0
  9
$PUCSYDIR
 10
0.0
 20
1.0
 30
0.0
  9
$USERI1
 70
     0
  9
$USERI2
 70
     0
  9
$USERI3
 70
     0
  9
$USERI4
 70
     0
  9
$USERI5
 70
     0
  9
$USERR1
 40
0.0
  9
$USERR2
 40
0.0
  9
$USERR3
 40
0.0
  9
$USERR4
 40
0.0
  9
$USERR5
 40
0.0
  9
$WORLDVIEW
 70
     1
  9
$SHADEDGE
 70
     3
  9
$SHADEDIF
 70
    70
  9
$TILEMODE
 70
     1
  9
$MAXACTVP
 70
    16
  9
$PINSBASE
 10
0.0
 20
0.0
 30
0.0
  9
$PLIMCHECK
 70
     0
  9
$PEXTMIN
 10
1.0E20
 20
1.0E20
 30
1.0E20
  9
$PEXTMAX
 10
-1.0E20
 20
-1.0E20
 30
-1.0E20
  9
$PLIMMIN
 10
0.0
 20
0.0
  9
$PLIMMAX
 10
12.0
 20
9.0
  9
$UNITMODE
 70
     0
  9
$VISRETAIN
 70
     0
  0
ENDSEC
  0
SECTION
  2
TABLES
  0
TABLE
  2
VPORT
 70
     1
  0
VPORT
  2
*ACTIVE
 70
     0
 10
0.0
 20
0.0
 11
1.0
 21
1.0
 12
6.801242
 22
4.5
 13
0.0
 23
0.0
 14
1.0
 24
1.0
 15
0.0
 25
0.0
 16
0.0
 26
0.0
 36
1.0
 17
0.0
 27
0.0
 37
0.0
 40
9.0
 41
1.511387
 42
50.0
 43
0.0
 44
0.0
 50
0.0
 51
0.0
 71
     0
 72
   100
 73
     1
 74
     1
 75
     0
 76
     0
 77
     0
 78
     0
  0
ENDTAB
  0
TABLE
  2
LTYPE
 70
    41
  0
LTYPE
  2
BYBLOCK
 70
     0
  3

 72
    65
 73
     0
 40
0.0
  0
LTYPE
  2
BYLAYER
 70
     0
  3

 72
    65
 73
     0
 40
0.0
  0
LTYPE
  2
CONTINUOUS
 70
     0
  3
Solid line
 72
    65
 73
     0
 40
0.0
  0
LTYPE
  2
BORDER
 70
    64
  3
__ __ . __ __ . __ __ . __ __ . __ __ . __ __ .
 72
    65
 73
     6
 40
1.75
 49
0.5
 49
-0.25
 49
0.5
 49
-0.25
 49
0.0
 49
-0.25
  0
LTYPE
  2
BORDER2
 70
    64
  3
__.__.__.__.__.__.__.__.__.__.__.__.__.__.__.__
 72
    65
 73
     6
 40
0.875
 49
0.25
 49
-0.125
 49
0.25
 49
-0.125
 49
0.0
 49
-0.125
  0
LTYPE
  2
BORDERX2
 70
    64
  3
____  ____  .  ____  ____  .  ____  ____  .  __
 72
    65
 73
     6
 40
3.5
 49
1.0
 49
-0.5
 49
1.0
 49
-0.5
 49
0.0
 49
-0.5
  0
LTYPE
  2
CENTER
 70
    64
  3
____ _ ____ _ ____ _ ____ _ ____ _ ____ _ ____
 72
    65
 73
     4
 40
2.0
 49
1.25
 49
-0.25
 49
0.25
 49
-0.25
  0
LTYPE
  2
CENTER2
 70
    64
  3
___ _ ___ _ ___ _ ___ _ ___ _ ___ _ ___ _ ___ _
 72
    65
 73
     4
 40
1.125
 49
0.75
 49
-0.125
 49
0.125
 49
-0.125
  0
LTYPE
  2
CENTERX2
 70
    64
  3
________  __  ________  __  ________  __  _____
 72
    65
 73
     4
 40
4.0
 49
2.5
 49
-0.5
 49
0.5
 49
-0.5
  0
LTYPE
  2
DASHDOT
 70
    64
  3
__ . __ . __ . __ . __ . __ . __ . __ . __ . __
 72
    65
 73
     4
 40
1.0
 49
0.5
 49
-0.25
 49
0.0
 49
-0.25
  0
LTYPE
  2
DASHDOT2
 70
    64
  3
_._._._._._._._._._._._._._._._._._._._._._._._
 72
    65
 73
     4
 40
0.5
 49
0.25
 49
-0.125
 49
0.0
 49
-0.125
  0
LTYPE
  2
DASHDOTX2
 70
    64
  3
____  .  ____  .  ____  .  ____  .  ____  .  __
 72
    65
 73
     4
 40
2.0
 49
1.0
 49
-0.5
 49
0.0
 49
-0.5
  0
LTYPE
  2
DASHED
 70
    64
  3
__ __ __ __ __ __ __ __ __ __ __ __ __ __ __ __
 72
    65
 73
     2
 40
0.75
 49
0.5
 49
-0.25
  0
LTYPE
  2
DASHED2
 70
    64
  3
_ _ _ _ _ _ _ _ _ _ _ _ _ _ _ _ _ _ _ _ _ _ _ _
 72
    65
 73
     2
 40
0.375
 49
0.25
 49
-0.125
  0
LTYPE
  2
DASHEDX2
 70
    64
  3
____  ____  ____  ____  ____  ____  ____  ____
 72
    65
 73
     2
 40
1.5
 49
1.0
 49
-0.5
  0
LTYPE
  2
DIVIDE
 70
    64
  3
____ . . ____ . . ____ . . ____ . . ____ . . __
 72
    65
 73
     6
 40
1.25
 49
0.5
 49
-0.25
 49
0.0
 49
-0.25
 49
0.0
 49
-0.25
  0
LTYPE
  2
DIVIDE2
 70
    64
  3
__..__..__..__..__..__..__..__..__..__..__..__.
 72
    65
 73
     6
 40
0.625
 49
0.25
 49
-0.125
 49
0.0
 49
-0.125
 49
0.0
 49
-0.125
  0
LTYPE
  2
DIVIDEX2
 70
    64
  3
________  .  .  ________  .  .  ________  .  .
 72
    65
 73
     6
 40
2.5
 49
1.0
 49
-0.5
 49
0.0
 49
-0.5
 49
0.0
 49
-0.5
  0
LTYPE
  2
DOT
 70
    64
  3
. . . . . . . . . . . . . . . . . . . . . . . .
 72
    65
 73
     2
 40
0.25
 49
0.0
 49
-0.25
  0
LTYPE
  2
DOT2
 70
    64
  3
...............................................
 72
    65
 73
     2
 40
0.125
 49
0.0
 49
-0.125
  0
LTYPE
  2
DOTX2
 70
    64
  3
.  .  .  .  .  .  .  .  .  .  .  .  .  .  .  .
 72
    65
 73
     2
 40
0.5
 49
0.0
 49
-0.5
  0
LTYPE
  2
HIDDEN
 70
    64
  3
__ __ __ __ __ __ __ __ __ __ __ __ __ __ __ __
 72
    65
 73
     2
 40
0.375
 49
0.25
 49
-0.125
  0
LTYPE
  2
HIDDEN2
 70
    64
  3
_ _ _ _ _ _ _ _ _ _ _ _ _ _ _ _ _ _ _ _ _ _ _ _
 72
    65
 73
     2
 40
0.1875
 49
0.125
 49
-0.0625
  0
LTYPE
  2
HIDDENX2
 70
    64
  3
____ ____ ____ ____ ____ ____ ____ ____ ____ __
 72
    65
 73
     2
 40
0.75
 49
0.5
 49
-0.25
  0
LTYPE
  2
PHANTOM
 70
    64
  3
______  __  __  ______  __  __  ______  __  __
 72
    65
 73
     6
 40
2.5
 49
1.25
 49
-0.25
 49
0.25
 49
-0.25
 49
0.25
 49
-0.25
  0
LTYPE
  2
PHANTOM2
 70
    64
  3
___ _ _ ___ _ _ ___ _ _ ___ _ _ ___ _ _ ___ _ _
 72
    65
 73
     6
 40
1.25
 49
0.625
 49
-0.125
 49
0.125
 49
-0.125
 49
0.125
 49
-0.125
  0
LTYPE
  2
PHANTOMX2
 70
    64
  3
____________    ____    ____    ____________
 72
    65
 73
     6
 40
5.0
 49
2.5
 49
-0.5
 49
0.5
 49
-0.5
 49
0.5
 49
-0.5
  0
LTYPE
  2
ACAD_ISO02W100
 70
    64
  3
__ __ __ __ __ __ __ __ __ __ __ __ __ __ __ __
 72
    65
 73
     2
 40
15.0
 49
12.0
 49
-3.0
  0
LTYPE
  2
ACAD_ISO03W100
 70
    64
  3
__    __    __    __    __    __    __    __
 72
    65
 73
     2
 40
30.0
 49
12.0
 49
-18.0
  0
LTYPE
  2
ACAD_ISO04W100
 70
    64
  3
____ . ____ . ____ . ____ . ____ . ____ . ____
 72
    65
 73
     4
 40
30.5
 49
24.0
 49
-3.0
 49
0.5
 49
-3.0
  0
LTYPE
  2
ACAD_ISO05W100
 70
    64
  3
____ .. ____ .. ____ .. ____ .. ____ .. ____ ..
 72
    65
 73
     6
 40
34.0
 49
24.0
 49
-3.0
 49
0.5
 49
-3.0
 49
0.5
 49
-3.0
  0
LTYPE
  2
ACAD_ISO06W100
 70
    64
  3
____ ... ____ ... ____ ... ____ ... ____ ... __
 72
    65
 73
     8
 40
37.5
 49
24.0
 49
-3.0
 49
0.5
 49
-3.0
 49
0.5
 49
-3.0
 49
0.5
 49
-3.0
  0
LTYPE
  2
ACAD_ISO07W100
 70
    64
  3
. . . . . . . . . . . . . . . . . . . . . . . .
 72
    65
 73
     2
 40
3.5
 49
0.5
 49
-3.0
  0
LTYPE
  2
ACAD_ISO08W100
 70
    64
  3
____ __ ____ __ ____ __ ____ ____ __ __ ____ __
 72
    65
 73
     4
 40
36.0
 49
24.0
 49
-3.0
 49
6.0
 49
-3.0
  0
LTYPE
  2
ACAD_ISO09W100
 70
    64
  3
____ __ __ ____ __ __ ____ __ __ ____ __ __ ___
 72
    65
 73
     6
 40
45.0
 49
24.0
 49
-3.0
 49
6.0
 49
-3.0
 49
6.0
 49
-3.0
  0
LTYPE
  2
ACAD_ISO10W100
 70
    64
  3
__ . __ . __ . __ . __ . __ . __ . __ . __ . __
 72
    65
 73
     4
 40
18.5
 49
12.0
 49
-3.0
 49
0.5
 49
-3.0
  0
LTYPE
  2
ACAD_ISO11W100
 70
    64
  3
__ __ . __ __ . __ __ . __ __ . __ __ . __ __ .
 72
    65
 73
     6
 40
33.5
 49
12.0
 49
-3.0
 49
12.0
 49
-3.0
 49
0.5
 49
-3.0
  0
LTYPE
  2
ACAD_ISO12W100
 70
    64
  3
__ . . __ . . __ . . __ . . __ . . __ . . __ .
 72
    65
 73
     6
 40
22.0
 49
12.0
 49
-3.0
 49
0.5
 49
-3.0
 49
0.5
 49
-3.0
  0
LTYPE
  2
ACAD_ISO13W100
 70
    64
  3
__ __ . . __ __ . . __ __ . . __ __ . . __ __ .
 72
    65
 73
     8
 40
37.0
 49
12.0
 49
-3.0
 49
12.0
 49
-3.0
 49
0.5
 49
-3.0
 49
0.5
 49
-3.0
  0
LTYPE
  2
ACAD_ISO14W100
 70
    64
  3
__ . . . __ . . . __ . . . __ . . . __ . . . __
 72
    65
 73
     8
 40
25.5
 49
12.0
 49
-3.0
 49
0.5
 49
-3.0
 49
0.5
 49
-3.0
 49
0.5
 49
-3.0
  0
LTYPE
  2
ACAD_ISO15W100
 70
    64
  3
__ __ . . . __ __ . . . __ __ . . . __ __ . . .
 72
    65
 73
    10
 40
40.5
 49
12.0
 49
-3.0
 49
12.0
 49
-3.0
 49
0.5
 49
-3.0
 49
0.5
 49
-3.0
 49
0.5
 49
-3.0
  0
ENDTAB
  0
TABLE
  2
STYLE
 70
     4
  0
STYLE
  2
STANDARD
 70
    64
 40
0.0
 41
1.0
 50
0.0
 71
     0
 42
0.2
  3
txt
  4

  0
STYLE
  2
TOLERANCE
 70
    64
 40
0.0
 41
1.0
 50
0.0
 71
     0
 42
0.2
  3
../igesfont/iges1003.shx
  4

  0
STYLE
  2
ROMANS
 70
    64
 40
0.0
 41
1.0
 50
0.0
 71
     0
 42
0.2
  3
romans.shx
  4

  0
STYLE
  2
ROMANC
 70
    64
 40
0.0
 41
1.0
 50
0.0
 71
     0
 42
0.2
  3
romanc.shx
  4

  0
ENDTAB
  0
TABLE
  2
DIMSTYLE
 70
     2
  0
DIMSTYLE
  2
UNNAMED
 70
     0
  3

  4

  5

  6

  7

 40
1.0
 41
0.18
 42
0.0625
 43
0.38
 44
0.18
 45
0.0
 46
0.0
 47
0.0
 48
0.0
140
0.18
141
0.09
142
0.0
143
25.4
144
1.0
145
0.0
146
1.0
147
0.09
 71
     0
 72
     0
 73
     1
 74
     1
 75
     0
 76
     0
 77
     0
 78
     0
170
     0
171
     2
172
     0
173
     0
174
     0
175
     0
176
     0
177
     0
178
     0
  0
DIMSTYLE
  2
STANDARD
 70
     0
  3

  4

  5

  6

  7

 40
1.0
 41
0.18
 42
0.0625
 43
0.38
 44
0.18
 45
0.0
 46
0.0
 47
0.0
 48
0.0
140
0.18
141
0.09
142
0.0
143
25.4
144
1.0
145
0.0
146
1.0
147
0.09
 71
     0
 72
     0
 73
     1
 74
     1
 75
     0
 76
     0
 77
     0
 78
     0
170
     0
171
     2
172
     0
173
     0
174
     0
175
     0
176
     0
177
     0
178
     0
  0
ENDTAB
  0
TABLE
  2
LAYER
 70
     2
  0
LAYER
  2
0
 70
     0
 62
     7
  6
CONTINUOUS
  0
LAYER
  2
255
 70
     0
 62
     7
  6
CONTINUOUS
  0
ENDTAB
  0
ENDSEC
  0
SECTION
  2
BLOCKS
  0
BLOCK
  5
     B
  8
0
  6
CONTINUOUS
 62
     7
  2
*UDIM529
 70
    65
 10
0.0
 20
0.0
 30
0.0
  3
*UDIM529
  0
TEXT
  5
     C
  8
0
  6
CONTINUOUS
 62
     7
 10
69.9427754386028
 20
62.9467654344328
 30
0.0
 40
2.99999994933605
  1
105
 50
90.0
 41
0.933333333333333
 72
     1
 11
68.4427754639299
 21
66.8467653685677
 31
0.0
 73
     2
  0
LINE
  5
     D
  8
0
  6
CONTINUOUS
 62
     7
 10
52.9866655369892
 20
48.6824737160628
 30
0.0
 11
72.9427754385979
 21
48.6824737160628
 31
0.0
  0
LINE
  5
     E
  8
0
  6
CONTINUOUS
 62
     7
 10
52.9866655369892
 20
90.682486548943
 30
0.0
 11
72.9427754385979
 21
90.682486548943
 31
0.0
  0
LINE
  5
     F
  8
0
  6
CONTINUOUS
 62
     7
 10
70.9427754385979
 20
48.6824737160628
 30
0.0
 11
70.9427754385979
 21
90.682486548943
 31
0.0
  0
LINE
  5
    10
  8
0
  6
CONTINUOUS
 62
     7
 10
70.4218310086462
 20
51.6368969932697
 30
0.0
 11
70.9427754385979
 21
48.6824737160628
 31
0.0
  0
LINE
  5
    11
  8
0
  6
CONTINUOUS
 62
     7
 10
70.9427754385979
 20
48.6824737160628
 30
0.0
 11
71.4637198685496
 21
51.6368969932697
 31
0.0
  0
LINE
  5
    12
  8
0
  6
CONTINUOUS
 62
     7
 10
71.4637198685496
 20
87.728063271736
 30
0.0
 11
70.9427754385979
 21
90.682486548943
 31
0.0
  0
LINE
  5
    13
  8
0
  6
CONTINUOUS
 62
     7
 10
70.9427754385979
 20
90.682486548943
 30
0.0
 11
70.4218310086462
 21
87.728063271736
 31
0.0
  0
ENDBLK
  5
    14
  8
0
  6
CONTINUOUS
 62
     7
  0
BLOCK
  5
    15
  8
0
  6
CONTINUOUS
 62
     7
  2
*UDIM530
 70
    65
 10
0.0
 20
0.0
 30
0.0
  3
*UDIM530
  0
TEXT
  5
    16
  8
0
  6
CONTINUOUS
 62
     7
 10
27.2116652441069
 20
147.359971509462
 30
0.0
 40
2.99999994933605
  1
105
 41
0.933333333333333
 72
     1
 11
31.1116651782438
 21
148.85997148413
 31
0.0
 73
     2
  0
LINE
  5
    17
  8
0
  6
CONTINUOUS
 62
     7
 10
10.3866618653431
 20
91.2824865429825
 30
0.0
 11
10.3866618653431
 21
148.359971509462
 31
0.0
  0
LINE
  5
    18
  8
0
  6
CONTINUOUS
 62
     7
 10
52.3866655429497
 20
91.2824865429825
 30
0.0
 11
52.3866655429497
 21
148.359971509462
 31
0.0
  0
LINE
  5
    19
  8
0
  6
CONTINUOUS
 62
     7
 10
10.3866618653431
 20
146.359971509462
 30
0.0
 11
52.3866655429497
 21
146.359971509462
 31
0.0
  0
LINE
  5
    1A
  8
0
  6
CONTINUOUS
 62
     7
 10
13.34108514255
 20
146.880915939413
 30
0.0
 11
10.3866618653431
 21
146.359971509462
 31
0.0
  0
LINE
  5
    1B
  8
0
  6
CONTINUOUS
 62
     7
 10
10.3866618653431
 20
146.359971509462
 30
0.0
 11
13.34108514255
 21
145.83902707951
 31
0.0
  0
LINE
  5
    1C
  8
0
  6
CONTINUOUS
 62
     7
 10
49.4322422657427
 20
145.83902707951
 30
0.0
 11
52.3866655429497
 21
146.359971509462
 31
0.0
  0
LINE
  5
    1D
  8
0
  6
CONTINUOUS
 62
     7
 10
52.3866655429497
 20
146.359971509462
 30
0.0
 11
49.4322422657427
 21
146.880915939413
 31
0.0
  0
ENDBLK
  5
    1E
  8
0
  6
CONTINUOUS
 62
     7
  0
BLOCK
  5
    1F
  8
0
  6
CONTINUOUS
 62
     7
  2
*UDIM531
 70
    65
 10
0.0
 20
0.0
 30
0.0
  3
*UDIM531
  0
TEXT
  5
    20
  8
0
  6
CONTINUOUS
 62
     7
 10
14.8615919528341
 20
27.0573861415646
 30
0.0
 40
2.99999994933605
  1
26
 41
0.933333333333333
 72
     1
 11
17.3615919106141
 21
28.5573861162326
 31
0.0
 73
     2
  0
LINE
  5
    21
  8
0
  6
CONTINUOUS
 62
     7
 10
14.8615919528341
 20
26.0573861415646
 30
0.0
 11
33.7866769237835
 21
26.0573861415646
 31
0.0
  0
LINE
  5
    22
  8
0
  6
CONTINUOUS
 62
     7
 10
26.3410144325239
 20
26.5783305715163
 30
0.0
 11
23.3865911553169
 21
26.0573861415646
 31
0.0
  0
LINE
  5
    23
  8
0
  6
CONTINUOUS
 62
     7
 10
23.3865911553169
 20
26.0573861415646
 30
0.0
 11
26.3410144325239
 21
25.5364417116129
 31
0.0
  0
LINE
  5
    24
  8
0
  6
CONTINUOUS
 62
     7
 10
30.8322536465766
 20
25.5364417116129
 30
0.0
 11
33.7866769237835
 21
26.0573861415646
 31
0.0
  0
LINE
  5
    25
  8
0
  6
CONTINUOUS
 62
     7
 10
33.7866769237835
 20
26.0573861415646
 30
0.0
 11
30.8322536465766
 21
26.5783305715163
 31
0.0
  0
ENDBLK
  5
    26
  8
0
  6
CONTINUOUS
 62
     7
  0
BLOCK
  5
    27
  8
0
  6
CONTINUOUS
 62
     7
  2
*UDIM532
 70
    65
 10
0.0
 20
0.0
 30
0.0
  3
*UDIM532
  0
TEXT
  5
    28
  8
0
  6
CONTINUOUS
 62
     7
 10
37.51167150951
 20
27.0573861415646
 30
0.0
 40
2.99999994933605
  1
46,5
 41
0.933333333333333
 72
     1
 11
42.8116714200037
 21
28.5573861162326
 31
0.0
 73
     2
  0
LINE
  5
    29
  8
0
  6
CONTINUOUS
 62
     7
 10
52.3866655429497
 20
48.0824371009289
 30
0.0
 11
52.3866655429497
 21
24.0573861415646
 31
0.0
  0
LINE
  5
    2A
  8
0
  6
CONTINUOUS
 62
     7
 10
33.7866769237835
 20
26.0573861415646
 30
0.0
 11
52.3866655429497
 21
26.0573861415646
 31
0.0
  0
LINE
  5
    2B
  8
0
  6
CONTINUOUS
 62
     7
 10
36.7411002009905
 20
26.5783305715163
 30
0.0
 11
33.7866769237835
 21
26.0573861415646
 31
0.0
  0
LINE
  5
    2C
  8
0
  6
CONTINUOUS
 62
     7
 10
33.7866769237835
 20
26.0573861415646
 30
0.0
 11
36.7411002009905
 21
25.5364417116129
 31
0.0
  0
LINE
  5
    2D
  8
0
  6
CONTINUOUS
 62
     7
 10
49.4322422657427
 20
25.5364417116129
 30
0.0
 11
52.3866655429497
 21
26.0573861415646
 31
0.0
  0
LINE
  5
    2E
  8
0
  6
CONTINUOUS
 62
     7
 10
52.3866655429497
 20
26.0573861415646
 30
0.0
 11
49.4322422657427
 21
26.5783305715163
 31
0.0
  0
ENDBLK
  5
    2F
  8
0
  6
CONTINUOUS
 62
     7
  0
BLOCK
  5
    30
  8
0
  6
CONTINUOUS
 62
     7
  2
*UDIM533
 70
    65
 10
0.0
 20
0.0
 30
0.0
  3
*UDIM533
  0
TEXT
  5
    31
  8
0
  6
CONTINUOUS
 62
     7
 10
32.8501086373643
 20
59.3026976295365
 30
0.0
 40
2.99999994933605
  1
90
 50
44.0059548706812
 41
0.933333333333333
 72
     1
 11
33.6061779286657
 21
62.1184318037183
 31
0.0
 73
     2
  0
TEXT
  5
    32
  8
0
  6
CONTINUOUS
 62
     7
 10
36.0296066907185
 20
63.2079237806666
 30
0.0
 40
2.99999994933605
  1
°
 50
44.0059548706812
 41
0.933333333333333
 72
     1
 11
35.7787013602157
 21
65.0510315903892
 31
0.0
 73
     2
  0
ARC
  5
    33
  8
0
  6
CONTINUOUS
 62
     7
 10
23.3865911553169
 20
74.282264603651
 30
0.0
 40
18.3489362873546
 50
269.999999844103
 51
359.999999792138
  0
LINE
  5
    34
  8
0
  6
CONTINUOUS
 62
     7
 10
26.3410144325239
 20
56.4542727462481
 30
0.0
 11
23.3865911553169
 21
55.9333283162964
 31
0.0
  0
LINE
  5
    35
  8
0
  6
CONTINUOUS
 62
     7
 10
23.3865911553169
 20
55.9333283162964
 30
0.0
 11
26.3410144325239
 21
55.4123838863447
 31
0.0
  0
LINE
  5
    36
  8
0
  6
CONTINUOUS
 62
     7
 10
42.2564718726232
 20
71.327841326444
 30
0.0
 11
41.7355274426715
 21
74.282264603651
 31
0.0
  0
LINE
  5
    37
  8
0
  6
CONTINUOUS
 62
     7
 10
41.7355274426715
 20
74.282264603651
 30
0.0
 11
41.2145830127198
 21
71.327841326444
 31
0.0
  0
ENDBLK
  5
    38
  8
0
  6
CONTINUOUS
 62
     7
  0
BLOCK
  5
    39
  8
0
  6
CONTINUOUS
 62
     7
  2
*UDIM534
 70
    65
 10
0.0
 20
0.0
 30
0.0
  3
*UDIM534
  0
TEXT
  5
    3A
  8
0
  6
CONTINUOUS
 62
     7
 10
-9.2315421474347
 20
53.6061829928358
 30
0.0
 40
2.99999994933605
  1
52,5
 50
90.0
 41
0.933333333333333
 72
     1
 11
-10.7315421221094
 21
58.9061829033276
 31
0.0
 73
     2
  0
LINE
  5
    3B
  8
0
  6
CONTINUOUS
 62
     7
 10
9.78666187130352
 20
48.6824737160628
 30
0.0
 11
-10.2315421474414
 21
48.6824737160628
 31
0.0
  0
LINE
  5
    3C
  8
0
  6
CONTINUOUS
 62
     7
 10
-8.23154214744136
 20
48.6824737160628
 30
0.0
 11
-8.23154214744136
 21
69.6798922418393
 31
0.0
  0
LINE
  5
    3D
  8
0
  6
CONTINUOUS
 62
     7
 10
-8.75248657739302
 20
51.6368969932697
 30
0.0
 11
-8.23154214744136
 21
48.6824737160628
 31
0.0
  0
LINE
  5
    3E
  8
0
  6
CONTINUOUS
 62
     7
 10
-8.23154214744136
 20
48.6824737160628
 30
0.0
 11
-7.7105977174897
 21
51.6368969932697
 31
0.0
  0
LINE
  5
    3F
  8
0
  6
CONTINUOUS
 62
     7
 10
-7.7105977174897
 20
66.7254689646323
 30
0.0
 11
-8.23154214744136
 21
69.6798922418393
 31
0.0
  0
LINE
  5
    40
  8
0
  6
CONTINUOUS
 62
     7
 10
-8.23154214744136
 20
69.6798922418393
 30
0.0
 11
-8.75248657739302
 21
66.7254689646323
 31
0.0
  0
ENDBLK
  5
    41
  8
0
  6
CONTINUOUS
 62
     7
  0
BLOCK
  5
    42
  8
0
  6
CONTINUOUS
 62
     7
  2
*UDIM535
 70
    65
 10
0.0
 20
0.0
 30
0.0
  3
*UDIM535
  0
TEXT
  5
    43
  8
0
  6
CONTINUOUS
 62
     7
 10
-9.2315421474347
 20
77.2072604623186
 30
0.0
 40
2.99999994933605
  1
11,5
 50
90.0
 41
0.933333333333333
 72
     1
 11
-10.7315421221094
 21
82.5072603728104
 31
0.0
 73
     2
  0
LINE
  5
    44
  8
0
  6
CONTINUOUS
 62
     7
 10
10.9865531178337
 20
74.282264603651
 30
0.0
 11
-10.2315421474414
 21
74.282264603651
 31
0.0
  0
LINE
  5
    45
  8
0
  6
CONTINUOUS
 62
     7
 10
-8.23154214744136
 20
69.6798922418393
 30
0.0
 11
-8.23154214744136
 21
87.8072602833041
 31
0.0
  0
LINE
  5
    46
  8
0
  6
CONTINUOUS
 62
     7
 10
-7.7105977174897
 20
66.7254689646323
 30
0.0
 11
-8.23154214744136
 21
69.6798922418393
 31
0.0
  0
LINE
  5
    47
  8
0
  6
CONTINUOUS
 62
     7
 10
-8.23154214744136
 20
69.6798922418393
 30
0.0
 11
-8.75248657739302
 21
66.7254689646323
 31
0.0
  0
LINE
  5
    48
  8
0
  6
CONTINUOUS
 62
     7
 10
-8.75248657739302
 20
77.236687880858
 30
0.0
 11
-8.23154214744136
 21
74.282264603651
 31
0.0
  0
LINE
  5
    49
  8
0
  6
CONTINUOUS
 62
     7
 10
-8.23154214744136
 20
74.282264603651
 30
0.0
 11
-7.7105977174897
 21
77.236687880858
 31
0.0
  0
ENDBLK
  5
    4A
  8
0
  6
CONTINUOUS
 62
     7
  0
BLOCK
  5
    4B
  8
0
  6
CONTINUOUS
 62
     7
  2
S3LLL
 70
    64
 10
0.0
 20
0.0
 30
0.0
  3
S3LLL
  0
LINE
  5
    4C
  8
0
  6
CONTINUOUS
 62
     7
 10
-100.999938964844
 20
30.037075065164
 30
0.0
 11
-28.9999389648438
 21
30.037075065164
 31
0.0
  0
LINE
  5
    4D
  8
0
  6
CONTINUOUS
 62
     7
 10
-100.999938964844
 20
27.2370758281034
 30
0.0
 11
-100.999938964844
 21
67.5312929580717
 31
0.0
  0
LINE
  5
    4E
  8
0
  6
CONTINUOUS
 62
     7
 10
-100.999938964844
 20
67.5312652812284
 30
0.0
 11
-100.999938964844
 21
194.737060569314
 31
0.0
  0
LINE
  5
    4F
  8
0
  6
DASHDOT
 62
     7
 10
-102.999938964844
 20
18.1648357359342
 30
0.0
 11
-102.999938964844
 21
290.733439297689
 31
0.0
  0
LINE
  5
    50
  8
0
  6
CONTINUOUS
 62
     7
 10
-102.999938964844
 20
186.566665671853
 30
0.0
 11
-102.999938964844
 21
186.737030051736
 31
0.0
  0
LINE
  5
    51
  8
0
  6
CONTINUOUS
 62
     7
 10
-32.4999618527768
 20
134.487058225843
 30
0.0
 11
-32.4999424857977
 21
126.237034517328
 31
0.0
  0
LINE
  5
    52
  8
0
  6
CONTINUOUS
 62
     7
 10
-29.9999981871805
 20
180.737053601239
 30
0.0
 11
-29.2928754023301
 21
181.029946012065
 31
0.0
  0
LINE
  5
    53
  8
0
  6
CONTINUOUS
 62
     7
 10
-29.2928626592164
 20
181.029924885987
 30
0.0
 11
-28.9999702254599
 21
181.737032384437
 31
0.0
  0
LINE
  5
    54
  8
0
  6
CONTINUOUS
 62
     7
 10
-32.4999553134337
 20
173.737059484171
 30
0.0
 11
-32.4999400546456
 21
180.737059487794
 31
0.0
  0
LINE
  5
    55
  8
0
  6
CONTINUOUS
 62
     7
 10
-32.4999389648438
 20
180.737060569314
 30
0.0
 11
-29.9999694824219
 21
180.737060569314
 31
0.0
  0
LINE
  5
    56
  8
0
  6
CONTINUOUS
 62
     7
 10
-32.4999542236328
 20
134.487060569314
 30
0.0
 11
-32.4999542236328
 21
173.737060569314
 31
0.0
  0
LINE
  5
    57
  8
0
  6
CONTINUOUS
 62
     7
 10
-36.9999389648438
 20
83.7370605693144
 30
0.0
 11
-36.9999389648438
 21
124.237060569314
 31
0.0
  0
LINE
  5
    58
  8
0
  6
CONTINUOUS
 62
     7
 10
-36.9999090026346
 20
124.237115646459
 30
0.0
 11
-36.7319646881064
 21
125.237115619072
 31
0.0
  0
LINE
  5
    59
  8
0
  6
CONTINUOUS
 62
     7
 10
-36.7319306206131
 20
125.237153674146
 30
0.0
 11
-35.999890252599
 21
125.969209283789
 31
0.0
  0
LINE
  5
    5A
  8
0
  6
CONTINUOUS
 62
     7
 10
-35.9999937498447
 20
125.969090203816
 30
0.0
 11
-34.9999785446858
 21
126.237034518227
 31
0.0
  0
LINE
  5
    5B
  8
0
  6
CONTINUOUS
 62
     7
 10
-36.9999389648438
 20
83.7370605693144
 30
0.0
 11
-28.9999389648438
 21
83.7370605693144
 31
0.0
  0
LINE
  5
    5C
  8
0
  6
CONTINUOUS
 62
     7
 10
-30.0000579050104
 20
69.7370477816659
 30
0.0
 11
-28.9999816519895
 21
68.7370478173526
 31
0.0
  0
LINE
  5
    5D
  8
0
  6
CONTINUOUS
 62
     7
 10
-30.0000343832962
 20
80.7370711755536
 30
0.0
 11
-28.9999428724763
 21
81.7370711392454
 31
0.0
  0
LINE
  5
    5E
  8
0
  6
CONTINUOUS
 62
     7
 10
-92.7678539992366
 20
80.7370310241419
 30
0.0
 11
-30.0000469924007
 21
80.7370310241419
 31
0.0
  0
LINE
  5
    5F
  8
0
  6
CONTINUOUS
 62
     7
 10
-92.767900466919
 20
69.7370605693144
 30
0.0
 11
-30.0000324249268
 21
69.7370605693144
 31
0.0
  0
LINE
  5
    60
  8
0
  6
CONTINUOUS
 62
     7
 10
-96.4999434849671
 20
81.7370319246271
 30
0.0
 11
-92.7678584683581
 21
80.7370166674643
 31
0.0
  0
LINE
  5
    61
  8
0
  6
CONTINUOUS
 62
     7
 10
-99.9999435291138
 20
82.6748567262644
 30
0.0
 11
-96.4999111414841
 21
81.737021142008
 31
0.0
  0
LINE
  5
    62
  8
0
  6
CONTINUOUS
 62
     7
 10
-100.999937853487
 20
67.5312964426465
 30
0.0
 11
-92.7678984495003
 21
69.7370611791866
 31
0.0
  0
LINE
  5
    63
  8
0
  6
CONTINUOUS
 62
     7
 10
-100.99992596384
 20
85.0313641634685
 30
0.0
 11
-99.9999288781819
 21
85.2993084780058
 31
0.0
  0
LINE
  5
    64
  8
0
  6
CONTINUOUS
 62
     7
 10
-100.999938964844
 20
61.2370453105253
 30
0.0
 11
-96.9999399185181
 21
61.2370453105253
 31
0.0
  0
LINE
  5
    65
  8
0
  6
CONTINUOUS
 62
     7
 10
-96.9999399185181
 20
39.2370758281034
 30
0.0
 11
-96.9999399185181
 21
61.2370453105253
 31
0.0
  0
LINE
  5
    66
  8
0
  6
CONTINUOUS
 62
     7
 10
-99.9999389648438
 20
67.799224875955
 30
0.0
 11
-99.9999389648438
 21
112.237045310525
 31
0.0
  0
LINE
  5
    67
  8
0
  6
CONTINUOUS
 62
     7
 10
-96.4999389648438
 20
81.7370605693144
 30
0.0
 11
-96.4999389648438
 21
106.737060569314
 31
0.0
  0
LINE
  5
    68
  8
0
  6
CONTINUOUS
 62
     7
 10
-100.999939918518
 20
112.237045310525
 30
0.0
 11
-97.9999408721925
 21
112.237045310525
 31
0.0
  0
LINE
  5
    69
  8
0
  6
CONTINUOUS
 62
     7
 10
-97.9999305699023
 20
112.2370353974
 30
0.0
 11
-97.2499287029098
 21
112.036077161513
 31
0.0
  0
LINE
  5
    6A
  8
0
  6
CONTINUOUS
 62
     7
 10
-97.9999305699023
 20
112.2370353974
 30
0.0
 11
-97.2499287029098
 21
112.036077161513
 31
0.0
  0
LINE
  5
    6B
  8
0
  6
CONTINUOUS
 62
     7
 10
-97.2499357310149
 20
112.036072110757
 30
0.0
 11
-96.7008978073286
 21
111.487030392061
 31
0.0
  0
LINE
  5
    6C
  8
0
  6
CONTINUOUS
 62
     7
 10
-96.700915062293
 20
111.487017194813
 30
0.0
 11
-96.4999539570141
 21
110.737017197195
 31
0.0
  0
LINE
  5
    6D
  8
0
  6
CONTINUOUS
 62
     7
 10
-96.499920845032
 20
106.737046860256
 30
0.0
 11
-96.499920845032
 21
110.737031601467
 31
0.0
  0
LINE
  5
    6E
  8
0
  6
CONTINUOUS
 62
     7
 10
-96.7008931724916
 20
105.987038963116
 30
0.0
 11
-96.6056707134314
 21
106.342416155001
 31
0.0
  0
LINE
  5
    6F
  8
0
  6
CONTINUOUS
 62
     7
 10
-96.6056725477501
 20
106.342406469118
 30
0.0
 11
-96.4999339104266
 21
106.737044524123
 31
0.0
  0
LINE
  5
    70
  8
0
  6
CONTINUOUS
 62
     7
 10
-97.2499392738256
 20
105.43796755051
 30
0.0
 11
-96.7009004237193
 21
105.987009270016
 31
0.0
  0
LINE
  5
    71
  8
0
  6
CONTINUOUS
 62
     7
 10
-97.999951817106
 20
105.237024533285
 30
0.0
 11
-97.2499518274603
 21
105.437982753753
 31
0.0
  0
LINE
  5
    72
  8
0
  6
CONTINUOUS
 62
     7
 10
-99.9999389648438
 20
105.237045310525
 30
0.0
 11
-97.9999399185181
 21
105.237045310525
 31
0.0
  0
LINE
  5
    73
  8
0
  6
CONTINUOUS
 62
     7
 10
-102.999938964844
 20
37.7370462641996
 30
0.0
 11
-100.999938964844
 21
37.7370462641996
 31
0.0
  0
LINE
  5
    74
  8
0
  6
CONTINUOUS
 62
     7
 10
-102.999938964844
 20
186.737030051736
 30
0.0
 11
-100.999938964844
 21
186.737030051736
 31
0.0
  0
LINE
  5
    75
  8
0
  6
CONTINUOUS
 62
     7
 10
-102.999938964844
 20
176.868682883768
 30
0.0
 11
-100.999938964844
 21
176.868682883768
 31
0.0
  0
LINE
  5
    76
  8
0
  6
CONTINUOUS
 62
     7
 10
-96.499962494107
 20
70.2370491760636
 30
0.0
 11
-93.7009256185366
 21
69.4870492341016
 31
0.0
  0
LINE
  5
    77
  8
0
  6
CONTINUOUS
 62
     7
 10
-96.4999723434451
 20
70.2370587096593
 30
0.0
 11
-96.4999723434451
 21
80.2370587096593
 31
0.0
  0
LINE
  5
    78
  8
0
  6
CONTINUOUS
 62
     7
 10
-96.499972050912
 20
80.2370453354068
 30
0.0
 11
-93.7009113398339
 21
80.9870453287094
 31
0.0
  0
LINE
  5
    79
  8
0
  6
CONTINUOUS
 62
     7
 10
-102.999938964844
 20
47.5216675029081
 30
0.0
 11
-100.999938964844
 21
47.5216675029081
 31
0.0
  0
LINE
  5
    7A
  8
0
  6
CONTINUOUS
 62
     7
 10
-102.999938964844
 20
47.7370453105253
 30
0.0
 11
-100.999938964844
 21
47.7370453105253
 31
0.0
  0
LINE
  5
    7B
  8
0
  6
CONTINUOUS
 62
     7
 10
-96.7008897850688
 20
105.457746705485
 30
0.0
 11
-96.4999296460097
 21
106.342420748258
 31
0.0
  0
LINE
  5
    7C
  8
0
  6
CONTINUOUS
 62
     7
 10
-96.6056785583497
 20
106.342422507791
 30
0.0
 11
-96.4999408721924
 21
106.342422507791
 31
0.0
  0
LINE
  5
    7D
  8
0
  6
CONTINUOUS
 62
     7
 10
-96.6339157410694
 20
92.2370350054447
 30
0.0
 11
-96.499943582861
 21
92.3364917886046
 31
0.0
  0
LINE
  5
    7E
  8
0
  6
CONTINUOUS
 62
     7
 10
-96.7008957729426
 20
92.286728281639
 30
0.0
 11
-96.6339068328052
 21
92.2369998918451
 31
0.0
  0
LINE
  5
    7F
  8
0
  6
CONTINUOUS
 62
     7
 10
-96.7009010314942
 20
102.237060569314
 30
0.0
 11
-96.4999399185181
 21
102.237060569314
 31
0.0
  0
LINE
  5
    80
  8
0
  6
CONTINUOUS
 62
     7
 10
-96.7009064983823
 20
96.1872739386923
 30
0.0
 11
-96.6339175582449
 21
96.2370023284863
 31
0.0
  0
LINE
  5
    81
  8
0
  6
CONTINUOUS
 62
     7
 10
-96.6339078771551
 20
96.2370280412776
 30
0.0
 11
-96.4999357189467
 21
96.1375712581178
 31
0.0
  0
LINE
  5
    82
  8
0
  6
CONTINUOUS
 62
     7
 10
-96.7009066879449
 20
104.568904422695
 30
0.0
 11
-96.5917329488834
 21
103.959132701153
 31
0.0
  0
LINE
  5
    83
  8
0
  6
CONTINUOUS
 62
     7
 10
-96.5917280549827
 20
103.959139768975
 30
0.0
 11
-96.4999407187967
 21
102.237063418634
 31
0.0
  0
LINE
  5
    84
  8
0
  6
CONTINUOUS
 62
     7
 10
-97.2162652486526
 20
92.38926633008
 30
0.0
 11
-96.7009053816665
 21
92.2867577963711
 31
0.0
  0
LINE
  5
    85
  8
0
  6
CONTINUOUS
 62
     7
 10
-97.2499414907571
 20
92.4117790785936
 30
0.0
 11
-97.216262482484
 21
92.3892723662125
 31
0.0
  0
LINE
  5
    86
  8
0
  6
CONTINUOUS
 62
     7
 10
-97.2499563138745
 20
96.062286316407
 30
0.0
 11
-97.2162753994121
 21
96.0847930292527
 31
0.0
  0
LINE
  5
    87
  8
0
  6
CONTINUOUS
 62
     7
 10
-97.216268805161
 20
96.0847882374069
 30
0.0
 11
-96.7009108443755
 21
96.1872967551631
 31
0.0
  0
LINE
  5
    88
  8
0
  6
CONTINUOUS
 62
     7
 10
-97.2499399185181
 20
102.237060569314
 30
0.0
 11
-96.7009010314942
 21
102.237060569314
 31
0.0
  0
LINE
  5
    89
  8
0
  6
CONTINUOUS
 62
     7
 10
-97.9999443872492
 20
92.5460425981926
 30
0.0
 11
-97.2499444046556
 21
92.4117652853811
 31
0.0
  0
LINE
  5
    8A
  8
0
  6
CONTINUOUS
 62
     7
 10
-97.9999455478263
 20
95.9280122457468
 30
0.0
 11
-97.2499455652326
 21
96.0622895585582
 31
0.0
  0
LINE
  5
    8B
  8
0
  6
CONTINUOUS
 62
     7
 10
-97.9999399185181
 20
102.237060569314
 30
0.0
 11
-97.2499399185181
 21
102.237060569314
 31
0.0
  0
LINE
  5
    8C
  8
0
  6
CONTINUOUS
 62
     7
 10
-99.9999389648438
 20
95.9280243144316
 30
0.0
 11
-97.9999399185181
 21
95.9280243144316
 31
0.0
  0
LINE
  5
    8D
  8
0
  6
CONTINUOUS
 62
     7
 10
-99.9999389648438
 20
102.237060569314
 30
0.0
 11
-97.9999399185181
 21
102.237060569314
 31
0.0
  0
LINE
  5
    8E
  8
0
  6
CONTINUOUS
 62
     7
 10
-99.9999389648438
 20
92.5460663066191
 30
0.0
 11
-97.9999399185181
 21
92.5460663066191
 31
0.0
  0
LINE
  5
    8F
  8
0
  6
CONTINUOUS
 62
     3
 10
-35.4635425527879
 20
194.437072776346
 30
0.0
 11
-6.79994201540899
 21
194.437072776346
 31
0.0
  0
LINE
  5
    90
  8
0
  6
CONTINUOUS
 62
     3
 10
-28.9999389636512
 20
30.037075065164
 30
0.0
 11
-6.79994201540899
 21
30.037075065164
 31
0.0
  0
LINE
  5
    91
  8
0
  6
CONTINUOUS
 62
     3
 10
-100.999938964844
 20
27.2370758281034
 30
0.0
 11
-3.99993896365118
 21
27.2370758281034
 31
0.0
  0
LINE
  5
    92
  8
0
  6
CONTINUOUS
 62
     3
 10
-28.9999389636511
 20
27.2370758281034
 30
0.0
 11
-28.9999389636511
 21
69.4870605693144
 31
0.0
  0
LINE
  5
    93
  8
0
  6
CONTINUOUS
 62
     3
 10
-28.9999389636484
 20
80.9870453105253
 30
0.0
 11
-28.9999389636484
 21
83.7371216044706
 31
0.0
  0
LINE
  5
    94
  8
0
  6
CONTINUOUS
 62
     3
 10
-28.9999389648438
 20
181.737107854519
 30
0.0
 11
-28.9999389648438
 21
197.237060569314
 31
0.0
  0
LINE
  5
    95
  8
0
  6
CONTINUOUS
 62
     3
 10
0.500061036348882
 20
125.185928367166
 30
0.0
 11
0.500061036348882
 21
134.736740134744
 31
0.0
  0
LINE
  5
    96
  8
0
  6
CONTINUOUS
 62
     3
 10
0.500006907462991
 20
74.2874833895671
 30
0.0
 11
0.500052683828093
 21
67.7367641282673
 31
0.0
  0
LINE
  5
    97
  8
0
  6
CONTINUOUS
 62
     3
 10
-3.99993896365112
 20
27.2370758281034
 30
0.0
 11
-3.99993896365112
 21
51.9870775992127
 31
0.0
  0
LINE
  5
    98
  8
0
  6
CONTINUOUS
 62
     3
 10
-6.79994201540899
 20
43.4870758281034
 30
0.0
 11
-3.99993896365118
 21
43.4870758281034
 31
0.0
  0
LINE
  5
    99
  8
0
  6
CONTINUOUS
 62
     3
 10
-6.79994201540893
 20
30.0370788798613
 30
0.0
 11
-6.79994201540893
 21
51.9870783621531
 31
0.0
  0
LINE
  5
    9A
  8
0
  6
CONTINUOUS
 62
     3
 10
-28.9999420224647
 20
80.9870605693144
 30
0.0
 11
-6.79994507422248
 21
80.9870605693144
 31
0.0
  0
LINE
  5
    9B
  8
0
  6
CONTINUOUS
 62
     3
 10
-28.9999413320554
 20
69.4870605693144
 30
0.0
 11
-6.79994438381323
 21
69.4870605693144
 31
0.0
  0
LINE
  5
    9C
  8
0
  6
CONTINUOUS
 62
     1
 10
2.42681369655243
 20
162.413892190162
 30
0.0
 11
2.45713290975809
 21
162.340680521512
 31
0.0
  0
LINE
  5
    9D
  8
0
  6
CONTINUOUS
 62
     1
 10
2.25007090965084
 20
162.487035115967
 30
0.0
 11
2.42684683867545
 21
162.413823446337
 31
0.0
  0
LINE
  5
    9E
  8
0
  6
CONTINUOUS
 62
     1
 10
-4.49993896365152
 20
51.9870767817778
 30
0.0
 11
-3.99993896365152
 21
51.9870767817778
 31
0.0
  0
LINE
  5
    9F
  8
0
  6
CONTINUOUS
 62
     2
 10
-6.79994201540893
 20
51.9871040296231
 30
0.0
 11
-1.49993991732589
 21
51.9871040296231
 31
0.0
  0
LINE
  5
    A0
  8
0
  6
CONTINUOUS
 62
     2
 10
0.501371416447853
 20
57.4870605729694
 30
0.0
 11
0.501371416447853
 21
162.487060572969
 31
0.0
  0
LINE
  5
    A1
  8
0
  6
CONTINUOUS
 62
     2
 10
-1.49993991732583
 20
162.487060569314
 30
0.0
 11
0.501371416447853
 21
162.487060569314
 31
0.0
  0
LINE
  5
    A2
  8
0
  6
CONTINUOUS
 62
     2
 10
-1.49993991732589
 20
57.4870605716744
 30
0.0
 11
0.501371416447853
 21
57.4870605716744
 31
0.0
  0
LINE
  5
    A3
  8
0
  6
CONTINUOUS
 62
     7
 10
-34.9999785446859
 20
126.237034518227
 30
0.0
 11
-32.4999465939887
 21
126.237034518227
 31
0.0
  0
LINE
  5
    A4
  8
0
  6
CONTINUOUS
 62
     2
 10
-1.49993991732583
 20
162.487060569314
 30
0.0
 11
-1.49993991732583
 21
172.937060358292
 31
0.0
  0
LINE
  5
    A5
  8
0
  6
CONTINUOUS
 62
     2
 10
-1.49993991732589
 20
51.9870769180169
 30
0.0
 11
-1.49993991732589
 21
57.4870605716744
 31
0.0
  0
LINE
  5
    A6
  8
0
  6
CONTINUOUS
 62
     3
 10
-6.79994201540893
 20
172.987060569314
 30
0.0
 11
-6.79994201540893
 21
194.437072776346
 31
0.0
  0
LINE
  5
    A7
  8
0
  6
CONTINUOUS
 62
     2
 10
-6.79994201540893
 20
51.9870783621531
 30
0.0
 11
-6.79994201540893
 21
172.937060358292
 31
0.0
  0
ARC
  5
    A8
  8
0
  6
CONTINUOUS
 62
     7
 10
30.1761008445029
 20
87.9431789187423
 30
0.0
 40
0.999999795755811
 50
348.623601768641
 51
436.688817106542
  0
ARC
  5
    A9
  8
0
  6
CONTINUOUS
 62
     7
 10
28.9793593874072
 20
81.9953603586445
 30
0.0
 40
1.00000074524674
 50
260.594020595617
 51
348.623601768641
  0
LINE
  5
    AA
  8
0
  6
CONTINUOUS
 62
     7
 10
9.50118010939707
 20
93.8623908729446
 30
0.0
 11
30.4063403077298
 21
88.916311972053
 31
0.0
  0
LINE
  5
    AB
  8
0
  6
CONTINUOUS
 62
     7
 10
29.959712374761
 20
81.798106741116
 30
0.0
 11
31.1564535032703
 21
87.7459253673276
 31
0.0
  0
LINE
  5
    AC
  8
0
  6
CONTINUOUS
 62
     7
 10
9.50123023673719
 20
84.2084036753428
 30
0.0
 11
28.8159303983285
 21
81.0088048320435
 31
0.0
  0
LINE
  5
    AD
  8
0
  6
DASHDOT
 62
     7
 10
-105.999938964844
 20
17.3296708745119
 30
0.0
 11
-105.999938964844
 21
291.14253020678
 31
0.0
  0
LINE
  5
    AE
  8
0
  6
DASHDOT
 62
   218
 10
-120.004331343357
 20
266.737060569314
 30
0.0
 11
-95.3552322269176
 21
266.737060569314
 31
0.0
  0
LINE
  5
    AF
  8
0
  6
CONTINUOUS
 62
     7
 10
-109.999938964844
 20
270.737060569314
 30
0.0
 11
-105.999938964844
 21
270.737060569314
 31
0.0
  0
LINE
  5
    B0
  8
0
  6
CONTINUOUS
 62
     7
 10
-109.999938964844
 20
262.737060569314
 30
0.0
 11
-105.999938964844
 21
262.737060569314
 31
0.0
  0
LINE
  5
    B1
  8
0
  6
CONTINUOUS
 62
     7
 10
-109.999938964844
 20
262.737060569314
 30
0.0
 11
-109.999938964844
 21
270.737060569314
 31
0.0
  0
LINE
  5
    B2
  8
0
  6
CONTINUOUS
 62
     7
 10
-113.999938964844
 20
264.237060569314
 30
0.0
 11
-113.999938964844
 21
269.237060569314
 31
0.0
  0
LINE
  5
    B3
  8
0
  6
CONTINUOUS
 62
     7
 10
-113.999938964844
 20
269.237060569314
 30
0.0
 11
-105.999938964844
 21
269.237060569314
 31
0.0
  0
LINE
  5
    B4
  8
0
  6
CONTINUOUS
 62
     7
 10
-113.999938964844
 20
264.237060569314
 30
0.0
 11
-105.999938964844
 21
264.237060569314
 31
0.0
  0
LINE
  5
    B5
  8
0
  6
CONTINUOUS
 62
     7
 10
-109.999938964844
 20
46.7370605693144
 30
0.0
 11
-105.999938964844
 21
46.7370605693144
 31
0.0
  0
LINE
  5
    B6
  8
0
  6
CONTINUOUS
 62
     7
 10
-113.999938964844
 20
45.2370605693144
 30
0.0
 11
-105.999938964844
 21
45.2370605693144
 31
0.0
  0
LINE
  5
    B7
  8
0
  6
CONTINUOUS
 62
     7
 10
-113.999938964844
 20
40.2370605693144
 30
0.0
 11
-105.999938964844
 21
40.2370605693144
 31
0.0
  0
LINE
  5
    B8
  8
0
  6
CONTINUOUS
 62
     7
 10
-109.999938964844
 20
38.7370605693144
 30
0.0
 11
-105.999938964844
 21
38.7370605693144
 31
0.0
  0
LINE
  5
    B9
  8
0
  6
DASHDOT
 62
   218
 10
-120.004331343357
 20
42.7370605693144
 30
0.0
 11
-95.3552322269176
 21
42.7370605693144
 31
0.0
  0
LINE
  5
    BA
  8
0
  6
CONTINUOUS
 62
     7
 10
-109.999938964844
 20
38.7370605693144
 30
0.0
 11
-109.999938964844
 21
46.7370605693144
 31
0.0
  0
LINE
  5
    BB
  8
0
  6
CONTINUOUS
 62
     7
 10
-113.999938964844
 20
40.2370605693144
 30
0.0
 11
-113.999938964844
 21
45.2370605693144
 31
0.0
  0
LINE
  5
    BC
  8
0
  6
CONTINUOUS
 62
     2
 10
-2.49993896489528
 20
172.937060358292
 30
0.0
 11
-1.49993991732583
 21
172.937060358292
 31
0.0
  0
LINE
  5
    BD
  8
0
  6
CONTINUOUS
 62
     2
 10
-6.79994201540893
 20
172.937060358292
 30
0.0
 11
-6.49993896489528
 21
172.937060358292
 31
0.0
  0
LINE
  5
    BE
  8
0
  6
CONTINUOUS
 62
   130
 10
-100.999938964895
 20
279.137057306535
 30
0.0
 11
-28.9999389648953
 21
279.137057306535
 31
0.0
  0
LINE
  5
    BF
  8
0
  6
CONTINUOUS
 62
   130
 10
-28.9999389648953
 20
265.437060358292
 30
0.0
 11
-28.9999389648953
 21
282.237060569314
 31
0.0
  0
LINE
  5
    C0
  8
0
  6
CONTINUOUS
 62
   130
 10
-28.9999389648953
 20
194.737060569314
 30
0.0
 11
-28.9999389648953
 21
198.437319757706
 31
0.0
  0
LINE
  5
    C1
  8
0
  6
CONTINUOUS
 62
   130
 10
-100.999938964895
 20
194.737060569314
 30
0.0
 11
-100.999938964895
 21
282.237060569314
 31
0.0
  0
LINE
  5
    C2
  8
0
  6
CONTINUOUS
 62
   130
 10
-100.999938964895
 20
247.937060358292
 30
0.0
 11
-96.9999389648953
 21
247.937060358292
 31
0.0
  0
LINE
  5
    C3
  8
0
  6
CONTINUOUS
 62
   130
 10
-96.9999389648953
 20
247.937060358292
 30
0.0
 11
-96.9999389648953
 21
270.237060569314
 31
0.0
  0
LINE
  5
    C4
  8
0
  6
CONTINUOUS
 62
   130
 10
-32.4999389648953
 20
258.437060358292
 30
0.0
 11
-32.3999404907742
 21
258.437060358292
 31
0.0
  0
LINE
  5
    C5
  8
0
  6
CONTINUOUS
 62
   130
 10
-32.4999389648953
 20
265.437060358292
 30
0.0
 11
-28.9999389648953
 21
265.437060358292
 31
0.0
  0
LINE
  5
    C6
  8
0
  6
CONTINUOUS
 62
   130
 10
-32.4999389648953
 20
198.437151911027
 30
0.0
 11
-28.9999389648953
 21
198.437151911027
 31
0.0
  0
LINE
  5
    C7
  8
0
  6
CONTINUOUS
 62
   130
 10
-32.4999389648953
 20
205.437151911027
 30
0.0
 11
-32.3999404907742
 21
205.437151911027
 31
0.0
  0
LINE
  5
    C8
  8
0
  6
CONTINUOUS
 62
   130
 10
-32.4999389648953
 20
198.437151911027
 30
0.0
 11
-32.4999389648953
 21
265.437060358292
 31
0.0
  0
LINE
  5
    C9
  8
0
  6
CONTINUOUS
 62
   130
 10
-102.999938964844
 20
262.300564996964
 30
0.0
 11
-102.999938964844
 21
271.177060358292
 31
0.0
  0
LINE
  5
    CA
  8
0
  6
CONTINUOUS
 62
   210
 10
-28.9999389648953
 20
279.137057306535
 30
0.0
 11
-6.79994201665311
 21
279.137057306535
 31
0.0
  0
LINE
  5
    CB
  8
0
  6
CONTINUOUS
 62
   210
 10
-28.9999389648953
 20
198.437151911027
 30
0.0
 11
-28.9999389648953
 21
198.687060358292
 31
0.0
  0
LINE
  5
    CC
  8
0
  6
CONTINUOUS
 62
   210
 10
-28.9999389648953
 20
265.187060358292
 30
0.0
 11
-28.9999389648953
 21
265.437060358292
 31
0.0
  0
LINE
  5
    CD
  8
0
  6
CONTINUOUS
 62
   210
 10
-3.99993896489527
 20
257.737060358292
 30
0.0
 11
-3.99993896489527
 21
282.237060569314
 31
0.0
  0
LINE
  5
    CE
  8
0
  6
CONTINUOUS
 62
   210
 10
-6.79994201665311
 20
265.687060358292
 30
0.0
 11
-3.99993896489529
 21
265.687060358292
 31
0.0
  0
LINE
  5
    CF
  8
0
  6
CONTINUOUS
 62
   210
 10
-6.79994201665311
 20
205.687060358292
 30
0.0
 11
-6.49993896489529
 21
205.687060358292
 31
0.0
  0
LINE
  5
    D0
  8
0
  6
CONTINUOUS
 62
   210
 10
-6.79994201665311
 20
198.187060358292
 30
0.0
 11
-6.49993896489529
 21
198.187060358292
 31
0.0
  0
LINE
  5
    D1
  8
0
  6
CONTINUOUS
 62
   210
 10
-6.79994201665311
 20
196.937060358292
 30
0.0
 11
-6.49993896489529
 21
196.937060358292
 31
0.0
  0
LINE
  5
    D2
  8
0
  6
CONTINUOUS
 62
   210
 10
-6.79994201665308
 20
197.237060569314
 30
0.0
 11
-6.79994201665308
 21
279.137057306535
 31
0.0
  0
LINE
  5
    D3
  8
0
  6
CONTINUOUS
 62
   210
 10
-31.8999404907742
 20
198.687060358292
 30
0.0
 11
-28.9999389648953
 21
198.687060358292
 31
0.0
  0
LINE
  5
    D4
  8
0
  6
CONTINUOUS
 62
   210
 10
-32.2534924875965
 20
198.833518556996
 30
0.0
 11
-31.8999387088201
 21
198.687064698815
 31
0.0
  0
LINE
  5
    D5
  8
0
  6
CONTINUOUS
 62
   210
 10
-32.3999415113775
 20
199.187045368779
 30
0.0
 11
-32.253495283134
 21
198.833499235179
 31
0.0
  0
LINE
  5
    D6
  8
0
  6
CONTINUOUS
 62
   210
 10
-32.3999404907742
 20
199.187060358292
 30
0.0
 11
-32.3999404907742
 21
204.687060358292
 31
0.0
  0
LINE
  5
    D7
  8
0
  6
CONTINUOUS
 62
   210
 10
-32.3999404907742
 20
259.187060358292
 30
0.0
 11
-32.3999404907742
 21
264.687060358292
 31
0.0
  0
LINE
  5
    D8
  8
0
  6
CONTINUOUS
 62
   210
 10
-32.3999489093436
 20
264.687036615816
 30
0.0
 11
-32.2535026811001
 21
265.040582749416
 31
0.0
  0
LINE
  5
    D9
  8
0
  6
CONTINUOUS
 62
   210
 10
-32.2534888300058
 20
265.040614019561
 30
0.0
 11
-31.8999350512294
 21
265.187067877742
 31
0.0
  0
LINE
  5
    DA
  8
0
  6
CONTINUOUS
 62
   210
 10
-31.8999404907742
 20
265.187060358292
 30
0.0
 11
-28.9999389648953
 21
265.187060358292
 31
0.0
  0
LINE
  5
    DB
  8
0
  6
CONTINUOUS
 62
   210
 10
-32.3999404907742
 20
204.687060358292
 30
0.0
 11
-32.3999404907742
 21
259.187060358292
 31
0.0
  0
LINE
  5
    DC
  8
0
  6
CONTINUOUS
 62
     2
 10
-6.49993896489527
 20
173.237060358292
 30
0.0
 11
-6.49993896489527
 21
257.737060358292
 31
0.0
  0
LINE
  5
    DD
  8
0
  6
CONTINUOUS
 62
     2
 10
-1.49993896489527
 20
174.237060358292
 30
0.0
 11
-1.49993896489527
 21
244.237060358292
 31
0.0
  0
LINE
  5
    DE
  8
0
  6
CONTINUOUS
 62
     2
 10
-1.49993896489527
 20
245.237060358292
 30
0.0
 11
-1.49993896489527
 21
257.737060358292
 31
0.0
  0
LINE
  5
    DF
  8
0
  6
CONTINUOUS
 62
     2
 10
-6.49993896489529
 20
257.737060358292
 30
0.0
 11
-3.99993896489529
 21
257.737060358292
 31
0.0
  0
LINE
  5
    E0
  8
0
  6
CONTINUOUS
 62
     2
 10
-6.49993896489529
 20
172.937060358292
 30
0.0
 11
-2.49993896489529
 21
172.937060358292
 31
0.0
  0
LINE
  5
    E1
  8
0
  6
CONTINUOUS
 62
     2
 10
-2.49993896489529
 20
245.237060358292
 30
0.0
 11
-1.49993896489529
 21
245.237060358292
 31
0.0
  0
LINE
  5
    E2
  8
0
  6
CONTINUOUS
 62
     2
 10
-2.49993896489529
 20
244.237060358292
 30
0.0
 11
-1.49993896489529
 21
244.237060358292
 31
0.0
  0
LINE
  5
    E3
  8
0
  6
CONTINUOUS
 62
     2
 10
-2.49993896489527
 20
244.237060358292
 30
0.0
 11
-2.49993896489527
 21
245.237060358292
 31
0.0
  0
LINE
  5
    E4
  8
0
  6
CONTINUOUS
 62
     2
 10
-2.49993896489527
 20
173.237060358292
 30
0.0
 11
-2.49993896489527
 21
174.237060358292
 31
0.0
  0
LINE
  5
    E5
  8
0
  6
CONTINUOUS
 62
     2
 10
-5.99993896489529
 20
174.237060358292
 30
0.0
 11
-2.49993896489529
 21
174.237060358292
 31
0.0
  0
LINE
  5
    E6
  8
0
  6
CONTINUOUS
 62
     2
 10
-5.99993896489527
 20
174.237060358292
 30
0.0
 11
-5.99993896489527
 21
257.737060358292
 31
0.0
  0
LINE
  5
    E7
  8
0
  6
CONTINUOUS
 62
   130
 10
-102.999938964844
 20
271.177060358292
 30
0.0
 11
-100.999938964895
 21
271.177060358292
 31
0.0
  0
LINE
  5
    E8
  8
0
  6
CONTINUOUS
 62
   130
 10
-102.999938964895
 20
262.300564996964
 30
0.0
 11
-100.999938964895
 21
262.300564996964
 31
0.0
  0
LINE
  5
    E9
  8
0
  6
CONTINUOUS
 62
   210
 10
-6.79994201665311
 20
258.187060358292
 30
0.0
 11
-3.99993896489529
 21
258.187060358292
 31
0.0
  0
LINE
  5
    EA
  8
0
  6
CONTINUOUS
 62
   210
 10
-6.79994423895577
 20
208.687056801621
 30
0.0
 11
-6.49994881351381
 21
208.555098791438
 31
0.0
  0
LINE
  5
    EB
  8
0
  6
CONTINUOUS
 62
   210
 10
-6.79993790098636
 20
255.187065101407
 30
0.0
 11
-6.49993484182274
 21
255.319023106442
 31
0.0
  0
LINE
  5
    EC
  8
0
  6
CONTINUOUS
 62
     2
 10
-2.49993896489529
 20
174.237060358292
 30
0.0
 11
-1.49993896489529
 21
174.237060358292
 31
0.0
  0
LINE
  5
    ED
  8
0
  6
CONTINUOUS
 62
     2
 10
-3.99993896489529
 20
257.737060358292
 30
0.0
 11
-1.49993896489529
 21
257.737060358292
 31
0.0
  0
LINE
  5
    EE
  8
0
  6
CONTINUOUS
 62
   130
 10
-100.999938964895
 20
282.237060569314
 30
0.0
 11
-28.9999389648953
 21
282.237060569314
 31
0.0
  0
LINE
  5
    EF
  8
0
  6
CONTINUOUS
 62
   210
 10
-28.9999389648953
 20
282.237060569314
 30
0.0
 11
-3.99993896489529
 21
282.237060569314
 31
0.0
  0
LINE
  5
    F0
  8
0
  6
CONTINUOUS
 62
   130
 10
-100.999938964895
 20
194.737060569314
 30
0.0
 11
-6.49993896489528
 21
194.737060569314
 31
0.0
  0
POINT
  5
    F1
  8
0
  6
CONTINUOUS
 62
     7
 10
-100.999938964895
 20
197.237060569314
 30
0.0
  0
LINE
  5
    F2
  8
0
  6
CONTINUOUS
 62
     7
 10
-102.999938964844
 20
176.868682883768
 30
0.0
 11
-102.999938964844
 21
186.737030051736
 31
0.0
  0
LINE
  5
    F3
  8
0
  6
CONTINUOUS
 62
     2
 10
-6.49993896489527
 20
173.237060358292
 30
0.0
 11
-2.49993896489527
 21
173.237060358292
 31
0.0
  0
LINE
  5
    F4
  8
0
  6
CONTINUOUS
 62
     2
 10
-3.99993896489527
 20
172.937060358292
 30
0.0
 11
-3.99993896489527
 21
173.237060358292
 31
0.0
  0
LINE
  5
    F5
  8
0
  6
CONTINUOUS
 62
   130
 10
-100.999938964895
 20
270.237060569314
 30
0.0
 11
-96.9999389648953
 21
270.237060569314
 31
0.0
  0
POINT
  5
    F6
  8
0
  6
CONTINUOUS
 62
     7
 10
0.501371416447853
 20
109.987060569314
 30
0.0
  0
LINE
  5
    F7
  8
0
  6
CONTINUOUS
 62
     7
 10
-100.999938964844
 20
39.2370758281034
 30
0.0
 11
-96.9999399185181
 21
39.2370758281034
 31
0.0
  0
LINE
  5
    F8
  8
0
  6
CONTINUOUS
 62
     7
 10
-113.090410982488
 20
15.6155904745968
 30
0.0
 11
-98.5146551119343
 21
19.1391947409268
 31
0.0
  0
ENDBLK
  5
    F9
  8
0
  6
CONTINUOUS
 62
     7
  0
BLOCK
  5
    FA
  8
0
  6
CONTINUOUS
 62
     7
  2
*UDIM536
 70
    65
 10
0.0
 20
0.0
 30
0.0
  3
*UDIM536
  0
TEXT
  5
    FB
  8
0
  6
CONTINUOUS
 62
     7
 10
107.491574004843
 20
9.63486379008826
 30
0.0
 40
2.99999994933605
  1
162,5
 50
360.0
 41
0.933333333333333
 72
     1
 11
114.191573891686
 21
11.13486376479
 31
0.0
 73
     2
  0
LINE
  5
    FC
  8
0
  6
CONTINUOUS
 62
     7
 10
146.967022411775
 20
16.0713963486334
 30
0.0
 11
146.967022411775
 21
6.63486379012193
 31
0.0
  0
LINE
  5
    FD
  8
0
  6
CONTINUOUS
 62
     7
 10
81.96612700104
 20
31.9510013187038
 30
0.0
 11
81.96612700104
 21
6.63486379012193
 31
0.0
  0
LINE
  5
    FE
  8
0
  6
CONTINUOUS
 62
     7
 10
146.967022411775
 20
8.63486379012193
 30
0.0
 11
81.96612700104
 21
8.63486379012193
 31
0.0
  0
LINE
  5
    FF
  8
0
  6
CONTINUOUS
 62
     7
 10
144.012599134568
 20
8.11391936017026
 30
0.0
 11
146.967022411775
 21
8.63486379012193
 31
0.0
  0
LINE
  5
   100
  8
0
  6
CONTINUOUS
 62
     7
 10
146.967022411775
 20
8.63486379012193
 30
0.0
 11
144.012599134568
 21
9.15580822007359
 31
0.0
  0
LINE
  5
   101
  8
0
  6
CONTINUOUS
 62
     7
 10
84.920550278247
 20
9.15580822007359
 30
0.0
 11
81.96612700104
 21
8.63486379012193
 31
0.0
  0
LINE
  5
   102
  8
0
  6
CONTINUOUS
 62
     7
 10
81.96612700104
 20
8.63486379012193
 30
0.0
 11
84.920550278247
 21
8.11391936017026
 31
0.0
  0
ENDBLK
  5
   103
  8
0
  6
CONTINUOUS
 62
     7
  0
BLOCK
  5
   104
  8
0
  6
CONTINUOUS
 62
     7
  2
*UDIM537
 70
    65
 10
0.0
 20
0.0
 30
0.0
  3
*UDIM537
  0
TEXT
  5
   105
  8
0
  6
CONTINUOUS
 62
     7
 10
95.6913891848713
 20
146.791213490127
 30
0.0
 40
2.99999994933605
  1
103,5
 50
360.0
 41
0.933333333333333
 72
     1
 11
102.391389071714
 21
148.291213464829
 31
0.0
 73
     2
  0
LINE
  5
   106
  8
0
  6
CONTINUOUS
 62
     7
 10
123.366651770473
 20
91.6798921137453
 30
0.0
 11
123.366651770473
 21
147.791213490161
 31
0.0
  0
LINE
  5
   107
  8
0
  6
CONTINUOUS
 62
     7
 10
81.96612700104
 20
142.978444368041
 30
0.0
 11
81.96612700104
 21
147.791213490161
 31
0.0
  0
LINE
  5
   108
  8
0
  6
CONTINUOUS
 62
     7
 10
123.366651770473
 20
145.791213490161
 30
0.0
 11
81.96612700104
 21
145.791213490161
 31
0.0
  0
LINE
  5
   109
  8
0
  6
CONTINUOUS
 62
     7
 10
120.412228493266
 20
145.270269060209
 30
0.0
 11
123.366651770473
 21
145.791213490161
 31
0.0
  0
LINE
  5
   10A
  8
0
  6
CONTINUOUS
 62
     7
 10
123.366651770473
 20
145.791213490161
 30
0.0
 11
120.412228493266
 21
146.312157920112
 31
0.0
  0
LINE
  5
   10B
  8
0
  6
CONTINUOUS
 62
     7
 10
84.920550278247
 20
146.312157920112
 30
0.0
 11
81.96612700104
 21
145.791213490161
 31
0.0
  0
LINE
  5
   10C
  8
0
  6
CONTINUOUS
 62
     7
 10
81.96612700104
 20
145.791213490161
 30
0.0
 11
84.920550278247
 21
145.270269060209
 31
0.0
  0
ENDBLK
  5
   10D
  8
0
  6
CONTINUOUS
 62
     7
  0
BLOCK
  5
   10E
  8
0
  6
CONTINUOUS
 62
     7
  2
*UDIM538
 70
    65
 10
0.0
 20
0.0
 30
0.0
  3
*UDIM538
  0
TEXT
  5
   10F
  8
0
  6
CONTINUOUS
 62
     7
 10
143.765141668106
 20
17.251833965874
 30
0.0
 40
2.99999994933605
  1
 
 50
360.0
 41
0.933333333333333
 72
     1
 11
144.865141649522
 21
18.7518339405475
 31
0.0
 73
     2
  0
LINE
  5
   110
  8
0
  6
CONTINUOUS
 62
     7
 10
157.363631203726
 20
72.0797301068525
 30
0.0
 11
157.363631203726
 21
14.2518339658795
 31
0.0
  0
LINE
  5
   111
  8
0
  6
CONTINUOUS
 62
     7
 10
130.1666518718
 20
71.2797300949315
 30
0.0
 11
130.1666518718
 21
14.2518339658795
 31
0.0
  0
LINE
  5
   112
  8
0
  6
CONTINUOUS
 62
     7
 10
157.363631203726
 20
16.2518339658795
 30
0.0
 11
130.1666518718
 21
16.2518339658795
 31
0.0
  0
LINE
  5
   113
  8
0
  6
CONTINUOUS
 62
     7
 10
154.409207926519
 20
15.7308895359278
 30
0.0
 11
157.363631203726
 21
16.2518339658795
 31
0.0
  0
LINE
  5
   114
  8
0
  6
CONTINUOUS
 62
     7
 10
157.363631203726
 20
16.2518339658795
 30
0.0
 11
154.409207926519
 21
16.7727783958311
 31
0.0
  0
LINE
  5
   115
  8
0
  6
CONTINUOUS
 62
     7
 10
133.121075149007
 20
16.7727783958311
 30
0.0
 11
130.1666518718
 21
16.2518339658795
 31
0.0
  0
LINE
  5
   116
  8
0
  6
CONTINUOUS
 62
     7
 10
130.1666518718
 20
16.2518339658795
 30
0.0
 11
133.121075149007
 21
15.7308895359278
 31
0.0
  0
ENDBLK
  5
   117
  8
0
  6
CONTINUOUS
 62
     7
  0
BLOCK
  5
   118
  8
0
  6
CONTINUOUS
 62
     7
  2
*UDIM539
 70
    65
 10
0.0
 20
0.0
 30
0.0
  3
*UDIM539
  0
TEXT
  5
   119
  8
0
  6
CONTINUOUS
 62
     7
 10
123.546293719314
 20
117.014534579644
 30
0.0
 40
2.99999994933605
  1
17
 50
360.0
 41
0.933333333333333
 72
     1
 11
126.046293677086
 21
118.514534554325
 31
0.0
 73
     2
  0
LINE
  5
   11A
  8
0
  6
CONTINUOUS
 62
     7
 10
130.1666518718
 20
77.2797301545362
 30
0.0
 11
130.1666518718
 21
118.014534579657
 31
0.0
  0
LINE
  5
   11B
  8
0
  6
CONTINUOUS
 62
     7
 10
123.366651770473
 20
91.5773149011641
 30
0.0
 11
123.366651770473
 21
118.014534579657
 31
0.0
  0
LINE
  5
   11C
  8
0
  6
CONTINUOUS
 62
     7
 10
130.1666518718
 20
116.014534579657
 30
0.0
 11
123.366651770473
 21
116.014534579657
 31
0.0
  0
LINE
  5
   11D
  8
0
  6
CONTINUOUS
 62
     7
 10
133.121075149007
 20
116.535479009608
 30
0.0
 11
130.1666518718
 21
116.014534579657
 31
0.0
  0
LINE
  5
   11E
  8
0
  6
CONTINUOUS
 62
     7
 10
130.1666518718
 20
116.014534579657
 30
0.0
 11
133.121075149007
 21
115.493590149705
 31
0.0
  0
LINE
  5
   11F
  8
0
  6
CONTINUOUS
 62
     7
 10
120.412228493266
 20
115.493590149705
 30
0.0
 11
123.366651770473
 21
116.014534579657
 31
0.0
  0
LINE
  5
   120
  8
0
  6
CONTINUOUS
 62
     7
 10
123.366651770473
 20
116.014534579657
 30
0.0
 11
120.412228493266
 21
116.535479009608
 31
0.0
  0
ENDBLK
  5
   121
  8
0
  6
CONTINUOUS
 62
     7
  0
BLOCK
  5
   122
  8
0
  6
CONTINUOUS
 62
     7
  2
*UDIM540
 70
    65
 10
0.0
 20
0.0
 30
0.0
  3
*UDIM540
  0
TEXT
  5
   123
  8
0
  6
CONTINUOUS
 62
     7
 10
150.836873325766
 20
102.191127376336
 30
0.0
 40
2.99999994933605
  1
19
 50
360.0
 41
0.933333333333333
 72
     1
 11
153.336873283539
 21
103.691127351017
 31
0.0
 73
     2
  0
LINE
  5
   124
  8
0
  6
CONTINUOUS
 62
     7
 10
157.363631203726
 20
76.4797301426152
 30
0.0
 11
157.363631203726
 21
103.191127376349
 31
0.0
  0
LINE
  5
   125
  8
0
  6
CONTINUOUS
 62
     7
 10
157.363631203726
 20
101.191127376349
 30
0.0
 11
149.763631090477
 21
101.191127376349
 31
0.0
  0
LINE
  5
   126
  8
0
  6
CONTINUOUS
 62
     7
 10
154.409207926519
 20
100.670182946397
 30
0.0
 11
157.363631203726
 21
101.191127376349
 31
0.0
  0
LINE
  5
   127
  8
0
  6
CONTINUOUS
 62
     7
 10
157.363631203726
 20
101.191127376349
 30
0.0
 11
154.409207926519
 21
101.712071806301
 31
0.0
  0
LINE
  5
   128
  8
0
  6
CONTINUOUS
 62
     7
 10
152.718054367684
 20
101.712071806301
 30
0.0
 11
149.763631090477
 21
101.191127376349
 31
0.0
  0
LINE
  5
   129
  8
0
  6
CONTINUOUS
 62
     7
 10
149.763631090477
 20
101.191127376349
 30
0.0
 11
152.718054367684
 21
100.670182946397
 31
0.0
  0
ENDBLK
  5
   12A
  8
0
  6
CONTINUOUS
 62
     7
  0
BLOCK
  5
   12B
  8
0
  6
CONTINUOUS
 62
     7
  2
*UDIM541
 70
    65
 10
0.0
 20
0.0
 30
0.0
  3
*UDIM541
  0
TEXT
  5
   12C
  8
0
  6
CONTINUOUS
 62
     7
 10
152.763631170156
 20
36.9640443426166
 30
0.0
 40
2.99999994933605
  1
2
 50
360.0
 41
0.933333333333333
 72
     1
 11
153.863631151572
 21
38.4640443172901
 31
0.0
 73
     2
  0
LINE
  5
   12D
  8
0
  6
CONTINUOUS
 62
     7
 10
149.763631090477
 20
47.6798778145735
 30
0.0
 11
149.763631090477
 21
33.9640443426221
 31
0.0
  0
LINE
  5
   12E
  8
0
  6
CONTINUOUS
 62
     7
 10
148.963631078556
 20
43.1452565308468
 30
0.0
 11
148.963631078556
 21
33.9640443426221
 31
0.0
  0
LINE
  5
   12F
  8
0
  6
CONTINUOUS
 62
     7
 10
154.963631132995
 20
35.9640443426221
 30
0.0
 11
148.963631078556
 21
35.9640443426221
 31
0.0
  0
LINE
  5
   130
  8
0
  6
CONTINUOUS
 62
     7
 10
152.718054367684
 20
36.4849887725738
 30
0.0
 11
149.763631090477
 21
35.9640443426221
 31
0.0
  0
LINE
  5
   131
  8
0
  6
CONTINUOUS
 62
     7
 10
149.763631090477
 20
35.9640443426221
 30
0.0
 11
152.718054367684
 21
35.4430999126705
 31
0.0
  0
LINE
  5
   132
  8
0
  6
CONTINUOUS
 62
     7
 10
146.009207801349
 20
35.4430999126705
 30
0.0
 11
148.963631078556
 21
35.9640443426221
 31
0.0
  0
LINE
  5
   133
  8
0
  6
CONTINUOUS
 62
     7
 10
148.963631078556
 20
35.9640443426221
 30
0.0
 11
146.009207801349
 21
36.4849887725738
 31
0.0
  0
ENDBLK
  5
   134
  8
0
  6
CONTINUOUS
 62
     7
  0
BLOCK
  5
   135
  8
0
  6
CONTINUOUS
 62
     7
  2
*UDIM542
 70
    65
 10
0.0
 20
0.0
 30
0.0
  3
*UDIM542
  0
TEXT
  5
   136
  8
0
  6
CONTINUOUS
 62
     7
 10
181.332302515606
 20
146.871169546027
 30
0.0
 40
2.99999994933605
  1
22
 50
360.0
 41
0.933333333333333
 72
     1
 11
183.832302473378
 21
148.371169520708
 31
0.0
 73
     2
  0
LINE
  5
   137
  8
0
  6
CONTINUOUS
 62
     7
 10
178.357301086857
 20
63.8155915686405
 30
0.0
 11
178.357301086857
 21
147.87116954604
 31
0.0
  0
LINE
  5
   138
  8
0
  6
CONTINUOUS
 62
     7
 10
169.56363138552
 20
79.4240557582554
 30
0.0
 11
169.56363138552
 21
147.87116954604
 31
0.0
  0
LINE
  5
   139
  8
0
  6
CONTINUOUS
 62
     7
 10
186.332302431158
 20
145.87116954604
 30
0.0
 11
169.56363138552
 21
145.87116954604
 31
0.0
  0
LINE
  5
   13A
  8
0
  6
CONTINUOUS
 62
     7
 10
181.311724364064
 20
146.392113975991
 30
0.0
 11
178.357301086857
 21
145.87116954604
 31
0.0
  0
LINE
  5
   13B
  8
0
  6
CONTINUOUS
 62
     7
 10
178.357301086857
 20
145.87116954604
 30
0.0
 11
181.311724364064
 21
145.350225116088
 31
0.0
  0
LINE
  5
   13C
  8
0
  6
CONTINUOUS
 62
     7
 10
166.609208108313
 20
145.350225116088
 30
0.0
 11
169.56363138552
 21
145.87116954604
 31
0.0
  0
LINE
  5
   13D
  8
0
  6
CONTINUOUS
 62
     7
 10
169.56363138552
 20
145.87116954604
 30
0.0
 11
166.609208108313
 21
146.392113975991
 31
0.0
  0
ENDBLK
  5
   13E
  8
0
  6
CONTINUOUS
 62
     7
  0
BLOCK
  5
   13F
  8
0
  6
CONTINUOUS
 62
     7
  2
*UDIM543
 70
    65
 10
0.0
 20
0.0
 30
0.0
  3
*UDIM543
  0
TEXT
  5
   140
  8
0
  6
CONTINUOUS
 62
     7
 10
154.088631251889
 20
146.871169546013
 30
0.0
 40
2.99999994933605
  1
49,5
 50
360.0
 41
0.933333333333333
 72
     1
 11
159.388631162375
 21
148.371169520708
 31
0.0
 73
     2
  0
LINE
  5
   141
  8
0
  6
CONTINUOUS
 62
     7
 10
169.56363138552
 20
84.2797302588443
 30
0.0
 11
169.56363138552
 21
147.87116954604
 31
0.0
  0
LINE
  5
   142
  8
0
  6
CONTINUOUS
 62
     7
 10
149.763631090477
 20
118.013049102095
 30
0.0
 11
149.763631090477
 21
147.87116954604
 31
0.0
  0
LINE
  5
   143
  8
0
  6
CONTINUOUS
 62
     7
 10
169.56363138552
 20
145.87116954604
 30
0.0
 11
149.763631090477
 21
145.87116954604
 31
0.0
  0
LINE
  5
   144
  8
0
  6
CONTINUOUS
 62
     7
 10
166.609208108313
 20
145.350225116088
 30
0.0
 11
169.56363138552
 21
145.87116954604
 31
0.0
  0
LINE
  5
   145
  8
0
  6
CONTINUOUS
 62
     7
 10
169.56363138552
 20
145.87116954604
 30
0.0
 11
166.609208108313
 21
146.392113975991
 31
0.0
  0
LINE
  5
   146
  8
0
  6
CONTINUOUS
 62
     7
 10
152.718054367684
 20
146.392113975991
 30
0.0
 11
149.763631090477
 21
145.87116954604
 31
0.0
  0
LINE
  5
   147
  8
0
  6
CONTINUOUS
 62
     7
 10
149.763631090477
 20
145.87116954604
 30
0.0
 11
152.718054367684
 21
145.350225116088
 31
0.0
  0
ENDBLK
  5
   148
  8
0
  6
CONTINUOUS
 62
     7
  0
BLOCK
  5
   149
  8
0
  6
CONTINUOUS
 62
     7
  2
*UDIM544
 70
    65
 10
0.0
 20
0.0
 30
0.0
  3
*UDIM544
  0
TEXT
  5
   14A
  8
0
  6
CONTINUOUS
 62
     7
 10
135.080732254107
 20
146.871169546034
 30
0.0
 40
2.99999994933605
  1
7
 50
360.0
 41
0.933333333333333
 72
     1
 11
136.180732235522
 21
148.371169520708
 31
0.0
 73
     2
  0
LINE
  5
   14B
  8
0
  6
CONTINUOUS
 62
     7
 10
123.366651770473
 20
91.5773149011641
 30
0.0
 11
123.366651770473
 21
147.87116954604
 31
0.0
  0
LINE
  5
   14C
  8
0
  6
CONTINUOUS
 62
     7
 10
149.763631090477
 20
145.87116954604
 30
0.0
 11
123.366651770473
 21
145.87116954604
 31
0.0
  0
LINE
  5
   14D
  8
0
  6
CONTINUOUS
 62
     7
 10
146.80920781327
 20
145.350225116088
 30
0.0
 11
149.763631090477
 21
145.87116954604
 31
0.0
  0
LINE
  5
   14E
  8
0
  6
CONTINUOUS
 62
     7
 10
149.763631090477
 20
145.87116954604
 30
0.0
 11
146.80920781327
 21
146.392113975991
 31
0.0
  0
LINE
  5
   14F
  8
0
  6
CONTINUOUS
 62
     7
 10
126.32107504768
 20
146.392113975991
 30
0.0
 11
123.366651770473
 21
145.87116954604
 31
0.0
  0
LINE
  5
   150
  8
0
  6
CONTINUOUS
 62
     7
 10
123.366651770473
 20
145.87116954604
 30
0.0
 11
126.32107504768
 21
145.350225116088
 31
0.0
  0
ENDBLK
  5
   151
  8
0
  6
CONTINUOUS
 62
     7
  0
BLOCK
  5
   152
  8
0
  6
CONTINUOUS
 62
     7
  2
*UDIM545
 70
    65
 10
0.0
 20
0.0
 30
0.0
  3
*UDIM545
  0
TEXT
  5
   153
  8
0
  6
CONTINUOUS
 62
     7
 10
152.800041198737
 20
-31.6577602680355
 30
0.0
 40
3.00000002980232
  1
11,5
 50
90.0
 41
0.933333333333333
 72
     1
 11
151.300041183829
 21
-26.3577602153866
 31
0.0
 73
     2
  0
LINE
  5
   154
  8
0
  6
CONTINUOUS
 62
     7
 10
144.135356525116
 20
-31.7842090374081
 30
0.0
 11
155.80004119873
 21
-31.7842090374081
 31
0.0
  0
LINE
  5
   155
  8
0
  6
CONTINUOUS
 62
     7
 10
153.80004119873
 20
-37.5342090374081
 30
0.0
 11
153.80004119873
 21
-21.0577601627358
 31
0.0
  0
LINE
  5
   156
  8
0
  6
CONTINUOUS
 62
     7
 10
154.320985628682
 20
-40.488632314615
 30
0.0
 11
153.80004119873
 21
-37.5342090374081
 31
0.0
  0
LINE
  5
   157
  8
0
  6
CONTINUOUS
 62
     7
 10
153.80004119873
 20
-37.5342090374081
 30
0.0
 11
153.279096768779
 21
-40.488632314615
 31
0.0
  0
LINE
  5
   158
  8
0
  6
CONTINUOUS
 62
     7
 10
153.279096768779
 20
-28.8297857602011
 30
0.0
 11
153.80004119873
 21
-31.7842090374081
 31
0.0
  0
LINE
  5
   159
  8
0
  6
CONTINUOUS
 62
     7
 10
153.80004119873
 20
-31.7842090374081
 30
0.0
 11
154.320985628682
 21
-28.8297857602011
 31
0.0
  0
ENDBLK
  5
   15A
  8
0
  6
CONTINUOUS
 62
     7
  0
BLOCK
  5
   15B
  8
0
  6
CONTINUOUS
 62
     7
  2
*UDIM546
 70
    65
 10
0.0
 20
0.0
 30
0.0
  3
*UDIM546
  0
TEXT
  5
   15C
  8
0
  6
CONTINUOUS
 62
     7
 10
133.689869565271
 20
-79.0492467880249
 30
0.0
 40
3.00000002980232
  1
R min.200
 41
0.933333333333333
 72
     1
 11
145.98986968746
 21
-77.5492467731237
 31
0.0
 73
     2
  0
LINE
  5
   15D
  8
0
  6
CONTINUOUS
 62
     7
 10
125.124620689737
 20
-39.2703044849263
 30
0.0
 11
125.124620689737
 21
-82.0492467880249
 31
0.0
  0
LINE
  5
   15E
  8
0
  6
CONTINUOUS
 62
     7
 10
125.124620689737
 20
-80.0492467880249
 30
0.0
 11
164.618649893222
 21
-80.0492467880249
 31
0.0
  0
LINE
  5
   15F
  8
0
  6
CONTINUOUS
 62
     7
 10
128.079043966944
 20
-79.5283023580732
 30
0.0
 11
125.124620689737
 21
-80.0492467880249
 31
0.0
  0
LINE
  5
   160
  8
0
  6
CONTINUOUS
 62
     7
 10
125.124620689737
 20
-80.0492467880249
 30
0.0
 11
128.079043966944
 21
-80.5701912179766
 31
0.0
  0
LINE
  5
   161
  8
0
  6
CONTINUOUS
 62
     7
 10
161.664226616015
 20
-80.5701912179766
 30
0.0
 11
164.618649893222
 21
-80.0492467880249
 31
0.0
  0
LINE
  5
   162
  8
0
  6
CONTINUOUS
 62
     7
 10
164.618649893222
 20
-80.0492467880249
 30
0.0
 11
161.664226616015
 21
-79.5283023580732
 31
0.0
  0
ENDBLK
  5
   163
  8
0
  6
CONTINUOUS
 62
     7
  0
BLOCK
  5
   164
  8
0
  6
CONTINUOUS
 62
     7
  2
*UDIM547
 70
    65
 10
0.0
 20
0.0
 30
0.0
  3
*UDIM547
  0
TEXT
  5
   165
  8
0
  6
CONTINUOUS
 62
     7
 10
131.63063439782
 20
-10.9660797119141
 30
0.0
 40
3.00000002980232
  1
5
 41
0.933333333333334
 72
     1
 11
132.730634408748
 21
-9.4660796970129
 31
0.0
 73
     2
  0
LINE
  5
   166
  8
0
  6
CONTINUOUS
 62
     7
 10
137.380633550441
 20
-19.2744834104613
 30
0.0
 11
137.380633550441
 21
-9.96607971191406
 31
0.0
  0
LINE
  5
   167
  8
0
  6
CONTINUOUS
 62
     7
 10
139.880633550441
 20
-19.2744834104613
 30
0.0
 11
139.880633550441
 21
-9.96607971191406
 31
0.0
  0
LINE
  5
   168
  8
0
  6
CONTINUOUS
 62
     7
 10
131.63063439782
 20
-11.9660797119141
 30
0.0
 11
139.880633550441
 21
-11.9660797119141
 31
0.0
  0
LINE
  5
   169
  8
0
  6
CONTINUOUS
 62
     7
 10
134.426210273234
 20
-12.4870241418657
 30
0.0
 11
137.380633550441
 21
-11.9660797119141
 31
0.0
  0
LINE
  5
   16A
  8
0
  6
CONTINUOUS
 62
     7
 10
137.380633550441
 20
-11.9660797119141
 30
0.0
 11
134.426210273234
 21
-11.4451352819624
 31
0.0
  0
LINE
  5
   16B
  8
0
  6
CONTINUOUS
 62
     7
 10
142.835056827648
 20
-11.4451352819624
 30
0.0
 11
139.880633550441
 21
-11.9660797119141
 31
0.0
  0
LINE
  5
   16C
  8
0
  6
CONTINUOUS
 62
     7
 10
139.880633550441
 20
-11.9660797119141
 30
0.0
 11
142.835056827648
 21
-12.4870241418657
 31
0.0
  0
ENDBLK
  5
   16D
  8
0
  6
CONTINUOUS
 62
     7
  0
BLOCK
  5
   16E
  8
0
  6
CONTINUOUS
 62
     7
  2
*UDIM548
 70
    65
 10
0.0
 20
0.0
 30
0.0
  3
*UDIM548
  0
TEXT
  5
   16F
  8
0
  6
CONTINUOUS
 62
     7
 10
122.349622327871
 20
-46.1873168945313
 30
0.0
 40
3.00000002980232
  1
33
 41
0.933333333333333
 72
     1
 11
124.849622352707
 21
-44.6873168796301
 31
0.0
 73
     2
  0
LINE
  5
   170
  8
0
  6
CONTINUOUS
 62
     7
 10
116.874620689737
 20
-32.7842090374081
 30
0.0
 11
116.874620689737
 21
-49.1873168945313
 31
0.0
  0
LINE
  5
   171
  8
0
  6
CONTINUOUS
 62
     7
 10
133.374620689737
 20
-32.7842090374081
 30
0.0
 11
133.374620689737
 21
-49.1873168945313
 31
0.0
  0
LINE
  5
   172
  8
0
  6
CONTINUOUS
 62
     7
 10
116.874620689737
 20
-47.1873168945312
 30
0.0
 11
133.374620689737
 21
-47.1873168945312
 31
0.0
  0
LINE
  5
   173
  8
0
  6
CONTINUOUS
 62
     7
 10
119.829043966944
 20
-46.6663724645796
 30
0.0
 11
116.874620689737
 21
-47.1873168945312
 31
0.0
  0
LINE
  5
   174
  8
0
  6
CONTINUOUS
 62
     7
 10
116.874620689737
 20
-47.1873168945312
 30
0.0
 11
119.829043966944
 21
-47.7082613244829
 31
0.0
  0
LINE
  5
   175
  8
0
  6
CONTINUOUS
 62
     7
 10
130.42019741253
 20
-47.7082613244829
 30
0.0
 11
133.374620689737
 21
-47.1873168945312
 31
0.0
  0
LINE
  5
   176
  8
0
  6
CONTINUOUS
 62
     7
 10
133.374620689737
 20
-47.1873168945312
 30
0.0
 11
130.42019741253
 21
-46.6663724645796
 31
0.0
  0
ENDBLK
  5
   177
  8
0
  6
CONTINUOUS
 62
     7
  0
BLOCK
  5
   178
  8
0
  6
CONTINUOUS
 62
     7
  2
*UDIM549
 70
    65
 10
0.0
 20
0.0
 30
0.0
  3
*UDIM549
  0
TEXT
  5
   179
  8
0
  6
CONTINUOUS
 62
     7
 10
122.355638094257
 20
-72.1392078399658
 30
0.0
 40
3.00000002980232
  1
54
 41
0.933333333333333
 72
     1
 11
124.855638119092
 21
-70.6392078250647
 31
0.0
 73
     2
  0
LINE
  5
   17A
  8
0
  6
CONTINUOUS
 62
     7
 10
111.630633550441
 20
-73.1392078399658
 30
0.0
 11
138.630643057293
 21
-73.1392078399658
 31
0.0
  0
LINE
  5
   17B
  8
0
  6
CONTINUOUS
 62
     7
 10
114.585056827648
 20
-72.6182634100142
 30
0.0
 11
111.630633550441
 21
-73.1392078399658
 31
0.0
  0
LINE
  5
   17C
  8
0
  6
CONTINUOUS
 62
     7
 10
111.630633550441
 20
-73.1392078399658
 30
0.0
 11
114.585056827648
 21
-73.6601522699175
 31
0.0
  0
LINE
  5
   17D
  8
0
  6
CONTINUOUS
 62
     7
 10
135.676219780086
 20
-73.6601522699175
 30
0.0
 11
138.630643057293
 21
-73.1392078399658
 31
0.0
  0
LINE
  5
   17E
  8
0
  6
CONTINUOUS
 62
     7
 10
138.630643057293
 20
-73.1392078399658
 30
0.0
 11
135.676219780086
 21
-72.6182634100142
 31
0.0
  0
ENDBLK
  5
   17F
  8
0
  6
CONTINUOUS
 62
     7
  0
BLOCK
  5
   180
  8
0
  6
CONTINUOUS
 62
     7
  2
*UDIM550
 70
    65
 10
0.0
 20
0.0
 30
0.0
  3
*UDIM550
  0
TEXT
  5
   181
  8
0
  6
CONTINUOUS
 62
     7
 10
115.602628311189
 20
-66.0710029602051
 30
0.0
 40
3.00000002980232
  1
27
 41
0.933333333333333
 72
     1
 11
118.102628336024
 21
-64.5710029453039
 31
0.0
 73
     2
  0
LINE
  5
   182
  8
0
  6
CONTINUOUS
 62
     7
 10
125.124620689737
 20
-39.2703044849263
 30
0.0
 11
125.124620689737
 21
-69.0710029602051
 31
0.0
  0
LINE
  5
   183
  8
0
  6
CONTINUOUS
 62
     7
 10
111.630633550441
 20
-67.0710029602051
 30
0.0
 11
125.124620689737
 21
-67.0710029602051
 31
0.0
  0
LINE
  5
   184
  8
0
  6
CONTINUOUS
 62
     7
 10
114.585056827648
 20
-66.5500585302534
 30
0.0
 11
111.630633550441
 21
-67.0710029602051
 31
0.0
  0
LINE
  5
   185
  8
0
  6
CONTINUOUS
 62
     7
 10
111.630633550441
 20
-67.0710029602051
 30
0.0
 11
114.585056827648
 21
-67.5919473901568
 31
0.0
  0
LINE
  5
   186
  8
0
  6
CONTINUOUS
 62
     7
 10
122.17019741253
 20
-67.5919473901568
 30
0.0
 11
125.124620689737
 21
-67.0710029602051
 31
0.0
  0
LINE
  5
   187
  8
0
  6
CONTINUOUS
 62
     7
 10
125.124620689737
 20
-67.0710029602051
 30
0.0
 11
122.17019741253
 21
-66.5500585302534
 31
0.0
  0
ENDBLK
  5
   188
  8
0
  6
CONTINUOUS
 62
     7
  0
BLOCK
  5
   189
  8
0
  6
CONTINUOUS
 62
     7
  2
*UDIM551
 70
    65
 10
0.0
 20
0.0
 30
0.0
  3
*UDIM551
  0
TEXT
  5
   18A
  8
0
  6
CONTINUOUS
 62
     7
 10
171.653053283695
 20
-30.0345098902203
 30
0.0
 40
3.00000002980232
  1
46
 50
90.0
 41
0.933333333333333
 72
     1
 11
170.15305326879
 21
-27.5345098653869
 31
0.0
 73
     2
  0
LINE
  5
   18B
  8
0
  6
CONTINUOUS
 62
     7
 10
141.443141250056
 20
-43.2744834104613
 30
0.0
 11
174.653053283691
 21
-43.2744834104613
 31
0.0
  0
LINE
  5
   18C
  8
0
  6
CONTINUOUS
 62
     7
 10
141.443132394711
 20
-20.2744834104613
 30
0.0
 11
174.653053283691
 21
-20.2744834104613
 31
0.0
  0
LINE
  5
   18D
  8
0
  6
CONTINUOUS
 62
     7
 10
172.653053283691
 20
-43.2744834104613
 30
0.0
 11
172.653053283691
 21
-20.2744834104613
 31
0.0
  0
LINE
  5
   18E
  8
0
  6
CONTINUOUS
 62
     7
 10
172.13210885374
 20
-40.3200601332544
 30
0.0
 11
172.653053283691
 21
-43.2744834104613
 31
0.0
  0
LINE
  5
   18F
  8
0
  6
CONTINUOUS
 62
     7
 10
172.653053283691
 20
-43.2744834104613
 30
0.0
 11
173.173997713643
 21
-40.3200601332544
 31
0.0
  0
LINE
  5
   190
  8
0
  6
CONTINUOUS
 62
     7
 10
173.173997713643
 20
-23.2289066876683
 30
0.0
 11
172.653053283691
 21
-20.2744834104613
 31
0.0
  0
LINE
  5
   191
  8
0
  6
CONTINUOUS
 62
     7
 10
172.653053283691
 20
-20.2744834104613
 30
0.0
 11
172.13210885374
 21
-23.2289066876683
 31
0.0
  0
ENDBLK
  5
   192
  8
0
  6
CONTINUOUS
 62
     7
  0
BLOCK
  5
   193
  8
0
  6
CONTINUOUS
 62
     7
  2
*UDIM552
 70
    65
 10
0.0
 20
0.0
 30
0.0
  3
*UDIM552
  0
TEXT
  5
   194
  8
0
  6
CONTINUOUS
 62
     7
 10
99.9752178192153
 20
-41.2094878842294
 30
0.0
 40
3.00000002980232
  1
=
 50
90.0
 41
0.933333333333334
 72
     1
 11
98.4752178043127
 21
-40.1094878733038
 31
0.0
 73
     2
  0
LINE
  5
   195
  8
0
  6
CONTINUOUS
 62
     7
 10
108.818138365962
 20
-43.2744726532608
 30
0.0
 11
98.9752178192139
 21
-43.2744726532608
 31
0.0
  0
LINE
  5
   196
  8
0
  6
CONTINUOUS
 62
     7
 10
105.45012153312
 20
-31.7842090374081
 30
0.0
 11
98.9752178192139
 21
-31.7842090374081
 31
0.0
  0
LINE
  5
   197
  8
0
  6
CONTINUOUS
 62
     7
 10
100.975217819214
 20
-43.2744726532608
 30
0.0
 11
100.975217819214
 21
-31.7842090374081
 31
0.0
  0
LINE
  5
   198
  8
0
  6
CONTINUOUS
 62
     7
 10
100.454273389262
 20
-40.3200493760539
 30
0.0
 11
100.975217819214
 21
-43.2744726532608
 31
0.0
  0
LINE
  5
   199
  8
0
  6
CONTINUOUS
 62
     7
 10
100.975217819214
 20
-43.2744726532608
 30
0.0
 11
101.496162249166
 21
-40.3200493760539
 31
0.0
  0
LINE
  5
   19A
  8
0
  6
CONTINUOUS
 62
     7
 10
101.496162249166
 20
-34.738632314615
 30
0.0
 11
100.975217819214
 21
-31.7842090374081
 31
0.0
  0
LINE
  5
   19B
  8
0
  6
CONTINUOUS
 62
     7
 10
100.975217819214
 20
-31.7842090374081
 30
0.0
 11
100.454273389262
 21
-34.738632314615
 31
0.0
  0
ENDBLK
  5
   19C
  8
0
  6
CONTINUOUS
 62
     7
  0
BLOCK
  5
   19D
  8
0
  6
CONTINUOUS
 62
     7
  2
*UDIM553
 70
    65
 10
0.0
 20
0.0
 30
0.0
  3
*UDIM553
  0
TEXT
  5
   19E
  8
0
  6
CONTINUOUS
 62
     7
 10
99.9752178192153
 20
-28.8959464022984
 30
0.0
 40
3.00000002980232
  1
=
 50
90.0
 41
0.933333333333334
 72
     1
 11
98.4752178043127
 21
-27.7959463913728
 31
0.0
 73
     2
  0
LINE
  5
   19F
  8
0
  6
CONTINUOUS
 62
     7
 10
108.818112309583
 20
-20.2744913491735
 30
0.0
 11
98.9752178192139
 21
-20.2744913491735
 31
0.0
  0
LINE
  5
   1A0
  8
0
  6
CONTINUOUS
 62
     7
 10
100.975217819214
 20
-31.7842090374081
 30
0.0
 11
100.975217819214
 21
-20.2744913491735
 31
0.0
  0
LINE
  5
   1A1
  8
0
  6
CONTINUOUS
 62
     7
 10
100.454273389262
 20
-28.8297857602011
 30
0.0
 11
100.975217819214
 21
-31.7842090374081
 31
0.0
  0
LINE
  5
   1A2
  8
0
  6
CONTINUOUS
 62
     7
 10
100.975217819214
 20
-31.7842090374081
 30
0.0
 11
101.496162249166
 21
-28.8297857602011
 31
0.0
  0
LINE
  5
   1A3
  8
0
  6
CONTINUOUS
 62
     7
 10
101.496162249166
 20
-23.2289146263805
 30
0.0
 11
100.975217819214
 21
-20.2744913491735
 31
0.0
  0
LINE
  5
   1A4
  8
0
  6
CONTINUOUS
 62
     7
 10
100.975217819214
 20
-20.2744913491735
 30
0.0
 11
100.454273389262
 21
-23.2289146263805
 31
0.0
  0
ENDBLK
  5
   1A5
  8
0
  6
CONTINUOUS
 62
     7
  0
BLOCK
  5
   1A6
  8
0
  6
CONTINUOUS
 62
     7
  2
*UDIM554
 70
    65
 10
0.0
 20
0.0
 30
0.0
  3
*UDIM554
  0
TEXT
  5
   1A7
  8
0
  6
CONTINUOUS
 62
     7
 10
128.849622327871
 20
-5.21356201171875
 30
0.0
 40
3.00000002980232
  1
26
 41
0.933333333333333
 72
     1
 11
131.349622352707
 21
-3.71356199681759
 31
0.0
 73
     2
  0
LINE
  5
   1A8
  8
0
  6
CONTINUOUS
 62
     7
 10
125.124620689737
 20
-18.9568331843966
 30
0.0
 11
125.124620689737
 21
-4.21356201171875
 31
0.0
  0
LINE
  5
   1A9
  8
0
  6
CONTINUOUS
 62
     7
 10
125.124620689737
 20
-6.21356201171875
 30
0.0
 11
138.124620689737
 21
-6.21356201171875
 31
0.0
  0
LINE
  5
   1AA
  8
0
  6
CONTINUOUS
 62
     7
 10
128.079043966944
 20
-5.69261758176708
 30
0.0
 11
125.124620689737
 21
-6.21356201171875
 31
0.0
  0
LINE
  5
   1AB
  8
0
  6
CONTINUOUS
 62
     7
 10
125.124620689737
 20
-6.21356201171875
 30
0.0
 11
128.079043966944
 21
-6.73450644167042
 31
0.0
  0
LINE
  5
   1AC
  8
0
  6
CONTINUOUS
 62
     7
 10
135.17019741253
 20
-6.73450644167042
 30
0.0
 11
138.124620689737
 21
-6.21356201171875
 31
0.0
  0
LINE
  5
   1AD
  8
0
  6
CONTINUOUS
 62
     7
 10
138.124620689737
 20
-6.21356201171875
 30
0.0
 11
135.17019741253
 21
-5.69261758176708
 31
0.0
  0
ENDBLK
  5
   1AE
  8
0
  6
CONTINUOUS
 62
     7
  0
BLOCK
  5
   1AF
  8
0
  6
CONTINUOUS
 62
     7
  2
*UDIM555
 70
    65
 10
0.0
 20
0.0
 30
0.0
  3
*UDIM555
  0
TEXT
  5
   1B0
  8
0
  6
CONTINUOUS
 62
     7
 10
32.7025958232667
 20
-31.3776314690576
 30
0.0
 40
2.99999994933605
  1
R min.200
 50
360.0
 41
0.933333333333333
 72
     1
 11
45.002595615537
 21
-29.8776314943278
 31
0.0
 73
     2
  0
LINE
  5
   1B1
  8
0
  6
CONTINUOUS
 62
     7
 10
71.599836626529
 20
-29.501472025071
 30
0.0
 11
71.599836626529
 21
-34.3776314689958
 31
0.0
  0
LINE
  5
   1B2
  8
0
  6
CONTINUOUS
 62
     7
 10
23.3866767765508
 20
-26.225248644597
 30
0.0
 11
23.3866767765508
 21
-34.3776314689958
 31
0.0
  0
LINE
  5
   1B3
  8
0
  6
CONTINUOUS
 62
     7
 10
71.599836626529
 20
-32.3776314689958
 30
0.0
 11
23.3866767765508
 21
-32.3776314689958
 31
0.0
  0
LINE
  5
   1B4
  8
0
  6
CONTINUOUS
 62
     7
 10
68.645413349322
 20
-32.8985758989475
 30
0.0
 11
71.599836626529
 21
-32.3776314689958
 31
0.0
  0
LINE
  5
   1B5
  8
0
  6
CONTINUOUS
 62
     7
 10
71.599836626529
 20
-32.3776314689958
 30
0.0
 11
68.645413349322
 21
-31.8566870390441
 31
0.0
  0
LINE
  5
   1B6
  8
0
  6
CONTINUOUS
 62
     7
 10
26.3411000537578
 20
-31.8566870390441
 30
0.0
 11
23.3866767765508
 21
-32.3776314689958
 31
0.0
  0
LINE
  5
   1B7
  8
0
  6
CONTINUOUS
 62
     7
 10
23.3866767765508
 20
-32.3776314689958
 30
0.0
 11
26.3411000537578
 21
-32.8985758989475
 31
0.0
  0
ENDBLK
  5
   1B8
  8
0
  6
CONTINUOUS
 62
     7
  0
BLOCK
  5
   1B9
  8
0
  6
CONTINUOUS
 62
     7
  2
*UDIM556
 70
    65
 10
0.0
 20
0.0
 30
0.0
  3
*UDIM556
  0
TEXT
  5
   1BA
  8
0
  6
CONTINUOUS
 62
     7
 10
213.585962249735
 20
147.584292115226
 30
0.0
 40
2.99999994933605
  1
103,5
 50
360.0
 41
0.933333333333333
 72
     1
 11
220.285962136578
 21
149.084292089928
 31
0.0
 73
     2
  0
LINE
  5
   1BB
  8
0
  6
CONTINUOUS
 62
     7
 10
199.860699994378
 20
142.978444368041
 30
0.0
 11
199.860699994378
 21
148.58429211526
 31
0.0
  0
LINE
  5
   1BC
  8
0
  6
CONTINUOUS
 62
     7
 10
241.261224763811
 20
91.6798921137453
 30
0.0
 11
241.261224763811
 21
148.58429211526
 31
0.0
  0
LINE
  5
   1BD
  8
0
  6
CONTINUOUS
 62
     7
 10
199.860699994378
 20
146.58429211526
 30
0.0
 11
241.261224763811
 21
146.58429211526
 31
0.0
  0
LINE
  5
   1BE
  8
0
  6
CONTINUOUS
 62
     7
 10
202.815123271585
 20
147.105236545212
 30
0.0
 11
199.860699994378
 21
146.58429211526
 31
0.0
  0
LINE
  5
   1BF
  8
0
  6
CONTINUOUS
 62
     7
 10
199.860699994378
 20
146.58429211526
 30
0.0
 11
202.815123271585
 21
146.063347685308
 31
0.0
  0
LINE
  5
   1C0
  8
0
  6
CONTINUOUS
 62
     7
 10
238.306801486604
 20
146.063347685308
 30
0.0
 11
241.261224763811
 21
146.58429211526
 31
0.0
  0
LINE
  5
   1C1
  8
0
  6
CONTINUOUS
 62
     7
 10
241.261224763811
 20
146.58429211526
 30
0.0
 11
238.306801486604
 21
147.105236545212
 31
0.0
  0
ENDBLK
  5
   1C2
  8
0
  6
CONTINUOUS
 62
     7
  0
BLOCK
  5
   1C3
  8
0
  6
CONTINUOUS
 62
     7
  2
*UDIM557
 70
    65
 10
0.0
 20
0.0
 30
0.0
  3
*UDIM557
  0
TEXT
  5
   1C4
  8
0
  6
CONTINUOUS
 62
     7
 10
288.397181378707
 20
29.2703859714414
 30
0.0
 40
2.99999994933605
  1
 
 50
360.0
 41
0.933333333333333
 72
     1
 11
289.497181360123
 21
30.7703859461149
 31
0.0
 73
     2
  0
LINE
  5
   1C5
  8
0
  6
CONTINUOUS
 62
     7
 10
248.061224865139
 20
71.2797300949315
 30
0.0
 11
248.061224865139
 21
26.2703859714469
 31
0.0
  0
LINE
  5
   1C6
  8
0
  6
CONTINUOUS
 62
     7
 10
345.233141119952
 20
72.0797301068525
 30
0.0
 11
345.233141119952
 21
26.2703859714469
 31
0.0
  0
LINE
  5
   1C7
  8
0
  6
CONTINUOUS
 62
     7
 10
248.061224865139
 20
28.2703859714469
 30
0.0
 11
345.233141119952
 21
28.2703859714469
 31
0.0
  0
LINE
  5
   1C8
  8
0
  6
CONTINUOUS
 62
     7
 10
251.015648142346
 20
28.7913304013986
 30
0.0
 11
248.061224865139
 21
28.2703859714469
 31
0.0
  0
LINE
  5
   1C9
  8
0
  6
CONTINUOUS
 62
     7
 10
248.061224865139
 20
28.2703859714469
 30
0.0
 11
251.015648142346
 21
27.7494415414953
 31
0.0
  0
LINE
  5
   1CA
  8
0
  6
CONTINUOUS
 62
     7
 10
342.278717842745
 20
27.7494415414953
 30
0.0
 11
345.233141119952
 21
28.2703859714469
 31
0.0
  0
LINE
  5
   1CB
  8
0
  6
CONTINUOUS
 62
     7
 10
345.233141119952
 20
28.2703859714469
 30
0.0
 11
342.278717842745
 21
28.7913304013986
 31
0.0
  0
ENDBLK
  5
   1CC
  8
0
  6
CONTINUOUS
 62
     7
  0
BLOCK
  5
   1CD
  8
0
  6
CONTINUOUS
 62
     7
  2
*UDIM558
 70
    65
 10
0.0
 20
0.0
 30
0.0
  3
*UDIM558
  0
TEXT
  5
   1CE
  8
0
  6
CONTINUOUS
 62
     7
 10
281.197181271419
 20
147.584292115254
 30
0.0
 40
2.99999994933605
  1
 
 50
360.0
 41
0.933333333333333
 72
     1
 11
282.297181252835
 21
149.084292089928
 31
0.0
 73
     2
  0
LINE
  5
   1CF
  8
0
  6
CONTINUOUS
 62
     7
 10
241.261224763811
 20
91.5773149011641
 30
0.0
 11
241.261224763811
 21
148.58429211526
 31
0.0
  0
LINE
  5
   1D0
  8
0
  6
CONTINUOUS
 62
     7
 10
337.633141006703
 20
118.013049102095
 30
0.0
 11
337.633141006703
 21
148.58429211526
 31
0.0
  0
LINE
  5
   1D1
  8
0
  6
CONTINUOUS
 62
     7
 10
241.261224763811
 20
146.58429211526
 30
0.0
 11
337.633141006703
 21
146.58429211526
 31
0.0
  0
LINE
  5
   1D2
  8
0
  6
CONTINUOUS
 62
     7
 10
244.215648041018
 20
147.105236545212
 30
0.0
 11
241.261224763811
 21
146.58429211526
 31
0.0
  0
LINE
  5
   1D3
  8
0
  6
CONTINUOUS
 62
     7
 10
241.261224763811
 20
146.58429211526
 30
0.0
 11
244.215648041018
 21
146.063347685308
 31
0.0
  0
LINE
  5
   1D4
  8
0
  6
CONTINUOUS
 62
     7
 10
334.678717729496
 20
146.063347685308
 30
0.0
 11
337.633141006703
 21
146.58429211526
 31
0.0
  0
LINE
  5
   1D5
  8
0
  6
CONTINUOUS
 62
     7
 10
337.633141006703
 20
146.58429211526
 30
0.0
 11
334.678717729496
 21
147.105236545212
 31
0.0
  0
ENDBLK
  5
   1D6
  8
0
  6
CONTINUOUS
 62
     7
  0
BLOCK
  5
   1D7
  8
0
  6
CONTINUOUS
 62
     7
  2
*UDIM559
 70
    65
 10
0.0
 20
0.0
 30
0.0
  3
*UDIM559
  0
TEXT
  5
   1D8
  8
0
  6
CONTINUOUS
 62
     7
 10
341.958138211724
 20
147.584292115233
 30
0.0
 40
2.99999994933605
  1
49,5
 50
360.0
 41
0.933333333333333
 72
     1
 11
347.25813812221
 21
149.084292089928
 31
0.0
 73
     2
  0
LINE
  5
   1D9
  8
0
  6
CONTINUOUS
 62
     7
 10
337.633141006703
 20
118.013049102095
 30
0.0
 11
337.633141006703
 21
148.58429211526
 31
0.0
  0
LINE
  5
   1DA
  8
0
  6
CONTINUOUS
 62
     7
 10
357.433141301746
 20
84.2797302588443
 30
0.0
 11
357.433141301746
 21
148.58429211526
 31
0.0
  0
LINE
  5
   1DB
  8
0
  6
CONTINUOUS
 62
     7
 10
337.633141006703
 20
146.58429211526
 30
0.0
 11
357.433141301746
 21
146.58429211526
 31
0.0
  0
LINE
  5
   1DC
  8
0
  6
CONTINUOUS
 62
     7
 10
340.58756428391
 20
147.105236545212
 30
0.0
 11
337.633141006703
 21
146.58429211526
 31
0.0
  0
LINE
  5
   1DD
  8
0
  6
CONTINUOUS
 62
     7
 10
337.633141006703
 20
146.58429211526
 30
0.0
 11
340.58756428391
 21
146.063347685308
 31
0.0
  0
LINE
  5
   1DE
  8
0
  6
CONTINUOUS
 62
     7
 10
354.478718024539
 20
146.063347685308
 30
0.0
 11
357.433141301746
 21
146.58429211526
 31
0.0
  0
LINE
  5
   1DF
  8
0
  6
CONTINUOUS
 62
     7
 10
357.433141301746
 20
146.58429211526
 30
0.0
 11
354.478718024539
 21
147.105236545212
 31
0.0
  0
ENDBLK
  5
   1E0
  8
0
  6
CONTINUOUS
 62
     7
  0
BLOCK
  5
   1E1
  8
0
  6
CONTINUOUS
 62
     7
  2
*UDIM560
 70
    65
 10
0.0
 20
0.0
 30
0.0
  3
*UDIM560
  0
TEXT
  5
   1E2
  8
0
  6
CONTINUOUS
 62
     7
 10
241.440866760336
 20
102.042726490449
 30
0.0
 40
2.99999994933605
  1
17
 50
360.0
 41
0.933333333333333
 72
     1
 11
243.940866718108
 21
103.542726465129
 31
0.0
 73
     2
  0
LINE
  5
   1E3
  8
0
  6
CONTINUOUS
 62
     7
 10
241.261224763811
 20
91.5773149011641
 30
0.0
 11
241.261224763811
 21
103.042726490461
 31
0.0
  0
LINE
  5
   1E4
  8
0
  6
CONTINUOUS
 62
     7
 10
248.061224865139
 20
77.2797301545362
 30
0.0
 11
248.061224865139
 21
103.042726490461
 31
0.0
  0
LINE
  5
   1E5
  8
0
  6
CONTINUOUS
 62
     7
 10
241.261224763811
 20
101.042726490461
 30
0.0
 11
248.061224865139
 21
101.042726490461
 31
0.0
  0
LINE
  5
   1E6
  8
0
  6
CONTINUOUS
 62
     7
 10
238.306801486604
 20
100.52178206051
 30
0.0
 11
241.261224763811
 21
101.042726490461
 31
0.0
  0
LINE
  5
   1E7
  8
0
  6
CONTINUOUS
 62
     7
 10
241.261224763811
 20
101.042726490461
 30
0.0
 11
238.306801486604
 21
101.563670920413
 31
0.0
  0
LINE
  5
   1E8
  8
0
  6
CONTINUOUS
 62
     7
 10
251.015648142346
 20
101.563670920413
 30
0.0
 11
248.061224865139
 21
101.042726490461
 31
0.0
  0
LINE
  5
   1E9
  8
0
  6
CONTINUOUS
 62
     7
 10
248.061224865139
 20
101.042726490461
 30
0.0
 11
251.015648142346
 21
100.52178206051
 31
0.0
  0
ENDBLK
  5
   1EA
  8
0
  6
CONTINUOUS
 62
     7
  0
BLOCK
  5
   1EB
  8
0
  6
CONTINUOUS
 62
     7
  2
*UDIM561
 70
    65
 10
0.0
 20
0.0
 30
0.0
  3
*UDIM561
  0
TEXT
  5
   1EC
  8
0
  6
CONTINUOUS
 62
     7
 10
338.706380309443
 20
102.191127371566
 30
0.0
 40
2.99999994933605
  1
19
 50
360.0
 41
0.933333333333333
 72
     1
 11
341.206380267216
 21
103.691127346247
 31
0.0
 73
     2
  0
LINE
  5
   1ED
  8
0
  6
CONTINUOUS
 62
     7
 10
345.233141119952
 20
76.4797301426152
 30
0.0
 11
345.233141119952
 21
103.191127371579
 31
0.0
  0
LINE
  5
   1EE
  8
0
  6
CONTINUOUS
 62
     7
 10
337.633141006703
 20
101.191127371579
 30
0.0
 11
345.233141119952
 21
101.191127371579
 31
0.0
  0
LINE
  5
   1EF
  8
0
  6
CONTINUOUS
 62
     7
 10
340.58756428391
 20
101.712071801531
 30
0.0
 11
337.633141006703
 21
101.191127371579
 31
0.0
  0
LINE
  5
   1F0
  8
0
  6
CONTINUOUS
 62
     7
 10
337.633141006703
 20
101.191127371579
 30
0.0
 11
340.58756428391
 21
100.670182941627
 31
0.0
  0
LINE
  5
   1F1
  8
0
  6
CONTINUOUS
 62
     7
 10
342.278717842745
 20
100.670182941627
 30
0.0
 11
345.233141119952
 21
101.191127371579
 31
0.0
  0
LINE
  5
   1F2
  8
0
  6
CONTINUOUS
 62
     7
 10
345.233141119952
 20
101.191127371579
 30
0.0
 11
342.278717842745
 21
101.712071801531
 31
0.0
  0
ENDBLK
  5
   1F3
  8
0
  6
CONTINUOUS
 62
     7
  0
BLOCK
  5
   1F4
  8
0
  6
CONTINUOUS
 62
     7
  2
*UDIM562
 70
    65
 10
0.0
 20
0.0
 30
0.0
  3
*UDIM562
  0
TEXT
  5
   1F5
  8
0
  6
CONTINUOUS
 62
     7
 10
340.633138034624
 20
36.9640443378466
 30
0.0
 40
2.99999994933605
  1
2
 50
360.0
 41
0.933333333333333
 72
     1
 11
341.73313801604
 21
38.4640443125202
 31
0.0
 73
     2
  0
LINE
  5
   1F6
  8
0
  6
CONTINUOUS
 62
     7
 10
336.833140994782
 20
43.1452565308468
 30
0.0
 11
336.833140994782
 21
33.9640443378522
 31
0.0
  0
LINE
  5
   1F7
  8
0
  6
CONTINUOUS
 62
     7
 10
337.633141006703
 20
47.6798778145735
 30
0.0
 11
337.633141006703
 21
33.9640443378522
 31
0.0
  0
LINE
  5
   1F8
  8
0
  6
CONTINUOUS
 62
     7
 10
336.833140994782
 20
35.9640443378522
 30
0.0
 11
342.833137997463
 21
35.9640443378522
 31
0.0
  0
LINE
  5
   1F9
  8
0
  6
CONTINUOUS
 62
     7
 10
333.878717717575
 20
35.4430999079005
 30
0.0
 11
336.833140994782
 21
35.9640443378522
 31
0.0
  0
LINE
  5
   1FA
  8
0
  6
CONTINUOUS
 62
     7
 10
336.833140994782
 20
35.9640443378522
 30
0.0
 11
333.878717717575
 21
36.4849887678038
 31
0.0
  0
LINE
  5
   1FB
  8
0
  6
CONTINUOUS
 62
     7
 10
340.58756428391
 20
36.4849887678038
 30
0.0
 11
337.633141006703
 21
35.9640443378522
 31
0.0
  0
LINE
  5
   1FC
  8
0
  6
CONTINUOUS
 62
     7
 10
337.633141006703
 20
35.9640443378522
 30
0.0
 11
340.58756428391
 21
35.4430999079005
 31
0.0
  0
ENDBLK
  5
   1FD
  8
0
  6
CONTINUOUS
 62
     7
  0
BLOCK
  5
   1FE
  8
0
  6
CONTINUOUS
 62
     7
  2
*UDIM563
 70
    65
 10
0.0
 20
0.0
 30
0.0
  3
*UDIM563
  0
TEXT
  5
   1FF
  8
0
  6
CONTINUOUS
 62
     7
 10
359.706380604891
 20
147.584292110477
 30
0.0
 40
2.99999994933605
  1
22
 50
360.0
 41
0.933333333333333
 72
     1
 11
362.206380562664
 21
149.084292085158
 31
0.0
 73
     2
  0
LINE
  5
   200
  8
0
  6
CONTINUOUS
 62
     7
 10
357.433141301746
 20
79.4240557582554
 30
0.0
 11
357.433141301746
 21
148.58429211049
 31
0.0
  0
LINE
  5
   201
  8
0
  6
CONTINUOUS
 62
     7
 10
366.226811003083
 20
63.8155915686405
 30
0.0
 11
366.226811003083
 21
148.58429211049
 31
0.0
  0
LINE
  5
   202
  8
0
  6
CONTINUOUS
 62
     7
 10
357.433141301746
 20
146.58429211049
 30
0.0
 11
366.226811003083
 21
146.58429211049
 31
0.0
  0
LINE
  5
   203
  8
0
  6
CONTINUOUS
 62
     7
 10
354.478718024539
 20
146.063347680538
 30
0.0
 11
357.433141301746
 21
146.58429211049
 31
0.0
  0
LINE
  5
   204
  8
0
  6
CONTINUOUS
 62
     7
 10
357.433141301746
 20
146.58429211049
 30
0.0
 11
354.478718024539
 21
147.105236540442
 31
0.0
  0
LINE
  5
   205
  8
0
  6
CONTINUOUS
 62
     7
 10
369.18123428029
 20
147.105236540442
 30
0.0
 11
366.226811003083
 21
146.58429211049
 31
0.0
  0
LINE
  5
   206
  8
0
  6
CONTINUOUS
 62
     7
 10
366.226811003083
 20
146.58429211049
 30
0.0
 11
369.18123428029
 21
146.063347680538
 31
0.0
  0
ENDBLK
  5
   207
  8
0
  6
CONTINUOUS
 62
     7
  0
ENDSEC
  0
SECTION
  2
ENTITIES
  0
LINE
  5
   208
  8
0
  6
CONTINUOUS
 62
     2
 10
49.3865922560576
 20
71.8823031633297
 30
0.0
 11
49.3865922560576
 21
76.6823032348552
 31
0.0
  0
LINE
  5
   209
  8
0
  6
CONTINUOUS
 62
     2
 10
22.8641950102572
 20
80.6823032944599
 30
0.0
 11
45.386592196453
 21
80.6823032944599
 31
0.0
  0
LINE
  5
   20A
  8
0
  6
CONTINUOUS
 62
     2
 10
22.8641950102572
 20
67.882303103725
 30
0.0
 11
45.386592196453
 21
67.882303103725
 31
0.0
  0
LINE
  5
   20B
  8
0
  6
CONTINUOUS
 62
     2
 10
20.0665905984524
 20
72.5823031737605
 30
0.0
 11
20.0665905984524
 21
75.9823032244244
 31
0.0
  0
LINE
  5
   20C
  8
0
  6
CONTINUOUS
 62
     2
 10
16.7865925886841
 20
74.2823040073132
 30
0.0
 11
20.0665913967103
 21
75.9823039950769
 31
0.0
  0
LINE
  5
   20D
  8
0
  6
CONTINUOUS
 62
     2
 10
16.7865921348107
 20
74.2823037370587
 30
0.0
 11
20.0665909428369
 21
72.582303749295
 31
0.0
  0
LINE
  5
   20E
  8
0
  6
CONTINUOUS
 62
     2
 10
17.6865917836908
 20
77.9823032542267
 30
0.0
 11
36.0865920578722
 21
77.9823032542267
 31
0.0
  0
LINE
  5
   20F
  8
0
  6
CONTINUOUS
 62
     2
 10
17.6865917836908
 20
70.5823031439581
 30
0.0
 11
36.0865920578722
 21
70.5823031439581
 31
0.0
  0
LINE
  5
   210
  8
0
  6
CONTINUOUS
 62
     2
 10
17.6865917836908
 20
77.5823032482663
 30
0.0
 11
36.0865920578722
 21
77.5823032482663
 31
0.0
  0
LINE
  5
   211
  8
0
  6
CONTINUOUS
 62
     2
 10
17.6865917836908
 20
70.9823031499186
 30
0.0
 11
36.0865920578722
 21
70.9823031499186
 31
0.0
  0
LINE
  5
   212
  8
0
  6
CONTINUOUS
 62
   253
 10
27.1566030942492
 20
85.8851791028941
 30
0.0
 11
27.1618826354241
 21
85.8824874524051
 31
0.0
  0
LINE
  5
   213
  8
0
  6
CONTINUOUS
 62
   253
 10
19.6113049235605
 20
85.882486452786
 30
0.0
 11
19.6165875165446
 21
85.885178103216
 31
0.0
  0
LINE
  5
   214
  8
0
  6
CONTINUOUS
 62
   253
 10
10.7866618713035
 20
90.682486548943
 30
0.0
 11
51.9866655369892
 21
90.682486548943
 31
0.0
  0
LINE
  5
   215
  8
0
  6
CONTINUOUS
 62
   253
 10
10.5038195558947
 20
90.5653304611492
 30
0.0
 11
10.7866625777371
 21
90.6824874455214
 31
0.0
  0
LINE
  5
   216
  8
0
  6
CONTINUOUS
 62
   253
 10
10.3866623949053
 20
90.2824879323263
 30
0.0
 11
10.5038193792775
 21
90.5653309541687
 31
0.0
  0
LINE
  5
   217
  8
0
  6
CONTINUOUS
 62
   253
 10
10.3866618653431
 20
49.0824371009289
 30
0.0
 11
10.3866618653431
 21
90.2824865429825
 31
0.0
  0
LINE
  5
   218
  8
0
  6
CONTINUOUS
 62
   253
 10
10.3866620587857
 20
49.0824374799323
 30
0.0
 11
10.5038190431579
 21
48.7995944580899
 31
0.0
  0
LINE
  5
   219
  8
0
  6
CONTINUOUS
 62
   253
 10
10.5038180229429
 20
48.79959362729
 30
0.0
 11
10.7866610520095
 21
48.6824732647591
 31
0.0
  0
LINE
  5
   21A
  8
0
  6
CONTINUOUS
 62
   253
 10
10.7866618713035
 20
48.6824737160628
 30
0.0
 11
51.9866655369892
 21
48.6824737160628
 31
0.0
  0
LINE
  5
   21B
  8
0
  6
CONTINUOUS
 62
   253
 10
51.9866624327907
 20
48.6824725177364
 30
0.0
 11
52.2695054618573
 21
48.7995928802673
 31
0.0
  0
LINE
  5
   21C
  8
0
  6
CONTINUOUS
 62
   253
 10
52.2695094511914
 20
48.799594793019
 30
0.0
 11
52.3866664355636
 21
49.0824378148614
 31
0.0
  0
LINE
  5
   21D
  8
0
  6
CONTINUOUS
 62
   253
 10
52.3866655429497
 20
49.0824371009289
 30
0.0
 11
52.3866655429497
 21
90.2824865429825
 31
0.0
  0
LINE
  5
   21E
  8
0
  6
CONTINUOUS
 62
   253
 10
52.2695091150718
 20
90.5653306192396
 30
0.0
 11
52.386666099444
 21
90.2824875973972
 31
0.0
  0
LINE
  5
   21F
  8
0
  6
CONTINUOUS
 62
   253
 10
51.9866665803687
 20
90.6824871129371
 30
0.0
 11
52.2695096022111
 21
90.5653301285648
 31
0.0
  0
LINE
  5
   220
  8
0
  6
CONTINUOUS
 62
   253
 10
48.1215714852542
 20
79.5824314518986
 30
0.0
 11
52.3452470853013
 21
79.5824314518986
 31
0.0
  0
LINE
  5
   221
  8
0
  6
CONTINUOUS
 62
   253
 10
47.6002885185021
 20
79.9824314578591
 30
0.0
 11
52.3452470853013
 21
79.9824314578591
 31
0.0
  0
LINE
  5
   222
  8
0
  6
CONTINUOUS
 62
   253
 10
17.6922558462752
 20
48.7238891219533
 30
0.0
 11
17.6922558462752
 21
65.4335085115711
 31
0.0
  0
LINE
  5
   223
  8
0
  6
CONTINUOUS
 62
   253
 10
18.0922558522357
 20
48.7238891219533
 30
0.0
 11
18.0922558522357
 21
65.2296968630262
 31
0.0
  0
LINE
  5
   224
  8
0
  6
CONTINUOUS
 62
   253
 10
47.6006242118665
 20
68.5824343397437
 30
0.0
 11
52.3452470853013
 21
68.5824343397437
 31
0.0
  0
LINE
  5
   225
  8
0
  6
CONTINUOUS
 62
   253
 10
48.1219132821343
 20
68.9824343457042
 30
0.0
 11
52.3452470853013
 21
68.9824343457042
 31
0.0
  0
LINE
  5
   226
  8
0
  6
CONTINUOUS
 62
   253
 10
28.692256010188
 20
48.7238891219533
 30
0.0
 11
28.692256010188
 21
65.2354646853778
 31
0.0
  0
LINE
  5
   227
  8
0
  6
CONTINUOUS
 62
   253
 10
29.0922560161484
 20
48.7238891219533
 30
0.0
 11
29.0922560161484
 21
65.4392763339226
 31
0.0
  0
LINE
  5
   228
  8
0
  6
CONTINUOUS
 62
   253
 10
11.2866008435969
 20
85.8824864774174
 30
0.0
 11
51.4866044943815
 21
85.8824864774174
 31
0.0
  0
LINE
  5
   229
  8
0
  6
CONTINUOUS
 62
   253
 10
11.2866008435969
 20
89.882486537022
 30
0.0
 11
51.4866044943815
 21
89.882486537022
 31
0.0
  0
LINE
  5
   22A
  8
0
  6
CONTINUOUS
 62
   253
 10
11.2866008435969
 20
85.8824864774174
 30
0.0
 11
11.2866008435969
 21
89.882486537022
 31
0.0
  0
LINE
  5
   22B
  8
0
  6
CONTINUOUS
 62
   253
 10
51.4866044943815
 20
85.8824864774174
 30
0.0
 11
51.4866044943815
 21
89.882486537022
 31
0.0
  0
LINE
  5
   22C
  8
0
  6
CONTINUOUS
 62
   253
 10
10.8866618727936
 20
49.1824859305448
 30
0.0
 11
10.8866618727936
 21
90.1824865414924
 31
0.0
  0
LINE
  5
   22D
  8
0
  6
CONTINUOUS
 62
   253
 10
51.8866655354991
 20
49.1824859305448
 30
0.0
 11
51.8866655354991
 21
68.5824343397437
 31
0.0
  0
LINE
  5
   22E
  8
0
  6
CONTINUOUS
 62
   253
 10
51.8866655354991
 20
68.9824343457042
 30
0.0
 11
51.8866655354991
 21
79.5824314518986
 31
0.0
  0
LINE
  5
   22F
  8
0
  6
CONTINUOUS
 62
   253
 10
51.8866655354991
 20
79.9824314578591
 30
0.0
 11
51.8866655354991
 21
90.1824865414924
 31
0.0
  0
LINE
  5
   230
  8
0
  6
CONTINUOUS
 62
   253
 10
10.8866618727936
 20
49.1824859305448
 30
0.0
 11
17.6922558462752
 21
49.1824859305448
 31
0.0
  0
LINE
  5
   231
  8
0
  6
CONTINUOUS
 62
   253
 10
10.5331111927201
 20
48.8289352813434
 30
0.0
 11
10.8866649832255
 21
49.1824890718489
 31
0.0
  0
LINE
  5
   232
  8
0
  6
CONTINUOUS
 62
   253
 10
18.0922558522357
 20
49.1824859305448
 30
0.0
 11
28.692256010188
 21
49.1824859305448
 31
0.0
  0
LINE
  5
   233
  8
0
  6
CONTINUOUS
 62
   253
 10
51.8866605396623
 20
49.1824857394549
 30
0.0
 11
52.2402127837213
 21
48.828931975479
 31
0.0
  0
LINE
  5
   234
  8
0
  6
CONTINUOUS
 62
   253
 10
29.0922560161484
 20
49.1824859305448
 30
0.0
 11
51.8866655354991
 21
49.1824859305448
 31
0.0
  0
LINE
  5
   235
  8
0
  6
CONTINUOUS
 62
   253
 10
52.2402117551099
 20
48.8289319769043
 30
0.0
 11
52.2695025259079
 21
48.7995939033321
 31
0.0
  0
LINE
  5
   236
  8
0
  6
CONTINUOUS
 62
   253
 10
10.503816591714
 20
48.7995917966553
 30
0.0
 11
10.533105836744
 21
48.8289298702803
 31
0.0
  0
LINE
  5
   237
  8
0
  6
CONTINUOUS
 62
   253
 10
10.5038188236898
 20
90.5653281222549
 30
0.0
 11
10.5331080699863
 21
90.5360373501392
 31
0.0
  0
LINE
  5
   238
  8
0
  6
CONTINUOUS
 62
   253
 10
52.2402264569401
 20
90.5360474938054
 30
0.0
 11
52.2695172293658
 21
90.5653382662311
 31
0.0
  0
LINE
  5
   239
  8
0
  6
CONTINUOUS
 62
   253
 10
10.8866618727936
 20
90.1824865414924
 30
0.0
 11
51.8866655354991
 21
90.1824865414924
 31
0.0
  0
LINE
  5
   23A
  8
0
  6
CONTINUOUS
 62
   253
 10
51.8866633397319
 20
90.1824843378603
 30
0.0
 11
52.2402155831484
 21
90.5360365812769
 31
0.0
  0
LINE
  5
   23B
  8
0
  6
CONTINUOUS
 62
   253
 10
10.5331079721925
 20
90.5360337352502
 30
0.0
 11
10.8866617361683
 21
90.1824814911913
 31
0.0
  0
LINE
  5
   23C
  8
0
  6
CONTINUOUS
 62
   253
 10
52.3452470853013
 20
79.5824314518986
 30
0.0
 11
52.3452470853013
 21
79.9824314578591
 31
0.0
  0
LINE
  5
   23D
  8
0
  6
CONTINUOUS
 62
   253
 10
17.6922558462752
 20
48.7238891219533
 30
0.0
 11
18.0922558522357
 21
48.7238891219533
 31
0.0
  0
LINE
  5
   23E
  8
0
  6
CONTINUOUS
 62
   253
 10
52.3452470853013
 20
68.5824343397437
 30
0.0
 11
52.3452470853013
 21
68.9824343457042
 31
0.0
  0
LINE
  5
   23F
  8
0
  6
CONTINUOUS
 62
   253
 10
28.692256010188
 20
48.7238891219533
 30
0.0
 11
29.0922560161484
 21
48.7238891219533
 31
0.0
  0
ARC
  5
   240
  8
0
  6
CONTINUOUS
 62
     2
 10
17.6865756358057
 20
74.2823018253154
 30
0.0
 40
3.29998506130761
 50
89.9997574796363
 51
270.000250482601
  0
ARC
  5
   241
  8
0
  6
CONTINUOUS
 62
     2
 10
17.6866053268765
 20
74.2822961623279
 30
0.0
 40
3.70001714367163
 50
90.0001932489997
 51
269.999763120494
  0
ARC
  5
   242
  8
0
  6
CONTINUOUS
 62
     2
 10
45.3865885577448
 20
76.6822958910599
 30
0.0
 40
4.00000729549032
 50
8.21419338467594E-5
 51
90.0000033062939
  0
ARC
  5
   243
  8
0
  6
CONTINUOUS
 62
     2
 10
45.3865846376778
 20
71.8823053471681
 30
0.0
 40
4.00000469542487
 50
270.000046327669
 51
360.000016340537
  0
ARC
  5
   244
  8
0
  6
CONTINUOUS
 62
     2
 10
36.0866306050524
 20
74.282304017003
 30
0.0
 40
3.29996254364651
 50
269.999387761431
 51
450.000619902673
  0
ARC
  5
   245
  8
0
  6
CONTINUOUS
 62
     2
 10
36.0865620091302
 20
74.2822830325019
 30
0.0
 40
3.70003408886861
 50
270.000411304564
 51
449.999511758832
  0
ARC
  5
   246
  8
0
  6
CONTINUOUS
 62
     2
 10
23.3865911553169
 20
74.282264603651
 30
0.0
 40
10.6000380255623
 50
227.166100099287
 51
322.85977520525
  0
ARC
  5
   247
  8
0
  6
CONTINUOUS
 62
     2
 10
17.2677961041547
 20
80.8822361709627
 30
0.0
 40
1.6000690949032
 50
54.3414681662846
 51
132.833850849461
  0
ARC
  5
   248
  8
0
  6
CONTINUOUS
 62
     2
 10
22.8642086618539
 20
88.6823752049256
 30
0.0
 40
8.00007174486508
 50
234.341468166284
 51
270.0
  0
ARC
  5
   249
  8
0
  6
CONTINUOUS
 62
     2
 10
17.2677481334568
 20
67.6823524702342
 30
0.0
 40
1.60005077185319
 50
227.166218826372
 51
305.65853878589
  0
ARC
  5
   24A
  8
0
  6
CONTINUOUS
 62
     2
 10
22.8642862585291
 20
59.8820404218758
 30
0.0
 40
8.00027640266929
 50
90.0
 51
125.65853878589
  0
ARC
  5
   24B
  8
0
  6
CONTINUOUS
 62
     2
 10
23.3866247223943
 20
74.2823282407819
 30
0.0
 40
10.6000399522321
 50
132.833850849461
 51
227.166218826372
  0
ARC
  5
   24C
  8
0
  6
CONTINUOUS
 62
     2
 10
23.3865911553169
 20
74.282264603651
 30
0.0
 40
10.6000380255623
 50
37.1407481988091
 51
132.833418703905
  0
LINE
  5
   24D
  8
0
  6
DASHDOT
 62
     1
 10
33.7866769237835
 20
21.9312652101163
 30
0.0
 11
33.7866769237835
 21
56.4914119399823
 31
0.0
  0
LINE
  5
   24E
  8
0
  6
DASHDOT
 62
     7
 10
33.7866758891191
 20
113.619889288931
 30
0.0
 11
33.7866758891191
 21
129.016375284833
 31
0.0
  0
LINE
  5
   24F
  8
0
  6
DASHDOT
 62
     7
 10
33.7866986957991
 20
106.379967052347
 30
0.0
 11
33.7866986957991
 21
118.779906755359
 31
0.0
  0
LINE
  5
   250
  8
0
  6
CONTINUOUS
 62
     1
 10
41.5366771957689
 20
118.579867091614
 30
0.0
 11
41.8366772002392
 21
118.579867091614
 31
0.0
  0
LINE
  5
   251
  8
0
  6
DASHDOT
 62
     3
 10
-9.70224637505123
 20
69.6798922418393
 30
0.0
 11
38.5764460642731
 21
69.6798922418393
 31
0.0
  0
LINE
  5
   252
  8
0
  6
DASHDOT
 62
     7
 10
23.3865911553169
 20
23.2516239115821
 30
0.0
 11
23.3865911553169
 21
85.6823026411342
 31
0.0
  0
LINE
  5
   253
  8
0
  6
DASHDOT
 62
     7
 10
11.9865531178337
 20
74.282264603651
 30
0.0
 11
62.7678408997221
 21
74.282264603651
 31
0.0
  0
LINE
  5
   254
  8
0
  6
CONTINUOUS
 62
     7
 10
49.3757647889257
 20
76.7498161190786
 30
0.0
 11
49.3757647889257
 21
76.8952706667006
 31
0.0
  0
LINE
  5
   255
  8
0
  6
DASHDOT
 62
     7
 10
43.8559547264117
 20
69.6798922418393
 30
0.0
 11
65.4075952307914
 21
69.6798922418393
 31
0.0
  0
LINE
  5
   256
  8
0
  6
DASHDOT
 62
     7
 10
33.7866769237835
 20
66.0212109691133
 30
0.0
 11
33.7866769237835
 21
104.726489725929
 31
0.0
  0
POINT
  5
   257
  8
0
  6
CONTINUOUS
 62
     7
 10
33.7866769237835
 20
74.282264603651
 30
0.0
  0
LINE
  5
   258
  8
0
  6
CONTINUOUS
 62
     7
 10
14.1866866680577
 20
138.579890216773
 30
0.0
 11
26.0866845353938
 21
138.579890216773
 31
0.0
  0
LINE
  5
   259
  8
0
  6
CONTINUOUS
 62
     7
 10
13.7866866620973
 20
137.459888979381
 30
0.0
 11
13.7866866620973
 21
138.179890210813
 31
0.0
  0
LINE
  5
   25A
  8
0
  6
CONTINUOUS
 62
     7
 10
12.7866866471961
 20
137.459888979381
 30
0.0
 11
13.7866866620972
 21
137.459888979381
 31
0.0
  0
LINE
  5
   25B
  8
0
  6
CONTINUOUS
 62
     7
 10
12.786682149541
 20
37.699889934247
 30
0.0
 11
12.786682149541
 21
48.6824737160628
 31
0.0
  0
LINE
  5
   25C
  8
0
  6
CONTINUOUS
 62
     7
 10
25.7866845309235
 20
135.97989017803
 30
0.0
 11
27.7866845607258
 21
135.97989017803
 31
0.0
  0
CIRCLE
  5
   25D
  8
0
  6
CONTINUOUS
 62
     7
 10
19.7866865070324
 20
133.57988650164
 30
0.0
 40
2.20000058570355
  0
ARC
  5
   25E
  8
0
  6
CONTINUOUS
 62
     7
 10
14.1866876884322
 20
138.179890663745
 30
0.0
 40
0.40000160241227
 50
90.0000472705142
 51
180.000478836282
  0
CIRCLE
  5
   25F
  8
0
  6
CONTINUOUS
 62
     7
 10
19.7866931801288
 20
41.5798901343072
 30
0.0
 40
2.19999878903394
  0
ARC
  5
   260
  8
0
  6
CONTINUOUS
 62
     7
 10
26.7866916893481
 20
42.7798896448639
 30
0.0
 40
1.79999922154889
 50
0.0
 51
136.521683089253
  0
CIRCLE
  5
   261
  8
0
  6
CONTINUOUS
 62
     7
 10
33.7866898347265
 20
41.5798882826417
 30
0.0
 40
2.19999885163413
  0
CIRCLE
  5
   262
  8
0
  6
CONTINUOUS
 62
     7
 10
40.7866930140462
 20
42.7798794946766
 30
0.0
 40
1.79999176240177
  0
CIRCLE
  5
   263
  8
0
  6
CONTINUOUS
 62
     7
 10
47.7867161602945
 20
41.579840398596
 30
0.0
 40
2.20005287110646
  0
LINE
  5
   264
  8
0
  6
DASHDOT
 62
     7
 10
19.7866845972805
 20
135.219892081781
 30
0.0
 11
19.7866845972805
 21
138.739895757471
 31
0.0
  0
LINE
  5
   265
  8
0
  6
DASHDOT
 62
     7
 10
19.7866865070324
 20
130.179885898055
 30
0.0
 11
19.7866865070324
 21
136.979887105225
 31
0.0
  0
LINE
  5
   266
  8
0
  6
DASHDOT
 62
     7
 10
16.3866859034474
 20
133.57988650164
 30
0.0
 11
23.1866871106173
 21
133.57988650164
 31
0.0
  0
LINE
  5
   267
  8
0
  6
DASHDOT
 62
     7
 10
19.7866931801288
 20
38.1798913273919
 30
0.0
 11
19.7866931801288
 21
44.9798889412226
 31
0.0
  0
LINE
  5
   268
  8
0
  6
DASHDOT
 62
     7
 10
16.3866943732134
 20
41.5798901343072
 30
0.0
 11
23.1866919870441
 21
41.5798901343072
 31
0.0
  0
LINE
  5
   269
  8
0
  6
DASHDOT
 62
     7
 10
26.7866916893481
 20
35.6090193620056
 30
0.0
 11
26.7866916893481
 21
45.7798888842942
 31
0.0
  0
LINE
  5
   26A
  8
0
  6
DASHDOT
 62
     7
 10
23.7866924499178
 20
42.7798896448639
 30
0.0
 11
29.7866909287784
 21
42.7798896448639
 31
0.0
  0
LINE
  5
   26B
  8
0
  6
DASHDOT
 62
     7
 10
37.786701233763
 20
42.7798794946766
 30
0.0
 11
43.7866847943293
 21
42.7798794946766
 31
0.0
  0
LINE
  5
   26C
  8
0
  6
DASHDOT
 62
     7
 10
47.7867161602945
 20
38.1797875096081
 30
0.0
 11
47.7867161602945
 21
44.9798932875838
 31
0.0
  0
LINE
  5
   26D
  8
0
  6
DASHDOT
 62
     7
 10
44.3866632713066
 20
41.579840398596
 30
0.0
 11
51.1867690492823
 21
41.579840398596
 31
0.0
  0
LINE
  5
   26E
  8
0
  6
DASHDOT
 62
     7
 10
47.7866950038888
 20
36.4198932369475
 30
0.0
 11
47.7866950038888
 21
39.9398873071892
 31
0.0
  0
LINE
  5
   26F
  8
0
  6
DASHDOT
 62
     7
 10
19.7866918226262
 20
36.4198888163428
 30
0.0
 11
19.7866918226262
 21
39.9398890300962
 31
0.0
  0
LINE
  5
   270
  8
0
  6
DASHDOT
 62
     7
 10
33.7866986957991
 20
67.5564391076968
 30
0.0
 11
33.7866986957991
 21
70.8692597740366
 31
0.0
  0
LINE
  5
   271
  8
0
  6
CONTINUOUS
 62
     7
 10
26.0866845353938
 20
137.379890198892
 30
0.0
 11
26.0866845353938
 21
138.579890216773
 31
0.0
  0
LINE
  5
   272
  8
0
  6
CONTINUOUS
 62
     7
 10
27.4866845562555
 20
137.379890198892
 30
0.0
 11
27.4866845562555
 21
138.579890216773
 31
0.0
  0
LINE
  5
   273
  8
0
  6
CONTINUOUS
 62
     7
 10
25.7866845309235
 20
135.97989017803
 30
0.0
 11
25.7866845309235
 21
137.379890198892
 31
0.0
  0
LINE
  5
   274
  8
0
  6
CONTINUOUS
 62
     7
 10
27.7866845607258
 20
135.97989017803
 30
0.0
 11
27.7866845607258
 21
137.379890198892
 31
0.0
  0
LINE
  5
   275
  8
0
  6
CONTINUOUS
 62
     7
 10
27.4866845562555
 20
137.379890198892
 30
0.0
 11
27.7866845607258
 21
137.379890198892
 31
0.0
  0
LINE
  5
   276
  8
0
  6
CONTINUOUS
 62
     7
 10
25.7866845309235
 20
137.379890198892
 30
0.0
 11
26.0866845353938
 21
137.379890198892
 31
0.0
  0
LINE
  5
   277
  8
0
  6
DASHDOT
 62
     7
 10
40.7866930140462
 20
36.9798876726701
 30
0.0
 11
40.7866930140462
 21
45.6625506091197
 31
0.0
  0
LINE
  5
   278
  8
0
  6
DASHDOT
 62
     7
 10
31.4899952926643
 20
69.6798922418393
 30
0.0
 11
35.9163691241604
 21
69.6798922418393
 31
0.0
  0
LINE
  5
   279
  8
0
  6
CONTINUOUS
 62
     7
 10
54.7867133794265
 20
37.699889934247
 30
0.0
 11
54.7867133794265
 21
129.179888070071
 31
0.0
  0
LINE
  5
   27A
  8
0
  6
CONTINUOUS
 62
     7
 10
54.7867133794265
 20
129.179888070071
 30
0.0
 11
54.7867133794265
 21
137.459888979381
 31
0.0
  0
LINE
  5
   27B
  8
0
  6
CONTINUOUS
 62
     7
 10
12.7866866471961
 20
37.699889934247
 30
0.0
 11
13.7866866620972
 21
37.699889934247
 31
0.0
  0
LINE
  5
   27C
  8
0
  6
CONTINUOUS
 62
     7
 10
13.7866866620973
 20
36.979888702815
 30
0.0
 11
13.7866866620973
 21
37.699889934247
 31
0.0
  0
ARC
  5
   27D
  8
0
  6
CONTINUOUS
 62
     7
 10
14.1866876884322
 20
36.979888249883
 30
0.0
 40
0.40000160241227
 50
179.999521163718
 51
269.999952729486
  0
LINE
  5
   27E
  8
0
  6
CONTINUOUS
 62
     7
 10
14.1866866680577
 20
36.5798886968545
 30
0.0
 11
26.0866845353938
 21
36.5798886968545
 31
0.0
  0
LINE
  5
   27F
  8
0
  6
CONTINUOUS
 62
     7
 10
26.0866845353938
 20
36.5798886968545
 30
0.0
 11
26.0866845353938
 21
37.7798887147359
 31
0.0
  0
LINE
  5
   280
  8
0
  6
CONTINUOUS
 62
     7
 10
25.7866845309235
 20
37.7798887147359
 30
0.0
 11
26.0866845353938
 21
37.7798887147359
 31
0.0
  0
LINE
  5
   281
  8
0
  6
CONTINUOUS
 62
     7
 10
25.7866845309235
 20
37.7798887147359
 30
0.0
 11
25.7866845309235
 21
39.1798887355976
 31
0.0
  0
LINE
  5
   282
  8
0
  6
CONTINUOUS
 62
     7
 10
25.7866845309235
 20
39.1798887355976
 30
0.0
 11
27.7866845607258
 21
39.1798887355976
 31
0.0
  0
LINE
  5
   283
  8
0
  6
CONTINUOUS
 62
     7
 10
27.7866845607258
 20
37.7798887147359
 30
0.0
 11
27.7866845607258
 21
39.1798887355976
 31
0.0
  0
LINE
  5
   284
  8
0
  6
CONTINUOUS
 62
     7
 10
27.4866845562555
 20
37.7798887147359
 30
0.0
 11
27.7866845607258
 21
37.7798887147359
 31
0.0
  0
LINE
  5
   285
  8
0
  6
CONTINUOUS
 62
     7
 10
27.4866845562555
 20
36.5798886968545
 30
0.0
 11
27.4866845562555
 21
37.7798887147359
 31
0.0
  0
LINE
  5
   286
  8
0
  6
CONTINUOUS
 62
     7
 10
27.4866845562555
 20
36.5798886968545
 30
0.0
 11
40.0866951131975
 21
36.5798886968545
 31
0.0
  0
ARC
  5
   287
  8
0
  6
CONTINUOUS
 62
     7
 10
26.7866916893481
 20
42.7798896448639
 30
0.0
 40
1.79999922154889
 50
136.521683089253
 51
260.198490259491
  0
ARC
  5
   288
  8
0
  6
CONTINUOUS
 62
     7
 10
26.7866916893481
 20
42.7798896448639
 30
0.0
 40
1.79999922154889
 50
260.198490259491
 51
360.0
  0
LINE
  5
   289
  8
0
  6
DASHDOT
 62
     7
 10
33.7866898347265
 20
38.1798894131261
 30
0.0
 11
33.7866898347265
 21
44.9798871521572
 31
0.0
  0
LINE
  5
   28A
  8
0
  6
DASHDOT
 62
     7
 10
30.386690965211
 20
41.5798882826417
 30
0.0
 11
37.186688704242
 21
41.5798882826417
 31
0.0
  0
LINE
  5
   28B
  8
0
  6
CONTINUOUS
 62
     7
 10
41.4866951340591
 20
36.5798886968545
 30
0.0
 11
41.4866951340591
 21
37.7798887147359
 31
0.0
  0
LINE
  5
   28C
  8
0
  6
CONTINUOUS
 62
     7
 10
41.4866951340591
 20
37.7798887147359
 30
0.0
 11
41.7866951385295
 21
37.7798887147359
 31
0.0
  0
LINE
  5
   28D
  8
0
  6
CONTINUOUS
 62
     7
 10
41.7866951385295
 20
37.7798887147359
 30
0.0
 11
41.7866951385295
 21
39.1798887355976
 31
0.0
  0
LINE
  5
   28E
  8
0
  6
CONTINUOUS
 62
     7
 10
39.7866951087272
 20
39.1798887355976
 30
0.0
 11
41.7866951385295
 21
39.1798887355976
 31
0.0
  0
LINE
  5
   28F
  8
0
  6
CONTINUOUS
 62
     7
 10
39.7866951087272
 20
37.7798887147359
 30
0.0
 11
39.7866951087272
 21
39.1798887355976
 31
0.0
  0
LINE
  5
   290
  8
0
  6
CONTINUOUS
 62
     7
 10
39.7866951087272
 20
37.7798887147359
 30
0.0
 11
40.0866951131975
 21
37.7798887147359
 31
0.0
  0
LINE
  5
   291
  8
0
  6
CONTINUOUS
 62
     7
 10
40.0866951131975
 20
36.5798886968545
 30
0.0
 11
40.0866951131975
 21
37.7798887147359
 31
0.0
  0
LINE
  5
   292
  8
0
  6
CONTINUOUS
 62
     7
 10
41.4866951340591
 20
36.5798886968545
 30
0.0
 11
53.3866930013953
 21
36.5798886968545
 31
0.0
  0
ARC
  5
   293
  8
0
  6
CONTINUOUS
 62
     7
 10
53.3866919810207
 20
36.979888249883
 30
0.0
 40
0.40000160241227
 50
270.000047270514
 51
360.000478836282
  0
LINE
  5
   294
  8
0
  6
CONTINUOUS
 62
     7
 10
53.7866930073557
 20
36.979888702815
 30
0.0
 11
53.7866930073557
 21
37.699889934247
 31
0.0
  0
LINE
  5
   295
  8
0
  6
CONTINUOUS
 62
     7
 10
53.7866930073557
 20
37.699889934247
 30
0.0
 11
54.7866930222569
 21
37.699889934247
 31
0.0
  0
LINE
  5
   296
  8
0
  6
CONTINUOUS
 62
     7
 10
39.7866847395397
 20
137.379890198892
 30
0.0
 11
40.0866847440101
 21
137.379890198892
 31
0.0
  0
LINE
  5
   297
  8
0
  6
CONTINUOUS
 62
     7
 10
41.4866847648717
 20
137.379890198892
 30
0.0
 11
41.7866847693421
 21
137.379890198892
 31
0.0
  0
LINE
  5
   298
  8
0
  6
CONTINUOUS
 62
     7
 10
41.7866847693421
 20
135.97989017803
 30
0.0
 11
41.7866847693421
 21
137.379890198892
 31
0.0
  0
LINE
  5
   299
  8
0
  6
CONTINUOUS
 62
     7
 10
39.7866847395397
 20
135.97989017803
 30
0.0
 11
39.7866847395397
 21
137.379890198892
 31
0.0
  0
LINE
  5
   29A
  8
0
  6
CONTINUOUS
 62
     7
 10
41.4866847648717
 20
137.379890198892
 30
0.0
 11
41.4866847648717
 21
138.579890216773
 31
0.0
  0
LINE
  5
   29B
  8
0
  6
CONTINUOUS
 62
     7
 10
40.0866847440101
 20
137.379890198892
 30
0.0
 11
40.0866847440101
 21
138.579890216773
 31
0.0
  0
LINE
  5
   29C
  8
0
  6
DASHDOT
 62
     7
 10
30.3866861120637
 20
133.57988650164
 30
0.0
 11
37.1866873192336
 21
133.57988650164
 31
0.0
  0
LINE
  5
   29D
  8
0
  6
DASHDOT
 62
     7
 10
33.7866867156486
 20
130.179885898055
 30
0.0
 11
33.7866867156486
 21
136.979887105225
 31
0.0
  0
LINE
  5
   29E
  8
0
  6
DASHDOT
 62
     7
 10
33.7866848058968
 20
135.219892081781
 30
0.0
 11
33.7866848058968
 21
145.324576944987
 31
0.0
  0
CIRCLE
  5
   29F
  8
0
  6
CONTINUOUS
 62
     7
 10
33.7866867156486
 20
133.57988650164
 30
0.0
 40
2.20000058570355
  0
LINE
  5
   2A0
  8
0
  6
CONTINUOUS
 62
     7
 10
39.7866847395397
 20
135.97989017803
 30
0.0
 11
41.7866847693421
 21
135.97989017803
 31
0.0
  0
LINE
  5
   2A1
  8
0
  6
CONTINUOUS
 62
     7
 10
27.4866845562555
 20
138.579890216773
 30
0.0
 11
40.0866847440101
 21
138.579890216773
 31
0.0
  0
ARC
  5
   2A2
  8
0
  6
CONTINUOUS
 62
     7
 10
53.3866819233613
 20
138.179890663745
 30
0.0
 40
0.40000160241227
 50
359.999521163718
 51
449.999952729486
  0
LINE
  5
   2A3
  8
0
  6
CONTINUOUS
 62
     7
 10
53.7866829496963
 20
137.459888979381
 30
0.0
 11
53.7866829496963
 21
138.179890210813
 31
0.0
  0
LINE
  5
   2A4
  8
0
  6
CONTINUOUS
 62
     7
 10
53.7866829496963
 20
137.459888979381
 30
0.0
 11
54.7866829645975
 21
137.459888979381
 31
0.0
  0
LINE
  5
   2A5
  8
0
  6
CONTINUOUS
 62
     7
 10
41.4866850763997
 20
138.579890216773
 30
0.0
 11
53.3866829437358
 21
138.579890216773
 31
0.0
  0
LINE
  5
   2A6
  8
0
  6
DASHDOT
 62
     7
 10
47.7866831047612
 20
130.179885898055
 30
0.0
 11
47.7866831047612
 21
136.979887105225
 31
0.0
  0
LINE
  5
   2A7
  8
0
  6
DASHDOT
 62
     7
 10
44.3866825011763
 20
133.57988650164
 30
0.0
 11
51.1866837083461
 21
133.57988650164
 31
0.0
  0
CIRCLE
  5
   2A8
  8
0
  6
CONTINUOUS
 62
     7
 10
47.7866831047612
 20
133.57988650164
 30
0.0
 40
2.20000058570355
  0
CIRCLE
  5
   2A9
  8
0
  6
CONTINUOUS
 62
     7
 10
40.7866930140462
 20
132.37989714127
 30
0.0
 40
1.79999176240177
  0
LINE
  5
   2AA
  8
0
  6
DASHDOT
 62
     7
 10
37.786701233763
 20
132.37989714127
 30
0.0
 11
43.7866847943293
 21
132.37989714127
 31
0.0
  0
LINE
  5
   2AB
  8
0
  6
DASHDOT
 62
     7
 10
40.7866930140462
 20
129.497226026827
 30
0.0
 11
40.7866930140462
 21
138.179888963277
 31
0.0
  0
CIRCLE
  5
   2AC
  8
0
  6
CONTINUOUS
 62
     7
 10
26.7866916893481
 20
132.379886991083
 30
0.0
 40
1.79999922154889
  0
LINE
  5
   2AD
  8
0
  6
DASHDOT
 62
     7
 10
26.7866916893481
 20
129.379887751653
 30
0.0
 11
26.7866916893481
 21
139.550757273941
 31
0.0
  0
LINE
  5
   2AE
  8
0
  6
DASHDOT
 62
     7
 10
23.7866924499178
 20
132.379886991083
 30
0.0
 11
29.7866909287784
 21
132.379886991083
 31
0.0
  0
LINE
  5
   2AF
  8
0
  6
CONTINUOUS
 62
     7
 10
12.786682149541
 20
90.682486548943
 30
0.0
 11
12.786682149541
 21
137.459888979381
 31
0.0
  0
LINE
  5
   2B0
  8
0
  6
CONTINUOUS
 62
     7
 10
0.186686459441454
 20
138.579890216773
 30
0.0
 11
12.0866843267776
 21
138.579890216773
 31
0.0
  0
ARC
  5
   2B1
  8
0
  6
CONTINUOUS
 62
     7
 10
0.186687479815991
 20
138.179890663745
 30
0.0
 40
0.40000160241227
 50
90.0000472705142
 51
180.000478836282
  0
LINE
  5
   2B2
  8
0
  6
CONTINUOUS
 62
     7
 10
-0.213313546519004
 20
137.459888979381
 30
0.0
 11
-0.213313546519004
 21
138.179890210813
 31
0.0
  0
LINE
  5
   2B3
  8
0
  6
CONTINUOUS
 62
     7
 10
-1.21331356142017
 20
137.459888979381
 30
0.0
 11
-0.213313546519011
 21
137.459888979381
 31
0.0
  0
LINE
  5
   2B4
  8
0
  6
CONTINUOUS
 62
     7
 10
-1.21331805907528
 20
37.699889934247
 30
0.0
 11
-1.21331805907528
 21
137.459888979381
 31
0.0
  0
LINE
  5
   2B5
  8
0
  6
CONTINUOUS
 62
     7
 10
-1.21331356142017
 20
37.699889934247
 30
0.0
 11
-0.213313546519011
 21
37.699889934247
 31
0.0
  0
LINE
  5
   2B6
  8
0
  6
CONTINUOUS
 62
     7
 10
-0.213313546519004
 20
36.979888702815
 30
0.0
 11
-0.213313546519004
 21
37.699889934247
 31
0.0
  0
ARC
  5
   2B7
  8
0
  6
CONTINUOUS
 62
     7
 10
0.186687479815985
 20
36.979888249883
 30
0.0
 40
0.40000160241227
 50
179.999521163718
 51
269.999952729486
  0
LINE
  5
   2B8
  8
0
  6
CONTINUOUS
 62
     7
 10
0.186686459441454
 20
36.5798886968545
 30
0.0
 11
12.0866843267776
 21
36.5798886968545
 31
0.0
  0
TEXT
  5
   2B9
  8
0
  6
CONTINUOUS
 62
     7
 10
32.8381789235295
 20
151.778013677752
 30
0.0
 40
2.99999994933605
  1
Y
 41
0.91666673368878
 11
32.8381789235295
 21
154.778013627088
 31
0.0
 73
     3
  0
INSERT
  5
   2BA
  8
0
  6
CONTINUOUS
 62
     7
  2
*UDIM529
 10
0.0
 20
0.0
 30
0.0
  0
INSERT
  5
   2BB
  8
0
  6
CONTINUOUS
 62
     7
  2
*UDIM530
 10
0.0
 20
0.0
 30
0.0
  0
INSERT
  5
   2BC
  8
0
  6
CONTINUOUS
 62
     7
  2
*UDIM531
 10
0.0
 20
0.0
 30
0.0
  0
INSERT
  5
   2BD
  8
0
  6
CONTINUOUS
 62
     7
  2
*UDIM532
 10
0.0
 20
0.0
 30
0.0
  0
INSERT
  5
   2BE
  8
0
  6
CONTINUOUS
 62
     7
  2
*UDIM533
 10
0.0
 20
0.0
 30
0.0
  0
INSERT
  5
   2BF
  8
0
  6
CONTINUOUS
 62
     7
  2
*UDIM534
 10
0.0
 20
0.0
 30
0.0
  0
INSERT
  5
   2C0
  8
0
  6
CONTINUOUS
 62
     7
  2
*UDIM535
 10
0.0
 20
0.0
 30
0.0
  0
TEXT
  5
   2C1
  8
0
  6
CONTINUOUS
 62
     7
 10
73.9673544763176
 20
68.3936772745739
 30
0.0
 40
2.99999994933605
  1
X
 41
0.916666607525612
 72
     1
 11
75.0673543854206
 21
69.8936772492419
 31
0.0
 73
     2
  0
TEXT
  5
   2C2
  8
0
  6
CONTINUOUS
 62
     7
 10
-15.8581290399207
 20
67.9190709442595
 30
0.0
 40
2.99999994933605
  1
X
 41
0.916666607525612
 72
     1
 11
-14.7581291308178
 21
69.4190709189275
 31
0.0
 73
     2
  0
LINE
  5
   2C3
  8
0
  6
CONTINUOUS
 62
     7
 10
121.366645637154
 20
110.179874092309
 30
0.0
 11
121.566645640135
 21
110.179874092309
 31
0.0
  0
LINE
  5
   2C4
  8
0
  6
CONTINUOUS
 62
     7
 10
121.366645637154
 20
109.979874089329
 30
0.0
 11
121.366645637154
 21
110.179874092309
 31
0.0
  0
LINE
  5
   2C5
  8
0
  6
CONTINUOUS
 62
     7
 10
120.446644402742
 20
109.979874089329
 30
0.0
 11
120.566645625234
 21
109.979874089329
 31
0.0
  0
LINE
  5
   2C6
  8
0
  6
CONTINUOUS
 62
     7
 10
123.366651770473
 20
90.6798921122834
 30
0.0
 11
124.766651791334
 21
90.6798921122834
 31
0.0
  0
LINE
  5
   2C7
  8
0
  6
CONTINUOUS
 62
     7
 10
123.366651770473
 20
48.679903693466
 30
0.0
 11
124.766651791334
 21
48.679903693466
 31
0.0
  0
LINE
  5
   2C8
  8
0
  6
CONTINUOUS
 62
     7
 10
123.366651770473
 20
48.679903693466
 30
0.0
 11
123.366651770473
 21
90.6798921122834
 31
0.0
  0
LINE
  5
   2C9
  8
0
  6
CONTINUOUS
 62
     7
 10
122.566651758552
 20
90.6798921122834
 30
0.0
 11
123.366651770473
 21
90.6798921122834
 31
0.0
  0
LINE
  5
   2CA
  8
0
  6
CONTINUOUS
 62
     7
 10
140.366639732064
 20
56.6798353537926
 30
0.0
 11
140.366639732064
 21
61.4798399381895
 31
0.0
  0
LINE
  5
   2CB
  8
0
  6
DASHDOT
 62
     3
 10
153.50027146522
 20
69.679891799359
 30
0.0
 11
157.410722404595
 21
69.679891799359
 31
0.0
  0
LINE
  5
   2CC
  8
0
  6
DASHDOT
 62
     3
 10
78.7918213160125
 20
69.679891799359
 30
0.0
 11
182.465284667504
 21
69.679891799359
 31
0.0
  0
LINE
  5
   2CD
  8
0
  6
CONTINUOUS
 62
     2
 10
156.163631185844
 20
82.3545243124586
 30
0.0
 11
156.163631185844
 21
84.8797074555555
 31
0.0
  0
LINE
  5
   2CE
  8
0
  6
CONTINUOUS
 62
     2
 10
156.163631185844
 20
67.8797300293664
 30
0.0
 11
156.163631185844
 21
70.2797300651292
 31
0.0
  0
LINE
  5
   2CF
  8
0
  6
CONTINUOUS
 62
     2
 10
169.56363138552
 20
67.6828641817063
 30
0.0
 11
169.56363138552
 21
80.8765930160035
 31
0.0
  0
LINE
  5
   2D0
  8
0
  6
CONTINUOUS
 62
     2
 10
162.363631278231
 20
65.2797299906234
 30
0.0
 11
162.363631278231
 21
67.8797300293664
 31
0.0
  0
LINE
  5
   2D1
  8
0
  6
CONTINUOUS
 62
     2
 10
162.363631278231
 20
80.6797302201013
 30
0.0
 11
162.363631278231
 21
83.2797302588443
 31
0.0
  0
LINE
  5
   2D2
  8
0
  6
CONTINUOUS
 62
     2
 10
156.163631185844
 20
63.6797299667815
 30
0.0
 11
156.163631185844
 21
67.8797300293664
 31
0.0
  0
LINE
  5
   2D3
  8
0
  6
CONTINUOUS
 62
     2
 10
156.163631185844
 20
80.6797302201013
 30
0.0
 11
156.163631185844
 21
84.8797302826861
 31
0.0
  0
LINE
  5
   2D4
  8
0
  6
CONTINUOUS
 62
     2
 10
162.363631278231
 20
67.8797300293664
 30
0.0
 11
162.363631278231
 21
80.6797302201013
 31
0.0
  0
LINE
  5
   2D5
  8
0
  6
CONTINUOUS
 62
   212
 10
123.366639317793
 20
90.6799134750131
 30
0.0
 11
140.166381862071
 21
90.6798524398562
 31
0.0
  0
LINE
  5
   2D6
  8
0
  6
CONTINUOUS
 62
   212
 10
123.366639478745
 20
48.679903693466
 30
0.0
 11
140.166143818433
 21
48.679903693466
 31
0.0
  0
LINE
  5
   2D7
  8
0
  6
CONTINUOUS
 62
   212
 10
123.366639311851
 20
89.6799134596832
 30
0.0
 11
123.366639311851
 21
90.6799134745844
 31
0.0
  0
LINE
  5
   2D8
  8
0
  6
CONTINUOUS
 62
   212
 10
123.366639311851
 20
79.6481567184015
 30
0.0
 11
123.366639311851
 21
86.1798279583091
 31
0.0
  0
LINE
  5
   2D9
  8
0
  6
CONTINUOUS
 62
   212
 10
123.366639311851
 20
57.1481411243361
 30
0.0
 11
123.366639311851
 21
78.8481567064806
 31
0.0
  0
LINE
  5
   2DA
  8
0
  6
CONTINUOUS
 62
   212
 10
123.366639311851
 20
52.1799312114368
 30
0.0
 11
123.366639311851
 21
56.3481411124152
 31
0.0
  0
LINE
  5
   2DB
  8
0
  6
CONTINUOUS
 62
   212
 10
123.366639311851
 20
48.679903693462
 30
0.0
 11
123.366639311851
 21
50.1799327075134
 31
0.0
  0
LINE
  5
   2DC
  8
0
  6
CONTINUOUS
 62
   212
 10
140.366638206185
 20
48.8815712743542
 30
0.0
 11
140.366638206185
 21
90.4793754396276
 31
0.0
  0
LINE
  5
   2DD
  8
0
  6
CONTINUOUS
 62
   212
 10
123.366639311851
 20
49.6799006566053
 30
0.0
 11
123.36843603429
 21
49.6799006566053
 31
0.0
  0
LINE
  5
   2DE
  8
0
  6
CONTINUOUS
 62
   212
 10
140.766632771256
 20
83.0798833081078
 30
0.0
 11
140.767934346021
 21
80.5241765584384
 31
0.0
  0
LINE
  5
   2DF
  8
0
  6
CONTINUOUS
 62
   212
 10
140.766634313313
 20
83.0798933783562
 30
0.0
 11
140.767690221488
 21
79.2797651478971
 31
0.0
  0
LINE
  5
   2E0
  8
0
  6
CONTINUOUS
 62
   212
 10
140.766633929356
 20
83.079890871413
 30
0.0
 11
140.76732973017
 21
79.2797626409496
 31
0.0
  0
LINE
  5
   2E1
  8
0
  6
CONTINUOUS
 62
   212
 10
140.766633776144
 20
83.0798898101525
 30
0.0
 11
140.767115953877
 21
79.2797615797012
 31
0.0
  0
LINE
  5
   2E2
  8
0
  6
CONTINUOUS
 62
   212
 10
140.766633700686
 20
83.079889378991
 30
0.0
 11
140.766963290524
 21
79.2797611485704
 31
0.0
  0
LINE
  5
   2E3
  8
0
  6
CONTINUOUS
 62
   212
 10
140.766633689013
 20
83.079889279237
 30
0.0
 11
140.766932761272
 21
79.2797610487685
 31
0.0
  0
LINE
  5
   2E4
  8
0
  6
CONTINUOUS
 62
   212
 10
140.766633660746
 20
83.0798891072738
 30
0.0
 11
140.766841180281
 21
79.2797608768979
 31
0.0
  0
LINE
  5
   2E5
  8
0
  6
CONTINUOUS
 62
   212
 10
140.766633642601
 20
79.7326111149211
 30
0.0
 11
140.766647375511
 21
79.2797607663257
 31
0.0
  0
LINE
  5
   2E6
  8
0
  6
CONTINUOUS
 62
   212
 10
123.368398960201
 20
53.1250117920367
 30
0.0
 11
123.368401272861
 21
52.179931211512
 31
0.0
  0
LINE
  5
   2E7
  8
0
  6
CONTINUOUS
 62
   212
 10
123.368406184284
 20
50.1799311819324
 30
0.0
 11
123.368407424061
 21
49.6799021827566
 31
0.0
  0
LINE
  5
   2E8
  8
0
  6
CONTINUOUS
 62
   212
 10
123.368399035365
 20
86.1798300258902
 30
0.0
 11
123.368409168155
 21
86.2346395970193
 31
0.0
  0
LINE
  5
   2E9
  8
0
  6
CONTINUOUS
 62
   212
 10
123.368371589988
 20
86.6768557004707
 30
0.0
 11
123.368390425056
 21
86.2942201967206
 31
0.0
  0
LINE
  5
   2EA
  8
0
  6
CONTINUOUS
 62
   212
 10
123.368352802403
 20
87.5365784915835
 30
0.0
 11
123.368368681081
 21
86.7479371224048
 31
0.0
  0
LINE
  5
   2EB
  8
0
  6
CONTINUOUS
 62
   212
 10
123.368345864386
 20
88.4780701826006
 30
0.0
 11
123.368350203604
 21
87.7874085512184
 31
0.0
  0
LINE
  5
   2EC
  8
0
  6
CONTINUOUS
 62
   212
 10
123.368345602127
 20
88.7548707245007
 30
0.0
 11
123.368350656601
 21
89.4612611158898
 31
0.0
  0
LINE
  5
   2ED
  8
0
  6
CONTINUOUS
 62
   212
 10
123.368348940043
 20
89.6799134990606
 30
0.0
 11
123.368351729541
 21
89.567529464179
 31
0.0
  0
LINE
  5
   2EE
  8
0
  6
CONTINUOUS
 62
   212
 10
123.368390426796
 20
86.2942212936476
 30
0.0
 11
123.368398962181
 21
86.2346387732283
 31
0.0
  0
LINE
  5
   2EF
  8
0
  6
CONTINUOUS
 62
   212
 10
123.368368681207
 20
86.7479371998929
 30
0.0
 11
123.368371589914
 21
86.6768556558678
 31
0.0
  0
LINE
  5
   2F0
  8
0
  6
CONTINUOUS
 62
   212
 10
123.368350203611
 20
87.7874085553283
 30
0.0
 11
123.368352802374
 21
87.5365784734726
 31
0.0
  0
LINE
  5
   2F1
  8
0
  6
CONTINUOUS
 62
   212
 10
123.368405358918
 20
88.4780701801122
 30
0.0
 11
123.368405358918
 21
88.7548707213462
 31
0.0
  0
LINE
  5
   2F2
  8
0
  6
CONTINUOUS
 62
   212
 10
123.368350656606
 20
89.4612611191377
 30
0.0
 11
123.36835172949
 21
89.5675294312744
 31
0.0
  0
LINE
  5
   2F3
  8
0
  6
CONTINUOUS
 62
   212
 10
140.166143797266
 20
48.6804041626295
 30
0.0
 11
140.30757140907
 21
48.7389796027294
 31
0.0
  0
LINE
  5
   2F4
  8
0
  6
CONTINUOUS
 62
   212
 10
140.307572367812
 20
48.7389812637224
 30
0.0
 11
140.366638206185
 21
48.8815712743542
 31
0.0
  0
LINE
  5
   2F5
  8
0
  6
CONTINUOUS
 62
   212
 10
140.307809540433
 20
90.6210975807233
 30
0.0
 11
140.366514680626
 21
90.4796730208585
 31
0.0
  0
LINE
  5
   2F6
  8
0
  6
CONTINUOUS
 62
   212
 10
140.16638189122
 20
90.6798527058641
 30
0.0
 11
140.307809503798
 21
90.6211002616513
 31
0.0
  0
LINE
  5
   2F7
  8
0
  6
CONTINUOUS
 62
     2
 10
162.363631278231
 20
82.4765930398454
 30
0.0
 11
167.963631361678
 21
82.4765930398454
 31
0.0
  0
LINE
  5
   2F8
  8
0
  6
CONTINUOUS
 62
     2
 10
162.363631278231
 20
66.0828641578645
 30
0.0
 11
167.963631361678
 21
66.0828641578645
 31
0.0
  0
LINE
  5
   2F9
  8
0
  6
CONTINUOUS
 62
     2
 10
156.163631185844
 20
63.6797299667815
 30
0.0
 11
160.763637318109
 21
63.6797299667815
 31
0.0
  0
LINE
  5
   2FA
  8
0
  6
CONTINUOUS
 62
     2
 10
156.163631185844
 20
84.8797302826862
 30
0.0
 11
160.76363125439
 21
84.8797302826862
 31
0.0
  0
LINE
  5
   2FB
  8
0
  6
CONTINUOUS
 62
   212
 10
140.366635157401
 20
84.8771912270391
 30
0.0
 11
140.767560089423
 21
84.8771851094335
 31
0.0
  0
LINE
  5
   2FC
  8
0
  6
CONTINUOUS
 62
   212
 10
140.366636688301
 20
63.9634274907878
 30
0.0
 11
140.767957265708
 21
63.9634366701943
 31
0.0
  0
ARC
  5
   2FD
  8
0
  6
CONTINUOUS
 62
     2
 10
160.763635606786
 20
83.2797365227043
 30
0.0
 40
1.59999363822779
 50
359.999720152757
 51
450.000090729959
  0
ARC
  5
   2FE
  8
0
  6
CONTINUOUS
 62
     2
 10
160.763637318109
 20
65.2797236082458
 30
0.0
 40
1.59999184878252
 50
269.999805810039
 51
360.000186401615
  0
ARC
  5
   2FF
  8
0
  6
CONTINUOUS
 62
     2
 10
167.963631361678
 20
80.8765930160035
 30
0.0
 40
1.60000002384186
 50
360.0
 51
450.0
  0
ARC
  5
   300
  8
0
  6
CONTINUOUS
 62
     2
 10
167.963631361678
 20
67.6828641817063
 30
0.0
 40
1.60000002384186
 50
270.0
 51
360.0
  0
LINE
  5
   301
  8
0
  6
DASHDOT
 62
     7
 10
124.171324785995
 20
74.2797301247338
 30
0.0
 11
158.089960946925
 21
74.2797301247338
 31
0.0
  0
LINE
  5
   302
  8
0
  6
CONTINUOUS
 62
     7
 10
120.446651756705
 20
106.677313615308
 30
0.0
 11
120.566651644052
 21
106.677313615308
 31
0.0
  0
LINE
  5
   303
  8
0
  6
CONTINUOUS
 62
     7
 10
123.366651770473
 20
48.6799082710988
 30
0.0
 11
123.366651770473
 21
90.5773149011641
 31
0.0
  0
LINE
  5
   304
  8
0
  6
CONTINUOUS
 62
     7
 10
123.266651544436
 20
90.6773139946544
 30
0.0
 11
123.337362215972
 21
90.6480232225828
 31
0.0
  0
LINE
  5
   305
  8
0
  6
CONTINUOUS
 62
     7
 10
123.337362776832
 20
90.6480206344126
 30
0.0
 11
123.366652107312
 21
90.5773114064765
 31
0.0
  0
LINE
  5
   306
  8
0
  6
CONTINUOUS
 62
     7
 10
123.337361961631
 20
48.7066009039328
 30
0.0
 11
123.36665124422
 21
48.7773116576659
 31
0.0
  0
LINE
  5
   307
  8
0
  6
CONTINUOUS
 62
     7
 10
134.549065484028
 20
58.1675138858569
 30
0.0
 11
134.843566985528
 21
58.2235289013058
 31
0.0
  0
LINE
  5
   308
  8
0
  6
CONTINUOUS
 62
     7
 10
123.41389190992
 20
60.0157085398253
 30
0.0
 11
123.591442436399
 21
60.2403331849639
 31
0.0
  0
LINE
  5
   309
  8
0
  6
CONTINUOUS
 62
     7
 10
123.400725295386
 20
70.2478060298361
 30
0.0
 11
123.709976657338
 21
70.1752230202402
 31
0.0
  0
LINE
  5
   30A
  8
0
  6
DASHED
 62
     2
 10
169.56363138552
 20
49.8797297611455
 30
0.0
 11
169.56363138552
 21
83.2797302588443
 31
0.0
  0
LINE
  5
   30B
  8
0
  6
DASHED
 62
     7
 10
163.963631302073
 20
48.2797297373036
 30
0.0
 11
167.963631361678
 21
48.2797297373036
 31
0.0
  0
LINE
  5
   30C
  8
0
  6
DASHED
 62
     7
 10
156.163631185844
 20
61.2898739741387
 30
0.0
 11
159.563631236508
 21
61.2898739741387
 31
0.0
  0
LINE
  5
   30D
  8
0
  6
DASHED
 62
     7
 10
160.76363125439
 20
84.8797302826862
 30
0.0
 11
167.963631361678
 21
84.8797302826862
 31
0.0
  0
ARC
  5
   30E
  8
0
  6
DASHED
 62
     7
 10
163.963631302073
 20
49.8797297611455
 30
0.0
 40
1.60000002384186
 50
180.0
 51
270.0
  0
ARC
  5
   30F
  8
0
  6
DASHED
 62
     7
 10
167.963631361678
 20
49.8797297611455
 30
0.0
 40
1.60000002384186
 50
270.0
 51
360.0
  0
ARC
  5
   310
  8
0
  6
DASHED
 62
     7
 10
159.563631236508
 20
58.4898739324154
 30
0.0
 40
2.80000004172325
 50
360.0
 51
450.0
  0
ARC
  5
   311
  8
0
  6
DASHED
 62
     7
 10
159.563631236508
 20
59.8961514191909
 30
0.0
 40
2.80000004172325
 50
360.0
 51
450.0
  0
ARC
  5
   312
  8
0
  6
DASHED
 62
     7
 10
167.963631361678
 20
83.2797302588443
 30
0.0
 40
1.60000002384186
 50
360.0
 51
450.0
  0
LINE
  5
   313
  8
0
  6
DASHED
 62
     7
 10
162.363631278231
 20
49.8797297611455
 30
0.0
 11
162.363631278231
 21
59.8961514191909
 31
0.0
  0
LINE
  5
   314
  8
0
  6
DASHED
 62
     7
 10
172.763631433204
 20
63.4797299638013
 30
0.0
 11
172.763631433204
 21
69.8797300591687
 31
0.0
  0
ARC
  5
   315
  8
0
  6
DASHED
 62
     7
 10
171.163631409362
 20
63.4797299638013
 30
0.0
 40
1.60000002384186
 50
180.0
 51
360.0
  0
ARC
  5
   316
  8
0
  6
DASHED
 62
     7
 10
171.163631409362
 20
69.8797300591687
 30
0.0
 40
1.60000002384186
 50
360.0
 51
540.0
  0
LINE
  5
   317
  8
0
  6
DASHDOT
 62
     7
 10
168.763631373599
 20
63.4797299638013
 30
0.0
 11
173.563631445124
 21
63.4797299638013
 31
0.0
  0
LINE
  5
   318
  8
0
  6
DASHDOT
 62
     7
 10
171.163631409362
 20
61.0797299280385
 30
0.0
 11
171.163631409362
 21
72.2797300949315
 31
0.0
  0
LINE
  5
   319
  8
0
  6
DASHDOT
 62
     7
 10
168.763631373599
 20
69.8797300591687
 30
0.0
 11
173.563631445124
 21
69.8797300591687
 31
0.0
  0
ARC
  5
   31A
  8
0
  6
DASHED
 62
     7
 10
165.963631331876
 20
77.4797301724175
 30
0.0
 40
16.5197581136385
 50
282.586944950844
 51
307.750050331541
  0
ARC
  5
   31B
  8
0
  6
DASHED
 62
     7
 10
165.963631331876
 20
77.4797301724175
 30
0.0
 40
17.7197581315199
 50
281.72198665881
 51
307.180704244992
  0
LINE
  5
   31C
  8
0
  6
DASHED
 62
     7
 10
169.56363138552
 20
75.9793214056756
 30
0.0
 11
177.311808751811
 21
62.226570499175
 31
0.0
  0
LINE
  5
   31D
  8
0
  6
DASHED
 62
     2
 10
169.56363138552
 20
78.4240557582554
 30
0.0
 11
178.357301086857
 21
62.8155915686405
 31
0.0
  0
LINE
  5
   31E
  8
0
  6
DASHED
 62
     7
 10
177.31180875181
 20
62.226570499175
 30
0.0
 11
178.357301086857
 21
62.8155915686404
 31
0.0
  0
LINE
  5
   31F
  8
0
  6
DASHED
 62
     7
 10
156.163631185844
 20
61.2898739741387
 30
0.0
 11
156.163631185844
 21
63.6797299667815
 31
0.0
  0
LINE
  5
   320
  8
0
  6
CONTINUOUS
 62
   212
 10
140.767132564277
 20
63.9638013524476
 30
0.0
 11
140.767560090164
 21
84.8771851093578
 31
0.0
  0
LINE
  5
   321
  8
0
  6
CONTINUOUS
 62
   253
 10
155.963631182864
 20
63.6796918808616
 30
0.0
 11
155.963631182864
 21
70.2797300651292
 31
0.0
  0
LINE
  5
   322
  8
0
  6
CONTINUOUS
 62
   253
 10
149.763631090477
 20
70.6797316580219
 30
0.0
 11
149.763631090477
 21
72.6797316878242
 31
0.0
  0
LINE
  5
   323
  8
0
  6
CONTINUOUS
 62
   253
 10
149.763631090477
 20
90.6798906474537
 30
0.0
 11
155.063631169453
 21
90.6798906474537
 31
0.0
  0
LINE
  5
   324
  8
0
  6
CONTINUOUS
 62
   253
 10
149.763631090477
 20
48.6798778145735
 30
0.0
 11
155.063631169453
 21
48.6798778145735
 31
0.0
  0
LINE
  5
   325
  8
0
  6
CONTINUOUS
 62
   253
 10
155.563631176904
 20
49.1798900290555
 30
0.0
 11
155.563631176904
 21
70.2797300651292
 31
0.0
  0
LINE
  5
   326
  8
0
  6
CONTINUOUS
 62
   253
 10
149.763631090477
 20
48.6798778145735
 30
0.0
 11
149.763631090477
 21
70.6797316580219
 31
0.0
  0
LINE
  5
   327
  8
0
  6
CONTINUOUS
 62
   253
 10
149.763631090477
 20
74.279688987056
 30
0.0
 11
149.763631090477
 21
90.6798906474537
 31
0.0
  0
LINE
  5
   328
  8
0
  6
CONTINUOUS
 62
   253
 10
149.763631090477
 20
72.6797316878242
 30
0.0
 11
149.763631090477
 21
74.2796920388139
 31
0.0
  0
LINE
  5
   329
  8
0
  6
CONTINUOUS
 62
   253
 10
155.417186021007
 20
48.8263393098943
 30
0.0
 11
155.563633782006
 21
49.1798930912213
 31
0.0
  0
LINE
  5
   32A
  8
0
  6
CONTINUOUS
 62
   253
 10
155.346455335586
 20
48.7970375523878
 30
0.0
 11
155.417182877306
 21
48.8263359547437
 31
0.0
  0
LINE
  5
   32B
  8
0
  6
CONTINUOUS
 62
   253
 10
155.063631001356
 20
48.6798777195667
 30
0.0
 11
155.34636110969
 21
48.7969980865881
 31
0.0
  0
LINE
  5
   32C
  8
0
  6
CONTINUOUS
 62
   253
 10
155.063632751567
 20
90.6798932382173
 30
0.0
 11
155.417185005205
 21
90.5334454795034
 31
0.0
  0
LINE
  5
   32D
  8
0
  6
CONTINUOUS
 62
   253
 10
155.417184066117
 20
90.5334473344421
 30
0.0
 11
155.563631824831
 21
90.1798950808039
 31
0.0
  0
LINE
  5
   32E
  8
0
  6
CONTINUOUS
 62
   130
 10
140.966617104466
 20
68.4797712968172
 30
0.0
 11
140.966646096166
 21
80.0797379009414
 31
0.0
  0
LINE
  5
   32F
  8
0
  6
CONTINUOUS
 62
   130
 10
141.166594219261
 20
63.6797346039761
 30
0.0
 11
141.166646099143
 21
84.8797745938597
 31
0.0
  0
LINE
  5
   330
  8
0
  6
CONTINUOUS
 62
   130
 10
141.766594228203
 20
63.6797376561384
 30
0.0
 11
141.766646108087
 21
84.8797684894021
 31
0.0
  0
LINE
  5
   331
  8
0
  6
CONTINUOUS
 62
   130
 10
142.166639316501
 20
82.2796998943607
 30
0.0
 11
146.567215901735
 21
82.2796842801915
 31
0.0
  0
LINE
  5
   332
  8
0
  6
CONTINUOUS
 62
   130
 10
142.166600802312
 20
66.2796998922724
 30
0.0
 11
146.567021224123
 21
66.2796868809261
 31
0.0
  0
LINE
  5
   333
  8
0
  6
CONTINUOUS
 62
   130
 10
141.767158807517
 20
77.4797622812462
 30
0.0
 11
146.967158885003
 21
77.4796951425726
 31
0.0
  0
LINE
  5
   334
  8
0
  6
CONTINUOUS
 62
   130
 10
141.767077936074
 20
71.0797621853453
 30
0.0
 11
146.96707801356
 21
71.0796950466717
 31
0.0
  0
LINE
  5
   335
  8
0
  6
CONTINUOUS
 62
   130
 10
141.767077933253
 20
71.0797621887932
 30
0.0
 11
141.767158804836
 21
77.4797622841606
 31
0.0
  0
LINE
  5
   336
  8
0
  6
CONTINUOUS
 62
   130
 10
146.967022411775
 20
66.6796818323965
 30
0.0
 11
146.967214481749
 21
81.8796792196888
 31
0.0
  0
LINE
  5
   337
  8
0
  6
CONTINUOUS
 62
   253
 10
155.563631176904
 20
63.6796918808616
 30
0.0
 11
155.963631182864
 21
63.6796918808616
 31
0.0
  0
LINE
  5
   338
  8
0
  6
CONTINUOUS
 62
   253
 10
155.563631176904
 20
84.8796891450083
 30
0.0
 11
155.963631182864
 21
84.8796891450083
 31
0.0
  0
LINE
  5
   339
  8
0
  6
CONTINUOUS
 62
   130
 10
140.767235103363
 20
68.9797564975854
 30
0.0
 11
140.966620155748
 21
68.979756046863
 31
0.0
  0
LINE
  5
   33A
  8
0
  6
CONTINUOUS
 62
   130
 10
140.767451797998
 20
79.5797566551335
 30
0.0
 11
140.96664609764
 21
79.5797562048424
 31
0.0
  0
LINE
  5
   33B
  8
0
  6
CONTINUOUS
 62
   130
 10
140.966617104411
 20
68.4797712980915
 30
0.0
 11
141.166617107391
 21
68.4797712980915
 31
0.0
  0
LINE
  5
   33C
  8
0
  6
CONTINUOUS
 62
   130
 10
140.96664609611
 20
80.0797379016085
 30
0.0
 11
141.166646099091
 21
80.0797379016085
 31
0.0
  0
LINE
  5
   33D
  8
0
  6
CONTINUOUS
 62
   130
 10
141.166594218681
 20
63.6797346059631
 30
0.0
 11
141.766594227622
 21
63.679737657721
 31
0.0
  0
LINE
  5
   33E
  8
0
  6
CONTINUOUS
 62
   130
 10
141.166646100101
 20
84.8797745972911
 30
0.0
 11
141.766646109041
 21
84.8797684937752
 31
0.0
  0
ARC
  5
   33F
  8
0
  6
CONTINUOUS
 62
     7
 10
146.56721447582
 20
81.8796842742336
 30
0.0
 40
0.400000005960464
 50
359.999275999948
 51
450.0
  0
ARC
  5
   340
  8
0
  6
CONTINUOUS
 62
     7
 10
146.567022405846
 20
66.6796868868848
 30
0.0
 40
0.400000005960464
 50
269.999830585454
 51
359.999275999948
  0
ARC
  5
   341
  8
0
  6
CONTINUOUS
 62
     7
 10
142.166640730127
 20
82.6796999003186
 30
0.0
 40
0.400000005960464
 50
179.999859788015
 51
269.99979670255
  0
ARC
  5
   342
  8
0
  6
CONTINUOUS
 62
     7
 10
142.166599617826
 20
65.8796998863137
 30
0.0
 40
0.400000005960464
 50
90.0
 51
179.999859788015
  0
LINE
  5
   343
  8
0
  6
CONTINUOUS
 62
   212
 10
155.563631176904
 20
84.8766281146273
 30
0.0
 11
155.563631176904
 21
90.4770457786725
 31
0.0
  0
LINE
  5
   344
  8
0
  6
CONTINUOUS
 62
     7
 10
148.963631078556
 20
44.1452565308468
 30
0.0
 11
148.963631078556
 21
117.013049102095
 31
0.0
  0
LINE
  5
   345
  8
0
  6
CONTINUOUS
 62
     7
 10
149.763631090477
 20
90.6770457816527
 30
0.0
 11
149.763631090477
 21
117.013049102095
 31
0.0
  0
LINE
  5
   346
  8
0
  6
CONTINUOUS
 62
   170
 10
147.763631060674
 20
68.8766843332567
 30
0.0
 11
147.763631060674
 21
79.6766890721398
 31
0.0
  0
LINE
  5
   347
  8
0
  6
CONTINUOUS
 62
   170
 10
148.363626491979
 20
80.2766799258604
 30
0.0
 11
148.963631078556
 21
80.2766753481893
 31
0.0
  0
LINE
  5
   348
  8
0
  6
CONTINUOUS
 62
   170
 10
148.363640224975
 20
68.2766797465925
 30
0.0
 11
148.963631078556
 21
68.2766751690261
 31
0.0
  0
LINE
  5
   349
  8
0
  6
CONTINUOUS
 62
   170
 10
147.763631060674
 20
79.6766844945036
 30
0.0
 11
148.963631078556
 21
79.6766753392312
 31
0.0
  0
LINE
  5
   34A
  8
0
  6
CONTINUOUS
 62
   170
 10
147.763631060674
 20
68.8766843332567
 30
0.0
 11
148.963631078556
 21
68.8766751779842
 31
0.0
  0
LINE
  5
   34B
  8
0
  6
CONTINUOUS
 62
   170
 10
147.763631060674
 20
79.6766890721398
 30
0.0
 11
148.363635647251
 21
80.2766890810631
 31
0.0
  0
LINE
  5
   34C
  8
0
  6
CONTINUOUS
 62
   170
 10
147.763631060675
 20
68.876688910893
 30
0.0
 11
148.363631069615
 21
68.2766889019523
 31
0.0
  0
LINE
  5
   34D
  8
0
  6
CONTINUOUS
 62
     7
 10
146.967143682913
 20
76.2766996757289
 30
0.0
 11
147.763631060674
 21
76.2766935990132
 31
0.0
  0
LINE
  5
   34E
  8
0
  6
CONTINUOUS
 62
     7
 10
146.967093138593
 20
72.2766996163935
 30
0.0
 11
147.763631060675
 21
72.2766935392922
 31
0.0
  0
LINE
  5
   34F
  8
0
  6
DASHDOT
 62
     7
 10
144.363631010011
 20
64.6053248290695
 30
0.0
 11
144.363631010011
 21
84.8767395037758
 31
0.0
  0
LINE
  5
   350
  8
0
  6
CONTINUOUS
 62
     7
 10
145.363631024912
 20
83.8796980280123
 30
0.0
 11
145.363631024912
 21
86.2767120588608
 31
0.0
  0
LINE
  5
   351
  8
0
  6
CONTINUOUS
 62
     7
 10
143.363630995109
 20
83.8797132867997
 30
0.0
 11
143.363630995109
 21
86.2767273176483
 31
0.0
  0
LINE
  5
   352
  8
0
  6
CONTINUOUS
 62
     7
 10
143.363630995606
 20
86.2767273176483
 30
0.0
 11
145.363631025343
 21
86.2767120588608
 31
0.0
  0
LINE
  5
   353
  8
0
  6
CONTINUOUS
 62
     7
 10
145.189631022319
 20
83.8796993555268
 30
0.0
 11
145.189631022319
 21
86.2767133863753
 31
0.0
  0
LINE
  5
   354
  8
0
  6
CONTINUOUS
 62
     7
 10
143.537630997702
 20
83.8797119592852
 30
0.0
 11
143.537630997702
 21
86.2767259901338
 31
0.0
  0
LINE
  5
   355
  8
0
  6
CONTINUOUS
 62
     7
 10
145.363533278325
 20
62.2767117009474
 30
0.0
 11
145.363569944589
 21
64.6796722089351
 31
0.0
  0
LINE
  5
   356
  8
0
  6
CONTINUOUS
 62
     7
 10
143.363527234541
 20
62.2767269601135
 30
0.0
 11
145.363533278472
 21
62.2767117012802
 31
0.0
  0
LINE
  5
   357
  8
0
  6
CONTINUOUS
 62
     7
 10
143.537533251116
 20
62.2767256324166
 30
0.0
 11
143.537569917379
 21
64.6796861404043
 31
0.0
  0
LINE
  5
   358
  8
0
  6
CONTINUOUS
 62
     7
 10
145.189533275733
 20
62.2767130284628
 30
0.0
 11
145.189569941996
 21
64.6796735364505
 31
0.0
  0
LINE
  5
   359
  8
0
  6
CONTINUOUS
 62
     7
 10
143.363533248523
 20
62.276726959932
 30
0.0
 11
143.363569914786
 21
64.6796874679197
 31
0.0
  0
LINE
  5
   35A
  8
0
  6
CONTINUOUS
 62
   132
 10
142.889633276121
 20
83.8797169031149
 30
0.0
 11
145.837633320147
 21
83.8796944116622
 31
0.0
  0
LINE
  5
   35B
  8
0
  6
CONTINUOUS
 62
   132
 10
142.589630983576
 20
82.5797191737534
 30
0.0
 11
142.589630983576
 21
83.5797168988078
 31
0.0
  0
LINE
  5
   35C
  8
0
  6
CONTINUOUS
 62
   132
 10
146.137631036445
 20
82.579696681114
 30
0.0
 11
146.137631036445
 21
83.5796944073555
 31
0.0
  0
LINE
  5
   35D
  8
0
  6
CONTINUOUS
 62
   132
 10
143.189630992517
 20
82.5797191737534
 30
0.0
 11
143.189630992517
 21
83.5797168988078
 31
0.0
  0
LINE
  5
   35E
  8
0
  6
CONTINUOUS
 62
   132
 10
145.537631027504
 20
82.5796921034433
 30
0.0
 11
145.537631027504
 21
83.5796966960187
 31
0.0
  0
LINE
  5
   35F
  8
0
  6
CONTINUOUS
 62
   132
 10
142.889630988046
 20
82.2796920989731
 30
0.0
 11
145.837631031975
 21
82.2796920989731
 31
0.0
  0
ARC
  5
   360
  8
0
  6
CONTINUOUS
 62
   132
 10
142.889630988046
 20
82.5797191737534
 30
0.0
 40
0.30000000569165
 50
180.00517004828
 51
360.0
  0
ARC
  5
   361
  8
0
  6
CONTINUOUS
 62
   132
 10
144.363631010011
 20
84.7268188021047
 30
0.0
 40
2.44712670313166
 50
241.331165258311
 51
298.668834741688
  0
ARC
  5
   362
  8
0
  6
CONTINUOUS
 62
   132
 10
145.837631031975
 20
82.579696681114
 30
0.0
 40
0.300000004505316
 50
180.0
 51
359.999125729333
  0
ARC
  5
   363
  8
0
  6
CONTINUOUS
 62
   132
 10
145.837631031975
 20
83.5796944073555
 30
0.0
 40
0.300000004479044
 50
359.999562838353
 51
540.0
  0
ARC
  5
   364
  8
0
  6
CONTINUOUS
 62
   132
 10
144.363614628736
 20
81.4325789542024
 30
0.0
 40
2.44712670325835
 50
61.3307281269688
 51
118.668397608924
  0
ARC
  5
   365
  8
0
  6
CONTINUOUS
 62
   132
 10
142.889630988046
 20
83.5797168988078
 30
0.0
 40
0.300000004479308
 50
360.0
 51
539.999562897457
  0
LINE
  5
   366
  8
0
  6
CONTINUOUS
 62
   132
 10
142.889529516956
 20
64.679691084675
 30
0.0
 11
145.837529561078
 21
64.6796685932222
 31
0.0
  0
ARC
  5
   367
  8
0
  6
CONTINUOUS
 62
   132
 10
144.363548209167
 20
67.1268065421348
 30
0.0
 40
2.44712670325835
 50
241.330728126966
 51
298.668397608922
  0
ARC
  5
   368
  8
0
  6
CONTINUOUS
 62
   132
 10
145.837531849856
 20
64.9796685975289
 30
0.0
 40
0.300000004479044
 50
179.99912573589
 51
359.999562897537
  0
LINE
  5
   369
  8
0
  6
CONTINUOUS
 62
   132
 10
145.537531845386
 20
64.979670886381
 30
0.0
 11
145.537547104243
 21
65.9796754788498
 31
0.0
  0
LINE
  5
   36A
  8
0
  6
CONTINUOUS
 62
   132
 10
143.189531810363
 20
64.9796865112053
 30
0.0
 11
143.189547069116
 21
65.9796842361006
 31
0.0
  0
LINE
  5
   36B
  8
0
  6
CONTINUOUS
 62
   132
 10
142.589531801492
 20
64.9796956664822
 30
0.0
 11
142.589547060245
 21
65.9796933913775
 31
0.0
  0
LINE
  5
   36C
  8
0
  6
CONTINUOUS
 62
   132
 10
146.137531854292
 20
64.9796640197365
 30
0.0
 11
146.137547113044
 21
65.9796617457494
 31
0.0
  0
ARC
  5
   36D
  8
0
  6
CONTINUOUS
 62
   132
 10
145.837547108609
 20
65.979666323654
 30
0.0
 40
0.300000004505316
 50
6.55712278399104E-9
 51
179.99912573589
  0
LINE
  5
   36E
  8
0
  6
CONTINUOUS
 62
   132
 10
142.889551644799
 20
66.2797158886654
 30
0.0
 11
145.837551688701
 21
66.27967090576
 31
0.0
  0
ARC
  5
   36F
  8
0
  6
CONTINUOUS
 62
   132
 10
142.88954706468
 20
65.97968881392
 30
0.0
 40
0.30000000569165
 50
359.99912573589
 51
539.99395568761
  0
ARC
  5
   370
  8
0
  6
CONTINUOUS
 62
   132
 10
144.363514324336
 20
63.832566694366
 30
0.0
 40
2.44712670313166
 50
61.3302909942027
 51
118.667960477579
  0
ARC
  5
   371
  8
0
  6
CONTINUOUS
 62
   132
 10
142.889531805927
 20
64.9796910889821
 30
0.0
 40
0.300000004479308
 50
179.999562838433
 51
359.99912573589
  0
ARC
  5
   372
  8
0
  6
CONTINUOUS
 62
     7
 10
150.163631096437
 20
83.4797302618245
 30
0.0
 40
2.32000003457069
 50
184.945429717883
 51
220.282118355986
  0
LINE
  5
   373
  8
0
  6
CONTINUOUS
 62
     7
 10
147.852267827884
 20
83.2797302588443
 30
0.0
 11
148.243631067827
 21
83.2797302588443
 31
0.0
  0
LINE
  5
   374
  8
0
  6
CONTINUOUS
 62
     7
 10
147.852267827884
 20
83.6797302648048
 30
0.0
 11
148.243631067827
 21
83.6797302648048
 31
0.0
  0
ARC
  5
   375
  8
0
  6
CONTINUOUS
 62
     7
 10
150.163631096437
 20
83.4797302618245
 30
0.0
 40
2.32000003457069
 50
139.717881644014
 51
175.054570282117
  0
LINE
  5
   376
  8
0
  6
CONTINUOUS
 62
     7
 10
148.393772318638
 20
84.9797302841763
 30
0.0
 11
148.963631078556
 21
84.9797302841763
 31
0.0
  0
LINE
  5
   377
  8
0
  6
CONTINUOUS
 62
     7
 10
148.393772318638
 20
81.9797302394728
 30
0.0
 11
148.963631078556
 21
81.9797302394728
 31
0.0
  0
LINE
  5
   378
  8
0
  6
CONTINUOUS
 62
     7
 10
148.243631067827
 20
83.2797302588443
 30
0.0
 11
148.243631067827
 21
83.6797302648048
 31
0.0
  0
LINE
  5
   379
  8
0
  6
DASHDOT
 62
     7
 10
147.573657077733
 20
83.4797302618245
 30
0.0
 11
154.299991527938
 21
83.4797302618245
 31
0.0
  0
LINE
  5
   37A
  8
0
  6
CONTINUOUS
 62
     7
 10
146.984559314175
 20
117.013049102095
 30
0.0
 11
152.165449350715
 21
117.013049102095
 31
0.0
  0
LINE
  5
   37B
  8
0
  6
CONTINUOUS
 62
     7
 10
148.111956105105
 20
44.1452565308468
 30
0.0
 11
152.972153609961
 21
44.1452565308468
 31
0.0
  0
LINE
  5
   37C
  8
0
  6
CONTINUOUS
 62
     7
 10
149.763631090477
 20
44.1452565308468
 30
0.0
 11
149.763631090477
 21
48.6798778145735
 31
0.0
  0
LINE
  5
   37D
  8
0
  6
CONTINUOUS
 62
     7
 10
157.363631203726
 20
73.0797301068525
 30
0.0
 11
157.363631203726
 21
75.4797301426152
 31
0.0
  0
LINE
  5
   37E
  8
0
  6
CONTINUOUS
 62
     7
 10
149.763631090477
 20
76.2797301545362
 30
0.0
 11
156.563631191805
 21
76.2797301545362
 31
0.0
  0
LINE
  5
   37F
  8
0
  6
CONTINUOUS
 62
     7
 10
149.763631090477
 20
72.2797300949315
 30
0.0
 11
156.563631191805
 21
72.2797300949315
 31
0.0
  0
LINE
  5
   380
  8
0
  6
CONTINUOUS
 62
     7
 10
156.563631191805
 20
76.2797301545362
 30
0.0
 11
157.363631203726
 21
75.4797301426153
 31
0.0
  0
LINE
  5
   381
  8
0
  6
CONTINUOUS
 62
     7
 10
156.563631191805
 20
72.2797300949315
 30
0.0
 11
157.363631203726
 21
73.0797301068525
 31
0.0
  0
CIRCLE
  5
   382
  8
0
  6
CONTINUOUS
 62
     7
 10
154.963631167963
 20
74.2797301247338
 30
0.0
 40
1.10000001639128
  0
LINE
  5
   383
  8
0
  6
DASHDOT
 62
     7
 10
154.963631167963
 20
72.7797301023821
 30
0.0
 11
154.963631167963
 21
75.7797301470856
 31
0.0
  0
LINE
  5
   384
  8
0
  6
CONTINUOUS
 62
     7
 10
149.763631090477
 20
78.2797301843385
 30
0.0
 11
159.363631233528
 21
78.2797301843385
 31
0.0
  0
LINE
  5
   385
  8
0
  6
CONTINUOUS
 62
     7
 10
149.763631090477
 20
70.2797300651292
 30
0.0
 11
159.363631233528
 21
70.2797300651292
 31
0.0
  0
LINE
  5
   386
  8
0
  6
CONTINUOUS
 62
     7
 10
159.363631233528
 20
70.2797300651292
 30
0.0
 11
159.363631233528
 21
78.2797301843385
 31
0.0
  0
LINE
  5
   387
  8
0
  6
CONTINUOUS
 62
   253
 10
155.563631176904
 20
78.2797301843385
 30
0.0
 11
155.563631176904
 21
90.1798906400031
 31
0.0
  0
LINE
  5
   388
  8
0
  6
CONTINUOUS
 62
   253
 10
155.963631182864
 20
78.2797301843385
 30
0.0
 11
155.963631182864
 21
84.8796891450083
 31
0.0
  0
LINE
  5
   389
  8
0
  6
CONTINUOUS
 62
     2
 10
156.163631185844
 20
78.2797301843385
 30
0.0
 11
156.163631185844
 21
80.6797302201013
 31
0.0
  0
LINE
  5
   38A
  8
0
  6
CONTINUOUS
 62
     7
 10
148.393772318638
 20
66.5797300099949
 30
0.0
 11
148.963631078556
 21
66.5797300099949
 31
0.0
  0
ARC
  5
   38B
  8
0
  6
CONTINUOUS
 62
     7
 10
150.163631096437
 20
65.0797299876432
 30
0.0
 40
2.32000003457069
 50
139.717881644014
 51
175.054570282117
  0
LINE
  5
   38C
  8
0
  6
CONTINUOUS
 62
     7
 10
147.852267827884
 20
65.2797299906234
 30
0.0
 11
148.243631067827
 21
65.2797299906234
 31
0.0
  0
LINE
  5
   38D
  8
0
  6
CONTINUOUS
 62
     7
 10
148.243631067827
 20
64.8797299846629
 30
0.0
 11
148.243631067827
 21
65.2797299906234
 31
0.0
  0
LINE
  5
   38E
  8
0
  6
CONTINUOUS
 62
     7
 10
147.852267827884
 20
64.8797299846629
 30
0.0
 11
148.243631067827
 21
64.8797299846629
 31
0.0
  0
ARC
  5
   38F
  8
0
  6
CONTINUOUS
 62
     7
 10
150.163631096437
 20
65.0797299876432
 30
0.0
 40
2.32000003457069
 50
184.945429717883
 51
220.282118355986
  0
LINE
  5
   390
  8
0
  6
CONTINUOUS
 62
     7
 10
148.393772318638
 20
63.5797299652914
 30
0.0
 11
148.963631078556
 21
63.5797299652914
 31
0.0
  0
LINE
  5
   391
  8
0
  6
DASHDOT
 62
     7
 10
147.573657077733
 20
65.0797299876432
 30
0.0
 11
154.299991527938
 21
65.0797299876432
 31
0.0
  0
LINE
  5
   392
  8
0
  6
DOT
 62
     2
 10
130.1666518718
 20
72.2797300949315
 30
0.0
 11
130.1666518718
 21
76.2797301545362
 31
0.0
  0
LINE
  5
   393
  8
0
  6
DOT
 62
     2
 10
130.1666518718
 20
76.2797301545362
 30
0.0
 11
146.967143719758
 21
76.2797301545362
 31
0.0
  0
LINE
  5
   394
  8
0
  6
DOT
 62
     2
 10
130.1666518718
 20
72.2797300949315
 30
0.0
 11
146.967143719758
 21
72.2797300949315
 31
0.0
  0
LINE
  5
   395
  8
0
  6
CONTINUOUS
 62
     3
 10
146.967022411775
 20
31.2517373039803
 30
0.0
 11
146.967022411775
 21
34.2297995005837
 31
0.0
  0
LINE
  5
   396
  8
0
  6
CONTINUOUS
 62
     3
 10
146.967022411775
 20
17.0713963486334
 30
0.0
 11
146.967022411775
 21
20.2209949277612
 31
0.0
  0
LINE
  5
   397
  8
0
  6
CONTINUOUS
 62
     3
 10
146.967022411775
 20
37.8749476292263
 30
0.0
 11
146.967022411775
 21
66.6796818324109
 31
0.0
  0
POINT
  5
   398
  8
0
  6
CONTINUOUS
 62
     7
 10
123.366651770473
 20
69.679891799359
 30
0.0
  0
INSERT
  5
   399
  8
255
  6
CONTINUOUS
 62
     7
  2
S3LLL
 10
123.166103200905
 20
25.6850669160592
 30
0.0
 41
0.400000005960464
 42
0.400000005960464
 50
3.50835464724173E-15
 43
0.400000005960464
  0
INSERT
  5
   39A
  8
0
  6
CONTINUOUS
 62
     7
  2
*UDIM536
 10
0.0
 20
0.0
 30
0.0
  0
INSERT
  5
   39B
  8
0
  6
CONTINUOUS
 62
     7
  2
*UDIM537
 10
0.0
 20
0.0
 30
0.0
  0
INSERT
  5
   39C
  8
0
  6
CONTINUOUS
 62
     7
  2
*UDIM538
 10
0.0
 20
0.0
 30
0.0
  0
INSERT
  5
   39D
  8
0
  6
CONTINUOUS
 62
     7
  2
*UDIM539
 10
0.0
 20
0.0
 30
0.0
  0
INSERT
  5
   39E
  8
0
  6
CONTINUOUS
 62
     7
  2
*UDIM540
 10
0.0
 20
0.0
 30
0.0
  0
INSERT
  5
   39F
  8
0
  6
CONTINUOUS
 62
     7
  2
*UDIM541
 10
0.0
 20
0.0
 30
0.0
  0
INSERT
  5
   3A0
  8
0
  6
CONTINUOUS
 62
     7
  2
*UDIM542
 10
0.0
 20
0.0
 30
0.0
  0
INSERT
  5
   3A1
  8
0
  6
CONTINUOUS
 62
     7
  2
*UDIM543
 10
0.0
 20
0.0
 30
0.0
  0
INSERT
  5
   3A2
  8
0
  6
CONTINUOUS
 62
     7
  2
*UDIM544
 10
0.0
 20
0.0
 30
0.0
  0
TEXT
  5
   3A3
  8
0
  6
CONTINUOUS
 62
     7
 10
185.161159829349
 20
68.3977558745781
 30
0.0
 40
2.99999994933605
  1
X
 50
360.0
 41
0.916666607525612
 72
     1
 11
186.261159738444
 21
69.8977558492516
 31
0.0
 73
     2
  0
CIRCLE
  5
   3A4
  8
0
  6
CONTINUOUS
 62
   253
 10
125.124620689737
 20
-31.7842090374081
 30
0.0
 40
8.25
  0
CIRCLE
  5
   3A5
  8
0
  6
CONTINUOUS
 62
   253
 10
111.63062284687
 20
-20.2744913491735
 30
0.0
 40
1.25
  0
CIRCLE
  5
   3A6
  8
0
  6
CONTINUOUS
 62
   253
 10
138.630633550441
 20
-20.2744834104613
 30
0.0
 40
1.25
  0
CIRCLE
  5
   3A7
  8
0
  6
CONTINUOUS
 62
   253
 10
138.630643057293
 20
-43.2744834104613
 30
0.0
 40
1.25
  0
CIRCLE
  5
   3A8
  8
0
  6
CONTINUOUS
 62
   253
 10
111.630633550441
 20
-43.2744726532608
 30
0.0
 40
1.25
  0
LINE
  5
   3A9
  8
0
  6
DASHDOT
 62
     7
 10
106.45012153312
 20
-31.7842090374081
 30
0.0
 11
143.135356525116
 21
-31.7842090374081
 31
0.0
  0
LINE
  5
   3AA
  8
0
  6
DASHDOT
 62
     7
 10
125.124620689737
 20
-38.2703044849263
 30
0.0
 11
125.124620689737
 21
-19.9568331843966
 31
0.0
  0
LINE
  5
   3AB
  8
0
  6
DASHDOT
 62
     7
 10
109.818138365962
 20
-43.2744726532608
 30
0.0
 11
114.875485787633
 21
-43.2744726532608
 31
0.0
  0
LINE
  5
   3AC
  8
0
  6
DASHDOT
 62
     7
 10
111.630633550441
 20
-73.9108881119292
 30
0.0
 11
111.630633550441
 21
-40.4195249812546
 31
0.0
  0
LINE
  5
   3AD
  8
0
  6
DASHDOT
 62
     7
 10
134.537810051495
 20
-43.2744834104613
 30
0.0
 11
140.443141250056
 21
-43.2744834104613
 31
0.0
  0
LINE
  5
   3AE
  8
0
  6
DASHDOT
 62
     7
 10
138.630643057293
 20
-73.5250484254548
 30
0.0
 11
138.630643057293
 21
-38.6687700810478
 31
0.0
  0
LINE
  5
   3AF
  8
0
  6
DASHDOT
 62
     7
 10
127.66946390453
 20
-20.2744834104613
 30
0.0
 11
140.443132394711
 21
-20.2744834104613
 31
0.0
  0
LINE
  5
   3B0
  8
0
  6
DASHDOT
 62
     7
 10
138.630633550441
 20
-22.6994388162401
 30
0.0
 11
138.630633550441
 21
-17.437988546135
 31
0.0
  0
LINE
  5
   3B1
  8
0
  6
DASHDOT
 62
     7
 10
109.818112309583
 20
-20.2744913491735
 30
0.0
 11
117.030261049426
 21
-20.2744913491735
 31
0.0
  0
LINE
  5
   3B2
  8
0
  6
DASHDOT
 62
     7
 10
111.63062284687
 20
-23.9893636100826
 30
0.0
 11
111.63062284687
 21
-17.2626068704649
 31
0.0
  0
LINE
  5
   3B3
  8
0
  6
DASHDOT
 62
     7
 10
138.124620689737
 20
-71.1398576363405
 30
0.0
 11
138.124620689737
 21
2.24623960229142
 31
0.0
  0
LINE
  5
   3B4
  8
0
  6
CONTINUOUS
 62
     7
 10
106.63062284687
 20
-61.4640366460761
 30
0.0
 11
106.63062284687
 21
-15.2744913491735
 31
0.0
  0
LINE
  5
   3B5
  8
0
  6
CONTINUOUS
 62
     7
 10
106.63062284687
 20
-61.4640366460761
 30
0.0
 11
164.118649893222
 21
-61.4640366460761
 31
0.0
  0
LINE
  5
   3B6
  8
0
  6
CONTINUOUS
 62
     7
 10
106.63062284687
 20
-15.2744913491735
 30
0.0
 11
164.118649893222
 21
-15.2744913491735
 31
0.0
  0
LINE
  5
   3B7
  8
0
  6
DASHDOT
 62
     1
 10
102.675763481551
 20
-37.5342090374081
 30
0.0
 11
171.109693328051
 21
-37.5342090374081
 31
0.0
  0
POINT
  5
   3B8
  8
0
  6
CONTINUOUS
 62
     7
 10
133.374620689737
 20
-31.7842090374081
 30
0.0
  0
POINT
  5
   3B9
  8
0
  6
CONTINUOUS
 62
     7
 10
116.874620689737
 20
-31.7842090374081
 30
0.0
  0
POINT
  5
   3BA
  8
0
  6
CONTINUOUS
 62
     7
 10
139.880633550441
 20
-20.2744834104613
 30
0.0
  0
POINT
  5
   3BB
  8
0
  6
CONTINUOUS
 62
     7
 10
137.380633550441
 20
-20.2744834104613
 30
0.0
  0
LINE
  5
   3BC
  8
0
  6
CONTINUOUS
 62
     7
 10
165.118649893222
 20
-57.5342090374081
 30
0.0
 11
165.118649893222
 21
-52.5342090374081
 31
0.0
  0
LINE
  5
   3BD
  8
0
  6
CONTINUOUS
 62
     7
 10
164.118649893222
 20
-27.5342090374081
 30
0.0
 11
165.118649893222
 21
-27.5342090374081
 31
0.0
  0
LINE
  5
   3BE
  8
0
  6
CONTINUOUS
 62
     7
 10
164.118649893222
 20
-22.5342090374081
 30
0.0
 11
165.118649893222
 21
-22.5342090374081
 31
0.0
  0
LINE
  5
   3BF
  8
0
  6
CONTINUOUS
 62
     7
 10
164.118649893222
 20
-57.5342090374081
 30
0.0
 11
165.118649893222
 21
-57.5342090374081
 31
0.0
  0
LINE
  5
   3C0
  8
0
  6
CONTINUOUS
 62
     7
 10
164.118649893222
 20
-61.4640366460761
 30
0.0
 11
164.118649893222
 21
-15.2744913491735
 31
0.0
  0
LINE
  5
   3C1
  8
0
  6
CONTINUOUS
 62
     7
 10
165.118649893222
 20
-27.5342090374081
 30
0.0
 11
165.118649893222
 21
-22.5342090374081
 31
0.0
  0
LINE
  5
   3C2
  8
0
  6
CONTINUOUS
 62
     7
 10
164.118649893222
 20
-52.5342090374081
 30
0.0
 11
165.118649893222
 21
-52.5342090374081
 31
0.0
  0
LINE
  5
   3C3
  8
0
  6
DASHDOT
 62
     7
 10
164.618649893222
 20
-83.7373570321444
 30
0.0
 11
164.618649893222
 21
-21.4271505136925
 31
0.0
  0
LINE
  5
   3C4
  8
0
  6
DASHDOT
 62
     7
 10
138.124620689737
 20
-87.3802008033981
 30
0.0
 11
138.124620689737
 21
-80.996307809004
 31
0.0
  0
LINE
  5
   3C5
  8
0
  6
DASHDOT
 62
     7
 10
138.124620689737
 20
-77.7692849766729
 30
0.0
 11
138.124620689737
 21
-74.8579491605481
 31
0.0
  0
LINE
  5
   3C6
  8
0
  6
DASHDOT
 62
     1
 10
93.6962216872388
 20
-37.5342090374081
 30
0.0
 11
95.6254201196106
 21
-37.5342090374081
 31
0.0
  0
LINE
  5
   3C7
  8
0
  6
DASHDOT
 62
     1
 10
174.617326841454
 20
-37.5342090374081
 30
0.0
 11
179.107097738611
 21
-37.5342090374081
 31
0.0
  0
LINE
  5
   3C8
  8
0
  6
DASHDOT
 62
     7
 10
125.124620689737
 20
-50.824018577031
 30
0.0
 11
125.124620689737
 21
-48.9263641212477
 31
0.0
  0
TEXT
  5
   3C9
  8
0
  6
CONTINUOUS
 62
     7
 10
139.100070953369
 20
3.17927551269531
 30
0.0
 40
3.00000002980232
  1
Y
 41
0.916666689183977
  0
INSERT
  5
   3CA
  8
0
  6
CONTINUOUS
 62
     7
  2
*UDIM545
 10
0.0
 20
0.0
 30
0.0
  0
INSERT
  5
   3CB
  8
0
  6
CONTINUOUS
 62
     7
  2
*UDIM546
 10
0.0
 20
0.0
 30
0.0
  0
INSERT
  5
   3CC
  8
0
  6
CONTINUOUS
 62
     7
  2
*UDIM547
 10
0.0
 20
0.0
 30
0.0
  0
INSERT
  5
   3CD
  8
0
  6
CONTINUOUS
 62
     7
  2
*UDIM548
 10
0.0
 20
0.0
 30
0.0
  0
INSERT
  5
   3CE
  8
0
  6
CONTINUOUS
 62
     7
  2
*UDIM549
 10
0.0
 20
0.0
 30
0.0
  0
INSERT
  5
   3CF
  8
0
  6
CONTINUOUS
 62
     7
  2
*UDIM550
 10
0.0
 20
0.0
 30
0.0
  0
INSERT
  5
   3D0
  8
0
  6
CONTINUOUS
 62
     7
  2
*UDIM551
 10
0.0
 20
0.0
 30
0.0
  0
INSERT
  5
   3D1
  8
0
  6
CONTINUOUS
 62
     7
  2
*UDIM552
 10
0.0
 20
0.0
 30
0.0
  0
INSERT
  5
   3D2
  8
0
  6
CONTINUOUS
 62
     7
  2
*UDIM553
 10
0.0
 20
0.0
 30
0.0
  0
INSERT
  5
   3D3
  8
0
  6
CONTINUOUS
 62
     7
  2
*UDIM554
 10
0.0
 20
0.0
 30
0.0
  0
TEXT
  5
   3D4
  8
0
  6
CONTINUOUS
 62
     7
 10
139.576068878174
 20
-86.8374939262867
 30
0.0
 40
3.00000002980232
  1
Y
 41
0.916666689183977
 11
139.576068878174
 21
-83.8374938964844
 31
0.0
 73
     3
  0
TEXT
  5
   3D5
  8
0
  6
CONTINUOUS
 62
     7
 10
183.023254394531
 20
-39.4017830193043
 30
0.0
 40
3.00000002980232
  1
X
 41
0.916666689183977
 11
183.023254394531
 21
-36.401782989502
 31
0.0
 73
     3
  0
TEXT
  5
   3D6
  8
0
  6
CONTINUOUS
 62
     7
 10
89.9926252365112
 20
-39.0466575920582
 30
0.0
 40
3.00000002980232
  1
X
 41
0.916666689183977
 11
89.9926252365112
 21
-36.0466575622559
 31
0.0
 73
     3
  0
LINE
  5
   3D7
  8
0
  6
CONTINUOUS
 62
   212
 10
12.7867048349455
 20
8.21732779890299
 30
0.0
 11
12.7867048349455
 21
11.9190491950741
 31
0.0
  0
LINE
  5
   3D8
  8
0
  6
CONTINUOUS
 62
   212
 10
54.7867227006053
 20
11.9155623824389
 30
0.0
 11
54.7867268046449
 21
8.21733085364573
 31
0.0
  0
LINE
  5
   3D9
  8
0
  6
CONTINUOUS
 62
   212
 10
13.2867017721428
 20
7.71733067631726
 30
0.0
 11
54.2867390041847
 21
7.71733067631726
 31
0.0
  0
LINE
  5
   3DA
  8
0
  6
CONTINUOUS
 62
   212
 10
12.9331471588791
 20
7.86377431297123
 30
0.0
 11
13.2866994012183
 21
7.71733113214829
 31
0.0
  0
LINE
  5
   3DB
  8
0
  6
CONTINUOUS
 62
   212
 10
12.7867021083429
 20
8.21732900889108
 30
0.0
 11
12.9331468082786
 21
7.86377523561367
 31
0.0
  0
LINE
  5
   3DC
  8
0
  6
CONTINUOUS
 62
   212
 10
23.4037673525863
 20
7.31733372211465
 30
0.0
 11
25.7867141654388
 21
7.31733372211465
 31
0.0
  0
LINE
  5
   3DD
  8
0
  6
CONTINUOUS
 62
   212
 10
12.7866076831668
 20
8.11571917826487
 30
0.0
 11
12.8287875544008
 21
8.11572528178045
 31
0.0
  0
LINE
  5
   3DE
  8
0
  6
CONTINUOUS
 62
   212
 10
33.4731716382213
 20
7.3188639766943
 30
0.0
 11
33.9867031400141
 21
7.31894179652196
 31
0.0
  0
LINE
  5
   3DF
  8
0
  6
CONTINUOUS
 62
   212
 10
31.9723110076027
 20
7.31863662089072
 30
0.0
 11
33.4731716256704
 21
7.31886397684095
 31
0.0
  0
LINE
  5
   3E0
  8
0
  6
CONTINUOUS
 62
   212
 10
29.6310267635242
 20
7.31827956421715
 30
0.0
 11
31.9723079263417
 21
7.31863509401214
 31
0.0
  0
LINE
  5
   3E1
  8
0
  6
CONTINUOUS
 62
   212
 10
23.4037683168155
 20
7.31733351911122
 30
0.0
 11
29.6310267103902
 21
7.31827956403368
 31
0.0
  0
LINE
  5
   3E2
  8
0
  6
CONTINUOUS
 62
   212
 10
20.1273577807842
 20
7.31683619339605
 30
0.0
 11
24.9867145426474
 21
7.31733362991984
 31
0.0
  0
LINE
  5
   3E3
  8
0
  6
CONTINUOUS
 62
   212
 10
17.1699946254844
 20
7.31638818625811
 30
0.0
 11
20.1273555238587
 21
7.31712060812619
 31
0.0
  0
LINE
  5
   3E4
  8
0
  6
CONTINUOUS
 62
   212
 10
14.8211661090148
 20
7.31603280395425
 30
0.0
 11
17.1699943197488
 21
7.31652871460905
 31
0.0
  0
LINE
  5
   3E5
  8
0
  6
CONTINUOUS
 62
   212
 10
13.3107995203948
 20
7.31580291707034
 30
0.0
 11
14.8211694159479
 21
7.31610351521106
 31
0.0
  0
LINE
  5
   3E6
  8
0
  6
CONTINUOUS
 62
   212
 10
12.7867286734216
 20
7.31572511090793
 30
0.0
 11
13.310799420977
 21
7.31582734479509
 31
0.0
  0
LINE
  5
   3E7
  8
0
  6
CONTINUOUS
 62
   212
 10
14.8011219753403
 20
7.31603194348932
 30
0.0
 11
14.8211689727093
 21
7.31603499524724
 31
0.0
  0
LINE
  5
   3E8
  8
0
  6
CONTINUOUS
 62
   212
 10
17.1424033200077
 20
7.31638743505386
 30
0.0
 11
17.1699973145595
 21
7.31639201269068
 31
0.0
  0
LINE
  5
   3E9
  8
0
  6
CONTINUOUS
 62
   212
 10
20.1273577807842
 20
7.31683619339605
 30
0.0
 11
24.9867145426474
 21
7.31733362991984
 31
0.0
  0
LINE
  5
   3EA
  8
0
  6
CONTINUOUS
 62
   212
 10
23.4037673525863
 20
7.31733372211465
 30
0.0
 11
25.3867141594783
 21
7.31733372211465
 31
0.0
  0
LINE
  5
   3EB
  8
0
  6
CONTINUOUS
 62
   212
 10
25.3867162351231
 20
7.31733328516935
 30
0.0
 11
29.6310278218058
 21
7.31827933009399
 31
0.0
  0
LINE
  5
   3EC
  8
0
  6
CONTINUOUS
 62
   212
 10
25.6795357723684
 20
7.31733321799149
 30
0.0
 11
29.6310281408205
 21
7.31827926295427
 31
0.0
  0
LINE
  5
   3ED
  8
0
  6
CONTINUOUS
 62
   212
 10
25.7867166954841
 20
7.31733318950515
 30
0.0
 11
29.6310282762063
 21
7.31827923446211
 31
0.0
  0
LINE
  5
   3EE
  8
0
  6
CONTINUOUS
 62
   212
 10
24.9867141535178
 20
7.31733372211465
 30
0.0
 11
25.7867141654388
 21
7.31733372211465
 31
0.0
  0
LINE
  5
   3EF
  8
0
  6
CONTINUOUS
 62
   212
 10
25.5450722092778
 20
7.31731339424323
 30
0.0
 11
29.6310280807101
 21
7.31827927560481
 31
0.0
  0
LINE
  5
   3F0
  8
0
  6
CONTINUOUS
 62
   212
 10
32.3867081602707
 20
9.51732917726042
 30
0.0
 11
32.9867081692114
 21
9.51732917726042
 31
0.0
  0
LINE
  5
   3F1
  8
0
  6
CONTINUOUS
 62
   212
 10
34.5867081930533
 20
9.51732917726042
 30
0.0
 11
35.186708201994
 21
9.51732917726042
 31
0.0
  0
LINE
  5
   3F2
  8
0
  6
CONTINUOUS
 62
   212
 10
32.9867081692114
 20
9.51732917726042
 30
0.0
 11
34.5867081930533
 21
9.51732917726042
 31
0.0
  0
LINE
  5
   3F3
  8
0
  6
CONTINUOUS
 62
   212
 10
32.9867081692114
 20
8.71739477813344
 30
0.0
 11
32.9867081692114
 21
9.51732917726042
 31
0.0
  0
LINE
  5
   3F4
  8
0
  6
CONTINUOUS
 62
   212
 10
34.5867081930533
 20
8.71739477813344
 30
0.0
 11
34.5867081930533
 21
9.51732917726042
 31
0.0
  0
LINE
  5
   3F5
  8
0
  6
CONTINUOUS
 62
   212
 10
32.3867081602707
 20
9.91739479601483
 30
0.0
 11
35.186708201994
 21
9.91739479601483
 31
0.0
  0
LINE
  5
   3F6
  8
0
  6
CONTINUOUS
 62
   212
 10
35.186708201994
 20
8.71739477813344
 30
0.0
 11
35.186708201994
 21
9.91739479601483
 31
0.0
  0
LINE
  5
   3F7
  8
0
  6
CONTINUOUS
 62
   212
 10
32.3867081602707
 20
8.71739477813344
 30
0.0
 11
35.186708201994
 21
8.71739477813344
 31
0.0
  0
LINE
  5
   3F8
  8
0
  6
CONTINUOUS
 62
   212
 10
32.3867081602707
 20
8.71739477813344
 30
0.0
 11
32.3867081602707
 21
9.91739479601483
 31
0.0
  0
LINE
  5
   3F9
  8
0
  6
CONTINUOUS
 62
   212
 10
54.640289381153
 20
7.86377710271433
 30
0.0
 11
54.7867249276473
 21
8.2173308769615
 31
0.0
  0
LINE
  5
   3FA
  8
0
  6
CONTINUOUS
 62
   212
 10
54.2867385622118
 20
7.71733066303598
 30
0.0
 11
54.6402908118244
 21
7.86377689122035
 31
0.0
  0
LINE
  5
   3FB
  8
0
  6
CONTINUOUS
 62
   212
 10
52.0902729070017
 20
11.117335304618
 30
0.0
 11
52.0902729070017
 21
11.9173322647811
 31
0.0
  0
LINE
  5
   3FC
  8
0
  6
CONTINUOUS
 62
   212
 10
50.9867267479795
 20
11.1173337787391
 30
0.0
 11
50.9867267479795
 21
11.91733379066
 31
0.0
  0
LINE
  5
   3FD
  8
0
  6
CONTINUOUS
 62
   212
 10
48.7866656800775
 20
11.9173353165352
 30
0.0
 11
52.7866779467136
 21
11.9173322647773
 31
0.0
  0
LINE
  5
   3FE
  8
0
  6
CONTINUOUS
 62
   212
 10
48.7866656871335
 20
11.9173353134741
 30
0.0
 11
48.7866778941649
 21
11.1173307238901
 31
0.0
  0
LINE
  5
   3FF
  8
0
  6
CONTINUOUS
 62
   212
 10
48.7866778872224
 20
11.1173307269651
 30
0.0
 11
52.786677946827
 21
11.1173368304809
 31
0.0
  0
LINE
  5
   400
  8
0
  6
CONTINUOUS
 62
   212
 10
52.7866779466758
 20
11.1173368304969
 30
0.0
 11
52.7866779466758
 21
11.9173322647811
 31
0.0
  0
LINE
  5
   401
  8
0
  6
CONTINUOUS
 62
   212
 10
48.7866778926799
 20
11.1173810803508
 30
0.0
 11
50.2180866054158
 21
11.1173948132605
 31
0.0
  0
LINE
  5
   402
  8
0
  6
CONTINUOUS
 62
   253
 10
12.7866376777772
 20
-9.47476857888842
 30
0.0
 11
33.9866379936818
 21
-9.47476857888842
 31
0.0
  0
LINE
  5
   403
  8
0
  6
CONTINUOUS
 62
   253
 10
10.3867152102541
 20
-8.57476856548014
 30
0.0
 11
10.3867152102541
 21
-3.67476849246446
 31
0.0
  0
LINE
  5
   404
  8
0
  6
CONTINUOUS
 62
   253
 10
52.3867084582939
 20
-8.57476856547737
 30
0.0
 11
52.3867084582939
 21
-3.67476849246168
 31
0.0
  0
LINE
  5
   405
  8
0
  6
CONTINUOUS
 62
   253
 10
10.8867047881379
 20
-9.07476857292795
 30
0.0
 11
51.8867084508434
 21
-9.07476857292795
 31
0.0
  0
LINE
  5
   406
  8
0
  6
CONTINUOUS
 62
   253
 10
10.3867063065662
 20
-3.67476849246168
 30
0.0
 11
52.386706932415
 21
-3.67476849246168
 31
0.0
  0
LINE
  5
   407
  8
0
  6
CONTINUOUS
 62
   253
 10
10.3867046396509
 20
-8.57476830064121
 30
0.0
 11
10.5331508678353
 21
-8.92832055025381
 31
0.0
  0
LINE
  5
   408
  8
0
  6
CONTINUOUS
 62
   253
 10
10.5331540647081
 20
-8.92832344503843
 30
0.0
 11
10.8867078460351
 21
-9.07477120603731
 31
0.0
  0
LINE
  5
   409
  8
0
  6
CONTINUOUS
 62
   253
 10
51.8867128775674
 20
-9.07476923701616
 30
0.0
 11
52.2402651312056
 21
-8.92832147830228
 31
0.0
  0
LINE
  5
   40A
  8
0
  6
CONTINUOUS
 62
   253
 10
52.2402632627806
 20
-8.92832243851108
 30
0.0
 11
52.3867110214945
 21
-8.57477018487289
 31
0.0
  0
LINE
  5
   40B
  8
0
  6
CONTINUOUS
 62
   253
 10
29.9867081245079
 20
-7.27476854610586
 30
0.0
 11
30.5867081334486
 21
-7.27476854610586
 31
0.0
  0
LINE
  5
   40C
  8
0
  6
CONTINUOUS
 62
   253
 10
32.1867081572905
 20
-7.27476854610586
 30
0.0
 11
32.7867081662312
 21
-7.27476854610586
 31
0.0
  0
LINE
  5
   40D
  8
0
  6
CONTINUOUS
 62
   253
 10
30.5867081334486
 20
-7.27476854610586
 30
0.0
 11
32.1867081572905
 21
-7.27476854610586
 31
0.0
  0
LINE
  5
   40E
  8
0
  6
CONTINUOUS
 62
   253
 10
29.9867081245079
 20
-6.87470140147252
 30
0.0
 11
32.7867081662312
 21
-6.87470140147252
 31
0.0
  0
LINE
  5
   40F
  8
0
  6
CONTINUOUS
 62
   253
 10
32.7867081662312
 20
-8.07470141935391
 30
0.0
 11
32.7867081662312
 21
-6.87470140147252
 31
0.0
  0
LINE
  5
   410
  8
0
  6
CONTINUOUS
 62
   253
 10
29.9867081245079
 20
-8.07470141935391
 30
0.0
 11
32.7867081662312
 21
-8.07470141935391
 31
0.0
  0
LINE
  5
   411
  8
0
  6
CONTINUOUS
 62
   253
 10
29.9867081245079
 20
-8.07470141935391
 30
0.0
 11
29.9867081245079
 21
-6.87470140147252
 31
0.0
  0
LINE
  5
   412
  8
0
  6
CONTINUOUS
 62
   253
 10
30.5867081334486
 20
-8.07470141935391
 30
0.0
 11
30.5867081334486
 21
-7.27476854610586
 31
0.0
  0
LINE
  5
   413
  8
0
  6
CONTINUOUS
 62
   253
 10
32.1867081572905
 20
-8.07470141935391
 30
0.0
 11
32.1867081572905
 21
-7.27476854610586
 31
0.0
  0
LINE
  5
   414
  8
0
  6
CONTINUOUS
 62
   130
 10
17.5866926809694
 20
7.11735355555295
 30
0.0
 11
29.1866592844865
 21
7.11734287440057
 31
0.0
  0
LINE
  5
   415
  8
0
  6
CONTINUOUS
 62
   130
 10
12.7866575142286
 20
6.91737033723935
 30
0.0
 11
33.9866959771064
 21
6.91734897493415
 31
0.0
  0
LINE
  5
   416
  8
0
  6
CONTINUOUS
 62
   130
 10
12.786660566008
 20
6.31737032829721
 30
0.0
 11
33.9866929253701
 21
6.31734896599334
 31
0.0
  0
LINE
  5
   417
  8
0
  6
CONTINUOUS
 62
   130
 10
25.9866744955668
 20
1.5168270438835
 30
0.0
 11
25.9866744955668
 21
6.31733828485028
 31
0.0
  0
LINE
  5
   418
  8
0
  6
CONTINUOUS
 62
   130
 10
20.7866744180808
 20
1.5168270438835
 30
0.0
 11
20.7866744180808
 21
6.31734286248707
 31
0.0
  0
LINE
  5
   419
  8
0
  6
CONTINUOUS
 62
   130
 10
20.1866744091401
 20
1.5168270438835
 30
0.0
 11
20.1866744091401
 21
6.31736287164141
 31
0.0
  0
LINE
  5
   41A
  8
0
  6
CONTINUOUS
 62
   130
 10
26.5866745045075
 20
1.5168270438835
 30
0.0
 11
26.5866745045075
 21
6.31735642265376
 31
0.0
  0
LINE
  5
   41B
  8
0
  6
CONTINUOUS
 62
   130
 10
20.5866744151006
 20
1.11682703792303
 30
0.0
 11
26.1866744985471
 21
1.11682703792303
 31
0.0
  0
LINE
  5
   41C
  8
0
  6
CONTINUOUS
 62
   130
 10
29.1946823558699
 20
5.91734743416339
 30
0.0
 11
29.1946823558699
 21
6.31733218133456
 31
0.0
  0
LINE
  5
   41D
  8
0
  6
CONTINUOUS
 62
   130
 10
29.1946823558699
 20
5.91734743416339
 30
0.0
 11
33.1946824154745
 21
5.91734743416339
 31
0.0
  0
LINE
  5
   41E
  8
0
  6
CONTINUOUS
 62
     2
 10
12.7866331001404
 20
-9.67476858186865
 30
0.0
 11
13.2845670675212
 21
-9.67476858186865
 31
0.0
  0
LINE
  5
   41F
  8
0
  6
CONTINUOUS
 62
     2
 10
13.3298810940753
 20
-9.67476858186865
 30
0.0
 11
14.7178022573351
 21
-9.67476858186865
 31
0.0
  0
LINE
  5
   420
  8
0
  6
CONTINUOUS
 62
     2
 10
14.8843763564969
 20
-9.67476858186865
 30
0.0
 11
16.6553480625739
 21
-9.67476858186865
 31
0.0
  0
LINE
  5
   421
  8
0
  6
CONTINUOUS
 62
     2
 10
31.7927384248574
 20
-9.67476858186865
 30
0.0
 11
36.376487882809
 21
-9.67476858186865
 31
0.0
  0
LINE
  5
   422
  8
0
  6
CONTINUOUS
 62
     2
 10
14.3866346498612
 20
-23.0747687815442
 30
0.0
 11
47.78663514756
 21
-23.0747687815442
 31
0.0
  0
LINE
  5
   423
  8
0
  6
CONTINUOUS
 62
     2
 10
49.3866351714018
 20
-21.4747687577024
 30
0.0
 11
49.3866351714018
 21
-15.8747686742558
 31
0.0
  0
LINE
  5
   424
  8
0
  6
CONTINUOUS
 62
     2
 10
18.2553480864158
 20
-15.8747686742558
 30
0.0
 11
30.1927384010155
 21
-15.8747686742558
 31
0.0
  0
LINE
  5
   425
  8
0
  6
CONTINUOUS
 62
     2
 10
13.2845655416422
 20
-9.67476858186865
 30
0.0
 11
13.3298795681964
 21
-9.67476858186865
 31
0.0
  0
LINE
  5
   426
  8
0
  6
CONTINUOUS
 62
     2
 10
14.7178022573351
 20
-9.67476858186865
 30
0.0
 11
14.8843763564969
 21
-9.67476858186865
 31
0.0
  0
LINE
  5
   427
  8
0
  6
CONTINUOUS
 62
     2
 10
16.6553480625739
 20
-9.67476858186865
 30
0.0
 11
31.7927384248574
 21
-9.67476858186865
 31
0.0
  0
LINE
  5
   428
  8
0
  6
CONTINUOUS
 62
     2
 10
36.376487882809
 20
-14.274768650414
 30
0.0
 11
36.376487882809
 21
-9.67476858186865
 31
0.0
  0
LINE
  5
   429
  8
0
  6
CONTINUOUS
 62
     2
 10
36.3383515688914
 20
-15.8747686742558
 30
0.0
 11
49.3866351714018
 21
-15.8747686742558
 31
0.0
  0
LINE
  5
   42A
  8
0
  6
CONTINUOUS
 62
   212
 10
33.9866415869047
 20
7.71733179842714
 30
0.0
 11
33.9867026220646
 21
7.31894159474183
 31
0.0
  0
LINE
  5
   42B
  8
0
  6
CONTINUOUS
 62
   212
 10
12.7866074433038
 20
8.11571897262042
 30
0.0
 11
12.7867279877392
 21
7.31572506422523
 31
0.0
  0
LINE
  5
   42C
  8
0
  6
CONTINUOUS
 62
   212
 10
13.2855390663276
 20
7.71781132347023
 30
0.0
 11
33.8900742854684
 21
7.71732914571514
 31
0.0
  0
LINE
  5
   42D
  8
0
  6
CONTINUOUS
 62
   212
 10
54.5867068172253
 20
7.91557987767004
 30
0.0
 11
54.6390261525148
 21
7.86325443832115
 31
0.0
  0
LINE
  5
   42E
  8
0
  6
CONTINUOUS
 62
   212
 10
12.9326555677584
 20
7.86496621484049
 30
0.0
 11
12.9855165929381
 21
7.91782876394314
 31
0.0
  0
LINE
  5
   42F
  8
0
  6
CONTINUOUS
 62
   212
 10
34.6938950842989
 20
9.51733222901828
 30
0.0
 11
34.6938950842989
 21
9.91739479601483
 31
0.0
  0
LINE
  5
   430
  8
0
  6
CONTINUOUS
 62
   212
 10
33.0131119781986
 20
9.51733222901828
 30
0.0
 11
33.0131119781986
 21
9.91739479601483
 31
0.0
  0
LINE
  5
   431
  8
0
  6
CONTINUOUS
 62
   253
 10
12.7866376777772
 20
-9.47476857888842
 30
0.0
 11
12.7866376777772
 21
-9.07476857292795
 31
0.0
  0
LINE
  5
   432
  8
0
  6
CONTINUOUS
 62
   253
 10
33.9866379936818
 20
-9.47476857888842
 30
0.0
 11
33.9866379936818
 21
-9.07476857292795
 31
0.0
  0
LINE
  5
   433
  8
0
  6
CONTINUOUS
 62
   130
 10
18.0866774296055
 20
7.11735202968157
 30
0.0
 11
18.0866774296055
 21
7.31652653216122
 31
0.0
  0
LINE
  5
   434
  8
0
  6
CONTINUOUS
 62
   130
 10
28.6866775875578
 20
7.11734134852907
 30
0.0
 11
28.6866775875578
 21
7.3181363344313
 31
0.0
  0
LINE
  5
   435
  8
0
  6
CONTINUOUS
 62
   130
 10
17.5866926809442
 20
6.91735355258027
 30
0.0
 11
17.5866926809442
 21
7.1173535555605
 31
0.0
  0
LINE
  5
   436
  8
0
  6
CONTINUOUS
 62
   130
 10
29.1866592892733
 20
7.11734287042652
 30
0.0
 11
29.1866623410312
 21
6.91734286744629
 31
0.0
  0
LINE
  5
   437
  8
0
  6
CONTINUOUS
 62
   130
 10
12.7866575145258
 20
6.91737033749279
 30
0.0
 11
12.7866605662838
 21
6.31737032855209
 31
0.0
  0
LINE
  5
   438
  8
0
  6
CONTINUOUS
 62
   130
 10
33.9866929259199
 20
6.31734896411256
 30
0.0
 11
33.9866959776779
 21
6.91734897305326
 31
0.0
  0
LINE
  5
   439
  8
0
  6
CONTINUOUS
 62
   130
 10
33.1946824154745
 20
5.91734743416339
 30
0.0
 11
33.1946824154745
 21
6.31734744012385
 31
0.0
  0
LINE
  5
   43A
  8
0
  6
CONTINUOUS
 62
     2
 10
12.7866331001404
 20
-21.4747687577024
 30
0.0
 11
12.7866331001404
 21
-14.274768650414
 31
0.0
  0
LINE
  5
   43B
  8
0
  6
CONTINUOUS
 62
     2
 10
12.7866331001404
 20
-14.274768650414
 30
0.0
 11
12.7866331001404
 21
-9.67476858186865
 31
0.0
  0
LINE
  5
   43C
  8
0
  6
CONTINUOUS
 62
     2
 10
28.0365082266895
 20
-15.8925062435285
 30
0.0
 11
28.161053518627
 21
-15.8747694261925
 31
0.0
  0
LINE
  5
   43D
  8
0
  6
CONTINUOUS
 62
     2
 10
31.7927384248574
 20
-14.274768650414
 30
0.0
 11
31.7927384248574
 21
-9.67476858186865
 31
0.0
  0
LINE
  5
   43E
  8
0
  6
CONTINUOUS
 62
     2
 10
16.6553480625739
 20
-14.274768650414
 30
0.0
 11
16.6553480625739
 21
-9.67476858186865
 31
0.0
  0
CIRCLE
  5
   43F
  8
0
  6
CONTINUOUS
 62
   130
 10
23.3866767765508
 20
3.71733819567741
 30
0.0
 40
1.00000202810134
  0
ARC
  5
   440
  8
0
  6
CONTINUOUS
 62
     7
 10
20.5866744151006
 20
1.5168270438835
 30
0.0
 40
0.400000005960464
 50
180.0
 51
270.0
  0
ARC
  5
   441
  8
0
  6
CONTINUOUS
 62
     7
 10
26.1866744985471
 20
1.5168270438835
 30
0.0
 40
0.400000005960464
 50
270.0
 51
360.0
  0
LINE
  5
   442
  8
0
  6
DASHDOT
 62
     7
 10
23.3866767765508
 20
-25.225248644597
 30
0.0
 11
23.3866767765508
 21
5.51734023569968
 31
0.0
  0
LINE
  5
   443
  8
0
  6
DASHDOT
 62
     7
 10
21.5866747365285
 20
3.71733819567741
 30
0.0
 11
25.1866788165731
 21
3.71733819567741
 31
0.0
  0
LINE
  5
   444
  8
0
  6
CONTINUOUS
 62
     7
 10
25.3866768063531
 20
-0.474768444777961
 30
0.0
 11
25.3866768063531
 21
1.11682703792303
 31
0.0
  0
LINE
  5
   445
  8
0
  6
CONTINUOUS
 62
     7
 10
21.3866767467485
 20
-0.474768444777961
 30
0.0
 11
21.3866767467485
 21
1.11682703792303
 31
0.0
  0
LINE
  5
   446
  8
0
  6
CONTINUOUS
 62
     7
 10
4.88449786432856
 20
-2.87476848054075
 30
0.0
 11
73.1998366503708
 21
-2.87476848054075
 31
0.0
  0
ARC
  5
   447
  8
0
  6
CONTINUOUS
 62
     2
 10
18.2553480864158
 20
-14.274768650414
 30
0.0
 40
1.60000002384186
 50
180.0
 51
270.0
  0
ARC
  5
   448
  8
0
  6
CONTINUOUS
 62
     7
 10
30.1927384010155
 20
-14.274768650414
 30
0.0
 40
1.60000002384186
 50
270.0
 51
360.0
  0
ARC
  5
   449
  8
0
  6
CONTINUOUS
 62
     2
 10
37.9764879066508
 20
-14.274768650414
 30
0.0
 40
1.60000002384186
 50
180.0
 51
270.0
  0
ARC
  5
   44A
  8
0
  6
CONTINUOUS
 62
     2
 10
36.3383515688914
 20
-14.274768650414
 30
0.0
 40
1.60000002384186
 50
180.0
 51
270.0
  0
LINE
  5
   44B
  8
0
  6
CONTINUOUS
 62
   170
 10
17.9866766960845
 20
-0.474768444777961
 30
0.0
 11
28.7866768570171
 21
-0.474768444777961
 31
0.0
  0
LINE
  5
   44C
  8
0
  6
CONTINUOUS
 62
   170
 10
28.7866768570171
 20
-2.87476848054075
 30
0.0
 11
28.7866768570171
 21
-0.474768444777961
 31
0.0
  0
LINE
  5
   44D
  8
0
  6
CONTINUOUS
 62
   170
 10
17.9866766960845
 20
-2.87476848054075
 30
0.0
 11
17.9866766960845
 21
-0.474768444777961
 31
0.0
  0
LINE
  5
   44E
  8
0
  6
CONTINUOUS
 62
   170
 10
29.3866768659578
 20
-2.87476848054075
 30
0.0
 11
29.3866768659578
 21
-1.07476845371866
 31
0.0
  0
LINE
  5
   44F
  8
0
  6
CONTINUOUS
 62
   170
 10
17.3866766871438
 20
-2.87476848054075
 30
0.0
 11
17.3866766871438
 21
-1.07476845371866
 31
0.0
  0
LINE
  5
   450
  8
0
  6
CONTINUOUS
 62
   170
 10
17.3866766871438
 20
-1.07476845371867
 30
0.0
 11
17.9866766960845
 21
-0.474768444777972
 31
0.0
  0
LINE
  5
   451
  8
0
  6
CONTINUOUS
 62
   170
 10
28.7866768570171
 20
-0.474768444777958
 30
0.0
 11
29.3866768659578
 21
-1.07476845371865
 31
0.0
  0
ARC
  5
   452
  8
0
  6
CONTINUOUS
 62
     2
 10
14.3866351698855
 20
-21.4747682959352
 30
0.0
 40
1.60000264261151
 50
179.999967460554
 51
270.000067551031
  0
ARC
  5
   453
  8
0
  6
CONTINUOUS
 62
     2
 10
47.7866460059457
 20
-21.4747768305869
 30
0.0
 40
1.59998745994267
 50
269.999554425262
 51
360.000377088522
  0
LINE
  5
   454
  8
0
  6
CONTINUOUS
 62
     7
 10
73.1998366503708
 20
-6.10846114375149
 30
0.0
 11
73.1998366503708
 21
9.17276196737049E-2
 31
0.0
  0
LINE
  5
   455
  8
0
  6
CONTINUOUS
 62
     7
 10
12.7867036328973
 20
11.9190491950741
 30
0.0
 11
54.7867227006053
 21
11.9155623800521
 31
0.0
  0
LINE
  5
   456
  8
0
  6
CONTINUOUS
 62
     7
 10
4.88449786432856
 20
-3.67476849246168
 30
0.0
 11
73.1998366503708
 21
-3.67476849246168
 31
0.0
  0
CIRCLE
  5
   457
  8
0
  6
CONTINUOUS
 62
     7
 10
71.599836626529
 20
-2.07476846861982
 30
0.0
 40
0.800000011920929
  0
LINE
  5
   458
  8
0
  6
DASHDOT
 62
     7
 10
71.599836626529
 20
-28.501472025071
 30
0.0
 11
71.599836626529
 21
-0.474768444777965
 31
0.0
  0
LINE
  5
   459
  8
0
  6
DASHDOT
 62
     7
 10
69.9998366026871
 20
-2.07476846861982
 30
0.0
 11
73.1998366503708
 21
-2.07476846861982
 31
0.0
  0
LINE
  5
   45A
  8
0
  6
DASHDOT
 62
     7
 10
33.7866769315229
 20
-24.8568162345769
 30
0.0
 11
33.7866769315229
 21
15.3054161733113
 31
0.0
  0
LINE
  5
   45B
  8
0
  6
CONTINUOUS
 62
     7
 10
4.88449786432856
 20
-7.09802286469898
 30
0.0
 11
4.88449786432856
 21
0.285511386555083
 31
0.0
  0
ARC
  5
   45C
  8
0
  6
CONTINUOUS
 62
     7
 10
25.5866744896064
 20
1.5168270438835
 30
0.0
 40
0.400000005960464
 50
270.0
 51
360.0
  0
ARC
  5
   45D
  8
0
  6
CONTINUOUS
 62
     7
 10
21.1866744240413
 20
1.5168270438835
 30
0.0
 40
0.400000005960464
 50
180.0
 51
270.0
  0
CIRCLE
  5
   45E
  8
0
  6
CONTINUOUS
 62
     3
 10
23.3866767765508
 20
3.71733819567741
 30
0.0
 40
1.60000002384186
  0
LINE
  5
   45F
  8
0
  6
CONTINUOUS
 62
     3
 10
21.7866767527089
 20
4.6410986401459
 30
0.0
 11
23.3866767765508
 21
5.5648590846144
 31
0.0
  0
LINE
  5
   460
  8
0
  6
CONTINUOUS
 62
     3
 10
23.3866767765508
 20
5.56485908461442
 30
0.0
 11
24.9866768003927
 21
4.64109864014592
 31
0.0
  0
LINE
  5
   461
  8
0
  6
CONTINUOUS
 62
     3
 10
23.3866767765508
 20
1.86981730674038
 30
0.0
 11
24.9866768003927
 21
2.79357775120888
 31
0.0
  0
LINE
  5
   462
  8
0
  6
CONTINUOUS
 62
     3
 10
21.7866767527089
 20
2.7935777512089
 30
0.0
 11
23.3866767765508
 21
1.8698173067404
 31
0.0
  0
LINE
  5
   463
  8
0
  6
CONTINUOUS
 62
     3
 10
21.7866767527089
 20
2.7935777512089
 30
0.0
 11
21.7866767527089
 21
4.64109864014592
 31
0.0
  0
LINE
  5
   464
  8
0
  6
CONTINUOUS
 62
     3
 10
24.9866768003927
 20
2.7935777512089
 30
0.0
 11
24.9866768003927
 21
4.64109864014592
 31
0.0
  0
LINE
  5
   465
  8
0
  6
DASHDOT
 62
     7
 10
23.3866767765508
 20
1.31733815991462
 30
0.0
 11
23.3866767765508
 21
6.1173382314402
 31
0.0
  0
LINE
  5
   466
  8
0
  6
DASHDOT
 62
     7
 10
20.986676740788
 20
3.7173381956774
 30
0.0
 11
25.7866768123136
 21
3.7173381956774
 31
0.0
  0
CIRCLE
  5
   467
  8
0
  6
CONTINUOUS
 62
     3
 10
23.3866767765508
 20
3.71733819567741
 30
0.0
 40
1.00000001490116
  0
ARC
  5
   468
  8
0
  6
CONTINUOUS
 62
     7
 10
23.3866767765508
 20
3.71733819567741
 30
0.0
 40
0.840000012516975
 50
270.0
 51
540.0
  0
TEXT
  5
   469
  8
0
  6
CONTINUOUS
 62
     7
 10
32.1489546343433
 20
17.895362678635
 30
0.0
 40
2.99999994933605
  1
Y
 50
360.0
 41
0.91666673368878
 11
32.1489546343282
 21
20.8953626279711
 31
0.0
 73
     3
  0
TEXT
  5
   46A
  8
0
  6
CONTINUOUS
 62
     7
 10
32.9672164606459
 20
-39.5929269874715
 30
0.0
 40
2.99999994933605
  1
Y
 50
360.0
 41
0.91666673368878
 11
32.9672164606308
 21
-36.5929270381354
 31
0.0
 73
     3
  0
INSERT
  5
   46B
  8
0
  6
CONTINUOUS
 62
     7
  2
*UDIM555
 10
0.0
 20
0.0
 30
0.0
  0
LINE
  5
   46C
  8
0
  6
CONTINUOUS
 62
     7
 10
241.261224763811
 20
90.6798921122834
 30
0.0
 11
242.661224784673
 21
90.6798921122834
 31
0.0
  0
LINE
  5
   46D
  8
0
  6
CONTINUOUS
 62
     7
 10
241.261224763811
 20
48.679903693466
 30
0.0
 11
242.661224784673
 21
48.679903693466
 31
0.0
  0
LINE
  5
   46E
  8
0
  6
CONTINUOUS
 62
     7
 10
241.261224763811
 20
48.679903693466
 30
0.0
 11
241.261224763811
 21
90.6798921122834
 31
0.0
  0
LINE
  5
   46F
  8
0
  6
CONTINUOUS
 62
     7
 10
240.46122475189
 20
90.6798921122834
 30
0.0
 11
241.261224763811
 21
90.6798921122834
 31
0.0
  0
LINE
  5
   470
  8
0
  6
CONTINUOUS
 62
     7
 10
258.261212725402
 20
56.6798353537926
 30
0.0
 11
258.261212725402
 21
61.4798399381895
 31
0.0
  0
LINE
  5
   471
  8
0
  6
DASHDOT
 62
     3
 10
341.369781381446
 20
69.679891799359
 30
0.0
 11
345.280232320821
 21
69.679891799359
 31
0.0
  0
LINE
  5
   472
  8
0
  6
DASHDOT
 62
     3
 10
192.165244599812
 20
69.679891799359
 30
0.0
 11
370.648614115961
 21
69.679891799359
 31
0.0
  0
LINE
  5
   473
  8
0
  6
CONTINUOUS
 62
     2
 10
344.03314110207
 20
82.3545243124586
 30
0.0
 11
344.03314110207
 21
84.8797074555555
 31
0.0
  0
LINE
  5
   474
  8
0
  6
CONTINUOUS
 62
     2
 10
344.03314110207
 20
67.8797300293664
 30
0.0
 11
344.03314110207
 21
70.2797300651292
 31
0.0
  0
LINE
  5
   475
  8
0
  6
CONTINUOUS
 62
     2
 10
357.433141301746
 20
67.6828641817063
 30
0.0
 11
357.433141301746
 21
80.8765930160035
 31
0.0
  0
LINE
  5
   476
  8
0
  6
CONTINUOUS
 62
     2
 10
350.233141194457
 20
65.2797299906234
 30
0.0
 11
350.233141194457
 21
67.8797300293664
 31
0.0
  0
LINE
  5
   477
  8
0
  6
CONTINUOUS
 62
     2
 10
350.233141194457
 20
80.6797302201013
 30
0.0
 11
350.233141194457
 21
83.2797302588443
 31
0.0
  0
LINE
  5
   478
  8
0
  6
CONTINUOUS
 62
     2
 10
344.03314110207
 20
63.6797299667815
 30
0.0
 11
344.03314110207
 21
67.8797300293664
 31
0.0
  0
LINE
  5
   479
  8
0
  6
CONTINUOUS
 62
     2
 10
344.03314110207
 20
80.6797302201013
 30
0.0
 11
344.03314110207
 21
84.8797302826861
 31
0.0
  0
LINE
  5
   47A
  8
0
  6
CONTINUOUS
 62
     2
 10
350.233141194457
 20
67.8797300293664
 30
0.0
 11
350.233141194457
 21
80.6797302201013
 31
0.0
  0
LINE
  5
   47B
  8
0
  6
CONTINUOUS
 62
   212
 10
241.261212327878
 20
90.6799134750131
 30
0.0
 11
258.060954872156
 21
90.6798524398562
 31
0.0
  0
LINE
  5
   47C
  8
0
  6
CONTINUOUS
 62
   212
 10
241.261212472084
 20
48.679903693466
 30
0.0
 11
258.060716811771
 21
48.679903693466
 31
0.0
  0
LINE
  5
   47D
  8
0
  6
CONTINUOUS
 62
   212
 10
241.26121230519
 20
89.6799134596832
 30
0.0
 11
241.26121230519
 21
90.6799134745844
 31
0.0
  0
LINE
  5
   47E
  8
0
  6
CONTINUOUS
 62
   212
 10
241.26121230519
 20
79.6481567184015
 30
0.0
 11
241.26121230519
 21
86.1798279583091
 31
0.0
  0
LINE
  5
   47F
  8
0
  6
CONTINUOUS
 62
   212
 10
241.26121230519
 20
57.1481411243361
 30
0.0
 11
241.26121230519
 21
78.8481567064806
 31
0.0
  0
LINE
  5
   480
  8
0
  6
CONTINUOUS
 62
   212
 10
241.26121230519
 20
52.1799312114368
 30
0.0
 11
241.26121230519
 21
56.3481411124152
 31
0.0
  0
LINE
  5
   481
  8
0
  6
CONTINUOUS
 62
   212
 10
241.26121230519
 20
48.679903693462
 30
0.0
 11
241.26121230519
 21
50.1799327075134
 31
0.0
  0
LINE
  5
   482
  8
0
  6
CONTINUOUS
 62
   212
 10
258.261211199523
 20
44.279729677699
 30
0.0
 11
258.261211199523
 21
90.4793754396276
 31
0.0
  0
LINE
  5
   483
  8
0
  6
CONTINUOUS
 62
   212
 10
241.26121230519
 20
49.6799006566053
 30
0.0
 11
241.263009027628
 21
49.6799006566053
 31
0.0
  0
LINE
  5
   484
  8
0
  6
CONTINUOUS
 62
   212
 10
258.661205764595
 20
83.0798833081014
 30
0.0
 11
258.662507339359
 21
80.5241765584376
 31
0.0
  0
LINE
  5
   485
  8
0
  6
CONTINUOUS
 62
   212
 10
258.661207306652
 20
83.079893378358
 30
0.0
 11
258.662263214827
 21
79.2797651479194
 31
0.0
  0
LINE
  5
   486
  8
0
  6
CONTINUOUS
 62
   212
 10
258.661206922694
 20
83.079890871403
 30
0.0
 11
258.661902723508
 21
79.2797626409707
 31
0.0
  0
LINE
  5
   487
  8
0
  6
CONTINUOUS
 62
   212
 10
258.661206769482
 20
83.0798898102018
 30
0.0
 11
258.661688947215
 21
79.2797615797953
 31
0.0
  0
LINE
  5
   488
  8
0
  6
CONTINUOUS
 62
   212
 10
258.661206694025
 20
83.0798893789514
 30
0.0
 11
258.661536283862
 21
79.279761148498
 31
0.0
  0
LINE
  5
   489
  8
0
  6
CONTINUOUS
 62
   212
 10
258.661206682352
 20
83.0798892791816
 30
0.0
 11
258.66150575461
 21
79.2797610487131
 31
0.0
  0
LINE
  5
   48A
  8
0
  6
CONTINUOUS
 62
   212
 10
258.661206654085
 20
83.0798891072513
 30
0.0
 11
258.66141417362
 21
79.2797608769274
 31
0.0
  0
LINE
  5
   48B
  8
0
  6
CONTINUOUS
 62
   212
 10
258.66120663594
 20
79.7326111147971
 30
0.0
 11
258.66122036885
 21
79.279760766108
 31
0.0
  0
LINE
  5
   48C
  8
0
  6
CONTINUOUS
 62
   212
 10
241.262971953539
 20
53.125011791501
 30
0.0
 11
241.2629742662
 21
52.1799312114118
 31
0.0
  0
LINE
  5
   48D
  8
0
  6
CONTINUOUS
 62
   212
 10
241.262979177623
 20
50.1799311841037
 30
0.0
 11
241.262980417399
 21
49.6799021841397
 31
0.0
  0
LINE
  5
   48E
  8
0
  6
CONTINUOUS
 62
   212
 10
241.262972028703
 20
86.1798300258176
 30
0.0
 11
241.262982161494
 21
86.2346395969563
 31
0.0
  0
LINE
  5
   48F
  8
0
  6
CONTINUOUS
 62
   212
 10
241.262944583326
 20
86.6768557006224
 30
0.0
 11
241.262963418395
 21
86.2942201968796
 31
0.0
  0
LINE
  5
   490
  8
0
  6
CONTINUOUS
 62
   212
 10
241.262925795741
 20
87.5365784917459
 30
0.0
 11
241.26294167442
 21
86.7479371226289
 31
0.0
  0
LINE
  5
   491
  8
0
  6
CONTINUOUS
 62
   212
 10
241.262918857725
 20
88.4780701841481
 30
0.0
 11
241.262923196943
 21
87.7874085531616
 31
0.0
  0
LINE
  5
   492
  8
0
  6
CONTINUOUS
 62
   212
 10
241.262918595465
 20
88.7548707239824
 30
0.0
 11
241.262923649939
 21
89.4612611152723
 31
0.0
  0
LINE
  5
   493
  8
0
  6
CONTINUOUS
 62
   212
 10
241.262921933382
 20
89.6799134994738
 30
0.0
 11
241.262924722879
 21
89.5675294645994
 31
0.0
  0
LINE
  5
   494
  8
0
  6
CONTINUOUS
 62
   212
 10
241.262963420135
 20
86.2942212936671
 30
0.0
 11
241.26297195552
 21
86.2346387732615
 31
0.0
  0
LINE
  5
   495
  8
0
  6
CONTINUOUS
 62
   212
 10
241.262941674546
 20
86.7479372001971
 30
0.0
 11
241.262944583253
 21
86.6768556561633
 31
0.0
  0
LINE
  5
   496
  8
0
  6
CONTINUOUS
 62
   212
 10
241.26292319695
 20
87.7874085551446
 30
0.0
 11
241.262925795712
 21
87.5365784733746
 31
0.0
  0
LINE
  5
   497
  8
0
  6
CONTINUOUS
 62
   212
 10
241.262978352256
 20
88.4780701801122
 30
0.0
 11
241.262978352256
 21
88.7548707213462
 31
0.0
  0
LINE
  5
   498
  8
0
  6
CONTINUOUS
 62
   212
 10
241.262923649944
 20
89.4612611178717
 30
0.0
 11
241.262924722828
 21
89.5675294303074
 31
0.0
  0
LINE
  5
   499
  8
0
  6
CONTINUOUS
 62
   212
 10
258.060716790604
 20
48.6804041626295
 30
0.0
 11
258.202144402409
 21
48.7389796027294
 31
0.0
  0
LINE
  5
   49A
  8
0
  6
CONTINUOUS
 62
   212
 10
258.202145361151
 20
48.7389812637224
 30
0.0
 11
258.261211199523
 21
48.8815712743542
 31
0.0
  0
LINE
  5
   49B
  8
0
  6
CONTINUOUS
 62
   212
 10
258.202382533772
 20
90.6210975807234
 30
0.0
 11
258.261087673964
 21
90.4796730208585
 31
0.0
  0
LINE
  5
   49C
  8
0
  6
CONTINUOUS
 62
   212
 10
258.060954884558
 20
90.6798527058641
 30
0.0
 11
258.202382497137
 21
90.6211002616513
 31
0.0
  0
LINE
  5
   49D
  8
0
  6
CONTINUOUS
 62
     2
 10
350.233141194457
 20
82.4765930398454
 30
0.0
 11
355.833141277904
 21
82.4765930398454
 31
0.0
  0
LINE
  5
   49E
  8
0
  6
CONTINUOUS
 62
     2
 10
350.233141194457
 20
66.0828641578645
 30
0.0
 11
355.833141277904
 21
66.0828641578645
 31
0.0
  0
LINE
  5
   49F
  8
0
  6
CONTINUOUS
 62
     2
 10
344.03314110207
 20
63.6797299667815
 30
0.0
 11
348.633147234335
 21
63.6797299667815
 31
0.0
  0
LINE
  5
   4A0
  8
0
  6
CONTINUOUS
 62
     2
 10
344.03314110207
 20
84.8797302826862
 30
0.0
 11
348.633141170616
 21
84.8797302826862
 31
0.0
  0
LINE
  5
   4A1
  8
0
  6
CONTINUOUS
 62
   212
 10
258.261208150433
 20
84.8771912270391
 30
0.0
 11
258.662133082455
 21
84.8771851094335
 31
0.0
  0
LINE
  5
   4A2
  8
0
  6
CONTINUOUS
 62
   212
 10
258.261209679671
 20
63.9634274907878
 30
0.0
 11
258.662530257077
 21
63.9634366701943
 31
0.0
  0
ARC
  5
   4A3
  8
0
  6
CONTINUOUS
 62
     2
 10
348.633145523012
 20
83.2797365227043
 30
0.0
 40
1.59999363822779
 50
359.999720152757
 51
450.000090729959
  0
ARC
  5
   4A4
  8
0
  6
CONTINUOUS
 62
     2
 10
348.633147234335
 20
65.2797236082458
 30
0.0
 40
1.59999184878252
 50
269.999805810039
 51
360.000186401615
  0
ARC
  5
   4A5
  8
0
  6
CONTINUOUS
 62
     2
 10
355.833141277904
 20
80.8765930160035
 30
0.0
 40
1.60000002384186
 50
360.0
 51
450.0
  0
ARC
  5
   4A6
  8
0
  6
CONTINUOUS
 62
     2
 10
355.833141277904
 20
67.6828641817063
 30
0.0
 40
1.60000002384186
 50
270.0
 51
360.0
  0
LINE
  5
   4A7
  8
0
  6
DASHDOT
 62
     7
 10
250.083689012337
 20
74.2797301247338
 30
0.0
 11
345.959470863151
 21
74.2797301247338
 31
0.0
  0
LINE
  5
   4A8
  8
0
  6
CONTINUOUS
 62
     7
 10
241.261224763811
 20
48.6799082710988
 30
0.0
 11
241.261224763811
 21
90.5773149011641
 31
0.0
  0
LINE
  5
   4A9
  8
0
  6
CONTINUOUS
 62
     7
 10
241.161224537774
 20
90.6773139946544
 30
0.0
 11
241.23193520931
 21
90.6480232225828
 31
0.0
  0
LINE
  5
   4AA
  8
0
  6
CONTINUOUS
 62
     7
 10
241.231935770171
 20
90.6480206344126
 30
0.0
 11
241.261225100651
 21
90.5773114064766
 31
0.0
  0
LINE
  5
   4AB
  8
0
  6
CONTINUOUS
 62
     7
 10
241.23193495497
 20
48.7066009039328
 30
0.0
 11
241.261224237558
 21
48.7773116576658
 31
0.0
  0
LINE
  5
   4AC
  8
0
  6
CONTINUOUS
 62
     7
 10
241.308464903259
 20
60.0157085398253
 30
0.0
 11
241.486015429737
 21
60.2403331849639
 31
0.0
  0
LINE
  5
   4AD
  8
0
  6
CONTINUOUS
 62
     7
 10
241.295298288725
 20
70.2478060298361
 30
0.0
 11
241.604549650677
 21
70.1752230202402
 31
0.0
  0
LINE
  5
   4AE
  8
0
  6
DASHED
 62
     2
 10
357.433141301746
 20
49.8797297611455
 30
0.0
 11
357.433141301746
 21
83.2797302588443
 31
0.0
  0
LINE
  5
   4AF
  8
0
  6
DASHED
 62
     7
 10
351.833141218299
 20
48.2797297373036
 30
0.0
 11
355.833141277904
 21
48.2797297373036
 31
0.0
  0
LINE
  5
   4B0
  8
0
  6
DASHED
 62
     7
 10
344.03314110207
 20
61.2898739741387
 30
0.0
 11
347.433141152734
 21
61.2898739741387
 31
0.0
  0
LINE
  5
   4B1
  8
0
  6
DASHED
 62
     7
 10
348.633141170616
 20
84.8797302826862
 30
0.0
 11
355.833141277904
 21
84.8797302826862
 31
0.0
  0
ARC
  5
   4B2
  8
0
  6
DASHED
 62
     7
 10
351.833141218299
 20
49.8797297611455
 30
0.0
 40
1.60000002384186
 50
180.0
 51
270.0
  0
ARC
  5
   4B3
  8
0
  6
DASHED
 62
     7
 10
355.833141277904
 20
49.8797297611455
 30
0.0
 40
1.60000002384186
 50
270.0
 51
360.0
  0
ARC
  5
   4B4
  8
0
  6
DASHED
 62
     7
 10
347.433141152734
 20
58.4898739324154
 30
0.0
 40
2.80000004172325
 50
360.0
 51
450.0
  0
ARC
  5
   4B5
  8
0
  6
DASHED
 62
     7
 10
347.433141152734
 20
59.8961514191909
 30
0.0
 40
2.80000004172325
 50
360.0
 51
450.0
  0
ARC
  5
   4B6
  8
0
  6
DASHED
 62
     7
 10
355.833141277904
 20
83.2797302588443
 30
0.0
 40
1.60000002384186
 50
360.0
 51
450.0
  0
LINE
  5
   4B7
  8
0
  6
DASHED
 62
     7
 10
350.233141194457
 20
49.8797297611455
 30
0.0
 11
350.233141194457
 21
59.8961514191909
 31
0.0
  0
LINE
  5
   4B8
  8
0
  6
DASHED
 62
     7
 10
360.633141349429
 20
63.4797299638013
 30
0.0
 11
360.633141349429
 21
69.8797300591687
 31
0.0
  0
ARC
  5
   4B9
  8
0
  6
DASHED
 62
     7
 10
359.033141325588
 20
63.4797299638013
 30
0.0
 40
1.60000002384186
 50
180.0
 51
360.0
  0
ARC
  5
   4BA
  8
0
  6
DASHED
 62
     7
 10
359.033141325588
 20
69.8797300591687
 30
0.0
 40
1.60000002384186
 50
360.0
 51
540.0
  0
LINE
  5
   4BB
  8
0
  6
DASHDOT
 62
     7
 10
356.633141289825
 20
63.4797299638013
 30
0.0
 11
361.43314136135
 21
63.4797299638013
 31
0.0
  0
LINE
  5
   4BC
  8
0
  6
DASHDOT
 62
     7
 10
359.033141325588
 20
61.0797299280385
 30
0.0
 11
359.033141325588
 21
72.2797300949315
 31
0.0
  0
LINE
  5
   4BD
  8
0
  6
DASHDOT
 62
     7
 10
356.633141289825
 20
69.8797300591687
 30
0.0
 11
361.43314136135
 21
69.8797300591687
 31
0.0
  0
ARC
  5
   4BE
  8
0
  6
DASHED
 62
     7
 10
353.833141248102
 20
77.4797301724175
 30
0.0
 40
16.5197581136385
 50
282.586944950844
 51
307.750050331541
  0
ARC
  5
   4BF
  8
0
  6
DASHED
 62
     7
 10
353.833141248102
 20
77.4797301724175
 30
0.0
 40
17.7197581315199
 50
281.72198665881
 51
307.180704244992
  0
LINE
  5
   4C0
  8
0
  6
DASHED
 62
     7
 10
357.433141301746
 20
75.9793214056756
 30
0.0
 11
365.181318668037
 21
62.226570499175
 31
0.0
  0
LINE
  5
   4C1
  8
0
  6
DASHED
 62
     2
 10
357.433141301746
 20
78.4240557582554
 30
0.0
 11
366.226811003083
 21
62.8155915686405
 31
0.0
  0
LINE
  5
   4C2
  8
0
  6
DASHED
 62
     7
 10
365.181318668037
 20
62.226570499175
 30
0.0
 11
366.226811003083
 21
62.8155915686404
 31
0.0
  0
LINE
  5
   4C3
  8
0
  6
DASHED
 62
     7
 10
344.03314110207
 20
61.2898739741387
 30
0.0
 11
344.03314110207
 21
63.6797299667815
 31
0.0
  0
LINE
  5
   4C4
  8
0
  6
CONTINUOUS
 62
   212
 10
258.661705557616
 20
63.9638013518243
 30
0.0
 11
258.662133083502
 21
84.8771851088735
 31
0.0
  0
LINE
  5
   4C5
  8
0
  6
CONTINUOUS
 62
   253
 10
343.83314109909
 20
63.6796918808616
 30
0.0
 11
343.83314109909
 21
70.2797300651292
 31
0.0
  0
LINE
  5
   4C6
  8
0
  6
CONTINUOUS
 62
   253
 10
337.633141006703
 20
70.6797316580219
 30
0.0
 11
337.633141006703
 21
72.6797316878242
 31
0.0
  0
LINE
  5
   4C7
  8
0
  6
CONTINUOUS
 62
   253
 10
337.633141006703
 20
90.6798906474537
 30
0.0
 11
342.933141085679
 21
90.6798906474537
 31
0.0
  0
LINE
  5
   4C8
  8
0
  6
CONTINUOUS
 62
   253
 10
337.633141006703
 20
48.6798778145735
 30
0.0
 11
342.933141085679
 21
48.6798778145735
 31
0.0
  0
LINE
  5
   4C9
  8
0
  6
CONTINUOUS
 62
   253
 10
343.43314109313
 20
49.1798900290555
 30
0.0
 11
343.43314109313
 21
70.2797300651292
 31
0.0
  0
LINE
  5
   4CA
  8
0
  6
CONTINUOUS
 62
   253
 10
337.633141006703
 20
48.6798778145735
 30
0.0
 11
337.633141006703
 21
70.6797316580219
 31
0.0
  0
LINE
  5
   4CB
  8
0
  6
CONTINUOUS
 62
   253
 10
337.633141006703
 20
74.279688987056
 30
0.0
 11
337.633141006703
 21
90.6798906474537
 31
0.0
  0
LINE
  5
   4CC
  8
0
  6
CONTINUOUS
 62
   253
 10
337.633141006703
 20
72.6797316878242
 30
0.0
 11
337.633141006703
 21
74.2796920388139
 31
0.0
  0
LINE
  5
   4CD
  8
0
  6
CONTINUOUS
 62
   253
 10
343.286695937233
 20
48.8263393098943
 30
0.0
 11
343.433143698232
 21
49.1798930912213
 31
0.0
  0
LINE
  5
   4CE
  8
0
  6
CONTINUOUS
 62
   253
 10
343.215965251812
 20
48.7970375523878
 30
0.0
 11
343.286692793532
 21
48.8263359547437
 31
0.0
  0
LINE
  5
   4CF
  8
0
  6
CONTINUOUS
 62
   253
 10
342.933140917582
 20
48.6798777195667
 30
0.0
 11
343.215871025916
 21
48.7969980865881
 31
0.0
  0
LINE
  5
   4D0
  8
0
  6
CONTINUOUS
 62
   253
 10
342.933142667793
 20
90.6798932382173
 30
0.0
 11
343.286694921431
 21
90.5334454795034
 31
0.0
  0
LINE
  5
   4D1
  8
0
  6
CONTINUOUS
 62
   253
 10
343.286693982343
 20
90.5334473344422
 30
0.0
 11
343.433141741057
 21
90.179895080804
 31
0.0
  0
LINE
  5
   4D2
  8
0
  6
CONTINUOUS
 62
   130
 10
258.861190097805
 20
68.4797712932948
 30
0.0
 11
258.861219089505
 21
80.0797378962818
 31
0.0
  0
LINE
  5
   4D3
  8
0
  6
CONTINUOUS
 62
   130
 10
259.061167212599
 20
63.6797346068439
 30
0.0
 11
259.061219092482
 21
84.8797745967275
 31
0.0
  0
LINE
  5
   4D4
  8
0
  6
CONTINUOUS
 62
   130
 10
259.661167221541
 20
63.6797376565896
 30
0.0
 11
259.661219101425
 21
84.8797684898534
 31
0.0
  0
LINE
  5
   4D5
  8
0
  6
CONTINUOUS
 62
   130
 10
260.061212328154
 20
82.2796998943607
 30
0.0
 11
264.461788913388
 21
82.2796842801915
 31
0.0
  0
LINE
  5
   4D6
  8
0
  6
CONTINUOUS
 62
   130
 10
260.06117380171
 20
66.2796998922724
 30
0.0
 11
264.461594223521
 21
66.2796868809261
 31
0.0
  0
LINE
  5
   4D7
  8
0
  6
CONTINUOUS
 62
   130
 10
259.661731803167
 20
77.4797622812462
 30
0.0
 11
264.861731880653
 21
77.4796951425726
 31
0.0
  0
LINE
  5
   4D8
  8
0
  6
CONTINUOUS
 62
   130
 10
259.661650931284
 20
71.0797621853453
 30
0.0
 11
264.86165100877
 21
71.0796950466717
 31
0.0
  0
LINE
  5
   4D9
  8
0
  6
CONTINUOUS
 62
   130
 10
259.661650926592
 20
71.0797621892435
 30
0.0
 11
259.661731798175
 21
77.479762284611
 31
0.0
  0
LINE
  5
   4DA
  8
0
  6
CONTINUOUS
 62
   253
 10
343.43314109313
 20
63.6796918808616
 30
0.0
 11
343.83314109909
 21
63.6796918808616
 31
0.0
  0
LINE
  5
   4DB
  8
0
  6
CONTINUOUS
 62
   253
 10
343.43314109313
 20
84.8796891450083
 30
0.0
 11
343.83314109909
 21
84.8796891450083
 31
0.0
  0
LINE
  5
   4DC
  8
0
  6
CONTINUOUS
 62
   130
 10
258.661808095718
 20
68.9797564975854
 30
0.0
 11
258.861193148104
 21
68.979756046863
 31
0.0
  0
LINE
  5
   4DD
  8
0
  6
CONTINUOUS
 62
   130
 10
258.662024780295
 20
79.5797566551335
 30
0.0
 11
258.861219079938
 21
79.5797562048424
 31
0.0
  0
LINE
  5
   4DE
  8
0
  6
CONTINUOUS
 62
   130
 10
258.861190097749
 20
68.4797712980915
 30
0.0
 11
259.061190100729
 21
68.4797712980915
 31
0.0
  0
LINE
  5
   4DF
  8
0
  6
CONTINUOUS
 62
   130
 10
258.861219089449
 20
80.0797379016085
 30
0.0
 11
259.061219092429
 21
80.0797379016085
 31
0.0
  0
LINE
  5
   4E0
  8
0
  6
CONTINUOUS
 62
   130
 10
259.061167209229
 20
63.6797346059631
 30
0.0
 11
259.66116721817
 21
63.679737657721
 31
0.0
  0
LINE
  5
   4E1
  8
0
  6
CONTINUOUS
 62
   130
 10
259.06121909113
 20
84.8797745972911
 30
0.0
 11
259.66121910007
 21
84.8797684937752
 31
0.0
  0
ARC
  5
   4E2
  8
0
  6
CONTINUOUS
 62
     7
 10
264.461787469159
 20
81.8796842742336
 30
0.0
 40
0.400000005960464
 50
359.999275999948
 51
450.0
  0
ARC
  5
   4E3
  8
0
  6
CONTINUOUS
 62
     7
 10
264.461595399185
 20
66.6796868868848
 30
0.0
 40
0.400000005960464
 50
269.999830585454
 51
359.999275999948
  0
ARC
  5
   4E4
  8
0
  6
CONTINUOUS
 62
     7
 10
260.061213723465
 20
82.6796999003186
 30
0.0
 40
0.400000005960464
 50
179.999859788015
 51
269.99979670255
  0
ARC
  5
   4E5
  8
0
  6
CONTINUOUS
 62
     7
 10
260.061172611164
 20
65.8796998863137
 30
0.0
 40
0.400000005960464
 50
90.0
 51
179.999859788015
  0
LINE
  5
   4E6
  8
0
  6
CONTINUOUS
 62
   212
 10
343.43314109313
 20
84.8766281146273
 30
0.0
 11
343.43314109313
 21
90.4770457786725
 31
0.0
  0
LINE
  5
   4E7
  8
0
  6
CONTINUOUS
 62
     7
 10
336.833140994782
 20
44.1452565308468
 30
0.0
 11
336.833140994782
 21
117.013049102095
 31
0.0
  0
LINE
  5
   4E8
  8
0
  6
CONTINUOUS
 62
     7
 10
337.633141006703
 20
90.6770457816527
 30
0.0
 11
337.633141006703
 21
117.013049102095
 31
0.0
  0
LINE
  5
   4E9
  8
0
  6
CONTINUOUS
 62
   170
 10
335.6331409769
 20
68.8766843332567
 30
0.0
 11
335.6331409769
 21
79.6766890721398
 31
0.0
  0
LINE
  5
   4EA
  8
0
  6
CONTINUOUS
 62
   170
 10
336.233136407913
 20
80.2766799258604
 30
0.0
 11
336.833140994487
 21
80.2766753481893
 31
0.0
  0
LINE
  5
   4EB
  8
0
  6
CONTINUOUS
 62
   170
 10
336.233150140481
 20
68.2766797465925
 30
0.0
 11
336.83314099414
 21
68.2766751690261
 31
0.0
  0
LINE
  5
   4EC
  8
0
  6
CONTINUOUS
 62
   170
 10
335.633140985142
 20
79.6766844945036
 30
0.0
 11
336.833141003003
 21
79.6766753392312
 31
0.0
  0
LINE
  5
   4ED
  8
0
  6
CONTINUOUS
 62
   170
 10
335.633140975543
 20
68.8766843332567
 30
0.0
 11
336.833140993424
 21
68.8766751779842
 31
0.0
  0
LINE
  5
   4EE
  8
0
  6
CONTINUOUS
 62
   170
 10
335.6331409769
 20
79.6766890721398
 30
0.0
 11
336.233145563477
 21
80.2766890810631
 31
0.0
  0
LINE
  5
   4EF
  8
0
  6
CONTINUOUS
 62
   170
 10
335.633140976901
 20
68.876688910893
 30
0.0
 11
336.233140985841
 21
68.2766889019523
 31
0.0
  0
LINE
  5
   4F0
  8
0
  6
CONTINUOUS
 62
     7
 10
264.861716681549
 20
76.2772335420664
 30
0.0
 11
285.260278924924
 21
76.2770779134057
 31
0.0
  0
LINE
  5
   4F1
  8
0
  6
CONTINUOUS
 62
     7
 10
264.86166613681
 20
72.2772334827309
 30
0.0
 11
285.260278924924
 21
72.2770778536846
 31
0.0
  0
LINE
  5
   4F2
  8
0
  6
DASHDOT
 62
     7
 10
262.258204003349
 20
63.7956763253478
 30
0.0
 11
262.258204003349
 21
86.8594766340983
 31
0.0
  0
LINE
  5
   4F3
  8
0
  6
CONTINUOUS
 62
     7
 10
263.25820401825
 20
83.8796980280123
 30
0.0
 11
263.25820401825
 21
86.2772459251401
 31
0.0
  0
LINE
  5
   4F4
  8
0
  6
CONTINUOUS
 62
     7
 10
261.258203988448
 20
83.8797132867997
 30
0.0
 11
261.258203988448
 21
86.2772611839276
 31
0.0
  0
LINE
  5
   4F5
  8
0
  6
CONTINUOUS
 62
     7
 10
263.258121576506
 20
63.2797299600175
 30
0.0
 11
263.258142937927
 21
64.679672208227
 31
0.0
  0
LINE
  5
   4F6
  8
0
  6
CONTINUOUS
 62
     7
 10
261.258121546471
 20
63.2797299600248
 30
0.0
 11
261.258142908125
 21
64.6796874670253
 31
0.0
  0
LINE
  5
   4F7
  8
0
  6
CONTINUOUS
 62
   132
 10
260.784206267315
 20
83.8797169031149
 30
0.0
 11
263.732206311341
 21
83.8796944116622
 31
0.0
  0
LINE
  5
   4F8
  8
0
  6
CONTINUOUS
 62
   132
 10
260.484203976914
 20
82.5797191737534
 30
0.0
 11
260.484203976914
 21
83.5797168988078
 31
0.0
  0
LINE
  5
   4F9
  8
0
  6
CONTINUOUS
 62
   132
 10
264.032204029784
 20
82.579696681114
 30
0.0
 11
264.032204029784
 21
83.5796944073555
 31
0.0
  0
LINE
  5
   4FA
  8
0
  6
CONTINUOUS
 62
   132
 10
261.084203985855
 20
82.5797191737534
 30
0.0
 11
261.084203985855
 21
83.5797168988078
 31
0.0
  0
LINE
  5
   4FB
  8
0
  6
CONTINUOUS
 62
   132
 10
263.432204020843
 20
82.5796921034433
 30
0.0
 11
263.432204020843
 21
83.5796966960187
 31
0.0
  0
LINE
  5
   4FC
  8
0
  6
CONTINUOUS
 62
   132
 10
260.784203981385
 20
82.2796920989731
 30
0.0
 11
263.732204025313
 21
82.2796920989731
 31
0.0
  0
ARC
  5
   4FD
  8
0
  6
CONTINUOUS
 62
   132
 10
260.784203981385
 20
82.5797191737534
 30
0.0
 40
0.30000000569165
 50
180.005170048281
 51
360.0
  0
ARC
  5
   4FE
  8
0
  6
CONTINUOUS
 62
   132
 10
262.258204003349
 20
84.7268188021047
 30
0.0
 40
2.44712670313166
 50
241.331165258311
 51
298.668834741688
  0
ARC
  5
   4FF
  8
0
  6
CONTINUOUS
 62
   132
 10
263.732204025313
 20
82.579696681114
 30
0.0
 40
0.300000004505316
 50
180.0
 51
359.999125729333
  0
ARC
  5
   500
  8
0
  6
CONTINUOUS
 62
   132
 10
263.732204025313
 20
83.5796944073555
 30
0.0
 40
0.300000004479044
 50
359.999562838353
 51
540.0
  0
ARC
  5
   501
  8
0
  6
CONTINUOUS
 62
   132
 10
262.258187622074
 20
81.4325789542024
 30
0.0
 40
2.44712670325835
 50
61.3307281269688
 51
118.668397608924
  0
ARC
  5
   502
  8
0
  6
CONTINUOUS
 62
   132
 10
260.784203981384
 20
83.5797168988078
 30
0.0
 40
0.300000004479308
 50
360.0
 51
539.999562897457
  0
LINE
  5
   503
  8
0
  6
CONTINUOUS
 62
   132
 10
260.784102509484
 20
64.679691084675
 30
0.0
 11
263.732102553606
 21
64.6796685932222
 31
0.0
  0
ARC
  5
   504
  8
0
  6
CONTINUOUS
 62
   132
 10
262.258121202505
 20
67.1268065421348
 30
0.0
 40
2.44712670325835
 50
241.330728126966
 51
298.668397608922
  0
ARC
  5
   505
  8
0
  6
CONTINUOUS
 62
   132
 10
263.732104843195
 20
64.9796685975289
 30
0.0
 40
0.300000004479044
 50
179.99912573589
 51
359.999562897537
  0
LINE
  5
   506
  8
0
  6
CONTINUOUS
 62
   132
 10
263.432104838724
 20
64.9796708854866
 30
0.0
 11
263.432120097582
 21
65.9796754779554
 31
0.0
  0
LINE
  5
   507
  8
0
  6
CONTINUOUS
 62
   132
 10
261.084104803702
 20
64.9796865112422
 30
0.0
 11
261.084120062454
 21
65.9796842365101
 31
0.0
  0
LINE
  5
   508
  8
0
  6
CONTINUOUS
 62
   132
 10
260.484104794831
 20
64.9796956665191
 30
0.0
 11
260.484120053583
 21
65.9796933917869
 31
0.0
  0
LINE
  5
   509
  8
0
  6
CONTINUOUS
 62
   132
 10
264.03210484763
 20
64.9796640190284
 30
0.0
 11
264.032120106383
 21
65.9796617450413
 31
0.0
  0
ARC
  5
   50A
  8
0
  6
CONTINUOUS
 62
   132
 10
263.732120101947
 20
65.979666323654
 30
0.0
 40
0.300000004505316
 50
6.55711707848162E-9
 51
179.99912573589
  0
LINE
  5
   50B
  8
0
  6
CONTINUOUS
 62
   132
 10
260.784124640095
 20
66.2797158886655
 30
0.0
 11
263.732124683997
 21
66.27967090576
 31
0.0
  0
ARC
  5
   50C
  8
0
  6
CONTINUOUS
 62
   132
 10
260.784120058019
 20
65.97968881392
 30
0.0
 40
0.30000000569165
 50
359.99912573589
 51
539.99395568761
  0
ARC
  5
   50D
  8
0
  6
CONTINUOUS
 62
   132
 10
262.258087317675
 20
63.832566694366
 30
0.0
 40
2.44712670313166
 50
61.3302909942027
 51
118.667960477579
  0
ARC
  5
   50E
  8
0
  6
CONTINUOUS
 62
   132
 10
260.784104799266
 20
64.9796910889821
 30
0.0
 40
0.300000004479308
 50
179.999562838433
 51
359.99912573589
  0
ARC
  5
   50F
  8
0
  6
CONTINUOUS
 62
     7
 10
338.033141012663
 20
83.4797302618245
 30
0.0
 40
2.32000003457069
 50
184.945429717883
 51
220.282118355986
  0
LINE
  5
   510
  8
0
  6
CONTINUOUS
 62
     7
 10
335.72177774411
 20
83.2797302588443
 30
0.0
 11
336.113140984053
 21
83.2797302588443
 31
0.0
  0
LINE
  5
   511
  8
0
  6
CONTINUOUS
 62
     7
 10
335.72177774411
 20
83.6797302648048
 30
0.0
 11
336.113140984053
 21
83.6797302648048
 31
0.0
  0
ARC
  5
   512
  8
0
  6
CONTINUOUS
 62
     7
 10
338.033141012663
 20
83.4797302618245
 30
0.0
 40
2.32000003457069
 50
139.717881644014
 51
175.054570282117
  0
LINE
  5
   513
  8
0
  6
CONTINUOUS
 62
     7
 10
336.263282234864
 20
84.9797302841763
 30
0.0
 11
336.833140994782
 21
84.9797302841763
 31
0.0
  0
LINE
  5
   514
  8
0
  6
CONTINUOUS
 62
     7
 10
336.263282234864
 20
81.9797302394728
 30
0.0
 11
336.833140994782
 21
81.9797302394728
 31
0.0
  0
LINE
  5
   515
  8
0
  6
CONTINUOUS
 62
     7
 10
336.113140984053
 20
83.2797302588443
 30
0.0
 11
336.113140984053
 21
83.6797302648048
 31
0.0
  0
LINE
  5
   516
  8
0
  6
DASHDOT
 62
     7
 10
335.443166993959
 20
83.4797302618245
 30
0.0
 11
342.169501444164
 21
83.4797302618245
 31
0.0
  0
LINE
  5
   517
  8
0
  6
CONTINUOUS
 62
     7
 10
334.854069230401
 20
117.013049102095
 30
0.0
 11
340.034959266941
 21
117.013049102095
 31
0.0
  0
LINE
  5
   518
  8
0
  6
CONTINUOUS
 62
     7
 10
334.854069230401
 20
44.1452565308468
 30
0.0
 11
338.714340238019
 21
44.1452565308468
 31
0.0
  0
LINE
  5
   519
  8
0
  6
CONTINUOUS
 62
     7
 10
337.633141006703
 20
44.1452565308468
 30
0.0
 11
337.633141006703
 21
48.6798778145735
 31
0.0
  0
LINE
  5
   51A
  8
0
  6
CONTINUOUS
 62
     7
 10
345.233141119952
 20
73.0797301068525
 30
0.0
 11
345.233141119952
 21
75.4797301426152
 31
0.0
  0
LINE
  5
   51B
  8
0
  6
CONTINUOUS
 62
     7
 10
337.633141006703
 20
76.2797301545362
 30
0.0
 11
344.433141108031
 21
76.2797301545362
 31
0.0
  0
LINE
  5
   51C
  8
0
  6
CONTINUOUS
 62
     7
 10
337.633141006703
 20
72.2797300949315
 30
0.0
 11
344.433141108031
 21
72.2797300949315
 31
0.0
  0
LINE
  5
   51D
  8
0
  6
CONTINUOUS
 62
     7
 10
344.433141108031
 20
76.2797301545362
 30
0.0
 11
345.233141119952
 21
75.4797301426153
 31
0.0
  0
LINE
  5
   51E
  8
0
  6
CONTINUOUS
 62
     7
 10
344.433141108031
 20
72.2797300949315
 30
0.0
 11
345.233141119952
 21
73.0797301068524
 31
0.0
  0
CIRCLE
  5
   51F
  8
0
  6
CONTINUOUS
 62
     7
 10
342.833141084189
 20
74.2797301247338
 30
0.0
 40
1.10000001639128
  0
LINE
  5
   520
  8
0
  6
DASHDOT
 62
     7
 10
342.833141084189
 20
72.7797301023821
 30
0.0
 11
342.833141084189
 21
75.7797301470856
 31
0.0
  0
LINE
  5
   521
  8
0
  6
CONTINUOUS
 62
     7
 10
337.633141006703
 20
78.2797301843385
 30
0.0
 11
347.233141149754
 21
78.2797301843385
 31
0.0
  0
LINE
  5
   522
  8
0
  6
CONTINUOUS
 62
     7
 10
337.633141006703
 20
70.2797300651292
 30
0.0
 11
347.233141149754
 21
70.2797300651292
 31
0.0
  0
LINE
  5
   523
  8
0
  6
CONTINUOUS
 62
     7
 10
347.233141149754
 20
70.2797300651292
 30
0.0
 11
347.233141149754
 21
78.2797301843385
 31
0.0
  0
LINE
  5
   524
  8
0
  6
CONTINUOUS
 62
   253
 10
343.43314109313
 20
78.2797301843385
 30
0.0
 11
343.43314109313
 21
90.1798906400031
 31
0.0
  0
LINE
  5
   525
  8
0
  6
CONTINUOUS
 62
   253
 10
343.83314109909
 20
78.2797301843385
 30
0.0
 11
343.83314109909
 21
84.8796891450083
 31
0.0
  0
LINE
  5
   526
  8
0
  6
CONTINUOUS
 62
     2
 10
344.03314110207
 20
78.2797301843385
 30
0.0
 11
344.03314110207
 21
80.6797302201013
 31
0.0
  0
LINE
  5
   527
  8
0
  6
CONTINUOUS
 62
     7
 10
336.263282234864
 20
66.5797300099949
 30
0.0
 11
336.833140994782
 21
66.5797300099949
 31
0.0
  0
ARC
  5
   528
  8
0
  6
CONTINUOUS
 62
     7
 10
338.033141012663
 20
65.0797299876432
 30
0.0
 40
2.32000003457069
 50
139.717881644014
 51
175.054570282117
  0
LINE
  5
   529
  8
0
  6
CONTINUOUS
 62
     7
 10
335.72177774411
 20
65.2797299906234
 30
0.0
 11
336.113140984053
 21
65.2797299906234
 31
0.0
  0
LINE
  5
   52A
  8
0
  6
CONTINUOUS
 62
     7
 10
336.113140984053
 20
64.8797299846629
 30
0.0
 11
336.113140984053
 21
65.2797299906234
 31
0.0
  0
LINE
  5
   52B
  8
0
  6
CONTINUOUS
 62
     7
 10
335.72177774411
 20
64.8797299846629
 30
0.0
 11
336.113140984053
 21
64.8797299846629
 31
0.0
  0
ARC
  5
   52C
  8
0
  6
CONTINUOUS
 62
     7
 10
338.033141012663
 20
65.0797299876432
 30
0.0
 40
2.32000003457069
 50
184.945429717883
 51
220.282118355986
  0
LINE
  5
   52D
  8
0
  6
CONTINUOUS
 62
     7
 10
336.263282234864
 20
63.5797299652914
 30
0.0
 11
336.833140994782
 21
63.5797299652914
 31
0.0
  0
LINE
  5
   52E
  8
0
  6
DASHDOT
 62
     7
 10
335.443166993959
 20
65.0797299876432
 30
0.0
 11
342.169501444164
 21
65.0797299876432
 31
0.0
  0
LINE
  5
   52F
  8
0
  6
DOT
 62
     2
 10
248.061224865139
 20
72.2797300949315
 30
0.0
 11
248.061224865139
 21
76.2797301545362
 31
0.0
  0
LINE
  5
   530
  8
0
  6
DOT
 62
     2
 10
248.061224865139
 20
76.2797301545362
 30
0.0
 11
264.861716713097
 21
76.2797301545362
 31
0.0
  0
LINE
  5
   531
  8
0
  6
DOT
 62
     2
 10
248.061224865139
 20
72.2797300949315
 30
0.0
 11
264.861716713097
 21
72.2797300949315
 31
0.0
  0
LINE
  5
   532
  8
0
  6
CONTINUOUS
 62
     7
 10
261.258203990648
 20
86.2772611839276
 30
0.0
 11
263.258204020422
 21
86.2772459251401
 31
0.0
  0
LINE
  5
   533
  8
0
  6
CONTINUOUS
 62
     7
 10
259.861211223365
 20
63.2797299608211
 30
0.0
 11
285.260278924924
 21
63.2797299608211
 31
0.0
  0
LINE
  5
   534
  8
0
  6
CONTINUOUS
 62
     7
 10
259.861211223365
 20
62.2797299459199
 30
0.0
 11
285.260278924924
 21
62.2797299459199
 31
0.0
  0
LINE
  5
   535
  8
0
  6
CONTINUOUS
 62
     7
 10
259.261211214425
 20
44.279729677699
 30
0.0
 11
259.261211214425
 21
61.6797299369792
 31
0.0
  0
LINE
  5
   536
  8
0
  6
CONTINUOUS
 62
     7
 10
258.261211199523
 20
44.279729677699
 30
0.0
 11
259.261211214425
 21
44.279729677699
 31
0.0
  0
ARC
  5
   537
  8
0
  6
CONTINUOUS
 62
     7
 10
259.861211223365
 20
61.6797299369792
 30
0.0
 40
0.600000008940697
 50
90.0
 51
180.0
  0
ARC
  5
   538
  8
0
  6
CONTINUOUS
 62
     7
 10
259.861211223365
 20
61.6797299369792
 30
0.0
 40
1.60000002384186
 50
90.0
 51
180.0
  0
LINE
  5
   539
  8
0
  6
CONTINUOUS
 62
     7
 10
307.616778126176
 20
80.2797302141408
 30
0.0
 11
308.616778141077
 21
80.2797302141408
 31
0.0
  0
LINE
  5
   53A
  8
0
  6
CONTINUOUS
 62
     7
 10
308.616778141077
 20
63.8797299697618
 30
0.0
 11
308.616778141077
 21
80.2797302141408
 31
0.0
  0
LINE
  5
   53B
  8
0
  6
CONTINUOUS
 62
     7
 10
307.616778126176
 20
63.8797299697618
 30
0.0
 11
307.616778126176
 21
80.2797302141408
 31
0.0
  0
ARC
  5
   53C
  8
0
  6
CONTINUOUS
 62
     7
 10
307.016778117235
 20
63.8797299697618
 30
0.0
 40
1.60000002384186
 50
270.0
 51
360.0
  0
ARC
  5
   53D
  8
0
  6
CONTINUOUS
 62
     7
 10
307.016778117235
 20
63.8797299697618
 30
0.0
 40
0.600000008940697
 50
270.0
 51
360.0
  0
LINE
  5
   53E
  8
0
  6
DASHDOT
 62
     7
 10
285.260278924924
 20
56.6009199070584
 30
0.0
 11
285.260278924924
 21
81.9431943602123
 31
0.0
  0
LINE
  5
   53F
  8
0
  6
DASHDOT
 62
     7
 10
286.96237198521
 20
56.6009199070584
 30
0.0
 11
286.96237198521
 21
81.8959139974266
 31
0.0
  0
LINE
  5
   540
  8
0
  6
DASHDOT
 62
     7
 10
321.382476093225
 20
65.8205906502767
 30
0.0
 11
321.382476093225
 21
83.4088856065701
 31
0.0
  0
LINE
  5
   541
  8
0
  6
DASHDOT
 62
     7
 10
322.942728065155
 20
65.6787495619195
 30
0.0
 11
322.942728065155
 21
83.1252034298557
 31
0.0
  0
LINE
  5
   542
  8
0
  6
CONTINUOUS
 62
     7
 10
322.942728065155
 20
76.2767904191686
 30
0.0
 11
335.633140982485
 21
76.2766935990132
 31
0.0
  0
LINE
  5
   543
  8
0
  6
CONTINUOUS
 62
     7
 10
322.942728065155
 20
72.2767903594475
 30
0.0
 11
335.633140982066
 21
72.2766935392922
 31
0.0
  0
LINE
  5
   544
  8
0
  6
CONTINUOUS
 62
     7
 10
286.96237198521
 20
76.2770649274678
 30
0.0
 11
307.616778126176
 21
76.2769073468733
 31
0.0
  0
LINE
  5
   545
  8
0
  6
CONTINUOUS
 62
     7
 10
286.962371985211
 20
72.2770648677467
 30
0.0
 11
307.616778126176
 21
72.2769072871522
 31
0.0
  0
LINE
  5
   546
  8
0
  6
CONTINUOUS
 62
     7
 10
286.96237198521
 20
63.2797299608211
 30
0.0
 11
307.016778117235
 21
63.2797299608211
 31
0.0
  0
LINE
  5
   547
  8
0
  6
CONTINUOUS
 62
     7
 10
286.96237198521
 20
62.2797299459199
 30
0.0
 11
307.016778117235
 21
62.2797299459199
 31
0.0
  0
LINE
  5
   548
  8
0
  6
CONTINUOUS
 62
     7
 10
308.616778141077
 20
76.2768997174796
 30
0.0
 11
321.382476093225
 21
76.276802322945
 31
0.0
  0
LINE
  5
   549
  8
0
  6
CONTINUOUS
 62
     7
 10
308.616778141077
 20
72.2768996577585
 30
0.0
 11
321.382476093225
 21
72.276802263224
 31
0.0
  0
LINE
  5
   54A
  8
0
  6
DASHDOT
 62
     7
 10
254.669884202554
 20
57.2797298714141
 30
0.0
 11
261.951060071557
 21
57.2797298714141
 31
0.0
  0
LINE
  5
   54B
  8
0
  6
CONTINUOUS
 62
   130
 10
264.861787475087
 20
66.6796818324109
 30
0.0
 11
264.861787475087
 21
81.8796792197596
 31
0.0
  0
INSERT
  5
   54C
  8
255
  6
CONTINUOUS
 62
     7
  2
S3LLL
 10
241.060676194243
 20
25.6850669160592
 30
0.0
 41
0.400000005960464
 42
0.400000005960464
 50
359.999999792138
 43
0.400000005960464
  0
POINT
  5
   54D
  8
0
  6
CONTINUOUS
 62
     7
 10
241.261224763811
 20
69.679891799359
 30
0.0
  0
TEXT
  5
   54E
  8
0
  6
CONTINUOUS
 62
     1
 10
322.645263671883
 20
-105.000167796063
 30
0.0
 40
2.99999994933605
  1
S3X-S4X
 50
360.0
 41
0.916666607525612
 72
     2
 11
341.345262146898
 21
-105.000167795969
 31
0.0
  0
TEXT
  5
   54F
  8
0
  6
CONTINUOUS
 62
     1
 10
216.266022946393
 20
-102.893449799471
 30
0.0
 40
2.00000007748604
  1
M4352 96-12-17
 50
360.0
 41
0.749999884366991
 72
     1
 11
226.616021752358
 21
-101.893449760676
 31
0.0
 73
     2
  0
INSERT
  5
   550
  8
0
  6
CONTINUOUS
 62
     7
  2
*UDIM556
 10
0.0
 20
0.0
 30
0.0
  0
TEXT
  5
   551
  8
0
  6
CONTINUOUS
 62
     1
 10
202.74243171337
 20
-87.9683724101533
 30
0.0
 40
2.00000007748604
  1
96-11-19 BARCELLA
 50
360.0
 41
0.749999884366991
 72
     2
 11
227.942428805855
 21
-87.9683724100266
 31
0.0
  0
TEXT
  5
   552
  8
0
  6
CONTINUOUS
 62
     1
 10
314.559565959864
 20
-113.981751682879
 30
0.0
 40
4.00000015497208
  1
605032/281
 50
360.0
 41
0.93749995827675
 72
     2
 11
351.30956571474
 21
-113.981751682695
 31
0.0
  0
TEXT
  5
   553
  8
0
  6
CONTINUOUS
 62
     1
 10
302.235834600025
 20
-86.6898935375275
 30
0.0
 40
2.00000007748604
  1
ROTARY HANDLE OPERATING MECHANISM APPLICATION
 50
360.0
 41
0.625
 72
     1
 11
330.235835684824
 21
-85.6898934986438
 31
0.0
 73
     2
  0
TEXT
  5
   554
  8
0
  6
CONTINUOUS
 62
     1
 10
306.6108348053
 20
-89.6898935375055
 30
0.0
 40
2.00000007748604
  1
WITH ADJUSTABLE DEPTH ON ISOMAX SERIES
 50
360.0
 41
0.625
 72
     1
 11
330.235835720599
 21
-88.6898934986438
 31
0.0
 73
     2
  0
TEXT
  5
   555
  8
0
  6
CONTINUOUS
 62
     1
 10
311.68822755742
 20
-94.7601573296086
 30
0.0
 40
2.00000007748604
  1
APPLICAZIONE MANIGLIA ROTANTE
 50
360.0
 41
0.625
 72
     1
 11
329.688228254789
 21
-93.7601572907751
 31
0.0
 73
     2
  0
TEXT
  5
   556
  8
0
  6
CONTINUOUS
 62
     1
 10
308.563227472123
 20
-97.7601573296243
 30
0.0
 40
2.00000007748604
  1
A DISTANZA REGOLABILE SERIE ISOMAX
 50
360.0
 41
0.625
 72
     1
 11
329.688228290564
 21
-96.7601572907751
 31
0.0
 73
     2
  0
INSERT
  5
   557
  8
0
  6
CONTINUOUS
 62
     7
  2
*UDIM557
 10
0.0
 20
0.0
 30
0.0
  0
INSERT
  5
   558
  8
0
  6
CONTINUOUS
 62
     7
  2
*UDIM558
 10
0.0
 20
0.0
 30
0.0
  0
INSERT
  5
   559
  8
0
  6
CONTINUOUS
 62
     7
  2
*UDIM559
 10
0.0
 20
0.0
 30
0.0
  0
INSERT
  5
   55A
  8
0
  6
CONTINUOUS
 62
     7
  2
*UDIM560
 10
0.0
 20
0.0
 30
0.0
  0
INSERT
  5
   55B
  8
0
  6
CONTINUOUS
 62
     7
  2
*UDIM561
 10
0.0
 20
0.0
 30
0.0
  0
INSERT
  5
   55C
  8
0
  6
CONTINUOUS
 62
     7
  2
*UDIM562
 10
0.0
 20
0.0
 30
0.0
  0
INSERT
  5
   55D
  8
0
  6
CONTINUOUS
 62
     7
  2
*UDIM563
 10
0.0
 20
0.0
 30
0.0
  0
TEXT
  5
   55E
  8
0
  6
CONTINUOUS
 62
     7
 10
370.786581069244
 20
68.150301028165
 30
0.0
 40
2.99999994933605
  1
X
 50
360.0
 41
0.916666607525612
 72
     1
 11
371.88658097834
 21
69.6503010028386
 31
0.0
 73
     2
  0
ENDSEC
  0
EOF
