  0
SECTION
  2
HEADER
  9
$ACADVER
  1
AC1009
  9
$DWGCODEPAGE
  3
iso8859-1
  9
$INSBASE
 10
0.0
 20
0.0
 30
0.0
  9
$EXTMIN
 10
1.0E20
 20
1.0E20
  9
$EXTMAX
 10
-1.0E20
 20
-1.0E20
  9
$LIMMIN
 10
0.0
 20
0.0
  9
$LIMMAX
 10
12.0
 20
9.0
  9
$ORTHOMODE
 70
     0
  9
$REGENMODE
 70
     1
  9
$FILLMODE
 70
     1
  9
$QTEXTMODE
 70
     0
  9
$MIRRTEXT
 70
     1
  9
$DRAGMODE
 70
     2
  9
$LTSCALE
 40
15.0
  9
$OSMODE
 70
     0
  9
$ATTMODE
 70
     1
  9
$TEXTSIZE
 40
0.2
  9
$TRACEWID
 40
0.05
  9
$TEXTSTYLE
  7
STANDARD
  9
$CLAYER
  8
0
  9
$CELTYPE
  6
DASHED
  9
$CECOLOR
 62
   256
  9
$DIMSCALE
 40
1.0
  9
$DIMASZ
 40
0.18
  9
$DIMEXO
 40
0.0625
  9
$DIMDLI
 40
0.38
  9
$DIMRND
 40
0.0
  9
$DIMDLE
 40
0.0
  9
$DIMEXE
 40
0.18
  9
$DIMTP
 40
0.0
  9
$DIMTM
 40
0.0
  9
$DIMTXT
 40
0.18
  9
$DIMCEN
 40
0.09
  9
$DIMTSZ
 40
0.0
  9
$DIMTOL
 70
     0
  9
$DIMLIM
 70
     0
  9
$DIMTIH
 70
     1
  9
$DIMTOH
 70
     1
  9
$DIMSE1
 70
     0
  9
$DIMSE2
 70
     0
  9
$DIMTAD
 70
     0
  9
$DIMZIN
 70
     0
  9
$DIMBLK
  1

  9
$DIMASO
 70
     1
  9
$DIMSHO
 70
     1
  9
$DIMPOST
  1

  9
$DIMAPOST
  1

  9
$DIMALT
 70
     0
  9
$DIMALTD
 70
     2
  9
$DIMALTF
 40
25.4
  9
$DIMLFAC
 40
1.0
  9
$DIMTOFL
 70
     0
  9
$DIMTVP
 40
0.0
  9
$DIMTIX
 70
     0
  9
$DIMSOXD
 70
     0
  9
$DIMSAH
 70
     0
  9
$DIMBLK1
  1

  9
$DIMBLK2
  1

  9
$DIMSTYLE
  2
STANDARD
  9
$DIMCLRD
 70
     0
  9
$DIMCLRE
 70
     0
  9
$DIMCLRT
 70
     0
  9
$DIMTFAC
 40
1.0
  9
$DIMGAP
 40
0.09
  9
$LUNITS
 70
     2
  9
$LUPREC
 70
     4
  9
$AXISMODE
 70
     0
  9
$AXISUNIT
 10
0.0
 20
0.0
  9
$SKETCHINC
 40
0.1
  9
$FILLETRAD
 40
0.0
  9
$AUNITS
 70
     0
  9
$AUPREC
 70
     0
  9
$MENU
  1
acad
  9
$ELEVATION
 40
0.0
  9
$PELEVATION
 40
0.0
  9
$THICKNESS
 40
0.0
  9
$LIMCHECK
 70
     0
  9
$BLIPMODE
 70
     1
  9
$CHAMFERA
 40
0.0
  9
$CHAMFERB
 40
0.0
  9
$SKPOLY
 70
     0
  9
$TDCREATE
 40
0.000000000
  9
$TDUPDATE
 40
0.000000000
  9
$TDINDWG
 40
0.0
  9
$TDUSRTIMER
 40
0.0
  9
$USRTIMER
 70
     1
  9
$ANGBASE
 50
0.0
  9
$ANGDIR
 70
     0
  9
$PDMODE
 70
     0
  9
$PDSIZE
 40
0.0
  9
$PLINEWID
 40
0.0
  9
$COORDS
 70
     1
  9
$SPLFRAME
 70
     0
  9
$SPLINETYPE
 70
     6
  9
$SPLINESEGS
 70
     8
  9
$ATTDIA
 70
     0
  9
$ATTREQ
 70
     1
  9
$HANDLING
 70
     1
  9
$HANDSEED
  5
   749
  9
$SURFTAB1
 70
     6
  9
$SURFTAB2
 70
     6
  9
$SURFTYPE
 70
     6
  9
$SURFU
 70
     6
  9
$SURFV
 70
     6
  9
$UCSNAME
  2

  9
$UCSORG
 10
0.0
 20
0.0
 30
0.0
  9
$UCSXDIR
 10
1.0
 20
0.0
 30
0.0
  9
$UCSYDIR
 10
0.0
 20
1.0
 30
0.0
  9
$PUCSNAME
  2

  9
$PUCSORG
 10
0.0
 20
0.0
 30
0.0
  9
$PUCSXDIR
 10
1.0
 20
0.0
 30
0.0
  9
$PUCSYDIR
 10
0.0
 20
1.0
 30
0.0
  9
$USERI1
 70
     0
  9
$USERI2
 70
     0
  9
$USERI3
 70
     0
  9
$USERI4
 70
     0
  9
$USERI5
 70
     0
  9
$USERR1
 40
0.0
  9
$USERR2
 40
0.0
  9
$USERR3
 40
0.0
  9
$USERR4
 40
0.0
  9
$USERR5
 40
0.0
  9
$WORLDVIEW
 70
     1
  9
$SHADEDGE
 70
     3
  9
$SHADEDIF
 70
    70
  9
$TILEMODE
 70
     1
  9
$MAXACTVP
 70
    16
  9
$PINSBASE
 10
0.0
 20
0.0
 30
0.0
  9
$PLIMCHECK
 70
     0
  9
$PEXTMIN
 10
1.0E20
 20
1.0E20
 30
1.0E20
  9
$PEXTMAX
 10
-1.0E20
 20
-1.0E20
 30
-1.0E20
  9
$PLIMMIN
 10
0.0
 20
0.0
  9
$PLIMMAX
 10
12.0
 20
9.0
  9
$UNITMODE
 70
     0
  9
$VISRETAIN
 70
     0
  0
ENDSEC
  0
SECTION
  2
TABLES
  0
TABLE
  2
VPORT
 70
     1
  0
VPORT
  2
*ACTIVE
 70
     0
 10
0.0
 20
0.0
 11
1.0
 21
1.0
 12
6.801242
 22
4.5
 13
0.0
 23
0.0
 14
1.0
 24
1.0
 15
0.0
 25
0.0
 16
0.0
 26
0.0
 36
1.0
 17
0.0
 27
0.0
 37
0.0
 40
9.0
 41
1.511387
 42
50.0
 43
0.0
 44
0.0
 50
0.0
 51
0.0
 71
     0
 72
   100
 73
     1
 74
     1
 75
     0
 76
     0
 77
     0
 78
     0
  0
ENDTAB
  0
TABLE
  2
LTYPE
 70
    41
  0
LTYPE
  2
BYBLOCK
 70
     0
  3

 72
    65
 73
     0
 40
0.0
  0
LTYPE
  2
BYLAYER
 70
     0
  3

 72
    65
 73
     0
 40
0.0
  0
LTYPE
  2
CONTINUOUS
 70
     0
  3
Solid line
 72
    65
 73
     0
 40
0.0
  0
LTYPE
  2
BORDER
 70
    64
  3
__ __ . __ __ . __ __ . __ __ . __ __ . __ __ .
 72
    65
 73
     6
 40
1.75
 49
0.5
 49
-0.25
 49
0.5
 49
-0.25
 49
0.0
 49
-0.25
  0
LTYPE
  2
BORDER2
 70
    64
  3
__.__.__.__.__.__.__.__.__.__.__.__.__.__.__.__
 72
    65
 73
     6
 40
0.875
 49
0.25
 49
-0.125
 49
0.25
 49
-0.125
 49
0.0
 49
-0.125
  0
LTYPE
  2
BORDERX2
 70
    64
  3
____  ____  .  ____  ____  .  ____  ____  .  __
 72
    65
 73
     6
 40
3.5
 49
1.0
 49
-0.5
 49
1.0
 49
-0.5
 49
0.0
 49
-0.5
  0
LTYPE
  2
CENTER
 70
    64
  3
____ _ ____ _ ____ _ ____ _ ____ _ ____ _ ____
 72
    65
 73
     4
 40
2.0
 49
1.25
 49
-0.25
 49
0.25
 49
-0.25
  0
LTYPE
  2
CENTER2
 70
    64
  3
___ _ ___ _ ___ _ ___ _ ___ _ ___ _ ___ _ ___ _
 72
    65
 73
     4
 40
1.125
 49
0.75
 49
-0.125
 49
0.125
 49
-0.125
  0
LTYPE
  2
CENTERX2
 70
    64
  3
________  __  ________  __  ________  __  _____
 72
    65
 73
     4
 40
4.0
 49
2.5
 49
-0.5
 49
0.5
 49
-0.5
  0
LTYPE
  2
DASHDOT
 70
    64
  3
__ . __ . __ . __ . __ . __ . __ . __ . __ . __
 72
    65
 73
     4
 40
1.0
 49
0.5
 49
-0.25
 49
0.0
 49
-0.25
  0
LTYPE
  2
DASHDOT2
 70
    64
  3
_._._._._._._._._._._._._._._._._._._._._._._._
 72
    65
 73
     4
 40
0.5
 49
0.25
 49
-0.125
 49
0.0
 49
-0.125
  0
LTYPE
  2
DASHDOTX2
 70
    64
  3
____  .  ____  .  ____  .  ____  .  ____  .  __
 72
    65
 73
     4
 40
2.0
 49
1.0
 49
-0.5
 49
0.0
 49
-0.5
  0
LTYPE
  2
DASHED
 70
    64
  3
__ __ __ __ __ __ __ __ __ __ __ __ __ __ __ __
 72
    65
 73
     2
 40
0.75
 49
0.5
 49
-0.25
  0
LTYPE
  2
DASHED2
 70
    64
  3
_ _ _ _ _ _ _ _ _ _ _ _ _ _ _ _ _ _ _ _ _ _ _ _
 72
    65
 73
     2
 40
0.375
 49
0.25
 49
-0.125
  0
LTYPE
  2
DASHEDX2
 70
    64
  3
____  ____  ____  ____  ____  ____  ____  ____
 72
    65
 73
     2
 40
1.5
 49
1.0
 49
-0.5
  0
LTYPE
  2
DIVIDE
 70
    64
  3
____ . . ____ . . ____ . . ____ . . ____ . . __
 72
    65
 73
     6
 40
1.25
 49
0.5
 49
-0.25
 49
0.0
 49
-0.25
 49
0.0
 49
-0.25
  0
LTYPE
  2
DIVIDE2
 70
    64
  3
__..__..__..__..__..__..__..__..__..__..__..__.
 72
    65
 73
     6
 40
0.625
 49
0.25
 49
-0.125
 49
0.0
 49
-0.125
 49
0.0
 49
-0.125
  0
LTYPE
  2
DIVIDEX2
 70
    64
  3
________  .  .  ________  .  .  ________  .  .
 72
    65
 73
     6
 40
2.5
 49
1.0
 49
-0.5
 49
0.0
 49
-0.5
 49
0.0
 49
-0.5
  0
LTYPE
  2
DOT
 70
    64
  3
. . . . . . . . . . . . . . . . . . . . . . . .
 72
    65
 73
     2
 40
0.25
 49
0.0
 49
-0.25
  0
LTYPE
  2
DOT2
 70
    64
  3
...............................................
 72
    65
 73
     2
 40
0.125
 49
0.0
 49
-0.125
  0
LTYPE
  2
DOTX2
 70
    64
  3
.  .  .  .  .  .  .  .  .  .  .  .  .  .  .  .
 72
    65
 73
     2
 40
0.5
 49
0.0
 49
-0.5
  0
LTYPE
  2
HIDDEN
 70
    64
  3
__ __ __ __ __ __ __ __ __ __ __ __ __ __ __ __
 72
    65
 73
     2
 40
0.375
 49
0.25
 49
-0.125
  0
LTYPE
  2
HIDDEN2
 70
    64
  3
_ _ _ _ _ _ _ _ _ _ _ _ _ _ _ _ _ _ _ _ _ _ _ _
 72
    65
 73
     2
 40
0.1875
 49
0.125
 49
-0.0625
  0
LTYPE
  2
HIDDENX2
 70
    64
  3
____ ____ ____ ____ ____ ____ ____ ____ ____ __
 72
    65
 73
     2
 40
0.75
 49
0.5
 49
-0.25
  0
LTYPE
  2
PHANTOM
 70
    64
  3
______  __  __  ______  __  __  ______  __  __
 72
    65
 73
     6
 40
2.5
 49
1.25
 49
-0.25
 49
0.25
 49
-0.25
 49
0.25
 49
-0.25
  0
LTYPE
  2
PHANTOM2
 70
    64
  3
___ _ _ ___ _ _ ___ _ _ ___ _ _ ___ _ _ ___ _ _
 72
    65
 73
     6
 40
1.25
 49
0.625
 49
-0.125
 49
0.125
 49
-0.125
 49
0.125
 49
-0.125
  0
LTYPE
  2
PHANTOMX2
 70
    64
  3
____________    ____    ____    ____________
 72
    65
 73
     6
 40
5.0
 49
2.5
 49
-0.5
 49
0.5
 49
-0.5
 49
0.5
 49
-0.5
  0
LTYPE
  2
ACAD_ISO02W100
 70
    64
  3
__ __ __ __ __ __ __ __ __ __ __ __ __ __ __ __
 72
    65
 73
     2
 40
15.0
 49
12.0
 49
-3.0
  0
LTYPE
  2
ACAD_ISO03W100
 70
    64
  3
__    __    __    __    __    __    __    __
 72
    65
 73
     2
 40
30.0
 49
12.0
 49
-18.0
  0
LTYPE
  2
ACAD_ISO04W100
 70
    64
  3
____ . ____ . ____ . ____ . ____ . ____ . ____
 72
    65
 73
     4
 40
30.5
 49
24.0
 49
-3.0
 49
0.5
 49
-3.0
  0
LTYPE
  2
ACAD_ISO05W100
 70
    64
  3
____ .. ____ .. ____ .. ____ .. ____ .. ____ ..
 72
    65
 73
     6
 40
34.0
 49
24.0
 49
-3.0
 49
0.5
 49
-3.0
 49
0.5
 49
-3.0
  0
LTYPE
  2
ACAD_ISO06W100
 70
    64
  3
____ ... ____ ... ____ ... ____ ... ____ ... __
 72
    65
 73
     8
 40
37.5
 49
24.0
 49
-3.0
 49
0.5
 49
-3.0
 49
0.5
 49
-3.0
 49
0.5
 49
-3.0
  0
LTYPE
  2
ACAD_ISO07W100
 70
    64
  3
. . . . . . . . . . . . . . . . . . . . . . . .
 72
    65
 73
     2
 40
3.5
 49
0.5
 49
-3.0
  0
LTYPE
  2
ACAD_ISO08W100
 70
    64
  3
____ __ ____ __ ____ __ ____ ____ __ __ ____ __
 72
    65
 73
     4
 40
36.0
 49
24.0
 49
-3.0
 49
6.0
 49
-3.0
  0
LTYPE
  2
ACAD_ISO09W100
 70
    64
  3
____ __ __ ____ __ __ ____ __ __ ____ __ __ ___
 72
    65
 73
     6
 40
45.0
 49
24.0
 49
-3.0
 49
6.0
 49
-3.0
 49
6.0
 49
-3.0
  0
LTYPE
  2
ACAD_ISO10W100
 70
    64
  3
__ . __ . __ . __ . __ . __ . __ . __ . __ . __
 72
    65
 73
     4
 40
18.5
 49
12.0
 49
-3.0
 49
0.5
 49
-3.0
  0
LTYPE
  2
ACAD_ISO11W100
 70
    64
  3
__ __ . __ __ . __ __ . __ __ . __ __ . __ __ .
 72
    65
 73
     6
 40
33.5
 49
12.0
 49
-3.0
 49
12.0
 49
-3.0
 49
0.5
 49
-3.0
  0
LTYPE
  2
ACAD_ISO12W100
 70
    64
  3
__ . . __ . . __ . . __ . . __ . . __ . . __ .
 72
    65
 73
     6
 40
22.0
 49
12.0
 49
-3.0
 49
0.5
 49
-3.0
 49
0.5
 49
-3.0
  0
LTYPE
  2
ACAD_ISO13W100
 70
    64
  3
__ __ . . __ __ . . __ __ . . __ __ . . __ __ .
 72
    65
 73
     8
 40
37.0
 49
12.0
 49
-3.0
 49
12.0
 49
-3.0
 49
0.5
 49
-3.0
 49
0.5
 49
-3.0
  0
LTYPE
  2
ACAD_ISO14W100
 70
    64
  3
__ . . . __ . . . __ . . . __ . . . __ . . . __
 72
    65
 73
     8
 40
25.5
 49
12.0
 49
-3.0
 49
0.5
 49
-3.0
 49
0.5
 49
-3.0
 49
0.5
 49
-3.0
  0
LTYPE
  2
ACAD_ISO15W100
 70
    64
  3
__ __ . . . __ __ . . . __ __ . . . __ __ . . .
 72
    65
 73
    10
 40
40.5
 49
12.0
 49
-3.0
 49
12.0
 49
-3.0
 49
0.5
 49
-3.0
 49
0.5
 49
-3.0
 49
0.5
 49
-3.0
  0
ENDTAB
  0
TABLE
  2
STYLE
 70
     4
  0
STYLE
  2
STANDARD
 70
    64
 40
0.0
 41
1.0
 50
0.0
 71
     0
 42
0.2
  3
txt
  4

  0
STYLE
  2
TOLERANCE
 70
    64
 40
0.0
 41
1.0
 50
0.0
 71
     0
 42
0.2
  3
../igesfont/iges1003.shx
  4

  0
STYLE
  2
ROMANS
 70
    64
 40
0.0
 41
1.0
 50
0.0
 71
     0
 42
0.2
  3
romans.shx
  4

  0
STYLE
  2
ROMANC
 70
    64
 40
0.0
 41
1.0
 50
0.0
 71
     0
 42
0.2
  3
romanc.shx
  4

  0
ENDTAB
  0
TABLE
  2
DIMSTYLE
 70
     2
  0
DIMSTYLE
  2
UNNAMED
 70
     0
  3

  4

  5

  6

  7

 40
1.0
 41
0.18
 42
0.0625
 43
0.38
 44
0.18
 45
0.0
 46
0.0
 47
0.0
 48
0.0
140
0.18
141
0.09
142
0.0
143
25.4
144
1.0
145
0.0
146
1.0
147
0.09
 71
     0
 72
     0
 73
     1
 74
     1
 75
     0
 76
     0
 77
     0
 78
     0
170
     0
171
     2
172
     0
173
     0
174
     0
175
     0
176
     0
177
     0
178
     0
  0
DIMSTYLE
  2
STANDARD
 70
     0
  3

  4

  5

  6

  7

 40
1.0
 41
0.18
 42
0.0625
 43
0.38
 44
0.18
 45
0.0
 46
0.0
 47
0.0
 48
0.0
140
0.18
141
0.09
142
0.0
143
25.4
144
1.0
145
0.0
146
1.0
147
0.09
 71
     0
 72
     0
 73
     1
 74
     1
 75
     0
 76
     0
 77
     0
 78
     0
170
     0
171
     2
172
     0
173
     0
174
     0
175
     0
176
     0
177
     0
178
     0
  0
ENDTAB
  0
TABLE
  2
LAYER
 70
     2
  0
LAYER
  2
0
 70
     0
 62
     7
  6
CONTINUOUS
  0
LAYER
  2
255
 70
     0
 62
     7
  6
CONTINUOUS
  0
ENDTAB
  0
ENDSEC
  0
SECTION
  2
BLOCKS
  0
BLOCK
  5
     B
  8
0
  6
CONTINUOUS
 62
     7
  2
*UDIM1970
 70
    65
 10
0.0
 20
0.0
 30
0.0
  3
*UDIM1970
  0
TEXT
  5
     C
  8
0
  6
CONTINUOUS
 62
     7
 10
-551.544734961884
 20
-97.1653793809111
 30
0.0
 40
3.00000002980232
  1
218
 50
449.999999896069
 41
0.933333333333333
 72
     1
 11
-553.044734969735
 21
-93.2653793394566
 31
0.0
 73
     2
  0
LINE
  5
     D
  8
0
  6
CONTINUOUS
 62
     7
 10
-554.68782980722
 20
-65.7403793334961
 30
0.0
 11
-548.544734954834
 21
-65.7403793334961
 31
0.0
  0
LINE
  5
     E
  8
0
  6
CONTINUOUS
 62
     7
 10
-550.544734954834
 20
-65.7403793334961
 30
0.0
 11
-550.544734954834
 21
-120.240379333496
 31
0.0
  0
LINE
  5
     F
  8
0
  6
CONTINUOUS
 62
     7
 10
-550.023790524882
 20
-68.6948026107031
 30
0.0
 11
-550.544734954834
 21
-65.7403793334961
 31
0.0
  0
LINE
  5
    10
  8
0
  6
CONTINUOUS
 62
     7
 10
-550.544734954834
 20
-65.7403793334961
 30
0.0
 11
-551.065679384786
 21
-68.6948026107031
 31
0.0
  0
LINE
  5
    11
  8
0
  6
CONTINUOUS
 62
     7
 10
-551.065679384786
 20
-117.285956056289
 30
0.0
 11
-550.544734954834
 21
-120.240379333496
 31
0.0
  0
LINE
  5
    12
  8
0
  6
CONTINUOUS
 62
     7
 10
-550.544734954834
 20
-120.240379333496
 30
0.0
 11
-550.023790524882
 21
-117.285956056289
 31
0.0
  0
ENDBLK
  5
    13
  8
0
  6
CONTINUOUS
 62
     7
  0
BLOCK
  5
    14
  8
0
  6
CONTINUOUS
 62
     7
  2
*UDIM1971
 70
    65
 10
0.0
 20
0.0
 30
0.0
  3
*UDIM1971
  0
TEXT
  5
    15
  8
0
  6
CONTINUOUS
 62
     7
 10
-557.006118789056
 20
-87.5216294226343
 30
0.0
 40
3.00000002980232
  1
107,25
 50
449.999999896069
 41
0.933333333333333
 72
     1
 11
-558.506118789315
 21
-79.4216293394566
 31
0.0
 73
     2
  0
LINE
  5
    16
  8
0
  6
CONTINUOUS
 62
     7
 10
-556.006118774414
 20
-65.7403793334961
 30
0.0
 11
-556.006118774414
 21
-92.5528793334961
 31
0.0
  0
LINE
  5
    17
  8
0
  6
CONTINUOUS
 62
     7
 10
-555.485174344462
 20
-68.6948026107031
 30
0.0
 11
-556.006118774414
 21
-65.7403793334961
 31
0.0
  0
LINE
  5
    18
  8
0
  6
CONTINUOUS
 62
     7
 10
-556.006118774414
 20
-65.7403793334961
 30
0.0
 11
-556.527063204366
 21
-68.6948026107031
 31
0.0
  0
LINE
  5
    19
  8
0
  6
CONTINUOUS
 62
     7
 10
-556.527063204366
 20
-89.5984560562891
 30
0.0
 11
-556.006118774414
 21
-92.5528793334961
 31
0.0
  0
LINE
  5
    1A
  8
0
  6
CONTINUOUS
 62
     7
 10
-556.006118774414
 20
-92.5528793334961
 30
0.0
 11
-555.485174344462
 21
-89.5984560562891
 31
0.0
  0
ENDBLK
  5
    1B
  8
0
  6
CONTINUOUS
 62
     7
  0
BLOCK
  5
    1C
  8
0
  6
CONTINUOUS
 62
     7
  2
*UDIM1972
 70
    65
 10
0.0
 20
0.0
 30
0.0
  3
*UDIM1972
  0
TEXT
  5
    1D
  8
0
  6
CONTINUOUS
 62
     7
 10
-553.434705134767
 20
-128.390722583584
 30
0.0
 40
3.00000002980232
  1
24
 50
332.936667412074
 41
0.933333333333333
 72
     1
 11
-550.525982055128
 21
-128.192404115318
 31
0.0
 73
     2
  0
TEXT
  5
    1E
  8
0
  6
CONTINUOUS
 62
     7
 10
-556.239793238871
 20
-126.957550999021
 30
0.0
 40
3.00000002980232
  1
Ø
 50
332.936667412074
 41
0.933333333333334
 72
     1
 11
-554.577775990067
 21
-126.122267374483
 31
0.0
 73
     2
  0
LINE
  5
    1F
  8
0
  6
CONTINUOUS
 62
     7
 10
-549.437159411375
 20
-131.556102295764
 30
0.0
 11
-574.256473408076
 21
-118.875454017021
 31
0.0
  0
LINE
  5
    20
  8
0
  6
CONTINUOUS
 62
     7
 10
-566.045505510478
 20
-122.485590511822
 30
0.0
 11
-568.913448466924
 21
-121.605304649972
 31
0.0
  0
LINE
  5
    21
  8
0
  6
CONTINUOUS
 62
     7
 10
-568.913448466924
 20
-121.605304649972
 30
0.0
 11
-566.519539004424
 21
-123.413396872551
 31
0.0
  0
LINE
  5
    22
  8
0
  6
CONTINUOUS
 62
     7
 10
-577.124416364522
 20
-117.99516815517
 30
0.0
 11
-574.256473408076
 21
-118.875454017021
 31
0.0
  0
LINE
  5
    23
  8
0
  6
CONTINUOUS
 62
     7
 10
-574.256473408076
 20
-118.875454017021
 30
0.0
 11
-576.650382870577
 21
-117.067361794441
 31
0.0
  0
ENDBLK
  5
    24
  8
0
  6
CONTINUOUS
 62
     7
  0
BLOCK
  5
    25
  8
0
  6
CONTINUOUS
 62
     7
  2
*UDIM1973
 70
    65
 10
0.0
 20
0.0
 30
0.0
  3
*UDIM1973
  0
TEXT
  5
    26
  8
0
  6
CONTINUOUS
 62
     7
 10
-622.357912915453
 20
-131.237223514659
 30
0.0
 40
3.00000002980232
  1
5,5
 50
378.437185585583
 41
0.933333333333333
 72
     1
 11
-619.132493371987
 21
-128.580784334945
 31
0.0
 73
     2
  0
TEXT
  5
    27
  8
0
  6
CONTINUOUS
 62
     7
 10
-625.346226420747
 20
-132.23345765213
 30
0.0
 40
3.00000002980232
  1
Ø
 50
378.437185585583
 41
0.933333333333334
 72
     1
 11
-624.777085569689
 21
-130.462559924873
 31
0.0
 73
     2
  0
TEXT
  5
    28
  8
0
  6
CONTINUOUS
 62
     7
 10
-614.436510386558
 20
-128.596412376333
 30
0.0
 40
3.00000002980232
  1
 - M5
 50
378.437185585583
 41
0.933333333333333
 72
     1
 11
-608.554812150683
 21
-125.054431744159
 31
0.0
 73
     2
  0
LINE
  5
    29
  8
0
  6
CONTINUOUS
 62
     7
 10
-584.05774965829
 20
-119.522947281417
 30
0.0
 11
-625.029961614521
 21
-133.182128604737
 31
0.0
  0
LINE
  5
    2A
  8
0
  6
CONTINUOUS
 62
     7
 10
-581.419730504062
 20
-118.094362337522
 30
0.0
 11
-584.05774965829
 21
-119.522947281417
 31
0.0
  0
LINE
  5
    2B
  8
0
  6
CONTINUOUS
 62
     7
 10
-584.05774965829
 20
-119.522947281417
 30
0.0
 11
-581.090217729012
 21
-119.082772033685
 31
0.0
  0
LINE
  5
    2C
  8
0
  6
CONTINUOUS
 62
     7
 10
-588.000191370938
 20
-121.38639632947
 30
0.0
 11
-585.36217221671
 21
-119.957811385575
 31
0.0
  0
LINE
  5
    2D
  8
0
  6
CONTINUOUS
 62
     7
 10
-585.36217221671
 20
-119.957811385575
 30
0.0
 11
-588.329704145988
 21
-120.397986633307
 31
0.0
  0
ENDBLK
  5
    2E
  8
0
  6
CONTINUOUS
 62
     7
  0
BLOCK
  5
    2F
  8
0
  6
CONTINUOUS
 62
     7
  2
*UDIM1974
 70
    65
 10
0.0
 20
0.0
 30
0.0
  3
*UDIM1974
  0
TEXT
  5
    30
  8
0
  6
CONTINUOUS
 62
     7
 10
-578.810515341889
 20
-52.9527778580265
 30
0.0
 40
3.00000002980232
  1
35
 50
359.999999896069
 41
0.933333333333333
 72
     1
 11
-576.310515314341
 21
-51.4527778476477
 31
0.0
 73
     2
  0
LINE
  5
    31
  8
0
  6
CONTINUOUS
 62
     7
 10
-571.5849609375
 20
-61.9903793334961
 30
0.0
 11
-571.5849609375
 21
-51.9527778625488
 31
0.0
  0
LINE
  5
    32
  8
0
  6
CONTINUOUS
 62
     7
 10
-580.3349609375
 20
-58.4257327238048
 30
0.0
 11
-580.3349609375
 21
-51.9527778625488
 31
0.0
  0
LINE
  5
    33
  8
0
  6
CONTINUOUS
 62
     7
 10
-571.5849609375
 20
-53.9527778625488
 30
0.0
 11
-580.3349609375
 21
-53.9527778625488
 31
0.0
  0
LINE
  5
    34
  8
0
  6
CONTINUOUS
 62
     7
 10
-568.630537660293
 20
-53.4318334325972
 30
0.0
 11
-571.5849609375
 21
-53.9527778625488
 31
0.0
  0
LINE
  5
    35
  8
0
  6
CONTINUOUS
 62
     7
 10
-571.5849609375
 20
-53.9527778625488
 30
0.0
 11
-568.630537660293
 21
-54.4737222925005
 31
0.0
  0
LINE
  5
    36
  8
0
  6
CONTINUOUS
 62
     7
 10
-583.289384214707
 20
-54.4737222925005
 30
0.0
 11
-580.3349609375
 21
-53.9527778625488
 31
0.0
  0
LINE
  5
    37
  8
0
  6
CONTINUOUS
 62
     7
 10
-580.3349609375
 20
-53.9527778625488
 30
0.0
 11
-583.289384214707
 21
-53.4318334325972
 31
0.0
  0
ENDBLK
  5
    38
  8
0
  6
CONTINUOUS
 62
     7
  0
BLOCK
  5
    39
  8
0
  6
CONTINUOUS
 62
     7
  2
*UDIM1975
 70
    65
 10
0.0
 20
0.0
 30
0.0
  3
*UDIM1975
  0
TEXT
  5
    3A
  8
0
  6
CONTINUOUS
 62
     7
 10
-587.610691485536
 20
-52.9527778580265
 30
0.0
 40
3.00000002980232
  1
35
 50
359.999999896069
 41
0.933333333333333
 72
     1
 11
-585.110691457987
 21
-51.4527778476477
 31
0.0
 73
     2
  0
LINE
  5
    3B
  8
0
  6
CONTINUOUS
 62
     7
 10
-589.0849609375
 20
-61.9903793334961
 30
0.0
 11
-589.0849609375
 21
-51.9527778625488
 31
0.0
  0
LINE
  5
    3C
  8
0
  6
CONTINUOUS
 62
     7
 10
-580.3349609375
 20
-53.9527778625488
 30
0.0
 11
-589.0849609375
 21
-53.9527778625488
 31
0.0
  0
LINE
  5
    3D
  8
0
  6
CONTINUOUS
 62
     7
 10
-577.380537660293
 20
-53.4318334325972
 30
0.0
 11
-580.3349609375
 21
-53.9527778625488
 31
0.0
  0
LINE
  5
    3E
  8
0
  6
CONTINUOUS
 62
     7
 10
-580.3349609375
 20
-53.9527778625488
 30
0.0
 11
-577.380537660293
 21
-54.4737222925005
 31
0.0
  0
LINE
  5
    3F
  8
0
  6
CONTINUOUS
 62
     7
 10
-592.039384214707
 20
-54.4737222925005
 30
0.0
 11
-589.0849609375
 21
-53.9527778625488
 31
0.0
  0
LINE
  5
    40
  8
0
  6
CONTINUOUS
 62
     7
 10
-589.0849609375
 20
-53.9527778625488
 30
0.0
 11
-592.039384214707
 21
-53.4318334325972
 31
0.0
  0
ENDBLK
  5
    41
  8
0
  6
CONTINUOUS
 62
     7
  0
BLOCK
  5
    42
  8
0
  6
CONTINUOUS
 62
     5
  2
*UDIM1976
 70
    65
 10
0.0
 20
0.0
 30
0.0
  3
*UDIM1976
  0
TEXT
  5
    43
  8
0
  6
CONTINUOUS
 62
     5
 10
-603.16213990722
 20
-87.7716294226343
 30
0.0
 40
3.00000002980232
  1
105,25
 50
449.999999896069
 41
0.933333333333333
 72
     1
 11
-604.662139907479
 21
-79.6716293394566
 31
0.0
 73
     2
  0
LINE
  5
    44
  8
0
  6
CONTINUOUS
 62
     5
 10
-593.686629339936
 20
-66.2403793334961
 30
0.0
 11
-604.162139892578
 21
-66.2403793334961
 31
0.0
  0
LINE
  5
    45
  8
0
  6
CONTINUOUS
 62
     5
 10
-602.162139892578
 20
-66.2403793334961
 30
0.0
 11
-602.162139892578
 21
-92.5528793334961
 31
0.0
  0
LINE
  5
    46
  8
0
  6
CONTINUOUS
 62
     5
 10
-601.641195462626
 20
-69.1948026107031
 30
0.0
 11
-602.162139892578
 21
-66.2403793334961
 31
0.0
  0
LINE
  5
    47
  8
0
  6
CONTINUOUS
 62
     5
 10
-602.162139892578
 20
-66.2403793334961
 30
0.0
 11
-602.68308432253
 21
-69.1948026107031
 31
0.0
  0
LINE
  5
    48
  8
0
  6
CONTINUOUS
 62
     5
 10
-602.68308432253
 20
-89.5984560562891
 30
0.0
 11
-602.162139892578
 21
-92.5528793334961
 31
0.0
  0
LINE
  5
    49
  8
0
  6
CONTINUOUS
 62
     5
 10
-602.162139892578
 20
-92.5528793334961
 30
0.0
 11
-601.641195462626
 21
-89.5984560562891
 31
0.0
  0
ENDBLK
  5
    4A
  8
0
  6
CONTINUOUS
 62
     5
  0
BLOCK
  5
    4B
  8
0
  6
CONTINUOUS
 62
     7
  2
*UDIM1977
 70
    65
 10
0.0
 20
0.0
 30
0.0
  3
*UDIM1977
  0
TEXT
  5
    4C
  8
0
  6
CONTINUOUS
 62
     7
 10
-593.232095745932
 20
-84.3784904434758
 30
0.0
 40
3.00000002980232
  1
35
 50
359.999999896069
 41
0.933333333333333
 72
     1
 11
-590.732095718384
 21
-82.8784904330969
 31
0.0
 73
     2
  0
LINE
  5
    4D
  8
0
  6
CONTINUOUS
 62
     7
 10
-575.9599609375
 20
-85.378490447998
 30
0.0
 11
-593.232095743219
 21
-85.378490447998
 31
0.0
  0
LINE
  5
    4E
  8
0
  6
CONTINUOUS
 62
     7
 10
-573.005537660293
 20
-84.8575460180464
 30
0.0
 11
-575.9599609375
 21
-85.378490447998
 31
0.0
  0
LINE
  5
    4F
  8
0
  6
CONTINUOUS
 62
     7
 10
-575.9599609375
 20
-85.378490447998
 30
0.0
 11
-573.005537660293
 21
-85.8994348779497
 31
0.0
  0
LINE
  5
    50
  8
0
  6
CONTINUOUS
 62
     7
 10
-587.664384214707
 20
-85.8994348779497
 30
0.0
 11
-584.7099609375
 21
-85.378490447998
 31
0.0
  0
LINE
  5
    51
  8
0
  6
CONTINUOUS
 62
     7
 10
-584.7099609375
 20
-85.378490447998
 30
0.0
 11
-587.664384214707
 21
-84.8575460180464
 31
0.0
  0
ENDBLK
  5
    52
  8
0
  6
CONTINUOUS
 62
     7
  0
BLOCK
  5
    53
  8
0
  6
CONTINUOUS
 62
     7
  2
*UDIM1978
 70
    65
 10
0.0
 20
0.0
 30
0.0
  3
*UDIM1978
  0
TEXT
  5
    54
  8
0
  6
CONTINUOUS
 62
     7
 10
-610.35619354953
 20
-97.165378889814
 30
0.0
 40
3.00000002980232
  1
214
 50
449.999999896069
 41
0.933333333333333
 72
     1
 11
-611.856193557382
 21
-93.2653788483595
 31
0.0
 73
     2
  0
LINE
  5
    55
  8
0
  6
CONTINUOUS
 62
     7
 10
-593.686629339936
 20
-66.2403790195796
 30
0.0
 11
-611.35619354248
 21
-66.2403734728123
 31
0.0
  0
LINE
  5
    56
  8
0
  6
CONTINUOUS
 62
     7
 10
-583.833458557296
 20
-119.74037901958
 30
0.0
 11
-611.35619354248
 21
-119.74037037974
 31
0.0
  0
LINE
  5
    57
  8
0
  6
CONTINUOUS
 62
     7
 10
-609.356193542481
 20
-66.2403741006453
 30
0.0
 11
-609.356193542481
 21
-119.740371007573
 31
0.0
  0
LINE
  5
    58
  8
0
  6
CONTINUOUS
 62
     7
 10
-608.835249112529
 20
-69.1947973778523
 30
0.0
 11
-609.356193542481
 21
-66.2403741006453
 31
0.0
  0
LINE
  5
    59
  8
0
  6
CONTINUOUS
 62
     7
 10
-609.356193542481
 20
-66.2403741006453
 30
0.0
 11
-609.877137972432
 21
-69.1947973778523
 31
0.0
  0
LINE
  5
    5A
  8
0
  6
CONTINUOUS
 62
     7
 10
-609.877137972432
 20
-116.785947730366
 30
0.0
 11
-609.356193542481
 21
-119.740371007573
 31
0.0
  0
LINE
  5
    5B
  8
0
  6
CONTINUOUS
 62
     7
 10
-609.356193542481
 20
-119.740371007573
 30
0.0
 11
-608.835249112529
 21
-116.785947730366
 31
0.0
  0
ENDBLK
  5
    5C
  8
0
  6
CONTINUOUS
 62
     7
  0
BLOCK
  5
    5D
  8
0
  6
CONTINUOUS
 62
     7
  2
*HATCH1241
 70
    65
 10
0.0
 20
0.0
 30
0.0
  3
*HATCH1241
  0
LINE
  5
    5E
  8
0
  6
CONTINUOUS
 62
   210
 10
221.237091064453
 20
82.1116256713867
 30
0.0
 11
225.348754882813
 21
77.9999618530274
 31
0.0
  0
LINE
  5
    5F
  8
0
  6
CONTINUOUS
 62
   210
 10
224.591400146484
 20
82.9999618530274
 30
0.0
 11
227.237045288086
 21
80.3543167114258
 31
0.0
  0
ENDBLK
  5
    60
  8
0
  6
CONTINUOUS
 62
     7
  0
BLOCK
  5
    61
  8
0
  6
CONTINUOUS
 62
     7
  2
*HATCH1242
 70
    65
 10
0.0
 20
0.0
 30
0.0
  3
*HATCH1242
  0
LINE
  5
    62
  8
0
  6
CONTINUOUS
 62
     3
 10
204.218536376953
 20
77.9999618530274
 30
0.0
 11
202.237045288086
 21
76.0184707641602
 31
0.0
  0
LINE
  5
    63
  8
0
  6
CONTINUOUS
 62
     3
 10
206.237045288086
 20
77.8971557617188
 30
0.0
 11
202.237045288086
 21
73.8971557617188
 31
0.0
  0
LINE
  5
    64
  8
0
  6
CONTINUOUS
 62
     3
 10
206.237045288086
 20
75.7758331298828
 30
0.0
 11
202.237045288086
 21
71.7758331298828
 31
0.0
  0
LINE
  5
    65
  8
0
  6
CONTINUOUS
 62
     3
 10
206.237045288086
 20
73.6545104980469
 30
0.0
 11
202.237045288086
 21
69.6545104980469
 31
0.0
  0
LINE
  5
    66
  8
0
  6
CONTINUOUS
 62
     3
 10
206.237045288086
 20
71.5331878662109
 30
0.0
 11
202.237045288086
 21
67.5331878662109
 31
0.0
  0
LINE
  5
    67
  8
0
  6
CONTINUOUS
 62
     3
 10
206.237045288086
 20
69.4118728637695
 30
0.0
 11
202.819671630859
 21
65.994499206543
 31
0.0
  0
LINE
  5
    68
  8
0
  6
CONTINUOUS
 62
     3
 10
206.237045288086
 20
67.2905502319336
 30
0.0
 11
204.279418945313
 21
65.3329238891602
 31
0.0
  0
LINE
  5
    69
  8
0
  6
CONTINUOUS
 62
     3
 10
206.237045288086
 20
65.1692276000977
 30
0.0
 11
205.739166259766
 21
64.6713485717773
 31
0.0
  0
ENDBLK
  5
    6A
  8
0
  6
CONTINUOUS
 62
     7
  0
BLOCK
  5
    6B
  8
0
  6
CONTINUOUS
 62
     7
  2
*HATCH1243
 70
    65
 10
0.0
 20
0.0
 30
0.0
  3
*HATCH1243
  0
LINE
  5
    6C
  8
0
  6
CONTINUOUS
 62
   210
 10
196.745819091797
 20
81.1470718383789
 30
0.0
 11
199.892929077148
 21
77.9999618530274
 31
0.0
  0
LINE
  5
    6D
  8
0
  6
CONTINUOUS
 62
   210
 10
199.13557434082
 20
82.9999618530274
 30
0.0
 11
204.135559082031
 21
77.9999618530274
 31
0.0
  0
LINE
  5
    6E
  8
0
  6
CONTINUOUS
 62
   210
 10
203.378219604492
 20
82.9999618530274
 30
0.0
 11
208.378204345703
 21
77.9999618530274
 31
0.0
  0
LINE
  5
    6F
  8
0
  6
CONTINUOUS
 62
   210
 10
207.620864868164
 20
82.9999618530274
 30
0.0
 11
212.620849609375
 21
77.9999618530274
 31
0.0
  0
LINE
  5
    70
  8
0
  6
CONTINUOUS
 62
   210
 10
211.863494873047
 20
82.9999618530274
 30
0.0
 11
213.237091064453
 21
81.626350402832
 31
0.0
  0
ENDBLK
  5
    71
  8
0
  6
CONTINUOUS
 62
     7
  0
BLOCK
  5
    72
  8
0
  6
CONTINUOUS
 62
     7
  2
*HATCH1244
 70
    65
 10
0.0
 20
0.0
 30
0.0
  3
*HATCH1244
  0
LINE
  5
    73
  8
0
  6
CONTINUOUS
 62
     3
 10
197.431854248047
 20
90.3051605224609
 30
0.0
 11
196.745819091797
 21
89.6191329956055
 31
0.0
  0
LINE
  5
    74
  8
0
  6
CONTINUOUS
 62
     3
 10
198.492523193359
 20
89.2445068359375
 30
0.0
 11
196.745819091797
 21
87.4978103637695
 31
0.0
  0
LINE
  5
    75
  8
0
  6
CONTINUOUS
 62
     3
 10
199.553192138672
 20
88.1838531494141
 30
0.0
 11
196.745819091797
 21
85.3764877319336
 31
0.0
  0
LINE
  5
    76
  8
0
  6
CONTINUOUS
 62
     3
 10
199.737045288086
 20
86.2463912963867
 30
0.0
 11
196.745819091797
 21
83.2551727294922
 31
0.0
  0
LINE
  5
    77
  8
0
  6
CONTINUOUS
 62
     3
 10
199.737045288086
 20
84.1250762939453
 30
0.0
 11
198.611923217773
 21
82.9999618530274
 31
0.0
  0
ENDBLK
  5
    78
  8
0
  6
CONTINUOUS
 62
     7
  0
BLOCK
  5
    79
  8
0
  6
CONTINUOUS
 62
     7
  2
*HATCH1245
 70
    65
 10
0.0
 20
0.0
 30
0.0
  3
*HATCH1245
  0
LINE
  5
    7A
  8
0
  6
CONTINUOUS
 62
   210
 10
-10.7629547119141
 20
80.7665863037109
 30
0.0
 11
-7.99633836746216
 21
77.9999618530274
 31
0.0
  0
LINE
  5
    7B
  8
0
  6
CONTINUOUS
 62
   210
 10
-8.75369358062744
 20
82.9999618530274
 30
0.0
 11
-4.76300573348999
 21
79.0092697143555
 31
0.0
  0
ENDBLK
  5
    7C
  8
0
  6
CONTINUOUS
 62
     7
  0
BLOCK
  5
    7D
  8
0
  6
CONTINUOUS
 62
     7
  2
*HATCH1246
 70
    65
 10
0.0
 20
0.0
 30
0.0
  3
*HATCH1246
  0
LINE
  5
    7E
  8
0
  6
CONTINUOUS
 62
   210
 10
3.23699402809143
 20
81.6158676147461
 30
0.0
 11
6.8528938293457
 21
77.9999618530274
 31
0.0
  0
LINE
  5
    7F
  8
0
  6
CONTINUOUS
 62
   210
 10
6.09554004669189
 20
82.9999618530274
 30
0.0
 11
11.095531463623
 21
77.9999618530274
 31
0.0
  0
LINE
  5
    80
  8
0
  6
CONTINUOUS
 62
   210
 10
10.3381776809692
 20
82.9999618530274
 30
0.0
 11
15.3381690979004
 21
77.9999618530274
 31
0.0
  0
LINE
  5
    81
  8
0
  6
CONTINUOUS
 62
   210
 10
14.5808153152466
 20
82.9999618530274
 30
0.0
 11
19.5808067321777
 21
77.9999618530274
 31
0.0
  0
LINE
  5
    82
  8
0
  6
CONTINUOUS
 62
   210
 10
18.8234539031982
 20
82.9999618530274
 30
0.0
 11
19.7282676696777
 21
82.0951461791992
 31
0.0
  0
ENDBLK
  5
    83
  8
0
  6
CONTINUOUS
 62
     7
  0
BLOCK
  5
    84
  8
0
  6
CONTINUOUS
 62
     7
  2
*HATCH1247
 70
    65
 10
0.0
 20
0.0
 30
0.0
  3
*HATCH1247
  0
LINE
  5
    85
  8
0
  6
CONTINUOUS
 62
     3
 10
17.0864696502686
 20
102.999938964844
 30
0.0
 11
15.2370948791504
 21
101.150566101074
 31
0.0
  0
LINE
  5
    86
  8
0
  6
CONTINUOUS
 62
     3
 10
18.1471290588379
 20
102.999938964844
 30
0.0
 11
14.2369937896729
 21
99.0898056030274
 31
0.0
  0
LINE
  5
    87
  8
0
  6
CONTINUOUS
 62
     3
 10
18.2369937896729
 20
100.968482971191
 30
0.0
 11
14.2369937896729
 21
96.9684829711914
 31
0.0
  0
LINE
  5
    88
  8
0
  6
CONTINUOUS
 62
     3
 10
18.2369937896729
 20
98.8471603393555
 30
0.0
 11
14.2369937896729
 21
94.8471603393555
 31
0.0
  0
LINE
  5
    89
  8
0
  6
CONTINUOUS
 62
     3
 10
18.2369937896729
 20
96.7258377075195
 30
0.0
 11
14.2369937896729
 21
92.7258377075195
 31
0.0
  0
LINE
  5
    8A
  8
0
  6
CONTINUOUS
 62
     3
 10
18.2369937896729
 20
94.6045150756836
 30
0.0
 11
14.2369937896729
 21
90.6045150756836
 31
0.0
  0
LINE
  5
    8B
  8
0
  6
CONTINUOUS
 62
     3
 10
18.2369937896729
 20
92.4831924438477
 30
0.0
 11
14.2369937896729
 21
88.4831924438477
 31
0.0
  0
LINE
  5
    8C
  8
0
  6
CONTINUOUS
 62
     3
 10
18.2369937896729
 20
90.3618698120117
 30
0.0
 11
14.2369937896729
 21
86.3618698120117
 31
0.0
  0
LINE
  5
    8D
  8
0
  6
CONTINUOUS
 62
     3
 10
18.2369937896729
 20
88.2405471801758
 30
0.0
 11
14.2369937896729
 21
84.2405471801758
 31
0.0
  0
LINE
  5
    8E
  8
0
  6
CONTINUOUS
 62
     3
 10
18.2369937896729
 20
86.1192398071289
 30
0.0
 11
15.117714881897
 21
82.9999618530274
 31
0.0
  0
LINE
  5
    8F
  8
0
  6
CONTINUOUS
 62
     3
 10
18.2369937896729
 20
83.997917175293
 30
0.0
 11
17.23903465271
 21
82.9999618530274
 31
0.0
  0
ENDBLK
  5
    90
  8
0
  6
CONTINUOUS
 62
     7
  0
BLOCK
  5
    91
  8
0
  6
CONTINUOUS
 62
     7
  2
*HATCH1248
 70
    65
 10
0.0
 20
0.0
 30
0.0
  3
*HATCH1248
  0
LINE
  5
    92
  8
0
  6
CONTINUOUS
 62
     3
 10
12.2390375137329
 20
77.9999618530274
 30
0.0
 11
10.2369937896729
 21
75.997917175293
 31
0.0
  0
LINE
  5
    93
  8
0
  6
CONTINUOUS
 62
     3
 10
14.2369937896729
 20
77.8766021728516
 30
0.0
 11
10.2369937896729
 21
73.8766021728516
 31
0.0
  0
LINE
  5
    94
  8
0
  6
CONTINUOUS
 62
     3
 10
14.2369937896729
 20
75.7552795410156
 30
0.0
 11
10.2369937896729
 21
71.7552795410156
 31
0.0
  0
LINE
  5
    95
  8
0
  6
CONTINUOUS
 62
     3
 10
14.2369937896729
 20
73.6339569091797
 30
0.0
 11
10.2369937896729
 21
69.6339569091797
 31
0.0
  0
LINE
  5
    96
  8
0
  6
CONTINUOUS
 62
     3
 10
14.2369937896729
 20
71.5126342773438
 30
0.0
 11
10.2369937896729
 21
67.5126342773438
 31
0.0
  0
LINE
  5
    97
  8
0
  6
CONTINUOUS
 62
     3
 10
14.2369937896729
 20
69.3913116455078
 30
0.0
 11
10.2369937896729
 21
65.3913116455078
 31
0.0
  0
LINE
  5
    98
  8
0
  6
CONTINUOUS
 62
     3
 10
14.2369937896729
 20
67.2699890136719
 30
0.0
 11
10.2369937896729
 21
63.2699890136719
 31
0.0
  0
LINE
  5
    99
  8
0
  6
CONTINUOUS
 62
     3
 10
14.2369937896729
 20
65.148681640625
 30
0.0
 11
10.8553380966187
 21
61.7670249938965
 31
0.0
  0
LINE
  5
    9A
  8
0
  6
CONTINUOUS
 62
     3
 10
14.2369937896729
 20
63.0273590087891
 30
0.0
 11
13.7800302505493
 21
62.5703964233398
 31
0.0
  0
ENDBLK
  5
    9B
  8
0
  6
CONTINUOUS
 62
     7
  0
BLOCK
  5
    9C
  8
0
  6
CONTINUOUS
 62
     7
  2
*HATCH1249
 70
    65
 10
0.0
 20
0.0
 30
0.0
  3
*HATCH1249
  0
LINE
  5
    9D
  8
0
  6
CONTINUOUS
 62
     3
 10
185.858123779297
 20
-4.00005149841309
 30
0.0
 11
184.480621337891
 21
-5.37755584716797
 31
0.0
  0
LINE
  5
    9E
  8
0
  6
CONTINUOUS
 62
     3
 10
187.979446411133
 20
-4.00005149841309
 30
0.0
 11
185.979446411133
 21
-6.00005149841309
 31
0.0
  0
LINE
  5
    9F
  8
0
  6
CONTINUOUS
 62
     3
 10
190.10075378418
 20
-4.00005149841309
 30
0.0
 11
188.10075378418
 21
-6.00005149841309
 31
0.0
  0
LINE
  5
    A0
  8
0
  6
CONTINUOUS
 62
     3
 10
192.222061157227
 20
-4.00005149841309
 30
0.0
 11
190.222061157227
 21
-6.00005149841309
 31
0.0
  0
LINE
  5
    A1
  8
0
  6
CONTINUOUS
 62
     3
 10
194.343368530273
 20
-4.00005149841309
 30
0.0
 11
192.343368530273
 21
-6.00005149841309
 31
0.0
  0
LINE
  5
    A2
  8
0
  6
CONTINUOUS
 62
     3
 10
196.46467590332
 20
-4.00005149841309
 30
0.0
 11
194.46467590332
 21
-6.00005149841309
 31
0.0
  0
LINE
  5
    A3
  8
0
  6
CONTINUOUS
 62
     3
 10
198.585983276367
 20
-4.00005149841309
 30
0.0
 11
196.585983276367
 21
-6.00005149841309
 31
0.0
  0
LINE
  5
    A4
  8
0
  6
CONTINUOUS
 62
     3
 10
200.707290649414
 20
-4.00005149841309
 30
0.0
 11
198.707290649414
 21
-6.00005149841309
 31
0.0
  0
LINE
  5
    A5
  8
0
  6
CONTINUOUS
 62
     3
 10
202.828598022461
 20
-4.00005149841309
 30
0.0
 11
200.828598022461
 21
-6.00005149841309
 31
0.0
  0
LINE
  5
    A6
  8
0
  6
CONTINUOUS
 62
     3
 10
204.949905395508
 20
-4.00005149841309
 30
0.0
 11
202.949905395508
 21
-6.00005149841309
 31
0.0
  0
LINE
  5
    A7
  8
0
  6
CONTINUOUS
 62
     3
 10
207.071212768555
 20
-4.00005149841309
 30
0.0
 11
205.071212768555
 21
-6.00005149841309
 31
0.0
  0
LINE
  5
    A8
  8
0
  6
CONTINUOUS
 62
     3
 10
209.192520141602
 20
-4.00005149841309
 30
0.0
 11
207.192520141602
 21
-6.00005149841309
 31
0.0
  0
LINE
  5
    A9
  8
0
  6
CONTINUOUS
 62
     3
 10
211.313827514648
 20
-4.00005149841309
 30
0.0
 11
209.313827514648
 21
-6.00005149841309
 31
0.0
  0
LINE
  5
    AA
  8
0
  6
CONTINUOUS
 62
     3
 10
213.435134887695
 20
-4.00005149841309
 30
0.0
 11
211.435134887695
 21
-6.00005149841309
 31
0.0
  0
LINE
  5
    AB
  8
0
  6
CONTINUOUS
 62
     3
 10
215.556442260742
 20
-4.00005149841309
 30
0.0
 11
213.556442260742
 21
-6.00005149841309
 31
0.0
  0
LINE
  5
    AC
  8
0
  6
CONTINUOUS
 62
     3
 10
217.677749633789
 20
-4.00005149841309
 30
0.0
 11
215.677749633789
 21
-6.00005149841309
 31
0.0
  0
LINE
  5
    AD
  8
0
  6
CONTINUOUS
 62
     3
 10
219.799057006836
 20
-4.00005149841309
 30
0.0
 11
217.799057006836
 21
-6.00005149841309
 31
0.0
  0
LINE
  5
    AE
  8
0
  6
CONTINUOUS
 62
     3
 10
221.920364379883
 20
-4.00005149841309
 30
0.0
 11
219.920364379883
 21
-6.00005149841309
 31
0.0
  0
LINE
  5
    AF
  8
0
  6
CONTINUOUS
 62
     3
 10
224.04167175293
 20
-4.00005149841309
 30
0.0
 11
222.04167175293
 21
-6.00005149841309
 31
0.0
  0
LINE
  5
    B0
  8
0
  6
CONTINUOUS
 62
     3
 10
226.162979125977
 20
-4.00005149841309
 30
0.0
 11
224.162979125977
 21
-6.00005149841309
 31
0.0
  0
LINE
  5
    B1
  8
0
  6
CONTINUOUS
 62
     3
 10
228.284286499023
 20
-4.00005149841309
 30
0.0
 11
226.284286499023
 21
-6.00005149841309
 31
0.0
  0
LINE
  5
    B2
  8
0
  6
CONTINUOUS
 62
     3
 10
230.40559387207
 20
-4.00005149841309
 30
0.0
 11
228.40559387207
 21
-6.00005149841309
 31
0.0
  0
LINE
  5
    B3
  8
0
  6
CONTINUOUS
 62
     3
 10
232.526901245117
 20
-4.00005149841309
 30
0.0
 11
230.526901245117
 21
-6.00005149841309
 31
0.0
  0
LINE
  5
    B4
  8
0
  6
CONTINUOUS
 62
     3
 10
234.648208618164
 20
-4.00005149841309
 30
0.0
 11
232.648208618164
 21
-6.00005149841309
 31
0.0
  0
LINE
  5
    B5
  8
0
  6
CONTINUOUS
 62
     3
 10
236.769515991211
 20
-4.00005149841309
 30
0.0
 11
234.769515991211
 21
-6.00005149841309
 31
0.0
  0
LINE
  5
    B6
  8
0
  6
CONTINUOUS
 62
     3
 10
238.890823364258
 20
-4.00005149841309
 30
0.0
 11
236.890823364258
 21
-6.00005149841309
 31
0.0
  0
LINE
  5
    B7
  8
0
  6
CONTINUOUS
 62
     3
 10
241.012130737305
 20
-4.00005149841309
 30
0.0
 11
239.012130737305
 21
-6.00005149841309
 31
0.0
  0
LINE
  5
    B8
  8
0
  6
CONTINUOUS
 62
     3
 10
243.133438110352
 20
-4.00005149841309
 30
0.0
 11
241.133438110352
 21
-6.00005149841309
 31
0.0
  0
LINE
  5
    B9
  8
0
  6
CONTINUOUS
 62
     3
 10
245.254745483398
 20
-4.00005149841309
 30
0.0
 11
243.254745483398
 21
-6.00005149841309
 31
0.0
  0
LINE
  5
    BA
  8
0
  6
CONTINUOUS
 62
     3
 10
247.376052856445
 20
-4.00005149841309
 30
0.0
 11
245.376052856445
 21
-6.00005149841309
 31
0.0
  0
LINE
  5
    BB
  8
0
  6
CONTINUOUS
 62
     3
 10
248.910140991211
 20
-4.58765363693237
 30
0.0
 11
247.497741699219
 21
-6.00005149841309
 31
0.0
  0
LINE
  5
    BC
  8
0
  6
CONTINUOUS
 62
     3
 10
249.653274536133
 20
-5.96583604812622
 30
0.0
 11
249.619049072266
 21
-6.00005149841309
 31
0.0
  0
ENDBLK
  5
    BD
  8
0
  6
CONTINUOUS
 62
     7
  0
BLOCK
  5
    BE
  8
0
  6
CONTINUOUS
 62
     7
  2
*HATCH1250
 70
    65
 10
0.0
 20
0.0
 30
0.0
  3
*HATCH1250
  0
LINE
  5
    BF
  8
0
  6
CONTINUOUS
 62
     3
 10
167.826889038086
 20
-4.00005149841309
 30
0.0
 11
165.980621337891
 21
-5.84633255004883
 31
0.0
  0
LINE
  5
    C0
  8
0
  6
CONTINUOUS
 62
     3
 10
169.948211669922
 20
-4.00005149841309
 30
0.0
 11
167.948211669922
 21
-6.00005149841309
 31
0.0
  0
LINE
  5
    C1
  8
0
  6
CONTINUOUS
 62
     3
 10
172.069519042969
 20
-4.00005149841309
 30
0.0
 11
170.069519042969
 21
-6.00005149841309
 31
0.0
  0
LINE
  5
    C2
  8
0
  6
CONTINUOUS
 62
     3
 10
174.190826416016
 20
-4.00005149841309
 30
0.0
 11
172.190826416016
 21
-6.00005149841309
 31
0.0
  0
LINE
  5
    C3
  8
0
  6
CONTINUOUS
 62
     3
 10
176.312133789062
 20
-4.00005149841309
 30
0.0
 11
174.312133789063
 21
-6.00005149841309
 31
0.0
  0
LINE
  5
    C4
  8
0
  6
CONTINUOUS
 62
     3
 10
177.480621337891
 20
-4.95293474197388
 30
0.0
 11
176.433502197266
 21
-6.00005149841309
 31
0.0
  0
ENDBLK
  5
    C5
  8
0
  6
CONTINUOUS
 62
     7
  0
BLOCK
  5
    C6
  8
0
  6
CONTINUOUS
 62
     7
  2
*HATCH1251
 70
    65
 10
0.0
 20
0.0
 30
0.0
  3
*HATCH1251
  0
LINE
  5
    C7
  8
0
  6
CONTINUOUS
 62
     3
 10
43.7296600341797
 20
-4.00005149841309
 30
0.0
 11
42.4806251525879
 21
-5.24908351898193
 31
0.0
  0
LINE
  5
    C8
  8
0
  6
CONTINUOUS
 62
     3
 10
45.8509788513184
 20
-4.00005149841309
 30
0.0
 11
43.8509788513184
 21
-6.00005149841309
 31
0.0
  0
LINE
  5
    C9
  8
0
  6
CONTINUOUS
 62
     3
 10
47.9723014831543
 20
-4.00005149841309
 30
0.0
 11
45.9723014831543
 21
-6.00005149841309
 31
0.0
  0
LINE
  5
    CA
  8
0
  6
CONTINUOUS
 62
     3
 10
50.0936241149902
 20
-4.00005149841309
 30
0.0
 11
48.0936241149902
 21
-6.00005149841309
 31
0.0
  0
LINE
  5
    CB
  8
0
  6
CONTINUOUS
 62
     3
 10
52.2149467468262
 20
-4.00005149841309
 30
0.0
 11
50.2149467468262
 21
-6.00005149841309
 31
0.0
  0
LINE
  5
    CC
  8
0
  6
CONTINUOUS
 62
     3
 10
53.9806251525879
 20
-4.35568618774414
 30
0.0
 11
52.3362579345703
 21
-6.00005149841309
 31
0.0
  0
ENDBLK
  5
    CD
  8
0
  6
CONTINUOUS
 62
     7
  0
BLOCK
  5
    CE
  8
0
  6
CONTINUOUS
 62
     7
  2
*HATCH1252
 70
    65
 10
0.0
 20
0.0
 30
0.0
  3
*HATCH1252
  0
LINE
  5
    CF
  8
0
  6
CONTINUOUS
 62
     3
 10
-24.1525974273682
 20
-4.00005149841309
 30
0.0
 11
-25.3908443450928
 21
-5.23830080032349
 31
0.0
  0
LINE
  5
    D0
  8
0
  6
CONTINUOUS
 62
     3
 10
-22.0312747955322
 20
-4.00005149841309
 30
0.0
 11
-24.0312747955322
 21
-6.00005149841309
 31
0.0
  0
LINE
  5
    D1
  8
0
  6
CONTINUOUS
 62
     3
 10
-19.9099559783936
 20
-4.00005149841309
 30
0.0
 11
-21.9099559783936
 21
-6.00005149841309
 31
0.0
  0
LINE
  5
    D2
  8
0
  6
CONTINUOUS
 62
     3
 10
-17.7886371612549
 20
-4.00005149841309
 30
0.0
 11
-19.7886371612549
 21
-6.00005149841309
 31
0.0
  0
LINE
  5
    D3
  8
0
  6
CONTINUOUS
 62
     3
 10
-15.6673173904419
 20
-4.00005149841309
 30
0.0
 11
-17.6673183441162
 21
-6.00005149841309
 31
0.0
  0
LINE
  5
    D4
  8
0
  6
CONTINUOUS
 62
     3
 10
-13.5459966659546
 20
-4.00005149841309
 30
0.0
 11
-15.5459985733032
 21
-6.00005149841309
 31
0.0
  0
LINE
  5
    D5
  8
0
  6
CONTINUOUS
 62
     3
 10
-11.4246759414673
 20
-4.00005149841309
 30
0.0
 11
-13.4246778488159
 21
-6.00005149841309
 31
0.0
  0
LINE
  5
    D6
  8
0
  6
CONTINUOUS
 62
     3
 10
-9.30335521697998
 20
-4.00005149841309
 30
0.0
 11
-11.3033571243286
 21
-6.00005149841309
 31
0.0
  0
LINE
  5
    D7
  8
0
  6
CONTINUOUS
 62
     3
 10
-7.18203449249268
 20
-4.00005149841309
 30
0.0
 11
-9.18203639984131
 21
-6.00005149841309
 31
0.0
  0
LINE
  5
    D8
  8
0
  6
CONTINUOUS
 62
     3
 10
-5.06071376800537
 20
-4.00005149841309
 30
0.0
 11
-7.060715675354
 21
-6.00005149841309
 31
0.0
  0
LINE
  5
    D9
  8
0
  6
CONTINUOUS
 62
     3
 10
-2.93939328193665
 20
-4.00005149841309
 30
0.0
 11
-4.9393949508667
 21
-6.00005149841309
 31
0.0
  0
LINE
  5
    DA
  8
0
  6
CONTINUOUS
 62
     3
 10
-0.818073034286499
 20
-4.00005149841309
 30
0.0
 11
-2.81807422637939
 21
-6.00005149841309
 31
0.0
  0
LINE
  5
    DB
  8
0
  6
CONTINUOUS
 62
     3
 10
1.30324721336365
 20
-4.00005149841309
 30
0.0
 11
-0.696753740310669
 21
-6.00005149841309
 31
0.0
  0
LINE
  5
    DC
  8
0
  6
CONTINUOUS
 62
     3
 10
3.42456746101379
 20
-4.00005149841309
 30
0.0
 11
1.42456674575806
 21
-6.00005149841309
 31
0.0
  0
LINE
  5
    DD
  8
0
  6
CONTINUOUS
 62
     3
 10
5.54588794708252
 20
-4.00005149841309
 30
0.0
 11
3.54588747024536
 21
-6.00005149841309
 31
0.0
  0
LINE
  5
    DE
  8
0
  6
CONTINUOUS
 62
     3
 10
7.66720867156982
 20
-4.00005149841309
 30
0.0
 11
5.66720819473267
 21
-6.00005149841309
 31
0.0
  0
LINE
  5
    DF
  8
0
  6
CONTINUOUS
 62
     3
 10
9.78852939605713
 20
-4.00005149841309
 30
0.0
 11
7.78852891921997
 21
-6.00005149841309
 31
0.0
  0
LINE
  5
    E0
  8
0
  6
CONTINUOUS
 62
     3
 10
11.9098501205444
 20
-4.00005149841309
 30
0.0
 11
9.90984916687012
 21
-6.00005149841309
 31
0.0
  0
LINE
  5
    E1
  8
0
  6
CONTINUOUS
 62
     3
 10
14.0311708450317
 20
-4.00005149841309
 30
0.0
 11
12.0311698913574
 21
-6.00005149841309
 31
0.0
  0
LINE
  5
    E2
  8
0
  6
CONTINUOUS
 62
     3
 10
16.1524906158447
 20
-4.00005149841309
 30
0.0
 11
14.1524906158447
 21
-6.00005149841309
 31
0.0
  0
LINE
  5
    E3
  8
0
  6
CONTINUOUS
 62
     3
 10
18.2738094329834
 20
-4.00005149841309
 30
0.0
 11
16.273811340332
 21
-6.00005149841309
 31
0.0
  0
LINE
  5
    E4
  8
0
  6
CONTINUOUS
 62
     3
 10
20.3951282501221
 20
-4.00005149841309
 30
0.0
 11
18.3951301574707
 21
-6.00005149841309
 31
0.0
  0
LINE
  5
    E5
  8
0
  6
CONTINUOUS
 62
     3
 10
22.5164470672607
 20
-4.00005149841309
 30
0.0
 11
20.5164489746094
 21
-6.00005149841309
 31
0.0
  0
LINE
  5
    E6
  8
0
  6
CONTINUOUS
 62
     3
 10
24.6377658843994
 20
-4.00005149841309
 30
0.0
 11
22.637767791748
 21
-6.00005149841309
 31
0.0
  0
LINE
  5
    E7
  8
0
  6
CONTINUOUS
 62
     3
 10
26.7590847015381
 20
-4.00005149841309
 30
0.0
 11
24.7590866088867
 21
-6.00005149841309
 31
0.0
  0
LINE
  5
    E8
  8
0
  6
CONTINUOUS
 62
     3
 10
28.8804035186768
 20
-4.00005149841309
 30
0.0
 11
26.8804054260254
 21
-6.00005149841309
 31
0.0
  0
LINE
  5
    E9
  8
0
  6
CONTINUOUS
 62
     3
 10
31.0017223358154
 20
-4.00005149841309
 30
0.0
 11
29.0017242431641
 21
-6.00005149841309
 31
0.0
  0
LINE
  5
    EA
  8
0
  6
CONTINUOUS
 62
     3
 10
33.1230430603027
 20
-4.00005149841309
 30
0.0
 11
31.1230430603027
 21
-6.00005149841309
 31
0.0
  0
LINE
  5
    EB
  8
0
  6
CONTINUOUS
 62
     3
 10
35.2443656921387
 20
-4.00005149841309
 30
0.0
 11
33.2443656921387
 21
-6.00005149841309
 31
0.0
  0
LINE
  5
    EC
  8
0
  6
CONTINUOUS
 62
     3
 10
35.4806251525879
 20
-5.88512229919434
 30
0.0
 11
35.3656959533691
 21
-6.00005149841309
 31
0.0
  0
ENDBLK
  5
    ED
  8
0
  6
CONTINUOUS
 62
     7
  0
BLOCK
  5
    EE
  8
0
  6
CONTINUOUS
 62
     7
  2
*UDIM1979
 70
    65
 10
0.0
 20
0.0
 30
0.0
  3
*UDIM1979
  0
TEXT
  5
    EF
  8
0
  6
CONTINUOUS
 62
     7
 10
-508.125836235592
 20
-86.1516494715801
 30
0.0
 40
3.00000002980232
  1
135
 50
359.999999948034
 41
0.933333333333333
 72
     1
 11
-504.225836195496
 21
-84.6516494601965
 31
0.0
 73
     2
  0
LINE
  5
    F0
  8
0
  6
CONTINUOUS
 62
     7
 10
-470.189819351727
 20
11.2821597289862
 30
0.0
 11
-470.189819351727
 21
-89.1516494750977
 31
0.0
  0
LINE
  5
    F1
  8
0
  6
CONTINUOUS
 62
     7
 10
-537.711853027344
 20
-34.9678470393842
 30
0.0
 11
-537.711853027344
 21
-89.1516494750977
 31
0.0
  0
LINE
  5
    F2
  8
0
  6
CONTINUOUS
 62
     7
 10
-470.189819351727
 20
-87.1516494750977
 30
0.0
 11
-537.711853027344
 21
-87.1516494750977
 31
0.0
  0
LINE
  5
    F3
  8
0
  6
CONTINUOUS
 62
     7
 10
-473.144242628934
 20
-87.6725939050493
 30
0.0
 11
-470.189819351727
 21
-87.1516494750977
 31
0.0
  0
LINE
  5
    F4
  8
0
  6
CONTINUOUS
 62
     7
 10
-470.189819351727
 20
-87.1516494750977
 30
0.0
 11
-473.144242628934
 21
-86.630705045146
 31
0.0
  0
LINE
  5
    F5
  8
0
  6
CONTINUOUS
 62
     7
 10
-534.757429750137
 20
-86.630705045146
 30
0.0
 11
-537.711853027344
 21
-87.1516494750977
 31
0.0
  0
LINE
  5
    F6
  8
0
  6
CONTINUOUS
 62
     7
 10
-537.711853027344
 20
-87.1516494750977
 30
0.0
 11
-534.757429750137
 21
-87.6725939050493
 31
0.0
  0
ENDBLK
  5
    F7
  8
0
  6
CONTINUOUS
 62
     7
  0
BLOCK
  5
    F8
  8
0
  6
CONTINUOUS
 62
     7
  2
*UDIM1980
 70
    65
 10
0.0
 20
0.0
 30
0.0
  3
*UDIM1980
  0
TEXT
  5
    F9
  8
0
  6
CONTINUOUS
 62
     7
 10
-480.211857903363
 20
-79.9998474111172
 30
0.0
 40
3.00000002980232
  1
2
 50
359.999999948034
 41
0.933333333333334
 72
     1
 11
-479.111857891083
 21
-78.4998473972082
 31
0.0
 73
     2
  0
LINE
  5
    FA
  8
0
  6
CONTINUOUS
 62
     7
 10
-483.211857795715
 20
-51.048039141136
 30
0.0
 11
-483.211857795715
 21
-82.9998474121094
 31
0.0
  0
LINE
  5
    FB
  8
0
  6
CONTINUOUS
 62
     7
 10
-484.211857795715
 20
-51.6618322445843
 30
0.0
 11
-484.211857795715
 21
-82.9998474121094
 31
0.0
  0
LINE
  5
    FC
  8
0
  6
CONTINUOUS
 62
     7
 10
-478.011857880155
 20
-80.9998474121094
 30
0.0
 11
-484.211857795715
 21
-80.9998474121094
 31
0.0
  0
LINE
  5
    FD
  8
0
  6
CONTINUOUS
 62
     7
 10
-480.257434518508
 20
-80.4789029821577
 30
0.0
 11
-483.211857795715
 21
-80.9998474121094
 31
0.0
  0
LINE
  5
    FE
  8
0
  6
CONTINUOUS
 62
     7
 10
-483.211857795715
 20
-80.9998474121094
 30
0.0
 11
-480.257434518508
 21
-81.5207918420611
 31
0.0
  0
LINE
  5
    FF
  8
0
  6
CONTINUOUS
 62
     7
 10
-487.166281072922
 20
-81.5207918420611
 30
0.0
 11
-484.211857795715
 21
-80.9998474121094
 31
0.0
  0
LINE
  5
   100
  8
0
  6
CONTINUOUS
 62
     7
 10
-484.211857795715
 20
-80.9998474121094
 30
0.0
 11
-487.166281072922
 21
-80.4789029821577
 31
0.0
  0
ENDBLK
  5
   101
  8
0
  6
CONTINUOUS
 62
     7
  0
BLOCK
  5
   102
  8
0
  6
CONTINUOUS
 62
     7
  2
*UDIM1981
 70
    65
 10
0.0
 20
0.0
 30
0.0
  3
*UDIM1981
  0
TEXT
  5
   103
  8
0
  6
CONTINUOUS
 62
     7
 10
-515.136856888097
 20
-79.9998474085918
 30
0.0
 40
3.00000002980232
  1
107
 50
359.999999948034
 41
0.933333333333333
 72
     1
 11
-511.236856848002
 21
-78.4998473972082
 31
0.0
 73
     2
  0
LINE
  5
   104
  8
0
  6
CONTINUOUS
 62
     7
 10
-537.711853027344
 20
-34.9678470393842
 30
0.0
 11
-537.711853027344
 21
-82.9998474121094
 31
0.0
  0
LINE
  5
   105
  8
0
  6
CONTINUOUS
 62
     7
 10
-484.211857795715
 20
-80.9998474121094
 30
0.0
 11
-537.711853027344
 21
-80.9998474121094
 31
0.0
  0
LINE
  5
   106
  8
0
  6
CONTINUOUS
 62
     7
 10
-487.166281072922
 20
-81.5207918420611
 30
0.0
 11
-484.211857795715
 21
-80.9998474121094
 31
0.0
  0
LINE
  5
   107
  8
0
  6
CONTINUOUS
 62
     7
 10
-484.211857795715
 20
-80.9998474121094
 30
0.0
 11
-487.166281072922
 21
-80.4789029821577
 31
0.0
  0
LINE
  5
   108
  8
0
  6
CONTINUOUS
 62
     7
 10
-534.757429750137
 20
-80.4789029821577
 30
0.0
 11
-537.711853027344
 21
-80.9998474121094
 31
0.0
  0
LINE
  5
   109
  8
0
  6
CONTINUOUS
 62
     7
 10
-537.711853027344
 20
-80.9998474121094
 30
0.0
 11
-534.757429750137
 21
-81.5207918420611
 31
0.0
  0
ENDBLK
  5
   10A
  8
0
  6
CONTINUOUS
 62
     7
  0
BLOCK
  5
   10B
  8
0
  6
CONTINUOUS
 62
     7
  2
*UDIM1982
 70
    65
 10
0.0
 20
0.0
 30
0.0
  3
*UDIM1982
  0
TEXT
  5
   10C
  8
0
  6
CONTINUOUS
 62
     7
 10
-518.811856915913
 20
-73.0790710388788
 30
0.0
 40
3.00000002980232
  1
103,5
 50
359.999999948034
 41
0.933333333333333
 72
     1
 11
-512.111856848002
 21
-71.5790710300207
 31
0.0
 73
     2
  0
LINE
  5
   10D
  8
0
  6
CONTINUOUS
 62
     7
 10
-485.961860656738
 20
-9.84284027101375
 30
0.0
 11
-485.961860656738
 21
-76.0790710449219
 31
0.0
  0
LINE
  5
   10E
  8
0
  6
CONTINUOUS
 62
     7
 10
-537.711853027344
 20
-34.9678470393842
 30
0.0
 11
-537.711853027344
 21
-76.0790710449219
 31
0.0
  0
LINE
  5
   10F
  8
0
  6
CONTINUOUS
 62
     7
 10
-485.961860656738
 20
-74.0790710449219
 30
0.0
 11
-537.711853027344
 21
-74.0790710449219
 31
0.0
  0
LINE
  5
   110
  8
0
  6
CONTINUOUS
 62
     7
 10
-488.916283933945
 20
-74.6000154748736
 30
0.0
 11
-485.961860656738
 21
-74.0790710449219
 31
0.0
  0
LINE
  5
   111
  8
0
  6
CONTINUOUS
 62
     7
 10
-485.961860656738
 20
-74.0790710449219
 30
0.0
 11
-488.916283933945
 21
-73.5581266149702
 31
0.0
  0
LINE
  5
   112
  8
0
  6
CONTINUOUS
 62
     7
 10
-534.757429750137
 20
-73.5581266149702
 30
0.0
 11
-537.711853027344
 21
-74.0790710449219
 31
0.0
  0
LINE
  5
   113
  8
0
  6
CONTINUOUS
 62
     7
 10
-537.711853027344
 20
-74.0790710449219
 30
0.0
 11
-534.757429750137
 21
-74.6000154748736
 31
0.0
  0
ENDBLK
  5
   114
  8
0
  6
CONTINUOUS
 62
     7
  0
BLOCK
  5
   115
  8
0
  6
CONTINUOUS
 62
     7
  2
*UDIM1983
 70
    65
 10
0.0
 20
0.0
 30
0.0
  3
*UDIM1983
  0
TEXT
  5
   116
  8
0
  6
CONTINUOUS
 62
     7
 10
-544.961853134992
 20
-73.0790710439297
 30
0.0
 40
3.00000002980232
  1
3
 50
359.999999948034
 41
0.933333333333334
 72
     1
 11
-543.861853122711
 21
-71.5790710300207
 31
0.0
 73
     2
  0
TEXT
  5
   117
  8
0
  6
CONTINUOUS
 62
     7
 10
-547.711853168768
 20
-73.0790710439297
 30
0.0
 40
3.00000002980232
  1
_
 50
359.999999948034
 41
0.933333333333334
 72
     1
 11
-546.611853156487
 21
-71.5790710300207
 31
0.0
 73
     2
  0
LINE
  5
   118
  8
0
  6
CONTINUOUS
 62
     7
 10
-539.211853027344
 20
-34.9678470393842
 30
0.0
 11
-539.211853027344
 21
-76.0790710449219
 31
0.0
  0
LINE
  5
   119
  8
0
  6
CONTINUOUS
 62
     7
 10
-537.711853027344
 20
-74.0790710449219
 30
0.0
 11
-547.711853167415
 21
-74.0790710449219
 31
0.0
  0
LINE
  5
   11A
  8
0
  6
CONTINUOUS
 62
     7
 10
-534.757429750137
 20
-73.5581266149702
 30
0.0
 11
-537.711853027344
 21
-74.0790710449219
 31
0.0
  0
LINE
  5
   11B
  8
0
  6
CONTINUOUS
 62
     7
 10
-537.711853027344
 20
-74.0790710449219
 30
0.0
 11
-534.757429750137
 21
-74.6000154748736
 31
0.0
  0
LINE
  5
   11C
  8
0
  6
CONTINUOUS
 62
     7
 10
-542.166276304551
 20
-74.6000154748736
 30
0.0
 11
-539.211853027344
 21
-74.0790710449219
 31
0.0
  0
LINE
  5
   11D
  8
0
  6
CONTINUOUS
 62
     7
 10
-539.211853027344
 20
-74.0790710449219
 30
0.0
 11
-542.166276304551
 21
-73.5581266149702
 31
0.0
  0
ENDBLK
  5
   11E
  8
0
  6
CONTINUOUS
 62
     7
  0
BLOCK
  5
   11F
  8
0
  6
CONTINUOUS
 62
     7
  2
*UDIM1984
 70
    65
 10
0.0
 20
0.0
 30
0.0
  3
*UDIM1984
  0
TEXT
  5
   120
  8
0
  6
CONTINUOUS
 62
     7
 10
-522.211864326707
 20
-66.3024787892911
 30
0.0
 40
3.00000002980232
  1
5
 50
359.999999948034
 41
0.933333333333334
 72
     1
 11
-521.111864314427
 21
-64.802478775382
 31
0.0
 73
     2
  0
LINE
  5
   121
  8
0
  6
CONTINUOUS
 62
     7
 10
-525.211865649571
 20
-43.9678726196289
 30
0.0
 11
-525.211865649571
 21
-69.3024787902832
 31
0.0
  0
LINE
  5
   122
  8
0
  6
CONTINUOUS
 62
     7
 10
-527.711864695897
 20
-43.9678726196289
 30
0.0
 11
-527.711864695897
 21
-69.3024787902832
 31
0.0
  0
LINE
  5
   123
  8
0
  6
CONTINUOUS
 62
     7
 10
-520.011864303499
 20
-67.3024787902832
 30
0.0
 11
-527.711864695897
 21
-67.3024787902832
 31
0.0
  0
LINE
  5
   124
  8
0
  6
CONTINUOUS
 62
     7
 10
-522.257442372364
 20
-66.7815343603315
 30
0.0
 11
-525.211865649571
 21
-67.3024787902832
 31
0.0
  0
LINE
  5
   125
  8
0
  6
CONTINUOUS
 62
     7
 10
-525.211865649571
 20
-67.3024787902832
 30
0.0
 11
-522.257442372364
 21
-67.8234232202349
 31
0.0
  0
LINE
  5
   126
  8
0
  6
CONTINUOUS
 62
     7
 10
-530.666287973104
 20
-67.8234232202349
 30
0.0
 11
-527.711864695897
 21
-67.3024787902832
 31
0.0
  0
LINE
  5
   127
  8
0
  6
CONTINUOUS
 62
     7
 10
-527.711864695897
 20
-67.3024787902832
 30
0.0
 11
-530.666287973104
 21
-66.7815343603315
 31
0.0
  0
ENDBLK
  5
   128
  8
0
  6
CONTINUOUS
 62
     7
  0
BLOCK
  5
   129
  8
0
  6
CONTINUOUS
 62
     7
  2
*UDIM1985
 70
    65
 10
0.0
 20
0.0
 30
0.0
  3
*UDIM1985
  0
TEXT
  5
   12A
  8
0
  6
CONTINUOUS
 62
     7
 10
-546.236852784293
 20
-66.3024787880283
 30
0.0
 40
3.00000002980232
  1
20
 50
359.999999948034
 41
0.933333333333333
 72
     1
 11
-543.736852758105
 21
-64.802478775382
 31
0.0
 73
     2
  0
LINE
  5
   12B
  8
0
  6
CONTINUOUS
 62
     7
 10
-537.711853027344
 20
-34.9678470393842
 30
0.0
 11
-537.711853027344
 21
-69.3024787902832
 31
0.0
  0
LINE
  5
   12C
  8
0
  6
CONTINUOUS
 62
     7
 10
-527.711864695897
 20
-67.3024787902832
 30
0.0
 11
-546.23685278294
 21
-67.3024787902832
 31
0.0
  0
LINE
  5
   12D
  8
0
  6
CONTINUOUS
 62
     7
 10
-530.666287973104
 20
-67.8234232202349
 30
0.0
 11
-527.711864695897
 21
-67.3024787902832
 31
0.0
  0
LINE
  5
   12E
  8
0
  6
CONTINUOUS
 62
     7
 10
-527.711864695897
 20
-67.3024787902832
 30
0.0
 11
-530.666287973104
 21
-66.7815343603315
 31
0.0
  0
LINE
  5
   12F
  8
0
  6
CONTINUOUS
 62
     7
 10
-534.757429750137
 20
-66.7815343603315
 30
0.0
 11
-537.711853027344
 21
-67.3024787902832
 31
0.0
  0
LINE
  5
   130
  8
0
  6
CONTINUOUS
 62
     7
 10
-537.711853027344
 20
-67.3024787902832
 30
0.0
 11
-534.757429750137
 21
-67.8234232202349
 31
0.0
  0
ENDBLK
  5
   131
  8
0
  6
CONTINUOUS
 62
     7
  0
BLOCK
  5
   132
  8
0
  6
CONTINUOUS
 62
     7
  2
*UDIM1986
 70
    65
 10
0.0
 20
0.0
 30
0.0
  3
*UDIM1986
  0
TEXT
  5
   133
  8
0
  6
CONTINUOUS
 62
     7
 10
-519.311856915913
 20
102.535629278504
 30
0.0
 40
3.00000002980232
  1
101,5
 50
359.999999948034
 41
0.933333333333333
 72
     1
 11
-512.611856848002
 21
104.035629287362
 31
0.0
 73
     2
  0
LINE
  5
   134
  8
0
  6
CONTINUOUS
 62
     7
 10
-486.961860656738
 20
68.7821444701972
 30
0.0
 11
-486.961860656738
 21
103.535629272461
 31
0.0
  0
LINE
  5
   135
  8
0
  6
CONTINUOUS
 62
     7
 10
-537.711853027344
 20
89.588232531828
 30
0.0
 11
-537.711853027344
 21
103.535629272461
 31
0.0
  0
LINE
  5
   136
  8
0
  6
CONTINUOUS
 62
     7
 10
-486.961860656738
 20
101.535629272461
 30
0.0
 11
-537.711853027344
 21
101.535629272461
 31
0.0
  0
LINE
  5
   137
  8
0
  6
CONTINUOUS
 62
     7
 10
-489.916283933945
 20
101.014684842509
 30
0.0
 11
-486.961860656738
 21
101.535629272461
 31
0.0
  0
LINE
  5
   138
  8
0
  6
CONTINUOUS
 62
     7
 10
-486.961860656738
 20
101.535629272461
 30
0.0
 11
-489.916283933945
 21
102.056573702413
 31
0.0
  0
LINE
  5
   139
  8
0
  6
CONTINUOUS
 62
     7
 10
-534.757429750137
 20
102.056573702413
 30
0.0
 11
-537.711853027344
 21
101.535629272461
 31
0.0
  0
LINE
  5
   13A
  8
0
  6
CONTINUOUS
 62
     7
 10
-537.711853027344
 20
101.535629272461
 30
0.0
 11
-534.757429750137
 21
101.014684842509
 31
0.0
  0
ENDBLK
  5
   13B
  8
0
  6
CONTINUOUS
 62
     7
  0
BLOCK
  5
   13C
  8
0
  6
CONTINUOUS
 62
     7
  2
*UDIM1987
 70
    65
 10
0.0
 20
0.0
 30
0.0
  3
*UDIM1987
  0
TEXT
  5
   13D
  8
0
  6
CONTINUOUS
 62
     7
 10
-534.236860681908
 20
95.9032135032314
 30
0.0
 40
3.00000002980232
  1
25
 50
359.999999948034
 41
0.933333333333333
 72
     1
 11
-531.73686065572
 21
97.4032135158777
 31
0.0
 73
     2
  0
LINE
  5
   13E
  8
0
  6
CONTINUOUS
 62
     7
 10
-525.211865649571
 20
77.0321273803711
 30
0.0
 11
-525.211865649571
 21
96.9032135009766
 31
0.0
  0
LINE
  5
   13F
  8
0
  6
CONTINUOUS
 62
     7
 10
-537.711853027344
 20
89.588232531828
 30
0.0
 11
-537.711853027344
 21
96.9032135009766
 31
0.0
  0
LINE
  5
   140
  8
0
  6
CONTINUOUS
 62
     7
 10
-525.211865649571
 20
94.9032135009766
 30
0.0
 11
-537.711853027344
 21
94.9032135009766
 31
0.0
  0
LINE
  5
   141
  8
0
  6
CONTINUOUS
 62
     7
 10
-528.166288926778
 20
94.3822690710249
 30
0.0
 11
-525.211865649571
 21
94.9032135009766
 31
0.0
  0
LINE
  5
   142
  8
0
  6
CONTINUOUS
 62
     7
 10
-525.211865649571
 20
94.9032135009766
 30
0.0
 11
-528.166288926778
 21
95.4241579309282
 31
0.0
  0
LINE
  5
   143
  8
0
  6
CONTINUOUS
 62
     7
 10
-534.757429750137
 20
95.4241579309282
 30
0.0
 11
-537.711853027344
 21
94.9032135009766
 31
0.0
  0
LINE
  5
   144
  8
0
  6
CONTINUOUS
 62
     7
 10
-537.711853027344
 20
94.9032135009766
 30
0.0
 11
-534.757429750137
 21
94.3822690710249
 31
0.0
  0
ENDBLK
  5
   145
  8
0
  6
CONTINUOUS
 62
     7
  0
BLOCK
  5
   146
  8
0
  6
CONTINUOUS
 62
     5
  2
*UDIM1988
 70
    65
 10
0.0
 20
0.0
 30
0.0
  3
*UDIM1988
  0
TEXT
  5
   147
  8
0
  6
CONTINUOUS
 62
     5
 10
-595.24180603761
 20
35.8446501773419
 30
0.0
 40
3.00000002980232
  1
107,25
 50
89.9999999480344
 41
0.933333333333333
 72
     1
 11
-596.741806045175
 21
43.9446502591668
 31
0.0
 73
     2
  0
LINE
  5
   148
  8
0
  6
CONTINUOUS
 62
     5
 10
-546.59099020038
 20
17.4071444701972
 30
0.0
 11
-596.241806030273
 21
17.4071444701972
 31
0.0
  0
LINE
  5
   149
  8
0
  6
CONTINUOUS
 62
     5
 10
-532.426536226859
 20
71.0321529606158
 30
0.0
 11
-596.241806030273
 21
71.0321529606158
 31
0.0
  0
LINE
  5
   14A
  8
0
  6
CONTINUOUS
 62
     5
 10
-594.241806030274
 20
17.4071444701972
 30
0.0
 11
-594.241806030274
 21
71.0321529606158
 31
0.0
  0
LINE
  5
   14B
  8
0
  6
CONTINUOUS
 62
     5
 10
-594.762750460225
 20
20.3615677474041
 30
0.0
 11
-594.241806030274
 21
17.4071444701972
 31
0.0
  0
LINE
  5
   14C
  8
0
  6
CONTINUOUS
 62
     5
 10
-594.241806030274
 20
17.4071444701972
 30
0.0
 11
-593.720861600322
 21
20.3615677474041
 31
0.0
  0
LINE
  5
   14D
  8
0
  6
CONTINUOUS
 62
     5
 10
-593.720861600322
 20
68.0777296834088
 30
0.0
 11
-594.241806030274
 21
71.0321529606158
 31
0.0
  0
LINE
  5
   14E
  8
0
  6
CONTINUOUS
 62
     5
 10
-594.241806030274
 20
71.0321529606158
 30
0.0
 11
-594.762750460225
 21
68.0777296834088
 31
0.0
  0
ENDBLK
  5
   14F
  8
0
  6
CONTINUOUS
 62
     5
  0
BLOCK
  5
   150
  8
0
  6
CONTINUOUS
 62
     7
  2
*UDIM1989
 70
    65
 10
0.0
 20
0.0
 30
0.0
  3
*UDIM1989
  0
TEXT
  5
   151
  8
0
  6
CONTINUOUS
 62
     7
 10
-604.481231692985
 20
12.3571235196118
 30
0.0
 40
3.00000002980232
  1
218
 50
89.9999999480344
 41
0.933333333333333
 72
     1
 11
-605.981231704354
 21
16.2571235597134
 31
0.0
 73
     2
  0
LINE
  5
   152
  8
0
  6
CONTINUOUS
 62
     7
 10
-532.426536226859
 20
-37.9678981998736
 30
0.0
 11
-605.481231689453
 21
-37.9678981998736
 31
0.0
  0
LINE
  5
   153
  8
0
  6
CONTINUOUS
 62
     7
 10
-532.426536226859
 20
71.0321529606158
 30
0.0
 11
-605.481231689453
 21
71.0321529606158
 31
0.0
  0
LINE
  5
   154
  8
0
  6
CONTINUOUS
 62
     7
 10
-603.481231689453
 20
-37.9678981998736
 30
0.0
 11
-603.481231689453
 21
71.0321529606158
 31
0.0
  0
LINE
  5
   155
  8
0
  6
CONTINUOUS
 62
     7
 10
-604.002176119405
 20
-35.0134749226666
 30
0.0
 11
-603.481231689453
 21
-37.9678981998736
 31
0.0
  0
LINE
  5
   156
  8
0
  6
CONTINUOUS
 62
     7
 10
-603.481231689453
 20
-37.9678981998736
 30
0.0
 11
-602.960287259502
 21
-35.0134749226666
 31
0.0
  0
LINE
  5
   157
  8
0
  6
CONTINUOUS
 62
     7
 10
-602.960287259502
 20
68.0777296834088
 30
0.0
 11
-603.481231689453
 21
71.0321529606158
 31
0.0
  0
LINE
  5
   158
  8
0
  6
CONTINUOUS
 62
     7
 10
-603.481231689453
 20
71.0321529606158
 30
0.0
 11
-604.002176119405
 21
68.0777296834088
 31
0.0
  0
ENDBLK
  5
   159
  8
0
  6
CONTINUOUS
 62
     7
  0
BLOCK
  5
   15A
  8
0
  6
CONTINUOUS
 62
     7
  2
*UDIM1990
 70
    65
 10
0.0
 20
0.0
 30
0.0
  3
*UDIM1990
  0
TEXT
  5
   15B
  8
0
  6
CONTINUOUS
 62
     7
 10
-453.022724155144
 20
13.232150235588
 30
0.0
 40
3.00000002980232
  1
105
 50
89.9999999480344
 41
0.933333333333333
 72
     1
 11
-454.522724166513
 21
17.1321502756896
 31
0.0
 73
     2
  0
LINE
  5
   15C
  8
0
  6
CONTINUOUS
 62
     7
 10
-483.211857795715
 20
-8.84284027101375
 30
0.0
 11
-450.022724151611
 21
-8.84284027101375
 31
0.0
  0
LINE
  5
   15D
  8
0
  6
CONTINUOUS
 62
     7
 10
-483.211857795715
 20
43.6571444701972
 30
0.0
 11
-450.022724151611
 21
43.6571444701972
 31
0.0
  0
LINE
  5
   15E
  8
0
  6
CONTINUOUS
 62
     7
 10
-452.022724151611
 20
-8.84284027101375
 30
0.0
 11
-452.022724151611
 21
43.6571444701972
 31
0.0
  0
LINE
  5
   15F
  8
0
  6
CONTINUOUS
 62
     7
 10
-452.543668581563
 20
-5.88841699380678
 30
0.0
 11
-452.022724151611
 21
-8.84284027101375
 31
0.0
  0
LINE
  5
   160
  8
0
  6
CONTINUOUS
 62
     7
 10
-452.022724151611
 20
-8.84284027101375
 30
0.0
 11
-451.50177972166
 21
-5.88841699380678
 31
0.0
  0
LINE
  5
   161
  8
0
  6
CONTINUOUS
 62
     7
 10
-451.50177972166
 20
40.7027211929902
 30
0.0
 11
-452.022724151611
 21
43.6571444701972
 31
0.0
  0
LINE
  5
   162
  8
0
  6
CONTINUOUS
 62
     7
 10
-452.022724151611
 20
43.6571444701972
 30
0.0
 11
-452.543668581563
 21
40.7027211929902
 31
0.0
  0
ENDBLK
  5
   163
  8
0
  6
CONTINUOUS
 62
     7
  0
BLOCK
  5
   164
  8
0
  6
CONTINUOUS
 62
     0
  2
ON-OFF
 70
    64
 10
0.0
 20
0.0
 30
0.0
  3
ON-OFF
  0
LINE
  5
   165
  8
0
  6
CONTINUOUS
 62
     0
 10
5.09999999999999
 20
-29.65
 30
0.0
 11
5.54999999999999
 21
-29.65
 31
0.0
  0
LINE
  5
   166
  8
0
  6
CONTINUOUS
 62
     0
 10
3.79999999999999
 20
-37.35
 30
0.0
 11
4.59999999999999
 21
-37.35
 31
0.0
  0
LINE
  5
   167
  8
0
  6
CONTINUOUS
 62
     0
 10
-2.6
 20
-34.75
 30
0.0
 11
-2.6
 21
-34.25
 31
0.0
  0
LINE
  5
   168
  8
0
  6
CONTINUOUS
 62
     0
 10
2.6
 20
-34.75
 30
0.0
 11
2.6
 21
-34.25
 31
0.0
  0
ARC
  5
   169
  8
0
  6
CONTINUOUS
 62
     0
 10
-3.5527136788005E-15
 20
-34.25
 30
0.0
 40
2.6
 50
0.0
 51
180.0
  0
ARC
  5
   16A
  8
0
  6
CONTINUOUS
 62
     0
 10
-3.5527136788005E-15
 20
-34.75
 30
0.0
 40
2.6
 50
180.0
 51
360.0
  0
ARC
  5
   16B
  8
0
  6
CONTINUOUS
 62
     0
 10
-3.5527136788005E-15
 20
-34.25
 30
0.0
 40
1.8
 50
0.0
 51
180.0
  0
ARC
  5
   16C
  8
0
  6
CONTINUOUS
 62
     0
 10
-3.5527136788005E-15
 20
-34.75
 30
0.0
 40
1.8
 50
180.0
 51
360.0
  0
LINE
  5
   16D
  8
0
  6
CONTINUOUS
 62
     0
 10
-1.8
 20
-34.75
 30
0.0
 11
-1.8
 21
-34.25
 31
0.0
  0
LINE
  5
   16E
  8
0
  6
CONTINUOUS
 62
     0
 10
1.8
 20
-34.75
 30
0.0
 11
1.8
 21
-34.25
 31
0.0
  0
LINE
  5
   16F
  8
0
  6
CONTINUOUS
 62
     0
 10
2.84999999999999
 20
-32.85
 30
0.0
 11
2.84999999999999
 21
-32.05
 31
0.0
  0
LINE
  5
   170
  8
0
  6
CONTINUOUS
 62
     0
 10
2.84999999999999
 20
-32.85
 30
0.0
 11
3.79999999999999
 21
-32.85
 31
0.0
  0
LINE
  5
   171
  8
0
  6
CONTINUOUS
 62
     0
 10
5.54999999999999
 20
-32.85
 30
0.0
 11
5.54999999999999
 21
-32.05
 31
0.0
  0
LINE
  5
   172
  8
0
  6
CONTINUOUS
 62
     0
 10
2.84999999999999
 20
-32.05
 30
0.0
 11
3.79999999999999
 21
-32.05
 31
0.0
  0
LINE
  5
   173
  8
0
  6
CONTINUOUS
 62
     0
 10
3.79999999999999
 20
-37.35
 30
0.0
 11
3.79999999999999
 21
-32.85
 31
0.0
  0
LINE
  5
   174
  8
0
  6
CONTINUOUS
 62
     0
 10
4.59999999999999
 20
-37.35
 30
0.0
 11
4.59999999999999
 21
-32.85
 31
0.0
  0
LINE
  5
   175
  8
0
  6
CONTINUOUS
 62
     0
 10
4.59999999999999
 20
-32.85
 30
0.0
 11
5.54999999999999
 21
-32.85
 31
0.0
  0
LINE
  5
   176
  8
0
  6
CONTINUOUS
 62
     0
 10
4.59999999999999
 20
-32.05
 30
0.0
 11
5.54999999999999
 21
-32.05
 31
0.0
  0
LINE
  5
   177
  8
0
  6
CONTINUOUS
 62
     0
 10
3.79999999999999
 20
-32.05
 30
0.0
 11
3.79999999999999
 21
-30.95
 31
0.0
  0
LINE
  5
   178
  8
0
  6
CONTINUOUS
 62
     0
 10
4.59999999999999
 20
-32.05
 30
0.0
 11
4.59999999999999
 21
-30.95
 31
0.0
  0
ARC
  5
   179
  8
0
  6
CONTINUOUS
 62
     0
 10
5.09999999999999
 20
-30.95
 30
0.0
 40
1.3
 50
89.9999999999999
 51
180.0
  0
ARC
  5
   17A
  8
0
  6
CONTINUOUS
 62
     0
 10
5.09999999999999
 20
-30.95
 30
0.0
 40
0.5
 50
89.9999999999999
 51
180.0
  0
LINE
  5
   17B
  8
0
  6
CONTINUOUS
 62
     0
 10
5.54999999999999
 20
-30.45
 30
0.0
 11
5.54999999999999
 21
-29.65
 31
0.0
  0
LINE
  5
   17C
  8
0
  6
CONTINUOUS
 62
     0
 10
5.09999999999999
 20
-30.45
 30
0.0
 11
5.54999999999999
 21
-30.45
 31
0.0
  0
LINE
  5
   17D
  8
0
  6
CONTINUOUS
 62
     0
 10
8.29999999999998
 20
-29.65
 30
0.0
 11
8.74999999999999
 21
-29.65
 31
0.0
  0
LINE
  5
   17E
  8
0
  6
CONTINUOUS
 62
     0
 10
6.99999999999999
 20
-37.35
 30
0.0
 11
7.79999999999999
 21
-37.35
 31
0.0
  0
LINE
  5
   17F
  8
0
  6
CONTINUOUS
 62
     0
 10
6.04999999999999
 20
-32.85
 30
0.0
 11
6.04999999999999
 21
-32.05
 31
0.0
  0
LINE
  5
   180
  8
0
  6
CONTINUOUS
 62
     0
 10
6.04999999999999
 20
-32.85
 30
0.0
 11
6.99999999999999
 21
-32.85
 31
0.0
  0
LINE
  5
   181
  8
0
  6
CONTINUOUS
 62
     0
 10
8.74999999999999
 20
-32.85
 30
0.0
 11
8.74999999999999
 21
-32.05
 31
0.0
  0
LINE
  5
   182
  8
0
  6
CONTINUOUS
 62
     0
 10
6.04999999999999
 20
-32.05
 30
0.0
 11
6.99999999999999
 21
-32.05
 31
0.0
  0
LINE
  5
   183
  8
0
  6
CONTINUOUS
 62
     0
 10
6.99999999999999
 20
-37.35
 30
0.0
 11
6.99999999999999
 21
-32.85
 31
0.0
  0
LINE
  5
   184
  8
0
  6
CONTINUOUS
 62
     0
 10
7.79999999999999
 20
-37.35
 30
0.0
 11
7.79999999999999
 21
-32.85
 31
0.0
  0
LINE
  5
   185
  8
0
  6
CONTINUOUS
 62
     0
 10
7.79999999999999
 20
-32.85
 30
0.0
 11
8.74999999999999
 21
-32.85
 31
0.0
  0
LINE
  5
   186
  8
0
  6
CONTINUOUS
 62
     0
 10
7.79999999999999
 20
-32.05
 30
0.0
 11
8.74999999999999
 21
-32.05
 31
0.0
  0
LINE
  5
   187
  8
0
  6
CONTINUOUS
 62
     0
 10
6.99999999999999
 20
-32.05
 30
0.0
 11
6.99999999999999
 21
-30.95
 31
0.0
  0
LINE
  5
   188
  8
0
  6
CONTINUOUS
 62
     0
 10
7.79999999999999
 20
-32.05
 30
0.0
 11
7.79999999999999
 21
-30.95
 31
0.0
  0
ARC
  5
   189
  8
0
  6
CONTINUOUS
 62
     0
 10
8.29999999999998
 20
-30.95
 30
0.0
 40
1.3
 50
89.9999999999999
 51
180.0
  0
ARC
  5
   18A
  8
0
  6
CONTINUOUS
 62
     0
 10
8.29999999999998
 20
-30.95
 30
0.0
 40
0.5
 50
89.9999999999999
 51
180.0
  0
LINE
  5
   18B
  8
0
  6
CONTINUOUS
 62
     0
 10
8.74999999999999
 20
-30.45
 30
0.0
 11
8.74999999999999
 21
-29.65
 31
0.0
  0
LINE
  5
   18C
  8
0
  6
CONTINUOUS
 62
     0
 10
8.29999999999998
 20
-30.45
 30
0.0
 11
8.74999999999999
 21
-30.45
 31
0.0
  0
LINE
  5
   18D
  8
0
  6
CONTINUOUS
 62
     0
 10
3.4
 20
-2.85000000000002
 30
0.0
 11
4.19999999999999
 21
-2.85000000000002
 31
0.0
  0
ARC
  5
   18E
  8
0
  6
CONTINUOUS
 62
     0
 10
-3.5527136788005E-15
 20
0.249999999999979
 30
0.0
 40
2.6
 50
0.0
 51
180.0
  0
ARC
  5
   18F
  8
0
  6
CONTINUOUS
 62
     0
 10
-3.5527136788005E-15
 20
0.249999999999979
 30
0.0
 40
1.8
 50
0.0
 51
180.0
  0
ARC
  5
   190
  8
0
  6
CONTINUOUS
 62
     0
 10
-3.5527136788005E-15
 20
-0.250000000000018
 30
0.0
 40
2.6
 50
180.0
 51
360.0
  0
ARC
  5
   191
  8
0
  6
CONTINUOUS
 62
     0
 10
-3.5527136788005E-15
 20
-0.250000000000018
 30
0.0
 40
1.8
 50
180.0
 51
360.0
  0
LINE
  5
   192
  8
0
  6
CONTINUOUS
 62
     0
 10
1.8
 20
-0.250000000000018
 30
0.0
 11
1.8
 21
0.249999999999979
 31
0.0
  0
LINE
  5
   193
  8
0
  6
CONTINUOUS
 62
     0
 10
2.6
 20
-0.250000000000018
 30
0.0
 11
2.6
 21
0.249999999999979
 31
0.0
  0
LINE
  5
   194
  8
0
  6
CONTINUOUS
 62
     0
 10
-1.8
 20
-0.250000000000032
 30
0.0
 11
-1.8
 21
0.249999999999964
 31
0.0
  0
LINE
  5
   195
  8
0
  6
CONTINUOUS
 62
     0
 10
-2.6
 20
-0.250000000000018
 30
0.0
 11
-2.6
 21
0.249999999999979
 31
0.0
  0
LINE
  5
   196
  8
0
  6
CONTINUOUS
 62
     0
 10
3.4
 20
-2.85000000000002
 30
0.0
 11
3.4
 21
2.84999999999998
 31
0.0
  0
LINE
  5
   197
  8
0
  6
CONTINUOUS
 62
     0
 10
4.19999999999999
 20
-2.85000000000002
 30
0.0
 11
4.19999999999999
 21
0.649999999999981
 31
0.0
  0
LINE
  5
   198
  8
0
  6
CONTINUOUS
 62
     0
 10
6.99999999999999
 20
-2.85000000000002
 30
0.0
 11
6.99999999999999
 21
0.649999999999981
 31
0.0
  0
LINE
  5
   199
  8
0
  6
CONTINUOUS
 62
     0
 10
7.79999999999999
 20
-2.85000000000002
 30
0.0
 11
7.79999999999999
 21
0.84999999999998
 31
0.0
  0
LINE
  5
   19A
  8
0
  6
CONTINUOUS
 62
     0
 10
3.4
 20
2.84999999999998
 30
0.0
 11
4.19999999999999
 21
2.84999999999998
 31
0.0
  0
ARC
  5
   19B
  8
0
  6
CONTINUOUS
 62
     0
 10
5.59999999999999
 20
0.649999999999981
 30
0.0
 40
1.4
 50
0.0
 51
180.0
  0
LINE
  5
   19C
  8
0
  6
CONTINUOUS
 62
     0
 10
4.19999999999999
 20
2.05
 30
0.0
 11
4.19999999999999
 21
2.84999999999998
 31
0.0
  0
ARC
  5
   19D
  8
0
  6
CONTINUOUS
 62
     0
 10
5.79999999999999
 20
0.84999999999998
 30
0.0
 40
2.0
 50
0.0
 51
143.130102354155
  0
LINE
  5
   19E
  8
0
  6
CONTINUOUS
 62
     0
 10
6.99999999999999
 20
-2.85000000000002
 30
0.0
 11
7.79999999999999
 21
-2.85000000000002
 31
0.0
  0
ENDBLK
  5
   19F
  8
0
  6
CONTINUOUS
 62
     0
  0
BLOCK
  5
   1A0
  8
0
  6
CONTINUOUS
 62
     7
  2
COPRITERMINALI
 70
    64
 10
0.0
 20
0.0
 30
0.0
  3
COPRITERMINALI
  0
LINE
  5
   1A1
  8
0
  6
CONTINUOUS
 62
     3
 10
-26.9653228477592
 20
-26.4999963653409
 30
0.0
 11
51.499997307872
 21
-26.4999847412093
 31
0.0
  0
LINE
  5
   1A2
  8
0
  6
CONTINUOUS
 62
     3
 10
-11.8807223165952
 20
-3.2146989469386E-15
 30
0.0
 11
51.2499820490807
 21
-3.2146989469386E-15
 31
0.0
  0
LINE
  5
   1A3
  8
0
  6
CONTINUOUS
 62
     3
 10
52.5000359267571
 20
-25.4999999999854
 30
0.0
 11
52.5000359267571
 21
-1.24999999998545
 31
0.0
  0
LINE
  5
   1A4
  8
0
  6
CONTINUOUS
 62
     3
 10
51.2499875325437
 20
6.62021609443286E-6
 30
0.0
 11
52.1338681534683
 21
-0.366112771113006
 31
0.0
  0
LINE
  5
   1A5
  8
0
  6
CONTINUOUS
 62
     3
 10
52.1338651254927
 20
-0.366107818105295
 30
0.0
 11
52.4999845168218
 21
-1.24998843902992
 31
0.0
  0
LINE
  5
   1A6
  8
0
  6
CONTINUOUS
 62
     3
 10
50.1499835749595
 20
-25.4999847412109
 30
0.0
 11
50.1499835749595
 21
-0.310653686523438
 31
0.0
  0
LINE
  5
   1A7
  8
0
  6
CONTINUOUS
 62
     3
 10
46.5499851008385
 20
-25.5
 30
0.0
 11
46.5499851008385
 21
-0.310653686523438
 31
0.0
  0
LINE
  5
   1A8
  8
0
  6
CONTINUOUS
 62
     3
 10
42.9499866267174
 20
-25.5
 30
0.0
 11
42.9499866267174
 21
-0.310653686523438
 31
0.0
  0
LINE
  5
   1A9
  8
0
  6
CONTINUOUS
 62
     3
 10
39.3499881525963
 20
-25.5
 30
0.0
 11
39.3499881525963
 21
-0.310653686523438
 31
0.0
  0
LINE
  5
   1AA
  8
0
  6
CONTINUOUS
 62
     3
 10
35.7499820490806
 20
-25.5
 30
0.0
 11
35.7499820490806
 21
-0.310653686523438
 31
0.0
  0
LINE
  5
   1AB
  8
0
  6
CONTINUOUS
 62
     3
 10
32.1499835749596
 20
-25.5
 30
0.0
 11
32.1499835749596
 21
-0.310653686523438
 31
0.0
  0
LINE
  5
   1AC
  8
0
  6
CONTINUOUS
 62
     3
 10
28.5499851008385
 20
-25.5
 30
0.0
 11
28.5499851008385
 21
-0.310653686523438
 31
0.0
  0
LINE
  5
   1AD
  8
0
  6
CONTINUOUS
 62
     3
 10
24.9499866267174
 20
-25.5
 30
0.0
 11
24.9499866267174
 21
-0.310653686523438
 31
0.0
  0
LINE
  5
   1AE
  8
0
  6
CONTINUOUS
 62
     3
 10
21.3499881525963
 20
-25.5
 30
0.0
 11
21.3499881525963
 21
-0.310653686523438
 31
0.0
  0
LINE
  5
   1AF
  8
0
  6
CONTINUOUS
 62
     3
 10
17.7499820490806
 20
-25.5
 30
0.0
 11
17.7499820490806
 21
-0.310653686523438
 31
0.0
  0
LINE
  5
   1B0
  8
0
  6
CONTINUOUS
 62
     3
 10
14.1499835749596
 20
-25.5
 30
0.0
 11
14.1499835749596
 21
-0.310653686523438
 31
0.0
  0
LINE
  5
   1B1
  8
0
  6
CONTINUOUS
 62
     3
 10
10.5499851008385
 20
-25.5
 30
0.0
 11
10.5499851008385
 21
-0.310653686523438
 31
0.0
  0
LINE
  5
   1B2
  8
0
  6
CONTINUOUS
 62
     3
 10
6.94998662671736
 20
-25.5
 30
0.0
 11
6.94998662671736
 21
-0.310653686523438
 31
0.0
  0
LINE
  5
   1B3
  8
0
  6
CONTINUOUS
 62
     3
 10
3.349984337899
 20
-25.5
 30
0.0
 11
3.349984337899
 21
-0.310653686523438
 31
0.0
  0
LINE
  5
   1B4
  8
0
  6
CONTINUOUS
 62
     3
 10
-0.250014136222092
 20
-25.5
 30
0.0
 11
-0.250014136222092
 21
-0.310653686523438
 31
0.0
  0
LINE
  5
   1B5
  8
0
  6
CONTINUOUS
 62
     3
 10
-3.85001261034319
 20
-25.5
 30
0.0
 11
-3.85001261034319
 21
-0.310653686523438
 31
0.0
  0
LINE
  5
   1B6
  8
0
  6
CONTINUOUS
 62
     3
 10
-7.45001489916154
 20
-25.5
 30
0.0
 11
-7.45001489916154
 21
-0.310653686523438
 31
0.0
  0
LINE
  5
   1B7
  8
0
  6
CONTINUOUS
 62
     3
 10
-11.0500133732826
 20
-25.5
 30
0.0
 11
-11.0500133732826
 21
-0.310653686523438
 31
0.0
  0
LINE
  5
   1B8
  8
0
  6
CONTINUOUS
 62
     3
 10
-14.650015662101
 20
-25.5
 30
0.0
 11
-14.650015662101
 21
-9.57938879857687
 31
0.0
  0
LINE
  5
   1B9
  8
0
  6
CONTINUOUS
 62
     3
 10
-18.2500141362221
 20
-25.5
 30
0.0
 11
-18.2500141362221
 21
-13.5387104077297
 31
0.0
  0
LINE
  5
   1BA
  8
0
  6
CONTINUOUS
 62
     3
 10
-21.8500145176918
 20
-25.5
 30
0.0
 11
-21.8500145176918
 21
-21.696898268415
 31
0.0
  0
LINE
  5
   1BB
  8
0
  6
CONTINUOUS
 62
     3
 10
-25.4500148991615
 20
-25.5
 30
0.0
 11
-25.4500148991615
 21
-23.7334800633219
 31
0.0
  0
LINE
  5
   1BC
  8
0
  6
CONTINUOUS
 62
     3
 10
51.4999973078697
 20
-26.4999847412109
 30
0.0
 11
51.4999973078697
 21
-25.4999847412109
 31
0.0
  0
LINE
  5
   1BD
  8
0
  6
CONTINUOUS
 62
     3
 10
51.4999973323171
 20
-25.4999847240978
 30
0.0
 11
52.4999897029225
 21
-25.4999999828869
 31
0.0
  0
LINE
  5
   1BE
  8
0
  6
CONTINUOUS
 62
     3
 10
-26.7252113460517
 20
-25.4999962297817
 30
0.0
 11
51.499997307872
 21
-25.4999847412093
 31
0.0
  0
POLYLINE
  5
   1BF
  8
0
  6
CONTINUOUS
 62
     3
 66
     1
 10
0.0
 20
0.0
 30
0.0
  0
VERTEX
  5
   1C0
  8
0
  6
CONTINUOUS
 10
-11.8807223165952
 20
-7.17635511806862E-7
 30
0.0
 40
0.0
 41
0.0
  0
VERTEX
  5
   1C1
  8
0
  6
CONTINUOUS
 10
-12.0380882028879
 20
-0.124695022286736
 30
0.0
 40
0.0
 41
0.0
  0
VERTEX
  5
   1C2
  8
0
  6
CONTINUOUS
 10
-12.1870378355997
 20
-0.252159435912545
 30
0.0
 40
0.0
 41
0.0
  0
VERTEX
  5
   1C3
  8
0
  6
CONTINUOUS
 10
-12.3275980880227
 20
-0.382387323729221
 30
0.0
 40
0.0
 41
0.0
  0
VERTEX
  5
   1C4
  8
0
  6
CONTINUOUS
 10
-12.4598050795586
 20
-0.515369768168507
 30
0.0
 40
0.0
 41
0.0
  0
VERTEX
  5
   1C5
  8
0
  6
CONTINUOUS
 10
-12.5837055478119
 20
-0.651095230119601
 30
0.0
 40
0.0
 41
0.0
  0
VERTEX
  5
   1C6
  8
0
  6
CONTINUOUS
 10
-12.6425586822873
 20
-0.719982186495683
 30
0.0
 40
0.0
 41
0.0
  0
VERTEX
  5
   1C7
  8
0
  6
CONTINUOUS
 10
-12.6993582206831
 20
-0.789549210171149
 30
0.0
 40
0.0
 41
0.0
  0
VERTEX
  5
   1C8
  8
0
  6
CONTINUOUS
 10
-12.7541136025796
 20
-0.859793970595136
 30
0.0
 40
0.0
 41
0.0
  0
VERTEX
  5
   1C9
  8
0
  6
CONTINUOUS
 10
-12.8068351884624
 20
-0.93071390985324
 30
0.0
 40
0.0
 41
0.0
  0
VERTEX
  5
   1CA
  8
0
  6
CONTINUOUS
 10
-12.8575343026004
 20
-1.00230623208134
 30
0.0
 40
0.0
 41
0.0
  0
VERTEX
  5
   1CB
  8
0
  6
CONTINUOUS
 10
-12.9062232759231
 20
-1.0745678928794
 30
0.0
 40
0.0
 41
0.0
  0
VERTEX
  5
   1CC
  8
0
  6
CONTINUOUS
 10
-12.9529154888994
 20
-1.14749558872529
 30
0.0
 40
0.0
 41
0.0
  0
VERTEX
  5
   1CD
  8
0
  6
CONTINUOUS
 10
-12.9976254144146
 20
-1.22108574638858
 30
0.0
 40
0.0
 41
0.0
  0
VERTEX
  5
   1CE
  8
0
  6
CONTINUOUS
 10
-13.0403686606493
 20
-1.29533451234439
 30
0.0
 40
0.0
 41
0.0
  0
VERTEX
  5
   1CF
  8
0
  6
CONTINUOUS
 10
-13.0811620139563
 20
-1.37023774218716
 30
0.0
 40
0.0
 41
0.0
  0
VERTEX
  5
   1D0
  8
0
  6
CONTINUOUS
 10
-13.1200234817393
 20
-1.4457909900445
 30
0.0
 40
0.0
 41
0.0
  0
VERTEX
  5
   1D1
  8
0
  6
CONTINUOUS
 10
-13.1569723353304
 20
-1.52198949799095
 30
0.0
 40
0.0
 41
0.0
  0
VERTEX
  5
   1D2
  8
0
  6
CONTINUOUS
 10
-13.225215862176
 20
-1.67630163866714
 30
0.0
 40
0.0
 41
0.0
  0
VERTEX
  5
   1D3
  8
0
  6
CONTINUOUS
 10
-13.286073673082
 20
-1.83312945747635
 30
0.0
 40
0.0
 41
0.0
  0
VERTEX
  5
   1D4
  8
0
  6
CONTINUOUS
 10
-13.3397498136806
 20
-1.9924225773146
 30
0.0
 40
0.0
 41
0.0
  0
VERTEX
  5
   1D5
  8
0
  6
CONTINUOUS
 10
-13.3864726687407
 20
-2.15412461195529
 30
0.0
 40
0.0
 41
0.0
  0
VERTEX
  5
   1D6
  8
0
  6
CONTINUOUS
 10
-13.4264963342613
 20
-2.31817282729122
 30
0.0
 40
0.0
 41
0.0
  0
VERTEX
  5
   1D7
  8
0
  6
CONTINUOUS
 10
-13.460101989565
 20
-2.48449780257656
 30
0.0
 40
0.0
 41
0.0
  0
VERTEX
  5
   1D8
  8
0
  6
CONTINUOUS
 10
-13.4875992693913
 20
-2.65302309166887
 30
0.0
 40
0.0
 41
0.0
  0
VERTEX
  5
   1D9
  8
0
  6
CONTINUOUS
 10
-13.5093276359897
 20
-2.82366488427106
 30
0.0
 40
0.0
 41
0.0
  0
VERTEX
  5
   1DA
  8
0
  6
CONTINUOUS
 10
-13.5256577512138
 20
-2.99633166717342
 30
0.0
 40
0.0
 41
0.0
  0
VERTEX
  5
   1DB
  8
0
  6
CONTINUOUS
 10
-13.5392744625448
 20
-3.21887433710571
 30
0.0
 40
0.0
 41
0.0
  0
VERTEX
  5
   1DC
  8
0
  6
CONTINUOUS
 10
-13.5457089984619
 20
-3.44431131298729
 30
0.0
 40
0.0
 41
0.0
  0
VERTEX
  5
   1DD
  8
0
  6
CONTINUOUS
 10
-13.5459448045399
 20
-3.67239820678813
 30
0.0
 40
0.0
 41
0.0
  0
VERTEX
  5
   1DE
  8
0
  6
CONTINUOUS
 10
-13.5410289084444
 20
-3.90287239850856
 30
0.0
 40
0.0
 41
0.0
  0
VERTEX
  5
   1DF
  8
0
  6
CONTINUOUS
 10
-13.5320591677427
 20
-4.13545491753417
 30
0.0
 40
0.0
 41
0.0
  0
VERTEX
  5
   1E0
  8
0
  6
CONTINUOUS
 10
-13.5201715177152
 20
-4.36985232399089
 30
0.0
 40
0.0
 41
0.0
  0
VERTEX
  5
   1E1
  8
0
  6
CONTINUOUS
 10
-13.4923001062319
 20
-4.84285698153295
 30
0.0
 40
0.0
 41
0.0
  0
VERTEX
  5
   1E2
  8
0
  6
CONTINUOUS
 10
-13.4667791273031
 20
-5.31932095843851
 30
0.0
 40
0.0
 41
0.0
  0
VERTEX
  5
   1E3
  8
0
  6
CONTINUOUS
 10
-13.4577810265544
 20
-5.55801647470083
 30
0.0
 40
0.0
 41
0.0
  0
VERTEX
  5
   1E4
  8
0
  6
CONTINUOUS
 10
-13.4527661375365
 20
-5.79656774057655
 30
0.0
 40
0.0
 41
0.0
  0
VERTEX
  5
   1E5
  8
0
  6
CONTINUOUS
 10
-13.4527798782228
 20
-6.03463270931388
 30
0.0
 40
0.0
 41
0.0
  0
VERTEX
  5
   1E6
  8
0
  6
CONTINUOUS
 10
-13.4588037267864
 20
-6.27186991574137
 30
0.0
 40
0.0
 41
0.0
  0
VERTEX
  5
   1E7
  8
0
  6
CONTINUOUS
 10
-13.471742469411
 20
-6.50794035762288
 30
0.0
 40
0.0
 41
0.0
  0
VERTEX
  5
   1E8
  8
0
  6
CONTINUOUS
 10
-13.4810635629787
 20
-6.6254332401087
 30
0.0
 40
0.0
 41
0.0
  0
VERTEX
  5
   1E9
  8
0
  6
CONTINUOUS
 10
-13.4924114481018
 20
-6.74250937701265
 30
0.0
 40
0.0
 41
0.0
  0
VERTEX
  5
   1EA
  8
0
  6
CONTINUOUS
 10
-13.5058719747218
 20
-6.85912792354668
 30
0.0
 40
0.0
 41
0.0
  0
VERTEX
  5
   1EB
  8
0
  6
CONTINUOUS
 10
-13.5215238084959
 20
-6.97524854161025
 30
0.0
 40
0.0
 41
0.0
  0
VERTEX
  5
   1EC
  8
0
  6
CONTINUOUS
 10
-13.53943803229
 20
-7.09083145858272
 30
0.0
 40
0.0
 41
0.0
  0
VERTEX
  5
   1ED
  8
0
  6
CONTINUOUS
 10
-13.5596777476739
 20
-7.20583752611561
 30
0.0
 40
0.0
 41
0.0
  0
VERTEX
  5
   1EE
  8
0
  6
CONTINUOUS
 10
-13.5822976764144
 20
-7.32022827892504
 30
0.0
 40
0.0
 41
0.0
  0
VERTEX
  5
   1EF
  8
0
  6
CONTINUOUS
 10
-13.6073437619702
 20
-7.43396599358399
 30
0.0
 40
0.0
 41
0.0
  0
VERTEX
  5
   1F0
  8
0
  6
CONTINUOUS
 10
-13.6348527709855
 20
-7.54701374731472
 30
0.0
 40
0.0
 41
0.0
  0
VERTEX
  5
   1F1
  8
0
  6
CONTINUOUS
 10
-13.6648518947842
 20
-7.65933547678105
 30
0.0
 40
0.0
 41
0.0
  0
VERTEX
  5
   1F2
  8
0
  6
CONTINUOUS
 10
-13.7102052147405
 20
-7.81255594844713
 30
0.0
 40
0.0
 41
0.0
  0
VERTEX
  5
   1F3
  8
0
  6
CONTINUOUS
 10
-13.7603128733319
 20
-7.96424869821502
 30
0.0
 40
0.0
 41
0.0
  0
VERTEX
  5
   1F4
  8
0
  6
CONTINUOUS
 10
-13.8151539241413
 20
-8.11432972818013
 30
0.0
 40
0.0
 41
0.0
  0
VERTEX
  5
   1F5
  8
0
  6
CONTINUOUS
 10
-13.8746753653185
 20
-8.26272004112415
 30
0.0
 40
0.0
 41
0.0
  0
VERTEX
  5
   1F6
  8
0
  6
CONTINUOUS
 10
-13.9387946632176
 20
-8.4093463934055
 30
0.0
 40
0.0
 41
0.0
  0
VERTEX
  5
   1F7
  8
0
  6
CONTINUOUS
 10
-14.0074022760342
 20
-8.55414204784972
 30
0.0
 40
0.0
 41
0.0
  0
VERTEX
  5
   1F8
  8
0
  6
CONTINUOUS
 10
-14.0803641774427
 20
-8.69704752663992
 30
0.0
 40
0.0
 41
0.0
  0
VERTEX
  5
   1F9
  8
0
  6
CONTINUOUS
 10
-14.1575243802331
 20
-8.83801136420718
 30
0.0
 40
0.0
 41
0.0
  0
VERTEX
  5
   1FA
  8
0
  6
CONTINUOUS
 10
-14.2387074599486
 20
-8.976990860121
 30
0.0
 40
0.0
 41
0.0
  0
VERTEX
  5
   1FB
  8
0
  6
CONTINUOUS
 10
-14.3237210785229
 20
-9.11395283197969
 30
0.0
 40
0.0
 41
0.0
  0
VERTEX
  5
   1FC
  8
0
  6
CONTINUOUS
 10
-14.4123585079169
 20
-9.24887436830084
 30
0.0
 40
0.0
 41
0.0
  0
VERTEX
  5
   1FD
  8
0
  6
CONTINUOUS
 10
-14.5044011537565
 20
-9.38174358141167
 30
0.0
 40
0.0
 41
0.0
  0
VERTEX
  5
   1FE
  8
0
  6
CONTINUOUS
 10
-14.5996210789693
 20
-9.51256036033953
 30
0.0
 40
0.0
 41
0.0
  0
VERTEX
  5
   1FF
  8
0
  6
CONTINUOUS
 10
-14.6977835274221
 20
-9.64133712370228
 30
0.0
 40
0.0
 41
0.0
  0
VERTEX
  5
   200
  8
0
  6
CONTINUOUS
 10
-14.7986494475581
 20
-9.76809957259872
 30
0.0
 40
0.0
 41
0.0
  0
VERTEX
  5
   201
  8
0
  6
CONTINUOUS
 10
-14.9019780160339
 20
-9.89288744349901
 30
0.0
 40
0.0
 41
0.0
  0
VERTEX
  5
   202
  8
0
  6
CONTINUOUS
 10
-15.0075291613572
 20
-10.0157552611351
 30
0.0
 40
0.0
 41
0.0
  0
VERTEX
  5
   203
  8
0
  6
CONTINUOUS
 10
-15.1150660875233
 20
-10.1367730913912
 30
0.0
 40
0.0
 41
0.0
  0
VERTEX
  5
   204
  8
0
  6
CONTINUOUS
 10
-15.2243577976528
 20
-10.256027294194
 30
0.0
 40
0.0
 41
0.0
  0
VERTEX
  5
   205
  8
0
  6
CONTINUOUS
 10
-15.3351816176287
 20
-10.3736212764034
 30
0.0
 40
0.0
 41
0.0
  0
VERTEX
  5
   206
  8
0
  6
CONTINUOUS
 10
-15.4727327398165
 20
-10.5156039225108
 30
0.0
 40
0.0
 41
0.0
  0
VERTEX
  5
   207
  8
0
  6
CONTINUOUS
 10
-15.6119019776945
 20
-10.6555369357352
 30
0.0
 40
0.0
 41
0.0
  0
VERTEX
  5
   208
  8
0
  6
CONTINUOUS
 10
-15.8937631365907
 20
-10.930467143671
 30
0.0
 40
0.0
 41
0.0
  0
VERTEX
  5
   209
  8
0
  6
CONTINUOUS
 10
-16.46324532334
 20
-11.4705085657159
 30
0.0
 40
0.0
 41
0.0
  0
VERTEX
  5
   20A
  8
0
  6
CONTINUOUS
 10
-16.7464445499341
 20
-11.7418227858257
 30
0.0
 40
0.0
 41
0.0
  0
VERTEX
  5
   20B
  8
0
  6
CONTINUOUS
 10
-16.8867002763727
 20
-11.8791914496362
 30
0.0
 40
0.0
 41
0.0
  0
VERTEX
  5
   20C
  8
0
  6
CONTINUOUS
 10
-17.025675870363
 20
-12.0182117486832
 30
0.0
 40
0.0
 41
0.0
  0
VERTEX
  5
   20D
  8
0
  6
CONTINUOUS
 10
-17.1630649050046
 20
-12.1592459296682
 30
0.0
 40
0.0
 41
0.0
  0
VERTEX
  5
   20E
  8
0
  6
CONTINUOUS
 10
-17.2985413659313
 20
-12.302633192929
 30
0.0
 40
0.0
 41
0.0
  0
VERTEX
  5
   20F
  8
0
  6
CONTINUOUS
 10
-17.4317555090847
 20
-12.4486842890361
 30
0.0
 40
0.0
 41
0.0
  0
VERTEX
  5
   210
  8
0
  6
CONTINUOUS
 10
-17.562329718488
 20
-12.5976761153882
 30
0.0
 40
0.0
 41
0.0
  0
VERTEX
  5
   211
  8
0
  6
CONTINUOUS
 10
-17.6898543640196
 20
-12.7498463128088
 30
0.0
 40
0.0
 41
0.0
  0
VERTEX
  5
   212
  8
0
  6
CONTINUOUS
 10
-17.8138836591874
 20
-12.9053878621415
 30
0.0
 40
0.0
 41
0.0
  0
VERTEX
  5
   213
  8
0
  6
CONTINUOUS
 10
-17.933931518902
 20
-13.0644436808464
 30
0.0
 40
0.0
 41
0.0
  0
VERTEX
  5
   214
  8
0
  6
CONTINUOUS
 10
-18.0494674172511
 20
-13.2271012195961
 30
0.0
 40
0.0
 41
0.0
  0
VERTEX
  5
   215
  8
0
  6
CONTINUOUS
 10
-18.1251608148491
 20
-13.3397812332793
 30
0.0
 40
0.0
 41
0.0
  0
VERTEX
  5
   216
  8
0
  6
CONTINUOUS
 10
-18.1983064339121
 20
-13.4541318798404
 30
0.0
 40
0.0
 41
0.0
  0
VERTEX
  5
   217
  8
0
  6
CONTINUOUS
 10
-18.2687018186097
 20
-13.5701316400191
 30
0.0
 40
0.0
 41
0.0
  0
VERTEX
  5
   218
  8
0
  6
CONTINUOUS
 10
-18.3361404474715
 20
-13.6877470203599
 30
0.0
 40
0.0
 41
0.0
  0
VERTEX
  5
   219
  8
0
  6
CONTINUOUS
 10
-18.4004153371355
 20
-13.8069336510575
 30
0.0
 40
0.0
 41
0.0
  0
VERTEX
  5
   21A
  8
0
  6
CONTINUOUS
 10
-18.4613226460948
 20
-13.9276373838021
 30
0.0
 40
0.0
 41
0.0
  0
VERTEX
  5
   21B
  8
0
  6
CONTINUOUS
 10
-18.5186652784458
 20
-14.0497953896251
 30
0.0
 40
0.0
 41
0.0
  0
VERTEX
  5
   21C
  8
0
  6
CONTINUOUS
 10
-18.5722564876352
 20
-14.1733372567445
 30
0.0
 40
0.0
 41
0.0
  0
VERTEX
  5
   21D
  8
0
  6
CONTINUOUS
 10
-18.6219234802078
 20
-14.2981860884109
 30
0.0
 40
0.0
 41
0.0
  0
VERTEX
  5
   21E
  8
0
  6
CONTINUOUS
 10
-18.6675110195543
 20
-14.4242596007524
 30
0.0
 40
0.0
 41
0.0
  0
VERTEX
  5
   21F
  8
0
  6
CONTINUOUS
 10
-18.7088850296582
 20
-14.5514712206204
 30
0.0
 40
0.0
 41
0.0
  0
VERTEX
  5
   220
  8
0
  6
CONTINUOUS
 10
-18.7459361988438
 20
-14.6797311834354
 30
0.0
 40
0.0
 41
0.0
  0
VERTEX
  5
   221
  8
0
  6
CONTINUOUS
 10
-18.7785835835239
 20
-14.8089476310319
 30
0.0
 40
0.0
 41
0.0
  0
VERTEX
  5
   222
  8
0
  6
CONTINUOUS
 10
-18.8067782119466
 20
-14.9390277095047
 30
0.0
 40
0.0
 41
0.0
  0
VERTEX
  5
   223
  8
0
  6
CONTINUOUS
 10
-18.8305066879437
 20
-15.0698786670537
 30
0.0
 40
0.0
 41
0.0
  0
VERTEX
  5
   224
  8
0
  6
CONTINUOUS
 10
-18.8497947946776
 20
-15.2014089518301
 30
0.0
 40
0.0
 41
0.0
  0
VERTEX
  5
   225
  8
0
  6
CONTINUOUS
 10
-18.8647110983892
 20
-15.3335293097812
 30
0.0
 40
0.0
 41
0.0
  0
VERTEX
  5
   226
  8
0
  6
CONTINUOUS
 10
-18.8753705521454
 20
-15.4661538824968
 30
0.0
 40
0.0
 41
0.0
  0
VERTEX
  5
   227
  8
0
  6
CONTINUOUS
 10
-18.8819380995863
 20
-15.599201305054
 30
0.0
 40
0.0
 41
0.0
  0
VERTEX
  5
   228
  8
0
  6
CONTINUOUS
 10
-18.8846322786733
 20
-15.7325958038629
 30
0.0
 40
0.0
 41
0.0
  0
VERTEX
  5
   229
  8
0
  6
CONTINUOUS
 10
-18.8842190005345
 20
-15.8369168510388
 30
0.0
 40
0.0
 41
0.0
  0
VERTEX
  5
   22A
  8
0
  6
CONTINUOUS
 10
-18.8817683995859
 20
-15.9413773544323
 30
0.0
 40
0.0
 41
0.0
  0
VERTEX
  5
   22B
  8
0
  6
CONTINUOUS
 10
-18.8714788565952
 20
-16.1506101986441
 30
0.0
 40
0.0
 41
0.0
  0
VERTEX
  5
   22C
  8
0
  6
CONTINUOUS
 10
-18.85538066569
 20
-16.3601019191307
 30
0.0
 40
0.0
 41
0.0
  0
VERTEX
  5
   22D
  8
0
  6
CONTINUOUS
 10
-18.8353142465831
 20
-16.5696860109618
 30
0.0
 40
0.0
 41
0.0
  0
VERTEX
  5
   22E
  8
0
  6
CONTINUOUS
 10
-18.7913421550987
 20
-16.9885338250813
 30
0.0
 40
0.0
 41
0.0
  0
VERTEX
  5
   22F
  8
0
  6
CONTINUOUS
 10
-18.7716144415617
 20
-17.1975025606325
 30
0.0
 40
0.0
 41
0.0
  0
VERTEX
  5
   230
  8
0
  6
CONTINUOUS
 10
-18.7561366621251
 20
-17.4059533520397
 30
0.0
 40
0.0
 41
0.0
  0
VERTEX
  5
   231
  8
0
  6
CONTINUOUS
 10
-18.7468330897795
 20
-17.6136966914533
 30
0.0
 40
0.0
 41
0.0
  0
VERTEX
  5
   232
  8
0
  6
CONTINUOUS
 10
-18.7450479344463
 20
-17.7172345221966
 30
0.0
 40
0.0
 41
0.0
  0
VERTEX
  5
   233
  8
0
  6
CONTINUOUS
 10
-18.7454381351029
 20
-17.8205079574186
 30
0.0
 40
0.0
 41
0.0
  0
VERTEX
  5
   234
  8
0
  6
CONTINUOUS
 10
-18.7477872405867
 20
-17.9129842949241
 30
0.0
 40
0.0
 41
0.0
  0
VERTEX
  5
   235
  8
0
  6
CONTINUOUS
 10
-18.7521459809002
 20
-18.005191315638
 30
0.0
 40
0.0
 41
0.0
  0
VERTEX
  5
   236
  8
0
  6
CONTINUOUS
 10
-18.7586152097789
 20
-18.0970991504369
 30
0.0
 40
0.0
 41
0.0
  0
VERTEX
  5
   237
  8
0
  6
CONTINUOUS
 10
-18.7672833462021
 20
-18.1886760194679
 30
0.0
 40
0.0
 41
0.0
  0
VERTEX
  5
   238
  8
0
  6
CONTINUOUS
 10
-18.7782268121109
 20
-18.2798884032864
 30
0.0
 40
0.0
 41
0.0
  0
VERTEX
  5
   239
  8
0
  6
CONTINUOUS
 10
-18.7915104701262
 20
-18.3707012139947
 30
0.0
 40
0.0
 41
0.0
  0
VERTEX
  5
   23A
  8
0
  6
CONTINUOUS
 10
-18.8071880612666
 20
-18.4610779663801
 30
0.0
 40
0.0
 41
0.0
  0
VERTEX
  5
   23B
  8
0
  6
CONTINUOUS
 10
-18.8253026426664
 20
-18.5509809490533
 30
0.0
 40
0.0
 41
0.0
  0
VERTEX
  5
   23C
  8
0
  6
CONTINUOUS
 10
-18.8458870252939
 20
-18.6403713955868
 30
0.0
 40
0.0
 41
0.0
  0
VERTEX
  5
   23D
  8
0
  6
CONTINUOUS
 10
-18.8689642116689
 20
-18.7292096556529
 30
0.0
 40
0.0
 41
0.0
  0
VERTEX
  5
   23E
  8
0
  6
CONTINUOUS
 10
-18.8945478335812
 20
-18.8174553661621
 30
0.0
 40
0.0
 41
0.0
  0
VERTEX
  5
   23F
  8
0
  6
CONTINUOUS
 10
-18.9226425898082
 20
-18.9050676224014
 30
0.0
 40
0.0
 41
0.0
  0
VERTEX
  5
   240
  8
0
  6
CONTINUOUS
 10
-18.9532446838331
 20
-18.9920051491727
 30
0.0
 40
0.0
 41
0.0
  0
VERTEX
  5
   241
  8
0
  6
CONTINUOUS
 10
-18.9863422615628
 20
-19.0782264719308
 30
0.0
 40
0.0
 41
0.0
  0
VERTEX
  5
   242
  8
0
  6
CONTINUOUS
 10
-19.021915849046
 20
-19.1636900879219
 30
0.0
 40
0.0
 41
0.0
  0
VERTEX
  5
   243
  8
0
  6
CONTINUOUS
 10
-19.0599387901913
 20
-19.2483546373218
 30
0.0
 40
0.0
 41
0.0
  0
VERTEX
  5
   244
  8
0
  6
CONTINUOUS
 10
-19.1003776844846
 20
-19.3321790743743
 30
0.0
 40
0.0
 41
0.0
  0
VERTEX
  5
   245
  8
0
  6
CONTINUOUS
 10
-19.1431928247081
 20
-19.4151228385293
 30
0.0
 40
0.0
 41
0.0
  0
VERTEX
  5
   246
  8
0
  6
CONTINUOUS
 10
-19.1883386346573
 20
-19.497146025581
 30
0.0
 40
0.0
 41
0.0
  0
VERTEX
  5
   247
  8
0
  6
CONTINUOUS
 10
-19.2357641068597
 20
-19.5782095588067
 30
0.0
 40
0.0
 41
0.0
  0
VERTEX
  5
   248
  8
0
  6
CONTINUOUS
 10
-19.2854132402923
 20
-19.6582753601044
 30
0.0
 40
0.0
 41
0.0
  0
VERTEX
  5
   249
  8
0
  6
CONTINUOUS
 10
-19.3372254781001
 20
-19.7373065211315
 30
0.0
 40
0.0
 41
0.0
  0
VERTEX
  5
   24A
  8
0
  6
CONTINUOUS
 10
-19.3911361453136
 20
-19.8152674744432
 30
0.0
 40
0.0
 41
0.0
  0
VERTEX
  5
   24B
  8
0
  6
CONTINUOUS
 10
-19.447076886567
 20
-19.8921241646302
 30
0.0
 40
0.0
 41
0.0
  0
VERTEX
  5
   24C
  8
0
  6
CONTINUOUS
 10
-19.5049761038166
 20
-19.9678442194575
 30
0.0
 40
0.0
 41
0.0
  0
VERTEX
  5
   24D
  8
0
  6
CONTINUOUS
 10
-19.5647593940579
 20
-20.0423971210028
 30
0.0
 40
0.0
 41
0.0
  0
VERTEX
  5
   24E
  8
0
  6
CONTINUOUS
 10
-19.6263499870445
 20
-20.115754376794
 30
0.0
 40
0.0
 41
0.0
  0
VERTEX
  5
   24F
  8
0
  6
CONTINUOUS
 10
-19.6896691830055
 20
-20.1878896909484
 30
0.0
 40
0.0
 41
0.0
  0
VERTEX
  5
   250
  8
0
  6
CONTINUOUS
 10
-19.7546367903638
 20
-20.2587791353103
 30
0.0
 40
0.0
 41
0.0
  0
VERTEX
  5
   251
  8
0
  6
CONTINUOUS
 10
-19.821171563454
 20
-20.3284013205899
 30
0.0
 40
0.0
 41
0.0
  0
VERTEX
  5
   252
  8
0
  6
CONTINUOUS
 10
-19.9586149800348
 20
-20.4637720778989
 30
0.0
 40
0.0
 41
0.0
  0
VERTEX
  5
   253
  8
0
  6
CONTINUOUS
 10
-20.1013450189428
 20
-20.5938881291209
 30
0.0
 40
0.0
 41
0.0
  0
VERTEX
  5
   254
  8
0
  6
CONTINUOUS
 10
-20.2487184149115
 20
-20.7186872152003
 30
0.0
 40
0.0
 41
0.0
  0
VERTEX
  5
   255
  8
0
  6
CONTINUOUS
 10
-20.40011705819
 20
-20.8381641282051
 30
0.0
 40
0.0
 41
0.0
  0
VERTEX
  5
   256
  8
0
  6
CONTINUOUS
 10
-20.5549620015178
 20
-20.9523761877521
 30
0.0
 40
0.0
 41
0.0
  0
VERTEX
  5
   257
  8
0
  6
CONTINUOUS
 10
-20.68953110085
 20
-21.0458383770463
 30
0.0
 40
0.0
 41
0.0
  0
VERTEX
  5
   258
  8
0
  6
CONTINUOUS
 10
-20.8259375855763
 20
-21.135669762206
 30
0.0
 40
0.0
 41
0.0
  0
VERTEX
  5
   259
  8
0
  6
CONTINUOUS
 10
-20.9639230601744
 20
-21.2220249204068
 30
0.0
 40
0.0
 41
0.0
  0
VERTEX
  5
   25A
  8
0
  6
CONTINUOUS
 10
-21.1032596572597
 20
-21.3050908905824
 30
0.0
 40
0.0
 41
0.0
  0
VERTEX
  5
   25B
  8
0
  6
CONTINUOUS
 10
-21.2437474354693
 20
-21.3850838615248
 30
0.0
 40
0.0
 41
0.0
  0
VERTEX
  5
   25C
  8
0
  6
CONTINUOUS
 10
-21.3852117773469
 20
-21.4622458599852
 30
0.0
 40
0.0
 41
0.0
  0
VERTEX
  5
   25D
  8
0
  6
CONTINUOUS
 10
-21.527500787227
 20
-21.5368414387739
 30
0.0
 40
0.0
 41
0.0
  0
VERTEX
  5
   25E
  8
0
  6
CONTINUOUS
 10
-21.6704826891197
 20
-21.6091543648612
 30
0.0
 40
0.0
 41
0.0
  0
VERTEX
  5
   25F
  8
0
  6
CONTINUOUS
 10
-21.9580830506661
 20
-21.7481435262139
 30
0.0
 40
0.0
 41
0.0
  0
VERTEX
  5
   260
  8
0
  6
CONTINUOUS
 10
-22.2472621671836
 20
-21.8817419108181
 30
0.0
 40
0.0
 41
0.0
  0
VERTEX
  5
   261
  8
0
  6
CONTINUOUS
 10
-22.8280475152863
 20
-22.1432519610222
 30
0.0
 40
0.0
 41
0.0
  0
VERTEX
  5
   262
  8
0
  6
CONTINUOUS
 10
-23.1185961835407
 20
-22.2762741619568
 30
0.0
 40
0.0
 41
0.0
  0
VERTEX
  5
   263
  8
0
  6
CONTINUOUS
 10
-23.4084419447107
 20
-22.413914695241
 30
0.0
 40
0.0
 41
0.0
  0
VERTEX
  5
   264
  8
0
  6
CONTINUOUS
 10
-23.5729221847255
 20
-22.4951397272573
 30
0.0
 40
0.0
 41
0.0
  0
VERTEX
  5
   265
  8
0
  6
CONTINUOUS
 10
-23.7367350650165
 20
-22.5788045741134
 30
0.0
 40
0.0
 41
0.0
  0
VERTEX
  5
   266
  8
0
  6
CONTINUOUS
 10
-23.8996730794607
 20
-22.665168264236
 30
0.0
 40
0.0
 41
0.0
  0
VERTEX
  5
   267
  8
0
  6
CONTINUOUS
 10
-24.0615060419566
 20
-22.7544492820306
 30
0.0
 40
0.0
 41
0.0
  0
VERTEX
  5
   268
  8
0
  6
CONTINUOUS
 10
-24.2219834803203
 20
-22.8468281597424
 30
0.0
 40
0.0
 41
0.0
  0
VERTEX
  5
   269
  8
0
  6
CONTINUOUS
 10
-24.3808370301816
 20
-22.9424500693175
 30
0.0
 40
0.0
 41
0.0
  0
VERTEX
  5
   26A
  8
0
  6
CONTINUOUS
 10
-24.5377828288802
 20
-23.0414274142638
 30
0.0
 40
0.0
 41
0.0
  0
VERTEX
  5
   26B
  8
0
  6
CONTINUOUS
 10
-24.6925239093621
 20
-23.1438424215123
 30
0.0
 40
0.0
 41
0.0
  0
VERTEX
  5
   26C
  8
0
  6
CONTINUOUS
 10
-24.8447525940758
 20
-23.249749733278
 30
0.0
 40
0.0
 41
0.0
  0
VERTEX
  5
   26D
  8
0
  6
CONTINUOUS
 10
-24.9941528888687
 20
-23.3591789989207
 30
0.0
 40
0.0
 41
0.0
  0
VERTEX
  5
   26E
  8
0
  6
CONTINUOUS
 10
-25.1404028768827
 20
-23.4721374668068
 30
0.0
 40
0.0
 41
0.0
  0
VERTEX
  5
   26F
  8
0
  6
CONTINUOUS
 10
-25.2831771124515
 20
-23.5886125761695
 30
0.0
 40
0.0
 41
0.0
  0
VERTEX
  5
   270
  8
0
  6
CONTINUOUS
 10
-25.4221490149957
 20
-23.7085745489704
 30
0.0
 40
0.0
 41
0.0
  0
VERTEX
  5
   271
  8
0
  6
CONTINUOUS
 10
-25.5569932629201
 20
-23.8319789817604
 30
0.0
 40
0.0
 41
0.0
  0
VERTEX
  5
   272
  8
0
  6
CONTINUOUS
 10
-25.687388187509
 20
-23.958769437541
 30
0.0
 40
0.0
 41
0.0
  0
VERTEX
  5
   273
  8
0
  6
CONTINUOUS
 10
-25.8130181668233
 20
-24.0888800376248
 30
0.0
 40
0.0
 41
0.0
  0
VERTEX
  5
   274
  8
0
  6
CONTINUOUS
 10
-25.933576019596
 20
-24.222238053497
 30
0.0
 40
0.0
 41
0.0
  0
VERTEX
  5
   275
  8
0
  6
CONTINUOUS
 10
-26.0487653991288
 20
-24.3587664986766
 30
0.0
 40
0.0
 41
0.0
  0
VERTEX
  5
   276
  8
0
  6
CONTINUOUS
 10
-26.1583031871886
 20
-24.4983867205769
 30
0.0
 40
0.0
 41
0.0
  0
VERTEX
  5
   277
  8
0
  6
CONTINUOUS
 10
-26.2619218879033
 20
-24.641020992367
 30
0.0
 40
0.0
 41
0.0
  0
VERTEX
  5
   278
  8
0
  6
CONTINUOUS
 10
-26.3193202928071
 20
-24.7252670939351
 30
0.0
 40
0.0
 41
0.0
  0
VERTEX
  5
   279
  8
0
  6
CONTINUOUS
 10
-26.3745890952435
 20
-24.8104921971462
 30
0.0
 40
0.0
 41
0.0
  0
VERTEX
  5
   27A
  8
0
  6
CONTINUOUS
 10
-26.4276846358967
 20
-24.8966832332298
 30
0.0
 40
0.0
 41
0.0
  0
VERTEX
  5
   27B
  8
0
  6
CONTINUOUS
 10
-26.478565468312
 20
-24.9838277958021
 30
0.0
 40
0.0
 41
0.0
  0
VERTEX
  5
   27C
  8
0
  6
CONTINUOUS
 10
-26.5271923013383
 20
-25.0719141236378
 30
0.0
 40
0.0
 41
0.0
  0
VERTEX
  5
   27D
  8
0
  6
CONTINUOUS
 10
-26.5735279415717
 20
-25.1609310834414
 30
0.0
 40
0.0
 41
0.0
  0
VERTEX
  5
   27E
  8
0
  6
CONTINUOUS
 10
-26.6175372357988
 20
-25.2508681526179
 30
0.0
 40
0.0
 41
0.0
  0
VERTEX
  5
   27F
  8
0
  6
CONTINUOUS
 10
-26.6591870134399
 20
-25.3417154020446
 30
0.0
 40
0.0
 41
0.0
  0
VERTEX
  5
   280
  8
0
  6
CONTINUOUS
 10
-26.6984460289924
 20
-25.4334634788421
 30
0.0
 40
0.0
 41
0.0
  0
VERTEX
  5
   281
  8
0
  6
CONTINUOUS
 10
-26.7352849044739
 20
-25.5261035891458
 30
0.0
 40
0.0
 41
0.0
  0
VERTEX
  5
   282
  8
0
  6
CONTINUOUS
 10
-26.7696760718657
 20
-25.6196274808766
 30
0.0
 40
0.0
 41
0.0
  0
VERTEX
  5
   283
  8
0
  6
CONTINUOUS
 10
-26.8015937155559
 20
-25.7140274265128
 30
0.0
 40
0.0
 41
0.0
  0
VERTEX
  5
   284
  8
0
  6
CONTINUOUS
 10
-26.831013714783
 20
-25.8092962058608
 30
0.0
 40
0.0
 41
0.0
  0
VERTEX
  5
   285
  8
0
  6
CONTINUOUS
 10
-26.8579135860787
 20
-25.9054270888269
 30
0.0
 40
0.0
 41
0.0
  0
VERTEX
  5
   286
  8
0
  6
CONTINUOUS
 10
-26.8822724257115
 20
-26.002413818188
 30
0.0
 40
0.0
 41
0.0
  0
VERTEX
  5
   287
  8
0
  6
CONTINUOUS
 10
-26.90407085213
 20
-26.1002505923631
 30
0.0
 40
0.0
 41
0.0
  0
VERTEX
  5
   288
  8
0
  6
CONTINUOUS
 10
-26.9232909484063
 20
-26.1989320481847
 30
0.0
 40
0.0
 41
0.0
  0
VERTEX
  5
   289
  8
0
  6
CONTINUOUS
 10
-26.9399162046787
 20
-26.2984532436699
 30
0.0
 40
0.0
 41
0.0
  0
VERTEX
  5
   28A
  8
0
  6
CONTINUOUS
 10
-26.9539314605958
 20
-26.3988096407913
 30
0.0
 40
0.0
 41
0.0
  0
VERTEX
  5
   28B
  8
0
  6
CONTINUOUS
 10
-26.9653228477591
 20
-26.499997088249
 30
0.0
 40
0.0
 41
0.0
  0
SEQEND
  5
   28C
  8
0
  6
CONTINUOUS
 62
     3
  0
ENDBLK
  5
   28D
  8
0
  6
CONTINUOUS
 62
     7
  0
BLOCK
  5
   28E
  8
0
  6
CONTINUOUS
 62
     7
  2
MOSTRINA
 70
    64
 10
0.0
 20
0.0
 30
0.0
  3
MOSTRINA
  0
LINE
  5
   28F
  8
0
  6
CONTINUOUS
 62
     3
 10
173.338256835938
 20
30.7306251525879
 30
0.0
 11
173.338256835938
 21
189.230621337891
 31
0.0
  0
LINE
  5
   290
  8
0
  6
CONTINUOUS
 62
     3
 10
57.5882568359375
 20
29.4806251525879
 30
0.0
 11
172.088256835938
 21
29.4806251525879
 31
0.0
  0
LINE
  5
   291
  8
0
  6
CONTINUOUS
 62
     3
 10
56.3382568359375
 20
30.7306251525879
 30
0.0
 11
56.3382568359375
 21
189.230621337891
 31
0.0
  0
LINE
  5
   292
  8
0
  6
CONTINUOUS
 62
     3
 10
57.5882568359375
 20
190.480621337891
 30
0.0
 11
172.088256835938
 21
190.480621337891
 31
0.0
  0
LINE
  5
   293
  8
0
  6
CONTINUOUS
 62
     3
 10
167.838256835938
 20
56.9806251525879
 30
0.0
 11
167.838256835938
 21
162.980625152588
 31
0.0
  0
LINE
  5
   294
  8
0
  6
CONTINUOUS
 62
     3
 10
61.8382568359375
 20
56.9806251525879
 30
0.0
 11
167.838256835938
 21
56.9806251525879
 31
0.0
  0
LINE
  5
   295
  8
0
  6
CONTINUOUS
 62
     3
 10
61.8382568359375
 20
56.9806251525879
 30
0.0
 11
61.8382568359375
 21
162.980625152588
 31
0.0
  0
LINE
  5
   296
  8
0
  6
CONTINUOUS
 62
     3
 10
61.8382568359375
 20
162.980621337891
 30
0.0
 11
167.838256835938
 21
162.980621337891
 31
0.0
  0
LINE
  5
   297
  8
0
  6
CONTINUOUS
 62
     3
 10
168.838256835938
 20
48.4806251525879
 30
0.0
 11
168.838256835938
 21
49.4806251525879
 31
0.0
  0
LINE
  5
   298
  8
0
  6
CONTINUOUS
 62
     3
 10
61.8382568359375
 20
50.4806251525879
 30
0.0
 11
167.838256835938
 21
50.4806251525879
 31
0.0
  0
LINE
  5
   299
  8
0
  6
CONTINUOUS
 62
     3
 10
60.8382568359375
 20
48.4806251525879
 30
0.0
 11
60.8382568359375
 21
49.4806251525879
 31
0.0
  0
LINE
  5
   29A
  8
0
  6
CONTINUOUS
 62
     3
 10
61.8382568359375
 20
49.4806251525879
 30
0.0
 11
167.838256835938
 21
49.4806251525879
 31
0.0
  0
LINE
  5
   29B
  8
0
  6
CONTINUOUS
 62
     3
 10
60.8382568359375
 20
29.4806251525879
 30
0.0
 11
60.8382568359375
 21
48.4806251525879
 31
0.0
  0
LINE
  5
   29C
  8
0
  6
CONTINUOUS
 62
     3
 10
60.8382568359375
 20
49.4806213378906
 30
0.0
 11
60.8382568359375
 21
190.480621337891
 31
0.0
  0
LINE
  5
   29D
  8
0
  6
CONTINUOUS
 62
     3
 10
61.8382568359375
 20
29.4806251525879
 30
0.0
 11
61.8382568359375
 21
49.4806251525879
 31
0.0
  0
LINE
  5
   29E
  8
0
  6
CONTINUOUS
 62
     3
 10
61.8382568359375
 20
162.980621337891
 30
0.0
 11
61.8382568359375
 21
169.480621337891
 31
0.0
  0
LINE
  5
   29F
  8
0
  6
CONTINUOUS
 62
     3
 10
61.8382568359375
 20
50.4806251525879
 30
0.0
 11
61.8382568359375
 21
56.9806251525879
 31
0.0
  0
LINE
  5
   2A0
  8
0
  6
CONTINUOUS
 62
     3
 10
168.838256835938
 20
29.4806251525879
 30
0.0
 11
168.838256835938
 21
48.4806251525879
 31
0.0
  0
LINE
  5
   2A1
  8
0
  6
CONTINUOUS
 62
     3
 10
168.838256835938
 20
49.4806251525879
 30
0.0
 11
168.838256835938
 21
190.480621337891
 31
0.0
  0
LINE
  5
   2A2
  8
0
  6
CONTINUOUS
 62
     3
 10
167.838256835938
 20
50.4806251525879
 30
0.0
 11
167.838256835938
 21
56.9806251525879
 31
0.0
  0
LINE
  5
   2A3
  8
0
  6
CONTINUOUS
 62
     3
 10
167.838256835938
 20
162.980621337891
 30
0.0
 11
167.838256835938
 21
169.480621337891
 31
0.0
  0
LINE
  5
   2A4
  8
0
  6
CONTINUOUS
 62
     3
 10
167.838256835938
 20
29.4806251525879
 30
0.0
 11
167.838256835938
 21
49.4806251525879
 31
0.0
  0
LINE
  5
   2A5
  8
0
  6
CONTINUOUS
 62
     3
 10
60.8382568359375
 20
170.480621337891
 30
0.0
 11
168.838256835938
 21
170.480621337891
 31
0.0
  0
LINE
  5
   2A6
  8
0
  6
CONTINUOUS
 62
     3
 10
61.8382568359375
 20
169.480621337891
 30
0.0
 11
167.838256835938
 21
169.480621337891
 31
0.0
  0
ARC
  5
   2A7
  8
0
  6
CONTINUOUS
 62
     3
 10
57.5882568359375
 20
30.7306251525879
 30
0.0
 40
1.25
 50
180.0
 51
270.0
  0
ARC
  5
   2A8
  8
0
  6
CONTINUOUS
 62
     3
 10
172.088256835938
 20
30.7306251525879
 30
0.0
 40
1.25
 50
270.0
 51
360.0
  0
ARC
  5
   2A9
  8
0
  6
CONTINUOUS
 62
     3
 10
172.088256835938
 20
189.230621337891
 30
0.0
 40
1.25
 50
0.0
 51
90.0
  0
ARC
  5
   2AA
  8
0
  6
CONTINUOUS
 62
     3
 10
57.5882568359375
 20
189.230621337891
 30
0.0
 40
1.25
 50
90.0
 51
180.0
  0
LINE
  5
   2AB
  8
0
  6
DOT
 62
     3
 10
60.3382577409677
 20
179.7306252571
 30
0.0
 11
60.8382568359375
 21
179.7306252571
 31
0.0
  0
LINE
  5
   2AC
  8
0
  6
DOT
 62
     3
 10
60.3382577409676
 20
181.2306252571
 30
0.0
 11
60.8382568359375
 21
181.2306252571
 31
0.0
  0
LINE
  5
   2AD
  8
0
  6
CONTINUOUS
 62
     3
 10
168.338257745313
 20
179.730625257273
 30
0.0
 11
168.838256835938
 21
179.730625257273
 31
0.0
  0
LINE
  5
   2AE
  8
0
  6
CONTINUOUS
 62
     3
 10
168.338257745314
 20
181.230625257273
 30
0.0
 11
168.838256835938
 21
181.230625257273
 31
0.0
  0
ARC
  5
   2AF
  8
0
  6
DOT
 62
     3
 10
60.3382577401871
 20
180.480625257147
 30
0.0
 40
0.749999999345164
 50
90.0
 51
270.0
  0
ARC
  5
   2B0
  8
0
  6
CONTINUOUS
 62
     3
 10
61.338257740822
 20
180.480625256974
 30
0.0
 40
0.750000000009701
 50
270.0
 51
450.0
  0
LINE
  5
   2B1
  8
0
  6
CONTINUOUS
 62
     3
 10
60.8382568359375
 20
181.2306252571
 30
0.0
 11
61.3382577409688
 21
181.2306252571
 31
0.0
  0
LINE
  5
   2B2
  8
0
  6
CONTINUOUS
 62
     3
 10
60.8382568359375
 20
179.7306252571
 30
0.0
 11
61.3382577409689
 21
179.7306252571
 31
0.0
  0
ARC
  5
   2B3
  8
0
  6
CONTINUOUS
 62
     3
 10
168.338257745503
 20
180.480625256952
 30
0.0
 40
0.750000000048506
 50
90.0000000038822
 51
269.999999996024
  0
ARC
  5
   2B4
  8
0
  6
DOT
 62
     3
 10
169.338257745421
 20
180.480625256965
 30
0.0
 40
0.750000000029104
 50
270.000000002449
 51
449.999999997486
  0
LINE
  5
   2B5
  8
0
  6
DOT
 62
     3
 10
168.838256835938
 20
181.230625257273
 30
0.0
 11
169.338257745315
 21
181.230625257273
 31
0.0
  0
LINE
  5
   2B6
  8
0
  6
DOT
 62
     3
 10
168.838256835938
 20
179.730625257273
 30
0.0
 11
169.338257745315
 21
179.730625257273
 31
0.0
  0
POINT
  5
   2B7
  8
0
  6
CONTINUOUS
 62
     3
 10
114.838256835938
 20
109.980621337891
 30
0.0
  0
ENDBLK
  5
   2B8
  8
0
  6
CONTINUOUS
 62
     7
  0
BLOCK
  5
   2B9
  8
0
  6
CONTINUOUS
 62
     7
  2
*UDIM1991
 70
    65
 10
0.0
 20
0.0
 30
0.0
  3
*UDIM1991
  0
TEXT
  5
   2BA
  8
0
  6
CONTINUOUS
 62
     7
 10
-677.62751467645
 20
99.8584251438984
 30
0.0
 40
3.00000002980232
  1
117
 50
359.999999948034
 41
0.933333333333333
 72
     1
 11
-673.727514636354
 21
101.358425155282
 31
0.0
 73
     2
  0
LINE
  5
   2BB
  8
0
  6
CONTINUOUS
 62
     7
 10
-644.202517819242
 20
58.0321273803692
 30
0.0
 11
-644.202517819242
 21
100.858425140381
 31
0.0
  0
LINE
  5
   2BC
  8
0
  6
CONTINUOUS
 62
     7
 10
-702.702517819242
 20
58.0321273803692
 30
0.0
 11
-702.702517819242
 21
100.858425140381
 31
0.0
  0
LINE
  5
   2BD
  8
0
  6
CONTINUOUS
 62
     7
 10
-644.202517819242
 20
98.8584251403809
 30
0.0
 11
-702.702517819242
 21
98.8584251403809
 31
0.0
  0
LINE
  5
   2BE
  8
0
  6
CONTINUOUS
 62
     7
 10
-647.156941096449
 20
98.3374807104292
 30
0.0
 11
-644.202517819242
 21
98.8584251403809
 31
0.0
  0
LINE
  5
   2BF
  8
0
  6
CONTINUOUS
 62
     7
 10
-644.202517819242
 20
98.8584251403809
 30
0.0
 11
-647.156941096449
 21
99.3793695703325
 31
0.0
  0
LINE
  5
   2C0
  8
0
  6
CONTINUOUS
 62
     7
 10
-699.748094542035
 20
99.3793695703325
 30
0.0
 11
-702.702517819242
 21
98.8584251403809
 31
0.0
  0
LINE
  5
   2C1
  8
0
  6
CONTINUOUS
 62
     7
 10
-702.702517819242
 20
98.8584251403809
 30
0.0
 11
-699.748094542035
 21
98.3374807104292
 31
0.0
  0
ENDBLK
  5
   2C2
  8
0
  6
CONTINUOUS
 62
     7
  0
BLOCK
  5
   2C3
  8
0
  6
CONTINUOUS
 62
     7
  2
*UDIM1992
 70
    65
 10
0.0
 20
0.0
 30
0.0
  3
*UDIM1992
  0
TEXT
  5
   2C4
  8
0
  6
CONTINUOUS
 62
     7
 10
-626.330207828239
 20
13.2321311490044
 30
0.0
 40
3.00000002980232
  1
161
 50
89.9999999480344
 41
0.933333333333333
 72
     1
 11
-627.830207839608
 21
17.132131189106
 31
0.0
 73
     2
  0
LINE
  5
   2C5
  8
0
  6
CONTINUOUS
 62
     7
 10
-643.827517819242
 20
-22.8428707122822
 30
0.0
 11
-623.330207824707
 21
-22.8428707122822
 31
0.0
  0
LINE
  5
   2C6
  8
0
  6
CONTINUOUS
 62
     7
 10
-643.827517819242
 20
57.6571273803692
 30
0.0
 11
-623.330207824707
 21
57.6571273803692
 31
0.0
  0
LINE
  5
   2C7
  8
0
  6
CONTINUOUS
 62
     7
 10
-625.330207824707
 20
-22.8428707122822
 30
0.0
 11
-625.330207824707
 21
57.6571273803692
 31
0.0
  0
LINE
  5
   2C8
  8
0
  6
CONTINUOUS
 62
     7
 10
-625.851152254659
 20
-19.8884474350752
 30
0.0
 11
-625.330207824707
 21
-22.8428707122822
 31
0.0
  0
LINE
  5
   2C9
  8
0
  6
CONTINUOUS
 62
     7
 10
-625.330207824707
 20
-22.8428707122822
 30
0.0
 11
-624.809263394755
 21
-19.8884474350752
 31
0.0
  0
LINE
  5
   2CA
  8
0
  6
CONTINUOUS
 62
     7
 10
-624.809263394755
 20
54.7027041031622
 30
0.0
 11
-625.330207824707
 21
57.6571273803692
 31
0.0
  0
LINE
  5
   2CB
  8
0
  6
CONTINUOUS
 62
     7
 10
-625.330207824707
 20
57.6571273803692
 30
0.0
 11
-625.851152254659
 21
54.7027041031622
 31
0.0
  0
ENDBLK
  5
   2CC
  8
0
  6
CONTINUOUS
 62
     7
  0
BLOCK
  5
   2CD
  8
0
  6
CONTINUOUS
 62
     7
  2
*UDIM1993
 70
    65
 10
0.0
 20
0.0
 30
0.0
  3
*UDIM1993
  0
TEXT
  5
   2CE
  8
0
  6
CONTINUOUS
 62
     7
 10
-616.882514957146
 20
3.47187763018648
 30
0.0
 40
3.00000002980232
  1
259
 50
89.9999999480344
 41
0.933333333333333
 72
     1
 11
-618.382514968514
 21
7.37187767028807
 31
0.0
 73
     2
  0
LINE
  5
   2CF
  8
0
  6
CONTINUOUS
 62
     7
 10
-646.827534200004
 20
-48.2178840637207
 30
0.0
 11
-613.882514953613
 21
-48.2178840637207
 31
0.0
  0
LINE
  5
   2D0
  8
0
  6
CONTINUOUS
 62
     7
 10
-646.827534200004
 20
81.2821159362793
 30
0.0
 11
-613.882514953613
 21
81.2821159362793
 31
0.0
  0
LINE
  5
   2D1
  8
0
  6
CONTINUOUS
 62
     7
 10
-615.882514953613
 20
-48.2178840637207
 30
0.0
 11
-615.882514953613
 21
81.2821159362793
 31
0.0
  0
LINE
  5
   2D2
  8
0
  6
CONTINUOUS
 62
     7
 10
-616.403459383565
 20
-45.2634607865138
 30
0.0
 11
-615.882514953613
 21
-48.2178840637207
 31
0.0
  0
LINE
  5
   2D3
  8
0
  6
CONTINUOUS
 62
     7
 10
-615.882514953613
 20
-48.2178840637207
 30
0.0
 11
-615.361570523662
 21
-45.2634607865138
 31
0.0
  0
LINE
  5
   2D4
  8
0
  6
CONTINUOUS
 62
     7
 10
-615.361570523662
 20
78.3276926590723
 30
0.0
 11
-615.882514953613
 21
81.2821159362793
 31
0.0
  0
LINE
  5
   2D5
  8
0
  6
CONTINUOUS
 62
     7
 10
-615.882514953613
 20
81.2821159362793
 30
0.0
 11
-616.403459383565
 21
78.3276926590723
 31
0.0
  0
ENDBLK
  5
   2D6
  8
0
  6
CONTINUOUS
 62
     7
  0
BLOCK
  5
   2D7
  8
0
  6
CONTINUOUS
 62
     7
  2
*UDIM1994
 70
    65
 10
0.0
 20
0.0
 30
0.0
  3
*UDIM1994
  0
TEXT
  5
   2D8
  8
0
  6
CONTINUOUS
 62
     7
 10
-634.768112189954
 20
40.969631107283
 30
0.0
 40
3.00000002980232
  1
127,75
 50
89.9999999480344
 41
0.933333333333333
 72
     1
 11
-636.268112197518
 21
49.0696311891079
 31
0.0
 73
     2
  0
LINE
  5
   2D9
  8
0
  6
CONTINUOUS
 62
     7
 10
-639.328903211308
 20
17.4071464538574
 30
0.0
 11
-631.768112182617
 21
17.4071464538574
 31
0.0
  0
LINE
  5
   2DA
  8
0
  6
CONTINUOUS
 62
     7
 10
-646.827534200004
 20
81.2821159362793
 30
0.0
 11
-631.768112182617
 21
81.2821159362793
 31
0.0
  0
LINE
  5
   2DB
  8
0
  6
CONTINUOUS
 62
     7
 10
-633.768112182617
 20
17.4071464538574
 30
0.0
 11
-633.768112182617
 21
81.2821159362793
 31
0.0
  0
LINE
  5
   2DC
  8
0
  6
CONTINUOUS
 62
     7
 10
-634.289056612569
 20
20.3615697310644
 30
0.0
 11
-633.768112182617
 21
17.4071464538574
 31
0.0
  0
LINE
  5
   2DD
  8
0
  6
CONTINUOUS
 62
     7
 10
-633.768112182617
 20
17.4071464538574
 30
0.0
 11
-633.247167752666
 21
20.3615697310644
 31
0.0
  0
LINE
  5
   2DE
  8
0
  6
CONTINUOUS
 62
     7
 10
-633.247167752666
 20
78.3276926590723
 30
0.0
 11
-633.768112182617
 21
81.2821159362793
 31
0.0
  0
LINE
  5
   2DF
  8
0
  6
CONTINUOUS
 62
     7
 10
-633.768112182617
 20
81.2821159362793
 30
0.0
 11
-634.289056612569
 21
78.3276926590723
 31
0.0
  0
ENDBLK
  5
   2E0
  8
0
  6
CONTINUOUS
 62
     7
  0
BLOCK
  5
   2E1
  8
0
  6
CONTINUOUS
 62
     5
  2
*UDIM1995
 70
    65
 10
0.0
 20
0.0
 30
0.0
  3
*UDIM1995
  0
TEXT
  5
   2E2
  8
0
  6
CONTINUOUS
 62
     5
 10
-708.277744300549
 20
40.3446311072781
 30
0.0
 40
3.00000002980232
  1
125,25
 50
89.9999999480344
 41
0.933333333333333
 72
     1
 11
-709.777744308114
 21
48.444631189103
 31
0.0
 73
     2
  0
LINE
  5
   2E3
  8
0
  6
CONTINUOUS
 62
     5
 10
-698.952486789321
 20
80.0321159362695
 30
0.0
 11
-709.277744293213
 21
80.0321159362695
 31
0.0
  0
LINE
  5
   2E4
  8
0
  6
CONTINUOUS
 62
     5
 10
-707.277744293213
 20
17.4071464538574
 30
0.0
 11
-707.277744293213
 21
80.0321159362695
 31
0.0
  0
LINE
  5
   2E5
  8
0
  6
CONTINUOUS
 62
     5
 10
-707.798688723165
 20
20.3615697310644
 30
0.0
 11
-707.277744293213
 21
17.4071464538574
 31
0.0
  0
LINE
  5
   2E6
  8
0
  6
CONTINUOUS
 62
     5
 10
-707.277744293213
 20
17.4071464538574
 30
0.0
 11
-706.756799863261
 21
20.3615697310644
 31
0.0
  0
LINE
  5
   2E7
  8
0
  6
CONTINUOUS
 62
     5
 10
-706.756799863261
 20
77.0776926590625
 30
0.0
 11
-707.277744293213
 21
80.0321159362695
 31
0.0
  0
LINE
  5
   2E8
  8
0
  6
CONTINUOUS
 62
     5
 10
-707.277744293213
 20
80.0321159362695
 30
0.0
 11
-707.798688723165
 21
77.0776926590625
 31
0.0
  0
ENDBLK
  5
   2E9
  8
0
  6
CONTINUOUS
 62
     5
  0
BLOCK
  5
   2EA
  8
0
  6
CONTINUOUS
 62
     7
  2
*UDIM1996
 70
    65
 10
0.0
 20
0.0
 30
0.0
  3
*UDIM1996
  0
TEXT
  5
   2EB
  8
0
  6
CONTINUOUS
 62
     7
 10
-717.219283107475
 20
3.92271381182245
 30
0.0
 40
3.00000002980232
  1
254
 50
89.9999999480344
 41
0.933333333333333
 72
     1
 11
-718.719283118844
 21
7.82271385192404
 31
0.0
 73
     2
  0
LINE
  5
   2EC
  8
0
  6
CONTINUOUS
 62
     7
 10
-698.952472869034
 20
-46.9678535461421
 30
0.0
 11
-718.219283103943
 21
-46.9678535461421
 31
0.0
  0
LINE
  5
   2ED
  8
0
  6
CONTINUOUS
 62
     7
 10
-698.952486789321
 20
80.0321159362695
 30
0.0
 11
-718.219283103943
 21
80.0321159362695
 31
0.0
  0
LINE
  5
   2EE
  8
0
  6
CONTINUOUS
 62
     7
 10
-716.219283103943
 20
-46.9678535461421
 30
0.0
 11
-716.219283103943
 21
80.0321159362695
 31
0.0
  0
LINE
  5
   2EF
  8
0
  6
CONTINUOUS
 62
     7
 10
-716.740227533895
 20
-44.0134302689351
 30
0.0
 11
-716.219283103943
 21
-46.9678535461421
 31
0.0
  0
LINE
  5
   2F0
  8
0
  6
CONTINUOUS
 62
     7
 10
-716.219283103943
 20
-46.9678535461421
 30
0.0
 11
-715.698338673991
 21
-44.0134302689351
 31
0.0
  0
LINE
  5
   2F1
  8
0
  6
CONTINUOUS
 62
     7
 10
-715.698338673991
 20
77.0776926590625
 30
0.0
 11
-716.219283103943
 21
80.0321159362695
 31
0.0
  0
LINE
  5
   2F2
  8
0
  6
CONTINUOUS
 62
     7
 10
-716.219283103943
 20
80.0321159362695
 30
0.0
 11
-716.740227533895
 21
77.0776926590625
 31
0.0
  0
ENDBLK
  5
   2F3
  8
0
  6
CONTINUOUS
 62
     7
  0
BLOCK
  5
   2F4
  8
0
  6
CONTINUOUS
 62
     7
  2
*UDIM1997
 70
    65
 10
0.0
 20
0.0
 30
0.0
  3
*UDIM1997
  0
TEXT
  5
   2F5
  8
0
  6
CONTINUOUS
 62
     7
 10
-667.47747651856
 20
-59.6700687385899
 30
0.0
 40
3.00000002980232
  1
35
 50
359.999999948034
 41
0.933333333333333
 72
     1
 11
-664.977476492371
 21
-58.1700687259436
 31
0.0
 73
     2
  0
LINE
  5
   2F6
  8
0
  6
CONTINUOUS
 62
     7
 10
-655.952472922665
 20
-42.7178507537061
 30
0.0
 11
-655.952481664595
 21
-62.6700687408445
 31
0.0
  0
LINE
  5
   2F7
  8
0
  6
CONTINUOUS
 62
     7
 10
-673.452475514226
 20
-54.3465093678963
 30
0.0
 11
-673.452481722995
 21
-62.6700687408442
 31
0.0
  0
LINE
  5
   2F8
  8
0
  6
CONTINUOUS
 62
     7
 10
-655.952480788308
 20
-60.6700687408447
 30
0.0
 11
-673.452480231141
 21
-60.6700687408447
 31
0.0
  0
LINE
  5
   2F9
  8
0
  6
CONTINUOUS
 62
     7
 10
-658.906904065515
 20
-61.1910131707964
 30
0.0
 11
-655.952480788308
 21
-60.6700687408447
 31
0.0
  0
LINE
  5
   2FA
  8
0
  6
CONTINUOUS
 62
     7
 10
-655.952480788308
 20
-60.6700687408447
 30
0.0
 11
-658.906904065515
 21
-60.1491243108931
 31
0.0
  0
LINE
  5
   2FB
  8
0
  6
CONTINUOUS
 62
     7
 10
-670.498056953934
 20
-60.1491243108931
 30
0.0
 11
-673.452480231141
 21
-60.6700687408447
 31
0.0
  0
LINE
  5
   2FC
  8
0
  6
CONTINUOUS
 62
     7
 10
-673.452480231141
 20
-60.6700687408447
 30
0.0
 11
-670.498056953934
 21
-61.1910131707964
 31
0.0
  0
ENDBLK
  5
   2FD
  8
0
  6
CONTINUOUS
 62
     7
  0
BLOCK
  5
   2FE
  8
0
  6
CONTINUOUS
 62
     7
  2
*UDIM1998
 70
    65
 10
0.0
 20
0.0
 30
0.0
  3
*UDIM1998
  0
TEXT
  5
   2FF
  8
0
  6
CONTINUOUS
 62
     7
 10
-684.977472717381
 20
-59.6700687385899
 30
0.0
 40
3.00000002980232
  1
35
 50
359.999999948034
 41
0.933333333333333
 72
     1
 11
-682.477472691192
 21
-58.1700687259436
 31
0.0
 73
     2
  0
LINE
  5
   300
  8
0
  6
CONTINUOUS
 62
     7
 10
-690.952473413297
 20
-42.7178535209113
 30
0.0
 11
-690.952485614684
 21
-62.6700687408444
 31
0.0
  0
LINE
  5
   301
  8
0
  6
CONTINUOUS
 62
     7
 10
-673.452480231141
 20
-60.6700687408447
 30
0.0
 11
-690.952484391623
 21
-60.6700687408447
 31
0.0
  0
LINE
  5
   302
  8
0
  6
CONTINUOUS
 62
     7
 10
-676.406903508348
 20
-61.1910131707964
 30
0.0
 11
-673.452480231141
 21
-60.6700687408447
 31
0.0
  0
LINE
  5
   303
  8
0
  6
CONTINUOUS
 62
     7
 10
-673.452480231141
 20
-60.6700687408447
 30
0.0
 11
-676.406903508348
 21
-60.1491243108931
 31
0.0
  0
LINE
  5
   304
  8
0
  6
CONTINUOUS
 62
     7
 10
-687.998061114416
 20
-60.1491243108931
 30
0.0
 11
-690.952484391623
 21
-60.6700687408447
 31
0.0
  0
LINE
  5
   305
  8
0
  6
CONTINUOUS
 62
     7
 10
-690.952484391623
 20
-60.6700687408447
 30
0.0
 11
-687.998061114416
 21
-61.1910131707964
 31
0.0
  0
ENDBLK
  5
   306
  8
0
  6
CONTINUOUS
 62
     7
  0
BLOCK
  5
   307
  8
0
  6
CONTINUOUS
 62
     7
  2
*UDIM1999
 70
    65
 10
0.0
 20
0.0
 30
0.0
  3
*UDIM1999
  0
TEXT
  5
   308
  8
0
  6
CONTINUOUS
 62
     7
 10
-677.627491789079
 20
89.7033500706563
 30
0.0
 40
3.00000002980232
  1
105
 50
359.999999948034
 41
0.933333333333333
 72
     1
 11
-673.727491748983
 21
91.2033500820398
 31
0.0
 73
     2
  0
LINE
  5
   309
  8
0
  6
CONTINUOUS
 62
     7
 10
-647.202503072696
 20
68.7821311950683
 30
0.0
 11
-647.202496191264
 21
90.7033500671386
 31
0.0
  0
LINE
  5
   30A
  8
0
  6
CONTINUOUS
 62
     7
 10
-699.702472403195
 20
68.7821311950682
 30
0.0
 11
-699.702462191435
 21
90.7033500671385
 31
0.0
  0
LINE
  5
   30B
  8
0
  6
CONTINUOUS
 62
     7
 10
-647.202496819097
 20
88.7033500671387
 30
0.0
 11
-699.702463123113
 21
88.7033500671387
 31
0.0
  0
LINE
  5
   30C
  8
0
  6
CONTINUOUS
 62
     7
 10
-650.156920096304
 20
88.182405637187
 30
0.0
 11
-647.202496819097
 21
88.7033500671387
 31
0.0
  0
LINE
  5
   30D
  8
0
  6
CONTINUOUS
 62
     7
 10
-647.202496819097
 20
88.7033500671387
 30
0.0
 11
-650.156920096304
 21
89.2242944970903
 31
0.0
  0
LINE
  5
   30E
  8
0
  6
CONTINUOUS
 62
     7
 10
-696.748039845906
 20
89.2242944970903
 30
0.0
 11
-699.702463123113
 21
88.7033500671387
 31
0.0
  0
LINE
  5
   30F
  8
0
  6
CONTINUOUS
 62
     7
 10
-699.702463123113
 20
88.7033500671387
 30
0.0
 11
-696.748039845906
 21
88.182405637187
 31
0.0
  0
ENDBLK
  5
   310
  8
0
  6
CONTINUOUS
 62
     7
  0
BLOCK
  5
   311
  8
0
  6
CONTINUOUS
 62
     7
  2
*UDIM2000
 70
    65
 10
0.0
 20
0.0
 30
0.0
  3
*UDIM2000
  0
TEXT
  5
   312
  8
0
  6
CONTINUOUS
 62
     7
 10
-412.100115599747
 20
11.5912841527927
 30
0.0
 40
3.00000002980232
  1
7
 50
404.893139787217
 41
0.933333333333334
 72
     1
 11
-412.379528949284
 21
13.4302861236575
 31
0.0
 73
     2
  0
TEXT
  5
   313
  8
0
  6
CONTINUOUS
 62
     7
 10
-414.331652300021
 20
9.36805586538898
 30
0.0
 40
3.00000002980232
  1
Ø
 50
404.893139787217
 41
0.933333333333334
 72
     1
 11
-414.611065649559
 21
11.2070578362537
 31
0.0
 73
     2
  0
LINE
  5
   314
  8
0
  6
CONTINUOUS
 62
     7
 10
-397.627717807651
 20
24.5982152666889
 30
0.0
 11
-413.625865539348
 21
8.65963151908826
 31
0.0
  0
LINE
  5
   315
  8
0
  6
CONTINUOUS
 62
     7
 10
-395.902408105664
 20
27.0524578040573
 30
0.0
 11
-397.627717807651
 21
24.5982152666889
 31
0.0
  0
LINE
  5
   316
  8
0
  6
CONTINUOUS
 62
     7
 10
-397.627717807651
 20
24.5982152666889
 30
0.0
 11
-395.167056747454
 21
26.3143583687719
 31
0.0
  0
LINE
  5
   317
  8
0
  6
CONTINUOUS
 62
     7
 10
-400.592770116992
 20
20.9088459068802
 30
0.0
 11
-398.867460415005
 21
23.3630884442486
 31
0.0
  0
LINE
  5
   318
  8
0
  6
CONTINUOUS
 62
     7
 10
-398.867460415005
 20
23.3630884442486
 30
0.0
 11
-401.328121475203
 21
21.6469453421656
 31
0.0
  0
ENDBLK
  5
   319
  8
0
  6
CONTINUOUS
 62
     7
  0
BLOCK
  5
   31A
  8
0
  6
CONTINUOUS
 62
     7
  2
*UDIM2001
 70
    65
 10
0.0
 20
0.0
 30
0.0
  3
*UDIM2001
  0
TEXT
  5
   31B
  8
0
  6
CONTINUOUS
 62
     7
 10
-391.022589146198
 20
72.2668304511257
 30
0.0
 40
3.00000002980232
  1
80
 50
359.999999844103
 41
0.933333333333333
 72
     1
 11
-388.522589117289
 21
73.7668304592371
 31
0.0
 73
     2
  0
LINE
  5
   31C
  8
0
  6
CONTINUOUS
 62
     7
 10
-398.247589111328
 20
62.1056518554688
 30
0.0
 11
-398.247589111328
 21
73.2668304443359
 31
0.0
  0
LINE
  5
   31D
  8
0
  6
CONTINUOUS
 62
     7
 10
-378.247589111328
 20
62.1056518554688
 30
0.0
 11
-378.247589111328
 21
73.2668304443359
 31
0.0
  0
LINE
  5
   31E
  8
0
  6
CONTINUOUS
 62
     7
 10
-398.247589111328
 20
71.2668304443359
 30
0.0
 11
-378.247589111328
 21
71.2668304443359
 31
0.0
  0
LINE
  5
   31F
  8
0
  6
CONTINUOUS
 62
     7
 10
-395.293165834121
 20
71.7877748742876
 30
0.0
 11
-398.247589111328
 21
71.2668304443359
 31
0.0
  0
LINE
  5
   320
  8
0
  6
CONTINUOUS
 62
     7
 10
-398.247589111328
 20
71.2668304443359
 30
0.0
 11
-395.293165834121
 21
70.7458860143843
 31
0.0
  0
LINE
  5
   321
  8
0
  6
CONTINUOUS
 62
     7
 10
-381.202012388535
 20
70.7458860143843
 30
0.0
 11
-378.247589111328
 21
71.2668304443359
 31
0.0
  0
LINE
  5
   322
  8
0
  6
CONTINUOUS
 62
     7
 10
-378.247589111328
 20
71.2668304443359
 30
0.0
 11
-381.202012388535
 21
71.7877748742876
 31
0.0
  0
ENDBLK
  5
   323
  8
0
  6
CONTINUOUS
 62
     7
  0
BLOCK
  5
   324
  8
0
  6
CONTINUOUS
 62
     7
  2
*UDIM2002
 70
    65
 10
0.0
 20
0.0
 30
0.0
  3
*UDIM2002
  0
TEXT
  5
   325
  8
0
  6
CONTINUOUS
 62
     7
 10
-392.422589160105
 20
78.7064895735802
 30
0.0
 40
3.00000002980232
  1
112
 50
359.999999844103
 41
0.933333333333333
 72
     1
 11
-388.522589117289
 21
80.2064895778894
 31
0.0
 73
     2
  0
LINE
  5
   326
  8
0
  6
CONTINUOUS
 62
     7
 10
-402.247589111328
 20
56.7306518554688
 30
0.0
 11
-402.247589111328
 21
79.7064895629883
 31
0.0
  0
LINE
  5
   327
  8
0
  6
CONTINUOUS
 62
     7
 10
-374.247589111328
 20
56.7306518554688
 30
0.0
 11
-374.247589111328
 21
79.7064895629883
 31
0.0
  0
LINE
  5
   328
  8
0
  6
CONTINUOUS
 62
     7
 10
-402.247589111328
 20
77.7064895629883
 30
0.0
 11
-374.247589111328
 21
77.7064895629883
 31
0.0
  0
LINE
  5
   329
  8
0
  6
CONTINUOUS
 62
     7
 10
-399.293165834121
 20
78.22743399294
 30
0.0
 11
-402.247589111328
 21
77.7064895629883
 31
0.0
  0
LINE
  5
   32A
  8
0
  6
CONTINUOUS
 62
     7
 10
-402.247589111328
 20
77.7064895629883
 30
0.0
 11
-399.293165834121
 21
77.1855451330366
 31
0.0
  0
LINE
  5
   32B
  8
0
  6
CONTINUOUS
 62
     7
 10
-377.202012388535
 20
77.1855451330366
 30
0.0
 11
-374.247589111328
 21
77.7064895629883
 31
0.0
  0
LINE
  5
   32C
  8
0
  6
CONTINUOUS
 62
     7
 10
-374.247589111328
 20
77.7064895629883
 30
0.0
 11
-377.202012388535
 21
78.22743399294
 31
0.0
  0
ENDBLK
  5
   32D
  8
0
  6
CONTINUOUS
 62
     7
  0
BLOCK
  5
   32E
  8
0
  6
CONTINUOUS
 62
     7
  2
*UDIM2003
 70
    65
 10
0.0
 20
0.0
 30
0.0
  3
*UDIM2003
  0
TEXT
  5
   32F
  8
0
  6
CONTINUOUS
 62
     7
 10
-418.220747004606
 20
37.5556518066933
 30
0.0
 40
3.00000002980232
  1
112
 50
449.999999844103
 41
0.933333333333333
 72
     1
 11
-419.72074700892
 21
41.4556518495083
 31
0.0
 73
     2
  0
LINE
  5
   330
  8
0
  6
CONTINUOUS
 62
     7
 10
-403.247589111328
 20
55.7306518554688
 30
0.0
 11
-419.220746994019
 21
55.7306518554688
 31
0.0
  0
LINE
  5
   331
  8
0
  6
CONTINUOUS
 62
     7
 10
-403.247589111328
 20
27.7306518554688
 30
0.0
 11
-419.220746994019
 21
27.7306518554688
 31
0.0
  0
LINE
  5
   332
  8
0
  6
CONTINUOUS
 62
     7
 10
-417.220746994019
 20
55.7306518554688
 30
0.0
 11
-417.220746994019
 21
27.7306518554688
 31
0.0
  0
LINE
  5
   333
  8
0
  6
CONTINUOUS
 62
     7
 10
-416.699802564067
 20
52.7762285782618
 30
0.0
 11
-417.220746994019
 21
55.7306518554688
 31
0.0
  0
LINE
  5
   334
  8
0
  6
CONTINUOUS
 62
     7
 10
-417.220746994019
 20
55.7306518554688
 30
0.0
 11
-417.74169142397
 21
52.7762285782618
 31
0.0
  0
LINE
  5
   335
  8
0
  6
CONTINUOUS
 62
     7
 10
-417.74169142397
 20
30.6850751326757
 30
0.0
 11
-417.220746994019
 21
27.7306518554688
 31
0.0
  0
LINE
  5
   336
  8
0
  6
CONTINUOUS
 62
     7
 10
-417.220746994019
 20
27.7306518554688
 30
0.0
 11
-416.699802564067
 21
30.6850751326757
 31
0.0
  0
ENDBLK
  5
   337
  8
0
  6
CONTINUOUS
 62
     7
  0
BLOCK
  5
   338
  8
0
  6
CONTINUOUS
 62
     7
  2
*UDIM2004
 70
    65
 10
0.0
 20
0.0
 30
0.0
  3
*UDIM2004
  0
TEXT
  5
   339
  8
0
  6
CONTINUOUS
 62
     7
 10
-427.23420334921
 20
37.5556518066933
 30
0.0
 40
3.00000002980232
  1
142
 50
449.999999844103
 41
0.933333333333333
 72
     1
 11
-428.734203353524
 21
41.4556518495083
 31
0.0
 73
     2
  0
LINE
  5
   33A
  8
0
  6
CONTINUOUS
 62
     7
 10
-400.872589111328
 20
59.4806518554688
 30
0.0
 11
-428.234203338623
 21
59.4806518554688
 31
0.0
  0
LINE
  5
   33B
  8
0
  6
CONTINUOUS
 62
     7
 10
-400.872589111328
 20
23.9806518554688
 30
0.0
 11
-428.234203338623
 21
23.9806518554688
 31
0.0
  0
LINE
  5
   33C
  8
0
  6
CONTINUOUS
 62
     7
 10
-426.234203338623
 20
59.4806518554688
 30
0.0
 11
-426.234203338623
 21
23.9806518554688
 31
0.0
  0
LINE
  5
   33D
  8
0
  6
CONTINUOUS
 62
     7
 10
-425.713258908671
 20
56.5262285782618
 30
0.0
 11
-426.234203338623
 21
59.4806518554688
 31
0.0
  0
LINE
  5
   33E
  8
0
  6
CONTINUOUS
 62
     7
 10
-426.234203338623
 20
59.4806518554688
 30
0.0
 11
-426.755147768575
 21
56.5262285782618
 31
0.0
  0
LINE
  5
   33F
  8
0
  6
CONTINUOUS
 62
     7
 10
-426.755147768575
 20
26.9350751326757
 30
0.0
 11
-426.234203338623
 21
23.9806518554688
 31
0.0
  0
LINE
  5
   340
  8
0
  6
CONTINUOUS
 62
     7
 10
-426.234203338623
 20
23.9806518554688
 30
0.0
 11
-425.713258908671
 21
26.9350751326757
 31
0.0
  0
ENDBLK
  5
   341
  8
0
  6
CONTINUOUS
 62
     7
  0
BLOCK
  5
   342
  8
0
  6
CONTINUOUS
 62
     7
  2
*UDIM2005
 70
    65
 10
0.0
 20
0.0
 30
0.0
  3
*UDIM2005
  0
TEXT
  5
   343
  8
0
  6
CONTINUOUS
 62
     7
 10
-667.477468905579
 20
-72.3778610184269
 30
0.0
 40
3.00000002980232
  1
35
 50
359.999999896069
 41
0.933333333333333
 72
     1
 11
-664.977468878031
 21
-70.8778610080481
 31
0.0
 73
     2
  0
LINE
  5
   344
  8
0
  6
CONTINUOUS
 62
     7
 10
-655.95246887207
 20
-98.906868742336
 30
0.0
 11
-655.95246887207
 21
-71.3778610229492
 31
0.0
  0
LINE
  5
   345
  8
0
  6
CONTINUOUS
 62
     7
 10
-673.45246887207
 20
-77.1363139039036
 30
0.0
 11
-673.45246887207
 21
-71.3778610229492
 31
0.0
  0
LINE
  5
   346
  8
0
  6
CONTINUOUS
 62
     7
 10
-655.95246887207
 20
-73.3778610229492
 30
0.0
 11
-673.45246887207
 21
-73.3778610229492
 31
0.0
  0
LINE
  5
   347
  8
0
  6
CONTINUOUS
 62
     7
 10
-658.906892149277
 20
-73.8988054529009
 30
0.0
 11
-655.95246887207
 21
-73.3778610229492
 31
0.0
  0
LINE
  5
   348
  8
0
  6
CONTINUOUS
 62
     7
 10
-655.95246887207
 20
-73.3778610229492
 30
0.0
 11
-658.906892149277
 21
-72.8569165929976
 31
0.0
  0
LINE
  5
   349
  8
0
  6
CONTINUOUS
 62
     7
 10
-670.498045594863
 20
-72.8569165929976
 30
0.0
 11
-673.45246887207
 21
-73.3778610229492
 31
0.0
  0
LINE
  5
   34A
  8
0
  6
CONTINUOUS
 62
     7
 10
-673.45246887207
 20
-73.3778610229492
 30
0.0
 11
-670.498045594863
 21
-73.8988054529009
 31
0.0
  0
ENDBLK
  5
   34B
  8
0
  6
CONTINUOUS
 62
     7
  0
BLOCK
  5
   34C
  8
0
  6
CONTINUOUS
 62
     7
  2
*UDIM2006
 70
    65
 10
0.0
 20
0.0
 30
0.0
  3
*UDIM2006
  0
TEXT
  5
   34D
  8
0
  6
CONTINUOUS
 62
     7
 10
-684.977468905579
 20
-72.3778610184269
 30
0.0
 40
3.00000002980232
  1
35
 50
359.999999896069
 41
0.933333333333333
 72
     1
 11
-682.477468878031
 21
-70.8778610080481
 31
0.0
 73
     2
  0
LINE
  5
   34E
  8
0
  6
CONTINUOUS
 62
     7
 10
-690.952468156815
 20
-97.4812368799853
 30
0.0
 11
-690.952468156815
 21
-71.3778610229492
 31
0.0
  0
LINE
  5
   34F
  8
0
  6
CONTINUOUS
 62
     7
 10
-673.45246887207
 20
-73.3778610229492
 30
0.0
 11
-690.952468156815
 21
-73.3778610229492
 31
0.0
  0
LINE
  5
   350
  8
0
  6
CONTINUOUS
 62
     7
 10
-676.406892149277
 20
-73.8988054529009
 30
0.0
 11
-673.45246887207
 21
-73.3778610229492
 31
0.0
  0
LINE
  5
   351
  8
0
  6
CONTINUOUS
 62
     7
 10
-673.45246887207
 20
-73.3778610229492
 30
0.0
 11
-676.406892149277
 21
-72.8569165929976
 31
0.0
  0
LINE
  5
   352
  8
0
  6
CONTINUOUS
 62
     7
 10
-687.998044879608
 20
-72.8569165929976
 30
0.0
 11
-690.952468156815
 21
-73.3778610229492
 31
0.0
  0
LINE
  5
   353
  8
0
  6
CONTINUOUS
 62
     7
 10
-690.952468156815
 20
-73.3778610229492
 30
0.0
 11
-687.998044879608
 21
-73.8988054529009
 31
0.0
  0
ENDBLK
  5
   354
  8
0
  6
CONTINUOUS
 62
     7
  0
BLOCK
  5
   355
  8
0
  6
CONTINUOUS
 62
     7
  2
*UDIM2007
 70
    65
 10
0.0
 20
0.0
 30
0.0
  3
*UDIM2007
  0
TEXT
  5
   356
  8
0
  6
CONTINUOUS
 62
     7
 10
-702.477467607192
 20
-96.0312232925969
 30
0.0
 40
3.00000002980232
  1
12
 50
359.999999896069
 41
0.933333333333333
 72
     1
 11
-699.977467579643
 21
-94.531223282218
 31
0.0
 73
     2
  0
TEXT
  5
   357
  8
0
  6
CONTINUOUS
 62
     7
 10
-705.627467617126
 20
-96.0312232951294
 30
0.0
 40
3.00000002980232
  1
Ø
 50
359.999999896069
 41
0.933333333333334
 72
     1
 11
-704.527467603485
 21
-94.531223282218
 31
0.0
 73
     2
  0
LINE
  5
   358
  8
0
  6
CONTINUOUS
 62
     7
 10
-687.952467918396
 20
-103.042419433594
 30
0.0
 11
-687.952467918396
 21
-95.0312232971191
 31
0.0
  0
LINE
  5
   359
  8
0
  6
CONTINUOUS
 62
     7
 10
-693.952468395233
 20
-103.042419433594
 30
0.0
 11
-693.952468395233
 21
-95.0312232971191
 31
0.0
  0
LINE
  5
   35A
  8
0
  6
CONTINUOUS
 62
     7
 10
-687.952467918396
 20
-97.0312232971192
 30
0.0
 11
-705.627467614412
 21
-97.0312232971192
 31
0.0
  0
LINE
  5
   35B
  8
0
  6
CONTINUOUS
 62
     7
 10
-690.906891195603
 20
-97.5521677270708
 30
0.0
 11
-687.952467918396
 21
-97.0312232971192
 31
0.0
  0
LINE
  5
   35C
  8
0
  6
CONTINUOUS
 62
     7
 10
-687.952467918396
 20
-97.0312232971192
 30
0.0
 11
-690.906891195603
 21
-96.5102788671675
 31
0.0
  0
LINE
  5
   35D
  8
0
  6
CONTINUOUS
 62
     7
 10
-690.998045118026
 20
-96.5102788671675
 30
0.0
 11
-693.952468395233
 21
-97.0312232971192
 31
0.0
  0
LINE
  5
   35E
  8
0
  6
CONTINUOUS
 62
     7
 10
-693.952468395233
 20
-97.0312232971192
 30
0.0
 11
-690.998045118026
 21
-97.5521677270708
 31
0.0
  0
ENDBLK
  5
   35F
  8
0
  6
CONTINUOUS
 62
     7
  0
BLOCK
  5
   360
  8
0
  6
CONTINUOUS
 62
     7
  2
*UDIM2008
 70
    65
 10
0.0
 20
0.0
 30
0.0
  3
*UDIM2008
  0
TEXT
  5
   361
  8
0
  6
CONTINUOUS
 62
     7
 10
-630.912307748839
 20
-116.242419494916
 30
0.0
 40
3.00000002980232
  1
81,5
 50
449.999999896069
 41
0.933333333333333
 72
     1
 11
-632.412307754159
 21
-110.942419439554
 31
0.0
 73
     2
  0
LINE
  5
   362
  8
0
  6
CONTINUOUS
 62
     7
 10
-666.95246887207
 20
-90.2924194335938
 30
0.0
 11
-627.912307739258
 21
-90.2924194335938
 31
0.0
  0
LINE
  5
   363
  8
0
  6
CONTINUOUS
 62
     7
 10
-642.897925062195
 20
-131.042419433594
 30
0.0
 11
-627.912307739258
 21
-131.042419433594
 31
0.0
  0
LINE
  5
   364
  8
0
  6
CONTINUOUS
 62
     7
 10
-629.912307739258
 20
-90.2924194335938
 30
0.0
 11
-629.912307739258
 21
-131.042419433594
 31
0.0
  0
LINE
  5
   365
  8
0
  6
CONTINUOUS
 62
     7
 10
-629.391363309306
 20
-93.2468427108007
 30
0.0
 11
-629.912307739258
 21
-90.2924194335938
 31
0.0
  0
LINE
  5
   366
  8
0
  6
CONTINUOUS
 62
     7
 10
-629.912307739258
 20
-90.2924194335938
 30
0.0
 11
-630.43325216921
 21
-93.2468427108007
 31
0.0
  0
LINE
  5
   367
  8
0
  6
CONTINUOUS
 62
     7
 10
-630.43325216921
 20
-128.087996156387
 30
0.0
 11
-629.912307739258
 21
-131.042419433594
 31
0.0
  0
LINE
  5
   368
  8
0
  6
CONTINUOUS
 62
     7
 10
-629.912307739258
 20
-131.042419433594
 30
0.0
 11
-629.391363309306
 21
-128.087996156387
 31
0.0
  0
ENDBLK
  5
   369
  8
0
  6
CONTINUOUS
 62
     7
  0
BLOCK
  5
   36A
  8
0
  6
CONTINUOUS
 62
     7
  2
*UDIM2009
 70
    65
 10
0.0
 20
0.0
 30
0.0
  3
*UDIM2009
  0
TEXT
  5
   36B
  8
0
  6
CONTINUOUS
 62
     7
 10
-638.147251138731
 20
-127.492419494916
 30
0.0
 40
3.00000002980232
  1
36,5
 50
449.999999896069
 41
0.933333333333333
 72
     1
 11
-639.647251144052
 21
-122.192419439554
 31
0.0
 73
     2
  0
LINE
  5
   36C
  8
0
  6
CONTINUOUS
 62
     7
 10
-649.45246887207
 20
-112.792419433594
 30
0.0
 11
-635.14725112915
 21
-112.792419433594
 31
0.0
  0
LINE
  5
   36D
  8
0
  6
CONTINUOUS
 62
     7
 10
-642.897925062195
 20
-131.042419433594
 30
0.0
 11
-635.14725112915
 21
-131.042419433594
 31
0.0
  0
LINE
  5
   36E
  8
0
  6
CONTINUOUS
 62
     7
 10
-637.14725112915
 20
-112.792419433594
 30
0.0
 11
-637.14725112915
 21
-131.042419433594
 31
0.0
  0
LINE
  5
   36F
  8
0
  6
CONTINUOUS
 62
     7
 10
-636.626306699199
 20
-115.746842710801
 30
0.0
 11
-637.14725112915
 21
-112.792419433594
 31
0.0
  0
LINE
  5
   370
  8
0
  6
CONTINUOUS
 62
     7
 10
-637.14725112915
 20
-112.792419433594
 30
0.0
 11
-637.668195559102
 21
-115.746842710801
 31
0.0
  0
LINE
  5
   371
  8
0
  6
CONTINUOUS
 62
     7
 10
-637.668195559102
 20
-128.087996156387
 30
0.0
 11
-637.14725112915
 21
-131.042419433594
 31
0.0
  0
LINE
  5
   372
  8
0
  6
CONTINUOUS
 62
     7
 10
-637.14725112915
 20
-131.042419433594
 30
0.0
 11
-636.626306699199
 21
-128.087996156387
 31
0.0
  0
ENDBLK
  5
   373
  8
0
  6
CONTINUOUS
 62
     7
  0
BLOCK
  5
   374
  8
0
  6
CONTINUOUS
 62
     7
  2
*UDIM2010
 70
    65
 10
0.0
 20
0.0
 30
0.0
  3
*UDIM2010
  0
TEXT
  5
   375
  8
0
  6
CONTINUOUS
 62
     7
 10
-711.401046757449
 20
-120.067419467101
 30
0.0
 40
3.00000002980232
  1
55
 50
449.999999896069
 41
0.933333333333333
 72
     1
 11
-712.901046767831
 21
-117.567419439554
 31
0.0
 73
     2
  0
LINE
  5
   376
  8
0
  6
CONTINUOUS
 62
     7
 10
-694.452468395233
 20
-103.542419433594
 30
0.0
 11
-712.40104675293
 21
-103.542419433594
 31
0.0
  0
LINE
  5
   377
  8
0
  6
CONTINUOUS
 62
     7
 10
-704.322478436757
 20
-131.042419433594
 30
0.0
 11
-712.40104675293
 21
-131.042419433594
 31
0.0
  0
LINE
  5
   378
  8
0
  6
CONTINUOUS
 62
     7
 10
-710.40104675293
 20
-103.542419433594
 30
0.0
 11
-710.40104675293
 21
-131.042419433594
 31
0.0
  0
LINE
  5
   379
  8
0
  6
CONTINUOUS
 62
     7
 10
-709.880102322978
 20
-106.496842710801
 30
0.0
 11
-710.40104675293
 21
-103.542419433594
 31
0.0
  0
LINE
  5
   37A
  8
0
  6
CONTINUOUS
 62
     7
 10
-710.40104675293
 20
-103.542419433594
 30
0.0
 11
-710.921991182881
 21
-106.496842710801
 31
0.0
  0
LINE
  5
   37B
  8
0
  6
CONTINUOUS
 62
     7
 10
-710.921991182881
 20
-128.087996156387
 30
0.0
 11
-710.40104675293
 21
-131.042419433594
 31
0.0
  0
LINE
  5
   37C
  8
0
  6
CONTINUOUS
 62
     7
 10
-710.40104675293
 20
-131.042419433594
 30
0.0
 11
-709.880102322978
 21
-128.087996156387
 31
0.0
  0
ENDBLK
  5
   37D
  8
0
  6
CONTINUOUS
 62
     7
  0
BLOCK
  5
   37E
  8
0
  6
CONTINUOUS
 62
     7
  2
*UDIM2011
 70
    65
 10
0.0
 20
0.0
 30
0.0
  3
*UDIM2011
  0
TEXT
  5
   37F
  8
0
  6
CONTINUOUS
 62
     7
 10
-719.69108582248
 20
-110.217419481009
 30
0.0
 40
3.00000002980232
  1
100
 50
449.999999896069
 41
0.933333333333333
 72
     1
 11
-721.191085830331
 21
-106.317419439554
 31
0.0
 73
     2
  0
LINE
  5
   380
  8
0
  6
CONTINUOUS
 62
     7
 10
-676.95246887207
 20
-81.0424194335937
 30
0.0
 11
-720.69108581543
 21
-81.0424194335937
 31
0.0
  0
LINE
  5
   381
  8
0
  6
CONTINUOUS
 62
     7
 10
-704.322478436757
 20
-131.042419433594
 30
0.0
 11
-720.69108581543
 21
-131.042419433594
 31
0.0
  0
LINE
  5
   382
  8
0
  6
CONTINUOUS
 62
     7
 10
-718.69108581543
 20
-81.0424194335937
 30
0.0
 11
-718.69108581543
 21
-131.042419433594
 31
0.0
  0
LINE
  5
   383
  8
0
  6
CONTINUOUS
 62
     7
 10
-718.170141385478
 20
-83.9968427108007
 30
0.0
 11
-718.69108581543
 21
-81.0424194335937
 31
0.0
  0
LINE
  5
   384
  8
0
  6
CONTINUOUS
 62
     7
 10
-718.69108581543
 20
-81.0424194335937
 30
0.0
 11
-719.212030245381
 21
-83.9968427108007
 31
0.0
  0
LINE
  5
   385
  8
0
  6
CONTINUOUS
 62
     7
 10
-719.212030245381
 20
-128.087996156387
 30
0.0
 11
-718.69108581543
 21
-131.042419433594
 31
0.0
  0
LINE
  5
   386
  8
0
  6
CONTINUOUS
 62
     7
 10
-718.69108581543
 20
-131.042419433594
 30
0.0
 11
-718.170141385478
 21
-128.087996156387
 31
0.0
  0
ENDBLK
  5
   387
  8
0
  6
CONTINUOUS
 62
     7
  0
ENDSEC
  0
SECTION
  2
ENTITIES
  0
LINE
  5
   388
  8
0
  6
DASHDOT
 62
     3
 10
-580.3349609375
 20
-59.4257327238048
 30
0.0
 11
-580.3349609375
 21
-126.77213754961
 31
0.0
  0
LINE
  5
   389
  8
0
  6
DASHDOT
 62
     3
 10
-568.39242334378
 20
-66.2403793334961
 30
0.0
 11
-592.686629339936
 21
-66.2403793334961
 31
0.0
  0
LINE
  5
   38A
  8
0
  6
DASHDOT
 62
     3
 10
-574.120240855112
 20
-119.740379333496
 30
0.0
 11
-582.833458557296
 21
-119.740379333496
 31
0.0
  0
CIRCLE
  5
   38B
  8
0
  6
CONTINUOUS
 62
     7
 10
-584.7099609375
 20
-66.2403793334961
 30
0.0
 40
0.6875
  0
CIRCLE
  5
   38C
  8
0
  6
CONTINUOUS
 62
     7
 10
-575.9599609375
 20
-66.2403793334961
 30
0.0
 40
0.6875
  0
CIRCLE
  5
   38D
  8
0
  6
CONTINUOUS
 62
     7
 10
-584.7099609375
 20
-119.740379333496
 30
0.0
 40
0.6875
  0
CIRCLE
  5
   38E
  8
0
  6
CONTINUOUS
 62
     7
 10
-575.9599609375
 20
-119.740379333496
 30
0.0
 40
0.6875
  0
LINE
  5
   38F
  8
0
  6
DASHDOT
 62
     3
 10
-584.7099609375
 20
-59.4257327238048
 30
0.0
 11
-584.7099609375
 21
-122.841903182311
 31
0.0
  0
LINE
  5
   390
  8
0
  6
DASHDOT
 62
     3
 10
-575.9599609375
 20
-59.4257327238048
 30
0.0
 11
-575.9599609375
 21
-122.56944199065
 31
0.0
  0
LINE
  5
   391
  8
0
  6
DASHDOT
 62
     3
 10
-551.48555152845
 20
-92.5528793334961
 30
0.0
 11
-607.802000753323
 21
-92.5528793334961
 31
0.0
  0
LINE
  5
   392
  8
0
  6
DASHDOT
 62
     7
 10
-589.0849609375
 20
-62.9903793334961
 30
0.0
 11
-589.0849609375
 21
-68.4903793334961
 31
0.0
  0
LINE
  5
   393
  8
0
  6
DASHDOT
 62
     7
 10
-586.3349609375
 20
-65.7403793334961
 30
0.0
 11
-591.8349609375
 21
-65.7403793334961
 31
0.0
  0
LINE
  5
   394
  8
0
  6
DASHDOT
 62
     7
 10
-580.3349609375
 20
-62.9903793334961
 30
0.0
 11
-580.3349609375
 21
-68.4903793334961
 31
0.0
  0
LINE
  5
   395
  8
0
  6
DASHDOT
 62
     7
 10
-577.5849609375
 20
-65.7403793334961
 30
0.0
 11
-583.0849609375
 21
-65.7403793334961
 31
0.0
  0
LINE
  5
   396
  8
0
  6
DASHDOT
 62
     7
 10
-571.5849609375
 20
-62.9903793334961
 30
0.0
 11
-571.5849609375
 21
-68.4903793334961
 31
0.0
  0
LINE
  5
   397
  8
0
  6
DASHDOT
 62
     7
 10
-555.68782980722
 20
-65.7403793334961
 30
0.0
 11
-574.3349609375
 21
-65.7403793334961
 31
0.0
  0
LINE
  5
   398
  8
0
  6
DASHDOT
 62
     7
 10
-571.5849609375
 20
-117.490379333496
 30
0.0
 11
-571.5849609375
 21
-122.990379333496
 31
0.0
  0
LINE
  5
   399
  8
0
  6
DASHDOT
 62
     7
 10
-551.055841055212
 20
-120.240379333496
 30
0.0
 11
-574.3349609375
 21
-120.240379333496
 31
0.0
  0
LINE
  5
   39A
  8
0
  6
DASHDOT
 62
     7
 10
-580.3349609375
 20
-117.490379333496
 30
0.0
 11
-580.3349609375
 21
-122.990379333496
 31
0.0
  0
LINE
  5
   39B
  8
0
  6
DASHDOT
 62
     7
 10
-577.5849609375
 20
-120.240379333496
 30
0.0
 11
-583.0849609375
 21
-120.240379333496
 31
0.0
  0
LINE
  5
   39C
  8
0
  6
DASHDOT
 62
     7
 10
-589.0849609375
 20
-117.490379333496
 30
0.0
 11
-589.0849609375
 21
-122.990379333496
 31
0.0
  0
LINE
  5
   39D
  8
0
  6
DASHDOT
 62
     7
 10
-586.3349609375
 20
-120.240379333496
 30
0.0
 11
-591.8349609375
 21
-120.240379333496
 31
0.0
  0
LINE
  5
   39E
  8
0
  6
CONTINUOUS
 62
     7
 10
-563.749202824736
 20
-61.5483655336986
 30
0.0
 11
-596.942262419964
 21
-61.5483655336986
 31
0.0
  0
LINE
  5
   39F
  8
0
  6
CONTINUOUS
 62
     7
 10
-563.749202824736
 20
-126.830280120683
 30
0.0
 11
-596.942262419964
 21
-126.830280120683
 31
0.0
  0
LINE
  5
   3A0
  8
0
  6
CONTINUOUS
 62
     7
 10
-563.749202824736
 20
-61.5483655336986
 30
0.0
 11
-563.749202824736
 21
-126.830280120683
 31
0.0
  0
LINE
  5
   3A1
  8
0
  6
CONTINUOUS
 62
     7
 10
-596.942262419964
 20
-61.5483655336986
 30
0.0
 11
-596.942262419964
 21
-126.830280120683
 31
0.0
  0
CIRCLE
  5
   3A2
  8
0
  6
CONTINUOUS
 62
     7
 10
-567.86487452858
 20
-109.648187275775
 30
0.0
 40
0.15
  0
CIRCLE
  5
   3A3
  8
0
  6
CONTINUOUS
 62
     7
 10
-567.86487452858
 20
-109.648187275775
 30
0.0
 40
0.15
  0
CIRCLE
  5
   3A4
  8
0
  6
CONTINUOUS
 62
     7
 10
-571.5849609375
 20
-65.7403793334961
 30
0.0
 40
3.0
  0
CIRCLE
  5
   3A5
  8
0
  6
CONTINUOUS
 62
     7
 10
-580.3349609375
 20
-65.7403793334961
 30
0.0
 40
3.0
  0
CIRCLE
  5
   3A6
  8
0
  6
CONTINUOUS
 62
     7
 10
-571.5849609375
 20
-120.240379333496
 30
0.0
 40
3.0
  0
CIRCLE
  5
   3A7
  8
0
  6
CONTINUOUS
 62
     7
 10
-580.3349609375
 20
-120.240379333496
 30
0.0
 40
3.0
  0
CIRCLE
  5
   3A8
  8
0
  6
CONTINUOUS
 62
     7
 10
-589.0849609375
 20
-120.240379333496
 30
0.0
 40
3.0
  0
CIRCLE
  5
   3A9
  8
0
  6
CONTINUOUS
 62
     7
 10
-589.0849609375
 20
-65.7403793334961
 30
0.0
 40
3.0
  0
INSERT
  5
   3AA
  8
0
  6
CONTINUOUS
 62
     7
  2
*UDIM1970
 10
0.0
 20
0.0
 30
0.0
  0
INSERT
  5
   3AB
  8
0
  6
CONTINUOUS
 62
     7
  2
*UDIM1971
 10
0.0
 20
0.0
 30
0.0
  0
INSERT
  5
   3AC
  8
0
  6
CONTINUOUS
 62
     7
  2
*UDIM1972
 10
0.0
 20
0.0
 30
0.0
  0
TEXT
  5
   3AD
  8
0
  6
CONTINUOUS
 62
     7
 10
-581.449937227102
 20
-133.912490872539
 30
0.0
 40
3.00000002980232
  1
Y
 50
359.999999896069
 41
0.916666604744064
 72
     2
 11
-579.249937358232
 21
-133.912490876519
 31
0.0
  0
TEXT
  5
   3AE
  8
0
  6
CONTINUOUS
 62
     7
 10
-581.148790541024
 20
-48.3199043552051
 30
0.0
 40
3.00000002980232
  1
Y
 50
359.999999896069
 41
0.916666604744064
 72
     2
 11
-578.948790672155
 21
-48.3199043591847
 31
0.0
  0
INSERT
  5
   3AF
  8
0
  6
CONTINUOUS
 62
     7
  2
*UDIM1973
 10
0.0
 20
0.0
 30
0.0
  0
INSERT
  5
   3B0
  8
0
  6
CONTINUOUS
 62
     7
  2
*UDIM1974
 10
0.0
 20
0.0
 30
0.0
  0
INSERT
  5
   3B1
  8
0
  6
CONTINUOUS
 62
     7
  2
*UDIM1975
 10
0.0
 20
0.0
 30
0.0
  0
INSERT
  5
   3B2
  8
0
  6
CONTINUOUS
 62
     5
  2
*UDIM1976
 10
0.0
 20
0.0
 30
0.0
  0
TEXT
  5
   3B3
  8
0
  6
CONTINUOUS
 62
     7
 10
-571.468101504178
 20
-91.5004043857227
 30
0.0
 40
3.00000002980232
  1
=
 50
359.999999896069
 41
0.916666604744064
 72
     2
 11
-569.268101635308
 21
-91.5004043897023
 31
0.0
  0
TEXT
  5
   3B4
  8
0
  6
CONTINUOUS
 62
     7
 10
-588.364604952665
 20
-91.5004043857227
 30
0.0
 40
3.00000002980232
  1
=
 50
359.999999896069
 41
0.916666604744064
 72
     2
 11
-586.164605083795
 21
-91.5004043897023
 31
0.0
  0
INSERT
  5
   3B5
  8
0
  6
CONTINUOUS
 62
     7
  2
*UDIM1977
 10
0.0
 20
0.0
 30
0.0
  0
INSERT
  5
   3B6
  8
0
  6
CONTINUOUS
 62
     7
  2
*UDIM1978
 10
0.0
 20
0.0
 30
0.0
  0
TEXT
  5
   3B7
  8
0
  6
CONTINUOUS
 62
     7
 10
-618.557903292508
 20
-93.525371102489
 30
0.0
 40
3.00000002980232
  1
X
 50
359.999999896069
 41
0.916666604744064
 72
     2
 11
-616.357903423639
 21
-93.5253711064686
 31
0.0
  0
TEXT
  5
   3B8
  8
0
  6
CONTINUOUS
 62
     7
 10
-546.342426302762
 20
-93.6257534305225
 30
0.0
 40
3.00000002980232
  1
X
 50
359.999999896069
 41
0.916666604744064
 72
     2
 11
-544.142426433892
 21
-93.6257534345021
 31
0.0
  0
LINE
  5
   3B9
  8
0
  6
CONTINUOUS
 62
     7
 10
-536.711868286133
 20
31.2821350097656
 30
0.0
 11
-536.711868286133
 21
31.5321197509766
 31
0.0
  0
LINE
  5
   3BA
  8
0
  6
CONTINUOUS
 62
     7
 10
-536.711868286133
 20
39.0321197509766
 30
0.0
 11
-536.711868286133
 21
49.0321044921875
 31
0.0
  0
LINE
  5
   3BB
  8
0
  6
CONTINUOUS
 62
     7
 10
-535.461853027344
 20
31.5321197509766
 30
0.0
 11
-535.461853027344
 21
39.0321197509766
 31
0.0
  0
LINE
  5
   3BC
  8
0
  6
CONTINUOUS
 62
     7
 10
-535.461853027344
 20
31.5321197509766
 30
0.0
 11
-536.711868286133
 21
31.5321197509766
 31
0.0
  0
LINE
  5
   3BD
  8
0
  6
CONTINUOUS
 62
     7
 10
-535.461853027344
 20
39.0321197509766
 30
0.0
 11
-536.711868286133
 21
39.0321197509766
 31
0.0
  0
LINE
  5
   3BE
  8
0
  6
CONTINUOUS
 62
     7
 10
-535.461853027344
 20
49.0321044921875
 30
0.0
 11
-535.461853027344
 21
56.5321044921875
 31
0.0
  0
LINE
  5
   3BF
  8
0
  6
CONTINUOUS
 62
     7
 10
-535.461853027344
 20
49.0321044921875
 30
0.0
 11
-536.711868286133
 21
49.0321044921875
 31
0.0
  0
LINE
  5
   3C0
  8
0
  6
CONTINUOUS
 62
     7
 10
-535.461853027344
 20
56.5321044921875
 30
0.0
 11
-536.711868286133
 21
56.5321044921875
 31
0.0
  0
LINE
  5
   3C1
  8
0
  6
CONTINUOUS
 62
     7
 10
-502.461875915527
 20
31.2821197509766
 30
0.0
 11
-502.461875915527
 21
58.7821044921875
 31
0.0
  0
LINE
  5
   3C2
  8
0
  6
CONTINUOUS
 62
     2
 10
-536.711898803943
 20
58.5321044921875
 30
0.0
 11
-536.711898803943
 21
67.0321529606158
 31
0.0
  0
LINE
  5
   3C3
  8
0
  6
CONTINUOUS
 62
     7
 10
-500.711868286133
 20
67.5321044921875
 30
0.0
 11
-502.461868286133
 21
67.5321044921875
 31
0.0
  0
LINE
  5
   3C4
  8
0
  6
CONTINUOUS
 62
     7
 10
-502.46192169225
 20
58.7821001325808
 30
0.0
 11
-502.46192169225
 21
67.5321001325808
 31
0.0
  0
LINE
  5
   3C5
  8
0
  6
CONTINUOUS
 62
     7
 10
-534.711868286133
 20
59.7821044921875
 30
0.0
 11
-536.711868286133
 21
59.7821044921875
 31
0.0
  0
LINE
  5
   3C6
  8
0
  6
CONTINUOUS
 62
     7
 10
-534.71186701475
 20
59.7820981439511
 30
0.0
 11
-534.711864460383
 21
60.7865164361561
 31
0.0
  0
LINE
  5
   3C7
  8
0
  6
CONTINUOUS
 62
     7
 10
-502.461875915527
 20
26.5321273803711
 30
0.0
 11
-502.461875915527
 21
31.2821350097656
 31
0.0
  0
LINE
  5
   3C8
  8
0
  6
CONTINUOUS
 62
     7
 10
-536.711863186472
 20
-3.96785990100434
 30
0.0
 11
-536.711847927683
 21
-3.82074234583573
 31
0.0
  0
LINE
  5
   3C9
  8
0
  6
CONTINUOUS
 62
     7
 10
-536.711853027483
 20
3.88502075952943
 30
0.0
 11
-536.711853027483
 21
31.282130744881
 31
0.0
  0
LINE
  5
   3CA
  8
0
  6
CONTINUOUS
 62
     7
 10
-501.211868286133
 20
2.78213500976563
 30
0.0
 11
-535.211885070802
 21
2.78213500976563
 31
0.0
  0
LINE
  5
   3CB
  8
0
  6
CONTINUOUS
 62
     7
 10
-501.211868286133
 20
-2.71786499023438
 30
0.0
 11
-535.211885070802
 21
-2.71786499023438
 31
0.0
  0
LINE
  5
   3CC
  8
0
  6
CONTINUOUS
 62
     7
 10
-532.595838788008
 20
2.782140094377
 30
0.0
 11
-536.711851185013
 21
3.88502580744542
 31
0.0
  0
LINE
  5
   3CD
  8
0
  6
CONTINUOUS
 62
     7
 10
-536.711848878022
 20
-3.82074662027074
 30
0.0
 11
-532.595836386244
 21
-2.71786445587457
 31
0.0
  0
LINE
  5
   3CE
  8
0
  6
CONTINUOUS
 62
     7
 10
-500.711875915527
 20
4.28213500976563
 30
0.0
 11
-504.711875915527
 21
4.28213500976563
 31
0.0
  0
LINE
  5
   3CF
  8
0
  6
CONTINUOUS
 62
     7
 10
-504.711875915527
 20
4.28213500976563
 30
0.0
 11
-504.711875915527
 21
25.5321273803711
 31
0.0
  0
LINE
  5
   3D0
  8
0
  6
CONTINUOUS
 62
     7
 10
-536.211853027344
 20
0.282135009765625
 30
0.0
 11
-536.211853027344
 21
3.75104522705078
 31
0.0
  0
LINE
  5
   3D1
  8
0
  6
CONTINUOUS
 62
     7
 10
-536.211860069844
 20
-3.68677023685369
 30
0.0
 11
-536.211852440456
 21
-3.21786001778077
 31
0.0
  0
LINE
  5
   3D2
  8
0
  6
CONTINUOUS
 62
     2
 10
-536.711853027344
 20
4.28213500976563
 30
0.0
 11
-537.711853027344
 21
4.28213500976563
 31
0.0
  0
LINE
  5
   3D3
  8
0
  6
CONTINUOUS
 62
     2
 10
-536.711853027344
 20
7.03213500976563
 30
0.0
 11
-537.711853027344
 21
7.03213500976563
 31
0.0
  0
LINE
  5
   3D4
  8
0
  6
CONTINUOUS
 62
     7
 10
-500.711886720526
 20
-3.21784547713771
 30
0.0
 11
-501.211879074834
 21
-2.71785312283016
 31
0.0
  0
LINE
  5
   3D5
  8
0
  6
CONTINUOUS
 62
     7
 10
-501.211874604395
 20
2.78213571074394
 30
0.0
 11
-500.71187462151
 21
3.28213569362964
 31
0.0
  0
LINE
  5
   3D6
  8
0
  6
CONTINUOUS
 62
     7
 10
-502.461875915527
 20
25.5321273803711
 30
0.0
 11
-502.461875915527
 21
26.5321273803711
 31
0.0
  0
LINE
  5
   3D7
  8
0
  6
CONTINUOUS
 62
     2
 10
-535.711853027344
 20
-12.9678497314447
 30
0.0
 11
-537.711853027344
 21
-12.9678497314447
 31
0.0
  0
LINE
  5
   3D8
  8
0
  6
CONTINUOUS
 62
     7
 10
-536.711868286133
 20
-5.96786499023438
 30
0.0
 11
-536.711868286133
 21
-3.96786499023438
 31
0.0
  0
LINE
  5
   3D9
  8
0
  6
CONTINUOUS
 62
     7
 10
-500.711875915527
 20
-10.4678497314453
 30
0.0
 11
-505.711868286133
 21
-10.4678497314453
 31
0.0
  0
LINE
  5
   3DA
  8
0
  6
CONTINUOUS
 62
     7
 10
-505.711868286133
 20
-12.9678497314453
 30
0.0
 11
-505.711868286133
 21
-10.4678497314453
 31
0.0
  0
LINE
  5
   3DB
  8
0
  6
CONTINUOUS
 62
     7
 10
-536.711868286133
 20
-11.717840271014
 30
0.0
 11
-536.711868286133
 21
-5.96786499023438
 31
0.0
  0
LINE
  5
   3DC
  8
0
  6
CONTINUOUS
 62
     2
 10
-536.711868286133
 20
58.5321044921875
 30
0.0
 11
-536.961853027344
 21
58.5321044921875
 31
0.0
  0
LINE
  5
   3DD
  8
0
  6
CONTINUOUS
 62
     7
 10
-536.711860656738
 20
23.2821350097656
 30
0.0
 11
-536.961853027344
 21
23.2821350097656
 31
0.0
  0
LINE
  5
   3DE
  8
0
  6
CONTINUOUS
 62
     7
 10
-536.711853027344
 20
7.28213691711426
 30
0.0
 11
-536.961853027344
 21
7.28213691711426
 31
0.0
  0
LINE
  5
   3DF
  8
0
  6
CONTINUOUS
 62
     7
 10
-536.211853027344
 20
3.53213548660278
 30
0.0
 11
-536.961853027344
 21
3.53213548660278
 31
0.0
  0
LINE
  5
   3E0
  8
0
  6
CONTINUOUS
 62
     7
 10
-536.711868286133
 20
-4.46785736083984
 30
0.0
 11
-536.961853027344
 21
-4.46785736083984
 31
0.0
  0
LINE
  5
   3E1
  8
0
  6
CONTINUOUS
 62
     2
 10
-536.961853027344
 20
-11.2678449559891
 30
0.0
 11
-536.961853027344
 21
4.28212738037109
 31
0.0
  0
LINE
  5
   3E2
  8
0
  6
CONTINUOUS
 62
     2
 10
-536.961853027344
 20
7.03212738037109
 30
0.0
 11
-536.961853027344
 21
58.532096862793
 31
0.0
  0
LINE
  5
   3E3
  8
0
  6
CONTINUOUS
 62
     7
 10
-536.211853027344
 20
49.0321273803711
 30
0.0
 11
-536.211853027344
 21
56.5321044921875
 31
0.0
  0
LINE
  5
   3E4
  8
0
  6
CONTINUOUS
 62
     7
 10
-536.211853027344
 20
31.5321502685547
 30
0.0
 11
-536.211853027344
 21
39.0321426391602
 31
0.0
  0
LINE
  5
   3E5
  8
0
  6
CONTINUOUS
 62
     7
 10
-536.211853027344
 20
-3.21782684326172
 30
0.0
 11
-536.211853027344
 21
0.282173156738281
 31
0.0
  0
LINE
  5
   3E6
  8
0
  6
CONTINUOUS
 62
     2
 10
-536.76185693186
 20
-11.467841051473
 30
0.0
 11
-536.961853877797
 21
-11.2678441055361
 31
0.0
  0
LINE
  5
   3E7
  8
0
  6
CONTINUOUS
 62
     2
 10
-536.711853027344
 20
66.5321044921875
 30
0.0
 11
-537.711853027344
 21
66.5321044921875
 31
0.0
  0
LINE
  5
   3E8
  8
0
  6
CONTINUOUS
 62
     7
 10
-502.211883544923
 20
32.7821024035454
 30
0.0
 11
-502.211883544923
 21
60.032125291729
 31
0.0
  0
LINE
  5
   3E9
  8
0
  6
CONTINUOUS
 62
     7
 10
-488.211906433111
 20
68.0321190389122
 30
0.0
 11
-488.211906433111
 21
80.0321190389123
 31
0.0
  0
LINE
  5
   3EA
  8
0
  6
CONTINUOUS
 62
     7
 10
-488.211868286133
 20
68.0321215820136
 30
0.0
 11
-488.461868286133
 21
68.0321215820136
 31
0.0
  0
LINE
  5
   3EB
  8
0
  6
CONTINUOUS
 62
     7
 10
-488.461868286133
 20
67.7821215820136
 30
0.0
 11
-488.461868286133
 21
68.0321215820136
 31
0.0
  0
LINE
  5
   3EC
  8
0
  6
CONTINUOUS
 62
     7
 10
-500.711868286133
 20
67.2821139526191
 30
0.0
 11
-500.711868286133
 21
67.7821215820136
 31
0.0
  0
LINE
  5
   3ED
  8
0
  6
CONTINUOUS
 62
     7
 10
-488.211864471441
 20
80.0321368407945
 30
0.0
 11
-500.711864471441
 21
80.0321368407945
 31
0.0
  0
LINE
  5
   3EE
  8
0
  6
CONTINUOUS
 62
     7
 10
-489.461868286133
 20
67.7821215820136
 30
0.0
 11
-489.611869812012
 21
67.7821215820136
 31
0.0
  0
LINE
  5
   3EF
  8
0
  6
CONTINUOUS
 62
     7
 10
-500.711868286133
 20
67.2821292114081
 30
0.0
 11
-502.211868286133
 21
67.2821292114081
 31
0.0
  0
LINE
  5
   3F0
  8
0
  6
CONTINUOUS
 62
     7
 10
-502.211868286133
 20
60.0321292114081
 30
0.0
 11
-502.211868286133
 21
67.2821292114081
 31
0.0
  0
LINE
  5
   3F1
  8
0
  6
CONTINUOUS
 62
     7
 10
-500.711891174316
 20
-9.96786315919734
 30
0.0
 11
-500.711891174316
 21
-6.32955749513484
 31
0.0
  0
LINE
  5
   3F2
  8
0
  6
CONTINUOUS
 62
     7
 10
-502.211875915527
 20
26.7821215820136
 30
0.0
 11
-502.211875915527
 21
32.7821063232245
 31
0.0
  0
LINE
  5
   3F3
  8
0
  6
CONTINUOUS
 62
     7
 10
-502.211875915527
 20
25.5321063232245
 30
0.0
 11
-502.711875915527
 21
25.5321063232245
 31
0.0
  0
LINE
  5
   3F4
  8
0
  6
CONTINUOUS
 62
     7
 10
-489.611885448819
 20
-11.4678479003976
 30
0.0
 11
-500.711891552335
 21
-11.4678479003976
 31
0.0
  0
LINE
  5
   3F5
  8
0
  6
CONTINUOUS
 62
     7
 10
-500.711891174316
 20
-11.4678631591973
 30
0.0
 11
-500.711891174316
 21
-9.96786315919734
 31
0.0
  0
LINE
  5
   3F6
  8
0
  6
CONTINUOUS
 62
     7
 10
-500.711883544922
 20
-6.32955749513484
 30
0.0
 11
-500.711883544922
 21
-2.8428585540556
 31
0.0
  0
LINE
  5
   3F7
  8
0
  6
CONTINUOUS
 62
     7
 10
-489.461891174316
 20
-12.9678707885919
 30
0.0
 11
-489.461891174316
 21
-11.4678707885919
 31
0.0
  0
LINE
  5
   3F8
  8
0
  6
CONTINUOUS
 62
     7
 10
-489.461891174316
 20
-11.4678707885919
 30
0.0
 11
-489.611885040999
 21
-11.4678707885919
 31
0.0
  0
LINE
  5
   3F9
  8
0
  6
CONTINUOUS
 62
     7
 10
-502.711875915527
 20
25.5321063232245
 30
0.0
 11
-504.711875915527
 21
25.5321063232245
 31
0.0
  0
LINE
  5
   3FA
  8
0
  6
CONTINUOUS
 62
     7
 10
-502.211875915527
 20
25.5321063232245
 30
0.0
 11
-502.211875915527
 21
26.7821215820136
 31
0.0
  0
LINE
  5
   3FB
  8
0
  6
CONTINUOUS
 62
     7
 10
-489.611887149978
 20
-2.84284790039968
 30
0.0
 11
-500.711885624099
 21
-2.84284790039968
 31
0.0
  0
LINE
  5
   3FC
  8
0
  6
CONTINUOUS
 62
     7
 10
-489.611890827209
 20
2.90715209959895
 30
0.0
 11
-500.71188930133
 21
2.90715209959895
 31
0.0
  0
LINE
  5
   3FD
  8
0
  6
CONTINUOUS
 62
     7
 10
-500.062370821261
 20
-9.59285460086782
 30
0.0
 11
-499.961891711026
 21
-9.21785460604487
 31
0.0
  0
LINE
  5
   3FE
  8
0
  6
CONTINUOUS
 62
     7
 10
-500.336886503376
 20
-9.86737913359727
 30
0.0
 11
-500.062373276876
 21
-9.5928582708782
 31
0.0
  0
LINE
  5
   3FF
  8
0
  6
CONTINUOUS
 62
     7
 10
-500.711899817015
 20
-9.96785144135737
 30
0.0
 11
-500.336892202742
 21
-9.86737232347597
 31
0.0
  0
LINE
  5
   400
  8
0
  6
CONTINUOUS
 62
     7
 10
-500.336888024858
 20
-4.06834119695034
 30
0.0
 11
-500.711888022109
 21
-3.96785445042308
 31
0.0
  0
LINE
  5
   401
  8
0
  6
CONTINUOUS
 62
     7
 10
-500.062375434517
 20
-4.3428586256594
 30
0.0
 11
-500.336888664837
 21
-4.06834539533936
 31
0.0
  0
LINE
  5
   402
  8
0
  6
CONTINUOUS
 62
     7
 10
-499.961896900948
 20
-4.71785793049325
 30
0.0
 11
-500.062383647475
 21
-4.34285793324285
 31
0.0
  0
LINE
  5
   403
  8
0
  6
CONTINUOUS
 62
     7
 10
-499.961895412852
 20
-9.21786019087982
 30
0.0
 11
-499.961887783458
 21
-4.71786019087982
 31
0.0
  0
LINE
  5
   404
  8
0
  6
CONTINUOUS
 62
     7
 10
-489.611885070802
 20
-11.4678707885919
 30
0.0
 11
-489.611885070802
 21
67.782115325621
 31
0.0
  0
LINE
  5
   405
  8
0
  6
CONTINUOUS
 62
     7
 10
-489.611862182617
 20
78.6321276855292
 30
0.0
 11
-500.420591036201
 21
78.6321276855292
 31
0.0
  0
LINE
  5
   406
  8
0
  6
CONTINUOUS
 62
     7
 10
-489.611915588386
 20
67.7821181365306
 30
0.0
 11
-489.611915588386
 21
78.6321242400462
 31
0.0
  0
LINE
  5
   407
  8
0
  6
CONTINUOUS
 62
     7
 10
-500.711868286133
 20
67.7821292114081
 30
0.0
 11
-500.711868286133
 21
77.9894385276148
 31
0.0
  0
LINE
  5
   408
  8
0
  6
CONTINUOUS
 62
     7
 10
-481.461860656738
 20
-8.84284027101375
 30
0.0
 11
-481.461860656738
 21
0.407142639160156
 31
0.0
  0
LINE
  5
   409
  8
0
  6
CONTINUOUS
 62
     7
 10
-481.461860656738
 20
42.5321444701972
 30
0.0
 11
-481.461860656738
 21
42.6571444701972
 31
0.0
  0
LINE
  5
   40A
  8
0
  6
CONTINUOUS
 62
     7
 10
-484.211857795715
 20
43.6571444701972
 30
0.0
 11
-485.961860656738
 21
43.6571444701972
 31
0.0
  0
LINE
  5
   40B
  8
0
  6
CONTINUOUS
 62
     7
 10
-484.211857795715
 20
-8.84284027101375
 30
0.0
 11
-485.961860656738
 21
-8.84284027101375
 31
0.0
  0
LINE
  5
   40C
  8
0
  6
CONTINUOUS
 62
     7
 10
-489.461860656738
 20
-16.9678402710137
 30
0.0
 11
-489.461860656738
 21
-11.4678707885919
 31
0.0
  0
LINE
  5
   40D
  8
0
  6
CONTINUOUS
 62
     7
 10
-486.961860656738
 20
-16.9678402710137
 30
0.0
 11
-486.961860656738
 21
-8.84284027101375
 31
0.0
  0
LINE
  5
   40E
  8
0
  6
CONTINUOUS
 62
     7
 10
-486.961860656738
 20
43.6571444701972
 30
0.0
 11
-486.961860656738
 21
67.7821444701972
 31
0.0
  0
LINE
  5
   40F
  8
0
  6
CONTINUOUS
 62
     7
 10
-486.961860656738
 20
67.7821444701972
 30
0.0
 11
-489.461860656738
 21
67.7821444701972
 31
0.0
  0
LINE
  5
   410
  8
0
  6
CONTINUOUS
 62
     7
 10
-486.961860656738
 20
-16.9678402710137
 30
0.0
 11
-489.461860656738
 21
-16.9678402710137
 31
0.0
  0
LINE
  5
   411
  8
0
  6
CONTINUOUS
 62
     7
 10
-485.961860656738
 20
-8.84284027101375
 30
0.0
 11
-485.961860656738
 21
43.6571444701972
 31
0.0
  0
LINE
  5
   412
  8
0
  6
CONTINUOUS
 62
     7
 10
-485.961860656738
 20
-8.84284027101375
 30
0.0
 11
-486.961860656738
 21
-8.84284027101375
 31
0.0
  0
LINE
  5
   413
  8
0
  6
CONTINUOUS
 62
     7
 10
-485.961860656738
 20
43.6571444701972
 30
0.0
 11
-486.961860656738
 21
43.6571444701972
 31
0.0
  0
LINE
  5
   414
  8
0
  6
CONTINUOUS
 62
     7
 10
-489.611896650916
 20
3.18212153361677
 30
0.0
 11
-489.461895131993
 21
3.19524409060416
 31
0.0
  0
LINE
  5
   415
  8
0
  6
CONTINUOUS
 62
     7
 10
-489.461869345957
 20
-3.13099118193862
 30
0.0
 11
-489.611870869075
 21
-3.11786099553225
 31
0.0
  0
LINE
  5
   416
  8
0
  6
CONTINUOUS
 62
     7
 10
-500.711883544922
 20
2.90714144594576
 30
0.0
 11
-500.711883544922
 21
4.28212158201359
 31
0.0
  0
LINE
  5
   417
  8
0
  6
CONTINUOUS
 62
   218
 10
-489.611862659454
 20
-45.5678406524837
 30
0.0
 11
-513.41210180359
 21
-45.5678406524837
 31
0.0
  0
LINE
  5
   418
  8
0
  6
CONTINUOUS
 62
     2
 10
-535.711853027344
 20
-11.717840271014
 30
0.0
 11
-537.711853027344
 21
-11.717840271014
 31
0.0
  0
LINE
  5
   419
  8
0
  6
CONTINUOUS
 62
     7
 10
-489.611854553223
 20
-11.717840271014
 30
0.0
 11
-498.211860656738
 21
-11.717840271014
 31
0.0
  0
LINE
  5
   41A
  8
0
  6
CONTINUOUS
 62
   218
 10
-488.211853027344
 20
-46.967840271014
 30
0.0
 11
-488.211853027344
 21
-34.9678479004085
 31
0.0
  0
LINE
  5
   41B
  8
0
  6
CONTINUOUS
 62
     2
 10
-535.711853027344
 20
-12.967840271014
 30
0.0
 11
-535.711853027344
 21
-11.717840271014
 31
0.0
  0
LINE
  5
   41C
  8
0
  6
CONTINUOUS
 62
   218
 10
-489.611858654592
 20
-32.9678479008563
 30
0.0
 11
-489.461860657128
 21
-32.9678461402545
 31
0.0
  0
LINE
  5
   41D
  8
0
  6
CONTINUOUS
 62
   218
 10
-488.211853027344
 20
-34.9678479004085
 30
0.0
 11
-489.611854553223
 21
-34.9678479004085
 31
0.0
  0
LINE
  5
   41E
  8
0
  6
CONTINUOUS
 62
   218
 10
-489.611854553223
 20
-45.5678387451351
 30
0.0
 11
-489.611854553223
 21
-32.967840271014
 31
0.0
  0
LINE
  5
   41F
  8
0
  6
CONTINUOUS
 62
   218
 10
-489.611854553223
 20
-32.967840271014
 30
0.0
 11
-489.611854553223
 21
-11.717840271014
 31
0.0
  0
LINE
  5
   420
  8
0
  6
CONTINUOUS
 62
     7
 10
-489.461860656738
 20
-17.467840271014
 30
0.0
 11
-489.611854553223
 21
-17.467840271014
 31
0.0
  0
LINE
  5
   421
  8
0
  6
CONTINUOUS
 62
   218
 10
-537.711853027386
 20
-29.9678478999138
 30
0.0
 11
-536.711853504245
 21
-29.9678402705192
 31
0.0
  0
LINE
  5
   422
  8
0
  6
CONTINUOUS
 62
   218
 10
-536.711853504181
 20
-33.9678470393842
 30
0.0
 11
-536.711853504181
 21
-29.9678479004083
 31
0.0
  0
LINE
  5
   423
  8
0
  6
CONTINUOUS
 62
     7
 10
-500.711866377707
 20
-11.717840268293
 30
0.0
 11
-500.711858748313
 21
-10.7178402682702
 31
0.0
  0
LINE
  5
   424
  8
0
  6
CONTINUOUS
 62
     7
 10
-500.711853027344
 20
-10.717840271014
 30
0.0
 11
-505.711853027344
 21
-10.717840271014
 31
0.0
  0
LINE
  5
   425
  8
0
  6
CONTINUOUS
 62
     7
 10
-498.211860656738
 20
-11.717840271014
 30
0.0
 11
-500.711860656738
 21
-11.717840271014
 31
0.0
  0
LINE
  5
   426
  8
0
  6
CONTINUOUS
 62
     7
 10
-486.961860656738
 20
-17.2178402710137
 30
0.0
 11
-489.461860656738
 21
-17.2178402710137
 31
0.0
  0
LINE
  5
   427
  8
0
  6
CONTINUOUS
 62
     7
 10
-486.961860656738
 20
-34.7178402710137
 30
0.0
 11
-489.461860656738
 21
-34.7178402710137
 31
0.0
  0
LINE
  5
   428
  8
0
  6
CONTINUOUS
 62
     7
 10
-486.961860656738
 20
-34.7178402710137
 30
0.0
 11
-486.961860656738
 21
-17.2178402710137
 31
0.0
  0
LINE
  5
   429
  8
0
  6
CONTINUOUS
 62
     7
 10
-487.961860656738
 20
-34.7178402710137
 30
0.0
 11
-487.961860656738
 21
-17.2178402710137
 31
0.0
  0
LINE
  5
   42A
  8
0
  6
CONTINUOUS
 62
     7
 10
-489.461860656738
 20
-34.7178402710137
 30
0.0
 11
-489.461860656738
 21
-17.2178402710137
 31
0.0
  0
ARC
  5
   42B
  8
0
  6
CONTINUOUS
 62
     7
 10
-471.124334271482
 20
6.38521899645478
 30
0.0
 40
0.499999897877905
 50
348.623573369035
 51
436.688788706936
  0
ARC
  5
   42C
  8
0
  6
CONTINUOUS
 62
     7
 10
-471.7227064714
 20
3.41131001245593
 30
0.0
 40
0.50000037262337
 50
260.593992196011
 51
348.623573369035
  0
LINE
  5
   42D
  8
0
  6
DASHDOT
 62
     7
 10
-463.724041945708
 20
3.33088835855754
 30
0.0
 11
-488.782385180162
 21
8.37280852645578
 31
0.0
  0
LINE
  5
   42E
  8
0
  6
CONTINUOUS
 62
     7
 10
-471.009214299135
 20
6.87178546615348
 30
0.0
 11
-481.461860656739
 21
9.34484605412533
 31
0.0
  0
LINE
  5
   42F
  8
0
  6
CONTINUOUS
 62
     7
 10
-471.23253002652
 20
3.31268296117243
 30
0.0
 11
-470.634157990895
 21
6.28659197822812
 31
0.0
  0
LINE
  5
   430
  8
0
  6
CONTINUOUS
 62
     7
 10
-471.804421209994
 20
2.91803228958454
 30
0.0
 11
-481.461860656739
 21
4.51785142448584
 31
0.0
  0
LINE
  5
   431
  8
0
  6
CONTINUOUS
 62
     7
 10
-535.211885070802
 20
-2.71786499023438
 30
0.0
 11
-535.211885070802
 21
2.78213500976563
 31
0.0
  0
LINE
  5
   432
  8
0
  6
CONTINUOUS
 62
     7
 10
-525.211864695897
 20
76.0321273803711
 30
0.0
 11
-527.711864695897
 21
76.0321273803711
 31
0.0
  0
LINE
  5
   433
  8
0
  6
DASHDOT
 62
     7
 10
-517.359894209421
 20
71.0321529606158
 30
0.0
 11
-531.426536226859
 21
71.0321529606158
 31
0.0
  0
LINE
  5
   434
  8
0
  6
CONTINUOUS
 62
     7
 10
-525.211865649571
 20
73.0321529606158
 30
0.0
 11
-527.711864695897
 21
73.0321529606158
 31
0.0
  0
LINE
  5
   435
  8
0
  6
CONTINUOUS
 62
     7
 10
-525.211865649571
 20
69.0321529606158
 30
0.0
 11
-527.711864695897
 21
69.0321529606158
 31
0.0
  0
LINE
  5
   436
  8
0
  6
CONTINUOUS
 62
     7
 10
-520.585517822383
 20
60.7865164309861
 30
0.0
 11
-518.314089758673
 21
65.7983125457521
 31
0.0
  0
LINE
  5
   437
  8
0
  6
CONTINUOUS
 62
     7
 10
-525.211865649571
 20
60.7865164309862
 30
0.0
 11
-525.211865649571
 21
76.0321273803711
 31
0.0
  0
LINE
  5
   438
  8
0
  6
CONTINUOUS
 62
     7
 10
-527.711864695897
 20
60.7865164309862
 30
0.0
 11
-527.711864695897
 21
69.0321529606158
 31
0.0
  0
LINE
  5
   439
  8
0
  6
CONTINUOUS
 62
     2
 10
-536.711898803943
 20
75.0321529606158
 30
0.0
 11
-536.711898803943
 21
81.2821273803711
 31
0.0
  0
LINE
  5
   43A
  8
0
  6
CONTINUOUS
 62
     7
 10
-518.434729234211
 20
65.5321273803711
 30
0.0
 11
-525.211865649571
 21
65.5321273803711
 31
0.0
  0
INSERT
  5
   43B
  8
0
  6
CONTINUOUS
 62
     7
  2
*HATCH1241
 10
-486.211883544922
 20
-37.5863952636719
 30
0.0
 41
0.5
 42
0.5
 50
89.9999999480344
 43
0.5
  0
LINE
  5
   43C
  8
0
  6
CONTINUOUS
 62
     7
 10
-519.341161982749
 20
63.5321273803711
 30
0.0
 11
-525.211865649571
 21
63.5321273803711
 31
0.0
  0
INSERT
  5
   43D
  8
0
  6
CONTINUOUS
 62
     7
  2
*HATCH1242
 10
-486.211883544922
 20
-37.5863952636719
 30
0.0
 41
0.5
 42
0.5
 50
89.9999999480344
 43
0.5
  0
LINE
  5
   43E
  8
0
  6
CONTINUOUS
 62
     2
 10
-500.711883544922
 20
80.0321273803711
 30
0.0
 11
-536.711853027344
 21
80.0321273803711
 31
0.0
  0
LINE
  5
   43F
  8
0
  6
DASHDOT
 62
     7
 10
-537.711853027344
 20
-33.9678470393842
 30
0.0
 11
-537.711853027344
 21
67.0321529606158
 31
0.0
  0
LINE
  5
   440
  8
0
  6
DASHDOT
 62
     7
 10
-539.211853027344
 20
-33.9678470393842
 30
0.0
 11
-539.211853027344
 21
67.0321529606158
 31
0.0
  0
LINE
  5
   441
  8
0
  6
CONTINUOUS
 62
     7
 10
-536.146992401777
 20
88.588232531828
 30
0.0
 11
-541.215888273805
 21
88.588232531828
 31
0.0
  0
LINE
  5
   442
  8
0
  6
CONTINUOUS
 62
     7
 10
-534.336672447482
 20
-56.5591984703615
 30
0.0
 11
-543.629648212866
 21
-56.5591984703615
 31
0.0
  0
ARC
  5
   443
  8
0
  6
CONTINUOUS
 62
     7
 10
-508.211860656738
 20
12.2821597289863
 30
0.0
 40
38.0220413050115
 50
333.082565820193
 51
379.93594827737
  0
LINE
  5
   444
  8
0
  6
CONTINUOUS
 62
     7
 10
-470.189819351727
 20
12.2821597289862
 30
0.0
 11
-470.189819351727
 21
33.9567992444185
 31
0.0
  0
LINE
  5
   445
  8
0
  6
CONTINUOUS
 62
     7
 10
-520.585517822383
 20
60.7865164309862
 30
0.0
 11
-538.915937908458
 21
60.7865164309862
 31
0.0
  0
INSERT
  5
   446
  8
0
  6
CONTINUOUS
 62
     7
  2
*HATCH1243
 10
-486.211883544922
 20
-37.5863952636719
 30
0.0
 41
0.5
 42
0.5
 50
89.9999999480344
 43
0.5
  0
LINE
  5
   447
  8
0
  6
CONTINUOUS
 62
     7
 10
-527.711864695897
 20
62.2821273803711
 30
0.0
 11
-530.211864695897
 21
62.2821273803711
 31
0.0
  0
LINE
  5
   448
  8
0
  6
CONTINUOUS
 62
     7
 10
-531.707475645282
 20
60.7865164309862
 30
0.0
 11
-530.211864695897
 21
62.282127380371
 31
0.0
  0
INSERT
  5
   449
  8
0
  6
CONTINUOUS
 62
     7
  2
*HATCH1244
 10
-486.211883544922
 20
-37.5863952636719
 30
0.0
 41
0.5
 42
0.5
 50
89.9999999480344
 43
0.5
  0
LINE
  5
   44A
  8
0
  6
DASHDOT
 62
     7
 10
-517.359894209421
 20
-37.9678981998736
 30
0.0
 11
-531.426536226859
 21
-37.9678981998736
 31
0.0
  0
LINE
  5
   44B
  8
0
  6
CONTINUOUS
 62
     7
 10
-525.211864695897
 20
-42.9678726196289
 30
0.0
 11
-527.711864695897
 21
-42.9678726196289
 31
0.0
  0
LINE
  5
   44C
  8
0
  6
CONTINUOUS
 62
     7
 10
-527.711864695897
 20
-42.9678726196289
 30
0.0
 11
-527.711864695897
 21
-27.722261670244
 31
0.0
  0
LINE
  5
   44D
  8
0
  6
CONTINUOUS
 62
     7
 10
-525.211865649571
 20
-39.9678981998736
 30
0.0
 11
-527.711864695897
 21
-39.9678981998736
 31
0.0
  0
LINE
  5
   44E
  8
0
  6
CONTINUOUS
 62
     7
 10
-525.211865649571
 20
-42.9678726196289
 30
0.0
 11
-525.211865649571
 21
-27.722261670244
 31
0.0
  0
LINE
  5
   44F
  8
0
  6
CONTINUOUS
 62
     7
 10
-517.280237337466
 20
-27.722261670244
 30
0.0
 11
-542.266137444668
 21
-27.722261670244
 31
0.0
  0
LINE
  5
   450
  8
0
  6
CONTINUOUS
 62
     7
 10
-512.600215800359
 20
-48.5235302198026
 30
0.0
 11
-518.517928983643
 21
-26.979960003531
 31
0.0
  0
LINE
  5
   451
  8
0
  6
CONTINUOUS
 62
   218
 10
-488.211853504181
 20
-46.9678402710137
 30
0.0
 11
-536.711853504181
 21
-46.9678402710137
 31
0.0
  0
INSERT
  5
   452
  8
0
  6
CONTINUOUS
 62
     7
  2
*HATCH1245
 10
-486.211883544922
 20
-37.5863952636719
 30
0.0
 41
0.5
 42
0.5
 50
89.9999999480344
 43
0.5
  0
INSERT
  5
   453
  8
0
  6
CONTINUOUS
 62
     7
  2
*HATCH1246
 10
-486.211883544922
 20
-37.5863952636719
 30
0.0
 41
0.5
 42
0.5
 50
89.9999999480344
 43
0.5
  0
LINE
  5
   454
  8
0
  6
CONTINUOUS
 62
     7
 10
-527.711864695897
 20
-30.4678981998736
 30
0.0
 11
-536.711853504181
 21
-30.4678981998736
 31
0.0
  0
LINE
  5
   455
  8
0
  6
CONTINUOUS
 62
     7
 10
-527.711864695897
 20
-28.4678981998736
 30
0.0
 11
-537.711853027344
 21
-28.4678981998736
 31
0.0
  0
LINE
  5
   456
  8
0
  6
CONTINUOUS
 62
     7
 10
-517.010470197215
 20
-32.4678981998736
 30
0.0
 11
-525.211865649571
 21
-32.4678981998736
 31
0.0
  0
INSERT
  5
   457
  8
0
  6
CONTINUOUS
 62
     7
  2
*HATCH1247
 10
-486.211883544922
 20
-37.5863952636719
 30
0.0
 41
0.5
 42
0.5
 50
89.9999999480344
 43
0.5
  0
LINE
  5
   458
  8
0
  6
CONTINUOUS
 62
     7
 10
-517.559841830967
 20
-30.4678981998736
 30
0.0
 11
-525.211865649571
 21
-30.4678981998736
 31
0.0
  0
INSERT
  5
   459
  8
0
  6
CONTINUOUS
 62
     7
  2
*HATCH1248
 10
-486.211883544922
 20
-37.5863952636719
 30
0.0
 41
0.5
 42
0.5
 50
89.9999999480344
 43
0.5
  0
LINE
  5
   45A
  8
0
  6
CONTINUOUS
 62
     7
 10
-505.711868286133
 20
-12.9678497314447
 30
0.0
 11
-535.711853027344
 21
-12.9678497314447
 31
0.0
  0
LINE
  5
   45B
  8
0
  6
CONTINUOUS
 62
     7
 10
-481.461860656738
 20
24.1571426391602
 30
0.0
 11
-481.461860656738
 21
43.6571444701972
 31
0.0
  0
LINE
  5
   45C
  8
0
  6
CONTINUOUS
 62
     7
 10
-481.461860656738
 20
17.6571426391602
 30
0.0
 11
-481.461860656738
 21
23.6571426391602
 31
0.0
  0
LINE
  5
   45D
  8
0
  6
CONTINUOUS
 62
     7
 10
-481.461860656738
 20
7.40715789794815
 30
0.0
 11
-481.461860656738
 21
17.1571426391602
 31
0.0
  0
LINE
  5
   45E
  8
0
  6
CONTINUOUS
 62
     7
 10
-481.461860656738
 20
0.907142639160156
 30
0.0
 11
-481.461860656738
 21
6.9071578979482
 31
0.0
  0
LINE
  5
   45F
  8
0
  6
CONTINUOUS
 62
     1
 10
-484.211857795715
 20
-10.0960826873779
 30
0.0
 11
-484.211857795715
 21
-9.09608268737793
 31
0.0
  0
LINE
  5
   460
  8
0
  6
CONTINUOUS
 62
     1
 10
-483.211857795715
 20
-10.0960826873779
 30
0.0
 11
-484.211857795715
 21
-10.0960826873779
 31
0.0
  0
LINE
  5
   461
  8
0
  6
CONTINUOUS
 62
     1
 10
-484.211857795715
 20
43.9039154052734
 30
0.0
 11
-484.211857795715
 21
44.9039154052734
 31
0.0
  0
LINE
  5
   462
  8
0
  6
CONTINUOUS
 62
     1
 10
-483.211857795715
 20
44.9039154052734
 30
0.0
 11
-484.211857795715
 21
44.9039154052734
 31
0.0
  0
LINE
  5
   463
  8
0
  6
CONTINUOUS
 62
     1
 10
-484.211857795715
 20
-9.09608268737793
 30
0.0
 11
-484.211857795715
 21
43.9039173126221
 31
0.0
  0
LINE
  5
   464
  8
0
  6
CONTINUOUS
 62
     1
 10
-486.461857795715
 20
51.6925888061524
 30
0.0
 11
-486.461857795715
 21
54.1152420043945
 31
0.0
  0
LINE
  5
   465
  8
0
  6
CONTINUOUS
 62
     1
 10
-483.211857795715
 20
-23.3460826873779
 30
0.0
 11
-483.211857795715
 21
58.1539173126221
 31
0.0
  0
LINE
  5
   466
  8
0
  6
CONTINUOUS
 62
     1
 10
-481.461857795715
 20
-23.3460826873779
 30
0.0
 11
-483.211857795715
 21
-23.3460826873779
 31
0.0
  0
LINE
  5
   467
  8
0
  6
CONTINUOUS
 62
     1
 10
-481.461857795715
 20
-23.3460845947266
 30
0.0
 11
-481.461857795715
 21
58.1539154052734
 31
0.0
  0
LINE
  5
   468
  8
0
  6
CONTINUOUS
 62
     1
 10
-481.461857795715
 20
58.1539154052734
 30
0.0
 11
-481.961857795715
 21
58.1539154052734
 31
0.0
  0
LINE
  5
   469
  8
0
  6
CONTINUOUS
 62
     1
 10
-482.461857795715
 20
58.1539154052734
 30
0.0
 11
-483.211857795715
 21
58.1539154052734
 31
0.0
  0
LINE
  5
   46A
  8
0
  6
CONTINUOUS
 62
     1
 10
-483.211857795715
 20
51.4039154052734
 30
0.0
 11
-485.961859394029
 21
51.4039154052734
 31
0.0
  0
LINE
  5
   46B
  8
0
  6
CONTINUOUS
 62
     1
 10
-483.211857795715
 20
54.4039154052734
 30
0.0
 11
-485.961856157452
 21
54.4039154052734
 31
0.0
  0
LINE
  5
   46C
  8
0
  6
CONTINUOUS
 62
     1
 10
-485.961857802566
 20
51.4039154052734
 30
0.0
 11
-485.961857802566
 21
51.5180969238281
 31
0.0
  0
LINE
  5
   46D
  8
0
  6
CONTINUOUS
 62
     1
 10
-485.961857404704
 20
51.4039142567427
 30
0.0
 11
-486.461857421167
 21
51.6925876612409
 31
0.0
  0
LINE
  5
   46E
  8
0
  6
CONTINUOUS
 62
     1
 10
-485.961857802566
 20
51.5180969238281
 30
0.0
 11
-485.961857802566
 21
51.8432540893555
 31
0.0
  0
LINE
  5
   46F
  8
0
  6
CONTINUOUS
 62
     1
 10
-485.961857802566
 20
51.8432540893555
 30
0.0
 11
-485.961857802566
 21
52.3298950195313
 31
0.0
  0
LINE
  5
   470
  8
0
  6
CONTINUOUS
 62
     1
 10
-485.961857802566
 20
52.3298950195313
 30
0.0
 11
-485.961857802566
 21
52.9039154052734
 31
0.0
  0
LINE
  5
   471
  8
0
  6
CONTINUOUS
 62
     1
 10
-485.961857802566
 20
52.9039154052734
 30
0.0
 11
-485.961857802566
 21
53.4779434204102
 31
0.0
  0
LINE
  5
   472
  8
0
  6
CONTINUOUS
 62
     1
 10
-485.961857802566
 20
53.4779434204102
 30
0.0
 11
-485.961857802566
 21
53.9645767211914
 31
0.0
  0
LINE
  5
   473
  8
0
  6
CONTINUOUS
 62
     1
 10
-485.961857802566
 20
53.9645767211914
 30
0.0
 11
-485.961857802566
 21
54.2897338867188
 31
0.0
  0
LINE
  5
   474
  8
0
  6
CONTINUOUS
 62
     1
 10
-485.961857802566
 20
54.2897338867188
 30
0.0
 11
-485.961857802566
 21
54.4039154052734
 31
0.0
  0
LINE
  5
   475
  8
0
  6
CONTINUOUS
 62
     1
 10
-486.461858230304
 20
54.1152408135255
 30
0.0
 11
-485.961858213841
 21
54.4039142180237
 31
0.0
  0
LINE
  5
   476
  8
0
  6
CONTINUOUS
 62
     1
 10
-483.211857795715
 20
-16.5960826873779
 30
0.0
 11
-485.96185680001
 21
-16.5960826873779
 31
0.0
  0
LINE
  5
   477
  8
0
  6
CONTINUOUS
 62
     1
 10
-483.211857795715
 20
-19.5960826873779
 30
0.0
 11
-485.961857785908
 21
-19.5960826873779
 31
0.0
  0
LINE
  5
   478
  8
0
  6
CONTINUOUS
 62
     1
 10
-485.961857785908
 20
-16.7102642059326
 30
0.0
 11
-485.961857785908
 21
-16.5960826873779
 31
0.0
  0
LINE
  5
   479
  8
0
  6
CONTINUOUS
 62
     1
 10
-485.96185778592
 20
-17.0354232788086
 30
0.0
 11
-485.96185778592
 21
-16.7102642059326
 31
0.0
  0
LINE
  5
   47A
  8
0
  6
CONTINUOUS
 62
     1
 10
-485.961857785906
 20
-17.5220565795899
 30
0.0
 11
-485.961857785906
 21
-17.0354232788086
 31
0.0
  0
LINE
  5
   47B
  8
0
  6
CONTINUOUS
 62
     1
 10
-485.961857785941
 20
-18.0960826873779
 30
0.0
 11
-485.961857785941
 21
-17.5220565795899
 31
0.0
  0
LINE
  5
   47C
  8
0
  6
CONTINUOUS
 62
     1
 10
-485.961857785879
 20
-18.6701068878174
 30
0.0
 11
-485.961857785879
 21
-18.0960826873779
 31
0.0
  0
LINE
  5
   47D
  8
0
  6
CONTINUOUS
 62
     1
 10
-485.961857785906
 20
-19.1567420959473
 30
0.0
 11
-485.961857785906
 21
-18.6701068878174
 31
0.0
  0
LINE
  5
   47E
  8
0
  6
CONTINUOUS
 62
     1
 10
-485.961857785919
 20
-19.5960826873779
 30
0.0
 11
-485.961857785919
 21
-19.1567420959473
 31
0.0
  0
LINE
  5
   47F
  8
0
  6
CONTINUOUS
 62
     1
 10
-485.961857785908
 20
-19.5960826873779
 30
0.0
 11
-485.961857785908
 21
-19.4819011688233
 31
0.0
  0
LINE
  5
   480
  8
0
  6
CONTINUOUS
 62
     1
 10
-481.961857795715
 20
58.1539154052734
 30
0.0
 11
-482.461857795715
 21
58.1539154052734
 31
0.0
  0
LINE
  5
   481
  8
0
  6
CONTINUOUS
 62
     7
 10
-486.46185805679
 20
-16.8847586957313
 30
0.0
 11
-485.961858040326
 21
-16.5960834034748
 31
0.0
  0
LINE
  5
   482
  8
0
  6
CONTINUOUS
 62
     7
 10
-485.961857578745
 20
-19.5960833011275
 30
0.0
 11
-486.46185759521
 21
-19.3074080088709
 31
0.0
  0
LINE
  5
   483
  8
0
  6
CONTINUOUS
 62
     7
 10
-484.211857795715
 20
-50.6618322445843
 30
0.0
 11
-484.211857795715
 21
-19.5960826873779
 31
0.0
  0
LINE
  5
   484
  8
0
  6
CONTINUOUS
 62
     7
 10
-483.211857795715
 20
-50.048039141136
 30
0.0
 11
-483.211857795715
 21
-23.3460826873779
 31
0.0
  0
LINE
  5
   485
  8
0
  6
CONTINUOUS
 62
     7
 10
-483.211857795715
 20
54.6539154052734
 30
0.0
 11
-483.211857795715
 21
87.2494667756188
 31
0.0
  0
LINE
  5
   486
  8
0
  6
CONTINUOUS
 62
     7
 10
-483.211857795715
 20
-10.5960826873779
 30
0.0
 11
-484.211857795715
 21
-10.5960826873779
 31
0.0
  0
LINE
  5
   487
  8
0
  6
CONTINUOUS
 62
     7
 10
-483.211857795715
 20
45.4039154052734
 30
0.0
 11
-484.211857795715
 21
45.4039154052734
 31
0.0
  0
LINE
  5
   488
  8
0
  6
CONTINUOUS
 62
     7
 10
-483.211857795715
 20
54.6539154052734
 30
0.0
 11
-484.211857795715
 21
54.6539154052734
 31
0.0
  0
LINE
  5
   489
  8
0
  6
CONTINUOUS
 62
     7
 10
-483.211857795715
 20
51.1539154052734
 30
0.0
 11
-484.211857795715
 21
51.1539154052734
 31
0.0
  0
LINE
  5
   48A
  8
0
  6
CONTINUOUS
 62
     7
 10
-483.211857795715
 20
-16.3460826873779
 30
0.0
 11
-484.211857795715
 21
-16.3460826873779
 31
0.0
  0
LINE
  5
   48B
  8
0
  6
CONTINUOUS
 62
     7
 10
-483.211857795715
 20
-19.8460826873779
 30
0.0
 11
-484.211857795715
 21
-19.8460826873779
 31
0.0
  0
LINE
  5
   48C
  8
0
  6
CONTINUOUS
 62
     7
 10
-484.211857795715
 20
-16.5960826873779
 30
0.0
 11
-484.211857795715
 21
51.4039154052734
 31
0.0
  0
LINE
  5
   48D
  8
0
  6
CONTINUOUS
 62
     7
 10
-484.211857795715
 20
54.4039154052734
 30
0.0
 11
-484.211857795715
 21
86.7102510893443
 31
0.0
  0
LINE
  5
   48E
  8
0
  6
CONTINUOUS
 62
     7
 10
-485.408752559383
 20
86.0648666579552
 30
0.0
 11
-481.754600474013
 21
88.0352427824194
 31
0.0
  0
LINE
  5
   48F
  8
0
  6
CONTINUOUS
 62
     7
 10
-485.874477825165
 20
-51.6823369523154
 30
0.0
 11
-480.679849860668
 21
-48.4939101327279
 31
0.0
  0
INSERT
  5
   490
  8
0
  6
CONTINUOUS
 62
     7
  2
*HATCH1249
 10
-486.211883544922
 20
-37.5863952636719
 30
0.0
 41
0.5
 42
0.5
 50
89.9999999480344
 43
0.5
  0
INSERT
  5
   491
  8
0
  6
CONTINUOUS
 62
     7
  2
*HATCH1250
 10
-486.211883544922
 20
-37.5863952636719
 30
0.0
 41
0.5
 42
0.5
 50
89.9999999480344
 43
0.5
  0
INSERT
  5
   492
  8
0
  6
CONTINUOUS
 62
     7
  2
*HATCH1251
 10
-486.211883544922
 20
-37.5863952636719
 30
0.0
 41
0.5
 42
0.5
 50
89.9999999480344
 43
0.5
  0
INSERT
  5
   493
  8
0
  6
CONTINUOUS
 62
     7
  2
*HATCH1252
 10
-486.211883544922
 20
-37.5863952636719
 30
0.0
 41
0.5
 42
0.5
 50
89.9999999480344
 43
0.5
  0
LINE
  5
   494
  8
0
  6
CONTINUOUS
 62
     7
 10
-486.46185759521
 20
-19.3074080088709
 30
0.0
 11
-486.46185805679
 21
-16.8847586957313
 31
0.0
  0
LINE
  5
   495
  8
0
  6
DASHDOT
 62
     7
 10
-458.317837602551
 20
17.4071444701972
 30
0.0
 11
-545.59099020038
 21
17.4071444701972
 31
0.0
  0
LINE
  5
   496
  8
0
  6
CONTINUOUS
 62
     7
 10
-527.711864695897
 20
73.0321529606158
 30
0.0
 11
-527.711864695897
 21
76.0321273803711
 31
0.0
  0
LINE
  5
   497
  8
0
  6
CONTINUOUS
 62
     7
 10
-506.237086201889
 20
65.7983125457521
 30
0.0
 11
-518.314089758673
 21
65.7983125457521
 31
0.0
  0
LINE
  5
   498
  8
0
  6
CONTINUOUS
 62
     7
 10
-506.237086201889
 20
65.7983125457522
 30
0.0
 11
-498.778804264037
 21
82.2546507570142
 31
0.0
  0
LINE
  5
   499
  8
0
  6
DASHDOT
 62
     7
 10
-539.211853027344
 20
75.0321529606158
 30
0.0
 11
-539.211853027344
 21
88.588232531828
 31
0.0
  0
LINE
  5
   49A
  8
0
  6
DASHDOT
 62
     7
 10
-537.711853027344
 20
75.0321529606158
 30
0.0
 11
-537.711853027344
 21
88.588232531828
 31
0.0
  0
LINE
  5
   49B
  8
0
  6
CONTINUOUS
 62
     7
 10
-487.586906433111
 20
81.2821273803711
 30
0.0
 11
-536.711898803943
 21
81.2821273803711
 31
0.0
  0
LINE
  5
   49C
  8
0
  6
CONTINUOUS
 62
     7
 10
-486.961906433111
 20
68.0321190389122
 30
0.0
 11
-486.961906433111
 21
80.6571273803711
 31
0.0
  0
ARC
  5
   49D
  8
0
  6
CONTINUOUS
 62
     7
 10
-487.586906433111
 20
80.6571273803711
 30
0.0
 40
0.625
 50
359.999999948034
 51
449.999999948034
  0
LINE
  5
   49E
  8
0
  6
CONTINUOUS
 62
     7
 10
-487.586853027344
 20
-48.2178402710137
 30
0.0
 11
-512.684184493652
 21
-48.2178402710137
 31
0.0
  0
LINE
  5
   49F
  8
0
  6
CONTINUOUS
 62
     7
 10
-486.961853027344
 20
-47.5928402710137
 30
0.0
 11
-486.961853027344
 21
-35.4678479004085
 31
0.0
  0
ARC
  5
   4A0
  8
0
  6
CONTINUOUS
 62
     7
 10
-487.586853027344
 20
-47.5928402710137
 30
0.0
 40
0.625
 50
269.999999948034
 51
359.999999948034
  0
LINE
  5
   4A1
  8
0
  6
CONTINUOUS
 62
     7
 10
-486.961853027344
 20
-35.4678479004085
 30
0.0
 11
-487.461853027344
 21
-35.4678479004085
 31
0.0
  0
LINE
  5
   4A2
  8
0
  6
CONTINUOUS
 62
     7
 10
-487.461853027344
 20
-35.4678479004085
 30
0.0
 11
-487.461853027344
 21
-34.9678479004085
 31
0.0
  0
LINE
  5
   4A3
  8
0
  6
CONTINUOUS
 62
     7
 10
-487.461853027344
 20
-34.9678479004085
 30
0.0
 11
-488.211853027344
 21
-34.9678479004085
 31
0.0
  0
CIRCLE
  5
   4A4
  8
0
  6
CONTINUOUS
 62
     7
 10
-569.337147333207
 20
73.0809442257751
 30
0.0
 40
0.15
  0
LINE
  5
   4A5
  8
0
  6
CONTINUOUS
 62
     7
 10
-525.211865649571
 20
-35.9678981998736
 30
0.0
 11
-527.711864695897
 21
-35.9678981998736
 31
0.0
  0
LINE
  5
   4A6
  8
0
  6
CONTINUOUS
 62
     7
 10
-536.711853504181
 20
-46.9678402710137
 30
0.0
 11
-536.711853504181
 21
-41.9678470393842
 31
0.0
  0
LINE
  5
   4A7
  8
0
  6
DASHDOT
 62
     7
 10
-537.711853027344
 20
-56.5591984703615
 30
0.0
 11
-537.711853027344
 21
-41.9678470393842
 31
0.0
  0
LINE
  5
   4A8
  8
0
  6
DASHDOT
 62
     7
 10
-539.211853027344
 20
-56.5591984703615
 30
0.0
 11
-539.211853027344
 21
-41.9678470393842
 31
0.0
  0
LINE
  5
   4A9
  8
0
  6
CONTINUOUS
 62
     7
 10
-521.811865077366
 20
-40.4678470393842
 30
0.0
 11
-524.811865077366
 21
-40.4678470393842
 31
0.0
  0
LINE
  5
   4AA
  8
0
  6
CONTINUOUS
 62
     7
 10
-521.811865077366
 20
-40.4678470393842
 30
0.0
 11
-521.811865077366
 21
-35.4678470393842
 31
0.0
  0
LINE
  5
   4AB
  8
0
  6
CONTINUOUS
 62
     5
 10
-524.811865077366
 20
-41.7178470393842
 30
0.0
 11
-524.811865077366
 21
-34.2178470393842
 31
0.0
  0
LINE
  5
   4AC
  8
0
  6
CONTINUOUS
 62
     7
 10
-521.811865077366
 20
-35.4678470393842
 30
0.0
 11
-524.811865077366
 21
-35.4678470393842
 31
0.0
  0
LINE
  5
   4AD
  8
0
  6
CONTINUOUS
 62
     2
 10
-527.711864695897
 20
-41.9678470393842
 30
0.0
 11
-527.711864695897
 21
-33.9678470393842
 31
0.0
  0
LINE
  5
   4AE
  8
0
  6
CONTINUOUS
 62
     5
 10
-525.211864695897
 20
-41.7178470393842
 30
0.0
 11
-525.211864695897
 21
-34.2178470393842
 31
0.0
  0
LINE
  5
   4AF
  8
0
  6
CONTINUOUS
 62
    98
 10
-525.711864695897
 20
-39.9678470393842
 30
0.0
 11
-525.711864695897
 21
-35.9678470393842
 31
0.0
  0
LINE
  5
   4B0
  8
0
  6
CONTINUOUS
 62
     2
 10
-527.711864695897
 20
-33.9678470393842
 30
0.0
 11
-551.711864695897
 21
-33.9678470393842
 31
0.0
  0
LINE
  5
   4B1
  8
0
  6
CONTINUOUS
 62
     5
 10
-524.811865077366
 20
-34.2178470393842
 30
0.0
 11
-525.211864695897
 21
-34.2178470393842
 31
0.0
  0
LINE
  5
   4B2
  8
0
  6
CONTINUOUS
 62
    98
 10
-525.711864695897
 20
-35.9678470393842
 30
0.0
 11
-527.711864695897
 21
-35.9678470393842
 31
0.0
  0
LINE
  5
   4B3
  8
0
  6
CONTINUOUS
 62
    98
 10
-525.711864695897
 20
-39.9678470393842
 30
0.0
 11
-527.711864695897
 21
-39.9678470393842
 31
0.0
  0
LINE
  5
   4B4
  8
0
  6
CONTINUOUS
 62
     7
 10
-525.211863742222
 20
-36.4678470393842
 30
0.0
 11
-525.711864695897
 21
-36.4678470393842
 31
0.0
  0
LINE
  5
   4B5
  8
0
  6
CONTINUOUS
 62
     7
 10
-525.211864695897
 20
-39.4678470393842
 30
0.0
 11
-525.711864695897
 21
-39.4678470393842
 31
0.0
  0
LINE
  5
   4B6
  8
0
  6
CONTINUOUS
 62
     5
 10
-524.811865077366
 20
-41.7178470393842
 30
0.0
 11
-525.211864695897
 21
-41.7178470393842
 31
0.0
  0
LINE
  5
   4B7
  8
0
  6
CONTINUOUS
 62
     2
 10
-527.711864695897
 20
-41.9678470393842
 30
0.0
 11
-551.711864695897
 21
-41.9678470393842
 31
0.0
  0
LINE
  5
   4B8
  8
0
  6
CONTINUOUS
 62
     7
 10
-579.711864695897
 20
-43.4678470393842
 30
0.0
 11
-579.711864695897
 21
-32.4678470393842
 31
0.0
  0
LINE
  5
   4B9
  8
0
  6
CONTINUOUS
 62
     7
 10
-580.961864695897
 20
-43.4678470393842
 30
0.0
 11
-580.961864695897
 21
-32.4678470393842
 31
0.0
  0
LINE
  5
   4BA
  8
0
  6
CONTINUOUS
 62
     7
 10
-577.211864695897
 20
-43.4678470393842
 30
0.0
 11
-577.211864695897
 21
-32.4678470393842
 31
0.0
  0
LINE
  5
   4BB
  8
0
  6
CONTINUOUS
 62
     7
 10
-578.461864695897
 20
-43.4678470393842
 30
0.0
 11
-578.461864695897
 21
-32.4678470393842
 31
0.0
  0
LINE
  5
   4BC
  8
0
  6
CONTINUOUS
 62
     3
 10
-574.211864695897
 20
-43.4526721736616
 30
0.0
 11
-574.211864695897
 21
-32.4830219051069
 31
0.0
  0
LINE
  5
   4BD
  8
0
  6
CONTINUOUS
 62
     3
 10
-583.961864695897
 20
-43.4526721736616
 30
0.0
 11
-583.961864695897
 21
-32.4830219051069
 31
0.0
  0
LINE
  5
   4BE
  8
0
  6
CONTINUOUS
 62
     7
 10
-579.711864695897
 20
-43.4678470393842
 30
0.0
 11
-580.961864695897
 21
-43.4678470393842
 31
0.0
  0
LINE
  5
   4BF
  8
0
  6
CONTINUOUS
 62
     7
 10
-579.711864695897
 20
-32.4678470393842
 30
0.0
 11
-580.961864695897
 21
-32.4678470393842
 31
0.0
  0
LINE
  5
   4C0
  8
0
  6
CONTINUOUS
 62
     7
 10
-577.211864695897
 20
-43.4678470393842
 30
0.0
 11
-578.461864695897
 21
-43.4678470393842
 31
0.0
  0
LINE
  5
   4C1
  8
0
  6
CONTINUOUS
 62
     7
 10
-577.211864695897
 20
-32.4678470393842
 30
0.0
 11
-578.461864695897
 21
-32.4678470393842
 31
0.0
  0
LINE
  5
   4C2
  8
0
  6
CONTINUOUS
 62
     3
 10
-574.211864695897
 20
-35.2254306575483
 30
0.0
 11
-577.211864695897
 21
-35.2254306575483
 31
0.0
  0
LINE
  5
   4C3
  8
0
  6
CONTINUOUS
 62
     3
 10
-574.211864695897
 20
-32.4830219051069
 30
0.0
 11
-577.211864695897
 21
-32.4830219051069
 31
0.0
  0
LINE
  5
   4C4
  8
0
  6
CONTINUOUS
 62
     3
 10
-574.211864695897
 20
-43.4526721736616
 30
0.0
 11
-577.211864695897
 21
-43.4526721736616
 31
0.0
  0
LINE
  5
   4C5
  8
0
  6
CONTINUOUS
 62
     3
 10
-574.211864695897
 20
-40.7102634212202
 30
0.0
 11
-577.211864695897
 21
-40.7102634212202
 31
0.0
  0
LINE
  5
   4C6
  8
0
  6
CONTINUOUS
 62
     3
 10
-580.961864695897
 20
-35.2254306575483
 30
0.0
 11
-583.961864695897
 21
-35.2254306575483
 31
0.0
  0
LINE
  5
   4C7
  8
0
  6
CONTINUOUS
 62
     3
 10
-580.961864695897
 20
-32.4830219051069
 30
0.0
 11
-583.961864695897
 21
-32.4830219051069
 31
0.0
  0
LINE
  5
   4C8
  8
0
  6
CONTINUOUS
 62
     3
 10
-580.961864695897
 20
-43.4526721736616
 30
0.0
 11
-583.961864695897
 21
-43.4526721736616
 31
0.0
  0
LINE
  5
   4C9
  8
0
  6
CONTINUOUS
 62
     3
 10
-580.961864695897
 20
-40.7102634212202
 30
0.0
 11
-583.961864695897
 21
-40.7102634212202
 31
0.0
  0
LINE
  5
   4CA
  8
0
  6
CONTINUOUS
 62
    98
 10
-583.961864695897
 20
-34.9678470393842
 30
0.0
 11
-587.211864695897
 21
-34.9678470393842
 31
0.0
  0
LINE
  5
   4CB
  8
0
  6
CONTINUOUS
 62
    98
 10
-578.461864695897
 20
-34.9678470393842
 30
0.0
 11
-579.711864695897
 21
-34.9678470393842
 31
0.0
  0
LINE
  5
   4CC
  8
0
  6
CONTINUOUS
 62
    98
 10
-583.961864695897
 20
-40.9678470393842
 30
0.0
 11
-587.211864695897
 21
-40.9678470393842
 31
0.0
  0
LINE
  5
   4CD
  8
0
  6
CONTINUOUS
 62
    98
 10
-578.461864695897
 20
-40.9678470393842
 30
0.0
 11
-579.711864695897
 21
-40.9678470393842
 31
0.0
  0
LINE
  5
   4CE
  8
0
  6
CONTINUOUS
 62
    98
 10
-587.711862764123
 20
-35.4678446669184
 30
0.0
 11
-587.211862781238
 21
-34.9678446840327
 31
0.0
  0
LINE
  5
   4CF
  8
0
  6
CONTINUOUS
 62
    98
 10
-587.211864695897
 20
-37.9678470393842
 30
0.0
 11
-587.211864695897
 21
-37.3825732967085
 31
0.0
  0
LINE
  5
   4D0
  8
0
  6
CONTINUOUS
 62
    98
 10
-587.711864695897
 20
-40.4678470393842
 30
0.0
 11
-587.711864695897
 21
-35.4678470393842
 31
0.0
  0
LINE
  5
   4D1
  8
0
  6
CONTINUOUS
 62
    98
 10
-587.211864120429
 20
-40.9678453771607
 30
0.0
 11
-587.711864103315
 21
-40.467845394275
 31
0.0
  0
LINE
  5
   4D2
  8
0
  6
CONTINUOUS
 62
    98
 10
-587.211864695897
 20
-39.1158954402631
 30
0.0
 11
-587.211864695897
 21
-38.55312078206
 31
0.0
  0
LINE
  5
   4D3
  8
0
  6
CONTINUOUS
 62
    98
 10
-587.211864695897
 20
-38.55312078206
 30
0.0
 11
-587.211864695897
 21
-37.9678470393842
 31
0.0
  0
LINE
  5
   4D4
  8
0
  6
CONTINUOUS
 62
    98
 10
-587.211864695897
 20
-39.6345569392866
 30
0.0
 11
-587.211864695897
 21
-39.1158954402631
 31
0.0
  0
LINE
  5
   4D5
  8
0
  6
CONTINUOUS
 62
    98
 10
-587.211864695897
 20
-40.4622546931928
 30
0.0
 11
-587.211864695897
 21
-40.0891696712202
 31
0.0
  0
LINE
  5
   4D6
  8
0
  6
CONTINUOUS
 62
    98
 10
-587.211864695897
 20
-40.7394840022749
 30
0.0
 11
-587.211864695897
 21
-40.4622546931928
 31
0.0
  0
LINE
  5
   4D7
  8
0
  6
CONTINUOUS
 62
    98
 10
-587.211864695897
 20
-40.9678470393842
 30
0.0
 11
-587.211864695897
 21
-40.9101993343061
 31
0.0
  0
LINE
  5
   4D8
  8
0
  6
CONTINUOUS
 62
    98
 10
-587.211864695897
 20
-36.8197986385053
 30
0.0
 11
-587.211864695897
 21
-36.3011371394819
 31
0.0
  0
LINE
  5
   4D9
  8
0
  6
CONTINUOUS
 62
    98
 10
-587.211864695897
 20
-37.3825732967085
 30
0.0
 11
-587.211864695897
 21
-36.8197986385053
 31
0.0
  0
LINE
  5
   4DA
  8
0
  6
CONTINUOUS
 62
    98
 10
-587.211864695897
 20
-40.0891696712202
 30
0.0
 11
-587.211864695897
 21
-39.6345569392866
 31
0.0
  0
LINE
  5
   4DB
  8
0
  6
CONTINUOUS
 62
    98
 10
-587.211864695897
 20
-40.9101993343061
 30
0.0
 11
-587.211864695897
 21
-40.7394840022749
 31
0.0
  0
LINE
  5
   4DC
  8
0
  6
CONTINUOUS
 62
    98
 10
-587.211864695897
 20
-35.0254947444624
 30
0.0
 11
-587.211864695897
 21
-34.9678470393842
 31
0.0
  0
LINE
  5
   4DD
  8
0
  6
CONTINUOUS
 62
    98
 10
-587.211864695897
 20
-35.1962100764936
 30
0.0
 11
-587.211864695897
 21
-35.0254947444624
 31
0.0
  0
LINE
  5
   4DE
  8
0
  6
CONTINUOUS
 62
    98
 10
-587.211864695897
 20
-35.4734393855756
 30
0.0
 11
-587.211864695897
 21
-35.1962100764936
 31
0.0
  0
LINE
  5
   4DF
  8
0
  6
CONTINUOUS
 62
    98
 10
-587.211864695897
 20
-35.8465244075483
 30
0.0
 11
-587.211864695897
 21
-35.4734393855756
 31
0.0
  0
LINE
  5
   4E0
  8
0
  6
CONTINUOUS
 62
    98
 10
-587.211864695897
 20
-36.3011371394819
 30
0.0
 11
-587.211864695897
 21
-35.8465244075483
 31
0.0
  0
LINE
  5
   4E1
  8
0
  6
CONTINUOUS
 62
     7
 10
-583.961864695897
 20
-40.467845394275
 30
0.0
 11
-587.711864103315
 21
-40.467845394275
 31
0.0
  0
LINE
  5
   4E2
  8
0
  6
CONTINUOUS
 62
     7
 10
-583.961864695897
 20
-35.4678470393842
 30
0.0
 11
-587.711864695897
 21
-35.4678470393842
 31
0.0
  0
LINE
  5
   4E3
  8
0
  6
CONTINUOUS
 62
     7
 10
-578.461864695897
 20
-40.4678470393842
 30
0.0
 11
-579.711864695897
 21
-40.4678470393842
 31
0.0
  0
LINE
  5
   4E4
  8
0
  6
CONTINUOUS
 62
     7
 10
-578.461864695897
 20
-35.4678470393842
 30
0.0
 11
-579.711864695897
 21
-35.4678470393842
 31
0.0
  0
POINT
  5
   4E5
  8
0
  6
CONTINUOUS
 62
     7
 10
-565.211864695897
 20
71.0321529606158
 30
0.0
  0
POINT
  5
   4E6
  8
0
  6
CONTINUOUS
 62
     7
 10
-565.211864695897
 20
-37.9678981998736
 30
0.0
  0
LINE
  5
   4E7
  8
0
  6
CONTINUOUS
 62
     7
 10
-521.811865077366
 20
73.5321529606158
 30
0.0
 11
-524.811865077366
 21
73.5321529606158
 31
0.0
  0
LINE
  5
   4E8
  8
0
  6
CONTINUOUS
 62
     7
 10
-521.811865077366
 20
68.5321529606158
 30
0.0
 11
-521.811865077366
 21
73.5321529606158
 31
0.0
  0
LINE
  5
   4E9
  8
0
  6
CONTINUOUS
 62
     5
 10
-524.811865077366
 20
67.2821529606158
 30
0.0
 11
-524.811865077366
 21
74.7821529606158
 31
0.0
  0
LINE
  5
   4EA
  8
0
  6
CONTINUOUS
 62
     7
 10
-521.811865077366
 20
68.5321529606158
 30
0.0
 11
-524.811865077366
 21
68.5321529606158
 31
0.0
  0
LINE
  5
   4EB
  8
0
  6
CONTINUOUS
 62
     2
 10
-527.711864695897
 20
67.0321529606158
 30
0.0
 11
-527.711864695897
 21
75.0321529606158
 31
0.0
  0
LINE
  5
   4EC
  8
0
  6
CONTINUOUS
 62
     5
 10
-525.211864695897
 20
67.2821529606158
 30
0.0
 11
-525.211864695897
 21
74.7821529606158
 31
0.0
  0
LINE
  5
   4ED
  8
0
  6
CONTINUOUS
 62
    98
 10
-525.711864695897
 20
69.0321529606158
 30
0.0
 11
-525.711864695897
 21
73.0321529606158
 31
0.0
  0
LINE
  5
   4EE
  8
0
  6
CONTINUOUS
 62
     2
 10
-527.711864695897
 20
67.0321529606158
 30
0.0
 11
-551.711864695897
 21
67.0321529606158
 31
0.0
  0
LINE
  5
   4EF
  8
0
  6
CONTINUOUS
 62
     5
 10
-524.811865077366
 20
67.2821529606158
 30
0.0
 11
-525.211864695897
 21
67.2821529606158
 31
0.0
  0
LINE
  5
   4F0
  8
0
  6
CONTINUOUS
 62
    98
 10
-525.711864695897
 20
69.0321529606158
 30
0.0
 11
-527.711864695897
 21
69.0321529606158
 31
0.0
  0
LINE
  5
   4F1
  8
0
  6
CONTINUOUS
 62
    98
 10
-525.711864695897
 20
73.0321529606158
 30
0.0
 11
-527.711864695897
 21
73.0321529606158
 31
0.0
  0
LINE
  5
   4F2
  8
0
  6
CONTINUOUS
 62
     7
 10
-525.211863742222
 20
69.5321529606158
 30
0.0
 11
-525.711864695897
 21
69.5321529606158
 31
0.0
  0
LINE
  5
   4F3
  8
0
  6
CONTINUOUS
 62
     7
 10
-525.211864695897
 20
72.5321529606158
 30
0.0
 11
-525.711864695897
 21
72.5321529606158
 31
0.0
  0
POINT
  5
   4F4
  8
0
  6
CONTINUOUS
 62
     7
 10
-527.711864695897
 20
71.0321529606158
 30
0.0
  0
LINE
  5
   4F5
  8
0
  6
CONTINUOUS
 62
     5
 10
-524.811865077366
 20
74.7821529606158
 30
0.0
 11
-525.211864695897
 21
74.7821529606158
 31
0.0
  0
LINE
  5
   4F6
  8
0
  6
CONTINUOUS
 62
     2
 10
-527.711864695897
 20
75.0321529606158
 30
0.0
 11
-551.711864695897
 21
75.0321529606158
 31
0.0
  0
LINE
  5
   4F7
  8
0
  6
CONTINUOUS
 62
     7
 10
-554.711864695897
 20
65.5321529606158
 30
0.0
 11
-554.711864695897
 21
76.5321529606158
 31
0.0
  0
LINE
  5
   4F8
  8
0
  6
CONTINUOUS
 62
     7
 10
-555.961864695897
 20
65.5321529606158
 30
0.0
 11
-555.961864695897
 21
76.5321529606158
 31
0.0
  0
LINE
  5
   4F9
  8
0
  6
CONTINUOUS
 62
     7
 10
-557.211864695897
 20
65.5321529606158
 30
0.0
 11
-557.211864695897
 21
76.5321529606158
 31
0.0
  0
LINE
  5
   4FA
  8
0
  6
CONTINUOUS
 62
     7
 10
-558.461864695897
 20
65.5321529606158
 30
0.0
 11
-558.461864695897
 21
76.5321529606158
 31
0.0
  0
LINE
  5
   4FB
  8
0
  6
CONTINUOUS
 62
     3
 10
-561.461864695897
 20
65.5473278263384
 30
0.0
 11
-561.461864695897
 21
76.5169780948931
 31
0.0
  0
LINE
  5
   4FC
  8
0
  6
CONTINUOUS
 62
    98
 10
-565.211864695897
 20
68.5321529606158
 30
0.0
 11
-565.211864695897
 21
73.5321529606158
 31
0.0
  0
LINE
  5
   4FD
  8
0
  6
CONTINUOUS
 62
     7
 10
-554.711864695897
 20
76.5321529606158
 30
0.0
 11
-555.961864695897
 21
76.5321529606158
 31
0.0
  0
LINE
  5
   4FE
  8
0
  6
CONTINUOUS
 62
     7
 10
-554.711864695897
 20
65.5321529606158
 30
0.0
 11
-555.961864695897
 21
65.5321529606158
 31
0.0
  0
LINE
  5
   4FF
  8
0
  6
CONTINUOUS
 62
     7
 10
-557.211864695897
 20
76.5321529606158
 30
0.0
 11
-558.461864695897
 21
76.5321529606158
 31
0.0
  0
LINE
  5
   500
  8
0
  6
CONTINUOUS
 62
     7
 10
-557.211864695897
 20
65.5321529606158
 30
0.0
 11
-558.461864695897
 21
65.5321529606158
 31
0.0
  0
LINE
  5
   501
  8
0
  6
CONTINUOUS
 62
     3
 10
-551.711864695897
 20
68.2897365787798
 30
0.0
 11
-554.711864695897
 21
68.2897365787798
 31
0.0
  0
LINE
  5
   502
  8
0
  6
CONTINUOUS
 62
     3
 10
-551.711864695897
 20
65.5473278263384
 30
0.0
 11
-554.711864695897
 21
65.5473278263384
 31
0.0
  0
LINE
  5
   503
  8
0
  6
CONTINUOUS
 62
     3
 10
-551.711864695897
 20
76.5169780948931
 30
0.0
 11
-554.711864695897
 21
76.5169780948931
 31
0.0
  0
LINE
  5
   504
  8
0
  6
CONTINUOUS
 62
     3
 10
-551.711864695897
 20
73.7745693424517
 30
0.0
 11
-554.711864695897
 21
73.7745693424517
 31
0.0
  0
LINE
  5
   505
  8
0
  6
CONTINUOUS
 62
     3
 10
-558.461864695897
 20
68.2897365787798
 30
0.0
 11
-561.461864695897
 21
68.2897365787798
 31
0.0
  0
LINE
  5
   506
  8
0
  6
CONTINUOUS
 62
     3
 10
-558.461864695897
 20
65.5473278263384
 30
0.0
 11
-561.461864695897
 21
65.5473278263384
 31
0.0
  0
LINE
  5
   507
  8
0
  6
CONTINUOUS
 62
     3
 10
-558.461864695897
 20
76.5169780948931
 30
0.0
 11
-561.461864695897
 21
76.5169780948931
 31
0.0
  0
LINE
  5
   508
  8
0
  6
CONTINUOUS
 62
     3
 10
-558.461864695897
 20
73.7745693424517
 30
0.0
 11
-561.461864695897
 21
73.7745693424517
 31
0.0
  0
LINE
  5
   509
  8
0
  6
CONTINUOUS
 62
    98
 10
-564.711863358844
 20
68.0321507977998
 30
0.0
 11
-565.21186334173
 21
68.5321507806855
 31
0.0
  0
LINE
  5
   50A
  8
0
  6
CONTINUOUS
 62
    98
 10
-565.211864680922
 20
73.532151122971
 30
0.0
 11
-564.711864698036
 21
74.0321511058567
 31
0.0
  0
LINE
  5
   50B
  8
0
  6
CONTINUOUS
 62
    98
 10
-561.461864695897
 20
68.0321529606158
 30
0.0
 11
-564.711864695897
 21
68.0321529606158
 31
0.0
  0
LINE
  5
   50C
  8
0
  6
CONTINUOUS
 62
    98
 10
-555.961864695897
 20
68.0321529606158
 30
0.0
 11
-557.211864695897
 21
68.0321529606158
 31
0.0
  0
LINE
  5
   50D
  8
0
  6
CONTINUOUS
 62
    98
 10
-564.711864695897
 20
68.0321529606158
 30
0.0
 11
-564.711864695897
 21
68.0898006656939
 31
0.0
  0
LINE
  5
   50E
  8
0
  6
CONTINUOUS
 62
    98
 10
-564.711864695897
 20
68.0898006656939
 30
0.0
 11
-564.711864695897
 21
68.2605159977252
 31
0.0
  0
LINE
  5
   50F
  8
0
  6
CONTINUOUS
 62
    98
 10
-564.711864695897
 20
68.2605159977252
 30
0.0
 11
-564.711864695897
 21
68.5377453068072
 31
0.0
  0
LINE
  5
   510
  8
0
  6
CONTINUOUS
 62
    98
 10
-564.711864695897
 20
68.5377453068072
 30
0.0
 11
-564.711864695897
 21
68.9108303287798
 31
0.0
  0
LINE
  5
   511
  8
0
  6
CONTINUOUS
 62
    98
 10
-564.711864695897
 20
68.9108303287798
 30
0.0
 11
-564.711864695897
 21
69.3654430607134
 31
0.0
  0
LINE
  5
   512
  8
0
  6
CONTINUOUS
 62
    98
 10
-564.711864695897
 20
69.3654430607134
 30
0.0
 11
-564.711864695897
 21
69.8841045597369
 31
0.0
  0
LINE
  5
   513
  8
0
  6
CONTINUOUS
 62
    98
 10
-564.711864695897
 20
69.8841045597369
 30
0.0
 11
-564.711864695897
 21
70.44687921794
 31
0.0
  0
LINE
  5
   514
  8
0
  6
CONTINUOUS
 62
    98
 10
-564.711864695897
 20
70.44687921794
 30
0.0
 11
-564.711864695897
 21
71.0321529606158
 31
0.0
  0
LINE
  5
   515
  8
0
  6
CONTINUOUS
 62
    98
 10
-564.711864695897
 20
71.0321529606158
 30
0.0
 11
-564.711864695897
 21
71.6174267032916
 31
0.0
  0
LINE
  5
   516
  8
0
  6
CONTINUOUS
 62
    98
 10
-564.711864695897
 20
71.6174267032916
 30
0.0
 11
-564.711864695897
 21
72.1802013614947
 31
0.0
  0
LINE
  5
   517
  8
0
  6
CONTINUOUS
 62
    98
 10
-564.711864695897
 20
72.1802013614947
 30
0.0
 11
-564.711864695897
 21
72.6988628605181
 31
0.0
  0
LINE
  5
   518
  8
0
  6
CONTINUOUS
 62
    98
 10
-564.711864695897
 20
72.6988628605181
 30
0.0
 11
-564.711864695897
 21
73.1534755924517
 31
0.0
  0
LINE
  5
   519
  8
0
  6
CONTINUOUS
 62
    98
 10
-564.711864695897
 20
73.1534755924517
 30
0.0
 11
-564.711864695897
 21
73.5265606144244
 31
0.0
  0
LINE
  5
   51A
  8
0
  6
CONTINUOUS
 62
    98
 10
-564.711864695897
 20
73.5265606144244
 30
0.0
 11
-564.711864695897
 21
73.8037899235064
 31
0.0
  0
LINE
  5
   51B
  8
0
  6
CONTINUOUS
 62
    98
 10
-564.711864695897
 20
73.8037899235064
 30
0.0
 11
-564.711864695897
 21
73.9745052555377
 31
0.0
  0
LINE
  5
   51C
  8
0
  6
CONTINUOUS
 62
    98
 10
-561.461864695897
 20
74.0321529606158
 30
0.0
 11
-564.711864695897
 21
74.0321529606158
 31
0.0
  0
LINE
  5
   51D
  8
0
  6
CONTINUOUS
 62
    98
 10
-555.961864695897
 20
74.0321529606158
 30
0.0
 11
-557.211864695897
 21
74.0321529606158
 31
0.0
  0
LINE
  5
   51E
  8
0
  6
CONTINUOUS
 62
    98
 10
-564.711864695897
 20
73.9745052555377
 30
0.0
 11
-564.711864695897
 21
74.0321529606158
 31
0.0
  0
LINE
  5
   51F
  8
0
  6
CONTINUOUS
 62
     2
 10
-555.961864695897
 20
75.0321529606158
 30
0.0
 11
-557.211864695897
 21
75.0321529606158
 31
0.0
  0
LINE
  5
   520
  8
0
  6
CONTINUOUS
 62
     2
 10
-561.461862788548
 20
75.0321529606158
 30
0.0
 11
-574.211864695897
 21
75.0321529606158
 31
0.0
  0
LINE
  5
   521
  8
0
  6
CONTINUOUS
 62
     2
 10
-555.961864695897
 20
67.0321529606158
 30
0.0
 11
-557.211864695897
 21
67.0321529606158
 31
0.0
  0
LINE
  5
   522
  8
0
  6
CONTINUOUS
 62
     2
 10
-561.461866603245
 20
67.0321529606158
 30
0.0
 11
-574.211864695897
 21
67.0321529606158
 31
0.0
  0
LINE
  5
   523
  8
0
  6
CONTINUOUS
 62
     3
 10
-551.711864695897
 20
65.5473278263384
 30
0.0
 11
-551.711864695897
 21
76.5169780948931
 31
0.0
  0
LINE
  5
   524
  8
0
  6
CONTINUOUS
 62
     7
 10
-579.711864695897
 20
65.5321529606158
 30
0.0
 11
-579.711864695897
 21
76.5321529606158
 31
0.0
  0
LINE
  5
   525
  8
0
  6
CONTINUOUS
 62
     7
 10
-580.961864695897
 20
65.5321529606158
 30
0.0
 11
-580.961864695897
 21
76.5321529606158
 31
0.0
  0
LINE
  5
   526
  8
0
  6
CONTINUOUS
 62
     7
 10
-577.211864695897
 20
65.5321529606158
 30
0.0
 11
-577.211864695897
 21
76.5321529606158
 31
0.0
  0
LINE
  5
   527
  8
0
  6
CONTINUOUS
 62
     7
 10
-578.461864695897
 20
65.5321529606158
 30
0.0
 11
-578.461864695897
 21
76.5321529606158
 31
0.0
  0
LINE
  5
   528
  8
0
  6
CONTINUOUS
 62
     3
 10
-574.211864695897
 20
65.5473278263384
 30
0.0
 11
-574.211864695897
 21
76.5169780948931
 31
0.0
  0
LINE
  5
   529
  8
0
  6
CONTINUOUS
 62
     3
 10
-583.961864695897
 20
65.5473278263384
 30
0.0
 11
-583.961864695897
 21
76.5169780948931
 31
0.0
  0
LINE
  5
   52A
  8
0
  6
CONTINUOUS
 62
     7
 10
-579.711864695897
 20
76.5321529606158
 30
0.0
 11
-580.961864695897
 21
76.5321529606158
 31
0.0
  0
LINE
  5
   52B
  8
0
  6
CONTINUOUS
 62
     7
 10
-579.711864695897
 20
65.5321529606158
 30
0.0
 11
-580.961864695897
 21
65.5321529606158
 31
0.0
  0
LINE
  5
   52C
  8
0
  6
CONTINUOUS
 62
     7
 10
-577.211864695897
 20
76.5321529606158
 30
0.0
 11
-578.461864695897
 21
76.5321529606158
 31
0.0
  0
LINE
  5
   52D
  8
0
  6
CONTINUOUS
 62
     7
 10
-577.211864695897
 20
65.5321529606158
 30
0.0
 11
-578.461864695897
 21
65.5321529606158
 31
0.0
  0
LINE
  5
   52E
  8
0
  6
CONTINUOUS
 62
     3
 10
-574.211864695897
 20
68.2897365787798
 30
0.0
 11
-577.211864695897
 21
68.2897365787798
 31
0.0
  0
LINE
  5
   52F
  8
0
  6
CONTINUOUS
 62
     3
 10
-574.211864695897
 20
65.5473278263384
 30
0.0
 11
-577.211864695897
 21
65.5473278263384
 31
0.0
  0
LINE
  5
   530
  8
0
  6
CONTINUOUS
 62
     3
 10
-574.211864695897
 20
76.5169780948931
 30
0.0
 11
-577.211864695897
 21
76.5169780948931
 31
0.0
  0
LINE
  5
   531
  8
0
  6
CONTINUOUS
 62
     3
 10
-574.211864695897
 20
73.7745693424517
 30
0.0
 11
-577.211864695897
 21
73.7745693424517
 31
0.0
  0
LINE
  5
   532
  8
0
  6
CONTINUOUS
 62
     3
 10
-580.961864695897
 20
68.2897365787798
 30
0.0
 11
-583.961864695897
 21
68.2897365787798
 31
0.0
  0
LINE
  5
   533
  8
0
  6
CONTINUOUS
 62
     3
 10
-580.961864695897
 20
65.5473278263384
 30
0.0
 11
-583.961864695897
 21
65.5473278263384
 31
0.0
  0
LINE
  5
   534
  8
0
  6
CONTINUOUS
 62
     3
 10
-580.961864695897
 20
76.5169780948931
 30
0.0
 11
-583.961864695897
 21
76.5169780948931
 31
0.0
  0
LINE
  5
   535
  8
0
  6
CONTINUOUS
 62
     3
 10
-580.961864695897
 20
73.7745693424517
 30
0.0
 11
-583.961864695897
 21
73.7745693424517
 31
0.0
  0
LINE
  5
   536
  8
0
  6
CONTINUOUS
 62
    98
 10
-583.961864695897
 20
68.0321529606158
 30
0.0
 11
-587.211864695897
 21
68.0321529606158
 31
0.0
  0
LINE
  5
   537
  8
0
  6
CONTINUOUS
 62
    98
 10
-578.461864695897
 20
68.0321529606158
 30
0.0
 11
-579.711864695897
 21
68.0321529606158
 31
0.0
  0
LINE
  5
   538
  8
0
  6
CONTINUOUS
 62
    98
 10
-583.961864695897
 20
74.0321529606158
 30
0.0
 11
-587.211864695897
 21
74.0321529606158
 31
0.0
  0
LINE
  5
   539
  8
0
  6
CONTINUOUS
 62
    98
 10
-578.461864695897
 20
74.0321529606158
 30
0.0
 11
-579.711864695897
 21
74.0321529606158
 31
0.0
  0
LINE
  5
   53A
  8
0
  6
CONTINUOUS
 62
    98
 10
-587.211862781238
 20
68.0321506052643
 30
0.0
 11
-587.711862764123
 21
68.53215058815
 31
0.0
  0
LINE
  5
   53B
  8
0
  6
CONTINUOUS
 62
    98
 10
-587.211864695897
 20
70.44687921794
 30
0.0
 11
-587.211864695897
 21
71.0321529606158
 31
0.0
  0
LINE
  5
   53C
  8
0
  6
CONTINUOUS
 62
    98
 10
-587.711864695897
 20
68.5321529606158
 30
0.0
 11
-587.711864695897
 21
73.5321529606158
 31
0.0
  0
LINE
  5
   53D
  8
0
  6
CONTINUOUS
 62
    98
 10
-587.711864103315
 20
73.5321513155065
 30
0.0
 11
-587.211864120429
 21
74.0321512983923
 31
0.0
  0
LINE
  5
   53E
  8
0
  6
CONTINUOUS
 62
    98
 10
-587.211864695897
 20
71.6174267032916
 30
0.0
 11
-587.211864695897
 21
72.1802013614947
 31
0.0
  0
LINE
  5
   53F
  8
0
  6
CONTINUOUS
 62
    98
 10
-587.211864695897
 20
71.0321529606158
 30
0.0
 11
-587.211864695897
 21
71.6174267032916
 31
0.0
  0
LINE
  5
   540
  8
0
  6
CONTINUOUS
 62
    98
 10
-587.211864695897
 20
72.1802013614947
 30
0.0
 11
-587.211864695897
 21
72.6988628605181
 31
0.0
  0
LINE
  5
   541
  8
0
  6
CONTINUOUS
 62
    98
 10
-587.211864695897
 20
73.1534755924517
 30
0.0
 11
-587.211864695897
 21
73.5265606144244
 31
0.0
  0
LINE
  5
   542
  8
0
  6
CONTINUOUS
 62
    98
 10
-587.211864695897
 20
73.5265606144244
 30
0.0
 11
-587.211864695897
 21
73.8037899235064
 31
0.0
  0
LINE
  5
   543
  8
0
  6
CONTINUOUS
 62
    98
 10
-587.211864695897
 20
73.9745052555377
 30
0.0
 11
-587.211864695897
 21
74.0321529606158
 31
0.0
  0
LINE
  5
   544
  8
0
  6
CONTINUOUS
 62
    98
 10
-587.211864695897
 20
69.3654430607134
 30
0.0
 11
-587.211864695897
 21
69.8841045597369
 31
0.0
  0
LINE
  5
   545
  8
0
  6
CONTINUOUS
 62
    98
 10
-587.211864695897
 20
69.8841045597369
 30
0.0
 11
-587.211864695897
 21
70.44687921794
 31
0.0
  0
LINE
  5
   546
  8
0
  6
CONTINUOUS
 62
    98
 10
-587.211864695897
 20
72.6988628605181
 30
0.0
 11
-587.211864695897
 21
73.1534755924517
 31
0.0
  0
LINE
  5
   547
  8
0
  6
CONTINUOUS
 62
    98
 10
-587.211864695897
 20
73.8037899235064
 30
0.0
 11
-587.211864695897
 21
73.9745052555377
 31
0.0
  0
LINE
  5
   548
  8
0
  6
CONTINUOUS
 62
    98
 10
-587.211864695897
 20
68.0321529606158
 30
0.0
 11
-587.211864695897
 21
68.0898006656939
 31
0.0
  0
LINE
  5
   549
  8
0
  6
CONTINUOUS
 62
    98
 10
-587.211864695897
 20
68.0898006656939
 30
0.0
 11
-587.211864695897
 21
68.2605159977252
 31
0.0
  0
LINE
  5
   54A
  8
0
  6
CONTINUOUS
 62
    98
 10
-587.211864695897
 20
68.2605159977252
 30
0.0
 11
-587.211864695897
 21
68.5377453068072
 31
0.0
  0
LINE
  5
   54B
  8
0
  6
CONTINUOUS
 62
    98
 10
-587.211864695897
 20
68.5377453068072
 30
0.0
 11
-587.211864695897
 21
68.9108303287798
 31
0.0
  0
LINE
  5
   54C
  8
0
  6
CONTINUOUS
 62
    98
 10
-587.211864695897
 20
68.9108303287798
 30
0.0
 11
-587.211864695897
 21
69.3654430607134
 31
0.0
  0
LINE
  5
   54D
  8
0
  6
CONTINUOUS
 62
     7
 10
-583.961864695897
 20
73.5321513155065
 30
0.0
 11
-587.711864103315
 21
73.5321513155065
 31
0.0
  0
LINE
  5
   54E
  8
0
  6
CONTINUOUS
 62
     7
 10
-583.961864695897
 20
68.5321529606158
 30
0.0
 11
-587.711864695897
 21
68.5321529606158
 31
0.0
  0
LINE
  5
   54F
  8
0
  6
CONTINUOUS
 62
     7
 10
-561.461864695897
 20
73.532151122971
 30
0.0
 11
-565.211864680922
 21
73.532151122971
 31
0.0
  0
LINE
  5
   550
  8
0
  6
CONTINUOUS
 62
     7
 10
-561.461864695897
 20
68.5321507806855
 30
0.0
 11
-565.21186334173
 21
68.5321507806855
 31
0.0
  0
LINE
  5
   551
  8
0
  6
CONTINUOUS
 62
     7
 10
-555.961864695897
 20
73.5321529606158
 30
0.0
 11
-557.211864695897
 21
73.5321529606158
 31
0.0
  0
LINE
  5
   552
  8
0
  6
CONTINUOUS
 62
     7
 10
-555.961864695897
 20
68.5321529606158
 30
0.0
 11
-557.211864695897
 21
68.5321529606158
 31
0.0
  0
LINE
  5
   553
  8
0
  6
CONTINUOUS
 62
     7
 10
-578.461864695897
 20
73.5321529606158
 30
0.0
 11
-579.711864695897
 21
73.5321529606158
 31
0.0
  0
LINE
  5
   554
  8
0
  6
CONTINUOUS
 62
     7
 10
-578.461864695897
 20
68.5321529606158
 30
0.0
 11
-579.711864695897
 21
68.5321529606158
 31
0.0
  0
POINT
  5
   555
  8
0
  6
CONTINUOUS
 62
     7
 10
-565.211864695897
 20
-37.9678981998736
 30
0.0
  0
LINE
  5
   556
  8
0
  6
CONTINUOUS
 62
     7
 10
-554.711864695897
 20
-43.4678981998736
 30
0.0
 11
-554.711864695897
 21
-32.4678981998736
 31
0.0
  0
LINE
  5
   557
  8
0
  6
CONTINUOUS
 62
     7
 10
-555.961864695897
 20
-43.4678981998736
 30
0.0
 11
-555.961864695897
 21
-32.4678981998736
 31
0.0
  0
LINE
  5
   558
  8
0
  6
CONTINUOUS
 62
     7
 10
-557.211864695897
 20
-43.4678981998736
 30
0.0
 11
-557.211864695897
 21
-32.4678981998736
 31
0.0
  0
LINE
  5
   559
  8
0
  6
CONTINUOUS
 62
     7
 10
-558.461864695897
 20
-43.4678981998736
 30
0.0
 11
-558.461864695897
 21
-32.4678981998736
 31
0.0
  0
LINE
  5
   55A
  8
0
  6
CONTINUOUS
 62
     3
 10
-561.461864695897
 20
-43.4527233341509
 30
0.0
 11
-561.461864695897
 21
-32.4830730655962
 31
0.0
  0
LINE
  5
   55B
  8
0
  6
CONTINUOUS
 62
    98
 10
-565.211864695897
 20
-40.4678981998736
 30
0.0
 11
-565.211864695897
 21
-35.4678981998736
 31
0.0
  0
LINE
  5
   55C
  8
0
  6
CONTINUOUS
 62
     7
 10
-554.711864695897
 20
-32.4678981998736
 30
0.0
 11
-555.961864695897
 21
-32.4678981998736
 31
0.0
  0
LINE
  5
   55D
  8
0
  6
CONTINUOUS
 62
     7
 10
-554.711864695897
 20
-43.4678981998736
 30
0.0
 11
-555.961864695897
 21
-43.4678981998736
 31
0.0
  0
LINE
  5
   55E
  8
0
  6
CONTINUOUS
 62
     7
 10
-557.211864695897
 20
-32.4678981998736
 30
0.0
 11
-558.461864695897
 21
-32.4678981998736
 31
0.0
  0
LINE
  5
   55F
  8
0
  6
CONTINUOUS
 62
     7
 10
-557.211864695897
 20
-43.4678981998736
 30
0.0
 11
-558.461864695897
 21
-43.4678981998736
 31
0.0
  0
LINE
  5
   560
  8
0
  6
CONTINUOUS
 62
     3
 10
-551.711864695897
 20
-40.7103145817095
 30
0.0
 11
-554.711864695897
 21
-40.7103145817095
 31
0.0
  0
LINE
  5
   561
  8
0
  6
CONTINUOUS
 62
     3
 10
-551.711864695897
 20
-43.4527233341509
 30
0.0
 11
-554.711864695897
 21
-43.4527233341509
 31
0.0
  0
LINE
  5
   562
  8
0
  6
CONTINUOUS
 62
     3
 10
-551.711864695897
 20
-32.4830730655962
 30
0.0
 11
-554.711864695897
 21
-32.4830730655962
 31
0.0
  0
LINE
  5
   563
  8
0
  6
CONTINUOUS
 62
     3
 10
-551.711864695897
 20
-35.2254818180377
 30
0.0
 11
-554.711864695897
 21
-35.2254818180377
 31
0.0
  0
LINE
  5
   564
  8
0
  6
CONTINUOUS
 62
     3
 10
-558.461864695897
 20
-40.7103145817095
 30
0.0
 11
-561.461864695897
 21
-40.7103145817095
 31
0.0
  0
LINE
  5
   565
  8
0
  6
CONTINUOUS
 62
     3
 10
-558.461864695897
 20
-43.4527233341509
 30
0.0
 11
-561.461864695897
 21
-43.4527233341509
 31
0.0
  0
LINE
  5
   566
  8
0
  6
CONTINUOUS
 62
     3
 10
-558.461864695897
 20
-32.4830730655962
 30
0.0
 11
-561.461864695897
 21
-32.4830730655962
 31
0.0
  0
LINE
  5
   567
  8
0
  6
CONTINUOUS
 62
     3
 10
-558.461864695897
 20
-35.2254818180377
 30
0.0
 11
-561.461864695897
 21
-35.2254818180377
 31
0.0
  0
LINE
  5
   568
  8
0
  6
CONTINUOUS
 62
    98
 10
-564.711863358844
 20
-40.9679003626896
 30
0.0
 11
-565.21186334173
 21
-40.4679003798038
 31
0.0
  0
LINE
  5
   569
  8
0
  6
CONTINUOUS
 62
    98
 10
-565.211864680922
 20
-35.4679000375184
 30
0.0
 11
-564.711864698036
 21
-34.9679000546327
 31
0.0
  0
LINE
  5
   56A
  8
0
  6
CONTINUOUS
 62
    98
 10
-561.461864695897
 20
-40.9678981998736
 30
0.0
 11
-564.711864695897
 21
-40.9678981998736
 31
0.0
  0
LINE
  5
   56B
  8
0
  6
CONTINUOUS
 62
    98
 10
-555.961864695897
 20
-40.9678981998736
 30
0.0
 11
-557.211864695897
 21
-40.9678981998736
 31
0.0
  0
LINE
  5
   56C
  8
0
  6
CONTINUOUS
 62
    98
 10
-564.711864695897
 20
-40.9678981998736
 30
0.0
 11
-564.711864695897
 21
-40.9102504947955
 31
0.0
  0
LINE
  5
   56D
  8
0
  6
CONTINUOUS
 62
    98
 10
-564.711864695897
 20
-40.9102504947955
 30
0.0
 11
-564.711864695897
 21
-40.7395351627642
 31
0.0
  0
LINE
  5
   56E
  8
0
  6
CONTINUOUS
 62
    98
 10
-564.711864695897
 20
-40.7395351627642
 30
0.0
 11
-564.711864695897
 21
-40.4623058536822
 31
0.0
  0
LINE
  5
   56F
  8
0
  6
CONTINUOUS
 62
    98
 10
-564.711864695897
 20
-40.4623058536822
 30
0.0
 11
-564.711864695897
 21
-40.0892208317095
 31
0.0
  0
LINE
  5
   570
  8
0
  6
CONTINUOUS
 62
    98
 10
-564.711864695897
 20
-40.0892208317095
 30
0.0
 11
-564.711864695897
 21
-39.6346080997759
 31
0.0
  0
LINE
  5
   571
  8
0
  6
CONTINUOUS
 62
    98
 10
-564.711864695897
 20
-39.6346080997759
 30
0.0
 11
-564.711864695897
 21
-39.1159466007525
 31
0.0
  0
LINE
  5
   572
  8
0
  6
CONTINUOUS
 62
    98
 10
-564.711864695897
 20
-39.1159466007525
 30
0.0
 11
-564.711864695897
 21
-38.5531719425494
 31
0.0
  0
LINE
  5
   573
  8
0
  6
CONTINUOUS
 62
    98
 10
-564.711864695897
 20
-38.5531719425494
 30
0.0
 11
-564.711864695897
 21
-37.9678981998736
 31
0.0
  0
LINE
  5
   574
  8
0
  6
CONTINUOUS
 62
    98
 10
-564.711864695897
 20
-37.9678981998736
 30
0.0
 11
-564.711864695897
 21
-37.3826244571978
 31
0.0
  0
LINE
  5
   575
  8
0
  6
CONTINUOUS
 62
    98
 10
-564.711864695897
 20
-37.3826244571978
 30
0.0
 11
-564.711864695897
 21
-36.8198497989947
 31
0.0
  0
LINE
  5
   576
  8
0
  6
CONTINUOUS
 62
    98
 10
-564.711864695897
 20
-36.8198497989947
 30
0.0
 11
-564.711864695897
 21
-36.3011882999712
 31
0.0
  0
LINE
  5
   577
  8
0
  6
CONTINUOUS
 62
    98
 10
-564.711864695897
 20
-36.3011882999712
 30
0.0
 11
-564.711864695897
 21
-35.8465755680377
 31
0.0
  0
LINE
  5
   578
  8
0
  6
CONTINUOUS
 62
    98
 10
-564.711864695897
 20
-35.8465755680377
 30
0.0
 11
-564.711864695897
 21
-35.473490546065
 31
0.0
  0
LINE
  5
   579
  8
0
  6
CONTINUOUS
 62
    98
 10
-564.711864695897
 20
-35.473490546065
 30
0.0
 11
-564.711864695897
 21
-35.196261236983
 31
0.0
  0
LINE
  5
   57A
  8
0
  6
CONTINUOUS
 62
    98
 10
-564.711864695897
 20
-35.196261236983
 30
0.0
 11
-564.711864695897
 21
-35.0255459049517
 31
0.0
  0
LINE
  5
   57B
  8
0
  6
CONTINUOUS
 62
    98
 10
-561.461864695897
 20
-34.9678981998736
 30
0.0
 11
-564.711864695897
 21
-34.9678981998736
 31
0.0
  0
LINE
  5
   57C
  8
0
  6
CONTINUOUS
 62
    98
 10
-555.961864695897
 20
-34.9678981998736
 30
0.0
 11
-557.211864695897
 21
-34.9678981998736
 31
0.0
  0
LINE
  5
   57D
  8
0
  6
CONTINUOUS
 62
    98
 10
-564.711864695897
 20
-35.0255459049517
 30
0.0
 11
-564.711864695897
 21
-34.9678981998736
 31
0.0
  0
LINE
  5
   57E
  8
0
  6
CONTINUOUS
 62
     2
 10
-555.961864695897
 20
-33.9678981998736
 30
0.0
 11
-557.211864695897
 21
-33.9678981998736
 31
0.0
  0
LINE
  5
   57F
  8
0
  6
CONTINUOUS
 62
     2
 10
-555.961864695897
 20
-41.9678981998736
 30
0.0
 11
-557.211864695897
 21
-41.9678981998736
 31
0.0
  0
LINE
  5
   580
  8
0
  6
CONTINUOUS
 62
     3
 10
-551.711864695897
 20
-43.4527233341509
 30
0.0
 11
-551.711864695897
 21
-32.4830730655962
 31
0.0
  0
LINE
  5
   581
  8
0
  6
CONTINUOUS
 62
     7
 10
-561.461864695897
 20
-35.4679000375184
 30
0.0
 11
-565.211864680922
 21
-35.4679000375184
 31
0.0
  0
LINE
  5
   582
  8
0
  6
CONTINUOUS
 62
     7
 10
-561.461864695897
 20
-40.4679003798038
 30
0.0
 11
-565.21186334173
 21
-40.4679003798038
 31
0.0
  0
LINE
  5
   583
  8
0
  6
CONTINUOUS
 62
     7
 10
-555.961864695897
 20
-35.4678981998736
 30
0.0
 11
-557.211864695897
 21
-35.4678981998736
 31
0.0
  0
LINE
  5
   584
  8
0
  6
CONTINUOUS
 62
     7
 10
-555.961864695897
 20
-40.4678981998736
 30
0.0
 11
-557.211864695897
 21
-40.4678981998736
 31
0.0
  0
LINE
  5
   585
  8
0
  6
CONTINUOUS
 62
     2
 10
-561.461864695897
 20
-33.9678470393842
 30
0.0
 11
-574.211864695897
 21
-33.9678470393842
 31
0.0
  0
LINE
  5
   586
  8
0
  6
CONTINUOUS
 62
     2
 10
-561.461864695897
 20
-41.9678470393842
 30
0.0
 11
-574.211864695897
 21
-41.9678470393842
 31
0.0
  0
INSERT
  5
   587
  8
0
  6
CONTINUOUS
 62
     7
  2
*UDIM1979
 10
0.0
 20
0.0
 30
0.0
  0
INSERT
  5
   588
  8
0
  6
CONTINUOUS
 62
     7
  2
*UDIM1980
 10
0.0
 20
0.0
 30
0.0
  0
INSERT
  5
   589
  8
0
  6
CONTINUOUS
 62
     7
  2
*UDIM1981
 10
0.0
 20
0.0
 30
0.0
  0
INSERT
  5
   58A
  8
0
  6
CONTINUOUS
 62
     7
  2
*UDIM1982
 10
0.0
 20
0.0
 30
0.0
  0
INSERT
  5
   58B
  8
0
  6
CONTINUOUS
 62
     7
  2
*UDIM1983
 10
0.0
 20
0.0
 30
0.0
  0
INSERT
  5
   58C
  8
0
  6
CONTINUOUS
 62
     7
  2
*UDIM1984
 10
0.0
 20
0.0
 30
0.0
  0
INSERT
  5
   58D
  8
0
  6
CONTINUOUS
 62
     7
  2
*UDIM1985
 10
0.0
 20
0.0
 30
0.0
  0
INSERT
  5
   58E
  8
0
  6
CONTINUOUS
 62
     7
  2
*UDIM1986
 10
0.0
 20
0.0
 30
0.0
  0
INSERT
  5
   58F
  8
0
  6
CONTINUOUS
 62
     7
  2
*UDIM1987
 10
0.0
 20
0.0
 30
0.0
  0
INSERT
  5
   590
  8
0
  6
CONTINUOUS
 62
     5
  2
*UDIM1988
 10
0.0
 20
0.0
 30
0.0
  0
TEXT
  5
   591
  8
0
  6
CONTINUOUS
 62
     5
 10
-447.015247357175
 20
3.19864051951212
 30
0.0
 40
3.00000002980232
  1
=        =
 50
89.9999999480344
 41
0.916666604744064
 72
     2
 11
-447.015247332766
 21
30.1486389623408
 31
0.0
  0
INSERT
  5
   592
  8
0
  6
CONTINUOUS
 62
     7
  2
*UDIM1989
 10
0.0
 20
0.0
 30
0.0
  0
INSERT
  5
   593
  8
0
  6
CONTINUOUS
 62
     7
  2
*UDIM1990
 10
0.0
 20
0.0
 30
0.0
  0
TEXT
  5
   594
  8
0
  6
CONTINUOUS
 62
     7
 10
-442.810489566486
 20
16.0361335820929
 30
0.0
 40
3.00000002980232
  1
X
 50
359.999999948034
 41
0.916666604744064
 72
     1
 11
-441.710489630698
 21
17.5361335960019
 31
0.0
 73
     2
  0
LINE
  5
   595
  8
0
  6
CONTINUOUS
 62
     7
 10
-687.202472869034
 20
-8.84285354614258
 30
0.0
 11
-692.202472869034
 21
-8.84285354614258
 31
0.0
  0
LINE
  5
   596
  8
0
  6
CONTINUOUS
 62
     7
 10
-699.702472869034
 20
42.6571311950683
 30
0.0
 11
-699.702472869034
 21
43.6571311950684
 31
0.0
  0
LINE
  5
   597
  8
0
  6
CONTINUOUS
 62
     7
 10
-692.202472869034
 20
-8.84285354614258
 30
0.0
 11
-699.702472869034
 21
-8.84285354614258
 31
0.0
  0
LINE
  5
   598
  8
0
  6
CONTINUOUS
 62
     7
 10
-673.452488127823
 20
-8.84285354614258
 30
0.0
 11
-687.202472869034
 21
-8.84285354614258
 31
0.0
  0
LINE
  5
   599
  8
0
  6
CONTINUOUS
 62
    52
 10
-654.702503386612
 20
-8.84285354614258
 30
0.0
 11
-659.702503386612
 21
-8.84285354614258
 31
0.0
  0
LINE
  5
   59A
  8
0
  6
CONTINUOUS
 62
    52
 10
-647.202503386612
 20
-8.84285354614258
 30
0.0
 11
-654.702503386612
 21
-8.84285354614258
 31
0.0
  0
LINE
  5
   59B
  8
0
  6
CONTINUOUS
 62
    52
 10
-659.702503386612
 20
-8.84285354614258
 30
0.0
 11
-673.452488127823
 21
-8.84285354614258
 31
0.0
  0
LINE
  5
   59C
  8
0
  6
CONTINUOUS
 62
     7
 10
-684.827481758335
 20
68.0321159362704
 30
0.0
 11
-698.45247412894
 21
68.0321159362704
 31
0.0
  0
LINE
  5
   59D
  8
0
  6
CONTINUOUS
 62
     7
 10
-667.327497187729
 20
68.0321159362793
 30
0.0
 11
-679.577489558335
 21
68.0321159362793
 31
0.0
  0
LINE
  5
   59E
  8
0
  6
CONTINUOUS
 62
     7
 10
-648.452503386612
 20
68.0321235656738
 30
0.0
 11
-662.077503386612
 21
68.0321235656738
 31
0.0
  0
LINE
  5
   59F
  8
0
  6
CONTINUOUS
 62
     7
 10
-683.077472869034
 20
80.0321159362695
 30
0.0
 11
-697.952486789321
 21
80.0321159362695
 31
0.0
  0
LINE
  5
   5A0
  8
0
  6
CONTINUOUS
 62
     7
 10
-680.184041895862
 20
80.0321159362793
 30
0.0
 11
-681.327472869034
 21
80.0321159362793
 31
0.0
  0
LINE
  5
   5A1
  8
0
  6
CONTINUOUS
 62
     7
 10
-698.306031628998
 20
79.8856552312427
 30
0.0
 11
-697.952485495399
 21
80.0321014480816
 31
0.0
  0
LINE
  5
   5A2
  8
0
  6
CONTINUOUS
 62
     7
 10
-698.452478580949
 20
79.5321024994575
 30
0.0
 11
-698.306024745578
 21
79.885656255424
 31
0.0
  0
LINE
  5
   5A3
  8
0
  6
CONTINUOUS
 62
     7
 10
-698.452479037469
 20
67.7821073329497
 30
0.0
 11
-698.452486082489
 21
78.6321144104004
 31
0.0
  0
LINE
  5
   5A4
  8
0
  6
CONTINUOUS
 62
     7
 10
-647.202503386612
 20
67.7821235656738
 30
0.0
 11
-647.202503386612
 21
78.6321220397949
 31
0.0
  0
LINE
  5
   5A5
  8
0
  6
CONTINUOUS
 62
     7
 10
-699.702480498429
 20
67.7821083068848
 30
0.0
 11
-699.702480498429
 21
78.6321144104004
 31
0.0
  0
LINE
  5
   5A6
  8
0
  6
CONTINUOUS
 62
     7
 10
-698.452480498429
 20
78.6321144104004
 30
0.0
 11
-699.702480498429
 21
78.6321144104004
 31
0.0
  0
LINE
  5
   5A7
  8
0
  6
CONTINUOUS
 62
     7
 10
-699.702472869034
 20
57.6571273803692
 30
0.0
 11
-699.702472869034
 21
67.7821311950683
 31
0.0
  0
LINE
  5
   5A8
  8
0
  6
CONTINUOUS
 62
     7
 10
-673.452488127823
 20
67.7821311950683
 30
0.0
 11
-699.702472869034
 21
67.7821311950683
 31
0.0
  0
LINE
  5
   5A9
  8
0
  6
CONTINUOUS
 62
     7
 10
-647.202503386612
 20
57.6571273803692
 30
0.0
 11
-647.202503386612
 21
67.7821311950683
 31
0.0
  0
LINE
  5
   5AA
  8
0
  6
CONTINUOUS
 62
     7
 10
-647.202503386612
 20
67.7821311950683
 30
0.0
 11
-673.452488127823
 21
67.7821311950683
 31
0.0
  0
LINE
  5
   5AB
  8
0
  6
DASHDOT
 62
     7
 10
-673.452480088934
 20
-22.5064788692104
 30
0.0
 11
-673.452503650026
 21
66.021844474397
 31
0.0
  0
LINE
  5
   5AC
  8
0
  6
CONTINUOUS
 62
     3
 10
-699.702472869034
 20
-45.5678535699844
 30
0.0
 11
-699.702472869034
 21
-22.8428707122822
 31
0.0
  0
LINE
  5
   5AD
  8
0
  6
CONTINUOUS
 62
     3
 10
-698.452472869034
 20
-45.5678535699844
 30
0.0
 11
-699.702472869034
 21
-45.5678535699844
 31
0.0
  0
LINE
  5
   5AE
  8
0
  6
CONTINUOUS
 62
     3
 10
-698.452472869034
 20
-46.4678535461426
 30
0.0
 11
-698.452472869034
 21
-45.5678535699844
 31
0.0
  0
LINE
  5
   5AF
  8
0
  6
CONTINUOUS
 62
     3
 10
-683.077472869034
 20
-46.9678535461421
 30
0.0
 11
-697.952472869034
 21
-46.9678535461421
 31
0.0
  0
LINE
  5
   5B0
  8
0
  6
CONTINUOUS
 62
     3
 10
-680.18404728108
 20
-46.9678535461423
 30
0.0
 11
-681.327472869034
 21
-46.9678535461423
 31
0.0
  0
LINE
  5
   5B1
  8
0
  6
CONTINUOUS
 62
     7
 10
-698.452472869034
 20
-45.5678535699844
 30
0.0
 11
-698.452472869034
 21
-35.4678535461426
 31
0.0
  0
LINE
  5
   5B2
  8
0
  6
CONTINUOUS
 62
     7
 10
-667.327472869034
 20
-34.9678535461426
 30
0.0
 11
-679.577472869034
 21
-34.9678535461426
 31
0.0
  0
LINE
  5
   5B3
  8
0
  6
CONTINUOUS
 62
     7
 10
-650.452472869034
 20
-34.9678535461426
 30
0.0
 11
-662.077472869034
 21
-34.9678535461426
 31
0.0
  0
LINE
  5
   5B4
  8
0
  6
CONTINUOUS
 62
     7
 10
-683.452472869034
 20
-40.2178535461426
 30
0.0
 11
-683.452472869034
 21
-39.2761079092356
 31
0.0
  0
LINE
  5
   5B5
  8
0
  6
CONTINUOUS
 62
     7
 10
-682.892306963607
 20
-40.2178535461426
 30
0.0
 11
-683.452472869034
 21
-40.2178535461426
 31
0.0
  0
LINE
  5
   5B6
  8
0
  6
CONTINUOUS
 62
     7
 10
-698.827472869034
 20
-35.4678535461426
 30
0.0
 11
-698.827472869034
 21
-34.7178535461426
 31
0.0
  0
LINE
  5
   5B7
  8
0
  6
CONTINUOUS
 62
     3
 10
-680.952472869034
 20
-45.4678535461426
 30
0.0
 11
-680.952472869034
 21
-43.7178535461426
 31
0.0
  0
LINE
  5
   5B8
  8
0
  6
CONTINUOUS
 62
     3
 10
-683.452472869034
 20
-45.4678536653519
 30
0.0
 11
-683.452472869034
 21
-43.7178535461426
 31
0.0
  0
LINE
  5
   5B9
  8
0
  6
CONTINUOUS
 62
     3
 10
-681.327472869034
 20
-46.9678535461423
 30
0.0
 11
-681.327472869034
 21
-45.4678535461423
 31
0.0
  0
LINE
  5
   5BA
  8
0
  6
CONTINUOUS
 62
     3
 10
-680.952472869034
 20
-45.4678535461426
 30
0.0
 11
-681.327472869034
 21
-45.4678535461426
 31
0.0
  0
LINE
  5
   5BB
  8
0
  6
CONTINUOUS
 62
     3
 10
-683.077472869034
 20
-46.9678535461423
 30
0.0
 11
-683.077472869034
 21
-45.4678535461423
 31
0.0
  0
LINE
  5
   5BC
  8
0
  6
CONTINUOUS
 62
     3
 10
-683.077472869034
 20
-45.4678535461426
 30
0.0
 11
-683.452472869034
 21
-45.4678535461426
 31
0.0
  0
CIRCLE
  5
   5BD
  8
0
  6
CONTINUOUS
 62
     7
 10
-690.952472801766
 20
-37.9678555844908
 30
0.0
 40
2.74999793642075
  0
CIRCLE
  5
   5BE
  8
0
  6
CONTINUOUS
 62
     7
 10
-690.952473495903
 20
-44.9678545587592
 30
0.0
 40
0.700001026691361
  0
ARC
  5
   5BF
  8
0
  6
CONTINUOUS
 62
     3
 10
-697.952472729805
 20
-46.4678533404297
 30
0.0
 40
0.50000021494898
 50
180.000023420064
 51
269.999992853049
  0
LINE
  5
   5C0
  8
0
  6
DASHDOT
 62
     3
 10
-690.952472801766
 20
-41.7178535209115
 30
0.0
 11
-690.952472801766
 21
-34.21785764807
 31
0.0
  0
LINE
  5
   5C1
  8
0
  6
DASHDOT
 62
     3
 10
-687.202474865345
 20
-37.9678555844908
 30
0.0
 11
-694.702470738187
 21
-37.9678555844908
 31
0.0
  0
LINE
  5
   5C2
  8
0
  6
DASHDOT
 62
     3
 10
-682.20247219559
 20
-48.5622226365757
 30
0.0
 11
-682.20247219559
 21
-25.8465421180354
 31
0.0
  0
LINE
  5
   5C3
  8
0
  6
DASHDOT
 62
     3
 10
-673.452472643144
 20
-41.7178502423089
 30
0.0
 11
-673.452472643144
 21
-6.18066555735963
 31
0.0
  0
LINE
  5
   5C4
  8
0
  6
DASHDOT
 62
     3
 10
-655.952472484522
 20
-41.7178507537062
 30
0.0
 11
-655.952472484522
 21
-34.2178535230231
 31
0.0
  0
LINE
  5
   5C5
  8
0
  6
DASHDOT
 62
     3
 10
-655.952473096815
 20
-46.6678510473777
 30
0.0
 11
-655.952473096815
 21
-43.2678535851748
 31
0.0
  0
LINE
  5
   5C6
  8
0
  6
DASHDOT
 62
     3
 10
-673.452474768299
 20
-53.3465093678966
 30
0.0
 11
-673.452474768299
 21
-43.2678533200023
 31
0.0
  0
LINE
  5
   5C7
  8
0
  6
DASHDOT
 62
     3
 10
-690.952473495903
 20
-46.6678555854506
 30
0.0
 11
-690.952473495903
 21
-43.2678535320679
 31
0.0
  0
LINE
  5
   5C8
  8
0
  6
DASHDOT
 62
     3
 10
-689.252472469211
 20
-44.9678545587593
 30
0.0
 11
-692.652474522594
 21
-44.9678545587593
 31
0.0
  0
LINE
  5
   5C9
  8
0
  6
DASHDOT
 62
     3
 10
-679.327478956323
 20
-8.71784501167449
 30
0.0
 11
-685.077466320826
 21
-8.71784501167449
 31
0.0
  0
LINE
  5
   5CA
  8
0
  6
DASHDOT
 62
     3
 10
-661.827275869568
 20
-8.71806613468638
 30
0.0
 11
-667.577633446847
 21
-8.71806613468638
 31
0.0
  0
LINE
  5
   5CB
  8
0
  6
CONTINUOUS
 62
     3
 10
-698.452472869034
 20
-46.4678535461426
 30
0.0
 11
-698.452472869034
 21
-45.5678535699844
 31
0.0
  0
LINE
  5
   5CC
  8
0
  6
CONTINUOUS
 62
     3
 10
-647.202472869034
 20
-45.5678520202637
 30
0.0
 11
-647.202472869034
 21
-22.8428707122822
 31
0.0
  0
LINE
  5
   5CD
  8
0
  6
CONTINUOUS
 62
     7
 10
-696.452472869034
 20
-35.4678535461426
 30
0.0
 11
-698.827472869034
 21
-35.4678535461426
 31
0.0
  0
LINE
  5
   5CE
  8
0
  6
CONTINUOUS
 62
     7
 10
-692.702472869034
 20
-34.9678535461426
 30
0.0
 11
-692.702472869034
 21
-34.7178535461426
 31
0.0
  0
LINE
  5
   5CF
  8
0
  6
CONTINUOUS
 62
     7
 10
-696.452472869034
 20
-35.4678535461426
 30
0.0
 11
-696.452472869034
 21
-34.7178535461426
 31
0.0
  0
ARC
  5
   5D0
  8
0
  6
CONTINUOUS
 62
     3
 10
-697.952472729805
 20
-46.4678533404297
 30
0.0
 40
0.50000021494898
 50
180.000023420064
 51
269.999992853049
  0
LINE
  5
   5D1
  8
0
  6
CONTINUOUS
 62
     7
 10
-684.827472869034
 20
-34.9678535461426
 30
0.0
 11
-696.452472869034
 21
-34.9678535461426
 31
0.0
  0
LINE
  5
   5D2
  8
0
  6
CONTINUOUS
 62
     7
 10
-648.077472869034
 20
-35.4678535461426
 30
0.0
 11
-650.452472869034
 21
-35.4678535461426
 31
0.0
  0
LINE
  5
   5D3
  8
0
  6
CONTINUOUS
 62
     7
 10
-647.202503386612
 20
-34.7178535461426
 30
0.0
 11
-699.702472869034
 21
-34.7178535461426
 31
0.0
  0
ARC
  5
   5D4
  8
0
  6
CONTINUOUS
 62
     7
 10
-682.20247219559
 20
-36.9678447844519
 30
0.0
 40
2.62499149271879
 50
184.357949805274
 51
241.56299252681
  0
CIRCLE
  5
   5D5
  8
0
  6
CONTINUOUS
 62
     7
 10
-690.95253594894
 20
71.0317673084419
 30
0.0
 40
2.75032955665546
  0
CIRCLE
  5
   5D6
  8
0
  6
CONTINUOUS
 62
     7
 10
-690.952484084905
 20
78.0321150561207
 30
0.0
 40
0.699999862369895
  0
ARC
  5
   5D7
  8
0
  6
CONTINUOUS
 62
     7
 10
-682.202489984982
 20
70.0321332673651
 30
0.0
 40
2.62498079731739
 50
103.846340220761
 51
175.64338747478
  0
LINE
  5
   5D8
  8
0
  6
CONTINUOUS
 62
     7
 10
-687.202480498429
 20
-8.84285354614258
 30
0.0
 11
-692.202472869034
 21
-8.84285354614258
 31
0.0
  0
LINE
  5
   5D9
  8
0
  6
CONTINUOUS
 62
     7
 10
-654.702488127823
 20
-8.84285354614258
 30
0.0
 11
-659.702488127823
 21
-8.84285354614258
 31
0.0
  0
LINE
  5
   5DA
  8
0
  6
CONTINUOUS
 62
     7
 10
-647.202472869034
 20
-8.59285354614257
 30
0.0
 11
-647.202472869034
 21
0.407138824462891
 31
0.0
  0
LINE
  5
   5DB
  8
0
  6
CONTINUOUS
 62
     7
 10
-699.702472869034
 20
-8.59285354614257
 30
0.0
 11
-699.702472869034
 21
0.407138824462891
 31
0.0
  0
LINE
  5
   5DC
  8
0
  6
CONTINUOUS
 62
     7
 10
-647.452472869034
 20
43.6571464538574
 30
0.0
 11
-699.45247286902
 21
43.6571464538574
 31
0.0
  0
LINE
  5
   5DD
  8
0
  6
CONTINUOUS
 62
     7
 10
-692.202472869034
 20
-8.84285354614258
 30
0.0
 11
-699.452472869034
 21
-8.84285354614258
 31
0.0
  0
LINE
  5
   5DE
  8
0
  6
CONTINUOUS
 62
     7
 10
-659.702488127823
 20
-8.84285354614258
 30
0.0
 11
-687.202480498429
 21
-8.84285354614258
 31
0.0
  0
LINE
  5
   5DF
  8
0
  6
CONTINUOUS
 62
     7
 10
-647.452472869034
 20
-8.84285354614258
 30
0.0
 11
-654.702488127823
 21
-8.84285354614258
 31
0.0
  0
LINE
  5
   5E0
  8
0
  6
CONTINUOUS
 62
     7
 10
-668.077472869034
 20
2.28213882446289
 30
0.0
 11
-668.077472869034
 21
22.2821311950684
 31
0.0
  0
LINE
  5
   5E1
  8
0
  6
CONTINUOUS
 62
     7
 10
-678.827472869034
 20
2.28213882446289
 30
0.0
 11
-678.827472869034
 21
22.2821311950684
 31
0.0
  0
LINE
  5
   5E2
  8
0
  6
CONTINUOUS
 62
     7
 10
-647.202472869034
 20
37.6571311950683
 30
0.0
 11
-699.702472869034
 21
37.6571311950683
 31
0.0
  0
LINE
  5
   5E3
  8
0
  6
CONTINUOUS
 62
     7
 10
-647.202472869034
 20
42.6571311950683
 30
0.0
 11
-699.702472869034
 21
42.6571311950683
 31
0.0
  0
LINE
  5
   5E4
  8
0
  6
CONTINUOUS
 62
     7
 10
-668.077472869034
 20
22.1498985290527
 30
0.0
 11
-678.827472869034
 21
22.1498985290527
 31
0.0
  0
LINE
  5
   5E5
  8
0
  6
CONTINUOUS
 62
     7
 10
-668.077472869034
 20
22.2821311950684
 30
0.0
 11
-678.827472869034
 21
22.2821311950684
 31
0.0
  0
LINE
  5
   5E6
  8
0
  6
CONTINUOUS
 62
     7
 10
-668.077472869034
 20
2.28213882446288
 30
0.0
 11
-678.827472869034
 21
2.28213882446288
 31
0.0
  0
LINE
  5
   5E7
  8
0
  6
CONTINUOUS
 62
     7
 10
-668.077472869034
 20
2.41438674926757
 30
0.0
 11
-678.827472869034
 21
2.41438674926757
 31
0.0
  0
LINE
  5
   5E8
  8
0
  6
DASHDOT
 62
     7
 10
-673.452472869034
 20
-10.469494485822
 30
0.0
 11
-673.452472869034
 21
32.7583485977024
 31
0.0
  0
LINE
  5
   5E9
  8
0
  6
CONTINUOUS
 62
     7
 10
-647.202480498429
 20
0.907138824462891
 30
0.0
 11
-647.202480498429
 21
6.90713484784364
 31
0.0
  0
LINE
  5
   5EA
  8
0
  6
CONTINUOUS
 62
     7
 10
-647.202480498429
 20
24.1571388244629
 30
0.0
 11
-647.202480498429
 21
43.4071464538574
 31
0.0
  0
LINE
  5
   5EB
  8
0
  6
CONTINUOUS
 62
     7
 10
-647.202480498429
 20
7.40713484784366
 30
0.0
 11
-647.202480498429
 21
17.1571388244629
 31
0.0
  0
LINE
  5
   5EC
  8
0
  6
CONTINUOUS
 62
     7
 10
-647.202480498429
 20
17.6571388244629
 30
0.0
 11
-647.202480498429
 21
23.6571388244629
 31
0.0
  0
LINE
  5
   5ED
  8
0
  6
CONTINUOUS
 62
     7
 10
-699.702472869037
 20
0.907138824462891
 30
0.0
 11
-699.702472869037
 21
6.90713882446398
 31
0.0
  0
LINE
  5
   5EE
  8
0
  6
CONTINUOUS
 62
     7
 10
-699.702472869046
 20
7.40713882446401
 30
0.0
 11
-699.702472869046
 21
17.1571388244629
 31
0.0
  0
LINE
  5
   5EF
  8
0
  6
CONTINUOUS
 62
     7
 10
-699.702472869032
 20
17.6571388244629
 30
0.0
 11
-699.702472869032
 21
23.6571388244629
 31
0.0
  0
LINE
  5
   5F0
  8
0
  6
CONTINUOUS
 62
     7
 10
-699.70247286902
 20
24.1571388244629
 30
0.0
 11
-699.70247286902
 21
43.4071464538574
 31
0.0
  0
LINE
  5
   5F1
  8
0
  6
CONTINUOUS
 62
     7
 10
-678.827476855896
 20
6.90713882446186
 30
0.0
 11
-699.202472898837
 21
6.90713882446186
 31
0.0
  0
LINE
  5
   5F2
  8
0
  6
CONTINUOUS
 62
     7
 10
-647.202480498429
 20
6.90715408325092
 30
0.0
 11
-647.702480498429
 21
6.90715408325092
 31
0.0
  0
LINE
  5
   5F3
  8
0
  6
CONTINUOUS
 62
     7
 10
-678.82748663544
 20
7.40713882446182
 30
0.0
 11
-699.202472898837
 21
7.40713882446182
 31
0.0
  0
LINE
  5
   5F4
  8
0
  6
CONTINUOUS
 62
     7
 10
-647.202480498429
 20
7.40715408325089
 30
0.0
 11
-647.702480498429
 21
7.40715408325089
 31
0.0
  0
LINE
  5
   5F5
  8
0
  6
CONTINUOUS
 62
     7
 10
-699.202472898837
 20
6.90713882446289
 30
0.0
 11
-699.202472898837
 21
7.40713882446289
 31
0.0
  0
LINE
  5
   5F6
  8
0
  6
CONTINUOUS
 62
     7
 10
-647.702480498429
 20
6.90713882446289
 30
0.0
 11
-647.702480498429
 21
7.40713882446289
 31
0.0
  0
LINE
  5
   5F7
  8
0
  6
CONTINUOUS
 62
     7
 10
-647.202472869034
 20
0.407138824462884
 30
0.0
 11
-647.702480498429
 21
0.407138824462884
 31
0.0
  0
LINE
  5
   5F8
  8
0
  6
CONTINUOUS
 62
     7
 10
-647.202480498429
 20
0.907138824462884
 30
0.0
 11
-647.702480498429
 21
0.907138824462884
 31
0.0
  0
LINE
  5
   5F9
  8
0
  6
CONTINUOUS
 62
     7
 10
-699.202472898837
 20
0.407138824462891
 30
0.0
 11
-699.202472898837
 21
0.907138824462891
 31
0.0
  0
LINE
  5
   5FA
  8
0
  6
CONTINUOUS
 62
     7
 10
-647.702480498429
 20
0.407138824462891
 30
0.0
 11
-647.702480498429
 21
0.907138824462891
 31
0.0
  0
LINE
  5
   5FB
  8
0
  6
CONTINUOUS
 62
     7
 10
-647.202480498429
 20
23.6571388244629
 30
0.0
 11
-647.702480498429
 21
23.6571388244629
 31
0.0
  0
LINE
  5
   5FC
  8
0
  6
CONTINUOUS
 62
     7
 10
-647.202480498429
 20
24.1571388244629
 30
0.0
 11
-647.702480498429
 21
24.1571388244629
 31
0.0
  0
LINE
  5
   5FD
  8
0
  6
CONTINUOUS
 62
     7
 10
-699.202472898837
 20
23.6571388244629
 30
0.0
 11
-699.202472898837
 21
24.1571388244629
 31
0.0
  0
LINE
  5
   5FE
  8
0
  6
CONTINUOUS
 62
     7
 10
-647.702480498429
 20
23.6571388244629
 30
0.0
 11
-647.702480498429
 21
24.1571388244629
 31
0.0
  0
LINE
  5
   5FF
  8
0
  6
CONTINUOUS
 62
     7
 10
-678.827476832743
 20
17.1571388244629
 30
0.0
 11
-699.202472898837
 21
17.1571388244629
 31
0.0
  0
LINE
  5
   600
  8
0
  6
CONTINUOUS
 62
     7
 10
-647.202480498429
 20
17.1571388244629
 30
0.0
 11
-647.702480498429
 21
17.1571388244629
 31
0.0
  0
LINE
  5
   601
  8
0
  6
CONTINUOUS
 62
     7
 10
-678.827472869034
 20
17.6571388244629
 30
0.0
 11
-699.202472898837
 21
17.6571388244629
 31
0.0
  0
LINE
  5
   602
  8
0
  6
CONTINUOUS
 62
     7
 10
-647.202480498429
 20
17.6571388244629
 30
0.0
 11
-647.702480498429
 21
17.6571388244629
 31
0.0
  0
LINE
  5
   603
  8
0
  6
CONTINUOUS
 62
     7
 10
-699.202472898837
 20
17.1571388244629
 30
0.0
 11
-699.202472898837
 21
17.6571388244629
 31
0.0
  0
LINE
  5
   604
  8
0
  6
CONTINUOUS
 62
     7
 10
-647.702480498429
 20
17.1571388244629
 30
0.0
 11
-647.702480498429
 21
17.6571388244629
 31
0.0
  0
ARC
  5
   605
  8
0
  6
CONTINUOUS
 62
     7
 10
-699.452472869034
 20
-8.59285354614258
 30
0.0
 40
0.25
 50
179.999999948034
 51
269.999999948034
  0
ARC
  5
   606
  8
0
  6
CONTINUOUS
 62
     7
 10
-647.452472869034
 20
-8.59285354614257
 30
0.0
 40
0.25
 50
269.999999948034
 51
359.999999948034
  0
ARC
  5
   607
  8
0
  6
CONTINUOUS
 62
     7
 10
-647.452472869034
 20
43.4071464538574
 30
0.0
 40
0.25
 50
359.999999948034
 51
449.999999948034
  0
ARC
  5
   608
  8
0
  6
CONTINUOUS
 62
     7
 10
-699.45247286902
 20
43.4071464538574
 30
0.0
 40
0.25
 50
449.999999948034
 51
539.999999948034
  0
INSERT
  5
   609
  8
255
  6
CONTINUOUS
 62
     7
  2
ON-OFF
 10
-663.452477751847
 20
20.6571388244629
 30
0.0
 41
0.5
 42
0.5
 50
359.999999792137
 43
0.5
  0
LINE
  5
   60A
  8
0
  6
CONTINUOUS
 62
     7
 10
-684.702472869034
 20
22.9071388244629
 30
0.0
 11
-685.452472869034
 21
22.9071388244629
 31
0.0
  0
LINE
  5
   60B
  8
0
  6
CONTINUOUS
 62
     7
 10
-684.702472869034
 20
18.4071388244629
 30
0.0
 11
-685.452472869034
 21
18.4071388244629
 31
0.0
  0
CIRCLE
  5
   60C
  8
0
  6
CONTINUOUS
 62
     7
 10
-685.077472869034
 20
3.9071388244629
 30
0.0
 40
2.25
  0
CIRCLE
  5
   60D
  8
0
  6
CONTINUOUS
 62
     7
 10
-685.077472869034
 20
3.9071388244629
 30
0.0
 40
1.5
  0
LINE
  5
   60E
  8
0
  6
CONTINUOUS
 62
     7
 10
-685.452472869034
 20
18.4071388244629
 30
0.0
 11
-685.452472869034
 21
22.9071388244629
 31
0.0
  0
LINE
  5
   60F
  8
0
  6
CONTINUOUS
 62
     7
 10
-684.702472869034
 20
18.4071388244629
 30
0.0
 11
-684.702472869034
 21
22.9071388244629
 31
0.0
  0
LINE
  5
   610
  8
0
  6
CONTINUOUS
 62
     7
 10
-666.702472869034
 20
0.907138824462891
 30
0.0
 11
-666.702472869034
 21
6.90714199242252
 31
0.0
  0
LINE
  5
   611
  8
0
  6
CONTINUOUS
 62
     7
 10
-666.702472869034
 20
17.6571388244629
 30
0.0
 11
-666.702472869034
 21
23.6571388244629
 31
0.0
  0
LINE
  5
   612
  8
0
  6
CONTINUOUS
 62
     7
 10
-680.202472869034
 20
17.6571388244629
 30
0.0
 11
-680.202472869034
 21
23.6571388244629
 31
0.0
  0
LINE
  5
   613
  8
0
  6
DASHDOT
 62
     7
 10
-682.202489984982
 20
62.4071524700477
 30
0.0
 11
-682.202489984982
 21
77.6571140646825
 31
0.0
  0
LINE
  5
   614
  8
0
  6
DASHDOT
 62
     7
 10
-690.95253594894
 20
63.2814377517864
 30
0.0
 11
-690.95253594894
 21
78.7820968650973
 31
0.0
  0
LINE
  5
   615
  8
0
  6
DASHDOT
 62
     7
 10
-683.202206392285
 20
71.0317673084419
 30
0.0
 11
-698.702865505596
 21
71.0317673084419
 31
0.0
  0
LINE
  5
   616
  8
0
  6
DASHDOT
 62
     7
 10
-690.952484084905
 20
72.3321151937508
 30
0.0
 11
-690.952484084905
 21
83.7321149184906
 31
0.0
  0
LINE
  5
   617
  8
0
  6
DASHDOT
 62
     7
 10
-685.252484222535
 20
78.0321150561207
 30
0.0
 11
-696.652483947275
 21
78.0321150561207
 31
0.0
  0
LINE
  5
   618
  8
0
  6
DASHDOT
 62
     7
 10
-673.452525224544
 20
72.3321313984982
 30
0.0
 11
-673.452525224544
 21
88.5208751274436
 31
0.0
  0
LINE
  5
   619
  8
0
  6
CONTINUOUS
 62
     7
 10
-668.077472869034
 20
6.87178200218327
 30
0.0
 11
-678.827472869034
 21
6.87178200218327
 31
0.0
  0
LINE
  5
   61A
  8
0
  6
CONTINUOUS
 62
     7
 10
-668.077472869034
 20
2.91130582513529
 30
0.0
 11
-678.827472869034
 21
2.91130582513529
 31
0.0
  0
LINE
  5
   61B
  8
0
  6
CONTINUOUS
 62
     7
 10
-668.077472869034
 20
6.8717816514562
 30
0.0
 11
-678.827472869034
 21
6.8717816514562
 31
0.0
  0
LINE
  5
   61C
  8
0
  6
CONTINUOUS
 62
     7
 10
-668.077472869034
 20
9.34484223942804
 30
0.0
 11
-678.827472869034
 21
9.34484223942804
 31
0.0
  0
LINE
  5
   61D
  8
0
  6
CONTINUOUS
 62
     7
 10
-647.952503453157
 20
65.2821311950683
 30
0.0
 11
-698.952503453159
 21
65.2821311950683
 31
0.0
  0
LINE
  5
   61E
  8
0
  6
CONTINUOUS
 62
     7
 10
-698.952501423826
 20
57.6571273803691
 30
0.0
 11
-698.952503453159
 21
65.2821311950683
 31
0.0
  0
LINE
  5
   61F
  8
0
  6
CONTINUOUS
 62
     7
 10
-647.952501423824
 20
57.6571273803691
 30
0.0
 11
-647.952503453157
 21
65.2821311950683
 31
0.0
  0
LINE
  5
   620
  8
0
  6
CONTINUOUS
 62
     3
 10
-680.952472869034
 20
-43.7178535461426
 30
0.0
 11
-683.452472869034
 21
-43.7178535461426
 31
0.0
  0
LINE
  5
   621
  8
0
  6
CONTINUOUS
 62
     7
 10
-699.202472898837
 20
24.1571388244629
 30
0.0
 11
-699.70247286902
 21
24.1571388244629
 31
0.0
  0
LINE
  5
   622
  8
0
  6
CONTINUOUS
 62
     7
 10
-699.202472898837
 20
23.6571388244629
 30
0.0
 11
-699.702472869032
 21
23.6571388244629
 31
0.0
  0
LINE
  5
   623
  8
0
  6
CONTINUOUS
 62
     7
 10
-699.202472898837
 20
17.6571388244629
 30
0.0
 11
-699.702472869032
 21
17.6571388244629
 31
0.0
  0
LINE
  5
   624
  8
0
  6
CONTINUOUS
 62
     7
 10
-699.202472898837
 20
17.1571388244629
 30
0.0
 11
-699.702472869046
 21
17.1571388244629
 31
0.0
  0
LINE
  5
   625
  8
0
  6
CONTINUOUS
 62
     7
 10
-699.202472898837
 20
7.40713882446182
 30
0.0
 11
-699.702472869046
 21
7.40713882446182
 31
0.0
  0
LINE
  5
   626
  8
0
  6
CONTINUOUS
 62
     7
 10
-699.202472898837
 20
6.90713882446186
 30
0.0
 11
-699.702472869037
 21
6.90713882446186
 31
0.0
  0
LINE
  5
   627
  8
0
  6
CONTINUOUS
 62
     7
 10
-699.202472898837
 20
0.907138824462884
 30
0.0
 11
-699.702472869037
 21
0.907138824462884
 31
0.0
  0
LINE
  5
   628
  8
0
  6
CONTINUOUS
 62
     7
 10
-699.202472898837
 20
0.407138824462884
 30
0.0
 11
-699.702472869034
 21
0.407138824462884
 31
0.0
  0
LINE
  5
   629
  8
0
  6
CONTINUOUS
 62
     7
 10
-647.702480498429
 20
0.907138824462884
 30
0.0
 11
-699.202472898837
 21
0.907138824462884
 31
0.0
  0
LINE
  5
   62A
  8
0
  6
CONTINUOUS
 62
     7
 10
-647.702480498429
 20
0.407138824462884
 30
0.0
 11
-699.202472898837
 21
0.407138824462884
 31
0.0
  0
LINE
  5
   62B
  8
0
  6
CONTINUOUS
 62
     7
 10
-647.702480498429
 20
7.40715408325089
 30
0.0
 11
-668.077474361414
 21
7.40715408325089
 31
0.0
  0
LINE
  5
   62C
  8
0
  6
CONTINUOUS
 62
     7
 10
-647.702480498429
 20
6.90715408325092
 30
0.0
 11
-668.077474544608
 21
6.90715408325092
 31
0.0
  0
LINE
  5
   62D
  8
0
  6
CONTINUOUS
 62
     7
 10
-647.702480498429
 20
17.6571388244629
 30
0.0
 11
-668.077472869034
 21
17.6571388244629
 31
0.0
  0
LINE
  5
   62E
  8
0
  6
CONTINUOUS
 62
     7
 10
-647.702480498429
 20
17.1571388244629
 30
0.0
 11
-668.077472869034
 21
17.1571388244629
 31
0.0
  0
LINE
  5
   62F
  8
0
  6
CONTINUOUS
 62
     7
 10
-647.702480498429
 20
24.1571388244629
 30
0.0
 11
-699.202472898837
 21
24.1571388244629
 31
0.0
  0
LINE
  5
   630
  8
0
  6
CONTINUOUS
 62
     7
 10
-647.702480498429
 20
23.6571388244629
 30
0.0
 11
-699.202472898837
 21
23.6571388244629
 31
0.0
  0
LINE
  5
   631
  8
0
  6
CONTINUOUS
 62
     7
 10
-698.452486082489
 20
78.6321144104004
 30
0.0
 11
-698.452486666864
 21
79.5321073329497
 31
0.0
  0
LINE
  5
   632
  8
0
  6
CONTINUOUS
 62
     7
 10
-680.952472869034
 20
76.7820854187012
 30
0.0
 11
-683.452472869034
 21
76.7820854187012
 31
0.0
  0
LINE
  5
   633
  8
0
  6
CONTINUOUS
 62
     7
 10
-683.452472869034
 20
76.7820854187012
 30
0.0
 11
-683.452472869034
 21
78.5320855379105
 31
0.0
  0
LINE
  5
   634
  8
0
  6
CONTINUOUS
 62
     7
 10
-683.077472869034
 20
78.5320854187012
 30
0.0
 11
-683.452472869034
 21
78.5320854187012
 31
0.0
  0
LINE
  5
   635
  8
0
  6
CONTINUOUS
 62
     7
 10
-683.077472869034
 20
78.5320854187009
 30
0.0
 11
-683.077472869034
 21
80.0320854187009
 31
0.0
  0
LINE
  5
   636
  8
0
  6
CONTINUOUS
 62
     7
 10
-681.327472869034
 20
78.5320854187009
 30
0.0
 11
-681.327472869034
 21
80.0320854187009
 31
0.0
  0
LINE
  5
   637
  8
0
  6
CONTINUOUS
 62
     7
 10
-680.952472869034
 20
78.5320854187012
 30
0.0
 11
-681.327472869034
 21
78.5320854187012
 31
0.0
  0
LINE
  5
   638
  8
0
  6
CONTINUOUS
 62
     7
 10
-680.952472869034
 20
76.7820854187012
 30
0.0
 11
-680.952472869034
 21
78.5320854187012
 31
0.0
  0
LINE
  5
   639
  8
0
  6
DASHDOT
 62
     7
 10
-640.328903211308
 20
17.4071464538574
 30
0.0
 11
-717.026926365966
 21
17.4071464538574
 31
0.0
  0
INSERT
  5
   63A
  8
255
  6
CONTINUOUS
 62
     7
  2
COPRITERMINALI
 10
-673.452525224544
 20
81.2821159362793
 30
0.0
 41
0.5
 42
0.5
 50
3.50835464724173E-15
 43
0.5
  0
INSERT
  5
   63B
  8
0
  6
CONTINUOUS
 62
     7
  2
COPRITERMINALI
 10
-673.452525224544
 20
-48.2178840637207
 30
0.0
 41
0.5
 42
-0.5
 50
1.03931142803049E-7
 43
0.5
  0
INSERT
  5
   63C
  8
255
  6
CONTINUOUS
 62
     7
  2
MOSTRINA
 10
-730.871646237211
 20
-37.5831832885762
 30
0.0
 41
0.5
 42
0.5
 50
3.50835464724173E-15
 43
0.5
  0
CIRCLE
  5
   63D
  8
0
  6
CONTINUOUS
 62
     7
 10
-645.418384792631
 20
54.18542407996
 30
0.0
 40
0.1
  0
INSERT
  5
   63E
  8
0
  6
CONTINUOUS
 62
     7
  2
*UDIM1991
 10
0.0
 20
0.0
 30
0.0
  0
TEXT
  5
   63F
  8
0
  6
CONTINUOUS
 62
     7
 10
-622.542747494862
 20
3.77118381498498
 30
0.0
 40
3.00000002980232
  1
=        =
 50
89.9999999480344
 41
0.916666604744064
 72
     1
 11
-624.042747497559
 21
17.2461830377579
 31
0.0
 73
     2
  0
INSERT
  5
   640
  8
0
  6
CONTINUOUS
 62
     7
  2
*UDIM1992
 10
0.0
 20
0.0
 30
0.0
  0
INSERT
  5
   641
  8
0
  6
CONTINUOUS
 62
     7
  2
*UDIM1993
 10
0.0
 20
0.0
 30
0.0
  0
INSERT
  5
   642
  8
0
  6
CONTINUOUS
 62
     7
  2
*UDIM1994
 10
0.0
 20
0.0
 30
0.0
  0
INSERT
  5
   643
  8
0
  6
CONTINUOUS
 62
     5
  2
*UDIM1995
 10
0.0
 20
0.0
 30
0.0
  0
TEXT
  5
   644
  8
0
  6
CONTINUOUS
 62
     7
 10
-612.637802035969
 20
15.9454500741736
 30
0.0
 40
3.00000002980232
  1
X
 50
359.999999948034
 41
0.916666604744064
 72
     1
 11
-611.537802100182
 21
17.4454500880826
 31
0.0
 73
     2
  0
TEXT
  5
   645
  8
0
  6
CONTINUOUS
 62
     7
 10
-728.855772168797
 20
15.8384401864783
 30
0.0
 40
3.00000002980232
  1
X
 50
359.999999948034
 41
0.916666604744064
 72
     1
 11
-727.755772233009
 21
17.3384402003873
 31
0.0
 73
     2
  0
TEXT
  5
   646
  8
0
  6
CONTINUOUS
 62
     7
 10
-675.064857394856
 20
104.633083588578
 30
0.0
 40
3.00000002980232
  1
Y
 50
359.999999948034
 41
0.916666604744064
 72
     1
 11
-673.964857459068
 21
106.133083602487
 31
0.0
 73
     2
  0
INSERT
  5
   647
  8
0
  6
CONTINUOUS
 62
     7
  2
*UDIM1996
 10
0.0
 20
0.0
 30
0.0
  0
INSERT
  5
   648
  8
0
  6
CONTINUOUS
 62
     7
  2
*UDIM1997
 10
0.0
 20
0.0
 30
0.0
  0
INSERT
  5
   649
  8
0
  6
CONTINUOUS
 62
     7
  2
*UDIM1998
 10
0.0
 20
0.0
 30
0.0
  0
INSERT
  5
   64A
  8
0
  6
CONTINUOUS
 62
     7
  2
*UDIM1999
 10
0.0
 20
0.0
 30
0.0
  0
LINE
  5
   64B
  8
0
  6
CONTINUOUS
 62
     7
 10
-402.247589111328
 20
27.7306518554688
 30
0.0
 11
-374.247589111328
 21
27.7306518554688
 31
0.0
  0
LINE
  5
   64C
  8
0
  6
CONTINUOUS
 62
     7
 10
-402.247589111328
 20
55.7306518554688
 30
0.0
 11
-374.247589111328
 21
55.7306518554688
 31
0.0
  0
LINE
  5
   64D
  8
0
  6
CONTINUOUS
 62
     7
 10
-402.247589111328
 20
55.7306518554688
 30
0.0
 11
-402.247589111328
 21
27.7306518554688
 31
0.0
  0
LINE
  5
   64E
  8
0
  6
CONTINUOUS
 62
     7
 10
-374.247589111328
 20
55.7306518554688
 30
0.0
 11
-374.247589111328
 21
27.7306518554688
 31
0.0
  0
CIRCLE
  5
   64F
  8
0
  6
CONTINUOUS
 62
     7
 10
-398.247589111328
 20
59.4806518554688
 30
0.0
 40
0.875
  0
CIRCLE
  5
   650
  8
0
  6
CONTINUOUS
 62
     7
 10
-378.247589111328
 20
59.4806518554688
 30
0.0
 40
0.875
  0
CIRCLE
  5
   651
  8
0
  6
CONTINUOUS
 62
     7
 10
-398.247589111328
 20
23.9806518554688
 30
0.0
 40
0.875
  0
CIRCLE
  5
   652
  8
0
  6
CONTINUOUS
 62
     7
 10
-378.247589111328
 20
23.9806518554688
 30
0.0
 40
0.875
  0
LINE
  5
   653
  8
0
  6
DASHDOT
 62
     7
 10
-398.247589111328
 20
61.1056518554688
 30
0.0
 11
-398.247589111328
 21
57.8556518554688
 31
0.0
  0
LINE
  5
   654
  8
0
  6
DASHDOT
 62
     7
 10
-399.872589111328
 20
59.4806518554688
 30
0.0
 11
-396.622589111328
 21
59.4806518554688
 31
0.0
  0
LINE
  5
   655
  8
0
  6
DASHDOT
 62
     7
 10
-378.247589111328
 20
61.1056518554688
 30
0.0
 11
-378.247589111328
 21
57.8556518554688
 31
0.0
  0
LINE
  5
   656
  8
0
  6
DASHDOT
 62
     7
 10
-379.872589111328
 20
59.4806518554688
 30
0.0
 11
-376.622589111328
 21
59.4806518554688
 31
0.0
  0
LINE
  5
   657
  8
0
  6
DASHDOT
 62
     7
 10
-378.247589111328
 20
25.6056518554688
 30
0.0
 11
-378.247589111328
 21
22.3556518554688
 31
0.0
  0
LINE
  5
   658
  8
0
  6
DASHDOT
 62
     7
 10
-379.872589111328
 20
23.9806518554688
 30
0.0
 11
-376.622589111328
 21
23.9806518554688
 31
0.0
  0
LINE
  5
   659
  8
0
  6
DASHDOT
 62
     7
 10
-398.247589111328
 20
25.6056518554688
 30
0.0
 11
-398.247589111328
 21
22.3556518554688
 31
0.0
  0
LINE
  5
   65A
  8
0
  6
DASHDOT
 62
     7
 10
-399.872589111328
 20
23.9806518554688
 30
0.0
 11
-396.622589111328
 21
23.9806518554688
 31
0.0
  0
LINE
  5
   65B
  8
0
  6
DASHDOT
 62
     7
 10
-388.247589111328
 20
69.1007641408058
 30
0.0
 11
-388.247589111328
 21
12.6074010106477
 31
0.0
  0
LINE
  5
   65C
  8
0
  6
CONTINUOUS
 62
     7
 10
-405.068165654994
 20
62.1318375106748
 30
0.0
 11
-371.113605431687
 21
62.1318375106748
 31
0.0
  0
LINE
  5
   65D
  8
0
  6
CONTINUOUS
 62
     7
 10
-405.068165654994
 20
20.5667724097295
 30
0.0
 11
-371.113605431687
 21
20.5667724097295
 31
0.0
  0
LINE
  5
   65E
  8
0
  6
CONTINUOUS
 62
     7
 10
-371.113605431687
 20
62.1318375106748
 30
0.0
 11
-371.113605431687
 21
20.5667724097295
 31
0.0
  0
LINE
  5
   65F
  8
0
  6
CONTINUOUS
 62
     7
 10
-405.068165654994
 20
62.1318375106748
 30
0.0
 11
-405.068165654994
 21
20.5667724097295
 31
0.0
  0
LINE
  5
   660
  8
0
  6
DASHDOT
 62
     7
 10
-411.497917873384
 20
41.7306518554688
 30
0.0
 11
-362.281582637887
 21
41.7306518554688
 31
0.0
  0
CIRCLE
  5
   661
  8
0
  6
CONTINUOUS
 62
     7
 10
-403.539153084868
 20
60.6335468775648
 30
0.0
 40
0.075
  0
TEXT
  5
   662
  8
0
  6
CONTINUOUS
 62
     1
 10
-504.123182624314
 20
-149.466629031553
 30
0.0
 40
2.00000008940697
  1
M 3076 95-01-16
 50
359.999999844103
 41
0.749999861419206
 72
     1
 11
-493.02318418026
 21
-148.466629016996
 31
0.0
 73
     2
  0
TEXT
  5
   663
  8
0
  6
CONTINUOUS
 62
     1
 10
-511.600387564033
 20
-134.394302284078
 30
0.0
 40
2.00000008940697
  1
93-04-05 ROTA S.
 50
359.999999844103
 41
0.749999861419206
 72
     2
 11
-487.900390891463
 21
-134.394302348445
 31
0.0
  0
TEXT
  5
   664
  8
0
  6
CONTINUOUS
 62
     7
 10
-422.800507606603
 20
30.803072437053
 30
0.0
 40
3.00000002980232
  1
=      =
 50
449.999999844103
 41
0.916666604744064
 72
     2
 11
-422.800507548374
 21
52.2530711967797
 31
0.0
  0
TEXT
  5
   665
  8
0
  6
CONTINUOUS
 62
     7
 10
-413.930121359007
 20
31.6931527305693
 30
0.0
 40
3.00000002980232
  1
=     =
 50
449.999999844103
 41
0.916666604744064
 72
     2
 11
-413.930121308243
 21
50.393151648745
 31
0.0
  0
INSERT
  5
   666
  8
0
  6
CONTINUOUS
 62
     7
  2
*UDIM2000
 10
0.0
 20
0.0
 30
0.0
  0
TEXT
  5
   667
  8
0
  6
CONTINUOUS
 62
     7
 10
-395.148131104413
 20
74.9549977217458
 30
0.0
 40
3.00000002980232
  1
=   =
 50
359.999999844103
 41
0.916666604744064
 72
     2
 11
-381.948131869339
 21
74.9549976858961
 31
0.0
  0
TEXT
  5
   668
  8
0
  6
CONTINUOUS
 62
     7
 10
-395.206673355999
 20
68.3982560072683
 30
0.0
 40
3.00000002980232
  1
=   =
 50
359.999999844103
 41
0.916666604744064
 72
     2
 11
-382.006674120926
 21
68.3982559714186
 31
0.0
  0
INSERT
  5
   669
  8
0
  6
CONTINUOUS
 62
     7
  2
*UDIM2001
 10
0.0
 20
0.0
 30
0.0
  0
INSERT
  5
   66A
  8
0
  6
CONTINUOUS
 62
     7
  2
*UDIM2002
 10
0.0
 20
0.0
 30
0.0
  0
INSERT
  5
   66B
  8
0
  6
CONTINUOUS
 62
     7
  2
*UDIM2003
 10
0.0
 20
0.0
 30
0.0
  0
INSERT
  5
   66C
  8
0
  6
CONTINUOUS
 62
     7
  2
*UDIM2004
 10
0.0
 20
0.0
 30
0.0
  0
TEXT
  5
   66D
  8
0
  6
CONTINUOUS
 62
     7
 10
-389.435869107746
 20
5.7555579447797
 30
0.0
 40
3.00000002980232
  1
Y
 50
359.999999844103
 41
0.916666604744064
 72
     2
 11
-387.235869238876
 21
5.75555793880475
 31
0.0
  0
TEXT
  5
   66E
  8
0
  6
CONTINUOUS
 62
     7
 10
-388.499191651844
 20
84.4950141215375
 30
0.0
 40
3.00000002980232
  1
Y
 50
359.999999844103
 41
0.916666604744064
 72
     2
 11
-386.299191782974
 21
84.4950141155626
 31
0.0
  0
TEXT
  5
   66F
  8
0
  6
CONTINUOUS
 62
     7
 10
-360.596389661335
 20
39.783633401399
 30
0.0
 40
3.00000002980232
  1
X
 50
359.999999844103
 41
0.916666604744064
 72
     2
 11
-358.396389792465
 21
39.783633395424
 31
0.0
  0
TEXT
  5
   670
  8
0
  6
CONTINUOUS
 62
     7
 10
-435.422386060261
 20
40.4989871287397
 30
0.0
 40
3.00000002980232
  1
X
 50
359.999999844103
 41
0.916666604744064
 72
     2
 11
-433.222386191391
 21
40.4989871227647
 31
0.0
  0
TEXT
  5
   671
  8
0
  6
CONTINUOUS
 62
     1
 10
-409.308593731582
 20
-160.425842194946
 30
0.0
 40
4.00000017881393
  1
601812/141
 50
359.999999844103
 41
0.937499973922969
 72
     2
 11
-372.55859313181
 21
-160.425842294755
 31
0.0
  0
TEXT
  5
   672
  8
0
  6
CONTINUOUS
 62
     1
 10
-391.222900376812
 20
-151.444259637121
 30
0.0
 40
3.00000002980232
  1
S4
 50
359.999999844103
 41
0.916666604744064
 72
     2
 11
-386.272900666391
 21
-151.444259650565
 31
0.0
  0
TEXT
  5
   673
  8
0
  6
CONTINUOUS
 62
     1
 10
-419.757320135573
 20
-133.133987394218
 30
0.0
 40
2.00000008940697
  1
3POLE LOW VOLTAGE M.C.C.B SERIES ISOMAX
 50
359.999999844103
 41
0.749999861419206
 72
     1
 11
-390.657324212795
 21
-132.133987428547
 31
0.0
 73
     2
  0
TEXT
  5
   674
  8
0
  6
CONTINUOUS
 62
     1
 10
-411.507321255384
 20
-136.133987416624
 30
0.0
 40
2.00000008940697
  1
FIXED VERSION REAR TERMINALS
 50
359.999999844103
 41
0.749999861419206
 72
     1
 11
-390.657324177021
 21
-135.133987428547
 31
0.0
 73
     2
  0
TEXT
  5
   675
  8
0
  6
CONTINUOUS
 62
     1
 10
-416.554928502927
 20
-141.204254136183
 30
0.0
 40
2.00000008940697
  1
INTERR.AUTOMATICO SERIE ISOMAX
 50
359.999999844103
 41
0.749999861419206
 72
     1
 11
-394.204931634671
 21
-140.204254152179
 31
0.0
 73
     2
  0
TEXT
  5
   676
  8
0
  6
CONTINUOUS
 62
     1
 10
-423.304927521674
 20
-144.204254117851
 30
0.0
 40
2.00000008940697
  1
TRIPOL.ESECUZIONE FISSA TERMINALI POST.
 50
359.999999844103
 41
0.749999861419206
 72
     1
 11
-394.204931598896
 21
-143.204254152179
 31
0.0
 73
     2
  0
LINE
  5
   677
  8
0
  6
CONTINUOUS
 62
     3
 10
-696.717468261717
 20
-132.042419433594
 30
0.0
 11
-699.717468261717
 21
-132.042419433594
 31
0.0
  0
LINE
  5
   678
  8
0
  6
CONTINUOUS
 62
     3
 10
-647.217468261719
 20
-132.042419433594
 30
0.0
 11
-650.217468261719
 21
-132.042419433594
 31
0.0
  0
LINE
  5
   679
  8
0
  6
CONTINUOUS
 62
     3
 10
-650.717468261719
 20
-132.042419433594
 30
0.0
 11
-696.217468261719
 21
-132.042419433594
 31
0.0
  0
LINE
  5
   67A
  8
0
  6
CONTINUOUS
 62
     3
 10
-699.717467472773
 20
-152.362199435057
 30
0.0
 11
-699.717468261717
 21
-132.042419433594
 31
0.0
  0
LINE
  5
   67B
  8
0
  6
CONTINUOUS
 62
     3
 10
-647.217468261719
 20
-132.042419433594
 30
0.0
 11
-647.217468261719
 21
-152.362199435057
 31
0.0
  0
LINE
  5
   67C
  8
0
  6
CONTINUOUS
 62
     3
 10
-650.217468261719
 20
-146.792419433594
 30
0.0
 11
-696.717468261719
 21
-146.792419433594
 31
0.0
  0
LINE
  5
   67D
  8
0
  6
CONTINUOUS
 62
     3
 10
-696.717468261719
 20
-146.215068817139
 30
0.0
 11
-696.717468261719
 21
-146.792419433594
 31
0.0
  0
LINE
  5
   67E
  8
0
  6
CONTINUOUS
 62
     3
 10
-650.217468261719
 20
-146.215068817139
 30
0.0
 11
-650.217468261719
 21
-146.792419433594
 31
0.0
  0
LINE
  5
   67F
  8
0
  6
CONTINUOUS
 62
     3
 10
-650.717468261719
 20
-137.292418956757
 30
0.0
 11
-696.217468261719
 21
-137.292418956757
 31
0.0
  0
LINE
  5
   680
  8
0
  6
CONTINUOUS
 62
     3
 10
-696.717468261719
 20
-136.715069293976
 30
0.0
 11
-696.717468261719
 21
-137.292418956757
 31
0.0
  0
LINE
  5
   681
  8
0
  6
CONTINUOUS
 62
     3
 10
-650.217468261719
 20
-136.715069293976
 30
0.0
 11
-650.217468261719
 21
-137.292418956757
 31
0.0
  0
LINE
  5
   682
  8
0
  6
CONTINUOUS
 62
     3
 10
-696.717468261719
 20
-137.292418956757
 30
0.0
 11
-696.717468261719
 21
-146.21507024765
 31
0.0
  0
LINE
  5
   683
  8
0
  6
CONTINUOUS
 62
     3
 10
-696.717468261719
 20
-132.042419433594
 30
0.0
 11
-696.717468261719
 21
-136.715069293976
 31
0.0
  0
LINE
  5
   684
  8
0
  6
CONTINUOUS
 62
     3
 10
-696.217468261719
 20
-137.292419433594
 30
0.0
 11
-696.217468261719
 21
-146.792419433594
 31
0.0
  0
LINE
  5
   685
  8
0
  6
CONTINUOUS
 62
     3
 10
-696.217468261719
 20
-132.042419433594
 30
0.0
 11
-696.217468261719
 21
-137.292418956757
 31
0.0
  0
LINE
  5
   686
  8
0
  6
CONTINUOUS
 62
     3
 10
-696.217468261719
 20
-137.292418956757
 30
0.0
 11
-696.717468261719
 21
-137.292418956757
 31
0.0
  0
LINE
  5
   687
  8
0
  6
CONTINUOUS
 62
     3
 10
-650.217468261719
 20
-137.292419433594
 30
0.0
 11
-650.217468261719
 21
-146.215068817139
 31
0.0
  0
LINE
  5
   688
  8
0
  6
CONTINUOUS
 62
     3
 10
-650.217468261702
 20
-132.042419433598
 30
0.0
 11
-650.2174720764
 21
-136.71506929398
 31
0.0
  0
LINE
  5
   689
  8
0
  6
CONTINUOUS
 62
     3
 10
-650.717468261719
 20
-137.292418956757
 30
0.0
 11
-650.717468261719
 21
-146.792418956757
 31
0.0
  0
LINE
  5
   68A
  8
0
  6
CONTINUOUS
 62
     3
 10
-650.717468261706
 20
-132.042419433594
 30
0.0
 11
-650.717472076403
 21
-137.292418956757
 31
0.0
  0
LINE
  5
   68B
  8
0
  6
CONTINUOUS
 62
     3
 10
-650.217472076416
 20
-137.292418956757
 30
0.0
 11
-650.717472076416
 21
-137.292418956757
 31
0.0
  0
LINE
  5
   68C
  8
0
  6
CONTINUOUS
 62
     7
 10
-685.452467918396
 20
-114.042419433594
 30
0.0
 11
-696.452467918396
 21
-114.042419433594
 31
0.0
  0
LINE
  5
   68D
  8
0
  6
CONTINUOUS
 62
     7
 10
-685.452468156815
 20
-112.792419433594
 30
0.0
 11
-696.452468156815
 21
-112.792419433594
 31
0.0
  0
LINE
  5
   68E
  8
0
  6
CONTINUOUS
 62
     7
 10
-650.45246887207
 20
-114.042419433594
 30
0.0
 11
-661.45246887207
 21
-114.042419433594
 31
0.0
  0
LINE
  5
   68F
  8
0
  6
CONTINUOUS
 62
     7
 10
-650.45246887207
 20
-112.792419433594
 30
0.0
 11
-661.45246887207
 21
-112.792419433594
 31
0.0
  0
LINE
  5
   690
  8
0
  6
CONTINUOUS
 62
     7
 10
-667.95246887207
 20
-91.5424194335938
 30
0.0
 11
-678.95246887207
 21
-91.5424194335938
 31
0.0
  0
LINE
  5
   691
  8
0
  6
CONTINUOUS
 62
     7
 10
-667.95246887207
 20
-90.2924194335938
 30
0.0
 11
-678.95246887207
 21
-90.2924194335938
 31
0.0
  0
LINE
  5
   692
  8
0
  6
CONTINUOUS
 62
     7
 10
-667.95246887207
 20
-89.0424194335938
 30
0.0
 11
-678.95246887207
 21
-89.0424194335938
 31
0.0
  0
LINE
  5
   693
  8
0
  6
CONTINUOUS
 62
     7
 10
-667.95246887207
 20
-87.7924194335938
 30
0.0
 11
-678.95246887207
 21
-87.7924194335938
 31
0.0
  0
LINE
  5
   694
  8
0
  6
CONTINUOUS
 62
     7
 10
-685.452467918396
 20
-111.542419433594
 30
0.0
 11
-696.452467918396
 21
-111.542419433594
 31
0.0
  0
LINE
  5
   695
  8
0
  6
CONTINUOUS
 62
     7
 10
-685.452468156815
 20
-110.292419433594
 30
0.0
 11
-696.452468156815
 21
-110.292419433594
 31
0.0
  0
LINE
  5
   696
  8
0
  6
CONTINUOUS
 62
     7
 10
-650.45246887207
 20
-111.542419433594
 30
0.0
 11
-661.45246887207
 21
-111.542419433594
 31
0.0
  0
LINE
  5
   697
  8
0
  6
CONTINUOUS
 62
     7
 10
-650.45246887207
 20
-110.292419433594
 30
0.0
 11
-661.45246887207
 21
-110.292419433594
 31
0.0
  0
LINE
  5
   698
  8
0
  6
CONTINUOUS
 62
     3
 10
-660.70246887207
 20
-107.292419433594
 30
0.0
 11
-660.70246887207
 21
-110.292419433594
 31
0.0
  0
LINE
  5
   699
  8
0
  6
CONTINUOUS
 62
     3
 10
-651.20246887207
 20
-107.292419433594
 30
0.0
 11
-651.20246887207
 21
-110.292419433594
 31
0.0
  0
LINE
  5
   69A
  8
0
  6
CONTINUOUS
 62
     3
 10
-651.20246887207
 20
-107.292419433594
 30
0.0
 11
-660.70246887207
 21
-107.292419433594
 31
0.0
  0
LINE
  5
   69B
  8
0
  6
CONTINUOUS
 62
     3
 10
-678.20246887207
 20
-84.7924194335937
 30
0.0
 11
-678.20246887207
 21
-87.7924194335938
 31
0.0
  0
LINE
  5
   69C
  8
0
  6
CONTINUOUS
 62
     3
 10
-668.70246887207
 20
-84.7924194335937
 30
0.0
 11
-668.70246887207
 21
-87.7924194335938
 31
0.0
  0
LINE
  5
   69D
  8
0
  6
CONTINUOUS
 62
     3
 10
-668.70246887207
 20
-84.7924194335937
 30
0.0
 11
-678.20246887207
 21
-84.7924194335937
 31
0.0
  0
LINE
  5
   69E
  8
0
  6
CONTINUOUS
 62
     3
 10
-678.20246887207
 20
-91.5424194335938
 30
0.0
 11
-678.20246887207
 21
-94.5424194335938
 31
0.0
  0
LINE
  5
   69F
  8
0
  6
CONTINUOUS
 62
     3
 10
-668.70246887207
 20
-91.5424194335938
 30
0.0
 11
-668.70246887207
 21
-94.5424194335938
 31
0.0
  0
LINE
  5
   6A0
  8
0
  6
CONTINUOUS
 62
     3
 10
-668.70246887207
 20
-94.5424194335938
 30
0.0
 11
-678.20246887207
 21
-94.5424194335938
 31
0.0
  0
LINE
  5
   6A1
  8
0
  6
CONTINUOUS
 62
     3
 10
-695.702468395233
 20
-114.042419433594
 30
0.0
 11
-695.702468395233
 21
-117.042419433594
 31
0.0
  0
LINE
  5
   6A2
  8
0
  6
CONTINUOUS
 62
     3
 10
-686.202467918396
 20
-114.042419433594
 30
0.0
 11
-686.202467918396
 21
-117.042419433594
 31
0.0
  0
LINE
  5
   6A3
  8
0
  6
CONTINUOUS
 62
     3
 10
-686.202467918396
 20
-117.042419433594
 30
0.0
 11
-695.702467918396
 21
-117.042419433594
 31
0.0
  0
LINE
  5
   6A4
  8
0
  6
CONTINUOUS
 62
     3
 10
-695.702468395233
 20
-107.292419433594
 30
0.0
 11
-695.702468395233
 21
-110.292419433594
 31
0.0
  0
LINE
  5
   6A5
  8
0
  6
CONTINUOUS
 62
     3
 10
-686.202467918396
 20
-107.292419433594
 30
0.0
 11
-686.202467918396
 21
-110.292419433594
 31
0.0
  0
LINE
  5
   6A6
  8
0
  6
CONTINUOUS
 62
     3
 10
-686.202468395233
 20
-107.292419433594
 30
0.0
 11
-695.702468395233
 21
-107.292419433594
 31
0.0
  0
LINE
  5
   6A7
  8
0
  6
CONTINUOUS
 62
     3
 10
-660.70246887207
 20
-114.042419433594
 30
0.0
 11
-660.70246887207
 21
-117.042419433594
 31
0.0
  0
LINE
  5
   6A8
  8
0
  6
CONTINUOUS
 62
     3
 10
-651.20246887207
 20
-114.042419433594
 30
0.0
 11
-651.20246887207
 21
-117.042419433594
 31
0.0
  0
LINE
  5
   6A9
  8
0
  6
CONTINUOUS
 62
     3
 10
-651.20246887207
 20
-117.042419433594
 30
0.0
 11
-660.70246887207
 21
-117.042419433594
 31
0.0
  0
LINE
  5
   6AA
  8
0
  6
CONTINUOUS
 62
    98
 10
-670.95246887207
 20
-81.0424194335937
 30
0.0
 11
-675.95246887207
 21
-81.0424194335937
 31
0.0
  0
LINE
  5
   6AB
  8
0
  6
CONTINUOUS
 62
    98
 10
-688.452467918396
 20
-103.542419433594
 30
0.0
 11
-693.452468395233
 21
-103.542419433594
 31
0.0
  0
LINE
  5
   6AC
  8
0
  6
CONTINUOUS
 62
    98
 10
-653.45246887207
 20
-103.542419433594
 30
0.0
 11
-658.45246887207
 21
-103.542419433594
 31
0.0
  0
LINE
  5
   6AD
  8
0
  6
CONTINUOUS
 62
     3
 10
-647.842468261719
 20
-132.042419433594
 30
0.0
 11
-647.842468261719
 21
-152.362199435057
 31
0.0
  0
LINE
  5
   6AE
  8
0
  6
CONTINUOUS
 62
     3
 10
-699.092468261719
 20
-132.042419433594
 30
0.0
 11
-699.092468261719
 21
-152.362199435057
 31
0.0
  0
LINE
  5
   6AF
  8
0
  6
CONTINUOUS
 62
     3
 10
-650.717468261719
 20
-146.215068817139
 30
0.0
 11
-696.217468261719
 21
-146.215068817139
 31
0.0
  0
LINE
  5
   6B0
  8
0
  6
CONTINUOUS
 62
     3
 10
-650.717468261719
 20
-136.715069293976
 30
0.0
 11
-696.217468261719
 21
-136.715069293976
 31
0.0
  0
LINE
  5
   6B1
  8
0
  6
CONTINUOUS
 62
     7
 10
-696.452468156815
 20
-112.792419433594
 30
0.0
 11
-696.452468156815
 21
-114.042419433594
 31
0.0
  0
LINE
  5
   6B2
  8
0
  6
CONTINUOUS
 62
     7
 10
-685.452467918396
 20
-112.792419433594
 30
0.0
 11
-685.452467918396
 21
-114.042419433594
 31
0.0
  0
LINE
  5
   6B3
  8
0
  6
CONTINUOUS
 62
     7
 10
-661.45246887207
 20
-112.792419433594
 30
0.0
 11
-661.45246887207
 21
-114.042419433594
 31
0.0
  0
LINE
  5
   6B4
  8
0
  6
CONTINUOUS
 62
     7
 10
-650.45246887207
 20
-112.792419433594
 30
0.0
 11
-650.45246887207
 21
-114.042419433594
 31
0.0
  0
LINE
  5
   6B5
  8
0
  6
CONTINUOUS
 62
     7
 10
-678.95246887207
 20
-90.2924194335938
 30
0.0
 11
-678.95246887207
 21
-91.5424194335938
 31
0.0
  0
LINE
  5
   6B6
  8
0
  6
CONTINUOUS
 62
     7
 10
-667.95246887207
 20
-90.2924194335938
 30
0.0
 11
-667.95246887207
 21
-91.5424194335938
 31
0.0
  0
LINE
  5
   6B7
  8
0
  6
CONTINUOUS
 62
     7
 10
-678.95246887207
 20
-87.7924194335938
 30
0.0
 11
-678.95246887207
 21
-89.0424194335938
 31
0.0
  0
LINE
  5
   6B8
  8
0
  6
CONTINUOUS
 62
     7
 10
-667.95246887207
 20
-87.7924194335938
 30
0.0
 11
-667.95246887207
 21
-89.0424194335938
 31
0.0
  0
LINE
  5
   6B9
  8
0
  6
CONTINUOUS
 62
     7
 10
-696.452468156815
 20
-110.292419433594
 30
0.0
 11
-696.452468156815
 21
-111.542419433594
 31
0.0
  0
LINE
  5
   6BA
  8
0
  6
CONTINUOUS
 62
     7
 10
-685.452467918396
 20
-110.292419433594
 30
0.0
 11
-685.452467918396
 21
-111.542419433594
 31
0.0
  0
LINE
  5
   6BB
  8
0
  6
CONTINUOUS
 62
     7
 10
-661.45246887207
 20
-110.292419433594
 30
0.0
 11
-661.45246887207
 21
-111.542419433594
 31
0.0
  0
LINE
  5
   6BC
  8
0
  6
CONTINUOUS
 62
     7
 10
-650.45246887207
 20
-110.292419433594
 30
0.0
 11
-650.45246887207
 21
-111.542419433594
 31
0.0
  0
LINE
  5
   6BD
  8
0
  6
CONTINUOUS
 62
     3
 10
-655.95246887207
 20
-107.292419433594
 30
0.0
 11
-655.95246887207
 21
-110.292419433594
 31
0.0
  0
LINE
  5
   6BE
  8
0
  6
CONTINUOUS
 62
     3
 10
-673.45246887207
 20
-84.7924194335937
 30
0.0
 11
-673.45246887207
 21
-87.7924194335938
 31
0.0
  0
LINE
  5
   6BF
  8
0
  6
CONTINUOUS
 62
     3
 10
-673.45246887207
 20
-91.5424194335938
 30
0.0
 11
-673.45246887207
 21
-94.5424194335938
 31
0.0
  0
LINE
  5
   6C0
  8
0
  6
CONTINUOUS
 62
     3
 10
-690.952467918396
 20
-114.042419433594
 30
0.0
 11
-690.952467918396
 21
-117.042419433594
 31
0.0
  0
LINE
  5
   6C1
  8
0
  6
CONTINUOUS
 62
     3
 10
-690.952467918396
 20
-107.292419433594
 30
0.0
 11
-690.952467918396
 21
-110.292419433594
 31
0.0
  0
LINE
  5
   6C2
  8
0
  6
CONTINUOUS
 62
     3
 10
-655.95246887207
 20
-114.042419433594
 30
0.0
 11
-655.95246887207
 21
-117.042419433594
 31
0.0
  0
LINE
  5
   6C3
  8
0
  6
CONTINUOUS
 62
     2
 10
-659.95246887207
 20
-117.042419433594
 30
0.0
 11
-659.95246887207
 21
-132.042419433594
 31
0.0
  0
LINE
  5
   6C4
  8
0
  6
CONTINUOUS
 62
     2
 10
-651.95246887207
 20
-117.042419433594
 30
0.0
 11
-651.95246887207
 21
-132.042419433594
 31
0.0
  0
LINE
  5
   6C5
  8
0
  6
CONTINUOUS
 62
     2
 10
-694.952468395233
 20
-117.042419672012
 30
0.0
 11
-694.952468395233
 21
-132.042418718338
 31
0.0
  0
LINE
  5
   6C6
  8
0
  6
CONTINUOUS
 62
     2
 10
-686.952467918396
 20
-117.042419433594
 30
0.0
 11
-686.952467918396
 21
-132.042419433594
 31
0.0
  0
LINE
  5
   6C7
  8
0
  6
CONTINUOUS
 62
     2
 10
-677.45246887207
 20
-94.5424196720123
 30
0.0
 11
-677.45246887207
 21
-132.042419672012
 31
0.0
  0
LINE
  5
   6C8
  8
0
  6
CONTINUOUS
 62
     2
 10
-669.45246887207
 20
-94.5424190163612
 30
0.0
 11
-669.45246887207
 21
-132.042419016361
 31
0.0
  0
LINE
  5
   6C9
  8
0
  6
CONTINUOUS
 62
    98
 10
-670.452469199766
 20
-81.5424204539038
 30
0.0
 11
-670.952469182652
 21
-81.0424204710181
 31
0.0
  0
LINE
  5
   6CA
  8
0
  6
CONTINUOUS
 62
    98
 10
-675.952469910008
 20
-81.0424209205244
 30
0.0
 11
-676.452469892894
 21
-81.5424209034101
 31
0.0
  0
LINE
  5
   6CB
  8
0
  6
CONTINUOUS
 62
    98
 10
-672.867197036743
 20
-81.5424194335938
 30
0.0
 11
-673.45246887207
 21
-81.5424194335938
 31
0.0
  0
LINE
  5
   6CC
  8
0
  6
CONTINUOUS
 62
    98
 10
-672.304418563843
 20
-81.5424194335938
 30
0.0
 11
-672.867197036743
 21
-81.5424194335938
 31
0.0
  0
LINE
  5
   6CD
  8
0
  6
CONTINUOUS
 62
    98
 10
-671.785757064819
 20
-81.5424194335938
 30
0.0
 11
-672.304418563843
 21
-81.5424194335938
 31
0.0
  0
LINE
  5
   6CE
  8
0
  6
CONTINUOUS
 62
    98
 10
-671.331148147583
 20
-81.5424194335938
 30
0.0
 11
-671.785757064819
 21
-81.5424194335938
 31
0.0
  0
LINE
  5
   6CF
  8
0
  6
CONTINUOUS
 62
    98
 10
-670.958059310913
 20
-81.5424194335938
 30
0.0
 11
-671.331148147583
 21
-81.5424194335938
 31
0.0
  0
LINE
  5
   6D0
  8
0
  6
CONTINUOUS
 62
    98
 10
-670.680830001831
 20
-81.5424194335938
 30
0.0
 11
-670.958059310913
 21
-81.5424194335938
 31
0.0
  0
LINE
  5
   6D1
  8
0
  6
CONTINUOUS
 62
    98
 10
-670.510112762451
 20
-81.5424194335938
 30
0.0
 11
-670.680830001831
 21
-81.5424194335938
 31
0.0
  0
LINE
  5
   6D2
  8
0
  6
CONTINUOUS
 62
    98
 10
-670.45246887207
 20
-81.5424194335938
 30
0.0
 11
-670.510112762451
 21
-81.5424194335938
 31
0.0
  0
LINE
  5
   6D3
  8
0
  6
CONTINUOUS
 62
    98
 10
-670.45246887207
 20
-81.5424194335938
 30
0.0
 11
-670.45246887207
 21
-84.7924194335937
 31
0.0
  0
LINE
  5
   6D4
  8
0
  6
CONTINUOUS
 62
    98
 10
-670.45246887207
 20
-89.0424194335938
 30
0.0
 11
-670.45246887207
 21
-90.2924194335938
 31
0.0
  0
LINE
  5
   6D5
  8
0
  6
CONTINUOUS
 62
    98
 10
-676.45246887207
 20
-81.5424194335938
 30
0.0
 11
-676.45246887207
 21
-84.7924194335937
 31
0.0
  0
LINE
  5
   6D6
  8
0
  6
CONTINUOUS
 62
    98
 10
-676.45246887207
 20
-89.0424194335938
 30
0.0
 11
-676.45246887207
 21
-90.2924194335938
 31
0.0
  0
LINE
  5
   6D7
  8
0
  6
CONTINUOUS
 62
    98
 10
-676.39482498169
 20
-81.5424194335938
 30
0.0
 11
-676.45246887207
 21
-81.5424194335938
 31
0.0
  0
LINE
  5
   6D8
  8
0
  6
CONTINUOUS
 62
    98
 10
-676.22410774231
 20
-81.5424194335938
 30
0.0
 11
-676.39482498169
 21
-81.5424194335938
 31
0.0
  0
LINE
  5
   6D9
  8
0
  6
CONTINUOUS
 62
    98
 10
-675.946876525879
 20
-81.5424194335938
 30
0.0
 11
-676.22410774231
 21
-81.5424194335938
 31
0.0
  0
LINE
  5
   6DA
  8
0
  6
CONTINUOUS
 62
    98
 10
-675.573787689209
 20
-81.5424194335938
 30
0.0
 11
-675.946876525879
 21
-81.5424194335938
 31
0.0
  0
LINE
  5
   6DB
  8
0
  6
CONTINUOUS
 62
    98
 10
-675.119178771973
 20
-81.5424194335938
 30
0.0
 11
-675.573787689209
 21
-81.5424194335938
 31
0.0
  0
LINE
  5
   6DC
  8
0
  6
CONTINUOUS
 62
    98
 10
-674.600519180298
 20
-81.5424194335938
 30
0.0
 11
-675.119178771973
 21
-81.5424194335938
 31
0.0
  0
LINE
  5
   6DD
  8
0
  6
CONTINUOUS
 62
    98
 10
-674.037738800049
 20
-81.5424194335938
 30
0.0
 11
-674.600519180298
 21
-81.5424194335938
 31
0.0
  0
LINE
  5
   6DE
  8
0
  6
CONTINUOUS
 62
    98
 10
-673.45246887207
 20
-81.5424194335938
 30
0.0
 11
-674.037738800049
 21
-81.5424194335938
 31
0.0
  0
LINE
  5
   6DF
  8
0
  6
CONTINUOUS
 62
    98
 10
-687.952467989377
 20
-104.042420026047
 30
0.0
 11
-688.452467972263
 21
-103.542420043161
 31
0.0
  0
LINE
  5
   6E0
  8
0
  6
CONTINUOUS
 62
    98
 10
-693.452468791386
 20
-103.542420193168
 30
0.0
 11
-693.952468774271
 21
-104.042420176054
 31
0.0
  0
LINE
  5
   6E1
  8
0
  6
CONTINUOUS
 62
    98
 10
-690.367197036743
 20
-104.042419433594
 30
0.0
 11
-690.952467918396
 21
-104.042419433594
 31
0.0
  0
LINE
  5
   6E2
  8
0
  6
CONTINUOUS
 62
    98
 10
-689.804417610168
 20
-104.042419433594
 30
0.0
 11
-690.367197036743
 21
-104.042419433594
 31
0.0
  0
LINE
  5
   6E3
  8
0
  6
CONTINUOUS
 62
    98
 10
-689.285757064819
 20
-104.042419433594
 30
0.0
 11
-689.804417610168
 21
-104.042419433594
 31
0.0
  0
LINE
  5
   6E4
  8
0
  6
CONTINUOUS
 62
    98
 10
-688.831148147583
 20
-104.042419433594
 30
0.0
 11
-689.285757064819
 21
-104.042419433594
 31
0.0
  0
LINE
  5
   6E5
  8
0
  6
CONTINUOUS
 62
    98
 10
-688.458059310913
 20
-104.042419433594
 30
0.0
 11
-688.831148147583
 21
-104.042419433594
 31
0.0
  0
LINE
  5
   6E6
  8
0
  6
CONTINUOUS
 62
    98
 10
-688.180830001831
 20
-104.042419433594
 30
0.0
 11
-688.458059310913
 21
-104.042419433594
 31
0.0
  0
LINE
  5
   6E7
  8
0
  6
CONTINUOUS
 62
    98
 10
-688.010112762451
 20
-104.042419433594
 30
0.0
 11
-688.180830001831
 21
-104.042419433594
 31
0.0
  0
LINE
  5
   6E8
  8
0
  6
CONTINUOUS
 62
    98
 10
-687.952467918396
 20
-104.042419433594
 30
0.0
 11
-688.010112762451
 21
-104.042419433594
 31
0.0
  0
LINE
  5
   6E9
  8
0
  6
CONTINUOUS
 62
    98
 10
-687.952467918396
 20
-104.042419433594
 30
0.0
 11
-687.952467918396
 21
-107.292419433594
 31
0.0
  0
LINE
  5
   6EA
  8
0
  6
CONTINUOUS
 62
    98
 10
-687.952467918396
 20
-111.542419433594
 30
0.0
 11
-687.952467918396
 21
-112.792419433594
 31
0.0
  0
LINE
  5
   6EB
  8
0
  6
CONTINUOUS
 62
    98
 10
-693.952468395233
 20
-104.042419433594
 30
0.0
 11
-693.952468395233
 21
-107.292419433594
 31
0.0
  0
LINE
  5
   6EC
  8
0
  6
CONTINUOUS
 62
    98
 10
-693.952468395233
 20
-111.542419433594
 30
0.0
 11
-693.952468395233
 21
-112.792419433594
 31
0.0
  0
LINE
  5
   6ED
  8
0
  6
CONTINUOUS
 62
    98
 10
-693.894824028015
 20
-104.042419433594
 30
0.0
 11
-693.952468395233
 21
-104.042419433594
 31
0.0
  0
LINE
  5
   6EE
  8
0
  6
CONTINUOUS
 62
    98
 10
-693.724106788635
 20
-104.042419433594
 30
0.0
 11
-693.894824028015
 21
-104.042419433594
 31
0.0
  0
LINE
  5
   6EF
  8
0
  6
CONTINUOUS
 62
    98
 10
-693.446877002716
 20
-104.042419433594
 30
0.0
 11
-693.724106788635
 21
-104.042419433594
 31
0.0
  0
LINE
  5
   6F0
  8
0
  6
CONTINUOUS
 62
    98
 10
-693.073788642883
 20
-104.042419433594
 30
0.0
 11
-693.446877002716
 21
-104.042419433594
 31
0.0
  0
LINE
  5
   6F1
  8
0
  6
CONTINUOUS
 62
    98
 10
-692.619178771973
 20
-104.042419433594
 30
0.0
 11
-693.073788642883
 21
-104.042419433594
 31
0.0
  0
LINE
  5
   6F2
  8
0
  6
CONTINUOUS
 62
    98
 10
-692.100518703461
 20
-104.042419433594
 30
0.0
 11
-692.619178771973
 21
-104.042419433594
 31
0.0
  0
LINE
  5
   6F3
  8
0
  6
CONTINUOUS
 62
    98
 10
-691.537738800049
 20
-104.042419433594
 30
0.0
 11
-692.100518703461
 21
-104.042419433594
 31
0.0
  0
LINE
  5
   6F4
  8
0
  6
CONTINUOUS
 62
    98
 10
-690.952467918396
 20
-104.042419433594
 30
0.0
 11
-691.537738800049
 21
-104.042419433594
 31
0.0
  0
LINE
  5
   6F5
  8
0
  6
CONTINUOUS
 62
    98
 10
-652.952469841551
 20
-104.042419726547
 30
0.0
 11
-653.452469824437
 21
-103.542419743662
 31
0.0
  0
LINE
  5
   6F6
  8
0
  6
CONTINUOUS
 62
    98
 10
-658.452470166722
 20
-103.542420492668
 30
0.0
 11
-658.952470149608
 21
-104.042420475553
 31
0.0
  0
LINE
  5
   6F7
  8
0
  6
CONTINUOUS
 62
    98
 10
-655.367198944092
 20
-104.042419433594
 30
0.0
 11
-655.95246887207
 21
-104.042419433594
 31
0.0
  0
LINE
  5
   6F8
  8
0
  6
CONTINUOUS
 62
    98
 10
-654.804416656494
 20
-104.042419433594
 30
0.0
 11
-655.367198944092
 21
-104.042419433594
 31
0.0
  0
LINE
  5
   6F9
  8
0
  6
CONTINUOUS
 62
    98
 10
-654.285758972168
 20
-104.042419433594
 30
0.0
 11
-654.804416656494
 21
-104.042419433594
 31
0.0
  0
LINE
  5
   6FA
  8
0
  6
CONTINUOUS
 62
    98
 10
-653.831146240234
 20
-104.042419433594
 30
0.0
 11
-654.285758972168
 21
-104.042419433594
 31
0.0
  0
LINE
  5
   6FB
  8
0
  6
CONTINUOUS
 62
    98
 10
-653.458061218262
 20
-104.042419433594
 30
0.0
 11
-653.831146240234
 21
-104.042419433594
 31
0.0
  0
LINE
  5
   6FC
  8
0
  6
CONTINUOUS
 62
    98
 10
-653.180828094482
 20
-104.042419433594
 30
0.0
 11
-653.458061218262
 21
-104.042419433594
 31
0.0
  0
LINE
  5
   6FD
  8
0
  6
CONTINUOUS
 62
    98
 10
-653.010112762451
 20
-104.042419433594
 30
0.0
 11
-653.180828094482
 21
-104.042419433594
 31
0.0
  0
LINE
  5
   6FE
  8
0
  6
CONTINUOUS
 62
    98
 10
-652.95246887207
 20
-104.042419433594
 30
0.0
 11
-653.010112762451
 21
-104.042419433594
 31
0.0
  0
LINE
  5
   6FF
  8
0
  6
CONTINUOUS
 62
    98
 10
-652.95246887207
 20
-104.042419433594
 30
0.0
 11
-652.95246887207
 21
-107.292419433594
 31
0.0
  0
LINE
  5
   700
  8
0
  6
CONTINUOUS
 62
    98
 10
-652.95246887207
 20
-111.542419433594
 30
0.0
 11
-652.95246887207
 21
-112.792419433594
 31
0.0
  0
LINE
  5
   701
  8
0
  6
CONTINUOUS
 62
    98
 10
-658.95246887207
 20
-104.042419433594
 30
0.0
 11
-658.95246887207
 21
-107.292419433594
 31
0.0
  0
LINE
  5
   702
  8
0
  6
CONTINUOUS
 62
    98
 10
-658.95246887207
 20
-111.542419433594
 30
0.0
 11
-658.95246887207
 21
-112.792419433594
 31
0.0
  0
LINE
  5
   703
  8
0
  6
CONTINUOUS
 62
    98
 10
-658.894824981689
 20
-104.042419433594
 30
0.0
 11
-658.95246887207
 21
-104.042419433594
 31
0.0
  0
LINE
  5
   704
  8
0
  6
CONTINUOUS
 62
    98
 10
-658.724105834961
 20
-104.042419433594
 30
0.0
 11
-658.894824981689
 21
-104.042419433594
 31
0.0
  0
LINE
  5
   705
  8
0
  6
CONTINUOUS
 62
    98
 10
-658.446876525879
 20
-104.042419433594
 30
0.0
 11
-658.724105834961
 21
-104.042419433594
 31
0.0
  0
LINE
  5
   706
  8
0
  6
CONTINUOUS
 62
    98
 10
-658.073787689209
 20
-104.042419433594
 30
0.0
 11
-658.446876525879
 21
-104.042419433594
 31
0.0
  0
LINE
  5
   707
  8
0
  6
CONTINUOUS
 62
    98
 10
-657.619178771973
 20
-104.042419433594
 30
0.0
 11
-658.073787689209
 21
-104.042419433594
 31
0.0
  0
LINE
  5
   708
  8
0
  6
CONTINUOUS
 62
    98
 10
-657.100517272949
 20
-104.042419433594
 30
0.0
 11
-657.619178771973
 21
-104.042419433594
 31
0.0
  0
LINE
  5
   709
  8
0
  6
CONTINUOUS
 62
    98
 10
-656.537738800049
 20
-104.042419433594
 30
0.0
 11
-657.100517272949
 21
-104.042419433594
 31
0.0
  0
LINE
  5
   70A
  8
0
  6
CONTINUOUS
 62
    98
 10
-655.95246887207
 20
-104.042419433594
 30
0.0
 11
-656.537738800049
 21
-104.042419433594
 31
0.0
  0
LINE
  5
   70B
  8
0
  6
CONTINUOUS
 62
     7
 10
-645.893761372778
 20
-152.362199435057
 30
0.0
 11
-702.014212711525
 21
-152.362199435057
 31
0.0
  0
LINE
  5
   70C
  8
0
  6
DASHDOT
 62
     3
 10
-673.45246887207
 20
-78.1363139039036
 30
0.0
 11
-673.45246887207
 21
-155.470523628484
 31
0.0
  0
LINE
  5
   70D
  8
0
  6
DASHDOT
 62
     3
 10
-655.95246887207
 20
-99.906868742336
 30
0.0
 11
-655.95246887207
 21
-155.470523628484
 31
0.0
  0
LINE
  5
   70E
  8
0
  6
CONTINUOUS
 62
     3
 10
-693.452468791386
 20
-103.542420193168
 30
0.0
 11
-693.452468791386
 21
-107.292419433594
 31
0.0
  0
LINE
  5
   70F
  8
0
  6
CONTINUOUS
 62
     3
 10
-688.452467972263
 20
-103.542420043161
 30
0.0
 11
-688.452467972263
 21
-107.292419433594
 31
0.0
  0
LINE
  5
   710
  8
0
  6
CONTINUOUS
 62
     3
 10
-688.452467918396
 20
-111.542419433594
 30
0.0
 11
-688.452467918396
 21
-112.792419433594
 31
0.0
  0
LINE
  5
   711
  8
0
  6
CONTINUOUS
 62
     3
 10
-693.452468395233
 20
-111.542419433594
 30
0.0
 11
-693.452468395233
 21
-112.792419433594
 31
0.0
  0
LINE
  5
   712
  8
0
  6
CONTINUOUS
 62
     3
 10
-658.45246887207
 20
-111.542419433594
 30
0.0
 11
-658.45246887207
 21
-112.792419433594
 31
0.0
  0
LINE
  5
   713
  8
0
  6
CONTINUOUS
 62
     3
 10
-653.45246887207
 20
-111.542419433594
 30
0.0
 11
-653.45246887207
 21
-112.792419433594
 31
0.0
  0
LINE
  5
   714
  8
0
  6
CONTINUOUS
 62
     3
 10
-675.95246887207
 20
-89.0424194335938
 30
0.0
 11
-675.95246887207
 21
-90.2924194335938
 31
0.0
  0
LINE
  5
   715
  8
0
  6
CONTINUOUS
 62
     3
 10
-670.95246887207
 20
-89.0424194335938
 30
0.0
 11
-670.95246887207
 21
-90.2924194335938
 31
0.0
  0
LINE
  5
   716
  8
0
  6
CONTINUOUS
 62
     3
 10
-675.952469910008
 20
-81.0424209205244
 30
0.0
 11
-675.952469910008
 21
-84.7924194335937
 31
0.0
  0
LINE
  5
   717
  8
0
  6
CONTINUOUS
 62
     3
 10
-670.952469182652
 20
-81.0424204710181
 30
0.0
 11
-670.952469182652
 21
-84.7924194335937
 31
0.0
  0
LINE
  5
   718
  8
0
  6
CONTINUOUS
 62
     3
 10
-658.452470166722
 20
-103.542420492668
 30
0.0
 11
-658.452470166722
 21
-107.292419433594
 31
0.0
  0
LINE
  5
   719
  8
0
  6
CONTINUOUS
 62
     3
 10
-653.452469824437
 20
-103.542419743662
 30
0.0
 11
-653.452469824437
 21
-107.292419433594
 31
0.0
  0
LINE
  5
   71A
  8
0
  6
DASHDOT
 62
     7
 10
-643.897925062195
 20
-131.042419433594
 30
0.0
 11
-651.95246887207
 21
-131.042419433594
 31
0.0
  0
LINE
  5
   71B
  8
0
  6
DASHDOT
 62
     7
 10
-643.747925062195
 20
-129.542419433594
 30
0.0
 11
-651.95246887207
 21
-129.542419433594
 31
0.0
  0
LINE
  5
   71C
  8
0
  6
CONTINUOUS
 62
     7
 10
-702.680169467485
 20
-127.607462771834
 30
0.0
 11
-703.614353723612
 21
-132.603317706773
 31
0.0
  0
LINE
  5
   71D
  8
0
  6
CONTINUOUS
 62
     7
 10
-643.664094504347
 20
-128.704113855113
 30
0.0
 11
-644.02964486544
 21
-132.359617466044
 31
0.0
  0
LINE
  5
   71E
  8
0
  6
DASHDOT
 62
     3
 10
-682.20246887207
 20
-123.001407256062
 30
0.0
 11
-682.20246887207
 21
-134.431069512238
 31
0.0
  0
LINE
  5
   71F
  8
0
  6
DASHDOT
 62
     3
 10
-664.70246887207
 20
-123.077140260853
 30
0.0
 11
-664.70246887207
 21
-134.431069512238
 31
0.0
  0
LINE
  5
   720
  8
0
  6
CONTINUOUS
 62
     7
 10
-667.20246887207
 20
-131.042419433594
 30
0.0
 11
-667.20246887207
 21
-132.042419433594
 31
0.0
  0
LINE
  5
   721
  8
0
  6
CONTINUOUS
 62
     7
 10
-662.20246887207
 20
-131.042419433594
 30
0.0
 11
-662.20246887207
 21
-132.042419433594
 31
0.0
  0
LINE
  5
   722
  8
0
  6
CONTINUOUS
 62
     7
 10
-684.70246887207
 20
-131.042419433594
 30
0.0
 11
-684.70246887207
 21
-132.042419433594
 31
0.0
  0
LINE
  5
   723
  8
0
  6
CONTINUOUS
 62
     7
 10
-679.70246887207
 20
-131.042419433594
 30
0.0
 11
-679.70246887207
 21
-132.042419433594
 31
0.0
  0
LINE
  5
   724
  8
0
  6
DASHDOT
 62
     7
 10
-659.95246887207
 20
-129.542419433594
 30
0.0
 11
-669.45246887207
 21
-129.542419433594
 31
0.0
  0
LINE
  5
   725
  8
0
  6
DASHDOT
 62
     7
 10
-659.95246887207
 20
-131.042419433594
 30
0.0
 11
-669.45246887207
 21
-131.042419433594
 31
0.0
  0
LINE
  5
   726
  8
0
  6
DASHDOT
 62
     7
 10
-677.45246887207
 20
-129.542419433594
 30
0.0
 11
-686.952467918396
 21
-129.542419433594
 31
0.0
  0
LINE
  5
   727
  8
0
  6
DASHDOT
 62
     7
 10
-677.45246887207
 20
-131.042419433594
 30
0.0
 11
-686.952467918396
 21
-131.042419433594
 31
0.0
  0
LINE
  5
   728
  8
0
  6
DASHDOT
 62
     7
 10
-694.952468395233
 20
-129.542419433594
 30
0.0
 11
-703.041990631879
 21
-129.542419433594
 31
0.0
  0
LINE
  5
   729
  8
0
  6
DASHDOT
 62
     7
 10
-694.952468395233
 20
-131.042419433594
 30
0.0
 11
-703.322478436758
 21
-131.042419433594
 31
0.0
  0
LINE
  5
   72A
  8
0
  6
CONTINUOUS
 62
     7
 10
-660.45246887207
 20
-129.542419433594
 30
0.0
 11
-660.45246887207
 21
-131.042419433594
 31
0.0
  0
LINE
  5
   72B
  8
0
  6
CONTINUOUS
 62
     7
 10
-651.45246887207
 20
-129.542419433594
 30
0.0
 11
-651.45246887207
 21
-131.042419433594
 31
0.0
  0
LINE
  5
   72C
  8
0
  6
CONTINUOUS
 62
     7
 10
-668.95246887207
 20
-129.542419433594
 30
0.0
 11
-668.95246887207
 21
-131.042419433594
 31
0.0
  0
LINE
  5
   72D
  8
0
  6
CONTINUOUS
 62
     7
 10
-677.95246887207
 20
-129.542419433594
 30
0.0
 11
-677.95246887207
 21
-131.042419433594
 31
0.0
  0
LINE
  5
   72E
  8
0
  6
CONTINUOUS
 62
     7
 10
-686.452467918396
 20
-129.542419433594
 30
0.0
 11
-686.452467918396
 21
-131.042419433594
 31
0.0
  0
LINE
  5
   72F
  8
0
  6
CONTINUOUS
 62
     7
 10
-695.452468395233
 20
-129.542419433594
 30
0.0
 11
-695.452468395233
 21
-131.042419433594
 31
0.0
  0
LINE
  5
   730
  8
0
  6
CONTINUOUS
 62
     2
 10
-659.952469825745
 20
-111.542419433594
 30
0.0
 11
-659.952469825745
 21
-112.792419433594
 31
0.0
  0
LINE
  5
   731
  8
0
  6
CONTINUOUS
 62
     2
 10
-651.952469348907
 20
-111.542419433594
 30
0.0
 11
-651.952469348907
 21
-112.792419433594
 31
0.0
  0
LINE
  5
   732
  8
0
  6
CONTINUOUS
 62
     7
 10
-680.20246887207
 20
-127.542419433594
 30
0.0
 11
-684.20246887207
 21
-127.542419433594
 31
0.0
  0
LINE
  5
   733
  8
0
  6
CONTINUOUS
 62
     7
 10
-680.95246887207
 20
-125.542419433594
 30
0.0
 11
-683.45246887207
 21
-125.542419433594
 31
0.0
  0
LINE
  5
   734
  8
0
  6
CONTINUOUS
 62
     7
 10
-684.20246887207
 20
-127.542419433594
 30
0.0
 11
-684.20246887207
 21
-129.542419433594
 31
0.0
  0
LINE
  5
   735
  8
0
  6
CONTINUOUS
 62
     7
 10
-680.20246887207
 20
-127.542419433594
 30
0.0
 11
-680.20246887207
 21
-129.542419433594
 31
0.0
  0
LINE
  5
   736
  8
0
  6
CONTINUOUS
 62
     7
 10
-683.45246887207
 20
-125.542419433594
 30
0.0
 11
-683.45246887207
 21
-129.542419433594
 31
0.0
  0
LINE
  5
   737
  8
0
  6
CONTINUOUS
 62
     7
 10
-680.95246887207
 20
-125.542419433594
 30
0.0
 11
-680.95246887207
 21
-129.542419433594
 31
0.0
  0
LINE
  5
   738
  8
0
  6
CONTINUOUS
 62
     7
 10
-663.45246887207
 20
-125.542419433594
 30
0.0
 11
-665.95246887207
 21
-125.542419433594
 31
0.0
  0
LINE
  5
   739
  8
0
  6
CONTINUOUS
 62
     7
 10
-662.70246887207
 20
-127.542419433594
 30
0.0
 11
-666.70246887207
 21
-127.542419433594
 31
0.0
  0
LINE
  5
   73A
  8
0
  6
CONTINUOUS
 62
     7
 10
-666.70246887207
 20
-127.542419433594
 30
0.0
 11
-666.70246887207
 21
-129.542419433594
 31
0.0
  0
LINE
  5
   73B
  8
0
  6
CONTINUOUS
 62
     7
 10
-665.95246887207
 20
-125.542419433594
 30
0.0
 11
-665.95246887207
 21
-129.542419433594
 31
0.0
  0
LINE
  5
   73C
  8
0
  6
CONTINUOUS
 62
     7
 10
-663.45246887207
 20
-125.542419433594
 30
0.0
 11
-663.45246887207
 21
-129.542419433594
 31
0.0
  0
LINE
  5
   73D
  8
0
  6
CONTINUOUS
 62
     7
 10
-662.70246887207
 20
-127.542419433594
 30
0.0
 11
-662.70246887207
 21
-129.542419433594
 31
0.0
  0
CIRCLE
  5
   73E
  8
0
  6
CONTINUOUS
 62
     7
 10
-681.997426107072
 20
-128.510983354665
 30
0.0
 40
0.1
  0
LINE
  5
   73F
  8
0
  6
DASHDOT
 62
     3
 10
-690.952468156815
 20
-98.4812368799853
 30
0.0
 11
-690.952468156815
 21
-154.639091360751
 31
0.0
  0
INSERT
  5
   740
  8
0
  6
CONTINUOUS
 62
     7
  2
*UDIM2005
 10
0.0
 20
0.0
 30
0.0
  0
INSERT
  5
   741
  8
0
  6
CONTINUOUS
 62
     7
  2
*UDIM2006
 10
0.0
 20
0.0
 30
0.0
  0
INSERT
  5
   742
  8
0
  6
CONTINUOUS
 62
     7
  2
*UDIM2007
 10
0.0
 20
0.0
 30
0.0
  0
INSERT
  5
   743
  8
0
  6
CONTINUOUS
 62
     7
  2
*UDIM2008
 10
0.0
 20
0.0
 30
0.0
  0
INSERT
  5
   744
  8
0
  6
CONTINUOUS
 62
     7
  2
*UDIM2009
 10
0.0
 20
0.0
 30
0.0
  0
INSERT
  5
   745
  8
0
  6
CONTINUOUS
 62
     7
  2
*UDIM2010
 10
0.0
 20
0.0
 30
0.0
  0
INSERT
  5
   746
  8
0
  6
CONTINUOUS
 62
     7
  2
*UDIM2011
 10
0.0
 20
0.0
 30
0.0
  0
TEXT
  5
   747
  8
0
  6
CONTINUOUS
 62
     7
 10
-674.602088620988
 20
-160.141445013675
 30
0.0
 40
3.00000002980232
  1
Y
 50
359.999999896069
 41
0.916666604744064
 72
     2
 11
-672.402088752118
 21
-160.141445017654
 31
0.0
  0
TEXT
  5
   748
  8
0
  6
CONTINUOUS
 62
     7
 10
-674.683322599259
 20
-67.8602865664091
 30
0.0
 40
3.00000002980232
  1
Y
 50
359.999999896069
 41
0.916666604744064
 72
     2
 11
-672.48332273039
 21
-67.8602865703887
 31
0.0
  0
ENDSEC
  0
EOF
