ISO-10303-21;
HEADER;
/* Generated by software containing ST-Developer
 * from STEP Tools, Inc. (www.steptools.com) 
 */
/* OPTION: using custom schema-name function */

FILE_DESCRIPTION(
/* description */ (''),
/* implementation_level */ '2;1');

FILE_NAME(
/* name */ '1001212.stp',
/* time_stamp */ '2013-05-23T10:24:43+02:00',
/* author */ (''),
/* organization */ (''),
/* preprocessor_version */ 'ST-DEVELOPER v11',
/* originating_system */ 'SIEMENS PLM Software NX 7.5',
/* authorisation */ '');

FILE_SCHEMA (('CONFIG_CONTROL_DESIGN'));
ENDSEC;

DATA;
#10=SHAPE_REPRESENTATION_RELATIONSHIP('None',
'relationship between dbouC94B8r64-None and dbouC94B8r64-None',#94,#11);
#11=ADVANCED_BREP_SHAPE_REPRESENTATION('dbouC94B8r64-None',(#95),#443);
#12=CC_DESIGN_APPROVAL(#24,(#82));
#13=CC_DESIGN_APPROVAL(#25,(#84));
#14=CC_DESIGN_APPROVAL(#26,(#31));
#15=APPROVAL_PERSON_ORGANIZATION(#69,#24,#18);
#16=APPROVAL_PERSON_ORGANIZATION(#70,#25,#19);
#17=APPROVAL_PERSON_ORGANIZATION(#71,#26,#20);
#18=APPROVAL_ROLE('approver');
#19=APPROVAL_ROLE('approver');
#20=APPROVAL_ROLE('approver');
#21=APPROVAL_DATE_TIME(#39,#24);
#22=APPROVAL_DATE_TIME(#40,#25);
#23=APPROVAL_DATE_TIME(#41,#26);
#24=APPROVAL(#27,' ');
#25=APPROVAL(#28,' ');
#26=APPROVAL(#29,' ');
#27=APPROVAL_STATUS('not_yet_approved');
#28=APPROVAL_STATUS('not_yet_approved');
#29=APPROVAL_STATUS('not_yet_approved');
#30=CC_DESIGN_SECURITY_CLASSIFICATION(#31,(#84));
#31=SECURITY_CLASSIFICATION(' ',' ',#32);
#32=SECURITY_CLASSIFICATION_LEVEL('confidential');
#33=CC_DESIGN_DATE_AND_TIME_ASSIGNMENT(#37,#35,(#82));
#34=CC_DESIGN_DATE_AND_TIME_ASSIGNMENT(#38,#36,(#31));
#35=DATE_TIME_ROLE('creation_date');
#36=DATE_TIME_ROLE('classification_date');
#37=DATE_AND_TIME(#52,#42);
#38=DATE_AND_TIME(#53,#43);
#39=DATE_AND_TIME(#54,#44);
#40=DATE_AND_TIME(#55,#45);
#41=DATE_AND_TIME(#56,#46);
#42=LOCAL_TIME(0,0,0.,#47);
#43=LOCAL_TIME(0,0,0.,#48);
#44=LOCAL_TIME(0,0,0.,#49);
#45=LOCAL_TIME(0,0,0.,#50);
#46=LOCAL_TIME(0,0,0.,#51);
#47=COORDINATED_UNIVERSAL_TIME_OFFSET(0,0,.BEHIND.);
#48=COORDINATED_UNIVERSAL_TIME_OFFSET(0,0,.BEHIND.);
#49=COORDINATED_UNIVERSAL_TIME_OFFSET(0,0,.BEHIND.);
#50=COORDINATED_UNIVERSAL_TIME_OFFSET(0,0,.BEHIND.);
#51=COORDINATED_UNIVERSAL_TIME_OFFSET(0,0,.BEHIND.);
#52=CALENDAR_DATE(0,1,1);
#53=CALENDAR_DATE(0,1,1);
#54=CALENDAR_DATE(0,1,1);
#55=CALENDAR_DATE(0,1,1);
#56=CALENDAR_DATE(0,1,1);
#57=CC_DESIGN_PERSON_AND_ORGANIZATION_ASSIGNMENT(#65,#61,(#82,#84));
#58=CC_DESIGN_PERSON_AND_ORGANIZATION_ASSIGNMENT(#66,#62,(#86));
#59=CC_DESIGN_PERSON_AND_ORGANIZATION_ASSIGNMENT(#67,#63,(#84));
#60=CC_DESIGN_PERSON_AND_ORGANIZATION_ASSIGNMENT(#68,#64,(#31));
#61=PERSON_AND_ORGANIZATION_ROLE('creator');
#62=PERSON_AND_ORGANIZATION_ROLE('design_owner');
#63=PERSON_AND_ORGANIZATION_ROLE('design_supplier');
#64=PERSON_AND_ORGANIZATION_ROLE('classification_officer');
#65=PERSON_AND_ORGANIZATION(#79,#72);
#66=PERSON_AND_ORGANIZATION(#79,#73);
#67=PERSON_AND_ORGANIZATION(#79,#74);
#68=PERSON_AND_ORGANIZATION(#79,#75);
#69=PERSON_AND_ORGANIZATION(#79,#76);
#70=PERSON_AND_ORGANIZATION(#79,#77);
#71=PERSON_AND_ORGANIZATION(#79,#78);
#72=ORGANIZATION(' ',' ',' ');
#73=ORGANIZATION(' ',' ',' ');
#74=ORGANIZATION(' ',' ',' ');
#75=ORGANIZATION(' ',' ',' ');
#76=ORGANIZATION(' ',' ',' ');
#77=ORGANIZATION(' ',' ',' ');
#78=ORGANIZATION(' ',' ',' ');
#79=PERSON(' ',' ',' ',(' '),$,$);
#80=SHAPE_DEFINITION_REPRESENTATION(#81,#94);
#81=PRODUCT_DEFINITION_SHAPE('','',#82);
#82=PRODUCT_DEFINITION(' ','',#84,#83);
#83=DESIGN_CONTEXT('',#93,'design');
#84=PRODUCT_DEFINITION_FORMATION_WITH_SPECIFIED_SOURCE(' ',' ',#86,.NOT_KNOWN.);
#85=PRODUCT_RELATED_PRODUCT_CATEGORY('detail','',(#86));
#86=PRODUCT('dbouC94B8r64','dbouC94B8r64',' ',(#91));
#87=PRODUCT_CATEGORY_RELATIONSHIP(' ',' ',#89,#90);
#88=PRODUCT_CATEGORY_RELATIONSHIP('','',#90,#85);
#89=PRODUCT_CATEGORY('part',' ');
#90=PRODUCT_CATEGORY(' ','');
#91=MECHANICAL_CONTEXT(' ',#93,'mechanical');
#92=APPLICATION_PROTOCOL_DEFINITION('international standard',
'config_control_design',1994,#93);
#93=APPLICATION_CONTEXT(
'configuration controlled 3D designs of mechanical parts and assemblies');
#94=SHAPE_REPRESENTATION('dbouC94B8r64-None',(#283),#443);
#95=BREP_WITH_VOIDS('',#100,(#96,#97));
#96=ORIENTED_CLOSED_SHELL('',*,#101,.F.);
#97=ORIENTED_CLOSED_SHELL('',*,#102,.F.);
#98=CONICAL_SURFACE('',#309,6.5125,30.);
#99=CONICAL_SURFACE('',#318,6.5125,29.9999999999999);
#100=CLOSED_SHELL('',(#123,#124,#125,#126,#127,#128,#129,#130,#131));
#101=CLOSED_SHELL('',(#132,#133,#134,#135,#136));
#102=CLOSED_SHELL('',(#137,#138,#139,#140,#141));
#103=TOROIDAL_SURFACE('',#293,5.45,1.6);
#104=TOROIDAL_SURFACE('',#300,5.45,1.6);
#105=TOROIDAL_SURFACE('',#306,5.45,1.2);
#106=TOROIDAL_SURFACE('',#315,5.45,1.2);
#107=PLANE('',#288);
#108=PLANE('',#290);
#109=PLANE('',#295);
#110=PLANE('',#297);
#111=PLANE('',#303);
#112=PLANE('',#305);
#113=PLANE('',#308);
#114=PLANE('',#312);
#115=PLANE('',#314);
#116=PLANE('',#317);
#117=FACE_OUTER_BOUND('',#173,.T.);
#118=FACE_OUTER_BOUND('',#180,.T.);
#119=FACE_OUTER_BOUND('',#189,.F.);
#120=FACE_OUTER_BOUND('',#192,.F.);
#121=FACE_OUTER_BOUND('',#197,.F.);
#122=FACE_OUTER_BOUND('',#200,.F.);
#123=ADVANCED_FACE('',(#145,#146),#142,.T.);
#124=ADVANCED_FACE('',(#117),#107,.T.);
#125=ADVANCED_FACE('',(#147,#148),#108,.T.);
#126=ADVANCED_FACE('',(#149,#150),#143,.T.);
#127=ADVANCED_FACE('',(#151,#152),#103,.T.);
#128=ADVANCED_FACE('',(#118),#109,.T.);
#129=ADVANCED_FACE('',(#153,#154),#110,.T.);
#130=ADVANCED_FACE('',(#155,#156),#144,.T.);
#131=ADVANCED_FACE('',(#157,#158),#104,.T.);
#132=ADVANCED_FACE('',(#159,#160),#111,.F.);
#133=ADVANCED_FACE('',(#119),#112,.T.);
#134=ADVANCED_FACE('',(#161,#162),#105,.T.);
#135=ADVANCED_FACE('',(#120),#113,.F.);
#136=ADVANCED_FACE('',(#163,#164),#98,.F.);
#137=ADVANCED_FACE('',(#165,#166),#114,.F.);
#138=ADVANCED_FACE('',(#121),#115,.T.);
#139=ADVANCED_FACE('',(#167,#168),#106,.T.);
#140=ADVANCED_FACE('',(#122),#116,.F.);
#141=ADVANCED_FACE('',(#169,#170),#99,.F.);
#142=CYLINDRICAL_SURFACE('',#286,6.5125);
#143=CYLINDRICAL_SURFACE('',#292,7.05);
#144=CYLINDRICAL_SURFACE('',#299,7.05);
#145=FACE_BOUND('',#171,.T.);
#146=FACE_BOUND('',#172,.T.);
#147=FACE_BOUND('',#174,.T.);
#148=FACE_BOUND('',#175,.T.);
#149=FACE_BOUND('',#176,.T.);
#150=FACE_BOUND('',#177,.T.);
#151=FACE_BOUND('',#178,.T.);
#152=FACE_BOUND('',#179,.T.);
#153=FACE_BOUND('',#181,.T.);
#154=FACE_BOUND('',#182,.T.);
#155=FACE_BOUND('',#183,.T.);
#156=FACE_BOUND('',#184,.T.);
#157=FACE_BOUND('',#185,.T.);
#158=FACE_BOUND('',#186,.T.);
#159=FACE_BOUND('',#187,.F.);
#160=FACE_BOUND('',#188,.F.);
#161=FACE_BOUND('',#190,.F.);
#162=FACE_BOUND('',#191,.F.);
#163=FACE_BOUND('',#193,.F.);
#164=FACE_BOUND('',#194,.F.);
#165=FACE_BOUND('',#195,.F.);
#166=FACE_BOUND('',#196,.F.);
#167=FACE_BOUND('',#198,.F.);
#168=FACE_BOUND('',#199,.F.);
#169=FACE_BOUND('',#201,.F.);
#170=FACE_BOUND('',#202,.F.);
#171=EDGE_LOOP('',(#203));
#172=EDGE_LOOP('',(#204));
#173=EDGE_LOOP('',(#205));
#174=EDGE_LOOP('',(#206));
#175=EDGE_LOOP('',(#207));
#176=EDGE_LOOP('',(#208));
#177=EDGE_LOOP('',(#209));
#178=EDGE_LOOP('',(#210));
#179=EDGE_LOOP('',(#211));
#180=EDGE_LOOP('',(#212));
#181=EDGE_LOOP('',(#213));
#182=EDGE_LOOP('',(#214));
#183=EDGE_LOOP('',(#215));
#184=EDGE_LOOP('',(#216));
#185=EDGE_LOOP('',(#217));
#186=EDGE_LOOP('',(#218));
#187=EDGE_LOOP('',(#219));
#188=EDGE_LOOP('',(#220));
#189=EDGE_LOOP('',(#221));
#190=EDGE_LOOP('',(#222));
#191=EDGE_LOOP('',(#223));
#192=EDGE_LOOP('',(#224));
#193=EDGE_LOOP('',(#225));
#194=EDGE_LOOP('',(#226));
#195=EDGE_LOOP('',(#227));
#196=EDGE_LOOP('',(#228));
#197=EDGE_LOOP('',(#229));
#198=EDGE_LOOP('',(#230));
#199=EDGE_LOOP('',(#231));
#200=EDGE_LOOP('',(#232));
#201=EDGE_LOOP('',(#233));
#202=EDGE_LOOP('',(#234));
#203=ORIENTED_EDGE('',*,*,#251,.F.);
#204=ORIENTED_EDGE('',*,*,#252,.F.);
#205=ORIENTED_EDGE('',*,*,#253,.T.);
#206=ORIENTED_EDGE('',*,*,#252,.T.);
#207=ORIENTED_EDGE('',*,*,#254,.F.);
#208=ORIENTED_EDGE('',*,*,#255,.T.);
#209=ORIENTED_EDGE('',*,*,#254,.T.);
#210=ORIENTED_EDGE('',*,*,#253,.F.);
#211=ORIENTED_EDGE('',*,*,#255,.F.);
#212=ORIENTED_EDGE('',*,*,#256,.T.);
#213=ORIENTED_EDGE('',*,*,#251,.T.);
#214=ORIENTED_EDGE('',*,*,#257,.F.);
#215=ORIENTED_EDGE('',*,*,#258,.T.);
#216=ORIENTED_EDGE('',*,*,#257,.T.);
#217=ORIENTED_EDGE('',*,*,#256,.F.);
#218=ORIENTED_EDGE('',*,*,#258,.F.);
#219=ORIENTED_EDGE('',*,*,#259,.T.);
#220=ORIENTED_EDGE('',*,*,#260,.T.);
#221=ORIENTED_EDGE('',*,*,#261,.T.);
#222=ORIENTED_EDGE('',*,*,#261,.F.);
#223=ORIENTED_EDGE('',*,*,#260,.F.);
#224=ORIENTED_EDGE('',*,*,#262,.T.);
#225=ORIENTED_EDGE('',*,*,#259,.F.);
#226=ORIENTED_EDGE('',*,*,#262,.F.);
#227=ORIENTED_EDGE('',*,*,#263,.T.);
#228=ORIENTED_EDGE('',*,*,#264,.T.);
#229=ORIENTED_EDGE('',*,*,#265,.T.);
#230=ORIENTED_EDGE('',*,*,#265,.F.);
#231=ORIENTED_EDGE('',*,*,#264,.F.);
#232=ORIENTED_EDGE('',*,*,#266,.T.);
#233=ORIENTED_EDGE('',*,*,#263,.F.);
#234=ORIENTED_EDGE('',*,*,#266,.F.);
#235=VERTEX_POINT('',#393);
#236=VERTEX_POINT('',#395);
#237=VERTEX_POINT('',#398);
#238=VERTEX_POINT('',#401);
#239=VERTEX_POINT('',#404);
#240=VERTEX_POINT('',#408);
#241=VERTEX_POINT('',#411);
#242=VERTEX_POINT('',#414);
#243=VERTEX_POINT('',#418);
#244=VERTEX_POINT('',#420);
#245=VERTEX_POINT('',#423);
#246=VERTEX_POINT('',#427);
#247=VERTEX_POINT('',#431);
#248=VERTEX_POINT('',#433);
#249=VERTEX_POINT('',#436);
#250=VERTEX_POINT('',#440);
#251=EDGE_CURVE('',#235,#235,#267,.T.);
#252=EDGE_CURVE('',#236,#236,#268,.T.);
#253=EDGE_CURVE('',#237,#237,#269,.T.);
#254=EDGE_CURVE('',#238,#238,#270,.T.);
#255=EDGE_CURVE('',#239,#239,#271,.T.);
#256=EDGE_CURVE('',#240,#240,#272,.T.);
#257=EDGE_CURVE('',#241,#241,#273,.T.);
#258=EDGE_CURVE('',#242,#242,#274,.T.);
#259=EDGE_CURVE('',#243,#243,#275,.T.);
#260=EDGE_CURVE('',#244,#244,#276,.T.);
#261=EDGE_CURVE('',#245,#245,#277,.T.);
#262=EDGE_CURVE('',#246,#246,#278,.T.);
#263=EDGE_CURVE('',#247,#247,#279,.T.);
#264=EDGE_CURVE('',#248,#248,#280,.T.);
#265=EDGE_CURVE('',#249,#249,#281,.T.);
#266=EDGE_CURVE('',#250,#250,#282,.T.);
#267=CIRCLE('',#284,6.5125);
#268=CIRCLE('',#285,6.5125);
#269=CIRCLE('',#287,5.45);
#270=CIRCLE('',#289,7.05);
#271=CIRCLE('',#291,7.05);
#272=CIRCLE('',#294,5.45);
#273=CIRCLE('',#296,7.05);
#274=CIRCLE('',#298,7.05);
#275=CIRCLE('',#301,6.22382486540519);
#276=CIRCLE('',#302,6.65);
#277=CIRCLE('',#304,5.45);
#278=CIRCLE('',#307,5.76194465005349);
#279=CIRCLE('',#310,6.22382486540518);
#280=CIRCLE('',#311,6.65);
#281=CIRCLE('',#313,5.45);
#282=CIRCLE('',#316,5.76194465005349);
#283=AXIS2_PLACEMENT_3D('',#391,#319,#320);
#284=AXIS2_PLACEMENT_3D('',#392,#321,#322);
#285=AXIS2_PLACEMENT_3D('',#394,#323,#324);
#286=AXIS2_PLACEMENT_3D('',#396,#325,#326);
#287=AXIS2_PLACEMENT_3D('',#397,#327,#328);
#288=AXIS2_PLACEMENT_3D('',#399,#329,#330);
#289=AXIS2_PLACEMENT_3D('',#400,#331,#332);
#290=AXIS2_PLACEMENT_3D('',#402,#333,#334);
#291=AXIS2_PLACEMENT_3D('',#403,#335,#336);
#292=AXIS2_PLACEMENT_3D('',#405,#337,#338);
#293=AXIS2_PLACEMENT_3D('',#406,#339,#340);
#294=AXIS2_PLACEMENT_3D('',#407,#341,#342);
#295=AXIS2_PLACEMENT_3D('',#409,#343,#344);
#296=AXIS2_PLACEMENT_3D('',#410,#345,#346);
#297=AXIS2_PLACEMENT_3D('',#412,#347,#348);
#298=AXIS2_PLACEMENT_3D('',#413,#349,#350);
#299=AXIS2_PLACEMENT_3D('',#415,#351,#352);
#300=AXIS2_PLACEMENT_3D('',#416,#353,#354);
#301=AXIS2_PLACEMENT_3D('',#417,#355,#356);
#302=AXIS2_PLACEMENT_3D('',#419,#357,#358);
#303=AXIS2_PLACEMENT_3D('',#421,#359,#360);
#304=AXIS2_PLACEMENT_3D('',#422,#361,#362);
#305=AXIS2_PLACEMENT_3D('',#424,#363,#364);
#306=AXIS2_PLACEMENT_3D('',#425,#365,#366);
#307=AXIS2_PLACEMENT_3D('',#426,#367,#368);
#308=AXIS2_PLACEMENT_3D('',#428,#369,#370);
#309=AXIS2_PLACEMENT_3D('',#429,#371,#372);
#310=AXIS2_PLACEMENT_3D('',#430,#373,#374);
#311=AXIS2_PLACEMENT_3D('',#432,#375,#376);
#312=AXIS2_PLACEMENT_3D('',#434,#377,#378);
#313=AXIS2_PLACEMENT_3D('',#435,#379,#380);
#314=AXIS2_PLACEMENT_3D('',#437,#381,#382);
#315=AXIS2_PLACEMENT_3D('',#438,#383,#384);
#316=AXIS2_PLACEMENT_3D('',#439,#385,#386);
#317=AXIS2_PLACEMENT_3D('',#441,#387,#388);
#318=AXIS2_PLACEMENT_3D('',#442,#389,#390);
#319=DIRECTION('',(0.,0.,1.));
#320=DIRECTION('',(1.,0.,0.));
#321=DIRECTION('',(0.,1.,0.));
#322=DIRECTION('',(0.,0.,-1.));
#323=DIRECTION('',(0.,-1.,0.));
#324=DIRECTION('',(0.,0.,1.));
#325=DIRECTION('',(0.,1.,0.));
#326=DIRECTION('',(0.,0.,1.));
#327=DIRECTION('',(0.,-1.,0.));
#328=DIRECTION('',(1.,0.,0.));
#329=DIRECTION('',(0.,-1.,0.));
#330=DIRECTION('',(1.,0.,0.));
#331=DIRECTION('',(0.,-1.,0.));
#332=DIRECTION('',(1.,0.,0.));
#333=DIRECTION('',(0.,1.,0.));
#334=DIRECTION('',(-1.,0.,0.));
#335=DIRECTION('',(0.,1.,0.));
#336=DIRECTION('',(1.,0.,0.));
#337=DIRECTION('',(0.,-1.,0.));
#338=DIRECTION('',(1.,0.,0.));
#339=DIRECTION('',(0.,-1.,0.));
#340=DIRECTION('',(1.,0.,0.));
#341=DIRECTION('',(0.,1.,0.));
#342=DIRECTION('',(1.,0.,0.));
#343=DIRECTION('',(0.,1.,0.));
#344=DIRECTION('',(1.,0.,0.));
#345=DIRECTION('',(0.,1.,0.));
#346=DIRECTION('',(1.,0.,0.));
#347=DIRECTION('',(0.,-1.,0.));
#348=DIRECTION('',(-1.,0.,0.));
#349=DIRECTION('',(0.,-1.,0.));
#350=DIRECTION('',(1.,0.,0.));
#351=DIRECTION('',(0.,1.,0.));
#352=DIRECTION('',(1.,0.,0.));
#353=DIRECTION('',(0.,1.,0.));
#354=DIRECTION('',(1.,0.,0.));
#355=DIRECTION('',(0.,1.,0.));
#356=DIRECTION('',(0.,0.,-1.));
#357=DIRECTION('',(0.,-1.,0.));
#358=DIRECTION('',(1.,0.,0.));
#359=DIRECTION('',(0.,-1.,0.));
#360=DIRECTION('',(-1.,0.,0.));
#361=DIRECTION('',(0.,1.,0.));
#362=DIRECTION('',(1.,0.,0.));
#363=DIRECTION('',(0.,-1.,0.));
#364=DIRECTION('',(1.,0.,0.));
#365=DIRECTION('',(0.,-1.,0.));
#366=DIRECTION('',(1.,0.,0.));
#367=DIRECTION('',(0.,-1.,0.));
#368=DIRECTION('',(0.,0.,-1.));
#369=DIRECTION('',(0.,-1.,0.));
#370=DIRECTION('',(0.,0.,-1.));
#371=DIRECTION('',(0.,1.,0.));
#372=DIRECTION('',(0.,1.71210506266581E-016,1.));
#373=DIRECTION('',(1.33678554708408E-016,-1.,2.29165302995753E-017));
#374=DIRECTION('',(-1.,0.,0.));
#375=DIRECTION('',(0.,1.,0.));
#376=DIRECTION('',(1.,0.,0.));
#377=DIRECTION('',(-1.33678554708408E-016,1.,-2.29165302995753E-017));
#378=DIRECTION('',(1.,1.31838984174237E-016,0.));
#379=DIRECTION('',(0.,-1.,0.));
#380=DIRECTION('',(1.,0.,0.));
#381=DIRECTION('',(0.,1.,0.));
#382=DIRECTION('',(1.,0.,0.));
#383=DIRECTION('',(0.,1.,0.));
#384=DIRECTION('',(1.,0.,0.));
#385=DIRECTION('',(0.,1.,0.));
#386=DIRECTION('',(0.,0.,1.));
#387=DIRECTION('',(0.,1.,0.));
#388=DIRECTION('',(0.,0.,1.));
#389=DIRECTION('',(0.,-1.,0.));
#390=DIRECTION('',(0.,-5.9422301524193E-017,-1.));
#391=CARTESIAN_POINT('',(0.,0.,0.));
#392=CARTESIAN_POINT('',(5.42101086242752E-017,36.6,-8.67361737988404E-016));
#393=CARTESIAN_POINT('',(5.42101086242752E-017,36.6,-6.5125));
#394=CARTESIAN_POINT('',(5.42101086242752E-017,12.2,-8.67361737988404E-016));
#395=CARTESIAN_POINT('',(5.42101086242752E-017,12.2,6.5125));
#396=CARTESIAN_POINT('',(5.42101086242752E-017,-0.199999999999999,-8.67361737988404E-016));
#397=CARTESIAN_POINT('',(5.42101086242752E-017,-0.999999999999999,-1.77635683940025E-015));
#398=CARTESIAN_POINT('',(5.45,-0.999999999999999,-1.77635683940025E-015));
#399=CARTESIAN_POINT('',(5.42101086242752E-017,-0.999999999999999,-1.77635683940025E-015));
#400=CARTESIAN_POINT('',(5.42101086242752E-017,12.2,-1.77635683940025E-015));
#401=CARTESIAN_POINT('',(7.05,12.2,-1.77635683940025E-015));
#402=CARTESIAN_POINT('',(5.42101086242752E-017,12.2,-1.77635683940025E-015));
#403=CARTESIAN_POINT('',(5.42101086242752E-017,0.600000000000002,-1.77635683940025E-015));
#404=CARTESIAN_POINT('',(7.05,0.600000000000002,-1.77635683940025E-015));
#405=CARTESIAN_POINT('',(5.42101086242752E-017,12.2,-1.77635683940025E-015));
#406=CARTESIAN_POINT('',(5.42101086242752E-017,0.600000000000002,-1.77635683940025E-015));
#407=CARTESIAN_POINT('',(0.,49.8,0.));
#408=CARTESIAN_POINT('',(5.45,49.8,0.));
#409=CARTESIAN_POINT('',(0.,49.8,0.));
#410=CARTESIAN_POINT('',(0.,36.6,0.));
#411=CARTESIAN_POINT('',(7.05,36.6,0.));
#412=CARTESIAN_POINT('',(0.,36.6,0.));
#413=CARTESIAN_POINT('',(0.,48.2,0.));
#414=CARTESIAN_POINT('',(7.05,48.2,0.));
#415=CARTESIAN_POINT('',(0.,36.6,0.));
#416=CARTESIAN_POINT('',(0.,48.2,0.));
#417=CARTESIAN_POINT('',(5.42101086242752E-017,0.6,-8.67361737988404E-016));
#418=CARTESIAN_POINT('',(5.42101086242752E-017,0.6,-6.22382486540519));
#419=CARTESIAN_POINT('',(2.71050543121376E-016,0.6,-1.8847770566488E-015));
#420=CARTESIAN_POINT('',(6.65,0.6,-1.8847770566488E-015));
#421=CARTESIAN_POINT('',(0.0123962016992862,0.6,-0.00101316348029166));
#422=CARTESIAN_POINT('',(2.71050543121376E-016,-0.6,-1.8847770566488E-015));
#423=CARTESIAN_POINT('',(5.45,-0.6,-1.8847770566488E-015));
#424=CARTESIAN_POINT('',(2.71050543121376E-016,-0.6,-1.8847770566488E-015));
#425=CARTESIAN_POINT('',(2.71050543121376E-016,0.6,-1.8847770566488E-015));
#426=CARTESIAN_POINT('',(5.42101086242752E-017,-0.199999999999999,-8.67361737988404E-016));
#427=CARTESIAN_POINT('',(5.42101086242752E-017,-0.199999999999999,-5.76194465005349));
#428=CARTESIAN_POINT('',(5.42101086242752E-017,-0.199999999999999,-8.67361737988404E-016));
#429=CARTESIAN_POINT('',(5.42101086242752E-017,1.1,-8.67361737988404E-016));
#430=CARTESIAN_POINT('',(4.06914507230072E-016,48.2,-8.78820003138191E-016));
#431=CARTESIAN_POINT('',(-6.22382486540518,48.2,-8.78820003138191E-016));
#432=CARTESIAN_POINT('',(2.16840434497101E-016,48.2,1.0842021724855E-016));
#433=CARTESIAN_POINT('',(6.65,48.2,1.0842021724855E-016));
#434=CARTESIAN_POINT('',(0.0123962016992862,48.2,0.00101316348028958));
#435=CARTESIAN_POINT('',(2.16840434497101E-016,49.4,1.0842021724855E-016));
#436=CARTESIAN_POINT('',(5.45,49.4,1.0842021724855E-016));
#437=CARTESIAN_POINT('',(2.16840434497101E-016,49.4,1.0842021724855E-016));
#438=CARTESIAN_POINT('',(2.16840434497101E-016,48.2,1.0842021724855E-016));
#439=CARTESIAN_POINT('',(5.42101086242752E-017,49.,-8.67361737988404E-016));
#440=CARTESIAN_POINT('',(5.42101086242752E-017,49.,5.76194465005349));
#441=CARTESIAN_POINT('',(5.42101086242752E-017,49.,-8.67361737988404E-016));
#442=CARTESIAN_POINT('',(5.42101086242752E-017,47.7,-8.67361737988404E-016));
#443=(
GEOMETRIC_REPRESENTATION_CONTEXT(3)
GLOBAL_UNCERTAINTY_ASSIGNED_CONTEXT((#444))
GLOBAL_UNIT_ASSIGNED_CONTEXT((#450,#446,#445))
REPRESENTATION_CONTEXT('1001212','TOP_LEVEL_ASSEMBLY_PART')
);
#444=UNCERTAINTY_MEASURE_WITH_UNIT(LENGTH_MEASURE(2.E-005),#450,
'DISTANCE_ACCURACY_VALUE','Maximum Tolerance applied to model');
#445=(
NAMED_UNIT(*)
SI_UNIT($,.STERADIAN.)
SOLID_ANGLE_UNIT()
);
#446=(
CONVERSION_BASED_UNIT('DEGREE',#448)
NAMED_UNIT(#447)
PLANE_ANGLE_UNIT()
);
#447=DIMENSIONAL_EXPONENTS(0.,0.,0.,0.,0.,0.,0.);
#448=PLANE_ANGLE_MEASURE_WITH_UNIT(PLANE_ANGLE_MEASURE(0.0174532925),#449);
#449=(
NAMED_UNIT(*)
PLANE_ANGLE_UNIT()
SI_UNIT($,.RADIAN.)
);
#450=(
LENGTH_UNIT()
NAMED_UNIT(*)
SI_UNIT(.MILLI.,.METRE.)
);
ENDSEC;
END-ISO-10303-21;
