  0
SECTION
  2
HEADER
  9
$ACADVER
  1
AC1009
  9
$INSBASE
 10
0.0
 20
0.0
 30
0.0
  9
$EXTMIN
 10
-307.82942089545628
 20
341.98317719685031
 30
0.0
  9
$EXTMAX
 10
809.76010100000008
 20
764.68217400000003
 30
0.0
  9
$LIMMIN
 10
0.0
 20
0.0
  9
$LIMMAX
 10
420.0
 20
297.0
  9
$ORTHOMODE
 70
     0
  9
$REGENMODE
 70
     1
  9
$FILLMODE
 70
     1
  9
$QTEXTMODE
 70
     0
  9
$MIRRTEXT
 70
     1
  9
$DRAGMODE
 70
     2
  9
$LTSCALE
 40
1.0
  9
$OSMODE
 70
    47
  9
$ATTMODE
 70
     1
  9
$TEXTSIZE
 40
0.0
  9
$TRACEWID
 40
1.0
  9
$TEXTSTYLE
  7
STANDARD
  9
$CLAYER
  8
0
  9
$CELTYPE
  6
BYLAYER
  9
$CECOLOR
 62
   256
  9
$DIMSCALE
 40
1.0
  9
$DIMASZ
 40
2.5
  9
$DIMEXO
 40
0.625
  9
$DIMDLI
 40
3.75
  9
$DIMRND
 40
0.0
  9
$DIMDLE
 40
0.0
  9
$DIMEXE
 40
1.25
  9
$DIMTP
 40
0.0
  9
$DIMTM
 40
0.0
  9
$DIMTXT
 40
2.5
  9
$DIMCEN
 40
2.5
  9
$DIMTSZ
 40
0.0
  9
$DIMTOL
 70
     0
  9
$DIMLIM
 70
     0
  9
$DIMTIH
 70
     0
  9
$DIMTOH
 70
     0
  9
$DIMSE1
 70
     0
  9
$DIMSE2
 70
     0
  9
$DIMTAD
 70
     1
  9
$DIMZIN
 70
     8
  9
$DIMBLK
  1

  9
$DIMASO
 70
     1
  9
$DIMSHO
 70
     1
  9
$DIMPOST
  1

  9
$DIMAPOST
  1

  9
$DIMALT
 70
     0
  9
$DIMALTD
 70
     3
  9
$DIMALTF
 40
0.03937
  9
$DIMLFAC
 40
1.0
  9
$DIMTOFL
 70
     1
  9
$DIMTVP
 40
0.0
  9
$DIMTIX
 70
     0
  9
$DIMSOXD
 70
     0
  9
$DIMSAH
 70
     0
  9
$DIMBLK1
  1

  9
$DIMBLK2
  1

  9
$DIMSTYLE
  2
STANDARD
  9
$DIMCLRD
 70
     0
  9
$DIMCLRE
 70
     0
  9
$DIMCLRT
 70
     0
  9
$DIMTFAC
 40
1.0
  9
$DIMGAP
 40
0.625
  9
$LUNITS
 70
     2
  9
$LUPREC
 70
     4
  9
$SKETCHINC
 40
1.0
  9
$FILLETRAD
 40
2.5
  9
$AUNITS
 70
     0
  9
$AUPREC
 70
     0
  9
$MENU
  1
.
  9
$ELEVATION
 40
0.0
  9
$PELEVATION
 40
0.0
  9
$THICKNESS
 40
0.0
  9
$LIMCHECK
 70
     0
  9
$BLIPMODE
 70
     0
  9
$CHAMFERA
 40
2.5
  9
$CHAMFERB
 40
2.5
  9
$SKPOLY
 70
     0
  9
$TDCREATE
 40
2311942.6599075459
  9
$TDUPDATE
 40
2454455.4023677078
  9
$TDINDWG
 40
0.0002902199
  9
$TDUSRTIMER
 40
0.0002902199
  9
$USRTIMER
 70
     1
  9
$ANGBASE
 50
0.0
  9
$ANGDIR
 70
     0
  9
$PDMODE
 70
     0
  9
$PDSIZE
 40
0.0
  9
$PLINEWID
 40
0.0
  9
$COORDS
 70
     1
  9
$SPLFRAME
 70
     0
  9
$SPLINETYPE
 70
     6
  9
$SPLINESEGS
 70
     8
  9
$ATTDIA
 70
     0
  9
$ATTREQ
 70
     1
  9
$HANDLING
 70
 22529
  9
$HANDSEED
  5
B82
  9
$SURFTAB1
 70
     6
  9
$SURFTAB2
 70
     6
  9
$SURFTYPE
 70
     6
  9
$SURFU
 70
     6
  9
$SURFV
 70
     6
  9
$UCSNAME
  2

  9
$UCSORG
 10
0.0
 20
0.0
 30
0.0
  9
$UCSXDIR
 10
1.0
 20
0.0
 30
0.0
  9
$UCSYDIR
 10
0.0
 20
1.0
 30
0.0
  9
$PUCSNAME
  2

  9
$PUCSORG
 10
0.0
 20
0.0
 30
0.0
  9
$PUCSXDIR
 10
1.0
 20
0.0
 30
0.0
  9
$PUCSYDIR
 10
0.0
 20
1.0
 30
0.0
  9
$USERI1
 70
     0
  9
$USERI2
 70
     0
  9
$USERI3
 70
     0
  9
$USERI4
 70
     0
  9
$USERI5
 70
     0
  9
$USERR1
 40
0.0
  9
$USERR2
 40
0.0
  9
$USERR3
 40
0.0
  9
$USERR4
 40
0.0
  9
$USERR5
 40
0.0
  9
$WORLDVIEW
 70
     1
  9
$SHADEDGE
 70
     3
  9
$SHADEDIF
 70
    70
  9
$TILEMODE
 70
     1
  9
$MAXACTVP
 70
    48
  9
$PLIMCHECK
 70
     0
  9
$PEXTMIN
 10
0.0
 20
0.0
 30
0.0
  9
$PEXTMAX
 10
265.75521900000001
 20
182.5141909999999
 30
2.0
  9
$PLIMMIN
 10
0.0
 20
0.0
  9
$PLIMMAX
 10
420.0
 20
297.0
  9
$UNITMODE
 70
     0
  9
$VISRETAIN
 70
     0
  9
$PLINEGEN
 70
     0
  9
$PSLTSCALE
 70
     1
  0
ENDSEC
  0
SECTION
  2
TABLES
  0
TABLE
  2
VPORT
 70
     2
  0
VPORT
  2
*ACTIVE
 70
     0
 10
0.0
 20
0.0
 11
1.0
 21
1.0
 12
250.9653400522719
 22
553.332675598425
 13
0.0
 23
0.0
 14
1.0
 24
1.0
 15
0.0
 25
0.0
 16
0.0
 26
0.0
 36
1.0
 17
0.0
 27
0.0
 37
0.0
 40
724.35759464163993
 41
1.550724637681159
 42
50.0
 43
0.0
 44
0.0
 50
0.0
 51
0.0
 71
     0
 72
   100
 73
     1
 74
     1
 75
     0
 76
     0
 77
     0
 78
     0
  0
ENDTAB
  0
TABLE
  2
LTYPE
 70
     8
  0
LTYPE
  2
CONTINUOUS
 70
     0
  3
Solid line
 72
    65
 73
     0
 40
0.0
  0
LTYPE
  2
DASHED
 70
     0
  3
__ __ __ __ __ __ __ __ __ __ __ __ __ __ __ __
 72
    65
 73
     2
 40
15.0
 49
12.0
 49
-3.0
  0
LTYPE
  2
DASHDOT
 70
     0
  3
 __ . __ . __ . __ . __ . __ . __ . 
 72
    65
 73
     4
 40
18.5
 49
12.0
 49
-3.0
 49
0.5
 49
-3.0
  0
LTYPE
  2
DOT
 70
     0
  3
 . . . . . . . . . . . . . . . .
 72
    65
 73
     2
 40
3.5
 49
0.5
 49
-3.0
  0
LTYPE
  2
DASHSPACE
 70
     0
  3
__    __    __    __    __   
 72
    65
 73
     2
 40
30.0
 49
12.0
 49
-18.0
  0
LTYPE
  2
DASHDOT2
 70
     0
  3
__ . . __ . . __ . . __ 
 72
    65
 73
     6
 40
22.0
 49
12.0
 49
-3.0
 49
0.5
 49
-3.0
 49
0.5
 49
-3.0
  0
LTYPE
  2
PHANTOM
 70
     0
  3
____________    ____    ____   _
 72
    65
 73
     6
 40
20.0
 49
10.0
 49
-2.0
 49
2.0
 49
-2.0
 49
2.0
 49
-2.0
  0
LTYPE
  2
AXES
 70
     0
  3
________  __  ________  __  _____
 72
    65
 73
     4
 40
24.0
 49
15.0
 49
-3.0
 49
3.0
 49
-3.0
  0
ENDTAB
  0
TABLE
  2
LAYER
 70
     1
  0
LAYER
  2
0
 70
     0
 62
     7
  6
CONTINUOUS
  0
ENDTAB
  0
TABLE
  2
STYLE
 70
     2
  0
STYLE
  2
STANDARD
 70
     0
 40
0.0
 41
1.0
 50
0.0
 71
     0
 42
0.0
  3
isocp.shx
  4

  0
STYLE
  2
GDT
 70
     0
 40
0.0
 41
1.0
 50
0.0
 71
     0
 42
0.0
  3
amgdt.shx
  4

  0
ENDTAB
  0
TABLE
  2
VIEW
 70
     0
  0
ENDTAB
  0
TABLE
  2
UCS
 70
     0
  0
ENDTAB
  0
TABLE
  2
APPID
 70
     1
  0
APPID
  2
ACAD
 70
     0
  0
ENDTAB
  0
TABLE
  2
DIMSTYLE
 70
     1
  0
DIMSTYLE
  2
STANDARD
 70
     0
  3

  4

  5

  6

  7

 40
1.0
 41
2.5
 42
0.625
 43
3.75
 44
1.25
 45
0.0
 46
0.0
 47
0.0
 48
0.0
140
2.5
141
2.5
142
0.0
143
0.03937
144
1.0
145
0.0
146
1.0
147
0.625
 71
     0
 72
     0
 73
     0
 74
     0
 75
     0
 76
     0
 77
     1
 78
     8
170
     0
171
     3
172
     1
173
     0
174
     0
175
     0
176
     0
177
     0
178
     0
  0
ENDTAB
  0
ENDSEC
  0
SECTION
  2
BLOCKS
  0
BLOCK
  8
0
  2
$MODEL_SPACE
 70
     0
 10
0.0
 20
0.0
 30
0.0
  3
$MODEL_SPACE
  1

  0
ENDBLK
  5
E
  8
0
  0
BLOCK
 67
     1
  8
0
  2
$PAPER_SPACE
 70
     0
 10
0.0
 20
0.0
 30
0.0
  3
$PAPER_SPACE
  1

  0
ENDBLK
  5
10
 67
     1
  8
0
  0
BLOCK
  8
0
  2
BLOCK0
 70
     0
 10
0.0
 20
0.0
 30
0.0
  3
BLOCK0
  1

  0
LINE
  5
4D4
  8
0
 62
     3
 10
-68.999968999999993
 20
-58.5
 30
0.0
 11
89.500022999999985
 21
-58.5
 31
0.0
  0
LINE
  5
4D5
  8
0
 62
     3
 10
-70.249968999999993
 20
57.25
 30
0.0
 11
-70.249968999999993
 21
-57.25
 31
0.0
  0
LINE
  5
4D6
  8
0
 62
     3
 10
-68.999968999999993
 20
58.5
 30
0.0
 11
89.500022999999985
 21
58.5
 31
0.0
  0
LINE
  5
4D7
  8
0
 62
     3
 10
90.750022999999985
 20
57.25
 30
0.0
 11
90.750022999999985
 21
-57.25
 31
0.0
  0
LINE
  5
4D8
  8
0
 62
     3
 10
-42.74997299999999
 20
-53.0
 30
0.0
 11
63.250022999999999
 21
-53.0
 31
0.0
  0
LINE
  5
4D9
  8
0
 62
     3
 10
-42.74997299999999
 20
53.0
 30
0.0
 11
-42.74997299999999
 21
-53.0
 31
0.0
  0
LINE
  5
4DA
  8
0
 62
     3
 10
-42.74997299999999
 20
53.0
 30
0.0
 11
63.250022999999999
 21
53.0
 31
0.0
  0
LINE
  5
4DB
  8
0
 62
     3
 10
63.250022999999999
 20
53.0
 30
0.0
 11
63.250022999999999
 21
-53.0
 31
0.0
  0
LINE
  5
4DC
  8
0
 62
     3
 10
-51.249972999999997
 20
-54.0
 30
0.0
 11
-50.24997299999999
 21
-54.0
 31
0.0
  0
LINE
  5
4DD
  8
0
 62
     3
 10
-49.249972999999997
 20
53.0
 30
0.0
 11
-49.249972999999997
 21
-53.0
 31
0.0
  0
LINE
  5
4DE
  8
0
 62
     3
 10
-51.249972999999997
 20
54.0
 30
0.0
 11
-50.24997299999999
 21
54.0
 31
0.0
  0
LINE
  5
4DF
  8
0
 62
     3
 10
-50.24997299999999
 20
53.0
 30
0.0
 11
-50.24997299999999
 21
-53.0
 31
0.0
  0
LINE
  5
4E0
  8
0
 62
     3
 10
-70.249968999999993
 20
54.0
 30
0.0
 11
-51.249972999999997
 21
54.0
 31
0.0
  0
LINE
  5
4E1
  8
0
 62
     3
 10
-50.249977000000001
 20
54.0
 30
0.0
 11
90.750022999999985
 21
54.0
 31
0.0
  0
LINE
  5
4E2
  8
0
 62
     3
 10
-70.249968999999993
 20
53.0
 30
0.0
 11
-50.24997299999999
 21
53.0
 31
0.0
  0
LINE
  5
4E3
  8
0
 62
     3
 10
63.250022999999999
 20
53.0
 30
0.0
 11
69.750022999999985
 21
53.0
 31
0.0
  0
LINE
  5
4E4
  8
0
 62
     3
 10
-49.249972999999997
 20
53.0
 30
0.0
 11
-42.74997299999999
 21
53.0
 31
0.0
  0
LINE
  5
4E5
  8
0
 62
     3
 10
-70.249968999999993
 20
-54.0
 30
0.0
 11
-51.249972999999997
 21
-54.0
 31
0.0
  0
LINE
  5
4E6
  8
0
 62
     3
 10
-50.24997299999999
 20
-54.0
 30
0.0
 11
90.750022999999985
 21
-54.0
 31
0.0
  0
LINE
  5
4E7
  8
0
 62
     3
 10
-49.249972999999997
 20
-53.0
 30
0.0
 11
-42.74997299999999
 21
-53.0
 31
0.0
  0
LINE
  5
4E8
  8
0
 62
     3
 10
63.250022999999999
 20
-53.0
 30
0.0
 11
69.750022999999985
 21
-53.0
 31
0.0
  0
LINE
  5
4E9
  8
0
 62
     3
 10
-70.249968999999993
 20
-53.0
 30
0.0
 11
-50.24997299999999
 21
-53.0
 31
0.0
  0
LINE
  5
4EA
  8
0
 62
     3
 10
70.750022999999999
 20
54.0
 30
0.0
 11
70.750022999999999
 21
-54.0
 31
0.0
  0
LINE
  5
4EB
  8
0
 62
     3
 10
69.750022999999985
 20
53.0
 30
0.0
 11
69.750022999999985
 21
-53.0
 31
0.0
  0
ARC
  5
4EC
  8
0
 62
     3
 10
-68.999968999999993
 20
57.25
 30
0.0
 40
1.25
 50
90.000005000000002
 51
180.00000099999991
  0
ARC
  5
4ED
  8
0
 62
     3
 10
-68.999968999999993
 20
-57.25
 30
0.0
 40
1.25
 50
180.00000099999991
 51
270.0
  0
ARC
  5
4EE
  8
0
 62
     3
 10
89.500022999999985
 20
-57.25
 30
0.0
 40
1.25
 50
270.0
 51
0.000003
  0
ARC
  5
4EF
  8
0
 62
     3
 10
89.500022999999985
 20
57.25
 30
0.0
 40
1.25
 50
0.000003
 51
90.000005000000002
  0
LINE
  5
4F0
  8
0
  6
DASHSPACE
 62
     3
 10
80.000022999999999
 20
54.5
 30
0.0
 11
80.000022999999999
 21
54.0
 31
0.0
  0
LINE
  5
4F1
  8
0
  6
DASHSPACE
 62
     3
 10
81.500022999999999
 20
54.5
 30
0.0
 11
81.500022999999999
 21
54.0
 31
0.0
  0
LINE
  5
4F2
  8
0
 62
     3
 10
80.000022999999999
 20
-53.5
 30
0.0
 11
80.000022999999999
 21
-54.0
 31
0.0
  0
LINE
  5
4F3
  8
0
 62
     3
 10
81.500022999999999
 20
-53.5
 30
0.0
 11
81.500022999999999
 21
-54.0
 31
0.0
  0
ARC
  5
4F4
  8
0
  6
DASHSPACE
 62
     3
 10
80.750022999999985
 20
54.5
 30
0.0
 40
0.75
 50
0.000003
 51
180.00000099999991
  0
ARC
  5
4F5
  8
0
 62
     3
 10
80.750022999999985
 20
53.5
 30
0.0
 40
0.75
 50
180.00000099999991
 51
0.000003
  0
LINE
  5
4F6
  8
0
 62
     3
 10
81.500022999999999
 20
54.0
 30
0.0
 11
81.500022999999999
 21
53.5
 31
0.0
  0
LINE
  5
4F7
  8
0
 62
     3
 10
80.000022999999999
 20
54.0
 30
0.0
 11
80.000022999999999
 21
53.5
 31
0.0
  0
ARC
  5
4F8
  8
0
 62
     3
 10
80.750022999999985
 20
-53.5
 30
0.0
 40
0.75
 50
0.000003
 51
180.00000099999991
  0
ARC
  5
4F9
  8
0
  6
DASHSPACE
 62
     3
 10
80.750022999999985
 20
-54.5
 30
0.0
 40
0.75
 50
180.00000099999991
 51
0.000003
  0
LINE
  5
4FA
  8
0
  6
DASHSPACE
 62
     3
 10
81.500022999999999
 20
-54.0
 30
0.0
 11
81.500022999999999
 21
-54.5
 31
0.0
  0
LINE
  5
4FB
  8
0
  6
DASHSPACE
 62
     3
 10
80.000022999999999
 20
-54.0
 30
0.0
 11
80.000022999999999
 21
-54.5
 31
0.0
  0
ENDBLK
  5
4FC
  8
0
  0
BLOCK
  8
0
  2
BLOCK1
 70
     0
 10
0.0
 20
0.0
 30
0.0
  3
BLOCK1
  1

  0
TEXT
  5
4FE
  8
0
 62
     7
 10
130.0
 20
8.1999999999999993
 30
0.0
 40
3.0
  1
Y
 50
270.0
 41
0.9777777777777775
 72
     5
 11
130.0
 21
6.0
 31
0.0
  0
ENDBLK
  5
4FF
  8
0
  0
BLOCK
  8
0
  2
BLOCK2
 70
     0
 10
0.0
 20
0.0
 30
0.0
  3
BLOCK2
  1

  0
TEXT
  5
501
  8
0
 62
     7
 10
-134.0
 20
1.1999999999999991
 30
0.0
 40
3.0
  1
Y
 50
270.0
 41
0.9777777777777778
 72
     5
 11
-134.0
 21
-1.0
 31
0.0
  0
ENDBLK
  5
502
  8
0
  0
BLOCK
  8
0
  2
BLOCK3
 70
     0
 10
0.0
 20
0.0
 30
0.0
  3
BLOCK3
  1

  0
TEXT
  5
504
  8
0
 62
     7
 10
4.2500150000000003
 20
97.360534999999999
 30
0.0
 40
3.0
  1
170
 41
1.4660032381380701
 72
     5
 11
11.949994999999991
 21
97.360534999999999
 31
0.0
  0
ENDBLK
  5
505
  8
0
  0
BLOCK
  8
0
  2
BLOCK4
 70
     0
 10
0.0
 20
0.0
 30
0.0
  3
BLOCK4
  1

  0
TEXT
  5
507
  8
0
 62
     7
 10
10.0
 20
136.0
 30
0.0
 40
3.0
  1
X
 50
270.00002604357161
 41
0.9777764444445436
 72
     5
 11
10.000000999999999
 21
133.800003
 31
0.0
  0
ENDBLK
  5
508
  8
0
  0
BLOCK
  8
0
  2
BLOCK5
 70
     0
 10
0.0
 20
0.0
 30
0.0
  3
BLOCK5
  1

  0
TEXT
  5
50A
  8
0
 62
     7
 10
11.0
 20
-125.0
 30
0.0
 40
3.0
  1
X
 50
270.00002604357161
 41
0.9777764444445436
 72
     5
 11
11.00000099999999
 21
-127.1999969999999
 31
0.0
  0
ENDBLK
  5
50B
  8
0
  0
BLOCK
  8
0
  2
BLOCK6
 70
     0
 10
0.0
 20
0.0
 30
0.0
  3
BLOCK6
  1

  0
TEXT
  5
50D
  8
0
 62
     7
 10
40.125019000000002
 20
77.83721899999999
 30
0.0
 40
3.0
  1
87,25
 50
359.99996961578933
 41
1.4466879630616909
 72
     5
 11
53.324981999999991
 21
77.837211999999994
 31
0.0
  0
ENDBLK
  5
50E
  8
0
  0
BLOCK
  8
0
  2
BLOCK7
 70
     0
 10
0.0
 20
0.0
 30
0.0
  3
BLOCK7
  1

  0
TEXT
  5
510
  8
0
 62
     7
 10
2.0000309999999999
 20
-81.961731000000015
 30
0.0
 40
3.0
  1
161
 41
1.655909462365591
 72
     5
 11
9.7000100000000007
 21
-81.961731000000015
 31
0.0
  0
ENDBLK
  5
511
  8
0
  0
BLOCK
  8
0
  2
BLOCK8
 70
     0
 10
0.0
 20
0.0
 30
0.0
  3
BLOCK8
  1

  0
TEXT
  5
513
  8
0
 62
     7
 10
170.207367
 20
4.4500000000000002
 30
0.0
 40
3.0
  1
117
 50
270.0
 41
1.6774193548387091
 72
     5
 11
170.207367
 21
-3.3500000000000001
 31
0.0
  0
LINE
  5
514
  8
0
 62
     7
 10
90.500022999999999
 20
-58.5
 30
0.0
 11
171.207367
 21
-58.5
 31
0.0
  0
LINE
  5
515
  8
0
 62
     7
 10
90.500022999999999
 20
58.5
 30
0.0
 11
171.207367
 21
58.5
 31
0.0
  0
POLYLINE
  5
516
  8
0
 62
     7
 66
     1
 10
0.0
 20
0.0
 30
0.0
  0
VERTEX
  5
A1E
  8
0
 62
     7
 10
168.689728
 20
-56.568150000000003
 30
0.0
  0
VERTEX
  5
A1F
  8
0
 62
     7
 10
169.207367
 20
-58.5
 30
0.0
  0
VERTEX
  5
A20
  8
0
 62
     7
 10
169.72500600000001
 20
-56.568150000000003
 30
0.0
  0
SEQEND
  5
A21
  8
0
 62
     7
  0
POLYLINE
  5
51B
  8
0
 62
     7
 66
     1
 10
0.0
 20
0.0
 30
0.0
  0
VERTEX
  5
A22
  8
0
 62
     7
 10
169.72500600000001
 20
56.568150000000003
 30
0.0
  0
VERTEX
  5
A23
  8
0
 62
     7
 10
169.207367
 20
58.5
 30
0.0
  0
VERTEX
  5
A24
  8
0
 62
     7
 10
168.689728
 20
56.568150000000003
 30
0.0
  0
SEQEND
  5
A25
  8
0
 62
     7
  0
LINE
  5
520
  8
0
 62
     7
 10
169.207367
 20
-58.5
 30
0.0
 11
169.207367
 21
58.5
 31
0.0
  0
ENDBLK
  5
521
  8
0
  0
BLOCK
  8
0
  2
BLOCK9
 70
     0
 10
0.0
 20
0.0
 30
0.0
  3
BLOCK9
  1

  0
TEXT
  5
523
  8
0
 62
     7
 10
156.03360000000001
 20
4.4500070000000003
 30
0.0
 40
3.0
  1
105
 50
270.0
 41
1.4513615074127639
 72
     5
 11
156.03360000000001
 21
-3.3499929999999991
 31
0.0
  0
LINE
  5
524
  8
0
 62
     7
 10
63.250027000000003
 20
-52.499985000000002
 30
0.0
 11
157.03360000000001
 21
-52.499985000000002
 31
0.0
  0
LINE
  5
525
  8
0
 62
     7
 10
63.250027000000003
 20
52.5
 30
0.0
 11
157.03360000000001
 21
52.5
 31
0.0
  0
POLYLINE
  5
526
  8
0
 62
     7
 66
     1
 10
0.0
 20
0.0
 30
0.0
  0
VERTEX
  5
A26
  8
0
 62
     7
 10
154.51596099999989
 20
-50.568134000000001
 30
0.0
  0
VERTEX
  5
A27
  8
0
 62
     7
 10
155.03360000000001
 20
-52.499985000000002
 30
0.0
  0
VERTEX
  5
A28
  8
0
 62
     7
 10
155.5512389999999
 20
-50.568134000000001
 30
0.0
  0
SEQEND
  5
A29
  8
0
 62
     7
  0
POLYLINE
  5
52B
  8
0
 62
     7
 66
     1
 10
0.0
 20
0.0
 30
0.0
  0
VERTEX
  5
A2A
  8
0
 62
     7
 10
155.5512389999999
 20
50.568150000000003
 30
0.0
  0
VERTEX
  5
A2B
  8
0
 62
     7
 10
155.03360000000001
 20
52.5
 30
0.0
  0
VERTEX
  5
A2C
  8
0
 62
     7
 10
154.51596099999989
 20
50.568150000000003
 30
0.0
  0
SEQEND
  5
A2D
  8
0
 62
     7
  0
LINE
  5
530
  8
0
 62
     7
 10
155.03360000000001
 20
-52.499985000000002
 30
0.0
 11
155.03360000000001
 21
52.5
 31
0.0
  0
ENDBLK
  5
531
  8
0
  0
BLOCK
  8
0
  2
BLOCK10
 70
     0
 10
0.0
 20
0.0
 30
0.0
  3
BLOCK10
  1

  0
TEXT
  5
533
  8
0
 62
     7
 10
142.728882
 20
-14.450022000000001
 30
0.0
 40
3.0
  1
35
 50
270.0
 41
1.2905676823578891
 72
     5
 11
142.728882
 21
-19.450022000000001
 31
0.0
  0
LINE
  5
534
  8
0
 62
     7
 10
97.448752999999996
 20
-35.000042000000001
 30
0.0
 11
142.728882
 21
-35.000042000000001
 31
0.0
  0
LINE
  5
535
  8
0
 62
     7
 10
41.95243099999999
 20
0.0
 30
0.0
 11
142.728882
 21
0.0
 31
0.0
  0
POLYLINE
  5
536
  8
0
 62
     7
 66
     1
 10
0.0
 20
0.0
 30
0.0
  0
VERTEX
  5
A2E
  8
0
 62
     7
 10
140.211243
 20
-33.068191999999989
 30
0.0
  0
VERTEX
  5
A2F
  8
0
 62
     7
 10
140.72888199999991
 20
-35.000042000000001
 30
0.0
  0
VERTEX
  5
A30
  8
0
 62
     7
 10
141.246521
 20
-33.068191999999989
 30
0.0
  0
SEQEND
  5
A31
  8
0
 62
     7
  0
POLYLINE
  5
53B
  8
0
 62
     7
 66
     1
 10
0.0
 20
0.0
 30
0.0
  0
VERTEX
  5
A32
  8
0
 62
     7
 10
141.246521
 20
-1.9318519999999999
 30
0.0
  0
VERTEX
  5
A33
  8
0
 62
     7
 10
140.72888199999991
 20
0.0
 30
0.0
  0
VERTEX
  5
A34
  8
0
 62
     7
 10
140.211243
 20
-1.9318519999999999
 30
0.0
  0
SEQEND
  5
A35
  8
0
 62
     7
  0
LINE
  5
540
  8
0
 62
     7
 10
140.72888199999991
 20
-35.000042000000001
 30
0.0
 11
140.72888199999991
 21
0.0
 31
0.0
  0
ENDBLK
  5
541
  8
0
  0
BLOCK
  8
0
  2
BLOCK11
 70
     0
 10
0.0
 20
0.0
 30
0.0
  3
BLOCK11
  1

  0
TEXT
  5
543
  8
0
 62
     7
 10
142.728882
 20
20.550003
 30
0.0
 40
3.0
  1
35
 50
270.0
 41
1.2905676823578891
 72
     5
 11
142.728882
 21
15.550003
 31
0.0
  0
LINE
  5
544
  8
0
 62
     7
 10
41.95243099999999
 20
0.0
 30
0.0
 11
142.728882
 21
0.0
 31
0.0
  0
LINE
  5
545
  8
0
 62
     7
 10
95.666152999999994
 20
35.000011000000001
 30
0.0
 11
142.728882
 21
35.000011000000001
 31
0.0
  0
POLYLINE
  5
546
  8
0
 62
     7
 66
     1
 10
0.0
 20
0.0
 30
0.0
  0
VERTEX
  5
A36
  8
0
 62
     7
 10
140.211243
 20
1.9318519999999999
 30
0.0
  0
VERTEX
  5
A37
  8
0
 62
     7
 10
140.72888199999991
 20
0.0
 30
0.0
  0
VERTEX
  5
A38
  8
0
 62
     7
 10
141.246521
 20
1.9318519999999999
 30
0.0
  0
SEQEND
  5
A39
  8
0
 62
     7
  0
POLYLINE
  5
54B
  8
0
 62
     7
 66
     1
 10
0.0
 20
0.0
 30
0.0
  0
VERTEX
  5
A3A
  8
0
 62
     7
 10
141.246521
 20
33.068160999999989
 30
0.0
  0
VERTEX
  5
A3B
  8
0
 62
     7
 10
140.72888199999991
 20
35.000011000000001
 30
0.0
  0
VERTEX
  5
A3C
  8
0
 62
     7
 10
140.211243
 20
33.068160999999989
 30
0.0
  0
SEQEND
  5
A3D
  8
0
 62
     7
  0
LINE
  5
550
  8
0
 62
     7
 10
140.72888199999991
 20
0.0
 30
0.0
 11
140.72888199999991
 21
35.000011000000001
 31
0.0
  0
ENDBLK
  5
551
  8
0
  0
BLOCK
  8
0
  2
BLOCK12
 70
     0
 10
0.0
 20
0.0
 30
0.0
  3
BLOCK12
  1

  0
TEXT
  5
553
  8
0
 62
     7
 10
104.58335099999999
 20
77.878624000000002
 30
0.0
 40
3.5
  1
20
 41
1.3324927487746741
 72
     5
 11
110.416679
 21
77.878624000000002
 31
0.0
  0
LINE
  5
554
  8
0
 62
     7
 10
97.500015000000005
 20
-18.250033999999989
 30
0.0
 11
97.500015000000005
 21
77.878624000000002
 31
0.0
  0
LINE
  5
555
  8
0
 62
     7
 10
117.5000229999999
 20
-16.499974999999999
 30
0.0
 11
117.5000229999999
 21
77.878624000000002
 31
0.0
  0
POLYLINE
  5
556
  8
0
 62
     7
 66
     1
 10
0.0
 20
0.0
 30
0.0
  0
VERTEX
  5
A3E
  8
0
 62
     7
 10
99.431869999999989
 20
76.396263000000005
 30
0.0
  0
VERTEX
  5
A3F
  8
0
 62
     7
 10
97.500015000000005
 20
75.878624000000002
 30
0.0
  0
VERTEX
  5
A40
  8
0
 62
     7
 10
99.431869999999989
 20
75.360984999999999
 30
0.0
  0
SEQEND
  5
A41
  8
0
 62
     7
  0
POLYLINE
  5
55B
  8
0
 62
     7
 66
     1
 10
0.0
 20
0.0
 30
0.0
  0
VERTEX
  5
A42
  8
0
 62
     7
 10
115.5681689999999
 20
75.360984999999999
 30
0.0
  0
VERTEX
  5
A43
  8
0
 62
     7
 10
117.5000229999999
 20
75.878624000000002
 30
0.0
  0
VERTEX
  5
A44
  8
0
 62
     7
 10
115.5681689999999
 20
76.396263000000005
 30
0.0
  0
SEQEND
  5
A45
  8
0
 62
     7
  0
LINE
  5
560
  8
0
 62
     7
 10
97.500015000000005
 20
75.878624000000002
 30
0.0
 11
117.5000229999999
 21
75.878624000000002
 31
0.0
  0
ENDBLK
  5
561
  8
0
  0
BLOCK
  8
0
  2
BLOCK13
 70
     0
 10
0.0
 20
0.0
 30
0.0
  3
BLOCK13
  1

  0
TEXT
  5
563
  8
0
 62
     7
 10
-85.416640999999998
 20
97.341521999999998
 30
0.0
 40
3.5
  1
20
 41
1.3324927487746741
 72
     5
 11
-79.583313000000004
 21
97.341521999999998
 31
0.0
  0
LINE
  5
564
  8
0
 62
     7
 10
-92.499968999999993
 20
18.500033999999999
 30
0.0
 11
-92.499968999999993
 21
97.341521999999998
 31
0.0
  0
LINE
  5
565
  8
0
 62
     7
 10
-72.499984999999995
 20
50.000031
 30
0.0
 11
-72.499984999999995
 21
97.341521999999998
 31
0.0
  0
POLYLINE
  5
566
  8
0
 62
     7
 66
     1
 10
0.0
 20
0.0
 30
0.0
  0
VERTEX
  5
A46
  8
0
 62
     7
 10
-74.431831000000003
 20
94.823882999999995
 30
0.0
  0
VERTEX
  5
A47
  8
0
 62
     7
 10
-72.499984999999995
 20
95.341521999999983
 30
0.0
  0
VERTEX
  5
A48
  8
0
 62
     7
 10
-74.431831000000003
 20
95.859161
 30
0.0
  0
SEQEND
  5
A49
  8
0
 62
     7
  0
POLYLINE
  5
56B
  8
0
 62
     7
 66
     1
 10
0.0
 20
0.0
 30
0.0
  0
VERTEX
  5
A4A
  8
0
 62
     7
 10
-90.568115000000006
 20
95.859161
 30
0.0
  0
VERTEX
  5
A4B
  8
0
 62
     7
 10
-92.499968999999993
 20
95.341521999999983
 30
0.0
  0
VERTEX
  5
A4C
  8
0
 62
     7
 10
-90.568115000000006
 20
94.823882999999995
 30
0.0
  0
SEQEND
  5
A4D
  8
0
 62
     7
  0
LINE
  5
570
  8
0
 62
     7
 10
-92.499968999999993
 20
95.341521999999983
 30
0.0
 11
-72.499984999999995
 21
95.341521999999983
 31
0.0
  0
ENDBLK
  5
571
  8
0
  0
BLOCK
  8
0
  2
BLOCK14
 70
     0
 10
0.0
 20
0.0
 30
0.0
  3
BLOCK14
  1

  0
TEXT
  5
573
  8
0
 62
     7
 10
-110.445374
 20
2.9166970000000001
 30
0.0
 40
3.5
  1
35
 50
270.0
 41
1.2905676086111639
 72
     5
 11
-110.445374
 21
-2.916636
 31
0.0
  0
LINE
  5
574
  8
0
 62
     7
 10
-96.544281000000026
 20
-17.499973000000001
 30
0.0
 11
-114.445374
 21
-17.499973000000001
 31
0.0
  0
LINE
  5
575
  8
0
 62
     7
 10
-94.499968999999993
 20
17.500033999999989
 30
0.0
 11
-114.445374
 21
17.500033999999989
 31
0.0
  0
POLYLINE
  5
576
  8
0
 62
     7
 66
     1
 10
0.0
 20
0.0
 30
0.0
  0
VERTEX
  5
A4E
  8
0
 62
     7
 10
-112.963005
 20
-15.568122000000001
 30
0.0
  0
VERTEX
  5
A4F
  8
0
 62
     7
 10
-112.445374
 20
-17.499973000000001
 30
0.0
  0
VERTEX
  5
A50
  8
0
 62
     7
 10
-111.927734
 20
-15.568122000000001
 30
0.0
  0
SEQEND
  5
A51
  8
0
 62
     7
  0
POLYLINE
  5
57B
  8
0
 62
     7
 66
     1
 10
0.0
 20
0.0
 30
0.0
  0
VERTEX
  5
A52
  8
0
 62
     7
 10
-111.927734
 20
15.568182999999991
 30
0.0
  0
VERTEX
  5
A53
  8
0
 62
     7
 10
-112.445374
 20
17.500033999999989
 30
0.0
  0
VERTEX
  5
A54
  8
0
 62
     7
 10
-112.963005
 20
15.568182999999991
 30
0.0
  0
SEQEND
  5
A55
  8
0
 62
     7
  0
LINE
  5
580
  8
0
 62
     7
 10
-112.445374
 20
-17.499973000000001
 30
0.0
 11
-112.445374
 21
17.500033999999989
 31
0.0
  0
ENDBLK
  5
581
  8
0
  0
BLOCK
  8
0
  2
BLOCK15
 70
     0
 10
0.0
 20
0.0
 30
0.0
  3
BLOCK15
  1

  0
TEXT
  5
583
  8
0
 62
     1
 10
-629.0
 20
-30.0
 30
0.0
 40
3.0
  1
Ts3
 50
180.0
 41
1.225762527177944
 72
     5
 11
-636.69995099999994
 21
-30.0
 31
0.0
  0
ENDBLK
  5
584
  8
0
  0
BLOCK
  8
0
  2
BLOCK16
 70
     0
 10
0.0
 20
0.0
 30
0.0
  3
BLOCK16
  1

  0
TEXT
  5
586
  8
0
 62
     1
 10
-604.0
 20
-21.0
 30
0.0
 40
4.0
  1
1SDH000637R0.132
 50
180.0
 41
1.383344776508947
 72
     5
 11
-663.26281700000004
 21
-21.0
 31
0.0
  0
ENDBLK
  5
587
  8
0
  0
BLOCK
  8
0
  2
BLOCK17
 70
     0
 10
0.0
 20
0.0
 30
0.0
  3
BLOCK17
  1

  0
TEXT
  5
589
  8
0
 62
     1
 10
-602.40490699999998
 20
-45.499999999999993
 30
0.0
 40
2.0
  1
3POLE LOW VOLTAGE M.C.C.B SERIES TMAX
 50
180.0
 41
1.088562623274163
 72
     5
 11
-657.59503199999995
 21
-45.499999999999993
 31
0.0
  0
TEXT
  5
58A
  8
0
 62
     1
 10
-610.65344200000004
 20
-42.5
 30
0.0
 40
2.0
  1
FIXED VERSION FC 175..225A
 50
180.0
 41
1.1760806990881441
 72
     5
 11
-649.34649699999989
 21
-42.5
 31
0.0
  0
ENDBLK
  5
58B
  8
0
  0
BLOCK
  8
0
  2
BLOCK18
 70
     0
 10
0.0
 20
0.0
 30
0.0
  3
BLOCK18
  1

  0
TEXT
  5
58D
  8
0
 62
     1
 10
-605.15374799999995
 20
-37.5
 30
0.0
 40
2.0
  1
INTERR.AUTOMATICO SERIE TMAX
 50
180.0
 41
1.060877964376586
 72
     5
 11
-646.84625199999994
 21
-37.5
 31
0.0
  0
TEXT
  5
58E
  8
0
 62
     1
 10
-595.40545700000007
 20
-34.5
 30
0.0
 40
2.0
  1
TRIPOL.ESECUZ.FISSA TERM.x CAVI 175..225A
 50
180.0
 41
1.161082068311196
 72
     5
 11
-656.59448200000008
 21
-34.5
 31
0.0
  0
ENDBLK
  5
58F
  8
0
  0
BLOCK
  8
0
  2
BLOCK19
 70
     0
 10
0.0
 20
0.0
 30
0.0
  3
BLOCK19
  1

  0
TEXT
  5
591
  8
0
 62
     1
 10
-547.30426
 20
-28.0
 30
0.0
 40
2.0
  1
N0214 2007-11-30
 50
180.0
 41
1.1446346582480691
 72
     5
 11
-571.0
 21
-28.0
 31
0.0
  0
ENDBLK
  5
592
  8
0
  0
BLOCK
  8
0
  2
BLOCK20
 70
     0
 10
0.0
 20
0.0
 30
0.0
  3
BLOCK20
  1

  0
TEXT
  5
594
  8
0
 62
     7
 10
100.256378
 20
16.5
 30
0.0
 40
3.0
  1
139
 50
269.99994791279238
 41
1.409019097613152
 72
     5
 11
100.2563709999999
 21
8.8000199999999982
 31
0.0
  0
ENDBLK
  5
595
  8
0
  0
BLOCK
  8
0
  2
BLOCK21
 70
     0
 10
0.0
 20
0.0
 30
0.0
  3
BLOCK21
  1

  0
TEXT
  5
597
  8
0
 62
     7
 10
10.884613
 20
-24.686951000000001
 30
0.0
 40
3.0
  1
35
 50
180.0
 41
1.277659424398945
 72
     5
 11
5.9346230000000002
 21
-24.686951000000001
 31
0.0
  0
ENDBLK
  5
598
  8
0
  0
BLOCK
  8
0
  2
BLOCK22
 70
     0
 10
0.0
 20
0.0
 30
0.0
  3
BLOCK22
  1

  0
TEXT
  5
59A
  8
0
 62
     7
 10
130.0
 20
-5.0
 30
0.0
 40
3.0
  1
X
 50
180.0
 41
0.9777764444444425
 72
     5
 11
127.800003
 21
-5.0
 31
0.0
  0
ENDBLK
  5
59B
  8
0
  0
BLOCK
  8
0
  2
BLOCK23
 70
     0
 10
0.0
 20
0.0
 30
0.0
  3
BLOCK23
  1

  0
TEXT
  5
59D
  8
0
 62
     7
 10
0.0
 20
-120.0
 30
0.0
 40
3.0
  1
Y
 50
180.0
 41
0.9777777777777778
 72
     5
 11
-2.2000000000000002
 21
-120.0
 31
0.0
  0
ENDBLK
  5
59E
  8
0
  0
BLOCK
  8
0
  2
BLOCK24
 70
     0
 10
0.0
 20
0.0
 30
0.0
  3
BLOCK24
  1

  0
TEXT
  5
5A0
  8
0
 62
     7
 10
0.0
 20
125.0
 30
0.0
 40
3.0
  1
Y
 50
180.0
 41
0.9777777777777778
 72
     5
 11
-2.2000000000000002
 21
125.0
 31
0.0
  0
ENDBLK
  5
5A1
  8
0
  0
BLOCK
  8
0
  2
BLOCK25
 70
     0
 10
0.0
 20
0.0
 30
0.0
  3
BLOCK25
  1

  0
TEXT
  5
5A3
  8
0
 62
     7
 10
169.93945299999999
 20
132.20019500000001
 30
0.0
 40
3.0
  1
 5,5
 50
203.74849399551911
 41
1.7063236183783279
 72
     5
 11
160.374359
 21
127.991753
 31
0.0
  0
ENDBLK
  5
5A4
  8
0
  0
BLOCK
  8
0
  2
BLOCK26
 70
     0
 10
0.0
 20
0.0
 30
0.0
  3
BLOCK26
  1

  0
TEXT
  5
5A6
  8
0
 62
     7
 10
171.403976
 20
132.84460399999989
 30
0.0
 40
3.0
  1
%%c
 50
203.74847231421481
 41
0.9777744380751029
 72
     5
 11
169.39027400000001
 21
131.95861799999989
 31
0.0
  0
ENDBLK
  5
5A7
  8
0
  0
BLOCK
  8
0
  2
BLOCK27
 70
     0
 10
0.0
 20
0.0
 30
0.0
  3
BLOCK27
  1

  0
TEXT
  5
5A9
  8
0
 62
     7
 10
129.66528299999999
 20
114.480408
 30
0.0
 40
3.0
  1
 - M5
 50
203.7485085485969
 41
1.4708683264519129
 72
     5
 11
117.5830689999999
 21
109.16448200000001
 31
0.0
  0
ENDBLK
  5
5AA
  8
0
  0
BLOCK
  8
0
  2
BLOCK28
 70
     0
 10
0.0
 20
0.0
 30
0.0
  3
BLOCK28
  1

  0
TEXT
  5
5AC
  8
0
 62
     7
 10
70.788406000000009
 20
-8.5355220000000003
 30
0.0
 40
3.0
  1
71,75
 50
270.0000347248174
 41
1.548516199592233
 72
     5
 11
70.788414000000003
 21
-21.735482999999991
 31
0.0
  0
ENDBLK
  5
5AD
  8
0
  0
BLOCK
  8
0
  2
BLOCK29
 70
     0
 10
0.0
 20
0.0
 30
0.0
  3
BLOCK29
  1

  0
TEXT
  5
5AF
  8
0
 62
     7
 10
3.0
 20
-203.0
 30
0.0
 40
3.0
  1
X
 50
90.0
 41
0.9777764444444425
 72
     5
 11
3.0
 21
-200.800003
 31
0.0
  0
ENDBLK
  5
5B0
  8
0
  0
BLOCK
  8
0
  2
BLOCK30
 70
     0
 10
0.0
 20
0.0
 30
0.0
  3
BLOCK30
  1

  0
TEXT
  5
5B2
  8
0
 62
     7
 10
-10.0
 20
110.0
 30
0.0
 40
3.0
  1
X
 50
90.0
 41
0.9777764444444425
 72
     5
 11
-10.0
 21
112.199997
 31
0.0
  0
ENDBLK
  5
5B3
  8
0
  0
BLOCK
  8
0
  2
BLOCK31
 70
     0
 10
0.0
 20
0.0
 30
0.0
  3
BLOCK31
  1

  0
TEXT
  5
5B5
  8
0
 62
     7
 10
-106.0
 20
-7.0
 30
0.0
 40
3.0
  1
Y
 50
90.0
 41
0.9777777777777778
 72
     5
 11
-106.0
 21
-4.7999999999999989
 31
0.0
  0
ENDBLK
  5
5B6
  8
0
  0
BLOCK
  8
0
  2
BLOCK32
 70
     0
 10
0.0
 20
0.0
 30
0.0
  3
BLOCK32
  1

  0
TEXT
  5
5B8
  8
0
 62
     7
 10
126.0
 20
-8.0
 30
0.0
 40
3.0
  1
Y
 50
90.0
 41
0.9777777777777778
 72
     5
 11
126.0
 21
-5.7999999999999989
 31
0.0
  0
ENDBLK
  5
5B9
  8
0
  0
BLOCK
  8
0
  2
BLOCK33
 70
     0
 10
0.0
 20
0.0
 30
0.0
  3
BLOCK33
  1

  0
TEXT
  5
5BB
  8
0
 62
     7
 10
18.75
 20
-126.5937499999999
 30
0.0
 40
3.0
  1
112
 50
179.9999404717627
 41
1.5941402843842269
 72
     5
 11
11.05002
 21
-126.59374199999991
 31
0.0
  0
ENDBLK
  5
5BC
  8
0
  0
BLOCK
  8
0
  2
BLOCK34
 70
     0
 10
0.0
 20
0.0
 30
0.0
  3
BLOCK34
  1

  0
TEXT
  5
5BE
  8
0
 62
     7
 10
18.75
 20
-164.0829469999999
 30
0.0
 40
3.0
  1
142
 50
180.0
 41
1.3437594995413831
 72
     5
 11
11.05002
 21
-164.0829469999999
 31
0.0
  0
ENDBLK
  5
5BF
  8
0
  0
BLOCK
  8
0
  2
BLOCK35
 70
     0
 10
0.0
 20
0.0
 30
0.0
  3
BLOCK35
  1

  0
TEXT
  5
5C1
  8
0
 62
     7
 10
-121.53396599999989
 20
-11.0
 30
0.0
 40
3.0
  1
80
 50
90.0
 41
1.3191663623963901
 72
     5
 11
-121.53396599999989
 21
-6.0500099999999994
 31
0.0
  0
ENDBLK
  5
5C2
  8
0
  0
BLOCK
  8
0
  2
BLOCK36
 70
     0
 10
0.0
 20
0.0
 30
0.0
  3
BLOCK36
  1

  0
TEXT
  5
5C4
  8
0
 62
     7
 10
-154.251846
 20
-16.5
 30
0.0
 40
3.0
  1
112
 50
90.0
 41
1.594140284383367
 72
     5
 11
-154.251846
 21
-8.8000199999999982
 31
0.0
  0
ENDBLK
  5
5C5
  8
0
  0
BLOCK
  8
0
  2
BLOCK37
 70
     0
 10
0.0
 20
0.0
 30
0.0
  3
BLOCK37
  1

  0
TEXT
  5
5C7
  8
0
 62
     7
 10
122.34223899999991
 20
-111.27021000000001
 30
0.0
 40
3.0
  1
 7
 50
127.20898959685471
 41
1.736837925866495
 72
     5
 11
119.348862
 21
-107.3278659999999
 31
0.0
  0
ENDBLK
  5
5C8
  8
0
  0
BLOCK
  8
0
  2
BLOCK38
 70
     0
 10
0.0
 20
0.0
 30
0.0
  3
BLOCK38
  1

  0
TEXT
  5
5CA
  8
0
 62
     7
 10
123.30978399999999
 20
-112.544495
 30
0.0
 40
3.0
  1
%%c
 50
127.2089187033538
 41
0.9777779165820129
 72
     5
 11
121.9793929999999
 21
-110.79233600000001
 31
0.0
  0
ENDBLK
  5
5CB
  8
0
  0
BLOCK
  8
0
  2
BLOCK39
 70
     0
 10
0.0
 20
0.0
 30
0.0
  3
BLOCK39
  1

  0
LINE
  5
5CD
  8
0
 62
    31
 10
49.237060999999997
 20
65.599936999999997
 30
0.0
 11
26.23706099999999
 21
65.599936999999997
 31
0.0
  0
LINE
  5
5CE
  8
0
 62
    31
 10
49.237060999999997
 20
77.999938999999998
 30
0.0
 11
26.23706099999999
 21
77.999938999999998
 31
0.0
  0
LINE
  5
5CF
  8
0
 62
    31
 10
49.237060999999997
 20
77.999938999999998
 30
0.0
 11
49.237060999999997
 21
65.599936999999997
 31
0.0
  0
LINE
  5
5D0
  8
0
 62
    31
 10
26.23706099999999
 20
79.799942000000001
 30
0.0
 11
26.23706099999999
 21
63.799937999999997
 31
0.0
  0
LINE
  5
5D1
  8
0
  6
DASHDOT
 62
    31
 10
54.298324999999991
 20
71.799942000000001
 30
0.0
 11
5.6248930000000001
 21
71.799942000000001
 31
0.0
  0
LINE
  5
5D2
  8
0
 62
    31
 10
26.23706099999999
 20
79.799942000000001
 30
0.0
 11
7.6248929999999993
 21
79.799942000000001
 31
0.0
  0
LINE
  5
5D3
  8
0
 62
    31
 10
26.23706099999999
 20
63.799937999999997
 30
0.0
 11
7.6248929999999993
 21
63.799937999999997
 31
0.0
  0
LINE
  5
5D4
  8
0
 62
    31
 10
49.237060999999997
 20
71.799942000000001
 30
0.0
 11
26.23706099999999
 21
67.744415000000004
 31
0.0
  0
POLYLINE
  5
5D5
  8
0
 62
    31
 66
     1
 10
0.0
 20
0.0
 30
0.0
 70
     1
  0
VERTEX
  5
A56
  8
0
 62
    31
 10
7.6248929999999993
 20
79.799942000000001
 30
0.0
  0
VERTEX
  5
A57
  8
0
 62
    31
 10
7.7143550000000003
 20
79.795936999999995
 30
0.0
  0
VERTEX
  5
A58
  8
0
 62
    31
 10
7.8037720000000004
 20
79.783912999999998
 30
0.0
  0
VERTEX
  5
A59
  8
0
 62
    31
 10
7.8932039999999981
 20
79.763779
 30
0.0
  0
VERTEX
  5
A5A
  8
0
 62
    31
 10
7.9827579999999996
 20
79.735389999999995
 30
0.0
  0
VERTEX
  5
A5B
  8
0
 62
    31
 10
8.0724330000000002
 20
79.69851700000001
 30
0.0
  0
VERTEX
  5
A5C
  8
0
 62
    31
 10
8.1622310000000002
 20
79.652878000000001
 30
0.0
  0
VERTEX
  5
A5D
  8
0
 62
    31
 10
8.2521210000000007
 20
79.598145000000002
 30
0.0
  0
VERTEX
  5
A5E
  8
0
 62
    31
 10
8.3419949999999972
 20
79.533981000000011
 30
0.0
  0
VERTEX
  5
A5F
  8
0
 62
    31
 10
8.4317320000000002
 20
79.459998999999996
 30
0.0
  0
VERTEX
  5
A60
  8
0
 62
    31
 10
8.5211330000000007
 20
79.375831999999974
 30
0.0
  0
VERTEX
  5
A61
  8
0
 62
    31
 10
8.6099550000000011
 20
79.281127999999995
 30
0.0
  0
VERTEX
  5
A62
  8
0
 62
    31
 10
8.6978759999999991
 20
79.175560000000004
 30
0.0
  0
VERTEX
  5
A63
  8
0
 62
    31
 10
8.7845759999999995
 20
79.058852999999999
 30
0.0
  0
VERTEX
  5
A64
  8
0
 62
    31
 10
8.8696590000000004
 20
78.930785999999983
 30
0.0
  0
VERTEX
  5
A65
  8
0
 62
    31
 10
8.9526979999999998
 20
78.791221999999991
 30
0.0
  0
VERTEX
  5
A66
  8
0
 62
    31
 10
9.0332179999999997
 20
78.640113999999997
 30
0.0
  0
VERTEX
  5
A67
  8
0
 62
    31
 10
9.1107179999999985
 20
78.477501000000004
 30
0.0
  0
VERTEX
  5
A68
  8
0
 62
    31
 10
9.1846920000000001
 20
78.303557999999995
 30
0.0
  0
VERTEX
  5
A69
  8
0
 62
    31
 10
9.2546229999999987
 20
78.11856800000001
 30
0.0
  0
VERTEX
  5
A6A
  8
0
 62
    31
 10
9.3199620000000003
 20
77.922934999999995
 30
0.0
  0
VERTEX
  5
A6B
  8
0
 62
    31
 10
9.3801729999999992
 20
77.717208999999997
 30
0.0
  0
VERTEX
  5
A6C
  8
0
 62
    31
 10
9.4347840000000005
 20
77.50206
 30
0.0
  0
VERTEX
  5
A6D
  8
0
 62
    31
 10
9.4832920000000005
 20
77.27828199999999
 30
0.0
  0
VERTEX
  5
A6E
  8
0
 62
    31
 10
9.5252529999999993
 20
77.046806000000004
 30
0.0
  0
VERTEX
  5
A6F
  8
0
 62
    31
 10
9.560257
 20
76.808661999999998
 30
0.0
  0
VERTEX
  5
A70
  8
0
 62
    31
 10
9.587966999999999
 20
76.565002000000007
 30
0.0
  0
VERTEX
  5
A71
  8
0
 62
    31
 10
9.6081089999999971
 20
76.317055000000011
 30
0.0
  0
VERTEX
  5
A72
  8
0
 62
    31
 10
9.6204679999999971
 20
76.066101000000003
 30
0.0
  0
VERTEX
  5
A73
  8
0
 62
    31
 10
9.6248780000000007
 20
75.813514999999995
 30
0.0
  0
VERTEX
  5
A74
  8
0
 62
    31
 10
9.6213069999999998
 20
75.560660999999996
 30
0.0
  0
VERTEX
  5
A75
  8
0
 62
    31
 10
9.6165310000000002
 20
75.434607999999997
 30
0.0
  0
VERTEX
  5
A76
  8
0
 62
    31
 10
9.6097719999999995
 20
75.308929000000006
 30
0.0
  0
VERTEX
  5
A77
  8
0
 62
    31
 10
9.6010439999999981
 20
75.184006000000011
 30
0.0
  0
VERTEX
  5
A78
  8
0
 62
    31
 10
9.5903469999999995
 20
75.059700000000007
 30
0.0
  0
VERTEX
  5
A79
  8
0
 62
    31
 10
9.5777590000000004
 20
74.936576999999986
 30
0.0
  0
VERTEX
  5
A7A
  8
0
 62
    31
 10
9.5632320000000011
 20
74.814307999999997
 30
0.0
  0
VERTEX
  5
A7B
  8
0
 62
    31
 10
9.546875
 20
74.693625999999995
 30
0.0
  0
VERTEX
  5
A7C
  8
0
 62
    31
 10
9.5286559999999998
 20
74.574027999999998
 30
0.0
  0
VERTEX
  5
A7D
  8
0
 62
    31
 10
9.5086979999999972
 20
74.456406000000001
 30
0.0
  0
VERTEX
  5
A7E
  8
0
 62
    31
 10
9.4869380000000003
 20
74.34008
 30
0.0
  0
VERTEX
  5
A7F
  8
0
 62
    31
 10
9.4635770000000008
 20
74.226073999999997
 30
0.0
  0
VERTEX
  5
A80
  8
0
 62
    31
 10
9.4384610000000002
 20
74.113563999999997
 30
0.0
  0
VERTEX
  5
A81
  8
0
 62
    31
 10
9.4118960000000005
 20
74.003685000000004
 30
0.0
  0
VERTEX
  5
A82
  8
0
 62
    31
 10
9.3836669999999991
 20
73.895484999999994
 30
0.0
  0
VERTEX
  5
A83
  8
0
 62
    31
 10
9.3541259999999991
 20
73.790183999999996
 30
0.0
  0
VERTEX
  5
A84
  8
0
 62
    31
 10
9.3229980000000001
 20
73.686722000000003
 30
0.0
  0
VERTEX
  5
A85
  8
0
 62
    31
 10
9.2907410000000006
 20
73.586394999999996
 30
0.0
  0
VERTEX
  5
A86
  8
0
 62
    31
 10
9.2570040000000002
 20
73.488037000000006
 30
0.0
  0
VERTEX
  5
A87
  8
0
 62
    31
 10
9.2222899999999992
 20
73.392997999999992
 30
0.0
  0
VERTEX
  5
A88
  8
0
 62
    31
 10
9.1861880000000014
 20
73.300040999999993
 30
0.0
  0
VERTEX
  5
A89
  8
0
 62
    31
 10
9.1492919999999991
 20
73.210548000000003
 30
0.0
  0
VERTEX
  5
A8A
  8
0
 62
    31
 10
9.1110990000000012
 20
73.123238000000001
 30
0.0
  0
VERTEX
  5
A8B
  8
0
 62
    31
 10
9.0722960000000015
 20
73.039473999999998
 30
0.0
  0
VERTEX
  5
A8C
  8
0
 62
    31
 10
9.0323030000000006
 20
72.957961999999995
 30
0.0
  0
VERTEX
  5
A8D
  8
0
 62
    31
 10
8.9918519999999997
 20
72.880050999999995
 30
0.0
  0
VERTEX
  5
A8E
  8
0
 62
    31
 10
8.9503170000000001
 20
72.804443000000006
 30
0.0
  0
VERTEX
  5
A8F
  8
0
 62
    31
 10
8.9084929999999982
 20
72.732444999999998
 30
0.0
  0
VERTEX
  5
A90
  8
0
 62
    31
 10
8.8656919999999992
 20
72.662788000000006
 30
0.0
  0
VERTEX
  5
A91
  8
0
 62
    31
 10
8.8227390000000003
 20
72.596710000000002
 30
0.0
  0
VERTEX
  5
A92
  8
0
 62
    31
 10
8.7789000000000001
 20
72.53298199999999
 30
0.0
  0
VERTEX
  5
A93
  8
0
 62
    31
 10
8.7350619999999992
 20
72.472763
 30
0.0
  0
VERTEX
  5
A94
  8
0
 62
    31
 10
8.6904450000000004
 20
72.414901999999998
 30
0.0
  0
VERTEX
  5
A95
  8
0
 62
    31
 10
8.6459200000000003
 20
72.360466000000002
 30
0.0
  0
VERTEX
  5
A96
  8
0
 62
    31
 10
8.6007230000000003
 20
72.308365000000009
 30
0.0
  0
VERTEX
  5
A97
  8
0
 62
    31
 10
8.5557250000000007
 20
72.259567000000004
 30
0.0
  0
VERTEX
  5
A98
  8
0
 62
    31
 10
8.5101169999999993
 20
72.213088999999997
 30
0.0
  0
VERTEX
  5
A99
  8
0
 62
    31
 10
8.4648280000000007
 20
72.169776999999996
 30
0.0
  0
VERTEX
  5
A9A
  8
0
 62
    31
 10
8.4189910000000001
 20
72.128754000000001
 30
0.0
  0
VERTEX
  5
A9B
  8
0
 62
    31
 10
8.3735199999999992
 20
72.090735999999993
 30
0.0
  0
VERTEX
  5
A9C
  8
0
 62
    31
 10
8.3276059999999994
 20
72.054969999999997
 30
0.0
  0
VERTEX
  5
A9D
  8
0
 62
    31
 10
8.2820889999999991
 20
72.02205699999999
 30
0.0
  0
VERTEX
  5
A9E
  8
0
 62
    31
 10
8.2361909999999998
 20
71.99135600000001
 30
0.0
  0
VERTEX
  5
A9F
  8
0
 62
    31
 10
8.1907040000000002
 20
71.963347999999996
 30
0.0
  0
VERTEX
  5
AA0
  8
0
 62
    31
 10
8.1449130000000007
 20
71.937515000000005
 30
0.0
  0
VERTEX
  5
AA1
  8
0
 62
    31
 10
8.0995329999999992
 20
71.914214999999999
 30
0.0
  0
VERTEX
  5
AA2
  8
0
 62
    31
 10
8.0538939999999997
 20
71.893043999999989
 30
0.0
  0
VERTEX
  5
AA3
  8
0
 62
    31
 10
8.0086519999999997
 20
71.874259999999992
 30
0.0
  0
VERTEX
  5
AA4
  8
0
 62
    31
 10
7.9631959999999999
 20
71.857581999999994
 30
0.0
  0
VERTEX
  5
AA5
  8
0
 62
    31
 10
7.9180910000000004
 20
71.84315500000001
 30
0.0
  0
VERTEX
  5
AA6
  8
0
 62
    31
 10
7.8728490000000004
 20
71.830803000000003
 30
0.0
  0
VERTEX
  5
AA7
  8
0
 62
    31
 10
7.8278809999999988
 20
71.820594999999997
 30
0.0
  0
VERTEX
  5
AA8
  8
0
 62
    31
 10
7.7828220000000004
 20
71.812431000000004
 30
0.0
  0
VERTEX
  5
AA9
  8
0
 62
    31
 10
7.7379759999999989
 20
71.806342999999998
 30
0.0
  0
VERTEX
  5
AAA
  8
0
 62
    31
 10
7.6930690000000004
 20
71.802268999999995
 30
0.0
  0
VERTEX
  5
AAB
  8
0
 62
    31
 10
7.648299999999999
 20
71.800217000000004
 30
0.0
  0
VERTEX
  5
AAC
  8
0
 62
    31
 10
7.6035159999999991
 20
71.800170999999992
 30
0.0
  0
VERTEX
  5
AAD
  8
0
 62
    31
 10
7.5140839999999987
 20
71.806083999999998
 30
0.0
  0
VERTEX
  5
AAE
  8
0
 62
    31
 10
7.4246669999999986
 20
71.820037999999997
 30
0.0
  0
VERTEX
  5
AAF
  8
0
 62
    31
 10
7.3352050000000002
 20
71.842124999999996
 30
0.0
  0
VERTEX
  5
AB0
  8
0
 62
    31
 10
7.2456360000000002
 20
71.872519999999994
 30
0.0
  0
VERTEX
  5
AB1
  8
0
 62
    31
 10
7.1559299999999997
 20
71.911461000000003
 30
0.0
  0
VERTEX
  5
AB2
  8
0
 62
    31
 10
7.0661009999999989
 20
71.959243999999984
 30
0.0
  0
VERTEX
  5
AB3
  8
0
 62
    31
 10
6.9761959999999998
 20
72.016189999999995
 30
0.0
  0
VERTEX
  5
AB4
  8
0
 62
    31
 10
6.8863369999999993
 20
72.082664000000008
 30
0.0
  0
VERTEX
  5
AB5
  8
0
 62
    31
 10
6.7966610000000003
 20
72.159049999999993
 30
0.0
  0
VERTEX
  5
AB6
  8
0
 62
    31
 10
6.707382
 20
72.245696999999993
 30
0.0
  0
VERTEX
  5
AB7
  8
0
 62
    31
 10
6.6187440000000004
 20
72.342963999999995
 30
0.0
  0
VERTEX
  5
AB8
  8
0
 62
    31
 10
6.5310819999999987
 20
72.451172
 30
0.0
  0
VERTEX
  5
AB9
  8
0
 62
    31
 10
6.4447330000000003
 20
72.570580000000007
 30
0.0
  0
VERTEX
  5
ABA
  8
0
 62
    31
 10
6.360091999999999
 20
72.701378000000005
 30
0.0
  0
VERTEX
  5
ABB
  8
0
 62
    31
 10
6.2776180000000004
 20
72.843704000000002
 30
0.0
  0
VERTEX
  5
ABC
  8
0
 62
    31
 10
6.1977690000000001
 20
72.997566000000006
 30
0.0
  0
VERTEX
  5
ABD
  8
0
 62
    31
 10
6.1210629999999986
 20
73.162903
 30
0.0
  0
VERTEX
  5
ABE
  8
0
 62
    31
 10
6.0480039999999988
 20
73.339516000000003
 30
0.0
  0
VERTEX
  5
ABF
  8
0
 62
    31
 10
5.9791259999999991
 20
73.52709200000001
 30
0.0
  0
VERTEX
  5
AC0
  8
0
 62
    31
 10
5.9149629999999993
 20
73.725189
 30
0.0
  0
VERTEX
  5
AC1
  8
0
 62
    31
 10
5.8560489999999987
 20
73.933227999999986
 30
0.0
  0
VERTEX
  5
AC2
  8
0
 62
    31
 10
5.8028559999999993
 20
74.15052
 30
0.0
  0
VERTEX
  5
AC3
  8
0
 62
    31
 10
5.7558749999999987
 20
74.376221000000001
 30
0.0
  0
VERTEX
  5
AC4
  8
0
 62
    31
 10
5.7155459999999989
 20
74.609390000000005
 30
0.0
  0
VERTEX
  5
AC5
  8
0
 62
    31
 10
5.6822359999999987
 20
74.848953000000009
 30
0.0
  0
VERTEX
  5
AC6
  8
0
 62
    31
 10
5.6563109999999988
 20
75.093757999999994
 30
0.0
  0
VERTEX
  5
AC7
  8
0
 62
    31
 10
5.6380160000000004
 20
75.342545000000001
 30
0.0
  0
VERTEX
  5
AC8
  8
0
 62
    31
 10
5.6275479999999991
 20
75.594008999999986
 30
0.0
  0
VERTEX
  5
AC9
  8
0
 62
    31
 10
5.625030999999999
 20
75.846785999999994
 30
0.0
  0
VERTEX
  5
ACA
  8
0
 62
    31
 10
5.6267699999999987
 20
75.973228000000006
 30
0.0
  0
VERTEX
  5
ACB
  8
0
 62
    31
 10
5.630507999999999
 20
76.099502999999999
 30
0.0
  0
VERTEX
  5
ACC
  8
0
 62
    31
 10
5.636245999999999
 20
76.225341999999998
 30
0.0
  0
VERTEX
  5
ACD
  8
0
 62
    31
 10
5.6439510000000004
 20
76.350754000000009
 30
0.0
  0
VERTEX
  5
ACE
  8
0
 62
    31
 10
5.6536099999999987
 20
76.475311000000005
 30
0.0
  0
VERTEX
  5
ACF
  8
0
 62
    31
 10
5.6652219999999991
 20
76.599190000000007
 30
0.0
  0
VERTEX
  5
AD0
  8
0
 62
    31
 10
5.6787260000000002
 20
76.721785999999994
 30
0.0
  0
VERTEX
  5
AD1
  8
0
 62
    31
 10
5.694153
 20
76.843474999999998
 30
0.0
  0
VERTEX
  5
AD2
  8
0
 62
    31
 10
5.7113800000000001
 20
76.963478000000009
 30
0.0
  0
VERTEX
  5
AD3
  8
0
 62
    31
 10
5.7304690000000003
 20
77.082343999999992
 30
0.0
  0
VERTEX
  5
AD4
  8
0
 62
    31
 10
5.751250999999999
 20
77.199150000000003
 30
0.0
  0
VERTEX
  5
AD5
  8
0
 62
    31
 10
5.773833999999999
 20
77.314621000000002
 30
0.0
  0
VERTEX
  5
AD6
  8
0
 62
    31
 10
5.7979890000000003
 20
77.427681000000007
 30
0.0
  0
VERTEX
  5
AD7
  8
0
 62
    31
 10
5.8238529999999988
 20
77.53920699999999
 30
0.0
  0
VERTEX
  5
AD8
  8
0
 62
    31
 10
5.8511660000000001
 20
77.648026000000002
 30
0.0
  0
VERTEX
  5
AD9
  8
0
 62
    31
 10
5.8800959999999991
 20
77.755134999999996
 30
0.0
  0
VERTEX
  5
ADA
  8
0
 62
    31
 10
5.9103240000000001
 20
77.859282999999991
 30
0.0
  0
VERTEX
  5
ADB
  8
0
 62
    31
 10
5.9420779999999986
 20
77.961555000000004
 30
0.0
  0
VERTEX
  5
ADC
  8
0
 62
    31
 10
5.9749600000000003
 20
78.060645999999991
 30
0.0
  0
VERTEX
  5
ADD
  8
0
 62
    31
 10
6.0092930000000004
 20
78.157737999999995
 30
0.0
  0
VERTEX
  5
ADE
  8
0
 62
    31
 10
6.044556
 20
78.251471999999993
 30
0.0
  0
VERTEX
  5
ADF
  8
0
 62
    31
 10
6.0811769999999994
 20
78.343102000000002
 30
0.0
  0
VERTEX
  5
AE0
  8
0
 62
    31
 10
6.1185460000000003
 20
78.431235999999998
 30
0.0
  0
VERTEX
  5
AE1
  8
0
 62
    31
 10
6.157195999999999
 20
78.517181000000008
 30
0.0
  0
VERTEX
  5
AE2
  8
0
 62
    31
 10
6.1964259999999989
 20
78.599556000000007
 30
0.0
  0
VERTEX
  5
AE3
  8
0
 62
    31
 10
6.2368009999999989
 20
78.679665
 30
0.0
  0
VERTEX
  5
AE4
  8
0
 62
    31
 10
6.277603
 20
78.756164999999996
 30
0.0
  0
VERTEX
  5
AE5
  8
0
 62
    31
 10
6.319458
 20
78.830353000000002
 30
0.0
  0
VERTEX
  5
AE6
  8
0
 62
    31
 10
6.3615879999999994
 20
78.900931999999983
 30
0.0
  0
VERTEX
  5
AE7
  8
0
 62
    31
 10
6.404647999999999
 20
78.969169999999991
 30
0.0
  0
VERTEX
  5
AE8
  8
0
 62
    31
 10
6.4478299999999997
 20
79.033843999999988
 30
0.0
  0
VERTEX
  5
AE9
  8
0
 62
    31
 10
6.4918820000000004
 20
79.096168999999989
 30
0.0
  0
VERTEX
  5
AEA
  8
0
 62
    31
 10
6.5359040000000004
 20
79.15499100000001
 30
0.0
  0
VERTEX
  5
AEB
  8
0
 62
    31
 10
6.5806880000000003
 20
79.211464000000007
 30
0.0
  0
VERTEX
  5
AEC
  8
0
 62
    31
 10
6.6253199999999994
 20
79.264542000000006
 30
0.0
  0
VERTEX
  5
AED
  8
0
 62
    31
 10
6.6706389999999987
 20
79.315285000000003
 30
0.0
  0
VERTEX
  5
AEE
  8
0
 62
    31
 10
6.7157289999999987
 20
79.362755000000007
 30
0.0
  0
VERTEX
  5
AEF
  8
0
 62
    31
 10
6.7613979999999989
 20
79.407912999999994
 30
0.0
  0
VERTEX
  5
AF0
  8
0
 62
    31
 10
6.8067469999999997
 20
79.449943999999974
 30
0.0
  0
VERTEX
  5
AF1
  8
0
 62
    31
 10
6.8526149999999992
 20
79.489699999999999
 30
0.0
  0
VERTEX
  5
AF2
  8
0
 62
    31
 10
6.8981019999999997
 20
79.526473999999993
 30
0.0
  0
VERTEX
  5
AF3
  8
0
 62
    31
 10
6.944030999999999
 20
79.561012000000005
 30
0.0
  0
VERTEX
  5
AF4
  8
0
 62
    31
 10
6.9895479999999992
 20
79.592735000000005
 30
0.0
  0
VERTEX
  5
AF5
  8
0
 62
    31
 10
7.0354309999999991
 20
79.622253000000001
 30
0.0
  0
VERTEX
  5
AF6
  8
0
 62
    31
 10
7.0808869999999988
 20
79.649124
 30
0.0
  0
VERTEX
  5
AF7
  8
0
 62
    31
 10
7.1266479999999994
 20
79.673828
 30
0.0
  0
VERTEX
  5
AF8
  8
0
 62
    31
 10
7.1719970000000002
 20
79.696037000000004
 30
0.0
  0
VERTEX
  5
AF9
  8
0
 62
    31
 10
7.2175899999999986
 20
79.716118000000009
 30
0.0
  0
VERTEX
  5
AFA
  8
0
 62
    31
 10
7.2628019999999998
 20
79.733840999999998
 30
0.0
  0
VERTEX
  5
AFB
  8
0
 62
    31
 10
7.3082119999999993
 20
79.749473999999992
 30
0.0
  0
VERTEX
  5
AFC
  8
0
 62
    31
 10
7.3532710000000003
 20
79.762878000000001
 30
0.0
  0
VERTEX
  5
AFD
  8
0
 62
    31
 10
7.3984679999999994
 20
79.774222999999992
 30
0.0
  0
VERTEX
  5
AFE
  8
0
 62
    31
 10
7.4434050000000003
 20
79.783439999999985
 30
0.0
  0
VERTEX
  5
AFF
  8
0
 62
    31
 10
7.4884339999999989
 20
79.790618999999992
 30
0.0
  0
VERTEX
  5
B00
  8
0
 62
    31
 10
7.5332489999999996
 20
79.795738
 30
0.0
  0
VERTEX
  5
B01
  8
0
 62
    31
 10
7.578125
 20
79.798850999999999
 30
0.0
  0
SEQEND
  5
B02
  8
0
 62
    31
  0
POLYLINE
  5
683
  8
0
 62
    31
 66
     1
 10
0.0
 20
0.0
 30
0.0
  0
VERTEX
  5
B03
  8
0
 62
    31
 10
7.6248929999999993
 20
63.799937999999997
 30
0.0
  0
VERTEX
  5
B04
  8
0
 62
    31
 10
7.5354309999999991
 20
63.803939999999997
 30
0.0
  0
VERTEX
  5
B05
  8
0
 62
    31
 10
7.4460300000000004
 20
63.815967999999998
 30
0.0
  0
VERTEX
  5
B06
  8
0
 62
    31
 10
7.3565829999999997
 20
63.836098
 30
0.0
  0
VERTEX
  5
B07
  8
0
 62
    31
 10
7.2670440000000003
 20
63.864491000000001
 30
0.0
  0
VERTEX
  5
B08
  8
0
 62
    31
 10
7.1773679999999986
 20
63.901363000000003
 30
0.0
  0
VERTEX
  5
B09
  8
0
 62
    31
 10
7.0875699999999986
 20
63.947006000000009
 30
0.0
  0
VERTEX
  5
B0A
  8
0
 62
    31
 10
6.997681
 20
64.00173199999999
 30
0.0
  0
VERTEX
  5
B0B
  8
0
 62
    31
 10
6.9077909999999996
 20
64.065903000000006
 30
0.0
  0
VERTEX
  5
B0C
  8
0
 62
    31
 10
6.8180539999999992
 20
64.139884999999992
 30
0.0
  0
VERTEX
  5
B0D
  8
0
 62
    31
 10
6.7286529999999987
 20
64.224044999999975
 30
0.0
  0
VERTEX
  5
B0E
  8
0
 62
    31
 10
6.6398469999999996
 20
64.318747999999999
 30
0.0
  0
VERTEX
  5
B0F
  8
0
 62
    31
 10
6.5519099999999986
 20
64.424316000000005
 30
0.0
  0
VERTEX
  5
B10
  8
0
 62
    31
 10
6.465209999999999
 20
64.541022999999996
 30
0.0
  0
VERTEX
  5
B11
  8
0
 62
    31
 10
6.380126999999999
 20
64.669089999999997
 30
0.0
  0
VERTEX
  5
B12
  8
0
 62
    31
 10
6.2970889999999988
 20
64.808655000000002
 30
0.0
  0
VERTEX
  5
B13
  8
0
 62
    31
 10
6.2165829999999991
 20
64.959769999999992
 30
0.0
  0
VERTEX
  5
B14
  8
0
 62
    31
 10
6.1390690000000001
 20
65.122382999999985
 30
0.0
  0
VERTEX
  5
B15
  8
0
 62
    31
 10
6.0650940000000002
 20
65.296326000000008
 30
0.0
  0
VERTEX
  5
B16
  8
0
 62
    31
 10
5.9951780000000001
 20
65.481316000000007
 30
0.0
  0
VERTEX
  5
B17
  8
0
 62
    31
 10
5.9298400000000004
 20
65.676940999999999
 30
0.0
  0
VERTEX
  5
B18
  8
0
 62
    31
 10
5.8696140000000003
 20
65.88266800000001
 30
0.0
  0
VERTEX
  5
B19
  8
0
 62
    31
 10
5.8150019999999989
 20
66.097824000000003
 30
0.0
  0
VERTEX
  5
B1A
  8
0
 62
    31
 10
5.766494999999999
 20
66.321601999999999
 30
0.0
  0
VERTEX
  5
B1B
  8
0
 62
    31
 10
5.7245480000000004
 20
66.553077999999999
 30
0.0
  0
VERTEX
  5
B1C
  8
0
 62
    31
 10
5.6895290000000003
 20
66.791213999999997
 30
0.0
  0
VERTEX
  5
B1D
  8
0
 62
    31
 10
5.6618190000000004
 20
67.034874000000002
 30
0.0
  0
VERTEX
  5
B1E
  8
0
 62
    31
 10
5.6416779999999989
 20
67.282829000000007
 30
0.0
  0
VERTEX
  5
B1F
  8
0
 62
    31
 10
5.629332999999999
 20
67.533775000000006
 30
0.0
  0
VERTEX
  5
B20
  8
0
 62
    31
 10
5.6249079999999996
 20
67.786368999999993
 30
0.0
  0
VERTEX
  5
B21
  8
0
 62
    31
 10
5.6284789999999996
 20
68.039222999999993
 30
0.0
  0
VERTEX
  5
B22
  8
0
 62
    31
 10
5.6332550000000001
 20
68.165268000000012
 30
0.0
  0
VERTEX
  5
B23
  8
0
 62
    31
 10
5.640015
 20
68.290955000000011
 30
0.0
  0
VERTEX
  5
B24
  8
0
 62
    31
 10
5.6487429999999987
 20
68.415870999999996
 30
0.0
  0
VERTEX
  5
B25
  8
0
 62
    31
 10
5.659438999999999
 20
68.540183999999996
 30
0.0
  0
VERTEX
  5
B26
  8
0
 62
    31
 10
5.6720430000000004
 20
68.663306999999975
 30
0.0
  0
VERTEX
  5
B27
  8
0
 62
    31
 10
5.6865690000000004
 20
68.785576000000006
 30
0.0
  0
VERTEX
  5
B28
  8
0
 62
    31
 10
5.7029110000000003
 20
68.90625
 30
0.0
  0
VERTEX
  5
B29
  8
0
 62
    31
 10
5.7211460000000001
 20
69.025847999999996
 30
0.0
  0
VERTEX
  5
B2A
  8
0
 62
    31
 10
5.7410889999999988
 20
69.143470999999991
 30
0.0
  0
VERTEX
  5
B2B
  8
0
 62
    31
 10
5.7628479999999991
 20
69.259804000000003
 30
0.0
  0
VERTEX
  5
B2C
  8
0
 62
    31
 10
5.7862239999999989
 20
69.373801999999984
 30
0.0
  0
VERTEX
  5
B2D
  8
0
 62
    31
 10
5.8113250000000001
 20
69.486319999999992
 30
0.0
  0
VERTEX
  5
B2E
  8
0
 62
    31
 10
5.8378909999999991
 20
69.596191000000005
 30
0.0
  0
VERTEX
  5
B2F
  8
0
 62
    31
 10
5.866134999999999
 20
69.704398999999995
 30
0.0
  0
VERTEX
  5
B30
  8
0
 62
    31
 10
5.895675999999999
 20
69.809691999999998
 30
0.0
  0
VERTEX
  5
B31
  8
0
 62
    31
 10
5.9267880000000002
 20
69.913161999999986
 30
0.0
  0
VERTEX
  5
B32
  8
0
 62
    31
 10
5.9590449999999988
 20
70.013489000000007
 30
0.0
  0
VERTEX
  5
B33
  8
0
 62
    31
 10
5.9927830000000002
 20
70.111846999999997
 30
0.0
  0
VERTEX
  5
B34
  8
0
 62
    31
 10
6.0275119999999998
 20
70.206885999999983
 30
0.0
  0
VERTEX
  5
B35
  8
0
 62
    31
 10
6.0635989999999991
 20
70.299835000000002
 30
0.0
  0
VERTEX
  5
B36
  8
0
 62
    31
 10
6.100509999999999
 20
70.389328000000006
 30
0.0
  0
VERTEX
  5
B37
  8
0
 62
    31
 10
6.138687
 20
70.476646000000002
 30
0.0
  0
VERTEX
  5
B38
  8
0
 62
    31
 10
6.177505
 20
70.560410000000005
 30
0.0
  0
VERTEX
  5
B39
  8
0
 62
    31
 10
6.2174990000000001
 20
70.641921999999994
 30
0.0
  0
VERTEX
  5
B3A
  8
0
 62
    31
 10
6.2579500000000001
 20
70.719825999999998
 30
0.0
  0
VERTEX
  5
B3B
  8
0
 62
    31
 10
6.2994690000000002
 20
70.795433000000003
 30
0.0
  0
VERTEX
  5
B3C
  8
0
 62
    31
 10
6.3412930000000003
 20
70.867431999999994
 30
0.0
  0
VERTEX
  5
B3D
  8
0
 62
    31
 10
6.3841089999999987
 20
70.937095999999997
 30
0.0
  0
VERTEX
  5
B3E
  8
0
 62
    31
 10
6.4270480000000001
 20
71.003174000000001
 30
0.0
  0
VERTEX
  5
B3F
  8
0
 62
    31
 10
6.4708860000000001
 20
71.066901999999999
 30
0.0
  0
VERTEX
  5
B40
  8
0
 62
    31
 10
6.5147250000000003
 20
71.127112999999994
 30
0.0
  0
VERTEX
  5
B41
  8
0
 62
    31
 10
6.5593570000000003
 20
71.184974999999994
 30
0.0
  0
VERTEX
  5
B42
  8
0
 62
    31
 10
6.6038670000000002
 20
71.239418000000001
 30
0.0
  0
VERTEX
  5
B43
  8
0
 62
    31
 10
6.6490780000000003
 20
71.291511999999983
 30
0.0
  0
VERTEX
  5
B44
  8
0
 62
    31
 10
6.6940609999999996
 20
71.340308999999991
 30
0.0
  0
VERTEX
  5
B45
  8
0
 62
    31
 10
6.7396699999999994
 20
71.386786999999984
 30
0.0
  0
VERTEX
  5
B46
  8
0
 62
    31
 10
6.784972999999999
 20
71.430098999999998
 30
0.0
  0
VERTEX
  5
B47
  8
0
 62
    31
 10
6.8307949999999993
 20
71.471130000000002
 30
0.0
  0
VERTEX
  5
B48
  8
0
 62
    31
 10
6.8762660000000002
 20
71.509147999999996
 30
0.0
  0
VERTEX
  5
B49
  8
0
 62
    31
 10
6.9221799999999991
 20
71.544914000000006
 30
0.0
  0
VERTEX
  5
B4A
  8
0
 62
    31
 10
6.9676970000000003
 20
71.577826999999999
 30
0.0
  0
VERTEX
  5
B4B
  8
0
 62
    31
 10
7.013611
 20
71.608520999999996
 30
0.0
  0
VERTEX
  5
B4C
  8
0
 62
    31
 10
7.0590820000000001
 20
71.636535999999992
 30
0.0
  0
VERTEX
  5
B4D
  8
0
 62
    31
 10
7.104889
 20
71.662368999999998
 30
0.0
  0
VERTEX
  5
B4E
  8
0
 62
    31
 10
7.1502689999999998
 20
71.68566899999999
 30
0.0
  0
VERTEX
  5
B4F
  8
0
 62
    31
 10
7.1959080000000002
 20
71.706840999999983
 30
0.0
  0
VERTEX
  5
B50
  8
0
 62
    31
 10
7.2411500000000002
 20
71.725616000000002
 30
0.0
  0
VERTEX
  5
B51
  8
0
 62
    31
 10
7.2865909999999996
 20
71.742301999999995
 30
0.0
  0
VERTEX
  5
B52
  8
0
 62
    31
 10
7.331696
 20
71.756720999999985
 30
0.0
  0
VERTEX
  5
B53
  8
0
 62
    31
 10
7.376938
 20
71.769081
 30
0.0
  0
VERTEX
  5
B54
  8
0
 62
    31
 10
7.421905999999999
 20
71.779281999999995
 30
0.0
  0
VERTEX
  5
B55
  8
0
 62
    31
 10
7.4669649999999992
 20
71.787452999999999
 30
0.0
  0
VERTEX
  5
B56
  8
0
 62
    31
 10
7.5118099999999997
 20
71.793541000000005
 30
0.0
  0
VERTEX
  5
B57
  8
0
 62
    31
 10
7.556716999999999
 20
71.797615000000008
 30
0.0
  0
VERTEX
  5
B58
  8
0
 62
    31
 10
7.6248929999999993
 20
71.799942000000001
 30
0.0
  0
SEQEND
  5
B59
  8
0
 62
    31
  0
LINE
  5
6DB
  8
0
 62
     3
 10
7.5202179999999981
 20
79.763023000000004
 30
0.0
 11
9.265625
 21
78.017623999999998
 31
0.0
  0
LINE
  5
6DC
  8
0
 62
     3
 10
6.8123019999999999
 20
79.410278000000005
 30
0.0
 11
9.5648039999999988
 21
76.657775999999998
 31
0.0
  0
LINE
  5
6DD
  8
0
 62
     3
 10
6.327056999999999
 20
78.834868999999998
 30
0.0
 11
9.5945129999999992
 21
75.567406000000005
 31
0.0
  0
LINE
  5
6DE
  8
0
 62
     3
 10
6.0135649999999989
 20
78.087692000000004
 30
0.0
 11
9.5023499999999999
 21
74.598915000000005
 31
0.0
  0
LINE
  5
6DF
  8
0
 62
     3
 10
5.7924350000000002
 20
77.24816899999999
 30
0.0
 11
9.3225709999999982
 21
73.718024999999997
 31
0.0
  0
LINE
  5
6E0
  8
0
 62
     3
 10
5.6552730000000002
 20
76.324660999999992
 30
0.0
 11
9.009094000000001
 21
72.970839999999995
 31
0.0
  0
LINE
  5
6E1
  8
0
 62
     3
 10
5.6552730000000002
 20
75.263999999999996
 30
0.0
 11
8.5730899999999988
 21
72.346191000000005
 31
0.0
  0
LINE
  5
6E2
  8
0
 62
     3
 10
5.8559570000000001
 20
74.002669999999995
 30
0.0
 11
7.9455869999999988
 21
71.913032999999999
 31
0.0
  0
LINE
  5
6E3
  8
0
 62
    31
 10
49.237060999999997
 20
70.378342000000004
 30
0.0
 11
26.23706099999999
 21
66.322822999999985
 31
0.0
  0
LINE
  5
6E4
  8
0
 62
    31
 10
49.237060999999997
 20
68.956740999999994
 30
0.0
 11
30.199660999999988
 21
65.599936999999997
 31
0.0
  0
LINE
  5
6E5
  8
0
 62
    31
 10
49.237060999999997
 20
67.535149000000004
 30
0.0
 11
38.26194799999999
 21
65.599936999999997
 31
0.0
  0
LINE
  5
6E6
  8
0
 62
    31
 10
49.237060999999997
 20
66.113547999999994
 30
0.0
 11
46.324218999999992
 21
65.599936999999997
 31
0.0
  0
LINE
  5
6E7
  8
0
 62
    31
 10
49.237060999999997
 20
73.221541999999985
 30
0.0
 11
26.23706099999999
 21
69.166015999999985
 31
0.0
  0
LINE
  5
6E8
  8
0
 62
    31
 10
49.237060999999997
 20
74.643135000000001
 30
0.0
 11
26.23706099999999
 21
70.587615999999997
 31
0.0
  0
LINE
  5
6E9
  8
0
 62
    31
 10
49.237060999999997
 20
76.064734999999985
 30
0.0
 11
26.23706099999999
 21
72.009215999999995
 31
0.0
  0
LINE
  5
6EA
  8
0
 62
    31
 10
49.237060999999997
 20
77.486328
 30
0.0
 11
26.23706099999999
 21
73.430808999999996
 31
0.0
  0
LINE
  5
6EB
  8
0
 62
    31
 10
44.087615999999997
 20
77.999938999999998
 30
0.0
 11
26.23706099999999
 21
74.852408999999994
 31
0.0
  0
LINE
  5
6EC
  8
0
 62
    31
 10
36.02532999999999
 20
77.999938999999998
 30
0.0
 11
26.23706099999999
 21
76.274001999999996
 31
0.0
  0
LINE
  5
6ED
  8
0
 62
    31
 10
27.963058
 20
77.999938999999998
 30
0.0
 11
26.23706099999999
 21
77.695601999999994
 31
0.0
  0
ENDBLK
  5
6EE
  8
0
  0
BLOCK
  8
0
  2
BLOCK40
 70
     0
 10
0.0
 20
0.0
 30
0.0
  3
BLOCK40
  1

  0
TEXT
  5
6F0
  8
0
 62
     7
 10
173.54176299999989
 20
-26.724976000000002
 30
0.0
 40
3.0
  1
10
 50
359.99998842508802
 41
1.5702500786811939
 72
     5
 11
178.49175999999991
 21
-26.724976999999999
 31
0.0
  0
ENDBLK
  5
6F1
  8
0
  0
BLOCK
  8
0
  2
BLOCK41
 70
     0
 10
0.0
 20
0.0
 30
0.0
  3
BLOCK41
  1

  0
TEXT
  5
6F3
  8
0
 62
     7
 10
103.4829409999999
 20
-51.343139999999998
 30
0.0
 40
3.0
  1
105
 50
359.999977676914
 41
1.432750773232113
 72
     5
 11
111.18292199999991
 21
-51.343142999999991
 31
0.0
  0
ENDBLK
  5
6F4
  8
0
  0
BLOCK
  8
0
  2
BLOCK42
 70
     0
 10
0.0
 20
0.0
 30
0.0
  3
BLOCK42
  1

  0
TEXT
  5
6F6
  8
0
 62
     7
 10
103.9870609999999
 20
178.21418799999989
 30
0.0
 40
3.0
  1
143
 41
1.357000821032974
 72
     5
 11
111.68704199999991
 21
178.21418799999989
 31
0.0
  0
ENDBLK
  5
6F7
  8
0
  0
BLOCK
  8
0
  2
BLOCK43
 70
     0
 10
0.0
 20
0.0
 30
0.0
  3
BLOCK43
  1

  0
TEXT
  5
6F9
  8
0
 62
     7
 10
-57.508743000000003
 20
64.999282999999991
 30
0.0
 40
3.0
  1
103,5
 50
269.9999652751772
 41
1.5485159649678719
 72
     5
 11
-57.508750999999997
 21
51.799323999999999
 31
0.0
  0
ENDBLK
  5
6FA
  8
0
  0
BLOCK
  8
0
  2
BLOCK44
 70
     0
 10
0.0
 20
0.0
 30
0.0
  3
BLOCK44
  1

  0
TEXT
  5
6FC
  8
0
 62
     7
 10
-57.508727999999998
 20
117.4999389999999
 30
0.0
 40
3.0
  1
3
 50
270.0
 41
1.2399490238209789
 72
     5
 11
-57.508727999999998
 21
115.2999419999999
 31
0.0
  0
ENDBLK
  5
6FD
  8
0
  0
BLOCK
  8
0
  2
BLOCK45
 70
     0
 10
0.0
 20
0.0
 30
0.0
  3
BLOCK45
  1

  0
TEXT
  5
6FF
  8
0
 62
     7
 10
-57.508727999999998
 20
122.9999389999999
 30
0.0
 40
3.0
  1
\U+2265
 50
270.0
 41
1.2422315693532049
 72
     5
 11
-57.508727999999998
 21
120.7999419999999
 31
0.0
  0
ENDBLK
  5
700
  8
0
  0
BLOCK
  8
0
  2
BLOCK46
 70
     0
 10
0.0
 20
0.0
 30
0.0
  3
BLOCK46
  1

  0
TEXT
  5
702
  8
0
 62
     7
 10
-86.731125000000006
 20
43.727416999999988
 30
0.0
 40
3.0
  1
135
 50
270.0
 41
1.4327509593039931
 72
     5
 11
-86.731125000000006
 21
36.02743499999999
 31
0.0
  0
ENDBLK
  5
703
  8
0
  0
BLOCK
  8
0
  2
BLOCK47
 70
     0
 10
0.0
 20
0.0
 30
0.0
  3
BLOCK47
  1

  0
TEXT
  5
705
  8
0
 62
     7
 10
-71.491714000000002
 20
-12.000061000000001
 30
0.0
 40
3.0
  1
2
 50
270.0
 41
1.2020694180030751
 72
     5
 11
-71.491714000000002
 21
-14.200060999999989
 31
0.0
  0
ENDBLK
  5
706
  8
0
  0
BLOCK
  8
0
  2
BLOCK48
 70
     0
 10
0.0
 20
0.0
 30
0.0
  3
BLOCK48
  1

  0
TEXT
  5
708
  8
0
 62
     7
 10
-71.491730000000004
 20
57.749939000000012
 30
0.0
 40
3.0
  1
107
 50
270.0
 41
1.4666632380952389
 72
     5
 11
-71.491730000000004
 21
50.049956999999999
 31
0.0
  0
ENDBLK
  5
709
  8
0
  0
BLOCK
  8
0
  2
BLOCK49
 70
     0
 10
0.0
 20
0.0
 30
0.0
  3
BLOCK49
  1

  0
TEXT
  5
70B
  8
0
 62
     7
 10
133.11206100000001
 20
162.9052429999999
 30
0.0
 40
3.0
  1
73,75
 41
1.446688291855128
 72
     5
 11
146.312027
 21
162.9052429999999
 31
0.0
  0
ENDBLK
  5
70C
  8
0
  0
BLOCK
  8
0
  2
BLOCK50
 70
     0
 10
0.0
 20
0.0
 30
0.0
  3
BLOCK50
  1

  0
TEXT
  5
70E
  8
0
 62
     7
 10
-0.7629390000000001
 20
166.016693
 30
0.0
 40
3.0
  1
13,5
 41
1.6266407931290441
 72
     5
 11
9.6870309999999993
 21
166.016693
 31
0.0
  0
ENDBLK
  5
70F
  8
0
  0
BLOCK
  8
0
  2
BLOCK51
 70
     0
 10
0.0
 20
0.0
 30
0.0
  3
BLOCK51
  1

  0
TEXT
  5
711
  8
0
 62
     7
 10
233.42247
 20
90.432097999999996
 30
0.0
 40
3.5
  1
31
 50
270.0
 41
1.5873001360544201
 72
     5
 11
233.42247
 21
84.598770000000002
 31
0.0
  0
LINE
  5
712
  8
0
 62
     7
 10
194.23666399999991
 20
72.030936999999994
 30
0.0
 11
233.42247
 21
72.030936999999994
 31
0.0
  0
LINE
  5
713
  8
0
 62
     7
 10
206.73344399999991
 20
102.9999389999999
 30
0.0
 11
233.42247
 21
102.9999389999999
 31
0.0
  0
POLYLINE
  5
714
  8
0
 62
     7
 66
     1
 10
0.0
 20
0.0
 30
0.0
  0
VERTEX
  5
B5A
  8
0
 62
     7
 10
231.94010899999989
 20
101.0680849999999
 30
0.0
  0
VERTEX
  5
B5B
  8
0
 62
     7
 10
231.42247
 20
102.9999389999999
 30
0.0
  0
VERTEX
  5
B5C
  8
0
 62
     7
 10
230.904831
 20
101.0680849999999
 30
0.0
  0
SEQEND
  5
B5D
  8
0
 62
     7
  0
POLYLINE
  5
719
  8
0
 62
     7
 66
     1
 10
0.0
 20
0.0
 30
0.0
  0
VERTEX
  5
B5E
  8
0
 62
     7
 10
230.904831
 20
73.962790999999996
 30
0.0
  0
VERTEX
  5
B5F
  8
0
 62
     7
 10
231.42247
 20
72.030936999999994
 30
0.0
  0
VERTEX
  5
B60
  8
0
 62
     7
 10
231.94010899999989
 20
73.962790999999996
 30
0.0
  0
SEQEND
  5
B61
  8
0
 62
     7
  0
LINE
  5
71E
  8
0
 62
     7
 10
231.42247
 20
72.030936999999994
 30
0.0
 11
231.42247
 21
102.9999389999999
 31
0.0
  0
ENDBLK
  5
71F
  8
0
  0
BLOCK
  8
0
  2
BLOCK52
 70
     0
 10
0.0
 20
0.0
 30
0.0
  3
BLOCK52
  1

  0
TEXT
  5
721
  8
0
 62
     7
 10
248.62554900000001
 20
67.916603000000009
 30
0.0
 40
3.5
  1
76
 50
270.0
 41
1.2824393716189919
 72
     5
 11
248.62554900000001
 21
62.083270999999989
 31
0.0
  0
LINE
  5
722
  8
0
 62
     7
 10
217.38372799999991
 20
26.999939000000001
 30
0.0
 11
248.62554900000001
 21
26.999939000000001
 31
0.0
  0
LINE
  5
723
  8
0
 62
     7
 10
206.73344399999991
 20
102.9999389999999
 30
0.0
 11
248.62554900000001
 21
102.9999389999999
 31
0.0
  0
POLYLINE
  5
724
  8
0
 62
     7
 66
     1
 10
0.0
 20
0.0
 30
0.0
  0
VERTEX
  5
B62
  8
0
 62
     7
 10
246.10792499999999
 20
28.93179099999999
 30
0.0
  0
VERTEX
  5
B63
  8
0
 62
     7
 10
246.62554900000001
 20
26.999939000000001
 30
0.0
  0
VERTEX
  5
B64
  8
0
 62
     7
 10
247.1431879999999
 20
28.93179099999999
 30
0.0
  0
SEQEND
  5
B65
  8
0
 62
     7
  0
POLYLINE
  5
729
  8
0
 62
     7
 66
     1
 10
0.0
 20
0.0
 30
0.0
  0
VERTEX
  5
B66
  8
0
 62
     7
 10
247.1431879999999
 20
101.0680849999999
 30
0.0
  0
VERTEX
  5
B67
  8
0
 62
     7
 10
246.62554900000001
 20
102.9999389999999
 30
0.0
  0
VERTEX
  5
B68
  8
0
 62
     7
 10
246.10792499999999
 20
101.0680849999999
 30
0.0
  0
SEQEND
  5
B69
  8
0
 62
     7
  0
LINE
  5
72E
  8
0
 62
     7
 10
246.62554900000001
 20
26.999939000000001
 30
0.0
 11
246.62554900000001
 21
102.9999389999999
 31
0.0
  0
ENDBLK
  5
72F
  8
0
  0
BLOCK
  8
0
  2
BLOCK53
 70
     0
 10
0.0
 20
0.0
 30
0.0
  3
BLOCK53
  1

  0
TEXT
  5
731
  8
0
 62
     7
 10
262.75521900000001
 20
59.499966000000001
 30
0.0
 40
3.0
  1
101,5
 50
270.0
 41
1.6910090178479049
 72
     5
 11
262.75521900000001
 21
46.099963999999993
 31
0.0
  0
LINE
  5
732
  8
0
 62
     7
 10
173.98706100000001
 20
1.4999400000000001
 30
0.0
 11
263.75521900000001
 21
1.4999400000000001
 31
0.0
  0
LINE
  5
733
  8
0
 62
     7
 10
206.73344399999991
 20
102.9999389999999
 30
0.0
 11
263.75521900000001
 21
102.9999389999999
 31
0.0
  0
POLYLINE
  5
734
  8
0
 62
     7
 66
     1
 10
0.0
 20
0.0
 30
0.0
  0
VERTEX
  5
B6A
  8
0
 62
     7
 10
261.23757899999993
 20
3.4317919999999988
 30
0.0
  0
VERTEX
  5
B6B
  8
0
 62
     7
 10
261.75521900000001
 20
1.4999400000000001
 30
0.0
  0
VERTEX
  5
B6C
  8
0
 62
     7
 10
262.27282700000001
 20
3.4317919999999988
 30
0.0
  0
SEQEND
  5
B6D
  8
0
 62
     7
  0
POLYLINE
  5
739
  8
0
 62
     7
 66
     1
 10
0.0
 20
0.0
 30
0.0
  0
VERTEX
  5
B6E
  8
0
 62
     7
 10
262.27282700000001
 20
101.0680849999999
 30
0.0
  0
VERTEX
  5
B6F
  8
0
 62
     7
 10
261.75521900000001
 20
102.9999389999999
 30
0.0
  0
VERTEX
  5
B70
  8
0
 62
     7
 10
261.23757899999993
 20
101.0680849999999
 30
0.0
  0
SEQEND
  5
B71
  8
0
 62
     7
  0
LINE
  5
73E
  8
0
 62
     7
 10
261.75521900000001
 20
1.4999400000000001
 30
0.0
 11
261.75521900000001
 21
102.9999389999999
 31
0.0
  0
ENDBLK
  5
73F
  8
0
  0
BLOCK
  8
0
  2
BLOCK54
 70
     0
 10
0.0
 20
0.0
 30
0.0
  3
BLOCK54
  1

  0
TEXT
  5
741
  8
0
 62
     7
 10
233.42247
 20
42.361088000000002
 30
0.0
 40
3.5
  1
17
 50
270.0
 41
1.58730231292517
 72
     5
 11
233.42247
 21
36.527752
 31
0.0
  0
TEXT
  5
742
  8
0
 62
     7
 10
233.42247
 20
46.861088000000002
 30
0.0
 40
3.5
  1
%%c
 50
270.0
 41
1.3333333333333319
 72
     5
 11
233.42247
 21
43.361088000000002
 31
0.0
  0
LINE
  5
743
  8
0
 62
     7
 10
194.23666399999991
 20
55.012936000000003
 30
0.0
 11
233.42247
 21
55.012936000000003
 31
0.0
  0
LINE
  5
744
  8
0
 62
     7
 10
194.23666399999991
 20
72.030936999999994
 30
0.0
 11
233.42247
 21
72.030936999999994
 31
0.0
  0
POLYLINE
  5
745
  8
0
 62
     7
 66
     1
 10
0.0
 20
0.0
 30
0.0
  0
VERTEX
  5
B72
  8
0
 62
     7
 10
231.94010899999989
 20
70.099082999999993
 30
0.0
  0
VERTEX
  5
B73
  8
0
 62
     7
 10
231.42247
 20
72.030936999999994
 30
0.0
  0
VERTEX
  5
B74
  8
0
 62
     7
 10
230.904831
 20
70.099082999999993
 30
0.0
  0
SEQEND
  5
B75
  8
0
 62
     7
  0
POLYLINE
  5
74A
  8
0
 62
     7
 66
     1
 10
0.0
 20
0.0
 30
0.0
  0
VERTEX
  5
B76
  8
0
 62
     7
 10
230.904831
 20
56.944790000000012
 30
0.0
  0
VERTEX
  5
B77
  8
0
 62
     7
 10
231.42247
 20
55.012936000000003
 30
0.0
  0
VERTEX
  5
B78
  8
0
 62
     7
 10
231.94010899999989
 20
56.944790000000012
 30
0.0
  0
SEQEND
  5
B79
  8
0
 62
     7
  0
LINE
  5
74F
  8
0
 62
     7
 10
231.42247
 20
36.527752
 30
0.0
 11
231.42247
 21
72.030936999999994
 31
0.0
  0
ENDBLK
  5
750
  8
0
  0
BLOCK
  8
0
  2
BLOCK55
 70
     0
 10
0.0
 20
0.0
 30
0.0
  3
BLOCK55
  1

  0
TEXT
  5
752
  8
0
 62
     6
 10
-29.049917000000001
 20
58.599936999999997
 30
0.0
 40
3.0
  1
18x18
 50
270.0
 41
1.51412440677966
 72
     5
 11
-29.049917000000001
 21
45.199936000000001
 31
0.0
  0
LINE
  5
753
  8
0
 62
     6
 10
31.23706099999999
 20
65.599936999999997
 30
0.0
 11
-32.049919000000003
 21
65.599936999999997
 31
0.0
  0
LINE
  5
754
  8
0
 62
     6
 10
25.237061000000001
 20
77.999938999999998
 30
0.0
 11
-32.049919000000003
 21
77.999938999999998
 31
0.0
  0
POLYLINE
  5
755
  8
0
 62
     6
 66
     1
 10
0.0
 20
0.0
 30
0.0
  0
VERTEX
  5
B7A
  8
0
 62
     6
 10
-29.53228
 20
63.668086999999993
 30
0.0
  0
VERTEX
  5
B7B
  8
0
 62
     6
 10
-30.04991699999999
 20
65.599936999999997
 30
0.0
  0
VERTEX
  5
B7C
  8
0
 62
     6
 10
-30.567556
 20
63.668086999999993
 30
0.0
  0
SEQEND
  5
B7D
  8
0
 62
     6
  0
POLYLINE
  5
75A
  8
0
 62
     6
 66
     1
 10
0.0
 20
0.0
 30
0.0
  0
VERTEX
  5
B7E
  8
0
 62
     6
 10
-30.567556
 20
79.931792999999999
 30
0.0
  0
VERTEX
  5
B7F
  8
0
 62
     6
 10
-30.04991699999999
 20
77.999938999999998
 30
0.0
  0
VERTEX
  5
B80
  8
0
 62
     6
 10
-29.53228
 20
79.931792999999999
 30
0.0
  0
SEQEND
  5
B81
  8
0
 62
     6
  0
LINE
  5
75F
  8
0
 62
     6
 10
-30.04991699999999
 20
45.199936000000001
 30
0.0
 11
-30.04991699999999
 21
82.999938999999998
 31
0.0
  0
ENDBLK
  5
760
  8
0
  0
BLOCK
  8
0
  2
BLOCK56
 70
     0
 10
0.0
 20
0.0
 30
0.0
  3
BLOCK56
  1

  0
LINE
  5
762
  8
0
 62
     3
 10
30.73706099999999
 20
50.933773000000002
 30
0.0
 11
31.670895000000002
 21
49.999938999999998
 31
0.0
  0
LINE
  5
763
  8
0
 62
     3
 10
30.73706099999999
 20
51.994433999999998
 30
0.0
 11
32.731555999999991
 21
49.999938999999998
 31
0.0
  0
LINE
  5
764
  8
0
 62
     3
 10
30.73706099999999
 20
53.055095999999999
 30
0.0
 11
33.792217000000001
 21
49.999938999999998
 31
0.0
  0
LINE
  5
765
  8
0
 62
     3
 10
30.852876999999999
 20
53.999939000000012
 30
0.0
 11
34.73706099999999
 21
50.115752999999998
 31
0.0
  0
LINE
  5
766
  8
0
 62
     3
 10
31.91353599999999
 20
53.999939000000012
 30
0.0
 11
34.73706099999999
 21
51.176414000000001
 31
0.0
  0
LINE
  5
767
  8
0
 62
     3
 10
32.97419699999999
 20
53.999939000000012
 30
0.0
 11
34.73706099999999
 21
52.237076000000002
 31
0.0
  0
LINE
  5
768
  8
0
 62
     3
 10
34.034855
 20
53.999939000000012
 30
0.0
 11
34.73706099999999
 21
53.297732999999987
 31
0.0
  0
ENDBLK
  5
769
  8
0
  0
BLOCK
  8
0
  2
BLOCK57
 70
     0
 10
0.0
 20
0.0
 30
0.0
  3
BLOCK57
  1

  0
LINE
  5
76B
  8
0
 62
     3
 10
46.73706099999999
 20
50.843674
 30
0.0
 11
47.580795000000002
 21
49.999938999999998
 31
0.0
  0
LINE
  5
76C
  8
0
 62
     3
 10
46.73706099999999
 20
51.904335000000003
 30
0.0
 11
48.641457000000003
 21
49.999938999999998
 31
0.0
  0
LINE
  5
76D
  8
0
 62
     3
 10
46.73706099999999
 20
52.964995999999999
 30
0.0
 11
49.702117999999999
 21
49.999938999999998
 31
0.0
  0
LINE
  5
76E
  8
0
 62
     3
 10
46.762778999999988
 20
53.999939000000012
 30
0.0
 11
50.73706099999999
 21
50.025653999999989
 31
0.0
  0
LINE
  5
76F
  8
0
 62
     3
 10
47.823436999999998
 20
53.999939000000012
 30
0.0
 11
50.73706099999999
 21
51.086314999999999
 31
0.0
  0
LINE
  5
770
  8
0
 62
     3
 10
48.884098000000002
 20
53.999939000000012
 30
0.0
 11
50.73706099999999
 21
52.146976000000002
 31
0.0
  0
LINE
  5
771
  8
0
 62
     3
 10
49.944759000000012
 20
53.999939000000012
 30
0.0
 11
50.73706099999999
 21
53.207638000000003
 31
0.0
  0
ENDBLK
  5
772
  8
0
  0
BLOCK
  8
0
  2
BLOCK58
 70
     0
 10
0.0
 20
0.0
 30
0.0
  3
BLOCK58
  1

  0
LINE
  5
774
  8
0
 62
     3
 10
30.73706099999999
 20
83.814239999999998
 30
0.0
 11
31.551362999999998
 21
82.999938999999998
 31
0.0
  0
LINE
  5
775
  8
0
 62
     3
 10
30.73706099999999
 20
84.874900999999994
 30
0.0
 11
32.612021999999989
 21
82.999938999999998
 31
0.0
  0
LINE
  5
776
  8
0
 62
     3
 10
31.172684
 20
85.499938999999998
 30
0.0
 11
33.672683999999997
 21
82.999938999999998
 31
0.0
  0
LINE
  5
777
  8
0
 62
     3
 10
32.233344999999993
 20
85.499938999999998
 30
0.0
 11
34.733344999999993
 21
82.999938999999998
 31
0.0
  0
LINE
  5
778
  8
0
 62
     3
 10
33.294002999999996
 20
85.499938999999998
 30
0.0
 11
35.794002999999996
 21
82.999938999999998
 31
0.0
  0
LINE
  5
779
  8
0
 62
     3
 10
36.914535999999998
 20
81.879409999999993
 30
0.0
 11
39.616528000000002
 21
79.177413999999999
 31
0.0
  0
LINE
  5
77A
  8
0
 62
     3
 10
34.354664
 20
85.499938999999998
 30
0.0
 11
40.838584999999988
 21
79.016021999999992
 31
0.0
  0
LINE
  5
77B
  8
0
 62
     3
 10
35.415325000000003
 20
85.499938999999998
 30
0.0
 11
41.754218999999992
 21
79.161040999999997
 31
0.0
  0
LINE
  5
77C
  8
0
 62
     3
 10
36.475982999999999
 20
85.499938999999998
 30
0.0
 11
38.750678999999991
 21
83.225243000000006
 31
0.0
  0
LINE
  5
77D
  8
0
 62
     3
 10
40.918407000000002
 20
81.057518000000002
 30
0.0
 11
42.507785999999989
 21
79.468131999999997
 31
0.0
  0
LINE
  5
77E
  8
0
 62
     3
 10
41.721851000000001
 20
81.314728000000002
 30
0.0
 11
43.180458000000002
 21
79.856125000000006
 31
0.0
  0
LINE
  5
77F
  8
0
 62
     3
 10
42.292160000000003
 20
81.805083999999994
 30
0.0
 11
43.710784999999987
 21
80.386459000000002
 31
0.0
  0
LINE
  5
780
  8
0
 62
     3
 10
42.647835000000001
 20
82.510070999999996
 30
0.0
 11
44.154040999999992
 21
81.003860000000003
 31
0.0
  0
LINE
  5
781
  8
0
 62
     3
 10
42.755233999999987
 20
83.463332999999992
 30
0.0
 11
44.512058000000003
 21
81.706505000000007
 31
0.0
  0
LINE
  5
782
  8
0
 62
     3
 10
42.910797000000002
 20
84.368423000000007
 30
0.0
 11
44.674469000000002
 21
82.604752000000005
 31
0.0
  0
LINE
  5
783
  8
0
 62
     3
 10
43.407851999999998
 20
84.932030000000012
 30
0.0
 11
45.339942999999991
 21
82.999938999999998
 31
0.0
  0
LINE
  5
784
  8
0
 62
     3
 10
44.081817999999998
 20
85.318725999999984
 30
0.0
 11
46.400604000000001
 21
82.999938999999998
 31
0.0
  0
LINE
  5
785
  8
0
 62
     3
 10
44.961265999999988
 20
85.499938999999998
 30
0.0
 11
47.461265999999988
 21
82.999938999999998
 31
0.0
  0
LINE
  5
786
  8
0
 62
     3
 10
46.021923000000001
 20
85.499938999999998
 30
0.0
 11
48.521923000000001
 21
82.999938999999998
 31
0.0
  0
LINE
  5
787
  8
0
 62
     3
 10
47.082583999999997
 20
85.499938999999998
 30
0.0
 11
49.582583999999997
 21
82.999938999999998
 31
0.0
  0
LINE
  5
788
  8
0
 62
     3
 10
48.143245999999998
 20
85.499938999999998
 30
0.0
 11
50.643245999999998
 21
82.999938999999998
 31
0.0
  0
LINE
  5
789
  8
0
 62
     3
 10
49.203907000000001
 20
85.499938999999998
 30
0.0
 11
50.73706099999999
 21
83.966781999999995
 31
0.0
  0
LINE
  5
78A
  8
0
 62
     3
 10
50.264564999999997
 20
85.499938999999998
 30
0.0
 11
50.73706099999999
 21
85.027443000000005
 31
0.0
  0
ENDBLK
  5
78B
  8
0
  0
BLOCK
  8
0
  2
BLOCK59
 70
     0
 10
0.0
 20
0.0
 30
0.0
  3
BLOCK59
  1

  0
LINE
  5
78D
  8
0
 62
     6
 10
168.367615
 20
91.999938999999998
 30
0.0
 11
167.17150899999999
 21
90.803832999999983
 31
0.0
  0
LINE
  5
78E
  8
0
 62
     6
 10
170.48893699999999
 20
91.999938999999998
 30
0.0
 11
167.17150899999999
 21
88.682518000000016
 31
0.0
  0
LINE
  5
78F
  8
0
 62
     6
 10
171.23706100000001
 20
90.626746999999995
 30
0.0
 11
168.61024499999991
 21
87.999938999999998
 31
0.0
  0
LINE
  5
790
  8
0
 62
     6
 10
171.23706100000001
 20
88.505431999999999
 30
0.0
 11
170.7315669999999
 21
87.999938999999998
 31
0.0
  0
ENDBLK
  5
791
  8
0
  0
BLOCK
  8
0
  2
BLOCK60
 70
     0
 10
0.0
 20
0.0
 30
0.0
  3
BLOCK60
  1

  0
LINE
  5
793
  8
0
 62
     6
 10
50.937564999999999
 20
86.999938999999998
 30
0.0
 11
50.737071999999998
 21
86.799446000000003
 31
0.0
  0
LINE
  5
794
  8
0
 62
     6
 10
53.058886999999999
 20
86.999938999999998
 30
0.0
 11
50.737071999999998
 21
84.678122999999999
 31
0.0
  0
LINE
  5
795
  8
0
 62
     6
 10
53.720267999999997
 20
85.540001000000004
 30
0.0
 11
51.180205999999998
 21
82.999938999999998
 31
0.0
  0
LINE
  5
796
  8
0
 62
     6
 10
53.720267999999997
 20
83.418678000000014
 30
0.0
 11
53.301524999999998
 21
82.999938999999998
 31
0.0
  0
ENDBLK
  5
797
  8
0
  0
BLOCK
  8
0
  2
BLOCK61
 70
     0
 10
0.0
 20
0.0
 30
0.0
  3
BLOCK61
  1

  0
LINE
  5
799
  8
0
 62
     6
 10
44.837059000000004
 20
80.320839000000007
 30
0.0
 11
45.157963000000002
 21
79.999938999999983
 31
0.0
  0
LINE
  5
79A
  8
0
 62
     6
 10
44.837059000000004
 20
82.442161999999996
 30
0.0
 11
47.279282000000002
 21
79.999938999999983
 31
0.0
  0
LINE
  5
79B
  8
0
 62
     6
 10
46.400604000000001
 20
82.999938999999998
 30
0.0
 11
49.400604000000001
 21
79.999938999999983
 31
0.0
  0
LINE
  5
79C
  8
0
 62
     6
 10
48.521923000000001
 20
82.999938999999998
 30
0.0
 11
51.521923000000001
 21
79.999938999999983
 31
0.0
  0
LINE
  5
79D
  8
0
 62
     6
 10
50.643245999999998
 20
82.999938999999998
 30
0.0
 11
53.643242000000001
 21
79.999938999999983
 31
0.0
  0
LINE
  5
79E
  8
0
 62
     6
 10
52.764564999999997
 20
82.999938999999998
 30
0.0
 11
54.720267999999997
 21
81.044235000000015
 31
0.0
  0
ENDBLK
  5
79F
  8
0
  0
BLOCK
  8
0
  2
BLOCK62
 70
     0
 10
0.0
 20
0.0
 30
0.0
  3
BLOCK62
  1

  0
LINE
  5
7A1
  8
0
 62
     6
 10
31.737074
 20
78.571586999999994
 30
0.0
 11
32.308720000000001
 21
77.999938999999998
 31
0.0
  0
LINE
  5
7A2
  8
0
 62
     6
 10
31.737074
 20
80.692909
 30
0.0
 11
34.430042
 21
77.999938999999998
 31
0.0
  0
LINE
  5
7A3
  8
0
 62
     6
 10
31.737074
 20
82.814231999999976
 30
0.0
 11
36.551360999999993
 21
77.999938999999998
 31
0.0
  0
LINE
  5
7A4
  8
0
 62
     6
 10
33.672683999999997
 20
82.999938999999998
 30
0.0
 11
36.637062
 21
80.035561000000001
 31
0.0
  0
LINE
  5
7A5
  8
0
 62
     6
 10
35.794002999999996
 20
82.999938999999998
 30
0.0
 11
36.637062
 21
82.156882999999993
 31
0.0
  0
ENDBLK
  5
7A6
  8
0
  0
BLOCK
  8
0
  2
BLOCK63
 70
     0
 10
0.0
 20
0.0
 30
0.0
  3
BLOCK63
  1

  0
LINE
  5
7A8
  8
0
 62
     6
 10
45.837059000000004
 20
79.320839000000007
 30
0.0
 11
47.157963000000002
 21
77.999938999999998
 31
0.0
  0
LINE
  5
7A9
  8
0
 62
     6
 10
47.279282000000002
 20
79.999938999999983
 30
0.0
 11
49.279282000000002
 21
77.999938999999998
 31
0.0
  0
LINE
  5
7AA
  8
0
 62
     6
 10
49.400604000000001
 20
79.999938999999983
 30
0.0
 11
51.400604000000001
 21
77.999938999999998
 31
0.0
  0
LINE
  5
7AB
  8
0
 62
     6
 10
51.521923000000001
 20
79.999938999999983
 30
0.0
 11
53.521923000000001
 21
77.999938999999998
 31
0.0
  0
LINE
  5
7AC
  8
0
 62
     6
 10
53.643242000000001
 20
79.999938999999983
 30
0.0
 11
53.737071999999998
 21
79.906113000000005
 31
0.0
  0
ENDBLK
  5
7AD
  8
0
  0
BLOCK
  8
0
  2
BLOCK64
 70
     0
 10
0.0
 20
0.0
 30
0.0
  3
BLOCK64
  1

  0
LINE
  5
7AF
  8
0
 62
     6
 10
187.93705700000001
 20
79.349296999999993
 30
0.0
 11
189.2864229999999
 21
77.999938999999998
 31
0.0
  0
LINE
  5
7B0
  8
0
 62
     6
 10
187.93705700000001
 20
81.470618999999999
 30
0.0
 11
191.40772999999999
 21
77.999938999999998
 31
0.0
  0
LINE
  5
7B1
  8
0
 62
     6
 10
188.52905299999989
 20
82.999938999999998
 30
0.0
 11
192.73706100000001
 21
78.791938999999999
 31
0.0
  0
LINE
  5
7B2
  8
0
 62
     6
 10
190.65037499999991
 20
82.999938999999998
 30
0.0
 11
192.73706100000001
 21
80.913253999999995
 31
0.0
  0
ENDBLK
  5
7B3
  8
0
  0
BLOCK
  8
0
  2
BLOCK65
 70
     0
 10
0.0
 20
0.0
 30
0.0
  3
BLOCK65
  1

  0
LINE
  5
7B5
  8
0
 62
     6
 10
166.17150899999999
 20
84.144287000000006
 30
0.0
 11
171.93414300000001
 21
78.381644999999992
 31
0.0
  0
LINE
  5
7B6
  8
0
 62
     6
 10
166.17150899999999
 20
86.265609999999995
 30
0.0
 11
174.43718000000001
 21
77.999938999999998
 31
0.0
  0
LINE
  5
7B7
  8
0
 62
     6
 10
166.55850199999989
 20
87.999938999999998
 30
0.0
 11
176.558502
 21
77.999938999999998
 31
0.0
  0
LINE
  5
7B8
  8
0
 62
     6
 10
169.724457
 20
86.955292000000014
 30
0.0
 11
178.67981
 21
77.999938999999998
 31
0.0
  0
LINE
  5
7B9
  8
0
 62
     6
 10
175.801132
 20
82.999938999999998
 30
0.0
 11
179.5370639999999
 21
79.264015000000001
 31
0.0
  0
LINE
  5
7BA
  8
0
 62
     6
 10
177.92245500000001
 20
82.999938999999998
 30
0.0
 11
179.5370639999999
 21
81.385338000000004
 31
0.0
  0
ENDBLK
  5
7BB
  8
0
  0
BLOCK
  8
0
  2
BLOCK66
 70
     0
 10
0.0
 20
0.0
 30
0.0
  3
BLOCK66
  1

  0
LINE
  5
7BD
  8
0
 62
     6
 10
171.338165
 20
77.999938999999998
 30
0.0
 11
171.23706100000001
 21
77.898833999999994
 31
0.0
  0
LINE
  5
7BE
  8
0
 62
     6
 10
173.45948799999991
 20
77.999938999999998
 30
0.0
 11
171.23706100000001
 21
75.777512000000002
 31
0.0
  0
LINE
  5
7BF
  8
0
 62
     6
 10
173.73706100000001
 20
76.156188999999998
 30
0.0
 11
171.23706100000001
 21
73.656196999999992
 31
0.0
  0
LINE
  5
7C0
  8
0
 62
     6
 10
173.73706100000001
 20
74.034874000000002
 30
0.0
 11
171.23706100000001
 21
71.534874000000002
 31
0.0
  0
LINE
  5
7C1
  8
0
 62
     6
 10
173.73706100000001
 20
71.913550999999998
 30
0.0
 11
171.23706100000001
 21
69.413558999999992
 31
0.0
  0
LINE
  5
7C2
  8
0
 62
     6
 10
173.73706100000001
 20
69.792236000000003
 30
0.0
 11
171.23706100000001
 21
67.292236000000003
 31
0.0
  0
LINE
  5
7C3
  8
0
 62
     6
 10
173.73706100000001
 20
67.670913999999996
 30
0.0
 11
172.33528100000001
 21
66.269134999999991
 31
0.0
  0
ENDBLK
  5
7C4
  8
0
  0
BLOCK
  8
0
  2
BLOCK67
 70
     0
 10
0.0
 20
0.0
 30
0.0
  3
BLOCK67
  1

  0
LINE
  5
7C6
  8
0
 62
     2
 10
184.4806209999999
 20
-4.168404999999999
 30
0.0
 11
186.31227100000001
 21
-6.000051
 31
0.0
  0
LINE
  5
7C7
  8
0
 62
     2
 10
186.433594
 20
-4.000051
 30
0.0
 11
188.43359399999991
 21
-6.000051
 31
0.0
  0
LINE
  5
7C8
  8
0
 62
     2
 10
188.554901
 20
-4.000051
 30
0.0
 11
190.554901
 21
-6.000051
 31
0.0
  0
LINE
  5
7C9
  8
0
 62
     2
 10
190.67622399999991
 20
-4.000051
 30
0.0
 11
192.67622399999999
 21
-6.000051
 31
0.0
  0
LINE
  5
7CA
  8
0
 62
     2
 10
192.7975459999999
 20
-4.000051
 30
0.0
 11
194.7975459999999
 21
-6.000051
 31
0.0
  0
LINE
  5
7CB
  8
0
 62
     2
 10
194.91886899999989
 20
-4.000051
 30
0.0
 11
196.918869
 21
-6.000051
 31
0.0
  0
LINE
  5
7CC
  8
0
 62
     2
 10
197.04019199999999
 20
-4.000051
 30
0.0
 11
199.04019199999999
 21
-6.000051
 31
0.0
  0
LINE
  5
7CD
  8
0
 62
     2
 10
199.16151400000001
 20
-4.000051
 30
0.0
 11
201.1615139999999
 21
-6.000051
 31
0.0
  0
LINE
  5
7CE
  8
0
 62
     2
 10
201.282837
 20
-4.000051
 30
0.0
 11
203.28283699999989
 21
-6.000051
 31
0.0
  0
LINE
  5
7CF
  8
0
 62
     2
 10
203.404144
 20
-4.000051
 30
0.0
 11
205.404144
 21
-6.000051
 31
0.0
  0
LINE
  5
7D0
  8
0
 62
     2
 10
205.52546699999999
 20
-4.000051
 30
0.0
 11
207.52546699999999
 21
-6.000051
 31
0.0
  0
LINE
  5
7D1
  8
0
 62
     2
 10
207.6467899999999
 20
-4.000051
 30
0.0
 11
209.6467899999999
 21
-6.000051
 31
0.0
  0
LINE
  5
7D2
  8
0
 62
     2
 10
209.76811199999989
 20
-4.000051
 30
0.0
 11
211.76811199999989
 21
-6.000051
 31
0.0
  0
LINE
  5
7D3
  8
0
 62
     2
 10
211.88943499999999
 20
-4.000051
 30
0.0
 11
213.88943499999999
 21
-6.000051
 31
0.0
  0
LINE
  5
7D4
  8
0
 62
     2
 10
214.01075700000001
 20
-4.000051
 30
0.0
 11
216.01075700000001
 21
-6.000051
 31
0.0
  0
LINE
  5
7D5
  8
0
 62
     2
 10
216.1320649999999
 20
-4.000051
 30
0.0
 11
218.1320649999999
 21
-6.000051
 31
0.0
  0
LINE
  5
7D6
  8
0
 62
     2
 10
218.25338699999989
 20
-4.000051
 30
0.0
 11
220.25338699999989
 21
-6.000051
 31
0.0
  0
LINE
  5
7D7
  8
0
 62
     2
 10
220.37470999999999
 20
-4.000051
 30
0.0
 11
222.37470999999999
 21
-6.000051
 31
0.0
  0
LINE
  5
7D8
  8
0
 62
     2
 10
222.49603300000001
 20
-4.000051
 30
0.0
 11
224.49603300000001
 21
-6.000051
 31
0.0
  0
LINE
  5
7D9
  8
0
 62
     2
 10
224.61735499999989
 20
-4.000051
 30
0.0
 11
226.61735499999989
 21
-6.000051
 31
0.0
  0
LINE
  5
7DA
  8
0
 62
     2
 10
226.73867799999991
 20
-4.000051
 30
0.0
 11
228.73867799999991
 21
-6.000051
 31
0.0
  0
LINE
  5
7DB
  8
0
 62
     2
 10
228.85998499999999
 20
-4.000051
 30
0.0
 11
230.85998499999999
 21
-6.000051
 31
0.0
  0
LINE
  5
7DC
  8
0
 62
     2
 10
230.98130800000001
 20
-4.000051
 30
0.0
 11
232.98130800000001
 21
-6.000051
 31
0.0
  0
LINE
  5
7DD
  8
0
 62
     2
 10
233.10263099999989
 20
-4.000051
 30
0.0
 11
234.6011199999999
 21
-5.4985390000000001
 31
0.0
  0
LINE
  5
7DE
  8
0
 62
     2
 10
235.22395299999991
 20
-4.000051
 30
0.0
 11
235.56959499999999
 21
-4.3456960000000002
 31
0.0
  0
ENDBLK
  5
7DF
  8
0
  0
BLOCK
  8
0
  2
BLOCK68
 70
     0
 10
0.0
 20
0.0
 30
0.0
  3
BLOCK68
  1

  0
LINE
  5
7E1
  8
0
 62
     2
 10
165.9806209999999
 20
-4.760286999999999
 30
0.0
 11
167.22038299999991
 21
-6.000051
 31
0.0
  0
LINE
  5
7E2
  8
0
 62
     2
 10
167.34170499999999
 20
-4.000051
 30
0.0
 11
169.34170499999999
 21
-6.000051
 31
0.0
  0
LINE
  5
7E3
  8
0
 62
     2
 10
169.46302800000001
 20
-4.000051
 30
0.0
 11
171.46302800000001
 21
-6.000051
 31
0.0
  0
LINE
  5
7E4
  8
0
 62
     2
 10
171.584351
 20
-4.000051
 30
0.0
 11
173.584351
 21
-6.000051
 31
0.0
  0
LINE
  5
7E5
  8
0
 62
     2
 10
173.7056729999999
 20
-4.000051
 30
0.0
 11
175.7056729999999
 21
-6.000051
 31
0.0
  0
LINE
  5
7E6
  8
0
 62
     2
 10
175.82698099999999
 20
-4.000051
 30
0.0
 11
177.4806209999999
 21
-5.6536860000000004
 31
0.0
  0
ENDBLK
  5
7E7
  8
0
  0
BLOCK
  8
0
  2
BLOCK69
 70
     0
 10
0.0
 20
0.0
 30
0.0
  3
BLOCK69
  1

  0
LINE
  5
7E9
  8
0
 62
     2
 10
42.480625000000003
 20
-4.2968619999999991
 30
0.0
 11
44.183815000000003
 21
-6.000051
 31
0.0
  0
LINE
  5
7EA
  8
0
 62
     2
 10
44.305134000000002
 20
-4.000051
 30
0.0
 11
46.305134000000002
 21
-6.000051
 31
0.0
  0
LINE
  5
7EB
  8
0
 62
     2
 10
46.426456000000002
 20
-4.000051
 30
0.0
 11
48.426456000000002
 21
-6.000051
 31
0.0
  0
LINE
  5
7EC
  8
0
 62
     2
 10
48.547775000000001
 20
-4.000051
 30
0.0
 11
50.547775000000001
 21
-6.000051
 31
0.0
  0
LINE
  5
7ED
  8
0
 62
     2
 10
50.669094000000001
 20
-4.000051
 30
0.0
 11
52.669093999999987
 21
-6.000051
 31
0.0
  0
LINE
  5
7EE
  8
0
 62
     2
 10
52.790416999999998
 20
-4.000051
 30
0.0
 11
53.980625000000003
 21
-5.1902609999999996
 31
0.0
  0
ENDBLK
  5
7EF
  8
0
  0
BLOCK
  8
0
  2
BLOCK70
 70
     0
 10
0.0
 20
0.0
 30
0.0
  3
BLOCK70
  1

  0
LINE
  5
7F1
  8
0
 62
     2
 10
-9.8679659999999991
 20
-4.9812769999999986
 30
0.0
 11
-8.8491910000000011
 21
-6.000051
 31
0.0
  0
LINE
  5
7F2
  8
0
 62
     2
 10
-8.7278699999999994
 20
-4.000051
 30
0.0
 11
-6.7278699999999994
 21
-6.000051
 31
0.0
  0
LINE
  5
7F3
  8
0
 62
     2
 10
-6.6065500000000004
 20
-4.000051
 30
0.0
 11
-4.6065500000000004
 21
-6.000051
 31
0.0
  0
LINE
  5
7F4
  8
0
 62
     2
 10
-4.4852299999999996
 20
-4.000051
 30
0.0
 11
-2.4852300000000001
 21
-6.000051
 31
0.0
  0
LINE
  5
7F5
  8
0
 62
     2
 10
-2.3639099999999988
 20
-4.000051
 30
0.0
 11
-0.36391
 21
-6.000051
 31
0.0
  0
LINE
  5
7F6
  8
0
 62
     2
 10
-0.242589
 20
-4.000051
 30
0.0
 11
1.757409999999999
 21
-6.000051
 31
0.0
  0
LINE
  5
7F7
  8
0
 62
     2
 10
1.8787309999999999
 20
-4.000051
 30
0.0
 11
3.8787309999999988
 21
-6.000051
 31
0.0
  0
LINE
  5
7F8
  8
0
 62
     2
 10
4.000051
 20
-4.000051
 30
0.0
 11
6.000051
 21
-6.000051
 31
0.0
  0
LINE
  5
7F9
  8
0
 62
     2
 10
6.121370999999999
 20
-4.000051
 30
0.0
 11
8.1213709999999981
 21
-6.000051
 31
0.0
  0
LINE
  5
7FA
  8
0
 62
     2
 10
8.2426910000000007
 20
-4.000051
 30
0.0
 11
10.242691000000001
 21
-6.000051
 31
0.0
  0
LINE
  5
7FB
  8
0
 62
     2
 10
10.364012000000001
 20
-4.000051
 30
0.0
 11
12.36401199999999
 21
-6.000051
 31
0.0
  0
LINE
  5
7FC
  8
0
 62
     2
 10
12.485332
 20
-4.000051
 30
0.0
 11
14.485332
 21
-6.000051
 31
0.0
  0
LINE
  5
7FD
  8
0
 62
     2
 10
14.606652
 20
-4.000051
 30
0.0
 11
16.606650999999999
 21
-6.000051
 31
0.0
  0
LINE
  5
7FE
  8
0
 62
     2
 10
16.727972000000001
 20
-4.000051
 30
0.0
 11
18.727972000000001
 21
-6.000051
 31
0.0
  0
LINE
  5
7FF
  8
0
 62
     2
 10
18.849292999999989
 20
-4.000051
 30
0.0
 11
20.849292999999999
 21
-6.000051
 31
0.0
  0
LINE
  5
800
  8
0
 62
     2
 10
20.970613
 20
-4.000051
 30
0.0
 11
22.970611999999988
 21
-6.000051
 31
0.0
  0
LINE
  5
801
  8
0
 62
     2
 10
23.091932
 20
-4.000051
 30
0.0
 11
25.091932
 21
-6.000051
 31
0.0
  0
LINE
  5
802
  8
0
 62
     2
 10
25.213252999999991
 20
-4.000051
 30
0.0
 11
27.213253000000002
 21
-6.000051
 31
0.0
  0
LINE
  5
803
  8
0
 62
     2
 10
27.334574
 20
-4.000051
 30
0.0
 11
29.334573999999989
 21
-6.000051
 31
0.0
  0
LINE
  5
804
  8
0
 62
     2
 10
29.455892999999989
 20
-4.000051
 30
0.0
 11
31.455893
 21
-6.000051
 31
0.0
  0
LINE
  5
805
  8
0
 62
     2
 10
31.577213
 20
-4.000051
 30
0.0
 11
33.577213
 21
-6.000051
 31
0.0
  0
LINE
  5
806
  8
0
 62
     2
 10
33.698532
 20
-4.000051
 30
0.0
 11
35.480625000000003
 21
-5.7821429999999987
 31
0.0
  0
ENDBLK
  5
807
  8
0
  0
BLOCK
  8
0
  2
BLOCK71
 70
     0
 10
0.0
 20
0.0
 30
0.0
  3
BLOCK71
  1

  0
LINE
  5
809
  8
0
 62
     7
 10
175.71653699999999
 20
50.517136000000001
 30
0.0
 11
176.59330700000001
 21
51.252831
 31
0.0
  0
LINE
  5
80A
  8
0
 62
     7
 10
174.549744
 20
50.517136000000001
 30
0.0
 11
176.59330700000001
 21
52.231884000000001
 31
0.0
  0
LINE
  5
80B
  8
0
 62
     7
 10
174.23745700000001
 20
51.234146000000003
 30
0.0
 11
176.59330700000001
 21
53.210940999999998
 31
0.0
  0
LINE
  5
80C
  8
0
 62
     7
 10
174.23745700000001
 20
52.213203
 30
0.0
 11
176.59330700000001
 21
54.189994999999989
 31
0.0
  0
LINE
  5
80D
  8
0
 62
     7
 10
174.23745700000001
 20
53.192256999999998
 30
0.0
 11
176.40725699999999
 21
55.012936000000003
 31
0.0
  0
LINE
  5
80E
  8
0
 62
     7
 10
174.23745700000001
 20
54.171314000000002
 30
0.0
 11
175.24046299999989
 21
55.012936000000003
 31
0.0
  0
ENDBLK
  5
80F
  8
0
  0
BLOCK
  8
0
  2
BLOCK72
 70
     0
 10
0.0
 20
0.0
 30
0.0
  3
BLOCK72
  1

  0
LINE
  5
811
  8
0
 62
     7
 10
179.18663000000001
 20
72.030936999999994
 30
0.0
 11
179.74925200000001
 21
72.503035999999994
 31
0.0
  0
LINE
  5
812
  8
0
 62
     7
 10
178.01983599999991
 20
72.030936999999994
 30
0.0
 11
179.74925200000001
 21
73.482085999999995
 31
0.0
  0
LINE
  5
813
  8
0
 62
     7
 10
176.85304300000001
 20
72.030936999999994
 30
0.0
 11
179.74925200000001
 21
74.461143000000007
 31
0.0
  0
LINE
  5
814
  8
0
 62
     7
 10
175.686249
 20
72.030936999999994
 30
0.0
 11
179.74925200000001
 21
75.440201000000002
 31
0.0
  0
LINE
  5
815
  8
0
 62
     7
 10
174.51945499999991
 20
72.030936999999994
 30
0.0
 11
179.74925200000001
 21
76.419257999999999
 31
0.0
  0
LINE
  5
816
  8
0
 62
     7
 10
174.23745700000001
 20
72.773360999999994
 30
0.0
 11
179.74925200000001
 21
77.398308
 31
0.0
  0
LINE
  5
817
  8
0
 62
     7
 10
174.23745700000001
 20
73.752418999999975
 30
0.0
 11
179.299454
 21
77.999938999999998
 31
0.0
  0
LINE
  5
818
  8
0
 62
     7
 10
174.23745700000001
 20
74.731476000000001
 30
0.0
 11
178.13265999999999
 21
77.999938999999998
 31
0.0
  0
LINE
  5
819
  8
0
 62
     7
 10
174.23745700000001
 20
75.710526000000002
 30
0.0
 11
176.96586600000001
 21
77.999938999999998
 31
0.0
  0
LINE
  5
81A
  8
0
 62
     7
 10
174.23745700000001
 20
76.689582999999985
 30
0.0
 11
175.799072
 21
77.999938999999998
 31
0.0
  0
LINE
  5
81B
  8
0
 62
     7
 10
174.23745700000001
 20
77.668639999999996
 30
0.0
 11
174.63227800000001
 21
77.999938999999998
 31
0.0
  0
ENDBLK
  5
81C
  8
0
  0
BLOCK
  8
0
  2
BLOCK73
 70
     0
 10
0.0
 20
0.0
 30
0.0
  3
BLOCK73
  1

  0
LINE
  5
81E
  8
0
 62
     7
 10
193.18815599999991
 20
72.030936999999994
 30
0.0
 11
193.23666399999991
 21
72.071640000000002
 31
0.0
  0
LINE
  5
81F
  8
0
 62
     7
 10
192.02136200000001
 20
72.030936999999994
 30
0.0
 11
193.23666399999991
 21
73.050690000000003
 31
0.0
  0
LINE
  5
820
  8
0
 62
     7
 10
190.85456799999989
 20
72.030936999999994
 30
0.0
 11
193.23666399999991
 21
74.029747
 31
0.0
  0
LINE
  5
821
  8
0
 62
     7
 10
189.6877749999999
 20
72.030936999999994
 30
0.0
 11
193.23666399999991
 21
75.008803999999984
 31
0.0
  0
LINE
  5
822
  8
0
 62
     7
 10
188.52098100000001
 20
72.030936999999994
 30
0.0
 11
193.23666399999991
 21
75.987861999999993
 31
0.0
  0
LINE
  5
823
  8
0
 62
     7
 10
187.72453300000001
 20
72.34169
 30
0.0
 11
193.23666399999991
 21
76.966910999999996
 31
0.0
  0
LINE
  5
824
  8
0
 62
     7
 10
187.72457900000001
 20
73.320793000000009
 30
0.0
 11
193.23666399999991
 21
77.945968999999991
 31
0.0
  0
LINE
  5
825
  8
0
 62
     7
 10
187.72463999999991
 20
74.299895999999976
 30
0.0
 11
192.134186
 21
77.999938999999998
 31
0.0
  0
LINE
  5
826
  8
0
 62
     7
 10
187.7247009999999
 20
75.278998999999999
 30
0.0
 11
190.9673919999999
 21
77.999938999999998
 31
0.0
  0
LINE
  5
827
  8
0
 62
     7
 10
187.724762
 20
76.258101999999994
 30
0.0
 11
189.80059800000001
 21
77.999938999999998
 31
0.0
  0
LINE
  5
828
  8
0
 62
     7
 10
187.724808
 20
77.237206
 30
0.0
 11
188.633804
 21
77.999938999999998
 31
0.0
  0
ENDBLK
  5
829
  8
0
  0
BLOCK
  8
0
  2
BLOCK74
 70
     0
 10
0.0
 20
0.0
 30
0.0
  3
BLOCK74
  1

  0
LINE
  5
82B
  8
0
 62
     7
 10
193.218445
 20
50.517136000000001
 30
0.0
 11
193.23666399999991
 21
50.532420999999999
 31
0.0
  0
LINE
  5
82C
  8
0
 62
     7
 10
192.05165099999991
 20
50.517136000000001
 30
0.0
 11
193.23666399999991
 21
51.511477999999997
 31
0.0
  0
LINE
  5
82D
  8
0
 62
     7
 10
190.88485700000001
 20
50.517136000000001
 30
0.0
 11
193.23666399999991
 21
52.490531999999988
 31
0.0
  0
LINE
  5
82E
  8
0
 62
     7
 10
190.8808139999999
 20
51.492794000000011
 30
0.0
 11
193.23666399999991
 21
53.469588999999999
 31
0.0
  0
LINE
  5
82F
  8
0
 62
     7
 10
190.8808139999999
 20
52.471851000000001
 30
0.0
 11
193.23666399999991
 21
54.448642999999997
 31
0.0
  0
LINE
  5
830
  8
0
 62
     7
 10
190.8808139999999
 20
53.450905000000013
 30
0.0
 11
192.74237099999999
 21
55.012936000000003
 31
0.0
  0
LINE
  5
831
  8
0
 62
     7
 10
190.8808139999999
 20
54.429961999999989
 30
0.0
 11
191.57557700000001
 21
55.012936000000003
 31
0.0
  0
ENDBLK
  5
832
  8
0
  0
ENDSEC
  0
SECTION
  2
ENTITIES
  0
LINE
  5
25
  8
0
 62
   211
 10
-185.26945299999991
 20
689.12482299999999
 30
0.0
 11
-185.26945299999991
 21
690.62482299999999
 31
0.0
  0
LINE
  5
26
  8
0
 62
   211
 10
-185.26945299999991
 20
690.62482299999999
 30
0.0
 11
-187.53363100000001
 21
690.62482299999999
 31
0.0
  0
LINE
  5
27
  8
0
 62
   211
 10
-192.00527600000001
 20
690.62482299999999
 30
0.0
 11
-194.26945299999991
 21
690.62482299999999
 31
0.0
  0
LINE
  5
28
  8
0
 62
   211
 10
-194.26945299999991
 20
689.12482299999999
 30
0.0
 11
-194.26945299999991
 21
690.62482299999999
 31
0.0
  0
LINE
  5
29
  8
0
 62
   211
 10
-192.269453
 20
684.62482299999999
 30
0.0
 11
-192.269453
 21
686.12482299999999
 31
0.0
  0
LINE
  5
2A
  8
0
 62
   211
 10
-187.269453
 20
684.62482299999999
 30
0.0
 11
-192.269453
 21
684.62482299999999
 31
0.0
  0
LINE
  5
2B
  8
0
 62
   211
 10
-187.269453
 20
684.62482299999999
 30
0.0
 11
-187.269453
 21
686.12482299999999
 31
0.0
  0
ARC
  5
2C
  8
0
 62
   211
 10
-189.769453
 20
708.12482299999988
 30
0.0
 40
0.9999979999999998
 50
0.000001
 51
179.1818759999999
  0
LINE
  5
2D
  8
0
  6
DASHDOT
 62
     7
 10
-189.769453
 20
684.09788300000002
 30
0.0
 11
-189.769453
 21
710.12482299999999
 31
0.0
  0
LINE
  5
2E
  8
0
 62
   211
 10
-191.00537700000001
 20
691.61054000000001
 30
0.0
 11
-190.76935
 21
708.13910499999986
 31
0.0
  0
LINE
  5
2F
  8
0
 62
   211
 10
-188.53352899999999
 20
691.61054000000001
 30
0.0
 11
-188.76955599999999
 21
708.13910499999986
 31
0.0
  0
ARC
  5
30
  8
0
 62
   211
 10
-187.53363100000001
 20
691.62482299999988
 30
0.0
 40
1.0
 50
180.818129
 51
270.00000499999987
  0
ARC
  5
31
  8
0
 62
   211
 10
-192.00527600000001
 20
691.62482299999988
 30
0.0
 40
1.0
 50
270.00000499999987
 51
359.18188099999998
  0
LINE
  5
32
  8
0
 62
     7
 10
-119.7694489999999
 20
686.32482000000005
 30
0.0
 11
-122.26944899999999
 21
686.32482000000005
 31
0.0
  0
LINE
  5
33
  8
0
 62
     7
 10
-122.26944899999999
 20
686.32482000000005
 30
0.0
 11
-122.26944899999999
 21
688.12482299999988
 31
0.0
  0
LINE
  5
34
  8
0
 62
     7
 10
-191.51945299999991
 20
689.12482299999999
 30
0.0
 11
-221.26944900000001
 21
689.12482299999999
 31
0.0
  0
LINE
  5
35
  8
0
 62
     7
 10
-156.519383
 20
689.12482299999999
 30
0.0
 11
-188.01945399999991
 21
689.12482299999999
 31
0.0
  0
LINE
  5
36
  8
0
 62
     7
 10
-123.2694489999999
 20
689.12482299999999
 30
0.0
 11
-153.019384
 21
689.12482299999999
 31
0.0
  0
LINE
  5
37
  8
0
 62
     7
 10
-222.26944900000001
 20
686.32482000000005
 30
0.0
 11
-222.26944900000001
 21
688.12482299999988
 31
0.0
  0
LINE
  5
38
  8
0
 62
     7
 10
-222.26944900000001
 20
686.32482000000005
 30
0.0
 11
-224.76944900000001
 21
686.32482000000005
 31
0.0
  0
LINE
  5
39
  8
0
 62
     7
 10
-224.76946099999989
 20
682.37482999999997
 30
0.0
 11
-224.76946099999989
 21
686.32482000000005
 31
0.0
  0
LINE
  5
3A
  8
0
 62
     7
 10
-222.26944900000001
 20
520.12482299999999
 30
0.0
 11
-222.26944900000001
 21
521.37483799999995
 31
0.0
  0
LINE
  5
3B
  8
0
 62
     7
 10
-123.269442
 20
519.12482299999999
 30
0.0
 11
-221.26944900000001
 21
519.12482299999999
 31
0.0
  0
LINE
  5
3C
  8
0
 62
     7
 10
-187.26945399999991
 20
682.62482299999999
 30
0.0
 11
-192.269453
 21
682.62482299999999
 31
0.0
  0
LINE
  5
3D
  8
0
 62
     7
 10
-122.26944899999999
 20
682.37482999999997
 30
0.0
 11
-122.26944899999999
 21
686.32482000000005
 31
0.0
  0
LINE
  5
3E
  8
0
 62
     7
 10
-222.26945299999991
 20
682.37482999999997
 30
0.0
 11
-222.26945299999991
 21
686.32482000000005
 31
0.0
  0
LINE
  5
3F
  8
0
 62
     7
 10
-119.7694489999999
 20
682.37482999999997
 30
0.0
 11
-119.7694489999999
 21
686.32482000000005
 31
0.0
  0
CIRCLE
  5
40
  8
0
  6
DASHSPACE
 62
     7
 10
-207.2694489999999
 20
676.62481500000001
 30
0.0
 40
5.5000010000000001
  0
CIRCLE
  5
41
  8
0
  6
DASHSPACE
 62
     7
 10
-189.769453
 20
673.62482999999986
 30
0.0
 40
4.499992999999999
  0
CIRCLE
  5
42
  8
0
  6
DASHSPACE
 62
     7
 10
-172.269419
 20
676.62481500000001
 30
0.0
 40
5.500030999999999
  0
ARC
  5
43
  8
0
 62
     7
 10
-154.769451
 20
665.62482999999986
 30
0.0
 40
3.7500070000000001
 50
180.000125
 51
187.66229999999999
  0
CIRCLE
  5
44
  8
0
  6
DASHSPACE
 62
     7
 10
-154.76944499999991
 20
673.62482999999986
 30
0.0
 40
4.5
  0
CIRCLE
  5
45
  8
0
  6
DASHSPACE
 62
     7
 10
-137.26944199999991
 20
676.62485300000003
 30
0.0
 40
5.4999719999999996
  0
ARC
  5
46
  8
0
 62
     7
 10
-123.269442
 20
688.12482999999997
 30
0.0
 40
0.999995
 50
359.99980899999991
 51
90.000230999999985
  0
ARC
  5
47
  8
0
 62
     7
 10
-221.26944499999999
 20
688.12482299999988
 30
0.0
 40
1.0000039999999999
 50
90.000046999999995
 51
180.00048100000001
  0
ARC
  5
48
  8
0
 62
     7
 10
-221.26944900000001
 20
520.12482299999999
 30
0.0
 40
1.0
 50
180.00000900000001
 51
269.99999100000002
  0
LINE
  5
49
  8
0
  6
DASHDOT
 62
     7
 10
-207.269453
 20
680.724829
 30
0.0
 11
-207.269453
 21
689.52483899999993
 31
0.0
  0
LINE
  5
4A
  8
0
  6
DASHDOT
 62
     7
 10
-198.7694469999999
 20
676.62481500000001
 30
0.0
 11
-215.76944900000001
 21
676.62481500000001
 31
0.0
  0
LINE
  5
4B
  8
0
  6
DASHDOT
 62
     7
 10
-163.76938699999999
 20
676.62481500000001
 30
0.0
 11
-180.76945000000001
 21
676.62481500000001
 31
0.0
  0
LINE
  5
4C
  8
0
  6
DASHDOT
 62
     7
 10
-189.769453
 20
666.12483799999995
 30
0.0
 11
-189.769453
 21
691.48843999999997
 31
0.0
  0
LINE
  5
4D
  8
0
  6
DASHDOT
 62
     7
 10
-182.26946100000001
 20
673.62482999999986
 30
0.0
 11
-197.26944700000001
 21
673.62482999999986
 31
0.0
  0
LINE
  5
4E
  8
0
  6
DASHDOT
 62
     7
 10
-137.26943799999989
 20
680.72484400000008
 30
0.0
 11
-137.26943799999989
 21
689.52482399999985
 31
0.0
  0
LINE
  5
4F
  8
0
  6
DASHDOT
 62
     7
 10
-128.7694679999999
 20
676.62485300000003
 30
0.0
 11
-145.7694129999999
 21
676.62485300000003
 31
0.0
  0
LINE
  5
50
  8
0
  6
DASHDOT
 62
     7
 10
-207.26943
 20
523.12482999999986
 30
0.0
 11
-207.26943
 21
686.29095999999993
 31
0.0
  0
LINE
  5
51
  8
0
  6
DASHDOT
 62
     7
 10
-137.26937699999991
 20
523.12457099999995
 30
0.0
 11
-137.26937699999991
 21
688.07356100000004
 31
0.0
  0
LINE
  5
52
  8
0
  6
DASHDOT
 62
     7
 10
-207.26943399999999
 20
518.72482099999991
 30
0.0
 11
-207.26943399999999
 21
527.52482399999985
 31
0.0
  0
ARC
  5
53
  8
0
 62
     7
 10
-189.76945900000001
 20
665.62484500000005
 30
0.0
 40
3.7500239999999989
 50
352.33745699999992
 51
359.99997300000001
  0
LINE
  5
54
  8
0
 62
     3
 10
-120.269434
 20
654.37483399999985
 30
0.0
 11
-224.26941899999991
 21
654.37483399999985
 31
0.0
  0
LINE
  5
55
  8
0
 62
     3
 10
-120.269434
 20
549.37484900000004
 30
0.0
 11
-133.76943399999999
 21
549.37484900000004
 31
0.0
  0
LINE
  5
56
  8
0
 62
     3
 10
-145.26943399999999
 20
549.37484900000004
 30
0.0
 11
-169.8201399999999
 21
549.37484900000004
 31
0.0
  0
LINE
  5
57
  8
0
 62
     3
 10
-210.769419
 20
549.37484900000004
 30
0.0
 11
-224.26941899999991
 21
549.37484900000004
 31
0.0
  0
LINE
  5
58
  8
0
 62
     3
 10
-199.269419
 20
549.37484900000004
 30
0.0
 11
-210.769419
 21
549.37484900000004
 31
0.0
  0
LINE
  5
59
  8
0
 62
     3
 10
-133.76943399999999
 20
549.37484900000004
 30
0.0
 11
-145.26943399999999
 21
549.37484900000004
 31
0.0
  0
LINE
  5
5A
  8
0
  6
DASHDOT
 62
     7
 10
-172.269419
 20
531.253649
 30
0.0
 11
-172.269419
 21
634.54892199999995
 31
0.0
  0
ARC
  5
5B
  8
0
 62
     3
 10
-224.26941899999991
 20
549.87484900000004
 30
0.0
 40
0.5
 50
180.00000299999991
 51
270.00000499999987
  0
ARC
  5
5C
  8
0
 62
     3
 10
-224.26941899999991
 20
653.87483399999985
 30
0.0
 40
0.5
 50
90.0
 51
180.00000299999991
  0
ARC
  5
5D
  8
0
 62
     3
 10
-120.269434
 20
653.87483399999985
 30
0.0
 40
0.5
 50
0.000001
 51
90.0
  0
ARC
  5
5E
  8
0
 62
     3
 10
-120.269434
 20
549.87484900000004
 30
0.0
 40
0.5
 50
270.00000499999987
 51
0.000001
  0
LINE
  5
5F
  8
0
  6
DASHDOT
 62
     7
 10
-172.269419
 20
640.32815400000004
 30
0.0
 11
-172.269419
 21
669.23840099999995
 31
0.0
  0
LINE
  5
60
  8
0
 62
     3
 10
-174.7188689999999
 20
549.37484900000004
 30
0.0
 11
-199.269419
 21
549.37484900000004
 31
0.0
  0
LINE
  5
61
  8
0
 62
     7
 10
-199.76943399999999
 20
549.37483399999985
 30
0.0
 11
-209.76941899999991
 21
549.37483399999985
 31
0.0
  0
LINE
  5
62
  8
0
 62
     7
 10
-134.76944900000001
 20
549.37483399999985
 30
0.0
 11
-144.76944900000001
 21
549.37483399999985
 31
0.0
  0
LINE
  5
63
  8
0
 62
     7
 10
-120.269419
 20
654.37483399999985
 30
0.0
 11
-224.26941899999991
 21
654.37483399999985
 31
0.0
  0
LINE
  5
64
  8
0
 62
     7
 10
-209.76941899999991
 20
549.37483399999985
 30
0.0
 11
-224.26941899999991
 21
549.37483399999985
 31
0.0
  0
LINE
  5
65
  8
0
 62
     7
 10
-144.76944900000001
 20
549.37483399999985
 30
0.0
 11
-199.76943399999999
 21
549.37483399999985
 31
0.0
  0
LINE
  5
66
  8
0
 62
     7
 10
-120.269419
 20
549.37483399999985
 30
0.0
 11
-134.76944900000001
 21
549.37483399999985
 31
0.0
  0
LINE
  5
67
  8
0
 62
     7
 10
-161.51941899999991
 20
571.62481700000001
 30
0.0
 11
-161.51941899999991
 21
611.62480199999993
 31
0.0
  0
LINE
  5
68
  8
0
 62
     7
 10
-183.019419
 20
571.62481700000001
 30
0.0
 11
-183.019419
 21
611.62480199999993
 31
0.0
  0
LINE
  5
69
  8
0
 62
     7
 10
-119.7694189999999
 20
642.37480400000004
 30
0.0
 11
-224.769419
 21
642.37480400000004
 31
0.0
  0
LINE
  5
6A
  8
0
 62
     7
 10
-119.7694189999999
 20
652.37480400000004
 30
0.0
 11
-224.769419
 21
652.37480400000004
 31
0.0
  0
LINE
  5
6B
  8
0
 62
     7
 10
-161.51941899999991
 20
611.36033599999996
 30
0.0
 11
-183.019419
 21
611.36033599999996
 31
0.0
  0
LINE
  5
6C
  8
0
 62
     7
 10
-161.51941899999991
 20
611.62480199999993
 30
0.0
 11
-183.019419
 21
611.62480199999993
 31
0.0
  0
LINE
  5
6D
  8
0
 62
     7
 10
-161.51941899999991
 20
571.62481700000001
 30
0.0
 11
-183.019419
 21
571.62481700000001
 31
0.0
  0
LINE
  5
6E
  8
0
 62
     7
 10
-161.51941899999991
 20
571.88931300000002
 30
0.0
 11
-183.019419
 21
571.88931300000002
 31
0.0
  0
LINE
  5
6F
  8
0
  6
DASHDOT
 62
     7
 10
-172.269419
 20
464.85366599999998
 30
0.0
 11
-172.269419
 21
632.57723799999997
 31
0.0
  0
LINE
  5
70
  8
0
  6
DASHDOT
 62
     7
 10
-172.269419
 20
631.80450199999996
 30
0.0
 11
-172.269419
 21
710.07795499999986
 31
0.0
  0
LINE
  5
71
  8
0
 62
     7
 10
-119.7694339999999
 20
549.87092800000005
 30
0.0
 11
-119.7694339999999
 21
653.87483399999985
 31
0.0
  0
LINE
  5
72
  8
0
 62
     7
 10
-224.769419
 20
549.87483399999985
 30
0.0
 11
-224.769419
 21
653.87483399999985
 31
0.0
  0
ARC
  5
73
  8
0
 62
     7
 10
-224.26941899999991
 20
549.87483399999985
 30
0.0
 40
0.5
 50
180.00000299999991
 51
270.00000499999987
  0
ARC
  5
74
  8
0
 62
     7
 10
-120.269419
 20
549.87483399999985
 30
0.0
 40
0.5
 50
270.00000499999987
 51
359.55237699999992
  0
ARC
  5
75
  8
0
 62
     7
 10
-120.269419
 20
653.87483399999985
 30
0.0
 40
0.5
 50
0.000001
 51
90.0
  0
ARC
  5
76
  8
0
 62
     7
 10
-224.26941899999991
 20
653.87483399999985
 30
0.0
 40
0.5
 50
90.0
 51
180.00000299999991
  0
LINE
  5
77
  8
0
 62
     7
 10
-194.76941899999991
 20
612.87481700000001
 30
0.0
 11
-196.269419
 21
612.87481700000001
 31
0.0
  0
LINE
  5
78
  8
0
 62
     7
 10
-194.76941899999991
 20
603.87481699999989
 30
0.0
 11
-196.269419
 21
603.87481699999989
 31
0.0
  0
CIRCLE
  5
79
  8
0
 62
     7
 10
-195.519419
 20
574.87481699999989
 30
0.0
 40
4.5
  0
CIRCLE
  5
7A
  8
0
 62
     7
 10
-195.519419
 20
574.87481699999989
 30
0.0
 40
3.0
  0
LINE
  5
7B
  8
0
 62
     7
 10
-196.269419
 20
603.87481699999989
 30
0.0
 11
-196.269419
 21
612.87481700000001
 31
0.0
  0
LINE
  5
7C
  8
0
 62
     7
 10
-194.76941899999991
 20
603.87481699999989
 30
0.0
 11
-194.76941899999991
 21
612.87481700000001
 31
0.0
  0
LINE
  5
7D
  8
0
 62
     7
 10
-146.71942899999991
 20
578.72481700000003
 30
0.0
 11
-147.16942800000001
 21
578.72481700000003
 31
0.0
  0
LINE
  5
7E
  8
0
 62
     7
 10
-147.66942800000001
 20
571.02481599999987
 30
0.0
 11
-148.46942899999999
 21
571.02481599999987
 31
0.0
  0
LINE
  5
7F
  8
0
 62
     7
 10
-154.869429
 20
573.62481700000001
 30
0.0
 11
-154.869429
 21
574.12481700000001
 31
0.0
  0
LINE
  5
80
  8
0
 62
     7
 10
-149.6694279999999
 20
573.62481700000001
 30
0.0
 11
-149.6694279999999
 21
574.12481700000001
 31
0.0
  0
ARC
  5
81
  8
0
 62
     7
 10
-152.269428
 20
574.12481700000001
 30
0.0
 40
2.6000000000000001
 50
0.000001
 51
180.00000299999991
  0
ARC
  5
82
  8
0
 62
     7
 10
-152.269428
 20
573.62481700000001
 30
0.0
 40
2.6000000000000001
 50
180.00000299999991
 51
0.000001
  0
ARC
  5
83
  8
0
 62
     7
 10
-152.269428
 20
574.12481700000001
 30
0.0
 40
1.8
 50
0.000001
 51
180.00000299999991
  0
ARC
  5
84
  8
0
 62
     7
 10
-152.269428
 20
573.62481700000001
 30
0.0
 40
1.8
 50
180.00000299999991
 51
0.000001
  0
LINE
  5
85
  8
0
 62
     7
 10
-154.06942900000001
 20
573.62481700000001
 30
0.0
 11
-154.06942900000001
 21
574.12481700000001
 31
0.0
  0
LINE
  5
86
  8
0
 62
     7
 10
-150.46942899999991
 20
573.62481700000001
 30
0.0
 11
-150.46942899999991
 21
574.12481700000001
 31
0.0
  0
LINE
  5
87
  8
0
 62
     7
 10
-149.41942800000001
 20
575.52481599999987
 30
0.0
 11
-149.41942800000001
 21
576.32481699999994
 31
0.0
  0
LINE
  5
88
  8
0
 62
     7
 10
-148.46942899999999
 20
575.52481599999987
 30
0.0
 11
-149.41942800000001
 21
575.52481599999987
 31
0.0
  0
LINE
  5
89
  8
0
 62
     7
 10
-146.71942899999991
 20
575.52481599999987
 30
0.0
 11
-146.71942899999991
 21
576.32481699999994
 31
0.0
  0
LINE
  5
8A
  8
0
 62
     7
 10
-148.46942899999999
 20
576.32481699999994
 30
0.0
 11
-149.41942800000001
 21
576.32481699999994
 31
0.0
  0
LINE
  5
8B
  8
0
 62
     7
 10
-148.46942899999999
 20
571.02481599999987
 30
0.0
 11
-148.46942899999999
 21
575.52481599999987
 31
0.0
  0
LINE
  5
8C
  8
0
 62
     7
 10
-147.66942800000001
 20
571.02481599999987
 30
0.0
 11
-147.66942800000001
 21
575.52481599999987
 31
0.0
  0
LINE
  5
8D
  8
0
 62
     7
 10
-146.71942899999991
 20
575.52481599999987
 30
0.0
 11
-147.66942800000001
 21
575.52481599999987
 31
0.0
  0
LINE
  5
8E
  8
0
 62
     7
 10
-146.71942899999991
 20
576.32481699999994
 30
0.0
 11
-147.66942800000001
 21
576.32481699999994
 31
0.0
  0
LINE
  5
8F
  8
0
 62
     7
 10
-148.46942899999999
 20
576.32481699999994
 30
0.0
 11
-148.46942899999999
 21
577.42481699999985
 31
0.0
  0
LINE
  5
90
  8
0
 62
     7
 10
-147.66942800000001
 20
576.32481699999994
 30
0.0
 11
-147.66942800000001
 21
577.42481699999985
 31
0.0
  0
ARC
  5
91
  8
0
 62
     7
 10
-147.16942800000001
 20
577.42481699999985
 30
0.0
 40
1.3
 50
90.000010000000003
 51
180.00000299999991
  0
ARC
  5
92
  8
0
 62
     7
 10
-147.16942800000001
 20
577.42481699999985
 30
0.0
 40
0.5
 50
90.000010000000003
 51
180.00000299999991
  0
LINE
  5
93
  8
0
 62
     7
 10
-146.71942899999991
 20
577.92481699999985
 30
0.0
 11
-146.71942899999991
 21
578.72481700000003
 31
0.0
  0
LINE
  5
94
  8
0
 62
     7
 10
-146.71942899999991
 20
577.92481699999985
 30
0.0
 11
-147.16942800000001
 21
577.92481699999985
 31
0.0
  0
LINE
  5
95
  8
0
 62
     7
 10
-143.519428
 20
578.72481700000003
 30
0.0
 11
-143.96942899999999
 21
578.72481700000003
 31
0.0
  0
LINE
  5
96
  8
0
 62
     7
 10
-144.46942899999991
 20
571.02481599999987
 30
0.0
 11
-145.269428
 21
571.02481599999987
 31
0.0
  0
LINE
  5
97
  8
0
 62
     7
 10
-146.21942899999999
 20
575.52481599999987
 30
0.0
 11
-146.21942899999999
 21
576.32481699999994
 31
0.0
  0
LINE
  5
98
  8
0
 62
     7
 10
-145.269428
 20
575.52481599999987
 30
0.0
 11
-146.21942899999999
 21
575.52481599999987
 31
0.0
  0
LINE
  5
99
  8
0
 62
     7
 10
-143.519428
 20
575.52481599999987
 30
0.0
 11
-143.519428
 21
576.32481699999994
 31
0.0
  0
LINE
  5
9A
  8
0
 62
     7
 10
-145.269428
 20
576.32481699999994
 30
0.0
 11
-146.21942899999999
 21
576.32481699999994
 31
0.0
  0
LINE
  5
9B
  8
0
 62
     7
 10
-145.269428
 20
571.02481599999987
 30
0.0
 11
-145.269428
 21
575.52481599999987
 31
0.0
  0
LINE
  5
9C
  8
0
 62
     7
 10
-144.46942899999991
 20
571.02481599999987
 30
0.0
 11
-144.46942899999991
 21
575.52481599999987
 31
0.0
  0
LINE
  5
9D
  8
0
 62
     7
 10
-143.519428
 20
575.52481599999987
 30
0.0
 11
-144.46942899999991
 21
575.52481599999987
 31
0.0
  0
LINE
  5
9E
  8
0
 62
     7
 10
-143.519428
 20
576.32481699999994
 30
0.0
 11
-144.46942899999991
 21
576.32481699999994
 31
0.0
  0
LINE
  5
9F
  8
0
 62
     7
 10
-145.269428
 20
576.32481699999994
 30
0.0
 11
-145.269428
 21
577.42481699999985
 31
0.0
  0
LINE
  5
A0
  8
0
 62
     7
 10
-144.46942899999991
 20
576.32481699999994
 30
0.0
 11
-144.46942899999991
 21
577.42481699999985
 31
0.0
  0
ARC
  5
A1
  8
0
 62
     7
 10
-143.96942899999999
 20
577.42481699999985
 30
0.0
 40
1.3
 50
90.000010000000003
 51
180.00000299999991
  0
ARC
  5
A2
  8
0
 62
     7
 10
-143.96942899999999
 20
577.42481699999985
 30
0.0
 40
0.5
 50
90.000010000000003
 51
180.00000299999991
  0
LINE
  5
A3
  8
0
 62
     7
 10
-143.519428
 20
577.92481699999985
 30
0.0
 11
-143.519428
 21
578.72481700000003
 31
0.0
  0
LINE
  5
A4
  8
0
 62
     7
 10
-143.519428
 20
577.92481699999985
 30
0.0
 11
-143.96942899999999
 21
577.92481699999985
 31
0.0
  0
LINE
  5
A5
  8
0
 62
     7
 10
-148.06942900000001
 20
605.52481599999987
 30
0.0
 11
-148.86942899999991
 21
605.52481599999987
 31
0.0
  0
ARC
  5
A6
  8
0
 62
     7
 10
-152.269428
 20
608.62481700000001
 30
0.0
 40
2.6000000000000001
 50
0.000001
 51
180.00000299999991
  0
ARC
  5
A7
  8
0
 62
     7
 10
-152.269428
 20
608.62481700000001
 30
0.0
 40
1.8
 50
0.000001
 51
180.00000299999991
  0
ARC
  5
A8
  8
0
 62
     7
 10
-152.269428
 20
608.12481700000001
 30
0.0
 40
2.6000000000000001
 50
180.00000299999991
 51
0.000001
  0
ARC
  5
A9
  8
0
 62
     7
 10
-152.269428
 20
608.12481700000001
 30
0.0
 40
1.8
 50
180.00000299999991
 51
0.000001
  0
LINE
  5
AA
  8
0
 62
     7
 10
-150.46942899999991
 20
608.12481700000001
 30
0.0
 11
-150.46942899999991
 21
608.62481700000001
 31
0.0
  0
LINE
  5
AB
  8
0
 62
     7
 10
-149.6694279999999
 20
608.12481700000001
 30
0.0
 11
-149.6694279999999
 21
608.62481700000001
 31
0.0
  0
LINE
  5
AC
  8
0
 62
     7
 10
-154.06942900000001
 20
608.12481700000001
 30
0.0
 11
-154.06942900000001
 21
608.62481700000001
 31
0.0
  0
LINE
  5
AD
  8
0
 62
     7
 10
-154.869429
 20
608.12481700000001
 30
0.0
 11
-154.869429
 21
608.62481700000001
 31
0.0
  0
LINE
  5
AE
  8
0
 62
     7
 10
-148.86942899999991
 20
605.52481599999987
 30
0.0
 11
-148.86942899999991
 21
611.22481700000003
 31
0.0
  0
LINE
  5
AF
  8
0
 62
     7
 10
-148.06942900000001
 20
605.52481599999987
 30
0.0
 11
-148.06942900000001
 21
609.02481599999987
 31
0.0
  0
LINE
  5
B0
  8
0
 62
     7
 10
-145.269428
 20
605.52481599999987
 30
0.0
 11
-145.269428
 21
609.02481599999987
 31
0.0
  0
LINE
  5
B1
  8
0
 62
     7
 10
-144.46942899999991
 20
605.52481599999987
 30
0.0
 11
-144.46942899999991
 21
609.22481700000003
 31
0.0
  0
LINE
  5
B2
  8
0
 62
     7
 10
-148.06942900000001
 20
611.22481700000003
 30
0.0
 11
-148.86942899999991
 21
611.22481700000003
 31
0.0
  0
ARC
  5
B3
  8
0
 62
     7
 10
-146.66942800000001
 20
609.02481599999987
 30
0.0
 40
1.399999999999999
 50
0.000001
 51
180.00000299999991
  0
LINE
  5
B4
  8
0
 62
     7
 10
-148.06942900000001
 20
610.42481599999996
 30
0.0
 11
-148.06942900000001
 21
611.22481700000003
 31
0.0
  0
ARC
  5
B5
  8
0
 62
     7
 10
-146.46942899999991
 20
609.22481700000003
 30
0.0
 40
2.0
 50
0.000001
 51
143.13010199999999
  0
LINE
  5
B6
  8
0
 62
     7
 10
-144.46942899999991
 20
605.52481599999987
 30
0.0
 11
-145.269428
 21
605.52481599999987
 31
0.0
  0
LINE
  5
B7
  8
0
 62
     7
 10
-191.51945299999991
 20
686.12482299999999
 30
0.0
 11
-191.51945299999991
 21
689.12482299999999
 31
0.0
  0
LINE
  5
B8
  8
0
 62
     7
 10
-188.01945399999991
 20
686.12482299999999
 30
0.0
 11
-188.01945399999991
 21
689.12482299999999
 31
0.0
  0
LINE
  5
B9
  8
0
 62
     7
 10
-192.269453
 20
682.62482299999999
 30
0.0
 11
-192.269453
 21
686.12482299999999
 31
0.0
  0
LINE
  5
BA
  8
0
 62
     7
 10
-187.26945399999991
 20
682.62482299999999
 30
0.0
 11
-187.26945399999991
 21
686.12482299999999
 31
0.0
  0
LINE
  5
BB
  8
0
 62
     7
 10
-187.26945399999991
 20
686.12482299999999
 30
0.0
 11
-188.01945399999991
 21
686.12482299999999
 31
0.0
  0
LINE
  5
BC
  8
0
 62
     7
 10
-191.51945299999991
 20
686.12482299999999
 30
0.0
 11
-192.269453
 21
686.12482299999999
 31
0.0
  0
LINE
  5
BD
  8
0
 62
     7
 10
-156.519383
 20
686.12482299999999
 30
0.0
 11
-156.519383
 21
689.12482299999999
 31
0.0
  0
LINE
  5
BE
  8
0
 62
     7
 10
-153.019384
 20
686.12482299999999
 30
0.0
 11
-153.019384
 21
689.12482299999999
 31
0.0
  0
LINE
  5
BF
  8
0
 62
     7
 10
-152.269384
 20
682.62482299999999
 30
0.0
 11
-152.269384
 21
686.12482299999999
 31
0.0
  0
LINE
  5
C0
  8
0
 62
     7
 10
-152.269384
 20
682.62482299999999
 30
0.0
 11
-157.269383
 21
682.62482299999999
 31
0.0
  0
LINE
  5
C1
  8
0
 62
     7
 10
-157.269383
 20
682.62482299999999
 30
0.0
 11
-157.269383
 21
686.12482299999999
 31
0.0
  0
LINE
  5
C2
  8
0
 62
     7
 10
-152.269384
 20
686.12482299999999
 30
0.0
 11
-153.019384
 21
686.12482299999999
 31
0.0
  0
LINE
  5
C3
  8
0
 62
     7
 10
-156.519383
 20
686.12482299999999
 30
0.0
 11
-157.269383
 21
686.12482299999999
 31
0.0
  0
LINE
  5
C4
  8
0
 62
     7
 10
-161.51941899999991
 20
585.75013799999999
 30
0.0
 11
-183.019419
 21
585.75013799999999
 31
0.0
  0
LINE
  5
C5
  8
0
 62
     7
 10
-161.51941899999991
 20
579.63367199999993
 30
0.0
 11
-183.019419
 21
579.63367199999993
 31
0.0
  0
LINE
  5
C6
  8
0
 62
     7
 10
-161.51941899999991
 20
573.68585399999995
 30
0.0
 11
-183.019419
 21
573.68585399999995
 31
0.0
  0
LINE
  5
C7
  8
0
 62
     7
 10
-161.51941899999991
 20
572.883106
 30
0.0
 11
-183.019419
 21
572.883106
 31
0.0
  0
LINE
  5
C8
  8
0
  6
DASHDOT
 62
     7
 10
-76.337762999999995
 20
601.87483200000008
 30
0.0
 11
-261.73909199999991
 21
601.87483200000008
 31
0.0
  0
LINE
  5
C9
  8
0
  6
DASHDOT
 62
     7
 10
-280.1429
 20
601.87483200000008
 30
0.0
 11
-300.250765
 21
601.87483200000008
 31
0.0
  0
LINE
  5
CA
  8
0
  6
DASHDOT
 62
     7
 10
-154.76944499999991
 20
666.66630399999985
 30
0.0
 11
-154.76944499999991
 21
692.05201499999987
 31
0.0
  0
LINE
  5
CB
  8
0
  6
DASHDOT
 62
     7
 10
-148.18504899999999
 20
673.62482999999986
 30
0.0
 11
-161.50400999999999
 21
673.62482999999986
 31
0.0
  0
LINE
  5
CC
  8
0
 62
   211
 10
-153.5335199999999
 20
691.61054799999988
 30
0.0
 11
-153.76954799999999
 21
708.13910499999986
 31
0.0
  0
LINE
  5
CD
  8
0
 62
   211
 10
-156.00536699999989
 20
691.61054799999988
 30
0.0
 11
-155.76934099999991
 21
708.13910499999986
 31
0.0
  0
ARC
  5
CE
  8
0
 62
   211
 10
-154.76944399999991
 20
708.12482999999986
 30
0.0
 40
0.9999979999999998
 50
0.000001
 51
179.1818759999999
  0
ARC
  5
CF
  8
0
 62
   211
 10
-152.53362300000001
 20
691.62482299999988
 30
0.0
 40
1.0
 50
180.818129
 51
270.00000499999987
  0
LINE
  5
D0
  8
0
 62
   211
 10
-150.26944399999991
 20
690.62482299999999
 30
0.0
 11
-152.53362300000001
 21
690.62482299999999
 31
0.0
  0
ARC
  5
D1
  8
0
 62
   211
 10
-157.00526599999989
 20
691.62482299999988
 30
0.0
 40
1.0
 50
270.00000499999987
 51
359.18188099999998
  0
LINE
  5
D2
  8
0
 62
   211
 10
-157.00526599999989
 20
690.62482299999999
 30
0.0
 11
-159.26944399999999
 21
690.62482299999999
 31
0.0
  0
LINE
  5
D3
  8
0
 62
   211
 10
-150.26944399999991
 20
689.12482299999999
 30
0.0
 11
-150.26944399999991
 21
690.62482299999999
 31
0.0
  0
LINE
  5
D4
  8
0
 62
   211
 10
-159.26944399999999
 20
689.12482299999999
 30
0.0
 11
-159.26944399999999
 21
690.62482299999999
 31
0.0
  0
LINE
  5
D5
  8
0
 62
   211
 10
-152.26944399999991
 20
684.62482299999999
 30
0.0
 11
-157.26944399999999
 21
684.62482299999999
 31
0.0
  0
ARC
  5
D6
  8
0
 62
     7
 10
-123.269442
 20
520.12482999999986
 30
0.0
 40
0.999995
 50
269.999773
 51
0.000192
  0
LINE
  5
D7
  8
0
 62
     7
 10
-122.26944899999999
 20
520.12483799999995
 30
0.0
 11
-122.26944899999999
 21
521.92484100000001
 31
0.0
  0
LINE
  5
D8
  8
0
 62
   211
 10
-153.76954799999999
 20
500.11055599999997
 30
0.0
 11
-153.5335199999999
 21
516.63912000000005
 31
0.0
  0
LINE
  5
D9
  8
0
 62
   211
 10
-155.76934099999991
 20
500.11055599999997
 30
0.0
 11
-156.00536699999989
 21
516.63912000000005
 31
0.0
  0
ARC
  5
DA
  8
0
 62
   211
 10
-154.76944399999991
 20
500.1248379999999
 30
0.0
 40
0.9999979999999998
 50
180.818129
 51
0.000001
  0
ARC
  5
DB
  8
0
 62
   211
 10
-152.53362300000001
 20
516.62483799999995
 30
0.0
 40
1.0
 50
90.0
 51
179.1818759999999
  0
LINE
  5
DC
  8
0
 62
   211
 10
-150.26944399999991
 20
517.62483799999995
 30
0.0
 11
-152.53362300000001
 21
517.62483799999995
 31
0.0
  0
LINE
  5
DD
  8
0
 62
   211
 10
-150.26944399999991
 20
517.62483799999995
 30
0.0
 11
-150.26944399999991
 21
519.12483799999995
 31
0.0
  0
ARC
  5
DE
  8
0
 62
   211
 10
-157.00526599999989
 20
516.62483799999995
 30
0.0
 40
1.0
 50
0.818121
 51
90.0
  0
LINE
  5
DF
  8
0
 62
   211
 10
-157.00526599999989
 20
517.62483799999995
 30
0.0
 11
-159.26944399999999
 21
517.62483799999995
 31
0.0
  0
LINE
  5
E0
  8
0
 62
   211
 10
-159.26944399999999
 20
517.62483799999995
 30
0.0
 11
-159.26944399999999
 21
519.12483799999995
 31
0.0
  0
ARC
  5
E1
  8
0
 62
   211
 10
-187.53363100000001
 20
516.62484500000005
 30
0.0
 40
1.0
 50
90.0
 51
179.1818759999999
  0
LINE
  5
E2
  8
0
 62
   211
 10
-185.26945299999991
 20
517.62484500000005
 30
0.0
 11
-187.53363100000001
 21
517.62484500000005
 31
0.0
  0
LINE
  5
E3
  8
0
 62
   211
 10
-185.26945299999991
 20
517.62484500000005
 30
0.0
 11
-185.26945299999991
 21
519.12484500000005
 31
0.0
  0
ARC
  5
E4
  8
0
 62
   211
 10
-189.769453
 20
500.1248379999999
 30
0.0
 40
0.9999979999999998
 50
180.818129
 51
0.000001
  0
LINE
  5
E5
  8
0
 62
   211
 10
-190.76935
 20
500.11056300000001
 30
0.0
 11
-191.00537700000001
 21
516.63912000000005
 31
0.0
  0
ARC
  5
E6
  8
0
 62
   211
 10
-192.00527600000001
 20
516.62484500000005
 30
0.0
 40
1.0
 50
0.818121
 51
90.0
  0
LINE
  5
E7
  8
0
 62
   211
 10
-192.00527600000001
 20
517.62484500000005
 30
0.0
 11
-194.26945299999991
 21
517.62484500000005
 31
0.0
  0
LINE
  5
E8
  8
0
 62
   211
 10
-194.26945299999991
 20
517.62484500000005
 30
0.0
 11
-194.26945299999991
 21
519.12484500000005
 31
0.0
  0
LINE
  5
E9
  8
0
  6
DASHDOT
 62
     7
 10
-189.769453
 20
498.12483800000001
 30
0.0
 11
-189.769453
 21
524.15177699999992
 31
0.0
  0
LINE
  5
EA
  8
0
  6
DASHDOT
 62
     7
 10
-154.76944499999991
 20
496.08052599999991
 30
0.0
 11
-154.76944499999991
 21
541.58336399999985
 31
0.0
  0
LINE
  5
EB
  8
0
 62
   211
 10
-188.76955599999999
 20
500.11056300000001
 30
0.0
 11
-188.53352899999999
 21
516.63912000000005
 31
0.0
  0
LINE
  5
EC
  8
0
 62
     7
 10
-267.62994600000002
 20
519.12482299999999
 30
0.0
 11
-266.58805999999993
 21
525.03366700000004
 31
0.0
  0
LINE
  5
ED
  8
0
 62
     7
 10
-267.62994600000002
 20
519.12482299999999
 30
0.0
 11
-268.67183899999998
 21
525.03366700000004
 31
0.0
  0
LINE
  5
EE
  8
0
 62
     7
 10
-267.629953
 20
689.12482299999999
 30
0.0
 11
-268.67184600000002
 21
683.21597099999985
 31
0.0
  0
LINE
  5
EF
  8
0
 62
     7
 10
-267.629953
 20
689.12482299999999
 30
0.0
 11
-266.58806800000002
 21
683.21597099999985
 31
0.0
  0
LINE
  5
F0
  8
0
 62
     7
 10
-267.62994600000002
 20
519.12482299999999
 30
0.0
 11
-267.629953
 21
689.12482299999999
 31
0.0
  0
LINE
  5
F1
  8
0
 62
     7
 10
-271.62994600000002
 20
519.12482299999999
 30
0.0
 11
-221.26944499999999
 21
519.12482299999999
 31
0.0
  0
LINE
  5
F2
  8
0
 62
     7
 10
-271.629953
 20
689.12482299999999
 30
0.0
 11
-221.26944499999999
 21
689.12482299999999
 31
0.0
  0
LINE
  5
F3
  8
0
 62
     7
 10
-248.10663799999989
 20
601.87482999999986
 30
0.0
 11
-247.06475299999991
 21
607.78367800000001
 31
0.0
  0
LINE
  5
F4
  8
0
 62
     7
 10
-248.10663799999989
 20
601.87482999999986
 30
0.0
 11
-249.14852300000001
 21
607.78367800000001
 31
0.0
  0
LINE
  5
F5
  8
0
 62
     7
 10
-248.10663799999989
 20
689.12482299999999
 30
0.0
 11
-249.14853099999999
 21
683.21597099999985
 31
0.0
  0
LINE
  5
F6
  8
0
 62
     7
 10
-248.10663799999989
 20
689.12482299999999
 30
0.0
 11
-247.06475299999991
 21
683.21597099999985
 31
0.0
  0
LINE
  5
F7
  8
0
 62
     7
 10
-248.10663799999989
 20
601.87482999999986
 30
0.0
 11
-248.10663799999989
 21
689.12482299999999
 31
0.0
  0
LINE
  5
F8
  8
0
 62
     7
 10
-252.10663799999989
 20
689.12482299999999
 30
0.0
 11
-221.26944499999999
 21
689.12482299999999
 31
0.0
  0
LINE
  5
F9
  8
0
 62
     7
 10
-88.307687999999985
 20
521.37483799999995
 30
0.0
 11
-87.265794999999983
 21
527.283682
 31
0.0
  0
LINE
  5
FA
  8
0
 62
     7
 10
-88.307687999999985
 20
521.37483799999995
 30
0.0
 11
-89.349572999999978
 21
527.283682
 31
0.0
  0
LINE
  5
FB
  8
0
 62
     7
 10
-88.307687999999985
 20
682.37483799999995
 30
0.0
 11
-89.349581000000015
 21
676.46599400000002
 31
0.0
  0
LINE
  5
FC
  8
0
 62
     7
 10
-88.307687999999985
 20
682.37483799999995
 30
0.0
 11
-87.265801999999994
 21
676.46599400000002
 31
0.0
  0
LINE
  5
FD
  8
0
 62
     7
 10
-88.307687999999985
 20
521.37483799999995
 30
0.0
 11
-88.307687999999985
 21
682.37483799999995
 31
0.0
  0
LINE
  5
FE
  8
0
 62
     7
 10
-84.307680000000005
 20
521.37483799999995
 30
0.0
 11
-115.019423
 21
521.37483799999995
 31
0.0
  0
LINE
  5
FF
  8
0
 62
     7
 10
-84.307687999999999
 20
682.37483799999995
 30
0.0
 11
-115.019423
 21
682.37483799999995
 31
0.0
  0
LINE
  5
100
  8
0
  6
DASHDOT
 62
     7
 10
396.27951000000002
 20
717.75762899999995
 30
0.0
 11
396.27951000000002
 21
646.96477100000004
 31
0.0
  0
LINE
  5
101
  8
0
  6
DASHDOT
 62
     7
 10
426.2326349999999
 20
673.62483200000008
 30
0.0
 11
362.07495899999992
 21
673.62483200000008
 31
0.0
  0
LINE
  5
102
  8
0
  6
DASHDOT
 62
     7
 10
422.35497500000002
 20
534.62483199999997
 30
0.0
 11
362.07495899999992
 21
534.62483199999997
 31
0.0
  0
LINE
  5
103
  8
0
  6
DASHDOT
 62
     7
 10
378.77951000000002
 20
685.44433600000002
 30
0.0
 11
378.77951000000002
 21
517.99985500000003
 31
0.0
  0
LINE
  5
104
  8
0
  6
DASHDOT
 62
     7
 10
413.7795099999999
 20
686.85439299999985
 30
0.0
 11
413.7795099999999
 21
519.05739600000004
 31
0.0
  0
POLYLINE
  5
105
  8
0
 62
     3
 66
     1
 10
0.0
 20
0.0
 30
0.0
  0
VERTEX
  5
891
  8
0
 62
     3
 10
348.77951000000002
 20
715.05557299999998
 30
0.0
  0
VERTEX
  5
892
  8
0
 62
     3
 10
348.77951000000002
 20
699.05557300000009
 30
0.0
  0
VERTEX
  5
893
  8
0
 62
     3
 10
350.77951000000002
 20
698.05557299999998
 30
0.0
  0
VERTEX
  5
894
  8
0
 62
     3
 10
346.77951000000002
 20
697.05557299999998
 30
0.0
  0
VERTEX
  5
895
  8
0
 62
     3
 10
348.77951000000002
 20
696.05557300000009
 30
0.0
  0
VERTEX
  5
896
  8
0
 62
     3
 10
348.77951000000002
 20
680.05557300000009
 30
0.0
  0
VERTEX
  5
897
  8
0
 62
     3
 10
350.77951000000002
 20
679.05557300000009
 30
0.0
  0
VERTEX
  5
898
  8
0
 62
     3
 10
346.77951000000002
 20
678.05557300000009
 30
0.0
  0
VERTEX
  5
899
  8
0
 62
     3
 10
348.77951000000002
 20
677.05557299999998
 30
0.0
  0
VERTEX
  5
89A
  8
0
 62
     3
 10
348.77951000000002
 20
661.05557300000009
 30
0.0
  0
VERTEX
  5
89B
  8
0
 62
     3
 10
350.77951000000002
 20
660.05557299999998
 30
0.0
  0
VERTEX
  5
89C
  8
0
 62
     3
 10
346.77951000000002
 20
659.05557300000009
 30
0.0
  0
VERTEX
  5
89D
  8
0
 62
     3
 10
348.77951000000002
 20
658.05557300000009
 30
0.0
  0
VERTEX
  5
89E
  8
0
 62
     3
 10
348.77951000000002
 20
642.05557300000009
 30
0.0
  0
VERTEX
  5
89F
  8
0
 62
     3
 10
350.77951000000002
 20
641.05557300000009
 30
0.0
  0
VERTEX
  5
8A0
  8
0
 62
     3
 10
346.77951000000002
 20
640.05557299999998
 30
0.0
  0
VERTEX
  5
8A1
  8
0
 62
     3
 10
348.77951000000002
 20
639.05557299999998
 30
0.0
  0
VERTEX
  5
8A2
  8
0
 62
     3
 10
348.77951000000002
 20
623.05557299999998
 30
0.0
  0
VERTEX
  5
8A3
  8
0
 62
     3
 10
350.77951000000002
 20
622.05557299999998
 30
0.0
  0
VERTEX
  5
8A4
  8
0
 62
     3
 10
346.77951000000002
 20
621.05557300000009
 30
0.0
  0
VERTEX
  5
8A5
  8
0
 62
     3
 10
348.77951000000002
 20
620.05557300000009
 30
0.0
  0
VERTEX
  5
8A6
  8
0
 62
     3
 10
348.77951000000002
 20
604.05557300000009
 30
0.0
  0
VERTEX
  5
8A7
  8
0
 62
     3
 10
350.77951000000002
 20
603.05557300000009
 30
0.0
  0
VERTEX
  5
8A8
  8
0
 62
     3
 10
346.77951000000002
 20
602.05557299999998
 30
0.0
  0
VERTEX
  5
8A9
  8
0
 62
     3
 10
348.77951000000002
 20
601.05557299999998
 30
0.0
  0
VERTEX
  5
8AA
  8
0
 62
     3
 10
348.77951000000002
 20
585.05557299999998
 30
0.0
  0
VERTEX
  5
8AB
  8
0
 62
     3
 10
350.77951000000002
 20
584.05557300000009
 30
0.0
  0
VERTEX
  5
8AC
  8
0
 62
     3
 10
346.77951000000002
 20
583.05557300000009
 30
0.0
  0
VERTEX
  5
8AD
  8
0
 62
     3
 10
348.77951000000002
 20
582.05557300000009
 30
0.0
  0
VERTEX
  5
8AE
  8
0
 62
     3
 10
348.77951000000002
 20
566.05557300000009
 30
0.0
  0
VERTEX
  5
8AF
  8
0
 62
     3
 10
350.77951000000002
 20
565.05557299999998
 30
0.0
  0
VERTEX
  5
8B0
  8
0
 62
     3
 10
346.77951000000002
 20
564.05557299999998
 30
0.0
  0
VERTEX
  5
8B1
  8
0
 62
     3
 10
348.77951000000002
 20
563.05557300000009
 30
0.0
  0
VERTEX
  5
8B2
  8
0
 62
     3
 10
348.77951000000002
 20
547.05557299999998
 30
0.0
  0
VERTEX
  5
8B3
  8
0
 62
     3
 10
350.77951000000002
 20
546.05557300000009
 30
0.0
  0
VERTEX
  5
8B4
  8
0
 62
     3
 10
346.77951000000002
 20
545.05557300000009
 30
0.0
  0
VERTEX
  5
8B5
  8
0
 62
     3
 10
348.77951000000002
 20
544.05557299999998
 30
0.0
  0
VERTEX
  5
8B6
  8
0
 62
     3
 10
348.77951000000002
 20
528.05557300000009
 30
0.0
  0
VERTEX
  5
8B7
  8
0
 62
     3
 10
350.77951000000002
 20
527.05557299999998
 30
0.0
  0
VERTEX
  5
8B8
  8
0
 62
     3
 10
346.77951000000002
 20
526.05557299999998
 30
0.0
  0
VERTEX
  5
8B9
  8
0
 62
     3
 10
348.77951000000002
 20
525.05557300000009
 30
0.0
  0
VERTEX
  5
8BA
  8
0
 62
     3
 10
348.77951000000002
 20
509.05557299999998
 30
0.0
  0
VERTEX
  5
8BB
  8
0
 62
     3
 10
350.77951000000002
 20
508.05557299999998
 30
0.0
  0
VERTEX
  5
8BC
  8
0
 62
     3
 10
346.77951000000002
 20
507.05557299999998
 30
0.0
  0
VERTEX
  5
8BD
  8
0
 62
     3
 10
348.77951000000002
 20
506.05557299999998
 30
0.0
  0
VERTEX
  5
8BE
  8
0
 62
     3
 10
348.77951000000002
 20
491.56124899999998
 30
0.0
  0
SEQEND
  5
8BF
  8
0
 62
     3
  0
POLYLINE
  5
135
  8
0
 62
     3
 66
     1
 10
0.0
 20
0.0
 30
0.0
  0
VERTEX
  5
8C0
  8
0
 62
     3
 10
443.7795099999999
 20
715.05557299999998
 30
0.0
  0
VERTEX
  5
8C1
  8
0
 62
     3
 10
443.7795099999999
 20
699.05557300000009
 30
0.0
  0
VERTEX
  5
8C2
  8
0
 62
     3
 10
445.7795099999999
 20
698.05557299999998
 30
0.0
  0
VERTEX
  5
8C3
  8
0
 62
     3
 10
441.7795099999999
 20
697.05557299999998
 30
0.0
  0
VERTEX
  5
8C4
  8
0
 62
     3
 10
443.7795099999999
 20
696.05557300000009
 30
0.0
  0
VERTEX
  5
8C5
  8
0
 62
     3
 10
443.7795099999999
 20
680.05557300000009
 30
0.0
  0
VERTEX
  5
8C6
  8
0
 62
     3
 10
445.7795099999999
 20
679.05557300000009
 30
0.0
  0
VERTEX
  5
8C7
  8
0
 62
     3
 10
441.7795099999999
 20
678.05557300000009
 30
0.0
  0
VERTEX
  5
8C8
  8
0
 62
     3
 10
443.7795099999999
 20
677.05557299999998
 30
0.0
  0
VERTEX
  5
8C9
  8
0
 62
     3
 10
443.7795099999999
 20
661.05557300000009
 30
0.0
  0
VERTEX
  5
8CA
  8
0
 62
     3
 10
445.7795099999999
 20
660.05557299999998
 30
0.0
  0
VERTEX
  5
8CB
  8
0
 62
     3
 10
441.7795099999999
 20
659.05557300000009
 30
0.0
  0
VERTEX
  5
8CC
  8
0
 62
     3
 10
443.7795099999999
 20
658.05557300000009
 30
0.0
  0
VERTEX
  5
8CD
  8
0
 62
     3
 10
443.7795099999999
 20
642.05557300000009
 30
0.0
  0
VERTEX
  5
8CE
  8
0
 62
     3
 10
445.7795099999999
 20
641.05557300000009
 30
0.0
  0
VERTEX
  5
8CF
  8
0
 62
     3
 10
441.7795099999999
 20
640.05557299999998
 30
0.0
  0
VERTEX
  5
8D0
  8
0
 62
     3
 10
443.7795099999999
 20
639.05557299999998
 30
0.0
  0
VERTEX
  5
8D1
  8
0
 62
     3
 10
443.7795099999999
 20
623.05557299999998
 30
0.0
  0
VERTEX
  5
8D2
  8
0
 62
     3
 10
445.7795099999999
 20
622.05557299999998
 30
0.0
  0
VERTEX
  5
8D3
  8
0
 62
     3
 10
441.7795099999999
 20
621.05557300000009
 30
0.0
  0
VERTEX
  5
8D4
  8
0
 62
     3
 10
443.7795099999999
 20
620.05557300000009
 30
0.0
  0
VERTEX
  5
8D5
  8
0
 62
     3
 10
443.7795099999999
 20
604.05557300000009
 30
0.0
  0
VERTEX
  5
8D6
  8
0
 62
     3
 10
445.7795099999999
 20
603.05557300000009
 30
0.0
  0
VERTEX
  5
8D7
  8
0
 62
     3
 10
441.7795099999999
 20
602.05557299999998
 30
0.0
  0
VERTEX
  5
8D8
  8
0
 62
     3
 10
443.7795099999999
 20
601.05557299999998
 30
0.0
  0
VERTEX
  5
8D9
  8
0
 62
     3
 10
443.7795099999999
 20
585.05557299999998
 30
0.0
  0
VERTEX
  5
8DA
  8
0
 62
     3
 10
445.7795099999999
 20
584.05557300000009
 30
0.0
  0
VERTEX
  5
8DB
  8
0
 62
     3
 10
441.7795099999999
 20
583.05557300000009
 30
0.0
  0
VERTEX
  5
8DC
  8
0
 62
     3
 10
443.7795099999999
 20
582.05557300000009
 30
0.0
  0
VERTEX
  5
8DD
  8
0
 62
     3
 10
443.7795099999999
 20
566.05557300000009
 30
0.0
  0
VERTEX
  5
8DE
  8
0
 62
     3
 10
445.7795099999999
 20
565.05557299999998
 30
0.0
  0
VERTEX
  5
8DF
  8
0
 62
     3
 10
441.7795099999999
 20
564.05557299999998
 30
0.0
  0
VERTEX
  5
8E0
  8
0
 62
     3
 10
443.7795099999999
 20
563.05557300000009
 30
0.0
  0
VERTEX
  5
8E1
  8
0
 62
     3
 10
443.7795099999999
 20
547.05557299999998
 30
0.0
  0
VERTEX
  5
8E2
  8
0
 62
     3
 10
445.7795099999999
 20
546.05557300000009
 30
0.0
  0
VERTEX
  5
8E3
  8
0
 62
     3
 10
441.7795099999999
 20
545.05557300000009
 30
0.0
  0
VERTEX
  5
8E4
  8
0
 62
     3
 10
443.7795099999999
 20
544.05557299999998
 30
0.0
  0
VERTEX
  5
8E5
  8
0
 62
     3
 10
443.7795099999999
 20
528.05557300000009
 30
0.0
  0
VERTEX
  5
8E6
  8
0
 62
     3
 10
445.7795099999999
 20
527.05557299999998
 30
0.0
  0
VERTEX
  5
8E7
  8
0
 62
     3
 10
441.7795099999999
 20
526.05557299999998
 30
0.0
  0
VERTEX
  5
8E8
  8
0
 62
     3
 10
443.7795099999999
 20
525.05557300000009
 30
0.0
  0
VERTEX
  5
8E9
  8
0
 62
     3
 10
443.7795099999999
 20
509.05557299999998
 30
0.0
  0
VERTEX
  5
8EA
  8
0
 62
     3
 10
445.7795099999999
 20
508.05557299999998
 30
0.0
  0
VERTEX
  5
8EB
  8
0
 62
     3
 10
441.7795099999999
 20
507.05557299999998
 30
0.0
  0
VERTEX
  5
8EC
  8
0
 62
     3
 10
443.7795099999999
 20
506.05557299999998
 30
0.0
  0
VERTEX
  5
8ED
  8
0
 62
     3
 10
443.7795099999999
 20
492.61879699999992
 30
0.0
  0
SEQEND
  5
8EE
  8
0
 62
     3
  0
POLYLINE
  5
165
  8
0
 62
     3
 66
     1
 10
0.0
 20
0.0
 30
0.0
  0
VERTEX
  5
8EF
  8
0
 62
     3
 10
461.13159200000001
 20
703.62483200000008
 30
0.0
  0
VERTEX
  5
8F0
  8
0
 62
     3
 10
445.1315919999999
 20
703.62483200000008
 30
0.0
  0
VERTEX
  5
8F1
  8
0
 62
     3
 10
444.13159200000001
 20
701.62483199999997
 30
0.0
  0
VERTEX
  5
8F2
  8
0
 62
     3
 10
443.13159200000001
 20
705.62483199999997
 30
0.0
  0
VERTEX
  5
8F3
  8
0
 62
     3
 10
442.13159200000001
 20
703.62483200000008
 30
0.0
  0
VERTEX
  5
8F4
  8
0
 62
     3
 10
426.13159200000001
 20
703.62483200000008
 30
0.0
  0
VERTEX
  5
8F5
  8
0
 62
     3
 10
425.13159200000001
 20
701.62483199999997
 30
0.0
  0
VERTEX
  5
8F6
  8
0
 62
     3
 10
424.1315919999999
 20
705.62483199999997
 30
0.0
  0
VERTEX
  5
8F7
  8
0
 62
     3
 10
423.13159200000001
 20
703.62483200000008
 30
0.0
  0
VERTEX
  5
8F8
  8
0
 62
     3
 10
407.1315919999999
 20
703.62483200000008
 30
0.0
  0
VERTEX
  5
8F9
  8
0
 62
     3
 10
406.13159200000001
 20
701.62483199999997
 30
0.0
  0
VERTEX
  5
8FA
  8
0
 62
     3
 10
405.13159200000001
 20
705.62483199999997
 30
0.0
  0
VERTEX
  5
8FB
  8
0
 62
     3
 10
404.13159200000001
 20
703.62483200000008
 30
0.0
  0
VERTEX
  5
8FC
  8
0
 62
     3
 10
388.13159200000001
 20
703.62483200000008
 30
0.0
  0
VERTEX
  5
8FD
  8
0
 62
     3
 10
387.13159200000001
 20
701.62483199999997
 30
0.0
  0
VERTEX
  5
8FE
  8
0
 62
     3
 10
386.13159200000001
 20
705.62483199999997
 30
0.0
  0
VERTEX
  5
8FF
  8
0
 62
     3
 10
385.13159200000001
 20
703.62483200000008
 30
0.0
  0
VERTEX
  5
900
  8
0
 62
     3
 10
369.13159200000001
 20
703.62483200000008
 30
0.0
  0
VERTEX
  5
901
  8
0
 62
     3
 10
368.13159200000001
 20
701.62483199999997
 30
0.0
  0
VERTEX
  5
902
  8
0
 62
     3
 10
367.13159200000001
 20
705.62483199999997
 30
0.0
  0
VERTEX
  5
903
  8
0
 62
     3
 10
366.13159200000001
 20
703.62483200000008
 30
0.0
  0
VERTEX
  5
904
  8
0
 62
     3
 10
350.13159200000001
 20
703.62483200000008
 30
0.0
  0
VERTEX
  5
905
  8
0
 62
     3
 10
349.13159200000001
 20
701.62483199999997
 30
0.0
  0
VERTEX
  5
906
  8
0
 62
     3
 10
348.13159200000001
 20
705.62483199999997
 30
0.0
  0
VERTEX
  5
907
  8
0
 62
     3
 10
347.13159200000001
 20
703.62483200000008
 30
0.0
  0
VERTEX
  5
908
  8
0
 62
     3
 10
340.92408
 20
703.62483200000008
 30
0.0
  0
SEQEND
  5
909
  8
0
 62
     3
  0
POLYLINE
  5
181
  8
0
 62
     3
 66
     1
 10
0.0
 20
0.0
 30
0.0
  0
VERTEX
  5
90A
  8
0
 62
     3
 10
456.90141299999999
 20
504.62483200000003
 30
0.0
  0
VERTEX
  5
90B
  8
0
 62
     3
 10
440.90141299999999
 20
504.62483200000003
 30
0.0
  0
VERTEX
  5
90C
  8
0
 62
     3
 10
439.90141299999999
 20
502.62483200000003
 30
0.0
  0
VERTEX
  5
90D
  8
0
 62
     3
 10
438.90141299999988
 20
506.62483200000003
 30
0.0
  0
VERTEX
  5
90E
  8
0
 62
     3
 10
437.90141299999988
 20
504.62483200000003
 30
0.0
  0
VERTEX
  5
90F
  8
0
 62
     3
 10
421.90141299999988
 20
504.62483200000003
 30
0.0
  0
VERTEX
  5
910
  8
0
 62
     3
 10
420.90141299999988
 20
502.62483200000003
 30
0.0
  0
VERTEX
  5
911
  8
0
 62
     3
 10
419.90141299999999
 20
506.62483200000003
 30
0.0
  0
VERTEX
  5
912
  8
0
 62
     3
 10
418.90141299999999
 20
504.62483200000003
 30
0.0
  0
VERTEX
  5
913
  8
0
 62
     3
 10
402.90141299999999
 20
504.62483200000003
 30
0.0
  0
VERTEX
  5
914
  8
0
 62
     3
 10
401.90141299999999
 20
502.62483200000003
 30
0.0
  0
VERTEX
  5
915
  8
0
 62
     3
 10
400.90141299999988
 20
506.62483200000003
 30
0.0
  0
VERTEX
  5
916
  8
0
 62
     3
 10
399.90141299999988
 20
504.62483200000003
 30
0.0
  0
VERTEX
  5
917
  8
0
 62
     3
 10
383.90141299999988
 20
504.62483200000003
 30
0.0
  0
VERTEX
  5
918
  8
0
 62
     3
 10
382.90141299999999
 20
502.62483200000003
 30
0.0
  0
VERTEX
  5
919
  8
0
 62
     3
 10
381.90141299999988
 20
506.62483200000003
 30
0.0
  0
VERTEX
  5
91A
  8
0
 62
     3
 10
380.90141299999988
 20
504.62483200000003
 30
0.0
  0
VERTEX
  5
91B
  8
0
 62
     3
 10
364.90141299999988
 20
504.62483200000003
 30
0.0
  0
VERTEX
  5
91C
  8
0
 62
     3
 10
363.90141299999999
 20
502.62483200000003
 30
0.0
  0
VERTEX
  5
91D
  8
0
 62
     3
 10
362.90141299999988
 20
506.62483200000003
 30
0.0
  0
VERTEX
  5
91E
  8
0
 62
     3
 10
361.90141299999999
 20
504.62483200000003
 30
0.0
  0
VERTEX
  5
91F
  8
0
 62
     3
 10
345.90141299999988
 20
504.62483200000003
 30
0.0
  0
VERTEX
  5
920
  8
0
 62
     3
 10
344.90141299999999
 20
502.62483200000003
 30
0.0
  0
VERTEX
  5
921
  8
0
 62
     3
 10
343.90141299999988
 20
506.62483200000003
 30
0.0
  0
VERTEX
  5
922
  8
0
 62
     3
 10
342.90141299999999
 20
504.62483200000003
 30
0.0
  0
VERTEX
  5
923
  8
0
 62
     3
 10
337.04641700000002
 20
504.62483200000003
 30
0.0
  0
SEQEND
  5
924
  8
0
 62
     3
  0
CIRCLE
  5
19D
  8
0
 62
     7
 10
378.77951000000002
 20
673.62483200000008
 30
0.0
 40
2.75
  0
CIRCLE
  5
19E
  8
0
 62
     7
 10
413.7795099999999
 20
673.62483200000008
 30
0.0
 40
2.75
  0
CIRCLE
  5
19F
  8
0
 62
     7
 10
378.77951000000002
 20
534.62483199999997
 30
0.0
 40
2.75
  0
CIRCLE
  5
1A0
  8
0
 62
     7
 10
413.7795099999999
 20
534.62483199999997
 30
0.0
 40
2.75
  0
CIRCLE
  5
1A1
  8
0
 62
     7
 10
363.48502000000002
 20
686.704071
 30
0.0
 40
0.4
  0
LINE
  5
1A2
  8
0
  6
DASHDOT
 62
     7
 10
451.935543
 20
601.87483200000008
 30
0.0
 11
336.26534299999997
 21
601.87483200000008
 31
0.0
  0
LINE
  5
1A3
  8
0
  6
DASHDOT
 62
     7
 10
396.27951000000002
 20
619.52908899999989
 30
0.0
 11
396.27951000000002
 21
492.06759599999992
 31
0.0
  0
LINE
  5
1A4
  8
0
 62
     7
 10
300.02316300000001
 20
673.62480199999993
 30
0.0
 11
297.939392
 21
661.80711399999996
 31
0.0
  0
LINE
  5
1A5
  8
0
 62
     7
 10
300.02316300000001
 20
673.62480199999993
 30
0.0
 11
302.10693399999991
 21
661.80711399999996
 31
0.0
  0
LINE
  5
1A6
  8
0
 62
     7
 10
300.02310199999999
 20
534.62483199999997
 30
0.0
 11
302.10688799999991
 21
546.44251999999994
 31
0.0
  0
LINE
  5
1A7
  8
0
 62
     7
 10
300.02310199999999
 20
534.62483199999997
 30
0.0
 11
297.93933099999992
 21
546.44251999999994
 31
0.0
  0
LINE
  5
1A8
  8
0
 62
     7
 10
300.02316300000001
 20
673.62480199999993
 30
0.0
 11
300.02310199999999
 21
534.62483199999997
 31
0.0
  0
LINE
  5
1A9
  8
0
 62
     7
 10
292.0231629999999
 20
673.62480199999993
 30
0.0
 11
362.074951
 21
673.62480199999993
 31
0.0
  0
LINE
  5
1AA
  8
0
 62
     7
 10
292.02310199999999
 20
534.62483199999997
 30
0.0
 11
362.074905
 21
534.62483199999997
 31
0.0
  0
LINE
  5
1AB
  8
0
 62
     7
 10
413.7795099999999
 20
624.81178299999988
 30
0.0
 11
425.59719799999999
 21
622.72804299999984
 31
0.0
  0
LINE
  5
1AC
  8
0
 62
     7
 10
413.7795099999999
 20
624.81178299999988
 30
0.0
 11
425.59719799999999
 21
626.89558399999999
 31
0.0
  0
LINE
  5
1AD
  8
0
 62
     7
 10
378.77952599999992
 20
624.81178299999988
 30
0.0
 11
366.961838
 21
626.89558399999999
 31
0.0
  0
LINE
  5
1AE
  8
0
 62
     7
 10
378.77952599999992
 20
624.81178299999988
 30
0.0
 11
366.961838
 21
622.72804299999984
 31
0.0
  0
LINE
  5
1AF
  8
0
 62
     7
 10
413.7795099999999
 20
624.81178299999988
 30
0.0
 11
378.77952599999992
 21
624.81178299999988
 31
0.0
  0
LINE
  5
1B0
  8
0
 62
     7
 10
376.26237500000002
 20
533.51734899999985
 30
0.0
 11
364.606201
 21
530.66542100000004
 31
0.0
  0
LINE
  5
1B1
  8
0
 62
     7
 10
376.26237500000002
 20
533.51734899999985
 30
0.0
 11
366.2845759999999
 21
526.85078399999986
 31
0.0
  0
LINE
  5
1B2
  8
0
 62
     7
 10
381.29664600000001
 20
535.73231499999997
 30
0.0
 11
392.95281999999997
 21
538.58430499999997
 31
0.0
  0
LINE
  5
1B3
  8
0
 62
     7
 10
381.29664600000001
 20
535.73231499999997
 30
0.0
 11
391.27444500000001
 21
542.39894100000004
 31
0.0
  0
LINE
  5
1B4
  8
0
 62
     7
 10
381.29664600000001
 20
535.73231499999997
 30
0.0
 11
225.43380699999989
 21
467.15583800000002
 31
0.0
  0
LINE
  5
1B5
  8
0
 62
     7
 10
329.49108899999999
 20
673.62483200000008
 30
0.0
 11
327.40731799999998
 21
661.80714399999999
 31
0.0
  0
LINE
  5
1B6
  8
0
 62
     7
 10
329.49108899999999
 20
673.62483200000008
 30
0.0
 11
331.57487500000002
 21
661.80714399999999
 31
0.0
  0
LINE
  5
1B7
  8
0
 62
     7
 10
329.49108899999999
 20
601.87483200000008
 30
0.0
 11
331.57487500000002
 21
613.69251999999994
 31
0.0
  0
LINE
  5
1B8
  8
0
 62
     7
 10
329.49108899999999
 20
601.87483200000008
 30
0.0
 11
327.40731799999998
 21
613.69251999999994
 31
0.0
  0
LINE
  5
1B9
  8
0
 62
     7
 10
329.49108899999999
 20
673.62483200000008
 30
0.0
 11
329.49110400000001
 21
601.87483200000008
 31
0.0
  0
LINE
  5
1BA
  8
0
 62
     7
 10
321.49108899999999
 20
673.62483200000008
 30
0.0
 11
362.074951
 21
673.62483200000008
 31
0.0
  0
LINE
  5
1BB
  8
0
 62
     7
 10
321.49108899999999
 20
601.87483200000008
 30
0.0
 11
336.26533499999988
 21
601.87483200000008
 31
0.0
  0
LINE
  5
1BC
  8
0
 62
     7
 10
641.56010400000002
 20
545.87483199999997
 30
0.0
 11
753.56010400000002
 21
545.87483199999997
 31
0.0
  0
LINE
  5
1BD
  8
0
 62
     7
 10
641.56010400000002
 20
657.87483199999997
 30
0.0
 11
753.56010400000002
 21
657.87483199999997
 31
0.0
  0
LINE
  5
1BE
  8
0
 62
     7
 10
641.56010400000002
 20
657.87483199999997
 30
0.0
 11
641.56010400000002
 21
545.87483199999997
 31
0.0
  0
LINE
  5
1BF
  8
0
 62
     7
 10
753.56010400000002
 20
657.87483199999997
 30
0.0
 11
753.56010400000002
 21
545.87483199999997
 31
0.0
  0
LINE
  5
1C0
  8
0
  6
DASHDOT
 62
     7
 10
697.56010400000002
 20
718.25068699999997
 30
0.0
 11
697.56010400000002
 21
481.72766899999999
 31
0.0
  0
CIRCLE
  5
1C1
  8
0
 62
     7
 10
657.56010400000002
 20
672.87483200000008
 30
0.0
 40
3.5
  0
CIRCLE
  5
1C2
  8
0
 62
     7
 10
737.56010400000002
 20
672.87483200000008
 30
0.0
 40
3.5
  0
CIRCLE
  5
1C3
  8
0
 62
     7
 10
737.56010400000002
 20
530.87483200000008
 30
0.0
 40
3.5
  0
CIRCLE
  5
1C4
  8
0
 62
     7
 10
657.56010400000002
 20
530.87483200000008
 30
0.0
 40
3.5
  0
POLYLINE
  5
1C5
  8
0
 62
     3
 66
     1
 10
0.0
 20
0.0
 30
0.0
  0
VERTEX
  5
925
  8
0
 62
     3
 10
625.70211799999993
 20
682.27403300000003
 30
0.0
  0
VERTEX
  5
926
  8
0
 62
     3
 10
641.70211799999981
 20
682.27403300000003
 30
0.0
  0
VERTEX
  5
927
  8
0
 62
     3
 10
642.70211799999993
 20
684.27403300000003
 30
0.0
  0
VERTEX
  5
928
  8
0
 62
     3
 10
643.70211799999993
 20
680.27403300000003
 30
0.0
  0
VERTEX
  5
929
  8
0
 62
     3
 10
644.70211799999993
 20
682.27403300000003
 30
0.0
  0
VERTEX
  5
92A
  8
0
 62
     3
 10
660.70211799999993
 20
682.27403300000003
 30
0.0
  0
VERTEX
  5
92B
  8
0
 62
     3
 10
661.70211799999993
 20
684.27403300000003
 30
0.0
  0
VERTEX
  5
92C
  8
0
 62
     3
 10
662.70211799999993
 20
680.27403300000003
 30
0.0
  0
VERTEX
  5
92D
  8
0
 62
     3
 10
663.70211799999993
 20
682.27403300000003
 30
0.0
  0
VERTEX
  5
92E
  8
0
 62
     3
 10
679.70211799999993
 20
682.27403300000003
 30
0.0
  0
VERTEX
  5
92F
  8
0
 62
     3
 10
680.70211799999993
 20
684.27403300000003
 30
0.0
  0
VERTEX
  5
930
  8
0
 62
     3
 10
681.70211799999993
 20
680.27403300000003
 30
0.0
  0
VERTEX
  5
931
  8
0
 62
     3
 10
682.70211799999993
 20
682.27403300000003
 30
0.0
  0
VERTEX
  5
932
  8
0
 62
     3
 10
698.70211799999993
 20
682.27403300000003
 30
0.0
  0
VERTEX
  5
933
  8
0
 62
     3
 10
699.70211799999993
 20
684.27403300000003
 30
0.0
  0
VERTEX
  5
934
  8
0
 62
     3
 10
700.70211799999993
 20
680.27403300000003
 30
0.0
  0
VERTEX
  5
935
  8
0
 62
     3
 10
701.70211799999993
 20
682.27403300000003
 30
0.0
  0
VERTEX
  5
936
  8
0
 62
     3
 10
717.70211799999993
 20
682.27403300000003
 30
0.0
  0
VERTEX
  5
937
  8
0
 62
     3
 10
718.70211799999993
 20
684.27403300000003
 30
0.0
  0
VERTEX
  5
938
  8
0
 62
     3
 10
719.70211799999993
 20
680.27403300000003
 30
0.0
  0
VERTEX
  5
939
  8
0
 62
     3
 10
720.70211799999993
 20
682.27403300000003
 30
0.0
  0
VERTEX
  5
93A
  8
0
 62
     3
 10
736.70211799999993
 20
682.27403300000003
 30
0.0
  0
VERTEX
  5
93B
  8
0
 62
     3
 10
737.70211799999993
 20
684.27403300000003
 30
0.0
  0
VERTEX
  5
93C
  8
0
 62
     3
 10
738.70211799999993
 20
680.27403300000003
 30
0.0
  0
VERTEX
  5
93D
  8
0
 62
     3
 10
739.70211799999993
 20
682.27403300000003
 30
0.0
  0
VERTEX
  5
93E
  8
0
 62
     3
 10
755.70211799999993
 20
682.27403300000003
 30
0.0
  0
VERTEX
  5
93F
  8
0
 62
     3
 10
756.70211799999993
 20
684.27403300000003
 30
0.0
  0
VERTEX
  5
940
  8
0
 62
     3
 10
757.70211799999993
 20
680.27403300000003
 30
0.0
  0
VERTEX
  5
941
  8
0
 62
     3
 10
758.70211799999993
 20
682.27403300000003
 30
0.0
  0
VERTEX
  5
942
  8
0
 62
     3
 10
768.91559600000005
 20
682.27403300000003
 30
0.0
  0
SEQEND
  5
943
  8
0
 62
     3
  0
POLYLINE
  5
1E5
  8
0
 62
     3
 66
     1
 10
0.0
 20
0.0
 30
0.0
  0
VERTEX
  5
944
  8
0
 62
     3
 10
625.70211799999993
 20
517.45291099999997
 30
0.0
  0
VERTEX
  5
945
  8
0
 62
     3
 10
641.70211799999981
 20
517.45291099999997
 30
0.0
  0
VERTEX
  5
946
  8
0
 62
     3
 10
642.70211799999993
 20
519.45291100000009
 30
0.0
  0
VERTEX
  5
947
  8
0
 62
     3
 10
643.70211799999993
 20
515.45291100000009
 30
0.0
  0
VERTEX
  5
948
  8
0
 62
     3
 10
644.70211799999993
 20
517.45291099999997
 30
0.0
  0
VERTEX
  5
949
  8
0
 62
     3
 10
660.70211799999993
 20
517.45291099999997
 30
0.0
  0
VERTEX
  5
94A
  8
0
 62
     3
 10
661.70211799999993
 20
519.45291100000009
 30
0.0
  0
VERTEX
  5
94B
  8
0
 62
     3
 10
662.70211799999993
 20
515.45291100000009
 30
0.0
  0
VERTEX
  5
94C
  8
0
 62
     3
 10
663.70211799999993
 20
517.45291099999997
 30
0.0
  0
VERTEX
  5
94D
  8
0
 62
     3
 10
679.70211799999993
 20
517.45291099999997
 30
0.0
  0
VERTEX
  5
94E
  8
0
 62
     3
 10
680.70211799999993
 20
519.45291100000009
 30
0.0
  0
VERTEX
  5
94F
  8
0
 62
     3
 10
681.70211799999993
 20
515.45291100000009
 30
0.0
  0
VERTEX
  5
950
  8
0
 62
     3
 10
682.70211799999993
 20
517.45291099999997
 30
0.0
  0
VERTEX
  5
951
  8
0
 62
     3
 10
698.70211799999993
 20
517.45291099999997
 30
0.0
  0
VERTEX
  5
952
  8
0
 62
     3
 10
699.70211799999993
 20
519.45291100000009
 30
0.0
  0
VERTEX
  5
953
  8
0
 62
     3
 10
700.70211799999993
 20
515.45291100000009
 30
0.0
  0
VERTEX
  5
954
  8
0
 62
     3
 10
701.70211799999993
 20
517.45291099999997
 30
0.0
  0
VERTEX
  5
955
  8
0
 62
     3
 10
717.70211799999993
 20
517.45291099999997
 30
0.0
  0
VERTEX
  5
956
  8
0
 62
     3
 10
718.70211799999993
 20
519.45291100000009
 30
0.0
  0
VERTEX
  5
957
  8
0
 62
     3
 10
719.70211799999993
 20
515.45291100000009
 30
0.0
  0
VERTEX
  5
958
  8
0
 62
     3
 10
720.70211799999993
 20
517.45291099999997
 30
0.0
  0
VERTEX
  5
959
  8
0
 62
     3
 10
736.70211799999993
 20
517.45291099999997
 30
0.0
  0
VERTEX
  5
95A
  8
0
 62
     3
 10
737.70211799999993
 20
519.45291100000009
 30
0.0
  0
VERTEX
  5
95B
  8
0
 62
     3
 10
738.70211799999993
 20
515.45291100000009
 30
0.0
  0
VERTEX
  5
95C
  8
0
 62
     3
 10
739.70211799999993
 20
517.45291099999997
 30
0.0
  0
VERTEX
  5
95D
  8
0
 62
     3
 10
755.70211799999993
 20
517.45291099999997
 30
0.0
  0
VERTEX
  5
95E
  8
0
 62
     3
 10
756.70211799999993
 20
519.45291100000009
 30
0.0
  0
VERTEX
  5
95F
  8
0
 62
     3
 10
757.70211799999993
 20
515.45291100000009
 30
0.0
  0
VERTEX
  5
960
  8
0
 62
     3
 10
758.70211799999993
 20
517.45291099999997
 30
0.0
  0
VERTEX
  5
961
  8
0
 62
     3
 10
768.91559600000005
 20
517.45291099999997
 30
0.0
  0
SEQEND
  5
962
  8
0
 62
     3
  0
POLYLINE
  5
205
  8
0
 62
     3
 66
     1
 10
0.0
 20
0.0
 30
0.0
  0
VERTEX
  5
963
  8
0
 62
     3
 10
768.91559600000005
 20
682.27403300000003
 30
0.0
  0
VERTEX
  5
964
  8
0
 62
     3
 10
768.91559600000005
 20
666.27403300000003
 30
0.0
  0
VERTEX
  5
965
  8
0
 62
     3
 10
770.91559600000005
 20
665.27403300000003
 30
0.0
  0
VERTEX
  5
966
  8
0
 62
     3
 10
766.91559600000005
 20
664.27403300000003
 30
0.0
  0
VERTEX
  5
967
  8
0
 62
     3
 10
768.91559600000005
 20
663.27403300000003
 30
0.0
  0
VERTEX
  5
968
  8
0
 62
     3
 10
768.91559600000005
 20
647.27403300000003
 30
0.0
  0
VERTEX
  5
969
  8
0
 62
     3
 10
770.91559600000005
 20
646.27403300000003
 30
0.0
  0
VERTEX
  5
96A
  8
0
 62
     3
 10
766.91559600000005
 20
645.27403300000003
 30
0.0
  0
VERTEX
  5
96B
  8
0
 62
     3
 10
768.91559600000005
 20
644.27403300000003
 30
0.0
  0
VERTEX
  5
96C
  8
0
 62
     3
 10
768.91559600000005
 20
628.27403300000003
 30
0.0
  0
VERTEX
  5
96D
  8
0
 62
     3
 10
770.91559600000005
 20
627.27403300000003
 30
0.0
  0
VERTEX
  5
96E
  8
0
 62
     3
 10
766.91559600000005
 20
626.27403300000003
 30
0.0
  0
VERTEX
  5
96F
  8
0
 62
     3
 10
768.91559600000005
 20
625.27403300000003
 30
0.0
  0
VERTEX
  5
970
  8
0
 62
     3
 10
768.91559600000005
 20
609.27403300000003
 30
0.0
  0
VERTEX
  5
971
  8
0
 62
     3
 10
770.91559600000005
 20
608.27403300000003
 30
0.0
  0
VERTEX
  5
972
  8
0
 62
     3
 10
766.91559600000005
 20
607.27403300000003
 30
0.0
  0
VERTEX
  5
973
  8
0
 62
     3
 10
768.91559600000005
 20
606.27403300000003
 30
0.0
  0
VERTEX
  5
974
  8
0
 62
     3
 10
768.91559600000005
 20
590.27403300000003
 30
0.0
  0
VERTEX
  5
975
  8
0
 62
     3
 10
770.91559600000005
 20
589.27403300000003
 30
0.0
  0
VERTEX
  5
976
  8
0
 62
     3
 10
766.91559600000005
 20
588.27403300000003
 30
0.0
  0
VERTEX
  5
977
  8
0
 62
     3
 10
768.91559600000005
 20
587.27403300000003
 30
0.0
  0
VERTEX
  5
978
  8
0
 62
     3
 10
768.91559600000005
 20
571.27403300000003
 30
0.0
  0
VERTEX
  5
979
  8
0
 62
     3
 10
770.91559600000005
 20
570.27403300000003
 30
0.0
  0
VERTEX
  5
97A
  8
0
 62
     3
 10
766.91559600000005
 20
569.27403300000003
 30
0.0
  0
VERTEX
  5
97B
  8
0
 62
     3
 10
768.91559600000005
 20
568.27403300000003
 30
0.0
  0
VERTEX
  5
97C
  8
0
 62
     3
 10
768.91559600000005
 20
552.27403300000003
 30
0.0
  0
VERTEX
  5
97D
  8
0
 62
     3
 10
770.91559600000005
 20
551.27403300000003
 30
0.0
  0
VERTEX
  5
97E
  8
0
 62
     3
 10
766.91559600000005
 20
550.27403300000003
 30
0.0
  0
VERTEX
  5
97F
  8
0
 62
     3
 10
768.91559600000005
 20
549.27403300000003
 30
0.0
  0
VERTEX
  5
980
  8
0
 62
     3
 10
768.91559600000005
 20
533.27403300000003
 30
0.0
  0
VERTEX
  5
981
  8
0
 62
     3
 10
770.91559600000005
 20
532.27403300000003
 30
0.0
  0
VERTEX
  5
982
  8
0
 62
     3
 10
766.91559600000005
 20
531.27403300000003
 30
0.0
  0
VERTEX
  5
983
  8
0
 62
     3
 10
768.91559600000005
 20
530.27403300000003
 30
0.0
  0
VERTEX
  5
984
  8
0
 62
     3
 10
768.91559600000005
 20
517.45291099999997
 30
0.0
  0
SEQEND
  5
985
  8
0
 62
     3
  0
POLYLINE
  5
229
  8
0
 62
     3
 66
     1
 10
0.0
 20
0.0
 30
0.0
  0
VERTEX
  5
986
  8
0
 62
     3
 10
625.70211799999993
 20
682.27403300000003
 30
0.0
  0
VERTEX
  5
987
  8
0
 62
     3
 10
625.70211799999993
 20
666.27403300000003
 30
0.0
  0
VERTEX
  5
988
  8
0
 62
     3
 10
627.70211799999993
 20
665.27403300000003
 30
0.0
  0
VERTEX
  5
989
  8
0
 62
     3
 10
623.70211799999993
 20
664.27403300000003
 30
0.0
  0
VERTEX
  5
98A
  8
0
 62
     3
 10
625.70211799999993
 20
663.27403300000003
 30
0.0
  0
VERTEX
  5
98B
  8
0
 62
     3
 10
625.70211799999993
 20
647.27403300000003
 30
0.0
  0
VERTEX
  5
98C
  8
0
 62
     3
 10
627.70211799999993
 20
646.27403300000003
 30
0.0
  0
VERTEX
  5
98D
  8
0
 62
     3
 10
623.70211799999993
 20
645.27403300000003
 30
0.0
  0
VERTEX
  5
98E
  8
0
 62
     3
 10
625.70211799999993
 20
644.27403300000003
 30
0.0
  0
VERTEX
  5
98F
  8
0
 62
     3
 10
625.70211799999993
 20
628.27403300000003
 30
0.0
  0
VERTEX
  5
990
  8
0
 62
     3
 10
627.70211799999993
 20
627.27403300000003
 30
0.0
  0
VERTEX
  5
991
  8
0
 62
     3
 10
623.70211799999993
 20
626.27403300000003
 30
0.0
  0
VERTEX
  5
992
  8
0
 62
     3
 10
625.70211799999993
 20
625.27403300000003
 30
0.0
  0
VERTEX
  5
993
  8
0
 62
     3
 10
625.70211799999993
 20
609.27403300000003
 30
0.0
  0
VERTEX
  5
994
  8
0
 62
     3
 10
627.70211799999993
 20
608.27403300000003
 30
0.0
  0
VERTEX
  5
995
  8
0
 62
     3
 10
623.70211799999993
 20
607.27403300000003
 30
0.0
  0
VERTEX
  5
996
  8
0
 62
     3
 10
625.70211799999993
 20
606.27403300000003
 30
0.0
  0
VERTEX
  5
997
  8
0
 62
     3
 10
625.70211799999993
 20
590.27403300000003
 30
0.0
  0
VERTEX
  5
998
  8
0
 62
     3
 10
627.70211799999993
 20
589.27403300000003
 30
0.0
  0
VERTEX
  5
999
  8
0
 62
     3
 10
623.70211799999993
 20
588.27403300000003
 30
0.0
  0
VERTEX
  5
99A
  8
0
 62
     3
 10
625.70211799999993
 20
587.27403300000003
 30
0.0
  0
VERTEX
  5
99B
  8
0
 62
     3
 10
625.70211799999993
 20
571.27403300000003
 30
0.0
  0
VERTEX
  5
99C
  8
0
 62
     3
 10
627.70211799999993
 20
570.27403300000003
 30
0.0
  0
VERTEX
  5
99D
  8
0
 62
     3
 10
623.70211799999993
 20
569.27403300000003
 30
0.0
  0
VERTEX
  5
99E
  8
0
 62
     3
 10
625.70211799999993
 20
568.27403300000003
 30
0.0
  0
VERTEX
  5
99F
  8
0
 62
     3
 10
625.70211799999993
 20
552.27403300000003
 30
0.0
  0
VERTEX
  5
9A0
  8
0
 62
     3
 10
627.70211799999993
 20
551.27403300000003
 30
0.0
  0
VERTEX
  5
9A1
  8
0
 62
     3
 10
623.70211799999993
 20
550.27403300000003
 30
0.0
  0
VERTEX
  5
9A2
  8
0
 62
     3
 10
625.70211799999993
 20
549.27403300000003
 30
0.0
  0
VERTEX
  5
9A3
  8
0
 62
     3
 10
625.70211799999993
 20
533.27403300000003
 30
0.0
  0
VERTEX
  5
9A4
  8
0
 62
     3
 10
627.70211799999993
 20
532.27403300000003
 30
0.0
  0
VERTEX
  5
9A5
  8
0
 62
     3
 10
623.70211799999993
 20
531.27403300000003
 30
0.0
  0
VERTEX
  5
9A6
  8
0
 62
     3
 10
625.70211799999993
 20
530.27403300000003
 30
0.0
  0
VERTEX
  5
9A7
  8
0
 62
     3
 10
625.70211799999993
 20
517.45291099999997
 30
0.0
  0
SEQEND
  5
9A8
  8
0
 62
     3
  0
LINE
  5
24D
  8
0
  6
DASHDOT
 62
     7
 10
737.56010400000002
 20
679.37483199999997
 30
0.0
 11
737.56010400000002
 21
666.37483199999997
 31
0.0
  0
LINE
  5
24E
  8
0
  6
DASHDOT
 62
     7
 10
731.06010400000002
 20
672.87483200000008
 30
0.0
 11
744.06010400000002
 21
672.87483200000008
 31
0.0
  0
LINE
  5
24F
  8
0
  6
DASHDOT
 62
     7
 10
657.56010400000002
 20
679.37483199999997
 30
0.0
 11
657.56010400000002
 21
666.37483199999997
 31
0.0
  0
LINE
  5
250
  8
0
  6
DASHDOT
 62
     7
 10
651.06010400000002
 20
672.87483200000008
 30
0.0
 11
664.06010399999991
 21
672.87483200000008
 31
0.0
  0
LINE
  5
251
  8
0
  6
DASHDOT
 62
     7
 10
657.56010400000002
 20
537.37483199999997
 30
0.0
 11
657.56010400000002
 21
524.37483199999997
 31
0.0
  0
LINE
  5
252
  8
0
  6
DASHDOT
 62
     7
 10
651.06010400000002
 20
530.87483200000008
 30
0.0
 11
664.06010399999991
 21
530.87483200000008
 31
0.0
  0
LINE
  5
253
  8
0
  6
DASHDOT
 62
     7
 10
737.56010400000002
 20
537.37483199999997
 30
0.0
 11
737.56010400000002
 21
524.37483199999997
 31
0.0
  0
LINE
  5
254
  8
0
  6
DASHDOT
 62
     7
 10
731.06010400000002
 20
530.87483200000008
 30
0.0
 11
744.06010400000002
 21
530.87483200000008
 31
0.0
  0
CIRCLE
  5
255
  8
0
 62
     7
 10
632.23464999999999
 20
676.98783099999991
 30
0.0
 40
0.25
  0
LINE
  5
256
  8
0
  6
DASHDOT
 62
     7
 10
596.09667200000001
 20
601.87483200000008
 30
0.0
 11
808.081276
 21
601.87483200000008
 31
0.0
  0
LINE
  5
257
  8
0
 62
     7
 10
574.96635400000002
 20
657.87483199999997
 30
0.0
 11
572.88261399999988
 21
646.05713700000001
 31
0.0
  0
LINE
  5
258
  8
0
 62
     7
 10
574.96635400000002
 20
657.87483199999997
 30
0.0
 11
577.05015600000002
 21
646.05713700000001
 31
0.0
  0
LINE
  5
259
  8
0
 62
     7
 10
574.96635400000002
 20
545.87483199999997
 30
0.0
 11
577.05015600000002
 21
557.69252800000004
 31
0.0
  0
LINE
  5
25A
  8
0
 62
     7
 10
574.96635400000002
 20
545.87483199999997
 30
0.0
 11
572.88261399999988
 21
557.69252800000004
 31
0.0
  0
LINE
  5
25B
  8
0
 62
     7
 10
574.96635400000002
 20
657.87483199999997
 30
0.0
 11
574.96635400000002
 21
545.87483199999997
 31
0.0
  0
LINE
  5
25C
  8
0
 62
     7
 10
566.96635400000002
 20
657.87483199999997
 30
0.0
 11
641.56010400000002
 21
657.87483199999997
 31
0.0
  0
LINE
  5
25D
  8
0
 62
     7
 10
566.96635400000002
 20
545.87483199999997
 30
0.0
 11
641.56010400000002
 21
545.87483599999996
 31
0.0
  0
LINE
  5
25E
  8
0
 62
     7
 10
537.47715799999992
 20
672.87483200000008
 30
0.0
 11
535.39335599999993
 21
661.05714399999999
 31
0.0
  0
LINE
  5
25F
  8
0
 62
     7
 10
537.47715799999992
 20
672.87483200000008
 30
0.0
 11
539.56089799999995
 21
661.05714399999999
 31
0.0
  0
LINE
  5
260
  8
0
 62
     7
 10
537.47715799999992
 20
530.87483200000008
 30
0.0
 11
539.56089799999995
 21
542.69252800000004
 31
0.0
  0
LINE
  5
261
  8
0
 62
     7
 10
537.47715799999992
 20
530.87483200000008
 30
0.0
 11
535.39335599999993
 21
542.69252800000004
 31
0.0
  0
LINE
  5
262
  8
0
 62
     7
 10
537.47715799999992
 20
672.87483200000008
 30
0.0
 11
537.47715799999992
 21
530.87483200000008
 31
0.0
  0
LINE
  5
263
  8
0
 62
     7
 10
529.47715800000003
 20
672.87483200000008
 30
0.0
 11
651.06010400000002
 21
672.87483200000008
 31
0.0
  0
LINE
  5
264
  8
0
 62
     7
 10
529.47715800000003
 20
530.87483200000008
 30
0.0
 11
651.06010400000002
 21
530.87483999999995
 31
0.0
  0
LINE
  5
265
  8
0
 62
     7
 10
657.56010400000002
 20
721.65879800000005
 30
0.0
 11
669.377792
 21
719.57502699999986
 31
0.0
  0
LINE
  5
266
  8
0
 62
     7
 10
657.56010400000002
 20
721.65879800000005
 30
0.0
 11
669.377792
 21
723.74258399999997
 31
0.0
  0
LINE
  5
267
  8
0
 62
     7
 10
737.56010400000002
 20
721.65879800000005
 30
0.0
 11
725.74241600000005
 21
723.742569
 31
0.0
  0
LINE
  5
268
  8
0
 62
     7
 10
737.56010400000002
 20
721.65879800000005
 30
0.0
 11
725.74241600000005
 21
719.57501200000002
 31
0.0
  0
LINE
  5
269
  8
0
 62
     7
 10
657.56010400000002
 20
721.65879800000005
 30
0.0
 11
737.56010400000002
 21
721.65879800000005
 31
0.0
  0
LINE
  5
26A
  8
0
 62
     7
 10
657.56010400000002
 20
729.65879800000005
 30
0.0
 11
657.56010400000002
 21
679.37483199999997
 31
0.0
  0
LINE
  5
26B
  8
0
 62
     7
 10
737.56010400000002
 20
729.65879800000005
 30
0.0
 11
737.56010400000002
 21
679.37483199999997
 31
0.0
  0
LINE
  5
26C
  8
0
 62
     7
 10
641.56010400000002
 20
754.37667799999986
 30
0.0
 11
653.377792
 21
752.2929079999999
 31
0.0
  0
LINE
  5
26D
  8
0
 62
     7
 10
641.56010400000002
 20
754.37667799999986
 30
0.0
 11
653.377792
 21
756.46046399999989
 31
0.0
  0
LINE
  5
26E
  8
0
 62
     7
 10
753.56010400000002
 20
754.37667799999986
 30
0.0
 11
741.74235499999986
 21
756.46044900000004
 31
0.0
  0
LINE
  5
26F
  8
0
 62
     7
 10
753.56010400000002
 20
754.37667799999986
 30
0.0
 11
741.74235499999986
 21
752.29289199999994
 31
0.0
  0
LINE
  5
270
  8
0
 62
     7
 10
641.56010400000002
 20
754.37667799999986
 30
0.0
 11
753.56010400000002
 21
754.37667799999986
 31
0.0
  0
LINE
  5
271
  8
0
 62
     7
 10
641.56010400000002
 20
762.37667799999986
 30
0.0
 11
641.56010400000002
 21
657.87484699999993
 31
0.0
  0
LINE
  5
272
  8
0
 62
     7
 10
753.56010400000002
 20
762.37667799999986
 30
0.0
 11
753.56010400000002
 21
657.87484699999993
 31
0.0
  0
LINE
  5
273
  8
0
 62
     7
 10
654.77256799999998
 20
528.75830099999985
 30
0.0
 11
644.10044900000003
 21
523.27145399999995
 31
0.0
  0
LINE
  5
274
  8
0
 62
     7
 10
654.77256799999998
 20
528.75830099999985
 30
0.0
 11
646.62065099999995
 21
519.95226300000002
 31
0.0
  0
LINE
  5
275
  8
0
 62
     7
 10
660.34764099999995
 20
532.99136399999998
 30
0.0
 11
671.01976000000002
 21
538.47821799999997
 31
0.0
  0
LINE
  5
276
  8
0
 62
     7
 10
660.34764099999995
 20
532.99136399999998
 30
0.0
 11
668.49955699999987
 21
541.79740099999992
 31
0.0
  0
LINE
  5
277
  8
0
 62
     7
 10
660.34764099999995
 20
532.99136399999998
 30
0.0
 11
586.51859999999999
 21
476.9338679999999
 31
0.0
  0
LINE
  5
278
  8
0
 62
     3
 10
74.461196999999999
 20
522.62483199999997
 30
0.0
 11
74.461196999999999
 21
542.62483199999997
 31
0.0
  0
LINE
  5
279
  8
0
 62
     3
 10
76.961196999999999
 20
536.62483200000008
 30
0.0
 11
76.961196999999999
 21
542.62483199999997
 31
0.0
  0
LINE
  5
27A
  8
0
 62
     3
 10
81.961196999999999
 20
522.62483199999997
 30
0.0
 11
74.461196999999999
 21
522.62483199999997
 31
0.0
  0
LINE
  5
27B
  8
0
 62
     3
 10
76.961196999999999
 20
542.62483199999997
 30
0.0
 11
74.461196999999999
 21
542.62483199999997
 31
0.0
  0
LINE
  5
27C
  8
0
 62
     3
 10
113.4611969999999
 20
538.62483199999997
 30
0.0
 11
113.4611969999999
 21
540.62483200000008
 31
0.0
  0
ARC
  5
27D
  8
0
 62
     3
 10
76.961196999999999
 20
532.62483200000008
 30
0.0
 40
4.0
 50
270.00000499999987
 51
0.000001
  0
ARC
  5
27E
  8
0
 62
     3
 10
111.461197
 20
524.62483200000008
 30
0.0
 40
2.0
 50
270.00000499999987
 51
0.000001
  0
ARC
  5
27F
  8
0
 62
     3
 10
111.461197
 20
540.62483200000008
 30
0.0
 40
2.0
 50
0.000001
 51
90.0
  0
ARC
  5
280
  8
0
 62
     3
 10
76.961196999999999
 20
532.62483200000008
 30
0.0
 40
4.0
 50
0.000001
 51
90.0
  0
ARC
  5
281
  8
0
 62
     3
 10
76.961196999999999
 20
532.62483200000008
 30
0.0
 40
2.0
 50
262.8192489999999
 51
97.180755000000005
  0
ARC
  5
282
  8
0
 62
     3
 10
76.461196999999984
 20
528.65620399999989
 30
0.0
 40
2.0
 50
82.819241000000005
 51
180.00000299999991
  0
ARC
  5
283
  8
0
 62
     3
 10
76.461196999999984
 20
536.59345999999994
 30
0.0
 40
2.0
 50
180.00000299999991
 51
277.18076000000002
  0
LINE
  5
284
  8
0
 62
     3
 10
76.961196999999999
 20
522.62483199999997
 30
0.0
 11
76.961196999999999
 21
528.62483200000008
 31
0.0
  0
LINE
  5
285
  8
0
 62
     3
 10
105.9611969999999
 20
538.62483199999997
 30
0.0
 11
105.9611969999999
 21
542.62483199999997
 31
0.0
  0
LINE
  5
286
  8
0
 62
     3
 10
109.9611969999999
 20
538.62483199999997
 30
0.0
 11
109.9611969999999
 21
542.62483199999997
 31
0.0
  0
LINE
  5
287
  8
0
 62
     3
 10
111.461197
 20
542.62483199999997
 30
0.0
 11
81.961196999999999
 21
542.62483199999997
 31
0.0
  0
LINE
  5
288
  8
0
  6
DASHSPACE
 62
     3
 10
94.361198000000002
 20
522.62483199999997
 30
0.0
 11
81.961196999999999
 21
522.62483199999997
 31
0.0
  0
LINE
  5
289
  8
0
 62
     3
 10
111.461197
 20
522.62483199999997
 30
0.0
 11
94.361198000000002
 21
522.62483199999997
 31
0.0
  0
LINE
  5
28A
  8
0
 62
     3
 10
105.9611969999999
 20
522.62483199999997
 30
0.0
 11
105.9611969999999
 21
526.62483199999997
 31
0.0
  0
LINE
  5
28B
  8
0
 62
     3
 10
109.9611969999999
 20
522.62483199999997
 30
0.0
 11
109.9611969999999
 21
526.62483199999997
 31
0.0
  0
LINE
  5
28C
  8
0
 62
     3
 10
113.4611969999999
 20
524.62483200000008
 30
0.0
 11
113.4611969999999
 21
526.62483199999997
 31
0.0
  0
LINE
  5
28D
  8
0
  6
DASHSPACE
 62
     3
 10
105.9611969999999
 20
526.62483199999997
 30
0.0
 11
105.9611969999999
 21
538.62483199999997
 31
0.0
  0
LINE
  5
28E
  8
0
  6
DASHSPACE
 62
     3
 10
109.9611969999999
 20
526.62483199999997
 30
0.0
 11
109.9611969999999
 21
538.62483199999997
 31
0.0
  0
LINE
  5
28F
  8
0
  6
DASHSPACE
 62
     3
 10
113.4611969999999
 20
526.62483199999997
 30
0.0
 11
113.4611969999999
 21
538.62483199999997
 31
0.0
  0
LINE
  5
290
  8
0
 62
     2
 10
117.3611979999999
 20
526.62483199999997
 30
0.0
 11
100.361198
 21
526.62483199999997
 31
0.0
  0
LINE
  5
291
  8
0
 62
     2
 10
117.3611979999999
 20
538.62483199999997
 30
0.0
 11
100.361198
 21
538.62483199999997
 31
0.0
  0
LINE
  5
292
  8
0
 62
     2
 10
99.361198000000002
 20
527.62483199999997
 30
0.0
 11
99.361198000000002
 21
537.62483200000008
 31
0.0
  0
LINE
  5
293
  8
0
  6
DASHSPACE
 62
     2
 10
95.361197999999987
 20
529.62483200000008
 30
0.0
 11
95.361197999999987
 21
535.62483199999997
 31
0.0
  0
LINE
  5
294
  8
0
 62
     2
 10
118.361198
 20
527.62483199999997
 30
0.0
 11
118.361198
 21
537.62483200000008
 31
0.0
  0
LINE
  5
295
  8
0
  6
DASHSPACE
 62
     2
 10
99.361198000000002
 20
529.62483200000008
 30
0.0
 11
95.361197999999987
 21
529.62483200000008
 31
0.0
  0
LINE
  5
296
  8
0
  6
DASHSPACE
 62
     2
 10
99.361198000000002
 20
535.62483199999997
 30
0.0
 11
95.361197999999987
 21
535.62483199999997
 31
0.0
  0
LINE
  5
297
  8
0
 62
     2
 10
100.361198
 20
526.62483199999997
 30
0.0
 11
99.361198000000002
 21
527.62483199999997
 31
0.0
  0
LINE
  5
298
  8
0
 62
     2
 10
99.361198000000002
 20
537.62483200000008
 30
0.0
 11
100.361198
 21
538.62483199999997
 31
0.0
  0
LINE
  5
299
  8
0
 62
     2
 10
117.3611979999999
 20
526.62483199999997
 30
0.0
 11
118.361198
 21
527.62483199999997
 31
0.0
  0
LINE
  5
29A
  8
0
 62
     2
 10
118.361198
 20
537.62483200000008
 30
0.0
 11
117.3611979999999
 21
538.62483199999997
 31
0.0
  0
LINE
  5
29B
  8
0
 62
     2
 10
118.361198
 20
527.62483199999997
 30
0.0
 11
99.361198000000002
 21
527.62483199999997
 31
0.0
  0
LINE
  5
29C
  8
0
 62
     2
 10
118.361198
 20
537.62483200000008
 30
0.0
 11
99.361198000000002
 21
537.62483200000008
 31
0.0
  0
LINE
  5
29D
  8
0
 62
     2
 10
100.361198
 20
526.62483199999997
 30
0.0
 11
100.361198
 21
538.62483199999997
 31
0.0
  0
LINE
  5
29E
  8
0
 62
     2
 10
117.3611979999999
 20
526.62483199999997
 30
0.0
 11
117.3611979999999
 21
538.62483199999997
 31
0.0
  0
LINE
  5
29F
  8
0
 62
   230
 10
99.361198000000002
 20
528.12483200000008
 30
0.0
 11
99.361198000000002
 21
537.12483200000008
 31
0.0
  0
LINE
  5
2A0
  8
0
 62
   230
 10
94.361198000000002
 20
524.12483200000008
 30
0.0
 11
94.361198000000002
 21
541.12483200000008
 31
0.0
  0
LINE
  5
2A1
  8
0
 62
   230
 10
97.272731999999991
 20
524.12483200000008
 30
0.0
 11
94.361198000000002
 21
524.12483200000008
 31
0.0
  0
LINE
  5
2A2
  8
0
 62
   230
 10
97.272731999999991
 20
541.12483200000008
 30
0.0
 11
94.361198000000002
 21
541.12483200000008
 31
0.0
  0
LINE
  5
2A3
  8
0
 62
   230
 10
96.861198000000002
 20
524.12483200000008
 30
0.0
 11
96.861198000000002
 21
541.12483200000008
 31
0.0
  0
LINE
  5
2A4
  8
0
 62
   230
 10
97.272731999999991
 20
539.62483199999997
 30
0.0
 11
97.272731999999991
 21
541.12483200000008
 31
0.0
  0
LINE
  5
2A5
  8
0
 62
   230
 10
99.361198000000002
 20
528.12483200000008
 30
0.0
 11
97.272731999999991
 21
528.12483200000008
 31
0.0
  0
LINE
  5
2A6
  8
0
 62
   230
 10
99.361198000000002
 20
537.12483200000008
 30
0.0
 11
97.272731999999991
 21
537.12483200000008
 31
0.0
  0
ARC
  5
2A7
  8
0
 62
   230
 10
121.6700019999999
 20
532.62483200000008
 30
0.0
 40
24.808805
 50
169.54943099999991
 51
190.45056699999989
  0
ARC
  5
2A8
  8
0
 62
   230
 10
98.022732000000005
 20
538.62483199999997
 30
0.0
 40
1.25
 50
201.68526600000001
 51
233.13009700000001
  0
ARC
  5
2A9
  8
0
 62
   230
 10
98.022732000000005
 20
526.62483199999997
 30
0.0
 40
1.25
 50
201.68526600000001
 51
233.13009700000001
  0
ARC
  5
2AA
  8
0
 62
   230
 10
98.022732000000005
 20
526.62483199999997
 30
0.0
 40
1.25
 50
126.86989800000001
 51
158.31473099999999
  0
ARC
  5
2AB
  8
0
 62
   230
 10
98.022732000000005
 20
538.62483199999997
 30
0.0
 40
1.25
 50
126.86989800000001
 51
158.31473099999999
  0
LINE
  5
2AC
  8
0
 62
   230
 10
97.272731999999991
 20
524.12483200000008
 30
0.0
 11
97.272731999999991
 21
525.62483199999997
 31
0.0
  0
LINE
  5
2AD
  8
0
 62
   230
 10
97.272731999999991
 20
537.12483200000008
 30
0.0
 11
97.272731999999991
 21
537.62483200000008
 31
0.0
  0
LINE
  5
2AE
  8
0
 62
     7
 10
132.96119699999991
 20
708.97402999999986
 30
0.0
 11
132.96119699999991
 21
708.97991899999988
 31
0.0
  0
LINE
  5
2AF
  8
0
 62
     7
 10
58.961196999999991
 20
708.97402999999986
 30
0.0
 11
58.961196999999991
 21
708.97991899999988
 31
0.0
  0
LINE
  5
2B0
  8
0
 62
   211
 10
132.96119699999991
 20
689.12481699999989
 30
0.0
 11
58.961196999999991
 21
689.12481699999989
 31
0.0
  0
LINE
  5
2B1
  8
0
 62
   211
 10
132.96119699999991
 20
689.12481699999989
 30
0.0
 11
132.96119699999991
 21
690.62481700000001
 31
0.0
  0
LINE
  5
2B2
  8
0
 62
   211
 10
58.961196999999991
 20
689.12481699999989
 30
0.0
 11
58.961196999999991
 21
690.62481700000001
 31
0.0
  0
LINE
  5
2B3
  8
0
 62
   211
 10
132.96119699999991
 20
690.62481700000001
 30
0.0
 11
58.961196999999991
 21
690.62481700000001
 31
0.0
  0
LINE
  5
2B4
  8
0
 62
   211
 10
132.96119699999991
 20
690.93653899999993
 30
0.0
 11
132.96119699999991
 21
691.61894199999995
 31
0.0
  0
LINE
  5
2B5
  8
0
 62
   211
 10
132.96119699999991
 20
690.62481700000001
 30
0.0
 11
132.96119699999991
 21
690.93653899999993
 31
0.0
  0
LINE
  5
2B6
  8
0
 62
   211
 10
58.961196999999991
 20
690.62481700000001
 30
0.0
 11
58.961196999999991
 21
690.93653899999993
 31
0.0
  0
LINE
  5
2B7
  8
0
 62
   211
 10
58.961196999999991
 20
690.93653899999993
 30
0.0
 11
58.961196999999991
 21
691.61894199999995
 31
0.0
  0
LINE
  5
2B8
  8
0
 62
   211
 10
132.96119699999991
 20
691.61894199999995
 30
0.0
 11
132.96119699999991
 21
708.27149999999995
 31
0.0
  0
LINE
  5
2B9
  8
0
 62
   211
 10
58.961196999999991
 20
691.61894199999995
 30
0.0
 11
58.961196999999991
 21
708.27149999999995
 31
0.0
  0
LINE
  5
2BA
  8
0
 62
   211
 10
132.96119699999991
 20
708.27149999999995
 30
0.0
 11
132.96119699999991
 21
708.77127099999996
 31
0.0
  0
LINE
  5
2BB
  8
0
 62
   211
 10
58.961196999999991
 20
708.27149999999995
 30
0.0
 11
58.961196999999991
 21
708.77127099999996
 31
0.0
  0
LINE
  5
2BC
  8
0
 62
   211
 10
132.96119699999991
 20
708.77127099999996
 30
0.0
 11
132.96119699999991
 21
709.12481700000001
 31
0.0
  0
LINE
  5
2BD
  8
0
 62
   211
 10
58.961196999999991
 20
708.77127099999996
 30
0.0
 11
58.961196999999991
 21
709.12481700000001
 31
0.0
  0
LINE
  5
2BE
  8
0
 62
   211
 10
132.96119699999991
 20
733.96957399999985
 30
0.0
 11
132.96119699999991
 21
733.97691299999985
 31
0.0
  0
LINE
  5
2BF
  8
0
 62
   211
 10
132.96119699999991
 20
709.12481700000001
 30
0.0
 11
58.961196999999991
 21
709.12481700000001
 31
0.0
  0
LINE
  5
2C0
  8
0
 62
    31
 10
81.961196999999999
 20
519.12483199999997
 30
0.0
 11
66.915688000000003
 21
519.12483199999997
 31
0.0
  0
LINE
  5
2C1
  8
0
 62
    31
 10
96.961196999999999
 20
518.611221
 30
0.0
 11
94.048362999999995
 21
519.12483199999997
 31
0.0
  0
LINE
  5
2C2
  8
0
 62
     7
 10
63.683411
 20
463.53720099999998
 30
0.0
 11
45.552413999999992
 21
464.277241
 31
0.0
  0
LINE
  5
2C3
  8
0
 62
   230
 10
155.96119699999991
 20
519.55559500000004
 30
0.0
 11
155.96119699999991
 21
543.87487399999998
 31
0.0
  0
POLYLINE
  5
2C4
  8
0
 62
     3
 66
     1
 10
0.0
 20
0.0
 30
0.0
  0
VERTEX
  5
9A9
  8
0
 62
     3
 10
121.7669939999999
 20
519.12484699999993
 30
0.0
  0
VERTEX
  5
9AA
  8
0
 62
     3
 10
120.6102259999999
 20
535.0829769999998
 30
0.0
  0
VERTEX
  5
9AB
  8
0
 62
     3
 10
118.54316299999989
 20
535.93576399999995
 30
0.0
  0
VERTEX
  5
9AC
  8
0
 62
     3
 10
122.460396
 20
537.22234000000003
 30
0.0
  0
VERTEX
  5
9AD
  8
0
 62
     3
 10
120.393333
 20
538.07512699999995
 30
0.0
  0
VERTEX
  5
9AE
  8
0
 62
     3
 10
119.8472899999999
 20
545.60804000000007
 30
0.0
  0
SEQEND
  5
9AF
  8
0
 62
     3
  0
LINE
  5
2CC
  8
0
 62
     7
 10
130.96119699999991
 20
521.924847
 30
0.0
 11
121.56403
 21
521.924847
 31
0.0
  0
LINE
  5
2CD
  8
0
 62
     7
 10
58.961196999999991
 20
519.12484699999993
 30
0.0
 11
58.961196999999991
 21
559.41906700000004
 31
0.0
  0
LINE
  5
2CE
  8
0
 62
     7
 10
58.961196999999991
 20
559.41903699999989
 30
0.0
 11
58.961196999999991
 21
689.12481699999989
 31
0.0
  0
LINE
  5
2CF
  8
0
  6
DASHDOT
 62
     7
 10
56.961196999999999
 20
463.81157699999989
 30
0.0
 11
56.961196999999999
 21
697.621216
 31
0.0
  0
LINE
  5
2D0
  8
0
 62
     7
 10
56.961196999999999
 20
678.45443699999987
 30
0.0
 11
56.961196999999999
 21
678.62480199999993
 31
0.0
  0
LINE
  5
2D1
  8
0
 62
     7
 10
127.46119299999999
 20
618.12480900000003
 30
0.0
 11
127.461174
 21
626.37483200000008
 31
0.0
  0
LINE
  5
2D2
  8
0
 62
     7
 10
129.96113799999989
 20
672.62483199999997
 30
0.0
 11
130.66826099999989
 21
672.91772500000002
 31
0.0
  0
LINE
  5
2D3
  8
0
 62
     7
 10
130.668274
 20
672.9176940000001
 30
0.0
 11
130.96116599999991
 21
673.62480199999993
 31
0.0
  0
LINE
  5
2D4
  8
0
 62
     7
 10
127.46118199999999
 20
665.62483200000008
 30
0.0
 11
127.461197
 21
672.62483199999997
 31
0.0
  0
LINE
  5
2D5
  8
0
 62
     7
 10
129.96116599999991
 20
672.62483199999997
 30
0.0
 11
127.461197
 21
672.62483199999997
 31
0.0
  0
LINE
  5
2D6
  8
0
 62
     7
 10
127.46118199999999
 20
626.37483200000008
 30
0.0
 11
127.46118199999999
 21
665.62483200000008
 31
0.0
  0
LINE
  5
2D7
  8
0
 62
     7
 10
122.961197
 20
575.62483199999997
 30
0.0
 11
122.961197
 21
616.12483200000008
 31
0.0
  0
LINE
  5
2D8
  8
0
 62
     7
 10
122.96122699999999
 20
616.12488599999995
 30
0.0
 11
123.22917199999991
 21
617.12488599999995
 31
0.0
  0
LINE
  5
2D9
  8
0
 62
     7
 10
123.229206
 20
617.12492399999996
 30
0.0
 11
123.961246
 21
617.85697900000002
 31
0.0
  0
LINE
  5
2DA
  8
0
 62
     7
 10
123.96114299999989
 20
617.85686499999997
 30
0.0
 11
124.96115899999999
 21
618.12480900000003
 31
0.0
  0
LINE
  5
2DB
  8
0
 62
     7
 10
130.96119699999991
 20
575.62483199999997
 30
0.0
 11
122.961197
 21
575.62483199999997
 31
0.0
  0
LINE
  5
2DC
  8
0
 62
     7
 10
130.96115499999991
 20
560.62481699999989
 30
0.0
 11
129.96107900000001
 21
561.62481700000001
 31
0.0
  0
LINE
  5
2DD
  8
0
 62
     7
 10
129.96110200000001
 20
572.62484000000006
 30
0.0
 11
130.96119299999989
 21
573.62483999999995
 31
0.0
  0
LINE
  5
2DE
  8
0
 62
     7
 10
129.9610879999999
 20
572.62480199999982
 30
0.0
 11
67.193282999999994
 21
572.62480199999982
 31
0.0
  0
LINE
  5
2DF
  8
0
 62
     7
 10
129.96110300000001
 20
561.62483200000008
 30
0.0
 11
67.193236999999996
 21
561.62483200000008
 31
0.0
  0
LINE
  5
2E0
  8
0
 62
     7
 10
67.193275
 20
572.62478599999997
 30
0.0
 11
63.461188999999997
 21
573.62480199999993
 31
0.0
  0
LINE
  5
2E1
  8
0
 62
     7
 10
63.461227000000001
 20
573.62479400000007
 30
0.0
 11
59.961188999999997
 21
574.56263000000001
 31
0.0
  0
LINE
  5
2E2
  8
0
 62
     7
 10
58.961196999999991
 20
559.41906700000004
 30
0.0
 11
67.193236999999996
 21
561.62483200000008
 31
0.0
  0
LINE
  5
2E3
  8
0
 62
     7
 10
58.961211999999989
 20
576.91913599999987
 30
0.0
 11
59.961205
 21
577.18708000000004
 31
0.0
  0
LINE
  5
2E4
  8
0
 62
     7
 10
62.961196999999999
 20
553.12481700000001
 30
0.0
 11
58.961196999999991
 21
553.12481700000001
 31
0.0
  0
LINE
  5
2E5
  8
0
 62
     7
 10
62.961196999999999
 20
545.60804000000007
 30
0.0
 11
62.961196999999999
 21
553.12481700000001
 31
0.0
  0
LINE
  5
2E6
  8
0
 62
     7
 10
59.961196999999999
 20
559.68699600000002
 30
0.0
 11
59.961196999999999
 21
604.12481700000001
 31
0.0
  0
LINE
  5
2E7
  8
0
 62
     7
 10
63.461196999999999
 20
573.62483199999997
 30
0.0
 11
63.461196999999999
 21
598.62483200000008
 31
0.0
  0
LINE
  5
2E8
  8
0
 62
     7
 10
61.961196999999999
 20
604.12481700000001
 30
0.0
 11
58.961196999999991
 21
604.12481700000001
 31
0.0
  0
LINE
  5
2E9
  8
0
 62
     7
 10
62.711205000000007
 20
603.92385100000001
 30
0.0
 11
61.961205000000007
 21
604.12480900000003
 31
0.0
  0
LINE
  5
2EA
  8
0
 62
     7
 10
62.711205000000007
 20
603.92385100000001
 30
0.0
 11
61.961205000000007
 21
604.12480900000003
 31
0.0
  0
LINE
  5
2EB
  8
0
 62
     7
 10
63.260238999999999
 20
603.37480199999993
 30
0.0
 11
62.711196999999991
 21
603.92384299999992
 31
0.0
  0
LINE
  5
2EC
  8
0
 62
     7
 10
63.461181999999987
 20
602.62478599999997
 30
0.0
 11
63.260222999999989
 21
603.37478599999997
 31
0.0
  0
LINE
  5
2ED
  8
0
 62
     7
 10
63.461211999999989
 20
598.62481700000001
 30
0.0
 11
63.461211999999989
 21
602.62480199999993
 31
0.0
  0
LINE
  5
2EE
  8
0
 62
     7
 10
63.260246000000002
 20
597.87480900000003
 30
0.0
 11
63.355468999999992
 21
598.23018599999989
 31
0.0
  0
LINE
  5
2EF
  8
0
 62
     7
 10
63.355460999999998
 20
598.23017900000002
 30
0.0
 11
63.461205000000007
 21
598.62481700000001
 31
0.0
  0
LINE
  5
2F0
  8
0
 62
     7
 10
62.711196999999991
 20
597.32573699999989
 30
0.0
 11
63.260238999999999
 21
597.87477899999988
 31
0.0
  0
LINE
  5
2F1
  8
0
 62
     7
 10
61.961181999999987
 20
597.12479399999995
 30
0.0
 11
62.711182000000001
 21
597.32575199999985
 31
0.0
  0
LINE
  5
2F2
  8
0
 62
     7
 10
61.961196999999999
 20
597.12481699999989
 30
0.0
 11
59.961196999999999
 21
597.12481699999989
 31
0.0
  0
LINE
  5
2F3
  8
0
 62
     7
 10
58.961196999999991
 20
529.62481700000001
 30
0.0
 11
56.961196999999999
 21
529.62481700000001
 31
0.0
  0
LINE
  5
2F4
  8
0
 62
     7
 10
58.961196999999991
 20
678.62480199999993
 30
0.0
 11
56.961196999999999
 21
678.62480199999993
 31
0.0
  0
LINE
  5
2F5
  8
0
 62
     7
 10
58.961196999999991
 20
668.75645399999985
 30
0.0
 11
56.961196999999999
 21
668.75645399999985
 31
0.0
  0
LINE
  5
2F6
  8
0
 62
     7
 10
66.260207999999992
 20
561.37482499999987
 30
0.0
 11
63.461174
 21
562.12482499999987
 31
0.0
  0
LINE
  5
2F7
  8
0
 62
     7
 10
63.461166000000013
 20
562.12483200000008
 30
0.0
 11
63.461166000000013
 21
572.12483199999997
 31
0.0
  0
LINE
  5
2F8
  8
0
 62
     7
 10
63.461166000000013
 20
572.12481699999989
 30
0.0
 11
66.260222999999996
 21
572.87481700000001
 31
0.0
  0
LINE
  5
2F9
  8
0
 62
     7
 10
58.961196999999991
 20
539.40943900000002
 30
0.0
 11
56.961196999999999
 21
539.40943900000002
 31
0.0
  0
LINE
  5
2FA
  8
0
 62
     7
 10
58.961196999999991
 20
539.62481699999989
 30
0.0
 11
56.961196999999999
 21
539.62481699999989
 31
0.0
  0
LINE
  5
2FB
  8
0
 62
     7
 10
63.260246000000002
 20
597.34551999999996
 30
0.0
 11
63.461205000000007
 21
598.2301940000001
 31
0.0
  0
LINE
  5
2FC
  8
0
 62
     7
 10
63.461196999999999
 20
598.2301940000001
 30
0.0
 11
63.355452999999997
 21
598.2301940000001
 31
0.0
  0
LINE
  5
2FD
  8
0
 62
     7
 10
63.327216999999997
 20
584.12480900000003
 30
0.0
 11
63.461188999999997
 21
584.22426600000006
 31
0.0
  0
LINE
  5
2FE
  8
0
 62
     7
 10
63.327232000000002
 20
584.12477100000001
 30
0.0
 11
63.260238999999999
 21
584.17449999999985
 31
0.0
  0
LINE
  5
2FF
  8
0
 62
     7
 10
63.461196999999999
 20
594.12483199999997
 30
0.0
 11
63.260230999999997
 21
594.12483199999997
 31
0.0
  0
LINE
  5
300
  8
0
 62
     7
 10
63.260230999999997
 20
588.07504299999994
 30
0.0
 11
63.327216999999997
 21
588.12477100000001
 31
0.0
  0
LINE
  5
301
  8
0
 62
     7
 10
63.461196999999999
 20
588.02534500000002
 30
0.0
 11
63.327224999999999
 21
588.12480199999993
 31
0.0
  0
LINE
  5
302
  8
0
 62
     7
 10
63.369399999999999
 20
595.84690099999989
 30
0.0
 11
63.260230999999997
 21
596.45667300000002
 31
0.0
  0
LINE
  5
303
  8
0
 62
     7
 10
63.461196999999999
 20
594.12483199999997
 30
0.0
 11
63.369407999999993
 21
595.84690899999998
 31
0.0
  0
LINE
  5
304
  8
0
 62
     7
 10
63.260230999999997
 20
584.17453
 30
0.0
 11
62.744872999999998
 21
584.27703899999995
 31
0.0
  0
LINE
  5
305
  8
0
 62
     7
 10
62.744872999999998
 20
584.27704600000004
 30
0.0
 11
62.711196999999991
 21
584.29955299999995
 31
0.0
  0
LINE
  5
306
  8
0
 62
     7
 10
62.711182000000001
 20
587.95005800000001
 30
0.0
 11
62.744857999999986
 21
587.97256500000003
 31
0.0
  0
LINE
  5
307
  8
0
 62
     7
 10
62.744864999999997
 20
587.97255700000005
 30
0.0
 11
63.260222999999989
 21
588.07506599999999
 31
0.0
  0
LINE
  5
308
  8
0
 62
     7
 10
63.260230999999997
 20
594.12483199999997
 30
0.0
 11
62.711196999999991
 21
594.12483199999997
 31
0.0
  0
LINE
  5
309
  8
0
 62
     7
 10
62.711189000000012
 20
584.29953799999987
 30
0.0
 11
61.961188999999997
 21
584.43381499999987
 31
0.0
  0
LINE
  5
30A
  8
0
 62
     7
 10
61.961188999999997
 20
587.81578100000002
 30
0.0
 11
62.711189000000012
 21
587.95005800000001
 31
0.0
  0
LINE
  5
30B
  8
0
 62
     7
 10
62.711196999999991
 20
594.12483199999997
 30
0.0
 11
61.961196999999999
 21
594.12483199999997
 31
0.0
  0
LINE
  5
30C
  8
0
 62
     7
 10
61.961196999999999
 20
587.81579599999998
 30
0.0
 11
59.961196999999999
 21
587.81579599999998
 31
0.0
  0
LINE
  5
30D
  8
0
 62
     7
 10
61.961196999999999
 20
594.12483199999997
 30
0.0
 11
59.961196999999999
 21
594.12483199999997
 31
0.0
  0
LINE
  5
30E
  8
0
 62
     7
 10
61.961196999999999
 20
584.43383800000004
 30
0.0
 11
59.961196999999999
 21
584.43383800000004
 31
0.0
  0
LINE
  5
30F
  8
0
 62
     3
 10
155.96119699999991
 20
689.12483199999997
 30
0.0
 11
58.961196999999991
 21
689.12483199999997
 31
0.0
  0
LINE
  5
310
  8
0
 62
     3
 10
153.16119399999991
 20
686.32484399999987
 30
0.0
 11
124.49759299999999
 21
686.32484399999987
 31
0.0
  0
LINE
  5
311
  8
0
 62
     3
 10
153.16119399999991
 20
521.924847
 30
0.0
 11
130.96119699999991
 21
521.924847
 31
0.0
  0
LINE
  5
312
  8
0
 62
     3
 10
155.96119699999991
 20
519.12484699999993
 30
0.0
 11
132.96119699999991
 21
519.12484699999993
 31
0.0
  0
LINE
  5
313
  8
0
 62
     3
 10
130.96119699999991
 20
519.12484699999993
 30
0.0
 11
130.96119699999991
 21
561.37483199999997
 31
0.0
  0
LINE
  5
314
  8
0
 62
     3
 10
130.96119699999991
 20
572.87481700000001
 30
0.0
 11
130.96119699999991
 21
575.62489299999993
 31
0.0
  0
LINE
  5
315
  8
0
 62
     3
 10
130.96119699999991
 20
673.62487800000008
 30
0.0
 11
130.96119699999991
 21
689.12483199999997
 31
0.0
  0
LINE
  5
316
  8
0
 62
     3
 10
160.461197
 20
617.07370000000003
 30
0.0
 11
160.461197
 21
626.62451199999987
 31
0.0
  0
LINE
  5
317
  8
0
 62
     3
 10
160.46118899999991
 20
559.62453499999992
 30
0.0
 11
160.46114299999999
 21
566.17525499999999
 31
0.0
  0
LINE
  5
318
  8
0
 62
     3
 10
155.96119699999991
 20
664.87483200000008
 30
0.0
 11
155.96119699999991
 21
689.12483199999997
 31
0.0
  0
LINE
  5
319
  8
0
 62
     3
 10
155.96119699999991
 20
672.87484699999993
 30
0.0
 11
153.16119399999991
 21
672.87484699999993
 31
0.0
  0
LINE
  5
31A
  8
0
 62
     3
 10
155.96119699999991
 20
535.37484699999993
 30
0.0
 11
153.16119399999991
 21
535.37484699999993
 31
0.0
  0
LINE
  5
31B
  8
0
 62
     3
 10
153.16119399999991
 20
521.92484999999988
 30
0.0
 11
153.16119399999991
 21
543.87485099999992
 31
0.0
  0
LINE
  5
31C
  8
0
 62
     3
 10
153.161191
 20
572.87483200000008
 30
0.0
 11
130.96119299999989
 21
572.87483200000008
 31
0.0
  0
LINE
  5
31D
  8
0
 62
     3
 10
153.161191
 20
561.37483199999997
 30
0.0
 11
130.961195
 21
561.37483199999997
 31
0.0
  0
LINE
  5
31E
  8
0
 62
     1
 10
158.461196
 20
664.87483200000008
 30
0.0
 11
153.16119399999991
 21
664.87483200000008
 31
0.0
  0
LINE
  5
31F
  8
0
 62
     1
 10
162.4182689999999
 20
654.22845499999994
 30
0.0
 11
162.38794899999999
 21
654.30166600000007
 31
0.0
  0
LINE
  5
320
  8
0
 62
     1
 10
162.38798299999999
 20
654.30159000000003
 30
0.0
 11
162.211207
 21
654.37480199999993
 31
0.0
  0
LINE
  5
321
  8
0
 62
     1
 10
155.96119699999991
 20
543.87484699999993
 30
0.0
 11
155.461197
 21
543.87484699999993
 31
0.0
  0
LINE
  5
322
  8
0
 62
     1
 10
158.461196
 20
543.87487399999998
 30
0.0
 11
153.16119399999991
 21
543.87487399999998
 31
0.0
  0
LINE
  5
323
  8
0
 62
     2
 10
169.46250699999999
 20
549.87483199999997
 30
0.0
 11
169.46250699999999
 21
551.87483200000008
 31
0.0
  0
LINE
  5
324
  8
0
 62
     2
 10
160.46250699999999
 20
549.37483199999997
 30
0.0
 11
160.46250699999999
 21
654.37483199999997
 31
0.0
  0
LINE
  5
325
  8
0
 62
     2
 10
163.961187
 20
654.37483199999997
 30
0.0
 11
158.461196
 21
654.37483199999997
 31
0.0
  0
LINE
  5
326
  8
0
 62
     2
 10
163.961187
 20
549.37483199999997
 30
0.0
 11
158.461196
 21
549.37483199999997
 31
0.0
  0
LINE
  5
327
  8
0
 62
     2
 10
169.46230499999999
 20
581.87480900000003
 30
0.0
 11
169.46235799999999
 21
601.37480899999991
 31
0.0
  0
LINE
  5
328
  8
0
 62
     7
 10
127.46118899999991
 20
618.12480900000003
 30
0.0
 11
124.96115899999999
 21
618.12480900000003
 31
0.0
  0
LINE
  5
329
  8
0
 62
     7
 10
158.461196
 20
654.37483199999997
 30
0.0
 11
158.461196
 21
664.87483200000008
 31
0.0
  0
LINE
  5
32A
  8
0
 62
     7
 10
158.461196
 20
543.87484699999993
 30
0.0
 11
158.461196
 21
549.37483199999997
 31
0.0
  0
LINE
  5
32B
  8
0
 62
     3
 10
153.16119399999991
 20
664.87483200000008
 30
0.0
 11
153.16119399999991
 21
686.32484399999987
 31
0.0
  0
LINE
  5
32C
  8
0
 62
     3
 10
153.16119399999991
 20
543.87485099999992
 30
0.0
 11
153.16119399999991
 21
664.87483200000008
 31
0.0
  0
ARC
  5
32D
  8
0
 62
     7
 10
190.13723799999991
 20
579.83094800000003
 30
0.0
 40
1.0
 50
348.62360999999993
 51
76.688818000000012
  0
ARC
  5
32E
  8
0
 62
     7
 10
188.940495
 20
573.88313300000004
 30
0.0
 40
1.000000999999999
 50
260.59401500000001
 51
348.62360999999993
  0
LINE
  5
32F
  8
0
  6
DASHDOT
 62
     7
 10
204.93782400000001
 20
573.72229800000002
 30
0.0
 11
154.82113299999989
 21
583.80611399999987
 31
0.0
  0
LINE
  5
330
  8
0
 62
     7
 10
190.36747600000001
 20
580.80408499999999
 30
0.0
 11
169.4623159999999
 21
585.75015999999994
 31
0.0
  0
LINE
  5
331
  8
0
 62
     7
 10
189.920849
 20
573.68587500000001
 30
0.0
 11
191.11758999999989
 21
579.63369800000009
 31
0.0
  0
LINE
  5
332
  8
0
 62
     7
 10
188.7770669999999
 20
572.89657599999998
 30
0.0
 11
169.46236599999989
 21
576.0961759999999
 31
0.0
  0
LINE
  5
333
  8
0
  6
DASHDOT
 62
     7
 10
53.961196999999991
 20
463.93402500000002
 30
0.0
 11
53.961196999999991
 21
698.03030399999989
 31
0.0
  0
LINE
  5
334
  8
0
 62
     7
 10
93.860489000000001
 20
665.62483200000008
 30
0.0
 11
81.860175999999996
 21
665.62483200000008
 31
0.0
  0
LINE
  5
335
  8
0
 62
     7
 10
93.559989999999999
 20
663.12483199999997
 30
0.0
 11
81.291327999999993
 21
663.12483199999997
 31
0.0
  0
LINE
  5
336
  8
0
 62
     7
 10
67.961196999999999
 20
659.05927999999994
 30
0.0
 11
67.961196999999999
 21
663.12483199999997
 31
0.0
  0
LINE
  5
337
  8
0
 62
     7
 10
71.961196999999999
 20
659.05927999999994
 30
0.0
 11
71.961196999999999
 21
663.12483199999997
 31
0.0
  0
LINE
  5
338
  8
0
 62
     7
 10
81.961196999999999
 20
663.12483199999997
 30
0.0
 11
81.961196999999999
 21
665.62483200000008
 31
0.0
  0
LINE
  5
339
  8
0
 62
     7
 10
74.409644999999983
 20
663.12483199999997
 30
0.0
 11
67.961196999999999
 21
663.12483199999997
 31
0.0
  0
POLYLINE
  5
33A
  8
0
 62
     3
 66
     1
 10
0.0
 20
0.0
 30
0.0
  0
VERTEX
  5
9B0
  8
0
 62
     3
 10
94.199141999999995
 20
659.05927999999994
 30
0.0
  0
VERTEX
  5
9B1
  8
0
 62
     3
 10
78.199142000000009
 20
659.05927999999994
 30
0.0
  0
VERTEX
  5
9B2
  8
0
 62
     3
 10
77.199142000000009
 20
657.05927999999994
 30
0.0
  0
VERTEX
  5
9B3
  8
0
 62
     3
 10
76.199142000000009
 20
661.05927999999994
 30
0.0
  0
VERTEX
  5
9B4
  8
0
 62
     3
 10
75.199142000000009
 20
659.05927999999994
 30
0.0
  0
VERTEX
  5
9B5
  8
0
 62
     3
 10
59.199142000000002
 20
659.05927999999994
 30
0.0
  0
VERTEX
  5
9B6
  8
0
 62
     3
 10
58.199142000000002
 20
657.05927999999994
 30
0.0
  0
VERTEX
  5
9B7
  8
0
 62
     3
 10
57.199142000000002
 20
661.05927999999994
 30
0.0
  0
VERTEX
  5
9B8
  8
0
 62
     3
 10
56.199142000000002
 20
659.05927999999994
 30
0.0
  0
VERTEX
  5
9B9
  8
0
 62
     3
 10
51.732353000000003
 20
659.05927999999994
 30
0.0
  0
SEQEND
  5
9BA
  8
0
 62
     3
  0
LINE
  5
346
  8
0
 62
     7
 10
81.961196999999999
 20
684.62483199999997
 30
0.0
 11
76.961196999999999
 21
684.62483199999997
 31
0.0
  0
LINE
  5
347
  8
0
 62
     7
 10
81.961196999999999
 20
665.62483200000008
 30
0.0
 11
81.961196999999999
 21
671.62483199999997
 31
0.0
  0
LINE
  5
348
  8
0
 62
     7
 10
76.383980000000008
 20
658.05927999999994
 30
0.0
 11
80.460463999999988
 21
662.05340599999988
 31
0.0
  0
LINE
  5
349
  8
0
 62
     7
 10
73.461928999999998
 20
662.19625899999994
 30
0.0
 11
76.961196999999999
 21
665.62483200000008
 31
0.0
  0
LINE
  5
34A
  8
0
 62
     7
 10
76.961196999999999
 20
665.62483200000008
 30
0.0
 11
76.961196999999999
 21
671.42483499999992
 31
0.0
  0
ARC
  5
34B
  8
0
 62
     7
 10
76.961196999999999
 20
658.62483200000008
 30
0.0
 40
4.999998999999999
 50
134.41529800000001
 51
180.00000299999991
  0
ARC
  5
34C
  8
0
 62
     7
 10
76.961196999999999
 20
665.62483200000008
 30
0.0
 40
5.0
 50
314.41529300000002
 51
0.000001
  0
LINE
  5
34D
  8
0
  6
DASHDOT
 62
     7
 10
120.710205
 20
675.62483199999997
 30
0.0
 11
71.634170999999995
 21
675.62483199999997
 31
0.0
  0
LINE
  5
34E
  8
0
 62
     7
 10
76.961196999999999
 20
542.62484400000005
 30
0.0
 11
58.961196999999991
 21
542.62484400000005
 31
0.0
  0
LINE
  5
34F
  8
0
 62
     7
 10
72.961196999999999
 20
542.62484400000005
 30
0.0
 11
72.961196999999999
 21
545.60804000000007
 31
0.0
  0
LINE
  5
350
  8
0
 62
     7
 10
76.961196999999999
 20
542.62484400000005
 30
0.0
 11
76.961196999999999
 21
545.60804000000007
 31
0.0
  0
LINE
  5
351
  8
0
 62
     7
 10
82.961196999999999
 20
542.62484400000005
 30
0.0
 11
82.961196999999999
 21
545.60804000000007
 31
0.0
  0
LINE
  5
352
  8
0
 62
     7
 10
120.06353799999999
 20
542.62484400000005
 30
0.0
 11
82.961196999999999
 21
542.62484400000005
 31
0.0
  0
POLYLINE
  5
353
  8
0
 62
     3
 66
     1
 10
0.0
 20
0.0
 30
0.0
  0
VERTEX
  5
9BB
  8
0
 62
     3
 10
119.8472899999999
 20
545.60804000000007
 30
0.0
  0
VERTEX
  5
9BC
  8
0
 62
     3
 10
103.8472899999999
 20
545.60804000000007
 30
0.0
  0
VERTEX
  5
9BD
  8
0
 62
     3
 10
102.84729
 20
543.60803999999996
 30
0.0
  0
VERTEX
  5
9BE
  8
0
 62
     3
 10
101.84729
 20
547.60803999999996
 30
0.0
  0
VERTEX
  5
9BF
  8
0
 62
     3
 10
100.84729
 20
545.60804000000007
 30
0.0
  0
VERTEX
  5
9C0
  8
0
 62
     3
 10
84.847289999999987
 20
545.60804000000007
 30
0.0
  0
VERTEX
  5
9C1
  8
0
 62
     3
 10
83.847290000000001
 20
543.60803999999996
 30
0.0
  0
VERTEX
  5
9C2
  8
0
 62
     3
 10
82.847290000000001
 20
547.60803999999996
 30
0.0
  0
VERTEX
  5
9C3
  8
0
 62
     3
 10
81.847290000000001
 20
545.60804000000007
 30
0.0
  0
VERTEX
  5
9C4
  8
0
 62
     3
 10
65.847290000000001
 20
545.60804000000007
 30
0.0
  0
VERTEX
  5
9C5
  8
0
 62
     3
 10
64.847290000000001
 20
543.60803999999996
 30
0.0
  0
VERTEX
  5
9C6
  8
0
 62
     3
 10
63.847290000000001
 20
547.60803999999996
 30
0.0
  0
VERTEX
  5
9C7
  8
0
 62
     3
 10
62.847290000000001
 20
545.60804000000007
 30
0.0
  0
VERTEX
  5
9C8
  8
0
 62
     3
 10
57.573371999999999
 20
545.60804000000007
 30
0.0
  0
SEQEND
  5
9C9
  8
0
 62
     3
  0
LINE
  5
363
  8
0
 62
     7
 10
79.961196999999999
 20
523.62484600000005
 30
0.0
 11
76.961196999999999
 21
523.62484600000005
 31
0.0
  0
LINE
  5
364
  8
0
 62
     7
 10
79.961196999999999
 20
536.62483200000008
 30
0.0
 11
79.961196999999999
 21
545.60804000000007
 31
0.0
  0
LINE
  5
365
  8
0
 62
     7
 10
79.961196999999999
 20
523.62484600000005
 30
0.0
 11
79.961196999999999
 21
528.37484400000005
 31
0.0
  0
LINE
  5
366
  8
0
 62
     7
 10
81.961196999999999
 20
523.62484600000005
 30
0.0
 11
79.961196999999999
 21
523.62484600000005
 31
0.0
  0
LINE
  5
367
  8
0
 62
     7
 10
81.961196999999999
 20
544.62484400000005
 30
0.0
 11
79.961196999999999
 21
544.62484400000005
 31
0.0
  0
LINE
  5
368
  8
0
  6
DASHDOT
 62
     7
 10
98.825362999999996
 20
532.62483200000008
 30
0.0
 11
71.634170999999995
 21
532.62483200000008
 31
0.0
  0
LINE
  5
369
  8
0
 62
     7
 10
81.961196999999999
 20
536.72483099999988
 30
0.0
 11
76.961196999999999
 21
536.72483099999988
 31
0.0
  0
LINE
  5
36A
  8
0
 62
     7
 10
81.961196999999999
 20
528.52483399999994
 30
0.0
 11
76.961196999999999
 21
528.52483399999994
 31
0.0
  0
ARC
  5
36B
  8
0
  6
DASHDOT
 62
     7
 10
115.961994
 20
591.62483200000008
 30
0.0
 40
76.044273000000004
 50
337.49231500000002
 51
0.000001
  0
LINE
  5
36C
  8
0
  6
DASHDOT
 62
     7
 10
192.0062639999999
 20
591.62483200000008
 30
0.0
 11
192.0062639999999
 21
597.37503099999992
 31
0.0
  0
LINE
  5
36D
  8
0
 62
     7
 10
81.961196999999999
 20
679.82482900000002
 30
0.0
 11
76.961196999999999
 21
679.82482900000002
 31
0.0
  0
LINE
  5
36E
  8
0
 62
     7
 10
81.961196999999999
 20
671.42483499999992
 30
0.0
 11
76.961196999999999
 21
671.42483499999992
 31
0.0
  0
LINE
  5
36F
  8
0
 62
     7
 10
81.961196999999999
 20
689.12481699999989
 30
0.0
 11
58.961196999999991
 21
689.12481699999989
 31
0.0
  0
LINE
  5
370
  8
0
 62
     7
 10
63.205413999999998
 20
696.76972999999998
 30
0.0
 11
46.388725000000001
 21
699.06291199999998
 31
0.0
  0
LINE
  5
371
  8
0
 62
     1
 10
163.961187
 20
546.86839699999985
 30
0.0
 11
163.961187
 21
548.86839699999985
 31
0.0
  0
LINE
  5
372
  8
0
 62
     1
 10
165.961187
 20
546.86839699999985
 30
0.0
 11
163.961187
 21
546.86839699999985
 31
0.0
  0
LINE
  5
373
  8
0
 62
     1
 10
163.961187
 20
654.86839299999997
 30
0.0
 11
163.961187
 21
656.86839299999986
 31
0.0
  0
LINE
  5
374
  8
0
 62
     1
 10
165.961187
 20
656.86839299999986
 30
0.0
 11
163.961187
 21
656.86839299999986
 31
0.0
  0
LINE
  5
375
  8
0
 62
     1
 10
163.961187
 20
548.86839699999985
 30
0.0
 11
163.961187
 21
654.86839299999997
 31
0.0
  0
LINE
  5
376
  8
0
 62
     1
 10
159.46118799999991
 20
670.44573999999989
 30
0.0
 11
159.46118799999991
 21
675.29104600000005
 31
0.0
  0
LINE
  5
377
  8
0
 62
     1
 10
159.46118799999991
 20
528.44574699999987
 30
0.0
 11
159.46118799999991
 21
533.29104600000005
 31
0.0
  0
LINE
  5
378
  8
0
 62
     1
 10
165.961187
 20
520.36839699999985
 30
0.0
 11
165.961187
 21
683.36839299999986
 31
0.0
  0
LINE
  5
379
  8
0
 62
     1
 10
169.461187
 20
520.36839699999985
 30
0.0
 11
165.961187
 21
520.36839699999985
 31
0.0
  0
LINE
  5
37A
  8
0
 62
     1
 10
169.461187
 20
520.36839299999986
 30
0.0
 11
169.461187
 21
683.36839299999986
 31
0.0
  0
LINE
  5
37B
  8
0
 62
     1
 10
169.461187
 20
683.36839299999986
 30
0.0
 11
168.461187
 21
683.36839299999986
 31
0.0
  0
LINE
  5
37C
  8
0
 62
     1
 10
167.461187
 20
683.36839299999986
 30
0.0
 11
165.961187
 21
683.36839299999986
 31
0.0
  0
LINE
  5
37D
  8
0
 62
     1
 10
165.961187
 20
669.86839299999986
 30
0.0
 11
160.46118799999999
 21
669.86839299999986
 31
0.0
  0
LINE
  5
37E
  8
0
 62
     1
 10
165.961187
 20
675.86839299999997
 30
0.0
 11
160.46118799999999
 21
675.86839299999997
 31
0.0
  0
LINE
  5
37F
  8
0
 62
     1
 10
160.46118799999999
 20
669.86839299999986
 30
0.0
 11
159.46118799999991
 21
670.44573999999989
 31
0.0
  0
LINE
  5
380
  8
0
 62
     1
 10
160.46118799999999
 20
669.86839299999986
 30
0.0
 11
160.46118799999999
 21
670.74707000000001
 31
0.0
  0
LINE
  5
381
  8
0
 62
     1
 10
160.46118799999999
 20
670.74707000000001
 30
0.0
 11
160.46118799999999
 21
671.72035199999993
 31
0.0
  0
LINE
  5
382
  8
0
 62
     1
 10
160.46118799999999
 20
671.72035199999993
 30
0.0
 11
160.46118799999999
 21
672.86839299999986
 31
0.0
  0
LINE
  5
383
  8
0
 62
     1
 10
160.46118799999999
 20
672.86839299999986
 30
0.0
 11
160.46118799999999
 21
674.01644899999985
 31
0.0
  0
LINE
  5
384
  8
0
 62
     1
 10
160.46118799999999
 20
674.01644899999985
 30
0.0
 11
160.46118799999999
 21
675.86839299999997
 31
0.0
  0
LINE
  5
385
  8
0
 62
     1
 10
160.46118799999999
 20
674.98971600000004
 30
0.0
 11
160.46118799999999
 21
675.64003000000002
 31
0.0
  0
LINE
  5
386
  8
0
 62
     1
 10
159.96118799999991
 20
675.64003000000002
 30
0.0
 11
159.96118799999991
 21
675.86839299999997
 31
0.0
  0
LINE
  5
387
  8
0
 62
     1
 10
159.461187
 20
675.29104600000005
 30
0.0
 11
160.461187
 21
675.86839299999997
 31
0.0
  0
LINE
  5
388
  8
0
 62
     1
 10
165.961187
 20
533.86839699999985
 30
0.0
 11
160.46118799999999
 21
533.86839699999985
 31
0.0
  0
LINE
  5
389
  8
0
 62
     1
 10
165.961187
 20
527.86839699999985
 30
0.0
 11
160.46118799999999
 21
527.86839699999985
 31
0.0
  0
LINE
  5
38A
  8
0
 62
     1
 10
159.461187
 20
533.29104600000005
 30
0.0
 11
160.461187
 21
533.86839699999985
 31
0.0
  0
LINE
  5
38B
  8
0
 62
     1
 10
160.46118799999999
 20
532.98971600000004
 30
0.0
 11
160.46118799999999
 21
533.86839699999985
 31
0.0
  0
LINE
  5
38C
  8
0
 62
     1
 10
160.46118799999999
 20
532.01644899999985
 30
0.0
 11
160.46118799999999
 21
532.98971600000004
 31
0.0
  0
LINE
  5
38D
  8
0
 62
     1
 10
160.46118799999999
 20
530.86839699999985
 30
0.0
 11
160.46118799999999
 21
532.01644899999985
 31
0.0
  0
LINE
  5
38E
  8
0
 62
     1
 10
160.46118799999999
 20
529.72034799999994
 30
0.0
 11
160.46118799999999
 21
530.86839699999985
 31
0.0
  0
LINE
  5
38F
  8
0
 62
     1
 10
160.46118799999999
 20
528.74707799999987
 30
0.0
 11
160.46118799999999
 21
529.72034799999994
 31
0.0
  0
LINE
  5
390
  8
0
 62
     1
 10
160.46118799999999
 20
528.09676000000002
 30
0.0
 11
160.46118799999999
 21
528.74707799999987
 31
0.0
  0
LINE
  5
391
  8
0
 62
     1
 10
160.46118799999999
 20
527.86839699999985
 30
0.0
 11
159.46118799999991
 21
528.44574699999987
 31
0.0
  0
LINE
  5
392
  8
0
 62
     1
 10
160.46118799999999
 20
527.86839699999985
 30
0.0
 11
160.46118799999999
 21
528.09676000000002
 31
0.0
  0
LINE
  5
393
  8
0
 62
     1
 10
168.461187
 20
683.36839299999986
 30
0.0
 11
167.461187
 21
683.36839299999986
 31
0.0
  0
LINE
  5
394
  8
0
 62
     7
 10
165.961187
 20
683.36839299999986
 30
0.0
 11
165.961187
 21
726.0675809999999
 31
0.0
  0
LINE
  5
395
  8
0
 62
     7
 10
163.961187
 20
656.86839299999986
 30
0.0
 11
163.961187
 21
669.86839299999986
 31
0.0
  0
LINE
  5
396
  8
0
 62
     7
 10
165.961187
 20
481.40945199999987
 30
0.0
 11
165.961187
 21
520.36839699999985
 31
0.0
  0
LINE
  5
397
  8
0
 62
     7
 10
163.961187
 20
482.60766399999989
 30
0.0
 11
163.961187
 21
527.86839699999985
 31
0.0
  0
LINE
  5
398
  8
0
 62
     7
 10
165.961187
 20
676.36839299999997
 30
0.0
 11
163.961187
 21
676.36839299999997
 31
0.0
  0
LINE
  5
399
  8
0
 62
     7
 10
165.961187
 20
669.36839299999986
 30
0.0
 11
163.961187
 21
669.36839299999986
 31
0.0
  0
LINE
  5
39A
  8
0
 62
     7
 10
165.961187
 20
657.86839299999986
 30
0.0
 11
163.961187
 21
657.86839299999986
 31
0.0
  0
LINE
  5
39B
  8
0
 62
     7
 10
165.961187
 20
545.86839699999996
 30
0.0
 11
163.961187
 21
545.86839699999996
 31
0.0
  0
LINE
  5
39C
  8
0
 62
     7
 10
165.961187
 20
534.36839699999985
 30
0.0
 11
163.961187
 21
534.36839699999985
 31
0.0
  0
LINE
  5
39D
  8
0
 62
     7
 10
165.961187
 20
527.36839699999985
 30
0.0
 11
163.961187
 21
527.36839699999985
 31
0.0
  0
LINE
  5
39E
  8
0
 62
     7
 10
163.961187
 20
533.86839699999985
 30
0.0
 11
163.961187
 21
546.86839699999985
 31
0.0
  0
LINE
  5
39F
  8
0
 62
     7
 10
163.961187
 20
675.86839299999997
 30
0.0
 11
163.961187
 21
727.74774200000002
 31
0.0
  0
POLYLINE
  5
3A0
  8
0
 62
     3
 66
     1
 10
0.0
 20
0.0
 30
0.0
  0
VERTEX
  5
9CA
  8
0
 62
     3
 10
170.000382
 20
722.67434700000001
 30
0.0
  0
VERTEX
  5
9CB
  8
0
 62
     3
 10
162.6815409999999
 20
728.82273899999996
 30
0.0
  0
VERTEX
  5
9CC
  8
0
 62
     3
 10
160.629412
 20
727.93461600000001
 30
0.0
  0
VERTEX
  5
9CD
  8
0
 62
     3
 10
162.436643
 20
731.64054900000008
 30
0.0
  0
VERTEX
  5
9CE
  8
0
 62
     3
 10
160.38451399999991
 20
730.75241100000005
 30
0.0
  0
SEQEND
  5
9CF
  8
0
 62
     3
  0
POLYLINE
  5
3A7
  8
0
 62
     3
 66
     1
 10
0.0
 20
0.0
 30
0.0
  0
VERTEX
  5
9D0
  8
0
 62
     3
 10
171.4084859999999
 20
478.14594399999999
 30
0.0
  0
VERTEX
  5
9D1
  8
0
 62
     3
 10
161.549903
 20
484.052279
 30
0.0
  0
VERTEX
  5
9D2
  8
0
 62
     3
 10
159.664208
 20
482.850548
 30
0.0
  0
VERTEX
  5
9D3
  8
0
 62
     3
 10
160.86210399999999
 20
486.79580399999992
 30
0.0
  0
VERTEX
  5
9D4
  8
0
 62
     3
 10
158.97640999999999
 20
485.59407299999998
 30
0.0
  0
SEQEND
  5
9D5
  8
0
 62
     3
  0
LINE
  5
3AE
  8
0
  6
DASHDOT
 62
     7
 10
192.0062639999999
 20
591.62483200000008
 30
0.0
 11
192.0062639999999
 21
612.68928499999993
 31
0.0
  0
LINE
  5
3AF
  8
0
  6
DASHDOT
 62
   150
 10
219.46654899999999
 20
601.87483200000008
 30
0.0
 11
28.796462999999999
 21
601.87483200000008
 31
0.0
  0
POLYLINE
  5
3B0
  8
0
 62
     3
 66
     1
 10
0.0
 20
0.0
 30
0.0
  0
VERTEX
  5
9D6
  8
0
 62
     3
 10
122.140049
 20
664.90292399999987
 30
0.0
  0
VERTEX
  5
9D7
  8
0
 62
     3
 10
123.890327
 20
680.80690000000004
 30
0.0
  0
VERTEX
  5
9D8
  8
0
 62
     3
 10
122.011723
 20
682.01968399999998
 30
0.0
  0
VERTEX
  5
9D9
  8
0
 62
     3
 10
126.097111
 20
682.57611100000008
 30
0.0
  0
VERTEX
  5
9DA
  8
0
 62
     3
 10
124.218506
 20
683.78889499999991
 30
0.0
  0
VERTEX
  5
9DB
  8
0
 62
     3
 10
125.48085399999999
 20
695.25927699999988
 30
0.0
  0
SEQEND
  5
9DC
  8
0
 62
     3
  0
POLYLINE
  5
3B8
  8
0
 62
     3
 66
     1
 10
0.0
 20
0.0
 30
0.0
  0
VERTEX
  5
9DD
  8
0
 62
     3
 10
94.199141999999995
 20
659.05927999999994
 30
0.0
  0
VERTEX
  5
9DE
  8
0
 62
     3
 10
93.970275999999984
 20
661.91252099999986
 30
0.0
  0
VERTEX
  5
9DF
  8
0
 62
     3
 10
91.896721000000014
 20
662.74940500000002
 30
0.0
  0
VERTEX
  5
9E0
  8
0
 62
     3
 10
95.803954999999988
 20
664.06604000000004
 30
0.0
  0
VERTEX
  5
9E1
  8
0
 62
     3
 10
93.730407999999997
 20
664.90292399999987
 30
0.0
  0
SEQEND
  5
9E2
  8
0
 62
     3
  0
POLYLINE
  5
3BF
  8
0
 62
     3
 66
     1
 10
0.0
 20
0.0
 30
0.0
  0
VERTEX
  5
9E3
  8
0
 62
     3
 10
122.140049
 20
664.90292399999987
 30
0.0
  0
VERTEX
  5
9E4
  8
0
 62
     3
 10
106.140049
 20
664.90292399999987
 30
0.0
  0
VERTEX
  5
9E5
  8
0
 62
     3
 10
105.140049
 20
662.90292399999998
 30
0.0
  0
VERTEX
  5
9E6
  8
0
 62
     3
 10
104.140049
 20
666.90292399999998
 30
0.0
  0
VERTEX
  5
9E7
  8
0
 62
     3
 10
103.140049
 20
664.90292399999987
 30
0.0
  0
VERTEX
  5
9E8
  8
0
 62
     3
 10
93.730400000000003
 20
664.90292399999987
 30
0.0
  0
SEQEND
  5
9E9
  8
0
 62
     3
  0
LINE
  5
3C7
  8
0
 62
     7
 10
76.961196999999999
 20
679.82482900000002
 30
0.0
 11
76.961196999999999
 21
684.62483199999997
 31
0.0
  0
LINE
  5
3C8
  8
0
 62
     3
 10
122.219498
 20
665.62483200000008
 30
0.0
 11
81.961196999999999
 21
665.62483200000008
 31
0.0
  0
LINE
  5
3C9
  8
0
  6
DASHSPACE
 62
     3
 10
81.961196999999999
 20
665.62483200000008
 30
0.0
 11
76.961196999999999
 21
665.62483200000008
 31
0.0
  0
LINE
  5
3CA
  8
0
 62
     1
 10
81.961196999999999
 20
536.62483200000008
 30
0.0
 11
81.961196999999999
 21
541.62483200000008
 31
0.0
  0
LINE
  5
3CB
  8
0
 62
     7
 10
81.961196999999999
 20
541.62483200000008
 30
0.0
 11
81.961196999999999
 21
545.60804000000007
 31
0.0
  0
LINE
  5
3CC
  8
0
  6
DASHDOT
 62
    31
 10
64.605903999999995
 20
673.62483200000008
 30
0.0
 11
39.956802000000003
 21
673.62483200000008
 31
0.0
  0
LINE
  5
3CD
  8
0
 62
     7
 10
53.961196999999991
 20
677.62483199999997
 30
0.0
 11
49.961196999999999
 21
677.62483199999997
 31
0.0
  0
LINE
  5
3CE
  8
0
 62
     7
 10
53.961196999999991
 20
669.62483200000008
 30
0.0
 11
49.961196999999999
 21
669.62483200000008
 31
0.0
  0
LINE
  5
3CF
  8
0
 62
     7
 10
49.961196999999999
 20
669.62483200000008
 30
0.0
 11
49.961196999999999
 21
677.62483199999997
 31
0.0
  0
LINE
  5
3D0
  8
0
 62
     7
 10
45.961196999999999
 20
671.12483200000008
 30
0.0
 11
45.961196999999999
 21
676.12483199999997
 31
0.0
  0
LINE
  5
3D1
  8
0
 62
     7
 10
53.961196999999991
 20
676.12483199999997
 30
0.0
 11
45.961196999999999
 21
676.12483199999997
 31
0.0
  0
LINE
  5
3D2
  8
0
 62
     7
 10
53.961196999999991
 20
671.12483200000008
 30
0.0
 11
45.961196999999999
 21
671.12483200000008
 31
0.0
  0
LINE
  5
3D3
  8
0
 62
     7
 10
53.961196999999991
 20
538.62483199999997
 30
0.0
 11
49.961196999999999
 21
538.62483199999997
 31
0.0
  0
LINE
  5
3D4
  8
0
 62
     7
 10
53.961196999999991
 20
537.12483200000008
 30
0.0
 11
45.961196999999999
 21
537.12483200000008
 31
0.0
  0
LINE
  5
3D5
  8
0
 62
     7
 10
53.961196999999991
 20
532.12483200000008
 30
0.0
 11
45.961196999999999
 21
532.12483200000008
 31
0.0
  0
LINE
  5
3D6
  8
0
 62
     7
 10
53.961196999999991
 20
530.62483199999997
 30
0.0
 11
49.961196999999999
 21
530.62483199999997
 31
0.0
  0
LINE
  5
3D7
  8
0
  6
DASHDOT
 62
    31
 10
64.605903999999995
 20
534.62483199999997
 30
0.0
 11
39.956802000000003
 21
534.62483199999997
 31
0.0
  0
LINE
  5
3D8
  8
0
 62
     7
 10
49.961196999999999
 20
530.62483199999997
 30
0.0
 11
49.961196999999999
 21
538.62483199999997
 31
0.0
  0
LINE
  5
3D9
  8
0
 62
     7
 10
45.961196999999999
 20
532.12483200000008
 30
0.0
 11
45.961196999999999
 21
537.12483200000008
 31
0.0
  0
CIRCLE
  5
3DA
  8
0
 62
     7
 10
51.477576999999997
 20
672.09193400000004
 30
0.0
 40
0.2
  0
LINE
  5
3DB
  8
0
 62
     7
 10
81.961196999999999
 20
536.61263699999995
 30
0.0
 11
81.961196999999999
 21
542.12443499999995
 31
0.0
  0
LINE
  5
3DC
  8
0
  6
DASHDOT
 62
     7
 10
96.439198000000005
 20
520.12523499999986
 30
0.0
 11
96.439198000000005
 21
545.12443499999995
 31
0.0
  0
LINE
  5
3DD
  8
0
  6
DASHDOT
 62
     7
 10
91.953040999999985
 20
532.62483600000007
 30
0.0
 11
78.961196999999984
 21
532.62483600000007
 31
0.0
  0
LINE
  5
3DE
  8
0
  6
DASHDOT
 62
     7
 10
120.0639989999999
 20
532.62483600000007
 30
0.0
 11
96.920524999999998
 21
532.62483600000007
 31
0.0
  0
LINE
  5
3DF
  8
0
 62
   150
 10
116.301998
 20
668.48107900000002
 30
0.0
 11
103.357563
 21
668.48107900000002
 31
0.0
  0
LINE
  5
3E0
  8
0
 62
     7
 10
116.301998
 20
669.28108199999997
 30
0.0
 11
103.357563
 21
669.28108199999997
 31
0.0
  0
LINE
  5
3E1
  8
0
 62
   150
 10
116.301998
 20
668.48107900000002
 30
0.0
 11
116.301998
 21
682.76858499999992
 31
0.0
  0
LINE
  5
3E2
  8
0
 62
   150
 10
116.301998
 20
668.48107900000002
 30
0.0
 11
117.0639989999999
 21
669.24307299999998
 31
0.0
  0
LINE
  5
3E3
  8
0
 62
   150
 10
117.0639989999999
 20
669.24307299999998
 30
0.0
 11
117.0639989999999
 21
682.00657699999999
 31
0.0
  0
LINE
  5
3E4
  8
0
 62
   150
 10
117.0639989999999
 20
682.00657699999999
 30
0.0
 11
116.301998
 21
682.76858499999992
 31
0.0
  0
LINE
  5
3E5
  8
0
 62
   150
 10
116.301998
 20
682.76858499999992
 30
0.0
 11
103.357563
 21
682.76858499999992
 31
0.0
  0
LINE
  5
3E6
  8
0
 62
   150
 10
103.357563
 20
668.48107900000002
 30
0.0
 11
103.357563
 21
682.76858499999992
 31
0.0
  0
LINE
  5
3E7
  8
0
 62
   150
 10
99.920524999999984
 20
676.81545999999992
 30
0.0
 11
103.357563
 21
682.76858499999992
 31
0.0
  0
ARC
  5
3E8
  8
0
 62
   150
 10
101.9827499999999
 20
675.62483199999997
 30
0.0
 40
2.3812500000000001
 50
150.00000299999991
 51
210.00000299999991
  0
LINE
  5
3E9
  8
0
 62
   150
 10
103.357563
 20
668.48107900000002
 30
0.0
 11
99.920524999999984
 21
674.43420400000002
 31
0.0
  0
LINE
  5
3EA
  8
0
 62
     7
 10
109.444
 20
666.12522899999999
 30
0.0
 11
109.444
 21
668.48107900000002
 31
0.0
  0
LINE
  5
3EB
  8
0
 62
     7
 10
109.444
 20
666.12522899999999
 30
0.0
 11
104.9482
 21
666.12522899999999
 31
0.0
  0
LINE
  5
3EC
  8
0
 62
     7
 10
104.9482
 20
666.12522899999999
 30
0.0
 11
104.9482
 21
668.48107900000002
 31
0.0
  0
LINE
  5
3ED
  8
0
 62
     7
 10
109.444
 20
682.76858499999992
 30
0.0
 11
109.444
 21
685.12443499999995
 31
0.0
  0
LINE
  5
3EE
  8
0
 62
     7
 10
109.444
 20
685.12443499999995
 30
0.0
 11
104.9482
 21
685.12443499999995
 31
0.0
  0
LINE
  5
3EF
  8
0
 62
     7
 10
104.9482
 20
682.76858499999992
 30
0.0
 11
104.9482
 21
685.12443499999995
 31
0.0
  0
LINE
  5
3F0
  8
0
  6
DASHDOT
 62
     7
 10
96.439198000000005
 20
663.12522899999988
 30
0.0
 11
96.439198000000005
 21
688.12443499999995
 31
0.0
  0
LINE
  5
3F1
  8
0
 62
     7
 10
87.930199000000002
 20
679.61239599999999
 30
0.0
 11
87.930199000000002
 21
685.12443499999995
 31
0.0
  0
POLYLINE
  5
3F2
  8
0
 62
     7
 66
     1
 10
0.0
 20
0.0
 30
0.0
  0
VERTEX
  5
9EA
  8
0
 62
     7
 10
87.930199000000002
 20
679.61262499999998
 30
0.0
  0
VERTEX
  5
9EB
  8
0
 62
     7
 10
87.930190999999994
 20
679.61264000000006
 30
0.0
  0
VERTEX
  5
9EC
  8
0
 62
     7
 10
87.930176000000003
 20
679.61262499999998
 30
0.0
  0
VERTEX
  5
9ED
  8
0
 62
     7
 10
87.930176000000003
 20
679.61261000000002
 30
0.0
  0
VERTEX
  5
9EE
  8
0
 62
     7
 10
87.930260000000004
 20
679.61234999999999
 30
0.0
  0
VERTEX
  5
9EF
  8
0
 62
     7
 10
87.930915999999996
 20
679.61077899999987
 30
0.0
  0
VERTEX
  5
9F0
  8
0
 62
     7
 10
87.936988999999997
 20
679.59751900000003
 30
0.0
  0
VERTEX
  5
9F1
  8
0
 62
     7
 10
87.970694999999992
 20
679.52488700000004
 30
0.0
  0
VERTEX
  5
9F2
  8
0
 62
     7
 10
88.069901000000002
 20
679.30487100000005
 30
0.0
  0
VERTEX
  5
9F3
  8
0
 62
     7
 10
88.214561000000003
 20
678.96293600000001
 30
0.0
  0
VERTEX
  5
9F4
  8
0
 62
     7
 10
88.275841000000014
 20
678.80908199999988
 30
0.0
  0
VERTEX
  5
9F5
  8
0
 62
     7
 10
88.339973000000001
 20
678.64112899999998
 30
0.0
  0
VERTEX
  5
9F6
  8
0
 62
     7
 10
88.393668999999989
 20
678.49410999999998
 30
0.0
  0
VERTEX
  5
9F7
  8
0
 62
     7
 10
88.447952000000001
 20
678.33856200000002
 30
0.0
  0
VERTEX
  5
9F8
  8
0
 62
     7
 10
88.494904000000005
 20
678.19738799999993
 30
0.0
  0
VERTEX
  5
9F9
  8
0
 62
     7
 10
88.541381999999984
 20
678.05039999999985
 30
0.0
  0
VERTEX
  5
9FA
  8
0
 62
     7
 10
88.599311999999998
 20
677.854736
 30
0.0
  0
VERTEX
  5
9FB
  8
0
 62
     7
 10
88.635840999999999
 20
677.72245799999985
 30
0.0
  0
VERTEX
  5
9FC
  8
0
 62
     7
 10
88.671097000000003
 20
677.58674599999995
 30
0.0
  0
VERTEX
  5
9FD
  8
0
 62
     7
 10
88.702965000000006
 20
677.45578
 30
0.0
  0
VERTEX
  5
9FE
  8
0
 62
     7
 10
88.733329999999995
 20
677.32205199999987
 30
0.0
  0
VERTEX
  5
9FF
  8
0
 62
     7
 10
88.760756999999984
 20
677.191956
 30
0.0
  0
VERTEX
  5
A00
  8
0
 62
     7
 10
88.786513999999997
 20
677.059662
 30
0.0
  0
VERTEX
  5
A01
  8
0
 62
     7
 10
88.809585999999996
 20
676.93040499999995
 30
0.0
  0
VERTEX
  5
A02
  8
0
 62
     7
 10
88.830856000000011
 20
676.79939300000001
 30
0.0
  0
VERTEX
  5
A03
  8
0
 62
     7
 10
88.849609000000015
 20
676.67115799999988
 30
0.0
  0
VERTEX
  5
A04
  8
0
 62
     7
 10
88.866462999999996
 20
676.54156499999999
 30
0.0
  0
VERTEX
  5
A05
  8
0
 62
     7
 10
88.880919999999975
 20
676.41464199999984
 30
0.0
  0
VERTEX
  5
A06
  8
0
 62
     7
 10
88.893417000000014
 20
676.28672800000004
 30
0.0
  0
VERTEX
  5
A07
  8
0
 62
     7
 10
88.903603000000004
 20
676.16148399999997
 30
0.0
  0
VERTEX
  5
A08
  8
0
 62
     7
 10
88.911781000000005
 20
676.03558299999986
 30
0.0
  0
VERTEX
  5
A09
  8
0
 62
     7
 10
88.917746999999991
 20
675.9124599999999
 30
0.0
  0
VERTEX
  5
A0A
  8
0
 62
     7
 10
88.921676999999988
 20
675.78898600000002
 30
0.0
  0
VERTEX
  5
A0B
  8
0
 62
     7
 10
88.923454000000007
 20
675.57138099999986
 30
0.0
  0
VERTEX
  5
A0C
  8
0
 62
     7
 10
88.917823999999996
 20
675.33578499999999
 30
0.0
  0
VERTEX
  5
A0D
  8
0
 62
     7
 10
88.904189999999986
 20
675.09477199999992
 30
0.0
  0
VERTEX
  5
A0E
  8
0
 62
     7
 10
88.882446000000002
 20
674.84930399999985
 30
0.0
  0
VERTEX
  5
A0F
  8
0
 62
     7
 10
88.852530999999985
 20
674.60037199999999
 30
0.0
  0
VERTEX
  5
A10
  8
0
 62
     7
 10
88.814444999999978
 20
674.34893799999986
 30
0.0
  0
VERTEX
  5
A11
  8
0
 62
     7
 10
88.768256999999991
 20
674.09594699999991
 30
0.0
  0
VERTEX
  5
A12
  8
0
 62
     7
 10
88.714066000000003
 20
673.84223899999995
 30
0.0
  0
VERTEX
  5
A13
  8
0
 62
     7
 10
88.651993000000004
 20
673.58854699999995
 30
0.0
  0
VERTEX
  5
A14
  8
0
 62
     7
 10
88.599518000000003
 20
673.39565999999991
 30
0.0
  0
VERTEX
  5
A15
  8
0
 62
     7
 10
88.523871999999997
 20
673.14282200000002
 30
0.0
  0
VERTEX
  5
A16
  8
0
 62
     7
 10
88.438721000000001
 20
672.88394200000005
 30
0.0
  0
VERTEX
  5
A17
  8
0
 62
     7
 10
88.344322000000005
 20
672.62010199999986
 30
0.0
  0
VERTEX
  5
A18
  8
0
 62
     7
 10
88.241469999999993
 20
672.35348499999998
 30
0.0
  0
VERTEX
  5
A19
  8
0
 62
     7
 10
88.132239999999996
 20
672.0888369999999
 30
0.0
  0
VERTEX
  5
A1A
  8
0
 62
     7
 10
88.022445999999988
 20
671.83827199999996
 30
0.0
  0
VERTEX
  5
A1B
  8
0
 62
     7
 10
87.935631000000001
 20
671.64921600000002
 30
0.0
  0
VERTEX
  5
A1C
  8
0
 62
     7
 10
87.930199000000002
 20
671.63702399999988
 30
0.0
  0
SEQEND
  5
A1D
  8
0
 62
     7
  0
LINE
  5
427
  8
0
 62
     7
 10
87.930199000000002
 20
666.12522899999999
 30
0.0
 11
87.930199000000002
 21
671.63702399999988
 31
0.0
  0
LINE
  5
428
  8
0
 62
     7
 10
104.9482
 20
666.12522899999999
 30
0.0
 11
81.961196999999999
 21
666.12522899999999
 31
0.0
  0
LINE
  5
429
  8
0
 62
     7
 10
104.9482
 20
685.12443499999995
 30
0.0
 11
81.961196999999999
 21
685.12443499999995
 31
0.0
  0
LINE
  5
42A
  8
0
 62
     1
 10
87.430199000000002
 20
671.63702399999988
 30
0.0
 11
87.930199000000002
 21
672.13702399999988
 31
0.0
  0
LINE
  5
42B
  8
0
 62
     1
 10
87.930199000000002
 20
672.13702399999988
 30
0.0
 11
87.930199000000002
 21
679.137024
 31
0.0
  0
LINE
  5
42C
  8
0
 62
     1
 10
87.430199000000002
 20
671.62483199999997
 30
0.0
 11
87.430199000000002
 21
679.62483200000008
 31
0.0
  0
LINE
  5
42D
  8
0
 62
     1
 10
87.430199000000002
 20
672.12483199999997
 30
0.0
 11
78.961196999999984
 21
672.12483199999997
 31
0.0
  0
LINE
  5
42E
  8
0
 62
     1
 10
87.430199000000002
 20
679.12483200000008
 30
0.0
 11
78.961196999999984
 21
679.12483200000008
 31
0.0
  0
LINE
  5
42F
  8
0
 62
     1
 10
78.961196999999984
 20
671.62483199999997
 30
0.0
 11
78.961196999999984
 21
679.62483200000008
 31
0.0
  0
LINE
  5
430
  8
0
 62
     1
 10
76.961196999999999
 20
683.62483200000008
 30
0.0
 11
75.961196999999999
 21
683.62483200000008
 31
0.0
  0
LINE
  5
431
  8
0
 62
     1
 10
75.961196999999999
 20
667.62483199999997
 30
0.0
 11
75.961196999999999
 21
683.62483200000008
 31
0.0
  0
LINE
  5
432
  8
0
 62
     1
 10
75.961196999999999
 20
682.12483200000008
 30
0.0
 11
73.261191999999994
 21
682.12483200000008
 31
0.0
  0
LINE
  5
433
  8
0
 62
     1
 10
73.261191999999994
 20
669.12483199999997
 30
0.0
 11
73.261191999999994
 21
682.12483200000008
 31
0.0
  0
LINE
  5
434
  8
0
 62
     1
 10
72.961196999999999
 20
669.42483499999992
 30
0.0
 11
72.961196999999999
 21
681.82482900000002
 31
0.0
  0
LINE
  5
435
  8
0
 62
     1
 10
72.961196999999999
 20
681.82482900000002
 30
0.0
 11
73.261191999999994
 21
682.12483200000008
 31
0.0
  0
LINE
  5
436
  8
0
 62
     1
 10
75.961196999999999
 20
669.12483199999997
 30
0.0
 11
73.261191999999994
 21
669.12483199999997
 31
0.0
  0
LINE
  5
437
  8
0
 62
     1
 10
76.961196999999999
 20
667.62483199999997
 30
0.0
 11
75.961196999999999
 21
667.62483199999997
 31
0.0
  0
LINE
  5
438
  8
0
 62
     1
 10
73.261191999999994
 20
669.12483199999997
 30
0.0
 11
72.961196999999999
 21
669.42483499999992
 31
0.0
  0
LINE
  5
439
  8
0
 62
     7
 10
87.930199000000002
 20
679.61262499999998
 30
0.0
 11
81.961196999999999
 21
679.61262499999998
 31
0.0
  0
LINE
  5
43A
  8
0
 62
     7
 10
87.930199000000002
 20
671.63702399999988
 30
0.0
 11
81.961196999999999
 21
671.63702399999988
 31
0.0
  0
LINE
  5
43B
  8
0
 62
     1
 10
87.430199000000002
 20
671.62483199999997
 30
0.0
 11
76.961196999999999
 21
671.62483199999997
 31
0.0
  0
LINE
  5
43C
  8
0
 62
     1
 10
87.430199000000002
 20
679.62483200000008
 30
0.0
 11
76.961196999999999
 21
679.62483200000008
 31
0.0
  0
LINE
  5
43D
  8
0
 62
     1
 10
76.961196999999999
 20
667.62483199999997
 30
0.0
 11
76.961196999999999
 21
683.62483200000008
 31
0.0
  0
LINE
  5
43E
  8
0
 62
     7
 10
81.961196999999999
 20
679.62483200000008
 30
0.0
 11
81.961196999999999
 21
685.12443499999995
 31
0.0
  0
LINE
  5
43F
  8
0
 62
     7
 10
87.930199000000002
 20
679.137024
 30
0.0
 11
87.430199000000002
 21
679.62483200000008
 31
0.0
  0
LINE
  5
440
  8
0
 62
     7
 10
116.301998
 20
681.96858200000008
 30
0.0
 11
103.357563
 21
681.96858200000008
 31
0.0
  0
LINE
  5
441
  8
0
 62
   211
 10
132.96119699999991
 20
517.62484699999993
 30
0.0
 11
96.161197999999985
 21
517.62484699999993
 31
0.0
  0
LINE
  5
442
  8
0
 62
   211
 10
132.96119699999991
 20
499.12484599999999
 30
0.0
 11
132.96119699999991
 21
519.12484699999993
 31
0.0
  0
LINE
  5
443
  8
0
 62
   211
 10
132.96119699999991
 20
499.12484599999999
 30
0.0
 11
96.085269999999994
 21
499.12484599999999
 31
0.0
  0
LINE
  5
444
  8
0
 62
   211
 10
58.961196999999991
 20
499.12484599999999
 30
0.0
 11
58.961196999999991
 21
519.12484699999993
 31
0.0
  0
LINE
  5
445
  8
0
 62
   211
 10
132.96119699999991
 20
519.12484699999993
 30
0.0
 11
94.361198000000002
 21
519.12484699999993
 31
0.0
  0
LINE
  5
446
  8
0
 62
   211
 10
80.237121999999999
 20
499.12484599999999
 30
0.0
 11
58.961196999999991
 21
499.12484599999999
 31
0.0
  0
LINE
  5
447
  8
0
 62
   211
 10
80.161193999999995
 20
517.62484699999993
 30
0.0
 11
58.961196999999991
 21
517.62484699999993
 31
0.0
  0
LINE
  5
448
  8
0
 62
   211
 10
81.961196999999999
 20
519.12484699999993
 30
0.0
 11
58.961196999999991
 21
519.12484699999993
 31
0.0
  0
LINE
  5
449
  8
0
 62
     7
 10
188.68611100000001
 20
665.62483200000008
 30
0.0
 11
187.64424099999991
 21
659.71598800000004
 31
0.0
  0
LINE
  5
44A
  8
0
 62
     7
 10
188.68611100000001
 20
665.62483200000008
 30
0.0
 11
189.72801199999989
 21
659.71598800000004
 31
0.0
  0
LINE
  5
44B
  8
0
 62
     7
 10
188.68611100000001
 20
675.62483199999997
 30
0.0
 11
189.72801199999989
 21
681.53367600000001
 31
0.0
  0
LINE
  5
44C
  8
0
 62
     7
 10
188.68611100000001
 20
675.62483199999997
 30
0.0
 11
187.64424099999991
 21
681.53367600000001
 31
0.0
  0
LINE
  5
44D
  8
0
 62
     7
 10
188.68611100000001
 20
665.42953499999987
 30
0.0
 11
188.68611100000001
 21
676.42953499999999
 31
0.0
  0
LINE
  5
44E
  8
0
 62
     7
 10
192.68611100000001
 20
665.62483200000008
 30
0.0
 11
93.860489000000001
 21
665.62483200000008
 31
0.0
  0
LINE
  5
44F
  8
0
 62
     7
 10
192.68611100000001
 20
675.62483199999997
 30
0.0
 11
120.710205
 21
675.62483199999997
 31
0.0
  0
LINE
  5
450
  8
0
 62
     7
 10
213.3042759999999
 20
549.37483199999997
 30
0.0
 11
214.346146
 21
555.2836759999999
 31
0.0
  0
LINE
  5
451
  8
0
 62
     7
 10
213.3042759999999
 20
549.37483199999997
 30
0.0
 11
212.26237499999991
 21
555.2836759999999
 31
0.0
  0
LINE
  5
452
  8
0
 62
     7
 10
213.3042759999999
 20
654.37483199999997
 30
0.0
 11
212.26237499999991
 21
648.46598800000004
 31
0.0
  0
LINE
  5
453
  8
0
 62
     7
 10
213.3042759999999
 20
654.37483199999997
 30
0.0
 11
214.34617600000001
 21
648.46598800000004
 31
0.0
  0
LINE
  5
454
  8
0
 62
     7
 10
213.3042759999999
 20
549.37483199999997
 30
0.0
 11
213.3042759999999
 21
654.37483199999997
 31
0.0
  0
LINE
  5
455
  8
0
 62
     7
 10
217.3042759999999
 20
549.37483199999997
 30
0.0
 11
163.96119699999991
 21
549.37483199999997
 31
0.0
  0
LINE
  5
456
  8
0
 62
     7
 10
217.3042759999999
 20
654.37483199999997
 30
0.0
 11
163.96119699999991
 21
654.37483199999997
 31
0.0
  0
LINE
  5
457
  8
0
 62
     7
 10
-16.253052
 20
532.62483200000008
 30
0.0
 11
-15.211166
 21
538.53367600000001
 31
0.0
  0
LINE
  5
458
  8
0
 62
     7
 10
-16.253052
 20
532.62483200000008
 30
0.0
 11
-17.294937000000001
 21
538.53367600000001
 31
0.0
  0
LINE
  5
459
  8
0
 62
     7
 10
-16.253052
 20
675.62483199999997
 30
0.0
 11
-17.294937000000001
 21
669.71598800000004
 31
0.0
  0
LINE
  5
45A
  8
0
 62
     7
 10
-16.253052
 20
675.62483199999997
 30
0.0
 11
-15.211166
 21
669.71598800000004
 31
0.0
  0
LINE
  5
45B
  8
0
 62
     7
 10
-16.253052
 20
532.62483200000008
 30
0.0
 11
-16.253052
 21
675.62483199999997
 31
0.0
  0
LINE
  5
45C
  8
0
 62
     7
 10
-20.253052
 20
532.62483200000008
 30
0.0
 11
71.634170999999995
 21
532.62483999999995
 31
0.0
  0
LINE
  5
45D
  8
0
 62
     7
 10
-20.253052
 20
675.62483199999997
 30
0.0
 11
71.634170999999995
 21
675.62483199999997
 31
0.0
  0
LINE
  5
45E
  8
0
 62
     7
 10
160.46250900000001
 20
432.37901299999987
 30
0.0
 11
154.553665
 21
433.42089800000002
 31
0.0
  0
LINE
  5
45F
  8
0
 62
     7
 10
160.46250900000001
 20
432.37901299999987
 30
0.0
 11
154.553665
 21
431.33711199999999
 31
0.0
  0
LINE
  5
460
  8
0
 62
     7
 10
56.961196999999999
 20
432.37904400000002
 30
0.0
 11
62.870041000000001
 21
431.33714300000003
 31
0.0
  0
LINE
  5
461
  8
0
 62
     7
 10
56.961196999999999
 20
432.37904400000002
 30
0.0
 11
62.870041000000001
 21
433.420929
 31
0.0
  0
LINE
  5
462
  8
0
 62
     7
 10
53.961196999999991
 20
432.37904400000002
 30
0.0
 11
48.052352999999997
 21
433.420929
 31
0.0
  0
LINE
  5
463
  8
0
 62
     7
 10
53.961196999999991
 20
432.37904400000002
 30
0.0
 11
48.052352999999997
 21
431.33714300000003
 31
0.0
  0
LINE
  5
464
  8
0
 62
     7
 10
160.46250900000001
 20
432.37901299999987
 30
0.0
 11
36.961196999999999
 21
432.37904400000002
 31
0.0
  0
LINE
  5
465
  8
0
 62
     7
 10
160.46250900000001
 20
428.37901299999987
 30
0.0
 11
160.4625399999999
 21
549.37483199999997
 31
0.0
  0
LINE
  5
466
  8
0
 62
     7
 10
56.961196999999999
 20
428.37904400000002
 30
0.0
 11
56.961212000000003
 21
463.81161500000002
 31
0.0
  0
LINE
  5
467
  8
0
 62
     7
 10
53.961196999999991
 20
428.37904400000002
 30
0.0
 11
53.961211999999989
 21
463.93406700000003
 31
0.0
  0
LINE
  5
468
  8
0
 62
     7
 10
192.006271
 20
403.15664700000002
 30
0.0
 11
186.0974269999999
 21
404.198532
 31
0.0
  0
LINE
  5
469
  8
0
 62
     7
 10
192.006271
 20
403.15664700000002
 30
0.0
 11
186.0974269999999
 21
402.11476099999987
 31
0.0
  0
LINE
  5
46A
  8
0
 62
     7
 10
56.961196999999999
 20
403.156631
 30
0.0
 11
62.870041000000001
 21
402.11474599999991
 31
0.0
  0
LINE
  5
46B
  8
0
 62
     7
 10
56.961196999999999
 20
403.156631
 30
0.0
 11
62.870041000000001
 21
404.198532
 31
0.0
  0
LINE
  5
46C
  8
0
 62
     7
 10
192.006271
 20
403.15664700000002
 30
0.0
 11
56.961196999999999
 21
403.15664700000002
 31
0.0
  0
LINE
  5
46D
  8
0
 62
     7
 10
192.006271
 20
399.15664700000002
 30
0.0
 11
192.0062409999999
 21
591.62483200000008
 31
0.0
  0
LINE
  5
46E
  8
0
 62
     7
 10
56.961196999999999
 20
399.15663099999989
 30
0.0
 11
56.961181999999987
 21
463.81156900000002
 31
0.0
  0
LINE
  5
46F
  8
0
 62
     7
 10
165.961197
 20
418.39604200000002
 30
0.0
 11
171.8700409999999
 21
417.35415599999999
 31
0.0
  0
LINE
  5
470
  8
0
 62
     7
 10
165.961197
 20
418.39604200000002
 30
0.0
 11
171.8700409999999
 21
419.4379429999999
 31
0.0
  0
LINE
  5
471
  8
0
 62
     7
 10
163.96119699999991
 20
418.39604200000002
 30
0.0
 11
158.05235300000001
 21
419.4379429999999
 31
0.0
  0
LINE
  5
472
  8
0
 62
     7
 10
163.96119699999991
 20
418.39604200000002
 30
0.0
 11
158.05235300000001
 21
417.35415599999999
 31
0.0
  0
LINE
  5
473
  8
0
 62
     7
 10
56.961196999999999
 20
418.39604200000002
 30
0.0
 11
62.870041000000001
 21
417.35415599999999
 31
0.0
  0
LINE
  5
474
  8
0
 62
     7
 10
56.961196999999999
 20
418.39604200000002
 30
0.0
 11
62.870041000000001
 21
419.43792699999989
 31
0.0
  0
LINE
  5
475
  8
0
 62
     7
 10
177.461197
 20
418.39605699999993
 30
0.0
 11
56.961196999999999
 21
418.39604200000002
 31
0.0
  0
LINE
  5
476
  8
0
 62
     7
 10
165.961197
 20
414.39604199999991
 30
0.0
 11
165.961197
 21
481.40945399999998
 31
0.0
  0
LINE
  5
477
  8
0
 62
     7
 10
163.96119699999991
 20
414.39604199999991
 30
0.0
 11
163.96119699999991
 21
482.60766599999999
 31
0.0
  0
LINE
  5
478
  8
0
 62
     7
 10
56.961196999999999
 20
414.39604199999991
 30
0.0
 11
56.961196999999999
 21
463.81156900000002
 31
0.0
  0
LINE
  5
479
  8
0
 62
     7
 10
-0.9441069999999999
 20
601.87483200000008
 30
0.0
 11
0.097778
 21
607.78367600000001
 31
0.0
  0
LINE
  5
47A
  8
0
 62
     7
 10
-0.9441069999999999
 20
601.87483200000008
 30
0.0
 11
-1.9859919999999991
 21
607.78367600000001
 31
0.0
  0
LINE
  5
47B
  8
0
 62
     7
 10
-0.9441069999999999
 20
675.62483199999997
 30
0.0
 11
-1.9859919999999991
 21
669.71598800000004
 31
0.0
  0
LINE
  5
47C
  8
0
 62
     7
 10
-0.9441069999999999
 20
675.62483199999997
 30
0.0
 11
0.097778
 21
669.71598800000004
 31
0.0
  0
LINE
  5
47D
  8
0
 62
     7
 10
-0.9441069999999999
 20
601.87483200000008
 30
0.0
 11
-0.9441069999999999
 21
675.62483199999997
 31
0.0
  0
LINE
  5
47E
  8
0
 62
     7
 10
-4.9441069999999989
 20
601.87483200000008
 30
0.0
 11
28.796462999999999
 21
601.87483200000008
 31
0.0
  0
LINE
  5
47F
  8
0
 62
     7
 10
-4.9441069999999989
 20
675.62483199999997
 30
0.0
 11
71.634170999999995
 21
675.62483199999997
 31
0.0
  0
LINE
  5
480
  8
0
 62
     7
 10
-4.0555570000000003
 20
519.12483199999997
 30
0.0
 11
-5.0974430000000002
 21
513.21598800000004
 31
0.0
  0
LINE
  5
481
  8
0
 62
     7
 10
-4.0555570000000003
 20
519.12483199999997
 30
0.0
 11
-3.0136720000000001
 21
513.21598800000004
 31
0.0
  0
LINE
  5
482
  8
0
 62
     7
 10
-4.0555570000000003
 20
532.62483200000008
 30
0.0
 11
-3.0136720000000001
 21
538.53367600000001
 31
0.0
  0
LINE
  5
483
  8
0
 62
     7
 10
-4.0555570000000003
 20
532.62483200000008
 30
0.0
 11
-5.0974430000000002
 21
538.53367600000001
 31
0.0
  0
LINE
  5
484
  8
0
 62
     7
 10
-4.0555570000000003
 20
491.12483200000003
 30
0.0
 11
-4.0555570000000003
 21
532.62483200000008
 31
0.0
  0
LINE
  5
485
  8
0
 62
     7
 10
-8.0555570000000003
 20
519.12483199999997
 30
0.0
 11
66.915694999999985
 21
519.12483199999997
 31
0.0
  0
LINE
  5
486
  8
0
 62
     7
 10
-8.0555570000000003
 20
532.62483200000008
 30
0.0
 11
71.634170999999995
 21
532.62483200000008
 31
0.0
  0
INSERT
  5
833
  8
0
  2
BLOCK0
 10
-172.269419
 20
591.62480700000003
 30
0.0
 50
90.0
  0
INSERT
  5
834
  8
0
  2
BLOCK1
 10
-172.269419
 20
591.62480700000003
 30
0.0
 50
90.0
  0
INSERT
  5
835
  8
0
  2
BLOCK2
 10
-172.269419
 20
591.62480700000003
 30
0.0
 50
90.0
  0
INSERT
  5
836
  8
0
  2
BLOCK3
 10
-172.269419
 20
591.62480700000003
 30
0.0
 50
90.0
  0
INSERT
  5
837
  8
0
  2
BLOCK4
 10
-172.269419
 20
591.62480700000003
 30
0.0
 50
90.0
  0
INSERT
  5
838
  8
0
  2
BLOCK5
 10
-172.269419
 20
591.62480700000003
 30
0.0
 50
90.0
  0
INSERT
  5
839
  8
0
  2
BLOCK6
 10
-172.269419
 20
591.62480700000003
 30
0.0
 50
90.0
  0
INSERT
  5
83A
  8
0
  2
BLOCK7
 10
-172.269419
 20
591.62480700000003
 30
0.0
 50
90.0
  0
INSERT
  5
83B
  8
0
  2
BLOCK8
 10
-172.269419
 20
591.62480700000003
 30
0.0
 50
90.0
  0
INSERT
  5
83C
  8
0
  2
BLOCK9
 10
-172.269419
 20
591.62480700000003
 30
0.0
 50
90.0
  0
INSERT
  5
83D
  8
0
  2
BLOCK10
 10
-172.269419
 20
591.62480700000003
 30
0.0
 50
90.0
  0
INSERT
  5
83E
  8
0
  2
BLOCK11
 10
-172.269419
 20
591.62480700000003
 30
0.0
 50
90.0
  0
INSERT
  5
83F
  8
0
  2
BLOCK12
 10
-172.269419
 20
591.62480700000003
 30
0.0
 50
90.0
  0
INSERT
  5
840
  8
0
  2
BLOCK13
 10
-172.269419
 20
591.62480700000003
 30
0.0
 50
90.0
  0
INSERT
  5
841
  8
0
  2
BLOCK14
 10
-172.269419
 20
591.62480700000003
 30
0.0
 50
90.0
  0
INSERT
  5
842
  8
0
  2
BLOCK15
 10
-214.26464799999991
 20
320.78475200000003
 30
0.0
 50
180.0
  0
INSERT
  5
843
  8
0
  2
BLOCK16
 10
-214.26464799999991
 20
320.78475200000003
 30
0.0
 50
180.0
  0
INSERT
  5
844
  8
0
  2
BLOCK17
 10
-214.26464799999991
 20
320.78475200000003
 30
0.0
 50
180.0
  0
INSERT
  5
845
  8
0
  2
BLOCK18
 10
-214.26464799999991
 20
320.78475200000003
 30
0.0
 50
180.0
  0
INSERT
  5
846
  8
0
  2
BLOCK19
 10
-214.26464799999991
 20
320.78475200000003
 30
0.0
 50
180.0
  0
INSERT
  5
847
  8
0
  2
BLOCK20
 10
396.27951000000002
 20
604.12483200000008
 30
0.0
 50
180.0
  0
INSERT
  5
848
  8
0
  2
BLOCK21
 10
396.27951000000002
 20
604.12483200000008
 30
0.0
 50
180.0
  0
INSERT
  5
849
  8
0
  2
BLOCK22
 10
396.27951000000002
 20
604.12483200000008
 30
0.0
 50
180.0
  0
INSERT
  5
84A
  8
0
  2
BLOCK23
 10
396.27951000000002
 20
604.12483200000008
 30
0.0
 50
180.0
  0
INSERT
  5
84B
  8
0
  2
BLOCK24
 10
396.27951000000002
 20
604.12483200000008
 30
0.0
 50
180.0
  0
INSERT
  5
84C
  8
0
  2
BLOCK25
 10
396.27951000000002
 20
604.12483200000008
 30
0.0
 50
180.0
  0
INSERT
  5
84D
  8
0
  2
BLOCK26
 10
396.27951000000002
 20
604.12483200000008
 30
0.0
 50
180.0
  0
INSERT
  5
84E
  8
0
  2
BLOCK27
 10
396.27951000000002
 20
604.12483200000008
 30
0.0
 50
180.0
  0
INSERT
  5
84F
  8
0
  2
BLOCK28
 10
396.27951000000002
 20
604.12483200000008
 30
0.0
 50
180.0
  0
INSERT
  5
850
  8
0
  2
BLOCK29
 10
697.56010400000002
 20
604.12483200000008
 30
0.0
 50
270.0
  0
INSERT
  5
851
  8
0
  2
BLOCK30
 10
697.56010400000002
 20
604.12483200000008
 30
0.0
 50
270.0
  0
INSERT
  5
852
  8
0
  2
BLOCK31
 10
697.56010400000002
 20
604.12483200000008
 30
0.0
 50
270.0
  0
INSERT
  5
853
  8
0
  2
BLOCK32
 10
697.56010400000002
 20
604.12483200000008
 30
0.0
 50
270.0
  0
INSERT
  5
854
  8
0
  2
BLOCK33
 10
697.56010400000002
 20
604.12483200000008
 30
0.0
 50
270.0
  0
INSERT
  5
855
  8
0
  2
BLOCK34
 10
697.56010400000002
 20
604.12483200000008
 30
0.0
 50
270.0
  0
INSERT
  5
856
  8
0
  2
BLOCK35
 10
697.56010400000002
 20
604.12483200000008
 30
0.0
 50
270.0
  0
INSERT
  5
857
  8
0
  2
BLOCK36
 10
697.56010400000002
 20
604.12483200000008
 30
0.0
 50
270.0
  0
INSERT
  5
858
  8
0
  2
BLOCK37
 10
697.56010400000002
 20
604.12483200000008
 30
0.0
 50
270.0
  0
INSERT
  5
859
  8
0
  2
BLOCK38
 10
697.56010400000002
 20
604.12483200000008
 30
0.0
 50
270.0
  0
INSERT
  5
85A
  8
0
  2
BLOCK39
 10
159.96113600000001
 20
491.88777199999998
 30
0.0
 50
90.0
  0
INSERT
  5
85B
  8
0
  2
BLOCK40
 10
159.96113600000001
 20
491.88777199999998
 30
0.0
 50
90.0
  0
INSERT
  5
85C
  8
0
  2
BLOCK41
 10
159.96113600000001
 20
491.88777199999998
 30
0.0
 50
90.0
  0
INSERT
  5
85D
  8
0
  2
BLOCK42
 10
159.96113600000001
 20
491.88777199999998
 30
0.0
 50
90.0
  0
INSERT
  5
85E
  8
0
  2
BLOCK43
 10
159.96113600000001
 20
491.88777199999998
 30
0.0
 50
90.0
  0
INSERT
  5
85F
  8
0
  2
BLOCK44
 10
159.96113600000001
 20
491.88777199999998
 30
0.0
 50
90.0
  0
INSERT
  5
860
  8
0
  2
BLOCK45
 10
159.96113600000001
 20
491.88777199999998
 30
0.0
 50
90.0
  0
INSERT
  5
861
  8
0
  2
BLOCK46
 10
159.96113600000001
 20
491.88777199999998
 30
0.0
 50
90.0
  0
INSERT
  5
862
  8
0
  2
BLOCK47
 10
159.96113600000001
 20
491.88777199999998
 30
0.0
 50
90.0
  0
INSERT
  5
863
  8
0
  2
BLOCK48
 10
159.96113600000001
 20
491.88777199999998
 30
0.0
 50
90.0
  0
INSERT
  5
864
  8
0
  2
BLOCK49
 10
159.96113600000001
 20
491.88777199999998
 30
0.0
 50
90.0
  0
INSERT
  5
865
  8
0
  2
BLOCK50
 10
159.96113600000001
 20
491.88777199999998
 30
0.0
 50
90.0
  0
INSERT
  5
866
  8
0
  2
BLOCK51
 10
159.96113600000001
 20
491.88777199999998
 30
0.0
 50
90.0
  0
INSERT
  5
867
  8
0
  2
BLOCK52
 10
159.96113600000001
 20
491.88777199999998
 30
0.0
 50
90.0
  0
INSERT
  5
868
  8
0
  2
BLOCK53
 10
159.96113600000001
 20
491.88777199999998
 30
0.0
 50
90.0
  0
INSERT
  5
869
  8
0
  2
BLOCK54
 10
159.96113600000001
 20
491.88777199999998
 30
0.0
 50
90.0
  0
INSERT
  5
86A
  8
0
  2
BLOCK55
 10
159.96113600000001
 20
491.88777199999998
 30
0.0
 50
90.0
  0
INSERT
  5
86B
  8
0
  2
BLOCK56
 10
159.96113600000001
 20
491.88777199999998
 30
0.0
 50
90.0
  0
INSERT
  5
86C
  8
0
  2
BLOCK57
 10
159.96113600000001
 20
491.88777199999998
 30
0.0
 50
90.0
  0
INSERT
  5
86D
  8
0
  2
BLOCK58
 10
159.96113600000001
 20
491.88777199999998
 30
0.0
 50
90.0
  0
INSERT
  5
86E
  8
0
  2
BLOCK59
 10
159.96113600000001
 20
491.88777199999998
 30
0.0
 50
90.0
  0
INSERT
  5
86F
  8
0
  2
BLOCK60
 10
159.96113600000001
 20
491.88777199999998
 30
0.0
 50
90.0
  0
INSERT
  5
870
  8
0
  2
BLOCK61
 10
159.96113600000001
 20
491.88777199999998
 30
0.0
 50
90.0
  0
INSERT
  5
871
  8
0
  2
BLOCK62
 10
159.96113600000001
 20
491.88777199999998
 30
0.0
 50
90.0
  0
INSERT
  5
872
  8
0
  2
BLOCK63
 10
159.96113600000001
 20
491.88777199999998
 30
0.0
 50
90.0
  0
INSERT
  5
873
  8
0
  2
BLOCK64
 10
159.96113600000001
 20
491.88777199999998
 30
0.0
 50
90.0
  0
INSERT
  5
874
  8
0
  2
BLOCK65
 10
159.96113600000001
 20
491.88777199999998
 30
0.0
 50
90.0
  0
INSERT
  5
875
  8
0
  2
BLOCK66
 10
159.96113600000001
 20
491.88777199999998
 30
0.0
 50
90.0
  0
INSERT
  5
876
  8
0
  2
BLOCK67
 10
159.96113600000001
 20
491.88777199999998
 30
0.0
 50
90.0
  0
INSERT
  5
877
  8
0
  2
BLOCK68
 10
159.96113600000001
 20
491.88777199999998
 30
0.0
 50
90.0
  0
INSERT
  5
878
  8
0
  2
BLOCK69
 10
159.96113600000001
 20
491.88777199999998
 30
0.0
 50
90.0
  0
INSERT
  5
879
  8
0
  2
BLOCK70
 10
159.96113600000001
 20
491.88777199999998
 30
0.0
 50
90.0
  0
INSERT
  5
87A
  8
0
  2
BLOCK71
 10
159.96113600000001
 20
491.88777199999998
 30
0.0
 50
90.0
  0
INSERT
  5
87B
  8
0
  2
BLOCK72
 10
159.96113600000001
 20
491.88777199999998
 30
0.0
 50
90.0
  0
INSERT
  5
87C
  8
0
  2
BLOCK73
 10
159.96113600000001
 20
491.88777199999998
 30
0.0
 50
90.0
  0
INSERT
  5
87D
  8
0
  2
BLOCK74
 10
159.96113600000001
 20
491.88777199999998
 30
0.0
 50
90.0
  0
VIEWPORT
  5
487
 67
     1
  8
0
 62
     0
 10
0.0
 20
0.0
 30
0.0
 40
1000.0
 41
1000.0
 68
     1
 69
     1
1001
ACAD
1000
MVIEW
1002
{
1070
    16
1010
0.0
1020
0.0
1030
0.0
1010
0.0
1020
0.0
1030
1.0
1040
0.0
1040
1000.0
1040
0.0
1040
0.0
1040
50.0
1040
0.0
1040
0.0
1070
     0
1070
   100
1070
     1
1070
     1
1070
     0
1070
     0
1070
     0
1070
     0
1040
0.0
1040
0.0
1040
0.0
1040
1.0
1040
1.0
1040
1.0
1040
1.0
1070
     0
1002
{
1002
}
1002
}
  0
ENDSEC
  0
EOF
