  0
SECTION
  2
HEADER
  9
$ACADVER
  1
AC1009
  9
$INSBASE
 10
0.0
 20
0.0
 30
0.0
  9
$EXTMIN
 10
0.237099
 20
0.237999
 30
0.0
  9
$EXTMAX
 10
392.237099
 20
262.737999
 30
0.0
  9
$LIMMIN
 10
0.0
 20
0.0
  9
$LIMMAX
 10
12.0
 20
9.0
  9
$ORTHOMODE
 70
     1
  9
$REGENMODE
 70
     1
  9
$FILLMODE
 70
     1
  9
$QTEXTMODE
 70
     0
  9
$MIRRTEXT
 70
     1
  9
$DRAGMODE
 70
     2
  9
$LTSCALE
 40
5.0
  9
$OSMODE
 70
     0
  9
$ATTMODE
 70
     1
  9
$TEXTSIZE
 40
2.0
  9
$TRACEWID
 40
0.05
  9
$TEXTSTYLE
  7
ROMANS
  9
$CLAYER
  8
0
  9
$CELTYPE
  6
CONTINUOUS
  9
$CECOLOR
 62
   256
  9
$DIMSCALE
 40
1.0
  9
$DIMASZ
 40
0.18
  9
$DIMEXO
 40
0.0625
  9
$DIMDLI
 40
0.38
  9
$DIMRND
 40
0.0
  9
$DIMDLE
 40
0.0
  9
$DIMEXE
 40
0.18
  9
$DIMTP
 40
0.0
  9
$DIMTM
 40
0.0
  9
$DIMTXT
 40
0.18
  9
$DIMCEN
 40
0.09
  9
$DIMTSZ
 40
0.0
  9
$DIMTOL
 70
     0
  9
$DIMLIM
 70
     0
  9
$DIMTIH
 70
     1
  9
$DIMTOH
 70
     1
  9
$DIMSE1
 70
     0
  9
$DIMSE2
 70
     0
  9
$DIMTAD
 70
     0
  9
$DIMZIN
 70
     0
  9
$DIMBLK
  1

  9
$DIMASO
 70
     1
  9
$DIMSHO
 70
     1
  9
$DIMPOST
  1

  9
$DIMAPOST
  1

  9
$DIMALT
 70
     0
  9
$DIMALTD
 70
     2
  9
$DIMALTF
 40
25.4
  9
$DIMLFAC
 40
1.0
  9
$DIMTOFL
 70
     0
  9
$DIMTVP
 40
0.0
  9
$DIMTIX
 70
     0
  9
$DIMSOXD
 70
     0
  9
$DIMSAH
 70
     0
  9
$DIMBLK1
  1

  9
$DIMBLK2
  1

  9
$DIMSTYLE
  2
*UNNAMED
  9
$DIMCLRD
 70
     0
  9
$DIMCLRE
 70
     0
  9
$DIMCLRT
 70
     0
  9
$DIMTFAC
 40
1.0
  9
$DIMGAP
 40
0.09
  9
$LUNITS
 70
     2
  9
$LUPREC
 70
     4
  9
$SKETCHINC
 40
0.1
  9
$FILLETRAD
 40
2.0
  9
$AUNITS
 70
     0
  9
$AUPREC
 70
     0
  9
$MENU
  1
acad
  9
$ELEVATION
 40
0.0
  9
$PELEVATION
 40
0.0
  9
$THICKNESS
 40
0.0
  9
$LIMCHECK
 70
     0
  9
$BLIPMODE
 70
     1
  9
$CHAMFERA
 40
0.0
  9
$CHAMFERB
 40
0.0
  9
$SKPOLY
 70
     0
  9
$TDCREATE
 40
2449167.648383912
  9
$TDUPDATE
 40
2449167.657662152
  9
$TDINDWG
 40
0.0088548611
  9
$TDUSRTIMER
 40
0.0088548611
  9
$USRTIMER
 70
     1
  9
$ANGBASE
 50
0.0
  9
$ANGDIR
 70
     0
  9
$PDMODE
 70
     0
  9
$PDSIZE
 40
0.0
  9
$PLINEWID
 40
0.0
  9
$COORDS
 70
     2
  9
$SPLFRAME
 70
     0
  9
$SPLINETYPE
 70
     6
  9
$SPLINESEGS
 70
     8
  9
$ATTDIA
 70
     0
  9
$ATTREQ
 70
     1
  9
$HANDLING
 70
     0
  9
$HANDSEED
  5
0
  9
$SURFTAB1
 70
   250
  9
$SURFTAB2
 70
   250
  9
$SURFTYPE
 70
     6
  9
$SURFU
 70
     6
  9
$SURFV
 70
     6
  9
$UCSNAME
  2

  9
$UCSORG
 10
0.0
 20
0.0
 30
0.0
  9
$UCSXDIR
 10
1.0
 20
0.0
 30
0.0
  9
$UCSYDIR
 10
0.0
 20
1.0
 30
0.0
  9
$PUCSNAME
  2

  9
$PUCSORG
 10
0.0
 20
0.0
 30
0.0
  9
$PUCSXDIR
 10
1.0
 20
0.0
 30
0.0
  9
$PUCSYDIR
 10
0.0
 20
1.0
 30
0.0
  9
$USERI1
 70
     0
  9
$USERI2
 70
     0
  9
$USERI3
 70
     0
  9
$USERI4
 70
     0
  9
$USERI5
 70
     0
  9
$USERR1
 40
0.0
  9
$USERR2
 40
0.0
  9
$USERR3
 40
0.0
  9
$USERR4
 40
0.0
  9
$USERR5
 40
0.0
  9
$WORLDVIEW
 70
     1
  9
$SHADEDGE
 70
     3
  9
$SHADEDIF
 70
    70
  9
$TILEMODE
 70
     1
  9
$MAXACTVP
 70
    16
  9
$PINSBASE
 10
0.0
 20
0.0
 30
0.0
  9
$PLIMCHECK
 70
     0
  9
$PEXTMIN
 10
1.000000E+20
 20
1.000000E+20
 30
1.000000E+20
  9
$PEXTMAX
 10
-1.000000E+20
 20
-1.000000E+20
 30
-1.000000E+20
  9
$PLIMMIN
 10
0.0
 20
0.0
  9
$PLIMMAX
 10
12.0
 20
9.0
  9
$UNITMODE
 70
     0
  9
$VISRETAIN
 70
     0
  9
$PLINEGEN
 70
     0
  9
$PSLTSCALE
 70
     0
  9
$TREEDEPTH
 70
  3020
  9
$DWGCODEPAGE
  3
undefined
  0
ENDSEC
  0
SECTION
  2
TABLES
  0
TABLE
  2
VPORT
 70
     2
  0
VPORT
  2
*ACTIVE
 70
     0
 10
0.0
 20
0.0
 11
1.0
 21
1.0
 12
222.522843
 22
142.040485
 13
0.0
 23
0.0
 14
2.5
 24
2.5
 15
0.0
 25
0.0
 16
0.0
 26
0.0
 36
1.0
 17
0.0
 27
0.0
 37
0.0
 40
284.080971
 41
1.566616
 42
50.0
 43
0.0
 44
0.0
 50
0.0
 51
0.0
 71
     0
 72
   100
 73
     1
 74
     1
 75
     1
 76
     1
 77
     0
 78
     0
  0
ENDTAB
  0
TABLE
  2
LTYPE
 70
     5
  0
LTYPE
  2
CONTINUOUS
 70
    64
  3
Solid line
 72
    65
 73
     0
 40
0.0
  0
LTYPE
  2
DASHED
 70
    64
  3
__ __ __ __ __ __ __ __ __ __ __ __ __ __ __ __
 72
    65
 73
     2
 40
0.75
 49
0.5
 49
-0.25
  0
LTYPE
  2
CENTER
 70
    64
  3
____ _ ____ _ ____ _ ____ _ ____ _ ____ _ ____ 
 72
    65
 73
     4
 40
2.0
 49
1.25
 49
-0.25
 49
0.25
 49
-0.25
  0
LTYPE
  2
PHANTOM
 70
     0
  3
______  __  __  ______  __  __  ______  __  __ 
 72
    65
 73
     6
 40
2.5
 49
1.25
 49
-0.25
 49
0.25
 49
-0.25
 49
0.25
 49
-0.25
  0
LTYPE
  2
HIDDEN
 70
     0
  3
__ __ __ __ __ __ __ __ __ __ __ __ __ __ __ __
 72
    65
 73
     2
 40
0.375
 49
0.25
 49
-0.125
  0
ENDTAB
  0
TABLE
  2
LAYER
 70
    11
  0
LAYER
  2
0
 70
    64
 62
     7
  6
CONTINUOUS
  0
LAYER
  2
RAAMI
 70
    64
 62
    -4
  6
CONTINUOUS
  0
LAYER
  2
PAKSU
 70
    64
 62
    -3
  6
CONTINUOUS
  0
LAYER
  2
OHUT
 70
    64
 62
    -6
  6
CONTINUOUS
  0
LAYER
  2
BASE
 70
    64
 62
    -7
  6
CONTINUOUS
  0
LAYER
  2
BASE1
 70
    64
 62
    -1
  6
CONTINUOUS
  0
LAYER
  2
21
 70
    64
 62
    -2
  6
CONTINUOUS
  0
LAYER
  2
HEL035
 70
    64
 62
    -3
  6
CONTINUOUS
  0
LAYER
  2
SWEDEN2
 70
    64
 62
    -5
  6
CONTINUOUS
  0
LAYER
  2
MUO
 70
    64
 62
    -7
  6
CONTINUOUS
  0
LAYER
  2
1
 70
    64
 62
    -2
  6
CONTINUOUS
  0
ENDTAB
  0
TABLE
  2
STYLE
 70
     3
  0
STYLE
  2
STANDARD
 70
    64
 40
0.0
 41
1.0
 50
0.0
 71
     0
 42
2.5
  3
txt
  4

  0
STYLE
  2
ROMANS
 70
    64
 40
0.0
 41
1.0
 50
0.0
 71
     0
 42
2.0
  3
romans
  4

  0
STYLE
  2
GREEKS
 70
    64
 40
0.0
 41
1.0
 50
0.0
 71
     0
 42
3.0
  3
TXT
  4

  0
ENDTAB
  0
TABLE
  2
VIEW
 70
     0
  0
ENDTAB
  0
TABLE
  2
UCS
 70
     0
  0
ENDTAB
  0
TABLE
  2
APPID
 70
     1
  0
APPID
  2
ACAD
 70
    64
  0
ENDTAB
  0
TABLE
  2
DIMSTYLE
 70
     0
  0
ENDTAB
  0
ENDSEC
  0
SECTION
  2
BLOCKS
  0
BLOCK
  8
0
  2
*X0
 70
    65
 10
0.0
 20
0.0
 30
0.0
  3
*X
  0
LINE
  8
0
 62
     0
 10
2.284499
 20
6.52714
 30
0.0
 11
4.8
 21
9.042641
 31
0.0
  0
LINE
  8
0
 62
     0
 10
2.379686
 20
6.799104
 30
0.0
 11
4.8
 21
9.219417
 31
0.0
  0
LINE
  8
0
 62
     0
 10
2.474874
 20
7.071068
 30
0.0
 11
4.8
 21
9.396194
 31
0.0
  0
LINE
  8
0
 62
     0
 10
2.570061
 20
7.343032
 30
0.0
 11
4.8
 21
9.572971
 31
0.0
  0
LINE
  8
0
 62
     0
 10
2.665249
 20
7.614996
 30
0.0
 11
4.8
 21
9.749747
 31
0.0
  0
LINE
  8
0
 62
     0
 10
2.760436
 20
7.88696
 30
0.0
 11
4.8
 21
9.926524
 31
0.0
  0
LINE
  8
0
 62
     0
 10
2.855624
 20
8.158924
 30
0.0
 11
4.696699
 21
10.0
 31
0.0
  0
LINE
  8
0
 62
     0
 10
2.950811
 20
8.430889
 30
0.0
 11
4.519922
 21
10.0
 31
0.0
  0
LINE
  8
0
 62
     0
 10
3.045998
 20
8.702853
 30
0.0
 11
4.343146
 21
10.0
 31
0.0
  0
LINE
  8
0
 62
     0
 10
3.141186
 20
8.974817
 30
0.0
 11
4.166369
 21
10.0
 31
0.0
  0
LINE
  8
0
 62
     0
 10
3.236373
 20
9.246781
 30
0.0
 11
3.989592
 21
10.0
 31
0.0
  0
LINE
  8
0
 62
     0
 10
3.331561
 20
9.518745
 30
0.0
 11
3.812816
 21
10.0
 31
0.0
  0
LINE
  8
0
 62
     0
 10
3.426748
 20
9.790709
 30
0.0
 11
3.636039
 21
10.0
 31
0.0
  0
LINE
  8
0
 62
     0
 10
2.189311
 20
6.255175
 30
0.0
 11
4.8
 21
8.865864
 31
0.0
  0
LINE
  8
0
 62
     0
 10
2.094124
 20
5.983211
 30
0.0
 11
4.8
 21
8.689087
 31
0.0
  0
LINE
  8
0
 62
     0
 10
1.998936
 20
5.711247
 30
0.0
 11
4.8
 21
8.512311
 31
0.0
  0
LINE
  8
0
 62
     0
 10
1.903749
 20
5.439283
 30
0.0
 11
4.8
 21
8.335534
 31
0.0
  0
LINE
  8
0
 62
     0
 10
1.841243
 20
5.2
 30
0.0
 11
4.8
 21
8.158757
 31
0.0
  0
LINE
  8
0
 62
     0
 10
2.018019
 20
5.2
 30
0.0
 11
4.8
 21
7.981981
 31
0.0
  0
LINE
  8
0
 62
     0
 10
2.194796
 20
5.2
 30
0.0
 11
4.8
 21
7.805204
 31
0.0
  0
LINE
  8
0
 62
     0
 10
2.371573
 20
5.2
 30
0.0
 11
4.8
 21
7.628427
 31
0.0
  0
LINE
  8
0
 62
     0
 10
2.54835
 20
5.2
 30
0.0
 11
4.8
 21
7.45165
 31
0.0
  0
LINE
  8
0
 62
     0
 10
2.725126
 20
5.2
 30
0.0
 11
4.8
 21
7.274874
 31
0.0
  0
LINE
  8
0
 62
     0
 10
2.901903
 20
5.2
 30
0.0
 11
4.8
 21
7.098097
 31
0.0
  0
LINE
  8
0
 62
     0
 10
3.07868
 20
5.2
 30
0.0
 11
4.8
 21
6.92132
 31
0.0
  0
LINE
  8
0
 62
     0
 10
3.255456
 20
5.2
 30
0.0
 11
4.8
 21
6.744544
 31
0.0
  0
LINE
  8
0
 62
     0
 10
3.432233
 20
5.2
 30
0.0
 11
4.8
 21
6.567767
 31
0.0
  0
LINE
  8
0
 62
     0
 10
3.60901
 20
5.2
 30
0.0
 11
4.8
 21
6.39099
 31
0.0
  0
LINE
  8
0
 62
     0
 10
3.785786
 20
5.2
 30
0.0
 11
4.8
 21
6.214214
 31
0.0
  0
LINE
  8
0
 62
     0
 10
3.962563
 20
5.2
 30
0.0
 11
4.8
 21
6.037437
 31
0.0
  0
LINE
  8
0
 62
     0
 10
4.13934
 20
5.2
 30
0.0
 11
4.8
 21
5.86066
 31
0.0
  0
LINE
  8
0
 62
     0
 10
4.316117
 20
5.2
 30
0.0
 11
4.8
 21
5.683883
 31
0.0
  0
LINE
  8
0
 62
     0
 10
4.492893
 20
5.2
 30
0.0
 11
4.8
 21
5.507107
 31
0.0
  0
LINE
  8
0
 62
     0
 10
4.66967
 20
5.2
 30
0.0
 11
4.8
 21
5.33033
 31
0.0
  0
ENDBLK
  8
0
  0
BLOCK
  8
0
  2
*X1
 70
    65
 10
0.0
 20
0.0
 30
0.0
  3
*X
  0
LINE
  8
0
 62
     0
 10
5.2
 20
6.083883
 30
0.0
 11
7.178252
 21
8.062136
 31
0.0
  0
LINE
  8
0
 62
     0
 10
5.2
 20
6.26066
 30
0.0
 11
7.132421
 21
8.193082
 31
0.0
  0
LINE
  8
0
 62
     0
 10
5.2
 20
6.437437
 30
0.0
 11
7.08659
 21
8.324027
 31
0.0
  0
LINE
  8
0
 62
     0
 10
5.2
 20
6.614214
 30
0.0
 11
7.040759
 21
8.454973
 31
0.0
  0
LINE
  8
0
 62
     0
 10
5.2
 20
6.79099
 30
0.0
 11
6.994928
 21
8.585919
 31
0.0
  0
LINE
  8
0
 62
     0
 10
5.2
 20
6.967767
 30
0.0
 11
6.949097
 21
8.716864
 31
0.0
  0
LINE
  8
0
 62
     0
 10
5.2
 20
7.144544
 30
0.0
 11
6.903266
 21
8.84781
 31
0.0
  0
LINE
  8
0
 62
     0
 10
5.2
 20
7.32132
 30
0.0
 11
6.857435
 21
8.978756
 31
0.0
  0
LINE
  8
0
 62
     0
 10
5.2
 20
7.498097
 30
0.0
 11
6.811604
 21
9.109702
 31
0.0
  0
LINE
  8
0
 62
     0
 10
5.2
 20
7.674874
 30
0.0
 11
6.765773
 21
9.240647
 31
0.0
  0
LINE
  8
0
 62
     0
 10
5.2
 20
7.85165
 30
0.0
 11
6.719942
 21
9.371593
 31
0.0
  0
LINE
  8
0
 62
     0
 10
5.2
 20
8.028427
 30
0.0
 11
6.674111
 21
9.502539
 31
0.0
  0
LINE
  8
0
 62
     0
 10
5.2
 20
8.205204
 30
0.0
 11
6.62828
 21
9.633484
 31
0.0
  0
LINE
  8
0
 62
     0
 10
5.2
 20
8.381981
 30
0.0
 11
6.582449
 21
9.76443
 31
0.0
  0
LINE
  8
0
 62
     0
 10
5.2
 20
8.558757
 30
0.0
 11
6.536619
 21
9.895376
 31
0.0
  0
LINE
  8
0
 62
     0
 10
5.2
 20
8.735534
 30
0.0
 11
6.464466
 21
10.0
 31
0.0
  0
LINE
  8
0
 62
     0
 10
5.2
 20
8.912311
 30
0.0
 11
6.287689
 21
10.0
 31
0.0
  0
LINE
  8
0
 62
     0
 10
5.2
 20
9.089087
 30
0.0
 11
6.110913
 21
10.0
 31
0.0
  0
LINE
  8
0
 62
     0
 10
5.2
 20
9.265864
 30
0.0
 11
5.934136
 21
10.0
 31
0.0
  0
LINE
  8
0
 62
     0
 10
5.2
 20
9.442641
 30
0.0
 11
5.757359
 21
10.0
 31
0.0
  0
LINE
  8
0
 62
     0
 10
5.2
 20
9.619417
 30
0.0
 11
5.580583
 21
10.0
 31
0.0
  0
LINE
  8
0
 62
     0
 10
5.2
 20
9.796194
 30
0.0
 11
5.403806
 21
10.0
 31
0.0
  0
LINE
  8
0
 62
     0
 10
5.2
 20
9.972971
 30
0.0
 11
5.227029
 21
10.0
 31
0.0
  0
LINE
  8
0
 62
     0
 10
5.2
 20
5.907107
 30
0.0
 11
7.224083
 21
7.93119
 31
0.0
  0
LINE
  8
0
 62
     0
 10
5.2
 20
5.73033
 30
0.0
 11
7.269914
 21
7.800245
 31
0.0
  0
LINE
  8
0
 62
     0
 10
5.2
 20
5.553553
 30
0.0
 11
7.315745
 21
7.669299
 31
0.0
  0
LINE
  8
0
 62
     0
 10
5.2
 20
5.376777
 30
0.0
 11
7.361576
 21
7.538353
 31
0.0
  0
LINE
  8
0
 62
     0
 10
5.2
 20
5.2
 30
0.0
 11
7.407407
 21
7.407407
 31
0.0
  0
LINE
  8
0
 62
     0
 10
5.376777
 20
5.2
 30
0.0
 11
7.453238
 21
7.276462
 31
0.0
  0
LINE
  8
0
 62
     0
 10
5.553553
 20
5.2
 30
0.0
 11
7.499069
 21
7.145516
 31
0.0
  0
LINE
  8
0
 62
     0
 10
5.73033
 20
5.2
 30
0.0
 11
7.5449
 21
7.01457
 31
0.0
  0
LINE
  8
0
 62
     0
 10
5.907107
 20
5.2
 30
0.0
 11
7.590731
 21
6.883625
 31
0.0
  0
LINE
  8
0
 62
     0
 10
6.083883
 20
5.2
 30
0.0
 11
7.636562
 21
6.752679
 31
0.0
  0
LINE
  8
0
 62
     0
 10
6.26066
 20
5.2
 30
0.0
 11
7.682393
 21
6.621733
 31
0.0
  0
LINE
  8
0
 62
     0
 10
6.437437
 20
5.2
 30
0.0
 11
7.728224
 21
6.490788
 31
0.0
  0
LINE
  8
0
 62
     0
 10
6.614214
 20
5.2
 30
0.0
 11
7.774055
 21
6.359842
 31
0.0
  0
LINE
  8
0
 62
     0
 10
6.79099
 20
5.2
 30
0.0
 11
7.819886
 21
6.228896
 31
0.0
  0
LINE
  8
0
 62
     0
 10
6.967767
 20
5.2
 30
0.0
 11
7.865717
 21
6.09795
 31
0.0
  0
LINE
  8
0
 62
     0
 10
7.144544
 20
5.2
 30
0.0
 11
7.911548
 21
5.967005
 31
0.0
  0
LINE
  8
0
 62
     0
 10
7.32132
 20
5.2
 30
0.0
 11
7.957379
 21
5.836059
 31
0.0
  0
LINE
  8
0
 62
     0
 10
7.498097
 20
5.2
 30
0.0
 11
8.00321
 21
5.705113
 31
0.0
  0
LINE
  8
0
 62
     0
 10
7.674874
 20
5.2
 30
0.0
 11
8.049041
 21
5.574168
 31
0.0
  0
LINE
  8
0
 62
     0
 10
7.85165
 20
5.2
 30
0.0
 11
8.094872
 21
5.443222
 31
0.0
  0
LINE
  8
0
 62
     0
 10
8.028427
 20
5.2
 30
0.0
 11
8.140703
 21
5.312276
 31
0.0
  0
ENDBLK
  8
0
  0
BLOCK
  8
0
  2
*X2
 70
    65
 10
0.0
 20
0.0
 30
0.0
  3
*X
  0
LINE
  8
0
 62
     0
 10
0.0
 20
0.0
 30
0.0
 11
4.8
 21
4.8
 31
0.0
  0
LINE
  8
0
 62
     0
 10
0.095187
 20
0.271964
 30
0.0
 11
4.623223
 21
4.8
 31
0.0
  0
LINE
  8
0
 62
     0
 10
0.190375
 20
0.543928
 30
0.0
 11
4.446447
 21
4.8
 31
0.0
  0
LINE
  8
0
 62
     0
 10
0.285562
 20
0.815892
 30
0.0
 11
4.26967
 21
4.8
 31
0.0
  0
LINE
  8
0
 62
     0
 10
0.38075
 20
1.087857
 30
0.0
 11
4.092893
 21
4.8
 31
0.0
  0
LINE
  8
0
 62
     0
 10
0.475937
 20
1.359821
 30
0.0
 11
3.916117
 21
4.8
 31
0.0
  0
LINE
  8
0
 62
     0
 10
0.571125
 20
1.631785
 30
0.0
 11
3.73934
 21
4.8
 31
0.0
  0
LINE
  8
0
 62
     0
 10
0.666312
 20
1.903749
 30
0.0
 11
3.562563
 21
4.8
 31
0.0
  0
LINE
  8
0
 62
     0
 10
0.7615
 20
2.175713
 30
0.0
 11
3.385786
 21
4.8
 31
0.0
  0
LINE
  8
0
 62
     0
 10
0.856687
 20
2.447677
 30
0.0
 11
3.20901
 21
4.8
 31
0.0
  0
LINE
  8
0
 62
     0
 10
0.951875
 20
2.719641
 30
0.0
 11
3.032233
 21
4.8
 31
0.0
  0
LINE
  8
0
 62
     0
 10
1.047062
 20
2.991606
 30
0.0
 11
2.855456
 21
4.8
 31
0.0
  0
LINE
  8
0
 62
     0
 10
1.142249
 20
3.26357
 30
0.0
 11
2.67868
 21
4.8
 31
0.0
  0
LINE
  8
0
 62
     0
 10
1.237437
 20
3.535534
 30
0.0
 11
2.501903
 21
4.8
 31
0.0
  0
LINE
  8
0
 62
     0
 10
1.332624
 20
3.807498
 30
0.0
 11
2.325126
 21
4.8
 31
0.0
  0
LINE
  8
0
 62
     0
 10
1.427812
 20
4.079462
 30
0.0
 11
2.14835
 21
4.8
 31
0.0
  0
LINE
  8
0
 62
     0
 10
1.522999
 20
4.351426
 30
0.0
 11
1.971573
 21
4.8
 31
0.0
  0
LINE
  8
0
 62
     0
 10
1.618187
 20
4.62339
 30
0.0
 11
1.794796
 21
4.8
 31
0.0
  0
LINE
  8
0
 62
     0
 10
0.176777
 20
0.0
 30
0.0
 11
4.8
 21
4.623223
 31
0.0
  0
LINE
  8
0
 62
     0
 10
0.353553
 20
0.0
 30
0.0
 11
4.8
 21
4.446447
 31
0.0
  0
LINE
  8
0
 62
     0
 10
0.53033
 20
0.0
 30
0.0
 11
4.8
 21
4.26967
 31
0.0
  0
LINE
  8
0
 62
     0
 10
0.707107
 20
0.0
 30
0.0
 11
4.8
 21
4.092893
 31
0.0
  0
LINE
  8
0
 62
     0
 10
0.883883
 20
0.0
 30
0.0
 11
4.8
 21
3.916117
 31
0.0
  0
LINE
  8
0
 62
     0
 10
1.06066
 20
0.0
 30
0.0
 11
4.8
 21
3.73934
 31
0.0
  0
LINE
  8
0
 62
     0
 10
1.237437
 20
0.0
 30
0.0
 11
3.179842
 21
1.942405
 31
0.0
  0
LINE
  8
0
 62
     0
 10
3.237437
 20
2.0
 30
0.0
 11
4.8
 21
3.562563
 31
0.0
  0
LINE
  8
0
 62
     0
 10
1.414214
 20
0.0
 30
0.0
 11
3.084654
 21
1.670441
 31
0.0
  0
LINE
  8
0
 62
     0
 10
3.414214
 20
2.0
 30
0.0
 11
4.8
 21
3.385786
 31
0.0
  0
LINE
  8
0
 62
     0
 10
1.59099
 20
0.0
 30
0.0
 11
2.989467
 21
1.398477
 31
0.0
  0
LINE
  8
0
 62
     0
 10
3.59099
 20
2.0
 30
0.0
 11
4.8
 21
3.20901
 31
0.0
  0
LINE
  8
0
 62
     0
 10
1.767767
 20
0.0
 30
0.0
 11
2.894279
 21
1.126512
 31
0.0
  0
LINE
  8
0
 62
     0
 10
3.767767
 20
2.0
 30
0.0
 11
4.8
 21
3.032233
 31
0.0
  0
LINE
  8
0
 62
     0
 10
1.944544
 20
0.0
 30
0.0
 11
2.799092
 21
0.854548
 31
0.0
  0
LINE
  8
0
 62
     0
 10
3.944544
 20
2.0
 30
0.0
 11
4.8
 21
2.855456
 31
0.0
  0
LINE
  8
0
 62
     0
 10
2.12132
 20
0.0
 30
0.0
 11
2.703904
 21
0.582584
 31
0.0
  0
LINE
  8
0
 62
     0
 10
4.12132
 20
2.0
 30
0.0
 11
4.8
 21
2.67868
 31
0.0
  0
LINE
  8
0
 62
     0
 10
2.298097
 20
0.0
 30
0.0
 11
2.608717
 21
0.31062
 31
0.0
  0
LINE
  8
0
 62
     0
 10
4.298097
 20
2.0
 30
0.0
 11
4.8
 21
2.501903
 31
0.0
  0
LINE
  8
0
 62
     0
 10
2.474874
 20
0.0
 30
0.0
 11
2.51353
 21
0.038656
 31
0.0
  0
LINE
  8
0
 62
     0
 10
4.474874
 20
2.0
 30
0.0
 11
4.8
 21
2.325126
 31
0.0
  0
LINE
  8
0
 62
     0
 10
4.65165
 20
2.0
 30
0.0
 11
4.8
 21
2.14835
 31
0.0
  0
ENDBLK
  8
0
  0
BLOCK
  8
0
  2
*X3
 70
    65
 10
0.0
 20
0.0
 30
0.0
  3
*X
  0
LINE
  8
0
 62
     0
 10
6.884654
 20
1.75813
 30
0.0
 11
8.736506
 21
3.609982
 31
0.0
  0
LINE
  8
0
 62
     0
 10
6.838823
 20
1.889076
 30
0.0
 11
8.690675
 21
3.740928
 31
0.0
  0
LINE
  8
0
 62
     0
 10
6.772971
 20
2.0
 30
0.0
 11
8.644844
 21
3.871874
 31
0.0
  0
LINE
  8
0
 62
     0
 10
6.596194
 20
2.0
 30
0.0
 11
8.599013
 21
4.002819
 31
0.0
  0
LINE
  8
0
 62
     0
 10
6.419417
 20
2.0
 30
0.0
 11
8.553182
 21
4.133765
 31
0.0
  0
LINE
  8
0
 62
     0
 10
6.242641
 20
2.0
 30
0.0
 11
8.507351
 21
4.264711
 31
0.0
  0
LINE
  8
0
 62
     0
 10
6.065864
 20
2.0
 30
0.0
 11
8.46152
 21
4.395656
 31
0.0
  0
LINE
  8
0
 62
     0
 10
5.889087
 20
2.0
 30
0.0
 11
8.415689
 21
4.526602
 31
0.0
  0
LINE
  8
0
 62
     0
 10
5.712311
 20
2.0
 30
0.0
 11
8.369858
 21
4.657548
 31
0.0
  0
LINE
  8
0
 62
     0
 10
5.535534
 20
2.0
 30
0.0
 11
8.324027
 21
4.788493
 31
0.0
  0
LINE
  8
0
 62
     0
 10
5.358757
 20
2.0
 30
0.0
 11
8.158757
 21
4.8
 31
0.0
  0
LINE
  8
0
 62
     0
 10
5.2
 20
2.018019
 30
0.0
 11
7.981981
 21
4.8
 31
0.0
  0
LINE
  8
0
 62
     0
 10
5.2
 20
2.194796
 30
0.0
 11
7.805204
 21
4.8
 31
0.0
  0
LINE
  8
0
 62
     0
 10
5.2
 20
2.371573
 30
0.0
 11
7.628427
 21
4.8
 31
0.0
  0
LINE
  8
0
 62
     0
 10
5.2
 20
2.54835
 30
0.0
 11
7.45165
 21
4.8
 31
0.0
  0
LINE
  8
0
 62
     0
 10
5.2
 20
2.725126
 30
0.0
 11
7.274874
 21
4.8
 31
0.0
  0
LINE
  8
0
 62
     0
 10
5.2
 20
2.901903
 30
0.0
 11
7.098097
 21
4.8
 31
0.0
  0
LINE
  8
0
 62
     0
 10
5.2
 20
3.07868
 30
0.0
 11
6.92132
 21
4.8
 31
0.0
  0
LINE
  8
0
 62
     0
 10
5.2
 20
3.255456
 30
0.0
 11
6.744544
 21
4.8
 31
0.0
  0
LINE
  8
0
 62
     0
 10
5.2
 20
3.432233
 30
0.0
 11
6.567767
 21
4.8
 31
0.0
  0
LINE
  8
0
 62
     0
 10
5.2
 20
3.60901
 30
0.0
 11
6.39099
 21
4.8
 31
0.0
  0
LINE
  8
0
 62
     0
 10
5.2
 20
3.785786
 30
0.0
 11
6.214214
 21
4.8
 31
0.0
  0
LINE
  8
0
 62
     0
 10
5.2
 20
3.962563
 30
0.0
 11
6.037437
 21
4.8
 31
0.0
  0
LINE
  8
0
 62
     0
 10
5.2
 20
4.13934
 30
0.0
 11
5.86066
 21
4.8
 31
0.0
  0
LINE
  8
0
 62
     0
 10
5.2
 20
4.316117
 30
0.0
 11
5.683883
 21
4.8
 31
0.0
  0
LINE
  8
0
 62
     0
 10
5.2
 20
4.492893
 30
0.0
 11
5.507107
 21
4.8
 31
0.0
  0
LINE
  8
0
 62
     0
 10
5.2
 20
4.66967
 30
0.0
 11
5.33033
 21
4.8
 31
0.0
  0
LINE
  8
0
 62
     0
 10
6.930485
 20
1.627185
 30
0.0
 11
8.782337
 21
3.479036
 31
0.0
  0
LINE
  8
0
 62
     0
 10
6.976316
 20
1.496239
 30
0.0
 11
8.828168
 21
3.348091
 31
0.0
  0
LINE
  8
0
 62
     0
 10
7.022147
 20
1.365293
 30
0.0
 11
8.873999
 21
3.217145
 31
0.0
  0
LINE
  8
0
 62
     0
 10
7.067978
 20
1.234347
 30
0.0
 11
8.91983
 21
3.086199
 31
0.0
  0
LINE
  8
0
 62
     0
 10
7.113809
 20
1.103402
 30
0.0
 11
8.965661
 21
2.955254
 31
0.0
  0
LINE
  8
0
 62
     0
 10
7.15964
 20
0.972456
 30
0.0
 11
9.011492
 21
2.824308
 31
0.0
  0
LINE
  8
0
 62
     0
 10
7.205471
 20
0.84151
 30
0.0
 11
9.057323
 21
2.693362
 31
0.0
  0
LINE
  8
0
 62
     0
 10
7.251302
 20
0.710565
 30
0.0
 11
9.103154
 21
2.562416
 31
0.0
  0
LINE
  8
0
 62
     0
 10
7.297133
 20
0.579619
 30
0.0
 11
9.148985
 21
2.431471
 31
0.0
  0
LINE
  8
0
 62
     0
 10
7.342964
 20
0.448673
 30
0.0
 11
9.194816
 21
2.300525
 31
0.0
  0
LINE
  8
0
 62
     0
 10
7.388795
 20
0.317728
 30
0.0
 11
9.240647
 21
2.169579
 31
0.0
  0
LINE
  8
0
 62
     0
 10
7.434626
 20
0.186782
 30
0.0
 11
9.286478
 21
2.038634
 31
0.0
  0
LINE
  8
0
 62
     0
 10
7.480457
 20
0.055836
 30
0.0
 11
9.332309
 21
1.907688
 31
0.0
  0
LINE
  8
0
 62
     0
 10
7.601398
 20
0.0
 30
0.0
 11
9.37814
 21
1.776742
 31
0.0
  0
LINE
  8
0
 62
     0
 10
7.778175
 20
0.0
 30
0.0
 11
9.423971
 21
1.645797
 31
0.0
  0
LINE
  8
0
 62
     0
 10
7.954951
 20
0.0
 30
0.0
 11
9.469802
 21
1.514851
 31
0.0
  0
LINE
  8
0
 62
     0
 10
8.131728
 20
0.0
 30
0.0
 11
9.515633
 21
1.383905
 31
0.0
  0
LINE
  8
0
 62
     0
 10
8.308505
 20
0.0
 30
0.0
 11
9.561464
 21
1.252959
 31
0.0
  0
LINE
  8
0
 62
     0
 10
8.485281
 20
0.0
 30
0.0
 11
9.607295
 21
1.122014
 31
0.0
  0
LINE
  8
0
 62
     0
 10
8.662058
 20
0.0
 30
0.0
 11
9.653126
 21
0.991068
 31
0.0
  0
LINE
  8
0
 62
     0
 10
8.838835
 20
0.0
 30
0.0
 11
9.698957
 21
0.860122
 31
0.0
  0
LINE
  8
0
 62
     0
 10
9.015611
 20
0.0
 30
0.0
 11
9.744788
 21
0.729177
 31
0.0
  0
LINE
  8
0
 62
     0
 10
9.192388
 20
0.0
 30
0.0
 11
9.790619
 21
0.598231
 31
0.0
  0
LINE
  8
0
 62
     0
 10
9.369165
 20
0.0
 30
0.0
 11
9.83645
 21
0.467285
 31
0.0
  0
LINE
  8
0
 62
     0
 10
9.545942
 20
0.0
 30
0.0
 11
9.882281
 21
0.33634
 31
0.0
  0
LINE
  8
0
 62
     0
 10
9.722718
 20
0.0
 30
0.0
 11
9.928112
 21
0.205394
 31
0.0
  0
LINE
  8
0
 62
     0
 10
9.899495
 20
0.0
 30
0.0
 11
9.973943
 21
0.074448
 31
0.0
  0
ENDBLK
  8
0
  0
BLOCK
  8
0
  2
*X4
 70
    65
 10
0.0
 20
0.0
 30
0.0
  3
*X
  0
LINE
  8
0
 62
     0
 10
10.7
 20
6.280583
 30
0.0
 11
13.5
 21
9.080583
 31
0.0
  0
LINE
  8
0
 62
     0
 10
10.7
 20
6.457359
 30
0.0
 11
13.5
 21
9.257359
 31
0.0
  0
LINE
  8
0
 62
     0
 10
10.7
 20
6.634136
 30
0.0
 11
13.5
 21
9.434136
 31
0.0
  0
LINE
  8
0
 62
     0
 10
10.7
 20
6.810913
 30
0.0
 11
13.5
 21
9.610913
 31
0.0
  0
LINE
  8
0
 62
     0
 10
10.7
 20
6.987689
 30
0.0
 11
13.5
 21
9.787689
 31
0.0
  0
LINE
  8
0
 62
     0
 10
10.7
 20
7.164466
 30
0.0
 11
13.5
 21
9.964466
 31
0.0
  0
LINE
  8
0
 62
     0
 10
10.7
 20
7.341243
 30
0.0
 11
13.358757
 21
10.0
 31
0.0
  0
LINE
  8
0
 62
     0
 10
10.7
 20
7.518019
 30
0.0
 11
13.181981
 21
10.0
 31
0.0
  0
LINE
  8
0
 62
     0
 10
10.7
 20
7.694796
 30
0.0
 11
13.005204
 21
10.0
 31
0.0
  0
LINE
  8
0
 62
     0
 10
10.7
 20
7.871573
 30
0.0
 11
12.828427
 21
10.0
 31
0.0
  0
LINE
  8
0
 62
     0
 10
10.7
 20
8.04835
 30
0.0
 11
12.65165
 21
10.0
 31
0.0
  0
LINE
  8
0
 62
     0
 10
10.7
 20
8.225126
 30
0.0
 11
12.474874
 21
10.0
 31
0.0
  0
LINE
  8
0
 62
     0
 10
10.7
 20
8.401903
 30
0.0
 11
12.298097
 21
10.0
 31
0.0
  0
LINE
  8
0
 62
     0
 10
10.7
 20
8.57868
 30
0.0
 11
12.12132
 21
10.0
 31
0.0
  0
LINE
  8
0
 62
     0
 10
10.7
 20
8.755456
 30
0.0
 11
11.944544
 21
10.0
 31
0.0
  0
LINE
  8
0
 62
     0
 10
10.7
 20
8.932233
 30
0.0
 11
11.767767
 21
10.0
 31
0.0
  0
LINE
  8
0
 62
     0
 10
10.7
 20
9.10901
 30
0.0
 11
11.59099
 21
10.0
 31
0.0
  0
LINE
  8
0
 62
     0
 10
10.7
 20
9.285786
 30
0.0
 11
11.414214
 21
10.0
 31
0.0
  0
LINE
  8
0
 62
     0
 10
10.7
 20
9.462563
 30
0.0
 11
11.237437
 21
10.0
 31
0.0
  0
LINE
  8
0
 62
     0
 10
10.7
 20
9.63934
 30
0.0
 11
11.06066
 21
10.0
 31
0.0
  0
LINE
  8
0
 62
     0
 10
10.7
 20
9.816117
 30
0.0
 11
10.883883
 21
10.0
 31
0.0
  0
LINE
  8
0
 62
     0
 10
10.7
 20
9.992893
 30
0.0
 11
10.707107
 21
10.0
 31
0.0
  0
LINE
  8
0
 62
     0
 10
10.7
 20
6.103806
 30
0.0
 11
13.5
 21
8.903806
 31
0.0
  0
LINE
  8
0
 62
     0
 10
10.7
 20
5.927029
 30
0.0
 11
13.5
 21
8.727029
 31
0.0
  0
LINE
  8
0
 62
     0
 10
10.7
 20
5.750253
 30
0.0
 11
13.5
 21
8.550253
 31
0.0
  0
LINE
  8
0
 62
     0
 10
10.7
 20
5.573476
 30
0.0
 11
13.5
 21
8.373476
 31
0.0
  0
LINE
  8
0
 62
     0
 10
10.7
 20
5.396699
 30
0.0
 11
13.5
 21
8.196699
 31
0.0
  0
LINE
  8
0
 62
     0
 10
10.7
 20
5.219922
 30
0.0
 11
13.5
 21
8.019922
 31
0.0
  0
LINE
  8
0
 62
     0
 10
10.856854
 20
5.2
 30
0.0
 11
13.5
 21
7.843146
 31
0.0
  0
LINE
  8
0
 62
     0
 10
11.033631
 20
5.2
 30
0.0
 11
13.5
 21
7.666369
 31
0.0
  0
LINE
  8
0
 62
     0
 10
11.210408
 20
5.2
 30
0.0
 11
13.5
 21
7.489592
 31
0.0
  0
LINE
  8
0
 62
     0
 10
11.387184
 20
5.2
 30
0.0
 11
13.5
 21
7.312816
 31
0.0
  0
LINE
  8
0
 62
     0
 10
11.563961
 20
5.2
 30
0.0
 11
13.5
 21
7.136039
 31
0.0
  0
LINE
  8
0
 62
     0
 10
11.740738
 20
5.2
 30
0.0
 11
13.5
 21
6.959262
 31
0.0
  0
LINE
  8
0
 62
     0
 10
11.917514
 20
5.2
 30
0.0
 11
13.5
 21
6.782486
 31
0.0
  0
LINE
  8
0
 62
     0
 10
12.094291
 20
5.2
 30
0.0
 11
13.5
 21
6.605709
 31
0.0
  0
LINE
  8
0
 62
     0
 10
12.271068
 20
5.2
 30
0.0
 11
13.5
 21
6.428932
 31
0.0
  0
LINE
  8
0
 62
     0
 10
12.447845
 20
5.2
 30
0.0
 11
13.5
 21
6.252155
 31
0.0
  0
LINE
  8
0
 62
     0
 10
12.624621
 20
5.2
 30
0.0
 11
13.5
 21
6.075379
 31
0.0
  0
LINE
  8
0
 62
     0
 10
12.801398
 20
5.2
 30
0.0
 11
13.5
 21
5.898602
 31
0.0
  0
LINE
  8
0
 62
     0
 10
12.978175
 20
5.2
 30
0.0
 11
13.5
 21
5.721825
 31
0.0
  0
LINE
  8
0
 62
     0
 10
13.154951
 20
5.2
 30
0.0
 11
13.5
 21
5.545049
 31
0.0
  0
LINE
  8
0
 62
     0
 10
13.331728
 20
5.2
 30
0.0
 11
13.5
 21
5.368272
 31
0.0
  0
ENDBLK
  8
0
  0
BLOCK
  8
0
  2
*X5
 70
    65
 10
0.0
 20
0.0
 30
0.0
  3
*X
  0
LINE
  8
0
 62
     0
 10
10.7
 20
1.154058
 30
0.0
 11
13.5
 21
3.954058
 31
0.0
  0
LINE
  8
0
 62
     0
 10
10.7
 20
1.330835
 30
0.0
 11
13.5
 21
4.130835
 31
0.0
  0
LINE
  8
0
 62
     0
 10
10.7
 20
1.507612
 30
0.0
 11
13.5
 21
4.307612
 31
0.0
  0
LINE
  8
0
 62
     0
 10
10.7
 20
1.684389
 30
0.0
 11
13.5
 21
4.484389
 31
0.0
  0
LINE
  8
0
 62
     0
 10
10.7
 20
1.861165
 30
0.0
 11
13.5
 21
4.661165
 31
0.0
  0
LINE
  8
0
 62
     0
 10
10.7
 20
2.037942
 30
0.0
 11
13.462058
 21
4.8
 31
0.0
  0
LINE
  8
0
 62
     0
 10
10.7
 20
2.214719
 30
0.0
 11
13.285281
 21
4.8
 31
0.0
  0
LINE
  8
0
 62
     0
 10
10.7
 20
2.391495
 30
0.0
 11
13.108505
 21
4.8
 31
0.0
  0
LINE
  8
0
 62
     0
 10
10.7
 20
2.568272
 30
0.0
 11
12.931728
 21
4.8
 31
0.0
  0
LINE
  8
0
 62
     0
 10
10.7
 20
2.745049
 30
0.0
 11
12.754951
 21
4.8
 31
0.0
  0
LINE
  8
0
 62
     0
 10
10.7
 20
2.921825
 30
0.0
 11
12.578175
 21
4.8
 31
0.0
  0
LINE
  8
0
 62
     0
 10
10.7
 20
3.098602
 30
0.0
 11
12.401398
 21
4.8
 31
0.0
  0
LINE
  8
0
 62
     0
 10
10.7
 20
3.275379
 30
0.0
 11
12.224621
 21
4.8
 31
0.0
  0
LINE
  8
0
 62
     0
 10
10.7
 20
3.452155
 30
0.0
 11
12.047845
 21
4.8
 31
0.0
  0
LINE
  8
0
 62
     0
 10
10.7
 20
3.628932
 30
0.0
 11
11.871068
 21
4.8
 31
0.0
  0
LINE
  8
0
 62
     0
 10
10.7
 20
3.805709
 30
0.0
 11
11.694291
 21
4.8
 31
0.0
  0
LINE
  8
0
 62
     0
 10
10.7
 20
3.982486
 30
0.0
 11
11.517514
 21
4.8
 31
0.0
  0
LINE
  8
0
 62
     0
 10
10.7
 20
4.159262
 30
0.0
 11
11.340738
 21
4.8
 31
0.0
  0
LINE
  8
0
 62
     0
 10
10.7
 20
4.336039
 30
0.0
 11
11.163961
 21
4.8
 31
0.0
  0
LINE
  8
0
 62
     0
 10
10.7
 20
4.512816
 30
0.0
 11
10.987184
 21
4.8
 31
0.0
  0
LINE
  8
0
 62
     0
 10
10.7
 20
4.689592
 30
0.0
 11
10.810408
 21
4.8
 31
0.0
  0
LINE
  8
0
 62
     0
 10
10.7
 20
0.977282
 30
0.0
 11
13.5
 21
3.777282
 31
0.0
  0
LINE
  8
0
 62
     0
 10
10.7
 20
0.800505
 30
0.0
 11
13.5
 21
3.600505
 31
0.0
  0
LINE
  8
0
 62
     0
 10
10.7
 20
0.623728
 30
0.0
 11
13.5
 21
3.423728
 31
0.0
  0
LINE
  8
0
 62
     0
 10
10.7
 20
0.446952
 30
0.0
 11
13.5
 21
3.246952
 31
0.0
  0
LINE
  8
0
 62
     0
 10
10.7
 20
0.270175
 30
0.0
 11
13.5
 21
3.070175
 31
0.0
  0
LINE
  8
0
 62
     0
 10
10.7
 20
0.093398
 30
0.0
 11
13.5
 21
2.893398
 31
0.0
  0
LINE
  8
0
 62
     0
 10
10.783378
 20
0.0
 30
0.0
 11
13.5
 21
2.716622
 31
0.0
  0
LINE
  8
0
 62
     0
 10
10.960155
 20
0.0
 30
0.0
 11
13.5
 21
2.539845
 31
0.0
  0
LINE
  8
0
 62
     0
 10
11.136932
 20
0.0
 30
0.0
 11
13.5
 21
2.363068
 31
0.0
  0
LINE
  8
0
 62
     0
 10
11.313708
 20
0.0
 30
0.0
 11
13.5
 21
2.186292
 31
0.0
  0
LINE
  8
0
 62
     0
 10
11.490485
 20
0.0
 30
0.0
 11
13.5
 21
2.009515
 31
0.0
  0
LINE
  8
0
 62
     0
 10
11.667262
 20
0.0
 30
0.0
 11
13.5
 21
1.832738
 31
0.0
  0
LINE
  8
0
 62
     0
 10
11.844039
 20
0.0
 30
0.0
 11
13.5
 21
1.655961
 31
0.0
  0
LINE
  8
0
 62
     0
 10
12.020815
 20
0.0
 30
0.0
 11
13.5
 21
1.479185
 31
0.0
  0
LINE
  8
0
 62
     0
 10
12.197592
 20
0.0
 30
0.0
 11
13.5
 21
1.302408
 31
0.0
  0
LINE
  8
0
 62
     0
 10
12.374369
 20
0.0
 30
0.0
 11
13.5
 21
1.125631
 31
0.0
  0
LINE
  8
0
 62
     0
 10
12.551145
 20
0.0
 30
0.0
 11
13.5
 21
0.948855
 31
0.0
  0
LINE
  8
0
 62
     0
 10
12.727922
 20
0.0
 30
0.0
 11
13.5
 21
0.772078
 31
0.0
  0
LINE
  8
0
 62
     0
 10
12.904699
 20
0.0
 30
0.0
 11
13.5
 21
0.595301
 31
0.0
  0
LINE
  8
0
 62
     0
 10
13.081475
 20
0.0
 30
0.0
 11
13.5
 21
0.418525
 31
0.0
  0
LINE
  8
0
 62
     0
 10
13.258252
 20
0.0
 30
0.0
 11
13.5
 21
0.241748
 31
0.0
  0
LINE
  8
0
 62
     0
 10
13.435029
 20
0.0
 30
0.0
 11
13.5
 21
0.064971
 31
0.0
  0
ENDBLK
  8
0
  0
BLOCK
  8
0
  2
*X6
 70
    65
 10
0.0
 20
0.0
 30
0.0
  3
*X
  0
LINE
  8
0
 62
     0
 10
13.9
 20
6.298602
 30
0.0
 11
16.582995
 21
8.981597
 31
0.0
  0
LINE
  8
0
 62
     0
 10
13.9
 20
6.475379
 30
0.0
 11
16.510503
 21
9.085882
 31
0.0
  0
LINE
  8
0
 62
     0
 10
13.9
 20
6.652155
 30
0.0
 11
16.432927
 21
9.185083
 31
0.0
  0
LINE
  8
0
 62
     0
 10
13.9
 20
6.828932
 30
0.0
 11
16.350372
 21
9.279304
 31
0.0
  0
LINE
  8
0
 62
     0
 10
13.9
 20
7.005709
 30
0.0
 11
16.262892
 21
9.368601
 31
0.0
  0
LINE
  8
0
 62
     0
 10
13.9
 20
7.182486
 30
0.0
 11
16.170495
 21
9.452981
 31
0.0
  0
LINE
  8
0
 62
     0
 10
13.9
 20
7.359262
 30
0.0
 11
16.073145
 21
9.532407
 31
0.0
  0
LINE
  8
0
 62
     0
 10
13.9
 20
7.536039
 30
0.0
 11
15.970755
 21
9.606794
 31
0.0
  0
LINE
  8
0
 62
     0
 10
13.9
 20
7.712816
 30
0.0
 11
15.863189
 21
9.676004
 31
0.0
  0
LINE
  8
0
 62
     0
 10
13.9
 20
7.889592
 30
0.0
 11
15.75025
 21
9.739843
 31
0.0
  0
LINE
  8
0
 62
     0
 10
13.9
 20
8.066369
 30
0.0
 11
15.631675
 21
9.798044
 31
0.0
  0
LINE
  8
0
 62
     0
 10
13.9
 20
8.243146
 30
0.0
 11
15.50711
 21
9.850256
 31
0.0
  0
LINE
  8
0
 62
     0
 10
13.9
 20
8.419922
 30
0.0
 11
15.376096
 21
9.896018
 31
0.0
  0
LINE
  8
0
 62
     0
 10
13.9
 20
8.596699
 30
0.0
 11
15.238027
 21
9.934726
 31
0.0
  0
LINE
  8
0
 62
     0
 10
13.9
 20
8.773476
 30
0.0
 11
15.092096
 21
9.965572
 31
0.0
  0
LINE
  8
0
 62
     0
 10
13.9
 20
8.950253
 30
0.0
 11
14.937209
 21
9.987461
 31
0.0
  0
LINE
  8
0
 62
     0
 10
13.9
 20
9.127029
 30
0.0
 11
14.771824
 21
9.998853
 31
0.0
  0
LINE
  8
0
 62
     0
 10
13.9
 20
9.303806
 30
0.0
 11
14.596193
 21
9.999999
 31
0.0
  0
LINE
  8
0
 62
     0
 10
13.9
 20
9.480583
 30
0.0
 11
14.419417
 21
9.999999
 31
0.0
  0
LINE
  8
0
 62
     0
 10
13.9
 20
9.657359
 30
0.0
 11
14.24264
 21
10.0
 31
0.0
  0
LINE
  8
0
 62
     0
 10
13.9
 20
9.834136
 30
0.0
 11
14.065864
 21
10.0
 31
0.0
  0
LINE
  8
0
 62
     0
 10
13.9
 20
6.121825
 30
0.0
 11
16.650245
 21
8.872071
 31
0.0
  0
LINE
  8
0
 62
     0
 10
13.9
 20
5.945049
 30
0.0
 11
16.712035
 21
8.757083
 31
0.0
  0
LINE
  8
0
 62
     0
 10
13.9
 20
5.768272
 30
0.0
 11
16.768067
 21
8.636339
 31
0.0
  0
LINE
  8
0
 62
     0
 10
13.9
 20
5.591495
 30
0.0
 11
16.817955
 21
8.509451
 31
0.0
  0
LINE
  8
0
 62
     0
 10
13.9
 20
5.414719
 30
0.0
 11
16.861189
 21
8.375908
 31
0.0
  0
LINE
  8
0
 62
     0
 10
13.9
 20
5.237942
 30
0.0
 11
16.897097
 21
8.235039
 31
0.0
  0
LINE
  8
0
 62
     0
 10
14.038835
 20
5.2
 30
0.0
 11
16.924779
 21
8.085944
 31
0.0
  0
LINE
  8
0
 62
     0
 10
14.215611
 20
5.2
 30
0.0
 11
16.942997
 21
7.927385
 31
0.0
  0
LINE
  8
0
 62
     0
 10
14.392388
 20
5.2
 30
0.0
 11
16.949987
 21
7.757599
 31
0.0
  0
LINE
  8
0
 62
     0
 10
14.569165
 20
5.2
 30
0.0
 11
16.943101
 21
7.573936
 31
0.0
  0
LINE
  8
0
 62
     0
 10
14.745942
 20
5.2
 30
0.0
 11
16.918037
 21
7.372095
 31
0.0
  0
LINE
  8
0
 62
     0
 10
14.922718
 20
5.2
 30
0.0
 11
16.866909
 21
7.144191
 31
0.0
  0
LINE
  8
0
 62
     0
 10
15.099495
 20
5.2
 30
0.0
 11
16.771715
 21
6.87222
 31
0.0
  0
LINE
  8
0
 62
     0
 10
15.276272
 20
5.2
 30
0.0
 11
15.847951
 21
5.77168
 31
0.0
  0
LINE
  8
0
 62
     0
 10
15.96673
 20
5.890458
 30
0.0
 11
16.559542
 21
6.48327
 31
0.0
  0
LINE
  8
0
 62
     0
 10
15.453048
 20
5.2
 30
0.0
 11
15.970661
 21
5.717613
 31
0.0
  0
LINE
  8
0
 62
     0
 10
15.629825
 20
5.2
 30
0.0
 11
16.088934
 21
5.659109
 31
0.0
  0
LINE
  8
0
 62
     0
 10
15.806602
 20
5.2
 30
0.0
 11
16.202964
 21
5.596363
 31
0.0
  0
LINE
  8
0
 62
     0
 10
15.983378
 20
5.2
 30
0.0
 11
16.312909
 21
5.529531
 31
0.0
  0
LINE
  8
0
 62
     0
 10
16.160155
 20
5.2
 30
0.0
 11
16.418895
 21
5.45874
 31
0.0
  0
LINE
  8
0
 62
     0
 10
16.336932
 20
5.2
 30
0.0
 11
16.521021
 21
5.384089
 31
0.0
  0
LINE
  8
0
 62
     0
 10
16.513708
 20
5.2
 30
0.0
 11
16.619363
 21
5.305655
 31
0.0
  0
LINE
  8
0
 62
     0
 10
16.690485
 20
5.2
 30
0.0
 11
16.713975
 21
5.22349
 31
0.0
  0
ENDBLK
  8
0
  0
BLOCK
  8
0
  2
*X7
 70
    65
 10
0.0
 20
0.0
 30
0.0
  3
*X
  0
LINE
  8
0
 62
     0
 10
13.9
 20
0.818525
 30
0.0
 11
17.39645
 21
4.314974
 31
0.0
  0
LINE
  8
0
 62
     0
 10
13.9
 20
0.995301
 30
0.0
 11
17.336354
 21
4.431655
 31
0.0
  0
LINE
  8
0
 62
     0
 10
13.9
 20
1.172078
 30
0.0
 11
17.272078
 21
4.544156
 31
0.0
  0
LINE
  8
0
 62
     0
 10
13.9
 20
1.348855
 30
0.0
 11
17.203766
 21
4.652621
 31
0.0
  0
LINE
  8
0
 62
     0
 10
13.9
 20
1.525631
 30
0.0
 11
17.131535
 21
4.757167
 31
0.0
  0
LINE
  8
0
 62
     0
 10
13.9
 20
1.702408
 30
0.0
 11
16.997592
 21
4.8
 31
0.0
  0
LINE
  8
0
 62
     0
 10
13.9
 20
1.879185
 30
0.0
 11
16.820815
 21
4.8
 31
0.0
  0
LINE
  8
0
 62
     0
 10
13.9
 20
2.055961
 30
0.0
 11
16.644039
 21
4.8
 31
0.0
  0
LINE
  8
0
 62
     0
 10
13.9
 20
2.232738
 30
0.0
 11
16.467262
 21
4.8
 31
0.0
  0
LINE
  8
0
 62
     0
 10
13.9
 20
2.409515
 30
0.0
 11
16.290485
 21
4.8
 31
0.0
  0
LINE
  8
0
 62
     0
 10
13.9
 20
2.586292
 30
0.0
 11
16.113708
 21
4.8
 31
0.0
  0
LINE
  8
0
 62
     0
 10
13.9
 20
2.763068
 30
0.0
 11
15.936932
 21
4.8
 31
0.0
  0
LINE
  8
0
 62
     0
 10
13.9
 20
2.939845
 30
0.0
 11
15.760155
 21
4.8
 31
0.0
  0
LINE
  8
0
 62
     0
 10
13.9
 20
3.116622
 30
0.0
 11
15.583378
 21
4.8
 31
0.0
  0
LINE
  8
0
 62
     0
 10
13.9
 20
3.293398
 30
0.0
 11
15.406602
 21
4.8
 31
0.0
  0
LINE
  8
0
 62
     0
 10
13.9
 20
3.470175
 30
0.0
 11
15.229825
 21
4.8
 31
0.0
  0
LINE
  8
0
 62
     0
 10
13.9
 20
3.646952
 30
0.0
 11
15.053048
 21
4.8
 31
0.0
  0
LINE
  8
0
 62
     0
 10
13.9
 20
3.823728
 30
0.0
 11
14.876272
 21
4.8
 31
0.0
  0
LINE
  8
0
 62
     0
 10
13.9
 20
4.000505
 30
0.0
 11
14.699495
 21
4.8
 31
0.0
  0
LINE
  8
0
 62
     0
 10
13.9
 20
4.177282
 30
0.0
 11
14.522718
 21
4.8
 31
0.0
  0
LINE
  8
0
 62
     0
 10
13.9
 20
4.354058
 30
0.0
 11
14.345942
 21
4.8
 31
0.0
  0
LINE
  8
0
 62
     0
 10
13.9
 20
4.530835
 30
0.0
 11
14.169165
 21
4.8
 31
0.0
  0
LINE
  8
0
 62
     0
 10
13.9
 20
4.707612
 30
0.0
 11
13.992388
 21
4.8
 31
0.0
  0
LINE
  8
0
 62
     0
 10
13.9
 20
0.641748
 30
0.0
 11
17.452185
 21
4.193933
 31
0.0
  0
LINE
  8
0
 62
     0
 10
13.9
 20
0.464971
 30
0.0
 11
17.503339
 21
4.068311
 31
0.0
  0
LINE
  8
0
 62
     0
 10
13.9
 20
0.288194
 30
0.0
 11
17.549642
 21
3.937837
 31
0.0
  0
LINE
  8
0
 62
     0
 10
13.9
 20
0.111418
 30
0.0
 11
17.590762
 21
3.80218
 31
0.0
  0
LINE
  8
0
 62
     0
 10
13.965359
 20
0.0
 30
0.0
 11
17.62629
 21
3.660931
 31
0.0
  0
LINE
  8
0
 62
     0
 10
14.142136
 20
0.000001
 30
0.0
 11
17.655713
 21
3.513577
 31
0.0
  0
LINE
  8
0
 62
     0
 10
14.318913
 20
0.000001
 30
0.0
 11
17.678385
 21
3.359473
 31
0.0
  0
LINE
  8
0
 62
     0
 10
14.49569
 20
0.000001
 30
0.0
 11
17.693473
 21
3.197784
 31
0.0
  0
LINE
  8
0
 62
     0
 10
14.672467
 20
0.000002
 30
0.0
 11
17.699875
 21
3.027409
 31
0.0
  0
LINE
  8
0
 62
     0
 10
14.853154
 20
0.003912
 30
0.0
 11
17.696088
 21
2.846846
 31
0.0
  0
LINE
  8
0
 62
     0
 10
15.046044
 20
0.020025
 30
0.0
 11
17.679975
 21
2.653956
 31
0.0
  0
LINE
  8
0
 62
     0
 10
15.254483
 20
0.051687
 30
0.0
 11
17.648313
 21
2.445517
 31
0.0
  0
LINE
  8
0
 62
     0
 10
15.483762
 20
0.10419
 30
0.0
 11
17.59581
 21
2.216238
 31
0.0
  0
LINE
  8
0
 62
     0
 10
15.743786
 20
0.187437
 30
0.0
 11
17.512563
 21
1.956214
 31
0.0
  0
LINE
  8
0
 62
     0
 10
16.058176
 20
0.32505
 30
0.0
 11
17.37495
 21
1.641824
 31
0.0
  0
LINE
  8
0
 62
     0
 10
16.54193
 20
0.632028
 30
0.0
 11
17.067972
 21
1.15807
 31
0.0
  0
ENDBLK
  8
0
  0
BLOCK
  8
0
  2
B1003
 70
     0
 10
0.0
 20
0.0
 30
0.0
  3
B1003
  0
INSERT
  8
0
  6
CONTINUOUS
  2
B1002
 10
-2.5
 20
0.0
 30
0.0
  0
INSERT
  8
0
  6
CONTINUOUS
  2
B1001
 10
-20.0
 20
-132.5
 30
0.0
  0
TEXT
  8
BASE
  6
CONTINUOUS
 10
-60.0
 20
-14.583333
 30
0.0
 40
2.0
  1
2
  7
GREEKS
  0
TEXT
  8
BASE
  6
CONTINUOUS
 10
-60.0
 20
-5.0
 30
0.0
 40
2.0
  1
1
  7
GREEKS
  0
LINE
  8
BASE
  6
CONTINUOUS
 10
-25.0
 20
-142.5
 30
0.0
 11
2.5
 21
-142.5
 31
0.0
  0
LINE
  8
BASE
  6
CONTINUOUS
 10
-67.5
 20
-157.5
 30
0.0
 11
-67.5
 21
-162.5
 31
0.0
  0
LINE
  8
BASE
  6
CONTINUOUS
 10
-47.356464
 20
-157.5
 30
0.0
 11
-67.5
 21
-157.5
 31
0.0
  0
LINE
  8
BASE
  6
CONTINUOUS
 10
-55.0
 20
-152.5
 30
0.0
 11
-55.0
 21
-162.5
 31
0.0
  0
LINE
  8
BASE
  6
CONTINUOUS
 10
-45.0
 20
-152.5
 30
0.0
 11
-55.0
 21
-152.5
 31
0.0
  0
CIRCLE
  8
BASE
  6
CONTINUOUS
 10
-46.178255
 20
-157.510508
 30
0.0
 40
1.178255
  0
INSERT
  8
BASE
  6
CONTINUOUS
  2
BLC29
 10
-53.553859
 20
-147.628465
 30
0.0
 41
-1.0
 50
180.0
  0
INSERT
  8
BASE
  6
CONTINUOUS
  2
BLC29
 10
-56.446141
 20
-147.628465
 30
0.0
 50
180.0
  0
TEXT
  8
BASE
  6
CONTINUOUS
 10
-38.503648
 20
-158.140985
 30
0.0
 40
1.5
  1
FAULT
  7
GREEKS
  0
TEXT
  8
BASE
  6
CONTINUOUS
 10
-40.938012
 20
-153.129006
 30
0.0
 40
1.5
  1
AUD.ALARM
  7
GREEKS
  0
TEXT
  8
BASE
  6
CONTINUOUS
 10
-37.375801
 20
-148.186535
 30
0.0
 40
1.5
  1
I/O
  7
GREEKS
  0
TEXT
  8
BASE
  6
CONTINUOUS
 10
-39.061988
 20
-143.438168
 30
0.0
 40
1.5
  1
RESET
  7
GREEKS
  0
LINE
  8
BASE
  6
CONTINUOUS
 10
-50.0
 20
-12.5
 30
0.0
 11
-43.4375
 21
-12.5
 31
0.0
  0
LINE
  8
BASE
  6
CONTINUOUS
 10
-50.0
 20
-5.0
 30
0.0
 11
-43.4375
 21
-5.0
 31
0.0
  0
CIRCLE
  8
BASE
  6
CONTINUOUS
 10
-42.5
 20
-12.5
 30
0.0
 40
0.9375
  0
CIRCLE
  8
BASE
  6
CONTINUOUS
 10
-42.5
 20
-5.0
 30
0.0
 40
0.9375
  0
LINE
  8
BASE
  6
CONTINUOUS
 10
-50.0
 20
-17.5
 30
0.0
 11
-50.0
 21
-8.75
 31
0.0
  0
LINE
  8
BASE
  6
CONTINUOUS
 10
-50.0
 20
-8.75
 30
0.0
 11
-50.0
 21
0.0
 31
0.0
  0
LINE
  8
BASE
  6
CONTINUOUS
 10
-50.0
 20
-8.75
 30
0.0
 11
-67.5
 21
-8.75
 31
0.0
  0
LINE
  8
BASE
  6
CONTINUOUS
 10
-50.0
 20
0.0
 30
0.0
 11
-67.5
 21
0.0
 31
0.0
  0
LINE
  8
BASE
  6
CONTINUOUS
 10
-67.5
 20
0.0
 30
0.0
 11
-67.5
 21
-8.75
 31
0.0
  0
LINE
  8
BASE
  6
CONTINUOUS
 10
-67.5
 20
-8.75
 30
0.0
 11
-67.5
 21
-17.5
 31
0.0
  0
LINE
  8
BASE
  6
CONTINUOUS
 10
-50.0
 20
-17.5
 30
0.0
 11
-67.5
 21
-17.5
 31
0.0
  0
LINE
  8
BASE
  6
CONTINUOUS
 10
-45.0
 20
-160.0
 30
0.0
 11
-25.0
 21
-160.0
 31
0.0
  0
LINE
  8
BASE
  6
CONTINUOUS
 10
-25.0
 20
-160.0
 30
0.0
 11
-25.0
 21
-155.0
 31
0.0
  0
LINE
  8
BASE
  6
CONTINUOUS
 10
-45.0
 20
-155.0
 30
0.0
 11
-25.0
 21
-155.0
 31
0.0
  0
LINE
  8
BASE
  6
CONTINUOUS
 10
-45.0
 20
-155.0
 30
0.0
 11
-45.0
 21
-160.0
 31
0.0
  0
LINE
  8
BASE
  6
CONTINUOUS
 10
-45.0
 20
-155.0
 30
0.0
 11
-45.0
 21
-147.5
 31
0.0
  0
LINE
  8
BASE
  6
CONTINUOUS
 10
-25.0
 20
-150.0
 30
0.0
 11
-45.0
 21
-150.0
 31
0.0
  0
LINE
  8
BASE
  6
CONTINUOUS
 10
-25.0
 20
-147.5
 30
0.0
 11
-25.0
 21
-155.0
 31
0.0
  0
LINE
  8
BASE
  6
CONTINUOUS
 10
-25.0
 20
-147.5
 30
0.0
 11
-25.0
 21
-140.0
 31
0.0
  0
LINE
  8
BASE
  6
CONTINUOUS
 10
-45.0
 20
-145.0
 30
0.0
 11
-25.0
 21
-145.0
 31
0.0
  0
LINE
  8
BASE
  6
CONTINUOUS
 10
-45.0
 20
-140.0
 30
0.0
 11
-45.0
 21
-147.5
 31
0.0
  0
LINE
  8
BASE
  6
CONTINUOUS
 10
-45.0
 20
-140.0
 30
0.0
 11
-45.0
 21
-140.0
 31
0.0
  0
LINE
  8
BASE
  6
CONTINUOUS
 10
-25.0
 20
-140.0
 30
0.0
 11
-45.0
 21
-140.0
 31
0.0
  0
CIRCLE
  8
BASE
  6
CONTINUOUS
 10
-27.5
 20
-125.0
 30
0.0
 40
0.9375
  0
CIRCLE
  8
BASE
  6
CONTINUOUS
 10
-27.5
 20
-128.75
 30
0.0
 40
0.9375
  0
LINE
  8
BASE
  6
CONTINUOUS
 10
-20.0
 20
-125.0
 30
0.0
 11
-26.5625
 21
-125.0
 31
0.0
  0
LINE
  8
BASE
  6
CONTINUOUS
 10
-20.0
 20
-128.75
 30
0.0
 11
-26.5625
 21
-128.75
 31
0.0
  0
CIRCLE
  8
BASE
  6
CONTINUOUS
 10
-27.5
 20
-116.25
 30
0.0
 40
0.9375
  0
CIRCLE
  8
BASE
  6
CONTINUOUS
 10
-27.5
 20
-120.0
 30
0.0
 40
0.9375
  0
LINE
  8
BASE
  6
CONTINUOUS
 10
-20.0
 20
-116.25
 30
0.0
 11
-26.5625
 21
-116.25
 31
0.0
  0
LINE
  8
BASE
  6
CONTINUOUS
 10
-20.0
 20
-120.0
 30
0.0
 11
-26.5625
 21
-120.0
 31
0.0
  0
CIRCLE
  8
BASE
  6
CONTINUOUS
 10
-27.5
 20
-107.5
 30
0.0
 40
0.9375
  0
CIRCLE
  8
BASE
  6
CONTINUOUS
 10
-27.5
 20
-111.25
 30
0.0
 40
0.9375
  0
LINE
  8
BASE
  6
CONTINUOUS
 10
-20.0
 20
-107.5
 30
0.0
 11
-26.5625
 21
-107.5
 31
0.0
  0
LINE
  8
BASE
  6
CONTINUOUS
 10
-20.0
 20
-111.25
 30
0.0
 11
-26.5625
 21
-111.25
 31
0.0
  0
CIRCLE
  8
BASE
  6
CONTINUOUS
 10
-27.5
 20
-98.75
 30
0.0
 40
0.9375
  0
CIRCLE
  8
BASE
  6
CONTINUOUS
 10
-27.5
 20
-102.5
 30
0.0
 40
0.9375
  0
LINE
  8
BASE
  6
CONTINUOUS
 10
-20.0
 20
-98.75
 30
0.0
 11
-26.5625
 21
-98.75
 31
0.0
  0
LINE
  8
BASE
  6
CONTINUOUS
 10
-20.0
 20
-102.5
 30
0.0
 11
-26.5625
 21
-102.5
 31
0.0
  0
CIRCLE
  8
BASE
  6
CONTINUOUS
 10
-27.5
 20
-90.0
 30
0.0
 40
0.9375
  0
CIRCLE
  8
BASE
  6
CONTINUOUS
 10
-27.5
 20
-93.75
 30
0.0
 40
0.9375
  0
LINE
  8
BASE
  6
CONTINUOUS
 10
-20.0
 20
-90.0
 30
0.0
 11
-26.5625
 21
-90.0
 31
0.0
  0
LINE
  8
BASE
  6
CONTINUOUS
 10
-20.0
 20
-93.75
 30
0.0
 11
-26.5625
 21
-93.75
 31
0.0
  0
CIRCLE
  8
BASE
  6
CONTINUOUS
 10
-27.5
 20
-81.25
 30
0.0
 40
0.9375
  0
CIRCLE
  8
BASE
  6
CONTINUOUS
 10
-27.5
 20
-85.0
 30
0.0
 40
0.9375
  0
LINE
  8
BASE
  6
CONTINUOUS
 10
-20.0
 20
-81.25
 30
0.0
 11
-26.5625
 21
-81.25
 31
0.0
  0
LINE
  8
BASE
  6
CONTINUOUS
 10
-20.0
 20
-85.0
 30
0.0
 11
-26.5625
 21
-85.0
 31
0.0
  0
CIRCLE
  8
BASE
  6
CONTINUOUS
 10
-27.5
 20
-72.5
 30
0.0
 40
0.9375
  0
CIRCLE
  8
BASE
  6
CONTINUOUS
 10
-27.5
 20
-76.25
 30
0.0
 40
0.9375
  0
LINE
  8
BASE
  6
CONTINUOUS
 10
-20.0
 20
-72.5
 30
0.0
 11
-26.5625
 21
-72.5
 31
0.0
  0
LINE
  8
BASE
  6
CONTINUOUS
 10
-20.0
 20
-76.25
 30
0.0
 11
-26.5625
 21
-76.25
 31
0.0
  0
CIRCLE
  8
BASE
  6
CONTINUOUS
 10
-27.5
 20
-63.75
 30
0.0
 40
0.9375
  0
CIRCLE
  8
BASE
  6
CONTINUOUS
 10
-27.5
 20
-67.5
 30
0.0
 40
0.9375
  0
LINE
  8
BASE
  6
CONTINUOUS
 10
-20.0
 20
-63.75
 30
0.0
 11
-26.5625
 21
-63.75
 31
0.0
  0
LINE
  8
BASE
  6
CONTINUOUS
 10
-20.0
 20
-67.5
 30
0.0
 11
-26.5625
 21
-67.5
 31
0.0
  0
CIRCLE
  8
BASE
  6
CONTINUOUS
 10
-27.5
 20
-55.0
 30
0.0
 40
0.9375
  0
CIRCLE
  8
BASE
  6
CONTINUOUS
 10
-27.5
 20
-58.75
 30
0.0
 40
0.9375
  0
LINE
  8
BASE
  6
CONTINUOUS
 10
-20.0
 20
-55.0
 30
0.0
 11
-26.5625
 21
-55.0
 31
0.0
  0
LINE
  8
BASE
  6
CONTINUOUS
 10
-20.0
 20
-58.75
 30
0.0
 11
-26.5625
 21
-58.75
 31
0.0
  0
CIRCLE
  8
BASE
  6
CONTINUOUS
 10
-27.5
 20
-46.25
 30
0.0
 40
0.9375
  0
CIRCLE
  8
BASE
  6
CONTINUOUS
 10
-27.5
 20
-50.0
 30
0.0
 40
0.9375
  0
LINE
  8
BASE
  6
CONTINUOUS
 10
-20.0
 20
-46.25
 30
0.0
 11
-26.5625
 21
-46.25
 31
0.0
  0
LINE
  8
BASE
  6
CONTINUOUS
 10
-20.0
 20
-50.0
 30
0.0
 11
-26.5625
 21
-50.0
 31
0.0
  0
CIRCLE
  8
BASE
  6
CONTINUOUS
 10
-27.5
 20
-37.5
 30
0.0
 40
0.9375
  0
CIRCLE
  8
BASE
  6
CONTINUOUS
 10
-27.5
 20
-41.25
 30
0.0
 40
0.9375
  0
LINE
  8
BASE
  6
CONTINUOUS
 10
-20.0
 20
-37.5
 30
0.0
 11
-26.5625
 21
-37.5
 31
0.0
  0
LINE
  8
BASE
  6
CONTINUOUS
 10
-20.0
 20
-41.25
 30
0.0
 11
-26.5625
 21
-41.25
 31
0.0
  0
CIRCLE
  8
BASE
  6
CONTINUOUS
 10
-27.5
 20
-28.75
 30
0.0
 40
0.9375
  0
CIRCLE
  8
BASE
  6
CONTINUOUS
 10
-27.5
 20
-32.5
 30
0.0
 40
0.9375
  0
LINE
  8
BASE
  6
CONTINUOUS
 10
-20.0
 20
-28.75
 30
0.0
 11
-26.5625
 21
-28.75
 31
0.0
  0
LINE
  8
BASE
  6
CONTINUOUS
 10
-20.0
 20
-32.5
 30
0.0
 11
-26.5625
 21
-32.5
 31
0.0
  0
CIRCLE
  8
BASE
  6
CONTINUOUS
 10
-27.5
 20
-20.0
 30
0.0
 40
0.9375
  0
CIRCLE
  8
BASE
  6
CONTINUOUS
 10
-27.5
 20
-23.75
 30
0.0
 40
0.9375
  0
LINE
  8
BASE
  6
CONTINUOUS
 10
-20.0
 20
-20.0
 30
0.0
 11
-26.5625
 21
-20.0
 31
0.0
  0
LINE
  8
BASE
  6
CONTINUOUS
 10
-20.0
 20
-23.75
 30
0.0
 11
-26.5625
 21
-23.75
 31
0.0
  0
CIRCLE
  8
BASE
  6
CONTINUOUS
 10
-27.5
 20
-11.25
 30
0.0
 40
0.9375
  0
CIRCLE
  8
BASE
  6
CONTINUOUS
 10
-27.5
 20
-15.0
 30
0.0
 40
0.9375
  0
LINE
  8
BASE
  6
CONTINUOUS
 10
-20.0
 20
-11.25
 30
0.0
 11
-26.5625
 21
-11.25
 31
0.0
  0
LINE
  8
BASE
  6
CONTINUOUS
 10
-20.0
 20
-15.0
 30
0.0
 11
-26.5625
 21
-15.0
 31
0.0
  0
LINE
  8
BASE
  6
CONTINUOUS
 10
-20.0
 20
-6.25
 30
0.0
 11
-26.5625
 21
-6.25
 31
0.0
  0
LINE
  8
BASE
  6
CONTINUOUS
 10
-20.0
 20
-2.5
 30
0.0
 11
-26.5625
 21
-2.5
 31
0.0
  0
CIRCLE
  8
BASE
  6
CONTINUOUS
 10
-27.5
 20
-2.5
 30
0.0
 40
0.9375
  0
CIRCLE
  8
BASE
  6
CONTINUOUS
 10
-27.5
 20
-6.25
 30
0.0
 40
0.9375
  0
LINE
  8
BASE
  6
CONTINUOUS
 10
-45.0
 20
0.0
 30
0.0
 11
-25.0
 21
0.0
 31
0.0
  0
LINE
  8
BASE
  6
CONTINUOUS
 10
-25.0
 20
0.0
 30
0.0
 11
-25.0
 21
-140.0
 31
0.0
  0
LINE
  8
BASE
  6
CONTINUOUS
 10
-45.0
 20
0.0
 30
0.0
 11
-45.0
 21
-140.0
 31
0.0
  0
ENDBLK
  8
0
  0
BLOCK
  8
0
  2
BLC29
 70
    64
 10
0.0
 20
0.0
 30
0.0
  3
BLC29
  0
LINE
  8
0
  6
CONTINUOUS
 10
0.004865
 20
1.206889
 30
0.0
 11
2.350631
 21
-0.128465
 31
0.0
  0
LINE
  8
0
  6
CONTINUOUS
 10
2.350631
 20
-0.128465
 30
0.0
 11
0.004865
 21
-1.318384
 31
0.0
  0
ENDBLK
  8
0
  0
BLOCK
  8
0
  2
B1000
 70
    64
 10
0.0
 20
0.0
 30
0.0
  3
B1000
  0
CIRCLE
  8
BASE
  6
CONTINUOUS
 10
-0.625
 20
-1.875
 30
0.0
 40
1.875
  0
LINE
  8
BASE
  6
CONTINUOUS
 10
-1.950825
 20
-0.549175
 30
0.0
 11
0.700825
 21
-3.200825
 31
0.0
  0
LINE
  8
BASE
  6
CONTINUOUS
 10
-1.950825
 20
-3.200825
 30
0.0
 11
0.700825
 21
-0.549175
 31
0.0
  0
ENDBLK
  8
0
  0
BLOCK
  8
0
  2
B1001
 70
    64
 10
0.0
 20
0.0
 30
0.0
  3
B1001
  0
LINE
  8
BASE
  6
CONTINUOUS
 10
0.0
 20
-1.25
 30
0.0
 11
-6.5625
 21
-1.25
 31
0.0
  0
CIRCLE
  8
BASE
  6
CONTINUOUS
 10
-7.5
 20
-1.25
 30
0.0
 40
0.9375
  0
CIRCLE
  8
BASE
  6
CONTINUOUS
 10
-7.5
 20
-5.0
 30
0.0
 40
0.9375
  0
LINE
  8
BASE
  6
CONTINUOUS
 10
0.0
 20
-5.0
 30
0.0
 11
-6.5625
 21
-5.0
 31
0.0
  0
ENDBLK
  8
0
  0
BLOCK
  8
0
  2
B1002
 70
    64
 10
0.0
 20
0.0
 30
0.0
  3
B1002
  0
INSERT
  8
0
  6
CONTINUOUS
  2
B1000
 10
-2.5
 20
-125.0
 30
0.0
  0
TEXT
  8
BASE
  6
CONTINUOUS
 10
-10.0
 20
-136.605056
 30
0.0
 40
2.0
  1
16
  7
GREEKS
  0
TEXT
  8
BASE
  6
CONTINUOUS
 10
-10.0
 20
-127.916667
 30
0.0
 40
2.0
  1
15
  7
GREEKS
  0
TEXT
  8
BASE
  6
CONTINUOUS
 10
-10.0
 20
-119.583333
 30
0.0
 40
2.0
  1
14
  7
GREEKS
  0
TEXT
  8
BASE
  6
CONTINUOUS
 10
-10.0
 20
-110.3644
 30
0.0
 40
2.0
  1
13
  7
GREEKS
  0
TEXT
  8
BASE
  6
CONTINUOUS
 10
-10.0
 20
-101.666667
 30
0.0
 40
2.0
  1
12
  7
GREEKS
  0
TEXT
  8
BASE
  6
CONTINUOUS
 10
-10.0
 20
-92.613877
 30
0.0
 40
2.0
  1
11
  7
GREEKS
  0
TEXT
  8
BASE
  6
CONTINUOUS
 10
-10.0
 20
-83.927528
 30
0.0
 40
2.0
  1
10
  7
GREEKS
  0
TEXT
  8
BASE
  6
CONTINUOUS
 10
-10.0
 20
-75.416667
 30
0.0
 40
2.0
  1
9
  7
GREEKS
  0
TEXT
  8
BASE
  6
CONTINUOUS
 10
-10.0
 20
-66.541405
 30
0.0
 40
2.0
  1
8
  7
GREEKS
  0
TEXT
  8
BASE
  6
CONTINUOUS
 10
-10.0
 20
-57.666144
 30
0.0
 40
2.0
  1
7
  7
GREEKS
  0
TEXT
  8
BASE
  6
CONTINUOUS
 10
-10.0
 20
-49.166667
 30
0.0
 40
2.0
  1
6
  7
GREEKS
  0
TEXT
  8
BASE
  6
CONTINUOUS
 10
-10.0
 20
-40.113877
 30
0.0
 40
2.0
  1
5
  7
GREEKS
  0
TEXT
  8
BASE
  6
CONTINUOUS
 10
-10.0
 20
-31.436872
 30
0.0
 40
2.0
  1
4
  7
GREEKS
  0
TEXT
  8
BASE
  6
CONTINUOUS
 10
-10.0
 20
-22.729795
 30
0.0
 40
2.0
  1
3
  7
GREEKS
  0
TEXT
  8
BASE
  6
CONTINUOUS
 10
-10.0
 20
-14.052789
 30
0.0
 40
2.0
  1
2
  7
GREEKS
  0
TEXT
  8
BASE
  6
CONTINUOUS
 10
-10.0
 20
-5.3644
 30
0.0
 40
2.0
  1
1
  7
GREEKS
  0
LINE
  8
BASE
  6
CONTINUOUS
 10
5.0
 20
-142.5
 30
0.0
 11
5.0
 21
-132.5
 31
0.0
  0
LINE
  8
BASE
  6
CONTINUOUS
 10
2.5
 20
-2.0
 30
0.0
 11
2.5
 21
-139.0
 31
0.0
  0
LINE
  8
BASE
  6
CONTINUOUS
 10
2.5
 20
-2.0
 30
0.0
 11
1.5
 21
-1.0
 31
0.0
  0
LINE
  8
BASE
  6
CONTINUOUS
 10
2.5
 20
-139.0
 30
0.0
 11
1.5
 21
-140.0
 31
0.0
  0
CIRCLE
  8
BASE
  6
CONTINUOUS
 10
-3.125
 20
-135.625
 30
0.0
 40
1.875
  0
LINE
  8
BASE
  6
CONTINUOUS
 10
-4.450825
 20
-134.299175
 30
0.0
 11
-1.799175
 21
-136.950825
 31
0.0
  0
LINE
  8
BASE
  6
CONTINUOUS
 10
-4.450825
 20
-136.950825
 30
0.0
 11
-1.799175
 21
-134.299175
 31
0.0
  0
LINE
  8
BASE
  6
CONTINUOUS
 10
-17.5
 20
-131.25
 30
0.0
 11
-17.5
 21
-140.0
 31
0.0
  0
LINE
  8
BASE
  6
CONTINUOUS
 10
-17.5
 20
-140.0
 30
0.0
 11
0.0
 21
-140.0
 31
0.0
  0
LINE
  8
BASE
  6
CONTINUOUS
 10
0.0
 20
-140.0
 30
0.0
 11
0.0
 21
-131.25
 31
0.0
  0
LINE
  8
BASE
  6
CONTINUOUS
 10
0.0
 20
-131.25
 30
0.0
 11
-17.5
 21
-131.25
 31
0.0
  0
TEXT
  8
BASE
  6
CONTINUOUS
 10
-16.25
 20
-134.375
 30
0.0
 40
1.5
  1
A
  7
GREEKS
  0
TEXT
  8
BASE
  6
CONTINUOUS
 10
-16.25
 20
-138.125
 30
0.0
 40
1.5
  1
B
  7
GREEKS
  0
LINE
  8
BASE
  6
CONTINUOUS
 10
-17.5
 20
-122.5
 30
0.0
 11
-17.5
 21
-131.25
 31
0.0
  0
LINE
  8
BASE
  6
CONTINUOUS
 10
-17.5
 20
-131.25
 30
0.0
 11
0.0
 21
-131.25
 31
0.0
  0
LINE
  8
BASE
  6
CONTINUOUS
 10
0.0
 20
-131.25
 30
0.0
 11
0.0
 21
-122.5
 31
0.0
  0
LINE
  8
BASE
  6
CONTINUOUS
 10
0.0
 20
-122.5
 30
0.0
 11
-17.5
 21
-122.5
 31
0.0
  0
TEXT
  8
BASE
  6
CONTINUOUS
 10
-16.25
 20
-125.625
 30
0.0
 40
1.5
  1
A
  7
GREEKS
  0
TEXT
  8
BASE
  6
CONTINUOUS
 10
-16.25
 20
-129.375
 30
0.0
 40
1.5
  1
B
  7
GREEKS
  0
CIRCLE
  8
BASE
  6
CONTINUOUS
 10
-3.125
 20
-118.125
 30
0.0
 40
1.875
  0
LINE
  8
BASE
  6
CONTINUOUS
 10
-4.450825
 20
-116.799175
 30
0.0
 11
-1.799175
 21
-119.450825
 31
0.0
  0
LINE
  8
BASE
  6
CONTINUOUS
 10
-4.450825
 20
-119.450825
 30
0.0
 11
-1.799175
 21
-116.799175
 31
0.0
  0
LINE
  8
BASE
  6
CONTINUOUS
 10
-17.5
 20
-113.75
 30
0.0
 11
-17.5
 21
-122.5
 31
0.0
  0
LINE
  8
BASE
  6
CONTINUOUS
 10
-17.5
 20
-122.5
 30
0.0
 11
0.0
 21
-122.5
 31
0.0
  0
LINE
  8
BASE
  6
CONTINUOUS
 10
0.0
 20
-122.5
 30
0.0
 11
0.0
 21
-113.75
 31
0.0
  0
LINE
  8
BASE
  6
CONTINUOUS
 10
0.0
 20
-113.75
 30
0.0
 11
-17.5
 21
-113.75
 31
0.0
  0
TEXT
  8
BASE
  6
CONTINUOUS
 10
-16.25
 20
-116.875
 30
0.0
 40
1.5
  1
A
  7
GREEKS
  0
TEXT
  8
BASE
  6
CONTINUOUS
 10
-16.25
 20
-120.625
 30
0.0
 40
1.5
  1
B
  7
GREEKS
  0
CIRCLE
  8
BASE
  6
CONTINUOUS
 10
-3.125
 20
-109.375
 30
0.0
 40
1.875
  0
LINE
  8
BASE
  6
CONTINUOUS
 10
-4.450825
 20
-108.049175
 30
0.0
 11
-1.799175
 21
-110.700825
 31
0.0
  0
LINE
  8
BASE
  6
CONTINUOUS
 10
-4.450825
 20
-110.700825
 30
0.0
 11
-1.799175
 21
-108.049175
 31
0.0
  0
LINE
  8
BASE
  6
CONTINUOUS
 10
-17.5
 20
-105.0
 30
0.0
 11
-17.5
 21
-113.75
 31
0.0
  0
LINE
  8
BASE
  6
CONTINUOUS
 10
-17.5
 20
-113.75
 30
0.0
 11
0.0
 21
-113.75
 31
0.0
  0
LINE
  8
BASE
  6
CONTINUOUS
 10
0.0
 20
-113.75
 30
0.0
 11
0.0
 21
-105.0
 31
0.0
  0
LINE
  8
BASE
  6
CONTINUOUS
 10
0.0
 20
-105.0
 30
0.0
 11
-17.5
 21
-105.0
 31
0.0
  0
TEXT
  8
BASE
  6
CONTINUOUS
 10
-16.25
 20
-108.125
 30
0.0
 40
1.5
  1
A
  7
GREEKS
  0
TEXT
  8
BASE
  6
CONTINUOUS
 10
-16.25
 20
-111.875
 30
0.0
 40
1.5
  1
B
  7
GREEKS
  0
CIRCLE
  8
BASE
  6
CONTINUOUS
 10
-3.125
 20
-100.625
 30
0.0
 40
1.875
  0
LINE
  8
BASE
  6
CONTINUOUS
 10
-4.450825
 20
-99.299175
 30
0.0
 11
-1.799175
 21
-101.950825
 31
0.0
  0
LINE
  8
BASE
  6
CONTINUOUS
 10
-4.450825
 20
-101.950825
 30
0.0
 11
-1.799175
 21
-99.299175
 31
0.0
  0
LINE
  8
BASE
  6
CONTINUOUS
 10
-17.5
 20
-96.25
 30
0.0
 11
-17.5
 21
-105.0
 31
0.0
  0
LINE
  8
BASE
  6
CONTINUOUS
 10
-17.5
 20
-105.0
 30
0.0
 11
0.0
 21
-105.0
 31
0.0
  0
LINE
  8
BASE
  6
CONTINUOUS
 10
0.0
 20
-105.0
 30
0.0
 11
0.0
 21
-96.25
 31
0.0
  0
LINE
  8
BASE
  6
CONTINUOUS
 10
0.0
 20
-96.25
 30
0.0
 11
-17.5
 21
-96.25
 31
0.0
  0
TEXT
  8
BASE
  6
CONTINUOUS
 10
-16.25
 20
-99.375
 30
0.0
 40
1.5
  1
A
  7
GREEKS
  0
TEXT
  8
BASE
  6
CONTINUOUS
 10
-16.25
 20
-103.125
 30
0.0
 40
1.5
  1
B
  7
GREEKS
  0
CIRCLE
  8
BASE
  6
CONTINUOUS
 10
-3.125
 20
-91.875
 30
0.0
 40
1.875
  0
LINE
  8
BASE
  6
CONTINUOUS
 10
-4.450825
 20
-90.549175
 30
0.0
 11
-1.799175
 21
-93.200825
 31
0.0
  0
LINE
  8
BASE
  6
CONTINUOUS
 10
-4.450825
 20
-93.200825
 30
0.0
 11
-1.799175
 21
-90.549175
 31
0.0
  0
LINE
  8
BASE
  6
CONTINUOUS
 10
-17.5
 20
-87.5
 30
0.0
 11
-17.5
 21
-96.25
 31
0.0
  0
LINE
  8
BASE
  6
CONTINUOUS
 10
-17.5
 20
-96.25
 30
0.0
 11
0.0
 21
-96.25
 31
0.0
  0
LINE
  8
BASE
  6
CONTINUOUS
 10
0.0
 20
-96.25
 30
0.0
 11
0.0
 21
-87.5
 31
0.0
  0
LINE
  8
BASE
  6
CONTINUOUS
 10
0.0
 20
-87.5
 30
0.0
 11
-17.5
 21
-87.5
 31
0.0
  0
TEXT
  8
BASE
  6
CONTINUOUS
 10
-16.25
 20
-90.625
 30
0.0
 40
1.5
  1
A
  7
GREEKS
  0
TEXT
  8
BASE
  6
CONTINUOUS
 10
-16.25
 20
-94.375
 30
0.0
 40
1.5
  1
B
  7
GREEKS
  0
CIRCLE
  8
BASE
  6
CONTINUOUS
 10
-3.125
 20
-83.125
 30
0.0
 40
1.875
  0
LINE
  8
BASE
  6
CONTINUOUS
 10
-4.450825
 20
-81.799175
 30
0.0
 11
-1.799175
 21
-84.450825
 31
0.0
  0
LINE
  8
BASE
  6
CONTINUOUS
 10
-4.450825
 20
-84.450825
 30
0.0
 11
-1.799175
 21
-81.799175
 31
0.0
  0
LINE
  8
BASE
  6
CONTINUOUS
 10
-17.5
 20
-78.75
 30
0.0
 11
-17.5
 21
-87.5
 31
0.0
  0
LINE
  8
BASE
  6
CONTINUOUS
 10
-17.5
 20
-87.5
 30
0.0
 11
0.0
 21
-87.5
 31
0.0
  0
LINE
  8
BASE
  6
CONTINUOUS
 10
0.0
 20
-87.5
 30
0.0
 11
0.0
 21
-78.75
 31
0.0
  0
LINE
  8
BASE
  6
CONTINUOUS
 10
0.0
 20
-78.75
 30
0.0
 11
-17.5
 21
-78.75
 31
0.0
  0
TEXT
  8
BASE
  6
CONTINUOUS
 10
-16.25
 20
-81.875
 30
0.0
 40
1.5
  1
A
  7
GREEKS
  0
TEXT
  8
BASE
  6
CONTINUOUS
 10
-16.25
 20
-85.625
 30
0.0
 40
1.5
  1
B
  7
GREEKS
  0
CIRCLE
  8
BASE
  6
CONTINUOUS
 10
-3.125
 20
-74.375
 30
0.0
 40
1.875
  0
LINE
  8
BASE
  6
CONTINUOUS
 10
-4.450825
 20
-73.049175
 30
0.0
 11
-1.799175
 21
-75.700825
 31
0.0
  0
LINE
  8
BASE
  6
CONTINUOUS
 10
-4.450825
 20
-75.700825
 30
0.0
 11
-1.799175
 21
-73.049175
 31
0.0
  0
LINE
  8
BASE
  6
CONTINUOUS
 10
-17.5
 20
-70.0
 30
0.0
 11
-17.5
 21
-78.75
 31
0.0
  0
LINE
  8
BASE
  6
CONTINUOUS
 10
-17.5
 20
-78.75
 30
0.0
 11
0.0
 21
-78.75
 31
0.0
  0
LINE
  8
BASE
  6
CONTINUOUS
 10
0.0
 20
-78.75
 30
0.0
 11
0.0
 21
-70.0
 31
0.0
  0
LINE
  8
BASE
  6
CONTINUOUS
 10
0.0
 20
-70.0
 30
0.0
 11
-17.5
 21
-70.0
 31
0.0
  0
TEXT
  8
BASE
  6
CONTINUOUS
 10
-16.25
 20
-73.125
 30
0.0
 40
1.5
  1
A
  7
GREEKS
  0
TEXT
  8
BASE
  6
CONTINUOUS
 10
-16.25
 20
-76.875
 30
0.0
 40
1.5
  1
B
  7
GREEKS
  0
CIRCLE
  8
BASE
  6
CONTINUOUS
 10
-3.125
 20
-65.625
 30
0.0
 40
1.875
  0
LINE
  8
BASE
  6
CONTINUOUS
 10
-4.450825
 20
-64.299175
 30
0.0
 11
-1.799175
 21
-66.950825
 31
0.0
  0
LINE
  8
BASE
  6
CONTINUOUS
 10
-4.450825
 20
-66.950825
 30
0.0
 11
-1.799175
 21
-64.299175
 31
0.0
  0
LINE
  8
BASE
  6
CONTINUOUS
 10
-17.5
 20
-61.25
 30
0.0
 11
-17.5
 21
-70.0
 31
0.0
  0
LINE
  8
BASE
  6
CONTINUOUS
 10
-17.5
 20
-70.0
 30
0.0
 11
0.0
 21
-70.0
 31
0.0
  0
LINE
  8
BASE
  6
CONTINUOUS
 10
0.0
 20
-70.0
 30
0.0
 11
0.0
 21
-61.25
 31
0.0
  0
LINE
  8
BASE
  6
CONTINUOUS
 10
0.0
 20
-61.25
 30
0.0
 11
-17.5
 21
-61.25
 31
0.0
  0
TEXT
  8
BASE
  6
CONTINUOUS
 10
-16.25
 20
-64.375
 30
0.0
 40
1.5
  1
A
  7
GREEKS
  0
TEXT
  8
BASE
  6
CONTINUOUS
 10
-16.25
 20
-68.125
 30
0.0
 40
1.5
  1
B
  7
GREEKS
  0
CIRCLE
  8
BASE
  6
CONTINUOUS
 10
-3.125
 20
-56.875
 30
0.0
 40
1.875
  0
LINE
  8
BASE
  6
CONTINUOUS
 10
-4.450825
 20
-55.549175
 30
0.0
 11
-1.799175
 21
-58.200825
 31
0.0
  0
LINE
  8
BASE
  6
CONTINUOUS
 10
-4.450825
 20
-58.200825
 30
0.0
 11
-1.799175
 21
-55.549175
 31
0.0
  0
LINE
  8
BASE
  6
CONTINUOUS
 10
-17.5
 20
-52.5
 30
0.0
 11
-17.5
 21
-61.25
 31
0.0
  0
LINE
  8
BASE
  6
CONTINUOUS
 10
-17.5
 20
-61.25
 30
0.0
 11
0.0
 21
-61.25
 31
0.0
  0
LINE
  8
BASE
  6
CONTINUOUS
 10
0.0
 20
-61.25
 30
0.0
 11
0.0
 21
-52.5
 31
0.0
  0
LINE
  8
BASE
  6
CONTINUOUS
 10
0.0
 20
-52.5
 30
0.0
 11
-17.5
 21
-52.5
 31
0.0
  0
TEXT
  8
BASE
  6
CONTINUOUS
 10
-16.25
 20
-55.625
 30
0.0
 40
1.5
  1
A
  7
GREEKS
  0
TEXT
  8
BASE
  6
CONTINUOUS
 10
-16.25
 20
-59.375
 30
0.0
 40
1.5
  1
B
  7
GREEKS
  0
CIRCLE
  8
BASE
  6
CONTINUOUS
 10
-3.125
 20
-48.125
 30
0.0
 40
1.875
  0
LINE
  8
BASE
  6
CONTINUOUS
 10
-4.450825
 20
-46.799175
 30
0.0
 11
-1.799175
 21
-49.450825
 31
0.0
  0
LINE
  8
BASE
  6
CONTINUOUS
 10
-4.450825
 20
-49.450825
 30
0.0
 11
-1.799175
 21
-46.799175
 31
0.0
  0
LINE
  8
BASE
  6
CONTINUOUS
 10
-17.5
 20
-43.75
 30
0.0
 11
-17.5
 21
-52.5
 31
0.0
  0
LINE
  8
BASE
  6
CONTINUOUS
 10
-17.5
 20
-52.5
 30
0.0
 11
0.0
 21
-52.5
 31
0.0
  0
LINE
  8
BASE
  6
CONTINUOUS
 10
0.0
 20
-52.5
 30
0.0
 11
0.0
 21
-43.75
 31
0.0
  0
LINE
  8
BASE
  6
CONTINUOUS
 10
0.0
 20
-43.75
 30
0.0
 11
-17.5
 21
-43.75
 31
0.0
  0
TEXT
  8
BASE
  6
CONTINUOUS
 10
-16.25
 20
-46.875
 30
0.0
 40
1.5
  1
A
  7
GREEKS
  0
TEXT
  8
BASE
  6
CONTINUOUS
 10
-16.25
 20
-50.625
 30
0.0
 40
1.5
  1
B
  7
GREEKS
  0
CIRCLE
  8
BASE
  6
CONTINUOUS
 10
-3.125
 20
-39.375
 30
0.0
 40
1.875
  0
LINE
  8
BASE
  6
CONTINUOUS
 10
-4.450825
 20
-38.049175
 30
0.0
 11
-1.799175
 21
-40.700825
 31
0.0
  0
LINE
  8
BASE
  6
CONTINUOUS
 10
-4.450825
 20
-40.700825
 30
0.0
 11
-1.799175
 21
-38.049175
 31
0.0
  0
LINE
  8
BASE
  6
CONTINUOUS
 10
-17.5
 20
-35.0
 30
0.0
 11
-17.5
 21
-43.75
 31
0.0
  0
LINE
  8
BASE
  6
CONTINUOUS
 10
-17.5
 20
-43.75
 30
0.0
 11
0.0
 21
-43.75
 31
0.0
  0
LINE
  8
BASE
  6
CONTINUOUS
 10
0.0
 20
-43.75
 30
0.0
 11
0.0
 21
-35.0
 31
0.0
  0
LINE
  8
BASE
  6
CONTINUOUS
 10
0.0
 20
-35.0
 30
0.0
 11
-17.5
 21
-35.0
 31
0.0
  0
TEXT
  8
BASE
  6
CONTINUOUS
 10
-16.25
 20
-38.125
 30
0.0
 40
1.5
  1
A
  7
GREEKS
  0
TEXT
  8
BASE
  6
CONTINUOUS
 10
-16.25
 20
-41.875
 30
0.0
 40
1.5
  1
B
  7
GREEKS
  0
CIRCLE
  8
BASE
  6
CONTINUOUS
 10
-3.125
 20
-30.625
 30
0.0
 40
1.875
  0
LINE
  8
BASE
  6
CONTINUOUS
 10
-4.450825
 20
-29.299175
 30
0.0
 11
-1.799175
 21
-31.950825
 31
0.0
  0
LINE
  8
BASE
  6
CONTINUOUS
 10
-4.450825
 20
-31.950825
 30
0.0
 11
-1.799175
 21
-29.299175
 31
0.0
  0
LINE
  8
BASE
  6
CONTINUOUS
 10
-17.5
 20
-26.25
 30
0.0
 11
-17.5
 21
-35.0
 31
0.0
  0
LINE
  8
BASE
  6
CONTINUOUS
 10
-17.5
 20
-35.0
 30
0.0
 11
0.0
 21
-35.0
 31
0.0
  0
LINE
  8
BASE
  6
CONTINUOUS
 10
0.0
 20
-35.0
 30
0.0
 11
0.0
 21
-26.25
 31
0.0
  0
LINE
  8
BASE
  6
CONTINUOUS
 10
0.0
 20
-26.25
 30
0.0
 11
-17.5
 21
-26.25
 31
0.0
  0
TEXT
  8
BASE
  6
CONTINUOUS
 10
-16.25
 20
-29.375
 30
0.0
 40
1.5
  1
A
  7
GREEKS
  0
TEXT
  8
BASE
  6
CONTINUOUS
 10
-16.25
 20
-33.125
 30
0.0
 40
1.5
  1
B
  7
GREEKS
  0
CIRCLE
  8
BASE
  6
CONTINUOUS
 10
-3.125
 20
-21.875
 30
0.0
 40
1.875
  0
LINE
  8
BASE
  6
CONTINUOUS
 10
-4.450825
 20
-20.549175
 30
0.0
 11
-1.799175
 21
-23.200825
 31
0.0
  0
LINE
  8
BASE
  6
CONTINUOUS
 10
-4.450825
 20
-23.200825
 30
0.0
 11
-1.799175
 21
-20.549175
 31
0.0
  0
LINE
  8
BASE
  6
CONTINUOUS
 10
-17.5
 20
-17.5
 30
0.0
 11
-17.5
 21
-26.25
 31
0.0
  0
LINE
  8
BASE
  6
CONTINUOUS
 10
-17.5
 20
-26.25
 30
0.0
 11
0.0
 21
-26.25
 31
0.0
  0
LINE
  8
BASE
  6
CONTINUOUS
 10
0.0
 20
-26.25
 30
0.0
 11
0.0
 21
-17.5
 31
0.0
  0
LINE
  8
BASE
  6
CONTINUOUS
 10
0.0
 20
-17.5
 30
0.0
 11
-17.5
 21
-17.5
 31
0.0
  0
TEXT
  8
BASE
  6
CONTINUOUS
 10
-16.25
 20
-20.625
 30
0.0
 40
1.5
  1
A
  7
GREEKS
  0
TEXT
  8
BASE
  6
CONTINUOUS
 10
-16.25
 20
-24.375
 30
0.0
 40
1.5
  1
B
  7
GREEKS
  0
CIRCLE
  8
BASE
  6
CONTINUOUS
 10
-3.125
 20
-13.125
 30
0.0
 40
1.875
  0
LINE
  8
BASE
  6
CONTINUOUS
 10
-4.450825
 20
-11.799175
 30
0.0
 11
-1.799175
 21
-14.450825
 31
0.0
  0
LINE
  8
BASE
  6
CONTINUOUS
 10
-4.450825
 20
-14.450825
 30
0.0
 11
-1.799175
 21
-11.799175
 31
0.0
  0
LINE
  8
BASE
  6
CONTINUOUS
 10
-17.5
 20
-8.75
 30
0.0
 11
-17.5
 21
-17.5
 31
0.0
  0
LINE
  8
BASE
  6
CONTINUOUS
 10
-17.5
 20
-17.5
 30
0.0
 11
0.0
 21
-17.5
 31
0.0
  0
LINE
  8
BASE
  6
CONTINUOUS
 10
0.0
 20
-17.5
 30
0.0
 11
0.0
 21
-8.75
 31
0.0
  0
LINE
  8
BASE
  6
CONTINUOUS
 10
0.0
 20
-8.75
 30
0.0
 11
-17.5
 21
-8.75
 31
0.0
  0
TEXT
  8
BASE
  6
CONTINUOUS
 10
-16.25
 20
-11.875
 30
0.0
 40
1.5
  1
A
  7
GREEKS
  0
TEXT
  8
BASE
  6
CONTINUOUS
 10
-16.25
 20
-15.625
 30
0.0
 40
1.5
  1
B
  7
GREEKS
  0
TEXT
  8
BASE
  6
CONTINUOUS
 10
-16.25
 20
-6.875
 30
0.0
 40
1.5
  1
B
  7
GREEKS
  0
TEXT
  8
BASE
  6
CONTINUOUS
 10
-16.25
 20
-3.125
 30
0.0
 40
1.5
  1
A
  7
GREEKS
  0
LINE
  8
BASE
  6
CONTINUOUS
 10
0.0
 20
0.0
 30
0.0
 11
-17.5
 21
0.0
 31
0.0
  0
LINE
  8
BASE
  6
CONTINUOUS
 10
0.0
 20
-8.75
 30
0.0
 11
0.0
 21
0.0
 31
0.0
  0
LINE
  8
BASE
  6
CONTINUOUS
 10
-17.5
 20
-8.75
 30
0.0
 11
0.0
 21
-8.75
 31
0.0
  0
LINE
  8
BASE
  6
CONTINUOUS
 10
-17.5
 20
0.0
 30
0.0
 11
-17.5
 21
-8.75
 31
0.0
  0
LINE
  8
BASE
  6
CONTINUOUS
 10
-4.450825
 20
-5.700825
 30
0.0
 11
-1.799175
 21
-3.049175
 31
0.0
  0
LINE
  8
BASE
  6
CONTINUOUS
 10
-4.450825
 20
-3.049175
 30
0.0
 11
-1.799175
 21
-5.700825
 31
0.0
  0
CIRCLE
  8
BASE
  6
CONTINUOUS
 10
-3.125
 20
-4.375
 30
0.0
 40
1.875
  0
ENDBLK
  8
0
  0
BLOCK
  8
0
  2
B700
 70
     0
 10
0.0
 20
0.0
 30
0.0
  3
B700
  0
LINE
  8
BASE
  6
CONTINUOUS
 10
2.58236
 20
-0.393113
 30
0.0
 11
5.45847
 21
2.435445
 31
0.0
  0
LINE
  8
BASE
  6
CONTINUOUS
 10
5.027767
 20
2.972652
 30
0.0
 11
5.928444
 21
1.848903
 31
0.0
  0
LINE
  8
BASE
  6
CONTINUOUS
 10
-0.01697
 20
0.774489
 30
0.0
 11
8.70777
 21
0.774489
 31
0.0
  0
LINE
  8
BASE
  6
CONTINUOUS
 10
-0.01697
 20
1.583815
 30
0.0
 11
-0.01697
 21
-0.031378
 31
0.0
  0
LINE
  8
BASE
  6
CONTINUOUS
 10
8.712546
 20
1.583815
 30
0.0
 11
8.712546
 21
-0.031378
 31
0.0
  0
ARC
  8
BASE
  6
CONTINUOUS
 10
6.110874
 20
2.567876
 30
0.0
 40
2.922744
 50
193.105513
 51
283.105513
  0
ENDBLK
  8
0
  0
BLOCK
  8
0
  2
B1006
 70
     0
 10
0.0
 20
0.0
 30
0.0
  3
B1006
  0
LINE
  8
BASE
  6
CONTINUOUS
 10
-1.25
 20
0.0
 30
0.0
 11
2.5
 21
0.0
 31
0.0
  0
ARC
  8
BASE
  6
CONTINUOUS
 10
-3.75
 20
0.086539
 30
0.0
 40
2.5
 50
270.0
 51
90.0
  0
POLYLINE
  8
BASE
  6
CONTINUOUS
 66
     1
 10
0.0
 20
0.0
 30
0.0
 70
    16
 71
     2
 72
   251
  0
VERTEX
  8
BASE
  6
CONTINUOUS
 10
-3.069436
 20
0.576539
 30
0.0
 70
    64
  0
VERTEX
  8
BASE
  6
CONTINUOUS
 10
-3.083156
 20
0.576539
 30
0.0
 70
    64
  0
VERTEX
  8
BASE
  6
CONTINUOUS
 10
-3.096876
 20
0.576539
 30
0.0
 70
    64
  0
VERTEX
  8
BASE
  6
CONTINUOUS
 10
-3.110596
 20
0.576539
 30
0.0
 70
    64
  0
VERTEX
  8
BASE
  6
CONTINUOUS
 10
-3.124316
 20
0.576539
 30
0.0
 70
    64
  0
VERTEX
  8
BASE
  6
CONTINUOUS
 10
-3.138036
 20
0.576539
 30
0.0
 70
    64
  0
VERTEX
  8
BASE
  6
CONTINUOUS
 10
-3.151756
 20
0.576539
 30
0.0
 70
    64
  0
VERTEX
  8
BASE
  6
CONTINUOUS
 10
-3.165476
 20
0.576539
 30
0.0
 70
    64
  0
VERTEX
  8
BASE
  6
CONTINUOUS
 10
-3.179196
 20
0.576539
 30
0.0
 70
    64
  0
VERTEX
  8
BASE
  6
CONTINUOUS
 10
-3.192916
 20
0.576539
 30
0.0
 70
    64
  0
VERTEX
  8
BASE
  6
CONTINUOUS
 10
-3.206636
 20
0.576539
 30
0.0
 70
    64
  0
VERTEX
  8
BASE
  6
CONTINUOUS
 10
-3.220356
 20
0.576539
 30
0.0
 70
    64
  0
VERTEX
  8
BASE
  6
CONTINUOUS
 10
-3.234076
 20
0.576539
 30
0.0
 70
    64
  0
VERTEX
  8
BASE
  6
CONTINUOUS
 10
-3.247796
 20
0.576539
 30
0.0
 70
    64
  0
VERTEX
  8
BASE
  6
CONTINUOUS
 10
-3.261516
 20
0.576539
 30
0.0
 70
    64
  0
VERTEX
  8
BASE
  6
CONTINUOUS
 10
-3.275236
 20
0.576539
 30
0.0
 70
    64
  0
VERTEX
  8
BASE
  6
CONTINUOUS
 10
-3.288956
 20
0.576539
 30
0.0
 70
    64
  0
VERTEX
  8
BASE
  6
CONTINUOUS
 10
-3.302676
 20
0.576539
 30
0.0
 70
    64
  0
VERTEX
  8
BASE
  6
CONTINUOUS
 10
-3.316396
 20
0.576539
 30
0.0
 70
    64
  0
VERTEX
  8
BASE
  6
CONTINUOUS
 10
-3.330116
 20
0.576539
 30
0.0
 70
    64
  0
VERTEX
  8
BASE
  6
CONTINUOUS
 10
-3.343836
 20
0.576539
 30
0.0
 70
    64
  0
VERTEX
  8
BASE
  6
CONTINUOUS
 10
-3.357556
 20
0.576539
 30
0.0
 70
    64
  0
VERTEX
  8
BASE
  6
CONTINUOUS
 10
-3.371276
 20
0.576539
 30
0.0
 70
    64
  0
VERTEX
  8
BASE
  6
CONTINUOUS
 10
-3.384996
 20
0.576539
 30
0.0
 70
    64
  0
VERTEX
  8
BASE
  6
CONTINUOUS
 10
-3.398716
 20
0.576539
 30
0.0
 70
    64
  0
VERTEX
  8
BASE
  6
CONTINUOUS
 10
-3.412436
 20
0.576539
 30
0.0
 70
    64
  0
VERTEX
  8
BASE
  6
CONTINUOUS
 10
-3.426156
 20
0.576539
 30
0.0
 70
    64
  0
VERTEX
  8
BASE
  6
CONTINUOUS
 10
-3.439876
 20
0.576539
 30
0.0
 70
    64
  0
VERTEX
  8
BASE
  6
CONTINUOUS
 10
-3.453596
 20
0.576539
 30
0.0
 70
    64
  0
VERTEX
  8
BASE
  6
CONTINUOUS
 10
-3.467316
 20
0.576539
 30
0.0
 70
    64
  0
VERTEX
  8
BASE
  6
CONTINUOUS
 10
-3.481036
 20
0.576539
 30
0.0
 70
    64
  0
VERTEX
  8
BASE
  6
CONTINUOUS
 10
-3.494756
 20
0.576539
 30
0.0
 70
    64
  0
VERTEX
  8
BASE
  6
CONTINUOUS
 10
-3.508476
 20
0.576539
 30
0.0
 70
    64
  0
VERTEX
  8
BASE
  6
CONTINUOUS
 10
-3.522196
 20
0.576539
 30
0.0
 70
    64
  0
VERTEX
  8
BASE
  6
CONTINUOUS
 10
-3.535916
 20
0.576539
 30
0.0
 70
    64
  0
VERTEX
  8
BASE
  6
CONTINUOUS
 10
-3.549636
 20
0.576539
 30
0.0
 70
    64
  0
VERTEX
  8
BASE
  6
CONTINUOUS
 10
-3.563356
 20
0.576539
 30
0.0
 70
    64
  0
VERTEX
  8
BASE
  6
CONTINUOUS
 10
-3.577076
 20
0.576539
 30
0.0
 70
    64
  0
VERTEX
  8
BASE
  6
CONTINUOUS
 10
-3.590796
 20
0.576539
 30
0.0
 70
    64
  0
VERTEX
  8
BASE
  6
CONTINUOUS
 10
-3.604516
 20
0.576539
 30
0.0
 70
    64
  0
VERTEX
  8
BASE
  6
CONTINUOUS
 10
-3.618236
 20
0.576539
 30
0.0
 70
    64
  0
VERTEX
  8
BASE
  6
CONTINUOUS
 10
-3.631956
 20
0.576539
 30
0.0
 70
    64
  0
VERTEX
  8
BASE
  6
CONTINUOUS
 10
-3.645676
 20
0.576539
 30
0.0
 70
    64
  0
VERTEX
  8
BASE
  6
CONTINUOUS
 10
-3.659396
 20
0.576539
 30
0.0
 70
    64
  0
VERTEX
  8
BASE
  6
CONTINUOUS
 10
-3.673116
 20
0.576539
 30
0.0
 70
    64
  0
VERTEX
  8
BASE
  6
CONTINUOUS
 10
-3.686836
 20
0.576539
 30
0.0
 70
    64
  0
VERTEX
  8
BASE
  6
CONTINUOUS
 10
-3.700556
 20
0.576539
 30
0.0
 70
    64
  0
VERTEX
  8
BASE
  6
CONTINUOUS
 10
-3.714276
 20
0.576539
 30
0.0
 70
    64
  0
VERTEX
  8
BASE
  6
CONTINUOUS
 10
-3.727996
 20
0.576539
 30
0.0
 70
    64
  0
VERTEX
  8
BASE
  6
CONTINUOUS
 10
-3.741716
 20
0.576539
 30
0.0
 70
    64
  0
VERTEX
  8
BASE
  6
CONTINUOUS
 10
-3.755436
 20
0.576539
 30
0.0
 70
    64
  0
VERTEX
  8
BASE
  6
CONTINUOUS
 10
-3.769156
 20
0.576539
 30
0.0
 70
    64
  0
VERTEX
  8
BASE
  6
CONTINUOUS
 10
-3.782876
 20
0.576539
 30
0.0
 70
    64
  0
VERTEX
  8
BASE
  6
CONTINUOUS
 10
-3.796596
 20
0.576539
 30
0.0
 70
    64
  0
VERTEX
  8
BASE
  6
CONTINUOUS
 10
-3.810316
 20
0.576539
 30
0.0
 70
    64
  0
VERTEX
  8
BASE
  6
CONTINUOUS
 10
-3.824036
 20
0.576539
 30
0.0
 70
    64
  0
VERTEX
  8
BASE
  6
CONTINUOUS
 10
-3.837756
 20
0.576539
 30
0.0
 70
    64
  0
VERTEX
  8
BASE
  6
CONTINUOUS
 10
-3.851476
 20
0.576539
 30
0.0
 70
    64
  0
VERTEX
  8
BASE
  6
CONTINUOUS
 10
-3.865196
 20
0.576539
 30
0.0
 70
    64
  0
VERTEX
  8
BASE
  6
CONTINUOUS
 10
-3.878916
 20
0.576539
 30
0.0
 70
    64
  0
VERTEX
  8
BASE
  6
CONTINUOUS
 10
-3.892636
 20
0.576539
 30
0.0
 70
    64
  0
VERTEX
  8
BASE
  6
CONTINUOUS
 10
-3.906356
 20
0.576539
 30
0.0
 70
    64
  0
VERTEX
  8
BASE
  6
CONTINUOUS
 10
-3.920076
 20
0.576539
 30
0.0
 70
    64
  0
VERTEX
  8
BASE
  6
CONTINUOUS
 10
-3.933796
 20
0.576539
 30
0.0
 70
    64
  0
VERTEX
  8
BASE
  6
CONTINUOUS
 10
-3.947516
 20
0.576539
 30
0.0
 70
    64
  0
VERTEX
  8
BASE
  6
CONTINUOUS
 10
-3.961236
 20
0.576539
 30
0.0
 70
    64
  0
VERTEX
  8
BASE
  6
CONTINUOUS
 10
-3.974956
 20
0.576539
 30
0.0
 70
    64
  0
VERTEX
  8
BASE
  6
CONTINUOUS
 10
-3.988676
 20
0.576539
 30
0.0
 70
    64
  0
VERTEX
  8
BASE
  6
CONTINUOUS
 10
-4.002396
 20
0.576539
 30
0.0
 70
    64
  0
VERTEX
  8
BASE
  6
CONTINUOUS
 10
-4.016116
 20
0.576539
 30
0.0
 70
    64
  0
VERTEX
  8
BASE
  6
CONTINUOUS
 10
-4.029836
 20
0.576539
 30
0.0
 70
    64
  0
VERTEX
  8
BASE
  6
CONTINUOUS
 10
-4.043556
 20
0.576539
 30
0.0
 70
    64
  0
VERTEX
  8
BASE
  6
CONTINUOUS
 10
-4.057276
 20
0.576539
 30
0.0
 70
    64
  0
VERTEX
  8
BASE
  6
CONTINUOUS
 10
-4.070996
 20
0.576539
 30
0.0
 70
    64
  0
VERTEX
  8
BASE
  6
CONTINUOUS
 10
-4.084716
 20
0.576539
 30
0.0
 70
    64
  0
VERTEX
  8
BASE
  6
CONTINUOUS
 10
-4.098436
 20
0.576539
 30
0.0
 70
    64
  0
VERTEX
  8
BASE
  6
CONTINUOUS
 10
-4.112156
 20
0.576539
 30
0.0
 70
    64
  0
VERTEX
  8
BASE
  6
CONTINUOUS
 10
-4.125876
 20
0.576539
 30
0.0
 70
    64
  0
VERTEX
  8
BASE
  6
CONTINUOUS
 10
-4.139596
 20
0.576539
 30
0.0
 70
    64
  0
VERTEX
  8
BASE
  6
CONTINUOUS
 10
-4.153316
 20
0.576539
 30
0.0
 70
    64
  0
VERTEX
  8
BASE
  6
CONTINUOUS
 10
-4.167036
 20
0.576539
 30
0.0
 70
    64
  0
VERTEX
  8
BASE
  6
CONTINUOUS
 10
-4.180756
 20
0.576539
 30
0.0
 70
    64
  0
VERTEX
  8
BASE
  6
CONTINUOUS
 10
-4.194476
 20
0.576539
 30
0.0
 70
    64
  0
VERTEX
  8
BASE
  6
CONTINUOUS
 10
-4.208196
 20
0.576539
 30
0.0
 70
    64
  0
VERTEX
  8
BASE
  6
CONTINUOUS
 10
-4.221916
 20
0.576539
 30
0.0
 70
    64
  0
VERTEX
  8
BASE
  6
CONTINUOUS
 10
-4.235636
 20
0.576539
 30
0.0
 70
    64
  0
VERTEX
  8
BASE
  6
CONTINUOUS
 10
-4.249356
 20
0.576539
 30
0.0
 70
    64
  0
VERTEX
  8
BASE
  6
CONTINUOUS
 10
-4.263076
 20
0.576539
 30
0.0
 70
    64
  0
VERTEX
  8
BASE
  6
CONTINUOUS
 10
-4.276796
 20
0.576539
 30
0.0
 70
    64
  0
VERTEX
  8
BASE
  6
CONTINUOUS
 10
-4.290516
 20
0.576539
 30
0.0
 70
    64
  0
VERTEX
  8
BASE
  6
CONTINUOUS
 10
-4.304236
 20
0.576539
 30
0.0
 70
    64
  0
VERTEX
  8
BASE
  6
CONTINUOUS
 10
-4.317956
 20
0.576539
 30
0.0
 70
    64
  0
VERTEX
  8
BASE
  6
CONTINUOUS
 10
-4.331676
 20
0.576539
 30
0.0
 70
    64
  0
VERTEX
  8
BASE
  6
CONTINUOUS
 10
-4.345396
 20
0.576539
 30
0.0
 70
    64
  0
VERTEX
  8
BASE
  6
CONTINUOUS
 10
-4.359116
 20
0.576539
 30
0.0
 70
    64
  0
VERTEX
  8
BASE
  6
CONTINUOUS
 10
-4.372836
 20
0.576539
 30
0.0
 70
    64
  0
VERTEX
  8
BASE
  6
CONTINUOUS
 10
-4.386556
 20
0.576539
 30
0.0
 70
    64
  0
VERTEX
  8
BASE
  6
CONTINUOUS
 10
-4.400276
 20
0.576539
 30
0.0
 70
    64
  0
VERTEX
  8
BASE
  6
CONTINUOUS
 10
-4.413996
 20
0.576539
 30
0.0
 70
    64
  0
VERTEX
  8
BASE
  6
CONTINUOUS
 10
-4.427716
 20
0.576539
 30
0.0
 70
    64
  0
VERTEX
  8
BASE
  6
CONTINUOUS
 10
-4.441436
 20
0.576539
 30
0.0
 70
    64
  0
VERTEX
  8
BASE
  6
CONTINUOUS
 10
-4.455156
 20
0.576539
 30
0.0
 70
    64
  0
VERTEX
  8
BASE
  6
CONTINUOUS
 10
-4.468876
 20
0.576539
 30
0.0
 70
    64
  0
VERTEX
  8
BASE
  6
CONTINUOUS
 10
-4.482596
 20
0.576539
 30
0.0
 70
    64
  0
VERTEX
  8
BASE
  6
CONTINUOUS
 10
-4.496316
 20
0.576539
 30
0.0
 70
    64
  0
VERTEX
  8
BASE
  6
CONTINUOUS
 10
-4.510036
 20
0.576539
 30
0.0
 70
    64
  0
VERTEX
  8
BASE
  6
CONTINUOUS
 10
-4.523756
 20
0.576539
 30
0.0
 70
    64
  0
VERTEX
  8
BASE
  6
CONTINUOUS
 10
-4.537476
 20
0.576539
 30
0.0
 70
    64
  0
VERTEX
  8
BASE
  6
CONTINUOUS
 10
-4.551196
 20
0.576539
 30
0.0
 70
    64
  0
VERTEX
  8
BASE
  6
CONTINUOUS
 10
-4.564916
 20
0.576539
 30
0.0
 70
    64
  0
VERTEX
  8
BASE
  6
CONTINUOUS
 10
-4.578636
 20
0.576539
 30
0.0
 70
    64
  0
VERTEX
  8
BASE
  6
CONTINUOUS
 10
-4.592356
 20
0.576539
 30
0.0
 70
    64
  0
VERTEX
  8
BASE
  6
CONTINUOUS
 10
-4.606076
 20
0.576539
 30
0.0
 70
    64
  0
VERTEX
  8
BASE
  6
CONTINUOUS
 10
-4.619796
 20
0.576539
 30
0.0
 70
    64
  0
VERTEX
  8
BASE
  6
CONTINUOUS
 10
-4.633516
 20
0.576539
 30
0.0
 70
    64
  0
VERTEX
  8
BASE
  6
CONTINUOUS
 10
-4.647236
 20
0.576539
 30
0.0
 70
    64
  0
VERTEX
  8
BASE
  6
CONTINUOUS
 10
-4.660956
 20
0.576539
 30
0.0
 70
    64
  0
VERTEX
  8
BASE
  6
CONTINUOUS
 10
-4.674676
 20
0.576539
 30
0.0
 70
    64
  0
VERTEX
  8
BASE
  6
CONTINUOUS
 10
-4.688396
 20
0.576539
 30
0.0
 70
    64
  0
VERTEX
  8
BASE
  6
CONTINUOUS
 10
-4.702116
 20
0.576539
 30
0.0
 70
    64
  0
VERTEX
  8
BASE
  6
CONTINUOUS
 10
-4.715836
 20
0.576539
 30
0.0
 70
    64
  0
VERTEX
  8
BASE
  6
CONTINUOUS
 10
-4.729556
 20
0.576539
 30
0.0
 70
    64
  0
VERTEX
  8
BASE
  6
CONTINUOUS
 10
-4.743276
 20
0.576539
 30
0.0
 70
    64
  0
VERTEX
  8
BASE
  6
CONTINUOUS
 10
-4.756996
 20
0.576539
 30
0.0
 70
    64
  0
VERTEX
  8
BASE
  6
CONTINUOUS
 10
-4.770716
 20
0.576539
 30
0.0
 70
    64
  0
VERTEX
  8
BASE
  6
CONTINUOUS
 10
-4.784436
 20
0.576539
 30
0.0
 70
    64
  0
VERTEX
  8
BASE
  6
CONTINUOUS
 10
-4.798156
 20
0.576539
 30
0.0
 70
    64
  0
VERTEX
  8
BASE
  6
CONTINUOUS
 10
-4.811876
 20
0.576539
 30
0.0
 70
    64
  0
VERTEX
  8
BASE
  6
CONTINUOUS
 10
-4.825596
 20
0.576539
 30
0.0
 70
    64
  0
VERTEX
  8
BASE
  6
CONTINUOUS
 10
-4.839316
 20
0.576539
 30
0.0
 70
    64
  0
VERTEX
  8
BASE
  6
CONTINUOUS
 10
-4.853036
 20
0.576539
 30
0.0
 70
    64
  0
VERTEX
  8
BASE
  6
CONTINUOUS
 10
-4.866756
 20
0.576539
 30
0.0
 70
    64
  0
VERTEX
  8
BASE
  6
CONTINUOUS
 10
-4.880476
 20
0.576539
 30
0.0
 70
    64
  0
VERTEX
  8
BASE
  6
CONTINUOUS
 10
-4.894196
 20
0.576539
 30
0.0
 70
    64
  0
VERTEX
  8
BASE
  6
CONTINUOUS
 10
-4.907916
 20
0.576539
 30
0.0
 70
    64
  0
VERTEX
  8
BASE
  6
CONTINUOUS
 10
-4.921636
 20
0.576539
 30
0.0
 70
    64
  0
VERTEX
  8
BASE
  6
CONTINUOUS
 10
-4.935356
 20
0.576539
 30
0.0
 70
    64
  0
VERTEX
  8
BASE
  6
CONTINUOUS
 10
-4.949076
 20
0.576539
 30
0.0
 70
    64
  0
VERTEX
  8
BASE
  6
CONTINUOUS
 10
-4.962796
 20
0.576539
 30
0.0
 70
    64
  0
VERTEX
  8
BASE
  6
CONTINUOUS
 10
-4.976516
 20
0.576539
 30
0.0
 70
    64
  0
VERTEX
  8
BASE
  6
CONTINUOUS
 10
-4.990236
 20
0.576539
 30
0.0
 70
    64
  0
VERTEX
  8
BASE
  6
CONTINUOUS
 10
-5.003956
 20
0.576539
 30
0.0
 70
    64
  0
VERTEX
  8
BASE
  6
CONTINUOUS
 10
-5.017676
 20
0.576539
 30
0.0
 70
    64
  0
VERTEX
  8
BASE
  6
CONTINUOUS
 10
-5.031396
 20
0.576539
 30
0.0
 70
    64
  0
VERTEX
  8
BASE
  6
CONTINUOUS
 10
-5.045116
 20
0.576539
 30
0.0
 70
    64
  0
VERTEX
  8
BASE
  6
CONTINUOUS
 10
-5.058836
 20
0.576539
 30
0.0
 70
    64
  0
VERTEX
  8
BASE
  6
CONTINUOUS
 10
-5.072556
 20
0.576539
 30
0.0
 70
    64
  0
VERTEX
  8
BASE
  6
CONTINUOUS
 10
-5.086276
 20
0.576539
 30
0.0
 70
    64
  0
VERTEX
  8
BASE
  6
CONTINUOUS
 10
-5.099996
 20
0.576539
 30
0.0
 70
    64
  0
VERTEX
  8
BASE
  6
CONTINUOUS
 10
-5.113716
 20
0.576539
 30
0.0
 70
    64
  0
VERTEX
  8
BASE
  6
CONTINUOUS
 10
-5.127436
 20
0.576539
 30
0.0
 70
    64
  0
VERTEX
  8
BASE
  6
CONTINUOUS
 10
-5.141156
 20
0.576539
 30
0.0
 70
    64
  0
VERTEX
  8
BASE
  6
CONTINUOUS
 10
-5.154876
 20
0.576539
 30
0.0
 70
    64
  0
VERTEX
  8
BASE
  6
CONTINUOUS
 10
-5.168596
 20
0.576539
 30
0.0
 70
    64
  0
VERTEX
  8
BASE
  6
CONTINUOUS
 10
-5.182316
 20
0.576539
 30
0.0
 70
    64
  0
VERTEX
  8
BASE
  6
CONTINUOUS
 10
-5.196036
 20
0.576539
 30
0.0
 70
    64
  0
VERTEX
  8
BASE
  6
CONTINUOUS
 10
-5.209756
 20
0.576539
 30
0.0
 70
    64
  0
VERTEX
  8
BASE
  6
CONTINUOUS
 10
-5.223476
 20
0.576539
 30
0.0
 70
    64
  0
VERTEX
  8
BASE
  6
CONTINUOUS
 10
-5.237196
 20
0.576539
 30
0.0
 70
    64
  0
VERTEX
  8
BASE
  6
CONTINUOUS
 10
-5.250916
 20
0.576539
 30
0.0
 70
    64
  0
VERTEX
  8
BASE
  6
CONTINUOUS
 10
-5.264636
 20
0.576539
 30
0.0
 70
    64
  0
VERTEX
  8
BASE
  6
CONTINUOUS
 10
-5.278356
 20
0.576539
 30
0.0
 70
    64
  0
VERTEX
  8
BASE
  6
CONTINUOUS
 10
-5.292076
 20
0.576539
 30
0.0
 70
    64
  0
VERTEX
  8
BASE
  6
CONTINUOUS
 10
-5.305796
 20
0.576539
 30
0.0
 70
    64
  0
VERTEX
  8
BASE
  6
CONTINUOUS
 10
-5.319516
 20
0.576539
 30
0.0
 70
    64
  0
VERTEX
  8
BASE
  6
CONTINUOUS
 10
-5.333236
 20
0.576539
 30
0.0
 70
    64
  0
VERTEX
  8
BASE
  6
CONTINUOUS
 10
-5.346956
 20
0.576539
 30
0.0
 70
    64
  0
VERTEX
  8
BASE
  6
CONTINUOUS
 10
-5.360676
 20
0.576539
 30
0.0
 70
    64
  0
VERTEX
  8
BASE
  6
CONTINUOUS
 10
-5.374396
 20
0.576539
 30
0.0
 70
    64
  0
VERTEX
  8
BASE
  6
CONTINUOUS
 10
-5.388116
 20
0.576539
 30
0.0
 70
    64
  0
VERTEX
  8
BASE
  6
CONTINUOUS
 10
-5.401836
 20
0.576539
 30
0.0
 70
    64
  0
VERTEX
  8
BASE
  6
CONTINUOUS
 10
-5.415556
 20
0.576539
 30
0.0
 70
    64
  0
VERTEX
  8
BASE
  6
CONTINUOUS
 10
-5.429276
 20
0.576539
 30
0.0
 70
    64
  0
VERTEX
  8
BASE
  6
CONTINUOUS
 10
-5.442996
 20
0.576539
 30
0.0
 70
    64
  0
VERTEX
  8
BASE
  6
CONTINUOUS
 10
-5.456716
 20
0.576539
 30
0.0
 70
    64
  0
VERTEX
  8
BASE
  6
CONTINUOUS
 10
-5.470436
 20
0.576539
 30
0.0
 70
    64
  0
VERTEX
  8
BASE
  6
CONTINUOUS
 10
-5.484156
 20
0.576539
 30
0.0
 70
    64
  0
VERTEX
  8
BASE
  6
CONTINUOUS
 10
-5.497876
 20
0.576539
 30
0.0
 70
    64
  0
VERTEX
  8
BASE
  6
CONTINUOUS
 10
-5.511596
 20
0.576539
 30
0.0
 70
    64
  0
VERTEX
  8
BASE
  6
CONTINUOUS
 10
-5.525316
 20
0.576539
 30
0.0
 70
    64
  0
VERTEX
  8
BASE
  6
CONTINUOUS
 10
-5.539036
 20
0.576539
 30
0.0
 70
    64
  0
VERTEX
  8
BASE
  6
CONTINUOUS
 10
-5.552756
 20
0.576539
 30
0.0
 70
    64
  0
VERTEX
  8
BASE
  6
CONTINUOUS
 10
-5.566476
 20
0.576539
 30
0.0
 70
    64
  0
VERTEX
  8
BASE
  6
CONTINUOUS
 10
-5.580196
 20
0.576539
 30
0.0
 70
    64
  0
VERTEX
  8
BASE
  6
CONTINUOUS
 10
-5.593916
 20
0.576539
 30
0.0
 70
    64
  0
VERTEX
  8
BASE
  6
CONTINUOUS
 10
-5.607636
 20
0.576539
 30
0.0
 70
    64
  0
VERTEX
  8
BASE
  6
CONTINUOUS
 10
-5.621356
 20
0.576539
 30
0.0
 70
    64
  0
VERTEX
  8
BASE
  6
CONTINUOUS
 10
-5.635076
 20
0.576539
 30
0.0
 70
    64
  0
VERTEX
  8
BASE
  6
CONTINUOUS
 10
-5.648796
 20
0.576539
 30
0.0
 70
    64
  0
VERTEX
  8
BASE
  6
CONTINUOUS
 10
-5.662516
 20
0.576539
 30
0.0
 70
    64
  0
VERTEX
  8
BASE
  6
CONTINUOUS
 10
-5.676236
 20
0.576539
 30
0.0
 70
    64
  0
VERTEX
  8
BASE
  6
CONTINUOUS
 10
-5.689956
 20
0.576539
 30
0.0
 70
    64
  0
VERTEX
  8
BASE
  6
CONTINUOUS
 10
-5.703676
 20
0.576539
 30
0.0
 70
    64
  0
VERTEX
  8
BASE
  6
CONTINUOUS
 10
-5.717396
 20
0.576539
 30
0.0
 70
    64
  0
VERTEX
  8
BASE
  6
CONTINUOUS
 10
-5.731116
 20
0.576539
 30
0.0
 70
    64
  0
VERTEX
  8
BASE
  6
CONTINUOUS
 10
-5.744836
 20
0.576539
 30
0.0
 70
    64
  0
VERTEX
  8
BASE
  6
CONTINUOUS
 10
-5.758556
 20
0.576539
 30
0.0
 70
    64
  0
VERTEX
  8
BASE
  6
CONTINUOUS
 10
-5.772276
 20
0.576539
 30
0.0
 70
    64
  0
VERTEX
  8
BASE
  6
CONTINUOUS
 10
-5.785996
 20
0.576539
 30
0.0
 70
    64
  0
VERTEX
  8
BASE
  6
CONTINUOUS
 10
-5.799716
 20
0.576539
 30
0.0
 70
    64
  0
VERTEX
  8
BASE
  6
CONTINUOUS
 10
-5.813436
 20
0.576539
 30
0.0
 70
    64
  0
VERTEX
  8
BASE
  6
CONTINUOUS
 10
-5.827156
 20
0.576539
 30
0.0
 70
    64
  0
VERTEX
  8
BASE
  6
CONTINUOUS
 10
-5.840876
 20
0.576539
 30
0.0
 70
    64
  0
VERTEX
  8
BASE
  6
CONTINUOUS
 10
-5.854596
 20
0.576539
 30
0.0
 70
    64
  0
VERTEX
  8
BASE
  6
CONTINUOUS
 10
-5.868316
 20
0.576539
 30
0.0
 70
    64
  0
VERTEX
  8
BASE
  6
CONTINUOUS
 10
-5.882036
 20
0.576539
 30
0.0
 70
    64
  0
VERTEX
  8
BASE
  6
CONTINUOUS
 10
-5.895756
 20
0.576539
 30
0.0
 70
    64
  0
VERTEX
  8
BASE
  6
CONTINUOUS
 10
-5.909476
 20
0.576539
 30
0.0
 70
    64
  0
VERTEX
  8
BASE
  6
CONTINUOUS
 10
-5.923196
 20
0.576539
 30
0.0
 70
    64
  0
VERTEX
  8
BASE
  6
CONTINUOUS
 10
-5.936916
 20
0.576539
 30
0.0
 70
    64
  0
VERTEX
  8
BASE
  6
CONTINUOUS
 10
-5.950636
 20
0.576539
 30
0.0
 70
    64
  0
VERTEX
  8
BASE
  6
CONTINUOUS
 10
-5.964356
 20
0.576539
 30
0.0
 70
    64
  0
VERTEX
  8
BASE
  6
CONTINUOUS
 10
-5.978076
 20
0.576539
 30
0.0
 70
    64
  0
VERTEX
  8
BASE
  6
CONTINUOUS
 10
-5.991796
 20
0.576539
 30
0.0
 70
    64
  0
VERTEX
  8
BASE
  6
CONTINUOUS
 10
-6.005516
 20
0.576539
 30
0.0
 70
    64
  0
VERTEX
  8
BASE
  6
CONTINUOUS
 10
-6.019236
 20
0.576539
 30
0.0
 70
    64
  0
VERTEX
  8
BASE
  6
CONTINUOUS
 10
-6.032956
 20
0.576539
 30
0.0
 70
    64
  0
VERTEX
  8
BASE
  6
CONTINUOUS
 10
-6.046676
 20
0.576539
 30
0.0
 70
    64
  0
VERTEX
  8
BASE
  6
CONTINUOUS
 10
-6.060396
 20
0.576539
 30
0.0
 70
    64
  0
VERTEX
  8
BASE
  6
CONTINUOUS
 10
-6.074116
 20
0.576539
 30
0.0
 70
    64
  0
VERTEX
  8
BASE
  6
CONTINUOUS
 10
-6.087836
 20
0.576539
 30
0.0
 70
    64
  0
VERTEX
  8
BASE
  6
CONTINUOUS
 10
-6.101556
 20
0.576539
 30
0.0
 70
    64
  0
VERTEX
  8
BASE
  6
CONTINUOUS
 10
-6.115276
 20
0.576539
 30
0.0
 70
    64
  0
VERTEX
  8
BASE
  6
CONTINUOUS
 10
-6.128996
 20
0.576539
 30
0.0
 70
    64
  0
VERTEX
  8
BASE
  6
CONTINUOUS
 10
-6.142716
 20
0.576539
 30
0.0
 70
    64
  0
VERTEX
  8
BASE
  6
CONTINUOUS
 10
-6.156436
 20
0.576539
 30
0.0
 70
    64
  0
VERTEX
  8
BASE
  6
CONTINUOUS
 10
-6.170156
 20
0.576539
 30
0.0
 70
    64
  0
VERTEX
  8
BASE
  6
CONTINUOUS
 10
-6.183876
 20
0.576539
 30
0.0
 70
    64
  0
VERTEX
  8
BASE
  6
CONTINUOUS
 10
-6.197596
 20
0.576539
 30
0.0
 70
    64
  0
VERTEX
  8
BASE
  6
CONTINUOUS
 10
-6.211316
 20
0.576539
 30
0.0
 70
    64
  0
VERTEX
  8
BASE
  6
CONTINUOUS
 10
-6.225036
 20
0.576539
 30
0.0
 70
    64
  0
VERTEX
  8
BASE
  6
CONTINUOUS
 10
-6.238756
 20
0.576539
 30
0.0
 70
    64
  0
VERTEX
  8
BASE
  6
CONTINUOUS
 10
-6.252476
 20
0.576539
 30
0.0
 70
    64
  0
VERTEX
  8
BASE
  6
CONTINUOUS
 10
-6.266196
 20
0.576539
 30
0.0
 70
    64
  0
VERTEX
  8
BASE
  6
CONTINUOUS
 10
-6.279916
 20
0.576539
 30
0.0
 70
    64
  0
VERTEX
  8
BASE
  6
CONTINUOUS
 10
-6.293636
 20
0.576539
 30
0.0
 70
    64
  0
VERTEX
  8
BASE
  6
CONTINUOUS
 10
-6.307356
 20
0.576539
 30
0.0
 70
    64
  0
VERTEX
  8
BASE
  6
CONTINUOUS
 10
-6.321076
 20
0.576539
 30
0.0
 70
    64
  0
VERTEX
  8
BASE
  6
CONTINUOUS
 10
-6.334796
 20
0.576539
 30
0.0
 70
    64
  0
VERTEX
  8
BASE
  6
CONTINUOUS
 10
-6.348516
 20
0.576539
 30
0.0
 70
    64
  0
VERTEX
  8
BASE
  6
CONTINUOUS
 10
-6.362236
 20
0.576539
 30
0.0
 70
    64
  0
VERTEX
  8
BASE
  6
CONTINUOUS
 10
-6.375956
 20
0.576539
 30
0.0
 70
    64
  0
VERTEX
  8
BASE
  6
CONTINUOUS
 10
-6.389676
 20
0.576539
 30
0.0
 70
    64
  0
VERTEX
  8
BASE
  6
CONTINUOUS
 10
-6.403396
 20
0.576539
 30
0.0
 70
    64
  0
VERTEX
  8
BASE
  6
CONTINUOUS
 10
-6.417116
 20
0.576539
 30
0.0
 70
    64
  0
VERTEX
  8
BASE
  6
CONTINUOUS
 10
-6.430836
 20
0.576539
 30
0.0
 70
    64
  0
VERTEX
  8
BASE
  6
CONTINUOUS
 10
-6.444556
 20
0.576539
 30
0.0
 70
    64
  0
VERTEX
  8
BASE
  6
CONTINUOUS
 10
-6.458276
 20
0.576539
 30
0.0
 70
    64
  0
VERTEX
  8
BASE
  6
CONTINUOUS
 10
-6.471996
 20
0.576539
 30
0.0
 70
    64
  0
VERTEX
  8
BASE
  6
CONTINUOUS
 10
-6.485716
 20
0.576539
 30
0.0
 70
    64
  0
VERTEX
  8
BASE
  6
CONTINUOUS
 10
-6.499436
 20
0.576539
 30
0.0
 70
    64
  0
VERTEX
  8
BASE
  6
CONTINUOUS
 10
-3.069436
 20
-0.403461
 30
0.0
 70
    64
  0
VERTEX
  8
BASE
  6
CONTINUOUS
 10
-3.083156
 20
-0.403461
 30
0.0
 70
    64
  0
VERTEX
  8
BASE
  6
CONTINUOUS
 10
-3.096876
 20
-0.403461
 30
0.0
 70
    64
  0
VERTEX
  8
BASE
  6
CONTINUOUS
 10
-3.110596
 20
-0.403461
 30
0.0
 70
    64
  0
VERTEX
  8
BASE
  6
CONTINUOUS
 10
-3.124316
 20
-0.403461
 30
0.0
 70
    64
  0
VERTEX
  8
BASE
  6
CONTINUOUS
 10
-3.138036
 20
-0.403461
 30
0.0
 70
    64
  0
VERTEX
  8
BASE
  6
CONTINUOUS
 10
-3.151756
 20
-0.403461
 30
0.0
 70
    64
  0
VERTEX
  8
BASE
  6
CONTINUOUS
 10
-3.165476
 20
-0.403461
 30
0.0
 70
    64
  0
VERTEX
  8
BASE
  6
CONTINUOUS
 10
-3.179196
 20
-0.403461
 30
0.0
 70
    64
  0
VERTEX
  8
BASE
  6
CONTINUOUS
 10
-3.192916
 20
-0.403461
 30
0.0
 70
    64
  0
VERTEX
  8
BASE
  6
CONTINUOUS
 10
-3.206636
 20
-0.403461
 30
0.0
 70
    64
  0
VERTEX
  8
BASE
  6
CONTINUOUS
 10
-3.220356
 20
-0.403461
 30
0.0
 70
    64
  0
VERTEX
  8
BASE
  6
CONTINUOUS
 10
-3.234076
 20
-0.403461
 30
0.0
 70
    64
  0
VERTEX
  8
BASE
  6
CONTINUOUS
 10
-3.247796
 20
-0.403461
 30
0.0
 70
    64
  0
VERTEX
  8
BASE
  6
CONTINUOUS
 10
-3.261516
 20
-0.403461
 30
0.0
 70
    64
  0
VERTEX
  8
BASE
  6
CONTINUOUS
 10
-3.275236
 20
-0.403461
 30
0.0
 70
    64
  0
VERTEX
  8
BASE
  6
CONTINUOUS
 10
-3.288956
 20
-0.403461
 30
0.0
 70
    64
  0
VERTEX
  8
BASE
  6
CONTINUOUS
 10
-3.302676
 20
-0.403461
 30
0.0
 70
    64
  0
VERTEX
  8
BASE
  6
CONTINUOUS
 10
-3.316396
 20
-0.403461
 30
0.0
 70
    64
  0
VERTEX
  8
BASE
  6
CONTINUOUS
 10
-3.330116
 20
-0.403461
 30
0.0
 70
    64
  0
VERTEX
  8
BASE
  6
CONTINUOUS
 10
-3.343836
 20
-0.403461
 30
0.0
 70
    64
  0
VERTEX
  8
BASE
  6
CONTINUOUS
 10
-3.357556
 20
-0.403461
 30
0.0
 70
    64
  0
VERTEX
  8
BASE
  6
CONTINUOUS
 10
-3.371276
 20
-0.403461
 30
0.0
 70
    64
  0
VERTEX
  8
BASE
  6
CONTINUOUS
 10
-3.384996
 20
-0.403461
 30
0.0
 70
    64
  0
VERTEX
  8
BASE
  6
CONTINUOUS
 10
-3.398716
 20
-0.403461
 30
0.0
 70
    64
  0
VERTEX
  8
BASE
  6
CONTINUOUS
 10
-3.412436
 20
-0.403461
 30
0.0
 70
    64
  0
VERTEX
  8
BASE
  6
CONTINUOUS
 10
-3.426156
 20
-0.403461
 30
0.0
 70
    64
  0
VERTEX
  8
BASE
  6
CONTINUOUS
 10
-3.439876
 20
-0.403461
 30
0.0
 70
    64
  0
VERTEX
  8
BASE
  6
CONTINUOUS
 10
-3.453596
 20
-0.403461
 30
0.0
 70
    64
  0
VERTEX
  8
BASE
  6
CONTINUOUS
 10
-3.467316
 20
-0.403461
 30
0.0
 70
    64
  0
VERTEX
  8
BASE
  6
CONTINUOUS
 10
-3.481036
 20
-0.403461
 30
0.0
 70
    64
  0
VERTEX
  8
BASE
  6
CONTINUOUS
 10
-3.494756
 20
-0.403461
 30
0.0
 70
    64
  0
VERTEX
  8
BASE
  6
CONTINUOUS
 10
-3.508476
 20
-0.403461
 30
0.0
 70
    64
  0
VERTEX
  8
BASE
  6
CONTINUOUS
 10
-3.522196
 20
-0.403461
 30
0.0
 70
    64
  0
VERTEX
  8
BASE
  6
CONTINUOUS
 10
-3.535916
 20
-0.403461
 30
0.0
 70
    64
  0
VERTEX
  8
BASE
  6
CONTINUOUS
 10
-3.549636
 20
-0.403461
 30
0.0
 70
    64
  0
VERTEX
  8
BASE
  6
CONTINUOUS
 10
-3.563356
 20
-0.403461
 30
0.0
 70
    64
  0
VERTEX
  8
BASE
  6
CONTINUOUS
 10
-3.577076
 20
-0.403461
 30
0.0
 70
    64
  0
VERTEX
  8
BASE
  6
CONTINUOUS
 10
-3.590796
 20
-0.403461
 30
0.0
 70
    64
  0
VERTEX
  8
BASE
  6
CONTINUOUS
 10
-3.604516
 20
-0.403461
 30
0.0
 70
    64
  0
VERTEX
  8
BASE
  6
CONTINUOUS
 10
-3.618236
 20
-0.403461
 30
0.0
 70
    64
  0
VERTEX
  8
BASE
  6
CONTINUOUS
 10
-3.631956
 20
-0.403461
 30
0.0
 70
    64
  0
VERTEX
  8
BASE
  6
CONTINUOUS
 10
-3.645676
 20
-0.403461
 30
0.0
 70
    64
  0
VERTEX
  8
BASE
  6
CONTINUOUS
 10
-3.659396
 20
-0.403461
 30
0.0
 70
    64
  0
VERTEX
  8
BASE
  6
CONTINUOUS
 10
-3.673116
 20
-0.403461
 30
0.0
 70
    64
  0
VERTEX
  8
BASE
  6
CONTINUOUS
 10
-3.686836
 20
-0.403461
 30
0.0
 70
    64
  0
VERTEX
  8
BASE
  6
CONTINUOUS
 10
-3.700556
 20
-0.403461
 30
0.0
 70
    64
  0
VERTEX
  8
BASE
  6
CONTINUOUS
 10
-3.714276
 20
-0.403461
 30
0.0
 70
    64
  0
VERTEX
  8
BASE
  6
CONTINUOUS
 10
-3.727996
 20
-0.403461
 30
0.0
 70
    64
  0
VERTEX
  8
BASE
  6
CONTINUOUS
 10
-3.741716
 20
-0.403461
 30
0.0
 70
    64
  0
VERTEX
  8
BASE
  6
CONTINUOUS
 10
-3.755436
 20
-0.403461
 30
0.0
 70
    64
  0
VERTEX
  8
BASE
  6
CONTINUOUS
 10
-3.769156
 20
-0.403461
 30
0.0
 70
    64
  0
VERTEX
  8
BASE
  6
CONTINUOUS
 10
-3.782876
 20
-0.403461
 30
0.0
 70
    64
  0
VERTEX
  8
BASE
  6
CONTINUOUS
 10
-3.796596
 20
-0.403461
 30
0.0
 70
    64
  0
VERTEX
  8
BASE
  6
CONTINUOUS
 10
-3.810316
 20
-0.403461
 30
0.0
 70
    64
  0
VERTEX
  8
BASE
  6
CONTINUOUS
 10
-3.824036
 20
-0.403461
 30
0.0
 70
    64
  0
VERTEX
  8
BASE
  6
CONTINUOUS
 10
-3.837756
 20
-0.403461
 30
0.0
 70
    64
  0
VERTEX
  8
BASE
  6
CONTINUOUS
 10
-3.851476
 20
-0.403461
 30
0.0
 70
    64
  0
VERTEX
  8
BASE
  6
CONTINUOUS
 10
-3.865196
 20
-0.403461
 30
0.0
 70
    64
  0
VERTEX
  8
BASE
  6
CONTINUOUS
 10
-3.878916
 20
-0.403461
 30
0.0
 70
    64
  0
VERTEX
  8
BASE
  6
CONTINUOUS
 10
-3.892636
 20
-0.403461
 30
0.0
 70
    64
  0
VERTEX
  8
BASE
  6
CONTINUOUS
 10
-3.906356
 20
-0.403461
 30
0.0
 70
    64
  0
VERTEX
  8
BASE
  6
CONTINUOUS
 10
-3.920076
 20
-0.403461
 30
0.0
 70
    64
  0
VERTEX
  8
BASE
  6
CONTINUOUS
 10
-3.933796
 20
-0.403461
 30
0.0
 70
    64
  0
VERTEX
  8
BASE
  6
CONTINUOUS
 10
-3.947516
 20
-0.403461
 30
0.0
 70
    64
  0
VERTEX
  8
BASE
  6
CONTINUOUS
 10
-3.961236
 20
-0.403461
 30
0.0
 70
    64
  0
VERTEX
  8
BASE
  6
CONTINUOUS
 10
-3.974956
 20
-0.403461
 30
0.0
 70
    64
  0
VERTEX
  8
BASE
  6
CONTINUOUS
 10
-3.988676
 20
-0.403461
 30
0.0
 70
    64
  0
VERTEX
  8
BASE
  6
CONTINUOUS
 10
-4.002396
 20
-0.403461
 30
0.0
 70
    64
  0
VERTEX
  8
BASE
  6
CONTINUOUS
 10
-4.016116
 20
-0.403461
 30
0.0
 70
    64
  0
VERTEX
  8
BASE
  6
CONTINUOUS
 10
-4.029836
 20
-0.403461
 30
0.0
 70
    64
  0
VERTEX
  8
BASE
  6
CONTINUOUS
 10
-4.043556
 20
-0.403461
 30
0.0
 70
    64
  0
VERTEX
  8
BASE
  6
CONTINUOUS
 10
-4.057276
 20
-0.403461
 30
0.0
 70
    64
  0
VERTEX
  8
BASE
  6
CONTINUOUS
 10
-4.070996
 20
-0.403461
 30
0.0
 70
    64
  0
VERTEX
  8
BASE
  6
CONTINUOUS
 10
-4.084716
 20
-0.403461
 30
0.0
 70
    64
  0
VERTEX
  8
BASE
  6
CONTINUOUS
 10
-4.098436
 20
-0.403461
 30
0.0
 70
    64
  0
VERTEX
  8
BASE
  6
CONTINUOUS
 10
-4.112156
 20
-0.403461
 30
0.0
 70
    64
  0
VERTEX
  8
BASE
  6
CONTINUOUS
 10
-4.125876
 20
-0.403461
 30
0.0
 70
    64
  0
VERTEX
  8
BASE
  6
CONTINUOUS
 10
-4.139596
 20
-0.403461
 30
0.0
 70
    64
  0
VERTEX
  8
BASE
  6
CONTINUOUS
 10
-4.153316
 20
-0.403461
 30
0.0
 70
    64
  0
VERTEX
  8
BASE
  6
CONTINUOUS
 10
-4.167036
 20
-0.403461
 30
0.0
 70
    64
  0
VERTEX
  8
BASE
  6
CONTINUOUS
 10
-4.180756
 20
-0.403461
 30
0.0
 70
    64
  0
VERTEX
  8
BASE
  6
CONTINUOUS
 10
-4.194476
 20
-0.403461
 30
0.0
 70
    64
  0
VERTEX
  8
BASE
  6
CONTINUOUS
 10
-4.208196
 20
-0.403461
 30
0.0
 70
    64
  0
VERTEX
  8
BASE
  6
CONTINUOUS
 10
-4.221916
 20
-0.403461
 30
0.0
 70
    64
  0
VERTEX
  8
BASE
  6
CONTINUOUS
 10
-4.235636
 20
-0.403461
 30
0.0
 70
    64
  0
VERTEX
  8
BASE
  6
CONTINUOUS
 10
-4.249356
 20
-0.403461
 30
0.0
 70
    64
  0
VERTEX
  8
BASE
  6
CONTINUOUS
 10
-4.263076
 20
-0.403461
 30
0.0
 70
    64
  0
VERTEX
  8
BASE
  6
CONTINUOUS
 10
-4.276796
 20
-0.403461
 30
0.0
 70
    64
  0
VERTEX
  8
BASE
  6
CONTINUOUS
 10
-4.290516
 20
-0.403461
 30
0.0
 70
    64
  0
VERTEX
  8
BASE
  6
CONTINUOUS
 10
-4.304236
 20
-0.403461
 30
0.0
 70
    64
  0
VERTEX
  8
BASE
  6
CONTINUOUS
 10
-4.317956
 20
-0.403461
 30
0.0
 70
    64
  0
VERTEX
  8
BASE
  6
CONTINUOUS
 10
-4.331676
 20
-0.403461
 30
0.0
 70
    64
  0
VERTEX
  8
BASE
  6
CONTINUOUS
 10
-4.345396
 20
-0.403461
 30
0.0
 70
    64
  0
VERTEX
  8
BASE
  6
CONTINUOUS
 10
-4.359116
 20
-0.403461
 30
0.0
 70
    64
  0
VERTEX
  8
BASE
  6
CONTINUOUS
 10
-4.372836
 20
-0.403461
 30
0.0
 70
    64
  0
VERTEX
  8
BASE
  6
CONTINUOUS
 10
-4.386556
 20
-0.403461
 30
0.0
 70
    64
  0
VERTEX
  8
BASE
  6
CONTINUOUS
 10
-4.400276
 20
-0.403461
 30
0.0
 70
    64
  0
VERTEX
  8
BASE
  6
CONTINUOUS
 10
-4.413996
 20
-0.403461
 30
0.0
 70
    64
  0
VERTEX
  8
BASE
  6
CONTINUOUS
 10
-4.427716
 20
-0.403461
 30
0.0
 70
    64
  0
VERTEX
  8
BASE
  6
CONTINUOUS
 10
-4.441436
 20
-0.403461
 30
0.0
 70
    64
  0
VERTEX
  8
BASE
  6
CONTINUOUS
 10
-4.455156
 20
-0.403461
 30
0.0
 70
    64
  0
VERTEX
  8
BASE
  6
CONTINUOUS
 10
-4.468876
 20
-0.403461
 30
0.0
 70
    64
  0
VERTEX
  8
BASE
  6
CONTINUOUS
 10
-4.482596
 20
-0.403461
 30
0.0
 70
    64
  0
VERTEX
  8
BASE
  6
CONTINUOUS
 10
-4.496316
 20
-0.403461
 30
0.0
 70
    64
  0
VERTEX
  8
BASE
  6
CONTINUOUS
 10
-4.510036
 20
-0.403461
 30
0.0
 70
    64
  0
VERTEX
  8
BASE
  6
CONTINUOUS
 10
-4.523756
 20
-0.403461
 30
0.0
 70
    64
  0
VERTEX
  8
BASE
  6
CONTINUOUS
 10
-4.537476
 20
-0.403461
 30
0.0
 70
    64
  0
VERTEX
  8
BASE
  6
CONTINUOUS
 10
-4.551196
 20
-0.403461
 30
0.0
 70
    64
  0
VERTEX
  8
BASE
  6
CONTINUOUS
 10
-4.564916
 20
-0.403461
 30
0.0
 70
    64
  0
VERTEX
  8
BASE
  6
CONTINUOUS
 10
-4.578636
 20
-0.403461
 30
0.0
 70
    64
  0
VERTEX
  8
BASE
  6
CONTINUOUS
 10
-4.592356
 20
-0.403461
 30
0.0
 70
    64
  0
VERTEX
  8
BASE
  6
CONTINUOUS
 10
-4.606076
 20
-0.403461
 30
0.0
 70
    64
  0
VERTEX
  8
BASE
  6
CONTINUOUS
 10
-4.619796
 20
-0.403461
 30
0.0
 70
    64
  0
VERTEX
  8
BASE
  6
CONTINUOUS
 10
-4.633516
 20
-0.403461
 30
0.0
 70
    64
  0
VERTEX
  8
BASE
  6
CONTINUOUS
 10
-4.647236
 20
-0.403461
 30
0.0
 70
    64
  0
VERTEX
  8
BASE
  6
CONTINUOUS
 10
-4.660956
 20
-0.403461
 30
0.0
 70
    64
  0
VERTEX
  8
BASE
  6
CONTINUOUS
 10
-4.674676
 20
-0.403461
 30
0.0
 70
    64
  0
VERTEX
  8
BASE
  6
CONTINUOUS
 10
-4.688396
 20
-0.403461
 30
0.0
 70
    64
  0
VERTEX
  8
BASE
  6
CONTINUOUS
 10
-4.702116
 20
-0.403461
 30
0.0
 70
    64
  0
VERTEX
  8
BASE
  6
CONTINUOUS
 10
-4.715836
 20
-0.403461
 30
0.0
 70
    64
  0
VERTEX
  8
BASE
  6
CONTINUOUS
 10
-4.729556
 20
-0.403461
 30
0.0
 70
    64
  0
VERTEX
  8
BASE
  6
CONTINUOUS
 10
-4.743276
 20
-0.403461
 30
0.0
 70
    64
  0
VERTEX
  8
BASE
  6
CONTINUOUS
 10
-4.756996
 20
-0.403461
 30
0.0
 70
    64
  0
VERTEX
  8
BASE
  6
CONTINUOUS
 10
-4.770716
 20
-0.403461
 30
0.0
 70
    64
  0
VERTEX
  8
BASE
  6
CONTINUOUS
 10
-4.784436
 20
-0.403461
 30
0.0
 70
    64
  0
VERTEX
  8
BASE
  6
CONTINUOUS
 10
-4.798156
 20
-0.403461
 30
0.0
 70
    64
  0
VERTEX
  8
BASE
  6
CONTINUOUS
 10
-4.811876
 20
-0.403461
 30
0.0
 70
    64
  0
VERTEX
  8
BASE
  6
CONTINUOUS
 10
-4.825596
 20
-0.403461
 30
0.0
 70
    64
  0
VERTEX
  8
BASE
  6
CONTINUOUS
 10
-4.839316
 20
-0.403461
 30
0.0
 70
    64
  0
VERTEX
  8
BASE
  6
CONTINUOUS
 10
-4.853036
 20
-0.403461
 30
0.0
 70
    64
  0
VERTEX
  8
BASE
  6
CONTINUOUS
 10
-4.866756
 20
-0.403461
 30
0.0
 70
    64
  0
VERTEX
  8
BASE
  6
CONTINUOUS
 10
-4.880476
 20
-0.403461
 30
0.0
 70
    64
  0
VERTEX
  8
BASE
  6
CONTINUOUS
 10
-4.894196
 20
-0.403461
 30
0.0
 70
    64
  0
VERTEX
  8
BASE
  6
CONTINUOUS
 10
-4.907916
 20
-0.403461
 30
0.0
 70
    64
  0
VERTEX
  8
BASE
  6
CONTINUOUS
 10
-4.921636
 20
-0.403461
 30
0.0
 70
    64
  0
VERTEX
  8
BASE
  6
CONTINUOUS
 10
-4.935356
 20
-0.403461
 30
0.0
 70
    64
  0
VERTEX
  8
BASE
  6
CONTINUOUS
 10
-4.949076
 20
-0.403461
 30
0.0
 70
    64
  0
VERTEX
  8
BASE
  6
CONTINUOUS
 10
-4.962796
 20
-0.403461
 30
0.0
 70
    64
  0
VERTEX
  8
BASE
  6
CONTINUOUS
 10
-4.976516
 20
-0.403461
 30
0.0
 70
    64
  0
VERTEX
  8
BASE
  6
CONTINUOUS
 10
-4.990236
 20
-0.403461
 30
0.0
 70
    64
  0
VERTEX
  8
BASE
  6
CONTINUOUS
 10
-5.003956
 20
-0.403461
 30
0.0
 70
    64
  0
VERTEX
  8
BASE
  6
CONTINUOUS
 10
-5.017676
 20
-0.403461
 30
0.0
 70
    64
  0
VERTEX
  8
BASE
  6
CONTINUOUS
 10
-5.031396
 20
-0.403461
 30
0.0
 70
    64
  0
VERTEX
  8
BASE
  6
CONTINUOUS
 10
-5.045116
 20
-0.403461
 30
0.0
 70
    64
  0
VERTEX
  8
BASE
  6
CONTINUOUS
 10
-5.058836
 20
-0.403461
 30
0.0
 70
    64
  0
VERTEX
  8
BASE
  6
CONTINUOUS
 10
-5.072556
 20
-0.403461
 30
0.0
 70
    64
  0
VERTEX
  8
BASE
  6
CONTINUOUS
 10
-5.086276
 20
-0.403461
 30
0.0
 70
    64
  0
VERTEX
  8
BASE
  6
CONTINUOUS
 10
-5.099996
 20
-0.403461
 30
0.0
 70
    64
  0
VERTEX
  8
BASE
  6
CONTINUOUS
 10
-5.113716
 20
-0.403461
 30
0.0
 70
    64
  0
VERTEX
  8
BASE
  6
CONTINUOUS
 10
-5.127436
 20
-0.403461
 30
0.0
 70
    64
  0
VERTEX
  8
BASE
  6
CONTINUOUS
 10
-5.141156
 20
-0.403461
 30
0.0
 70
    64
  0
VERTEX
  8
BASE
  6
CONTINUOUS
 10
-5.154876
 20
-0.403461
 30
0.0
 70
    64
  0
VERTEX
  8
BASE
  6
CONTINUOUS
 10
-5.168596
 20
-0.403461
 30
0.0
 70
    64
  0
VERTEX
  8
BASE
  6
CONTINUOUS
 10
-5.182316
 20
-0.403461
 30
0.0
 70
    64
  0
VERTEX
  8
BASE
  6
CONTINUOUS
 10
-5.196036
 20
-0.403461
 30
0.0
 70
    64
  0
VERTEX
  8
BASE
  6
CONTINUOUS
 10
-5.209756
 20
-0.403461
 30
0.0
 70
    64
  0
VERTEX
  8
BASE
  6
CONTINUOUS
 10
-5.223476
 20
-0.403461
 30
0.0
 70
    64
  0
VERTEX
  8
BASE
  6
CONTINUOUS
 10
-5.237196
 20
-0.403461
 30
0.0
 70
    64
  0
VERTEX
  8
BASE
  6
CONTINUOUS
 10
-5.250916
 20
-0.403461
 30
0.0
 70
    64
  0
VERTEX
  8
BASE
  6
CONTINUOUS
 10
-5.264636
 20
-0.403461
 30
0.0
 70
    64
  0
VERTEX
  8
BASE
  6
CONTINUOUS
 10
-5.278356
 20
-0.403461
 30
0.0
 70
    64
  0
VERTEX
  8
BASE
  6
CONTINUOUS
 10
-5.292076
 20
-0.403461
 30
0.0
 70
    64
  0
VERTEX
  8
BASE
  6
CONTINUOUS
 10
-5.305796
 20
-0.403461
 30
0.0
 70
    64
  0
VERTEX
  8
BASE
  6
CONTINUOUS
 10
-5.319516
 20
-0.403461
 30
0.0
 70
    64
  0
VERTEX
  8
BASE
  6
CONTINUOUS
 10
-5.333236
 20
-0.403461
 30
0.0
 70
    64
  0
VERTEX
  8
BASE
  6
CONTINUOUS
 10
-5.346956
 20
-0.403461
 30
0.0
 70
    64
  0
VERTEX
  8
BASE
  6
CONTINUOUS
 10
-5.360676
 20
-0.403461
 30
0.0
 70
    64
  0
VERTEX
  8
BASE
  6
CONTINUOUS
 10
-5.374396
 20
-0.403461
 30
0.0
 70
    64
  0
VERTEX
  8
BASE
  6
CONTINUOUS
 10
-5.388116
 20
-0.403461
 30
0.0
 70
    64
  0
VERTEX
  8
BASE
  6
CONTINUOUS
 10
-5.401836
 20
-0.403461
 30
0.0
 70
    64
  0
VERTEX
  8
BASE
  6
CONTINUOUS
 10
-5.415556
 20
-0.403461
 30
0.0
 70
    64
  0
VERTEX
  8
BASE
  6
CONTINUOUS
 10
-5.429276
 20
-0.403461
 30
0.0
 70
    64
  0
VERTEX
  8
BASE
  6
CONTINUOUS
 10
-5.442996
 20
-0.403461
 30
0.0
 70
    64
  0
VERTEX
  8
BASE
  6
CONTINUOUS
 10
-5.456716
 20
-0.403461
 30
0.0
 70
    64
  0
VERTEX
  8
BASE
  6
CONTINUOUS
 10
-5.470436
 20
-0.403461
 30
0.0
 70
    64
  0
VERTEX
  8
BASE
  6
CONTINUOUS
 10
-5.484156
 20
-0.403461
 30
0.0
 70
    64
  0
VERTEX
  8
BASE
  6
CONTINUOUS
 10
-5.497876
 20
-0.403461
 30
0.0
 70
    64
  0
VERTEX
  8
BASE
  6
CONTINUOUS
 10
-5.511596
 20
-0.403461
 30
0.0
 70
    64
  0
VERTEX
  8
BASE
  6
CONTINUOUS
 10
-5.525316
 20
-0.403461
 30
0.0
 70
    64
  0
VERTEX
  8
BASE
  6
CONTINUOUS
 10
-5.539036
 20
-0.403461
 30
0.0
 70
    64
  0
VERTEX
  8
BASE
  6
CONTINUOUS
 10
-5.552756
 20
-0.403461
 30
0.0
 70
    64
  0
VERTEX
  8
BASE
  6
CONTINUOUS
 10
-5.566476
 20
-0.403461
 30
0.0
 70
    64
  0
VERTEX
  8
BASE
  6
CONTINUOUS
 10
-5.580196
 20
-0.403461
 30
0.0
 70
    64
  0
VERTEX
  8
BASE
  6
CONTINUOUS
 10
-5.593916
 20
-0.403461
 30
0.0
 70
    64
  0
VERTEX
  8
BASE
  6
CONTINUOUS
 10
-5.607636
 20
-0.403461
 30
0.0
 70
    64
  0
VERTEX
  8
BASE
  6
CONTINUOUS
 10
-5.621356
 20
-0.403461
 30
0.0
 70
    64
  0
VERTEX
  8
BASE
  6
CONTINUOUS
 10
-5.635076
 20
-0.403461
 30
0.0
 70
    64
  0
VERTEX
  8
BASE
  6
CONTINUOUS
 10
-5.648796
 20
-0.403461
 30
0.0
 70
    64
  0
VERTEX
  8
BASE
  6
CONTINUOUS
 10
-5.662516
 20
-0.403461
 30
0.0
 70
    64
  0
VERTEX
  8
BASE
  6
CONTINUOUS
 10
-5.676236
 20
-0.403461
 30
0.0
 70
    64
  0
VERTEX
  8
BASE
  6
CONTINUOUS
 10
-5.689956
 20
-0.403461
 30
0.0
 70
    64
  0
VERTEX
  8
BASE
  6
CONTINUOUS
 10
-5.703676
 20
-0.403461
 30
0.0
 70
    64
  0
VERTEX
  8
BASE
  6
CONTINUOUS
 10
-5.717396
 20
-0.403461
 30
0.0
 70
    64
  0
VERTEX
  8
BASE
  6
CONTINUOUS
 10
-5.731116
 20
-0.403461
 30
0.0
 70
    64
  0
VERTEX
  8
BASE
  6
CONTINUOUS
 10
-5.744836
 20
-0.403461
 30
0.0
 70
    64
  0
VERTEX
  8
BASE
  6
CONTINUOUS
 10
-5.758556
 20
-0.403461
 30
0.0
 70
    64
  0
VERTEX
  8
BASE
  6
CONTINUOUS
 10
-5.772276
 20
-0.403461
 30
0.0
 70
    64
  0
VERTEX
  8
BASE
  6
CONTINUOUS
 10
-5.785996
 20
-0.403461
 30
0.0
 70
    64
  0
VERTEX
  8
BASE
  6
CONTINUOUS
 10
-5.799716
 20
-0.403461
 30
0.0
 70
    64
  0
VERTEX
  8
BASE
  6
CONTINUOUS
 10
-5.813436
 20
-0.403461
 30
0.0
 70
    64
  0
VERTEX
  8
BASE
  6
CONTINUOUS
 10
-5.827156
 20
-0.403461
 30
0.0
 70
    64
  0
VERTEX
  8
BASE
  6
CONTINUOUS
 10
-5.840876
 20
-0.403461
 30
0.0
 70
    64
  0
VERTEX
  8
BASE
  6
CONTINUOUS
 10
-5.854596
 20
-0.403461
 30
0.0
 70
    64
  0
VERTEX
  8
BASE
  6
CONTINUOUS
 10
-5.868316
 20
-0.403461
 30
0.0
 70
    64
  0
VERTEX
  8
BASE
  6
CONTINUOUS
 10
-5.882036
 20
-0.403461
 30
0.0
 70
    64
  0
VERTEX
  8
BASE
  6
CONTINUOUS
 10
-5.895756
 20
-0.403461
 30
0.0
 70
    64
  0
VERTEX
  8
BASE
  6
CONTINUOUS
 10
-5.909476
 20
-0.403461
 30
0.0
 70
    64
  0
VERTEX
  8
BASE
  6
CONTINUOUS
 10
-5.923196
 20
-0.403461
 30
0.0
 70
    64
  0
VERTEX
  8
BASE
  6
CONTINUOUS
 10
-5.936916
 20
-0.403461
 30
0.0
 70
    64
  0
VERTEX
  8
BASE
  6
CONTINUOUS
 10
-5.950636
 20
-0.403461
 30
0.0
 70
    64
  0
VERTEX
  8
BASE
  6
CONTINUOUS
 10
-5.964356
 20
-0.403461
 30
0.0
 70
    64
  0
VERTEX
  8
BASE
  6
CONTINUOUS
 10
-5.978076
 20
-0.403461
 30
0.0
 70
    64
  0
VERTEX
  8
BASE
  6
CONTINUOUS
 10
-5.991796
 20
-0.403461
 30
0.0
 70
    64
  0
VERTEX
  8
BASE
  6
CONTINUOUS
 10
-6.005516
 20
-0.403461
 30
0.0
 70
    64
  0
VERTEX
  8
BASE
  6
CONTINUOUS
 10
-6.019236
 20
-0.403461
 30
0.0
 70
    64
  0
VERTEX
  8
BASE
  6
CONTINUOUS
 10
-6.032956
 20
-0.403461
 30
0.0
 70
    64
  0
VERTEX
  8
BASE
  6
CONTINUOUS
 10
-6.046676
 20
-0.403461
 30
0.0
 70
    64
  0
VERTEX
  8
BASE
  6
CONTINUOUS
 10
-6.060396
 20
-0.403461
 30
0.0
 70
    64
  0
VERTEX
  8
BASE
  6
CONTINUOUS
 10
-6.074116
 20
-0.403461
 30
0.0
 70
    64
  0
VERTEX
  8
BASE
  6
CONTINUOUS
 10
-6.087836
 20
-0.403461
 30
0.0
 70
    64
  0
VERTEX
  8
BASE
  6
CONTINUOUS
 10
-6.101556
 20
-0.403461
 30
0.0
 70
    64
  0
VERTEX
  8
BASE
  6
CONTINUOUS
 10
-6.115276
 20
-0.403461
 30
0.0
 70
    64
  0
VERTEX
  8
BASE
  6
CONTINUOUS
 10
-6.128996
 20
-0.403461
 30
0.0
 70
    64
  0
VERTEX
  8
BASE
  6
CONTINUOUS
 10
-6.142716
 20
-0.403461
 30
0.0
 70
    64
  0
VERTEX
  8
BASE
  6
CONTINUOUS
 10
-6.156436
 20
-0.403461
 30
0.0
 70
    64
  0
VERTEX
  8
BASE
  6
CONTINUOUS
 10
-6.170156
 20
-0.403461
 30
0.0
 70
    64
  0
VERTEX
  8
BASE
  6
CONTINUOUS
 10
-6.183876
 20
-0.403461
 30
0.0
 70
    64
  0
VERTEX
  8
BASE
  6
CONTINUOUS
 10
-6.197596
 20
-0.403461
 30
0.0
 70
    64
  0
VERTEX
  8
BASE
  6
CONTINUOUS
 10
-6.211316
 20
-0.403461
 30
0.0
 70
    64
  0
VERTEX
  8
BASE
  6
CONTINUOUS
 10
-6.225036
 20
-0.403461
 30
0.0
 70
    64
  0
VERTEX
  8
BASE
  6
CONTINUOUS
 10
-6.238756
 20
-0.403461
 30
0.0
 70
    64
  0
VERTEX
  8
BASE
  6
CONTINUOUS
 10
-6.252476
 20
-0.403461
 30
0.0
 70
    64
  0
VERTEX
  8
BASE
  6
CONTINUOUS
 10
-6.266196
 20
-0.403461
 30
0.0
 70
    64
  0
VERTEX
  8
BASE
  6
CONTINUOUS
 10
-6.279916
 20
-0.403461
 30
0.0
 70
    64
  0
VERTEX
  8
BASE
  6
CONTINUOUS
 10
-6.293636
 20
-0.403461
 30
0.0
 70
    64
  0
VERTEX
  8
BASE
  6
CONTINUOUS
 10
-6.307356
 20
-0.403461
 30
0.0
 70
    64
  0
VERTEX
  8
BASE
  6
CONTINUOUS
 10
-6.321076
 20
-0.403461
 30
0.0
 70
    64
  0
VERTEX
  8
BASE
  6
CONTINUOUS
 10
-6.334796
 20
-0.403461
 30
0.0
 70
    64
  0
VERTEX
  8
BASE
  6
CONTINUOUS
 10
-6.348516
 20
-0.403461
 30
0.0
 70
    64
  0
VERTEX
  8
BASE
  6
CONTINUOUS
 10
-6.362236
 20
-0.403461
 30
0.0
 70
    64
  0
VERTEX
  8
BASE
  6
CONTINUOUS
 10
-6.375956
 20
-0.403461
 30
0.0
 70
    64
  0
VERTEX
  8
BASE
  6
CONTINUOUS
 10
-6.389676
 20
-0.403461
 30
0.0
 70
    64
  0
VERTEX
  8
BASE
  6
CONTINUOUS
 10
-6.403396
 20
-0.403461
 30
0.0
 70
    64
  0
VERTEX
  8
BASE
  6
CONTINUOUS
 10
-6.417116
 20
-0.403461
 30
0.0
 70
    64
  0
VERTEX
  8
BASE
  6
CONTINUOUS
 10
-6.430836
 20
-0.403461
 30
0.0
 70
    64
  0
VERTEX
  8
BASE
  6
CONTINUOUS
 10
-6.444556
 20
-0.403461
 30
0.0
 70
    64
  0
VERTEX
  8
BASE
  6
CONTINUOUS
 10
-6.458276
 20
-0.403461
 30
0.0
 70
    64
  0
VERTEX
  8
BASE
  6
CONTINUOUS
 10
-6.471996
 20
-0.403461
 30
0.0
 70
    64
  0
VERTEX
  8
BASE
  6
CONTINUOUS
 10
-6.485716
 20
-0.403461
 30
0.0
 70
    64
  0
VERTEX
  8
BASE
  6
CONTINUOUS
 10
-6.499436
 20
-0.403461
 30
0.0
 70
    64
  0
SEQEND
  8
BASE
  6
CONTINUOUS
  0
LINE
  8
BASE
  6
CONTINUOUS
 10
-6.499436
 20
-0.403461
 30
0.0
 11
-3.069436
 21
-0.403461
 31
0.0
  0
LINE
  8
BASE
  6
CONTINUOUS
 10
-6.499436
 20
0.576539
 30
0.0
 11
-6.499436
 21
-0.403461
 31
0.0
  0
LINE
  8
BASE
  6
CONTINUOUS
 10
-3.069436
 20
0.576539
 30
0.0
 11
-6.499436
 21
0.576539
 31
0.0
  0
LINE
  8
BASE
  6
CONTINUOUS
 10
-3.069436
 20
-0.403461
 30
0.0
 11
-3.069436
 21
0.576539
 31
0.0
  0
ARC
  8
BASE
  6
CONTINUOUS
 10
-3.75
 20
7.586539
 30
0.0
 40
2.5
 50
270.0
 51
90.0
  0
LINE
  8
BASE
  6
CONTINUOUS
 10
-6.25
 20
0.086539
 30
0.0
 11
-10.0
 21
0.086539
 31
0.0
  0
ENDBLK
  8
0
  0
BLOCK
  8
0
  2
B1004
 70
     0
 10
0.0
 20
0.0
 30
0.0
  3
B1004
  0
LINE
  8
BASE
  6
CONTINUOUS
 10
0.0
 20
18.0
 30
0.0
 11
1.0
 21
19.0
 31
0.0
  0
LINE
  8
BASE
  6
CONTINUOUS
 10
0.0
 20
18.0
 30
0.0
 11
0.0
 21
-19.0
 31
0.0
  0
INSERT
  8
BASE
  6
CONTINUOUS
  2
BLC29
 10
-1.446141
 20
-0.128465
 30
0.0
 50
180.0
  0
LINE
  8
BASE
  6
CONTINUOUS
 10
0.0
 20
0.0
 30
0.0
 11
-20.0
 21
0.0
 31
0.0
  0
ENDBLK
  8
0
  0
BLOCK
  8
0
  2
MAA
 70
     0
 10
0.0
 20
0.0
 30
0.0
  3
MAA
  0
LINE
  8
0
  6
CONTINUOUS
 10
-0.500718
 20
-2.587966
 30
0.0
 11
0.386169
 21
-2.587966
 31
0.0
  0
LINE
  8
0
  6
CONTINUOUS
 10
-0.831823
 20
-1.976333
 30
0.0
 11
0.752749
 21
-1.976333
 31
0.0
  0
LINE
  8
0
  6
CONTINUOUS
 10
-0.015887
 20
-1.35427
 30
0.0
 11
1.178454
 21
-1.35427
 31
0.0
  0
LINE
  8
0
  6
CONTINUOUS
 10
-1.210228
 20
-1.35427
 30
0.0
 11
-0.015887
 21
-1.35427
 31
0.0
  0
LINE
  8
0
  6
CONTINUOUS
 10
0.0
 20
0.0
 30
0.0
 11
0.0
 21
-1.35427
 31
0.0
  0
ENDBLK
  8
0
  0
BLOCK
  8
0
  2
B1005
 70
     0
 10
0.0
 20
0.0
 30
0.0
  3
B1005
  0
TEXT
  8
BASE
  6
CONTINUOUS
 10
1.25
 20
-0.833333
 30
0.0
 40
2.0
  1
GRUPPLARM
  7
GREEKS
  0
TEXT
  8
BASE
  6
CONTINUOUS
 10
1.25
 20
2.5
 30
0.0
 40
2.0
  1
GROUP ALARMS
  7
GREEKS
  0
TEXT
  8
BASE
  6
CONTINUOUS
 10
27.5
 20
2.5
 30
0.0
 40
2.0
  1
GROUPING
  7
GREEKS
  0
TEXT
  8
BASE
  6
CONTINUOUS
 10
27.5
 20
-0.833333
 30
0.0
 40
2.0
  1
GRUPPERING
  7
GREEKS
  0
TEXT
  8
BASE
  6
CONTINUOUS
 10
52.5
 20
-0.833333
 30
0.0
 40
2.0
  1
LARMKANALER
  7
GREEKS
  0
TEXT
  8
BASE
  6
CONTINUOUS
 10
52.5
 20
2.5
 30
0.0
 40
2.0
  1
ALARM CHANNELS
  7
GREEKS
  0
ENDBLK
  8
0
  0
BLOCK
  8
0
  2
B1008
 70
     0
 10
0.0
 20
0.0
 30
0.0
  3
B1008
  0
LINE
  8
0
  6
CONTINUOUS
 10
-7.896787
 20
2.721865
 30
0.0
 11
-10.396787
 21
-2.278135
 31
0.0
  0
LINE
  8
0
  6
DASHED
 10
-10.396787
 20
-2.278135
 30
0.0
 11
-11.532684
 21
-2.278135
 31
0.0
  0
LINE
  8
0
  6
DASHED
 10
-7.09843
 20
0.126015
 30
0.0
 11
-4.59843
 21
0.126015
 31
0.0
  0
LINE
  8
0
  6
DASHED
 10
-12.09843
 20
0.126015
 30
0.0
 11
-14.59843
 21
0.126015
 31
0.0
  0
INSERT
  8
0
  6
DASHED
  2
B109
 10
-12.09843
 20
0.126015
 30
0.0
 50
270.0
  0
ENDBLK
  8
0
  0
BLOCK
  8
0
  2
B109
 70
    64
 10
0.0
 20
0.0
 30
0.0
  3
B109
  0
LINE
  8
0
  6
CONTINUOUS
 10
-1.084905
 20
0.0
 30
0.0
 11
-1.084905
 21
5.0
 31
0.0
  0
LINE
  8
0
  6
CONTINUOUS
 10
1.084905
 20
0.0
 30
0.0
 11
-1.084905
 21
0.0
 31
0.0
  0
LINE
  8
0
  6
CONTINUOUS
 10
1.084905
 20
5.0
 30
0.0
 11
1.084905
 21
0.0
 31
0.0
  0
LINE
  8
0
  6
CONTINUOUS
 10
-1.084905
 20
5.0
 30
0.0
 11
1.084905
 21
5.0
 31
0.0
  0
ENDBLK
  8
0
  0
BLOCK
  8
0
  2
B1009
 70
     0
 10
0.0
 20
0.0
 30
0.0
  3
B1009
  0
TEXT
  8
BASE
  6
CENTER
 10
-3.935188
 20
1.621429
 30
0.0
 40
2.0
  1
U
 50
180.0
  7
GREEKS
  0
TEXT
  8
BASE
  6
CENTER
 10
-3.466114
 20
-0.382416
 30
0.0
 40
2.0
  1
/#
  7
GREEKS
  0
ENDBLK
  8
0
  0
BLOCK
  8
0
  2
B64
 70
     0
 10
0.0
 20
0.0
 30
0.0
  3
B64
  0
LINE
  8
0
  6
DASHED
 10
0.0
 20
20.0
 30
0.0
 11
22.5
 21
20.0
 31
0.0
  0
POLYLINE
  8
0
  6
DASHED
 66
     1
 10
0.0
 20
0.0
 30
0.0
 70
     1
 40
0.25
 41
0.25
 71
     2
 72
   251
  0
VERTEX
  8
0
  6
DASHED
 10
7.125
 20
20.0
 30
0.0
 42
1.0
  0
VERTEX
  8
0
  6
DASHED
 10
7.875
 20
20.0
 30
0.0
 42
1.0
  0
SEQEND
  8
0
  6
DASHED
  0
LINE
  8
0
  6
DASHED
 10
15.0
 20
20.0
 30
0.0
 11
15.0
 21
-7.5
 31
0.0
  0
CIRCLE
  8
0
  6
CONTINUOUS
 10
15.0
 20
0.0
 30
0.0
 40
1.208155
  0
POLYLINE
  8
0
  6
DASHED
 66
     1
 10
0.0
 20
0.0
 30
0.0
 70
     1
 40
0.25
 41
0.25
 71
     2
 72
   251
  0
VERTEX
  8
0
  6
DASHED
 10
14.625
 20
20.0
 30
0.0
 42
1.0
  0
VERTEX
  8
0
  6
DASHED
 10
15.375
 20
20.0
 30
0.0
 42
1.0
  0
SEQEND
  8
0
  6
DASHED
  0
LINE
  8
0
  6
DASHED
 10
7.5
 20
20.0
 30
0.0
 11
7.5
 21
16.208155
 31
0.0
  0
CIRCLE
  8
0
  6
CONTINUOUS
 10
7.5
 20
13.461789
 30
0.0
 40
1.208155
  0
CIRCLE
  8
0
  6
CONTINUOUS
 10
7.5
 20
15.0
 30
0.0
 40
1.208155
  0
LINE
  8
0
  6
DASHED
 10
7.5
 20
-55.0
 30
0.0
 11
7.5
 21
12.253634
 31
0.0
  0
LINE
  8
0
  6
DASHED
 10
0.0
 20
0.0
 30
0.0
 11
13.791845
 21
0.0
 31
0.0
  0
LINE
  8
0
  6
DASHED
 10
0.0
 20
-55.0
 30
0.0
 11
7.5
 21
-55.0
 31
0.0
  0
ENDBLK
  8
0
  0
BLOCK
  8
0
  2
B506
 70
     0
 10
0.0
 20
0.0
 30
0.0
  3
B506
  0
INSERT
  8
BASE
  6
CONTINUOUS
  2
BLC29
 10
1.994594
 20
-0.128476
 30
0.0
 50
180.0
  0
ENDBLK
  8
0
  0
BLOCK
  8
0
  2
B63
 70
     0
 10
0.0
 20
0.0
 30
0.0
  3
B63
  0
LINE
  8
BASE
  6
CONTINUOUS
 10
10.740939
 20
0.0
 30
0.0
 11
15.0
 21
0.0
 31
0.0
  0
LINE
  8
BASE
  6
CONTINUOUS
 10
0.0
 20
0.0
 30
0.0
 11
5.0
 21
0.0
 31
0.0
  0
LINE
  8
BASE
  6
CONTINUOUS
 10
9.353436
 20
-0.361863
 30
0.0
 11
4.256076
 21
-3.214703
 31
0.0
  0
LINE
  8
BASE
  6
CONTINUOUS
 10
5.0
 20
-5.0
 30
0.0
 11
0.0
 21
-5.0
 31
0.0
  0
LINE
  8
BASE
  6
CONTINUOUS
 10
5.0
 20
-5.0
 30
0.0
 11
5.0
 21
-2.5
 31
0.0
  0
CIRCLE
  8
BASE
  6
CONTINUOUS
 10
10.0
 20
0.0
 30
0.0
 40
0.740939
  0
ENDBLK
  8
0
  0
BLOCK
  8
0
  2
B1013
 70
     0
 10
0.0
 20
0.0
 30
0.0
  3
B1013
  0
POLYLINE
  8
0
  6
DASHED
 66
     1
 10
0.0
 20
0.0
 30
0.0
 70
     1
 40
0.5
 41
0.5
  0
VERTEX
  8
0
  6
DASHED
 10
35.75
 20
-40.0
 30
0.0
 42
1.0
  0
VERTEX
  8
0
  6
DASHED
 10
36.75
 20
-40.0
 30
0.0
 42
1.0
  0
SEQEND
  8
0
  6
DASHED
  0
POLYLINE
  8
0
  6
DASHED
 66
     1
 10
0.0
 20
0.0
 30
0.0
 70
     1
 40
0.5
 41
0.5
  0
VERTEX
  8
0
  6
DASHED
 10
35.75
 20
-35.0
 30
0.0
 42
1.0
  0
VERTEX
  8
0
  6
DASHED
 10
36.75
 20
-35.0
 30
0.0
 42
1.0
  0
SEQEND
  8
0
  6
DASHED
  0
POLYLINE
  8
0
  6
DASHED
 66
     1
 10
0.0
 20
0.0
 30
0.0
 70
     1
 40
0.5
 41
0.5
  0
VERTEX
  8
0
  6
DASHED
 10
35.75
 20
-30.0
 30
0.0
 42
1.0
  0
VERTEX
  8
0
  6
DASHED
 10
36.75
 20
-30.0
 30
0.0
 42
1.0
  0
SEQEND
  8
0
  6
DASHED
  0
POLYLINE
  8
0
  6
DASHED
 66
     1
 10
0.0
 20
0.0
 30
0.0
 70
     1
 40
0.5
 41
0.5
  0
VERTEX
  8
0
  6
DASHED
 10
35.75
 20
-25.0
 30
0.0
 42
1.0
  0
VERTEX
  8
0
  6
DASHED
 10
36.75
 20
-25.0
 30
0.0
 42
1.0
  0
SEQEND
  8
0
  6
DASHED
  0
POLYLINE
  8
0
  6
DASHED
 66
     1
 10
0.0
 20
0.0
 30
0.0
 70
     1
 40
0.5
 41
0.5
  0
VERTEX
  8
0
  6
DASHED
 10
35.75
 20
-20.0
 30
0.0
 42
1.0
  0
VERTEX
  8
0
  6
DASHED
 10
36.75
 20
-20.0
 30
0.0
 42
1.0
  0
SEQEND
  8
0
  6
DASHED
  0
POLYLINE
  8
0
  6
DASHED
 66
     1
 10
0.0
 20
0.0
 30
0.0
 70
     1
 40
0.5
 41
0.5
  0
VERTEX
  8
0
  6
DASHED
 10
35.75
 20
-15.0
 30
0.0
 42
1.0
  0
VERTEX
  8
0
  6
DASHED
 10
36.75
 20
-15.0
 30
0.0
 42
1.0
  0
SEQEND
  8
0
  6
DASHED
  0
POLYLINE
  8
0
  6
DASHED
 66
     1
 10
0.0
 20
0.0
 30
0.0
 70
     1
 40
0.5
 41
0.5
  0
VERTEX
  8
0
  6
DASHED
 10
35.75
 20
-10.0
 30
0.0
 42
1.0
  0
VERTEX
  8
0
  6
DASHED
 10
36.75
 20
-10.0
 30
0.0
 42
1.0
  0
SEQEND
  8
0
  6
DASHED
  0
POLYLINE
  8
0
  6
DASHED
 66
     1
 10
0.0
 20
0.0
 30
0.0
 70
     1
 40
0.5
 41
0.5
  0
VERTEX
  8
0
  6
DASHED
 10
35.75
 20
-5.0
 30
0.0
 42
1.0
  0
VERTEX
  8
0
  6
DASHED
 10
36.75
 20
-5.0
 30
0.0
 42
1.0
  0
SEQEND
  8
0
  6
DASHED
  0
POLYLINE
  8
0
  6
DASHED
 66
     1
 10
0.0
 20
0.0
 30
0.0
 70
     1
 40
0.5
 41
0.5
  0
VERTEX
  8
0
  6
DASHED
 10
35.75
 20
0.0
 30
0.0
 42
1.0
  0
VERTEX
  8
0
  6
DASHED
 10
36.75
 20
0.0
 30
0.0
 42
1.0
  0
SEQEND
  8
0
  6
DASHED
  0
POLYLINE
  8
0
  6
DASHED
 66
     1
 10
0.0
 20
0.0
 30
0.0
 70
     1
 40
0.5
 41
0.5
  0
VERTEX
  8
0
  6
DASHED
 10
35.75
 20
5.0
 30
0.0
 42
1.0
  0
VERTEX
  8
0
  6
DASHED
 10
36.75
 20
5.0
 30
0.0
 42
1.0
  0
SEQEND
  8
0
  6
DASHED
  0
LINE
  8
0
  6
CONTINUOUS
 10
21.25
 20
-25.0
 30
0.0
 11
26.25
 21
-25.0
 31
0.0
  0
LINE
  8
0
  6
CONTINUOUS
 10
31.25
 20
-25.0
 30
0.0
 11
25.506076
 21
-28.214703
 31
0.0
  0
LINE
  8
0
  6
CONTINUOUS
 10
31.25
 20
-25.0
 30
0.0
 11
36.25
 21
-25.0
 31
0.0
  0
LINE
  8
0
  6
CONTINUOUS
 10
21.25
 20
-20.0
 30
0.0
 11
26.25
 21
-20.0
 31
0.0
  0
LINE
  8
0
  6
CONTINUOUS
 10
31.25
 20
-20.0
 30
0.0
 11
25.506076
 21
-23.214703
 31
0.0
  0
LINE
  8
0
  6
CONTINUOUS
 10
31.25
 20
-20.0
 30
0.0
 11
36.25
 21
-20.0
 31
0.0
  0
LINE
  8
0
  6
CONTINUOUS
 10
21.25
 20
-15.0
 30
0.0
 11
26.25
 21
-15.0
 31
0.0
  0
LINE
  8
0
  6
CONTINUOUS
 10
31.25
 20
-15.0
 30
0.0
 11
25.506076
 21
-18.214703
 31
0.0
  0
LINE
  8
0
  6
CONTINUOUS
 10
31.25
 20
-15.0
 30
0.0
 11
36.25
 21
-15.0
 31
0.0
  0
LINE
  8
0
  6
CONTINUOUS
 10
21.25
 20
-10.0
 30
0.0
 11
26.25
 21
-10.0
 31
0.0
  0
LINE
  8
0
  6
CONTINUOUS
 10
31.25
 20
-10.0
 30
0.0
 11
25.506076
 21
-13.214703
 31
0.0
  0
LINE
  8
0
  6
CONTINUOUS
 10
31.25
 20
-10.0
 30
0.0
 11
36.25
 21
-10.0
 31
0.0
  0
LINE
  8
0
  6
CONTINUOUS
 10
21.25
 20
-5.0
 30
0.0
 11
26.25
 21
-5.0
 31
0.0
  0
LINE
  8
0
  6
CONTINUOUS
 10
31.25
 20
-5.0
 30
0.0
 11
25.506076
 21
-8.214703
 31
0.0
  0
LINE
  8
0
  6
CONTINUOUS
 10
31.25
 20
-5.0
 30
0.0
 11
36.25
 21
-5.0
 31
0.0
  0
LINE
  8
0
  6
CONTINUOUS
 10
21.25
 20
0.0
 30
0.0
 11
26.25
 21
0.0
 31
0.0
  0
LINE
  8
0
  6
CONTINUOUS
 10
31.25
 20
0.0
 30
0.0
 11
25.506076
 21
-3.214703
 31
0.0
  0
LINE
  8
0
  6
CONTINUOUS
 10
31.25
 20
0.0
 30
0.0
 11
36.25
 21
0.0
 31
0.0
  0
LINE
  8
0
  6
CONTINUOUS
 10
31.25
 20
5.0
 30
0.0
 11
36.25
 21
5.0
 31
0.0
  0
LINE
  8
0
  6
CONTINUOUS
 10
31.25
 20
5.0
 30
0.0
 11
25.506076
 21
1.785297
 31
0.0
  0
LINE
  8
0
  6
CONTINUOUS
 10
21.25
 20
5.0
 30
0.0
 11
26.25
 21
5.0
 31
0.0
  0
LINE
  8
0
  6
DASHED
 10
0.0
 20
-40.0
 30
0.0
 11
36.25
 21
-40.0
 31
0.0
  0
LINE
  8
0
  6
DASHED
 10
0.0
 20
-35.0
 30
0.0
 11
36.25
 21
-35.0
 31
0.0
  0
LINE
  8
0
  6
DASHED
 10
0.0
 20
-30.0
 30
0.0
 11
36.25
 21
-30.0
 31
0.0
  0
LINE
  8
0
  6
DASHED
 10
0.0
 20
-25.0
 30
0.0
 11
22.5
 21
-25.0
 31
0.0
  0
LINE
  8
0
  6
DASHED
 10
0.0
 20
-20.0
 30
0.0
 11
22.5
 21
-20.0
 31
0.0
  0
LINE
  8
0
  6
DASHED
 10
0.0
 20
-15.0
 30
0.0
 11
22.5
 21
-15.0
 31
0.0
  0
LINE
  8
0
  6
DASHED
 10
0.0
 20
-10.0
 30
0.0
 11
22.5
 21
-10.0
 31
0.0
  0
LINE
  8
0
  6
DASHED
 10
0.0
 20
-5.0
 30
0.0
 11
22.5
 21
-5.0
 31
0.0
  0
LINE
  8
0
  6
DASHED
 10
0.0
 20
0.0
 30
0.0
 11
22.5
 21
0.0
 31
0.0
  0
LINE
  8
0
  6
DASHED
 10
0.0
 20
5.0
 30
0.0
 11
22.5
 21
5.0
 31
0.0
  0
INSERT
  8
BASE
  6
CONTINUOUS
  2
BLC29
 10
-53.946141
 20
-17.628465
 30
0.0
 50
180.0
  0
LINE
  8
BASE
  6
CONTINUOUS
 10
-52.5
 20
0.5
 30
0.0
 11
-52.5
 21
-36.5
 31
0.0
  0
LINE
  8
BASE
  6
CONTINUOUS
 10
-52.5
 20
0.5
 30
0.0
 11
-51.5
 21
1.5
 31
0.0
  0
LINE
  8
BASE
  6
CONTINUOUS
 10
-52.5
 20
-36.5
 30
0.0
 11
-51.5
 21
-37.5
 31
0.0
  0
TEXT
  8
BASE
  6
CONTINUOUS
 10
-31.813738
 20
-38.509082
 30
0.0
 40
2.0
  1
CH 16
  7
ROMANS
  0
TEXT
  8
BASE
  6
CONTINUOUS
 10
-31.813738
 20
-33.448024
 30
0.0
 40
2.0
  1
CH 15
  7
ROMANS
  0
TEXT
  8
BASE
  6
CONTINUOUS
 10
-31.813738
 20
-28.371116
 30
0.0
 40
2.0
  1
CH 14
  7
ROMANS
  0
TEXT
  8
BASE
  6
CONTINUOUS
 10
-31.813738
 20
-23.310058
 30
0.0
 40
2.0
  1
CH 13
  7
ROMANS
  0
TEXT
  8
BASE
  6
CONTINUOUS
 10
-31.813738
 20
-18.58979
 30
0.0
 40
2.0
  1
CH 12
  7
ROMANS
  0
TEXT
  8
BASE
  6
CONTINUOUS
 10
-31.813738
 20
-13.172092
 30
0.0
 40
2.0
  1
CH 11
  7
ROMANS
  0
TEXT
  8
BASE
  6
CONTINUOUS
 10
-31.813738
 20
-8.103109
 30
0.0
 40
2.0
  1
CH 10
  7
ROMANS
  0
TEXT
  8
BASE
  6
CONTINUOUS
 10
-31.813738
 20
-3.382841
 30
0.0
 40
2.0
  1
CH 9
  7
ROMANS
  0
LINE
  8
BASE
  6
CONTINUOUS
 10
-40.625
 20
2.5
 30
0.0
 11
-43.125
 21
-1.25
 31
0.0
  0
LINE
  8
BASE
  6
CONTINUOUS
 10
-42.5
 20
2.5
 30
0.0
 11
-45.0
 21
-1.25
 31
0.0
  0
LINE
  8
BASE
  6
CONTINUOUS
 10
-37.5
 20
2.5
 30
0.0
 11
-48.75
 21
2.5
 31
0.0
  0
LINE
  8
BASE
  6
CONTINUOUS
 10
-40.625
 20
-2.5
 30
0.0
 11
-43.125
 21
-6.25
 31
0.0
  0
LINE
  8
BASE
  6
CONTINUOUS
 10
-42.5
 20
-2.5
 30
0.0
 11
-45.0
 21
-6.25
 31
0.0
  0
LINE
  8
BASE
  6
CONTINUOUS
 10
-37.5
 20
-2.5
 30
0.0
 11
-48.75
 21
-2.5
 31
0.0
  0
LINE
  8
BASE
  6
CONTINUOUS
 10
0.0
 20
-40.0
 30
0.0
 11
-37.5
 21
-40.0
 31
0.0
  0
LINE
  8
BASE
  6
CONTINUOUS
 10
-37.5
 20
-42.5
 30
0.0
 11
-37.5
 21
-37.5
 31
0.0
  0
LINE
  8
BASE
  6
CONTINUOUS
 10
-37.5
 20
-37.5
 30
0.0
 11
-48.75
 21
-37.5
 31
0.0
  0
LINE
  8
BASE
  6
CONTINUOUS
 10
-48.75
 20
-37.5
 30
0.0
 11
-48.75
 21
-42.5
 31
0.0
  0
LINE
  8
BASE
  6
CONTINUOUS
 10
0.0
 20
-35.0
 30
0.0
 11
-37.5
 21
-35.0
 31
0.0
  0
LINE
  8
BASE
  6
CONTINUOUS
 10
-37.5
 20
-37.5
 30
0.0
 11
-37.5
 21
-32.5
 31
0.0
  0
LINE
  8
BASE
  6
CONTINUOUS
 10
-37.5
 20
-32.5
 30
0.0
 11
-48.75
 21
-32.5
 31
0.0
  0
LINE
  8
BASE
  6
CONTINUOUS
 10
-48.75
 20
-32.5
 30
0.0
 11
-48.75
 21
-37.5
 31
0.0
  0
LINE
  8
BASE
  6
CONTINUOUS
 10
-42.5
 20
-32.5
 30
0.0
 11
-45.0
 21
-36.25
 31
0.0
  0
LINE
  8
BASE
  6
CONTINUOUS
 10
-40.625
 20
-32.5
 30
0.0
 11
-43.125
 21
-36.25
 31
0.0
  0
LINE
  8
BASE
  6
CONTINUOUS
 10
-37.5
 20
-37.5
 30
0.0
 11
-48.75
 21
-37.5
 31
0.0
  0
LINE
  8
BASE
  6
CONTINUOUS
 10
0.0
 20
-30.0
 30
0.0
 11
-37.5
 21
-30.0
 31
0.0
  0
LINE
  8
BASE
  6
CONTINUOUS
 10
-37.5
 20
-32.5
 30
0.0
 11
-37.5
 21
-27.5
 31
0.0
  0
LINE
  8
BASE
  6
CONTINUOUS
 10
-37.5
 20
-27.5
 30
0.0
 11
-48.75
 21
-27.5
 31
0.0
  0
LINE
  8
BASE
  6
CONTINUOUS
 10
-48.75
 20
-27.5
 30
0.0
 11
-48.75
 21
-32.5
 31
0.0
  0
LINE
  8
BASE
  6
CONTINUOUS
 10
-42.5
 20
-27.5
 30
0.0
 11
-45.0
 21
-31.25
 31
0.0
  0
LINE
  8
BASE
  6
CONTINUOUS
 10
-40.625
 20
-27.5
 30
0.0
 11
-43.125
 21
-31.25
 31
0.0
  0
LINE
  8
BASE
  6
CONTINUOUS
 10
-37.5
 20
-32.5
 30
0.0
 11
-48.75
 21
-32.5
 31
0.0
  0
LINE
  8
BASE
  6
CONTINUOUS
 10
0.0
 20
-25.0
 30
0.0
 11
-37.5
 21
-25.0
 31
0.0
  0
LINE
  8
BASE
  6
CONTINUOUS
 10
-37.5
 20
-27.5
 30
0.0
 11
-37.5
 21
-22.5
 31
0.0
  0
LINE
  8
BASE
  6
CONTINUOUS
 10
-37.5
 20
-22.5
 30
0.0
 11
-48.75
 21
-22.5
 31
0.0
  0
LINE
  8
BASE
  6
CONTINUOUS
 10
-48.75
 20
-22.5
 30
0.0
 11
-48.75
 21
-27.5
 31
0.0
  0
LINE
  8
BASE
  6
CONTINUOUS
 10
-42.5
 20
-22.5
 30
0.0
 11
-45.0
 21
-26.25
 31
0.0
  0
LINE
  8
BASE
  6
CONTINUOUS
 10
-40.625
 20
-22.5
 30
0.0
 11
-43.125
 21
-26.25
 31
0.0
  0
LINE
  8
BASE
  6
CONTINUOUS
 10
-37.5
 20
-27.5
 30
0.0
 11
-48.75
 21
-27.5
 31
0.0
  0
LINE
  8
BASE
  6
CONTINUOUS
 10
0.0
 20
-20.0
 30
0.0
 11
-37.5
 21
-20.0
 31
0.0
  0
LINE
  8
BASE
  6
CONTINUOUS
 10
-37.5
 20
-22.5
 30
0.0
 11
-37.5
 21
-17.5
 31
0.0
  0
LINE
  8
BASE
  6
CONTINUOUS
 10
-37.5
 20
-17.5
 30
0.0
 11
-48.75
 21
-17.5
 31
0.0
  0
LINE
  8
BASE
  6
CONTINUOUS
 10
-48.75
 20
-17.5
 30
0.0
 11
-48.75
 21
-22.5
 31
0.0
  0
LINE
  8
BASE
  6
CONTINUOUS
 10
-42.5
 20
-17.5
 30
0.0
 11
-45.0
 21
-21.25
 31
0.0
  0
LINE
  8
BASE
  6
CONTINUOUS
 10
-40.625
 20
-17.5
 30
0.0
 11
-43.125
 21
-21.25
 31
0.0
  0
LINE
  8
BASE
  6
CONTINUOUS
 10
-37.5
 20
-22.5
 30
0.0
 11
-48.75
 21
-22.5
 31
0.0
  0
LINE
  8
BASE
  6
CONTINUOUS
 10
0.0
 20
-15.0
 30
0.0
 11
-37.5
 21
-15.0
 31
0.0
  0
LINE
  8
BASE
  6
CONTINUOUS
 10
-37.5
 20
-17.5
 30
0.0
 11
-37.5
 21
-12.5
 31
0.0
  0
LINE
  8
BASE
  6
CONTINUOUS
 10
-37.5
 20
-12.5
 30
0.0
 11
-48.75
 21
-12.5
 31
0.0
  0
LINE
  8
BASE
  6
CONTINUOUS
 10
-48.75
 20
-12.5
 30
0.0
 11
-48.75
 21
-17.5
 31
0.0
  0
LINE
  8
BASE
  6
CONTINUOUS
 10
-42.5
 20
-12.5
 30
0.0
 11
-45.0
 21
-16.25
 31
0.0
  0
LINE
  8
BASE
  6
CONTINUOUS
 10
-40.625
 20
-12.5
 30
0.0
 11
-43.125
 21
-16.25
 31
0.0
  0
LINE
  8
BASE
  6
CONTINUOUS
 10
-37.5
 20
-17.5
 30
0.0
 11
-48.75
 21
-17.5
 31
0.0
  0
LINE
  8
BASE
  6
CONTINUOUS
 10
0.0
 20
-10.0
 30
0.0
 11
-37.5
 21
-10.0
 31
0.0
  0
LINE
  8
BASE
  6
CONTINUOUS
 10
-37.5
 20
-12.5
 30
0.0
 11
-37.5
 21
-7.5
 31
0.0
  0
LINE
  8
BASE
  6
CONTINUOUS
 10
-37.5
 20
-7.5
 30
0.0
 11
-48.75
 21
-7.5
 31
0.0
  0
LINE
  8
BASE
  6
CONTINUOUS
 10
-48.75
 20
-7.5
 30
0.0
 11
-48.75
 21
-12.5
 31
0.0
  0
LINE
  8
BASE
  6
CONTINUOUS
 10
-42.5
 20
-7.5
 30
0.0
 11
-45.0
 21
-11.25
 31
0.0
  0
LINE
  8
BASE
  6
CONTINUOUS
 10
-40.625
 20
-7.5
 30
0.0
 11
-43.125
 21
-11.25
 31
0.0
  0
LINE
  8
BASE
  6
CONTINUOUS
 10
-37.5
 20
-12.5
 30
0.0
 11
-48.75
 21
-12.5
 31
0.0
  0
LINE
  8
BASE
  6
CONTINUOUS
 10
0.0
 20
-5.0
 30
0.0
 11
-37.5
 21
-5.0
 31
0.0
  0
LINE
  8
BASE
  6
CONTINUOUS
 10
-37.5
 20
-7.5
 30
0.0
 11
-37.5
 21
-2.5
 31
0.0
  0
LINE
  8
BASE
  6
CONTINUOUS
 10
-48.75
 20
-2.5
 30
0.0
 11
-48.75
 21
-7.5
 31
0.0
  0
LINE
  8
BASE
  6
CONTINUOUS
 10
-37.5
 20
-7.5
 30
0.0
 11
-48.75
 21
-7.5
 31
0.0
  0
LINE
  8
BASE
  6
CONTINUOUS
 10
0.0
 20
0.0
 30
0.0
 11
-37.5
 21
0.0
 31
0.0
  0
LINE
  8
BASE
  6
CONTINUOUS
 10
-37.5
 20
-2.5
 30
0.0
 11
-37.5
 21
2.5
 31
0.0
  0
LINE
  8
BASE
  6
CONTINUOUS
 10
-48.75
 20
2.5
 30
0.0
 11
-48.75
 21
-2.5
 31
0.0
  0
LINE
  8
BASE
  6
CONTINUOUS
 10
0.0
 20
5.0
 30
0.0
 11
-37.5
 21
5.0
 31
0.0
  0
LINE
  8
BASE
  6
CONTINUOUS
 10
-37.5
 20
2.5
 30
0.0
 11
-37.5
 21
7.5
 31
0.0
  0
LINE
  8
BASE
  6
CONTINUOUS
 10
-48.75
 20
7.5
 30
0.0
 11
-48.75
 21
2.5
 31
0.0
  0
TEXT
  8
BASE
  6
CONTINUOUS
 10
-7.5
 20
-38.65367
 30
0.0
 40
2.0
  1
68
  7
ROMANS
  0
TEXT
  8
BASE
  6
CONTINUOUS
 10
-7.5
 20
-33.465686
 30
0.0
 40
2.0
  1
67
  7
ROMANS
  0
TEXT
  8
BASE
  6
CONTINUOUS
 10
-7.5
 20
-28.404533
 30
0.0
 40
2.0
  1
66
  7
ROMANS
  0
TEXT
  8
BASE
  6
CONTINUOUS
 10
-7.5
 20
-23.57403
 30
0.0
 40
2.0
  1
65
  7
ROMANS
  0
TEXT
  8
BASE
  6
CONTINUOUS
 10
-7.5
 20
-18.767122
 30
0.0
 40
2.0
  1
64
  7
ROMANS
  0
TEXT
  8
BASE
  6
CONTINUOUS
 10
-7.5
 20
-13.452016
 30
0.0
 40
2.0
  1
63
  7
ROMANS
  0
TEXT
  8
BASE
  6
CONTINUOUS
 10
-7.5
 20
-8.621513
 30
0.0
 40
2.0
  1
62
  7
ROMANS
  0
TEXT
  8
BASE
  6
CONTINUOUS
 10
-7.5
 20
-3.306407
 30
0.0
 40
2.0
  1
61
  7
ROMANS
  0
TEXT
  8
BASE
  6
CONTINUOUS
 10
-7.5
 20
1.885115
 30
0.0
 40
2.0
  1
60
  7
ROMANS
  0
ENDBLK
  8
0
  0
BLOCK
  8
0
  2
B1014
 70
     0
 10
0.0
 20
0.0
 30
0.0
  3
B1014
  0
CIRCLE
  8
0
  6
CONTINUOUS
 10
-25.0
 20
-38.75
 30
0.0
 40
2.34375
  0
INSERT
  8
0
  6
CONTINUOUS
  2
B155
 10
-25.0
 20
-37.1875
 30
0.0
 41
1.25
 42
1.25
 43
1.25
  0
LINE
  8
0
  6
DASHED
 10
-16.25
 20
-40.0
 30
0.0
 11
-13.75
 21
-40.0
 31
0.0
  0
LINE
  8
0
  6
DASHED
 10
-13.75
 20
-40.0
 30
0.0
 11
-16.25
 21
-41.25
 31
0.0
  0
LINE
  8
0
  6
DASHED
 10
-16.25
 20
-41.25
 30
0.0
 11
-13.75
 21
-41.25
 31
0.0
  0
LINE
  8
0
  6
DASHED
 10
-11.789157
 20
-41.25
 30
0.0
 11
-9.289157
 21
-41.25
 31
0.0
  0
LINE
  8
0
  6
DASHED
 10
-9.289157
 20
-41.25
 30
0.0
 11
-9.289157
 21
-40.0
 31
0.0
  0
LINE
  8
0
  6
DASHED
 10
-34.289157
 20
-41.25
 30
0.0
 11
-34.289157
 21
-40.0
 31
0.0
  0
LINE
  8
0
  6
DASHED
 10
-36.789157
 20
-41.25
 30
0.0
 11
-34.289157
 21
-41.25
 31
0.0
  0
LINE
  8
0
  6
DASHED
 10
-41.25
 20
-41.25
 30
0.0
 11
-38.75
 21
-41.25
 31
0.0
  0
LINE
  8
0
  6
DASHED
 10
-38.75
 20
-40.0
 30
0.0
 11
-41.25
 21
-41.25
 31
0.0
  0
LINE
  8
0
  6
DASHED
 10
-41.25
 20
-40.0
 30
0.0
 11
-38.75
 21
-40.0
 31
0.0
  0
TEXT
  8
0
  6
CONTINUOUS
 10
-13.993122
 20
-37.881845
 30
0.0
 40
2.0
  1
-
 50
90.0
  0
TEXT
  8
0
  6
CONTINUOUS
 10
-10.633266
 20
-38.19685
 30
0.0
 40
2.0
  1
+
  0
TEXT
  8
0
  6
CONTINUOUS
 10
-38.993122
 20
-37.881845
 30
0.0
 40
2.0
  1
-
 50
90.0
  0
TEXT
  8
0
  6
CONTINUOUS
 10
-35.633266
 20
-38.19685
 30
0.0
 40
2.0
  1
+
  0
LINE
  8
0
  6
DASHED
 10
-15.0
 20
-25.0
 30
0.0
 11
-15.0
 21
-33.75
 31
0.0
  0
LINE
  8
0
  6
DASHED
 10
-10.0
 20
-25.0
 30
0.0
 11
-10.0
 21
-33.75
 31
0.0
  0
LINE
  8
BASE
  6
CONTINUOUS
 10
-8.75
 20
-7.5
 30
0.0
 11
-8.75
 21
0.0
 31
0.0
  0
LINE
  8
BASE
  6
CONTINUOUS
 10
-8.75
 20
0.0
 30
0.0
 11
-16.25
 21
0.0
 31
0.0
  0
LINE
  8
BASE
  6
CONTINUOUS
 10
-16.25
 20
0.0
 30
0.0
 11
-16.25
 21
-7.5
 31
0.0
  0
LINE
  8
BASE
  6
CONTINUOUS
 10
-16.25
 20
-7.5
 30
0.0
 11
-8.75
 21
-7.5
 31
0.0
  0
LINE
  8
BASE
  6
CONTINUOUS
 10
-13.75
 20
-2.5
 30
0.0
 11
-10.9375
 21
-2.5
 31
0.0
  0
LINE
  8
BASE
  6
CONTINUOUS
 10
-10.9375
 20
-2.5
 30
0.0
 11
-14.0625
 21
-2.5
 31
0.0
  0
LINE
  8
BASE
  6
CONTINUOUS
 10
-12.5
 20
-2.5
 30
0.0
 11
-12.5
 21
-1.25
 31
0.0
  0
LINE
  8
BASE
  6
CONTINUOUS
 10
-12.5
 20
-2.5
 30
0.0
 11
-14.375
 21
-5.0
 31
0.0
  0
LINE
  8
BASE
  6
CONTINUOUS
 10
-14.375
 20
-5.0
 30
0.0
 11
-10.625
 21
-5.0
 31
0.0
  0
LINE
  8
BASE
  6
CONTINUOUS
 10
-10.625
 20
-5.0
 30
0.0
 11
-12.5
 21
-2.5
 31
0.0
  0
LINE
  8
BASE
  6
CONTINUOUS
 10
-12.5
 20
-5.0
 30
0.0
 11
-12.5
 21
-6.25
 31
0.0
  0
LINE
  8
BASE
  6
CONTINUOUS
 10
-15.0
 20
0.0
 30
0.0
 11
-15.0
 21
3.125
 31
0.0
  0
LINE
  8
BASE
  6
CONTINUOUS
 10
-10.0
 20
0.0
 30
0.0
 11
-10.0
 21
3.125
 31
0.0
  0
LINE
  8
BASE
  6
CONTINUOUS
 10
-15.0
 20
-7.5
 30
0.0
 11
-15.0
 21
-25.0
 31
0.0
  0
LINE
  8
BASE
  6
CONTINUOUS
 10
-10.0
 20
-7.5
 30
0.0
 11
-10.0
 21
-25.0
 31
0.0
  0
LINE
  8
BASE
  6
CONTINUOUS
 10
-10.0
 20
3.125
 30
0.0
 11
-10.0
 21
7.5
 31
0.0
  0
LINE
  8
BASE
  6
CONTINUOUS
 10
-15.0
 20
5.0
 30
0.0
 11
-15.0
 21
3.125
 31
0.0
  0
LINE
  8
0
  6
DASHED
 10
-40.0
 20
-25.0
 30
0.0
 11
-40.0
 21
-33.75
 31
0.0
  0
LINE
  8
0
  6
DASHED
 10
-35.0
 20
-25.0
 30
0.0
 11
-35.0
 21
-33.75
 31
0.0
  0
LINE
  8
0
  6
DASHED
 10
-35.0
 20
-25.0
 30
0.0
 11
-35.0
 21
-33.75
 31
0.0
  0
LINE
  8
0
  6
DASHED
 10
-25.0
 20
-25.0
 30
0.0
 11
-25.0
 21
-33.75
 31
0.0
  0
TEXT
  8
BASE
  6
CONTINUOUS
 10
-6.689346
 20
-22.5
 30
0.0
 40
2.0
  1
24
 50
90.0
  7
GREEKS
  0
TEXT
  8
BASE
  6
CONTINUOUS
 10
-11.564398
 20
-22.5
 30
0.0
 40
2.0
  1
23
 50
90.0
  7
GREEKS
  0
TEXT
  8
BASE
  6
CONTINUOUS
 10
-21.679267
 20
-22.5
 30
0.0
 40
2.0
  1
22
 50
90.0
  7
GREEKS
  0
TEXT
  8
BASE
  6
CONTINUOUS
 10
-31.700122
 20
-22.5
 30
0.0
 40
2.0
  1
21
 50
90.0
  7
GREEKS
  0
TEXT
  8
BASE
  6
CONTINUOUS
 10
-36.523081
 20
-22.5
 30
0.0
 40
2.0
  1
20
 50
90.0
  7
GREEKS
  0
POLYLINE
  8
BASE
  6
CONTINUOUS
 66
     1
 10
0.0
 20
0.0
 30
0.0
 70
     1
 40
0.5
 41
0.5
  0
VERTEX
  8
BASE
  6
CONTINUOUS
 10
-23.0
 20
7.5
 30
0.0
 42
1.0
  0
VERTEX
  8
BASE
  6
CONTINUOUS
 10
-22.0
 20
7.5
 30
0.0
 42
1.0
  0
SEQEND
  8
BASE
  6
CONTINUOUS
  0
POLYLINE
  8
BASE
  6
CONTINUOUS
 66
     1
 10
0.0
 20
0.0
 30
0.0
 70
     1
 40
0.5
 41
0.5
  0
VERTEX
  8
BASE
  6
CONTINUOUS
 10
-28.0
 20
5.0
 30
0.0
 42
1.0
  0
VERTEX
  8
BASE
  6
CONTINUOUS
 10
-27.0
 20
5.0
 30
0.0
 42
1.0
  0
SEQEND
  8
BASE
  6
CONTINUOUS
  0
LINE
  8
BASE
  6
CONTINUOUS
 10
-40.0
 20
5.0
 30
0.0
 11
-40.0
 21
3.125
 31
0.0
  0
LINE
  8
BASE
  6
CONTINUOUS
 10
-15.0
 20
5.0
 30
0.0
 11
-40.0
 21
5.0
 31
0.0
  0
LINE
  8
BASE
  6
CONTINUOUS
 10
-35.0
 20
7.5
 30
0.0
 11
-10.0
 21
7.5
 31
0.0
  0
LINE
  8
BASE
  6
CONTINUOUS
 10
-35.0
 20
3.125
 30
0.0
 11
-35.0
 21
7.5
 31
0.0
  0
LINE
  8
BASE
  6
CONTINUOUS
 10
-35.0
 20
-7.5
 30
0.0
 11
-35.0
 21
-25.0
 31
0.0
  0
LINE
  8
BASE
  6
CONTINUOUS
 10
-40.0
 20
-7.5
 30
0.0
 11
-40.0
 21
-25.0
 31
0.0
  0
LINE
  8
BASE
  6
CONTINUOUS
 10
-35.0
 20
0.0
 30
0.0
 11
-35.0
 21
3.125
 31
0.0
  0
LINE
  8
BASE
  6
CONTINUOUS
 10
-40.0
 20
0.0
 30
0.0
 11
-40.0
 21
3.125
 31
0.0
  0
LINE
  8
BASE
  6
CONTINUOUS
 10
-37.5
 20
-5.0
 30
0.0
 11
-37.5
 21
-6.25
 31
0.0
  0
LINE
  8
BASE
  6
CONTINUOUS
 10
-35.625
 20
-5.0
 30
0.0
 11
-37.5
 21
-2.5
 31
0.0
  0
LINE
  8
BASE
  6
CONTINUOUS
 10
-39.375
 20
-5.0
 30
0.0
 11
-35.625
 21
-5.0
 31
0.0
  0
LINE
  8
BASE
  6
CONTINUOUS
 10
-37.5
 20
-2.5
 30
0.0
 11
-39.375
 21
-5.0
 31
0.0
  0
LINE
  8
BASE
  6
CONTINUOUS
 10
-37.5
 20
-2.5
 30
0.0
 11
-37.5
 21
-1.25
 31
0.0
  0
LINE
  8
BASE
  6
CONTINUOUS
 10
-35.9375
 20
-2.5
 30
0.0
 11
-39.0625
 21
-2.5
 31
0.0
  0
LINE
  8
BASE
  6
CONTINUOUS
 10
-38.75
 20
-2.5
 30
0.0
 11
-35.9375
 21
-2.5
 31
0.0
  0
LINE
  8
BASE
  6
CONTINUOUS
 10
-41.25
 20
-7.5
 30
0.0
 11
-33.75
 21
-7.5
 31
0.0
  0
LINE
  8
BASE
  6
CONTINUOUS
 10
-41.25
 20
0.0
 30
0.0
 11
-41.25
 21
-7.5
 31
0.0
  0
LINE
  8
BASE
  6
CONTINUOUS
 10
-33.75
 20
0.0
 30
0.0
 11
-41.25
 21
0.0
 31
0.0
  0
LINE
  8
BASE
  6
CONTINUOUS
 10
-33.75
 20
-7.5
 30
0.0
 11
-33.75
 21
0.0
 31
0.0
  0
LINE
  8
BASE
  6
CONTINUOUS
 10
-27.5
 20
19.752154
 30
0.0
 11
-27.5
 21
22.5
 31
0.0
  0
LINE
  8
BASE
 10
-50.025266
 20
25.79633
 30
0.0
 11
-47.025266
 21
25.79633
 31
0.0
  0
LINE
  8
BASE
 10
-46.535183
 20
24.072204
 30
0.0
 11
-53.528673
 21
24.072204
 31
0.0
  0
ARC
  8
BASE
 10
-22.360405
 20
11.869554
 30
0.0
 40
0.869227
 50
212.471192
 51
355.601295
  0
ARC
  8
BASE
 10
-23.827073
 20
10.936221
 30
0.0
 40
0.869227
 50
32.471192
 51
175.601295
  0
TEXT
  8
BASE
  6
CONTINUOUS
 10
-25.702914
 20
25.577719
 30
0.0
 40
2.0
  1
-
  0
TEXT
  8
BASE
  6
CONTINUOUS
 10
-23.133266
 20
25.55315
 30
0.0
 40
2.0
  1
+
  0
LINE
  8
BASE
 10
-29.704897
 20
19.752154
 30
0.0
 11
-20.380244
 21
19.752154
 31
0.0
  0
LINE
  8
BASE
 10
-20.380244
 20
19.752154
 30
0.0
 11
-20.380244
 21
10.429605
 31
0.0
  0
LINE
  8
BASE
 10
-20.380244
 20
10.429605
 30
0.0
 11
-29.704897
 21
10.429605
 31
0.0
  0
LINE
  8
BASE
 10
-29.704897
 20
10.429605
 30
0.0
 11
-29.704897
 21
19.752154
 31
0.0
  0
LINE
  8
BASE
 10
-28.720605
 20
10.429605
 30
0.0
 11
-20.380244
 21
18.767352
 31
0.0
  0
LINE
  8
BASE
 10
-29.704897
 20
11.386207
 30
0.0
 11
-21.341387
 21
19.752154
 31
0.0
  0
LINE
  8
BASE
 10
-28.790099
 20
17.674464
 30
0.0
 11
-24.790099
 21
17.674464
 31
0.0
  0
LINE
  8
BASE
 10
-25.033689
 20
12.72844
 30
0.0
 11
-21.033689
 21
12.72844
 31
0.0
  0
LINE
  8
BASE
  6
CONTINUOUS
 10
-25.0
 20
25.0
 30
0.0
 11
-25.0
 21
19.752154
 31
0.0
  0
LINE
  8
BASE
  6
CONTINUOUS
 10
-22.5
 20
25.0
 30
0.0
 11
-22.5
 21
19.752154
 31
0.0
  0
LINE
  8
BASE
  6
CONTINUOUS
 10
-27.5
 20
10.429605
 30
0.0
 11
-27.5
 21
5.0
 31
0.0
  0
LINE
  8
BASE
  6
CONTINUOUS
 10
-22.5
 20
10.429605
 30
0.0
 11
-22.5
 21
7.5
 31
0.0
  0
LINE
  8
BASE
  6
CONTINUOUS
 10
-50.0
 20
22.5
 30
0.0
 11
-27.5
 21
22.5
 31
0.0
  0
LINE
  8
BASE
  6
CONTINUOUS
 10
-50.0
 20
24.072204
 30
0.0
 11
-50.0
 21
22.5
 31
0.0
  0
INSERT
  8
BASE
  6
CONTINUOUS
  2
B101
 10
-25.0
 20
-25.0
 30
0.0
  0
LINE
  8
BASE
 10
-46.535183
 20
31.064116
 30
0.0
 11
-46.535183
 21
24.072204
 31
0.0
  0
LINE
  8
BASE
 10
-53.528673
 20
31.064116
 30
0.0
 11
-46.535183
 21
31.064116
 31
0.0
  0
LINE
  8
BASE
 10
-52.842574
 20
29.505848
 30
0.0
 11
-49.842574
 21
29.505848
 31
0.0
  0
LINE
  8
BASE
 10
-53.528673
 20
24.789655
 30
0.0
 11
-47.256041
 21
31.064116
 31
0.0
  0
LINE
  8
BASE
 10
-52.790453
 20
24.072204
 30
0.0
 11
-46.535183
 21
30.325514
 31
0.0
  0
LINE
  8
BASE
 10
-53.528673
 20
24.072204
 30
0.0
 11
-53.528673
 21
31.064116
 31
0.0
  0
ENDBLK
  8
0
  0
BLOCK
  8
0
  2
B155
 70
    64
 10
0.0
 20
0.0
 30
0.0
  3
B155
  0
LINE
  8
0
  6
CONTINUOUS
 10
0.0
 20
0.0
 30
0.0
 11
0.0
 21
-1.35427
 31
0.0
  0
LINE
  8
0
  6
CONTINUOUS
 10
-1.210228
 20
-1.35427
 30
0.0
 11
-0.015887
 21
-1.35427
 31
0.0
  0
LINE
  8
0
  6
CONTINUOUS
 10
-0.015887
 20
-1.35427
 30
0.0
 11
1.178454
 21
-1.35427
 31
0.0
  0
LINE
  8
0
  6
CONTINUOUS
 10
-0.831823
 20
-1.833881
 30
0.0
 11
0.752749
 21
-1.833881
 31
0.0
  0
LINE
  8
0
  6
CONTINUOUS
 10
-0.500718
 20
-2.322055
 30
0.0
 11
0.386169
 21
-2.322055
 31
0.0
  0
ENDBLK
  8
0
  0
BLOCK
  8
0
  2
B101
 70
    64
 10
0.0
 20
0.0
 30
0.0
  3
B101
  0
LINE
  8
BASE
  6
CONTINUOUS
 10
0.0
 20
15.0
 30
0.0
 11
0.0
 21
0.0
 31
0.0
  0
LINE
  8
BASE
  6
CONTINUOUS
 10
-5.0
 20
15.0
 30
0.0
 11
5.0
 21
15.0
 31
0.0
  0
LINE
  8
BASE
  6
CONTINUOUS
 10
5.0
 20
15.0
 30
0.0
 11
7.5
 21
17.5
 31
0.0
  0
LINE
  8
BASE
  6
CONTINUOUS
 10
0.0
 20
15.0
 30
0.0
 11
2.5
 21
17.5
 31
0.0
  0
LINE
  8
BASE
  6
CONTINUOUS
 10
-5.0
 20
15.0
 30
0.0
 11
-2.5
 21
17.5
 31
0.0
  0
ENDBLK
  8
0
  0
BLOCK
  8
0
  2
B1012
 70
     0
 10
0.0
 20
0.0
 30
0.0
  3
B1012
  0
TEXT
  8
BASE
  6
CONTINUOUS
 10
28.75
 20
-26.25
 30
0.0
 40
2.0
  1
W4
  7
GREEKS
  0
TEXT
  8
BASE
  6
CONTINUOUS
 10
16.25
 20
-18.75
 30
0.0
 40
2.0
  1
W3
  7
GREEKS
  0
TEXT
  8
BASE
  6
CONTINUOUS
 10
3.75
 20
-11.25
 30
0.0
 40
2.0
  1
W2
  7
GREEKS
  0
TEXT
  8
BASE
  6
CONTINUOUS
 10
-11.25
 20
-3.75
 30
0.0
 40
2.0
  1
W1
  7
GREEKS
  0
LINE
  8
BASE
  6
DASHED
 10
-2.5
 20
2.5
 30
0.0
 11
-2.5
 21
-1.399176
 31
0.0
  0
LINE
  8
BASE
  6
DASHED
 10
12.5
 20
2.5
 30
0.0
 11
12.5
 21
-8.899176
 31
0.0
  0
LINE
  8
BASE
  6
DASHED
 10
25.0
 20
2.5
 30
0.0
 11
25.0
 21
-16.399176
 31
0.0
  0
LINE
  8
BASE
  6
DASHED
 10
37.5
 20
2.5
 30
0.0
 11
37.5
 21
-23.899176
 31
0.0
  0
ARC
  8
BASE
  6
CONTINUOUS
 10
25.5
 20
-23.75
 30
0.0
 40
1.25
 50
270.0
 51
90.0
  0
ARC
  8
BASE
  6
CONTINUOUS
 10
13.0
 20
-18.75
 30
0.0
 40
1.25
 50
270.0
 51
90.0
  0
ARC
  8
BASE
  6
CONTINUOUS
 10
0.5
 20
-8.75
 30
0.0
 40
1.25
 50
270.0
 51
90.0
  0
ARC
  8
BASE
  6
CONTINUOUS
 10
-14.5
 20
-1.25
 30
0.0
 40
1.25
 50
270.0
 51
90.0
  0
POLYLINE
  8
BASE
  6
CONTINUOUS
 66
     1
 10
0.0
 20
0.0
 30
0.0
 70
     1
 40
0.5
 41
0.5
  0
VERTEX
  8
BASE
  6
CONTINUOUS
 10
24.5
 20
-25.0
 30
0.0
 42
1.0
  0
VERTEX
  8
BASE
  6
CONTINUOUS
 10
25.5
 20
-25.0
 30
0.0
 42
1.0
  0
SEQEND
  8
BASE
  6
CONTINUOUS
  0
POLYLINE
  8
BASE
  6
CONTINUOUS
 66
     1
 10
0.0
 20
0.0
 30
0.0
 70
     1
 40
0.5
 41
0.5
  0
VERTEX
  8
BASE
  6
CONTINUOUS
 10
12.0
 20
-17.5
 30
0.0
 42
1.0
  0
VERTEX
  8
BASE
  6
CONTINUOUS
 10
13.0
 20
-17.5
 30
0.0
 42
1.0
  0
SEQEND
  8
BASE
  6
CONTINUOUS
  0
POLYLINE
  8
BASE
  6
CONTINUOUS
 66
     1
 10
0.0
 20
0.0
 30
0.0
 70
     1
 40
0.5
 41
0.5
  0
VERTEX
  8
BASE
  6
CONTINUOUS
 10
-0.5
 20
-10.0
 30
0.0
 42
1.0
  0
VERTEX
  8
BASE
  6
CONTINUOUS
 10
0.5
 20
-10.0
 30
0.0
 42
1.0
  0
SEQEND
  8
BASE
  6
CONTINUOUS
  0
POLYLINE
  8
BASE
  6
CONTINUOUS
 66
     1
 10
0.0
 20
0.0
 30
0.0
 70
     1
 40
0.5
 41
0.5
  0
VERTEX
  8
BASE
  6
CONTINUOUS
 10
-15.5
 20
-2.5
 30
0.0
 42
1.0
  0
VERTEX
  8
BASE
  6
CONTINUOUS
 10
-14.5
 20
-2.5
 30
0.0
 42
1.0
  0
SEQEND
  8
BASE
  6
CONTINUOUS
  0
POLYLINE
  8
BASE
  6
CONTINUOUS
 66
     1
 10
0.0
 20
0.0
 30
0.0
 70
     1
 40
0.5
 41
0.5
  0
VERTEX
  8
BASE
  6
CONTINUOUS
 10
24.5
 20
-22.5
 30
0.0
 42
1.0
  0
VERTEX
  8
BASE
  6
CONTINUOUS
 10
25.5
 20
-22.5
 30
0.0
 42
1.0
  0
SEQEND
  8
BASE
  6
CONTINUOUS
  0
POLYLINE
  8
BASE
  6
CONTINUOUS
 66
     1
 10
0.0
 20
0.0
 30
0.0
 70
     1
 40
0.5
 41
0.5
  0
VERTEX
  8
BASE
  6
CONTINUOUS
 10
12.0
 20
-20.0
 30
0.0
 42
1.0
  0
VERTEX
  8
BASE
  6
CONTINUOUS
 10
13.0
 20
-20.0
 30
0.0
 42
1.0
  0
SEQEND
  8
BASE
  6
CONTINUOUS
  0
POLYLINE
  8
BASE
  6
CONTINUOUS
 66
     1
 10
0.0
 20
0.0
 30
0.0
 70
     1
 40
0.5
 41
0.5
  0
VERTEX
  8
BASE
  6
CONTINUOUS
 10
-0.5
 20
-7.5
 30
0.0
 42
1.0
  0
VERTEX
  8
BASE
  6
CONTINUOUS
 10
0.5
 20
-7.5
 30
0.0
 42
1.0
  0
SEQEND
  8
BASE
  6
CONTINUOUS
  0
POLYLINE
  8
BASE
  6
CONTINUOUS
 66
     1
 10
0.0
 20
0.0
 30
0.0
 70
     1
 40
0.5
 41
0.5
  0
VERTEX
  8
BASE
  6
CONTINUOUS
 10
-15.5
 20
0.0
 30
0.0
 42
1.0
  0
VERTEX
  8
BASE
  6
CONTINUOUS
 10
-14.5
 20
0.0
 30
0.0
 42
1.0
  0
SEQEND
  8
BASE
  6
CONTINUOUS
  0
CIRCLE
  8
BASE
  6
CONTINUOUS
 10
25.0
 20
-27.5
 30
0.0
 40
0.740939
  0
CIRCLE
  8
BASE
  6
CONTINUOUS
 10
12.5
 20
-15.0
 30
0.0
 40
0.740939
  0
CIRCLE
  8
BASE
  6
CONTINUOUS
 10
0.0
 20
-12.5
 30
0.0
 40
0.740939
  0
CIRCLE
  8
BASE
  6
CONTINUOUS
 10
-15.0
 20
-5.0
 30
0.0
 40
0.740939
  0
LINE
  8
BASE
  6
CONTINUOUS
 10
25.5
 20
-22.5
 30
0.0
 11
35.0
 21
-22.5
 31
0.0
  0
LINE
  8
BASE
  6
CONTINUOUS
 10
35.0
 20
-27.5
 30
0.0
 11
25.740939
 21
-27.5
 31
0.0
  0
CIRCLE
  8
BASE
  6
CONTINUOUS
 10
40.0
 20
-22.5
 30
0.0
 40
0.740939
  0
LINE
  8
BASE
  6
CONTINUOUS
 10
39.353436
 20
-22.861863
 30
0.0
 11
34.256076
 21
-25.714703
 31
0.0
  0
LINE
  8
BASE
  6
CONTINUOUS
 10
35.0
 20
-27.5
 30
0.0
 11
35.0
 21
-25.0
 31
0.0
  0
LINE
  8
BASE
  6
CONTINUOUS
 10
13.240939
 20
-15.0
 30
0.0
 11
22.5
 21
-15.0
 31
0.0
  0
LINE
  8
BASE
  6
CONTINUOUS
 10
22.5
 20
-20.0
 30
0.0
 11
13.240939
 21
-20.0
 31
0.0
  0
CIRCLE
  8
BASE
  6
CONTINUOUS
 10
27.5
 20
-15.0
 30
0.0
 40
0.740939
  0
LINE
  8
BASE
  6
CONTINUOUS
 10
26.853436
 20
-15.361863
 30
0.0
 11
21.756076
 21
-18.214703
 31
0.0
  0
LINE
  8
BASE
  6
CONTINUOUS
 10
22.5
 20
-20.0
 30
0.0
 11
22.5
 21
-17.5
 31
0.0
  0
LINE
  8
BASE
  6
CONTINUOUS
 10
0.5
 20
-7.5
 30
0.0
 11
10.0
 21
-7.5
 31
0.0
  0
LINE
  8
BASE
  6
CONTINUOUS
 10
10.0
 20
-12.5
 30
0.0
 11
0.740939
 21
-12.5
 31
0.0
  0
CIRCLE
  8
BASE
  6
CONTINUOUS
 10
15.0
 20
-7.5
 30
0.0
 40
0.740939
  0
LINE
  8
BASE
  6
CONTINUOUS
 10
14.353436
 20
-7.861863
 30
0.0
 11
9.256076
 21
-10.714703
 31
0.0
  0
LINE
  8
BASE
  6
CONTINUOUS
 10
10.0
 20
-12.5
 30
0.0
 11
10.0
 21
-10.0
 31
0.0
  0
CIRCLE
  8
BASE
  6
CONTINUOUS
 10
0.0
 20
0.0
 30
0.0
 40
0.740939
  0
LINE
  8
BASE
  6
CONTINUOUS
 10
-5.0
 20
-5.0
 30
0.0
 11
-5.0
 21
-2.5
 31
0.0
  0
LINE
  8
BASE
  6
CONTINUOUS
 10
-5.0
 20
-5.0
 30
0.0
 11
-14.259061
 21
-5.0
 31
0.0
  0
LINE
  8
BASE
  6
CONTINUOUS
 10
-0.646564
 20
-0.361863
 30
0.0
 11
-5.743924
 21
-3.214703
 31
0.0
  0
LINE
  8
BASE
  6
CONTINUOUS
 10
-14.5
 20
0.0
 30
0.0
 11
-5.0
 21
0.0
 31
0.0
  0
LINE
  8
BASE
  6
CONTINUOUS
 10
0.740939
 20
0.0
 30
0.0
 11
5.0
 21
0.0
 31
0.0
  0
ENDBLK
  8
0
  0
BLOCK
  8
0
  2
B1015
 70
     0
 10
0.0
 20
0.0
 30
0.0
  3
B1015
  0
TEXT
  8
BASE
  6
CONTINUOUS
 10
23.75
 20
-21.25
 30
0.0
 40
2.0
  1
SPA-BUS
  7
GREEKS
  0
TEXT
  8
0
  6
CONTINUOUS
 10
-40.0
 20
-23.333333
 30
0.0
 40
2.0
  1
IN/UTGÅNGSMODUL
  7
GREEKS
  0
TEXT
  8
0
  6
CONTINUOUS
 10
-40.0
 20
-20.0
 30
0.0
 40
2.0
  1
I/O-MODULE RX/TX
  7
GREEKS
  0
LINE
  8
0
  6
CONTINUOUS
 10
-7.5
 20
-36.5
 30
0.0
 11
-6.5
 21
-37.5
 31
0.0
  0
LINE
  8
0
  6
CONTINUOUS
 10
-7.5
 20
-9.5
 30
0.0
 11
-7.5
 21
-36.5
 31
0.0
  0
LINE
  8
0
  6
CONTINUOUS
 10
-7.5
 20
-9.5
 30
0.0
 11
-6.5
 21
-8.5
 31
0.0
  0
LINE
  8
0
  6
CONTINUOUS
 10
0.0
 20
-10.0
 30
0.0
 11
-5.0
 21
-10.0
 31
0.0
  0
LINE
  8
0
  6
CONTINUOUS
 10
0.0
 20
-15.0
 30
0.0
 11
-5.0
 21
-15.0
 31
0.0
  0
LINE
  8
0
  6
CONTINUOUS
 10
0.0
 20
-20.0
 30
0.0
 11
-5.0
 21
-20.0
 31
0.0
  0
LINE
  8
0
  6
CONTINUOUS
 10
0.0
 20
-25.0
 30
0.0
 11
-5.0
 21
-25.0
 31
0.0
  0
LINE
  8
0
  6
CONTINUOUS
 10
0.0
 20
-30.0
 30
0.0
 11
-5.0
 21
-30.0
 31
0.0
  0
LINE
  8
0
  6
CONTINUOUS
 10
0.0
 20
-35.0
 30
0.0
 11
-5.0
 21
-35.0
 31
0.0
  0
TEXT
  8
BASE
  6
CONTINUOUS
 10
2.5
 20
-33.174309
 30
0.0
 40
2.0
  1
14
  7
GREEKS
  0
TEXT
  8
BASE
  6
CONTINUOUS
 10
2.5
 20
-28.460949
 30
0.0
 40
2.0
  1
13
  7
GREEKS
  0
TEXT
  8
BASE
  6
CONTINUOUS
 10
2.5
 20
-23.185356
 30
0.0
 40
2.0
  1
3
  7
GREEKS
  0
TEXT
  8
BASE
  6
CONTINUOUS
 10
2.5
 20
-18.18449
 30
0.0
 40
2.0
  1
2
  7
GREEKS
  0
TEXT
  8
BASE
  6
CONTINUOUS
 10
2.5
 20
-13.190013
 30
0.0
 40
2.0
  1
1
  7
GREEKS
  0
TEXT
  8
BASE
  6
CONTINUOUS
 10
30.0
 20
-37.5
 30
0.0
 40
2.0
  1
1)
  7
GREEKS
  0
LINE
  8
BASE
  6
CONTINUOUS
 10
0.0
 20
-10.0
 30
0.0
 11
10.0
 21
-10.0
 31
0.0
  0
LINE
  8
BASE
  6
CONTINUOUS
 10
0.0
 20
-35.0
 30
0.0
 11
10.0
 21
-35.0
 31
0.0
  0
LINE
  8
BASE
  6
CONTINUOUS
 10
0.0
 20
-30.0
 30
0.0
 11
10.0
 21
-30.0
 31
0.0
  0
LINE
  8
BASE
  6
CONTINUOUS
 10
0.0
 20
-25.0
 30
0.0
 11
10.0
 21
-25.0
 31
0.0
  0
LINE
  8
BASE
  6
CONTINUOUS
 10
0.0
 20
-20.0
 30
0.0
 11
10.0
 21
-20.0
 31
0.0
  0
LINE
  8
BASE
  6
CONTINUOUS
 10
0.0
 20
-15.0
 30
0.0
 11
10.0
 21
-15.0
 31
0.0
  0
LINE
  8
BASE
  6
CONTINUOUS
 10
12.5
 20
-9.5
 30
0.0
 11
12.5
 21
-36.5
 31
0.0
  0
LINE
  8
BASE
  6
CONTINUOUS
 10
12.5
 20
-9.5
 30
0.0
 11
11.5
 21
-8.5
 31
0.0
  0
LINE
  8
BASE
  6
CONTINUOUS
 10
12.5
 20
-36.5
 30
0.0
 11
11.5
 21
-37.5
 31
0.0
  0
ENDBLK
  8
0
  0
BLOCK
  8
0
  2
B1007
 70
     0
 10
0.0
 20
0.0
 30
0.0
  3
B1007
  0
TEXT
  8
0
  6
DASHED
 10
1.965702
 20
-3.247423
 30
0.0
 40
2.0
  1
SACO 16D3
  7
ROMANS
  0
TEXT
  8
0
  6
DASHED
 10
8.111506
 20
1.279549
 30
0.0
 40
2.0
  1
28C
  7
ROMANS
  0
TEXT
  8
0
  6
CONTINUOUS
 10
23.75
 20
-8.75
 30
0.0
 40
2.0
  1
4S
  7
ROMANS
  0
LINE
  8
0
  6
CONTINUOUS
 10
-1.25
 20
-18.75
 30
0.0
 11
-1.25
 21
0.0
 31
0.0
  0
LINE
  8
0
  6
CONTINUOUS
 10
22.5
 20
-18.75
 30
0.0
 11
-1.25
 21
-18.75
 31
0.0
  0
LINE
  8
0
  6
CONTINUOUS
 10
22.5
 20
0.0
 30
0.0
 11
22.5
 21
-18.75
 31
0.0
  0
LINE
  8
0
  6
CONTINUOUS
 10
-1.25
 20
0.0
 30
0.0
 11
22.5
 21
0.0
 31
0.0
  0
ENDBLK
  8
0
  0
BLOCK
  8
0
  2
B100
 70
     0
 10
0.0
 20
0.0
 30
0.0
  3
B100
  0
LINE
  8
BASE
  6
CONTINUOUS
 10
0.0
 20
17.5
 30
0.0
 11
0.0
 21
0.0
 31
0.0
  0
LINE
  8
BASE
  6
CONTINUOUS
 10
5.0
 20
17.5
 30
0.0
 11
5.0
 21
0.0
 31
0.0
  0
INSERT
  8
BASE
  6
CONTINUOUS
  2
BLC38
 10
0.0
 20
20.0
 30
0.0
  0
ENDBLK
  8
0
  0
BLOCK
  8
0
  2
WKU130
 70
    64
 10
190.0
 20
250.0
 30
0.0
  3
WKU130
  0
ARC
  8
21
 10
191.083333
 20
249.916667
 30
0.0
 40
1.086534
 50
32.471192
 51
175.601295
  0
ARC
  8
21
 10
192.916667
 20
251.083333
 30
0.0
 40
1.086534
 50
212.471192
 51
355.601295
  0
ENDBLK
  8
0
  0
BLOCK
  8
0
  2
BLC38
 70
    64
 10
0.0
 20
0.0
 30
0.0
  3
BLC38
  0
LINE
  8
BASE
  6
CONTINUOUS
 10
5.0
 20
0.429605
 30
0.0
 11
5.0
 21
-2.5
 31
0.0
  0
LINE
  8
BASE
  6
CONTINUOUS
 10
0.0
 20
0.429605
 30
0.0
 11
0.0
 21
-2.5
 31
0.0
  0
LINE
  8
BASE
  6
CONTINUOUS
 10
5.0
 20
15.0
 30
0.0
 11
5.0
 21
9.752154
 31
0.0
  0
LINE
  8
BASE
  6
CONTINUOUS
 10
0.0
 20
15.0
 30
0.0
 11
0.0
 21
9.752154
 31
0.0
  0
INSERT
  8
HEL035
  2
WKU130
 10
2.806261
 20
1.002888
 30
0.0
 41
0.8
 42
0.8
 43
0.8
  0
LINE
  8
HEL035
 10
2.466311
 20
2.72844
 30
0.0
 11
6.466311
 21
2.72844
 31
0.0
  0
LINE
  8
HEL035
 10
-1.290099
 20
7.674464
 30
0.0
 11
2.709901
 21
7.674464
 31
0.0
  0
LINE
  8
MUO
 10
-2.204897
 20
1.386207
 30
0.0
 11
6.158613
 21
9.752154
 31
0.0
  0
LINE
  8
MUO
 10
-1.220605
 20
0.429605
 30
0.0
 11
7.119756
 21
8.767352
 31
0.0
  0
LINE
  8
MUO
 10
-2.204897
 20
0.429605
 30
0.0
 11
-2.204897
 21
9.752154
 31
0.0
  0
LINE
  8
MUO
 10
7.119756
 20
0.429605
 30
0.0
 11
-2.204897
 21
0.429605
 31
0.0
  0
LINE
  8
MUO
 10
7.119756
 20
9.752154
 30
0.0
 11
7.119756
 21
0.429605
 31
0.0
  0
LINE
  8
MUO
 10
-2.204897
 20
9.752154
 30
0.0
 11
7.119756
 21
9.752154
 31
0.0
  0
TEXT
  8
SWEDEN2
  6
CONTINUOUS
 10
-0.633266
 20
15.55315
 30
0.0
 40
2.0
  1
+
  0
TEXT
  8
SWEDEN2
  6
CONTINUOUS
 10
4.297086
 20
15.577719
 30
0.0
 40
2.0
  1
-
  0
ENDBLK
  8
0
  0
BLOCK
  8
0
  2
B82
 70
     0
 10
0.0
 20
0.0
 30
0.0
  3
B82
  0
LINE
  8
BASE1
  6
CONTINUOUS
 10
-10.0
 20
-7.5
 30
0.0
 11
-10.0
 21
-2.5
 31
0.0
  0
LINE
  8
BASE1
  6
CONTINUOUS
 10
2.5
 20
7.5
 30
0.0
 11
2.5
 21
12.5
 31
0.0
  0
TEXT
  8
BASE1
  6
CONTINUOUS
 10
-5.335934
 20
9.995896
 30
0.0
 40
2.0
  1
5
  0
TEXT
  8
BASE1
  6
CONTINUOUS
 10
-13.2346
 20
13.363562
 30
0.0
 40
2.0
  1
SGR
  0
LINE
  8
BASE1
  6
CONTINUOUS
 10
-5.0
 20
12.5
 30
0.0
 11
-5.0
 21
15.0
 31
0.0
  0
LINE
  8
BASE1
  6
CONTINUOUS
 10
-5.0
 20
7.5
 30
0.0
 11
-6.714086
 21
12.586297
 31
0.0
  0
LINE
  8
BASE1
  6
CONTINUOUS
 10
-5.0
 20
5.0
 30
0.0
 11
-5.0
 21
7.5
 31
0.0
  0
TEXT
  8
BASE1
  6
CONTINUOUS
 10
1.295492
 20
1.464455
 30
0.0
 40
2.5
  1
1
 11
1.295492
 21
0.631122
 31
0.0
 73
     1
  0
LINE
  8
BASE1
  6
CONTINUOUS
 10
-3.13837
 20
4.124549
 30
0.0
 11
-0.792604
 21
2.789195
 31
0.0
  0
LINE
  8
BASE1
  6
CONTINUOUS
 10
-3.146411
 20
0.799262
 30
0.0
 11
-0.762951
 21
1.987454
 31
0.0
  0
LINE
  8
BASE1
  6
CONTINUOUS
 10
-0.792604
 20
2.789195
 30
0.0
 11
-3.13837
 21
1.599276
 31
0.0
  0
LINE
  8
BASE1
  6
CONTINUOUS
 10
0.0
 20
0.0
 30
0.0
 11
0.0
 21
-2.5
 31
0.0
  0
LINE
  8
BASE1
  6
CONTINUOUS
 10
5.0
 20
5.0
 30
0.0
 11
5.0
 21
7.5
 31
0.0
  0
LINE
  8
BASE1
  6
CONTINUOUS
 10
2.5
 20
5.0
 30
0.0
 11
2.5
 21
7.5
 31
0.0
  0
LINE
  8
BASE1
  6
CONTINUOUS
 10
0.0
 20
-2.5
 30
0.0
 11
0.0
 21
-7.5
 31
0.0
  0
LINE
  8
BASE1
  6
CONTINUOUS
 10
0.0
 20
5.0
 30
0.0
 11
0.0
 21
13.652485
 31
0.0
  0
LINE
  8
BASE1
  6
CONTINUOUS
 10
7.5
 20
5.0
 30
0.0
 11
-7.5
 21
5.0
 31
0.0
  0
LINE
  8
BASE1
  6
CONTINUOUS
 10
7.5
 20
5.0
 30
0.0
 11
7.5
 21
0.0
 31
0.0
  0
LINE
  8
BASE1
  6
CONTINUOUS
 10
-2.5
 20
5.0
 30
0.0
 11
-2.5
 21
13.652485
 31
0.0
  0
LINE
  8
BASE1
  6
CONTINUOUS
 10
-7.5
 20
0.0
 30
0.0
 11
7.5
 21
0.0
 31
0.0
  0
LINE
  8
BASE1
  6
CONTINUOUS
 10
-7.5
 20
5.0
 30
0.0
 11
-7.5
 21
0.0
 31
0.0
  0
ENDBLK
  8
0
  0
BLOCK
  8
0
  2
B138
 70
     0
 10
0.0
 20
0.0
 30
0.0
  3
B138
  0
POLYLINE
  8
BASE1
  6
CONTINUOUS
 66
     1
 10
0.0
 20
0.0
 30
0.0
 70
     1
 40
0.25
 41
0.25
 71
     2
 72
   101
  0
VERTEX
  8
BASE1
  6
CONTINUOUS
 10
-0.375
 20
-25.0
 30
0.0
 42
1.0
  0
VERTEX
  8
BASE1
  6
CONTINUOUS
 10
0.375
 20
-25.0
 30
0.0
 42
1.0
  0
SEQEND
  8
BASE1
  6
CONTINUOUS
  0
TEXT
  8
BASE1
  6
CONTINUOUS
 10
-20.0
 20
-21.843985
 30
0.0
 40
1.5
  1
RESET
 11
-20.0
 21
-22.343985
 31
0.0
 73
     1
  0
TEXT
  8
BASE1
  6
CONTINUOUS
 10
-20.0
 20
-24.336249
 30
0.0
 40
1.5
  1
ÅTERSTÄLLNING
 11
-20.0
 21
-24.836249
 31
0.0
 73
     1
  0
LINE
  8
BASE1
  6
CONTINUOUS
 10
-15.0
 20
-37.5
 30
0.0
 11
-10.0
 21
-37.5
 31
0.0
  0
POLYLINE
  8
BASE1
  6
CONTINUOUS
 66
     1
 10
0.0
 20
0.0
 30
0.0
 70
    16
 71
     2
 72
   101
  0
VERTEX
  8
BASE1
  6
CONTINUOUS
 10
-12.478609
 20
-35.0
 30
0.0
 70
    64
  0
VERTEX
  8
BASE1
  6
CONTINUOUS
 10
-12.488609
 20
-34.97
 30
0.0
 70
    64
  0
VERTEX
  8
BASE1
  6
CONTINUOUS
 10
-12.498609
 20
-34.94
 30
0.0
 70
    64
  0
VERTEX
  8
BASE1
  6
CONTINUOUS
 10
-12.508609
 20
-34.91
 30
0.0
 70
    64
  0
VERTEX
  8
BASE1
  6
CONTINUOUS
 10
-12.518609
 20
-34.88
 30
0.0
 70
    64
  0
VERTEX
  8
BASE1
  6
CONTINUOUS
 10
-12.528609
 20
-34.85
 30
0.0
 70
    64
  0
VERTEX
  8
BASE1
  6
CONTINUOUS
 10
-12.538609
 20
-34.82
 30
0.0
 70
    64
  0
VERTEX
  8
BASE1
  6
CONTINUOUS
 10
-12.548609
 20
-34.79
 30
0.0
 70
    64
  0
VERTEX
  8
BASE1
  6
CONTINUOUS
 10
-12.558609
 20
-34.76
 30
0.0
 70
    64
  0
VERTEX
  8
BASE1
  6
CONTINUOUS
 10
-12.568609
 20
-34.73
 30
0.0
 70
    64
  0
VERTEX
  8
BASE1
  6
CONTINUOUS
 10
-12.578609
 20
-34.7
 30
0.0
 70
    64
  0
VERTEX
  8
BASE1
  6
CONTINUOUS
 10
-12.588609
 20
-34.67
 30
0.0
 70
    64
  0
VERTEX
  8
BASE1
  6
CONTINUOUS
 10
-12.598609
 20
-34.64
 30
0.0
 70
    64
  0
VERTEX
  8
BASE1
  6
CONTINUOUS
 10
-12.608609
 20
-34.61
 30
0.0
 70
    64
  0
VERTEX
  8
BASE1
  6
CONTINUOUS
 10
-12.618609
 20
-34.58
 30
0.0
 70
    64
  0
VERTEX
  8
BASE1
  6
CONTINUOUS
 10
-12.628609
 20
-34.55
 30
0.0
 70
    64
  0
VERTEX
  8
BASE1
  6
CONTINUOUS
 10
-12.638609
 20
-34.52
 30
0.0
 70
    64
  0
VERTEX
  8
BASE1
  6
CONTINUOUS
 10
-12.648609
 20
-34.49
 30
0.0
 70
    64
  0
VERTEX
  8
BASE1
  6
CONTINUOUS
 10
-12.658609
 20
-34.46
 30
0.0
 70
    64
  0
VERTEX
  8
BASE1
  6
CONTINUOUS
 10
-12.668609
 20
-34.43
 30
0.0
 70
    64
  0
VERTEX
  8
BASE1
  6
CONTINUOUS
 10
-12.678609
 20
-34.4
 30
0.0
 70
    64
  0
VERTEX
  8
BASE1
  6
CONTINUOUS
 10
-12.688609
 20
-34.37
 30
0.0
 70
    64
  0
VERTEX
  8
BASE1
  6
CONTINUOUS
 10
-12.698609
 20
-34.34
 30
0.0
 70
    64
  0
VERTEX
  8
BASE1
  6
CONTINUOUS
 10
-12.708609
 20
-34.31
 30
0.0
 70
    64
  0
VERTEX
  8
BASE1
  6
CONTINUOUS
 10
-12.718609
 20
-34.28
 30
0.0
 70
    64
  0
VERTEX
  8
BASE1
  6
CONTINUOUS
 10
-12.728609
 20
-34.25
 30
0.0
 70
    64
  0
VERTEX
  8
BASE1
  6
CONTINUOUS
 10
-12.738609
 20
-34.22
 30
0.0
 70
    64
  0
VERTEX
  8
BASE1
  6
CONTINUOUS
 10
-12.748609
 20
-34.19
 30
0.0
 70
    64
  0
VERTEX
  8
BASE1
  6
CONTINUOUS
 10
-12.758609
 20
-34.16
 30
0.0
 70
    64
  0
VERTEX
  8
BASE1
  6
CONTINUOUS
 10
-12.768609
 20
-34.13
 30
0.0
 70
    64
  0
VERTEX
  8
BASE1
  6
CONTINUOUS
 10
-12.778609
 20
-34.1
 30
0.0
 70
    64
  0
VERTEX
  8
BASE1
  6
CONTINUOUS
 10
-12.788609
 20
-34.07
 30
0.0
 70
    64
  0
VERTEX
  8
BASE1
  6
CONTINUOUS
 10
-12.798609
 20
-34.04
 30
0.0
 70
    64
  0
VERTEX
  8
BASE1
  6
CONTINUOUS
 10
-12.808609
 20
-34.01
 30
0.0
 70
    64
  0
VERTEX
  8
BASE1
  6
CONTINUOUS
 10
-12.818609
 20
-33.98
 30
0.0
 70
    64
  0
VERTEX
  8
BASE1
  6
CONTINUOUS
 10
-12.828609
 20
-33.95
 30
0.0
 70
    64
  0
VERTEX
  8
BASE1
  6
CONTINUOUS
 10
-12.838609
 20
-33.92
 30
0.0
 70
    64
  0
VERTEX
  8
BASE1
  6
CONTINUOUS
 10
-12.848609
 20
-33.89
 30
0.0
 70
    64
  0
VERTEX
  8
BASE1
  6
CONTINUOUS
 10
-12.858609
 20
-33.86
 30
0.0
 70
    64
  0
VERTEX
  8
BASE1
  6
CONTINUOUS
 10
-12.868609
 20
-33.83
 30
0.0
 70
    64
  0
VERTEX
  8
BASE1
  6
CONTINUOUS
 10
-12.878609
 20
-33.8
 30
0.0
 70
    64
  0
VERTEX
  8
BASE1
  6
CONTINUOUS
 10
-12.888609
 20
-33.77
 30
0.0
 70
    64
  0
VERTEX
  8
BASE1
  6
CONTINUOUS
 10
-12.898609
 20
-33.74
 30
0.0
 70
    64
  0
VERTEX
  8
BASE1
  6
CONTINUOUS
 10
-12.908609
 20
-33.71
 30
0.0
 70
    64
  0
VERTEX
  8
BASE1
  6
CONTINUOUS
 10
-12.918609
 20
-33.68
 30
0.0
 70
    64
  0
VERTEX
  8
BASE1
  6
CONTINUOUS
 10
-12.928609
 20
-33.65
 30
0.0
 70
    64
  0
VERTEX
  8
BASE1
  6
CONTINUOUS
 10
-12.938609
 20
-33.62
 30
0.0
 70
    64
  0
VERTEX
  8
BASE1
  6
CONTINUOUS
 10
-12.948609
 20
-33.59
 30
0.0
 70
    64
  0
VERTEX
  8
BASE1
  6
CONTINUOUS
 10
-12.958609
 20
-33.56
 30
0.0
 70
    64
  0
VERTEX
  8
BASE1
  6
CONTINUOUS
 10
-12.968609
 20
-33.53
 30
0.0
 70
    64
  0
VERTEX
  8
BASE1
  6
CONTINUOUS
 10
-12.978609
 20
-33.5
 30
0.0
 70
    64
  0
VERTEX
  8
BASE1
  6
CONTINUOUS
 10
-12.988609
 20
-33.47
 30
0.0
 70
    64
  0
VERTEX
  8
BASE1
  6
CONTINUOUS
 10
-12.998609
 20
-33.44
 30
0.0
 70
    64
  0
VERTEX
  8
BASE1
  6
CONTINUOUS
 10
-13.008609
 20
-33.41
 30
0.0
 70
    64
  0
VERTEX
  8
BASE1
  6
CONTINUOUS
 10
-13.018609
 20
-33.38
 30
0.0
 70
    64
  0
VERTEX
  8
BASE1
  6
CONTINUOUS
 10
-13.028609
 20
-33.35
 30
0.0
 70
    64
  0
VERTEX
  8
BASE1
  6
CONTINUOUS
 10
-13.038609
 20
-33.32
 30
0.0
 70
    64
  0
VERTEX
  8
BASE1
  6
CONTINUOUS
 10
-13.048609
 20
-33.29
 30
0.0
 70
    64
  0
VERTEX
  8
BASE1
  6
CONTINUOUS
 10
-13.058609
 20
-33.26
 30
0.0
 70
    64
  0
VERTEX
  8
BASE1
  6
CONTINUOUS
 10
-13.068609
 20
-33.23
 30
0.0
 70
    64
  0
VERTEX
  8
BASE1
  6
CONTINUOUS
 10
-13.078609
 20
-33.2
 30
0.0
 70
    64
  0
VERTEX
  8
BASE1
  6
CONTINUOUS
 10
-13.088609
 20
-33.17
 30
0.0
 70
    64
  0
VERTEX
  8
BASE1
  6
CONTINUOUS
 10
-13.098609
 20
-33.14
 30
0.0
 70
    64
  0
VERTEX
  8
BASE1
  6
CONTINUOUS
 10
-13.108609
 20
-33.11
 30
0.0
 70
    64
  0
VERTEX
  8
BASE1
  6
CONTINUOUS
 10
-13.118609
 20
-33.08
 30
0.0
 70
    64
  0
VERTEX
  8
BASE1
  6
CONTINUOUS
 10
-13.128609
 20
-33.05
 30
0.0
 70
    64
  0
VERTEX
  8
BASE1
  6
CONTINUOUS
 10
-13.138609
 20
-33.02
 30
0.0
 70
    64
  0
VERTEX
  8
BASE1
  6
CONTINUOUS
 10
-13.148609
 20
-32.99
 30
0.0
 70
    64
  0
VERTEX
  8
BASE1
  6
CONTINUOUS
 10
-13.158609
 20
-32.96
 30
0.0
 70
    64
  0
VERTEX
  8
BASE1
  6
CONTINUOUS
 10
-13.168609
 20
-32.93
 30
0.0
 70
    64
  0
VERTEX
  8
BASE1
  6
CONTINUOUS
 10
-13.178609
 20
-32.9
 30
0.0
 70
    64
  0
VERTEX
  8
BASE1
  6
CONTINUOUS
 10
-13.188609
 20
-32.87
 30
0.0
 70
    64
  0
VERTEX
  8
BASE1
  6
CONTINUOUS
 10
-13.198609
 20
-32.84
 30
0.0
 70
    64
  0
VERTEX
  8
BASE1
  6
CONTINUOUS
 10
-13.208609
 20
-32.81
 30
0.0
 70
    64
  0
VERTEX
  8
BASE1
  6
CONTINUOUS
 10
-13.218609
 20
-32.78
 30
0.0
 70
    64
  0
VERTEX
  8
BASE1
  6
CONTINUOUS
 10
-13.228609
 20
-32.75
 30
0.0
 70
    64
  0
VERTEX
  8
BASE1
  6
CONTINUOUS
 10
-13.238609
 20
-32.72
 30
0.0
 70
    64
  0
VERTEX
  8
BASE1
  6
CONTINUOUS
 10
-13.248609
 20
-32.69
 30
0.0
 70
    64
  0
VERTEX
  8
BASE1
  6
CONTINUOUS
 10
-13.258609
 20
-32.66
 30
0.0
 70
    64
  0
VERTEX
  8
BASE1
  6
CONTINUOUS
 10
-13.268609
 20
-32.63
 30
0.0
 70
    64
  0
VERTEX
  8
BASE1
  6
CONTINUOUS
 10
-13.278609
 20
-32.6
 30
0.0
 70
    64
  0
VERTEX
  8
BASE1
  6
CONTINUOUS
 10
-13.288609
 20
-32.57
 30
0.0
 70
    64
  0
VERTEX
  8
BASE1
  6
CONTINUOUS
 10
-13.298609
 20
-32.54
 30
0.0
 70
    64
  0
VERTEX
  8
BASE1
  6
CONTINUOUS
 10
-13.308609
 20
-32.51
 30
0.0
 70
    64
  0
VERTEX
  8
BASE1
  6
CONTINUOUS
 10
-13.318609
 20
-32.48
 30
0.0
 70
    64
  0
VERTEX
  8
BASE1
  6
CONTINUOUS
 10
-13.328609
 20
-32.45
 30
0.0
 70
    64
  0
VERTEX
  8
BASE1
  6
CONTINUOUS
 10
-13.338609
 20
-32.42
 30
0.0
 70
    64
  0
VERTEX
  8
BASE1
  6
CONTINUOUS
 10
-13.348609
 20
-32.39
 30
0.0
 70
    64
  0
VERTEX
  8
BASE1
  6
CONTINUOUS
 10
-13.358609
 20
-32.36
 30
0.0
 70
    64
  0
VERTEX
  8
BASE1
  6
CONTINUOUS
 10
-13.368609
 20
-32.33
 30
0.0
 70
    64
  0
VERTEX
  8
BASE1
  6
CONTINUOUS
 10
-13.378609
 20
-32.3
 30
0.0
 70
    64
  0
VERTEX
  8
BASE1
  6
CONTINUOUS
 10
-13.388609
 20
-32.27
 30
0.0
 70
    64
  0
VERTEX
  8
BASE1
  6
CONTINUOUS
 10
-13.398609
 20
-32.24
 30
0.0
 70
    64
  0
VERTEX
  8
BASE1
  6
CONTINUOUS
 10
-13.408609
 20
-32.21
 30
0.0
 70
    64
  0
VERTEX
  8
BASE1
  6
CONTINUOUS
 10
-13.418609
 20
-32.18
 30
0.0
 70
    64
  0
VERTEX
  8
BASE1
  6
CONTINUOUS
 10
-13.428609
 20
-32.15
 30
0.0
 70
    64
  0
VERTEX
  8
BASE1
  6
CONTINUOUS
 10
-13.438609
 20
-32.12
 30
0.0
 70
    64
  0
VERTEX
  8
BASE1
  6
CONTINUOUS
 10
-13.448609
 20
-32.09
 30
0.0
 70
    64
  0
VERTEX
  8
BASE1
  6
CONTINUOUS
 10
-13.458609
 20
-32.06
 30
0.0
 70
    64
  0
VERTEX
  8
BASE1
  6
CONTINUOUS
 10
-13.468609
 20
-32.03
 30
0.0
 70
    64
  0
VERTEX
  8
BASE1
  6
CONTINUOUS
 10
-13.478609
 20
-32.0
 30
0.0
 70
    64
  0
VERTEX
  8
BASE1
  6
CONTINUOUS
 10
-12.478609
 20
-35.0
 30
0.0
 70
    64
  0
VERTEX
  8
BASE1
  6
CONTINUOUS
 10
-12.468609
 20
-34.97
 30
0.0
 70
    64
  0
VERTEX
  8
BASE1
  6
CONTINUOUS
 10
-12.458609
 20
-34.94
 30
0.0
 70
    64
  0
VERTEX
  8
BASE1
  6
CONTINUOUS
 10
-12.448609
 20
-34.91
 30
0.0
 70
    64
  0
VERTEX
  8
BASE1
  6
CONTINUOUS
 10
-12.438609
 20
-34.88
 30
0.0
 70
    64
  0
VERTEX
  8
BASE1
  6
CONTINUOUS
 10
-12.428609
 20
-34.85
 30
0.0
 70
    64
  0
VERTEX
  8
BASE1
  6
CONTINUOUS
 10
-12.418609
 20
-34.82
 30
0.0
 70
    64
  0
VERTEX
  8
BASE1
  6
CONTINUOUS
 10
-12.408609
 20
-34.79
 30
0.0
 70
    64
  0
VERTEX
  8
BASE1
  6
CONTINUOUS
 10
-12.398609
 20
-34.76
 30
0.0
 70
    64
  0
VERTEX
  8
BASE1
  6
CONTINUOUS
 10
-12.388609
 20
-34.73
 30
0.0
 70
    64
  0
VERTEX
  8
BASE1
  6
CONTINUOUS
 10
-12.378609
 20
-34.7
 30
0.0
 70
    64
  0
VERTEX
  8
BASE1
  6
CONTINUOUS
 10
-12.368609
 20
-34.67
 30
0.0
 70
    64
  0
VERTEX
  8
BASE1
  6
CONTINUOUS
 10
-12.358609
 20
-34.64
 30
0.0
 70
    64
  0
VERTEX
  8
BASE1
  6
CONTINUOUS
 10
-12.348609
 20
-34.61
 30
0.0
 70
    64
  0
VERTEX
  8
BASE1
  6
CONTINUOUS
 10
-12.338609
 20
-34.58
 30
0.0
 70
    64
  0
VERTEX
  8
BASE1
  6
CONTINUOUS
 10
-12.328609
 20
-34.55
 30
0.0
 70
    64
  0
VERTEX
  8
BASE1
  6
CONTINUOUS
 10
-12.318609
 20
-34.52
 30
0.0
 70
    64
  0
VERTEX
  8
BASE1
  6
CONTINUOUS
 10
-12.308609
 20
-34.49
 30
0.0
 70
    64
  0
VERTEX
  8
BASE1
  6
CONTINUOUS
 10
-12.298609
 20
-34.46
 30
0.0
 70
    64
  0
VERTEX
  8
BASE1
  6
CONTINUOUS
 10
-12.288609
 20
-34.43
 30
0.0
 70
    64
  0
VERTEX
  8
BASE1
  6
CONTINUOUS
 10
-12.278609
 20
-34.4
 30
0.0
 70
    64
  0
VERTEX
  8
BASE1
  6
CONTINUOUS
 10
-12.268609
 20
-34.37
 30
0.0
 70
    64
  0
VERTEX
  8
BASE1
  6
CONTINUOUS
 10
-12.258609
 20
-34.34
 30
0.0
 70
    64
  0
VERTEX
  8
BASE1
  6
CONTINUOUS
 10
-12.248609
 20
-34.31
 30
0.0
 70
    64
  0
VERTEX
  8
BASE1
  6
CONTINUOUS
 10
-12.238609
 20
-34.28
 30
0.0
 70
    64
  0
VERTEX
  8
BASE1
  6
CONTINUOUS
 10
-12.228609
 20
-34.25
 30
0.0
 70
    64
  0
VERTEX
  8
BASE1
  6
CONTINUOUS
 10
-12.218609
 20
-34.22
 30
0.0
 70
    64
  0
VERTEX
  8
BASE1
  6
CONTINUOUS
 10
-12.208609
 20
-34.19
 30
0.0
 70
    64
  0
VERTEX
  8
BASE1
  6
CONTINUOUS
 10
-12.198609
 20
-34.16
 30
0.0
 70
    64
  0
VERTEX
  8
BASE1
  6
CONTINUOUS
 10
-12.188609
 20
-34.13
 30
0.0
 70
    64
  0
VERTEX
  8
BASE1
  6
CONTINUOUS
 10
-12.178609
 20
-34.1
 30
0.0
 70
    64
  0
VERTEX
  8
BASE1
  6
CONTINUOUS
 10
-12.168609
 20
-34.07
 30
0.0
 70
    64
  0
VERTEX
  8
BASE1
  6
CONTINUOUS
 10
-12.158609
 20
-34.04
 30
0.0
 70
    64
  0
VERTEX
  8
BASE1
  6
CONTINUOUS
 10
-12.148609
 20
-34.01
 30
0.0
 70
    64
  0
VERTEX
  8
BASE1
  6
CONTINUOUS
 10
-12.138609
 20
-33.98
 30
0.0
 70
    64
  0
VERTEX
  8
BASE1
  6
CONTINUOUS
 10
-12.128609
 20
-33.95
 30
0.0
 70
    64
  0
VERTEX
  8
BASE1
  6
CONTINUOUS
 10
-12.118609
 20
-33.92
 30
0.0
 70
    64
  0
VERTEX
  8
BASE1
  6
CONTINUOUS
 10
-12.108609
 20
-33.89
 30
0.0
 70
    64
  0
VERTEX
  8
BASE1
  6
CONTINUOUS
 10
-12.098609
 20
-33.86
 30
0.0
 70
    64
  0
VERTEX
  8
BASE1
  6
CONTINUOUS
 10
-12.088609
 20
-33.83
 30
0.0
 70
    64
  0
VERTEX
  8
BASE1
  6
CONTINUOUS
 10
-12.078609
 20
-33.8
 30
0.0
 70
    64
  0
VERTEX
  8
BASE1
  6
CONTINUOUS
 10
-12.068609
 20
-33.77
 30
0.0
 70
    64
  0
VERTEX
  8
BASE1
  6
CONTINUOUS
 10
-12.058609
 20
-33.74
 30
0.0
 70
    64
  0
VERTEX
  8
BASE1
  6
CONTINUOUS
 10
-12.048609
 20
-33.71
 30
0.0
 70
    64
  0
VERTEX
  8
BASE1
  6
CONTINUOUS
 10
-12.038609
 20
-33.68
 30
0.0
 70
    64
  0
VERTEX
  8
BASE1
  6
CONTINUOUS
 10
-12.028609
 20
-33.65
 30
0.0
 70
    64
  0
VERTEX
  8
BASE1
  6
CONTINUOUS
 10
-12.018609
 20
-33.62
 30
0.0
 70
    64
  0
VERTEX
  8
BASE1
  6
CONTINUOUS
 10
-12.008609
 20
-33.59
 30
0.0
 70
    64
  0
VERTEX
  8
BASE1
  6
CONTINUOUS
 10
-11.998609
 20
-33.56
 30
0.0
 70
    64
  0
VERTEX
  8
BASE1
  6
CONTINUOUS
 10
-11.988609
 20
-33.53
 30
0.0
 70
    64
  0
VERTEX
  8
BASE1
  6
CONTINUOUS
 10
-11.978609
 20
-33.5
 30
0.0
 70
    64
  0
VERTEX
  8
BASE1
  6
CONTINUOUS
 10
-11.968609
 20
-33.47
 30
0.0
 70
    64
  0
VERTEX
  8
BASE1
  6
CONTINUOUS
 10
-11.958609
 20
-33.44
 30
0.0
 70
    64
  0
VERTEX
  8
BASE1
  6
CONTINUOUS
 10
-11.948609
 20
-33.41
 30
0.0
 70
    64
  0
VERTEX
  8
BASE1
  6
CONTINUOUS
 10
-11.938609
 20
-33.38
 30
0.0
 70
    64
  0
VERTEX
  8
BASE1
  6
CONTINUOUS
 10
-11.928609
 20
-33.35
 30
0.0
 70
    64
  0
VERTEX
  8
BASE1
  6
CONTINUOUS
 10
-11.918609
 20
-33.32
 30
0.0
 70
    64
  0
VERTEX
  8
BASE1
  6
CONTINUOUS
 10
-11.908609
 20
-33.29
 30
0.0
 70
    64
  0
VERTEX
  8
BASE1
  6
CONTINUOUS
 10
-11.898609
 20
-33.26
 30
0.0
 70
    64
  0
VERTEX
  8
BASE1
  6
CONTINUOUS
 10
-11.888609
 20
-33.23
 30
0.0
 70
    64
  0
VERTEX
  8
BASE1
  6
CONTINUOUS
 10
-11.878609
 20
-33.2
 30
0.0
 70
    64
  0
VERTEX
  8
BASE1
  6
CONTINUOUS
 10
-11.868609
 20
-33.17
 30
0.0
 70
    64
  0
VERTEX
  8
BASE1
  6
CONTINUOUS
 10
-11.858609
 20
-33.14
 30
0.0
 70
    64
  0
VERTEX
  8
BASE1
  6
CONTINUOUS
 10
-11.848609
 20
-33.11
 30
0.0
 70
    64
  0
VERTEX
  8
BASE1
  6
CONTINUOUS
 10
-11.838609
 20
-33.08
 30
0.0
 70
    64
  0
VERTEX
  8
BASE1
  6
CONTINUOUS
 10
-11.828609
 20
-33.05
 30
0.0
 70
    64
  0
VERTEX
  8
BASE1
  6
CONTINUOUS
 10
-11.818609
 20
-33.02
 30
0.0
 70
    64
  0
VERTEX
  8
BASE1
  6
CONTINUOUS
 10
-11.808609
 20
-32.99
 30
0.0
 70
    64
  0
VERTEX
  8
BASE1
  6
CONTINUOUS
 10
-11.798609
 20
-32.96
 30
0.0
 70
    64
  0
VERTEX
  8
BASE1
  6
CONTINUOUS
 10
-11.788609
 20
-32.93
 30
0.0
 70
    64
  0
VERTEX
  8
BASE1
  6
CONTINUOUS
 10
-11.778609
 20
-32.9
 30
0.0
 70
    64
  0
VERTEX
  8
BASE1
  6
CONTINUOUS
 10
-11.768609
 20
-32.87
 30
0.0
 70
    64
  0
VERTEX
  8
BASE1
  6
CONTINUOUS
 10
-11.758609
 20
-32.84
 30
0.0
 70
    64
  0
VERTEX
  8
BASE1
  6
CONTINUOUS
 10
-11.748609
 20
-32.81
 30
0.0
 70
    64
  0
VERTEX
  8
BASE1
  6
CONTINUOUS
 10
-11.738609
 20
-32.78
 30
0.0
 70
    64
  0
VERTEX
  8
BASE1
  6
CONTINUOUS
 10
-11.728609
 20
-32.75
 30
0.0
 70
    64
  0
VERTEX
  8
BASE1
  6
CONTINUOUS
 10
-11.718609
 20
-32.72
 30
0.0
 70
    64
  0
VERTEX
  8
BASE1
  6
CONTINUOUS
 10
-11.708609
 20
-32.69
 30
0.0
 70
    64
  0
VERTEX
  8
BASE1
  6
CONTINUOUS
 10
-11.698609
 20
-32.66
 30
0.0
 70
    64
  0
VERTEX
  8
BASE1
  6
CONTINUOUS
 10
-11.688609
 20
-32.63
 30
0.0
 70
    64
  0
VERTEX
  8
BASE1
  6
CONTINUOUS
 10
-11.678609
 20
-32.6
 30
0.0
 70
    64
  0
VERTEX
  8
BASE1
  6
CONTINUOUS
 10
-11.668609
 20
-32.57
 30
0.0
 70
    64
  0
VERTEX
  8
BASE1
  6
CONTINUOUS
 10
-11.658609
 20
-32.54
 30
0.0
 70
    64
  0
VERTEX
  8
BASE1
  6
CONTINUOUS
 10
-11.648609
 20
-32.51
 30
0.0
 70
    64
  0
VERTEX
  8
BASE1
  6
CONTINUOUS
 10
-11.638609
 20
-32.48
 30
0.0
 70
    64
  0
VERTEX
  8
BASE1
  6
CONTINUOUS
 10
-11.628609
 20
-32.45
 30
0.0
 70
    64
  0
VERTEX
  8
BASE1
  6
CONTINUOUS
 10
-11.618609
 20
-32.42
 30
0.0
 70
    64
  0
VERTEX
  8
BASE1
  6
CONTINUOUS
 10
-11.608609
 20
-32.39
 30
0.0
 70
    64
  0
VERTEX
  8
BASE1
  6
CONTINUOUS
 10
-11.598609
 20
-32.36
 30
0.0
 70
    64
  0
VERTEX
  8
BASE1
  6
CONTINUOUS
 10
-11.588609
 20
-32.33
 30
0.0
 70
    64
  0
VERTEX
  8
BASE1
  6
CONTINUOUS
 10
-11.578609
 20
-32.3
 30
0.0
 70
    64
  0
VERTEX
  8
BASE1
  6
CONTINUOUS
 10
-11.568609
 20
-32.27
 30
0.0
 70
    64
  0
VERTEX
  8
BASE1
  6
CONTINUOUS
 10
-11.558609
 20
-32.24
 30
0.0
 70
    64
  0
VERTEX
  8
BASE1
  6
CONTINUOUS
 10
-11.548609
 20
-32.21
 30
0.0
 70
    64
  0
VERTEX
  8
BASE1
  6
CONTINUOUS
 10
-11.538609
 20
-32.18
 30
0.0
 70
    64
  0
VERTEX
  8
BASE1
  6
CONTINUOUS
 10
-11.528609
 20
-32.15
 30
0.0
 70
    64
  0
VERTEX
  8
BASE1
  6
CONTINUOUS
 10
-11.518609
 20
-32.12
 30
0.0
 70
    64
  0
VERTEX
  8
BASE1
  6
CONTINUOUS
 10
-11.508609
 20
-32.09
 30
0.0
 70
    64
  0
VERTEX
  8
BASE1
  6
CONTINUOUS
 10
-11.498609
 20
-32.06
 30
0.0
 70
    64
  0
VERTEX
  8
BASE1
  6
CONTINUOUS
 10
-11.488609
 20
-32.03
 30
0.0
 70
    64
  0
VERTEX
  8
BASE1
  6
CONTINUOUS
 10
-11.478609
 20
-32.0
 30
0.0
 70
    64
  0
SEQEND
  8
BASE1
  6
CONTINUOUS
  0
LINE
  8
BASE1
  6
CONTINUOUS
 10
-11.478609
 20
-32.0
 30
0.0
 11
-12.478609
 21
-35.0
 31
0.0
  0
LINE
  8
BASE1
  6
CONTINUOUS
 10
-13.478609
 20
-32.0
 30
0.0
 11
-11.478609
 21
-32.0
 31
0.0
  0
LINE
  8
BASE1
  6
CONTINUOUS
 10
-12.478609
 20
-35.0
 30
0.0
 11
-13.478609
 21
-32.0
 31
0.0
  0
LINE
  8
BASE1
  6
DASHED
 10
-12.5
 20
-27.5
 30
0.0
 11
-12.5
 21
-37.5
 31
0.0
  0
LINE
  8
BASE1
  6
CONTINUOUS
 10
-7.5
 20
-25.0
 30
0.0
 11
-15.0
 21
-27.5
 31
0.0
  0
LINE
  8
BASE1
  6
CONTINUOUS
 10
-15.0
 20
-25.0
 30
0.0
 11
-20.0
 21
-25.0
 31
0.0
  0
LINE
  8
BASE1
  6
CONTINUOUS
 10
0.0
 20
-25.0
 30
0.0
 11
-7.5
 21
-25.0
 31
0.0
  0
LINE
  8
BASE1
  6
CONTINUOUS
 10
0.0
 20
-45.0
 30
0.0
 11
0.0
 21
0.0
 31
0.0
  0
TEXT
  8
BASE1
  6
CENTER
 10
0.0
 20
-49.987973
 30
0.0
 40
2.5
  1
R S
 11
0.0
 21
-50.821306
 31
0.0
 73
     1
  0
LINE
  8
BASE1
  6
CONTINUOUS
 10
-2.5
 20
-45.0
 30
0.0
 11
10.0
 21
-45.0
 31
0.0
  0
LINE
  8
BASE1
  6
CONTINUOUS
 10
-2.5
 20
-52.5
 30
0.0
 11
-2.5
 21
-45.0
 31
0.0
  0
LINE
  8
BASE1
  6
CONTINUOUS
 10
10.0
 20
-52.5
 30
0.0
 11
-2.5
 21
-52.5
 31
0.0
  0
LINE
  8
BASE1
  6
CONTINUOUS
 10
10.0
 20
-45.0
 30
0.0
 11
10.0
 21
-52.5
 31
0.0
  0
POLYLINE
  8
BASE1
  6
CONTINUOUS
 66
     1
 10
0.0
 20
0.0
 30
0.0
 70
     1
 40
0.25
 41
0.25
  0
VERTEX
  8
BASE1
  6
CONTINUOUS
 10
-0.375
 20
0.0
 30
0.0
 42
1.0
  0
VERTEX
  8
BASE1
  6
CONTINUOUS
 10
0.375
 20
0.0
 30
0.0
 42
1.0
  0
SEQEND
  8
BASE1
  6
CONTINUOUS
  0
ENDBLK
  8
0
  0
BLOCK
  8
0
  2
B96
 70
     0
 10
0.0
 20
0.0
 30
0.0
  3
B96
  0
LINE
  8
0
  6
CONTINUOUS
 10
1.819436
 20
0.403461
 30
0.0
 11
1.819436
 21
-0.576539
 31
0.0
  0
LINE
  8
0
  6
CONTINUOUS
 10
1.819436
 20
-0.576539
 30
0.0
 11
5.249436
 21
-0.576539
 31
0.0
  0
LINE
  8
0
  6
CONTINUOUS
 10
5.249436
 20
-0.576539
 30
0.0
 11
5.249436
 21
0.403461
 31
0.0
  0
LINE
  8
0
  6
CONTINUOUS
 10
5.249436
 20
0.403461
 30
0.0
 11
1.819436
 21
0.403461
 31
0.0
  0
POLYLINE
  8
0
  6
CONTINUOUS
 66
     1
 10
0.0
 20
0.0
 30
0.0
 70
    16
 71
     2
 72
   251
  0
VERTEX
  8
0
  6
CONTINUOUS
 10
1.819436
 20
-0.576539
 30
0.0
 70
    64
  0
VERTEX
  8
0
  6
CONTINUOUS
 10
1.833156
 20
-0.576539
 30
0.0
 70
    64
  0
VERTEX
  8
0
  6
CONTINUOUS
 10
1.846876
 20
-0.576539
 30
0.0
 70
    64
  0
VERTEX
  8
0
  6
CONTINUOUS
 10
1.860596
 20
-0.576539
 30
0.0
 70
    64
  0
VERTEX
  8
0
  6
CONTINUOUS
 10
1.874316
 20
-0.576539
 30
0.0
 70
    64
  0
VERTEX
  8
0
  6
CONTINUOUS
 10
1.888036
 20
-0.576539
 30
0.0
 70
    64
  0
VERTEX
  8
0
  6
CONTINUOUS
 10
1.901756
 20
-0.576539
 30
0.0
 70
    64
  0
VERTEX
  8
0
  6
CONTINUOUS
 10
1.915476
 20
-0.576539
 30
0.0
 70
    64
  0
VERTEX
  8
0
  6
CONTINUOUS
 10
1.929196
 20
-0.576539
 30
0.0
 70
    64
  0
VERTEX
  8
0
  6
CONTINUOUS
 10
1.942916
 20
-0.576539
 30
0.0
 70
    64
  0
VERTEX
  8
0
  6
CONTINUOUS
 10
1.956636
 20
-0.576539
 30
0.0
 70
    64
  0
VERTEX
  8
0
  6
CONTINUOUS
 10
1.970356
 20
-0.576539
 30
0.0
 70
    64
  0
VERTEX
  8
0
  6
CONTINUOUS
 10
1.984076
 20
-0.576539
 30
0.0
 70
    64
  0
VERTEX
  8
0
  6
CONTINUOUS
 10
1.997796
 20
-0.576539
 30
0.0
 70
    64
  0
VERTEX
  8
0
  6
CONTINUOUS
 10
2.011516
 20
-0.576539
 30
0.0
 70
    64
  0
VERTEX
  8
0
  6
CONTINUOUS
 10
2.025236
 20
-0.576539
 30
0.0
 70
    64
  0
VERTEX
  8
0
  6
CONTINUOUS
 10
2.038956
 20
-0.576539
 30
0.0
 70
    64
  0
VERTEX
  8
0
  6
CONTINUOUS
 10
2.052676
 20
-0.576539
 30
0.0
 70
    64
  0
VERTEX
  8
0
  6
CONTINUOUS
 10
2.066396
 20
-0.576539
 30
0.0
 70
    64
  0
VERTEX
  8
0
  6
CONTINUOUS
 10
2.080116
 20
-0.576539
 30
0.0
 70
    64
  0
VERTEX
  8
0
  6
CONTINUOUS
 10
2.093836
 20
-0.576539
 30
0.0
 70
    64
  0
VERTEX
  8
0
  6
CONTINUOUS
 10
2.107556
 20
-0.576539
 30
0.0
 70
    64
  0
VERTEX
  8
0
  6
CONTINUOUS
 10
2.121276
 20
-0.576539
 30
0.0
 70
    64
  0
VERTEX
  8
0
  6
CONTINUOUS
 10
2.134996
 20
-0.576539
 30
0.0
 70
    64
  0
VERTEX
  8
0
  6
CONTINUOUS
 10
2.148716
 20
-0.576539
 30
0.0
 70
    64
  0
VERTEX
  8
0
  6
CONTINUOUS
 10
2.162436
 20
-0.576539
 30
0.0
 70
    64
  0
VERTEX
  8
0
  6
CONTINUOUS
 10
2.176156
 20
-0.576539
 30
0.0
 70
    64
  0
VERTEX
  8
0
  6
CONTINUOUS
 10
2.189876
 20
-0.576539
 30
0.0
 70
    64
  0
VERTEX
  8
0
  6
CONTINUOUS
 10
2.203596
 20
-0.576539
 30
0.0
 70
    64
  0
VERTEX
  8
0
  6
CONTINUOUS
 10
2.217316
 20
-0.576539
 30
0.0
 70
    64
  0
VERTEX
  8
0
  6
CONTINUOUS
 10
2.231036
 20
-0.576539
 30
0.0
 70
    64
  0
VERTEX
  8
0
  6
CONTINUOUS
 10
2.244756
 20
-0.576539
 30
0.0
 70
    64
  0
VERTEX
  8
0
  6
CONTINUOUS
 10
2.258476
 20
-0.576539
 30
0.0
 70
    64
  0
VERTEX
  8
0
  6
CONTINUOUS
 10
2.272196
 20
-0.576539
 30
0.0
 70
    64
  0
VERTEX
  8
0
  6
CONTINUOUS
 10
2.285916
 20
-0.576539
 30
0.0
 70
    64
  0
VERTEX
  8
0
  6
CONTINUOUS
 10
2.299636
 20
-0.576539
 30
0.0
 70
    64
  0
VERTEX
  8
0
  6
CONTINUOUS
 10
2.313356
 20
-0.576539
 30
0.0
 70
    64
  0
VERTEX
  8
0
  6
CONTINUOUS
 10
2.327076
 20
-0.576539
 30
0.0
 70
    64
  0
VERTEX
  8
0
  6
CONTINUOUS
 10
2.340796
 20
-0.576539
 30
0.0
 70
    64
  0
VERTEX
  8
0
  6
CONTINUOUS
 10
2.354516
 20
-0.576539
 30
0.0
 70
    64
  0
VERTEX
  8
0
  6
CONTINUOUS
 10
2.368236
 20
-0.576539
 30
0.0
 70
    64
  0
VERTEX
  8
0
  6
CONTINUOUS
 10
2.381956
 20
-0.576539
 30
0.0
 70
    64
  0
VERTEX
  8
0
  6
CONTINUOUS
 10
2.395676
 20
-0.576539
 30
0.0
 70
    64
  0
VERTEX
  8
0
  6
CONTINUOUS
 10
2.409396
 20
-0.576539
 30
0.0
 70
    64
  0
VERTEX
  8
0
  6
CONTINUOUS
 10
2.423116
 20
-0.576539
 30
0.0
 70
    64
  0
VERTEX
  8
0
  6
CONTINUOUS
 10
2.436836
 20
-0.576539
 30
0.0
 70
    64
  0
VERTEX
  8
0
  6
CONTINUOUS
 10
2.450556
 20
-0.576539
 30
0.0
 70
    64
  0
VERTEX
  8
0
  6
CONTINUOUS
 10
2.464276
 20
-0.576539
 30
0.0
 70
    64
  0
VERTEX
  8
0
  6
CONTINUOUS
 10
2.477996
 20
-0.576539
 30
0.0
 70
    64
  0
VERTEX
  8
0
  6
CONTINUOUS
 10
2.491716
 20
-0.576539
 30
0.0
 70
    64
  0
VERTEX
  8
0
  6
CONTINUOUS
 10
2.505436
 20
-0.576539
 30
0.0
 70
    64
  0
VERTEX
  8
0
  6
CONTINUOUS
 10
2.519156
 20
-0.576539
 30
0.0
 70
    64
  0
VERTEX
  8
0
  6
CONTINUOUS
 10
2.532876
 20
-0.576539
 30
0.0
 70
    64
  0
VERTEX
  8
0
  6
CONTINUOUS
 10
2.546596
 20
-0.576539
 30
0.0
 70
    64
  0
VERTEX
  8
0
  6
CONTINUOUS
 10
2.560316
 20
-0.576539
 30
0.0
 70
    64
  0
VERTEX
  8
0
  6
CONTINUOUS
 10
2.574036
 20
-0.576539
 30
0.0
 70
    64
  0
VERTEX
  8
0
  6
CONTINUOUS
 10
2.587756
 20
-0.576539
 30
0.0
 70
    64
  0
VERTEX
  8
0
  6
CONTINUOUS
 10
2.601476
 20
-0.576539
 30
0.0
 70
    64
  0
VERTEX
  8
0
  6
CONTINUOUS
 10
2.615196
 20
-0.576539
 30
0.0
 70
    64
  0
VERTEX
  8
0
  6
CONTINUOUS
 10
2.628916
 20
-0.576539
 30
0.0
 70
    64
  0
VERTEX
  8
0
  6
CONTINUOUS
 10
2.642636
 20
-0.576539
 30
0.0
 70
    64
  0
VERTEX
  8
0
  6
CONTINUOUS
 10
2.656356
 20
-0.576539
 30
0.0
 70
    64
  0
VERTEX
  8
0
  6
CONTINUOUS
 10
2.670076
 20
-0.576539
 30
0.0
 70
    64
  0
VERTEX
  8
0
  6
CONTINUOUS
 10
2.683796
 20
-0.576539
 30
0.0
 70
    64
  0
VERTEX
  8
0
  6
CONTINUOUS
 10
2.697516
 20
-0.576539
 30
0.0
 70
    64
  0
VERTEX
  8
0
  6
CONTINUOUS
 10
2.711236
 20
-0.576539
 30
0.0
 70
    64
  0
VERTEX
  8
0
  6
CONTINUOUS
 10
2.724956
 20
-0.576539
 30
0.0
 70
    64
  0
VERTEX
  8
0
  6
CONTINUOUS
 10
2.738676
 20
-0.576539
 30
0.0
 70
    64
  0
VERTEX
  8
0
  6
CONTINUOUS
 10
2.752396
 20
-0.576539
 30
0.0
 70
    64
  0
VERTEX
  8
0
  6
CONTINUOUS
 10
2.766116
 20
-0.576539
 30
0.0
 70
    64
  0
VERTEX
  8
0
  6
CONTINUOUS
 10
2.779836
 20
-0.576539
 30
0.0
 70
    64
  0
VERTEX
  8
0
  6
CONTINUOUS
 10
2.793556
 20
-0.576539
 30
0.0
 70
    64
  0
VERTEX
  8
0
  6
CONTINUOUS
 10
2.807276
 20
-0.576539
 30
0.0
 70
    64
  0
VERTEX
  8
0
  6
CONTINUOUS
 10
2.820996
 20
-0.576539
 30
0.0
 70
    64
  0
VERTEX
  8
0
  6
CONTINUOUS
 10
2.834716
 20
-0.576539
 30
0.0
 70
    64
  0
VERTEX
  8
0
  6
CONTINUOUS
 10
2.848436
 20
-0.576539
 30
0.0
 70
    64
  0
VERTEX
  8
0
  6
CONTINUOUS
 10
2.862156
 20
-0.576539
 30
0.0
 70
    64
  0
VERTEX
  8
0
  6
CONTINUOUS
 10
2.875876
 20
-0.576539
 30
0.0
 70
    64
  0
VERTEX
  8
0
  6
CONTINUOUS
 10
2.889596
 20
-0.576539
 30
0.0
 70
    64
  0
VERTEX
  8
0
  6
CONTINUOUS
 10
2.903316
 20
-0.576539
 30
0.0
 70
    64
  0
VERTEX
  8
0
  6
CONTINUOUS
 10
2.917036
 20
-0.576539
 30
0.0
 70
    64
  0
VERTEX
  8
0
  6
CONTINUOUS
 10
2.930756
 20
-0.576539
 30
0.0
 70
    64
  0
VERTEX
  8
0
  6
CONTINUOUS
 10
2.944476
 20
-0.576539
 30
0.0
 70
    64
  0
VERTEX
  8
0
  6
CONTINUOUS
 10
2.958196
 20
-0.576539
 30
0.0
 70
    64
  0
VERTEX
  8
0
  6
CONTINUOUS
 10
2.971916
 20
-0.576539
 30
0.0
 70
    64
  0
VERTEX
  8
0
  6
CONTINUOUS
 10
2.985636
 20
-0.576539
 30
0.0
 70
    64
  0
VERTEX
  8
0
  6
CONTINUOUS
 10
2.999356
 20
-0.576539
 30
0.0
 70
    64
  0
VERTEX
  8
0
  6
CONTINUOUS
 10
3.013076
 20
-0.576539
 30
0.0
 70
    64
  0
VERTEX
  8
0
  6
CONTINUOUS
 10
3.026796
 20
-0.576539
 30
0.0
 70
    64
  0
VERTEX
  8
0
  6
CONTINUOUS
 10
3.040516
 20
-0.576539
 30
0.0
 70
    64
  0
VERTEX
  8
0
  6
CONTINUOUS
 10
3.054236
 20
-0.576539
 30
0.0
 70
    64
  0
VERTEX
  8
0
  6
CONTINUOUS
 10
3.067956
 20
-0.576539
 30
0.0
 70
    64
  0
VERTEX
  8
0
  6
CONTINUOUS
 10
3.081676
 20
-0.576539
 30
0.0
 70
    64
  0
VERTEX
  8
0
  6
CONTINUOUS
 10
3.095396
 20
-0.576539
 30
0.0
 70
    64
  0
VERTEX
  8
0
  6
CONTINUOUS
 10
3.109116
 20
-0.576539
 30
0.0
 70
    64
  0
VERTEX
  8
0
  6
CONTINUOUS
 10
3.122836
 20
-0.576539
 30
0.0
 70
    64
  0
VERTEX
  8
0
  6
CONTINUOUS
 10
3.136556
 20
-0.576539
 30
0.0
 70
    64
  0
VERTEX
  8
0
  6
CONTINUOUS
 10
3.150276
 20
-0.576539
 30
0.0
 70
    64
  0
VERTEX
  8
0
  6
CONTINUOUS
 10
3.163996
 20
-0.576539
 30
0.0
 70
    64
  0
VERTEX
  8
0
  6
CONTINUOUS
 10
3.177716
 20
-0.576539
 30
0.0
 70
    64
  0
VERTEX
  8
0
  6
CONTINUOUS
 10
3.191436
 20
-0.576539
 30
0.0
 70
    64
  0
VERTEX
  8
0
  6
CONTINUOUS
 10
3.205156
 20
-0.576539
 30
0.0
 70
    64
  0
VERTEX
  8
0
  6
CONTINUOUS
 10
3.218876
 20
-0.576539
 30
0.0
 70
    64
  0
VERTEX
  8
0
  6
CONTINUOUS
 10
3.232596
 20
-0.576539
 30
0.0
 70
    64
  0
VERTEX
  8
0
  6
CONTINUOUS
 10
3.246316
 20
-0.576539
 30
0.0
 70
    64
  0
VERTEX
  8
0
  6
CONTINUOUS
 10
3.260036
 20
-0.576539
 30
0.0
 70
    64
  0
VERTEX
  8
0
  6
CONTINUOUS
 10
3.273756
 20
-0.576539
 30
0.0
 70
    64
  0
VERTEX
  8
0
  6
CONTINUOUS
 10
3.287476
 20
-0.576539
 30
0.0
 70
    64
  0
VERTEX
  8
0
  6
CONTINUOUS
 10
3.301196
 20
-0.576539
 30
0.0
 70
    64
  0
VERTEX
  8
0
  6
CONTINUOUS
 10
3.314916
 20
-0.576539
 30
0.0
 70
    64
  0
VERTEX
  8
0
  6
CONTINUOUS
 10
3.328636
 20
-0.576539
 30
0.0
 70
    64
  0
VERTEX
  8
0
  6
CONTINUOUS
 10
3.342356
 20
-0.576539
 30
0.0
 70
    64
  0
VERTEX
  8
0
  6
CONTINUOUS
 10
3.356076
 20
-0.576539
 30
0.0
 70
    64
  0
VERTEX
  8
0
  6
CONTINUOUS
 10
3.369796
 20
-0.576539
 30
0.0
 70
    64
  0
VERTEX
  8
0
  6
CONTINUOUS
 10
3.383516
 20
-0.576539
 30
0.0
 70
    64
  0
VERTEX
  8
0
  6
CONTINUOUS
 10
3.397236
 20
-0.576539
 30
0.0
 70
    64
  0
VERTEX
  8
0
  6
CONTINUOUS
 10
3.410956
 20
-0.576539
 30
0.0
 70
    64
  0
VERTEX
  8
0
  6
CONTINUOUS
 10
3.424676
 20
-0.576539
 30
0.0
 70
    64
  0
VERTEX
  8
0
  6
CONTINUOUS
 10
3.438396
 20
-0.576539
 30
0.0
 70
    64
  0
VERTEX
  8
0
  6
CONTINUOUS
 10
3.452116
 20
-0.576539
 30
0.0
 70
    64
  0
VERTEX
  8
0
  6
CONTINUOUS
 10
3.465836
 20
-0.576539
 30
0.0
 70
    64
  0
VERTEX
  8
0
  6
CONTINUOUS
 10
3.479556
 20
-0.576539
 30
0.0
 70
    64
  0
VERTEX
  8
0
  6
CONTINUOUS
 10
3.493276
 20
-0.576539
 30
0.0
 70
    64
  0
VERTEX
  8
0
  6
CONTINUOUS
 10
3.506996
 20
-0.576539
 30
0.0
 70
    64
  0
VERTEX
  8
0
  6
CONTINUOUS
 10
3.520716
 20
-0.576539
 30
0.0
 70
    64
  0
VERTEX
  8
0
  6
CONTINUOUS
 10
3.534436
 20
-0.576539
 30
0.0
 70
    64
  0
VERTEX
  8
0
  6
CONTINUOUS
 10
3.548156
 20
-0.576539
 30
0.0
 70
    64
  0
VERTEX
  8
0
  6
CONTINUOUS
 10
3.561876
 20
-0.576539
 30
0.0
 70
    64
  0
VERTEX
  8
0
  6
CONTINUOUS
 10
3.575596
 20
-0.576539
 30
0.0
 70
    64
  0
VERTEX
  8
0
  6
CONTINUOUS
 10
3.589316
 20
-0.576539
 30
0.0
 70
    64
  0
VERTEX
  8
0
  6
CONTINUOUS
 10
3.603036
 20
-0.576539
 30
0.0
 70
    64
  0
VERTEX
  8
0
  6
CONTINUOUS
 10
3.616756
 20
-0.576539
 30
0.0
 70
    64
  0
VERTEX
  8
0
  6
CONTINUOUS
 10
3.630476
 20
-0.576539
 30
0.0
 70
    64
  0
VERTEX
  8
0
  6
CONTINUOUS
 10
3.644196
 20
-0.576539
 30
0.0
 70
    64
  0
VERTEX
  8
0
  6
CONTINUOUS
 10
3.657916
 20
-0.576539
 30
0.0
 70
    64
  0
VERTEX
  8
0
  6
CONTINUOUS
 10
3.671636
 20
-0.576539
 30
0.0
 70
    64
  0
VERTEX
  8
0
  6
CONTINUOUS
 10
3.685356
 20
-0.576539
 30
0.0
 70
    64
  0
VERTEX
  8
0
  6
CONTINUOUS
 10
3.699076
 20
-0.576539
 30
0.0
 70
    64
  0
VERTEX
  8
0
  6
CONTINUOUS
 10
3.712796
 20
-0.576539
 30
0.0
 70
    64
  0
VERTEX
  8
0
  6
CONTINUOUS
 10
3.726516
 20
-0.576539
 30
0.0
 70
    64
  0
VERTEX
  8
0
  6
CONTINUOUS
 10
3.740236
 20
-0.576539
 30
0.0
 70
    64
  0
VERTEX
  8
0
  6
CONTINUOUS
 10
3.753956
 20
-0.576539
 30
0.0
 70
    64
  0
VERTEX
  8
0
  6
CONTINUOUS
 10
3.767676
 20
-0.576539
 30
0.0
 70
    64
  0
VERTEX
  8
0
  6
CONTINUOUS
 10
3.781396
 20
-0.576539
 30
0.0
 70
    64
  0
VERTEX
  8
0
  6
CONTINUOUS
 10
3.795116
 20
-0.576539
 30
0.0
 70
    64
  0
VERTEX
  8
0
  6
CONTINUOUS
 10
3.808836
 20
-0.576539
 30
0.0
 70
    64
  0
VERTEX
  8
0
  6
CONTINUOUS
 10
3.822556
 20
-0.576539
 30
0.0
 70
    64
  0
VERTEX
  8
0
  6
CONTINUOUS
 10
3.836276
 20
-0.576539
 30
0.0
 70
    64
  0
VERTEX
  8
0
  6
CONTINUOUS
 10
3.849996
 20
-0.576539
 30
0.0
 70
    64
  0
VERTEX
  8
0
  6
CONTINUOUS
 10
3.863716
 20
-0.576539
 30
0.0
 70
    64
  0
VERTEX
  8
0
  6
CONTINUOUS
 10
3.877436
 20
-0.576539
 30
0.0
 70
    64
  0
VERTEX
  8
0
  6
CONTINUOUS
 10
3.891156
 20
-0.576539
 30
0.0
 70
    64
  0
VERTEX
  8
0
  6
CONTINUOUS
 10
3.904876
 20
-0.576539
 30
0.0
 70
    64
  0
VERTEX
  8
0
  6
CONTINUOUS
 10
3.918596
 20
-0.576539
 30
0.0
 70
    64
  0
VERTEX
  8
0
  6
CONTINUOUS
 10
3.932316
 20
-0.576539
 30
0.0
 70
    64
  0
VERTEX
  8
0
  6
CONTINUOUS
 10
3.946036
 20
-0.576539
 30
0.0
 70
    64
  0
VERTEX
  8
0
  6
CONTINUOUS
 10
3.959756
 20
-0.576539
 30
0.0
 70
    64
  0
VERTEX
  8
0
  6
CONTINUOUS
 10
3.973476
 20
-0.576539
 30
0.0
 70
    64
  0
VERTEX
  8
0
  6
CONTINUOUS
 10
3.987196
 20
-0.576539
 30
0.0
 70
    64
  0
VERTEX
  8
0
  6
CONTINUOUS
 10
4.000916
 20
-0.576539
 30
0.0
 70
    64
  0
VERTEX
  8
0
  6
CONTINUOUS
 10
4.014636
 20
-0.576539
 30
0.0
 70
    64
  0
VERTEX
  8
0
  6
CONTINUOUS
 10
4.028356
 20
-0.576539
 30
0.0
 70
    64
  0
VERTEX
  8
0
  6
CONTINUOUS
 10
4.042076
 20
-0.576539
 30
0.0
 70
    64
  0
VERTEX
  8
0
  6
CONTINUOUS
 10
4.055796
 20
-0.576539
 30
0.0
 70
    64
  0
VERTEX
  8
0
  6
CONTINUOUS
 10
4.069516
 20
-0.576539
 30
0.0
 70
    64
  0
VERTEX
  8
0
  6
CONTINUOUS
 10
4.083236
 20
-0.576539
 30
0.0
 70
    64
  0
VERTEX
  8
0
  6
CONTINUOUS
 10
4.096956
 20
-0.576539
 30
0.0
 70
    64
  0
VERTEX
  8
0
  6
CONTINUOUS
 10
4.110676
 20
-0.576539
 30
0.0
 70
    64
  0
VERTEX
  8
0
  6
CONTINUOUS
 10
4.124396
 20
-0.576539
 30
0.0
 70
    64
  0
VERTEX
  8
0
  6
CONTINUOUS
 10
4.138116
 20
-0.576539
 30
0.0
 70
    64
  0
VERTEX
  8
0
  6
CONTINUOUS
 10
4.151836
 20
-0.576539
 30
0.0
 70
    64
  0
VERTEX
  8
0
  6
CONTINUOUS
 10
4.165556
 20
-0.576539
 30
0.0
 70
    64
  0
VERTEX
  8
0
  6
CONTINUOUS
 10
4.179276
 20
-0.576539
 30
0.0
 70
    64
  0
VERTEX
  8
0
  6
CONTINUOUS
 10
4.192996
 20
-0.576539
 30
0.0
 70
    64
  0
VERTEX
  8
0
  6
CONTINUOUS
 10
4.206716
 20
-0.576539
 30
0.0
 70
    64
  0
VERTEX
  8
0
  6
CONTINUOUS
 10
4.220436
 20
-0.576539
 30
0.0
 70
    64
  0
VERTEX
  8
0
  6
CONTINUOUS
 10
4.234156
 20
-0.576539
 30
0.0
 70
    64
  0
VERTEX
  8
0
  6
CONTINUOUS
 10
4.247876
 20
-0.576539
 30
0.0
 70
    64
  0
VERTEX
  8
0
  6
CONTINUOUS
 10
4.261596
 20
-0.576539
 30
0.0
 70
    64
  0
VERTEX
  8
0
  6
CONTINUOUS
 10
4.275316
 20
-0.576539
 30
0.0
 70
    64
  0
VERTEX
  8
0
  6
CONTINUOUS
 10
4.289036
 20
-0.576539
 30
0.0
 70
    64
  0
VERTEX
  8
0
  6
CONTINUOUS
 10
4.302756
 20
-0.576539
 30
0.0
 70
    64
  0
VERTEX
  8
0
  6
CONTINUOUS
 10
4.316476
 20
-0.576539
 30
0.0
 70
    64
  0
VERTEX
  8
0
  6
CONTINUOUS
 10
4.330196
 20
-0.576539
 30
0.0
 70
    64
  0
VERTEX
  8
0
  6
CONTINUOUS
 10
4.343916
 20
-0.576539
 30
0.0
 70
    64
  0
VERTEX
  8
0
  6
CONTINUOUS
 10
4.357636
 20
-0.576539
 30
0.0
 70
    64
  0
VERTEX
  8
0
  6
CONTINUOUS
 10
4.371356
 20
-0.576539
 30
0.0
 70
    64
  0
VERTEX
  8
0
  6
CONTINUOUS
 10
4.385076
 20
-0.576539
 30
0.0
 70
    64
  0
VERTEX
  8
0
  6
CONTINUOUS
 10
4.398796
 20
-0.576539
 30
0.0
 70
    64
  0
VERTEX
  8
0
  6
CONTINUOUS
 10
4.412516
 20
-0.576539
 30
0.0
 70
    64
  0
VERTEX
  8
0
  6
CONTINUOUS
 10
4.426236
 20
-0.576539
 30
0.0
 70
    64
  0
VERTEX
  8
0
  6
CONTINUOUS
 10
4.439956
 20
-0.576539
 30
0.0
 70
    64
  0
VERTEX
  8
0
  6
CONTINUOUS
 10
4.453676
 20
-0.576539
 30
0.0
 70
    64
  0
VERTEX
  8
0
  6
CONTINUOUS
 10
4.467396
 20
-0.576539
 30
0.0
 70
    64
  0
VERTEX
  8
0
  6
CONTINUOUS
 10
4.481116
 20
-0.576539
 30
0.0
 70
    64
  0
VERTEX
  8
0
  6
CONTINUOUS
 10
4.494836
 20
-0.576539
 30
0.0
 70
    64
  0
VERTEX
  8
0
  6
CONTINUOUS
 10
4.508556
 20
-0.576539
 30
0.0
 70
    64
  0
VERTEX
  8
0
  6
CONTINUOUS
 10
4.522276
 20
-0.576539
 30
0.0
 70
    64
  0
VERTEX
  8
0
  6
CONTINUOUS
 10
4.535996
 20
-0.576539
 30
0.0
 70
    64
  0
VERTEX
  8
0
  6
CONTINUOUS
 10
4.549716
 20
-0.576539
 30
0.0
 70
    64
  0
VERTEX
  8
0
  6
CONTINUOUS
 10
4.563436
 20
-0.576539
 30
0.0
 70
    64
  0
VERTEX
  8
0
  6
CONTINUOUS
 10
4.577156
 20
-0.576539
 30
0.0
 70
    64
  0
VERTEX
  8
0
  6
CONTINUOUS
 10
4.590876
 20
-0.576539
 30
0.0
 70
    64
  0
VERTEX
  8
0
  6
CONTINUOUS
 10
4.604596
 20
-0.576539
 30
0.0
 70
    64
  0
VERTEX
  8
0
  6
CONTINUOUS
 10
4.618316
 20
-0.576539
 30
0.0
 70
    64
  0
VERTEX
  8
0
  6
CONTINUOUS
 10
4.632036
 20
-0.576539
 30
0.0
 70
    64
  0
VERTEX
  8
0
  6
CONTINUOUS
 10
4.645756
 20
-0.576539
 30
0.0
 70
    64
  0
VERTEX
  8
0
  6
CONTINUOUS
 10
4.659476
 20
-0.576539
 30
0.0
 70
    64
  0
VERTEX
  8
0
  6
CONTINUOUS
 10
4.673196
 20
-0.576539
 30
0.0
 70
    64
  0
VERTEX
  8
0
  6
CONTINUOUS
 10
4.686916
 20
-0.576539
 30
0.0
 70
    64
  0
VERTEX
  8
0
  6
CONTINUOUS
 10
4.700636
 20
-0.576539
 30
0.0
 70
    64
  0
VERTEX
  8
0
  6
CONTINUOUS
 10
4.714356
 20
-0.576539
 30
0.0
 70
    64
  0
VERTEX
  8
0
  6
CONTINUOUS
 10
4.728076
 20
-0.576539
 30
0.0
 70
    64
  0
VERTEX
  8
0
  6
CONTINUOUS
 10
4.741796
 20
-0.576539
 30
0.0
 70
    64
  0
VERTEX
  8
0
  6
CONTINUOUS
 10
4.755516
 20
-0.576539
 30
0.0
 70
    64
  0
VERTEX
  8
0
  6
CONTINUOUS
 10
4.769236
 20
-0.576539
 30
0.0
 70
    64
  0
VERTEX
  8
0
  6
CONTINUOUS
 10
4.782956
 20
-0.576539
 30
0.0
 70
    64
  0
VERTEX
  8
0
  6
CONTINUOUS
 10
4.796676
 20
-0.576539
 30
0.0
 70
    64
  0
VERTEX
  8
0
  6
CONTINUOUS
 10
4.810396
 20
-0.576539
 30
0.0
 70
    64
  0
VERTEX
  8
0
  6
CONTINUOUS
 10
4.824116
 20
-0.576539
 30
0.0
 70
    64
  0
VERTEX
  8
0
  6
CONTINUOUS
 10
4.837836
 20
-0.576539
 30
0.0
 70
    64
  0
VERTEX
  8
0
  6
CONTINUOUS
 10
4.851556
 20
-0.576539
 30
0.0
 70
    64
  0
VERTEX
  8
0
  6
CONTINUOUS
 10
4.865276
 20
-0.576539
 30
0.0
 70
    64
  0
VERTEX
  8
0
  6
CONTINUOUS
 10
4.878996
 20
-0.576539
 30
0.0
 70
    64
  0
VERTEX
  8
0
  6
CONTINUOUS
 10
4.892716
 20
-0.576539
 30
0.0
 70
    64
  0
VERTEX
  8
0
  6
CONTINUOUS
 10
4.906436
 20
-0.576539
 30
0.0
 70
    64
  0
VERTEX
  8
0
  6
CONTINUOUS
 10
4.920156
 20
-0.576539
 30
0.0
 70
    64
  0
VERTEX
  8
0
  6
CONTINUOUS
 10
4.933876
 20
-0.576539
 30
0.0
 70
    64
  0
VERTEX
  8
0
  6
CONTINUOUS
 10
4.947596
 20
-0.576539
 30
0.0
 70
    64
  0
VERTEX
  8
0
  6
CONTINUOUS
 10
4.961316
 20
-0.576539
 30
0.0
 70
    64
  0
VERTEX
  8
0
  6
CONTINUOUS
 10
4.975036
 20
-0.576539
 30
0.0
 70
    64
  0
VERTEX
  8
0
  6
CONTINUOUS
 10
4.988756
 20
-0.576539
 30
0.0
 70
    64
  0
VERTEX
  8
0
  6
CONTINUOUS
 10
5.002476
 20
-0.576539
 30
0.0
 70
    64
  0
VERTEX
  8
0
  6
CONTINUOUS
 10
5.016196
 20
-0.576539
 30
0.0
 70
    64
  0
VERTEX
  8
0
  6
CONTINUOUS
 10
5.029916
 20
-0.576539
 30
0.0
 70
    64
  0
VERTEX
  8
0
  6
CONTINUOUS
 10
5.043636
 20
-0.576539
 30
0.0
 70
    64
  0
VERTEX
  8
0
  6
CONTINUOUS
 10
5.057356
 20
-0.576539
 30
0.0
 70
    64
  0
VERTEX
  8
0
  6
CONTINUOUS
 10
5.071076
 20
-0.576539
 30
0.0
 70
    64
  0
VERTEX
  8
0
  6
CONTINUOUS
 10
5.084796
 20
-0.576539
 30
0.0
 70
    64
  0
VERTEX
  8
0
  6
CONTINUOUS
 10
5.098516
 20
-0.576539
 30
0.0
 70
    64
  0
VERTEX
  8
0
  6
CONTINUOUS
 10
5.112236
 20
-0.576539
 30
0.0
 70
    64
  0
VERTEX
  8
0
  6
CONTINUOUS
 10
5.125956
 20
-0.576539
 30
0.0
 70
    64
  0
VERTEX
  8
0
  6
CONTINUOUS
 10
5.139676
 20
-0.576539
 30
0.0
 70
    64
  0
VERTEX
  8
0
  6
CONTINUOUS
 10
5.153396
 20
-0.576539
 30
0.0
 70
    64
  0
VERTEX
  8
0
  6
CONTINUOUS
 10
5.167116
 20
-0.576539
 30
0.0
 70
    64
  0
VERTEX
  8
0
  6
CONTINUOUS
 10
5.180836
 20
-0.576539
 30
0.0
 70
    64
  0
VERTEX
  8
0
  6
CONTINUOUS
 10
5.194556
 20
-0.576539
 30
0.0
 70
    64
  0
VERTEX
  8
0
  6
CONTINUOUS
 10
5.208276
 20
-0.576539
 30
0.0
 70
    64
  0
VERTEX
  8
0
  6
CONTINUOUS
 10
5.221996
 20
-0.576539
 30
0.0
 70
    64
  0
VERTEX
  8
0
  6
CONTINUOUS
 10
5.235716
 20
-0.576539
 30
0.0
 70
    64
  0
VERTEX
  8
0
  6
CONTINUOUS
 10
5.249436
 20
-0.576539
 30
0.0
 70
    64
  0
VERTEX
  8
0
  6
CONTINUOUS
 10
1.819436
 20
0.403461
 30
0.0
 70
    64
  0
VERTEX
  8
0
  6
CONTINUOUS
 10
1.833156
 20
0.403461
 30
0.0
 70
    64
  0
VERTEX
  8
0
  6
CONTINUOUS
 10
1.846876
 20
0.403461
 30
0.0
 70
    64
  0
VERTEX
  8
0
  6
CONTINUOUS
 10
1.860596
 20
0.403461
 30
0.0
 70
    64
  0
VERTEX
  8
0
  6
CONTINUOUS
 10
1.874316
 20
0.403461
 30
0.0
 70
    64
  0
VERTEX
  8
0
  6
CONTINUOUS
 10
1.888036
 20
0.403461
 30
0.0
 70
    64
  0
VERTEX
  8
0
  6
CONTINUOUS
 10
1.901756
 20
0.403461
 30
0.0
 70
    64
  0
VERTEX
  8
0
  6
CONTINUOUS
 10
1.915476
 20
0.403461
 30
0.0
 70
    64
  0
VERTEX
  8
0
  6
CONTINUOUS
 10
1.929196
 20
0.403461
 30
0.0
 70
    64
  0
VERTEX
  8
0
  6
CONTINUOUS
 10
1.942916
 20
0.403461
 30
0.0
 70
    64
  0
VERTEX
  8
0
  6
CONTINUOUS
 10
1.956636
 20
0.403461
 30
0.0
 70
    64
  0
VERTEX
  8
0
  6
CONTINUOUS
 10
1.970356
 20
0.403461
 30
0.0
 70
    64
  0
VERTEX
  8
0
  6
CONTINUOUS
 10
1.984076
 20
0.403461
 30
0.0
 70
    64
  0
VERTEX
  8
0
  6
CONTINUOUS
 10
1.997796
 20
0.403461
 30
0.0
 70
    64
  0
VERTEX
  8
0
  6
CONTINUOUS
 10
2.011516
 20
0.403461
 30
0.0
 70
    64
  0
VERTEX
  8
0
  6
CONTINUOUS
 10
2.025236
 20
0.403461
 30
0.0
 70
    64
  0
VERTEX
  8
0
  6
CONTINUOUS
 10
2.038956
 20
0.403461
 30
0.0
 70
    64
  0
VERTEX
  8
0
  6
CONTINUOUS
 10
2.052676
 20
0.403461
 30
0.0
 70
    64
  0
VERTEX
  8
0
  6
CONTINUOUS
 10
2.066396
 20
0.403461
 30
0.0
 70
    64
  0
VERTEX
  8
0
  6
CONTINUOUS
 10
2.080116
 20
0.403461
 30
0.0
 70
    64
  0
VERTEX
  8
0
  6
CONTINUOUS
 10
2.093836
 20
0.403461
 30
0.0
 70
    64
  0
VERTEX
  8
0
  6
CONTINUOUS
 10
2.107556
 20
0.403461
 30
0.0
 70
    64
  0
VERTEX
  8
0
  6
CONTINUOUS
 10
2.121276
 20
0.403461
 30
0.0
 70
    64
  0
VERTEX
  8
0
  6
CONTINUOUS
 10
2.134996
 20
0.403461
 30
0.0
 70
    64
  0
VERTEX
  8
0
  6
CONTINUOUS
 10
2.148716
 20
0.403461
 30
0.0
 70
    64
  0
VERTEX
  8
0
  6
CONTINUOUS
 10
2.162436
 20
0.403461
 30
0.0
 70
    64
  0
VERTEX
  8
0
  6
CONTINUOUS
 10
2.176156
 20
0.403461
 30
0.0
 70
    64
  0
VERTEX
  8
0
  6
CONTINUOUS
 10
2.189876
 20
0.403461
 30
0.0
 70
    64
  0
VERTEX
  8
0
  6
CONTINUOUS
 10
2.203596
 20
0.403461
 30
0.0
 70
    64
  0
VERTEX
  8
0
  6
CONTINUOUS
 10
2.217316
 20
0.403461
 30
0.0
 70
    64
  0
VERTEX
  8
0
  6
CONTINUOUS
 10
2.231036
 20
0.403461
 30
0.0
 70
    64
  0
VERTEX
  8
0
  6
CONTINUOUS
 10
2.244756
 20
0.403461
 30
0.0
 70
    64
  0
VERTEX
  8
0
  6
CONTINUOUS
 10
2.258476
 20
0.403461
 30
0.0
 70
    64
  0
VERTEX
  8
0
  6
CONTINUOUS
 10
2.272196
 20
0.403461
 30
0.0
 70
    64
  0
VERTEX
  8
0
  6
CONTINUOUS
 10
2.285916
 20
0.403461
 30
0.0
 70
    64
  0
VERTEX
  8
0
  6
CONTINUOUS
 10
2.299636
 20
0.403461
 30
0.0
 70
    64
  0
VERTEX
  8
0
  6
CONTINUOUS
 10
2.313356
 20
0.403461
 30
0.0
 70
    64
  0
VERTEX
  8
0
  6
CONTINUOUS
 10
2.327076
 20
0.403461
 30
0.0
 70
    64
  0
VERTEX
  8
0
  6
CONTINUOUS
 10
2.340796
 20
0.403461
 30
0.0
 70
    64
  0
VERTEX
  8
0
  6
CONTINUOUS
 10
2.354516
 20
0.403461
 30
0.0
 70
    64
  0
VERTEX
  8
0
  6
CONTINUOUS
 10
2.368236
 20
0.403461
 30
0.0
 70
    64
  0
VERTEX
  8
0
  6
CONTINUOUS
 10
2.381956
 20
0.403461
 30
0.0
 70
    64
  0
VERTEX
  8
0
  6
CONTINUOUS
 10
2.395676
 20
0.403461
 30
0.0
 70
    64
  0
VERTEX
  8
0
  6
CONTINUOUS
 10
2.409396
 20
0.403461
 30
0.0
 70
    64
  0
VERTEX
  8
0
  6
CONTINUOUS
 10
2.423116
 20
0.403461
 30
0.0
 70
    64
  0
VERTEX
  8
0
  6
CONTINUOUS
 10
2.436836
 20
0.403461
 30
0.0
 70
    64
  0
VERTEX
  8
0
  6
CONTINUOUS
 10
2.450556
 20
0.403461
 30
0.0
 70
    64
  0
VERTEX
  8
0
  6
CONTINUOUS
 10
2.464276
 20
0.403461
 30
0.0
 70
    64
  0
VERTEX
  8
0
  6
CONTINUOUS
 10
2.477996
 20
0.403461
 30
0.0
 70
    64
  0
VERTEX
  8
0
  6
CONTINUOUS
 10
2.491716
 20
0.403461
 30
0.0
 70
    64
  0
VERTEX
  8
0
  6
CONTINUOUS
 10
2.505436
 20
0.403461
 30
0.0
 70
    64
  0
VERTEX
  8
0
  6
CONTINUOUS
 10
2.519156
 20
0.403461
 30
0.0
 70
    64
  0
VERTEX
  8
0
  6
CONTINUOUS
 10
2.532876
 20
0.403461
 30
0.0
 70
    64
  0
VERTEX
  8
0
  6
CONTINUOUS
 10
2.546596
 20
0.403461
 30
0.0
 70
    64
  0
VERTEX
  8
0
  6
CONTINUOUS
 10
2.560316
 20
0.403461
 30
0.0
 70
    64
  0
VERTEX
  8
0
  6
CONTINUOUS
 10
2.574036
 20
0.403461
 30
0.0
 70
    64
  0
VERTEX
  8
0
  6
CONTINUOUS
 10
2.587756
 20
0.403461
 30
0.0
 70
    64
  0
VERTEX
  8
0
  6
CONTINUOUS
 10
2.601476
 20
0.403461
 30
0.0
 70
    64
  0
VERTEX
  8
0
  6
CONTINUOUS
 10
2.615196
 20
0.403461
 30
0.0
 70
    64
  0
VERTEX
  8
0
  6
CONTINUOUS
 10
2.628916
 20
0.403461
 30
0.0
 70
    64
  0
VERTEX
  8
0
  6
CONTINUOUS
 10
2.642636
 20
0.403461
 30
0.0
 70
    64
  0
VERTEX
  8
0
  6
CONTINUOUS
 10
2.656356
 20
0.403461
 30
0.0
 70
    64
  0
VERTEX
  8
0
  6
CONTINUOUS
 10
2.670076
 20
0.403461
 30
0.0
 70
    64
  0
VERTEX
  8
0
  6
CONTINUOUS
 10
2.683796
 20
0.403461
 30
0.0
 70
    64
  0
VERTEX
  8
0
  6
CONTINUOUS
 10
2.697516
 20
0.403461
 30
0.0
 70
    64
  0
VERTEX
  8
0
  6
CONTINUOUS
 10
2.711236
 20
0.403461
 30
0.0
 70
    64
  0
VERTEX
  8
0
  6
CONTINUOUS
 10
2.724956
 20
0.403461
 30
0.0
 70
    64
  0
VERTEX
  8
0
  6
CONTINUOUS
 10
2.738676
 20
0.403461
 30
0.0
 70
    64
  0
VERTEX
  8
0
  6
CONTINUOUS
 10
2.752396
 20
0.403461
 30
0.0
 70
    64
  0
VERTEX
  8
0
  6
CONTINUOUS
 10
2.766116
 20
0.403461
 30
0.0
 70
    64
  0
VERTEX
  8
0
  6
CONTINUOUS
 10
2.779836
 20
0.403461
 30
0.0
 70
    64
  0
VERTEX
  8
0
  6
CONTINUOUS
 10
2.793556
 20
0.403461
 30
0.0
 70
    64
  0
VERTEX
  8
0
  6
CONTINUOUS
 10
2.807276
 20
0.403461
 30
0.0
 70
    64
  0
VERTEX
  8
0
  6
CONTINUOUS
 10
2.820996
 20
0.403461
 30
0.0
 70
    64
  0
VERTEX
  8
0
  6
CONTINUOUS
 10
2.834716
 20
0.403461
 30
0.0
 70
    64
  0
VERTEX
  8
0
  6
CONTINUOUS
 10
2.848436
 20
0.403461
 30
0.0
 70
    64
  0
VERTEX
  8
0
  6
CONTINUOUS
 10
2.862156
 20
0.403461
 30
0.0
 70
    64
  0
VERTEX
  8
0
  6
CONTINUOUS
 10
2.875876
 20
0.403461
 30
0.0
 70
    64
  0
VERTEX
  8
0
  6
CONTINUOUS
 10
2.889596
 20
0.403461
 30
0.0
 70
    64
  0
VERTEX
  8
0
  6
CONTINUOUS
 10
2.903316
 20
0.403461
 30
0.0
 70
    64
  0
VERTEX
  8
0
  6
CONTINUOUS
 10
2.917036
 20
0.403461
 30
0.0
 70
    64
  0
VERTEX
  8
0
  6
CONTINUOUS
 10
2.930756
 20
0.403461
 30
0.0
 70
    64
  0
VERTEX
  8
0
  6
CONTINUOUS
 10
2.944476
 20
0.403461
 30
0.0
 70
    64
  0
VERTEX
  8
0
  6
CONTINUOUS
 10
2.958196
 20
0.403461
 30
0.0
 70
    64
  0
VERTEX
  8
0
  6
CONTINUOUS
 10
2.971916
 20
0.403461
 30
0.0
 70
    64
  0
VERTEX
  8
0
  6
CONTINUOUS
 10
2.985636
 20
0.403461
 30
0.0
 70
    64
  0
VERTEX
  8
0
  6
CONTINUOUS
 10
2.999356
 20
0.403461
 30
0.0
 70
    64
  0
VERTEX
  8
0
  6
CONTINUOUS
 10
3.013076
 20
0.403461
 30
0.0
 70
    64
  0
VERTEX
  8
0
  6
CONTINUOUS
 10
3.026796
 20
0.403461
 30
0.0
 70
    64
  0
VERTEX
  8
0
  6
CONTINUOUS
 10
3.040516
 20
0.403461
 30
0.0
 70
    64
  0
VERTEX
  8
0
  6
CONTINUOUS
 10
3.054236
 20
0.403461
 30
0.0
 70
    64
  0
VERTEX
  8
0
  6
CONTINUOUS
 10
3.067956
 20
0.403461
 30
0.0
 70
    64
  0
VERTEX
  8
0
  6
CONTINUOUS
 10
3.081676
 20
0.403461
 30
0.0
 70
    64
  0
VERTEX
  8
0
  6
CONTINUOUS
 10
3.095396
 20
0.403461
 30
0.0
 70
    64
  0
VERTEX
  8
0
  6
CONTINUOUS
 10
3.109116
 20
0.403461
 30
0.0
 70
    64
  0
VERTEX
  8
0
  6
CONTINUOUS
 10
3.122836
 20
0.403461
 30
0.0
 70
    64
  0
VERTEX
  8
0
  6
CONTINUOUS
 10
3.136556
 20
0.403461
 30
0.0
 70
    64
  0
VERTEX
  8
0
  6
CONTINUOUS
 10
3.150276
 20
0.403461
 30
0.0
 70
    64
  0
VERTEX
  8
0
  6
CONTINUOUS
 10
3.163996
 20
0.403461
 30
0.0
 70
    64
  0
VERTEX
  8
0
  6
CONTINUOUS
 10
3.177716
 20
0.403461
 30
0.0
 70
    64
  0
VERTEX
  8
0
  6
CONTINUOUS
 10
3.191436
 20
0.403461
 30
0.0
 70
    64
  0
VERTEX
  8
0
  6
CONTINUOUS
 10
3.205156
 20
0.403461
 30
0.0
 70
    64
  0
VERTEX
  8
0
  6
CONTINUOUS
 10
3.218876
 20
0.403461
 30
0.0
 70
    64
  0
VERTEX
  8
0
  6
CONTINUOUS
 10
3.232596
 20
0.403461
 30
0.0
 70
    64
  0
VERTEX
  8
0
  6
CONTINUOUS
 10
3.246316
 20
0.403461
 30
0.0
 70
    64
  0
VERTEX
  8
0
  6
CONTINUOUS
 10
3.260036
 20
0.403461
 30
0.0
 70
    64
  0
VERTEX
  8
0
  6
CONTINUOUS
 10
3.273756
 20
0.403461
 30
0.0
 70
    64
  0
VERTEX
  8
0
  6
CONTINUOUS
 10
3.287476
 20
0.403461
 30
0.0
 70
    64
  0
VERTEX
  8
0
  6
CONTINUOUS
 10
3.301196
 20
0.403461
 30
0.0
 70
    64
  0
VERTEX
  8
0
  6
CONTINUOUS
 10
3.314916
 20
0.403461
 30
0.0
 70
    64
  0
VERTEX
  8
0
  6
CONTINUOUS
 10
3.328636
 20
0.403461
 30
0.0
 70
    64
  0
VERTEX
  8
0
  6
CONTINUOUS
 10
3.342356
 20
0.403461
 30
0.0
 70
    64
  0
VERTEX
  8
0
  6
CONTINUOUS
 10
3.356076
 20
0.403461
 30
0.0
 70
    64
  0
VERTEX
  8
0
  6
CONTINUOUS
 10
3.369796
 20
0.403461
 30
0.0
 70
    64
  0
VERTEX
  8
0
  6
CONTINUOUS
 10
3.383516
 20
0.403461
 30
0.0
 70
    64
  0
VERTEX
  8
0
  6
CONTINUOUS
 10
3.397236
 20
0.403461
 30
0.0
 70
    64
  0
VERTEX
  8
0
  6
CONTINUOUS
 10
3.410956
 20
0.403461
 30
0.0
 70
    64
  0
VERTEX
  8
0
  6
CONTINUOUS
 10
3.424676
 20
0.403461
 30
0.0
 70
    64
  0
VERTEX
  8
0
  6
CONTINUOUS
 10
3.438396
 20
0.403461
 30
0.0
 70
    64
  0
VERTEX
  8
0
  6
CONTINUOUS
 10
3.452116
 20
0.403461
 30
0.0
 70
    64
  0
VERTEX
  8
0
  6
CONTINUOUS
 10
3.465836
 20
0.403461
 30
0.0
 70
    64
  0
VERTEX
  8
0
  6
CONTINUOUS
 10
3.479556
 20
0.403461
 30
0.0
 70
    64
  0
VERTEX
  8
0
  6
CONTINUOUS
 10
3.493276
 20
0.403461
 30
0.0
 70
    64
  0
VERTEX
  8
0
  6
CONTINUOUS
 10
3.506996
 20
0.403461
 30
0.0
 70
    64
  0
VERTEX
  8
0
  6
CONTINUOUS
 10
3.520716
 20
0.403461
 30
0.0
 70
    64
  0
VERTEX
  8
0
  6
CONTINUOUS
 10
3.534436
 20
0.403461
 30
0.0
 70
    64
  0
VERTEX
  8
0
  6
CONTINUOUS
 10
3.548156
 20
0.403461
 30
0.0
 70
    64
  0
VERTEX
  8
0
  6
CONTINUOUS
 10
3.561876
 20
0.403461
 30
0.0
 70
    64
  0
VERTEX
  8
0
  6
CONTINUOUS
 10
3.575596
 20
0.403461
 30
0.0
 70
    64
  0
VERTEX
  8
0
  6
CONTINUOUS
 10
3.589316
 20
0.403461
 30
0.0
 70
    64
  0
VERTEX
  8
0
  6
CONTINUOUS
 10
3.603036
 20
0.403461
 30
0.0
 70
    64
  0
VERTEX
  8
0
  6
CONTINUOUS
 10
3.616756
 20
0.403461
 30
0.0
 70
    64
  0
VERTEX
  8
0
  6
CONTINUOUS
 10
3.630476
 20
0.403461
 30
0.0
 70
    64
  0
VERTEX
  8
0
  6
CONTINUOUS
 10
3.644196
 20
0.403461
 30
0.0
 70
    64
  0
VERTEX
  8
0
  6
CONTINUOUS
 10
3.657916
 20
0.403461
 30
0.0
 70
    64
  0
VERTEX
  8
0
  6
CONTINUOUS
 10
3.671636
 20
0.403461
 30
0.0
 70
    64
  0
VERTEX
  8
0
  6
CONTINUOUS
 10
3.685356
 20
0.403461
 30
0.0
 70
    64
  0
VERTEX
  8
0
  6
CONTINUOUS
 10
3.699076
 20
0.403461
 30
0.0
 70
    64
  0
VERTEX
  8
0
  6
CONTINUOUS
 10
3.712796
 20
0.403461
 30
0.0
 70
    64
  0
VERTEX
  8
0
  6
CONTINUOUS
 10
3.726516
 20
0.403461
 30
0.0
 70
    64
  0
VERTEX
  8
0
  6
CONTINUOUS
 10
3.740236
 20
0.403461
 30
0.0
 70
    64
  0
VERTEX
  8
0
  6
CONTINUOUS
 10
3.753956
 20
0.403461
 30
0.0
 70
    64
  0
VERTEX
  8
0
  6
CONTINUOUS
 10
3.767676
 20
0.403461
 30
0.0
 70
    64
  0
VERTEX
  8
0
  6
CONTINUOUS
 10
3.781396
 20
0.403461
 30
0.0
 70
    64
  0
VERTEX
  8
0
  6
CONTINUOUS
 10
3.795116
 20
0.403461
 30
0.0
 70
    64
  0
VERTEX
  8
0
  6
CONTINUOUS
 10
3.808836
 20
0.403461
 30
0.0
 70
    64
  0
VERTEX
  8
0
  6
CONTINUOUS
 10
3.822556
 20
0.403461
 30
0.0
 70
    64
  0
VERTEX
  8
0
  6
CONTINUOUS
 10
3.836276
 20
0.403461
 30
0.0
 70
    64
  0
VERTEX
  8
0
  6
CONTINUOUS
 10
3.849996
 20
0.403461
 30
0.0
 70
    64
  0
VERTEX
  8
0
  6
CONTINUOUS
 10
3.863716
 20
0.403461
 30
0.0
 70
    64
  0
VERTEX
  8
0
  6
CONTINUOUS
 10
3.877436
 20
0.403461
 30
0.0
 70
    64
  0
VERTEX
  8
0
  6
CONTINUOUS
 10
3.891156
 20
0.403461
 30
0.0
 70
    64
  0
VERTEX
  8
0
  6
CONTINUOUS
 10
3.904876
 20
0.403461
 30
0.0
 70
    64
  0
VERTEX
  8
0
  6
CONTINUOUS
 10
3.918596
 20
0.403461
 30
0.0
 70
    64
  0
VERTEX
  8
0
  6
CONTINUOUS
 10
3.932316
 20
0.403461
 30
0.0
 70
    64
  0
VERTEX
  8
0
  6
CONTINUOUS
 10
3.946036
 20
0.403461
 30
0.0
 70
    64
  0
VERTEX
  8
0
  6
CONTINUOUS
 10
3.959756
 20
0.403461
 30
0.0
 70
    64
  0
VERTEX
  8
0
  6
CONTINUOUS
 10
3.973476
 20
0.403461
 30
0.0
 70
    64
  0
VERTEX
  8
0
  6
CONTINUOUS
 10
3.987196
 20
0.403461
 30
0.0
 70
    64
  0
VERTEX
  8
0
  6
CONTINUOUS
 10
4.000916
 20
0.403461
 30
0.0
 70
    64
  0
VERTEX
  8
0
  6
CONTINUOUS
 10
4.014636
 20
0.403461
 30
0.0
 70
    64
  0
VERTEX
  8
0
  6
CONTINUOUS
 10
4.028356
 20
0.403461
 30
0.0
 70
    64
  0
VERTEX
  8
0
  6
CONTINUOUS
 10
4.042076
 20
0.403461
 30
0.0
 70
    64
  0
VERTEX
  8
0
  6
CONTINUOUS
 10
4.055796
 20
0.403461
 30
0.0
 70
    64
  0
VERTEX
  8
0
  6
CONTINUOUS
 10
4.069516
 20
0.403461
 30
0.0
 70
    64
  0
VERTEX
  8
0
  6
CONTINUOUS
 10
4.083236
 20
0.403461
 30
0.0
 70
    64
  0
VERTEX
  8
0
  6
CONTINUOUS
 10
4.096956
 20
0.403461
 30
0.0
 70
    64
  0
VERTEX
  8
0
  6
CONTINUOUS
 10
4.110676
 20
0.403461
 30
0.0
 70
    64
  0
VERTEX
  8
0
  6
CONTINUOUS
 10
4.124396
 20
0.403461
 30
0.0
 70
    64
  0
VERTEX
  8
0
  6
CONTINUOUS
 10
4.138116
 20
0.403461
 30
0.0
 70
    64
  0
VERTEX
  8
0
  6
CONTINUOUS
 10
4.151836
 20
0.403461
 30
0.0
 70
    64
  0
VERTEX
  8
0
  6
CONTINUOUS
 10
4.165556
 20
0.403461
 30
0.0
 70
    64
  0
VERTEX
  8
0
  6
CONTINUOUS
 10
4.179276
 20
0.403461
 30
0.0
 70
    64
  0
VERTEX
  8
0
  6
CONTINUOUS
 10
4.192996
 20
0.403461
 30
0.0
 70
    64
  0
VERTEX
  8
0
  6
CONTINUOUS
 10
4.206716
 20
0.403461
 30
0.0
 70
    64
  0
VERTEX
  8
0
  6
CONTINUOUS
 10
4.220436
 20
0.403461
 30
0.0
 70
    64
  0
VERTEX
  8
0
  6
CONTINUOUS
 10
4.234156
 20
0.403461
 30
0.0
 70
    64
  0
VERTEX
  8
0
  6
CONTINUOUS
 10
4.247876
 20
0.403461
 30
0.0
 70
    64
  0
VERTEX
  8
0
  6
CONTINUOUS
 10
4.261596
 20
0.403461
 30
0.0
 70
    64
  0
VERTEX
  8
0
  6
CONTINUOUS
 10
4.275316
 20
0.403461
 30
0.0
 70
    64
  0
VERTEX
  8
0
  6
CONTINUOUS
 10
4.289036
 20
0.403461
 30
0.0
 70
    64
  0
VERTEX
  8
0
  6
CONTINUOUS
 10
4.302756
 20
0.403461
 30
0.0
 70
    64
  0
VERTEX
  8
0
  6
CONTINUOUS
 10
4.316476
 20
0.403461
 30
0.0
 70
    64
  0
VERTEX
  8
0
  6
CONTINUOUS
 10
4.330196
 20
0.403461
 30
0.0
 70
    64
  0
VERTEX
  8
0
  6
CONTINUOUS
 10
4.343916
 20
0.403461
 30
0.0
 70
    64
  0
VERTEX
  8
0
  6
CONTINUOUS
 10
4.357636
 20
0.403461
 30
0.0
 70
    64
  0
VERTEX
  8
0
  6
CONTINUOUS
 10
4.371356
 20
0.403461
 30
0.0
 70
    64
  0
VERTEX
  8
0
  6
CONTINUOUS
 10
4.385076
 20
0.403461
 30
0.0
 70
    64
  0
VERTEX
  8
0
  6
CONTINUOUS
 10
4.398796
 20
0.403461
 30
0.0
 70
    64
  0
VERTEX
  8
0
  6
CONTINUOUS
 10
4.412516
 20
0.403461
 30
0.0
 70
    64
  0
VERTEX
  8
0
  6
CONTINUOUS
 10
4.426236
 20
0.403461
 30
0.0
 70
    64
  0
VERTEX
  8
0
  6
CONTINUOUS
 10
4.439956
 20
0.403461
 30
0.0
 70
    64
  0
VERTEX
  8
0
  6
CONTINUOUS
 10
4.453676
 20
0.403461
 30
0.0
 70
    64
  0
VERTEX
  8
0
  6
CONTINUOUS
 10
4.467396
 20
0.403461
 30
0.0
 70
    64
  0
VERTEX
  8
0
  6
CONTINUOUS
 10
4.481116
 20
0.403461
 30
0.0
 70
    64
  0
VERTEX
  8
0
  6
CONTINUOUS
 10
4.494836
 20
0.403461
 30
0.0
 70
    64
  0
VERTEX
  8
0
  6
CONTINUOUS
 10
4.508556
 20
0.403461
 30
0.0
 70
    64
  0
VERTEX
  8
0
  6
CONTINUOUS
 10
4.522276
 20
0.403461
 30
0.0
 70
    64
  0
VERTEX
  8
0
  6
CONTINUOUS
 10
4.535996
 20
0.403461
 30
0.0
 70
    64
  0
VERTEX
  8
0
  6
CONTINUOUS
 10
4.549716
 20
0.403461
 30
0.0
 70
    64
  0
VERTEX
  8
0
  6
CONTINUOUS
 10
4.563436
 20
0.403461
 30
0.0
 70
    64
  0
VERTEX
  8
0
  6
CONTINUOUS
 10
4.577156
 20
0.403461
 30
0.0
 70
    64
  0
VERTEX
  8
0
  6
CONTINUOUS
 10
4.590876
 20
0.403461
 30
0.0
 70
    64
  0
VERTEX
  8
0
  6
CONTINUOUS
 10
4.604596
 20
0.403461
 30
0.0
 70
    64
  0
VERTEX
  8
0
  6
CONTINUOUS
 10
4.618316
 20
0.403461
 30
0.0
 70
    64
  0
VERTEX
  8
0
  6
CONTINUOUS
 10
4.632036
 20
0.403461
 30
0.0
 70
    64
  0
VERTEX
  8
0
  6
CONTINUOUS
 10
4.645756
 20
0.403461
 30
0.0
 70
    64
  0
VERTEX
  8
0
  6
CONTINUOUS
 10
4.659476
 20
0.403461
 30
0.0
 70
    64
  0
VERTEX
  8
0
  6
CONTINUOUS
 10
4.673196
 20
0.403461
 30
0.0
 70
    64
  0
VERTEX
  8
0
  6
CONTINUOUS
 10
4.686916
 20
0.403461
 30
0.0
 70
    64
  0
VERTEX
  8
0
  6
CONTINUOUS
 10
4.700636
 20
0.403461
 30
0.0
 70
    64
  0
VERTEX
  8
0
  6
CONTINUOUS
 10
4.714356
 20
0.403461
 30
0.0
 70
    64
  0
VERTEX
  8
0
  6
CONTINUOUS
 10
4.728076
 20
0.403461
 30
0.0
 70
    64
  0
VERTEX
  8
0
  6
CONTINUOUS
 10
4.741796
 20
0.403461
 30
0.0
 70
    64
  0
VERTEX
  8
0
  6
CONTINUOUS
 10
4.755516
 20
0.403461
 30
0.0
 70
    64
  0
VERTEX
  8
0
  6
CONTINUOUS
 10
4.769236
 20
0.403461
 30
0.0
 70
    64
  0
VERTEX
  8
0
  6
CONTINUOUS
 10
4.782956
 20
0.403461
 30
0.0
 70
    64
  0
VERTEX
  8
0
  6
CONTINUOUS
 10
4.796676
 20
0.403461
 30
0.0
 70
    64
  0
VERTEX
  8
0
  6
CONTINUOUS
 10
4.810396
 20
0.403461
 30
0.0
 70
    64
  0
VERTEX
  8
0
  6
CONTINUOUS
 10
4.824116
 20
0.403461
 30
0.0
 70
    64
  0
VERTEX
  8
0
  6
CONTINUOUS
 10
4.837836
 20
0.403461
 30
0.0
 70
    64
  0
VERTEX
  8
0
  6
CONTINUOUS
 10
4.851556
 20
0.403461
 30
0.0
 70
    64
  0
VERTEX
  8
0
  6
CONTINUOUS
 10
4.865276
 20
0.403461
 30
0.0
 70
    64
  0
VERTEX
  8
0
  6
CONTINUOUS
 10
4.878996
 20
0.403461
 30
0.0
 70
    64
  0
VERTEX
  8
0
  6
CONTINUOUS
 10
4.892716
 20
0.403461
 30
0.0
 70
    64
  0
VERTEX
  8
0
  6
CONTINUOUS
 10
4.906436
 20
0.403461
 30
0.0
 70
    64
  0
VERTEX
  8
0
  6
CONTINUOUS
 10
4.920156
 20
0.403461
 30
0.0
 70
    64
  0
VERTEX
  8
0
  6
CONTINUOUS
 10
4.933876
 20
0.403461
 30
0.0
 70
    64
  0
VERTEX
  8
0
  6
CONTINUOUS
 10
4.947596
 20
0.403461
 30
0.0
 70
    64
  0
VERTEX
  8
0
  6
CONTINUOUS
 10
4.961316
 20
0.403461
 30
0.0
 70
    64
  0
VERTEX
  8
0
  6
CONTINUOUS
 10
4.975036
 20
0.403461
 30
0.0
 70
    64
  0
VERTEX
  8
0
  6
CONTINUOUS
 10
4.988756
 20
0.403461
 30
0.0
 70
    64
  0
VERTEX
  8
0
  6
CONTINUOUS
 10
5.002476
 20
0.403461
 30
0.0
 70
    64
  0
VERTEX
  8
0
  6
CONTINUOUS
 10
5.016196
 20
0.403461
 30
0.0
 70
    64
  0
VERTEX
  8
0
  6
CONTINUOUS
 10
5.029916
 20
0.403461
 30
0.0
 70
    64
  0
VERTEX
  8
0
  6
CONTINUOUS
 10
5.043636
 20
0.403461
 30
0.0
 70
    64
  0
VERTEX
  8
0
  6
CONTINUOUS
 10
5.057356
 20
0.403461
 30
0.0
 70
    64
  0
VERTEX
  8
0
  6
CONTINUOUS
 10
5.071076
 20
0.403461
 30
0.0
 70
    64
  0
VERTEX
  8
0
  6
CONTINUOUS
 10
5.084796
 20
0.403461
 30
0.0
 70
    64
  0
VERTEX
  8
0
  6
CONTINUOUS
 10
5.098516
 20
0.403461
 30
0.0
 70
    64
  0
VERTEX
  8
0
  6
CONTINUOUS
 10
5.112236
 20
0.403461
 30
0.0
 70
    64
  0
VERTEX
  8
0
  6
CONTINUOUS
 10
5.125956
 20
0.403461
 30
0.0
 70
    64
  0
VERTEX
  8
0
  6
CONTINUOUS
 10
5.139676
 20
0.403461
 30
0.0
 70
    64
  0
VERTEX
  8
0
  6
CONTINUOUS
 10
5.153396
 20
0.403461
 30
0.0
 70
    64
  0
VERTEX
  8
0
  6
CONTINUOUS
 10
5.167116
 20
0.403461
 30
0.0
 70
    64
  0
VERTEX
  8
0
  6
CONTINUOUS
 10
5.180836
 20
0.403461
 30
0.0
 70
    64
  0
VERTEX
  8
0
  6
CONTINUOUS
 10
5.194556
 20
0.403461
 30
0.0
 70
    64
  0
VERTEX
  8
0
  6
CONTINUOUS
 10
5.208276
 20
0.403461
 30
0.0
 70
    64
  0
VERTEX
  8
0
  6
CONTINUOUS
 10
5.221996
 20
0.403461
 30
0.0
 70
    64
  0
VERTEX
  8
0
  6
CONTINUOUS
 10
5.235716
 20
0.403461
 30
0.0
 70
    64
  0
VERTEX
  8
0
  6
CONTINUOUS
 10
5.249436
 20
0.403461
 30
0.0
 70
    64
  0
SEQEND
  8
0
  6
CONTINUOUS
  0
LINE
  8
0
  6
DASHED
 10
5.0
 20
-0.086539
 30
0.0
 11
15.0
 21
-0.086539
 31
0.0
  0
ARC
  8
0
  6
CONTINUOUS
 10
2.5
 20
-0.086539
 30
0.0
 40
2.5
 50
90.0
 51
270.0
  0
ENDBLK
  8
0
  0
ENDSEC
  0
SECTION
  2
ENTITIES
  0
TEXT
  8
0
  6
DASHED
 62
     7
 10
292.217194
 20
11.813359
 30
0.0
 40
3.0
  1
A3
  7
GREEKS
  0
TEXT
  8
0
  6
DASHED
 62
     7
 10
351.818577
 20
15.69253
 30
0.0
 40
1.4
  1
LEHTI SHEET
  7
GREEKS
  0
LINE
  8
0
 62
     7
 10
0.237099
 20
262.737999
 30
0.0
 11
392.237099
 21
262.737999
 31
0.0
  0
LINE
  8
0
 62
     7
 10
18.237099
 20
0.237999
 30
0.0
 11
0.237099
 21
0.237999
 31
0.0
  0
LINE
  8
0
 62
     7
 10
209.237099
 20
0.237999
 30
0.0
 11
392.237099
 21
0.237999
 31
0.0
  0
LINE
  8
0
 62
     7
 10
209.237099
 20
0.237999
 30
0.0
 11
209.237099
 21
35.237999
 31
0.0
  0
LINE
  8
0
 62
     7
 10
392.237099
 20
0.237999
 30
0.0
 11
392.237099
 21
35.237999
 31
0.0
  0
LINE
  8
0
 62
     7
 10
209.237099
 20
18.237999
 30
0.0
 11
392.237099
 21
18.237999
 31
0.0
  0
LINE
  8
0
 62
     7
 10
209.237099
 20
9.737999
 30
0.0
 11
392.237099
 21
9.737999
 31
0.0
  0
LINE
  8
0
 62
     7
 10
209.237099
 20
26.737999
 30
0.0
 11
307.237099
 21
26.737999
 31
0.0
  0
LINE
  8
0
 62
     7
 10
209.237099
 20
35.237999
 30
0.0
 11
392.237099
 21
35.237999
 31
0.0
  0
TEXT
  8
0
 62
     7
 10
210.237099
 20
23.971333
 30
0.0
 40
1.4
  1
TARKASTI  CHECKED
  7
ROMANS
  0
TEXT
  8
0
 62
     7
 10
209.979934
 20
15.704666
 30
0.0
 40
1.4
  1
HYVÄKSYI  APPROVED
  7
ROMANS
  0
LINE
  8
0
 62
     7
 10
307.237099
 20
0.237999
 30
0.0
 11
307.237099
 21
35.237999
 31
0.0
  0
TEXT
  8
0
 62
     7
 10
259.237099
 20
32.737999
 30
0.0
 40
1.4
  1
LIITTYY  CONCERNING
  7
ROMANS
  0
TEXT
  8
0
 62
     7
 10
259.237099
 20
23.737999
 30
0.0
 40
1.4
  1
TOLERANSSIT  TOLERANCES
  7
ROMANS
  0
TEXT
  8
0
 62
     7
 10
259.237099
 20
15.737999
 30
0.0
 40
1.4
  1
SUHDE  SCALE
  7
ROMANS
  0
TEXT
  8
0
 62
     7
 10
309.237099
 20
32.737999
 30
0.0
 40
1.4
  1
NIMITYS  NAME
  7
ROMANS
  0
TEXT
  8
0
 62
     7
 10
309.237099
 20
15.737999
 30
0.0
 40
1.4
  1
KOODI  CODE
  7
ROMANS
  0
TEXT
  8
0
 62
     7
 10
309.237099
 20
7.237999
 30
0.0
 40
1.4
  1
PIIRUSTUS NO  DRAWING NR
  7
ROMANS
  0
LINE
  8
0
 62
     7
 10
349.737099
 20
9.737999
 30
0.0
 11
349.737099
 21
18.237999
 31
0.0
  0
TEXT
  8
0
 62
     7
 10
371.237099
 20
7.237999
 30
0.0
 40
1.4
  1
PAINOS  REVISION
  7
ROMANS
  0
LINE
  8
0
 62
     7
 10
369.737099
 20
9.737999
 30
0.0
 11
369.737099
 21
0.237999
 31
0.0
  0
LINE
  8
0
 62
     7
 10
210.187099
 20
1.737999
 30
0.0
 11
211.937099
 21
1.737999
 31
0.0
  0
LINE
  8
0
 62
     7
 10
215.437099
 20
1.737999
 30
0.0
 11
217.187099
 21
1.737999
 31
0.0
  0
LINE
  8
0
 62
     7
 10
212.637099
 20
8.737999
 30
0.0
 11
211.459571
 21
5.373634
 31
0.0
  0
LINE
  8
0
 62
     7
 10
212.425886
 20
3.137999
 30
0.0
 11
213.547099
 21
3.137999
 31
0.0
  0
LINE
  8
0
 62
     7
 10
212.425889
 20
3.134542
 30
0.0
 11
211.937099
 21
1.737999
 31
0.0
  0
LINE
  8
0
 62
     7
 10
214.737099
 20
8.737999
 30
0.0
 11
215.913452
 21
5.376991
 31
0.0
  0
LINE
  8
0
 62
     7
 10
214.948197
 20
3.134863
 30
0.0
 11
215.437099
 21
1.737999
 31
0.0
  0
LINE
  8
0
 62
     7
 10
214.737099
 20
8.737999
 30
0.0
 11
213.827099
 21
8.737999
 31
0.0
  0
LINE
  8
0
 62
     7
 10
213.547099
 20
8.737999
 30
0.0
 11
213.547099
 21
5.377999
 31
0.0
  0
LINE
  8
0
 62
     7
 10
213.827099
 20
8.737999
 30
0.0
 11
213.827099
 21
5.377999
 31
0.0
  0
LINE
  8
0
 62
     7
 10
213.827099
 20
3.137999
 30
0.0
 11
214.946992
 21
3.137999
 31
0.0
  0
LINE
  8
0
 62
     7
 10
213.547099
 20
8.737999
 30
0.0
 11
212.637099
 21
8.737999
 31
0.0
  0
LINE
  8
0
 62
     7
 10
211.45904
 20
5.377999
 30
0.0
 11
213.547099
 21
5.377999
 31
0.0
  0
LINE
  8
0
 62
     7
 10
211.360082
 20
5.097999
 30
0.0
 11
213.547099
 21
5.097999
 31
0.0
  0
LINE
  8
0
 62
     7
 10
216.011591
 20
5.096594
 30
0.0
 11
217.187099
 21
1.737999
 31
0.0
  0
LINE
  8
0
 62
     7
 10
213.827099
 20
5.377999
 30
0.0
 11
215.912213
 21
5.377999
 31
0.0
  0
LINE
  8
0
 62
     7
 10
213.827099
 20
5.097999
 30
0.0
 11
216.010356
 21
5.097999
 31
0.0
  0
LINE
  8
0
 62
     7
 10
213.827099
 20
5.097999
 30
0.0
 11
213.827099
 21
3.137999
 31
0.0
  0
LINE
  8
0
 62
     7
 10
213.547099
 20
5.097999
 30
0.0
 11
213.547099
 21
3.137999
 31
0.0
  0
LINE
  8
0
 62
     7
 10
211.356988
 20
5.080538
 30
0.0
 11
210.187099
 21
1.737999
 31
0.0
  0
LINE
  8
0
 62
     7
 10
217.677099
 20
1.737999
 30
0.0
 11
217.677099
 21
5.097999
 31
0.0
  0
LINE
  8
0
 62
     7
 10
217.677099
 20
8.737999
 30
0.0
 11
219.637099
 21
8.737999
 31
0.0
  0
LINE
  8
0
 62
     7
 10
219.637099
 20
8.737999
 30
0.0
 11
219.637099
 21
5.377999
 31
0.0
  0
LINE
  8
0
 62
     7
 10
219.637099
 20
5.377999
 30
0.0
 11
217.677099
 21
5.377999
 31
0.0
  0
LINE
  8
0
 62
     7
 10
217.677099
 20
5.097999
 30
0.0
 11
219.637099
 21
5.097999
 31
0.0
  0
LINE
  8
0
 62
     7
 10
219.637099
 20
5.097999
 30
0.0
 11
219.637099
 21
1.737999
 31
0.0
  0
LINE
  8
0
 62
     7
 10
219.637099
 20
1.737999
 30
0.0
 11
217.677099
 21
1.737999
 31
0.0
  0
LINE
  8
0
 62
     7
 10
217.677099
 20
5.377999
 30
0.0
 11
217.677099
 21
8.737999
 31
0.0
  0
ARC
  8
0
 62
     7
 10
220.477099
 20
7.162999
 30
0.0
 40
1.575
 50
298.455859
 51
90.052437
  0
LINE
  8
0
 62
     7
 10
219.917099
 20
8.737999
 30
0.0
 11
220.475658
 21
8.737999
 31
0.0
  0
LINE
  8
0
 62
     7
 10
219.917099
 20
8.737999
 30
0.0
 11
219.917099
 21
5.377999
 31
0.0
  0
LINE
  8
0
 62
     7
 10
219.917099
 20
5.377999
 30
0.0
 11
221.901542
 21
5.377999
 31
0.0
  0
LINE
  8
0
 62
     7
 10
222.157099
 20
5.097999
 30
0.0
 11
219.917099
 21
5.097999
 31
0.0
  0
LINE
  8
0
 62
     7
 10
219.917099
 20
5.097999
 30
0.0
 11
219.917099
 21
1.737999
 31
0.0
  0
ARC
  8
0
 62
     7
 10
220.477099
 20
3.837999
 30
0.0
 40
2.1
 50
269.937724
 51
37.056553
  0
LINE
  8
0
 62
     7
 10
219.917099
 20
1.737999
 30
0.0
 11
220.474817
 21
1.738
 31
0.0
  0
ARC
  8
0
 62
     7
 10
220.477099
 20
3.837999
 30
0.0
 40
2.1
 50
47.28622
 51
68.787999
  0
ARC
  8
0
 62
     7
 10
225.937099
 20
3.837999
 30
0.0
 40
2.1
 50
47.28622
 51
68.787999
  0
LINE
  8
0
 62
     7
 10
225.377099
 20
1.737999
 30
0.0
 11
225.934817
 21
1.738
 31
0.0
  0
ARC
  8
0
 62
     7
 10
225.937099
 20
3.837999
 30
0.0
 40
2.1
 50
269.937724
 51
37.056553
  0
LINE
  8
0
 62
     7
 10
225.377099
 20
5.097999
 30
0.0
 11
225.377099
 21
1.737999
 31
0.0
  0
LINE
  8
0
 62
     7
 10
227.617099
 20
5.097999
 30
0.0
 11
225.377099
 21
5.097999
 31
0.0
  0
LINE
  8
0
 62
     7
 10
225.377099
 20
5.377999
 30
0.0
 11
227.361542
 21
5.377999
 31
0.0
  0
LINE
  8
0
 62
     7
 10
225.377099
 20
8.737999
 30
0.0
 11
225.377099
 21
5.377999
 31
0.0
  0
LINE
  8
0
 62
     7
 10
225.377099
 20
8.737999
 30
0.0
 11
225.935658
 21
8.737999
 31
0.0
  0
ARC
  8
0
 62
     7
 10
225.937099
 20
7.162999
 30
0.0
 40
1.575
 50
298.455859
 51
90.052437
  0
LINE
  8
0
 62
     7
 10
223.137099
 20
5.377999
 30
0.0
 11
223.137099
 21
8.737999
 31
0.0
  0
LINE
  8
0
 62
     7
 10
225.097099
 20
1.737999
 30
0.0
 11
223.137099
 21
1.737999
 31
0.0
  0
LINE
  8
0
 62
     7
 10
225.097099
 20
5.097999
 30
0.0
 11
225.097099
 21
1.737999
 31
0.0
  0
LINE
  8
0
 62
     7
 10
223.137099
 20
5.097999
 30
0.0
 11
225.097099
 21
5.097999
 31
0.0
  0
LINE
  8
0
 62
     7
 10
225.097099
 20
5.377999
 30
0.0
 11
223.137099
 21
5.377999
 31
0.0
  0
LINE
  8
0
 62
     7
 10
225.097099
 20
8.737999
 30
0.0
 11
225.097099
 21
5.377999
 31
0.0
  0
LINE
  8
0
 62
     7
 10
223.137099
 20
8.737999
 30
0.0
 11
225.097099
 21
8.737999
 31
0.0
  0
LINE
  8
0
 62
     7
 10
223.137099
 20
1.737999
 30
0.0
 11
223.137099
 21
5.097999
 31
0.0
  0
TEXT
  8
0
 62
     7
 10
229.737099
 20
1.737999
 30
0.0
 40
3.0
  1
ABB 
 41
0.8
  7
ROMANS
  0
TEXT
  8
0
 62
     7
 10
237.737099
 20
1.737999
 30
0.0
 40
3.0
  1
Strömberg
 41
0.8
  7
ROMANS
  0
LINE
  8
0
 62
     7
 10
282.237099
 20
9.737999
 30
0.0
 11
282.237099
 21
18.237999
 31
0.0
  0
TEXT
  8
0
 62
     7
 10
27.737099
 20
4.737999
 30
0.0
 40
1.4
  1
MUUTOS
  7
ROMANS
  0
TEXT
  8
0
 62
     7
 10
27.737099
 20
2.471333
 30
0.0
 40
1.4
  1
REVISION
  7
ROMANS
  0
LINE
  8
0
 62
     7
 10
46.737099
 20
9.237999
 30
0.0
 11
209.237099
 21
9.237999
 31
0.0
  0
LINE
  8
0
 62
     7
 10
46.737099
 20
0.237999
 30
0.0
 11
46.737099
 21
9.237999
 31
0.0
  0
LINE
  8
0
 62
     7
 10
40.737099
 20
4.737999
 30
0.0
 11
209.237099
 21
4.737999
 31
0.0
  0
LINE
  8
0
 62
     7
 10
257.237099
 20
9.737999
 30
0.0
 11
257.237099
 21
35.237999
 31
0.0
  0
LINE
  8
0
 62
     7
 10
271.237099
 20
9.737999
 30
0.0
 11
271.237099
 21
0.237999
 31
0.0
  0
TEXT
  8
0
 62
     7
 10
210.237099
 20
32.237999
 30
0.0
 40
1.4
  1
TEKI  PREPARED
  7
ROMANS
  0
TEXT
  8
0
 62
     7
 10
273.237099
 20
7.237999
 30
0.0
 40
1.4
  1
VAST.OSASTO RESP.DEPT.
  7
ROMANS
  0
TEXT
  8
0
 62
     7
 10
257.407006
 20
1.741783
 30
0.0
 40
3.0
  1
Power
 41
0.8
  7
ROMANS
  0
TEXT
  8
0
 62
     7
 10
42.237099
 20
1.195292
 30
0.0
 40
2.5
  1
B
  7
ROMANS
  0
TEXT
  8
0
 62
     7
 10
42.237099
 20
5.587508
 30
0.0
 40
2.5
  1
C
  7
ROMANS
  0
LINE
  8
0
 62
     7
 10
0.237099
 20
0.237999
 30
0.0
 11
392.237099
 21
0.237999
 31
0.0
  0
LINE
  8
0
 62
     7
 10
392.237099
 20
262.737999
 30
0.0
 11
392.237099
 21
0.237999
 31
0.0
  0
LINE
  8
0
 62
     7
 10
0.237099
 20
0.237999
 30
0.0
 11
0.237099
 21
262.737999
 31
0.0
  0
LINE
  8
0
  6
CENTER
 62
     7
 10
80.0
 20
215.0
 30
0.0
 11
80.0
 21
50.0
 31
0.0
  0
LINE
  8
0
  6
CENTER
 62
     7
 10
80.0
 20
50.0
 30
0.0
 11
272.5
 21
50.0
 31
0.0
  0
LINE
  8
0
  6
CENTER
 62
     7
 10
272.5
 20
215.0
 30
0.0
 11
272.5
 21
50.0
 31
0.0
  0
LINE
  8
0
  6
CONTINUOUS
 62
     7
 10
124.243862
 20
189.5952
 30
0.0
 11
125.165527
 21
188.673536
 31
0.0
  0
LINE
  8
0
  6
CONTINUOUS
 62
     7
 10
125.165527
 20
74.684958
 30
0.0
 11
125.165527
 21
163.514504
 31
0.0
  0
LINE
  8
0
  6
CONTINUOUS
 62
     7
 10
125.165527
 20
74.684958
 30
0.0
 11
124.165527
 21
73.684958
 31
0.0
  0
LINE
  8
0
  6
CONTINUOUS
 62
     7
 10
125.165527
 20
166.081164
 30
0.0
 11
125.165527
 21
188.673536
 31
0.0
  0
TEXT
  8
0
  6
CONTINUOUS
 62
     7
 10
210.800806
 20
27.91304
 30
0.0
 40
2.0
  1
1993-06-28  KM / RITU
  7
ROMANS
  0
TEXT
  8
0
  6
CONTINUOUS
 62
     7
 10
310.0
 20
27.5
 30
0.0
 40
2.0
  1
CIRCUIT DIAGRAM / KRETSSCHEMA
  7
ROMANS
  0
TEXT
  8
0
  6
CONTINUOUS
 62
     7
 10
310.0
 20
24.261905
 30
0.0
 40
2.0
  1
RELAY UNIT / RELÄENHET
  7
ROMANS
  0
TEXT
  8
0
  6
CONTINUOUS
 62
     7
 10
310.0
 20
21.02381
 30
0.0
 40
2.0
  1
SACO 128R4
  7
ROMANS
  0
TEXT
  8
0
  6
CONTINUOUS
 62
     7
 10
50.858186
 20
1.200794
 30
0.0
 40
2.0
  1
REDRAWN WITH AUTOCAD 1993-06-28  KM / RITU Power
  7
ROMANS
  0
TEXT
  8
0
  6
CONTINUOUS
 62
     7
 10
366.278296
 20
11.587445
 30
0.0
 40
2.0
  1
7/8
  7
ROMANS
  0
TEXT
  8
0
  6
CONTINUOUS
 62
     7
 10
380.0
 20
2.5
 30
0.0
 40
2.5
  1
B
  7
ROMANS
  0
TEXT
  8
0
  6
CONTINUOUS
 62
     7
 10
315.0
 20
2.5
 30
0.0
 40
2.5
  1
RS 10021-AA
  7
ROMANS
  0
LINE
  8
0
  6
DASHED
 62
     7
 10
97.5
 20
188.0202
 30
0.0
 11
97.5
 21
183.600824
 31
0.0
  0
CIRCLE
  8
0
  6
CONTINUOUS
 62
     7
 10
100.0
 20
185.0
 30
0.0
 40
0.740939
  0
LINE
  8
0
  6
CONTINUOUS
 62
     7
 10
99.353436
 20
184.638137
 30
0.0
 11
94.256076
 21
181.785297
 31
0.0
  0
LINE
  8
0
  6
CONTINUOUS
 62
     7
 10
90.0
 20
185.0
 30
0.0
 11
95.0
 21
185.0
 31
0.0
  0
LINE
  8
0
  6
CONTINUOUS
 62
     7
 10
100.740939
 20
185.0
 30
0.0
 11
110.0
 21
185.0
 31
0.0
  0
LINE
  8
0
  6
CONTINUOUS
 62
     7
 10
125.165527
 20
163.514504
 30
0.0
 11
125.165527
 21
166.081164
 31
0.0
  0
TEXT
  8
0
  6
CONTINUOUS
 62
     7
 10
82.739519
 20
181.911574
 30
0.0
 40
2.0
  1
28
  7
ROMANS
  0
LINE
  8
0
  6
DASHED
 62
     7
 10
97.5
 20
188.0202
 30
0.0
 11
122.5
 21
188.0202
 31
0.0
  0
LINE
  8
0
  6
CENTER
 62
     7
 10
90.0
 20
200.0
 30
0.0
 11
145.0
 21
200.0
 31
0.0
  0
LINE
  8
0
  6
CENTER
 62
     7
 10
145.0
 20
200.0
 30
0.0
 11
145.0
 21
145.0
 31
0.0
  0
LINE
  8
0
  6
CENTER
 62
     7
 10
90.0
 20
60.0
 30
0.0
 11
90.0
 21
200.0
 31
0.0
  0
LINE
  8
0
  6
CONTINUOUS
 62
     7
 10
80.0
 20
185.0
 30
0.0
 11
75.0
 21
185.0
 31
0.0
  0
TEXT
  8
0
  6
CONTINUOUS
 62
     7
 10
91.633866
 20
196.174014
 30
0.0
 40
2.0
  1
SWOM 16A1 (RELAY MODULE 7)
  7
ROMANS
  0
LINE
  8
0
  6
CENTER
 62
     7
 10
145.0
 20
142.5
 30
0.0
 11
145.0
 21
95.0
 31
0.0
  0
LINE
  8
0
  6
CENTER
 62
     7
 10
145.0
 20
60.0
 30
0.0
 11
90.0
 21
60.0
 31
0.0
  0
LINE
  8
0
  6
CENTER
 62
     7
 10
145.0
 20
92.5
 30
0.0
 11
145.0
 21
60.0
 31
0.0
  0
LINE
  8
0
  6
CENTER
 62
     7
 10
80.0
 20
215.0
 30
0.0
 11
272.5
 21
215.0
 31
0.0
  0
LINE
  8
0
  6
CONTINUOUS
 62
     7
 10
80.0
 20
185.0
 30
0.0
 11
90.0
 21
185.0
 31
0.0
  0
LINE
  8
0
  6
CONTINUOUS
 62
     7
 10
80.0
 20
177.5
 30
0.0
 11
90.0
 21
177.5
 31
0.0
  0
LINE
  8
0
  6
CONTINUOUS
 62
     7
 10
80.0
 20
177.5
 30
0.0
 11
75.0
 21
177.5
 31
0.0
  0
LINE
  8
0
  6
DASHED
 62
     7
 10
97.5
 20
180.5202
 30
0.0
 11
122.5
 21
180.5202
 31
0.0
  0
TEXT
  8
0
  6
CONTINUOUS
 62
     7
 10
82.739519
 20
174.411574
 30
0.0
 40
2.0
  1
29
  7
ROMANS
  0
LINE
  8
0
  6
CONTINUOUS
 62
     7
 10
100.740939
 20
177.5
 30
0.0
 11
110.0
 21
177.5
 31
0.0
  0
LINE
  8
0
  6
CONTINUOUS
 62
     7
 10
90.0
 20
177.5
 30
0.0
 11
95.0
 21
177.5
 31
0.0
  0
LINE
  8
0
  6
CONTINUOUS
 62
     7
 10
99.353436
 20
177.138137
 30
0.0
 11
94.256076
 21
174.285297
 31
0.0
  0
CIRCLE
  8
0
  6
CONTINUOUS
 62
     7
 10
100.0
 20
177.5
 30
0.0
 40
0.740939
  0
LINE
  8
0
  6
DASHED
 62
     7
 10
97.5
 20
180.5202
 30
0.0
 11
97.5
 21
176.100824
 31
0.0
  0
LINE
  8
0
  6
CONTINUOUS
 62
     7
 10
80.0
 20
170.0
 30
0.0
 11
90.0
 21
170.0
 31
0.0
  0
LINE
  8
0
  6
CONTINUOUS
 62
     7
 10
80.0
 20
170.0
 30
0.0
 11
75.0
 21
170.0
 31
0.0
  0
LINE
  8
0
  6
DASHED
 62
     7
 10
97.5
 20
173.0202
 30
0.0
 11
122.5
 21
173.0202
 31
0.0
  0
TEXT
  8
0
  6
CONTINUOUS
 62
     7
 10
82.739519
 20
166.911574
 30
0.0
 40
2.0
  1
30
  7
ROMANS
  0
LINE
  8
0
  6
CONTINUOUS
 62
     7
 10
100.740939
 20
170.0
 30
0.0
 11
110.0
 21
170.0
 31
0.0
  0
LINE
  8
0
  6
CONTINUOUS
 62
     7
 10
90.0
 20
170.0
 30
0.0
 11
95.0
 21
170.0
 31
0.0
  0
LINE
  8
0
  6
CONTINUOUS
 62
     7
 10
99.353436
 20
169.638137
 30
0.0
 11
94.256076
 21
166.785297
 31
0.0
  0
CIRCLE
  8
0
  6
CONTINUOUS
 62
     7
 10
100.0
 20
170.0
 30
0.0
 40
0.740939
  0
LINE
  8
0
  6
DASHED
 62
     7
 10
97.5
 20
173.0202
 30
0.0
 11
97.5
 21
168.600824
 31
0.0
  0
LINE
  8
0
  6
CONTINUOUS
 62
     7
 10
80.0
 20
162.5
 30
0.0
 11
90.0
 21
162.5
 31
0.0
  0
LINE
  8
0
  6
CONTINUOUS
 62
     7
 10
80.0
 20
162.5
 30
0.0
 11
75.0
 21
162.5
 31
0.0
  0
LINE
  8
0
  6
DASHED
 62
     7
 10
97.5
 20
165.5202
 30
0.0
 11
122.5
 21
165.5202
 31
0.0
  0
TEXT
  8
0
  6
CONTINUOUS
 62
     7
 10
82.739519
 20
159.411574
 30
0.0
 40
2.0
  1
31
  7
ROMANS
  0
LINE
  8
0
  6
CONTINUOUS
 62
     7
 10
100.740939
 20
162.5
 30
0.0
 11
110.0
 21
162.5
 31
0.0
  0
LINE
  8
0
  6
CONTINUOUS
 62
     7
 10
90.0
 20
162.5
 30
0.0
 11
95.0
 21
162.5
 31
0.0
  0
LINE
  8
0
  6
CONTINUOUS
 62
     7
 10
99.353436
 20
162.138137
 30
0.0
 11
94.256076
 21
159.285297
 31
0.0
  0
CIRCLE
  8
0
  6
CONTINUOUS
 62
     7
 10
100.0
 20
162.5
 30
0.0
 40
0.740939
  0
LINE
  8
0
  6
DASHED
 62
     7
 10
97.5
 20
165.5202
 30
0.0
 11
97.5
 21
161.100824
 31
0.0
  0
LINE
  8
0
  6
CONTINUOUS
 62
     7
 10
80.0
 20
155.0
 30
0.0
 11
90.0
 21
155.0
 31
0.0
  0
LINE
  8
0
  6
CONTINUOUS
 62
     7
 10
80.0
 20
155.0
 30
0.0
 11
75.0
 21
155.0
 31
0.0
  0
LINE
  8
0
  6
DASHED
 62
     7
 10
97.5
 20
158.0202
 30
0.0
 11
122.5
 21
158.0202
 31
0.0
  0
TEXT
  8
0
  6
CONTINUOUS
 62
     7
 10
82.739519
 20
151.911574
 30
0.0
 40
2.0
  1
32
  7
ROMANS
  0
LINE
  8
0
  6
CONTINUOUS
 62
     7
 10
100.740939
 20
155.0
 30
0.0
 11
110.0
 21
155.0
 31
0.0
  0
LINE
  8
0
  6
CONTINUOUS
 62
     7
 10
90.0
 20
155.0
 30
0.0
 11
95.0
 21
155.0
 31
0.0
  0
LINE
  8
0
  6
CONTINUOUS
 62
     7
 10
99.353436
 20
154.638137
 30
0.0
 11
94.256076
 21
151.785297
 31
0.0
  0
CIRCLE
  8
0
  6
CONTINUOUS
 62
     7
 10
100.0
 20
155.0
 30
0.0
 40
0.740939
  0
LINE
  8
0
  6
DASHED
 62
     7
 10
97.5
 20
158.0202
 30
0.0
 11
97.5
 21
153.600824
 31
0.0
  0
LINE
  8
0
  6
CONTINUOUS
 62
     7
 10
80.0
 20
147.5
 30
0.0
 11
90.0
 21
147.5
 31
0.0
  0
LINE
  8
0
  6
CONTINUOUS
 62
     7
 10
80.0
 20
147.5
 30
0.0
 11
75.0
 21
147.5
 31
0.0
  0
LINE
  8
0
  6
DASHED
 62
     7
 10
97.5
 20
150.5202
 30
0.0
 11
122.5
 21
150.5202
 31
0.0
  0
TEXT
  8
0
  6
CONTINUOUS
 62
     7
 10
82.739519
 20
144.411574
 30
0.0
 40
2.0
  1
33
  7
ROMANS
  0
LINE
  8
0
  6
CONTINUOUS
 62
     7
 10
100.740939
 20
147.5
 30
0.0
 11
110.0
 21
147.5
 31
0.0
  0
LINE
  8
0
  6
CONTINUOUS
 62
     7
 10
90.0
 20
147.5
 30
0.0
 11
95.0
 21
147.5
 31
0.0
  0
LINE
  8
0
  6
CONTINUOUS
 62
     7
 10
99.353436
 20
147.138137
 30
0.0
 11
94.256076
 21
144.285297
 31
0.0
  0
CIRCLE
  8
0
  6
CONTINUOUS
 62
     7
 10
100.0
 20
147.5
 30
0.0
 40
0.740939
  0
LINE
  8
0
  6
DASHED
 62
     7
 10
97.5
 20
150.5202
 30
0.0
 11
97.5
 21
146.100824
 31
0.0
  0
LINE
  8
0
  6
CONTINUOUS
 62
     7
 10
80.0
 20
140.0
 30
0.0
 11
90.0
 21
140.0
 31
0.0
  0
LINE
  8
0
  6
CONTINUOUS
 62
     7
 10
80.0
 20
140.0
 30
0.0
 11
75.0
 21
140.0
 31
0.0
  0
LINE
  8
0
  6
DASHED
 62
     7
 10
97.5
 20
143.0202
 30
0.0
 11
122.5
 21
143.0202
 31
0.0
  0
TEXT
  8
0
  6
CONTINUOUS
 62
     7
 10
82.60784
 20
136.911574
 30
0.0
 40
2.0
  1
34
  7
ROMANS
  0
LINE
  8
0
  6
CONTINUOUS
 62
     7
 10
100.740939
 20
140.0
 30
0.0
 11
110.0
 21
140.0
 31
0.0
  0
LINE
  8
0
  6
CONTINUOUS
 62
     7
 10
90.0
 20
140.0
 30
0.0
 11
95.0
 21
140.0
 31
0.0
  0
LINE
  8
0
  6
CONTINUOUS
 62
     7
 10
99.353436
 20
139.638137
 30
0.0
 11
94.256076
 21
136.785297
 31
0.0
  0
CIRCLE
  8
0
  6
CONTINUOUS
 62
     7
 10
100.0
 20
140.0
 30
0.0
 40
0.740939
  0
LINE
  8
0
  6
DASHED
 62
     7
 10
97.5
 20
143.0202
 30
0.0
 11
97.5
 21
138.600824
 31
0.0
  0
LINE
  8
0
  6
CONTINUOUS
 62
     7
 10
80.0
 20
132.5
 30
0.0
 11
90.0
 21
132.5
 31
0.0
  0
LINE
  8
0
  6
CONTINUOUS
 62
     7
 10
80.0
 20
132.5
 30
0.0
 11
75.0
 21
132.5
 31
0.0
  0
LINE
  8
0
  6
DASHED
 62
     7
 10
97.5
 20
135.5202
 30
0.0
 11
122.5
 21
135.5202
 31
0.0
  0
TEXT
  8
0
  6
CONTINUOUS
 62
     7
 10
82.60784
 20
129.411574
 30
0.0
 40
2.0
  1
35
  7
ROMANS
  0
LINE
  8
0
  6
CONTINUOUS
 62
     7
 10
100.740939
 20
132.5
 30
0.0
 11
110.0
 21
132.5
 31
0.0
  0
LINE
  8
0
  6
CONTINUOUS
 62
     7
 10
90.0
 20
132.5
 30
0.0
 11
95.0
 21
132.5
 31
0.0
  0
LINE
  8
0
  6
CONTINUOUS
 62
     7
 10
99.353436
 20
132.138137
 30
0.0
 11
94.256076
 21
129.285297
 31
0.0
  0
CIRCLE
  8
0
  6
CONTINUOUS
 62
     7
 10
100.0
 20
132.5
 30
0.0
 40
0.740939
  0
LINE
  8
0
  6
DASHED
 62
     7
 10
97.5
 20
135.5202
 30
0.0
 11
97.5
 21
131.100824
 31
0.0
  0
LINE
  8
0
  6
DASHED
 62
     7
 10
97.5
 20
75.5202
 30
0.0
 11
97.5
 21
71.100824
 31
0.0
  0
CIRCLE
  8
0
  6
CONTINUOUS
 62
     7
 10
100.0
 20
72.5
 30
0.0
 40
0.740939
  0
LINE
  8
0
  6
CONTINUOUS
 62
     7
 10
99.353436
 20
72.138137
 30
0.0
 11
94.256076
 21
69.285297
 31
0.0
  0
LINE
  8
0
  6
CONTINUOUS
 62
     7
 10
90.0
 20
72.5
 30
0.0
 11
95.0
 21
72.5
 31
0.0
  0
LINE
  8
0
  6
CONTINUOUS
 62
     7
 10
100.740939
 20
72.5
 30
0.0
 11
110.0
 21
72.5
 31
0.0
  0
TEXT
  8
0
  6
CONTINUOUS
 62
     7
 10
83.206383
 20
69.411574
 30
0.0
 40
2.0
  1
19
  7
ROMANS
  0
LINE
  8
0
  6
DASHED
 62
     7
 10
97.5
 20
75.5202
 30
0.0
 11
122.5
 21
75.5202
 31
0.0
  0
LINE
  8
0
  6
CONTINUOUS
 62
     7
 10
80.0
 20
72.5
 30
0.0
 11
75.0
 21
72.5
 31
0.0
  0
LINE
  8
0
  6
CONTINUOUS
 62
     7
 10
80.0
 20
72.5
 30
0.0
 11
90.0
 21
72.5
 31
0.0
  0
LINE
  8
0
  6
DASHED
 62
     7
 10
97.5
 20
83.0202
 30
0.0
 11
97.5
 21
78.600824
 31
0.0
  0
CIRCLE
  8
0
  6
CONTINUOUS
 62
     7
 10
100.0
 20
80.0
 30
0.0
 40
0.740939
  0
LINE
  8
0
  6
CONTINUOUS
 62
     7
 10
99.353436
 20
79.638137
 30
0.0
 11
94.256076
 21
76.785297
 31
0.0
  0
LINE
  8
0
  6
CONTINUOUS
 62
     7
 10
90.0
 20
80.0
 30
0.0
 11
95.0
 21
80.0
 31
0.0
  0
LINE
  8
0
  6
CONTINUOUS
 62
     7
 10
100.740939
 20
80.0
 30
0.0
 11
110.0
 21
80.0
 31
0.0
  0
TEXT
  8
0
  6
CONTINUOUS
 62
     7
 10
83.098645
 20
76.911574
 30
0.0
 40
2.0
  1
18
  7
ROMANS
  0
LINE
  8
0
  6
DASHED
 62
     7
 10
97.5
 20
83.0202
 30
0.0
 11
122.5
 21
83.0202
 31
0.0
  0
LINE
  8
0
  6
CONTINUOUS
 62
     7
 10
80.0
 20
80.0
 30
0.0
 11
75.0
 21
80.0
 31
0.0
  0
LINE
  8
0
  6
CONTINUOUS
 62
     7
 10
80.0
 20
80.0
 30
0.0
 11
90.0
 21
80.0
 31
0.0
  0
LINE
  8
0
  6
DASHED
 62
     7
 10
97.5
 20
90.5202
 30
0.0
 11
97.5
 21
86.100824
 31
0.0
  0
CIRCLE
  8
0
  6
CONTINUOUS
 62
     7
 10
100.0
 20
87.5
 30
0.0
 40
0.740939
  0
LINE
  8
0
  6
CONTINUOUS
 62
     7
 10
99.353436
 20
87.138137
 30
0.0
 11
94.256076
 21
84.285297
 31
0.0
  0
LINE
  8
0
  6
CONTINUOUS
 62
     7
 10
90.0
 20
87.5
 30
0.0
 11
95.0
 21
87.5
 31
0.0
  0
LINE
  8
0
  6
CONTINUOUS
 62
     7
 10
100.740939
 20
87.5
 30
0.0
 11
110.0
 21
87.5
 31
0.0
  0
TEXT
  8
0
  6
CONTINUOUS
 62
     7
 10
82.895141
 20
84.411574
 30
0.0
 40
2.0
  1
17
  7
ROMANS
  0
LINE
  8
0
  6
DASHED
 62
     7
 10
97.5
 20
90.5202
 30
0.0
 11
122.5
 21
90.5202
 31
0.0
  0
LINE
  8
0
  6
CONTINUOUS
 62
     7
 10
80.0
 20
87.5
 30
0.0
 11
75.0
 21
87.5
 31
0.0
  0
LINE
  8
0
  6
CONTINUOUS
 62
     7
 10
80.0
 20
87.5
 30
0.0
 11
90.0
 21
87.5
 31
0.0
  0
LINE
  8
0
  6
DASHED
 62
     7
 10
97.5
 20
98.0202
 30
0.0
 11
97.5
 21
93.600824
 31
0.0
  0
CIRCLE
  8
0
  6
CONTINUOUS
 62
     7
 10
100.0
 20
95.0
 30
0.0
 40
0.740939
  0
LINE
  8
0
  6
CONTINUOUS
 62
     7
 10
99.353436
 20
94.638137
 30
0.0
 11
94.256076
 21
91.785297
 31
0.0
  0
LINE
  8
0
  6
CONTINUOUS
 62
     7
 10
90.0
 20
95.0
 30
0.0
 11
95.0
 21
95.0
 31
0.0
  0
LINE
  8
0
  6
CONTINUOUS
 62
     7
 10
100.740939
 20
95.0
 30
0.0
 11
110.0
 21
95.0
 31
0.0
  0
TEXT
  8
0
  6
CONTINUOUS
 62
     7
 10
82.895141
 20
91.911574
 30
0.0
 40
2.0
  1
16
  7
ROMANS
  0
LINE
  8
0
  6
DASHED
 62
     7
 10
97.5
 20
98.0202
 30
0.0
 11
122.5
 21
98.0202
 31
0.0
  0
LINE
  8
0
  6
CONTINUOUS
 62
     7
 10
80.0
 20
95.0
 30
0.0
 11
75.0
 21
95.0
 31
0.0
  0
LINE
  8
0
  6
CONTINUOUS
 62
     7
 10
80.0
 20
95.0
 30
0.0
 11
90.0
 21
95.0
 31
0.0
  0
LINE
  8
0
  6
DASHED
 62
     7
 10
97.5
 20
105.5202
 30
0.0
 11
97.5
 21
101.100824
 31
0.0
  0
CIRCLE
  8
0
  6
CONTINUOUS
 62
     7
 10
100.0
 20
102.5
 30
0.0
 40
0.740939
  0
LINE
  8
0
  6
CONTINUOUS
 62
     7
 10
99.353436
 20
102.138137
 30
0.0
 11
94.256076
 21
99.285297
 31
0.0
  0
LINE
  8
0
  6
CONTINUOUS
 62
     7
 10
90.0
 20
102.5
 30
0.0
 11
95.0
 21
102.5
 31
0.0
  0
LINE
  8
0
  6
CONTINUOUS
 62
     7
 10
100.740939
 20
102.5
 30
0.0
 11
110.0
 21
102.5
 31
0.0
  0
TEXT
  8
0
  6
CONTINUOUS
 62
     7
 10
82.895141
 20
99.411574
 30
0.0
 40
2.0
  1
15
  7
ROMANS
  0
LINE
  8
0
  6
DASHED
 62
     7
 10
97.5
 20
105.5202
 30
0.0
 11
122.5
 21
105.5202
 31
0.0
  0
LINE
  8
0
  6
CONTINUOUS
 62
     7
 10
80.0
 20
102.5
 30
0.0
 11
75.0
 21
102.5
 31
0.0
  0
LINE
  8
0
  6
CONTINUOUS
 62
     7
 10
80.0
 20
102.5
 30
0.0
 11
90.0
 21
102.5
 31
0.0
  0
LINE
  8
0
  6
DASHED
 62
     7
 10
97.5
 20
113.0202
 30
0.0
 11
97.5
 21
108.600824
 31
0.0
  0
CIRCLE
  8
0
  6
CONTINUOUS
 62
     7
 10
100.0
 20
110.0
 30
0.0
 40
0.740939
  0
LINE
  8
0
  6
CONTINUOUS
 62
     7
 10
99.353436
 20
109.638137
 30
0.0
 11
94.256076
 21
106.785297
 31
0.0
  0
LINE
  8
0
  6
CONTINUOUS
 62
     7
 10
90.0
 20
110.0
 30
0.0
 11
95.0
 21
110.0
 31
0.0
  0
LINE
  8
0
  6
CONTINUOUS
 62
     7
 10
100.740939
 20
110.0
 30
0.0
 11
110.0
 21
110.0
 31
0.0
  0
TEXT
  8
0
  6
CONTINUOUS
 62
     7
 10
82.60784
 20
106.911574
 30
0.0
 40
2.0
  1
14
  7
ROMANS
  0
LINE
  8
0
  6
DASHED
 62
     7
 10
97.5
 20
113.0202
 30
0.0
 11
122.5
 21
113.0202
 31
0.0
  0
LINE
  8
0
  6
CONTINUOUS
 62
     7
 10
80.0
 20
110.0
 30
0.0
 11
75.0
 21
110.0
 31
0.0
  0
LINE
  8
0
  6
CONTINUOUS
 62
     7
 10
80.0
 20
110.0
 30
0.0
 11
90.0
 21
110.0
 31
0.0
  0
LINE
  8
0
  6
DASHED
 62
     7
 10
97.5
 20
120.5202
 30
0.0
 11
97.5
 21
116.100824
 31
0.0
  0
CIRCLE
  8
0
  6
CONTINUOUS
 62
     7
 10
100.0
 20
117.5
 30
0.0
 40
0.740939
  0
LINE
  8
0
  6
CONTINUOUS
 62
     7
 10
99.353436
 20
117.138137
 30
0.0
 11
94.256076
 21
114.285297
 31
0.0
  0
LINE
  8
0
  6
CONTINUOUS
 62
     7
 10
90.0
 20
117.5
 30
0.0
 11
95.0
 21
117.5
 31
0.0
  0
LINE
  8
0
  6
CONTINUOUS
 62
     7
 10
100.740939
 20
117.5
 30
0.0
 11
110.0
 21
117.5
 31
0.0
  0
TEXT
  8
0
  6
CONTINUOUS
 62
     7
 10
82.60784
 20
114.411574
 30
0.0
 40
2.0
  1
13
  7
ROMANS
  0
LINE
  8
0
  6
DASHED
 62
     7
 10
97.5
 20
120.5202
 30
0.0
 11
122.5
 21
120.5202
 31
0.0
  0
LINE
  8
0
  6
CONTINUOUS
 62
     7
 10
80.0
 20
117.5
 30
0.0
 11
75.0
 21
117.5
 31
0.0
  0
LINE
  8
0
  6
CONTINUOUS
 62
     7
 10
80.0
 20
117.5
 30
0.0
 11
90.0
 21
117.5
 31
0.0
  0
LINE
  8
0
  6
CONTINUOUS
 62
     7
 10
80.0
 20
125.0
 30
0.0
 11
90.0
 21
125.0
 31
0.0
  0
LINE
  8
0
  6
CONTINUOUS
 62
     7
 10
80.0
 20
125.0
 30
0.0
 11
75.0
 21
125.0
 31
0.0
  0
LINE
  8
0
  6
DASHED
 62
     7
 10
97.5
 20
128.0202
 30
0.0
 11
122.5
 21
128.0202
 31
0.0
  0
TEXT
  8
0
  6
CONTINUOUS
 62
     7
 10
82.60784
 20
121.911574
 30
0.0
 40
2.0
  1
36
  7
ROMANS
  0
LINE
  8
0
  6
CONTINUOUS
 62
     7
 10
100.740939
 20
125.0
 30
0.0
 11
110.0
 21
125.0
 31
0.0
  0
LINE
  8
0
  6
CONTINUOUS
 62
     7
 10
90.0
 20
125.0
 30
0.0
 11
95.0
 21
125.0
 31
0.0
  0
LINE
  8
0
  6
CONTINUOUS
 62
     7
 10
99.353436
 20
124.638137
 30
0.0
 11
94.256076
 21
121.785297
 31
0.0
  0
CIRCLE
  8
0
  6
CONTINUOUS
 62
     7
 10
100.0
 20
125.0
 30
0.0
 40
0.740939
  0
LINE
  8
0
  6
DASHED
 62
     7
 10
97.5
 20
128.0202
 30
0.0
 11
97.5
 21
123.600824
 31
0.0
  0
LINE
  8
0
  6
CONTINUOUS
 62
     7
 10
110.0
 20
185.0
 30
0.0
 11
110.0
 21
185.0
 31
0.0
  0
LINE
  8
0
  6
CONTINUOUS
 62
     7
 10
110.0
 20
185.0
 30
0.0
 11
110.0
 21
65.0
 31
0.0
  0
LINE
  8
0
  6
CONTINUOUS
 62
     7
 10
90.0
 20
65.0
 30
0.0
 11
110.0
 21
65.0
 31
0.0
  0
LINE
  8
0
  6
CONTINUOUS
 62
     7
 10
90.0
 20
65.0
 30
0.0
 11
80.0
 21
65.0
 31
0.0
  0
LINE
  8
0
  6
CONTINUOUS
 62
     7
 10
80.0
 20
65.0
 30
0.0
 11
75.0
 21
65.0
 31
0.0
  0
TEXT
  8
0
  6
CONTINUOUS
 62
     7
 10
83.074703
 20
61.911574
 30
0.0
 40
2.0
  1
60
  7
ROMANS
  0
TEXT
  8
0
  6
CONTINUOUS
 62
     7
 10
37.258674
 20
184.150341
 30
0.0
 40
2.0
  1
RELAY CONTACT
  7
ROMANS
  0
TEXT
  8
0
  6
CONTINUOUS
 62
     7
 10
63.427586
 20
184.311033
 30
0.0
 40
2.0
  1
97
  7
ROMANS
  0
TEXT
  8
0
  6
CONTINUOUS
 62
     7
 10
37.258674
 20
176.841537
 30
0.0
 40
2.0
  1
RELAY CONTACT
  7
ROMANS
  0
TEXT
  8
0
  6
CONTINUOUS
 62
     7
 10
63.427586
 20
177.00223
 30
0.0
 40
2.0
  1
98
  7
ROMANS
  0
TEXT
  8
0
  6
CONTINUOUS
 62
     7
 10
37.258674
 20
168.769774
 30
0.0
 40
2.0
  1
RELAY CONTACT
  7
ROMANS
  0
TEXT
  8
0
  6
CONTINUOUS
 62
     7
 10
63.427586
 20
168.930467
 30
0.0
 40
2.0
  1
99
  7
ROMANS
  0
TEXT
  8
0
  6
CONTINUOUS
 62
     7
 10
37.258674
 20
161.469641
 30
0.0
 40
2.0
  1
RELAY CONTACT
  7
ROMANS
  0
TEXT
  8
0
  6
CONTINUOUS
 62
     7
 10
63.427586
 20
161.630333
 30
0.0
 40
2.0
  1
100
  7
ROMANS
  0
TEXT
  8
0
  6
CONTINUOUS
 62
     7
 10
37.258674
 20
154.550987
 30
0.0
 40
2.0
  1
RELAY CONTACT
  7
ROMANS
  0
TEXT
  8
0
  6
CONTINUOUS
 62
     7
 10
63.427586
 20
154.711679
 30
0.0
 40
2.0
  1
101
  7
ROMANS
  0
TEXT
  8
0
  6
CONTINUOUS
 62
     7
 10
37.258674
 20
146.479224
 30
0.0
 40
2.0
  1
RELAY CONTACT
  7
ROMANS
  0
TEXT
  8
0
  6
CONTINUOUS
 62
     7
 10
63.427586
 20
146.639916
 30
0.0
 40
2.0
  1
102
  7
ROMANS
  0
TEXT
  8
0
  6
CONTINUOUS
 62
     7
 10
37.258674
 20
139.17909
 30
0.0
 40
2.0
  1
RELAY CONTACT
  7
ROMANS
  0
TEXT
  8
0
  6
CONTINUOUS
 62
     7
 10
63.427586
 20
139.339783
 30
0.0
 40
2.0
  1
103
  7
ROMANS
  0
TEXT
  8
0
  6
CONTINUOUS
 62
     7
 10
37.258674
 20
131.878957
 30
0.0
 40
2.0
  1
RELAY CONTACT
  7
ROMANS
  0
TEXT
  8
0
  6
CONTINUOUS
 62
     7
 10
63.427586
 20
132.039649
 30
0.0
 40
2.0
  1
104
  7
ROMANS
  0
TEXT
  8
0
  6
CONTINUOUS
 62
     7
 10
37.258674
 20
124.578823
 30
0.0
 40
2.0
  1
RELAY CONTACT
  7
ROMANS
  0
TEXT
  8
0
  6
CONTINUOUS
 62
     7
 10
63.427586
 20
124.739515
 30
0.0
 40
2.0
  1
105
  7
ROMANS
  0
TEXT
  8
0
  6
CONTINUOUS
 62
     7
 10
37.258674
 20
116.88854
 30
0.0
 40
2.0
  1
RELAY CONTACT
  7
ROMANS
  0
TEXT
  8
0
  6
CONTINUOUS
 62
     7
 10
63.427586
 20
117.049232
 30
0.0
 40
2.0
  1
106
  7
ROMANS
  0
TEXT
  8
0
  6
CONTINUOUS
 62
     7
 10
37.258674
 20
109.198257
 30
0.0
 40
2.0
  1
RELAY CONTACT
  7
ROMANS
  0
TEXT
  8
0
  6
CONTINUOUS
 62
     7
 10
63.427586
 20
109.358949
 30
0.0
 40
2.0
  1
107
  7
ROMANS
  0
TEXT
  8
0
  6
CONTINUOUS
 62
     7
 10
37.258674
 20
101.516643
 30
0.0
 40
2.0
  1
RELAY CONTACT
  7
ROMANS
  0
TEXT
  8
0
  6
CONTINUOUS
 62
     7
 10
63.427586
 20
101.677336
 30
0.0
 40
2.0
  1
108
  7
ROMANS
  0
TEXT
  8
0
  6
CONTINUOUS
 62
     7
 10
37.258674
 20
94.597989
 30
0.0
 40
2.0
  1
RELAY CONTACT
  7
ROMANS
  0
TEXT
  8
0
  6
CONTINUOUS
 62
     7
 10
63.427586
 20
94.758682
 30
0.0
 40
2.0
  1
109
  7
ROMANS
  0
TEXT
  8
0
  6
CONTINUOUS
 62
     7
 10
37.258674
 20
86.526226
 30
0.0
 40
2.0
  1
RELAY CONTACT
  7
ROMANS
  0
TEXT
  8
0
  6
CONTINUOUS
 62
     7
 10
63.427586
 20
86.686919
 30
0.0
 40
2.0
  1
110
  7
ROMANS
  0
TEXT
  8
0
  6
CONTINUOUS
 62
     7
 10
37.258674
 20
79.226093
 30
0.0
 40
2.0
  1
RELAY CONTACT
  7
ROMANS
  0
TEXT
  8
0
  6
CONTINUOUS
 62
     7
 10
63.427586
 20
79.386785
 30
0.0
 40
2.0
  1
111
  7
ROMANS
  0
TEXT
  8
0
  6
CONTINUOUS
 62
     7
 10
37.258674
 20
71.53581
 30
0.0
 40
2.0
  1
RELAY CONTACT
  7
ROMANS
  0
TEXT
  8
0
  6
CONTINUOUS
 62
     7
 10
63.427586
 20
71.696502
 30
0.0
 40
2.0
  1
112
  7
ROMANS
  0
TEXT
  8
0
  6
CONTINUOUS
 62
     7
 10
47.876824
 20
64.235676
 30
0.0
 40
2.0
  1
COMMON
  7
ROMANS
  0
TEXT
  8
0
  6
CONTINUOUS
 62
     7
 10
63.427586
 20
64.396368
 30
0.0
 40
2.0
  1
7
  7
ROMANS
  0
TEXT
  8
0
  6
CONTINUOUS
 62
     7
 10
36.541041
 20
199.6049
 30
0.0
 40
2.0
  1
RELAY CONTACTS 97...112
  7
ROMANS
  0
TEXT
  8
0
  6
CONTINUOUS
 62
     7
 10
36.541041
 20
196.366804
 30
0.0
 40
2.0
  1
RELÄKONTAKTERNA 97...112
  7
ROMANS
  0
LINE
  8
0
  6
CONTINUOUS
 62
     7
 10
144.951412
 20
126.859344
 30
0.0
 11
148.381412
 21
126.859344
 31
0.0
  0
LINE
  8
0
  6
CONTINUOUS
 62
     7
 10
148.381412
 20
126.859344
 30
0.0
 11
148.381412
 21
127.839344
 31
0.0
  0
LINE
  8
0
  6
CONTINUOUS
 62
     7
 10
148.381412
 20
127.839344
 30
0.0
 11
144.951412
 21
127.839344
 31
0.0
  0
LINE
  8
0
  6
CONTINUOUS
 62
     7
 10
145.0
 20
127.36995
 30
0.0
 11
125.165527
 21
127.36995
 31
0.0
  0
TEXT
  8
0
  6
CONTINUOUS
 62
     7
 10
135.43229
 20
126.629574
 30
0.0
 40
2.0
  1
/
  7
ROMANS
  0
TEXT
  8
0
  6
CONTINUOUS
 62
     7
 10
138.556684
 20
128.667022
 30
0.0
 40
2.0
  1
16
  7
ROMANS
  0
TEXT
  8
0
  6
CONTINUOUS
 62
     7
 10
138.556684
 20
123.898526
 30
0.0
 40
2.0
  1
X2
  7
ROMANS
  0
TEXT
  8
0
  6
CONTINUOUS
 62
     7
 10
164.617239
 20
44.836866
 30
0.0
 40
2.0
  1
8/13...17
  7
ROMANS
  0
TEXT
  8
0
  6
CONTINUOUS
 62
     7
 10
89.320549
 20
209.393321
 30
0.0
 40
2.0
  1
RS 10021-AA  (SACO 128R4)
  7
ROMANS
  0
TEXT
  8
0
  6
CONTINUOUS
 62
     7
 10
163.946871
 20
218.019964
 30
0.0
 40
2.0
  1
6/13...17
  7
ROMANS
  0
ARC
  8
0
  6
CONTINUOUS
 62
     7
 10
110.0
 20
80.0
 30
0.0
 40
0.5
 50
180.0
 51
0.0
  0
ARC
  8
0
  6
CONTINUOUS
 62
     7
 10
110.0
 20
80.0
 30
0.0
 40
0.5
 50
0.0
 51
180.0
  0
ARC
  8
0
  6
CONTINUOUS
 62
     7
 10
110.0
 20
72.5
 30
0.0
 40
0.5
 50
180.0
 51
0.0
  0
ARC
  8
0
  6
CONTINUOUS
 62
     7
 10
110.0
 20
72.5
 30
0.0
 40
0.5
 50
0.0
 51
180.0
  0
ARC
  8
0
  6
CONTINUOUS
 62
     7
 10
110.0
 20
87.5
 30
0.0
 40
0.5
 50
180.0
 51
0.0
  0
ARC
  8
0
  6
CONTINUOUS
 62
     7
 10
110.0
 20
87.5
 30
0.0
 40
0.5
 50
0.0
 51
180.0
  0
ARC
  8
0
  6
CONTINUOUS
 62
     7
 10
110.0
 20
95.0
 30
0.0
 40
0.5
 50
180.0
 51
0.0
  0
ARC
  8
0
  6
CONTINUOUS
 62
     7
 10
110.0
 20
95.0
 30
0.0
 40
0.5
 50
0.0
 51
180.0
  0
ARC
  8
0
  6
CONTINUOUS
 62
     7
 10
110.0
 20
102.5
 30
0.0
 40
0.5
 50
180.0
 51
0.0
  0
ARC
  8
0
  6
CONTINUOUS
 62
     7
 10
110.0
 20
102.5
 30
0.0
 40
0.5
 50
0.0
 51
180.0
  0
ARC
  8
0
  6
CONTINUOUS
 62
     7
 10
110.0
 20
110.0
 30
0.0
 40
0.5
 50
180.0
 51
0.0
  0
ARC
  8
0
  6
CONTINUOUS
 62
     7
 10
110.0
 20
110.0
 30
0.0
 40
0.5
 50
0.0
 51
180.0
  0
ARC
  8
0
  6
CONTINUOUS
 62
     7
 10
110.0
 20
117.5
 30
0.0
 40
0.5
 50
180.0
 51
0.0
  0
ARC
  8
0
  6
CONTINUOUS
 62
     7
 10
110.0
 20
117.5
 30
0.0
 40
0.5
 50
0.0
 51
180.0
  0
ARC
  8
0
  6
CONTINUOUS
 62
     7
 10
110.0
 20
125.0
 30
0.0
 40
0.5
 50
180.0
 51
0.0
  0
ARC
  8
0
  6
CONTINUOUS
 62
     7
 10
110.0
 20
125.0
 30
0.0
 40
0.5
 50
0.0
 51
180.0
  0
LINE
  8
0
  6
CONTINUOUS
 62
     7
 10
130.012058
 20
126.034585
 30
0.0
 11
127.666293
 21
127.369939
 31
0.0
  0
LINE
  8
0
  6
CONTINUOUS
 62
     7
 10
127.666293
 20
127.369939
 30
0.0
 11
130.012058
 21
128.559858
 31
0.0
  0
3DFACE
  8
0
  6
CONTINUOUS
 62
     7
 10
144.951412
 20
126.859344
 30
0.0
 11
144.965132
 21
126.859344
 31
0.0
 12
144.965132
 22
127.839344
 32
0.0
 13
144.951412
 23
127.839344
 33
0.0
  0
3DFACE
  8
0
  6
CONTINUOUS
 62
     7
 10
144.965132
 20
126.859344
 30
0.0
 11
144.978852
 21
126.859344
 31
0.0
 12
144.978852
 22
127.839344
 32
0.0
 13
144.965132
 23
127.839344
 33
0.0
  0
3DFACE
  8
0
  6
CONTINUOUS
 62
     7
 10
144.978852
 20
126.859344
 30
0.0
 11
144.992572
 21
126.859344
 31
0.0
 12
144.992572
 22
127.839344
 32
0.0
 13
144.978852
 23
127.839344
 33
0.0
  0
3DFACE
  8
0
  6
CONTINUOUS
 62
     7
 10
144.992572
 20
126.859344
 30
0.0
 11
145.006292
 21
126.859344
 31
0.0
 12
145.006292
 22
127.839344
 32
0.0
 13
144.992572
 23
127.839344
 33
0.0
  0
3DFACE
  8
0
  6
CONTINUOUS
 62
     7
 10
145.006292
 20
126.859344
 30
0.0
 11
145.020012
 21
126.859344
 31
0.0
 12
145.020012
 22
127.839344
 32
0.0
 13
145.006292
 23
127.839344
 33
0.0
  0
3DFACE
  8
0
  6
CONTINUOUS
 62
     7
 10
145.020012
 20
126.859344
 30
0.0
 11
145.033732
 21
126.859344
 31
0.0
 12
145.033732
 22
127.839344
 32
0.0
 13
145.020012
 23
127.839344
 33
0.0
  0
3DFACE
  8
0
  6
CONTINUOUS
 62
     7
 10
145.033732
 20
126.859344
 30
0.0
 11
145.047452
 21
126.859344
 31
0.0
 12
145.047452
 22
127.839344
 32
0.0
 13
145.033732
 23
127.839344
 33
0.0
  0
3DFACE
  8
0
  6
CONTINUOUS
 62
     7
 10
145.047452
 20
126.859344
 30
0.0
 11
145.061172
 21
126.859344
 31
0.0
 12
145.061172
 22
127.839344
 32
0.0
 13
145.047452
 23
127.839344
 33
0.0
  0
3DFACE
  8
0
  6
CONTINUOUS
 62
     7
 10
145.061172
 20
126.859344
 30
0.0
 11
145.074892
 21
126.859344
 31
0.0
 12
145.074892
 22
127.839344
 32
0.0
 13
145.061172
 23
127.839344
 33
0.0
  0
3DFACE
  8
0
  6
CONTINUOUS
 62
     7
 10
145.074892
 20
126.859344
 30
0.0
 11
145.088612
 21
126.859344
 31
0.0
 12
145.088612
 22
127.839344
 32
0.0
 13
145.074892
 23
127.839344
 33
0.0
  0
3DFACE
  8
0
  6
CONTINUOUS
 62
     7
 10
145.088612
 20
126.859344
 30
0.0
 11
145.102332
 21
126.859344
 31
0.0
 12
145.102332
 22
127.839344
 32
0.0
 13
145.088612
 23
127.839344
 33
0.0
  0
3DFACE
  8
0
  6
CONTINUOUS
 62
     7
 10
145.102332
 20
126.859344
 30
0.0
 11
145.116052
 21
126.859344
 31
0.0
 12
145.116052
 22
127.839344
 32
0.0
 13
145.102332
 23
127.839344
 33
0.0
  0
3DFACE
  8
0
  6
CONTINUOUS
 62
     7
 10
145.116052
 20
126.859344
 30
0.0
 11
145.129772
 21
126.859344
 31
0.0
 12
145.129772
 22
127.839344
 32
0.0
 13
145.116052
 23
127.839344
 33
0.0
  0
3DFACE
  8
0
  6
CONTINUOUS
 62
     7
 10
145.129772
 20
126.859344
 30
0.0
 11
145.143492
 21
126.859344
 31
0.0
 12
145.143492
 22
127.839344
 32
0.0
 13
145.129772
 23
127.839344
 33
0.0
  0
3DFACE
  8
0
  6
CONTINUOUS
 62
     7
 10
145.143492
 20
126.859344
 30
0.0
 11
145.157212
 21
126.859344
 31
0.0
 12
145.157212
 22
127.839344
 32
0.0
 13
145.143492
 23
127.839344
 33
0.0
  0
3DFACE
  8
0
  6
CONTINUOUS
 62
     7
 10
145.157212
 20
126.859344
 30
0.0
 11
145.170932
 21
126.859344
 31
0.0
 12
145.170932
 22
127.839344
 32
0.0
 13
145.157212
 23
127.839344
 33
0.0
  0
3DFACE
  8
0
  6
CONTINUOUS
 62
     7
 10
145.170932
 20
126.859344
 30
0.0
 11
145.184652
 21
126.859344
 31
0.0
 12
145.184652
 22
127.839344
 32
0.0
 13
145.170932
 23
127.839344
 33
0.0
  0
3DFACE
  8
0
  6
CONTINUOUS
 62
     7
 10
145.184652
 20
126.859344
 30
0.0
 11
145.198372
 21
126.859344
 31
0.0
 12
145.198372
 22
127.839344
 32
0.0
 13
145.184652
 23
127.839344
 33
0.0
  0
3DFACE
  8
0
  6
CONTINUOUS
 62
     7
 10
145.198372
 20
126.859344
 30
0.0
 11
145.212092
 21
126.859344
 31
0.0
 12
145.212092
 22
127.839344
 32
0.0
 13
145.198372
 23
127.839344
 33
0.0
  0
3DFACE
  8
0
  6
CONTINUOUS
 62
     7
 10
145.212092
 20
126.859344
 30
0.0
 11
145.225812
 21
126.859344
 31
0.0
 12
145.225812
 22
127.839344
 32
0.0
 13
145.212092
 23
127.839344
 33
0.0
  0
3DFACE
  8
0
  6
CONTINUOUS
 62
     7
 10
145.225812
 20
126.859344
 30
0.0
 11
145.239532
 21
126.859344
 31
0.0
 12
145.239532
 22
127.839344
 32
0.0
 13
145.225812
 23
127.839344
 33
0.0
  0
3DFACE
  8
0
  6
CONTINUOUS
 62
     7
 10
145.239532
 20
126.859344
 30
0.0
 11
145.253252
 21
126.859344
 31
0.0
 12
145.253252
 22
127.839344
 32
0.0
 13
145.239532
 23
127.839344
 33
0.0
  0
3DFACE
  8
0
  6
CONTINUOUS
 62
     7
 10
145.253252
 20
126.859344
 30
0.0
 11
145.266972
 21
126.859344
 31
0.0
 12
145.266972
 22
127.839344
 32
0.0
 13
145.253252
 23
127.839344
 33
0.0
  0
3DFACE
  8
0
  6
CONTINUOUS
 62
     7
 10
145.266972
 20
126.859344
 30
0.0
 11
145.280692
 21
126.859344
 31
0.0
 12
145.280692
 22
127.839344
 32
0.0
 13
145.266972
 23
127.839344
 33
0.0
  0
3DFACE
  8
0
  6
CONTINUOUS
 62
     7
 10
145.280692
 20
126.859344
 30
0.0
 11
145.294412
 21
126.859344
 31
0.0
 12
145.294412
 22
127.839344
 32
0.0
 13
145.280692
 23
127.839344
 33
0.0
  0
3DFACE
  8
0
  6
CONTINUOUS
 62
     7
 10
145.294412
 20
126.859344
 30
0.0
 11
145.308132
 21
126.859344
 31
0.0
 12
145.308132
 22
127.839344
 32
0.0
 13
145.294412
 23
127.839344
 33
0.0
  0
3DFACE
  8
0
  6
CONTINUOUS
 62
     7
 10
145.308132
 20
126.859344
 30
0.0
 11
145.321852
 21
126.859344
 31
0.0
 12
145.321852
 22
127.839344
 32
0.0
 13
145.308132
 23
127.839344
 33
0.0
  0
3DFACE
  8
0
  6
CONTINUOUS
 62
     7
 10
145.321852
 20
126.859344
 30
0.0
 11
145.335572
 21
126.859344
 31
0.0
 12
145.335572
 22
127.839344
 32
0.0
 13
145.321852
 23
127.839344
 33
0.0
  0
3DFACE
  8
0
  6
CONTINUOUS
 62
     7
 10
145.335572
 20
126.859344
 30
0.0
 11
145.349292
 21
126.859344
 31
0.0
 12
145.349292
 22
127.839344
 32
0.0
 13
145.335572
 23
127.839344
 33
0.0
  0
3DFACE
  8
0
  6
CONTINUOUS
 62
     7
 10
145.349292
 20
126.859344
 30
0.0
 11
145.363012
 21
126.859344
 31
0.0
 12
145.363012
 22
127.839344
 32
0.0
 13
145.349292
 23
127.839344
 33
0.0
  0
3DFACE
  8
0
  6
CONTINUOUS
 62
     7
 10
145.363012
 20
126.859344
 30
0.0
 11
145.376732
 21
126.859344
 31
0.0
 12
145.376732
 22
127.839344
 32
0.0
 13
145.363012
 23
127.839344
 33
0.0
  0
3DFACE
  8
0
  6
CONTINUOUS
 62
     7
 10
145.376732
 20
126.859344
 30
0.0
 11
145.390452
 21
126.859344
 31
0.0
 12
145.390452
 22
127.839344
 32
0.0
 13
145.376732
 23
127.839344
 33
0.0
  0
3DFACE
  8
0
  6
CONTINUOUS
 62
     7
 10
145.390452
 20
126.859344
 30
0.0
 11
145.404172
 21
126.859344
 31
0.0
 12
145.404172
 22
127.839344
 32
0.0
 13
145.390452
 23
127.839344
 33
0.0
  0
3DFACE
  8
0
  6
CONTINUOUS
 62
     7
 10
145.404172
 20
126.859344
 30
0.0
 11
145.417892
 21
126.859344
 31
0.0
 12
145.417892
 22
127.839344
 32
0.0
 13
145.404172
 23
127.839344
 33
0.0
  0
3DFACE
  8
0
  6
CONTINUOUS
 62
     7
 10
145.417892
 20
126.859344
 30
0.0
 11
145.431612
 21
126.859344
 31
0.0
 12
145.431612
 22
127.839344
 32
0.0
 13
145.417892
 23
127.839344
 33
0.0
  0
3DFACE
  8
0
  6
CONTINUOUS
 62
     7
 10
145.431612
 20
126.859344
 30
0.0
 11
145.445332
 21
126.859344
 31
0.0
 12
145.445332
 22
127.839344
 32
0.0
 13
145.431612
 23
127.839344
 33
0.0
  0
3DFACE
  8
0
  6
CONTINUOUS
 62
     7
 10
145.445332
 20
126.859344
 30
0.0
 11
145.459052
 21
126.859344
 31
0.0
 12
145.459052
 22
127.839344
 32
0.0
 13
145.445332
 23
127.839344
 33
0.0
  0
3DFACE
  8
0
  6
CONTINUOUS
 62
     7
 10
145.459052
 20
126.859344
 30
0.0
 11
145.472772
 21
126.859344
 31
0.0
 12
145.472772
 22
127.839344
 32
0.0
 13
145.459052
 23
127.839344
 33
0.0
  0
3DFACE
  8
0
  6
CONTINUOUS
 62
     7
 10
145.472772
 20
126.859344
 30
0.0
 11
145.486492
 21
126.859344
 31
0.0
 12
145.486492
 22
127.839344
 32
0.0
 13
145.472772
 23
127.839344
 33
0.0
  0
3DFACE
  8
0
  6
CONTINUOUS
 62
     7
 10
145.486492
 20
126.859344
 30
0.0
 11
145.500212
 21
126.859344
 31
0.0
 12
145.500212
 22
127.839344
 32
0.0
 13
145.486492
 23
127.839344
 33
0.0
  0
3DFACE
  8
0
  6
CONTINUOUS
 62
     7
 10
145.500212
 20
126.859344
 30
0.0
 11
145.513932
 21
126.859344
 31
0.0
 12
145.513932
 22
127.839344
 32
0.0
 13
145.500212
 23
127.839344
 33
0.0
  0
3DFACE
  8
0
  6
CONTINUOUS
 62
     7
 10
145.513932
 20
126.859344
 30
0.0
 11
145.527652
 21
126.859344
 31
0.0
 12
145.527652
 22
127.839344
 32
0.0
 13
145.513932
 23
127.839344
 33
0.0
  0
3DFACE
  8
0
  6
CONTINUOUS
 62
     7
 10
145.527652
 20
126.859344
 30
0.0
 11
145.541372
 21
126.859344
 31
0.0
 12
145.541372
 22
127.839344
 32
0.0
 13
145.527652
 23
127.839344
 33
0.0
  0
3DFACE
  8
0
  6
CONTINUOUS
 62
     7
 10
145.541372
 20
126.859344
 30
0.0
 11
145.555092
 21
126.859344
 31
0.0
 12
145.555092
 22
127.839344
 32
0.0
 13
145.541372
 23
127.839344
 33
0.0
  0
3DFACE
  8
0
  6
CONTINUOUS
 62
     7
 10
145.555092
 20
126.859344
 30
0.0
 11
145.568812
 21
126.859344
 31
0.0
 12
145.568812
 22
127.839344
 32
0.0
 13
145.555092
 23
127.839344
 33
0.0
  0
3DFACE
  8
0
  6
CONTINUOUS
 62
     7
 10
145.568812
 20
126.859344
 30
0.0
 11
145.582532
 21
126.859344
 31
0.0
 12
145.582532
 22
127.839344
 32
0.0
 13
145.568812
 23
127.839344
 33
0.0
  0
3DFACE
  8
0
  6
CONTINUOUS
 62
     7
 10
145.582532
 20
126.859344
 30
0.0
 11
145.596252
 21
126.859344
 31
0.0
 12
145.596252
 22
127.839344
 32
0.0
 13
145.582532
 23
127.839344
 33
0.0
  0
3DFACE
  8
0
  6
CONTINUOUS
 62
     7
 10
145.596252
 20
126.859344
 30
0.0
 11
145.609972
 21
126.859344
 31
0.0
 12
145.609972
 22
127.839344
 32
0.0
 13
145.596252
 23
127.839344
 33
0.0
  0
3DFACE
  8
0
  6
CONTINUOUS
 62
     7
 10
145.609972
 20
126.859344
 30
0.0
 11
145.623692
 21
126.859344
 31
0.0
 12
145.623692
 22
127.839344
 32
0.0
 13
145.609972
 23
127.839344
 33
0.0
  0
3DFACE
  8
0
  6
CONTINUOUS
 62
     7
 10
145.623692
 20
126.859344
 30
0.0
 11
145.637412
 21
126.859344
 31
0.0
 12
145.637412
 22
127.839344
 32
0.0
 13
145.623692
 23
127.839344
 33
0.0
  0
3DFACE
  8
0
  6
CONTINUOUS
 62
     7
 10
145.637412
 20
126.859344
 30
0.0
 11
145.651132
 21
126.859344
 31
0.0
 12
145.651132
 22
127.839344
 32
0.0
 13
145.637412
 23
127.839344
 33
0.0
  0
3DFACE
  8
0
  6
CONTINUOUS
 62
     7
 10
145.651132
 20
126.859344
 30
0.0
 11
145.664852
 21
126.859344
 31
0.0
 12
145.664852
 22
127.839344
 32
0.0
 13
145.651132
 23
127.839344
 33
0.0
  0
3DFACE
  8
0
  6
CONTINUOUS
 62
     7
 10
145.664852
 20
126.859344
 30
0.0
 11
145.678572
 21
126.859344
 31
0.0
 12
145.678572
 22
127.839344
 32
0.0
 13
145.664852
 23
127.839344
 33
0.0
  0
3DFACE
  8
0
  6
CONTINUOUS
 62
     7
 10
145.678572
 20
126.859344
 30
0.0
 11
145.692292
 21
126.859344
 31
0.0
 12
145.692292
 22
127.839344
 32
0.0
 13
145.678572
 23
127.839344
 33
0.0
  0
3DFACE
  8
0
  6
CONTINUOUS
 62
     7
 10
145.692292
 20
126.859344
 30
0.0
 11
145.706012
 21
126.859344
 31
0.0
 12
145.706012
 22
127.839344
 32
0.0
 13
145.692292
 23
127.839344
 33
0.0
  0
3DFACE
  8
0
  6
CONTINUOUS
 62
     7
 10
145.706012
 20
126.859344
 30
0.0
 11
145.719732
 21
126.859344
 31
0.0
 12
145.719732
 22
127.839344
 32
0.0
 13
145.706012
 23
127.839344
 33
0.0
  0
3DFACE
  8
0
  6
CONTINUOUS
 62
     7
 10
145.719732
 20
126.859344
 30
0.0
 11
145.733452
 21
126.859344
 31
0.0
 12
145.733452
 22
127.839344
 32
0.0
 13
145.719732
 23
127.839344
 33
0.0
  0
3DFACE
  8
0
  6
CONTINUOUS
 62
     7
 10
145.733452
 20
126.859344
 30
0.0
 11
145.747172
 21
126.859344
 31
0.0
 12
145.747172
 22
127.839344
 32
0.0
 13
145.733452
 23
127.839344
 33
0.0
  0
3DFACE
  8
0
  6
CONTINUOUS
 62
     7
 10
145.747172
 20
126.859344
 30
0.0
 11
145.760892
 21
126.859344
 31
0.0
 12
145.760892
 22
127.839344
 32
0.0
 13
145.747172
 23
127.839344
 33
0.0
  0
3DFACE
  8
0
  6
CONTINUOUS
 62
     7
 10
145.760892
 20
126.859344
 30
0.0
 11
145.774612
 21
126.859344
 31
0.0
 12
145.774612
 22
127.839344
 32
0.0
 13
145.760892
 23
127.839344
 33
0.0
  0
3DFACE
  8
0
  6
CONTINUOUS
 62
     7
 10
145.774612
 20
126.859344
 30
0.0
 11
145.788332
 21
126.859344
 31
0.0
 12
145.788332
 22
127.839344
 32
0.0
 13
145.774612
 23
127.839344
 33
0.0
  0
3DFACE
  8
0
  6
CONTINUOUS
 62
     7
 10
145.788332
 20
126.859344
 30
0.0
 11
145.802052
 21
126.859344
 31
0.0
 12
145.802052
 22
127.839344
 32
0.0
 13
145.788332
 23
127.839344
 33
0.0
  0
3DFACE
  8
0
  6
CONTINUOUS
 62
     7
 10
145.802052
 20
126.859344
 30
0.0
 11
145.815772
 21
126.859344
 31
0.0
 12
145.815772
 22
127.839344
 32
0.0
 13
145.802052
 23
127.839344
 33
0.0
  0
3DFACE
  8
0
  6
CONTINUOUS
 62
     7
 10
145.815772
 20
126.859344
 30
0.0
 11
145.829492
 21
126.859344
 31
0.0
 12
145.829492
 22
127.839344
 32
0.0
 13
145.815772
 23
127.839344
 33
0.0
  0
3DFACE
  8
0
  6
CONTINUOUS
 62
     7
 10
145.829492
 20
126.859344
 30
0.0
 11
145.843212
 21
126.859344
 31
0.0
 12
145.843212
 22
127.839344
 32
0.0
 13
145.829492
 23
127.839344
 33
0.0
  0
3DFACE
  8
0
  6
CONTINUOUS
 62
     7
 10
145.843212
 20
126.859344
 30
0.0
 11
145.856932
 21
126.859344
 31
0.0
 12
145.856932
 22
127.839344
 32
0.0
 13
145.843212
 23
127.839344
 33
0.0
  0
3DFACE
  8
0
  6
CONTINUOUS
 62
     7
 10
145.856932
 20
126.859344
 30
0.0
 11
145.870652
 21
126.859344
 31
0.0
 12
145.870652
 22
127.839344
 32
0.0
 13
145.856932
 23
127.839344
 33
0.0
  0
3DFACE
  8
0
  6
CONTINUOUS
 62
     7
 10
145.870652
 20
126.859344
 30
0.0
 11
145.884372
 21
126.859344
 31
0.0
 12
145.884372
 22
127.839344
 32
0.0
 13
145.870652
 23
127.839344
 33
0.0
  0
3DFACE
  8
0
  6
CONTINUOUS
 62
     7
 10
145.884372
 20
126.859344
 30
0.0
 11
145.898092
 21
126.859344
 31
0.0
 12
145.898092
 22
127.839344
 32
0.0
 13
145.884372
 23
127.839344
 33
0.0
  0
3DFACE
  8
0
  6
CONTINUOUS
 62
     7
 10
145.898092
 20
126.859344
 30
0.0
 11
145.911812
 21
126.859344
 31
0.0
 12
145.911812
 22
127.839344
 32
0.0
 13
145.898092
 23
127.839344
 33
0.0
  0
3DFACE
  8
0
  6
CONTINUOUS
 62
     7
 10
145.911812
 20
126.859344
 30
0.0
 11
145.925532
 21
126.859344
 31
0.0
 12
145.925532
 22
127.839344
 32
0.0
 13
145.911812
 23
127.839344
 33
0.0
  0
3DFACE
  8
0
  6
CONTINUOUS
 62
     7
 10
145.925532
 20
126.859344
 30
0.0
 11
145.939252
 21
126.859344
 31
0.0
 12
145.939252
 22
127.839344
 32
0.0
 13
145.925532
 23
127.839344
 33
0.0
  0
3DFACE
  8
0
  6
CONTINUOUS
 62
     7
 10
145.939252
 20
126.859344
 30
0.0
 11
145.952972
 21
126.859344
 31
0.0
 12
145.952972
 22
127.839344
 32
0.0
 13
145.939252
 23
127.839344
 33
0.0
  0
3DFACE
  8
0
  6
CONTINUOUS
 62
     7
 10
145.952972
 20
126.859344
 30
0.0
 11
145.966692
 21
126.859344
 31
0.0
 12
145.966692
 22
127.839344
 32
0.0
 13
145.952972
 23
127.839344
 33
0.0
  0
3DFACE
  8
0
  6
CONTINUOUS
 62
     7
 10
145.966692
 20
126.859344
 30
0.0
 11
145.980412
 21
126.859344
 31
0.0
 12
145.980412
 22
127.839344
 32
0.0
 13
145.966692
 23
127.839344
 33
0.0
  0
3DFACE
  8
0
  6
CONTINUOUS
 62
     7
 10
145.980412
 20
126.859344
 30
0.0
 11
145.994132
 21
126.859344
 31
0.0
 12
145.994132
 22
127.839344
 32
0.0
 13
145.980412
 23
127.839344
 33
0.0
  0
3DFACE
  8
0
  6
CONTINUOUS
 62
     7
 10
145.994132
 20
126.859344
 30
0.0
 11
146.007852
 21
126.859344
 31
0.0
 12
146.007852
 22
127.839344
 32
0.0
 13
145.994132
 23
127.839344
 33
0.0
  0
3DFACE
  8
0
  6
CONTINUOUS
 62
     7
 10
146.007852
 20
126.859344
 30
0.0
 11
146.021572
 21
126.859344
 31
0.0
 12
146.021572
 22
127.839344
 32
0.0
 13
146.007852
 23
127.839344
 33
0.0
  0
3DFACE
  8
0
  6
CONTINUOUS
 62
     7
 10
146.021572
 20
126.859344
 30
0.0
 11
146.035292
 21
126.859344
 31
0.0
 12
146.035292
 22
127.839344
 32
0.0
 13
146.021572
 23
127.839344
 33
0.0
  0
3DFACE
  8
0
  6
CONTINUOUS
 62
     7
 10
146.035292
 20
126.859344
 30
0.0
 11
146.049012
 21
126.859344
 31
0.0
 12
146.049012
 22
127.839344
 32
0.0
 13
146.035292
 23
127.839344
 33
0.0
  0
3DFACE
  8
0
  6
CONTINUOUS
 62
     7
 10
146.049012
 20
126.859344
 30
0.0
 11
146.062732
 21
126.859344
 31
0.0
 12
146.062732
 22
127.839344
 32
0.0
 13
146.049012
 23
127.839344
 33
0.0
  0
3DFACE
  8
0
  6
CONTINUOUS
 62
     7
 10
146.062732
 20
126.859344
 30
0.0
 11
146.076452
 21
126.859344
 31
0.0
 12
146.076452
 22
127.839344
 32
0.0
 13
146.062732
 23
127.839344
 33
0.0
  0
3DFACE
  8
0
  6
CONTINUOUS
 62
     7
 10
146.076452
 20
126.859344
 30
0.0
 11
146.090172
 21
126.859344
 31
0.0
 12
146.090172
 22
127.839344
 32
0.0
 13
146.076452
 23
127.839344
 33
0.0
  0
3DFACE
  8
0
  6
CONTINUOUS
 62
     7
 10
146.090172
 20
126.859344
 30
0.0
 11
146.103892
 21
126.859344
 31
0.0
 12
146.103892
 22
127.839344
 32
0.0
 13
146.090172
 23
127.839344
 33
0.0
  0
3DFACE
  8
0
  6
CONTINUOUS
 62
     7
 10
146.103892
 20
126.859344
 30
0.0
 11
146.117612
 21
126.859344
 31
0.0
 12
146.117612
 22
127.839344
 32
0.0
 13
146.103892
 23
127.839344
 33
0.0
  0
3DFACE
  8
0
  6
CONTINUOUS
 62
     7
 10
146.117612
 20
126.859344
 30
0.0
 11
146.131332
 21
126.859344
 31
0.0
 12
146.131332
 22
127.839344
 32
0.0
 13
146.117612
 23
127.839344
 33
0.0
  0
3DFACE
  8
0
  6
CONTINUOUS
 62
     7
 10
146.131332
 20
126.859344
 30
0.0
 11
146.145052
 21
126.859344
 31
0.0
 12
146.145052
 22
127.839344
 32
0.0
 13
146.131332
 23
127.839344
 33
0.0
  0
3DFACE
  8
0
  6
CONTINUOUS
 62
     7
 10
146.145052
 20
126.859344
 30
0.0
 11
146.158772
 21
126.859344
 31
0.0
 12
146.158772
 22
127.839344
 32
0.0
 13
146.145052
 23
127.839344
 33
0.0
  0
3DFACE
  8
0
  6
CONTINUOUS
 62
     7
 10
146.158772
 20
126.859344
 30
0.0
 11
146.172492
 21
126.859344
 31
0.0
 12
146.172492
 22
127.839344
 32
0.0
 13
146.158772
 23
127.839344
 33
0.0
  0
3DFACE
  8
0
  6
CONTINUOUS
 62
     7
 10
146.172492
 20
126.859344
 30
0.0
 11
146.186212
 21
126.859344
 31
0.0
 12
146.186212
 22
127.839344
 32
0.0
 13
146.172492
 23
127.839344
 33
0.0
  0
3DFACE
  8
0
  6
CONTINUOUS
 62
     7
 10
146.186212
 20
126.859344
 30
0.0
 11
146.199932
 21
126.859344
 31
0.0
 12
146.199932
 22
127.839344
 32
0.0
 13
146.186212
 23
127.839344
 33
0.0
  0
3DFACE
  8
0
  6
CONTINUOUS
 62
     7
 10
146.199932
 20
126.859344
 30
0.0
 11
146.213652
 21
126.859344
 31
0.0
 12
146.213652
 22
127.839344
 32
0.0
 13
146.199932
 23
127.839344
 33
0.0
  0
3DFACE
  8
0
  6
CONTINUOUS
 62
     7
 10
146.213652
 20
126.859344
 30
0.0
 11
146.227372
 21
126.859344
 31
0.0
 12
146.227372
 22
127.839344
 32
0.0
 13
146.213652
 23
127.839344
 33
0.0
  0
3DFACE
  8
0
  6
CONTINUOUS
 62
     7
 10
146.227372
 20
126.859344
 30
0.0
 11
146.241092
 21
126.859344
 31
0.0
 12
146.241092
 22
127.839344
 32
0.0
 13
146.227372
 23
127.839344
 33
0.0
  0
3DFACE
  8
0
  6
CONTINUOUS
 62
     7
 10
146.241092
 20
126.859344
 30
0.0
 11
146.254812
 21
126.859344
 31
0.0
 12
146.254812
 22
127.839344
 32
0.0
 13
146.241092
 23
127.839344
 33
0.0
  0
3DFACE
  8
0
  6
CONTINUOUS
 62
     7
 10
146.254812
 20
126.859344
 30
0.0
 11
146.268532
 21
126.859344
 31
0.0
 12
146.268532
 22
127.839344
 32
0.0
 13
146.254812
 23
127.839344
 33
0.0
  0
3DFACE
  8
0
  6
CONTINUOUS
 62
     7
 10
146.268532
 20
126.859344
 30
0.0
 11
146.282252
 21
126.859344
 31
0.0
 12
146.282252
 22
127.839344
 32
0.0
 13
146.268532
 23
127.839344
 33
0.0
  0
3DFACE
  8
0
  6
CONTINUOUS
 62
     7
 10
146.282252
 20
126.859344
 30
0.0
 11
146.295972
 21
126.859344
 31
0.0
 12
146.295972
 22
127.839344
 32
0.0
 13
146.282252
 23
127.839344
 33
0.0
  0
3DFACE
  8
0
  6
CONTINUOUS
 62
     7
 10
146.295972
 20
126.859344
 30
0.0
 11
146.309692
 21
126.859344
 31
0.0
 12
146.309692
 22
127.839344
 32
0.0
 13
146.295972
 23
127.839344
 33
0.0
  0
3DFACE
  8
0
  6
CONTINUOUS
 62
     7
 10
146.309692
 20
126.859344
 30
0.0
 11
146.323412
 21
126.859344
 31
0.0
 12
146.323412
 22
127.839344
 32
0.0
 13
146.309692
 23
127.839344
 33
0.0
  0
3DFACE
  8
0
  6
CONTINUOUS
 62
     7
 10
146.323412
 20
126.859344
 30
0.0
 11
146.337132
 21
126.859344
 31
0.0
 12
146.337132
 22
127.839344
 32
0.0
 13
146.323412
 23
127.839344
 33
0.0
  0
3DFACE
  8
0
  6
CONTINUOUS
 62
     7
 10
146.337132
 20
126.859344
 30
0.0
 11
146.350852
 21
126.859344
 31
0.0
 12
146.350852
 22
127.839344
 32
0.0
 13
146.337132
 23
127.839344
 33
0.0
  0
3DFACE
  8
0
  6
CONTINUOUS
 62
     7
 10
146.350852
 20
126.859344
 30
0.0
 11
146.364572
 21
126.859344
 31
0.0
 12
146.364572
 22
127.839344
 32
0.0
 13
146.350852
 23
127.839344
 33
0.0
  0
3DFACE
  8
0
  6
CONTINUOUS
 62
     7
 10
146.364572
 20
126.859344
 30
0.0
 11
146.378292
 21
126.859344
 31
0.0
 12
146.378292
 22
127.839344
 32
0.0
 13
146.364572
 23
127.839344
 33
0.0
  0
3DFACE
  8
0
  6
CONTINUOUS
 62
     7
 10
146.378292
 20
126.859344
 30
0.0
 11
146.392012
 21
126.859344
 31
0.0
 12
146.392012
 22
127.839344
 32
0.0
 13
146.378292
 23
127.839344
 33
0.0
  0
3DFACE
  8
0
  6
CONTINUOUS
 62
     7
 10
146.392012
 20
126.859344
 30
0.0
 11
146.405732
 21
126.859344
 31
0.0
 12
146.405732
 22
127.839344
 32
0.0
 13
146.392012
 23
127.839344
 33
0.0
  0
3DFACE
  8
0
  6
CONTINUOUS
 62
     7
 10
146.405732
 20
126.859344
 30
0.0
 11
146.419452
 21
126.859344
 31
0.0
 12
146.419452
 22
127.839344
 32
0.0
 13
146.405732
 23
127.839344
 33
0.0
  0
3DFACE
  8
0
  6
CONTINUOUS
 62
     7
 10
146.419452
 20
126.859344
 30
0.0
 11
146.433172
 21
126.859344
 31
0.0
 12
146.433172
 22
127.839344
 32
0.0
 13
146.419452
 23
127.839344
 33
0.0
  0
3DFACE
  8
0
  6
CONTINUOUS
 62
     7
 10
146.433172
 20
126.859344
 30
0.0
 11
146.446892
 21
126.859344
 31
0.0
 12
146.446892
 22
127.839344
 32
0.0
 13
146.433172
 23
127.839344
 33
0.0
  0
3DFACE
  8
0
  6
CONTINUOUS
 62
     7
 10
146.446892
 20
126.859344
 30
0.0
 11
146.460612
 21
126.859344
 31
0.0
 12
146.460612
 22
127.839344
 32
0.0
 13
146.446892
 23
127.839344
 33
0.0
  0
3DFACE
  8
0
  6
CONTINUOUS
 62
     7
 10
146.460612
 20
126.859344
 30
0.0
 11
146.474332
 21
126.859344
 31
0.0
 12
146.474332
 22
127.839344
 32
0.0
 13
146.460612
 23
127.839344
 33
0.0
  0
3DFACE
  8
0
  6
CONTINUOUS
 62
     7
 10
146.474332
 20
126.859344
 30
0.0
 11
146.488052
 21
126.859344
 31
0.0
 12
146.488052
 22
127.839344
 32
0.0
 13
146.474332
 23
127.839344
 33
0.0
  0
3DFACE
  8
0
  6
CONTINUOUS
 62
     7
 10
146.488052
 20
126.859344
 30
0.0
 11
146.501772
 21
126.859344
 31
0.0
 12
146.501772
 22
127.839344
 32
0.0
 13
146.488052
 23
127.839344
 33
0.0
  0
3DFACE
  8
0
  6
CONTINUOUS
 62
     7
 10
146.501772
 20
126.859344
 30
0.0
 11
146.515492
 21
126.859344
 31
0.0
 12
146.515492
 22
127.839344
 32
0.0
 13
146.501772
 23
127.839344
 33
0.0
  0
3DFACE
  8
0
  6
CONTINUOUS
 62
     7
 10
146.515492
 20
126.859344
 30
0.0
 11
146.529212
 21
126.859344
 31
0.0
 12
146.529212
 22
127.839344
 32
0.0
 13
146.515492
 23
127.839344
 33
0.0
  0
3DFACE
  8
0
  6
CONTINUOUS
 62
     7
 10
146.529212
 20
126.859344
 30
0.0
 11
146.542932
 21
126.859344
 31
0.0
 12
146.542932
 22
127.839344
 32
0.0
 13
146.529212
 23
127.839344
 33
0.0
  0
3DFACE
  8
0
  6
CONTINUOUS
 62
     7
 10
146.542932
 20
126.859344
 30
0.0
 11
146.556652
 21
126.859344
 31
0.0
 12
146.556652
 22
127.839344
 32
0.0
 13
146.542932
 23
127.839344
 33
0.0
  0
3DFACE
  8
0
  6
CONTINUOUS
 62
     7
 10
146.556652
 20
126.859344
 30
0.0
 11
146.570372
 21
126.859344
 31
0.0
 12
146.570372
 22
127.839344
 32
0.0
 13
146.556652
 23
127.839344
 33
0.0
  0
3DFACE
  8
0
  6
CONTINUOUS
 62
     7
 10
146.570372
 20
126.859344
 30
0.0
 11
146.584092
 21
126.859344
 31
0.0
 12
146.584092
 22
127.839344
 32
0.0
 13
146.570372
 23
127.839344
 33
0.0
  0
3DFACE
  8
0
  6
CONTINUOUS
 62
     7
 10
146.584092
 20
126.859344
 30
0.0
 11
146.597812
 21
126.859344
 31
0.0
 12
146.597812
 22
127.839344
 32
0.0
 13
146.584092
 23
127.839344
 33
0.0
  0
3DFACE
  8
0
  6
CONTINUOUS
 62
     7
 10
146.597812
 20
126.859344
 30
0.0
 11
146.611532
 21
126.859344
 31
0.0
 12
146.611532
 22
127.839344
 32
0.0
 13
146.597812
 23
127.839344
 33
0.0
  0
3DFACE
  8
0
  6
CONTINUOUS
 62
     7
 10
146.611532
 20
126.859344
 30
0.0
 11
146.625252
 21
126.859344
 31
0.0
 12
146.625252
 22
127.839344
 32
0.0
 13
146.611532
 23
127.839344
 33
0.0
  0
3DFACE
  8
0
  6
CONTINUOUS
 62
     7
 10
146.625252
 20
126.859344
 30
0.0
 11
146.638972
 21
126.859344
 31
0.0
 12
146.638972
 22
127.839344
 32
0.0
 13
146.625252
 23
127.839344
 33
0.0
  0
3DFACE
  8
0
  6
CONTINUOUS
 62
     7
 10
146.638972
 20
126.859344
 30
0.0
 11
146.652692
 21
126.859344
 31
0.0
 12
146.652692
 22
127.839344
 32
0.0
 13
146.638972
 23
127.839344
 33
0.0
  0
3DFACE
  8
0
  6
CONTINUOUS
 62
     7
 10
146.652692
 20
126.859344
 30
0.0
 11
146.666412
 21
126.859344
 31
0.0
 12
146.666412
 22
127.839344
 32
0.0
 13
146.652692
 23
127.839344
 33
0.0
  0
3DFACE
  8
0
  6
CONTINUOUS
 62
     7
 10
146.666412
 20
126.859344
 30
0.0
 11
146.680132
 21
126.859344
 31
0.0
 12
146.680132
 22
127.839344
 32
0.0
 13
146.666412
 23
127.839344
 33
0.0
  0
3DFACE
  8
0
  6
CONTINUOUS
 62
     7
 10
146.680132
 20
126.859344
 30
0.0
 11
146.693852
 21
126.859344
 31
0.0
 12
146.693852
 22
127.839344
 32
0.0
 13
146.680132
 23
127.839344
 33
0.0
  0
3DFACE
  8
0
  6
CONTINUOUS
 62
     7
 10
146.693852
 20
126.859344
 30
0.0
 11
146.707572
 21
126.859344
 31
0.0
 12
146.707572
 22
127.839344
 32
0.0
 13
146.693852
 23
127.839344
 33
0.0
  0
3DFACE
  8
0
  6
CONTINUOUS
 62
     7
 10
146.707572
 20
126.859344
 30
0.0
 11
146.721292
 21
126.859344
 31
0.0
 12
146.721292
 22
127.839344
 32
0.0
 13
146.707572
 23
127.839344
 33
0.0
  0
3DFACE
  8
0
  6
CONTINUOUS
 62
     7
 10
146.721292
 20
126.859344
 30
0.0
 11
146.735012
 21
126.859344
 31
0.0
 12
146.735012
 22
127.839344
 32
0.0
 13
146.721292
 23
127.839344
 33
0.0
  0
3DFACE
  8
0
  6
CONTINUOUS
 62
     7
 10
146.735012
 20
126.859344
 30
0.0
 11
146.748732
 21
126.859344
 31
0.0
 12
146.748732
 22
127.839344
 32
0.0
 13
146.735012
 23
127.839344
 33
0.0
  0
3DFACE
  8
0
  6
CONTINUOUS
 62
     7
 10
146.748732
 20
126.859344
 30
0.0
 11
146.762452
 21
126.859344
 31
0.0
 12
146.762452
 22
127.839344
 32
0.0
 13
146.748732
 23
127.839344
 33
0.0
  0
3DFACE
  8
0
  6
CONTINUOUS
 62
     7
 10
146.762452
 20
126.859344
 30
0.0
 11
146.776172
 21
126.859344
 31
0.0
 12
146.776172
 22
127.839344
 32
0.0
 13
146.762452
 23
127.839344
 33
0.0
  0
3DFACE
  8
0
  6
CONTINUOUS
 62
     7
 10
146.776172
 20
126.859344
 30
0.0
 11
146.789892
 21
126.859344
 31
0.0
 12
146.789892
 22
127.839344
 32
0.0
 13
146.776172
 23
127.839344
 33
0.0
  0
3DFACE
  8
0
  6
CONTINUOUS
 62
     7
 10
146.789892
 20
126.859344
 30
0.0
 11
146.803612
 21
126.859344
 31
0.0
 12
146.803612
 22
127.839344
 32
0.0
 13
146.789892
 23
127.839344
 33
0.0
  0
3DFACE
  8
0
  6
CONTINUOUS
 62
     7
 10
146.803612
 20
126.859344
 30
0.0
 11
146.817332
 21
126.859344
 31
0.0
 12
146.817332
 22
127.839344
 32
0.0
 13
146.803612
 23
127.839344
 33
0.0
  0
3DFACE
  8
0
  6
CONTINUOUS
 62
     7
 10
146.817332
 20
126.859344
 30
0.0
 11
146.831052
 21
126.859344
 31
0.0
 12
146.831052
 22
127.839344
 32
0.0
 13
146.817332
 23
127.839344
 33
0.0
  0
3DFACE
  8
0
  6
CONTINUOUS
 62
     7
 10
146.831052
 20
126.859344
 30
0.0
 11
146.844772
 21
126.859344
 31
0.0
 12
146.844772
 22
127.839344
 32
0.0
 13
146.831052
 23
127.839344
 33
0.0
  0
3DFACE
  8
0
  6
CONTINUOUS
 62
     7
 10
146.844772
 20
126.859344
 30
0.0
 11
146.858492
 21
126.859344
 31
0.0
 12
146.858492
 22
127.839344
 32
0.0
 13
146.844772
 23
127.839344
 33
0.0
  0
3DFACE
  8
0
  6
CONTINUOUS
 62
     7
 10
146.858492
 20
126.859344
 30
0.0
 11
146.872212
 21
126.859344
 31
0.0
 12
146.872212
 22
127.839344
 32
0.0
 13
146.858492
 23
127.839344
 33
0.0
  0
3DFACE
  8
0
  6
CONTINUOUS
 62
     7
 10
146.872212
 20
126.859344
 30
0.0
 11
146.885932
 21
126.859344
 31
0.0
 12
146.885932
 22
127.839344
 32
0.0
 13
146.872212
 23
127.839344
 33
0.0
  0
3DFACE
  8
0
  6
CONTINUOUS
 62
     7
 10
146.885932
 20
126.859344
 30
0.0
 11
146.899652
 21
126.859344
 31
0.0
 12
146.899652
 22
127.839344
 32
0.0
 13
146.885932
 23
127.839344
 33
0.0
  0
3DFACE
  8
0
  6
CONTINUOUS
 62
     7
 10
146.899652
 20
126.859344
 30
0.0
 11
146.913372
 21
126.859344
 31
0.0
 12
146.913372
 22
127.839344
 32
0.0
 13
146.899652
 23
127.839344
 33
0.0
  0
3DFACE
  8
0
  6
CONTINUOUS
 62
     7
 10
146.913372
 20
126.859344
 30
0.0
 11
146.927092
 21
126.859344
 31
0.0
 12
146.927092
 22
127.839344
 32
0.0
 13
146.913372
 23
127.839344
 33
0.0
  0
3DFACE
  8
0
  6
CONTINUOUS
 62
     7
 10
146.927092
 20
126.859344
 30
0.0
 11
146.940812
 21
126.859344
 31
0.0
 12
146.940812
 22
127.839344
 32
0.0
 13
146.927092
 23
127.839344
 33
0.0
  0
3DFACE
  8
0
  6
CONTINUOUS
 62
     7
 10
146.940812
 20
126.859344
 30
0.0
 11
146.954532
 21
126.859344
 31
0.0
 12
146.954532
 22
127.839344
 32
0.0
 13
146.940812
 23
127.839344
 33
0.0
  0
3DFACE
  8
0
  6
CONTINUOUS
 62
     7
 10
146.954532
 20
126.859344
 30
0.0
 11
146.968252
 21
126.859344
 31
0.0
 12
146.968252
 22
127.839344
 32
0.0
 13
146.954532
 23
127.839344
 33
0.0
  0
3DFACE
  8
0
  6
CONTINUOUS
 62
     7
 10
146.968252
 20
126.859344
 30
0.0
 11
146.981972
 21
126.859344
 31
0.0
 12
146.981972
 22
127.839344
 32
0.0
 13
146.968252
 23
127.839344
 33
0.0
  0
3DFACE
  8
0
  6
CONTINUOUS
 62
     7
 10
146.981972
 20
126.859344
 30
0.0
 11
146.995692
 21
126.859344
 31
0.0
 12
146.995692
 22
127.839344
 32
0.0
 13
146.981972
 23
127.839344
 33
0.0
  0
3DFACE
  8
0
  6
CONTINUOUS
 62
     7
 10
146.995692
 20
126.859344
 30
0.0
 11
147.009412
 21
126.859344
 31
0.0
 12
147.009412
 22
127.839344
 32
0.0
 13
146.995692
 23
127.839344
 33
0.0
  0
3DFACE
  8
0
  6
CONTINUOUS
 62
     7
 10
147.009412
 20
126.859344
 30
0.0
 11
147.023132
 21
126.859344
 31
0.0
 12
147.023132
 22
127.839344
 32
0.0
 13
147.009412
 23
127.839344
 33
0.0
  0
3DFACE
  8
0
  6
CONTINUOUS
 62
     7
 10
147.023132
 20
126.859344
 30
0.0
 11
147.036852
 21
126.859344
 31
0.0
 12
147.036852
 22
127.839344
 32
0.0
 13
147.023132
 23
127.839344
 33
0.0
  0
3DFACE
  8
0
  6
CONTINUOUS
 62
     7
 10
147.036852
 20
126.859344
 30
0.0
 11
147.050572
 21
126.859344
 31
0.0
 12
147.050572
 22
127.839344
 32
0.0
 13
147.036852
 23
127.839344
 33
0.0
  0
3DFACE
  8
0
  6
CONTINUOUS
 62
     7
 10
147.050572
 20
126.859344
 30
0.0
 11
147.064292
 21
126.859344
 31
0.0
 12
147.064292
 22
127.839344
 32
0.0
 13
147.050572
 23
127.839344
 33
0.0
  0
3DFACE
  8
0
  6
CONTINUOUS
 62
     7
 10
147.064292
 20
126.859344
 30
0.0
 11
147.078012
 21
126.859344
 31
0.0
 12
147.078012
 22
127.839344
 32
0.0
 13
147.064292
 23
127.839344
 33
0.0
  0
3DFACE
  8
0
  6
CONTINUOUS
 62
     7
 10
147.078012
 20
126.859344
 30
0.0
 11
147.091732
 21
126.859344
 31
0.0
 12
147.091732
 22
127.839344
 32
0.0
 13
147.078012
 23
127.839344
 33
0.0
  0
3DFACE
  8
0
  6
CONTINUOUS
 62
     7
 10
147.091732
 20
126.859344
 30
0.0
 11
147.105452
 21
126.859344
 31
0.0
 12
147.105452
 22
127.839344
 32
0.0
 13
147.091732
 23
127.839344
 33
0.0
  0
3DFACE
  8
0
  6
CONTINUOUS
 62
     7
 10
147.105452
 20
126.859344
 30
0.0
 11
147.119172
 21
126.859344
 31
0.0
 12
147.119172
 22
127.839344
 32
0.0
 13
147.105452
 23
127.839344
 33
0.0
  0
3DFACE
  8
0
  6
CONTINUOUS
 62
     7
 10
147.119172
 20
126.859344
 30
0.0
 11
147.132892
 21
126.859344
 31
0.0
 12
147.132892
 22
127.839344
 32
0.0
 13
147.119172
 23
127.839344
 33
0.0
  0
3DFACE
  8
0
  6
CONTINUOUS
 62
     7
 10
147.132892
 20
126.859344
 30
0.0
 11
147.146612
 21
126.859344
 31
0.0
 12
147.146612
 22
127.839344
 32
0.0
 13
147.132892
 23
127.839344
 33
0.0
  0
3DFACE
  8
0
  6
CONTINUOUS
 62
     7
 10
147.146612
 20
126.859344
 30
0.0
 11
147.160332
 21
126.859344
 31
0.0
 12
147.160332
 22
127.839344
 32
0.0
 13
147.146612
 23
127.839344
 33
0.0
  0
3DFACE
  8
0
  6
CONTINUOUS
 62
     7
 10
147.160332
 20
126.859344
 30
0.0
 11
147.174052
 21
126.859344
 31
0.0
 12
147.174052
 22
127.839344
 32
0.0
 13
147.160332
 23
127.839344
 33
0.0
  0
3DFACE
  8
0
  6
CONTINUOUS
 62
     7
 10
147.174052
 20
126.859344
 30
0.0
 11
147.187772
 21
126.859344
 31
0.0
 12
147.187772
 22
127.839344
 32
0.0
 13
147.174052
 23
127.839344
 33
0.0
  0
3DFACE
  8
0
  6
CONTINUOUS
 62
     7
 10
147.187772
 20
126.859344
 30
0.0
 11
147.201492
 21
126.859344
 31
0.0
 12
147.201492
 22
127.839344
 32
0.0
 13
147.187772
 23
127.839344
 33
0.0
  0
3DFACE
  8
0
  6
CONTINUOUS
 62
     7
 10
147.201492
 20
126.859344
 30
0.0
 11
147.215212
 21
126.859344
 31
0.0
 12
147.215212
 22
127.839344
 32
0.0
 13
147.201492
 23
127.839344
 33
0.0
  0
3DFACE
  8
0
  6
CONTINUOUS
 62
     7
 10
147.215212
 20
126.859344
 30
0.0
 11
147.228932
 21
126.859344
 31
0.0
 12
147.228932
 22
127.839344
 32
0.0
 13
147.215212
 23
127.839344
 33
0.0
  0
3DFACE
  8
0
  6
CONTINUOUS
 62
     7
 10
147.228932
 20
126.859344
 30
0.0
 11
147.242652
 21
126.859344
 31
0.0
 12
147.242652
 22
127.839344
 32
0.0
 13
147.228932
 23
127.839344
 33
0.0
  0
3DFACE
  8
0
  6
CONTINUOUS
 62
     7
 10
147.242652
 20
126.859344
 30
0.0
 11
147.256372
 21
126.859344
 31
0.0
 12
147.256372
 22
127.839344
 32
0.0
 13
147.242652
 23
127.839344
 33
0.0
  0
3DFACE
  8
0
  6
CONTINUOUS
 62
     7
 10
147.256372
 20
126.859344
 30
0.0
 11
147.270092
 21
126.859344
 31
0.0
 12
147.270092
 22
127.839344
 32
0.0
 13
147.256372
 23
127.839344
 33
0.0
  0
3DFACE
  8
0
  6
CONTINUOUS
 62
     7
 10
147.270092
 20
126.859344
 30
0.0
 11
147.283812
 21
126.859344
 31
0.0
 12
147.283812
 22
127.839344
 32
0.0
 13
147.270092
 23
127.839344
 33
0.0
  0
3DFACE
  8
0
  6
CONTINUOUS
 62
     7
 10
147.283812
 20
126.859344
 30
0.0
 11
147.297532
 21
126.859344
 31
0.0
 12
147.297532
 22
127.839344
 32
0.0
 13
147.283812
 23
127.839344
 33
0.0
  0
3DFACE
  8
0
  6
CONTINUOUS
 62
     7
 10
147.297532
 20
126.859344
 30
0.0
 11
147.311252
 21
126.859344
 31
0.0
 12
147.311252
 22
127.839344
 32
0.0
 13
147.297532
 23
127.839344
 33
0.0
  0
3DFACE
  8
0
  6
CONTINUOUS
 62
     7
 10
147.311252
 20
126.859344
 30
0.0
 11
147.324972
 21
126.859344
 31
0.0
 12
147.324972
 22
127.839344
 32
0.0
 13
147.311252
 23
127.839344
 33
0.0
  0
3DFACE
  8
0
  6
CONTINUOUS
 62
     7
 10
147.324972
 20
126.859344
 30
0.0
 11
147.338692
 21
126.859344
 31
0.0
 12
147.338692
 22
127.839344
 32
0.0
 13
147.324972
 23
127.839344
 33
0.0
  0
3DFACE
  8
0
  6
CONTINUOUS
 62
     7
 10
147.338692
 20
126.859344
 30
0.0
 11
147.352412
 21
126.859344
 31
0.0
 12
147.352412
 22
127.839344
 32
0.0
 13
147.338692
 23
127.839344
 33
0.0
  0
3DFACE
  8
0
  6
CONTINUOUS
 62
     7
 10
147.352412
 20
126.859344
 30
0.0
 11
147.366132
 21
126.859344
 31
0.0
 12
147.366132
 22
127.839344
 32
0.0
 13
147.352412
 23
127.839344
 33
0.0
  0
3DFACE
  8
0
  6
CONTINUOUS
 62
     7
 10
147.366132
 20
126.859344
 30
0.0
 11
147.379852
 21
126.859344
 31
0.0
 12
147.379852
 22
127.839344
 32
0.0
 13
147.366132
 23
127.839344
 33
0.0
  0
3DFACE
  8
0
  6
CONTINUOUS
 62
     7
 10
147.379852
 20
126.859344
 30
0.0
 11
147.393572
 21
126.859344
 31
0.0
 12
147.393572
 22
127.839344
 32
0.0
 13
147.379852
 23
127.839344
 33
0.0
  0
3DFACE
  8
0
  6
CONTINUOUS
 62
     7
 10
147.393572
 20
126.859344
 30
0.0
 11
147.407292
 21
126.859344
 31
0.0
 12
147.407292
 22
127.839344
 32
0.0
 13
147.393572
 23
127.839344
 33
0.0
  0
3DFACE
  8
0
  6
CONTINUOUS
 62
     7
 10
147.407292
 20
126.859344
 30
0.0
 11
147.421012
 21
126.859344
 31
0.0
 12
147.421012
 22
127.839344
 32
0.0
 13
147.407292
 23
127.839344
 33
0.0
  0
3DFACE
  8
0
  6
CONTINUOUS
 62
     7
 10
147.421012
 20
126.859344
 30
0.0
 11
147.434732
 21
126.859344
 31
0.0
 12
147.434732
 22
127.839344
 32
0.0
 13
147.421012
 23
127.839344
 33
0.0
  0
3DFACE
  8
0
  6
CONTINUOUS
 62
     7
 10
147.434732
 20
126.859344
 30
0.0
 11
147.448452
 21
126.859344
 31
0.0
 12
147.448452
 22
127.839344
 32
0.0
 13
147.434732
 23
127.839344
 33
0.0
  0
3DFACE
  8
0
  6
CONTINUOUS
 62
     7
 10
147.448452
 20
126.859344
 30
0.0
 11
147.462172
 21
126.859344
 31
0.0
 12
147.462172
 22
127.839344
 32
0.0
 13
147.448452
 23
127.839344
 33
0.0
  0
3DFACE
  8
0
  6
CONTINUOUS
 62
     7
 10
147.462172
 20
126.859344
 30
0.0
 11
147.475892
 21
126.859344
 31
0.0
 12
147.475892
 22
127.839344
 32
0.0
 13
147.462172
 23
127.839344
 33
0.0
  0
3DFACE
  8
0
  6
CONTINUOUS
 62
     7
 10
147.475892
 20
126.859344
 30
0.0
 11
147.489612
 21
126.859344
 31
0.0
 12
147.489612
 22
127.839344
 32
0.0
 13
147.475892
 23
127.839344
 33
0.0
  0
3DFACE
  8
0
  6
CONTINUOUS
 62
     7
 10
147.489612
 20
126.859344
 30
0.0
 11
147.503332
 21
126.859344
 31
0.0
 12
147.503332
 22
127.839344
 32
0.0
 13
147.489612
 23
127.839344
 33
0.0
  0
3DFACE
  8
0
  6
CONTINUOUS
 62
     7
 10
147.503332
 20
126.859344
 30
0.0
 11
147.517052
 21
126.859344
 31
0.0
 12
147.517052
 22
127.839344
 32
0.0
 13
147.503332
 23
127.839344
 33
0.0
  0
3DFACE
  8
0
  6
CONTINUOUS
 62
     7
 10
147.517052
 20
126.859344
 30
0.0
 11
147.530772
 21
126.859344
 31
0.0
 12
147.530772
 22
127.839344
 32
0.0
 13
147.517052
 23
127.839344
 33
0.0
  0
3DFACE
  8
0
  6
CONTINUOUS
 62
     7
 10
147.530772
 20
126.859344
 30
0.0
 11
147.544492
 21
126.859344
 31
0.0
 12
147.544492
 22
127.839344
 32
0.0
 13
147.530772
 23
127.839344
 33
0.0
  0
3DFACE
  8
0
  6
CONTINUOUS
 62
     7
 10
147.544492
 20
126.859344
 30
0.0
 11
147.558212
 21
126.859344
 31
0.0
 12
147.558212
 22
127.839344
 32
0.0
 13
147.544492
 23
127.839344
 33
0.0
  0
3DFACE
  8
0
  6
CONTINUOUS
 62
     7
 10
147.558212
 20
126.859344
 30
0.0
 11
147.571932
 21
126.859344
 31
0.0
 12
147.571932
 22
127.839344
 32
0.0
 13
147.558212
 23
127.839344
 33
0.0
  0
3DFACE
  8
0
  6
CONTINUOUS
 62
     7
 10
147.571932
 20
126.859344
 30
0.0
 11
147.585652
 21
126.859344
 31
0.0
 12
147.585652
 22
127.839344
 32
0.0
 13
147.571932
 23
127.839344
 33
0.0
  0
3DFACE
  8
0
  6
CONTINUOUS
 62
     7
 10
147.585652
 20
126.859344
 30
0.0
 11
147.599372
 21
126.859344
 31
0.0
 12
147.599372
 22
127.839344
 32
0.0
 13
147.585652
 23
127.839344
 33
0.0
  0
3DFACE
  8
0
  6
CONTINUOUS
 62
     7
 10
147.599372
 20
126.859344
 30
0.0
 11
147.613092
 21
126.859344
 31
0.0
 12
147.613092
 22
127.839344
 32
0.0
 13
147.599372
 23
127.839344
 33
0.0
  0
3DFACE
  8
0
  6
CONTINUOUS
 62
     7
 10
147.613092
 20
126.859344
 30
0.0
 11
147.626812
 21
126.859344
 31
0.0
 12
147.626812
 22
127.839344
 32
0.0
 13
147.613092
 23
127.839344
 33
0.0
  0
3DFACE
  8
0
  6
CONTINUOUS
 62
     7
 10
147.626812
 20
126.859344
 30
0.0
 11
147.640532
 21
126.859344
 31
0.0
 12
147.640532
 22
127.839344
 32
0.0
 13
147.626812
 23
127.839344
 33
0.0
  0
3DFACE
  8
0
  6
CONTINUOUS
 62
     7
 10
147.640532
 20
126.859344
 30
0.0
 11
147.654252
 21
126.859344
 31
0.0
 12
147.654252
 22
127.839344
 32
0.0
 13
147.640532
 23
127.839344
 33
0.0
  0
3DFACE
  8
0
  6
CONTINUOUS
 62
     7
 10
147.654252
 20
126.859344
 30
0.0
 11
147.667972
 21
126.859344
 31
0.0
 12
147.667972
 22
127.839344
 32
0.0
 13
147.654252
 23
127.839344
 33
0.0
  0
3DFACE
  8
0
  6
CONTINUOUS
 62
     7
 10
147.667972
 20
126.859344
 30
0.0
 11
147.681692
 21
126.859344
 31
0.0
 12
147.681692
 22
127.839344
 32
0.0
 13
147.667972
 23
127.839344
 33
0.0
  0
3DFACE
  8
0
  6
CONTINUOUS
 62
     7
 10
147.681692
 20
126.859344
 30
0.0
 11
147.695412
 21
126.859344
 31
0.0
 12
147.695412
 22
127.839344
 32
0.0
 13
147.681692
 23
127.839344
 33
0.0
  0
3DFACE
  8
0
  6
CONTINUOUS
 62
     7
 10
147.695412
 20
126.859344
 30
0.0
 11
147.709132
 21
126.859344
 31
0.0
 12
147.709132
 22
127.839344
 32
0.0
 13
147.695412
 23
127.839344
 33
0.0
  0
3DFACE
  8
0
  6
CONTINUOUS
 62
     7
 10
147.709132
 20
126.859344
 30
0.0
 11
147.722852
 21
126.859344
 31
0.0
 12
147.722852
 22
127.839344
 32
0.0
 13
147.709132
 23
127.839344
 33
0.0
  0
3DFACE
  8
0
  6
CONTINUOUS
 62
     7
 10
147.722852
 20
126.859344
 30
0.0
 11
147.736572
 21
126.859344
 31
0.0
 12
147.736572
 22
127.839344
 32
0.0
 13
147.722852
 23
127.839344
 33
0.0
  0
3DFACE
  8
0
  6
CONTINUOUS
 62
     7
 10
147.736572
 20
126.859344
 30
0.0
 11
147.750292
 21
126.859344
 31
0.0
 12
147.750292
 22
127.839344
 32
0.0
 13
147.736572
 23
127.839344
 33
0.0
  0
3DFACE
  8
0
  6
CONTINUOUS
 62
     7
 10
147.750292
 20
126.859344
 30
0.0
 11
147.764012
 21
126.859344
 31
0.0
 12
147.764012
 22
127.839344
 32
0.0
 13
147.750292
 23
127.839344
 33
0.0
  0
3DFACE
  8
0
  6
CONTINUOUS
 62
     7
 10
147.764012
 20
126.859344
 30
0.0
 11
147.777732
 21
126.859344
 31
0.0
 12
147.777732
 22
127.839344
 32
0.0
 13
147.764012
 23
127.839344
 33
0.0
  0
3DFACE
  8
0
  6
CONTINUOUS
 62
     7
 10
147.777732
 20
126.859344
 30
0.0
 11
147.791452
 21
126.859344
 31
0.0
 12
147.791452
 22
127.839344
 32
0.0
 13
147.777732
 23
127.839344
 33
0.0
  0
3DFACE
  8
0
  6
CONTINUOUS
 62
     7
 10
147.791452
 20
126.859344
 30
0.0
 11
147.805172
 21
126.859344
 31
0.0
 12
147.805172
 22
127.839344
 32
0.0
 13
147.791452
 23
127.839344
 33
0.0
  0
3DFACE
  8
0
  6
CONTINUOUS
 62
     7
 10
147.805172
 20
126.859344
 30
0.0
 11
147.818892
 21
126.859344
 31
0.0
 12
147.818892
 22
127.839344
 32
0.0
 13
147.805172
 23
127.839344
 33
0.0
  0
3DFACE
  8
0
  6
CONTINUOUS
 62
     7
 10
147.818892
 20
126.859344
 30
0.0
 11
147.832612
 21
126.859344
 31
0.0
 12
147.832612
 22
127.839344
 32
0.0
 13
147.818892
 23
127.839344
 33
0.0
  0
3DFACE
  8
0
  6
CONTINUOUS
 62
     7
 10
147.832612
 20
126.859344
 30
0.0
 11
147.846332
 21
126.859344
 31
0.0
 12
147.846332
 22
127.839344
 32
0.0
 13
147.832612
 23
127.839344
 33
0.0
  0
3DFACE
  8
0
  6
CONTINUOUS
 62
     7
 10
147.846332
 20
126.859344
 30
0.0
 11
147.860052
 21
126.859344
 31
0.0
 12
147.860052
 22
127.839344
 32
0.0
 13
147.846332
 23
127.839344
 33
0.0
  0
3DFACE
  8
0
  6
CONTINUOUS
 62
     7
 10
147.860052
 20
126.859344
 30
0.0
 11
147.873772
 21
126.859344
 31
0.0
 12
147.873772
 22
127.839344
 32
0.0
 13
147.860052
 23
127.839344
 33
0.0
  0
3DFACE
  8
0
  6
CONTINUOUS
 62
     7
 10
147.873772
 20
126.859344
 30
0.0
 11
147.887492
 21
126.859344
 31
0.0
 12
147.887492
 22
127.839344
 32
0.0
 13
147.873772
 23
127.839344
 33
0.0
  0
3DFACE
  8
0
  6
CONTINUOUS
 62
     7
 10
147.887492
 20
126.859344
 30
0.0
 11
147.901212
 21
126.859344
 31
0.0
 12
147.901212
 22
127.839344
 32
0.0
 13
147.887492
 23
127.839344
 33
0.0
  0
3DFACE
  8
0
  6
CONTINUOUS
 62
     7
 10
147.901212
 20
126.859344
 30
0.0
 11
147.914932
 21
126.859344
 31
0.0
 12
147.914932
 22
127.839344
 32
0.0
 13
147.901212
 23
127.839344
 33
0.0
  0
3DFACE
  8
0
  6
CONTINUOUS
 62
     7
 10
147.914932
 20
126.859344
 30
0.0
 11
147.928652
 21
126.859344
 31
0.0
 12
147.928652
 22
127.839344
 32
0.0
 13
147.914932
 23
127.839344
 33
0.0
  0
3DFACE
  8
0
  6
CONTINUOUS
 62
     7
 10
147.928652
 20
126.859344
 30
0.0
 11
147.942372
 21
126.859344
 31
0.0
 12
147.942372
 22
127.839344
 32
0.0
 13
147.928652
 23
127.839344
 33
0.0
  0
3DFACE
  8
0
  6
CONTINUOUS
 62
     7
 10
147.942372
 20
126.859344
 30
0.0
 11
147.956092
 21
126.859344
 31
0.0
 12
147.956092
 22
127.839344
 32
0.0
 13
147.942372
 23
127.839344
 33
0.0
  0
3DFACE
  8
0
  6
CONTINUOUS
 62
     7
 10
147.956092
 20
126.859344
 30
0.0
 11
147.969812
 21
126.859344
 31
0.0
 12
147.969812
 22
127.839344
 32
0.0
 13
147.956092
 23
127.839344
 33
0.0
  0
3DFACE
  8
0
  6
CONTINUOUS
 62
     7
 10
147.969812
 20
126.859344
 30
0.0
 11
147.983532
 21
126.859344
 31
0.0
 12
147.983532
 22
127.839344
 32
0.0
 13
147.969812
 23
127.839344
 33
0.0
  0
3DFACE
  8
0
  6
CONTINUOUS
 62
     7
 10
147.983532
 20
126.859344
 30
0.0
 11
147.997252
 21
126.859344
 31
0.0
 12
147.997252
 22
127.839344
 32
0.0
 13
147.983532
 23
127.839344
 33
0.0
  0
3DFACE
  8
0
  6
CONTINUOUS
 62
     7
 10
147.997252
 20
126.859344
 30
0.0
 11
148.010972
 21
126.859344
 31
0.0
 12
148.010972
 22
127.839344
 32
0.0
 13
147.997252
 23
127.839344
 33
0.0
  0
3DFACE
  8
0
  6
CONTINUOUS
 62
     7
 10
148.010972
 20
126.859344
 30
0.0
 11
148.024692
 21
126.859344
 31
0.0
 12
148.024692
 22
127.839344
 32
0.0
 13
148.010972
 23
127.839344
 33
0.0
  0
3DFACE
  8
0
  6
CONTINUOUS
 62
     7
 10
148.024692
 20
126.859344
 30
0.0
 11
148.038412
 21
126.859344
 31
0.0
 12
148.038412
 22
127.839344
 32
0.0
 13
148.024692
 23
127.839344
 33
0.0
  0
3DFACE
  8
0
  6
CONTINUOUS
 62
     7
 10
148.038412
 20
126.859344
 30
0.0
 11
148.052132
 21
126.859344
 31
0.0
 12
148.052132
 22
127.839344
 32
0.0
 13
148.038412
 23
127.839344
 33
0.0
  0
3DFACE
  8
0
  6
CONTINUOUS
 62
     7
 10
148.052132
 20
126.859344
 30
0.0
 11
148.065852
 21
126.859344
 31
0.0
 12
148.065852
 22
127.839344
 32
0.0
 13
148.052132
 23
127.839344
 33
0.0
  0
3DFACE
  8
0
  6
CONTINUOUS
 62
     7
 10
148.065852
 20
126.859344
 30
0.0
 11
148.079572
 21
126.859344
 31
0.0
 12
148.079572
 22
127.839344
 32
0.0
 13
148.065852
 23
127.839344
 33
0.0
  0
3DFACE
  8
0
  6
CONTINUOUS
 62
     7
 10
148.079572
 20
126.859344
 30
0.0
 11
148.093292
 21
126.859344
 31
0.0
 12
148.093292
 22
127.839344
 32
0.0
 13
148.079572
 23
127.839344
 33
0.0
  0
3DFACE
  8
0
  6
CONTINUOUS
 62
     7
 10
148.093292
 20
126.859344
 30
0.0
 11
148.107012
 21
126.859344
 31
0.0
 12
148.107012
 22
127.839344
 32
0.0
 13
148.093292
 23
127.839344
 33
0.0
  0
3DFACE
  8
0
  6
CONTINUOUS
 62
     7
 10
148.107012
 20
126.859344
 30
0.0
 11
148.120732
 21
126.859344
 31
0.0
 12
148.120732
 22
127.839344
 32
0.0
 13
148.107012
 23
127.839344
 33
0.0
  0
3DFACE
  8
0
  6
CONTINUOUS
 62
     7
 10
148.120732
 20
126.859344
 30
0.0
 11
148.134452
 21
126.859344
 31
0.0
 12
148.134452
 22
127.839344
 32
0.0
 13
148.120732
 23
127.839344
 33
0.0
  0
3DFACE
  8
0
  6
CONTINUOUS
 62
     7
 10
148.134452
 20
126.859344
 30
0.0
 11
148.148172
 21
126.859344
 31
0.0
 12
148.148172
 22
127.839344
 32
0.0
 13
148.134452
 23
127.839344
 33
0.0
  0
3DFACE
  8
0
  6
CONTINUOUS
 62
     7
 10
148.148172
 20
126.859344
 30
0.0
 11
148.161892
 21
126.859344
 31
0.0
 12
148.161892
 22
127.839344
 32
0.0
 13
148.148172
 23
127.839344
 33
0.0
  0
3DFACE
  8
0
  6
CONTINUOUS
 62
     7
 10
148.161892
 20
126.859344
 30
0.0
 11
148.175612
 21
126.859344
 31
0.0
 12
148.175612
 22
127.839344
 32
0.0
 13
148.161892
 23
127.839344
 33
0.0
  0
3DFACE
  8
0
  6
CONTINUOUS
 62
     7
 10
148.175612
 20
126.859344
 30
0.0
 11
148.189332
 21
126.859344
 31
0.0
 12
148.189332
 22
127.839344
 32
0.0
 13
148.175612
 23
127.839344
 33
0.0
  0
3DFACE
  8
0
  6
CONTINUOUS
 62
     7
 10
148.189332
 20
126.859344
 30
0.0
 11
148.203052
 21
126.859344
 31
0.0
 12
148.203052
 22
127.839344
 32
0.0
 13
148.189332
 23
127.839344
 33
0.0
  0
3DFACE
  8
0
  6
CONTINUOUS
 62
     7
 10
148.203052
 20
126.859344
 30
0.0
 11
148.216772
 21
126.859344
 31
0.0
 12
148.216772
 22
127.839344
 32
0.0
 13
148.203052
 23
127.839344
 33
0.0
  0
3DFACE
  8
0
  6
CONTINUOUS
 62
     7
 10
148.216772
 20
126.859344
 30
0.0
 11
148.230492
 21
126.859344
 31
0.0
 12
148.230492
 22
127.839344
 32
0.0
 13
148.216772
 23
127.839344
 33
0.0
  0
3DFACE
  8
0
  6
CONTINUOUS
 62
     7
 10
148.230492
 20
126.859344
 30
0.0
 11
148.244212
 21
126.859344
 31
0.0
 12
148.244212
 22
127.839344
 32
0.0
 13
148.230492
 23
127.839344
 33
0.0
  0
3DFACE
  8
0
  6
CONTINUOUS
 62
     7
 10
148.244212
 20
126.859344
 30
0.0
 11
148.257932
 21
126.859344
 31
0.0
 12
148.257932
 22
127.839344
 32
0.0
 13
148.244212
 23
127.839344
 33
0.0
  0
3DFACE
  8
0
  6
CONTINUOUS
 62
     7
 10
148.257932
 20
126.859344
 30
0.0
 11
148.271652
 21
126.859344
 31
0.0
 12
148.271652
 22
127.839344
 32
0.0
 13
148.257932
 23
127.839344
 33
0.0
  0
3DFACE
  8
0
  6
CONTINUOUS
 62
     7
 10
148.271652
 20
126.859344
 30
0.0
 11
148.285372
 21
126.859344
 31
0.0
 12
148.285372
 22
127.839344
 32
0.0
 13
148.271652
 23
127.839344
 33
0.0
  0
3DFACE
  8
0
  6
CONTINUOUS
 62
     7
 10
148.285372
 20
126.859344
 30
0.0
 11
148.299092
 21
126.859344
 31
0.0
 12
148.299092
 22
127.839344
 32
0.0
 13
148.285372
 23
127.839344
 33
0.0
  0
3DFACE
  8
0
  6
CONTINUOUS
 62
     7
 10
148.299092
 20
126.859344
 30
0.0
 11
148.312812
 21
126.859344
 31
0.0
 12
148.312812
 22
127.839344
 32
0.0
 13
148.299092
 23
127.839344
 33
0.0
  0
3DFACE
  8
0
  6
CONTINUOUS
 62
     7
 10
148.312812
 20
126.859344
 30
0.0
 11
148.326532
 21
126.859344
 31
0.0
 12
148.326532
 22
127.839344
 32
0.0
 13
148.312812
 23
127.839344
 33
0.0
  0
3DFACE
  8
0
  6
CONTINUOUS
 62
     7
 10
148.326532
 20
126.859344
 30
0.0
 11
148.340252
 21
126.859344
 31
0.0
 12
148.340252
 22
127.839344
 32
0.0
 13
148.326532
 23
127.839344
 33
0.0
  0
3DFACE
  8
0
  6
CONTINUOUS
 62
     7
 10
148.340252
 20
126.859344
 30
0.0
 11
148.353972
 21
126.859344
 31
0.0
 12
148.353972
 22
127.839344
 32
0.0
 13
148.340252
 23
127.839344
 33
0.0
  0
3DFACE
  8
0
  6
CONTINUOUS
 62
     7
 10
148.353972
 20
126.859344
 30
0.0
 11
148.367692
 21
126.859344
 31
0.0
 12
148.367692
 22
127.839344
 32
0.0
 13
148.353972
 23
127.839344
 33
0.0
  0
3DFACE
  8
0
  6
CONTINUOUS
 62
     7
 10
148.367692
 20
126.859344
 30
0.0
 11
148.381412
 21
126.859344
 31
0.0
 12
148.381412
 22
127.839344
 32
0.0
 13
148.367692
 23
127.839344
 33
0.0
  0
ARC
  8
0
  6
CONTINUOUS
 62
     7
 10
110.0
 20
132.5
 30
0.0
 40
0.5
 50
180.0
 51
0.0
  0
ARC
  8
0
  6
CONTINUOUS
 62
     7
 10
110.0
 20
132.5
 30
0.0
 40
0.5
 50
0.0
 51
180.0
  0
ARC
  8
0
  6
CONTINUOUS
 62
     7
 10
110.0
 20
140.0
 30
0.0
 40
0.5
 50
180.0
 51
0.0
  0
ARC
  8
0
  6
CONTINUOUS
 62
     7
 10
110.0
 20
140.0
 30
0.0
 40
0.5
 50
0.0
 51
180.0
  0
ARC
  8
0
  6
CONTINUOUS
 62
     7
 10
110.0
 20
147.5
 30
0.0
 40
0.5
 50
180.0
 51
0.0
  0
ARC
  8
0
  6
CONTINUOUS
 62
     7
 10
110.0
 20
147.5
 30
0.0
 40
0.5
 50
0.0
 51
180.0
  0
ARC
  8
0
  6
CONTINUOUS
 62
     7
 10
110.0
 20
162.5
 30
0.0
 40
0.5
 50
180.0
 51
0.0
  0
ARC
  8
0
  6
CONTINUOUS
 62
     7
 10
110.0
 20
162.5
 30
0.0
 40
0.5
 50
0.0
 51
180.0
  0
ARC
  8
0
  6
CONTINUOUS
 62
     7
 10
110.0
 20
155.0
 30
0.0
 40
0.5
 50
180.0
 51
0.0
  0
ARC
  8
0
  6
CONTINUOUS
 62
     7
 10
110.0
 20
155.0
 30
0.0
 40
0.5
 50
0.0
 51
180.0
  0
ARC
  8
0
  6
CONTINUOUS
 62
     7
 10
110.0
 20
170.0
 30
0.0
 40
0.5
 50
180.0
 51
0.0
  0
ARC
  8
0
  6
CONTINUOUS
 62
     7
 10
110.0
 20
170.0
 30
0.0
 40
0.5
 50
0.0
 51
180.0
  0
ARC
  8
0
  6
CONTINUOUS
 62
     7
 10
110.0
 20
177.5
 30
0.0
 40
0.5
 50
180.0
 51
0.0
  0
ARC
  8
0
  6
CONTINUOUS
 62
     7
 10
110.0
 20
177.5
 30
0.0
 40
0.5
 50
0.0
 51
180.0
  0
LINE
  8
0
 62
     7
 10
223.137099
 20
6.134407
 30
0.0
 11
225.097099
 21
8.094407
 31
0.0
  0
LINE
  8
0
 62
     7
 10
223.137099
 20
6.258151
 30
0.0
 11
225.097099
 21
8.218151
 31
0.0
  0
LINE
  8
0
 62
     7
 10
223.137099
 20
6.381894
 30
0.0
 11
225.097099
 21
8.341894
 31
0.0
  0
LINE
  8
0
 62
     7
 10
223.137099
 20
6.505638
 30
0.0
 11
225.097099
 21
8.465638
 31
0.0
  0
LINE
  8
0
 62
     7
 10
223.137099
 20
6.629382
 30
0.0
 11
225.097099
 21
8.589382
 31
0.0
  0
LINE
  8
0
 62
     7
 10
223.137099
 20
6.753126
 30
0.0
 11
225.097099
 21
8.713126
 31
0.0
  0
LINE
  8
0
 62
     7
 10
223.137099
 20
6.876869
 30
0.0
 11
224.998229
 21
8.737999
 31
0.0
  0
LINE
  8
0
 62
     7
 10
223.137099
 20
7.000613
 30
0.0
 11
224.874485
 21
8.737999
 31
0.0
  0
LINE
  8
0
 62
     7
 10
223.137099
 20
7.124357
 30
0.0
 11
224.750742
 21
8.737999
 31
0.0
  0
LINE
  8
0
 62
     7
 10
223.137099
 20
7.2481
 30
0.0
 11
224.626998
 21
8.737999
 31
0.0
  0
LINE
  8
0
 62
     7
 10
223.137099
 20
7.371844
 30
0.0
 11
224.503254
 21
8.737999
 31
0.0
  0
LINE
  8
0
 62
     7
 10
223.137099
 20
7.495588
 30
0.0
 11
224.379511
 21
8.737999
 31
0.0
  0
LINE
  8
0
 62
     7
 10
223.137099
 20
7.619331
 30
0.0
 11
224.255767
 21
8.737999
 31
0.0
  0
LINE
  8
0
 62
     7
 10
223.137099
 20
7.743075
 30
0.0
 11
224.132023
 21
8.737999
 31
0.0
  0
LINE
  8
0
 62
     7
 10
223.137099
 20
7.866819
 30
0.0
 11
224.00828
 21
8.737999
 31
0.0
  0
LINE
  8
0
 62
     7
 10
223.137099
 20
7.990562
 30
0.0
 11
223.884536
 21
8.737999
 31
0.0
  0
LINE
  8
0
 62
     7
 10
223.137099
 20
8.114306
 30
0.0
 11
223.760792
 21
8.737999
 31
0.0
  0
LINE
  8
0
 62
     7
 10
223.137099
 20
8.23805
 30
0.0
 11
223.637049
 21
8.737999
 31
0.0
  0
LINE
  8
0
 62
     7
 10
223.137099
 20
8.361793
 30
0.0
 11
223.513305
 21
8.737999
 31
0.0
  0
LINE
  8
0
 62
     7
 10
223.137099
 20
8.485537
 30
0.0
 11
223.389561
 21
8.737999
 31
0.0
  0
LINE
  8
0
 62
     7
 10
223.137099
 20
8.609281
 30
0.0
 11
223.265818
 21
8.737999
 31
0.0
  0
LINE
  8
0
 62
     7
 10
223.137099
 20
8.733025
 30
0.0
 11
223.142074
 21
8.737999
 31
0.0
  0
LINE
  8
0
 62
     7
 10
223.137099
 20
6.010663
 30
0.0
 11
225.097099
 21
7.970663
 31
0.0
  0
LINE
  8
0
 62
     7
 10
223.137099
 20
5.88692
 30
0.0
 11
225.097099
 21
7.84692
 31
0.0
  0
LINE
  8
0
 62
     7
 10
223.137099
 20
5.763176
 30
0.0
 11
225.097099
 21
7.723176
 31
0.0
  0
LINE
  8
0
 62
     7
 10
223.137099
 20
5.639432
 30
0.0
 11
225.097099
 21
7.599432
 31
0.0
  0
LINE
  8
0
 62
     7
 10
223.137099
 20
5.515689
 30
0.0
 11
225.097099
 21
7.475689
 31
0.0
  0
LINE
  8
0
 62
     7
 10
223.137099
 20
5.391945
 30
0.0
 11
225.097099
 21
7.351945
 31
0.0
  0
LINE
  8
0
 62
     7
 10
223.246897
 20
5.377999
 30
0.0
 11
225.097099
 21
7.228201
 31
0.0
  0
LINE
  8
0
 62
     7
 10
223.370641
 20
5.377999
 30
0.0
 11
225.097099
 21
7.104458
 31
0.0
  0
LINE
  8
0
 62
     7
 10
223.494384
 20
5.377999
 30
0.0
 11
225.097099
 21
6.980714
 31
0.0
  0
LINE
  8
0
 62
     7
 10
223.618128
 20
5.377999
 30
0.0
 11
225.097099
 21
6.85697
 31
0.0
  0
LINE
  8
0
 62
     7
 10
223.741872
 20
5.377999
 30
0.0
 11
225.097099
 21
6.733227
 31
0.0
  0
LINE
  8
0
 62
     7
 10
223.865615
 20
5.377999
 30
0.0
 11
225.097099
 21
6.609483
 31
0.0
  0
LINE
  8
0
 62
     7
 10
223.989359
 20
5.377999
 30
0.0
 11
225.097099
 21
6.485739
 31
0.0
  0
LINE
  8
0
 62
     7
 10
224.113103
 20
5.377999
 30
0.0
 11
225.097099
 21
6.361995
 31
0.0
  0
LINE
  8
0
 62
     7
 10
224.236847
 20
5.377999
 30
0.0
 11
225.097099
 21
6.238252
 31
0.0
  0
LINE
  8
0
 62
     7
 10
224.36059
 20
5.377999
 30
0.0
 11
225.097099
 21
6.114508
 31
0.0
  0
LINE
  8
0
 62
     7
 10
224.484334
 20
5.377999
 30
0.0
 11
225.097099
 21
5.990764
 31
0.0
  0
LINE
  8
0
 62
     7
 10
224.608078
 20
5.377999
 30
0.0
 11
225.097099
 21
5.867021
 31
0.0
  0
LINE
  8
0
 62
     7
 10
224.731821
 20
5.377999
 30
0.0
 11
225.097099
 21
5.743277
 31
0.0
  0
LINE
  8
0
 62
     7
 10
224.855565
 20
5.377999
 30
0.0
 11
225.097099
 21
5.619533
 31
0.0
  0
LINE
  8
0
 62
     7
 10
224.979309
 20
5.377999
 30
0.0
 11
225.097099
 21
5.49579
 31
0.0
  0
LINE
  8
0
 62
     7
 10
225.377099
 20
6.147021
 30
0.0
 11
227.255195
 21
8.025117
 31
0.0
  0
LINE
  8
0
 62
     7
 10
225.377099
 20
6.270764
 30
0.0
 11
227.204451
 21
8.098116
 31
0.0
  0
LINE
  8
0
 62
     7
 10
225.377099
 20
6.394508
 30
0.0
 11
227.150148
 21
8.167557
 31
0.0
  0
LINE
  8
0
 62
     7
 10
225.377099
 20
6.518252
 30
0.0
 11
227.09236
 21
8.233512
 31
0.0
  0
LINE
  8
0
 62
     7
 10
225.377099
 20
6.641995
 30
0.0
 11
227.031123
 21
8.29602
 31
0.0
  0
LINE
  8
0
 62
     7
 10
225.377099
 20
6.765739
 30
0.0
 11
226.966446
 21
8.355086
 31
0.0
  0
LINE
  8
0
 62
     7
 10
225.377099
 20
6.889483
 30
0.0
 11
226.8983
 21
8.410684
 31
0.0
  0
LINE
  8
0
 62
     7
 10
225.377099
 20
7.013227
 30
0.0
 11
226.826627
 21
8.462755
 31
0.0
  0
LINE
  8
0
 62
     7
 10
225.377099
 20
7.13697
 30
0.0
 11
226.751331
 21
8.511202
 31
0.0
  0
LINE
  8
0
 62
     7
 10
225.377099
 20
7.260714
 30
0.0
 11
226.672274
 21
8.555889
 31
0.0
  0
LINE
  8
0
 62
     7
 10
225.377099
 20
7.384458
 30
0.0
 11
226.589271
 21
8.59663
 31
0.0
  0
LINE
  8
0
 62
     7
 10
225.377099
 20
7.508201
 30
0.0
 11
226.502076
 21
8.633178
 31
0.0
  0
LINE
  8
0
 62
     7
 10
225.377099
 20
7.631945
 30
0.0
 11
226.410366
 21
8.665212
 31
0.0
  0
LINE
  8
0
 62
     7
 10
225.377099
 20
7.755689
 30
0.0
 11
226.313718
 21
8.692307
 31
0.0
  0
LINE
  8
0
 62
     7
 10
225.377099
 20
7.879432
 30
0.0
 11
226.211567
 21
8.7139
 31
0.0
  0
LINE
  8
0
 62
     7
 10
225.377099
 20
8.003176
 30
0.0
 11
226.103145
 21
8.729222
 31
0.0
  0
LINE
  8
0
 62
     7
 10
225.377099
 20
8.12692
 30
0.0
 11
225.987376
 21
8.737197
 31
0.0
  0
LINE
  8
0
 62
     7
 10
225.377099
 20
8.250663
 30
0.0
 11
225.864434
 21
8.737999
 31
0.0
  0
LINE
  8
0
 62
     7
 10
225.377099
 20
8.374407
 30
0.0
 11
225.740691
 21
8.737999
 31
0.0
  0
LINE
  8
0
 62
     7
 10
225.377099
 20
8.498151
 30
0.0
 11
225.616947
 21
8.737999
 31
0.0
  0
LINE
  8
0
 62
     7
 10
225.377099
 20
8.621894
 30
0.0
 11
225.493204
 21
8.737999
 31
0.0
  0
LINE
  8
0
 62
     7
 10
225.377099
 20
6.023277
 30
0.0
 11
227.302271
 21
7.948449
 31
0.0
  0
LINE
  8
0
 62
     7
 10
225.377099
 20
5.899533
 30
0.0
 11
227.345523
 21
7.867958
 31
0.0
  0
LINE
  8
0
 62
     7
 10
225.377099
 20
5.77579
 30
0.0
 11
227.384746
 21
7.783437
 31
0.0
  0
LINE
  8
0
 62
     7
 10
225.377099
 20
5.652046
 30
0.0
 11
227.419668
 21
7.694615
 31
0.0
  0
LINE
  8
0
 62
     7
 10
225.377099
 20
5.528302
 30
0.0
 11
227.449932
 21
7.601135
 31
0.0
  0
LINE
  8
0
 62
     7
 10
225.377099
 20
5.404559
 30
0.0
 11
227.475067
 21
7.502527
 31
0.0
  0
LINE
  8
0
 62
     7
 10
225.474283
 20
5.377999
 30
0.0
 11
227.494444
 21
7.39816
 31
0.0
  0
LINE
  8
0
 62
     7
 10
225.598027
 20
5.377999
 30
0.0
 11
227.507197
 21
7.287169
 31
0.0
  0
LINE
  8
0
 62
     7
 10
225.721771
 20
5.377999
 30
0.0
 11
227.51209
 21
7.168319
 31
0.0
  0
LINE
  8
0
 62
     7
 10
225.845514
 20
5.377999
 30
0.0
 11
227.50727
 21
7.039754
 31
0.0
  0
LINE
  8
0
 62
     7
 10
225.969258
 20
5.377999
 30
0.0
 11
227.489725
 21
6.898466
 31
0.0
  0
LINE
  8
0
 62
     7
 10
226.093002
 20
5.377999
 30
0.0
 11
227.453936
 21
6.738933
 31
0.0
  0
LINE
  8
0
 62
     7
 10
226.216746
 20
5.377999
 30
0.0
 11
227.387299
 21
6.548553
 31
0.0
  0
LINE
  8
0
 62
     7
 10
226.340489
 20
5.377999
 30
0.0
 11
226.740665
 21
5.778175
 31
0.0
  0
LINE
  8
0
 62
     7
 10
226.82381
 20
5.86132
 30
0.0
 11
227.238778
 21
6.276288
 31
0.0
  0
LINE
  8
0
 62
     7
 10
226.464233
 20
5.377999
 30
0.0
 11
226.826562
 21
5.740328
 31
0.0
  0
LINE
  8
0
 62
     7
 10
226.587977
 20
5.377999
 30
0.0
 11
226.909353
 21
5.699376
 31
0.0
  0
LINE
  8
0
 62
     7
 10
226.71172
 20
5.377999
 30
0.0
 11
226.989174
 21
5.655453
 31
0.0
  0
LINE
  8
0
 62
     7
 10
226.835464
 20
5.377999
 30
0.0
 11
227.066135
 21
5.608671
 31
0.0
  0
LINE
  8
0
 62
     7
 10
226.959208
 20
5.377999
 30
0.0
 11
227.140325
 21
5.559117
 31
0.0
  0
LINE
  8
0
 62
     7
 10
227.082951
 20
5.377999
 30
0.0
 11
227.211814
 21
5.506862
 31
0.0
  0
LINE
  8
0
 62
     7
 10
227.206695
 20
5.377999
 30
0.0
 11
227.280653
 21
5.451958
 31
0.0
  0
LINE
  8
0
 62
     7
 10
227.330439
 20
5.377999
 30
0.0
 11
227.346881
 21
5.394442
 31
0.0
  0
LINE
  8
0
 62
     7
 10
219.917099
 20
6.147021
 30
0.0
 11
221.795195
 21
8.025117
 31
0.0
  0
LINE
  8
0
 62
     7
 10
219.917099
 20
6.270764
 30
0.0
 11
221.744451
 21
8.098116
 31
0.0
  0
LINE
  8
0
 62
     7
 10
219.917099
 20
6.394508
 30
0.0
 11
221.690148
 21
8.167557
 31
0.0
  0
LINE
  8
0
 62
     7
 10
219.917099
 20
6.518252
 30
0.0
 11
221.63236
 21
8.233512
 31
0.0
  0
LINE
  8
0
 62
     7
 10
219.917099
 20
6.641995
 30
0.0
 11
221.571123
 21
8.29602
 31
0.0
  0
LINE
  8
0
 62
     7
 10
219.917099
 20
6.765739
 30
0.0
 11
221.506446
 21
8.355086
 31
0.0
  0
LINE
  8
0
 62
     7
 10
219.917099
 20
6.889483
 30
0.0
 11
221.4383
 21
8.410684
 31
0.0
  0
LINE
  8
0
 62
     7
 10
219.917099
 20
7.013227
 30
0.0
 11
221.366627
 21
8.462755
 31
0.0
  0
LINE
  8
0
 62
     7
 10
219.917099
 20
7.13697
 30
0.0
 11
221.291331
 21
8.511202
 31
0.0
  0
LINE
  8
0
 62
     7
 10
219.917099
 20
7.260714
 30
0.0
 11
221.212274
 21
8.555889
 31
0.0
  0
LINE
  8
0
 62
     7
 10
219.917099
 20
7.384458
 30
0.0
 11
221.129271
 21
8.59663
 31
0.0
  0
LINE
  8
0
 62
     7
 10
219.917099
 20
7.508201
 30
0.0
 11
221.042076
 21
8.633178
 31
0.0
  0
LINE
  8
0
 62
     7
 10
219.917099
 20
7.631945
 30
0.0
 11
220.950366
 21
8.665212
 31
0.0
  0
LINE
  8
0
 62
     7
 10
219.917099
 20
7.755689
 30
0.0
 11
220.853718
 21
8.692307
 31
0.0
  0
LINE
  8
0
 62
     7
 10
219.917099
 20
7.879432
 30
0.0
 11
220.751567
 21
8.7139
 31
0.0
  0
LINE
  8
0
 62
     7
 10
219.917099
 20
8.003176
 30
0.0
 11
220.643145
 21
8.729222
 31
0.0
  0
LINE
  8
0
 62
     7
 10
219.917099
 20
8.12692
 30
0.0
 11
220.527376
 21
8.737197
 31
0.0
  0
LINE
  8
0
 62
     7
 10
219.917099
 20
8.250663
 30
0.0
 11
220.404434
 21
8.737999
 31
0.0
  0
LINE
  8
0
 62
     7
 10
219.917099
 20
8.374407
 30
0.0
 11
220.280691
 21
8.737999
 31
0.0
  0
LINE
  8
0
 62
     7
 10
219.917099
 20
8.498151
 30
0.0
 11
220.156947
 21
8.737999
 31
0.0
  0
LINE
  8
0
 62
     7
 10
219.917099
 20
8.621894
 30
0.0
 11
220.033204
 21
8.737999
 31
0.0
  0
LINE
  8
0
 62
     7
 10
219.917099
 20
6.023277
 30
0.0
 11
221.842271
 21
7.948449
 31
0.0
  0
LINE
  8
0
 62
     7
 10
219.917099
 20
5.899533
 30
0.0
 11
221.885523
 21
7.867958
 31
0.0
  0
LINE
  8
0
 62
     7
 10
219.917099
 20
5.77579
 30
0.0
 11
221.924746
 21
7.783437
 31
0.0
  0
LINE
  8
0
 62
     7
 10
219.917099
 20
5.652046
 30
0.0
 11
221.959668
 21
7.694615
 31
0.0
  0
LINE
  8
0
 62
     7
 10
219.917099
 20
5.528302
 30
0.0
 11
221.989932
 21
7.601135
 31
0.0
  0
LINE
  8
0
 62
     7
 10
219.917099
 20
5.404559
 30
0.0
 11
222.015067
 21
7.502527
 31
0.0
  0
LINE
  8
0
 62
     7
 10
220.014283
 20
5.377999
 30
0.0
 11
222.034444
 21
7.39816
 31
0.0
  0
LINE
  8
0
 62
     7
 10
220.138027
 20
5.377999
 30
0.0
 11
222.047197
 21
7.287169
 31
0.0
  0
LINE
  8
0
 62
     7
 10
220.261771
 20
5.377999
 30
0.0
 11
222.05209
 21
7.168319
 31
0.0
  0
LINE
  8
0
 62
     7
 10
220.385514
 20
5.377999
 30
0.0
 11
222.04727
 21
7.039754
 31
0.0
  0
LINE
  8
0
 62
     7
 10
220.509258
 20
5.377999
 30
0.0
 11
222.029725
 21
6.898466
 31
0.0
  0
LINE
  8
0
 62
     7
 10
220.633002
 20
5.377999
 30
0.0
 11
221.993936
 21
6.738933
 31
0.0
  0
LINE
  8
0
 62
     7
 10
220.756746
 20
5.377999
 30
0.0
 11
221.927299
 21
6.548553
 31
0.0
  0
LINE
  8
0
 62
     7
 10
220.880489
 20
5.377999
 30
0.0
 11
221.280665
 21
5.778175
 31
0.0
  0
LINE
  8
0
 62
     7
 10
221.36381
 20
5.86132
 30
0.0
 11
221.778778
 21
6.276288
 31
0.0
  0
LINE
  8
0
 62
     7
 10
221.004233
 20
5.377999
 30
0.0
 11
221.366562
 21
5.740328
 31
0.0
  0
LINE
  8
0
 62
     7
 10
221.127977
 20
5.377999
 30
0.0
 11
221.449353
 21
5.699376
 31
0.0
  0
LINE
  8
0
 62
     7
 10
221.25172
 20
5.377999
 30
0.0
 11
221.529174
 21
5.655453
 31
0.0
  0
LINE
  8
0
 62
     7
 10
221.375464
 20
5.377999
 30
0.0
 11
221.606135
 21
5.608671
 31
0.0
  0
LINE
  8
0
 62
     7
 10
221.499208
 20
5.377999
 30
0.0
 11
221.680325
 21
5.559117
 31
0.0
  0
LINE
  8
0
 62
     7
 10
221.622951
 20
5.377999
 30
0.0
 11
221.751814
 21
5.506862
 31
0.0
  0
LINE
  8
0
 62
     7
 10
221.746695
 20
5.377999
 30
0.0
 11
221.820653
 21
5.451958
 31
0.0
  0
LINE
  8
0
 62
     7
 10
221.870439
 20
5.377999
 30
0.0
 11
221.886881
 21
5.394442
 31
0.0
  0
LINE
  8
0
 62
     7
 10
217.677099
 20
6.134407
 30
0.0
 11
219.637099
 21
8.094407
 31
0.0
  0
LINE
  8
0
 62
     7
 10
217.677099
 20
6.258151
 30
0.0
 11
219.637099
 21
8.218151
 31
0.0
  0
LINE
  8
0
 62
     7
 10
217.677099
 20
6.381894
 30
0.0
 11
219.637099
 21
8.341894
 31
0.0
  0
LINE
  8
0
 62
     7
 10
217.677099
 20
6.505638
 30
0.0
 11
219.637099
 21
8.465638
 31
0.0
  0
LINE
  8
0
 62
     7
 10
217.677099
 20
6.629382
 30
0.0
 11
219.637099
 21
8.589382
 31
0.0
  0
LINE
  8
0
 62
     7
 10
217.677099
 20
6.753126
 30
0.0
 11
219.637099
 21
8.713126
 31
0.0
  0
LINE
  8
0
 62
     7
 10
217.677099
 20
6.876869
 30
0.0
 11
219.538229
 21
8.737999
 31
0.0
  0
LINE
  8
0
 62
     7
 10
217.677099
 20
7.000613
 30
0.0
 11
219.414485
 21
8.737999
 31
0.0
  0
LINE
  8
0
 62
     7
 10
217.677099
 20
7.124357
 30
0.0
 11
219.290742
 21
8.737999
 31
0.0
  0
LINE
  8
0
 62
     7
 10
217.677099
 20
7.2481
 30
0.0
 11
219.166998
 21
8.737999
 31
0.0
  0
LINE
  8
0
 62
     7
 10
217.677099
 20
7.371844
 30
0.0
 11
219.043254
 21
8.737999
 31
0.0
  0
LINE
  8
0
 62
     7
 10
217.677099
 20
7.495588
 30
0.0
 11
218.919511
 21
8.737999
 31
0.0
  0
LINE
  8
0
 62
     7
 10
217.677099
 20
7.619331
 30
0.0
 11
218.795767
 21
8.737999
 31
0.0
  0
LINE
  8
0
 62
     7
 10
217.677099
 20
7.743075
 30
0.0
 11
218.672023
 21
8.737999
 31
0.0
  0
LINE
  8
0
 62
     7
 10
217.677099
 20
7.866819
 30
0.0
 11
218.54828
 21
8.737999
 31
0.0
  0
LINE
  8
0
 62
     7
 10
217.677099
 20
7.990562
 30
0.0
 11
218.424536
 21
8.737999
 31
0.0
  0
LINE
  8
0
 62
     7
 10
217.677099
 20
8.114306
 30
0.0
 11
218.300792
 21
8.737999
 31
0.0
  0
LINE
  8
0
 62
     7
 10
217.677099
 20
8.23805
 30
0.0
 11
218.177049
 21
8.737999
 31
0.0
  0
LINE
  8
0
 62
     7
 10
217.677099
 20
8.361793
 30
0.0
 11
218.053305
 21
8.737999
 31
0.0
  0
LINE
  8
0
 62
     7
 10
217.677099
 20
8.485537
 30
0.0
 11
217.929561
 21
8.737999
 31
0.0
  0
LINE
  8
0
 62
     7
 10
217.677099
 20
8.609281
 30
0.0
 11
217.805818
 21
8.737999
 31
0.0
  0
LINE
  8
0
 62
     7
 10
217.677099
 20
8.733025
 30
0.0
 11
217.682074
 21
8.737999
 31
0.0
  0
LINE
  8
0
 62
     7
 10
217.677099
 20
6.010663
 30
0.0
 11
219.637099
 21
7.970663
 31
0.0
  0
LINE
  8
0
 62
     7
 10
217.677099
 20
5.88692
 30
0.0
 11
219.637099
 21
7.84692
 31
0.0
  0
LINE
  8
0
 62
     7
 10
217.677099
 20
5.763176
 30
0.0
 11
219.637099
 21
7.723176
 31
0.0
  0
LINE
  8
0
 62
     7
 10
217.677099
 20
5.639432
 30
0.0
 11
219.637099
 21
7.599432
 31
0.0
  0
LINE
  8
0
 62
     7
 10
217.677099
 20
5.515689
 30
0.0
 11
219.637099
 21
7.475689
 31
0.0
  0
LINE
  8
0
 62
     7
 10
217.677099
 20
5.391945
 30
0.0
 11
219.637099
 21
7.351945
 31
0.0
  0
LINE
  8
0
 62
     7
 10
217.786897
 20
5.377999
 30
0.0
 11
219.637099
 21
7.228201
 31
0.0
  0
LINE
  8
0
 62
     7
 10
217.910641
 20
5.377999
 30
0.0
 11
219.637099
 21
7.104458
 31
0.0
  0
LINE
  8
0
 62
     7
 10
218.034384
 20
5.377999
 30
0.0
 11
219.637099
 21
6.980714
 31
0.0
  0
LINE
  8
0
 62
     7
 10
218.158128
 20
5.377999
 30
0.0
 11
219.637099
 21
6.85697
 31
0.0
  0
LINE
  8
0
 62
     7
 10
218.281872
 20
5.377999
 30
0.0
 11
219.637099
 21
6.733227
 31
0.0
  0
LINE
  8
0
 62
     7
 10
218.405615
 20
5.377999
 30
0.0
 11
219.637099
 21
6.609483
 31
0.0
  0
LINE
  8
0
 62
     7
 10
218.529359
 20
5.377999
 30
0.0
 11
219.637099
 21
6.485739
 31
0.0
  0
LINE
  8
0
 62
     7
 10
218.653103
 20
5.377999
 30
0.0
 11
219.637099
 21
6.361995
 31
0.0
  0
LINE
  8
0
 62
     7
 10
218.776847
 20
5.377999
 30
0.0
 11
219.637099
 21
6.238252
 31
0.0
  0
LINE
  8
0
 62
     7
 10
218.90059
 20
5.377999
 30
0.0
 11
219.637099
 21
6.114508
 31
0.0
  0
LINE
  8
0
 62
     7
 10
219.024334
 20
5.377999
 30
0.0
 11
219.637099
 21
5.990764
 31
0.0
  0
LINE
  8
0
 62
     7
 10
219.148078
 20
5.377999
 30
0.0
 11
219.637099
 21
5.867021
 31
0.0
  0
LINE
  8
0
 62
     7
 10
219.271821
 20
5.377999
 30
0.0
 11
219.637099
 21
5.743277
 31
0.0
  0
LINE
  8
0
 62
     7
 10
219.395565
 20
5.377999
 30
0.0
 11
219.637099
 21
5.619533
 31
0.0
  0
LINE
  8
0
 62
     7
 10
219.519309
 20
5.377999
 30
0.0
 11
219.637099
 21
5.49579
 31
0.0
  0
LINE
  8
0
 62
     7
 10
213.827099
 20
5.996718
 30
0.0
 11
215.211876
 21
7.381494
 31
0.0
  0
LINE
  8
0
 62
     7
 10
213.827099
 20
6.120461
 30
0.0
 11
215.179794
 21
7.473156
 31
0.0
  0
LINE
  8
0
 62
     7
 10
213.827099
 20
6.244205
 30
0.0
 11
215.147712
 21
7.564818
 31
0.0
  0
LINE
  8
0
 62
     7
 10
213.827099
 20
6.367949
 30
0.0
 11
215.115631
 21
7.65648
 31
0.0
  0
LINE
  8
0
 62
     7
 10
213.827099
 20
6.491692
 30
0.0
 11
215.083549
 21
7.748142
 31
0.0
  0
LINE
  8
0
 62
     7
 10
213.827099
 20
6.615436
 30
0.0
 11
215.051467
 21
7.839804
 31
0.0
  0
LINE
  8
0
 62
     7
 10
213.827099
 20
6.73918
 30
0.0
 11
215.019386
 21
7.931466
 31
0.0
  0
LINE
  8
0
 62
     7
 10
213.827099
 20
6.862923
 30
0.0
 11
214.987304
 21
8.023128
 31
0.0
  0
LINE
  8
0
 62
     7
 10
213.827099
 20
6.986667
 30
0.0
 11
214.955222
 21
8.11479
 31
0.0
  0
LINE
  8
0
 62
     7
 10
213.827099
 20
7.110411
 30
0.0
 11
214.923141
 21
8.206452
 31
0.0
  0
LINE
  8
0
 62
     7
 10
213.827099
 20
7.234155
 30
0.0
 11
214.891059
 21
8.298114
 31
0.0
  0
LINE
  8
0
 62
     7
 10
213.827099
 20
7.357898
 30
0.0
 11
214.858977
 21
8.389776
 31
0.0
  0
LINE
  8
0
 62
     7
 10
213.827099
 20
7.481642
 30
0.0
 11
214.826895
 21
8.481438
 31
0.0
  0
LINE
  8
0
 62
     7
 10
213.827099
 20
7.605386
 30
0.0
 11
214.794814
 21
8.5731
 31
0.0
  0
LINE
  8
0
 62
     7
 10
213.827099
 20
7.729129
 30
0.0
 11
214.762732
 21
8.664762
 31
0.0
  0
LINE
  8
0
 62
     7
 10
213.827099
 20
7.852873
 30
0.0
 11
214.712225
 21
8.737999
 31
0.0
  0
LINE
  8
0
 62
     7
 10
213.827099
 20
7.976617
 30
0.0
 11
214.588482
 21
8.737999
 31
0.0
  0
LINE
  8
0
 62
     7
 10
213.827099
 20
8.10036
 30
0.0
 11
214.464738
 21
8.737999
 31
0.0
  0
LINE
  8
0
 62
     7
 10
213.827099
 20
8.224104
 30
0.0
 11
214.340994
 21
8.737999
 31
0.0
  0
LINE
  8
0
 62
     7
 10
213.827099
 20
8.347848
 30
0.0
 11
214.217251
 21
8.737999
 31
0.0
  0
LINE
  8
0
 62
     7
 10
213.827099
 20
8.471591
 30
0.0
 11
214.093507
 21
8.737999
 31
0.0
  0
LINE
  8
0
 62
     7
 10
213.827099
 20
8.595335
 30
0.0
 11
213.969763
 21
8.737999
 31
0.0
  0
LINE
  8
0
 62
     7
 10
213.827099
 20
8.719079
 30
0.0
 11
213.84602
 21
8.737999
 31
0.0
  0
LINE
  8
0
 62
     7
 10
213.827099
 20
5.872974
 30
0.0
 11
215.243957
 21
7.289832
 31
0.0
  0
LINE
  8
0
 62
     7
 10
213.827099
 20
5.74923
 30
0.0
 11
215.276039
 21
7.19817
 31
0.0
  0
LINE
  8
0
 62
     7
 10
213.827099
 20
5.625487
 30
0.0
 11
215.308121
 21
7.106508
 31
0.0
  0
LINE
  8
0
 62
     7
 10
213.827099
 20
5.501743
 30
0.0
 11
215.340203
 21
7.014846
 31
0.0
  0
LINE
  8
0
 62
     7
 10
213.827099
 20
5.377999
 30
0.0
 11
215.372284
 21
6.923184
 31
0.0
  0
LINE
  8
0
 62
     7
 10
213.950843
 20
5.377999
 30
0.0
 11
215.404366
 21
6.831522
 31
0.0
  0
LINE
  8
0
 62
     7
 10
214.074586
 20
5.377999
 30
0.0
 11
215.436448
 21
6.73986
 31
0.0
  0
LINE
  8
0
 62
     7
 10
214.19833
 20
5.377999
 30
0.0
 11
215.468529
 21
6.648198
 31
0.0
  0
LINE
  8
0
 62
     7
 10
214.322074
 20
5.377999
 30
0.0
 11
215.500611
 21
6.556536
 31
0.0
  0
LINE
  8
0
 62
     7
 10
214.445818
 20
5.377999
 30
0.0
 11
215.532693
 21
6.464874
 31
0.0
  0
LINE
  8
0
 62
     7
 10
214.569561
 20
5.377999
 30
0.0
 11
215.564774
 21
6.373212
 31
0.0
  0
LINE
  8
0
 62
     7
 10
214.693305
 20
5.377999
 30
0.0
 11
215.596856
 21
6.281551
 31
0.0
  0
LINE
  8
0
 62
     7
 10
214.817049
 20
5.377999
 30
0.0
 11
215.628938
 21
6.189889
 31
0.0
  0
LINE
  8
0
 62
     7
 10
214.940792
 20
5.377999
 30
0.0
 11
215.66102
 21
6.098227
 31
0.0
  0
LINE
  8
0
 62
     7
 10
215.064536
 20
5.377999
 30
0.0
 11
215.693101
 21
6.006565
 31
0.0
  0
LINE
  8
0
 62
     7
 10
215.18828
 20
5.377999
 30
0.0
 11
215.725183
 21
5.914903
 31
0.0
  0
LINE
  8
0
 62
     7
 10
215.312023
 20
5.377999
 30
0.0
 11
215.757265
 21
5.823241
 31
0.0
  0
LINE
  8
0
 62
     7
 10
215.435767
 20
5.377999
 30
0.0
 11
215.789346
 21
5.731579
 31
0.0
  0
LINE
  8
0
 62
     7
 10
215.559511
 20
5.377999
 30
0.0
 11
215.821428
 21
5.639917
 31
0.0
  0
LINE
  8
0
 62
     7
 10
215.683254
 20
5.377999
 30
0.0
 11
215.85351
 21
5.548255
 31
0.0
  0
LINE
  8
0
 62
     7
 10
215.806998
 20
5.377999
 30
0.0
 11
215.885591
 21
5.456593
 31
0.0
  0
LINE
  8
0
 62
     7
 10
211.786248
 20
6.306997
 30
0.0
 11
213.547099
 21
8.067848
 31
0.0
  0
LINE
  8
0
 62
     7
 10
211.852879
 20
6.497372
 30
0.0
 11
213.547099
 21
8.191591
 31
0.0
  0
LINE
  8
0
 62
     7
 10
211.919511
 20
6.687747
 30
0.0
 11
213.547099
 21
8.315335
 31
0.0
  0
LINE
  8
0
 62
     7
 10
211.986142
 20
6.878122
 30
0.0
 11
213.547099
 21
8.439079
 31
0.0
  0
LINE
  8
0
 62
     7
 10
212.052773
 20
7.068497
 30
0.0
 11
213.547099
 21
8.562822
 31
0.0
  0
LINE
  8
0
 62
     7
 10
212.119404
 20
7.258871
 30
0.0
 11
213.547099
 21
8.686566
 31
0.0
  0
LINE
  8
0
 62
     7
 10
212.186036
 20
7.449246
 30
0.0
 11
213.474788
 21
8.737999
 31
0.0
  0
LINE
  8
0
 62
     7
 10
212.252667
 20
7.639621
 30
0.0
 11
213.351045
 21
8.737999
 31
0.0
  0
LINE
  8
0
 62
     7
 10
212.319298
 20
7.829996
 30
0.0
 11
213.227301
 21
8.737999
 31
0.0
  0
LINE
  8
0
 62
     7
 10
212.385929
 20
8.020371
 30
0.0
 11
213.103557
 21
8.737999
 31
0.0
  0
LINE
  8
0
 62
     7
 10
212.45256
 20
8.210746
 30
0.0
 11
212.979814
 21
8.737999
 31
0.0
  0
LINE
  8
0
 62
     7
 10
212.519192
 20
8.401121
 30
0.0
 11
212.85607
 21
8.737999
 31
0.0
  0
LINE
  8
0
 62
     7
 10
212.585823
 20
8.591496
 30
0.0
 11
212.732326
 21
8.737999
 31
0.0
  0
LINE
  8
0
 62
     7
 10
211.719617
 20
6.116622
 30
0.0
 11
213.547099
 21
7.944104
 31
0.0
  0
LINE
  8
0
 62
     7
 10
211.652986
 20
5.926247
 30
0.0
 11
213.547099
 21
7.82036
 31
0.0
  0
LINE
  8
0
 62
     7
 10
211.586355
 20
5.735872
 30
0.0
 11
213.547099
 21
7.696617
 31
0.0
  0
LINE
  8
0
 62
     7
 10
211.519723
 20
5.545497
 30
0.0
 11
213.547099
 21
7.572873
 31
0.0
  0
LINE
  8
0
 62
     7
 10
211.475969
 20
5.377999
 30
0.0
 11
213.547099
 21
7.449129
 31
0.0
  0
LINE
  8
0
 62
     7
 10
211.599713
 20
5.377999
 30
0.0
 11
213.547099
 21
7.325386
 31
0.0
  0
LINE
  8
0
 62
     7
 10
211.723456
 20
5.377999
 30
0.0
 11
213.547099
 21
7.201642
 31
0.0
  0
LINE
  8
0
 62
     7
 10
211.8472
 20
5.377999
 30
0.0
 11
213.547099
 21
7.077898
 31
0.0
  0
LINE
  8
0
 62
     7
 10
211.970944
 20
5.377999
 30
0.0
 11
213.547099
 21
6.954155
 31
0.0
  0
LINE
  8
0
 62
     7
 10
212.094687
 20
5.377999
 30
0.0
 11
213.547099
 21
6.830411
 31
0.0
  0
LINE
  8
0
 62
     7
 10
212.218431
 20
5.377999
 30
0.0
 11
213.547099
 21
6.706667
 31
0.0
  0
LINE
  8
0
 62
     7
 10
212.342175
 20
5.377999
 30
0.0
 11
213.547099
 21
6.582923
 31
0.0
  0
LINE
  8
0
 62
     7
 10
212.465919
 20
5.377999
 30
0.0
 11
213.547099
 21
6.45918
 31
0.0
  0
LINE
  8
0
 62
     7
 10
212.589662
 20
5.377999
 30
0.0
 11
213.547099
 21
6.335436
 31
0.0
  0
LINE
  8
0
 62
     7
 10
212.713406
 20
5.377999
 30
0.0
 11
213.547099
 21
6.211692
 31
0.0
  0
LINE
  8
0
 62
     7
 10
212.83715
 20
5.377999
 30
0.0
 11
213.547099
 21
6.087949
 31
0.0
  0
LINE
  8
0
 62
     7
 10
212.960893
 20
5.377999
 30
0.0
 11
213.547099
 21
5.964205
 31
0.0
  0
LINE
  8
0
 62
     7
 10
213.084637
 20
5.377999
 30
0.0
 11
213.547099
 21
5.840461
 31
0.0
  0
LINE
  8
0
 62
     7
 10
213.208381
 20
5.377999
 30
0.0
 11
213.547099
 21
5.716718
 31
0.0
  0
LINE
  8
0
 62
     7
 10
213.332124
 20
5.377999
 30
0.0
 11
213.547099
 21
5.592974
 31
0.0
  0
LINE
  8
0
 62
     7
 10
213.455868
 20
5.377999
 30
0.0
 11
213.547099
 21
5.46923
 31
0.0
  0
LINE
  8
0
 62
     7
 10
225.377099
 20
2.310966
 30
0.0
 11
227.824614
 21
4.758481
 31
0.0
  0
LINE
  8
0
 62
     7
 10
225.377099
 20
2.43471
 30
0.0
 11
227.782547
 21
4.840158
 31
0.0
  0
LINE
  8
0
 62
     7
 10
225.377099
 20
2.558454
 30
0.0
 11
227.737553
 21
4.918908
 31
0.0
  0
LINE
  8
0
 62
     7
 10
225.377099
 20
2.682197
 30
0.0
 11
227.689735
 21
4.994834
 31
0.0
  0
LINE
  8
0
 62
     7
 10
225.377099
 20
2.805941
 30
0.0
 11
227.639174
 21
5.068016
 31
0.0
  0
LINE
  8
0
 62
     7
 10
225.377099
 20
2.929685
 30
0.0
 11
227.545413
 21
5.097999
 31
0.0
  0
LINE
  8
0
 62
     7
 10
225.377099
 20
3.053429
 30
0.0
 11
227.42167
 21
5.097999
 31
0.0
  0
LINE
  8
0
 62
     7
 10
225.377099
 20
3.177172
 30
0.0
 11
227.297926
 21
5.097999
 31
0.0
  0
LINE
  8
0
 62
     7
 10
225.377099
 20
3.300916
 30
0.0
 11
227.174182
 21
5.097999
 31
0.0
  0
LINE
  8
0
 62
     7
 10
225.377099
 20
3.42466
 30
0.0
 11
227.050439
 21
5.097999
 31
0.0
  0
LINE
  8
0
 62
     7
 10
225.377099
 20
3.548403
 30
0.0
 11
226.926695
 21
5.097999
 31
0.0
  0
LINE
  8
0
 62
     7
 10
225.377099
 20
3.672147
 30
0.0
 11
226.802951
 21
5.097999
 31
0.0
  0
LINE
  8
0
 62
     7
 10
225.377099
 20
3.795891
 30
0.0
 11
226.679208
 21
5.097999
 31
0.0
  0
LINE
  8
0
 62
     7
 10
225.377099
 20
3.919634
 30
0.0
 11
226.555464
 21
5.097999
 31
0.0
  0
LINE
  8
0
 62
     7
 10
225.377099
 20
4.043378
 30
0.0
 11
226.43172
 21
5.097999
 31
0.0
  0
LINE
  8
0
 62
     7
 10
225.377099
 20
4.167122
 30
0.0
 11
226.307977
 21
5.097999
 31
0.0
  0
LINE
  8
0
 62
     7
 10
225.377099
 20
4.290865
 30
0.0
 11
226.184233
 21
5.097999
 31
0.0
  0
LINE
  8
0
 62
     7
 10
225.377099
 20
4.414609
 30
0.0
 11
226.060489
 21
5.097999
 31
0.0
  0
LINE
  8
0
 62
     7
 10
225.377099
 20
4.538353
 30
0.0
 11
225.936746
 21
5.097999
 31
0.0
  0
LINE
  8
0
 62
     7
 10
225.377099
 20
4.662096
 30
0.0
 11
225.813002
 21
5.097999
 31
0.0
  0
LINE
  8
0
 62
     7
 10
225.377099
 20
4.78584
 30
0.0
 11
225.689258
 21
5.097999
 31
0.0
  0
LINE
  8
0
 62
     7
 10
225.377099
 20
4.909584
 30
0.0
 11
225.565514
 21
5.097999
 31
0.0
  0
LINE
  8
0
 62
     7
 10
225.377099
 20
5.033328
 30
0.0
 11
225.441771
 21
5.097999
 31
0.0
  0
LINE
  8
0
 62
     7
 10
225.377099
 20
2.187223
 30
0.0
 11
227.863629
 21
4.673752
 31
0.0
  0
LINE
  8
0
 62
     7
 10
225.377099
 20
2.063479
 30
0.0
 11
227.899437
 21
4.585817
 31
0.0
  0
LINE
  8
0
 62
     7
 10
225.377099
 20
1.939735
 30
0.0
 11
227.931849
 21
4.494485
 31
0.0
  0
LINE
  8
0
 62
     7
 10
225.377099
 20
1.815992
 30
0.0
 11
227.960633
 21
4.399525
 31
0.0
  0
LINE
  8
0
 62
     7
 10
225.42285
 20
1.737999
 30
0.0
 11
227.985502
 21
4.300651
 31
0.0
  0
LINE
  8
0
 62
     7
 10
225.546594
 20
1.738
 30
0.0
 11
228.006098
 21
4.197503
 31
0.0
  0
LINE
  8
0
 62
     7
 10
225.670338
 20
1.738
 30
0.0
 11
228.021969
 21
4.08963
 31
0.0
  0
LINE
  8
0
 62
     7
 10
225.794082
 20
1.738
 30
0.0
 11
228.03253
 21
3.976448
 31
0.0
  0
LINE
  8
0
 62
     7
 10
225.917826
 20
1.738
 30
0.0
 11
228.037011
 21
3.857186
 31
0.0
  0
LINE
  8
0
 62
     7
 10
226.044307
 20
1.740738
 30
0.0
 11
228.034361
 21
3.730791
 31
0.0
  0
LINE
  8
0
 62
     7
 10
226.17933
 20
1.752016
 30
0.0
 11
228.023082
 21
3.595769
 31
0.0
  0
LINE
  8
0
 62
     7
 10
226.325237
 20
1.77418
 30
0.0
 11
228.000918
 21
3.449861
 31
0.0
  0
LINE
  8
0
 62
     7
 10
226.485733
 20
1.810932
 30
0.0
 11
227.964166
 21
3.289366
 31
0.0
  0
LINE
  8
0
 62
     7
 10
226.667749
 20
1.869205
 30
0.0
 11
227.905893
 21
3.107349
 31
0.0
  0
LINE
  8
0
 62
     7
 10
226.887822
 20
1.965534
 30
0.0
 11
227.809564
 21
2.887276
 31
0.0
  0
LINE
  8
0
 62
     7
 10
227.22645
 20
2.180419
 30
0.0
 11
227.59468
 21
2.548648
 31
0.0
  0
LINE
  8
0
 62
     7
 10
210.187099
 20
1.737999
 30
0.0
 11
213.547099
 21
5.097999
 31
0.0
  0
LINE
  8
0
 62
     7
 10
210.25373
 20
1.928374
 30
0.0
 11
213.423355
 21
5.097999
 31
0.0
  0
LINE
  8
0
 62
     7
 10
210.320362
 20
2.118749
 30
0.0
 11
213.299612
 21
5.097999
 31
0.0
  0
LINE
  8
0
 62
     7
 10
210.386993
 20
2.309124
 30
0.0
 11
213.175868
 21
5.097999
 31
0.0
  0
LINE
  8
0
 62
     7
 10
210.453624
 20
2.499499
 30
0.0
 11
213.052124
 21
5.097999
 31
0.0
  0
LINE
  8
0
 62
     7
 10
210.520255
 20
2.689874
 30
0.0
 11
212.928381
 21
5.097999
 31
0.0
  0
LINE
  8
0
 62
     7
 10
210.586886
 20
2.880249
 30
0.0
 11
212.804637
 21
5.097999
 31
0.0
  0
LINE
  8
0
 62
     7
 10
210.653518
 20
3.070624
 30
0.0
 11
212.680893
 21
5.097999
 31
0.0
  0
LINE
  8
0
 62
     7
 10
210.720149
 20
3.260998
 30
0.0
 11
212.55715
 21
5.097999
 31
0.0
  0
LINE
  8
0
 62
     7
 10
210.78678
 20
3.451373
 30
0.0
 11
212.433406
 21
5.097999
 31
0.0
  0
LINE
  8
0
 62
     7
 10
210.853411
 20
3.641748
 30
0.0
 11
212.309662
 21
5.097999
 31
0.0
  0
LINE
  8
0
 62
     7
 10
210.920042
 20
3.832123
 30
0.0
 11
212.185919
 21
5.097999
 31
0.0
  0
LINE
  8
0
 62
     7
 10
210.986674
 20
4.022498
 30
0.0
 11
212.062175
 21
5.097999
 31
0.0
  0
LINE
  8
0
 62
     7
 10
211.053305
 20
4.212873
 30
0.0
 11
211.938431
 21
5.097999
 31
0.0
  0
LINE
  8
0
 62
     7
 10
211.119936
 20
4.403248
 30
0.0
 11
211.814687
 21
5.097999
 31
0.0
  0
LINE
  8
0
 62
     7
 10
211.186567
 20
4.593623
 30
0.0
 11
211.690944
 21
5.097999
 31
0.0
  0
LINE
  8
0
 62
     7
 10
211.253199
 20
4.783998
 30
0.0
 11
211.5672
 21
5.097999
 31
0.0
  0
LINE
  8
0
 62
     7
 10
211.31983
 20
4.974373
 30
0.0
 11
211.443456
 21
5.097999
 31
0.0
  0
LINE
  8
0
 62
     7
 10
210.310843
 20
1.737999
 30
0.0
 11
213.547099
 21
4.974256
 31
0.0
  0
LINE
  8
0
 62
     7
 10
210.434586
 20
1.737999
 30
0.0
 11
213.547099
 21
4.850512
 31
0.0
  0
LINE
  8
0
 62
     7
 10
210.55833
 20
1.737999
 30
0.0
 11
213.547099
 21
4.726768
 31
0.0
  0
LINE
  8
0
 62
     7
 10
210.682074
 20
1.737999
 30
0.0
 11
213.547099
 21
4.603025
 31
0.0
  0
LINE
  8
0
 62
     7
 10
210.805818
 20
1.737999
 30
0.0
 11
213.547099
 21
4.479281
 31
0.0
  0
LINE
  8
0
 62
     7
 10
210.929561
 20
1.737999
 30
0.0
 11
213.547099
 21
4.355537
 31
0.0
  0
LINE
  8
0
 62
     7
 10
211.053305
 20
1.737999
 30
0.0
 11
212.412988
 21
3.097683
 31
0.0
  0
LINE
  8
0
 62
     7
 10
212.453305
 20
3.137999
 30
0.0
 11
213.547099
 21
4.231793
 31
0.0
  0
LINE
  8
0
 62
     7
 10
211.177049
 20
1.737999
 30
0.0
 11
212.346357
 21
2.907308
 31
0.0
  0
LINE
  8
0
 62
     7
 10
212.577049
 20
3.137999
 30
0.0
 11
213.547099
 21
4.10805
 31
0.0
  0
LINE
  8
0
 62
     7
 10
211.300792
 20
1.737999
 30
0.0
 11
212.279726
 21
2.716933
 31
0.0
  0
LINE
  8
0
 62
     7
 10
212.700792
 20
3.137999
 30
0.0
 11
213.547099
 21
3.984306
 31
0.0
  0
LINE
  8
0
 62
     7
 10
211.424536
 20
1.737999
 30
0.0
 11
212.213095
 21
2.526558
 31
0.0
  0
LINE
  8
0
 62
     7
 10
212.824536
 20
3.137999
 30
0.0
 11
213.547099
 21
3.860562
 31
0.0
  0
LINE
  8
0
 62
     7
 10
211.54828
 20
1.737999
 30
0.0
 11
212.146463
 21
2.336183
 31
0.0
  0
LINE
  8
0
 62
     7
 10
212.94828
 20
3.137999
 30
0.0
 11
213.547099
 21
3.736819
 31
0.0
  0
LINE
  8
0
 62
     7
 10
211.672023
 20
1.737999
 30
0.0
 11
212.079832
 21
2.145808
 31
0.0
  0
LINE
  8
0
 62
     7
 10
213.072023
 20
3.137999
 30
0.0
 11
213.547099
 21
3.613075
 31
0.0
  0
LINE
  8
0
 62
     7
 10
211.795767
 20
1.737999
 30
0.0
 11
212.013201
 21
1.955433
 31
0.0
  0
LINE
  8
0
 62
     7
 10
213.195767
 20
3.137999
 30
0.0
 11
213.547099
 21
3.489331
 31
0.0
  0
LINE
  8
0
 62
     7
 10
211.919511
 20
1.737999
 30
0.0
 11
211.94657
 21
1.765058
 31
0.0
  0
LINE
  8
0
 62
     7
 10
213.319511
 20
3.137999
 30
0.0
 11
213.547099
 21
3.365588
 31
0.0
  0
LINE
  8
0
 62
     7
 10
213.443254
 20
3.137999
 30
0.0
 11
213.547099
 21
3.241844
 31
0.0
  0
LINE
  8
0
 62
     7
 10
217.677099
 20
2.54584
 30
0.0
 11
219.637099
 21
4.50584
 31
0.0
  0
LINE
  8
0
 62
     7
 10
217.677099
 20
2.669584
 30
0.0
 11
219.637099
 21
4.629584
 31
0.0
  0
LINE
  8
0
 62
     7
 10
217.677099
 20
2.793328
 30
0.0
 11
219.637099
 21
4.753328
 31
0.0
  0
LINE
  8
0
 62
     7
 10
217.677099
 20
2.917071
 30
0.0
 11
219.637099
 21
4.877071
 31
0.0
  0
LINE
  8
0
 62
     7
 10
217.677099
 20
3.040815
 30
0.0
 11
219.637099
 21
5.000815
 31
0.0
  0
LINE
  8
0
 62
     7
 10
217.677099
 20
3.164559
 30
0.0
 11
219.61054
 21
5.097999
 31
0.0
  0
LINE
  8
0
 62
     7
 10
217.677099
 20
3.288302
 30
0.0
 11
219.486796
 21
5.097999
 31
0.0
  0
LINE
  8
0
 62
     7
 10
217.677099
 20
3.412046
 30
0.0
 11
219.363052
 21
5.097999
 31
0.0
  0
LINE
  8
0
 62
     7
 10
217.677099
 20
3.53579
 30
0.0
 11
219.239309
 21
5.097999
 31
0.0
  0
LINE
  8
0
 62
     7
 10
217.677099
 20
3.659533
 30
0.0
 11
219.115565
 21
5.097999
 31
0.0
  0
LINE
  8
0
 62
     7
 10
217.677099
 20
3.783277
 30
0.0
 11
218.991821
 21
5.097999
 31
0.0
  0
LINE
  8
0
 62
     7
 10
217.677099
 20
3.907021
 30
0.0
 11
218.868078
 21
5.097999
 31
0.0
  0
LINE
  8
0
 62
     7
 10
217.677099
 20
4.030764
 30
0.0
 11
218.744334
 21
5.097999
 31
0.0
  0
LINE
  8
0
 62
     7
 10
217.677099
 20
4.154508
 30
0.0
 11
218.62059
 21
5.097999
 31
0.0
  0
LINE
  8
0
 62
     7
 10
217.677099
 20
4.278252
 30
0.0
 11
218.496847
 21
5.097999
 31
0.0
  0
LINE
  8
0
 62
     7
 10
217.677099
 20
4.401995
 30
0.0
 11
218.373103
 21
5.097999
 31
0.0
  0
LINE
  8
0
 62
     7
 10
217.677099
 20
4.525739
 30
0.0
 11
218.249359
 21
5.097999
 31
0.0
  0
LINE
  8
0
 62
     7
 10
217.677099
 20
4.649483
 30
0.0
 11
218.125615
 21
5.097999
 31
0.0
  0
LINE
  8
0
 62
     7
 10
217.677099
 20
4.773227
 30
0.0
 11
218.001872
 21
5.097999
 31
0.0
  0
LINE
  8
0
 62
     7
 10
217.677099
 20
4.89697
 30
0.0
 11
217.878128
 21
5.097999
 31
0.0
  0
LINE
  8
0
 62
     7
 10
217.677099
 20
5.020714
 30
0.0
 11
217.754384
 21
5.097999
 31
0.0
  0
LINE
  8
0
 62
     7
 10
217.677099
 20
2.422096
 30
0.0
 11
219.637099
 21
4.382096
 31
0.0
  0
LINE
  8
0
 62
     7
 10
217.677099
 20
2.298353
 30
0.0
 11
219.637099
 21
4.258353
 31
0.0
  0
LINE
  8
0
 62
     7
 10
217.677099
 20
2.174609
 30
0.0
 11
219.637099
 21
4.134609
 31
0.0
  0
LINE
  8
0
 62
     7
 10
217.677099
 20
2.050865
 30
0.0
 11
219.637099
 21
4.010865
 31
0.0
  0
LINE
  8
0
 62
     7
 10
217.677099
 20
1.927122
 30
0.0
 11
219.637099
 21
3.887122
 31
0.0
  0
LINE
  8
0
 62
     7
 10
217.677099
 20
1.803378
 30
0.0
 11
219.637099
 21
3.763378
 31
0.0
  0
LINE
  8
0
 62
     7
 10
217.735464
 20
1.737999
 30
0.0
 11
219.637099
 21
3.639634
 31
0.0
  0
LINE
  8
0
 62
     7
 10
217.859208
 20
1.737999
 30
0.0
 11
219.637099
 21
3.515891
 31
0.0
  0
LINE
  8
0
 62
     7
 10
217.982951
 20
1.737999
 30
0.0
 11
219.637099
 21
3.392147
 31
0.0
  0
LINE
  8
0
 62
     7
 10
218.106695
 20
1.737999
 30
0.0
 11
219.637099
 21
3.268403
 31
0.0
  0
LINE
  8
0
 62
     7
 10
218.230439
 20
1.737999
 30
0.0
 11
219.637099
 21
3.14466
 31
0.0
  0
LINE
  8
0
 62
     7
 10
218.354182
 20
1.737999
 30
0.0
 11
219.637099
 21
3.020916
 31
0.0
  0
LINE
  8
0
 62
     7
 10
218.477926
 20
1.737999
 30
0.0
 11
219.637099
 21
2.897172
 31
0.0
  0
LINE
  8
0
 62
     7
 10
218.60167
 20
1.737999
 30
0.0
 11
219.637099
 21
2.773429
 31
0.0
  0
LINE
  8
0
 62
     7
 10
218.725413
 20
1.737999
 30
0.0
 11
219.637099
 21
2.649685
 31
0.0
  0
LINE
  8
0
 62
     7
 10
218.849157
 20
1.737999
 30
0.0
 11
219.637099
 21
2.525941
 31
0.0
  0
LINE
  8
0
 62
     7
 10
218.972901
 20
1.737999
 30
0.0
 11
219.637099
 21
2.402197
 31
0.0
  0
LINE
  8
0
 62
     7
 10
219.096645
 20
1.737999
 30
0.0
 11
219.637099
 21
2.278454
 31
0.0
  0
LINE
  8
0
 62
     7
 10
219.220388
 20
1.737999
 30
0.0
 11
219.637099
 21
2.15471
 31
0.0
  0
LINE
  8
0
 62
     7
 10
219.344132
 20
1.737999
 30
0.0
 11
219.637099
 21
2.030966
 31
0.0
  0
LINE
  8
0
 62
     7
 10
219.467876
 20
1.737999
 30
0.0
 11
219.637099
 21
1.907223
 31
0.0
  0
LINE
  8
0
 62
     7
 10
219.591619
 20
1.737999
 30
0.0
 11
219.637099
 21
1.783479
 31
0.0
  0
LINE
  8
0
 62
     7
 10
215.006357
 20
2.96869
 30
0.0
 11
216.302653
 21
4.264987
 31
0.0
  0
LINE
  8
0
 62
     7
 10
214.974275
 20
3.060352
 30
0.0
 11
216.270572
 21
4.356649
 31
0.0
  0
LINE
  8
0
 62
     7
 10
214.928179
 20
3.137999
 30
0.0
 11
216.23849
 21
4.448311
 31
0.0
  0
LINE
  8
0
 62
     7
 10
214.804435
 20
3.137999
 30
0.0
 11
216.206408
 21
4.539973
 31
0.0
  0
LINE
  8
0
 62
     7
 10
214.680691
 20
3.137999
 30
0.0
 11
216.174327
 21
4.631635
 31
0.0
  0
LINE
  8
0
 62
     7
 10
214.556948
 20
3.137999
 30
0.0
 11
216.142245
 21
4.723297
 31
0.0
  0
LINE
  8
0
 62
     7
 10
214.433204
 20
3.137999
 30
0.0
 11
216.110163
 21
4.814959
 31
0.0
  0
LINE
  8
0
 62
     7
 10
214.30946
 20
3.137999
 30
0.0
 11
216.078082
 21
4.906621
 31
0.0
  0
LINE
  8
0
 62
     7
 10
214.185717
 20
3.137999
 30
0.0
 11
216.046
 21
4.998283
 31
0.0
  0
LINE
  8
0
 62
     7
 10
214.061973
 20
3.137999
 30
0.0
 11
216.013918
 21
5.089945
 31
0.0
  0
LINE
  8
0
 62
     7
 10
213.938229
 20
3.137999
 30
0.0
 11
215.898229
 21
5.097999
 31
0.0
  0
LINE
  8
0
 62
     7
 10
213.827099
 20
3.150613
 30
0.0
 11
215.774485
 21
5.097999
 31
0.0
  0
LINE
  8
0
 62
     7
 10
213.827099
 20
3.274357
 30
0.0
 11
215.650742
 21
5.097999
 31
0.0
  0
LINE
  8
0
 62
     7
 10
213.827099
 20
3.3981
 30
0.0
 11
215.526998
 21
5.097999
 31
0.0
  0
LINE
  8
0
 62
     7
 10
213.827099
 20
3.521844
 30
0.0
 11
215.403254
 21
5.097999
 31
0.0
  0
LINE
  8
0
 62
     7
 10
213.827099
 20
3.645588
 30
0.0
 11
215.279511
 21
5.097999
 31
0.0
  0
LINE
  8
0
 62
     7
 10
213.827099
 20
3.769331
 30
0.0
 11
215.155767
 21
5.097999
 31
0.0
  0
LINE
  8
0
 62
     7
 10
213.827099
 20
3.893075
 30
0.0
 11
215.032023
 21
5.097999
 31
0.0
  0
LINE
  8
0
 62
     7
 10
213.827099
 20
4.016819
 30
0.0
 11
214.90828
 21
5.097999
 31
0.0
  0
LINE
  8
0
 62
     7
 10
213.827099
 20
4.140562
 30
0.0
 11
214.784536
 21
5.097999
 31
0.0
  0
LINE
  8
0
 62
     7
 10
213.827099
 20
4.264306
 30
0.0
 11
214.660792
 21
5.097999
 31
0.0
  0
LINE
  8
0
 62
     7
 10
213.827099
 20
4.38805
 30
0.0
 11
214.537049
 21
5.097999
 31
0.0
  0
LINE
  8
0
 62
     7
 10
213.827099
 20
4.511793
 30
0.0
 11
214.413305
 21
5.097999
 31
0.0
  0
LINE
  8
0
 62
     7
 10
213.827099
 20
4.635537
 30
0.0
 11
214.289561
 21
5.097999
 31
0.0
  0
LINE
  8
0
 62
     7
 10
213.827099
 20
4.759281
 30
0.0
 11
214.165818
 21
5.097999
 31
0.0
  0
LINE
  8
0
 62
     7
 10
213.827099
 20
4.883025
 30
0.0
 11
214.042074
 21
5.097999
 31
0.0
  0
LINE
  8
0
 62
     7
 10
213.827099
 20
5.006768
 30
0.0
 11
213.91833
 21
5.097999
 31
0.0
  0
LINE
  8
0
 62
     7
 10
215.038439
 20
2.877028
 30
0.0
 11
216.334735
 21
4.173325
 31
0.0
  0
LINE
  8
0
 62
     7
 10
215.070521
 20
2.785366
 30
0.0
 11
216.366817
 21
4.081663
 31
0.0
  0
LINE
  8
0
 62
     7
 10
215.102602
 20
2.693704
 30
0.0
 11
216.398899
 21
3.990001
 31
0.0
  0
LINE
  8
0
 62
     7
 10
215.134684
 20
2.602042
 30
0.0
 11
216.43098
 21
3.898339
 31
0.0
  0
LINE
  8
0
 62
     7
 10
215.166766
 20
2.51038
 30
0.0
 11
216.463062
 21
3.806677
 31
0.0
  0
LINE
  8
0
 62
     7
 10
215.198847
 20
2.418718
 30
0.0
 11
216.495144
 21
3.715015
 31
0.0
  0
LINE
  8
0
 62
     7
 10
215.230929
 20
2.327056
 30
0.0
 11
216.527225
 21
3.623353
 31
0.0
  0
LINE
  8
0
 62
     7
 10
215.263011
 20
2.235395
 30
0.0
 11
216.559307
 21
3.531691
 31
0.0
  0
LINE
  8
0
 62
     7
 10
215.295092
 20
2.143733
 30
0.0
 11
216.591389
 21
3.440029
 31
0.0
  0
LINE
  8
0
 62
     7
 10
215.327174
 20
2.052071
 30
0.0
 11
216.62347
 21
3.348367
 31
0.0
  0
LINE
  8
0
 62
     7
 10
215.359256
 20
1.960409
 30
0.0
 11
216.655552
 21
3.256705
 31
0.0
  0
LINE
  8
0
 62
     7
 10
215.391338
 20
1.868747
 30
0.0
 11
216.687634
 21
3.165043
 31
0.0
  0
LINE
  8
0
 62
     7
 10
215.423419
 20
1.777085
 30
0.0
 11
216.719716
 21
3.073381
 31
0.0
  0
LINE
  8
0
 62
     7
 10
215.508078
 20
1.737999
 30
0.0
 11
216.751797
 21
2.981719
 31
0.0
  0
LINE
  8
0
 62
     7
 10
215.631821
 20
1.737999
 30
0.0
 11
216.783879
 21
2.890057
 31
0.0
  0
LINE
  8
0
 62
     7
 10
215.755565
 20
1.737999
 30
0.0
 11
216.815961
 21
2.798395
 31
0.0
  0
LINE
  8
0
 62
     7
 10
215.879309
 20
1.737999
 30
0.0
 11
216.848042
 21
2.706733
 31
0.0
  0
LINE
  8
0
 62
     7
 10
216.003052
 20
1.737999
 30
0.0
 11
216.880124
 21
2.615071
 31
0.0
  0
LINE
  8
0
 62
     7
 10
216.126796
 20
1.737999
 30
0.0
 11
216.912206
 21
2.523409
 31
0.0
  0
LINE
  8
0
 62
     7
 10
216.25054
 20
1.737999
 30
0.0
 11
216.944287
 21
2.431747
 31
0.0
  0
LINE
  8
0
 62
     7
 10
216.374283
 20
1.737999
 30
0.0
 11
216.976369
 21
2.340085
 31
0.0
  0
LINE
  8
0
 62
     7
 10
216.498027
 20
1.737999
 30
0.0
 11
217.008451
 21
2.248423
 31
0.0
  0
LINE
  8
0
 62
     7
 10
216.621771
 20
1.737999
 30
0.0
 11
217.040532
 21
2.156761
 31
0.0
  0
LINE
  8
0
 62
     7
 10
216.745514
 20
1.737999
 30
0.0
 11
217.072614
 21
2.065099
 31
0.0
  0
LINE
  8
0
 62
     7
 10
216.869258
 20
1.737999
 30
0.0
 11
217.104696
 21
1.973437
 31
0.0
  0
LINE
  8
0
 62
     7
 10
216.993002
 20
1.737999
 30
0.0
 11
217.136778
 21
1.881775
 31
0.0
  0
LINE
  8
0
 62
     7
 10
217.116746
 20
1.737999
 30
0.0
 11
217.168859
 21
1.790113
 31
0.0
  0
LINE
  8
0
 62
     7
 10
223.137099
 20
2.54584
 30
0.0
 11
225.097099
 21
4.50584
 31
0.0
  0
LINE
  8
0
 62
     7
 10
223.137099
 20
2.669584
 30
0.0
 11
225.097099
 21
4.629584
 31
0.0
  0
LINE
  8
0
 62
     7
 10
223.137099
 20
2.793328
 30
0.0
 11
225.097099
 21
4.753328
 31
0.0
  0
LINE
  8
0
 62
     7
 10
223.137099
 20
2.917071
 30
0.0
 11
225.097099
 21
4.877071
 31
0.0
  0
LINE
  8
0
 62
     7
 10
223.137099
 20
3.040815
 30
0.0
 11
225.097099
 21
5.000815
 31
0.0
  0
LINE
  8
0
 62
     7
 10
223.137099
 20
3.164559
 30
0.0
 11
225.07054
 21
5.097999
 31
0.0
  0
LINE
  8
0
 62
     7
 10
223.137099
 20
3.288302
 30
0.0
 11
224.946796
 21
5.097999
 31
0.0
  0
LINE
  8
0
 62
     7
 10
223.137099
 20
3.412046
 30
0.0
 11
224.823052
 21
5.097999
 31
0.0
  0
LINE
  8
0
 62
     7
 10
223.137099
 20
3.53579
 30
0.0
 11
224.699309
 21
5.097999
 31
0.0
  0
LINE
  8
0
 62
     7
 10
223.137099
 20
3.659533
 30
0.0
 11
224.575565
 21
5.097999
 31
0.0
  0
LINE
  8
0
 62
     7
 10
223.137099
 20
3.783277
 30
0.0
 11
224.451821
 21
5.097999
 31
0.0
  0
LINE
  8
0
 62
     7
 10
223.137099
 20
3.907021
 30
0.0
 11
224.328078
 21
5.097999
 31
0.0
  0
LINE
  8
0
 62
     7
 10
223.137099
 20
4.030764
 30
0.0
 11
224.204334
 21
5.097999
 31
0.0
  0
LINE
  8
0
 62
     7
 10
223.137099
 20
4.154508
 30
0.0
 11
224.08059
 21
5.097999
 31
0.0
  0
LINE
  8
0
 62
     7
 10
223.137099
 20
4.278252
 30
0.0
 11
223.956847
 21
5.097999
 31
0.0
  0
LINE
  8
0
 62
     7
 10
223.137099
 20
4.401995
 30
0.0
 11
223.833103
 21
5.097999
 31
0.0
  0
LINE
  8
0
 62
     7
 10
223.137099
 20
4.525739
 30
0.0
 11
223.709359
 21
5.097999
 31
0.0
  0
LINE
  8
0
 62
     7
 10
223.137099
 20
4.649483
 30
0.0
 11
223.585615
 21
5.097999
 31
0.0
  0
LINE
  8
0
 62
     7
 10
223.137099
 20
4.773227
 30
0.0
 11
223.461872
 21
5.097999
 31
0.0
  0
LINE
  8
0
 62
     7
 10
223.137099
 20
4.89697
 30
0.0
 11
223.338128
 21
5.097999
 31
0.0
  0
LINE
  8
0
 62
     7
 10
223.137099
 20
5.020714
 30
0.0
 11
223.214384
 21
5.097999
 31
0.0
  0
LINE
  8
0
 62
     7
 10
223.137099
 20
2.422096
 30
0.0
 11
225.097099
 21
4.382096
 31
0.0
  0
LINE
  8
0
 62
     7
 10
223.137099
 20
2.298353
 30
0.0
 11
225.097099
 21
4.258353
 31
0.0
  0
LINE
  8
0
 62
     7
 10
223.137099
 20
2.174609
 30
0.0
 11
225.097099
 21
4.134609
 31
0.0
  0
LINE
  8
0
 62
     7
 10
223.137099
 20
2.050865
 30
0.0
 11
225.097099
 21
4.010865
 31
0.0
  0
LINE
  8
0
 62
     7
 10
223.137099
 20
1.927122
 30
0.0
 11
225.097099
 21
3.887122
 31
0.0
  0
LINE
  8
0
 62
     7
 10
223.137099
 20
1.803378
 30
0.0
 11
225.097099
 21
3.763378
 31
0.0
  0
LINE
  8
0
 62
     7
 10
223.195464
 20
1.737999
 30
0.0
 11
225.097099
 21
3.639634
 31
0.0
  0
LINE
  8
0
 62
     7
 10
223.319208
 20
1.737999
 30
0.0
 11
225.097099
 21
3.515891
 31
0.0
  0
LINE
  8
0
 62
     7
 10
223.442951
 20
1.737999
 30
0.0
 11
225.097099
 21
3.392147
 31
0.0
  0
LINE
  8
0
 62
     7
 10
223.566695
 20
1.737999
 30
0.0
 11
225.097099
 21
3.268403
 31
0.0
  0
LINE
  8
0
 62
     7
 10
223.690439
 20
1.737999
 30
0.0
 11
225.097099
 21
3.14466
 31
0.0
  0
LINE
  8
0
 62
     7
 10
223.814182
 20
1.737999
 30
0.0
 11
225.097099
 21
3.020916
 31
0.0
  0
LINE
  8
0
 62
     7
 10
223.937926
 20
1.737999
 30
0.0
 11
225.097099
 21
2.897172
 31
0.0
  0
LINE
  8
0
 62
     7
 10
224.06167
 20
1.737999
 30
0.0
 11
225.097099
 21
2.773429
 31
0.0
  0
LINE
  8
0
 62
     7
 10
224.185413
 20
1.737999
 30
0.0
 11
225.097099
 21
2.649685
 31
0.0
  0
LINE
  8
0
 62
     7
 10
224.309157
 20
1.737999
 30
0.0
 11
225.097099
 21
2.525941
 31
0.0
  0
LINE
  8
0
 62
     7
 10
224.432901
 20
1.737999
 30
0.0
 11
225.097099
 21
2.402197
 31
0.0
  0
LINE
  8
0
 62
     7
 10
224.556645
 20
1.737999
 30
0.0
 11
225.097099
 21
2.278454
 31
0.0
  0
LINE
  8
0
 62
     7
 10
224.680388
 20
1.737999
 30
0.0
 11
225.097099
 21
2.15471
 31
0.0
  0
LINE
  8
0
 62
     7
 10
224.804132
 20
1.737999
 30
0.0
 11
225.097099
 21
2.030966
 31
0.0
  0
LINE
  8
0
 62
     7
 10
224.927876
 20
1.737999
 30
0.0
 11
225.097099
 21
1.907223
 31
0.0
  0
LINE
  8
0
 62
     7
 10
225.051619
 20
1.737999
 30
0.0
 11
225.097099
 21
1.783479
 31
0.0
  0
LINE
  8
0
 62
     7
 10
219.917099
 20
2.310966
 30
0.0
 11
222.364614
 21
4.758481
 31
0.0
  0
LINE
  8
0
 62
     7
 10
219.917099
 20
2.43471
 30
0.0
 11
222.322547
 21
4.840158
 31
0.0
  0
LINE
  8
0
 62
     7
 10
219.917099
 20
2.558454
 30
0.0
 11
222.277553
 21
4.918908
 31
0.0
  0
LINE
  8
0
 62
     7
 10
219.917099
 20
2.682197
 30
0.0
 11
222.229735
 21
4.994834
 31
0.0
  0
LINE
  8
0
 62
     7
 10
219.917099
 20
2.805941
 30
0.0
 11
222.179174
 21
5.068016
 31
0.0
  0
LINE
  8
0
 62
     7
 10
219.917099
 20
2.929685
 30
0.0
 11
222.085413
 21
5.097999
 31
0.0
  0
LINE
  8
0
 62
     7
 10
219.917099
 20
3.053429
 30
0.0
 11
221.96167
 21
5.097999
 31
0.0
  0
LINE
  8
0
 62
     7
 10
219.917099
 20
3.177172
 30
0.0
 11
221.837926
 21
5.097999
 31
0.0
  0
LINE
  8
0
 62
     7
 10
219.917099
 20
3.300916
 30
0.0
 11
221.714182
 21
5.097999
 31
0.0
  0
LINE
  8
0
 62
     7
 10
219.917099
 20
3.42466
 30
0.0
 11
221.590439
 21
5.097999
 31
0.0
  0
LINE
  8
0
 62
     7
 10
219.917099
 20
3.548403
 30
0.0
 11
221.466695
 21
5.097999
 31
0.0
  0
LINE
  8
0
 62
     7
 10
219.917099
 20
3.672147
 30
0.0
 11
221.342951
 21
5.097999
 31
0.0
  0
LINE
  8
0
 62
     7
 10
219.917099
 20
3.795891
 30
0.0
 11
221.219208
 21
5.097999
 31
0.0
  0
LINE
  8
0
 62
     7
 10
219.917099
 20
3.919634
 30
0.0
 11
221.095464
 21
5.097999
 31
0.0
  0
LINE
  8
0
 62
     7
 10
219.917099
 20
4.043378
 30
0.0
 11
220.97172
 21
5.097999
 31
0.0
  0
LINE
  8
0
 62
     7
 10
219.917099
 20
4.167122
 30
0.0
 11
220.847977
 21
5.097999
 31
0.0
  0
LINE
  8
0
 62
     7
 10
219.917099
 20
4.290865
 30
0.0
 11
220.724233
 21
5.097999
 31
0.0
  0
LINE
  8
0
 62
     7
 10
219.917099
 20
4.414609
 30
0.0
 11
220.600489
 21
5.097999
 31
0.0
  0
LINE
  8
0
 62
     7
 10
219.917099
 20
4.538353
 30
0.0
 11
220.476746
 21
5.097999
 31
0.0
  0
LINE
  8
0
 62
     7
 10
219.917099
 20
4.662096
 30
0.0
 11
220.353002
 21
5.097999
 31
0.0
  0
LINE
  8
0
 62
     7
 10
219.917099
 20
4.78584
 30
0.0
 11
220.229258
 21
5.097999
 31
0.0
  0
LINE
  8
0
 62
     7
 10
219.917099
 20
4.909584
 30
0.0
 11
220.105514
 21
5.097999
 31
0.0
  0
LINE
  8
0
 62
     7
 10
219.917099
 20
5.033328
 30
0.0
 11
219.981771
 21
5.097999
 31
0.0
  0
LINE
  8
0
 62
     7
 10
219.917099
 20
2.187223
 30
0.0
 11
222.403629
 21
4.673752
 31
0.0
  0
LINE
  8
0
 62
     7
 10
219.917099
 20
2.063479
 30
0.0
 11
222.439437
 21
4.585817
 31
0.0
  0
LINE
  8
0
 62
     7
 10
219.917099
 20
1.939735
 30
0.0
 11
222.471849
 21
4.494485
 31
0.0
  0
LINE
  8
0
 62
     7
 10
219.917099
 20
1.815992
 30
0.0
 11
222.500633
 21
4.399525
 31
0.0
  0
LINE
  8
0
 62
     7
 10
219.96285
 20
1.737999
 30
0.0
 11
222.525502
 21
4.300651
 31
0.0
  0
LINE
  8
0
 62
     7
 10
220.086594
 20
1.738
 30
0.0
 11
222.546098
 21
4.197503
 31
0.0
  0
LINE
  8
0
 62
     7
 10
220.210338
 20
1.738
 30
0.0
 11
222.561969
 21
4.08963
 31
0.0
  0
LINE
  8
0
 62
     7
 10
220.334082
 20
1.738
 30
0.0
 11
222.57253
 21
3.976448
 31
0.0
  0
LINE
  8
0
 62
     7
 10
220.457826
 20
1.738
 30
0.0
 11
222.577011
 21
3.857186
 31
0.0
  0
LINE
  8
0
 62
     7
 10
220.584307
 20
1.740738
 30
0.0
 11
222.574361
 21
3.730791
 31
0.0
  0
LINE
  8
0
 62
     7
 10
220.71933
 20
1.752016
 30
0.0
 11
222.563082
 21
3.595769
 31
0.0
  0
LINE
  8
0
 62
     7
 10
220.865237
 20
1.77418
 30
0.0
 11
222.540918
 21
3.449861
 31
0.0
  0
LINE
  8
0
 62
     7
 10
221.025733
 20
1.810932
 30
0.0
 11
222.504166
 21
3.289366
 31
0.0
  0
LINE
  8
0
 62
     7
 10
221.207749
 20
1.869205
 30
0.0
 11
222.445893
 21
3.107349
 31
0.0
  0
LINE
  8
0
 62
     7
 10
221.427822
 20
1.965534
 30
0.0
 11
222.349564
 21
2.887276
 31
0.0
  0
LINE
  8
0
 62
     7
 10
221.76645
 20
2.180419
 30
0.0
 11
222.13468
 21
2.548648
 31
0.0
  0
ENDSEC
  0
EOF
