  0
SECTION
  2
HEADER
  9
$ACADVER
  1
AC1009
  9
$DWGCODEPAGE
  3
iso8859-1
  9
$INSBASE
 10
0.0
 20
0.0
 30
0.0
  9
$EXTMIN
 10
1.0E20
 20
1.0E20
  9
$EXTMAX
 10
-1.0E20
 20
-1.0E20
  9
$LIMMIN
 10
0.0
 20
0.0
  9
$LIMMAX
 10
12.0
 20
9.0
  9
$ORTHOMODE
 70
     0
  9
$REGENMODE
 70
     1
  9
$FILLMODE
 70
     1
  9
$QTEXTMODE
 70
     0
  9
$MIRRTEXT
 70
     1
  9
$DRAGMODE
 70
     2
  9
$LTSCALE
 40
15.0
  9
$OSMODE
 70
     0
  9
$ATTMODE
 70
     1
  9
$TEXTSIZE
 40
0.2
  9
$TRACEWID
 40
0.05
  9
$TEXTSTYLE
  7
STANDARD
  9
$CLAYER
  8
0
  9
$CELTYPE
  6
DASHED
  9
$CECOLOR
 62
   256
  9
$DIMSCALE
 40
1.0
  9
$DIMASZ
 40
0.18
  9
$DIMEXO
 40
0.0625
  9
$DIMDLI
 40
0.38
  9
$DIMRND
 40
0.0
  9
$DIMDLE
 40
0.0
  9
$DIMEXE
 40
0.18
  9
$DIMTP
 40
0.0
  9
$DIMTM
 40
0.0
  9
$DIMTXT
 40
0.18
  9
$DIMCEN
 40
0.09
  9
$DIMTSZ
 40
0.0
  9
$DIMTOL
 70
     0
  9
$DIMLIM
 70
     0
  9
$DIMTIH
 70
     1
  9
$DIMTOH
 70
     1
  9
$DIMSE1
 70
     0
  9
$DIMSE2
 70
     0
  9
$DIMTAD
 70
     0
  9
$DIMZIN
 70
     0
  9
$DIMBLK
  1

  9
$DIMASO
 70
     1
  9
$DIMSHO
 70
     1
  9
$DIMPOST
  1

  9
$DIMAPOST
  1

  9
$DIMALT
 70
     0
  9
$DIMALTD
 70
     2
  9
$DIMALTF
 40
25.4
  9
$DIMLFAC
 40
1.0
  9
$DIMTOFL
 70
     0
  9
$DIMTVP
 40
0.0
  9
$DIMTIX
 70
     0
  9
$DIMSOXD
 70
     0
  9
$DIMSAH
 70
     0
  9
$DIMBLK1
  1

  9
$DIMBLK2
  1

  9
$DIMSTYLE
  2
STANDARD
  9
$DIMCLRD
 70
     0
  9
$DIMCLRE
 70
     0
  9
$DIMCLRT
 70
     0
  9
$DIMTFAC
 40
1.0
  9
$DIMGAP
 40
0.09
  9
$LUNITS
 70
     2
  9
$LUPREC
 70
     4
  9
$AXISMODE
 70
     0
  9
$AXISUNIT
 10
0.0
 20
0.0
  9
$SKETCHINC
 40
0.1
  9
$FILLETRAD
 40
0.0
  9
$AUNITS
 70
     0
  9
$AUPREC
 70
     0
  9
$MENU
  1
acad
  9
$ELEVATION
 40
0.0
  9
$PELEVATION
 40
0.0
  9
$THICKNESS
 40
0.0
  9
$LIMCHECK
 70
     0
  9
$BLIPMODE
 70
     1
  9
$CHAMFERA
 40
0.0
  9
$CHAMFERB
 40
0.0
  9
$SKPOLY
 70
     0
  9
$TDCREATE
 40
0.000000000
  9
$TDUPDATE
 40
0.000000000
  9
$TDINDWG
 40
0.0
  9
$TDUSRTIMER
 40
0.0
  9
$USRTIMER
 70
     1
  9
$ANGBASE
 50
0.0
  9
$ANGDIR
 70
     0
  9
$PDMODE
 70
     0
  9
$PDSIZE
 40
0.0
  9
$PLINEWID
 40
0.0
  9
$COORDS
 70
     1
  9
$SPLFRAME
 70
     0
  9
$SPLINETYPE
 70
     6
  9
$SPLINESEGS
 70
     8
  9
$ATTDIA
 70
     0
  9
$ATTREQ
 70
     1
  9
$HANDLING
 70
     1
  9
$HANDSEED
  5
   41A
  9
$SURFTAB1
 70
     6
  9
$SURFTAB2
 70
     6
  9
$SURFTYPE
 70
     6
  9
$SURFU
 70
     6
  9
$SURFV
 70
     6
  9
$UCSNAME
  2

  9
$UCSORG
 10
0.0
 20
0.0
 30
0.0
  9
$UCSXDIR
 10
1.0
 20
0.0
 30
0.0
  9
$UCSYDIR
 10
0.0
 20
1.0
 30
0.0
  9
$PUCSNAME
  2

  9
$PUCSORG
 10
0.0
 20
0.0
 30
0.0
  9
$PUCSXDIR
 10
1.0
 20
0.0
 30
0.0
  9
$PUCSYDIR
 10
0.0
 20
1.0
 30
0.0
  9
$USERI1
 70
     0
  9
$USERI2
 70
     0
  9
$USERI3
 70
     0
  9
$USERI4
 70
     0
  9
$USERI5
 70
     0
  9
$USERR1
 40
0.0
  9
$USERR2
 40
0.0
  9
$USERR3
 40
0.0
  9
$USERR4
 40
0.0
  9
$USERR5
 40
0.0
  9
$WORLDVIEW
 70
     1
  9
$SHADEDGE
 70
     3
  9
$SHADEDIF
 70
    70
  9
$TILEMODE
 70
     1
  9
$MAXACTVP
 70
    16
  9
$PINSBASE
 10
0.0
 20
0.0
 30
0.0
  9
$PLIMCHECK
 70
     0
  9
$PEXTMIN
 10
1.0E20
 20
1.0E20
 30
1.0E20
  9
$PEXTMAX
 10
-1.0E20
 20
-1.0E20
 30
-1.0E20
  9
$PLIMMIN
 10
0.0
 20
0.0
  9
$PLIMMAX
 10
12.0
 20
9.0
  9
$UNITMODE
 70
     0
  9
$VISRETAIN
 70
     0
  0
ENDSEC
  0
SECTION
  2
TABLES
  0
TABLE
  2
VPORT
 70
     1
  0
VPORT
  2
*ACTIVE
 70
     0
 10
0.0
 20
0.0
 11
1.0
 21
1.0
 12
6.801242
 22
4.5
 13
0.0
 23
0.0
 14
1.0
 24
1.0
 15
0.0
 25
0.0
 16
0.0
 26
0.0
 36
1.0
 17
0.0
 27
0.0
 37
0.0
 40
9.0
 41
1.511387
 42
50.0
 43
0.0
 44
0.0
 50
0.0
 51
0.0
 71
     0
 72
   100
 73
     1
 74
     1
 75
     0
 76
     0
 77
     0
 78
     0
  0
ENDTAB
  0
TABLE
  2
LTYPE
 70
    41
  0
LTYPE
  2
BYBLOCK
 70
     0
  3

 72
    65
 73
     0
 40
0.0
  0
LTYPE
  2
BYLAYER
 70
     0
  3

 72
    65
 73
     0
 40
0.0
  0
LTYPE
  2
CONTINUOUS
 70
     0
  3
Solid line
 72
    65
 73
     0
 40
0.0
  0
LTYPE
  2
BORDER
 70
    64
  3
__ __ . __ __ . __ __ . __ __ . __ __ . __ __ .
 72
    65
 73
     6
 40
1.75
 49
0.5
 49
-0.25
 49
0.5
 49
-0.25
 49
0.0
 49
-0.25
  0
LTYPE
  2
BORDER2
 70
    64
  3
__.__.__.__.__.__.__.__.__.__.__.__.__.__.__.__
 72
    65
 73
     6
 40
0.875
 49
0.25
 49
-0.125
 49
0.25
 49
-0.125
 49
0.0
 49
-0.125
  0
LTYPE
  2
BORDERX2
 70
    64
  3
____  ____  .  ____  ____  .  ____  ____  .  __
 72
    65
 73
     6
 40
3.5
 49
1.0
 49
-0.5
 49
1.0
 49
-0.5
 49
0.0
 49
-0.5
  0
LTYPE
  2
CENTER
 70
    64
  3
____ _ ____ _ ____ _ ____ _ ____ _ ____ _ ____
 72
    65
 73
     4
 40
2.0
 49
1.25
 49
-0.25
 49
0.25
 49
-0.25
  0
LTYPE
  2
CENTER2
 70
    64
  3
___ _ ___ _ ___ _ ___ _ ___ _ ___ _ ___ _ ___ _
 72
    65
 73
     4
 40
1.125
 49
0.75
 49
-0.125
 49
0.125
 49
-0.125
  0
LTYPE
  2
CENTERX2
 70
    64
  3
________  __  ________  __  ________  __  _____
 72
    65
 73
     4
 40
4.0
 49
2.5
 49
-0.5
 49
0.5
 49
-0.5
  0
LTYPE
  2
DASHDOT
 70
    64
  3
__ . __ . __ . __ . __ . __ . __ . __ . __ . __
 72
    65
 73
     4
 40
1.0
 49
0.5
 49
-0.25
 49
0.0
 49
-0.25
  0
LTYPE
  2
DASHDOT2
 70
    64
  3
_._._._._._._._._._._._._._._._._._._._._._._._
 72
    65
 73
     4
 40
0.5
 49
0.25
 49
-0.125
 49
0.0
 49
-0.125
  0
LTYPE
  2
DASHDOTX2
 70
    64
  3
____  .  ____  .  ____  .  ____  .  ____  .  __
 72
    65
 73
     4
 40
2.0
 49
1.0
 49
-0.5
 49
0.0
 49
-0.5
  0
LTYPE
  2
DASHED
 70
    64
  3
__ __ __ __ __ __ __ __ __ __ __ __ __ __ __ __
 72
    65
 73
     2
 40
0.75
 49
0.5
 49
-0.25
  0
LTYPE
  2
DASHED2
 70
    64
  3
_ _ _ _ _ _ _ _ _ _ _ _ _ _ _ _ _ _ _ _ _ _ _ _
 72
    65
 73
     2
 40
0.375
 49
0.25
 49
-0.125
  0
LTYPE
  2
DASHEDX2
 70
    64
  3
____  ____  ____  ____  ____  ____  ____  ____
 72
    65
 73
     2
 40
1.5
 49
1.0
 49
-0.5
  0
LTYPE
  2
DIVIDE
 70
    64
  3
____ . . ____ . . ____ . . ____ . . ____ . . __
 72
    65
 73
     6
 40
1.25
 49
0.5
 49
-0.25
 49
0.0
 49
-0.25
 49
0.0
 49
-0.25
  0
LTYPE
  2
DIVIDE2
 70
    64
  3
__..__..__..__..__..__..__..__..__..__..__..__.
 72
    65
 73
     6
 40
0.625
 49
0.25
 49
-0.125
 49
0.0
 49
-0.125
 49
0.0
 49
-0.125
  0
LTYPE
  2
DIVIDEX2
 70
    64
  3
________  .  .  ________  .  .  ________  .  .
 72
    65
 73
     6
 40
2.5
 49
1.0
 49
-0.5
 49
0.0
 49
-0.5
 49
0.0
 49
-0.5
  0
LTYPE
  2
DOT
 70
    64
  3
. . . . . . . . . . . . . . . . . . . . . . . .
 72
    65
 73
     2
 40
0.25
 49
0.0
 49
-0.25
  0
LTYPE
  2
DOT2
 70
    64
  3
...............................................
 72
    65
 73
     2
 40
0.125
 49
0.0
 49
-0.125
  0
LTYPE
  2
DOTX2
 70
    64
  3
.  .  .  .  .  .  .  .  .  .  .  .  .  .  .  .
 72
    65
 73
     2
 40
0.5
 49
0.0
 49
-0.5
  0
LTYPE
  2
HIDDEN
 70
    64
  3
__ __ __ __ __ __ __ __ __ __ __ __ __ __ __ __
 72
    65
 73
     2
 40
0.375
 49
0.25
 49
-0.125
  0
LTYPE
  2
HIDDEN2
 70
    64
  3
_ _ _ _ _ _ _ _ _ _ _ _ _ _ _ _ _ _ _ _ _ _ _ _
 72
    65
 73
     2
 40
0.1875
 49
0.125
 49
-0.0625
  0
LTYPE
  2
HIDDENX2
 70
    64
  3
____ ____ ____ ____ ____ ____ ____ ____ ____ __
 72
    65
 73
     2
 40
0.75
 49
0.5
 49
-0.25
  0
LTYPE
  2
PHANTOM
 70
    64
  3
______  __  __  ______  __  __  ______  __  __
 72
    65
 73
     6
 40
2.5
 49
1.25
 49
-0.25
 49
0.25
 49
-0.25
 49
0.25
 49
-0.25
  0
LTYPE
  2
PHANTOM2
 70
    64
  3
___ _ _ ___ _ _ ___ _ _ ___ _ _ ___ _ _ ___ _ _
 72
    65
 73
     6
 40
1.25
 49
0.625
 49
-0.125
 49
0.125
 49
-0.125
 49
0.125
 49
-0.125
  0
LTYPE
  2
PHANTOMX2
 70
    64
  3
____________    ____    ____    ____________
 72
    65
 73
     6
 40
5.0
 49
2.5
 49
-0.5
 49
0.5
 49
-0.5
 49
0.5
 49
-0.5
  0
LTYPE
  2
ACAD_ISO02W100
 70
    64
  3
__ __ __ __ __ __ __ __ __ __ __ __ __ __ __ __
 72
    65
 73
     2
 40
15.0
 49
12.0
 49
-3.0
  0
LTYPE
  2
ACAD_ISO03W100
 70
    64
  3
__    __    __    __    __    __    __    __
 72
    65
 73
     2
 40
30.0
 49
12.0
 49
-18.0
  0
LTYPE
  2
ACAD_ISO04W100
 70
    64
  3
____ . ____ . ____ . ____ . ____ . ____ . ____
 72
    65
 73
     4
 40
30.5
 49
24.0
 49
-3.0
 49
0.5
 49
-3.0
  0
LTYPE
  2
ACAD_ISO05W100
 70
    64
  3
____ .. ____ .. ____ .. ____ .. ____ .. ____ ..
 72
    65
 73
     6
 40
34.0
 49
24.0
 49
-3.0
 49
0.5
 49
-3.0
 49
0.5
 49
-3.0
  0
LTYPE
  2
ACAD_ISO06W100
 70
    64
  3
____ ... ____ ... ____ ... ____ ... ____ ... __
 72
    65
 73
     8
 40
37.5
 49
24.0
 49
-3.0
 49
0.5
 49
-3.0
 49
0.5
 49
-3.0
 49
0.5
 49
-3.0
  0
LTYPE
  2
ACAD_ISO07W100
 70
    64
  3
. . . . . . . . . . . . . . . . . . . . . . . .
 72
    65
 73
     2
 40
3.5
 49
0.5
 49
-3.0
  0
LTYPE
  2
ACAD_ISO08W100
 70
    64
  3
____ __ ____ __ ____ __ ____ ____ __ __ ____ __
 72
    65
 73
     4
 40
36.0
 49
24.0
 49
-3.0
 49
6.0
 49
-3.0
  0
LTYPE
  2
ACAD_ISO09W100
 70
    64
  3
____ __ __ ____ __ __ ____ __ __ ____ __ __ ___
 72
    65
 73
     6
 40
45.0
 49
24.0
 49
-3.0
 49
6.0
 49
-3.0
 49
6.0
 49
-3.0
  0
LTYPE
  2
ACAD_ISO10W100
 70
    64
  3
__ . __ . __ . __ . __ . __ . __ . __ . __ . __
 72
    65
 73
     4
 40
18.5
 49
12.0
 49
-3.0
 49
0.5
 49
-3.0
  0
LTYPE
  2
ACAD_ISO11W100
 70
    64
  3
__ __ . __ __ . __ __ . __ __ . __ __ . __ __ .
 72
    65
 73
     6
 40
33.5
 49
12.0
 49
-3.0
 49
12.0
 49
-3.0
 49
0.5
 49
-3.0
  0
LTYPE
  2
ACAD_ISO12W100
 70
    64
  3
__ . . __ . . __ . . __ . . __ . . __ . . __ .
 72
    65
 73
     6
 40
22.0
 49
12.0
 49
-3.0
 49
0.5
 49
-3.0
 49
0.5
 49
-3.0
  0
LTYPE
  2
ACAD_ISO13W100
 70
    64
  3
__ __ . . __ __ . . __ __ . . __ __ . . __ __ .
 72
    65
 73
     8
 40
37.0
 49
12.0
 49
-3.0
 49
12.0
 49
-3.0
 49
0.5
 49
-3.0
 49
0.5
 49
-3.0
  0
LTYPE
  2
ACAD_ISO14W100
 70
    64
  3
__ . . . __ . . . __ . . . __ . . . __ . . . __
 72
    65
 73
     8
 40
25.5
 49
12.0
 49
-3.0
 49
0.5
 49
-3.0
 49
0.5
 49
-3.0
 49
0.5
 49
-3.0
  0
LTYPE
  2
ACAD_ISO15W100
 70
    64
  3
__ __ . . . __ __ . . . __ __ . . . __ __ . . .
 72
    65
 73
    10
 40
40.5
 49
12.0
 49
-3.0
 49
12.0
 49
-3.0
 49
0.5
 49
-3.0
 49
0.5
 49
-3.0
 49
0.5
 49
-3.0
  0
ENDTAB
  0
TABLE
  2
STYLE
 70
     4
  0
STYLE
  2
STANDARD
 70
    64
 40
0.0
 41
1.0
 50
0.0
 71
     0
 42
0.2
  3
txt
  4

  0
STYLE
  2
TOLERANCE
 70
    64
 40
0.0
 41
1.0
 50
0.0
 71
     0
 42
0.2
  3
../igesfont/iges1003.shx
  4

  0
STYLE
  2
ROMANS
 70
    64
 40
0.0
 41
1.0
 50
0.0
 71
     0
 42
0.2
  3
romans.shx
  4

  0
STYLE
  2
ROMANC
 70
    64
 40
0.0
 41
1.0
 50
0.0
 71
     0
 42
0.2
  3
romanc.shx
  4

  0
ENDTAB
  0
TABLE
  2
DIMSTYLE
 70
     2
  0
DIMSTYLE
  2
UNNAMED
 70
     0
  3

  4

  5

  6

  7

 40
1.0
 41
0.18
 42
0.0625
 43
0.38
 44
0.18
 45
0.0
 46
0.0
 47
0.0
 48
0.0
140
0.18
141
0.09
142
0.0
143
25.4
144
1.0
145
0.0
146
1.0
147
0.09
 71
     0
 72
     0
 73
     1
 74
     1
 75
     0
 76
     0
 77
     0
 78
     0
170
     0
171
     2
172
     0
173
     0
174
     0
175
     0
176
     0
177
     0
178
     0
  0
DIMSTYLE
  2
STANDARD
 70
     0
  3

  4

  5

  6

  7

 40
1.0
 41
0.18
 42
0.0625
 43
0.38
 44
0.18
 45
0.0
 46
0.0
 47
0.0
 48
0.0
140
0.18
141
0.09
142
0.0
143
25.4
144
1.0
145
0.0
146
1.0
147
0.09
 71
     0
 72
     0
 73
     1
 74
     1
 75
     0
 76
     0
 77
     0
 78
     0
170
     0
171
     2
172
     0
173
     0
174
     0
175
     0
176
     0
177
     0
178
     0
  0
ENDTAB
  0
TABLE
  2
LAYER
 70
     2
  0
LAYER
  2
0
 70
     0
 62
     7
  6
CONTINUOUS
  0
LAYER
  2
255
 70
     0
 62
     7
  6
CONTINUOUS
  0
ENDTAB
  0
ENDSEC
  0
SECTION
  2
BLOCKS
  0
BLOCK
  5
     B
  8
0
  6
CONTINUOUS
 62
     2
  2
*HATCH27
 70
    65
 10
0.0
 20
0.0
 30
0.0
  3
*HATCH27
  0
LINE
  5
     C
  8
0
  6
DOT2
 62
    10
 10
-28.75
 20
111.0
 30
0.0
 11
-25.5
 21
111.0
 31
0.0
  0
LINE
  5
     D
  8
0
  6
DOT2
 62
    10
 10
25.5
 20
111.0
 30
0.0
 11
28.75
 21
111.0
 31
0.0
  0
LINE
  5
     E
  8
0
  6
DOT2
 62
    10
 10
-28.75
 20
113.0
 30
0.0
 11
-25.5
 21
113.0
 31
0.0
  0
LINE
  5
     F
  8
0
  6
DOT2
 62
    10
 10
25.5
 20
113.0
 30
0.0
 11
28.75
 21
113.0
 31
0.0
  0
LINE
  5
    10
  8
0
  6
DOT2
 62
    10
 10
-28.75
 20
115.0
 30
0.0
 11
-25.5
 21
115.0
 31
0.0
  0
LINE
  5
    11
  8
0
  6
DOT2
 62
    10
 10
25.5
 20
115.0
 30
0.0
 11
28.75
 21
115.0
 31
0.0
  0
LINE
  5
    12
  8
0
  6
DOT2
 62
    10
 10
-28.75
 20
117.0
 30
0.0
 11
-25.5
 21
117.0
 31
0.0
  0
LINE
  5
    13
  8
0
  6
DOT2
 62
    10
 10
25.5
 20
117.0
 30
0.0
 11
28.75
 21
117.0
 31
0.0
  0
LINE
  5
    14
  8
0
  6
DOT2
 62
    10
 10
-28.75
 20
119.0
 30
0.0
 11
-25.5
 21
119.0
 31
0.0
  0
LINE
  5
    15
  8
0
  6
DOT2
 62
    10
 10
25.5
 20
119.0
 30
0.0
 11
28.75
 21
119.0
 31
0.0
  0
LINE
  5
    16
  8
0
  6
DOT2
 62
    10
 10
-28.75
 20
121.0
 30
0.0
 11
-25.5
 21
121.0
 31
0.0
  0
LINE
  5
    17
  8
0
  6
DOT2
 62
    10
 10
25.5
 20
121.0
 30
0.0
 11
28.75
 21
121.0
 31
0.0
  0
LINE
  5
    18
  8
0
  6
DOT2
 62
    10
 10
-28.75
 20
123.0
 30
0.0
 11
-25.5
 21
123.0
 31
0.0
  0
LINE
  5
    19
  8
0
  6
DOT2
 62
    10
 10
25.5
 20
123.0
 30
0.0
 11
28.75
 21
123.0
 31
0.0
  0
LINE
  5
    1A
  8
0
  6
DOT2
 62
    10
 10
-28.75
 20
125.0
 30
0.0
 11
28.75
 21
125.0
 31
0.0
  0
LINE
  5
    1B
  8
0
  6
DOT2
 62
    10
 10
-28.75
 20
127.0
 30
0.0
 11
28.75
 21
127.0
 31
0.0
  0
ENDBLK
  5
    1C
  8
0
  6
CONTINUOUS
 62
     2
  0
BLOCK
  5
    1D
  8
0
  6
CONTINUOUS
 62
     2
  2
*HATCH28
 70
    65
 10
0.0
 20
0.0
 30
0.0
  3
*HATCH28
  0
LINE
  5
    1E
  8
0
  6
DOT2
 62
    10
 10
-28.75
 20
17.0
 30
0.0
 11
28.75
 21
17.0
 31
0.0
  0
LINE
  5
    1F
  8
0
  6
DOT2
 62
    10
 10
-28.75
 20
19.0
 30
0.0
 11
-25.5
 21
19.0
 31
0.0
  0
LINE
  5
    20
  8
0
  6
DOT2
 62
    10
 10
25.5
 20
19.0
 30
0.0
 11
28.75
 21
19.0
 31
0.0
  0
LINE
  5
    21
  8
0
  6
DOT2
 62
    10
 10
-28.75
 20
21.0
 30
0.0
 11
-25.5
 21
21.0
 31
0.0
  0
LINE
  5
    22
  8
0
  6
DOT2
 62
    10
 10
25.5
 20
21.0
 30
0.0
 11
28.75
 21
21.0
 31
0.0
  0
LINE
  5
    23
  8
0
  6
DOT2
 62
    10
 10
-28.75
 20
23.0
 30
0.0
 11
-25.5
 21
23.0
 31
0.0
  0
LINE
  5
    24
  8
0
  6
DOT2
 62
    10
 10
25.5
 20
23.0
 30
0.0
 11
28.75
 21
23.0
 31
0.0
  0
LINE
  5
    25
  8
0
  6
DOT2
 62
    10
 10
-28.75
 20
25.0
 30
0.0
 11
-25.5
 21
25.0
 31
0.0
  0
LINE
  5
    26
  8
0
  6
DOT2
 62
    10
 10
25.5
 20
25.0
 30
0.0
 11
28.75
 21
25.0
 31
0.0
  0
LINE
  5
    27
  8
0
  6
DOT2
 62
    10
 10
-28.75
 20
27.0
 30
0.0
 11
-25.5
 21
27.0
 31
0.0
  0
LINE
  5
    28
  8
0
  6
DOT2
 62
    10
 10
25.5
 20
27.0
 30
0.0
 11
28.75
 21
27.0
 31
0.0
  0
LINE
  5
    29
  8
0
  6
DOT2
 62
    10
 10
-28.75
 20
29.0
 30
0.0
 11
-25.5
 21
29.0
 31
0.0
  0
LINE
  5
    2A
  8
0
  6
DOT2
 62
    10
 10
25.5
 20
29.0
 30
0.0
 11
28.75
 21
29.0
 31
0.0
  0
LINE
  5
    2B
  8
0
  6
DOT2
 62
    10
 10
-28.75
 20
31.0
 30
0.0
 11
-25.5
 21
31.0
 31
0.0
  0
LINE
  5
    2C
  8
0
  6
DOT2
 62
    10
 10
25.5
 20
31.0
 30
0.0
 11
28.75
 21
31.0
 31
0.0
  0
LINE
  5
    2D
  8
0
  6
DOT2
 62
    10
 10
-28.75
 20
33.0
 30
0.0
 11
-25.5
 21
33.0
 31
0.0
  0
LINE
  5
    2E
  8
0
  6
DOT2
 62
    10
 10
25.5
 20
33.0
 30
0.0
 11
28.75
 21
33.0
 31
0.0
  0
ENDBLK
  5
    2F
  8
0
  6
CONTINUOUS
 62
     2
  0
BLOCK
  5
    30
  8
0
  6
CONTINUOUS
 62
     7
  2
MOTORE_FRONTE
 70
    64
 10
0.0
 20
0.0
 30
0.0
  3
MOTORE_FRONTE
  0
LINE
  5
    31
  8
0
  6
CONTINUOUS
 62
     2
 10
-68.75
 20
0.0
 30
0.0
 11
68.75
 21
0.0
 31
0.0
  0
LINE
  5
    32
  8
0
  6
CONTINUOUS
 62
     2
 10
-68.75
 20
270.0
 30
0.0
 11
68.75
 21
270.0
 31
0.0
  0
LINE
  5
    33
  8
0
  6
CONTINUOUS
 62
     2
 10
-70.25
 20
1.5
 30
0.0
 11
-70.25
 21
268.5
 31
0.0
  0
LINE
  5
    34
  8
0
  6
CONTINUOUS
 62
     2
 10
70.25
 20
1.5
 30
0.0
 11
70.25
 21
268.5
 31
0.0
  0
ARC
  5
    35
  8
0
  6
CONTINUOUS
 62
     2
 10
68.75
 20
268.5
 30
0.0
 40
1.5
 50
0.0
 51
90.0
  0
ARC
  5
    36
  8
0
  6
CONTINUOUS
 62
     2
 10
-68.75
 20
268.5
 30
0.0
 40
1.5
 50
90.0
 51
180.0
  0
ARC
  5
    37
  8
0
  6
CONTINUOUS
 62
     2
 10
-68.75
 20
1.5
 30
0.0
 40
1.5
 50
180.0
 51
270.0
  0
ARC
  5
    38
  8
0
  6
CONTINUOUS
 62
     2
 10
68.75
 20
1.5
 30
0.0
 40
1.5
 50
270.0
 51
360.0
  0
LINE
  5
    39
  8
0
  6
CONTINUOUS
 62
     3
 10
-70.25
 20
268.0
 30
0.0
 11
70.25
 21
268.0
 31
0.0
  0
LINE
  5
    3A
  8
0
  6
CONTINUOUS
 62
     3
 10
-70.25
 20
258.0
 30
0.0
 11
70.25
 21
258.0
 31
0.0
  0
LINE
  5
    3B
  8
0
  6
CONTINUOUS
 62
     3
 10
-70.25
 20
236.75
 30
0.0
 11
70.25
 21
236.75
 31
0.0
  0
LINE
  5
    3C
  8
0
  6
CONTINUOUS
 62
     3
 10
-70.25
 20
235.75
 30
0.0
 11
-25.5
 21
235.75
 31
0.0
  0
LINE
  5
    3D
  8
0
  6
CONTINUOUS
 62
     3
 10
-70.25
 20
212.25
 30
0.0
 11
-25.5
 21
212.25
 31
0.0
  0
LINE
  5
    3E
  8
0
  6
CONTINUOUS
 62
     3
 10
-70.25
 20
211.25
 30
0.0
 11
70.25
 21
211.25
 31
0.0
  0
LINE
  5
    3F
  8
0
  6
CONTINUOUS
 62
     3
 10
-24.5
 20
212.25
 30
0.0
 11
-24.5
 21
235.75
 31
0.0
  0
LINE
  5
    40
  8
0
  6
CONTINUOUS
 62
     3
 10
24.5
 20
212.25
 30
0.0
 11
24.5
 21
235.75
 31
0.0
  0
LINE
  5
    41
  8
0
  6
CONTINUOUS
 62
     3
 10
-25.5
 20
212.25
 30
0.0
 11
-25.5
 21
235.75
 31
0.0
  0
LINE
  5
    42
  8
0
  6
CONTINUOUS
 62
     3
 10
25.5
 20
212.25
 30
0.0
 11
25.5
 21
235.75
 31
0.0
  0
LINE
  5
    43
  8
0
  6
CONTINUOUS
 62
     3
 10
-24.5
 20
235.75
 30
0.0
 11
24.5
 21
235.75
 31
0.0
  0
LINE
  5
    44
  8
0
  6
CONTINUOUS
 62
     3
 10
25.5
 20
235.75
 30
0.0
 11
70.25
 21
235.75
 31
0.0
  0
LINE
  5
    45
  8
0
  6
CONTINUOUS
 62
     3
 10
25.5
 20
212.25
 30
0.0
 11
70.25
 21
212.25
 31
0.0
  0
LINE
  5
    46
  8
0
  6
CONTINUOUS
 62
     3
 10
-24.5
 20
212.25
 30
0.0
 11
24.5
 21
212.25
 31
0.0
  0
LINE
  5
    47
  8
0
  6
CONTINUOUS
 62
     3
 10
-70.25
 20
189.25
 30
0.0
 11
70.25
 21
189.25
 31
0.0
  0
LINE
  5
    48
  8
0
  6
CONTINUOUS
 62
     3
 10
23.25
 20
141.5
 30
0.0
 11
23.25
 21
163.5
 31
0.0
  0
LINE
  5
    49
  8
0
  6
CONTINUOUS
 62
     3
 10
-68.25
 20
141.5
 30
0.0
 11
-68.25
 21
163.5
 31
0.0
  0
LINE
  5
    4A
  8
0
  6
CONTINUOUS
 62
     3
 10
-66.75
 20
165.0
 30
0.0
 11
21.75
 21
165.0
 31
0.0
  0
LINE
  5
    4B
  8
0
  6
CONTINUOUS
 62
     3
 10
-66.75
 20
140.0
 30
0.0
 11
21.75
 21
140.0
 31
0.0
  0
ARC
  5
    4C
  8
0
  6
CONTINUOUS
 62
     3
 10
-66.75
 20
163.5
 30
0.0
 40
1.5
 50
90.0
 51
180.0
  0
ARC
  5
    4D
  8
0
  6
CONTINUOUS
 62
     3
 10
-66.75
 20
141.5
 30
0.0
 40
1.5
 50
180.0
 51
270.0
  0
ARC
  5
    4E
  8
0
  6
CONTINUOUS
 62
     3
 10
21.75
 20
141.5
 30
0.0
 40
1.5
 50
270.0
 51
360.0
  0
ARC
  5
    4F
  8
0
  6
CONTINUOUS
 62
     3
 10
21.75
 20
163.5
 30
0.0
 40
1.5
 50
0.0
 51
90.0
  0
CIRCLE
  5
    50
  8
0
  6
CONTINUOUS
 62
     3
 10
48.0
 20
46.5
 30
0.0
 40
8.25
  0
CIRCLE
  5
    51
  8
0
  6
CONTINUOUS
 62
     3
 10
48.0
 20
46.5
 30
0.0
 40
7.0
  0
LINE
  5
    52
  8
0
  6
CONTINUOUS
 62
     3
 10
-70.25
 20
128.0
 30
0.0
 11
70.25
 21
128.0
 31
0.0
  0
LINE
  5
    53
  8
0
  6
CONTINUOUS
 62
     3
 10
-70.25
 20
127.0
 30
0.0
 11
70.25
 21
127.0
 31
0.0
  0
LINE
  5
    54
  8
0
  6
CONTINUOUS
 62
     3
 10
-70.25
 20
108.0
 30
0.0
 11
-25.5
 21
108.0
 31
0.0
  0
LINE
  5
    55
  8
0
  6
CONTINUOUS
 62
     3
 10
-70.25
 20
109.0
 30
0.0
 11
-25.5
 21
109.0
 31
0.0
  0
LINE
  5
    56
  8
0
  6
CONTINUOUS
 62
     3
 10
-70.25
 20
34.0
 30
0.0
 11
-25.5
 21
34.0
 31
0.0
  0
LINE
  5
    57
  8
0
  6
CONTINUOUS
 62
     3
 10
-70.25
 20
14.0
 30
0.0
 11
70.25
 21
14.0
 31
0.0
  0
LINE
  5
    58
  8
0
  6
CONTINUOUS
 62
     3
 10
-70.25
 20
15.0
 30
0.0
 11
70.25
 21
15.0
 31
0.0
  0
LINE
  5
    59
  8
0
  6
CONTINUOUS
 62
     3
 10
-70.25
 20
33.0
 30
0.0
 11
-25.5
 21
33.0
 31
0.0
  0
LINE
  5
    5A
  8
0
  6
CONTINUOUS
 62
     3
 10
-25.5
 20
18.25
 30
0.0
 11
-25.5
 21
123.75
 31
0.0
  0
LINE
  5
    5B
  8
0
  6
CONTINUOUS
 62
     3
 10
25.5
 20
18.25
 30
0.0
 11
25.5
 21
123.75
 31
0.0
  0
LINE
  5
    5C
  8
0
  6
CONTINUOUS
 62
     1
 10
-25.5
 20
123.75
 30
0.0
 11
25.5
 21
123.75
 31
0.0
  0
LINE
  5
    5D
  8
0
  6
CONTINUOUS
 62
     1
 10
-25.5
 20
18.25
 30
0.0
 11
25.5
 21
18.25
 31
0.0
  0
LINE
  5
    5E
  8
0
  6
CONTINUOUS
 62
     3
 10
25.5
 20
109.0
 30
0.0
 11
70.25
 21
109.0
 31
0.0
  0
LINE
  5
    5F
  8
0
  6
CONTINUOUS
 62
     3
 10
25.5
 20
108.0
 30
0.0
 11
70.25
 21
108.0
 31
0.0
  0
LINE
  5
    60
  8
0
  6
CONTINUOUS
 62
     3
 10
25.5
 20
33.0
 30
0.0
 11
70.25
 21
33.0
 31
0.0
  0
LINE
  5
    61
  8
0
  6
CONTINUOUS
 62
     3
 10
25.5
 20
34.0
 30
0.0
 11
70.25
 21
34.0
 31
0.0
  0
LINE
  5
    62
  8
0
  6
CONTINUOUS
 62
     3
 10
-28.75
 20
15.0
 30
0.0
 11
-28.75
 21
33.0
 31
0.0
  0
LINE
  5
    63
  8
0
  6
CONTINUOUS
 62
     3
 10
28.75
 20
15.0
 30
0.0
 11
28.75
 21
33.0
 31
0.0
  0
LINE
  5
    64
  8
0
  6
CONTINUOUS
 62
     3
 10
28.75
 20
109.0
 30
0.0
 11
28.75
 21
127.0
 31
0.0
  0
LINE
  5
    65
  8
0
  6
CONTINUOUS
 62
     3
 10
-28.75
 20
109.0
 30
0.0
 11
-28.75
 21
127.0
 31
0.0
  0
CIRCLE
  5
    66
  8
0
  6
CONTINUOUS
 62
     2
 10
-63.0
 20
7.0
 30
0.0
 40
4.0
  0
CIRCLE
  5
    67
  8
0
  6
CONTINUOUS
 62
     2
 10
-63.0
 20
135.0
 30
0.0
 40
4.0
  0
CIRCLE
  5
    68
  8
0
  6
CONTINUOUS
 62
     2
 10
-63.0
 20
263.0
 30
0.0
 40
4.0
  0
LINE
  5
    69
  8
0
  6
CONTINUOUS
 62
     2
 10
-63.75
 20
137.75
 30
0.0
 11
-62.25
 21
137.75
 31
0.0
  0
LINE
  5
    6A
  8
0
  6
CONTINUOUS
 62
     2
 10
-63.75
 20
135.75
 30
0.0
 11
-63.75
 21
137.75
 31
0.0
  0
LINE
  5
    6B
  8
0
  6
CONTINUOUS
 62
     2
 10
-62.25
 20
135.75
 30
0.0
 11
-62.25
 21
137.75
 31
0.0
  0
LINE
  5
    6C
  8
0
  6
CONTINUOUS
 62
     2
 10
-62.25
 20
135.75
 30
0.0
 11
-60.25
 21
135.75
 31
0.0
  0
LINE
  5
    6D
  8
0
  6
CONTINUOUS
 62
     2
 10
-65.75
 20
135.75
 30
0.0
 11
-63.75
 21
135.75
 31
0.0
  0
LINE
  5
    6E
  8
0
  6
CONTINUOUS
 62
     2
 10
-65.75
 20
134.25
 30
0.0
 11
-65.75
 21
135.75
 31
0.0
  0
LINE
  5
    6F
  8
0
  6
CONTINUOUS
 62
     2
 10
-60.25
 20
134.25
 30
0.0
 11
-60.25
 21
135.75
 31
0.0
  0
LINE
  5
    70
  8
0
  6
CONTINUOUS
 62
     2
 10
-62.25
 20
134.25
 30
0.0
 11
-60.25
 21
134.25
 31
0.0
  0
LINE
  5
    71
  8
0
  6
CONTINUOUS
 62
     2
 10
-65.75
 20
134.25
 30
0.0
 11
-63.75
 21
134.25
 31
0.0
  0
LINE
  5
    72
  8
0
  6
CONTINUOUS
 62
     2
 10
-63.75
 20
132.25
 30
0.0
 11
-63.75
 21
134.25
 31
0.0
  0
LINE
  5
    73
  8
0
  6
CONTINUOUS
 62
     2
 10
-62.25
 20
132.25
 30
0.0
 11
-62.25
 21
134.25
 31
0.0
  0
LINE
  5
    74
  8
0
  6
CONTINUOUS
 62
     2
 10
-63.75
 20
132.25
 30
0.0
 11
-62.25
 21
132.25
 31
0.0
  0
LINE
  5
    75
  8
0
  6
CONTINUOUS
 62
     2
 10
-63.75
 20
9.75
 30
0.0
 11
-62.25
 21
9.75
 31
0.0
  0
LINE
  5
    76
  8
0
  6
CONTINUOUS
 62
     2
 10
-63.75
 20
7.75
 30
0.0
 11
-63.75
 21
9.75
 31
0.0
  0
LINE
  5
    77
  8
0
  6
CONTINUOUS
 62
     2
 10
-62.25
 20
7.75
 30
0.0
 11
-62.25
 21
9.75
 31
0.0
  0
LINE
  5
    78
  8
0
  6
CONTINUOUS
 62
     2
 10
-62.25
 20
7.75
 30
0.0
 11
-60.25
 21
7.75
 31
0.0
  0
LINE
  5
    79
  8
0
  6
CONTINUOUS
 62
     2
 10
-65.75
 20
7.75
 30
0.0
 11
-63.75
 21
7.75
 31
0.0
  0
LINE
  5
    7A
  8
0
  6
CONTINUOUS
 62
     2
 10
-65.75
 20
6.25
 30
0.0
 11
-65.75
 21
7.75
 31
0.0
  0
LINE
  5
    7B
  8
0
  6
CONTINUOUS
 62
     2
 10
-65.75
 20
6.25
 30
0.0
 11
-63.75
 21
6.25
 31
0.0
  0
LINE
  5
    7C
  8
0
  6
CONTINUOUS
 62
     2
 10
-62.25
 20
4.24999999999994
 30
0.0
 11
-62.25
 21
6.25
 31
0.0
  0
LINE
  5
    7D
  8
0
  6
CONTINUOUS
 62
     2
 10
-62.25
 20
6.25
 30
0.0
 11
-60.25
 21
6.25
 31
0.0
  0
LINE
  5
    7E
  8
0
  6
CONTINUOUS
 62
     2
 10
-60.25
 20
6.25
 30
0.0
 11
-60.25
 21
7.75
 31
0.0
  0
LINE
  5
    7F
  8
0
  6
CONTINUOUS
 62
     2
 10
-63.75
 20
4.24999999999994
 30
0.0
 11
-63.75
 21
6.25
 31
0.0
  0
LINE
  5
    80
  8
0
  6
CONTINUOUS
 62
     2
 10
-63.75
 20
4.24999999999994
 30
0.0
 11
-62.25
 21
4.24999999999994
 31
0.0
  0
CIRCLE
  5
    81
  8
0
  6
CONTINUOUS
 62
     2
 10
63.0
 20
7.0
 30
0.0
 40
4.0
  0
LINE
  5
    82
  8
0
  6
CONTINUOUS
 62
     2
 10
62.25
 20
9.75
 30
0.0
 11
63.75
 21
9.75
 31
0.0
  0
LINE
  5
    83
  8
0
  6
CONTINUOUS
 62
     2
 10
63.75
 20
7.75
 30
0.0
 11
63.75
 21
9.75
 31
0.0
  0
LINE
  5
    84
  8
0
  6
CONTINUOUS
 62
     2
 10
62.25
 20
7.75
 30
0.0
 11
62.25
 21
9.75
 31
0.0
  0
LINE
  5
    85
  8
0
  6
CONTINUOUS
 62
     2
 10
60.25
 20
7.75
 30
0.0
 11
62.25
 21
7.75
 31
0.0
  0
LINE
  5
    86
  8
0
  6
CONTINUOUS
 62
     2
 10
63.75
 20
7.75
 30
0.0
 11
65.75
 21
7.75
 31
0.0
  0
LINE
  5
    87
  8
0
  6
CONTINUOUS
 62
     2
 10
65.75
 20
6.25
 30
0.0
 11
65.75
 21
7.75
 31
0.0
  0
LINE
  5
    88
  8
0
  6
CONTINUOUS
 62
     2
 10
60.25
 20
6.25
 30
0.0
 11
60.25
 21
7.75
 31
0.0
  0
LINE
  5
    89
  8
0
  6
CONTINUOUS
 62
     2
 10
60.25
 20
6.25
 30
0.0
 11
62.25
 21
6.25
 31
0.0
  0
LINE
  5
    8A
  8
0
  6
CONTINUOUS
 62
     2
 10
63.75
 20
6.25
 30
0.0
 11
65.75
 21
6.25
 31
0.0
  0
LINE
  5
    8B
  8
0
  6
CONTINUOUS
 62
     2
 10
63.75
 20
4.24999999999994
 30
0.0
 11
63.75
 21
6.25
 31
0.0
  0
LINE
  5
    8C
  8
0
  6
CONTINUOUS
 62
     2
 10
62.25
 20
4.24999999999994
 30
0.0
 11
62.25
 21
6.25
 31
0.0
  0
LINE
  5
    8D
  8
0
  6
CONTINUOUS
 62
     2
 10
62.25
 20
4.24999999999994
 30
0.0
 11
63.75
 21
4.24999999999994
 31
0.0
  0
CIRCLE
  5
    8E
  8
0
  6
CONTINUOUS
 62
     2
 10
63.0
 20
135.0
 30
0.0
 40
4.0
  0
LINE
  5
    8F
  8
0
  6
CONTINUOUS
 62
     2
 10
62.25
 20
137.75
 30
0.0
 11
63.75
 21
137.75
 31
0.0
  0
LINE
  5
    90
  8
0
  6
CONTINUOUS
 62
     2
 10
63.75
 20
135.75
 30
0.0
 11
63.75
 21
137.75
 31
0.0
  0
LINE
  5
    91
  8
0
  6
CONTINUOUS
 62
     2
 10
62.25
 20
135.75
 30
0.0
 11
62.25
 21
137.75
 31
0.0
  0
LINE
  5
    92
  8
0
  6
CONTINUOUS
 62
     2
 10
60.25
 20
135.75
 30
0.0
 11
62.25
 21
135.75
 31
0.0
  0
LINE
  5
    93
  8
0
  6
CONTINUOUS
 62
     2
 10
63.75
 20
135.75
 30
0.0
 11
65.75
 21
135.75
 31
0.0
  0
LINE
  5
    94
  8
0
  6
CONTINUOUS
 62
     2
 10
65.75
 20
134.25
 30
0.0
 11
65.75
 21
135.75
 31
0.0
  0
LINE
  5
    95
  8
0
  6
CONTINUOUS
 62
     2
 10
63.75
 20
134.25
 30
0.0
 11
65.75
 21
134.25
 31
0.0
  0
LINE
  5
    96
  8
0
  6
CONTINUOUS
 62
     2
 10
63.75
 20
132.25
 30
0.0
 11
63.75
 21
134.25
 31
0.0
  0
LINE
  5
    97
  8
0
  6
CONTINUOUS
 62
     2
 10
62.25
 20
132.25
 30
0.0
 11
63.75
 21
132.25
 31
0.0
  0
LINE
  5
    98
  8
0
  6
CONTINUOUS
 62
     2
 10
62.25
 20
132.25
 30
0.0
 11
62.25
 21
134.25
 31
0.0
  0
LINE
  5
    99
  8
0
  6
CONTINUOUS
 62
     2
 10
60.25
 20
134.25
 30
0.0
 11
62.25
 21
134.25
 31
0.0
  0
LINE
  5
    9A
  8
0
  6
CONTINUOUS
 62
     2
 10
60.25
 20
134.25
 30
0.0
 11
60.25
 21
135.75
 31
0.0
  0
CIRCLE
  5
    9B
  8
0
  6
CONTINUOUS
 62
     2
 10
63.0
 20
263.0
 30
0.0
 40
4.0
  0
INSERT
  5
    9C
  8
0
  6
CONTINUOUS
 62
     2
  2
*HATCH27
 10
0.0
 20
0.0
 30
0.0
  0
INSERT
  5
    9D
  8
0
  6
CONTINUOUS
 62
     2
  2
*HATCH28
 10
0.0
 20
0.0
 30
0.0
  0
CIRCLE
  5
    9E
  8
0
  6
CONTINUOUS
 62
     2
 10
0.0
 20
224.0
 30
0.0
 40
9.5
  0
CIRCLE
  5
    9F
  8
0
  6
CONTINUOUS
 62
     2
 10
0.0
 20
224.0
 30
0.0
 40
7.75
  0
CIRCLE
  5
    A0
  8
0
  6
CONTINUOUS
 62
     2
 10
0.0
 20
224.0
 30
0.0
 40
6.25
  0
ARC
  5
    A1
  8
0
  6
DOT
 62
     2
 10
39.25
 20
224.0
 30
0.0
 40
5.5
 50
90.0
 51
270.0
  0
ARC
  5
    A2
  8
0
  6
CONTINUOUS
 62
     2
 10
50.75
 20
224.0
 30
0.0
 40
5.5
 50
270.0
 51
450.0
  0
LINE
  5
    A3
  8
0
  6
CONTINUOUS
 62
     2
 10
45.25
 20
216.5
 30
0.0
 11
45.25
 21
231.5
 31
0.0
  0
LINE
  5
    A4
  8
0
  6
DOT
 62
     2
 10
39.25
 20
229.5
 30
0.0
 11
45.25
 21
229.5
 31
0.0
  0
LINE
  5
    A5
  8
0
  6
DOT
 62
     2
 10
39.25
 20
218.5
 30
0.0
 11
45.25
 21
218.5
 31
0.0
  0
ARC
  5
    A6
  8
0
  6
CONTINUOUS
 62
     2
 10
39.25
 20
224.0
 30
0.0
 40
7.5
 50
90.0
 51
270.0
  0
LINE
  5
    A7
  8
0
  6
CONTINUOUS
 62
     2
 10
39.25
 20
231.5
 30
0.0
 11
45.25
 21
231.5
 31
0.0
  0
LINE
  5
    A8
  8
0
  6
CONTINUOUS
 62
     2
 10
39.25
 20
216.5
 30
0.0
 11
45.25
 21
216.5
 31
0.0
  0
LINE
  5
    A9
  8
0
  6
CONTINUOUS
 62
     2
 10
49.25
 20
218.5
 30
0.0
 11
49.25
 21
229.5
 31
0.0
  0
LINE
  5
    AA
  8
0
  6
CONTINUOUS
 62
     2
 10
52.25
 20
218.708497377871
 30
0.0
 11
52.25
 21
229.291502622129
 31
0.0
  0
LINE
  5
    AB
  8
0
  6
CONTINUOUS
 62
     2
 10
45.25
 20
229.5
 30
0.0
 11
50.75
 21
229.5
 31
0.0
  0
LINE
  5
    AC
  8
0
  6
CONTINUOUS
 62
     2
 10
45.25
 20
218.5
 30
0.0
 11
50.75
 21
218.5
 31
0.0
  0
LINE
  5
    AD
  8
0
  6
DASHDOT
 62
     2
 10
48.0
 20
29.5
 30
0.0
 11
48.0
 21
63.5
 31
0.0
  0
LINE
  5
    AE
  8
0
  6
DASHDOT
 62
     2
 10
31.0
 20
46.5
 30
0.0
 11
65.0
 21
46.5
 31
0.0
  0
LINE
  5
    AF
  8
0
  6
DASHDOT
 62
     2
 10
63.0
 20
-7.0
 30
0.0
 11
63.0
 21
21.0
 31
0.0
  0
LINE
  5
    B0
  8
0
  6
DASHDOT
 62
     2
 10
49.0
 20
7.0
 30
0.0
 11
77.0
 21
7.0
 31
0.0
  0
LINE
  5
    B1
  8
0
  6
DASHDOT
 62
     2
 10
-63.0
 20
-7.0
 30
0.0
 11
-63.0
 21
21.0
 31
0.0
  0
LINE
  5
    B2
  8
0
  6
DASHDOT
 62
     2
 10
-77.0
 20
7.0
 30
0.0
 11
-49.0
 21
7.0
 31
0.0
  0
LINE
  5
    B3
  8
0
  6
DASHDOT
 62
     2
 10
-63.0
 20
121.0
 30
0.0
 11
-63.0
 21
149.0
 31
0.0
  0
LINE
  5
    B4
  8
0
  6
DASHDOT
 62
     2
 10
-77.0
 20
135.0
 30
0.0
 11
-49.0
 21
135.0
 31
0.0
  0
LINE
  5
    B5
  8
0
  6
DASHDOT
 62
     2
 10
63.0
 20
121.0
 30
0.0
 11
63.0
 21
149.0
 31
0.0
  0
LINE
  5
    B6
  8
0
  6
DASHDOT
 62
     2
 10
49.0
 20
135.0
 30
0.0
 11
77.0
 21
135.0
 31
0.0
  0
LINE
  5
    B7
  8
0
  6
DASHDOT
 62
     2
 10
0.0
 20
206.25
 30
0.0
 11
0.0
 21
241.75
 31
0.0
  0
LINE
  5
    B8
  8
0
  6
DASHDOT
 62
     2
 10
-17.75
 20
224.0
 30
0.0
 11
17.75
 21
224.0
 31
0.0
  0
LINE
  5
    B9
  8
0
  6
DASHDOT
 62
     2
 10
39.25
 20
206.5
 30
0.0
 11
39.25
 21
241.5
 31
0.0
  0
LINE
  5
    BA
  8
0
  6
DASHDOT
 62
     2
 10
21.75
 20
224.0
 30
0.0
 11
56.75
 21
224.0
 31
0.0
  0
LINE
  5
    BB
  8
0
  6
DASHDOT
 62
     2
 10
50.75
 20
208.5
 30
0.0
 11
50.75
 21
239.5
 31
0.0
  0
LINE
  5
    BC
  8
0
  6
DASHDOT
 62
     2
 10
35.25
 20
224.0
 30
0.0
 11
66.25
 21
224.0
 31
0.0
  0
LINE
  5
    BD
  8
0
  6
DASHDOT
 62
     2
 10
63.0
 20
249.0
 30
0.0
 11
63.0
 21
277.0
 31
0.0
  0
LINE
  5
    BE
  8
0
  6
DASHDOT
 62
     2
 10
49.0
 20
263.0
 30
0.0
 11
77.0
 21
263.0
 31
0.0
  0
LINE
  5
    BF
  8
0
  6
CONTINUOUS
 62
     2
 10
-69.25
 20
190.25
 30
0.0
 11
-69.25
 21
210.25
 31
0.0
  0
LINE
  5
    C0
  8
0
  6
CONTINUOUS
 62
     2
 10
69.25
 20
190.25
 30
0.0
 11
69.25
 21
210.25
 31
0.0
  0
LINE
  5
    C1
  8
0
  6
CONTINUOUS
 62
     2
 10
-41.75
 20
190.25
 30
0.0
 11
-41.75
 21
210.25
 31
0.0
  0
LINE
  5
    C2
  8
0
  6
CONTINUOUS
 62
     2
 10
-25.25
 20
190.25
 30
0.0
 11
-25.25
 21
210.25
 31
0.0
  0
LINE
  5
    C3
  8
0
  6
CONTINUOUS
 62
     2
 10
-8.75
 20
190.25
 30
0.0
 11
-8.75
 21
210.25
 31
0.0
  0
LINE
  5
    C4
  8
0
  6
CONTINUOUS
 62
     2
 10
7.75
 20
190.25
 30
0.0
 11
7.75
 21
210.25
 31
0.0
  0
LINE
  5
    C5
  8
0
  6
CONTINUOUS
 62
     2
 10
24.25
 20
190.25
 30
0.0
 11
24.25
 21
210.25
 31
0.0
  0
LINE
  5
    C6
  8
0
  6
CONTINUOUS
 62
     2
 10
40.75
 20
190.25
 30
0.0
 11
40.75
 21
210.25
 31
0.0
  0
LINE
  5
    C7
  8
0
  6
CONTINUOUS
 62
     2
 10
57.25
 20
190.25
 30
0.0
 11
57.25
 21
210.113559719484
 31
0.0
  0
LINE
  5
    C8
  8
0
  6
CONTINUOUS
 62
     2
 10
-69.25
 20
203.916666666667
 30
0.0
 11
69.25
 21
203.916666666667
 31
0.0
  0
LINE
  5
    C9
  8
0
  6
CONTINUOUS
 62
     2
 10
-69.25
 20
196.583333333333
 30
0.0
 11
69.25
 21
196.583333333333
 31
0.0
  0
LINE
  5
    CA
  8
0
  6
CONTINUOUS
 62
     2
 10
-69.25
 20
210.25
 30
0.0
 11
69.25
 21
210.25
 31
0.0
  0
LINE
  5
    CB
  8
0
  6
CONTINUOUS
 62
     2
 10
-69.25
 20
190.25
 30
0.0
 11
69.25
 21
190.25
 31
0.0
  0
CIRCLE
  5
    CC
  8
0
  6
CONTINUOUS
 62
     3
 10
-35.25
 20
152.5
 30
0.0
 40
8.0
  0
LINE
  5
    CD
  8
0
  6
DASHDOT
 62
     7
 10
-63.0
 20
249.0
 30
0.0
 11
-63.0
 21
277.0
 31
0.0
  0
LINE
  5
    CE
  8
0
  6
DASHDOT
 62
     7
 10
-77.0
 20
263.0
 30
0.0
 11
-49.0
 21
263.0
 31
0.0
  0
LINE
  5
    CF
  8
0
  6
CONTINUOUS
 62
     3
 10
-70.25
 20
178.428172712697
 30
0.0
 11
70.25
 21
178.428172712697
 31
0.0
  0
LINE
  5
    D0
  8
0
  6
CONTINUOUS
 62
     3
 10
-70.25
 20
171.499969482422
 30
0.0
 11
70.25
 21
171.499969482422
 31
0.0
  0
ENDBLK
  5
    D1
  8
0
  6
CONTINUOUS
 62
     7
  0
BLOCK
  5
    D2
  8
0
  6
CONTINUOUS
 62
     7
  2
*UDIM358
 70
    65
 10
0.0
 20
0.0
 30
0.0
  3
*UDIM358
  0
TEXT
  5
    D3
  8
0
  6
CONTINUOUS
 62
     7
 10
-27.6075086606046
 20
-163.060958179302
 30
0.0
 40
2.99999994933605
  1
285,5
 50
359.999999948034
 41
0.933333333333333
 72
     1
 11
-20.9075087724011
 21
-161.560958210677
 31
0.0
 73
     2
  0
LINE
  5
    D4
  8
0
  6
CONTINUOUS
 62
     7
 10
36.4674919395018
 20
-84.6909496635222
 30
0.0
 11
36.4674919395018
 21
-166.060958185345
 31
0.0
  0
LINE
  5
    D5
  8
0
  6
CONTINUOUS
 62
     7
 10
-77.7325097622108
 20
-133.970957000516
 30
0.0
 11
-77.7325097622108
 21
-166.060958185345
 31
0.0
  0
LINE
  5
    D6
  8
0
  6
CONTINUOUS
 62
     7
 10
36.4674919395018
 20
-164.060958185345
 30
0.0
 11
-77.7325097622108
 21
-164.060958185345
 31
0.0
  0
LINE
  5
    D7
  8
0
  6
CONTINUOUS
 62
     7
 10
33.5130686622949
 20
-164.581902615297
 30
0.0
 11
36.4674919395018
 21
-164.060958185345
 31
0.0
  0
LINE
  5
    D8
  8
0
  6
CONTINUOUS
 62
     7
 10
36.4674919395018
 20
-164.060958185345
 30
0.0
 11
33.5130686622949
 21
-163.540013755393
 31
0.0
  0
LINE
  5
    D9
  8
0
  6
CONTINUOUS
 62
     7
 10
-74.7780864850038
 20
-163.540013755393
 30
0.0
 11
-77.7325097622108
 21
-164.060958185345
 31
0.0
  0
LINE
  5
    DA
  8
0
  6
CONTINUOUS
 62
     7
 10
-77.7325097622108
 20
-164.060958185345
 30
0.0
 11
-74.7780864850038
 21
-164.581902615297
 31
0.0
  0
ENDBLK
  5
    DB
  8
0
  6
CONTINUOUS
 62
     7
  0
BLOCK
  5
    DC
  8
0
  6
CONTINUOUS
 62
     7
  2
*UDIM359
 70
    65
 10
0.0
 20
0.0
 30
0.0
  3
*UDIM359
  0
TEXT
  5
    DD
  8
0
  6
CONTINUOUS
 62
     7
 10
-13.6075084519883
 20
-152.289449229732
 30
0.0
 40
2.99999994933605
  1
215,5
 50
359.999999948034
 41
0.933333333333333
 72
     1
 11
-6.90750856378488
 21
-150.789449261107
 31
0.0
 73
     2
  0
LINE
  5
    DE
  8
0
  6
CONTINUOUS
 62
     7
 10
36.4674919395018
 20
-84.6909496635222
 30
0.0
 11
36.4674919395018
 21
-155.289449235775
 31
0.0
  0
LINE
  5
    DF
  8
0
  6
CONTINUOUS
 62
     7
 10
-49.7325093449783
 20
-133.970957000516
 30
0.0
 11
-49.7325093449783
 21
-155.289449235775
 31
0.0
  0
LINE
  5
    E0
  8
0
  6
CONTINUOUS
 62
     7
 10
36.4674919395018
 20
-153.289449235775
 30
0.0
 11
-49.7325093449783
 21
-153.289449235775
 31
0.0
  0
LINE
  5
    E1
  8
0
  6
CONTINUOUS
 62
     7
 10
33.5130686622949
 20
-153.810393665726
 30
0.0
 11
36.4674919395018
 21
-153.289449235775
 31
0.0
  0
LINE
  5
    E2
  8
0
  6
CONTINUOUS
 62
     7
 10
36.4674919395018
 20
-153.289449235775
 30
0.0
 11
33.5130686622949
 21
-152.768504805823
 31
0.0
  0
LINE
  5
    E3
  8
0
  6
CONTINUOUS
 62
     7
 10
-46.7780860677713
 20
-152.768504805823
 30
0.0
 11
-49.7325093449783
 21
-153.289449235775
 31
0.0
  0
LINE
  5
    E4
  8
0
  6
CONTINUOUS
 62
     7
 10
-49.7325093449783
 20
-153.289449235775
 30
0.0
 11
-46.7780860677713
 21
-153.810393665726
 31
0.0
  0
ENDBLK
  5
    E5
  8
0
  6
CONTINUOUS
 62
     7
  0
BLOCK
  5
    E6
  8
0
  6
CONTINUOUS
 62
     7
  2
*UDIM360
 70
    65
 10
0.0
 20
0.0
 30
0.0
  3
*UDIM360
  0
TEXT
  5
    E7
  8
0
  6
CONTINUOUS
 62
     7
 10
50.6219327175933
 20
-107.715965138681
 30
0.0
 40
2.99999994933605
  1
111,75
 50
89.9999999480344
 41
0.933333333333333
 72
     1
 11
49.1219327502616
 21
-99.6159652741151
 31
0.0
 73
     2
  0
LINE
  5
    E8
  8
0
  6
CONTINUOUS
 62
     7
 10
45.0674831494689
 20
-121.690969242915
 30
0.0
 11
53.6219327249296
 21
-121.690969242915
 31
0.0
  0
LINE
  5
    E9
  8
0
  6
CONTINUOUS
 62
     7
 10
45.1832739044125
 20
-76.9909619646914
 30
0.0
 11
53.6219327249296
 21
-76.9909619646914
 31
0.0
  0
LINE
  5
    EA
  8
0
  6
CONTINUOUS
 62
     7
 10
51.6219327249296
 20
-121.690969242915
 30
0.0
 11
51.6219327249296
 21
-76.9909619646914
 31
0.0
  0
LINE
  5
    EB
  8
0
  6
CONTINUOUS
 62
     7
 10
51.1009882949779
 20
-118.736545965708
 30
0.0
 11
51.6219327249296
 21
-121.690969242915
 31
0.0
  0
LINE
  5
    EC
  8
0
  6
CONTINUOUS
 62
     7
 10
51.6219327249296
 20
-121.690969242915
 30
0.0
 11
52.1428771548813
 21
-118.736545965708
 31
0.0
  0
LINE
  5
    ED
  8
0
  6
CONTINUOUS
 62
     7
 10
52.1428771548813
 20
-79.9453852418983
 30
0.0
 11
51.6219327249296
 21
-76.9909619646914
 31
0.0
  0
LINE
  5
    EE
  8
0
  6
CONTINUOUS
 62
     7
 10
51.6219327249296
 20
-76.9909619646914
 30
0.0
 11
51.1009882949779
 21
-79.9453852418983
 31
0.0
  0
ENDBLK
  5
    EF
  8
0
  6
CONTINUOUS
 62
     7
  0
BLOCK
  5
    F0
  8
0
  6
CONTINUOUS
 62
     7
  2
*UDIM361
 70
    65
 10
0.0
 20
0.0
 30
0.0
  3
*UDIM361
  0
TEXT
  5
    F1
  8
0
  6
CONTINUOUS
 62
     7
 10
57.3664823824458
 20
-58.2659675314598
 30
0.0
 40
2.99999994933605
  1
338
 50
89.9999999480344
 41
0.933333333333333
 72
     1
 11
55.8664824113101
 21
-54.3659675959643
 31
0.0
 73
     2
  0
LINE
  5
    F2
  8
0
  6
CONTINUOUS
 62
     7
 10
45.0674831494689
 20
-121.690969242915
 30
0.0
 11
60.3664823859781
 21
-121.690969242915
 31
0.0
  0
LINE
  5
    F3
  8
0
  6
CONTINUOUS
 62
     7
 10
45.1674831509591
 20
13.5090327717218
 30
0.0
 11
60.3664823859781
 21
13.5090327717218
 31
0.0
  0
LINE
  5
    F4
  8
0
  6
CONTINUOUS
 62
     7
 10
58.3664823859781
 20
-121.690969242915
 30
0.0
 11
58.3664823859781
 21
13.5090327717218
 31
0.0
  0
LINE
  5
    F5
  8
0
  6
CONTINUOUS
 62
     7
 10
57.8455379560264
 20
-118.736545965708
 30
0.0
 11
58.3664823859781
 21
-121.690969242915
 31
0.0
  0
LINE
  5
    F6
  8
0
  6
CONTINUOUS
 62
     7
 10
58.3664823859781
 20
-121.690969242915
 30
0.0
 11
58.8874268159297
 21
-118.736545965708
 31
0.0
  0
LINE
  5
    F7
  8
0
  6
CONTINUOUS
 62
     7
 10
58.8874268159297
 20
10.5546094945148
 30
0.0
 11
58.3664823859781
 21
13.5090327717218
 31
0.0
  0
LINE
  5
    F8
  8
0
  6
CONTINUOUS
 62
     7
 10
58.3664823859781
 20
13.5090327717218
 30
0.0
 11
57.8455379560264
 21
10.5546094945148
 31
0.0
  0
ENDBLK
  5
    F9
  8
0
  6
CONTINUOUS
 62
     7
  0
BLOCK
  5
    FA
  8
0
  6
CONTINUOUS
 62
     7
  2
*UDIM362
 70
    65
 10
0.0
 20
0.0
 30
0.0
  3
*UDIM362
  0
TEXT
  5
    FB
  8
0
  6
CONTINUOUS
 62
     7
 10
-31.7075178840626
 20
17.2845889403871
 30
0.0
 40
2.99999994933605
  1
91,5
 50
359.999999948034
 41
0.933333333333333
 72
     1
 11
-26.407517972216
 21
18.7845889102748
 31
0.0
 73
     2
  0
LINE
  5
    FC
  8
0
  6
CONTINUOUS
 62
     7
 10
-44.4325181692838
 20
14.0090327642712
 30
0.0
 11
-44.4325181692838
 21
18.2845889356067
 31
0.0
  0
LINE
  5
    FD
  8
0
  6
CONTINUOUS
 62
     7
 10
-7.83251762390135
 20
16.2845889356067
 30
0.0
 11
-44.4325181692838
 21
16.2845889356067
 31
0.0
  0
LINE
  5
    FE
  8
0
  6
CONTINUOUS
 62
     7
 10
-10.7869409011083
 20
15.7636445056551
 30
0.0
 11
-7.83251762390135
 21
16.2845889356067
 31
0.0
  0
LINE
  5
    FF
  8
0
  6
CONTINUOUS
 62
     7
 10
-7.83251762390135
 20
16.2845889356067
 30
0.0
 11
-10.7869409011083
 21
16.8055333655584
 31
0.0
  0
LINE
  5
   100
  8
0
  6
CONTINUOUS
 62
     7
 10
-41.4780948920769
 20
16.8055333655584
 30
0.0
 11
-44.4325181692838
 21
16.2845889356067
 31
0.0
  0
LINE
  5
   101
  8
0
  6
CONTINUOUS
 62
     7
 10
-44.4325181692838
 20
16.2845889356067
 30
0.0
 11
-41.4780948920769
 21
15.7636445056551
 31
0.0
  0
ENDBLK
  5
   102
  8
0
  6
CONTINUOUS
 62
     7
  0
BLOCK
  5
   103
  8
0
  6
CONTINUOUS
 62
     7
  2
*UDIM363
 70
    65
 10
0.0
 20
0.0
 30
0.0
  3
*UDIM363
  0
TEXT
  5
   104
  8
0
  6
CONTINUOUS
 62
     7
 10
-6.90751749385085
 20
23.3546818055387
 30
0.0
 40
2.99999994933605
  1
222,5
 50
359.999999948034
 41
0.933333333333333
 72
     1
 11
-0.207517605647423
 21
24.8546817741637
 31
0.0
 73
     2
  0
LINE
  5
   105
  8
0
  6
CONTINUOUS
 62
     7
 10
44.5674831569195
 20
14.0090327642712
 30
0.0
 11
44.5674831569195
 21
24.3546817994957
 31
0.0
  0
LINE
  5
   106
  8
0
  6
CONTINUOUS
 62
     7
 10
-44.4325181692838
 20
14.0090327642712
 30
0.0
 11
-44.4325181692838
 21
24.3546817994957
 31
0.0
  0
LINE
  5
   107
  8
0
  6
CONTINUOUS
 62
     7
 10
44.5674831569195
 20
22.3546817994957
 30
0.0
 11
-44.4325181692838
 21
22.3546817994957
 31
0.0
  0
LINE
  5
   108
  8
0
  6
CONTINUOUS
 62
     7
 10
41.6130598797125
 20
21.833737369544
 30
0.0
 11
44.5674831569195
 21
22.3546817994957
 31
0.0
  0
LINE
  5
   109
  8
0
  6
CONTINUOUS
 62
     7
 10
44.5674831569195
 20
22.3546817994957
 30
0.0
 11
41.6130598797125
 21
22.8756262294473
 31
0.0
  0
LINE
  5
   10A
  8
0
  6
CONTINUOUS
 62
     7
 10
-41.4780948920769
 20
22.8756262294473
 30
0.0
 11
-44.4325181692838
 21
22.3546817994957
 31
0.0
  0
LINE
  5
   10B
  8
0
  6
CONTINUOUS
 62
     7
 10
-44.4325181692838
 20
22.3546817994957
 30
0.0
 11
-41.4780948920769
 21
21.833737369544
 31
0.0
  0
ENDBLK
  5
   10C
  8
0
  6
CONTINUOUS
 62
     7
  0
BLOCK
  5
   10D
  8
0
  6
CONTINUOUS
 62
     7
  2
*UDIM364
 70
    65
 10
0.0
 20
0.0
 30
0.0
  3
*UDIM364
  0
TEXT
  5
   10E
  8
0
  6
CONTINUOUS
 62
     7
 10
-83.7848136699889
 20
-46.9159611872584
 30
0.0
 40
2.99999994933605
  1
192,25
 50
89.9999999480344
 41
0.933333333333333
 72
     1
 11
-85.2848136373206
 21
-38.8159613226925
 31
0.0
 73
     2
  0
LINE
  5
   10F
  8
0
  6
CONTINUOUS
 62
     7
 10
-54.5830182560078
 20
-76.9909619646914
 30
0.0
 11
-84.7848136626526
 21
-76.9909619646914
 31
0.0
  0
LINE
  5
   110
  8
0
  6
CONTINUOUS
 62
     7
 10
-36.3325180336833
 20
-9.09606248142154E-2
 30
0.0
 11
-84.7848136626526
 21
-9.09606248142154E-2
 31
0.0
  0
LINE
  5
   111
  8
0
  6
CONTINUOUS
 62
     7
 10
-82.7848136626526
 20
-76.9909619646914
 30
0.0
 11
-82.7848136626526
 21
-9.09606248142154E-2
 31
0.0
  0
LINE
  5
   112
  8
0
  6
CONTINUOUS
 62
     7
 10
-83.3057580926043
 20
-74.0365386874844
 30
0.0
 11
-82.7848136626526
 21
-76.9909619646914
 31
0.0
  0
LINE
  5
   113
  8
0
  6
CONTINUOUS
 62
     7
 10
-82.7848136626526
 20
-76.9909619646914
 30
0.0
 11
-82.2638692327009
 21
-74.0365386874844
 31
0.0
  0
LINE
  5
   114
  8
0
  6
CONTINUOUS
 62
     7
 10
-82.2638692327009
 20
-3.04538390202119
 30
0.0
 11
-82.7848136626526
 21
-9.09606248142154E-2
 31
0.0
  0
LINE
  5
   115
  8
0
  6
CONTINUOUS
 62
     7
 10
-82.7848136626526
 20
-9.09606248142154E-2
 30
0.0
 11
-83.3057580926043
 21
-3.04538390202119
 31
0.0
  0
ENDBLK
  5
   116
  8
0
  6
CONTINUOUS
 62
     7
  0
BLOCK
  5
   117
  8
0
  6
CONTINUOUS
 62
     7
  2
*UDIM365
 70
    65
 10
0.0
 20
0.0
 30
0.0
  3
*UDIM365
  0
TEXT
  5
   118
  8
0
  6
CONTINUOUS
 62
     7
 10
-91.0144646528213
 20
-58.2659614167539
 30
0.0
 40
2.99999994933605
  1
270
 50
89.9999999480344
 41
0.933333333333333
 72
     1
 11
-92.5144646239571
 21
-54.3659614812585
 31
0.0
 73
     2
  0
LINE
  5
   119
  8
0
  6
CONTINUOUS
 62
     7
 10
-36.3325180336833
 20
-108.09096223414
 30
0.0
 11
-92.014464649289
 21
-108.09096223414
 31
0.0
  0
LINE
  5
   11A
  8
0
  6
CONTINUOUS
 62
     7
 10
-36.3325180336833
 20
-9.09606248142154E-2
 30
0.0
 11
-92.014464649289
 21
-9.09606248142154E-2
 31
0.0
  0
LINE
  5
   11B
  8
0
  6
CONTINUOUS
 62
     7
 10
-90.014464649289
 20
-108.09096223414
 30
0.0
 11
-90.014464649289
 21
-9.09606248142154E-2
 31
0.0
  0
LINE
  5
   11C
  8
0
  6
CONTINUOUS
 62
     7
 10
-90.5354090792407
 20
-105.136538956933
 30
0.0
 11
-90.014464649289
 21
-108.09096223414
 31
0.0
  0
LINE
  5
   11D
  8
0
  6
CONTINUOUS
 62
     7
 10
-90.014464649289
 20
-108.09096223414
 30
0.0
 11
-89.4935202193374
 21
-105.136538956933
 31
0.0
  0
LINE
  5
   11E
  8
0
  6
CONTINUOUS
 62
     7
 10
-89.4935202193374
 20
-3.04538390202119
 30
0.0
 11
-90.014464649289
 21
-9.09606248142154E-2
 31
0.0
  0
LINE
  5
   11F
  8
0
  6
CONTINUOUS
 62
     7
 10
-90.014464649289
 20
-9.09606248142154E-2
 30
0.0
 11
-90.5354090792407
 21
-3.04538390202119
 31
0.0
  0
ENDBLK
  5
   120
  8
0
  6
CONTINUOUS
 62
     7
  0
BLOCK
  5
   121
  8
0
  6
CONTINUOUS
 62
     7
  2
*UDIM366
 70
    65
 10
0.0
 20
0.0
 30
0.0
  3
*UDIM366
  0
TEXT
  5
   122
  8
0
  6
CONTINUOUS
 62
     7
 10
-10.6325176383673
 20
-142.261360703921
 30
0.0
 40
2.99999994933605
  1
140
 50
359.999999948034
 41
0.933333333333333
 72
     1
 11
-6.7325177028775
 21
-140.76136073277
 31
0.0
 73
     2
  0
LINE
  5
   123
  8
0
  6
CONTINUOUS
 62
     7
 10
20.2674827948213
 20
-108.490962225199
 30
0.0
 11
20.2674827948213
 21
-145.261360707438
 31
0.0
  0
LINE
  5
   124
  8
0
  6
CONTINUOUS
 62
     7
 10
-35.932518042624
 20
-108.490962225199
 30
0.0
 11
-35.932518042624
 21
-145.261360707438
 31
0.0
  0
LINE
  5
   125
  8
0
  6
CONTINUOUS
 62
     7
 10
20.2674827948213
 20
-143.261360707438
 30
0.0
 11
-35.932518042624
 21
-143.261360707438
 31
0.0
  0
LINE
  5
   126
  8
0
  6
CONTINUOUS
 62
     7
 10
17.3130595176143
 20
-143.78230513739
 30
0.0
 11
20.2674827948213
 21
-143.261360707438
 31
0.0
  0
LINE
  5
   127
  8
0
  6
CONTINUOUS
 62
     7
 10
20.2674827948213
 20
-143.261360707438
 30
0.0
 11
17.3130595176143
 21
-142.740416277486
 31
0.0
  0
LINE
  5
   128
  8
0
  6
CONTINUOUS
 62
     7
 10
-32.978094765417
 20
-142.740416277486
 30
0.0
 11
-35.932518042624
 21
-143.261360707438
 31
0.0
  0
LINE
  5
   129
  8
0
  6
CONTINUOUS
 62
     7
 10
-35.932518042624
 20
-143.261360707438
 30
0.0
 11
-32.978094765417
 21
-143.78230513739
 31
0.0
  0
ENDBLK
  5
   12A
  8
0
  6
CONTINUOUS
 62
     7
  0
BLOCK
  5
   12B
  8
0
  6
CONTINUOUS
 62
     0
  2
MOTORE
 70
    64
 10
0.0
 20
0.0
 30
0.0
  3
MOTORE
  0
LINE
  5
   12C
  8
0
  6
CONTINUOUS
 62
     0
 10
-1.5
 20
-25.25
 30
0.0
 11
-1.5
 21
0.0
 31
0.0
  0
LINE
  5
   12D
  8
0
  6
CONTINUOUS
 62
     0
 10
22.0
 20
-25.25
 30
0.0
 11
22.0
 21
244.75
 31
0.0
  0
LINE
  5
   12E
  8
0
  6
CONTINUOUS
 62
     0
 10
-1.5
 20
-25.25
 30
0.0
 11
22.0
 21
-25.25
 31
0.0
  0
LINE
  5
   12F
  8
0
  6
CONTINUOUS
 62
     0
 10
-1.5
 20
0.0
 30
0.0
 11
0.0
 21
0.0
 31
0.0
  0
LINE
  5
   130
  8
0
  6
CONTINUOUS
 62
     0
 10
0.0
 20
0.0
 30
0.0
 11
0.0
 21
105.0
 31
0.0
  0
LINE
  5
   131
  8
0
  6
CONTINUOUS
 62
     0
 10
-1.5
 20
244.75
 30
0.0
 11
22.0
 21
244.75
 31
0.0
  0
LINE
  5
   132
  8
0
  6
CONTINUOUS
 62
     0
 10
-1.5
 20
105.0
 30
0.0
 11
0.0
 21
105.0
 31
0.0
  0
LINE
  5
   133
  8
0
  6
CONTINUOUS
 62
     0
 10
-1.5
 20
105.0
 30
0.0
 11
-1.5
 21
244.75
 31
0.0
  0
LINE
  5
   134
  8
0
  6
CONTINUOUS
 62
     0
 10
100.5
 20
-25.25
 30
0.0
 11
100.5
 21
-11.25
 31
0.0
  0
LINE
  5
   135
  8
0
  6
CONTINUOUS
 62
     0
 10
22.0
 20
-25.25
 30
0.0
 11
100.5
 21
-25.25
 31
0.0
  0
LINE
  5
   136
  8
0
  6
CONTINUOUS
 62
     0
 10
83.0
 20
102.75
 30
0.0
 11
83.0
 21
244.75
 31
0.0
  0
LINE
  5
   137
  8
0
  6
CONTINUOUS
 62
     0
 10
22.0
 20
244.75
 30
0.0
 11
83.0
 21
244.75
 31
0.0
  0
LINE
  5
   138
  8
0
  6
CONTINUOUS
 62
     0
 10
83.0
 20
102.75
 30
0.0
 11
100.5
 21
102.75
 31
0.0
  0
LINE
  5
   139
  8
0
  6
CONTINUOUS
 62
     0
 10
99.5
 20
101.75
 30
0.0
 11
100.5
 21
101.75
 31
0.0
  0
LINE
  5
   13A
  8
0
  6
CONTINUOUS
 62
     0
 10
99.5
 20
101.75
 30
0.0
 11
99.5
 21
102.75
 31
0.0
  0
LINE
  5
   13B
  8
0
  6
CONTINUOUS
 62
     0
 10
99.5
 20
82.75
 30
0.0
 11
100.5
 21
82.75
 31
0.0
  0
LINE
  5
   13C
  8
0
  6
CONTINUOUS
 62
     0
 10
99.5
 20
83.75
 30
0.0
 11
100.5
 21
83.75
 31
0.0
  0
LINE
  5
   13D
  8
0
  6
CONTINUOUS
 62
     0
 10
99.5
 20
-11.25
 30
0.0
 11
99.5
 21
-10.25
 31
0.0
  0
LINE
  5
   13E
  8
0
  6
CONTINUOUS
 62
     0
 10
99.5
 20
82.75
 30
0.0
 11
99.5
 21
83.75
 31
0.0
  0
LINE
  5
   13F
  8
0
  6
CONTINUOUS
 62
     0
 10
100.5
 20
83.75
 30
0.0
 11
100.5
 21
101.75
 31
0.0
  0
LINE
  5
   140
  8
0
  6
CONTINUOUS
 62
     0
 10
99.5
 20
8.75
 30
0.0
 11
100.5
 21
8.75
 31
0.0
  0
LINE
  5
   141
  8
0
  6
CONTINUOUS
 62
     0
 10
99.5
 20
7.75
 30
0.0
 11
100.5
 21
7.75
 31
0.0
  0
LINE
  5
   142
  8
0
  6
CONTINUOUS
 62
     0
 10
99.5
 20
-11.25
 30
0.0
 11
100.5
 21
-11.25
 31
0.0
  0
LINE
  5
   143
  8
0
  6
CONTINUOUS
 62
     0
 10
99.5
 20
-10.25
 30
0.0
 11
100.5
 21
-10.25
 31
0.0
  0
LINE
  5
   144
  8
0
  6
CONTINUOUS
 62
     0
 10
100.5
 20
8.75
 30
0.0
 11
100.5
 21
82.75
 31
0.0
  0
LINE
  5
   145
  8
0
  6
CONTINUOUS
 62
     0
 10
99.5
 20
7.75
 30
0.0
 11
99.5
 21
8.75
 31
0.0
  0
LINE
  5
   146
  8
0
  6
CONTINUOUS
 62
     0
 10
100.5
 20
-10.25
 30
0.0
 11
100.5
 21
7.75
 31
0.0
  0
LINE
  5
   147
  8
0
  6
CONTINUOUS
 62
     0
 10
120.5
 20
165.75
 30
0.0
 11
120.5
 21
186.0
 31
0.0
  0
LINE
  5
   148
  8
0
  6
CONTINUOUS
 62
     0
 10
83.0
 20
244.75
 30
0.0
 11
120.5
 21
244.75
 31
0.0
  0
LINE
  5
   149
  8
0
  6
CONTINUOUS
 62
     0
 10
104.5
 20
165.75
 30
0.0
 11
120.5
 21
165.75
 31
0.0
  0
LINE
  5
   14A
  8
0
  6
CONTINUOUS
 62
     0
 10
100.5
 20
102.75
 30
0.0
 11
100.5
 21
148.75
 31
0.0
  0
LINE
  5
   14B
  8
0
  6
CONTINUOUS
 62
     0
 10
104.5
 20
155.678203230276
 30
0.0
 11
104.5
 21
165.75
 31
0.0
  0
LINE
  5
   14C
  8
0
  6
CONTINUOUS
 62
     0
 10
100.5
 20
148.75
 30
0.0
 11
104.5
 21
155.678203230276
 31
0.0
  0
LINE
  5
   14D
  8
0
  6
CONTINUOUS
 62
     0
 10
119.5
 20
210.5
 30
0.0
 11
120.5
 21
210.5
 31
0.0
  0
LINE
  5
   14E
  8
0
  6
CONTINUOUS
 62
     0
 10
119.5
 20
211.5
 30
0.0
 11
120.5
 21
211.5
 31
0.0
  0
LINE
  5
   14F
  8
0
  6
CONTINUOUS
 62
     0
 10
119.5
 20
187.0
 30
0.0
 11
120.5
 21
187.0
 31
0.0
  0
LINE
  5
   150
  8
0
  6
CONTINUOUS
 62
     0
 10
119.5
 20
186.0
 30
0.0
 11
120.5
 21
186.0
 31
0.0
  0
LINE
  5
   151
  8
0
  6
CONTINUOUS
 62
     0
 10
119.5
 20
186.0
 30
0.0
 11
119.5
 21
187.0
 31
0.0
  0
LINE
  5
   152
  8
0
  6
CONTINUOUS
 62
     0
 10
119.5
 20
210.5
 30
0.0
 11
119.5
 21
211.5
 31
0.0
  0
LINE
  5
   153
  8
0
  6
CONTINUOUS
 62
     0
 10
120.5
 20
211.5
 30
0.0
 11
120.5
 21
244.75
 31
0.0
  0
LINE
  5
   154
  8
0
  6
CONTINUOUS
 62
     0
 10
120.5
 20
187.0
 30
0.0
 11
120.5
 21
210.5
 31
0.0
  0
LINE
  5
   155
  8
0
  6
CONTINUOUS
 62
     0
 10
120.5
 20
136.814995672692
 30
0.0
 11
120.5
 21
165.75
 31
0.0
  0
ENDBLK
  5
   156
  8
0
  6
CONTINUOUS
 62
     0
  0
BLOCK
  5
   157
  8
0
  6
CONTINUOUS
 62
     7
  2
*HATCH29
 70
    65
 10
0.0
 20
0.0
 30
0.0
  3
*HATCH29
  0
LINE
  5
   158
  8
0
  6
CONTINUOUS
 62
    52
 10
255.747451782227
 20
37.2514457702637
 30
0.0
 11
255.745971679688
 21
37.2499656677246
 31
0.0
  0
ENDBLK
  5
   159
  8
0
  6
CONTINUOUS
 62
     7
  0
BLOCK
  5
   15A
  8
0
  6
CONTINUOUS
 62
     7
  2
*HATCH30
 70
    65
 10
0.0
 20
0.0
 30
0.0
  3
*HATCH30
  0
LINE
  5
   15B
  8
0
  6
CONTINUOUS
 62
    52
 10
196.783203125
 20
287.999969482422
 30
0.0
 11
195.999938964844
 21
287.216705322266
 31
0.0
  0
LINE
  5
   15C
  8
0
  6
CONTINUOUS
 62
    52
 10
197.999938964844
 20
287.095367431641
 30
0.0
 11
195.999938964844
 21
285.095367431641
 31
0.0
  0
LINE
  5
   15D
  8
0
  6
CONTINUOUS
 62
    52
 10
197.999938964844
 20
284.974060058594
 30
0.0
 11
197.025833129883
 21
283.999969482422
 31
0.0
  0
ENDBLK
  5
   15E
  8
0
  6
CONTINUOUS
 62
     7
  0
BLOCK
  5
   15F
  8
0
  6
CONTINUOUS
 62
     7
  2
*HATCH31
 70
    65
 10
0.0
 20
0.0
 30
0.0
  3
*HATCH31
  0
LINE
  5
   160
  8
0
  6
CONTINUOUS
 62
    52
 10
197.653182983398
 20
329.175018310547
 30
0.0
 11
195.999938964844
 21
327.521789550781
 31
0.0
  0
LINE
  5
   161
  8
0
  6
CONTINUOUS
 62
    52
 10
197.999938964844
 20
327.400451660156
 30
0.0
 11
195.999938964844
 21
325.400451660156
 31
0.0
  0
LINE
  5
   162
  8
0
  6
CONTINUOUS
 62
    52
 10
197.999938964844
 20
325.279144287109
 30
0.0
 11
195.999938964844
 21
323.279144287109
 31
0.0
  0
LINE
  5
   163
  8
0
  6
CONTINUOUS
 62
    52
 10
197.999938964844
 20
323.157836914063
 30
0.0
 11
195.999938964844
 21
321.157836914063
 31
0.0
  0
LINE
  5
   164
  8
0
  6
CONTINUOUS
 62
    52
 10
197.999938964844
 20
321.036529541016
 30
0.0
 11
195.999938964844
 21
319.036529541016
 31
0.0
  0
LINE
  5
   165
  8
0
  6
CONTINUOUS
 62
    52
 10
197.999938964844
 20
318.915222167969
 30
0.0
 11
195.999938964844
 21
316.915222167969
 31
0.0
  0
LINE
  5
   166
  8
0
  6
CONTINUOUS
 62
    52
 10
197.999938964844
 20
316.793914794922
 30
0.0
 11
195.999938964844
 21
314.793914794922
 31
0.0
  0
LINE
  5
   167
  8
0
  6
CONTINUOUS
 62
    52
 10
197.999938964844
 20
314.672607421875
 30
0.0
 11
195.999938964844
 21
312.672607421875
 31
0.0
  0
LINE
  5
   168
  8
0
  6
CONTINUOUS
 62
    52
 10
197.999938964844
 20
312.551300048828
 30
0.0
 11
195.999938964844
 21
310.551300048828
 31
0.0
  0
LINE
  5
   169
  8
0
  6
CONTINUOUS
 62
    52
 10
197.999938964844
 20
310.429992675781
 30
0.0
 11
195.999938964844
 21
308.429992675781
 31
0.0
  0
LINE
  5
   16A
  8
0
  6
CONTINUOUS
 62
    52
 10
197.999938964844
 20
308.308685302734
 30
0.0
 11
195.999938964844
 21
306.308685302734
 31
0.0
  0
LINE
  5
   16B
  8
0
  6
CONTINUOUS
 62
    52
 10
197.999938964844
 20
306.187377929688
 30
0.0
 11
195.999938964844
 21
304.187377929688
 31
0.0
  0
LINE
  5
   16C
  8
0
  6
CONTINUOUS
 62
    52
 10
197.999938964844
 20
304.066070556641
 30
0.0
 11
195.999938964844
 21
302.066070556641
 31
0.0
  0
LINE
  5
   16D
  8
0
  6
CONTINUOUS
 62
    52
 10
197.999938964844
 20
301.944763183594
 30
0.0
 11
195.999938964844
 21
299.944763183594
 31
0.0
  0
LINE
  5
   16E
  8
0
  6
CONTINUOUS
 62
    52
 10
197.999938964844
 20
299.823455810547
 30
0.0
 11
195.999938964844
 21
297.823455810547
 31
0.0
  0
LINE
  5
   16F
  8
0
  6
CONTINUOUS
 62
    52
 10
197.999938964844
 20
297.701965332031
 30
0.0
 11
196.297927856445
 21
295.999969482422
 31
0.0
  0
ENDBLK
  5
   170
  8
0
  6
CONTINUOUS
 62
     7
  0
BLOCK
  5
   171
  8
0
  6
CONTINUOUS
 62
     7
  2
*HATCH32
 70
    65
 10
0.0
 20
0.0
 30
0.0
  3
*HATCH32
  0
LINE
  5
   172
  8
0
  6
CONTINUOUS
 62
    52
 10
197.374649047852
 20
-19.0000381469727
 30
0.0
 11
195.999893188477
 21
-20.374792098999
 31
0.0
  0
LINE
  5
   173
  8
0
  6
CONTINUOUS
 62
    52
 10
197.999908447266
 20
-20.49609375
 30
0.0
 11
195.999893188477
 21
-22.4961128234863
 31
0.0
  0
LINE
  5
   174
  8
0
  6
CONTINUOUS
 62
    52
 10
197.999908447266
 20
-22.6174144744873
 30
0.0
 11
197.617294311523
 21
-23.0000343322754
 31
0.0
  0
ENDBLK
  5
   175
  8
0
  6
CONTINUOUS
 62
     7
  0
BLOCK
  5
   176
  8
0
  6
CONTINUOUS
 62
     7
  2
*HATCH33
 70
    65
 10
0.0
 20
0.0
 30
0.0
  3
*HATCH33
  0
LINE
  5
   177
  8
0
  6
CONTINUOUS
 62
    52
 10
197.999893188477
 20
-31.102710723877
 30
0.0
 11
195.999938964844
 21
-33.1026649475098
 31
0.0
  0
LINE
  5
   178
  8
0
  6
CONTINUOUS
 62
    52
 10
197.999893188477
 20
-33.2240295410156
 30
0.0
 11
195.999938964844
 21
-35.2239837646484
 31
0.0
  0
LINE
  5
   179
  8
0
  6
CONTINUOUS
 62
    52
 10
197.999893188477
 20
-35.3453483581543
 30
0.0
 11
195.999938964844
 21
-37.3453025817871
 31
0.0
  0
LINE
  5
   17A
  8
0
  6
CONTINUOUS
 62
    52
 10
197.999893188477
 20
-37.466667175293
 30
0.0
 11
195.999938964844
 21
-39.4666213989258
 31
0.0
  0
LINE
  5
   17B
  8
0
  6
CONTINUOUS
 62
    52
 10
197.999893188477
 20
-39.5879859924316
 30
0.0
 11
195.999938964844
 21
-41.5879402160645
 31
0.0
  0
LINE
  5
   17C
  8
0
  6
CONTINUOUS
 62
    52
 10
197.999893188477
 20
-41.7093048095703
 30
0.0
 11
195.999938964844
 21
-43.7092590332031
 31
0.0
  0
LINE
  5
   17D
  8
0
  6
CONTINUOUS
 62
    52
 10
197.999893188477
 20
-43.830623626709
 30
0.0
 11
195.999938964844
 21
-45.8305778503418
 31
0.0
  0
LINE
  5
   17E
  8
0
  6
CONTINUOUS
 62
    52
 10
197.999893188477
 20
-45.9519424438477
 30
0.0
 11
195.999938964844
 21
-47.9518966674805
 31
0.0
  0
LINE
  5
   17F
  8
0
  6
CONTINUOUS
 62
    52
 10
197.999893188477
 20
-48.0732612609863
 30
0.0
 11
195.999938964844
 21
-50.0732154846191
 31
0.0
  0
LINE
  5
   180
  8
0
  6
CONTINUOUS
 62
    52
 10
197.999893188477
 20
-50.194580078125
 30
0.0
 11
195.999938964844
 21
-52.1945343017578
 31
0.0
  0
LINE
  5
   181
  8
0
  6
CONTINUOUS
 62
    52
 10
197.999893188477
 20
-52.3158988952637
 30
0.0
 11
195.999938964844
 21
-54.3158531188965
 31
0.0
  0
LINE
  5
   182
  8
0
  6
CONTINUOUS
 62
    52
 10
197.999893188477
 20
-54.4372177124023
 30
0.0
 11
195.999938964844
 21
-56.4371719360352
 31
0.0
  0
LINE
  5
   183
  8
0
  6
CONTINUOUS
 62
    52
 10
197.999893188477
 20
-56.558536529541
 30
0.0
 11
195.999938964844
 21
-58.5584907531738
 31
0.0
  0
LINE
  5
   184
  8
0
  6
CONTINUOUS
 62
    52
 10
197.999893188477
 20
-58.6798553466797
 30
0.0
 11
195.999938964844
 21
-60.6798095703125
 31
0.0
  0
LINE
  5
   185
  8
0
  6
CONTINUOUS
 62
    52
 10
197.999893188477
 20
-60.8011741638184
 30
0.0
 11
195.999938964844
 21
-62.8011283874512
 31
0.0
  0
LINE
  5
   186
  8
0
  6
CONTINUOUS
 62
    52
 10
197.999893188477
 20
-62.922492980957
 30
0.0
 11
195.999938964844
 21
-64.9224472045898
 31
0.0
  0
LINE
  5
   187
  8
0
  6
CONTINUOUS
 62
    52
 10
197.999893188477
 20
-65.0438079833984
 30
0.0
 11
195.999938964844
 21
-67.0437698364258
 31
0.0
  0
LINE
  5
   188
  8
0
  6
CONTINUOUS
 62
    52
 10
197.999893188477
 20
-67.1651229858398
 30
0.0
 11
195.999938964844
 21
-69.1650924682617
 31
0.0
  0
LINE
  5
   189
  8
0
  6
CONTINUOUS
 62
    52
 10
197.999893188477
 20
-69.2864379882813
 30
0.0
 11
195.999938964844
 21
-71.2864151000977
 31
0.0
  0
LINE
  5
   18A
  8
0
  6
CONTINUOUS
 62
    52
 10
197.999893188477
 20
-71.4077529907227
 30
0.0
 11
195.999938964844
 21
-73.4077377319336
 31
0.0
  0
LINE
  5
   18B
  8
0
  6
CONTINUOUS
 62
    52
 10
197.999893188477
 20
-73.5290679931641
 30
0.0
 11
195.999938964844
 21
-75.5290603637695
 31
0.0
  0
LINE
  5
   18C
  8
0
  6
CONTINUOUS
 62
    52
 10
197.999938964844
 20
-75.650390625
 30
0.0
 11
197.07160949707
 21
-76.578727722168
 31
0.0
  0
ENDBLK
  5
   18D
  8
0
  6
CONTINUOUS
 62
     7
  0
BLOCK
  5
   18E
  8
0
  6
CONTINUOUS
 62
     7
  2
MOSTRINA
 70
    64
 10
0.0
 20
0.0
 30
0.0
  3
MOSTRINA
  0
LINE
  5
   18F
  8
0
  6
CONTINUOUS
 62
     7
 10
197.99993896484
 20
301.499954223633
 30
0.0
 11
197.99993896484
 21
329.137879943504
 31
0.0
  0
LINE
  5
   190
  8
0
  6
CONTINUOUS
 62
     7
 10
195.99993896484
 20
283.499954223633
 30
0.0
 11
195.99993896484
 21
288.999965326125
 31
0.0
  0
LINE
  5
   191
  8
0
  6
CONTINUOUS
 62
     7
 10
195.99993896484
 20
294.999965326248
 30
0.0
 11
195.99993896484
 21
329.352165657789
 31
0.0
  0
LINE
  5
   192
  8
0
  6
CONTINUOUS
 62
     7
 10
187.829815849933
 20
330.227535991529
 30
0.0
 11
204.471709449149
 21
328.444475963042
 31
0.0
  0
LINE
  5
   193
  8
0
  6
CONTINUOUS
 62
     7
 10
197.99993896484
 20
-76.3112398752081
 30
0.0
 11
197.99993896484
 21
-36.5000352859497
 31
0.0
  0
LINE
  5
   194
  8
0
  6
CONTINUOUS
 62
     7
 10
195.99993896484
 20
-76.8875110616487
 30
0.0
 11
195.99993896484
 21
-30.0000306909644
 31
0.0
  0
LINE
  5
   195
  8
0
  6
CONTINUOUS
 62
     7
 10
188.721345864177
 20
-78.9847328025178
 30
0.0
 11
206.254769477637
 21
-73.9327293884701
 31
0.0
  0
LINE
  5
   196
  8
0
  6
CONTINUOUS
 62
     1
 10
191.499923707278
 20
289.577346792859
 30
0.0
 11
191.499938966067
 21
294.42262266816
 31
0.0
  0
LINE
  5
   197
  8
0
  6
CONTINUOUS
 62
     1
 10
191.499923707278
 20
-29.422666548357
 30
0.0
 11
191.499938966068
 21
-24.5773715926318
 31
0.0
  0
LINE
  5
   198
  8
0
  6
CONTINUOUS
 62
     1
 10
197.999893188473
 20
-36.5000352859497
 30
0.0
 11
201.499908447262
 21
-36.5000352859497
 31
0.0
  0
LINE
  5
   199
  8
0
  6
CONTINUOUS
 62
     1
 10
197.99993896484
 20
301.499954223633
 30
0.0
 11
201.49993896484
 21
301.499954223633
 31
0.0
  0
LINE
  5
   19A
  8
0
  6
CONTINUOUS
 62
     1
 10
197.999893188473
 20
-36.5000352859497
 30
0.0
 11
197.999893188473
 21
-24.0000362394802
 31
0.0
  0
LINE
  5
   19B
  8
0
  6
CONTINUOUS
 62
     1
 10
197.99993896484
 20
-18.5000381469873
 30
0.0
 11
197.99993896484
 21
301.499954223633
 31
0.0
  0
LINE
  5
   19C
  8
0
  6
CONTINUOUS
 62
     1
 10
197.999908447262
 20
-24.0000381469727
 30
0.0
 11
197.999908447262
 21
-18.5000381469727
 31
0.0
  0
LINE
  5
   19D
  8
0
  6
CONTINUOUS
 62
     1
 10
201.499908447262
 20
-16.5000343322754
 30
0.0
 11
201.499908447262
 21
281.49996185303
 31
0.0
  0
LINE
  5
   19E
  8
0
  6
CONTINUOUS
 62
     1
 10
201.49993896484
 20
281.499954223633
 30
0.0
 11
201.49993896484
 21
301.499954223633
 31
0.0
  0
LINE
  5
   19F
  8
0
  6
CONTINUOUS
 62
     1
 10
201.499908447562
 20
-36.5000352645309
 30
0.0
 11
201.49993896514
 21
-16.5000352645309
 31
0.0
  0
LINE
  5
   1A0
  8
0
  6
CONTINUOUS
 62
     1
 10
195.99993896484
 20
283.499954223633
 30
0.0
 11
197.99993896484
 21
283.499954223633
 31
0.0
  0
LINE
  5
   1A1
  8
0
  6
CONTINUOUS
 62
     1
 10
195.999893188702
 20
-18.5000362396096
 30
0.0
 11
197.999908447491
 21
-18.5000381469582
 31
0.0
  0
LINE
  5
   1A2
  8
0
  6
CONTINUOUS
 62
     1
 10
195.999888375891
 20
-18.5000362396233
 30
0.0
 11
195.999888375891
 21
283.499963760377
 31
0.0
  0
LINE
  5
   1A3
  8
0
  6
CONTINUOUS
 62
     1
 10
192.499938966753
 20
-24.0000209807339
 30
0.0
 11
197.999893188473
 21
-24.0000362394802
 31
0.0
  0
LINE
  5
   1A4
  8
0
  6
CONTINUOUS
 62
     1
 10
191.499926840397
 20
-24.5773753980781
 30
0.0
 11
192.499926873326
 21
-24.000024813565
 31
0.0
  0
LINE
  5
   1A5
  8
0
  6
CONTINUOUS
 62
     1
 10
191.499917577979
 20
-29.4226653773051
 30
0.0
 11
192.499917610904
 21
-30.0000198061698
 31
0.0
  0
LINE
  5
   1A6
  8
0
  6
CONTINUOUS
 62
     1
 10
192.499923707964
 20
-30.000020980757
 30
0.0
 11
197.999893188473
 21
-30.0000362395031
 31
0.0
  0
LINE
  5
   1A7
  8
0
  6
CONTINUOUS
 62
     1
 10
192.499938972491
 20
294.999984746526
 30
0.0
 11
197.999938972491
 21
294.999954228947
 31
0.0
  0
LINE
  5
   1A8
  8
0
  6
CONTINUOUS
 62
     1
 10
191.499928167009
 20
294.422612705264
 30
0.0
 11
192.499928199912
 21
294.999974754035
 31
0.0
  0
LINE
  5
   1A9
  8
0
  6
CONTINUOUS
 62
     1
 10
191.49991840381
 20
289.577340912821
 30
0.0
 11
192.499918436713
 21
288.999978864051
 31
0.0
  0
LINE
  5
   1AA
  8
0
  6
CONTINUOUS
 62
     1
 10
192.499923713702
 20
288.999984746433
 30
0.0
 11
197.999938972491
 21
288.999954228855
 31
0.0
  0
LINE
  5
   1AB
  8
0
  6
DASHDOT
 62
     7
 10
188.890949857947
 20
132.499985329808
 30
0.0
 11
204.117180239084
 21
132.499937379371
 31
0.0
  0
LINE
  5
   1AC
  8
0
  6
DASHDOT
 62
     7
 10
186.890167557559
 20
291.999999261693
 30
0.0
 11
204.415484790032
 21
291.999944070797
 31
0.0
  0
LINE
  5
   1AD
  8
0
  6
DASHDOT
 62
     7
 10
186.013902705825
 20
-27.0000017966934
 30
0.0
 11
208.421271884917
 21
-27.000072361919
 31
0.0
  0
LINE
  5
   1AE
  8
0
  6
DASHDOT
 62
     7
 10
191.105090110885
 20
-14.0000501329705
 30
0.0
 11
205.336197812754
 21
-14.0000501329705
 31
0.0
  0
LINE
  5
   1AF
  8
0
  6
DASHDOT
 62
     7
 10
193.646359343361
 20
278.999960331205
 30
0.0
 11
205.505615761586
 21
278.999960331205
 31
0.0
  0
LINE
  5
   1B0
  8
0
  6
CONTINUOUS
 62
     1
 10
192.499923707964
 20
-30.0000209806424
 30
0.0
 11
192.499938966753
 21
-24.0000209806193
 31
0.0
  0
INSERT
  5
   1B1
  8
0
  6
CONTINUOUS
 62
     7
  2
*HATCH29
 10
0.0
 20
0.0
 30
0.0
  0
LINE
  5
   1B2
  8
0
  6
CONTINUOUS
 62
     7
 10
195.99993896484
 20
295.999965326264
 30
0.0
 11
197.99993896484
 21
295.999954228962
 31
0.0
  0
LINE
  5
   1B3
  8
0
  6
CONTINUOUS
 62
     7
 10
195.99993896484
 20
287.99996532611
 30
0.0
 11
197.99993896484
 21
287.999954228839
 31
0.0
  0
LINE
  5
   1B4
  8
0
  6
CONTINUOUS
 62
     1
 10
192.499923713702
 20
288.999984746433
 30
0.0
 11
192.499938972491
 21
294.999984746526
 31
0.0
  0
LINE
  5
   1B5
  8
0
  6
CONTINUOUS
 62
     7
 10
195.99993896484
 20
-31.0000306909683
 30
0.0
 11
197.999893188473
 21
-31.000036239507
 31
0.0
  0
LINE
  5
   1B6
  8
0
  6
CONTINUOUS
 62
     7
 10
195.999888375891
 20
-23.0000306907818
 30
0.0
 11
197.999893188473
 21
-23.0000362394764
 31
0.0
  0
LINE
  5
   1B7
  8
0
  6
CONTINUOUS
 62
     7
 10
195.999892711869
 20
-19.0000362396094
 30
0.0
 11
197.999908447262
 21
-19.0000381469584
 31
0.0
  0
LINE
  5
   1B8
  8
0
  6
CONTINUOUS
 62
     7
 10
195.99993896484
 20
283.999954223633
 30
0.0
 11
197.99993896484
 21
283.999954223633
 31
0.0
  0
LINE
  5
   1B9
  8
0
  6
CONTINUOUS
 62
     7
 10
195.999888375891
 20
-24.0000362394802
 30
0.0
 11
195.999888375891
 21
-18.5000362396233
 31
0.0
  0
INSERT
  5
   1BA
  8
0
  6
CONTINUOUS
 62
     7
  2
*HATCH30
 10
0.0
 20
0.0
 30
0.0
  0
INSERT
  5
   1BB
  8
0
  6
CONTINUOUS
 62
     7
  2
*HATCH31
 10
0.0
 20
0.0
 30
0.0
  0
INSERT
  5
   1BC
  8
0
  6
CONTINUOUS
 62
     7
  2
*HATCH32
 10
0.0
 20
0.0
 30
0.0
  0
INSERT
  5
   1BD
  8
0
  6
CONTINUOUS
 62
     7
  2
*HATCH33
 10
0.0
 20
0.0
 30
0.0
  0
ENDBLK
  5
   1BE
  8
0
  6
CONTINUOUS
 62
     7
  0
BLOCK
  5
   1BF
  8
0
  6
CONTINUOUS
 62
     7
  2
*UDIM367
 70
    65
 10
0.0
 20
0.0
 30
0.0
  3
*UDIM367
  0
TEXT
  5
   1C0
  8
0
  6
CONTINUOUS
 62
     7
 10
167.525944507703
 20
18.1672381797162
 30
0.0
 40
2.99999994933605
  1
23,5
 41
0.933333333333333
 72
     1
 11
172.825944418197
 21
19.6672381543842
 31
0.0
 73
     2
  0
LINE
  5
   1C1
  8
0
  6
CONTINUOUS
 62
     7
 10
165.79347361028
 20
0.909047004580316
 30
0.0
 11
165.79347361028
 21
19.1672381797162
 31
0.0
  0
LINE
  5
   1C2
  8
0
  6
CONTINUOUS
 62
     7
 10
156.393485677241
 20
17.1672381797162
 30
0.0
 11
178.125944328691
 21
17.1672381797162
 31
0.0
  0
LINE
  5
   1C3
  8
0
  6
CONTINUOUS
 62
     7
 10
159.347908954448
 20
17.6881826096678
 30
0.0
 11
156.393485677241
 21
17.1672381797162
 31
0.0
  0
LINE
  5
   1C4
  8
0
  6
CONTINUOUS
 62
     7
 10
156.393485677241
 20
17.1672381797162
 30
0.0
 11
159.347908954448
 21
16.6462937497645
 31
0.0
  0
LINE
  5
   1C5
  8
0
  6
CONTINUOUS
 62
     7
 10
162.839050333073
 20
16.6462937497645
 30
0.0
 11
165.79347361028
 21
17.1672381797162
 31
0.0
  0
LINE
  5
   1C6
  8
0
  6
CONTINUOUS
 62
     7
 10
165.79347361028
 20
17.1672381797162
 30
0.0
 11
162.839050333073
 21
17.6881826096678
 31
0.0
  0
ENDBLK
  5
   1C7
  8
0
  6
CONTINUOUS
 62
     7
  0
BLOCK
  5
   1C8
  8
0
  6
CONTINUOUS
 62
     7
  2
*UDIM368
 70
    65
 10
0.0
 20
0.0
 30
0.0
  3
*UDIM368
  0
TEXT
  5
   1C9
  8
0
  6
CONTINUOUS
 62
     7
 10
68.4067122252866
 20
-60.3159507027996
 30
0.0
 40
2.99999994933605
  1
125,25
 50
90.0
 41
0.933333333333333
 72
     1
 11
66.9067122506084
 21
-52.2159508395942
 31
0.0
 73
     2
  0
LINE
  5
   1CA
  8
0
  6
CONTINUOUS
 62
     7
 10
76.1934967041016
 20
-26.8909411877394
 30
0.0
 11
67.4067122252765
 21
-26.8909411877394
 31
0.0
  0
LINE
  5
   1CB
  8
0
  6
CONTINUOUS
 62
     7
 10
69.4067122252765
 20
-76.9909602448347
 30
0.0
 11
69.4067122252765
 21
-26.8909411877394
 31
0.0
  0
LINE
  5
   1CC
  8
0
  6
CONTINUOUS
 62
     7
 10
68.8857677953248
 20
-74.0365369676277
 30
0.0
 11
69.4067122252765
 21
-76.9909602448347
 31
0.0
  0
LINE
  5
   1CD
  8
0
  6
CONTINUOUS
 62
     7
 10
69.4067122252765
 20
-76.9909602448347
 30
0.0
 11
69.9276566552281
 21
-74.0365369676277
 31
0.0
  0
LINE
  5
   1CE
  8
0
  6
CONTINUOUS
 62
     7
 10
69.9276566552281
 20
-29.8453644649463
 30
0.0
 11
69.4067122252765
 21
-26.8909411877394
 31
0.0
  0
LINE
  5
   1CF
  8
0
  6
CONTINUOUS
 62
     7
 10
69.4067122252765
 20
-26.8909411877394
 30
0.0
 11
68.8857677953248
 21
-29.8453644649463
 31
0.0
  0
ENDBLK
  5
   1D0
  8
0
  6
CONTINUOUS
 62
     7
  0
BLOCK
  5
   1D1
  8
0
  6
CONTINUOUS
 62
     7
  2
*UDIM369
 70
    65
 10
0.0
 20
0.0
 30
0.0
  3
*UDIM369
  0
TEXT
  5
   1D2
  8
0
  6
CONTINUOUS
 62
     7
 10
130.718479288095
 20
-139.769717909079
 30
0.0
 40
2.99999994933605
  1
96,5
 41
0.933333333333333
 72
     1
 11
136.018479198588
 21
-138.269717934411
 31
0.0
 73
     2
  0
LINE
  5
   1D3
  8
0
  6
CONTINUOUS
 62
     7
 10
116.993472883103
 20
-109.090954604745
 30
0.0
 11
116.993472883103
 21
-142.769717909079
 31
0.0
  0
LINE
  5
   1D4
  8
0
  6
CONTINUOUS
 62
     7
 10
155.59348566532
 20
-138.845937721461
 30
0.0
 11
155.59348566532
 21
-142.769717909079
 31
0.0
  0
LINE
  5
   1D5
  8
0
  6
CONTINUOUS
 62
     7
 10
116.993472883103
 20
-140.769717909079
 30
0.0
 11
155.59348566532
 21
-140.769717909079
 31
0.0
  0
LINE
  5
   1D6
  8
0
  6
CONTINUOUS
 62
     7
 10
119.94789616031
 20
-140.248773479128
 30
0.0
 11
116.993472883103
 21
-140.769717909079
 31
0.0
  0
LINE
  5
   1D7
  8
0
  6
CONTINUOUS
 62
     7
 10
116.993472883103
 20
-140.769717909079
 30
0.0
 11
119.94789616031
 21
-141.290662339031
 31
0.0
  0
LINE
  5
   1D8
  8
0
  6
CONTINUOUS
 62
     7
 10
152.639062388113
 20
-141.290662339031
 30
0.0
 11
155.59348566532
 21
-140.769717909079
 31
0.0
  0
LINE
  5
   1D9
  8
0
  6
CONTINUOUS
 62
     7
 10
155.59348566532
 20
-140.769717909079
 30
0.0
 11
152.639062388113
 21
-140.248773479128
 31
0.0
  0
ENDBLK
  5
   1DA
  8
0
  6
CONTINUOUS
 62
     7
  0
BLOCK
  5
   1DB
  8
0
  6
CONTINUOUS
 62
     7
  2
*UDIM370
 70
    65
 10
0.0
 20
0.0
 30
0.0
  3
*UDIM370
  0
TEXT
  5
   1DC
  8
0
  6
CONTINUOUS
 62
     7
 10
108.918491190944
 20
18.1243670853273
 30
0.0
 40
2.99999994933605
  1
198,5
 41
0.933333333333333
 72
     1
 11
115.618491077795
 21
19.6243670599954
 31
0.0
 73
     2
  0
LINE
  5
   1DD
  8
0
  6
CONTINUOUS
 62
     7
 10
76.1934966892004
 20
-17.5908155560221
 30
0.0
 11
76.1934966892004
 21
19.1243670853273
 31
0.0
  0
LINE
  5
   1DE
  8
0
  6
CONTINUOUS
 62
     7
 10
76.1934966892004
 20
17.1243670853273
 30
0.0
 11
155.59348566532
 21
17.1243670853273
 31
0.0
  0
LINE
  5
   1DF
  8
0
  6
CONTINUOUS
 62
     7
 10
79.1479199664074
 20
17.645311515279
 30
0.0
 11
76.1934966892004
 21
17.1243670853273
 31
0.0
  0
LINE
  5
   1E0
  8
0
  6
CONTINUOUS
 62
     7
 10
76.1934966892004
 20
17.1243670853273
 30
0.0
 11
79.1479199664074
 21
16.6034226553757
 31
0.0
  0
LINE
  5
   1E1
  8
0
  6
CONTINUOUS
 62
     7
 10
152.639062388113
 20
16.6034226553757
 30
0.0
 11
155.59348566532
 21
17.1243670853273
 31
0.0
  0
LINE
  5
   1E2
  8
0
  6
CONTINUOUS
 62
     7
 10
155.59348566532
 20
17.1243670853273
 30
0.0
 11
152.639062388113
 21
17.645311515279
 31
0.0
  0
ENDBLK
  5
   1E3
  8
0
  6
CONTINUOUS
 62
     7
  0
BLOCK
  5
   1E4
  8
0
  6
CONTINUOUS
 62
     7
  2
*UDIM371
 70
    65
 10
0.0
 20
0.0
 30
0.0
  3
*UDIM371
  0
TEXT
  5
   1E5
  8
0
  6
CONTINUOUS
 62
     7
 10
152.466276181032
 20
18.1243670853273
 30
0.0
 40
2.99999994933605
  1
2
 41
0.933333333333333
 72
     1
 11
153.566276162456
 21
19.6243670599954
 31
0.0
 73
     2
  0
LINE
  5
   1E6
  8
0
  6
CONTINUOUS
 62
     7
 10
152.466276181032
 20
17.1243670853273
 30
0.0
 11
156.393485677241
 21
17.1243670853273
 31
0.0
  0
LINE
  5
   1E7
  8
0
  6
CONTINUOUS
 62
     7
 10
152.639062388113
 20
16.6034226553757
 30
0.0
 11
155.59348566532
 21
17.1243670853273
 31
0.0
  0
LINE
  5
   1E8
  8
0
  6
CONTINUOUS
 62
     7
 10
155.59348566532
 20
17.1243670853273
 30
0.0
 11
152.639062388113
 21
17.645311515279
 31
0.0
  0
LINE
  5
   1E9
  8
0
  6
CONTINUOUS
 62
     7
 10
159.347908954448
 20
17.645311515279
 30
0.0
 11
156.393485677241
 21
17.1243670853273
 31
0.0
  0
LINE
  5
   1EA
  8
0
  6
CONTINUOUS
 62
     7
 10
156.393485677241
 20
17.1243670853273
 30
0.0
 11
159.347908954448
 21
16.6034226553757
 31
0.0
  0
ENDBLK
  5
   1EB
  8
0
  6
CONTINUOUS
 62
     7
  0
BLOCK
  5
   1EC
  8
0
  6
CONTINUOUS
 62
     2
  2
*UDIM372
 70
    65
 10
0.0
 20
0.0
 30
0.0
  3
*UDIM372
  0
TEXT
  5
   1ED
  8
0
  6
CONTINUOUS
 62
     2
 10
231.751011285399
 20
-82.8058643264957
 30
0.0
 40
3.00000002980232
  1
122
 50
359.999999844103
 41
0.933333333333333
 72
     1
 11
235.651011328216
 21
-81.3058643221865
 31
0.0
 73
     2
  0
TEXT
  5
   1EE
  8
0
  6
CONTINUOUS
 62
     2
 10
241.351011381989
 20
-82.3558643538338
 30
0.0
 40
2.1000000834465
  1
±0,1
 50
359.999999844103
 41
0.933333333333333
 72
     1
 11
245.061011532262
 21
-81.3058643221865
 31
0.0
 73
     2
  0
LINE
  5
   1EF
  8
0
  6
CONTINUOUS
 62
     2
 10
225.193332699975
 20
-79.792300958819
 30
0.0
 11
225.193332699975
 21
-85.8058643370877
 31
0.0
  0
LINE
  5
   1F0
  8
0
  6
CONTINUOUS
 62
     2
 10
255.693340161035
 20
-46.9669822794066
 30
0.0
 11
255.693340161035
 21
-85.8058643370877
 31
0.0
  0
LINE
  5
   1F1
  8
0
  6
CONTINUOUS
 62
     2
 10
225.193332699975
 20
-83.8058643370877
 30
0.0
 11
255.693340161035
 21
-83.8058643370877
 31
0.0
  0
LINE
  5
   1F2
  8
0
  6
CONTINUOUS
 62
     2
 10
228.147755977182
 20
-83.284919907136
 30
0.0
 11
225.193332699975
 21
-83.8058643370877
 31
0.0
  0
LINE
  5
   1F3
  8
0
  6
CONTINUOUS
 62
     2
 10
225.193332699975
 20
-83.8058643370877
 30
0.0
 11
228.147755977182
 21
-84.3268087670393
 31
0.0
  0
LINE
  5
   1F4
  8
0
  6
CONTINUOUS
 62
     2
 10
252.738916883828
 20
-84.3268087670393
 30
0.0
 11
255.693340161035
 21
-83.8058643370877
 31
0.0
  0
LINE
  5
   1F5
  8
0
  6
CONTINUOUS
 62
     2
 10
255.693340161035
 20
-83.8058643370877
 30
0.0
 11
252.738916883828
 21
-83.284919907136
 31
0.0
  0
ENDBLK
  5
   1F6
  8
0
  6
CONTINUOUS
 62
     2
  0
BLOCK
  5
   1F7
  8
0
  6
CONTINUOUS
 62
     2
  2
*UDIM373
 70
    65
 10
0.0
 20
0.0
 30
0.0
  3
*UDIM373
  0
TEXT
  5
   1F8
  8
0
  6
CONTINUOUS
 62
     2
 10
221.018340255135
 20
-72.8830385132023
 30
0.0
 40
3.00000002980232
  1
174
 50
359.999999844103
 41
0.933333333333333
 72
     1
 11
224.918340297952
 21
-71.3830385088931
 31
0.0
 73
     2
  0
LINE
  5
   1F9
  8
0
  6
CONTINUOUS
 62
     2
 10
203.443341985449
 20
-58.8419852256775
 30
0.0
 11
203.443341985449
 21
-75.8830385237942
 31
0.0
  0
LINE
  5
   1FA
  8
0
  6
CONTINUOUS
 62
     2
 10
246.943340350911
 20
-58.8419852256775
 30
0.0
 11
246.943340350911
 21
-75.8830385237942
 31
0.0
  0
LINE
  5
   1FB
  8
0
  6
CONTINUOUS
 62
     2
 10
203.443341985449
 20
-73.8830385237942
 30
0.0
 11
246.943340350911
 21
-73.8830385237942
 31
0.0
  0
LINE
  5
   1FC
  8
0
  6
CONTINUOUS
 62
     2
 10
206.397765262656
 20
-73.3620940938425
 30
0.0
 11
203.443341985449
 21
-73.8830385237942
 31
0.0
  0
LINE
  5
   1FD
  8
0
  6
CONTINUOUS
 62
     2
 10
203.443341985449
 20
-73.8830385237942
 30
0.0
 11
206.397765262656
 21
-74.4039829537459
 31
0.0
  0
LINE
  5
   1FE
  8
0
  6
CONTINUOUS
 62
     2
 10
243.988917073704
 20
-74.4039829537459
 30
0.0
 11
246.943340350911
 21
-73.8830385237942
 31
0.0
  0
LINE
  5
   1FF
  8
0
  6
CONTINUOUS
 62
     2
 10
246.943340350911
 20
-73.8830385237942
 30
0.0
 11
243.988917073704
 21
-73.3620940938425
 31
0.0
  0
ENDBLK
  5
   200
  8
0
  6
CONTINUOUS
 62
     2
  0
BLOCK
  5
   201
  8
0
  6
CONTINUOUS
 62
     2
  2
*UDIM374
 70
    65
 10
0.0
 20
0.0
 30
0.0
  3
*UDIM374
  0
TEXT
  5
   202
  8
0
  6
CONTINUOUS
 62
     2
 10
233.030846767477
 20
30.8564834746879
 30
0.0
 40
3.00000002980232
  1
19,75
 50
359.999999844103
 41
0.933333333333333
 72
     1
 11
239.73084683811
 21
32.3564834713926
 31
0.0
 73
     2
  0
LINE
  5
   203
  8
0
  6
CONTINUOUS
 62
     2
 10
230.130846861864
 20
22.4080170234162
 30
0.0
 11
230.130846861864
 21
31.8564834564914
 31
0.0
  0
LINE
  5
   204
  8
0
  6
CONTINUOUS
 62
     2
 10
225.193332699975
 20
29.8564834564914
 30
0.0
 11
246.430846904668
 21
29.8564834564914
 31
0.0
  0
LINE
  5
   205
  8
0
  6
CONTINUOUS
 62
     2
 10
222.238909422768
 20
29.3355390265398
 30
0.0
 11
225.193332699975
 21
29.8564834564914
 31
0.0
  0
LINE
  5
   206
  8
0
  6
CONTINUOUS
 62
     2
 10
225.193332699975
 20
29.8564834564914
 30
0.0
 11
222.238909422768
 21
30.3774278864431
 31
0.0
  0
LINE
  5
   207
  8
0
  6
CONTINUOUS
 62
     2
 10
233.085270139071
 20
30.3774278864431
 30
0.0
 11
230.130846861864
 21
29.8564834564914
 31
0.0
  0
LINE
  5
   208
  8
0
  6
CONTINUOUS
 62
     2
 10
230.130846861864
 20
29.8564834564914
 30
0.0
 11
233.085270139071
 21
29.3355390265398
 31
0.0
  0
ENDBLK
  5
   209
  8
0
  6
CONTINUOUS
 62
     2
  0
BLOCK
  5
   20A
  8
0
  6
CONTINUOUS
 62
     7
  2
*UDIM375
 70
    65
 10
0.0
 20
0.0
 30
0.0
  3
*UDIM375
  0
TEXT
  5
   20B
  8
0
  6
CONTINUOUS
 62
     7
 10
235.108176002932
 20
39.1797714385551
 30
0.0
 40
3.00000002980232
  1
81,25
 50
359.999999844103
 41
0.933333333333333
 72
     1
 11
241.808176073565
 21
40.6797714352598
 31
0.0
 73
     2
  0
TEXT
  5
   20C
  8
0
  6
CONTINUOUS
 62
     7
 10
250.308176155153
 20
39.6297714036125
 30
0.0
 40
2.1000000834465
  1
±0,1
 50
359.999999844103
 41
0.933333333333333
 72
     1
 11
254.018176305427
 21
40.6797714352598
 31
0.0
 73
     2
  0
LINE
  5
   20D
  8
0
  6
CONTINUOUS
 62
     2
 10
230.130843860758
 20
-57.3419819496217
 30
0.0
 11
230.130843860758
 21
40.1797714203586
 31
0.0
  0
LINE
  5
   20E
  8
0
  6
CONTINUOUS
 62
     2
 10
250.443341622168
 20
-57.341982313648
 30
0.0
 11
250.443341622168
 21
40.1797714203586
 31
0.0
  0
LINE
  5
   20F
  8
0
  6
CONTINUOUS
 62
     2
 10
230.130843860758
 20
38.1797714203586
 30
0.0
 11
257.728176452849
 21
38.1797714203586
 31
0.0
  0
LINE
  5
   210
  8
0
  6
CONTINUOUS
 62
     2
 10
233.085267137965
 20
38.7007158503103
 30
0.0
 11
230.130843860758
 21
38.1797714203586
 31
0.0
  0
LINE
  5
   211
  8
0
  6
CONTINUOUS
 62
     2
 10
230.130843860758
 20
38.1797714203586
 30
0.0
 11
233.085267137965
 21
37.658826990407
 31
0.0
  0
LINE
  5
   212
  8
0
  6
CONTINUOUS
 62
     2
 10
247.488918344961
 20
37.658826990407
 30
0.0
 11
250.443341622168
 21
38.1797714203586
 31
0.0
  0
LINE
  5
   213
  8
0
  6
CONTINUOUS
 62
     2
 10
250.443341622168
 20
38.1797714203586
 30
0.0
 11
247.488918344961
 21
38.7007158503103
 31
0.0
  0
ENDBLK
  5
   214
  8
0
  6
CONTINUOUS
 62
     7
  0
BLOCK
  5
   215
  8
0
  6
CONTINUOUS
 62
     7
  2
*UDIM376
 70
    65
 10
0.0
 20
0.0
 30
0.0
  3
*UDIM376
  0
TEXT
  5
   216
  8
0
  6
CONTINUOUS
 62
     7
 10
204.082271789224
 20
39.1797714385551
 30
0.0
 40
3.00000002980232
  1
81,25
 50
359.999999844103
 41
0.933333333333333
 72
     1
 11
210.782271859856
 21
40.6797714352598
 31
0.0
 73
     2
  0
TEXT
  5
   217
  8
0
  6
CONTINUOUS
 62
     7
 10
219.282271941444
 20
39.6297714036125
 30
0.0
 40
2.1000000834465
  1
±0,1
 50
359.999999844103
 41
0.933333333333333
 72
     1
 11
222.992272091718
 21
40.6797714352598
 31
0.0
 73
     2
  0
LINE
  5
   218
  8
0
  6
CONTINUOUS
 62
     2
 10
209.818347274036
 20
-57.3419818066094
 30
0.0
 11
209.818347274036
 21
40.1797714203586
 31
0.0
  0
LINE
  5
   219
  8
0
  6
CONTINUOUS
 62
     2
 10
204.082271793297
 20
38.1797714203586
 30
0.0
 11
230.130843860758
 21
38.1797714203586
 31
0.0
  0
LINE
  5
   21A
  8
0
  6
CONTINUOUS
 62
     2
 10
212.772770551243
 20
38.7007158503103
 30
0.0
 11
209.818347274036
 21
38.1797714203586
 31
0.0
  0
LINE
  5
   21B
  8
0
  6
CONTINUOUS
 62
     2
 10
209.818347274036
 20
38.1797714203586
 30
0.0
 11
212.772770551243
 21
37.658826990407
 31
0.0
  0
LINE
  5
   21C
  8
0
  6
CONTINUOUS
 62
     2
 10
227.176420583551
 20
37.658826990407
 30
0.0
 11
230.130843860758
 21
38.1797714203586
 31
0.0
  0
LINE
  5
   21D
  8
0
  6
CONTINUOUS
 62
     2
 10
230.130843860758
 20
38.1797714203586
 30
0.0
 11
227.176420583551
 21
38.7007158503103
 31
0.0
  0
ENDBLK
  5
   21E
  8
0
  6
CONTINUOUS
 62
     7
  0
BLOCK
  5
   21F
  8
0
  6
CONTINUOUS
 62
     2
  2
*UDIM377
 70
    65
 10
0.0
 20
0.0
 30
0.0
  3
*UDIM377
  0
TEXT
  5
   220
  8
0
  6
CONTINUOUS
 62
     2
 10
187.213462819003
 20
-24.0169876586387
 30
0.0
 40
3.00000002980232
  1
304
 50
449.999999844103
 41
0.933333333333333
 72
     1
 11
185.713462814689
 21
-20.1169876158237
 31
0.0
 73
     2
  0
LINE
  5
   221
  8
0
  6
CONTINUOUS
 62
     2
 10
202.44332312906
 20
18.1580123901367
 30
0.0
 11
186.21346282959
 21
18.1580123901367
 31
0.0
  0
LINE
  5
   222
  8
0
  6
CONTINUOUS
 62
     2
 10
202.443341985449
 20
-57.8419852256775
 30
0.0
 11
186.21346282959
 21
-57.8419852256775
 31
0.0
  0
LINE
  5
   223
  8
0
  6
CONTINUOUS
 62
     2
 10
188.21346282959
 20
18.1580123901367
 30
0.0
 11
188.21346282959
 21
-57.8419852256775
 31
0.0
  0
LINE
  5
   224
  8
0
  6
CONTINUOUS
 62
     2
 10
188.734407259542
 20
15.2035891129297
 30
0.0
 11
188.21346282959
 21
18.1580123901367
 31
0.0
  0
LINE
  5
   225
  8
0
  6
CONTINUOUS
 62
     2
 10
188.21346282959
 20
18.1580123901367
 30
0.0
 11
187.692518399638
 21
15.2035891129297
 31
0.0
  0
LINE
  5
   226
  8
0
  6
CONTINUOUS
 62
     2
 10
187.692518399638
 20
-54.8875619484705
 30
0.0
 11
188.21346282959
 21
-57.8419852256775
 31
0.0
  0
LINE
  5
   227
  8
0
  6
CONTINUOUS
 62
     2
 10
188.21346282959
 20
-57.8419852256775
 30
0.0
 11
188.734407259542
 21
-54.8875619484705
 31
0.0
  0
ENDBLK
  5
   228
  8
0
  6
CONTINUOUS
 62
     2
  0
BLOCK
  5
   229
  8
0
  6
CONTINUOUS
 62
     2
  2
*UDIM378
 70
    65
 10
0.0
 20
0.0
 30
0.0
  3
*UDIM378
  0
TEXT
  5
   22A
  8
0
  6
CONTINUOUS
 62
     2
 10
251.607675602069
 20
-31.2221588589788
 30
0.0
 40
3.00000002980232
  1
8
 50
308.777452407068
 41
0.933333333333334
 72
     1
 11
253.465979135454
 21
-31.1402561938641
 31
0.0
 73
     2
  0
TEXT
  5
   22B
  8
0
  6
CONTINUOUS
 62
     2
 10
249.88535863206
 20
-29.0783014848546
 30
0.0
 40
3.00000002980232
  1
R
 50
308.777452407068
 41
0.933333333333334
 72
     1
 11
251.743662165445
 21
-28.9963988197399
 31
0.0
 73
     2
  0
LINE
  5
   22C
  8
0
  6
CONTINUOUS
 62
     2
 10
249.105774142176
 20
-29.7045985622138
 30
0.0
 11
263.83520355018
 21
-48.0390842595981
 31
0.0
  0
LINE
  5
   22D
  8
0
  6
CONTINUOUS
 62
     2
 10
256.697214312195
 20
-38.3222735008047
 30
0.0
 11
254.440747465515
 21
-36.3453169079998
 31
0.0
  0
LINE
  5
   22E
  8
0
  6
CONTINUOUS
 62
     2
 10
254.440747465515
 20
-36.3453169079998
 30
0.0
 11
255.8849739166
 21
-38.9748054434356
 31
0.0
  0
ENDBLK
  5
   22F
  8
0
  6
CONTINUOUS
 62
     2
  0
BLOCK
  5
   230
  8
0
  6
CONTINUOUS
 62
     7
  2
*UDIM379
 70
    65
 10
0.0
 20
0.0
 30
0.0
  3
*UDIM379
  0
TEXT
  5
   231
  8
0
  6
CONTINUOUS
 62
     7
 10
271.599876385621
 20
-33.585527103977
 30
0.0
 40
3.00000002980232
  1
72,25
 50
449.999999844103
 41
0.933333333333333
 72
     1
 11
270.099876388907
 21
-26.8855270333466
 31
0.0
 73
     2
  0
LINE
  5
   232
  8
0
  6
CONTINUOUS
 62
     2
 10
263.733763197693
 20
-19.8419815009289
 30
0.0
 11
274.599876403809
 21
-19.8419815009289
 31
0.0
  0
LINE
  5
   233
  8
0
  6
CONTINUOUS
 62
     2
 10
259.068341610137
 20
-37.9044858882129
 30
0.0
 11
274.599876403809
 21
-37.9044858882129
 31
0.0
  0
LINE
  5
   234
  8
0
  6
CONTINUOUS
 62
     2
 10
272.599876403809
 20
-19.8419815009289
 30
0.0
 11
272.599876403809
 21
-37.9044858882129
 31
0.0
  0
LINE
  5
   235
  8
0
  6
CONTINUOUS
 62
     2
 10
273.12082083376
 20
-22.7964047781359
 30
0.0
 11
272.599876403809
 21
-19.8419815009289
 31
0.0
  0
LINE
  5
   236
  8
0
  6
CONTINUOUS
 62
     2
 10
272.599876403809
 20
-19.8419815009289
 30
0.0
 11
272.078931973857
 21
-22.7964047781359
 31
0.0
  0
LINE
  5
   237
  8
0
  6
CONTINUOUS
 62
     2
 10
272.078931973857
 20
-34.9500626110059
 30
0.0
 11
272.599876403809
 21
-37.9044858882129
 31
0.0
  0
LINE
  5
   238
  8
0
  6
CONTINUOUS
 62
     2
 10
272.599876403809
 20
-37.9044858882129
 30
0.0
 11
273.12082083376
 21
-34.9500626110059
 31
0.0
  0
ENDBLK
  5
   239
  8
0
  6
CONTINUOUS
 62
     7
  0
BLOCK
  5
   23A
  8
0
  6
CONTINUOUS
 62
     7
  2
*UDIM380
 70
    65
 10
0.0
 20
0.0
 30
0.0
  3
*UDIM380
  0
TEXT
  5
   23B
  8
0
  6
CONTINUOUS
 62
     7
 10
271.599876385621
 20
-60.4419799582732
 30
0.0
 40
3.00000002980232
  1
22,75
 50
449.999999844103
 41
0.933333333333333
 72
     1
 11
270.099876388907
 21
-53.7419798876427
 31
0.0
 73
     2
  0
LINE
  5
   23C
  8
0
  6
CONTINUOUS
 62
     2
 10
259.068340161035
 20
-43.5919822794066
 30
0.0
 11
274.599876403809
 21
-43.5919822794066
 31
0.0
  0
LINE
  5
   23D
  8
0
  6
CONTINUOUS
 62
     2
 10
272.599876403809
 20
-37.9044858882129
 30
0.0
 11
272.599876403809
 21
-60.4419799542013
 31
0.0
  0
LINE
  5
   23E
  8
0
  6
CONTINUOUS
 62
     2
 10
272.078931973857
 20
-34.9500626110059
 30
0.0
 11
272.599876403809
 21
-37.9044858882129
 31
0.0
  0
LINE
  5
   23F
  8
0
  6
CONTINUOUS
 62
     2
 10
272.599876403809
 20
-37.9044858882129
 30
0.0
 11
273.12082083376
 21
-34.9500626110059
 31
0.0
  0
LINE
  5
   240
  8
0
  6
CONTINUOUS
 62
     2
 10
273.12082083376
 20
-46.5464055566135
 30
0.0
 11
272.599876403809
 21
-43.5919822794066
 31
0.0
  0
LINE
  5
   241
  8
0
  6
CONTINUOUS
 62
     2
 10
272.599876403809
 20
-43.5919822794066
 30
0.0
 11
272.078931973857
 21
-46.5464055566135
 31
0.0
  0
ENDBLK
  5
   242
  8
0
  6
CONTINUOUS
 62
     7
  0
BLOCK
  5
   243
  8
0
  6
CONTINUOUS
 62
     2
  2
*UDIM381
 70
    65
 10
0.0
 20
0.0
 30
0.0
  3
*UDIM381
  0
TEXT
  5
   244
  8
0
  6
CONTINUOUS
 62
     2
 10
279.26834867566
 20
-46.7544800614301
 30
0.0
 40
3.00000002980232
  1
159,5
 50
449.999999844103
 41
0.933333333333333
 72
     1
 11
277.768348678947
 21
-40.0544799907996
 31
0.0
 73
     2
  0
LINE
  5
   245
  8
0
  6
CONTINUOUS
 62
     2
 10
263.733763197693
 20
-19.8419815009289
 30
0.0
 11
282.268348693848
 21
-19.8419815009289
 31
0.0
  0
LINE
  5
   246
  8
0
  6
CONTINUOUS
 62
     2
 10
212.193347274036
 20
-59.7169818066094
 30
0.0
 11
282.268348693848
 21
-59.7169818066094
 31
0.0
  0
LINE
  5
   247
  8
0
  6
CONTINUOUS
 62
     2
 10
280.268348693848
 20
-19.8419815009289
 30
0.0
 11
280.268348693848
 21
-59.7169818066094
 31
0.0
  0
LINE
  5
   248
  8
0
  6
CONTINUOUS
 62
     2
 10
280.789293123799
 20
-22.7964047781359
 30
0.0
 11
280.268348693848
 21
-19.8419815009289
 31
0.0
  0
LINE
  5
   249
  8
0
  6
CONTINUOUS
 62
     2
 10
280.268348693848
 20
-19.8419815009289
 30
0.0
 11
279.747404263896
 21
-22.7964047781359
 31
0.0
  0
LINE
  5
   24A
  8
0
  6
CONTINUOUS
 62
     2
 10
279.747404263896
 20
-56.7625585294025
 30
0.0
 11
280.268348693848
 21
-59.7169818066094
 31
0.0
  0
LINE
  5
   24B
  8
0
  6
CONTINUOUS
 62
     2
 10
280.268348693848
 20
-59.7169818066094
 30
0.0
 11
280.789293123799
 21
-56.7625585294025
 31
0.0
  0
ENDBLK
  5
   24C
  8
0
  6
CONTINUOUS
 62
     2
  0
BLOCK
  5
   24D
  8
0
  6
CONTINUOUS
 62
     2
  2
*UDIM382
 70
    65
 10
0.0
 20
0.0
 30
0.0
  3
*UDIM382
  0
TEXT
  5
   24E
  8
0
  6
CONTINUOUS
 62
     2
 10
182.041534237239
 20
34.0001785336348
 30
0.0
 40
3.00000002980232
  1
8
 50
335.148333483405
 41
0.933333333333334
 72
     1
 11
183.670078759809
 21
34.8989792939543
 31
0.0
 73
     2
  0
TEXT
  5
   24F
  8
0
  6
CONTINUOUS
 62
     2
 10
179.183227789667
 20
35.3240306078302
 30
0.0
 40
3.00000002980232
  1
Ø
 50
335.148333483405
 41
0.933333333333334
 72
     1
 11
180.811772312237
 21
36.2228313681497
 31
0.0
 73
     2
  0
TEXT
  5
   250
  8
0
  6
CONTINUOUS
 62
     2
 10
184.536881168281
 20
32.8444346694905
 30
0.0
 40
3.00000002980232
  1
 7 fori
 50
335.148333483405
 41
0.933333333333333
 72
     1
 11
193.787576259803
 21
30.2129631873153
 31
0.0
 73
     2
  0
LINE
  5
   251
  8
0
  6
CONTINUOUS
 62
     2
 10
178.762957293689
 20
34.4166317340232
 30
0.0
 11
210.725746029009
 21
19.6127592520283
 31
0.0
  0
LINE
  5
   252
  8
0
  6
CONTINUOUS
 62
     2
 10
206.011170373607
 20
21.2222528053663
 30
0.0
 11
208.91094829025
 21
20.4533002488631
 31
0.0
  0
LINE
  5
   253
  8
0
  6
CONTINUOUS
 62
     2
 10
208.91094829025
 20
20.4533002488631
 30
0.0
 11
206.449045524056
 21
22.1676615788658
 31
0.0
  0
LINE
  5
   254
  8
0
  6
CONTINUOUS
 62
     2
 10
213.625523945652
 20
18.8438066955251
 30
0.0
 11
210.725746029009
 21
19.6127592520283
 31
0.0
  0
LINE
  5
   255
  8
0
  6
CONTINUOUS
 62
     2
 10
210.725746029009
 20
19.6127592520283
 30
0.0
 11
213.187648795203
 21
17.8983979220255
 31
0.0
  0
ENDBLK
  5
   256
  8
0
  6
CONTINUOUS
 62
     2
  0
BLOCK
  5
   257
  8
0
  6
CONTINUOUS
 62
     2
  2
*UDIM383
 70
    65
 10
0.0
 20
0.0
 30
0.0
  3
*UDIM383
  0
TEXT
  5
   258
  8
0
  6
CONTINUOUS
 62
     2
 10
193.707820874146
 20
-52.9732338571267
 30
0.0
 40
3.00000002980232
  1
94,75
 50
449.999999844103
 41
0.933333333333333
 72
     1
 11
192.207820877433
 21
-46.2732337864962
 31
0.0
 73
     2
  0
LINE
  5
   259
  8
0
  6
CONTINUOUS
 62
     2
 10
202.443341985449
 20
-57.8419852256775
 30
0.0
 11
192.707820892334
 21
-57.8419852256775
 31
0.0
  0
LINE
  5
   25A
  8
0
  6
CONTINUOUS
 62
     2
 10
194.707820892334
 20
-34.1544815009289
 30
0.0
 11
194.707820892334
 21
-57.8419852256775
 31
0.0
  0
LINE
  5
   25B
  8
0
  6
CONTINUOUS
 62
     2
 10
195.228765322286
 20
-37.1089047781359
 30
0.0
 11
194.707820892334
 21
-34.1544815009289
 31
0.0
  0
LINE
  5
   25C
  8
0
  6
CONTINUOUS
 62
     2
 10
194.707820892334
 20
-34.1544815009289
 30
0.0
 11
194.186876462382
 21
-37.1089047781359
 31
0.0
  0
LINE
  5
   25D
  8
0
  6
CONTINUOUS
 62
     2
 10
194.186876462382
 20
-54.8875619484705
 30
0.0
 11
194.707820892334
 21
-57.8419852256775
 31
0.0
  0
LINE
  5
   25E
  8
0
  6
CONTINUOUS
 62
     2
 10
194.707820892334
 20
-57.8419852256775
 30
0.0
 11
195.228765322286
 21
-54.8875619484705
 31
0.0
  0
ENDBLK
  5
   25F
  8
0
  6
CONTINUOUS
 62
     2
  0
BLOCK
  5
   260
  8
0
  6
CONTINUOUS
 62
     2
  2
*UDIM384
 70
    65
 10
0.0
 20
0.0
 30
0.0
  3
*UDIM384
  0
TEXT
  5
   261
  8
0
  6
CONTINUOUS
 62
     2
 10
286.950691212558
 20
-24.0169800239152
 30
0.0
 40
3.00000002980232
  1
319
 50
449.999999844103
 41
0.933333333333333
 72
     1
 11
285.450691208243
 21
-20.1169799811003
 31
0.0
 73
     2
  0
LINE
  5
   262
  8
0
  6
CONTINUOUS
 62
     2
 10
252.818343030407
 20
20.0330202772058
 30
0.0
 11
289.950691223145
 21
20.0330202772058
 31
0.0
  0
LINE
  5
   263
  8
0
  6
CONTINUOUS
 62
     2
 10
252.818341622168
 20
-59.716982313648
 30
0.0
 11
289.950691223145
 21
-59.716982313648
 31
0.0
  0
LINE
  5
   264
  8
0
  6
CONTINUOUS
 62
     2
 10
287.950691223145
 20
20.0330202772058
 30
0.0
 11
287.950691223145
 21
-59.716982313648
 31
0.0
  0
LINE
  5
   265
  8
0
  6
CONTINUOUS
 62
     2
 10
288.471635653096
 20
17.0785969999988
 30
0.0
 11
287.950691223145
 21
20.0330202772058
 31
0.0
  0
LINE
  5
   266
  8
0
  6
CONTINUOUS
 62
     2
 10
287.950691223145
 20
20.0330202772058
 30
0.0
 11
287.429746793193
 21
17.0785969999988
 31
0.0
  0
LINE
  5
   267
  8
0
  6
CONTINUOUS
 62
     2
 10
287.429746793193
 20
-56.762559036441
 30
0.0
 11
287.950691223145
 21
-59.716982313648
 31
0.0
  0
LINE
  5
   268
  8
0
  6
CONTINUOUS
 62
     2
 10
287.950691223145
 20
-59.716982313648
 30
0.0
 11
288.471635653096
 21
-56.762559036441
 31
0.0
  0
ENDBLK
  5
   269
  8
0
  6
CONTINUOUS
 62
     2
  0
BLOCK
  5
   26A
  8
0
  6
CONTINUOUS
 62
     2
  2
*UDIM385
 70
    65
 10
0.0
 20
0.0
 30
0.0
  3
*UDIM385
  0
TEXT
  5
   26B
  8
0
  6
CONTINUOUS
 62
     2
 10
181.542976357406
 20
-55.3107319826864
 30
0.0
 40
3.00000002980232
  1
102,25
 50
449.999999844103
 41
0.933333333333333
 72
     1
 11
180.042976364493
 21
-47.2107318981482
 31
0.0
 73
     2
  0
LINE
  5
   26C
  8
0
  6
CONTINUOUS
 62
     2
 10
207.443347274036
 20
-59.7169818066094
 30
0.0
 11
180.542976379395
 21
-59.7169818066094
 31
0.0
  0
LINE
  5
   26D
  8
0
  6
CONTINUOUS
 62
     2
 10
182.542976379395
 20
-34.1544815009289
 30
0.0
 11
182.542976379395
 21
-59.7169818066094
 31
0.0
  0
LINE
  5
   26E
  8
0
  6
CONTINUOUS
 62
     2
 10
183.063920809346
 20
-37.1089047781359
 30
0.0
 11
182.542976379395
 21
-34.1544815009289
 31
0.0
  0
LINE
  5
   26F
  8
0
  6
CONTINUOUS
 62
     2
 10
182.542976379395
 20
-34.1544815009289
 30
0.0
 11
182.022031949443
 21
-37.1089047781359
 31
0.0
  0
LINE
  5
   270
  8
0
  6
CONTINUOUS
 62
     2
 10
182.022031949443
 20
-56.7625585294025
 30
0.0
 11
182.542976379395
 21
-59.7169818066094
 31
0.0
  0
LINE
  5
   271
  8
0
  6
CONTINUOUS
 62
     2
 10
182.542976379395
 20
-59.7169818066094
 30
0.0
 11
183.063920809346
 21
-56.7625585294025
 31
0.0
  0
ENDBLK
  5
   272
  8
0
  6
CONTINUOUS
 62
     2
  0
BLOCK
  5
   273
  8
0
  6
CONTINUOUS
 62
     2
  2
*UDIM386
 70
    65
 10
0.0
 20
0.0
 30
0.0
  3
*UDIM386
  0
TEXT
  5
   274
  8
0
  6
CONTINUOUS
 62
     2
 10
194.313401745939
 20
-89.4696387872553
 30
0.0
 40
3.00000002980232
  1
R.min,=200
 50
359.999999844103
 41
0.933333333333333
 72
     1
 11
208.01340188611
 21
-87.9696388095617
 31
0.0
 73
     2
  0
LINE
  5
   275
  8
0
  6
CONTINUOUS
 62
     2
 10
225.193332699975
 20
-79.792300958819
 30
0.0
 11
225.193332699975
 21
-92.4696388244629
 31
0.0
  0
LINE
  5
   276
  8
0
  6
CONTINUOUS
 62
     2
 10
261.443341982888
 20
-61.426185216283
 30
0.0
 11
261.443341982888
 21
-92.4696388244629
 31
0.0
  0
LINE
  5
   277
  8
0
  6
CONTINUOUS
 62
     2
 10
194.313401750012
 20
-90.4696388244629
 30
0.0
 11
261.443341982888
 21
-90.4696388244629
 31
0.0
  0
LINE
  5
   278
  8
0
  6
CONTINUOUS
 62
     2
 10
228.147755977182
 20
-89.9486943945112
 30
0.0
 11
225.193332699975
 21
-90.4696388244629
 31
0.0
  0
LINE
  5
   279
  8
0
  6
CONTINUOUS
 62
     2
 10
225.193332699975
 20
-90.4696388244629
 30
0.0
 11
228.147755977182
 21
-90.9905832544146
 31
0.0
  0
LINE
  5
   27A
  8
0
  6
CONTINUOUS
 62
     2
 10
258.488918705682
 20
-90.9905832544146
 30
0.0
 11
261.443341982888
 21
-90.4696388244629
 31
0.0
  0
LINE
  5
   27B
  8
0
  6
CONTINUOUS
 62
     2
 10
261.443341982888
 20
-90.4696388244629
 30
0.0
 11
258.488918705682
 21
-89.9486943945112
 31
0.0
  0
ENDBLK
  5
   27C
  8
0
  6
CONTINUOUS
 62
     2
  0
ENDSEC
  0
SECTION
  2
ENTITIES
  0
LINE
  5
   27D
  8
0
  6
CONTINUOUS
 62
     1
 10
-48.8324938207861
 20
-28.090954938531
 30
0.0
 11
-49.632493832707
 21
-28.090954938531
 31
0.0
  0
LINE
  5
   27E
  8
0
  6
CONTINUOUS
 62
     1
 10
-49.6325182467695
 20
-36.6909349895508
 30
0.0
 11
-49.6325182467695
 21
-28.0909555554477
 31
0.0
  0
LINE
  5
   27F
  8
0
  6
CONTINUOUS
 62
     1
 10
-48.8324938207861
 20
-28.090954938531
 30
0.0
 11
-48.8324938207861
 21
-27.2909549266101
 31
0.0
  0
LINE
  5
   280
  8
0
  6
CONTINUOUS
 62
     1
 10
-44.4325181692838
 20
-26.8909488171363
 30
0.0
 11
-48.432513239493
 21
-26.8909488171363
 31
0.0
  0
LINE
  5
   281
  8
0
  6
CONTINUOUS
 62
     7
 10
-48.8324938207861
 20
-36.6909351835386
 30
0.0
 11
-48.8324938207861
 21
-28.090954938531
 31
0.0
  0
CIRCLE
  5
   282
  8
0
  6
CONTINUOUS
 62
     1
 10
-47.2325468901749
 20
-28.4909513111909
 30
0.0
 40
0.559977845392784
  0
LINE
  5
   283
  8
0
  6
DASHDOT
 62
     7
 10
-46.3205611905966
 20
-28.4908717482977
 30
0.0
 11
-48.1444328850354
 21
-28.4908717482977
 31
0.0
  0
LINE
  5
   284
  8
0
  6
DASHDOT
 62
     7
 10
-47.232497037816
 20
-29.4028014920014
 30
0.0
 11
-47.232497037816
 21
-27.578942004594
 31
0.0
  0
CIRCLE
  5
   285
  8
0
  6
CONTINUOUS
 62
     1
 10
-47.232497037816
 20
-28.4908717482977
 30
0.0
 40
0.759941453086422
  0
ARC
  5
   286
  8
0
  6
CONTINUOUS
 62
     1
 10
-48.4324951040074
 20
-27.2909569458763
 30
0.0
 40
0.399995443661572
 50
90.0005173512766
 51
180.001122723422
  0
LINE
  5
   287
  8
0
  6
CONTINUOUS
 62
     7
 10
-48.7467668907977
 20
-36.6909352043255
 30
0.0
 11
-48.7467668907977
 21
-36.4909489601851
 31
0.0
  0
LINE
  5
   288
  8
0
  6
CONTINUOUS
 62
     1
 10
34.0674919037391
 20
-132.970957000516
 30
0.0
 11
34.0674919037391
 21
-121.690969242915
 31
0.0
  0
LINE
  5
   289
  8
0
  6
CONTINUOUS
 62
     1
 10
-49.7325093449783
 20
-132.970957000516
 30
0.0
 11
-49.7325093449783
 21
-97.9909683811319
 31
0.0
  0
LINE
  5
   28A
  8
0
  6
CONTINUOUS
 62
     1
 10
-49.7325093449783
 20
-55.9909799623145
 30
0.0
 11
-49.7325093449783
 21
-36.6909552606593
 31
0.0
  0
LINE
  5
   28B
  8
0
  6
CONTINUOUS
 62
     1
 10
-49.7325093449783
 20
-97.9909622776162
 30
0.0
 11
-49.7325093449783
 21
-55.9909616517674
 31
0.0
  0
LINE
  5
   28C
  8
0
  6
CONTINUOUS
 62
     1
 10
-49.3325093628597
 20
-107.090956309701
 30
0.0
 11
-49.3325093628597
 21
-106.690956327582
 31
0.0
  0
LINE
  5
   28D
  8
0
  6
CONTINUOUS
 62
     1
 10
20.1474904756117
 20
-55.9909616517674
 30
0.0
 11
20.1474904756117
 21
-36.6909552606593
 31
0.0
  0
LINE
  5
   28E
  8
0
  6
CONTINUOUS
 62
     1
 10
-48.0525093962382
 20
-55.9909616517674
 30
0.0
 11
-48.0525093962382
 21
-36.6909552606593
 31
0.0
  0
LINE
  5
   28F
  8
0
  6
CONTINUOUS
 62
     1
 10
-48.9725094862413
 20
-55.9909616517674
 30
0.0
 11
-48.9725094862413
 21
-36.6909552606593
 31
0.0
  0
LINE
  5
   290
  8
0
  6
CONTINUOUS
 62
     1
 10
-45.1725094296168
 20
-55.9909616517674
 30
0.0
 11
-45.1725094296168
 21
-36.6909552606593
 31
0.0
  0
LINE
  5
   291
  8
0
  6
CONTINUOUS
 62
     1
 10
-46.6125096036624
 20
-55.9909616517674
 30
0.0
 11
-46.6125096036624
 21
-36.6909552606593
 31
0.0
  0
LINE
  5
   292
  8
0
  6
CONTINUOUS
 62
     1
 10
-35.8125140203667
 20
-55.9909616517674
 30
0.0
 11
-35.8125140203667
 21
-36.6909552606593
 31
0.0
  0
LINE
  5
   293
  8
0
  6
CONTINUOUS
 62
     1
 10
-46.6125096036624
 20
-97.9909622776162
 30
0.0
 11
-46.6125096036624
 21
-55.9909616517674
 31
0.0
  0
LINE
  5
   294
  8
0
  6
CONTINUOUS
 62
     1
 10
-45.1725094296168
 20
-97.9909622776162
 30
0.0
 11
-45.1725094296168
 21
-55.9909616517674
 31
0.0
  0
LINE
  5
   295
  8
0
  6
CONTINUOUS
 62
     1
 10
-48.0525093962382
 20
-97.9909622776162
 30
0.0
 11
-48.0525093962382
 21
-55.9909616517674
 31
0.0
  0
LINE
  5
   296
  8
0
  6
CONTINUOUS
 62
     1
 10
-48.9725094862413
 20
-97.9909622776162
 30
0.0
 11
-48.9725094862413
 21
-55.9909616517674
 31
0.0
  0
LINE
  5
   297
  8
0
  6
CONTINUOUS
 62
     1
 10
-48.0525093962382
 20
-106.690956327582
 30
0.0
 11
-48.0525093962382
 21
-97.990962301458
 31
0.0
  0
LINE
  5
   298
  8
0
  6
CONTINUOUS
 62
     1
 10
-48.9725094862413
 20
-106.690956327582
 30
0.0
 11
-48.9725094862413
 21
-97.990962301458
 31
0.0
  0
LINE
  5
   299
  8
0
  6
CONTINUOUS
 62
     1
 10
-45.1725094296168
 20
-106.690956327582
 30
0.0
 11
-45.1725094296168
 21
-97.990962301458
 31
0.0
  0
LINE
  5
   29A
  8
0
  6
CONTINUOUS
 62
     1
 10
-46.6125096036624
 20
-106.690956327582
 30
0.0
 11
-46.6125096036624
 21
-97.990962301458
 31
0.0
  0
ARC
  5
   29B
  8
0
  6
CONTINUOUS
 62
     1
 10
-49.532509341998
 20
-56.1909616547476
 30
0.0
 40
0.200000002980232
 50
89.9999999480344
 51
179.999999948034
  0
ARC
  5
   29C
  8
0
  6
CONTINUOUS
 62
     1
 10
-49.532509341998
 20
-97.7909622746359
 30
0.0
 40
0.200000002980232
 50
179.999999948034
 51
269.999999948034
  0
LINE
  5
   29D
  8
0
  6
DASHDOT
 62
     7
 10
-7.83251762390135
 20
-106.926778490533
 30
0.0
 11
-7.83251762390135
 21
19.7411699751406
 31
0.0
  0
LINE
  5
   29E
  8
0
  6
CONTINUOUS
 62
     1
 10
-48.8325303597078
 20
-132.970957000516
 30
0.0
 11
-49.7325093449783
 21
-132.970957000516
 31
0.0
  0
LINE
  5
   29F
  8
0
  6
CONTINUOUS
 62
     1
 10
-48.8325303597078
 20
-133.490957084559
 30
0.0
 11
-48.8325303597078
 21
-132.970957000516
 31
0.0
  0
LINE
  5
   2A0
  8
0
  6
CONTINUOUS
 62
     1
 10
-22.7325360743032
 20
-134.090956712028
 30
0.0
 11
-48.2325303507671
 21
-134.090956712028
 31
0.0
  0
LINE
  5
   2A1
  8
0
  6
CONTINUOUS
 62
     1
 10
5.26747044644501
 20
-134.090956712029
 30
0.0
 11
-20.9325299439654
 21
-134.090956712029
 31
0.0
  0
LINE
  5
   2A2
  8
0
  6
CONTINUOUS
 62
     1
 10
32.567464749731
 20
-134.090956712051
 30
0.0
 11
7.0674704732671
 21
-134.090956712051
 31
0.0
  0
LINE
  5
   2A3
  8
0
  6
CONTINUOUS
 62
     1
 10
33.1674647586717
 20
-133.490956703089
 30
0.0
 11
33.1674647586717
 21
-132.970957000516
 31
0.0
  0
LINE
  5
   2A4
  8
0
  6
CONTINUOUS
 62
     1
 10
34.0674919037391
 20
-132.970957000516
 30
0.0
 11
33.1674647586717
 21
-132.970957000516
 31
0.0
  0
LINE
  5
   2A5
  8
0
  6
CONTINUOUS
 62
     1
 10
-46.0325306994543
 20
-124.490962672494
 30
0.0
 11
-48.8325303597078
 21
-124.490962672494
 31
0.0
  0
LINE
  5
   2A6
  8
0
  6
CONTINUOUS
 62
     1
 10
-29.8325300765857
 20
-124.490962672494
 30
0.0
 11
-43.232536379777
 21
-124.490962672494
 31
0.0
  0
LINE
  5
   2A7
  8
0
  6
CONTINUOUS
 62
     1
 10
-0.432535742007326
 20
-124.490962672494
 30
0.0
 11
-27.8325361502991
 21
-124.490962672494
 31
0.0
  0
LINE
  5
   2A8
  8
0
  6
CONTINUOUS
 62
     1
 10
12.1674644457473
 20
-124.490962672494
 30
0.0
 11
2.36746429971592
 21
-124.490962672494
 31
0.0
  0
LINE
  5
   2A9
  8
0
  6
CONTINUOUS
 62
     1
 10
27.5674603025742
 20
-124.490974059648
 30
0.0
 11
14.1674601028987
 21
-124.490974059648
 31
0.0
  0
LINE
  5
   2AA
  8
0
  6
CONTINUOUS
 62
     1
 10
33.1674673757662
 20
-124.490966595689
 30
0.0
 11
30.3674612311258
 21
-124.490960492175
 31
0.0
  0
LINE
  5
   2AB
  8
0
  6
CONTINUOUS
 62
     1
 10
33.1674586551345
 20
-132.970957230877
 30
0.0
 11
33.1674586551345
 21
-124.490964428734
 31
0.0
  0
LINE
  5
   2AC
  8
0
  6
CONTINUOUS
 62
     1
 10
-48.8325303597078
 20
-132.970957000516
 30
0.0
 11
-48.8325303597078
 21
-124.490964198373
 31
0.0
  0
LINE
  5
   2AD
  8
0
  6
CONTINUOUS
 62
     1
 10
14.1674644755496
 20
-124.490956568979
 30
0.0
 11
12.167470549263
 21
-124.490956568979
 31
0.0
  0
LINE
  5
   2AE
  8
0
  6
CONTINUOUS
 62
     1
 10
24.7674680461185
 20
-126.290962929357
 30
0.0
 11
22.575781002162
 21
-126.290956825843
 31
0.0
  0
LINE
  5
   2AF
  8
0
  6
CONTINUOUS
 62
     1
 10
17.7591488497575
 20
-126.290967826321
 30
0.0
 11
15.5674618058009
 21
-126.290961722807
 31
0.0
  0
LINE
  5
   2B0
  8
0
  6
CONTINUOUS
 62
     1
 10
17.7591515407887
 20
-131.090956667326
 30
0.0
 11
15.5674644964113
 21
-131.090956667326
 31
0.0
  0
LINE
  5
   2B1
  8
0
  6
CONTINUOUS
 62
     1
 10
24.7674646335019
 20
-131.090956667326
 30
0.0
 11
22.5757836926402
 21
-131.090956667326
 31
0.0
  0
LINE
  5
   2B2
  8
0
  6
CONTINUOUS
 62
     1
 10
30.3674647169484
 20
-124.490956568979
 30
0.0
 11
27.5674646752252
 21
-124.490956568979
 31
0.0
  0
LINE
  5
   2B3
  8
0
  6
CONTINUOUS
 62
     1
 10
-27.8325422538149
 20
-124.490956568979
 30
0.0
 11
-29.8325300765857
 21
-124.490956568979
 31
0.0
  0
LINE
  5
   2B4
  8
0
  6
CONTINUOUS
 62
     1
 10
-31.2325327882129
 20
-126.290965669314
 30
0.0
 11
-33.4242198321695
 21
-126.2909595658
 31
0.0
  0
LINE
  5
   2B5
  8
0
  6
CONTINUOUS
 62
     1
 10
-38.240851984557
 20
-126.290964462762
 30
0.0
 11
-40.4325390290238
 21
-126.290958359248
 31
0.0
  0
LINE
  5
   2B6
  8
0
  6
CONTINUOUS
 62
     1
 10
-38.2408492936763
 20
-131.090956667326
 30
0.0
 11
-40.4325363380538
 21
-131.090956667326
 31
0.0
  0
LINE
  5
   2B7
  8
0
  6
CONTINUOUS
 62
     1
 10
-31.2325362009631
 20
-131.090956667326
 30
0.0
 11
-33.4242171418248
 21
-131.090956667326
 31
0.0
  0
LINE
  5
   2B8
  8
0
  6
CONTINUOUS
 62
     1
 10
-43.2325367612467
 20
-124.490956568979
 30
0.0
 11
-46.0325306994543
 21
-124.490956568979
 31
0.0
  0
LINE
  5
   2B9
  8
0
  6
CONTINUOUS
 62
     1
 10
-3.23253237104719
 20
-126.290964299335
 30
0.0
 11
-5.42421941551402
 21
-126.290958195821
 31
0.0
  0
LINE
  5
   2BA
  8
0
  6
CONTINUOUS
 62
     1
 10
-10.2408515673913
 20
-126.290963092784
 30
0.0
 11
-12.4325386118581
 21
-126.29095698927
 31
0.0
  0
LINE
  5
   2BB
  8
0
  6
CONTINUOUS
 62
     1
 10
-10.2408488764438
 20
-131.090956667326
 30
0.0
 11
-12.4325359208213
 21
-131.090956667326
 31
0.0
  0
LINE
  5
   2BC
  8
0
  6
CONTINUOUS
 62
     1
 10
-3.23253578373057
 20
-131.090956667326
 30
0.0
 11
-5.42421672459229
 21
-131.090956667326
 31
0.0
  0
LINE
  5
   2BD
  8
0
  6
CONTINUOUS
 62
     1
 10
2.36746429971592
 20
-124.490956568979
 30
0.0
 11
-0.432535742007326
 21
-124.490956568979
 31
0.0
  0
LINE
  5
   2BE
  8
0
  6
CONTINUOUS
 62
     1
 10
7.56747048071768
 20
-133.090956697129
 30
0.0
 11
7.56747048071768
 21
-131.290956670306
 31
0.0
  0
LINE
  5
   2BF
  8
0
  6
CONTINUOUS
 62
     1
 10
7.56747048071768
 20
-133.090956697129
 30
0.0
 11
7.0674704732671
 21
-133.090956697129
 31
0.0
  0
LINE
  5
   2C0
  8
0
  6
CONTINUOUS
 62
     1
 10
7.06747047326709
 20
-134.090956712036
 30
0.0
 11
7.06747047326709
 21
-133.090956697135
 31
0.0
  0
LINE
  5
   2C1
  8
0
  6
CONTINUOUS
 62
     1
 10
5.267470446445
 20
-134.090956712029
 30
0.0
 11
5.267470446445
 21
-133.090956697128
 31
0.0
  0
LINE
  5
   2C2
  8
0
  6
CONTINUOUS
 62
     1
 10
5.26747044644501
 20
-133.090956697129
 30
0.0
 11
4.76747043899443
 21
-133.090956697129
 31
0.0
  0
LINE
  5
   2C3
  8
0
  6
CONTINUOUS
 62
     1
 10
4.76747043899442
 20
-133.090956697129
 30
0.0
 11
4.76747043899442
 21
-131.290956670306
 31
0.0
  0
LINE
  5
   2C4
  8
0
  6
CONTINUOUS
 62
     1
 10
7.56747048071768
 20
-131.290956670306
 30
0.0
 11
4.76747043899443
 21
-131.290956670306
 31
0.0
  0
LINE
  5
   2C5
  8
0
  6
CONTINUOUS
 62
     1
 10
-23.2325360817538
 20
-133.090956697129
 30
0.0
 11
-23.2325360817538
 21
-131.290956670306
 31
0.0
  0
LINE
  5
   2C6
  8
0
  6
CONTINUOUS
 62
     1
 10
-22.7325360743032
 20
-133.090956697129
 30
0.0
 11
-23.2325360817538
 21
-133.090956697129
 31
0.0
  0
LINE
  5
   2C7
  8
0
  6
CONTINUOUS
 62
     1
 10
-22.7325360743032
 20
-134.090956712036
 30
0.0
 11
-22.7325360743032
 21
-133.090956697135
 31
0.0
  0
LINE
  5
   2C8
  8
0
  6
CONTINUOUS
 62
     1
 10
-20.9325360474811
 20
-134.090956712029
 30
0.0
 11
-20.9325360474811
 21
-133.090956697128
 31
0.0
  0
LINE
  5
   2C9
  8
0
  6
CONTINUOUS
 62
     1
 10
-20.4325360400306
 20
-133.090956697129
 30
0.0
 11
-20.9325360474811
 21
-133.090956697129
 31
0.0
  0
LINE
  5
   2CA
  8
0
  6
CONTINUOUS
 62
     1
 10
-20.4325360400306
 20
-133.090956697129
 30
0.0
 11
-20.4325360400306
 21
-131.290956670306
 31
0.0
  0
LINE
  5
   2CB
  8
0
  6
CONTINUOUS
 62
     1
 10
-20.4325360400306
 20
-131.290956670306
 30
0.0
 11
-23.2325360817538
 21
-131.290956670306
 31
0.0
  0
ARC
  5
   2CC
  8
0
  6
CONTINUOUS
 62
     1
 10
-48.232532311391
 20
-133.490957799725
 30
0.0
 40
0.599998388306887
 50
179.999941123702
 51
270.000103159103
  0
CIRCLE
  5
   2CD
  8
0
  6
CONTINUOUS
 62
     1
 10
-47.2325312217332
 20
-132.490957258404
 30
0.0
 40
0.56000046573854
  0
ARC
  5
   2CE
  8
0
  6
CONTINUOUS
 62
     1
 10
-40.4325434061479
 20
-128.690961949184
 30
0.0
 40
2.39999777402217
 50
90.0001399327154
 51
270.000100332566
  0
ARC
  5
   2CF
  8
0
  6
CONTINUOUS
 62
     1
 10
-35.8325402856185
 20
-128.690919933818
 30
0.0
 40
3.40003732800008
 50
404.899302393594
 51
495.100813987516
  0
ARC
  5
   2D0
  8
0
  6
CONTINUOUS
 62
     1
 10
-31.2325345352253
 20
-128.690959511589
 30
0.0
 40
2.39999447330695
 50
269.999747131106
 51
450.000048027357
  0
CIRCLE
  5
   2D1
  8
0
  6
CONTINUOUS
 62
     1
 10
-21.8325308382354
 20
-127.890942278866
 30
0.0
 40
2.09998893903906
  0
CIRCLE
  5
   2D2
  8
0
  6
CONTINUOUS
 62
     1
 10
-21.8325418730994
 20
-127.890968986815
 30
0.0
 40
1.10000848131997
  0
ARC
  5
   2D3
  8
0
  6
CONTINUOUS
 62
     1
 10
-12.4325702579249
 20
-128.690980345805
 30
0.0
 40
2.39996355797966
 50
449.999680793011
 51
630.000858183329
  0
ARC
  5
   2D4
  8
0
  6
CONTINUOUS
 62
     1
 10
-7.83251762390134
 20
-128.690950799647
 30
0.0
 40
3.39999636537847
 50
404.900757179708
 51
495.099359217673
  0
ARC
  5
   2D5
  8
0
  6
CONTINUOUS
 62
     1
 10
-3.23253497177987
 20
-128.690958963292
 30
0.0
 40
2.39999584916983
 50
269.999783457987
 51
450.000092622467
  0
CIRCLE
  5
   2D6
  8
0
  6
CONTINUOUS
 62
     1
 10
6.16750973076864
 20
-127.891015089552
 30
0.0
 40
2.10006391285251
  0
CIRCLE
  5
   2D7
  8
0
  6
CONTINUOUS
 62
     1
 10
6.16744737201495
 20
-127.890934841439
 30
0.0
 40
1.09997521900572
  0
ARC
  5
   2D8
  8
0
  6
CONTINUOUS
 62
     1
 10
15.5674496877499
 20
-128.690957782809
 30
0.0
 40
2.39999239794195
 50
90.0003609959681
 51
270.000490903722
  0
ARC
  5
   2D9
  8
0
  6
CONTINUOUS
 62
     1
 10
24.7674085546055
 20
-128.690949057706
 30
0.0
 40
2.40004723115382
 50
270.001034630644
 51
449.998799421533
  0
ARC
  5
   2DA
  8
0
  6
CONTINUOUS
 62
     1
 10
20.1674337392913
 20
-128.690975769596
 30
0.0
 40
3.40000454651548
 50
404.901246442185
 51
495.09901516511
  0
CIRCLE
  5
   2DB
  8
0
  6
CONTINUOUS
 62
     1
 10
31.5674645276075
 20
-132.490959691746
 30
0.0
 40
0.559998567527381
  0
ARC
  5
   2DC
  8
0
  6
CONTINUOUS
 62
     1
 10
20.1674337392913
 20
-128.690975769596
 30
0.0
 40
3.40000454651548
 50
224.900341297451
 51
315.099658598617
  0
ARC
  5
   2DD
  8
0
  6
CONTINUOUS
 62
     1
 10
-7.83251762390134
 20
-128.690950799647
 30
0.0
 40
3.39999636537847
 50
224.901072739214
 51
315.098927156855
  0
ARC
  5
   2DE
  8
0
  6
CONTINUOUS
 62
     1
 10
-35.8325402856185
 20
-128.690919933818
 30
0.0
 40
3.40003732800008
 50
224.901119153159
 51
315.09888074291
  0
LINE
  5
   2DF
  8
0
  6
DASHDOT
 62
     2
 10
-31.232502939737
 20
-128.690919933818
 30
0.0
 11
-40.4325776315
 21
-128.690919933818
 31
0.0
  0
LINE
  5
   2E0
  8
0
  6
DASHDOT
 62
     2
 10
-31.2325345352253
 20
-132.290954002777
 30
0.0
 11
-31.2325345352253
 21
-125.0909650204
 31
0.0
  0
LINE
  5
   2E1
  8
0
  6
DASHDOT
 62
     2
 10
-27.6325400440369
 20
-128.690959511588
 30
0.0
 11
-34.8325290264136
 21
-128.690959511588
 31
0.0
  0
LINE
  5
   2E2
  8
0
  6
DASHDOT
 62
     2
 10
-40.4325434061479
 20
-132.290959741088
 30
0.0
 11
-40.4325434061479
 21
-125.09096415728
 31
0.0
  0
LINE
  5
   2E3
  8
0
  6
DASHDOT
 62
     2
 10
-36.8325456142444
 20
-128.690961949184
 30
0.0
 11
-44.0325411980515
 21
-128.690961949184
 31
0.0
  0
LINE
  5
   2E4
  8
0
  6
DASHDOT
 62
     2
 10
-18.1430780461822
 20
-127.890942278866
 30
0.0
 11
-25.1325197951558
 21
-127.890942278866
 31
0.0
  0
LINE
  5
   2E5
  8
0
  6
DASHDOT
 62
     2
 10
-12.4325702579249
 20
-132.290943921666
 30
0.0
 11
-12.4325702579249
 21
-125.091016769944
 31
0.0
  0
LINE
  5
   2E6
  8
0
  6
DASHDOT
 62
     2
 10
-8.83260668206383
 20
-128.690980345805
 30
0.0
 11
-16.0325338337859
 21
-128.690980345805
 31
0.0
  0
LINE
  5
   2E7
  8
0
  6
DASHDOT
 62
     2
 10
-7.83251762390135
 20
-135.975844738308
 30
0.0
 11
-7.83251762390135
 21
-105.168941576781
 31
0.0
  0
LINE
  5
   2E8
  8
0
  6
DASHDOT
 62
     2
 10
-3.23252124064148
 20
-128.690950799647
 30
0.0
 11
-12.4325140071612
 21
-128.690950799647
 31
0.0
  0
LINE
  5
   2E9
  8
0
  6
DASHDOT
 62
     2
 10
-3.23253497177988
 20
-132.290954830343
 30
0.0
 11
-3.23253497177988
 21
-125.090963096241
 31
0.0
  0
LINE
  5
   2EA
  8
0
  6
DASHDOT
 62
     2
 10
0.367460895271343
 20
-128.690958963292
 30
0.0
 11
-6.83253083883109
 21
-128.690958963292
 31
0.0
  0
LINE
  5
   2EB
  8
0
  6
DASHDOT
 62
     2
 10
6.16750973076863
 20
-131.191079020286
 30
0.0
 11
6.16750973076863
 21
-124.590951158819
 31
0.0
  0
LINE
  5
   2EC
  8
0
  6
DASHDOT
 62
     2
 10
15.5674496877499
 20
-132.290950198632
 30
0.0
 11
15.5674496877499
 21
-125.090965366985
 31
0.0
  0
LINE
  5
   2ED
  8
0
  6
DASHDOT
 62
     2
 10
19.1674421035732
 20
-128.690957782809
 30
0.0
 11
11.9674572719265
 21
-128.690957782809
 31
0.0
  0
LINE
  5
   2EE
  8
0
  6
DASHDOT
 62
     2
 10
24.7674383036881
 20
-128.690975769596
 30
0.0
 11
15.5674291748944
 21
-128.690975769596
 31
0.0
  0
LINE
  5
   2EF
  8
0
  6
DASHDOT
 62
     2
 10
24.7674085546055
 20
-132.290996306741
 30
0.0
 11
24.7674085546055
 21
-125.090901808671
 31
0.0
  0
LINE
  5
   2F0
  8
0
  6
DASHDOT
 62
     2
 10
28.3674558036407
 20
-128.690949057706
 30
0.0
 11
21.1673613055703
 21
-128.690949057706
 31
0.0
  0
LINE
  5
   2F1
  8
0
  6
DASHDOT
 62
     2
 10
31.5674645276075
 20
-134.250958277155
 30
0.0
 11
31.5674645276075
 21
-130.730961106337
 31
0.0
  0
LINE
  5
   2F2
  8
0
  6
DASHDOT
 62
     2
 10
-47.2325312217332
 20
-134.250957742024
 30
0.0
 11
-47.2325312217332
 21
-130.730956774784
 31
0.0
  0
LINE
  5
   2F3
  8
0
  6
DASHDOT
 62
     2
 10
-45.4725307381133
 20
-132.490957258404
 30
0.0
 11
-48.9925317053532
 21
-132.490957258404
 31
0.0
  0
ARC
  5
   2F4
  8
0
  6
CONTINUOUS
 62
     1
 10
32.5674476866031
 20
-133.490961926091
 30
0.0
 40
0.600006731823455
 50
270.001088208967
 51
360.000070595423
  0
LINE
  5
   2F5
  8
0
  6
DASHDOT
 62
     2
 10
-9.00091552394452
 20
-127.890942278866
 30
0.0
 11
-16.2638557499444
 21
-127.890942278866
 31
0.0
  0
LINE
  5
   2F6
  8
0
  6
DASHDOT
 62
     2
 10
9.68972785485249
 20
-127.890942278866
 30
0.0
 11
-6.78309461577204
 21
-127.890942278866
 31
0.0
  0
LINE
  5
   2F7
  8
0
  6
DASHDOT
 62
     7
 10
20.1674827933312
 20
-38.7903269174556
 30
0.0
 11
20.1674827933312
 21
-25.5498250149255
 31
0.0
  0
LINE
  5
   2F8
  8
0
  6
DASHDOT
 62
     7
 10
-35.8325180411339
 20
-37.9627955485475
 30
0.0
 11
-35.8325180411339
 21
-24.0326841719272
 31
0.0
  0
LINE
  5
   2F9
  8
0
  6
CONTINUOUS
 62
     1
 10
-44.4325181692838
 20
-55.9909616517674
 30
0.0
 11
-49.532509341998
 21
-55.9909616517674
 31
0.0
  0
LINE
  5
   2FA
  8
0
  6
DASHDOT
 62
     7
 10
44.1832739044125
 20
-76.9909619646914
 30
0.0
 11
-53.5830182560078
 21
-76.9909619646914
 31
0.0
  0
POINT
  5
   2FB
  8
0
  6
CONTINUOUS
 62
     2
 10
-7.83251762390135
 20
-108.09096223414
 30
0.0
  0
INSERT
  5
   2FC
  8
255
  6
CONTINUOUS
 62
     7
  2
MOTORE_FRONTE
 10
-7.83251762390135
 20
-108.09096223414
 30
0.0
 41
0.400000005960464
 42
0.400000005960464
 50
3.50835464724173E-15
 43
0.400000005960464
  0
LINE
  5
   2FD
  8
0
  6
CONTINUOUS
 62
     7
 10
-44.4325181692838
 20
-36.4909451221289
 30
0.0
 11
-48.8324938207861
 21
-36.4909451221289
 31
0.0
  0
LINE
  5
   2FE
  8
0
  6
CONTINUOUS
 62
     1
 10
-44.4325181692838
 20
-97.9909622776162
 30
0.0
 11
-49.532509341998
 21
-97.9909622776162
 31
0.0
  0
LINE
  5
   2FF
  8
0
  6
CONTINUOUS
 62
     1
 10
-44.4325181692838
 20
-106.690956327582
 30
0.0
 11
-49.7325093449783
 21
-106.690956327582
 31
0.0
  0
LINE
  5
   300
  8
0
  6
CONTINUOUS
 62
     1
 10
-44.4325181692838
 20
-107.090956309701
 30
0.0
 11
-49.3325093628597
 21
-107.090956309701
 31
0.0
  0
LINE
  5
   301
  8
0
  6
DOT
 62
     7
 10
-48.8324938207861
 20
-26.8909488171363
 30
0.0
 11
-76.4325136567255
 21
-26.8909488171363
 31
0.0
  0
ARC
  5
   302
  8
0
  6
DOT
 62
     7
 10
-76.4324955212399
 20
-27.2909569458763
 30
0.0
 40
0.399995443661572
 50
90.0005173512766
 51
180.001122723422
  0
LINE
  5
   303
  8
0
  6
DOT
 62
     7
 10
-76.8324942380186
 20
-28.090954938531
 30
0.0
 11
-76.8324942380186
 21
-27.2909549266101
 31
0.0
  0
LINE
  5
   304
  8
0
  6
DOT
 62
     7
 10
-76.8324942380186
 20
-28.090954938531
 30
0.0
 11
-77.7325097622108
 21
-28.090954938531
 31
0.0
  0
LINE
  5
   305
  8
0
  6
DOT
 62
     7
 10
-77.7325097622108
 20
-132.970957000516
 30
0.0
 11
-77.7325097622108
 21
-28.090954938531
 31
0.0
  0
LINE
  5
   306
  8
0
  6
DOT
 62
     7
 10
-76.8325307769403
 20
-132.970957000516
 30
0.0
 11
-77.7325097622108
 21
-132.970957000516
 31
0.0
  0
ARC
  5
   307
  8
0
  6
DOT
 62
     7
 10
-76.2325327286235
 20
-133.490957799725
 30
0.0
 40
0.599998388306887
 50
179.999941123702
 51
270.000103159103
  0
LINE
  5
   308
  8
0
  6
DOT
 62
     7
 10
-48.3567141794783
 20
-134.090956712028
 30
0.0
 11
-76.2325307679996
 21
-134.090956712028
 31
0.0
  0
LINE
  5
   309
  8
0
  6
DOT
 62
     7
 10
-76.83253111693
 20
-133.490957183719
 30
0.0
 11
-76.83253111693
 21
-132.970957000516
 31
0.0
  0
LINE
  5
   30A
  8
0
  6
CONTINUOUS
 62
     1
 10
34.067491903739
 20
-87.2069498625296
 30
0.0
 11
34.067491903739
 21
-67.46543025051
 31
0.0
  0
LINE
  5
   30B
  8
0
  6
CONTINUOUS
 62
     1
 10
36.4674919395018
 20
-70.8909494727874
 30
0.0
 11
34.067491903739
 21
-70.8909494727874
 31
0.0
  0
LINE
  5
   30C
  8
0
  6
CONTINUOUS
 62
     1
 10
36.4674919395018
 20
-83.6909496635222
 30
0.0
 11
34.067491903739
 21
-83.6909496635222
 31
0.0
  0
LINE
  5
   30D
  8
0
  6
CONTINUOUS
 62
     1
 10
36.4674919395018
 20
-83.6909496635222
 30
0.0
 11
36.4674919395018
 21
-70.8909494727874
 31
0.0
  0
LINE
  5
   30E
  8
0
  6
CONTINUOUS
 62
     2
 10
47.2075593547646
 20
-67.46543025051
 30
0.0
 11
30.1508864099796
 21
-67.46543025051
 31
0.0
  0
LINE
  5
   30F
  8
0
  6
CONTINUOUS
 62
     2
 10
47.3654915116607
 20
-87.2069498625296
 30
0.0
 11
30.1508864099796
 21
-87.2069498625296
 31
0.0
  0
LINE
  5
   310
  8
0
  6
CONTINUOUS
 62
     2
 10
30.1508864099796
 20
-87.2069498625296
 30
0.0
 11
30.1508864099796
 21
-67.46543025051
 31
0.0
  0
LINE
  5
   311
  8
0
  6
CONTINUOUS
 62
     1
 10
44.5674831569195
 20
-67.46543025051
 30
0.0
 11
44.5674831569195
 21
13.0090327642712
 31
0.0
  0
ARC
  5
   312
  8
0
  6
CONTINUOUS
 62
     1
 10
44.067483149469
 20
13.0090327642712
 30
0.0
 40
0.500000007450581
 50
359.999999948034
 51
449.999999948034
  0
LINE
  5
   313
  8
0
  6
CONTINUOUS
 62
     1
 10
44.1674831509591
 20
13.5090327717218
 30
0.0
 11
-43.9325181618332
 21
13.5090327717218
 31
0.0
  0
LINE
  5
   314
  8
0
  6
CONTINUOUS
 62
     1
 10
19.7674827873707
 20
-105.99654181805
 30
0.0
 11
19.7674827873707
 21
-2.18539465314319
 31
0.0
  0
LINE
  5
   315
  8
0
  6
CONTINUOUS
 62
     1
 10
18.2730555741021
 20
-0.490967436894465
 30
0.0
 11
-33.7380908189245
 21
-0.490967436894465
 31
0.0
  0
LINE
  5
   316
  8
0
  6
CONTINUOUS
 62
     1
 10
25.5674828737975
 20
5.10903264655204
 30
0.0
 11
-41.0325181186199
 21
5.10903264655204
 31
0.0
  0
LINE
  5
   317
  8
0
  6
CONTINUOUS
 62
     1
 10
25.5674828737975
 20
5.5090326525125
 30
0.0
 11
-41.0325181186199
 21
5.5090326525125
 31
0.0
  0
LINE
  5
   318
  8
0
  6
CONTINUOUS
 62
     1
 10
20.3674827963114
 20
5.5090326525125
 30
0.0
 11
20.3674827963114
 21
13.5090327717218
 31
0.0
  0
LINE
  5
   319
  8
0
  6
CONTINUOUS
 62
     1
 10
20.7674828022719
 20
5.5090326525125
 30
0.0
 11
20.7674828022719
 21
13.5090327717217
 31
0.0
  0
LINE
  5
   31A
  8
0
  6
CONTINUOUS
 62
     1
 10
25.3674828708172
 20
5.5090326525125
 30
0.0
 11
25.3674828708172
 21
13.5090327717218
 31
0.0
  0
LINE
  5
   31B
  8
0
  6
CONTINUOUS
 62
     1
 10
25.7674828767777
 20
-78.9409841867236
 30
0.0
 11
25.7674828767777
 21
13.5090327717218
 31
0.0
  0
LINE
  5
   31C
  8
0
  6
CONTINUOUS
 62
     1
 10
25.3674828708172
 20
-113.290969117745
 30
0.0
 11
25.3674828708172
 21
5.10903264655204
 31
0.0
  0
LINE
  5
   31D
  8
0
  6
CONTINUOUS
 62
     1
 10
-36.0325180441141
 20
5.5090326525125
 30
0.0
 11
-36.0325180441141
 21
13.5090327717218
 31
0.0
  0
LINE
  5
   31E
  8
0
  6
CONTINUOUS
 62
     1
 10
-36.4325180500746
 20
5.5090326525125
 30
0.0
 11
-36.4325180500746
 21
13.5090327717217
 31
0.0
  0
LINE
  5
   31F
  8
0
  6
CONTINUOUS
 62
     1
 10
-35.4325180351734
 20
-105.99654181805
 30
0.0
 11
-35.4325180351734
 21
-2.18539465314319
 31
0.0
  0
LINE
  5
   320
  8
0
  6
CONTINUOUS
 62
     1
 10
-41.0325181186199
 20
-113.290969117745
 30
0.0
 11
-41.0325181186199
 21
5.10903264655204
 31
0.0
  0
LINE
  5
   321
  8
0
  6
CONTINUOUS
 62
     1
 10
-41.0325181186199
 20
5.5090326525125
 30
0.0
 11
-41.0325181186199
 21
13.5090327717218
 31
0.0
  0
LINE
  5
   322
  8
0
  6
CONTINUOUS
 62
     1
 10
-41.4325181245804
 20
-121.690969242915
 30
0.0
 11
-41.4325181245804
 21
13.5090327717218
 31
0.0
  0
LINE
  5
   323
  8
0
  6
CONTINUOUS
 62
     1
 10
-44.4325181692838
 20
-121.190969235465
 30
0.0
 11
-44.4325181692838
 21
13.0090327642712
 31
0.0
  0
ARC
  5
   324
  8
0
  6
CONTINUOUS
 62
     1
 10
-43.9325181618332
 20
13.0090327642712
 30
0.0
 40
0.500000007450581
 50
89.9999999480344
 51
179.999999948034
  0
LINE
  5
   325
  8
0
  6
CONTINUOUS
 62
     1
 10
30.1508864099796
 20
-78.9409841867236
 30
0.0
 11
25.8674828782678
 21
-78.9409841867236
 31
0.0
  0
LINE
  5
   326
  8
0
  6
CONTINUOUS
 62
     1
 10
30.1508864099796
 20
-79.3409841926841
 30
0.0
 11
25.8674828782678
 21
-79.3409841926841
 31
0.0
  0
LINE
  5
   327
  8
0
  6
CONTINUOUS
 62
     1
 10
25.7674828767777
 20
-95.7409844370631
 30
0.0
 11
25.7674828767777
 21
-79.3409841926841
 31
0.0
  0
LINE
  5
   328
  8
0
  6
CONTINUOUS
 62
     1
 10
36.9674830436707
 20
-95.7409844370631
 30
0.0
 11
25.7674828767777
 21
-95.7409844370631
 31
0.0
  0
LINE
  5
   329
  8
0
  6
CONTINUOUS
 62
     1
 10
44.5674831569195
 20
-96.1409844430236
 30
0.0
 11
25.7674828767777
 21
-96.1409844430236
 31
0.0
  0
LINE
  5
   32A
  8
0
  6
CONTINUOUS
 62
     1
 10
36.9674830436707
 20
-95.7409844370631
 30
0.0
 11
36.9674830436707
 21
-87.2069498625296
 31
0.0
  0
LINE
  5
   32B
  8
0
  6
CONTINUOUS
 62
     1
 10
37.3674830496311
 20
-96.1409844430236
 30
0.0
 11
37.3674830496311
 21
-87.2069498625296
 31
0.0
  0
LINE
  5
   32C
  8
0
  6
CONTINUOUS
 62
     1
 10
44.5674831569195
 20
-95.7409844370631
 30
0.0
 11
37.4674830511213
 21
-95.7409844370631
 31
0.0
  0
LINE
  5
   32D
  8
0
  6
CONTINUOUS
 62
     1
 10
25.7674828767777
 20
-121.690969242915
 30
0.0
 11
25.7674828767777
 21
-96.1409844430236
 31
0.0
  0
LINE
  5
   32E
  8
0
  6
CONTINUOUS
 62
     1
 10
18.0730555711219
 20
-107.690969034299
 30
0.0
 11
-33.7380908189246
 21
-107.690969034299
 31
0.0
  0
LINE
  5
   32F
  8
0
  6
CONTINUOUS
 62
     1
 10
25.3674828708172
 20
-113.290969117745
 30
0.0
 11
-41.0325181186199
 21
-113.290969117745
 31
0.0
  0
LINE
  5
   330
  8
0
  6
CONTINUOUS
 62
     1
 10
25.3674828708172
 20
-113.690969123706
 30
0.0
 11
-41.0325181186199
 21
-113.690969123706
 31
0.0
  0
LINE
  5
   331
  8
0
  6
CONTINUOUS
 62
     1
 10
44.0674831494689
 20
-121.690969242915
 30
0.0
 11
-43.9325181618333
 21
-121.690969242915
 31
0.0
  0
ARC
  5
   332
  8
0
  6
CONTINUOUS
 62
     1
 10
44.0674831494689
 20
-121.190969235465
 30
0.0
 40
0.500000007450581
 50
269.999999948034
 51
359.999999948034
  0
LINE
  5
   333
  8
0
  6
CONTINUOUS
 62
     1
 10
-41.0325181186199
 20
-121.690969242915
 30
0.0
 11
-41.0325181186199
 21
-113.690969123706
 31
0.0
  0
ARC
  5
   334
  8
0
  6
CONTINUOUS
 62
     1
 10
-43.9325181618333
 20
-121.190969235465
 30
0.0
 40
0.500000007450581
 50
179.999999948034
 51
269.999999948034
  0
ARC
  5
   335
  8
0
  6
CONTINUOUS
 62
     1
 10
-34.6325180232524
 20
-1.29096744881539
 30
0.0
 40
1.20000001788139
 50
401.810314843813
 51
588.189685052252
  0
ARC
  5
   336
  8
0
  6
CONTINUOUS
 62
     1
 10
-34.6325180232525
 20
-106.890969022378
 30
0.0
 40
1.20000001788139
 50
131.810314843817
 51
318.189685052256
  0
ARC
  5
   337
  8
0
  6
CONTINUOUS
 62
     1
 10
18.9674827754498
 20
-1.29096744881539
 30
0.0
 40
1.20000001788139
 50
311.810314843817
 51
498.189685052256
  0
ARC
  5
   338
  8
0
  6
CONTINUOUS
 62
     1
 10
18.9674827754498
 20
-106.890969022378
 30
0.0
 40
1.20000001788139
 50
221.810314843813
 51
408.189685052256
  0
LINE
  5
   339
  8
0
  6
CONTINUOUS
 62
     1
 10
25.3674828708172
 20
-121.690969242915
 30
0.0
 11
25.3674828708172
 21
-113.690969123706
 31
0.0
  0
LINE
  5
   33A
  8
0
  6
CONTINUOUS
 62
     1
 10
44.5674831569195
 20
-121.190969235465
 30
0.0
 11
44.5674831569195
 21
-87.2069498625296
 31
0.0
  0
LINE
  5
   33B
  8
0
  6
CONTINUOUS
 62
     1
 10
33.3074742384386
 20
-87.2069498625296
 30
0.0
 11
33.3074742384386
 21
-67.46543025051
 31
0.0
  0
LINE
  5
   33C
  8
0
  6
CONTINUOUS
 62
     1
 10
32.3874741484356
 20
-87.2069498625296
 30
0.0
 11
32.3874741484356
 21
-67.46543025051
 31
0.0
  0
LINE
  5
   33D
  8
0
  6
CONTINUOUS
 62
     1
 10
30.9474743558597
 20
-87.2069498625296
 30
0.0
 11
30.9474743558597
 21
-67.46543025051
 31
0.0
  0
INSERT
  5
   33E
  8
0
  6
CONTINUOUS
 62
     7
  2
*UDIM358
 10
0.0
 20
0.0
 30
0.0
  0
INSERT
  5
   33F
  8
0
  6
CONTINUOUS
 62
     7
  2
*UDIM359
 10
0.0
 20
0.0
 30
0.0
  0
INSERT
  5
   340
  8
0
  6
CONTINUOUS
 62
     7
  2
*UDIM360
 10
0.0
 20
0.0
 30
0.0
  0
INSERT
  5
   341
  8
0
  6
CONTINUOUS
 62
     7
  2
*UDIM361
 10
0.0
 20
0.0
 30
0.0
  0
INSERT
  5
   342
  8
0
  6
CONTINUOUS
 62
     7
  2
*UDIM362
 10
0.0
 20
0.0
 30
0.0
  0
INSERT
  5
   343
  8
0
  6
CONTINUOUS
 62
     7
  2
*UDIM363
 10
0.0
 20
0.0
 30
0.0
  0
TEXT
  5
   344
  8
0
  6
CONTINUOUS
 62
     7
 10
-24.4123839674472
 20
-146.233128253648
 30
0.0
 40
2.99999994933605
  1
=         =
 50
359.999999948034
 41
0.916666607525612
 72
     2
 11
5.28761361210751
 21
-146.233128280436
 31
0.0
  0
INSERT
  5
   345
  8
0
  6
CONTINUOUS
 62
     7
  2
*UDIM364
 10
0.0
 20
0.0
 30
0.0
  0
INSERT
  5
   346
  8
0
  6
CONTINUOUS
 62
     7
  2
*UDIM365
 10
0.0
 20
0.0
 30
0.0
  0
INSERT
  5
   347
  8
0
  6
CONTINUOUS
 62
     7
  2
*UDIM366
 10
0.0
 20
0.0
 30
0.0
  0
TEXT
  5
   348
  8
0
  6
CONTINUOUS
 62
     7
 10
172.616935546827
 20
-77.9723008032832
 30
0.0
 40
2.99999994933605
  1
X
 50
359.999999948034
 41
0.916666607525612
 72
     2
 11
174.816935365033
 21
-77.9723008052675
 31
0.0
  0
TEXT
  5
   349
  8
0
  6
CONTINUOUS
 62
     7
 10
-6.50977839556209
 20
-176.054440326344
 30
0.0
 40
2.99999994933605
  1
Y
 50
359.999999948034
 41
0.916666607525612
 72
     2
 11
-4.30977857735626
 21
-176.054440328329
 31
0.0
  0
TEXT
  5
   34A
  8
0
  6
CONTINUOUS
 62
     7
 10
-95.5677974533429
 20
-77.7168045836557
 30
0.0
 40
2.99999994933605
  1
X
 50
359.999999948034
 41
0.916666607525612
 72
     2
 11
-93.367797635137
 21
-77.71680458564
 31
0.0
  0
TEXT
  5
   34B
  8
0
  6
CONTINUOUS
 62
     7
 10
61.0704678202023
 20
-77.0117294999071
 30
0.0
 40
2.99999994933605
  1
X
 50
359.999999948034
 41
0.916666607525612
 72
     2
 11
63.2704676384081
 21
-77.0117295018914
 31
0.0
  0
TEXT
  5
   34C
  8
0
  6
CONTINUOUS
 62
     7
 10
-8.93124239801434
 20
28.4110900641794
 30
0.0
 40
2.99999994933605
  1
Y
 50
359.999999948034
 41
0.916666607525612
 72
     2
 11
-6.73124257980851
 21
28.4110900621951
 31
0.0
  0
LINE
  5
   34D
  8
0
  6
CONTINUOUS
 62
     3
 10
76.5934967428446
 20
-74.0909357875585
 30
0.0
 11
76.5934967428446
 21
-68.8909357100724
 31
0.0
  0
LINE
  5
   34E
  8
0
  6
CONTINUOUS
 62
     3
 10
76.1934970706701
 20
-31.0909351468085
 30
0.0
 11
77.1934967041016
 21
-31.0909351468085
 31
0.0
  0
LINE
  5
   34F
  8
0
  6
CONTINUOUS
 62
     3
 10
76.1934970706701
 20
-35.0909413099289
 30
0.0
 11
77.1934967041016
 21
-35.0909413099289
 31
0.0
  0
LINE
  5
   350
  8
0
  6
CONTINUOUS
 62
     3
 10
76.1934970706701
 20
-35.0909413099289
 30
0.0
 11
76.1934970706701
 21
-34.5562733332117
 31
0.0
  0
LINE
  5
   351
  8
0
  6
CONTINUOUS
 62
     3
 10
76.1934970706701
 20
-34.5562367121174
 30
0.0
 11
76.1934970706701
 21
-33.8649891432233
 31
0.0
  0
LINE
  5
   352
  8
0
  6
CONTINUOUS
 62
     3
 10
76.1934970706701
 20
-33.8649403150976
 30
0.0
 11
76.1934970706701
 21
-31.0909355282783
 31
0.0
  0
LINE
  5
   353
  8
0
  6
CONTINUOUS
 62
     3
 10
76.7934966981411
 20
-106.290936648846
 30
0.0
 11
77.1934966802597
 21
-106.290936648846
 31
0.0
  0
LINE
  5
   354
  8
0
  6
CONTINUOUS
 62
     3
 10
76.7934966981411
 20
-100.290942281485
 30
0.0
 11
76.7934966981411
 21
-96.890936127305
 31
0.0
  0
LINE
  5
   355
  8
0
  6
CONTINUOUS
 62
     3
 10
76.7934966981411
 20
-73.80842845913
 30
0.0
 11
76.7934966981411
 21
-68.8909357100724
 31
0.0
  0
LINE
  5
   356
  8
0
  6
CONTINUOUS
 62
     3
 10
77.1934967041016
 20
-40.8909413963556
 30
0.0
 11
77.1934967041016
 21
-26.8909411877394
 31
0.0
  0
LINE
  5
   357
  8
0
  6
CONTINUOUS
 62
     3
 10
77.1934966802597
 20
-106.290936648846
 30
0.0
 11
94.979129269505
 21
-106.290936648846
 31
0.0
  0
LINE
  5
   358
  8
0
  6
CONTINUOUS
 62
     3
 10
77.1934967041016
 20
-28.0909351021051
 30
0.0
 11
107.993478828668
 21
-28.0909351021051
 31
0.0
  0
LINE
  5
   359
  8
0
  6
CONTINUOUS
 62
     3
 10
76.7934951877756
 20
-79.9730253436368
 30
0.0
 11
77.1934967041016
 21
-79.8658489796304
 31
0.0
  0
LINE
  5
   35A
  8
0
  6
CONTINUOUS
 62
     3
 10
76.7934996439649
 20
-73.808434133797
 30
0.0
 11
80.0869894934039
 21
-74.6909534759338
 31
0.0
  0
LINE
  5
   35B
  8
0
  6
CONTINUOUS
 62
     3
 10
78.1934710842352
 20
-74.6909534422481
 30
0.0
 11
114.67347162783
 21
-74.6909361192834
 31
0.0
  0
LINE
  5
   35C
  8
0
  6
CONTINUOUS
 62
     3
 10
78.1934710842352
 20
-79.0909657148825
 30
0.0
 11
114.67347162783
 21
-79.0909483928925
 31
0.0
  0
LINE
  5
   35D
  8
0
  6
CONTINUOUS
 62
     3
 10
77.1934967041016
 20
-79.8658687349398
 30
0.0
 11
77.1934967041016
 21
-74.0909357875585
 31
0.0
  0
LINE
  5
   35E
  8
0
  6
CONTINUOUS
 62
     3
 10
76.1934966892004
 20
-106.290936267376
 30
0.0
 11
76.1934966892004
 21
-18.5908155560221
 31
0.0
  0
LINE
  5
   35F
  8
0
  6
CONTINUOUS
 62
     3
 10
76.1934966892004
 20
-100.290936177969
 30
0.0
 11
76.7934963166714
 21
-100.290936177969
 31
0.0
  0
LINE
  5
   360
  8
0
  6
CONTINUOUS
 62
     3
 10
76.1934968163567
 20
-106.290936267376
 30
0.0
 11
76.7934968252974
 21
-106.290936648846
 31
0.0
  0
LINE
  5
   361
  8
0
  6
CONTINUOUS
 62
     3
 10
94.9791196452419
 20
-106.290938469461
 30
0.0
 11
95.1934751000586
 21
-107.090938064546
 31
0.0
  0
LINE
  5
   362
  8
0
  6
CONTINUOUS
 62
     3
 10
94.9934908658265
 20
-107.090936279297
 30
0.0
 11
107.993472748994
 21
-107.090936279297
 31
0.0
  0
LINE
  5
   363
  8
0
  6
CONTINUOUS
 62
     3
 10
105.793472716212
 20
-79.1909602776173
 30
0.0
 11
105.793472716212
 21
-79.0909480690957
 31
0.0
  0
LINE
  5
   364
  8
0
  6
CONTINUOUS
 62
     3
 10
105.793472716212
 20
-74.6909357964992
 30
0.0
 11
105.793472716212
 21
-74.5909602090719
 31
0.0
  0
LINE
  5
   365
  8
0
  6
CONTINUOUS
 62
     3
 10
105.793472716212
 20
-74.5909602090719
 30
0.0
 11
114.67347162783
 21
-74.5909602090719
 31
0.0
  0
LINE
  5
   366
  8
0
  6
CONTINUOUS
 62
     3
 10
105.793468832018
 20
-79.1909624955727
 30
0.0
 11
114.67347162783
 21
-79.191011767324
 31
0.0
  0
LINE
  5
   367
  8
0
  6
CONTINUOUS
 62
     3
 10
76.1934985965491
 20
-95.7409361890934
 30
0.0
 11
76.1934985965491
 21
-92.8409483529115
 31
0.0
  0
LINE
  5
   368
  8
0
  6
CONTINUOUS
 62
     3
 10
76.5934966943967
 20
-91.6909360498189
 30
0.0
 11
76.793496697377
 21
-91.6909360498189
 31
0.0
  0
LINE
  5
   369
  8
0
  6
CONTINUOUS
 62
     3
 10
76.5934966943967
 20
-96.890936127305
 30
0.0
 11
76.793496697377
 21
-96.890936127305
 31
0.0
  0
LINE
  5
   36A
  8
0
  6
CONTINUOUS
 62
     3
 10
76.5934970766306
 20
-68.8909357100724
 30
0.0
 11
76.7934974610806
 21
-68.8909357100724
 31
0.0
  0
LINE
  5
   36B
  8
0
  6
CONTINUOUS
 62
     3
 10
76.5934970527887
 20
-74.0909357875585
 30
0.0
 11
77.1934966802597
 21
-74.0909357875585
 31
0.0
  0
LINE
  5
   36C
  8
0
  6
CONTINUOUS
 62
     3
 10
76.1934966892004
 20
-92.8409482739867
 30
0.0
 11
76.5934989839792
 21
-92.8409482739867
 31
0.0
  0
LINE
  5
   36D
  8
0
  6
CONTINUOUS
 62
     3
 10
76.1934970706701
 20
-95.7409361101686
 30
0.0
 11
76.5934989839792
 21
-95.7409361101686
 31
0.0
  0
LINE
  5
   36E
  8
0
  6
CONTINUOUS
 62
     3
 10
116.793472880123
 20
-107.090954589844
 30
0.0
 11
116.793472880123
 21
-97.9909544542434
 31
0.0
  0
LINE
  5
   36F
  8
0
  6
CONTINUOUS
 62
     3
 10
116.793472880123
 20
-55.9909599319103
 30
0.0
 11
116.793472880123
 21
-36.6909596443179
 31
0.0
  0
LINE
  5
   370
  8
0
  6
CONTINUOUS
 62
     3
 10
114.793472850321
 20
-36.6909596443179
 30
0.0
 11
116.793472880123
 21
-36.6909596443179
 31
0.0
  0
LINE
  5
   371
  8
0
  6
CONTINUOUS
 62
     3
 10
114.793472850321
 20
-107.090954589844
 30
0.0
 11
116.793472880123
 21
-107.090954589844
 31
0.0
  0
LINE
  5
   372
  8
0
  6
CONTINUOUS
 62
     3
 10
116.793472880123
 20
-55.9909599319103
 30
0.0
 11
117.593472892044
 21
-55.9909599319103
 31
0.0
  0
LINE
  5
   373
  8
0
  6
CONTINUOUS
 62
     3
 10
106.793472731112
 20
-67.2909440271155
 30
0.0
 11
106.793472731112
 21
-37.6124810356131
 31
0.0
  0
LINE
  5
   374
  8
0
  6
CONTINUOUS
 62
     3
 10
106.793471768687
 20
-67.2909438667065
 30
0.0
 11
107.993472131156
 21
-67.4909499456359
 31
0.0
  0
LINE
  5
   375
  8
0
  6
CONTINUOUS
 62
     3
 10
106.793472350435
 20
-67.2909468123031
 30
0.0
 11
106.793472731904
 21
-67.0909529126523
 31
0.0
  0
LINE
  5
   376
  8
0
  6
CONTINUOUS
 62
     3
 10
106.79347196822
 20
-39.2909485584002
 30
0.0
 11
106.793472349689
 21
-39.4909485613805
 31
0.0
  0
LINE
  5
   377
  8
0
  6
CONTINUOUS
 62
     3
 10
107.993468523473
 20
-28.090953205953
 30
0.0
 11
115.27346741125
 21
-28.0909593094685
 31
0.0
  0
LINE
  5
   378
  8
0
  6
CONTINUOUS
 62
     3
 10
107.993472748993
 20
-26.8909411877394
 30
0.0
 11
115.593472862242
 21
-26.8909411877394
 31
0.0
  0
LINE
  5
   379
  8
0
  6
CONTINUOUS
 62
     3
 10
107.993472748993
 20
-107.090936279297
 30
0.0
 11
114.793466746805
 21
-107.090936279297
 31
0.0
  0
LINE
  5
   37A
  8
0
  6
CONTINUOUS
 62
     3
 10
107.993472748993
 20
-106.290942370892
 30
0.0
 11
114.67347162783
 21
-106.290942370892
 31
0.0
  0
LINE
  5
   37B
  8
0
  6
CONTINUOUS
 62
     3
 10
115.593472862242
 20
-36.6909596443179
 30
0.0
 11
115.593472862242
 21
-36.490953537822
 31
0.0
  0
LINE
  5
   37C
  8
0
  6
CONTINUOUS
 62
     3
 10
107.993472748993
 20
-107.090936279297
 30
0.0
 11
107.993472748993
 21
-79.190974702556
 31
0.0
  0
LINE
  5
   37D
  8
0
  6
CONTINUOUS
 62
     3
 10
107.993472748993
 20
-37.2909524155848
 30
0.0
 11
107.993472748993
 21
-28.0909351021051
 31
0.0
  0
LINE
  5
   37E
  8
0
  6
CONTINUOUS
 62
     3
 10
115.593472862242
 20
-26.8909411877394
 30
0.0
 11
115.793472865222
 21
-26.8909411877394
 31
0.0
  0
LINE
  5
   37F
  8
0
  6
CONTINUOUS
 62
     3
 10
115.593472862242
 20
-36.490953537822
 30
0.0
 11
115.793472865222
 21
-36.490953537822
 31
0.0
  0
LINE
  5
   380
  8
0
  6
CONTINUOUS
 62
     3
 10
115.793472865222
 20
-36.490953537822
 30
0.0
 11
115.793472865222
 21
-26.8909411877394
 31
0.0
  0
LINE
  5
   381
  8
0
  6
CONTINUOUS
 62
     3
 10
114.67347162783
 20
-74.5909602090719
 30
0.0
 11
114.67347162783
 21
-36.4909657448534
 31
0.0
  0
LINE
  5
   382
  8
0
  6
CONTINUOUS
 62
     3
 10
114.67347162783
 20
-106.290942370892
 30
0.0
 11
114.67347162783
 21
-79.191011767324
 31
0.0
  0
LINE
  5
   383
  8
0
  6
CONTINUOUS
 62
     3
 10
114.673467383112
 20
-36.4909602144796
 30
0.0
 11
115.593468617525
 21
-36.4909541109639
 31
0.0
  0
LINE
  5
   384
  8
0
  6
CONTINUOUS
 62
     3
 10
115.27347163677
 20
-36.4909657448534
 30
0.0
 11
115.27347163677
 21
-28.0909534126522
 31
0.0
  0
LINE
  5
   385
  8
0
  6
CONTINUOUS
 62
     3
 10
157.793473491071
 20
-56.8909660488371
 30
0.0
 11
157.793473491071
 21
-55.9909599319103
 31
0.0
  0
LINE
  5
   386
  8
0
  6
CONTINUOUS
 62
     3
 10
115.593466758726
 20
-36.6909474372865
 30
0.0
 11
116.793472880123
 21
-36.6909474372865
 31
0.0
  0
LINE
  5
   387
  8
0
  6
CONTINUOUS
 62
     3
 10
116.793472880123
 20
-55.9909477248789
 30
0.0
 11
117.593472892044
 21
-55.9909477248789
 31
0.0
  0
LINE
  5
   388
  8
0
  6
CONTINUOUS
 62
     3
 10
157.793473491071
 20
-60.6909538984301
 30
0.0
 11
157.793473491071
 21
-56.8909538418056
 31
0.0
  0
LINE
  5
   389
  8
0
  6
CONTINUOUS
 62
     3
 10
114.793472850321
 20
-107.090954589844
 30
0.0
 11
114.793472850321
 21
-36.6909596443179
 31
0.0
  0
LINE
  5
   38A
  8
0
  6
CONTINUOUS
 62
     3
 10
106.793471894983
 20
-37.6124859298563
 30
0.0
 11
107.993471509757
 21
-37.2909527476313
 31
0.0
  0
LINE
  5
   38B
  8
0
  6
CONTINUOUS
 62
     3
 10
114.673473496943
 20
-83.7109594957395
 30
0.0
 11
114.793474715519
 21
-83.7321180901906
 31
0.0
  0
LINE
  5
   38C
  8
0
  6
CONTINUOUS
 62
     3
 10
114.673473812822
 20
-106.290936252415
 30
0.0
 11
114.793468925553
 21
-106.369903533928
 31
0.0
  0
LINE
  5
   38D
  8
0
  6
CONTINUOUS
 62
     3
 10
114.673469656966
 20
-70.0709552931559
 30
0.0
 11
114.793470875233
 21
-70.0497944058526
 31
0.0
  0
LINE
  5
   38E
  8
0
  6
CONTINUOUS
 62
     3
 10
114.673469964591
 20
-39.9622338531822
 30
0.0
 11
114.793465076837
 21
-40.0133202727594
 31
0.0
  0
LINE
  5
   38F
  8
0
  6
CONTINUOUS
 62
     3
 10
114.673476488674
 20
-38.219649192466
 30
0.0
 11
114.793471607114
 21
-38.168568876074
 31
0.0
  0
LINE
  5
   390
  8
0
  6
CONTINUOUS
 62
     3
 10
76.1934966892004
 20
-129.890942722559
 30
0.0
 11
76.9934905976056
 21
-129.890942722559
 31
0.0
  0
LINE
  5
   391
  8
0
  6
CONTINUOUS
 62
     3
 10
76.1934966892004
 20
-129.890942722559
 30
0.0
 11
76.1934966892004
 21
-125.89094876647
 31
0.0
  0
LINE
  5
   392
  8
0
  6
CONTINUOUS
 62
     3
 10
76.9934905976056
 20
-132.970943073631
 30
0.0
 11
114.673489938378
 21
-132.970943073631
 31
0.0
  0
LINE
  5
   393
  8
0
  6
CONTINUOUS
 62
     3
 10
76.9934905976056
 20
-134.090942785144
 30
0.0
 11
95.1884432613097
 21
-134.090942785144
 31
0.0
  0
LINE
  5
   394
  8
0
  6
CONTINUOUS
 62
     3
 10
95.1884554683411
 20
-134.090942785143
 30
0.0
 11
115.793491175771
 21
-134.090942785143
 31
0.0
  0
LINE
  5
   395
  8
0
  6
CONTINUOUS
 62
     3
 10
76.1934905856847
 20
-106.490942373872
 30
0.0
 11
94.9934908658265
 21
-106.490942373872
 31
0.0
  0
LINE
  5
   396
  8
0
  6
CONTINUOUS
 62
     3
 10
115.793491175771
 20
-134.090942785144
 30
0.0
 11
115.793491175771
 21
-124.490948745609
 31
0.0
  0
LINE
  5
   397
  8
0
  6
CONTINUOUS
 62
     3
 10
76.1934905856847
 20
-138.39894801909
 30
0.0
 11
76.1934905856847
 21
-106.490942373872
 31
0.0
  0
LINE
  5
   398
  8
0
  6
CONTINUOUS
 62
     3
 10
114.673491464257
 20
-124.490948745609
 30
0.0
 11
115.793491175771
 21
-124.490948745609
 31
0.0
  0
LINE
  5
   399
  8
0
  6
CONTINUOUS
 62
     3
 10
114.673491464257
 20
-132.970941547752
 30
0.0
 11
114.673491464257
 21
-124.490948745609
 31
0.0
  0
LINE
  5
   39A
  8
0
  6
CONTINUOUS
 62
     3
 10
94.9934908658265
 20
-107.090948486328
 30
0.0
 11
94.9934908658265
 21
-106.490942373872
 31
0.0
  0
LINE
  5
   39B
  8
0
  6
CONTINUOUS
 62
     3
 10
114.673491464257
 20
-122.890948721767
 30
0.0
 11
114.673491464257
 21
-107.090948486328
 31
0.0
  0
LINE
  5
   39C
  8
0
  6
CONTINUOUS
 62
     3
 10
76.9934905976056
 20
-134.090942785143
 30
0.0
 11
76.9934905976056
 21
-129.890942722559
 31
0.0
  0
LINE
  5
   39D
  8
0
  6
CONTINUOUS
 62
     3
 10
116.793491495848
 20
-122.890948915745
 30
0.0
 11
116.793491495848
 21
-107.290948683287
 31
0.0
  0
LINE
  5
   39E
  8
0
  6
CONTINUOUS
 62
     3
 10
114.673491464257
 20
-107.290948683287
 30
0.0
 11
116.793491495848
 21
-107.290948683287
 31
0.0
  0
LINE
  5
   39F
  8
0
  6
CONTINUOUS
 62
     3
 10
114.673491464257
 20
-122.890948915745
 30
0.0
 11
116.793491495848
 21
-122.890948915745
 31
0.0
  0
LINE
  5
   3A0
  8
0
  6
CONTINUOUS
 62
     3
 10
115.793491480946
 20
-122.890948915745
 30
0.0
 11
115.793491480946
 21
-107.290948683287
 31
0.0
  0
LINE
  5
   3A1
  8
0
  6
CONTINUOUS
 62
     3
 10
107.993472748993
 20
-74.5909602090719
 30
0.0
 11
107.993472748993
 21
-67.4909662067894
 31
0.0
  0
LINE
  5
   3A2
  8
0
  6
CONTINUOUS
 62
     3
 10
114.67347162783
 20
-79.0909483928925
 30
0.0
 11
114.67347162783
 21
-74.6909361192834
 31
0.0
  0
LINE
  5
   3A3
  8
0
  6
CONTINUOUS
 62
     3
 10
78.1934710842352
 20
-79.0909483928925
 30
0.0
 11
78.1934710842352
 21
-74.6909534422481
 31
0.0
  0
LINE
  5
   3A4
  8
0
  6
CONTINUOUS
 62
     3
 10
77.1934967041016
 20
-26.8909411877394
 30
0.0
 11
107.993497163057
 21
-26.8909411877394
 31
0.0
  0
LINE
  5
   3A5
  8
0
  6
CONTINUOUS
 62
     3
 10
74.9934905678033
 20
-138.866948536524
 30
0.0
 11
74.9934905678033
 21
-20.8031816384367
 31
0.0
  0
LINE
  5
   3A6
  8
0
  6
CONTINUOUS
 62
     3
 10
77.1934967041016
 20
-79.8658489796304
 30
0.0
 11
80.0855312563159
 21
-79.090957547382
 31
0.0
  0
LINE
  5
   3A7
  8
0
  6
CONTINUOUS
 62
     3
 10
77.1934967041016
 20
-74.0909357875585
 30
0.0
 11
77.1934967041016
 21
-73.9156122986178
 31
0.0
  0
LINE
  5
   3A8
  8
0
  6
CONTINUOUS
 62
     3
 10
76.7934966981411
 20
-68.8909357100724
 30
0.0
 11
76.7934966981411
 21
-40.8909352928399
 31
0.0
  0
LINE
  5
   3A9
  8
0
  6
CONTINUOUS
 62
     3
 10
76.7934966981411
 20
-91.6909360498189
 30
0.0
 11
76.7934966981411
 21
-79.9730281603647
 31
0.0
  0
LINE
  5
   3AA
  8
0
  6
CONTINUOUS
 62
     3
 10
76.7934966981411
 20
-96.890936127305
 30
0.0
 11
76.7934966981411
 21
-91.6909360498189
 31
0.0
  0
LINE
  5
   3AB
  8
0
  6
CONTINUOUS
 62
     3
 10
76.5934966951609
 20
-96.890936127305
 30
0.0
 11
76.5934966951609
 21
-95.7409361101686
 31
0.0
  0
LINE
  5
   3AC
  8
0
  6
CONTINUOUS
 62
     3
 10
76.5934966951609
 20
-92.8409482739867
 30
0.0
 11
76.5934966951609
 21
-91.6909360498189
 31
0.0
  0
LINE
  5
   3AD
  8
0
  6
CONTINUOUS
 62
     3
 10
76.5934966951609
 20
-95.7409361101686
 30
0.0
 11
76.5934966951609
 21
-92.8409482739867
 31
0.0
  0
LINE
  5
   3AE
  8
0
  6
CONTINUOUS
 62
     3
 10
114.673491464257
 20
-124.490948745609
 30
0.0
 11
114.673491464257
 21
-122.890948721767
 31
0.0
  0
LINE
  5
   3AF
  8
0
  6
CONTINUOUS
 62
     1
 10
154.193473437427
 20
-119.690954777599
 30
0.0
 11
154.193473437427
 21
-119.660867496877
 31
0.0
  0
LINE
  5
   3B0
  8
0
  6
DASHDOT
 62
     7
 10
68.2538641656004
 20
-76.9909602448347
 30
0.0
 11
166.149123520424
 21
-76.9909602448347
 31
0.0
  0
LINE
  5
   3B1
  8
0
  6
CONTINUOUS
 62
     3
 10
76.7934966981411
 20
-40.8909352928399
 30
0.0
 11
77.1934967041016
 21
-40.8909413963556
 31
0.0
  0
POINT
  5
   3B2
  8
0
  6
CONTINUOUS
 62
     3
 10
117.593472892044
 20
-97.9909544542434
 30
0.0
  0
INSERT
  5
   3B3
  8
255
  6
CONTINUOUS
 62
     3
  2
MOTORE
 10
117.593472892044
 20
-97.9909544542434
 30
0.0
 41
0.400000005960464
 42
0.400000005960464
 43
0.400000005960464
  0
LINE
  5
   3B4
  8
0
  6
CONTINUOUS
 62
     7
 10
157.793473491071
 20
-42.0909536212685
 30
0.0
 11
165.79347361028
 21
-42.0909536212685
 31
0.0
  0
LINE
  5
   3B5
  8
0
  6
CONTINUOUS
 62
     7
 10
157.793473491071
 20
-52.0909537702801
 30
0.0
 11
165.79347361028
 21
-52.0909537702801
 31
0.0
  0
LINE
  5
   3B6
  8
0
  6
CONTINUOUS
 62
     7
 10
165.79347361028
 20
-52.0909537702801
 30
0.0
 11
165.79347361028
 21
-42.0909536212685
 31
0.0
  0
INSERT
  5
   3B7
  8
255
  6
CONTINUOUS
 62
     7
  2
MOSTRINA
 10
77.193508911133
 20
-107.090932838516
 30
0.0
 41
0.400000005960464
 42
0.400000005960464
 43
0.400000005960464
  0
INSERT
  5
   3B8
  8
0
  6
CONTINUOUS
 62
     7
  2
*UDIM367
 10
0.0
 20
0.0
 30
0.0
  0
INSERT
  5
   3B9
  8
0
  6
CONTINUOUS
 62
     7
  2
*UDIM368
 10
0.0
 20
0.0
 30
0.0
  0
INSERT
  5
   3BA
  8
0
  6
CONTINUOUS
 62
     7
  2
*UDIM369
 10
0.0
 20
0.0
 30
0.0
  0
INSERT
  5
   3BB
  8
0
  6
CONTINUOUS
 62
     7
  2
*UDIM370
 10
0.0
 20
0.0
 30
0.0
  0
INSERT
  5
   3BC
  8
0
  6
CONTINUOUS
 62
     7
  2
*UDIM371
 10
0.0
 20
0.0
 30
0.0
  0
LINE
  5
   3BD
  8
0
  6
CONTINUOUS
 62
     7
 10
260.693341982888
 20
6.75780960763974
 30
0.0
 11
260.693341824995
 21
0.507809607639743
 31
0.0
  0
LINE
  5
   3BE
  8
0
  6
CONTINUOUS
 62
     7
 10
262.193341982888
 20
6.75780960763973
 30
0.0
 11
262.193341824995
 21
0.507809607639729
 31
0.0
  0
LINE
  5
   3BF
  8
0
  6
CONTINUOUS
 62
     7
 10
260.693341824995
 20
0.507809607639743
 30
0.0
 11
262.193341824995
 21
0.507809607639743
 31
0.0
  0
LINE
  5
   3C0
  8
0
  6
CONTINUOUS
 62
     7
 10
260.693341982888
 20
6.75780960763974
 30
0.0
 11
262.193341982888
 21
6.75780960763974
 31
0.0
  0
LINE
  5
   3C1
  8
0
  6
CONTINUOUS
 62
     7
 10
260.693340481079
 20
-52.6894314712622
 30
0.0
 11
262.193340481079
 21
-52.6894314712622
 31
0.0
  0
LINE
  5
   3C2
  8
0
  6
CONTINUOUS
 62
     7
 10
262.193340481079
 20
-52.6894314712622
 30
0.0
 11
262.193340323186
 21
-58.9394314712622
 31
0.0
  0
LINE
  5
   3C3
  8
0
  6
CONTINUOUS
 62
     7
 10
260.693340481079
 20
-52.6894314712622
 30
0.0
 11
260.693340323186
 21
-58.9394314712622
 31
0.0
  0
LINE
  5
   3C4
  8
0
  6
CONTINUOUS
 62
     7
 10
260.693340323186
 20
-58.9394314712622
 30
0.0
 11
262.193340323186
 21
-58.9394314712622
 31
0.0
  0
LINE
  5
   3C5
  8
0
  6
DASHDOT
 62
     2
 10
261.443341982888
 20
9.43048910919654
 30
0.0
 11
261.443341982888
 21
-60.426185216283
 31
0.0
  0
LINE
  5
   3C6
  8
0
  6
CONTINUOUS
 62
     2
 10
198.89655841739
 20
24.3076241883052
 30
0.0
 11
198.896580385201
 21
-64.2328493445696
 31
0.0
  0
LINE
  5
   3C7
  8
0
  6
CONTINUOUS
 62
     2
 10
198.89655841739
 20
24.3076241883051
 30
0.0
 11
259.443342426248
 21
24.3076241883051
 31
0.0
  0
LINE
  5
   3C8
  8
0
  6
CONTINUOUS
 62
     2
 10
198.896580385201
 20
-64.2328493445696
 30
0.0
 11
259.443340189459
 21
-64.2328493445696
 31
0.0
  0
LINE
  5
   3C9
  8
0
  6
CONTINUOUS
 62
     2
 10
203.44332312906
 20
18.1580123901367
 30
0.0
 11
246.943342270891
 21
18.1580123901367
 31
0.0
  0
LINE
  5
   3CA
  8
0
  6
CONTINUOUS
 62
     2
 10
203.44332312906
 20
18.1580123901367
 30
0.0
 11
203.443341985449
 21
-57.8419852256775
 31
0.0
  0
LINE
  5
   3CB
  8
0
  6
CONTINUOUS
 62
     2
 10
203.443341985449
 20
-57.8419852256775
 30
0.0
 11
246.943340350911
 21
-57.8419852256775
 31
0.0
  0
LINE
  5
   3CC
  8
0
  6
CONTINUOUS
 62
     2
 10
246.943342270891
 20
18.1580123901367
 30
0.0
 11
246.943340350911
 21
-57.8419852256775
 31
0.0
  0
CIRCLE
  5
   3CD
  8
0
  6
CONTINUOUS
 62
     2
 10
250.443343030407
 20
20.0330202772058
 30
0.0
 40
1.0
  0
CIRCLE
  5
   3CE
  8
0
  6
CONTINUOUS
 62
     2
 10
230.130846861864
 20
20.0330170234162
 30
0.0
 40
1.0
  0
CIRCLE
  5
   3CF
  8
0
  6
CONTINUOUS
 62
     2
 10
209.818347159629
 20
20.0330297504457
 30
0.0
 40
1.0
  0
CIRCLE
  5
   3D0
  8
0
  6
CONTINUOUS
 62
     2
 10
250.443341804826
 20
-19.8419815009289
 30
0.0
 40
1.0
  0
CIRCLE
  5
   3D1
  8
0
  6
CONTINUOUS
 62
     2
 10
250.443341622168
 20
-59.716982313648
 30
0.0
 40
1.0
  0
CIRCLE
  5
   3D2
  8
0
  6
CONTINUOUS
 62
     2
 10
230.130843860758
 20
-59.7169819496217
 30
0.0
 40
1.0
  0
CIRCLE
  5
   3D3
  8
0
  6
CONTINUOUS
 62
     2
 10
209.818347274036
 20
-59.7169818066094
 30
0.0
 40
1.0
  0
ARC
  5
   3D4
  8
0
  6
CONTINUOUS
 62
     2
 10
255.693341610137
 20
-37.9044858882129
 30
0.0
 40
2.0
 50
359.999985245866
 51
539.999985245866
  0
LINE
  5
   3D5
  8
0
  6
CONTINUOUS
 62
     2
 10
253.693341610137
 20
-37.9044853786383
 30
0.0
 11
253.693340161035
 21
-43.5919817698319
 31
0.0
  0
LINE
  5
   3D6
  8
0
  6
CONTINUOUS
 62
     2
 10
257.693341610137
 20
-37.9044863977875
 30
0.0
 11
257.693340161035
 21
-43.5919827889812
 31
0.0
  0
ARC
  5
   3D7
  8
0
  6
CONTINUOUS
 62
     2
 10
255.693340161035
 20
-43.5919822794066
 30
0.0
 40
2.0
 50
539.999985245866
 51
719.999985245866
  0
LINE
  5
   3D8
  8
0
  6
CONTINUOUS
 62
     2
 10
259.443342426248
 20
24.3076241883051
 30
0.0
 11
259.443340189459
 21
-64.2328493445696
 31
0.0
  0
LINE
  5
   3D9
  8
0
  6
DASHDOT
 62
     2
 10
250.443341804826
 20
-18.4669815009289
 30
0.0
 11
250.443341804826
 21
-21.2169815009289
 31
0.0
  0
LINE
  5
   3DA
  8
0
  6
DASHDOT
 62
     2
 10
194.312727029538
 20
-19.8419815009289
 30
0.0
 11
262.733763197693
 21
-19.8419815009289
 31
0.0
  0
LINE
  5
   3DB
  8
0
  6
DASHDOT
 62
     2
 10
250.443343030407
 20
21.4080202772058
 30
0.0
 11
250.443343030407
 21
18.6580202772058
 31
0.0
  0
LINE
  5
   3DC
  8
0
  6
DASHDOT
 62
     2
 10
249.068343030407
 20
20.0330202772058
 30
0.0
 11
251.818343030407
 21
20.0330202772058
 31
0.0
  0
LINE
  5
   3DD
  8
0
  6
DASHDOT
 62
     2
 10
230.130846861864
 20
21.4080170234162
 30
0.0
 11
230.130846861864
 21
18.6580170234162
 31
0.0
  0
LINE
  5
   3DE
  8
0
  6
DASHDOT
 62
     2
 10
228.755846861864
 20
20.0330170234162
 30
0.0
 11
231.505846861864
 21
20.0330170234162
 31
0.0
  0
LINE
  5
   3DF
  8
0
  6
DASHDOT
 62
     2
 10
209.818347159629
 20
21.4080297504457
 30
0.0
 11
209.818347159629
 21
18.6580297504457
 31
0.0
  0
LINE
  5
   3E0
  8
0
  6
DASHDOT
 62
     2
 10
208.443347159629
 20
20.0330297504457
 30
0.0
 11
211.193347159629
 21
20.0330297504457
 31
0.0
  0
LINE
  5
   3E1
  8
0
  6
DASHDOT
 62
     2
 10
209.818347274036
 20
-58.3419818066094
 30
0.0
 11
209.818347274036
 21
-61.0919818066094
 31
0.0
  0
LINE
  5
   3E2
  8
0
  6
DASHDOT
 62
     2
 10
208.443347274036
 20
-59.7169818066094
 30
0.0
 11
211.193347274036
 21
-59.7169818066094
 31
0.0
  0
LINE
  5
   3E3
  8
0
  6
DASHDOT
 62
     2
 10
230.130843860758
 20
-58.3419819496217
 30
0.0
 11
230.130843860758
 21
-61.0919819496217
 31
0.0
  0
LINE
  5
   3E4
  8
0
  6
DASHDOT
 62
     2
 10
228.755843860758
 20
-59.7169819496217
 30
0.0
 11
231.505843860758
 21
-59.7169819496217
 31
0.0
  0
LINE
  5
   3E5
  8
0
  6
DASHDOT
 62
     2
 10
250.443341622168
 20
-58.341982313648
 30
0.0
 11
250.443341622168
 21
-61.091982313648
 31
0.0
  0
LINE
  5
   3E6
  8
0
  6
DASHDOT
 62
     2
 10
249.068341622168
 20
-59.716982313648
 30
0.0
 11
251.818341622168
 21
-59.716982313648
 31
0.0
  0
LINE
  5
   3E7
  8
0
  6
DASHDOT
 62
     2
 10
225.193332699975
 20
46.3308637676808
 30
0.0
 11
225.193332699975
 21
-78.792300958819
 31
0.0
  0
LINE
  5
   3E8
  8
0
  6
DASHDOT
 62
     2
 10
255.693341610137
 20
-35.5294858882129
 30
0.0
 11
255.693341610137
 21
-40.2794858882129
 31
0.0
  0
LINE
  5
   3E9
  8
0
  6
DASHDOT
 62
     2
 10
253.318341610137
 20
-37.9044858882129
 30
0.0
 11
258.068341610137
 21
-37.9044858882129
 31
0.0
  0
LINE
  5
   3EA
  8
0
  6
DASHDOT
 62
     2
 10
255.693340161035
 20
-41.2169822794066
 30
0.0
 11
255.693340161035
 21
-45.9669822794066
 31
0.0
  0
LINE
  5
   3EB
  8
0
  6
DASHDOT
 62
     2
 10
253.318340161035
 20
-43.5919822794066
 30
0.0
 11
258.068340161035
 21
-43.5919822794066
 31
0.0
  0
POINT
  5
   3EC
  8
0
  6
CONTINUOUS
 62
     2
 10
209.818347159629
 20
20.0330297504457
 30
0.0
  0
LINE
  5
   3ED
  8
0
  6
DASHDOT
 62
     2
 10
182.193669308802
 20
-34.1544815009289
 30
0.0
 11
289.296953910362
 21
-34.1544815009289
 31
0.0
  0
TEXT
  5
   3EE
  8
0
  6
CONTINUOUS
 62
     1
 10
163.387473985072
 20
-193.680189149285
 30
0.0
 40
2.00000008940697
  1
M4371 97-07-07
 50
359.999999844103
 41
0.749999861419206
 72
     1
 11
173.73747253418
 21
-192.68018913269
 31
0.0
 73
     2
  0
TEXT
  5
   3EF
  8
0
  6
CONTINUOUS
 62
     1
 10
137.647477776077
 20
-193.680191056385
 30
0.0
 40
2.00000008940697
  1
M 3076 95-01-16
 50
359.999999844103
 41
0.749999861419206
 72
     1
 11
148.747476220131
 21
-192.680191041828
 31
0.0
 73
     2
  0
TEXT
  5
   3F0
  8
0
  6
CONTINUOUS
 62
     2
 10
174.93849467688
 20
-35.3780861915254
 30
0.0
 40
4.00000017881393
  1
X
 50
359.999999844103
 41
0.915625062622128
 72
     1
 11
176.4034948349
 21
-33.3780861060972
 31
0.0
 73
     2
  0
TEXT
  5
   3F1
  8
0
  6
CONTINUOUS
 62
     2
 10
291.058085436158
 20
-35.7492734016084
 30
0.0
 40
4.00000017881393
  1
X
 50
359.999999844103
 41
0.915625062622128
 72
     1
 11
292.523085594177
 21
-33.7492733161802
 31
0.0
 73
     2
  0
INSERT
  5
   3F2
  8
0
  6
CONTINUOUS
 62
     2
  2
*UDIM372
 10
0.0
 20
0.0
 30
0.0
  0
INSERT
  5
   3F3
  8
0
  6
CONTINUOUS
 62
     2
  2
*UDIM373
 10
0.0
 20
0.0
 30
0.0
  0
INSERT
  5
   3F4
  8
0
  6
CONTINUOUS
 62
     2
  2
*UDIM374
 10
0.0
 20
0.0
 30
0.0
  0
INSERT
  5
   3F5
  8
0
  6
CONTINUOUS
 62
     7
  2
*UDIM375
 10
0.0
 20
0.0
 30
0.0
  0
INSERT
  5
   3F6
  8
0
  6
CONTINUOUS
 62
     7
  2
*UDIM376
 10
0.0
 20
0.0
 30
0.0
  0
INSERT
  5
   3F7
  8
0
  6
CONTINUOUS
 62
     2
  2
*UDIM377
 10
0.0
 20
0.0
 30
0.0
  0
INSERT
  5
   3F8
  8
0
  6
CONTINUOUS
 62
     2
  2
*UDIM378
 10
0.0
 20
0.0
 30
0.0
  0
INSERT
  5
   3F9
  8
0
  6
CONTINUOUS
 62
     7
  2
*UDIM379
 10
0.0
 20
0.0
 30
0.0
  0
INSERT
  5
   3FA
  8
0
  6
CONTINUOUS
 62
     7
  2
*UDIM380
 10
0.0
 20
0.0
 30
0.0
  0
INSERT
  5
   3FB
  8
0
  6
CONTINUOUS
 62
     2
  2
*UDIM381
 10
0.0
 20
0.0
 30
0.0
  0
INSERT
  5
   3FC
  8
0
  6
CONTINUOUS
 62
     2
  2
*UDIM382
 10
0.0
 20
0.0
 30
0.0
  0
TEXT
  5
   3FD
  8
0
  6
CONTINUOUS
 62
     7
 10
223.97781567762
 20
-96.9075201666305
 30
0.0
 40
3.00000002980232
  1
Y
 50
359.999999844103
 41
0.916666604744064
 72
     2
 11
226.17781554649
 21
-96.9075201726054
 31
0.0
  0
TEXT
  5
   3FE
  8
0
  6
CONTINUOUS
 62
     7
 10
221.453820814587
 20
47.9158402764848
 30
0.0
 40
3.00000002980232
  1
Y
 50
359.999999844103
 41
0.916666604744064
 72
     2
 11
223.653820683457
 21
47.9158402705098
 31
0.0
  0
INSERT
  5
   3FF
  8
0
  6
CONTINUOUS
 62
     2
  2
*UDIM383
 10
0.0
 20
0.0
 30
0.0
  0
INSERT
  5
   400
  8
0
  6
CONTINUOUS
 62
     2
  2
*UDIM384
 10
0.0
 20
0.0
 30
0.0
  0
INSERT
  5
   401
  8
0
  6
CONTINUOUS
 62
     2
  2
*UDIM385
 10
0.0
 20
0.0
 30
0.0
  0
INSERT
  5
   402
  8
0
  6
CONTINUOUS
 62
     2
  2
*UDIM386
 10
0.0
 20
0.0
 30
0.0
  0
TEXT
  5
   403
  8
0
  6
CONTINUOUS
 62
     1
 10
130.357193002373
 20
-178.689422490394
 30
0.0
 40
2.00000008940697
  1
94-02-28 FERRARI M.
 50
359.999999844103
 41
0.749999861419206
 72
     2
 11
158.557189044625
 21
-178.689422566982
 31
0.0
  0
TEXT
  5
   404
  8
0
  6
CONTINUOUS
 62
     1
 10
231.973709124863
 20
-204.689865022095
 30
0.0
 40
4.00000017881393
  1
601840/341
 50
359.999999844103
 41
0.937499973922969
 72
     2
 11
268.723709724635
 21
-204.689865121903
 31
0.0
  0
TEXT
  5
   405
  8
0
  6
CONTINUOUS
 62
     1
 10
233.059402479634
 20
-195.708282363614
 30
0.0
 40
3.00000002980232
  1
     S6
 50
359.999999844103
 41
0.916666604744064
 72
     2
 11
251.75940139781
 21
-195.708282414401
 31
0.0
  0
TEXT
  5
   406
  8
0
  6
CONTINUOUS
 62
     1
 10
221.399977309515
 20
-177.398010220661
 30
0.0
 40
2.00000008940697
  1
3-4POLE LOW VOLTAGE M.C.C.B SERIES ISOMAX FIXED
 50
359.999999844103
 41
0.625
 72
     1
 11
250.649978619808
 21
-176.398010255397
 31
0.0
 73
     2
  0
TEXT
  5
   407
  8
0
  6
CONTINUOUS
 62
     1
 10
222.02497737323
 20
-180.398010222358
 30
0.0
 40
2.00000008940697
  1
VERSION WITH STORED ENERGY OPERATING MECHANISM
 50
359.999999844103
 41
0.625
 72
     1
 11
250.649978655583
 21
-179.398010255397
 31
0.0
 73
     2
  0
TEXT
  5
   408
  8
0
  6
CONTINUOUS
 62
     1
 10
214.97737571921
 20
-185.468276936851
 30
0.0
 40
2.00000008940697
  1
INTERR.AUTOMATICO SERIE ISOMAX TRIP.TETRAP.
 50
359.999999844103
 41
0.749999861419206
 72
     1
 11
247.077371221775
 21
-184.468276979328
 31
0.0
 73
     2
  0
TEXT
  5
   409
  8
0
  6
CONTINUOUS
 62
     1
 10
214.227375860038
 20
-188.468276934814
 30
0.0
 40
2.00000008940697
  1
ESECUZ.FISSA CON COM.MOT.ACCUMULO DI ENERGIA
 50
359.999999844103
 41
0.749999861419206
 72
     1
 11
247.077371257549
 21
-187.468276979328
 31
0.0
 73
     2
  0
ENDSEC
  0
EOF
