  0
SECTION
  2
HEADER
  9
$ACADVER
  1
AC1009
  9
$INSBASE
 10
0.0
 20
0.0
 30
0.0
  9
$EXTMIN
 10
0.577972
 20
0.580166
 30
0.0
  9
$EXTMAX
 10
392.577972
 20
263.080166
 30
0.0
  9
$LIMMIN
 10
0.0
 20
0.0
  9
$LIMMAX
 10
12.0
 20
9.0
  9
$ORTHOMODE
 70
     1
  9
$REGENMODE
 70
     1
  9
$FILLMODE
 70
     1
  9
$QTEXTMODE
 70
     0
  9
$MIRRTEXT
 70
     1
  9
$DRAGMODE
 70
     2
  9
$LTSCALE
 40
5.0
  9
$OSMODE
 70
     0
  9
$ATTMODE
 70
     1
  9
$TEXTSIZE
 40
2.0
  9
$TRACEWID
 40
0.05
  9
$TEXTSTYLE
  7
ROMANS
  9
$CLAYER
  8
0
  9
$CELTYPE
  6
DASHED
  9
$CECOLOR
 62
   256
  9
$DIMSCALE
 40
1.0
  9
$DIMASZ
 40
0.18
  9
$DIMEXO
 40
0.0625
  9
$DIMDLI
 40
0.38
  9
$DIMRND
 40
0.0
  9
$DIMDLE
 40
0.0
  9
$DIMEXE
 40
0.18
  9
$DIMTP
 40
0.0
  9
$DIMTM
 40
0.0
  9
$DIMTXT
 40
0.18
  9
$DIMCEN
 40
0.09
  9
$DIMTSZ
 40
0.0
  9
$DIMTOL
 70
     0
  9
$DIMLIM
 70
     0
  9
$DIMTIH
 70
     1
  9
$DIMTOH
 70
     1
  9
$DIMSE1
 70
     0
  9
$DIMSE2
 70
     0
  9
$DIMTAD
 70
     0
  9
$DIMZIN
 70
     0
  9
$DIMBLK
  1

  9
$DIMASO
 70
     1
  9
$DIMSHO
 70
     1
  9
$DIMPOST
  1

  9
$DIMAPOST
  1

  9
$DIMALT
 70
     0
  9
$DIMALTD
 70
     2
  9
$DIMALTF
 40
25.4
  9
$DIMLFAC
 40
1.0
  9
$DIMTOFL
 70
     0
  9
$DIMTVP
 40
0.0
  9
$DIMTIX
 70
     0
  9
$DIMSOXD
 70
     0
  9
$DIMSAH
 70
     0
  9
$DIMBLK1
  1

  9
$DIMBLK2
  1

  9
$DIMSTYLE
  2
*UNNAMED
  9
$DIMCLRD
 70
     0
  9
$DIMCLRE
 70
     0
  9
$DIMCLRT
 70
     0
  9
$DIMTFAC
 40
1.0
  9
$DIMGAP
 40
0.09
  9
$LUNITS
 70
     2
  9
$LUPREC
 70
     4
  9
$SKETCHINC
 40
0.1
  9
$FILLETRAD
 40
0.0
  9
$AUNITS
 70
     0
  9
$AUPREC
 70
     0
  9
$MENU
  1
acad
  9
$ELEVATION
 40
0.0
  9
$PELEVATION
 40
0.0
  9
$THICKNESS
 40
0.0
  9
$LIMCHECK
 70
     0
  9
$BLIPMODE
 70
     1
  9
$CHAMFERA
 40
0.0
  9
$CHAMFERB
 40
0.0
  9
$SKPOLY
 70
     0
  9
$TDCREATE
 40
2449758.797232639
  9
$TDUPDATE
 40
2449758.797232639
  9
$TDINDWG
 40
0.0000000000
  9
$TDUSRTIMER
 40
0.0000000000
  9
$USRTIMER
 70
     1
  9
$ANGBASE
 50
0.0
  9
$ANGDIR
 70
     0
  9
$PDMODE
 70
     0
  9
$PDSIZE
 40
0.0
  9
$PLINEWID
 40
0.0
  9
$COORDS
 70
     2
  9
$SPLFRAME
 70
     0
  9
$SPLINETYPE
 70
     6
  9
$SPLINESEGS
 70
     8
  9
$ATTDIA
 70
     0
  9
$ATTREQ
 70
     1
  9
$HANDLING
 70
     0
  9
$HANDSEED
  5
0
  9
$SURFTAB1
 70
   250
  9
$SURFTAB2
 70
   250
  9
$SURFTYPE
 70
     6
  9
$SURFU
 70
     6
  9
$SURFV
 70
     6
  9
$UCSNAME
  2

  9
$UCSORG
 10
0.0
 20
0.0
 30
0.0
  9
$UCSXDIR
 10
1.0
 20
0.0
 30
0.0
  9
$UCSYDIR
 10
0.0
 20
1.0
 30
0.0
  9
$PUCSNAME
  2

  9
$PUCSORG
 10
0.0
 20
0.0
 30
0.0
  9
$PUCSXDIR
 10
1.0
 20
0.0
 30
0.0
  9
$PUCSYDIR
 10
0.0
 20
1.0
 30
0.0
  9
$USERI1
 70
     0
  9
$USERI2
 70
     0
  9
$USERI3
 70
     0
  9
$USERI4
 70
     0
  9
$USERI5
 70
     0
  9
$USERR1
 40
0.0
  9
$USERR2
 40
0.0
  9
$USERR3
 40
0.0
  9
$USERR4
 40
0.0
  9
$USERR5
 40
0.0
  9
$WORLDVIEW
 70
     1
  9
$SHADEDGE
 70
     3
  9
$SHADEDIF
 70
    70
  9
$TILEMODE
 70
     1
  9
$MAXACTVP
 70
    16
  9
$PINSBASE
 10
0.0
 20
0.0
 30
0.0
  9
$PLIMCHECK
 70
     0
  9
$PEXTMIN
 10
1.000000E+20
 20
1.000000E+20
 30
1.000000E+20
  9
$PEXTMAX
 10
-1.000000E+20
 20
-1.000000E+20
 30
-1.000000E+20
  9
$PLIMMIN
 10
0.0
 20
0.0
  9
$PLIMMAX
 10
12.0
 20
9.0
  9
$UNITMODE
 70
     0
  9
$VISRETAIN
 70
     0
  9
$PLINEGEN
 70
     0
  9
$PSLTSCALE
 70
     0
  9
$TREEDEPTH
 70
  3020
  9
$DWGCODEPAGE
  3
undefined
  0
ENDSEC
  0
SECTION
  2
TABLES
  0
TABLE
  2
VPORT
 70
     2
  0
VPORT
  2
*ACTIVE
 70
     0
 10
0.0
 20
0.0
 11
1.0
 21
1.0
 12
222.716226
 22
142.163925
 13
0.0
 23
0.0
 14
2.5
 24
2.5
 15
0.0
 25
0.0
 16
0.0
 26
0.0
 36
1.0
 17
0.0
 27
0.0
 37
0.0
 40
284.32785
 41
1.566616
 42
50.0
 43
0.0
 44
0.0
 50
0.0
 51
0.0
 71
     0
 72
   100
 73
     1
 74
     1
 75
     1
 76
     0
 77
     0
 78
     0
  0
ENDTAB
  0
TABLE
  2
LTYPE
 70
     4
  0
LTYPE
  2
CONTINUOUS
 70
    64
  3
Solid line
 72
    65
 73
     0
 40
0.0
  0
LTYPE
  2
DASHED
 70
    64
  3
__ __ __ __ __ __ __ __ __ __ __ __ __ __ __ __
 72
    65
 73
     2
 40
0.75
 49
0.5
 49
-0.25
  0
LTYPE
  2
CENTER
 70
    64
  3
____ _ ____ _ ____ _ ____ _ ____ _ ____ _ ____ 
 72
    65
 73
     4
 40
2.0
 49
1.25
 49
-0.25
 49
0.25
 49
-0.25
  0
LTYPE
  2
HIDDEN
 70
     0
  3
__ __ __ __ __ __ __ __ __ __ __ __ __ __ __ __
 72
    65
 73
     2
 40
0.375
 49
0.25
 49
-0.125
  0
ENDTAB
  0
TABLE
  2
LAYER
 70
    14
  0
LAYER
  2
0
 70
    64
 62
     7
  6
CONTINUOUS
  0
LAYER
  2
RAAMI
 70
    64
 62
    -4
  6
CONTINUOUS
  0
LAYER
  2
PAKSU
 70
    64
 62
    -3
  6
CONTINUOUS
  0
LAYER
  2
OHUT
 70
    64
 62
    -6
  6
CONTINUOUS
  0
LAYER
  2
SWEDEN
 70
    64
 62
    -7
  6
CONTINUOUS
  0
LAYER
  2
SWEDEN2
 70
    64
 62
    -5
  6
CONTINUOUS
  0
LAYER
  2
BASE
 70
    64
 62
    -7
  6
CONTINUOUS
  0
LAYER
  2
21
 70
    64
 62
    -2
  6
CONTINUOUS
  0
LAYER
  2
HEL035
 70
    64
 62
    -7
  6
CONTINUOUS
  0
LAYER
  2
MUO
 70
    64
 62
    -7
  6
CONTINUOUS
  0
LAYER
  2
1
 70
    64
 62
    -2
  6
CONTINUOUS
  0
LAYER
  2
BASE1
 70
    64
 62
    -2
  6
CONTINUOUS
  0
LAYER
  2
TEKS
 70
    64
 62
    -5
  6
CONTINUOUS
  0
LAYER
  2
DEFPOINTS
 70
    64
 62
    -7
  6
CONTINUOUS
  0
ENDTAB
  0
TABLE
  2
STYLE
 70
     4
  0
STYLE
  2
STANDARD
 70
    64
 40
0.0
 41
1.0
 50
0.0
 71
     0
 42
2.0
  3
txt
  4

  0
STYLE
  2
ROMANS
 70
    64
 40
0.0
 41
1.0
 50
0.0
 71
     0
 42
2.0
  3
romans
  4

  0
STYLE
  2
GREEKS
 70
    64
 40
0.0
 41
1.0
 50
0.0
 71
     0
 42
2.5
  3
TXT
  4

  0
STYLE
  2
STAND
 70
    64
 40
0.0
 41
1.0
 50
0.0
 71
     0
 42
2.0
  3
TXT
  4

  0
ENDTAB
  0
TABLE
  2
VIEW
 70
     0
  0
ENDTAB
  0
TABLE
  2
UCS
 70
     0
  0
ENDTAB
  0
TABLE
  2
APPID
 70
     1
  0
APPID
  2
ACAD
 70
    64
  0
ENDTAB
  0
TABLE
  2
DIMSTYLE
 70
     0
  0
ENDTAB
  0
ENDSEC
  0
SECTION
  2
BLOCKS
  0
BLOCK
  8
0
  2
1
 70
    64
 10
0.0
 20
0.0
 30
0.0
  3
1
  0
ENDBLK
  8
0
  0
BLOCK
  8
0
  2
BLC26
 70
    64
 10
0.0
 20
0.0
 30
0.0
  3
BLC26
  0
ARC
  8
0
  6
CONTINUOUS
 10
-0.180576
 20
1.17922
 30
0.0
 40
1.196859
 50
90.0
 51
265.706237
  0
LINE
  8
0
  6
CONTINUOUS
 10
-0.186638
 20
-0.01092
 30
0.0
 11
0.458942
 21
-0.01092
 31
0.0
  0
LINE
  8
0
  6
CONTINUOUS
 10
-0.186638
 20
2.375671
 30
0.0
 11
0.45288
 21
2.375671
 31
0.0
  0
LINE
  8
0
  6
CONTINUOUS
 10
-0.185509
 20
-2.404629
 30
0.0
 11
0.460071
 21
-2.404629
 31
0.0
  0
ARC
  8
0
  6
CONTINUOUS
 10
-0.180576
 20
-1.207779
 30
0.0
 40
1.196859
 50
90.0
 51
270.0
  0
LINE
  8
0
  6
CONTINUOUS
 10
0.451525
 20
-2.404586
 30
0.0
 11
1.401805
 21
-2.404586
 31
0.0
  0
LINE
  8
0
  6
CONTINUOUS
 10
0.446785
 20
2.375674
 30
0.0
 11
1.418544
 21
2.375674
 31
0.0
  0
LINE
  8
0
  6
CONTINUOUS
 10
0.456627
 20
-0.010911
 30
0.0
 11
1.422749
 21
-0.010911
 31
0.0
  0
ENDBLK
  8
0
  0
BLOCK
  8
0
  2
BLC29
 70
    64
 10
0.0
 20
0.0
 30
0.0
  3
BLC29
  0
LINE
  8
0
  6
CONTINUOUS
 10
0.004865
 20
1.206889
 30
0.0
 11
2.350631
 21
-0.128465
 31
0.0
  0
LINE
  8
0
  6
CONTINUOUS
 10
2.350631
 20
-0.128465
 30
0.0
 11
0.004865
 21
-1.318384
 31
0.0
  0
ENDBLK
  8
0
  0
BLOCK
  8
0
  2
WKU130
 70
    64
 10
190.0
 20
250.0
 30
0.0
  3
WKU130
  0
ARC
  8
21
 10
191.083333
 20
249.916667
 30
0.0
 40
1.086534
 50
32.471192
 51
175.601295
  0
ARC
  8
21
 10
192.916667
 20
251.083333
 30
0.0
 40
1.086534
 50
212.471192
 51
355.601295
  0
ENDBLK
  8
0
  0
BLOCK
  8
0
  2
BLC55
 70
    64
 10
0.0
 20
0.0
 30
0.0
  3
BLC55
  0
INSERT
  8
SWEDEN
  6
CENTER
  2
BLC5
 10
0.087066
 20
-0.756831
 30
0.0
 41
0.6
 42
0.6
 43
0.6
  0
ENDBLK
  8
0
  0
BLOCK
  8
0
  2
BLC5
 70
    64
 10
0.0
 20
0.0
 30
0.0
  3
BLC5
  0
TEXT
  8
0
 10
-3.043704
 20
-6.645912
 30
0.0
 40
3.2
  1
PE
  0
LINE
  8
0
 10
-2.946392
 20
1.181176
 30
0.0
 11
2.135458
 21
1.181176
 31
0.0
  0
LINE
  8
0
 10
-0.48656
 20
2.238362
 30
0.0
 11
-0.48656
 21
6.930438
 31
0.0
  0
LINE
  8
0
 10
-1.973271
 20
0.065258
 30
0.0
 11
1.225411
 21
0.065258
 31
0.0
  0
LINE
  8
0
 10
2.685091
 20
2.238362
 30
0.0
 11
1.68494
 21
2.238362
 31
0.0
  0
LINE
  8
0
 10
-3.505035
 20
2.238362
 30
0.0
 11
2.649049
 21
2.238362
 31
0.0
  0
CIRCLE
  8
0
 10
-0.47755
 20
1.422632
 30
0.0
 40
3.804563
  0
ENDBLK
  8
0
  0
BLOCK
  8
0
  2
BLC43
 70
    64
 10
0.0
 20
0.0
 30
0.0
  3
BLC43
  0
TEXT
  8
SWEDEN2
  6
CONTINUOUS
 10
-0.646672
 20
-0.986365
 30
0.0
 40
2.0
  1
+
  0
ENDBLK
  8
0
  0
BLOCK
  8
0
  2
BLC42
 70
    64
 10
0.0
 20
0.0
 30
0.0
  3
BLC42
  0
TEXT
  8
SWEDEN2
  6
CONTINUOUS
 10
-0.655237
 20
-0.99442
 30
0.0
 40
2.0
  1
-
  0
ENDBLK
  8
0
  0
BLOCK
  8
0
  2
BLC44
 70
    64
 10
0.0
 20
0.0
 30
0.0
  3
BLC44
  0
LINE
  8
HEL035
 10
-2.520993
 20
1.697877
 30
0.0
 11
1.479007
 21
1.697877
 31
0.0
  0
INSERT
  8
HEL035
  2
WKU130
 10
-2.181043
 20
-0.027675
 30
0.0
 41
0.8
 42
0.8
 43
0.8
  0
ENDBLK
  8
0
  0
BLOCK
  8
0
  2
B60
 70
     0
 10
0.0
 20
0.0
 30
0.0
  3
B60
  0
LINE
  8
BASE
  6
CONTINUOUS
 10
-1.897097
 20
1.443746
 30
0.0
 11
-2.963522
 21
2.510171
 31
0.0
  0
LINE
  8
BASE
  6
CONTINUOUS
 10
-0.830672
 20
2.510171
 30
0.0
 11
-1.897097
 21
1.443746
 31
0.0
  0
LINE
  8
BASE
  6
CONTINUOUS
 10
-1.897097
 20
3.576595
 30
0.0
 11
-0.830672
 21
2.510171
 31
0.0
  0
LINE
  8
BASE
  6
CONTINUOUS
 10
-2.963522
 20
2.510171
 30
0.0
 11
-1.897097
 21
3.576595
 31
0.0
  0
ENDBLK
  8
0
  0
BLOCK
  8
0
  2
ABBA3SX
 70
    64
 10
0.0
 20
0.0
 30
0.0
  3
ABBA3SX
  0
TEXT
  8
RAAMI
  6
DASHED
 10
354.190282
 20
15.793111
 30
0.0
 40
1.4
  1
LEHTI SHEET
  7
STAND
  0
LINE
  8
PAKSU
 10
0.236802
 20
0.237701
 30
0.0
 11
0.236802
 21
262.737701
 31
0.0
  0
LINE
  8
PAKSU
 10
392.236802
 20
262.737701
 30
0.0
 11
392.236802
 21
0.237701
 31
0.0
  0
LINE
  8
PAKSU
 10
0.236802
 20
0.237701
 30
0.0
 11
392.236802
 21
0.237701
 31
0.0
  0
TEXT
  8
RAAMI
 10
42.236802
 20
5.587211
 30
0.0
 40
2.5
  1
C
  7
ROMANS
  0
TEXT
  8
RAAMI
 10
42.236802
 20
1.194994
 30
0.0
 40
2.5
  1
B
  7
ROMANS
  0
TEXT
  8
RAAMI
 10
257.406709
 20
1.741485
 30
0.0
 40
3.0
  1
Power
 41
0.8
  7
ROMANS
  0
TEXT
  8
RAAMI
 10
273.236802
 20
7.237701
 30
0.0
 40
1.4
  1
VAST.OSASTO RESP.DEPT.
  7
ROMANS
  0
TEXT
  8
RAAMI
 10
210.236802
 20
32.237701
 30
0.0
 40
1.4
  1
TEKI  PREPARED
  7
ROMANS
  0
LINE
  8
OHUT
 10
271.236802
 20
9.737701
 30
0.0
 11
271.236802
 21
0.237701
 31
0.0
  0
LINE
  8
OHUT
 10
257.236802
 20
9.737701
 30
0.0
 11
257.236802
 21
35.237701
 31
0.0
  0
LINE
  8
OHUT
 10
40.736802
 20
4.737701
 30
0.0
 11
209.236802
 21
4.737701
 31
0.0
  0
LINE
  8
OHUT
 10
46.736802
 20
0.237701
 30
0.0
 11
46.736802
 21
9.237701
 31
0.0
  0
LINE
  8
OHUT
 10
46.736802
 20
9.237701
 30
0.0
 11
209.236802
 21
9.237701
 31
0.0
  0
TEXT
  8
RAAMI
 10
27.736802
 20
2.471035
 30
0.0
 40
1.4
  1
REVISION
  7
ROMANS
  0
TEXT
  8
RAAMI
 10
27.736802
 20
4.737701
 30
0.0
 40
1.4
  1
MUUTOS
  7
ROMANS
  0
LINE
  8
OHUT
 10
282.236802
 20
9.737701
 30
0.0
 11
282.236802
 21
18.237701
 31
0.0
  0
TEXT
  8
RAAMI
 10
237.736802
 20
1.737701
 30
0.0
 40
3.0
  1
Strömberg
 41
0.8
  7
ROMANS
  0
TEXT
  8
RAAMI
 10
229.736802
 20
1.737701
 30
0.0
 40
3.0
  1
ABB 
 41
0.8
  7
ROMANS
  0
LINE
  8
RAAMI
 10
223.136802
 20
1.737701
 30
0.0
 11
223.136802
 21
5.097701
 31
0.0
  0
LINE
  8
RAAMI
 10
223.136802
 20
8.737701
 30
0.0
 11
225.096802
 21
8.737701
 31
0.0
  0
LINE
  8
RAAMI
 10
225.096802
 20
8.737701
 30
0.0
 11
225.096802
 21
5.377701
 31
0.0
  0
LINE
  8
RAAMI
 10
225.096802
 20
5.377701
 30
0.0
 11
223.136802
 21
5.377701
 31
0.0
  0
LINE
  8
RAAMI
 10
223.136802
 20
5.097701
 30
0.0
 11
225.096802
 21
5.097701
 31
0.0
  0
LINE
  8
RAAMI
 10
225.096802
 20
5.097701
 30
0.0
 11
225.096802
 21
1.737701
 31
0.0
  0
LINE
  8
RAAMI
 10
225.096802
 20
1.737701
 30
0.0
 11
223.136802
 21
1.737701
 31
0.0
  0
LINE
  8
RAAMI
 10
223.136802
 20
5.377701
 30
0.0
 11
223.136802
 21
8.737701
 31
0.0
  0
ARC
  8
RAAMI
 10
225.936802
 20
7.162701
 30
0.0
 40
1.575
 50
298.455859
 51
90.052437
  0
LINE
  8
RAAMI
 10
225.376802
 20
8.737701
 30
0.0
 11
225.935361
 21
8.737701
 31
0.0
  0
LINE
  8
RAAMI
 10
225.376802
 20
8.737701
 30
0.0
 11
225.376802
 21
5.377701
 31
0.0
  0
LINE
  8
RAAMI
 10
225.376802
 20
5.377701
 30
0.0
 11
227.361245
 21
5.377701
 31
0.0
  0
LINE
  8
RAAMI
 10
227.616802
 20
5.097701
 30
0.0
 11
225.376802
 21
5.097701
 31
0.0
  0
LINE
  8
RAAMI
 10
225.376802
 20
5.097701
 30
0.0
 11
225.376802
 21
1.737701
 31
0.0
  0
ARC
  8
RAAMI
 10
225.936802
 20
3.837701
 30
0.0
 40
2.1
 50
269.937724
 51
37.056553
  0
LINE
  8
RAAMI
 10
225.376802
 20
1.737701
 30
0.0
 11
225.93452
 21
1.737703
 31
0.0
  0
ARC
  8
RAAMI
 10
225.936802
 20
3.837701
 30
0.0
 40
2.1
 50
47.28622
 51
68.787999
  0
INSERT
  8
RAAMI
  2
*X15
 10
215.646802
 20
1.737701
 30
0.0
 41
0.7
 42
0.7
 43
0.7
  0
INSERT
  8
RAAMI
  2
*X16
 10
215.646802
 20
1.737701
 30
0.0
 41
0.7
 42
0.7
 43
0.7
  0
INSERT
  8
RAAMI
  2
*X17
 10
215.646802
 20
1.737701
 30
0.0
 41
0.7
 42
0.7
 43
0.7
  0
INSERT
  8
RAAMI
  2
*X18
 10
215.646802
 20
1.737701
 30
0.0
 41
0.7
 42
0.7
 43
0.7
  0
INSERT
  8
RAAMI
  2
*X18
 10
210.186802
 20
1.737701
 30
0.0
 41
0.7
 42
0.7
 43
0.7
  0
INSERT
  8
RAAMI
  2
*X17
 10
210.186802
 20
1.737701
 30
0.0
 41
0.7
 42
0.7
 43
0.7
  0
INSERT
  8
RAAMI
  2
*X16
 10
210.186802
 20
1.737701
 30
0.0
 41
0.7
 42
0.7
 43
0.7
  0
INSERT
  8
RAAMI
  2
*X15
 10
210.186802
 20
1.737701
 30
0.0
 41
0.7
 42
0.7
 43
0.7
  0
ARC
  8
RAAMI
 10
220.476802
 20
3.837701
 30
0.0
 40
2.1
 50
47.28622
 51
68.787999
  0
LINE
  8
RAAMI
 10
219.916802
 20
1.737701
 30
0.0
 11
220.47452
 21
1.737703
 31
0.0
  0
ARC
  8
RAAMI
 10
220.476802
 20
3.837701
 30
0.0
 40
2.1
 50
269.937724
 51
37.056553
  0
LINE
  8
RAAMI
 10
219.916802
 20
5.097701
 30
0.0
 11
219.916802
 21
1.737701
 31
0.0
  0
LINE
  8
RAAMI
 10
222.156802
 20
5.097701
 30
0.0
 11
219.916802
 21
5.097701
 31
0.0
  0
LINE
  8
RAAMI
 10
219.916802
 20
5.377701
 30
0.0
 11
221.901245
 21
5.377701
 31
0.0
  0
LINE
  8
RAAMI
 10
219.916802
 20
8.737701
 30
0.0
 11
219.916802
 21
5.377701
 31
0.0
  0
LINE
  8
RAAMI
 10
219.916802
 20
8.737701
 30
0.0
 11
220.475361
 21
8.737701
 31
0.0
  0
ARC
  8
RAAMI
 10
220.476802
 20
7.162701
 30
0.0
 40
1.575
 50
298.455859
 51
90.052437
  0
LINE
  8
RAAMI
 10
217.676802
 20
5.377701
 30
0.0
 11
217.676802
 21
8.737701
 31
0.0
  0
LINE
  8
RAAMI
 10
219.636802
 20
1.737701
 30
0.0
 11
217.676802
 21
1.737701
 31
0.0
  0
LINE
  8
RAAMI
 10
219.636802
 20
5.097701
 30
0.0
 11
219.636802
 21
1.737701
 31
0.0
  0
LINE
  8
RAAMI
 10
217.676802
 20
5.097701
 30
0.0
 11
219.636802
 21
5.097701
 31
0.0
  0
LINE
  8
RAAMI
 10
219.636802
 20
5.377701
 30
0.0
 11
217.676802
 21
5.377701
 31
0.0
  0
LINE
  8
RAAMI
 10
219.636802
 20
8.737701
 30
0.0
 11
219.636802
 21
5.377701
 31
0.0
  0
LINE
  8
RAAMI
 10
217.676802
 20
8.737701
 30
0.0
 11
219.636802
 21
8.737701
 31
0.0
  0
LINE
  8
RAAMI
 10
217.676802
 20
1.737701
 30
0.0
 11
217.676802
 21
5.097701
 31
0.0
  0
INSERT
  8
RAAMI
  2
*X14
 10
210.186802
 20
1.737701
 30
0.0
 41
0.7
 42
0.7
 43
0.7
  0
INSERT
  8
RAAMI
  2
*X13
 10
210.186802
 20
1.737701
 30
0.0
 41
0.7
 42
0.7
 43
0.7
  0
INSERT
  8
RAAMI
  2
*X12
 10
210.186802
 20
1.737701
 30
0.0
 41
0.7
 42
0.7
 43
0.7
  0
INSERT
  8
RAAMI
  2
*X11
 10
210.186802
 20
1.737701
 30
0.0
 41
0.7
 42
0.7
 43
0.7
  0
LINE
  8
RAAMI
 10
211.356691
 20
5.08024
 30
0.0
 11
210.186802
 21
1.737701
 31
0.0
  0
LINE
  8
RAAMI
 10
213.546802
 20
5.097701
 30
0.0
 11
213.546802
 21
3.137701
 31
0.0
  0
LINE
  8
RAAMI
 10
213.826802
 20
5.097701
 30
0.0
 11
213.826802
 21
3.137701
 31
0.0
  0
LINE
  8
RAAMI
 10
213.826802
 20
5.097701
 30
0.0
 11
216.010059
 21
5.097701
 31
0.0
  0
LINE
  8
RAAMI
 10
213.826802
 20
5.377701
 30
0.0
 11
215.911916
 21
5.377701
 31
0.0
  0
LINE
  8
RAAMI
 10
216.011294
 20
5.096296
 30
0.0
 11
217.186802
 21
1.737701
 31
0.0
  0
LINE
  8
RAAMI
 10
211.359785
 20
5.097701
 30
0.0
 11
213.546802
 21
5.097701
 31
0.0
  0
LINE
  8
RAAMI
 10
211.458743
 20
5.377701
 30
0.0
 11
213.546802
 21
5.377701
 31
0.0
  0
LINE
  8
RAAMI
 10
213.546802
 20
8.737701
 30
0.0
 11
212.636802
 21
8.737701
 31
0.0
  0
LINE
  8
RAAMI
 10
213.826802
 20
3.137701
 30
0.0
 11
214.946696
 21
3.137701
 31
0.0
  0
LINE
  8
RAAMI
 10
213.826802
 20
8.737701
 30
0.0
 11
213.826802
 21
5.377701
 31
0.0
  0
LINE
  8
RAAMI
 10
213.546802
 20
8.737701
 30
0.0
 11
213.546802
 21
5.377701
 31
0.0
  0
LINE
  8
RAAMI
 10
214.736802
 20
8.737701
 30
0.0
 11
213.826802
 21
8.737701
 31
0.0
  0
LINE
  8
RAAMI
 10
214.9479
 20
3.134565
 30
0.0
 11
215.436802
 21
1.737701
 31
0.0
  0
LINE
  8
RAAMI
 10
214.736802
 20
8.737701
 30
0.0
 11
215.913155
 21
5.376693
 31
0.0
  0
LINE
  8
RAAMI
 10
212.425592
 20
3.134244
 30
0.0
 11
211.936802
 21
1.737701
 31
0.0
  0
LINE
  8
RAAMI
 10
212.425589
 20
3.137701
 30
0.0
 11
213.546802
 21
3.137701
 31
0.0
  0
LINE
  8
RAAMI
 10
212.636802
 20
8.737701
 30
0.0
 11
211.459274
 21
5.373336
 31
0.0
  0
LINE
  8
RAAMI
 10
215.436802
 20
1.737701
 30
0.0
 11
217.186802
 21
1.737701
 31
0.0
  0
LINE
  8
RAAMI
 10
210.186802
 20
1.737701
 30
0.0
 11
211.936802
 21
1.737701
 31
0.0
  0
LINE
  8
OHUT
 10
369.736802
 20
9.737701
 30
0.0
 11
369.736802
 21
0.237701
 31
0.0
  0
TEXT
  8
RAAMI
 10
371.236802
 20
7.237701
 30
0.0
 40
1.4
  1
PAINOS  REVISION
  7
ROMANS
  0
LINE
  8
OHUT
 10
349.736802
 20
9.737701
 30
0.0
 11
349.736802
 21
18.237701
 31
0.0
  0
TEXT
  8
RAAMI
 10
309.236802
 20
7.237701
 30
0.0
 40
1.4
  1
PIIRUSTUS NO  DRAWING NR
  7
ROMANS
  0
TEXT
  8
RAAMI
 10
309.236802
 20
15.737701
 30
0.0
 40
1.4
  1
KOODI  CODE
  7
ROMANS
  0
TEXT
  8
RAAMI
 10
309.236802
 20
32.737701
 30
0.0
 40
1.4
  1
NIMITYS  NAME
  7
ROMANS
  0
TEXT
  8
RAAMI
 10
259.236802
 20
15.737701
 30
0.0
 40
1.4
  1
SUHDE  SCALE
  7
ROMANS
  0
TEXT
  8
RAAMI
 10
259.236802
 20
23.737701
 30
0.0
 40
1.4
  1
TOLERANSSIT  TOLERANCES
  7
ROMANS
  0
TEXT
  8
RAAMI
 10
259.236802
 20
32.737701
 30
0.0
 40
1.4
  1
LIITTYY  CONCERNING
  7
ROMANS
  0
LINE
  8
OHUT
 10
307.236802
 20
0.237701
 30
0.0
 11
307.236802
 21
35.237701
 31
0.0
  0
TEXT
  8
RAAMI
 10
209.979637
 20
15.704368
 30
0.0
 40
1.4
  1
HYVÄKSYI  APPROVED
  7
ROMANS
  0
TEXT
  8
RAAMI
 10
210.236802
 20
23.971035
 30
0.0
 40
1.4
  1
TARKASTI  CHECKED
  7
ROMANS
  0
LINE
  8
PAKSU
 10
209.236802
 20
35.237701
 30
0.0
 11
392.236802
 21
35.237701
 31
0.0
  0
LINE
  8
OHUT
 10
209.236802
 20
26.737701
 30
0.0
 11
307.236802
 21
26.737701
 31
0.0
  0
LINE
  8
OHUT
 10
209.236802
 20
9.737701
 30
0.0
 11
392.236802
 21
9.737701
 31
0.0
  0
LINE
  8
OHUT
 10
209.236802
 20
18.237701
 30
0.0
 11
392.236802
 21
18.237701
 31
0.0
  0
LINE
  8
PAKSU
 10
392.236802
 20
0.237701
 30
0.0
 11
392.236802
 21
35.237701
 31
0.0
  0
LINE
  8
PAKSU
 10
209.236802
 20
0.237701
 30
0.0
 11
209.236802
 21
35.237701
 31
0.0
  0
LINE
  8
PAKSU
 10
209.236802
 20
0.237701
 30
0.0
 11
392.236802
 21
0.237701
 31
0.0
  0
LINE
  8
RAAMI
 10
18.236802
 20
0.237701
 30
0.0
 11
0.236802
 21
0.237701
 31
0.0
  0
LINE
  8
PAKSU
 10
0.236802
 20
262.737701
 30
0.0
 11
392.236802
 21
262.737701
 31
0.0
  0
TEXT
  8
RAAMI
  6
DASHED
 10
292.216898
 20
11.813061
 30
0.0
 40
3.0
  1
A3
  7
GREEKS
  0
ENDBLK
  8
0
  0
BLOCK
  8
0
  2
*X11
 70
    65
 10
0.0
 20
0.0
 30
0.0
  3
*X
  0
LINE
  8
0
 62
     0
 10
2.284499
 20
6.52714
 30
0.0
 11
4.8
 21
9.042641
 31
0.0
  0
LINE
  8
0
 62
     0
 10
2.379686
 20
6.799104
 30
0.0
 11
4.8
 21
9.219417
 31
0.0
  0
LINE
  8
0
 62
     0
 10
2.474874
 20
7.071068
 30
0.0
 11
4.8
 21
9.396194
 31
0.0
  0
LINE
  8
0
 62
     0
 10
2.570061
 20
7.343032
 30
0.0
 11
4.8
 21
9.572971
 31
0.0
  0
LINE
  8
0
 62
     0
 10
2.665249
 20
7.614996
 30
0.0
 11
4.8
 21
9.749747
 31
0.0
  0
LINE
  8
0
 62
     0
 10
2.760436
 20
7.88696
 30
0.0
 11
4.8
 21
9.926524
 31
0.0
  0
LINE
  8
0
 62
     0
 10
2.855624
 20
8.158924
 30
0.0
 11
4.696699
 21
10.0
 31
0.0
  0
LINE
  8
0
 62
     0
 10
2.950811
 20
8.430889
 30
0.0
 11
4.519922
 21
10.0
 31
0.0
  0
LINE
  8
0
 62
     0
 10
3.045998
 20
8.702853
 30
0.0
 11
4.343146
 21
10.0
 31
0.0
  0
LINE
  8
0
 62
     0
 10
3.141186
 20
8.974817
 30
0.0
 11
4.166369
 21
10.0
 31
0.0
  0
LINE
  8
0
 62
     0
 10
3.236373
 20
9.246781
 30
0.0
 11
3.989592
 21
10.0
 31
0.0
  0
LINE
  8
0
 62
     0
 10
3.331561
 20
9.518745
 30
0.0
 11
3.812816
 21
10.0
 31
0.0
  0
LINE
  8
0
 62
     0
 10
3.426748
 20
9.790709
 30
0.0
 11
3.636039
 21
10.0
 31
0.0
  0
LINE
  8
0
 62
     0
 10
2.189311
 20
6.255175
 30
0.0
 11
4.8
 21
8.865864
 31
0.0
  0
LINE
  8
0
 62
     0
 10
2.094124
 20
5.983211
 30
0.0
 11
4.8
 21
8.689087
 31
0.0
  0
LINE
  8
0
 62
     0
 10
1.998936
 20
5.711247
 30
0.0
 11
4.8
 21
8.512311
 31
0.0
  0
LINE
  8
0
 62
     0
 10
1.903749
 20
5.439283
 30
0.0
 11
4.8
 21
8.335534
 31
0.0
  0
LINE
  8
0
 62
     0
 10
1.841243
 20
5.2
 30
0.0
 11
4.8
 21
8.158757
 31
0.0
  0
LINE
  8
0
 62
     0
 10
2.018019
 20
5.2
 30
0.0
 11
4.8
 21
7.981981
 31
0.0
  0
LINE
  8
0
 62
     0
 10
2.194796
 20
5.2
 30
0.0
 11
4.8
 21
7.805204
 31
0.0
  0
LINE
  8
0
 62
     0
 10
2.371573
 20
5.2
 30
0.0
 11
4.8
 21
7.628427
 31
0.0
  0
LINE
  8
0
 62
     0
 10
2.54835
 20
5.2
 30
0.0
 11
4.8
 21
7.45165
 31
0.0
  0
LINE
  8
0
 62
     0
 10
2.725126
 20
5.2
 30
0.0
 11
4.8
 21
7.274874
 31
0.0
  0
LINE
  8
0
 62
     0
 10
2.901903
 20
5.2
 30
0.0
 11
4.8
 21
7.098097
 31
0.0
  0
LINE
  8
0
 62
     0
 10
3.07868
 20
5.2
 30
0.0
 11
4.8
 21
6.92132
 31
0.0
  0
LINE
  8
0
 62
     0
 10
3.255456
 20
5.2
 30
0.0
 11
4.8
 21
6.744544
 31
0.0
  0
LINE
  8
0
 62
     0
 10
3.432233
 20
5.2
 30
0.0
 11
4.8
 21
6.567767
 31
0.0
  0
LINE
  8
0
 62
     0
 10
3.60901
 20
5.2
 30
0.0
 11
4.8
 21
6.39099
 31
0.0
  0
LINE
  8
0
 62
     0
 10
3.785786
 20
5.2
 30
0.0
 11
4.8
 21
6.214214
 31
0.0
  0
LINE
  8
0
 62
     0
 10
3.962563
 20
5.2
 30
0.0
 11
4.8
 21
6.037437
 31
0.0
  0
LINE
  8
0
 62
     0
 10
4.13934
 20
5.2
 30
0.0
 11
4.8
 21
5.86066
 31
0.0
  0
LINE
  8
0
 62
     0
 10
4.316117
 20
5.2
 30
0.0
 11
4.8
 21
5.683883
 31
0.0
  0
LINE
  8
0
 62
     0
 10
4.492893
 20
5.2
 30
0.0
 11
4.8
 21
5.507107
 31
0.0
  0
LINE
  8
0
 62
     0
 10
4.66967
 20
5.2
 30
0.0
 11
4.8
 21
5.33033
 31
0.0
  0
ENDBLK
  8
0
  0
BLOCK
  8
0
  2
*X12
 70
    65
 10
0.0
 20
0.0
 30
0.0
  3
*X
  0
LINE
  8
0
 62
     0
 10
5.2
 20
6.083883
 30
0.0
 11
7.178252
 21
8.062136
 31
0.0
  0
LINE
  8
0
 62
     0
 10
5.2
 20
6.26066
 30
0.0
 11
7.132421
 21
8.193082
 31
0.0
  0
LINE
  8
0
 62
     0
 10
5.2
 20
6.437437
 30
0.0
 11
7.08659
 21
8.324027
 31
0.0
  0
LINE
  8
0
 62
     0
 10
5.2
 20
6.614214
 30
0.0
 11
7.040759
 21
8.454973
 31
0.0
  0
LINE
  8
0
 62
     0
 10
5.2
 20
6.79099
 30
0.0
 11
6.994928
 21
8.585919
 31
0.0
  0
LINE
  8
0
 62
     0
 10
5.2
 20
6.967767
 30
0.0
 11
6.949097
 21
8.716864
 31
0.0
  0
LINE
  8
0
 62
     0
 10
5.2
 20
7.144544
 30
0.0
 11
6.903266
 21
8.84781
 31
0.0
  0
LINE
  8
0
 62
     0
 10
5.2
 20
7.32132
 30
0.0
 11
6.857435
 21
8.978756
 31
0.0
  0
LINE
  8
0
 62
     0
 10
5.2
 20
7.498097
 30
0.0
 11
6.811604
 21
9.109702
 31
0.0
  0
LINE
  8
0
 62
     0
 10
5.2
 20
7.674874
 30
0.0
 11
6.765773
 21
9.240647
 31
0.0
  0
LINE
  8
0
 62
     0
 10
5.2
 20
7.85165
 30
0.0
 11
6.719942
 21
9.371593
 31
0.0
  0
LINE
  8
0
 62
     0
 10
5.2
 20
8.028427
 30
0.0
 11
6.674111
 21
9.502539
 31
0.0
  0
LINE
  8
0
 62
     0
 10
5.2
 20
8.205204
 30
0.0
 11
6.62828
 21
9.633484
 31
0.0
  0
LINE
  8
0
 62
     0
 10
5.2
 20
8.381981
 30
0.0
 11
6.582449
 21
9.76443
 31
0.0
  0
LINE
  8
0
 62
     0
 10
5.2
 20
8.558757
 30
0.0
 11
6.536619
 21
9.895376
 31
0.0
  0
LINE
  8
0
 62
     0
 10
5.2
 20
8.735534
 30
0.0
 11
6.464466
 21
10.0
 31
0.0
  0
LINE
  8
0
 62
     0
 10
5.2
 20
8.912311
 30
0.0
 11
6.287689
 21
10.0
 31
0.0
  0
LINE
  8
0
 62
     0
 10
5.2
 20
9.089087
 30
0.0
 11
6.110913
 21
10.0
 31
0.0
  0
LINE
  8
0
 62
     0
 10
5.2
 20
9.265864
 30
0.0
 11
5.934136
 21
10.0
 31
0.0
  0
LINE
  8
0
 62
     0
 10
5.2
 20
9.442641
 30
0.0
 11
5.757359
 21
10.0
 31
0.0
  0
LINE
  8
0
 62
     0
 10
5.2
 20
9.619417
 30
0.0
 11
5.580583
 21
10.0
 31
0.0
  0
LINE
  8
0
 62
     0
 10
5.2
 20
9.796194
 30
0.0
 11
5.403806
 21
10.0
 31
0.0
  0
LINE
  8
0
 62
     0
 10
5.2
 20
9.972971
 30
0.0
 11
5.227029
 21
10.0
 31
0.0
  0
LINE
  8
0
 62
     0
 10
5.2
 20
5.907107
 30
0.0
 11
7.224083
 21
7.93119
 31
0.0
  0
LINE
  8
0
 62
     0
 10
5.2
 20
5.73033
 30
0.0
 11
7.269914
 21
7.800245
 31
0.0
  0
LINE
  8
0
 62
     0
 10
5.2
 20
5.553553
 30
0.0
 11
7.315745
 21
7.669299
 31
0.0
  0
LINE
  8
0
 62
     0
 10
5.2
 20
5.376777
 30
0.0
 11
7.361576
 21
7.538353
 31
0.0
  0
LINE
  8
0
 62
     0
 10
5.2
 20
5.2
 30
0.0
 11
7.407407
 21
7.407407
 31
0.0
  0
LINE
  8
0
 62
     0
 10
5.376777
 20
5.2
 30
0.0
 11
7.453238
 21
7.276462
 31
0.0
  0
LINE
  8
0
 62
     0
 10
5.553553
 20
5.2
 30
0.0
 11
7.499069
 21
7.145516
 31
0.0
  0
LINE
  8
0
 62
     0
 10
5.73033
 20
5.2
 30
0.0
 11
7.5449
 21
7.01457
 31
0.0
  0
LINE
  8
0
 62
     0
 10
5.907107
 20
5.2
 30
0.0
 11
7.590731
 21
6.883625
 31
0.0
  0
LINE
  8
0
 62
     0
 10
6.083883
 20
5.2
 30
0.0
 11
7.636562
 21
6.752679
 31
0.0
  0
LINE
  8
0
 62
     0
 10
6.26066
 20
5.2
 30
0.0
 11
7.682393
 21
6.621733
 31
0.0
  0
LINE
  8
0
 62
     0
 10
6.437437
 20
5.2
 30
0.0
 11
7.728224
 21
6.490788
 31
0.0
  0
LINE
  8
0
 62
     0
 10
6.614214
 20
5.2
 30
0.0
 11
7.774055
 21
6.359842
 31
0.0
  0
LINE
  8
0
 62
     0
 10
6.79099
 20
5.2
 30
0.0
 11
7.819886
 21
6.228896
 31
0.0
  0
LINE
  8
0
 62
     0
 10
6.967767
 20
5.2
 30
0.0
 11
7.865717
 21
6.09795
 31
0.0
  0
LINE
  8
0
 62
     0
 10
7.144544
 20
5.2
 30
0.0
 11
7.911548
 21
5.967005
 31
0.0
  0
LINE
  8
0
 62
     0
 10
7.32132
 20
5.2
 30
0.0
 11
7.957379
 21
5.836059
 31
0.0
  0
LINE
  8
0
 62
     0
 10
7.498097
 20
5.2
 30
0.0
 11
8.00321
 21
5.705113
 31
0.0
  0
LINE
  8
0
 62
     0
 10
7.674874
 20
5.2
 30
0.0
 11
8.049041
 21
5.574168
 31
0.0
  0
LINE
  8
0
 62
     0
 10
7.85165
 20
5.2
 30
0.0
 11
8.094872
 21
5.443222
 31
0.0
  0
LINE
  8
0
 62
     0
 10
8.028427
 20
5.2
 30
0.0
 11
8.140703
 21
5.312276
 31
0.0
  0
ENDBLK
  8
0
  0
BLOCK
  8
0
  2
*X13
 70
    65
 10
0.0
 20
0.0
 30
0.0
  3
*X
  0
LINE
  8
0
 62
     0
 10
0.0
 20
0.0
 30
0.0
 11
4.8
 21
4.8
 31
0.0
  0
LINE
  8
0
 62
     0
 10
0.095187
 20
0.271964
 30
0.0
 11
4.623223
 21
4.8
 31
0.0
  0
LINE
  8
0
 62
     0
 10
0.190375
 20
0.543928
 30
0.0
 11
4.446447
 21
4.8
 31
0.0
  0
LINE
  8
0
 62
     0
 10
0.285562
 20
0.815892
 30
0.0
 11
4.26967
 21
4.8
 31
0.0
  0
LINE
  8
0
 62
     0
 10
0.38075
 20
1.087857
 30
0.0
 11
4.092893
 21
4.8
 31
0.0
  0
LINE
  8
0
 62
     0
 10
0.475937
 20
1.359821
 30
0.0
 11
3.916117
 21
4.8
 31
0.0
  0
LINE
  8
0
 62
     0
 10
0.571125
 20
1.631785
 30
0.0
 11
3.73934
 21
4.8
 31
0.0
  0
LINE
  8
0
 62
     0
 10
0.666312
 20
1.903749
 30
0.0
 11
3.562563
 21
4.8
 31
0.0
  0
LINE
  8
0
 62
     0
 10
0.7615
 20
2.175713
 30
0.0
 11
3.385786
 21
4.8
 31
0.0
  0
LINE
  8
0
 62
     0
 10
0.856687
 20
2.447677
 30
0.0
 11
3.20901
 21
4.8
 31
0.0
  0
LINE
  8
0
 62
     0
 10
0.951875
 20
2.719641
 30
0.0
 11
3.032233
 21
4.8
 31
0.0
  0
LINE
  8
0
 62
     0
 10
1.047062
 20
2.991606
 30
0.0
 11
2.855456
 21
4.8
 31
0.0
  0
LINE
  8
0
 62
     0
 10
1.142249
 20
3.26357
 30
0.0
 11
2.67868
 21
4.8
 31
0.0
  0
LINE
  8
0
 62
     0
 10
1.237437
 20
3.535534
 30
0.0
 11
2.501903
 21
4.8
 31
0.0
  0
LINE
  8
0
 62
     0
 10
1.332624
 20
3.807498
 30
0.0
 11
2.325126
 21
4.8
 31
0.0
  0
LINE
  8
0
 62
     0
 10
1.427812
 20
4.079462
 30
0.0
 11
2.14835
 21
4.8
 31
0.0
  0
LINE
  8
0
 62
     0
 10
1.522999
 20
4.351426
 30
0.0
 11
1.971573
 21
4.8
 31
0.0
  0
LINE
  8
0
 62
     0
 10
1.618187
 20
4.62339
 30
0.0
 11
1.794796
 21
4.8
 31
0.0
  0
LINE
  8
0
 62
     0
 10
0.176777
 20
0.0
 30
0.0
 11
4.8
 21
4.623223
 31
0.0
  0
LINE
  8
0
 62
     0
 10
0.353553
 20
0.0
 30
0.0
 11
4.8
 21
4.446447
 31
0.0
  0
LINE
  8
0
 62
     0
 10
0.53033
 20
0.0
 30
0.0
 11
4.8
 21
4.26967
 31
0.0
  0
LINE
  8
0
 62
     0
 10
0.707107
 20
0.0
 30
0.0
 11
4.8
 21
4.092893
 31
0.0
  0
LINE
  8
0
 62
     0
 10
0.883883
 20
0.0
 30
0.0
 11
4.8
 21
3.916117
 31
0.0
  0
LINE
  8
0
 62
     0
 10
1.06066
 20
0.0
 30
0.0
 11
4.8
 21
3.73934
 31
0.0
  0
LINE
  8
0
 62
     0
 10
1.237437
 20
0.0
 30
0.0
 11
3.179842
 21
1.942405
 31
0.0
  0
LINE
  8
0
 62
     0
 10
3.237437
 20
2.0
 30
0.0
 11
4.8
 21
3.562563
 31
0.0
  0
LINE
  8
0
 62
     0
 10
1.414214
 20
0.0
 30
0.0
 11
3.084654
 21
1.670441
 31
0.0
  0
LINE
  8
0
 62
     0
 10
3.414214
 20
2.0
 30
0.0
 11
4.8
 21
3.385786
 31
0.0
  0
LINE
  8
0
 62
     0
 10
1.59099
 20
0.0
 30
0.0
 11
2.989467
 21
1.398477
 31
0.0
  0
LINE
  8
0
 62
     0
 10
3.59099
 20
2.0
 30
0.0
 11
4.8
 21
3.20901
 31
0.0
  0
LINE
  8
0
 62
     0
 10
1.767767
 20
0.0
 30
0.0
 11
2.894279
 21
1.126512
 31
0.0
  0
LINE
  8
0
 62
     0
 10
3.767767
 20
2.0
 30
0.0
 11
4.8
 21
3.032233
 31
0.0
  0
LINE
  8
0
 62
     0
 10
1.944544
 20
0.0
 30
0.0
 11
2.799092
 21
0.854548
 31
0.0
  0
LINE
  8
0
 62
     0
 10
3.944544
 20
2.0
 30
0.0
 11
4.8
 21
2.855456
 31
0.0
  0
LINE
  8
0
 62
     0
 10
2.12132
 20
0.0
 30
0.0
 11
2.703904
 21
0.582584
 31
0.0
  0
LINE
  8
0
 62
     0
 10
4.12132
 20
2.0
 30
0.0
 11
4.8
 21
2.67868
 31
0.0
  0
LINE
  8
0
 62
     0
 10
2.298097
 20
0.0
 30
0.0
 11
2.608717
 21
0.31062
 31
0.0
  0
LINE
  8
0
 62
     0
 10
4.298097
 20
2.0
 30
0.0
 11
4.8
 21
2.501903
 31
0.0
  0
LINE
  8
0
 62
     0
 10
2.474874
 20
0.0
 30
0.0
 11
2.51353
 21
0.038656
 31
0.0
  0
LINE
  8
0
 62
     0
 10
4.474874
 20
2.0
 30
0.0
 11
4.8
 21
2.325126
 31
0.0
  0
LINE
  8
0
 62
     0
 10
4.65165
 20
2.0
 30
0.0
 11
4.8
 21
2.14835
 31
0.0
  0
ENDBLK
  8
0
  0
BLOCK
  8
0
  2
*X14
 70
    65
 10
0.0
 20
0.0
 30
0.0
  3
*X
  0
LINE
  8
0
 62
     0
 10
6.884654
 20
1.75813
 30
0.0
 11
8.736506
 21
3.609982
 31
0.0
  0
LINE
  8
0
 62
     0
 10
6.838823
 20
1.889076
 30
0.0
 11
8.690675
 21
3.740928
 31
0.0
  0
LINE
  8
0
 62
     0
 10
6.772971
 20
2.0
 30
0.0
 11
8.644844
 21
3.871874
 31
0.0
  0
LINE
  8
0
 62
     0
 10
6.596194
 20
2.0
 30
0.0
 11
8.599013
 21
4.002819
 31
0.0
  0
LINE
  8
0
 62
     0
 10
6.419417
 20
2.0
 30
0.0
 11
8.553182
 21
4.133765
 31
0.0
  0
LINE
  8
0
 62
     0
 10
6.242641
 20
2.0
 30
0.0
 11
8.507351
 21
4.264711
 31
0.0
  0
LINE
  8
0
 62
     0
 10
6.065864
 20
2.0
 30
0.0
 11
8.46152
 21
4.395656
 31
0.0
  0
LINE
  8
0
 62
     0
 10
5.889087
 20
2.0
 30
0.0
 11
8.415689
 21
4.526602
 31
0.0
  0
LINE
  8
0
 62
     0
 10
5.712311
 20
2.0
 30
0.0
 11
8.369858
 21
4.657548
 31
0.0
  0
LINE
  8
0
 62
     0
 10
5.535534
 20
2.0
 30
0.0
 11
8.324027
 21
4.788493
 31
0.0
  0
LINE
  8
0
 62
     0
 10
5.358757
 20
2.0
 30
0.0
 11
8.158757
 21
4.8
 31
0.0
  0
LINE
  8
0
 62
     0
 10
5.2
 20
2.018019
 30
0.0
 11
7.981981
 21
4.8
 31
0.0
  0
LINE
  8
0
 62
     0
 10
5.2
 20
2.194796
 30
0.0
 11
7.805204
 21
4.8
 31
0.0
  0
LINE
  8
0
 62
     0
 10
5.2
 20
2.371573
 30
0.0
 11
7.628427
 21
4.8
 31
0.0
  0
LINE
  8
0
 62
     0
 10
5.2
 20
2.54835
 30
0.0
 11
7.45165
 21
4.8
 31
0.0
  0
LINE
  8
0
 62
     0
 10
5.2
 20
2.725126
 30
0.0
 11
7.274874
 21
4.8
 31
0.0
  0
LINE
  8
0
 62
     0
 10
5.2
 20
2.901903
 30
0.0
 11
7.098097
 21
4.8
 31
0.0
  0
LINE
  8
0
 62
     0
 10
5.2
 20
3.07868
 30
0.0
 11
6.92132
 21
4.8
 31
0.0
  0
LINE
  8
0
 62
     0
 10
5.2
 20
3.255456
 30
0.0
 11
6.744544
 21
4.8
 31
0.0
  0
LINE
  8
0
 62
     0
 10
5.2
 20
3.432233
 30
0.0
 11
6.567767
 21
4.8
 31
0.0
  0
LINE
  8
0
 62
     0
 10
5.2
 20
3.60901
 30
0.0
 11
6.39099
 21
4.8
 31
0.0
  0
LINE
  8
0
 62
     0
 10
5.2
 20
3.785786
 30
0.0
 11
6.214214
 21
4.8
 31
0.0
  0
LINE
  8
0
 62
     0
 10
5.2
 20
3.962563
 30
0.0
 11
6.037437
 21
4.8
 31
0.0
  0
LINE
  8
0
 62
     0
 10
5.2
 20
4.13934
 30
0.0
 11
5.86066
 21
4.8
 31
0.0
  0
LINE
  8
0
 62
     0
 10
5.2
 20
4.316117
 30
0.0
 11
5.683883
 21
4.8
 31
0.0
  0
LINE
  8
0
 62
     0
 10
5.2
 20
4.492893
 30
0.0
 11
5.507107
 21
4.8
 31
0.0
  0
LINE
  8
0
 62
     0
 10
5.2
 20
4.66967
 30
0.0
 11
5.33033
 21
4.8
 31
0.0
  0
LINE
  8
0
 62
     0
 10
6.930485
 20
1.627185
 30
0.0
 11
8.782337
 21
3.479036
 31
0.0
  0
LINE
  8
0
 62
     0
 10
6.976316
 20
1.496239
 30
0.0
 11
8.828168
 21
3.348091
 31
0.0
  0
LINE
  8
0
 62
     0
 10
7.022147
 20
1.365293
 30
0.0
 11
8.873999
 21
3.217145
 31
0.0
  0
LINE
  8
0
 62
     0
 10
7.067978
 20
1.234347
 30
0.0
 11
8.91983
 21
3.086199
 31
0.0
  0
LINE
  8
0
 62
     0
 10
7.113809
 20
1.103402
 30
0.0
 11
8.965661
 21
2.955254
 31
0.0
  0
LINE
  8
0
 62
     0
 10
7.15964
 20
0.972456
 30
0.0
 11
9.011492
 21
2.824308
 31
0.0
  0
LINE
  8
0
 62
     0
 10
7.205471
 20
0.84151
 30
0.0
 11
9.057323
 21
2.693362
 31
0.0
  0
LINE
  8
0
 62
     0
 10
7.251302
 20
0.710565
 30
0.0
 11
9.103154
 21
2.562416
 31
0.0
  0
LINE
  8
0
 62
     0
 10
7.297133
 20
0.579619
 30
0.0
 11
9.148985
 21
2.431471
 31
0.0
  0
LINE
  8
0
 62
     0
 10
7.342964
 20
0.448673
 30
0.0
 11
9.194816
 21
2.300525
 31
0.0
  0
LINE
  8
0
 62
     0
 10
7.388795
 20
0.317728
 30
0.0
 11
9.240647
 21
2.169579
 31
0.0
  0
LINE
  8
0
 62
     0
 10
7.434626
 20
0.186782
 30
0.0
 11
9.286478
 21
2.038634
 31
0.0
  0
LINE
  8
0
 62
     0
 10
7.480457
 20
0.055836
 30
0.0
 11
9.332309
 21
1.907688
 31
0.0
  0
LINE
  8
0
 62
     0
 10
7.601398
 20
0.0
 30
0.0
 11
9.37814
 21
1.776742
 31
0.0
  0
LINE
  8
0
 62
     0
 10
7.778175
 20
0.0
 30
0.0
 11
9.423971
 21
1.645797
 31
0.0
  0
LINE
  8
0
 62
     0
 10
7.954951
 20
0.0
 30
0.0
 11
9.469802
 21
1.514851
 31
0.0
  0
LINE
  8
0
 62
     0
 10
8.131728
 20
0.0
 30
0.0
 11
9.515633
 21
1.383905
 31
0.0
  0
LINE
  8
0
 62
     0
 10
8.308505
 20
0.0
 30
0.0
 11
9.561464
 21
1.252959
 31
0.0
  0
LINE
  8
0
 62
     0
 10
8.485281
 20
0.0
 30
0.0
 11
9.607295
 21
1.122014
 31
0.0
  0
LINE
  8
0
 62
     0
 10
8.662058
 20
0.0
 30
0.0
 11
9.653126
 21
0.991068
 31
0.0
  0
LINE
  8
0
 62
     0
 10
8.838835
 20
0.0
 30
0.0
 11
9.698957
 21
0.860122
 31
0.0
  0
LINE
  8
0
 62
     0
 10
9.015611
 20
0.0
 30
0.0
 11
9.744788
 21
0.729177
 31
0.0
  0
LINE
  8
0
 62
     0
 10
9.192388
 20
0.0
 30
0.0
 11
9.790619
 21
0.598231
 31
0.0
  0
LINE
  8
0
 62
     0
 10
9.369165
 20
0.0
 30
0.0
 11
9.83645
 21
0.467285
 31
0.0
  0
LINE
  8
0
 62
     0
 10
9.545942
 20
0.0
 30
0.0
 11
9.882281
 21
0.33634
 31
0.0
  0
LINE
  8
0
 62
     0
 10
9.722718
 20
0.0
 30
0.0
 11
9.928112
 21
0.205394
 31
0.0
  0
LINE
  8
0
 62
     0
 10
9.899495
 20
0.0
 30
0.0
 11
9.973943
 21
0.074448
 31
0.0
  0
ENDBLK
  8
0
  0
BLOCK
  8
0
  2
*X15
 70
    65
 10
0.0
 20
0.0
 30
0.0
  3
*X
  0
LINE
  8
0
 62
     0
 10
10.7
 20
6.280583
 30
0.0
 11
13.5
 21
9.080583
 31
0.0
  0
LINE
  8
0
 62
     0
 10
10.7
 20
6.457359
 30
0.0
 11
13.5
 21
9.257359
 31
0.0
  0
LINE
  8
0
 62
     0
 10
10.7
 20
6.634136
 30
0.0
 11
13.5
 21
9.434136
 31
0.0
  0
LINE
  8
0
 62
     0
 10
10.7
 20
6.810913
 30
0.0
 11
13.5
 21
9.610913
 31
0.0
  0
LINE
  8
0
 62
     0
 10
10.7
 20
6.987689
 30
0.0
 11
13.5
 21
9.787689
 31
0.0
  0
LINE
  8
0
 62
     0
 10
10.7
 20
7.164466
 30
0.0
 11
13.5
 21
9.964466
 31
0.0
  0
LINE
  8
0
 62
     0
 10
10.7
 20
7.341243
 30
0.0
 11
13.358757
 21
10.0
 31
0.0
  0
LINE
  8
0
 62
     0
 10
10.7
 20
7.518019
 30
0.0
 11
13.181981
 21
10.0
 31
0.0
  0
LINE
  8
0
 62
     0
 10
10.7
 20
7.694796
 30
0.0
 11
13.005204
 21
10.0
 31
0.0
  0
LINE
  8
0
 62
     0
 10
10.7
 20
7.871573
 30
0.0
 11
12.828427
 21
10.0
 31
0.0
  0
LINE
  8
0
 62
     0
 10
10.7
 20
8.04835
 30
0.0
 11
12.65165
 21
10.0
 31
0.0
  0
LINE
  8
0
 62
     0
 10
10.7
 20
8.225126
 30
0.0
 11
12.474874
 21
10.0
 31
0.0
  0
LINE
  8
0
 62
     0
 10
10.7
 20
8.401903
 30
0.0
 11
12.298097
 21
10.0
 31
0.0
  0
LINE
  8
0
 62
     0
 10
10.7
 20
8.57868
 30
0.0
 11
12.12132
 21
10.0
 31
0.0
  0
LINE
  8
0
 62
     0
 10
10.7
 20
8.755456
 30
0.0
 11
11.944544
 21
10.0
 31
0.0
  0
LINE
  8
0
 62
     0
 10
10.7
 20
8.932233
 30
0.0
 11
11.767767
 21
10.0
 31
0.0
  0
LINE
  8
0
 62
     0
 10
10.7
 20
9.10901
 30
0.0
 11
11.59099
 21
10.0
 31
0.0
  0
LINE
  8
0
 62
     0
 10
10.7
 20
9.285786
 30
0.0
 11
11.414214
 21
10.0
 31
0.0
  0
LINE
  8
0
 62
     0
 10
10.7
 20
9.462563
 30
0.0
 11
11.237437
 21
10.0
 31
0.0
  0
LINE
  8
0
 62
     0
 10
10.7
 20
9.63934
 30
0.0
 11
11.06066
 21
10.0
 31
0.0
  0
LINE
  8
0
 62
     0
 10
10.7
 20
9.816117
 30
0.0
 11
10.883883
 21
10.0
 31
0.0
  0
LINE
  8
0
 62
     0
 10
10.7
 20
9.992893
 30
0.0
 11
10.707107
 21
10.0
 31
0.0
  0
LINE
  8
0
 62
     0
 10
10.7
 20
6.103806
 30
0.0
 11
13.5
 21
8.903806
 31
0.0
  0
LINE
  8
0
 62
     0
 10
10.7
 20
5.927029
 30
0.0
 11
13.5
 21
8.727029
 31
0.0
  0
LINE
  8
0
 62
     0
 10
10.7
 20
5.750253
 30
0.0
 11
13.5
 21
8.550253
 31
0.0
  0
LINE
  8
0
 62
     0
 10
10.7
 20
5.573476
 30
0.0
 11
13.5
 21
8.373476
 31
0.0
  0
LINE
  8
0
 62
     0
 10
10.7
 20
5.396699
 30
0.0
 11
13.5
 21
8.196699
 31
0.0
  0
LINE
  8
0
 62
     0
 10
10.7
 20
5.219922
 30
0.0
 11
13.5
 21
8.019922
 31
0.0
  0
LINE
  8
0
 62
     0
 10
10.856854
 20
5.2
 30
0.0
 11
13.5
 21
7.843146
 31
0.0
  0
LINE
  8
0
 62
     0
 10
11.033631
 20
5.2
 30
0.0
 11
13.5
 21
7.666369
 31
0.0
  0
LINE
  8
0
 62
     0
 10
11.210408
 20
5.2
 30
0.0
 11
13.5
 21
7.489592
 31
0.0
  0
LINE
  8
0
 62
     0
 10
11.387184
 20
5.2
 30
0.0
 11
13.5
 21
7.312816
 31
0.0
  0
LINE
  8
0
 62
     0
 10
11.563961
 20
5.2
 30
0.0
 11
13.5
 21
7.136039
 31
0.0
  0
LINE
  8
0
 62
     0
 10
11.740738
 20
5.2
 30
0.0
 11
13.5
 21
6.959262
 31
0.0
  0
LINE
  8
0
 62
     0
 10
11.917514
 20
5.2
 30
0.0
 11
13.5
 21
6.782486
 31
0.0
  0
LINE
  8
0
 62
     0
 10
12.094291
 20
5.2
 30
0.0
 11
13.5
 21
6.605709
 31
0.0
  0
LINE
  8
0
 62
     0
 10
12.271068
 20
5.2
 30
0.0
 11
13.5
 21
6.428932
 31
0.0
  0
LINE
  8
0
 62
     0
 10
12.447845
 20
5.2
 30
0.0
 11
13.5
 21
6.252155
 31
0.0
  0
LINE
  8
0
 62
     0
 10
12.624621
 20
5.2
 30
0.0
 11
13.5
 21
6.075379
 31
0.0
  0
LINE
  8
0
 62
     0
 10
12.801398
 20
5.2
 30
0.0
 11
13.5
 21
5.898602
 31
0.0
  0
LINE
  8
0
 62
     0
 10
12.978175
 20
5.2
 30
0.0
 11
13.5
 21
5.721825
 31
0.0
  0
LINE
  8
0
 62
     0
 10
13.154951
 20
5.2
 30
0.0
 11
13.5
 21
5.545049
 31
0.0
  0
LINE
  8
0
 62
     0
 10
13.331728
 20
5.2
 30
0.0
 11
13.5
 21
5.368272
 31
0.0
  0
ENDBLK
  8
0
  0
BLOCK
  8
0
  2
*X16
 70
    65
 10
0.0
 20
0.0
 30
0.0
  3
*X
  0
LINE
  8
0
 62
     0
 10
10.7
 20
1.154058
 30
0.0
 11
13.5
 21
3.954058
 31
0.0
  0
LINE
  8
0
 62
     0
 10
10.7
 20
1.330835
 30
0.0
 11
13.5
 21
4.130835
 31
0.0
  0
LINE
  8
0
 62
     0
 10
10.7
 20
1.507612
 30
0.0
 11
13.5
 21
4.307612
 31
0.0
  0
LINE
  8
0
 62
     0
 10
10.7
 20
1.684389
 30
0.0
 11
13.5
 21
4.484389
 31
0.0
  0
LINE
  8
0
 62
     0
 10
10.7
 20
1.861165
 30
0.0
 11
13.5
 21
4.661165
 31
0.0
  0
LINE
  8
0
 62
     0
 10
10.7
 20
2.037942
 30
0.0
 11
13.462058
 21
4.8
 31
0.0
  0
LINE
  8
0
 62
     0
 10
10.7
 20
2.214719
 30
0.0
 11
13.285281
 21
4.8
 31
0.0
  0
LINE
  8
0
 62
     0
 10
10.7
 20
2.391495
 30
0.0
 11
13.108505
 21
4.8
 31
0.0
  0
LINE
  8
0
 62
     0
 10
10.7
 20
2.568272
 30
0.0
 11
12.931728
 21
4.8
 31
0.0
  0
LINE
  8
0
 62
     0
 10
10.7
 20
2.745049
 30
0.0
 11
12.754951
 21
4.8
 31
0.0
  0
LINE
  8
0
 62
     0
 10
10.7
 20
2.921825
 30
0.0
 11
12.578175
 21
4.8
 31
0.0
  0
LINE
  8
0
 62
     0
 10
10.7
 20
3.098602
 30
0.0
 11
12.401398
 21
4.8
 31
0.0
  0
LINE
  8
0
 62
     0
 10
10.7
 20
3.275379
 30
0.0
 11
12.224621
 21
4.8
 31
0.0
  0
LINE
  8
0
 62
     0
 10
10.7
 20
3.452155
 30
0.0
 11
12.047845
 21
4.8
 31
0.0
  0
LINE
  8
0
 62
     0
 10
10.7
 20
3.628932
 30
0.0
 11
11.871068
 21
4.8
 31
0.0
  0
LINE
  8
0
 62
     0
 10
10.7
 20
3.805709
 30
0.0
 11
11.694291
 21
4.8
 31
0.0
  0
LINE
  8
0
 62
     0
 10
10.7
 20
3.982486
 30
0.0
 11
11.517514
 21
4.8
 31
0.0
  0
LINE
  8
0
 62
     0
 10
10.7
 20
4.159262
 30
0.0
 11
11.340738
 21
4.8
 31
0.0
  0
LINE
  8
0
 62
     0
 10
10.7
 20
4.336039
 30
0.0
 11
11.163961
 21
4.8
 31
0.0
  0
LINE
  8
0
 62
     0
 10
10.7
 20
4.512816
 30
0.0
 11
10.987184
 21
4.8
 31
0.0
  0
LINE
  8
0
 62
     0
 10
10.7
 20
4.689592
 30
0.0
 11
10.810408
 21
4.8
 31
0.0
  0
LINE
  8
0
 62
     0
 10
10.7
 20
0.977282
 30
0.0
 11
13.5
 21
3.777282
 31
0.0
  0
LINE
  8
0
 62
     0
 10
10.7
 20
0.800505
 30
0.0
 11
13.5
 21
3.600505
 31
0.0
  0
LINE
  8
0
 62
     0
 10
10.7
 20
0.623728
 30
0.0
 11
13.5
 21
3.423728
 31
0.0
  0
LINE
  8
0
 62
     0
 10
10.7
 20
0.446952
 30
0.0
 11
13.5
 21
3.246952
 31
0.0
  0
LINE
  8
0
 62
     0
 10
10.7
 20
0.270175
 30
0.0
 11
13.5
 21
3.070175
 31
0.0
  0
LINE
  8
0
 62
     0
 10
10.7
 20
0.093398
 30
0.0
 11
13.5
 21
2.893398
 31
0.0
  0
LINE
  8
0
 62
     0
 10
10.783378
 20
0.0
 30
0.0
 11
13.5
 21
2.716622
 31
0.0
  0
LINE
  8
0
 62
     0
 10
10.960155
 20
0.0
 30
0.0
 11
13.5
 21
2.539845
 31
0.0
  0
LINE
  8
0
 62
     0
 10
11.136932
 20
0.0
 30
0.0
 11
13.5
 21
2.363068
 31
0.0
  0
LINE
  8
0
 62
     0
 10
11.313708
 20
0.0
 30
0.0
 11
13.5
 21
2.186292
 31
0.0
  0
LINE
  8
0
 62
     0
 10
11.490485
 20
0.0
 30
0.0
 11
13.5
 21
2.009515
 31
0.0
  0
LINE
  8
0
 62
     0
 10
11.667262
 20
0.0
 30
0.0
 11
13.5
 21
1.832738
 31
0.0
  0
LINE
  8
0
 62
     0
 10
11.844039
 20
0.0
 30
0.0
 11
13.5
 21
1.655961
 31
0.0
  0
LINE
  8
0
 62
     0
 10
12.020815
 20
0.0
 30
0.0
 11
13.5
 21
1.479185
 31
0.0
  0
LINE
  8
0
 62
     0
 10
12.197592
 20
0.0
 30
0.0
 11
13.5
 21
1.302408
 31
0.0
  0
LINE
  8
0
 62
     0
 10
12.374369
 20
0.0
 30
0.0
 11
13.5
 21
1.125631
 31
0.0
  0
LINE
  8
0
 62
     0
 10
12.551145
 20
0.0
 30
0.0
 11
13.5
 21
0.948855
 31
0.0
  0
LINE
  8
0
 62
     0
 10
12.727922
 20
0.0
 30
0.0
 11
13.5
 21
0.772078
 31
0.0
  0
LINE
  8
0
 62
     0
 10
12.904699
 20
0.0
 30
0.0
 11
13.5
 21
0.595301
 31
0.0
  0
LINE
  8
0
 62
     0
 10
13.081475
 20
0.0
 30
0.0
 11
13.5
 21
0.418525
 31
0.0
  0
LINE
  8
0
 62
     0
 10
13.258252
 20
0.0
 30
0.0
 11
13.5
 21
0.241748
 31
0.0
  0
LINE
  8
0
 62
     0
 10
13.435029
 20
0.0
 30
0.0
 11
13.5
 21
0.064971
 31
0.0
  0
ENDBLK
  8
0
  0
BLOCK
  8
0
  2
*X17
 70
    65
 10
0.0
 20
0.0
 30
0.0
  3
*X
  0
LINE
  8
0
 62
     0
 10
13.9
 20
6.298602
 30
0.0
 11
16.582995
 21
8.981597
 31
0.0
  0
LINE
  8
0
 62
     0
 10
13.9
 20
6.475379
 30
0.0
 11
16.510503
 21
9.085882
 31
0.0
  0
LINE
  8
0
 62
     0
 10
13.9
 20
6.652155
 30
0.0
 11
16.432927
 21
9.185083
 31
0.0
  0
LINE
  8
0
 62
     0
 10
13.9
 20
6.828932
 30
0.0
 11
16.350372
 21
9.279304
 31
0.0
  0
LINE
  8
0
 62
     0
 10
13.9
 20
7.005709
 30
0.0
 11
16.262892
 21
9.368601
 31
0.0
  0
LINE
  8
0
 62
     0
 10
13.9
 20
7.182486
 30
0.0
 11
16.170495
 21
9.452981
 31
0.0
  0
LINE
  8
0
 62
     0
 10
13.9
 20
7.359262
 30
0.0
 11
16.073145
 21
9.532407
 31
0.0
  0
LINE
  8
0
 62
     0
 10
13.9
 20
7.536039
 30
0.0
 11
15.970755
 21
9.606794
 31
0.0
  0
LINE
  8
0
 62
     0
 10
13.9
 20
7.712816
 30
0.0
 11
15.863189
 21
9.676004
 31
0.0
  0
LINE
  8
0
 62
     0
 10
13.9
 20
7.889592
 30
0.0
 11
15.75025
 21
9.739843
 31
0.0
  0
LINE
  8
0
 62
     0
 10
13.9
 20
8.066369
 30
0.0
 11
15.631675
 21
9.798044
 31
0.0
  0
LINE
  8
0
 62
     0
 10
13.9
 20
8.243146
 30
0.0
 11
15.50711
 21
9.850256
 31
0.0
  0
LINE
  8
0
 62
     0
 10
13.9
 20
8.419922
 30
0.0
 11
15.376096
 21
9.896018
 31
0.0
  0
LINE
  8
0
 62
     0
 10
13.9
 20
8.596699
 30
0.0
 11
15.238027
 21
9.934726
 31
0.0
  0
LINE
  8
0
 62
     0
 10
13.9
 20
8.773476
 30
0.0
 11
15.092096
 21
9.965572
 31
0.0
  0
LINE
  8
0
 62
     0
 10
13.9
 20
8.950253
 30
0.0
 11
14.937209
 21
9.987461
 31
0.0
  0
LINE
  8
0
 62
     0
 10
13.9
 20
9.127029
 30
0.0
 11
14.771824
 21
9.998853
 31
0.0
  0
LINE
  8
0
 62
     0
 10
13.9
 20
9.303806
 30
0.0
 11
14.596193
 21
9.999999
 31
0.0
  0
LINE
  8
0
 62
     0
 10
13.9
 20
9.480583
 30
0.0
 11
14.419417
 21
9.999999
 31
0.0
  0
LINE
  8
0
 62
     0
 10
13.9
 20
9.657359
 30
0.0
 11
14.24264
 21
10.0
 31
0.0
  0
LINE
  8
0
 62
     0
 10
13.9
 20
9.834136
 30
0.0
 11
14.065864
 21
10.0
 31
0.0
  0
LINE
  8
0
 62
     0
 10
13.9
 20
6.121825
 30
0.0
 11
16.650245
 21
8.872071
 31
0.0
  0
LINE
  8
0
 62
     0
 10
13.9
 20
5.945049
 30
0.0
 11
16.712035
 21
8.757083
 31
0.0
  0
LINE
  8
0
 62
     0
 10
13.9
 20
5.768272
 30
0.0
 11
16.768067
 21
8.636339
 31
0.0
  0
LINE
  8
0
 62
     0
 10
13.9
 20
5.591495
 30
0.0
 11
16.817955
 21
8.509451
 31
0.0
  0
LINE
  8
0
 62
     0
 10
13.9
 20
5.414719
 30
0.0
 11
16.861189
 21
8.375908
 31
0.0
  0
LINE
  8
0
 62
     0
 10
13.9
 20
5.237942
 30
0.0
 11
16.897097
 21
8.235039
 31
0.0
  0
LINE
  8
0
 62
     0
 10
14.038835
 20
5.2
 30
0.0
 11
16.924779
 21
8.085944
 31
0.0
  0
LINE
  8
0
 62
     0
 10
14.215611
 20
5.2
 30
0.0
 11
16.942997
 21
7.927385
 31
0.0
  0
LINE
  8
0
 62
     0
 10
14.392388
 20
5.2
 30
0.0
 11
16.949987
 21
7.757599
 31
0.0
  0
LINE
  8
0
 62
     0
 10
14.569165
 20
5.2
 30
0.0
 11
16.943101
 21
7.573936
 31
0.0
  0
LINE
  8
0
 62
     0
 10
14.745942
 20
5.2
 30
0.0
 11
16.918037
 21
7.372095
 31
0.0
  0
LINE
  8
0
 62
     0
 10
14.922718
 20
5.2
 30
0.0
 11
16.866909
 21
7.144191
 31
0.0
  0
LINE
  8
0
 62
     0
 10
15.099495
 20
5.2
 30
0.0
 11
16.771715
 21
6.87222
 31
0.0
  0
LINE
  8
0
 62
     0
 10
15.276272
 20
5.2
 30
0.0
 11
15.847951
 21
5.77168
 31
0.0
  0
LINE
  8
0
 62
     0
 10
15.96673
 20
5.890458
 30
0.0
 11
16.559542
 21
6.48327
 31
0.0
  0
LINE
  8
0
 62
     0
 10
15.453048
 20
5.2
 30
0.0
 11
15.970661
 21
5.717613
 31
0.0
  0
LINE
  8
0
 62
     0
 10
15.629825
 20
5.2
 30
0.0
 11
16.088934
 21
5.659109
 31
0.0
  0
LINE
  8
0
 62
     0
 10
15.806602
 20
5.2
 30
0.0
 11
16.202964
 21
5.596363
 31
0.0
  0
LINE
  8
0
 62
     0
 10
15.983378
 20
5.2
 30
0.0
 11
16.312909
 21
5.529531
 31
0.0
  0
LINE
  8
0
 62
     0
 10
16.160155
 20
5.2
 30
0.0
 11
16.418895
 21
5.45874
 31
0.0
  0
LINE
  8
0
 62
     0
 10
16.336932
 20
5.2
 30
0.0
 11
16.521021
 21
5.384089
 31
0.0
  0
LINE
  8
0
 62
     0
 10
16.513708
 20
5.2
 30
0.0
 11
16.619363
 21
5.305655
 31
0.0
  0
LINE
  8
0
 62
     0
 10
16.690485
 20
5.2
 30
0.0
 11
16.713975
 21
5.22349
 31
0.0
  0
ENDBLK
  8
0
  0
BLOCK
  8
0
  2
*X18
 70
    65
 10
0.0
 20
0.0
 30
0.0
  3
*X
  0
LINE
  8
0
 62
     0
 10
13.9
 20
0.818525
 30
0.0
 11
17.39645
 21
4.314974
 31
0.0
  0
LINE
  8
0
 62
     0
 10
13.9
 20
0.995301
 30
0.0
 11
17.336354
 21
4.431655
 31
0.0
  0
LINE
  8
0
 62
     0
 10
13.9
 20
1.172078
 30
0.0
 11
17.272078
 21
4.544156
 31
0.0
  0
LINE
  8
0
 62
     0
 10
13.9
 20
1.348855
 30
0.0
 11
17.203766
 21
4.652621
 31
0.0
  0
LINE
  8
0
 62
     0
 10
13.9
 20
1.525631
 30
0.0
 11
17.131535
 21
4.757167
 31
0.0
  0
LINE
  8
0
 62
     0
 10
13.9
 20
1.702408
 30
0.0
 11
16.997592
 21
4.8
 31
0.0
  0
LINE
  8
0
 62
     0
 10
13.9
 20
1.879185
 30
0.0
 11
16.820815
 21
4.8
 31
0.0
  0
LINE
  8
0
 62
     0
 10
13.9
 20
2.055961
 30
0.0
 11
16.644039
 21
4.8
 31
0.0
  0
LINE
  8
0
 62
     0
 10
13.9
 20
2.232738
 30
0.0
 11
16.467262
 21
4.8
 31
0.0
  0
LINE
  8
0
 62
     0
 10
13.9
 20
2.409515
 30
0.0
 11
16.290485
 21
4.8
 31
0.0
  0
LINE
  8
0
 62
     0
 10
13.9
 20
2.586292
 30
0.0
 11
16.113708
 21
4.8
 31
0.0
  0
LINE
  8
0
 62
     0
 10
13.9
 20
2.763068
 30
0.0
 11
15.936932
 21
4.8
 31
0.0
  0
LINE
  8
0
 62
     0
 10
13.9
 20
2.939845
 30
0.0
 11
15.760155
 21
4.8
 31
0.0
  0
LINE
  8
0
 62
     0
 10
13.9
 20
3.116622
 30
0.0
 11
15.583378
 21
4.8
 31
0.0
  0
LINE
  8
0
 62
     0
 10
13.9
 20
3.293398
 30
0.0
 11
15.406602
 21
4.8
 31
0.0
  0
LINE
  8
0
 62
     0
 10
13.9
 20
3.470175
 30
0.0
 11
15.229825
 21
4.8
 31
0.0
  0
LINE
  8
0
 62
     0
 10
13.9
 20
3.646952
 30
0.0
 11
15.053048
 21
4.8
 31
0.0
  0
LINE
  8
0
 62
     0
 10
13.9
 20
3.823728
 30
0.0
 11
14.876272
 21
4.8
 31
0.0
  0
LINE
  8
0
 62
     0
 10
13.9
 20
4.000505
 30
0.0
 11
14.699495
 21
4.8
 31
0.0
  0
LINE
  8
0
 62
     0
 10
13.9
 20
4.177282
 30
0.0
 11
14.522718
 21
4.8
 31
0.0
  0
LINE
  8
0
 62
     0
 10
13.9
 20
4.354058
 30
0.0
 11
14.345942
 21
4.8
 31
0.0
  0
LINE
  8
0
 62
     0
 10
13.9
 20
4.530835
 30
0.0
 11
14.169165
 21
4.8
 31
0.0
  0
LINE
  8
0
 62
     0
 10
13.9
 20
4.707612
 30
0.0
 11
13.992388
 21
4.8
 31
0.0
  0
LINE
  8
0
 62
     0
 10
13.9
 20
0.641748
 30
0.0
 11
17.452185
 21
4.193933
 31
0.0
  0
LINE
  8
0
 62
     0
 10
13.9
 20
0.464971
 30
0.0
 11
17.503339
 21
4.068311
 31
0.0
  0
LINE
  8
0
 62
     0
 10
13.9
 20
0.288194
 30
0.0
 11
17.549642
 21
3.937837
 31
0.0
  0
LINE
  8
0
 62
     0
 10
13.9
 20
0.111418
 30
0.0
 11
17.590762
 21
3.80218
 31
0.0
  0
LINE
  8
0
 62
     0
 10
13.965359
 20
0.0
 30
0.0
 11
17.62629
 21
3.660931
 31
0.0
  0
LINE
  8
0
 62
     0
 10
14.142136
 20
0.000001
 30
0.0
 11
17.655713
 21
3.513577
 31
0.0
  0
LINE
  8
0
 62
     0
 10
14.318913
 20
0.000001
 30
0.0
 11
17.678385
 21
3.359473
 31
0.0
  0
LINE
  8
0
 62
     0
 10
14.49569
 20
0.000001
 30
0.0
 11
17.693473
 21
3.197784
 31
0.0
  0
LINE
  8
0
 62
     0
 10
14.672467
 20
0.000002
 30
0.0
 11
17.699875
 21
3.027409
 31
0.0
  0
LINE
  8
0
 62
     0
 10
14.853154
 20
0.003912
 30
0.0
 11
17.696088
 21
2.846846
 31
0.0
  0
LINE
  8
0
 62
     0
 10
15.046044
 20
0.020025
 30
0.0
 11
17.679975
 21
2.653956
 31
0.0
  0
LINE
  8
0
 62
     0
 10
15.254483
 20
0.051687
 30
0.0
 11
17.648313
 21
2.445517
 31
0.0
  0
LINE
  8
0
 62
     0
 10
15.483762
 20
0.10419
 30
0.0
 11
17.59581
 21
2.216238
 31
0.0
  0
LINE
  8
0
 62
     0
 10
15.743786
 20
0.187437
 30
0.0
 11
17.512563
 21
1.956214
 31
0.0
  0
LINE
  8
0
 62
     0
 10
16.058176
 20
0.32505
 30
0.0
 11
17.37495
 21
1.641824
 31
0.0
  0
LINE
  8
0
 62
     0
 10
16.54193
 20
0.632028
 30
0.0
 11
17.067972
 21
1.15807
 31
0.0
  0
ENDBLK
  8
0
  0
BLOCK
  8
0
  2
MAA
 70
    64
 10
0.0
 20
0.0
 30
0.0
  3
MAA
  0
LINE
  8
0
  6
CONTINUOUS
 10
-0.500718
 20
-2.587966
 30
0.0
 11
0.386169
 21
-2.587966
 31
0.0
  0
LINE
  8
0
  6
CONTINUOUS
 10
-0.831823
 20
-1.976333
 30
0.0
 11
0.752749
 21
-1.976333
 31
0.0
  0
LINE
  8
0
  6
CONTINUOUS
 10
-0.015887
 20
-1.35427
 30
0.0
 11
1.178454
 21
-1.35427
 31
0.0
  0
LINE
  8
0
  6
CONTINUOUS
 10
-1.210228
 20
-1.35427
 30
0.0
 11
-0.015887
 21
-1.35427
 31
0.0
  0
LINE
  8
0
  6
CONTINUOUS
 10
0.0
 20
0.0
 30
0.0
 11
0.0
 21
-1.35427
 31
0.0
  0
ENDBLK
  8
0
  0
BLOCK
  8
0
  2
B67
 70
     0
 10
0.0
 20
0.0
 30
0.0
  3
B67
  0
LINE
  8
BASE
  6
CONTINUOUS
 10
-1.897097
 20
-3.556254
 30
0.0
 11
-2.963522
 21
-2.489829
 31
0.0
  0
LINE
  8
BASE
  6
CONTINUOUS
 10
-2.963522
 20
-2.489829
 30
0.0
 11
-1.897097
 21
-1.423405
 31
0.0
  0
LINE
  8
BASE
  6
CONTINUOUS
 10
-1.897097
 20
-1.423405
 30
0.0
 11
-0.830672
 21
-2.489829
 31
0.0
  0
LINE
  8
BASE
  6
CONTINUOUS
 10
-0.830672
 20
-2.489829
 30
0.0
 11
-1.897097
 21
-3.556254
 31
0.0
  0
LINE
  8
BASE
  6
DASHED
 10
0.0
 20
0.0
 30
0.0
 11
-5.000117
 21
0.0
 31
0.0
  0
TEXT
  8
BASE
  6
DASHED
 10
-8.422045
 20
-3.481615
 30
0.0
 40
2.0
  1
14B
  0
LINE
  8
BASE
  6
DASHED
 10
-12.5
 20
0.0
 30
0.0
 11
-30.0
 21
0.0
 31
0.0
  0
TEXT
  8
BASE
  6
DASHED
 10
-12.5
 20
3.402046
 30
0.0
 40
2.0
  1
101
  0
TEXT
  8
BASE
  6
DASHED
 10
-18.160336
 20
-3.602839
 30
0.0
 40
2.0
  1
14A 
  0
INSERT
  8
0
  6
CONTINUOUS
  2
B37
 10
-12.5
 20
0.0
 30
0.0
 50
90.0
  0
ENDBLK
  8
0
  0
BLOCK
  8
0
  2
B37
 70
    64
 10
0.0
 20
0.0
 30
0.0
  3
B37
  0
LINE
  8
BASE
  6
CONTINUOUS
 10
-0.006589
 20
-6.018035
 30
0.0
 11
2.434804
 21
0.662841
 31
0.0
  0
LINE
  8
BASE
  6
CONTINUOUS
 10
0.0
 20
0.0
 30
0.0
 11
2.765661
 21
0.0
 31
0.0
  0
LINE
  8
BASE
  6
CONTINUOUS
 10
2.434804
 20
0.662841
 30
0.0
 11
1.549106
 21
1.107734
 31
0.0
  0
CIRCLE
  8
BASE
  6
CONTINUOUS
 10
0.0
 20
-6.758945
 30
0.0
 40
0.740939
  0
ENDBLK
  8
0
  0
BLOCK
  8
0
  2
B13
 70
     0
 10
0.0
 20
0.0
 30
0.0
  3
B13
  0
LINE
  8
BASE
  6
CONTINUOUS
 10
0.00793
 20
5.0
 30
0.0
 11
0.00793
 21
-5.0
 31
0.0
  0
LINE
  8
BASE
  6
CONTINUOUS
 10
0.0
 20
-11.000004
 30
0.0
 11
0.0
 21
-17.5
 31
0.0
  0
LINE
  8
BASE
  6
CONTINUOUS
 10
5.0
 20
-11.000004
 30
0.0
 11
5.0
 21
-17.5
 31
0.0
  0
LINE
  8
BASE
  6
CONTINUOUS
 10
4.982972
 20
5.0
 30
0.0
 11
4.982972
 21
-5.0
 31
0.0
  0
LINE
  8
BASE
  6
CONTINUOUS
 10
10.0
 20
-5.0
 30
0.0
 11
10.0
 21
-1.412306
 31
0.0
  0
LINE
  8
BASE
  6
CONTINUOUS
 10
10.0
 20
-0.21377
 30
0.0
 11
10.0
 21
2.28623
 31
0.0
  0
LINE
  8
BASE
  6
CONTINUOUS
 10
10.0
 20
-11.000004
 30
0.0
 11
10.0
 21
-17.5
 31
0.0
  0
LINE
  8
BASE
  6
CONTINUOUS
 10
10.0
 20
-11.000004
 30
0.0
 11
12.434804
 21
-4.337159
 31
0.0
  0
LINE
  8
BASE
  6
CONTINUOUS
 10
10.0
 20
-5.0
 30
0.0
 11
12.765661
 21
-5.0
 31
0.0
  0
LINE
  8
BASE
  6
CONTINUOUS
 10
12.434804
 20
-4.337159
 30
0.0
 11
11.549106
 21
-3.892266
 31
0.0
  0
LINE
  8
BASE
  6
CONTINUOUS
 10
5.0
 20
-5.0
 30
0.0
 11
7.765661
 21
-5.0
 31
0.0
  0
LINE
  8
BASE
  6
CONTINUOUS
 10
7.434804
 20
-4.337159
 30
0.0
 11
6.549106
 21
-3.892266
 31
0.0
  0
LINE
  8
BASE
  6
CONTINUOUS
 10
5.0
 20
-11.000004
 30
0.0
 11
7.434804
 21
-4.337159
 31
0.0
  0
LINE
  8
BASE
  6
CONTINUOUS
 10
0.0
 20
-11.000004
 30
0.0
 11
2.434804
 21
-4.337159
 31
0.0
  0
LINE
  8
BASE
  6
CONTINUOUS
 10
0.0
 20
-5.0
 30
0.0
 11
2.765661
 21
-5.0
 31
0.0
  0
ENDBLK
  8
0
  0
BLOCK
  8
0
  2
B204
 70
     0
 10
0.0
 20
0.0
 30
0.0
  3
B204
  0
TEXT
  8
BASE
  6
CONTINUOUS
 10
-5.818294
 20
-13.161989
 30
0.0
 40
2.0
  1
12A
  0
TEXT
  8
BASE
  6
CONTINUOUS
 10
-5.818294
 20
-3.442734
 30
0.0
 40
2.0
  1
11A
  0
LINE
  8
BASE
  6
CONTINUOUS
 10
-5.0
 20
-10.0
 30
0.0
 11
0.0
 21
-10.0
 31
0.0
  0
LINE
  8
BASE
  6
CONTINUOUS
 10
-20.0
 20
-10.017028
 30
0.0
 11
-10.0
 21
-10.017028
 31
0.0
  0
LINE
  8
BASE
  6
CONTINUOUS
 10
-10.0
 20
-10.017028
 30
0.0
 11
-10.0
 21
-7.234339
 31
0.0
  0
LINE
  8
BASE
  6
CONTINUOUS
 10
-10.897173
 20
-7.565196
 30
0.0
 11
-11.342066
 21
-8.450894
 31
0.0
  0
LINE
  8
BASE
  6
CONTINUOUS
 10
-10.897173
 20
-7.565196
 30
0.0
 11
-5.0
 21
-10.0
 31
0.0
  0
LINE
  8
BASE
  6
CONTINUOUS
 10
-10.897173
 20
2.434804
 30
0.0
 11
-5.0
 21
0.0
 31
0.0
  0
LINE
  8
BASE
  6
CONTINUOUS
 10
-10.897173
 20
2.434804
 30
0.0
 11
-11.342066
 21
1.549106
 31
0.0
  0
LINE
  8
BASE
  6
CONTINUOUS
 10
-10.0
 20
-0.017028
 30
0.0
 11
-10.0
 21
2.765661
 31
0.0
  0
LINE
  8
BASE
  6
CONTINUOUS
 10
-20.0
 20
-0.017028
 30
0.0
 11
-10.0
 21
-0.017028
 31
0.0
  0
LINE
  8
BASE
  6
CONTINUOUS
 10
-5.0
 20
0.0
 30
0.0
 11
0.0
 21
0.0
 31
0.0
  0
ENDBLK
  8
0
  0
BLOCK
  8
0
  2
B142
 70
     0
 10
0.0
 20
0.0
 30
0.0
  3
B142
  0
TEXT
  8
0
  6
CONTINUOUS
 10
5.549479
 20
-59.025296
 30
0.0
 40
2.0
  1
10)
  7
GREEKS
  0
TEXT
  8
0
  6
CONTINUOUS
 10
5.549479
 20
-39.39604
 30
0.0
 40
2.0
  1
10)
  7
GREEKS
  0
TEXT
  8
0
  6
CONTINUOUS
 10
11.148996
 20
-19.261821
 30
0.0
 40
2.0
  1
10)
  7
GREEKS
  0
TEXT
  8
0
  6
CONTINUOUS
 10
5.549479
 20
0.877579
 30
0.0
 40
2.0
  1
10)
  7
GREEKS
  0
LINE
  8
0
  6
DASHED
 10
93.595465
 20
40.0
 30
0.0
 11
7.5
 21
40.0
 31
0.0
  0
LINE
  8
0
  6
DASHED
 10
93.595465
 20
35.0
 30
0.0
 11
7.5
 21
35.0
 31
0.0
  0
LINE
  8
0
  6
DASHED
 10
93.595465
 20
30.0
 30
0.0
 11
7.5
 21
30.0
 31
0.0
  0
LINE
  8
0
  6
CONTINUOUS
 10
57.5
 20
12.68998
 30
0.0
 11
77.5
 21
12.68998
 31
0.0
  0
LINE
  8
0
  6
CONTINUOUS
 10
70.0
 20
0.0
 30
0.0
 11
65.0
 21
7.5
 31
0.0
  0
LINE
  8
0
  6
DASHED
 10
65.0
 20
-12.5
 30
0.0
 11
82.5
 21
-12.5
 31
0.0
  0
LINE
  8
0
  6
DASHED
 10
0.0
 20
-10.0
 30
0.0
 11
10.0
 21
-10.0
 31
0.0
  0
LINE
  8
0
  6
DASHED
 10
0.0
 20
-30.0
 30
0.0
 11
25.0
 21
-30.0
 31
0.0
  0
LINE
  8
0
  6
DASHED
 10
0.0
 20
-50.0
 30
0.0
 11
32.5
 21
-50.0
 31
0.0
  0
LINE
  8
0
  6
DASHED
 10
0.0
 20
-70.0
 30
0.0
 11
57.5
 21
-70.0
 31
0.0
  0
LINE
  8
0
  6
DASHED
 10
30.0
 20
-4.810008
 30
0.0
 11
25.0
 21
-4.810008
 31
0.0
  0
INSERT
  8
0
  6
CONTINUOUS
  2
BLC27
 10
41.491155
 20
-22.381569
 30
0.0
 50
180.0
  0
POLYLINE
  8
0
  6
CONTINUOUS
 66
     1
 10
0.0
 20
0.0
 30
0.0
 70
     1
 40
0.25
 41
0.25
 71
     2
 72
   151
  0
VERTEX
  8
0
  6
CONTINUOUS
 10
29.625
 20
40.0
 30
0.0
 42
1.0
  0
VERTEX
  8
0
  6
CONTINUOUS
 10
30.375
 20
40.0
 30
0.0
 42
1.0
  0
SEQEND
  8
0
  6
CONTINUOUS
  0
POLYLINE
  8
0
  6
CONTINUOUS
 66
     1
 10
0.0
 20
0.0
 30
0.0
 70
     1
 40
0.25
 41
0.25
 71
     2
 72
   151
  0
VERTEX
  8
0
  6
CONTINUOUS
 10
34.625
 20
35.0
 30
0.0
 42
1.0
  0
VERTEX
  8
0
  6
CONTINUOUS
 10
35.375
 20
35.0
 30
0.0
 42
1.0
  0
SEQEND
  8
0
  6
CONTINUOUS
  0
POLYLINE
  8
0
  6
CONTINUOUS
 66
     1
 10
0.0
 20
0.0
 30
0.0
 70
     1
 40
0.25
 41
0.25
 71
     2
 72
   151
  0
VERTEX
  8
0
  6
CONTINUOUS
 10
39.625
 20
30.0
 30
0.0
 42
1.0
  0
VERTEX
  8
0
  6
CONTINUOUS
 10
40.375
 20
30.0
 30
0.0
 42
1.0
  0
SEQEND
  8
0
  6
CONTINUOUS
  0
LINE
  8
0
  6
CONTINUOUS
 10
40.0
 20
12.5
 30
0.0
 11
39.5
 21
12.0
 31
0.0
  0
LINE
  8
0
  6
CONTINUOUS
 10
40.0
 20
12.5
 30
0.0
 11
39.5
 21
13.0
 31
0.0
  0
LINE
  8
0
  6
CONTINUOUS
 10
40.0
 20
12.5
 30
0.0
 11
40.5
 21
13.0
 31
0.0
  0
LINE
  8
0
  6
CONTINUOUS
 10
40.0
 20
12.5
 30
0.0
 11
40.5
 21
12.0
 31
0.0
  0
LINE
  8
0
  6
CONTINUOUS
 10
35.0
 20
12.5
 30
0.0
 11
34.5
 21
13.0
 31
0.0
  0
LINE
  8
0
  6
CONTINUOUS
 10
35.0
 20
12.5
 30
0.0
 11
34.5
 21
12.0
 31
0.0
  0
LINE
  8
0
  6
CONTINUOUS
 10
35.0
 20
12.5
 30
0.0
 11
35.5
 21
12.0
 31
0.0
  0
LINE
  8
0
  6
CONTINUOUS
 10
35.0
 20
12.5
 30
0.0
 11
35.5
 21
13.0
 31
0.0
  0
LINE
  8
0
  6
CONTINUOUS
 10
30.0
 20
12.5
 30
0.0
 11
29.5
 21
12.0
 31
0.0
  0
LINE
  8
0
  6
CONTINUOUS
 10
30.0
 20
12.5
 30
0.0
 11
30.5
 21
13.0
 31
0.0
  0
LINE
  8
0
  6
CONTINUOUS
 10
30.0
 20
12.5
 30
0.0
 11
30.5
 21
12.0
 31
0.0
  0
LINE
  8
0
  6
CONTINUOUS
 10
30.0
 20
12.5
 30
0.0
 11
29.5
 21
13.0
 31
0.0
  0
LINE
  8
0
  6
CONTINUOUS
 10
40.0
 20
5.0
 30
0.0
 11
37.5
 21
12.5
 31
0.0
  0
LINE
  8
0
  6
CONTINUOUS
 10
35.0
 20
5.0
 30
0.0
 11
32.5
 21
12.5
 31
0.0
  0
LINE
  8
0
  6
CONTINUOUS
 10
30.0
 20
5.0
 30
0.0
 11
27.5
 21
12.5
 31
0.0
  0
LINE
  8
0
  6
DASHED
 10
30.0
 20
25.0
 30
0.0
 11
30.0
 21
40.0
 31
0.0
  0
LINE
  8
0
  6
DASHED
 10
35.0
 20
25.0
 30
0.0
 11
35.0
 21
32.5
 31
0.0
  0
LINE
  8
0
  6
DASHED
 10
40.0
 20
5.0
 30
0.0
 11
40.0
 21
-32.5
 31
0.0
  0
LINE
  8
0
  6
DASHED
 10
40.0
 20
30.0
 30
0.0
 11
40.0
 21
12.5
 31
0.0
  0
LINE
  8
0
  6
DASHED
 10
35.0
 20
5.0
 30
0.0
 11
35.0
 21
-32.5
 31
0.0
  0
LINE
  8
0
  6
DASHED
 10
35.0
 20
35.0
 30
0.0
 11
35.0
 21
12.5
 31
0.0
  0
LINE
  8
0
  6
DASHED
 10
30.0
 20
12.5
 30
0.0
 11
30.0
 21
25.0
 31
0.0
  0
LINE
  8
0
  6
DASHED
 10
30.0
 20
5.0
 30
0.0
 11
30.0
 21
-32.5
 31
0.0
  0
INSERT
  8
0
  6
CONTINUOUS
  2
BLC27
 10
31.491154
 20
-2.381567
 30
0.0
 50
180.0
  0
INSERT
  8
0
  6
CONTINUOUS
  2
BLC15
 10
24.857916
 20
-35.0
 30
0.0
  0
LINE
  8
0
  6
DASHED
 10
40.0
 20
-27.5
 30
0.0
 11
40.0
 21
-30.0
 31
0.0
  0
LINE
  8
0
  6
DASHED
 10
35.0
 20
-27.5
 30
0.0
 11
35.0
 21
-30.0
 31
0.0
  0
LINE
  8
0
  6
DASHED
 10
30.0
 20
-27.5
 30
0.0
 11
30.0
 21
-30.0
 31
0.0
  0
POLYLINE
  8
0
  6
DASHED
 66
     1
 10
0.0
 20
0.0
 30
0.0
 70
     1
 40
0.25
 41
0.25
 71
     2
 72
   151
  0
VERTEX
  8
0
  6
DASHED
 10
9.625
 20
-30.0
 30
0.0
 42
1.0
  0
VERTEX
  8
0
  6
DASHED
 10
10.375
 20
-30.0
 30
0.0
 42
1.0
  0
SEQEND
  8
0
  6
DASHED
  0
LINE
  8
0
  6
DASHED
 10
40.006921
 20
-24.810016
 30
0.0
 11
25.0
 21
-24.810016
 31
0.0
  0
LINE
  8
0
  6
DASHED
 10
10.0
 20
-10.0
 30
0.0
 11
10.0
 21
-30.0
 31
0.0
  0
LINE
  8
0
  6
DASHED
 10
5.0
 20
-40.0
 30
0.0
 11
22.5
 21
-40.0
 31
0.0
  0
LINE
  8
0
  6
DASHED
 10
22.5
 20
-40.0
 30
0.0
 11
22.5
 21
-45.189984
 31
0.0
  0
INSERT
  8
0
  6
CONTINUOUS
  2
BLC15
 10
32.357916
 20
-57.5
 30
0.0
  0
POLYLINE
  8
0
  6
DASHED
 66
     1
 10
0.0
 20
0.0
 30
0.0
 70
     1
 40
0.25
 41
0.25
 71
     2
 72
   251
  0
VERTEX
  8
0
  6
DASHED
 10
22.125
 20
-50.0
 30
0.0
 42
1.0
  0
VERTEX
  8
0
  6
DASHED
 10
22.875
 20
-50.0
 30
0.0
 42
1.0
  0
SEQEND
  8
0
  6
DASHED
  0
LINE
  8
0
  6
DASHED
 10
25.0
 20
-4.810008
 30
0.0
 11
25.0
 21
-32.5
 31
0.0
  0
LINE
  8
0
  6
CONTINUOUS
 10
30.0
 20
-32.5
 30
0.0
 11
40.0
 21
-32.5
 31
0.0
  0
LINE
  8
0
  6
CONTINUOUS
 10
32.5
 20
-32.5
 30
0.0
 11
35.0
 21
-37.5
 31
0.0
  0
LINE
  8
0
  6
CONTINUOUS
 10
35.0
 20
-37.5
 30
0.0
 11
37.5
 21
-32.5
 31
0.0
  0
LINE
  8
0
  6
DASHED
 10
32.5
 20
-32.5
 30
0.0
 11
32.5
 21
-55.0
 31
0.0
  0
POLYLINE
  8
0
  6
DASHED
 66
     1
 10
0.0
 20
0.0
 30
0.0
 70
     1
 40
0.25
 41
0.25
 71
     2
 72
   151
  0
VERTEX
  8
0
  6
DASHED
 10
32.125
 20
-32.5
 30
0.0
 42
1.0
  0
VERTEX
  8
0
  6
DASHED
 10
32.875
 20
-32.5
 30
0.0
 42
1.0
  0
SEQEND
  8
0
  6
DASHED
  0
INSERT
  8
0
  6
CONTINUOUS
  2
BLC15
 10
22.357916
 20
-57.5
 30
0.0
  0
LINE
  8
0
  6
DASHED
 10
22.5
 20
-55.0
 30
0.0
 11
22.5
 21
-50.0
 31
0.0
  0
INSERT
  8
0
  6
CONTINUOUS
  2
BLC27
 10
36.49116
 20
-47.571554
 30
0.0
 50
180.0
  0
LINE
  8
0
  6
CONTINUOUS
 10
32.5
 20
-47.59856
 30
0.0
 11
35.0
 21
-47.59856
 31
0.0
  0
LINE
  8
0
  6
DASHED
 10
22.5
 20
-45.189984
 30
0.0
 11
35.0
 21
-45.189984
 31
0.0
  0
LINE
  8
0
  6
DASHED
 10
35.0
 20
-50.0
 30
0.0
 11
35.0
 21
-50.0
 31
0.0
  0
LINE
  8
0
  6
DASHED
 10
32.5
 20
-50.0
 30
0.0
 11
35.0
 21
-50.0
 31
0.0
  0
LINE
  8
0
  6
DASHED
 10
30.0
 20
0.0
 30
0.0
 11
5.0
 21
0.0
 31
0.0
  0
LINE
  8
0
  6
DASHED
 10
40.0
 20
-20.0
 30
0.0
 11
5.0
 21
-20.0
 31
0.0
  0
POLYLINE
  8
0
  6
DASHED
 66
     1
 10
0.0
 20
0.0
 30
0.0
 70
     1
 40
0.25
 41
0.25
 71
     2
 72
   151
  0
VERTEX
  8
0
  6
DASHED
 10
24.624033
 20
-24.810354
 30
0.0
 42
1.0
  0
VERTEX
  8
0
  6
DASHED
 10
25.374033
 20
-24.810354
 30
0.0
 42
1.0
  0
SEQEND
  8
0
  6
DASHED
  0
POLYLINE
  8
0
  6
DASHED
 66
     1
 10
0.0
 20
0.0
 30
0.0
 70
     1
 40
0.25
 41
0.25
 71
     2
 72
   151
  0
VERTEX
  8
0
  6
DASHED
 10
24.623777
 20
-30.00007
 30
0.0
 42
1.0
  0
VERTEX
  8
0
  6
DASHED
 10
25.373777
 20
-30.00007
 30
0.0
 42
1.0
  0
SEQEND
  8
0
  6
DASHED
  0
INSERT
  8
0
  6
CONTINUOUS
  2
BLC27
 10
55.965932
 20
15.071549
 30
0.0
  0
INSERT
  8
0
  6
CONTINUOUS
  2
BLC27
 10
63.465932
 20
15.071549
 30
0.0
  0
LINE
  8
0
  6
DASHED
 10
57.5
 20
17.5
 30
0.0
 11
57.5
 21
40.0
 31
0.0
  0
LINE
  8
0
  6
DASHED
 10
65.0
 20
17.5
 30
0.0
 11
65.0
 21
35.0
 31
0.0
  0
POLYLINE
  8
0
  6
DASHED
 66
     1
 10
0.0
 20
0.0
 30
0.0
 70
     1
 40
0.25
 41
0.25
 71
     2
 72
   151
  0
VERTEX
  8
0
  6
DASHED
 10
57.125
 20
40.0
 30
0.0
 42
1.0
  0
VERTEX
  8
0
  6
DASHED
 10
57.875
 20
40.0
 30
0.0
 42
1.0
  0
SEQEND
  8
0
  6
DASHED
  0
POLYLINE
  8
0
  6
DASHED
 66
     1
 10
0.0
 20
0.0
 30
0.0
 70
     1
 40
0.25
 41
0.25
 71
     2
 72
   151
  0
VERTEX
  8
0
  6
DASHED
 10
64.625
 20
35.0
 30
0.0
 42
1.0
  0
VERTEX
  8
0
  6
DASHED
 10
65.375
 20
35.0
 30
0.0
 42
1.0
  0
SEQEND
  8
0
  6
DASHED
  0
LINE
  8
0
  6
CONTINUOUS
 10
57.5
 20
2.68998
 30
0.0
 11
57.5
 21
0.0
 31
0.0
  0
LINE
  8
0
  6
CONTINUOUS
 10
65.0
 20
2.68998
 30
0.0
 11
65.0
 21
0.0
 31
0.0
  0
ARC
  8
0
  6
CONTINUOUS
 10
63.364862
 20
6.296095
 30
0.0
 40
1.204309
 50
90.0
 51
265.706237
  0
LINE
  8
0
  6
CONTINUOUS
 10
63.358762
 20
5.098547
 30
0.0
 11
64.00836
 21
5.098547
 31
0.0
  0
LINE
  8
0
  6
CONTINUOUS
 10
63.358762
 20
7.499993
 30
0.0
 11
64.002261
 21
7.499993
 31
0.0
  0
LINE
  8
0
  6
CONTINUOUS
 10
63.359898
 20
2.689937
 30
0.0
 11
64.009496
 21
2.689937
 31
0.0
  0
ARC
  8
0
  6
CONTINUOUS
 10
63.364862
 20
3.894238
 30
0.0
 40
1.204309
 50
90.0
 51
270.0
  0
LINE
  8
0
  6
CONTINUOUS
 10
64.000897
 20
2.68998
 30
0.0
 11
65.0
 21
2.68998
 31
0.0
  0
LINE
  8
0
  6
CONTINUOUS
 10
63.996128
 20
7.499996
 30
0.0
 11
64.973936
 21
7.499996
 31
0.0
  0
LINE
  8
0
  6
CONTINUOUS
 10
64.006031
 20
5.098556
 30
0.0
 11
64.978167
 21
5.098556
 31
0.0
  0
ARC
  8
0
  6
CONTINUOUS
 10
55.864862
 20
6.296095
 30
0.0
 40
1.204309
 50
90.0
 51
265.706237
  0
LINE
  8
0
  6
CONTINUOUS
 10
55.858762
 20
5.098547
 30
0.0
 11
56.50836
 21
5.098547
 31
0.0
  0
LINE
  8
0
  6
CONTINUOUS
 10
55.858762
 20
7.499993
 30
0.0
 11
56.502261
 21
7.499993
 31
0.0
  0
LINE
  8
0
  6
CONTINUOUS
 10
55.859898
 20
2.689937
 30
0.0
 11
56.509496
 21
2.689937
 31
0.0
  0
ARC
  8
0
  6
CONTINUOUS
 10
55.864862
 20
3.894238
 30
0.0
 40
1.204309
 50
90.0
 51
270.0
  0
LINE
  8
0
  6
CONTINUOUS
 10
56.500897
 20
2.68998
 30
0.0
 11
57.5
 21
2.68998
 31
0.0
  0
LINE
  8
0
  6
CONTINUOUS
 10
56.496128
 20
7.499996
 30
0.0
 11
57.473936
 21
7.499996
 31
0.0
  0
LINE
  8
0
  6
CONTINUOUS
 10
56.506031
 20
5.098556
 30
0.0
 11
57.478167
 21
5.098556
 31
0.0
  0
LINE
  8
0
  6
CONTINUOUS
 10
65.0
 20
0.0
 30
0.0
 11
62.5
 21
0.0
 31
0.0
  0
LINE
  8
0
  6
CONTINUOUS
 10
62.5
 20
0.0
 30
0.0
 11
57.5
 21
7.5
 31
0.0
  0
LINE
  8
0
  6
DASHED
 10
5.0
 20
-60.0
 30
0.0
 11
65.0
 21
-60.0
 31
0.0
  0
LINE
  8
0
  6
DASHED
 10
65.0
 20
-60.0
 30
0.0
 11
65.0
 21
-12.5
 31
0.0
  0
LINE
  8
0
  6
DASHED
 10
57.5
 20
-70.0
 30
0.0
 11
57.5
 21
0.0
 31
0.0
  0
LINE
  8
0
  6
DASHED
 10
35.0
 20
-37.5
 30
0.0
 11
35.0
 21
-55.0
 31
0.0
  0
TEXT
  8
0
  6
CONTINUOUS
 10
-1.267672
 20
29.006967
 30
0.0
 40
2.0
  1
L3(T)
 11
-1.267672
 21
28.3403
 31
0.0
 73
     1
  0
TEXT
  8
0
  6
CONTINUOUS
 10
-1.267672
 20
33.928359
 30
0.0
 40
2.0
  1
L2(S)
 11
-1.267672
 21
33.261693
 31
0.0
 73
     1
  0
TEXT
  8
0
  6
CONTINUOUS
 10
-1.267672
 20
38.985054
 30
0.0
 40
2.0
  1
L1(R)
 11
-1.267672
 21
38.318387
 31
0.0
 73
     1
  0
INSERT
  8
0
  6
CONTINUOUS
  2
BLC27
 10
70.965932
 20
15.071549
 30
0.0
  0
LINE
  8
0
  6
DASHED
 10
72.5
 20
17.5
 30
0.0
 11
72.5
 21
30.0
 31
0.0
  0
LINE
  8
0
  6
CONTINUOUS
 10
72.5
 20
2.68998
 30
0.0
 11
72.5
 21
0.0
 31
0.0
  0
ARC
  8
0
  6
CONTINUOUS
 10
70.864862
 20
6.296095
 30
0.0
 40
1.204309
 50
90.0
 51
265.706237
  0
LINE
  8
0
  6
CONTINUOUS
 10
70.858762
 20
5.098547
 30
0.0
 11
71.50836
 21
5.098547
 31
0.0
  0
LINE
  8
0
  6
CONTINUOUS
 10
70.858762
 20
7.499993
 30
0.0
 11
71.502261
 21
7.499993
 31
0.0
  0
LINE
  8
0
  6
CONTINUOUS
 10
70.859898
 20
2.689937
 30
0.0
 11
71.509496
 21
2.689937
 31
0.0
  0
ARC
  8
0
  6
CONTINUOUS
 10
70.864862
 20
3.894238
 30
0.0
 40
1.204309
 50
90.0
 51
270.0
  0
LINE
  8
0
  6
CONTINUOUS
 10
71.500897
 20
2.68998
 30
0.0
 11
72.5
 21
2.68998
 31
0.0
  0
LINE
  8
0
  6
CONTINUOUS
 10
71.496128
 20
7.499996
 30
0.0
 11
72.473936
 21
7.499996
 31
0.0
  0
LINE
  8
0
  6
CONTINUOUS
 10
71.506031
 20
5.098556
 30
0.0
 11
72.478167
 21
5.098556
 31
0.0
  0
LINE
  8
0
  6
CONTINUOUS
 10
72.5
 20
0.0
 30
0.0
 11
70.0
 21
0.0
 31
0.0
  0
LINE
  8
0
  6
CONTINUOUS
 10
72.5
 20
7.5
 30
0.0
 11
77.5
 21
7.5
 31
0.0
  0
INSERT
  8
0
  6
CONTINUOUS
  2
BLC15
 10
90.0
 20
7.357916
 30
0.0
 50
90.0
  0
INSERT
  8
0
  6
CONTINUOUS
  2
BLC15
 10
90.0
 20
12.547896
 30
0.0
 50
90.0
  0
LINE
  8
0
  6
DASHED
 10
77.5
 20
7.5
 30
0.0
 11
86.84682
 21
7.5
 31
0.0
  0
LINE
  8
0
  6
DASHED
 10
77.5
 20
12.68998
 30
0.0
 11
86.663362
 21
12.68998
 31
0.0
  0
LINE
  8
0
  6
DASHED
 10
82.5
 20
-12.5
 30
0.0
 11
82.5
 21
7.5
 31
0.0
  0
POLYLINE
  8
0
  6
DASHED
 66
     1
 10
0.0
 20
0.0
 30
0.0
 70
     1
 40
0.25
 41
0.25
 71
     2
 72
   151
  0
VERTEX
  8
0
  6
DASHED
 10
82.125
 20
7.5
 30
0.0
 42
1.0
  0
VERTEX
  8
0
  6
DASHED
 10
82.875
 20
7.5
 30
0.0
 42
1.0
  0
SEQEND
  8
0
  6
DASHED
  0
LINE
  8
0
  6
CONTINUOUS
 10
5.0
 20
-59.6532
 30
0.0
 11
5.0
 21
-65.33813
 31
0.0
  0
LINE
  8
0
  6
CONTINUOUS
 10
0.0
 20
-65.0
 30
0.0
 11
2.5
 21
-65.0
 31
0.0
  0
LINE
  8
0
  6
CONTINUOUS
 10
0.0
 20
-60.0
 30
0.0
 11
2.5
 21
-60.0
 31
0.0
  0
LINE
  8
0
  6
CONTINUOUS
 10
0.0
 20
-45.0
 30
0.0
 11
2.5
 21
-45.0
 31
0.0
  0
LINE
  8
0
  6
CONTINUOUS
 10
0.0
 20
-40.0
 30
0.0
 11
2.5
 21
-40.0
 31
0.0
  0
LINE
  8
0
  6
CONTINUOUS
 10
0.0
 20
-25.0
 30
0.0
 11
2.5
 21
-25.0
 31
0.0
  0
LINE
  8
0
  6
CONTINUOUS
 10
0.0
 20
-20.0
 30
0.0
 11
2.5
 21
-20.0
 31
0.0
  0
LINE
  8
0
  6
CONTINUOUS
 10
0.0
 20
-5.0
 30
0.0
 11
2.5
 21
-5.0
 31
0.0
  0
LINE
  8
0
  6
CONTINUOUS
 10
0.0
 20
0.0
 30
0.0
 11
2.5
 21
0.0
 31
0.0
  0
LINE
  8
0
  6
CONTINUOUS
 10
5.0
 20
0.3468
 30
0.0
 11
4.0
 21
1.3468
 31
0.0
  0
LINE
  8
0
  6
CONTINUOUS
 10
5.0
 20
-5.33813
 30
0.0
 11
4.0
 21
-6.33813
 31
0.0
  0
LINE
  8
0
  6
CONTINUOUS
 10
5.0
 20
0.3468
 30
0.0
 11
5.0
 21
-5.33813
 31
0.0
  0
LINE
  8
0
  6
CONTINUOUS
 10
5.0
 20
-19.6532
 30
0.0
 11
5.0
 21
-25.33813
 31
0.0
  0
LINE
  8
0
  6
CONTINUOUS
 10
5.0
 20
-25.33813
 30
0.0
 11
4.0
 21
-26.33813
 31
0.0
  0
LINE
  8
0
  6
CONTINUOUS
 10
5.0
 20
-19.6532
 30
0.0
 11
4.0
 21
-18.6532
 31
0.0
  0
LINE
  8
0
  6
CONTINUOUS
 10
5.0
 20
-39.6532
 30
0.0
 11
4.0
 21
-38.6532
 31
0.0
  0
LINE
  8
0
  6
CONTINUOUS
 10
5.0
 20
-45.33813
 30
0.0
 11
4.0
 21
-46.33813
 31
0.0
  0
LINE
  8
0
  6
CONTINUOUS
 10
5.0
 20
-39.6532
 30
0.0
 11
5.0
 21
-45.33813
 31
0.0
  0
ENDBLK
  8
0
  0
BLOCK
  8
0
  2
BLC27
 70
    64
 10
0.0
 20
0.0
 30
0.0
  3
BLC27
  0
INSERT
  8
SWEDEN2
  6
CENTER
  2
BLC26
 10
0.08063
 20
0.037985
 30
0.0
 41
1.006225
 42
1.006225
 43
1.006225
  0
ENDBLK
  8
0
  0
BLOCK
  8
0
  2
BLC15
 70
    64
 10
0.0
 20
0.0
 30
0.0
  3
BLC15
  0
LINE
  8
0
  6
CONTINUOUS
 10
0.142084
 20
3.490022
 30
0.0
 11
0.142084
 21
0.844365
 31
0.0
  0
LINE
  8
0
  6
CONTINUOUS
 10
-0.461611
 20
-0.937188
 30
0.0
 11
0.745779
 21
-0.937188
 31
0.0
  0
LINE
  8
0
  6
CONTINUOUS
 10
-0.894108
 20
-0.049675
 30
0.0
 11
1.169267
 21
-0.049675
 31
0.0
  0
LINE
  8
0
  6
CONTINUOUS
 10
-1.389679
 20
0.844365
 30
0.0
 11
1.673848
 21
0.844365
 31
0.0
  0
ENDBLK
  8
0
  0
ENDSEC
  0
SECTION
  2
ENTITIES
  0
INSERT
  8
0
  2
1
 10
65.405438
 20
98.713066
 30
0.0
  0
INSERT
  8
0
  2
1
 10
72.541652
 20
49.71056
 30
0.0
  0
INSERT
  8
0
  2
1
 10
85.390443
 20
73.497234
 30
0.0
  0
LINE
  8
0
  6
CENTER
 62
   249
 10
245.0
 20
220.0
 30
0.0
 11
245.0
 21
112.5
 31
0.0
  0
LINE
  8
0
  6
CENTER
 62
   249
 10
245.0
 20
112.5
 30
0.0
 11
245.0
 21
90.0
 31
0.0
  0
LINE
  8
0
  6
CONTINUOUS
 62
   249
 10
227.5
 20
105.0
 30
0.0
 11
237.5
 21
105.0
 31
0.0
  0
LINE
  8
0
  6
CONTINUOUS
 62
   249
 10
227.5
 20
105.0
 30
0.0
 11
230.0
 21
107.5
 31
0.0
  0
LINE
  8
0
  6
CONTINUOUS
 62
   249
 10
232.5
 20
105.0
 30
0.0
 11
235.0
 21
107.5
 31
0.0
  0
LINE
  8
0
  6
CONTINUOUS
 62
   249
 10
237.5
 20
105.0
 30
0.0
 11
240.0
 21
107.5
 31
0.0
  0
LINE
  8
0
  6
CONTINUOUS
 62
   249
 10
232.5
 20
105.0
 30
0.0
 11
232.5
 21
90.0
 31
0.0
  0
LINE
  8
0
  6
CONTINUOUS
 62
   249
 10
220.0
 20
107.5
 30
0.0
 11
220.0
 21
90.0
 31
0.0
  0
LINE
  8
0
  6
CONTINUOUS
 62
   249
 10
215.0
 20
107.5
 30
0.0
 11
215.0
 21
90.0
 31
0.0
  0
LINE
  8
0
  6
DASHED
 62
   249
 10
220.0
 20
90.0
 30
0.0
 11
220.0
 21
82.5
 31
0.0
  0
LINE
  8
0
  6
DASHED
 62
   249
 10
232.5
 20
90.0
 30
0.0
 11
232.5
 21
82.5
 31
0.0
  0
LINE
  8
0
  6
DASHED
 62
   249
 10
215.0
 20
90.0
 30
0.0
 11
215.0
 21
82.5
 31
0.0
  0
LINE
  8
0
  6
DASHED
 62
   249
 10
190.0
 20
90.0
 30
0.0
 11
190.0
 21
82.5
 31
0.0
  0
LINE
  8
0
  6
DASHED
 62
   249
 10
185.0
 20
90.0
 30
0.0
 11
185.0
 21
82.5
 31
0.0
  0
LINE
  8
0
  6
DASHED
 62
   249
 10
170.0
 20
90.0
 30
0.0
 11
170.0
 21
82.5
 31
0.0
  0
LINE
  8
0
  6
CONTINUOUS
 62
   249
 10
212.950615
 20
212.209828
 30
0.0
 11
212.950615
 21
185.0
 31
0.0
  0
LINE
  8
0
  6
CONTINUOUS
 62
   249
 10
212.950615
 20
235.0
 30
0.0
 11
212.950615
 21
212.18832
 31
0.0
  0
CIRCLE
  8
0
  6
CONTINUOUS
 62
   249
 10
181.512659
 20
187.498324
 30
0.0
 40
1.0
  0
LINE
  8
0
  6
CONTINUOUS
 62
   249
 10
191.757307
 20
229.779942
 30
0.0
 11
189.411542
 21
228.590023
 31
0.0
  0
LINE
  8
0
  6
CONTINUOUS
 62
   249
 10
189.411542
 20
231.115295
 30
0.0
 11
191.757307
 21
229.779942
 31
0.0
  0
LINE
  8
0
  6
CONTINUOUS
 62
   249
 10
182.5
 20
225.0
 30
0.0
 11
182.5
 21
210.0
 31
0.0
  0
LINE
  8
0
  6
CONTINUOUS
 62
   249
 10
182.5
 20
225.0
 30
0.0
 11
182.5
 21
230.0
 31
0.0
  0
LINE
  8
0
  6
CONTINUOUS
 62
   249
 10
182.5
 20
210.0
 30
0.0
 11
182.5
 21
185.0
 31
0.0
  0
LINE
  8
0
  6
CENTER
 62
   249
 10
52.5
 20
250.0
 30
0.0
 11
52.5
 21
90.0
 31
0.0
  0
LINE
  8
0
  6
CONTINUOUS
 62
   249
 10
80.0
 20
152.5
 30
0.0
 11
85.0
 21
152.5
 31
0.0
  0
LINE
  8
0
  6
CONTINUOUS
 62
   249
 10
80.0
 20
152.5
 30
0.0
 11
74.256076
 21
149.285297
 31
0.0
  0
TEXT
  8
0
  6
DASHED
 62
   249
 10
73.197373
 20
153.403492
 30
0.0
 40
2.0
  1
A
  7
ROMANS
  0
TEXT
  8
0
  6
DASHED
 62
   249
 10
91.643373
 20
143.774588
 30
0.0
 40
2.0
  1
B
  7
ROMANS
  0
TEXT
  8
0
  6
DASHED
 62
   249
 10
108.555109
 20
133.134364
 30
0.0
 40
2.0
  1
C
  7
ROMANS
  0
TEXT
  8
0
  6
DASHED
 62
   249
 10
125.984014
 20
123.255752
 30
0.0
 40
2.0
  1
D
  7
ROMANS
  0
TEXT
  8
0
  6
DASHED
 62
   249
 10
140.671573
 20
113.364654
 30
0.0
 40
2.0
  1
E
  7
ROMANS
  0
TEXT
  8
0
  6
DASHED
 62
   249
 10
156.066284
 20
103.236332
 30
0.0
 40
2.0
  1
F
  7
ROMANS
  0
LINE
  8
0
  6
CENTER
 62
   249
 10
52.5
 20
90.0
 30
0.0
 11
245.0
 21
90.0
 31
0.0
  0
LINE
  8
0
  6
CONTINUOUS
 62
   249
 10
167.5
 20
102.5
 30
0.0
 11
170.0
 21
102.5
 31
0.0
  0
LINE
  8
0
  6
CONTINUOUS
 62
   249
 10
170.0
 20
102.5
 30
0.0
 11
170.0
 21
90.0
 31
0.0
  0
LINE
  8
0
  6
CENTER
 62
   249
 10
245.0
 20
250.0
 30
0.0
 11
52.5
 21
250.0
 31
0.0
  0
LINE
  8
0
  6
DASHED
 62
   249
 10
197.5
 20
90.0
 30
0.0
 11
197.5
 21
82.5
 31
0.0
  0
LINE
  8
0
  6
DASHED
 62
   249
 10
202.5
 20
90.0
 30
0.0
 11
202.5
 21
82.5
 31
0.0
  0
ARC
  8
0
  6
CONTINUOUS
 62
   249
 10
247.5
 20
172.5
 30
0.0
 40
2.5
 50
90.0
 51
270.0
  0
LINE
  8
0
  6
CONTINUOUS
 62
   249
 10
361.989227
 20
236.970759
 30
0.0
 11
361.989227
 21
235.182628
 31
0.0
  0
LINE
  8
0
  6
CONTINUOUS
 62
   249
 10
359.035115
 20
238.323644
 30
0.0
 11
359.935792
 21
237.199894
 31
0.0
  0
LINE
  8
0
  6
CONTINUOUS
 62
   249
 10
356.589708
 20
234.957878
 30
0.0
 11
359.465818
 21
237.786437
 31
0.0
  0
LINE
  8
0
  6
CONTINUOUS
 62
   249
 10
354.205563
 20
236.125481
 30
0.0
 11
361.993768
 21
236.125481
 31
0.0
  0
LINE
  8
0
  6
CONTINUOUS
 62
   249
 10
354.174531
 20
236.970759
 30
0.0
 11
354.174531
 21
235.182628
 31
0.0
  0
TEXT
  8
0
  6
DASHED
 62
   249
 10
29.288964
 20
236.807542
 30
0.0
 40
2.0
  1
1)
  7
ROMANS
  0
TEXT
  8
0
  6
CONTINUOUS
 62
   249
 10
207.347994
 20
230.823751
 30
0.0
 40
2.5
  1
U1
  7
ROMANS
  0
LINE
  8
0
  6
CONTINUOUS
 62
   249
 10
202.5
 20
210.0
 30
0.0
 11
202.5
 21
195.0
 31
0.0
  0
LINE
  8
0
  6
CONTINUOUS
 62
   249
 10
192.5
 20
233.021206
 30
0.0
 11
195.0
 21
233.021206
 31
0.0
  0
LINE
  8
0
  6
CONTINUOUS
 62
   249
 10
192.5
 20
233.021206
 30
0.0
 11
190.275553
 21
232.460564
 31
0.0
  0
LINE
  8
0
  6
CONTINUOUS
 62
   249
 10
187.5
 20
233.021206
 30
0.0
 11
190.0
 21
233.021206
 31
0.0
  0
TEXT
  8
0
  6
CONTINUOUS
 62
   249
 10
183.406909
 20
232.263189
 30
0.0
 40
1.5
  1
EN
  0
CIRCLE
  8
0
  6
CONTINUOUS
 62
   249
 10
181.499833
 20
233.016691
 30
0.0
 40
1.0
  0
LINE
  8
0
  6
CONTINUOUS
 62
   249
 10
182.5
 20
227.5
 30
0.0
 11
202.5
 21
227.5
 31
0.0
  0
LINE
  8
0
  6
CONTINUOUS
 62
   249
 10
182.5
 20
230.0
 30
0.0
 11
182.5
 21
235.0
 31
0.0
  0
LINE
  8
0
  6
CONTINUOUS
 62
   249
 10
182.5
 20
235.0
 30
0.0
 11
212.950615
 21
235.0
 31
0.0
  0
LINE
  8
0
  6
CONTINUOUS
 62
   249
 10
202.5
 20
210.0
 30
0.0
 11
202.5
 21
235.0
 31
0.0
  0
LINE
  8
0
  6
CONTINUOUS
 62
   249
 10
147.5
 20
229.753087
 30
0.0
 11
147.5
 21
162.5
 31
0.0
  0
LINE
  8
0
  6
CONTINUOUS
 62
   249
 10
132.5
 20
165.0
 30
0.0
 11
132.5
 21
162.5
 31
0.0
  0
LINE
  8
0
  6
CONTINUOUS
 62
   249
 10
115.0
 20
165.0
 30
0.0
 11
115.0
 21
162.5
 31
0.0
  0
LINE
  8
0
  6
CONTINUOUS
 62
   249
 10
97.5
 20
165.0
 30
0.0
 11
97.5
 21
162.5
 31
0.0
  0
LINE
  8
0
  6
CONTINUOUS
 62
   249
 10
140.0
 20
122.5
 30
0.0
 11
185.00793
 21
122.5
 31
0.0
  0
LINE
  8
0
  6
CONTINUOUS
 62
   249
 10
85.0
 20
152.5
 30
0.0
 11
197.482972
 21
152.5
 31
0.0
  0
LINE
  8
0
  6
CONTINUOUS
 62
   249
 10
155.0
 20
112.5
 30
0.0
 11
180.0
 21
112.5
 31
0.0
  0
LINE
  8
0
  6
CONTINUOUS
 62
   249
 10
125.0
 20
122.5
 30
0.0
 11
52.5
 21
122.5
 31
0.0
  0
LINE
  8
0
  6
CONTINUOUS
 62
   249
 10
125.0
 20
117.5
 30
0.0
 11
52.5
 21
117.5
 31
0.0
  0
LINE
  8
0
  6
CONTINUOUS
 62
   249
 10
140.0
 20
112.5
 30
0.0
 11
52.5
 21
112.5
 31
0.0
  0
LINE
  8
0
  6
CONTINUOUS
 62
   249
 10
140.0
 20
107.5
 30
0.0
 11
52.5
 21
107.5
 31
0.0
  0
LINE
  8
0
  6
CONTINUOUS
 62
   249
 10
152.5
 20
102.5
 30
0.0
 11
52.5
 21
102.5
 31
0.0
  0
LINE
  8
0
  6
CONTINUOUS
 62
   249
 10
152.5
 20
97.5
 30
0.0
 11
52.5
 21
97.5
 31
0.0
  0
LINE
  8
0
  6
CONTINUOUS
 62
   249
 10
180.51266
 20
187.495289
 30
0.0
 11
160.0
 21
187.495289
 31
0.0
  0
LINE
  8
0
  6
CONTINUOUS
 62
   249
 10
160.0
 20
187.495289
 30
0.0
 11
160.0
 21
157.5
 31
0.0
  0
LINE
  8
0
  6
DASHED
 62
   249
 10
160.0
 20
157.5
 30
0.0
 11
160.0
 21
101.100824
 31
0.0
  0
LINE
  8
0
  6
DASHED
 62
   249
 10
147.5
 20
162.5
 30
0.0
 11
147.5
 21
111.100824
 31
0.0
  0
LINE
  8
0
  6
DASHED
 62
   249
 10
132.5
 20
162.5
 30
0.0
 11
132.5
 21
121.100824
 31
0.0
  0
LINE
  8
0
  6
DASHED
 62
   249
 10
115.0
 20
162.5
 30
0.0
 11
115.0
 21
131.100824
 31
0.0
  0
LINE
  8
0
  6
DASHED
 62
   249
 10
97.5
 20
162.5
 30
0.0
 11
97.5
 21
141.100824
 31
0.0
  0
LINE
  8
0
  6
DASHED
 62
   249
 10
77.5
 20
162.5
 30
0.0
 11
77.5
 21
151.100824
 31
0.0
  0
TEXT
  8
0
  6
CONTINUOUS
 62
   249
 10
60.913303
 20
175.010709
 30
0.0
 40
2.0
  1
SGR
  7
ROMANS
  0
LINE
  8
0
  6
CONTINUOUS
 62
   249
 10
182.5
 20
192.5
 30
0.0
 11
182.5
 21
187.5
 31
0.0
  0
LINE
  8
0
  6
CENTER
 62
   249
 10
245.0
 20
250.0
 30
0.0
 11
245.0
 21
220.0
 31
0.0
  0
LINE
  8
0
  6
CONTINUOUS
 62
   249
 10
227.5
 20
207.5
 30
0.0
 11
212.950615
 21
207.5
 31
0.0
  0
LINE
  8
0
  6
CONTINUOUS
 62
   249
 10
348.574256
 20
233.918587
 30
0.0
 11
368.574256
 21
233.918587
 31
0.0
  0
LINE
  8
0
  6
CONTINUOUS
 62
   249
 10
348.574256
 20
253.918587
 30
0.0
 11
368.574256
 21
253.918587
 31
0.0
  0
LINE
  8
0
  6
CONTINUOUS
 62
   249
 10
368.574256
 20
253.918587
 30
0.0
 11
368.574256
 21
233.918587
 31
0.0
  0
LINE
  8
0
  6
CONTINUOUS
 62
   249
 10
348.574256
 20
233.918587
 30
0.0
 11
348.574256
 21
253.918587
 31
0.0
  0
LINE
  8
0
  6
DASHED
 62
   249
 10
250.0
 20
172.5
 30
0.0
 11
277.5
 21
172.5
 31
0.0
  0
LINE
  8
0
  6
CONTINUOUS
 62
   249
 10
253.785541
 20
171.75712
 30
0.0
 11
255.002248
 21
173.167057
 31
0.0
  0
TEXT
  8
0
  6
CONTINUOUS
 62
   249
 10
254.758907
 20
174.070297
 30
0.0
 40
2.0
  1
9
  7
ROMANS
  0
LINE
  8
0
  6
DASHED
 62
   249
 10
52.5
 20
152.5
 30
0.0
 11
45.0
 21
152.5
 31
0.0
  0
LINE
  8
0
  6
DASHED
 62
   249
 10
52.5
 20
142.5
 30
0.0
 11
45.0
 21
142.5
 31
0.0
  0
LINE
  8
0
  6
DASHED
 62
   249
 10
52.5
 20
132.5
 30
0.0
 11
45.0
 21
132.5
 31
0.0
  0
LINE
  8
0
  6
DASHED
 62
   249
 10
52.5
 20
122.5
 30
0.0
 11
45.0
 21
122.5
 31
0.0
  0
LINE
  8
0
  6
DASHED
 62
   249
 10
52.5
 20
112.5
 30
0.0
 11
45.0
 21
112.5
 31
0.0
  0
LINE
  8
0
  6
DASHED
 62
   249
 10
52.5
 20
97.5
 30
0.0
 11
45.0
 21
97.5
 31
0.0
  0
LINE
  8
0
  6
CONTINUOUS
 62
   249
 10
42.5
 20
153.0
 30
0.0
 11
42.5
 21
142.0
 31
0.0
  0
LINE
  8
0
  6
CONTINUOUS
 62
   249
 10
42.5
 20
153.0
 30
0.0
 11
43.5
 21
154.0
 31
0.0
  0
LINE
  8
0
  6
CONTINUOUS
 62
   249
 10
42.5
 20
142.0
 30
0.0
 11
43.5
 21
141.0
 31
0.0
  0
LINE
  8
0
  6
CONTINUOUS
 62
   249
 10
42.5
 20
112.0
 30
0.0
 11
43.5
 21
111.0
 31
0.0
  0
LINE
  8
0
  6
CONTINUOUS
 62
   249
 10
42.5
 20
133.0
 30
0.0
 11
42.5
 21
112.0
 31
0.0
  0
LINE
  8
0
  6
CONTINUOUS
 62
   249
 10
42.5
 20
133.0
 30
0.0
 11
43.5
 21
134.0
 31
0.0
  0
TEXT
  8
0
  6
CONTINUOUS
 62
   249
 10
35.0
 20
147.080516
 30
0.0
 40
2.0
  1
3)
  7
ROMANS
  0
TEXT
  8
0
  6
CONTINUOUS
 62
   249
 10
35.0
 20
121.490278
 30
0.0
 40
2.0
  1
4)
  7
ROMANS
  0
TEXT
  8
0
  6
CONTINUOUS
 62
   249
 10
35.0
 20
96.480208
 30
0.0
 40
2.0
  1
5)
  7
ROMANS
  0
LINE
  8
0
  6
CONTINUOUS
 62
   249
 10
62.5
 20
235.0
 30
0.0
 11
52.5
 21
235.0
 31
0.0
  0
LINE
  8
0
  6
CONTINUOUS
 62
   249
 10
75.298812
 20
235.0
 30
0.0
 11
60.598812
 21
235.0
 31
0.0
  0
LINE
  8
0
  6
CONTINUOUS
 62
   249
 10
75.298812
 20
240.0
 30
0.0
 11
66.000004
 21
240.0
 31
0.0
  0
LINE
  8
0
 62
   249
 10
75.298812
 20
241.589925
 30
0.0
 11
75.298812
 21
233.4
 31
0.0
  0
LINE
  8
0
 62
   249
 10
79.504853
 20
241.59384
 30
0.0
 11
77.59105
 21
239.315018
 31
0.0
  0
LINE
  8
0
 62
   249
 10
80.996971
 20
241.59384
 30
0.0
 11
79.142636
 21
239.315018
 31
0.0
  0
LINE
  8
0
 62
   249
 10
82.721556
 20
241.589925
 30
0.0
 11
75.298812
 21
241.589925
 31
0.0
  0
LINE
  8
0
 62
   249
 10
75.298812
 20
233.4
 30
0.0
 11
82.721556
 21
233.4
 31
0.0
  0
LINE
  8
0
 62
   249
 10
82.721556
 20
233.4
 30
0.0
 11
82.721556
 21
241.589925
 31
0.0
  0
LINE
  8
0
  6
CONTINUOUS
 62
   249
 10
82.721556
 20
237.5
 30
0.0
 11
170.0
 21
237.5
 31
0.0
  0
LINE
  8
0
  6
CONTINUOUS
 62
   249
 10
75.0
 20
152.5
 30
0.0
 11
66.000004
 21
152.5
 31
0.0
  0
TEXT
  8
0
  6
DASHED
 62
   249
 10
204.887534
 20
224.310712
 30
0.0
 40
2.5
  1
U
  0
TEXT
  8
0
  6
DASHED
 62
   249
 10
183.798048
 20
228.476412
 30
0.0
 40
2.5
  1
U
  0
TEXT
  8
0
  6
DASHED
 62
   249
 10
183.798048
 20
220.976412
 30
0.0
 40
2.5
  1
U
  0
TEXT
  8
0
  6
CONTINUOUS
 62
   249
 10
183.406909
 20
224.763189
 30
0.0
 40
1.5
  1
EN
  0
LINE
  8
0
  6
CONTINUOUS
 62
   249
 10
187.5
 20
225.521206
 30
0.0
 11
190.0
 21
225.521206
 31
0.0
  0
LINE
  8
0
  6
CONTINUOUS
 62
   249
 10
192.5
 20
225.521206
 30
0.0
 11
190.275553
 21
224.960564
 31
0.0
  0
LINE
  8
0
  6
CONTINUOUS
 62
   249
 10
192.5
 20
225.521206
 30
0.0
 11
195.0
 21
225.521206
 31
0.0
  0
LINE
  8
0
  6
CONTINUOUS
 62
   249
 10
182.5
 20
220.0
 30
0.0
 11
212.950615
 21
220.0
 31
0.0
  0
CIRCLE
  8
0
  6
CONTINUOUS
 62
   249
 10
181.499701
 20
225.516691
 30
0.0
 40
1.0
  0
LINE
  8
0
  6
CONTINUOUS
 62
   249
 10
201.467927
 20
230.637067
 30
0.0
 11
201.467927
 21
228.848936
 31
0.0
  0
LINE
  8
0
  6
CONTINUOUS
 62
   249
 10
199.10144
 20
231.989952
 30
0.0
 11
200.002117
 21
230.866203
 31
0.0
  0
LINE
  8
0
  6
CONTINUOUS
 62
   249
 10
196.679452
 20
228.624186
 30
0.0
 11
199.555563
 21
231.452745
 31
0.0
  0
LINE
  8
0
  6
CONTINUOUS
 62
   249
 10
194.264276
 20
229.791789
 30
0.0
 11
201.472468
 21
229.791789
 31
0.0
  0
LINE
  8
0
  6
CONTINUOUS
 62
   249
 10
194.264276
 20
230.637067
 30
0.0
 11
194.264276
 21
228.848936
 31
0.0
  0
LINE
  8
0
  6
CONTINUOUS
 62
   249
 10
194.264276
 20
223.030407
 30
0.0
 11
194.264276
 21
221.242275
 31
0.0
  0
LINE
  8
0
  6
CONTINUOUS
 62
   249
 10
194.264276
 20
222.185128
 30
0.0
 11
201.472468
 21
222.185128
 31
0.0
  0
LINE
  8
0
  6
CONTINUOUS
 62
   249
 10
196.679452
 20
221.017526
 30
0.0
 11
199.555563
 21
223.846084
 31
0.0
  0
LINE
  8
0
  6
CONTINUOUS
 62
   249
 10
199.10144
 20
224.383291
 30
0.0
 11
200.002117
 21
223.259542
 31
0.0
  0
LINE
  8
0
  6
CONTINUOUS
 62
   249
 10
201.467927
 20
223.030407
 30
0.0
 11
201.467927
 21
221.242275
 31
0.0
  0
LINE
  8
0
  6
CONTINUOUS
 62
   249
 10
193.688231
 20
222.181231
 30
0.0
 11
191.342466
 21
220.991312
 31
0.0
  0
LINE
  8
0
  6
CONTINUOUS
 62
   249
 10
189.437519
 20
223.516585
 30
0.0
 11
191.783285
 21
222.181231
 31
0.0
  0
LINE
  8
0
  6
CONTINUOUS
 62
   249
 10
191.783285
 20
222.181231
 30
0.0
 11
189.437519
 21
220.991312
 31
0.0
  0
LINE
  8
0
  6
CONTINUOUS
 62
   249
 10
191.342466
 20
223.516585
 30
0.0
 11
193.688231
 21
222.181231
 31
0.0
  0
LINE
  8
0
  6
CONTINUOUS
 62
   249
 10
67.5
 20
165.0
 30
0.0
 11
87.5
 21
165.0
 31
0.0
  0
LINE
  8
0
  6
CONTINUOUS
 62
   249
 10
67.5
 20
170.0
 30
0.0
 11
67.5
 21
165.0
 31
0.0
  0
LINE
  8
0
  6
CONTINUOUS
 62
   249
 10
87.5
 20
170.0
 30
0.0
 11
87.5
 21
165.0
 31
0.0
  0
LINE
  8
0
  6
CONTINUOUS
 62
   249
 10
87.5
 20
170.0
 30
0.0
 11
67.5
 21
170.0
 31
0.0
  0
LINE
  8
0
  6
CONTINUOUS
 62
   249
 10
77.5
 20
165.0
 30
0.0
 11
77.5
 21
162.5
 31
0.0
  0
LINE
  8
0
  6
CONTINUOUS
 62
   249
 10
77.5
 20
165.0
 30
0.0
 11
77.5
 21
162.5
 31
0.0
  0
LINE
  8
0
  6
CONTINUOUS
 62
   249
 10
76.759134
 20
167.789195
 30
0.0
 11
74.413369
 21
166.599276
 31
0.0
  0
LINE
  8
0
  6
CONTINUOUS
 62
   249
 10
74.405327
 20
165.799262
 30
0.0
 11
76.788787
 21
166.987454
 31
0.0
  0
LINE
  8
0
  6
CONTINUOUS
 62
   249
 10
74.413369
 20
169.124549
 30
0.0
 11
76.759134
 21
167.789195
 31
0.0
  0
TEXT
  8
0
  6
CONTINUOUS
 62
   249
 10
78.84723
 20
166.464455
 30
0.0
 40
2.5
  1
1
 11
78.84723
 21
165.631122
 31
0.0
 73
     1
  0
LINE
  8
0
  6
CONTINUOUS
 62
   249
 10
70.0
 20
172.5
 30
0.0
 11
68.285914
 21
177.586297
 31
0.0
  0
LINE
  8
0
  6
CONTINUOUS
 62
   249
 10
70.0
 20
170.0
 30
0.0
 11
70.0
 21
172.5
 31
0.0
  0
LINE
  8
0
  6
CONTINUOUS
 62
   249
 10
75.0
 20
172.5
 30
0.0
 11
73.285914
 21
177.586297
 31
0.0
  0
LINE
  8
0
  6
CONTINUOUS
 62
   249
 10
75.0
 20
170.0
 30
0.0
 11
75.0
 21
172.5
 31
0.0
  0
LINE
  8
0
  6
CONTINUOUS
 62
   249
 10
85.0
 20
170.0
 30
0.0
 11
85.0
 21
172.5
 31
0.0
  0
LINE
  8
0
  6
CONTINUOUS
 62
   249
 10
85.0
 20
172.5
 30
0.0
 11
83.285914
 21
177.586297
 31
0.0
  0
LINE
  8
0
  6
CONTINUOUS
 62
   249
 10
80.0
 20
170.0
 30
0.0
 11
80.0
 21
172.5
 31
0.0
  0
LINE
  8
0
  6
CONTINUOUS
 62
   249
 10
80.0
 20
172.5
 30
0.0
 11
78.285914
 21
177.586297
 31
0.0
  0
LINE
  8
0
  6
CONTINUOUS
 62
   249
 10
102.5
 20
172.5
 30
0.0
 11
100.785914
 21
177.586297
 31
0.0
  0
LINE
  8
0
  6
CONTINUOUS
 62
   249
 10
102.5
 20
170.0
 30
0.0
 11
102.5
 21
172.5
 31
0.0
  0
LINE
  8
0
  6
CONTINUOUS
 62
   249
 10
97.5
 20
170.0
 30
0.0
 11
97.5
 21
222.151573
 31
0.0
  0
LINE
  8
0
  6
CONTINUOUS
 62
   249
 10
92.5
 20
170.0
 30
0.0
 11
92.5
 21
172.5
 31
0.0
  0
LINE
  8
0
  6
CONTINUOUS
 62
   249
 10
92.5
 20
172.5
 30
0.0
 11
90.785914
 21
177.586297
 31
0.0
  0
TEXT
  8
0
  6
CONTINUOUS
 62
   249
 10
98.973522
 20
166.464455
 30
0.0
 40
2.5
  1
1
 11
98.973522
 21
165.631122
 31
0.0
 73
     1
  0
LINE
  8
0
  6
CONTINUOUS
 62
   249
 10
94.53966
 20
169.124549
 30
0.0
 11
96.885426
 21
167.789195
 31
0.0
  0
LINE
  8
0
  6
CONTINUOUS
 62
   249
 10
94.531619
 20
165.799262
 30
0.0
 11
96.915079
 21
166.987454
 31
0.0
  0
LINE
  8
0
  6
CONTINUOUS
 62
   249
 10
96.885426
 20
167.789195
 30
0.0
 11
94.53966
 21
166.599276
 31
0.0
  0
LINE
  8
0
  6
CONTINUOUS
 62
   249
 10
105.0
 20
170.0
 30
0.0
 11
90.0
 21
170.0
 31
0.0
  0
LINE
  8
0
  6
CONTINUOUS
 62
   249
 10
105.0
 20
170.0
 30
0.0
 11
105.0
 21
165.0
 31
0.0
  0
LINE
  8
0
  6
CONTINUOUS
 62
   249
 10
90.0
 20
170.0
 30
0.0
 11
90.0
 21
165.0
 31
0.0
  0
LINE
  8
0
  6
CONTINUOUS
 62
   249
 10
90.0
 20
165.0
 30
0.0
 11
105.0
 21
165.0
 31
0.0
  0
LINE
  8
0
  6
CONTINUOUS
 62
   249
 10
110.0
 20
165.0
 30
0.0
 11
120.0
 21
165.0
 31
0.0
  0
LINE
  8
0
  6
CONTINUOUS
 62
   249
 10
110.0
 20
170.0
 30
0.0
 11
110.0
 21
165.0
 31
0.0
  0
LINE
  8
0
  6
CONTINUOUS
 62
   249
 10
120.0
 20
170.0
 30
0.0
 11
120.0
 21
165.0
 31
0.0
  0
LINE
  8
0
  6
CONTINUOUS
 62
   249
 10
120.0
 20
170.0
 30
0.0
 11
110.0
 21
170.0
 31
0.0
  0
LINE
  8
0
  6
CONTINUOUS
 62
   249
 10
114.385426
 20
167.789195
 30
0.0
 11
112.03966
 21
166.599276
 31
0.0
  0
LINE
  8
0
  6
CONTINUOUS
 62
   249
 10
112.031619
 20
165.799262
 30
0.0
 11
114.415079
 21
166.987454
 31
0.0
  0
LINE
  8
0
  6
CONTINUOUS
 62
   249
 10
112.03966
 20
169.124549
 30
0.0
 11
114.385426
 21
167.789195
 31
0.0
  0
TEXT
  8
0
  6
CONTINUOUS
 62
   249
 10
116.473522
 20
166.464455
 30
0.0
 40
2.5
  1
1
 11
116.473522
 21
165.631122
 31
0.0
 73
     1
  0
LINE
  8
0
  6
CONTINUOUS
 62
   249
 10
112.5
 20
170.0
 30
0.0
 11
112.5
 21
209.595192
 31
0.0
  0
LINE
  8
0
  6
CONTINUOUS
 62
   249
 10
130.0
 20
170.0
 30
0.0
 11
130.0
 21
197.07352
 31
0.0
  0
TEXT
  8
0
  6
CONTINUOUS
 62
   249
 10
133.973522
 20
166.464455
 30
0.0
 40
2.5
  1
1
 11
133.973522
 21
165.631122
 31
0.0
 73
     1
  0
LINE
  8
0
  6
CONTINUOUS
 62
   249
 10
129.53966
 20
169.124549
 30
0.0
 11
131.885426
 21
167.789195
 31
0.0
  0
LINE
  8
0
  6
CONTINUOUS
 62
   249
 10
129.531619
 20
165.799262
 30
0.0
 11
131.915079
 21
166.987454
 31
0.0
  0
LINE
  8
0
  6
CONTINUOUS
 62
   249
 10
131.885426
 20
167.789195
 30
0.0
 11
129.53966
 21
166.599276
 31
0.0
  0
LINE
  8
0
  6
CONTINUOUS
 62
   249
 10
137.5
 20
170.0
 30
0.0
 11
127.5
 21
170.0
 31
0.0
  0
LINE
  8
0
  6
CONTINUOUS
 62
   249
 10
137.5
 20
170.0
 30
0.0
 11
137.5
 21
165.0
 31
0.0
  0
LINE
  8
0
  6
CONTINUOUS
 62
   249
 10
127.5
 20
170.0
 30
0.0
 11
127.5
 21
165.0
 31
0.0
  0
LINE
  8
0
  6
CONTINUOUS
 62
   249
 10
127.5
 20
165.0
 30
0.0
 11
137.5
 21
165.0
 31
0.0
  0
LINE
  8
0
  6
CONTINUOUS
 62
   249
 10
135.0
 20
170.0
 30
0.0
 11
135.0
 21
172.5
 31
0.0
  0
LINE
  8
0
  6
CONTINUOUS
 62
   249
 10
135.0
 20
172.5
 30
0.0
 11
133.285914
 21
177.586297
 31
0.0
  0
LINE
  8
0
  6
CONTINUOUS
 62
   249
 10
117.5
 20
172.5
 30
0.0
 11
115.785914
 21
177.586297
 31
0.0
  0
LINE
  8
0
  6
CONTINUOUS
 62
   249
 10
117.5
 20
170.0
 30
0.0
 11
117.5
 21
172.5
 31
0.0
  0
LINE
  8
0
  6
CONTINUOUS
 62
   249
 10
70.0
 20
209.595192
 30
0.0
 11
70.0
 21
177.5
 31
0.0
  0
LINE
  8
0
  6
CONTINUOUS
 62
   249
 10
80.0
 20
229.753087
 30
0.0
 11
80.0
 21
177.5
 31
0.0
  0
LINE
  8
0
  6
CONTINUOUS
 62
   249
 10
92.5
 20
209.595192
 30
0.0
 11
92.5
 21
177.5
 31
0.0
  0
LINE
  8
0
  6
CONTINUOUS
 62
   249
 10
102.5
 20
197.07352
 30
0.0
 11
102.5
 21
177.5
 31
0.0
  0
LINE
  8
0
  6
CONTINUOUS
 62
   249
 10
117.5
 20
217.569839
 30
0.0
 11
117.5
 21
177.5
 31
0.0
  0
LINE
  8
0
  6
CONTINUOUS
 62
   249
 10
135.0
 20
205.022135
 30
0.0
 11
135.0
 21
177.5
 31
0.0
  0
LINE
  8
0
  6
CONTINUOUS
 62
   249
 10
182.5
 20
229.753087
 30
0.0
 11
80.0
 21
229.753087
 31
0.0
  0
LINE
  8
0
  6
CONTINUOUS
 62
   249
 10
75.0
 20
177.5
 30
0.0
 11
75.0
 21
197.07352
 31
0.0
  0
LINE
  8
0
  6
CONTINUOUS
 62
   249
 10
85.0
 20
177.5
 30
0.0
 11
85.0
 21
222.151573
 31
0.0
  0
TEXT
  8
0
  6
CONTINUOUS
 62
   249
 10
70.69994
 20
175.0
 30
0.0
 40
2.0
  1
1
  7
ROMANS
  0
TEXT
  8
0
  6
CONTINUOUS
 62
   249
 10
75.69994
 20
175.0
 30
0.0
 40
2.0
  1
2
  7
ROMANS
  0
TEXT
  8
0
  6
CONTINUOUS
 62
   249
 10
80.69994
 20
175.0
 30
0.0
 40
2.0
  1
3
  7
ROMANS
  0
TEXT
  8
0
  6
CONTINUOUS
 62
   249
 10
85.69994
 20
175.0
 30
0.0
 40
2.0
  1
4
  7
ROMANS
  0
TEXT
  8
0
  6
CONTINUOUS
 62
   249
 10
93.19994
 20
175.0
 30
0.0
 40
2.0
  1
5
  7
ROMANS
  0
TEXT
  8
0
  6
CONTINUOUS
 62
   249
 10
103.19994
 20
175.0
 30
0.0
 40
2.0
  1
6
  7
ROMANS
  0
TEXT
  8
0
  6
CONTINUOUS
 62
   249
 10
118.19994
 20
175.0
 30
0.0
 40
2.0
  1
7
  7
ROMANS
  0
TEXT
  8
0
  6
CONTINUOUS
 62
   249
 10
135.69994
 20
175.0
 30
0.0
 40
2.0
  1
8
  7
ROMANS
  0
LINE
  8
0
  6
CONTINUOUS
 62
   249
 10
180.499836
 20
233.014298
 30
0.0
 11
170.0
 21
233.014298
 31
0.0
  0
LINE
  8
0
  6
CONTINUOUS
 62
   249
 10
170.0
 20
200.490705
 30
0.0
 11
170.0
 21
237.5
 31
0.0
  0
LINE
  8
0
  6
CONTINUOUS
 62
   249
 10
180.499707
 20
225.51836
 30
0.0
 11
170.0
 21
225.51836
 31
0.0
  0
LINE
  8
0
  6
CONTINUOUS
 62
   249
 10
95.0
 20
137.5
 30
0.0
 11
95.0
 21
140.0
 31
0.0
  0
LINE
  8
0
  6
CONTINUOUS
 62
   249
 10
95.0
 20
137.5
 30
0.0
 11
52.5
 21
137.5
 31
0.0
  0
LINE
  8
0
  6
CONTINUOUS
 62
   249
 10
100.0
 20
142.5
 30
0.0
 11
94.256076
 21
139.285297
 31
0.0
  0
LINE
  8
0
  6
CONTINUOUS
 62
   249
 10
52.5
 20
142.5
 30
0.0
 11
60.0
 21
142.5
 31
0.0
  0
LINE
  8
0
  6
CONTINUOUS
 62
   249
 10
100.0
 20
142.5
 30
0.0
 11
105.0
 21
142.5
 31
0.0
  0
LINE
  8
0
  6
CONTINUOUS
 62
   249
 10
112.5
 20
127.5
 30
0.0
 11
112.5
 21
130.0
 31
0.0
  0
LINE
  8
0
  6
CONTINUOUS
 62
   249
 10
112.5
 20
127.5
 30
0.0
 11
52.5
 21
127.5
 31
0.0
  0
LINE
  8
0
  6
CONTINUOUS
 62
   249
 10
117.5
 20
132.5
 30
0.0
 11
111.756076
 21
129.285297
 31
0.0
  0
LINE
  8
0
  6
CONTINUOUS
 62
   249
 10
52.5
 20
132.5
 30
0.0
 11
112.5
 21
132.5
 31
0.0
  0
LINE
  8
0
  6
CONTINUOUS
 62
   249
 10
117.5
 20
132.5
 30
0.0
 11
122.5
 21
132.5
 31
0.0
  0
LINE
  8
0
  6
CONTINUOUS
 62
   249
 10
130.0
 20
117.5
 30
0.0
 11
130.0
 21
120.0
 31
0.0
  0
LINE
  8
0
  6
CONTINUOUS
 62
   249
 10
130.0
 20
117.5
 30
0.0
 11
125.0
 21
117.5
 31
0.0
  0
LINE
  8
0
  6
CONTINUOUS
 62
   249
 10
135.0
 20
122.5
 30
0.0
 11
129.256076
 21
119.285297
 31
0.0
  0
LINE
  8
0
  6
CONTINUOUS
 62
   249
 10
125.0
 20
122.5
 30
0.0
 11
130.0
 21
122.5
 31
0.0
  0
LINE
  8
0
  6
CONTINUOUS
 62
   249
 10
135.0
 20
122.5
 30
0.0
 11
140.0
 21
122.5
 31
0.0
  0
LINE
  8
0
  6
CONTINUOUS
 62
   249
 10
145.0
 20
107.5
 30
0.0
 11
145.0
 21
110.0
 31
0.0
  0
LINE
  8
0
  6
CONTINUOUS
 62
   249
 10
145.0
 20
107.5
 30
0.0
 11
140.0
 21
107.5
 31
0.0
  0
LINE
  8
0
  6
CONTINUOUS
 62
   249
 10
150.0
 20
112.5
 30
0.0
 11
144.256076
 21
109.285297
 31
0.0
  0
LINE
  8
0
  6
CONTINUOUS
 62
   249
 10
140.0
 20
112.5
 30
0.0
 11
145.0
 21
112.5
 31
0.0
  0
LINE
  8
0
  6
CONTINUOUS
 62
   249
 10
150.0
 20
112.5
 30
0.0
 11
155.0
 21
112.5
 31
0.0
  0
LINE
  8
0
  6
CONTINUOUS
 62
   249
 10
157.5
 20
97.5
 30
0.0
 11
157.5
 21
100.0
 31
0.0
  0
LINE
  8
0
  6
CONTINUOUS
 62
   249
 10
157.5
 20
97.5
 30
0.0
 11
152.5
 21
97.5
 31
0.0
  0
LINE
  8
0
  6
CONTINUOUS
 62
   249
 10
162.5
 20
102.5
 30
0.0
 11
156.756076
 21
99.285297
 31
0.0
  0
LINE
  8
0
  6
CONTINUOUS
 62
   249
 10
152.5
 20
102.5
 30
0.0
 11
157.5
 21
102.5
 31
0.0
  0
LINE
  8
0
  6
CONTINUOUS
 62
   249
 10
162.5
 20
102.5
 30
0.0
 11
167.5
 21
102.5
 31
0.0
  0
LINE
  8
0
  6
CONTINUOUS
 62
   249
 10
185.00793
 20
132.5
 30
0.0
 11
122.5
 21
132.5
 31
0.0
  0
LINE
  8
0
  6
CONTINUOUS
 62
   249
 10
190.0
 20
90.0
 30
0.0
 11
190.0
 21
142.5
 31
0.0
  0
LINE
  8
0
  6
CONTINUOUS
 62
   249
 10
190.0
 20
142.5
 30
0.0
 11
105.0
 21
142.5
 31
0.0
  0
TEXT
  8
0
  6
CONTINUOUS
 62
   249
 10
172.781607
 20
90.964216
 30
0.0
 40
2.0
  1
108:72
 50
90.0
  7
ROMANS
  0
TEXT
  8
0
  6
CONTINUOUS
 62
   249
 10
177.788709
 20
90.964216
 30
0.0
 40
2.0
  1
101
 50
90.0
  7
ROMANS
  0
TEXT
  8
0
  6
CONTINUOUS
 62
   249
 10
182.780595
 20
90.964216
 30
0.0
 40
2.0
  1
13A
 50
90.0
  7
ROMANS
  0
TEXT
  8
0
  6
CONTINUOUS
 62
   249
 10
187.939858
 20
90.964216
 30
0.0
 40
2.0
  1
2A
 50
90.0
  7
ROMANS
  0
TEXT
  8
0
  6
CONTINUOUS
 62
   249
 10
193.083905
 20
90.964216
 30
0.0
 40
2.0
  1
108:69
 50
90.0
  7
ROMANS
  0
TEXT
  8
0
  6
CONTINUOUS
 62
   249
 10
200.57579
 20
90.964216
 30
0.0
 40
2.0
  1
1A
 50
90.0
  7
ROMANS
  0
TEXT
  8
0
  6
CONTINUOUS
 62
   249
 10
217.827273
 20
90.964216
 30
0.0
 40
2.0
  1
108:61
 50
90.0
  7
ROMANS
  0
TEXT
  8
0
  6
CONTINUOUS
 62
   249
 10
222.986536
 20
90.964216
 30
0.0
 40
2.0
  1
108:62
 50
90.0
  7
ROMANS
  0
TEXT
  8
0
  6
CONTINUOUS
 62
   249
 10
235.434301
 20
90.964216
 30
0.0
 40
2.0
  1
108:63
 50
90.0
  7
ROMANS
  0
TEXT
  8
0
  6
CONTINUOUS
 62
   249
 10
53.807083
 20
236.90936
 30
0.0
 40
2.0
  1
14A
  7
ROMANS
  0
TEXT
  8
0
  6
CONTINUOUS
 62
   249
 10
53.807083
 20
231.79024
 30
0.0
 40
2.0
  1
108:11
  7
ROMANS
  0
TEXT
  8
0
  6
CONTINUOUS
 62
   249
 10
53.807083
 20
149.268884
 30
0.0
 40
2.0
  1
17A
  7
ROMANS
  0
TEXT
  8
0
  6
CONTINUOUS
 62
   249
 10
53.807083
 20
139.433532
 30
0.0
 40
2.0
  1
16A
  7
ROMANS
  0
TEXT
  8
0
  6
CONTINUOUS
 62
   249
 10
53.807083
 20
134.065332
 30
0.0
 40
2.0
  1
108:67
  7
ROMANS
  0
TEXT
  8
0
  6
CONTINUOUS
 62
   249
 10
53.807083
 20
128.913637
 30
0.0
 40
2.0
  1
108:74
  7
ROMANS
  0
TEXT
  8
0
  6
CONTINUOUS
 62
   249
 10
53.807083
 20
123.916228
 30
0.0
 40
2.0
  1
108:73
  7
ROMANS
  0
TEXT
  8
0
  6
CONTINUOUS
 62
   249
 10
53.807083
 20
118.918818
 30
0.0
 40
2.0
  1
108:77
  7
ROMANS
  0
TEXT
  8
0
  6
CONTINUOUS
 62
   249
 10
53.807083
 20
113.767123
 30
0.0
 40
2.0
  1
108:76
  7
ROMANS
  0
TEXT
  8
0
  6
CONTINUOUS
 62
   249
 10
53.807083
 20
108.923999
 30
0.0
 40
2.0
  1
108:80
  7
ROMANS
  0
TEXT
  8
0
  6
CONTINUOUS
 62
   249
 10
53.807083
 20
103.92659
 30
0.0
 40
2.0
  1
108:79
  7
ROMANS
  0
TEXT
  8
0
  6
CONTINUOUS
 62
   249
 10
53.807083
 20
99.013442
 30
0.0
 40
2.0
  1
108:70
  7
ROMANS
  0
TEXT
  8
0
  6
CONTINUOUS
 62
   249
 10
53.807083
 20
93.931771
 30
0.0
 40
2.0
  1
108:71
  7
ROMANS
  0
LINE
  8
0
  6
CONTINUOUS
 62
   249
 10
212.950615
 20
227.5
 30
0.0
 11
220.0
 21
227.5
 31
0.0
  0
LINE
  8
0
  6
CONTINUOUS
 62
   249
 10
220.0
 20
227.5
 30
0.0
 11
220.0
 21
207.5
 31
0.0
  0
LINE
  8
0
  6
CONTINUOUS
 62
   249
 10
361.194393
 20
252.451675
 30
0.0
 11
363.540159
 21
251.116321
 31
0.0
  0
LINE
  8
0
  6
CONTINUOUS
 62
   249
 10
363.540159
 20
251.116321
 30
0.0
 11
361.194393
 21
249.926402
 31
0.0
  0
LINE
  8
0
  6
CONTINUOUS
 62
   249
 10
354.174531
 20
246.569503
 30
0.0
 11
354.174531
 21
244.781371
 31
0.0
  0
LINE
  8
0
  6
CONTINUOUS
 62
   249
 10
354.205563
 20
245.724224
 30
0.0
 11
361.993768
 21
245.724224
 31
0.0
  0
LINE
  8
0
  6
CONTINUOUS
 62
   249
 10
356.589708
 20
244.556622
 30
0.0
 11
359.465818
 21
247.38518
 31
0.0
  0
LINE
  8
0
  6
CONTINUOUS
 62
   249
 10
359.035115
 20
247.922387
 30
0.0
 11
359.935792
 21
246.798638
 31
0.0
  0
LINE
  8
0
  6
CONTINUOUS
 62
   249
 10
361.989227
 20
246.569503
 30
0.0
 11
361.989227
 21
244.781371
 31
0.0
  0
TEXT
  8
0
  6
DASHED
 62
   249
 10
340.330437
 20
226.730671
 30
0.0
 40
2.0
  1
NEUTRAL VOLTAGE RELAY
  7
ROMANS
  0
TEXT
  8
0
  6
DASHED
 62
   249
 10
340.330437
 20
222.141904
 30
0.0
 40
2.0
  1
NOLLPUNKTSSPÄNNINGSSKYDD
  7
ROMANS
  0
LINE
  8
0
  6
DASHED
 62
   249
 10
180.0
 20
90.0
 30
0.0
 11
180.0
 21
82.5
 31
0.0
  0
TEXT
  8
0
  6
CONTINUOUS
 62
   249
 10
313.324606
 20
139.835741
 30
0.0
 40
2.0
  1
1) EXTERNAL BLOCKING
  7
ROMANS
  0
TEXT
  8
0
  6
CONTINUOUS
 62
   249
 10
314.570513
 20
136.502408
 30
0.0
 40
2.0
  1
  EXTERN BLOCKERING
  7
ROMANS
  0
TEXT
  8
0
  6
CONTINUOUS
 62
   249
 10
313.291464
 20
121.502408
 30
0.0
 40
2.0
  1
3) TRIP ETC.    NOTE
  7
ROMANS
  0
TEXT
  8
0
  6
CONTINUOUS
 62
   249
 10
314.630479
 20
118.169074
 30
0.0
 40
2.0
  1
  UTLÖSNING MM.  OBS.
  7
ROMANS
  0
TEXT
  8
0
  6
CONTINUOUS
 62
   249
 10
313.291464
 20
112.335741
 30
0.0
 40
2.0
  1
4) START, ALARM ETC.
  7
ROMANS
  0
TEXT
  8
0
  6
CONTINUOUS
 62
   249
 10
314.630479
 20
109.002408
 30
0.0
 40
2.0
  1
  START, SIGNAL MM.
  7
ROMANS
  0
TEXT
  8
0
  6
CONTINUOUS
 62
   249
 10
313.291464
 20
103.169074
 30
0.0
 40
2.0
  1
5) INTERNAL RELAY FAULT
  7
ROMANS
  0
TEXT
  8
0
  6
CONTINUOUS
 62
   249
 10
314.62323
 20
99.835741
 30
0.0
 40
2.0
  1
  INTERNT RELÄFEL
  7
ROMANS
  0
TEXT
  8
0
  6
CONTINUOUS
 62
   249
 10
318.541011
 20
61.911968
 30
0.0
 40
2.0
  1
NOTE. ONLY CONTACT (A) IS CAPABLE OF
  7
ROMANS
  0
TEXT
  8
0
  6
CONTINUOUS
 62
   249
 10
319.024717
 20
58.578635
 30
0.0
 40
2.0
  1
     CONTROLLING DIRECTLY THE 
  7
ROMANS
  0
TEXT
  8
0
  6
CONTINUOUS
 62
   249
 10
318.938009
 20
55.245301
 30
0.0
 40
2.0
  1
     BREAKER TRIP COIL
  7
ROMANS
  0
TEXT
  8
0
  6
CONTINUOUS
 62
   249
 10
318.256115
 20
44.583421
 30
0.0
 40
2.0
  1
OBS.  ENDAST KONTAKT (A) ÄR DIMENSIO-
  7
ROMANS
  0
TEXT
  8
0
  6
CONTINUOUS
 62
   249
 10
319.210519
 20
41.250088
 30
0.0
 40
2.0
  1
     NERAD FÖR DIREKT ANSLUTNING TILL
  7
ROMANS
  0
TEXT
  8
0
  6
CONTINUOUS
 62
   249
 10
319.210519
 20
37.916754
 30
0.0
 40
2.0
  1
     UTLÖSNINGSKRETSEN
  7
ROMANS
  0
TEXT
  8
0
  6
CONTINUOUS
 62
   249
 10
233.560563
 20
167.002459
 30
0.0
 40
2.0
  1
RX/TX
  0
TEXT
  8
0
  6
CONTINUOUS
 62
   249
 10
372.268215
 20
12.134532
 30
0.0
 40
2.0
  1
1
  7
ROMANS
  0
LINE
  8
0
  6
CONTINUOUS
 62
   249
 10
220.0
 20
110.429605
 30
0.0
 11
220.0
 21
107.5
 31
0.0
  0
LINE
  8
0
  6
CONTINUOUS
 62
   249
 10
215.0
 20
110.429605
 30
0.0
 11
215.0
 21
107.5
 31
0.0
  0
LINE
  8
0
  6
CONTINUOUS
 62
   249
 10
220.0
 20
125.0
 30
0.0
 11
220.0
 21
119.752154
 31
0.0
  0
LINE
  8
0
  6
CONTINUOUS
 62
   249
 10
215.0
 20
125.0
 30
0.0
 11
215.0
 21
119.752154
 31
0.0
  0
LINE
  8
0
 62
   249
 10
217.466311
 20
112.72844
 30
0.0
 11
221.466311
 21
112.72844
 31
0.0
  0
LINE
  8
0
 62
   249
 10
213.709901
 20
117.674464
 30
0.0
 11
217.709901
 21
117.674464
 31
0.0
  0
LINE
  8
0
 62
   249
 10
212.795103
 20
111.386207
 30
0.0
 11
221.158613
 21
119.752154
 31
0.0
  0
LINE
  8
0
 62
   249
 10
213.779395
 20
110.429605
 30
0.0
 11
222.119756
 21
118.767352
 31
0.0
  0
LINE
  8
0
 62
   249
 10
212.795103
 20
110.429605
 30
0.0
 11
212.795103
 21
119.752154
 31
0.0
  0
LINE
  8
0
 62
   249
 10
222.119756
 20
110.429605
 30
0.0
 11
212.795103
 21
110.429605
 31
0.0
  0
LINE
  8
0
 62
   249
 10
222.119756
 20
119.752154
 30
0.0
 11
222.119756
 21
110.429605
 31
0.0
  0
LINE
  8
0
 62
   249
 10
212.795103
 20
119.752154
 30
0.0
 11
222.119756
 21
119.752154
 31
0.0
  0
TEXT
  8
0
  6
CONTINUOUS
 62
   249
 10
214.366734
 20
125.55315
 30
0.0
 40
2.0
  1
+
  0
TEXT
  8
0
  6
CONTINUOUS
 62
   249
 10
219.297086
 20
125.577719
 30
0.0
 40
2.0
  1
-
  0
LINE
  8
0
  6
DASHED
 62
   249
 10
285.0
 20
172.5
 30
0.0
 11
277.5
 21
172.5
 31
0.0
  0
TEXT
  8
0
  6
DASHED
 62
   249
 10
287.653473
 20
171.486126
 30
0.0
 40
2.0
  1
2)
  7
ROMANS
  0
LINE
  8
0
  6
DASHED
 62
   249
 10
52.5
 20
240.0
 30
0.0
 11
45.0
 21
240.0
 31
0.0
  0
LINE
  8
0
  6
DASHED
 62
   249
 10
52.5
 20
235.0
 30
0.0
 11
45.0
 21
235.0
 31
0.0
  0
TEXT
  8
0
  6
CONTINUOUS
 62
   249
 10
313.321896
 20
130.646025
 30
0.0
 40
2.0
  1
2) I/O-MODULE RX/TX
  7
ROMANS
  0
TEXT
  8
0
  6
CONTINUOUS
 62
   249
 10
312.652389
 20
127.312692
 30
0.0
 40
2.0
  1
   IN/UTGÅNGSMODUL
  0
TEXT
  8
0
  6
CONTINUOUS
 62
   249
 10
212.211049
 20
28.192916
 30
0.0
 40
2.0
  1
1993-02-09  JR / RITU
  7
ROMANS
  0
TEXT
  8
0
  6
CONTINUOUS
 62
   249
 10
315.0
 20
27.5
 30
0.0
 40
2.0
  1
TERMINAL DIAGRAM / UTTAGSSCHEMA
  7
ROMANS
  0
TEXT
  8
0
  6
CONTINUOUS
 62
   249
 10
315.0
 20
24.166667
 30
0.0
 40
2.0
  1
SPAU 320 C1 / E194 WITH TEST SWITCH
  7
ROMANS
  0
TEXT
  8
0
  6
CONTINUOUS
 62
   249
 10
315.0
 20
20.833333
 30
0.0
 40
2.0
  1
SPAU 320 C1 / E194 MED PROVDON
  7
ROMANS
  0
TEXT
  8
0
  6
CONTINUOUS
 62
   249
 10
320.0
 20
2.5
 30
0.0
 40
2.5
  1
RS 10192-AAB
  7
ROMANS
  0
LINE
  8
0
  6
CONTINUOUS
 62
   249
 10
212.950615
 20
192.5
 30
0.0
 11
227.5
 21
192.5
 31
0.0
  0
TEXT
  8
0
  6
CONTINUOUS
 62
   249
 10
380.0
 20
2.5
 30
0.0
 40
2.5
  1
B
  7
ROMANS
  0
TEXT
  8
0
  6
CONTINUOUS
 62
   249
 10
49.553362
 20
1.590944
 30
0.0
 40
2.0
  1
REDRAWN WITH AUTOCAD 1993-02-09  JR / RITU Power
  7
ROMANS
  0
LINE
  8
0
  6
CONTINUOUS
 62
   249
 10
182.5
 20
215.0
 30
0.0
 11
202.5
 21
215.0
 31
0.0
  0
LINE
  8
0
  6
CONTINUOUS
 62
   249
 10
182.5
 20
207.5
 30
0.0
 11
202.5
 21
207.5
 31
0.0
  0
LINE
  8
0
  6
CONTINUOUS
 62
   249
 10
182.5
 20
202.5
 30
0.0
 11
202.5
 21
202.5
 31
0.0
  0
LINE
  8
0
  6
CONTINUOUS
 62
   249
 10
182.5
 20
195.0
 30
0.0
 11
212.950615
 21
195.0
 31
0.0
  0
TEXT
  8
0
  6
CONTINUOUS
 62
   249
 10
207.347994
 20
215.823751
 30
0.0
 40
2.5
  1
U2
  7
ROMANS
  0
LINE
  8
0
  6
CONTINUOUS
 62
   249
 10
191.757307
 20
217.399303
 30
0.0
 11
189.411542
 21
216.209384
 31
0.0
  0
LINE
  8
0
  6
CONTINUOUS
 62
   249
 10
189.411542
 20
218.734657
 30
0.0
 11
191.757307
 21
217.399303
 31
0.0
  0
TEXT
  8
0
  6
DASHED
 62
   249
 10
183.798048
 20
216.095774
 30
0.0
 40
2.5
  1
U
  0
LINE
  8
0
  6
CONTINUOUS
 62
   249
 10
194.264276
 20
210.637067
 30
0.0
 11
194.264276
 21
208.848936
 31
0.0
  0
LINE
  8
0
  6
CONTINUOUS
 62
   249
 10
194.264276
 20
209.791789
 30
0.0
 11
201.472468
 21
209.791789
 31
0.0
  0
LINE
  8
0
  6
CONTINUOUS
 62
   249
 10
196.679452
 20
208.624186
 30
0.0
 11
199.555563
 21
211.452745
 31
0.0
  0
LINE
  8
0
  6
CONTINUOUS
 62
   249
 10
199.10144
 20
211.989952
 30
0.0
 11
200.002117
 21
210.866203
 31
0.0
  0
LINE
  8
0
  6
CONTINUOUS
 62
   249
 10
201.467927
 20
210.637067
 30
0.0
 11
201.467927
 21
208.848936
 31
0.0
  0
TEXT
  8
0
  6
DASHED
 62
   249
 10
183.798048
 20
208.476412
 30
0.0
 40
2.5
  1
U
  0
TEXT
  8
0
  6
CONTINUOUS
 62
   249
 10
183.406909
 20
212.263189
 30
0.0
 40
1.5
  1
EN
  0
LINE
  8
0
  6
CONTINUOUS
 62
   249
 10
187.5
 20
213.021206
 30
0.0
 11
190.0
 21
213.021206
 31
0.0
  0
LINE
  8
0
  6
CONTINUOUS
 62
   249
 10
192.5
 20
213.021206
 30
0.0
 11
190.275553
 21
212.460564
 31
0.0
  0
LINE
  8
0
  6
CONTINUOUS
 62
   249
 10
192.5
 20
213.021206
 30
0.0
 11
195.0
 21
213.021206
 31
0.0
  0
LINE
  8
0
  6
CONTINUOUS
 62
   249
 10
189.411542
 20
211.115295
 30
0.0
 11
191.757307
 21
209.779942
 31
0.0
  0
LINE
  8
0
  6
CONTINUOUS
 62
   249
 10
191.757307
 20
209.779942
 30
0.0
 11
189.411542
 21
208.590023
 31
0.0
  0
LINE
  8
0
  6
CONTINUOUS
 62
   249
 10
191.342466
 20
206.209728
 30
0.0
 11
193.688231
 21
204.874374
 31
0.0
  0
LINE
  8
0
  6
CONTINUOUS
 62
   249
 10
191.783285
 20
204.874374
 30
0.0
 11
189.437519
 21
203.684455
 31
0.0
  0
LINE
  8
0
  6
CONTINUOUS
 62
   249
 10
189.437519
 20
206.209728
 30
0.0
 11
191.783285
 21
204.874374
 31
0.0
  0
LINE
  8
0
  6
CONTINUOUS
 62
   249
 10
193.688231
 20
204.874374
 30
0.0
 11
191.342466
 21
203.684455
 31
0.0
  0
TEXT
  8
0
  6
DASHED
 62
   249
 10
183.798048
 20
203.669555
 30
0.0
 40
2.5
  1
U
  0
LINE
  8
0
  6
CONTINUOUS
 62
   249
 10
191.342466
 20
198.516585
 30
0.0
 11
193.688231
 21
197.181231
 31
0.0
  0
LINE
  8
0
  6
CONTINUOUS
 62
   249
 10
191.783285
 20
197.181231
 30
0.0
 11
189.437519
 21
195.991312
 31
0.0
  0
LINE
  8
0
  6
CONTINUOUS
 62
   249
 10
189.437519
 20
198.516585
 30
0.0
 11
191.783285
 21
197.181231
 31
0.0
  0
LINE
  8
0
  6
CONTINUOUS
 62
   249
 10
193.688231
 20
197.181231
 30
0.0
 11
191.342466
 21
195.991312
 31
0.0
  0
LINE
  8
0
  6
CONTINUOUS
 62
   249
 10
201.467927
 20
198.030407
 30
0.0
 11
201.467927
 21
196.242275
 31
0.0
  0
LINE
  8
0
  6
CONTINUOUS
 62
   249
 10
199.10144
 20
199.383291
 30
0.0
 11
200.002117
 21
198.259542
 31
0.0
  0
LINE
  8
0
  6
CONTINUOUS
 62
   249
 10
196.679452
 20
196.017526
 30
0.0
 11
199.555563
 21
198.846084
 31
0.0
  0
LINE
  8
0
  6
CONTINUOUS
 62
   249
 10
194.264276
 20
197.185128
 30
0.0
 11
201.472468
 21
197.185128
 31
0.0
  0
LINE
  8
0
  6
CONTINUOUS
 62
   249
 10
194.264276
 20
198.030407
 30
0.0
 11
194.264276
 21
196.242275
 31
0.0
  0
LINE
  8
0
  6
CONTINUOUS
 62
   249
 10
192.5
 20
200.521206
 30
0.0
 11
195.0
 21
200.521206
 31
0.0
  0
LINE
  8
0
  6
CONTINUOUS
 62
   249
 10
192.5
 20
200.521206
 30
0.0
 11
190.275553
 21
199.960564
 31
0.0
  0
LINE
  8
0
  6
CONTINUOUS
 62
   249
 10
187.5
 20
200.521206
 30
0.0
 11
190.0
 21
200.521206
 31
0.0
  0
TEXT
  8
0
  6
CONTINUOUS
 62
   249
 10
183.406909
 20
199.763189
 30
0.0
 40
1.5
  1
EN
  0
TEXT
  8
0
  6
DASHED
 62
   249
 10
183.798048
 20
195.976412
 30
0.0
 40
2.5
  1
U
  0
LINE
  8
0
  6
CONTINUOUS
 62
   249
 10
212.950615
 20
185.0
 30
0.0
 11
182.5
 21
185.0
 31
0.0
  0
TEXT
  8
0
  6
CONTINUOUS
 62
   249
 10
194.408766
 20
186.295815
 30
0.0
 40
2.5
  1
IRF
 11
194.408766
 21
185.462481
 31
0.0
 73
     1
  0
LINE
  8
0
  6
CONTINUOUS
 62
   249
 10
182.5
 20
190.232891
 30
0.0
 11
212.950615
 21
190.232891
 31
0.0
  0
TEXT
  8
0
  6
CONTINUOUS
 62
   249
 10
194.490407
 20
191.066424
 30
0.0
 40
2.5
  1
I/O
  0
TEXT
  8
0
  6
DASHED
 62
   249
 10
204.887534
 20
206.834172
 30
0.0
 40
2.5
  1
U
  0
LINE
  8
0
  6
CONTINUOUS
 62
   249
 10
182.5
 20
222.151573
 30
0.0
 11
85.0
 21
222.151573
 31
0.0
  0
LINE
  8
0
  6
CONTINUOUS
 62
   249
 10
182.5
 20
209.595192
 30
0.0
 11
70.0
 21
209.595192
 31
0.0
  0
LINE
  8
0
  6
CONTINUOUS
 62
   249
 10
182.5
 20
197.07352
 30
0.0
 11
75.0
 21
197.07352
 31
0.0
  0
LINE
  8
0
  6
CONTINUOUS
 62
   249
 10
182.5
 20
217.569839
 30
0.0
 11
117.5
 21
217.569839
 31
0.0
  0
CIRCLE
  8
0
  6
CONTINUOUS
 62
   249
 10
181.500093
 20
213.047169
 30
0.0
 40
1.0
  0
LINE
  8
0
  6
CONTINUOUS
 62
   249
 10
180.500093
 20
213.047086
 30
0.0
 11
170.0
 21
213.047086
 31
0.0
  0
LINE
  8
0
  6
CONTINUOUS
 62
   249
 10
182.5
 20
205.022135
 30
0.0
 11
135.0
 21
205.022135
 31
0.0
  0
CIRCLE
  8
0
  6
CONTINUOUS
 62
   249
 10
181.500093
 20
200.490787
 30
0.0
 40
1.0
  0
LINE
  8
0
  6
CONTINUOUS
 62
   249
 10
180.500093
 20
200.490705
 30
0.0
 11
170.0
 21
200.490705
 31
0.0
  0
LINE
  8
0
  6
CONTINUOUS
 62
   249
 10
227.5
 20
192.5
 30
0.0
 11
227.5
 21
172.5
 31
0.0
  0
LINE
  8
0
  6
CONTINUOUS
 62
   249
 10
227.5
 20
172.5
 30
0.0
 11
245.0
 21
172.5
 31
0.0
  0
TEXT
  8
0
  6
DASHED
 62
   249
 10
352.567825
 20
249.911835
 30
0.0
 40
2.5
  1
2U
  7
ROMANS
  0
LINE
  8
0
  6
CONTINUOUS
 62
   249
 10
358.664067
 20
249.284013
 30
0.0
 11
359.550954
 21
249.284013
 31
0.0
  0
LINE
  8
0
  6
CONTINUOUS
 62
   249
 10
358.332962
 20
249.895646
 30
0.0
 11
359.917534
 21
249.895646
 31
0.0
  0
LINE
  8
0
  6
CONTINUOUS
 62
   249
 10
359.148898
 20
250.517708
 30
0.0
 11
360.343239
 21
250.517708
 31
0.0
  0
LINE
  8
0
  6
CONTINUOUS
 62
   249
 10
357.954557
 20
250.517708
 30
0.0
 11
359.148898
 21
250.517708
 31
0.0
  0
LINE
  8
0
  6
CONTINUOUS
 62
   249
 10
359.164785
 20
251.871979
 30
0.0
 11
359.164785
 21
250.517708
 31
0.0
  0
LINE
  8
0
  6
CONTINUOUS
 62
   249
 10
359.164785
 20
241.871979
 30
0.0
 11
359.164785
 21
240.517708
 31
0.0
  0
LINE
  8
0
  6
CONTINUOUS
 62
   249
 10
357.954557
 20
240.517708
 30
0.0
 11
359.148898
 21
240.517708
 31
0.0
  0
LINE
  8
0
  6
CONTINUOUS
 62
   249
 10
359.148898
 20
240.517708
 30
0.0
 11
360.343239
 21
240.517708
 31
0.0
  0
LINE
  8
0
  6
CONTINUOUS
 62
   249
 10
358.332962
 20
239.895646
 30
0.0
 11
359.917534
 21
239.895646
 31
0.0
  0
LINE
  8
0
  6
CONTINUOUS
 62
   249
 10
358.664067
 20
239.284013
 30
0.0
 11
359.550954
 21
239.284013
 31
0.0
  0
TEXT
  8
0
  6
DASHED
 62
   249
 10
352.567825
 20
239.911835
 30
0.0
 40
2.5
  1
2U
  7
ROMANS
  0
LINE
  8
0
  6
CONTINUOUS
 62
   249
 10
363.540159
 20
241.116321
 30
0.0
 11
361.194393
 21
239.926402
 31
0.0
  0
LINE
  8
0
  6
CONTINUOUS
 62
   249
 10
361.194393
 20
242.451675
 30
0.0
 11
363.540159
 21
241.116321
 31
0.0
  0
LINE
  8
0
  6
CONTINUOUS
 62
   249
 10
365.55015
 20
241.116321
 30
0.0
 11
363.204384
 21
239.926402
 31
0.0
  0
LINE
  8
0
  6
CONTINUOUS
 62
   249
 10
363.204384
 20
242.451675
 30
0.0
 11
365.55015
 21
241.116321
 31
0.0
  0
TEXT
  8
0
  6
DASHED
 62
   249
 10
53.901235
 20
244.199008
 30
0.0
 40
2.0
  1
101
  7
ROMANS
  0
LINE
  8
0
  6
CONTINUOUS
 62
   249
 10
66.000004
 20
240.0
 30
0.0
 11
59.337159
 21
242.434804
 31
0.0
  0
LINE
  8
0
  6
CONTINUOUS
 62
   249
 10
60.0
 20
240.0
 30
0.0
 11
60.0
 21
242.765661
 31
0.0
  0
LINE
  8
0
  6
CONTINUOUS
 62
   249
 10
60.0
 20
240.0
 30
0.0
 11
52.5
 21
240.0
 31
0.0
  0
LINE
  8
0
  6
CONTINUOUS
 62
   249
 10
60.0
 20
152.5
 30
0.0
 11
60.0
 21
155.265661
 31
0.0
  0
LINE
  8
0
  6
CONTINUOUS
 62
   249
 10
66.000004
 20
152.5
 30
0.0
 11
59.337159
 21
154.934804
 31
0.0
  0
LINE
  8
0
  6
CONTINUOUS
 62
   249
 10
66.000004
 20
142.5
 30
0.0
 11
59.337159
 21
144.934804
 31
0.0
  0
LINE
  8
0
  6
CONTINUOUS
 62
   249
 10
60.0
 20
142.5
 30
0.0
 11
60.0
 21
145.265661
 31
0.0
  0
LINE
  8
0
  6
CONTINUOUS
 62
   249
 10
60.0
 20
152.5
 30
0.0
 11
52.5
 21
152.5
 31
0.0
  0
LINE
  8
0
  6
CONTINUOUS
 62
   249
 10
66.000004
 20
142.5
 30
0.0
 11
95.0
 21
142.5
 31
0.0
  0
TEXT
  8
0
  6
CONTINUOUS
 62
   249
 10
53.807083
 20
156.401812
 30
0.0
 40
2.0
  1
101
  7
ROMANS
  0
LINE
  8
0
  6
CONTINUOUS
 62
   249
 10
185.00793
 20
132.5
 30
0.0
 11
185.00793
 21
102.5
 31
0.0
  0
LINE
  8
0
  6
CONTINUOUS
 62
   249
 10
185.0
 20
96.499996
 30
0.0
 11
185.0
 21
90.0
 31
0.0
  0
LINE
  8
0
  6
CONTINUOUS
 62
   249
 10
197.5
 20
96.499996
 30
0.0
 11
197.5
 21
90.0
 31
0.0
  0
LINE
  8
0
  6
CONTINUOUS
 62
   249
 10
197.482972
 20
152.5
 30
0.0
 11
197.482972
 21
102.5
 31
0.0
  0
LINE
  8
0
  6
CONTINUOUS
 62
   249
 10
202.5
 20
102.5
 30
0.0
 11
202.5
 21
106.087694
 31
0.0
  0
LINE
  8
0
  6
CONTINUOUS
 62
   249
 10
202.5
 20
107.28623
 30
0.0
 11
202.5
 21
109.78623
 31
0.0
  0
LINE
  8
0
  6
CONTINUOUS
 62
   249
 10
202.5
 20
96.499996
 30
0.0
 11
202.5
 21
90.0
 31
0.0
  0
LINE
  8
0
  6
CONTINUOUS
 62
   249
 10
202.5
 20
96.499996
 30
0.0
 11
204.934804
 21
103.162841
 31
0.0
  0
LINE
  8
0
  6
CONTINUOUS
 62
   249
 10
202.5
 20
102.5
 30
0.0
 11
205.265661
 21
102.5
 31
0.0
  0
LINE
  8
0
  6
CONTINUOUS
 62
   249
 10
204.934804
 20
103.162841
 30
0.0
 11
204.049106
 21
103.607734
 31
0.0
  0
LINE
  8
0
  6
CONTINUOUS
 62
   249
 10
197.5
 20
102.5
 30
0.0
 11
200.265661
 21
102.5
 31
0.0
  0
LINE
  8
0
  6
CONTINUOUS
 62
   249
 10
199.934804
 20
103.162841
 30
0.0
 11
199.049106
 21
103.607734
 31
0.0
  0
LINE
  8
0
  6
CONTINUOUS
 62
   249
 10
197.5
 20
96.499996
 30
0.0
 11
199.934804
 21
103.162841
 31
0.0
  0
LINE
  8
0
  6
CONTINUOUS
 62
   249
 10
185.0
 20
96.499996
 30
0.0
 11
187.434804
 21
103.162841
 31
0.0
  0
LINE
  8
0
  6
CONTINUOUS
 62
   249
 10
185.0
 20
102.5
 30
0.0
 11
187.765661
 21
102.5
 31
0.0
  0
LINE
  8
0
  6
CONTINUOUS
 62
   249
 10
180.0
 20
96.499996
 30
0.0
 11
182.434804
 21
103.162841
 31
0.0
  0
LINE
  8
0
  6
CONTINUOUS
 62
   249
 10
180.0
 20
102.5
 30
0.0
 11
182.765661
 21
102.5
 31
0.0
  0
LINE
  8
0
  6
CONTINUOUS
 62
   249
 10
180.0
 20
96.499996
 30
0.0
 11
180.0
 21
90.0
 31
0.0
  0
LINE
  8
0
  6
CONTINUOUS
 62
   249
 10
180.0
 20
102.5
 30
0.0
 11
180.0
 21
112.5
 31
0.0
  0
LINE
  8
0
  6
CONTINUOUS
 62
   249
 10
182.434804
 20
103.162841
 30
0.0
 11
181.549106
 21
103.607734
 31
0.0
  0
TEXT
  8
0
  6
CONTINUOUS
 62
   249
 10
196.598012
 20
90.964216
 30
0.0
 40
2.0
  1
101
 50
90.0
  7
ROMANS
  0
TEXT
  8
0
  6
CONTINUOUS
 62
   249
 10
205.51207
 20
90.964216
 30
0.0
 40
2.0
  1
18A
 50
90.0
  7
ROMANS
  0
TEXT
  8
0
  6
CONTINUOUS
 62
   249
 10
239.948507
 20
199.338011
 30
0.0
 40
2.0
  1
6A
  7
ROMANS
  0
TEXT
  8
0
  6
CONTINUOUS
 62
   249
 10
239.948507
 20
209.057266
 30
0.0
 40
2.0
  1
5A
  7
ROMANS
  0
LINE
  8
0
  6
CONTINUOUS
 62
   249
 10
240.0
 20
202.5
 30
0.0
 11
245.0
 21
202.5
 31
0.0
  0
LINE
  8
0
  6
CONTINUOUS
 62
   249
 10
230.0
 20
202.482972
 30
0.0
 11
235.0
 21
202.482972
 31
0.0
  0
LINE
  8
0
  6
CONTINUOUS
 62
   249
 10
235.0
 20
202.482972
 30
0.0
 11
235.0
 21
205.265661
 31
0.0
  0
LINE
  8
0
  6
CONTINUOUS
 62
   249
 10
234.102827
 20
204.934804
 30
0.0
 11
233.657934
 21
204.049106
 31
0.0
  0
LINE
  8
0
  6
CONTINUOUS
 62
   249
 10
234.102827
 20
204.934804
 30
0.0
 11
240.0
 21
202.5
 31
0.0
  0
LINE
  8
0
  6
CONTINUOUS
 62
   249
 10
234.102827
 20
214.934804
 30
0.0
 11
240.0
 21
212.5
 31
0.0
  0
LINE
  8
0
  6
CONTINUOUS
 62
   249
 10
234.102827
 20
214.934804
 30
0.0
 11
233.657934
 21
214.049106
 31
0.0
  0
LINE
  8
0
  6
CONTINUOUS
 62
   249
 10
235.0
 20
212.482972
 30
0.0
 11
235.0
 21
215.265661
 31
0.0
  0
LINE
  8
0
  6
CONTINUOUS
 62
   249
 10
230.0
 20
212.482972
 30
0.0
 11
235.0
 21
212.482972
 31
0.0
  0
LINE
  8
0
  6
CONTINUOUS
 62
   249
 10
240.0
 20
212.5
 30
0.0
 11
245.0
 21
212.5
 31
0.0
  0
LINE
  8
0
  6
CONTINUOUS
 62
   249
 10
227.5
 20
202.0
 30
0.0
 11
228.5
 21
201.0
 31
0.0
  0
LINE
  8
0
  6
CONTINUOUS
 62
   249
 10
227.5
 20
213.0
 30
0.0
 11
228.5
 21
214.0
 31
0.0
  0
LINE
  8
0
  6
CONTINUOUS
 62
   249
 10
227.5
 20
213.0
 30
0.0
 11
227.5
 21
202.0
 31
0.0
  0
TEXT
  8
0
  6
CONTINUOUS
 62
   249
 10
233.862027
 20
217.986441
 30
0.0
 40
2.0
  1
101
  7
ROMANS
  0
TEXT
  8
0
  6
CONTINUOUS
 62
   249
 10
107.5
 20
242.5
 30
0.0
 40
2.0
  1
RS 10192-AA  SPAU 320 C1 / E194
  7
ROMANS
  0
LINE
  8
0
  6
DASHED
 62
   249
 10
305.0
 20
257.5
 30
0.0
 11
267.5
 21
257.5
 31
0.0
  0
LINE
  8
0
  6
DASHED
 62
   249
 10
305.0
 20
252.5
 30
0.0
 11
267.5
 21
252.5
 31
0.0
  0
LINE
  8
0
  6
DASHED
 62
   249
 10
305.0
 20
247.5
 30
0.0
 11
267.5
 21
247.5
 31
0.0
  0
LINE
  8
0
  6
CONTINUOUS
 62
   249
 10
275.0
 20
235.18998
 30
0.0
 11
295.0
 21
235.18998
 31
0.0
  0
LINE
  8
0
  6
CONTINUOUS
 62
   249
 10
287.5
 20
222.5
 30
0.0
 11
282.5
 21
230.0
 31
0.0
  0
LINE
  8
0
  6
DASHED
 62
   249
 10
275.0
 20
240.0
 30
0.0
 11
275.0
 21
257.5
 31
0.0
  0
LINE
  8
0
  6
DASHED
 62
   249
 10
282.5
 20
240.0
 30
0.0
 11
282.5
 21
252.5
 31
0.0
  0
LINE
  8
0
  6
CONTINUOUS
 62
   249
 10
275.0
 20
225.18998
 30
0.0
 11
275.0
 21
222.5
 31
0.0
  0
LINE
  8
0
  6
CONTINUOUS
 62
   249
 10
282.5
 20
225.18998
 30
0.0
 11
282.5
 21
222.5
 31
0.0
  0
ARC
  8
0
  6
CONTINUOUS
 62
   249
 10
280.864862
 20
228.796095
 30
0.0
 40
1.204309
 50
90.0
 51
265.706237
  0
LINE
  8
0
  6
CONTINUOUS
 62
   249
 10
280.858762
 20
227.598547
 30
0.0
 11
281.50836
 21
227.598547
 31
0.0
  0
LINE
  8
0
  6
CONTINUOUS
 62
   249
 10
280.858762
 20
229.999993
 30
0.0
 11
281.502261
 21
229.999993
 31
0.0
  0
LINE
  8
0
  6
CONTINUOUS
 62
   249
 10
280.859898
 20
225.189937
 30
0.0
 11
281.509496
 21
225.189937
 31
0.0
  0
ARC
  8
0
  6
CONTINUOUS
 62
   249
 10
280.864862
 20
226.394238
 30
0.0
 40
1.204309
 50
90.0
 51
270.0
  0
LINE
  8
0
  6
CONTINUOUS
 62
   249
 10
281.500897
 20
225.18998
 30
0.0
 11
282.5
 21
225.18998
 31
0.0
  0
LINE
  8
0
  6
CONTINUOUS
 62
   249
 10
281.496128
 20
229.999996
 30
0.0
 11
282.473936
 21
229.999996
 31
0.0
  0
LINE
  8
0
  6
CONTINUOUS
 62
   249
 10
281.506031
 20
227.598556
 30
0.0
 11
282.478167
 21
227.598556
 31
0.0
  0
ARC
  8
0
  6
CONTINUOUS
 62
   249
 10
273.364862
 20
228.796095
 30
0.0
 40
1.204309
 50
90.0
 51
265.706237
  0
LINE
  8
0
  6
CONTINUOUS
 62
   249
 10
273.358762
 20
227.598547
 30
0.0
 11
274.00836
 21
227.598547
 31
0.0
  0
LINE
  8
0
  6
CONTINUOUS
 62
   249
 10
273.358762
 20
229.999993
 30
0.0
 11
274.002261
 21
229.999993
 31
0.0
  0
LINE
  8
0
  6
CONTINUOUS
 62
   249
 10
273.359898
 20
225.189937
 30
0.0
 11
274.009496
 21
225.189937
 31
0.0
  0
ARC
  8
0
  6
CONTINUOUS
 62
   249
 10
273.364862
 20
226.394238
 30
0.0
 40
1.204309
 50
90.0
 51
270.0
  0
LINE
  8
0
  6
CONTINUOUS
 62
   249
 10
274.000897
 20
225.18998
 30
0.0
 11
275.0
 21
225.18998
 31
0.0
  0
LINE
  8
0
  6
CONTINUOUS
 62
   249
 10
273.996128
 20
229.999996
 30
0.0
 11
274.973936
 21
229.999996
 31
0.0
  0
LINE
  8
0
  6
CONTINUOUS
 62
   249
 10
274.006031
 20
227.598556
 30
0.0
 11
274.978167
 21
227.598556
 31
0.0
  0
LINE
  8
0
  6
CONTINUOUS
 62
   249
 10
282.5
 20
222.5
 30
0.0
 11
280.0
 21
222.5
 31
0.0
  0
LINE
  8
0
  6
CONTINUOUS
 62
   249
 10
280.0
 20
222.5
 30
0.0
 11
275.0
 21
230.0
 31
0.0
  0
LINE
  8
0
  6
DASHED
 62
   249
 10
275.0
 20
212.5
 30
0.0
 11
275.0
 21
222.5
 31
0.0
  0
TEXT
  8
0
  6
CONTINUOUS
 62
   249
 10
258.732328
 20
246.506967
 30
0.0
 40
2.0
  1
L3(T)
  7
ROMANS
 11
258.732328
 21
245.8403
 31
0.0
 73
     1
  0
TEXT
  8
0
  6
CONTINUOUS
 62
   249
 10
258.732328
 20
251.428359
 30
0.0
 40
2.0
  1
L2(S)
  7
ROMANS
 11
258.732328
 21
250.761693
 31
0.0
 73
     1
  0
TEXT
  8
0
  6
CONTINUOUS
 62
   249
 10
258.732328
 20
256.485054
 30
0.0
 40
2.0
  1
L1(R)
  7
ROMANS
 11
258.732328
 21
255.818387
 31
0.0
 73
     1
  0
LINE
  8
0
  6
DASHED
 62
   249
 10
290.0
 20
240.0
 30
0.0
 11
290.0
 21
247.5
 31
0.0
  0
LINE
  8
0
  6
CONTINUOUS
 62
   249
 10
290.0
 20
225.18998
 30
0.0
 11
290.0
 21
222.5
 31
0.0
  0
ARC
  8
0
  6
CONTINUOUS
 62
   249
 10
288.364862
 20
228.796095
 30
0.0
 40
1.204309
 50
90.0
 51
265.706237
  0
LINE
  8
0
  6
CONTINUOUS
 62
   249
 10
288.358762
 20
227.598547
 30
0.0
 11
289.00836
 21
227.598547
 31
0.0
  0
LINE
  8
0
  6
CONTINUOUS
 62
   249
 10
288.358762
 20
229.999993
 30
0.0
 11
289.002261
 21
229.999993
 31
0.0
  0
LINE
  8
0
  6
CONTINUOUS
 62
   249
 10
288.359898
 20
225.189937
 30
0.0
 11
289.009496
 21
225.189937
 31
0.0
  0
ARC
  8
0
  6
CONTINUOUS
 62
   249
 10
288.364862
 20
226.394238
 30
0.0
 40
1.204309
 50
90.0
 51
270.0
  0
LINE
  8
0
  6
CONTINUOUS
 62
   249
 10
289.000897
 20
225.18998
 30
0.0
 11
290.0
 21
225.18998
 31
0.0
  0
LINE
  8
0
  6
CONTINUOUS
 62
   249
 10
288.996128
 20
229.999996
 30
0.0
 11
289.973936
 21
229.999996
 31
0.0
  0
LINE
  8
0
  6
CONTINUOUS
 62
   249
 10
289.006031
 20
227.598556
 30
0.0
 11
289.978167
 21
227.598556
 31
0.0
  0
LINE
  8
0
  6
CONTINUOUS
 62
   249
 10
290.0
 20
222.5
 30
0.0
 11
287.5
 21
222.5
 31
0.0
  0
LINE
  8
0
  6
CONTINUOUS
 62
   249
 10
290.0
 20
230.0
 30
0.0
 11
295.0
 21
230.0
 31
0.0
  0
LINE
  8
0
  6
DASHED
 62
   249
 10
295.0
 20
230.0
 30
0.0
 11
304.34682
 21
230.0
 31
0.0
  0
LINE
  8
0
  6
DASHED
 62
   249
 10
295.0
 20
235.18998
 30
0.0
 11
304.163362
 21
235.18998
 31
0.0
  0
LINE
  8
0
  6
DASHED
 62
   249
 10
300.0
 20
202.5
 30
0.0
 11
300.0
 21
230.0
 31
0.0
  0
LINE
  8
0
  6
DASHED
 62
   249
 10
245.0
 20
212.5
 30
0.0
 11
275.0
 21
212.5
 31
0.0
  0
LINE
  8
0
  6
DASHED
 62
   249
 10
245.0
 20
202.5
 30
0.0
 11
300.0
 21
202.5
 31
0.0
  0
TEXT
  8
0
  6
DASHED
 62
   249
 10
354.531451
 20
16.135576
 30
0.0
 40
1.4
  1
LEHTI SHEET
  7
STAND
  0
LINE
  8
0
 62
   249
 10
0.577972
 20
0.580166
 30
0.0
 11
0.577972
 21
263.080166
 31
0.0
  0
LINE
  8
0
 62
   249
 10
392.577972
 20
263.080166
 30
0.0
 11
392.577972
 21
0.580166
 31
0.0
  0
LINE
  8
0
 62
   249
 10
0.577972
 20
0.580166
 30
0.0
 11
392.577972
 21
0.580166
 31
0.0
  0
TEXT
  8
0
 62
   249
 10
42.577972
 20
5.929675
 30
0.0
 40
2.5
  1
C
  7
ROMANS
  0
TEXT
  8
0
 62
   249
 10
42.577972
 20
1.537459
 30
0.0
 40
2.5
  1
B
  7
ROMANS
  0
TEXT
  8
0
 62
   249
 10
257.747879
 20
2.08395
 30
0.0
 40
3.0
  1
Power
 41
0.8
  7
ROMANS
  0
TEXT
  8
0
 62
   249
 10
273.577972
 20
7.580166
 30
0.0
 40
1.4
  1
VAST.OSASTO RESP.DEPT.
  7
ROMANS
  0
TEXT
  8
0
 62
   249
 10
210.577972
 20
32.580166
 30
0.0
 40
1.4
  1
TEKI  PREPARED
  7
ROMANS
  0
LINE
  8
0
 62
   249
 10
271.577972
 20
10.080166
 30
0.0
 11
271.577972
 21
0.580166
 31
0.0
  0
LINE
  8
0
 62
   249
 10
257.577972
 20
10.080166
 30
0.0
 11
257.577972
 21
35.580166
 31
0.0
  0
LINE
  8
0
 62
   249
 10
41.077972
 20
5.080166
 30
0.0
 11
209.577972
 21
5.080166
 31
0.0
  0
LINE
  8
0
 62
   249
 10
47.077972
 20
0.580166
 30
0.0
 11
47.077972
 21
9.580166
 31
0.0
  0
LINE
  8
0
 62
   249
 10
47.077972
 20
9.580166
 30
0.0
 11
209.577972
 21
9.580166
 31
0.0
  0
TEXT
  8
0
 62
   249
 10
28.077972
 20
2.813499
 30
0.0
 40
1.4
  1
REVISION
  7
ROMANS
  0
TEXT
  8
0
 62
   249
 10
28.077972
 20
5.080166
 30
0.0
 40
1.4
  1
MUUTOS
  7
ROMANS
  0
LINE
  8
0
 62
   249
 10
282.577972
 20
10.080166
 30
0.0
 11
282.577972
 21
18.580166
 31
0.0
  0
TEXT
  8
0
 62
   249
 10
238.077972
 20
2.080166
 30
0.0
 40
3.0
  1
Strömberg
 41
0.8
  7
ROMANS
  0
TEXT
  8
0
 62
   249
 10
230.077972
 20
2.080166
 30
0.0
 40
3.0
  1
ABB 
 41
0.8
  7
ROMANS
  0
LINE
  8
0
 62
   249
 10
223.477972
 20
2.080166
 30
0.0
 11
223.477972
 21
5.440166
 31
0.0
  0
LINE
  8
0
 62
   249
 10
223.477972
 20
9.080166
 30
0.0
 11
225.437972
 21
9.080166
 31
0.0
  0
LINE
  8
0
 62
   249
 10
225.437972
 20
9.080166
 30
0.0
 11
225.437972
 21
5.720166
 31
0.0
  0
LINE
  8
0
 62
   249
 10
225.437972
 20
5.720166
 30
0.0
 11
223.477972
 21
5.720166
 31
0.0
  0
LINE
  8
0
 62
   249
 10
223.477972
 20
5.440166
 30
0.0
 11
225.437972
 21
5.440166
 31
0.0
  0
LINE
  8
0
 62
   249
 10
225.437972
 20
5.440166
 30
0.0
 11
225.437972
 21
2.080166
 31
0.0
  0
LINE
  8
0
 62
   249
 10
225.437972
 20
2.080166
 30
0.0
 11
223.477972
 21
2.080166
 31
0.0
  0
LINE
  8
0
 62
   249
 10
223.477972
 20
5.720166
 30
0.0
 11
223.477972
 21
9.080166
 31
0.0
  0
ARC
  8
0
 62
   249
 10
226.277972
 20
7.505166
 30
0.0
 40
1.575
 50
298.455859
 51
90.052437
  0
LINE
  8
0
 62
   249
 10
225.717972
 20
9.080166
 30
0.0
 11
226.27653
 21
9.080165
 31
0.0
  0
LINE
  8
0
 62
   249
 10
225.717972
 20
9.080166
 30
0.0
 11
225.717972
 21
5.720166
 31
0.0
  0
LINE
  8
0
 62
   249
 10
225.717972
 20
5.720166
 30
0.0
 11
227.702415
 21
5.720166
 31
0.0
  0
LINE
  8
0
 62
   249
 10
227.957972
 20
5.440166
 30
0.0
 11
225.717972
 21
5.440166
 31
0.0
  0
LINE
  8
0
 62
   249
 10
225.717972
 20
5.440166
 30
0.0
 11
225.717972
 21
2.080166
 31
0.0
  0
ARC
  8
0
 62
   249
 10
226.277972
 20
4.180166
 30
0.0
 40
2.1
 50
269.937724
 51
37.056553
  0
LINE
  8
0
 62
   249
 10
225.717972
 20
2.080166
 30
0.0
 11
226.275689
 21
2.080167
 31
0.0
  0
ARC
  8
0
 62
   249
 10
226.277972
 20
4.180166
 30
0.0
 40
2.1
 50
47.28622
 51
68.787999
  0
INSERT
  8
0
 62
   249
  2
*X15
 10
215.987972
 20
2.080166
 30
0.0
 41
0.7
 42
0.7
 43
0.7
  0
INSERT
  8
0
 62
   249
  2
*X16
 10
215.987972
 20
2.080166
 30
0.0
 41
0.7
 42
0.7
 43
0.7
  0
INSERT
  8
0
 62
   249
  2
*X17
 10
215.987972
 20
2.080166
 30
0.0
 41
0.7
 42
0.7
 43
0.7
  0
INSERT
  8
0
 62
   249
  2
*X18
 10
215.987972
 20
2.080166
 30
0.0
 41
0.7
 42
0.7
 43
0.7
  0
INSERT
  8
0
 62
   249
  2
*X18
 10
210.527972
 20
2.080166
 30
0.0
 41
0.7
 42
0.7
 43
0.7
  0
INSERT
  8
0
 62
   249
  2
*X17
 10
210.527972
 20
2.080166
 30
0.0
 41
0.7
 42
0.7
 43
0.7
  0
INSERT
  8
0
 62
   249
  2
*X16
 10
210.527972
 20
2.080166
 30
0.0
 41
0.7
 42
0.7
 43
0.7
  0
INSERT
  8
0
 62
   249
  2
*X15
 10
210.527972
 20
2.080166
 30
0.0
 41
0.7
 42
0.7
 43
0.7
  0
ARC
  8
0
 62
   249
 10
220.817972
 20
4.180166
 30
0.0
 40
2.1
 50
47.28622
 51
68.787999
  0
LINE
  8
0
 62
   249
 10
220.257972
 20
2.080166
 30
0.0
 11
220.815689
 21
2.080167
 31
0.0
  0
ARC
  8
0
 62
   249
 10
220.817972
 20
4.180166
 30
0.0
 40
2.1
 50
269.937724
 51
37.056553
  0
LINE
  8
0
 62
   249
 10
220.257972
 20
5.440166
 30
0.0
 11
220.257972
 21
2.080166
 31
0.0
  0
LINE
  8
0
 62
   249
 10
222.497972
 20
5.440166
 30
0.0
 11
220.257972
 21
5.440166
 31
0.0
  0
LINE
  8
0
 62
   249
 10
220.257972
 20
5.720166
 30
0.0
 11
222.242415
 21
5.720166
 31
0.0
  0
LINE
  8
0
 62
   249
 10
220.257972
 20
9.080166
 30
0.0
 11
220.257972
 21
5.720166
 31
0.0
  0
LINE
  8
0
 62
   249
 10
220.257972
 20
9.080166
 30
0.0
 11
220.81653
 21
9.080165
 31
0.0
  0
ARC
  8
0
 62
   249
 10
220.817972
 20
7.505166
 30
0.0
 40
1.575
 50
298.455859
 51
90.052437
  0
LINE
  8
0
 62
   249
 10
218.017972
 20
5.720166
 30
0.0
 11
218.017972
 21
9.080166
 31
0.0
  0
LINE
  8
0
 62
   249
 10
219.977972
 20
2.080166
 30
0.0
 11
218.017972
 21
2.080166
 31
0.0
  0
LINE
  8
0
 62
   249
 10
219.977972
 20
5.440166
 30
0.0
 11
219.977972
 21
2.080166
 31
0.0
  0
LINE
  8
0
 62
   249
 10
218.017972
 20
5.440166
 30
0.0
 11
219.977972
 21
5.440166
 31
0.0
  0
LINE
  8
0
 62
   249
 10
219.977972
 20
5.720166
 30
0.0
 11
218.017972
 21
5.720166
 31
0.0
  0
LINE
  8
0
 62
   249
 10
219.977972
 20
9.080166
 30
0.0
 11
219.977972
 21
5.720166
 31
0.0
  0
LINE
  8
0
 62
   249
 10
218.017972
 20
9.080166
 30
0.0
 11
219.977972
 21
9.080166
 31
0.0
  0
LINE
  8
0
 62
   249
 10
218.017972
 20
2.080166
 30
0.0
 11
218.017972
 21
5.440166
 31
0.0
  0
INSERT
  8
0
 62
   249
  2
*X14
 10
210.527972
 20
2.080166
 30
0.0
 41
0.7
 42
0.7
 43
0.7
  0
INSERT
  8
0
 62
   249
  2
*X13
 10
210.527972
 20
2.080166
 30
0.0
 41
0.7
 42
0.7
 43
0.7
  0
INSERT
  8
0
 62
   249
  2
*X12
 10
210.527972
 20
2.080166
 30
0.0
 41
0.7
 42
0.7
 43
0.7
  0
INSERT
  8
0
 62
   249
  2
*X11
 10
210.527972
 20
2.080166
 30
0.0
 41
0.7
 42
0.7
 43
0.7
  0
LINE
  8
0
 62
   249
 10
211.69786
 20
5.422705
 30
0.0
 11
210.527972
 21
2.080166
 31
0.0
  0
LINE
  8
0
 62
   249
 10
213.887972
 20
5.440166
 30
0.0
 11
213.887972
 21
3.480166
 31
0.0
  0
LINE
  8
0
 62
   249
 10
214.167972
 20
5.440166
 30
0.0
 11
214.167972
 21
3.480166
 31
0.0
  0
LINE
  8
0
 62
   249
 10
214.167972
 20
5.440166
 30
0.0
 11
216.351228
 21
5.440166
 31
0.0
  0
LINE
  8
0
 62
   249
 10
214.167972
 20
5.720166
 30
0.0
 11
216.253085
 21
5.720166
 31
0.0
  0
LINE
  8
0
 62
   249
 10
216.352464
 20
5.438761
 30
0.0
 11
217.527972
 21
2.080166
 31
0.0
  0
LINE
  8
0
 62
   249
 10
211.700954
 20
5.440166
 30
0.0
 11
213.887972
 21
5.440166
 31
0.0
  0
LINE
  8
0
 62
   249
 10
211.799912
 20
5.720166
 30
0.0
 11
213.887972
 21
5.720166
 31
0.0
  0
LINE
  8
0
 62
   249
 10
213.887972
 20
9.080166
 30
0.0
 11
212.977972
 21
9.080166
 31
0.0
  0
LINE
  8
0
 62
   249
 10
214.167972
 20
3.480166
 30
0.0
 11
215.287865
 21
3.480166
 31
0.0
  0
LINE
  8
0
 62
   249
 10
214.167972
 20
9.080166
 30
0.0
 11
214.167972
 21
5.720166
 31
0.0
  0
LINE
  8
0
 62
   249
 10
213.887972
 20
9.080166
 30
0.0
 11
213.887972
 21
5.720166
 31
0.0
  0
LINE
  8
0
 62
   249
 10
215.077972
 20
9.080166
 30
0.0
 11
214.167972
 21
9.080166
 31
0.0
  0
LINE
  8
0
 62
   249
 10
215.289069
 20
3.47703
 30
0.0
 11
215.777972
 21
2.080166
 31
0.0
  0
LINE
  8
0
 62
   249
 10
215.077972
 20
9.080166
 30
0.0
 11
216.254325
 21
5.719158
 31
0.0
  0
LINE
  8
0
 62
   249
 10
212.766762
 20
3.476709
 30
0.0
 11
212.277972
 21
2.080166
 31
0.0
  0
LINE
  8
0
 62
   249
 10
212.766758
 20
3.480166
 30
0.0
 11
213.887972
 21
3.480166
 31
0.0
  0
LINE
  8
0
 62
   249
 10
212.977972
 20
9.080166
 30
0.0
 11
211.800444
 21
5.715801
 31
0.0
  0
LINE
  8
0
 62
   249
 10
215.777972
 20
2.080166
 30
0.0
 11
217.527972
 21
2.080166
 31
0.0
  0
LINE
  8
0
 62
   249
 10
210.527972
 20
2.080166
 30
0.0
 11
212.277972
 21
2.080166
 31
0.0
  0
LINE
  8
0
 62
   249
 10
370.077972
 20
10.080166
 30
0.0
 11
370.077972
 21
0.580166
 31
0.0
  0
TEXT
  8
0
 62
   249
 10
371.577972
 20
7.580166
 30
0.0
 40
1.4
  1
PAINOS  REVISION
  7
ROMANS
  0
LINE
  8
0
 62
   249
 10
350.077972
 20
10.080166
 30
0.0
 11
350.077972
 21
18.580166
 31
0.0
  0
TEXT
  8
0
 62
   249
 10
309.577972
 20
7.580166
 30
0.0
 40
1.4
  1
PIIRUSTUS NO  DRAWING NR
  7
ROMANS
  0
TEXT
  8
0
 62
   249
 10
309.577972
 20
16.080166
 30
0.0
 40
1.4
  1
KOODI  CODE
  7
ROMANS
  0
TEXT
  8
0
 62
   249
 10
309.577972
 20
33.080166
 30
0.0
 40
1.4
  1
NIMITYS  NAME
  7
ROMANS
  0
TEXT
  8
0
 62
   249
 10
259.577972
 20
16.080166
 30
0.0
 40
1.4
  1
SUHDE  SCALE
  7
ROMANS
  0
TEXT
  8
0
 62
   249
 10
259.577972
 20
24.080166
 30
0.0
 40
1.4
  1
TOLERANSSIT  TOLERANCES
  7
ROMANS
  0
TEXT
  8
0
 62
   249
 10
259.577972
 20
33.080166
 30
0.0
 40
1.4
  1
LIITTYY  CONCERNING
  7
ROMANS
  0
LINE
  8
0
 62
   249
 10
307.577972
 20
0.580166
 30
0.0
 11
307.577972
 21
35.580166
 31
0.0
  0
TEXT
  8
0
 62
   249
 10
210.320806
 20
16.046833
 30
0.0
 40
1.4
  1
HYVÄKSYI  APPROVED
  7
ROMANS
  0
TEXT
  8
0
 62
   249
 10
210.577972
 20
24.313499
 30
0.0
 40
1.4
  1
TARKASTI  CHECKED
  7
ROMANS
  0
LINE
  8
0
 62
   249
 10
209.577972
 20
35.580166
 30
0.0
 11
392.577972
 21
35.580166
 31
0.0
  0
LINE
  8
0
 62
   249
 10
209.577972
 20
27.080166
 30
0.0
 11
307.577972
 21
27.080166
 31
0.0
  0
LINE
  8
0
 62
   249
 10
209.577972
 20
10.080166
 30
0.0
 11
392.577972
 21
10.080166
 31
0.0
  0
LINE
  8
0
 62
   249
 10
209.577972
 20
18.580166
 30
0.0
 11
392.577972
 21
18.580166
 31
0.0
  0
LINE
  8
0
 62
   249
 10
392.577972
 20
0.580166
 30
0.0
 11
392.577972
 21
35.580166
 31
0.0
  0
LINE
  8
0
 62
   249
 10
209.577972
 20
0.580166
 30
0.0
 11
209.577972
 21
35.580166
 31
0.0
  0
LINE
  8
0
 62
   249
 10
209.577972
 20
0.580166
 30
0.0
 11
392.577972
 21
0.580166
 31
0.0
  0
LINE
  8
0
 62
   249
 10
18.577972
 20
0.580166
 30
0.0
 11
0.577972
 21
0.580166
 31
0.0
  0
LINE
  8
0
 62
   249
 10
0.577972
 20
263.080166
 30
0.0
 11
392.577972
 21
263.080166
 31
0.0
  0
TEXT
  8
0
  6
DASHED
 62
   249
 10
292.558067
 20
12.155526
 30
0.0
 40
3.0
  1
A3
  7
GREEKS
  0
TEXT
  8
0
  6
CONTINUOUS
 62
   249
 10
169.353328
 20
76.513635
 30
0.0
 40
2.0
  1
+
  0
TEXT
  8
0
  6
CONTINUOUS
 62
   249
 10
179.353328
 20
76.513635
 30
0.0
 40
2.0
  1
+
  0
TEXT
  8
0
  6
CONTINUOUS
 62
   249
 10
184.353328
 20
76.513635
 30
0.0
 40
2.0
  1
+
  0
TEXT
  8
0
  6
CONTINUOUS
 62
   249
 10
189.353328
 20
76.513635
 30
0.0
 40
2.0
  1
+
  0
ARC
  8
0
  6
CONTINUOUS
 62
   249
 10
185.0
 20
122.5
 30
0.0
 40
0.5
 50
180.0
 51
0.0
  0
ARC
  8
0
  6
CONTINUOUS
 62
   249
 10
185.0
 20
122.5
 30
0.0
 40
0.5
 50
0.0
 51
180.0
  0
TEXT
  8
0
  6
CONTINUOUS
 62
   249
 10
40.769996
 20
239.013635
 30
0.0
 40
2.0
  1
+
  0
LINE
  8
0
 62
   249
 10
35.407741
 20
238.135937
 30
0.0
 11
39.407741
 21
238.135937
 31
0.0
  0
INSERT
  8
0
 62
   249
  2
WKU130
 10
35.747691
 20
236.410384
 30
0.0
 41
0.8
 42
0.8
 43
0.8
  0
TEXT
  8
0
  6
CONTINUOUS
 62
   249
 10
40.761431
 20
234.00558
 30
0.0
 40
2.0
  1
-
  0
ARC
  8
0
  6
CONTINUOUS
 62
   249
 10
170.0
 20
213.047086
 30
0.0
 40
0.5
 50
180.0
 51
0.0
  0
ARC
  8
0
  6
CONTINUOUS
 62
   249
 10
170.0
 20
213.047086
 30
0.0
 40
0.5
 50
0.0
 51
180.0
  0
ARC
  8
0
  6
CONTINUOUS
 62
   249
 10
102.5
 20
197.07352
 30
0.0
 40
0.5
 50
180.0
 51
0.0
  0
ARC
  8
0
  6
CONTINUOUS
 62
   249
 10
102.5
 20
197.07352
 30
0.0
 40
0.5
 50
0.0
 51
180.0
  0
ARC
  8
0
  6
CONTINUOUS
 62
   249
 10
92.5
 20
209.595192
 30
0.0
 40
0.5
 50
180.0
 51
0.0
  0
ARC
  8
0
  6
CONTINUOUS
 62
   249
 10
92.5
 20
209.595192
 30
0.0
 40
0.5
 50
0.0
 51
180.0
  0
ARC
  8
0
  6
CONTINUOUS
 62
   249
 10
112.5
 20
209.595192
 30
0.0
 40
0.5
 50
180.0
 51
0.0
  0
ARC
  8
0
  6
CONTINUOUS
 62
   249
 10
112.5
 20
209.595192
 30
0.0
 40
0.5
 50
0.0
 51
180.0
  0
ARC
  8
0
  6
CONTINUOUS
 62
   249
 10
130.0
 20
197.07352
 30
0.0
 40
0.5
 50
180.0
 51
0.0
  0
ARC
  8
0
  6
CONTINUOUS
 62
   249
 10
130.0
 20
197.07352
 30
0.0
 40
0.5
 50
0.0
 51
180.0
  0
LINE
  8
0
  6
CONTINUOUS
 62
   249
 10
177.919131
 20
186.159936
 30
0.0
 11
175.573366
 21
187.495289
 31
0.0
  0
LINE
  8
0
  6
CONTINUOUS
 62
   249
 10
175.573366
 20
187.495289
 30
0.0
 11
177.919131
 21
188.685208
 31
0.0
  0
LINE
  8
0
  6
CONTINUOUS
 62
   249
 10
177.92845
 20
195.738183
 30
0.0
 11
175.582685
 21
197.073536
 31
0.0
  0
LINE
  8
0
  6
CONTINUOUS
 62
   249
 10
175.582685
 20
197.073536
 30
0.0
 11
177.92845
 21
198.263456
 31
0.0
  0
LINE
  8
0
  6
CONTINUOUS
 62
   249
 10
177.92845
 20
208.259854
 30
0.0
 11
175.582685
 21
209.595208
 31
0.0
  0
LINE
  8
0
  6
CONTINUOUS
 62
   249
 10
175.582685
 20
209.595208
 30
0.0
 11
177.92845
 21
210.785127
 31
0.0
  0
LINE
  8
0
  6
CONTINUOUS
 62
   249
 10
177.92845
 20
203.686797
 30
0.0
 11
175.582685
 21
205.022151
 31
0.0
  0
LINE
  8
0
  6
CONTINUOUS
 62
   249
 10
175.582685
 20
205.022151
 30
0.0
 11
177.92845
 21
206.21207
 31
0.0
  0
LINE
  8
0
  6
CONTINUOUS
 62
   249
 10
187.011726
 20
203.08725
 30
0.0
 11
187.898613
 21
203.08725
 31
0.0
  0
LINE
  8
0
  6
CONTINUOUS
 62
   249
 10
186.680621
 20
203.698883
 30
0.0
 11
188.265193
 21
203.698883
 31
0.0
  0
LINE
  8
0
  6
CONTINUOUS
 62
   249
 10
187.496557
 20
204.320945
 30
0.0
 11
188.690898
 21
204.320945
 31
0.0
  0
LINE
  8
0
  6
CONTINUOUS
 62
   249
 10
186.302216
 20
204.320945
 30
0.0
 11
187.496557
 21
204.320945
 31
0.0
  0
LINE
  8
0
  6
CONTINUOUS
 62
   249
 10
187.512444
 20
205.675216
 30
0.0
 11
187.512444
 21
204.320945
 31
0.0
  0
LINE
  8
0
  6
CONTINUOUS
 62
   249
 10
187.011726
 20
195.394107
 30
0.0
 11
187.898613
 21
195.394107
 31
0.0
  0
LINE
  8
0
  6
CONTINUOUS
 62
   249
 10
186.680621
 20
196.005741
 30
0.0
 11
188.265193
 21
196.005741
 31
0.0
  0
LINE
  8
0
  6
CONTINUOUS
 62
   249
 10
187.496557
 20
196.627803
 30
0.0
 11
188.690898
 21
196.627803
 31
0.0
  0
LINE
  8
0
  6
CONTINUOUS
 62
   249
 10
186.302216
 20
196.627803
 30
0.0
 11
187.496557
 21
196.627803
 31
0.0
  0
LINE
  8
0
  6
CONTINUOUS
 62
   249
 10
187.512444
 20
197.982073
 30
0.0
 11
187.512444
 21
196.627803
 31
0.0
  0
LINE
  8
0
  6
CONTINUOUS
 62
   249
 10
187.011726
 20
207.986944
 30
0.0
 11
187.898613
 21
207.986944
 31
0.0
  0
LINE
  8
0
  6
CONTINUOUS
 62
   249
 10
186.680621
 20
208.598577
 30
0.0
 11
188.265193
 21
208.598577
 31
0.0
  0
LINE
  8
0
  6
CONTINUOUS
 62
   249
 10
187.496557
 20
209.220639
 30
0.0
 11
188.690898
 21
209.220639
 31
0.0
  0
LINE
  8
0
  6
CONTINUOUS
 62
   249
 10
186.302216
 20
209.220639
 30
0.0
 11
187.496557
 21
209.220639
 31
0.0
  0
LINE
  8
0
  6
CONTINUOUS
 62
   249
 10
187.512444
 20
210.574909
 30
0.0
 11
187.512444
 21
209.220639
 31
0.0
  0
ARC
  8
0
  6
CONTINUOUS
 62
   249
 10
97.5
 20
222.151573
 30
0.0
 40
0.5
 50
180.0
 51
0.0
  0
ARC
  8
0
  6
CONTINUOUS
 62
   249
 10
97.5
 20
222.151573
 30
0.0
 40
0.5
 50
0.0
 51
180.0
  0
ARC
  8
0
  6
CONTINUOUS
 62
   249
 10
147.5
 20
229.753087
 30
0.0
 40
0.5
 50
180.0
 51
0.0
  0
ARC
  8
0
  6
CONTINUOUS
 62
   249
 10
147.5
 20
229.753087
 30
0.0
 40
0.5
 50
0.0
 51
180.0
  0
LINE
  8
0
  6
CONTINUOUS
 62
   249
 10
177.92845
 20
216.234502
 30
0.0
 11
175.582685
 21
217.569855
 31
0.0
  0
LINE
  8
0
  6
CONTINUOUS
 62
   249
 10
175.582685
 20
217.569855
 30
0.0
 11
177.92845
 21
218.759774
 31
0.0
  0
LINE
  8
0
  6
CONTINUOUS
 62
   249
 10
177.92845
 20
220.816236
 30
0.0
 11
175.582685
 21
222.15159
 31
0.0
  0
LINE
  8
0
  6
CONTINUOUS
 62
   249
 10
175.582685
 20
222.15159
 30
0.0
 11
177.92845
 21
223.341509
 31
0.0
  0
ARC
  8
0
  6
CONTINUOUS
 62
   249
 10
170.0
 20
225.51836
 30
0.0
 40
0.5
 50
180.0
 51
0.0
  0
ARC
  8
0
  6
CONTINUOUS
 62
   249
 10
170.0
 20
225.51836
 30
0.0
 40
0.5
 50
0.0
 51
180.0
  0
ARC
  8
0
  6
CONTINUOUS
 62
   249
 10
170.0
 20
233.014298
 30
0.0
 40
0.5
 50
180.0
 51
0.0
  0
ARC
  8
0
  6
CONTINUOUS
 62
   249
 10
170.0
 20
233.014298
 30
0.0
 40
0.5
 50
0.0
 51
180.0
  0
LINE
  8
0
  6
CONTINUOUS
 62
   249
 10
177.92845
 20
228.417749
 30
0.0
 11
175.582685
 21
229.753103
 31
0.0
  0
LINE
  8
0
  6
CONTINUOUS
 62
   249
 10
175.582685
 20
229.753103
 30
0.0
 11
177.92845
 21
230.943022
 31
0.0
  0
LINE
  8
0
  6
CONTINUOUS
 62
   249
 10
187.011726
 20
215.606305
 30
0.0
 11
187.898613
 21
215.606305
 31
0.0
  0
LINE
  8
0
  6
CONTINUOUS
 62
   249
 10
186.680621
 20
216.217938
 30
0.0
 11
188.265193
 21
216.217938
 31
0.0
  0
LINE
  8
0
  6
CONTINUOUS
 62
   249
 10
187.496557
 20
216.84
 30
0.0
 11
188.690898
 21
216.84
 31
0.0
  0
LINE
  8
0
  6
CONTINUOUS
 62
   249
 10
186.302216
 20
216.84
 30
0.0
 11
187.496557
 21
216.84
 31
0.0
  0
LINE
  8
0
  6
CONTINUOUS
 62
   249
 10
187.512444
 20
218.194271
 30
0.0
 11
187.512444
 21
216.84
 31
0.0
  0
LINE
  8
0
  6
CONTINUOUS
 62
   249
 10
187.011726
 20
220.394107
 30
0.0
 11
187.898613
 21
220.394107
 31
0.0
  0
LINE
  8
0
  6
CONTINUOUS
 62
   249
 10
186.680621
 20
221.005741
 30
0.0
 11
188.265193
 21
221.005741
 31
0.0
  0
LINE
  8
0
  6
CONTINUOUS
 62
   249
 10
187.496557
 20
221.627803
 30
0.0
 11
188.690898
 21
221.627803
 31
0.0
  0
LINE
  8
0
  6
CONTINUOUS
 62
   249
 10
186.302216
 20
221.627803
 30
0.0
 11
187.496557
 21
221.627803
 31
0.0
  0
LINE
  8
0
  6
CONTINUOUS
 62
   249
 10
187.512444
 20
222.982073
 30
0.0
 11
187.512444
 21
221.627803
 31
0.0
  0
LINE
  8
0
  6
CONTINUOUS
 62
   249
 10
187.011726
 20
227.986944
 30
0.0
 11
187.898613
 21
227.986944
 31
0.0
  0
LINE
  8
0
  6
CONTINUOUS
 62
   249
 10
186.680621
 20
228.598577
 30
0.0
 11
188.265193
 21
228.598577
 31
0.0
  0
LINE
  8
0
  6
CONTINUOUS
 62
   249
 10
187.496557
 20
229.220639
 30
0.0
 11
188.690898
 21
229.220639
 31
0.0
  0
LINE
  8
0
  6
CONTINUOUS
 62
   249
 10
186.302216
 20
229.220639
 30
0.0
 11
187.496557
 21
229.220639
 31
0.0
  0
LINE
  8
0
  6
CONTINUOUS
 62
   249
 10
187.512444
 20
230.574909
 30
0.0
 11
187.512444
 21
229.220639
 31
0.0
  0
TEXT
  8
0
  6
CONTINUOUS
 62
   249
 10
196.853328
 20
76.513635
 30
0.0
 40
2.0
  1
+
  0
TEXT
  8
0
  6
CONTINUOUS
 62
   249
 10
201.844763
 20
76.50558
 30
0.0
 40
2.0
  1
-
  0
LINE
  8
0
 62
   249
 10
214.979007
 20
75.783527
 30
0.0
 11
218.979007
 21
75.783527
 31
0.0
  0
INSERT
  8
0
 62
   249
  2
WKU130
 10
215.318957
 20
74.057974
 30
0.0
 41
0.8
 42
0.8
 43
0.8
  0
TEXT
  8
0
  6
CONTINUOUS
 62
   249
 10
214.353328
 20
76.513635
 30
0.0
 40
2.0
  1
+
  0
TEXT
  8
0
  6
CONTINUOUS
 62
   249
 10
219.344763
 20
76.50558
 30
0.0
 40
2.0
  1
-
  0
INSERT
  8
0
  6
CENTER
 62
   249
  2
BLC5
 10
232.791926
 20
78.342005
 30
0.0
 41
0.6
 42
0.6
 43
0.6
  0
ARC
  8
0
 62
   249
 10
218.672927
 20
110.936221
 30
0.0
 40
0.869227
 50
32.471192
 51
175.601295
  0
ARC
  8
0
 62
   249
 10
220.139595
 20
111.869554
 30
0.0
 40
0.869227
 50
212.471192
 51
355.601295
  0
3DFACE
  8
0
  6
CONTINUOUS
 62
   249
 10
246.634024
 20
171.94
 30
0.0
 11
246.649704
 21
171.94
 31
0.0
 12
246.649704
 22
173.06
 32
0.0
 13
246.634024
 23
173.06
 33
0.0
  0
3DFACE
  8
0
  6
CONTINUOUS
 62
   249
 10
246.649704
 20
171.94
 30
0.0
 11
246.665384
 21
171.94
 31
0.0
 12
246.665384
 22
173.06
 32
0.0
 13
246.649704
 23
173.06
 33
0.0
  0
3DFACE
  8
0
  6
CONTINUOUS
 62
   249
 10
246.665384
 20
171.94
 30
0.0
 11
246.681064
 21
171.94
 31
0.0
 12
246.681064
 22
173.06
 32
0.0
 13
246.665384
 23
173.06
 33
0.0
  0
3DFACE
  8
0
  6
CONTINUOUS
 62
   249
 10
246.681064
 20
171.94
 30
0.0
 11
246.696744
 21
171.94
 31
0.0
 12
246.696744
 22
173.06
 32
0.0
 13
246.681064
 23
173.06
 33
0.0
  0
3DFACE
  8
0
  6
CONTINUOUS
 62
   249
 10
246.696744
 20
171.94
 30
0.0
 11
246.712424
 21
171.94
 31
0.0
 12
246.712424
 22
173.06
 32
0.0
 13
246.696744
 23
173.06
 33
0.0
  0
3DFACE
  8
0
  6
CONTINUOUS
 62
   249
 10
246.712424
 20
171.94
 30
0.0
 11
246.728104
 21
171.94
 31
0.0
 12
246.728104
 22
173.06
 32
0.0
 13
246.712424
 23
173.06
 33
0.0
  0
3DFACE
  8
0
  6
CONTINUOUS
 62
   249
 10
246.728104
 20
171.94
 30
0.0
 11
246.743784
 21
171.94
 31
0.0
 12
246.743784
 22
173.06
 32
0.0
 13
246.728104
 23
173.06
 33
0.0
  0
3DFACE
  8
0
  6
CONTINUOUS
 62
   249
 10
246.743784
 20
171.94
 30
0.0
 11
246.759464
 21
171.94
 31
0.0
 12
246.759464
 22
173.06
 32
0.0
 13
246.743784
 23
173.06
 33
0.0
  0
3DFACE
  8
0
  6
CONTINUOUS
 62
   249
 10
246.759464
 20
171.94
 30
0.0
 11
246.775144
 21
171.94
 31
0.0
 12
246.775144
 22
173.06
 32
0.0
 13
246.759464
 23
173.06
 33
0.0
  0
3DFACE
  8
0
  6
CONTINUOUS
 62
   249
 10
246.775144
 20
171.94
 30
0.0
 11
246.790824
 21
171.94
 31
0.0
 12
246.790824
 22
173.06
 32
0.0
 13
246.775144
 23
173.06
 33
0.0
  0
3DFACE
  8
0
  6
CONTINUOUS
 62
   249
 10
246.790824
 20
171.94
 30
0.0
 11
246.806504
 21
171.94
 31
0.0
 12
246.806504
 22
173.06
 32
0.0
 13
246.790824
 23
173.06
 33
0.0
  0
3DFACE
  8
0
  6
CONTINUOUS
 62
   249
 10
246.806504
 20
171.94
 30
0.0
 11
246.822184
 21
171.94
 31
0.0
 12
246.822184
 22
173.06
 32
0.0
 13
246.806504
 23
173.06
 33
0.0
  0
3DFACE
  8
0
  6
CONTINUOUS
 62
   249
 10
246.822184
 20
171.94
 30
0.0
 11
246.837864
 21
171.94
 31
0.0
 12
246.837864
 22
173.06
 32
0.0
 13
246.822184
 23
173.06
 33
0.0
  0
3DFACE
  8
0
  6
CONTINUOUS
 62
   249
 10
246.837864
 20
171.94
 30
0.0
 11
246.853544
 21
171.94
 31
0.0
 12
246.853544
 22
173.06
 32
0.0
 13
246.837864
 23
173.06
 33
0.0
  0
3DFACE
  8
0
  6
CONTINUOUS
 62
   249
 10
246.853544
 20
171.94
 30
0.0
 11
246.869224
 21
171.94
 31
0.0
 12
246.869224
 22
173.06
 32
0.0
 13
246.853544
 23
173.06
 33
0.0
  0
3DFACE
  8
0
  6
CONTINUOUS
 62
   249
 10
246.869224
 20
171.94
 30
0.0
 11
246.884904
 21
171.94
 31
0.0
 12
246.884904
 22
173.06
 32
0.0
 13
246.869224
 23
173.06
 33
0.0
  0
3DFACE
  8
0
  6
CONTINUOUS
 62
   249
 10
246.884904
 20
171.94
 30
0.0
 11
246.900584
 21
171.94
 31
0.0
 12
246.900584
 22
173.06
 32
0.0
 13
246.884904
 23
173.06
 33
0.0
  0
3DFACE
  8
0
  6
CONTINUOUS
 62
   249
 10
246.900584
 20
171.94
 30
0.0
 11
246.916264
 21
171.94
 31
0.0
 12
246.916264
 22
173.06
 32
0.0
 13
246.900584
 23
173.06
 33
0.0
  0
3DFACE
  8
0
  6
CONTINUOUS
 62
   249
 10
246.916264
 20
171.94
 30
0.0
 11
246.931944
 21
171.94
 31
0.0
 12
246.931944
 22
173.06
 32
0.0
 13
246.916264
 23
173.06
 33
0.0
  0
3DFACE
  8
0
  6
CONTINUOUS
 62
   249
 10
246.931944
 20
171.94
 30
0.0
 11
246.947624
 21
171.94
 31
0.0
 12
246.947624
 22
173.06
 32
0.0
 13
246.931944
 23
173.06
 33
0.0
  0
3DFACE
  8
0
  6
CONTINUOUS
 62
   249
 10
246.947624
 20
171.94
 30
0.0
 11
246.963304
 21
171.94
 31
0.0
 12
246.963304
 22
173.06
 32
0.0
 13
246.947624
 23
173.06
 33
0.0
  0
3DFACE
  8
0
  6
CONTINUOUS
 62
   249
 10
246.963304
 20
171.94
 30
0.0
 11
246.978984
 21
171.94
 31
0.0
 12
246.978984
 22
173.06
 32
0.0
 13
246.963304
 23
173.06
 33
0.0
  0
3DFACE
  8
0
  6
CONTINUOUS
 62
   249
 10
246.978984
 20
171.94
 30
0.0
 11
246.994664
 21
171.94
 31
0.0
 12
246.994664
 22
173.06
 32
0.0
 13
246.978984
 23
173.06
 33
0.0
  0
3DFACE
  8
0
  6
CONTINUOUS
 62
   249
 10
246.994664
 20
171.94
 30
0.0
 11
247.010344
 21
171.94
 31
0.0
 12
247.010344
 22
173.06
 32
0.0
 13
246.994664
 23
173.06
 33
0.0
  0
3DFACE
  8
0
  6
CONTINUOUS
 62
   249
 10
247.010344
 20
171.94
 30
0.0
 11
247.026024
 21
171.94
 31
0.0
 12
247.026024
 22
173.06
 32
0.0
 13
247.010344
 23
173.06
 33
0.0
  0
3DFACE
  8
0
  6
CONTINUOUS
 62
   249
 10
247.026024
 20
171.94
 30
0.0
 11
247.041704
 21
171.94
 31
0.0
 12
247.041704
 22
173.06
 32
0.0
 13
247.026024
 23
173.06
 33
0.0
  0
3DFACE
  8
0
  6
CONTINUOUS
 62
   249
 10
247.041704
 20
171.94
 30
0.0
 11
247.057384
 21
171.94
 31
0.0
 12
247.057384
 22
173.06
 32
0.0
 13
247.041704
 23
173.06
 33
0.0
  0
3DFACE
  8
0
  6
CONTINUOUS
 62
   249
 10
247.057384
 20
171.94
 30
0.0
 11
247.073064
 21
171.94
 31
0.0
 12
247.073064
 22
173.06
 32
0.0
 13
247.057384
 23
173.06
 33
0.0
  0
3DFACE
  8
0
  6
CONTINUOUS
 62
   249
 10
247.073064
 20
171.94
 30
0.0
 11
247.088744
 21
171.94
 31
0.0
 12
247.088744
 22
173.06
 32
0.0
 13
247.073064
 23
173.06
 33
0.0
  0
3DFACE
  8
0
  6
CONTINUOUS
 62
   249
 10
247.088744
 20
171.94
 30
0.0
 11
247.104424
 21
171.94
 31
0.0
 12
247.104424
 22
173.06
 32
0.0
 13
247.088744
 23
173.06
 33
0.0
  0
3DFACE
  8
0
  6
CONTINUOUS
 62
   249
 10
247.104424
 20
171.94
 30
0.0
 11
247.120104
 21
171.94
 31
0.0
 12
247.120104
 22
173.06
 32
0.0
 13
247.104424
 23
173.06
 33
0.0
  0
3DFACE
  8
0
  6
CONTINUOUS
 62
   249
 10
247.120104
 20
171.94
 30
0.0
 11
247.135784
 21
171.94
 31
0.0
 12
247.135784
 22
173.06
 32
0.0
 13
247.120104
 23
173.06
 33
0.0
  0
3DFACE
  8
0
  6
CONTINUOUS
 62
   249
 10
247.135784
 20
171.94
 30
0.0
 11
247.151464
 21
171.94
 31
0.0
 12
247.151464
 22
173.06
 32
0.0
 13
247.135784
 23
173.06
 33
0.0
  0
3DFACE
  8
0
  6
CONTINUOUS
 62
   249
 10
247.151464
 20
171.94
 30
0.0
 11
247.167144
 21
171.94
 31
0.0
 12
247.167144
 22
173.06
 32
0.0
 13
247.151464
 23
173.06
 33
0.0
  0
3DFACE
  8
0
  6
CONTINUOUS
 62
   249
 10
247.167144
 20
171.94
 30
0.0
 11
247.182824
 21
171.94
 31
0.0
 12
247.182824
 22
173.06
 32
0.0
 13
247.167144
 23
173.06
 33
0.0
  0
3DFACE
  8
0
  6
CONTINUOUS
 62
   249
 10
247.182824
 20
171.94
 30
0.0
 11
247.198504
 21
171.94
 31
0.0
 12
247.198504
 22
173.06
 32
0.0
 13
247.182824
 23
173.06
 33
0.0
  0
3DFACE
  8
0
  6
CONTINUOUS
 62
   249
 10
247.198504
 20
171.94
 30
0.0
 11
247.214184
 21
171.94
 31
0.0
 12
247.214184
 22
173.06
 32
0.0
 13
247.198504
 23
173.06
 33
0.0
  0
3DFACE
  8
0
  6
CONTINUOUS
 62
   249
 10
247.214184
 20
171.94
 30
0.0
 11
247.229864
 21
171.94
 31
0.0
 12
247.229864
 22
173.06
 32
0.0
 13
247.214184
 23
173.06
 33
0.0
  0
3DFACE
  8
0
  6
CONTINUOUS
 62
   249
 10
247.229864
 20
171.94
 30
0.0
 11
247.245544
 21
171.94
 31
0.0
 12
247.245544
 22
173.06
 32
0.0
 13
247.229864
 23
173.06
 33
0.0
  0
3DFACE
  8
0
  6
CONTINUOUS
 62
   249
 10
247.245544
 20
171.94
 30
0.0
 11
247.261224
 21
171.94
 31
0.0
 12
247.261224
 22
173.06
 32
0.0
 13
247.245544
 23
173.06
 33
0.0
  0
3DFACE
  8
0
  6
CONTINUOUS
 62
   249
 10
247.261224
 20
171.94
 30
0.0
 11
247.276904
 21
171.94
 31
0.0
 12
247.276904
 22
173.06
 32
0.0
 13
247.261224
 23
173.06
 33
0.0
  0
3DFACE
  8
0
  6
CONTINUOUS
 62
   249
 10
247.276904
 20
171.94
 30
0.0
 11
247.292584
 21
171.94
 31
0.0
 12
247.292584
 22
173.06
 32
0.0
 13
247.276904
 23
173.06
 33
0.0
  0
3DFACE
  8
0
  6
CONTINUOUS
 62
   249
 10
247.292584
 20
171.94
 30
0.0
 11
247.308264
 21
171.94
 31
0.0
 12
247.308264
 22
173.06
 32
0.0
 13
247.292584
 23
173.06
 33
0.0
  0
3DFACE
  8
0
  6
CONTINUOUS
 62
   249
 10
247.308264
 20
171.94
 30
0.0
 11
247.323944
 21
171.94
 31
0.0
 12
247.323944
 22
173.06
 32
0.0
 13
247.308264
 23
173.06
 33
0.0
  0
3DFACE
  8
0
  6
CONTINUOUS
 62
   249
 10
247.323944
 20
171.94
 30
0.0
 11
247.339624
 21
171.94
 31
0.0
 12
247.339624
 22
173.06
 32
0.0
 13
247.323944
 23
173.06
 33
0.0
  0
3DFACE
  8
0
  6
CONTINUOUS
 62
   249
 10
247.339624
 20
171.94
 30
0.0
 11
247.355304
 21
171.94
 31
0.0
 12
247.355304
 22
173.06
 32
0.0
 13
247.339624
 23
173.06
 33
0.0
  0
3DFACE
  8
0
  6
CONTINUOUS
 62
   249
 10
247.355304
 20
171.94
 30
0.0
 11
247.370984
 21
171.94
 31
0.0
 12
247.370984
 22
173.06
 32
0.0
 13
247.355304
 23
173.06
 33
0.0
  0
3DFACE
  8
0
  6
CONTINUOUS
 62
   249
 10
247.370984
 20
171.94
 30
0.0
 11
247.386664
 21
171.94
 31
0.0
 12
247.386664
 22
173.06
 32
0.0
 13
247.370984
 23
173.06
 33
0.0
  0
3DFACE
  8
0
  6
CONTINUOUS
 62
   249
 10
247.386664
 20
171.94
 30
0.0
 11
247.402344
 21
171.94
 31
0.0
 12
247.402344
 22
173.06
 32
0.0
 13
247.386664
 23
173.06
 33
0.0
  0
3DFACE
  8
0
  6
CONTINUOUS
 62
   249
 10
247.402344
 20
171.94
 30
0.0
 11
247.418024
 21
171.94
 31
0.0
 12
247.418024
 22
173.06
 32
0.0
 13
247.402344
 23
173.06
 33
0.0
  0
3DFACE
  8
0
  6
CONTINUOUS
 62
   249
 10
247.418024
 20
171.94
 30
0.0
 11
247.433704
 21
171.94
 31
0.0
 12
247.433704
 22
173.06
 32
0.0
 13
247.418024
 23
173.06
 33
0.0
  0
3DFACE
  8
0
  6
CONTINUOUS
 62
   249
 10
247.433704
 20
171.94
 30
0.0
 11
247.449384
 21
171.94
 31
0.0
 12
247.449384
 22
173.06
 32
0.0
 13
247.433704
 23
173.06
 33
0.0
  0
3DFACE
  8
0
  6
CONTINUOUS
 62
   249
 10
247.449384
 20
171.94
 30
0.0
 11
247.465064
 21
171.94
 31
0.0
 12
247.465064
 22
173.06
 32
0.0
 13
247.449384
 23
173.06
 33
0.0
  0
3DFACE
  8
0
  6
CONTINUOUS
 62
   249
 10
247.465064
 20
171.94
 30
0.0
 11
247.480744
 21
171.94
 31
0.0
 12
247.480744
 22
173.06
 32
0.0
 13
247.465064
 23
173.06
 33
0.0
  0
3DFACE
  8
0
  6
CONTINUOUS
 62
   249
 10
247.480744
 20
171.94
 30
0.0
 11
247.496424
 21
171.94
 31
0.0
 12
247.496424
 22
173.06
 32
0.0
 13
247.480744
 23
173.06
 33
0.0
  0
3DFACE
  8
0
  6
CONTINUOUS
 62
   249
 10
247.496424
 20
171.94
 30
0.0
 11
247.512104
 21
171.94
 31
0.0
 12
247.512104
 22
173.06
 32
0.0
 13
247.496424
 23
173.06
 33
0.0
  0
3DFACE
  8
0
  6
CONTINUOUS
 62
   249
 10
247.512104
 20
171.94
 30
0.0
 11
247.527784
 21
171.94
 31
0.0
 12
247.527784
 22
173.06
 32
0.0
 13
247.512104
 23
173.06
 33
0.0
  0
3DFACE
  8
0
  6
CONTINUOUS
 62
   249
 10
247.527784
 20
171.94
 30
0.0
 11
247.543464
 21
171.94
 31
0.0
 12
247.543464
 22
173.06
 32
0.0
 13
247.527784
 23
173.06
 33
0.0
  0
3DFACE
  8
0
  6
CONTINUOUS
 62
   249
 10
247.543464
 20
171.94
 30
0.0
 11
247.559144
 21
171.94
 31
0.0
 12
247.559144
 22
173.06
 32
0.0
 13
247.543464
 23
173.06
 33
0.0
  0
3DFACE
  8
0
  6
CONTINUOUS
 62
   249
 10
247.559144
 20
171.94
 30
0.0
 11
247.574824
 21
171.94
 31
0.0
 12
247.574824
 22
173.06
 32
0.0
 13
247.559144
 23
173.06
 33
0.0
  0
3DFACE
  8
0
  6
CONTINUOUS
 62
   249
 10
247.574824
 20
171.94
 30
0.0
 11
247.590504
 21
171.94
 31
0.0
 12
247.590504
 22
173.06
 32
0.0
 13
247.574824
 23
173.06
 33
0.0
  0
3DFACE
  8
0
  6
CONTINUOUS
 62
   249
 10
247.590504
 20
171.94
 30
0.0
 11
247.606184
 21
171.94
 31
0.0
 12
247.606184
 22
173.06
 32
0.0
 13
247.590504
 23
173.06
 33
0.0
  0
3DFACE
  8
0
  6
CONTINUOUS
 62
   249
 10
247.606184
 20
171.94
 30
0.0
 11
247.621864
 21
171.94
 31
0.0
 12
247.621864
 22
173.06
 32
0.0
 13
247.606184
 23
173.06
 33
0.0
  0
3DFACE
  8
0
  6
CONTINUOUS
 62
   249
 10
247.621864
 20
171.94
 30
0.0
 11
247.637544
 21
171.94
 31
0.0
 12
247.637544
 22
173.06
 32
0.0
 13
247.621864
 23
173.06
 33
0.0
  0
3DFACE
  8
0
  6
CONTINUOUS
 62
   249
 10
247.637544
 20
171.94
 30
0.0
 11
247.653224
 21
171.94
 31
0.0
 12
247.653224
 22
173.06
 32
0.0
 13
247.637544
 23
173.06
 33
0.0
  0
3DFACE
  8
0
  6
CONTINUOUS
 62
   249
 10
247.653224
 20
171.94
 30
0.0
 11
247.668904
 21
171.94
 31
0.0
 12
247.668904
 22
173.06
 32
0.0
 13
247.653224
 23
173.06
 33
0.0
  0
3DFACE
  8
0
  6
CONTINUOUS
 62
   249
 10
247.668904
 20
171.94
 30
0.0
 11
247.684584
 21
171.94
 31
0.0
 12
247.684584
 22
173.06
 32
0.0
 13
247.668904
 23
173.06
 33
0.0
  0
3DFACE
  8
0
  6
CONTINUOUS
 62
   249
 10
247.684584
 20
171.94
 30
0.0
 11
247.700264
 21
171.94
 31
0.0
 12
247.700264
 22
173.06
 32
0.0
 13
247.684584
 23
173.06
 33
0.0
  0
3DFACE
  8
0
  6
CONTINUOUS
 62
   249
 10
247.700264
 20
171.94
 30
0.0
 11
247.715944
 21
171.94
 31
0.0
 12
247.715944
 22
173.06
 32
0.0
 13
247.700264
 23
173.06
 33
0.0
  0
3DFACE
  8
0
  6
CONTINUOUS
 62
   249
 10
247.715944
 20
171.94
 30
0.0
 11
247.731624
 21
171.94
 31
0.0
 12
247.731624
 22
173.06
 32
0.0
 13
247.715944
 23
173.06
 33
0.0
  0
3DFACE
  8
0
  6
CONTINUOUS
 62
   249
 10
247.731624
 20
171.94
 30
0.0
 11
247.747304
 21
171.94
 31
0.0
 12
247.747304
 22
173.06
 32
0.0
 13
247.731624
 23
173.06
 33
0.0
  0
3DFACE
  8
0
  6
CONTINUOUS
 62
   249
 10
247.747304
 20
171.94
 30
0.0
 11
247.762984
 21
171.94
 31
0.0
 12
247.762984
 22
173.06
 32
0.0
 13
247.747304
 23
173.06
 33
0.0
  0
3DFACE
  8
0
  6
CONTINUOUS
 62
   249
 10
247.762984
 20
171.94
 30
0.0
 11
247.778664
 21
171.94
 31
0.0
 12
247.778664
 22
173.06
 32
0.0
 13
247.762984
 23
173.06
 33
0.0
  0
3DFACE
  8
0
  6
CONTINUOUS
 62
   249
 10
247.778664
 20
171.94
 30
0.0
 11
247.794344
 21
171.94
 31
0.0
 12
247.794344
 22
173.06
 32
0.0
 13
247.778664
 23
173.06
 33
0.0
  0
3DFACE
  8
0
  6
CONTINUOUS
 62
   249
 10
247.794344
 20
171.94
 30
0.0
 11
247.810024
 21
171.94
 31
0.0
 12
247.810024
 22
173.06
 32
0.0
 13
247.794344
 23
173.06
 33
0.0
  0
3DFACE
  8
0
  6
CONTINUOUS
 62
   249
 10
247.810024
 20
171.94
 30
0.0
 11
247.825704
 21
171.94
 31
0.0
 12
247.825704
 22
173.06
 32
0.0
 13
247.810024
 23
173.06
 33
0.0
  0
3DFACE
  8
0
  6
CONTINUOUS
 62
   249
 10
247.825704
 20
171.94
 30
0.0
 11
247.841384
 21
171.94
 31
0.0
 12
247.841384
 22
173.06
 32
0.0
 13
247.825704
 23
173.06
 33
0.0
  0
3DFACE
  8
0
  6
CONTINUOUS
 62
   249
 10
247.841384
 20
171.94
 30
0.0
 11
247.857064
 21
171.94
 31
0.0
 12
247.857064
 22
173.06
 32
0.0
 13
247.841384
 23
173.06
 33
0.0
  0
3DFACE
  8
0
  6
CONTINUOUS
 62
   249
 10
247.857064
 20
171.94
 30
0.0
 11
247.872744
 21
171.94
 31
0.0
 12
247.872744
 22
173.06
 32
0.0
 13
247.857064
 23
173.06
 33
0.0
  0
3DFACE
  8
0
  6
CONTINUOUS
 62
   249
 10
247.872744
 20
171.94
 30
0.0
 11
247.888424
 21
171.94
 31
0.0
 12
247.888424
 22
173.06
 32
0.0
 13
247.872744
 23
173.06
 33
0.0
  0
3DFACE
  8
0
  6
CONTINUOUS
 62
   249
 10
247.888424
 20
171.94
 30
0.0
 11
247.904104
 21
171.94
 31
0.0
 12
247.904104
 22
173.06
 32
0.0
 13
247.888424
 23
173.06
 33
0.0
  0
3DFACE
  8
0
  6
CONTINUOUS
 62
   249
 10
247.904104
 20
171.94
 30
0.0
 11
247.919784
 21
171.94
 31
0.0
 12
247.919784
 22
173.06
 32
0.0
 13
247.904104
 23
173.06
 33
0.0
  0
3DFACE
  8
0
  6
CONTINUOUS
 62
   249
 10
247.919784
 20
171.94
 30
0.0
 11
247.935464
 21
171.94
 31
0.0
 12
247.935464
 22
173.06
 32
0.0
 13
247.919784
 23
173.06
 33
0.0
  0
3DFACE
  8
0
  6
CONTINUOUS
 62
   249
 10
247.935464
 20
171.94
 30
0.0
 11
247.951144
 21
171.94
 31
0.0
 12
247.951144
 22
173.06
 32
0.0
 13
247.935464
 23
173.06
 33
0.0
  0
3DFACE
  8
0
  6
CONTINUOUS
 62
   249
 10
247.951144
 20
171.94
 30
0.0
 11
247.966824
 21
171.94
 31
0.0
 12
247.966824
 22
173.06
 32
0.0
 13
247.951144
 23
173.06
 33
0.0
  0
3DFACE
  8
0
  6
CONTINUOUS
 62
   249
 10
247.966824
 20
171.94
 30
0.0
 11
247.982504
 21
171.94
 31
0.0
 12
247.982504
 22
173.06
 32
0.0
 13
247.966824
 23
173.06
 33
0.0
  0
3DFACE
  8
0
  6
CONTINUOUS
 62
   249
 10
247.982504
 20
171.94
 30
0.0
 11
247.998184
 21
171.94
 31
0.0
 12
247.998184
 22
173.06
 32
0.0
 13
247.982504
 23
173.06
 33
0.0
  0
3DFACE
  8
0
  6
CONTINUOUS
 62
   249
 10
247.998184
 20
171.94
 30
0.0
 11
248.013864
 21
171.94
 31
0.0
 12
248.013864
 22
173.06
 32
0.0
 13
247.998184
 23
173.06
 33
0.0
  0
3DFACE
  8
0
  6
CONTINUOUS
 62
   249
 10
248.013864
 20
171.94
 30
0.0
 11
248.029544
 21
171.94
 31
0.0
 12
248.029544
 22
173.06
 32
0.0
 13
248.013864
 23
173.06
 33
0.0
  0
3DFACE
  8
0
  6
CONTINUOUS
 62
   249
 10
248.029544
 20
171.94
 30
0.0
 11
248.045224
 21
171.94
 31
0.0
 12
248.045224
 22
173.06
 32
0.0
 13
248.029544
 23
173.06
 33
0.0
  0
3DFACE
  8
0
  6
CONTINUOUS
 62
   249
 10
248.045224
 20
171.94
 30
0.0
 11
248.060904
 21
171.94
 31
0.0
 12
248.060904
 22
173.06
 32
0.0
 13
248.045224
 23
173.06
 33
0.0
  0
3DFACE
  8
0
  6
CONTINUOUS
 62
   249
 10
248.060904
 20
171.94
 30
0.0
 11
248.076584
 21
171.94
 31
0.0
 12
248.076584
 22
173.06
 32
0.0
 13
248.060904
 23
173.06
 33
0.0
  0
3DFACE
  8
0
  6
CONTINUOUS
 62
   249
 10
248.076584
 20
171.94
 30
0.0
 11
248.092264
 21
171.94
 31
0.0
 12
248.092264
 22
173.06
 32
0.0
 13
248.076584
 23
173.06
 33
0.0
  0
3DFACE
  8
0
  6
CONTINUOUS
 62
   249
 10
248.092264
 20
171.94
 30
0.0
 11
248.107944
 21
171.94
 31
0.0
 12
248.107944
 22
173.06
 32
0.0
 13
248.092264
 23
173.06
 33
0.0
  0
3DFACE
  8
0
  6
CONTINUOUS
 62
   249
 10
248.107944
 20
171.94
 30
0.0
 11
248.123624
 21
171.94
 31
0.0
 12
248.123624
 22
173.06
 32
0.0
 13
248.107944
 23
173.06
 33
0.0
  0
3DFACE
  8
0
  6
CONTINUOUS
 62
   249
 10
248.123624
 20
171.94
 30
0.0
 11
248.139304
 21
171.94
 31
0.0
 12
248.139304
 22
173.06
 32
0.0
 13
248.123624
 23
173.06
 33
0.0
  0
3DFACE
  8
0
  6
CONTINUOUS
 62
   249
 10
248.139304
 20
171.94
 30
0.0
 11
248.154984
 21
171.94
 31
0.0
 12
248.154984
 22
173.06
 32
0.0
 13
248.139304
 23
173.06
 33
0.0
  0
3DFACE
  8
0
  6
CONTINUOUS
 62
   249
 10
248.154984
 20
171.94
 30
0.0
 11
248.170664
 21
171.94
 31
0.0
 12
248.170664
 22
173.06
 32
0.0
 13
248.154984
 23
173.06
 33
0.0
  0
3DFACE
  8
0
  6
CONTINUOUS
 62
   249
 10
248.170664
 20
171.94
 30
0.0
 11
248.186344
 21
171.94
 31
0.0
 12
248.186344
 22
173.06
 32
0.0
 13
248.170664
 23
173.06
 33
0.0
  0
3DFACE
  8
0
  6
CONTINUOUS
 62
   249
 10
248.186344
 20
171.94
 30
0.0
 11
248.202024
 21
171.94
 31
0.0
 12
248.202024
 22
173.06
 32
0.0
 13
248.186344
 23
173.06
 33
0.0
  0
3DFACE
  8
0
  6
CONTINUOUS
 62
   249
 10
248.202024
 20
171.94
 30
0.0
 11
248.217704
 21
171.94
 31
0.0
 12
248.217704
 22
173.06
 32
0.0
 13
248.202024
 23
173.06
 33
0.0
  0
3DFACE
  8
0
  6
CONTINUOUS
 62
   249
 10
248.217704
 20
171.94
 30
0.0
 11
248.233384
 21
171.94
 31
0.0
 12
248.233384
 22
173.06
 32
0.0
 13
248.217704
 23
173.06
 33
0.0
  0
3DFACE
  8
0
  6
CONTINUOUS
 62
   249
 10
248.233384
 20
171.94
 30
0.0
 11
248.249064
 21
171.94
 31
0.0
 12
248.249064
 22
173.06
 32
0.0
 13
248.233384
 23
173.06
 33
0.0
  0
3DFACE
  8
0
  6
CONTINUOUS
 62
   249
 10
248.249064
 20
171.94
 30
0.0
 11
248.264744
 21
171.94
 31
0.0
 12
248.264744
 22
173.06
 32
0.0
 13
248.249064
 23
173.06
 33
0.0
  0
3DFACE
  8
0
  6
CONTINUOUS
 62
   249
 10
248.264744
 20
171.94
 30
0.0
 11
248.280424
 21
171.94
 31
0.0
 12
248.280424
 22
173.06
 32
0.0
 13
248.264744
 23
173.06
 33
0.0
  0
3DFACE
  8
0
  6
CONTINUOUS
 62
   249
 10
248.280424
 20
171.94
 30
0.0
 11
248.296104
 21
171.94
 31
0.0
 12
248.296104
 22
173.06
 32
0.0
 13
248.280424
 23
173.06
 33
0.0
  0
3DFACE
  8
0
  6
CONTINUOUS
 62
   249
 10
248.296104
 20
171.94
 30
0.0
 11
248.311784
 21
171.94
 31
0.0
 12
248.311784
 22
173.06
 32
0.0
 13
248.296104
 23
173.06
 33
0.0
  0
3DFACE
  8
0
  6
CONTINUOUS
 62
   249
 10
248.311784
 20
171.94
 30
0.0
 11
248.327464
 21
171.94
 31
0.0
 12
248.327464
 22
173.06
 32
0.0
 13
248.311784
 23
173.06
 33
0.0
  0
3DFACE
  8
0
  6
CONTINUOUS
 62
   249
 10
248.327464
 20
171.94
 30
0.0
 11
248.343144
 21
171.94
 31
0.0
 12
248.343144
 22
173.06
 32
0.0
 13
248.327464
 23
173.06
 33
0.0
  0
3DFACE
  8
0
  6
CONTINUOUS
 62
   249
 10
248.343144
 20
171.94
 30
0.0
 11
248.358824
 21
171.94
 31
0.0
 12
248.358824
 22
173.06
 32
0.0
 13
248.343144
 23
173.06
 33
0.0
  0
3DFACE
  8
0
  6
CONTINUOUS
 62
   249
 10
248.358824
 20
171.94
 30
0.0
 11
248.374504
 21
171.94
 31
0.0
 12
248.374504
 22
173.06
 32
0.0
 13
248.358824
 23
173.06
 33
0.0
  0
3DFACE
  8
0
  6
CONTINUOUS
 62
   249
 10
248.374504
 20
171.94
 30
0.0
 11
248.390184
 21
171.94
 31
0.0
 12
248.390184
 22
173.06
 32
0.0
 13
248.374504
 23
173.06
 33
0.0
  0
3DFACE
  8
0
  6
CONTINUOUS
 62
   249
 10
248.390184
 20
171.94
 30
0.0
 11
248.405864
 21
171.94
 31
0.0
 12
248.405864
 22
173.06
 32
0.0
 13
248.390184
 23
173.06
 33
0.0
  0
3DFACE
  8
0
  6
CONTINUOUS
 62
   249
 10
248.405864
 20
171.94
 30
0.0
 11
248.421544
 21
171.94
 31
0.0
 12
248.421544
 22
173.06
 32
0.0
 13
248.405864
 23
173.06
 33
0.0
  0
3DFACE
  8
0
  6
CONTINUOUS
 62
   249
 10
248.421544
 20
171.94
 30
0.0
 11
248.437224
 21
171.94
 31
0.0
 12
248.437224
 22
173.06
 32
0.0
 13
248.421544
 23
173.06
 33
0.0
  0
3DFACE
  8
0
  6
CONTINUOUS
 62
   249
 10
248.437224
 20
171.94
 30
0.0
 11
248.452904
 21
171.94
 31
0.0
 12
248.452904
 22
173.06
 32
0.0
 13
248.437224
 23
173.06
 33
0.0
  0
3DFACE
  8
0
  6
CONTINUOUS
 62
   249
 10
248.452904
 20
171.94
 30
0.0
 11
248.468584
 21
171.94
 31
0.0
 12
248.468584
 22
173.06
 32
0.0
 13
248.452904
 23
173.06
 33
0.0
  0
3DFACE
  8
0
  6
CONTINUOUS
 62
   249
 10
248.468584
 20
171.94
 30
0.0
 11
248.484264
 21
171.94
 31
0.0
 12
248.484264
 22
173.06
 32
0.0
 13
248.468584
 23
173.06
 33
0.0
  0
3DFACE
  8
0
  6
CONTINUOUS
 62
   249
 10
248.484264
 20
171.94
 30
0.0
 11
248.499944
 21
171.94
 31
0.0
 12
248.499944
 22
173.06
 32
0.0
 13
248.484264
 23
173.06
 33
0.0
  0
3DFACE
  8
0
  6
CONTINUOUS
 62
   249
 10
248.499944
 20
171.94
 30
0.0
 11
248.515624
 21
171.94
 31
0.0
 12
248.515624
 22
173.06
 32
0.0
 13
248.499944
 23
173.06
 33
0.0
  0
3DFACE
  8
0
  6
CONTINUOUS
 62
   249
 10
248.515624
 20
171.94
 30
0.0
 11
248.531304
 21
171.94
 31
0.0
 12
248.531304
 22
173.06
 32
0.0
 13
248.515624
 23
173.06
 33
0.0
  0
3DFACE
  8
0
  6
CONTINUOUS
 62
   249
 10
248.531304
 20
171.94
 30
0.0
 11
248.546984
 21
171.94
 31
0.0
 12
248.546984
 22
173.06
 32
0.0
 13
248.531304
 23
173.06
 33
0.0
  0
3DFACE
  8
0
  6
CONTINUOUS
 62
   249
 10
248.546984
 20
171.94
 30
0.0
 11
248.562664
 21
171.94
 31
0.0
 12
248.562664
 22
173.06
 32
0.0
 13
248.546984
 23
173.06
 33
0.0
  0
3DFACE
  8
0
  6
CONTINUOUS
 62
   249
 10
248.562664
 20
171.94
 30
0.0
 11
248.578344
 21
171.94
 31
0.0
 12
248.578344
 22
173.06
 32
0.0
 13
248.562664
 23
173.06
 33
0.0
  0
3DFACE
  8
0
  6
CONTINUOUS
 62
   249
 10
248.578344
 20
171.94
 30
0.0
 11
248.594024
 21
171.94
 31
0.0
 12
248.594024
 22
173.06
 32
0.0
 13
248.578344
 23
173.06
 33
0.0
  0
3DFACE
  8
0
  6
CONTINUOUS
 62
   249
 10
248.594024
 20
171.94
 30
0.0
 11
248.609704
 21
171.94
 31
0.0
 12
248.609704
 22
173.06
 32
0.0
 13
248.594024
 23
173.06
 33
0.0
  0
3DFACE
  8
0
  6
CONTINUOUS
 62
   249
 10
248.609704
 20
171.94
 30
0.0
 11
248.625384
 21
171.94
 31
0.0
 12
248.625384
 22
173.06
 32
0.0
 13
248.609704
 23
173.06
 33
0.0
  0
3DFACE
  8
0
  6
CONTINUOUS
 62
   249
 10
248.625384
 20
171.94
 30
0.0
 11
248.641064
 21
171.94
 31
0.0
 12
248.641064
 22
173.06
 32
0.0
 13
248.625384
 23
173.06
 33
0.0
  0
3DFACE
  8
0
  6
CONTINUOUS
 62
   249
 10
248.641064
 20
171.94
 30
0.0
 11
248.656744
 21
171.94
 31
0.0
 12
248.656744
 22
173.06
 32
0.0
 13
248.641064
 23
173.06
 33
0.0
  0
3DFACE
  8
0
  6
CONTINUOUS
 62
   249
 10
248.656744
 20
171.94
 30
0.0
 11
248.672424
 21
171.94
 31
0.0
 12
248.672424
 22
173.06
 32
0.0
 13
248.656744
 23
173.06
 33
0.0
  0
3DFACE
  8
0
  6
CONTINUOUS
 62
   249
 10
248.672424
 20
171.94
 30
0.0
 11
248.688104
 21
171.94
 31
0.0
 12
248.688104
 22
173.06
 32
0.0
 13
248.672424
 23
173.06
 33
0.0
  0
3DFACE
  8
0
  6
CONTINUOUS
 62
   249
 10
248.688104
 20
171.94
 30
0.0
 11
248.703784
 21
171.94
 31
0.0
 12
248.703784
 22
173.06
 32
0.0
 13
248.688104
 23
173.06
 33
0.0
  0
3DFACE
  8
0
  6
CONTINUOUS
 62
   249
 10
248.703784
 20
171.94
 30
0.0
 11
248.719464
 21
171.94
 31
0.0
 12
248.719464
 22
173.06
 32
0.0
 13
248.703784
 23
173.06
 33
0.0
  0
3DFACE
  8
0
  6
CONTINUOUS
 62
   249
 10
248.719464
 20
171.94
 30
0.0
 11
248.735144
 21
171.94
 31
0.0
 12
248.735144
 22
173.06
 32
0.0
 13
248.719464
 23
173.06
 33
0.0
  0
3DFACE
  8
0
  6
CONTINUOUS
 62
   249
 10
248.735144
 20
171.94
 30
0.0
 11
248.750824
 21
171.94
 31
0.0
 12
248.750824
 22
173.06
 32
0.0
 13
248.735144
 23
173.06
 33
0.0
  0
3DFACE
  8
0
  6
CONTINUOUS
 62
   249
 10
248.750824
 20
171.94
 30
0.0
 11
248.766504
 21
171.94
 31
0.0
 12
248.766504
 22
173.06
 32
0.0
 13
248.750824
 23
173.06
 33
0.0
  0
3DFACE
  8
0
  6
CONTINUOUS
 62
   249
 10
248.766504
 20
171.94
 30
0.0
 11
248.782184
 21
171.94
 31
0.0
 12
248.782184
 22
173.06
 32
0.0
 13
248.766504
 23
173.06
 33
0.0
  0
3DFACE
  8
0
  6
CONTINUOUS
 62
   249
 10
248.782184
 20
171.94
 30
0.0
 11
248.797864
 21
171.94
 31
0.0
 12
248.797864
 22
173.06
 32
0.0
 13
248.782184
 23
173.06
 33
0.0
  0
3DFACE
  8
0
  6
CONTINUOUS
 62
   249
 10
248.797864
 20
171.94
 30
0.0
 11
248.813544
 21
171.94
 31
0.0
 12
248.813544
 22
173.06
 32
0.0
 13
248.797864
 23
173.06
 33
0.0
  0
3DFACE
  8
0
  6
CONTINUOUS
 62
   249
 10
248.813544
 20
171.94
 30
0.0
 11
248.829224
 21
171.94
 31
0.0
 12
248.829224
 22
173.06
 32
0.0
 13
248.813544
 23
173.06
 33
0.0
  0
3DFACE
  8
0
  6
CONTINUOUS
 62
   249
 10
248.829224
 20
171.94
 30
0.0
 11
248.844904
 21
171.94
 31
0.0
 12
248.844904
 22
173.06
 32
0.0
 13
248.829224
 23
173.06
 33
0.0
  0
3DFACE
  8
0
  6
CONTINUOUS
 62
   249
 10
248.844904
 20
171.94
 30
0.0
 11
248.860584
 21
171.94
 31
0.0
 12
248.860584
 22
173.06
 32
0.0
 13
248.844904
 23
173.06
 33
0.0
  0
3DFACE
  8
0
  6
CONTINUOUS
 62
   249
 10
248.860584
 20
171.94
 30
0.0
 11
248.876264
 21
171.94
 31
0.0
 12
248.876264
 22
173.06
 32
0.0
 13
248.860584
 23
173.06
 33
0.0
  0
3DFACE
  8
0
  6
CONTINUOUS
 62
   249
 10
248.876264
 20
171.94
 30
0.0
 11
248.891944
 21
171.94
 31
0.0
 12
248.891944
 22
173.06
 32
0.0
 13
248.876264
 23
173.06
 33
0.0
  0
3DFACE
  8
0
  6
CONTINUOUS
 62
   249
 10
248.891944
 20
171.94
 30
0.0
 11
248.907624
 21
171.94
 31
0.0
 12
248.907624
 22
173.06
 32
0.0
 13
248.891944
 23
173.06
 33
0.0
  0
3DFACE
  8
0
  6
CONTINUOUS
 62
   249
 10
248.907624
 20
171.94
 30
0.0
 11
248.923304
 21
171.94
 31
0.0
 12
248.923304
 22
173.06
 32
0.0
 13
248.907624
 23
173.06
 33
0.0
  0
3DFACE
  8
0
  6
CONTINUOUS
 62
   249
 10
248.923304
 20
171.94
 30
0.0
 11
248.938984
 21
171.94
 31
0.0
 12
248.938984
 22
173.06
 32
0.0
 13
248.923304
 23
173.06
 33
0.0
  0
3DFACE
  8
0
  6
CONTINUOUS
 62
   249
 10
248.938984
 20
171.94
 30
0.0
 11
248.954664
 21
171.94
 31
0.0
 12
248.954664
 22
173.06
 32
0.0
 13
248.938984
 23
173.06
 33
0.0
  0
3DFACE
  8
0
  6
CONTINUOUS
 62
   249
 10
248.954664
 20
171.94
 30
0.0
 11
248.970344
 21
171.94
 31
0.0
 12
248.970344
 22
173.06
 32
0.0
 13
248.954664
 23
173.06
 33
0.0
  0
3DFACE
  8
0
  6
CONTINUOUS
 62
   249
 10
248.970344
 20
171.94
 30
0.0
 11
248.986024
 21
171.94
 31
0.0
 12
248.986024
 22
173.06
 32
0.0
 13
248.970344
 23
173.06
 33
0.0
  0
3DFACE
  8
0
  6
CONTINUOUS
 62
   249
 10
248.986024
 20
171.94
 30
0.0
 11
249.001704
 21
171.94
 31
0.0
 12
249.001704
 22
173.06
 32
0.0
 13
248.986024
 23
173.06
 33
0.0
  0
3DFACE
  8
0
  6
CONTINUOUS
 62
   249
 10
249.001704
 20
171.94
 30
0.0
 11
249.017384
 21
171.94
 31
0.0
 12
249.017384
 22
173.06
 32
0.0
 13
249.001704
 23
173.06
 33
0.0
  0
3DFACE
  8
0
  6
CONTINUOUS
 62
   249
 10
249.017384
 20
171.94
 30
0.0
 11
249.033064
 21
171.94
 31
0.0
 12
249.033064
 22
173.06
 32
0.0
 13
249.017384
 23
173.06
 33
0.0
  0
3DFACE
  8
0
  6
CONTINUOUS
 62
   249
 10
249.033064
 20
171.94
 30
0.0
 11
249.048744
 21
171.94
 31
0.0
 12
249.048744
 22
173.06
 32
0.0
 13
249.033064
 23
173.06
 33
0.0
  0
3DFACE
  8
0
  6
CONTINUOUS
 62
   249
 10
249.048744
 20
171.94
 30
0.0
 11
249.064424
 21
171.94
 31
0.0
 12
249.064424
 22
173.06
 32
0.0
 13
249.048744
 23
173.06
 33
0.0
  0
3DFACE
  8
0
  6
CONTINUOUS
 62
   249
 10
249.064424
 20
171.94
 30
0.0
 11
249.080104
 21
171.94
 31
0.0
 12
249.080104
 22
173.06
 32
0.0
 13
249.064424
 23
173.06
 33
0.0
  0
3DFACE
  8
0
  6
CONTINUOUS
 62
   249
 10
249.080104
 20
171.94
 30
0.0
 11
249.095784
 21
171.94
 31
0.0
 12
249.095784
 22
173.06
 32
0.0
 13
249.080104
 23
173.06
 33
0.0
  0
3DFACE
  8
0
  6
CONTINUOUS
 62
   249
 10
249.095784
 20
171.94
 30
0.0
 11
249.111464
 21
171.94
 31
0.0
 12
249.111464
 22
173.06
 32
0.0
 13
249.095784
 23
173.06
 33
0.0
  0
3DFACE
  8
0
  6
CONTINUOUS
 62
   249
 10
249.111464
 20
171.94
 30
0.0
 11
249.127144
 21
171.94
 31
0.0
 12
249.127144
 22
173.06
 32
0.0
 13
249.111464
 23
173.06
 33
0.0
  0
3DFACE
  8
0
  6
CONTINUOUS
 62
   249
 10
249.127144
 20
171.94
 30
0.0
 11
249.142824
 21
171.94
 31
0.0
 12
249.142824
 22
173.06
 32
0.0
 13
249.127144
 23
173.06
 33
0.0
  0
3DFACE
  8
0
  6
CONTINUOUS
 62
   249
 10
249.142824
 20
171.94
 30
0.0
 11
249.158504
 21
171.94
 31
0.0
 12
249.158504
 22
173.06
 32
0.0
 13
249.142824
 23
173.06
 33
0.0
  0
3DFACE
  8
0
  6
CONTINUOUS
 62
   249
 10
249.158504
 20
171.94
 30
0.0
 11
249.174184
 21
171.94
 31
0.0
 12
249.174184
 22
173.06
 32
0.0
 13
249.158504
 23
173.06
 33
0.0
  0
3DFACE
  8
0
  6
CONTINUOUS
 62
   249
 10
249.174184
 20
171.94
 30
0.0
 11
249.189864
 21
171.94
 31
0.0
 12
249.189864
 22
173.06
 32
0.0
 13
249.174184
 23
173.06
 33
0.0
  0
3DFACE
  8
0
  6
CONTINUOUS
 62
   249
 10
249.189864
 20
171.94
 30
0.0
 11
249.205544
 21
171.94
 31
0.0
 12
249.205544
 22
173.06
 32
0.0
 13
249.189864
 23
173.06
 33
0.0
  0
3DFACE
  8
0
  6
CONTINUOUS
 62
   249
 10
249.205544
 20
171.94
 30
0.0
 11
249.221224
 21
171.94
 31
0.0
 12
249.221224
 22
173.06
 32
0.0
 13
249.205544
 23
173.06
 33
0.0
  0
3DFACE
  8
0
  6
CONTINUOUS
 62
   249
 10
249.221224
 20
171.94
 30
0.0
 11
249.236904
 21
171.94
 31
0.0
 12
249.236904
 22
173.06
 32
0.0
 13
249.221224
 23
173.06
 33
0.0
  0
3DFACE
  8
0
  6
CONTINUOUS
 62
   249
 10
249.236904
 20
171.94
 30
0.0
 11
249.252584
 21
171.94
 31
0.0
 12
249.252584
 22
173.06
 32
0.0
 13
249.236904
 23
173.06
 33
0.0
  0
3DFACE
  8
0
  6
CONTINUOUS
 62
   249
 10
249.252584
 20
171.94
 30
0.0
 11
249.268264
 21
171.94
 31
0.0
 12
249.268264
 22
173.06
 32
0.0
 13
249.252584
 23
173.06
 33
0.0
  0
3DFACE
  8
0
  6
CONTINUOUS
 62
   249
 10
249.268264
 20
171.94
 30
0.0
 11
249.283944
 21
171.94
 31
0.0
 12
249.283944
 22
173.06
 32
0.0
 13
249.268264
 23
173.06
 33
0.0
  0
3DFACE
  8
0
  6
CONTINUOUS
 62
   249
 10
249.283944
 20
171.94
 30
0.0
 11
249.299624
 21
171.94
 31
0.0
 12
249.299624
 22
173.06
 32
0.0
 13
249.283944
 23
173.06
 33
0.0
  0
3DFACE
  8
0
  6
CONTINUOUS
 62
   249
 10
249.299624
 20
171.94
 30
0.0
 11
249.315304
 21
171.94
 31
0.0
 12
249.315304
 22
173.06
 32
0.0
 13
249.299624
 23
173.06
 33
0.0
  0
3DFACE
  8
0
  6
CONTINUOUS
 62
   249
 10
249.315304
 20
171.94
 30
0.0
 11
249.330984
 21
171.94
 31
0.0
 12
249.330984
 22
173.06
 32
0.0
 13
249.315304
 23
173.06
 33
0.0
  0
3DFACE
  8
0
  6
CONTINUOUS
 62
   249
 10
249.330984
 20
171.94
 30
0.0
 11
249.346664
 21
171.94
 31
0.0
 12
249.346664
 22
173.06
 32
0.0
 13
249.330984
 23
173.06
 33
0.0
  0
3DFACE
  8
0
  6
CONTINUOUS
 62
   249
 10
249.346664
 20
171.94
 30
0.0
 11
249.362344
 21
171.94
 31
0.0
 12
249.362344
 22
173.06
 32
0.0
 13
249.346664
 23
173.06
 33
0.0
  0
3DFACE
  8
0
  6
CONTINUOUS
 62
   249
 10
249.362344
 20
171.94
 30
0.0
 11
249.378024
 21
171.94
 31
0.0
 12
249.378024
 22
173.06
 32
0.0
 13
249.362344
 23
173.06
 33
0.0
  0
3DFACE
  8
0
  6
CONTINUOUS
 62
   249
 10
249.378024
 20
171.94
 30
0.0
 11
249.393704
 21
171.94
 31
0.0
 12
249.393704
 22
173.06
 32
0.0
 13
249.378024
 23
173.06
 33
0.0
  0
3DFACE
  8
0
  6
CONTINUOUS
 62
   249
 10
249.393704
 20
171.94
 30
0.0
 11
249.409384
 21
171.94
 31
0.0
 12
249.409384
 22
173.06
 32
0.0
 13
249.393704
 23
173.06
 33
0.0
  0
3DFACE
  8
0
  6
CONTINUOUS
 62
   249
 10
249.409384
 20
171.94
 30
0.0
 11
249.425064
 21
171.94
 31
0.0
 12
249.425064
 22
173.06
 32
0.0
 13
249.409384
 23
173.06
 33
0.0
  0
3DFACE
  8
0
  6
CONTINUOUS
 62
   249
 10
249.425064
 20
171.94
 30
0.0
 11
249.440744
 21
171.94
 31
0.0
 12
249.440744
 22
173.06
 32
0.0
 13
249.425064
 23
173.06
 33
0.0
  0
3DFACE
  8
0
  6
CONTINUOUS
 62
   249
 10
249.440744
 20
171.94
 30
0.0
 11
249.456424
 21
171.94
 31
0.0
 12
249.456424
 22
173.06
 32
0.0
 13
249.440744
 23
173.06
 33
0.0
  0
3DFACE
  8
0
  6
CONTINUOUS
 62
   249
 10
249.456424
 20
171.94
 30
0.0
 11
249.472104
 21
171.94
 31
0.0
 12
249.472104
 22
173.06
 32
0.0
 13
249.456424
 23
173.06
 33
0.0
  0
3DFACE
  8
0
  6
CONTINUOUS
 62
   249
 10
249.472104
 20
171.94
 30
0.0
 11
249.487784
 21
171.94
 31
0.0
 12
249.487784
 22
173.06
 32
0.0
 13
249.472104
 23
173.06
 33
0.0
  0
3DFACE
  8
0
  6
CONTINUOUS
 62
   249
 10
249.487784
 20
171.94
 30
0.0
 11
249.503464
 21
171.94
 31
0.0
 12
249.503464
 22
173.06
 32
0.0
 13
249.487784
 23
173.06
 33
0.0
  0
3DFACE
  8
0
  6
CONTINUOUS
 62
   249
 10
249.503464
 20
171.94
 30
0.0
 11
249.519144
 21
171.94
 31
0.0
 12
249.519144
 22
173.06
 32
0.0
 13
249.503464
 23
173.06
 33
0.0
  0
3DFACE
  8
0
  6
CONTINUOUS
 62
   249
 10
249.519144
 20
171.94
 30
0.0
 11
249.534824
 21
171.94
 31
0.0
 12
249.534824
 22
173.06
 32
0.0
 13
249.519144
 23
173.06
 33
0.0
  0
3DFACE
  8
0
  6
CONTINUOUS
 62
   249
 10
249.534824
 20
171.94
 30
0.0
 11
249.550504
 21
171.94
 31
0.0
 12
249.550504
 22
173.06
 32
0.0
 13
249.534824
 23
173.06
 33
0.0
  0
3DFACE
  8
0
  6
CONTINUOUS
 62
   249
 10
249.550504
 20
171.94
 30
0.0
 11
249.566184
 21
171.94
 31
0.0
 12
249.566184
 22
173.06
 32
0.0
 13
249.550504
 23
173.06
 33
0.0
  0
3DFACE
  8
0
  6
CONTINUOUS
 62
   249
 10
249.566184
 20
171.94
 30
0.0
 11
249.581864
 21
171.94
 31
0.0
 12
249.581864
 22
173.06
 32
0.0
 13
249.566184
 23
173.06
 33
0.0
  0
3DFACE
  8
0
  6
CONTINUOUS
 62
   249
 10
249.581864
 20
171.94
 30
0.0
 11
249.597544
 21
171.94
 31
0.0
 12
249.597544
 22
173.06
 32
0.0
 13
249.581864
 23
173.06
 33
0.0
  0
3DFACE
  8
0
  6
CONTINUOUS
 62
   249
 10
249.597544
 20
171.94
 30
0.0
 11
249.613224
 21
171.94
 31
0.0
 12
249.613224
 22
173.06
 32
0.0
 13
249.597544
 23
173.06
 33
0.0
  0
3DFACE
  8
0
  6
CONTINUOUS
 62
   249
 10
249.613224
 20
171.94
 30
0.0
 11
249.628904
 21
171.94
 31
0.0
 12
249.628904
 22
173.06
 32
0.0
 13
249.613224
 23
173.06
 33
0.0
  0
3DFACE
  8
0
  6
CONTINUOUS
 62
   249
 10
249.628904
 20
171.94
 30
0.0
 11
249.644584
 21
171.94
 31
0.0
 12
249.644584
 22
173.06
 32
0.0
 13
249.628904
 23
173.06
 33
0.0
  0
3DFACE
  8
0
  6
CONTINUOUS
 62
   249
 10
249.644584
 20
171.94
 30
0.0
 11
249.660264
 21
171.94
 31
0.0
 12
249.660264
 22
173.06
 32
0.0
 13
249.644584
 23
173.06
 33
0.0
  0
3DFACE
  8
0
  6
CONTINUOUS
 62
   249
 10
249.660264
 20
171.94
 30
0.0
 11
249.675944
 21
171.94
 31
0.0
 12
249.675944
 22
173.06
 32
0.0
 13
249.660264
 23
173.06
 33
0.0
  0
3DFACE
  8
0
  6
CONTINUOUS
 62
   249
 10
249.675944
 20
171.94
 30
0.0
 11
249.691624
 21
171.94
 31
0.0
 12
249.691624
 22
173.06
 32
0.0
 13
249.675944
 23
173.06
 33
0.0
  0
3DFACE
  8
0
  6
CONTINUOUS
 62
   249
 10
249.691624
 20
171.94
 30
0.0
 11
249.707304
 21
171.94
 31
0.0
 12
249.707304
 22
173.06
 32
0.0
 13
249.691624
 23
173.06
 33
0.0
  0
3DFACE
  8
0
  6
CONTINUOUS
 62
   249
 10
249.707304
 20
171.94
 30
0.0
 11
249.722984
 21
171.94
 31
0.0
 12
249.722984
 22
173.06
 32
0.0
 13
249.707304
 23
173.06
 33
0.0
  0
3DFACE
  8
0
  6
CONTINUOUS
 62
   249
 10
249.722984
 20
171.94
 30
0.0
 11
249.738664
 21
171.94
 31
0.0
 12
249.738664
 22
173.06
 32
0.0
 13
249.722984
 23
173.06
 33
0.0
  0
3DFACE
  8
0
  6
CONTINUOUS
 62
   249
 10
249.738664
 20
171.94
 30
0.0
 11
249.754344
 21
171.94
 31
0.0
 12
249.754344
 22
173.06
 32
0.0
 13
249.738664
 23
173.06
 33
0.0
  0
3DFACE
  8
0
  6
CONTINUOUS
 62
   249
 10
249.754344
 20
171.94
 30
0.0
 11
249.770024
 21
171.94
 31
0.0
 12
249.770024
 22
173.06
 32
0.0
 13
249.754344
 23
173.06
 33
0.0
  0
3DFACE
  8
0
  6
CONTINUOUS
 62
   249
 10
249.770024
 20
171.94
 30
0.0
 11
249.785704
 21
171.94
 31
0.0
 12
249.785704
 22
173.06
 32
0.0
 13
249.770024
 23
173.06
 33
0.0
  0
3DFACE
  8
0
  6
CONTINUOUS
 62
   249
 10
249.785704
 20
171.94
 30
0.0
 11
249.801384
 21
171.94
 31
0.0
 12
249.801384
 22
173.06
 32
0.0
 13
249.785704
 23
173.06
 33
0.0
  0
3DFACE
  8
0
  6
CONTINUOUS
 62
   249
 10
249.801384
 20
171.94
 30
0.0
 11
249.817064
 21
171.94
 31
0.0
 12
249.817064
 22
173.06
 32
0.0
 13
249.801384
 23
173.06
 33
0.0
  0
3DFACE
  8
0
  6
CONTINUOUS
 62
   249
 10
249.817064
 20
171.94
 30
0.0
 11
249.832744
 21
171.94
 31
0.0
 12
249.832744
 22
173.06
 32
0.0
 13
249.817064
 23
173.06
 33
0.0
  0
3DFACE
  8
0
  6
CONTINUOUS
 62
   249
 10
249.832744
 20
171.94
 30
0.0
 11
249.848424
 21
171.94
 31
0.0
 12
249.848424
 22
173.06
 32
0.0
 13
249.832744
 23
173.06
 33
0.0
  0
3DFACE
  8
0
  6
CONTINUOUS
 62
   249
 10
249.848424
 20
171.94
 30
0.0
 11
249.864104
 21
171.94
 31
0.0
 12
249.864104
 22
173.06
 32
0.0
 13
249.848424
 23
173.06
 33
0.0
  0
3DFACE
  8
0
  6
CONTINUOUS
 62
   249
 10
249.864104
 20
171.94
 30
0.0
 11
249.879784
 21
171.94
 31
0.0
 12
249.879784
 22
173.06
 32
0.0
 13
249.864104
 23
173.06
 33
0.0
  0
3DFACE
  8
0
  6
CONTINUOUS
 62
   249
 10
249.879784
 20
171.94
 30
0.0
 11
249.895464
 21
171.94
 31
0.0
 12
249.895464
 22
173.06
 32
0.0
 13
249.879784
 23
173.06
 33
0.0
  0
3DFACE
  8
0
  6
CONTINUOUS
 62
   249
 10
249.895464
 20
171.94
 30
0.0
 11
249.911144
 21
171.94
 31
0.0
 12
249.911144
 22
173.06
 32
0.0
 13
249.895464
 23
173.06
 33
0.0
  0
3DFACE
  8
0
  6
CONTINUOUS
 62
   249
 10
249.911144
 20
171.94
 30
0.0
 11
249.926824
 21
171.94
 31
0.0
 12
249.926824
 22
173.06
 32
0.0
 13
249.911144
 23
173.06
 33
0.0
  0
3DFACE
  8
0
  6
CONTINUOUS
 62
   249
 10
249.926824
 20
171.94
 30
0.0
 11
249.942504
 21
171.94
 31
0.0
 12
249.942504
 22
173.06
 32
0.0
 13
249.926824
 23
173.06
 33
0.0
  0
3DFACE
  8
0
  6
CONTINUOUS
 62
   249
 10
249.942504
 20
171.94
 30
0.0
 11
249.958184
 21
171.94
 31
0.0
 12
249.958184
 22
173.06
 32
0.0
 13
249.942504
 23
173.06
 33
0.0
  0
3DFACE
  8
0
  6
CONTINUOUS
 62
   249
 10
249.958184
 20
171.94
 30
0.0
 11
249.973864
 21
171.94
 31
0.0
 12
249.973864
 22
173.06
 32
0.0
 13
249.958184
 23
173.06
 33
0.0
  0
3DFACE
  8
0
  6
CONTINUOUS
 62
   249
 10
249.973864
 20
171.94
 30
0.0
 11
249.989544
 21
171.94
 31
0.0
 12
249.989544
 22
173.06
 32
0.0
 13
249.973864
 23
173.06
 33
0.0
  0
3DFACE
  8
0
  6
CONTINUOUS
 62
   249
 10
249.989544
 20
171.94
 30
0.0
 11
250.005224
 21
171.94
 31
0.0
 12
250.005224
 22
173.06
 32
0.0
 13
249.989544
 23
173.06
 33
0.0
  0
3DFACE
  8
0
  6
CONTINUOUS
 62
   249
 10
250.005224
 20
171.94
 30
0.0
 11
250.020904
 21
171.94
 31
0.0
 12
250.020904
 22
173.06
 32
0.0
 13
250.005224
 23
173.06
 33
0.0
  0
3DFACE
  8
0
  6
CONTINUOUS
 62
   249
 10
250.020904
 20
171.94
 30
0.0
 11
250.036584
 21
171.94
 31
0.0
 12
250.036584
 22
173.06
 32
0.0
 13
250.020904
 23
173.06
 33
0.0
  0
3DFACE
  8
0
  6
CONTINUOUS
 62
   249
 10
250.036584
 20
171.94
 30
0.0
 11
250.052264
 21
171.94
 31
0.0
 12
250.052264
 22
173.06
 32
0.0
 13
250.036584
 23
173.06
 33
0.0
  0
3DFACE
  8
0
  6
CONTINUOUS
 62
   249
 10
250.052264
 20
171.94
 30
0.0
 11
250.067944
 21
171.94
 31
0.0
 12
250.067944
 22
173.06
 32
0.0
 13
250.052264
 23
173.06
 33
0.0
  0
3DFACE
  8
0
  6
CONTINUOUS
 62
   249
 10
250.067944
 20
171.94
 30
0.0
 11
250.083624
 21
171.94
 31
0.0
 12
250.083624
 22
173.06
 32
0.0
 13
250.067944
 23
173.06
 33
0.0
  0
3DFACE
  8
0
  6
CONTINUOUS
 62
   249
 10
250.083624
 20
171.94
 30
0.0
 11
250.099304
 21
171.94
 31
0.0
 12
250.099304
 22
173.06
 32
0.0
 13
250.083624
 23
173.06
 33
0.0
  0
3DFACE
  8
0
  6
CONTINUOUS
 62
   249
 10
250.099304
 20
171.94
 30
0.0
 11
250.114984
 21
171.94
 31
0.0
 12
250.114984
 22
173.06
 32
0.0
 13
250.099304
 23
173.06
 33
0.0
  0
3DFACE
  8
0
  6
CONTINUOUS
 62
   249
 10
250.114984
 20
171.94
 30
0.0
 11
250.130664
 21
171.94
 31
0.0
 12
250.130664
 22
173.06
 32
0.0
 13
250.114984
 23
173.06
 33
0.0
  0
3DFACE
  8
0
  6
CONTINUOUS
 62
   249
 10
250.130664
 20
171.94
 30
0.0
 11
250.146344
 21
171.94
 31
0.0
 12
250.146344
 22
173.06
 32
0.0
 13
250.130664
 23
173.06
 33
0.0
  0
3DFACE
  8
0
  6
CONTINUOUS
 62
   249
 10
250.146344
 20
171.94
 30
0.0
 11
250.162024
 21
171.94
 31
0.0
 12
250.162024
 22
173.06
 32
0.0
 13
250.146344
 23
173.06
 33
0.0
  0
3DFACE
  8
0
  6
CONTINUOUS
 62
   249
 10
250.162024
 20
171.94
 30
0.0
 11
250.177704
 21
171.94
 31
0.0
 12
250.177704
 22
173.06
 32
0.0
 13
250.162024
 23
173.06
 33
0.0
  0
3DFACE
  8
0
  6
CONTINUOUS
 62
   249
 10
250.177704
 20
171.94
 30
0.0
 11
250.193384
 21
171.94
 31
0.0
 12
250.193384
 22
173.06
 32
0.0
 13
250.177704
 23
173.06
 33
0.0
  0
3DFACE
  8
0
  6
CONTINUOUS
 62
   249
 10
250.193384
 20
171.94
 30
0.0
 11
250.209064
 21
171.94
 31
0.0
 12
250.209064
 22
173.06
 32
0.0
 13
250.193384
 23
173.06
 33
0.0
  0
3DFACE
  8
0
  6
CONTINUOUS
 62
   249
 10
250.209064
 20
171.94
 30
0.0
 11
250.224744
 21
171.94
 31
0.0
 12
250.224744
 22
173.06
 32
0.0
 13
250.209064
 23
173.06
 33
0.0
  0
3DFACE
  8
0
  6
CONTINUOUS
 62
   249
 10
250.224744
 20
171.94
 30
0.0
 11
250.240424
 21
171.94
 31
0.0
 12
250.240424
 22
173.06
 32
0.0
 13
250.224744
 23
173.06
 33
0.0
  0
3DFACE
  8
0
  6
CONTINUOUS
 62
   249
 10
250.240424
 20
171.94
 30
0.0
 11
250.256104
 21
171.94
 31
0.0
 12
250.256104
 22
173.06
 32
0.0
 13
250.240424
 23
173.06
 33
0.0
  0
3DFACE
  8
0
  6
CONTINUOUS
 62
   249
 10
250.256104
 20
171.94
 30
0.0
 11
250.271784
 21
171.94
 31
0.0
 12
250.271784
 22
173.06
 32
0.0
 13
250.256104
 23
173.06
 33
0.0
  0
3DFACE
  8
0
  6
CONTINUOUS
 62
   249
 10
250.271784
 20
171.94
 30
0.0
 11
250.287464
 21
171.94
 31
0.0
 12
250.287464
 22
173.06
 32
0.0
 13
250.271784
 23
173.06
 33
0.0
  0
3DFACE
  8
0
  6
CONTINUOUS
 62
   249
 10
250.287464
 20
171.94
 30
0.0
 11
250.303144
 21
171.94
 31
0.0
 12
250.303144
 22
173.06
 32
0.0
 13
250.287464
 23
173.06
 33
0.0
  0
3DFACE
  8
0
  6
CONTINUOUS
 62
   249
 10
250.303144
 20
171.94
 30
0.0
 11
250.318824
 21
171.94
 31
0.0
 12
250.318824
 22
173.06
 32
0.0
 13
250.303144
 23
173.06
 33
0.0
  0
3DFACE
  8
0
  6
CONTINUOUS
 62
   249
 10
250.318824
 20
171.94
 30
0.0
 11
250.334504
 21
171.94
 31
0.0
 12
250.334504
 22
173.06
 32
0.0
 13
250.318824
 23
173.06
 33
0.0
  0
3DFACE
  8
0
  6
CONTINUOUS
 62
   249
 10
250.334504
 20
171.94
 30
0.0
 11
250.350184
 21
171.94
 31
0.0
 12
250.350184
 22
173.06
 32
0.0
 13
250.334504
 23
173.06
 33
0.0
  0
3DFACE
  8
0
  6
CONTINUOUS
 62
   249
 10
250.350184
 20
171.94
 30
0.0
 11
250.365864
 21
171.94
 31
0.0
 12
250.365864
 22
173.06
 32
0.0
 13
250.350184
 23
173.06
 33
0.0
  0
3DFACE
  8
0
  6
CONTINUOUS
 62
   249
 10
250.365864
 20
171.94
 30
0.0
 11
250.381544
 21
171.94
 31
0.0
 12
250.381544
 22
173.06
 32
0.0
 13
250.365864
 23
173.06
 33
0.0
  0
3DFACE
  8
0
  6
CONTINUOUS
 62
   249
 10
250.381544
 20
171.94
 30
0.0
 11
250.397224
 21
171.94
 31
0.0
 12
250.397224
 22
173.06
 32
0.0
 13
250.381544
 23
173.06
 33
0.0
  0
3DFACE
  8
0
  6
CONTINUOUS
 62
   249
 10
250.397224
 20
171.94
 30
0.0
 11
250.412904
 21
171.94
 31
0.0
 12
250.412904
 22
173.06
 32
0.0
 13
250.397224
 23
173.06
 33
0.0
  0
3DFACE
  8
0
  6
CONTINUOUS
 62
   249
 10
250.412904
 20
171.94
 30
0.0
 11
250.428584
 21
171.94
 31
0.0
 12
250.428584
 22
173.06
 32
0.0
 13
250.412904
 23
173.06
 33
0.0
  0
3DFACE
  8
0
  6
CONTINUOUS
 62
   249
 10
250.428584
 20
171.94
 30
0.0
 11
250.444264
 21
171.94
 31
0.0
 12
250.444264
 22
173.06
 32
0.0
 13
250.428584
 23
173.06
 33
0.0
  0
3DFACE
  8
0
  6
CONTINUOUS
 62
   249
 10
250.444264
 20
171.94
 30
0.0
 11
250.459944
 21
171.94
 31
0.0
 12
250.459944
 22
173.06
 32
0.0
 13
250.444264
 23
173.06
 33
0.0
  0
3DFACE
  8
0
  6
CONTINUOUS
 62
   249
 10
250.459944
 20
171.94
 30
0.0
 11
250.475624
 21
171.94
 31
0.0
 12
250.475624
 22
173.06
 32
0.0
 13
250.459944
 23
173.06
 33
0.0
  0
3DFACE
  8
0
  6
CONTINUOUS
 62
   249
 10
250.475624
 20
171.94
 30
0.0
 11
250.491304
 21
171.94
 31
0.0
 12
250.491304
 22
173.06
 32
0.0
 13
250.475624
 23
173.06
 33
0.0
  0
3DFACE
  8
0
  6
CONTINUOUS
 62
   249
 10
250.491304
 20
171.94
 30
0.0
 11
250.506984
 21
171.94
 31
0.0
 12
250.506984
 22
173.06
 32
0.0
 13
250.491304
 23
173.06
 33
0.0
  0
3DFACE
  8
0
  6
CONTINUOUS
 62
   249
 10
250.506984
 20
171.94
 30
0.0
 11
250.522664
 21
171.94
 31
0.0
 12
250.522664
 22
173.06
 32
0.0
 13
250.506984
 23
173.06
 33
0.0
  0
3DFACE
  8
0
  6
CONTINUOUS
 62
   249
 10
250.522664
 20
171.94
 30
0.0
 11
250.538344
 21
171.94
 31
0.0
 12
250.538344
 22
173.06
 32
0.0
 13
250.522664
 23
173.06
 33
0.0
  0
3DFACE
  8
0
  6
CONTINUOUS
 62
   249
 10
250.538344
 20
171.94
 30
0.0
 11
250.554024
 21
171.94
 31
0.0
 12
250.554024
 22
173.06
 32
0.0
 13
250.538344
 23
173.06
 33
0.0
  0
LINE
  8
0
  6
CONTINUOUS
 62
   249
 10
222.264247
 20
193.835354
 30
0.0
 11
224.610013
 21
192.5
 31
0.0
  0
LINE
  8
0
  6
CONTINUOUS
 62
   249
 10
224.610013
 20
192.5
 30
0.0
 11
222.264247
 21
191.310081
 31
0.0
  0
LINE
  8
0
  6
CONTINUOUS
 62
   249
 10
218.703513
 20
191.164646
 30
0.0
 11
216.357747
 21
192.5
 31
0.0
  0
LINE
  8
0
  6
CONTINUOUS
 62
   249
 10
216.357747
 20
192.5
 30
0.0
 11
218.703513
 21
193.689919
 31
0.0
  0
LINE
  8
0
  6
CONTINUOUS
 62
   249
 10
208.338369
 20
206.206351
 30
0.0
 11
209.225256
 21
206.206351
 31
0.0
  0
LINE
  8
0
  6
CONTINUOUS
 62
   249
 10
208.007264
 20
206.817984
 30
0.0
 11
209.591836
 21
206.817984
 31
0.0
  0
LINE
  8
0
  6
CONTINUOUS
 62
   249
 10
208.8232
 20
207.440046
 30
0.0
 11
210.017541
 21
207.440046
 31
0.0
  0
LINE
  8
0
  6
CONTINUOUS
 62
   249
 10
207.628859
 20
207.440046
 30
0.0
 11
208.8232
 21
207.440046
 31
0.0
  0
LINE
  8
0
  6
CONTINUOUS
 62
   249
 10
208.839087
 20
208.794316
 30
0.0
 11
208.839087
 21
207.440046
 31
0.0
  0
ARC
  8
0
  6
CONTINUOUS
 62
   249
 10
220.0
 20
207.5
 30
0.0
 40
0.5
 50
180.0
 51
0.0
  0
ARC
  8
0
  6
CONTINUOUS
 62
   249
 10
220.0
 20
207.5
 30
0.0
 40
0.5
 50
0.0
 51
180.0
  0
LINE
  8
0
  6
CONTINUOUS
 62
   249
 10
225.234831
 20
206.164644
 30
0.0
 11
222.889066
 21
207.499998
 31
0.0
  0
LINE
  8
0
  6
CONTINUOUS
 62
   249
 10
222.889066
 20
207.499998
 30
0.0
 11
225.234831
 21
208.689917
 31
0.0
  0
LINE
  8
0
  6
CONTINUOUS
 62
   249
 10
208.338369
 20
223.68289
 30
0.0
 11
209.225256
 21
223.68289
 31
0.0
  0
LINE
  8
0
  6
CONTINUOUS
 62
   249
 10
208.007264
 20
224.294523
 30
0.0
 11
209.591836
 21
224.294523
 31
0.0
  0
LINE
  8
0
  6
CONTINUOUS
 62
   249
 10
208.8232
 20
224.916585
 30
0.0
 11
210.017541
 21
224.916585
 31
0.0
  0
LINE
  8
0
  6
CONTINUOUS
 62
   249
 10
207.628859
 20
224.916585
 30
0.0
 11
208.8232
 21
224.916585
 31
0.0
  0
LINE
  8
0
  6
CONTINUOUS
 62
   249
 10
208.839087
 20
226.270856
 30
0.0
 11
208.839087
 21
224.916585
 31
0.0
  0
INSERT
  8
0
  6
CENTER
 62
   249
  2
BLC26
 10
288.546562
 20
237.609534
 30
0.0
 41
1.006225
 42
1.006225
 43
1.006225
  0
INSERT
  8
0
  6
CENTER
 62
   249
  2
BLC26
 10
273.546562
 20
237.609534
 30
0.0
 41
1.006225
 42
1.006225
 43
1.006225
  0
INSERT
  8
0
  6
CENTER
 62
   249
  2
BLC26
 10
281.046562
 20
237.609534
 30
0.0
 41
1.006225
 42
1.006225
 43
1.006225
  0
ARC
  8
0
  6
CONTINUOUS
 62
   249
 10
282.5
 20
252.5
 30
0.0
 40
0.5
 50
180.0
 51
0.0
  0
ARC
  8
0
  6
CONTINUOUS
 62
   249
 10
282.5
 20
252.5
 30
0.0
 40
0.5
 50
0.0
 51
180.0
  0
LINE
  8
0
  6
CONTINUOUS
 62
   249
 10
304.009978
 20
235.18998
 30
0.0
 11
306.655635
 21
235.18998
 31
0.0
  0
LINE
  8
0
  6
CONTINUOUS
 62
   249
 10
308.437188
 20
234.586285
 30
0.0
 11
308.437188
 21
235.793675
 31
0.0
  0
LINE
  8
0
  6
CONTINUOUS
 62
   249
 10
307.549675
 20
234.153787
 30
0.0
 11
307.549675
 21
236.217163
 31
0.0
  0
LINE
  8
0
  6
CONTINUOUS
 62
   249
 10
306.655635
 20
233.658217
 30
0.0
 11
306.655635
 21
236.721743
 31
0.0
  0
ARC
  8
0
  6
CONTINUOUS
 62
   249
 10
300.0
 20
230.0
 30
0.0
 40
0.5
 50
180.0
 51
0.0
  0
ARC
  8
0
  6
CONTINUOUS
 62
   249
 10
300.0
 20
230.0
 30
0.0
 40
0.5
 50
0.0
 51
180.0
  0
LINE
  8
0
  6
CONTINUOUS
 62
   249
 10
304.009978
 20
230.0
 30
0.0
 11
306.655635
 21
230.0
 31
0.0
  0
LINE
  8
0
  6
CONTINUOUS
 62
   249
 10
308.437188
 20
229.396305
 30
0.0
 11
308.437188
 21
230.603695
 31
0.0
  0
LINE
  8
0
  6
CONTINUOUS
 62
   249
 10
307.549675
 20
228.963807
 30
0.0
 11
307.549675
 21
231.027182
 31
0.0
  0
LINE
  8
0
  6
CONTINUOUS
 62
   249
 10
306.655635
 20
228.468237
 30
0.0
 11
306.655635
 21
231.531763
 31
0.0
  0
ARC
  8
0
  6
CONTINUOUS
 62
   249
 10
290.0
 20
247.5
 30
0.0
 40
0.5
 50
180.0
 51
0.0
  0
ARC
  8
0
  6
CONTINUOUS
 62
   249
 10
290.0
 20
247.5
 30
0.0
 40
0.5
 50
0.0
 51
180.0
  0
ARC
  8
0
  6
CONTINUOUS
 62
   249
 10
275.0
 20
257.5
 30
0.0
 40
0.5
 50
180.0
 51
0.0
  0
ARC
  8
0
  6
CONTINUOUS
 62
   249
 10
275.0
 20
257.5
 30
0.0
 40
0.5
 50
0.0
 51
180.0
  0
ENDSEC
  0
EOF
