  0
SECTION
  2
HEADER
  9
$ACADVER
  1
AC1009
  9
$DWGCODEPAGE
  3
iso8859-1
  9
$INSBASE
 10
0.0
 20
0.0
 30
0.0
  9
$EXTMIN
 10
1.0E20
 20
1.0E20
  9
$EXTMAX
 10
-1.0E20
 20
-1.0E20
  9
$LIMMIN
 10
0.0
 20
0.0
  9
$LIMMAX
 10
12.0
 20
9.0
  9
$ORTHOMODE
 70
     0
  9
$REGENMODE
 70
     1
  9
$FILLMODE
 70
     1
  9
$QTEXTMODE
 70
     0
  9
$MIRRTEXT
 70
     1
  9
$DRAGMODE
 70
     2
  9
$LTSCALE
 40
15.0
  9
$OSMODE
 70
     0
  9
$ATTMODE
 70
     1
  9
$TEXTSIZE
 40
0.2
  9
$TRACEWID
 40
0.05
  9
$TEXTSTYLE
  7
STANDARD
  9
$CLAYER
  8
0
  9
$CELTYPE
  6
DASHED
  9
$CECOLOR
 62
   256
  9
$DIMSCALE
 40
1.0
  9
$DIMASZ
 40
0.18
  9
$DIMEXO
 40
0.0625
  9
$DIMDLI
 40
0.38
  9
$DIMRND
 40
0.0
  9
$DIMDLE
 40
0.0
  9
$DIMEXE
 40
0.18
  9
$DIMTP
 40
0.0
  9
$DIMTM
 40
0.0
  9
$DIMTXT
 40
0.18
  9
$DIMCEN
 40
0.09
  9
$DIMTSZ
 40
0.0
  9
$DIMTOL
 70
     0
  9
$DIMLIM
 70
     0
  9
$DIMTIH
 70
     1
  9
$DIMTOH
 70
     1
  9
$DIMSE1
 70
     0
  9
$DIMSE2
 70
     0
  9
$DIMTAD
 70
     0
  9
$DIMZIN
 70
     0
  9
$DIMBLK
  1

  9
$DIMASO
 70
     1
  9
$DIMSHO
 70
     1
  9
$DIMPOST
  1

  9
$DIMAPOST
  1

  9
$DIMALT
 70
     0
  9
$DIMALTD
 70
     2
  9
$DIMALTF
 40
25.4
  9
$DIMLFAC
 40
1.0
  9
$DIMTOFL
 70
     0
  9
$DIMTVP
 40
0.0
  9
$DIMTIX
 70
     0
  9
$DIMSOXD
 70
     0
  9
$DIMSAH
 70
     0
  9
$DIMBLK1
  1

  9
$DIMBLK2
  1

  9
$DIMSTYLE
  2
STANDARD
  9
$DIMCLRD
 70
     0
  9
$DIMCLRE
 70
     0
  9
$DIMCLRT
 70
     0
  9
$DIMTFAC
 40
1.0
  9
$DIMGAP
 40
0.09
  9
$LUNITS
 70
     2
  9
$LUPREC
 70
     4
  9
$AXISMODE
 70
     0
  9
$AXISUNIT
 10
0.0
 20
0.0
  9
$SKETCHINC
 40
0.1
  9
$FILLETRAD
 40
0.0
  9
$AUNITS
 70
     0
  9
$AUPREC
 70
     0
  9
$MENU
  1
acad
  9
$ELEVATION
 40
0.0
  9
$PELEVATION
 40
0.0
  9
$THICKNESS
 40
0.0
  9
$LIMCHECK
 70
     0
  9
$BLIPMODE
 70
     1
  9
$CHAMFERA
 40
0.0
  9
$CHAMFERB
 40
0.0
  9
$SKPOLY
 70
     0
  9
$TDCREATE
 40
0.000000000
  9
$TDUPDATE
 40
0.000000000
  9
$TDINDWG
 40
0.0
  9
$TDUSRTIMER
 40
0.0
  9
$USRTIMER
 70
     1
  9
$ANGBASE
 50
0.0
  9
$ANGDIR
 70
     0
  9
$PDMODE
 70
     0
  9
$PDSIZE
 40
0.0
  9
$PLINEWID
 40
0.0
  9
$COORDS
 70
     1
  9
$SPLFRAME
 70
     0
  9
$SPLINETYPE
 70
     6
  9
$SPLINESEGS
 70
     8
  9
$ATTDIA
 70
     0
  9
$ATTREQ
 70
     1
  9
$HANDLING
 70
     1
  9
$HANDSEED
  5
   75F
  9
$SURFTAB1
 70
     6
  9
$SURFTAB2
 70
     6
  9
$SURFTYPE
 70
     6
  9
$SURFU
 70
     6
  9
$SURFV
 70
     6
  9
$UCSNAME
  2

  9
$UCSORG
 10
0.0
 20
0.0
 30
0.0
  9
$UCSXDIR
 10
1.0
 20
0.0
 30
0.0
  9
$UCSYDIR
 10
0.0
 20
1.0
 30
0.0
  9
$PUCSNAME
  2

  9
$PUCSORG
 10
0.0
 20
0.0
 30
0.0
  9
$PUCSXDIR
 10
1.0
 20
0.0
 30
0.0
  9
$PUCSYDIR
 10
0.0
 20
1.0
 30
0.0
  9
$USERI1
 70
     0
  9
$USERI2
 70
     0
  9
$USERI3
 70
     0
  9
$USERI4
 70
     0
  9
$USERI5
 70
     0
  9
$USERR1
 40
0.0
  9
$USERR2
 40
0.0
  9
$USERR3
 40
0.0
  9
$USERR4
 40
0.0
  9
$USERR5
 40
0.0
  9
$WORLDVIEW
 70
     1
  9
$SHADEDGE
 70
     3
  9
$SHADEDIF
 70
    70
  9
$TILEMODE
 70
     1
  9
$MAXACTVP
 70
    16
  9
$PINSBASE
 10
0.0
 20
0.0
 30
0.0
  9
$PLIMCHECK
 70
     0
  9
$PEXTMIN
 10
1.0E20
 20
1.0E20
 30
1.0E20
  9
$PEXTMAX
 10
-1.0E20
 20
-1.0E20
 30
-1.0E20
  9
$PLIMMIN
 10
0.0
 20
0.0
  9
$PLIMMAX
 10
12.0
 20
9.0
  9
$UNITMODE
 70
     0
  9
$VISRETAIN
 70
     0
  0
ENDSEC
  0
SECTION
  2
TABLES
  0
TABLE
  2
VPORT
 70
     1
  0
VPORT
  2
*ACTIVE
 70
     0
 10
0.0
 20
0.0
 11
1.0
 21
1.0
 12
6.801242
 22
4.5
 13
0.0
 23
0.0
 14
1.0
 24
1.0
 15
0.0
 25
0.0
 16
0.0
 26
0.0
 36
1.0
 17
0.0
 27
0.0
 37
0.0
 40
9.0
 41
1.511387
 42
50.0
 43
0.0
 44
0.0
 50
0.0
 51
0.0
 71
     0
 72
   100
 73
     1
 74
     1
 75
     0
 76
     0
 77
     0
 78
     0
  0
ENDTAB
  0
TABLE
  2
LTYPE
 70
    41
  0
LTYPE
  2
BYBLOCK
 70
     0
  3

 72
    65
 73
     0
 40
0.0
  0
LTYPE
  2
BYLAYER
 70
     0
  3

 72
    65
 73
     0
 40
0.0
  0
LTYPE
  2
CONTINUOUS
 70
     0
  3
Solid line
 72
    65
 73
     0
 40
0.0
  0
LTYPE
  2
BORDER
 70
    64
  3
__ __ . __ __ . __ __ . __ __ . __ __ . __ __ .
 72
    65
 73
     6
 40
1.75
 49
0.5
 49
-0.25
 49
0.5
 49
-0.25
 49
0.0
 49
-0.25
  0
LTYPE
  2
BORDER2
 70
    64
  3
__.__.__.__.__.__.__.__.__.__.__.__.__.__.__.__
 72
    65
 73
     6
 40
0.875
 49
0.25
 49
-0.125
 49
0.25
 49
-0.125
 49
0.0
 49
-0.125
  0
LTYPE
  2
BORDERX2
 70
    64
  3
____  ____  .  ____  ____  .  ____  ____  .  __
 72
    65
 73
     6
 40
3.5
 49
1.0
 49
-0.5
 49
1.0
 49
-0.5
 49
0.0
 49
-0.5
  0
LTYPE
  2
CENTER
 70
    64
  3
____ _ ____ _ ____ _ ____ _ ____ _ ____ _ ____
 72
    65
 73
     4
 40
2.0
 49
1.25
 49
-0.25
 49
0.25
 49
-0.25
  0
LTYPE
  2
CENTER2
 70
    64
  3
___ _ ___ _ ___ _ ___ _ ___ _ ___ _ ___ _ ___ _
 72
    65
 73
     4
 40
1.125
 49
0.75
 49
-0.125
 49
0.125
 49
-0.125
  0
LTYPE
  2
CENTERX2
 70
    64
  3
________  __  ________  __  ________  __  _____
 72
    65
 73
     4
 40
4.0
 49
2.5
 49
-0.5
 49
0.5
 49
-0.5
  0
LTYPE
  2
DASHDOT
 70
    64
  3
__ . __ . __ . __ . __ . __ . __ . __ . __ . __
 72
    65
 73
     4
 40
1.0
 49
0.5
 49
-0.25
 49
0.0
 49
-0.25
  0
LTYPE
  2
DASHDOT2
 70
    64
  3
_._._._._._._._._._._._._._._._._._._._._._._._
 72
    65
 73
     4
 40
0.5
 49
0.25
 49
-0.125
 49
0.0
 49
-0.125
  0
LTYPE
  2
DASHDOTX2
 70
    64
  3
____  .  ____  .  ____  .  ____  .  ____  .  __
 72
    65
 73
     4
 40
2.0
 49
1.0
 49
-0.5
 49
0.0
 49
-0.5
  0
LTYPE
  2
DASHED
 70
    64
  3
__ __ __ __ __ __ __ __ __ __ __ __ __ __ __ __
 72
    65
 73
     2
 40
0.75
 49
0.5
 49
-0.25
  0
LTYPE
  2
DASHED2
 70
    64
  3
_ _ _ _ _ _ _ _ _ _ _ _ _ _ _ _ _ _ _ _ _ _ _ _
 72
    65
 73
     2
 40
0.375
 49
0.25
 49
-0.125
  0
LTYPE
  2
DASHEDX2
 70
    64
  3
____  ____  ____  ____  ____  ____  ____  ____
 72
    65
 73
     2
 40
1.5
 49
1.0
 49
-0.5
  0
LTYPE
  2
DIVIDE
 70
    64
  3
____ . . ____ . . ____ . . ____ . . ____ . . __
 72
    65
 73
     6
 40
1.25
 49
0.5
 49
-0.25
 49
0.0
 49
-0.25
 49
0.0
 49
-0.25
  0
LTYPE
  2
DIVIDE2
 70
    64
  3
__..__..__..__..__..__..__..__..__..__..__..__.
 72
    65
 73
     6
 40
0.625
 49
0.25
 49
-0.125
 49
0.0
 49
-0.125
 49
0.0
 49
-0.125
  0
LTYPE
  2
DIVIDEX2
 70
    64
  3
________  .  .  ________  .  .  ________  .  .
 72
    65
 73
     6
 40
2.5
 49
1.0
 49
-0.5
 49
0.0
 49
-0.5
 49
0.0
 49
-0.5
  0
LTYPE
  2
DOT
 70
    64
  3
. . . . . . . . . . . . . . . . . . . . . . . .
 72
    65
 73
     2
 40
0.25
 49
0.0
 49
-0.25
  0
LTYPE
  2
DOT2
 70
    64
  3
...............................................
 72
    65
 73
     2
 40
0.125
 49
0.0
 49
-0.125
  0
LTYPE
  2
DOTX2
 70
    64
  3
.  .  .  .  .  .  .  .  .  .  .  .  .  .  .  .
 72
    65
 73
     2
 40
0.5
 49
0.0
 49
-0.5
  0
LTYPE
  2
HIDDEN
 70
    64
  3
__ __ __ __ __ __ __ __ __ __ __ __ __ __ __ __
 72
    65
 73
     2
 40
0.375
 49
0.25
 49
-0.125
  0
LTYPE
  2
HIDDEN2
 70
    64
  3
_ _ _ _ _ _ _ _ _ _ _ _ _ _ _ _ _ _ _ _ _ _ _ _
 72
    65
 73
     2
 40
0.1875
 49
0.125
 49
-0.0625
  0
LTYPE
  2
HIDDENX2
 70
    64
  3
____ ____ ____ ____ ____ ____ ____ ____ ____ __
 72
    65
 73
     2
 40
0.75
 49
0.5
 49
-0.25
  0
LTYPE
  2
PHANTOM
 70
    64
  3
______  __  __  ______  __  __  ______  __  __
 72
    65
 73
     6
 40
2.5
 49
1.25
 49
-0.25
 49
0.25
 49
-0.25
 49
0.25
 49
-0.25
  0
LTYPE
  2
PHANTOM2
 70
    64
  3
___ _ _ ___ _ _ ___ _ _ ___ _ _ ___ _ _ ___ _ _
 72
    65
 73
     6
 40
1.25
 49
0.625
 49
-0.125
 49
0.125
 49
-0.125
 49
0.125
 49
-0.125
  0
LTYPE
  2
PHANTOMX2
 70
    64
  3
____________    ____    ____    ____________
 72
    65
 73
     6
 40
5.0
 49
2.5
 49
-0.5
 49
0.5
 49
-0.5
 49
0.5
 49
-0.5
  0
LTYPE
  2
ACAD_ISO02W100
 70
    64
  3
__ __ __ __ __ __ __ __ __ __ __ __ __ __ __ __
 72
    65
 73
     2
 40
15.0
 49
12.0
 49
-3.0
  0
LTYPE
  2
ACAD_ISO03W100
 70
    64
  3
__    __    __    __    __    __    __    __
 72
    65
 73
     2
 40
30.0
 49
12.0
 49
-18.0
  0
LTYPE
  2
ACAD_ISO04W100
 70
    64
  3
____ . ____ . ____ . ____ . ____ . ____ . ____
 72
    65
 73
     4
 40
30.5
 49
24.0
 49
-3.0
 49
0.5
 49
-3.0
  0
LTYPE
  2
ACAD_ISO05W100
 70
    64
  3
____ .. ____ .. ____ .. ____ .. ____ .. ____ ..
 72
    65
 73
     6
 40
34.0
 49
24.0
 49
-3.0
 49
0.5
 49
-3.0
 49
0.5
 49
-3.0
  0
LTYPE
  2
ACAD_ISO06W100
 70
    64
  3
____ ... ____ ... ____ ... ____ ... ____ ... __
 72
    65
 73
     8
 40
37.5
 49
24.0
 49
-3.0
 49
0.5
 49
-3.0
 49
0.5
 49
-3.0
 49
0.5
 49
-3.0
  0
LTYPE
  2
ACAD_ISO07W100
 70
    64
  3
. . . . . . . . . . . . . . . . . . . . . . . .
 72
    65
 73
     2
 40
3.5
 49
0.5
 49
-3.0
  0
LTYPE
  2
ACAD_ISO08W100
 70
    64
  3
____ __ ____ __ ____ __ ____ ____ __ __ ____ __
 72
    65
 73
     4
 40
36.0
 49
24.0
 49
-3.0
 49
6.0
 49
-3.0
  0
LTYPE
  2
ACAD_ISO09W100
 70
    64
  3
____ __ __ ____ __ __ ____ __ __ ____ __ __ ___
 72
    65
 73
     6
 40
45.0
 49
24.0
 49
-3.0
 49
6.0
 49
-3.0
 49
6.0
 49
-3.0
  0
LTYPE
  2
ACAD_ISO10W100
 70
    64
  3
__ . __ . __ . __ . __ . __ . __ . __ . __ . __
 72
    65
 73
     4
 40
18.5
 49
12.0
 49
-3.0
 49
0.5
 49
-3.0
  0
LTYPE
  2
ACAD_ISO11W100
 70
    64
  3
__ __ . __ __ . __ __ . __ __ . __ __ . __ __ .
 72
    65
 73
     6
 40
33.5
 49
12.0
 49
-3.0
 49
12.0
 49
-3.0
 49
0.5
 49
-3.0
  0
LTYPE
  2
ACAD_ISO12W100
 70
    64
  3
__ . . __ . . __ . . __ . . __ . . __ . . __ .
 72
    65
 73
     6
 40
22.0
 49
12.0
 49
-3.0
 49
0.5
 49
-3.0
 49
0.5
 49
-3.0
  0
LTYPE
  2
ACAD_ISO13W100
 70
    64
  3
__ __ . . __ __ . . __ __ . . __ __ . . __ __ .
 72
    65
 73
     8
 40
37.0
 49
12.0
 49
-3.0
 49
12.0
 49
-3.0
 49
0.5
 49
-3.0
 49
0.5
 49
-3.0
  0
LTYPE
  2
ACAD_ISO14W100
 70
    64
  3
__ . . . __ . . . __ . . . __ . . . __ . . . __
 72
    65
 73
     8
 40
25.5
 49
12.0
 49
-3.0
 49
0.5
 49
-3.0
 49
0.5
 49
-3.0
 49
0.5
 49
-3.0
  0
LTYPE
  2
ACAD_ISO15W100
 70
    64
  3
__ __ . . . __ __ . . . __ __ . . . __ __ . . .
 72
    65
 73
    10
 40
40.5
 49
12.0
 49
-3.0
 49
12.0
 49
-3.0
 49
0.5
 49
-3.0
 49
0.5
 49
-3.0
 49
0.5
 49
-3.0
  0
ENDTAB
  0
TABLE
  2
STYLE
 70
     4
  0
STYLE
  2
STANDARD
 70
    64
 40
0.0
 41
1.0
 50
0.0
 71
     0
 42
0.2
  3
txt
  4

  0
STYLE
  2
TOLERANCE
 70
    64
 40
0.0
 41
1.0
 50
0.0
 71
     0
 42
0.2
  3
../igesfont/iges1003.shx
  4

  0
STYLE
  2
ROMANS
 70
    64
 40
0.0
 41
1.0
 50
0.0
 71
     0
 42
0.2
  3
romans.shx
  4

  0
STYLE
  2
ROMANC
 70
    64
 40
0.0
 41
1.0
 50
0.0
 71
     0
 42
0.2
  3
romanc.shx
  4

  0
ENDTAB
  0
TABLE
  2
DIMSTYLE
 70
     2
  0
DIMSTYLE
  2
UNNAMED
 70
     0
  3

  4

  5

  6

  7

 40
1.0
 41
0.18
 42
0.0625
 43
0.38
 44
0.18
 45
0.0
 46
0.0
 47
0.0
 48
0.0
140
0.18
141
0.09
142
0.0
143
25.4
144
1.0
145
0.0
146
1.0
147
0.09
 71
     0
 72
     0
 73
     1
 74
     1
 75
     0
 76
     0
 77
     0
 78
     0
170
     0
171
     2
172
     0
173
     0
174
     0
175
     0
176
     0
177
     0
178
     0
  0
DIMSTYLE
  2
STANDARD
 70
     0
  3

  4

  5

  6

  7

 40
1.0
 41
0.18
 42
0.0625
 43
0.38
 44
0.18
 45
0.0
 46
0.0
 47
0.0
 48
0.0
140
0.18
141
0.09
142
0.0
143
25.4
144
1.0
145
0.0
146
1.0
147
0.09
 71
     0
 72
     0
 73
     1
 74
     1
 75
     0
 76
     0
 77
     0
 78
     0
170
     0
171
     2
172
     0
173
     0
174
     0
175
     0
176
     0
177
     0
178
     0
  0
ENDTAB
  0
TABLE
  2
LAYER
 70
     2
  0
LAYER
  2
0
 70
     0
 62
     7
  6
CONTINUOUS
  0
LAYER
  2
255
 70
     0
 62
     7
  6
CONTINUOUS
  0
ENDTAB
  0
ENDSEC
  0
SECTION
  2
BLOCKS
  0
BLOCK
  5
     B
  8
0
  6
CONTINUOUS
 62
     7
  2
*UDIM337
 70
    65
 10
0.0
 20
0.0
 30
0.0
  3
*UDIM337
  0
TEXT
  5
     C
  8
0
  6
CONTINUOUS
 62
     7
 10
-542.860643390373
 20
23.4897624508903
 30
0.0
 40
3.00000002980232
  1
161
 50
89.9999999480344
 41
0.933333333333333
 72
     1
 11
-544.360643401742
 21
27.3897624909918
 31
0.0
 73
     2
  0
LINE
  5
     D
  8
0
  6
CONTINUOUS
 62
     7
 10
-539.713208549953
 20
-12.583662033077
 30
0.0
 11
-543.860643386841
 21
-12.583662033077
 31
0.0
  0
LINE
  5
     E
  8
0
  6
CONTINUOUS
 62
     7
 10
-535.838208549953
 20
67.9131870269816
 30
0.0
 11
-543.860643386841
 21
67.9131870269816
 31
0.0
  0
LINE
  5
     F
  8
0
  6
CONTINUOUS
 62
     7
 10
-541.860643386841
 20
-12.583662033077
 30
0.0
 11
-541.860643386841
 21
67.9131870269816
 31
0.0
  0
LINE
  5
    10
  8
0
  6
CONTINUOUS
 62
     7
 10
-542.381587816793
 20
-9.62923875587002
 30
0.0
 11
-541.860643386841
 21
-12.583662033077
 31
0.0
  0
LINE
  5
    11
  8
0
  6
CONTINUOUS
 62
     7
 10
-541.860643386841
 20
-12.583662033077
 30
0.0
 11
-541.339698956889
 21
-9.62923875587002
 31
0.0
  0
LINE
  5
    12
  8
0
  6
CONTINUOUS
 62
     7
 10
-541.339698956889
 20
64.9587637497746
 30
0.0
 11
-541.860643386841
 21
67.9131870269816
 31
0.0
  0
LINE
  5
    13
  8
0
  6
CONTINUOUS
 62
     7
 10
-541.860643386841
 20
67.9131870269816
 30
0.0
 11
-542.381587816793
 21
64.9587637497746
 31
0.0
  0
ENDBLK
  5
    14
  8
0
  6
CONTINUOUS
 62
     7
  0
BLOCK
  5
    15
  8
0
  6
CONTINUOUS
 62
     7
  2
*UDIM338
 70
    65
 10
0.0
 20
0.0
 30
0.0
  3
*UDIM338
  0
TEXT
  5
    16
  8
0
  6
CONTINUOUS
 62
     7
 10
-478.863203456103
 20
106.019647600521
 30
0.0
 40
3.00000002980232
  1
96
 50
359.999999948034
 41
0.933333333333333
 72
     1
 11
-476.363203429915
 21
107.519647613168
 31
0.0
 73
     2
  0
LINE
  5
    17
  8
0
  6
CONTINUOUS
 62
     7
 10
-452.088206642605
 20
68.2881870269816
 30
0.0
 11
-452.088206642605
 21
107.019647598267
 31
0.0
  0
LINE
  5
    18
  8
0
  6
CONTINUOUS
 62
     7
 10
-500.088207596279
 20
96.5095975425664
 30
0.0
 11
-500.088207596279
 21
107.019647598267
 31
0.0
  0
LINE
  5
    19
  8
0
  6
CONTINUOUS
 62
     7
 10
-452.088206642605
 20
105.019647598267
 30
0.0
 11
-500.088207596279
 21
105.019647598267
 31
0.0
  0
LINE
  5
    1A
  8
0
  6
CONTINUOUS
 62
     7
 10
-455.042629919812
 20
104.498703168315
 30
0.0
 11
-452.088206642605
 21
105.019647598267
 31
0.0
  0
LINE
  5
    1B
  8
0
  6
CONTINUOUS
 62
     7
 10
-452.088206642605
 20
105.019647598267
 30
0.0
 11
-455.042629919812
 21
105.540592028218
 31
0.0
  0
LINE
  5
    1C
  8
0
  6
CONTINUOUS
 62
     7
 10
-497.133784319072
 20
105.540592028218
 30
0.0
 11
-500.088207596279
 21
105.019647598267
 31
0.0
  0
LINE
  5
    1D
  8
0
  6
CONTINUOUS
 62
     7
 10
-500.088207596279
 20
105.019647598267
 30
0.0
 11
-497.133784319072
 21
104.498703168315
 31
0.0
  0
ENDBLK
  5
    1E
  8
0
  6
CONTINUOUS
 62
     7
  0
BLOCK
  5
    1F
  8
0
  6
CONTINUOUS
 62
     7
  2
*UDIM339
 70
    65
 10
0.0
 20
0.0
 30
0.0
  3
*UDIM339
  0
TEXT
  5
    20
  8
0
  6
CONTINUOUS
 62
     7
 10
-525.288203483918
 20
106.019647603047
 30
0.0
 40
3.00000002980232
  1
78,5
 50
359.999999948034
 41
0.933333333333333
 72
     1
 11
-519.988203429914
 21
107.519647613168
 31
0.0
 73
     2
  0
LINE
  5
    21
  8
0
  6
CONTINUOUS
 62
     7
 10
-539.338208549953
 20
68.2881870269816
 30
0.0
 11
-539.338208549953
 21
107.019647598267
 31
0.0
  0
LINE
  5
    22
  8
0
  6
CONTINUOUS
 62
     7
 10
-500.088207596279
 20
105.019647598267
 30
0.0
 11
-539.338208549953
 21
105.019647598267
 31
0.0
  0
LINE
  5
    23
  8
0
  6
CONTINUOUS
 62
     7
 10
-503.042630873486
 20
104.498703168315
 30
0.0
 11
-500.088207596279
 21
105.019647598267
 31
0.0
  0
LINE
  5
    24
  8
0
  6
CONTINUOUS
 62
     7
 10
-500.088207596279
 20
105.019647598267
 30
0.0
 11
-503.042630873486
 21
105.540592028218
 31
0.0
  0
LINE
  5
    25
  8
0
  6
CONTINUOUS
 62
     7
 10
-536.383785272746
 20
105.540592028218
 30
0.0
 11
-539.338208549953
 21
105.019647598267
 31
0.0
  0
LINE
  5
    26
  8
0
  6
CONTINUOUS
 62
     7
 10
-539.338208549953
 20
105.019647598267
 30
0.0
 11
-536.383785272746
 21
104.498703168315
 31
0.0
  0
ENDBLK
  5
    27
  8
0
  6
CONTINUOUS
 62
     7
  0
BLOCK
  5
    28
  8
0
  6
CONTINUOUS
 62
     7
  2
*UDIM340
 70
    65
 10
0.0
 20
0.0
 30
0.0
  3
*UDIM340
  0
TEXT
  5
    29
  8
0
  6
CONTINUOUS
 62
     7
 10
-481.863195829819
 20
-50.3662261940342
 30
0.0
 40
3.00000002980232
  1
84
 50
359.999999948034
 41
0.933333333333333
 72
     1
 11
-479.363195803631
 21
-48.8662261813879
 31
0.0
 73
     2
  0
LINE
  5
    2A
  8
0
  6
CONTINUOUS
 62
     7
 10
-458.088180541992
 20
20.7912845611572
 30
0.0
 11
-458.088180541992
 21
-53.3662261962891
 31
0.0
  0
LINE
  5
    2B
  8
0
  6
CONTINUOUS
 62
     7
 10
-500.088207596279
 20
-48.5087105530531
 30
0.0
 11
-500.088207596279
 21
-53.3662261962891
 31
0.0
  0
LINE
  5
    2C
  8
0
  6
CONTINUOUS
 62
     7
 10
-458.088180541992
 20
-51.3662261962891
 30
0.0
 11
-500.088207596279
 21
-51.3662261962891
 31
0.0
  0
LINE
  5
    2D
  8
0
  6
CONTINUOUS
 62
     7
 10
-461.042603819199
 20
-51.8871706262407
 30
0.0
 11
-458.088180541992
 21
-51.3662261962891
 31
0.0
  0
LINE
  5
    2E
  8
0
  6
CONTINUOUS
 62
     7
 10
-458.088180541992
 20
-51.3662261962891
 30
0.0
 11
-461.042603819199
 21
-50.8452817663374
 31
0.0
  0
LINE
  5
    2F
  8
0
  6
CONTINUOUS
 62
     7
 10
-497.133784319072
 20
-50.8452817663374
 30
0.0
 11
-500.088207596279
 21
-51.3662261962891
 31
0.0
  0
LINE
  5
    30
  8
0
  6
CONTINUOUS
 62
     7
 10
-500.088207596279
 20
-51.3662261962891
 30
0.0
 11
-497.133784319072
 21
-51.8871706262407
 31
0.0
  0
ENDBLK
  5
    31
  8
0
  6
CONTINUOUS
 62
     7
  0
BLOCK
  5
    32
  8
0
  6
CONTINUOUS
 62
     7
  2
*UDIM341
 70
    65
 10
0.0
 20
0.0
 30
0.0
  3
*UDIM341
  0
TEXT
  5
    33
  8
0
  6
CONTINUOUS
 62
     7
 10
-548.646129615491
 20
51.2287997321629
 30
0.0
 40
3.00000002980232
  1
127,75
 50
89.9999999480344
 41
0.933333333333333
 72
     1
 11
-550.146129623056
 21
59.3287998139877
 31
0.0
 73
     2
  0
LINE
  5
    34
  8
0
  6
CONTINUOUS
 62
     7
 10
-526.713199493861
 20
91.5412693023679
 30
0.0
 11
-549.646129608154
 21
91.5412693023679
 31
0.0
  0
LINE
  5
    35
  8
0
  6
CONTINUOUS
 62
     7
 10
-547.646129608154
 20
27.666337966923
 30
0.0
 11
-547.646129608154
 21
91.5412693023679
 31
0.0
  0
LINE
  5
    36
  8
0
  6
CONTINUOUS
 62
     7
 10
-548.167074038106
 20
30.62076124413
 30
0.0
 11
-547.646129608154
 21
27.666337966923
 31
0.0
  0
LINE
  5
    37
  8
0
  6
CONTINUOUS
 62
     7
 10
-547.646129608154
 20
27.666337966923
 30
0.0
 11
-547.125185178203
 21
30.62076124413
 31
0.0
  0
LINE
  5
    38
  8
0
  6
CONTINUOUS
 62
     7
 10
-547.125185178203
 20
88.586846025161
 30
0.0
 11
-547.646129608154
 21
91.5412693023679
 31
0.0
  0
LINE
  5
    39
  8
0
  6
CONTINUOUS
 62
     7
 10
-547.646129608154
 20
91.5412693023679
 30
0.0
 11
-548.167074038106
 21
88.586846025161
 31
0.0
  0
ENDBLK
  5
    3A
  8
0
  6
CONTINUOUS
 62
     7
  0
BLOCK
  5
    3B
  8
0
  6
CONTINUOUS
 62
     7
  2
*UDIM342
 70
    65
 10
0.0
 20
0.0
 30
0.0
  3
*UDIM342
  0
TEXT
  5
    3C
  8
0
  6
CONTINUOUS
 62
     7
 10
-494.113203456349
 20
-43.1745700813633
 30
0.0
 40
3.00000002980232
  1
35
 50
359.999999948034
 41
0.933333333333333
 72
     1
 11
-491.613203430161
 21
-41.674570068717
 31
0.0
 73
     2
  0
LINE
  5
    3D
  8
0
  6
CONTINUOUS
 62
     7
 10
-482.588207391716
 20
-44.1745700836182
 30
0.0
 11
-500.088206549638
 21
-44.1745700836182
 31
0.0
  0
LINE
  5
    3E
  8
0
  6
CONTINUOUS
 62
     7
 10
-485.542630668923
 20
-44.6955145135698
 30
0.0
 11
-482.588207391716
 21
-44.1745700836182
 31
0.0
  0
LINE
  5
    3F
  8
0
  6
CONTINUOUS
 62
     7
 10
-482.588207391716
 20
-44.1745700836182
 30
0.0
 11
-485.542630668923
 21
-43.6536256536665
 31
0.0
  0
LINE
  5
    40
  8
0
  6
CONTINUOUS
 62
     7
 10
-497.133783272431
 20
-43.6536256536665
 30
0.0
 11
-500.088206549638
 21
-44.1745700836182
 31
0.0
  0
LINE
  5
    41
  8
0
  6
CONTINUOUS
 62
     7
 10
-500.088206549638
 20
-44.1745700836182
 30
0.0
 11
-497.133783272431
 21
-44.6955145135698
 31
0.0
  0
ENDBLK
  5
    42
  8
0
  6
CONTINUOUS
 62
     7
  0
BLOCK
  5
    43
  8
0
  6
CONTINUOUS
 62
     7
  2
*UDIM343
 70
    65
 10
0.0
 20
0.0
 30
0.0
  3
*UDIM343
  0
TEXT
  5
    44
  8
0
  6
CONTINUOUS
 62
     7
 10
-511.613199638903
 20
-43.1745700813633
 30
0.0
 40
3.00000002980232
  1
35
 50
359.999999948034
 41
0.933333333333333
 72
     1
 11
-509.113199612715
 21
-41.674570068717
 31
0.0
 73
     2
  0
LINE
  5
    45
  8
0
  6
CONTINUOUS
 62
     7
 10
-500.088206549638
 20
-44.1745700836182
 30
0.0
 11
-517.588201723778
 21
-44.1745700836182
 31
0.0
  0
LINE
  5
    46
  8
0
  6
CONTINUOUS
 62
     7
 10
-503.042629826844
 20
-44.6955145135698
 30
0.0
 11
-500.088206549638
 21
-44.1745700836182
 31
0.0
  0
LINE
  5
    47
  8
0
  6
CONTINUOUS
 62
     7
 10
-500.088206549638
 20
-44.1745700836182
 30
0.0
 11
-503.042629826844
 21
-43.6536256536665
 31
0.0
  0
LINE
  5
    48
  8
0
  6
CONTINUOUS
 62
     7
 10
-514.633778446571
 20
-43.6536256536665
 30
0.0
 11
-517.588201723778
 21
-44.1745700836182
 31
0.0
  0
LINE
  5
    49
  8
0
  6
CONTINUOUS
 62
     7
 10
-517.588201723778
 20
-44.1745700836182
 30
0.0
 11
-514.633778446571
 21
-44.6955145135698
 31
0.0
  0
ENDBLK
  5
    4A
  8
0
  6
CONTINUOUS
 62
     7
  0
BLOCK
  5
    4B
  8
0
  6
CONTINUOUS
 62
     7
  2
*UDIM344
 70
    65
 10
0.0
 20
0.0
 30
0.0
  3
*UDIM344
  0
TEXT
  5
    4C
  8
0
  6
CONTINUOUS
 62
     7
 10
-555.209192517952
 20
16.307686860991
 30
0.0
 40
3.00000002980232
  1
259
 50
89.9999999480344
 41
0.933333333333333
 72
     1
 11
-556.709192529321
 21
20.2076869010925
 31
0.0
 73
     2
  0
LINE
  5
    4D
  8
0
  6
CONTINUOUS
 62
     7
 10
-526.713216334007
 20
-37.9586696624753
 30
0.0
 11
-556.20919251442
 21
-37.9586696624753
 31
0.0
  0
LINE
  5
    4E
  8
0
  6
CONTINUOUS
 62
     7
 10
-526.713199493861
 20
91.5412693023679
 30
0.0
 11
-556.20919251442
 21
91.5412693023679
 31
0.0
  0
LINE
  5
    4F
  8
0
  6
CONTINUOUS
 62
     7
 10
-554.20919251442
 20
-37.9586696624753
 30
0.0
 11
-554.20919251442
 21
91.5412693023679
 31
0.0
  0
LINE
  5
    50
  8
0
  6
CONTINUOUS
 62
     7
 10
-554.730136944371
 20
-35.0042463852684
 30
0.0
 11
-554.20919251442
 21
-37.9586696624753
 31
0.0
  0
LINE
  5
    51
  8
0
  6
CONTINUOUS
 62
     7
 10
-554.20919251442
 20
-37.9586696624753
 30
0.0
 11
-553.688248084468
 21
-35.0042463852684
 31
0.0
  0
LINE
  5
    52
  8
0
  6
CONTINUOUS
 62
     7
 10
-553.688248084468
 20
88.586846025161
 30
0.0
 11
-554.20919251442
 21
91.5412693023679
 31
0.0
  0
LINE
  5
    53
  8
0
  6
CONTINUOUS
 62
     7
 10
-554.20919251442
 20
91.5412693023679
 30
0.0
 11
-554.730136944371
 21
88.586846025161
 31
0.0
  0
ENDBLK
  5
    54
  8
0
  6
CONTINUOUS
 62
     7
  0
BLOCK
  5
    55
  8
0
  6
CONTINUOUS
 62
     7
  2
*UDIM345
 70
    65
 10
0.0
 20
0.0
 30
0.0
  3
*UDIM345
  0
TEXT
  5
    56
  8
0
  6
CONTINUOUS
 62
     7
 10
-504.263172953414
 20
97.9290943180928
 30
0.0
 40
3.00000002980232
  1
105
 50
359.999999948034
 41
0.933333333333333
 72
     1
 11
-500.363172913318
 21
99.4290943294764
 31
0.0
 73
     2
  0
LINE
  5
    57
  8
0
  6
CONTINUOUS
 62
     7
 10
-473.83818422504
 20
79.0413150787353
 30
0.0
 11
-473.838177981938
 21
98.9290943145751
 31
0.0
  0
LINE
  5
    58
  8
0
  6
CONTINUOUS
 62
     7
 10
-526.338153539131
 20
79.0413150787352
 30
0.0
 11
-526.338143948313
 21
98.929094314575
 31
0.0
  0
LINE
  5
    59
  8
0
  6
CONTINUOUS
 62
     7
 10
-473.838178609771
 20
96.9290943145752
 30
0.0
 11
-526.338144912807
 21
96.9290943145752
 31
0.0
  0
LINE
  5
    5A
  8
0
  6
CONTINUOUS
 62
     7
 10
-476.792601886978
 20
96.4081498846235
 30
0.0
 11
-473.838178609771
 21
96.9290943145752
 31
0.0
  0
LINE
  5
    5B
  8
0
  6
CONTINUOUS
 62
     7
 10
-473.838178609771
 20
96.9290943145752
 30
0.0
 11
-476.792601886978
 21
97.4500387445269
 31
0.0
  0
LINE
  5
    5C
  8
0
  6
CONTINUOUS
 62
     7
 10
-523.3837216356
 20
97.4500387445269
 30
0.0
 11
-526.338144912807
 21
96.9290943145752
 31
0.0
  0
LINE
  5
    5D
  8
0
  6
CONTINUOUS
 62
     7
 10
-526.338144912807
 20
96.9290943145752
 30
0.0
 11
-523.3837216356
 21
96.4081498846235
 31
0.0
  0
ENDBLK
  5
    5E
  8
0
  6
CONTINUOUS
 62
     7
  0
BLOCK
  5
    5F
  8
0
  6
CONTINUOUS
 62
     7
  2
MOSTRA
 70
    64
 10
0.0
 20
0.0
 30
0.0
  3
MOSTRA
  0
LINE
  5
    60
  8
0
  6
CONTINUOUS
 62
     2
 10
175.338317871094
 20
34.312744140625
 30
0.0
 11
210.838317871094
 21
34.312744140625
 31
0.0
  0
LINE
  5
    61
  8
0
  6
CONTINUOUS
 62
     2
 10
175.338317871094
 20
49.312744140625
 30
0.0
 11
210.838317871094
 21
49.312744140625
 31
0.0
  0
LINE
  5
    62
  8
0
  6
CONTINUOUS
 62
     2
 10
210.838317871094
 20
33.312744140625
 30
0.0
 11
210.838317871094
 21
50.312744140625
 31
0.0
  0
LINE
  5
    63
  8
0
  6
CONTINUOUS
 62
     2
 10
175.338317871094
 20
34.312744140625
 30
0.0
 11
175.338317871094
 21
49.312744140625
 31
0.0
  0
LINE
  5
    64
  8
0
  6
CONTINUOUS
 62
     2
 10
210.838317871094
 20
50.312744140625
 30
0.0
 11
210.838317871094
 21
148.306442260742
 31
0.0
  0
LINE
  5
    65
  8
0
  6
CONTINUOUS
 62
     2
 10
210.838317871094
 20
-10.187255859375
 30
0.0
 11
210.838317871094
 21
33.3127403259278
 31
0.0
  0
LINE
  5
    66
  8
0
  6
CONTINUOUS
 62
     2
 10
37.5883140563965
 20
-11.437255859375
 30
0.0
 11
209.588317871094
 21
-11.437255859375
 31
0.0
  0
LINE
  5
    67
  8
0
  6
CONTINUOUS
 62
     2
 10
36.3383140563965
 20
-10.187255859375
 30
0.0
 11
36.3383140563965
 21
148.306442260742
 31
0.0
  0
LINE
  5
    68
  8
0
  6
CONTINUOUS
 62
     2
 10
175.338317871094
 20
128.562744140625
 30
0.0
 11
175.338317871094
 21
129.562744140625
 31
0.0
  0
LINE
  5
    69
  8
0
  6
CONTINUOUS
 62
     2
 10
45.3383140563965
 20
128.562744140625
 30
0.0
 11
45.3383140563965
 21
129.562744140625
 31
0.0
  0
LINE
  5
    6A
  8
0
  6
CONTINUOUS
 62
     2
 10
175.338317871094
 20
8.56274414062501
 30
0.0
 11
175.338317871094
 21
9.56274414062501
 31
0.0
  0
LINE
  5
    6B
  8
0
  6
CONTINUOUS
 62
     2
 10
46.3383140563965
 20
8.562744140625
 30
0.0
 11
174.338314056396
 21
8.56274414062501
 31
0.0
  0
LINE
  5
    6C
  8
0
  6
CONTINUOUS
 62
     2
 10
45.3383140563965
 20
8.562744140625
 30
0.0
 11
45.3383140563965
 21
9.562744140625
 31
0.0
  0
LINE
  5
    6D
  8
0
  6
CONTINUOUS
 62
     2
 10
174.338317871094
 20
-11.437255859375
 30
0.0
 11
174.338317871094
 21
8.56274414062501
 31
0.0
  0
LINE
  5
    6E
  8
0
  6
CONTINUOUS
 62
     2
 10
175.338317871094
 20
129.562744140625
 30
0.0
 11
175.338317871094
 21
149.562744140625
 31
0.0
  0
LINE
  5
    6F
  8
0
  6
CONTINUOUS
 62
     2
 10
175.338317871094
 20
9.56274414062501
 30
0.0
 11
175.338317871094
 21
33.312744140625
 31
0.0
  0
LINE
  5
    70
  8
0
  6
CONTINUOUS
 62
     2
 10
175.338317871094
 20
50.312744140625
 30
0.0
 11
175.338317871094
 21
128.562744140625
 31
0.0
  0
LINE
  5
    71
  8
0
  6
CONTINUOUS
 62
     2
 10
175.338317871094
 20
-11.437255859375
 30
0.0
 11
175.338317871094
 21
8.56274414062501
 31
0.0
  0
LINE
  5
    72
  8
0
  6
CONTINUOUS
 62
     2
 10
45.3383140563965
 20
129.562744140625
 30
0.0
 11
45.3383140563965
 21
149.562744140625
 31
0.0
  0
LINE
  5
    73
  8
0
  6
CONTINUOUS
 62
     2
 10
45.3383140563965
 20
9.562744140625
 30
0.0
 11
45.3383140563965
 21
128.562744140625
 31
0.0
  0
LINE
  5
    74
  8
0
  6
CONTINUOUS
 62
     2
 10
45.3383140563965
 20
-11.437255859375
 30
0.0
 11
45.3383140563965
 21
8.562744140625
 31
0.0
  0
LINE
  5
    75
  8
0
  6
CONTINUOUS
 62
     2
 10
46.3383140563965
 20
-11.437255859375
 30
0.0
 11
46.3383140563965
 21
8.562744140625
 31
0.0
  0
LINE
  5
    76
  8
0
  6
CONTINUOUS
 62
     2
 10
175.338317871094
 20
33.312744140625
 30
0.0
 11
210.838317871094
 21
33.312744140625
 31
0.0
  0
LINE
  5
    77
  8
0
  6
CONTINUOUS
 62
     2
 10
175.338317871094
 20
50.312744140625
 30
0.0
 11
210.838317871094
 21
50.312744140625
 31
0.0
  0
LINE
  5
    78
  8
0
  6
CONTINUOUS
 62
     2
 10
175.388320922852
 20
49.312744140625
 30
0.0
 11
175.388320922852
 21
50.312744140625
 31
0.0
  0
LINE
  5
    79
  8
0
  6
CONTINUOUS
 62
     2
 10
175.388320922852
 20
33.312744140625
 30
0.0
 11
175.388320922852
 21
34.312744140625
 31
0.0
  0
LINE
  5
    7A
  8
0
  6
CONTINUOUS
 62
     2
 10
46.3383140563965
 20
128.562744140625
 30
0.0
 11
174.338314056396
 21
128.562744140625
 31
0.0
  0
LINE
  5
    7B
  8
0
  6
CONTINUOUS
 62
     2
 10
46.3383140563965
 20
9.562744140625
 30
0.0
 11
174.338314056396
 21
9.56274414062501
 31
0.0
  0
LINE
  5
    7C
  8
0
  6
CONTINUOUS
 62
     2
 10
174.338317871094
 20
9.56274414062501
 30
0.0
 11
174.338317871094
 21
128.562744140625
 31
0.0
  0
LINE
  5
    7D
  8
0
  6
CONTINUOUS
 62
     2
 10
46.3383140563965
 20
9.562744140625
 30
0.0
 11
46.3383140563965
 21
128.562744140625
 31
0.0
  0
LINE
  5
    7E
  8
0
  6
CONTINUOUS
 62
     2
 10
167.338315963745
 20
121.562743016692
 30
0.0
 11
174.338312295455
 21
128.562739348402
 31
0.0
  0
LINE
  5
    7F
  8
0
  6
CONTINUOUS
 62
     2
 10
46.3383156391412
 20
128.562746004959
 30
0.0
 11
62.3383159637451
 21
121.033336629486
 31
0.0
  0
LINE
  5
    80
  8
0
  6
CONTINUOUS
 62
     2
 10
167.338315963745
 20
16.5627619426901
 30
0.0
 11
174.338335117812
 21
9.56273924827786
 31
0.0
  0
LINE
  5
    81
  8
0
  6
CONTINUOUS
 62
     2
 10
46.3383186567184
 20
9.56274576222224
 30
0.0
 11
62.3383159637451
 21
17.092157375641
 31
0.0
  0
LINE
  5
    82
  8
0
  6
CONTINUOUS
 62
     2
 10
174.338256835938
 20
129.556442260742
 30
0.0
 11
174.338256835938
 21
149.556442260742
 31
0.0
  0
LINE
  5
    83
  8
0
  6
CONTINUOUS
 62
     2
 10
45.3383140563965
 20
129.556442260742
 30
0.0
 11
175.338317871094
 21
129.556442260742
 31
0.0
  0
LINE
  5
    84
  8
0
  6
CONTINUOUS
 62
     2
 10
37.5883140563965
 20
149.556442260742
 30
0.0
 11
45.3383140563965
 21
149.556442260742
 31
0.0
  0
LINE
  5
    85
  8
0
  6
CONTINUOUS
 62
     2
 10
115.343585020102
 20
149.556442260742
 30
0.0
 11
175.338317871094
 21
149.556442260742
 31
0.0
  0
ARC
  5
    86
  8
0
  6
CONTINUOUS
 62
     2
 10
110.338285446167
 20
153.703627621259
 30
0.0
 40
6.50016693934245
 50
219.643748317915
 51
320.356251682085
  0
LINE
  5
    87
  8
0
  6
CONTINUOUS
 62
     2
 10
105.332985872232
 20
149.556442260742
 30
0.0
 11
115.343585020102
 21
149.556442260742
 31
0.0
  0
LINE
  5
    88
  8
0
  6
CONTINUOUS
 62
     2
 10
46.3383140563965
 20
129.562744140625
 30
0.0
 11
46.3383140563965
 21
149.562744140625
 31
0.0
  0
LINE
  5
    89
  8
0
  6
CONTINUOUS
 62
     2
 10
45.3383140563965
 20
149.556442260742
 30
0.0
 11
105.332985872232
 21
149.556442260742
 31
0.0
  0
LINE
  5
    8A
  8
0
  6
CONTINUOUS
 62
     2
 10
175.338317871094
 20
149.556442260742
 30
0.0
 11
209.588317871094
 21
149.556442260742
 31
0.0
  0
POINT
  5
    8B
  8
0
  6
CONTINUOUS
 62
     2
 10
114.838315963745
 20
69.062744140625
 30
0.0
  0
ARC
  5
    8C
  8
0
  6
CONTINUOUS
 62
     2
 10
37.5883140563965
 20
148.306442260742
 30
0.0
 40
1.25
 50
90.0
 51
180.0
  0
ARC
  5
    8D
  8
0
  6
CONTINUOUS
 62
     2
 10
37.5883140563965
 20
-10.187255859375
 30
0.0
 40
1.25
 50
180.0
 51
270.0
  0
ARC
  5
    8E
  8
0
  6
CONTINUOUS
 62
     2
 10
209.588317871094
 20
-10.187255859375
 30
0.0
 40
1.25
 50
270.0
 51
360.0
  0
ARC
  5
    8F
  8
0
  6
CONTINUOUS
 62
     2
 10
209.588317871094
 20
148.306442260742
 30
0.0
 40
1.25
 50
0.0
 51
90.0
  0
ENDBLK
  5
    90
  8
0
  6
CONTINUOUS
 62
     7
  0
BLOCK
  5
    91
  8
0
  6
CONTINUOUS
 62
     7
  2
*HATCH76
 70
    65
 10
0.0
 20
0.0
 30
0.0
  3
*HATCH76
  0
LINE
  5
    92
  8
0
  6
CONTINUOUS
 62
    52
 10
187.992431640625
 20
39.5
 30
0.0
 11
185.992431640625
 21
37.5
 31
0.0
  0
LINE
  5
    93
  8
0
  6
CONTINUOUS
 62
    52
 10
192.235076904297
 20
39.5
 30
0.0
 11
190.235076904297
 21
37.5
 31
0.0
  0
LINE
  5
    94
  8
0
  6
CONTINUOUS
 62
    52
 10
196.477722167969
 20
39.5
 30
0.0
 11
194.477722167969
 21
37.5
 31
0.0
  0
LINE
  5
    95
  8
0
  6
CONTINUOUS
 62
    52
 10
200.720367431641
 20
39.5
 30
0.0
 11
198.720367431641
 21
37.5
 31
0.0
  0
LINE
  5
    96
  8
0
  6
CONTINUOUS
 62
    52
 10
204.963012695313
 20
39.5
 30
0.0
 11
202.963012695313
 21
37.5
 31
0.0
  0
LINE
  5
    97
  8
0
  6
CONTINUOUS
 62
    52
 10
209.205657958984
 20
39.5
 30
0.0
 11
207.205657958984
 21
37.5
 31
0.0
  0
LINE
  5
    98
  8
0
  6
CONTINUOUS
 62
    52
 10
213.448303222656
 20
39.5
 30
0.0
 11
211.448303222656
 21
37.5
 31
0.0
  0
LINE
  5
    99
  8
0
  6
CONTINUOUS
 62
    52
 10
217.690948486328
 20
39.5
 30
0.0
 11
215.690948486328
 21
37.5
 31
0.0
  0
LINE
  5
    9A
  8
0
  6
CONTINUOUS
 62
    52
 10
221.93359375
 20
39.5
 30
0.0
 11
219.93359375
 21
37.5
 31
0.0
  0
LINE
  5
    9B
  8
0
  6
CONTINUOUS
 62
    52
 10
226.176239013672
 20
39.5
 30
0.0
 11
224.176239013672
 21
37.5
 31
0.0
  0
LINE
  5
    9C
  8
0
  6
CONTINUOUS
 62
    52
 10
229.369522094727
 20
38.4506874084473
 30
0.0
 11
228.418838500977
 21
37.5
 31
0.0
  0
ENDBLK
  5
    9D
  8
0
  6
CONTINUOUS
 62
     7
  0
BLOCK
  5
    9E
  8
0
  6
CONTINUOUS
 62
     7
  2
*HATCH77
 70
    65
 10
0.0
 20
0.0
 30
0.0
  3
*HATCH77
  0
LINE
  5
    9F
  8
0
  6
CONTINUOUS
 62
    52
 10
115.867530822754
 20
39.4999961853027
 30
0.0
 11
113.867530822754
 21
37.4999961853027
 31
0.0
  0
LINE
  5
    A0
  8
0
  6
CONTINUOUS
 62
    52
 10
120.110176086426
 20
39.4999961853027
 30
0.0
 11
118.110176086426
 21
37.4999961853027
 31
0.0
  0
LINE
  5
    A1
  8
0
  6
CONTINUOUS
 62
    52
 10
124.352821350098
 20
39.4999961853027
 30
0.0
 11
122.352821350098
 21
37.4999961853027
 31
0.0
  0
LINE
  5
    A2
  8
0
  6
CONTINUOUS
 62
    52
 10
128.595458984375
 20
39.4999961853027
 30
0.0
 11
126.59546661377
 21
37.4999961853027
 31
0.0
  0
LINE
  5
    A3
  8
0
  6
CONTINUOUS
 62
    52
 10
132.838104248047
 20
39.4999961853027
 30
0.0
 11
130.838104248047
 21
37.4999961853027
 31
0.0
  0
LINE
  5
    A4
  8
0
  6
CONTINUOUS
 62
    52
 10
137.080749511719
 20
39.4999961853027
 30
0.0
 11
135.080749511719
 21
37.4999961853027
 31
0.0
  0
LINE
  5
    A5
  8
0
  6
CONTINUOUS
 62
    52
 10
141.323394775391
 20
39.4999961853027
 30
0.0
 11
139.323394775391
 21
37.4999961853027
 31
0.0
  0
LINE
  5
    A6
  8
0
  6
CONTINUOUS
 62
    52
 10
145.566040039063
 20
39.4999961853027
 30
0.0
 11
143.566040039063
 21
37.4999961853027
 31
0.0
  0
LINE
  5
    A7
  8
0
  6
CONTINUOUS
 62
    52
 10
149.808685302734
 20
39.4999961853027
 30
0.0
 11
147.808685302734
 21
37.4999961853027
 31
0.0
  0
LINE
  5
    A8
  8
0
  6
CONTINUOUS
 62
    52
 10
154.051330566406
 20
39.4999961853027
 30
0.0
 11
152.051330566406
 21
37.4999961853027
 31
0.0
  0
LINE
  5
    A9
  8
0
  6
CONTINUOUS
 62
    52
 10
158.293975830078
 20
39.4999961853027
 30
0.0
 11
156.293975830078
 21
37.4999961853027
 31
0.0
  0
LINE
  5
    AA
  8
0
  6
CONTINUOUS
 62
    52
 10
162.53662109375
 20
39.4999961853027
 30
0.0
 11
160.53662109375
 21
37.4999961853027
 31
0.0
  0
LINE
  5
    AB
  8
0
  6
CONTINUOUS
 62
    52
 10
166.779266357422
 20
39.4999961853027
 30
0.0
 11
164.779266357422
 21
37.4999961853027
 31
0.0
  0
LINE
  5
    AC
  8
0
  6
CONTINUOUS
 62
    52
 10
171.021911621094
 20
39.4999961853027
 30
0.0
 11
169.021911621094
 21
37.4999961853027
 31
0.0
  0
LINE
  5
    AD
  8
0
  6
CONTINUOUS
 62
    52
 10
175.264556884766
 20
39.4999961853027
 30
0.0
 11
173.264556884766
 21
37.4999961853027
 31
0.0
  0
ENDBLK
  5
    AE
  8
0
  6
CONTINUOUS
 62
     7
  0
BLOCK
  5
    AF
  8
0
  6
CONTINUOUS
 62
     7
  2
*HATCH78
 70
    65
 10
0.0
 20
0.0
 30
0.0
  3
*HATCH78
  0
LINE
  5
    B0
  8
0
  6
CONTINUOUS
 62
    52
 10
92.5330123901367
 20
39.4999961853027
 30
0.0
 11
90.5330123901367
 21
37.4999961853027
 31
0.0
  0
LINE
  5
    B1
  8
0
  6
CONTINUOUS
 62
    52
 10
96.7756576538086
 20
39.4999961853027
 30
0.0
 11
94.7756576538086
 21
37.4999961853027
 31
0.0
  0
LINE
  5
    B2
  8
0
  6
CONTINUOUS
 62
    52
 10
101.01830291748
 20
39.4999961853027
 30
0.0
 11
99.0183029174805
 21
37.4999961853027
 31
0.0
  0
LINE
  5
    B3
  8
0
  6
CONTINUOUS
 62
    52
 10
105.260948181152
 20
39.4999961853027
 30
0.0
 11
103.260948181152
 21
37.4999961853027
 31
0.0
  0
ENDBLK
  5
    B4
  8
0
  6
CONTINUOUS
 62
     7
  0
BLOCK
  5
    B5
  8
0
  6
CONTINUOUS
 62
     7
  2
*HATCH79
 70
    65
 10
0.0
 20
0.0
 30
0.0
  3
*HATCH79
  0
LINE
  5
    B6
  8
0
  6
CONTINUOUS
 62
    52
 10
45.8639602661133
 20
39.4999961853027
 30
0.0
 11
43.8639640808105
 21
37.5
 31
0.0
  0
LINE
  5
    B7
  8
0
  6
CONTINUOUS
 62
    52
 10
50.1065979003906
 20
39.4999961853027
 30
0.0
 11
48.1066017150879
 21
37.5
 31
0.0
  0
LINE
  5
    B8
  8
0
  6
CONTINUOUS
 62
    52
 10
54.349235534668
 20
39.4999961853027
 30
0.0
 11
52.3492393493652
 21
37.5
 31
0.0
  0
LINE
  5
    B9
  8
0
  6
CONTINUOUS
 62
    52
 10
58.5918731689453
 20
39.4999961853027
 30
0.0
 11
56.5918769836426
 21
37.5
 31
0.0
  0
LINE
  5
    BA
  8
0
  6
CONTINUOUS
 62
    52
 10
62.8345108032227
 20
39.4999961853027
 30
0.0
 11
60.8345146179199
 21
37.5
 31
0.0
  0
LINE
  5
    BB
  8
0
  6
CONTINUOUS
 62
    52
 10
67.0771560668945
 20
39.4999961853027
 30
0.0
 11
65.0771560668945
 21
37.5
 31
0.0
  0
LINE
  5
    BC
  8
0
  6
CONTINUOUS
 62
    52
 10
71.3198013305664
 20
39.4999961853027
 30
0.0
 11
69.3198013305664
 21
37.5
 31
0.0
  0
LINE
  5
    BD
  8
0
  6
CONTINUOUS
 62
    52
 10
75.2370758056641
 20
39.1746253967285
 30
0.0
 11
73.5624465942383
 21
37.4999961853027
 31
0.0
  0
ENDBLK
  5
    BE
  8
0
  6
CONTINUOUS
 62
     7
  0
BLOCK
  5
    BF
  8
0
  6
CONTINUOUS
 62
     7
  2
*HATCH80
 70
    65
 10
0.0
 20
0.0
 30
0.0
  3
*HATCH80
  0
LINE
  5
    C0
  8
0
  6
CONTINUOUS
 62
    52
 10
-34.7462120056152
 20
39.5
 30
0.0
 11
-36.7462120056152
 21
37.5
 31
0.0
  0
LINE
  5
    C1
  8
0
  6
CONTINUOUS
 62
    52
 10
-30.5035724639893
 20
39.5
 30
0.0
 11
-32.5035743713379
 21
37.5
 31
0.0
  0
LINE
  5
    C2
  8
0
  6
CONTINUOUS
 62
    52
 10
-26.2609310150147
 20
39.5
 30
0.0
 11
-28.2609329223633
 21
37.5
 31
0.0
  0
LINE
  5
    C3
  8
0
  6
CONTINUOUS
 62
    52
 10
-22.01828956604
 20
39.5
 30
0.0
 11
-24.0182914733887
 21
37.5
 31
0.0
  0
LINE
  5
    C4
  8
0
  6
CONTINUOUS
 62
    52
 10
-17.7756481170654
 20
39.5
 30
0.0
 11
-19.7756500244141
 21
37.5
 31
0.0
  0
LINE
  5
    C5
  8
0
  6
CONTINUOUS
 62
    52
 10
-13.5330066680908
 20
39.5
 30
0.0
 11
-15.5330085754395
 21
37.5
 31
0.0
  0
LINE
  5
    C6
  8
0
  6
CONTINUOUS
 62
    52
 10
-9.29036521911621
 20
39.5
 30
0.0
 11
-11.2903671264648
 21
37.5
 31
0.0
  0
LINE
  5
    C7
  8
0
  6
CONTINUOUS
 62
    52
 10
-5.0477237701416
 20
39.5
 30
0.0
 11
-7.04772567749023
 21
37.5
 31
0.0
  0
LINE
  5
    C8
  8
0
  6
CONTINUOUS
 62
    52
 10
-0.80508279800415
 20
39.5
 30
0.0
 11
-2.8050844669342
 21
37.5
 31
0.0
  0
LINE
  5
    C9
  8
0
  6
CONTINUOUS
 62
    52
 10
3.4375581741333
 20
39.5
 30
0.0
 11
1.43755650520325
 21
37.5
 31
0.0
  0
LINE
  5
    CA
  8
0
  6
CONTINUOUS
 62
    52
 10
7.68019962310791
 20
39.5
 30
0.0
 11
5.68019771575928
 21
37.5
 31
0.0
  0
LINE
  5
    CB
  8
0
  6
CONTINUOUS
 62
    52
 10
11.9228410720825
 20
39.5
 30
0.0
 11
9.92283916473389
 21
37.5
 31
0.0
  0
LINE
  5
    CC
  8
0
  6
CONTINUOUS
 62
    52
 10
16.1654815673828
 20
39.5
 30
0.0
 11
14.1654806137085
 21
37.5
 31
0.0
  0
LINE
  5
    CD
  8
0
  6
CONTINUOUS
 62
    52
 10
20.4081230163574
 20
39.5
 30
0.0
 11
18.4081211090088
 21
37.5
 31
0.0
  0
LINE
  5
    CE
  8
0
  6
CONTINUOUS
 62
    52
 10
24.650764465332
 20
39.5
 30
0.0
 11
22.6507625579834
 21
37.5
 31
0.0
  0
LINE
  5
    CF
  8
0
  6
CONTINUOUS
 62
    52
 10
28.8934059143066
 20
39.5
 30
0.0
 11
26.893404006958
 21
37.5
 31
0.0
  0
LINE
  5
    D0
  8
0
  6
CONTINUOUS
 62
    52
 10
33.1360473632813
 20
39.5
 30
0.0
 11
31.1360454559326
 21
37.5
 31
0.0
  0
LINE
  5
    D1
  8
0
  6
CONTINUOUS
 62
    52
 10
35.486873626709
 20
37.6081924438477
 30
0.0
 11
35.3786811828613
 21
37.5
 31
0.0
  0
ENDBLK
  5
    D2
  8
0
  6
CONTINUOUS
 62
     7
  0
BLOCK
  5
    D3
  8
0
  6
CONTINUOUS
 62
     7
  2
*HATCH81
 70
    65
 10
0.0
 20
0.0
 30
0.0
  3
*HATCH81
  0
LINE
  5
    D4
  8
0
  6
CONTINUOUS
 62
    52
 10
166.264526367187
 20
30.5000076293945
 30
0.0
 11
163.987060546875
 21
28.2225513458252
 31
0.0
  0
LINE
  5
    D5
  8
0
  6
CONTINUOUS
 62
    52
 10
170.50715637207
 20
30.5000076293945
 30
0.0
 11
168.00715637207
 21
28.0000019073486
 31
0.0
  0
LINE
  5
    D6
  8
0
  6
CONTINUOUS
 62
    52
 10
172.987060546875
 20
28.7372703552246
 30
0.0
 11
172.249786376953
 21
28.0000019073486
 31
0.0
  0
ENDBLK
  5
    D7
  8
0
  6
CONTINUOUS
 62
     7
  0
BLOCK
  5
    D8
  8
0
  6
CONTINUOUS
 62
     7
  2
*UDIM346
 70
    65
 10
0.0
 20
0.0
 30
0.0
  3
*UDIM346
  0
TEXT
  5
    D9
  8
0
  6
CONTINUOUS
 62
     7
 10
-683.407527556017
 20
18.6820119057838
 30
0.0
 40
3.00000002980232
  1
5,5
 50
306.333963079312
 41
0.933333333333333
 72
     1
 11
-679.888447568021
 21
16.4289969513304
 31
0.0
 73
     2
  0
TEXT
  5
    DA
  8
0
  6
CONTINUOUS
 62
     7
 10
-685.273873595382
 20
21.2195801361825
 30
0.0
 40
3.00000002980232
  1
Ø
 50
306.333963079312
 41
0.933333333333334
 72
     1
 11
-683.413767872004
 21
21.2221814046507
 31
0.0
 73
     2
  0
LINE
  5
    DB
  8
0
  6
CONTINUOUS
 62
     7
 10
-679.591676457738
 20
11.8060187678644
 30
0.0
 11
-691.427803659271
 21
27.898951040096
 31
0.0
  0
LINE
  5
    DC
  8
0
  6
CONTINUOUS
 62
     7
 10
-687.628321970704
 20
23.612249157896
 30
0.0
 11
-689.798451554983
 21
25.6836104463814
 31
0.0
  0
LINE
  5
    DD
  8
0
  6
CONTINUOUS
 62
     7
 10
-689.798451554983
 20
25.6836104463814
 30
0.0
 11
-688.467643895694
 21
22.9949395899957
 31
0.0
  0
LINE
  5
    DE
  8
0
  6
CONTINUOUS
 62
     7
 10
-693.59793324355
 20
29.9703123285813
 30
0.0
 11
-691.427803659271
 21
27.898951040096
 31
0.0
  0
LINE
  5
    DF
  8
0
  6
CONTINUOUS
 62
     7
 10
-691.427803659271
 20
27.898951040096
 30
0.0
 11
-692.75861131856
 21
30.5876218964816
 31
0.0
  0
ENDBLK
  5
    E0
  8
0
  6
CONTINUOUS
 62
     7
  0
BLOCK
  5
    E1
  8
0
  6
CONTINUOUS
 62
     7
  2
*UDIM347
 70
    65
 10
0.0
 20
0.0
 30
0.0
  3
*UDIM347
  0
TEXT
  5
    E2
  8
0
  6
CONTINUOUS
 62
     7
 10
-729.846430641772
 20
99.3870410966993
 30
0.0
 40
3.00000002980232
  1
27,5
 50
359.999999948034
 41
0.933333333333333
 72
     1
 11
-724.546430587769
 21
100.88704110682
 31
0.0
 73
     2
  0
TEXT
  5
    E3
  8
0
  6
CONTINUOUS
 62
     7
 10
-718.69643052455
 20
99.3870411232164
 30
0.0
 40
3.00000002980232
  1
    CORSA DI SEZIONAMENTO
 50
359.999999948034
 41
0.933333333333333
 72
     1
 11
-683.996430178483
 21
100.88704110682
 31
0.0
 73
     2
  0
LINE
  5
    E4
  8
0
  6
CONTINUOUS
 62
     7
 10
-704.863096237183
 20
68.9162464141846
 30
0.0
 11
-704.863096237183
 21
100.387041091919
 31
0.0
  0
LINE
  5
    E5
  8
0
  6
CONTINUOUS
 62
     7
 10
-718.613096237183
 20
54.9163379669189
 30
0.0
 11
-718.613096237183
 21
100.387041091919
 31
0.0
  0
LINE
  5
    E6
  8
0
  6
CONTINUOUS
 62
     7
 10
-649.29642983377
 20
98.3870410919189
 30
0.0
 11
-729.846430640419
 21
98.3870410919189
 31
0.0
  0
LINE
  5
    E7
  8
0
  6
CONTINUOUS
 62
     7
 10
-701.908672959976
 20
98.9079855218706
 30
0.0
 11
-704.863096237183
 21
98.3870410919189
 31
0.0
  0
LINE
  5
    E8
  8
0
  6
CONTINUOUS
 62
     7
 10
-704.863096237183
 20
98.3870410919189
 30
0.0
 11
-701.908672959976
 21
97.8660966619673
 31
0.0
  0
LINE
  5
    E9
  8
0
  6
CONTINUOUS
 62
     7
 10
-721.56751951439
 20
97.8660966619673
 30
0.0
 11
-718.613096237183
 21
98.3870410919189
 31
0.0
  0
LINE
  5
    EA
  8
0
  6
CONTINUOUS
 62
     7
 10
-718.613096237183
 20
98.3870410919189
 30
0.0
 11
-721.56751951439
 21
98.9079855218706
 31
0.0
  0
ENDBLK
  5
    EB
  8
0
  6
CONTINUOUS
 62
     7
  0
BLOCK
  5
    EC
  8
0
  6
CONTINUOUS
 62
     7
  2
*UDIM348
 70
    65
 10
0.0
 20
0.0
 30
0.0
  3
*UDIM348
  0
TEXT
  5
    ED
  8
0
  6
CONTINUOUS
 62
     7
 10
-578.813865668957
 20
46.1038226203446
 30
0.0
 40
3.00000002980232
  1
107,25
 50
89.9999999480344
 41
0.933333333333333
 72
     1
 11
-580.313865676522
 21
54.2038227021694
 31
0.0
 73
     2
  0
LINE
  5
    EE
  8
0
  6
CONTINUOUS
 62
     7
 10
-577.813865661621
 20
27.6663379669189
 30
0.0
 11
-577.813865661621
 21
81.2913074493408
 31
0.0
  0
LINE
  5
    EF
  8
0
  6
CONTINUOUS
 62
     7
 10
-578.334810091573
 20
30.6207612441259
 30
0.0
 11
-577.813865661621
 21
27.6663379669189
 31
0.0
  0
LINE
  5
    F0
  8
0
  6
CONTINUOUS
 62
     7
 10
-577.813865661621
 20
27.6663379669189
 30
0.0
 11
-577.292921231669
 21
30.6207612441259
 31
0.0
  0
LINE
  5
    F1
  8
0
  6
CONTINUOUS
 62
     7
 10
-577.292921231669
 20
78.3368841721339
 30
0.0
 11
-577.813865661621
 21
81.2913074493408
 31
0.0
  0
LINE
  5
    F2
  8
0
  6
CONTINUOUS
 62
     7
 10
-577.813865661621
 20
81.2913074493408
 30
0.0
 11
-578.334810091573
 21
78.3368841721339
 31
0.0
  0
ENDBLK
  5
    F3
  8
0
  6
CONTINUOUS
 62
     7
  0
BLOCK
  5
    F4
  8
0
  6
CONTINUOUS
 62
     7
  2
*UDIM349
 70
    65
 10
0.0
 20
0.0
 30
0.0
  3
*UDIM349
  0
TEXT
  5
    F5
  8
0
  6
CONTINUOUS
 62
     7
 10
-565.239524844841
 20
22.6163074032788
 30
0.0
 40
3.00000002980232
  1
218
 50
89.9999999480344
 41
0.933333333333333
 72
     1
 11
-566.73952485621
 21
26.5163074433804
 31
0.0
 73
     2
  0
LINE
  5
    F6
  8
0
  6
CONTINUOUS
 62
     7
 10
-564.239524841309
 20
-27.7086973190308
 30
0.0
 11
-564.239524841309
 21
81.2913074493408
 31
0.0
  0
LINE
  5
    F7
  8
0
  6
CONTINUOUS
 62
     7
 10
-564.76046927126
 20
-24.7542740418238
 30
0.0
 11
-564.239524841309
 21
-27.7086973190308
 31
0.0
  0
LINE
  5
    F8
  8
0
  6
CONTINUOUS
 62
     7
 10
-564.239524841309
 20
-27.7086973190308
 30
0.0
 11
-563.718580411357
 21
-24.7542740418238
 31
0.0
  0
LINE
  5
    F9
  8
0
  6
CONTINUOUS
 62
     7
 10
-563.718580411357
 20
78.3368841721339
 30
0.0
 11
-564.239524841309
 21
81.2913074493408
 31
0.0
  0
LINE
  5
    FA
  8
0
  6
CONTINUOUS
 62
     7
 10
-564.239524841309
 20
81.2913074493408
 30
0.0
 11
-564.76046927126
 21
78.3368841721339
 31
0.0
  0
ENDBLK
  5
    FB
  8
0
  6
CONTINUOUS
 62
     7
  0
BLOCK
  5
    FC
  8
0
  6
CONTINUOUS
 62
     7
  2
*UDIM350
 70
    65
 10
0.0
 20
0.0
 30
0.0
  3
*UDIM350
  0
TEXT
  5
    FD
  8
0
  6
CONTINUOUS
 62
     7
 10
-596.328040707471
 20
-56.5934467305753
 30
0.0
 40
3.00000002980232
  1
3
 50
359.999999948034
 41
0.933333333333334
 72
     1
 11
-595.228040695191
 21
-55.0934467166662
 31
0.0
 73
     2
  0
TEXT
  5
    FE
  8
0
  6
CONTINUOUS
 62
     7
 10
-599.078040741247
 20
-56.5934467305753
 30
0.0
 40
3.00000002980232
  1
_
 50
359.999999948034
 41
0.933333333333334
 72
     1
 11
-597.978040728966
 21
-55.0934467166662
 31
0.0
 73
     2
  0
LINE
  5
    FF
  8
0
  6
CONTINUOUS
 62
     7
 10
-605.613098144531
 20
-53.3859310054277
 30
0.0
 11
-605.613098144531
 21
-59.5934467315674
 31
0.0
  0
LINE
  5
   100
  8
0
  6
CONTINUOUS
 62
     7
 10
-607.113098144531
 20
-55.0212163812636
 30
0.0
 11
-607.113098144531
 21
-59.5934467315674
 31
0.0
  0
LINE
  5
   101
  8
0
  6
CONTINUOUS
 62
     7
 10
-594.128040684263
 20
-57.5934467315674
 30
0.0
 11
-607.113098144531
 21
-57.5934467315674
 31
0.0
  0
LINE
  5
   102
  8
0
  6
CONTINUOUS
 62
     7
 10
-602.658674867324
 20
-57.0725023016157
 30
0.0
 11
-605.613098144531
 21
-57.5934467315674
 31
0.0
  0
LINE
  5
   103
  8
0
  6
CONTINUOUS
 62
     7
 10
-605.613098144531
 20
-57.5934467315674
 30
0.0
 11
-602.658674867324
 21
-58.1143911615191
 31
0.0
  0
LINE
  5
   104
  8
0
  6
CONTINUOUS
 62
     7
 10
-610.067521421738
 20
-58.1143911615191
 30
0.0
 11
-607.113098144531
 21
-57.5934467315674
 31
0.0
  0
LINE
  5
   105
  8
0
  6
CONTINUOUS
 62
     7
 10
-607.113098144531
 20
-57.5934467315674
 30
0.0
 11
-610.067521421738
 21
-57.0725023016157
 31
0.0
  0
ENDBLK
  5
   106
  8
0
  6
CONTINUOUS
 62
     7
  0
BLOCK
  5
   107
  8
0
  6
CONTINUOUS
 62
     7
  2
*UDIM351
 70
    65
 10
0.0
 20
0.0
 30
0.0
  3
*UDIM351
  0
TEXT
  5
   108
  8
0
  6
CONTINUOUS
 62
     7
 10
-727.190242770866
 20
23.4913226620678
 30
0.0
 40
3.00000002980232
  1
105
 50
89.9999999480344
 41
0.933333333333333
 72
     1
 11
-728.690242782235
 21
27.3913227021694
 31
0.0
 73
     2
  0
LINE
  5
   109
  8
0
  6
CONTINUOUS
 62
     7
 10
-703.113096237183
 20
1.41631317138672
 30
0.0
 11
-728.190242767334
 21
1.41631317138672
 31
0.0
  0
LINE
  5
   10A
  8
0
  6
CONTINUOUS
 62
     7
 10
-703.113096237183
 20
53.916337966919
 30
0.0
 11
-728.190242767334
 21
53.916337966919
 31
0.0
  0
LINE
  5
   10B
  8
0
  6
CONTINUOUS
 62
     7
 10
-726.190242767334
 20
1.41631317138672
 30
0.0
 11
-726.190242767334
 21
53.916337966919
 31
0.0
  0
LINE
  5
   10C
  8
0
  6
CONTINUOUS
 62
     7
 10
-726.711187197286
 20
4.37073644859368
 30
0.0
 11
-726.190242767334
 21
1.41631317138672
 31
0.0
  0
LINE
  5
   10D
  8
0
  6
CONTINUOUS
 62
     7
 10
-726.190242767334
 20
1.41631317138672
 30
0.0
 11
-725.669298337382
 21
4.37073644859368
 31
0.0
  0
LINE
  5
   10E
  8
0
  6
CONTINUOUS
 62
     7
 10
-725.669298337382
 20
50.961914689712
 30
0.0
 11
-726.190242767334
 21
53.916337966919
 31
0.0
  0
LINE
  5
   10F
  8
0
  6
CONTINUOUS
 62
     7
 10
-726.190242767334
 20
53.916337966919
 30
0.0
 11
-726.711187197286
 21
50.961914689712
 31
0.0
  0
ENDBLK
  5
   110
  8
0
  6
CONTINUOUS
 62
     7
  0
BLOCK
  5
   111
  8
0
  6
CONTINUOUS
 62
     7
  2
*UDIM352
 70
    65
 10
0.0
 20
0.0
 30
0.0
  3
*UDIM352
  0
TEXT
  5
   112
  8
0
  6
CONTINUOUS
 62
     7
 10
-667.967378621133
 20
12.7162844770965
 30
0.0
 40
3.00000002980232
  1
1,75
 50
89.9999999480344
 41
0.933333333333333
 72
     1
 11
-669.467378631234
 21
18.0162845311058
 31
0.0
 73
     2
  0
LINE
  5
   113
  8
0
  6
CONTINUOUS
 62
     7
 10
-684.113136212189
 20
26.7912837381149
 30
0.0
 11
-664.967378616333
 21
26.7912837381149
 31
0.0
  0
LINE
  5
   114
  8
0
  6
CONTINUOUS
 62
     7
 10
-666.967378616333
 20
12.716284478455
 30
0.0
 11
-666.967378616333
 21
27.6663379669189
 31
0.0
  0
LINE
  5
   115
  8
0
  6
CONTINUOUS
 62
     7
 10
-666.446434186381
 20
23.836860460908
 30
0.0
 11
-666.967378616333
 21
26.7912837381149
 31
0.0
  0
LINE
  5
   116
  8
0
  6
CONTINUOUS
 62
     7
 10
-666.967378616333
 20
26.7912837381149
 30
0.0
 11
-667.488323046285
 21
23.836860460908
 31
0.0
  0
LINE
  5
   117
  8
0
  6
CONTINUOUS
 62
     7
 10
-667.488323046285
 20
30.6207612441259
 30
0.0
 11
-666.967378616333
 21
27.6663379669189
 31
0.0
  0
LINE
  5
   118
  8
0
  6
CONTINUOUS
 62
     7
 10
-666.967378616333
 20
27.6663379669189
 30
0.0
 11
-666.446434186381
 21
30.6207612441259
 31
0.0
  0
ENDBLK
  5
   119
  8
0
  6
CONTINUOUS
 62
     7
  0
BLOCK
  5
   11A
  8
0
  6
CONTINUOUS
 62
     7
  2
*UDIM353
 70
    65
 10
0.0
 20
0.0
 30
0.0
  3
*UDIM353
  0
TEXT
  5
   11B
  8
0
  6
CONTINUOUS
 62
     7
 10
-662.963098218403
 20
-63.4771289765009
 30
0.0
 40
3.00000002980232
  1
195,5
 50
359.999999948034
 41
0.933333333333333
 72
     1
 11
-656.263098150492
 21
-61.9771289676428
 31
0.0
 73
     2
  0
LINE
  5
   11C
  8
0
  6
CONTINUOUS
 62
     7
 10
-607.113098144531
 20
-55.0212163812636
 30
0.0
 11
-607.113098144531
 21
-66.4771289825439
 31
0.0
  0
LINE
  5
   11D
  8
0
  6
CONTINUOUS
 62
     7
 10
-704.863096237183
 20
-13.5837564468384
 30
0.0
 11
-704.863096237183
 21
-66.4771289825439
 31
0.0
  0
LINE
  5
   11E
  8
0
  6
CONTINUOUS
 62
     7
 10
-607.113098144531
 20
-64.4771289825439
 30
0.0
 11
-704.863096237183
 21
-64.4771289825439
 31
0.0
  0
LINE
  5
   11F
  8
0
  6
CONTINUOUS
 62
     7
 10
-610.067521421738
 20
-64.9980734124956
 30
0.0
 11
-607.113098144531
 21
-64.4771289825439
 31
0.0
  0
LINE
  5
   120
  8
0
  6
CONTINUOUS
 62
     7
 10
-607.113098144531
 20
-64.4771289825439
 30
0.0
 11
-610.067521421738
 21
-63.9561845525923
 31
0.0
  0
LINE
  5
   121
  8
0
  6
CONTINUOUS
 62
     7
 10
-701.908672959976
 20
-63.9561845525923
 30
0.0
 11
-704.863096237183
 21
-64.4771289825439
 31
0.0
  0
LINE
  5
   122
  8
0
  6
CONTINUOUS
 62
     7
 10
-704.863096237183
 20
-64.4771289825439
 30
0.0
 11
-701.908672959976
 21
-64.9980734124956
 31
0.0
  0
ENDBLK
  5
   123
  8
0
  6
CONTINUOUS
 62
     7
  0
BLOCK
  5
   124
  8
0
  6
CONTINUOUS
 62
     7
  2
*UDIM354
 70
    65
 10
0.0
 20
0.0
 30
0.0
  3
*UDIM354
  0
TEXT
  5
   125
  8
0
  6
CONTINUOUS
 62
     7
 10
-658.788098190588
 20
-56.6915321314922
 30
0.0
 40
3.00000002980232
  1
190
 50
359.999999948034
 41
0.933333333333333
 72
     1
 11
-654.888098150492
 21
-55.1915321201086
 31
0.0
 73
     2
  0
LINE
  5
   126
  8
0
  6
CONTINUOUS
 62
     7
 10
-607.113098144531
 20
-55.0212163812636
 30
0.0
 11
-607.113098144531
 21
-59.6915321350098
 31
0.0
  0
LINE
  5
   127
  8
0
  6
CONTINUOUS
 62
     7
 10
-702.113098144531
 20
-47.5681119118823
 30
0.0
 11
-702.113098144531
 21
-59.6915321350098
 31
0.0
  0
LINE
  5
   128
  8
0
  6
CONTINUOUS
 62
     7
 10
-607.113098144531
 20
-57.6915321350098
 30
0.0
 11
-702.113098144531
 21
-57.6915321350098
 31
0.0
  0
LINE
  5
   129
  8
0
  6
CONTINUOUS
 62
     7
 10
-610.067521421738
 20
-58.2124765649614
 30
0.0
 11
-607.113098144531
 21
-57.6915321350098
 31
0.0
  0
LINE
  5
   12A
  8
0
  6
CONTINUOUS
 62
     7
 10
-607.113098144531
 20
-57.6915321350098
 30
0.0
 11
-610.067521421738
 21
-57.1705877050581
 31
0.0
  0
LINE
  5
   12B
  8
0
  6
CONTINUOUS
 62
     7
 10
-699.158674867324
 20
-57.1705877050581
 30
0.0
 11
-702.113098144531
 21
-57.6915321350098
 31
0.0
  0
LINE
  5
   12C
  8
0
  6
CONTINUOUS
 62
     7
 10
-702.113098144531
 20
-57.6915321350098
 30
0.0
 11
-699.158674867324
 21
-58.2124765649614
 31
0.0
  0
ENDBLK
  5
   12D
  8
0
  6
CONTINUOUS
 62
     7
  0
BLOCK
  5
   12E
  8
0
  6
CONTINUOUS
 62
     7
  2
*UDIM355
 70
    65
 10
0.0
 20
0.0
 30
0.0
  3
*UDIM355
  0
TEXT
  5
   12F
  8
0
  6
CONTINUOUS
 62
     7
 10
-695.830490219953
 20
-56.6915321340176
 30
0.0
 40
3.00000002980232
  1
2
 50
359.999999948034
 41
0.933333333333334
 72
     1
 11
-694.730490207672
 21
-55.1915321201086
 31
0.0
 73
     2
  0
LINE
  5
   130
  8
0
  6
CONTINUOUS
 62
     7
 10
-703.113098144531
 20
-47.736651237725
 30
0.0
 11
-703.113098144531
 21
-59.6915321350098
 31
0.0
  0
LINE
  5
   131
  8
0
  6
CONTINUOUS
 62
     7
 10
-693.630490196745
 20
-57.6915321350098
 30
0.0
 11
-703.113098144531
 21
-57.6915321350098
 31
0.0
  0
LINE
  5
   132
  8
0
  6
CONTINUOUS
 62
     7
 10
-699.158674867324
 20
-57.1705877050581
 30
0.0
 11
-702.113098144531
 21
-57.6915321350098
 31
0.0
  0
LINE
  5
   133
  8
0
  6
CONTINUOUS
 62
     7
 10
-702.113098144531
 20
-57.6915321350098
 30
0.0
 11
-699.158674867324
 21
-58.2124765649614
 31
0.0
  0
LINE
  5
   134
  8
0
  6
CONTINUOUS
 62
     7
 10
-706.067521421738
 20
-58.2124765649614
 30
0.0
 11
-703.113098144531
 21
-57.6915321350098
 31
0.0
  0
LINE
  5
   135
  8
0
  6
CONTINUOUS
 62
     7
 10
-703.113098144531
 20
-57.6915321350098
 30
0.0
 11
-706.067521421738
 21
-57.1705877050581
 31
0.0
  0
ENDBLK
  5
   136
  8
0
  6
CONTINUOUS
 62
     7
  0
BLOCK
  5
   137
  8
0
  6
CONTINUOUS
 62
     7
  2
*UDIM356
 70
    65
 10
0.0
 20
0.0
 30
0.0
  3
*UDIM356
  0
TEXT
  5
   138
  8
0
  6
CONTINUOUS
 62
     7
 10
-653.038113456244
 20
-48.2922840083232
 30
0.0
 40
3.00000002980232
  1
167
 50
359.999999948034
 41
0.933333333333333
 72
     1
 11
-649.138113416148
 21
-46.7922839969397
 31
0.0
 73
     2
  0
LINE
  5
   139
  8
0
  6
CONTINUOUS
 62
     7
 10
-690.613131954099
 20
20.2912879962051
 30
0.0
 11
-690.613131954099
 21
-51.2922840118408
 31
0.0
  0
LINE
  5
   13A
  8
0
  6
CONTINUOUS
 62
     7
 10
-607.113098144531
 20
-49.2922840118408
 30
0.0
 11
-690.613131954099
 21
-49.2922840118408
 31
0.0
  0
LINE
  5
   13B
  8
0
  6
CONTINUOUS
 62
     7
 10
-610.067521421738
 20
-49.8132284417925
 30
0.0
 11
-607.113098144531
 21
-49.2922840118408
 31
0.0
  0
LINE
  5
   13C
  8
0
  6
CONTINUOUS
 62
     7
 10
-607.113098144531
 20
-49.2922840118408
 30
0.0
 11
-610.067521421738
 21
-48.7713395818892
 31
0.0
  0
LINE
  5
   13D
  8
0
  6
CONTINUOUS
 62
     7
 10
-687.658708676892
 20
-48.7713395818892
 30
0.0
 11
-690.613131954099
 21
-49.2922840118408
 31
0.0
  0
LINE
  5
   13E
  8
0
  6
CONTINUOUS
 62
     7
 10
-690.613131954099
 20
-49.2922840118408
 30
0.0
 11
-687.658708676892
 21
-49.8132284417925
 31
0.0
  0
ENDBLK
  5
   13F
  8
0
  6
CONTINUOUS
 62
     7
  0
BLOCK
  5
   140
  8
0
  6
CONTINUOUS
 62
     7
  2
*UDIM357
 70
    65
 10
0.0
 20
0.0
 30
0.0
  3
*UDIM357
  0
TEXT
  5
   141
  8
0
  6
CONTINUOUS
 62
     7
 10
-703.077739727688
 20
-113.9802738942
 30
0.0
 40
3.00000002980232
  1
65,75
 50
449.999999896069
 41
0.933333333333333
 72
     1
 11
-704.577739730477
 21
-107.28027382493
 31
0.0
 73
     2
  0
LINE
  5
   142
  8
0
  6
CONTINUOUS
 62
     7
 10
-693.765106462181
 20
-99.2981414794922
 30
0.0
 11
-704.077739715576
 21
-99.2981414794922
 31
0.0
  0
LINE
  5
   143
  8
0
  6
CONTINUOUS
 62
     7
 10
-702.077739715576
 20
-99.2981414794922
 30
0.0
 11
-702.077739715576
 21
-115.735641479492
 31
0.0
  0
LINE
  5
   144
  8
0
  6
CONTINUOUS
 62
     7
 10
-701.556795285625
 20
-102.252564756699
 30
0.0
 11
-702.077739715576
 21
-99.2981414794922
 31
0.0
  0
LINE
  5
   145
  8
0
  6
CONTINUOUS
 62
     7
 10
-702.077739715576
 20
-99.2981414794922
 30
0.0
 11
-702.598684145528
 21
-102.252564756699
 31
0.0
  0
LINE
  5
   146
  8
0
  6
CONTINUOUS
 62
     7
 10
-702.598684145528
 20
-112.781218202285
 30
0.0
 11
-702.077739715576
 21
-115.735641479492
 31
0.0
  0
LINE
  5
   147
  8
0
  6
CONTINUOUS
 62
     7
 10
-702.077739715576
 20
-115.735641479492
 30
0.0
 11
-701.556795285625
 21
-112.781218202285
 31
0.0
  0
ENDBLK
  5
   148
  8
0
  6
CONTINUOUS
 62
     7
  0
BLOCK
  5
   149
  8
0
  6
CONTINUOUS
 62
     7
  2
*UDIM358
 70
    65
 10
0.0
 20
0.0
 30
0.0
  3
*UDIM358
  0
TEXT
  5
   14A
  8
0
  6
CONTINUOUS
 62
     7
 10
-657.478548064569
 20
-110.70439156863
 30
0.0
 40
3.00000002980232
  1
107,25
 50
449.999999896069
 41
0.933333333333333
 72
     1
 11
-658.978548064828
 21
-102.604391485453
 31
0.0
 73
     2
  0
LINE
  5
   14B
  8
0
  6
CONTINUOUS
 62
     7
 10
-665.399291992188
 20
-88.9231414794922
 30
0.0
 11
-654.478548049927
 21
-88.9231414794922
 31
0.0
  0
LINE
  5
   14C
  8
0
  6
CONTINUOUS
 62
     7
 10
-658.539875082874
 20
-115.735641479492
 30
0.0
 11
-654.478548049927
 21
-115.735641479492
 31
0.0
  0
LINE
  5
   14D
  8
0
  6
CONTINUOUS
 62
     7
 10
-656.478548049927
 20
-88.9231414794922
 30
0.0
 11
-656.478548049927
 21
-115.735641479492
 31
0.0
  0
LINE
  5
   14E
  8
0
  6
CONTINUOUS
 62
     7
 10
-655.957603619975
 20
-91.8775647566991
 30
0.0
 11
-656.478548049927
 21
-88.9231414794922
 31
0.0
  0
LINE
  5
   14F
  8
0
  6
CONTINUOUS
 62
     7
 10
-656.478548049927
 20
-88.9231414794922
 30
0.0
 11
-656.999492479878
 21
-91.8775647566991
 31
0.0
  0
LINE
  5
   150
  8
0
  6
CONTINUOUS
 62
     7
 10
-656.999492479878
 20
-112.781218202285
 30
0.0
 11
-656.478548049927
 21
-115.735641479492
 31
0.0
  0
LINE
  5
   151
  8
0
  6
CONTINUOUS
 62
     7
 10
-656.478548049927
 20
-115.735641479492
 30
0.0
 11
-655.957603619975
 21
-112.781218202285
 31
0.0
  0
ENDBLK
  5
   152
  8
0
  6
CONTINUOUS
 62
     7
  0
BLOCK
  5
   153
  8
0
  6
CONTINUOUS
 62
     7
  2
*UDIM359
 70
    65
 10
0.0
 20
0.0
 30
0.0
  3
*UDIM359
  0
TEXT
  5
   154
  8
0
  6
CONTINUOUS
 62
     7
 10
-651.210111625092
 20
-120.348142939264
 30
0.0
 40
3.00000002980232
  1
218
 50
449.999999896069
 41
0.933333333333333
 72
     1
 11
-652.710111632943
 21
-116.448142897809
 31
0.0
 73
     2
  0
LINE
  5
   155
  8
0
  6
CONTINUOUS
 62
     7
 10
-665.399291992188
 20
-88.9231422975619
 30
0.0
 11
-648.210111618043
 21
-88.9231563595104
 31
0.0
  0
LINE
  5
   156
  8
0
  6
CONTINUOUS
 62
     7
 10
-665.399291992188
 20
-143.423142297562
 30
0.0
 11
-648.210111618043
 21
-143.42315635951
 31
0.0
  0
LINE
  5
   157
  8
0
  6
CONTINUOUS
 62
     7
 10
-650.210111618042
 20
-88.9231547233709
 30
0.0
 11
-650.210111618042
 21
-143.423154723371
 31
0.0
  0
LINE
  5
   158
  8
0
  6
CONTINUOUS
 62
     7
 10
-649.68916718809
 20
-91.8775780005779
 30
0.0
 11
-650.210111618042
 21
-88.9231547233709
 31
0.0
  0
LINE
  5
   159
  8
0
  6
CONTINUOUS
 62
     7
 10
-650.210111618042
 20
-88.9231547233709
 30
0.0
 11
-650.731056047994
 21
-91.8775780005779
 31
0.0
  0
LINE
  5
   15A
  8
0
  6
CONTINUOUS
 62
     7
 10
-650.731056047994
 20
-140.468731446164
 30
0.0
 11
-650.210111618042
 21
-143.423154723371
 31
0.0
  0
LINE
  5
   15B
  8
0
  6
CONTINUOUS
 62
     7
 10
-650.210111618042
 20
-143.423154723371
 30
0.0
 11
-649.68916718809
 21
-140.468731446164
 31
0.0
  0
ENDBLK
  5
   15C
  8
0
  6
CONTINUOUS
 62
     7
  0
BLOCK
  5
   15D
  8
0
  6
CONTINUOUS
 62
     7
  2
*UDIM360
 70
    65
 10
0.0
 20
0.0
 30
0.0
  3
*UDIM360
  0
TEXT
  5
   15E
  8
0
  6
CONTINUOUS
 62
     7
 10
-682.174292025697
 20
-123.460803027399
 30
0.0
 40
3.00000002980232
  1
70
 50
359.999999896069
 41
0.933333333333333
 72
     1
 11
-679.674291998148
 21
-121.96080301702
 31
0.0
 73
     2
  0
LINE
  5
   15F
  8
0
  6
CONTINUOUS
 62
     7
 10
-670.649291992188
 20
-138.173141479492
 30
0.0
 11
-670.649291992188
 21
-122.460803031921
 31
0.0
  0
LINE
  5
   160
  8
0
  6
CONTINUOUS
 62
     7
 10
-688.149291992188
 20
-138.173141479492
 30
0.0
 11
-688.149291992188
 21
-122.460803031921
 31
0.0
  0
LINE
  5
   161
  8
0
  6
CONTINUOUS
 62
     7
 10
-670.649291992188
 20
-124.460803031921
 30
0.0
 11
-688.149291992188
 21
-124.460803031921
 31
0.0
  0
LINE
  5
   162
  8
0
  6
CONTINUOUS
 62
     7
 10
-673.603715269395
 20
-124.981747461873
 30
0.0
 11
-670.649291992188
 21
-124.460803031921
 31
0.0
  0
LINE
  5
   163
  8
0
  6
CONTINUOUS
 62
     7
 10
-670.649291992188
 20
-124.460803031921
 30
0.0
 11
-673.603715269395
 21
-123.93985860197
 31
0.0
  0
LINE
  5
   164
  8
0
  6
CONTINUOUS
 62
     7
 10
-685.194868714981
 20
-123.93985860197
 30
0.0
 11
-688.149291992188
 21
-124.460803031921
 31
0.0
  0
LINE
  5
   165
  8
0
  6
CONTINUOUS
 62
     7
 10
-688.149291992188
 20
-124.460803031921
 30
0.0
 11
-685.194868714981
 21
-124.981747461873
 31
0.0
  0
ENDBLK
  5
   166
  8
0
  6
CONTINUOUS
 62
     7
  0
BLOCK
  5
   167
  8
0
  6
CONTINUOUS
 62
     7
  2
*UDIM361
 70
    65
 10
0.0
 20
0.0
 30
0.0
  3
*UDIM361
  0
TEXT
  5
   168
  8
0
  6
CONTINUOUS
 62
     7
 10
-653.444563027108
 20
-76.3806344824953
 30
0.0
 40
3.00000002980232
  1
14
 50
393.400574337683
 41
0.933333333333333
 72
     1
 11
-652.183190814664
 21
-73.7521481670367
 31
0.0
 73
     2
  0
TEXT
  5
   169
  8
0
  6
CONTINUOUS
 62
     7
 10
-655.740379500347
 20
-77.8944795561325
 30
0.0
 40
3.00000002980232
  1
R
 50
393.400574337683
 41
0.933333333333334
 72
     1
 11
-655.647786582728
 21
-76.0366780004353
 31
0.0
 73
     2
  0
LINE
  5
   16A
  8
0
  6
CONTINUOUS
 62
     7
 10
-648.719862149942
 20
-74.463031250809
 30
0.0
 11
-680.249978950004
 21
-95.2537662462914
 31
0.0
  0
LINE
  5
   16B
  8
0
  6
CONTINUOUS
 62
     7
 10
-669.907047206328
 20
-89.0577139039167
 30
0.0
 11
-667.727343787635
 21
-86.9964295939446
 31
0.0
  0
LINE
  5
   16C
  8
0
  6
CONTINUOUS
 62
     7
 10
-667.727343787635
 20
-86.9964295939446
 30
0.0
 11
-670.480595677698
 21
-88.1879009657629
 31
0.0
  0
ENDBLK
  5
   16D
  8
0
  6
CONTINUOUS
 62
     7
  0
BLOCK
  5
   16E
  8
0
  6
CONTINUOUS
 62
     7
  2
*UDIM362
 70
    65
 10
0.0
 20
0.0
 30
0.0
  3
*UDIM362
  0
TEXT
  5
   16F
  8
0
  6
CONTINUOUS
 62
     7
 10
-710.998025577082
 20
-146.925112082002
 30
0.0
 40
3.00000002980232
  1
5
 50
395.275203288638
 41
0.933333333333334
 72
     1
 11
-710.966255753487
 21
-145.065275866887
 31
0.0
 73
     2
  0
TEXT
  5
   170
  8
0
  6
CONTINUOUS
 62
     7
 10
-713.569646526059
 20
-148.744250822551
 30
0.0
 40
3.00000002980232
  1
Ø
 50
395.275203288638
 41
0.933333333333334
 72
     1
 11
-713.537876702464
 21
-146.884414607436
 31
0.0
 73
     2
  0
TEXT
  5
   171
  8
0
  6
CONTINUOUS
 62
     7
 10
-708.752959654599
 20
-145.336975063519
 30
0.0
 40
3.00000002980232
  1
 (M4)
 50
395.275203288638
 41
0.933333333333333
 72
     1
 11
-704.149419218199
 21
-140.2431144071
 31
0.0
 73
     2
  0
LINE
  5
   172
  8
0
  6
CONTINUOUS
 62
     7
 10
-689.139049742015
 20
-132.687201254331
 30
0.0
 11
-712.992142162438
 21
-149.560638422884
 31
0.0
  0
LINE
  5
   173
  8
0
  6
CONTINUOUS
 62
     7
 10
-687.027942892288
 20
-130.555716356652
 30
0.0
 11
-689.139049742015
 21
-132.687201254331
 31
0.0
  0
LINE
  5
   174
  8
0
  6
CONTINUOUS
 62
     7
 10
-689.139049742015
 20
-132.687201254331
 30
0.0
 11
-686.42624753279
 21
-131.406301502741
 31
0.0
  0
LINE
  5
   175
  8
0
  6
CONTINUOUS
 62
     7
 10
-692.270641092087
 20
-135.540566602333
 30
0.0
 11
-690.15953424236
 21
-133.409081704653
 31
0.0
  0
LINE
  5
   176
  8
0
  6
CONTINUOUS
 62
     7
 10
-690.15953424236
 20
-133.409081704653
 30
0.0
 11
-692.872336451585
 21
-134.689981456243
 31
0.0
  0
ENDBLK
  5
   177
  8
0
  6
CONTINUOUS
 62
     7
  0
BLOCK
  5
   178
  8
0
  6
CONTINUOUS
 62
     7
  2
*UDIM363
 70
    65
 10
0.0
 20
0.0
 30
0.0
  3
*UDIM363
  0
TEXT
  5
   179
  8
0
  6
CONTINUOUS
 62
     7
 10
-682.174293933045
 20
-75.7469062759953
 30
0.0
 40
3.00000002980232
  1
82
 50
359.999999896069
 41
0.933333333333333
 72
     1
 11
-679.674293905497
 21
-74.2469062656164
 31
0.0
 73
     2
  0
LINE
  5
   17A
  8
0
  6
CONTINUOUS
 62
     7
 10
-669.149291992187
 20
-93.753217948103
 30
0.0
 11
-669.149291992187
 21
-74.7469062805176
 31
0.0
  0
LINE
  5
   17B
  8
0
  6
CONTINUOUS
 62
     7
 10
-689.649291992188
 20
-93.753217948103
 30
0.0
 11
-689.649291992188
 21
-74.7469062805176
 31
0.0
  0
LINE
  5
   17C
  8
0
  6
CONTINUOUS
 62
     7
 10
-669.149291992187
 20
-76.7469062805176
 30
0.0
 11
-689.649291992188
 21
-76.7469062805176
 31
0.0
  0
LINE
  5
   17D
  8
0
  6
CONTINUOUS
 62
     7
 10
-672.103715269395
 20
-77.2678507104693
 30
0.0
 11
-669.149291992187
 21
-76.7469062805176
 31
0.0
  0
LINE
  5
   17E
  8
0
  6
CONTINUOUS
 62
     7
 10
-669.149291992187
 20
-76.7469062805176
 30
0.0
 11
-672.103715269395
 21
-76.2259618505659
 31
0.0
  0
LINE
  5
   17F
  8
0
  6
CONTINUOUS
 62
     7
 10
-686.694868714981
 20
-76.2259618505659
 30
0.0
 11
-689.649291992188
 21
-76.7469062805176
 31
0.0
  0
LINE
  5
   180
  8
0
  6
CONTINUOUS
 62
     7
 10
-689.649291992188
 20
-76.7469062805176
 30
0.0
 11
-686.694868714981
 21
-77.2678507104693
 31
0.0
  0
ENDBLK
  5
   181
  8
0
  6
CONTINUOUS
 62
     7
  0
BLOCK
  5
   182
  8
0
  6
CONTINUOUS
 62
     7
  2
*UDIM364
 70
    65
 10
0.0
 20
0.0
 30
0.0
  3
*UDIM364
  0
TEXT
  5
   183
  8
0
  6
CONTINUOUS
 62
     7
 10
-709.513511664765
 20
-120.348142952427
 30
0.0
 40
3.00000002980232
  1
135
 50
449.999999896069
 41
0.933333333333333
 72
     1
 11
-711.013511672616
 21
-116.448142910972
 31
0.0
 73
     2
  0
LINE
  5
   184
  8
0
  6
CONTINUOUS
 62
     7
 10
-693.765106462181
 20
-99.2981411655757
 30
0.0
 11
-710.513511657715
 21
-99.2981359079754
 31
0.0
  0
LINE
  5
   185
  8
0
  6
CONTINUOUS
 62
     7
 10
-693.900868603716
 20
-133.048141165576
 30
0.0
 11
-710.513511657715
 21
-133.048135950593
 31
0.0
  0
LINE
  5
   186
  8
0
  6
CONTINUOUS
 62
     7
 10
-708.513511657715
 20
-99.2981365358084
 30
0.0
 11
-708.513511657715
 21
-133.048136578426
 31
0.0
  0
LINE
  5
   187
  8
0
  6
CONTINUOUS
 62
     7
 10
-707.992567227763
 20
-102.252559813015
 30
0.0
 11
-708.513511657715
 21
-99.2981365358084
 31
0.0
  0
LINE
  5
   188
  8
0
  6
CONTINUOUS
 62
     7
 10
-708.513511657715
 20
-99.2981365358084
 30
0.0
 11
-709.034456087667
 21
-102.252559813015
 31
0.0
  0
LINE
  5
   189
  8
0
  6
CONTINUOUS
 62
     7
 10
-709.034456087667
 20
-130.093713301219
 30
0.0
 11
-708.513511657715
 21
-133.048136578426
 31
0.0
  0
LINE
  5
   18A
  8
0
  6
CONTINUOUS
 62
     7
 10
-708.513511657715
 20
-133.048136578426
 30
0.0
 11
-707.992567227763
 21
-130.093713301219
 31
0.0
  0
ENDBLK
  5
   18B
  8
0
  6
CONTINUOUS
 62
     7
  0
BLOCK
  5
   18C
  8
0
  6
CONTINUOUS
 62
     7
  2
*UDIM365
 70
    65
 10
0.0
 20
0.0
 30
0.0
  3
*UDIM365
  0
TEXT
  5
   18D
  8
0
  6
CONTINUOUS
 62
     7
 10
-463.834991459597
 20
-92.677900729308
 30
0.0
 40
3.00000002980232
  1
83
 50
449.999999896069
 41
0.933333333333333
 72
     1
 11
-465.334991469979
 21
-90.1779007017612
 31
0.0
 73
     2
  0
LINE
  5
   18E
  8
0
  6
CONTINUOUS
 62
     7
 10
-493.588215225674
 20
-69.2029113769531
 30
0.0
 11
-460.834991455078
 21
-69.2029113769531
 31
0.0
  0
LINE
  5
   18F
  8
0
  6
CONTINUOUS
 62
     7
 10
-474.838169449307
 20
-110.602890014648
 30
0.0
 11
-460.834991455078
 21
-110.602890014648
 31
0.0
  0
LINE
  5
   190
  8
0
  6
CONTINUOUS
 62
     7
 10
-462.834991455078
 20
-69.2029113769531
 30
0.0
 11
-462.834991455078
 21
-110.602890014648
 31
0.0
  0
LINE
  5
   191
  8
0
  6
CONTINUOUS
 62
     7
 10
-462.314047025126
 20
-72.1573346541601
 30
0.0
 11
-462.834991455078
 21
-69.2029113769531
 31
0.0
  0
LINE
  5
   192
  8
0
  6
CONTINUOUS
 62
     7
 10
-462.834991455078
 20
-69.2029113769531
 30
0.0
 11
-463.35593588503
 21
-72.1573346541601
 31
0.0
  0
LINE
  5
   193
  8
0
  6
CONTINUOUS
 62
     7
 10
-463.35593588503
 20
-107.648466737441
 30
0.0
 11
-462.834991455078
 21
-110.602890014648
 31
0.0
  0
LINE
  5
   194
  8
0
  6
CONTINUOUS
 62
     7
 10
-462.834991455078
 20
-110.602890014648
 30
0.0
 11
-462.314047025126
 21
-107.648466737441
 31
0.0
  0
ENDBLK
  5
   195
  8
0
  6
CONTINUOUS
 62
     7
  0
BLOCK
  5
   196
  8
0
  6
CONTINUOUS
 62
     7
  2
*UDIM366
 70
    65
 10
0.0
 20
0.0
 30
0.0
  3
*UDIM366
  0
TEXT
  5
   197
  8
0
  6
CONTINUOUS
 62
     7
 10
-471.055404667605
 20
-105.677900729308
 30
0.0
 40
3.00000002980232
  1
31
 50
449.999999896069
 41
0.933333333333333
 72
     1
 11
-472.555404677987
 21
-103.177900701761
 31
0.0
 73
     2
  0
LINE
  5
   198
  8
0
  6
CONTINUOUS
 62
     7
 10
-476.088230484463
 20
-95.2029113769531
 30
0.0
 11
-468.055404663086
 21
-95.2029113769531
 31
0.0
  0
LINE
  5
   199
  8
0
  6
CONTINUOUS
 62
     7
 10
-474.838169449307
 20
-110.602890014648
 30
0.0
 11
-468.055404663086
 21
-110.602890014648
 31
0.0
  0
LINE
  5
   19A
  8
0
  6
CONTINUOUS
 62
     7
 10
-470.055404663086
 20
-95.2029113769531
 30
0.0
 11
-470.055404663086
 21
-110.602890014648
 31
0.0
  0
LINE
  5
   19B
  8
0
  6
CONTINUOUS
 62
     7
 10
-469.534460233134
 20
-98.1573346541601
 30
0.0
 11
-470.055404663086
 21
-95.2029113769531
 31
0.0
  0
LINE
  5
   19C
  8
0
  6
CONTINUOUS
 62
     7
 10
-470.055404663086
 20
-95.2029113769531
 30
0.0
 11
-470.576349093038
 21
-98.1573346541601
 31
0.0
  0
LINE
  5
   19D
  8
0
  6
CONTINUOUS
 62
     7
 10
-470.576349093038
 20
-107.648466737441
 30
0.0
 11
-470.055404663086
 21
-110.602890014648
 31
0.0
  0
LINE
  5
   19E
  8
0
  6
CONTINUOUS
 62
     7
 10
-470.055404663086
 20
-110.602890014648
 30
0.0
 11
-469.534460233134
 21
-107.648466737441
 31
0.0
  0
ENDBLK
  5
   19F
  8
0
  6
CONTINUOUS
 62
     7
  0
BLOCK
  5
   1A0
  8
0
  6
CONTINUOUS
 62
     7
  2
*UDIM367
 70
    65
 10
0.0
 20
0.0
 30
0.0
  3
*UDIM367
  0
TEXT
  5
   1A1
  8
0
  6
CONTINUOUS
 62
     7
 10
-528.986595532763
 20
-77.659687037714
 30
0.0
 40
3.00000002980232
  1
12
 50
359.999999896069
 41
0.933333333333333
 72
     1
 11
-526.486595505215
 21
-76.1596870273352
 31
0.0
 73
     2
  0
TEXT
  5
   1A2
  8
0
  6
CONTINUOUS
 62
     7
 10
-531.736595566539
 20
-77.6596870402465
 30
0.0
 40
3.00000002980232
  1
M
 50
359.999999896069
 41
0.933333333333334
 72
     1
 11
-530.636595552899
 21
-76.1596870273352
 31
0.0
 73
     2
  0
LINE
  5
   1A3
  8
0
  6
CONTINUOUS
 62
     7
 10
-514.588215225674
 20
-86.602912902832
 30
0.0
 11
-514.588215225674
 21
-76.6596870422363
 31
0.0
  0
LINE
  5
   1A4
  8
0
  6
CONTINUOUS
 62
     7
 10
-520.588215225674
 20
-86.602912902832
 30
0.0
 11
-520.588215225674
 21
-76.6596870422363
 31
0.0
  0
LINE
  5
   1A5
  8
0
  6
CONTINUOUS
 62
     7
 10
-514.588215225674
 20
-78.6596870422363
 30
0.0
 11
-531.736595563826
 21
-78.6596870422363
 31
0.0
  0
LINE
  5
   1A6
  8
0
  6
CONTINUOUS
 62
     7
 10
-511.633791948467
 20
-78.1387426122847
 30
0.0
 11
-514.588215225674
 21
-78.6596870422363
 31
0.0
  0
LINE
  5
   1A7
  8
0
  6
CONTINUOUS
 62
     7
 10
-514.588215225674
 20
-78.6596870422363
 30
0.0
 11
-511.633791948467
 21
-79.180631472188
 31
0.0
  0
LINE
  5
   1A8
  8
0
  6
CONTINUOUS
 62
     7
 10
-523.542638502881
 20
-79.180631472188
 30
0.0
 11
-520.588215225674
 21
-78.6596870422363
 31
0.0
  0
LINE
  5
   1A9
  8
0
  6
CONTINUOUS
 62
     7
 10
-520.588215225674
 20
-78.6596870422363
 30
0.0
 11
-523.542638502881
 21
-78.1387426122847
 31
0.0
  0
ENDBLK
  5
   1AA
  8
0
  6
CONTINUOUS
 62
     7
  0
BLOCK
  5
   1AB
  8
0
  6
CONTINUOUS
 62
     7
  2
*UDIM368
 70
    65
 10
0.0
 20
0.0
 30
0.0
  3
*UDIM368
  0
TEXT
  5
   1AC
  8
0
  6
CONTINUOUS
 62
     7
 10
-541.598461164135
 20
-89.7779015061552
 30
0.0
 40
3.00000002980232
  1
100
 50
449.999999896069
 41
0.933333333333333
 72
     1
 11
-543.098461171987
 21
-85.8779014647007
 31
0.0
 73
     2
  0
LINE
  5
   1AD
  8
0
  6
CONTINUOUS
 62
     7
 10
-503.088215225674
 20
-60.602912902832
 30
0.0
 11
-542.598461157085
 21
-60.602912902832
 31
0.0
  0
LINE
  5
   1AE
  8
0
  6
CONTINUOUS
 62
     7
 10
-525.338199966885
 20
-110.602890014648
 30
0.0
 11
-542.598461157085
 21
-110.602890014648
 31
0.0
  0
LINE
  5
   1AF
  8
0
  6
CONTINUOUS
 62
     7
 10
-540.598461157086
 20
-60.602912902832
 30
0.0
 11
-540.598461157086
 21
-110.602890014648
 31
0.0
  0
LINE
  5
   1B0
  8
0
  6
CONTINUOUS
 62
     7
 10
-540.077516727134
 20
-63.557336180039
 30
0.0
 11
-540.598461157086
 21
-60.602912902832
 31
0.0
  0
LINE
  5
   1B1
  8
0
  6
CONTINUOUS
 62
     7
 10
-540.598461157086
 20
-60.602912902832
 30
0.0
 11
-541.119405587037
 21
-63.557336180039
 31
0.0
  0
LINE
  5
   1B2
  8
0
  6
CONTINUOUS
 62
     7
 10
-541.119405587037
 20
-107.648466737441
 30
0.0
 11
-540.598461157086
 21
-110.602890014648
 31
0.0
  0
LINE
  5
   1B3
  8
0
  6
CONTINUOUS
 62
     7
 10
-540.598461157086
 20
-110.602890014648
 30
0.0
 11
-540.077516727134
 21
-107.648466737441
 31
0.0
  0
ENDBLK
  5
   1B4
  8
0
  6
CONTINUOUS
 62
     7
  0
BLOCK
  5
   1B5
  8
0
  6
CONTINUOUS
 62
     7
  2
*UDIM369
 70
    65
 10
0.0
 20
0.0
 30
0.0
  3
*UDIM369
  0
TEXT
  5
   1B6
  8
0
  6
CONTINUOUS
 62
     7
 10
-533.69677926158
 20
-101.377901492247
 30
0.0
 40
3.00000002980232
  1
48
 50
449.999999896069
 41
0.933333333333333
 72
     1
 11
-535.196779271962
 21
-98.8779014647007
 31
0.0
 73
     2
  0
LINE
  5
   1B7
  8
0
  6
CONTINUOUS
 62
     7
 10
-520.588215225674
 20
-86.602912902832
 30
0.0
 11
-534.696779257061
 21
-86.602912902832
 31
0.0
  0
LINE
  5
   1B8
  8
0
  6
CONTINUOUS
 62
     7
 10
-525.338199966885
 20
-110.602890014648
 30
0.0
 11
-534.696779257061
 21
-110.602890014648
 31
0.0
  0
LINE
  5
   1B9
  8
0
  6
CONTINUOUS
 62
     7
 10
-532.696779257061
 20
-86.602912902832
 30
0.0
 11
-532.696779257061
 21
-110.602890014648
 31
0.0
  0
LINE
  5
   1BA
  8
0
  6
CONTINUOUS
 62
     7
 10
-532.175834827109
 20
-89.557336180039
 30
0.0
 11
-532.696779257061
 21
-86.602912902832
 31
0.0
  0
LINE
  5
   1BB
  8
0
  6
CONTINUOUS
 62
     7
 10
-532.696779257061
 20
-86.602912902832
 30
0.0
 11
-533.217723687013
 21
-89.557336180039
 31
0.0
  0
LINE
  5
   1BC
  8
0
  6
CONTINUOUS
 62
     7
 10
-533.217723687013
 20
-107.648466737441
 30
0.0
 11
-532.696779257061
 21
-110.602890014648
 31
0.0
  0
LINE
  5
   1BD
  8
0
  6
CONTINUOUS
 62
     7
 10
-532.696779257061
 20
-110.602890014648
 30
0.0
 11
-532.175834827109
 21
-107.648466737441
 31
0.0
  0
ENDBLK
  5
   1BE
  8
0
  6
CONTINUOUS
 62
     7
  0
BLOCK
  5
   1BF
  8
0
  6
CONTINUOUS
 62
     7
  2
*UDIM370
 70
    65
 10
0.0
 20
0.0
 30
0.0
  3
*UDIM370
  0
TEXT
  5
   1C0
  8
0
  6
CONTINUOUS
 62
     7
 10
-360.0565471622
 20
96.2799634120461
 30
0.0
 40
3.00000002980232
  1
8
 50
406.249477420785
 41
0.933333333333334
 72
     1
 11
-360.379412039146
 21
98.1118363170203
 31
0.0
 73
     2
  0
TEXT
  5
   1C1
  8
0
  6
CONTINUOUS
 62
     7
 10
-362.23483404223
 20
94.0045367859223
 30
0.0
 40
3.00000002980232
  1
Ø
 50
406.249477420785
 41
0.933333333333334
 72
     1
 11
-362.557698919176
 21
95.8364096908965
 31
0.0
 73
     2
  0
TEXT
  5
   1C2
  8
0
  6
CONTINUOUS
 62
     7
 10
-373.817788183567
 20
81.9050459226555
 30
0.0
 40
3.00000002980232
  1
3 fori
 50
406.249477420785
 41
0.933333333333333
 72
     1
 11
-369.300015502784
 21
88.79342246238
 31
0.0
 73
     2
  0
LINE
  5
   1C3
  8
0
  6
CONTINUOUS
 62
     7
 10
-357.812846272303
 20
97.1776306314163
 30
0.0
 11
-382.279806995789
 21
71.6195765472927
 31
0.0
  0
LINE
  5
   1C4
  8
0
  6
CONTINUOUS
 62
     7
 10
-379.230034181212
 20
75.5586854424996
 30
0.0
 11
-380.896767711242
 21
73.0642918609104
 31
0.0
  0
LINE
  5
   1C5
  8
0
  6
CONTINUOUS
 62
     7
 10
-380.896767711242
 20
73.0642918609104
 30
0.0
 11
-378.477417785717
 21
74.8381988308108
 31
0.0
  0
LINE
  5
   1C6
  8
0
  6
CONTINUOUS
 62
     7
 10
-383.946540525819
 20
69.1251829657036
 30
0.0
 11
-382.279806995789
 21
71.6195765472927
 31
0.0
  0
LINE
  5
   1C7
  8
0
  6
CONTINUOUS
 62
     7
 10
-382.279806995789
 20
71.6195765472927
 30
0.0
 11
-384.699156921314
 21
69.8456695773923
 31
0.0
  0
ENDBLK
  5
   1C8
  8
0
  6
CONTINUOUS
 62
     7
  0
BLOCK
  5
   1C9
  8
0
  6
CONTINUOUS
 62
     7
  2
*UDIM371
 70
    65
 10
0.0
 20
0.0
 30
0.0
  3
*UDIM371
  0
TEXT
  5
   1CA
  8
0
  6
CONTINUOUS
 62
     7
 10
-424.961185702567
 20
85.1622447918235
 30
0.0
 40
3.00000002980232
  1
7
 50
316.647416943445
 41
0.933333333333334
 72
     1
 11
-423.13159937344
 21
85.4978247867858
 31
0.0
 73
     2
  0
TEXT
  5
   1CB
  8
0
  6
CONTINUOUS
 62
     7
 10
-427.86975790377
 20
87.9081887076392
 30
0.0
 40
3.00000002980232
  1
Ø
 50
316.647416943445
 41
1.2
 72
     1
 11
-425.749314354473
 21
87.9691743096269
 31
0.0
 73
     2
  0
LINE
  5
   1CC
  8
0
  6
CONTINUOUS
 62
     7
 10
-428.556243877246
 20
87.1810456568093
 30
0.0
 11
-408.566321963731
 21
68.3088291089567
 31
0.0
  0
LINE
  5
   1CD
  8
0
  6
CONTINUOUS
 62
     7
 10
-416.114663200771
 20
74.3672976000476
 30
0.0
 11
-413.474537517952
 21
72.9426094310381
 31
0.0
  0
LINE
  5
   1CE
  8
0
  6
CONTINUOUS
 62
     7
 10
-413.474537517952
 20
72.9426094310381
 30
0.0
 11
-415.048609306741
 21
75.4964884422163
 31
0.0
  0
LINE
  5
   1CF
  8
0
  6
CONTINUOUS
 62
     7
 10
-409.56191150626
 20
70.3165708081556
 30
0.0
 11
-412.20203718908
 21
71.7412589771651
 31
0.0
  0
LINE
  5
   1D0
  8
0
  6
CONTINUOUS
 62
     7
 10
-412.20203718908
 20
71.7412589771651
 30
0.0
 11
-410.62796540029
 21
69.1873799659869
 31
0.0
  0
ENDBLK
  5
   1D1
  8
0
  6
CONTINUOUS
 62
     7
  0
BLOCK
  5
   1D2
  8
0
  6
CONTINUOUS
 62
     7
  2
*UDIM372
 70
    65
 10
0.0
 20
0.0
 30
0.0
  3
*UDIM372
  0
TEXT
  5
   1D3
  8
0
  6
CONTINUOUS
 62
     7
 10
-368.733808084223
 20
26.2233624280774
 30
0.0
 40
3.00000002980232
  1
7
 50
317.002760843544
 41
0.933333333333334
 72
     1
 11
-366.906338168715
 21
26.5702828464117
 31
0.0
 73
     2
  0
TEXT
  5
   1D4
  8
0
  6
CONTINUOUS
 62
     7
 10
-371.659354366356
 20
28.9512149148371
 30
0.0
 40
3.00000002980232
  1
Ø
 50
317.002760843544
 41
1.2
 72
     1
 11
-369.539329822575
 21
29.0253500831028
 31
0.0
 73
     2
  0
LINE
  5
   1D5
  8
0
  6
CONTINUOUS
 62
     7
 10
-385.885183424471
 20
40.8484675130116
 30
0.0
 11
-367.806720740115
 21
23.9916569868372
 31
0.0
  0
LINE
  5
   1D6
  8
0
  6
CONTINUOUS
 62
     7
 10
-384.877161253322
 20
38.846938954543
 30
0.0
 11
-382.228250598126
 21
37.4386519309605
 31
0.0
  0
LINE
  5
   1D7
  8
0
  6
CONTINUOUS
 62
     7
 10
-382.228250598126
 20
37.4386519309605
 30
0.0
 11
-383.818130969021
 21
39.982719619966
 31
0.0
  0
LINE
  5
   1D8
  8
0
  6
CONTINUOUS
 62
     7
 10
-378.29941345371
 20
34.8369294536602
 30
0.0
 11
-380.948324108905
 21
36.2452164772427
 31
0.0
  0
LINE
  5
   1D9
  8
0
  6
CONTINUOUS
 62
     7
 10
-380.948324108905
 20
36.2452164772427
 30
0.0
 11
-379.35844373801
 21
33.7011487882371
 31
0.0
  0
ENDBLK
  5
   1DA
  8
0
  6
CONTINUOUS
 62
     7
  0
BLOCK
  5
   1DB
  8
0
  6
CONTINUOUS
 62
     7
  2
*UDIM373
 70
    65
 10
0.0
 20
0.0
 30
0.0
  3
*UDIM373
  0
TEXT
  5
   1DC
  8
0
  6
CONTINUOUS
 62
     7
 10
-399.506845804246
 20
15.4365883207589
 30
0.0
 40
3.00000002980232
  1
R min.200
 50
359.999999844103
 41
0.933333333333333
 72
     1
 11
-387.206845677983
 21
16.9365883022547
 31
0.0
 73
     2
  0
LINE
  5
   1DD
  8
0
  6
CONTINUOUS
 62
     7
 10
-401.838287353516
 20
30.4467528865501
 30
0.0
 11
-401.838287353516
 21
12.4365882873535
 31
0.0
  0
LINE
  5
   1DE
  8
0
  6
CONTINUOUS
 62
     7
 10
-373.331558480046
 20
15.6280524217616
 30
0.0
 11
-373.331558480046
 21
12.4365882873535
 31
0.0
  0
LINE
  5
   1DF
  8
0
  6
CONTINUOUS
 62
     7
 10
-401.838287353516
 20
14.4365882873535
 30
0.0
 11
-373.331558480046
 21
14.4365882873535
 31
0.0
  0
LINE
  5
   1E0
  8
0
  6
CONTINUOUS
 62
     7
 10
-404.792710630723
 20
13.9156438574019
 30
0.0
 11
-401.838287353516
 21
14.4365882873535
 31
0.0
  0
LINE
  5
   1E1
  8
0
  6
CONTINUOUS
 62
     7
 10
-401.838287353516
 20
14.4365882873535
 30
0.0
 11
-404.792710630723
 21
14.9575327173052
 31
0.0
  0
LINE
  5
   1E2
  8
0
  6
CONTINUOUS
 62
     7
 10
-370.377135202839
 20
14.9575327173052
 30
0.0
 11
-373.331558480046
 21
14.4365882873535
 31
0.0
  0
LINE
  5
   1E3
  8
0
  6
CONTINUOUS
 62
     7
 10
-373.331558480046
 20
14.4365882873535
 30
0.0
 11
-370.377135202839
 21
13.9156438574019
 31
0.0
  0
ENDBLK
  5
   1E4
  8
0
  6
CONTINUOUS
 62
     7
  0
BLOCK
  5
   1E5
  8
0
  6
CONTINUOUS
 62
     7
  2
*UDIM374
 70
    65
 10
0.0
 20
0.0
 30
0.0
  3
*UDIM374
  0
TEXT
  5
   1E6
  8
0
  6
CONTINUOUS
 62
     7
 10
-439.378208174788
 20
58.0794341414184
 30
0.0
 40
3.00000002980232
  1
72,5
 50
449.999999844103
 41
0.933333333333333
 72
     1
 11
-440.878208175302
 21
63.3794341981411
 31
0.0
 73
     2
  0
LINE
  5
   1E7
  8
0
  6
CONTINUOUS
 62
     7
 10
-410.133287353516
 20
72.7169342041016
 30
0.0
 11
-440.3782081604
 21
72.7169342041016
 31
0.0
  0
LINE
  5
   1E8
  8
0
  6
CONTINUOUS
 62
     7
 10
-430.299012116659
 20
54.5919342041016
 30
0.0
 11
-440.3782081604
 21
54.5919342041016
 31
0.0
  0
LINE
  5
   1E9
  8
0
  6
CONTINUOUS
 62
     7
 10
-438.3782081604
 20
72.7169342041016
 30
0.0
 11
-438.3782081604
 21
54.5919342041016
 31
0.0
  0
LINE
  5
   1EA
  8
0
  6
CONTINUOUS
 62
     7
 10
-437.857263730449
 20
69.7625109268946
 30
0.0
 11
-438.3782081604
 21
72.7169342041016
 31
0.0
  0
LINE
  5
   1EB
  8
0
  6
CONTINUOUS
 62
     7
 10
-438.3782081604
 20
72.7169342041016
 30
0.0
 11
-438.899152590352
 21
69.7625109268946
 31
0.0
  0
LINE
  5
   1EC
  8
0
  6
CONTINUOUS
 62
     7
 10
-438.899152590352
 20
57.5463574813085
 30
0.0
 11
-438.3782081604
 21
54.5919342041016
 31
0.0
  0
LINE
  5
   1ED
  8
0
  6
CONTINUOUS
 62
     7
 10
-438.3782081604
 20
54.5919342041016
 30
0.0
 11
-437.857263730449
 21
57.5463574813085
 31
0.0
  0
ENDBLK
  5
   1EE
  8
0
  6
CONTINUOUS
 62
     7
  0
BLOCK
  5
   1EF
  8
0
  6
CONTINUOUS
 62
     7
  2
*UDIM375
 70
    65
 10
0.0
 20
0.0
 30
0.0
  3
*UDIM375
  0
TEXT
  5
   1F0
  8
0
  6
CONTINUOUS
 62
     7
 10
-391.996396093667
 20
83.4494915076442
 30
0.0
 40
3.00000002980232
  1
45
 50
359.999999844103
 41
0.933333333333333
 72
     1
 11
-389.496396064758
 21
84.9494915157557
 31
0.0
 73
     2
  0
LINE
  5
   1F1
  8
0
  6
CONTINUOUS
 62
     7
 10
-407.463287353516
 20
75.3869342041016
 30
0.0
 11
-407.463287353516
 21
84.4494915008545
 31
0.0
  0
LINE
  5
   1F2
  8
0
  6
CONTINUOUS
 62
     7
 10
-396.213287353516
 20
75.3869342041016
 30
0.0
 11
-396.213287353516
 21
84.4494915008545
 31
0.0
  0
LINE
  5
   1F3
  8
0
  6
CONTINUOUS
 62
     7
 10
-407.463287353516
 20
82.4494915008545
 30
0.0
 11
-386.996396039923
 21
82.4494915008545
 31
0.0
  0
LINE
  5
   1F4
  8
0
  6
CONTINUOUS
 62
     7
 10
-410.417710630723
 20
81.9285470709028
 30
0.0
 11
-407.463287353516
 21
82.4494915008545
 31
0.0
  0
LINE
  5
   1F5
  8
0
  6
CONTINUOUS
 62
     7
 10
-407.463287353516
 20
82.4494915008545
 30
0.0
 11
-410.417710630723
 21
82.9704359308062
 31
0.0
  0
LINE
  5
   1F6
  8
0
  6
CONTINUOUS
 62
     7
 10
-393.258864076309
 20
82.9704359308062
 30
0.0
 11
-396.213287353516
 21
82.4494915008545
 31
0.0
  0
LINE
  5
   1F7
  8
0
  6
CONTINUOUS
 62
     7
 10
-396.213287353516
 20
82.4494915008545
 30
0.0
 11
-393.258864076309
 21
81.9285470709028
 31
0.0
  0
ENDBLK
  5
   1F8
  8
0
  6
CONTINUOUS
 62
     7
  0
BLOCK
  5
   1F9
  8
0
  6
CONTINUOUS
 62
     7
  2
*UDIM376
 70
    65
 10
0.0
 20
0.0
 30
0.0
  3
*UDIM376
  0
TEXT
  5
   1FA
  8
0
  6
CONTINUOUS
 62
     7
 10
-363.180877703735
 20
57.4919345149408
 30
0.0
 40
3.00000002980232
  1
27,25
 50
449.999999844103
 41
0.933333333333333
 72
     1
 11
-364.680877700448
 21
64.1919345855713
 31
0.0
 73
     2
  0
LINE
  5
   1FB
  8
0
  6
CONTINUOUS
 62
     7
 10
-372.845559053379
 20
54.5919342041016
 30
0.0
 11
-360.180877685547
 21
54.5919342041016
 31
0.0
  0
LINE
  5
   1FC
  8
0
  6
CONTINUOUS
 62
     7
 10
-375.582980954074
 20
47.7794342041016
 30
0.0
 11
-360.180877685547
 21
47.7794342041016
 31
0.0
  0
LINE
  5
   1FD
  8
0
  6
CONTINUOUS
 62
     7
 10
-362.180877685547
 20
70.8919346521298
 30
0.0
 11
-362.180877685547
 21
47.7794342041016
 31
0.0
  0
LINE
  5
   1FE
  8
0
  6
CONTINUOUS
 62
     7
 10
-362.701822115499
 20
57.5463574813085
 30
0.0
 11
-362.180877685547
 21
54.5919342041016
 31
0.0
  0
LINE
  5
   1FF
  8
0
  6
CONTINUOUS
 62
     7
 10
-362.180877685547
 20
54.5919342041016
 30
0.0
 11
-361.659933255595
 21
57.5463574813085
 31
0.0
  0
LINE
  5
   200
  8
0
  6
CONTINUOUS
 62
     7
 10
-361.659933255595
 20
44.8250109268946
 30
0.0
 11
-362.180877685547
 21
47.7794342041016
 31
0.0
  0
LINE
  5
   201
  8
0
  6
CONTINUOUS
 62
     7
 10
-362.180877685547
 20
47.7794342041016
 30
0.0
 11
-362.701822115499
 21
44.8250109268946
 31
0.0
  0
ENDBLK
  5
   202
  8
0
  6
CONTINUOUS
 62
     7
  0
BLOCK
  5
   203
  8
0
  6
CONTINUOUS
 62
     7
  2
*UDIM377
 70
    65
 10
0.0
 20
0.0
 30
0.0
  3
*UDIM377
  0
TEXT
  5
   204
  8
0
  6
CONTINUOUS
 62
     7
 10
-358.129154208308
 20
63.0251998989791
 30
0.0
 40
3.00000002980232
  1
=
 50
449.999999844103
 41
0.933333333333334
 72
     1
 11
-359.629154220223
 21
64.1251999139786
 31
0.0
 73
     2
  0
LINE
  5
   205
  8
0
  6
CONTINUOUS
 62
     7
 10
-378.963287353516
 20
72.3419342041016
 30
0.0
 11
-355.129154205322
 21
72.3419342041016
 31
0.0
  0
LINE
  5
   206
  8
0
  6
CONTINUOUS
 62
     7
 10
-378.963287353516
 20
54.5919342041016
 30
0.0
 11
-355.129154205322
 21
54.5919342041016
 31
0.0
  0
LINE
  5
   207
  8
0
  6
CONTINUOUS
 62
     7
 10
-357.129154205322
 20
72.3419342041016
 30
0.0
 11
-357.129154205322
 21
54.5919342041016
 31
0.0
  0
LINE
  5
   208
  8
0
  6
CONTINUOUS
 62
     7
 10
-356.608209775371
 20
69.3875109268946
 30
0.0
 11
-357.129154205322
 21
72.3419342041016
 31
0.0
  0
LINE
  5
   209
  8
0
  6
CONTINUOUS
 62
     7
 10
-357.129154205322
 20
72.3419342041016
 30
0.0
 11
-357.650098635274
 21
69.3875109268946
 31
0.0
  0
LINE
  5
   20A
  8
0
  6
CONTINUOUS
 62
     7
 10
-357.650098635274
 20
57.5463574813085
 30
0.0
 11
-357.129154205322
 21
54.5919342041016
 31
0.0
  0
LINE
  5
   20B
  8
0
  6
CONTINUOUS
 62
     7
 10
-357.129154205322
 20
54.5919342041016
 30
0.0
 11
-356.608209775371
 21
57.5463574813085
 31
0.0
  0
ENDBLK
  5
   20C
  8
0
  6
CONTINUOUS
 62
     7
  0
BLOCK
  5
   20D
  8
0
  6
CONTINUOUS
 62
     7
  2
*UDIM378
 70
    65
 10
0.0
 20
0.0
 30
0.0
  3
*UDIM378
  0
TEXT
  5
   20E
  8
0
  6
CONTINUOUS
 62
     7
 10
-358.129154208308
 20
45.2751998989791
 30
0.0
 40
3.00000002980232
  1
=
 50
449.999999844103
 41
0.933333333333334
 72
     1
 11
-359.629154220223
 21
46.3751999139786
 31
0.0
 73
     2
  0
LINE
  5
   20F
  8
0
  6
CONTINUOUS
 62
     7
 10
-378.963287353516
 20
36.8419342041016
 30
0.0
 11
-355.129154205322
 21
36.8419342041016
 31
0.0
  0
LINE
  5
   210
  8
0
  6
CONTINUOUS
 62
     7
 10
-357.129154205322
 20
54.5919342041016
 30
0.0
 11
-357.129154205322
 21
36.8419342041016
 31
0.0
  0
LINE
  5
   211
  8
0
  6
CONTINUOUS
 62
     7
 10
-356.608209775371
 20
51.6375109268946
 30
0.0
 11
-357.129154205322
 21
54.5919342041016
 31
0.0
  0
LINE
  5
   212
  8
0
  6
CONTINUOUS
 62
     7
 10
-357.129154205322
 20
54.5919342041016
 30
0.0
 11
-357.650098635274
 21
51.6375109268946
 31
0.0
  0
LINE
  5
   213
  8
0
  6
CONTINUOUS
 62
     7
 10
-357.650098635274
 20
39.7963574813085
 30
0.0
 11
-357.129154205322
 21
36.8419342041016
 31
0.0
  0
LINE
  5
   214
  8
0
  6
CONTINUOUS
 62
     7
 10
-357.129154205322
 20
36.8419342041016
 30
0.0
 11
-356.608209775371
 21
39.7963574813085
 31
0.0
  0
ENDBLK
  5
   215
  8
0
  6
CONTINUOUS
 62
     7
  0
BLOCK
  5
   216
  8
0
  6
CONTINUOUS
 62
     7
  2
*UDIM379
 70
    65
 10
0.0
 20
0.0
 30
0.0
  3
*UDIM379
  0
TEXT
  5
   217
  8
0
  6
CONTINUOUS
 62
     7
 10
-431.981626521207
 20
50.4169341553261
 30
0.0
 40
3.00000002980232
  1
126
 50
449.999999844103
 41
0.933333333333333
 72
     1
 11
-433.481626525521
 21
54.3169341981411
 31
0.0
 73
     2
  0
LINE
  5
   218
  8
0
  6
CONTINUOUS
 62
     7
 10
-420.838287353516
 20
70.3419342041016
 30
0.0
 11
-432.98162651062
 21
70.3419342041016
 31
0.0
  0
LINE
  5
   219
  8
0
  6
CONTINUOUS
 62
     7
 10
-420.838287353516
 20
38.8419342041016
 30
0.0
 11
-432.98162651062
 21
38.8419342041016
 31
0.0
  0
LINE
  5
   21A
  8
0
  6
CONTINUOUS
 62
     7
 10
-430.98162651062
 20
70.3419342041016
 30
0.0
 11
-430.98162651062
 21
38.8419342041016
 31
0.0
  0
LINE
  5
   21B
  8
0
  6
CONTINUOUS
 62
     7
 10
-430.460682080669
 20
67.3875109268946
 30
0.0
 11
-430.98162651062
 21
70.3419342041016
 31
0.0
  0
LINE
  5
   21C
  8
0
  6
CONTINUOUS
 62
     7
 10
-430.98162651062
 20
70.3419342041016
 30
0.0
 11
-431.502570940572
 21
67.3875109268946
 31
0.0
  0
LINE
  5
   21D
  8
0
  6
CONTINUOUS
 62
     7
 10
-431.502570940572
 20
41.7963574813085
 30
0.0
 11
-430.98162651062
 21
38.8419342041016
 31
0.0
  0
LINE
  5
   21E
  8
0
  6
CONTINUOUS
 62
     7
 10
-430.98162651062
 20
38.8419342041016
 30
0.0
 11
-430.460682080669
 21
41.7963574813085
 31
0.0
  0
ENDBLK
  5
   21F
  8
0
  6
CONTINUOUS
 62
     7
  0
BLOCK
  5
   220
  8
0
  6
CONTINUOUS
 62
     7
  2
*UDIM380
 70
    65
 10
0.0
 20
0.0
 30
0.0
  3
*UDIM380
  0
TEXT
  5
   221
  8
0
  6
CONTINUOUS
 62
     7
 10
-351.432140360929
 20
50.4169341553261
 30
0.0
 40
3.00000002980232
  1
142
 50
449.999999844103
 41
0.933333333333333
 72
     1
 11
-352.932140365243
 21
54.3169341981411
 31
0.0
 73
     2
  0
LINE
  5
   222
  8
0
  6
CONTINUOUS
 62
     7
 10
-410.213287353516
 20
72.3419342041016
 30
0.0
 11
-348.432140350342
 21
72.3419342041016
 31
0.0
  0
LINE
  5
   223
  8
0
  6
CONTINUOUS
 62
     7
 10
-378.963287353516
 20
36.8419342041016
 30
0.0
 11
-348.432140350342
 21
36.8419342041016
 31
0.0
  0
LINE
  5
   224
  8
0
  6
CONTINUOUS
 62
     7
 10
-350.432140350342
 20
72.3419342041016
 30
0.0
 11
-350.432140350342
 21
36.8419342041016
 31
0.0
  0
LINE
  5
   225
  8
0
  6
CONTINUOUS
 62
     7
 10
-349.91119592039
 20
69.3875109268946
 30
0.0
 11
-350.432140350342
 21
72.3419342041016
 31
0.0
  0
LINE
  5
   226
  8
0
  6
CONTINUOUS
 62
     7
 10
-350.432140350342
 20
72.3419342041016
 30
0.0
 11
-350.953084780293
 21
69.3875109268946
 31
0.0
  0
LINE
  5
   227
  8
0
  6
CONTINUOUS
 62
     7
 10
-350.953084780293
 20
39.7963574813085
 30
0.0
 11
-350.432140350342
 21
36.8419342041016
 31
0.0
  0
LINE
  5
   228
  8
0
  6
CONTINUOUS
 62
     7
 10
-350.432140350342
 20
36.8419342041016
 30
0.0
 11
-349.91119592039
 21
39.7963574813085
 31
0.0
  0
ENDBLK
  5
   229
  8
0
  6
CONTINUOUS
 62
     7
  0
BLOCK
  5
   22A
  8
0
  6
CONTINUOUS
 62
     7
  2
*UDIM381
 70
    65
 10
0.0
 20
0.0
 30
0.0
  3
*UDIM381
  0
TEXT
  5
   22B
  8
0
  6
CONTINUOUS
 62
     7
 10
-394.820817954174
 20
45.0896964678179
 30
0.0
 40
3.00000002980232
  1
16
 50
449.999999844103
 41
0.933333333333333
 72
     1
 11
-396.320817962289
 21
47.5896964967251
 31
0.0
 73
     2
  0
LINE
  5
   22C
  8
0
  6
CONTINUOUS
 62
     7
 10
-387.088287353516
 20
49.7794342041016
 30
0.0
 11
-395.820817947388
 21
49.7794342041016
 31
0.0
  0
LINE
  5
   22D
  8
0
  6
CONTINUOUS
 62
     7
 10
-387.088287353516
 20
45.7794342041016
 30
0.0
 11
-395.820817947388
 21
45.7794342041016
 31
0.0
  0
LINE
  5
   22E
  8
0
  6
CONTINUOUS
 62
     7
 10
-393.820817947388
 20
50.0896965215604
 30
0.0
 11
-393.820817947388
 21
45.0896964718898
 31
0.0
  0
LINE
  5
   22F
  8
0
  6
CONTINUOUS
 62
     7
 10
-394.341762377339
 20
52.7338574813085
 30
0.0
 11
-393.820817947388
 21
49.7794342041016
 31
0.0
  0
LINE
  5
   230
  8
0
  6
CONTINUOUS
 62
     7
 10
-393.820817947388
 20
49.7794342041016
 30
0.0
 11
-393.299873517436
 21
52.7338574813085
 31
0.0
  0
LINE
  5
   231
  8
0
  6
CONTINUOUS
 62
     7
 10
-393.299873517436
 20
42.8250109268946
 30
0.0
 11
-393.820817947388
 21
45.7794342041016
 31
0.0
  0
LINE
  5
   232
  8
0
  6
CONTINUOUS
 62
     7
 10
-393.820817947388
 20
45.7794342041016
 30
0.0
 11
-394.341762377339
 21
42.8250109268946
 31
0.0
  0
ENDBLK
  5
   233
  8
0
  6
CONTINUOUS
 62
     7
  0
BLOCK
  5
   234
  8
0
  6
CONTINUOUS
 62
     7
  2
*UDIM382
 70
    65
 10
0.0
 20
0.0
 30
0.0
  3
*UDIM382
  0
TEXT
  5
   235
  8
0
  6
CONTINUOUS
 62
     7
 10
-392.863287388385
 20
59.1405155726619
 30
0.0
 40
3.00000002980232
  1
94
 50
359.999999844103
 41
0.933333333333333
 72
     1
 11
-390.363287359476
 21
60.6405155807734
 31
0.0
 73
     2
  0
LINE
  5
   236
  8
0
  6
CONTINUOUS
 62
     7
 10
-378.338287353516
 20
48.6544342041016
 30
0.0
 11
-378.338287353516
 21
60.1405155658722
 31
0.0
  0
LINE
  5
   237
  8
0
  6
CONTINUOUS
 62
     7
 10
-401.838287353516
 20
58.1405155658722
 30
0.0
 11
-378.338287353516
 21
58.1405155658722
 31
0.0
  0
LINE
  5
   238
  8
0
  6
CONTINUOUS
 62
     7
 10
-398.883864076309
 20
58.6614599958239
 30
0.0
 11
-401.838287353516
 21
58.1405155658722
 31
0.0
  0
LINE
  5
   239
  8
0
  6
CONTINUOUS
 62
     7
 10
-401.838287353516
 20
58.1405155658722
 30
0.0
 11
-398.883864076309
 21
57.6195711359205
 31
0.0
  0
LINE
  5
   23A
  8
0
  6
CONTINUOUS
 62
     7
 10
-381.292710630723
 20
57.6195711359205
 30
0.0
 11
-378.338287353516
 21
58.1405155658722
 31
0.0
  0
LINE
  5
   23B
  8
0
  6
CONTINUOUS
 62
     7
 10
-378.338287353516
 20
58.1405155658722
 30
0.0
 11
-381.292710630723
 21
58.6614599958239
 31
0.0
  0
ENDBLK
  5
   23C
  8
0
  6
CONTINUOUS
 62
     7
  0
BLOCK
  5
   23D
  8
0
  6
CONTINUOUS
 62
     7
  2
*UDIM383
 70
    65
 10
0.0
 20
0.0
 30
0.0
  3
*UDIM383
  0
TEXT
  5
   23E
  8
0
  6
CONTINUOUS
 62
     7
 10
-401.388287432095
 20
23.5337524519982
 30
0.0
 40
3.00000002980232
  1
125
 50
359.999999844103
 41
0.933333333333333
 72
     1
 11
-397.488287389278
 21
25.0337524563074
 31
0.0
 73
     2
  0
LINE
  5
   23F
  8
0
  6
CONTINUOUS
 62
     7
 10
-412.838287353516
 20
34.2169342041016
 30
0.0
 11
-412.838287353516
 21
20.5337524414063
 31
0.0
  0
LINE
  5
   240
  8
0
  6
CONTINUOUS
 62
     7
 10
-381.588287353516
 20
34.2169342041016
 30
0.0
 11
-381.588287353516
 21
20.5337524414063
 31
0.0
  0
LINE
  5
   241
  8
0
  6
CONTINUOUS
 62
     7
 10
-412.838287353516
 20
22.5337524414063
 30
0.0
 11
-381.588287353516
 21
22.5337524414063
 31
0.0
  0
LINE
  5
   242
  8
0
  6
CONTINUOUS
 62
     7
 10
-409.883864076309
 20
23.0546968713579
 30
0.0
 11
-412.838287353516
 21
22.5337524414063
 31
0.0
  0
LINE
  5
   243
  8
0
  6
CONTINUOUS
 62
     7
 10
-412.838287353516
 20
22.5337524414063
 30
0.0
 11
-409.883864076309
 21
22.0128080114546
 31
0.0
  0
LINE
  5
   244
  8
0
  6
CONTINUOUS
 62
     7
 10
-384.542710630723
 20
22.0128080114546
 30
0.0
 11
-381.588287353516
 21
22.5337524414063
 31
0.0
  0
LINE
  5
   245
  8
0
  6
CONTINUOUS
 62
     7
 10
-381.588287353516
 20
22.5337524414063
 30
0.0
 11
-384.542710630723
 21
23.0546968713579
 31
0.0
  0
ENDBLK
  5
   246
  8
0
  6
CONTINUOUS
 62
     7
  0
BLOCK
  5
   247
  8
0
  6
CONTINUOUS
 62
     7
  2
*UDIM384
 70
    65
 10
0.0
 20
0.0
 30
0.0
  3
*UDIM384
  0
TEXT
  5
   248
  8
0
  6
CONTINUOUS
 62
     7
 10
-394.488287388385
 20
30.6370067664333
 30
0.0
 40
3.00000002980232
  1
81
 50
359.999999844103
 41
0.933333333333333
 72
     1
 11
-391.988287359476
 21
32.1370067745447
 31
0.0
 73
     2
  0
LINE
  5
   249
  8
0
  6
CONTINUOUS
 62
     7
 10
-401.838287353516
 20
30.4467528865501
 30
0.0
 11
-401.838287353516
 21
27.6370067596436
 31
0.0
  0
LINE
  5
   24A
  8
0
  6
CONTINUOUS
 62
     7
 10
-381.588287353516
 20
34.2169342041016
 30
0.0
 11
-381.588287353516
 21
27.6370067596436
 31
0.0
  0
LINE
  5
   24B
  8
0
  6
CONTINUOUS
 62
     7
 10
-401.838287353516
 20
29.6370067596436
 30
0.0
 11
-381.588287353516
 21
29.6370067596436
 31
0.0
  0
LINE
  5
   24C
  8
0
  6
CONTINUOUS
 62
     7
 10
-398.883864076309
 20
30.1579511895952
 30
0.0
 11
-401.838287353516
 21
29.6370067596436
 31
0.0
  0
LINE
  5
   24D
  8
0
  6
CONTINUOUS
 62
     7
 10
-401.838287353516
 20
29.6370067596436
 30
0.0
 11
-398.883864076309
 21
29.1160623296919
 31
0.0
  0
LINE
  5
   24E
  8
0
  6
CONTINUOUS
 62
     7
 10
-384.542710630723
 20
29.1160623296919
 30
0.0
 11
-381.588287353516
 21
29.6370067596436
 31
0.0
  0
LINE
  5
   24F
  8
0
  6
CONTINUOUS
 62
     7
 10
-381.588287353516
 20
29.6370067596436
 30
0.0
 11
-384.542710630723
 21
30.1579511895952
 31
0.0
  0
ENDBLK
  5
   250
  8
0
  6
CONTINUOUS
 62
     7
  0
BLOCK
  5
   251
  8
0
  6
CONTINUOUS
 62
     7
  2
*UDIM385
 70
    65
 10
0.0
 20
0.0
 30
0.0
  3
*UDIM385
  0
TEXT
  5
   252
  8
0
  6
CONTINUOUS
 62
     7
 10
-407.138287402293
 20
99.1251983748498
 30
0.0
 40
3.00000002980232
  1
135
 50
359.999999844103
 41
0.933333333333333
 72
     1
 11
-403.238287359476
 21
100.625198379159
 31
0.0
 73
     2
  0
LINE
  5
   253
  8
0
  6
CONTINUOUS
 62
     7
 10
-419.838287353516
 20
71.3419342041016
 30
0.0
 11
-419.838287353516
 21
100.125198364258
 31
0.0
  0
LINE
  5
   254
  8
0
  6
CONTINUOUS
 62
     7
 10
-386.088287353516
 20
71.3419342041016
 30
0.0
 11
-386.088287353516
 21
100.125198364258
 31
0.0
  0
LINE
  5
   255
  8
0
  6
CONTINUOUS
 62
     7
 10
-419.838287353516
 20
98.1251983642578
 30
0.0
 11
-386.088287353516
 21
98.1251983642578
 31
0.0
  0
LINE
  5
   256
  8
0
  6
CONTINUOUS
 62
     7
 10
-416.883864076309
 20
98.6461427942095
 30
0.0
 11
-419.838287353516
 21
98.1251983642578
 31
0.0
  0
LINE
  5
   257
  8
0
  6
CONTINUOUS
 62
     7
 10
-419.838287353516
 20
98.1251983642578
 30
0.0
 11
-416.883864076309
 21
97.6042539343062
 31
0.0
  0
LINE
  5
   258
  8
0
  6
CONTINUOUS
 62
     7
 10
-389.042710630723
 20
97.6042539343062
 30
0.0
 11
-386.088287353516
 21
98.1251983642578
 31
0.0
  0
LINE
  5
   259
  8
0
  6
CONTINUOUS
 62
     7
 10
-386.088287353516
 20
98.1251983642578
 30
0.0
 11
-389.042710630723
 21
98.6461427942095
 31
0.0
  0
ENDBLK
  5
   25A
  8
0
  6
CONTINUOUS
 62
     7
  0
BLOCK
  5
   25B
  8
0
  6
CONTINUOUS
 62
     7
  2
*UDIM386
 70
    65
 10
0.0
 20
0.0
 30
0.0
  3
*UDIM386
  0
TEXT
  5
   25C
  8
0
  6
CONTINUOUS
 62
     7
 10
-396.738287865222
 20
90.8880996771999
 30
0.0
 40
3.00000002980232
  1
63
 50
359.999999844103
 41
0.933333333333333
 72
     1
 11
-394.238287836313
 21
92.3880996853113
 31
0.0
 73
     2
  0
LINE
  5
   25D
  8
0
  6
CONTINUOUS
 62
     7
 10
-401.838287353516
 20
81.2194253649567
 30
0.0
 11
-401.838287353516
 21
91.8880996704102
 31
0.0
  0
LINE
  5
   25E
  8
0
  6
CONTINUOUS
 62
     7
 10
-386.088287353516
 20
71.3419342041016
 30
0.0
 11
-386.088287353516
 21
91.8880996704102
 31
0.0
  0
LINE
  5
   25F
  8
0
  6
CONTINUOUS
 62
     7
 10
-401.838287353516
 20
89.8880996704102
 30
0.0
 11
-386.088287353516
 21
89.8880996704102
 31
0.0
  0
LINE
  5
   260
  8
0
  6
CONTINUOUS
 62
     7
 10
-398.883864076309
 20
90.4090441003618
 30
0.0
 11
-401.838287353516
 21
89.8880996704102
 31
0.0
  0
LINE
  5
   261
  8
0
  6
CONTINUOUS
 62
     7
 10
-401.838287353516
 20
89.8880996704102
 30
0.0
 11
-398.883864076309
 21
89.3671552404585
 31
0.0
  0
LINE
  5
   262
  8
0
  6
CONTINUOUS
 62
     7
 10
-389.042710630723
 20
89.3671552404585
 30
0.0
 11
-386.088287353516
 21
89.8880996704102
 31
0.0
  0
LINE
  5
   263
  8
0
  6
CONTINUOUS
 62
     7
 10
-386.088287353516
 20
89.8880996704102
 30
0.0
 11
-389.042710630723
 21
90.4090441003618
 31
0.0
  0
ENDBLK
  5
   264
  8
0
  6
CONTINUOUS
 62
     7
  0
BLOCK
  5
   265
  8
0
  6
CONTINUOUS
 62
     7
  2
*HATCH82
 70
    65
 10
0.0
 20
0.0
 30
0.0
  3
*HATCH82
  0
LINE
  5
   266
  8
0
  6
CONTINUOUS
 62
    52
 10
-11.7279224395752
 20
1.0
 30
0.0
 11
-11.9763488769531
 21
0.75157368183136
 31
0.0
  0
LINE
  5
   267
  8
0
  6
CONTINUOUS
 62
    52
 10
-9.60660171508789
 20
1.0
 30
0.0
 11
-11.6066026687622
 21
-1.0
 31
0.0
  0
LINE
  5
   268
  8
0
  6
CONTINUOUS
 62
    52
 10
-7.48528146743774
 20
1.0
 30
0.0
 11
-9.48528289794922
 21
-1.0
 31
0.0
  0
LINE
  5
   269
  8
0
  6
CONTINUOUS
 62
    52
 10
-5.3639612197876
 20
1.0
 30
0.0
 11
-7.36396265029907
 21
-1.0
 31
0.0
  0
LINE
  5
   26A
  8
0
  6
CONTINUOUS
 62
    52
 10
-3.47947335243225
 20
0.763167560100555
 30
0.0
 11
-5.24264097213745
 21
-1.0
 31
0.0
  0
LINE
  5
   26B
  8
0
  6
CONTINUOUS
 62
    52
 10
-2.51160907745361
 20
-0.390288293361664
 30
0.0
 11
-3.1213207244873
 21
-1.0
 31
0.0
  0
ENDBLK
  5
   26C
  8
0
  6
CONTINUOUS
 62
     7
  0
BLOCK
  5
   26D
  8
0
  6
CONTINUOUS
 62
     7
  2
*HATCH83
 70
    65
 10
0.0
 20
0.0
 30
0.0
  3
*HATCH83
  0
LINE
  5
   26E
  8
0
  6
CONTINUOUS
 62
    52
 10
5.24264097213745
 20
1.0
 30
0.0
 11
3.24264073371887
 21
-1.0
 31
0.0
  0
LINE
  5
   26F
  8
0
  6
CONTINUOUS
 62
    52
 10
7.3639612197876
 20
1.0
 30
0.0
 11
5.3639612197876
 21
-1.0
 31
0.0
  0
LINE
  5
   270
  8
0
  6
CONTINUOUS
 62
    52
 10
9.48528099060059
 20
1.0
 30
0.0
 11
7.4852819442749
 21
-1.0
 31
0.0
  0
ENDBLK
  5
   271
  8
0
  6
CONTINUOUS
 62
     7
  0
BLOCK
  5
   272
  8
0
  6
CONTINUOUS
 62
     7
  2
*UDIM387
 70
    65
 10
0.0
 20
0.0
 30
0.0
  3
*UDIM387
  0
TEXT
  5
   273
  8
0
  6
CONTINUOUS
 62
     7
 10
-579.363725896909
 20
-111.343166424106
 30
0.0
 40
3.00000002980232
  1
80
 50
449.241125536518
 41
0.933333333333333
 72
     1
 11
-580.830483166843
 21
-108.823518972582
 31
0.0
 73
     2
  0
TEXT
  5
   274
  8
0
  6
CONTINUOUS
 62
     7
 10
-579.89745093117
 20
-106.33565825266
 30
0.0
 40
3.00000002980232
  1
°
 50
449.241125536518
 41
0.933333333333334
 72
     1
 11
-581.382750460332
 21
-105.215888018453
 31
0.0
 73
     2
  0
LINE
  5
   275
  8
0
  6
CONTINUOUS
 62
     7
 10
-596.426155263912
 20
-111.769625788057
 30
0.0
 11
-582.224188097682
 21
-123.686491199233
 31
0.0
  0
LINE
  5
   276
  8
0
  6
CONTINUOUS
 62
     7
 10
-596.426155263912
 20
-103.127652043975
 30
0.0
 11
-582.224188097682
 21
-91.2107866327987
 31
0.0
  0
ARC
  5
   277
  8
0
  6
CONTINUOUS
 62
     7
 10
-601.57570689222
 20
-107.448638916016
 30
0.0
 40
23.2616136940404
 50
319.999999815233
 51
399.999999769042
  0
LINE
  5
   278
  8
0
  6
CONTINUOUS
 62
     7
 10
-582.2562768933
 20
-119.802839820826
 30
0.0
 11
-583.75627698392
 21
-122.40091597986
 31
0.0
  0
LINE
  5
   279
  8
0
  6
CONTINUOUS
 62
     7
 10
-583.75627698392
 20
-122.40091597986
 30
0.0
 11
-581.458143721823
 21
-120.472553070642
 31
0.0
  0
LINE
  5
   27A
  8
0
  6
CONTINUOUS
 62
     7
 10
-581.458143721823
 20
-94.4247247613894
 30
0.0
 11
-583.75627698392
 21
-92.4963618521718
 31
0.0
  0
LINE
  5
   27B
  8
0
  6
CONTINUOUS
 62
     7
 10
-583.75627698392
 20
-92.4963618521718
 30
0.0
 11
-582.2562768933
 21
-95.0944380112057
 31
0.0
  0
ENDBLK
  5
   27C
  8
0
  6
CONTINUOUS
 62
     7
  0
BLOCK
  5
   27D
  8
0
  6
CONTINUOUS
 62
     7
  2
*UDIM388
 70
    65
 10
0.0
 20
0.0
 30
0.0
  3
*UDIM388
  0
TEXT
  5
   27E
  8
0
  6
CONTINUOUS
 62
     7
 10
-619.637866980664
 20
-101.563571958839
 30
0.0
 40
3.00000002980232
  1
Ø4
 50
449.999999844103
 41
0.933333333333333
 72
     1
 11
-621.137866988778
 21
-99.0635719299316
 31
0.0
 73
     2
  0
LINE
  5
   27F
  8
0
  6
CONTINUOUS
 62
     7
 10
-600.192199707031
 20
-105.448638916016
 30
0.0
 11
-620.637866973877
 21
-105.448638916016
 31
0.0
  0
LINE
  5
   280
  8
0
  6
CONTINUOUS
 62
     7
 10
-600.192199707031
 20
-109.448638916016
 30
0.0
 11
-620.637866973877
 21
-109.448638916016
 31
0.0
  0
LINE
  5
   281
  8
0
  6
CONTINUOUS
 62
     7
 10
-618.637866973877
 20
-96.5635719050964
 30
0.0
 11
-618.637866973877
 21
-109.448638916016
 31
0.0
  0
LINE
  5
   282
  8
0
  6
CONTINUOUS
 62
     7
 10
-619.158811403829
 20
-102.494215638809
 30
0.0
 11
-618.637866973877
 21
-105.448638916016
 31
0.0
  0
LINE
  5
   283
  8
0
  6
CONTINUOUS
 62
     7
 10
-618.637866973877
 20
-105.448638916016
 30
0.0
 11
-618.116922543925
 21
-102.494215638809
 31
0.0
  0
LINE
  5
   284
  8
0
  6
CONTINUOUS
 62
     7
 10
-618.116922543925
 20
-112.403062193223
 30
0.0
 11
-618.637866973877
 21
-109.448638916016
 31
0.0
  0
LINE
  5
   285
  8
0
  6
CONTINUOUS
 62
     7
 10
-618.637866973877
 20
-109.448638916016
 30
0.0
 11
-619.158811403829
 21
-112.403062193223
 31
0.0
  0
ENDBLK
  5
   286
  8
0
  6
CONTINUOUS
 62
     7
  0
ENDSEC
  0
SECTION
  2
ENTITIES
  0
LINE
  5
   287
  8
0
  6
CONTINUOUS
 62
     7
 10
-526.338154021378
 20
52.9163150787353
 30
0.0
 11
-526.338154021378
 21
53.9163150787353
 31
0.0
  0
LINE
  5
   288
  8
0
  6
CONTINUOUS
 62
     7
 10
-526.338154021378
 20
67.9131870269816
 30
0.0
 11
-526.338154021378
 21
78.0413150787353
 31
0.0
  0
LINE
  5
   289
  8
0
  6
CONTINUOUS
 62
     7
 10
-473.838184538956
 20
67.9131870269816
 30
0.0
 11
-473.838184538956
 21
78.0413150787353
 31
0.0
  0
LINE
  5
   28A
  8
0
  6
CONTINUOUS
 62
     7
 10
-474.088154021378
 20
53.9163303375244
 30
0.0
 11
-526.088154021364
 21
53.9163303375244
 31
0.0
  0
LINE
  5
   28B
  8
0
  6
CONTINUOUS
 62
     7
 10
-494.713154021378
 20
12.5413227081299
 30
0.0
 11
-494.713154021378
 21
32.5413150787354
 31
0.0
  0
LINE
  5
   28C
  8
0
  6
CONTINUOUS
 62
     7
 10
-505.463154021378
 20
12.5413227081299
 30
0.0
 11
-505.463154021378
 21
32.5413150787354
 31
0.0
  0
LINE
  5
   28D
  8
0
  6
CONTINUOUS
 62
     7
 10
-473.838154021378
 20
52.9163150787353
 30
0.0
 11
-526.338154021378
 21
52.9163150787353
 31
0.0
  0
LINE
  5
   28E
  8
0
  6
CONTINUOUS
 62
     7
 10
-494.713154021378
 20
32.4090824127197
 30
0.0
 11
-505.463154021378
 21
32.4090824127197
 31
0.0
  0
LINE
  5
   28F
  8
0
  6
CONTINUOUS
 62
     7
 10
-494.713154021378
 20
32.5413150787353
 30
0.0
 11
-505.463154021378
 21
32.5413150787353
 31
0.0
  0
LINE
  5
   290
  8
0
  6
CONTINUOUS
 62
     7
 10
-494.713154021378
 20
12.5413227081299
 30
0.0
 11
-505.463154021378
 21
12.5413227081299
 31
0.0
  0
LINE
  5
   291
  8
0
  6
CONTINUOUS
 62
     7
 10
-494.713154021378
 20
12.6735706329346
 30
0.0
 11
-505.463154021378
 21
12.6735706329346
 31
0.0
  0
ARC
  5
   292
  8
0
  6
CONTINUOUS
 62
     7
 10
-474.088154021378
 20
53.6663303375244
 30
0.0
 40
0.25
 50
359.999999948034
 51
449.999999948034
  0
ARC
  5
   293
  8
0
  6
CONTINUOUS
 62
     7
 10
-526.088154021364
 20
53.6663303375244
 30
0.0
 40
0.25
 50
449.999999948034
 51
539.999999948034
  0
LINE
  5
   294
  8
0
  6
CONTINUOUS
 62
     7
 10
-494.713154021378
 20
17.1309658858503
 30
0.0
 11
-505.463154021378
 21
17.1309658858503
 31
0.0
  0
LINE
  5
   295
  8
0
  6
CONTINUOUS
 62
     7
 10
-494.713154021378
 20
13.1704897088023
 30
0.0
 11
-505.463154021378
 21
13.1704897088023
 31
0.0
  0
LINE
  5
   296
  8
0
  6
CONTINUOUS
 62
     7
 10
-494.713154021378
 20
17.1309655351232
 30
0.0
 11
-505.463154021378
 21
17.1309655351232
 31
0.0
  0
LINE
  5
   297
  8
0
  6
CONTINUOUS
 62
     7
 10
-494.713154021378
 20
19.604026123095
 30
0.0
 11
-505.463154021378
 21
19.604026123095
 31
0.0
  0
LINE
  5
   298
  8
0
  6
CONTINUOUS
 62
     7
 10
-525.588182575338
 20
67.9131870269816
 30
0.0
 11
-525.588184605502
 21
75.5413150787353
 31
0.0
  0
LINE
  5
   299
  8
0
  6
CONTINUOUS
 62
     7
 10
-474.588182575336
 20
67.9131870269816
 30
0.0
 11
-474.588184605501
 21
75.5413150787353
 31
0.0
  0
LINE
  5
   29A
  8
0
  6
DASHDOT
 62
     7
 10
-517.588200855525
 20
-47.5086734946702
 30
0.0
 11
-517.588200855525
 21
-41.4086952207897
 31
0.0
  0
LINE
  5
   29B
  8
0
  6
DASHDOT
 62
     7
 10
-500.088207596279
 20
-47.5087105530531
 30
0.0
 11
-500.088207596279
 21
95.5095975425664
 31
0.0
  0
LINE
  5
   29C
  8
0
  6
DASHDOT
 62
     7
 10
-482.588206523456
 20
-47.5087244484888
 30
0.0
 11
-482.588206523456
 21
-41.4086740480776
 31
0.0
  0
LINE
  5
   29D
  8
0
  6
CONTINUOUS
 62
     7
 10
-474.588184605501
 20
75.5413150787353
 30
0.0
 11
-525.588184605502
 21
75.5413150787353
 31
0.0
  0
LINE
  5
   29E
  8
0
  6
CONTINUOUS
 62
     7
 10
-526.338202234832
 20
-23.9587056638997
 30
0.0
 11
-526.338170441846
 21
-12.583662033077
 31
0.0
  0
LINE
  5
   29F
  8
0
  6
CONTINUOUS
 62
     7
 10
-473.838207123255
 20
-23.9586772918699
 30
0.0
 11
-473.838192230697
 21
-12.583662033077
 31
0.0
  0
LINE
  5
   2A0
  8
0
  6
CONTINUOUS
 62
     7
 10
-474.338207123255
 20
77.0412789059793
 30
0.0
 11
-525.838199493861
 21
77.0412789059793
 31
0.0
  0
LINE
  5
   2A1
  8
0
  6
CONTINUOUS
 62
     3
 10
-474.463207123255
 20
91.5412693023679
 30
0.0
 11
-525.713199493861
 21
91.5412693023679
 31
0.0
  0
LINE
  5
   2A2
  8
0
  6
CONTINUOUS
 62
     3
 10
-473.838207123256
 20
77.5412769317625
 30
0.0
 11
-473.838207123256
 21
90.9162644303107
 31
0.0
  0
LINE
  5
   2A3
  8
0
  6
CONTINUOUS
 62
     3
 10
-526.338202347862
 20
77.5412802696233
 30
0.0
 11
-526.338202347862
 21
90.9162800674381
 31
0.0
  0
LINE
  5
   2A4
  8
0
  6
CONTINUOUS
 62
     3
 10
-524.513201591945
 20
77.5412807464598
 30
0.0
 11
-524.513201591945
 21
91.5412693023679
 31
0.0
  0
LINE
  5
   2A5
  8
0
  6
CONTINUOUS
 62
     3
 10
-522.71320140121
 20
77.5412802696226
 30
0.0
 11
-522.71320140121
 21
91.5412693023679
 31
0.0
  0
LINE
  5
   2A6
  8
0
  6
CONTINUOUS
 62
     3
 10
-520.913201687312
 20
77.5412802696226
 30
0.0
 11
-520.913201687312
 21
91.5412693023679
 31
0.0
  0
LINE
  5
   2A7
  8
0
  6
CONTINUOUS
 62
     3
 10
-519.113201496577
 20
77.5412802696226
 30
0.0
 11
-519.113201496577
 21
91.5412693023679
 31
0.0
  0
LINE
  5
   2A8
  8
0
  6
CONTINUOUS
 62
     3
 10
-517.313205597377
 20
77.5412797927855
 30
0.0
 11
-517.313205597377
 21
91.5412693023679
 31
0.0
  0
LINE
  5
   2A9
  8
0
  6
CONTINUOUS
 62
     3
 10
-515.513202545619
 20
77.5412797927855
 30
0.0
 11
-515.513202545619
 21
91.5412693023679
 31
0.0
  0
LINE
  5
   2AA
  8
0
  6
CONTINUOUS
 62
     3
 10
-513.713207123256
 20
77.5412797927855
 30
0.0
 11
-513.713207123256
 21
91.5412693023679
 31
0.0
  0
LINE
  5
   2AB
  8
0
  6
CONTINUOUS
 62
     3
 10
-511.913204071498
 20
77.5412797927855
 30
0.0
 11
-511.913204071498
 21
91.5412693023679
 31
0.0
  0
LINE
  5
   2AC
  8
0
  6
CONTINUOUS
 62
     3
 10
-510.113208649134
 20
77.5412793159483
 30
0.0
 11
-510.113208649134
 21
91.5412693023679
 31
0.0
  0
LINE
  5
   2AD
  8
0
  6
CONTINUOUS
 62
     3
 10
-508.313205597377
 20
77.5412793159483
 30
0.0
 11
-508.313205597377
 21
91.5412693023679
 31
0.0
  0
LINE
  5
   2AE
  8
0
  6
CONTINUOUS
 62
     3
 10
-506.513202545619
 20
77.5412793159483
 30
0.0
 11
-506.513202545619
 21
91.5412693023679
 31
0.0
  0
LINE
  5
   2AF
  8
0
  6
CONTINUOUS
 62
     3
 10
-504.713207123256
 20
77.5412788391111
 30
0.0
 11
-504.713207123256
 21
91.5412693023679
 31
0.0
  0
LINE
  5
   2B0
  8
0
  6
CONTINUOUS
 62
     3
 10
-502.913204071498
 20
77.5412788391111
 30
0.0
 11
-502.913204071498
 21
91.5412693023679
 31
0.0
  0
LINE
  5
   2B1
  8
0
  6
CONTINUOUS
 62
     3
 10
-501.113208649134
 20
77.5412788391111
 30
0.0
 11
-501.113208649134
 21
91.5412693023679
 31
0.0
  0
LINE
  5
   2B2
  8
0
  6
CONTINUOUS
 62
     3
 10
-499.313205597377
 20
77.5412788391111
 30
0.0
 11
-499.313205597377
 21
91.5412693023679
 31
0.0
  0
LINE
  5
   2B3
  8
0
  6
CONTINUOUS
 62
     3
 10
-497.513202545619
 20
77.541278362274
 30
0.0
 11
-497.513202545619
 21
91.5412693023679
 31
0.0
  0
LINE
  5
   2B4
  8
0
  6
CONTINUOUS
 62
     3
 10
-495.713207123256
 20
77.541278362274
 30
0.0
 11
-495.713207123256
 21
91.5412693023679
 31
0.0
  0
LINE
  5
   2B5
  8
0
  6
CONTINUOUS
 62
     3
 10
-493.913204071498
 20
77.541278362274
 30
0.0
 11
-493.913204071498
 21
91.5412693023679
 31
0.0
  0
LINE
  5
   2B6
  8
0
  6
CONTINUOUS
 62
     3
 10
-492.113208649134
 20
77.5412778854368
 30
0.0
 11
-492.113208649134
 21
91.5412693023679
 31
0.0
  0
LINE
  5
   2B7
  8
0
  6
CONTINUOUS
 62
     3
 10
-490.313205597377
 20
77.5412778854368
 30
0.0
 11
-490.313205597377
 21
91.5412693023679
 31
0.0
  0
LINE
  5
   2B8
  8
0
  6
CONTINUOUS
 62
     3
 10
-488.513202545619
 20
77.5412778854368
 30
0.0
 11
-488.513202545619
 21
91.5412693023679
 31
0.0
  0
LINE
  5
   2B9
  8
0
  6
CONTINUOUS
 62
     3
 10
-486.713207123256
 20
77.5412778854368
 30
0.0
 11
-486.713207123256
 21
91.5412693023679
 31
0.0
  0
LINE
  5
   2BA
  8
0
  6
CONTINUOUS
 62
     3
 10
-484.913204071498
 20
77.5412774085997
 30
0.0
 11
-484.913204071498
 21
91.5412693023679
 31
0.0
  0
LINE
  5
   2BB
  8
0
  6
CONTINUOUS
 62
     3
 10
-483.113208649134
 20
77.5412774085997
 30
0.0
 11
-483.113208649134
 21
91.5412693023679
 31
0.0
  0
LINE
  5
   2BC
  8
0
  6
CONTINUOUS
 62
     3
 10
-481.313205597377
 20
77.5412774085997
 30
0.0
 11
-481.313205597377
 21
91.5412693023679
 31
0.0
  0
LINE
  5
   2BD
  8
0
  6
CONTINUOUS
 62
     3
 10
-479.513202545619
 20
77.5412769317625
 30
0.0
 11
-479.513202545619
 21
91.5412693023679
 31
0.0
  0
LINE
  5
   2BE
  8
0
  6
CONTINUOUS
 62
     3
 10
-477.713207123256
 20
77.5412769317625
 30
0.0
 11
-477.713207123256
 21
91.5412693023679
 31
0.0
  0
LINE
  5
   2BF
  8
0
  6
CONTINUOUS
 62
     3
 10
-475.913204071498
 20
77.5412769317625
 30
0.0
 11
-475.913204071498
 21
91.5412693023679
 31
0.0
  0
LINE
  5
   2C0
  8
0
  6
CONTINUOUS
 62
     7
 10
-525.838206646418
 20
77.0412808605395
 30
0.0
 11
-525.838206646418
 21
77.5412807711326
 31
0.0
  0
LINE
  5
   2C1
  8
0
  6
CONTINUOUS
 62
     3
 10
-525.838206675378
 20
77.5413053037923
 30
0.0
 11
-526.338202234832
 21
77.5413053037923
 31
0.0
  0
LINE
  5
   2C2
  8
0
  6
CONTINUOUS
 62
     3
 10
-473.88998736999
 20
77.5412788188531
 30
0.0
 11
-525.838206669306
 21
77.5412788188531
 31
0.0
  0
LINE
  5
   2C3
  8
0
  6
CONTINUOUS
 62
     7
 10
-474.338207123256
 20
77.0412769514213
 30
0.0
 11
-474.338207123256
 21
77.5412769514213
 31
0.0
  0
LINE
  5
   2C4
  8
0
  6
CONTINUOUS
 62
     3
 10
-473.838207123255
 20
77.5412769317625
 30
0.0
 11
-474.021266815638
 21
77.5412769317625
 31
0.0
  0
ARC
  5
   2C5
  8
0
  6
CONTINUOUS
 62
     3
 10
-474.463215420282
 20
90.9162644303107
 30
0.0
 40
0.624999378846369
 50
360.000027285161
 51
450.00046185832
  0
ARC
  5
   2C6
  8
0
  6
CONTINUOUS
 62
     3
 10
-525.713216334007
 20
90.9162800674381
 30
0.0
 40
0.624983634017216
 50
449.998225807986
 51
540.001187191324
  0
LINE
  5
   2C7
  8
0
  6
CONTINUOUS
 62
     7
 10
-474.338207123255
 20
-23.4586792660867
 30
0.0
 11
-525.838199493861
 21
-23.4586792660867
 31
0.0
  0
LINE
  5
   2C8
  8
0
  6
CONTINUOUS
 62
     3
 10
-474.463207123255
 20
-37.9586696624753
 30
0.0
 11
-525.713216334007
 21
-37.9586696624753
 31
0.0
  0
LINE
  5
   2C9
  8
0
  6
CONTINUOUS
 62
     3
 10
-473.838207123255
 20
-37.3336647904181
 30
0.0
 11
-473.838207123255
 21
-23.9586772918699
 31
0.0
  0
LINE
  5
   2CA
  8
0
  6
CONTINUOUS
 62
     3
 10
-526.338202347862
 20
-37.3336804275455
 30
0.0
 11
-526.338202347862
 21
-23.9586806297306
 31
0.0
  0
LINE
  5
   2CB
  8
0
  6
CONTINUOUS
 62
     3
 10
-524.513201591944
 20
-37.9586696624753
 30
0.0
 11
-524.513201591944
 21
-23.9586811065671
 31
0.0
  0
LINE
  5
   2CC
  8
0
  6
CONTINUOUS
 62
     3
 10
-522.71320140121
 20
-37.9586696624753
 30
0.0
 11
-522.71320140121
 21
-23.95868062973
 31
0.0
  0
LINE
  5
   2CD
  8
0
  6
CONTINUOUS
 62
     3
 10
-520.913201687312
 20
-37.9586696624753
 30
0.0
 11
-520.913201687312
 21
-23.95868062973
 31
0.0
  0
LINE
  5
   2CE
  8
0
  6
CONTINUOUS
 62
     3
 10
-519.113201496577
 20
-37.9586696624753
 30
0.0
 11
-519.113201496577
 21
-23.95868062973
 31
0.0
  0
LINE
  5
   2CF
  8
0
  6
CONTINUOUS
 62
     3
 10
-517.313205597377
 20
-37.9586696624753
 30
0.0
 11
-517.313205597377
 21
-23.9586801528928
 31
0.0
  0
LINE
  5
   2D0
  8
0
  6
CONTINUOUS
 62
     3
 10
-515.513202545619
 20
-37.9586696624753
 30
0.0
 11
-515.513202545619
 21
-23.9586801528928
 31
0.0
  0
LINE
  5
   2D1
  8
0
  6
CONTINUOUS
 62
     3
 10
-513.713207123255
 20
-37.9586696624753
 30
0.0
 11
-513.713207123255
 21
-23.9586801528928
 31
0.0
  0
LINE
  5
   2D2
  8
0
  6
CONTINUOUS
 62
     3
 10
-511.913204071498
 20
-37.9586696624753
 30
0.0
 11
-511.913204071498
 21
-23.9586801528928
 31
0.0
  0
LINE
  5
   2D3
  8
0
  6
CONTINUOUS
 62
     3
 10
-510.113208649134
 20
-37.9586696624753
 30
0.0
 11
-510.113208649134
 21
-23.9586796760557
 31
0.0
  0
LINE
  5
   2D4
  8
0
  6
CONTINUOUS
 62
     3
 10
-508.313205597377
 20
-37.9586696624753
 30
0.0
 11
-508.313205597377
 21
-23.9586796760557
 31
0.0
  0
LINE
  5
   2D5
  8
0
  6
CONTINUOUS
 62
     3
 10
-506.513202545619
 20
-37.9586696624753
 30
0.0
 11
-506.513202545619
 21
-23.9586796760557
 31
0.0
  0
LINE
  5
   2D6
  8
0
  6
CONTINUOUS
 62
     3
 10
-504.713207123255
 20
-37.9586696624753
 30
0.0
 11
-504.713207123255
 21
-23.9586791992185
 31
0.0
  0
LINE
  5
   2D7
  8
0
  6
CONTINUOUS
 62
     3
 10
-502.913204071498
 20
-37.9586696624753
 30
0.0
 11
-502.913204071498
 21
-23.9586791992185
 31
0.0
  0
LINE
  5
   2D8
  8
0
  6
CONTINUOUS
 62
     3
 10
-501.113208649134
 20
-37.9586696624753
 30
0.0
 11
-501.113208649134
 21
-23.9586791992185
 31
0.0
  0
LINE
  5
   2D9
  8
0
  6
CONTINUOUS
 62
     3
 10
-499.313205597377
 20
-37.9586696624753
 30
0.0
 11
-499.313205597377
 21
-23.9586791992185
 31
0.0
  0
LINE
  5
   2DA
  8
0
  6
CONTINUOUS
 62
     3
 10
-497.513202545619
 20
-37.9586696624753
 30
0.0
 11
-497.513202545619
 21
-23.9586787223814
 31
0.0
  0
LINE
  5
   2DB
  8
0
  6
CONTINUOUS
 62
     3
 10
-495.713207123255
 20
-37.9586696624753
 30
0.0
 11
-495.713207123255
 21
-23.9586787223814
 31
0.0
  0
LINE
  5
   2DC
  8
0
  6
CONTINUOUS
 62
     3
 10
-493.913204071498
 20
-37.9586696624753
 30
0.0
 11
-493.913204071498
 21
-23.9586787223814
 31
0.0
  0
LINE
  5
   2DD
  8
0
  6
CONTINUOUS
 62
     3
 10
-492.113208649134
 20
-37.9586696624753
 30
0.0
 11
-492.113208649134
 21
-23.9586782455442
 31
0.0
  0
LINE
  5
   2DE
  8
0
  6
CONTINUOUS
 62
     3
 10
-490.313205597377
 20
-37.9586696624753
 30
0.0
 11
-490.313205597377
 21
-23.9586782455442
 31
0.0
  0
LINE
  5
   2DF
  8
0
  6
CONTINUOUS
 62
     3
 10
-488.513202545619
 20
-37.9586696624753
 30
0.0
 11
-488.513202545619
 21
-23.9586782455442
 31
0.0
  0
LINE
  5
   2E0
  8
0
  6
CONTINUOUS
 62
     3
 10
-486.713207123255
 20
-37.9586696624753
 30
0.0
 11
-486.713207123255
 21
-23.9586782455442
 31
0.0
  0
LINE
  5
   2E1
  8
0
  6
CONTINUOUS
 62
     3
 10
-484.913204071498
 20
-37.9586696624753
 30
0.0
 11
-484.913204071498
 21
-23.958677768707
 31
0.0
  0
LINE
  5
   2E2
  8
0
  6
CONTINUOUS
 62
     3
 10
-483.113208649134
 20
-37.9586696624753
 30
0.0
 11
-483.113208649134
 21
-23.958677768707
 31
0.0
  0
LINE
  5
   2E3
  8
0
  6
CONTINUOUS
 62
     3
 10
-481.313205597377
 20
-37.9586696624753
 30
0.0
 11
-481.313205597377
 21
-23.958677768707
 31
0.0
  0
LINE
  5
   2E4
  8
0
  6
CONTINUOUS
 62
     3
 10
-479.513202545619
 20
-37.9586696624753
 30
0.0
 11
-479.513202545619
 21
-23.9586772918699
 31
0.0
  0
LINE
  5
   2E5
  8
0
  6
CONTINUOUS
 62
     3
 10
-477.713207123255
 20
-37.9586696624753
 30
0.0
 11
-477.713207123255
 21
-23.9586772918699
 31
0.0
  0
LINE
  5
   2E6
  8
0
  6
CONTINUOUS
 62
     3
 10
-475.913204071498
 20
-37.9586696624753
 30
0.0
 11
-475.913204071498
 21
-23.9586772918699
 31
0.0
  0
LINE
  5
   2E7
  8
0
  6
CONTINUOUS
 62
     7
 10
-525.838206646418
 20
-23.9586811312399
 30
0.0
 11
-525.838206646418
 21
-23.4586812206469
 31
0.0
  0
LINE
  5
   2E8
  8
0
  6
CONTINUOUS
 62
     3
 10
-525.838206675378
 20
-23.9587056638997
 30
0.0
 11
-526.338202234832
 21
-23.9587056638997
 31
0.0
  0
LINE
  5
   2E9
  8
0
  6
CONTINUOUS
 62
     3
 10
-473.88998736999
 20
-23.9586791789605
 30
0.0
 11
-525.838206669306
 21
-23.9586791789605
 31
0.0
  0
LINE
  5
   2EA
  8
0
  6
CONTINUOUS
 62
     7
 10
-474.338207123255
 20
-23.9586773115287
 30
0.0
 11
-474.338207123255
 21
-23.4586773115287
 31
0.0
  0
LINE
  5
   2EB
  8
0
  6
CONTINUOUS
 62
     3
 10
-473.838207123255
 20
-23.9586772918699
 30
0.0
 11
-474.021266815638
 21
-23.9586772918699
 31
0.0
  0
ARC
  5
   2EC
  8
0
  6
CONTINUOUS
 62
     3
 10
-474.463215420282
 20
-37.3336647904181
 30
0.0
 40
0.624999378846369
 50
269.999538037749
 51
359.999972610908
  0
ARC
  5
   2ED
  8
0
  6
CONTINUOUS
 62
     3
 10
-525.713216334007
 20
-37.3336804275455
 30
0.0
 40
0.624983634017216
 50
179.998812704745
 51
270.001774088083
  0
LINE
  5
   2EE
  8
0
  6
CONTINUOUS
 62
   150
 10
-526.264978818961
 20
53.8431250526835
 30
0.0
 11
-526.088198115121
 21
53.9163596119397
 31
0.0
  0
LINE
  5
   2EF
  8
0
  6
CONTINUOUS
 62
   150
 10
-526.338202562133
 20
53.6663496901172
 30
0.0
 11
-526.264979448021
 21
53.843130395373
 31
0.0
  0
LINE
  5
   2F0
  8
0
  6
CONTINUOUS
 62
   150
 10
-526.338214874268
 20
1.66631698608398
 30
0.0
 11
-526.338214874268
 21
1.91633224487305
 31
0.0
  0
LINE
  5
   2F1
  8
0
  6
CONTINUOUS
 62
   150
 10
-526.338207244873
 20
47.9162998199463
 30
0.0
 11
-526.338207244873
 21
53.6663379669189
 31
0.0
  0
LINE
  5
   2F2
  8
0
  6
CONTINUOUS
 62
   150
 10
-526.264984519013
 20
1.48953945847191
 30
0.0
 11
-526.338215263102
 21
1.66631633980543
 31
0.0
  0
LINE
  5
   2F3
  8
0
  6
CONTINUOUS
 62
   150
 10
-526.088214964287
 20
1.41634832935303
 30
0.0
 11
-526.264982317436
 21
1.48954092654355
 31
0.0
  0
LINE
  5
   2F4
  8
0
  6
CONTINUOUS
 62
   150
 10
-474.088180541945
 20
1.41631126404618
 30
0.0
 11
-489.338180541945
 21
1.4163227081382
 31
0.0
  0
LINE
  5
   2F5
  8
0
  6
CONTINUOUS
 62
   150
 10
-525.838207244873
 20
1.41634750366211
 30
0.0
 11
-526.088216781616
 21
1.41634750366211
 31
0.0
  0
LINE
  5
   2F6
  8
0
  6
CONTINUOUS
 62
   150
 10
-474.088177392294
 20
1.41631245852948
 30
0.0
 11
-473.911396696766
 21
1.48953747728309
 31
0.0
  0
LINE
  5
   2F7
  8
0
  6
CONTINUOUS
 62
   150
 10
-473.911397166076
 20
1.48953837884163
 30
0.0
 11
-473.838170236986
 21
1.66631526822983
 31
0.0
  0
LINE
  5
   2F8
  8
0
  6
CONTINUOUS
 62
   150
 10
-473.838172875917
 20
1.41631214757551
 30
0.0
 11
-473.838180541991
 21
53.6663379669207
 31
0.0
  0
LINE
  5
   2F9
  8
0
  6
CONTINUOUS
 62
   150
 10
-473.838178048203
 20
53.6663424341851
 30
0.0
 11
-473.911420237804
 21
53.843123133177
 31
0.0
  0
LINE
  5
   2FA
  8
0
  6
CONTINUOUS
 62
   150
 10
-473.911423682162
 20
53.8431181843398
 30
0.0
 11
-474.088204386409
 21
53.9163374835026
 31
0.0
  0
LINE
  5
   2FB
  8
0
  6
CONTINUOUS
 62
   150
 10
-474.088203430173
 20
53.9163379669219
 30
0.0
 11
-526.088203430173
 21
53.9163532257115
 31
0.0
  0
LINE
  5
   2FC
  8
0
  6
CONTINUOUS
 62
     3
 10
-487.488212585449
 20
6.6315860748291
 30
0.0
 11
-487.488212585449
 21
10.7009830474854
 31
0.0
  0
LINE
  5
   2FD
  8
0
  6
CONTINUOUS
 62
     3
 10
-486.78928188454
 20
5.8282173040745
 30
0.0
 11
-487.488218321401
 21
6.63158491264947
 31
0.0
  0
LINE
  5
   2FE
  8
0
  6
CONTINUOUS
 62
     3
 10
-485.892656418083
 20
5.25367214501208
 30
0.0
 11
-486.789270508969
 21
5.82821893996451
 31
0.0
  0
LINE
  5
   2FF
  8
0
  6
CONTINUOUS
 62
     3
 10
-484.870689374547
 20
4.95432472433329
 30
0.0
 11
-485.892662050975
 21
5.25367163532229
 31
0.0
  0
LINE
  5
   300
  8
0
  6
CONTINUOUS
 62
     3
 10
-483.805786132813
 20
4.95432472229004
 30
0.0
 11
-484.87068939209
 21
4.95432472229004
 31
0.0
  0
LINE
  5
   301
  8
0
  6
CONTINUOUS
 62
     3
 10
-483.805787076979
 20
4.95432437246083
 30
0.0
 11
-482.783814414596
 21
5.25366749081322
 31
0.0
  0
LINE
  5
   302
  8
0
  6
CONTINUOUS
 62
     3
 10
-482.783803077733
 20
5.25367338078431
 30
0.0
 11
-481.887181345275
 21
5.82822022127345
 31
0.0
  0
LINE
  5
   303
  8
0
  6
CONTINUOUS
 62
     3
 10
-481.887197268068
 20
5.8282106995709
 30
0.0
 11
-481.188237891952
 21
6.6316279088788
 31
0.0
  0
LINE
  5
   304
  8
0
  6
CONTINUOUS
 62
     3
 10
-481.188232420668
 20
6.63163185227059
 30
0.0
 11
-481.188209532485
 21
10.7010059367432
 31
0.0
  0
LINE
  5
   305
  8
0
  6
CONTINUOUS
 62
     3
 10
-481.188210962805
 20
10.7010055896375
 30
0.0
 11
-481.887170328792
 21
11.5044037285774
 31
0.0
  0
LINE
  5
   306
  8
0
  6
CONTINUOUS
 62
     3
 10
-481.88716082026
 20
11.5044052086013
 30
0.0
 11
-482.783782552718
 21
12.0789520490904
 31
0.0
  0
LINE
  5
   307
  8
0
  6
CONTINUOUS
 62
     3
 10
-482.783787457057
 20
12.0789514087946
 30
0.0
 11
-483.805752455214
 21
12.3782945124442
 31
0.0
  0
LINE
  5
   308
  8
0
  6
CONTINUOUS
 62
     3
 10
-483.805755615234
 20
12.3782939910889
 30
0.0
 11
-484.870666503906
 21
12.3782939910889
 31
0.0
  0
LINE
  5
   309
  8
0
  6
CONTINUOUS
 62
     3
 10
-485.892627962395
 20
12.0789523584287
 30
0.0
 11
-484.870662964238
 21
12.3782954620783
 31
0.0
  0
LINE
  5
   30A
  8
0
  6
CONTINUOUS
 62
     3
 10
-486.789243125491
 20
11.5044100690699
 30
0.0
 11
-485.892621393033
 21
12.078956909559
 31
0.0
  0
LINE
  5
   30B
  8
0
  6
CONTINUOUS
 62
     3
 10
-487.488218366184
 20
10.7009784649322
 30
0.0
 11
-486.789259016417
 21
11.5043994830475
 31
0.0
  0
LINE
  5
   30C
  8
0
  6
CONTINUOUS
 62
     3
 10
-489.338180541728
 20
47.9163074494867
 30
0.0
 11
-473.838180541728
 21
47.9163379670639
 31
0.0
  0
LINE
  5
   30D
  8
0
  6
CONTINUOUS
 62
     3
 10
-473.838180541992
 20
52.9163379669189
 30
0.0
 11
-526.33821105957
 21
52.9163379669189
 31
0.0
  0
LINE
  5
   30E
  8
0
  6
CONTINUOUS
 62
     3
 10
-479.585977630335
 20
44.2912732238026
 30
0.0
 11
-479.643068387455
 21
44.5782910437389
 31
0.0
  0
LINE
  5
   30F
  8
0
  6
CONTINUOUS
 62
     3
 10
-479.643065505896
 20
44.5782958768218
 30
0.0
 11
-479.805640282121
 21
44.8216125266158
 31
0.0
  0
LINE
  5
   310
  8
0
  6
CONTINUOUS
 62
     3
 10
-479.805642973608
 20
44.8216103309505
 30
0.0
 11
-480.048967256278
 21
44.984185092964
 31
0.0
  0
LINE
  5
   311
  8
0
  6
CONTINUOUS
 62
     3
 10
-480.048972286024
 20
44.9841831929352
 30
0.0
 11
-480.335982472789
 21
45.041273951513
 31
0.0
  0
LINE
  5
   312
  8
0
  6
CONTINUOUS
 62
     3
 10
-480.622994007026
 20
44.9841817273243
 30
0.0
 11
-480.335983820261
 21
45.0412724859022
 31
0.0
  0
LINE
  5
   313
  8
0
  6
CONTINUOUS
 62
     3
 10
-480.866300347049
 20
44.8216131023647
 30
0.0
 11
-480.622983697255
 21
44.98418787859
 31
0.0
  0
LINE
  5
   314
  8
0
  6
CONTINUOUS
 62
     3
 10
-481.02888453118
 20
44.5782951737797
 30
0.0
 11
-480.866302136232
 21
44.8216118189409
 31
0.0
  0
LINE
  5
   315
  8
0
  6
CONTINUOUS
 62
     3
 10
-481.085978393463
 20
44.2912723519752
 30
0.0
 11
-481.028887636343
 21
44.5782901719115
 31
0.0
  0
LINE
  5
   316
  8
0
  6
CONTINUOUS
 62
     3
 10
-481.085975646973
 20
42.7912769317627
 30
0.0
 11
-481.085975646973
 21
44.2912769317627
 31
0.0
  0
LINE
  5
   317
  8
0
  6
CONTINUOUS
 62
     3
 10
-481.028888153368
 20
42.5042606864881
 30
0.0
 11
-481.085978911946
 21
42.7912708732529
 31
0.0
  0
LINE
  5
   318
  8
0
  6
CONTINUOUS
 62
     3
 10
-480.866302307961
 20
42.2609503085946
 30
0.0
 11
-481.028884702909
 21
42.5042669537558
 31
0.0
  0
LINE
  5
   319
  8
0
  6
CONTINUOUS
 62
     3
 10
-480.622985577831
 20
42.0983678390444
 30
0.0
 11
-480.866302222993
 21
42.2609502339923
 31
0.0
  0
LINE
  5
   31A
  8
0
  6
CONTINUOUS
 62
     3
 10
-480.335982478895
 20
42.0412741005906
 30
0.0
 11
-480.62299266566
 21
42.0983648591685
 31
0.0
  0
LINE
  5
   31B
  8
0
  6
CONTINUOUS
 62
     3
 10
-480.335983814154
 20
42.0412726349798
 30
0.0
 11
-480.048973627389
 21
42.0983633935576
 31
0.0
  0
LINE
  5
   31C
  8
0
  6
CONTINUOUS
 62
     3
 10
-480.048964794367
 20
42.0983682009569
 30
0.0
 11
-479.805640516372
 21
42.2609505991989
 31
0.0
  0
LINE
  5
   31D
  8
0
  6
CONTINUOUS
 62
     3
 10
-479.805639419923
 20
42.2609521019583
 30
0.0
 11
-479.643064643697
 21
42.5042687517522
 31
0.0
  0
LINE
  5
   31E
  8
0
  6
CONTINUOUS
 62
     3
 10
-479.64307106481
 20
42.5042592258251
 30
0.0
 11
-479.585980306233
 21
42.7912694125899
 31
0.0
  0
LINE
  5
   31F
  8
0
  6
CONTINUOUS
 62
     3
 10
-479.585975646973
 20
42.7912769317627
 30
0.0
 11
-479.585975646973
 21
44.2912769317627
 31
0.0
  0
LINE
  5
   320
  8
0
  6
CONTINUOUS
 62
     3
 10
-479.588180541992
 20
32.0412883758545
 30
0.0
 11
-481.088180541992
 21
32.0412883758545
 31
0.0
  0
LINE
  5
   321
  8
0
  6
CONTINUOUS
 62
     3
 10
-481.088180541992
 20
18.5412883758545
 30
0.0
 11
-481.088180541992
 21
32.0412883758545
 31
0.0
  0
LINE
  5
   322
  8
0
  6
CONTINUOUS
 62
     3
 10
-479.588180541992
 20
18.5412883758545
 30
0.0
 11
-481.088180541992
 21
18.5412883758545
 31
0.0
  0
LINE
  5
   323
  8
0
  6
CONTINUOUS
 62
     3
 10
-479.588180541992
 20
18.5412883758545
 30
0.0
 11
-479.588180541992
 21
32.0412883758545
 31
0.0
  0
LINE
  5
   324
  8
0
  6
CONTINUOUS
 62
   150
 10
-490.338180541992
 20
3.16630172729492
 30
0.0
 11
-490.338180541992
 21
46.4163017272949
 31
0.0
  0
LINE
  5
   325
  8
0
  6
CONTINUOUS
 62
     3
 10
-489.338180541992
 20
47.9162998199463
 30
0.0
 11
-524.588222503662
 21
47.9162998199463
 31
0.0
  0
LINE
  5
   326
  8
0
  6
CONTINUOUS
 62
   150
 10
-490.838180541992
 20
46.9162998199463
 30
0.0
 11
-524.588222503662
 21
46.9162998199463
 31
0.0
  0
LINE
  5
   327
  8
0
  6
CONTINUOUS
 62
   150
 10
-490.338181635285
 20
46.416298501622
 30
0.0
 11
-490.838181618171
 21
46.9162984845077
 31
0.0
  0
LINE
  5
   328
  8
0
  6
CONTINUOUS
 62
   150
 10
-525.088221815625
 20
46.4163014318071
 30
0.0
 11
-524.941775587342
 21
46.7698552038417
 31
0.0
  0
LINE
  5
   329
  8
0
  6
CONTINUOUS
 62
   150
 10
-524.941775326242
 20
46.7698546443518
 30
0.0
 11
-524.588221554208
 21
46.9163008726349
 31
0.0
  0
LINE
  5
   32A
  8
0
  6
CONTINUOUS
 62
     3
 10
-524.58822250307
 20
47.9162998206612
 30
0.0
 11
-526.338209151629
 21
47.9163074500559
 31
0.0
  0
LINE
  5
   32B
  8
0
  6
CONTINUOUS
 62
   150
 10
-526.338211069326
 20
1.68104295005559
 30
0.0
 11
-526.338209152222
 21
47.9163093566895
 31
0.0
  0
LINE
  5
   32C
  8
0
  6
CONTINUOUS
 62
   150
 10
-489.838180540895
 20
1.41619110130724
 30
0.0
 11
-525.838211058473
 21
1.41633605979888
 31
0.0
  0
LINE
  5
   32D
  8
0
  6
CONTINUOUS
 62
   150
 10
-489.33818052612
 20
1.41618347502574
 30
0.0
 11
-489.83818052612
 21
1.41619110442027
 31
0.0
  0
LINE
  5
   32E
  8
0
  6
CONTINUOUS
 62
   150
 10
-490.484625818089
 20
2.81274882095504
 30
0.0
 11
-490.338179589806
 21
3.16630259298967
 31
0.0
  0
LINE
  5
   32F
  8
0
  6
CONTINUOUS
 62
   150
 10
-490.838179074496
 20
2.66630236079565
 30
0.0
 11
-490.484625302462
 21
2.81274858907877
 31
0.0
  0
LINE
  5
   330
  8
0
  6
CONTINUOUS
 62
   150
 10
-490.838180541992
 20
2.66630172729492
 30
0.0
 11
-524.588222503662
 21
2.66630172729492
 31
0.0
  0
LINE
  5
   331
  8
0
  6
CONTINUOUS
 62
   150
 10
-524.58822195517
 20
2.66630197478482
 30
0.0
 11
-524.941775727205
 21
2.81274820306793
 31
0.0
  0
LINE
  5
   332
  8
0
  6
CONTINUOUS
 62
   150
 10
-524.941775985373
 20
2.81274843787509
 30
0.0
 11
-525.088222213656
 21
3.16630220990972
 31
0.0
  0
LINE
  5
   333
  8
0
  6
CONTINUOUS
 62
   150
 10
-525.088222503662
 20
3.16630172729492
 30
0.0
 11
-525.088222503662
 21
46.4163017272949
 31
0.0
  0
LINE
  5
   334
  8
0
  6
CONTINUOUS
 62
   150
 10
-505.463191986084
 20
12.0053806304932
 30
0.0
 11
-505.463191986084
 21
32.8939418792725
 31
0.0
  0
LINE
  5
   335
  8
0
  6
CONTINUOUS
 62
   150
 10
-494.713191986084
 20
12.0053806304932
 30
0.0
 11
-494.713191986084
 21
32.8939418792725
 31
0.0
  0
LINE
  5
   336
  8
0
  6
CONTINUOUS
 62
     3
 10
-476.338172912598
 20
14.8764972686768
 30
0.0
 11
-477.338172912598
 21
14.8764972686768
 31
0.0
  0
LINE
  5
   337
  8
0
  6
CONTINUOUS
 62
     3
 10
-477.51494172201
 20
14.8032797364109
 30
0.0
 11
-477.338161016754
 21
14.8765028505228
 31
0.0
  0
LINE
  5
   338
  8
0
  6
CONTINUOUS
 62
     3
 10
-477.588173246057
 20
14.6264969365815
 30
0.0
 11
-477.514953946815
 21
14.8032738192074
 31
0.0
  0
LINE
  5
   339
  8
0
  6
CONTINUOUS
 62
     3
 10
-477.588172912598
 20
9.12649726867676
 30
0.0
 11
-477.588172912598
 21
14.6264972686768
 31
0.0
  0
LINE
  5
   33A
  8
0
  6
CONTINUOUS
 62
     3
 10
-477.514953860369
 20
8.94972026064717
 30
0.0
 11
-477.588173159611
 21
9.12649714327304
 31
0.0
  0
LINE
  5
   33B
  8
0
  6
CONTINUOUS
 62
     3
 10
-477.338163033405
 20
8.87649822618449
 30
0.0
 11
-477.51494373866
 21
8.94972134029639
 31
0.0
  0
LINE
  5
   33C
  8
0
  6
CONTINUOUS
 62
     3
 10
-476.338172912598
 20
8.87649726867676
 30
0.0
 11
-477.338172912598
 21
8.87649726867676
 31
0.0
  0
LINE
  5
   33D
  8
0
  6
CONTINUOUS
 62
     3
 10
-475.588172912598
 20
8.87649726867676
 30
0.0
 11
-476.338172912598
 21
8.87649726867676
 31
0.0
  0
LINE
  5
   33E
  8
0
  6
CONTINUOUS
 62
     3
 10
-475.58818131139
 20
8.87649367208538
 30
0.0
 11
-475.411408244591
 21
8.94971678620713
 31
0.0
  0
LINE
  5
   33F
  8
0
  6
CONTINUOUS
 62
     3
 10
-475.411397142915
 20
8.949722811644
 30
0.0
 11
-475.338170213824
 21
9.1264997010322
 31
0.0
  0
LINE
  5
   340
  8
0
  6
CONTINUOUS
 62
     3
 10
-475.338172912598
 20
9.12649726867676
 30
0.0
 11
-475.338172912598
 21
14.6264972686768
 31
0.0
  0
LINE
  5
   341
  8
0
  6
CONTINUOUS
 62
     3
 10
-475.338170909977
 20
14.6264984977176
 30
0.0
 11
-475.411397839068
 21
14.8032753871058
 31
0.0
  0
LINE
  5
   342
  8
0
  6
CONTINUOUS
 62
     3
 10
-475.411406832715
 20
14.8032731729818
 30
0.0
 11
-475.588179899515
 21
14.8764962871036
 31
0.0
  0
LINE
  5
   343
  8
0
  6
CONTINUOUS
 62
     3
 10
-475.588172912598
 20
14.8764972686768
 30
0.0
 11
-476.338172912598
 21
14.8764972686768
 31
0.0
  0
LINE
  5
   344
  8
0
  6
CONTINUOUS
 62
   150
 10
-490.338203430176
 20
34.4163112640381
 30
0.0
 11
-490.338203430176
 21
34.9163112640381
 31
0.0
  0
LINE
  5
   345
  8
0
  6
CONTINUOUS
 62
     3
 10
-490.338203430176
 20
34.9163112640381
 30
0.0
 11
-525.088226318359
 21
34.9163112640381
 31
0.0
  0
LINE
  5
   346
  8
0
  6
CONTINUOUS
 62
     3
 10
-490.338203430176
 20
34.4163112640381
 30
0.0
 11
-525.088226318359
 21
34.4163112640381
 31
0.0
  0
LINE
  5
   347
  8
0
  6
CONTINUOUS
 62
   150
 10
-490.338203430176
 20
9.91631126403809
 30
0.0
 11
-490.338203430176
 21
10.4163112640381
 31
0.0
  0
LINE
  5
   348
  8
0
  6
CONTINUOUS
 62
     3
 10
-490.338203430176
 20
10.4163112640381
 30
0.0
 11
-525.088226318359
 21
10.4163112640381
 31
0.0
  0
LINE
  5
   349
  8
0
  6
CONTINUOUS
 62
     3
 10
-490.338203430176
 20
9.91631126403809
 30
0.0
 11
-525.088226318359
 21
9.91631126403809
 31
0.0
  0
LINE
  5
   34A
  8
0
  6
CONTINUOUS
 62
     3
 10
-505.463207244873
 20
28.4163112640381
 30
0.0
 11
-525.088226318359
 21
28.4163112640381
 31
0.0
  0
LINE
  5
   34B
  8
0
  6
CONTINUOUS
 62
     3
 10
-505.463207244873
 20
27.9163112640381
 30
0.0
 11
-525.088226318359
 21
27.9163112640381
 31
0.0
  0
LINE
  5
   34C
  8
0
  6
CONTINUOUS
 62
     3
 10
-505.46321105957
 20
16.9163112640381
 30
0.0
 11
-525.088226318359
 21
16.9163112640381
 31
0.0
  0
LINE
  5
   34D
  8
0
  6
CONTINUOUS
 62
     3
 10
-505.46321105957
 20
16.4163112640381
 30
0.0
 11
-525.088226318359
 21
16.4163112640381
 31
0.0
  0
LINE
  5
   34E
  8
0
  6
CONTINUOUS
 62
   150
 10
-490.338203430176
 20
27.9163112640381
 30
0.0
 11
-490.338203430176
 21
28.4163112640381
 31
0.0
  0
LINE
  5
   34F
  8
0
  6
CONTINUOUS
 62
     3
 10
-490.338203430176
 20
28.4163112640381
 30
0.0
 11
-494.713191986084
 21
28.4163112640381
 31
0.0
  0
LINE
  5
   350
  8
0
  6
CONTINUOUS
 62
     3
 10
-490.338203430176
 20
27.9163112640381
 30
0.0
 11
-494.713191986084
 21
27.9163112640381
 31
0.0
  0
LINE
  5
   351
  8
0
  6
CONTINUOUS
 62
   150
 10
-490.338203430176
 20
16.4163112640381
 30
0.0
 11
-490.338203430176
 21
16.9163112640381
 31
0.0
  0
LINE
  5
   352
  8
0
  6
CONTINUOUS
 62
     3
 10
-490.338203430176
 20
16.9163112640381
 30
0.0
 11
-494.713195800781
 21
16.9163112640381
 31
0.0
  0
LINE
  5
   353
  8
0
  6
CONTINUOUS
 62
     3
 10
-490.338203430176
 20
16.4163112640381
 30
0.0
 11
-494.713195800781
 21
16.4163112640381
 31
0.0
  0
LINE
  5
   354
  8
0
  6
CONTINUOUS
 62
     3
 10
-469.838180541992
 20
-2.70869827270508
 30
0.0
 11
-469.838180541992
 21
-0.458696365356445
 31
0.0
  0
LINE
  5
   355
  8
0
  6
DOT
 62
   130
 10
-458.588180541992
 20
65.2913074493408
 30
0.0
 11
-473.838184538956
 21
65.2913074493408
 31
0.0
  0
LINE
  5
   356
  8
0
  6
CONTINUOUS
 62
   130
 10
-469.838226318359
 20
11.4162845611572
 30
0.0
 11
-469.838226318359
 21
16.6662845611572
 31
0.0
  0
LINE
  5
   357
  8
0
  6
CONTINUOUS
 62
   130
 10
-469.838226318359
 20
37.2912921905518
 30
0.0
 11
-469.838226318359
 21
49.2913150787354
 31
0.0
  0
LINE
  5
   358
  8
0
  6
CONTINUOUS
 62
   130
 10
-458.588172912598
 20
-7.08370018005371
 30
0.0
 11
-458.588172912598
 21
-4.70870399475098
 31
0.0
  0
LINE
  5
   359
  8
0
  6
DOT
 62
   130
 10
-458.588172912598
 20
-7.08370018005371
 30
0.0
 11
-473.838184538956
 21
-7.08370018005371
 31
0.0
  0
LINE
  5
   35A
  8
0
  6
CONTINUOUS
 62
     3
 10
-469.838172912598
 20
55.0413150787354
 30
0.0
 11
-469.838172912598
 21
58.6663150787354
 31
0.0
  0
LINE
  5
   35B
  8
0
  6
DOT
 62
   130
 10
-458.588172912597
 20
-4.70870780944714
 30
0.0
 11
-458.588180541992
 21
65.2913074493419
 31
0.0
  0
LINE
  5
   35C
  8
0
  6
CONTINUOUS
 62
   130
 10
-470.338172912598
 20
16.6662845611572
 30
0.0
 11
-470.338172912598
 21
34.2912921905518
 31
0.0
  0
LINE
  5
   35D
  8
0
  6
CONTINUOUS
 62
     3
 10
-470.338172912598
 20
4.79130744934082
 30
0.0
 11
-470.338172912598
 21
7.29128837585449
 31
0.0
  0
LINE
  5
   35E
  8
0
  6
CONTINUOUS
 62
   150
 10
-489.838182430778
 20
1.41619110953812
 30
0.0
 11
-526.089982967887
 21
1.41707230463429
 31
0.0
  0
LINE
  5
   35F
  8
0
  6
CONTINUOUS
 62
   150
 10
-526.155892469495
 20
1.44436735554129
 30
0.0
 11
-526.155154325572
 21
1.44510549946377
 31
0.0
  0
LINE
  5
   360
  8
0
  6
CONTINUOUS
 62
   150
 10
-526.155153477054
 20
53.8877319898693
 30
0.0
 11
-526.155777180038
 21
53.8883576002159
 31
0.0
  0
LINE
  5
   361
  8
0
  6
CONTINUOUS
 62
   150
 10
-494.713191986084
 20
32.6735324859619
 30
0.0
 11
-505.463191986084
 21
32.6735324859619
 31
0.0
  0
LINE
  5
   362
  8
0
  6
CONTINUOUS
 62
   150
 10
-494.713191986084
 20
32.8939418792725
 30
0.0
 11
-505.463191986084
 21
32.8939418792725
 31
0.0
  0
LINE
  5
   363
  8
0
  6
CONTINUOUS
 62
   150
 10
-494.713191986084
 20
12.0053806304932
 30
0.0
 11
-505.463191986084
 21
12.0053806304932
 31
0.0
  0
LINE
  5
   364
  8
0
  6
CONTINUOUS
 62
   150
 10
-494.713191986084
 20
12.3403186798096
 30
0.0
 11
-505.463191986084
 21
12.3403186798096
 31
0.0
  0
LINE
  5
   365
  8
0
  6
DOT
 62
   130
 10
-458.088180541992
 20
31.7912845611572
 30
0.0
 11
-458.588172912598
 21
31.7912845611572
 31
0.0
  0
LINE
  5
   366
  8
0
  6
DOT
 62
   130
 10
-458.088180541992
 20
21.7912845611572
 30
0.0
 11
-458.588180541992
 21
21.7912845611572
 31
0.0
  0
CIRCLE
  5
   367
  8
0
  6
CONTINUOUS
 62
   130
 10
-465.338179012429
 20
14.0412775618986
 30
0.0
 40
2.62501196105321
  0
LINE
  5
   368
  8
0
  6
DASHDOT
 62
     7
 10
-465.338179012429
 20
10.9162656008453
 30
0.0
 11
-465.338179012429
 21
17.1662895229518
 31
0.0
  0
LINE
  5
   369
  8
0
  6
DASHDOT
 62
     7
 10
-462.213167051376
 20
14.0412775618986
 30
0.0
 11
-468.463190973482
 21
14.0412775618986
 31
0.0
  0
LINE
  5
   36A
  8
0
  6
CONTINUOUS
 62
   130
 10
-470.338172912598
 20
7.29128837585449
 30
0.0
 11
-470.338172912598
 21
11.4162845611572
 31
0.0
  0
LINE
  5
   36B
  8
0
  6
DASHDOT
 62
     7
 10
-450.875989177236
 20
27.666337966923
 30
0.0
 11
-556.057653597734
 21
27.666337966923
 31
0.0
  0
LINE
  5
   36C
  8
0
  6
DOT
 62
   130
 10
-458.088180541992
 20
21.7912845611572
 30
0.0
 11
-458.088180541992
 21
31.7912845611572
 31
0.0
  0
LINE
  5
   36D
  8
0
  6
DOT
 62
   130
 10
-473.838184538956
 20
-12.583662033077
 30
0.0
 11
-473.838184538956
 21
1.41632381062081
 31
0.0
  0
LINE
  5
   36E
  8
0
  6
DOT
 62
   130
 10
-473.838184538956
 20
53.9163604622795
 30
0.0
 11
-473.838184538956
 21
67.9131870269816
 31
0.0
  0
INSERT
  5
   36F
  8
0
  6
CONTINUOUS
 62
     7
  2
*UDIM337
 10
0.0
 20
0.0
 30
0.0
  0
INSERT
  5
   370
  8
0
  6
CONTINUOUS
 62
     7
  2
*UDIM338
 10
0.0
 20
0.0
 30
0.0
  0
INSERT
  5
   371
  8
0
  6
CONTINUOUS
 62
     7
  2
*UDIM339
 10
0.0
 20
0.0
 30
0.0
  0
INSERT
  5
   372
  8
0
  6
CONTINUOUS
 62
     7
  2
*UDIM340
 10
0.0
 20
0.0
 30
0.0
  0
INSERT
  5
   373
  8
0
  6
CONTINUOUS
 62
     7
  2
*UDIM341
 10
0.0
 20
0.0
 30
0.0
  0
TEXT
  5
   374
  8
0
  6
CONTINUOUS
 62
     7
 10
-501.060397858779
 20
-56.223014758427
 30
0.0
 40
3.00000002980232
  1
Y
 50
359.999999948034
 41
0.916666604744064
 72
     2
 11
-498.860397989909
 21
-56.2230147604113
 31
0.0
  0
TEXT
  5
   375
  8
0
  6
CONTINUOUS
 62
     7
 10
-443.560455079238
 20
26.3407002226521
 30
0.0
 40
3.00000002980232
  1
X
 50
359.999999948034
 41
0.916666604744064
 72
     2
 11
-441.360455210368
 21
26.3407002206678
 31
0.0
  0
INSERT
  5
   376
  8
0
  6
CONTINUOUS
 62
     7
  2
*UDIM342
 10
0.0
 20
0.0
 30
0.0
  0
INSERT
  5
   377
  8
0
  6
CONTINUOUS
 62
     7
  2
*UDIM343
 10
0.0
 20
0.0
 30
0.0
  0
INSERT
  5
   378
  8
0
  6
CONTINUOUS
 62
     7
  2
*UDIM344
 10
0.0
 20
0.0
 30
0.0
  0
TEXT
  5
   379
  8
0
  6
CONTINUOUS
 62
     7
 10
-560.304881007832
 20
26.3047583169715
 30
0.0
 40
3.00000002980232
  1
X
 50
359.999999948034
 41
0.916666604744064
 72
     1
 11
-559.204881072044
 21
27.8047583308805
 31
0.0
 73
     2
  0
TEXT
  5
   37A
  8
0
  6
CONTINUOUS
 62
     7
 10
-501.107543857258
 20
109.316980607011
 30
0.0
 40
3.00000002980232
  1
Y
 50
359.999999948034
 41
0.916666604744064
 72
     1
 11
-500.007543921471
 21
110.81698062092
 31
0.0
 73
     2
  0
INSERT
  5
   37B
  8
0
  6
CONTINUOUS
 62
     7
  2
*UDIM345
 10
0.0
 20
0.0
 30
0.0
  0
INSERT
  5
   37C
  8
255
  6
CONTINUOUS
 62
     7
  2
MOSTRA
 10
-557.507365578152
 20
-6.86503410338948
 30
0.0
 41
0.5
 42
0.5
 50
359.999999792138
 43
0.5
  0
LINE
  5
   37D
  8
0
  6
CONTINUOUS
 62
     2
 10
-632.863075256116
 20
68.7912921905517
 30
0.0
 11
-632.863075256116
 21
79.0986042022705
 31
0.0
  0
LINE
  5
   37E
  8
0
  6
CONTINUOUS
 62
     7
 10
-667.113105773926
 20
77.7912921905518
 30
0.0
 11
-668.863105773926
 21
77.7912921905518
 31
0.0
  0
LINE
  5
   37F
  8
0
  6
CONTINUOUS
 62
     7
 10
-667.113052367809
 20
69.041287830945
 30
0.0
 11
-667.113052367809
 21
77.791287830945
 31
0.0
  0
LINE
  5
   380
  8
0
  6
CONTINUOUS
 62
     7
 10
-632.863105773926
 20
70.0412921905518
 30
0.0
 11
-634.863105773926
 21
70.0412921905518
 31
0.0
  0
LINE
  5
   381
  8
0
  6
CONTINUOUS
 62
     7
 10
-634.863107045308
 20
70.0412858423154
 30
0.0
 11
-634.863154983401
 21
88.8913153838934
 31
0.0
  0
LINE
  5
   382
  8
0
  6
CONTINUOUS
 62
     2
 10
-632.613121032715
 20
68.7912921905518
 30
0.0
 11
-632.863105773926
 21
68.7912921905518
 31
0.0
  0
LINE
  5
   383
  8
0
  6
CONTINUOUS
 62
     2
 10
-631.863121032715
 20
76.7912921905518
 30
0.0
 11
-632.863121032715
 21
76.7912921905518
 31
0.0
  0
LINE
  5
   384
  8
0
  6
CONTINUOUS
 62
     2
 10
-631.863121032715
 20
82.2912921905518
 30
0.0
 11
-632.863121032715
 21
82.2912921905518
 31
0.0
  0
LINE
  5
   385
  8
0
  6
CONTINUOUS
 62
     2
 10
-631.863121032715
 20
80.947114944458
 30
0.0
 11
-632.863121032715
 21
80.947114944458
 31
0.0
  0
LINE
  5
   386
  8
0
  6
CONTINUOUS
 62
     2
 10
-631.863121032715
 20
79.0986042022705
 30
0.0
 11
-632.863121032715
 21
79.0986042022705
 31
0.0
  0
LINE
  5
   387
  8
0
  6
CONTINUOUS
 62
     7
 10
-668.863105773926
 20
77.5413016509833
 30
0.0
 11
-668.863105773926
 21
78.0413092803779
 31
0.0
  0
LINE
  5
   388
  8
0
  6
CONTINUOUS
 62
     7
 10
-679.963104248047
 20
78.0413092803779
 30
0.0
 11
-680.113105773926
 21
78.0413092803779
 31
0.0
  0
LINE
  5
   389
  8
0
  6
CONTINUOUS
 62
     7
 10
-667.363105773926
 20
77.5413169097724
 30
0.0
 11
-668.863105773926
 21
77.5413169097724
 31
0.0
  0
LINE
  5
   38A
  8
0
  6
CONTINUOUS
 62
     7
 10
-667.363105773926
 20
65.2913074493408
 30
0.0
 11
-667.363105773926
 21
77.5413169097724
 31
0.0
  0
LINE
  5
   38B
  8
0
  6
CONTINUOUS
 62
     7
 10
-679.963088989257
 20
65.2913074493408
 30
0.0
 11
-679.963088989257
 21
78.0413030239852
 31
0.0
  0
LINE
  5
   38C
  8
0
  6
CONTINUOUS
 62
     2
 10
-632.863075256116
 20
88.8913153838935
 30
0.0
 11
-679.963111877441
 21
88.8913153838935
 31
0.0
  0
LINE
  5
   38D
  8
0
  6
CONTINUOUS
 62
     2
 10
-679.963058471673
 20
78.0413058348948
 30
0.0
 11
-679.963058471673
 21
88.8913119384104
 31
0.0
  0
LINE
  5
   38E
  8
0
  6
CONTINUOUS
 62
     7
 10
-668.863105773926
 20
78.0413169097724
 30
0.0
 11
-668.863105773926
 21
88.8913153838935
 31
0.0
  0
LINE
  5
   38F
  8
0
  6
CONTINUOUS
 62
     7
 10
-682.61311340332
 20
-6.70865257264949
 30
0.0
 11
-682.61311340332
 21
-4.70870399475098
 31
0.0
  0
LINE
  5
   390
  8
0
  6
CONTINUOUS
 62
     7
 10
-682.61311340332
 20
65.2913074493408
 30
0.0
 11
-682.61311340332
 21
78.0413321685614
 31
0.0
  0
LINE
  5
   391
  8
0
  6
CONTINUOUS
 62
     7
 10
-680.11311340332
 20
78.0413321685614
 30
0.0
 11
-682.61311340332
 21
78.0413321685614
 31
0.0
  0
LINE
  5
   392
  8
0
  6
CONTINUOUS
 62
     7
 10
-680.11311340332
 20
-6.70865257264949
 30
0.0
 11
-682.61311340332
 21
-6.70865257264949
 31
0.0
  0
LINE
  5
   393
  8
0
  6
CONTINUOUS
 62
   218
 10
-632.863120555878
 20
-35.3086529541195
 30
0.0
 11
-679.963111400604
 21
-35.3086529541195
 31
0.0
  0
LINE
  5
   394
  8
0
  6
CONTINUOUS
 62
   218
 10
-679.963115405407
 20
-22.708660202492
 30
0.0
 11
-680.11311340287
 21
-22.7086584418902
 31
0.0
  0
LINE
  5
   395
  8
0
  6
CONTINUOUS
 62
   218
 10
-679.963119506836
 20
-24.7086602020443
 30
0.0
 11
-682.11311340332
 21
-24.7086602020443
 31
0.0
  0
LINE
  5
   396
  8
0
  6
CONTINUOUS
 62
   218
 10
-679.963119506836
 20
-35.3086510467708
 30
0.0
 11
-679.963119506836
 21
-22.7086525726497
 31
0.0
  0
LINE
  5
   397
  8
0
  6
CONTINUOUS
 62
   218
 10
-679.963119506836
 20
-22.7086525726497
 30
0.0
 11
-679.963119506836
 21
-6.70870208740234
 31
0.0
  0
LINE
  5
   398
  8
0
  6
CONTINUOUS
 62
     7
 10
-679.963119506836
 20
-7.20865257264973
 30
0.0
 11
-680.11311340332
 21
-7.20865257264973
 31
0.0
  0
LINE
  5
   399
  8
0
  6
CONTINUOUS
 62
   218
 10
-631.863121032553
 20
-19.7086602015495
 30
0.0
 11
-632.863120555693
 21
-19.708652572155
 31
0.0
  0
LINE
  5
   39A
  8
0
  6
CONTINUOUS
 62
   218
 10
-632.863120555878
 20
-37.9586525726495
 30
0.0
 11
-632.863120555878
 21
-19.708660202044
 31
0.0
  0
LINE
  5
   39B
  8
0
  6
CONTINUOUS
 62
   218
 10
-631.863121032715
 20
-25.0836602020443
 30
0.0
 11
-632.863121032715
 21
-25.0836602020443
 31
0.0
  0
LINE
  5
   39C
  8
0
  6
CONTINUOUS
 62
   218
 10
-631.863121032715
 20
-29.442455844897
 30
0.0
 11
-632.863121032715
 21
-29.442455844897
 31
0.0
  0
LINE
  5
   39D
  8
0
  6
CONTINUOUS
 62
   218
 10
-631.863121032715
 20
-28.2159615326107
 30
0.0
 11
-632.863121032715
 21
-28.2159615326107
 31
0.0
  0
LINE
  5
   39E
  8
0
  6
CONTINUOUS
 62
     7
 10
-680.11311340332
 20
-6.95865257264948
 30
0.0
 11
-682.61311340332
 21
-6.95865257264948
 31
0.0
  0
LINE
  5
   39F
  8
0
  6
CONTINUOUS
 62
     7
 10
-680.11311340332
 20
-24.4586525726495
 30
0.0
 11
-682.61311340332
 21
-24.4586525726495
 31
0.0
  0
LINE
  5
   3A0
  8
0
  6
CONTINUOUS
 62
     7
 10
-682.61311340332
 20
-24.4586525726495
 30
0.0
 11
-682.61311340332
 21
-6.95865257264948
 31
0.0
  0
LINE
  5
   3A1
  8
0
  6
CONTINUOUS
 62
     7
 10
-681.61311340332
 20
-24.4586525726495
 30
0.0
 11
-681.61311340332
 21
-6.95865257264948
 31
0.0
  0
LINE
  5
   3A2
  8
0
  6
CONTINUOUS
 62
     7
 10
-680.11311340332
 20
-24.4586525726495
 30
0.0
 11
-680.11311340332
 21
-6.95865257264948
 31
0.0
  0
LINE
  5
   3A3
  8
0
  6
CONTINUOUS
 62
     2
 10
-632.863075256116
 20
80.947114944458
 30
0.0
 11
-632.863075256116
 21
91.5413150787353
 31
0.0
  0
LINE
  5
   3A4
  8
0
  6
CONTINUOUS
 62
     7
 10
-631.863121032715
 20
76.7912921905518
 30
0.0
 11
-631.863121032715
 21
82.2912921905518
 31
0.0
  0
LINE
  5
   3A5
  8
0
  6
CONTINUOUS
 62
     7
 10
-631.863121032715
 20
-29.4424558448977
 30
0.0
 11
-631.863121032715
 21
-25.0836602020449
 31
0.0
  0
LINE
  5
   3A6
  8
0
  6
CONTINUOUS
 62
     7
 10
-607.863098144531
 20
75.0413150787354
 30
0.0
 11
-607.863098144531
 21
87.5413150787354
 31
0.0
  0
LINE
  5
   3A7
  8
0
  6
CONTINUOUS
 62
     7
 10
-607.863098144531
 20
-33.958676815033
 30
0.0
 11
-607.863098144531
 21
-21.4586844444275
 31
0.0
  0
LINE
  5
   3A8
  8
0
  6
CONTINUOUS
 62
     7
 10
-613.363102013439
 20
-36.7086696624748
 30
0.0
 11
-631.863124901622
 21
-36.7086696624748
 31
0.0
  0
LINE
  5
   3A9
  8
0
  6
CONTINUOUS
 62
     7
 10
-613.363098144531
 20
90.2913150787353
 30
0.0
 11
-631.863121032715
 21
90.2913150787353
 31
0.0
  0
LINE
  5
   3AA
  8
0
  6
CONTINUOUS
 62
     7
 10
-631.863121032715
 20
-27.7086925506592
 30
0.0
 11
-631.863121032715
 21
-7.08370399475098
 31
0.0
  0
LINE
  5
   3AB
  8
0
  6
CONTINUOUS
 62
     7
 10
-631.863121032715
 20
-36.7086925506592
 30
0.0
 11
-631.863121032715
 21
-35.3086681365967
 31
0.0
  0
LINE
  5
   3AC
  8
0
  6
CONTINUOUS
 62
     7
 10
-631.863121032715
 20
88.8913288116455
 30
0.0
 11
-631.863121032715
 21
90.2913150787353
 31
0.0
  0
LINE
  5
   3AD
  8
0
  6
CONTINUOUS
 62
     7
 10
-631.863121032715
 20
65.2913074493408
 30
0.0
 11
-631.863121032715
 21
81.2913303375244
 31
0.0
  0
LINE
  5
   3AE
  8
0
  6
CONTINUOUS
 62
     7
 10
-613.363098144531
 20
88.8913059234619
 30
0.0
 11
-613.363098144531
 21
90.2913150787353
 31
0.0
  0
LINE
  5
   3AF
  8
0
  6
CONTINUOUS
 62
     7
 10
-613.363098144531
 20
-36.7087001800537
 30
0.0
 11
-613.363098144531
 21
-35.3086791038513
 31
0.0
  0
LINE
  5
   3B0
  8
0
  6
CONTINUOUS
 62
     7
 10
-613.363098144531
 20
-27.7087078094482
 30
0.0
 11
-613.363098144531
 21
-21.4586772918701
 31
0.0
  0
LINE
  5
   3B1
  8
0
  6
CONTINUOUS
 62
     7
 10
-607.113098144531
 20
56.7913150787354
 30
0.0
 11
-607.113098144531
 21
64.2913150787354
 31
0.0
  0
LINE
  5
   3B2
  8
0
  6
CONTINUOUS
 62
     7
 10
-607.113098144531
 20
-10.7086544036865
 30
0.0
 11
-607.113098144531
 21
-3.20865440368652
 31
0.0
  0
LINE
  5
   3B3
  8
0
  6
CONTINUOUS
 62
     7
 10
-608.113098144531
 20
10.2912921905518
 30
0.0
 11
-609.113099268241
 21
10.2912921905518
 31
0.0
  0
LINE
  5
   3B4
  8
0
  6
CONTINUOUS
 62
     7
 10
-608.113098144531
 20
13.7912845611572
 30
0.0
 11
-609.113099682238
 21
13.7912845611572
 31
0.0
  0
LINE
  5
   3B5
  8
0
  6
CONTINUOUS
 62
     7
 10
-613.363098144531
 20
88.891321182251
 30
0.0
 11
-631.863121032715
 21
88.891321182251
 31
0.0
  0
LINE
  5
   3B6
  8
0
  6
CONTINUOUS
 62
     7
 10
-631.863121032715
 20
81.2913150787354
 30
0.0
 11
-631.863121032715
 21
88.891321182251
 31
0.0
  0
LINE
  5
   3B7
  8
0
  6
CONTINUOUS
 62
     7
 10
-613.363098144531
 20
81.2913227081299
 30
0.0
 11
-613.363098144531
 21
87.5413150787354
 31
0.0
  0
LINE
  5
   3B8
  8
0
  6
CONTINUOUS
 62
     7
 10
-613.363098144531
 20
-35.3086771965027
 30
0.0
 11
-631.863121032715
 21
-35.3086771965027
 31
0.0
  0
LINE
  5
   3B9
  8
0
  6
CONTINUOUS
 62
     7
 10
-631.863121032715
 20
-35.3086771965027
 30
0.0
 11
-631.863121032715
 21
-27.7087001800537
 31
0.0
  0
LINE
  5
   3BA
  8
0
  6
CONTINUOUS
 62
     7
 10
-613.363098144531
 20
-35.3086771965027
 30
0.0
 11
-613.363098144531
 21
-33.958676815033
 31
0.0
  0
LINE
  5
   3BB
  8
0
  6
CONTINUOUS
 62
     3
 10
-607.363098144531
 20
-2.70869255065918
 30
0.0
 11
-608.113098144531
 21
-2.70869255065918
 31
0.0
  0
LINE
  5
   3BC
  8
0
  6
CONTINUOUS
 62
     3
 10
-607.363098144531
 20
-11.2086925506592
 30
0.0
 11
-608.113098144531
 21
-11.2086925506592
 31
0.0
  0
LINE
  5
   3BD
  8
0
  6
CONTINUOUS
 62
     3
 10
-607.363098144531
 20
-16.7086925506592
 30
0.0
 11
-608.113098144531
 21
-16.7086925506592
 31
0.0
  0
LINE
  5
   3BE
  8
0
  6
CONTINUOUS
 62
     3
 10
-607.363098144531
 20
70.2913074493408
 30
0.0
 11
-608.113098144531
 21
70.2913074493408
 31
0.0
  0
LINE
  5
   3BF
  8
0
  6
CONTINUOUS
 62
     3
 10
-607.363098144531
 20
64.7913074493408
 30
0.0
 11
-608.113098144531
 21
64.7913074493408
 31
0.0
  0
LINE
  5
   3C0
  8
0
  6
CONTINUOUS
 62
     3
 10
-607.363098144531
 20
56.2913074493408
 30
0.0
 11
-608.113098144531
 21
56.2913074493408
 31
0.0
  0
LINE
  5
   3C1
  8
0
  6
CONTINUOUS
 62
     3
 10
-608.113098144531
 20
64.2913150787354
 30
0.0
 11
-608.113098144531
 21
70.2913074493408
 31
0.0
  0
LINE
  5
   3C2
  8
0
  6
CONTINUOUS
 62
     3
 10
-608.113098144531
 20
-3.20861625671387
 30
0.0
 11
-608.113098144531
 21
56.7913303375244
 31
0.0
  0
LINE
  5
   3C3
  8
0
  6
CONTINUOUS
 62
     3
 10
-608.113098144531
 20
-16.7086925506592
 30
0.0
 11
-608.113098144531
 21
-10.7086162567139
 31
0.0
  0
LINE
  5
   3C4
  8
0
  6
CONTINUOUS
 62
     3
 10
-607.363098144531
 20
-16.7086925506592
 30
0.0
 11
-607.363098144531
 21
-10.7086620330811
 31
0.0
  0
LINE
  5
   3C5
  8
0
  6
CONTINUOUS
 62
     3
 10
-607.363098144531
 20
-3.20866966247559
 30
0.0
 11
-607.363098144531
 21
56.7912616729736
 31
0.0
  0
LINE
  5
   3C6
  8
0
  6
CONTINUOUS
 62
     3
 10
-607.363098144531
 20
64.2912769317627
 30
0.0
 11
-607.363098144531
 21
70.2913074493408
 31
0.0
  0
LINE
  5
   3C7
  8
0
  6
CONTINUOUS
 62
     7
 10
-611.363105773926
 20
87.5413150787354
 30
0.0
 11
-613.363098144531
 21
87.5413150787354
 31
0.0
  0
LINE
  5
   3C8
  8
0
  6
CONTINUOUS
 62
     7
 10
-612.863121032715
 20
75.0413150787354
 30
0.0
 11
-613.363098144531
 21
75.0413150787354
 31
0.0
  0
LINE
  5
   3C9
  8
0
  6
CONTINUOUS
 62
     7
 10
-611.363105773926
 20
75.0413150787354
 30
0.0
 11
-612.863121032715
 21
75.0413150787354
 31
0.0
  0
LINE
  5
   3CA
  8
0
  6
CONTINUOUS
 62
     7
 10
-611.363105773926
 20
-33.958676815033
 30
0.0
 11
-613.363098144531
 21
-33.958676815033
 31
0.0
  0
LINE
  5
   3CB
  8
0
  6
CONTINUOUS
 62
     7
 10
-611.363105773926
 20
-21.4586772918701
 30
0.0
 11
-612.863121032715
 21
-21.4586772918701
 31
0.0
  0
LINE
  5
   3CC
  8
0
  6
CONTINUOUS
 62
     7
 10
-612.863121032715
 20
-21.4586772918701
 30
0.0
 11
-613.363098144531
 21
-21.4586772918701
 31
0.0
  0
LINE
  5
   3CD
  8
0
  6
CONTINUOUS
 62
     7
 10
-607.113098144531
 20
64.2913150787354
 30
0.0
 11
-609.113105655641
 21
64.2913150787354
 31
0.0
  0
LINE
  5
   3CE
  8
0
  6
CONTINUOUS
 62
     7
 10
-607.113098144531
 20
56.7913150787354
 30
0.0
 11
-609.113104768502
 21
56.7913150787354
 31
0.0
  0
LINE
  5
   3CF
  8
0
  6
CONTINUOUS
 62
     7
 10
-607.113098144531
 20
-3.20865440368652
 30
0.0
 11
-609.113103692908
 21
-3.20865440368652
 31
0.0
  0
LINE
  5
   3D0
  8
0
  6
CONTINUOUS
 62
     7
 10
-607.113098144531
 20
-10.7086544036865
 30
0.0
 11
-613.363098144531
 21
-10.7086544036865
 31
0.0
  0
LINE
  5
   3D1
  8
0
  6
DASHDOT
 62
     7
 10
-607.113098144531
 20
-3.20865440368653
 30
0.0
 11
-607.113098144531
 21
56.7913150787353
 31
0.0
  0
LINE
  5
   3D2
  8
0
  6
DASHDOT
 62
     7
 10
-607.113098144531
 20
-54.0212163812636
 30
0.0
 11
-607.113098144531
 21
-10.7086544036865
 31
0.0
  0
LINE
  5
   3D3
  8
0
  6
DASHDOT
 62
     7
 10
-607.113098144531
 20
64.2913150787354
 30
0.0
 11
-607.113098144531
 21
97.8967950338888
 31
0.0
  0
LINE
  5
   3D4
  8
0
  6
DASHDOT
 62
     7
 10
-605.613098144531
 20
-52.3859310054277
 30
0.0
 11
-605.613098144531
 21
98.5509091842231
 31
0.0
  0
LINE
  5
   3D5
  8
0
  6
CONTINUOUS
 62
     7
 10
-611.121330002112
 20
98.1215143274947
 30
0.0
 11
-601.516934095756
 21
99.5134557631984
 31
0.0
  0
LINE
  5
   3D6
  8
0
  6
CONTINUOUS
 62
     7
 10
-611.538912432822
 20
-54.9224465281349
 30
0.0
 11
-602.491293100748
 21
-50.4682339338828
 31
0.0
  0
LINE
  5
   3D7
  8
0
  6
CONTINUOUS
 62
     7
 10
-607.863098144531
 20
87.5413150787354
 30
0.0
 11
-611.363105773926
 21
87.5413150787354
 31
0.0
  0
LINE
  5
   3D8
  8
0
  6
CONTINUOUS
 62
     7
 10
-613.363098144531
 20
87.5413150787354
 30
0.0
 11
-613.363098144531
 21
88.891321182251
 31
0.0
  0
LINE
  5
   3D9
  8
0
  6
CONTINUOUS
 62
     7
 10
-613.363098144531
 20
75.0413150787354
 30
0.0
 11
-613.363098144531
 21
81.2912845611572
 31
0.0
  0
LINE
  5
   3DA
  8
0
  6
CONTINUOUS
 62
     7
 10
-607.863098144531
 20
75.0413150787354
 30
0.0
 11
-611.363105773926
 21
75.0413150787354
 31
0.0
  0
LINE
  5
   3DB
  8
0
  6
CONTINUOUS
 62
     7
 10
-613.363098144531
 20
65.2913074493408
 30
0.0
 11
-613.363098144531
 21
75.0413150787354
 31
0.0
  0
LINE
  5
   3DC
  8
0
  6
CONTINUOUS
 62
     7
 10
-613.363098144531
 20
-10.7086544036865
 30
0.0
 11
-613.363098144531
 21
-4.70881758058682
 31
0.0
  0
LINE
  5
   3DD
  8
0
  6
CONTINUOUS
 62
     7
 10
-613.363098144531
 20
-21.4586772918701
 30
0.0
 11
-613.363098144531
 21
-10.7086544036865
 31
0.0
  0
LINE
  5
   3DE
  8
0
  6
CONTINUOUS
 62
     7
 10
-607.863098144531
 20
-21.4586772918701
 30
0.0
 11
-611.363105773926
 21
-21.4586772918701
 31
0.0
  0
LINE
  5
   3DF
  8
0
  6
CONTINUOUS
 62
     7
 10
-607.863098144531
 20
-33.958676815033
 30
0.0
 11
-611.363105773926
 21
-33.958676815033
 31
0.0
  0
LINE
  5
   3E0
  8
0
  6
CONTINUOUS
 62
     7
 10
-613.363098144531
 20
-33.958676815033
 30
0.0
 11
-613.363098144531
 21
-27.7087001800537
 31
0.0
  0
LINE
  5
   3E1
  8
0
  6
DASHDOT
 62
     7
 10
-600.708796590069
 20
60.5413150787353
 30
0.0
 11
-616.07783550224
 21
60.5413150787353
 31
0.0
  0
LINE
  5
   3E2
  8
0
  6
DASHDOT
 62
     7
 10
-600.990797304054
 20
-6.95868492126465
 30
0.0
 11
-617.20583835818
 21
-6.95868492126465
 31
0.0
  0
LINE
  5
   3E3
  8
0
  6
CONTINUOUS
 62
   130
 10
-696.613064767028
 20
0.79129028786387
 30
0.0
 11
-696.613090516236
 21
2.7913036393043
 31
0.0
  0
LINE
  5
   3E4
  8
0
  6
CONTINUOUS
 62
   130
 10
-696.613090516155
 20
-4.70870780597166
 30
0.0
 11
-696.613065720623
 21
-2.70871543536619
 31
0.0
  0
LINE
  5
   3E5
  8
0
  6
CONTINUOUS
 62
   130
 10
-630.863120824726
 20
-4.70876689245803
 30
0.0
 11
-631.863120824725
 21
-4.70870394995315
 31
0.0
  0
LINE
  5
   3E6
  8
0
  6
CONTINUOUS
 62
   130
 10
-634.363128662109
 20
-4.70870399475098
 30
0.0
 11
-694.113090515137
 21
-4.70870399475098
 31
0.0
  0
LINE
  5
   3E7
  8
0
  6
CONTINUOUS
 62
   130
 10
-609.113105773926
 20
65.2913074493408
 30
0.0
 11
-630.863128662109
 21
65.2913074493408
 31
0.0
  0
LINE
  5
   3E8
  8
0
  6
CONTINUOUS
 62
   130
 10
-609.113105773304
 20
-4.70882987966603
 30
0.0
 11
-630.863121032093
 21
-4.70876693716236
 31
0.0
  0
LINE
  5
   3E9
  8
0
  6
CONTINUOUS
 62
   130
 10
-609.113105773854
 20
-4.70882987971722
 30
0.0
 11
-609.11309814446
 21
0.791278839154849
 31
0.0
  0
LINE
  5
   3EA
  8
0
  6
CONTINUOUS
 62
     7
 10
-651.363098144531
 20
49.2913150787354
 30
0.0
 11
-696.613090515137
 21
49.2913150787354
 31
0.0
  0
LINE
  5
   3EB
  8
0
  6
CONTINUOUS
 62
     7
 10
-651.363098144531
 20
34.2912883758545
 30
0.0
 11
-696.613090515137
 21
34.2912883758545
 31
0.0
  0
LINE
  5
   3EC
  8
0
  6
CONTINUOUS
 62
   130
 10
-696.613065719605
 20
-2.70871543884094
 30
0.0
 11
-696.613064765931
 21
0.791290283204955
 31
0.0
  0
LINE
  5
   3ED
  8
0
  6
CONTINUOUS
 62
   130
 10
-630.863128662109
 20
65.2913074493408
 30
0.0
 11
-696.613090515137
 21
65.2913074493408
 31
0.0
  0
LINE
  5
   3EE
  8
0
  6
CONTINUOUS
 62
   130
 10
-696.613090515137
 20
49.2913150787354
 30
0.0
 11
-696.613090515137
 21
65.2913074493408
 31
0.0
  0
LINE
  5
   3EF
  8
0
  6
CONTINUOUS
 62
     7
 10
-645.488128661943
 20
-2.70868492122403
 30
0.0
 11
-632.863121032549
 21
-2.7086620330406
 31
0.0
  0
LINE
  5
   3F0
  8
0
  6
CONTINUOUS
 62
     7
 10
-665.925598144517
 20
-2.70869636535122
 30
0.0
 11
-647.488128662096
 21
-2.7086849212599
 31
0.0
  0
LINE
  5
   3F1
  8
0
  6
CONTINUOUS
 62
     7
 10
-694.613036155694
 20
-2.7087135314887
 30
0.0
 11
-667.925597190851
 21
-2.70869636535135
 31
0.0
  0
LINE
  5
   3F2
  8
0
  6
CONTINUOUS
 62
     7
 10
-694.613031387323
 20
-0.458709716791546
 30
0.0
 11
-667.925596237176
 21
-0.458692550653616
 31
0.0
  0
LINE
  5
   3F3
  8
0
  6
CONTINUOUS
 62
     7
 10
-665.925596237169
 20
-0.45869064330503
 30
0.0
 11
-647.488124847398
 21
-0.458679199213574
 31
0.0
  0
LINE
  5
   3F4
  8
0
  6
CONTINUOUS
 62
     7
 10
-645.488124847394
 20
-0.458677291865239
 30
0.0
 11
-632.863121032696
 21
-0.458669662470676
 31
0.0
  0
LINE
  5
   3F5
  8
0
  6
CONTINUOUS
 62
     7
 10
-694.613036155717
 20
-2.70871353142338
 30
0.0
 11
-694.613032341019
 21
-0.458709716726112
 31
0.0
  0
LINE
  5
   3F6
  8
0
  6
CONTINUOUS
 62
     7
 10
-632.863121032715
 20
-2.70866203308105
 30
0.0
 11
-632.863121032715
 21
-0.458669662475586
 31
0.0
  0
LINE
  5
   3F7
  8
0
  6
CONTINUOUS
 62
     7
 10
-645.488128662055
 20
-2.70868492118742
 30
0.0
 11
-645.488124847358
 21
-0.458665847701088
 31
0.0
  0
LINE
  5
   3F8
  8
0
  6
CONTINUOUS
 62
     7
 10
-647.488128662058
 20
-2.70868492119388
 30
0.0
 11
-647.488124847361
 21
-0.458667755056187
 31
0.0
  0
LINE
  5
   3F9
  8
0
  6
CONTINUOUS
 62
     7
 10
-665.925598144525
 20
-2.70869636533714
 30
0.0
 11
-665.925596237176
 21
-0.458679199199441
 31
0.0
  0
LINE
  5
   3FA
  8
0
  6
CONTINUOUS
 62
     7
 10
-667.925597190851
 20
-2.70869636533875
 30
0.0
 11
-667.925595283503
 21
-0.45868110654969
 31
0.0
  0
LINE
  5
   3FB
  8
0
  6
CONTINUOUS
 62
   130
 10
-680.613091230393
 20
-6.70870208740234
 30
0.0
 11
-680.613091230393
 21
-4.70870208740234
 31
0.0
  0
LINE
  5
   3FC
  8
0
  6
CONTINUOUS
 62
   130
 10
-678.613090991974
 20
-6.70870208740234
 30
0.0
 11
-678.613090991974
 21
-4.70870208740234
 31
0.0
  0
LINE
  5
   3FD
  8
0
  6
CONTINUOUS
 62
   130
 10
-678.613090991974
 20
-6.70870208740234
 30
0.0
 11
-680.613091230393
 21
-6.70870208740234
 31
0.0
  0
LINE
  5
   3FE
  8
0
  6
CONTINUOUS
 62
   130
 10
-638.738090515137
 20
-6.70867538452148
 30
0.0
 11
-638.738090515137
 21
-4.70871162414551
 31
0.0
  0
LINE
  5
   3FF
  8
0
  6
CONTINUOUS
 62
   130
 10
-636.738090515137
 20
-6.70867538452148
 30
0.0
 11
-636.738090515137
 21
-4.70871162414551
 31
0.0
  0
LINE
  5
   400
  8
0
  6
CONTINUOUS
 62
   130
 10
-636.738090515137
 20
-6.70867538452148
 30
0.0
 11
-638.738090515137
 21
-6.70867538452148
 31
0.0
  0
LINE
  5
   401
  8
0
  6
CONTINUOUS
 62
   130
 10
-694.113090515137
 20
-7.08370399475098
 30
0.0
 11
-694.113090515137
 21
-5.83370399475098
 31
0.0
  0
LINE
  5
   402
  8
0
  6
CONTINUOUS
 62
   130
 10
-696.613090515137
 20
-7.08370399475098
 30
0.0
 11
-696.613090515137
 21
-4.70870780944824
 31
0.0
  0
LINE
  5
   403
  8
0
  6
CONTINUOUS
 62
   130
 10
-694.113090515137
 20
-7.08370399475098
 30
0.0
 11
-696.613090515137
 21
-7.08370399475098
 31
0.0
  0
LINE
  5
   404
  8
0
  6
CONTINUOUS
 62
   130
 10
-694.113090515137
 20
-5.83370399475098
 30
0.0
 11
-694.113090515137
 21
-4.70870399475098
 31
0.0
  0
LINE
  5
   405
  8
0
  6
CONTINUOUS
 62
   130
 10
-634.363136291504
 20
-7.08370399475098
 30
0.0
 11
-634.363136291504
 21
-5.83370399475098
 31
0.0
  0
LINE
  5
   406
  8
0
  6
CONTINUOUS
 62
   130
 10
-631.863136291504
 20
-7.08370399475098
 30
0.0
 11
-634.363136291504
 21
-7.08370399475098
 31
0.0
  0
LINE
  5
   407
  8
0
  6
CONTINUOUS
 62
   130
 10
-631.863136290441
 20
-7.08370399391537
 30
0.0
 11
-631.863121031652
 21
-4.70870399391537
 31
0.0
  0
LINE
  5
   408
  8
0
  6
CONTINUOUS
 62
   130
 10
-634.363136290377
 20
-5.83370399376244
 30
0.0
 11
-634.363128660983
 21
-4.70871162315697
 31
0.0
  0
LINE
  5
   409
  8
0
  6
CONTINUOUS
 62
     7
 10
-693.11309426437
 20
55.0413237064386
 30
0.0
 11
-694.613094297321
 21
56.5413237393895
 31
0.0
  0
LINE
  5
   40A
  8
0
  6
CONTINUOUS
 62
   130
 10
-696.613090515137
 20
2.79130363464355
 30
0.0
 11
-696.613090515137
 21
34.2912998199463
 31
0.0
  0
LINE
  5
   40B
  8
0
  6
CONTINUOUS
 62
     7
 10
-651.363098144531
 20
34.2912883758545
 30
0.0
 11
-651.363098144531
 21
49.2913150787354
 31
0.0
  0
LINE
  5
   40C
  8
0
  6
CONTINUOUS
 62
     7
 10
-688.863090991974
 20
49.0413150787354
 30
0.0
 11
-688.863090991974
 21
49.2913150787354
 31
0.0
  0
LINE
  5
   40D
  8
0
  6
CONTINUOUS
 62
     7
 10
-645.488128662091
 20
58.6663074493564
 30
0.0
 11
-632.863121032696
 21
58.6663150787511
 31
0.0
  0
LINE
  5
   40E
  8
0
  6
CONTINUOUS
 62
     7
 10
-645.488128662109
 20
55.0413074493408
 30
0.0
 11
-645.488128662109
 21
58.6663074493408
 31
0.0
  0
LINE
  5
   40F
  8
0
  6
CONTINUOUS
 62
     7
 10
-645.488128662091
 20
55.0413074493557
 30
0.0
 11
-632.863121032696
 21
55.0413150787504
 31
0.0
  0
LINE
  5
   410
  8
0
  6
CONTINUOUS
 62
     7
 10
-632.863121032715
 20
55.0413150787354
 30
0.0
 11
-632.863121032715
 21
58.6663150787354
 31
0.0
  0
LINE
  5
   411
  8
0
  6
CONTINUOUS
 62
     7
 10
-667.925597190857
 20
55.0413150787354
 30
0.0
 11
-667.925597190857
 21
58.6663150787354
 31
0.0
  0
LINE
  5
   412
  8
0
  6
CONTINUOUS
 62
     7
 10
-647.488128662109
 20
55.0413150787354
 30
0.0
 11
-667.925598144531
 21
55.0413150787354
 31
0.0
  0
LINE
  5
   413
  8
0
  6
CONTINUOUS
 62
     7
 10
-647.488128662109
 20
55.0413150787354
 30
0.0
 11
-647.488128662109
 21
58.6663150787354
 31
0.0
  0
LINE
  5
   414
  8
0
  6
CONTINUOUS
 62
     7
 10
-647.488128662109
 20
58.6663150787354
 30
0.0
 11
-667.925598144531
 21
58.6663150787354
 31
0.0
  0
LINE
  5
   415
  8
0
  6
CONTINUOUS
 62
     7
 10
-669.925597190857
 20
55.0413150787354
 30
0.0
 11
-694.613089561462
 21
55.0413150787354
 31
0.0
  0
LINE
  5
   416
  8
0
  6
CONTINUOUS
 62
     7
 10
-669.925597190857
 20
55.0413150787354
 30
0.0
 11
-669.925597190857
 21
58.6663150787354
 31
0.0
  0
LINE
  5
   417
  8
0
  6
CONTINUOUS
 62
     7
 10
-669.925597190857
 20
58.6663150787354
 30
0.0
 11
-694.613089561462
 21
58.6663150787354
 31
0.0
  0
LINE
  5
   418
  8
0
  6
CONTINUOUS
 62
     7
 10
-694.613090515137
 20
55.0413150787354
 30
0.0
 11
-694.613090515137
 21
58.6663150787354
 31
0.0
  0
LINE
  5
   419
  8
0
  6
CONTINUOUS
 62
     7
 10
-689.613090991974
 20
-2.70870971679688
 30
0.0
 11
-689.613090991974
 21
-0.458694458007813
 31
0.0
  0
LINE
  5
   41A
  8
0
  6
CONTINUOUS
 62
     7
 10
-687.613089561462
 20
-2.70870780944824
 30
0.0
 11
-687.613089561462
 21
-0.458694458007813
 31
0.0
  0
LINE
  5
   41B
  8
0
  6
CONTINUOUS
 62
     7
 10
-694.612895011903
 20
-2.70872497558151
 30
0.0
 11
-694.612894058229
 21
-0.458709716792452
 31
0.0
  0
LINE
  5
   41C
  8
0
  6
CONTINUOUS
 62
   130
 10
-696.613090515233
 20
-4.70873069730274
 30
0.0
 11
-696.613088607885
 21
-4.20869445767872
 31
0.0
  0
LINE
  5
   41D
  8
0
  6
CONTINUOUS
 62
   130
 10
-630.863124835189
 20
-4.70876311992554
 30
0.0
 11
-631.863121020491
 21
-4.70874786113647
 31
0.0
  0
LINE
  5
   41E
  8
0
  6
CONTINUOUS
 62
   130
 10
-609.113098144531
 20
0.791278839111722
 30
0.0
 11
-609.113105773925
 21
65.2913093566899
 31
0.0
  0
LINE
  5
   41F
  8
0
  6
CONTINUOUS
 62
     7
 10
-645.462097167969
 20
-2.70869255065918
 30
0.0
 11
-645.462097167969
 21
-0.458677291870117
 31
0.0
  0
LINE
  5
   420
  8
0
  6
CONTINUOUS
 62
     7
 10
-647.488735198975
 20
-2.70871543884277
 30
0.0
 11
-647.488735198975
 21
-0.45867919921875
 31
0.0
  0
LINE
  5
   421
  8
0
  6
CONTINUOUS
 62
     7
 10
-658.613090515137
 20
49.0413150787354
 30
0.0
 11
-696.613090515137
 21
49.0413150787354
 31
0.0
  0
LINE
  5
   422
  8
0
  6
CONTINUOUS
 62
     7
 10
-658.613090515137
 20
34.2912883758545
 30
0.0
 11
-658.613090515137
 21
49.0413150787354
 31
0.0
  0
LINE
  5
   423
  8
0
  6
CONTINUOUS
 62
     7
 10
-696.613090515137
 20
34.2912998199463
 30
0.0
 11
-696.613090515137
 21
49.0413150787354
 31
0.0
  0
LINE
  5
   424
  8
0
  6
CONTINUOUS
 62
   150
 10
-696.613072395325
 20
1.41631317138672
 30
0.0
 11
-702.113096237183
 21
1.41631317138672
 31
0.0
  0
LINE
  5
   425
  8
0
  6
CONTINUOUS
 62
   150
 10
-696.613090515137
 20
53.916337966919
 30
0.0
 11
-702.113096237183
 21
53.916337966919
 31
0.0
  0
LINE
  5
   426
  8
0
  6
CONTINUOUS
 62
   150
 10
-704.863241413647
 20
1.66604108184256
 30
0.0
 11
-704.863098362495
 21
1.66707677216767
 31
0.0
  0
LINE
  5
   427
  8
0
  6
CONTINUOUS
 62
     7
 10
-693.11303138733
 20
-2.70870018004889
 30
0.0
 11
-693.113032341004
 21
-0.458696365351621
 31
0.0
  0
LINE
  5
   428
  8
0
  6
CONTINUOUS
 62
     7
 10
-632.863121032715
 20
55.7913150787354
 30
0.0
 11
-645.488121032715
 21
55.7913150787354
 31
0.0
  0
LINE
  5
   429
  8
0
  6
CONTINUOUS
 62
     7
 10
-647.488124847412
 20
55.7913150787354
 30
0.0
 11
-667.925592422485
 21
55.7913150787354
 31
0.0
  0
LINE
  5
   42A
  8
0
  6
CONTINUOUS
 62
     7
 10
-669.925592422485
 20
55.7913150787354
 30
0.0
 11
-693.113090515137
 21
55.7913150787354
 31
0.0
  0
LINE
  5
   42B
  8
0
  6
CONTINUOUS
 62
     7
 10
-693.488088713946
 20
55.4163231187788
 30
0.0
 11
-693.113088705708
 21
55.7913231270165
 31
0.0
  0
LINE
  5
   42C
  8
0
  6
CONTINUOUS
 62
     7
 10
-693.113090515137
 20
55.7913150787354
 30
0.0
 11
-693.113090515137
 21
58.6663150787354
 31
0.0
  0
CIRCLE
  5
   42D
  8
0
  6
CONTINUOUS
 62
   130
 10
-690.613131954099
 20
26.7912837381149
 30
0.0
 40
4.99999574190984
  0
CIRCLE
  5
   42E
  8
0
  6
CONTINUOUS
 62
   130
 10
-690.613127607127
 20
26.7912807432387
 30
0.0
 40
1.37500202053542
  0
CIRCLE
  5
   42F
  8
0
  6
CONTINUOUS
 62
   130
 10
-619.363102295875
 20
53.7912756086483
 30
0.0
 40
3.00003377345636
  0
CIRCLE
  5
   430
  8
0
  6
CONTINUOUS
 62
   130
 10
-619.363121787908
 20
53.7912978810009
 30
0.0
 40
1.62500474936432
  0
CIRCLE
  5
   431
  8
0
  6
CONTINUOUS
 62
   130
 10
-619.363122961808
 20
3.79130046879603
 30
0.0
 40
3.00000118551883
  0
CIRCLE
  5
   432
  8
0
  6
CONTINUOUS
 62
   130
 10
-619.363118110137
 20
3.79130472996029
 30
0.0
 40
1.62500420410752
  0
LINE
  5
   433
  8
0
  6
DASHDOT
 62
     7
 10
-619.363102295875
 20
50.291241835192
 30
0.0
 11
-619.363102295875
 21
57.2913093821047
 31
0.0
  0
LINE
  5
   434
  8
0
  6
DASHDOT
 62
     7
 10
-615.863068522419
 20
53.7912756086483
 30
0.0
 11
-622.863136069332
 21
53.7912756086483
 31
0.0
  0
LINE
  5
   435
  8
0
  6
DASHDOT
 62
     7
 10
-619.363122961808
 20
0.291299283277201
 30
0.0
 11
-619.363122961808
 21
7.29130165431487
 31
0.0
  0
LINE
  5
   436
  8
0
  6
DASHDOT
 62
     7
 10
-615.863121776289
 20
3.79130046879603
 30
0.0
 11
-622.863124147327
 21
3.79130046879603
 31
0.0
  0
LINE
  5
   437
  8
0
  6
CONTINUOUS
 62
     7
 10
-632.613121032715
 20
65.2913074493408
 30
0.0
 11
-632.613121032715
 21
68.7912921905518
 31
0.0
  0
LINE
  5
   438
  8
0
  6
CONTINUOUS
 62
     7
 10
-702.113098144531
 20
-46.5681119118824
 30
0.0
 11
-702.113098144531
 21
-9.33375549316406
 31
0.0
  0
LINE
  5
   439
  8
0
  6
CONTINUOUS
 62
     7
 10
-703.113098144531
 20
-46.736651237725
 30
0.0
 11
-703.113098144531
 21
1.41631317138672
 31
0.0
  0
LINE
  5
   43A
  8
0
  6
CONTINUOUS
 62
     7
 10
-705.711295831099
 20
-47.1745497242252
 30
0.0
 11
-699.226792654792
 21
-46.0816559304657
 31
0.0
  0
LINE
  5
   43B
  8
0
  6
CONTINUOUS
 62
     7
 10
-699.809669344797
 20
86.5956506319454
 30
0.0
 11
-704.326963692337
 21
87.8342635982062
 31
0.0
  0
LINE
  5
   43C
  8
0
  6
CONTINUOUS
 62
     7
 10
-703.113098144531
 20
53.916337966919
 30
0.0
 11
-703.113098144531
 21
87.5014294963885
 31
0.0
  0
LINE
  5
   43D
  8
0
  6
DASHDOT
 62
     7
 10
-690.613131954099
 20
21.2912879962051
 30
0.0
 11
-690.613131954099
 21
32.2912794800248
 31
0.0
  0
LINE
  5
   43E
  8
0
  6
DASHDOT
 62
     7
 10
-685.113136212189
 20
26.7912837381149
 30
0.0
 11
-696.113127696009
 21
26.7912837381149
 31
0.0
  0
LINE
  5
   43F
  8
0
  6
CONTINUOUS
 62
     7
 10
-698.113096237183
 20
10.7913455963135
 30
0.0
 11
-698.113096237183
 21
17.2912425994873
 31
0.0
  0
LINE
  5
   440
  8
0
  6
CONTINUOUS
 62
     1
 10
-703.113096237183
 20
-12.5837564468384
 30
0.0
 11
-703.113096237183
 21
67.9162435531616
 31
0.0
  0
LINE
  5
   441
  8
0
  6
CONTINUOUS
 62
     1
 10
-703.113096237183
 20
-12.5837564468384
 30
0.0
 11
-704.863096237183
 21
-12.5837564468384
 31
0.0
  0
LINE
  5
   442
  8
0
  6
CONTINUOUS
 62
     1
 10
-704.863096237183
 20
-12.5837564468384
 30
0.0
 11
-704.863096237183
 21
9.79124355316162
 31
0.0
  0
LINE
  5
   443
  8
0
  6
CONTINUOUS
 62
     1
 10
-704.863096237183
 20
18.2912425994873
 30
0.0
 11
-704.863096237183
 21
67.9162464141846
 31
0.0
  0
LINE
  5
   444
  8
0
  6
CONTINUOUS
 62
     1
 10
-703.113096237183
 20
67.9162464141846
 30
0.0
 11
-704.863096237183
 21
67.9162464141846
 31
0.0
  0
LINE
  5
   445
  8
0
  6
CONTINUOUS
 62
     1
 10
-702.113096237183
 20
29.1662464141846
 30
0.0
 11
-702.113096237183
 21
61.6662464141846
 31
0.0
  0
LINE
  5
   446
  8
0
  6
CONTINUOUS
 62
     1
 10
-702.113096237183
 20
17.2912464141846
 30
0.0
 11
-702.113096237183
 21
26.1662502288818
 31
0.0
  0
LINE
  5
   447
  8
0
  6
CONTINUOUS
 62
     7
 10
-699.863096237183
 20
-9.04508018493652
 30
0.0
 11
-699.863096237183
 21
-6.6224308013916
 31
0.0
  0
LINE
  5
   448
  8
0
  6
CONTINUOUS
 62
     7
 10
-699.863096237183
 20
61.9549198150635
 30
0.0
 11
-699.863096237183
 21
64.3775730133057
 31
0.0
  0
LINE
  5
   449
  8
0
  6
CONTINUOUS
 62
     7
 10
-699.863096237183
 20
26.4549198150635
 30
0.0
 11
-699.863096237183
 21
28.8775691986084
 31
0.0
  0
LINE
  5
   44A
  8
0
  6
CONTINUOUS
 62
     1
 10
-704.363096237183
 20
9.7912425994873
 30
0.0
 11
-704.863096237183
 21
9.7912425994873
 31
0.0
  0
LINE
  5
   44B
  8
0
  6
CONTINUOUS
 62
     1
 10
-704.363096237183
 20
18.2912425994873
 30
0.0
 11
-704.863096237183
 21
18.2912425994873
 31
0.0
  0
LINE
  5
   44C
  8
0
  6
CONTINUOUS
 62
     3
 10
-704.863096237183
 20
10.2912425994873
 30
0.0
 11
-704.863096237183
 21
17.7912425994873
 31
0.0
  0
LINE
  5
   44D
  8
0
  6
CONTINUOUS
 62
     7
 10
-704.363096237183
 20
10.2912425994873
 30
0.0
 11
-704.863096237183
 21
10.2912425994873
 31
0.0
  0
LINE
  5
   44E
  8
0
  6
CONTINUOUS
 62
     7
 10
-704.363096237183
 20
8.2912425994873
 30
0.0
 11
-704.363096237183
 21
10.2912425994873
 31
0.0
  0
LINE
  5
   44F
  8
0
  6
CONTINUOUS
 62
     7
 10
-703.863096237183
 20
8.2912425994873
 30
0.0
 11
-704.363096237183
 21
8.2912425994873
 31
0.0
  0
LINE
  5
   450
  8
0
  6
CONTINUOUS
 62
     7
 10
-703.863096237183
 20
8.2912425994873
 30
0.0
 11
-703.863096237183
 21
19.7912425994873
 31
0.0
  0
LINE
  5
   451
  8
0
  6
CONTINUOUS
 62
     7
 10
-703.863096237183
 20
19.7912425994873
 30
0.0
 11
-704.363096237183
 21
19.7912425994873
 31
0.0
  0
LINE
  5
   452
  8
0
  6
CONTINUOUS
 62
     7
 10
-704.363096237183
 20
17.7912425994873
 30
0.0
 11
-704.363096237183
 21
19.7912425994873
 31
0.0
  0
LINE
  5
   453
  8
0
  6
CONTINUOUS
 62
     7
 10
-704.363096237183
 20
17.7912425994873
 30
0.0
 11
-704.863096237183
 21
17.7912425994873
 31
0.0
  0
LINE
  5
   454
  8
0
  6
CONTINUOUS
 62
     7
 10
-698.113096237183
 20
10.7913455963135
 30
0.0
 11
-703.113096237183
 21
10.7913455963135
 31
0.0
  0
LINE
  5
   455
  8
0
  6
CONTINUOUS
 62
     7
 10
-698.113096237183
 20
17.2912425994873
 30
0.0
 11
-703.113096237183
 21
17.2912425994873
 31
0.0
  0
LINE
  5
   456
  8
0
  6
CONTINUOUS
 62
     1
 10
-704.863096237183
 20
9.79124641418457
 30
0.0
 11
-704.863096237183
 21
10.2912425994873
 31
0.0
  0
LINE
  5
   457
  8
0
  6
CONTINUOUS
 62
     1
 10
-704.863096237183
 20
17.7912425994873
 30
0.0
 11
-704.863096237183
 21
18.2912464141846
 31
0.0
  0
LINE
  5
   458
  8
0
  6
CONTINUOUS
 62
     7
 10
-700.363096237183
 20
-9.33375549316406
 30
0.0
 11
-703.113096237183
 21
-9.33375549316406
 31
0.0
  0
LINE
  5
   459
  8
0
  6
CONTINUOUS
 62
     7
 10
-700.363096237183
 20
-6.33375549316406
 30
0.0
 11
-703.113096237183
 21
-6.33375549316406
 31
0.0
  0
LINE
  5
   45A
  8
0
  6
CONTINUOUS
 62
     7
 10
-700.363096237183
 20
-6.44793510437012
 30
0.0
 11
-700.363096237183
 21
-6.33375549316406
 31
0.0
  0
LINE
  5
   45B
  8
0
  6
CONTINUOUS
 62
     7
 10
-700.363096237183
 20
-6.77309417724609
 30
0.0
 11
-700.363096237183
 21
-6.44793510437012
 31
0.0
  0
LINE
  5
   45C
  8
0
  6
CONTINUOUS
 62
     7
 10
-700.363096237183
 20
-7.25972938537598
 30
0.0
 11
-700.363096237183
 21
-6.77309417724609
 31
0.0
  0
LINE
  5
   45D
  8
0
  6
CONTINUOUS
 62
     7
 10
-700.363096237183
 20
-7.83375549316406
 30
0.0
 11
-700.363096237183
 21
-7.25972938537598
 31
0.0
  0
LINE
  5
   45E
  8
0
  6
CONTINUOUS
 62
     7
 10
-700.363096237183
 20
-8.40777969360352
 30
0.0
 11
-700.363096237183
 21
-7.83375549316406
 31
0.0
  0
LINE
  5
   45F
  8
0
  6
CONTINUOUS
 62
     7
 10
-700.363096237183
 20
-8.8944149017334
 30
0.0
 11
-700.363096237183
 21
-8.40777969360352
 31
0.0
  0
LINE
  5
   460
  8
0
  6
CONTINUOUS
 62
     7
 10
-700.363096237183
 20
-9.21957397460938
 30
0.0
 11
-700.363096237183
 21
-8.8944149017334
 31
0.0
  0
LINE
  5
   461
  8
0
  6
CONTINUOUS
 62
     7
 10
-700.363096237183
 20
-9.33375549316406
 30
0.0
 11
-700.363096237183
 21
-9.21957397460938
 31
0.0
  0
LINE
  5
   462
  8
0
  6
CONTINUOUS
 62
     7
 10
-700.363095637878
 20
-9.33375590611481
 30
0.0
 11
-699.863095621414
 21
-9.04508061385826
 31
0.0
  0
LINE
  5
   463
  8
0
  6
CONTINUOUS
 62
     7
 10
-699.863095160668
 20
-6.62243170252942
 30
0.0
 11
-700.363095177132
 21
-6.33375641027288
 31
0.0
  0
LINE
  5
   464
  8
0
  6
CONTINUOUS
 62
     7
 10
-700.363096237183
 20
61.6662464141846
 30
0.0
 11
-703.113096237183
 21
61.6662464141846
 31
0.0
  0
LINE
  5
   465
  8
0
  6
CONTINUOUS
 62
     7
 10
-700.363096237183
 20
64.6662464141846
 30
0.0
 11
-703.113096237183
 21
64.6662464141846
 31
0.0
  0
LINE
  5
   466
  8
0
  6
CONTINUOUS
 62
     7
 10
-700.363096237183
 20
64.5520648956299
 30
0.0
 11
-700.363096237183
 21
64.6662464141846
 31
0.0
  0
LINE
  5
   467
  8
0
  6
CONTINUOUS
 62
     7
 10
-700.363096237183
 20
64.2269077301025
 30
0.0
 11
-700.363096237183
 21
64.5520648956299
 31
0.0
  0
LINE
  5
   468
  8
0
  6
CONTINUOUS
 62
     7
 10
-700.363096237183
 20
63.7402667999268
 30
0.0
 11
-700.363096237183
 21
64.2269077301025
 31
0.0
  0
LINE
  5
   469
  8
0
  6
CONTINUOUS
 62
     7
 10
-700.363096237183
 20
63.1662464141846
 30
0.0
 11
-700.363096237183
 21
63.7402667999268
 31
0.0
  0
LINE
  5
   46A
  8
0
  6
CONTINUOUS
 62
     7
 10
-700.363096237183
 20
62.5922183990479
 30
0.0
 11
-700.363096237183
 21
63.1662464141846
 31
0.0
  0
LINE
  5
   46B
  8
0
  6
CONTINUOUS
 62
     7
 10
-700.363096237183
 20
62.1055850982666
 30
0.0
 11
-700.363096237183
 21
62.5922183990479
 31
0.0
  0
LINE
  5
   46C
  8
0
  6
CONTINUOUS
 62
     7
 10
-700.363096237183
 20
61.7804279327393
 30
0.0
 11
-700.363096237183
 21
62.1055850982666
 31
0.0
  0
LINE
  5
   46D
  8
0
  6
CONTINUOUS
 62
     7
 10
-700.363096237183
 20
61.6662464141846
 30
0.0
 11
-700.363096237183
 21
61.7804279327393
 31
0.0
  0
LINE
  5
   46E
  8
0
  6
CONTINUOUS
 62
     7
 10
-700.363096327889
 20
61.6662453416178
 30
0.0
 11
-699.863096311426
 21
61.954918746116
 31
0.0
  0
LINE
  5
   46F
  8
0
  6
CONTINUOUS
 62
     7
 10
-699.863095502261
 20
64.377571746392
 30
0.0
 11
-700.363095518724
 21
64.6662451508902
 31
0.0
  0
LINE
  5
   470
  8
0
  6
CONTINUOUS
 62
     7
 10
-700.363096237183
 20
26.1662464141846
 30
0.0
 11
-703.113096237183
 21
26.1662464141846
 31
0.0
  0
LINE
  5
   471
  8
0
  6
CONTINUOUS
 62
     7
 10
-700.363096237183
 20
29.1662464141846
 30
0.0
 11
-703.113096237183
 21
29.1662464141846
 31
0.0
  0
LINE
  5
   472
  8
0
  6
CONTINUOUS
 62
     7
 10
-700.363096237183
 20
29.0520648956299
 30
0.0
 11
-700.363096237183
 21
29.1662464141846
 31
0.0
  0
LINE
  5
   473
  8
0
  6
CONTINUOUS
 62
     7
 10
-700.363096237183
 20
28.7269039154053
 30
0.0
 11
-700.363096237183
 21
29.0520648956299
 31
0.0
  0
LINE
  5
   474
  8
0
  6
CONTINUOUS
 62
     7
 10
-700.363096237183
 20
28.240270614624
 30
0.0
 11
-700.363096237183
 21
28.7269039154053
 31
0.0
  0
LINE
  5
   475
  8
0
  6
CONTINUOUS
 62
     7
 10
-700.363096237183
 20
27.6662464141846
 30
0.0
 11
-700.363096237183
 21
28.240270614624
 31
0.0
  0
LINE
  5
   476
  8
0
  6
CONTINUOUS
 62
     7
 10
-700.363096237183
 20
27.0922183990479
 30
0.0
 11
-700.363096237183
 21
27.6662464141846
 31
0.0
  0
LINE
  5
   477
  8
0
  6
CONTINUOUS
 62
     7
 10
-700.363096237183
 20
26.6055850982666
 30
0.0
 11
-700.363096237183
 21
27.0922183990479
 31
0.0
  0
LINE
  5
   478
  8
0
  6
CONTINUOUS
 62
     7
 10
-700.363096237183
 20
26.280424118042
 30
0.0
 11
-700.363096237183
 21
26.6055850982666
 31
0.0
  0
LINE
  5
   479
  8
0
  6
CONTINUOUS
 62
     7
 10
-700.363096237183
 20
26.1662464141846
 30
0.0
 11
-700.363096237183
 21
26.280424118042
 31
0.0
  0
LINE
  5
   47A
  8
0
  6
CONTINUOUS
 62
     7
 10
-700.363096169174
 20
26.1662457997895
 30
0.0
 11
-699.863096152711
 21
26.4549192042877
 31
0.0
  0
LINE
  5
   47B
  8
0
  6
CONTINUOUS
 62
     7
 10
-699.863095437383
 20
28.8775680730145
 30
0.0
 11
-700.363095453846
 21
29.1662452874469
 31
0.0
  0
LINE
  5
   47C
  8
0
  6
CONTINUOUS
 62
     7
 10
-702.113098144531
 20
-6.08375549316406
 30
0.0
 11
-703.113096237183
 21
-6.08375549316406
 31
0.0
  0
LINE
  5
   47D
  8
0
  6
CONTINUOUS
 62
     7
 10
-702.113098144531
 20
-9.58375549316406
 30
0.0
 11
-703.113096237183
 21
-9.58375549316406
 31
0.0
  0
LINE
  5
   47E
  8
0
  6
CONTINUOUS
 62
     7
 10
-702.113098144531
 20
-6.33375549316406
 30
0.0
 11
-702.113098144531
 21
10.7912502288818
 31
0.0
  0
LINE
  5
   47F
  8
0
  6
CONTINUOUS
 62
     7
 10
-702.113096237183
 20
10.2913455963135
 30
0.0
 11
-703.113096237183
 21
10.2913455963135
 31
0.0
  0
LINE
  5
   480
  8
0
  6
CONTINUOUS
 62
     7
 10
-702.113096237183
 20
17.7912425994873
 30
0.0
 11
-703.113096237183
 21
17.7912425994873
 31
0.0
  0
LINE
  5
   481
  8
0
  6
CONTINUOUS
 62
     7
 10
-702.113096237183
 20
29.4162464141846
 30
0.0
 11
-703.113096237183
 21
29.4162464141846
 31
0.0
  0
LINE
  5
   482
  8
0
  6
CONTINUOUS
 62
     7
 10
-702.113096237183
 20
25.9162464141846
 30
0.0
 11
-703.113096237183
 21
25.9162464141846
 31
0.0
  0
LINE
  5
   483
  8
0
  6
CONTINUOUS
 62
     7
 10
-702.113098144531
 20
64.6662464141846
 30
0.0
 11
-702.113098144531
 21
87.2272359480014
 31
0.0
  0
LINE
  5
   484
  8
0
  6
CONTINUOUS
 62
     7
 10
-702.113098144531
 20
64.9162464141846
 30
0.0
 11
-703.113096237183
 21
64.9162464141846
 31
0.0
  0
LINE
  5
   485
  8
0
  6
CONTINUOUS
 62
     7
 10
-702.113098144531
 20
61.4162464141846
 30
0.0
 11
-703.113096237183
 21
61.4162464141846
 31
0.0
  0
INSERT
  5
   486
  8
0
  6
CONTINUOUS
 62
     7
  2
*HATCH76
 10
-683.363098144531
 20
-27.3271923065186
 30
0.0
 41
0.5
 42
0.5
 50
89.9999999480344
 43
0.5
  0
INSERT
  5
   487
  8
0
  6
CONTINUOUS
 62
     7
  2
*HATCH77
 10
-683.363098144531
 20
-27.3271923065186
 30
0.0
 41
0.5
 42
0.5
 50
89.9999999480344
 43
0.5
  0
INSERT
  5
   488
  8
0
  6
CONTINUOUS
 62
     7
  2
*HATCH78
 10
-683.363098144531
 20
-27.3271923065186
 30
0.0
 41
0.5
 42
0.5
 50
89.9999999480344
 43
0.5
  0
INSERT
  5
   489
  8
0
  6
CONTINUOUS
 62
     7
  2
*HATCH79
 10
-683.363098144531
 20
-27.3271923065186
 30
0.0
 41
0.5
 42
0.5
 50
89.9999999480344
 43
0.5
  0
INSERT
  5
   48A
  8
0
  6
CONTINUOUS
 62
     7
  2
*HATCH80
 10
-683.363098144531
 20
-27.3271923065186
 30
0.0
 41
0.5
 42
0.5
 50
89.9999999480344
 43
0.5
  0
CIRCLE
  5
   48B
  8
0
  6
CONTINUOUS
 62
     7
 10
-702.911405619374
 20
-44.1715745709696
 30
0.0
 40
0.125
  0
LINE
  5
   48C
  8
0
  6
DASHDOT
 62
     7
 10
-571.85490511753
 20
27.6663379669189
 30
0.0
 11
-710.683899708236
 21
27.6663379669189
 31
0.0
  0
LINE
  5
   48D
  8
0
  6
CONTINUOUS
 62
     7
 10
-632.863121032715
 20
91.5413150787353
 30
0.0
 11
-682.11311340332
 21
91.5413150787353
 31
0.0
  0
LINE
  5
   48E
  8
0
  6
CONTINUOUS
 62
     7
 10
-682.61311340332
 20
78.5413321685614
 30
0.0
 11
-682.61311340332
 21
91.0413150787354
 31
0.0
  0
LINE
  5
   48F
  8
0
  6
CONTINUOUS
 62
     7
 10
-682.61311340332
 20
-37.4586525726495
 30
0.0
 11
-682.61311340332
 21
-25.2086602020443
 31
0.0
  0
LINE
  5
   490
  8
0
  6
CONTINUOUS
 62
     7
 10
-632.863120555878
 20
-37.9586525726495
 30
0.0
 11
-682.11311340332
 21
-37.9586525726495
 31
0.0
  0
ARC
  5
   491
  8
0
  6
CONTINUOUS
 62
     7
 10
-682.11311340332
 20
-37.4586525726495
 30
0.0
 40
0.5
 50
179.999999948034
 51
269.999999948034
  0
LINE
  5
   492
  8
0
  6
CONTINUOUS
 62
     7
 10
-682.11311340332
 20
-25.2086602020443
 30
0.0
 11
-682.11311340332
 21
-24.7086602020443
 31
0.0
  0
LINE
  5
   493
  8
0
  6
CONTINUOUS
 62
     7
 10
-682.11311340332
 20
-25.2086602020443
 30
0.0
 11
-682.61311340332
 21
-25.2086602020443
 31
0.0
  0
ARC
  5
   494
  8
0
  6
CONTINUOUS
 62
     7
 10
-682.11311340332
 20
91.0413150787354
 30
0.0
 40
0.5
 50
89.9999999480344
 51
179.999999948034
  0
LINE
  5
   495
  8
0
  6
CONTINUOUS
 62
     7
 10
-682.11311340332
 20
78.5413321685614
 30
0.0
 11
-682.61311340332
 21
78.5413321685614
 31
0.0
  0
LINE
  5
   496
  8
0
  6
CONTINUOUS
 62
     7
 10
-682.11311340332
 20
78.0413321685614
 30
0.0
 11
-682.11311340332
 21
78.5413321685614
 31
0.0
  0
LINE
  5
   497
  8
0
  6
CONTINUOUS
 62
   253
 10
-607.863121032715
 20
75.2912998199463
 30
0.0
 11
-607.863121032715
 21
87.2912998199463
 31
0.0
  0
LINE
  5
   498
  8
0
  6
CONTINUOUS
 62
   253
 10
-599.863121032715
 20
75.7912998199463
 30
0.0
 11
-599.863121032715
 21
86.7912998199463
 31
0.0
  0
LINE
  5
   499
  8
0
  6
CONTINUOUS
 62
   253
 10
-607.863121032715
 20
-33.7086973190308
 30
0.0
 11
-607.863121032715
 21
-21.7086973190308
 31
0.0
  0
LINE
  5
   49A
  8
0
  6
CONTINUOUS
 62
   253
 10
-599.863121032715
 20
-33.2086973190308
 30
0.0
 11
-599.863121032715
 21
-22.2086973190308
 31
0.0
  0
LINE
  5
   49B
  8
0
  6
CONTINUOUS
 62
     7
 10
-592.963119506836
 20
75.7913026809692
 30
0.0
 11
-592.963119506836
 21
78.5075550079346
 31
0.0
  0
LINE
  5
   49C
  8
0
  6
CONTINUOUS
 62
     7
 10
-592.963119506836
 20
78.648063659668
 30
0.0
 11
-592.963119506836
 21
83.9345364570618
 31
0.0
  0
LINE
  5
   49D
  8
0
  6
CONTINUOUS
 62
     7
 10
-592.963119506836
 20
84.0750503540039
 30
0.0
 11
-592.963119506836
 21
86.7913026809692
 31
0.0
  0
LINE
  5
   49E
  8
0
  6
CONTINUOUS
 62
     7
 10
-591.713119506836
 20
75.7913026809692
 30
0.0
 11
-591.713119506836
 21
86.7913026809692
 31
0.0
  0
LINE
  5
   49F
  8
0
  6
CONTINUOUS
 62
     7
 10
-588.713119506836
 20
75.7913026809692
 30
0.0
 11
-588.713119506836
 21
86.7913026809692
 31
0.0
  0
LINE
  5
   4A0
  8
0
  6
CONTINUOUS
 62
     7
 10
-587.463119506836
 20
84.0750503540039
 30
0.0
 11
-587.463119506836
 21
86.7913026809692
 31
0.0
  0
LINE
  5
   4A1
  8
0
  6
CONTINUOUS
 62
     7
 10
-587.463119506836
 20
78.648063659668
 30
0.0
 11
-587.463119506836
 21
83.9345364570618
 31
0.0
  0
LINE
  5
   4A2
  8
0
  6
CONTINUOUS
 62
     7
 10
-587.463119506836
 20
75.7913026809692
 30
0.0
 11
-587.463119506836
 21
78.5075550079346
 31
0.0
  0
LINE
  5
   4A3
  8
0
  6
CONTINUOUS
 62
     7
 10
-599.463119506836
 20
84.7282042503357
 30
0.0
 11
-599.463119506836
 21
86.1080203056335
 31
0.0
  0
LINE
  5
   4A4
  8
0
  6
CONTINUOUS
 62
     7
 10
-599.463119506836
 20
79.7358521223068
 30
0.0
 11
-599.463119506836
 21
82.8467484712601
 31
0.0
  0
LINE
  5
   4A5
  8
0
  6
CONTINUOUS
 62
     7
 10
-599.463119506836
 20
76.4745845794678
 30
0.0
 11
-599.463119506836
 21
77.8543982505798
 31
0.0
  0
LINE
  5
   4A6
  8
0
  6
CONTINUOUS
 62
     3
 10
-592.963119506836
 20
83.9345374107361
 30
0.0
 11
-592.963119506836
 21
84.0750505924225
 31
0.0
  0
LINE
  5
   4A7
  8
0
  6
CONTINUOUS
 62
     3
 10
-592.963119506836
 20
78.5075535774231
 30
0.0
 11
-592.963119506836
 21
78.6480617523193
 31
0.0
  0
LINE
  5
   4A8
  8
0
  6
CONTINUOUS
 62
     3
 10
-595.963119506836
 20
75.8064751625061
 30
0.0
 11
-595.963119506836
 21
86.7761301994324
 31
0.0
  0
LINE
  5
   4A9
  8
0
  6
CONTINUOUS
 62
     3
 10
-587.463119506836
 20
78.5075540542603
 30
0.0
 11
-587.463119506836
 21
78.6480619907379
 31
0.0
  0
LINE
  5
   4AA
  8
0
  6
CONTINUOUS
 62
     3
 10
-587.463119506836
 20
83.9345383644104
 30
0.0
 11
-587.463119506836
 21
84.0750510692597
 31
0.0
  0
LINE
  5
   4AB
  8
0
  6
CONTINUOUS
 62
     3
 10
-584.463119506836
 20
75.8064751625061
 30
0.0
 11
-584.463119506836
 21
86.7761301994324
 31
0.0
  0
LINE
  5
   4AC
  8
0
  6
CONTINUOUS
 62
     3
 10
-596.463119506836
 20
75.8064751625061
 30
0.0
 11
-596.463119506836
 21
86.7761301994324
 31
0.0
  0
LINE
  5
   4AD
  8
0
  6
CONTINUOUS
 62
     3
 10
-599.463119506836
 20
75.8064751625061
 30
0.0
 11
-599.463119506836
 21
76.4745850563049
 31
0.0
  0
LINE
  5
   4AE
  8
0
  6
CONTINUOUS
 62
     3
 10
-599.463119506836
 20
77.8543984889984
 30
0.0
 11
-599.463119506836
 21
79.7358492612839
 31
0.0
  0
LINE
  5
   4AF
  8
0
  6
CONTINUOUS
 62
     3
 10
-599.463119506836
 20
82.8467571735382
 30
0.0
 11
-599.463119506836
 21
84.7282061576843
 31
0.0
  0
LINE
  5
   4B0
  8
0
  6
CONTINUOUS
 62
     3
 10
-599.463119506836
 20
86.1080198287964
 30
0.0
 11
-599.463119506836
 21
86.7761301994324
 31
0.0
  0
LINE
  5
   4B1
  8
0
  6
CONTINUOUS
 62
   212
 10
-583.113121032715
 20
79.2913028001785
 30
0.0
 11
-583.113121032715
 21
83.2913028001785
 31
0.0
  0
LINE
  5
   4B2
  8
0
  6
CONTINUOUS
 62
   253
 10
-599.863098144531
 20
86.7912998199463
 30
0.0
 11
-599.863098144531
 21
87.2913074493408
 31
0.0
  0
LINE
  5
   4B3
  8
0
  6
CONTINUOUS
 62
   253
 10
-599.863098144531
 20
75.2913074493408
 30
0.0
 11
-599.863098144531
 21
75.7912998199463
 31
0.0
  0
LINE
  5
   4B4
  8
0
  6
CONTINUOUS
 62
   253
 10
-599.863098144531
 20
-22.2086973190308
 30
0.0
 11
-599.863098144531
 21
-21.7086925506592
 31
0.0
  0
LINE
  5
   4B5
  8
0
  6
CONTINUOUS
 62
   253
 10
-599.863098144531
 20
-33.7086925506592
 30
0.0
 11
-599.863098144531
 21
-33.2086973190308
 31
0.0
  0
LINE
  5
   4B6
  8
0
  6
CONTINUOUS
 62
     7
 10
-562.713119506836
 20
75.7913074493408
 30
0.0
 11
-562.713119506836
 21
86.7913074493408
 31
0.0
  0
LINE
  5
   4B7
  8
0
  6
CONTINUOUS
 62
     7
 10
-561.463119506836
 20
84.075044631958
 30
0.0
 11
-561.463119506836
 21
86.7913074493408
 31
0.0
  0
LINE
  5
   4B8
  8
0
  6
CONTINUOUS
 62
     7
 10
-561.463119506836
 20
78.6480655670166
 30
0.0
 11
-561.463119506836
 21
83.9345417022705
 31
0.0
  0
LINE
  5
   4B9
  8
0
  6
CONTINUOUS
 62
     7
 10
-561.463119506836
 20
75.7913074493408
 30
0.0
 11
-561.463119506836
 21
78.5075550079346
 31
0.0
  0
LINE
  5
   4BA
  8
0
  6
CONTINUOUS
 62
     7
 10
-566.963119506836
 20
75.7913074493408
 30
0.0
 11
-566.963119506836
 21
78.5075550079346
 31
0.0
  0
LINE
  5
   4BB
  8
0
  6
CONTINUOUS
 62
     7
 10
-566.963119506836
 20
78.6480655670166
 30
0.0
 11
-566.963119506836
 21
83.9345417022705
 31
0.0
  0
LINE
  5
   4BC
  8
0
  6
CONTINUOUS
 62
     7
 10
-566.963119506836
 20
84.075044631958
 30
0.0
 11
-566.963119506836
 21
86.7913074493408
 31
0.0
  0
LINE
  5
   4BD
  8
0
  6
CONTINUOUS
 62
     7
 10
-565.713119506836
 20
75.7913074493408
 30
0.0
 11
-565.713119506836
 21
86.7913074493408
 31
0.0
  0
LINE
  5
   4BE
  8
0
  6
CONTINUOUS
 62
     7
 10
-566.963119506836
 20
-33.2086925506592
 30
0.0
 11
-566.963119506836
 21
-30.4924416542053
 31
0.0
  0
LINE
  5
   4BF
  8
0
  6
CONTINUOUS
 62
     7
 10
-566.963119506836
 20
-30.3519299030304
 30
0.0
 11
-566.963119506836
 21
-25.0654561519623
 31
0.0
  0
LINE
  5
   4C0
  8
0
  6
CONTINUOUS
 62
     7
 10
-566.963119506836
 20
-24.9249455928802
 30
0.0
 11
-566.963119506836
 21
-22.2086925506592
 31
0.0
  0
LINE
  5
   4C1
  8
0
  6
CONTINUOUS
 62
     7
 10
-565.713119506836
 20
-33.2086925506592
 30
0.0
 11
-565.713119506836
 21
-22.2086925506592
 31
0.0
  0
LINE
  5
   4C2
  8
0
  6
CONTINUOUS
 62
     7
 10
-562.713119506836
 20
-33.2086925506592
 30
0.0
 11
-562.713119506836
 21
-22.2086925506592
 31
0.0
  0
LINE
  5
   4C3
  8
0
  6
CONTINUOUS
 62
     7
 10
-561.463119506836
 20
-24.924946308136
 30
0.0
 11
-561.463119506836
 21
-22.2086925506592
 31
0.0
  0
LINE
  5
   4C4
  8
0
  6
CONTINUOUS
 62
     7
 10
-561.463119506836
 20
-30.351930141449
 30
0.0
 11
-561.463119506836
 21
-25.065456867218
 31
0.0
  0
LINE
  5
   4C5
  8
0
  6
CONTINUOUS
 62
     7
 10
-561.463119506836
 20
-33.2086925506592
 30
0.0
 11
-561.463119506836
 21
-30.4924421310425
 31
0.0
  0
LINE
  5
   4C6
  8
0
  6
CONTINUOUS
 62
     7
 10
-573.863121032715
 20
76.2913074493408
 30
0.0
 11
-573.863121032715
 21
86.2913074493408
 31
0.0
  0
LINE
  5
   4C7
  8
0
  6
CONTINUOUS
 62
     7
 10
-573.463119506836
 20
84.7282047271729
 30
0.0
 11
-573.463119506836
 21
86.1080265045166
 31
0.0
  0
LINE
  5
   4C8
  8
0
  6
CONTINUOUS
 62
     7
 10
-573.463119506836
 20
79.7358493804932
 30
0.0
 11
-573.463119506836
 21
82.846757888794
 31
0.0
  0
LINE
  5
   4C9
  8
0
  6
CONTINUOUS
 62
     7
 10
-573.463119506836
 20
76.4745960235596
 30
0.0
 11
-573.463119506836
 21
77.8544101715088
 31
0.0
  0
LINE
  5
   4CA
  8
0
  6
CONTINUOUS
 62
     7
 10
-573.863121032715
 20
-32.7086925506592
 30
0.0
 11
-573.863121032715
 21
-22.7086925506592
 31
0.0
  0
LINE
  5
   4CB
  8
0
  6
CONTINUOUS
 62
     7
 10
-573.463119506836
 20
-24.2717895507813
 30
0.0
 11
-573.463119506836
 21
-22.891975402832
 31
0.0
  0
LINE
  5
   4CC
  8
0
  6
CONTINUOUS
 62
     7
 10
-573.463119506836
 20
-29.2641438245773
 30
0.0
 11
-573.463119506836
 21
-26.1532419919968
 31
0.0
  0
LINE
  5
   4CD
  8
0
  6
CONTINUOUS
 62
     7
 10
-573.463119506836
 20
-32.5254106521606
 30
0.0
 11
-573.463119506836
 21
-31.1455976963043
 31
0.0
  0
LINE
  5
   4CE
  8
0
  6
CONTINUOUS
 62
     3
 10
-566.963119506836
 20
83.9345417022705
 30
0.0
 11
-566.963119506836
 21
84.0750522613525
 31
0.0
  0
LINE
  5
   4CF
  8
0
  6
CONTINUOUS
 62
     3
 10
-566.963119506836
 20
78.5075550079346
 30
0.0
 11
-566.963119506836
 21
78.6480731964111
 31
0.0
  0
LINE
  5
   4D0
  8
0
  6
CONTINUOUS
 62
     3
 10
-569.963119506836
 20
75.8064823150635
 30
0.0
 11
-569.963119506836
 21
86.7761325836182
 31
0.0
  0
LINE
  5
   4D1
  8
0
  6
CONTINUOUS
 62
     3
 10
-561.463119506836
 20
78.5075550079346
 30
0.0
 11
-561.463119506836
 21
78.6480731964111
 31
0.0
  0
LINE
  5
   4D2
  8
0
  6
CONTINUOUS
 62
     3
 10
-561.463119506836
 20
83.9345417022705
 30
0.0
 11
-561.463119506836
 21
84.0750522613525
 31
0.0
  0
LINE
  5
   4D3
  8
0
  6
CONTINUOUS
 62
     3
 10
-558.463119506836
 20
75.8064823150635
 30
0.0
 11
-558.463119506836
 21
86.7761325836182
 31
0.0
  0
LINE
  5
   4D4
  8
0
  6
CONTINUOUS
 62
     3
 10
-570.463119506836
 20
75.8064823150635
 30
0.0
 11
-570.463119506836
 21
86.7761325836182
 31
0.0
  0
LINE
  5
   4D5
  8
0
  6
CONTINUOUS
 62
     3
 10
-573.463119506836
 20
75.8064823150635
 30
0.0
 11
-573.463119506836
 21
76.474588394165
 31
0.0
  0
LINE
  5
   4D6
  8
0
  6
CONTINUOUS
 62
     3
 10
-573.463119506836
 20
77.8543949127197
 30
0.0
 11
-573.463119506836
 21
79.7358570098877
 31
0.0
  0
LINE
  5
   4D7
  8
0
  6
CONTINUOUS
 62
     3
 10
-573.463119506836
 20
82.846757888794
 30
0.0
 11
-573.463119506836
 21
84.7282047271729
 31
0.0
  0
LINE
  5
   4D8
  8
0
  6
CONTINUOUS
 62
     3
 10
-573.463119506836
 20
86.1080188751221
 30
0.0
 11
-573.463119506836
 21
86.7761325836182
 31
0.0
  0
LINE
  5
   4D9
  8
0
  6
CONTINUOUS
 62
     3
 10
-570.463119506836
 20
-33.1935200691223
 30
0.0
 11
-570.463119506836
 21
-22.223865032196
 31
0.0
  0
LINE
  5
   4DA
  8
0
  6
CONTINUOUS
 62
     3
 10
-573.463119506836
 20
-33.1935200691223
 30
0.0
 11
-573.463119506836
 21
-32.5254101753235
 31
0.0
  0
LINE
  5
   4DB
  8
0
  6
CONTINUOUS
 62
     3
 10
-573.463119506836
 20
-31.1455986499786
 30
0.0
 11
-573.463119506836
 21
-29.2641446590424
 31
0.0
  0
LINE
  5
   4DC
  8
0
  6
CONTINUOUS
 62
     3
 10
-573.463119506836
 20
-26.1532393693924
 30
0.0
 11
-573.463119506836
 21
-24.2717895507813
 31
0.0
  0
LINE
  5
   4DD
  8
0
  6
CONTINUOUS
 62
     3
 10
-573.463119506836
 20
-22.891975402832
 30
0.0
 11
-573.463119506836
 21
-22.223865032196
 31
0.0
  0
LINE
  5
   4DE
  8
0
  6
CONTINUOUS
 62
     3
 10
-566.963119506836
 20
-25.0654530525208
 30
0.0
 11
-566.963119506836
 21
-24.9249465465546
 31
0.0
  0
LINE
  5
   4DF
  8
0
  6
CONTINUOUS
 62
     3
 10
-566.963119506836
 20
-30.4924428462982
 30
0.0
 11
-566.963119506836
 21
-30.351930141449
 31
0.0
  0
LINE
  5
   4E0
  8
0
  6
CONTINUOUS
 62
     3
 10
-569.963119506836
 20
-33.1935200691223
 30
0.0
 11
-569.963119506836
 21
-22.223865032196
 31
0.0
  0
LINE
  5
   4E1
  8
0
  6
CONTINUOUS
 62
     3
 10
-561.463119506836
 20
-30.4924423694611
 30
0.0
 11
-561.463119506836
 21
-30.3519299030304
 31
0.0
  0
LINE
  5
   4E2
  8
0
  6
CONTINUOUS
 62
     3
 10
-561.463119506836
 20
-25.065452337265
 30
0.0
 11
-561.463119506836
 21
-24.9249460697174
 31
0.0
  0
LINE
  5
   4E3
  8
0
  6
CONTINUOUS
 62
     3
 10
-558.463119506836
 20
-33.1935200691223
 30
0.0
 11
-558.463119506836
 21
-22.223865032196
 31
0.0
  0
LINE
  5
   4E4
  8
0
  6
CONTINUOUS
 62
     7
 10
-557.113121032715
 20
79.2913074493408
 30
0.0
 11
-557.113121032715
 21
83.2913074493408
 31
0.0
  0
LINE
  5
   4E5
  8
0
  6
CONTINUOUS
 62
   212
 10
-557.113121032715
 20
-29.7086925506592
 30
0.0
 11
-557.113121032715
 21
-25.7086925506592
 31
0.0
  0
LINE
  5
   4E6
  8
0
  6
CONTINUOUS
 62
   253
 10
-600.363121032715
 20
87.2912998199463
 30
0.0
 11
-607.863121032715
 21
87.2912998199463
 31
0.0
  0
LINE
  5
   4E7
  8
0
  6
CONTINUOUS
 62
   253
 10
-600.363121032715
 20
75.2912998199463
 30
0.0
 11
-607.863121032715
 21
75.2912998199463
 31
0.0
  0
LINE
  5
   4E8
  8
0
  6
CONTINUOUS
 62
   253
 10
-599.863122199749
 20
86.7912976048847
 30
0.0
 11
-600.363122182635
 21
87.2912975877705
 31
0.0
  0
LINE
  5
   4E9
  8
0
  6
CONTINUOUS
 62
   253
 10
-600.363124041561
 20
75.2912964753433
 30
0.0
 11
-599.863124058676
 21
75.791296458229
 31
0.0
  0
LINE
  5
   4EA
  8
0
  6
CONTINUOUS
 62
   253
 10
-600.363121032715
 20
-21.7086973190308
 30
0.0
 11
-607.863121032715
 21
-21.7086973190308
 31
0.0
  0
LINE
  5
   4EB
  8
0
  6
CONTINUOUS
 62
   253
 10
-600.363121032715
 20
-33.7086973190308
 30
0.0
 11
-607.863121032715
 21
-33.7086973190308
 31
0.0
  0
LINE
  5
   4EC
  8
0
  6
CONTINUOUS
 62
   253
 10
-599.863123132477
 20
-22.2086967359091
 30
0.0
 11
-600.363123115363
 21
-21.7086967530234
 31
0.0
  0
LINE
  5
   4ED
  8
0
  6
CONTINUOUS
 62
   253
 10
-600.363123108834
 20
-33.7086978654506
 30
0.0
 11
-599.863123125948
 21
-33.2086978825649
 31
0.0
  0
LINE
  5
   4EE
  8
0
  6
CONTINUOUS
 62
     7
 10
-591.713119506836
 20
86.7913026809692
 30
0.0
 11
-592.963119506836
 21
86.7913026809692
 31
0.0
  0
LINE
  5
   4EF
  8
0
  6
CONTINUOUS
 62
     7
 10
-591.713119506836
 20
75.7913026809692
 30
0.0
 11
-592.963119506836
 21
75.7913026809692
 31
0.0
  0
LINE
  5
   4F0
  8
0
  6
CONTINUOUS
 62
     7
 10
-587.463119506836
 20
86.7913026809692
 30
0.0
 11
-588.713119506836
 21
86.7913026809692
 31
0.0
  0
LINE
  5
   4F1
  8
0
  6
CONTINUOUS
 62
     7
 10
-587.463119506836
 20
75.7913026809692
 30
0.0
 11
-588.713119506836
 21
75.7913026809692
 31
0.0
  0
LINE
  5
   4F2
  8
0
  6
CONTINUOUS
 62
     7
 10
-574.363098144531
 20
76.2912998199463
 30
0.0
 11
-584.463119506836
 21
76.2912998199463
 31
0.0
  0
LINE
  5
   4F3
  8
0
  6
CONTINUOUS
 62
     7
 10
-599.463119506836
 20
86.2913026809692
 30
0.0
 11
-599.863121032715
 21
86.2913026809692
 31
0.0
  0
LINE
  5
   4F4
  8
0
  6
CONTINUOUS
 62
     7
 10
-599.463119506836
 20
76.2913026809692
 30
0.0
 11
-599.863121032715
 21
76.2913026809692
 31
0.0
  0
LINE
  5
   4F5
  8
0
  6
CONTINUOUS
 62
     3
 10
-592.963119506836
 20
86.7761301994324
 30
0.0
 11
-595.963119506836
 21
86.7761301994324
 31
0.0
  0
LINE
  5
   4F6
  8
0
  6
CONTINUOUS
 62
     3
 10
-592.963119506836
 20
84.0337152481079
 30
0.0
 11
-595.963119506836
 21
84.0337152481079
 31
0.0
  0
LINE
  5
   4F7
  8
0
  6
CONTINUOUS
 62
     3
 10
-592.963119506836
 20
78.5488877296448
 30
0.0
 11
-595.963119506836
 21
78.5488877296448
 31
0.0
  0
LINE
  5
   4F8
  8
0
  6
CONTINUOUS
 62
     3
 10
-592.963119506836
 20
75.8064751625061
 30
0.0
 11
-595.963119506836
 21
75.8064751625061
 31
0.0
  0
LINE
  5
   4F9
  8
0
  6
CONTINUOUS
 62
     3
 10
-584.463119506836
 20
86.7761301994324
 30
0.0
 11
-587.463119506836
 21
86.7761301994324
 31
0.0
  0
LINE
  5
   4FA
  8
0
  6
CONTINUOUS
 62
     3
 10
-584.463119506836
 20
84.0337152481079
 30
0.0
 11
-587.463119506836
 21
84.0337152481079
 31
0.0
  0
LINE
  5
   4FB
  8
0
  6
CONTINUOUS
 62
     3
 10
-584.463119506836
 20
78.5488877296448
 30
0.0
 11
-587.463119506836
 21
78.5488877296448
 31
0.0
  0
LINE
  5
   4FC
  8
0
  6
CONTINUOUS
 62
     3
 10
-584.463119506836
 20
75.8064751625061
 30
0.0
 11
-587.463119506836
 21
75.8064751625061
 31
0.0
  0
LINE
  5
   4FD
  8
0
  6
CONTINUOUS
 62
     3
 10
-596.463119506836
 20
86.7761301994324
 30
0.0
 11
-599.463119506836
 21
86.7761301994324
 31
0.0
  0
LINE
  5
   4FE
  8
0
  6
CONTINUOUS
 62
     3
 10
-596.463119506836
 20
84.0337152481079
 30
0.0
 11
-599.463119506836
 21
84.0337152481079
 31
0.0
  0
LINE
  5
   4FF
  8
0
  6
CONTINUOUS
 62
     3
 10
-596.463119506836
 20
78.5488877296448
 30
0.0
 11
-599.463119506836
 21
78.5488877296448
 31
0.0
  0
LINE
  5
   500
  8
0
  6
CONTINUOUS
 62
     3
 10
-596.463119506836
 20
75.8064751625061
 30
0.0
 11
-599.463119506836
 21
75.8064751625061
 31
0.0
  0
LINE
  5
   501
  8
0
  6
CONTINUOUS
 62
   212
 10
-583.113117288699
 20
83.2913016061935
 30
0.0
 11
-584.113117254471
 21
84.2913014876712
 31
0.0
  0
LINE
  5
   502
  8
0
  6
CONTINUOUS
 62
   212
 10
-584.113123551665
 20
78.2913019184817
 30
0.0
 11
-583.113123585894
 21
79.2913018842532
 31
0.0
  0
LINE
  5
   503
  8
0
  6
CONTINUOUS
 62
   212
 10
-584.113121032715
 20
78.2913026809692
 30
0.0
 11
-584.113121032715
 21
78.4381330013275
 31
0.0
  0
LINE
  5
   504
  8
0
  6
CONTINUOUS
 62
   212
 10
-584.113121032715
 20
78.4381330013275
 30
0.0
 11
-584.113121032715
 21
78.8642513751984
 31
0.0
  0
LINE
  5
   505
  8
0
  6
CONTINUOUS
 62
   212
 10
-584.113121032715
 20
78.8642513751984
 30
0.0
 11
-584.113121032715
 21
79.527946472168
 31
0.0
  0
LINE
  5
   506
  8
0
  6
CONTINUOUS
 62
   212
 10
-584.113121032715
 20
79.527946472168
 30
0.0
 11
-584.113121032715
 21
80.3642510175705
 31
0.0
  0
LINE
  5
   507
  8
0
  6
CONTINUOUS
 62
   212
 10
-584.113121032715
 20
80.3642510175705
 30
0.0
 11
-584.113121032715
 21
81.2913019657135
 31
0.0
  0
LINE
  5
   508
  8
0
  6
CONTINUOUS
 62
   212
 10
-584.113121032715
 20
81.2913019657135
 30
0.0
 11
-584.113121032715
 21
82.2183529734612
 31
0.0
  0
LINE
  5
   509
  8
0
  6
CONTINUOUS
 62
   212
 10
-584.113121032715
 20
82.2183529734612
 30
0.0
 11
-584.113121032715
 21
83.0546579360962
 31
0.0
  0
LINE
  5
   50A
  8
0
  6
CONTINUOUS
 62
   212
 10
-584.113121032715
 20
83.0546579360962
 30
0.0
 11
-584.113121032715
 21
83.7183532714844
 31
0.0
  0
LINE
  5
   50B
  8
0
  6
CONTINUOUS
 62
   212
 10
-584.113121032715
 20
83.7183532714844
 30
0.0
 11
-584.113121032715
 21
84.1444721221924
 31
0.0
  0
LINE
  5
   50C
  8
0
  6
CONTINUOUS
 62
   212
 10
-584.113121032715
 20
84.1444721221924
 30
0.0
 11
-584.113121032715
 21
84.2913026809692
 31
0.0
  0
LINE
  5
   50D
  8
0
  6
CONTINUOUS
 62
   212
 10
-584.113121032715
 20
84.2913026809692
 30
0.0
 11
-584.463119506836
 21
84.2913026809692
 31
0.0
  0
LINE
  5
   50E
  8
0
  6
CONTINUOUS
 62
   212
 10
-588.713119506836
 20
84.2913026809692
 30
0.0
 11
-591.713119506836
 21
84.2913026809692
 31
0.0
  0
LINE
  5
   50F
  8
0
  6
CONTINUOUS
 62
   212
 10
-595.963119506836
 20
84.2913026809692
 30
0.0
 11
-596.463119506836
 21
84.2913026809692
 31
0.0
  0
LINE
  5
   510
  8
0
  6
CONTINUOUS
 62
   212
 10
-584.113121032715
 20
78.2913026809692
 30
0.0
 11
-584.463119506836
 21
78.2913026809692
 31
0.0
  0
LINE
  5
   511
  8
0
  6
CONTINUOUS
 62
   212
 10
-588.713119506836
 20
78.2913026809692
 30
0.0
 11
-591.713119506836
 21
78.2913026809692
 31
0.0
  0
LINE
  5
   512
  8
0
  6
CONTINUOUS
 62
   212
 10
-595.963119506836
 20
78.2913026809692
 30
0.0
 11
-596.463119506836
 21
78.2913026809692
 31
0.0
  0
LINE
  5
   513
  8
0
  6
CONTINUOUS
 62
   253
 10
-599.863098144531
 20
87.2913074493408
 30
0.0
 11
-600.363121032715
 21
87.2913074493408
 31
0.0
  0
LINE
  5
   514
  8
0
  6
CONTINUOUS
 62
   253
 10
-599.863098144531
 20
75.2913074493408
 30
0.0
 11
-600.363121032715
 21
75.2913074493408
 31
0.0
  0
LINE
  5
   515
  8
0
  6
CONTINUOUS
 62
   253
 10
-574.363098144531
 20
86.2913074493408
 30
0.0
 11
-584.463119506836
 21
86.2913074493408
 31
0.0
  0
LINE
  5
   516
  8
0
  6
CONTINUOUS
 62
   253
 10
-574.009542611386
 20
86.1448622189704
 30
0.0
 11
-574.363096383421
 21
86.2913084472535
 31
0.0
  0
LINE
  5
   517
  8
0
  6
CONTINUOUS
 62
   253
 10
-573.863097216763
 20
85.7913093169813
 30
0.0
 11
-574.009543445046
 21
86.1448630890159
 31
0.0
  0
LINE
  5
   518
  8
0
  6
CONTINUOUS
 62
   253
 10
-574.363095547789
 20
76.2913091610878
 30
0.0
 11
-574.009541775754
 21
76.4377553893709
 31
0.0
  0
LINE
  5
   519
  8
0
  6
CONTINUOUS
 62
   253
 10
-574.009542609414
 20
76.4377561905983
 30
0.0
 11
-573.863096381131
 21
76.7913099626329
 31
0.0
  0
LINE
  5
   51A
  8
0
  6
CONTINUOUS
 62
   253
 10
-599.863098144531
 20
-21.7086925506592
 30
0.0
 11
-600.363121032715
 21
-21.7086925506592
 31
0.0
  0
LINE
  5
   51B
  8
0
  6
CONTINUOUS
 62
   253
 10
-599.863098144531
 20
-33.7086925506592
 30
0.0
 11
-600.363121032715
 21
-33.7086925506592
 31
0.0
  0
LINE
  5
   51C
  8
0
  6
CONTINUOUS
 62
   253
 10
-595.963119506836
 20
86.2913074493408
 30
0.0
 11
-596.463119506836
 21
86.2913074493408
 31
0.0
  0
LINE
  5
   51D
  8
0
  6
CONTINUOUS
 62
   253
 10
-588.713119506836
 20
86.2913074493408
 30
0.0
 11
-591.713119506836
 21
86.2913074493408
 31
0.0
  0
LINE
  5
   51E
  8
0
  6
CONTINUOUS
 62
   253
 10
-574.363098144531
 20
-22.7086925506592
 30
0.0
 11
-584.463119506836
 21
-22.7086925506592
 31
0.0
  0
LINE
  5
   51F
  8
0
  6
CONTINUOUS
 62
   253
 10
-595.963119506836
 20
76.2913074493408
 30
0.0
 11
-596.463119506836
 21
76.2913074493408
 31
0.0
  0
LINE
  5
   520
  8
0
  6
CONTINUOUS
 62
   253
 10
-588.713119506836
 20
76.2913074493408
 30
0.0
 11
-591.713119506836
 21
76.2913074493408
 31
0.0
  0
LINE
  5
   521
  8
0
  6
CONTINUOUS
 62
   253
 10
-574.363098144531
 20
-32.7086925506592
 30
0.0
 11
-584.463119506836
 21
-32.7086925506592
 31
0.0
  0
LINE
  5
   522
  8
0
  6
CONTINUOUS
 62
   253
 10
-574.009550472777
 20
-22.8551382443499
 30
0.0
 11
-574.36310425507
 21
-22.7086915370626
 31
0.0
  0
LINE
  5
   523
  8
0
  6
CONTINUOUS
 62
   253
 10
-573.863104299281
 20
-23.2086910406185
 30
0.0
 11
-574.009550527564
 21
-22.8551377452955
 31
0.0
  0
LINE
  5
   524
  8
0
  6
CONTINUOUS
 62
   253
 10
-574.363104246845
 20
-32.708693537584
 30
0.0
 11
-574.009550464552
 21
-32.5622468302968
 31
0.0
  0
LINE
  5
   525
  8
0
  6
CONTINUOUS
 62
   253
 10
-574.009550514151
 20
-32.562247285702
 30
0.0
 11
-573.863104285868
 21
-32.208693990379
 31
0.0
  0
LINE
  5
   526
  8
0
  6
CONTINUOUS
 62
     7
 10
-561.463119506836
 20
86.7913074493408
 30
0.0
 11
-562.713119506836
 21
86.7913074493408
 31
0.0
  0
LINE
  5
   527
  8
0
  6
CONTINUOUS
 62
     7
 10
-561.463119506836
 20
75.7913074493408
 30
0.0
 11
-562.713119506836
 21
75.7913074493408
 31
0.0
  0
LINE
  5
   528
  8
0
  6
CONTINUOUS
 62
     7
 10
-565.713119506836
 20
86.7913074493408
 30
0.0
 11
-566.963119506836
 21
86.7913074493408
 31
0.0
  0
LINE
  5
   529
  8
0
  6
CONTINUOUS
 62
     7
 10
-565.713119506836
 20
75.7913074493408
 30
0.0
 11
-566.963119506836
 21
75.7913074493408
 31
0.0
  0
LINE
  5
   52A
  8
0
  6
CONTINUOUS
 62
     7
 10
-565.713119506836
 20
-22.2086925506592
 30
0.0
 11
-566.963119506836
 21
-22.2086925506592
 31
0.0
  0
LINE
  5
   52B
  8
0
  6
CONTINUOUS
 62
     7
 10
-565.713119506836
 20
-33.2086925506592
 30
0.0
 11
-566.963119506836
 21
-33.2086925506592
 31
0.0
  0
LINE
  5
   52C
  8
0
  6
CONTINUOUS
 62
     7
 10
-561.463119506836
 20
-22.2086925506592
 30
0.0
 11
-562.713119506836
 21
-22.2086925506592
 31
0.0
  0
LINE
  5
   52D
  8
0
  6
CONTINUOUS
 62
     7
 10
-561.463119506836
 20
-33.2086925506592
 30
0.0
 11
-562.713119506836
 21
-33.2086925506592
 31
0.0
  0
LINE
  5
   52E
  8
0
  6
CONTINUOUS
 62
     7
 10
-573.463119506836
 20
86.2913074493408
 30
0.0
 11
-573.863121032715
 21
86.2913074493408
 31
0.0
  0
LINE
  5
   52F
  8
0
  6
CONTINUOUS
 62
     7
 10
-573.463119506836
 20
76.2913074493408
 30
0.0
 11
-573.863121032715
 21
76.2913074493408
 31
0.0
  0
LINE
  5
   530
  8
0
  6
CONTINUOUS
 62
     7
 10
-573.463119506836
 20
-22.7086925506592
 30
0.0
 11
-573.863121032715
 21
-22.7086925506592
 31
0.0
  0
LINE
  5
   531
  8
0
  6
CONTINUOUS
 62
     7
 10
-573.463119506836
 20
-32.7086925506592
 30
0.0
 11
-573.863121032715
 21
-32.7086925506592
 31
0.0
  0
LINE
  5
   532
  8
0
  6
CONTINUOUS
 62
     3
 10
-566.963119506836
 20
86.7761325836182
 30
0.0
 11
-569.963119506836
 21
86.7761325836182
 31
0.0
  0
LINE
  5
   533
  8
0
  6
CONTINUOUS
 62
     3
 10
-566.963119506836
 20
75.8064823150635
 30
0.0
 11
-569.963119506836
 21
75.8064823150635
 31
0.0
  0
LINE
  5
   534
  8
0
  6
CONTINUOUS
 62
     3
 10
-566.963119506836
 20
84.0337162017822
 30
0.0
 11
-569.963119506836
 21
84.0337162017822
 31
0.0
  0
LINE
  5
   535
  8
0
  6
CONTINUOUS
 62
     3
 10
-566.963119506836
 20
78.5488910675049
 30
0.0
 11
-569.963119506836
 21
78.5488910675049
 31
0.0
  0
LINE
  5
   536
  8
0
  6
CONTINUOUS
 62
     3
 10
-558.463119506836
 20
86.7761325836182
 30
0.0
 11
-561.463119506836
 21
86.7761325836182
 31
0.0
  0
LINE
  5
   537
  8
0
  6
CONTINUOUS
 62
     3
 10
-558.463119506836
 20
75.8064823150635
 30
0.0
 11
-561.463119506836
 21
75.8064823150635
 31
0.0
  0
LINE
  5
   538
  8
0
  6
CONTINUOUS
 62
     3
 10
-558.463119506836
 20
78.5488910675049
 30
0.0
 11
-561.463119506836
 21
78.5488910675049
 31
0.0
  0
LINE
  5
   539
  8
0
  6
CONTINUOUS
 62
     3
 10
-558.463119506836
 20
84.0337162017822
 30
0.0
 11
-561.463119506836
 21
84.0337162017822
 31
0.0
  0
LINE
  5
   53A
  8
0
  6
CONTINUOUS
 62
     3
 10
-570.463119506836
 20
86.7761325836182
 30
0.0
 11
-573.463119506836
 21
86.7761325836182
 31
0.0
  0
LINE
  5
   53B
  8
0
  6
CONTINUOUS
 62
     3
 10
-570.463119506836
 20
75.8064823150635
 30
0.0
 11
-573.463119506836
 21
75.8064823150635
 31
0.0
  0
LINE
  5
   53C
  8
0
  6
CONTINUOUS
 62
     3
 10
-570.463119506836
 20
84.0337162017822
 30
0.0
 11
-573.463119506836
 21
84.0337162017822
 31
0.0
  0
LINE
  5
   53D
  8
0
  6
CONTINUOUS
 62
     3
 10
-570.463119506836
 20
78.5488910675049
 30
0.0
 11
-573.463119506836
 21
78.5488910675049
 31
0.0
  0
LINE
  5
   53E
  8
0
  6
CONTINUOUS
 62
     3
 10
-570.463119506836
 20
-22.223865032196
 30
0.0
 11
-573.463119506836
 21
-22.223865032196
 31
0.0
  0
LINE
  5
   53F
  8
0
  6
CONTINUOUS
 62
     3
 10
-570.463119506836
 20
-33.1935200691223
 30
0.0
 11
-573.463119506836
 21
-33.1935200691223
 31
0.0
  0
LINE
  5
   540
  8
0
  6
CONTINUOUS
 62
     3
 10
-570.463119506836
 20
-24.9662799835205
 30
0.0
 11
-573.463119506836
 21
-24.9662799835205
 31
0.0
  0
LINE
  5
   541
  8
0
  6
CONTINUOUS
 62
     3
 10
-570.463119506836
 20
-30.4511075019836
 30
0.0
 11
-573.463119506836
 21
-30.4511075019836
 31
0.0
  0
LINE
  5
   542
  8
0
  6
CONTINUOUS
 62
     3
 10
-566.963119506836
 20
-22.223865032196
 30
0.0
 11
-569.963119506836
 21
-22.223865032196
 31
0.0
  0
LINE
  5
   543
  8
0
  6
CONTINUOUS
 62
     3
 10
-566.963119506836
 20
-33.1935200691223
 30
0.0
 11
-569.963119506836
 21
-33.1935200691223
 31
0.0
  0
LINE
  5
   544
  8
0
  6
CONTINUOUS
 62
     3
 10
-566.963119506836
 20
-24.9662799835205
 30
0.0
 11
-569.963119506836
 21
-24.9662799835205
 31
0.0
  0
LINE
  5
   545
  8
0
  6
CONTINUOUS
 62
     3
 10
-566.963119506836
 20
-30.4511075019836
 30
0.0
 11
-569.963119506836
 21
-30.4511075019836
 31
0.0
  0
LINE
  5
   546
  8
0
  6
CONTINUOUS
 62
     3
 10
-558.463119506836
 20
-22.223865032196
 30
0.0
 11
-561.463119506836
 21
-22.223865032196
 31
0.0
  0
LINE
  5
   547
  8
0
  6
CONTINUOUS
 62
     3
 10
-558.463119506836
 20
-33.1935200691223
 30
0.0
 11
-561.463119506836
 21
-33.1935200691223
 31
0.0
  0
LINE
  5
   548
  8
0
  6
CONTINUOUS
 62
     3
 10
-558.463119506836
 20
-30.4511075019836
 30
0.0
 11
-561.463119506836
 21
-30.4511075019836
 31
0.0
  0
LINE
  5
   549
  8
0
  6
CONTINUOUS
 62
     3
 10
-558.463119506836
 20
-24.9662799835205
 30
0.0
 11
-561.463119506836
 21
-24.9662799835205
 31
0.0
  0
LINE
  5
   54A
  8
0
  6
CONTINUOUS
 62
     7
 10
-557.113123327152
 20
83.2913056899465
 30
0.0
 11
-558.113123292923
 21
84.291305655718
 31
0.0
  0
LINE
  5
   54B
  8
0
  6
CONTINUOUS
 62
     7
 10
-558.11312515185
 20
78.2913036661844
 30
0.0
 11
-557.113125186078
 21
79.2913036319559
 31
0.0
  0
LINE
  5
   54C
  8
0
  6
CONTINUOUS
 62
     7
 10
-558.113121032715
 20
84.2913074493408
 30
0.0
 11
-558.463119506836
 21
84.2913074493408
 31
0.0
  0
LINE
  5
   54D
  8
0
  6
CONTINUOUS
 62
     7
 10
-562.713119506836
 20
84.2913074493408
 30
0.0
 11
-565.713119506836
 21
84.2913074493408
 31
0.0
  0
LINE
  5
   54E
  8
0
  6
CONTINUOUS
 62
     7
 10
-569.963119506836
 20
84.2913074493408
 30
0.0
 11
-570.463119506836
 21
84.2913074493408
 31
0.0
  0
LINE
  5
   54F
  8
0
  6
CONTINUOUS
 62
     7
 10
-558.113121032715
 20
84.1444797515869
 30
0.0
 11
-558.113121032715
 21
84.2913074493408
 31
0.0
  0
LINE
  5
   550
  8
0
  6
CONTINUOUS
 62
     7
 10
-558.113121032715
 20
83.718355178833
 30
0.0
 11
-558.113121032715
 21
84.1444797515869
 31
0.0
  0
LINE
  5
   551
  8
0
  6
CONTINUOUS
 62
     7
 10
-558.113121032715
 20
83.0546588897705
 30
0.0
 11
-558.113121032715
 21
83.718355178833
 31
0.0
  0
LINE
  5
   552
  8
0
  6
CONTINUOUS
 62
     7
 10
-558.113121032715
 20
82.218355178833
 30
0.0
 11
-558.113121032715
 21
83.0546588897705
 31
0.0
  0
LINE
  5
   553
  8
0
  6
CONTINUOUS
 62
     7
 10
-558.113121032715
 20
81.2913074493408
 30
0.0
 11
-558.113121032715
 21
82.218355178833
 31
0.0
  0
LINE
  5
   554
  8
0
  6
CONTINUOUS
 62
     7
 10
-558.113121032715
 20
80.3642520904541
 30
0.0
 11
-558.113121032715
 21
81.2913074493408
 31
0.0
  0
LINE
  5
   555
  8
0
  6
CONTINUOUS
 62
     7
 10
-558.113121032715
 20
79.5279483795166
 30
0.0
 11
-558.113121032715
 21
80.3642520904541
 31
0.0
  0
LINE
  5
   556
  8
0
  6
CONTINUOUS
 62
     7
 10
-558.113121032715
 20
78.8642597198486
 30
0.0
 11
-558.113121032715
 21
79.5279483795166
 31
0.0
  0
LINE
  5
   557
  8
0
  6
CONTINUOUS
 62
     7
 10
-558.113121032715
 20
78.4381351470947
 30
0.0
 11
-558.113121032715
 21
78.8642597198486
 31
0.0
  0
LINE
  5
   558
  8
0
  6
CONTINUOUS
 62
     7
 10
-558.113121032715
 20
78.2913074493408
 30
0.0
 11
-558.463119506836
 21
78.2913074493408
 31
0.0
  0
LINE
  5
   559
  8
0
  6
CONTINUOUS
 62
     7
 10
-562.713119506836
 20
78.2913074493408
 30
0.0
 11
-565.713119506836
 21
78.2913074493408
 31
0.0
  0
LINE
  5
   55A
  8
0
  6
CONTINUOUS
 62
     7
 10
-569.963119506836
 20
78.2913074493408
 30
0.0
 11
-570.463119506836
 21
78.2913074493408
 31
0.0
  0
LINE
  5
   55B
  8
0
  6
CONTINUOUS
 62
     7
 10
-558.113121032715
 20
78.2913074493408
 30
0.0
 11
-558.113121032715
 21
78.4381351470947
 31
0.0
  0
LINE
  5
   55C
  8
0
  6
CONTINUOUS
 62
   212
 10
-557.11312425988
 20
-25.7086915118702
 30
0.0
 11
-558.113124225651
 21
-24.7086915460987
 31
0.0
  0
LINE
  5
   55D
  8
0
  6
CONTINUOUS
 62
   212
 10
-558.113124219122
 20
-30.7086935356323
 30
0.0
 11
-557.113124253351
 21
-29.7086935698609
 31
0.0
  0
LINE
  5
   55E
  8
0
  6
CONTINUOUS
 62
   212
 10
-558.113121032715
 20
-24.7086925506592
 30
0.0
 11
-558.463119506836
 21
-24.7086925506592
 31
0.0
  0
LINE
  5
   55F
  8
0
  6
CONTINUOUS
 62
   212
 10
-562.713119506836
 20
-24.7086925506592
 30
0.0
 11
-565.713119506836
 21
-24.7086925506592
 31
0.0
  0
LINE
  5
   560
  8
0
  6
CONTINUOUS
 62
   212
 10
-569.963119506836
 20
-24.7086925506592
 30
0.0
 11
-570.463119506836
 21
-24.7086925506592
 31
0.0
  0
LINE
  5
   561
  8
0
  6
CONTINUOUS
 62
   212
 10
-558.113121032715
 20
-24.8555233478546
 30
0.0
 11
-558.113121032715
 21
-24.7086925506592
 31
0.0
  0
LINE
  5
   562
  8
0
  6
CONTINUOUS
 62
   212
 10
-558.113121032715
 20
-25.281641960144
 30
0.0
 11
-558.113121032715
 21
-24.8555233478546
 31
0.0
  0
LINE
  5
   563
  8
0
  6
CONTINUOUS
 62
   212
 10
-558.113121032715
 20
-25.9453374147415
 30
0.0
 11
-558.113121032715
 21
-25.281641960144
 31
0.0
  0
LINE
  5
   564
  8
0
  6
CONTINUOUS
 62
   212
 10
-558.113121032715
 20
-26.7816423773766
 30
0.0
 11
-558.113121032715
 21
-25.9453374147415
 31
0.0
  0
LINE
  5
   565
  8
0
  6
CONTINUOUS
 62
   212
 10
-558.113121032715
 20
-27.7086933851242
 30
0.0
 11
-558.113121032715
 21
-26.7816423773766
 31
0.0
  0
LINE
  5
   566
  8
0
  6
CONTINUOUS
 62
   212
 10
-558.113121032715
 20
-28.6357443332672
 30
0.0
 11
-558.113121032715
 21
-27.7086933851242
 31
0.0
  0
LINE
  5
   567
  8
0
  6
CONTINUOUS
 62
   212
 10
-558.113121032715
 20
-29.472048997879
 30
0.0
 11
-558.113121032715
 21
-28.6357443332672
 31
0.0
  0
LINE
  5
   568
  8
0
  6
CONTINUOUS
 62
   212
 10
-558.113121032715
 20
-30.1357440948486
 30
0.0
 11
-558.113121032715
 21
-29.472048997879
 31
0.0
  0
LINE
  5
   569
  8
0
  6
CONTINUOUS
 62
   212
 10
-558.113121032715
 20
-30.5618624687195
 30
0.0
 11
-558.113121032715
 21
-30.1357440948486
 31
0.0
  0
LINE
  5
   56A
  8
0
  6
CONTINUOUS
 62
   212
 10
-558.113121032715
 20
-30.7086925506592
 30
0.0
 11
-558.463119506836
 21
-30.7086925506592
 31
0.0
  0
LINE
  5
   56B
  8
0
  6
CONTINUOUS
 62
   212
 10
-562.713119506836
 20
-30.7086925506592
 30
0.0
 11
-565.713119506836
 21
-30.7086925506592
 31
0.0
  0
LINE
  5
   56C
  8
0
  6
CONTINUOUS
 62
   212
 10
-569.963119506836
 20
-30.7086925506592
 30
0.0
 11
-570.463119506836
 21
-30.7086925506592
 31
0.0
  0
LINE
  5
   56D
  8
0
  6
CONTINUOUS
 62
   212
 10
-558.113121032715
 20
-30.7086925506592
 30
0.0
 11
-558.113121032715
 21
-30.5618624687195
 31
0.0
  0
LINE
  5
   56E
  8
0
  6
CONTINUOUS
 62
     7
 10
-557.113121032715
 20
83.2913074493408
 30
0.0
 11
-558.463119506836
 21
83.2913074493408
 31
0.0
  0
LINE
  5
   56F
  8
0
  6
CONTINUOUS
 62
     7
 10
-557.113121032715
 20
79.2913074493408
 30
0.0
 11
-558.463119506836
 21
79.2913074493408
 31
0.0
  0
LINE
  5
   570
  8
0
  6
CONTINUOUS
 62
     7
 10
-562.713119506836
 20
79.2913074493408
 30
0.0
 11
-565.713119506836
 21
79.2913074493408
 31
0.0
  0
LINE
  5
   571
  8
0
  6
CONTINUOUS
 62
     7
 10
-562.713119506836
 20
83.2913074493408
 30
0.0
 11
-565.713119506836
 21
83.2913074493408
 31
0.0
  0
LINE
  5
   572
  8
0
  6
DASHDOT
 62
     7
 10
-555.305604718198
 20
81.2913074493408
 30
0.0
 11
-604.170192678295
 21
81.2913074493408
 31
0.0
  0
LINE
  5
   573
  8
0
  6
DASHDOT
 62
     7
 10
-555.429731529274
 20
-27.7086973190308
 30
0.0
 11
-604.50119750783
 21
-27.7086973190308
 31
0.0
  0
LINE
  5
   574
  8
0
  6
CONTINUOUS
 62
     7
 10
-583.113121032715
 20
83.2913028001785
 30
0.0
 11
-584.463119506836
 21
83.2913028001785
 31
0.0
  0
LINE
  5
   575
  8
0
  6
CONTINUOUS
 62
     7
 10
-583.113121032715
 20
79.2913028001785
 30
0.0
 11
-584.463119506836
 21
79.2913028001785
 31
0.0
  0
LINE
  5
   576
  8
0
  6
CONTINUOUS
 62
     7
 10
-588.713119506836
 20
79.2913028001785
 30
0.0
 11
-591.713119506836
 21
79.2913028001785
 31
0.0
  0
LINE
  5
   577
  8
0
  6
CONTINUOUS
 62
     7
 10
-588.713119506836
 20
83.2913028001785
 30
0.0
 11
-591.713119506836
 21
83.2913028001785
 31
0.0
  0
LINE
  5
   578
  8
0
  6
CONTINUOUS
 62
     7
 10
-557.113121032715
 20
-25.7086925506592
 30
0.0
 11
-558.463119506836
 21
-25.7086925506592
 31
0.0
  0
LINE
  5
   579
  8
0
  6
CONTINUOUS
 62
     7
 10
-557.113121032715
 20
-29.7086925506592
 30
0.0
 11
-558.463119506836
 21
-29.7086925506592
 31
0.0
  0
LINE
  5
   57A
  8
0
  6
CONTINUOUS
 62
     7
 10
-562.713119506836
 20
-29.7086925506592
 30
0.0
 11
-565.713119506836
 21
-29.7086925506592
 31
0.0
  0
LINE
  5
   57B
  8
0
  6
CONTINUOUS
 62
     7
 10
-562.713119506836
 20
-25.7086925506592
 30
0.0
 11
-565.713119506836
 21
-25.7086925506592
 31
0.0
  0
LINE
  5
   57C
  8
0
  6
CONTINUOUS
 62
     7
 10
-569.963119506836
 20
-25.7086925506592
 30
0.0
 11
-570.463119506836
 21
-25.7086925506592
 31
0.0
  0
LINE
  5
   57D
  8
0
  6
CONTINUOUS
 62
     7
 10
-569.963119506836
 20
-29.7086925506592
 30
0.0
 11
-570.463119506836
 21
-29.7086925506592
 31
0.0
  0
LINE
  5
   57E
  8
0
  6
CONTINUOUS
 62
     7
 10
-697.363099098206
 20
54.6663379669189
 30
0.0
 11
-698.613101959229
 21
54.6663379669189
 31
0.0
  0
LINE
  5
   57F
  8
0
  6
CONTINUOUS
 62
     7
 10
-697.363099098206
 20
54.6663379669189
 30
0.0
 11
-697.363099098206
 21
59.9163379669189
 31
0.0
  0
LINE
  5
   580
  8
0
  6
CONTINUOUS
 62
     7
 10
-699.113101959229
 20
61.6663379669189
 30
0.0
 11
-700.363101959229
 21
61.6663379669189
 31
0.0
  0
LINE
  5
   581
  8
0
  6
CONTINUOUS
 62
     7
 10
-700.863101959229
 20
64.6662464141846
 30
0.0
 11
-700.863101959229
 21
66.1663379669189
 31
0.0
  0
LINE
  5
   582
  8
0
  6
CONTINUOUS
 62
     7
 10
-700.863101959229
 20
66.1663379669189
 30
0.0
 11
-702.113098144531
 21
66.1663379669189
 31
0.0
  0
LINE
  5
   583
  8
0
  6
CONTINUOUS
 62
     7
 10
-699.113101959229
 20
60.4163379669189
 30
0.0
 11
-700.363101959229
 21
60.4163379669189
 31
0.0
  0
LINE
  5
   584
  8
0
  6
CONTINUOUS
 62
     7
 10
-698.613101959229
 20
54.6663379669189
 30
0.0
 11
-698.613101959229
 21
59.9163379669189
 31
0.0
  0
ARC
  5
   585
  8
0
  6
CONTINUOUS
 62
     7
 10
-699.113109285982
 20
59.9163316237667
 30
0.0
 40
1.75000922655776
 50
360.000319242658
 51
449.999813057862
  0
ARC
  5
   586
  8
0
  6
CONTINUOUS
 62
     7
 10
-699.113079835154
 20
59.9163584143101
 30
0.0
 40
0.499974910621752
 50
359.998830132094
 51
450.002235749312
  0
ARC
  5
   587
  8
0
  6
CONTINUOUS
 62
     7
 10
-700.363111635419
 20
62.1663219434518
 30
0.0
 40
1.74998552797211
 50
196.604271282219
 51
270.000346548696
  0
LINE
  5
   588
  8
0
  6
CONTINUOUS
 62
     7
 10
-697.363099098206
 20
59.1663379669189
 30
0.0
 11
-698.613101959229
 21
59.1663379669189
 31
0.0
  0
INSERT
  5
   589
  8
0
  6
CONTINUOUS
 62
     7
  2
*HATCH81
 10
-683.363098144531
 20
-27.3271923065186
 30
0.0
 41
0.5
 42
0.5
 50
89.9999999480344
 43
0.5
  0
LINE
  5
   58A
  8
0
  6
CONTINUOUS
 62
     7
 10
-699.363096237183
 20
57.4163379669189
 30
0.0
 11
-700.363096237183
 21
57.4163379669189
 31
0.0
  0
LINE
  5
   58B
  8
0
  6
CONTINUOUS
 62
     7
 10
-700.363096237183
 20
53.916337966919
 30
0.0
 11
-700.363096237183
 21
57.4163379669189
 31
0.0
  0
LINE
  5
   58C
  8
0
  6
CONTINUOUS
 62
     7
 10
-699.363096237183
 20
53.916337966919
 30
0.0
 11
-699.363096237183
 21
57.4163379669189
 31
0.0
  0
LINE
  5
   58D
  8
0
  6
DOT
 62
     7
 10
-718.613096237183
 20
1.41631317138672
 30
0.0
 11
-718.613096237183
 21
53.916337966919
 31
0.0
  0
LINE
  5
   58E
  8
0
  6
DOT
 62
     7
 10
-707.759130340651
 20
53.916337966919
 30
0.0
 11
-718.613096237183
 21
53.916337966919
 31
0.0
  0
LINE
  5
   58F
  8
0
  6
DOT
 62
     7
 10
-709.150157757829
 20
1.41631317138672
 30
0.0
 11
-718.613096237183
 21
1.41631317138672
 31
0.0
  0
LINE
  5
   590
  8
0
  6
CONTINUOUS
 62
     7
 10
-604.013098144531
 20
58.5913150787353
 30
0.0
 11
-604.013098144531
 21
62.4913150787353
 31
0.0
  0
LINE
  5
   591
  8
0
  6
CONTINUOUS
 62
     7
 10
-602.413098144531
 20
59.5413150787353
 30
0.0
 11
-602.413098144531
 21
61.5413150787353
 31
0.0
  0
LINE
  5
   592
  8
0
  6
CONTINUOUS
 62
     7
 10
-604.013098144531
 20
62.4913150787353
 30
0.0
 11
-605.613098144531
 21
62.4913150787353
 31
0.0
  0
LINE
  5
   593
  8
0
  6
CONTINUOUS
 62
     7
 10
-604.013098144531
 20
58.5913150787353
 30
0.0
 11
-605.613098144531
 21
58.5913150787353
 31
0.0
  0
LINE
  5
   594
  8
0
  6
CONTINUOUS
 62
     7
 10
-602.413098144531
 20
59.5413150787353
 30
0.0
 11
-605.613098144531
 21
59.5413150787353
 31
0.0
  0
LINE
  5
   595
  8
0
  6
CONTINUOUS
 62
     7
 10
-602.413098144531
 20
61.5413150787353
 30
0.0
 11
-605.613098144531
 21
61.5413150787353
 31
0.0
  0
LINE
  5
   596
  8
0
  6
CONTINUOUS
 62
     7
 10
-604.013098144531
 20
-5.00868492126465
 30
0.0
 11
-605.613098144531
 21
-5.00868492126465
 31
0.0
  0
LINE
  5
   597
  8
0
  6
CONTINUOUS
 62
     7
 10
-602.413098144531
 20
-5.95868492126465
 30
0.0
 11
-605.613098144531
 21
-5.95868492126465
 31
0.0
  0
LINE
  5
   598
  8
0
  6
CONTINUOUS
 62
     7
 10
-602.413098144531
 20
-7.95868492126465
 30
0.0
 11
-605.613098144531
 21
-7.95868492126465
 31
0.0
  0
LINE
  5
   599
  8
0
  6
CONTINUOUS
 62
     7
 10
-604.013098144531
 20
-8.90868492126465
 30
0.0
 11
-605.613098144531
 21
-8.90868492126465
 31
0.0
  0
LINE
  5
   59A
  8
0
  6
CONTINUOUS
 62
     7
 10
-604.013098144531
 20
-8.90868492126465
 30
0.0
 11
-604.013098144531
 21
-5.00868492126465
 31
0.0
  0
LINE
  5
   59B
  8
0
  6
CONTINUOUS
 62
     7
 10
-602.413098144531
 20
-7.95868492126465
 30
0.0
 11
-602.413098144531
 21
-5.95868492126465
 31
0.0
  0
LINE
  5
   59C
  8
0
  6
CONTINUOUS
 62
     7
 10
-592.963119506836
 20
-33.2087020874023
 30
0.0
 11
-592.963119506836
 21
-30.492449760437
 31
0.0
  0
LINE
  5
   59D
  8
0
  6
CONTINUOUS
 62
     7
 10
-592.963119506836
 20
-30.3519411087036
 30
0.0
 11
-592.963119506836
 21
-25.0654683113098
 31
0.0
  0
LINE
  5
   59E
  8
0
  6
CONTINUOUS
 62
     7
 10
-592.963119506836
 20
-24.9249544143677
 30
0.0
 11
-592.963119506836
 21
-22.2087020874023
 31
0.0
  0
LINE
  5
   59F
  8
0
  6
CONTINUOUS
 62
     7
 10
-591.713119506836
 20
-33.2087020874023
 30
0.0
 11
-591.713119506836
 21
-22.2087020874023
 31
0.0
  0
LINE
  5
   5A0
  8
0
  6
CONTINUOUS
 62
     7
 10
-588.713119506836
 20
-33.2087020874023
 30
0.0
 11
-588.713119506836
 21
-22.2087020874023
 31
0.0
  0
LINE
  5
   5A1
  8
0
  6
CONTINUOUS
 62
     7
 10
-587.463119506836
 20
-24.9249544143677
 30
0.0
 11
-587.463119506836
 21
-22.2087020874023
 31
0.0
  0
LINE
  5
   5A2
  8
0
  6
CONTINUOUS
 62
     7
 10
-587.463119506836
 20
-30.3519411087036
 30
0.0
 11
-587.463119506836
 21
-25.0654683113098
 31
0.0
  0
LINE
  5
   5A3
  8
0
  6
CONTINUOUS
 62
     7
 10
-587.463119506836
 20
-33.2087020874023
 30
0.0
 11
-587.463119506836
 21
-30.492449760437
 31
0.0
  0
LINE
  5
   5A4
  8
0
  6
CONTINUOUS
 62
     7
 10
-599.463119506836
 20
-24.2718005180359
 30
0.0
 11
-599.463119506836
 21
-22.891984462738
 31
0.0
  0
LINE
  5
   5A5
  8
0
  6
CONTINUOUS
 62
     7
 10
-599.463119506836
 20
-29.2641526460648
 30
0.0
 11
-599.463119506836
 21
-26.1532562971115
 31
0.0
  0
LINE
  5
   5A6
  8
0
  6
CONTINUOUS
 62
     7
 10
-599.463119506836
 20
-32.5254201889038
 30
0.0
 11
-599.463119506836
 21
-31.1456065177918
 31
0.0
  0
LINE
  5
   5A7
  8
0
  6
CONTINUOUS
 62
     3
 10
-592.963119506836
 20
-25.0654673576355
 30
0.0
 11
-592.963119506836
 21
-24.9249541759491
 31
0.0
  0
LINE
  5
   5A8
  8
0
  6
CONTINUOUS
 62
     3
 10
-592.963119506836
 20
-30.4924511909485
 30
0.0
 11
-592.963119506836
 21
-30.3519430160522
 31
0.0
  0
LINE
  5
   5A9
  8
0
  6
CONTINUOUS
 62
     3
 10
-595.963119506836
 20
-33.1935296058655
 30
0.0
 11
-595.963119506836
 21
-22.2238745689392
 31
0.0
  0
LINE
  5
   5AA
  8
0
  6
CONTINUOUS
 62
     3
 10
-587.463119506836
 20
-30.4924507141113
 30
0.0
 11
-587.463119506836
 21
-30.3519427776337
 31
0.0
  0
LINE
  5
   5AB
  8
0
  6
CONTINUOUS
 62
     3
 10
-587.463119506836
 20
-25.0654664039612
 30
0.0
 11
-587.463119506836
 21
-24.9249536991119
 31
0.0
  0
LINE
  5
   5AC
  8
0
  6
CONTINUOUS
 62
     3
 10
-584.463119506836
 20
-33.1935296058655
 30
0.0
 11
-584.463119506836
 21
-22.2238745689392
 31
0.0
  0
LINE
  5
   5AD
  8
0
  6
CONTINUOUS
 62
     3
 10
-596.463119506836
 20
-33.1935296058655
 30
0.0
 11
-596.463119506836
 21
-22.2238745689392
 31
0.0
  0
LINE
  5
   5AE
  8
0
  6
CONTINUOUS
 62
     3
 10
-599.463119506836
 20
-33.1935296058655
 30
0.0
 11
-599.463119506836
 21
-32.5254197120667
 31
0.0
  0
LINE
  5
   5AF
  8
0
  6
CONTINUOUS
 62
     3
 10
-599.463119506836
 20
-31.1456062793732
 30
0.0
 11
-599.463119506836
 21
-29.2641555070877
 31
0.0
  0
LINE
  5
   5B0
  8
0
  6
CONTINUOUS
 62
     3
 10
-599.463119506836
 20
-26.1532475948334
 30
0.0
 11
-599.463119506836
 21
-24.2717986106873
 31
0.0
  0
LINE
  5
   5B1
  8
0
  6
CONTINUOUS
 62
     3
 10
-599.463119506836
 20
-22.8919849395752
 30
0.0
 11
-599.463119506836
 21
-22.2238745689392
 31
0.0
  0
LINE
  5
   5B2
  8
0
  6
CONTINUOUS
 62
   212
 10
-583.113121032715
 20
-29.7087019681931
 30
0.0
 11
-583.113121032715
 21
-25.7087019681931
 31
0.0
  0
LINE
  5
   5B3
  8
0
  6
CONTINUOUS
 62
     7
 10
-591.713119506836
 20
-22.2087020874023
 30
0.0
 11
-592.963119506836
 21
-22.2087020874023
 31
0.0
  0
LINE
  5
   5B4
  8
0
  6
CONTINUOUS
 62
     7
 10
-591.713119506836
 20
-33.2087020874023
 30
0.0
 11
-592.963119506836
 21
-33.2087020874023
 31
0.0
  0
LINE
  5
   5B5
  8
0
  6
CONTINUOUS
 62
     7
 10
-587.463119506836
 20
-22.2087020874023
 30
0.0
 11
-588.713119506836
 21
-22.2087020874023
 31
0.0
  0
LINE
  5
   5B6
  8
0
  6
CONTINUOUS
 62
     7
 10
-587.463119506836
 20
-33.2087020874023
 30
0.0
 11
-588.713119506836
 21
-33.2087020874023
 31
0.0
  0
LINE
  5
   5B7
  8
0
  6
CONTINUOUS
 62
     7
 10
-599.463119506836
 20
-22.7087020874023
 30
0.0
 11
-599.863121032715
 21
-22.7087020874023
 31
0.0
  0
LINE
  5
   5B8
  8
0
  6
CONTINUOUS
 62
     7
 10
-599.463119506836
 20
-32.7087020874023
 30
0.0
 11
-599.863121032715
 21
-32.7087020874023
 31
0.0
  0
LINE
  5
   5B9
  8
0
  6
CONTINUOUS
 62
     3
 10
-592.963119506836
 20
-22.2238745689392
 30
0.0
 11
-595.963119506836
 21
-22.2238745689392
 31
0.0
  0
LINE
  5
   5BA
  8
0
  6
CONTINUOUS
 62
     3
 10
-592.963119506836
 20
-24.9662895202637
 30
0.0
 11
-595.963119506836
 21
-24.9662895202637
 31
0.0
  0
LINE
  5
   5BB
  8
0
  6
CONTINUOUS
 62
     3
 10
-592.963119506836
 20
-30.4511170387268
 30
0.0
 11
-595.963119506836
 21
-30.4511170387268
 31
0.0
  0
LINE
  5
   5BC
  8
0
  6
CONTINUOUS
 62
     3
 10
-592.963119506836
 20
-33.1935296058655
 30
0.0
 11
-595.963119506836
 21
-33.1935296058655
 31
0.0
  0
LINE
  5
   5BD
  8
0
  6
CONTINUOUS
 62
     3
 10
-584.463119506836
 20
-22.2238745689392
 30
0.0
 11
-587.463119506836
 21
-22.2238745689392
 31
0.0
  0
LINE
  5
   5BE
  8
0
  6
CONTINUOUS
 62
     3
 10
-584.463119506836
 20
-24.9662895202637
 30
0.0
 11
-587.463119506836
 21
-24.9662895202637
 31
0.0
  0
LINE
  5
   5BF
  8
0
  6
CONTINUOUS
 62
     3
 10
-584.463119506836
 20
-30.4511170387268
 30
0.0
 11
-587.463119506836
 21
-30.4511170387268
 31
0.0
  0
LINE
  5
   5C0
  8
0
  6
CONTINUOUS
 62
     3
 10
-584.463119506836
 20
-33.1935296058655
 30
0.0
 11
-587.463119506836
 21
-33.1935296058655
 31
0.0
  0
LINE
  5
   5C1
  8
0
  6
CONTINUOUS
 62
     3
 10
-596.463119506836
 20
-22.2238745689392
 30
0.0
 11
-599.463119506836
 21
-22.2238745689392
 31
0.0
  0
LINE
  5
   5C2
  8
0
  6
CONTINUOUS
 62
     3
 10
-596.463119506836
 20
-24.9662895202637
 30
0.0
 11
-599.463119506836
 21
-24.9662895202637
 31
0.0
  0
LINE
  5
   5C3
  8
0
  6
CONTINUOUS
 62
     3
 10
-596.463119506836
 20
-30.4511170387268
 30
0.0
 11
-599.463119506836
 21
-30.4511170387268
 31
0.0
  0
LINE
  5
   5C4
  8
0
  6
CONTINUOUS
 62
     3
 10
-596.463119506836
 20
-33.1935296058655
 30
0.0
 11
-599.463119506836
 21
-33.1935296058655
 31
0.0
  0
LINE
  5
   5C5
  8
0
  6
CONTINUOUS
 62
   212
 10
-583.113117288699
 20
-25.7087031621781
 30
0.0
 11
-584.113117254471
 21
-24.7087032807004
 31
0.0
  0
LINE
  5
   5C6
  8
0
  6
CONTINUOUS
 62
   212
 10
-584.113123551665
 20
-30.7087028498899
 30
0.0
 11
-583.113123585894
 21
-29.7087028841184
 31
0.0
  0
LINE
  5
   5C7
  8
0
  6
CONTINUOUS
 62
   212
 10
-584.113121032715
 20
-30.7087020874023
 30
0.0
 11
-584.113121032715
 21
-30.5618717670441
 31
0.0
  0
LINE
  5
   5C8
  8
0
  6
CONTINUOUS
 62
   212
 10
-584.113121032715
 20
-30.5618717670441
 30
0.0
 11
-584.113121032715
 21
-30.1357533931732
 31
0.0
  0
LINE
  5
   5C9
  8
0
  6
CONTINUOUS
 62
   212
 10
-584.113121032715
 20
-30.1357533931732
 30
0.0
 11
-584.113121032715
 21
-29.4720582962036
 31
0.0
  0
LINE
  5
   5CA
  8
0
  6
CONTINUOUS
 62
   212
 10
-584.113121032715
 20
-29.4720582962036
 30
0.0
 11
-584.113121032715
 21
-28.6357537508011
 31
0.0
  0
LINE
  5
   5CB
  8
0
  6
CONTINUOUS
 62
   212
 10
-584.113121032715
 20
-28.6357537508011
 30
0.0
 11
-584.113121032715
 21
-27.7087028026581
 31
0.0
  0
LINE
  5
   5CC
  8
0
  6
CONTINUOUS
 62
   212
 10
-584.113121032715
 20
-27.7087028026581
 30
0.0
 11
-584.113121032715
 21
-26.7816517949104
 31
0.0
  0
LINE
  5
   5CD
  8
0
  6
CONTINUOUS
 62
   212
 10
-584.113121032715
 20
-26.7816517949104
 30
0.0
 11
-584.113121032715
 21
-25.9453468322754
 31
0.0
  0
LINE
  5
   5CE
  8
0
  6
CONTINUOUS
 62
   212
 10
-584.113121032715
 20
-25.9453468322754
 30
0.0
 11
-584.113121032715
 21
-25.2816514968872
 31
0.0
  0
LINE
  5
   5CF
  8
0
  6
CONTINUOUS
 62
   212
 10
-584.113121032715
 20
-25.2816514968872
 30
0.0
 11
-584.113121032715
 21
-24.8555326461792
 31
0.0
  0
LINE
  5
   5D0
  8
0
  6
CONTINUOUS
 62
   212
 10
-584.113121032715
 20
-24.8555326461792
 30
0.0
 11
-584.113121032715
 21
-24.7087020874023
 31
0.0
  0
LINE
  5
   5D1
  8
0
  6
CONTINUOUS
 62
   212
 10
-584.113121032715
 20
-24.7087020874023
 30
0.0
 11
-584.463119506836
 21
-24.7087020874023
 31
0.0
  0
LINE
  5
   5D2
  8
0
  6
CONTINUOUS
 62
   212
 10
-588.713119506836
 20
-24.7087020874023
 30
0.0
 11
-591.713119506836
 21
-24.7087020874023
 31
0.0
  0
LINE
  5
   5D3
  8
0
  6
CONTINUOUS
 62
   212
 10
-595.963119506836
 20
-24.7087020874023
 30
0.0
 11
-596.463119506836
 21
-24.7087020874023
 31
0.0
  0
LINE
  5
   5D4
  8
0
  6
CONTINUOUS
 62
   212
 10
-584.113121032715
 20
-30.7087020874023
 30
0.0
 11
-584.463119506836
 21
-30.7087020874023
 31
0.0
  0
LINE
  5
   5D5
  8
0
  6
CONTINUOUS
 62
   212
 10
-588.713119506836
 20
-30.7087020874023
 30
0.0
 11
-591.713119506836
 21
-30.7087020874023
 31
0.0
  0
LINE
  5
   5D6
  8
0
  6
CONTINUOUS
 62
   212
 10
-595.963119506836
 20
-30.7087020874023
 30
0.0
 11
-596.463119506836
 21
-30.7087020874023
 31
0.0
  0
LINE
  5
   5D7
  8
0
  6
CONTINUOUS
 62
   253
 10
-595.963119506836
 20
-22.7086973190308
 30
0.0
 11
-596.463119506836
 21
-22.7086973190308
 31
0.0
  0
LINE
  5
   5D8
  8
0
  6
CONTINUOUS
 62
   253
 10
-588.713119506836
 20
-22.7086973190308
 30
0.0
 11
-591.713119506836
 21
-22.7086973190308
 31
0.0
  0
LINE
  5
   5D9
  8
0
  6
CONTINUOUS
 62
   253
 10
-595.963119506836
 20
-32.7086973190308
 30
0.0
 11
-596.463119506836
 21
-32.7086973190308
 31
0.0
  0
LINE
  5
   5DA
  8
0
  6
CONTINUOUS
 62
   253
 10
-588.713119506836
 20
-32.7086973190308
 30
0.0
 11
-591.713119506836
 21
-32.7086973190308
 31
0.0
  0
LINE
  5
   5DB
  8
0
  6
CONTINUOUS
 62
     7
 10
-583.113121032715
 20
-25.7087019681931
 30
0.0
 11
-584.463119506836
 21
-25.7087019681931
 31
0.0
  0
LINE
  5
   5DC
  8
0
  6
CONTINUOUS
 62
     7
 10
-583.113121032715
 20
-29.7087019681931
 30
0.0
 11
-584.463119506836
 21
-29.7087019681931
 31
0.0
  0
LINE
  5
   5DD
  8
0
  6
CONTINUOUS
 62
     7
 10
-588.713119506836
 20
-29.7087019681931
 30
0.0
 11
-591.713119506836
 21
-29.7087019681931
 31
0.0
  0
LINE
  5
   5DE
  8
0
  6
CONTINUOUS
 62
     7
 10
-588.713119506836
 20
-25.7087019681931
 30
0.0
 11
-591.713119506836
 21
-25.7087019681931
 31
0.0
  0
TEXT
  5
   5DF
  8
0
  6
CONTINUOUS
 62
     7
 10
-708.452588546387
 20
105.711946506621
 30
0.0
 40
3.00000002980232
  1
ISOLATING DISTANCE
 50
359.999999948034
 41
0.916666689183977
 72
     1
 11
-683.97758769989
 21
107.211946499447
 31
0.0
 73
     2
  0
INSERT
  5
   5E0
  8
0
  6
CONTINUOUS
 62
     7
  2
*UDIM346
 10
0.0
 20
0.0
 30
0.0
  0
TEXT
  5
   5E1
  8
0
  6
CONTINUOUS
 62
     7
 10
-539.152542122726
 20
17.8689834432129
 30
0.0
 40
3.00000002980232
  1
=     =
 50
89.9999999480344
 41
0.916666604744064
 72
     2
 11
-539.152542105789
 21
36.5689823613886
 31
0.0
  0
INSERT
  5
   5E2
  8
0
  6
CONTINUOUS
 62
     7
  2
*UDIM347
 10
0.0
 20
0.0
 30
0.0
  0
INSERT
  5
   5E3
  8
0
  6
CONTINUOUS
 62
     7
  2
*UDIM348
 10
0.0
 20
0.0
 30
0.0
  0
INSERT
  5
   5E4
  8
0
  6
CONTINUOUS
 62
     7
  2
*UDIM349
 10
0.0
 20
0.0
 30
0.0
  0
INSERT
  5
   5E5
  8
0
  6
CONTINUOUS
 62
     7
  2
*UDIM350
 10
0.0
 20
0.0
 30
0.0
  0
TEXT
  5
   5E6
  8
0
  6
CONTINUOUS
 62
     7
 10
-722.364917764841
 20
17.3842957964862
 30
0.0
 40
3.00000002980232
  1
=      =
 50
89.9999999480344
 41
0.916666604744064
 72
     2
 11
-722.364917745413
 21
38.8342945562128
 31
0.0
  0
INSERT
  5
   5E7
  8
0
  6
CONTINUOUS
 62
     7
  2
*UDIM351
 10
0.0
 20
0.0
 30
0.0
  0
INSERT
  5
   5E8
  8
0
  6
CONTINUOUS
 62
     7
  2
*UDIM352
 10
0.0
 20
0.0
 30
0.0
  0
INSERT
  5
   5E9
  8
0
  6
CONTINUOUS
 62
     7
  2
*UDIM353
 10
0.0
 20
0.0
 30
0.0
  0
INSERT
  5
   5EA
  8
0
  6
CONTINUOUS
 62
     7
  2
*UDIM354
 10
0.0
 20
0.0
 30
0.0
  0
INSERT
  5
   5EB
  8
0
  6
CONTINUOUS
 62
     7
  2
*UDIM355
 10
0.0
 20
0.0
 30
0.0
  0
TEXT
  5
   5EC
  8
0
  6
CONTINUOUS
 62
     7
 10
-735.083945984999
 20
26.1695347563435
 30
0.0
 40
3.00000002980232
  1
X
 50
359.999999948034
 41
0.916666604744064
 72
     2
 11
-732.883946116129
 21
26.1695347543592
 31
0.0
  0
INSERT
  5
   5ED
  8
0
  6
CONTINUOUS
 62
     7
  2
*UDIM356
 10
0.0
 20
0.0
 30
0.0
  0
LINE
  5
   5EE
  8
0
  6
DASHDOT
 62
     3
 10
-679.399291992188
 20
-78.1299162894775
 30
0.0
 11
-679.399291992188
 21
-156.862296422169
 31
0.0
  0
LINE
  5
   5EF
  8
0
  6
CONTINUOUS
 62
     7
 10
-663.149291992188
 20
-76.5435337602652
 30
0.0
 11
-663.149291992188
 21
-154.396938602175
 31
0.0
  0
LINE
  5
   5F0
  8
0
  6
CONTINUOUS
 62
     7
 10
-695.649291992188
 20
-76.1542667360556
 30
0.0
 11
-695.649291992188
 21
-155.045716975857
 31
0.0
  0
LINE
  5
   5F1
  8
0
  6
CONTINUOUS
 62
     7
 10
-658.506205892294
 20
-150.423141479492
 30
0.0
 11
-697.303152638512
 21
-150.423141479492
 31
0.0
  0
LINE
  5
   5F2
  8
0
  6
CONTINUOUS
 62
     7
 10
-660.063273989132
 20
-81.9231414794922
 30
0.0
 11
-698.989976410087
 21
-81.9231414794922
 31
0.0
  0
LINE
  5
   5F3
  8
0
  6
DASHDOT
 62
     3
 10
-689.649291992188
 20
-94.753217948103
 30
0.0
 11
-689.649291992188
 21
-137.382530389949
 31
0.0
  0
LINE
  5
   5F4
  8
0
  6
DASHDOT
 62
     3
 10
-669.149291992187
 20
-94.753217948103
 30
0.0
 11
-669.149291992187
 21
-137.789816814553
 31
0.0
  0
LINE
  5
   5F5
  8
0
  6
DASHDOT
 62
     3
 10
-666.42725100448
 20
-99.2981414794922
 30
0.0
 11
-692.765106462181
 21
-99.2981414794922
 31
0.0
  0
LINE
  5
   5F6
  8
0
  6
DASHDOT
 62
     3
 10
-666.563013146015
 20
-133.048141479492
 30
0.0
 11
-692.900868603716
 21
-133.048141479492
 31
0.0
  0
CIRCLE
  5
   5F7
  8
0
  6
CONTINUOUS
 62
     7
 10
-689.649291992188
 20
-99.2981414794922
 30
0.0
 40
0.625
  0
CIRCLE
  5
   5F8
  8
0
  6
CONTINUOUS
 62
     7
 10
-669.149291992187
 20
-99.2981414794922
 30
0.0
 40
0.625
  0
CIRCLE
  5
   5F9
  8
0
  6
CONTINUOUS
 62
     7
 10
-669.149291992187
 20
-133.048141479492
 30
0.0
 40
0.625
  0
CIRCLE
  5
   5FA
  8
0
  6
CONTINUOUS
 62
     7
 10
-689.649291992188
 20
-133.048141479492
 30
0.0
 40
0.625
  0
LINE
  5
   5FB
  8
0
  6
CONTINUOUS
 62
     7
 10
-670.649291992188
 20
-85.4231414794922
 30
0.0
 11
-688.149291992188
 21
-85.4231414794922
 31
0.0
  0
LINE
  5
   5FC
  8
0
  6
CONTINUOUS
 62
     7
 10
-670.649291992188
 20
-92.4231414794922
 30
0.0
 11
-688.149291992188
 21
-92.4231414794922
 31
0.0
  0
LINE
  5
   5FD
  8
0
  6
CONTINUOUS
 62
     7
 10
-670.649291992188
 20
-139.923141479492
 30
0.0
 11
-688.149291992188
 21
-139.923141479492
 31
0.0
  0
LINE
  5
   5FE
  8
0
  6
CONTINUOUS
 62
     7
 10
-670.649291992188
 20
-146.923141479492
 30
0.0
 11
-688.149291992188
 21
-146.923141479492
 31
0.0
  0
ARC
  5
   5FF
  8
0
  6
CONTINUOUS
 62
     7
 10
-688.149291992188
 20
-88.9231414794922
 30
0.0
 40
3.5
 50
449.999999896069
 51
629.999999896069
  0
ARC
  5
   600
  8
0
  6
CONTINUOUS
 62
     7
 10
-670.649291992188
 20
-88.9231414794922
 30
0.0
 40
3.5
 50
269.999999896069
 51
449.999999896069
  0
ARC
  5
   601
  8
0
  6
CONTINUOUS
 62
     7
 10
-688.149291992188
 20
-143.423141479492
 30
0.0
 40
3.5
 50
449.999999896069
 51
629.999999896069
  0
ARC
  5
   602
  8
0
  6
CONTINUOUS
 62
     7
 10
-670.649291992188
 20
-143.423141479492
 30
0.0
 40
3.5
 50
269.999999896069
 51
449.999999896069
  0
LINE
  5
   603
  8
0
  6
DASHDOT
 62
     7
 10
-670.649291992188
 20
-84.6731414794922
 30
0.0
 11
-670.649291992188
 21
-139.994058706422
 31
0.0
  0
LINE
  5
   604
  8
0
  6
DASHDOT
 62
     7
 10
-688.149291992188
 20
-84.6731414794922
 30
0.0
 11
-688.149291992188
 21
-139.215524658003
 31
0.0
  0
LINE
  5
   605
  8
0
  6
DASHDOT
 62
     7
 10
-666.399291992188
 20
-88.9231414794922
 30
0.0
 11
-692.399291992188
 21
-88.9231414794922
 31
0.0
  0
LINE
  5
   606
  8
0
  6
DASHDOT
 62
     7
 10
-688.149291992188
 20
-139.173141479492
 30
0.0
 11
-688.149291992188
 21
-147.673141479492
 31
0.0
  0
LINE
  5
   607
  8
0
  6
DASHDOT
 62
     7
 10
-666.399291992188
 20
-143.423141479492
 30
0.0
 11
-692.399291992188
 21
-143.423141479492
 31
0.0
  0
LINE
  5
   608
  8
0
  6
DASHDOT
 62
     7
 10
-670.649291992188
 20
-139.173141479492
 30
0.0
 11
-670.649291992188
 21
-147.673141479492
 31
0.0
  0
LINE
  5
   609
  8
0
  6
DASHDOT
 62
     3
 10
-659.539875082874
 20
-115.735641479492
 30
0.0
 11
-705.066178672111
 21
-115.735641479492
 31
0.0
  0
INSERT
  5
   60A
  8
0
  6
CONTINUOUS
 62
     7
  2
*UDIM357
 10
0.0
 20
0.0
 30
0.0
  0
INSERT
  5
   60B
  8
0
  6
CONTINUOUS
 62
     7
  2
*UDIM358
 10
0.0
 20
0.0
 30
0.0
  0
TEXT
  5
   60C
  8
0
  6
CONTINUOUS
 62
     7
 10
-684.044102671476
 20
-127.322501202907
 30
0.0
 40
3.00000002980232
  1
=  =
 50
359.999999896069
 41
0.916666604744064
 72
     2
 11
-673.594103277953
 21
-127.32250122181
 31
0.0
  0
INSERT
  5
   60D
  8
0
  6
CONTINUOUS
 62
     7
  2
*UDIM359
 10
0.0
 20
0.0
 30
0.0
  0
INSERT
  5
   60E
  8
0
  6
CONTINUOUS
 62
     7
  2
*UDIM360
 10
0.0
 20
0.0
 30
0.0
  0
INSERT
  5
   60F
  8
0
  6
CONTINUOUS
 62
     7
  2
*UDIM361
 10
0.0
 20
0.0
 30
0.0
  0
TEXT
  5
   610
  8
0
  6
CONTINUOUS
 62
     7
 10
-686.256920817228
 20
-79.6086044490158
 30
0.0
 40
3.00000002980232
  1
=   =
 50
359.999999896069
 41
0.916666604744064
 72
     2
 11
-673.056921582154
 21
-79.6086044728935
 31
0.0
  0
INSERT
  5
   611
  8
0
  6
CONTINUOUS
 62
     7
  2
*UDIM362
 10
0.0
 20
0.0
 30
0.0
  0
INSERT
  5
   612
  8
0
  6
CONTINUOUS
 62
     7
  2
*UDIM363
 10
0.0
 20
0.0
 30
0.0
  0
INSERT
  5
   613
  8
0
  6
CONTINUOUS
 62
     7
  2
*UDIM364
 10
0.0
 20
0.0
 30
0.0
  0
TEXT
  5
   614
  8
0
  6
CONTINUOUS
 62
     7
 10
-680.293947294091
 20
-71.07655612151
 30
0.0
 40
3.00000002980232
  1
Y
 50
359.999999896069
 41
0.916666604744064
 72
     2
 11
-678.093947425221
 21
-71.0765561254896
 31
0.0
  0
TEXT
  5
   615
  8
0
  6
CONTINUOUS
 62
     7
 10
-718.944194796415
 20
-117.052022008098
 30
0.0
 40
3.00000002980232
  1
X
 50
359.999999896069
 41
0.916666604744064
 72
     2
 11
-716.744194927545
 21
-117.052022012078
 31
0.0
  0
TEXT
  5
   616
  8
0
  6
CONTINUOUS
 62
     7
 10
-645.501502993436
 20
-117.226954964794
 30
0.0
 40
3.00000002980232
  1
X
 50
359.999999896069
 41
0.916666604744064
 72
     2
 11
-643.301503124566
 21
-117.226954968773
 31
0.0
  0
TEXT
  5
   617
  8
0
  6
CONTINUOUS
 62
     7
 10
-680.448272588582
 20
-159.54666903416
 30
0.0
 40
3.00000002980232
  1
Y
 50
359.999999896069
 41
0.916666604744064
 72
     2
 11
-678.248272719712
 21
-159.54666903814
 31
0.0
  0
LINE
  5
   618
  8
0
  6
CONTINUOUS
 62
     7
 10
-476.338222855068
 20
-111.352890014648
 30
0.0
 11
-476.588207596279
 21
-111.352890014648
 31
0.0
  0
LINE
  5
   619
  8
0
  6
CONTINUOUS
 62
     7
 10
-493.838207596279
 20
-111.352890014648
 30
0.0
 11
-506.338207596279
 21
-111.352890014648
 31
0.0
  0
LINE
  5
   61A
  8
0
  6
CONTINUOUS
 62
     7
 10
-511.338199966885
 20
-111.352890014648
 30
0.0
 11
-523.588207596279
 21
-111.352890014648
 31
0.0
  0
LINE
  5
   61B
  8
0
  6
CONTINUOUS
 62
     7
 10
-526.338186615444
 20
-113.602890014648
 30
0.0
 11
-526.338186615444
 21
-121.352912902832
 31
0.0
  0
LINE
  5
   61C
  8
0
  6
CONTINUOUS
 62
     7
 10
-473.838184707865
 20
-113.602890015451
 30
0.0
 11
-473.83819233726
 21
-116.852890015535
 31
0.0
  0
LINE
  5
   61D
  8
0
  6
CONTINUOUS
 62
     7
 10
-473.838199966885
 20
-116.852890014648
 30
0.0
 11
-473.838199966885
 21
-121.352912902832
 31
0.0
  0
LINE
  5
   61E
  8
0
  6
CONTINUOUS
 62
     7
 10
-473.838201874233
 20
-116.852890014648
 30
0.0
 11
-526.338186615444
 21
-116.852890014648
 31
0.0
  0
LINE
  5
   61F
  8
0
  6
CONTINUOUS
 62
     7
 10
-524.338199966885
 20
-113.602890014648
 30
0.0
 11
-526.338186615444
 21
-113.602890014648
 31
0.0
  0
LINE
  5
   620
  8
0
  6
CONTINUOUS
 62
     7
 10
-506.338207596279
 20
-113.602890014648
 30
0.0
 11
-511.338199966885
 21
-113.602890014648
 31
0.0
  0
LINE
  5
   621
  8
0
  6
CONTINUOUS
 62
     7
 10
-488.838222855068
 20
-113.602890014648
 30
0.0
 11
-493.838207596279
 21
-113.602890014648
 31
0.0
  0
LINE
  5
   622
  8
0
  6
CONTINUOUS
 62
     7
 10
-473.838184708096
 20
-113.602890014648
 30
0.0
 11
-475.838169449307
 21
-113.602890014648
 31
0.0
  0
LINE
  5
   623
  8
0
  6
CONTINUOUS
 62
     7
 10
-523.588207596279
 20
-110.602890014648
 30
0.0
 11
-524.338199966885
 21
-110.602890014648
 31
0.0
  0
LINE
  5
   624
  8
0
  6
CONTINUOUS
 62
     7
 10
-475.838169449307
 20
-110.602890014648
 30
0.0
 11
-476.588207596279
 21
-110.602890014648
 31
0.0
  0
LINE
  5
   625
  8
0
  6
CONTINUOUS
 62
     7
 10
-475.088199966885
 20
-116.852890014648
 30
0.0
 11
-475.088199966885
 21
-121.352912902832
 31
0.0
  0
LINE
  5
   626
  8
0
  6
CONTINUOUS
 62
     7
 10
-525.088199966885
 20
-116.852890014648
 30
0.0
 11
-525.088199966885
 21
-121.352912902832
 31
0.0
  0
LINE
  5
   627
  8
0
  6
CONTINUOUS
 62
     7
 10
-507.588199966885
 20
-116.852890014648
 30
0.0
 11
-507.588199966885
 21
-121.352912902832
 31
0.0
  0
LINE
  5
   628
  8
0
  6
CONTINUOUS
 62
     7
 10
-510.088199966885
 20
-116.852890014648
 30
0.0
 11
-510.088199966885
 21
-121.352912902832
 31
0.0
  0
LINE
  5
   629
  8
0
  6
CONTINUOUS
 62
     7
 10
-492.588169449307
 20
-116.852890014648
 30
0.0
 11
-492.588169449307
 21
-121.352912902832
 31
0.0
  0
LINE
  5
   62A
  8
0
  6
CONTINUOUS
 62
     7
 10
-490.088169449307
 20
-116.852890014648
 30
0.0
 11
-490.088169449307
 21
-121.352912902832
 31
0.0
  0
LINE
  5
   62B
  8
0
  6
CONTINUOUS
 62
   253
 10
-511.588207596279
 20
-103.352890014648
 30
0.0
 11
-523.588207596279
 21
-103.352890014648
 31
0.0
  0
LINE
  5
   62C
  8
0
  6
CONTINUOUS
 62
   253
 10
-476.588207596279
 20
-103.352890014648
 30
0.0
 11
-488.588207596279
 21
-103.352890014648
 31
0.0
  0
LINE
  5
   62D
  8
0
  6
CONTINUOUS
 62
   253
 10
-494.588215225674
 20
-103.352912902832
 30
0.0
 11
-505.588215225674
 21
-103.352912902832
 31
0.0
  0
LINE
  5
   62E
  8
0
  6
CONTINUOUS
 62
     7
 10
-512.088230484463
 20
-92.2029113769531
 30
0.0
 11
-523.088230484463
 21
-92.2029113769531
 31
0.0
  0
LINE
  5
   62F
  8
0
  6
CONTINUOUS
 62
     7
 10
-522.338230484463
 20
-90.9529113769531
 30
0.0
 11
-523.088230484463
 21
-90.9529113769531
 31
0.0
  0
LINE
  5
   630
  8
0
  6
CONTINUOUS
 62
     7
 10
-512.909824722744
 20
-90.9529113769531
 30
0.0
 11
-522.266636246182
 21
-90.9529113769531
 31
0.0
  0
LINE
  5
   631
  8
0
  6
CONTINUOUS
 62
     7
 10
-512.088230484463
 20
-90.9529113769531
 30
0.0
 11
-512.838230484463
 21
-90.9529113769531
 31
0.0
  0
LINE
  5
   632
  8
0
  6
CONTINUOUS
 62
     7
 10
-512.088230484463
 20
-96.4529113769531
 30
0.0
 11
-512.838230484463
 21
-96.4529113769531
 31
0.0
  0
LINE
  5
   633
  8
0
  6
CONTINUOUS
 62
     7
 10
-512.909824722744
 20
-96.4529113769531
 30
0.0
 11
-522.266636246182
 21
-96.4529113769531
 31
0.0
  0
LINE
  5
   634
  8
0
  6
CONTINUOUS
 62
     7
 10
-522.338230484463
 20
-96.4529113769531
 30
0.0
 11
-523.088230484463
 21
-96.4529113769531
 31
0.0
  0
LINE
  5
   635
  8
0
  6
CONTINUOUS
 62
     7
 10
-512.088230484463
 20
-95.2029113769531
 30
0.0
 11
-523.088230484463
 21
-95.2029113769531
 31
0.0
  0
LINE
  5
   636
  8
0
  6
CONTINUOUS
 62
     3
 10
-512.838230484463
 20
-99.9529113769531
 30
0.0
 11
-512.838230484463
 21
-102.952911376953
 31
0.0
  0
LINE
  5
   637
  8
0
  6
CONTINUOUS
 62
     3
 10
-522.338230484463
 20
-99.9529113769531
 30
0.0
 11
-522.338230484463
 21
-102.952911376953
 31
0.0
  0
LINE
  5
   638
  8
0
  6
CONTINUOUS
 62
     3
 10
-512.838230484463
 20
-99.9529113769531
 30
0.0
 11
-522.338230484463
 21
-99.9529113769531
 31
0.0
  0
LINE
  5
   639
  8
0
  6
CONTINUOUS
 62
     3
 10
-512.838230484463
 20
-102.952911376953
 30
0.0
 11
-514.041141861416
 21
-102.952911376953
 31
0.0
  0
LINE
  5
   63A
  8
0
  6
CONTINUOUS
 62
     3
 10
-516.431034439541
 20
-102.952911376953
 30
0.0
 11
-518.745434158779
 21
-102.952911376953
 31
0.0
  0
LINE
  5
   63B
  8
0
  6
CONTINUOUS
 62
     3
 10
-521.135338180996
 20
-102.952911376953
 30
0.0
 11
-522.338230484463
 21
-102.952911376953
 31
0.0
  0
LINE
  5
   63C
  8
0
  6
CONTINUOUS
 62
     3
 10
-512.838230484463
 20
-96.4529113769531
 30
0.0
 11
-512.838230484463
 21
-99.4529113769531
 31
0.0
  0
LINE
  5
   63D
  8
0
  6
CONTINUOUS
 62
     3
 10
-522.338230484463
 20
-96.4529113769531
 30
0.0
 11
-522.338230484463
 21
-99.4529113769531
 31
0.0
  0
LINE
  5
   63E
  8
0
  6
CONTINUOUS
 62
     3
 10
-522.266636246182
 20
-96.4529113769531
 30
0.0
 11
-522.338230484463
 21
-96.4529113769531
 31
0.0
  0
LINE
  5
   63F
  8
0
  6
CONTINUOUS
 62
     3
 10
-512.838230484463
 20
-96.4529113769531
 30
0.0
 11
-512.909828537441
 21
-96.4529113769531
 31
0.0
  0
LINE
  5
   640
  8
0
  6
CONTINUOUS
 62
     3
 10
-512.838230484463
 20
-99.4529113769531
 30
0.0
 11
-522.338230484463
 21
-99.4529113769531
 31
0.0
  0
LINE
  5
   641
  8
0
  6
CONTINUOUS
 62
     3
 10
-512.838230484463
 20
-87.9529113769531
 30
0.0
 11
-512.838230484463
 21
-90.9529113769531
 31
0.0
  0
LINE
  5
   642
  8
0
  6
CONTINUOUS
 62
     3
 10
-522.338230484463
 20
-87.9529113769531
 30
0.0
 11
-522.338230484463
 21
-90.9529113769531
 31
0.0
  0
LINE
  5
   643
  8
0
  6
CONTINUOUS
 62
     3
 10
-512.838230484463
 20
-90.9529113769531
 30
0.0
 11
-512.909828537441
 21
-90.9529113769531
 31
0.0
  0
LINE
  5
   644
  8
0
  6
CONTINUOUS
 62
     3
 10
-522.266636246182
 20
-90.9529113769531
 30
0.0
 11
-522.338230484463
 21
-90.9529113769531
 31
0.0
  0
LINE
  5
   645
  8
0
  6
CONTINUOUS
 62
     3
 10
-512.838230484463
 20
-87.9529113769531
 30
0.0
 11
-522.338230484463
 21
-87.9529113769531
 31
0.0
  0
LINE
  5
   646
  8
0
  6
CONTINUOUS
 62
     7
 10
-522.338230484463
 20
-102.952911376953
 30
0.0
 11
-522.588230484463
 21
-102.952911376953
 31
0.0
  0
LINE
  5
   647
  8
0
  6
CONTINUOUS
 62
     7
 10
-518.745441788174
 20
-102.952911376953
 30
0.0
 11
-521.135326736904
 21
-102.952911376953
 31
0.0
  0
LINE
  5
   648
  8
0
  6
CONTINUOUS
 62
     7
 10
-514.041126602627
 20
-102.952911376953
 30
0.0
 11
-516.431026810146
 21
-102.952911376953
 31
0.0
  0
LINE
  5
   649
  8
0
  6
CONTINUOUS
 62
     7
 10
-512.588230484463
 20
-102.952911376953
 30
0.0
 11
-512.838230484463
 21
-102.952911376953
 31
0.0
  0
LINE
  5
   64A
  8
0
  6
CONTINUOUS
 62
   212
 10
-515.588215225674
 20
-86.602912902832
 30
0.0
 11
-519.588215225674
 21
-86.602912902832
 31
0.0
  0
LINE
  5
   64B
  8
0
  6
CONTINUOUS
 62
     3
 10
-488.838222855068
 20
-111.602890014648
 30
0.0
 11
-493.838207596279
 21
-111.602890014648
 31
0.0
  0
LINE
  5
   64C
  8
0
  6
CONTINUOUS
 62
     3
 10
-506.338211410977
 20
-111.602890014648
 30
0.0
 11
-511.338203781582
 21
-111.602890014648
 31
0.0
  0
LINE
  5
   64D
  8
0
  6
CONTINUOUS
 62
     3
 10
-506.088215225674
 20
-110.852890014648
 30
0.0
 11
-511.588207596279
 21
-110.852890014648
 31
0.0
  0
LINE
  5
   64E
  8
0
  6
CONTINUOUS
 62
     3
 10
-488.588207596279
 20
-110.852890014648
 30
0.0
 11
-494.088215225674
 21
-110.852890014648
 31
0.0
  0
LINE
  5
   64F
  8
0
  6
CONTINUOUS
 62
   253
 10
-505.588215225674
 20
-103.352890014648
 30
0.0
 11
-506.088207596279
 21
-103.352890014648
 31
0.0
  0
LINE
  5
   650
  8
0
  6
CONTINUOUS
 62
   253
 10
-494.088207596279
 20
-103.352890014648
 30
0.0
 11
-494.588215225674
 21
-103.352890014648
 31
0.0
  0
LINE
  5
   651
  8
0
  6
CONTINUOUS
 62
     7
 10
-494.588215225674
 20
-70.4529113769531
 30
0.0
 11
-495.338215225674
 21
-70.4529113769531
 31
0.0
  0
LINE
  5
   652
  8
0
  6
CONTINUOUS
 62
     7
 10
-495.409809463955
 20
-70.4529113769531
 30
0.0
 11
-504.76662480209
 21
-70.4529113769531
 31
0.0
  0
LINE
  5
   653
  8
0
  6
CONTINUOUS
 62
     7
 10
-504.838215225674
 20
-70.4529113769531
 30
0.0
 11
-505.588215225674
 21
-70.4529113769531
 31
0.0
  0
LINE
  5
   654
  8
0
  6
CONTINUOUS
 62
     7
 10
-494.588215225674
 20
-69.2029113769531
 30
0.0
 11
-505.588215225674
 21
-69.2029113769531
 31
0.0
  0
LINE
  5
   655
  8
0
  6
CONTINUOUS
 62
     7
 10
-494.588215225674
 20
-66.2029113769531
 30
0.0
 11
-505.588215225674
 21
-66.2029113769531
 31
0.0
  0
LINE
  5
   656
  8
0
  6
CONTINUOUS
 62
     7
 10
-504.838215225674
 20
-64.9529113769531
 30
0.0
 11
-505.588215225674
 21
-64.9529113769531
 31
0.0
  0
LINE
  5
   657
  8
0
  6
CONTINUOUS
 62
     7
 10
-495.409809463955
 20
-64.9529113769531
 30
0.0
 11
-504.76662480209
 21
-64.9529113769531
 31
0.0
  0
LINE
  5
   658
  8
0
  6
CONTINUOUS
 62
     7
 10
-494.588215225674
 20
-64.9529113769531
 30
0.0
 11
-495.338215225674
 21
-64.9529113769531
 31
0.0
  0
LINE
  5
   659
  8
0
  6
CONTINUOUS
 62
     3
 10
-504.838215225674
 20
-73.9529113769531
 30
0.0
 11
-504.838215225674
 21
-76.9529113769531
 31
0.0
  0
LINE
  5
   65A
  8
0
  6
CONTINUOUS
 62
     3
 10
-495.338215225674
 20
-73.9529113769531
 30
0.0
 11
-495.338215225674
 21
-76.9529113769531
 31
0.0
  0
LINE
  5
   65B
  8
0
  6
CONTINUOUS
 62
     3
 10
-495.338215225674
 20
-73.9529113769531
 30
0.0
 11
-504.838215225674
 21
-73.9529113769531
 31
0.0
  0
LINE
  5
   65C
  8
0
  6
CONTINUOUS
 62
     3
 10
-495.338215225674
 20
-76.9529113769531
 30
0.0
 11
-496.541115158535
 21
-76.9529113769531
 31
0.0
  0
LINE
  5
   65D
  8
0
  6
CONTINUOUS
 62
     3
 10
-498.931011551357
 20
-76.9529113769531
 30
0.0
 11
-501.245415085293
 21
-76.9529113769531
 31
0.0
  0
LINE
  5
   65E
  8
0
  6
CONTINUOUS
 62
     3
 10
-503.635322922207
 20
-76.9529113769531
 30
0.0
 11
-504.838215225674
 21
-76.9529113769531
 31
0.0
  0
LINE
  5
   65F
  8
0
  6
CONTINUOUS
 62
     3
 10
-504.838215225674
 20
-70.4529113769531
 30
0.0
 11
-504.838215225674
 21
-73.4529113769531
 31
0.0
  0
LINE
  5
   660
  8
0
  6
CONTINUOUS
 62
     3
 10
-495.338215225674
 20
-70.4529113769531
 30
0.0
 11
-495.338215225674
 21
-73.4529113769531
 31
0.0
  0
LINE
  5
   661
  8
0
  6
CONTINUOUS
 62
     3
 10
-504.76662480209
 20
-70.4529113769531
 30
0.0
 11
-504.838215225674
 21
-70.4529113769531
 31
0.0
  0
LINE
  5
   662
  8
0
  6
CONTINUOUS
 62
     3
 10
-495.338215225674
 20
-70.4529113769531
 30
0.0
 11
-495.409813278652
 21
-70.4529113769531
 31
0.0
  0
LINE
  5
   663
  8
0
  6
CONTINUOUS
 62
     3
 10
-495.338215225674
 20
-73.4529113769531
 30
0.0
 11
-504.838215225674
 21
-73.4529113769531
 31
0.0
  0
LINE
  5
   664
  8
0
  6
CONTINUOUS
 62
     3
 10
-504.838215225674
 20
-61.9529113769531
 30
0.0
 11
-504.838215225674
 21
-64.9529113769531
 31
0.0
  0
LINE
  5
   665
  8
0
  6
CONTINUOUS
 62
     3
 10
-495.338215225674
 20
-61.9529113769531
 30
0.0
 11
-495.338215225674
 21
-64.9529113769531
 31
0.0
  0
LINE
  5
   666
  8
0
  6
CONTINUOUS
 62
     3
 10
-495.338215225674
 20
-64.9529113769531
 30
0.0
 11
-495.409813278652
 21
-64.9529113769531
 31
0.0
  0
LINE
  5
   667
  8
0
  6
CONTINUOUS
 62
     3
 10
-504.76662480209
 20
-64.9529113769531
 30
0.0
 11
-504.838215225674
 21
-64.9529113769531
 31
0.0
  0
LINE
  5
   668
  8
0
  6
CONTINUOUS
 62
     3
 10
-495.338215225674
 20
-61.9529113769531
 30
0.0
 11
-504.838215225674
 21
-61.9529113769531
 31
0.0
  0
LINE
  5
   669
  8
0
  6
CONTINUOUS
 62
     7
 10
-495.088215225674
 20
-77.352912902832
 30
0.0
 11
-505.088215225674
 21
-77.352912902832
 31
0.0
  0
LINE
  5
   66A
  8
0
  6
CONTINUOUS
 62
     7
 10
-504.838215225674
 20
-76.9529113769531
 30
0.0
 11
-505.088215225674
 21
-76.9529113769531
 31
0.0
  0
LINE
  5
   66B
  8
0
  6
CONTINUOUS
 62
     7
 10
-501.24541889999
 20
-76.9529113769531
 30
0.0
 11
-503.635326736904
 21
-76.9529113769531
 31
0.0
  0
LINE
  5
   66C
  8
0
  6
CONTINUOUS
 62
     7
 10
-496.541118973232
 20
-76.9529113769531
 30
0.0
 11
-498.931015366055
 21
-76.9529113769531
 31
0.0
  0
LINE
  5
   66D
  8
0
  6
CONTINUOUS
 62
     7
 10
-495.088215225674
 20
-76.9529113769531
 30
0.0
 11
-495.338215225674
 21
-76.9529113769531
 31
0.0
  0
LINE
  5
   66E
  8
0
  6
CONTINUOUS
 62
   212
 10
-498.088215225674
 20
-60.602912902832
 30
0.0
 11
-502.088215225674
 21
-60.602912902832
 31
0.0
  0
LINE
  5
   66F
  8
0
  6
CONTINUOUS
 62
     7
 10
-488.838222855068
 20
-113.602890014648
 30
0.0
 11
-488.838222855068
 21
-116.852890014648
 31
0.0
  0
LINE
  5
   670
  8
0
  6
CONTINUOUS
 62
     7
 10
-476.338222855068
 20
-111.352890014648
 30
0.0
 11
-476.338222855068
 21
-116.852890014648
 31
0.0
  0
LINE
  5
   671
  8
0
  6
CONTINUOUS
 62
     7
 10
-506.338207596279
 20
-113.602890014648
 30
0.0
 11
-506.338207596279
 21
-116.852890014648
 31
0.0
  0
LINE
  5
   672
  8
0
  6
CONTINUOUS
 62
     7
 10
-493.838207596279
 20
-113.602890014648
 30
0.0
 11
-493.838207596279
 21
-116.852890014648
 31
0.0
  0
LINE
  5
   673
  8
0
  6
CONTINUOUS
 62
     7
 10
-523.838199966885
 20
-111.352890014648
 30
0.0
 11
-523.838199966885
 21
-116.852890014648
 31
0.0
  0
LINE
  5
   674
  8
0
  6
CONTINUOUS
 62
     7
 10
-511.338199966885
 20
-113.602890014648
 30
0.0
 11
-511.338199966885
 21
-116.852890014648
 31
0.0
  0
LINE
  5
   675
  8
0
  6
CONTINUOUS
 62
     7
 10
-524.338199966885
 20
-113.602890014648
 30
0.0
 11
-524.338199966885
 21
-116.852890014648
 31
0.0
  0
LINE
  5
   676
  8
0
  6
CONTINUOUS
 62
     7
 10
-475.838169449307
 20
-113.602890014648
 30
0.0
 11
-475.838169449307
 21
-116.852890014648
 31
0.0
  0
LINE
  5
   677
  8
0
  6
CONTINUOUS
 62
     7
 10
-475.588199966885
 20
-116.852890014648
 30
0.0
 11
-475.588199966885
 21
-121.352912902832
 31
0.0
  0
LINE
  5
   678
  8
0
  6
CONTINUOUS
 62
     7
 10
-524.588199966885
 20
-116.852890014648
 30
0.0
 11
-524.588199966885
 21
-121.352912902832
 31
0.0
  0
LINE
  5
   679
  8
0
  6
CONTINUOUS
 62
   253
 10
-511.588207596279
 20
-103.352890014648
 30
0.0
 11
-511.588207596279
 21
-111.352890014648
 31
0.0
  0
LINE
  5
   67A
  8
0
  6
CONTINUOUS
 62
   253
 10
-523.588207596279
 20
-103.352890014648
 30
0.0
 11
-523.588207596279
 21
-111.352890014648
 31
0.0
  0
LINE
  5
   67B
  8
0
  6
CONTINUOUS
 62
   253
 10
-476.588207596279
 20
-103.352890014648
 30
0.0
 11
-476.588207596279
 21
-111.352890014648
 31
0.0
  0
LINE
  5
   67C
  8
0
  6
CONTINUOUS
 62
   253
 10
-488.588207596279
 20
-103.352890014648
 30
0.0
 11
-488.588207596279
 21
-111.352890014648
 31
0.0
  0
LINE
  5
   67D
  8
0
  6
CONTINUOUS
 62
   253
 10
-494.088215225674
 20
-103.852912902832
 30
0.0
 11
-494.088215225674
 21
-111.352912902832
 31
0.0
  0
LINE
  5
   67E
  8
0
  6
CONTINUOUS
 62
   253
 10
-506.088215225674
 20
-103.852912902832
 30
0.0
 11
-506.088215225674
 21
-111.352912902832
 31
0.0
  0
LINE
  5
   67F
  8
0
  6
CONTINUOUS
 62
   253
 10
-494.08821614349
 20
-103.852914490872
 30
0.0
 11
-494.588216126376
 21
-103.352914507986
 31
0.0
  0
LINE
  5
   680
  8
0
  6
CONTINUOUS
 62
   253
 10
-505.588217273031
 20
-103.352915490673
 30
0.0
 11
-506.088217255917
 21
-103.852915473559
 31
0.0
  0
LINE
  5
   681
  8
0
  6
CONTINUOUS
 62
     7
 10
-523.088230484463
 20
-90.9529113769531
 30
0.0
 11
-523.088230484463
 21
-92.2029113769531
 31
0.0
  0
LINE
  5
   682
  8
0
  6
CONTINUOUS
 62
     7
 10
-512.088230484463
 20
-95.2029113769531
 30
0.0
 11
-512.088230484463
 21
-96.4529113769531
 31
0.0
  0
LINE
  5
   683
  8
0
  6
CONTINUOUS
 62
     7
 10
-523.088230484463
 20
-95.2029113769531
 30
0.0
 11
-523.088230484463
 21
-96.4529113769531
 31
0.0
  0
LINE
  5
   684
  8
0
  6
CONTINUOUS
 62
     3
 10
-500.088230484463
 20
-99.9529113769531
 30
0.0
 11
-500.088230484463
 21
-102.952911376953
 31
0.0
  0
LINE
  5
   685
  8
0
  6
CONTINUOUS
 62
     3
 10
-500.088230484463
 20
-96.4529113769531
 30
0.0
 11
-500.088230484463
 21
-99.4529113769531
 31
0.0
  0
LINE
  5
   686
  8
0
  6
CONTINUOUS
 62
     3
 10
-500.088230484463
 20
-87.9529113769531
 30
0.0
 11
-500.088230484463
 21
-90.9529113769531
 31
0.0
  0
LINE
  5
   687
  8
0
  6
CONTINUOUS
 62
     7
 10
-512.588230484463
 20
-102.952911376953
 30
0.0
 11
-512.588230484463
 21
-103.352912902832
 31
0.0
  0
LINE
  5
   688
  8
0
  6
CONTINUOUS
 62
     7
 10
-522.588230484463
 20
-102.952911376953
 30
0.0
 11
-522.588230484463
 21
-103.352912902832
 31
0.0
  0
LINE
  5
   689
  8
0
  6
CONTINUOUS
 62
   212
 10
-514.588215927422
 20
-87.6029149337039
 30
0.0
 11
-515.588215893194
 21
-86.6029149679324
 31
0.0
  0
LINE
  5
   68A
  8
0
  6
CONTINUOUS
 62
   212
 10
-519.588217506213
 20
-86.6029159506189
 30
0.0
 11
-520.588217471985
 21
-87.6029159163903
 31
0.0
  0
LINE
  5
   68B
  8
0
  6
CONTINUOUS
 62
   212
 10
-514.588215225674
 20
-87.602912902832
 30
0.0
 11
-514.588215225674
 21
-87.9529113769531
 31
0.0
  0
LINE
  5
   68C
  8
0
  6
CONTINUOUS
 62
   212
 10
-514.588215225674
 20
-92.2029113769531
 30
0.0
 11
-514.588215225674
 21
-95.2029113769531
 31
0.0
  0
LINE
  5
   68D
  8
0
  6
CONTINUOUS
 62
   212
 10
-514.588215225674
 20
-99.4529113769531
 30
0.0
 11
-514.588215225674
 21
-99.9529113769531
 31
0.0
  0
LINE
  5
   68E
  8
0
  6
CONTINUOUS
 62
   212
 10
-514.588215225674
 20
-87.602912902832
 30
0.0
 11
-520.588215225674
 21
-87.602912902832
 31
0.0
  0
LINE
  5
   68F
  8
0
  6
CONTINUOUS
 62
   212
 10
-520.588215225674
 20
-87.602912902832
 30
0.0
 11
-520.588215225674
 21
-87.9529113769531
 31
0.0
  0
LINE
  5
   690
  8
0
  6
CONTINUOUS
 62
   212
 10
-520.588215225674
 20
-92.2029113769531
 30
0.0
 11
-520.588215225674
 21
-95.2029113769531
 31
0.0
  0
LINE
  5
   691
  8
0
  6
CONTINUOUS
 62
   212
 10
-520.588215225674
 20
-99.4529113769531
 30
0.0
 11
-520.588215225674
 21
-99.9529113769531
 31
0.0
  0
LINE
  5
   692
  8
0
  6
CONTINUOUS
 62
   253
 10
-494.088207596279
 20
-103.352890014648
 30
0.0
 11
-494.088207596279
 21
-103.852912902832
 31
0.0
  0
LINE
  5
   693
  8
0
  6
CONTINUOUS
 62
   253
 10
-506.088207596279
 20
-103.352890014648
 30
0.0
 11
-506.088207596279
 21
-103.852912902832
 31
0.0
  0
LINE
  5
   694
  8
0
  6
CONTINUOUS
 62
   253
 10
-512.588207596279
 20
-96.4529113769531
 30
0.0
 11
-512.588207596279
 21
-102.952911376953
 31
0.0
  0
LINE
  5
   695
  8
0
  6
CONTINUOUS
 62
   253
 10
-495.088207596279
 20
-77.8528900146484
 30
0.0
 11
-495.088207596279
 21
-103.352912902832
 31
0.0
  0
LINE
  5
   696
  8
0
  6
CONTINUOUS
 62
   253
 10
-522.588207596279
 20
-96.4529113769531
 30
0.0
 11
-522.588207596279
 21
-102.952911376953
 31
0.0
  0
LINE
  5
   697
  8
0
  6
CONTINUOUS
 62
   253
 10
-522.588207596279
 20
-92.2029113769531
 30
0.0
 11
-522.588207596279
 21
-95.2029113769531
 31
0.0
  0
LINE
  5
   698
  8
0
  6
CONTINUOUS
 62
   253
 10
-505.088207596279
 20
-77.8528900146484
 30
0.0
 11
-505.088207596279
 21
-103.352912902832
 31
0.0
  0
LINE
  5
   699
  8
0
  6
CONTINUOUS
 62
   253
 10
-495.088207189746
 20
-77.8528877991062
 30
0.0
 11
-495.234657227263
 21
-77.4993340236955
 31
0.0
  0
LINE
  5
   69A
  8
0
  6
CONTINUOUS
 62
   253
 10
-495.234659176769
 20
-77.4993383130731
 30
0.0
 11
-495.588209129581
 21
-77.3528920847974
 31
0.0
  0
LINE
  5
   69B
  8
0
  6
CONTINUOUS
 62
   253
 10
-504.941760294874
 20
-77.4993338428165
 30
0.0
 11
-505.088206523157
 21
-77.8528876148511
 31
0.0
  0
LINE
  5
   69C
  8
0
  6
CONTINUOUS
 62
   253
 10
-504.588206115505
 20
-77.3528884481936
 30
0.0
 11
-504.941759887539
 21
-77.4993346764767
 31
0.0
  0
LINE
  5
   69D
  8
0
  6
CONTINUOUS
 62
     7
 10
-505.588215225674
 20
-69.2029113769531
 30
0.0
 11
-505.588215225674
 21
-70.4529113769531
 31
0.0
  0
LINE
  5
   69E
  8
0
  6
CONTINUOUS
 62
     7
 10
-494.588215225674
 20
-69.2029113769531
 30
0.0
 11
-494.588215225674
 21
-70.4529113769531
 31
0.0
  0
LINE
  5
   69F
  8
0
  6
CONTINUOUS
 62
     7
 10
-505.588215225674
 20
-64.9529113769531
 30
0.0
 11
-505.588215225674
 21
-66.2029113769531
 31
0.0
  0
LINE
  5
   6A0
  8
0
  6
CONTINUOUS
 62
     7
 10
-494.588215225674
 20
-64.9529113769531
 30
0.0
 11
-494.588215225674
 21
-66.2029113769531
 31
0.0
  0
LINE
  5
   6A1
  8
0
  6
CONTINUOUS
 62
     3
 10
-500.088215225674
 20
-73.9529113769531
 30
0.0
 11
-500.088215225674
 21
-76.9529113769531
 31
0.0
  0
LINE
  5
   6A2
  8
0
  6
CONTINUOUS
 62
     3
 10
-500.088215225674
 20
-70.4529113769531
 30
0.0
 11
-500.088215225674
 21
-73.4529113769531
 31
0.0
  0
LINE
  5
   6A3
  8
0
  6
CONTINUOUS
 62
     3
 10
-500.088215225674
 20
-61.9529113769531
 30
0.0
 11
-500.088215225674
 21
-64.9529113769531
 31
0.0
  0
LINE
  5
   6A4
  8
0
  6
CONTINUOUS
 62
     7
 10
-505.088215225674
 20
-76.9529113769531
 30
0.0
 11
-505.088215225674
 21
-77.352912902832
 31
0.0
  0
LINE
  5
   6A5
  8
0
  6
CONTINUOUS
 62
     7
 10
-495.088215225674
 20
-76.9529113769531
 30
0.0
 11
-495.088215225674
 21
-77.352912902832
 31
0.0
  0
LINE
  5
   6A6
  8
0
  6
CONTINUOUS
 62
   212
 10
-502.088217728699
 20
-60.6029166180754
 30
0.0
 11
-503.08821769447
 21
-61.6029165838469
 31
0.0
  0
LINE
  5
   6A7
  8
0
  6
CONTINUOUS
 62
   212
 10
-497.088215704937
 20
-61.6029156011605
 30
0.0
 11
-498.088215670708
 21
-60.602915635389
 31
0.0
  0
LINE
  5
   6A8
  8
0
  6
CONTINUOUS
 62
   212
 10
-503.088215225674
 20
-61.602912902832
 30
0.0
 11
-503.088215225674
 21
-61.9529113769531
 31
0.0
  0
LINE
  5
   6A9
  8
0
  6
CONTINUOUS
 62
   212
 10
-503.088215225674
 20
-66.2029113769531
 30
0.0
 11
-503.088215225674
 21
-69.2029113769531
 31
0.0
  0
LINE
  5
   6AA
  8
0
  6
CONTINUOUS
 62
   212
 10
-503.088215225674
 20
-73.4529113769531
 30
0.0
 11
-503.088215225674
 21
-73.9529113769531
 31
0.0
  0
LINE
  5
   6AB
  8
0
  6
CONTINUOUS
 62
   212
 10
-497.088215225674
 20
-61.602912902832
 30
0.0
 11
-503.088215225674
 21
-61.602912902832
 31
0.0
  0
LINE
  5
   6AC
  8
0
  6
CONTINUOUS
 62
   212
 10
-497.088215225674
 20
-61.602912902832
 30
0.0
 11
-497.088215225674
 21
-61.9529113769531
 31
0.0
  0
LINE
  5
   6AD
  8
0
  6
CONTINUOUS
 62
   212
 10
-497.088215225674
 20
-66.2029113769531
 30
0.0
 11
-497.088215225674
 21
-69.2029113769531
 31
0.0
  0
LINE
  5
   6AE
  8
0
  6
CONTINUOUS
 62
   212
 10
-497.088215225674
 20
-73.4529113769531
 30
0.0
 11
-497.088215225674
 21
-73.9529113769531
 31
0.0
  0
LINE
  5
   6AF
  8
0
  6
CONTINUOUS
 62
     7
 10
-475.838169449307
 20
-110.602890014648
 30
0.0
 11
-475.838169449307
 21
-113.602890014648
 31
0.0
  0
LINE
  5
   6B0
  8
0
  6
CONTINUOUS
 62
     7
 10
-488.838222855068
 20
-111.352890014648
 30
0.0
 11
-488.838222855068
 21
-113.602890014648
 31
0.0
  0
LINE
  5
   6B1
  8
0
  6
CONTINUOUS
 62
     7
 10
-493.838207596279
 20
-111.352890014648
 30
0.0
 11
-493.838207596279
 21
-113.602890014648
 31
0.0
  0
LINE
  5
   6B2
  8
0
  6
CONTINUOUS
 62
     7
 10
-506.338207596279
 20
-111.352890014648
 30
0.0
 11
-506.338207596279
 21
-113.602890014648
 31
0.0
  0
LINE
  5
   6B3
  8
0
  6
CONTINUOUS
 62
     7
 10
-511.338199966885
 20
-111.352890014648
 30
0.0
 11
-511.338199966885
 21
-113.602890014648
 31
0.0
  0
LINE
  5
   6B4
  8
0
  6
CONTINUOUS
 62
     7
 10
-524.338199966885
 20
-110.602890014648
 30
0.0
 11
-524.338199966885
 21
-113.602890014648
 31
0.0
  0
LINE
  5
   6B5
  8
0
  6
CONTINUOUS
 62
     7
 10
-476.588207596279
 20
-111.352890014648
 30
0.0
 11
-488.838222855068
 21
-111.352890014648
 31
0.0
  0
LINE
  5
   6B6
  8
0
  6
CONTINUOUS
 62
     7
 10
-523.588207596279
 20
-111.352890014648
 30
0.0
 11
-523.838199966885
 21
-111.352890014648
 31
0.0
  0
LINE
  5
   6B7
  8
0
  6
DASHDOT
 62
     7
 10
-482.588207596279
 20
-81.6537708730308
 30
0.0
 11
-482.588207596279
 21
-126.620172076771
 31
0.0
  0
LINE
  5
   6B8
  8
0
  6
DASHDOT
 62
     7
 10
-500.088207596279
 20
-57.2366980422398
 30
0.0
 11
-500.088207596279
 21
-124.205577299372
 31
0.0
  0
LINE
  5
   6B9
  8
0
  6
DASHDOT
 62
     7
 10
-517.588207596279
 20
-81.0611915570054
 30
0.0
 11
-517.588207596279
 21
-126.896774383764
 31
0.0
  0
LINE
  5
   6BA
  8
0
  6
CONTINUOUS
 62
     7
 10
-497.588207596279
 20
-66.2029113769531
 30
0.0
 11
-497.588207596279
 21
-69.2029113769531
 31
0.0
  0
LINE
  5
   6BB
  8
0
  6
CONTINUOUS
 62
     7
 10
-502.588207596279
 20
-66.2029113769531
 30
0.0
 11
-502.588207596279
 21
-69.2029113769531
 31
0.0
  0
LINE
  5
   6BC
  8
0
  6
CONTINUOUS
 62
     3
 10
-515.088207596279
 20
-92.2029113769531
 30
0.0
 11
-515.088207596279
 21
-95.2029113769531
 31
0.0
  0
LINE
  5
   6BD
  8
0
  6
CONTINUOUS
 62
     3
 10
-520.088207596279
 20
-92.2029113769531
 30
0.0
 11
-520.088207596279
 21
-95.2029113769531
 31
0.0
  0
LINE
  5
   6BE
  8
0
  6
CONTINUOUS
 62
     7
 10
-455.199094675677
 20
-121.352912902832
 30
0.0
 11
-530.064376411013
 21
-121.352912902832
 31
0.0
  0
LINE
  5
   6BF
  8
0
  6
CONTINUOUS
 62
   130
 10
-458.588180541992
 20
-111.352890014648
 30
0.0
 11
-458.588180541992
 21
-121.352912902832
 31
0.0
  0
LINE
  5
   6C0
  8
0
  6
CONTINUOUS
 62
   130
 10
-458.588180541992
 20
-111.352890014648
 30
0.0
 11
-476.588207596279
 21
-111.352890014648
 31
0.0
  0
LINE
  5
   6C1
  8
0
  6
CONTINUOUS
 62
     7
 10
-512.088230484463
 20
-90.9529113769531
 30
0.0
 11
-512.088230484463
 21
-92.2029113769531
 31
0.0
  0
LINE
  5
   6C2
  8
0
  6
CONTINUOUS
 62
     7
 10
-512.588207596279
 20
-92.2029113769531
 30
0.0
 11
-512.588207596279
 21
-95.2029113769531
 31
0.0
  0
LINE
  5
   6C3
  8
0
  6
CONTINUOUS
 62
   212
 10
-485.588215225674
 20
-87.602912902832
 30
0.0
 11
-485.588215225674
 21
-87.9529113769531
 31
0.0
  0
LINE
  5
   6C4
  8
0
  6
CONTINUOUS
 62
   212
 10
-479.588215225674
 20
-87.602912902832
 30
0.0
 11
-485.588215225674
 21
-87.602912902832
 31
0.0
  0
LINE
  5
   6C5
  8
0
  6
CONTINUOUS
 62
   212
 10
-484.588217506213
 20
-86.6029159506189
 30
0.0
 11
-485.588217471985
 21
-87.6029159163903
 31
0.0
  0
LINE
  5
   6C6
  8
0
  6
CONTINUOUS
 62
   212
 10
-480.588215225674
 20
-86.602912902832
 30
0.0
 11
-484.588215225674
 21
-86.602912902832
 31
0.0
  0
LINE
  5
   6C7
  8
0
  6
CONTINUOUS
 62
   212
 10
-479.588215927422
 20
-87.6029149337039
 30
0.0
 11
-480.588215893194
 21
-86.6029149679324
 31
0.0
  0
LINE
  5
   6C8
  8
0
  6
CONTINUOUS
 62
   212
 10
-479.588215225674
 20
-87.602912902832
 30
0.0
 11
-479.588215225674
 21
-87.9529113769531
 31
0.0
  0
LINE
  5
   6C9
  8
0
  6
CONTINUOUS
 62
     3
 10
-477.838230484463
 20
-87.9529113769531
 30
0.0
 11
-487.338230484463
 21
-87.9529113769531
 31
0.0
  0
LINE
  5
   6CA
  8
0
  6
CONTINUOUS
 62
     3
 10
-477.838230484463
 20
-87.9529113769531
 30
0.0
 11
-477.838230484463
 21
-90.9529113769531
 31
0.0
  0
LINE
  5
   6CB
  8
0
  6
CONTINUOUS
 62
     3
 10
-487.338230484463
 20
-87.9529113769531
 30
0.0
 11
-487.338230484463
 21
-90.9529113769531
 31
0.0
  0
LINE
  5
   6CC
  8
0
  6
CONTINUOUS
 62
     7
 10
-477.088230484463
 20
-90.9529113769531
 30
0.0
 11
-488.088230484463
 21
-90.9529113769531
 31
0.0
  0
LINE
  5
   6CD
  8
0
  6
CONTINUOUS
 62
     7
 10
-477.088230484463
 20
-92.2029113769531
 30
0.0
 11
-488.088230484463
 21
-92.2029113769531
 31
0.0
  0
LINE
  5
   6CE
  8
0
  6
CONTINUOUS
 62
     7
 10
-488.088230484463
 20
-90.9529113769531
 30
0.0
 11
-488.088230484463
 21
-92.2029113769531
 31
0.0
  0
LINE
  5
   6CF
  8
0
  6
CONTINUOUS
 62
     7
 10
-477.088230484463
 20
-90.9529113769531
 30
0.0
 11
-477.088230484463
 21
-92.2029113769531
 31
0.0
  0
LINE
  5
   6D0
  8
0
  6
CONTINUOUS
 62
     7
 10
-477.588207596279
 20
-92.2029113769531
 30
0.0
 11
-477.588207596279
 21
-95.2029113769531
 31
0.0
  0
LINE
  5
   6D1
  8
0
  6
CONTINUOUS
 62
   212
 10
-479.588215225674
 20
-92.2029113769531
 30
0.0
 11
-479.588215225674
 21
-95.2029113769531
 31
0.0
  0
LINE
  5
   6D2
  8
0
  6
CONTINUOUS
 62
     3
 10
-480.088207596279
 20
-92.2029113769531
 30
0.0
 11
-480.088207596279
 21
-95.2029113769531
 31
0.0
  0
LINE
  5
   6D3
  8
0
  6
CONTINUOUS
 62
     3
 10
-485.088207596279
 20
-92.2029113769531
 30
0.0
 11
-485.088207596279
 21
-95.2029113769531
 31
0.0
  0
LINE
  5
   6D4
  8
0
  6
CONTINUOUS
 62
   212
 10
-485.588215225674
 20
-92.2029113769531
 30
0.0
 11
-485.588215225674
 21
-95.2029113769531
 31
0.0
  0
LINE
  5
   6D5
  8
0
  6
CONTINUOUS
 62
     7
 10
-477.588207596279
 20
-92.2029113769531
 30
0.0
 11
-477.588207596279
 21
-95.2029113769531
 31
0.0
  0
LINE
  5
   6D6
  8
0
  6
CONTINUOUS
 62
   253
 10
-487.588207596279
 20
-92.2029113769531
 30
0.0
 11
-487.588207596279
 21
-95.2029113769531
 31
0.0
  0
LINE
  5
   6D7
  8
0
  6
CONTINUOUS
 62
     7
 10
-488.088230484463
 20
-95.2029113769531
 30
0.0
 11
-488.088230484463
 21
-96.4529113769531
 31
0.0
  0
LINE
  5
   6D8
  8
0
  6
CONTINUOUS
 62
     7
 10
-477.088230484463
 20
-95.2029113769531
 30
0.0
 11
-488.088230484463
 21
-95.2029113769531
 31
0.0
  0
LINE
  5
   6D9
  8
0
  6
CONTINUOUS
 62
     7
 10
-477.088230484463
 20
-96.4529113769531
 30
0.0
 11
-488.088230484463
 21
-96.4529113769531
 31
0.0
  0
LINE
  5
   6DA
  8
0
  6
CONTINUOUS
 62
     7
 10
-477.088230484463
 20
-95.2029113769531
 30
0.0
 11
-477.088230484463
 21
-96.4529113769531
 31
0.0
  0
LINE
  5
   6DB
  8
0
  6
CONTINUOUS
 62
   253
 10
-487.588207596279
 20
-96.4529113769531
 30
0.0
 11
-487.588207596279
 21
-102.952911376953
 31
0.0
  0
LINE
  5
   6DC
  8
0
  6
CONTINUOUS
 62
     3
 10
-487.338230484463
 20
-96.4529113769531
 30
0.0
 11
-487.338230484463
 21
-99.4529113769531
 31
0.0
  0
LINE
  5
   6DD
  8
0
  6
CONTINUOUS
 62
     3
 10
-477.838230484463
 20
-99.4529113769531
 30
0.0
 11
-487.338230484463
 21
-99.4529113769531
 31
0.0
  0
LINE
  5
   6DE
  8
0
  6
CONTINUOUS
 62
     3
 10
-477.838230484463
 20
-96.4529113769531
 30
0.0
 11
-477.838230484463
 21
-99.4529113769531
 31
0.0
  0
LINE
  5
   6DF
  8
0
  6
CONTINUOUS
 62
   253
 10
-477.588207596279
 20
-96.4529113769531
 30
0.0
 11
-477.588207596279
 21
-102.952911376953
 31
0.0
  0
LINE
  5
   6E0
  8
0
  6
CONTINUOUS
 62
   212
 10
-479.588215225674
 20
-99.4529113769531
 30
0.0
 11
-479.588215225674
 21
-99.9529113769531
 31
0.0
  0
LINE
  5
   6E1
  8
0
  6
CONTINUOUS
 62
   212
 10
-485.588215225674
 20
-99.4529113769531
 30
0.0
 11
-485.588215225674
 21
-99.9529113769531
 31
0.0
  0
LINE
  5
   6E2
  8
0
  6
CONTINUOUS
 62
     3
 10
-477.838230484463
 20
-99.9529113769531
 30
0.0
 11
-487.338230484463
 21
-99.9529113769531
 31
0.0
  0
LINE
  5
   6E3
  8
0
  6
CONTINUOUS
 62
     3
 10
-487.338230484463
 20
-99.9529113769531
 30
0.0
 11
-487.338230484463
 21
-102.952911376953
 31
0.0
  0
LINE
  5
   6E4
  8
0
  6
CONTINUOUS
 62
     3
 10
-477.838230484463
 20
-99.9529113769531
 30
0.0
 11
-477.838230484463
 21
-102.952911376953
 31
0.0
  0
LINE
  5
   6E5
  8
0
  6
CONTINUOUS
 62
     7
 10
-477.588230484463
 20
-102.952911376953
 30
0.0
 11
-477.588230484463
 21
-103.352912902832
 31
0.0
  0
LINE
  5
   6E6
  8
0
  6
CONTINUOUS
 62
     3
 10
-477.588230484463
 20
-102.952911376953
 30
0.0
 11
-479.041141861416
 21
-102.952911376953
 31
0.0
  0
LINE
  5
   6E7
  8
0
  6
CONTINUOUS
 62
     7
 10
-479.041126602627
 20
-102.952911376953
 30
0.0
 11
-481.431026810147
 21
-102.952911376953
 31
0.0
  0
LINE
  5
   6E8
  8
0
  6
CONTINUOUS
 62
     3
 10
-481.431034439541
 20
-102.952911376953
 30
0.0
 11
-483.745434158779
 21
-102.952911376953
 31
0.0
  0
LINE
  5
   6E9
  8
0
  6
CONTINUOUS
 62
     7
 10
-483.745441788174
 20
-102.952911376953
 30
0.0
 11
-486.135326736904
 21
-102.952911376953
 31
0.0
  0
LINE
  5
   6EA
  8
0
  6
CONTINUOUS
 62
     3
 10
-486.135338180996
 20
-102.952911376953
 30
0.0
 11
-487.588230484463
 21
-102.952911376953
 31
0.0
  0
LINE
  5
   6EB
  8
0
  6
CONTINUOUS
 62
     7
 10
-487.588230484463
 20
-102.952911376953
 30
0.0
 11
-487.588230484463
 21
-103.352912902832
 31
0.0
  0
TEXT
  5
   6EC
  8
0
  6
CONTINUOUS
 62
     1
 10
-516.462417604348
 20
-143.043125227343
 30
0.0
 40
2.00000008940697
  1
SCARPELLINI
 50
359.999999896069
 41
0.749999861419206
 72
     2
 11
-500.262419881246
 21
-143.043125256647
 31
0.0
  0
TEXT
  5
   6ED
  8
0
  6
CONTINUOUS
 62
     1
 10
-478.692778065374
 20
-149.221761706823
 30
0.0
 40
2.00000008940697
  1
M4504 98-11-17
 50
359.999999896069
 41
0.749999861419206
 72
     1
 11
-468.342779517174
 21
-148.221761680842
 31
0.0
 73
     2
  0
INSERT
  5
   6EE
  8
0
  6
CONTINUOUS
 62
     7
  2
*UDIM365
 10
0.0
 20
0.0
 30
0.0
  0
INSERT
  5
   6EF
  8
0
  6
CONTINUOUS
 62
     7
  2
*UDIM366
 10
0.0
 20
0.0
 30
0.0
  0
INSERT
  5
   6F0
  8
0
  6
CONTINUOUS
 62
     7
  2
*UDIM367
 10
0.0
 20
0.0
 30
0.0
  0
TEXT
  5
   6F1
  8
0
  6
CONTINUOUS
 62
     1
 10
-504.282774298212
 20
-149.221761705466
 30
0.0
 40
2.00000008940697
  1
M 3076 95-01-16
 50
359.999999896069
 41
0.749999861419206
 72
     1
 11
-493.182775855064
 21
-148.221761680842
 31
0.0
 73
     2
  0
TEXT
  5
   6F2
  8
0
  6
CONTINUOUS
 62
     7
 10
-501.28626601967
 20
-127.610367628726
 30
0.0
 40
3.00000002980232
  1
Y
 50
359.999999896069
 41
0.916666604744064
 72
     2
 11
-499.0862661508
 21
-127.610367632706
 31
0.0
  0
INSERT
  5
   6F3
  8
0
  6
CONTINUOUS
 62
     7
  2
*UDIM368
 10
0.0
 20
0.0
 30
0.0
  0
INSERT
  5
   6F4
  8
0
  6
CONTINUOUS
 62
     7
  2
*UDIM369
 10
0.0
 20
0.0
 30
0.0
  0
TEXT
  5
   6F5
  8
0
  6
CONTINUOUS
 62
     1
 10
-516.462417604348
 20
-134.576374117856
 30
0.0
 40
2.00000008940697
  1
93-04-05 FERRARI M.
 50
359.999999896069
 41
0.749999861419206
 72
     2
 11
-488.262421562096
 21
-134.576374168868
 31
0.0
  0
TEXT
  5
   6F6
  8
0
  6
CONTINUOUS
 62
     1
 10
-409.308593753618
 20
-160.425842430731
 30
0.0
 40
4.00000017881393
  1
601812/381
 50
359.999999896069
 41
0.937499973922969
 72
     2
 11
-372.558593153846
 21
-160.425842497209
 31
0.0
  0
TEXT
  5
   6F7
  8
0
  6
CONTINUOUS
 62
     1
 10
-398.222900393338
 20
-151.444259666393
 30
0.0
 40
3.00000002980232
  1
 S4
 50
359.999999896069
 41
0.916666604744064
 72
     2
 11
-390.522900841367
 21
-151.444259680321
 31
0.0
  0
TEXT
  5
   6F8
  8
0
  6
CONTINUOUS
 62
     1
 10
-419.757320116779
 20
-133.133987418822
 30
0.0
 40
2.00000008940697
  1
3POLE LOW VOLTAGE M.C.C.B SERIES ISOMAX
 50
359.999999896069
 41
0.749999861419206
 72
     1
 11
-390.657324194908
 21
-132.133987426758
 31
0.0
 73
     2
  0
TEXT
  5
   6F9
  8
0
  6
CONTINUOUS
 62
     1
 10
-417.507320431939
 20
-136.133987422892
 30
0.0
 40
2.00000008940697
  1
WITHDRAWABLE VERSION REAR  TERMINALS
 50
359.999999896069
 41
0.749999861419206
 72
     1
 11
-390.657324194908
 21
-135.133987426758
 31
0.0
 73
     2
  0
TEXT
  5
   6FA
  8
0
  6
CONTINUOUS
 62
     1
 10
-416.554928484133
 20
-141.204254154665
 30
0.0
 40
2.00000008940697
  1
INTERR.AUTOMATICO SERIE ISOMAX
 50
359.999999896069
 41
0.749999861419206
 72
     1
 11
-394.204931616783
 21
-140.204254150391
 31
0.0
 73
     2
  0
TEXT
  5
   6FB
  8
0
  6
CONTINUOUS
 62
     1
 10
-428.554926803282
 20
-144.204254132958
 30
0.0
 40
2.00000008940697
  1
TRIPOL.ESECUZIONE ESTRAIBILE TERMIN.POSTERIORI
 50
359.999999896069
 41
0.749999861419206
 72
     1
 11
-394.204931616783
 21
-143.204254150391
 31
0.0
 73
     2
  0
LINE
  5
   6FC
  8
0
  6
CONTINUOUS
 62
     7
 10
-419.838287353516
 20
38.8419342041016
 30
0.0
 11
-386.088287353516
 21
38.8419342041016
 31
0.0
  0
LINE
  5
   6FD
  8
0
  6
CONTINUOUS
 62
     7
 10
-419.838287353516
 20
70.3419342041016
 30
0.0
 11
-386.088287353516
 21
70.3419342041016
 31
0.0
  0
LINE
  5
   6FE
  8
0
  6
CONTINUOUS
 62
     7
 10
-386.088287353516
 20
70.3419342041016
 30
0.0
 11
-386.088287353516
 21
49.7794342041016
 31
0.0
  0
LINE
  5
   6FF
  8
0
  6
CONTINUOUS
 62
     7
 10
-419.838287353516
 20
70.3419342041016
 30
0.0
 11
-419.838287353516
 21
38.8419342041016
 31
0.0
  0
LINE
  5
   700
  8
0
  6
DASHDOT
 62
     7
 10
-390.563273900111
 20
47.7794342041016
 30
0.0
 11
-376.582980954074
 21
47.7794342041016
 31
0.0
  0
LINE
  5
   701
  8
0
  6
CONTINUOUS
 62
     7
 10
-386.088287353516
 20
49.7794342041016
 30
0.0
 11
-380.338287353516
 21
49.7794342041016
 31
0.0
  0
LINE
  5
   702
  8
0
  6
CONTINUOUS
 62
     7
 10
-386.088287353516
 20
45.7794342041016
 30
0.0
 11
-380.338287353516
 21
45.7794342041016
 31
0.0
  0
ARC
  5
   703
  8
0
  6
CONTINUOUS
 62
     7
 10
-380.338287353516
 20
47.7794342041016
 30
0.0
 40
2.0
 50
269.999999844103
 51
449.999999844103
  0
LINE
  5
   704
  8
0
  6
CONTINUOUS
 62
     7
 10
-386.088287353516
 20
45.7794342041016
 30
0.0
 11
-386.088287353516
 21
38.8419342041016
 31
0.0
  0
LINE
  5
   705
  8
0
  6
DASHDOT
 62
     7
 10
-401.838287353516
 20
80.2194253649567
 30
0.0
 11
-401.838287353516
 21
31.4467528865501
 31
0.0
  0
CIRCLE
  5
   706
  8
0
  6
CONTINUOUS
 62
     7
 10
-412.838287353516
 20
72.3419342041016
 30
0.0
 40
0.875
  0
CIRCLE
  5
   707
  8
0
  6
CONTINUOUS
 62
     7
 10
-381.588287353516
 20
72.3419342041016
 30
0.0
 40
1.0
  0
CIRCLE
  5
   708
  8
0
  6
CONTINUOUS
 62
     7
 10
-381.588287353516
 20
54.5919342041016
 30
0.0
 40
1.0
  0
CIRCLE
  5
   709
  8
0
  6
CONTINUOUS
 62
     7
 10
-381.588287353516
 20
36.8419342041016
 30
0.0
 40
0.875
  0
CIRCLE
  5
   70A
  8
0
  6
CONTINUOUS
 62
     7
 10
-412.838287353516
 20
36.8419342041016
 30
0.0
 40
1.0
  0
LINE
  5
   70B
  8
0
  6
DASHDOT
 62
     7
 10
-412.838287353516
 20
73.9669342041016
 30
0.0
 11
-412.838287353516
 21
70.7169342041016
 31
0.0
  0
LINE
  5
   70C
  8
0
  6
DASHDOT
 62
     7
 10
-414.463287353516
 20
72.3419342041016
 30
0.0
 11
-411.213287353516
 21
72.3419342041016
 31
0.0
  0
LINE
  5
   70D
  8
0
  6
DASHDOT
 62
     7
 10
-381.588287353516
 20
73.9669342041016
 30
0.0
 11
-381.588287353516
 21
70.7169342041016
 31
0.0
  0
LINE
  5
   70E
  8
0
  6
DASHDOT
 62
     7
 10
-383.213287353516
 20
72.3419342041016
 30
0.0
 11
-379.963287353516
 21
72.3419342041016
 31
0.0
  0
LINE
  5
   70F
  8
0
  6
DASHDOT
 62
     7
 10
-381.588287353516
 20
56.2169342041016
 30
0.0
 11
-381.588287353516
 21
52.9669342041016
 31
0.0
  0
LINE
  5
   710
  8
0
  6
DASHDOT
 62
     7
 10
-383.213287353516
 20
54.5919342041016
 30
0.0
 11
-379.963287353516
 21
54.5919342041016
 31
0.0
  0
LINE
  5
   711
  8
0
  6
DASHDOT
 62
     7
 10
-381.588287353516
 20
38.4669342041016
 30
0.0
 11
-381.588287353516
 21
35.2169342041016
 31
0.0
  0
LINE
  5
   712
  8
0
  6
DASHDOT
 62
     7
 10
-383.213287353516
 20
36.8419342041016
 30
0.0
 11
-379.963287353516
 21
36.8419342041016
 31
0.0
  0
LINE
  5
   713
  8
0
  6
DASHDOT
 62
     7
 10
-412.838287353516
 20
38.4669342041016
 30
0.0
 11
-412.838287353516
 21
35.2169342041016
 31
0.0
  0
LINE
  5
   714
  8
0
  6
DASHDOT
 62
     7
 10
-414.463287353516
 20
36.8419342041016
 30
0.0
 11
-411.213287353516
 21
36.8419342041016
 31
0.0
  0
LINE
  5
   715
  8
0
  6
CONTINUOUS
 62
     7
 10
-425.762846430909
 20
75.3419342041016
 30
0.0
 11
-376.175787955646
 21
75.3419342041016
 31
0.0
  0
LINE
  5
   716
  8
0
  6
CONTINUOUS
 62
     7
 10
-426.396257761797
 20
33.8419342041016
 30
0.0
 11
-375.723351290725
 21
33.8419342041016
 31
0.0
  0
LINE
  5
   717
  8
0
  6
CONTINUOUS
 62
     7
 10
-376.588287353516
 20
76.1719792516984
 30
0.0
 11
-376.588287353516
 21
32.9190340853193
 31
0.0
  0
LINE
  5
   718
  8
0
  6
CONTINUOUS
 62
     7
 10
-424.838287353516
 20
76.1719792516984
 30
0.0
 11
-424.838287353516
 21
32.3308664209229
 31
0.0
  0
POINT
  5
   719
  8
0
  6
CONTINUOUS
 62
     7
 10
-378.338287353516
 20
47.6544342041016
 30
0.0
  0
LINE
  5
   71A
  8
0
  6
DASHDOT
 62
     7
 10
-429.299012116659
 20
54.5919342041016
 30
0.0
 11
-373.845559053379
 21
54.5919342041016
 31
0.0
  0
CIRCLE
  5
   71B
  8
0
  6
CONTINUOUS
 62
     7
 10
-396.213287353516
 20
72.7169342041016
 30
0.0
 40
0.5
  0
CIRCLE
  5
   71C
  8
0
  6
CONTINUOUS
 62
     7
 10
-407.463287353516
 20
72.7169342041016
 30
0.0
 40
0.5
  0
CIRCLE
  5
   71D
  8
0
  6
CONTINUOUS
 62
     7
 10
-396.213287353516
 20
72.7169342041016
 30
0.0
 40
0.92
  0
CIRCLE
  5
   71E
  8
0
  6
CONTINUOUS
 62
     7
 10
-407.463287353516
 20
72.7169342041016
 30
0.0
 40
0.92
  0
LINE
  5
   71F
  8
0
  6
DASHDOT
 62
     7
 10
-396.213287353516
 20
74.3869342041016
 30
0.0
 11
-396.213287353516
 21
71.0469342041016
 31
0.0
  0
LINE
  5
   720
  8
0
  6
DASHDOT
 62
     7
 10
-397.883287353516
 20
72.7169342041016
 30
0.0
 11
-394.543287353516
 21
72.7169342041016
 31
0.0
  0
LINE
  5
   721
  8
0
  6
DASHDOT
 62
     7
 10
-407.463287353516
 20
74.3869342041016
 30
0.0
 11
-407.463287353516
 21
71.0469342041016
 31
0.0
  0
LINE
  5
   722
  8
0
  6
DASHDOT
 62
     7
 10
-409.133287353516
 20
72.7169342041016
 30
0.0
 11
-405.793287353516
 21
72.7169342041016
 31
0.0
  0
LINE
  5
   723
  8
0
  6
CONTINUOUS
 62
     7
 10
-374.620654618888
 20
71.0923642878401
 30
0.0
 11
-374.620654618888
 21
63.7445162964402
 31
0.0
  0
LINE
  5
   724
  8
0
  6
CONTINUOUS
 62
     7
 10
-372.042462341204
 20
71.0923642878401
 30
0.0
 11
-372.042462341204
 21
63.7445162964402
 31
0.0
  0
LINE
  5
   725
  8
0
  6
CONTINUOUS
 62
     7
 10
-374.620654618888
 20
71.0923642878401
 30
0.0
 11
-372.042462341204
 21
71.0923642878401
 31
0.0
  0
LINE
  5
   726
  8
0
  6
CONTINUOUS
 62
     7
 10
-374.620654618888
 20
63.7445162964402
 30
0.0
 11
-372.042462341204
 21
63.7445162964402
 31
0.0
  0
LINE
  5
   727
  8
0
  6
CONTINUOUS
 62
     7
 10
-374.620654618888
 20
45.4393521117629
 30
0.0
 11
-374.620654618888
 21
38.091504120363
 31
0.0
  0
LINE
  5
   728
  8
0
  6
CONTINUOUS
 62
     7
 10
-372.042462341204
 20
45.4393521117629
 30
0.0
 11
-372.042462341204
 21
38.091504120363
 31
0.0
  0
LINE
  5
   729
  8
0
  6
CONTINUOUS
 62
     7
 10
-374.620654618888
 20
38.091504120363
 30
0.0
 11
-372.042462341204
 21
38.091504120363
 31
0.0
  0
LINE
  5
   72A
  8
0
  6
CONTINUOUS
 62
     7
 10
-374.620654618888
 20
45.4393521117629
 30
0.0
 11
-372.042462341204
 21
45.4393521117629
 31
0.0
  0
LINE
  5
   72B
  8
0
  6
DASHDOT
 62
     7
 10
-373.331558480046
 20
75.2174719321348
 30
0.0
 11
-373.331558480046
 21
16.6280524217616
 31
0.0
  0
LINE
  5
   72C
  8
0
  6
CONTINUOUS
 62
     7
 10
-422.962084928645
 20
103.508469481357
 30
0.0
 11
-408.879978809688
 21
73.6561814310749
 31
0.0
  0
LINE
  5
   72D
  8
0
  6
CONTINUOUS
 62
     7
 10
-447.323324954982
 20
103.508469481357
 30
0.0
 11
-422.962084928645
 21
103.508469481357
 31
0.0
  0
LINE
  5
   72E
  8
0
  6
CONTINUOUS
 62
     7
 10
-411.60247999925
 20
76.8716199392026
 30
0.0
 11
-408.879978809688
 21
73.6561814310749
 31
0.0
  0
LINE
  5
   72F
  8
0
  6
CONTINUOUS
 62
     7
 10
-409.572029981351
 20
77.4815666031361
 30
0.0
 11
-408.879978809688
 21
73.6561814310749
 31
0.0
  0
CIRCLE
  5
   730
  8
0
  6
CONTINUOUS
 62
     7
 10
-454.668021116133
 20
64.015340681867
 30
0.0
 40
0.1
  0
INSERT
  5
   731
  8
0
  6
CONTINUOUS
 62
     7
  2
*UDIM370
 10
0.0
 20
0.0
 30
0.0
  0
INSERT
  5
   732
  8
0
  6
CONTINUOUS
 62
     7
  2
*UDIM371
 10
0.0
 20
0.0
 30
0.0
  0
INSERT
  5
   733
  8
0
  6
CONTINUOUS
 62
     7
  2
*UDIM372
 10
0.0
 20
0.0
 30
0.0
  0
TEXT
  5
   734
  8
0
  6
CONTINUOUS
 62
     7
 10
-445.277808083199
 20
104.67787511145
 30
0.0
 40
3.00000002980232
  1
PART. Z
 50
359.999999844103
 41
0.916666604744064
 72
     2
 11
-426.577809165024
 21
104.677875060663
 31
0.0
  0
INSERT
  5
   735
  8
0
  6
CONTINUOUS
 62
     7
  2
*UDIM373
 10
0.0
 20
0.0
 30
0.0
  0
INSERT
  5
   736
  8
0
  6
CONTINUOUS
 62
     7
  2
*UDIM374
 10
0.0
 20
0.0
 30
0.0
  0
INSERT
  5
   737
  8
0
  6
CONTINUOUS
 62
     7
  2
*UDIM375
 10
0.0
 20
0.0
 30
0.0
  0
TEXT
  5
   738
  8
0
  6
CONTINUOUS
 62
     7
 10
-427.359415945189
 20
45.4014685798735
 30
0.0
 40
3.00000002980232
  1
=     =
 50
449.999999844103
 41
0.916666604744064
 72
     2
 11
-427.359415894425
 21
64.1014674980492
 31
0.0
  0
INSERT
  5
   739
  8
0
  6
CONTINUOUS
 62
     7
  2
*UDIM376
 10
0.0
 20
0.0
 30
0.0
  0
INSERT
  5
   73A
  8
0
  6
CONTINUOUS
 62
     7
  2
*UDIM377
 10
0.0
 20
0.0
 30
0.0
  0
INSERT
  5
   73B
  8
0
  6
CONTINUOUS
 62
     7
  2
*UDIM378
 10
0.0
 20
0.0
 30
0.0
  0
INSERT
  5
   73C
  8
0
  6
CONTINUOUS
 62
     7
  2
*UDIM379
 10
0.0
 20
0.0
 30
0.0
  0
INSERT
  5
   73D
  8
0
  6
CONTINUOUS
 62
     7
  2
*UDIM380
 10
0.0
 20
0.0
 30
0.0
  0
INSERT
  5
   73E
  8
0
  6
CONTINUOUS
 62
     7
  2
*UDIM381
 10
0.0
 20
0.0
 30
0.0
  0
INSERT
  5
   73F
  8
0
  6
CONTINUOUS
 62
     7
  2
*UDIM382
 10
0.0
 20
0.0
 30
0.0
  0
INSERT
  5
   740
  8
0
  6
CONTINUOUS
 62
     7
  2
*UDIM383
 10
0.0
 20
0.0
 30
0.0
  0
INSERT
  5
   741
  8
0
  6
CONTINUOUS
 62
     7
  2
*UDIM384
 10
0.0
 20
0.0
 30
0.0
  0
INSERT
  5
   742
  8
0
  6
CONTINUOUS
 62
     7
  2
*UDIM385
 10
0.0
 20
0.0
 30
0.0
  0
INSERT
  5
   743
  8
0
  6
CONTINUOUS
 62
     7
  2
*UDIM386
 10
0.0
 20
0.0
 30
0.0
  0
TEXT
  5
   744
  8
0
  6
CONTINUOUS
 62
     7
 10
-402.701393614315
 20
9.3446578288129
 30
0.0
 40
3.00000002980232
  1
Y
 50
359.999999844103
 41
0.916666604744064
 72
     2
 11
-400.501393745445
 21
9.34465782283796
 31
0.0
  0
TEXT
  5
   745
  8
0
  6
CONTINUOUS
 62
     7
 10
-403.136676440739
 20
105.73191063643
 30
0.0
 40
3.00000002980232
  1
Y
 50
359.999999844103
 41
0.916666604744064
 72
     2
 11
-400.936676571869
 21
105.731910630455
 31
0.0
  0
TEXT
  5
   746
  8
0
  6
CONTINUOUS
 62
     7
 10
-349.336429486774
 20
53.8876114392331
 30
0.0
 40
3.00000002980232
  1
X
 50
359.999999844103
 41
0.916666604744064
 72
     2
 11
-347.136429617905
 21
53.8876114332582
 31
0.0
  0
TEXT
  5
   747
  8
0
  6
CONTINUOUS
 62
     7
 10
-446.519824872516
 20
53.3446873927167
 30
0.0
 40
3.00000002980232
  1
X
 50
359.999999844103
 41
0.916666604744064
 72
     2
 11
-444.319825003647
 21
53.3446873867418
 31
0.0
  0
LINE
  5
   748
  8
0
  6
CONTINUOUS
 62
     7
 10
-597.192199707031
 20
-95.4903781729142
 30
0.0
 11
-597.192199707031
 21
-119.406899659117
 31
0.0
  0
LINE
  5
   749
  8
0
  6
CONTINUOUS
 62
     7
 10
-599.192199707031
 20
-95.4903781729142
 30
0.0
 11
-599.192199707031
 21
-119.406899659117
 31
0.0
  0
LINE
  5
   74A
  8
0
  6
DASHDOT
 62
     7
 10
-602.394802809428
 20
-107.448638916016
 30
0.0
 11
-593.968583616991
 21
-107.448638916016
 31
0.0
  0
POINT
  5
   74B
  8
0
  6
CONTINUOUS
 62
     7
 10
-599.192199707031
 20
-105.448638916016
 30
0.0
  0
POINT
  5
   74C
  8
0
  6
CONTINUOUS
 62
     7
 10
-599.192199707031
 20
-109.448638916016
 30
0.0
  0
LINE
  5
   74D
  8
0
  6
CONTINUOUS
 62
     7
 10
-597.192199707031
 20
-103.770439653661
 30
0.0
 11
-599.192199707031
 21
-105.448638916016
 31
0.0
  0
LINE
  5
   74E
  8
0
  6
CONTINUOUS
 62
     7
 10
-599.192199707031
 20
-109.448638916016
 30
0.0
 11
-597.192199707031
 21
-111.12683817837
 31
0.0
  0
LINE
  5
   74F
  8
0
  6
CONTINUOUS
 62
     7
 10
-599.192199707031
 20
-116.948638916016
 30
0.0
 11
-597.192199707031
 21
-116.948638916016
 31
0.0
  0
CIRCLE
  5
   750
  8
0
  6
CONTINUOUS
 62
     7
 10
-598.192199707031
 20
-107.448638916016
 30
0.0
 40
12.0
  0
LINE
  5
   751
  8
0
  6
CONTINUOUS
 62
     7
 10
-605.192192077637
 20
-111.948638916016
 30
0.0
 11
-602.692192077637
 21
-111.948638916016
 31
0.0
  0
LINE
  5
   752
  8
0
  6
CONTINUOUS
 62
     7
 10
-601.692192077637
 20
-102.948638916016
 30
0.0
 11
-601.692192077637
 21
-110.948638916016
 31
0.0
  0
LINE
  5
   753
  8
0
  6
CONTINUOUS
 62
     7
 10
-601.692192077637
 20
-102.948638916016
 30
0.0
 11
-599.192199707031
 21
-102.948638916016
 31
0.0
  0
LINE
  5
   754
  8
0
  6
CONTINUOUS
 62
     7
 10
-605.192192077637
 20
-114.448638916016
 30
0.0
 11
-602.692192077637
 21
-114.448638916016
 31
0.0
  0
LINE
  5
   755
  8
0
  6
CONTINUOUS
 62
     7
 10
-606.192192077637
 20
-115.448638916016
 30
0.0
 11
-606.192192077637
 21
-116.392917649947
 31
0.0
  0
ARC
  5
   756
  8
0
  6
CONTINUOUS
 62
     7
 10
-602.692187930357
 20
-110.948639587354
 30
0.0
 40
0.999996977799109
 50
629.999840735313
 51
720.000252836193
  0
ARC
  5
   757
  8
0
  6
CONTINUOUS
 62
     7
 10
-605.19217742413
 20
-115.44865160232
 30
0.0
 40
3.50001845311552
 50
450.000186734275
 51
513.408761128067
  0
ARC
  5
   758
  8
0
  6
CONTINUOUS
 62
     7
 10
-605.192236325787
 20
-115.448598021233
 30
0.0
 40
0.999949821243504
 50
449.997764042825
 51
540.001169660043
  0
ARC
  5
   759
  8
0
  6
CONTINUOUS
 62
     7
 10
-602.692172725255
 20
-110.94867096295
 30
0.0
 40
3.49997105594423
 50
629.999653243441
 51
720.000420168909
  0
INSERT
  5
   75A
  8
0
  6
CONTINUOUS
 62
     7
  2
*HATCH82
 10
-598.192199707031
 20
-107.448638916016
 30
0.0
 50
269.999999844103
  0
INSERT
  5
   75B
  8
0
  6
CONTINUOUS
 62
     7
  2
*HATCH83
 10
-598.192199707031
 20
-107.448638916016
 30
0.0
 50
269.999999844103
  0
TEXT
  5
   75C
  8
0
  6
CONTINUOUS
 62
     7
 10
-608.601944303116
 20
-89.2203369155908
 30
0.0
 40
3.00000002980232
  1
PART. Z
 50
359.999999844103
 41
0.916666689183977
 72
     1
 11
-599.251943975687
 21
-87.7203369260831
 31
0.0
 73
     2
  0
INSERT
  5
   75D
  8
0
  6
CONTINUOUS
 62
     7
  2
*UDIM387
 10
0.0
 20
0.0
 30
0.0
  0
INSERT
  5
   75E
  8
0
  6
CONTINUOUS
 62
     7
  2
*UDIM388
 10
0.0
 20
0.0
 30
0.0
  0
ENDSEC
  0
EOF
