999
DXF file: C:\Data\proe_work\test4polig.dxf
999
Pro/ENGINEER 2001200 by Parametric Technology Corporation
0
SECTION
2
HEADER
9
$ACADVER
1
AC1014
9
$EXTMAX
10
841.0000000000
20
594.0000000000
9
$EXTMIN
10
0.0000000000
20
0.0000000000
9
$LIMMIN
10
0.0000000000
20
0.0000000000
9
$LIMMAX
10
841.0000000000
20
594.0000000000
9
$VIEWCTR
10
420.5000000000
20
297.0000000000
9
$VIEWSIZE
40
594.0000000000
9
$CLAYER
8
0
9
$LTSCALE
40
46.2550000000
9
$CELTYPE
6
BYLAYER
9
$DIMSCALE
40
1
9
$DIMASZ
40
3.5000000000
9
$DIMEXO
40
5.2562500000
9
$DIMDLI
40
31.9580000000
9
$DIMEXE
40
15.1380000000
9
$DIMCEN
40
7.5690000000
9
$DIMLFAC
40
1.0000000000
9
$DIMTXT
40
3.5000000000
9
$DIMTOL
70
1
9
$DIMTFAC
40
0.6000000000
9
$DIMTP
40
0.0100000000
9
$DIMTM
40
0.0100000000
0
ENDSEC
0
SECTION
2
CLASSES
0
ENDSEC
0
SECTION
2
TABLES
0
TABLE
2
VPORT
5
1F4
100
AcDbSymbolTable
70
2
0
VPORT
5
1F5
100
AcDbSymbolTableRecord
100
AcDbViewportTableRecord
2
*ACTIVE
70
0
10
0.0
20
0.0
11
1.0
21
1.0
12
420.5000000000
22
297.0000000000
13
0.0
23
0.0
14
1.0
24
1.0
15
0.0
25
0.0
16
0.0
26
0.0
36
1.0
17
0.0
27
0.0
37
0.0
40
594.0000000000
41
1.4158249158
42
50.0
43
0.0
44
0.0
50
0.0
51
0.0
71
0
72
100
73
1
74
1
75
0
76
0
77
0
78
0
0
ENDTAB
0
TABLE
2
LTYPE
5
1F6
100
AcDbSymbolTable
70
6
0
LTYPE
5
1F7
100
AcDbSymbolTableRecord
100
AcDbLinetypeTableRecord
2
BYBLOCK
70
0
3

72
65
73
0
40
0.0
0
LTYPE
5
1F8
100
AcDbSymbolTableRecord
100
AcDbLinetypeTableRecord
2
BYLAYER
70
0
3

72
65
73
0
40
0.0
0
LTYPE
5
1F9
100
AcDbSymbolTableRecord
100
AcDbLinetypeTableRecord
2
CONTINUOUS
70
64
3
Solid line
72
65
73
0
40
0
0
LTYPE
5
1FA
100
AcDbSymbolTableRecord
100
AcDbLinetypeTableRecord
2
CENTER
70
64
3
____ _ ____ _ ____ _ ____ _ ____ _ ____ _ ____
72
65
73
4
40
0.6
49
0.375
74
0
49
-0.075
74
0
49
0.075
74
0
49
-0.075
74
0
0
LTYPE
5
1FB
100
AcDbSymbolTableRecord
100
AcDbLinetypeTableRecord
2
HIDDEN
70
64
3
- - - - - - - - - - - - - - - - - - - -
72
65
73
2
40
0.2
49
0.1
74
0
49
-0.1
74
0
0
LTYPE
5
1FC
100
AcDbSymbolTableRecord
100
AcDbLinetypeTableRecord
2
PHANTOM
70
64
3
_____ _ _ _____ _ _ _____ _ _ _____
72
65
73
6
40
0.8
49
0.45
74
0
49
-0.05
74
0
49
0.1
74
0
49
-0.05
74
0
49
0.1
74
0
49
-0.05
74
0
0
LTYPE
5
1FD
100
AcDbSymbolTableRecord
100
AcDbLinetypeTableRecord
2
DOT
70
64
3
. . . . . . . . . . . . . . . . . . . .
72
65
73
2
40
0.2
49
0.1
74
0
49
-0.1
74
0
0
LTYPE
5
1FE
100
AcDbSymbolTableRecord
100
AcDbLinetypeTableRecord
2
DASHED
70
64
3
- - - - - - - - - - - - - - - - - - - -
72
65
73
2
40
0.2
49
0.1
74
0
49
-0.1
74
0
0
ENDTAB
0
TABLE
2
LAYER
5
1FF
100
AcDbSymbolTable
70
36
0
LAYER
5
200
100
AcDbSymbolTableRecord
100
AcDbLayerTableRecord
2
0
70
0
62
7
6
CONTINUOUS
0
LAYER
5
201
100
AcDbSymbolTableRecord
100
AcDbLayerTableRecord
2
DEFAULT_1
70
0
62
7
6
CENTER
0
LAYER
5
202
100
AcDbSymbolTableRecord
100
AcDbLayerTableRecord
2
DEFAULT_2
70
0
62
8
6
HIDDEN
0
LAYER
5
203
100
AcDbSymbolTableRecord
100
AcDbLayerTableRecord
2
DEFAULT_3
70
0
62
7
6
PHANTOM
0
ENDTAB
0
TABLE
2
STYLE
5
204
100
AcDbSymbolTable
70
1
0
STYLE
5
205
100
AcDbSymbolTableRecord
100
AcDbTextStyleTableRecord
2
STANDARD
70
0
40
0.0
41
1.0
50
0.0
71
0
42
0.0
3
txt
4

0
ENDTAB
0
TABLE
2
VIEW
5
206
100
AcDbSymbolTable
70
0
0
ENDTAB
0
TABLE
2
UCS
5
207
100
AcDbSymbolTable
70
0
0
ENDTAB
0
TABLE
2
APPID
5
208
100
AcDbSymbolTable
70
1
0
APPID
5
209
100
AcDbSymbolTableRecord
100
AcDbRegAppTableRecord
2
ACAD
70
0
0
ENDTAB
0
TABLE
2
DIMSTYLE
5
20A
100
AcDbSymbolTable
70
1
0
DIMSTYLE
105
20B
100
AcDbSymbolTableRecord
100
AcDbDimStyleTableRecord
2
STANDARD
70
0
3

4

5

6

7

40
1.0
41
0.18
42
0.0625
43
0.38
44
0.18
45
0.0
46
0.0
47
0.0100000000
48
0.0100000000
140
3.5000000000
141
0.09
142
0.0
143
25.4
144
1.0000000000
145
0.0
146
0.6000000000
147
0.09
71
1
72
0
73
1
74
1
75
0
76
0
77
0
78
0
170
0
171
2
172
0
173
0
174
0
175
0
176
0
177
0
178
0
270
2
271
2
272
4
273
2
274
2
340
205
275
0
280
0
281
0
282
0
283
1
284
0
285
0
286
0
287
3
288
0
0
ENDTAB
0
TABLE
2
BLOCK_RECORD
5
20C
100
AcDbSymbolTable
70
0
0
BLOCK_RECORD
5
20D
100
AcDbSymbolTableRecord
100
AcDbBlockTableRecord
2
*MODEL_SPACE
0
BLOCK_RECORD
5
20E
100
AcDbSymbolTableRecord
100
AcDbBlockTableRecord
2
*PAPER_SPACE
0
ENDTAB
0
ENDSEC
0
SECTION
2
BLOCKS
0
BLOCK
5
20F
100
AcDbEntity
8
0
100
AcDbBlockBegin
2
*MODEL_SPACE
70
0
10
0.0000000000
20
0.0000000000
3
*MODEL_SPACE
1

3
*MODEL_SPACE
1

0
ENDBLK
5
210
100
AcDbEntity
8
0
100
AcDbBlockEnd
0
BLOCK
5
211
100
AcDbEntity
8
0
100
AcDbBlockBegin
2
*PAPER_SPACE
70
0
10
0.0000000000
20
0.0000000000
3
*PAPER_SPACE
1

3
*PAPER_SPACE
1

0
ENDBLK
5
212
100
AcDbEntity
8
0
100
AcDbBlockEnd
0
ENDSEC
0
SECTION
2
ENTITIES
0
LINE
5
213
100
AcDbEntity
8
0
100
AcDbLine
62
7
6
CONTINUOUS
10
437.5864334471
20
262.6872866894
11
438.5864334471
21
262.6872866894
0
LINE
5
214
100
AcDbEntity
8
0
100
AcDbLine
62
7
6
CONTINUOUS
10
447.0864334471
20
262.6872866894
11
448.0864334471
21
262.6872866894
0
LINE
5
215
100
AcDbEntity
8
0
100
AcDbLine
62
7
6
CONTINUOUS
10
454.9864334471
20
262.6872866894
11
455.9864334471
21
262.6872866894
0
LINE
5
216
100
AcDbEntity
8
0
100
AcDbLine
62
7
6
CONTINUOUS
10
464.4864334471
20
262.6872866894
11
465.4864334471
21
262.6872866894
0
LINE
5
217
100
AcDbEntity
8
0
100
AcDbLine
62
7
6
CONTINUOUS
10
472.3864334471
20
262.6872866894
11
473.3864334471
21
262.6872866894
0
LINE
5
218
100
AcDbEntity
8
0
100
AcDbLine
62
7
6
CONTINUOUS
10
481.8864334471
20
262.6872866894
11
482.8864334471
21
262.6872866894
0
LINE
5
219
100
AcDbEntity
8
0
100
AcDbLine
62
7
6
CONTINUOUS
10
489.7864334471
20
262.6872866894
11
490.7864334471
21
262.6872866894
0
LINE
5
21A
100
AcDbEntity
8
0
100
AcDbLine
62
7
6
CONTINUOUS
10
499.2864334471
20
262.6872866894
11
500.2864334471
21
262.6872866894
0
LINE
5
21B
100
AcDbEntity
8
0
100
AcDbLine
62
7
6
CONTINUOUS
10
438.5864334471
20
263.1872866894
11
447.0864334471
21
263.1872866894
0
LINE
5
21C
100
AcDbEntity
8
0
100
AcDbLine
62
7
6
CONTINUOUS
10
455.9864334471
20
263.1872866894
11
464.4864334471
21
263.1872866894
0
LINE
5
21D
100
AcDbEntity
8
0
100
AcDbLine
62
7
6
CONTINUOUS
10
473.3864334471
20
263.1872866894
11
481.8864334471
21
263.1872866894
0
LINE
5
21E
100
AcDbEntity
8
0
100
AcDbLine
62
7
6
CONTINUOUS
10
490.7864334471
20
263.1872866894
11
499.2864334471
21
263.1872866894
0
LINE
5
21F
100
AcDbEntity
8
0
100
AcDbLine
62
7
6
CONTINUOUS
10
434.1364334471
20
264.1872866894
11
437.5864334471
21
264.1872866894
0
LINE
5
220
100
AcDbEntity
8
0
100
AcDbLine
62
7
6
CONTINUOUS
10
448.0864334471
20
264.1872866894
11
454.9864334471
21
264.1872866894
0
LINE
5
221
100
AcDbEntity
8
0
100
AcDbLine
62
7
6
CONTINUOUS
10
465.4864334471
20
264.1872866894
11
472.3864334471
21
264.1872866894
0
LINE
5
222
100
AcDbEntity
8
0
100
AcDbLine
62
7
6
CONTINUOUS
10
482.8864334471
20
264.1872866894
11
489.7864334471
21
264.1872866894
0
LINE
5
223
100
AcDbEntity
8
0
100
AcDbLine
62
7
6
CONTINUOUS
10
500.2864334471
20
264.1872866894
11
503.7364334471
21
264.1872866894
0
LINE
5
224
100
AcDbEntity
8
0
100
AcDbLine
62
7
6
CONTINUOUS
10
434.1364334471
20
264.1872866894
11
434.1364334471
21
349.1872866894
0
LINE
5
225
100
AcDbEntity
8
0
100
AcDbLine
62
7
6
CONTINUOUS
10
437.5864334471
20
350.6872866894
11
437.5864334471
21
349.1872866894
0
LINE
5
226
100
AcDbEntity
8
0
100
AcDbLine
62
7
6
CONTINUOUS
10
437.5864334471
20
264.1872866894
11
437.5864334471
21
262.6872866894
0
LINE
5
227
100
AcDbEntity
8
0
100
AcDbLine
62
7
6
CONTINUOUS
10
437.5864334471
20
300.3799081989
11
437.5864334471
21
312.9946651799
0
LINE
5
228
100
AcDbEntity
8
0
100
AcDbLine
62
7
6
CONTINUOUS
10
438.5864334471
20
262.6872866894
11
438.5864334471
21
263.1872866894
0
LINE
5
229
100
AcDbEntity
8
0
100
AcDbLine
62
7
6
CONTINUOUS
10
434.1364334471
20
282.6872866894
11
503.7364334471
21
282.6872866894
0
LINE
5
22A
100
AcDbEntity
8
0
100
AcDbLine
62
7
6
CONTINUOUS
10
447.0864334471
20
263.1872866894
11
447.0864334471
21
262.6872866894
0
LINE
5
22B
100
AcDbEntity
8
0
100
AcDbLine
62
7
6
CONTINUOUS
10
448.0864334471
20
312.9946651799
11
448.0864334471
21
300.3799081989
0
LINE
5
22C
100
AcDbEntity
8
0
100
AcDbLine
62
7
6
CONTINUOUS
10
448.0864334471
20
262.6872866894
11
448.0864334471
21
264.1872866894
0
LINE
5
22D
100
AcDbEntity
8
0
100
AcDbLine
62
7
6
CONTINUOUS
10
448.0864334471
20
349.1872866894
11
448.0864334471
21
350.6872866894
0
LINE
5
22E
100
AcDbEntity
8
0
100
AcDbLine
62
7
6
CONTINUOUS
10
451.5364334471
20
264.1872866894
11
451.5364334471
21
349.1872866894
0
LINE
5
22F
100
AcDbEntity
8
0
100
AcDbLine
62
7
6
CONTINUOUS
10
454.9864334471
20
350.6872866894
11
454.9864334471
21
349.1872866894
0
LINE
5
230
100
AcDbEntity
8
0
100
AcDbLine
62
7
6
CONTINUOUS
10
454.9864334471
20
264.1872866894
11
454.9864334471
21
262.6872866894
0
LINE
5
231
100
AcDbEntity
8
0
100
AcDbLine
62
7
6
CONTINUOUS
10
454.9864334471
20
300.3799081989
11
454.9864334471
21
312.9946651799
0
LINE
5
232
100
AcDbEntity
8
0
100
AcDbLine
62
7
6
CONTINUOUS
10
455.9864334471
20
262.6872866894
11
455.9864334471
21
263.1872866894
0
LINE
5
233
100
AcDbEntity
8
0
100
AcDbLine
62
7
6
CONTINUOUS
10
503.7364334471
20
294.8064955818
11
434.1364334471
21
294.8064955818
0
LINE
5
234
100
AcDbEntity
8
0
100
AcDbLine
6
CONTINUOUS
10
503.7364334471
20
297.8549830190
11
434.1364334471
21
297.8549830190
0
LINE
5
235
100
AcDbEntity
8
0
100
AcDbLine
62
7
6
CONTINUOUS
10
464.4864334471
20
263.1872866894
11
464.4864334471
21
262.6872866894
0
LINE
5
236
100
AcDbEntity
8
0
100
AcDbLine
62
7
6
CONTINUOUS
10
465.4864334471
20
312.9946651799
11
465.4864334471
21
300.3799081989
0
LINE
5
237
100
AcDbEntity
8
0
100
AcDbLine
62
7
6
CONTINUOUS
10
465.4864334471
20
262.6872866894
11
465.4864334471
21
264.1872866894
0
LINE
5
238
100
AcDbEntity
8
0
100
AcDbLine
62
7
6
CONTINUOUS
10
465.4864334471
20
349.1872866894
11
465.4864334471
21
350.6872866894
0
LINE
5
239
100
AcDbEntity
8
0
100
AcDbLine
62
7
6
CONTINUOUS
10
437.5864334471
20
300.3799081989
11
448.0864334471
21
300.3799081989
0
LINE
5
23A
100
AcDbEntity
8
0
100
AcDbLine
62
7
6
CONTINUOUS
10
454.9864334471
20
300.3799081989
11
465.4864334471
21
300.3799081989
0
LINE
5
23B
100
AcDbEntity
8
0
100
AcDbLine
62
7
6
CONTINUOUS
10
472.3864334471
20
300.3799081989
11
482.8864334471
21
300.3799081989
0
LINE
5
23C
100
AcDbEntity
8
0
100
AcDbLine
62
7
6
CONTINUOUS
10
489.7864334471
20
300.3799081989
11
500.2864334471
21
300.3799081989
0
LINE
5
23D
100
AcDbEntity
8
0
100
AcDbLine
62
7
6
CONTINUOUS
10
437.5864334471
20
300.9872866894
11
448.0864334471
21
300.9872866894
0
LINE
5
23E
100
AcDbEntity
8
0
100
AcDbLine
62
7
6
CONTINUOUS
10
454.9864334471
20
300.9872866894
11
465.4864334471
21
300.9872866894
0
LINE
5
23F
100
AcDbEntity
8
0
100
AcDbLine
62
7
6
CONTINUOUS
10
472.3864334471
20
300.9872866894
11
482.8864334471
21
300.9872866894
0
LINE
5
240
100
AcDbEntity
8
0
100
AcDbLine
62
7
6
CONTINUOUS
10
489.7864334471
20
300.9872866894
11
500.2864334471
21
300.9872866894
0
LINE
5
241
100
AcDbEntity
8
0
100
AcDbLine
62
7
6
CONTINUOUS
10
468.9364334471
20
264.1872866894
11
468.9364334471
21
349.1872866894
0
LINE
5
242
100
AcDbEntity
8
0
100
AcDbLine
62
7
6
CONTINUOUS
10
472.3864334471
20
350.6872866894
11
472.3864334471
21
349.1872866894
0
LINE
5
243
100
AcDbEntity
8
0
100
AcDbLine
62
7
6
CONTINUOUS
10
472.3864334471
20
264.1872866894
11
472.3864334471
21
262.6872866894
0
LINE
5
244
100
AcDbEntity
8
0
100
AcDbLine
62
7
6
CONTINUOUS
10
472.3864334471
20
300.3799081989
11
472.3864334471
21
312.9946651799
0
LINE
5
245
100
AcDbEntity
8
0
100
AcDbLine
62
7
6
CONTINUOUS
10
473.3864334471
20
262.6872866894
11
473.3864334471
21
263.1872866894
0
LINE
5
246
100
AcDbEntity
8
0
100
AcDbLine
62
7
6
CONTINUOUS
10
500.2864334471
20
312.3872866894
11
489.7864334471
21
312.3872866894
0
LINE
5
247
100
AcDbEntity
8
0
100
AcDbLine
62
7
6
CONTINUOUS
10
482.8864334471
20
312.3872866894
11
472.3864334471
21
312.3872866894
0
LINE
5
248
100
AcDbEntity
8
0
100
AcDbLine
62
7
6
CONTINUOUS
10
465.4864334471
20
312.3872866894
11
454.9864334471
21
312.3872866894
0
LINE
5
249
100
AcDbEntity
8
0
100
AcDbLine
62
7
6
CONTINUOUS
10
448.0864334471
20
312.3872866894
11
437.5864334471
21
312.3872866894
0
LINE
5
24A
100
AcDbEntity
8
0
100
AcDbLine
62
7
6
CONTINUOUS
10
437.5864334471
20
312.9946651799
11
448.0864334471
21
312.9946651799
0
LINE
5
24B
100
AcDbEntity
8
0
100
AcDbLine
62
7
6
CONTINUOUS
10
454.9864334471
20
312.9946651799
11
465.4864334471
21
312.9946651799
0
LINE
5
24C
100
AcDbEntity
8
0
100
AcDbLine
62
7
6
CONTINUOUS
10
472.3864334471
20
312.9946651799
11
482.8864334471
21
312.9946651799
0
LINE
5
24D
100
AcDbEntity
8
0
100
AcDbLine
62
7
6
CONTINUOUS
10
489.7864334471
20
312.9946651799
11
500.2864334471
21
312.9946651799
0
LINE
5
24E
100
AcDbEntity
8
0
100
AcDbLine
6
CONTINUOUS
10
503.7364334471
20
315.5195903598
11
434.1364334471
21
315.5195903598
0
LINE
5
24F
100
AcDbEntity
8
0
100
AcDbLine
62
7
6
CONTINUOUS
10
481.8864334471
20
263.1872866894
11
481.8864334471
21
262.6872866894
0
LINE
5
250
100
AcDbEntity
8
0
100
AcDbLine
62
7
6
CONTINUOUS
10
482.8864334471
20
312.9946651799
11
482.8864334471
21
300.3799081989
0
LINE
5
251
100
AcDbEntity
8
0
100
AcDbLine
62
7
6
CONTINUOUS
10
482.8864334471
20
262.6872866894
11
482.8864334471
21
264.1872866894
0
LINE
5
252
100
AcDbEntity
8
0
100
AcDbLine
62
7
6
CONTINUOUS
10
482.8864334471
20
349.1872866894
11
482.8864334471
21
350.6872866894
0
LINE
5
253
100
AcDbEntity
8
0
100
AcDbLine
62
7
6
CONTINUOUS
10
503.7364334471
20
318.5680777970
11
434.1364334471
21
318.5680777970
0
LINE
5
254
100
AcDbEntity
8
0
100
AcDbLine
62
7
6
CONTINUOUS
10
486.3364334471
20
264.1872866894
11
486.3364334471
21
349.1872866894
0
LINE
5
255
100
AcDbEntity
8
0
100
AcDbLine
62
7
6
CONTINUOUS
10
489.7864334471
20
350.6872866894
11
489.7864334471
21
349.1872866894
0
LINE
5
256
100
AcDbEntity
8
0
100
AcDbLine
62
7
6
CONTINUOUS
10
489.7864334471
20
264.1872866894
11
489.7864334471
21
262.6872866894
0
LINE
5
257
100
AcDbEntity
8
0
100
AcDbLine
62
7
6
CONTINUOUS
10
489.7864334471
20
300.3799081989
11
489.7864334471
21
312.9946651799
0
LINE
5
258
100
AcDbEntity
8
0
100
AcDbLine
62
7
6
CONTINUOUS
10
490.7864334471
20
262.6872866894
11
490.7864334471
21
263.1872866894
0
LINE
5
259
100
AcDbEntity
8
0
100
AcDbLine
62
7
6
CONTINUOUS
10
434.1364334471
20
330.6872866894
11
503.7364334471
21
330.6872866894
0
LINE
5
25A
100
AcDbEntity
8
0
100
AcDbLine
62
7
6
CONTINUOUS
10
499.2864334471
20
263.1872866894
11
499.2864334471
21
262.6872866894
0
LINE
5
25B
100
AcDbEntity
8
0
100
AcDbLine
62
7
6
CONTINUOUS
10
500.2864334471
20
312.9946651799
11
500.2864334471
21
300.3799081989
0
LINE
5
25C
100
AcDbEntity
8
0
100
AcDbLine
62
7
6
CONTINUOUS
10
500.2864334471
20
262.6872866894
11
500.2864334471
21
264.1872866894
0
LINE
5
25D
100
AcDbEntity
8
0
100
AcDbLine
62
7
6
CONTINUOUS
10
500.2864334471
20
349.1872866894
11
500.2864334471
21
350.6872866894
0
LINE
5
25E
100
AcDbEntity
8
0
100
AcDbLine
62
7
6
CONTINUOUS
10
503.7364334471
20
264.1872866894
11
503.7364334471
21
349.1872866894
0
LINE
5
25F
100
AcDbEntity
8
0
100
AcDbLine
62
7
6
CONTINUOUS
10
503.7364334471
20
349.1872866894
11
500.2864334471
21
349.1872866894
0
LINE
5
260
100
AcDbEntity
8
0
100
AcDbLine
62
7
6
CONTINUOUS
10
489.7864334471
20
349.1872866894
11
482.8864334471
21
349.1872866894
0
LINE
5
261
100
AcDbEntity
8
0
100
AcDbLine
62
7
6
CONTINUOUS
10
472.3864334471
20
349.1872866894
11
465.4864334471
21
349.1872866894
0
LINE
5
262
100
AcDbEntity
8
0
100
AcDbLine
62
7
6
CONTINUOUS
10
454.9864334471
20
349.1872866894
11
448.0864334471
21
349.1872866894
0
LINE
5
263
100
AcDbEntity
8
0
100
AcDbLine
62
7
6
CONTINUOUS
10
437.5864334471
20
349.1872866894
11
434.1364334471
21
349.1872866894
0
LINE
5
264
100
AcDbEntity
8
0
100
AcDbLine
62
7
6
CONTINUOUS
10
500.2864334471
20
350.6872866894
11
489.7864334471
21
350.6872866894
0
LINE
5
265
100
AcDbEntity
8
0
100
AcDbLine
62
7
6
CONTINUOUS
10
482.8864334471
20
350.6872866894
11
472.3864334471
21
350.6872866894
0
LINE
5
266
100
AcDbEntity
8
0
100
AcDbLine
62
7
6
CONTINUOUS
10
465.4864334471
20
350.6872866894
11
454.9864334471
21
350.6872866894
0
LINE
5
267
100
AcDbEntity
8
0
100
AcDbLine
62
7
6
CONTINUOUS
10
448.0864334471
20
350.6872866894
11
437.5864334471
21
350.6872866894
0
CIRCLE
5
268
100
AcDbEntity
8
0
100
AcDbCircle
62
7
6
CONTINUOUS
10
442.8364334471
20
272.1872866894
40
3.7500000000
0
CIRCLE
5
269
100
AcDbEntity
8
0
100
AcDbCircle
62
7
6
CONTINUOUS
10
442.8364334471
20
341.1872866894
40
3.7500000000
0
CIRCLE
5
26A
100
AcDbEntity
8
0
100
AcDbCircle
62
7
6
CONTINUOUS
10
460.2364334471
20
272.1872866894
40
3.7500000000
0
CIRCLE
5
26B
100
AcDbEntity
8
0
100
AcDbCircle
62
7
6
CONTINUOUS
10
460.2364334471
20
341.1872866894
40
3.7500000000
0
CIRCLE
5
26C
100
AcDbEntity
8
0
100
AcDbCircle
62
7
6
CONTINUOUS
10
477.6364334471
20
272.1872866894
40
3.7500000000
0
CIRCLE
5
26D
100
AcDbEntity
8
0
100
AcDbCircle
62
7
6
CONTINUOUS
10
477.6364334471
20
341.1872866894
40
3.7500000000
0
CIRCLE
5
26E
100
AcDbEntity
8
0
100
AcDbCircle
62
7
6
CONTINUOUS
10
495.0364334471
20
272.1872866894
40
3.7500000000
0
CIRCLE
5
26F
100
AcDbEntity
8
0
100
AcDbCircle
62
7
6
CONTINUOUS
10
495.0364334471
20
341.1872866894
40
3.7500000000
0
ENDSEC
0
SECTION
2
OBJECTS
0
DICTIONARY
5
270
100
AcDbDictionary
3
ACAD_GROUP
350
271
3
ACAD_MLINESTYLE
350
272
0
DICTIONARY
5
271
102
{ACAD_REACTORS
330
270
102
}
100
AcDbDictionary
0
DICTIONARY
5
272
102
{ACAD_REACTORS
330
270
102
}
100
AcDbDictionary
3
STANDARD
350
273
0
MLINESTYLE
5
273
102
{ACAD_REACTORS
330
272
102
}
100
AcDbMlineStyle
2
STANDARD
70
0
3

62
256
51
90.0
52
90.0
71
2
49
0.5
62
256
6
BYLAYER
49
-0.5
62
256
6
BYLAYER
0
ENDSEC
0
EOF
