  0
SECTION
  2
HEADER
  9
$ACADVER
  1
AC1009
999
I-DEAS Drafting Master Series 7m3 Not Encoded
  9
$EXTMIN
 10
0.0
 20
0.0
  9
$EXTMAX
 10
2.97E+002
 20
2.1E+002
  9
$TEXTSIZE
 40
1.25E-001
  9
$LTSCALE
 40
1.0
  9
$CLAYER
  8
AUTOCAD1
  9
$CECOLOR
 62
2
  9
$DIMASZ
 40
1.25E-001
  9
$DIMEXO
 40
6.25E-002
  9
$DIMDLI
 40
2.5E-001
  9
$DIMEXE
 40
1.25E-001
  9
$DIMTP
 40
5.0E-003
  9
$DIMTM
 40
-5.0E-003
  9
$DIMTXT
 40
3.0
  9
$DIMLIM
 70
0
  9
$DIMTIH
 70
1
  9
$DIMTOH
 70
1
  9
$DIMSE1
 70
0
  9
$DIMSE2
 70
0
  9
$DIMTAD
 70
0
  9
$DIMASO
 70
1
  9
$DIMALT
 70
0
  9
$DIMALTD
 70
0
  9
$DIMTOFL
 70
1
  9
$DIMTIX
 70
0
  9
$DIMSAH
 70
0
  9
$DIMTFAC
 40
1.0
  9
$DIMGAP
 40
6.25E-002
  9
$LUNITS
 70
2
  9
$LUPREC
 70
3
  9
$FILLETRAD
 40
1.0E+001
  9
$AUNITS
 70
0
  9
$AUPREC
 70
1
  9
$CHAMFERA
 40
6.0
  9
$CHAMFERB
 40
6.0
  9
$ANGBASE
 50
0.0
  9
$ANGDIR
 70
0
  9
$PDMODE
 70
2
  9
$PDSIZE
 40
-1.0E-002
  9
$SPLINETYPE
 70
6
  0
ENDSEC
  0
SECTION
  2
TABLES
  0
TABLE
  2
LTYPE
 70
7
  0
LTYPE
  2
HIDDENNEW00
  3
_ 
 70
64
 72
65
 73
2
 40
4.5
 49
3.0
 49
-1.5
  0
LTYPE
  2
HIDDENNEW01
  3
_ 
 70
64
 72
65
 73
2
 40
4.5
 49
3.0
 49
-1.5
  0
LTYPE
  2
HIDDEN
  3
_ 
 70
64
 72
65
 73
2
 40
4.5
 49
3.0
 49
-1.5
  0
LTYPE
  2
CENTERLINE
  3
_ 
 70
64
 72
65
 73
4
 40
3.0E+001
 49
2.4E+001
 49
-1.5
 49
3.0
 49
-1.5
  0
LTYPE
  2
PHANTOM
  3
_ 
 70
64
 72
65
 73
6
 40
2.95E+001
 49
1.9E+001
 49
-1.5
 49
3.0
 49
-1.5
 49
3.0
 49
-1.5
  0
LTYPE
  2
SHORT_DASH
  3
_ 
 70
64
 72
65
 73
2
 40
3.0
 49
1.5
 49
-1.5
  0
LTYPE
  2
LONG_DASH
  3
_ 
 70
64
 72
65
 73
2
 40
9.0
 49
4.5
 49
-4.5
  0
ENDTAB
  0
TABLE
  2
LAYER
 70
258
  0
LAYER
  2
AUTOCAD1
 70
0
 62
7
  6
HIDDENNEW00
  0
LAYER
  2
Drafting_Hidden_Entities
 70
1
 62
7
  6
CONTINUOUS
  0
ENDTAB
  0
TABLE
  2
STYLE
 70
1
  0
STYLE
  2
STANDARD
 70
64
 40
0.0
 41
1.0
 50
0.0
 71
0
 42
1.0
  3
monotxt.shx
  4

  0
ENDTAB
  0
TABLE
  2
VIEW
 70
0
  0
ENDTAB
  0
TABLE
  2
DIMSTYLE
 70
0
  0
ENDTAB
  0
ENDSEC
  0
SECTION
  2
BLOCKS
  0
ENDSEC
  0
SECTION
  2
ENTITIES
  0
TEXT
  8
AUTOCAD1
  6
CONTINUOUS
 62
40
 10
1.30116E+002
 20
1.60275E+002
 40
3.0
  1
OESAZX 235
  0
LINE
  8
AUTOCAD1
  6
CONTINUOUS
 62
2
 10
4.5383639E+002
 20
1.302274
 11
4.5383639E+002
 21
2.9830227E+002
  0
LINE
  8
AUTOCAD1
  6
CONTINUOUS
 62
2
 10
4.5383639E+002
 20
2.9830227E+002
 11
3.3836385E+001
 21
2.9830227E+002
  0
LINE
  8
AUTOCAD1
  6
CONTINUOUS
 62
40
 10
1.4776882E+002
 20
6.2701264E+001
 11
1.4776882E+002
 21
5.7201264E+001
  0
LINE
  8
AUTOCAD1
  6
CONTINUOUS
 62
40
 10
2.0616726E+002
 20
6.2701264E+001
 11
2.0616726E+002
 21
5.9451264E+001
  0
LINE
  8
AUTOCAD1
  6
CONTINUOUS
 62
40
 10
1.9116726E+002
 20
6.2701264E+001
 11
1.9116726E+002
 21
5.9451264E+001
  0
ARC
  8
AUTOCAD1
  6
CONTINUOUS
 62
40
 10
1.9866726E+002
 20
6.2701264E+001
 40
7.5
 50
0.0
 51
1.8E+002
  0
ARC
  8
AUTOCAD1
  6
CONTINUOUS
 62
40
 10
1.9866726E+002
 20
6.2701264E+001
 40
1.2600001E+001
 50
4.9525922E+001
 51
9.57431E+001
  0
ARC
  8
AUTOCAD1
  6
CONTINUOUS
 62
40
 10
1.9750647E+002
 20
7.4243041E+001
 40
9.9999889E-001
 50
9.5743203E+001
 51
1.6894125E+002
  0
ARC
  8
AUTOCAD1
  6
CONTINUOUS
 62
40
 10
2.0489866E+002
 20
7.0003979E+001
 40
3.0000007
 50
3.3000008E+002
 51
4.09526E+002
  0
LINE
  8
AUTOCAD1
  6
CONTINUOUS
 62
40
 10
1.8966726E+002
 20
5.7201264E+001
 11
1.8966726E+002
 21
5.8451264E+001
  0
LINE
  8
AUTOCAD1
  6
CONTINUOUS
 62
40
 10
1.8966726E+002
 20
5.8451264E+001
 11
1.9016726E+002
 21
5.8451264E+001
  0
ARC
  8
AUTOCAD1
  6
CONTINUOUS
 62
40
 10
1.9016726E+002
 20
5.9451264E+001
 40
1.0
 50
2.7E+002
 51
3.6E+002
  0
ARC
  8
AUTOCAD1
  6
CONTINUOUS
 62
40
 10
2.0469219E+002
 20
7.0046353E+001
 40
2.0
 50
0.0
 51
1.8E+002
  0
ARC
  8
AUTOCAD1
  6
CONTINUOUS
 62
40
 10
2.0469219E+002
 20
7.0046353E+001
 40
2.0
 50
1.8E+002
 51
3.6E+002
  0
LINE
  8
AUTOCAD1
  6
CONTINUOUS
 62
40
 10
2.0766726E+002
 20
5.7201264E+001
 11
2.0766726E+002
 21
5.8451264E+001
  0
LINE
  8
AUTOCAD1
  6
CONTINUOUS
 62
40
 10
2.0766726E+002
 20
5.8451264E+001
 11
2.0716726E+002
 21
5.8451264E+001
  0
ARC
  8
AUTOCAD1
  6
CONTINUOUS
 62
40
 10
2.0716726E+002
 20
5.9451264E+001
 40
1.0
 50
1.8E+002
 51
2.7E+002
  0
ARC
  8
AUTOCAD1
  6
CONTINUOUS
 62
40
 10
1.9934432E+002
 20
7.2177107E+001
 40
2.0
 50
0.0
 51
1.8E+002
  0
ARC
  8
AUTOCAD1
  6
CONTINUOUS
 62
40
 10
1.9934432E+002
 20
7.2177107E+001
 40
2.0
 50
1.8E+002
 51
3.6E+002
  0
ARC
  8
AUTOCAD1
  6
CONTINUOUS
 62
40
 10
9.9387848E+001
 20
6.632833E+001
 40
1.0000015
 50
8.61757E-005
 51
9.0000086E+001
  0
ARC
  8
AUTOCAD1
  6
CONTINUOUS
 62
40
 10
9.0587847E+001
 20
6.6328332E+001
 40
1.0
 50
9.0E+001
 51
1.8E+002
  0
LINE
  8
AUTOCAD1
  6
CONTINUOUS
 62
40
 10
1.4776882E+002
 20
5.8451264E+001
 11
1.3766882E+002
 21
5.8451264E+001
  0
LINE
  8
AUTOCAD1
  6
CONTINUOUS
 62
40
 10
1.5946882E+002
 20
1.1857269E+002
 11
1.4986882E+002
 21
1.1857269E+002
  0
LINE
  8
AUTOCAD1
  6
CONTINUOUS
 62
40
 10
1.3816882E+002
 20
7.0201264E+001
 11
1.3766882E+002
 21
7.0201264E+001
  0
LINE
  8
AUTOCAD1
  6
CONTINUOUS
 62
40
 10
2.0636823E+002
 20
6.6549341E+001
 11
2.0749674E+002
 21
6.8503982E+001
  0
LINE
  8
AUTOCAD1
  6
CONTINUOUS
 62
40
 10
2.0584152E+002
 20
6.4887591E+001
 11
2.0584152E+002
 21
6.4887591E+001
  0
ARC
  8
AUTOCAD1
  6
CONTINUOUS
 62
40
 10
1.9866716E+002
 20
6.2701264E+001
 40
4.0
 50
0.0
 51
1.8E+002
  0
ARC
  8
AUTOCAD1
  6
CONTINUOUS
 62
40
 10
1.9866716E+002
 20
6.2701264E+001
 40
4.0
 50
1.8E+002
 51
3.6E+002
  0
LINE
  8
AUTOCAD1
  6
CONTINUOUS
 62
40
 10
1.0038785E+002
 20
5.7200239E+001
 11
8.9743925E+001
 21
5.7200239E+001
  0
LINE
  8
AUTOCAD1
  6
CONTINUOUS
 62
40
 10
1.4966667E+002
 20
1.2007259E+002
 11
1.4986882E+002
 21
1.2007259E+002
  0
LINE
  8
AUTOCAD1
  6
CONTINUOUS
 62
40
 10
2.0766726E+002
 20
5.7201264E+001
 11
1.8966726E+002
 21
5.7201264E+001
  0
ARC
  8
AUTOCAD1
  6
CONTINUOUS
 62
40
 10
9.4987845E+001
 20
6.2701263E+001
 40
7.4999976
 50
3.1446902E+002
 51
5.8553098E+002
  0
LINE
  8
AUTOCAD1
  6
CONTINUOUS
 62
40
 10
1.3766882E+002
 20
5.7201264E+001
 11
1.4776882E+002
 21
5.7201264E+001
  0
ARC
  8
AUTOCAD1
  6
CONTINUOUS
 62
40
 10
1.9866726E+002
 20
6.2701264E+001
 40
3.0
 50
0.0
 51
1.8E+002
  0
ARC
  8
AUTOCAD1
  6
CONTINUOUS
 62
40
 10
1.9866726E+002
 20
6.2701264E+001
 40
3.0
 50
1.8E+002
 51
3.6E+002
  0
ARC
  8
AUTOCAD1
  6
CONTINUOUS
 62
40
 10
9.4987847E+001
 20
6.2610293E+001
 40
3.0
 50
0.0
 51
1.8E+002
  0
ARC
  8
AUTOCAD1
  6
CONTINUOUS
 62
40
 10
9.4987847E+001
 20
6.2610293E+001
 40
3.0
 50
1.8E+002
 51
3.6E+002
  0
LINE
  8
AUTOCAD1
  6
CONTINUOUS
 62
40
 10
1.9566068E+002
 20
7.001237E+001
 11
1.9652504E+002
 21
7.4434856E+001
  0
LINE
  8
AUTOCAD1
  6
CONTINUOUS
 62
40
 10
2.0616726E+002
 20
6.5799341E+001
 11
2.0616726E+002
 21
6.2701264E+001
  0
ARC
  8
AUTOCAD1
  6
CONTINUOUS
 62
40
 10
1.9467925E+002
 20
7.0204188E+001
 40
9.9999988E-001
 50
3.0212178E+002
 51
3.4894111E+002
  0
LINE
  8
AUTOCAD1
  6
CONTINUOUS
 62
40
 10
2.0266716E+002
 20
5.7201264E+001
 11
2.0266716E+002
 21
6.7329358E+001
  0
LINE
  8
AUTOCAD1
  6
CONTINUOUS
 62
40
 10
1.9466716E+002
 20
6.7329358E+001
 11
1.9466716E+002
 21
5.7201264E+001
  0
LINE
  8
AUTOCAD1
  6
CONTINUOUS
 62
40
 10
1.6351882E+002
 20
1.2367259E+002
 11
1.6196882E+002
 21
1.2367259E+002
  0
LINE
  8
AUTOCAD1
  6
CONTINUOUS
 62
40
 10
1.6496882E+002
 20
1.2217259E+002
 11
1.6496882E+002
 21
1.3307259E+002
  0
LINE
  8
AUTOCAD1
  6
CENTERLINE
 62
40
 10
1.4976882E+002
 20
1.2757259E+002
 11
1.6736043E+002
 21
1.2757259E+002
  0
LINE
  8
AUTOCAD1
  6
CONTINUOUS
 62
40
 10
1.6351882E+002
 20
1.2217259E+002
 11
1.6496882E+002
 21
1.2217259E+002
  0
LINE
  8
AUTOCAD1
  6
CONTINUOUS
 62
40
 10
1.4986882E+002
 20
1.1857269E+002
 11
1.4986882E+002
 21
1.2772532E+002
  0
LINE
  8
AUTOCAD1
  6
CONTINUOUS
 62
40
 10
1.6196882E+002
 20
1.3147259E+002
 11
1.6351882E+002
 21
1.3147259E+002
  0
LINE
  8
AUTOCAD1
  6
CONTINUOUS
 62
40
 10
1.6196882E+002
 20
1.2007259E+002
 11
1.6196882E+002
 21
1.2367259E+002
  0
LINE
  8
AUTOCAD1
  6
CONTINUOUS
 62
40
 10
1.6351882E+002
 20
1.2217259E+002
 11
1.6351882E+002
 21
1.2357259E+002
  0
ARC
  8
AUTOCAD1
  6
CONTINUOUS
 62
40
 10
1.9866716E+002
 20
6.385229E+001
 40
5.3
 50
4.0999353E+001
 51
1.3900065E+002
  0
LINE
  8
AUTOCAD1
  6
CONTINUOUS
 62
40
 10
1.5946882E+002
 20
1.1857269E+002
 11
1.5946882E+002
 21
1.2007259E+002
  0
LINE
  8
AUTOCAD1
  6
CONTINUOUS
 62
40
 10
1.6351882E+002
 20
1.3157259E+002
 11
1.6351882E+002
 21
1.3307259E+002
  0
LINE
  8
AUTOCAD1
  6
CONTINUOUS
 62
40
 10
1.6196882E+002
 20
1.3507259E+002
 11
1.6196882E+002
 21
1.2367259E+002
  0
LINE
  8
AUTOCAD1
  6
CONTINUOUS
 62
40
 10
1.6351882E+002
 20
1.3297259E+002
 11
1.6496882E+002
 21
1.3297259E+002
  0
LINE
  8
AUTOCAD1
  6
CONTINUOUS
 62
40
 10
1.4976882E+002
 20
7.0201264E+001
 11
1.4976882E+002
 21
5.7201264E+001
  0
LINE
  8
AUTOCAD1
  6
CONTINUOUS
 62
40
 10
1.3816882E+002
 20
7.5301264E+001
 11
1.3816882E+002
 21
6.9357268E+001
  0
LINE
  8
AUTOCAD1
  6
CONTINUOUS
 62
40
 10
1.4776882E+002
 20
7.5301264E+001
 11
1.4776882E+002
 21
6.9357268E+001
  0
ARC
  8
AUTOCAD1
  6
CONTINUOUS
 62
40
 10
2.0766726E+002
 20
6.5799326E+001
 40
1.500004
 50
1.4999942E+002
 51
1.7999942E+002
  0
ARC
  8
AUTOCAD1
  6
CONTINUOUS
 62
40
 10
9.4987847E+001
 20
6.3851264E+001
 40
5.3
 50
4.0999353E+001
 51
1.3900065E+002
  0
LINE
  8
AUTOCAD1
  6
CONTINUOUS
 62
40
 10
1.0038785E+002
 20
6.6328332E+001
 11
1.0038785E+002
 21
5.7496459E+001
  0
LINE
  8
AUTOCAD1
  6
CONTINUOUS
 62
40
 10
8.9587847E+001
 20
5.7496459E+001
 11
8.9587847E+001
 21
6.6328332E+001
  0
LINE
  8
AUTOCAD1
  6
CONTINUOUS
 62
40
 10
9.8987847E+001
 20
6.7328332E+001
 11
9.9387847E+001
 21
6.7328332E+001
  0
LINE
  8
AUTOCAD1
  6
CONTINUOUS
 62
40
 10
9.0987847E+001
 20
6.7328332E+001
 11
9.0587847E+001
 21
6.7328332E+001
  0
LINE
  8
AUTOCAD1
  6
CONTINUOUS
 62
40
 10
1.4776882E+002
 20
6.9357268E+001
 11
1.3816882E+002
 21
6.9357268E+001
  0
LINE
  8
AUTOCAD1
  6
CONTINUOUS
 62
40
 10
1.4726882E+002
 20
7.435229E+001
 11
1.3816882E+002
 21
7.435229E+001
  0
LINE
  8
AUTOCAD1
  6
CONTINUOUS
 62
40
 10
1.6096882E+002
 20
1.3507259E+002
 11
1.6196882E+002
 21
1.3507259E+002
  0
LINE
  8
AUTOCAD1
  6
CONTINUOUS
 62
40
 10
1.5996882E+002
 20
1.2772532E+002
 11
1.5996882E+002
 21
1.3372531E+002
  0
LINE
  8
AUTOCAD1
  6
CONTINUOUS
 62
40
 10
1.5996882E+002
 20
1.3372531E+002
 11
1.6096882E+002
 21
1.3372531E+002
  0
ARC
  8
AUTOCAD1
  6
CONTINUOUS
 62
40
 10
1.9866726E+002
 20
6.2701265E+001
 40
1.3E+001
 50
2.9814788E+002
 51
4.2185212E+002
  0
LINE
  8
AUTOCAD1
  6
CONTINUOUS
 62
40
 10
1.4976882E+002
 20
4.0401264E+001
 11
1.5546882E+002
 21
4.0401264E+001
  0
LINE
  8
AUTOCAD1
  6
CONTINUOUS
 62
40
 10
1.5546882E+002
 20
3.8901264E+001
 11
1.5546882E+002
 21
4.0401264E+001
  0
LINE
  8
AUTOCAD1
  6
CONTINUOUS
 62
40
 10
1.5546882E+002
 20
8.5001264E+001
 11
1.5546882E+002
 21
8.6501264E+001
  0
LINE
  8
AUTOCAD1
  6
CONTINUOUS
 62
40
 10
1.6096882E+002
 20
3.7401264E+001
 11
1.6096882E+002
 21
8.8001264E+001
  0
LINE
  8
AUTOCAD1
  6
CONTINUOUS
 62
40
 10
1.5996882E+002
 20
3.8901264E+001
 11
1.5996882E+002
 21
8.6501264E+001
  0
LINE
  8
AUTOCAD1
  6
CONTINUOUS
 62
40
 10
1.4776882E+002
 20
3.8917397E+001
 11
1.4776882E+002
 21
8.6485132E+001
  0
LINE
  8
AUTOCAD1
  6
CONTINUOUS
 62
40
 10
1.3656882E+002
 20
3.8901264E+001
 11
1.3656882E+002
 21
8.6501264E+001
  0
LINE
  8
AUTOCAD1
  6
CONTINUOUS
 62
40
 10
1.3426882E+002
 20
4.7108529E+001
 11
1.3426882E+002
 21
4.9508529E+001
  0
LINE
  8
AUTOCAD1
  6
CONTINUOUS
 62
40
 10
1.3756882E+002
 20
3.5901264E+001
 11
1.3756882E+002
 21
8.9501264E+001
  0
LINE
  8
AUTOCAD1
  6
CONTINUOUS
 62
40
 10
1.4976882E+002
 20
3.8901264E+001
 11
1.4976882E+002
 21
8.6501264E+001
  0
LINE
  8
AUTOCAD1
  6
CONTINUOUS
 62
40
 10
1.4976882E+002
 20
7.5201264E+001
 11
1.5996882E+002
 21
7.5201264E+001
  0
LINE
  8
AUTOCAD1
  6
CONTINUOUS
 62
40
 10
1.4976882E+002
 20
8.0501264E+001
 11
1.5996882E+002
 21
8.0501264E+001
  0
LINE
  8
AUTOCAD1
  6
CONTINUOUS
 62
40
 10
1.3756882E+002
 20
8.0501264E+001
 11
1.4776882E+002
 21
8.0501264E+001
  0
LINE
  8
AUTOCAD1
  6
CONTINUOUS
 62
40
 10
1.3756882E+002
 20
7.5201264E+001
 11
1.4776882E+002
 21
7.5201264E+001
  0
LINE
  8
AUTOCAD1
  6
CONTINUOUS
 62
40
 10
1.4776882E+002
 20
8.8001264E+001
 11
1.6096882E+002
 21
8.8001264E+001
  0
LINE
  8
AUTOCAD1
  6
CONTINUOUS
 62
40
 10
1.3756882E+002
 20
8.9501264E+001
 11
1.4776882E+002
 21
8.8001264E+001
  0
LINE
  8
AUTOCAD1
  6
CONTINUOUS
 62
40
 10
1.3756882E+002
 20
8.7985132E+001
 11
1.4765912E+002
 21
8.6501264E+001
  0
LINE
  8
AUTOCAD1
  6
CONTINUOUS
 62
40
 10
1.2936882E+002
 20
1.2652532E+002
 11
1.2936882E+002
 21
1.3342532E+002
  0
LINE
  8
AUTOCAD1
  6
CONTINUOUS
 62
40
 10
1.5376882E+002
 20
1.2772532E+002
 11
1.5376882E+002
 21
1.3372532E+002
  0
LINE
  8
AUTOCAD1
  6
CONTINUOUS
 62
40
 10
1.4976882E+002
 20
1.3372532E+002
 11
1.5376882E+002
 21
1.3372532E+002
  0
LINE
  8
AUTOCAD1
  6
CONTINUOUS
 62
40
 10
1.4976882E+002
 20
1.2652532E+002
 11
1.4976882E+002
 21
1.3372532E+002
  0
LINE
  8
AUTOCAD1
  6
CONTINUOUS
 62
40
 10
1.4976882E+002
 20
1.2772532E+002
 11
1.6096882E+002
 21
1.2772532E+002
  0
LINE
  8
AUTOCAD1
  6
CONTINUOUS
 62
40
 10
1.2516882E+002
 20
1.2652532E+002
 11
1.2516882E+002
 21
1.3342532E+002
  0
LINE
  8
AUTOCAD1
  6
CONTINUOUS
 62
40
 10
1.2516882E+002
 20
1.3342532E+002
 11
1.3266882E+002
 21
1.3342532E+002
  0
LINE
  8
AUTOCAD1
  6
CONTINUOUS
 62
40
 10
1.3266882E+002
 20
1.3342532E+002
 11
1.3266882E+002
 21
1.4892532E+002
  0
LINE
  8
AUTOCAD1
  6
CONTINUOUS
 62
40
 10
1.3726882E+002
 20
1.4772532E+002
 11
1.3726882E+002
 21
1.4892532E+002
  0
LINE
  8
AUTOCAD1
  6
CONTINUOUS
 62
40
 10
1.3296882E+002
 20
8.6501264E+001
 11
1.3296882E+002
 21
8.9501264E+001
  0
LINE
  8
AUTOCAD1
  6
CONTINUOUS
 62
40
 10
1.3296882E+002
 20
3.5901264E+001
 11
1.3296882E+002
 21
3.8901264E+001
  0
LINE
  8
AUTOCAD1
  6
CONTINUOUS
 62
40
 10
1.2916882E+002
 20
8.8001264E+001
 11
1.3296882E+002
 21
8.8001264E+001
  0
LINE
  8
AUTOCAD1
  6
CONTINUOUS
 62
40
 10
1.2916882E+002
 20
3.7401264E+001
 11
1.3296882E+002
 21
3.7401264E+001
  0
LINE
  8
AUTOCAD1
  6
CONTINUOUS
 62
40
 10
1.3756882E+002
 20
3.5901264E+001
 11
1.4776882E+002
 21
3.7401264E+001
  0
LINE
  8
AUTOCAD1
  6
CONTINUOUS
 62
40
 10
1.3756882E+002
 20
3.7417397E+001
 11
1.4765912E+002
 21
3.8901264E+001
  0
LINE
  8
AUTOCAD1
  6
HIDDEN
 62
40
 10
1.5866882E+002
 20
7.8308529E+001
 11
1.6096882E+002
 21
7.8308529E+001
  0
LINE
  8
AUTOCAD1
  6
HIDDEN
 62
40
 10
1.5866882E+002
 20
7.5908529E+001
 11
1.6096882E+002
 21
7.5908529E+001
  0
LINE
  8
AUTOCAD1
  6
HIDDEN
 62
40
 10
1.5836882E+002
 20
7.5908529E+001
 11
1.5836882E+002
 21
7.8308529E+001
  0
LINE
  8
AUTOCAD1
  6
HIDDEN
 62
40
 10
1.5785086E+002
 20
7.7108529E+001
 11
1.6165557E+002
 21
7.7108529E+001
  0
LINE
  8
AUTOCAD1
  6
HIDDEN
 62
40
 10
1.5866882E+002
 20
4.9508529E+001
 11
1.6096882E+002
 21
4.9508529E+001
  0
LINE
  8
AUTOCAD1
  6
HIDDEN
 62
40
 10
1.5836882E+002
 20
4.7108529E+001
 11
1.5836882E+002
 21
4.9508529E+001
  0
LINE
  8
AUTOCAD1
  6
HIDDEN
 62
40
 10
1.5866882E+002
 20
4.7108529E+001
 11
1.6096882E+002
 21
4.7108529E+001
  0
LINE
  8
AUTOCAD1
  6
HIDDEN
 62
40
 10
1.5779407E+002
 20
4.8308529E+001
 11
1.6154199E+002
 21
4.8308529E+001
  0
LINE
  8
AUTOCAD1
  6
CONTINUOUS
 62
40
 10
1.3246882E+002
 20
3.7401264E+001
 11
1.3246882E+002
 21
3.9001264E+001
  0
LINE
  8
AUTOCAD1
  6
CONTINUOUS
 62
40
 10
1.3246882E+002
 20
8.6401264E+001
 11
1.3246882E+002
 21
8.8001264E+001
  0
LINE
  8
AUTOCAD1
  6
CONTINUOUS
 62
40
 10
1.3246882E+002
 20
3.8901264E+001
 11
1.3756882E+002
 21
3.8901264E+001
  0
LINE
  8
AUTOCAD1
  6
CONTINUOUS
 62
40
 10
1.3296882E+002
 20
8.6501264E+001
 11
1.3756882E+002
 21
8.6501264E+001
  0
LINE
  8
AUTOCAD1
  6
CONTINUOUS
 62
40
 10
1.6096882E+002
 20
1.1657259E+002
 11
1.6096882E+002
 21
1.4772532E+002
  0
LINE
  8
AUTOCAD1
  6
CONTINUOUS
 62
40
 10
1.5996882E+002
 20
1.1657259E+002
 11
1.5996882E+002
 21
1.2772532E+002
  0
LINE
  8
AUTOCAD1
  6
CENTERLINE
 62
40
 10
1.2478666E+002
 20
6.2701264E+001
 11
1.7037311E+002
 21
6.2701264E+001
  0
LINE
  8
AUTOCAD1
  6
CONTINUOUS
 62
40
 10
1.4976882E+002
 20
5.0201264E+001
 11
1.5996882E+002
 21
5.0201264E+001
  0
LINE
  8
AUTOCAD1
  6
CONTINUOUS
 62
40
 10
1.3756882E+002
 20
5.0201264E+001
 11
1.4776882E+002
 21
5.0201264E+001
  0
LINE
  8
AUTOCAD1
  6
CONTINUOUS
 62
40
 10
1.4976882E+002
 20
4.4901264E+001
 11
1.5996882E+002
 21
4.4901264E+001
  0
LINE
  8
AUTOCAD1
  6
CONTINUOUS
 62
40
 10
1.3756882E+002
 20
4.4901264E+001
 11
1.4776882E+002
 21
4.4901264E+001
  0
LINE
  8
AUTOCAD1
  6
CONTINUOUS
 62
40
 10
1.2916882E+002
 20
8.9501264E+001
 11
1.3756882E+002
 21
8.9501264E+001
  0
LINE
  8
AUTOCAD1
  6
CONTINUOUS
 62
40
 10
1.2916882E+002
 20
3.5901264E+001
 11
1.3756882E+002
 21
3.5901264E+001
  0
LINE
  8
AUTOCAD1
  6
CONTINUOUS
 62
40
 10
1.3726882E+002
 20
1.4772532E+002
 11
1.6096882E+002
 21
1.4772532E+002
  0
LINE
  8
AUTOCAD1
  6
CONTINUOUS
 62
40
 10
1.2516882E+002
 20
1.2652532E+002
 11
1.4976882E+002
 21
1.2652532E+002
  0
LINE
  8
AUTOCAD1
  6
CONTINUOUS
 62
40
 10
1.3266882E+002
 20
1.4892532E+002
 11
1.3726882E+002
 21
1.4892532E+002
  0
LINE
  8
AUTOCAD1
  6
CONTINUOUS
 62
40
 10
1.2546882E+002
 20
8.7784598E+001
 11
1.2546882E+002
 21
8.9001264E+001
  0
LINE
  8
AUTOCAD1
  6
CONTINUOUS
 62
40
 10
1.2546882E+002
 20
3.6401264E+001
 11
1.2546882E+002
 21
3.7314598E+001
  0
LINE
  8
AUTOCAD1
  6
CONTINUOUS
 62
40
 10
1.4776882E+002
 20
3.7401264E+001
 11
1.6096882E+002
 21
3.7401264E+001
  0
LINE
  8
AUTOCAD1
  6
CONTINUOUS
 62
40
 10
1.2866882E+002
 20
8.6701264E+001
 11
1.2936882E+002
 21
8.6701264E+001
  0
LINE
  8
AUTOCAD1
  6
CONTINUOUS
 62
40
 10
1.2866882E+002
 20
3.8701264E+001
 11
1.2936882E+002
 21
3.8701264E+001
  0
LINE
  8
AUTOCAD1
  6
CONTINUOUS
 62
40
 10
1.2916882E+002
 20
3.7401264E+001
 11
1.2936882E+002
 21
3.8147675E+001
  0
LINE
  8
AUTOCAD1
  6
CONTINUOUS
 62
40
 10
1.2916882E+002
 20
8.8001264E+001
 11
1.2936882E+002
 21
8.7254854E+001
  0
LINE
  8
AUTOCAD1
  6
CONTINUOUS
 62
40
 10
1.2557949E+002
 20
8.8039977E+001
 11
1.2936113E+002
 21
8.6401264E+001
  0
LINE
  8
AUTOCAD1
  6
CONTINUOUS
 62
40
 10
1.2557949E+002
 20
3.7362552E+001
 11
1.2936113E+002
 21
3.9001264E+001
  0
LINE
  8
AUTOCAD1
  6
CONTINUOUS
 62
40
 10
1.2548774E+002
 20
8.8887751E+001
 11
1.2916882E+002
 21
8.9501264E+001
  0
LINE
  8
AUTOCAD1
  6
CONTINUOUS
 62
40
 10
1.2533963E+002
 20
3.6539463E+001
 11
1.2916882E+002
 21
3.5901264E+001
  0
LINE
  8
AUTOCAD1
  6
CONTINUOUS
 62
40
 10
2.1632E+002
 20
8.8104E+001
 11
2.1632E+002
 21
3.7404E+001
  0
LINE
  8
AUTOCAD1
  6
CONTINUOUS
 62
40
 10
1.9762E+002
 20
3.5904E+001
 11
2.2002E+002
 21
3.5904E+001
  0
LINE
  8
AUTOCAD1
  6
CONTINUOUS
 62
40
 10
1.9762E+002
 20
8.9504E+001
 11
2.2002E+002
 21
8.9504E+001
  0
LINE
  8
AUTOCAD1
  6
CENTERLINE
 62
40
 10
1.9866726E+002
 20
7.4801264E+001
 11
1.9866726E+002
 21
5.0601264E+001
  0
LINE
  8
AUTOCAD1
  6
CENTERLINE
 62
40
 10
1.8657726E+002
 20
6.2701264E+001
 11
2.1077726E+002
 21
6.2701264E+001
  0
LINE
  8
AUTOCAD1
  6
CONTINUOUS
 62
40
 10
2.0069611E+002
 20
8.6704E+001
 11
2.048E+002
 21
8.0079143E+001
  0
LINE
  8
AUTOCAD1
  6
CONTINUOUS
 62
40
 10
2.048E+002
 20
8.0079143E+001
 11
2.048E+002
 21
7.4163793E+001
  0
LINE
  8
AUTOCAD1
  6
CONTINUOUS
 62
40
 10
1.9762E+002
 20
8.6404E+001
 11
1.9862E+002
 21
8.6404E+001
  0
LINE
  8
AUTOCAD1
  6
CONTINUOUS
 62
40
 10
2.1902E+002
 20
8.8104E+001
 11
2.1902E+002
 21
8.6404E+001
  0
LINE
  8
AUTOCAD1
  6
CONTINUOUS
 62
40
 10
1.9862E+002
 20
8.6704E+001
 11
1.9862E+002
 21
8.6404E+001
  0
LINE
  8
AUTOCAD1
  6
CONTINUOUS
 62
40
 10
1.9762E+002
 20
8.9504E+001
 11
1.9762E+002
 21
8.6704E+001
  0
LINE
  8
AUTOCAD1
  6
CONTINUOUS
 62
40
 10
2.0452E+002
 20
8.9504E+001
 11
2.0452E+002
 21
8.6704E+001
  0
LINE
  8
AUTOCAD1
  6
CONTINUOUS
 62
40
 10
1.9762E+002
 20
8.9504E+001
 11
1.9762E+002
 21
8.6404E+001
  0
LINE
  8
AUTOCAD1
  6
CONTINUOUS
 62
40
 10
2.1902E+002
 20
8.6404E+001
 11
2.2002E+002
 21
8.6404E+001
  0
LINE
  8
AUTOCAD1
  6
CONTINUOUS
 62
40
 10
1.9762E+002
 20
8.6704E+001
 11
2.0452E+002
 21
8.6704E+001
  0
LINE
  8
AUTOCAD1
  6
CONTINUOUS
 62
40
 10
2.0452E+002
 20
8.8104E+001
 11
2.1902E+002
 21
8.8104E+001
  0
LINE
  8
AUTOCAD1
  6
CONTINUOUS
 62
40
 10
1.9762E+002
 20
8.9004E+001
 11
2.0452E+002
 21
8.9004E+001
  0
LINE
  8
AUTOCAD1
  6
CONTINUOUS
 62
40
 10
2.2002E+002
 20
8.9504E+001
 11
2.2002E+002
 21
8.6404E+001
  0
LINE
  8
AUTOCAD1
  6
CONTINUOUS
 62
40
 10
2.1902E+002
 20
3.9008529E+001
 11
2.2002E+002
 21
3.9008529E+001
  0
LINE
  8
AUTOCAD1
  6
CONTINUOUS
 62
40
 10
2.2002E+002
 20
3.9008529E+001
 11
2.2002E+002
 21
3.5904E+001
  0
LINE
  8
AUTOCAD1
  6
CONTINUOUS
 62
40
 10
2.1902E+002
 20
3.9008529E+001
 11
2.1902E+002
 21
3.7304E+001
  0
LINE
  8
AUTOCAD1
  6
CONTINUOUS
 62
40
 10
2.0452E+002
 20
3.8698529E+001
 11
2.0452E+002
 21
3.5898529E+001
  0
LINE
  8
AUTOCAD1
  6
CONTINUOUS
 62
40
 10
1.9762E+002
 20
3.8698529E+001
 11
2.0452E+002
 21
3.8698529E+001
  0
LINE
  8
AUTOCAD1
  6
CONTINUOUS
 62
40
 10
1.9762E+002
 20
3.8698529E+001
 11
1.9762E+002
 21
3.5898529E+001
  0
LINE
  8
AUTOCAD1
  6
CONTINUOUS
 62
40
 10
1.9762E+002
 20
3.6398529E+001
 11
2.0452E+002
 21
3.6398529E+001
  0
LINE
  8
AUTOCAD1
  6
CONTINUOUS
 62
40
 10
1.9762E+002
 20
3.8998529E+001
 11
1.9862E+002
 21
3.8998529E+001
  0
LINE
  8
AUTOCAD1
  6
CONTINUOUS
 62
40
 10
1.9762E+002
 20
3.8998529E+001
 11
1.9762E+002
 21
3.5904E+001
  0
LINE
  8
AUTOCAD1
  6
CONTINUOUS
 62
40
 10
1.9862E+002
 20
3.8998529E+001
 11
1.9862E+002
 21
3.8698529E+001
  0
LINE
  8
AUTOCAD1
  6
CONTINUOUS
 62
40
 10
2.0452E+002
 20
3.7304E+001
 11
2.1902E+002
 21
3.7304E+001
  0
LINE
  8
AUTOCAD1
  6
CONTINUOUS
 62
40
 10
2.1882E+002
 20
8.8104E+001
 11
2.1882E+002
 21
3.7304E+001
  0
LINE
  8
AUTOCAD1
  6
CONTINUOUS
 62
40
 10
2.048E+002
 20
4.5328857E+001
 11
2.0069272E+002
 21
3.8698529E+001
  0
LINE
  8
AUTOCAD1
  6
CENTERLINE
 62
40
 10
1.3345086E+002
 20
7.7108529E+001
 11
1.3725557E+002
 21
7.7108529E+001
  0
LINE
  8
AUTOCAD1
  6
CENTERLINE
 62
40
 10
1.3339407E+002
 20
4.8308529E+001
 11
1.3714199E+002
 21
4.8308529E+001
  0
LINE
  8
AUTOCAD1
  6
CONTINUOUS
 62
40
 10
1.3426882E+002
 20
7.5908529E+001
 11
1.3426882E+002
 21
7.8308529E+001
  0
LINE
  8
AUTOCAD1
  6
CONTINUOUS
 62
40
 10
1.3426882E+002
 20
7.8308529E+001
 11
1.3656882E+002
 21
7.8308529E+001
  0
LINE
  8
AUTOCAD1
  6
CONTINUOUS
 62
40
 10
1.3426882E+002
 20
7.5908529E+001
 11
1.3656882E+002
 21
7.5908529E+001
  0
LINE
  8
AUTOCAD1
  6
CONTINUOUS
 62
40
 10
1.3426882E+002
 20
4.9508529E+001
 11
1.3656882E+002
 21
4.9508529E+001
  0
LINE
  8
AUTOCAD1
  6
CONTINUOUS
 62
40
 10
1.3426882E+002
 20
4.7108529E+001
 11
1.3656882E+002
 21
4.7108529E+001
  0
LINE
  8
AUTOCAD1
  6
CONTINUOUS
 62
40
 10
1.2936113E+002
 20
3.9001264E+001
 11
1.3246882E+002
 21
3.9001264E+001
  0
LINE
  8
AUTOCAD1
  6
CONTINUOUS
 62
40
 10
1.2936113E+002
 20
8.6401264E+001
 11
1.3246882E+002
 21
8.6401264E+001
  0
LINE
  8
AUTOCAD1
  6
CONTINUOUS
 62
40
 10
1.9762E+002
 20
3.7704E+001
 11
2.0452E+002
 21
3.7704E+001
  0
LINE
  8
AUTOCAD1
  6
CONTINUOUS
 62
40
 10
1.9762E+002
 20
8.7704E+001
 11
2.0452E+002
 21
8.7704E+001
  0
LINE
  8
AUTOCAD1
  6
HIDDEN
 62
40
 10
2.056E+002
 20
4.8304E+001
 11
2.12E+002
 21
4.8304E+001
  0
LINE
  8
AUTOCAD1
  6
HIDDEN
 62
40
 10
2.088E+002
 20
5.1504E+001
 11
2.088E+002
 21
4.5104E+001
  0
LINE
  8
AUTOCAD1
  6
HIDDEN
 62
40
 10
2.056E+002
 20
7.7104E+001
 11
2.12E+002
 21
7.7104E+001
  0
LINE
  8
AUTOCAD1
  6
HIDDEN
 62
40
 10
2.088E+002
 20
8.0304E+001
 11
2.088E+002
 21
7.3904E+001
  0
LINE
  8
AUTOCAD1
  6
CONTINUOUS
 62
40
 10
1.4765912E+002
 20
3.8901264E+001
 11
1.5996882E+002
 21
3.8901264E+001
  0
LINE
  8
AUTOCAD1
  6
CONTINUOUS
 62
40
 10
1.4765912E+002
 20
8.6501264E+001
 11
1.5996882E+002
 21
8.6501264E+001
  0
LINE
  8
AUTOCAD1
  6
CONTINUOUS
 62
40
 10
1.4976882E+002
 20
8.5001264E+001
 11
1.5546882E+002
 21
8.5001264E+001
  0
LINE
  8
AUTOCAD1
  6
CONTINUOUS
 62
40
 10
1.2936882E+002
 20
3.8147675E+001
 11
1.2936882E+002
 21
3.8701264E+001
  0
LINE
  8
AUTOCAD1
  6
CONTINUOUS
 62
40
 10
1.2936882E+002
 20
8.6701264E+001
 11
1.2936882E+002
 21
8.7254854E+001
  0
ARC
  8
AUTOCAD1
  6
CONTINUOUS
 62
40
 10
2.088E+002
 20
4.8304E+001
 40
1.2
 50
2.7E+002
 51
4.5E+002
  0
ARC
  8
AUTOCAD1
  6
CONTINUOUS
 62
40
 10
2.088E+002
 20
4.8304E+001
 40
1.2
 50
9.0E+001
 51
2.7E+002
  0
ARC
  8
AUTOCAD1
  6
CONTINUOUS
 62
40
 10
2.088E+002
 20
7.7104E+001
 40
1.2
 50
2.7E+002
 51
4.5E+002
  0
ARC
  8
AUTOCAD1
  6
CONTINUOUS
 62
40
 10
2.088E+002
 20
7.7104E+001
 40
1.2
 50
9.0E+001
 51
2.7E+002
  0
ARC
  8
AUTOCAD1
  6
CONTINUOUS
 62
40
 10
1.9866726E+002
 20
6.2701261E+001
 40
7.5999962
 50
2.263595E+002
 51
3.136405E+002
  0
ARC
  8
AUTOCAD1
  6
CONTINUOUS
 62
40
 10
1.9866727E+002
 20
6.2701259E+001
 40
1.1E+001
 50
1.5544355E+002
 51
2.0456171E+002
  0
LINE
  8
AUTOCAD1
  6
CONTINUOUS
 62
40
 10
1.9762E+002
 20
8.6877696E+001
 11
1.8866219E+002
 21
6.7272743E+001
  0
LINE
  8
AUTOCAD1
  6
CONTINUOUS
 62
40
 10
1.9762E+002
 20
3.8529658E+001
 11
1.8866261E+002
 21
5.8128855E+001
  0
LINE
  8
AUTOCAD1
  6
CONTINUOUS
 62
40
 10
1.6096882E+002
 20
1.1657259E+002
 11
1.5996882E+002
 21
1.1657259E+002
  0
LINE
  8
AUTOCAD1
  6
CONTINUOUS
 62
40
 10
2.048E+002
 20
5.1238736E+001
 11
2.048E+002
 21
4.5328857E+001
  0
LINE
  8
AUTOCAD1
  6
CONTINUOUS
 62
40
 10
9.6035111E+001
 20
3.5904E+001
 11
7.3635111E+001
 21
3.5904E+001
  0
LINE
  8
AUTOCAD1
  6
CONTINUOUS
 62
40
 10
9.6035111E+001
 20
8.9504E+001
 11
7.3635111E+001
 21
8.9504E+001
  0
LINE
  8
AUTOCAD1
  6
CENTERLINE
 62
40
 10
9.4987847E+001
 20
7.4801264E+001
 11
9.4987847E+001
 21
5.0601264E+001
  0
LINE
  8
AUTOCAD1
  6
CENTERLINE
 62
40
 10
1.0707785E+002
 20
6.2701264E+001
 11
8.2877847E+001
 21
6.2701264E+001
  0
LINE
  8
AUTOCAD1
  6
CONTINUOUS
 62
40
 10
7.4635111E+001
 20
8.8104E+001
 11
7.4635111E+001
 21
8.6404E+001
  0
LINE
  8
AUTOCAD1
  6
CONTINUOUS
 62
40
 10
9.6035111E+001
 20
3.5898529E+001
 11
9.6035111E+001
 21
3.8524833E+001
  0
LINE
  8
AUTOCAD1
  6
CONTINUOUS
 62
40
 10
7.4635111E+001
 20
8.6404E+001
 11
7.3635111E+001
 21
8.6404E+001
  0
LINE
  8
AUTOCAD1
  6
CONTINUOUS
 62
40
 10
7.3635111E+001
 20
8.9504E+001
 11
7.3635111E+001
 21
8.6404E+001
  0
LINE
  8
AUTOCAD1
  6
CONTINUOUS
 62
40
 10
7.4635111E+001
 20
3.9008529E+001
 11
7.3635111E+001
 21
3.9008529E+001
  0
LINE
  8
AUTOCAD1
  6
CONTINUOUS
 62
40
 10
7.3635111E+001
 20
3.9008529E+001
 11
7.3635111E+001
 21
3.5904E+001
  0
LINE
  8
AUTOCAD1
  6
CONTINUOUS
 62
40
 10
7.4635111E+001
 20
3.9008529E+001
 11
7.4635111E+001
 21
3.7304E+001
  0
LINE
  8
AUTOCAD1
  6
CONTINUOUS
 62
40
 10
7.4835111E+001
 20
8.8104E+001
 11
7.4835111E+001
 21
3.7304E+001
  0
ARC
  8
AUTOCAD1
  6
CONTINUOUS
 62
40
 10
8.4855111E+001
 20
4.8304E+001
 40
1.2
 50
2.7E+002
 51
4.5E+002
  0
ARC
  8
AUTOCAD1
  6
CONTINUOUS
 62
40
 10
8.4855111E+001
 20
4.8304E+001
 40
1.2
 50
9.0E+001
 51
2.7E+002
  0
ARC
  8
AUTOCAD1
  6
CONTINUOUS
 62
40
 10
8.4855111E+001
 20
7.7104E+001
 40
1.2
 50
2.7E+002
 51
4.5E+002
  0
ARC
  8
AUTOCAD1
  6
CONTINUOUS
 62
40
 10
8.4855111E+001
 20
7.7104E+001
 40
1.2
 50
9.0E+001
 51
2.7E+002
  0
ARC
  8
AUTOCAD1
  6
CONTINUOUS
 62
40
 10
9.4987847E+001
 20
6.2701264E+001
 40
7.6
 50
2.7E+002
 51
4.5E+002
  0
ARC
  8
AUTOCAD1
  6
CONTINUOUS
 62
40
 10
9.4987847E+001
 20
6.2701264E+001
 40
7.6
 50
9.0E+001
 51
2.7E+002
  0
ARC
  8
AUTOCAD1
  6
CONTINUOUS
 62
40
 10
9.4987845E+001
 20
6.2701259E+001
 40
1.1E+001
 50
3.3543829E+002
 51
3.8455645E+002
  0
LINE
  8
AUTOCAD1
  6
CONTINUOUS
 62
40
 10
9.6035111E+001
 20
8.6877696E+001
 11
1.0499292E+002
 21
6.7272743E+001
  0
LINE
  8
AUTOCAD1
  6
CONTINUOUS
 62
40
 10
9.6035111E+001
 20
3.8529658E+001
 11
1.049925E+002
 21
5.8128855E+001
  0
LINE
  8
AUTOCAD1
  6
CONTINUOUS
 62
40
 10
7.4835111E+001
 20
3.7401264E+001
 11
9.6035111E+001
 21
3.7401264E+001
  0
LINE
  8
AUTOCAD1
  6
CONTINUOUS
 62
40
 10
9.6035111E+001
 20
8.9504E+001
 11
9.6035111E+001
 21
8.6877696E+001
  0
LINE
  8
AUTOCAD1
  6
CONTINUOUS
 62
40
 10
7.4835111E+001
 20
8.8006736E+001
 11
9.6035111E+001
 21
8.8006736E+001
  0
LINE
  8
AUTOCAD1
  6
CONTINUOUS
 62
40
 10
1.4986882E+002
 20
5.7201264E+001
 11
1.5996882E+002
 21
5.7201264E+001
  0
LINE
  8
AUTOCAD1
  6
CONTINUOUS
 62
40
 10
1.5946882E+002
 20
5.8451264E+001
 11
1.4986882E+002
 21
5.8451264E+001
  0
LINE
  8
AUTOCAD1
  6
CONTINUOUS
 62
40
 10
1.5946882E+002
 20
6.9357268E+001
 11
1.5036882E+002
 21
6.9357268E+001
  0
LINE
  8
AUTOCAD1
  6
CONTINUOUS
 62
40
 10
1.5036882E+002
 20
7.5301264E+001
 11
1.5036882E+002
 21
6.9357268E+001
  0
LINE
  8
AUTOCAD1
  6
CONTINUOUS
 62
40
 10
1.5946882E+002
 20
7.435229E+001
 11
1.5036882E+002
 21
7.435229E+001
  0
LINE
  8
AUTOCAD1
  6
CONTINUOUS
 62
40
 10
1.4976882E+002
 20
7.5201264E+001
 11
1.5996882E+002
 21
7.5201264E+001
  0
LINE
  8
AUTOCAD1
  6
CONTINUOUS
 62
40
 10
1.6351882E+002
 20
5.7497485E+001
 11
1.6496882E+002
 21
5.7497485E+001
  0
LINE
  8
AUTOCAD1
  6
CONTINUOUS
 62
40
 10
1.6196882E+002
 20
7.0201264E+001
 11
1.6096882E+002
 21
7.0201264E+001
  0
LINE
  8
AUTOCAD1
  6
CONTINUOUS
 62
40
 10
1.6496882E+002
 20
6.915229E+001
 11
1.6496882E+002
 21
5.7201264E+001
  0
LINE
  8
AUTOCAD1
  6
CONTINUOUS
 62
40
 10
1.6196882E+002
 20
7.0201264E+001
 11
1.6196882E+002
 21
5.7201264E+001
  0
LINE
  8
AUTOCAD1
  6
CONTINUOUS
 62
40
 10
1.6351882E+002
 20
6.7329358E+001
 11
1.6351882E+002
 21
5.7201264E+001
  0
LINE
  8
AUTOCAD1
  6
CONTINUOUS
 62
40
 10
1.6496882E+002
 20
6.915229E+001
 11
1.6196882E+002
 21
6.915229E+001
  0
LINE
  8
AUTOCAD1
  6
CONTINUOUS
 62
40
 10
1.6496882E+002
 20
6.7329358E+001
 11
1.6196882E+002
 21
6.7329358E+001
  0
LINE
  8
AUTOCAD1
  6
CONTINUOUS
 62
40
 10
1.4736882E+002
 20
1.1857269E+002
 11
1.3776882E+002
 21
1.1857269E+002
  0
LINE
  8
AUTOCAD1
  6
CONTINUOUS
 62
40
 10
1.4736882E+002
 20
1.2007259E+002
 11
1.4986882E+002
 21
1.2007259E+002
  0
LINE
  8
AUTOCAD1
  6
CONTINUOUS
 62
40
 10
1.4986882E+002
 20
1.2007259E+002
 11
1.4986882E+002
 21
1.2367259E+002
  0
LINE
  8
AUTOCAD1
  6
CONTINUOUS
 62
40
 10
1.4736882E+002
 20
1.1857269E+002
 11
1.4736882E+002
 21
1.2007259E+002
  0
LINE
  8
AUTOCAD1
  6
CONTINUOUS
 62
40
 10
1.3776882E+002
 20
1.1857269E+002
 11
1.3776882E+002
 21
1.2652532E+002
  0
LINE
  8
AUTOCAD1
  6
CONTINUOUS
 62
40
 10
1.4986882E+002
 20
1.2772532E+002
 11
1.4986882E+002
 21
1.2367259E+002
  0
LINE
  8
AUTOCAD1
  6
CONTINUOUS
 62
40
 10
1.5946882E+002
 20
7.435229E+001
 11
1.5946882E+002
 21
6.9357268E+001
  0
LINE
  8
AUTOCAD1
  6
CONTINUOUS
 62
40
 10
1.4726882E+002
 20
7.435229E+001
 11
1.4726882E+002
 21
6.9357268E+001
  0
LINE
  8
AUTOCAD1
  6
CONTINUOUS
 62
40
 10
1.5996882E+002
 20
7.0201264E+001
 11
1.5946882E+002
 21
7.0201264E+001
  0
LINE
  8
AUTOCAD1
  6
CONTINUOUS
 62
40
 10
1.6096882E+002
 20
5.7201264E+001
 11
1.6496882E+002
 21
5.7201264E+001
  0
LINE
  8
AUTOCAD1
  6
CONTINUOUS
 62
40
 10
1.6096882E+002
 20
1.2007259E+002
 11
1.6196882E+002
 21
1.2007259E+002
  0
LINE
  8
AUTOCAD1
  6
CONTINUOUS
 62
40
 10
1.5946882E+002
 20
1.2007259E+002
 11
1.5996882E+002
 21
1.2007259E+002
  0
ENDSEC
  0
EOF
