  0
SECTION
  2
HEADER
  9
$ACADVER
  1
AC1009
  9
$DWGCODEPAGE
  3
iso8859-1
  9
$INSBASE
 10
0.0
 20
0.0
 30
0.0
  9
$EXTMIN
 10
1.0E20
 20
1.0E20
  9
$EXTMAX
 10
-1.0E20
 20
-1.0E20
  9
$LIMMIN
 10
0.0
 20
0.0
  9
$LIMMAX
 10
12.0
 20
9.0
  9
$ORTHOMODE
 70
     0
  9
$REGENMODE
 70
     1
  9
$FILLMODE
 70
     1
  9
$QTEXTMODE
 70
     0
  9
$MIRRTEXT
 70
     1
  9
$DRAGMODE
 70
     2
  9
$LTSCALE
 40
15.0
  9
$OSMODE
 70
     0
  9
$ATTMODE
 70
     1
  9
$TEXTSIZE
 40
0.2
  9
$TRACEWID
 40
0.05
  9
$TEXTSTYLE
  7
STANDARD
  9
$CLAYER
  8
0
  9
$CELTYPE
  6
DASHED
  9
$CECOLOR
 62
   256
  9
$DIMSCALE
 40
1.0
  9
$DIMASZ
 40
0.18
  9
$DIMEXO
 40
0.0625
  9
$DIMDLI
 40
0.38
  9
$DIMRND
 40
0.0
  9
$DIMDLE
 40
0.0
  9
$DIMEXE
 40
0.18
  9
$DIMTP
 40
0.0
  9
$DIMTM
 40
0.0
  9
$DIMTXT
 40
0.18
  9
$DIMCEN
 40
0.09
  9
$DIMTSZ
 40
0.0
  9
$DIMTOL
 70
     0
  9
$DIMLIM
 70
     0
  9
$DIMTIH
 70
     1
  9
$DIMTOH
 70
     1
  9
$DIMSE1
 70
     0
  9
$DIMSE2
 70
     0
  9
$DIMTAD
 70
     0
  9
$DIMZIN
 70
     0
  9
$DIMBLK
  1

  9
$DIMASO
 70
     1
  9
$DIMSHO
 70
     1
  9
$DIMPOST
  1

  9
$DIMAPOST
  1

  9
$DIMALT
 70
     0
  9
$DIMALTD
 70
     2
  9
$DIMALTF
 40
25.4
  9
$DIMLFAC
 40
1.0
  9
$DIMTOFL
 70
     0
  9
$DIMTVP
 40
0.0
  9
$DIMTIX
 70
     0
  9
$DIMSOXD
 70
     0
  9
$DIMSAH
 70
     0
  9
$DIMBLK1
  1

  9
$DIMBLK2
  1

  9
$DIMSTYLE
  2
STANDARD
  9
$DIMCLRD
 70
     0
  9
$DIMCLRE
 70
     0
  9
$DIMCLRT
 70
     0
  9
$DIMTFAC
 40
1.0
  9
$DIMGAP
 40
0.09
  9
$LUNITS
 70
     2
  9
$LUPREC
 70
     4
  9
$AXISMODE
 70
     0
  9
$AXISUNIT
 10
0.0
 20
0.0
  9
$SKETCHINC
 40
0.1
  9
$FILLETRAD
 40
0.0
  9
$AUNITS
 70
     0
  9
$AUPREC
 70
     0
  9
$MENU
  1
acad
  9
$ELEVATION
 40
0.0
  9
$PELEVATION
 40
0.0
  9
$THICKNESS
 40
0.0
  9
$LIMCHECK
 70
     0
  9
$BLIPMODE
 70
     1
  9
$CHAMFERA
 40
0.0
  9
$CHAMFERB
 40
0.0
  9
$SKPOLY
 70
     0
  9
$TDCREATE
 40
0.000000000
  9
$TDUPDATE
 40
0.000000000
  9
$TDINDWG
 40
0.0
  9
$TDUSRTIMER
 40
0.0
  9
$USRTIMER
 70
     1
  9
$ANGBASE
 50
0.0
  9
$ANGDIR
 70
     0
  9
$PDMODE
 70
     0
  9
$PDSIZE
 40
0.0
  9
$PLINEWID
 40
0.0
  9
$COORDS
 70
     1
  9
$SPLFRAME
 70
     0
  9
$SPLINETYPE
 70
     6
  9
$SPLINESEGS
 70
     8
  9
$ATTDIA
 70
     0
  9
$ATTREQ
 70
     1
  9
$HANDLING
 70
     1
  9
$HANDSEED
  5
   735
  9
$SURFTAB1
 70
     6
  9
$SURFTAB2
 70
     6
  9
$SURFTYPE
 70
     6
  9
$SURFU
 70
     6
  9
$SURFV
 70
     6
  9
$UCSNAME
  2

  9
$UCSORG
 10
0.0
 20
0.0
 30
0.0
  9
$UCSXDIR
 10
1.0
 20
0.0
 30
0.0
  9
$UCSYDIR
 10
0.0
 20
1.0
 30
0.0
  9
$PUCSNAME
  2

  9
$PUCSORG
 10
0.0
 20
0.0
 30
0.0
  9
$PUCSXDIR
 10
1.0
 20
0.0
 30
0.0
  9
$PUCSYDIR
 10
0.0
 20
1.0
 30
0.0
  9
$USERI1
 70
     0
  9
$USERI2
 70
     0
  9
$USERI3
 70
     0
  9
$USERI4
 70
     0
  9
$USERI5
 70
     0
  9
$USERR1
 40
0.0
  9
$USERR2
 40
0.0
  9
$USERR3
 40
0.0
  9
$USERR4
 40
0.0
  9
$USERR5
 40
0.0
  9
$WORLDVIEW
 70
     1
  9
$SHADEDGE
 70
     3
  9
$SHADEDIF
 70
    70
  9
$TILEMODE
 70
     1
  9
$MAXACTVP
 70
    16
  9
$PINSBASE
 10
0.0
 20
0.0
 30
0.0
  9
$PLIMCHECK
 70
     0
  9
$PEXTMIN
 10
1.0E20
 20
1.0E20
 30
1.0E20
  9
$PEXTMAX
 10
-1.0E20
 20
-1.0E20
 30
-1.0E20
  9
$PLIMMIN
 10
0.0
 20
0.0
  9
$PLIMMAX
 10
12.0
 20
9.0
  9
$UNITMODE
 70
     0
  9
$VISRETAIN
 70
     0
  0
ENDSEC
  0
SECTION
  2
TABLES
  0
TABLE
  2
VPORT
 70
     1
  0
VPORT
  2
*ACTIVE
 70
     0
 10
0.0
 20
0.0
 11
1.0
 21
1.0
 12
6.801242
 22
4.5
 13
0.0
 23
0.0
 14
1.0
 24
1.0
 15
0.0
 25
0.0
 16
0.0
 26
0.0
 36
1.0
 17
0.0
 27
0.0
 37
0.0
 40
9.0
 41
1.511387
 42
50.0
 43
0.0
 44
0.0
 50
0.0
 51
0.0
 71
     0
 72
   100
 73
     1
 74
     1
 75
     0
 76
     0
 77
     0
 78
     0
  0
ENDTAB
  0
TABLE
  2
LTYPE
 70
    41
  0
LTYPE
  2
BYBLOCK
 70
     0
  3

 72
    65
 73
     0
 40
0.0
  0
LTYPE
  2
BYLAYER
 70
     0
  3

 72
    65
 73
     0
 40
0.0
  0
LTYPE
  2
CONTINUOUS
 70
     0
  3
Solid line
 72
    65
 73
     0
 40
0.0
  0
LTYPE
  2
BORDER
 70
    64
  3
__ __ . __ __ . __ __ . __ __ . __ __ . __ __ .
 72
    65
 73
     6
 40
1.75
 49
0.5
 49
-0.25
 49
0.5
 49
-0.25
 49
0.0
 49
-0.25
  0
LTYPE
  2
BORDER2
 70
    64
  3
__.__.__.__.__.__.__.__.__.__.__.__.__.__.__.__
 72
    65
 73
     6
 40
0.875
 49
0.25
 49
-0.125
 49
0.25
 49
-0.125
 49
0.0
 49
-0.125
  0
LTYPE
  2
BORDERX2
 70
    64
  3
____  ____  .  ____  ____  .  ____  ____  .  __
 72
    65
 73
     6
 40
3.5
 49
1.0
 49
-0.5
 49
1.0
 49
-0.5
 49
0.0
 49
-0.5
  0
LTYPE
  2
CENTER
 70
    64
  3
____ _ ____ _ ____ _ ____ _ ____ _ ____ _ ____
 72
    65
 73
     4
 40
2.0
 49
1.25
 49
-0.25
 49
0.25
 49
-0.25
  0
LTYPE
  2
CENTER2
 70
    64
  3
___ _ ___ _ ___ _ ___ _ ___ _ ___ _ ___ _ ___ _
 72
    65
 73
     4
 40
1.125
 49
0.75
 49
-0.125
 49
0.125
 49
-0.125
  0
LTYPE
  2
CENTERX2
 70
    64
  3
________  __  ________  __  ________  __  _____
 72
    65
 73
     4
 40
4.0
 49
2.5
 49
-0.5
 49
0.5
 49
-0.5
  0
LTYPE
  2
DASHDOT
 70
    64
  3
__ . __ . __ . __ . __ . __ . __ . __ . __ . __
 72
    65
 73
     4
 40
1.0
 49
0.5
 49
-0.25
 49
0.0
 49
-0.25
  0
LTYPE
  2
DASHDOT2
 70
    64
  3
_._._._._._._._._._._._._._._._._._._._._._._._
 72
    65
 73
     4
 40
0.5
 49
0.25
 49
-0.125
 49
0.0
 49
-0.125
  0
LTYPE
  2
DASHDOTX2
 70
    64
  3
____  .  ____  .  ____  .  ____  .  ____  .  __
 72
    65
 73
     4
 40
2.0
 49
1.0
 49
-0.5
 49
0.0
 49
-0.5
  0
LTYPE
  2
DASHED
 70
    64
  3
__ __ __ __ __ __ __ __ __ __ __ __ __ __ __ __
 72
    65
 73
     2
 40
0.75
 49
0.5
 49
-0.25
  0
LTYPE
  2
DASHED2
 70
    64
  3
_ _ _ _ _ _ _ _ _ _ _ _ _ _ _ _ _ _ _ _ _ _ _ _
 72
    65
 73
     2
 40
0.375
 49
0.25
 49
-0.125
  0
LTYPE
  2
DASHEDX2
 70
    64
  3
____  ____  ____  ____  ____  ____  ____  ____
 72
    65
 73
     2
 40
1.5
 49
1.0
 49
-0.5
  0
LTYPE
  2
DIVIDE
 70
    64
  3
____ . . ____ . . ____ . . ____ . . ____ . . __
 72
    65
 73
     6
 40
1.25
 49
0.5
 49
-0.25
 49
0.0
 49
-0.25
 49
0.0
 49
-0.25
  0
LTYPE
  2
DIVIDE2
 70
    64
  3
__..__..__..__..__..__..__..__..__..__..__..__.
 72
    65
 73
     6
 40
0.625
 49
0.25
 49
-0.125
 49
0.0
 49
-0.125
 49
0.0
 49
-0.125
  0
LTYPE
  2
DIVIDEX2
 70
    64
  3
________  .  .  ________  .  .  ________  .  .
 72
    65
 73
     6
 40
2.5
 49
1.0
 49
-0.5
 49
0.0
 49
-0.5
 49
0.0
 49
-0.5
  0
LTYPE
  2
DOT
 70
    64
  3
. . . . . . . . . . . . . . . . . . . . . . . .
 72
    65
 73
     2
 40
0.25
 49
0.0
 49
-0.25
  0
LTYPE
  2
DOT2
 70
    64
  3
...............................................
 72
    65
 73
     2
 40
0.125
 49
0.0
 49
-0.125
  0
LTYPE
  2
DOTX2
 70
    64
  3
.  .  .  .  .  .  .  .  .  .  .  .  .  .  .  .
 72
    65
 73
     2
 40
0.5
 49
0.0
 49
-0.5
  0
LTYPE
  2
HIDDEN
 70
    64
  3
__ __ __ __ __ __ __ __ __ __ __ __ __ __ __ __
 72
    65
 73
     2
 40
0.375
 49
0.25
 49
-0.125
  0
LTYPE
  2
HIDDEN2
 70
    64
  3
_ _ _ _ _ _ _ _ _ _ _ _ _ _ _ _ _ _ _ _ _ _ _ _
 72
    65
 73
     2
 40
0.1875
 49
0.125
 49
-0.0625
  0
LTYPE
  2
HIDDENX2
 70
    64
  3
____ ____ ____ ____ ____ ____ ____ ____ ____ __
 72
    65
 73
     2
 40
0.75
 49
0.5
 49
-0.25
  0
LTYPE
  2
PHANTOM
 70
    64
  3
______  __  __  ______  __  __  ______  __  __
 72
    65
 73
     6
 40
2.5
 49
1.25
 49
-0.25
 49
0.25
 49
-0.25
 49
0.25
 49
-0.25
  0
LTYPE
  2
PHANTOM2
 70
    64
  3
___ _ _ ___ _ _ ___ _ _ ___ _ _ ___ _ _ ___ _ _
 72
    65
 73
     6
 40
1.25
 49
0.625
 49
-0.125
 49
0.125
 49
-0.125
 49
0.125
 49
-0.125
  0
LTYPE
  2
PHANTOMX2
 70
    64
  3
____________    ____    ____    ____________
 72
    65
 73
     6
 40
5.0
 49
2.5
 49
-0.5
 49
0.5
 49
-0.5
 49
0.5
 49
-0.5
  0
LTYPE
  2
ACAD_ISO02W100
 70
    64
  3
__ __ __ __ __ __ __ __ __ __ __ __ __ __ __ __
 72
    65
 73
     2
 40
15.0
 49
12.0
 49
-3.0
  0
LTYPE
  2
ACAD_ISO03W100
 70
    64
  3
__    __    __    __    __    __    __    __
 72
    65
 73
     2
 40
30.0
 49
12.0
 49
-18.0
  0
LTYPE
  2
ACAD_ISO04W100
 70
    64
  3
____ . ____ . ____ . ____ . ____ . ____ . ____
 72
    65
 73
     4
 40
30.5
 49
24.0
 49
-3.0
 49
0.5
 49
-3.0
  0
LTYPE
  2
ACAD_ISO05W100
 70
    64
  3
____ .. ____ .. ____ .. ____ .. ____ .. ____ ..
 72
    65
 73
     6
 40
34.0
 49
24.0
 49
-3.0
 49
0.5
 49
-3.0
 49
0.5
 49
-3.0
  0
LTYPE
  2
ACAD_ISO06W100
 70
    64
  3
____ ... ____ ... ____ ... ____ ... ____ ... __
 72
    65
 73
     8
 40
37.5
 49
24.0
 49
-3.0
 49
0.5
 49
-3.0
 49
0.5
 49
-3.0
 49
0.5
 49
-3.0
  0
LTYPE
  2
ACAD_ISO07W100
 70
    64
  3
. . . . . . . . . . . . . . . . . . . . . . . .
 72
    65
 73
     2
 40
3.5
 49
0.5
 49
-3.0
  0
LTYPE
  2
ACAD_ISO08W100
 70
    64
  3
____ __ ____ __ ____ __ ____ ____ __ __ ____ __
 72
    65
 73
     4
 40
36.0
 49
24.0
 49
-3.0
 49
6.0
 49
-3.0
  0
LTYPE
  2
ACAD_ISO09W100
 70
    64
  3
____ __ __ ____ __ __ ____ __ __ ____ __ __ ___
 72
    65
 73
     6
 40
45.0
 49
24.0
 49
-3.0
 49
6.0
 49
-3.0
 49
6.0
 49
-3.0
  0
LTYPE
  2
ACAD_ISO10W100
 70
    64
  3
__ . __ . __ . __ . __ . __ . __ . __ . __ . __
 72
    65
 73
     4
 40
18.5
 49
12.0
 49
-3.0
 49
0.5
 49
-3.0
  0
LTYPE
  2
ACAD_ISO11W100
 70
    64
  3
__ __ . __ __ . __ __ . __ __ . __ __ . __ __ .
 72
    65
 73
     6
 40
33.5
 49
12.0
 49
-3.0
 49
12.0
 49
-3.0
 49
0.5
 49
-3.0
  0
LTYPE
  2
ACAD_ISO12W100
 70
    64
  3
__ . . __ . . __ . . __ . . __ . . __ . . __ .
 72
    65
 73
     6
 40
22.0
 49
12.0
 49
-3.0
 49
0.5
 49
-3.0
 49
0.5
 49
-3.0
  0
LTYPE
  2
ACAD_ISO13W100
 70
    64
  3
__ __ . . __ __ . . __ __ . . __ __ . . __ __ .
 72
    65
 73
     8
 40
37.0
 49
12.0
 49
-3.0
 49
12.0
 49
-3.0
 49
0.5
 49
-3.0
 49
0.5
 49
-3.0
  0
LTYPE
  2
ACAD_ISO14W100
 70
    64
  3
__ . . . __ . . . __ . . . __ . . . __ . . . __
 72
    65
 73
     8
 40
25.5
 49
12.0
 49
-3.0
 49
0.5
 49
-3.0
 49
0.5
 49
-3.0
 49
0.5
 49
-3.0
  0
LTYPE
  2
ACAD_ISO15W100
 70
    64
  3
__ __ . . . __ __ . . . __ __ . . . __ __ . . .
 72
    65
 73
    10
 40
40.5
 49
12.0
 49
-3.0
 49
12.0
 49
-3.0
 49
0.5
 49
-3.0
 49
0.5
 49
-3.0
 49
0.5
 49
-3.0
  0
ENDTAB
  0
TABLE
  2
STYLE
 70
     4
  0
STYLE
  2
STANDARD
 70
    64
 40
0.0
 41
1.0
 50
0.0
 71
     0
 42
0.2
  3
txt
  4

  0
STYLE
  2
TOLERANCE
 70
    64
 40
0.0
 41
1.0
 50
0.0
 71
     0
 42
0.2
  3
../igesfont/iges1003.shx
  4

  0
STYLE
  2
ROMANS
 70
    64
 40
0.0
 41
1.0
 50
0.0
 71
     0
 42
0.2
  3
romans.shx
  4

  0
STYLE
  2
ROMANC
 70
    64
 40
0.0
 41
1.0
 50
0.0
 71
     0
 42
0.2
  3
romanc.shx
  4

  0
ENDTAB
  0
TABLE
  2
DIMSTYLE
 70
     2
  0
DIMSTYLE
  2
UNNAMED
 70
     0
  3

  4

  5

  6

  7

 40
1.0
 41
0.18
 42
0.0625
 43
0.38
 44
0.18
 45
0.0
 46
0.0
 47
0.0
 48
0.0
140
0.18
141
0.09
142
0.0
143
25.4
144
1.0
145
0.0
146
1.0
147
0.09
 71
     0
 72
     0
 73
     1
 74
     1
 75
     0
 76
     0
 77
     0
 78
     0
170
     0
171
     2
172
     0
173
     0
174
     0
175
     0
176
     0
177
     0
178
     0
  0
DIMSTYLE
  2
STANDARD
 70
     0
  3

  4

  5

  6

  7

 40
1.0
 41
0.18
 42
0.0625
 43
0.38
 44
0.18
 45
0.0
 46
0.0
 47
0.0
 48
0.0
140
0.18
141
0.09
142
0.0
143
25.4
144
1.0
145
0.0
146
1.0
147
0.09
 71
     0
 72
     0
 73
     1
 74
     1
 75
     0
 76
     0
 77
     0
 78
     0
170
     0
171
     2
172
     0
173
     0
174
     0
175
     0
176
     0
177
     0
178
     0
  0
ENDTAB
  0
TABLE
  2
LAYER
 70
     2
  0
LAYER
  2
0
 70
     0
 62
     7
  6
CONTINUOUS
  0
LAYER
  2
255
 70
     0
 62
     7
  6
CONTINUOUS
  0
ENDTAB
  0
ENDSEC
  0
SECTION
  2
BLOCKS
  0
BLOCK
  5
     B
  8
0
  6
CONTINUOUS
 62
     7
  2
*HATCH319
 70
    65
 10
0.0
 20
0.0
 30
0.0
  3
*HATCH319
  0
LINE
  5
     C
  8
0
  6
CONTINUOUS
 62
    52
 10
45.8568267822266
 20
179.5
 30
0.0
 11
43.8568267822266
 21
177.5
 31
0.0
  0
LINE
  5
     D
  8
0
  6
CONTINUOUS
 62
    52
 10
52.2207832336426
 20
179.5
 30
0.0
 11
50.2207832336426
 21
177.5
 31
0.0
  0
LINE
  5
     E
  8
0
  6
CONTINUOUS
 62
    52
 10
58.5847396850586
 20
179.5
 30
0.0
 11
56.5847396850586
 21
177.5
 31
0.0
  0
LINE
  5
     F
  8
0
  6
CONTINUOUS
 62
    52
 10
64.9486999511719
 20
179.5
 30
0.0
 11
62.9486961364746
 21
177.5
 31
0.0
  0
ENDBLK
  5
    10
  8
0
  6
CONTINUOUS
 62
     7
  0
BLOCK
  5
    11
  8
0
  6
CONTINUOUS
 62
     7
  2
*HATCH320
 70
    65
 10
0.0
 20
0.0
 30
0.0
  3
*HATCH320
  0
LINE
  5
    12
  8
0
  6
CONTINUOUS
 62
    52
 10
-7.17618036270142
 20
179.5
 30
0.0
 11
-9.17617988586426
 21
177.5
 31
0.0
  0
LINE
  5
    13
  8
0
  6
CONTINUOUS
 62
    52
 10
-0.812219619750977
 20
179.5
 30
0.0
 11
-2.81221795082092
 21
177.5
 31
0.0
  0
LINE
  5
    14
  8
0
  6
CONTINUOUS
 62
    52
 10
5.55174112319946
 20
179.5
 30
0.0
 11
3.55174350738525
 21
177.5
 31
0.0
  0
LINE
  5
    15
  8
0
  6
CONTINUOUS
 62
    52
 10
11.9157028198242
 20
179.5
 30
0.0
 11
9.91570568084717
 21
177.5
 31
0.0
  0
LINE
  5
    16
  8
0
  6
CONTINUOUS
 62
    52
 10
18.2796649932861
 20
179.5
 30
0.0
 11
16.2796669006348
 21
177.5
 31
0.0
  0
LINE
  5
    17
  8
0
  6
CONTINUOUS
 62
    52
 10
24.643627166748
 20
179.5
 30
0.0
 11
22.6436290740967
 21
177.5
 31
0.0
  0
ENDBLK
  5
    18
  8
0
  6
CONTINUOUS
 62
     7
  0
BLOCK
  5
    19
  8
0
  6
CONTINUOUS
 62
     7
  2
*HATCH321
 70
    65
 10
0.0
 20
0.0
 30
0.0
  3
*HATCH321
  0
LINE
  5
    1A
  8
0
  6
CONTINUOUS
 62
    52
 10
-70.815788269043
 20
179.5
 30
0.0
 11
-72.815788269043
 21
177.5
 31
0.0
  0
LINE
  5
    1B
  8
0
  6
CONTINUOUS
 62
    52
 10
-64.4518203735352
 20
179.5
 30
0.0
 11
-66.4518203735352
 21
177.5
 31
0.0
  0
LINE
  5
    1C
  8
0
  6
CONTINUOUS
 62
    52
 10
-58.0878639221191
 20
179.5
 30
0.0
 11
-60.0878601074219
 21
177.5
 31
0.0
  0
LINE
  5
    1D
  8
0
  6
CONTINUOUS
 62
    52
 10
-51.7239074707031
 20
179.5
 30
0.0
 11
-53.7239036560059
 21
177.5
 31
0.0
  0
LINE
  5
    1E
  8
0
  6
CONTINUOUS
 62
    52
 10
-45.3599510192871
 20
179.5
 30
0.0
 11
-47.3599472045898
 21
177.5
 31
0.0
  0
LINE
  5
    1F
  8
0
  6
CONTINUOUS
 62
    52
 10
-38.9959945678711
 20
179.5
 30
0.0
 11
-40.9959907531738
 21
177.5
 31
0.0
  0
LINE
  5
    20
  8
0
  6
CONTINUOUS
 62
    52
 10
-32.6320381164551
 20
179.5
 30
0.0
 11
-34.6320343017578
 21
177.5
 31
0.0
  0
LINE
  5
    21
  8
0
  6
CONTINUOUS
 62
    52
 10
-26.2680759429932
 20
179.5
 30
0.0
 11
-28.2680740356445
 21
177.5
 31
0.0
  0
LINE
  5
    22
  8
0
  6
CONTINUOUS
 62
    52
 10
-19.9041137695313
 20
179.5
 30
0.0
 11
-21.9041118621826
 21
177.5
 31
0.0
  0
ENDBLK
  5
    23
  8
0
  6
CONTINUOUS
 62
     7
  0
BLOCK
  5
    24
  8
0
  6
CONTINUOUS
 62
     7
  2
*HATCH322
 70
    65
 10
0.0
 20
0.0
 30
0.0
  3
*HATCH322
  0
LINE
  5
    25
  8
0
  6
CONTINUOUS
 62
    52
 10
171.014739990234
 20
179.5
 30
0.0
 11
169.014739990234
 21
177.5
 31
0.0
  0
LINE
  5
    26
  8
0
  6
CONTINUOUS
 62
    52
 10
177.378707885742
 20
179.5
 30
0.0
 11
175.378707885742
 21
177.5
 31
0.0
  0
LINE
  5
    27
  8
0
  6
CONTINUOUS
 62
    52
 10
183.74267578125
 20
179.5
 30
0.0
 11
181.74267578125
 21
177.5
 31
0.0
  0
LINE
  5
    28
  8
0
  6
CONTINUOUS
 62
    52
 10
190.106643676758
 20
179.5
 30
0.0
 11
188.106643676758
 21
177.5
 31
0.0
  0
ENDBLK
  5
    29
  8
0
  6
CONTINUOUS
 62
     7
  0
BLOCK
  5
    2A
  8
0
  6
CONTINUOUS
 62
     7
  2
*HATCH323
 70
    65
 10
0.0
 20
0.0
 30
0.0
  3
*HATCH323
  0
LINE
  5
    2B
  8
0
  6
CONTINUOUS
 62
    52
 10
81.9192733764648
 20
179.5
 30
0.0
 11
79.9192733764648
 21
177.5
 31
0.0
  0
LINE
  5
    2C
  8
0
  6
CONTINUOUS
 62
    52
 10
88.2832412719727
 20
179.5
 30
0.0
 11
86.2832412719727
 21
177.5
 31
0.0
  0
LINE
  5
    2D
  8
0
  6
CONTINUOUS
 62
    52
 10
94.6472091674805
 20
179.5
 30
0.0
 11
92.6472091674805
 21
177.5
 31
0.0
  0
LINE
  5
    2E
  8
0
  6
CONTINUOUS
 62
    52
 10
101.011177062988
 20
179.5
 30
0.0
 11
99.0111770629883
 21
177.5
 31
0.0
  0
LINE
  5
    2F
  8
0
  6
CONTINUOUS
 62
    52
 10
107.375144958496
 20
179.5
 30
0.0
 11
105.375144958496
 21
177.5
 31
0.0
  0
LINE
  5
    30
  8
0
  6
CONTINUOUS
 62
    52
 10
113.739112854004
 20
179.5
 30
0.0
 11
111.739112854004
 21
177.5
 31
0.0
  0
LINE
  5
    31
  8
0
  6
CONTINUOUS
 62
    52
 10
120.103080749512
 20
179.5
 30
0.0
 11
118.103080749512
 21
177.5
 31
0.0
  0
LINE
  5
    32
  8
0
  6
CONTINUOUS
 62
    52
 10
126.46704864502
 20
179.5
 30
0.0
 11
124.46704864502
 21
177.5
 31
0.0
  0
LINE
  5
    33
  8
0
  6
CONTINUOUS
 62
    52
 10
132.831008911133
 20
179.5
 30
0.0
 11
130.831008911133
 21
177.5
 31
0.0
  0
LINE
  5
    34
  8
0
  6
CONTINUOUS
 62
    52
 10
139.194976806641
 20
179.5
 30
0.0
 11
137.194976806641
 21
177.5
 31
0.0
  0
LINE
  5
    35
  8
0
  6
CONTINUOUS
 62
    52
 10
145.558944702148
 20
179.5
 30
0.0
 11
143.558944702148
 21
177.5
 31
0.0
  0
LINE
  5
    36
  8
0
  6
CONTINUOUS
 62
    52
 10
151.922912597656
 20
179.5
 30
0.0
 11
149.922912597656
 21
177.5
 31
0.0
  0
LINE
  5
    37
  8
0
  6
CONTINUOUS
 62
    52
 10
157.749984741211
 20
178.963165283203
 30
0.0
 11
156.286804199219
 21
177.5
 31
0.0
  0
ENDBLK
  5
    38
  8
0
  6
CONTINUOUS
 62
     7
  0
BLOCK
  5
    39
  8
0
  6
CONTINUOUS
 62
     7
  2
*HATCH324
 70
    65
 10
0.0
 20
0.0
 30
0.0
  3
*HATCH324
  0
LINE
  5
    3A
  8
0
  6
CONTINUOUS
 62
    52
 10
149.286819458008
 20
170.500015258789
 30
0.0
 11
146.786819458008
 21
168.0
 31
0.0
  0
LINE
  5
    3B
  8
0
  6
CONTINUOUS
 62
    52
 10
153.249984741211
 20
168.099212646484
 30
0.0
 11
153.150772094727
 21
168.0
 31
0.0
  0
ENDBLK
  5
    3C
  8
0
  6
CONTINUOUS
 62
     7
  0
BLOCK
  5
    3D
  8
0
  6
CONTINUOUS
 62
     7
  2
*UDIM1632
 70
    65
 10
0.0
 20
0.0
 30
0.0
  3
*UDIM1632
  0
TEXT
  5
    3E
  8
0
  6
CONTINUOUS
 62
     7
 10
-261.487994008424
 20
3.45935231135811
 30
0.0
 40
2.99999994039535
  1
5,5
 50
359.999999948034
 41
0.933333333333333
 72
     1
 11
-257.587994084557
 21
4.9593522780382
 31
0.0
 73
     2
  0
TEXT
  5
    3F
  8
0
  6
CONTINUOUS
 62
     7
 10
-264.637993952793
 20
3.45935230883267
 30
0.0
 40
2.99999994039535
  1
Ø
 50
359.999999948034
 41
0.933333333333333
 72
     1
 11
-263.537993973295
 21
4.9593522780382
 31
0.0
 73
     2
  0
LINE
  5
    40
  8
0
  6
CONTINUOUS
 62
     7
 10
-239.485532932367
 20
40.4426718362534
 30
0.0
 11
-239.485532932367
 21
0.459352307840525
 31
0.0
  0
LINE
  5
    41
  8
0
  6
CONTINUOUS
 62
     7
 10
-241.135528908686
 20
40.4426718362534
 30
0.0
 11
-241.135528908686
 21
0.459352307840525
 31
0.0
  0
LINE
  5
    42
  8
0
  6
CONTINUOUS
 62
     7
 10
-239.485532932367
 20
2.45935230784053
 30
0.0
 11
-264.63799395144
 21
2.45935230784053
 31
0.0
  0
LINE
  5
    43
  8
0
  6
CONTINUOUS
 62
     7
 10
-236.53110965516
 20
2.98029673779219
 30
0.0
 11
-239.485532932367
 21
2.45935230784053
 31
0.0
  0
LINE
  5
    44
  8
0
  6
CONTINUOUS
 62
     7
 10
-239.485532932367
 20
2.45935230784053
 30
0.0
 11
-236.53110965516
 21
1.93840787788886
 31
0.0
  0
LINE
  5
    45
  8
0
  6
CONTINUOUS
 62
     7
 10
-244.089952185893
 20
1.93840787788886
 30
0.0
 11
-241.135528908686
 21
2.45935230784053
 31
0.0
  0
LINE
  5
    46
  8
0
  6
CONTINUOUS
 62
     7
 10
-241.135528908686
 20
2.45935230784053
 30
0.0
 11
-244.089952185893
 21
2.98029673779219
 31
0.0
  0
ENDBLK
  5
    47
  8
0
  6
CONTINUOUS
 62
     7
  0
BLOCK
  5
    48
  8
0
  6
CONTINUOUS
 62
     7
  2
*UDIM1633
 70
    65
 10
0.0
 20
0.0
 30
0.0
  3
*UDIM1633
  0
TEXT
  5
    49
  8
0
  6
CONTINUOUS
 62
     7
 10
-274.647546989563
 20
121.354944139026
 30
0.0
 40
2.99999994039535
  1
27,5
 50
359.999999948034
 41
0.933333333333333
 72
     1
 11
-269.347547093511
 21
122.854944104443
 31
0.0
 73
     2
  0
LINE
  5
    4A
  8
0
  6
CONTINUOUS
 62
     7
 10
-248.860527694225
 20
69.3676763581859
 30
0.0
 11
-248.860527694225
 21
122.354944134246
 31
0.0
  0
LINE
  5
    4B
  8
0
  6
CONTINUOUS
 62
     7
 10
-257.110528022051
 20
60.9676536074401
 30
0.0
 11
-257.110528022051
 21
122.354944134246
 31
0.0
  0
LINE
  5
    4C
  8
0
  6
CONTINUOUS
 62
     7
 10
-248.860527694225
 20
120.354944134246
 30
0.0
 11
-274.64754698821
 21
120.354944134246
 31
0.0
  0
LINE
  5
    4D
  8
0
  6
CONTINUOUS
 62
     7
 10
-245.906104417018
 20
120.875888564197
 30
0.0
 11
-248.860527694225
 21
120.354944134246
 31
0.0
  0
LINE
  5
    4E
  8
0
  6
CONTINUOUS
 62
     7
 10
-248.860527694225
 20
120.354944134246
 30
0.0
 11
-245.906104417018
 21
119.833999704294
 31
0.0
  0
LINE
  5
    4F
  8
0
  6
CONTINUOUS
 62
     7
 10
-260.064951299258
 20
119.833999704294
 30
0.0
 11
-257.110528022051
 21
120.354944134246
 31
0.0
  0
LINE
  5
    50
  8
0
  6
CONTINUOUS
 62
     7
 10
-257.110528022051
 20
120.354944134246
 30
0.0
 11
-260.064951299258
 21
120.875888564197
 31
0.0
  0
ENDBLK
  5
    51
  8
0
  6
CONTINUOUS
 62
     7
  0
BLOCK
  5
    52
  8
0
  6
CONTINUOUS
 62
     7
  2
*UDIM1634
 70
    65
 10
0.0
 20
0.0
 30
0.0
  3
*UDIM1634
  0
TEXT
  5
    53
  8
0
  6
CONTINUOUS
 62
     7
 10
-136.993016802846
 20
92.9251198887128
 30
0.0
 40
2.99999994039535
  1
22
 50
89.9999999480344
 41
0.933333333333333
 72
     1
 11
-138.49301677078
 21
95.4251198404008
 31
0.0
 73
     2
  0
LINE
  5
    54
  8
0
  6
CONTINUOUS
 62
     7
 10
-149.647371412036
 20
78.6426789879797
 30
0.0
 11
-133.993016800582
 21
78.6426789879797
 31
0.0
  0
LINE
  5
    55
  8
0
  6
CONTINUOUS
 62
     7
 10
-143.282037198512
 20
85.2426792502401
 30
0.0
 11
-133.993016800582
 21
85.2426792502401
 31
0.0
  0
LINE
  5
    56
  8
0
  6
CONTINUOUS
 62
     7
 10
-135.993016800582
 20
78.6426789879797
 30
0.0
 11
-135.993016800582
 21
97.9251197907303
 31
0.0
  0
LINE
  5
    57
  8
0
  6
CONTINUOUS
 62
     7
 10
-135.472072370631
 20
75.6882557107728
 30
0.0
 11
-135.993016800582
 21
78.6426789879797
 31
0.0
  0
LINE
  5
    58
  8
0
  6
CONTINUOUS
 62
     7
 10
-135.993016800582
 20
78.6426789879797
 30
0.0
 11
-136.513961230534
 21
75.6882557107728
 31
0.0
  0
LINE
  5
    59
  8
0
  6
CONTINUOUS
 62
     7
 10
-136.513961230534
 20
88.1971025274471
 30
0.0
 11
-135.993016800582
 21
85.2426792502401
 31
0.0
  0
LINE
  5
    5A
  8
0
  6
CONTINUOUS
 62
     7
 10
-135.993016800582
 20
85.2426792502401
 30
0.0
 11
-135.472072370631
 21
88.1971025274471
 31
0.0
  0
ENDBLK
  5
    5B
  8
0
  6
CONTINUOUS
 62
     7
  0
BLOCK
  5
    5C
  8
0
  6
CONTINUOUS
 62
     7
  2
*UDIM1635
 70
    65
 10
0.0
 20
0.0
 30
0.0
  3
*UDIM1635
  0
TEXT
  5
    5D
  8
0
  6
CONTINUOUS
 62
     7
 10
-139.385523196421
 20
116.1382416587
 30
0.0
 40
2.99999994039535
  1
14
 50
359.999999948034
 41
0.933333333333333
 72
     1
 11
-136.885523244739
 21
117.638241626642
 31
0.0
 73
     2
  0
LINE
  5
    5E
  8
0
  6
CONTINUOUS
 62
     7
 10
-142.360523462296
 20
90.4426794171331
 30
0.0
 11
-142.360523462296
 21
117.138241656445
 31
0.0
  0
LINE
  5
    5F
  8
0
  6
CONTINUOUS
 62
     7
 10
-146.560523629189
 20
88.5891854272397
 30
0.0
 11
-146.560523629189
 21
117.138241656445
 31
0.0
  0
LINE
  5
    60
  8
0
  6
CONTINUOUS
 62
     7
 10
-134.385523294409
 20
115.138241656445
 30
0.0
 11
-146.560523629189
 21
115.138241656445
 31
0.0
  0
LINE
  5
    61
  8
0
  6
CONTINUOUS
 62
     7
 10
-139.406100185089
 20
115.659186086396
 30
0.0
 11
-142.360523462296
 21
115.138241656445
 31
0.0
  0
LINE
  5
    62
  8
0
  6
CONTINUOUS
 62
     7
 10
-142.360523462296
 20
115.138241656445
 30
0.0
 11
-139.406100185089
 21
114.617297226493
 31
0.0
  0
LINE
  5
    63
  8
0
  6
CONTINUOUS
 62
     7
 10
-149.514946906396
 20
114.617297226493
 30
0.0
 11
-146.560523629189
 21
115.138241656445
 31
0.0
  0
LINE
  5
    64
  8
0
  6
CONTINUOUS
 62
     7
 10
-146.560523629189
 20
115.138241656445
 30
0.0
 11
-149.514946906396
 21
115.659186086396
 31
0.0
  0
ENDBLK
  5
    65
  8
0
  6
CONTINUOUS
 62
     7
  0
BLOCK
  5
    66
  8
0
  6
CONTINUOUS
 62
     7
  2
*UDIM1636
 70
    65
 10
0.0
 20
0.0
 30
0.0
  3
*UDIM1636
  0
TEXT
  5
    67
  8
0
  6
CONTINUOUS
 62
     7
 10
-161.685522556664
 20
116.1382416587
 30
0.0
 40
2.99999994039535
  1
22
 50
359.999999948034
 41
0.933333333333333
 72
     1
 11
-159.185522604982
 21
117.638241626642
 31
0.0
 73
     2
  0
LINE
  5
    68
  8
0
  6
CONTINUOUS
 62
     7
 10
-153.160523891449
 20
81.9779799350809
 30
0.0
 11
-153.160523891449
 21
117.138241656445
 31
0.0
  0
LINE
  5
    69
  8
0
  6
CONTINUOUS
 62
     7
 10
-146.560523629189
 20
115.138241656445
 30
0.0
 11
-161.685522555311
 21
115.138241656445
 31
0.0
  0
LINE
  5
    6A
  8
0
  6
CONTINUOUS
 62
     7
 10
-149.514946906396
 20
114.617297226493
 30
0.0
 11
-146.560523629189
 21
115.138241656445
 31
0.0
  0
LINE
  5
    6B
  8
0
  6
CONTINUOUS
 62
     7
 10
-146.560523629189
 20
115.138241656445
 30
0.0
 11
-149.514946906396
 21
115.659186086396
 31
0.0
  0
LINE
  5
    6C
  8
0
  6
CONTINUOUS
 62
     7
 10
-150.206100614242
 20
115.659186086396
 30
0.0
 11
-153.160523891449
 21
115.138241656445
 31
0.0
  0
LINE
  5
    6D
  8
0
  6
CONTINUOUS
 62
     7
 10
-153.160523891449
 20
115.138241656445
 30
0.0
 11
-150.206100614242
 21
114.617297226493
 31
0.0
  0
ENDBLK
  5
    6E
  8
0
  6
CONTINUOUS
 62
     7
  0
BLOCK
  5
    6F
  8
0
  6
CONTINUOUS
 62
     7
  2
*UDIM1637
 70
    65
 10
0.0
 20
0.0
 30
0.0
  3
*UDIM1637
  0
TEXT
  5
    70
  8
0
  6
CONTINUOUS
 62
     7
 10
-162.735524189832
 20
122.741373025863
 30
0.0
 40
2.99999994039535
  1
108
 50
359.999999948034
 41
0.933333333333333
 72
     1
 11
-158.835524265965
 21
124.241372992543
 31
0.0
 73
     2
  0
LINE
  5
    71
  8
0
  6
CONTINUOUS
 62
     7
 10
-142.360523462296
 20
90.4426794171331
 30
0.0
 11
-142.360523462296
 21
123.741373022345
 31
0.0
  0
LINE
  5
    72
  8
0
  6
CONTINUOUS
 62
     7
 10
-174.760524749756
 20
68.3926831185818
 30
0.0
 11
-174.760524749756
 21
123.741373022345
 31
0.0
  0
LINE
  5
    73
  8
0
  6
CONTINUOUS
 62
     7
 10
-142.360523462296
 20
121.741373022345
 30
0.0
 11
-174.760524749756
 21
121.741373022345
 31
0.0
  0
LINE
  5
    74
  8
0
  6
CONTINUOUS
 62
     7
 10
-145.314946739502
 20
121.220428592394
 30
0.0
 11
-142.360523462296
 21
121.741373022345
 31
0.0
  0
LINE
  5
    75
  8
0
  6
CONTINUOUS
 62
     7
 10
-142.360523462296
 20
121.741373022345
 30
0.0
 11
-145.314946739502
 21
122.262317452297
 31
0.0
  0
LINE
  5
    76
  8
0
  6
CONTINUOUS
 62
     7
 10
-171.806101472549
 20
122.262317452297
 30
0.0
 11
-174.760524749756
 21
121.741373022345
 31
0.0
  0
LINE
  5
    77
  8
0
  6
CONTINUOUS
 62
     7
 10
-174.760524749756
 20
121.741373022345
 30
0.0
 11
-171.806101472549
 21
121.220428592394
 31
0.0
  0
ENDBLK
  5
    78
  8
0
  6
CONTINUOUS
 62
     7
  0
BLOCK
  5
    79
  8
0
  6
CONTINUOUS
 62
     7
  2
*UDIM1638
 70
    65
 10
0.0
 20
0.0
 30
0.0
  3
*UDIM1638
  0
TEXT
  5
    7A
  8
0
  6
CONTINUOUS
 62
     7
 10
-166.229578950131
 20
110.122054894938
 30
0.0
 40
2.99999994039535
  1
3
 50
359.999999948034
 41
0.933333333333333
 72
     1
 11
-165.129578970633
 21
111.622054864143
 31
0.0
 73
     2
  0
TEXT
  5
    7B
  8
0
  6
CONTINUOUS
 62
     7
 10
-168.979578918342
 20
110.122054894938
 30
0.0
 40
2.99999994039535
  1
_
 50
359.999999948034
 41
0.933333333333333
 72
     1
 11
-167.879578938844
 21
111.622054864143
 31
0.0
 73
     2
  0
LINE
  5
    7C
  8
0
  6
CONTINUOUS
 62
     7
 10
-173.860524713993
 20
107.636104944781
 30
0.0
 11
-173.860524713993
 21
111.122054893945
 31
0.0
  0
LINE
  5
    7D
  8
0
  6
CONTINUOUS
 62
     7
 10
-174.760524749756
 20
68.3926831185818
 30
0.0
 11
-174.760524749756
 21
111.122054893945
 31
0.0
  0
LINE
  5
    7E
  8
0
  6
CONTINUOUS
 62
     7
 10
-164.029578992488
 20
109.122054893945
 30
0.0
 11
-174.760524749756
 21
109.122054893945
 31
0.0
  0
LINE
  5
    7F
  8
0
  6
CONTINUOUS
 62
     7
 10
-170.906101436786
 20
109.642999323897
 30
0.0
 11
-173.860524713993
 21
109.122054893945
 31
0.0
  0
LINE
  5
    80
  8
0
  6
CONTINUOUS
 62
     7
 10
-173.860524713993
 20
109.122054893945
 30
0.0
 11
-170.906101436786
 21
108.601110463994
 31
0.0
  0
LINE
  5
    81
  8
0
  6
CONTINUOUS
 62
     7
 10
-177.714948026963
 20
108.601110463994
 30
0.0
 11
-174.760524749756
 21
109.122054893945
 31
0.0
  0
LINE
  5
    82
  8
0
  6
CONTINUOUS
 62
     7
 10
-174.760524749756
 20
109.122054893945
 30
0.0
 11
-177.714948026963
 21
109.642999323897
 31
0.0
  0
ENDBLK
  5
    83
  8
0
  6
CONTINUOUS
 62
     7
  0
BLOCK
  5
    84
  8
0
  6
CONTINUOUS
 62
     7
  2
*UDIM1639
 70
    65
 10
0.0
 20
0.0
 30
0.0
  3
*UDIM1639
  0
TEXT
  5
    85
  8
0
  6
CONTINUOUS
 62
     7
 10
-138.231215634007
 20
-13.5868953115443
 30
0.0
 40
2.99999994039535
  1
11
 50
302.463920032049
 41
0.933333333333333
 72
     1
 11
-135.623700234502
 21
-14.8910667357003
 31
0.0
 73
     2
  0
TEXT
  5
    86
  8
0
  6
CONTINUOUS
 62
     7
 10
-139.922036087318
 20
-10.9291470457773
 30
0.0
 40
2.99999994039535
  1
Ø
 50
302.463920032049
 41
0.933333333333333
 72
     1
 11
-138.065996441641
 21
-11.052097020109
 31
0.0
 73
     2
  0
LINE
  5
    87
  8
0
  6
CONTINUOUS
 62
     7
 10
-136.391103276714
 20
-18.3423117535799
 30
0.0
 11
-147.446191535961
 21
-0.965161141639388
 31
0.0
  0
LINE
  5
    88
  8
0
  6
CONTINUOUS
 62
     7
 10
-143.649478398612
 20
-5.96257693608053
 30
0.0
 11
-145.674855722416
 21
-3.74946900915523
 31
0.0
  0
LINE
  5
    89
  8
0
  6
CONTINUOUS
 62
     7
 10
-145.674855722416
 20
-3.74946900915523
 30
0.0
 11
-144.528550893894
 21
-6.5218299597005
 31
0.0
  0
LINE
  5
    8A
  8
0
  6
CONTINUOUS
 62
     7
 10
-149.471568859766
 20
1.24794678528591
 30
0.0
 11
-147.446191535961
 21
-0.965161141639388
 31
0.0
  0
LINE
  5
    8B
  8
0
  6
CONTINUOUS
 62
     7
 10
-147.446191535961
 20
-0.965161141639388
 30
0.0
 11
-148.592496364483
 21
1.80719980890588
 31
0.0
  0
ENDBLK
  5
    8C
  8
0
  6
CONTINUOUS
 62
     7
  0
BLOCK
  5
    8D
  8
0
  6
CONTINUOUS
 62
     7
  2
*UDIM1640
 70
    65
 10
0.0
 20
0.0
 30
0.0
  3
*UDIM1640
  0
TEXT
  5
    8E
  8
0
  6
CONTINUOUS
 62
     7
 10
-134.985590270442
 20
1.97959167769438
 30
0.0
 40
2.99999994039535
  1
50
 50
89.9999999480344
 41
0.933333333333333
 72
     1
 11
-136.485590238375
 21
4.47959162938241
 31
0.0
 73
     2
  0
LINE
  5
    8F
  8
0
  6
CONTINUOUS
 62
     7
 10
-141.360523462296
 20
-6.55731524229031
 30
0.0
 11
-131.985590268177
 21
-6.55731524229031
 31
0.0
  0
LINE
  5
    90
  8
0
  6
CONTINUOUS
 62
     7
 10
-141.360523462296
 20
8.44268535375613
 30
0.0
 11
-131.985590268177
 21
8.44268535375613
 31
0.0
  0
LINE
  5
    91
  8
0
  6
CONTINUOUS
 62
     7
 10
-133.985590268177
 20
-6.55731524229031
 30
0.0
 11
-133.985590268177
 21
8.44268535375613
 31
0.0
  0
LINE
  5
    92
  8
0
  6
CONTINUOUS
 62
     7
 10
-134.506534698129
 20
-3.60289196508335
 30
0.0
 11
-133.985590268177
 21
-6.55731524229031
 31
0.0
  0
LINE
  5
    93
  8
0
  6
CONTINUOUS
 62
     7
 10
-133.985590268177
 20
-6.55731524229031
 30
0.0
 11
-133.464645838226
 21
-3.60289196508335
 31
0.0
  0
LINE
  5
    94
  8
0
  6
CONTINUOUS
 62
     7
 10
-133.464645838226
 20
5.48826207654917
 30
0.0
 11
-133.985590268177
 21
8.44268535375613
 31
0.0
  0
LINE
  5
    95
  8
0
  6
CONTINUOUS
 62
     7
 10
-133.985590268177
 20
8.44268535375613
 30
0.0
 11
-134.506534698129
 21
5.48826207654917
 31
0.0
  0
ENDBLK
  5
    96
  8
0
  6
CONTINUOUS
 62
     7
  0
BLOCK
  5
    97
  8
0
  6
CONTINUOUS
 62
     7
  2
*UDIM1641
 70
    65
 10
0.0
 20
0.0
 30
0.0
  3
*UDIM1641
  0
TEXT
  5
    98
  8
0
  6
CONTINUOUS
 62
     7
 10
-131.609674614023
 20
52.0801758130527
 30
0.0
 40
2.99999994039535
  1
143,25
 50
89.9999999480344
 41
0.933333333333333
 72
     1
 11
-133.109674576885
 21
60.1801756534787
 31
0.0
 73
     2
  0
LINE
  5
    99
  8
0
  6
CONTINUOUS
 62
     7
 10
-155.783993511207
 20
38.9676751899348
 30
0.0
 11
-128.609674606687
 21
38.9676751899348
 31
0.0
  0
LINE
  5
    9A
  8
0
  6
CONTINUOUS
 62
     7
 10
-142.856214551558
 20
81.9426791191099
 30
0.0
 11
-128.609674606687
 21
81.9426791191099
 31
0.0
  0
LINE
  5
    9B
  8
0
  6
CONTINUOUS
 62
     7
 10
-130.609674606687
 20
38.9676751899348
 30
0.0
 11
-130.609674606687
 21
81.9426791191099
 31
0.0
  0
LINE
  5
    9C
  8
0
  6
CONTINUOUS
 62
     7
 10
-131.130619036639
 20
41.9220984671418
 30
0.0
 11
-130.609674606687
 21
38.9676751899348
 31
0.0
  0
LINE
  5
    9D
  8
0
  6
CONTINUOUS
 62
     7
 10
-130.609674606687
 20
38.9676751899348
 30
0.0
 11
-130.088730176735
 21
41.9220984671418
 31
0.0
  0
LINE
  5
    9E
  8
0
  6
CONTINUOUS
 62
     7
 10
-130.088730176735
 20
78.988255841903
 30
0.0
 11
-130.609674606687
 21
81.9426791191099
 31
0.0
  0
LINE
  5
    9F
  8
0
  6
CONTINUOUS
 62
     7
 10
-130.609674606687
 20
81.9426791191099
 30
0.0
 11
-131.130619036639
 21
78.988255841903
 31
0.0
  0
ENDBLK
  5
    A0
  8
0
  6
CONTINUOUS
 62
     7
  0
BLOCK
  5
    A1
  8
0
  6
CONTINUOUS
 62
     7
  2
*UDIM1642
 70
    65
 10
0.0
 20
0.0
 30
0.0
  3
*UDIM1642
  0
TEXT
  5
    A2
  8
0
  6
CONTINUOUS
 62
     7
 10
-123.621487647289
 20
37.2676820036098
 30
0.0
 40
2.99999994039535
  1
270
 50
89.9999999480344
 41
0.933333333333333
 72
     1
 11
-125.121487613955
 21
41.1676819274823
 31
0.0
 73
     2
  0
LINE
  5
    A3
  8
0
  6
CONTINUOUS
 62
     7
 10
-159.366019398952
 20
0.942685055732909
 30
0.0
 11
-120.621487643757
 21
0.942685055732909
 31
0.0
  0
LINE
  5
    A4
  8
0
  6
CONTINUOUS
 62
     7
 10
-142.856214551558
 20
81.9426791191099
 30
0.0
 11
-120.621487643757
 21
81.9426791191099
 31
0.0
  0
LINE
  5
    A5
  8
0
  6
CONTINUOUS
 62
     7
 10
-122.621487643757
 20
0.942685055732909
 30
0.0
 11
-122.621487643757
 21
81.9426791191099
 31
0.0
  0
LINE
  5
    A6
  8
0
  6
CONTINUOUS
 62
     7
 10
-123.142432073709
 20
3.89710833293987
 30
0.0
 11
-122.621487643757
 21
0.942685055732909
 31
0.0
  0
LINE
  5
    A7
  8
0
  6
CONTINUOUS
 62
     7
 10
-122.621487643757
 20
0.942685055732909
 30
0.0
 11
-122.100543213805
 21
3.89710833293987
 31
0.0
  0
LINE
  5
    A8
  8
0
  6
CONTINUOUS
 62
     7
 10
-122.100543213805
 20
78.988255841903
 30
0.0
 11
-122.621487643757
 21
81.9426791191099
 31
0.0
  0
LINE
  5
    A9
  8
0
  6
CONTINUOUS
 62
     7
 10
-122.621487643757
 20
81.9426791191099
 30
0.0
 11
-123.142432073709
 21
78.988255841903
 31
0.0
  0
ENDBLK
  5
    AA
  8
0
  6
CONTINUOUS
 62
     7
  0
BLOCK
  5
    AB
  8
0
  6
CONTINUOUS
 62
     7
  2
*UDIM1643
 70
    65
 10
0.0
 20
0.0
 30
0.0
  3
*UDIM1643
  0
TEXT
  5
    AC
  8
0
  6
CONTINUOUS
 62
     7
 10
-152.601110686043
 20
30.5246887206164
 30
0.0
 40
2.99999994039535
  1
160
 50
89.9999999480344
 41
0.933333333333333
 72
     1
 11
-154.101110652709
 21
34.4246886444889
 31
0.0
 73
     2
  0
TEXT
  5
    AD
  8
0
  6
CONTINUOUS
 62
     7
 10
-152.601110687311
 20
38.8746885775652
 30
0.0
 40
2.99999994039535
  1
 max
 50
89.9999999480344
 41
0.933333333333333
 72
     1
 11
-154.101110652709
 21
44.1746884736223
 31
0.0
 73
     2
  0
LINE
  5
    AE
  8
0
  6
CONTINUOUS
 62
     7
 10
-167.760524511337
 20
17.4426811337471
 30
0.0
 11
-149.601110682511
 21
17.4426811337471
 31
0.0
  0
LINE
  5
    AF
  8
0
  6
CONTINUOUS
 62
     7
 10
-167.760524511337
 20
65.4426830410957
 30
0.0
 11
-149.601110682511
 21
65.4426830410957
 31
0.0
  0
LINE
  5
    B0
  8
0
  6
CONTINUOUS
 62
     7
 10
-151.601110682511
 20
17.4426811337471
 30
0.0
 11
-151.601110682511
 21
65.4426830410957
 31
0.0
  0
LINE
  5
    B1
  8
0
  6
CONTINUOUS
 62
     7
 10
-152.122055112462
 20
20.3971044109541
 30
0.0
 11
-151.601110682511
 21
17.4426811337471
 31
0.0
  0
LINE
  5
    B2
  8
0
  6
CONTINUOUS
 62
     7
 10
-151.601110682511
 20
17.4426811337471
 30
0.0
 11
-151.080166252559
 21
20.3971044109541
 31
0.0
  0
LINE
  5
    B3
  8
0
  6
CONTINUOUS
 62
     7
 10
-151.080166252559
 20
62.4882597638888
 30
0.0
 11
-151.601110682511
 21
65.4426830410957
 31
0.0
  0
LINE
  5
    B4
  8
0
  6
CONTINUOUS
 62
     7
 10
-151.601110682511
 20
65.4426830410957
 30
0.0
 11
-152.122055112462
 21
62.4882597638888
 31
0.0
  0
ENDBLK
  5
    B5
  8
0
  6
CONTINUOUS
 62
     7
  0
BLOCK
  5
    B6
  8
0
  6
CONTINUOUS
 62
     7
  2
*UDIM1644
 70
    65
 10
0.0
 20
0.0
 30
0.0
  3
*UDIM1644
  0
TEXT
  5
    B7
  8
0
  6
CONTINUOUS
 62
     7
 10
-215.985526305797
 20
-47.0915698188832
 30
0.0
 40
2.99999994039535
  1
247
 50
359.999999948034
 41
0.933333333333333
 72
     1
 11
-212.08552638193
 21
-45.5915698522031
 31
0.0
 73
     2
  0
LINE
  5
    B8
  8
0
  6
CONTINUOUS
 62
     7
 10
-174.760524749756
 20
14.4926810562611
 30
0.0
 11
-174.760524749756
 21
-50.0915698224007
 31
0.0
  0
LINE
  5
    B9
  8
0
  6
CONTINUOUS
 62
     7
 10
-248.860527694225
 20
8.56767402168378
 30
0.0
 11
-248.860527694225
 21
-50.0915698224007
 31
0.0
  0
LINE
  5
    BA
  8
0
  6
CONTINUOUS
 62
     7
 10
-174.760524749756
 20
-48.0915698224007
 30
0.0
 11
-248.860527694225
 21
-48.0915698224007
 31
0.0
  0
LINE
  5
    BB
  8
0
  6
CONTINUOUS
 62
     7
 10
-177.714948026963
 20
-48.6125142523524
 30
0.0
 11
-174.760524749756
 21
-48.0915698224007
 31
0.0
  0
LINE
  5
    BC
  8
0
  6
CONTINUOUS
 62
     7
 10
-174.760524749756
 20
-48.0915698224007
 30
0.0
 11
-177.714948026963
 21
-47.5706253924491
 31
0.0
  0
LINE
  5
    BD
  8
0
  6
CONTINUOUS
 62
     7
 10
-245.906104417018
 20
-47.5706253924491
 30
0.0
 11
-248.860527694225
 21
-48.0915698224007
 31
0.0
  0
LINE
  5
    BE
  8
0
  6
CONTINUOUS
 62
     7
 10
-248.860527694225
 20
-48.0915698224007
 30
0.0
 11
-245.906104417018
 21
-48.6125142523524
 31
0.0
  0
ENDBLK
  5
    BF
  8
0
  6
CONTINUOUS
 62
     7
  0
BLOCK
  5
    C0
  8
0
  6
CONTINUOUS
 62
     7
  2
*UDIM1645
 70
    65
 10
0.0
 20
0.0
 30
0.0
  3
*UDIM1645
  0
TEXT
  5
    C1
  8
0
  6
CONTINUOUS
 62
     7
 10
-217.960527862471
 20
-38.9297256199649
 30
0.0
 40
2.99999994039535
  1
241,5
 50
359.999999948034
 41
0.933333333333333
 72
     1
 11
-211.260527994235
 21
-37.4297256558102
 31
0.0
 73
     2
  0
LINE
  5
    C2
  8
0
  6
CONTINUOUS
 62
     7
 10
-174.760524749756
 20
14.4926810562611
 30
0.0
 11
-174.760524749756
 21
-41.9297256260079
 31
0.0
  0
LINE
  5
    C3
  8
0
  6
CONTINUOUS
 62
     7
 10
-247.210528773069
 20
-6.49309225400619
 30
0.0
 11
-247.210528773069
 21
-41.9297256260079
 31
0.0
  0
LINE
  5
    C4
  8
0
  6
CONTINUOUS
 62
     7
 10
-174.760524749756
 20
-39.9297256260079
 30
0.0
 11
-247.210528773069
 21
-39.9297256260079
 31
0.0
  0
LINE
  5
    C5
  8
0
  6
CONTINUOUS
 62
     7
 10
-177.714948026963
 20
-40.4506700559596
 30
0.0
 11
-174.760524749756
 21
-39.9297256260079
 31
0.0
  0
LINE
  5
    C6
  8
0
  6
CONTINUOUS
 62
     7
 10
-174.760524749756
 20
-39.9297256260079
 30
0.0
 11
-177.714948026963
 21
-39.4087811960562
 31
0.0
  0
LINE
  5
    C7
  8
0
  6
CONTINUOUS
 62
     7
 10
-244.256105495863
 20
-39.4087811960562
 30
0.0
 11
-247.210528773069
 21
-39.9297256260079
 31
0.0
  0
LINE
  5
    C8
  8
0
  6
CONTINUOUS
 62
     7
 10
-247.210528773069
 20
-39.9297256260079
 30
0.0
 11
-244.256105495863
 21
-40.4506700559596
 31
0.0
  0
ENDBLK
  5
    C9
  8
0
  6
CONTINUOUS
 62
     7
  0
BLOCK
  5
    CA
  8
0
  6
CONTINUOUS
 62
     7
  2
*UDIM1646
 70
    65
 10
0.0
 20
0.0
 30
0.0
  3
*UDIM1646
  0
TEXT
  5
    CB
  8
0
  6
CONTINUOUS
 62
     7
 10
-253.560524955751
 20
-38.9297256250158
 30
0.0
 40
2.99999994039535
  1
2
 50
359.999999948034
 41
0.933333333333333
 72
     1
 11
-252.460524976253
 21
-37.4297256558102
 31
0.0
 73
     2
  0
LINE
  5
    CC
  8
0
  6
CONTINUOUS
 62
     7
 10
-247.810528796911
 20
-6.61806499615864
 30
0.0
 11
-247.810528796911
 21
-41.9297256260079
 31
0.0
  0
LINE
  5
    CD
  8
0
  6
CONTINUOUS
 62
     7
 10
-247.210528773069
 20
-39.9297256260079
 30
0.0
 11
-253.560524954398
 21
-39.9297256260079
 31
0.0
  0
LINE
  5
    CE
  8
0
  6
CONTINUOUS
 62
     7
 10
-244.256105495863
 20
-39.4087811960562
 30
0.0
 11
-247.210528773069
 21
-39.9297256260079
 31
0.0
  0
LINE
  5
    CF
  8
0
  6
CONTINUOUS
 62
     7
 10
-247.210528773069
 20
-39.9297256260079
 30
0.0
 11
-244.256105495863
 21
-40.4506700559596
 31
0.0
  0
LINE
  5
    D0
  8
0
  6
CONTINUOUS
 62
     7
 10
-250.764952074118
 20
-40.4506700559596
 30
0.0
 11
-247.810528796911
 21
-39.9297256260079
 31
0.0
  0
LINE
  5
    D1
  8
0
  6
CONTINUOUS
 62
     7
 10
-247.810528796911
 20
-39.9297256260079
 30
0.0
 11
-250.764952074118
 21
-39.4087811960562
 31
0.0
  0
ENDBLK
  5
    D2
  8
0
  6
CONTINUOUS
 62
     7
  0
BLOCK
  5
    D3
  8
0
  6
CONTINUOUS
 62
     7
  2
*UDIM1647
 70
    65
 10
0.0
 20
0.0
 30
0.0
  3
*UDIM1647
  0
TEXT
  5
    D4
  8
0
  6
CONTINUOUS
 62
     7
 10
-214.510527720147
 20
-31.2888531239611
 30
0.0
 40
2.99999994039535
  1
218,5
 50
359.999999948034
 41
0.933333333333333
 72
     1
 11
-207.810527851911
 21
-29.7888531598064
 31
0.0
 73
     2
  0
LINE
  5
    D5
  8
0
  6
CONTINUOUS
 62
     7
 10
-174.760524749756
 20
14.4926810562611
 30
0.0
 11
-174.760524749756
 21
-34.2888531300041
 31
0.0
  0
LINE
  5
    D6
  8
0
  6
CONTINUOUS
 62
     7
 10
-240.310529811643
 20
37.1426717375382
 30
0.0
 11
-240.310529811643
 21
-34.2888531300041
 31
0.0
  0
LINE
  5
    D7
  8
0
  6
CONTINUOUS
 62
     7
 10
-174.760524749756
 20
-32.2888531300041
 30
0.0
 11
-240.310529811643
 21
-32.2888531300041
 31
0.0
  0
LINE
  5
    D8
  8
0
  6
CONTINUOUS
 62
     7
 10
-177.714948026963
 20
-32.8097975599558
 30
0.0
 11
-174.760524749756
 21
-32.2888531300041
 31
0.0
  0
LINE
  5
    D9
  8
0
  6
CONTINUOUS
 62
     7
 10
-174.760524749756
 20
-32.2888531300041
 30
0.0
 11
-177.714948026963
 21
-31.7679087000524
 31
0.0
  0
LINE
  5
    DA
  8
0
  6
CONTINUOUS
 62
     7
 10
-237.356106534436
 20
-31.7679087000524
 30
0.0
 11
-240.310529811643
 21
-32.2888531300041
 31
0.0
  0
LINE
  5
    DB
  8
0
  6
CONTINUOUS
 62
     7
 10
-240.310529811643
 20
-32.2888531300041
 30
0.0
 11
-237.356106534436
 21
-32.8097975599558
 31
0.0
  0
ENDBLK
  5
    DC
  8
0
  6
CONTINUOUS
 62
     7
  0
BLOCK
  5
    DD
  8
0
  6
CONTINUOUS
 62
     7
  2
*UDIM1648
 70
    65
 10
0.0
 20
0.0
 30
0.0
  3
*UDIM1648
  0
TEXT
  5
    DE
  8
0
  6
CONTINUOUS
 62
     7
 10
-269.261266995332
 20
24.8926749773504
 30
0.0
 40
2.99999994039535
  1
8,25
 50
89.9999999480344
 41
0.933333333333333
 72
     1
 11
-270.76126696073
 21
30.1926748734074
 31
0.0
 73
     2
  0
LINE
  5
    DF
  8
0
  6
CONTINUOUS
 62
     7
 10
-264.212397926939
 20
38.9676751899348
 30
0.0
 11
-270.261266990532
 21
38.9676751899348
 31
0.0
  0
LINE
  5
    E0
  8
0
  6
CONTINUOUS
 62
     7
 10
-244.61052884907
 20
41.4426707749651
 30
0.0
 11
-270.261266990532
 21
41.4426707749651
 31
0.0
  0
LINE
  5
    E1
  8
0
  6
CONTINUOUS
 62
     7
 10
-268.261266990532
 20
24.892674978709
 30
0.0
 11
-268.261266990532
 21
41.4426707749651
 31
0.0
  0
LINE
  5
    E2
  8
0
  6
CONTINUOUS
 62
     7
 10
-267.74032256058
 20
36.0132519127278
 30
0.0
 11
-268.261266990532
 21
38.9676751899348
 31
0.0
  0
LINE
  5
    E3
  8
0
  6
CONTINUOUS
 62
     7
 10
-268.261266990532
 20
38.9676751899348
 30
0.0
 11
-268.782211420484
 21
36.0132519127278
 31
0.0
  0
LINE
  5
    E4
  8
0
  6
CONTINUOUS
 62
     7
 10
-268.782211420484
 20
44.3970940521721
 30
0.0
 11
-268.261266990532
 21
41.4426707749651
 31
0.0
  0
LINE
  5
    E5
  8
0
  6
CONTINUOUS
 62
     7
 10
-268.261266990532
 20
41.4426707749651
 30
0.0
 11
-267.74032256058
 21
44.3970940521721
 31
0.0
  0
ENDBLK
  5
    E6
  8
0
  6
CONTINUOUS
 62
     7
  0
BLOCK
  5
    E7
  8
0
  6
CONTINUOUS
 62
     7
  2
*UDIM1649
 70
    65
 10
0.0
 20
0.0
 30
0.0
  3
*UDIM1649
  0
TEXT
  5
    E8
  8
0
  6
CONTINUOUS
 62
     7
 10
-279.506979681466
 20
34.7926761747993
 30
0.0
 40
2.99999994039535
  1
140
 50
89.9999999480344
 41
0.933333333333333
 72
     1
 11
-281.006979648131
 21
38.6926760986718
 31
0.0
 73
     2
  0
LINE
  5
    E9
  8
0
  6
CONTINUOUS
 62
     7
 10
-246.860527575016
 20
17.9676745616335
 30
0.0
 11
-280.506979677934
 21
17.9676745616335
 31
0.0
  0
LINE
  5
    EA
  8
0
  6
CONTINUOUS
 62
     7
 10
-248.21052762866
 20
59.9676774580842
 30
0.0
 11
-280.506979677934
 21
59.9676759297539
 31
0.0
  0
LINE
  5
    EB
  8
0
  6
CONTINUOUS
 62
     7
 10
-278.506979677934
 20
17.9676745616335
 30
0.0
 11
-278.506979677934
 21
59.9676760243977
 31
0.0
  0
LINE
  5
    EC
  8
0
  6
CONTINUOUS
 62
     7
 10
-279.027924107885
 20
20.9220978388405
 30
0.0
 11
-278.506979677934
 21
17.9676745616335
 31
0.0
  0
LINE
  5
    ED
  8
0
  6
CONTINUOUS
 62
     7
 10
-278.506979677934
 20
17.9676745616335
 30
0.0
 11
-277.986035247982
 21
20.9220978388405
 31
0.0
  0
LINE
  5
    EE
  8
0
  6
CONTINUOUS
 62
     7
 10
-277.986035247982
 20
57.0132527471908
 30
0.0
 11
-278.506979677934
 21
59.9676760243977
 31
0.0
  0
LINE
  5
    EF
  8
0
  6
CONTINUOUS
 62
     7
 10
-278.506979677934
 20
59.9676760243977
 30
0.0
 11
-279.027924107885
 21
57.0132527471908
 31
0.0
  0
ENDBLK
  5
    F0
  8
0
  6
CONTINUOUS
 62
     7
  0
BLOCK
  5
    F1
  8
0
  6
CONTINUOUS
 62
     7
  2
*UDIM1650
 70
    65
 10
0.0
 20
0.0
 30
0.0
  3
*UDIM1650
  0
TEXT
  5
    F2
  8
0
  6
CONTINUOUS
 62
     7
 10
-44.7891086933326
 20
-104.721228372109
 30
0.0
 40
2.99999994039535
  1
70
 50
359.999999896069
 41
0.933333333333333
 72
     1
 11
-42.2891087402898
 21
-103.221228406434
 31
0.0
 73
     2
  0
LINE
  5
    F3
  8
0
  6
CONTINUOUS
 62
     7
 10
-31.5141089677809
 20
-101.325887434361
 30
0.0
 11
-31.5141089677809
 21
-107.721228376632
 31
0.0
  0
LINE
  5
    F4
  8
0
  6
CONTINUOUS
 62
     7
 10
-52.5141098022459
 20
-101.325887434361
 30
0.0
 11
-52.5141098022459
 21
-107.721228376632
 31
0.0
  0
LINE
  5
    F5
  8
0
  6
CONTINUOUS
 62
     7
 10
-31.5141089677809
 20
-105.721228376632
 30
0.0
 11
-52.5141098022459
 21
-105.721228376632
 31
0.0
  0
LINE
  5
    F6
  8
0
  6
CONTINUOUS
 62
     7
 10
-34.4685322449878
 20
-106.242172806583
 30
0.0
 11
-31.5141089677809
 21
-105.721228376632
 31
0.0
  0
LINE
  5
    F7
  8
0
  6
CONTINUOUS
 62
     7
 10
-31.5141089677809
 20
-105.721228376632
 30
0.0
 11
-34.4685322449878
 21
-105.20028394668
 31
0.0
  0
LINE
  5
    F8
  8
0
  6
CONTINUOUS
 62
     7
 10
-49.5596865250389
 20
-105.20028394668
 30
0.0
 11
-52.5141098022459
 21
-105.721228376632
 31
0.0
  0
LINE
  5
    F9
  8
0
  6
CONTINUOUS
 62
     7
 10
-52.5141098022459
 20
-105.721228376632
 30
0.0
 11
-49.5596865250389
 21
-106.242172806583
 31
0.0
  0
ENDBLK
  5
    FA
  8
0
  6
CONTINUOUS
 62
     7
  0
BLOCK
  5
    FB
  8
0
  6
CONTINUOUS
 62
     7
  2
*UDIM1651
 70
    65
 10
0.0
 20
0.0
 30
0.0
  3
*UDIM1651
  0
TEXT
  5
    FC
  8
0
  6
CONTINUOUS
 62
     7
 10
-65.7891118166161
 20
-104.721228372109
 30
0.0
 40
2.99999994039535
  1
70
 50
359.999999896069
 41
0.933333333333333
 72
     1
 11
-63.2891118635733
 21
-103.221228406434
 31
0.0
 73
     2
  0
LINE
  5
    FD
  8
0
  6
CONTINUOUS
 62
     7
 10
-73.5141106367109
 20
-101.325887434361
 30
0.0
 11
-73.5141106367109
 21
-107.721228376632
 31
0.0
  0
LINE
  5
    FE
  8
0
  6
CONTINUOUS
 62
     7
 10
-52.5141098022459
 20
-105.721228376632
 30
0.0
 11
-73.5141106367109
 21
-105.721228376632
 31
0.0
  0
LINE
  5
    FF
  8
0
  6
CONTINUOUS
 62
     7
 10
-55.4685330794529
 20
-106.242172806583
 30
0.0
 11
-52.5141098022459
 21
-105.721228376632
 31
0.0
  0
LINE
  5
   100
  8
0
  6
CONTINUOUS
 62
     7
 10
-52.5141098022459
 20
-105.721228376632
 30
0.0
 11
-55.4685330794529
 21
-105.20028394668
 31
0.0
  0
LINE
  5
   101
  8
0
  6
CONTINUOUS
 62
     7
 10
-70.559687359504
 20
-105.20028394668
 30
0.0
 11
-73.5141106367109
 21
-105.721228376632
 31
0.0
  0
LINE
  5
   102
  8
0
  6
CONTINUOUS
 62
     7
 10
-73.5141106367109
 20
-105.721228376632
 30
0.0
 11
-70.559687359504
 21
-106.242172806583
 31
0.0
  0
ENDBLK
  5
   103
  8
0
  6
CONTINUOUS
 62
     7
  0
BLOCK
  5
   104
  8
0
  6
CONTINUOUS
 62
     7
  2
*UDIM1652
 70
    65
 10
0.0
 20
0.0
 30
0.0
  3
*UDIM1652
  0
TEXT
  5
   105
  8
0
  6
CONTINUOUS
 62
     7
 10
-26.1391086078993
 20
-48.9953512569443
 30
0.0
 40
2.99999994039535
  1
16
 50
359.999999896069
 41
0.933333333333333
 72
     1
 11
-23.6391086548565
 21
-47.4953512912689
 31
0.0
 73
     2
  0
LINE
  5
   106
  8
0
  6
CONTINUOUS
 62
     7
 10
-29.1141088724135
 20
-58.7311060428619
 30
0.0
 11
-29.1141088724135
 21
-47.9953512614666
 31
0.0
  0
LINE
  5
   107
  8
0
  6
CONTINUOUS
 62
     7
 10
-33.9141090631483
 20
-58.7311060428619
 30
0.0
 11
-33.9141090631483
 21
-47.9953512614666
 31
0.0
  0
LINE
  5
   108
  8
0
  6
CONTINUOUS
 62
     7
 10
-21.139108704527
 20
-49.9953512614666
 30
0.0
 11
-33.9141090631483
 21
-49.9953512614666
 31
0.0
  0
LINE
  5
   109
  8
0
  6
CONTINUOUS
 62
     7
 10
-26.1596855952065
 20
-49.4744068315149
 30
0.0
 11
-29.1141088724135
 21
-49.9953512614666
 31
0.0
  0
LINE
  5
   10A
  8
0
  6
CONTINUOUS
 62
     7
 10
-29.1141088724135
 20
-49.9953512614666
 30
0.0
 11
-26.1596855952065
 21
-50.5162956914182
 31
0.0
  0
LINE
  5
   10B
  8
0
  6
CONTINUOUS
 62
     7
 10
-36.8685323403553
 20
-50.5162956914182
 30
0.0
 11
-33.9141090631483
 21
-49.9953512614666
 31
0.0
  0
LINE
  5
   10C
  8
0
  6
CONTINUOUS
 62
     7
 10
-33.9141090631483
 20
-49.9953512614666
 30
0.0
 11
-36.8685323403553
 21
-49.4744068315149
 31
0.0
  0
ENDBLK
  5
   10D
  8
0
  6
CONTINUOUS
 62
     7
  0
BLOCK
  5
   10E
  8
0
  6
CONTINUOUS
 62
     0
  2
$2FIANCATA
 70
    64
 10
0.0
 20
0.0
 30
0.0
  3
$2FIANCATA
  0
LINE
  5
   10F
  8
0
  6
CONTINUOUS
 62
     0
 10
-16.4999618530273
 20
0.0
 30
0.0
 11
7.62939453125E-6
 21
0.0
 31
0.0
  0
LINE
  5
   110
  8
0
  6
CONTINUOUS
 62
     0
 10
-17.2070610469019
 20
-0.292902217944532
 30
0.0
 11
-16.8826439390779
 21
-7.61358696114147E-2
 31
0.0
  0
LINE
  5
   111
  8
0
  6
CONTINUOUS
 62
     0
 10
-17.4238394855521
 20
-0.617305997289576
 30
0.0
 11
-17.2070693104552
 21
-0.292888874313344
 31
0.0
  0
LINE
  5
   112
  8
0
  6
CONTINUOUS
 62
     0
 10
-16.8826439375328
 20
-7.61276888051592E-2
 30
0.0
 11
-16.4999611388804
 21
-1.59191401971626E-6
 31
0.0
  0
LINE
  5
   113
  8
0
  6
CONTINUOUS
 62
     0
 10
-17.4999809265137
 20
-1.0
 30
0.0
 11
-1.0
 21
-1.0
 31
0.0
  0
LINE
  5
   114
  8
0
  6
CONTINUOUS
 62
     0
 10
-17.4999808470354
 20
-1.00000102283533
 30
0.0
 11
-17.4238394874954
 21
-0.61731059266227
 31
0.0
  0
LINE
  5
   115
  8
0
  6
CONTINUOUS
 62
     0
 10
-1.0
 20
-13.2497711181641
 30
0.0
 11
-1.0
 21
0.0
 31
0.0
  0
LINE
  5
   116
  8
0
  6
CONTINUOUS
 62
     0
 10
-17.5000063905665
 20
-139.000133514403
 30
0.0
 11
-17.5000063905665
 21
-0.999996185301853
 31
0.0
  0
LINE
  5
   117
  8
0
  6
CONTINUOUS
 62
     0
 10
-1.00000000993256
 20
-4.00001523769052
 30
0.0
 11
3.80476470240865E-6
 21
-3.99999997890146
 31
0.0
  0
LINE
  5
   118
  8
0
  6
CONTINUOUS
 62
     0
 10
-8.26048155815329E-5
 20
-12.0001983642166
 30
0.0
 11
-8.26048155815329E-5
 21
-4.00010681148223
 31
0.0
  0
LINE
  5
   119
  8
0
  6
CONTINUOUS
 62
     0
 10
7.62939453125E-6
 20
-4.00010681152344
 30
0.0
 11
7.62939453125E-6
 21
0.0
 31
0.0
  0
LINE
  5
   11A
  8
0
  6
CONTINUOUS
 62
     0
 10
-12.7500076293945
 20
-10.249755859375
 30
0.0
 11
-1.0
 21
-10.249755859375
 31
0.0
  0
LINE
  5
   11B
  8
0
  6
CONTINUOUS
 62
     0
 10
-15.75
 20
-10.249755859375
 30
0.0
 11
-12.7500076293945
 21
-10.249755859375
 31
0.0
  0
LINE
  5
   11C
  8
0
  6
CONTINUOUS
 62
     0
 10
-0.999996185302734
 20
-12.0001983642578
 30
0.0
 11
0.0
 21
-12.0001983642578
 31
0.0
  0
LINE
  5
   11D
  8
0
  6
CONTINUOUS
 62
     0
 10
0.0
 20
-19.5001983642578
 30
0.0
 11
0.0
 21
-12.0001983642578
 31
0.0
  0
LINE
  5
   11E
  8
0
  6
CONTINUOUS
 62
     0
 10
0.0
 20
-28.0001983642578
 30
0.0
 11
0.0
 21
-26.5001983642578
 31
0.0
  0
LINE
  5
   11F
  8
0
  6
CONTINUOUS
 62
     0
 10
0.0
 20
-26.0001831054688
 30
0.0
 11
0.0
 21
-20.0001831054688
 31
0.0
  0
LINE
  5
   120
  8
0
  6
CONTINUOUS
 62
     0
 10
0.0
 20
-26.5001983642578
 30
0.0
 11
0.0
 21
-26.0001831054688
 31
0.0
  0
LINE
  5
   121
  8
0
  6
CONTINUOUS
 62
     0
 10
0.0
 20
-20.0001831054688
 30
0.0
 11
0.0
 21
-19.5001983642578
 31
0.0
  0
LINE
  5
   122
  8
0
  6
CONTINUOUS
 62
     0
 10
0.0
 20
-118.000198364258
 30
0.0
 11
0.0
 21
-28.0001983642578
 31
0.0
  0
LINE
  5
   123
  8
0
  6
CONTINUOUS
 62
     0
 10
-18.5
 20
-67.0002059936524
 30
0.0
 11
-17.5
 21
-67.0002059936524
 31
0.0
  0
LINE
  5
   124
  8
0
  6
CONTINUOUS
 62
     0
 10
-16.4999618543408
 20
-139.999942778846
 30
0.0
 11
7.62808107168667E-6
 21
-140.000034331579
 31
0.0
  0
LINE
  5
   125
  8
0
  6
CONTINUOUS
 62
     0
 10
-18.5
 20
-87.0002059936524
 30
0.0
 11
-17.5
 21
-87.0002059936524
 31
0.0
  0
LINE
  5
   126
  8
0
  6
CONTINUOUS
 62
     0
 10
-16.8826434644807
 20
-139.923760014085
 30
0.0
 11
-16.4999606589061
 21
-139.999943335591
 31
0.0
  0
LINE
  5
   127
  8
0
  6
CONTINUOUS
 62
     0
 10
-17.207067522486
 20
-139.70699062553
 30
0.0
 11
-16.8826427725272
 21
-139.923760792348
 31
0.0
  0
LINE
  5
   128
  8
0
  6
CONTINUOUS
 62
     0
 10
-17.4238389066516
 20
-139.382565244232
 30
0.0
 11
-17.2071030722885
 21
-139.707241750507
 31
0.0
  0
LINE
  5
   129
  8
0
  6
CONTINUOUS
 62
     0
 10
-17.4999809548187
 20
-138.999881732886
 30
0.0
 11
-14.250000028305
 21
-138.999809253639
 31
0.0
  0
LINE
  5
   12A
  8
0
  6
CONTINUOUS
 62
     0
 10
-17.4999814369327
 20
-138.999881016927
 30
0.0
 11
-17.4238782240544
 21
-139.382815590198
 31
0.0
  0
LINE
  5
   12B
  8
0
  6
CONTINUOUS
 62
     0
 10
-3.75000000120068
 20
-125.000259398635
 30
0.0
 11
-1.20067511488742E-9
 21
-125.000278472122
 31
0.0
  0
LINE
  5
   12C
  8
0
  6
CONTINUOUS
 62
     0
 10
-3.75
 20
-129.0002784729
 30
0.0
 11
0.0
 21
-129.0002784729
 31
0.0
  0
LINE
  5
   12D
  8
0
  6
CONTINUOUS
 62
     0
 10
-8.5
 20
-125.000232696533
 30
0.0
 11
-8.5
 21
-123.999771118164
 31
0.0
  0
LINE
  5
   12E
  8
0
  6
CONTINUOUS
 62
     0
 10
-3.75
 20
-134.000186920166
 30
0.0
 11
0.0
 21
-134.000186920166
 31
0.0
  0
LINE
  5
   12F
  8
0
  6
CONTINUOUS
 62
     0
 10
-5.0
 20
-118.000183105469
 30
0.0
 11
0.0
 21
-118.000183105469
 31
0.0
  0
LINE
  5
   130
  8
0
  6
CONTINUOUS
 62
     0
 10
-7.7500000001834
 20
-131.500053405664
 30
0.0
 11
-3.7500000001834
 21
-131.500061035059
 31
0.0
  0
LINE
  5
   131
  8
0
  6
CONTINUOUS
 62
     0
 10
-3.75
 20
-135.999771118164
 30
0.0
 11
-3.75
 21
-131.500061035156
 31
0.0
  0
LINE
  5
   132
  8
0
  6
CONTINUOUS
 62
     0
 10
-7.75
 20
-135.999771118164
 30
0.0
 11
-7.75
 21
-131.500053405762
 31
0.0
  0
LINE
  5
   133
  8
0
  6
CONTINUOUS
 62
     0
 10
-11.2500114444405
 20
-125.000148772999
 30
0.0
 11
-3.75000000034867
 21
-125.000129699512
 31
0.0
  0
LINE
  5
   134
  8
0
  6
CONTINUOUS
 62
     0
 10
-3.75
 20
-131.500129699707
 30
0.0
 11
-3.75
 21
-125.000129699707
 31
0.0
  0
LINE
  5
   135
  8
0
  6
CONTINUOUS
 62
     0
 10
-11.2500105770662
 20
-125.000149859739
 30
0.0
 11
-11.1736632270959
 21
-124.923802509768
 31
0.0
  0
LINE
  5
   136
  8
0
  6
CONTINUOUS
 62
     0
 10
-11.2500085637054
 20
-125.000011478497
 30
0.0
 11
-10.249745345394
 21
-123.999774987966
 31
0.0
  0
LINE
  5
   137
  8
0
  6
CONTINUOUS
 62
     0
 10
-4.99999185108586
 20
-123.999771118161
 30
0.0
 11
-4.99999185108586
 21
-37.9999694824193
 31
0.0
  0
LINE
  5
   138
  8
0
  6
CONTINUOUS
 62
     0
 10
-11.25
 20
-123.999771118164
 30
0.0
 11
-5.0
 21
-123.999771118164
 31
0.0
  0
LINE
  5
   139
  8
0
  6
CONTINUOUS
 62
     0
 10
-11.25
 20
-135.999771118164
 30
0.0
 11
-1.0
 21
-135.999771118164
 31
0.0
  0
LINE
  5
   13A
  8
0
  6
CONTINUOUS
 62
     0
 10
-11.25
 20
-135.999771118164
 30
0.0
 11
-11.25
 21
-123.999771118164
 31
0.0
  0
LINE
  5
   13B
  8
0
  6
CONTINUOUS
 62
     0
 10
-8.5
 20
-124.000225067139
 30
0.0
 11
0.0
 21
-124.000225067139
 31
0.0
  0
LINE
  5
   13C
  8
0
  6
CONTINUOUS
 62
     0
 10
-3.75
 20
-130.000225067139
 30
0.0
 11
0.0
 21
-130.000225067139
 31
0.0
  0
LINE
  5
   13D
  8
0
  6
CONTINUOUS
 62
     0
 10
-14.25
 20
-138.999809265137
 30
0.0
 11
-14.25
 21
-120.99976348877
 31
0.0
  0
LINE
  5
   13E
  8
0
  6
CONTINUOUS
 62
     0
 10
-14.25
 20
-120.99976348877
 30
0.0
 11
-11.25
 21
-120.99976348877
 31
0.0
  0
LINE
  5
   13F
  8
0
  6
CONTINUOUS
 62
     0
 10
-14.2499979894038
 20
-120.999765624734
 30
0.0
 11
-11.2499979235071
 21
-123.999773277073
 31
0.0
  0
LINE
  5
   140
  8
0
  6
CONTINUOUS
 62
     0
 10
-14.2500000007845
 20
-138.9998092648
 30
0.0
 11
-11.2500000007845
 21
-138.999797820709
 31
0.0
  0
LINE
  5
   141
  8
0
  6
CONTINUOUS
 62
     0
 10
-14.250001559504
 20
-138.999808240469
 30
0.0
 11
-11.2500014937232
 21
-135.9997699894
 31
0.0
  0
LINE
  5
   142
  8
0
  6
CONTINUOUS
 62
     0
 10
-4.75
 20
-135.999794006348
 30
0.0
 11
-4.75
 21
-131.500061035156
 31
0.0
  0
LINE
  5
   143
  8
0
  6
CONTINUOUS
 62
     0
 10
-11.25
 20
-120.99976348877
 30
0.0
 11
-5.0
 21
-120.99976348877
 31
0.0
  0
LINE
  5
   144
  8
0
  6
CONTINUOUS
 62
     0
 10
-11.2500000004898
 20
-138.999797820785
 30
0.0
 11
-1.00000000048984
 21
-138.99976348851
 31
0.0
  0
LINE
  5
   145
  8
0
  6
CONTINUOUS
 62
     0
 10
-1.0
 20
-139.999881744385
 30
0.0
 11
-1.0
 21
-136.000141143799
 31
0.0
  0
LINE
  5
   146
  8
0
  6
CONTINUOUS
 62
     0
 10
-1.00000000571825
 20
-136.000129696483
 30
0.0
 11
3.80897901663957E-6
 21
-136.000141140575
 31
0.0
  0
LINE
  5
   147
  8
0
  6
CONTINUOUS
 62
     0
 10
0.0
 20
-134.000186920166
 30
0.0
 11
0.0
 21
-130.500225067139
 31
0.0
  0
LINE
  5
   148
  8
0
  6
CONTINUOUS
 62
     0
 10
0.0
 20
-130.500225067139
 30
0.0
 11
0.0
 21
-130.000225067139
 31
0.0
  0
LINE
  5
   149
  8
0
  6
CONTINUOUS
 62
     0
 10
0.0
 20
-129.999378204346
 30
0.0
 11
0.0
 21
-124.001041412354
 31
0.0
  0
LINE
  5
   14A
  8
0
  6
CONTINUOUS
 62
     0
 10
-7.76125830270757E-11
 20
-134.000198370265
 30
0.0
 11
3.81461965304197E-6
 21
-136.000141151443
 31
0.0
  0
LINE
  5
   14B
  8
0
  6
CONTINUOUS
 62
     0
 10
0.0
 20
-123.500225067139
 30
0.0
 11
0.0
 21
-118.000183105469
 31
0.0
  0
LINE
  5
   14C
  8
0
  6
CONTINUOUS
 62
     0
 10
7.62939453125E-6
 20
-140.000034332275
 30
0.0
 11
7.62939453125E-6
 21
-136.000160217285
 31
0.0
  0
LINE
  5
   14D
  8
0
  6
CONTINUOUS
 62
     0
 10
0.0
 20
-124.000225067139
 30
0.0
 11
0.0
 21
-123.500225067139
 31
0.0
  0
LINE
  5
   14E
  8
0
  6
CONTINUOUS
 62
     0
 10
-1.0
 20
-21.0001373291016
 30
0.0
 11
0.0
 21
-21.0001373291016
 31
0.0
  0
LINE
  5
   14F
  8
0
  6
CONTINUOUS
 62
     0
 10
-1.0
 20
-25.0001373291016
 30
0.0
 11
0.0
 21
-25.0001373291016
 31
0.0
  0
LINE
  5
   150
  8
0
  6
CONTINUOUS
 62
     0
 10
-5.0
 20
-28.0001983642578
 30
0.0
 11
0.0
 21
-28.0001983642578
 31
0.0
  0
LINE
  5
   151
  8
0
  6
CONTINUOUS
 62
     0
 10
-12.7500267028809
 20
-13.2502136230469
 30
0.0
 11
-9.25
 21
-13.2502136230469
 31
0.0
  0
LINE
  5
   152
  8
0
  6
CONTINUOUS
 62
     0
 10
-12.7500267028809
 20
-13.2502136230469
 30
0.0
 11
-9.25
 21
-13.2502136230469
 31
0.0
  0
LINE
  5
   153
  8
0
  6
CONTINUOUS
 62
     0
 10
-5.0
 20
-27.0001220703125
 30
0.0
 11
-1.0
 21
-27.0001220703125
 31
0.0
  0
LINE
  5
   154
  8
0
  6
CONTINUOUS
 62
     0
 10
-1.0
 20
-27.0001220703125
 30
0.0
 11
-1.0
 21
-13.2502136230469
 31
0.0
  0
LINE
  5
   155
  8
0
  6
CONTINUOUS
 62
     0
 10
-7.00000381747164
 20
-31.9998779252276
 30
0.0
 11
-5.00002670565524
 21
-31.9998931840167
 31
0.0
  0
LINE
  5
   156
  8
0
  6
CONTINUOUS
 62
     0
 10
-5.00002670307592
 20
-31.9998931857682
 30
0.0
 11
-5.00001525898414
 21
-27.9999999994064
 31
0.0
  0
LINE
  5
   157
  8
0
  6
CONTINUOUS
 62
     0
 10
-7.00000382626054
 20
-29.4998626527678
 30
0.0
 11
-5.00002289974687
 21
-29.499893170346
 31
0.0
  0
LINE
  5
   158
  8
0
  6
CONTINUOUS
 62
     0
 10
-9.25
 20
-19.0002136230469
 30
0.0
 11
-9.25
 21
-13.2502136230469
 31
0.0
  0
LINE
  5
   159
  8
0
  6
CONTINUOUS
 62
     0
 10
-9.25001064636107
 20
-19.0001952963912
 30
0.0
 11
-7.7500106134102
 21
-20.500195329342
 31
0.0
  0
LINE
  5
   15A
  8
0
  6
CONTINUOUS
 62
     0
 10
-7.75
 20
-20.5002136230469
 30
0.0
 11
-4.25
 21
-20.5002136230469
 31
0.0
  0
LINE
  5
   15B
  8
0
  6
CONTINUOUS
 62
     0
 10
-4.25
 20
-20.5002136230469
 30
0.0
 11
-4.25
 21
-13.2497711181641
 31
0.0
  0
LINE
  5
   15C
  8
0
  6
CONTINUOUS
 62
     0
 10
-9.25
 20
-13.2499847412109
 30
0.0
 11
-1.0
 21
-13.2499847412109
 31
0.0
  0
LINE
  5
   15D
  8
0
  6
CONTINUOUS
 62
     0
 10
-5.0
 20
-37.9999694824219
 30
0.0
 11
-5.0
 21
-31.9999389648438
 31
0.0
  0
LINE
  5
   15E
  8
0
  6
CONTINUOUS
 62
     0
 10
-5.0
 20
-28.0
 30
0.0
 11
-5.0
 21
-23.4997711181641
 31
0.0
  0
LINE
  5
   15F
  8
0
  6
CONTINUOUS
 62
     0
 10
-12.7500076293945
 20
-23.4997711181641
 30
0.0
 11
-5.0
 21
-23.4997711181641
 31
0.0
  0
LINE
  5
   160
  8
0
  6
CONTINUOUS
 62
     0
 10
-12.7500076293945
 20
-23.4997711181641
 30
0.0
 11
-12.7500076293945
 21
-13.2497711181641
 31
0.0
  0
LINE
  5
   161
  8
0
  6
CONTINUOUS
 62
     0
 10
-6.0
 20
-28.0
 30
0.0
 11
-5.0
 21
-28.0
 31
0.0
  0
LINE
  5
   162
  8
0
  6
CONTINUOUS
 62
     0
 10
-6.38268221855326
 20
-28.0761274508566
 30
0.0
 11
-5.99999941990089
 21
-28.0000013539655
 31
0.0
  0
LINE
  5
   163
  8
0
  6
CONTINUOUS
 62
     0
 10
-6.70710710140417
 20
-28.2928997997314
 30
0.0
 11
-6.38268236658192
 21
-28.0761334364442
 31
0.0
  0
LINE
  5
   164
  8
0
  6
CONTINUOUS
 62
     0
 10
-6.92387762239532
 20
-28.6173065311374
 30
0.0
 11
-6.70710744729848
 21
-28.2928894081612
 31
0.0
  0
LINE
  5
   165
  8
0
  6
CONTINUOUS
 62
     0
 10
-6.99999998430753
 20
-29.000000215221
 30
0.0
 11
-6.92387770149458
 21
-28.6173097873719
 31
0.0
  0
LINE
  5
   166
  8
0
  6
CONTINUOUS
 62
     0
 10
-7.0
 20
-36.9999694824219
 30
0.0
 11
-7.0
 21
-29.0
 31
0.0
  0
LINE
  5
   167
  8
0
  6
CONTINUOUS
 62
     0
 10
-6.99999994108155
 20
-36.9999697013245
 30
0.0
 11
-6.92387765826859
 21
-37.3826601291737
 31
0.0
  0
LINE
  5
   168
  8
0
  6
CONTINUOUS
 62
     0
 10
-6.92387938634333
 20
-37.3826564832097
 30
0.0
 11
-6.70710921124649
 21
-37.707073606186
 31
0.0
  0
LINE
  5
   169
  8
0
  6
CONTINUOUS
 62
     0
 10
-6.70710144431341
 20
-37.7070857090506
 30
0.0
 11
-6.38267670949118
 21
-37.9238520723378
 31
0.0
  0
LINE
  5
   16A
  8
0
  6
CONTINUOUS
 62
     0
 10
-6.38268170616414
 20
-37.9238448111811
 30
0.0
 11
-5.99999890751177
 21
-37.9999709080722
 31
0.0
  0
LINE
  5
   16B
  8
0
  6
CONTINUOUS
 62
     0
 10
-6.0
 20
-37.9999694824219
 30
0.0
 11
-5.0000114440918
 21
-37.9999694824219
 31
0.0
  0
LINE
  5
   16C
  8
0
  6
CONTINUOUS
 62
     0
 10
-1.0
 20
-20.0001831054688
 30
0.0
 11
0.0
 21
-20.0001831054688
 31
0.0
  0
LINE
  5
   16D
  8
0
  6
CONTINUOUS
 62
     0
 10
-1.0
 20
-26.0001831054688
 30
0.0
 11
0.0
 21
-26.0001831054688
 31
0.0
  0
LINE
  5
   16E
  8
0
  6
CONTINUOUS
 62
     0
 10
-8.50000010269963
 20
-19.7502174335287
 30
0.0
 11
-6.25000007434671
 21
-17.5002174051758
 31
0.0
  0
LINE
  5
   16F
  8
0
  6
CONTINUOUS
 62
     0
 10
-15.75
 20
-26.499755859375
 30
0.0
 11
-15.75
 21
-10.249755859375
 31
0.0
  0
LINE
  5
   170
  8
0
  6
CONTINUOUS
 62
     0
 10
-15.7499970043624
 20
-10.2497608492948
 30
0.0
 11
-12.7500045249082
 21
-13.2497760880768
 31
0.0
  0
LINE
  5
   171
  8
0
  6
CONTINUOUS
 62
     0
 10
-15.7500005541712
 20
-26.4997418254346
 30
0.0
 11
-12.7500081590114
 21
-23.4997570166781
 31
0.0
  0
LINE
  5
   172
  8
0
  6
CONTINUOUS
 62
     0
 10
-6.25
 20
-17.5002136230469
 30
0.0
 11
-4.25
 21
-17.5002136230469
 31
0.0
  0
LINE
  5
   173
  8
0
  6
CONTINUOUS
 62
     0
 10
-6.25
 20
-17.5002136230469
 30
0.0
 11
-6.25
 21
-13.2499847412109
 31
0.0
  0
LINE
  5
   174
  8
0
  6
CONTINUOUS
 62
     0
 10
-15.75
 20
-26.499755859375
 30
0.0
 11
-5.0
 21
-26.499755859375
 31
0.0
  0
ENDBLK
  5
   175
  8
0
  6
CONTINUOUS
 62
     0
  0
BLOCK
  5
   176
  8
0
  6
CONTINUOUS
 62
     7
  2
*UDIM1653
 70
    65
 10
0.0
 20
0.0
 30
0.0
  3
*UDIM1653
  0
TEXT
  5
   177
  8
0
  6
CONTINUOUS
 62
     7
 10
-96.8308878026672
 20
34.7926754241424
 30
0.0
 40
2.99999994039535
  1
196
 50
89.9999999480344
 41
0.933333333333333
 72
     1
 11
-98.3308877693326
 21
38.6926753480149
 31
0.0
 73
     2
  0
LINE
  5
   178
  8
0
  6
CONTINUOUS
 62
     7
 10
-81.9391136791856
 20
9.56767398207509
 30
0.0
 11
-97.8308877991349
 21
9.56767398207509
 31
0.0
  0
LINE
  5
   179
  8
0
  6
CONTINUOUS
 62
     7
 10
-79.6141128924
 20
68.367678035191
 30
0.0
 11
-97.8308877991349
 21
68.367678035191
 31
0.0
  0
LINE
  5
   17A
  8
0
  6
CONTINUOUS
 62
     7
 10
-95.8308877991349
 20
9.56767398207509
 30
0.0
 11
-95.8308877991349
 21
68.367678035191
 31
0.0
  0
LINE
  5
   17B
  8
0
  6
CONTINUOUS
 62
     7
 10
-96.3518322290865
 20
12.5220972592821
 30
0.0
 11
-95.8308877991349
 21
9.56767398207509
 31
0.0
  0
LINE
  5
   17C
  8
0
  6
CONTINUOUS
 62
     7
 10
-95.8308877991349
 20
9.56767398207509
 30
0.0
 11
-95.3099433691832
 21
12.5220972592821
 31
0.0
  0
LINE
  5
   17D
  8
0
  6
CONTINUOUS
 62
     7
 10
-95.3099433691832
 20
65.4132547579841
 30
0.0
 11
-95.8308877991349
 21
68.367678035191
 31
0.0
  0
LINE
  5
   17E
  8
0
  6
CONTINUOUS
 62
     7
 10
-95.8308877991349
 20
68.367678035191
 30
0.0
 11
-96.3518322290865
 21
65.4132547579841
 31
0.0
  0
ENDBLK
  5
   17F
  8
0
  6
CONTINUOUS
 62
     7
  0
BLOCK
  5
   180
  8
0
  6
CONTINUOUS
 62
     7
  2
*UDIM1654
 70
    65
 10
0.0
 20
0.0
 30
0.0
  3
*UDIM1654
  0
TEXT
  5
   181
  8
0
  6
CONTINUOUS
 62
     7
 10
-37.0391098694873
 20
-28.1454879045344
 30
0.0
 40
2.99999994039535
  1
131
 50
359.999999948034
 41
0.933333333333333
 72
     1
 11
-33.1391099456205
 21
-26.6454879378544
 31
0.0
 73
     2
  0
LINE
  5
   182
  8
0
  6
CONTINUOUS
 62
     7
 10
-13.2141102936374
 20
8.94267571359008
 30
0.0
 11
-13.2141102936374
 21
-31.145487908052
 31
0.0
  0
LINE
  5
   183
  8
0
  6
CONTINUOUS
 62
     7
 10
-52.5141105651856
 20
-21.0326889586126
 30
0.0
 11
-52.5141105651856
 21
-31.145487908052
 31
0.0
  0
LINE
  5
   184
  8
0
  6
CONTINUOUS
 62
     7
 10
-13.2141102936374
 20
-29.145487908052
 30
0.0
 11
-52.5141105651856
 21
-29.145487908052
 31
0.0
  0
LINE
  5
   185
  8
0
  6
CONTINUOUS
 62
     7
 10
-16.1685335708444
 20
-29.6664323380037
 30
0.0
 11
-13.2141102936374
 21
-29.145487908052
 31
0.0
  0
LINE
  5
   186
  8
0
  6
CONTINUOUS
 62
     7
 10
-13.2141102936374
 20
-29.145487908052
 30
0.0
 11
-16.1685335708444
 21
-28.6245434781004
 31
0.0
  0
LINE
  5
   187
  8
0
  6
CONTINUOUS
 62
     7
 10
-49.5596872879786
 20
-28.6245434781004
 30
0.0
 11
-52.5141105651856
 21
-29.145487908052
 31
0.0
  0
LINE
  5
   188
  8
0
  6
CONTINUOUS
 62
     7
 10
-52.5141105651856
 20
-29.145487908052
 30
0.0
 11
-49.5596872879786
 21
-29.6664323380037
 31
0.0
  0
ENDBLK
  5
   189
  8
0
  6
CONTINUOUS
 62
     7
  0
BLOCK
  5
   18A
  8
0
  6
CONTINUOUS
 62
     7
  2
*UDIM1655
 70
    65
 10
0.0
 20
0.0
 30
0.0
  3
*UDIM1655
  0
TEXT
  5
   18B
  8
0
  6
CONTINUOUS
 62
     7
 10
-69.6891127166026
 20
-28.1454879057972
 30
0.0
 40
2.99999994039535
  1
96
 50
359.999999948034
 41
0.933333333333333
 72
     1
 11
-67.1891127649202
 21
-26.6454879378544
 31
0.0
 73
     2
  0
LINE
  5
   18C
  8
0
  6
CONTINUOUS
 62
     7
 10
-81.3141129996884
 20
8.94267399697626
 30
0.0
 11
-81.3141129996883
 21
-31.145487908052
 31
0.0
  0
LINE
  5
   18D
  8
0
  6
CONTINUOUS
 62
     7
 10
-52.5141105651856
 20
-29.145487908052
 30
0.0
 11
-81.3141129996883
 21
-29.145487908052
 31
0.0
  0
LINE
  5
   18E
  8
0
  6
CONTINUOUS
 62
     7
 10
-55.4685338423925
 20
-29.6664323380037
 30
0.0
 11
-52.5141105651856
 21
-29.145487908052
 31
0.0
  0
LINE
  5
   18F
  8
0
  6
CONTINUOUS
 62
     7
 10
-52.5141105651856
 20
-29.145487908052
 30
0.0
 11
-55.4685338423925
 21
-28.6245434781004
 31
0.0
  0
LINE
  5
   190
  8
0
  6
CONTINUOUS
 62
     7
 10
-78.3596897224814
 20
-28.6245434781004
 30
0.0
 11
-81.3141129996883
 21
-29.145487908052
 31
0.0
  0
LINE
  5
   191
  8
0
  6
CONTINUOUS
 62
     7
 10
-81.3141129996883
 20
-29.145487908052
 30
0.0
 11
-78.3596897224814
 21
-29.6664323380037
 31
0.0
  0
ENDBLK
  5
   192
  8
0
  6
CONTINUOUS
 62
     7
  0
BLOCK
  5
   193
  8
0
  6
CONTINUOUS
 62
     7
  2
*UDIM1656
 70
    65
 10
0.0
 20
0.0
 30
0.0
  3
*UDIM1656
  0
TEXT
  5
   194
  8
0
  6
CONTINUOUS
 62
     7
 10
-39.0141114248454
 20
-37.0464419300175
 30
0.0
 40
2.99999994039535
  1
136,5
 50
359.999999948034
 41
0.933333333333333
 72
     1
 11
-32.3141115566095
 21
-35.5464419658629
 31
0.0
 73
     2
  0
LINE
  5
   195
  8
0
  6
CONTINUOUS
 62
     7
 10
-11.5641089379787
 20
37.4426686167712
 30
0.0
 11
-11.5641089379787
 21
-40.0464419360605
 31
0.0
  0
LINE
  5
   196
  8
0
  6
CONTINUOUS
 62
     7
 10
-52.5141105651856
 20
-21.0326889586126
 30
0.0
 11
-52.5141105651856
 21
-40.0464419360605
 31
0.0
  0
LINE
  5
   197
  8
0
  6
CONTINUOUS
 62
     7
 10
-11.5641089379787
 20
-38.0464419360605
 30
0.0
 11
-52.5141105651856
 21
-38.0464419360605
 31
0.0
  0
LINE
  5
   198
  8
0
  6
CONTINUOUS
 62
     7
 10
-14.5185322151857
 20
-38.5673863660122
 30
0.0
 11
-11.5641089379787
 21
-38.0464419360605
 31
0.0
  0
LINE
  5
   199
  8
0
  6
CONTINUOUS
 62
     7
 10
-11.5641089379787
 20
-38.0464419360605
 30
0.0
 11
-14.5185322151857
 21
-37.5254975061089
 31
0.0
  0
LINE
  5
   19A
  8
0
  6
CONTINUOUS
 62
     7
 10
-49.5596872879786
 20
-37.5254975061089
 30
0.0
 11
-52.5141105651856
 21
-38.0464419360605
 31
0.0
  0
LINE
  5
   19B
  8
0
  6
CONTINUOUS
 62
     7
 10
-52.5141105651856
 20
-38.0464419360605
 30
0.0
 11
-49.5596872879786
 21
-38.5673863660122
 31
0.0
  0
ENDBLK
  5
   19C
  8
0
  6
CONTINUOUS
 62
     7
  0
BLOCK
  5
   19D
  8
0
  6
CONTINUOUS
 62
     7
  2
*UDIM1657
 70
    65
 10
0.0
 20
0.0
 30
0.0
  3
*UDIM1657
  0
TEXT
  5
   19E
  8
0
  6
CONTINUOUS
 62
     7
 10
-78.0141129745662
 20
-37.0464419300175
 30
0.0
 40
2.99999994039535
  1
123,5
 50
359.999999948034
 41
0.933333333333333
 72
     1
 11
-71.3141131063303
 21
-35.5464419658629
 31
0.0
 73
     2
  0
LINE
  5
   19F
  8
0
  6
CONTINUOUS
 62
     7
 10
-89.5641120374203
 20
37.4426228404022
 30
0.0
 11
-89.5641120374203
 21
-40.0464419360605
 31
0.0
  0
LINE
  5
   1A0
  8
0
  6
CONTINUOUS
 62
     7
 10
-52.5141105651856
 20
-38.0464419360605
 30
0.0
 11
-89.5641120374203
 21
-38.0464419360605
 31
0.0
  0
LINE
  5
   1A1
  8
0
  6
CONTINUOUS
 62
     7
 10
-55.4685338423925
 20
-38.5673863660122
 30
0.0
 11
-52.5141105651856
 21
-38.0464419360605
 31
0.0
  0
LINE
  5
   1A2
  8
0
  6
CONTINUOUS
 62
     7
 10
-52.5141105651856
 20
-38.0464419360605
 30
0.0
 11
-55.4685338423925
 21
-37.5254975061089
 31
0.0
  0
LINE
  5
   1A3
  8
0
  6
CONTINUOUS
 62
     7
 10
-86.6096887602133
 20
-37.5254975061089
 30
0.0
 11
-89.5641120374203
 21
-38.0464419360605
 31
0.0
  0
LINE
  5
   1A4
  8
0
  6
CONTINUOUS
 62
     7
 10
-89.5641120374203
 20
-38.0464419360605
 30
0.0
 11
-86.6096887602133
 21
-38.5673863660122
 31
0.0
  0
ENDBLK
  5
   1A5
  8
0
  6
CONTINUOUS
 62
     7
  0
BLOCK
  5
   1A6
  8
0
  6
CONTINUOUS
 62
     7
  2
*UDIM1658
 70
    65
 10
0.0
 20
0.0
 30
0.0
  3
*UDIM1658
  0
TEXT
  5
   1A7
  8
0
  6
CONTINUOUS
 62
     7
 10
-56.6891106489916
 20
118.612049665367
 30
0.0
 40
2.99999994039535
  1
210
 50
359.999999948034
 41
0.933333333333333
 72
     1
 11
-52.7891107251247
 21
120.112049632047
 31
0.0
 73
     2
  0
LINE
  5
   1A8
  8
0
  6
CONTINUOUS
 62
     7
 10
-21.014109313488
 20
105.442682683468
 30
0.0
 11
-21.014109313488
 21
119.61204966185
 31
0.0
  0
LINE
  5
   1A9
  8
0
  6
CONTINUOUS
 62
     7
 10
-84.0141118168831
 20
105.442682683468
 30
0.0
 11
-84.0141118168831
 21
119.61204966185
 31
0.0
  0
LINE
  5
   1AA
  8
0
  6
CONTINUOUS
 62
     7
 10
-21.014109313488
 20
117.61204966185
 30
0.0
 11
-84.0141118168831
 21
117.61204966185
 31
0.0
  0
LINE
  5
   1AB
  8
0
  6
CONTINUOUS
 62
     7
 10
-23.968532590695
 20
117.091105231898
 30
0.0
 11
-21.014109313488
 21
117.61204966185
 31
0.0
  0
LINE
  5
   1AC
  8
0
  6
CONTINUOUS
 62
     7
 10
-21.014109313488
 20
117.61204966185
 30
0.0
 11
-23.968532590695
 21
118.132994091801
 31
0.0
  0
LINE
  5
   1AD
  8
0
  6
CONTINUOUS
 62
     7
 10
-81.0596885396761
 20
118.132994091801
 30
0.0
 11
-84.0141118168831
 21
117.61204966185
 31
0.0
  0
LINE
  5
   1AE
  8
0
  6
CONTINUOUS
 62
     7
 10
-84.0141118168831
 20
117.61204966185
 30
0.0
 11
-81.0596885396761
 21
117.091105231898
 31
0.0
  0
ENDBLK
  5
   1AF
  8
0
  6
CONTINUOUS
 62
     7
  0
BLOCK
  5
   1B0
  8
0
  6
CONTINUOUS
 62
     7
  2
*UDIM1659
 70
    65
 10
0.0
 20
0.0
 30
0.0
  3
*UDIM1659
  0
TEXT
  5
   1B1
  8
0
  6
CONTINUOUS
 62
     7
 10
-56.6891106489916
 20
112.574348009435
 30
0.0
 40
2.99999994039535
  1
140
 50
359.999999948034
 41
0.933333333333333
 72
     1
 11
-52.7891107251247
 21
114.074347976115
 31
0.0
 73
     2
  0
LINE
  5
   1B2
  8
0
  6
CONTINUOUS
 62
     7
 10
-31.5141097307205
 20
60.3676763147114
 30
0.0
 11
-31.5141097307205
 21
113.574348005917
 31
0.0
  0
LINE
  5
   1B3
  8
0
  6
CONTINUOUS
 62
     7
 10
-73.5141113996506
 20
60.3676763147114
 30
0.0
 11
-73.5141113996506
 21
113.574348005917
 31
0.0
  0
LINE
  5
   1B4
  8
0
  6
CONTINUOUS
 62
     7
 10
-31.5141097307205
 20
111.574348005917
 30
0.0
 11
-73.5141113996506
 21
111.574348005917
 31
0.0
  0
LINE
  5
   1B5
  8
0
  6
CONTINUOUS
 62
     7
 10
-34.4685330079275
 20
111.053403575966
 30
0.0
 11
-31.5141097307205
 21
111.574348005917
 31
0.0
  0
LINE
  5
   1B6
  8
0
  6
CONTINUOUS
 62
     7
 10
-31.5141097307205
 20
111.574348005917
 30
0.0
 11
-34.4685330079275
 21
112.095292435869
 31
0.0
  0
LINE
  5
   1B7
  8
0
  6
CONTINUOUS
 62
     7
 10
-70.5596881224436
 20
112.095292435869
 30
0.0
 11
-73.5141113996506
 21
111.574348005917
 31
0.0
  0
LINE
  5
   1B8
  8
0
  6
CONTINUOUS
 62
     7
 10
-73.5141113996506
 20
111.574348005917
 30
0.0
 11
-70.5596881224436
 21
111.053403575966
 31
0.0
  0
ENDBLK
  5
   1B9
  8
0
  6
CONTINUOUS
 62
     7
  0
BLOCK
  5
   1BA
  8
0
  6
CONTINUOUS
 62
     7
  2
*UDIM1660
 70
    65
 10
0.0
 20
0.0
 30
0.0
  3
*UDIM1660
  0
TEXT
  5
   1BB
  8
0
  6
CONTINUOUS
 62
     7
 10
-104.092860140934
 20
62.2801811795756
 30
0.0
 40
2.99999994039535
  1
211,25
 50
89.9999999480344
 41
0.933333333333333
 72
     1
 11
-105.592860103796
 21
70.3801810200016
 31
0.0
 73
     2
  0
LINE
  5
   1BC
  8
0
  6
CONTINUOUS
 62
     7
 10
-98.6265567976609
 20
38.9676755040882
 30
0.0
 11
-105.092860133598
 21
38.9676755040882
 31
0.0
  0
LINE
  5
   1BD
  8
0
  6
CONTINUOUS
 62
     7
 10
-85.0141118168831
 20
102.342682600021
 30
0.0
 11
-105.092860133598
 21
102.342682600021
 31
0.0
  0
LINE
  5
   1BE
  8
0
  6
CONTINUOUS
 62
     7
 10
-103.092860133598
 20
38.9676755040882
 30
0.0
 11
-103.092860133598
 21
102.342682600021
 31
0.0
  0
LINE
  5
   1BF
  8
0
  6
CONTINUOUS
 62
     7
 10
-103.61380456355
 20
41.9220987812952
 30
0.0
 11
-103.092860133598
 21
38.9676755040882
 31
0.0
  0
LINE
  5
   1C0
  8
0
  6
CONTINUOUS
 62
     7
 10
-103.092860133598
 20
38.9676755040882
 30
0.0
 11
-102.571915703646
 21
41.9220987812952
 31
0.0
  0
LINE
  5
   1C1
  8
0
  6
CONTINUOUS
 62
     7
 10
-102.571915703646
 20
99.3882593228144
 30
0.0
 11
-103.092860133598
 21
102.342682600021
 31
0.0
  0
LINE
  5
   1C2
  8
0
  6
CONTINUOUS
 62
     7
 10
-103.092860133598
 20
102.342682600021
 30
0.0
 11
-103.61380456355
 21
99.3882593228144
 31
0.0
  0
ENDBLK
  5
   1C3
  8
0
  6
CONTINUOUS
 62
     7
  0
BLOCK
  5
   1C4
  8
0
  6
CONTINUOUS
 62
     7
  2
*UDIM1661
 70
    65
 10
0.0
 20
0.0
 30
0.0
  3
*UDIM1661
  0
TEXT
  5
   1C5
  8
0
  6
CONTINUOUS
 62
     7
 10
-111.455691545426
 20
47.3340819361692
 30
0.0
 40
2.99999994039535
  1
406
 50
89.9999999480344
 41
0.933333333333333
 72
     1
 11
-112.955691512091
 21
51.2340818600417
 31
0.0
 73
     2
  0
LINE
  5
   1C6
  8
0
  6
CONTINUOUS
 62
     7
 10
-85.0141118168831
 20
-19.4573222398758
 30
0.0
 11
-112.455691541893
 21
-19.4573222398758
 31
0.0
  0
LINE
  5
   1C7
  8
0
  6
CONTINUOUS
 62
     7
 10
-85.0141118168831
 20
102.342682600021
 30
0.0
 11
-112.455691541893
 21
102.342682600021
 31
0.0
  0
LINE
  5
   1C8
  8
0
  6
CONTINUOUS
 62
     7
 10
-110.455691541893
 20
-19.4573222398758
 30
0.0
 11
-110.455691541893
 21
102.342682600021
 31
0.0
  0
LINE
  5
   1C9
  8
0
  6
CONTINUOUS
 62
     7
 10
-110.976635971845
 20
-16.5028989626688
 30
0.0
 11
-110.455691541893
 21
-19.4573222398758
 31
0.0
  0
LINE
  5
   1CA
  8
0
  6
CONTINUOUS
 62
     7
 10
-110.455691541893
 20
-19.4573222398758
 30
0.0
 11
-109.934747111942
 21
-16.5028989626688
 31
0.0
  0
LINE
  5
   1CB
  8
0
  6
CONTINUOUS
 62
     7
 10
-109.934747111942
 20
99.3882593228144
 30
0.0
 11
-110.455691541893
 21
102.342682600021
 31
0.0
  0
LINE
  5
   1CC
  8
0
  6
CONTINUOUS
 62
     7
 10
-110.455691541893
 20
102.342682600021
 30
0.0
 11
-110.976635971845
 21
99.3882593228144
 31
0.0
  0
ENDBLK
  5
   1CD
  8
0
  6
CONTINUOUS
 62
     7
  0
BLOCK
  5
   1CE
  8
0
  6
CONTINUOUS
 62
     0
  2
$1MOSTRA
 70
    64
 10
0.0
 20
0.0
 30
0.0
  3
$1MOSTRA
  0
LINE
  5
   1CF
  8
0
  6
CONTINUOUS
 62
     0
 10
131.0
 20
-24.0000152587891
 30
0.0
 11
131.0
 21
169.499984741211
 31
0.0
  0
LINE
  5
   1D0
  8
0
  6
CONTINUOUS
 62
     0
 10
-94.7500023146612
 20
-25.250020980835
 30
0.0
 11
129.75
 21
-25.250020980835
 31
0.0
  0
LINE
  5
   1D1
  8
0
  6
CONTINUOUS
 62
     0
 10
-96.0
 20
-24.000020980835
 30
0.0
 11
-96.0
 21
169.499979019165
 31
0.0
  0
LINE
  5
   1D2
  8
0
  6
CONTINUOUS
 62
     0
 10
-87.0
 20
170.749984741211
 30
0.0
 11
129.75
 21
170.749984741211
 31
0.0
  0
LINE
  5
   1D3
  8
0
  6
CONTINUOUS
 62
     0
 10
-94.7500138961029
 20
170.749984741211
 30
0.0
 11
-87.0
 21
170.749984741211
 31
0.0
  0
LINE
  5
   1D4
  8
0
  6
CONTINUOUS
 62
     0
 10
78.0
 20
-5.25002145767212
 30
0.0
 11
78.0
 21
-4.2500216960907
 31
0.0
  0
LINE
  5
   1D5
  8
0
  6
CONTINUOUS
 62
     0
 10
-87.0
 20
-5.25002145767211
 30
0.0
 11
-87.0
 21
-4.25002169609069
 31
0.0
  0
LINE
  5
   1D6
  8
0
  6
CONTINUOUS
 62
     0
 10
-86.0
 20
-5.25002145767211
 30
0.0
 11
77.0
 21
-5.25002145767212
 31
0.0
  0
LINE
  5
   1D7
  8
0
  6
CONTINUOUS
 62
     0
 10
78.0
 20
149.749984741211
 30
0.0
 11
78.0
 21
150.749984741211
 31
0.0
  0
LINE
  5
   1D8
  8
0
  6
CONTINUOUS
 62
     0
 10
-87.0
 20
149.749984741211
 30
0.0
 11
-87.0
 21
150.749984741211
 31
0.0
  0
LINE
  5
   1D9
  8
0
  6
CONTINUOUS
 62
     0
 10
-86.0
 20
-25.250020980835
 30
0.0
 11
-86.0
 21
-5.25002098083496
 31
0.0
  0
LINE
  5
   1DA
  8
0
  6
CONTINUOUS
 62
     0
 10
-87.0
 20
-25.250020980835
 30
0.0
 11
-87.0
 21
-5.25002098083496
 31
0.0
  0
LINE
  5
   1DB
  8
0
  6
CONTINUOUS
 62
     0
 10
-87.0
 20
-4.25002169609069
 30
0.0
 11
-87.0
 21
149.749978303909
 31
0.0
  0
LINE
  5
   1DC
  8
0
  6
CONTINUOUS
 62
     0
 10
-87.0
 20
150.749984741211
 30
0.0
 11
-87.0
 21
170.749984741211
 31
0.0
  0
LINE
  5
   1DD
  8
0
  6
CONTINUOUS
 62
     0
 10
78.0
 20
-25.250020980835
 30
0.0
 11
78.0
 21
-5.25002098083497
 31
0.0
  0
LINE
  5
   1DE
  8
0
  6
CONTINUOUS
 62
     0
 10
78.0
 20
-4.2500216960907
 30
0.0
 11
78.0
 21
22.6249783039093
 31
0.0
  0
LINE
  5
   1DF
  8
0
  6
CONTINUOUS
 62
     0
 10
78.0
 20
23.624979019165
 30
0.0
 11
78.0
 21
64.624979019165
 31
0.0
  0
LINE
  5
   1E0
  8
0
  6
CONTINUOUS
 62
     0
 10
78.0
 20
65.6249771118164
 30
0.0
 11
78.0
 21
149.749984741211
 31
0.0
  0
LINE
  5
   1E1
  8
0
  6
CONTINUOUS
 62
     0
 10
78.0
 20
150.749984741211
 30
0.0
 11
78.0
 21
170.749984741211
 31
0.0
  0
LINE
  5
   1E2
  8
0
  6
CONTINUOUS
 62
     0
 10
77.0
 20
-25.250020980835
 30
0.0
 11
77.0
 21
-5.25002098083497
 31
0.0
  0
LINE
  5
   1E3
  8
0
  6
CONTINUOUS
 62
     0
 10
112.0
 20
23.624979019165
 30
0.0
 11
112.0
 21
64.624979019165
 31
0.0
  0
LINE
  5
   1E4
  8
0
  6
CONTINUOUS
 62
     0
 10
-86.0
 20
150.749984741211
 30
0.0
 11
77.0
 21
150.749984741211
 31
0.0
  0
LINE
  5
   1E5
  8
0
  6
DOT
 62
     0
 10
78.0
 20
22.6249809265137
 30
0.0
 11
78.0
 21
23.6249809265137
 31
0.0
  0
LINE
  5
   1E6
  8
0
  6
DOT
 62
     0
 10
78.0
 20
64.6249847412109
 30
0.0
 11
78.0
 21
65.6249847412109
 31
0.0
  0
LINE
  5
   1E7
  8
0
  6
CONTINUOUS
 62
     0
 10
-95.2283575359481
 20
170.654833276614
 30
0.0
 11
-94.7500021275396
 21
170.749987082197
 31
0.0
  0
LINE
  5
   1E8
  8
0
  6
CONTINUOUS
 62
     0
 10
-95.6338828572815
 20
170.383870758251
 30
0.0
 11
-95.2283576589463
 21
170.654836342308
 31
0.0
  0
LINE
  5
   1E9
  8
0
  6
CONTINUOUS
 62
     0
 10
-95.9048442813714
 20
169.978321294716
 30
0.0
 11
-95.6338787006842
 21
170.38385412157
 31
0.0
  0
LINE
  5
   1EA
  8
0
  6
CONTINUOUS
 62
     0
 10
-96.0000009070014
 20
169.49998927381
 30
0.0
 11
-95.9048471000262
 21
169.978337054874
 31
0.0
  0
LINE
  5
   1EB
  8
0
  6
CONTINUOUS
 62
     0
 10
129.750003154688
 20
170.749986935154
 30
0.0
 11
130.228350935752
 21
170.654833128179
 31
0.0
  0
LINE
  5
   1EC
  8
0
  6
CONTINUOUS
 62
     0
 10
130.228341409222
 20
170.654823450862
 30
0.0
 11
130.633874236076
 21
170.383857870175
 31
0.0
  0
LINE
  5
   1ED
  8
0
  6
CONTINUOUS
 62
     0
 10
130.633876465973
 20
170.383854910394
 30
0.0
 11
130.90484204666
 21
169.97832208354
 31
0.0
  0
LINE
  5
   1EE
  8
0
  6
CONTINUOUS
 62
     0
 10
130.90484765696
 20
169.978336952213
 30
0.0
 11
131.000001463935
 21
169.499989171149
 31
0.0
  0
LINE
  5
   1EF
  8
0
  6
CONTINUOUS
 62
     0
 10
129.750001912704
 20
-25.2500209810903
 30
0.0
 11
130.228349689786
 21
-25.1548709896053
 31
0.0
  0
LINE
  5
   1F0
  8
0
  6
CONTINUOUS
 62
     0
 10
130.228338306514
 20
-25.1548722950462
 30
0.0
 11
130.633871133368
 21
-24.8839067143591
 31
0.0
  0
LINE
  5
   1F1
  8
0
  6
CONTINUOUS
 62
     0
 10
130.633879356188
 20
-24.8839055654524
 30
0.0
 11
130.904844938572
 21
-24.4783765528653
 31
0.0
  0
LINE
  5
   1F2
  8
0
  6
CONTINUOUS
 62
     0
 10
130.904848088874
 20
-24.4783766972257
 30
0.0
 11
131.000001894457
 21
-24.0000212888173
 31
0.0
  0
LINE
  5
   1F3
  8
0
  6
CONTINUOUS
 62
     0
 10
-95.2283572980338
 20
-25.1548710672825
 30
0.0
 11
-94.750001893597
 21
-25.2500210645891
 31
0.0
  0
LINE
  5
   1F4
  8
0
  6
CONTINUOUS
 62
     0
 10
-95.6338848795916
 20
-24.8839050834456
 30
0.0
 11
-95.2283596812563
 21
-25.1548706675021
 31
0.0
  0
LINE
  5
   1F5
  8
0
  6
CONTINUOUS
 62
     0
 10
-95.9048453281177
 20
-24.4783764153605
 30
0.0
 11
-95.6338797457343
 21
-24.8839054279476
 31
0.0
  0
LINE
  5
   1F6
  8
0
  6
CONTINUOUS
 62
     0
 10
-96.0000013278323
 20
-24.0000213932639
 30
0.0
 11
-95.9048475222492
 21
-24.4783768016722
 31
0.0
  0
LINE
  5
   1F7
  8
0
  6
CONTINUOUS
 62
     0
 10
71.0
 20
161.499984741211
 30
0.0
 11
71.5
 21
161.499984741211
 31
0.0
  0
LINE
  5
   1F8
  8
0
  6
CONTINUOUS
 62
     0
 10
70.6249985834239
 20
161.39948892087
 30
0.0
 11
70.9999985887286
 21
161.499983299907
 31
0.0
  0
LINE
  5
   1F9
  8
0
  6
CONTINUOUS
 62
     0
 10
70.3504841000321
 20
161.124991898345
 30
0.0
 11
70.6250049664647
 21
161.399497515692
 31
0.0
  0
LINE
  5
   1FA
  8
0
  6
CONTINUOUS
 62
     0
 10
70.2500005005121
 20
160.74998610992
 30
0.0
 11
70.3504796223163
 21
161.124986104743
 31
0.0
  0
LINE
  5
   1FB
  8
0
  6
CONTINUOUS
 62
     0
 10
70.2500001717027
 20
160.749985945318
 30
0.0
 11
70.3504792935069
 21
160.374985950495
 31
0.0
  0
LINE
  5
   1FC
  8
0
  6
CONTINUOUS
 62
     0
 10
70.3504785443499
 20
160.374981262897
 30
0.0
 11
70.6249994243228
 21
160.100460382924
 31
0.0
  0
LINE
  5
   1FD
  8
0
  6
CONTINUOUS
 62
     0
 10
70.6250004494111
 20
160.100464493128
 30
0.0
 11
71.000000444234
 21
159.999985371324
 31
0.0
  0
LINE
  5
   1FE
  8
0
  6
CONTINUOUS
 62
     0
 10
71.0
 20
159.999984741211
 30
0.0
 11
71.5
 21
159.999984741211
 31
0.0
  0
LINE
  5
   1FF
  8
0
  6
CONTINUOUS
 62
     0
 10
-71.0000005237262
 20
159.999985364975
 30
0.0
 11
-70.6250005289034
 21
160.100464486779
 31
0.0
  0
LINE
  5
   200
  8
0
  6
CONTINUOUS
 62
     0
 10
-70.6249991572831
 20
160.100460461707
 30
0.0
 11
-70.3504782773103
 21
160.37498134168
 31
0.0
  0
LINE
  5
   201
  8
0
  6
CONTINUOUS
 62
     0
 10
-70.3504793419514
 20
160.374985939145
 30
0.0
 11
-70.2500002201472
 21
160.749985933968
 31
0.0
  0
LINE
  5
   202
  8
0
  6
CONTINUOUS
 62
     0
 10
-70.3504796707608
 20
161.124986116093
 30
0.0
 11
-70.2500005489566
 21
160.74998612127
 31
0.0
  0
LINE
  5
   203
  8
0
  6
CONTINUOUS
 62
     0
 10
-70.625005364328
 20
161.399497643651
 30
0.0
 11
-70.3504844978953
 21
161.124992026304
 31
0.0
  0
LINE
  5
   204
  8
0
  6
CONTINUOUS
 62
     0
 10
-70.9999984404592
 20
161.499983275092
 30
0.0
 11
-70.6249984351544
 21
161.399488896056
 31
0.0
  0
LINE
  5
   205
  8
0
  6
CONTINUOUS
 62
     0
 10
-71.5
 20
161.499984741211
 30
0.0
 11
-71.0
 21
161.499984741211
 31
0.0
  0
LINE
  5
   206
  8
0
  6
CONTINUOUS
 62
     0
 10
-71.5
 20
159.999984741211
 30
0.0
 11
-71.0
 21
159.999984741211
 31
0.0
  0
LINE
  5
   207
  8
0
  6
DOT
 62
     0
 10
129.207102522664
 20
93.2070806462287
 30
0.0
 11
129.423868885951
 21
92.8826559114065
 31
0.0
  0
LINE
  5
   208
  8
0
  6
CONTINUOUS
 62
     0
 10
78.0
 20
64.6249771118164
 30
0.0
 11
112.0
 21
64.6249771118164
 31
0.0
  0
LINE
  5
   209
  8
0
  6
CONTINUOUS
 62
     0
 10
78.0
 20
23.624979019165
 30
0.0
 11
112.0
 21
23.624979019165
 31
0.0
  0
LINE
  5
   20A
  8
0
  6
CONTINUOUS
 62
     0
 10
78.0
 20
22.624979019165
 30
0.0
 11
131.0
 21
22.624979019165
 31
0.0
  0
LINE
  5
   20B
  8
0
  6
CONTINUOUS
 62
     0
 10
113.0
 20
22.6249771118164
 30
0.0
 11
113.0
 21
65.6249771118164
 31
0.0
  0
LINE
  5
   20C
  8
0
  6
CONTINUOUS
 62
     0
 10
121.443762073863
 20
22.6249762341869
 30
0.0
 11
121.469671496571
 21
22.655306892856
 31
0.0
  0
LINE
  5
   20D
  8
0
  6
CONTINUOUS
 62
     0
 10
122.530331822982
 20
22.6553070669901
 30
0.0
 11
122.556233618116
 21
22.6249802236221
 31
0.0
  0
LINE
  5
   20E
  8
0
  6
CONTINUOUS
 62
     0
 10
77.0
 20
-4.2500216960907
 30
0.0
 11
77.0
 21
149.749978303909
 31
0.0
  0
LINE
  5
   20F
  8
0
  6
CONTINUOUS
 62
     0
 10
-86.0
 20
149.749984741211
 30
0.0
 11
77.0
 21
149.749984741211
 31
0.0
  0
LINE
  5
   210
  8
0
  6
CONTINUOUS
 62
     0
 10
-86.0
 20
-4.25002169609069
 30
0.0
 11
77.0
 21
-4.2500216960907
 31
0.0
  0
LINE
  5
   211
  8
0
  6
CONTINUOUS
 62
     0
 10
-86.0
 20
-4.25002169609069
 30
0.0
 11
-86.0
 21
149.749978303909
 31
0.0
  0
LINE
  5
   212
  8
0
  6
CONTINUOUS
 62
     0
 10
70.0000086006236
 20
142.749981641769
 30
0.0
 11
77.0000047406314
 21
149.749991353068
 31
0.0
  0
LINE
  5
   213
  8
0
  6
CONTINUOUS
 62
     0
 10
70.0000002534282
 20
2.74998164176941
 30
0.0
 11
77.0000028943928
 21
-4.25002276936366
 31
0.0
  0
LINE
  5
   214
  8
0
  6
CONTINUOUS
 62
     0
 10
-86.0000010794079
 20
149.749986269664
 30
0.0
 11
-70.0
 21
142.220568727026
 31
0.0
  0
LINE
  5
   215
  8
0
  6
CONTINUOUS
 62
     0
 10
-86.0000042824209
 20
-4.25002269924179
 30
0.0
 11
-70.0
 21
3.27939166971828
 31
0.0
  0
LINE
  5
   216
  8
0
  6
CONTINUOUS
 62
     0
 10
71.5
 20
150.749984741211
 30
0.0
 11
71.5
 21
170.749984741211
 31
0.0
  0
LINE
  5
   217
  8
0
  6
CONTINUOUS
 62
     0
 10
77.0
 20
150.749984741211
 30
0.0
 11
77.0
 21
170.749984741211
 31
0.0
  0
LINE
  5
   218
  8
0
  6
CONTINUOUS
 62
     0
 10
-71.5
 20
150.749984741211
 30
0.0
 11
-71.5
 21
170.749984741211
 31
0.0
  0
LINE
  5
   219
  8
0
  6
CONTINUOUS
 62
     0
 10
-86.0
 20
150.749984741211
 30
0.0
 11
-86.0
 21
170.749984741211
 31
0.0
  0
LINE
  5
   21A
  8
0
  6
CONTINUOUS
 62
     0
 10
78.0
 20
65.6249771118164
 30
0.0
 11
131.0
 21
65.6249771118164
 31
0.0
  0
POINT
  5
   21B
  8
0
  6
CONTINUOUS
 62
     0
 10
4.30031180087553E-6
 20
72.749980198372
 30
0.0
  0
ENDBLK
  5
   21C
  8
0
  6
CONTINUOUS
 62
     0
  0
BLOCK
  5
   21D
  8
0
  6
CONTINUOUS
 62
     7
  2
*UDIM1662
 70
    65
 10
0.0
 20
0.0
 30
0.0
  3
*UDIM1662
  0
TEXT
  5
   21E
  8
0
  6
CONTINUOUS
 62
     7
 10
7.34084035275598
 20
103.340015016479
 30
0.0
 40
3.00000002980232
  1
7
 50
316.793267245717
 41
0.933333333333334
 72
     1
 11
9.16956651333148
 21
103.680251255541
 31
0.0
 73
     2
  0
TEXT
  5
   21F
  8
0
  6
CONTINUOUS
 62
     7
 10
4.42528759581537
 20
106.078546075261
 30
0.0
 40
3.00000002980232
  1
Ø
 50
316.793267245717
 41
1.2
 72
     1
 11
6.54556903213949
 21
106.144929207052
 31
0.0
 73
     2
  0
LINE
  5
   220
  8
0
  6
CONTINUOUS
 62
     7
 10
3.74065483659907
 20
105.349657885511
 30
0.0
 11
22.9339514793817
 21
87.321708014619
 31
0.0
  0
LINE
  5
   221
  8
0
  6
CONTINUOUS
 62
     7
 10
15.3702124718367
 20
93.3609420814595
 30
0.0
 11
18.0139562374458
 21
91.9429791405463
 31
0.0
  0
LINE
  5
   222
  8
0
  6
CONTINUOUS
 62
     7
 10
18.0139562374458
 20
91.9429791405463
 30
0.0
 11
16.4333884829409
 21
94.4928429748362
 31
0.0
  0
LINE
  5
   223
  8
0
  6
CONTINUOUS
 62
     7
 10
21.9332543250383
 20
89.326908870689
 30
0.0
 11
19.2895105594292
 21
90.7448718116021
 31
0.0
  0
LINE
  5
   224
  8
0
  6
CONTINUOUS
 62
     7
 10
19.2895105594292
 20
90.7448718116021
 30
0.0
 11
20.8700783139341
 21
88.1950079773123
 31
0.0
  0
ENDBLK
  5
   225
  8
0
  6
CONTINUOUS
 62
     7
  0
BLOCK
  5
   226
  8
0
  6
CONTINUOUS
 62
     7
  2
*UDIM1663
 70
    65
 10
0.0
 20
0.0
 30
0.0
  3
*UDIM1663
  0
TEXT
  5
   227
  8
0
  6
CONTINUOUS
 62
     7
 10
47.0390989308622
 20
52.0571334282998
 30
0.0
 40
3.00000002980232
  1
7
 50
342.266879827824
 41
0.933333333333334
 72
     1
 11
48.5437086298973
 21
53.1508197280738
 31
0.0
 73
     2
  0
TEXT
  5
   228
  8
0
  6
CONTINUOUS
 62
     7
 10
43.2291566037048
 20
53.2754682353841
 30
0.0
 40
3.00000002980232
  1
Ø
 50
342.266879827824
 41
1.2
 72
     1
 11
45.1147605361041
 21
54.2473210532157
 31
0.0
 73
     2
  0
LINE
  5
   229
  8
0
  6
CONTINUOUS
 62
     7
 10
42.9245729071014
 20
52.322982655487
 30
0.0
 11
64.8725861502436
 21
45.3044962430214
 31
0.0
  0
LINE
  5
   22A
  8
0
  6
CONTINUOUS
 62
     7
 10
55.4467210853608
 20
47.5034877543656
 30
0.0
 11
58.4433085205089
 21
47.3604362129119
 31
0.0
  0
LINE
  5
   22B
  8
0
  6
CONTINUOUS
 62
     7
 10
58.4433085205089
 20
47.3604362129119
 30
0.0
 11
55.9197134713722
 21
48.9826162362053
 31
0.0
  0
LINE
  5
   22C
  8
0
  6
CONTINUOUS
 62
     7
 10
63.1067457115142
 20
46.6843631977828
 30
0.0
 11
60.1101582763661
 21
46.8274147392366
 31
0.0
  0
LINE
  5
   22D
  8
0
  6
CONTINUOUS
 62
     7
 10
60.1101582763661
 20
46.8274147392366
 30
0.0
 11
62.6337533255028
 21
45.2052347159431
 31
0.0
  0
ENDBLK
  5
   22E
  8
0
  6
CONTINUOUS
 62
     7
  0
BLOCK
  5
   22F
  8
0
  6
CONTINUOUS
 62
     7
  2
*UDIM1664
 70
    65
 10
0.0
 20
0.0
 30
0.0
  3
*UDIM1664
  0
TEXT
  5
   230
  8
0
  6
CONTINUOUS
 62
     7
 10
65.5638927572624
 20
99.8036419808276
 30
0.0
 40
3.00000002980232
  1
8
 50
407.936580148673
 41
0.933333333333334
 72
     1
 11
65.1872352236396
 21
101.625215248942
 31
0.0
 73
     2
  0
TEXT
  5
   231
  8
0
  6
CONTINUOUS
 62
     7
 10
63.4535415242109
 20
97.4650702509585
 30
0.0
 40
3.00000002980232
  1
Ø
 50
407.936580148673
 41
0.933333333333334
 72
     1
 11
63.0768839905881
 21
99.286643519073
 31
0.0
 73
     2
  0
TEXT
  5
   232
  8
0
  6
CONTINUOUS
 62
     7
 10
67.4062628784183
 20
101.845252257653
 30
0.0
 40
3.00000002980232
  1
(5 fori)
 50
407.936580148673
 41
0.933333333333333
 72
     1
 11
73.5951425785608
 21
110.942382050198
 31
0.0
 73
     2
  0
LINE
  5
   233
  8
0
  6
CONTINUOUS
 62
     7
 10
82.7536371618345
 20
117.359700758443
 30
0.0
 11
58.606780628153
 21
90.6015217546475
 31
0.0
  0
LINE
  5
   234
  8
0
  6
CONTINUOUS
 62
     7
 10
61.5392591444272
 20
94.6287121971793
 30
0.0
 11
59.946686168722
 21
92.0863291975009
 31
0.0
  0
LINE
  5
   235
  8
0
  6
CONTINUOUS
 62
     7
 10
59.946686168722
 20
92.0863291975009
 30
0.0
 11
62.3127613113324
 21
93.9306958691586
 31
0.0
  0
LINE
  5
   236
  8
0
  6
CONTINUOUS
 62
     7
 10
57.0142076524478
 20
88.0591387549691
 30
0.0
 11
58.606780628153
 21
90.6015217546475
 31
0.0
  0
LINE
  5
   237
  8
0
  6
CONTINUOUS
 62
     7
 10
58.606780628153
 20
90.6015217546475
 30
0.0
 11
56.2407054855426
 21
88.7571550829899
 31
0.0
  0
ENDBLK
  5
   238
  8
0
  6
CONTINUOUS
 62
     7
  0
BLOCK
  5
   239
  8
0
  6
CONTINUOUS
 62
     7
  2
*UDIM1665
 70
    65
 10
0.0
 20
0.0
 30
0.0
  3
*UDIM1665
  0
TEXT
  5
   23A
  8
0
  6
CONTINUOUS
 62
     7
 10
43.054851212276
 20
12.3374595976144
 30
0.0
 40
3.00000002980232
  1
R min.200
 50
359.999999844103
 41
0.933333333333333
 72
     1
 11
55.3548513385393
 21
13.8374595791101
 31
0.0
 73
     2
  0
LINE
  5
   23B
  8
0
  6
CONTINUOUS
 62
     7
 10
34.0267333984375
 20
38.5477168015402
 30
0.0
 11
34.0267333984375
 21
9.33745956420898
 31
0.0
  0
LINE
  5
   23C
  8
0
  6
CONTINUOUS
 62
     7
 10
76.8318279003576
 20
14.7733175089567
 30
0.0
 11
76.8318279003576
 21
9.33745956420898
 31
0.0
  0
LINE
  5
   23D
  8
0
  6
CONTINUOUS
 62
     7
 10
34.0267333984375
 20
11.337459564209
 30
0.0
 11
76.8318279003576
 21
11.337459564209
 31
0.0
  0
LINE
  5
   23E
  8
0
  6
CONTINUOUS
 62
     7
 10
36.9811566756445
 20
11.8584039941606
 30
0.0
 11
34.0267333984375
 21
11.337459564209
 31
0.0
  0
LINE
  5
   23F
  8
0
  6
CONTINUOUS
 62
     7
 10
34.0267333984375
 20
11.337459564209
 30
0.0
 11
36.9811566756445
 21
10.8165151342573
 31
0.0
  0
LINE
  5
   240
  8
0
  6
CONTINUOUS
 62
     7
 10
73.8774046231507
 20
10.8165151342573
 30
0.0
 11
76.8318279003576
 21
11.337459564209
 31
0.0
  0
LINE
  5
   241
  8
0
  6
CONTINUOUS
 62
     7
 10
76.8318279003576
 20
11.337459564209
 30
0.0
 11
73.8774046231507
 21
11.8584039941606
 31
0.0
  0
ENDBLK
  5
   242
  8
0
  6
CONTINUOUS
 62
     7
  0
BLOCK
  5
   243
  8
0
  6
CONTINUOUS
 62
     7
  2
*UDIM1666
 70
    65
 10
0.0
 20
0.0
 30
0.0
  3
*UDIM1666
  0
TEXT
  5
   244
  8
0
  6
CONTINUOUS
 62
     7
 10
-2.2454032965815
 20
77.6939254412066
 30
0.0
 40
3.00000002980232
  1
90
 50
449.999999844103
 41
0.933333333333333
 72
     1
 11
-3.74540330469608
 21
80.1939254701138
 31
0.0
 73
     2
  0
LINE
  5
   245
  8
0
  6
CONTINUOUS
 62
     7
 10
30.6692333984375
 20
91.7189254760742
 30
0.0
 11
-3.24540328979492
 21
91.7189254760742
 31
0.0
  0
LINE
  5
   246
  8
0
  6
CONTINUOUS
 62
     7
 10
3.22070870790162
 20
69.2189254760742
 30
0.0
 11
-3.24540328979492
 21
69.2189254760742
 31
0.0
  0
LINE
  5
   247
  8
0
  6
CONTINUOUS
 62
     7
 10
-1.24540328979492
 20
91.7189254760742
 30
0.0
 11
-1.24540328979492
 21
69.2189254760742
 31
0.0
  0
LINE
  5
   248
  8
0
  6
CONTINUOUS
 62
     7
 10
-0.72445885984326
 20
88.7645021988673
 30
0.0
 11
-1.24540328979492
 21
91.7189254760742
 31
0.0
  0
LINE
  5
   249
  8
0
  6
CONTINUOUS
 62
     7
 10
-1.24540328979492
 20
91.7189254760742
 30
0.0
 11
-1.76634771974658
 21
88.7645021988673
 31
0.0
  0
LINE
  5
   24A
  8
0
  6
CONTINUOUS
 62
     7
 10
-1.76634771974658
 20
72.1733487532812
 30
0.0
 11
-1.24540328979492
 21
69.2189254760742
 31
0.0
  0
LINE
  5
   24B
  8
0
  6
CONTINUOUS
 62
     7
 10
-1.24540328979492
 20
69.2189254760742
 30
0.0
 11
-0.72445885984326
 21
72.1733487532812
 31
0.0
  0
ENDBLK
  5
   24C
  8
0
  6
CONTINUOUS
 62
     7
  0
BLOCK
  5
   24D
  8
0
  6
CONTINUOUS
 62
     7
  2
*UDIM1667
 70
    65
 10
0.0
 20
0.0
 30
0.0
  3
*UDIM1667
  0
TEXT
  5
   24E
  8
0
  6
CONTINUOUS
 62
     7
 10
4.00852202310435
 20
65.0439254272988
 30
0.0
 40
3.00000002980232
  1
161
 50
449.999999844103
 41
0.933333333333333
 72
     1
 11
2.50852201879025
 21
68.9439254701138
 31
0.0
 73
     2
  0
LINE
  5
   24F
  8
0
  6
CONTINUOUS
 62
     7
 10
10.6517333984375
 20
89.3439254760742
 30
0.0
 11
3.00852203369141
 21
89.3439254760742
 31
0.0
  0
LINE
  5
   250
  8
0
  6
CONTINUOUS
 62
     7
 10
10.6517333984375
 20
49.0939254760742
 30
0.0
 11
3.00852203369141
 21
49.0939254760742
 31
0.0
  0
LINE
  5
   251
  8
0
  6
CONTINUOUS
 62
     7
 10
5.00852203369141
 20
89.3439254760742
 30
0.0
 11
5.00852203369141
 21
49.0939254760742
 31
0.0
  0
LINE
  5
   252
  8
0
  6
CONTINUOUS
 62
     7
 10
5.52946646364307
 20
86.3895021988673
 30
0.0
 11
5.00852203369141
 21
89.3439254760742
 31
0.0
  0
LINE
  5
   253
  8
0
  6
CONTINUOUS
 62
     7
 10
5.00852203369141
 20
89.3439254760742
 30
0.0
 11
4.48757760373974
 21
86.3895021988673
 31
0.0
  0
LINE
  5
   254
  8
0
  6
CONTINUOUS
 62
     7
 10
4.48757760373974
 20
52.0483487532812
 30
0.0
 11
5.00852203369141
 21
49.0939254760742
 31
0.0
  0
LINE
  5
   255
  8
0
  6
CONTINUOUS
 62
     7
 10
5.00852203369141
 20
49.0939254760742
 30
0.0
 11
5.52946646364307
 21
52.0483487532812
 31
0.0
  0
ENDBLK
  5
   256
  8
0
  6
CONTINUOUS
 62
     7
  0
BLOCK
  5
   257
  8
0
  6
CONTINUOUS
 62
     7
  2
*UDIM1668
 70
    65
 10
0.0
 20
0.0
 30
0.0
  3
*UDIM1668
  0
TEXT
  5
   258
  8
0
  6
CONTINUOUS
 62
     7
 10
93.7600860489833
 20
65.0439254272988
 30
0.0
 40
3.00000002980232
  1
177
 50
449.999999844103
 41
0.933333333333333
 72
     1
 11
92.2600860446692
 21
68.9439254701138
 31
0.0
 73
     2
  0
LINE
  5
   259
  8
0
  6
CONTINUOUS
 62
     7
 10
61.9017333984375
 20
91.3439254760742
 30
0.0
 11
96.7600860595703
 21
91.3439254760742
 31
0.0
  0
LINE
  5
   25A
  8
0
  6
CONTINUOUS
 62
     7
 10
61.9017333984375
 20
47.0939254760742
 30
0.0
 11
96.7600860595703
 21
47.0939254760742
 31
0.0
  0
LINE
  5
   25B
  8
0
  6
CONTINUOUS
 62
     7
 10
94.7600860595703
 20
91.3439254760742
 30
0.0
 11
94.7600860595703
 21
47.0939254760742
 31
0.0
  0
LINE
  5
   25C
  8
0
  6
CONTINUOUS
 62
     7
 10
95.281030489522
 20
88.3895021988673
 30
0.0
 11
94.7600860595703
 21
91.3439254760742
 31
0.0
  0
LINE
  5
   25D
  8
0
  6
CONTINUOUS
 62
     7
 10
94.7600860595703
 20
91.3439254760742
 30
0.0
 11
94.2391416296186
 21
88.3895021988673
 31
0.0
  0
LINE
  5
   25E
  8
0
  6
CONTINUOUS
 62
     7
 10
94.2391416296186
 20
50.0483487532812
 30
0.0
 11
94.7600860595703
 21
47.0939254760742
 31
0.0
  0
LINE
  5
   25F
  8
0
  6
CONTINUOUS
 62
     7
 10
94.7600860595703
 20
47.0939254760742
 30
0.0
 11
95.281030489522
 21
50.0483487532812
 31
0.0
  0
ENDBLK
  5
   260
  8
0
  6
CONTINUOUS
 62
     7
  0
BLOCK
  5
   261
  8
0
  6
CONTINUOUS
 62
     7
  2
*UDIM1669
 70
    65
 10
0.0
 20
0.0
 30
0.0
  3
*UDIM1669
  0
TEXT
  5
   262
  8
0
  6
CONTINUOUS
 62
     7
 10
85.8741149872483
 20
78.4677667706222
 30
0.0
 40
3.00000002980232
  1
=
 50
449.999999844103
 41
0.933333333333334
 72
     1
 11
84.3741149753332
 21
79.5677667856216
 31
0.0
 73
     2
  0
LINE
  5
   263
  8
0
  6
CONTINUOUS
 62
     7
 10
61.9017333984375
 20
91.3439254760742
 30
0.0
 11
88.8741149902344
 21
91.3439254760742
 31
0.0
  0
LINE
  5
   264
  8
0
  6
CONTINUOUS
 62
     7
 10
76.2342013910815
 20
69.2189254760742
 30
0.0
 11
88.8741149902344
 21
69.2189254760742
 31
0.0
  0
LINE
  5
   265
  8
0
  6
CONTINUOUS
 62
     7
 10
86.8741149902344
 20
91.3439254760742
 30
0.0
 11
86.8741149902344
 21
69.2189254760742
 31
0.0
  0
LINE
  5
   266
  8
0
  6
CONTINUOUS
 62
     7
 10
87.395059420186
 20
88.3895021988673
 30
0.0
 11
86.8741149902344
 21
91.3439254760742
 31
0.0
  0
LINE
  5
   267
  8
0
  6
CONTINUOUS
 62
     7
 10
86.8741149902344
 20
91.3439254760742
 30
0.0
 11
86.3531705602827
 21
88.3895021988673
 31
0.0
  0
LINE
  5
   268
  8
0
  6
CONTINUOUS
 62
     7
 10
86.3531705602827
 20
72.1733487532812
 30
0.0
 11
86.8741149902344
 21
69.2189254760742
 31
0.0
  0
LINE
  5
   269
  8
0
  6
CONTINUOUS
 62
     7
 10
86.8741149902344
 20
69.2189254760742
 30
0.0
 11
87.395059420186
 21
72.1733487532812
 31
0.0
  0
ENDBLK
  5
   26A
  8
0
  6
CONTINUOUS
 62
     7
  0
BLOCK
  5
   26B
  8
0
  6
CONTINUOUS
 62
     7
  2
*UDIM1670
 70
    65
 10
0.0
 20
0.0
 30
0.0
  3
*UDIM1670
  0
TEXT
  5
   26C
  8
0
  6
CONTINUOUS
 62
     7
 10
85.8741149872483
 20
56.1680526821822
 30
0.0
 40
3.00000002980232
  1
=
 50
449.999999844103
 41
0.933333333333334
 72
     1
 11
84.3741149753332
 21
57.2680526971817
 31
0.0
 73
     2
  0
LINE
  5
   26D
  8
0
  6
CONTINUOUS
 62
     7
 10
61.9017333984375
 20
47.0939254760742
 30
0.0
 11
88.8741149902344
 21
47.0939254760742
 31
0.0
  0
LINE
  5
   26E
  8
0
  6
CONTINUOUS
 62
     7
 10
86.8741149902344
 20
69.2189254760742
 30
0.0
 11
86.8741149902344
 21
47.0939254760742
 31
0.0
  0
LINE
  5
   26F
  8
0
  6
CONTINUOUS
 62
     7
 10
87.395059420186
 20
66.2645021988673
 30
0.0
 11
86.8741149902344
 21
69.2189254760742
 31
0.0
  0
LINE
  5
   270
  8
0
  6
CONTINUOUS
 62
     7
 10
86.8741149902344
 20
69.2189254760742
 30
0.0
 11
86.3531705602827
 21
66.2645021988673
 31
0.0
  0
LINE
  5
   271
  8
0
  6
CONTINUOUS
 62
     7
 10
86.3531705602827
 20
50.0483487532812
 30
0.0
 11
86.8741149902344
 21
47.0939254760742
 31
0.0
  0
LINE
  5
   272
  8
0
  6
CONTINUOUS
 62
     7
 10
86.8741149902344
 20
47.0939254760742
 30
0.0
 11
87.395059420186
 21
50.0483487532812
 31
0.0
  0
ENDBLK
  5
   273
  8
0
  6
CONTINUOUS
 62
     7
  0
BLOCK
  5
   274
  8
0
  6
CONTINUOUS
 62
     7
  2
*UDIM1671
 70
    65
 10
0.0
 20
0.0
 30
0.0
  3
*UDIM1671
  0
TEXT
  5
   275
  8
0
  6
CONTINUOUS
 62
     7
 10
43.6102514237107
 20
72.2189253657073
 30
0.0
 40
3.00000002980232
  1
9
 50
449.999999844103
 41
0.933333333333334
 72
     1
 11
42.1102514117956
 21
73.3189253807068
 31
0.0
 73
     2
  0
LINE
  5
   276
  8
0
  6
CONTINUOUS
 62
     7
 10
63.2767333984375
 20
66.9689254760742
 30
0.0
 11
42.6102514266968
 21
66.9689254760742
 31
0.0
  0
LINE
  5
   277
  8
0
  6
CONTINUOUS
 62
     7
 10
44.6102514266968
 20
74.4189253916343
 30
0.0
 11
44.6102514266968
 21
66.9689254760742
 31
0.0
  0
LINE
  5
   278
  8
0
  6
CONTINUOUS
 62
     7
 10
44.0893069967451
 20
72.1733487532812
 30
0.0
 11
44.6102514266968
 21
69.2189254760742
 31
0.0
  0
LINE
  5
   279
  8
0
  6
CONTINUOUS
 62
     7
 10
44.6102514266968
 20
69.2189254760742
 30
0.0
 11
45.1311958566484
 21
72.1733487532812
 31
0.0
  0
LINE
  5
   27A
  8
0
  6
CONTINUOUS
 62
     7
 10
45.1311958566484
 20
64.0145021988673
 30
0.0
 11
44.6102514266968
 21
66.9689254760742
 31
0.0
  0
LINE
  5
   27B
  8
0
  6
CONTINUOUS
 62
     7
 10
44.6102514266968
 20
66.9689254760742
 30
0.0
 11
44.0893069967451
 21
64.0145021988673
 31
0.0
  0
ENDBLK
  5
   27C
  8
0
  6
CONTINUOUS
 62
     7
  0
BLOCK
  5
   27D
  8
0
  6
CONTINUOUS
 62
     7
  2
*UDIM1672
 70
    65
 10
0.0
 20
0.0
 30
0.0
  3
*UDIM1672
  0
TEXT
  5
   27E
  8
0
  6
CONTINUOUS
 62
     7
 10
43.6102514199102
 20
59.8028188356768
 30
0.0
 40
3.00000002980232
  1
39
 50
449.999999844103
 41
0.933333333333333
 72
     1
 11
42.1102514117956
 21
62.302818864584
 31
0.0
 73
     2
  0
LINE
  5
   27F
  8
0
  6
CONTINUOUS
 62
     7
 10
63.2767333984375
 20
57.2189254760742
 30
0.0
 11
42.6102514266968
 21
57.2189254760742
 31
0.0
  0
LINE
  5
   280
  8
0
  6
CONTINUOUS
 62
     7
 10
44.6102514266968
 20
66.9689254760742
 30
0.0
 11
44.6102514266968
 21
57.2189254760742
 31
0.0
  0
LINE
  5
   281
  8
0
  6
CONTINUOUS
 62
     7
 10
44.0893069967451
 20
69.9233487532812
 30
0.0
 11
44.6102514266968
 21
66.9689254760742
 31
0.0
  0
LINE
  5
   282
  8
0
  6
CONTINUOUS
 62
     7
 10
44.6102514266968
 20
66.9689254760742
 30
0.0
 11
45.1311958566484
 21
69.9233487532812
 31
0.0
  0
LINE
  5
   283
  8
0
  6
CONTINUOUS
 62
     7
 10
45.1311958566484
 20
54.2645021988673
 30
0.0
 11
44.6102514266968
 21
57.2189254760742
 31
0.0
  0
LINE
  5
   284
  8
0
  6
CONTINUOUS
 62
     7
 10
44.6102514266968
 20
57.2189254760742
 30
0.0
 11
44.0893069967451
 21
54.2645021988673
 31
0.0
  0
ENDBLK
  5
   285
  8
0
  6
CONTINUOUS
 62
     7
  0
BLOCK
  5
   286
  8
0
  6
CONTINUOUS
 62
     7
  2
*UDIM1673
 70
    65
 10
0.0
 20
0.0
 30
0.0
  3
*UDIM1673
  0
TEXT
  5
   287
  8
0
  6
CONTINUOUS
 62
     7
 10
44.9767333496602
 20
19.9415550337853
 30
0.0
 40
3.00000002980232
  1
121
 50
359.999999844103
 41
0.933333333333333
 72
     1
 11
48.876733392477
 21
21.4415550380945
 31
0.0
 73
     2
  0
LINE
  5
   288
  8
0
  6
CONTINUOUS
 62
     7
 10
34.0267333984375
 20
38.5477168015402
 30
0.0
 11
34.0267333984375
 21
16.9415550231934
 31
0.0
  0
LINE
  5
   289
  8
0
  6
CONTINUOUS
 62
     7
 10
64.2767333984375
 20
55.4689254760742
 30
0.0
 11
64.2767333984375
 21
16.9415550231934
 31
0.0
  0
LINE
  5
   28A
  8
0
  6
CONTINUOUS
 62
     7
 10
34.0267333984375
 20
18.9415550231934
 30
0.0
 11
64.2767333984375
 21
18.9415550231934
 31
0.0
  0
LINE
  5
   28B
  8
0
  6
CONTINUOUS
 62
     7
 10
36.9811566756445
 20
19.462499453145
 30
0.0
 11
34.0267333984375
 21
18.9415550231934
 31
0.0
  0
LINE
  5
   28C
  8
0
  6
CONTINUOUS
 62
     7
 10
34.0267333984375
 20
18.9415550231934
 30
0.0
 11
36.9811566756445
 21
18.4206105932417
 31
0.0
  0
LINE
  5
   28D
  8
0
  6
CONTINUOUS
 62
     7
 10
61.3223101212305
 20
18.4206105932417
 30
0.0
 11
64.2767333984375
 21
18.9415550231934
 31
0.0
  0
LINE
  5
   28E
  8
0
  6
CONTINUOUS
 62
     7
 10
64.2767333984375
 20
18.9415550231934
 30
0.0
 11
61.3223101212305
 21
19.462499453145
 31
0.0
  0
ENDBLK
  5
   28F
  8
0
  6
CONTINUOUS
 62
     7
  0
BLOCK
  5
   290
  8
0
  6
CONTINUOUS
 62
     7
  2
*UDIM1674
 70
    65
 10
0.0
 20
0.0
 30
0.0
  3
*UDIM1674
  0
TEXT
  5
   291
  8
0
  6
CONTINUOUS
 62
     7
 10
68.8529295632235
 20
38.6318607398219
 30
0.0
 40
3.00000002980232
  1
16
 50
359.999999844103
 41
0.933333333333333
 72
     1
 11
71.3529295921326
 21
40.1318607479334
 31
0.0
 73
     2
  0
LINE
  5
   292
  8
0
  6
CONTINUOUS
 62
     7
 10
62.2767333984375
 20
58.2189254760742
 30
0.0
 11
62.2767333984375
 21
35.6318607330322
 31
0.0
  0
LINE
  5
   293
  8
0
  6
CONTINUOUS
 62
     7
 10
66.2767333984375
 20
58.2189254760742
 30
0.0
 11
66.2767333984375
 21
35.6318607330322
 31
0.0
  0
LINE
  5
   294
  8
0
  6
CONTINUOUS
 62
     7
 10
62.2767333984375
 20
37.6318607330322
 30
0.0
 11
73.8529296169678
 21
37.6318607330322
 31
0.0
  0
LINE
  5
   295
  8
0
  6
CONTINUOUS
 62
     7
 10
59.3223101212305
 20
37.1109163030806
 30
0.0
 11
62.2767333984375
 21
37.6318607330322
 31
0.0
  0
LINE
  5
   296
  8
0
  6
CONTINUOUS
 62
     7
 10
62.2767333984375
 20
37.6318607330322
 30
0.0
 11
59.3223101212305
 21
38.1528051629839
 31
0.0
  0
LINE
  5
   297
  8
0
  6
CONTINUOUS
 62
     7
 10
69.2311566756445
 20
38.1528051629839
 30
0.0
 11
66.2767333984375
 21
37.6318607330322
 31
0.0
  0
LINE
  5
   298
  8
0
  6
CONTINUOUS
 62
     7
 10
66.2767333984375
 20
37.6318607330322
 30
0.0
 11
69.2311566756445
 21
37.1109163030806
 31
0.0
  0
ENDBLK
  5
   299
  8
0
  6
CONTINUOUS
 62
     7
  0
BLOCK
  5
   29A
  8
0
  6
CONTINUOUS
 62
     7
  2
*UDIM1675
 70
    65
 10
0.0
 20
0.0
 30
0.0
  3
*UDIM1675
  0
TEXT
  5
   29B
  8
0
  6
CONTINUOUS
 62
     7
 10
31.9892333218447
 20
25.8738517943195
 30
0.0
 40
3.00000002980232
  1
162,5
 50
359.999999844103
 41
0.933333333333333
 72
     1
 11
38.689233392477
 21
27.3738517910242
 31
0.0
 73
     2
  0
LINE
  5
   29C
  8
0
  6
CONTINUOUS
 62
     7
 10
18.6517333984375
 20
44.4689254760742
 30
0.0
 11
18.6517333984375
 21
22.873851776123
 31
0.0
  0
LINE
  5
   29D
  8
0
  6
CONTINUOUS
 62
     7
 10
59.2767333984375
 20
44.4689254760742
 30
0.0
 11
59.2767333984375
 21
22.873851776123
 31
0.0
  0
LINE
  5
   29E
  8
0
  6
CONTINUOUS
 62
     7
 10
18.6517333984375
 20
24.8738517761231
 30
0.0
 11
59.2767333984375
 21
24.8738517761231
 31
0.0
  0
LINE
  5
   29F
  8
0
  6
CONTINUOUS
 62
     7
 10
21.6061566756445
 20
25.3947962060747
 30
0.0
 11
18.6517333984375
 21
24.8738517761231
 31
0.0
  0
LINE
  5
   2A0
  8
0
  6
CONTINUOUS
 62
     7
 10
18.6517333984375
 20
24.8738517761231
 30
0.0
 11
21.6061566756445
 21
24.3529073461714
 31
0.0
  0
LINE
  5
   2A1
  8
0
  6
CONTINUOUS
 62
     7
 10
56.3223101212305
 20
24.3529073461714
 30
0.0
 11
59.2767333984375
 21
24.8738517761231
 31
0.0
  0
LINE
  5
   2A2
  8
0
  6
CONTINUOUS
 62
     7
 10
59.2767333984375
 20
24.8738517761231
 30
0.0
 11
56.3223101212305
 21
25.3947962060747
 31
0.0
  0
ENDBLK
  5
   2A3
  8
0
  6
CONTINUOUS
 62
     7
  0
BLOCK
  5
   2A4
  8
0
  6
CONTINUOUS
 62
     7
  2
*UDIM1676
 70
    65
 10
0.0
 20
0.0
 30
0.0
  3
*UDIM1676
  0
TEXT
  5
   2A5
  8
0
  6
CONTINUOUS
 62
     7
 10
42.4767333496602
 20
32.520881663424
 30
0.0
 40
3.00000002980232
  1
101
 50
359.999999844103
 41
0.933333333333333
 72
     1
 11
46.376733392477
 21
34.0208816677332
 31
0.0
 73
     2
  0
LINE
  5
   2A6
  8
0
  6
CONTINUOUS
 62
     7
 10
34.0267333984375
 20
38.5477168015402
 30
0.0
 11
34.0267333984375
 21
29.520881652832
 31
0.0
  0
LINE
  5
   2A7
  8
0
  6
CONTINUOUS
 62
     7
 10
59.2767333984375
 20
44.4689254760742
 30
0.0
 11
59.2767333984375
 21
29.520881652832
 31
0.0
  0
LINE
  5
   2A8
  8
0
  6
CONTINUOUS
 62
     7
 10
34.0267333984375
 20
31.520881652832
 30
0.0
 11
59.2767333984375
 21
31.520881652832
 31
0.0
  0
LINE
  5
   2A9
  8
0
  6
CONTINUOUS
 62
     7
 10
36.9811566756445
 20
32.0418260827837
 30
0.0
 11
34.0267333984375
 21
31.520881652832
 31
0.0
  0
LINE
  5
   2AA
  8
0
  6
CONTINUOUS
 62
     7
 10
34.0267333984375
 20
31.520881652832
 30
0.0
 11
36.9811566756445
 21
30.9999372228804
 31
0.0
  0
LINE
  5
   2AB
  8
0
  6
CONTINUOUS
 62
     7
 10
56.3223101212305
 20
30.9999372228804
 30
0.0
 11
59.2767333984375
 21
31.520881652832
 31
0.0
  0
LINE
  5
   2AC
  8
0
  6
CONTINUOUS
 62
     7
 10
59.2767333984375
 20
31.520881652832
 30
0.0
 11
56.3223101212305
 21
32.0418260827837
 31
0.0
  0
ENDBLK
  5
   2AD
  8
0
  6
CONTINUOUS
 62
     7
  0
BLOCK
  5
   2AE
  8
0
  6
CONTINUOUS
 62
     7
  2
*UDIM1677
 70
    65
 10
0.0
 20
0.0
 30
0.0
  3
*UDIM1677
  0
TEXT
  5
   2AF
  8
0
  6
CONTINUOUS
 62
     7
 10
17.1767337092749
 20
39.3108577910236
 30
0.0
 40
3.00000002980232
  1
19,75
 50
359.999999844103
 41
0.933333333333333
 72
     1
 11
23.8767337799072
 21
40.8108577877283
 31
0.0
 73
     2
  0
LINE
  5
   2B0
  8
0
  6
CONTINUOUS
 62
     7
 10
34.0267333984375
 20
38.5477168015402
 30
0.0
 11
34.0267333984375
 21
36.3108577728272
 31
0.0
  0
LINE
  5
   2B1
  8
0
  6
CONTINUOUS
 62
     7
 10
38.9642333984375
 20
44.4689254760742
 30
0.0
 11
38.9642333984375
 21
36.3108577728272
 31
0.0
  0
LINE
  5
   2B2
  8
0
  6
CONTINUOUS
 62
     7
 10
17.1767337133487
 20
38.3108577728271
 30
0.0
 11
38.9642333984375
 21
38.3108577728271
 31
0.0
  0
LINE
  5
   2B3
  8
0
  6
CONTINUOUS
 62
     7
 10
31.0723101212305
 20
37.7899133428755
 30
0.0
 11
34.0267333984375
 21
38.3108577728271
 31
0.0
  0
LINE
  5
   2B4
  8
0
  6
CONTINUOUS
 62
     7
 10
34.0267333984375
 20
38.3108577728271
 30
0.0
 11
31.0723101212305
 21
38.8318022027788
 31
0.0
  0
LINE
  5
   2B5
  8
0
  6
CONTINUOUS
 62
     7
 10
41.9186566756445
 20
38.8318022027788
 30
0.0
 11
38.9642333984375
 21
38.3108577728271
 31
0.0
  0
LINE
  5
   2B6
  8
0
  6
CONTINUOUS
 62
     7
 10
38.9642333984375
 20
38.3108577728271
 30
0.0
 11
41.9186566756445
 21
37.7899133428755
 31
0.0
  0
ENDBLK
  5
   2B7
  8
0
  6
CONTINUOUS
 62
     7
  0
BLOCK
  5
   2B8
  8
0
  6
CONTINUOUS
 62
     7
  2
*UDIM1678
 70
    65
 10
0.0
 20
0.0
 30
0.0
  3
*UDIM1678
  0
TEXT
  5
   2B9
  8
0
  6
CONTINUOUS
 62
     7
 10
28.7267333496602
 20
111.685153971774
 30
0.0
 40
3.00000002980232
  1
170
 50
359.999999844103
 41
0.933333333333333
 72
     1
 11
32.626733392477
 21
113.185153976083
 31
0.0
 73
     2
  0
LINE
  5
   2BA
  8
0
  6
CONTINUOUS
 62
     7
 10
11.6517333984375
 20
90.3439254760742
 30
0.0
 11
11.6517333984375
 21
112.685153961182
 31
0.0
  0
LINE
  5
   2BB
  8
0
  6
CONTINUOUS
 62
     7
 10
54.1517333984375
 20
90.3439254760742
 30
0.0
 11
54.1517333984375
 21
112.685153961182
 31
0.0
  0
LINE
  5
   2BC
  8
0
  6
CONTINUOUS
 62
     7
 10
11.6517333984375
 20
110.685153961182
 30
0.0
 11
54.1517333984375
 21
110.685153961182
 31
0.0
  0
LINE
  5
   2BD
  8
0
  6
CONTINUOUS
 62
     7
 10
14.6061566756445
 20
111.206098391133
 30
0.0
 11
11.6517333984375
 21
110.685153961182
 31
0.0
  0
LINE
  5
   2BE
  8
0
  6
CONTINUOUS
 62
     7
 10
11.6517333984375
 20
110.685153961182
 30
0.0
 11
14.6061566756445
 21
110.16420953123
 31
0.0
  0
LINE
  5
   2BF
  8
0
  6
CONTINUOUS
 62
     7
 10
51.1973101212305
 20
110.16420953123
 30
0.0
 11
54.1517333984375
 21
110.685153961182
 31
0.0
  0
LINE
  5
   2C0
  8
0
  6
CONTINUOUS
 62
     7
 10
54.1517333984375
 20
110.685153961182
 30
0.0
 11
51.1973101212305
 21
111.206098391133
 31
0.0
  0
ENDBLK
  5
   2C1
  8
0
  6
CONTINUOUS
 62
     7
  0
BLOCK
  5
   2C2
  8
0
  6
CONTINUOUS
 62
     7
  2
*UDIM1679
 70
    65
 10
0.0
 20
0.0
 30
0.0
  3
*UDIM1679
  0
TEXT
  5
   2C3
  8
0
  6
CONTINUOUS
 62
     7
 10
38.5142333357524
 20
106.0744896079
 30
0.0
 40
3.00000002980232
  1
80,5
 50
359.999999844103
 41
0.933333333333333
 72
     1
 11
43.814233392477
 21
107.574489608407
 31
0.0
 73
     2
  0
LINE
  5
   2C4
  8
0
  6
CONTINUOUS
 62
     7
 10
34.0267333984375
 20
101.296623390694
 30
0.0
 11
34.0267333984375
 21
107.074489593506
 31
0.0
  0
LINE
  5
   2C5
  8
0
  6
CONTINUOUS
 62
     7
 10
54.1517333984375
 20
90.3439254760742
 30
0.0
 11
54.1517333984375
 21
107.074489593506
 31
0.0
  0
LINE
  5
   2C6
  8
0
  6
CONTINUOUS
 62
     7
 10
34.0267333984375
 20
105.074489593506
 30
0.0
 11
54.1517333984375
 21
105.074489593506
 31
0.0
  0
LINE
  5
   2C7
  8
0
  6
CONTINUOUS
 62
     7
 10
36.9811566756445
 20
105.595434023458
 30
0.0
 11
34.0267333984375
 21
105.074489593506
 31
0.0
  0
LINE
  5
   2C8
  8
0
  6
CONTINUOUS
 62
     7
 10
34.0267333984375
 20
105.074489593506
 30
0.0
 11
36.9811566756445
 21
104.553545163554
 31
0.0
  0
LINE
  5
   2C9
  8
0
  6
CONTINUOUS
 62
     7
 10
51.1973101212305
 20
104.553545163554
 30
0.0
 11
54.1517333984375
 21
105.074489593506
 31
0.0
  0
LINE
  5
   2CA
  8
0
  6
CONTINUOUS
 62
     7
 10
54.1517333984375
 20
105.074489593506
 30
0.0
 11
51.1973101212305
 21
105.595434023458
 31
0.0
  0
ENDBLK
  5
   2CB
  8
0
  6
CONTINUOUS
 62
     7
  0
BLOCK
  5
   2CC
  8
0
  6
CONTINUOUS
 62
     7
  2
*UDIM1680
 70
    65
 10
0.0
 20
0.0
 30
0.0
  3
*UDIM1680
  0
TEXT
  5
   2CD
  8
0
  6
CONTINUOUS
 62
     7
 10
36.8813536772123
 20
100.678243643875
 30
0.0
 40
3.00000002980232
  1
45
 50
359.999999844103
 41
0.933333333333333
 72
     1
 11
39.3813537061214
 21
102.178243651986
 31
0.0
 73
     2
  0
LINE
  5
   2CE
  8
0
  6
CONTINUOUS
 62
     7
 10
33.3392333984375
 20
94.3889254760742
 30
0.0
 11
33.3392333984375
 21
101.678243637085
 31
0.0
  0
LINE
  5
   2CF
  8
0
  6
CONTINUOUS
 62
     7
 10
44.5892333984375
 20
94.3889254760742
 30
0.0
 11
44.5892333984375
 21
101.678243637085
 31
0.0
  0
LINE
  5
   2D0
  8
0
  6
CONTINUOUS
 62
     7
 10
33.3392333984375
 20
99.678243637085
 30
0.0
 11
44.5892333984375
 21
99.678243637085
 31
0.0
  0
LINE
  5
   2D1
  8
0
  6
CONTINUOUS
 62
     7
 10
30.3848101212305
 20
99.1572992071333
 30
0.0
 11
33.3392333984375
 21
99.678243637085
 31
0.0
  0
LINE
  5
   2D2
  8
0
  6
CONTINUOUS
 62
     7
 10
33.3392333984375
 20
99.678243637085
 30
0.0
 11
30.3848101212305
 21
100.199188067037
 31
0.0
  0
LINE
  5
   2D3
  8
0
  6
CONTINUOUS
 62
     7
 10
47.5436566756445
 20
100.199188067037
 30
0.0
 11
44.5892333984375
 21
99.678243637085
 31
0.0
  0
LINE
  5
   2D4
  8
0
  6
CONTINUOUS
 62
     7
 10
44.5892333984375
 20
99.678243637085
 30
0.0
 11
47.5436566756445
 21
99.1572992071333
 31
0.0
  0
ENDBLK
  5
   2D5
  8
0
  6
CONTINUOUS
 62
     7
  0
BLOCK
  5
   2D6
  8
0
  6
CONTINUOUS
 62
     7
  2
*HATCH325
 70
    65
 10
0.0
 20
0.0
 30
0.0
  3
*HATCH325
  0
LINE
  5
   2D7
  8
0
  6
CONTINUOUS
 62
    52
 10
-11.7279224395752
 20
1.0
 30
0.0
 11
-11.9763488769531
 21
0.75157368183136
 31
0.0
  0
LINE
  5
   2D8
  8
0
  6
CONTINUOUS
 62
    52
 10
-9.60660171508789
 20
1.0
 30
0.0
 11
-11.6066026687622
 21
-1.0
 31
0.0
  0
LINE
  5
   2D9
  8
0
  6
CONTINUOUS
 62
    52
 10
-7.48528146743774
 20
1.0
 30
0.0
 11
-9.48528289794922
 21
-1.0
 31
0.0
  0
LINE
  5
   2DA
  8
0
  6
CONTINUOUS
 62
    52
 10
-5.3639612197876
 20
1.0
 30
0.0
 11
-7.36396265029907
 21
-1.0
 31
0.0
  0
LINE
  5
   2DB
  8
0
  6
CONTINUOUS
 62
    52
 10
-3.47947335243225
 20
0.763167560100555
 30
0.0
 11
-5.24264097213745
 21
-1.0
 31
0.0
  0
LINE
  5
   2DC
  8
0
  6
CONTINUOUS
 62
    52
 10
-2.51160907745361
 20
-0.390288293361664
 30
0.0
 11
-3.1213207244873
 21
-1.0
 31
0.0
  0
ENDBLK
  5
   2DD
  8
0
  6
CONTINUOUS
 62
     7
  0
BLOCK
  5
   2DE
  8
0
  6
CONTINUOUS
 62
     7
  2
*HATCH326
 70
    65
 10
0.0
 20
0.0
 30
0.0
  3
*HATCH326
  0
LINE
  5
   2DF
  8
0
  6
CONTINUOUS
 62
    52
 10
5.24264097213745
 20
1.0
 30
0.0
 11
3.24264073371887
 21
-1.0
 31
0.0
  0
LINE
  5
   2E0
  8
0
  6
CONTINUOUS
 62
    52
 10
7.3639612197876
 20
1.0
 30
0.0
 11
5.3639612197876
 21
-1.0
 31
0.0
  0
LINE
  5
   2E1
  8
0
  6
CONTINUOUS
 62
    52
 10
9.48528099060059
 20
1.0
 30
0.0
 11
7.4852819442749
 21
-1.0
 31
0.0
  0
ENDBLK
  5
   2E2
  8
0
  6
CONTINUOUS
 62
     7
  0
BLOCK
  5
   2E3
  8
0
  6
CONTINUOUS
 62
     7
  2
*UDIM1681
 70
    65
 10
0.0
 20
0.0
 30
0.0
  3
*UDIM1681
  0
TEXT
  5
   2E4
  8
0
  6
CONTINUOUS
 62
     7
 10
-112.913744207455
 20
-105.836231304477
 30
0.0
 40
3.00000002980232
  1
80
 50
449.241125536518
 41
0.933333333333333
 72
     1
 11
-114.38050147739
 21
-103.316583852953
 31
0.0
 73
     2
  0
TEXT
  5
   2E5
  8
0
  6
CONTINUOUS
 62
     7
 10
-113.447469241717
 20
-100.828723133031
 30
0.0
 40
3.00000002980232
  1
°
 50
449.241125536518
 41
0.933333333333334
 72
     1
 11
-114.932768770879
 21
-99.708952898824
 31
0.0
 73
     2
  0
LINE
  5
   2E6
  8
0
  6
CONTINUOUS
 62
     7
 10
-129.976173574459
 20
-106.262690668428
 30
0.0
 11
-115.774206408229
 21
-118.179556079604
 31
0.0
  0
LINE
  5
   2E7
  8
0
  6
CONTINUOUS
 62
     7
 10
-129.976173574459
 20
-97.6207169243456
 30
0.0
 11
-115.774206408229
 21
-85.7038515131698
 31
0.0
  0
ARC
  5
   2E8
  8
0
  6
CONTINUOUS
 62
     7
 10
-135.125725202767
 20
-101.941703796387
 30
0.0
 40
23.2616136940404
 50
319.999999815233
 51
399.999999769042
  0
LINE
  5
   2E9
  8
0
  6
CONTINUOUS
 62
     7
 10
-115.806295203847
 20
-114.295904701197
 30
0.0
 11
-117.306295294467
 21
-116.893980860231
 31
0.0
  0
LINE
  5
   2EA
  8
0
  6
CONTINUOUS
 62
     7
 10
-117.306295294467
 20
-116.893980860231
 30
0.0
 11
-115.00816203237
 21
-114.965617951013
 31
0.0
  0
LINE
  5
   2EB
  8
0
  6
CONTINUOUS
 62
     7
 10
-115.00816203237
 20
-88.9177896417605
 30
0.0
 11
-117.306295294467
 21
-86.9894267325428
 31
0.0
  0
LINE
  5
   2EC
  8
0
  6
CONTINUOUS
 62
     7
 10
-117.306295294467
 20
-86.9894267325428
 30
0.0
 11
-115.806295203847
 21
-89.5875028915768
 31
0.0
  0
ENDBLK
  5
   2ED
  8
0
  6
CONTINUOUS
 62
     7
  0
BLOCK
  5
   2EE
  8
0
  6
CONTINUOUS
 62
     7
  2
*UDIM1682
 70
    65
 10
0.0
 20
0.0
 30
0.0
  3
*UDIM1682
  0
TEXT
  5
   2EF
  8
0
  6
CONTINUOUS
 62
     7
 10
-153.18788529121
 20
-96.0566368392099
 30
0.0
 40
3.00000002980232
  1
Ø4
 50
449.999999844103
 41
0.933333333333333
 72
     1
 11
-154.687885299325
 21
-93.5566368103027
 31
0.0
 73
     2
  0
LINE
  5
   2F0
  8
0
  6
CONTINUOUS
 62
     7
 10
-133.742218017578
 20
-99.9417037963867
 30
0.0
 11
-154.187885284424
 21
-99.9417037963867
 31
0.0
  0
LINE
  5
   2F1
  8
0
  6
CONTINUOUS
 62
     7
 10
-133.742218017578
 20
-103.941703796387
 30
0.0
 11
-154.187885284424
 21
-103.941703796387
 31
0.0
  0
LINE
  5
   2F2
  8
0
  6
CONTINUOUS
 62
     7
 10
-152.187885284424
 20
-91.0566367854675
 30
0.0
 11
-152.187885284424
 21
-103.941703796387
 31
0.0
  0
LINE
  5
   2F3
  8
0
  6
CONTINUOUS
 62
     7
 10
-152.708829714376
 20
-96.9872805191798
 30
0.0
 11
-152.187885284424
 21
-99.9417037963867
 31
0.0
  0
LINE
  5
   2F4
  8
0
  6
CONTINUOUS
 62
     7
 10
-152.187885284424
 20
-99.9417037963867
 30
0.0
 11
-151.666940854472
 21
-96.9872805191798
 31
0.0
  0
LINE
  5
   2F5
  8
0
  6
CONTINUOUS
 62
     7
 10
-151.666940854472
 20
-106.896127073594
 30
0.0
 11
-152.187885284424
 21
-103.941703796387
 31
0.0
  0
LINE
  5
   2F6
  8
0
  6
CONTINUOUS
 62
     7
 10
-152.187885284424
 20
-103.941703796387
 30
0.0
 11
-152.708829714376
 21
-106.896127073594
 31
0.0
  0
ENDBLK
  5
   2F7
  8
0
  6
CONTINUOUS
 62
     7
  0
BLOCK
  5
   2F8
  8
0
  6
CONTINUOUS
 62
     7
  2
*UDIM1683
 70
    65
 10
0.0
 20
0.0
 30
0.0
  3
*UDIM1683
  0
TEXT
  5
   2F9
  8
0
  6
CONTINUOUS
 62
     7
 10
-268.730104759945
 20
-79.1799681957657
 30
0.0
 40
3.00000009059906
  1
120,5
 50
449.999999896069
 41
0.933333333333333
 72
     1
 11
-270.230104793134
 21
-72.4799679907163
 31
0.0
 73
     2
  0
LINE
  5
   2FA
  8
0
  6
CONTINUOUS
 62
     7
 10
-247.764547884464
 20
-61.3599675893784
 30
0.0
 11
-269.730104747834
 21
-61.3599675893784
 31
0.0
  0
LINE
  5
   2FB
  8
0
  6
CONTINUOUS
 62
     7
 10
-247.764547884464
 20
-83.0499684512615
 30
0.0
 11
-269.730104747834
 21
-83.0499684512615
 31
0.0
  0
LINE
  5
   2FC
  8
0
  6
CONTINUOUS
 62
     7
 10
-267.730104747834
 20
-61.3599675893784
 30
0.0
 11
-267.730104747834
 21
-83.0499684512615
 31
0.0
  0
LINE
  5
   2FD
  8
0
  6
CONTINUOUS
 62
     7
 10
-267.209160317882
 20
-64.3143908665853
 30
0.0
 11
-267.730104747834
 21
-61.3599675893784
 31
0.0
  0
LINE
  5
   2FE
  8
0
  6
CONTINUOUS
 62
     7
 10
-267.730104747834
 20
-61.3599675893784
 30
0.0
 11
-268.251049177786
 21
-64.3143908665853
 31
0.0
  0
LINE
  5
   2FF
  8
0
  6
CONTINUOUS
 62
     7
 10
-268.251049177786
 20
-80.0955451740546
 30
0.0
 11
-267.730104747834
 21
-83.0499684512615
 31
0.0
  0
LINE
  5
   300
  8
0
  6
CONTINUOUS
 62
     7
 10
-267.730104747834
 20
-83.0499684512615
 30
0.0
 11
-267.209160317882
 21
-80.0955451740546
 31
0.0
  0
ENDBLK
  5
   301
  8
0
  6
CONTINUOUS
 62
     7
  0
BLOCK
  5
   302
  8
0
  6
CONTINUOUS
 62
     7
  2
*UDIM1684
 70
    65
 10
0.0
 20
0.0
 30
0.0
  3
*UDIM1684
  0
TEXT
  5
   303
  8
0
  6
CONTINUOUS
 62
     7
 10
-268.730104757415
 20
-96.8308488109556
 30
0.0
 40
3.00000009059906
  1
92.5
 50
449.999999896069
 41
0.933333333333333
 72
     1
 11
-270.230104793134
 21
-91.5308486481857
 31
0.0
 73
     2
  0
LINE
  5
   304
  8
0
  6
CONTINUOUS
 62
     7
 10
-251.660839251059
 20
-99.7449691146612
 30
0.0
 11
-269.730104747834
 21
-99.7449691146612
 31
0.0
  0
LINE
  5
   305
  8
0
  6
CONTINUOUS
 62
     7
 10
-267.730104747834
 20
-83.0499684512615
 30
0.0
 11
-267.730104747834
 21
-99.7449691146612
 31
0.0
  0
LINE
  5
   306
  8
0
  6
CONTINUOUS
 62
     7
 10
-267.209160317882
 20
-86.0043917284685
 30
0.0
 11
-267.730104747834
 21
-83.0499684512615
 31
0.0
  0
LINE
  5
   307
  8
0
  6
CONTINUOUS
 62
     7
 10
-267.730104747834
 20
-83.0499684512615
 30
0.0
 11
-268.251049177786
 21
-86.0043917284685
 31
0.0
  0
LINE
  5
   308
  8
0
  6
CONTINUOUS
 62
     7
 10
-268.251049177786
 20
-96.7905458374543
 30
0.0
 11
-267.730104747834
 21
-99.7449691146612
 31
0.0
  0
LINE
  5
   309
  8
0
  6
CONTINUOUS
 62
     7
 10
-267.730104747834
 20
-99.7449691146612
 30
0.0
 11
-267.209160317882
 21
-96.7905458374543
 31
0.0
  0
ENDBLK
  5
   30A
  8
0
  6
CONTINUOUS
 62
     7
  0
BLOCK
  5
   30B
  8
0
  6
CONTINUOUS
 62
     7
  2
*UDIM1685
 70
    65
 10
0.0
 20
0.0
 30
0.0
  3
*UDIM1685
  0
TEXT
  5
   30C
  8
0
  6
CONTINUOUS
 62
     7
 10
-268.730104752353
 20
-109.926185261188
 30
0.0
 40
3.00000009059906
  1
76
 50
449.999999896069
 41
0.933333333333333
 72
     1
 11
-270.230104793134
 21
-107.426185182977
 31
0.0
 73
     2
  0
LINE
  5
   30D
  8
0
  6
CONTINUOUS
 62
     7
 10
-247.764547884464
 20
-113.469969660044
 30
0.0
 11
-269.730104747834
 21
-113.469969660044
 31
0.0
  0
LINE
  5
   30E
  8
0
  6
CONTINUOUS
 62
     7
 10
-267.730104747834
 20
-99.7449691146612
 30
0.0
 11
-267.730104747834
 21
-113.469969660044
 31
0.0
  0
LINE
  5
   30F
  8
0
  6
CONTINUOUS
 62
     7
 10
-267.209160317882
 20
-102.699392391868
 30
0.0
 11
-267.730104747834
 21
-99.7449691146612
 31
0.0
  0
LINE
  5
   310
  8
0
  6
CONTINUOUS
 62
     7
 10
-267.730104747834
 20
-99.7449691146612
 30
0.0
 11
-268.251049177786
 21
-102.699392391868
 31
0.0
  0
LINE
  5
   311
  8
0
  6
CONTINUOUS
 62
     7
 10
-268.251049177786
 20
-110.515546382837
 30
0.0
 11
-267.730104747834
 21
-113.469969660044
 31
0.0
  0
LINE
  5
   312
  8
0
  6
CONTINUOUS
 62
     7
 10
-267.730104747834
 20
-113.469969660044
 30
0.0
 11
-267.209160317882
 21
-110.515546382837
 31
0.0
  0
ENDBLK
  5
   313
  8
0
  6
CONTINUOUS
 62
     7
  0
BLOCK
  5
   314
  8
0
  6
CONTINUOUS
 62
     7
  2
*UDIM1686
 70
    65
 10
0.0
 20
0.0
 30
0.0
  3
*UDIM1686
  0
TEXT
  5
   315
  8
0
  6
CONTINUOUS
 62
     7
 10
-268.730104759945
 20
-131.289967519849
 30
0.0
 40
3.00000009059906
  1
120,5
 50
449.999999896069
 41
0.933333333333333
 72
     1
 11
-270.230104793134
 21
-124.5899673148
 31
0.0
 73
     2
  0
LINE
  5
   316
  8
0
  6
CONTINUOUS
 62
     7
 10
-247.764547884464
 20
-135.159970521927
 30
0.0
 11
-269.730104747834
 21
-135.159970521927
 31
0.0
  0
LINE
  5
   317
  8
0
  6
CONTINUOUS
 62
     7
 10
-267.730104747834
 20
-113.469969660044
 30
0.0
 11
-267.730104747834
 21
-135.159970521927
 31
0.0
  0
LINE
  5
   318
  8
0
  6
CONTINUOUS
 62
     7
 10
-267.209160317882
 20
-116.424392937251
 30
0.0
 11
-267.730104747834
 21
-113.469969660044
 31
0.0
  0
LINE
  5
   319
  8
0
  6
CONTINUOUS
 62
     7
 10
-267.730104747834
 20
-113.469969660044
 30
0.0
 11
-268.251049177786
 21
-116.424392937251
 31
0.0
  0
LINE
  5
   31A
  8
0
  6
CONTINUOUS
 62
     7
 10
-268.251049177786
 20
-132.20554724472
 30
0.0
 11
-267.730104747834
 21
-135.159970521927
 31
0.0
  0
LINE
  5
   31B
  8
0
  6
CONTINUOUS
 62
     7
 10
-267.730104747834
 20
-135.159970521927
 30
0.0
 11
-267.209160317882
 21
-132.20554724472
 31
0.0
  0
ENDBLK
  5
   31C
  8
0
  6
CONTINUOUS
 62
     7
  0
BLOCK
  5
   31D
  8
0
  6
CONTINUOUS
 62
     7
  2
*UDIM1687
 70
    65
 10
0.0
 20
0.0
 30
0.0
  3
*UDIM1687
  0
TEXT
  5
   31E
  8
0
  6
CONTINUOUS
 62
     7
 10
-231.679548325828
 20
-72.138814180744
 30
0.0
 40
3.00000009059906
  1
214
 50
359.999999896069
 41
0.933333333333333
 72
     1
 11
-227.779548205336
 21
-70.6388141424992
 31
0.0
 73
     2
  0
LINE
  5
   31F
  8
0
  6
CONTINUOUS
 62
     7
 10
-208.244546353817
 20
-73.1388141877988
 30
0.0
 11
-246.764547884464
 21
-73.1388141877988
 31
0.0
  0
LINE
  5
   320
  8
0
  6
CONTINUOUS
 62
     7
 10
-211.198969631024
 20
-73.6597586177504
 30
0.0
 11
-208.244546353817
 21
-73.1388141877988
 31
0.0
  0
LINE
  5
   321
  8
0
  6
CONTINUOUS
 62
     7
 10
-208.244546353817
 20
-73.1388141877988
 30
0.0
 11
-211.198969631024
 21
-72.6178697578471
 31
0.0
  0
LINE
  5
   322
  8
0
  6
CONTINUOUS
 62
     7
 10
-243.810124607257
 20
-72.6178697578471
 30
0.0
 11
-246.764547884464
 21
-73.1388141877988
 31
0.0
  0
LINE
  5
   323
  8
0
  6
CONTINUOUS
 62
     7
 10
-246.764547884464
 20
-73.1388141877988
 30
0.0
 11
-243.810124607257
 21
-73.6597586177504
 31
0.0
  0
ENDBLK
  5
   324
  8
0
  6
CONTINUOUS
 62
     7
  0
BLOCK
  5
   325
  8
0
  6
CONTINUOUS
 62
     7
  2
*UDIM1688
 70
    65
 10
0.0
 20
0.0
 30
0.0
  3
*UDIM1688
  0
TEXT
  5
   326
  8
0
  6
CONTINUOUS
 62
     7
 10
-203.801323298181
 20
-106.895444990852
 30
0.0
 40
3.00000009059906
  1
8,5
 50
365.959648461357
 41
0.933333333333333
 72
     1
 11
-200.078143695814
 21
-104.998622726354
 31
0.0
 73
     2
  0
TEXT
  5
   327
  8
0
  6
CONTINUOUS
 62
     7
 10
-206.93429843507
 20
-107.222503296204
 30
0.0
 40
3.00000009059906
  1
Ø
 50
365.959648461357
 41
0.933333333333333
 72
     1
 11
-205.995985657946
 21
-105.616399519586
 31
0.0
 73
     2
  0
TEXT
  5
   328
  8
0
  6
CONTINUOUS
 62
     7
 10
-195.496452593947
 20
-106.028480909211
 30
0.0
 40
3.00000009059906
  1
 - M8
 50
365.959648461357
 41
0.933333333333333
 72
     1
 11
-188.988406166338
 21
-103.840940156834
 31
0.0
 73
     2
  0
LINE
  5
   329
  8
0
  6
CONTINUOUS
 62
     7
 10
-182.065047613083
 20
-105.631780540816
 30
0.0
 11
-215.665412026042
 21
-109.13939793095
 31
0.0
  0
LINE
  5
   32A
  8
0
  6
CONTINUOUS
 62
     7
 10
-211.259314443954
 20
-108.155660226759
 30
0.0
 11
-214.143681210881
 21
-108.980541038662
 31
0.0
  0
LINE
  5
   32B
  8
0
  6
CONTINUOUS
 62
     7
 10
-214.143681210881
 20
-108.980541038662
 30
0.0
 11
-211.1511371761
 21
-109.19191795296
 31
0.0
  0
LINE
  5
   32C
  8
0
  6
CONTINUOUS
 62
     7
 10
-218.549778792969
 20
-109.964278742853
 30
0.0
 11
-215.665412026042
 21
-109.13939793095
 31
0.0
  0
LINE
  5
   32D
  8
0
  6
CONTINUOUS
 62
     7
 10
-215.665412026042
 20
-109.13939793095
 30
0.0
 11
-218.657956060823
 21
-108.928021016652
 31
0.0
  0
ENDBLK
  5
   32E
  8
0
  6
CONTINUOUS
 62
     7
  0
BLOCK
  5
   32F
  8
0
  6
CONTINUOUS
 62
     7
  2
*UDIM1689
 70
    65
 10
0.0
 20
0.0
 30
0.0
  3
*UDIM1689
  0
TEXT
  5
   330
  8
0
  6
CONTINUOUS
 62
     7
 10
-258.99292724394
 20
-102.434970348169
 30
0.0
 40
3.00000009059906
  1
120
 50
449.999999896069
 41
0.933333333333333
 72
     1
 11
-260.49292728219
 21
-98.5349702276787
 31
0.0
 73
     2
  0
LINE
  5
   331
  8
0
  6
CONTINUOUS
 62
     7
 10
-243.669547721744
 20
-87.4599686264992
 30
0.0
 11
-259.99292723689
 21
-87.4599686264992
 31
0.0
  0
LINE
  5
   332
  8
0
  6
CONTINUOUS
 62
     7
 10
-243.669547721744
 20
-109.059969484806
 30
0.0
 11
-259.99292723689
 21
-109.059969484806
 31
0.0
  0
LINE
  5
   333
  8
0
  6
CONTINUOUS
 62
     7
 10
-257.99292723689
 20
-87.4599686264992
 30
0.0
 11
-257.99292723689
 21
-109.059969484806
 31
0.0
  0
LINE
  5
   334
  8
0
  6
CONTINUOUS
 62
     7
 10
-257.471982806938
 20
-90.4143919037062
 30
0.0
 11
-257.99292723689
 21
-87.4599686264992
 31
0.0
  0
LINE
  5
   335
  8
0
  6
CONTINUOUS
 62
     7
 10
-257.99292723689
 20
-87.4599686264992
 30
0.0
 11
-258.513871666842
 21
-90.4143919037062
 31
0.0
  0
LINE
  5
   336
  8
0
  6
CONTINUOUS
 62
     7
 10
-258.513871666842
 20
-106.105546207599
 30
0.0
 11
-257.99292723689
 21
-109.059969484806
 31
0.0
  0
LINE
  5
   337
  8
0
  6
CONTINUOUS
 62
     7
 10
-257.99292723689
 20
-109.059969484806
 30
0.0
 11
-257.471982806938
 21
-106.105546207599
 31
0.0
  0
ENDBLK
  5
   338
  8
0
  6
CONTINUOUS
 62
     7
  0
BLOCK
  5
   339
  8
0
  6
CONTINUOUS
 62
     7
  2
*UDIM1690
 70
    65
 10
0.0
 20
0.0
 30
0.0
  3
*UDIM1690
  0
TEXT
  5
   33A
  8
0
  6
CONTINUOUS
 62
     7
 10
-254.710522293678
 20
-84.5599693656062
 30
0.0
 40
3.00000009059906
  1
68,25
 50
449.999999896069
 41
0.933333333333333
 72
     1
 11
-256.210522326866
 21
-77.8599691605568
 31
0.0
 73
     2
  0
LINE
  5
   33B
  8
0
  6
CONTINUOUS
 62
     7
 10
-218.469546720386
 20
-87.4599686264992
 30
0.0
 11
-255.710522281566
 21
-87.4599686264992
 31
0.0
  0
LINE
  5
   33C
  8
0
  6
CONTINUOUS
 62
     7
 10
-251.660839251059
 20
-99.7449691146612
 30
0.0
 11
-255.710522281566
 21
-99.7449691146612
 31
0.0
  0
LINE
  5
   33D
  8
0
  6
CONTINUOUS
 62
     7
 10
-253.710522281566
 20
-71.1599689582189
 30
0.0
 11
-253.710522281566
 21
-99.7449691146612
 31
0.0
  0
LINE
  5
   33E
  8
0
  6
CONTINUOUS
 62
     7
 10
-253.189577851615
 20
-90.4143919037062
 30
0.0
 11
-253.710522281566
 21
-87.4599686264992
 31
0.0
  0
LINE
  5
   33F
  8
0
  6
CONTINUOUS
 62
     7
 10
-253.710522281566
 20
-87.4599686264992
 30
0.0
 11
-254.231466711518
 21
-90.4143919037062
 31
0.0
  0
LINE
  5
   340
  8
0
  6
CONTINUOUS
 62
     7
 10
-254.231466711518
 20
-96.7905458374543
 30
0.0
 11
-253.710522281566
 21
-99.7449691146612
 31
0.0
  0
LINE
  5
   341
  8
0
  6
CONTINUOUS
 62
     7
 10
-253.710522281566
 20
-99.7449691146612
 30
0.0
 11
-253.189577851615
 21
-96.7905458374543
 31
0.0
  0
ENDBLK
  5
   342
  8
0
  6
CONTINUOUS
 62
     7
  0
BLOCK
  5
   343
  8
0
  6
CONTINUOUS
 62
     7
  2
*UDIM1691
 70
    65
 10
0.0
 20
0.0
 30
0.0
  3
*UDIM1691
  0
TEXT
  5
   344
  8
0
  6
CONTINUOUS
 62
     7
 10
-231.679548325828
 20
-120.130836809211
 30
0.0
 40
3.00000009059906
  1
140
 50
359.999999896069
 41
0.933333333333333
 72
     1
 11
-227.779548205336
 21
-118.630836770966
 31
0.0
 73
     2
  0
LINE
  5
   345
  8
0
  6
CONTINUOUS
 62
     7
 10
-214.904546618462
 20
-111.164100870635
 30
0.0
 11
-214.904546618462
 21
-123.130836816266
 31
0.0
  0
LINE
  5
   346
  8
0
  6
CONTINUOUS
 62
     7
 10
-240.10454761982
 20
-95.1199688911438
 30
0.0
 11
-240.10454761982
 21
-123.130836816266
 31
0.0
  0
LINE
  5
   347
  8
0
  6
CONTINUOUS
 62
     7
 10
-214.904546618462
 20
-121.130836816266
 30
0.0
 11
-240.10454761982
 21
-121.130836816266
 31
0.0
  0
LINE
  5
   348
  8
0
  6
CONTINUOUS
 62
     7
 10
-217.858969895669
 20
-121.651781246218
 30
0.0
 11
-214.904546618462
 21
-121.130836816266
 31
0.0
  0
LINE
  5
   349
  8
0
  6
CONTINUOUS
 62
     7
 10
-214.904546618462
 20
-121.130836816266
 30
0.0
 11
-217.858969895669
 21
-120.609892386314
 31
0.0
  0
LINE
  5
   34A
  8
0
  6
CONTINUOUS
 62
     7
 10
-237.150124342613
 20
-120.609892386314
 30
0.0
 11
-240.10454761982
 21
-121.130836816266
 31
0.0
  0
LINE
  5
   34B
  8
0
  6
CONTINUOUS
 62
     7
 10
-240.10454761982
 20
-121.130836816266
 30
0.0
 11
-237.150124342613
 21
-121.651781246218
 31
0.0
  0
ENDBLK
  5
   34C
  8
0
  6
CONTINUOUS
 62
     7
  0
ENDSEC
  0
SECTION
  2
ENTITIES
  0
LINE
  5
   34D
  8
0
  6
CONTINUOUS
 62
   253
 10
-243.910495456616
 20
25.8426757466264
 30
0.0
 11
-243.910509189526
 21
27.0426838051747
 31
0.0
  0
LINE
  5
   34E
  8
0
  6
CONTINUOUS
 62
   253
 10
-239.739593049543
 20
23.7426745189085
 30
0.0
 11
-239.71050903349
 21
23.7426750911131
 31
0.0
  0
LINE
  5
   34F
  8
0
  6
CONTINUOUS
 62
   253
 10
-243.910509189526
 20
22.5426767594732
 30
0.0
 11
-243.910495456616
 21
23.74267222952
 31
0.0
  0
LINE
  5
   350
  8
0
  6
CONTINUOUS
 62
   253
 10
-193.360524556645
 20
22.5426412927766
 30
0.0
 11
-193.960525581845
 21
22.5426790582829
 31
0.0
  0
LINE
  5
   351
  8
0
  6
CONTINUOUS
 62
   253
 10
-206.560530591011
 20
22.5426791433512
 30
0.0
 11
-242.410511416196
 21
22.5426791433512
 31
0.0
  0
LINE
  5
   352
  8
0
  6
CONTINUOUS
 62
   253
 10
-175.96052479744
 20
64.5426875829699
 30
0.0
 11
-243.910508543252
 21
64.5426875829699
 31
0.0
  0
LINE
  5
   353
  8
0
  6
CONTINUOUS
 62
   253
 10
-175.96052479744
 20
22.5425909281356
 30
0.0
 11
-205.060535174189
 21
22.5426751408356
 31
0.0
  0
LINE
  5
   354
  8
0
  6
CONTINUOUS
 62
   253
 10
-205.660512244701
 20
54.9426894903186
 30
0.0
 11
-243.910509186982
 21
54.9426894903186
 31
0.0
  0
LINE
  5
   355
  8
0
  6
CONTINUOUS
 62
   253
 10
-205.660511100292
 20
45.94267539978
 30
0.0
 11
-216.01051723361
 21
45.94267539978
 31
0.0
  0
LINE
  5
   356
  8
0
  6
CONTINUOUS
 62
   253
 10
-243.910495454072
 20
23.7426722288128
 30
0.0
 11
-243.910495454072
 21
25.842675745487
 31
0.0
  0
LINE
  5
   357
  8
0
  6
CONTINUOUS
 62
   253
 10
-243.910509186982
 20
54.9426894903186
 30
0.0
 11
-243.910509186982
 21
64.5426875829699
 31
0.0
  0
LINE
  5
   358
  8
0
  6
CONTINUOUS
 62
   253
 10
-213.235530355325
 20
23.7426905393715
 30
0.0
 11
-205.660526048974
 21
23.742704272282
 31
0.0
  0
LINE
  5
   359
  8
0
  6
CONTINUOUS
 62
   253
 10
-214.435530331735
 20
23.7426957861964
 30
0.0
 11
-225.498012460771
 21
23.7426957861964
 31
0.0
  0
LINE
  5
   35A
  8
0
  6
CONTINUOUS
 62
   253
 10
-226.698013080665
 20
23.7426970185605
 30
0.0
 11
-242.710477095849
 21
23.7426970185605
 31
0.0
  0
LINE
  5
   35B
  8
0
  6
CONTINUOUS
 62
   253
 10
-226.698010791847
 20
25.092699933226
 30
0.0
 11
-242.710474807031
 21
25.092699933226
 31
0.0
  0
LINE
  5
   35C
  8
0
  6
CONTINUOUS
 62
   253
 10
-214.43552975953
 20
25.0926998452733
 30
0.0
 11
-225.498010744157
 21
25.0926998452733
 31
0.0
  0
LINE
  5
   35D
  8
0
  6
CONTINUOUS
 62
   253
 10
-205.660526049137
 20
25.0927001561847
 30
0.0
 11
-213.235529783369
 21
25.0927001561847
 31
0.0
  0
LINE
  5
   35E
  8
0
  6
CONTINUOUS
 62
   253
 10
-242.710477095895
 20
23.7426728010364
 30
0.0
 11
-242.710474807076
 21
25.0926757157036
 31
0.0
  0
LINE
  5
   35F
  8
0
  6
CONTINUOUS
 62
   253
 10
-205.660526049137
 20
23.7427042722711
 30
0.0
 11
-205.660526049137
 21
25.0926997482784
 31
0.0
  0
LINE
  5
   360
  8
0
  6
CONTINUOUS
 62
   253
 10
-213.23553028405
 20
23.7426905393661
 30
0.0
 11
-213.235529139641
 21
25.0927003204887
 31
0.0
  0
LINE
  5
   361
  8
0
  6
CONTINUOUS
 62
   253
 10
-214.435530331734
 20
23.7426899671605
 30
0.0
 11
-214.435529187325
 21
25.0927003204878
 31
0.0
  0
LINE
  5
   362
  8
0
  6
CONTINUOUS
 62
   253
 10
-225.498013033002
 20
23.7426831007233
 30
0.0
 11
-225.498010744183
 21
25.0926934540505
 31
0.0
  0
LINE
  5
   363
  8
0
  6
CONTINUOUS
 62
   253
 10
-226.698013080687
 20
23.7426831007194
 30
0.0
 11
-226.698010791869
 21
25.0926923096374
 31
0.0
  0
LINE
  5
   364
  8
0
  6
CONTINUOUS
 62
   253
 10
-234.310508805513
 20
21.3426789999007
 30
0.0
 11
-234.310508805513
 21
22.5426790475844
 31
0.0
  0
LINE
  5
   365
  8
0
  6
CONTINUOUS
 62
   253
 10
-233.110508757829
 20
21.3426789999007
 30
0.0
 11
-233.110508757829
 21
22.5426790475844
 31
0.0
  0
LINE
  5
   366
  8
0
  6
CONTINUOUS
 62
   253
 10
-233.110508757829
 20
21.3426789999007
 30
0.0
 11
-234.310508805513
 21
21.3426789999007
 31
0.0
  0
LINE
  5
   367
  8
0
  6
CONTINUOUS
 62
   253
 10
-209.185508093237
 20
21.3426950216299
 30
0.0
 11
-209.185508093237
 21
22.5426750421522
 31
0.0
  0
LINE
  5
   368
  8
0
  6
CONTINUOUS
 62
   253
 10
-207.985507759451
 20
21.3426950216299
 30
0.0
 11
-207.985507759451
 21
22.5426744699475
 31
0.0
  0
LINE
  5
   369
  8
0
  6
CONTINUOUS
 62
   253
 10
-207.985507759451
 20
21.3426950216299
 30
0.0
 11
-209.185508093237
 21
21.3426950216299
 31
0.0
  0
LINE
  5
   36A
  8
0
  6
CONTINUOUS
 62
   253
 10
-242.410509127378
 20
21.11767899096
 30
0.0
 11
-242.410509127378
 21
21.8676790207624
 31
0.0
  0
LINE
  5
   36B
  8
0
  6
CONTINUOUS
 62
   253
 10
-243.910509186982
 20
21.11767899096
 30
0.0
 11
-243.910509186982
 21
22.542676758766
 31
0.0
  0
LINE
  5
   36C
  8
0
  6
CONTINUOUS
 62
   253
 10
-242.410509127378
 20
21.11767899096
 30
0.0
 11
-243.910509186982
 21
21.11767899096
 31
0.0
  0
LINE
  5
   36D
  8
0
  6
CONTINUOUS
 62
   253
 10
-242.410509127378
 20
21.8676790207624
 30
0.0
 11
-242.410509127378
 21
22.5426790475844
 31
0.0
  0
LINE
  5
   36E
  8
0
  6
CONTINUOUS
 62
   253
 10
-206.560535168648
 20
21.11767899096
 30
0.0
 11
-206.560535168648
 21
21.8676790207624
 31
0.0
  0
LINE
  5
   36F
  8
0
  6
CONTINUOUS
 62
   253
 10
-205.060535174189
 20
21.11767899096
 30
0.0
 11
-206.560535233793
 21
21.11767899096
 31
0.0
  0
LINE
  5
   370
  8
0
  6
CONTINUOUS
 62
   253
 10
-193.960534733114
 20
21.1176789911241
 30
0.0
 11
-193.960525577841
 21
22.5426790477485
 31
0.0
  0
LINE
  5
   371
  8
0
  6
CONTINUOUS
 62
   253
 10
-206.560535168683
 20
21.8676790209797
 30
0.0
 11
-206.560530591046
 21
22.5426744701649
 31
0.0
  0
LINE
  5
   372
  8
0
  6
CONTINUOUS
 62
   253
 10
-243.910509186982
 20
27.0426838040353
 30
0.0
 11
-243.910509186982
 21
45.9426822662354
 31
0.0
  0
LINE
  5
   373
  8
0
  6
CONTINUOUS
 62
   253
 10
-216.010517233611
 20
45.9426799774171
 30
0.0
 11
-232.810508745909
 21
45.9426822662356
 31
0.0
  0
LINE
  5
   374
  8
0
  6
CONTINUOUS
 62
   253
 10
-205.660511100292
 20
45.9426753997805
 30
0.0
 11
-205.660512244701
 21
54.942689490319
 31
0.0
  0
LINE
  5
   375
  8
0
  6
CONTINUOUS
 62
   253
 10
-228.160508561134
 20
54.7926894843581
 30
0.0
 11
-228.160508561134
 21
54.9426894903186
 31
0.0
  0
LINE
  5
   376
  8
0
  6
CONTINUOUS
 62
   253
 10
-205.660525977612
 20
60.5676923652314
 30
0.0
 11
-213.235529711843
 21
60.5676923652314
 31
0.0
  0
LINE
  5
   377
  8
0
  6
CONTINUOUS
 62
   253
 10
-213.235529711843
 20
58.3926873385908
 30
0.0
 11
-213.235529711843
 21
60.5676874250175
 31
0.0
  0
LINE
  5
   378
  8
0
  6
CONTINUOUS
 62
   253
 10
-205.660526049137
 20
58.3926922788051
 30
0.0
 11
-213.235529783368
 21
58.3926922788051
 31
0.0
  0
LINE
  5
   379
  8
0
  6
CONTINUOUS
 62
   253
 10
-205.660526049137
 20
58.3926919162278
 30
0.0
 11
-205.660525977612
 21
60.5676920026545
 31
0.0
  0
LINE
  5
   37A
  8
0
  6
CONTINUOUS
 62
   253
 10
-226.698013080656
 20
58.3926873385908
 30
0.0
 11
-226.698013080656
 21
60.5676874250175
 31
0.0
  0
LINE
  5
   37B
  8
0
  6
CONTINUOUS
 62
   253
 10
-214.435530331731
 20
58.3926873385908
 30
0.0
 11
-226.698012508451
 21
58.3926873385908
 31
0.0
  0
LINE
  5
   37C
  8
0
  6
CONTINUOUS
 62
   253
 10
-214.435530331731
 20
58.3926873385908
 30
0.0
 11
-214.435530331731
 21
60.5676874250175
 31
0.0
  0
LINE
  5
   37D
  8
0
  6
CONTINUOUS
 62
   253
 10
-214.435530331731
 20
60.5676874250175
 30
0.0
 11
-226.698012508451
 21
60.5676874250175
 31
0.0
  0
LINE
  5
   37E
  8
0
  6
CONTINUOUS
 62
   253
 10
-227.89801312834
 20
58.3926919162277
 30
0.0
 11
-242.710509139299
 21
58.3926919162277
 31
0.0
  0
LINE
  5
   37F
  8
0
  6
CONTINUOUS
 62
   253
 10
-227.89801312834
 20
58.3926919162277
 30
0.0
 11
-227.89801312834
 21
60.5676920026544
 31
0.0
  0
LINE
  5
   380
  8
0
  6
CONTINUOUS
 62
   253
 10
-227.89801312834
 20
60.5676920026544
 30
0.0
 11
-242.710509139299
 21
60.5676920026544
 31
0.0
  0
LINE
  5
   381
  8
0
  6
CONTINUOUS
 62
   253
 10
-242.710509139299
 20
58.3926919162277
 30
0.0
 11
-242.710509139299
 21
60.5676920026544
 31
0.0
  0
LINE
  5
   382
  8
0
  6
CONTINUOUS
 62
   253
 10
-242.710392409612
 20
23.7426647901718
 30
0.0
 11
-242.710390120793
 21
25.0926757157036
 31
0.0
  0
LINE
  5
   383
  8
0
  6
CONTINUOUS
 62
   253
 10
-243.910509186982
 20
22.542676758766
 30
0.0
 11
-243.910509186982
 21
22.8426819205284
 31
0.0
  0
LINE
  5
   384
  8
0
  6
CONTINUOUS
 62
   253
 10
-193.360528063617
 20
22.5426412827897
 30
0.0
 11
-193.960525584063
 21
22.5426510102679
 31
0.0
  0
LINE
  5
   385
  8
0
  6
CONTINUOUS
 62
   253
 10
-213.219912531352
 20
23.7426848173143
 30
0.0
 11
-213.219912531352
 21
25.0926945984369
 31
0.0
  0
LINE
  5
   386
  8
0
  6
CONTINUOUS
 62
   253
 10
-214.435895970478
 20
23.7426710844036
 30
0.0
 11
-214.435895970478
 21
25.0926940262323
 31
0.0
  0
LINE
  5
   387
  8
0
  6
CONTINUOUS
 62
   253
 10
-230.410526961088
 20
35.3676704019304
 30
0.0
 11
-234.460508811473
 21
35.3676704019304
 31
0.0
  0
LINE
  5
   388
  8
0
  6
CONTINUOUS
 62
   253
 10
-230.410526961088
 20
32.2176702767606
 30
0.0
 11
-234.460508811473
 21
32.2176702767606
 31
0.0
  0
LINE
  5
   389
  8
0
  6
CONTINUOUS
 62
   253
 10
-234.460508811473
 20
32.2176702767606
 30
0.0
 11
-234.460508811473
 21
35.3676704019304
 31
0.0
  0
LINE
  5
   38A
  8
0
  6
CONTINUOUS
 62
   253
 10
-230.410526961088
 20
32.2176702767606
 30
0.0
 11
-230.410526961088
 21
35.3676704019304
 31
0.0
  0
LINE
  5
   38B
  8
0
  6
CONTINUOUS
 62
   132
 10
-221.110508280992
 20
54.7926894843581
 30
0.0
 11
-243.910509186982
 21
54.7926894843581
 31
0.0
  0
LINE
  5
   38C
  8
0
  6
CONTINUOUS
 62
   132
 10
-232.81050874591
 20
45.9426799774175
 30
0.0
 11
-243.910509186984
 21
45.942682266236
 31
0.0
  0
LINE
  5
   38D
  8
0
  6
CONTINUOUS
 62
   132
 10
-221.110508280992
 20
45.94267539978
 30
0.0
 11
-221.110508280992
 21
54.7926894843581
 31
0.0
  0
LINE
  5
   38E
  8
0
  6
CONTINUOUS
 62
   132
 10
-243.910509186982
 20
45.9426822662354
 30
0.0
 11
-243.910509186982
 21
54.7926894843581
 31
0.0
  0
LINE
  5
   38F
  8
0
  6
CONTINUOUS
 62
     7
 10
-171.610524624586
 20
102.34268450737
 30
0.0
 11
-193.960525512695
 21
102.34268450737
 31
0.0
  0
LINE
  5
   390
  8
0
  6
CONTINUOUS
 62
     7
 10
-171.610524624586
 20
67.3926831185818
 30
0.0
 11
-171.610524624586
 21
102.34268450737
 31
0.0
  0
LINE
  5
   391
  8
0
  6
CONTINUOUS
 62
     7
 10
-171.610524624586
 20
67.3926831185818
 30
0.0
 11
-174.760524749756
 21
67.3926831185818
 31
0.0
  0
LINE
  5
   392
  8
0
  6
CONTINUOUS
 62
     7
 10
-171.610524624586
 20
15.4926810562611
 30
0.0
 11
-174.760524749756
 21
15.4926810562611
 31
0.0
  0
LINE
  5
   393
  8
0
  6
CONTINUOUS
 62
     7
 10
-171.610524624586
 20
-19.4573203325272
 30
0.0
 11
-171.610524624586
 21
15.4926810562611
 31
0.0
  0
LINE
  5
   394
  8
0
  6
CONTINUOUS
 62
     7
 10
-171.610524624586
 20
-19.4573203325272
 30
0.0
 11
-193.960525512695
 21
-19.4573203325272
 31
0.0
  0
LINE
  5
   395
  8
0
  6
CONTINUOUS
 62
     7
 10
-193.960525512695
 20
-19.4573203325272
 30
0.0
 11
-193.960525512695
 21
21.1176812797785
 31
0.0
  0
LINE
  5
   396
  8
0
  6
CONTINUOUS
 62
     7
 10
-193.960525512695
 20
64.542683005333
 30
0.0
 11
-193.960525512695
 21
102.34268450737
 31
0.0
  0
LINE
  5
   397
  8
0
  6
CONTINUOUS
 62
     7
 10
-166.51052442193
 20
73.2426833510399
 30
0.0
 11
-171.610524624586
 21
73.2426833510399
 31
0.0
  0
LINE
  5
   398
  8
0
  6
CONTINUOUS
 62
     7
 10
-166.51052442193
 20
90.6426840424538
 30
0.0
 11
-171.610524624586
 21
90.6426840424538
 31
0.0
  0
LINE
  5
   399
  8
0
  6
CONTINUOUS
 62
     7
 10
-166.51052442193
 20
73.2426833510399
 30
0.0
 11
-166.51052442193
 21
90.6426840424538
 31
0.0
  0
LINE
  5
   39A
  8
0
  6
CONTINUOUS
 62
     7
 10
-166.51052442193
 20
9.64268082380295
 30
0.0
 11
-171.610524624586
 21
9.64268082380295
 31
0.0
  0
LINE
  5
   39B
  8
0
  6
CONTINUOUS
 62
     7
 10
-166.51052442193
 20
-7.75731986761093
 30
0.0
 11
-171.610524624586
 21
-7.75731986761093
 31
0.0
  0
LINE
  5
   39C
  8
0
  6
CONTINUOUS
 62
     7
 10
-166.51052442193
 20
-7.75731986761093
 30
0.0
 11
-166.51052442193
 21
9.64268082380295
 31
0.0
  0
LINE
  5
   39D
  8
0
  6
CONTINUOUS
 62
   152
 10
-235.510527163744
 20
64.5426875829699
 30
0.0
 11
-235.510527163744
 21
102.34268450737
 31
0.0
  0
LINE
  5
   39E
  8
0
  6
CONTINUOUS
 62
     1
 10
-194.410525530577
 20
102.34268450737
 30
0.0
 11
-232.510527044535
 21
102.34268450737
 31
0.0
  0
LINE
  5
   39F
  8
0
  6
CONTINUOUS
 62
   152
 10
-194.410525530577
 20
64.542683005333
 30
0.0
 11
-194.410525530577
 21
102.34268450737
 31
0.0
  0
LINE
  5
   3A0
  8
0
  6
CONTINUOUS
 62
   152
 10
-194.410525530577
 20
17.9526810967922
 30
0.0
 11
-194.410525530577
 21
22.5426443207068
 31
0.0
  0
LINE
  5
   3A1
  8
0
  6
CONTINUOUS
 62
   152
 10
-193.960525512695
 20
17.9526811683178
 30
0.0
 11
-194.410525530577
 21
17.9526811683178
 31
0.0
  0
LINE
  5
   3A2
  8
0
  6
CONTINUOUS
 62
   152
 10
-193.960525512695
 20
2.29268053174019
 30
0.0
 11
-194.410525530577
 21
2.29268053174019
 31
0.0
  0
LINE
  5
   3A3
  8
0
  6
CONTINUOUS
 62
   152
 10
-194.410525530577
 20
-19.4573203325272
 30
0.0
 11
-194.410525530577
 21
2.29268053174019
 31
0.0
  0
LINE
  5
   3A4
  8
0
  6
CONTINUOUS
 62
     1
 10
-194.410525530577
 20
-19.4573203325272
 30
0.0
 11
-232.510527044535
 21
-19.4573203325272
 31
0.0
  0
LINE
  5
   3A5
  8
0
  6
CONTINUOUS
 62
   152
 10
-235.510527163744
 20
-19.4573203325272
 30
0.0
 11
-235.510527163744
 21
14.2926832973958
 31
0.0
  0
LINE
  5
   3A6
  8
0
  6
CONTINUOUS
 62
   152
 10
-235.510527163744
 20
14.5926810204983
 30
0.0
 11
-235.510527163744
 21
21.4926767170427
 31
0.0
  0
LINE
  5
   3A7
  8
0
  6
CONTINUOUS
 62
   152
 10
-235.960527181642
 20
21.4926764309413
 30
0.0
 11
-235.510527163761
 21
21.4926767170436
 31
0.0
  0
LINE
  5
   3A8
  8
0
  6
CONTINUOUS
 62
   152
 10
-235.960523138397
 20
21.4926754206565
 30
0.0
 11
-236.066586982692
 21
21.5366092908753
 31
0.0
  0
LINE
  5
   3A9
  8
0
  6
CONTINUOUS
 62
   152
 10
-236.066592285804
 20
21.5366108822135
 30
0.0
 11
-236.110528445004
 21
21.6426770200611
 31
0.0
  0
LINE
  5
   3AA
  8
0
  6
CONTINUOUS
 62
   152
 10
-235.210527151823
 20
14.5926810204983
 30
0.0
 11
-235.510527163744
 21
14.5926810204983
 31
0.0
  0
LINE
  5
   3AB
  8
0
  6
CONTINUOUS
 62
   152
 10
-235.210527151823
 20
14.2926832973958
 30
0.0
 11
-235.210527151823
 21
14.5926810204983
 31
0.0
  0
LINE
  5
   3AC
  8
0
  6
CONTINUOUS
 62
   152
 10
-235.210527151823
 20
14.2926832973958
 30
0.0
 11
-235.510527163744
 21
14.2926832973958
 31
0.0
  0
LINE
  5
   3AD
  8
0
  6
CONTINUOUS
 62
   152
 10
-194.050525510907
 20
68.2926877319817
 30
0.0
 11
-194.050525600314
 21
69.4926877796655
 31
0.0
  0
LINE
  5
   3AE
  8
0
  6
CONTINUOUS
 62
     3
 10
-243.910509186982
 20
59.9676760243977
 30
0.0
 11
-247.21052762866
 21
59.9676775054061
 31
0.0
  0
LINE
  5
   3AF
  8
0
  6
CONTINUOUS
 62
     3
 10
-238.660527288914
 20
17.967674359679
 30
0.0
 11
-245.860527575016
 21
17.9676745616335
 31
0.0
  0
LINE
  5
   3B0
  8
0
  6
CONTINUOUS
 62
     3
 10
-248.860527694225
 20
17.9676746457813
 30
0.0
 11
-248.860527694225
 21
68.3676763581859
 31
0.0
  0
LINE
  5
   3B1
  8
0
  6
CONTINUOUS
 62
     3
 10
-248.860527694225
 20
59.36767822206
 30
0.0
 11
-248.860527694225
 21
59.9676782459019
 31
0.0
  0
LINE
  5
   3B2
  8
0
  6
CONTINUOUS
 62
     3
 10
-248.860527694225
 20
56.3676781028507
 30
0.0
 11
-248.860527694225
 21
59.36767822206
 31
0.0
  0
LINE
  5
   3B3
  8
0
  6
CONTINUOUS
 62
   218
 10
-235.510527163744
 20
17.9676742881534
 30
0.0
 11
-238.660527288914
 21
17.9676742881534
 31
0.0
  0
LINE
  5
   3B4
  8
0
  6
CONTINUOUS
 62
   218
 10
-238.660527288914
 20
17.9676742881534
 30
0.0
 11
-238.660527288914
 21
22.5426791433512
 31
0.0
  0
LINE
  5
   3B5
  8
0
  6
CONTINUOUS
 62
   253
 10
-233.710508781671
 20
33.005170308053
 30
0.0
 11
-233.710508781671
 21
33.3850306289335
 31
0.0
  0
LINE
  5
   3B6
  8
0
  6
CONTINUOUS
 62
   253
 10
-233.710508781671
 20
33.3850306289335
 30
0.0
 11
-233.710508781671
 21
33.7926703393455
 31
0.0
  0
LINE
  5
   3B7
  8
0
  6
CONTINUOUS
 62
   253
 10
-233.710508781671
 20
33.7926703393455
 30
0.0
 11
-233.710508781671
 21
34.2003100497575
 31
0.0
  0
LINE
  5
   3B8
  8
0
  6
CONTINUOUS
 62
   253
 10
-233.710508781671
 20
34.2003100497575
 30
0.0
 11
-233.710508781671
 21
34.5801703706379
 31
0.0
  0
LINE
  5
   3B9
  8
0
  6
CONTINUOUS
 62
   253
 10
-233.710508781671
 20
34.5801703706379
 30
0.0
 11
-233.710508781671
 21
34.9063636209044
 31
0.0
  0
LINE
  5
   3BA
  8
0
  6
CONTINUOUS
 62
   253
 10
-233.710508781671
 20
34.9063636209044
 30
0.0
 11
-233.710508781671
 21
35.1566607957673
 31
0.0
  0
LINE
  5
   3BB
  8
0
  6
CONTINUOUS
 62
   253
 10
-233.710508781671
 20
35.1566607957673
 30
0.0
 11
-233.710508781671
 21
35.3140033313164
 31
0.0
  0
LINE
  5
   3BC
  8
0
  6
CONTINUOUS
 62
   253
 10
-233.710508781671
 20
35.3140033313164
 30
0.0
 11
-233.710508781671
 21
35.3676704019304
 31
0.0
  0
LINE
  5
   3BD
  8
0
  6
CONTINUOUS
 62
   253
 10
-233.710508781671
 20
32.2176702767606
 30
0.0
 11
-233.710508781671
 21
32.2713373473746
 31
0.0
  0
LINE
  5
   3BE
  8
0
  6
CONTINUOUS
 62
   253
 10
-233.710508781671
 20
32.2713373473746
 30
0.0
 11
-233.710508781671
 21
32.4286798829237
 31
0.0
  0
LINE
  5
   3BF
  8
0
  6
CONTINUOUS
 62
   253
 10
-233.710508781671
 20
32.4286798829237
 30
0.0
 11
-233.710508781671
 21
32.6789770577866
 31
0.0
  0
LINE
  5
   3C0
  8
0
  6
CONTINUOUS
 62
   253
 10
-233.710508781671
 20
32.6789770577866
 30
0.0
 11
-233.710508781671
 21
33.005170308053
 31
0.0
  0
LINE
  5
   3C1
  8
0
  6
CONTINUOUS
 62
   152
 10
-193.960525512695
 20
-13.4573200941086
 30
0.0
 11
-194.410525530577
 21
-13.4573200941086
 31
0.0
  0
LINE
  5
   3C2
  8
0
  6
CONTINUOUS
 62
   152
 10
-193.960525512695
 20
-17.0573202371597
 30
0.0
 11
-194.410525530577
 21
-17.0573202371597
 31
0.0
  0
LINE
  5
   3C3
  8
0
  6
CONTINUOUS
 62
   152
 10
-193.960525512695
 20
96.3426842689514
 30
0.0
 11
-194.410525530577
 21
96.3426842689514
 31
0.0
  0
LINE
  5
   3C4
  8
0
  6
CONTINUOUS
 62
   152
 10
-193.960525512695
 20
99.9426844120026
 30
0.0
 11
-194.410525530577
 21
99.9426844120026
 31
0.0
  0
LINE
  5
   3C5
  8
0
  6
CONTINUOUS
 62
   152
 10
-194.050525501967
 20
68.2926877319815
 30
0.0
 11
-194.410525530577
 21
68.2926877319815
 31
0.0
  0
LINE
  5
   3C6
  8
0
  6
CONTINUOUS
 62
   152
 10
-194.050525609255
 20
69.4926877796652
 30
0.0
 11
-194.410525602102
 21
69.4926877796652
 31
0.0
  0
LINE
  5
   3C7
  8
0
  6
CONTINUOUS
 62
     7
 10
-205.060535174189
 20
21.11767899096
 30
0.0
 11
-205.060535174189
 21
22.5426791433512
 31
0.0
  0
LINE
  5
   3C8
  8
0
  6
CONTINUOUS
 62
     7
 10
-236.110528445004
 20
21.6426770200611
 30
0.0
 11
-236.110528445004
 21
22.5426791433512
 31
0.0
  0
LINE
  5
   3C9
  8
0
  6
CONTINUOUS
 62
     7
 10
-174.760524749756
 20
15.4926810562611
 30
0.0
 11
-174.760524749756
 21
67.3926831185818
 31
0.0
  0
LINE
  5
   3CA
  8
0
  6
DASHDOT
 62
     7
 10
-143.856214551558
 20
81.9426791191099
 30
0.0
 11
-181.036350540518
 21
81.9426791191099
 31
0.0
  0
LINE
  5
   3CB
  8
0
  6
DASHDOT
 62
     7
 10
-160.366019398952
 20
0.942685055732909
 30
0.0
 11
-181.036350540518
 21
0.942685055732909
 31
0.0
  0
LINE
  5
   3CC
  8
0
  6
DASHDOT
 62
     7
 10
-156.783993511207
 20
38.9676751899348
 30
0.0
 11
-263.212397926939
 21
38.9676751899348
 31
0.0
  0
LINE
  5
   3CD
  8
0
  6
CONTINUOUS
 62
   253
 10
-175.96052479744
 20
22.5425909281356
 30
0.0
 11
-175.96052479744
 21
64.5426875829699
 31
0.0
  0
LINE
  5
   3CE
  8
0
  6
CONTINUOUS
 62
   132
 10
-250.608802811941
 20
29.2572835010353
 30
0.0
 11
-251.357072524111
 21
31.5717366796669
 31
0.0
  0
LINE
  5
   3CF
  8
0
  6
CONTINUOUS
 62
   132
 10
-250.467289724171
 20
29.0863638613979
 30
0.0
 11
-250.608798207667
 21
29.2572859515831
 31
0.0
  0
LINE
  5
   3D0
  8
0
  6
CONTINUOUS
 62
   132
 10
-250.247033891651
 20
29.0594398153263
 30
0.0
 11
-250.467291470357
 21
29.0863631859547
 31
0.0
  0
LINE
  5
   3D1
  8
0
  6
CONTINUOUS
 62
   132
 10
-250.247034051595
 20
29.0594397430004
 30
0.0
 11
-248.860527694225
 21
29.4241265918351
 31
0.0
  0
LINE
  5
   3D2
  8
0
  6
CONTINUOUS
 62
   132
 10
-251.179599402017
 20
31.9439189776171
 30
0.0
 11
-248.860527694225
 21
32.838587474099
 31
0.0
  0
LINE
  5
   3D3
  8
0
  6
CONTINUOUS
 62
   132
 10
-251.34241161117
 20
31.7931493052487
 30
0.0
 11
-251.179598793577
 21
31.9439183562963
 31
0.0
  0
LINE
  5
   3D4
  8
0
  6
CONTINUOUS
 62
   132
 10
-251.357070551875
 20
31.5717379587569
 30
0.0
 11
-251.34240838103
 21
31.7931513949346
 31
0.0
  0
LINE
  5
   3D5
  8
0
  6
DOT
 62
     7
 10
-173.860524713993
 20
-34.3727302423205
 30
0.0
 11
-173.860524713993
 21
106.636104944781
 31
0.0
  0
LINE
  5
   3D6
  8
0
  6
DASHDOT
 62
     7
 10
-169.380660899621
 20
41.4426820874214
 30
0.0
 11
-180.155152268574
 21
41.4426820874214
 31
0.0
  0
LINE
  5
   3D7
  8
0
  6
DOT
 62
     7
 10
-168.760524511337
 20
65.4426830410957
 30
0.0
 11
-174.760524749756
 21
65.4426830410957
 31
0.0
  0
LINE
  5
   3D8
  8
0
  6
DOT
 62
     7
 10
-168.760524511337
 20
17.4426811337471
 30
0.0
 11
-174.760524749756
 21
17.4426811337471
 31
0.0
  0
LINE
  5
   3D9
  8
0
  6
DOT
 62
     7
 10
-168.760524511337
 20
64.542683005333
 30
0.0
 11
-173.860524713993
 21
64.542683005333
 31
0.0
  0
LINE
  5
   3DA
  8
0
  6
DOT
 62
     7
 10
-168.760524511337
 20
18.3426811695099
 30
0.0
 11
-173.860524713993
 21
18.3426811695099
 31
0.0
  0
LINE
  5
   3DB
  8
0
  6
DOT
 62
     7
 10
-168.760524511337
 20
17.4426811337471
 30
0.0
 11
-168.760524511337
 21
18.3426811695099
 31
0.0
  0
LINE
  5
   3DC
  8
0
  6
DOT
 62
     7
 10
-168.760524511337
 20
64.542683005333
 30
0.0
 11
-168.760524511337
 21
65.4426830410957
 31
0.0
  0
CIRCLE
  5
   3DD
  8
0
  6
CONTINUOUS
 62
   253
 10
-240.310529811643
 20
41.4426707749651
 30
0.0
 40
2.99999902550602
  0
CIRCLE
  5
   3DE
  8
0
  6
CONTINUOUS
 62
   253
 10
-240.310530920527
 20
41.4426718362534
 30
0.0
 40
0.82499798815932
  0
LINE
  5
   3DF
  8
0
  6
DASHDOT
 62
     7
 10
-240.310529811643
 20
38.1426717375382
 30
0.0
 11
-240.310529811643
 21
44.7426698123921
 31
0.0
  0
LINE
  5
   3E0
  8
0
  6
DASHDOT
 62
     7
 10
-237.010530774216
 20
41.4426707749651
 30
0.0
 11
-243.61052884907
 21
41.4426707749651
 31
0.0
  0
CIRCLE
  5
   3E1
  8
0
  6
CONTINUOUS
 62
   253
 10
-186.460526604716
 20
57.6426809247735
 30
0.0
 40
1.79999998852908
  0
CIRCLE
  5
   3E2
  8
0
  6
CONTINUOUS
 62
   253
 10
-186.460523128707
 20
57.6426804993716
 30
0.0
 40
0.97499897078265
  0
CIRCLE
  5
   3E3
  8
0
  6
CONTINUOUS
 62
   253
 10
-186.460524828772
 20
27.6426858946247
 30
0.0
 40
1.79999970215661
  0
CIRCLE
  5
   3E4
  8
0
  6
CONTINUOUS
 62
   253
 10
-186.460525794328
 20
27.6426826446748
 30
0.0
 40
0.975000005871059
  0
LINE
  5
   3E5
  8
0
  6
DASHDOT
 62
     7
 10
-186.460524828772
 20
25.5426861805472
 30
0.0
 11
-186.460524828772
 21
29.7426856087022
 31
0.0
  0
LINE
  5
   3E6
  8
0
  6
DASHDOT
 62
     7
 10
-184.360525114694
 20
27.6426858946247
 30
0.0
 11
-188.560524542849
 21
27.6426858946247
 31
0.0
  0
LINE
  5
   3E7
  8
0
  6
DASHDOT
 62
     7
 10
-186.460526604716
 20
55.5426809243235
 30
0.0
 11
-186.460526604716
 21
59.7426809252235
 31
0.0
  0
LINE
  5
   3E8
  8
0
  6
DASHDOT
 62
     7
 10
-184.360526604266
 20
57.6426809247735
 30
0.0
 11
-188.560526605166
 21
57.6426809247735
 31
0.0
  0
LINE
  5
   3E9
  8
0
  6
CONTINUOUS
 62
     7
 10
-245.828471438311
 20
74.3253196977824
 30
0.0
 11
-248.538848154535
 21
75.0684875070698
 31
0.0
  0
LINE
  5
   3EA
  8
0
  6
CONTINUOUS
 62
     7
 10
-247.810528796911
 20
64.6176762091743
 30
0.0
 11
-247.810528796911
 21
74.8687870380437
 31
0.0
  0
LINE
  5
   3EB
  8
0
  6
CONTINUOUS
 62
     7
 10
-247.210528773069
 20
66.4176762806998
 30
0.0
 11
-247.210528773069
 21
74.7042709024742
 31
0.0
  0
LINE
  5
   3EC
  8
0
  6
CONTINUOUS
 62
     7
 10
-247.210528773069
 20
66.5676762866603
 30
0.0
 11
-247.810527652502
 21
66.5676762866603
 31
0.0
  0
LINE
  5
   3ED
  8
0
  6
CONTINUOUS
 62
     1
 10
-247.810527652502
 20
14.8176730858908
 30
0.0
 11
-247.810527652502
 21
64.6176762091743
 31
0.0
  0
LINE
  5
   3EE
  8
0
  6
CONTINUOUS
 62
     7
 10
-246.160527586937
 20
66.4176762806998
 30
0.0
 11
-247.810527652502
 21
66.4176762806998
 31
0.0
  0
LINE
  5
   3EF
  8
0
  6
CONTINUOUS
 62
     7
 10
-245.860527134063
 20
66.2444714731417
 30
0.0
 11
-246.160527155862
 21
66.4176755227232
 31
0.0
  0
LINE
  5
   3F0
  8
0
  6
CONTINUOUS
 62
     7
 10
-246.160527586937
 20
64.6176755970557
 30
0.0
 11
-246.160527586937
 21
66.4176757716029
 31
0.0
  0
LINE
  5
   3F1
  8
0
  6
CONTINUOUS
 62
     7
 10
-245.860527575016
 20
64.7908802565841
 30
0.0
 11
-245.860527575016
 21
66.24447223329
 31
0.0
  0
LINE
  5
   3F2
  8
0
  6
CONTINUOUS
 62
     7
 10
-247.210528773069
 20
64.4676762032138
 30
0.0
 11
-247.810527652502
 21
64.4676762032138
 31
0.0
  0
LINE
  5
   3F3
  8
0
  6
CONTINUOUS
 62
     1
 10
-247.21052762866
 20
39.8676757979022
 30
0.0
 11
-247.21052762866
 21
64.6176762091743
 31
0.0
  0
LINE
  5
   3F4
  8
0
  6
CONTINUOUS
 62
     7
 10
-246.160527586937
 20
64.6176762091743
 30
0.0
 11
-247.810527652502
 21
64.6176762091743
 31
0.0
  0
LINE
  5
   3F5
  8
0
  6
CONTINUOUS
 62
     7
 10
-246.160527641361
 20
64.6176755656342
 30
0.0
 11
-245.860527619562
 21
64.7908796152156
 31
0.0
  0
LINE
  5
   3F6
  8
0
  6
CONTINUOUS
 62
     7
 10
-247.21052762866
 20
40.0176758038627
 30
0.0
 11
-247.810527652502
 21
40.0176758038627
 31
0.0
  0
LINE
  5
   3F7
  8
0
  6
CONTINUOUS
 62
     7
 10
-246.160527586937
 20
39.8676757979022
 30
0.0
 11
-247.810527652502
 21
39.8676757979022
 31
0.0
  0
LINE
  5
   3F8
  8
0
  6
CONTINUOUS
 62
     7
 10
-247.21052762866
 20
37.9176757204162
 30
0.0
 11
-247.810527652502
 21
37.9176757204162
 31
0.0
  0
LINE
  5
   3F9
  8
0
  6
CONTINUOUS
 62
     7
 10
-246.160527586937
 20
38.0676757263766
 30
0.0
 11
-247.810527652502
 21
38.0676757263766
 31
0.0
  0
LINE
  5
   3FA
  8
0
  6
CONTINUOUS
 62
     7
 10
-246.160527546132
 20
38.0676753577396
 30
0.0
 11
-245.860527524333
 21
38.240879407321
 31
0.0
  0
LINE
  5
   3FB
  8
0
  6
CONTINUOUS
 62
     7
 10
-245.860527575016
 20
38.2408797737865
 30
0.0
 11
-245.860527575016
 21
39.6944694616739
 31
0.0
  0
LINE
  5
   3FC
  8
0
  6
CONTINUOUS
 62
     7
 10
-246.160527586937
 20
38.0676757263766
 30
0.0
 11
-246.160527586937
 21
39.8676757979022
 31
0.0
  0
LINE
  5
   3FD
  8
0
  6
CONTINUOUS
 62
     7
 10
-245.860527095136
 20
39.6944687863176
 30
0.0
 11
-246.160527116935
 21
39.8676751218596
 31
0.0
  0
LINE
  5
   3FE
  8
0
  6
CONTINUOUS
 62
     1
 10
-247.21052762866
 20
28.9176730739699
 30
0.0
 11
-247.21052762866
 21
38.0676780151951
 31
0.0
  0
INSERT
  5
   3FF
  8
0
  6
CONTINUOUS
 62
     7
  2
*HATCH319
 10
-193.960525512695
 20
17.1426811218262
 30
0.0
 41
0.300000011920929
 42
0.300000011920929
 50
89.9999999480344
 43
0.300000011920929
  0
LINE
  5
   400
  8
0
  6
CONTINUOUS
 62
     7
 10
-247.21052762866
 20
29.2176730858908
 30
0.0
 11
-247.810527652502
 21
29.2176730858908
 31
0.0
  0
LINE
  5
   401
  8
0
  6
CONTINUOUS
 62
     1
 10
-248.860527694225
 20
29.2176730858908
 30
0.0
 11
-248.860527694225
 21
33.342675538622
 31
0.0
  0
LINE
  5
   402
  8
0
  6
CONTINUOUS
 62
     7
 10
-248.260527670383
 20
23.5176728593931
 30
0.0
 11
-248.260527670383
 21
30.4176731335745
 31
0.0
  0
LINE
  5
   403
  8
0
  6
CONTINUOUS
 62
     7
 10
-248.560527682304
 20
29.2176730858908
 30
0.0
 11
-248.860527694225
 21
29.2176730858908
 31
0.0
  0
LINE
  5
   404
  8
0
  6
CONTINUOUS
 62
     7
 10
-248.560527682304
 20
29.2176730858908
 30
0.0
 11
-248.560527682304
 21
30.4176731335745
 31
0.0
  0
LINE
  5
   405
  8
0
  6
CONTINUOUS
 62
     7
 10
-248.260527670383
 20
30.4176731335745
 30
0.0
 11
-248.560527682304
 21
30.4176731335745
 31
0.0
  0
LINE
  5
   406
  8
0
  6
CONTINUOUS
 62
     7
 10
-244.810527533293
 20
28.9176730739699
 30
0.0
 11
-247.810527652502
 21
28.9176730739699
 31
0.0
  0
LINE
  5
   407
  8
0
  6
CONTINUOUS
 62
     7
 10
-248.560527682304
 20
23.5176728593931
 30
0.0
 11
-248.560527682304
 21
24.7176729070768
 31
0.0
  0
LINE
  5
   408
  8
0
  6
CONTINUOUS
 62
     7
 10
-248.560527682304
 20
24.7176729070768
 30
0.0
 11
-248.860527694225
 21
24.7176729070768
 31
0.0
  0
LINE
  5
   409
  8
0
  6
CONTINUOUS
 62
     7
 10
-244.810527533293
 20
25.0177347170959
 30
0.0
 11
-247.810527652502
 21
25.0177347170959
 31
0.0
  0
LINE
  5
   40A
  8
0
  6
CONTINUOUS
 62
     7
 10
-244.810527533293
 20
25.0177347170959
 30
0.0
 11
-244.810527533293
 21
28.9176730739698
 31
0.0
  0
LINE
  5
   40B
  8
0
  6
CONTINUOUS
 62
     7
 10
-248.260527670383
 20
23.5176728593931
 30
0.0
 11
-248.560527682304
 21
23.5176728593931
 31
0.0
  0
LINE
  5
   40C
  8
0
  6
CONTINUOUS
 62
     7
 10
-247.21052762866
 20
24.717734705175
 30
0.0
 11
-247.810527652502
 21
24.717734705175
 31
0.0
  0
LINE
  5
   40D
  8
0
  6
CONTINUOUS
 62
     7
 10
-247.210528773069
 20
13.3176741706954
 30
0.0
 11
-247.210528773069
 21
25.0177347170959
 31
0.0
  0
LINE
  5
   40E
  8
0
  6
CONTINUOUS
 62
     1
 10
-248.860527694225
 20
9.56767402168378
 30
0.0
 11
-248.860527694225
 21
24.7176729070769
 31
0.0
  0
LINE
  5
   40F
  8
0
  6
CONTINUOUS
 62
     7
 10
-247.810528796911
 20
-5.61806499615864
 30
0.0
 11
-247.810528796911
 21
25.0177347170959
 31
0.0
  0
LINE
  5
   410
  8
0
  6
CONTINUOUS
 62
     7
 10
-247.210528773069
 20
-5.49309225400619
 30
0.0
 11
-247.210528773069
 21
11.5176740991698
 31
0.0
  0
LINE
  5
   411
  8
0
  6
CONTINUOUS
 62
     7
 10
-249.739651643596
 20
-6.01987793369069
 30
0.0
 11
-245.257314381646
 21
-5.08626133932595
 31
0.0
  0
LINE
  5
   412
  8
0
  6
CONTINUOUS
 62
     1
 10
-224.41052672267
 20
64.542683005333
 30
0.0
 11
-224.41052672267
 21
102.34268450737
 31
0.0
  0
LINE
  5
   413
  8
0
  6
CONTINUOUS
 62
     1
 10
-194.410525530577
 20
15.3426810503006
 30
0.0
 11
-235.510527163744
 21
15.3426810503006
 31
0.0
  0
LINE
  5
   414
  8
0
  6
CONTINUOUS
 62
     1
 10
-224.41052672267
 20
15.3426810503006
 30
0.0
 11
-224.41052672267
 21
22.5426791433512
 31
0.0
  0
LINE
  5
   415
  8
0
  6
CONTINUOUS
 62
   253
 10
-196.885522195696
 20
60.5676930952856
 30
0.0
 11
-204.460525929928
 21
60.5676930952856
 31
0.0
  0
LINE
  5
   416
  8
0
  6
CONTINUOUS
 62
   253
 10
-196.885522267222
 20
58.3926930088593
 30
0.0
 11
-204.460526001453
 21
58.3926930088593
 31
0.0
  0
LINE
  5
   417
  8
0
  6
CONTINUOUS
 62
   253
 10
-204.460526001453
 20
58.3926918767654
 30
0.0
 11
-204.460525929928
 21
60.5676919631921
 31
0.0
  0
LINE
  5
   418
  8
0
  6
CONTINUOUS
 62
   253
 10
-196.885522338748
 20
58.3926868009156
 30
0.0
 11
-196.885522195697
 21
60.5676868873423
 31
0.0
  0
LINE
  5
   419
  8
0
  6
CONTINUOUS
 62
   253
 10
-196.885524457384
 20
25.0927008862389
 30
0.0
 11
-204.460528191615
 21
25.0927008862389
 31
0.0
  0
LINE
  5
   41A
  8
0
  6
CONTINUOUS
 62
   253
 10
-204.460528280405
 20
23.7427042328088
 30
0.0
 11
-204.460528191615
 21
25.0926997088161
 31
0.0
  0
LINE
  5
   41B
  8
0
  6
CONTINUOUS
 62
   253
 10
-196.88552397464
 20
23.7426900016963
 30
0.0
 11
-204.460528280977
 21
23.7427042328196
 31
0.0
  0
LINE
  5
   41C
  8
0
  6
CONTINUOUS
 62
   253
 10
-196.901141798192
 20
23.7426842806663
 30
0.0
 11
-196.901141709401
 21
25.0926940617889
 31
0.0
  0
LINE
  5
   41D
  8
0
  6
DASHDOT
 62
     7
 10
-169.380660899621
 20
59.4426828026772
 30
0.0
 11
-180.360955026892
 21
59.4426828026772
 31
0.0
  0
LINE
  5
   41E
  8
0
  6
DASHDOT
 62
     7
 10
-169.380660899621
 20
23.4426813721657
 30
0.0
 11
-180.155152268574
 21
23.4426813721657
 31
0.0
  0
LINE
  5
   41F
  8
0
  6
CONTINUOUS
 62
     7
 10
-172.360524654388
 20
21.2856812864542
 30
0.0
 11
-173.860524713993
 21
21.2856812864542
 31
0.0
  0
LINE
  5
   420
  8
0
  6
CONTINUOUS
 62
     7
 10
-172.360524654388
 20
25.5996814578772
 30
0.0
 11
-173.860524713993
 21
25.5996814578772
 31
0.0
  0
LINE
  5
   421
  8
0
  6
CONTINUOUS
 62
     7
 10
-172.360524654388
 20
21.2856812864542
 30
0.0
 11
-172.360524654388
 21
25.5996814578772
 31
0.0
  0
LINE
  5
   422
  8
0
  6
CONTINUOUS
 62
     7
 10
-172.360524654388
 20
57.2856827169657
 30
0.0
 11
-172.360524654388
 21
61.5996828883886
 31
0.0
  0
LINE
  5
   423
  8
0
  6
CONTINUOUS
 62
     7
 10
-172.360524654388
 20
61.5996828883886
 30
0.0
 11
-173.860524713993
 21
61.5996828883886
 31
0.0
  0
LINE
  5
   424
  8
0
  6
CONTINUOUS
 62
     7
 10
-172.360524654388
 20
57.2856827169657
 30
0.0
 11
-173.860524713993
 21
57.2856827169657
 31
0.0
  0
LINE
  5
   425
  8
0
  6
DOT
 62
     7
 10
-142.360523462296
 20
84.3426792144774
 30
0.0
 11
-166.51052442193
 21
84.3426792144774
 31
0.0
  0
LINE
  5
   426
  8
0
  6
DOT
 62
     7
 10
-142.360523462296
 20
79.5426790237425
 30
0.0
 11
-166.51052442193
 21
79.5426790237425
 31
0.0
  0
LINE
  5
   427
  8
0
  6
CONTINUOUS
 62
   253
 10
-142.360523462296
 20
74.4426788210867
 30
0.0
 11
-142.360523462296
 21
89.4426794171332
 31
0.0
  0
LINE
  5
   428
  8
0
  6
CONTINUOUS
 62
   253
 10
-142.360523462296
 20
89.4426794171332
 30
0.0
 11
-166.51052442193
 21
89.4426794171332
 31
0.0
  0
LINE
  5
   429
  8
0
  6
CONTINUOUS
 62
   253
 10
-142.360523462296
 20
74.4426788210867
 30
0.0
 11
-166.51052442193
 21
74.4426788210867
 31
0.0
  0
CIRCLE
  5
   42A
  8
0
  6
CONTINUOUS
 62
   253
 10
-146.560523629189
 20
85.2426792502401
 30
0.0
 40
1.65000006556511
  0
CIRCLE
  5
   42B
  8
0
  6
CONTINUOUS
 62
   253
 10
-153.160523891449
 20
78.6426789879797
 30
0.0
 40
1.65000006556511
  0
LINE
  5
   42C
  8
0
  6
DASHDOT
 62
     7
 10
-146.560523629189
 20
82.8083550093563
 30
0.0
 11
-146.560523629189
 21
87.5891854272397
 31
0.0
  0
LINE
  5
   42D
  8
0
  6
DASHDOT
 62
     7
 10
-144.282037198512
 20
85.2426792502401
 30
0.0
 11
-148.926272461598
 21
85.2426792502401
 31
0.0
  0
LINE
  5
   42E
  8
0
  6
DASHDOT
 62
     7
 10
-153.160523891449
 20
76.2517875791162
 30
0.0
 11
-153.160523891449
 21
80.9779799350809
 31
0.0
  0
LINE
  5
   42F
  8
0
  6
DASHDOT
 62
     7
 10
-150.647371412036
 20
78.6426789879797
 30
0.0
 11
-155.783349232391
 21
78.6426789879797
 31
0.0
  0
LINE
  5
   430
  8
0
  6
CONTINUOUS
 62
   253
 10
-142.360523462296
 20
-6.55731524229031
 30
0.0
 11
-166.51052442193
 21
-6.55731524229031
 31
0.0
  0
LINE
  5
   431
  8
0
  6
CONTINUOUS
 62
   253
 10
-142.360523462296
 20
8.44268535375613
 30
0.0
 11
-166.51052442193
 21
8.44268535375613
 31
0.0
  0
LINE
  5
   432
  8
0
  6
CONTINUOUS
 62
   253
 10
-142.360523462296
 20
-6.55731524229031
 30
0.0
 11
-142.360523462296
 21
8.44268535375613
 31
0.0
  0
LINE
  5
   433
  8
0
  6
DOT
 62
     7
 10
-142.360523462296
 20
3.34268515110034
 30
0.0
 11
-166.51052442193
 21
3.34268515110034
 31
0.0
  0
LINE
  5
   434
  8
0
  6
DOT
 62
     7
 10
-142.360523462296
 20
-1.45731503963452
 30
0.0
 11
-166.51052442193
 21
-1.45731503963452
 31
0.0
  0
CIRCLE
  5
   435
  8
0
  6
CONTINUOUS
 62
   253
 10
-153.160523891449
 20
4.24268518686313
 30
0.0
 40
1.65000006556511
  0
CIRCLE
  5
   436
  8
0
  6
CONTINUOUS
 62
   253
 10
-146.560523629189
 20
-2.35731507539731
 30
0.0
 40
1.65000006556511
  0
LINE
  5
   437
  8
0
  6
DASHDOT
 62
     7
 10
-153.160523891449
 20
2.29268510937709
 30
0.0
 11
-153.160523891449
 21
6.19268526434917
 31
0.0
  0
LINE
  5
   438
  8
0
  6
DASHDOT
 62
     7
 10
-151.210523813963
 20
4.24268518686313
 30
0.0
 11
-155.110523968935
 21
4.24268518686313
 31
0.0
  0
LINE
  5
   439
  8
0
  6
DASHDOT
 62
     7
 10
-146.560523629189
 20
-4.30731515288335
 30
0.0
 11
-146.560523629189
 21
-0.407314997911271
 31
0.0
  0
LINE
  5
   43A
  8
0
  6
DASHDOT
 62
     7
 10
-144.610523551703
 20
-2.35731507539731
 30
0.0
 11
-148.510523706675
 21
-2.35731507539731
 31
0.0
  0
LINE
  5
   43B
  8
0
  6
CONTINUOUS
 62
     7
 10
-247.810527652502
 20
68.3676763581859
 30
0.0
 11
-248.860527694225
 21
68.3676763581859
 31
0.0
  0
LINE
  5
   43C
  8
0
  6
CONTINUOUS
 62
     7
 10
-247.810527652502
 20
9.56767402168378
 30
0.0
 11
-248.860527694225
 21
9.56767402168378
 31
0.0
  0
LINE
  5
   43D
  8
0
  6
CONTINUOUS
 62
     7
 10
-247.210528773069
 20
11.3676740932093
 30
0.0
 11
-247.810527652502
 21
11.3676740932093
 31
0.0
  0
LINE
  5
   43E
  8
0
  6
CONTINUOUS
 62
     7
 10
-246.160527586937
 20
11.5176740991698
 30
0.0
 11
-247.810527652502
 21
11.5176740991698
 31
0.0
  0
LINE
  5
   43F
  8
0
  6
CONTINUOUS
 62
     7
 10
-246.160527586937
 20
13.3176741706954
 30
0.0
 11
-247.810527652502
 21
13.3176741706954
 31
0.0
  0
LINE
  5
   440
  8
0
  6
CONTINUOUS
 62
     7
 10
-247.210528773069
 20
13.4676741766558
 30
0.0
 11
-247.810527652502
 21
13.4676741766558
 31
0.0
  0
LINE
  5
   441
  8
0
  6
CONTINUOUS
 62
     7
 10
-246.160527586937
 20
11.5176746082667
 30
0.0
 11
-246.160527586937
 21
13.3176747828139
 31
0.0
  0
LINE
  5
   442
  8
0
  6
CONTINUOUS
 62
     7
 10
-245.860527575016
 20
11.6908781465797
 30
0.0
 11
-245.860527575016
 21
13.1444701232855
 31
0.0
  0
LINE
  5
   443
  8
0
  6
CONTINUOUS
 62
     7
 10
-245.860527619562
 20
13.144470764654
 30
0.0
 11
-246.160527641361
 21
13.3176748142355
 31
0.0
  0
LINE
  5
   444
  8
0
  6
CONTINUOUS
 62
     7
 10
-246.160527155862
 20
11.5176748571465
 30
0.0
 11
-245.860527134063
 21
11.6908789067279
 31
0.0
  0
INSERT
  5
   445
  8
0
  6
CONTINUOUS
 62
     7
  2
*HATCH320
 10
-193.960525512695
 20
17.1426811218262
 30
0.0
 41
0.300000011920929
 42
0.300000011920929
 50
89.9999999480344
 43
0.300000011920929
  0
INSERT
  5
   446
  8
0
  6
CONTINUOUS
 62
     7
  2
*HATCH321
 10
-193.960525512695
 20
17.1426811218262
 30
0.0
 41
0.300000011920929
 42
0.300000011920929
 50
89.9999999480344
 43
0.300000011920929
  0
INSERT
  5
   447
  8
0
  6
CONTINUOUS
 62
     7
  2
*HATCH322
 10
-193.960525512695
 20
17.1426811218262
 30
0.0
 41
0.300000011920929
 42
0.300000011920929
 50
89.9999999480344
 43
0.300000011920929
  0
INSERT
  5
   448
  8
0
  6
CONTINUOUS
 62
     7
  2
*HATCH323
 10
-193.960525512695
 20
17.1426811218262
 30
0.0
 41
0.300000011920929
 42
0.300000011920929
 50
89.9999999480344
 43
0.300000011920929
  0
LINE
  5
   449
  8
0
  6
CONTINUOUS
 62
     7
 10
-244.360529232025
 20
60.4176760422812
 30
0.0
 11
-245.110530978441
 21
60.4176760422812
 31
0.0
  0
LINE
  5
   44A
  8
0
  6
CONTINUOUS
 62
     7
 10
-244.360529232025
 20
60.4176760422812
 30
0.0
 11
-244.360529232025
 21
63.567676167451
 31
0.0
  0
LINE
  5
   44B
  8
0
  6
CONTINUOUS
 62
     7
 10
-245.410530990362
 20
64.6176762091743
 30
0.0
 11
-246.160531020165
 21
64.6176762091743
 31
0.0
  0
LINE
  5
   44C
  8
0
  6
CONTINUOUS
 62
     7
 10
-246.460531032086
 20
66.4176762806998
 30
0.0
 11
-246.460531032086
 21
67.3176763164626
 31
0.0
  0
LINE
  5
   44D
  8
0
  6
CONTINUOUS
 62
     7
 10
-246.460531032086
 20
67.3176763164626
 30
0.0
 11
-247.210528773069
 21
67.3176763164626
 31
0.0
  0
LINE
  5
   44E
  8
0
  6
CONTINUOUS
 62
     7
 10
-245.410530990362
 20
63.8676761793719
 30
0.0
 11
-246.160531020165
 21
63.8676761793719
 31
0.0
  0
LINE
  5
   44F
  8
0
  6
CONTINUOUS
 62
     7
 10
-245.110530978441
 20
60.4176760422812
 30
0.0
 11
-245.110530978441
 21
63.567676167451
 31
0.0
  0
ARC
  5
   450
  8
0
  6
CONTINUOUS
 62
     7
 10
-245.410535386415
 20
63.5676723615595
 30
0.0
 40
1.05000557765813
 50
360.000319242658
 51
449.999813057862
  0
ARC
  5
   451
  8
0
  6
CONTINUOUS
 62
     7
 10
-245.410517715917
 20
63.5676884358862
 30
0.0
 40
0.299984958293382
 50
359.998830132094
 51
450.002235749312
  0
ARC
  5
   452
  8
0
  6
CONTINUOUS
 62
     7
 10
-246.160536825879
 20
64.9176666070145
 30
0.0
 40
1.04999135850618
 50
196.601143374767
 51
270.000346548696
  0
LINE
  5
   453
  8
0
  6
CONTINUOUS
 62
     7
 10
-244.360529232025
 20
63.1176761495696
 30
0.0
 11
-245.110530978441
 21
63.1176761495696
 31
0.0
  0
INSERT
  5
   454
  8
0
  6
CONTINUOUS
 62
     7
  2
*HATCH324
 10
-193.960525512695
 20
17.1426811218262
 30
0.0
 41
0.300000011920929
 42
0.300000011920929
 50
89.9999999480344
 43
0.300000011920929
  0
LINE
  5
   455
  8
0
  6
CONTINUOUS
 62
     7
 10
-246.160527586937
 20
59.9676770341788
 30
0.0
 11
-246.160527586937
 21
62.0676768483527
 31
0.0
  0
LINE
  5
   456
  8
0
  6
CONTINUOUS
 62
     7
 10
-245.560527563095
 20
59.9676770341788
 30
0.0
 11
-245.560527563095
 21
62.0676768483527
 31
0.0
  0
LINE
  5
   457
  8
0
  6
CONTINUOUS
 62
     7
 10
-245.560527563095
 20
62.0676768483527
 30
0.0
 11
-246.160527586937
 21
62.0676768483527
 31
0.0
  0
CIRCLE
  5
   458
  8
0
  6
CONTINUOUS
 62
   253
 10
-153.160523891449
 20
85.2426792502401
 30
0.0
 40
1.65000006556511
  0
LINE
  5
   459
  8
0
  6
DASHDOT
 62
     7
 10
-150.882037460772
 20
85.2426792502401
 30
0.0
 11
-155.526272723859
 21
85.2426792502401
 31
0.0
  0
LINE
  5
   45A
  8
0
  6
DASHDOT
 62
     7
 10
-153.160523891449
 20
82.8083550093563
 30
0.0
 11
-153.160523891449
 21
87.5891854272397
 31
0.0
  0
CIRCLE
  5
   45B
  8
0
  6
CONTINUOUS
 62
   253
 10
-153.160523891449
 20
-2.35731507539731
 30
0.0
 40
1.65000006556511
  0
LINE
  5
   45C
  8
0
  6
DASHDOT
 62
     7
 10
-151.210523813963
 20
-2.35731507539731
 30
0.0
 11
-155.110523968935
 21
-2.35731507539731
 31
0.0
  0
LINE
  5
   45D
  8
0
  6
DASHDOT
 62
     7
 10
-153.160523891449
 20
-4.30731515288335
 30
0.0
 11
-153.160523891449
 21
-0.407314997911271
 31
0.0
  0
CIRCLE
  5
   45E
  8
0
  6
CONTINUOUS
 62
   253
 10
-146.560523629189
 20
78.6426789879797
 30
0.0
 40
1.65000006556511
  0
LINE
  5
   45F
  8
0
  6
DASHDOT
 62
     7
 10
-144.047371149776
 20
78.6426789879797
 30
0.0
 11
-149.183348970131
 21
78.6426789879797
 31
0.0
  0
LINE
  5
   460
  8
0
  6
DASHDOT
 62
     7
 10
-146.560523629189
 20
76.2517875791162
 30
0.0
 11
-146.560523629189
 21
80.9779799350809
 31
0.0
  0
LINE
  5
   461
  8
0
  6
DASHDOT
 62
     7
 10
-144.610523551703
 20
4.24268518686313
 30
0.0
 11
-148.510523706675
 21
4.24268518686313
 31
0.0
  0
LINE
  5
   462
  8
0
  6
DASHDOT
 62
     7
 10
-146.560523629189
 20
2.29268510937709
 30
0.0
 11
-146.560523629189
 21
6.19268526434917
 31
0.0
  0
CIRCLE
  5
   463
  8
0
  6
CONTINUOUS
 62
   253
 10
-146.560523629189
 20
4.24268518686313
 30
0.0
 40
1.65000006556511
  0
LINE
  5
   464
  8
0
  6
DOT
 62
     7
 10
-174.760524749756
 20
-34.8936988452285
 30
0.0
 11
-174.760524749756
 21
15.4926810562611
 31
0.0
  0
LINE
  5
   465
  8
0
  6
DOT
 62
     7
 10
-174.760524749756
 20
67.3926831185818
 30
0.0
 11
-174.760524749756
 21
106.462448743812
 31
0.0
  0
LINE
  5
   466
  8
0
  6
CONTINUOUS
 62
   152
 10
-232.510527044535
 20
102.34268450737
 30
0.0
 11
-232.510527044535
 21
104.442684590817
 31
0.0
  0
LINE
  5
   467
  8
0
  6
CONTINUOUS
 62
   152
 10
-232.510527044535
 20
-21.5573204159737
 30
0.0
 11
-232.510527044535
 21
-19.4573203325272
 31
0.0
  0
LINE
  5
   468
  8
0
  6
CONTINUOUS
 62
   152
 10
-194.410525530577
 20
-21.5573204159737
 30
0.0
 11
-194.410525530577
 21
-19.4573203325272
 31
0.0
  0
LINE
  5
   469
  8
0
  6
CONTINUOUS
 62
   152
 10
-194.410525530577
 20
102.34268450737
 30
0.0
 11
-194.410525530577
 21
104.442684590817
 31
0.0
  0
LINE
  5
   46A
  8
0
  6
CONTINUOUS
 62
   152
 10
-194.410525530577
 20
104.442684590817
 30
0.0
 11
-232.510527044535
 21
104.442684590817
 31
0.0
  0
LINE
  5
   46B
  8
0
  6
CONTINUOUS
 62
   152
 10
-194.410525530577
 20
-21.5573204159737
 30
0.0
 11
-232.510527044535
 21
-21.5573204159737
 31
0.0
  0
LINE
  5
   46C
  8
0
  6
CONTINUOUS
 62
   152
 10
-232.510527044535
 20
-19.4573203325272
 30
0.0
 11
-235.510527163744
 21
-19.4573203325272
 31
0.0
  0
LINE
  5
   46D
  8
0
  6
CONTINUOUS
 62
   152
 10
-232.510527044535
 20
102.34268450737
 30
0.0
 11
-235.510527163744
 21
102.34268450737
 31
0.0
  0
LINE
  5
   46E
  8
0
  6
DOT
 62
     7
 10
-252.160509514808
 20
59.9676536074401
 30
0.0
 11
-257.110528022051
 21
59.9676536074401
 31
0.0
  0
LINE
  5
   46F
  8
0
  6
DOT
 62
     7
 10
-257.110528022051
 20
17.9676746457813
 30
0.0
 11
-257.110528022051
 21
59.9676536074401
 31
0.0
  0
LINE
  5
   470
  8
0
  6
DOT
 62
     7
 10
-252.284896272575
 20
17.9676731058777
 30
0.0
 11
-257.110528022051
 21
17.9676731058777
 31
0.0
  0
LINE
  5
   471
  8
0
  6
DOT
 62
     7
 10
-258.858803139766
 20
29.2572835010353
 30
0.0
 11
-259.607072851937
 21
31.5717366796669
 31
0.0
  0
LINE
  5
   472
  8
0
  6
DOT
 62
     7
 10
-258.717290051996
 20
29.0863638613979
 30
0.0
 11
-258.858798535493
 21
29.2572859515831
 31
0.0
  0
LINE
  5
   473
  8
0
  6
DOT
 62
     7
 10
-258.497034219477
 20
29.0594398153263
 30
0.0
 11
-258.717291798182
 21
29.0863631859547
 31
0.0
  0
LINE
  5
   474
  8
0
  6
DOT
 62
     7
 10
-258.497034379421
 20
29.0594397430004
 30
0.0
 11
-257.110528022051
 21
29.4241265918351
 31
0.0
  0
LINE
  5
   475
  8
0
  6
DOT
 62
     7
 10
-259.429599729843
 20
31.9439189776171
 30
0.0
 11
-257.110528022051
 21
32.838587474099
 31
0.0
  0
LINE
  5
   476
  8
0
  6
DOT
 62
     7
 10
-259.592411938995
 20
31.7931493052487
 30
0.0
 11
-259.429599121402
 21
31.9439183562963
 31
0.0
  0
LINE
  5
   477
  8
0
  6
DOT
 62
     7
 10
-259.6070708797
 20
31.5717379587569
 30
0.0
 11
-259.592408708855
 21
31.7931513949346
 31
0.0
  0
LINE
  5
   478
  8
0
  6
CONTINUOUS
 62
   253
 10
-222.922272659242
 20
120.297721968582
 30
0.0
 11
-248.697044807822
 21
120.297721968582
 31
0.0
  0
LINE
  5
   479
  8
0
  6
CONTINUOUS
 62
     2
 10
32.0121508011283
 20
93.121763047626
 30
0.0
 11
12.1214477695491
 21
117.795963955006
 31
0.0
  0
LINE
  5
   47A
  8
0
  6
CONTINUOUS
 62
     2
 10
12.121447769549
 20
117.795963955006
 30
0.0
 11
-9.24196695668718
 21
117.795963955006
 31
0.0
  0
LINE
  5
   47B
  8
0
  6
CONTINUOUS
 62
     7
 10
32.0121508011283
 20
93.121763047626
 30
0.0
 11
29.2327478162606
 21
95.1505116429342
 31
0.0
  0
LINE
  5
   47C
  8
0
  6
CONTINUOUS
 62
     7
 10
32.0121508011283
 20
93.121763047626
 30
0.0
 11
30.4605450905826
 21
96.6275444425596
 31
0.0
  0
LINE
  5
   47D
  8
0
  6
CONTINUOUS
 62
     7
 10
-171.160524606705
 20
60.6426828503609
 30
0.0
 11
-173.860524713993
 21
60.6426828503609
 31
0.0
  0
LINE
  5
   47E
  8
0
  6
CONTINUOUS
 62
     7
 10
-171.160524606705
 20
58.2426827549934
 30
0.0
 11
-173.860524713993
 21
58.2426827549934
 31
0.0
  0
LINE
  5
   47F
  8
0
  6
CONTINUOUS
 62
     7
 10
-171.160524606705
 20
22.242681324482
 30
0.0
 11
-171.160524606705
 21
24.6426814198494
 31
0.0
  0
LINE
  5
   480
  8
0
  6
CONTINUOUS
 62
     7
 10
-171.160524606705
 20
24.6426814198494
 30
0.0
 11
-173.860524713993
 21
24.6426814198494
 31
0.0
  0
LINE
  5
   481
  8
0
  6
CONTINUOUS
 62
     7
 10
-171.160524606705
 20
22.242681324482
 30
0.0
 11
-173.860524713993
 21
22.242681324482
 31
0.0
  0
LINE
  5
   482
  8
0
  6
CONTINUOUS
 62
     7
 10
-171.160524606705
 20
58.2426827549934
 30
0.0
 11
-171.160524606705
 21
60.6426828503609
 31
0.0
  0
POINT
  5
   483
  8
0
  6
CONTINUOUS
 62
     7
 10
-16.4787230968574
 20
67.0504178501543
 30
0.0
  0
CIRCLE
  5
   484
  8
0
  6
CONTINUOUS
 62
     7
 10
-16.4787230968574
 20
67.0504178501543
 30
0.0
 40
0.120000004768372
  0
CIRCLE
  5
   485
  8
0
  6
CONTINUOUS
 62
     7
 10
-172.585891263385
 20
23.8316024346432
 30
0.0
 40
0.120000004768372
  0
TEXT
  5
   486
  8
0
  6
CONTINUOUS
 62
     7
 10
-7.69665039857942
 20
118.918344455576
 30
0.0
 40
2.99999994039535
  1
PART. Z
 50
359.999999948034
 41
0.91666667064031
 72
     1
 11
1.65334945276845
 21
120.41834441734
 31
0.0
 73
     2
  0
TEXT
  5
   487
  8
0
  6
CONTINUOUS
 62
     7
 10
-92.792763414305
 20
26.3713808961515
 30
0.0
 40
2.99999994039535
  1
=       =
 50
89.9999999480344
 41
0.91666667064031
 72
     1
 11
-94.2927633735435
 21
38.4713807047883
 31
0.0
 73
     2
  0
INSERT
  5
   488
  8
0
  6
CONTINUOUS
 62
     7
  2
*UDIM1632
 10
0.0
 20
0.0
 30
0.0
  0
TEXT
  5
   489
  8
0
  6
CONTINUOUS
 62
     1
 10
-242.49414693539
 20
124.789797629543
 30
0.0
 40
2.00000008543332
  1
CORSA DI SEZIONAMENTO
 50
359.999999948034
 41
0.749999876022339
  0
TEXT
  5
   48A
  8
0
  6
CONTINUOUS
 62
     1
 10
-242.49414708838
 20
121.289797725864
 30
0.0
 40
2.00000008543332
  1
ISOLATING DISTANCE
 50
359.999999948034
 41
0.749999876022339
  0
INSERT
  5
   48B
  8
0
  6
CONTINUOUS
 62
     7
  2
*UDIM1633
 10
0.0
 20
0.0
 30
0.0
  0
INSERT
  5
   48C
  8
0
  6
CONTINUOUS
 62
     7
  2
*UDIM1634
 10
0.0
 20
0.0
 30
0.0
  0
TEXT
  5
   48D
  8
0
  6
CONTINUOUS
 62
     7
 10
-118.837964028382
 20
37.6048111256955
 30
0.0
 40
4.00000017086665
  1
x
 50
359.999999948034
 41
0.91562505146116
 72
     1
 11
-117.372963899223
 21
39.6048112098075
 31
0.0
 73
     2
  0
INSERT
  5
   48E
  8
0
  6
CONTINUOUS
 62
     7
  2
*UDIM1635
 10
0.0
 20
0.0
 30
0.0
  0
INSERT
  5
   48F
  8
0
  6
CONTINUOUS
 62
     7
  2
*UDIM1636
 10
0.0
 20
0.0
 30
0.0
  0
INSERT
  5
   490
  8
0
  6
CONTINUOUS
 62
     7
  2
*UDIM1637
 10
0.0
 20
0.0
 30
0.0
  0
INSERT
  5
   491
  8
0
  6
CONTINUOUS
 62
     7
  2
*UDIM1638
 10
0.0
 20
0.0
 30
0.0
  0
INSERT
  5
   492
  8
0
  6
CONTINUOUS
 62
     7
  2
*UDIM1639
 10
0.0
 20
0.0
 30
0.0
  0
INSERT
  5
   493
  8
0
  6
CONTINUOUS
 62
     7
  2
*UDIM1640
 10
0.0
 20
0.0
 30
0.0
  0
INSERT
  5
   494
  8
0
  6
CONTINUOUS
 62
     7
  2
*UDIM1641
 10
0.0
 20
0.0
 30
0.0
  0
INSERT
  5
   495
  8
0
  6
CONTINUOUS
 62
     7
  2
*UDIM1642
 10
0.0
 20
0.0
 30
0.0
  0
INSERT
  5
   496
  8
0
  6
CONTINUOUS
 62
     7
  2
*UDIM1643
 10
0.0
 20
0.0
 30
0.0
  0
TEXT
  5
   497
  8
0
  6
CONTINUOUS
 62
     7
 10
-273.728482180577
 20
24.607497612365
 30
0.0
 40
4.00000017086665
  1
=      =
 50
89.9999999480344
 41
0.91562505146116
 72
     1
 11
-275.728482253073
 21
38.8912490095622
 31
0.0
 73
     2
  0
INSERT
  5
   498
  8
0
  6
CONTINUOUS
 62
     7
  2
*UDIM1644
 10
0.0
 20
0.0
 30
0.0
  0
INSERT
  5
   499
  8
0
  6
CONTINUOUS
 62
     7
  2
*UDIM1645
 10
0.0
 20
0.0
 30
0.0
  0
INSERT
  5
   49A
  8
0
  6
CONTINUOUS
 62
     7
  2
*UDIM1646
 10
0.0
 20
0.0
 30
0.0
  0
INSERT
  5
   49B
  8
0
  6
CONTINUOUS
 62
     7
  2
*UDIM1647
 10
0.0
 20
0.0
 30
0.0
  0
INSERT
  5
   49C
  8
0
  6
CONTINUOUS
 62
     7
  2
*UDIM1648
 10
0.0
 20
0.0
 30
0.0
  0
INSERT
  5
   49D
  8
0
  6
CONTINUOUS
 62
     7
  2
*UDIM1649
 10
0.0
 20
0.0
 30
0.0
  0
TEXT
  5
   49E
  8
0
  6
CONTINUOUS
 62
     7
 10
-287.110825329202
 20
37.2574989796065
 30
0.0
 40
4.00000017086665
  1
x
 50
359.999999948034
 41
0.91562505146116
 72
     1
 11
-285.645825200043
 21
39.2574990637185
 31
0.0
 73
     2
  0
LINE
  5
   49F
  8
0
  6
CONTINUOUS
 62
     7
 10
-21.0141085505484
 20
-88.9811072051525
 30
0.0
 11
-84.0141110539435
 21
-88.9811072051525
 31
0.0
  0
LINE
  5
   4A0
  8
0
  6
CONTINUOUS
 62
     7
 10
-84.0141110539435
 20
-88.9811072051525
 30
0.0
 11
-84.0141110539435
 21
-95.9237976428225
 31
0.0
  0
LINE
  5
   4A1
  8
0
  6
CONTINUOUS
 62
     7
 10
-21.0141085505484
 20
-88.9811072051525
 30
0.0
 11
-21.0141085505484
 21
-95.9237976428225
 31
0.0
  0
LINE
  5
   4A2
  8
0
  6
CONTINUOUS
 62
     7
 10
-43.814109456539
 20
-83.8811070024967
 30
0.0
 11
-43.814109456539
 21
-88.9811072051525
 31
0.0
  0
LINE
  5
   4A3
  8
0
  6
CONTINUOUS
 62
     7
 10
-61.2141101479529
 20
-83.8811070024967
 30
0.0
 11
-61.2141101479529
 21
-88.9811072051525
 31
0.0
  0
LINE
  5
   4A4
  8
0
  6
CONTINUOUS
 62
     7
 10
-43.814109456539
 20
-83.8811070024967
 30
0.0
 11
-61.2141101479529
 21
-83.8811070024967
 31
0.0
  0
LINE
  5
   4A5
  8
0
  6
CONTINUOUS
 62
     7
 10
-22.8141086220739
 20
-83.8811070024967
 30
0.0
 11
-22.8141086220739
 21
-88.9811072051525
 31
0.0
  0
LINE
  5
   4A6
  8
0
  6
CONTINUOUS
 62
     7
 10
-40.2141093134878
 20
-83.8811070024967
 30
0.0
 11
-40.2141093134878
 21
-88.9811072051525
 31
0.0
  0
LINE
  5
   4A7
  8
0
  6
CONTINUOUS
 62
     7
 10
-22.8141086220739
 20
-83.8811070024967
 30
0.0
 11
-40.2141093134878
 21
-83.8811070024967
 31
0.0
  0
LINE
  5
   4A8
  8
0
  6
CONTINUOUS
 62
     7
 10
-21.7641131579876
 20
-88.9811072051525
 30
0.0
 11
-21.7641131579876
 21
-95.9237976428225
 31
0.0
  0
LINE
  5
   4A9
  8
0
  6
CONTINUOUS
 62
     7
 10
-83.2641064465042
 20
-88.9811072051525
 30
0.0
 11
-83.2641064465042
 21
-95.9237976428225
 31
0.0
  0
LINE
  5
   4AA
  8
0
  6
CONTINUOUS
 62
   132
 10
-50.1141097068785
 20
-59.7311060428619
 30
0.0
 11
-54.9141098976133
 21
-59.7311060428619
 31
0.0
  0
LINE
  5
   4AB
  8
0
  6
DOT
 62
     7
 10
-60.0141101002691
 20
-59.7311060428618
 30
0.0
 11
-60.014111816883
 21
-83.8811070024966
 31
0.0
  0
LINE
  5
   4AC
  8
0
  6
DOT
 62
     7
 10
-45.0141095042227
 20
-59.7311060428617
 30
0.0
 11
-45.0141112208365
 21
-83.8811092913149
 31
0.0
  0
LINE
  5
   4AD
  8
0
  6
CONTINUOUS
 62
   253
 10
-11.8641123853077
 20
-93.331107378006
 30
0.0
 11
-11.8641126113724
 21
-95.9237976428225
 31
0.0
  0
LINE
  5
   4AE
  8
0
  6
CONTINUOUS
 62
   253
 10
-11.564112752676
 20
-143.581113952398
 30
0.0
 11
-11.8641127645969
 21
-143.581113952398
 31
0.0
  0
LINE
  5
   4AF
  8
0
  6
CONTINUOUS
 62
     7
 10
-11.8641123853077
 20
-93.331107378006
 30
0.0
 11
-21.0141085505484
 21
-93.331107378006
 31
0.0
  0
LINE
  5
   4B0
  8
0
  6
DASHDOT
 62
     7
 10
-52.5141098022459
 20
-50.4395038494027
 30
0.0
 11
-52.5141098022459
 21
-59.7311060428621
 31
0.0
  0
LINE
  5
   4B1
  8
0
  6
CONTINUOUS
 62
     7
 10
-54.9141098976133
 20
-59.7311060428619
 30
0.0
 11
-54.9141098976133
 21
-83.8811070024967
 31
0.0
  0
LINE
  5
   4B2
  8
0
  6
CONTINUOUS
 62
     7
 10
-50.1141097068785
 20
-59.7311060428619
 30
0.0
 11
-50.1141097068785
 21
-83.8811070024967
 31
0.0
  0
LINE
  5
   4B3
  8
0
  6
DOT
 62
     7
 10
-45.0141095042201
 20
-59.7311060428621
 30
0.0
 11
-50.1141097068759
 21
-59.7311060428621
 31
0.0
  0
LINE
  5
   4B4
  8
0
  6
DOT
 62
     7
 10
-54.9141098976147
 20
-59.731106042862
 30
0.0
 11
-60.0141101002705
 21
-59.731106042862
 31
0.0
  0
LINE
  5
   4B5
  8
0
  6
CONTINUOUS
 62
     7
 10
-52.5141098022459
 20
-59.7311060428621
 30
0.0
 11
-52.5141098022459
 21
-83.8811070024967
 31
0.0
  0
LINE
  5
   4B6
  8
0
  6
DASHDOT
 62
     7
 10
-52.5141098022459
 20
-83.8811070024967
 30
0.0
 11
-52.5141098022459
 21
-100.325887434361
 31
0.0
  0
LINE
  5
   4B7
  8
0
  6
DASHDOT
 62
     7
 10
-45.0141095042201
 20
-63.9311062097551
 30
0.0
 11
-59.5574549291374
 21
-63.9311062097551
 31
0.0
  0
LINE
  5
   4B8
  8
0
  6
DASHDOT
 62
     7
 10
-45.0141095042201
 20
-70.5311064720155
 30
0.0
 11
-59.3373505369732
 21
-70.5311064720155
 31
0.0
  0
LINE
  5
   4B9
  8
0
  6
DASHDOT
 62
     7
 10
-73.5141106367109
 20
-83.8811070024967
 30
0.0
 11
-73.5141106367109
 21
-100.325887434361
 31
0.0
  0
LINE
  5
   4BA
  8
0
  6
DOT
 62
     7
 10
-33.9141090631509
 20
-59.7311060428621
 30
0.0
 11
-39.0141092658067
 21
-59.7311060428621
 31
0.0
  0
LINE
  5
   4BB
  8
0
  6
CONTINUOUS
 62
     7
 10
-33.9141090631483
 20
-59.7311060428619
 30
0.0
 11
-33.9141090631483
 21
-83.8811070024967
 31
0.0
  0
LINE
  5
   4BC
  8
0
  6
CONTINUOUS
 62
     7
 10
-31.5141089677809
 20
-59.7311060428621
 30
0.0
 11
-31.5141089677809
 21
-83.8811070024967
 31
0.0
  0
LINE
  5
   4BD
  8
0
  6
CONTINUOUS
 62
     7
 10
-29.1141088724135
 20
-59.7311060428619
 30
0.0
 11
-29.1141088724135
 21
-83.8811070024967
 31
0.0
  0
LINE
  5
   4BE
  8
0
  6
DOT
 62
     7
 10
-24.0141086697563
 20
-59.731106042862
 30
0.0
 11
-29.1141088724121
 21
-59.731106042862
 31
0.0
  0
LINE
  5
   4BF
  8
0
  6
DOT
 62
     7
 10
-24.0141050019616
 20
-59.7311060428618
 30
0.0
 11
-24.0141050019616
 21
-83.8811070024966
 31
0.0
  0
LINE
  5
   4C0
  8
0
  6
DASHDOT
 62
     7
 10
-24.4707638408894
 20
-63.9311062097551
 30
0.0
 11
-39.0141092658067
 21
-63.9311062097551
 31
0.0
  0
LINE
  5
   4C1
  8
0
  6
DASHDOT
 62
     7
 10
-24.6908682330537
 20
-70.5311064720155
 30
0.0
 11
-39.0141092658067
 21
-70.5311064720155
 31
0.0
  0
LINE
  5
   4C2
  8
0
  6
CONTINUOUS
 62
     7
 10
-29.1141088724135
 20
-59.7311060428619
 30
0.0
 11
-33.9141090631483
 21
-59.7311060428619
 31
0.0
  0
LINE
  5
   4C3
  8
0
  6
DASHDOT
 62
     7
 10
-31.5141089677809
 20
-57.1854265701773
 30
0.0
 11
-31.5141089677809
 21
-59.7311060428621
 31
0.0
  0
LINE
  5
   4C4
  8
0
  6
DOT
 62
     7
 10
-39.0141055980084
 20
-59.7311060428617
 30
0.0
 11
-39.0141055980084
 21
-83.8811092913149
 31
0.0
  0
LINE
  5
   4C5
  8
0
  6
DASHDOT
 62
     7
 10
-31.5141089677809
 20
-83.8811070024967
 30
0.0
 11
-31.5141089677809
 21
-100.325887434361
 31
0.0
  0
LINE
  5
   4C6
  8
0
  6
CONTINUOUS
 62
     7
 10
-89.2641177573667
 20
-93.331107378006
 30
0.0
 11
-89.2641177573667
 21
-95.9237976428225
 31
0.0
  0
LINE
  5
   4C7
  8
0
  6
CONTINUOUS
 62
     7
 10
-83.2641064465042
 20
-93.331107378006
 30
0.0
 11
-89.2641177573667
 21
-93.331107378006
 31
0.0
  0
CIRCLE
  5
   4C8
  8
0
  6
CONTINUOUS
 62
     7
 10
-75.3316045760196
 20
-69.2177989542071
 30
0.0
 40
7.50000029802322E-2
  0
CIRCLE
  5
   4C9
  8
0
  6
CONTINUOUS
 62
     7
 10
-75.3316045760196
 20
-69.2177989542071
 30
0.0
 40
7.50000029802322E-2
  0
LINE
  5
   4CA
  8
0
  6
DOT
 62
     7
 10
-81.0141146025302
 20
-59.7311060428618
 30
0.0
 11
-81.0141146025302
 21
-83.8811070024966
 31
0.0
  0
LINE
  5
   4CB
  8
0
  6
DOT
 62
     7
 10
-75.9141107320798
 20
-59.731106042862
 30
0.0
 11
-81.0141109347355
 21
-59.731106042862
 31
0.0
  0
LINE
  5
   4CC
  8
0
  6
CONTINUOUS
 62
     7
 10
-71.1141105413435
 20
-59.7311060428619
 30
0.0
 11
-75.9141107320784
 21
-59.7311060428619
 31
0.0
  0
LINE
  5
   4CD
  8
0
  6
DOT
 62
     7
 10
-66.0141103386851
 20
-59.7311060428621
 30
0.0
 11
-71.1141105413409
 21
-59.7311060428621
 31
0.0
  0
LINE
  5
   4CE
  8
0
  6
DOT
 62
     7
 10
-66.0141140064835
 20
-59.7311060428617
 30
0.0
 11
-66.0141140064835
 21
-83.8811092913149
 31
0.0
  0
LINE
  5
   4CF
  8
0
  6
DASHDOT
 62
     7
 10
-66.0141103386851
 20
-63.9311062097551
 30
0.0
 11
-80.5574557636024
 21
-63.9311062097551
 31
0.0
  0
LINE
  5
   4D0
  8
0
  6
DASHDOT
 62
     7
 10
-66.0141103386851
 20
-70.5311064720155
 30
0.0
 11
-80.3373513714382
 21
-70.5311064720155
 31
0.0
  0
LINE
  5
   4D1
  8
0
  6
CONTINUOUS
 62
     7
 10
-64.814110291004
 20
-83.8811070024967
 30
0.0
 11
-82.2141109824179
 21
-83.8811070024967
 31
0.0
  0
LINE
  5
   4D2
  8
0
  6
CONTINUOUS
 62
     7
 10
-82.2141109824179
 20
-83.8811070024967
 30
0.0
 11
-82.2141109824179
 21
-88.9811072051525
 31
0.0
  0
LINE
  5
   4D3
  8
0
  6
CONTINUOUS
 62
     7
 10
-64.814110291004
 20
-83.8811070024967
 30
0.0
 11
-64.814110291004
 21
-88.9811072051525
 31
0.0
  0
LINE
  5
   4D4
  8
0
  6
CONTINUOUS
 62
     7
 10
-73.5141106367109
 20
-59.7311060428621
 30
0.0
 11
-73.5141106367109
 21
-83.8811070024967
 31
0.0
  0
LINE
  5
   4D5
  8
0
  6
CONTINUOUS
 62
     7
 10
-71.1141105413435
 20
-59.7311060428619
 30
0.0
 11
-71.1141105413435
 21
-83.8811070024967
 31
0.0
  0
LINE
  5
   4D6
  8
0
  6
CONTINUOUS
 62
     7
 10
-11.8641126113724
 20
-95.9237976428225
 30
0.0
 11
-89.2641177573667
 21
-95.9237976428225
 31
0.0
  0
TEXT
  5
   4D7
  8
0
  6
CONTINUOUS
 62
     1
 10
-70.3849487322777
 20
-127.948707651348
 30
0.0
 40
2.00000008543332
  1
SCARPELLINI
 50
359.999999896069
 41
0.749999876022339
 72
     2
 11
-54.1849507200927
 21
-127.948707680652
 31
0.0
  0
TEXT
  5
   4D8
  8
0
  6
CONTINUOUS
 62
     1
 10
-32.5669847002833
 20
-134.750654220569
 30
0.0
 40
2.00000008543332
  1
M 4504 98-11-17
 50
359.999999896069
 41
0.749999876022339
 72
     1
 11
-21.4669860601425
 21
-133.750654197932
 31
0.0
 73
     2
  0
TEXT
  5
   4D9
  8
0
  6
CONTINUOUS
 62
     1
 10
-57.406980976299
 20
-134.750654729972
 30
0.0
 40
2.00000008543332
  1
M 3076 95-01-16
 50
359.999999896069
 41
0.749999876022339
 72
     1
 11
-46.3069823361583
 21
-133.750654707335
 31
0.0
 73
     2
  0
TEXT
  5
   4DA
  8
0
  6
CONTINUOUS
 62
     7
 10
-54.4101274046623
 20
-113.37022388594
 30
0.0
 40
4.00000017086665
  1
Y
 50
359.999999896069
 41
0.91562505146116
 72
     1
 11
-52.9451272736892
 21
-111.370223803156
 31
0.0
 73
     2
  0
TEXT
  5
   4DB
  8
0
  6
CONTINUOUS
 62
     7
 10
-53.6868682621936
 20
-48.0396550490889
 30
0.0
 40
4.00000017086665
  1
Y
 50
359.999999896069
 41
0.91562505146116
 72
     1
 11
-52.2218681312205
 21
-46.0396549663057
 31
0.0
 73
     2
  0
INSERT
  5
   4DC
  8
0
  6
CONTINUOUS
 62
     7
  2
*UDIM1650
 10
0.0
 20
0.0
 30
0.0
  0
INSERT
  5
   4DD
  8
0
  6
CONTINUOUS
 62
     7
  2
*UDIM1651
 10
0.0
 20
0.0
 30
0.0
  0
INSERT
  5
   4DE
  8
0
  6
CONTINUOUS
 62
     7
  2
*UDIM1652
 10
0.0
 20
0.0
 30
0.0
  0
TEXT
  5
   4DF
  8
0
  6
CONTINUOUS
 62
     1
 10
-70.3849490609311
 20
-119.481956404804
 30
0.0
 40
2.00000008543332
  1
93-04-05 FERRARI M.
 50
359.999999896069
 41
0.749999876022339
 72
     2
 11
-42.1849525197888
 21
-119.481956455816
 31
0.0
  0
TEXT
  5
   4E0
  8
0
  6
CONTINUOUS
 62
     1
 10
37.5993047246285
 20
-146.016800520786
 30
0.0
 40
4.00000017086665
  1
601840/201
 50
359.999999896069
 41
0.937499953061342
 72
     2
 11
74.3493044169195
 21
-146.016800587264
 31
0.0
  0
TEXT
  5
   4E1
  8
0
  6
CONTINUOUS
 62
     1
 10
38.6850011798075
 20
-137.03521658494
 30
0.0
 40
2.99999994039535
  1
     S7
 50
359.999999896069
 41
0.916666655739148
 72
     2
 11
57.3850006115765
 21
-137.035216618766
 31
0.0
  0
TEXT
  5
   4E2
  8
0
  6
CONTINUOUS
 62
     1
 10
27.1505785968569
 20
-118.724944799905
 30
0.0
 40
2.00000008543332
  1
3POLE LOW VOLTAGE M.C.C.B SERIES ISOMAX
 50
359.999999896069
 41
0.749999876022339
 72
     1
 11
56.2505750304335
 21
-117.724944809828
 31
0.0
 73
     2
  0
TEXT
  5
   4E3
  8
0
  6
CONTINUOUS
 62
     1
 10
30.1505782290962
 20
-121.724944805332
 30
0.0
 40
2.00000008543332
  1
WITHDRAWABLE VERSION REAR TERMINALS
 50
359.999999896069
 41
0.749999876022339
 72
     1
 11
56.2505750304335
 21
-120.724944809828
 31
0.0
 73
     2
  0
TEXT
  5
   4E4
  8
0
  6
CONTINUOUS
 62
     1
 10
30.352973258309
 20
-126.795211665697
 30
0.0
 40
2.00000008543332
  1
INTERR.AUTOMATICO SERIE ISOMAX
 50
359.999999896069
 41
0.749999876022339
 72
     1
 11
52.7029705193472
 21
-125.795211663409
 31
0.0
 73
     2
  0
TEXT
  5
   4E5
  8
0
  6
CONTINUOUS
 62
     1
 10
18.3529747293517
 20
-129.79521164399
 30
0.0
 40
2.00000008543332
  1
TRIPOL.ESECUZIONE ESTRAIBILE TERMIN.POSTERIORI
 50
359.999999896069
 41
0.749999876022339
 72
     1
 11
52.7029705193472
 21
-128.795211663409
 31
0.0
 73
     2
  0
LINE
  5
   4E6
  8
0
  6
CONTINUOUS
 62
     1
 10
-34.8141098618507
 20
35.8176730901
 30
0.0
 11
-34.8141098618507
 21
42.1176733404395
 31
0.0
  0
LINE
  5
   4E7
  8
0
  6
CONTINUOUS
 62
     1
 10
-32.7141097784042
 20
35.8176730901
 30
0.0
 11
-32.7141097784042
 21
42.1176733404395
 31
0.0
  0
LINE
  5
   4E8
  8
0
  6
CONTINUOUS
 62
     1
 10
-34.8141098618507
 20
42.1176733404395
 30
0.0
 11
-34.8141098618507
 21
42.4176733523605
 31
0.0
  0
LINE
  5
   4E9
  8
0
  6
CONTINUOUS
 62
     1
 10
-32.7141097760993
 20
42.1176733462544
 30
0.0
 11
-32.7141143537362
 21
42.4176733581754
 31
0.0
  0
LINE
  5
   4EA
  8
0
  6
CONTINUOUS
 62
     1
 10
-32.7141143392439
 20
42.4176734021671
 30
0.0
 11
-32.7944999323054
 21
42.7176734118056
 31
0.0
  0
LINE
  5
   4EB
  8
0
  6
CONTINUOUS
 62
     1
 10
-32.7945002362164
 20
42.7176728764787
 30
0.0
 11
-33.0141146477035
 21
42.9372872879658
 31
0.0
  0
LINE
  5
   4EC
  8
0
  6
CONTINUOUS
 62
     1
 10
-33.0141132295374
 20
42.9372886085825
 30
0.0
 11
-33.3141086595072
 21
43.0176742016173
 31
0.0
  0
LINE
  5
   4ED
  8
0
  6
CONTINUOUS
 62
     1
 10
-33.3141098022461
 20
43.0176733762023
 30
0.0
 11
-34.2141121268273
 21
43.0176733762023
 31
0.0
  0
LINE
  5
   4EE
  8
0
  6
CONTINUOUS
 62
     1
 10
-34.5141151171613
 20
42.9372872517689
 30
0.0
 11
-34.2141128176852
 21
43.0176728448314
 31
0.0
  0
LINE
  5
   4EF
  8
0
  6
CONTINUOUS
 62
     1
 10
-34.7337306772351
 20
42.7176725481235
 30
0.0
 11
-34.5141151102445
 21
42.9372869673602
 31
0.0
  0
LINE
  5
   4F0
  8
0
  6
CONTINUOUS
 62
     1
 10
-34.8141102706048
 20
42.4176724882433
 30
0.0
 11
-34.7337303977895
 21
42.7176725070029
 31
0.0
  0
LINE
  5
   4F1
  8
0
  6
CONTINUOUS
 62
     1
 10
-34.8141098618507
 20
35.5176730781791
 30
0.0
 11
-34.8141098618507
 21
35.8176730901
 31
0.0
  0
LINE
  5
   4F2
  8
0
  6
CONTINUOUS
 62
     1
 10
-32.7141143537361
 20
35.5176730824574
 30
0.0
 11
-32.7141097760992
 21
35.8176730943783
 31
0.0
  0
LINE
  5
   4F3
  8
0
  6
CONTINUOUS
 62
     1
 10
-32.7944999198412
 20
35.2176731114845
 30
0.0
 11
-32.7141143267797
 21
35.5176731211231
 31
0.0
  0
LINE
  5
   4F4
  8
0
  6
CONTINUOUS
 62
     1
 10
-33.0141150212141
 20
34.998056877609
 30
0.0
 11
-32.7945006019774
 21
35.2176724445996
 31
0.0
  0
LINE
  5
   4F5
  8
0
  6
CONTINUOUS
 62
     1
 10
-33.3141082618955
 20
34.917672781467
 30
0.0
 11
-33.0141128319257
 21
34.9980583745018
 31
0.0
  0
LINE
  5
   4F6
  8
0
  6
CONTINUOUS
 62
     1
 10
-33.3141098022461
 20
34.917671909928
 30
0.0
 11
-34.2141121268273
 21
34.917671909928
 31
0.0
  0
LINE
  5
   4F7
  8
0
  6
CONTINUOUS
 62
     1
 10
-34.2141116737463
 20
34.9176721207291
 30
0.0
 11
-34.5141139718909
 21
34.9980588615565
 31
0.0
  0
LINE
  5
   4F8
  8
0
  6
CONTINUOUS
 62
     1
 10
-34.5141147368001
 20
34.9980583428483
 30
0.0
 11
-34.7337303037907
 21
35.217672762085
 31
0.0
  0
LINE
  5
   4F9
  8
0
  6
CONTINUOUS
 62
     1
 10
-34.7337302254963
 20
35.2176725717033
 30
0.0
 11
-34.8141100983116
 21
35.5176725904629
 31
0.0
  0
LINE
  5
   4FA
  8
0
  6
CONTINUOUS
 62
     3
 10
-31.5141097307205
 20
59.9676763385532
 30
0.0
 11
-73.5141113996506
 21
59.9676763385532
 31
0.0
  0
LINE
  5
   4FB
  8
0
  6
CONTINUOUS
 62
     3
 10
-31.5141097307205
 20
17.9676727384326
 30
0.0
 11
-73.5141113996506
 21
17.9676727384326
 31
0.0
  0
LINE
  5
   4FC
  8
0
  6
CONTINUOUS
 62
     1
 10
-32.1891097575426
 20
56.3676761955021
 30
0.0
 11
-72.8391113728285
 21
56.3676761955021
 31
0.0
  0
LINE
  5
   4FD
  8
0
  6
CONTINUOUS
 62
     1
 10
-32.1891097575426
 20
59.3676763147114
 30
0.0
 11
-72.8391113728285
 21
59.3676763147114
 31
0.0
  0
LINE
  5
   4FE
  8
0
  6
CONTINUOUS
 62
     3
 10
-73.5141113996506
 20
17.9676727384326
 30
0.0
 11
-73.5141113996506
 21
56.3676788419484
 31
0.0
  0
LINE
  5
   4FF
  8
0
  6
CONTINUOUS
 62
     3
 10
-73.5141113996506
 20
59.3676763147114
 30
0.0
 11
-73.5141113996506
 21
59.9676763385532
 31
0.0
  0
LINE
  5
   500
  8
0
  6
CONTINUOUS
 62
     3
 10
-31.5141097307205
 20
59.3676763147114
 30
0.0
 11
-31.5141097307205
 21
59.9676763385532
 31
0.0
  0
LINE
  5
   501
  8
0
  6
CONTINUOUS
 62
     3
 10
-31.5141097307205
 20
17.9676746696232
 30
0.0
 11
-31.5141097307205
 21
56.3676761955021
 31
0.0
  0
LINE
  5
   502
  8
0
  6
CONTINUOUS
 62
     3
 10
-42.1641147315504
 20
55.4676738709209
 30
0.0
 11
-72.4641136467458
 21
55.4676738709209
 31
0.0
  0
LINE
  5
   503
  8
0
  6
CONTINUOUS
 62
     3
 10
-42.1641147315504
 20
19.0176722794768
 30
0.0
 11
-72.4641136467458
 21
19.0176722794768
 31
0.0
  0
LINE
  5
   504
  8
0
  6
CONTINUOUS
 62
     3
 10
-72.4641136467458
 20
19.0176722794768
 30
0.0
 11
-72.4641136467458
 21
55.4676737278697
 31
0.0
  0
LINE
  5
   505
  8
0
  6
CONTINUOUS
 62
     3
 10
-42.1641147315504
 20
19.0176722794768
 30
0.0
 11
-42.1641147315504
 21
55.4676737278697
 31
0.0
  0
LINE
  5
   506
  8
0
  6
CONTINUOUS
 62
     1
 10
-32.1891097575426
 20
56.3676761955021
 30
0.0
 11
-32.1891097575426
 21
59.3676763147114
 31
0.0
  0
LINE
  5
   507
  8
0
  6
CONTINUOUS
 62
     3
 10
-31.5141097307205
 20
56.3676761955021
 30
0.0
 11
-31.5141097307205
 21
59.3676763147114
 31
0.0
  0
LINE
  5
   508
  8
0
  6
CONTINUOUS
 62
     1
 10
-72.8391113728285
 20
56.3676761955021
 30
0.0
 11
-72.8391113728285
 21
59.3676763147114
 31
0.0
  0
LINE
  5
   509
  8
0
  6
CONTINUOUS
 62
     3
 10
-73.5141113996506
 20
56.3676761955021
 30
0.0
 11
-73.5141113996506
 21
59.3676763147114
 31
0.0
  0
LINE
  5
   50A
  8
0
  6
CONTINUOUS
 62
     1
 10
-33.1641189515594
 20
27.7927139699473
 30
0.0
 11
-33.2262420619381
 21
27.7927139699473
 31
0.0
  0
LINE
  5
   50B
  8
0
  6
CONTINUOUS
 62
     1
 10
-34.3019775783168
 20
24.4927132666124
 30
0.0
 11
-34.3641178548339
 21
24.4927132666124
 31
0.0
  0
LINE
  5
   50C
  8
0
  6
CONTINUOUS
 62
     1
 10
-32.7136119993866
 20
19.4526722983842
 30
0.0
 11
-32.6091114152093
 21
19.8426722273179
 31
0.0
  0
LINE
  5
   50D
  8
0
  6
CONTINUOUS
 62
     1
 10
-32.9991093923627
 20
19.1671728180075
 30
0.0
 11
-32.7136113442512
 21
19.4526725988537
 31
0.0
  0
LINE
  5
   50E
  8
0
  6
CONTINUOUS
 62
     1
 10
-33.3891077182197
 20
19.0626732635188
 30
0.0
 11
-32.9991067781768
 21
19.167173422841
 31
0.0
  0
LINE
  5
   50F
  8
0
  6
CONTINUOUS
 62
     1
 10
-33.3891076335729
 20
19.0626727194453
 30
0.0
 11
-33.7791074305479
 21
19.1671728685863
 31
0.0
  0
LINE
  5
   510
  8
0
  6
CONTINUOUS
 62
     1
 10
-33.7791100554581
 20
19.167173145256
 30
0.0
 11
-34.0646103966921
 21
19.4526729089094
 31
0.0
  0
LINE
  5
   511
  8
0
  6
CONTINUOUS
 62
     1
 10
-34.0646096493007
 20
19.4526728095171
 30
0.0
 11
-34.1691090912769
 21
19.8426727404086
 31
0.0
  0
LINE
  5
   512
  8
0
  6
CONTINUOUS
 62
     1
 10
-34.1691095401465
 20
19.8426726631161
 30
0.0
 11
-34.0646100972449
 21
20.2326727321845
 31
0.0
  0
LINE
  5
   513
  8
0
  6
CONTINUOUS
 62
     1
 10
-34.0646104428992
 20
20.2326725783464
 30
0.0
 11
-33.7791101016651
 21
20.5181723419999
 31
0.0
  0
LINE
  5
   514
  8
0
  6
CONTINUOUS
 62
     1
 10
-33.7791106721238
 20
20.5181723459504
 30
0.0
 11
-33.3891108782578
 21
20.6226726459656
 31
0.0
  0
LINE
  5
   515
  8
0
  6
CONTINUOUS
 62
     1
 10
-32.9991079696252
 20
20.518172557638
 30
0.0
 11
-33.3891088960805
 21
20.6226728585787
 31
0.0
  0
LINE
  5
   516
  8
0
  6
CONTINUOUS
 62
     1
 10
-32.7136112977166
 20
20.2326729042172
 30
0.0
 11
-32.9991093458281
 21
20.5181726850633
 31
0.0
  0
LINE
  5
   517
  8
0
  6
CONTINUOUS
 62
     1
 10
-32.6091093025983
 20
19.8426727523891
 30
0.0
 11
-32.7136098904782
 21
20.232672833087
 31
0.0
  0
LINE
  5
   518
  8
0
  6
CONTINUOUS
 62
     1
 10
-32.1591114950844
 20
19.8426730195778
 30
0.0
 11
-32.3238995487222
 21
20.4576731042414
 31
0.0
  0
LINE
  5
   519
  8
0
  6
CONTINUOUS
 62
     1
 10
-32.3238975594487
 20
20.4576729809403
 30
0.0
 11
-32.7741081358921
 21
20.9078841266328
 31
0.0
  0
LINE
  5
   51A
  8
0
  6
CONTINUOUS
 62
     1
 10
-32.7741081062398
 20
20.9078842518434
 30
0.0
 11
-33.3891090511028
 21
21.0726728876887
 31
0.0
  0
LINE
  5
   51B
  8
0
  6
CONTINUOUS
 62
     1
 10
-34.0041109898899
 20
20.9078839332487
 30
0.0
 11
-33.389111195203
 21
21.0726725760366
 31
0.0
  0
LINE
  5
   51C
  8
0
  6
CONTINUOUS
 62
     1
 10
-34.4543230723849
 20
20.4576722419953
 30
0.0
 11
-34.0041113577273
 21
20.907883387403
 31
0.0
  0
LINE
  5
   51D
  8
0
  6
CONTINUOUS
 62
     1
 10
-34.6191105997088
 20
19.8426724374874
 30
0.0
 11
-34.454322546071
 21
20.457672522151
 31
0.0
  0
LINE
  5
   51E
  8
0
  6
CONTINUOUS
 62
     1
 10
-34.4543224756256
 20
19.2276729753562
 30
0.0
 11
-34.6191105292634
 21
19.8426730600198
 31
0.0
  0
LINE
  5
   51F
  8
0
  6
CONTINUOUS
 62
     1
 10
-34.0041089262111
 20
18.7774614711292
 30
0.0
 11
-34.4543206534949
 21
19.227672780963
 31
0.0
  0
LINE
  5
   520
  8
0
  6
CONTINUOUS
 62
     1
 10
-33.3891091695097
 20
18.6126728083966
 30
0.0
 11
-34.0041089641966
 21
18.7774615840094
 31
0.0
  0
LINE
  5
   521
  8
0
  6
CONTINUOUS
 62
     1
 10
-33.3891116727077
 20
18.6126725494552
 30
0.0
 11
-32.7741107346563
 21
18.7774613176628
 31
0.0
  0
LINE
  5
   522
  8
0
  6
CONTINUOUS
 62
     1
 10
-32.7741081035756
 20
18.777461949882
 30
0.0
 11
-32.3238975018797
 21
19.2276732726269
 31
0.0
  0
LINE
  5
   523
  8
0
  6
CONTINUOUS
 62
     1
 10
-32.3238996191676
 20
19.2276723932658
 30
0.0
 11
-32.1591115655298
 21
19.8426724779294
 31
0.0
  0
LINE
  5
   524
  8
0
  6
CONTINUOUS
 62
     1
 10
-35.3241184082385
 20
23.5384923345179
 30
0.0
 11
-35.6837890724041
 21
23.9670947700952
 31
0.0
  0
LINE
  5
   525
  8
0
  6
CONTINUOUS
 62
     1
 10
-35.6837899029857
 20
23.9670946933539
 30
0.0
 11
-36.1380951900334
 21
24.293697074419
 31
0.0
  0
LINE
  5
   526
  8
0
  6
CONTINUOUS
 62
     1
 10
-36.1380961317913
 20
24.2936969855769
 30
0.0
 11
-36.6589419307835
 21
24.4981033498178
 31
0.0
  0
LINE
  5
   527
  8
0
  6
CONTINUOUS
 62
     1
 10
-36.6589425136786
 20
24.4981031646486
 30
0.0
 11
-37.21412059682
 21
24.56767294456
 31
0.0
  0
LINE
  5
   528
  8
0
  6
CONTINUOUS
 62
     1
 10
-37.7692987242195
 20
24.4981029746543
 30
0.0
 11
-37.2141206410781
 21
24.5676727545658
 31
0.0
  0
LINE
  5
   529
  8
0
  6
CONTINUOUS
 62
     1
 10
-38.2901439926284
 20
24.2936966300028
 30
0.0
 11
-37.7692981936363
 21
24.4981029942438
 31
0.0
  0
LINE
  5
   52A
  8
0
  6
CONTINUOUS
 62
     1
 10
-38.7444482888796
 20
23.9670946990528
 30
0.0
 11
-38.2901430018319
 21
24.2936970801178
 31
0.0
  0
LINE
  5
   52B
  8
0
  6
CONTINUOUS
 62
     1
 10
-39.1041180618516
 20
23.5384929459804
 30
0.0
 11
-38.744447397686
 21
23.9670953815577
 31
0.0
  0
LINE
  5
   52C
  8
0
  6
CONTINUOUS
 62
     1
 10
-39.104118958712
 20
21.0968534133503
 30
0.0
 11
-39.104118958712
 21
23.5384922661707
 31
0.0
  0
LINE
  5
   52D
  8
0
  6
CONTINUOUS
 62
     1
 10
-38.7444481067336
 20
20.6682512597656
 30
0.0
 11
-39.1041187663651
 21
21.0968533975734
 31
0.0
  0
LINE
  5
   52E
  8
0
  6
CONTINUOUS
 62
     1
 10
-38.2901434385211
 20
20.3416486568691
 30
0.0
 11
-38.7444487373579
 21
20.6682513090612
 31
0.0
  0
LINE
  5
   52F
  8
0
  6
CONTINUOUS
 62
     1
 10
-37.7692980776893
 20
20.1372422988269
 30
0.0
 11
-38.2901438766815
 21
20.3416486630678
 31
0.0
  0
LINE
  5
   530
  8
0
  6
CONTINUOUS
 62
     1
 10
-37.2141206664671
 20
20.0676726942801
 30
0.0
 11
-37.7692987474733
 21
20.1372421904387
 31
0.0
  0
LINE
  5
   531
  8
0
  6
CONTINUOUS
 62
     1
 10
-37.2141207502365
 20
20.0676724904835
 30
0.0
 11
-36.6589426692303
 21
20.1372419866421
 31
0.0
  0
LINE
  5
   532
  8
0
  6
CONTINUOUS
 62
     1
 10
-36.6589420467305
 20
20.1372419432529
 30
0.0
 11
-36.1380962477383
 21
20.3416483074938
 31
0.0
  0
LINE
  5
   533
  8
0
  6
CONTINUOUS
 62
     1
 10
-36.138095779316
 20
20.341648380127
 30
0.0
 11
-35.6837904804792
 21
20.6682510323191
 31
0.0
  0
LINE
  5
   534
  8
0
  6
CONTINUOUS
 62
     1
 10
-35.6837896335587
 20
20.6682514286481
 30
0.0
 11
-35.3241189739272
 21
21.0968535664558
 31
0.0
  0
LINE
  5
   535
  8
0
  6
CONTINUOUS
 62
     1
 10
-35.324119266272
 20
21.0968534133503
 30
0.0
 11
-35.324119266272
 21
23.5384922661707
 31
0.0
  0
LINE
  5
   536
  8
0
  6
CONTINUOUS
 62
     1
 10
-33.1641187511682
 20
27.7927141102899
 30
0.0
 11
-33.208052621399
 21
27.898780246115
 31
0.0
  0
LINE
  5
   537
  8
0
  6
CONTINUOUS
 62
     1
 10
-33.2080524737506
 20
27.8987801656543
 30
0.0
 11
-33.3141186095757
 21
27.942714035885
 31
0.0
  0
LINE
  5
   538
  8
0
  6
CONTINUOUS
 62
     1
 10
-33.3141189575199
 20
27.9427139759077
 30
0.0
 11
-33.4641098082066
 21
27.9427139759077
 31
0.0
  0
LINE
  5
   539
  8
0
  6
CONTINUOUS
 62
     1
 10
-34.0641098320484
 20
27.9427139759077
 30
0.0
 11
-34.2141189932827
 21
27.9427139759077
 31
0.0
  0
LINE
  5
   53A
  8
0
  6
CONTINUOUS
 62
     1
 10
-34.3201847185153
 20
27.8987803107824
 30
0.0
 11
-34.2141185826902
 21
27.9427141810131
 31
0.0
  0
LINE
  5
   53B
  8
0
  6
CONTINUOUS
 62
     1
 10
-34.3641187318863
 20
27.7927142545388
 30
0.0
 11
-34.3201848616555
 21
27.8987803903638
 31
0.0
  0
LINE
  5
   53C
  8
0
  6
CONTINUOUS
 62
     1
 10
-34.3641189992431
 20
27.042713940145
 30
0.0
 11
-34.3641189992431
 21
27.7927139699473
 31
0.0
  0
LINE
  5
   53D
  8
0
  6
CONTINUOUS
 62
     1
 10
-34.3641189992431
 20
26.4427133440985
 30
0.0
 11
-34.3641189992431
 21
27.042713940145
 31
0.0
  0
LINE
  5
   53E
  8
0
  6
CONTINUOUS
 62
     1
 10
-34.3641189992431
 20
25.8427133202566
 30
0.0
 11
-34.3641189992431
 21
26.4427133440985
 31
0.0
  0
LINE
  5
   53F
  8
0
  6
CONTINUOUS
 62
     1
 10
-34.3641189992431
 20
25.2427132964148
 30
0.0
 11
-34.3641189992431
 21
25.8427133202566
 31
0.0
  0
LINE
  5
   540
  8
0
  6
CONTINUOUS
 62
     1
 10
-34.3641189992431
 20
24.4927132666124
 30
0.0
 11
-34.3641189992431
 21
25.2427132964148
 31
0.0
  0
LINE
  5
   541
  8
0
  6
CONTINUOUS
 62
     1
 10
-34.320184930016
 20
24.3866472069067
 30
0.0
 11
-34.3641188002467
 21
24.4927133427318
 31
0.0
  0
LINE
  5
   542
  8
0
  6
CONTINUOUS
 62
     1
 10
-34.2141186519299
 20
24.3427132800666
 30
0.0
 11
-34.320184787755
 21
24.3866471502973
 31
0.0
  0
LINE
  5
   543
  8
0
  6
CONTINUOUS
 62
     1
 10
-33.3141189575199
 20
24.342713260652
 30
0.0
 11
-33.4641098082066
 21
24.342713260652
 31
0.0
  0
LINE
  5
   544
  8
0
  6
CONTINUOUS
 62
     1
 10
-34.0641098320484
 20
24.342713260652
 30
0.0
 11
-34.2141189932827
 21
24.342713260652
 31
0.0
  0
LINE
  5
   545
  8
0
  6
CONTINUOUS
 62
     1
 10
-33.3141185403359
 20
24.3427134251948
 30
0.0
 11
-33.2080524045109
 21
24.3866472954255
 31
0.0
  0
LINE
  5
   546
  8
0
  6
CONTINUOUS
 62
     1
 10
-33.2080525530385
 20
24.3866473511556
 30
0.0
 11
-33.1641186828078
 21
24.4927134869807
 31
0.0
  0
LINE
  5
   547
  8
0
  6
CONTINUOUS
 62
     1
 10
-33.1641189515594
 20
24.4927132666124
 30
0.0
 11
-33.1641189515594
 21
25.2427132964148
 31
0.0
  0
LINE
  5
   548
  8
0
  6
CONTINUOUS
 62
     1
 10
-33.1641189515594
 20
25.2427132964148
 30
0.0
 11
-33.1641189515594
 21
25.8427133202566
 31
0.0
  0
LINE
  5
   549
  8
0
  6
CONTINUOUS
 62
     1
 10
-33.1641189515594
 20
25.8427133202566
 30
0.0
 11
-33.1641189515594
 21
26.4427133440985
 31
0.0
  0
LINE
  5
   54A
  8
0
  6
CONTINUOUS
 62
     1
 10
-33.1641189515594
 20
26.4427133440985
 30
0.0
 11
-33.1641189515594
 21
27.0427127957357
 31
0.0
  0
LINE
  5
   54B
  8
0
  6
CONTINUOUS
 62
     1
 10
-33.1641189515594
 20
27.0427127957357
 30
0.0
 11
-33.1641189515594
 21
27.7927139699473
 31
0.0
  0
LINE
  5
   54C
  8
0
  6
CONTINUOUS
 62
     1
 10
-34.2141098380089
 20
53.4426737904546
 30
0.0
 11
-34.2141098380089
 21
54.3426738262174
 31
0.0
  0
LINE
  5
   54D
  8
0
  6
CONTINUOUS
 62
     1
 10
-34.1281671079064
 20
53.1781703099548
 30
0.0
 11
-34.2141099546746
 21
53.4426730399564
 31
0.0
  0
LINE
  5
   54E
  8
0
  6
CONTINUOUS
 62
     1
 10
-33.9031670798809
 20
53.0146988004372
 30
0.0
 11
-34.1281670868352
 21
53.1781707965044
 31
0.0
  0
LINE
  5
   54F
  8
0
  6
CONTINUOUS
 62
     1
 10
-33.625052655178
 20
53.0146990725207
 30
0.0
 11
-33.903166985077
 21
53.0146990725207
 31
0.0
  0
LINE
  5
   550
  8
0
  6
CONTINUOUS
 62
     1
 10
-33.6250529897819
 20
53.0146986703765
 30
0.0
 11
-33.4000529828276
 21
53.1781706664437
 31
0.0
  0
LINE
  5
   551
  8
0
  6
CONTINUOUS
 62
     1
 10
-33.4000530222076
 20
53.1781701785373
 30
0.0
 11
-33.3141101754394
 21
53.4426729085389
 31
0.0
  0
LINE
  5
   552
  8
0
  6
CONTINUOUS
 62
     1
 10
-33.3141098022461
 20
53.4426737904546
 30
0.0
 11
-33.3141098022461
 21
54.3426738262174
 31
0.0
  0
LINE
  5
   553
  8
0
  6
CONTINUOUS
 62
     1
 10
-33.3141099226878
 20
54.3426730486996
 30
0.0
 11
-33.400052769456
 21
54.6071757787013
 31
0.0
  0
LINE
  5
   554
  8
0
  6
CONTINUOUS
 62
     1
 10
-33.40005274156
 20
54.6071762675696
 30
0.0
 11
-33.6250527485143
 21
54.7706482636367
 31
0.0
  0
LINE
  5
   555
  8
0
  6
CONTINUOUS
 62
     1
 10
-33.625052655178
 20
54.7706485441513
 30
0.0
 11
-33.903166985077
 21
54.7706485441513
 31
0.0
  0
LINE
  5
   556
  8
0
  6
CONTINUOUS
 62
     1
 10
-34.1281673281028
 20
54.6071761375089
 30
0.0
 11
-33.9031673211485
 21
54.770648133576
 31
0.0
  0
LINE
  5
   557
  8
0
  6
CONTINUOUS
 62
     1
 10
-34.2141102074262
 20
54.3426729172822
 30
0.0
 11
-34.128167360658
 21
54.6071756472838
 31
0.0
  0
LINE
  5
   558
  8
0
  6
CONTINUOUS
 62
     1
 10
-33.7641098201275
 20
24.3427126884474
 30
0.0
 11
-34.0641098320484
 21
24.3427126884474
 31
0.0
  0
LINE
  5
   559
  8
0
  6
CONTINUOUS
 62
     1
 10
-33.4641098082066
 20
24.3427126884474
 30
0.0
 11
-33.7641098201275
 21
24.3427126884474
 31
0.0
  0
LINE
  5
   55A
  8
0
  6
CONTINUOUS
 62
     1
 10
-33.4641074765859
 20
24.3427136120571
 30
0.0
 11
-33.2519751982944
 21
24.4305819273237
 31
0.0
  0
LINE
  5
   55B
  8
0
  6
CONTINUOUS
 62
     1
 10
-33.2519786179841
 20
24.4305801099318
 30
0.0
 11
-33.1641108775224
 21
24.6427118066937
 31
0.0
  0
LINE
  5
   55C
  8
0
  6
CONTINUOUS
 62
     1
 10
-33.1641097962856
 20
24.6427127003683
 30
0.0
 11
-33.1641097962856
 21
25.842712748052
 31
0.0
  0
LINE
  5
   55D
  8
0
  6
CONTINUOUS
 62
     1
 10
-33.1641097962856
 20
25.842712748052
 30
0.0
 11
-33.1641097962856
 21
26.4427127718939
 31
0.0
  0
LINE
  5
   55E
  8
0
  6
CONTINUOUS
 62
     1
 10
-33.1641097962856
 20
26.4427127718939
 30
0.0
 11
-33.1641097962856
 21
27.6427128195776
 31
0.0
  0
LINE
  5
   55F
  8
0
  6
CONTINUOUS
 62
     1
 10
-33.1641095953173
 20
27.6427129568952
 30
0.0
 11
-33.2519773357788
 21
27.8548452285453
 31
0.0
  0
LINE
  5
   560
  8
0
  6
CONTINUOUS
 62
     1
 10
-33.2519771893476
 20
27.854845150712
 30
0.0
 11
-33.4641094609978
 21
27.9427128911735
 31
0.0
  0
LINE
  5
   561
  8
0
  6
CONTINUOUS
 62
     1
 10
-33.4641098082066
 20
27.9427128314985
 30
0.0
 11
-33.7641098201275
 21
27.9427128314985
 31
0.0
  0
LINE
  5
   562
  8
0
  6
CONTINUOUS
 62
     1
 10
-33.7641098201275
 20
27.9427128314985
 30
0.0
 11
-34.0641098320484
 21
27.9427128314985
 31
0.0
  0
LINE
  5
   563
  8
0
  6
CONTINUOUS
 62
     1
 10
-34.2762416900809
 20
27.8548452967195
 30
0.0
 11
-34.0641094184307
 21
27.9427130371809
 31
0.0
  0
LINE
  5
   564
  8
0
  6
CONTINUOUS
 62
     1
 10
-34.3641095771893
 20
27.6427131011441
 30
0.0
 11
-34.2762418367279
 21
27.8548453727942
 31
0.0
  0
LINE
  5
   565
  8
0
  6
CONTINUOUS
 62
     1
 10
-34.3641098439693
 20
26.4427127718939
 30
0.0
 11
-34.3641098439693
 21
27.6427128195776
 31
0.0
  0
LINE
  5
   566
  8
0
  6
CONTINUOUS
 62
     1
 10
-34.3641098439693
 20
25.842712748052
 30
0.0
 11
-34.3641098439693
 21
26.4427127718939
 31
0.0
  0
LINE
  5
   567
  8
0
  6
CONTINUOUS
 62
     1
 10
-34.3641098439693
 20
24.6427127003683
 30
0.0
 11
-34.3641098439693
 21
25.842712748052
 31
0.0
  0
LINE
  5
   568
  8
0
  6
CONTINUOUS
 62
     1
 10
-34.2762429075708
 20
24.4305806913403
 30
0.0
 11
-34.3641106480325
 21
24.6427123881022
 31
0.0
  0
LINE
  5
   569
  8
0
  6
CONTINUOUS
 62
     1
 10
-34.0641078985897
 20
24.3427127942073
 30
0.0
 11
-34.2762401768811
 21
24.4305811094739
 31
0.0
  0
LINE
  5
   56A
  8
0
  6
CONTINUOUS
 62
     1
 10
-12.1641089615982
 20
45.9426803589661
 30
0.0
 11
-13.2141102936374
 21
45.9426828238506
 31
0.0
  0
LINE
  5
   56B
  8
0
  6
CONTINUOUS
 62
     1
 10
-42.1641147315504
 20
47.4594231254555
 30
0.0
 11
-72.4641136467458
 21
47.4594231254555
 31
0.0
  0
LINE
  5
   56C
  8
0
  6
CONTINUOUS
 62
     1
 10
-42.1641147315504
 20
47.7594231373764
 30
0.0
 11
-72.4641136467458
 21
47.7594231373764
 31
0.0
  0
LINE
  5
   56D
  8
0
  6
CONTINUOUS
 62
   132
 10
-58.8141108155251
 20
23.7967184803501
 30
0.0
 11
-58.8141108155251
 21
46.6386253633477
 31
0.0
  0
LINE
  5
   56E
  8
0
  6
CONTINUOUS
 62
   132
 10
-46.214110314846
 20
23.7967184803501
 30
0.0
 11
-46.214110314846
 21
46.6386253633477
 31
0.0
  0
LINE
  5
   56F
  8
0
  6
CONTINUOUS
 62
     1
 10
-58.8141108155251
 20
41.7594228989578
 30
0.0
 11
-72.4641136467458
 21
41.7594228989578
 31
0.0
  0
LINE
  5
   570
  8
0
  6
CONTINUOUS
 62
     1
 10
-42.1641147315504
 20
41.7594228989578
 30
0.0
 11
-46.214110314846
 21
41.7594228989578
 31
0.0
  0
LINE
  5
   571
  8
0
  6
CONTINUOUS
 62
     1
 10
-42.1641147315504
 20
42.0594229108788
 30
0.0
 11
-46.214110314846
 21
42.0594229108788
 31
0.0
  0
LINE
  5
   572
  8
0
  6
CONTINUOUS
 62
     1
 10
-58.8141108155251
 20
42.0594229108788
 30
0.0
 11
-72.4641136467458
 21
42.0594229108788
 31
0.0
  0
LINE
  5
   573
  8
0
  6
CONTINUOUS
 62
     1
 10
-42.1641147315504
 20
28.6105053690205
 30
0.0
 11
-46.214110314846
 21
28.6105053690205
 31
0.0
  0
LINE
  5
   574
  8
0
  6
CONTINUOUS
 62
     1
 10
-58.8141108155251
 20
28.6105053690205
 30
0.0
 11
-72.4641136467458
 21
28.6105053690205
 31
0.0
  0
LINE
  5
   575
  8
0
  6
CONTINUOUS
 62
     1
 10
-58.8141108155251
 20
28.3105053570996
 30
0.0
 11
-72.4641136467458
 21
28.3105053570996
 31
0.0
  0
LINE
  5
   576
  8
0
  6
CONTINUOUS
 62
     1
 10
-42.1641147315504
 20
28.3105053570996
 30
0.0
 11
-46.214110314846
 21
28.3105053570996
 31
0.0
  0
LINE
  5
   577
  8
0
  6
CONTINUOUS
 62
     1
 10
-42.1641147315504
 20
22.9105051425229
 30
0.0
 11
-72.4641136467458
 21
22.9105051425229
 31
0.0
  0
LINE
  5
   578
  8
0
  6
CONTINUOUS
 62
     1
 10
-42.1641147315504
 20
22.610505130602
 30
0.0
 11
-72.4641136467458
 21
22.610505130602
 31
0.0
  0
LINE
  5
   579
  8
0
  6
CONTINUOUS
 62
     7
 10
-46.644369845798
 20
29.7579301124911
 30
0.0
 11
-58.3838512845731
 21
29.7579301124911
 31
0.0
  0
LINE
  5
   57A
  8
0
  6
CONTINUOUS
 62
     7
 10
-58.4730238246688
 20
29.7285465399037
 30
0.0
 11
-58.3838514560629
 21
29.7579303924833
 31
0.0
  0
LINE
  5
   57B
  8
0
  6
CONTINUOUS
 62
     7
 10
-58.5272595612166
 20
29.6519080400201
 30
0.0
 11
-58.4730237190496
 21
29.728546835921
 31
0.0
  0
LINE
  5
   57C
  8
0
  6
CONTINUOUS
 62
     7
 10
-58.7341636383017
 20
28.7402189980847
 30
0.0
 11
-58.5272596014335
 21
29.6519080387062
 31
0.0
  0
LINE
  5
   57D
  8
0
  6
CONTINUOUS
 62
     7
 10
-58.8036428116347
 20
27.8079296864527
 30
0.0
 11
-58.7341634379699
 21
28.7402180915827
 31
0.0
  0
LINE
  5
   57E
  8
0
  6
CONTINUOUS
 62
     7
 10
-58.7341634609518
 20
26.8756425808899
 30
0.0
 11
-58.8036428331487
 21
27.8079298447756
 31
0.0
  0
LINE
  5
   57F
  8
0
  6
CONTINUOUS
 62
     7
 10
-58.5272594678145
 20
25.9639531203194
 30
0.0
 11
-58.7341635059457
 21
26.8756427189558
 31
0.0
  0
LINE
  5
   580
  8
0
  6
CONTINUOUS
 62
     7
 10
-58.4730230528856
 20
25.8873129469642
 30
0.0
 11
-58.5272588945677
 21
25.9639523143379
 31
0.0
  0
LINE
  5
   581
  8
0
  6
CONTINUOUS
 62
     7
 10
-58.3838512288823
 20
25.8579304839179
 30
0.0
 11
-58.473023595543
 21
25.8873137628864
 31
0.0
  0
LINE
  5
   582
  8
0
  6
CONTINUOUS
 62
     7
 10
-46.644369845798
 20
25.8579305297236
 30
0.0
 11
-58.3838512845731
 21
25.8579305297236
 31
0.0
  0
LINE
  5
   583
  8
0
  6
CONTINUOUS
 62
     7
 10
-46.6443699020471
 20
25.8579304837721
 30
0.0
 11
-46.5551975353863
 21
25.8873137627406
 31
0.0
  0
LINE
  5
   584
  8
0
  6
CONTINUOUS
 62
     7
 10
-46.5551980774855
 20
25.8873129469642
 30
0.0
 11
-46.5009622358034
 21
25.9639523143379
 31
0.0
  0
LINE
  5
   585
  8
0
  6
CONTINUOUS
 62
     7
 10
-46.5009616625566
 20
25.9639531203194
 30
0.0
 11
-46.2940576244254
 21
26.8756427189558
 31
0.0
  0
LINE
  5
   586
  8
0
  6
CONTINUOUS
 62
     7
 10
-46.2940576694193
 20
26.8756425808899
 30
0.0
 11
-46.2245782972224
 21
27.8079298447756
 31
0.0
  0
LINE
  5
   587
  8
0
  6
CONTINUOUS
 62
     7
 10
-46.2245783187364
 20
27.8079296864527
 30
0.0
 11
-46.2940576924012
 21
28.7402180915827
 31
0.0
  0
LINE
  5
   588
  8
0
  6
CONTINUOUS
 62
     7
 10
-46.2940574920694
 20
28.7402189980847
 30
0.0
 11
-46.5009615289376
 21
29.6519080387062
 31
0.0
  0
LINE
  5
   589
  8
0
  6
CONTINUOUS
 62
     7
 10
-46.5009615691546
 20
29.6519080400201
 30
0.0
 11
-46.5551974113215
 21
29.728546835921
 31
0.0
  0
LINE
  5
   58A
  8
0
  6
CONTINUOUS
 62
     7
 10
-46.5551973033588
 20
29.7285465398588
 30
0.0
 11
-46.6443696719647
 21
29.7579303924384
 31
0.0
  0
LINE
  5
   58B
  8
0
  6
CONTINUOUS
 62
     1
 10
-33.3141098022461
 20
53.9676738113162
 30
0.0
 11
-34.0019775663959
 21
53.9676738113162
 31
0.0
  0
LINE
  5
   58C
  8
0
  6
CONTINUOUS
 62
     1
 10
-34.1080431872417
 20
53.9237404716237
 30
0.0
 11
-34.0019770514166
 21
53.9676743418545
 31
0.0
  0
LINE
  5
   58D
  8
0
  6
CONTINUOUS
 62
     1
 10
-34.2141106228265
 20
53.8176727060636
 30
0.0
 11
-34.1080444894525
 21
53.9237388394375
 31
0.0
  0
LINE
  5
   58E
  8
0
  6
CONTINUOUS
 62
     1
 10
-34.2840599966483
 20
24.3716831634187
 30
0.0
 11
-34.2314709590997
 21
24.4120361772269
 31
0.0
  0
LINE
  5
   58F
  8
0
  6
CONTINUOUS
 62
   152
 10
-21.014109313488
 20
102.342682600021
 30
0.0
 11
-84.0141118168831
 21
102.342682600021
 31
0.0
  0
LINE
  5
   590
  8
0
  6
CONTINUOUS
 62
   152
 10
-21.014109313488
 20
-19.4573222398758
 30
0.0
 11
-84.0141118168831
 21
-19.4573222398758
 31
0.0
  0
LINE
  5
   591
  8
0
  6
CONTINUOUS
 62
   152
 10
-84.0141118168831
 20
-21.5573223233223
 30
0.0
 11
-84.0141118168831
 21
104.442682683468
 31
0.0
  0
LINE
  5
   592
  8
0
  6
CONTINUOUS
 62
   152
 10
-21.014109313488
 20
68.367678035191
 30
0.0
 11
-21.014109313488
 21
104.442682683468
 31
0.0
  0
LINE
  5
   593
  8
0
  6
CONTINUOUS
 62
   152
 10
-21.014109313488
 20
-21.5573223233223
 30
0.0
 11
-21.014109313488
 21
9.56767398207509
 31
0.0
  0
LINE
  5
   594
  8
0
  6
CONTINUOUS
 62
   152
 10
-31.9641097486019
 20
75.9426815509796
 30
0.0
 11
-73.0641113817692
 21
75.9426815509796
 31
0.0
  0
LINE
  5
   595
  8
0
  6
CONTINUOUS
 62
     1
 10
-84.0141118168831
 20
35.59268681407
 30
0.0
 11
-84.1641209781173
 21
35.59268681407
 31
0.0
  0
LINE
  5
   596
  8
0
  6
CONTINUOUS
 62
     1
 10
-84.0141118168831
 20
28.6926865398887
 30
0.0
 11
-84.1641232669358
 21
28.6926865398887
 31
0.0
  0
LINE
  5
   597
  8
0
  6
CONTINUOUS
 62
     1
 10
-84.0141118168831
 20
48.49268732667
 30
0.0
 11
-84.1641209781173
 21
48.49268732667
 31
0.0
  0
LINE
  5
   598
  8
0
  6
CONTINUOUS
 62
     1
 10
-84.1641216891397
 20
57.2676870080702
 30
0.0
 11
-84.1904545452716
 21
57.5013341779591
 31
0.0
  0
LINE
  5
   599
  8
0
  6
CONTINUOUS
 62
     1
 10
-84.1904529856811
 20
57.5013310184706
 30
0.0
 11
-84.2681103035211
 21
57.7232640090195
 31
0.0
  0
LINE
  5
   59A
  8
0
  6
CONTINUOUS
 62
     1
 10
-84.2681127375317
 20
57.7232677946062
 30
0.0
 11
-84.3932081116972
 21
57.922353805014
 31
0.0
  0
LINE
  5
   59B
  8
0
  6
CONTINUOUS
 62
     1
 10
-84.3932082370301
 20
57.9223534823132
 30
0.0
 11
-84.5594657261176
 21
58.0886132557731
 31
0.0
  0
LINE
  5
   59C
  8
0
  6
CONTINUOUS
 62
     1
 10
-84.559464066911
 20
58.0886113730794
 30
0.0
 11
-84.7585500708198
 21
58.2137044606258
 31
0.0
  0
LINE
  5
   59D
  8
0
  6
CONTINUOUS
 62
     1
 10
-84.758547706697
 20
58.2137026641672
 30
0.0
 11
-84.9804784137574
 21
58.2913622752228
 31
0.0
  0
LINE
  5
   59E
  8
0
  6
CONTINUOUS
 62
     1
 10
-84.9804826912638
 20
58.2913653068216
 30
0.0
 11
-85.2141298571158
 21
58.3176867195357
 31
0.0
  0
LINE
  5
   59F
  8
0
  6
CONTINUOUS
 62
     1
 10
-85.2141278864513
 20
58.3176854283598
 30
0.0
 11
-87.3141211034425
 21
58.3176900059967
 31
0.0
  0
LINE
  5
   5A0
  8
0
  6
CONTINUOUS
 62
     1
 10
-87.3141211032871
 20
57.5676853984596
 30
0.0
 11
-87.3141211032871
 21
58.3176900058988
 31
0.0
  0
LINE
  5
   5A1
  8
0
  6
CONTINUOUS
 62
     1
 10
-87.3141211034425
 20
57.5676853985558
 30
0.0
 11
-85.2141301752698
 21
57.5676899761926
 31
0.0
  0
LINE
  5
   5A2
  8
0
  6
CONTINUOUS
 62
     1
 10
-85.0993247002424
 20
57.5448517219217
 30
0.0
 11
-85.2141295444001
 21
57.5676895518965
 31
0.0
  0
LINE
  5
   5A3
  8
0
  6
CONTINUOUS
 62
     1
 10
-85.0019949439036
 20
57.4798195089739
 30
0.0
 11
-85.0993223682177
 21
57.5448494205441
 31
0.0
  0
LINE
  5
   5A4
  8
0
  6
CONTINUOUS
 62
     1
 10
-84.9369635892861
 20
57.3824896410073
 30
0.0
 11
-85.0019957874499
 21
57.4798193555336
 31
0.0
  0
LINE
  5
   5A5
  8
0
  6
CONTINUOUS
 62
     1
 10
-84.9141291312129
 20
57.2676878427362
 30
0.0
 11
-84.9369646727405
 21
57.3824903963024
 31
0.0
  0
LINE
  5
   5A6
  8
0
  6
CONTINUOUS
 62
     1
 10
-84.9141301631935
 20
28.6926865398887
 30
0.0
 11
-84.9141301631935
 21
57.2676899641756
 31
0.0
  0
LINE
  5
   5A7
  8
0
  6
CONTINUOUS
 62
     1
 10
-84.1641278446464
 20
28.6926853954929
 30
0.0
 11
-84.9141301632672
 21
28.6926865399021
 31
0.0
  0
LINE
  5
   5A8
  8
0
  6
CONTINUOUS
 62
     1
 10
-84.1641278445736
 20
28.6926853954801
 30
0.0
 11
-84.1641209781183
 21
57.2676865309486
 31
0.0
  0
LINE
  5
   5A9
  8
0
  6
CONTINUOUS
 62
     1
 10
-11.8641135275366
 20
54.9426875829699
 30
0.0
 11
-13.2141102936374
 21
54.9426875829699
 31
0.0
  0
LINE
  5
   5AA
  8
0
  6
CONTINUOUS
 62
   253
 10
-11.8641135275366
 20
64.5426856756212
 30
0.0
 11
-12.1641089618206
 21
64.5426856756212
 31
0.0
  0
LINE
  5
   5AB
  8
0
  6
DOT
 62
     7
 10
-12.1641089618206
 20
64.5426856756212
 30
0.0
 11
-21.014109313488
 21
64.5426856756212
 31
0.0
  0
LINE
  5
   5AC
  8
0
  6
CONTINUOUS
 62
   253
 10
-11.8641089498997
 20
21.1176770836114
 30
0.0
 11
-13.2141102936374
 21
21.1176770836114
 31
0.0
  0
LINE
  5
   5AD
  8
0
  6
CONTINUOUS
 62
   253
 10
-11.8641089498997
 20
21.1176770836114
 30
0.0
 11
-11.8641089498997
 21
22.5426748514174
 31
0.0
  0
LINE
  5
   5AE
  8
0
  6
CONTINUOUS
 62
     1
 10
-11.8641089498997
 20
45.9426803588867
 30
0.0
 11
-12.1641089618206
 21
45.9426803588867
 31
0.0
  0
LINE
  5
   5AF
  8
0
  6
CONTINUOUS
 62
   253
 10
-11.8641089498993
 20
22.5426748514179
 30
0.0
 11
-11.8641135275363
 21
64.5426856756218
 31
0.0
  0
LINE
  5
   5B0
  8
0
  6
CONTINUOUS
 62
   253
 10
-11.5641089379787
 20
38.4426686167712
 30
0.0
 11
-11.5641089379787
 21
44.4426688551898
 31
0.0
  0
LINE
  5
   5B1
  8
0
  6
CONTINUOUS
 62
   132
 10
-46.214110314846
 20
46.3110519555557
 30
0.0
 11
-58.8141108155251
 21
46.3110519555557
 31
0.0
  0
LINE
  5
   5B2
  8
0
  6
CONTINUOUS
 62
   132
 10
-46.214110314846
 20
46.6386253633477
 30
0.0
 11
-58.8141108155251
 21
46.6386253633477
 31
0.0
  0
LINE
  5
   5B3
  8
0
  6
CONTINUOUS
 62
   132
 10
-46.214110314846
 20
23.7967184803501
 30
0.0
 11
-58.8141108155251
 21
23.7967184803501
 31
0.0
  0
LINE
  5
   5B4
  8
0
  6
CONTINUOUS
 62
   132
 10
-46.214110314846
 20
24.1242913159375
 30
0.0
 11
-58.8141108155251
 21
24.1242913159375
 31
0.0
  0
LINE
  5
   5B5
  8
0
  6
CONTINUOUS
 62
     1
 10
-84.1641203279395
 20
52.5328719027205
 30
0.0
 11
-84.0141134591797
 21
52.8210295682458
 31
0.0
  0
LINE
  5
   5B6
  8
0
  6
CONTINUOUS
 62
     1
 10
-84.0141155650218
 20
56.4643524717665
 30
0.0
 11
-84.1641224337817
 21
56.7525101372918
 31
0.0
  0
LINE
  5
   5B7
  8
0
  6
CONTINUOUS
 62
   253
 10
-11.5641089379787
 20
44.4426688551898
 30
0.0
 11
-11.8641089498997
 21
44.4426688551898
 31
0.0
  0
LINE
  5
   5B8
  8
0
  6
CONTINUOUS
 62
   253
 10
-11.5641089379787
 20
38.4426686167712
 30
0.0
 11
-11.8641089498997
 21
38.4426686167712
 31
0.0
  0
INSERT
  5
   5B9
  8
255
  6
CONTINUOUS
 62
     1
  2
$2FIANCATA
 10
-84.0141118168831
 20
64.5426856756212
 30
0.0
 41
0.300000011920929
 42
0.300000011920929
 50
3.50835464724173E-15
 43
0.300000011920929
  0
LINE
  5
   5BA
  8
0
  6
CONTINUOUS
 62
     1
 10
-89.5641120374203
 20
38.4426228404022
 30
0.0
 11
-89.5641120374203
 21
44.4426230788208
 31
0.0
  0
LINE
  5
   5BB
  8
0
  6
DASHDOT
 62
     7
 10
-4.94595818142486
 20
38.9676755040882
 30
0.0
 11
-97.6265567976609
 21
38.9676755040882
 31
0.0
  0
LINE
  5
   5BC
  8
0
  6
CONTINUOUS
 62
     1
 10
-83.0746123098967
 20
14.2179497441675
 30
0.0
 11
-83.6390898710328
 21
14.2179517468835
 31
0.0
  0
LINE
  5
   5BD
  8
0
  6
CONTINUOUS
 62
     1
 10
-21.0141099885327
 20
77.3679516881813
 30
0.0
 11
-84.0141111418385
 21
77.3679516881813
 31
0.0
  0
LINE
  5
   5BE
  8
0
  6
CONTINUOUS
 62
     1
 10
-81.3141129996884
 20
14.217949464928
 30
0.0
 11
-83.0746067746677
 21
14.217949464928
 31
0.0
  0
LINE
  5
   5BF
  8
0
  6
CONTINUOUS
 62
     1
 10
-81.3141129996884
 20
14.5179494768489
 30
0.0
 11
-83.9391026586291
 21
14.5179494768489
 31
0.0
  0
LINE
  5
   5C0
  8
0
  6
CONTINUOUS
 62
     1
 10
-81.3141129996883
 20
52.9179324060779
 30
0.0
 11
-84.0141077033351
 21
52.9179324060779
 31
0.0
  0
LINE
  5
   5C1
  8
0
  6
CONTINUOUS
 62
     1
 10
-81.3141129996884
 20
21.4179446011888
 30
0.0
 11
-83.9391118139029
 21
21.4179446011888
 31
0.0
  0
LINE
  5
   5C2
  8
0
  6
CONTINUOUS
 62
     1
 10
-83.369104467034
 20
52.9179324060779
 30
0.0
 11
-83.369104467034
 21
77.3679471105444
 31
0.0
  0
LINE
  5
   5C3
  8
0
  6
CONTINUOUS
 62
     1
 10
-82.2890934377901
 20
52.9179324060779
 30
0.0
 11
-82.2890934377901
 21
77.3679471105444
 31
0.0
  0
LINE
  5
   5C4
  8
0
  6
CONTINUOUS
 62
     1
 10
-80.1291080003975
 20
68.367678035191
 30
0.0
 11
-80.1291080003975
 21
77.3679471105444
 31
0.0
  0
LINE
  5
   5C5
  8
0
  6
CONTINUOUS
 62
     1
 10
-79.0490969711536
 20
68.367678035191
 30
0.0
 11
-79.0490969711536
 21
77.3679471105444
 31
0.0
  0
LINE
  5
   5C6
  8
0
  6
CONTINUOUS
 62
     1
 10
-77.9691042524573
 20
68.367678035191
 30
0.0
 11
-77.9691042524573
 21
77.3679471105444
 31
0.0
  0
LINE
  5
   5C7
  8
0
  6
CONTINUOUS
 62
     1
 10
-76.8890932232134
 20
68.367678035191
 30
0.0
 11
-76.8890932232134
 21
77.3679471105444
 31
0.0
  0
LINE
  5
   5C8
  8
0
  6
CONTINUOUS
 62
     1
 10
-75.8091005045171
 20
68.367678035191
 30
0.0
 11
-75.8091005045171
 21
77.3679471105444
 31
0.0
  0
LINE
  5
   5C9
  8
0
  6
CONTINUOUS
 62
     1
 10
-74.7291077858208
 20
68.367678035191
 30
0.0
 11
-74.7291077858208
 21
77.3679471105444
 31
0.0
  0
LINE
  5
   5CA
  8
0
  6
CONTINUOUS
 62
     1
 10
-83.369104467034
 20
21.4179540425649
 30
0.0
 11
-83.369104467034
 21
52.9179324060779
 31
0.0
  0
LINE
  5
   5CB
  8
0
  6
CONTINUOUS
 62
     1
 10
-82.2890934377901
 20
21.4179540425649
 30
0.0
 11
-82.2890934377901
 21
52.9179324060779
 31
0.0
  0
LINE
  5
   5CC
  8
0
  6
CONTINUOUS
 62
     2
 10
-83.369104467034
 20
-21.5573223233223
 30
0.0
 11
-83.369104467034
 21
1.91795282169207
 31
0.0
  0
LINE
  5
   5CD
  8
0
  6
CONTINUOUS
 62
     2
 10
-82.2890934377901
 20
-21.5573223233223
 30
0.0
 11
-82.2890934377901
 21
1.91795282169207
 31
0.0
  0
LINE
  5
   5CE
  8
0
  6
CONTINUOUS
 62
     2
 10
-81.2091007190938
 20
-21.5573223233223
 30
0.0
 11
-81.2091007190938
 21
1.91795282169207
 31
0.0
  0
LINE
  5
   5CF
  8
0
  6
CONTINUOUS
 62
     2
 10
-80.1291080003975
 20
-21.5573223233223
 30
0.0
 11
-80.1291080003975
 21
1.91795282169207
 31
0.0
  0
LINE
  5
   5D0
  8
0
  6
CONTINUOUS
 62
     2
 10
-79.0490969711536
 20
-21.5573223233223
 30
0.0
 11
-79.0490969711536
 21
1.91795282169207
 31
0.0
  0
LINE
  5
   5D1
  8
0
  6
CONTINUOUS
 62
     2
 10
-77.9691042524573
 20
-21.5573223233223
 30
0.0
 11
-77.9691042524573
 21
1.91795282169207
 31
0.0
  0
LINE
  5
   5D2
  8
0
  6
CONTINUOUS
 62
     2
 10
-76.8890932232134
 20
-21.5573223233223
 30
0.0
 11
-76.8890932232134
 21
1.91795282169207
 31
0.0
  0
LINE
  5
   5D3
  8
0
  6
CONTINUOUS
 62
     2
 10
-75.8091005045171
 20
-21.5573223233223
 30
0.0
 11
-75.8091005045171
 21
1.91795282169207
 31
0.0
  0
LINE
  5
   5D4
  8
0
  6
CONTINUOUS
 62
     2
 10
-74.7291077858208
 20
-21.5573223233223
 30
0.0
 11
-74.7291077858208
 21
1.91795282169207
 31
0.0
  0
LINE
  5
   5D5
  8
0
  6
CONTINUOUS
 62
     2
 10
-73.6490967565769
 20
2.36795099676747
 30
0.0
 11
-73.6490967565769
 21
9.56767398207509
 31
0.0
  0
LINE
  5
   5D6
  8
0
  6
CONTINUOUS
 62
     1
 10
-21.659116663337
 20
68.367678035191
 30
0.0
 11
-21.659116663337
 21
77.3679471105444
 31
0.0
  0
LINE
  5
   5D7
  8
0
  6
CONTINUOUS
 62
     1
 10
-22.739127692581
 20
68.367678035191
 30
0.0
 11
-22.739127692581
 21
77.3679471105444
 31
0.0
  0
LINE
  5
   5D8
  8
0
  6
CONTINUOUS
 62
     1
 10
-23.8191204112773
 20
68.367678035191
 30
0.0
 11
-23.8191204112773
 21
77.3679471105444
 31
0.0
  0
LINE
  5
   5D9
  8
0
  6
CONTINUOUS
 62
     1
 10
-24.8991131299736
 20
68.367678035191
 30
0.0
 11
-24.8991131299736
 21
77.3679471105444
 31
0.0
  0
LINE
  5
   5DA
  8
0
  6
CONTINUOUS
 62
     1
 10
-25.9791241592175
 20
68.367678035191
 30
0.0
 11
-25.9791241592175
 21
77.3679471105444
 31
0.0
  0
LINE
  5
   5DB
  8
0
  6
CONTINUOUS
 62
     1
 10
-27.0591168779138
 20
68.367678035191
 30
0.0
 11
-27.0591168779138
 21
77.3679471105444
 31
0.0
  0
LINE
  5
   5DC
  8
0
  6
CONTINUOUS
 62
     1
 10
-28.1391279071577
 20
68.367678035191
 30
0.0
 11
-28.1391279071577
 21
77.3679471105444
 31
0.0
  0
LINE
  5
   5DD
  8
0
  6
CONTINUOUS
 62
     1
 10
-29.219120625854
 20
68.367678035191
 30
0.0
 11
-29.219120625854
 21
77.3679471105444
 31
0.0
  0
LINE
  5
   5DE
  8
0
  6
CONTINUOUS
 62
     1
 10
-30.2991133445503
 20
68.367678035191
 30
0.0
 11
-30.2991133445503
 21
77.3679471105444
 31
0.0
  0
LINE
  5
   5DF
  8
0
  6
CONTINUOUS
 62
     1
 10
-31.3791243737942
 20
68.367678035191
 30
0.0
 11
-31.3791243737942
 21
77.3679471105444
 31
0.0
  0
LINE
  5
   5E0
  8
0
  6
CONTINUOUS
 62
     1
 10
-31.9640960156928
 20
68.367678035191
 30
0.0
 11
-31.9640960156928
 21
75.8679506711638
 31
0.0
  0
LINE
  5
   5E1
  8
0
  6
CONTINUOUS
 62
     1
 10
-73.0640839159461
 20
68.367678035191
 30
0.0
 11
-73.0640839159461
 21
75.8679480083689
 31
0.0
  0
LINE
  5
   5E2
  8
0
  6
CONTINUOUS
 62
     1
 10
-31.9641189038757
 20
75.8679516285766
 30
0.0
 11
-73.0641068041323
 21
75.8679516285766
 31
0.0
  0
LINE
  5
   5E3
  8
0
  6
CONTINUOUS
 62
     1
 10
-83.6390934914343
 20
14.2179514676442
 30
0.0
 11
-83.6390934914343
 21
14.5179494768489
 31
0.0
  0
LINE
  5
   5E4
  8
0
  6
CONTINUOUS
 62
     1
 10
-52.0490486913896
 20
-21.5573223233223
 30
0.0
 11
-52.0490486913896
 21
1.91795282169208
 31
0.0
  0
LINE
  5
   5E5
  8
0
  6
CONTINUOUS
 62
     1
 10
-50.9690496784427
 20
-21.5573223233223
 30
0.0
 11
-50.9690496784427
 21
1.91795282169207
 31
0.0
  0
LINE
  5
   5E6
  8
0
  6
CONTINUOUS
 62
     1
 10
-49.7390486568193
 20
-21.5573223233223
 30
0.0
 11
-49.7390486568193
 21
1.91795282169208
 31
0.0
  0
LINE
  5
   5E7
  8
0
  6
CONTINUOUS
 62
     1
 10
-48.6590487855656
 20
-21.5573223233223
 30
0.0
 11
-48.6590487855656
 21
1.91795282169208
 31
0.0
  0
LINE
  5
   5E8
  8
0
  6
CONTINUOUS
 62
     1
 10
-47.5790609306085
 20
-21.5573223233223
 30
0.0
 11
-47.5790609306085
 21
1.91795282169207
 31
0.0
  0
LINE
  5
   5E9
  8
0
  6
CONTINUOUS
 62
     1
 10
-46.4990590566386
 20
-21.5573223233223
 30
0.0
 11
-46.4990590566386
 21
1.91795282169207
 31
0.0
  0
LINE
  5
   5EA
  8
0
  6
CONTINUOUS
 62
     1
 10
-45.4190480273957
 20
-21.5573223233223
 30
0.0
 11
-45.4190480273957
 21
1.91795282169208
 31
0.0
  0
LINE
  5
   5EB
  8
0
  6
CONTINUOUS
 62
     1
 10
-44.3390598863356
 20
-21.5573223233223
 30
0.0
 11
-44.3390598863356
 21
1.91795282169207
 31
0.0
  0
LINE
  5
   5EC
  8
0
  6
CONTINUOUS
 62
     1
 10
-43.2590900558225
 20
-21.5573223233223
 30
0.0
 11
-43.2590900558225
 21
-6.55581310323966
 31
0.0
  0
LINE
  5
   5ED
  8
0
  6
CONTINUOUS
 62
     1
 10
-42.1790973371262
 20
-21.5573223233223
 30
0.0
 11
-42.1790973371262
 21
-7.37271061201255
 31
0.0
  0
LINE
  5
   5EE
  8
0
  6
CONTINUOUS
 62
     1
 10
-41.0990954631561
 20
-21.5573223233223
 30
0.0
 11
-41.0990954631561
 21
-7.02579657665734
 31
0.0
  0
LINE
  5
   5EF
  8
0
  6
CONTINUOUS
 62
     1
 10
-40.0190523904574
 20
-21.5573223233223
 30
0.0
 11
-40.0190523904574
 21
1.91795282169207
 31
0.0
  0
LINE
  5
   5F0
  8
0
  6
CONTINUOUS
 62
     1
 10
-38.9390505164876
 20
-21.5573223233223
 30
0.0
 11
-38.9390505164876
 21
1.91795282169207
 31
0.0
  0
LINE
  5
   5F1
  8
0
  6
CONTINUOUS
 62
     1
 10
-37.8590486425178
 20
-21.5573223233223
 30
0.0
 11
-37.8590486425178
 21
1.91795282169207
 31
0.0
  0
LINE
  5
   5F2
  8
0
  6
CONTINUOUS
 62
     1
 10
-36.779078812003
 20
-21.5573223233223
 30
0.0
 11
-36.779078812003
 21
1.91795282169207
 31
0.0
  0
LINE
  5
   5F3
  8
0
  6
CONTINUOUS
 62
     1
 10
-35.699054049852
 20
-21.5573223233223
 30
0.0
 11
-35.699054049852
 21
1.91795282169207
 31
0.0
  0
LINE
  5
   5F4
  8
0
  6
CONTINUOUS
 62
     1
 10
-34.6190521758822
 20
-21.5573223233223
 30
0.0
 11
-34.6190521758822
 21
1.91795282169207
 31
0.0
  0
LINE
  5
   5F5
  8
0
  6
CONTINUOUS
 62
     1
 10
-33.5390503019124
 20
-21.5573223233223
 30
0.0
 11
-33.5390503019124
 21
1.91795282169207
 31
0.0
  0
LINE
  5
   5F6
  8
0
  6
CONTINUOUS
 62
     1
 10
-32.4590575832165
 20
-21.5573223233223
 30
0.0
 11
-32.4590575832165
 21
1.91795282169207
 31
0.0
  0
LINE
  5
   5F7
  8
0
  6
CONTINUOUS
 62
     1
 10
-21.014109925248
 20
77.8179471284257
 30
0.0
 11
-52.5141105651856
 21
77.8179471284257
 31
0.0
  0
LINE
  5
   5F8
  8
0
  6
CONTINUOUS
 62
     1
 10
-53.1291758781696
 20
-21.5573223233223
 30
0.0
 11
-53.1291758781696
 21
1.91795282169207
 31
0.0
  0
LINE
  5
   5F9
  8
0
  6
CONTINUOUS
 62
     1
 10
-54.2091788965487
 20
-21.5573223233223
 30
0.0
 11
-54.2091788965487
 21
1.91795282169207
 31
0.0
  0
LINE
  5
   5FA
  8
0
  6
CONTINUOUS
 62
     1
 10
-55.2891770511887
 20
-21.5573223233223
 30
0.0
 11
-55.2891770511887
 21
1.91795282169207
 31
0.0
  0
LINE
  5
   5FB
  8
0
  6
CONTINUOUS
 62
     1
 10
-56.3691769224424
 20
-21.5573223233223
 30
0.0
 11
-56.3691769224424
 21
1.91795282169208
 31
0.0
  0
LINE
  5
   5FC
  8
0
  6
CONTINUOUS
 62
     1
 10
-57.4491647773995
 20
-21.5573223233223
 30
0.0
 11
-57.4491647773995
 21
1.91795282169207
 31
0.0
  0
LINE
  5
   5FD
  8
0
  6
CONTINUOUS
 62
     1
 10
-58.5291666513694
 20
-21.5573223233223
 30
0.0
 11
-58.5291666513694
 21
1.91795282169207
 31
0.0
  0
LINE
  5
   5FE
  8
0
  6
CONTINUOUS
 62
     1
 10
-59.6091776806123
 20
-21.5573223233223
 30
0.0
 11
-59.6091776806123
 21
1.91795282169207
 31
0.0
  0
LINE
  5
   5FF
  8
0
  6
CONTINUOUS
 62
     1
 10
-60.6891658216724
 20
-21.5573223233223
 30
0.0
 11
-60.6891658216724
 21
1.91795282169207
 31
0.0
  0
LINE
  5
   600
  8
0
  6
CONTINUOUS
 62
     1
 10
-61.7691356521855
 20
-21.5573223233223
 30
0.0
 11
-61.7691356521855
 21
-6.55584482712281
 31
0.0
  0
LINE
  5
   601
  8
0
  6
CONTINUOUS
 62
     1
 10
-61.7691339788753
 20
89.2628490132427
 30
0.0
 11
-61.7691124519865
 21
104.442682683468
 31
0.0
  0
LINE
  5
   602
  8
0
  6
CONTINUOUS
 62
     1
 10
-62.6991323913567
 20
90.0686710330237
 30
0.0
 11
-62.6991106504855
 21
104.442682683468
 31
0.0
  0
LINE
  5
   603
  8
0
  6
CONTINUOUS
 62
     1
 10
-62.8491237932449
 20
-21.5573223233223
 30
0.0
 11
-62.8491237932449
 21
-7.37267421832039
 31
0.0
  0
LINE
  5
   604
  8
0
  6
CONTINUOUS
 62
     1
 10
-63.7791225561543
 20
89.8753038589048
 30
0.0
 11
-63.7791008692067
 21
104.442682683468
 31
0.0
  0
LINE
  5
   605
  8
0
  6
CONTINUOUS
 62
     1
 10
-63.929125667215
 20
-21.5573223233223
 30
0.0
 11
-63.929125667215
 21
-7.02556962381013
 31
0.0
  0
LINE
  5
   606
  8
0
  6
CONTINUOUS
 62
     1
 10
-65.0091687399136
 20
-21.5573223233223
 30
0.0
 11
-65.0091687399136
 21
1.91795282169207
 31
0.0
  0
LINE
  5
   607
  8
0
  6
CONTINUOUS
 62
     1
 10
-66.0891706138835
 20
-21.5573223233223
 30
0.0
 11
-66.0891706138835
 21
1.91795282169207
 31
0.0
  0
LINE
  5
   608
  8
0
  6
CONTINUOUS
 62
     1
 10
-67.1691724878533
 20
-21.5573223233223
 30
0.0
 11
-67.1691724878533
 21
1.91795282169207
 31
0.0
  0
LINE
  5
   609
  8
0
  6
CONTINUOUS
 62
     1
 10
-68.2491743618231
 20
-21.5573223233223
 30
0.0
 11
-68.2491743618231
 21
1.91795282169208
 31
0.0
  0
LINE
  5
   60A
  8
0
  6
CONTINUOUS
 62
     1
 10
-69.329167080519
 20
-21.5573223233223
 30
0.0
 11
-69.329167080519
 21
1.91795282169207
 31
0.0
  0
LINE
  5
   60B
  8
0
  6
CONTINUOUS
 62
     1
 10
-70.4091689544888
 20
-21.5573223233223
 30
0.0
 11
-70.4091689544888
 21
1.91795282169208
 31
0.0
  0
LINE
  5
   60C
  8
0
  6
CONTINUOUS
 62
     1
 10
-71.4891708284586
 20
-21.5573223233223
 30
0.0
 11
-71.4891708284586
 21
1.91795282169208
 31
0.0
  0
LINE
  5
   60D
  8
0
  6
CONTINUOUS
 62
     1
 10
-72.5691727024284
 20
-21.5573223233223
 30
0.0
 11
-72.5691727024284
 21
1.91795282169208
 31
0.0
  0
LINE
  5
   60E
  8
0
  6
CONTINUOUS
 62
     1
 10
-73.6491242223983
 20
77.8179654389734
 30
0.0
 11
-73.6491242223983
 21
104.442682683468
 31
0.0
  0
LINE
  5
   60F
  8
0
  6
CONTINUOUS
 62
     1
 10
-74.7291444069145
 20
77.817900547023
 30
0.0
 11
-74.7291444069145
 21
104.442682683468
 31
0.0
  0
LINE
  5
   610
  8
0
  6
CONTINUOUS
 62
     1
 10
-75.809169169064
 20
77.8179097091877
 30
0.0
 11
-75.809169169064
 21
104.442682683468
 31
0.0
  0
LINE
  5
   611
  8
0
  6
CONTINUOUS
 62
     1
 10
-76.8891206890348
 20
77.8179654389734
 30
0.0
 11
-76.8891206890348
 21
104.442682683468
 31
0.0
  0
LINE
  5
   612
  8
0
  6
CONTINUOUS
 62
     1
 10
-77.9691408735507
 20
77.8179017648807
 30
0.0
 11
-77.9691408735507
 21
104.442682683468
 31
0.0
  0
LINE
  5
   613
  8
0
  6
CONTINUOUS
 62
     1
 10
-79.049124436975
 20
77.8179654389734
 30
0.0
 11
-79.049124436975
 21
104.442682683468
 31
0.0
  0
LINE
  5
   614
  8
0
  6
CONTINUOUS
 62
     1
 10
-80.1291446214908
 20
77.817902576788
 30
0.0
 11
-80.1291446214908
 21
104.442682683468
 31
0.0
  0
LINE
  5
   615
  8
0
  6
CONTINUOUS
 62
     1
 10
-81.209137340187
 20
77.8179029827383
 30
0.0
 11
-81.209137340187
 21
104.442682683468
 31
0.0
  0
LINE
  5
   616
  8
0
  6
CONTINUOUS
 62
     1
 10
-82.2891209036115
 20
77.8179654389734
 30
0.0
 11
-82.2891209036115
 21
104.442682683468
 31
0.0
  0
LINE
  5
   617
  8
0
  6
CONTINUOUS
 62
     1
 10
-83.3691410881271
 20
77.817912949923
 30
0.0
 11
-83.3691410881271
 21
104.442682683468
 31
0.0
  0
LINE
  5
   618
  8
0
  6
CONTINUOUS
 62
     1
 10
-52.5141124158604
 20
77.8179471284212
 30
0.0
 11
-84.0141112051263
 21
77.8179471284212
 31
0.0
  0
CIRCLE
  5
   619
  8
0
  6
CONTINUOUS
 62
     1
 10
-63.0140820874933
 20
88.7679459736244
 30
0.0
 40
1.35059393238156
  0
LINE
  5
   61A
  8
0
  6
DASHDOT
 62
     7
 10
-63.0140820874933
 20
84.4173519220335
 30
0.0
 11
-63.0140820874933
 21
102.267806193238
 31
0.0
  0
LINE
  5
   61B
  8
0
  6
DASHDOT
 62
     7
 10
-58.6634880359024
 20
88.7679459736244
 30
0.0
 11
-67.3646761390841
 21
88.7679459736244
 31
0.0
  0
LINE
  5
   61C
  8
0
  6
CONTINUOUS
 62
     1
 10
-21.0141205993657
 20
1.91795282169207
 30
0.0
 11
-84.0141005310054
 21
1.91795282169207
 31
0.0
  0
LINE
  5
   61D
  8
0
  6
CONTINUOUS
 62
     1
 10
-21.3141205690964
 20
2.217952833613
 30
0.0
 11
-83.7141005612747
 21
2.217952833613
 31
0.0
  0
LINE
  5
   61E
  8
0
  6
CONTINUOUS
 62
     1
 10
-21.0141205360806
 20
2.36795099676747
 30
0.0
 11
-84.0141005942905
 21
2.36795099676747
 31
0.0
  0
LINE
  5
   61F
  8
0
  6
CONTINUOUS
 62
     1
 10
-81.3141129996884
 20
14.0679514616837
 30
0.0
 11
-84.014102239708
 21
14.0679514616837
 31
0.0
  0
LINE
  5
   620
  8
0
  6
CONTINUOUS
 62
     1
 10
-83.7141026496881
 20
1.91795282169207
 30
0.0
 11
-83.7141026496881
 21
2.217952833613
 31
0.0
  0
LINE
  5
   621
  8
0
  6
CONTINUOUS
 62
     1
 10
-21.3141184806831
 20
1.91795282169207
 30
0.0
 11
-21.3141184806831
 21
2.217952833613
 31
0.0
  0
LINE
  5
   622
  8
0
  6
CONTINUOUS
 62
     1
 10
-73.5141113996506
 20
2.36795099676747
 30
0.0
 11
-73.5141113996506
 21
9.56767398207509
 31
0.0
  0
LINE
  5
   623
  8
0
  6
CONTINUOUS
 62
     1
 10
-31.5141097307205
 20
2.36795099676746
 30
0.0
 11
-31.5141097307205
 21
9.56767398207509
 31
0.0
  0
LINE
  5
   624
  8
0
  6
CONTINUOUS
 62
     2
 10
-83.369104467034
 20
2.36795099676747
 30
0.0
 11
-83.369104467034
 21
14.0679514616837
 31
0.0
  0
LINE
  5
   625
  8
0
  6
CONTINUOUS
 62
     2
 10
-82.2890934377901
 20
2.36795099676747
 30
0.0
 11
-82.2890934377901
 21
14.0679514616837
 31
0.0
  0
LINE
  5
   626
  8
0
  6
CONTINUOUS
 62
     2
 10
-81.2091007190938
 20
2.36795099676747
 30
0.0
 11
-81.2091007190938
 21
9.56767398207509
 31
0.0
  0
LINE
  5
   627
  8
0
  6
CONTINUOUS
 62
     2
 10
-80.1291080003975
 20
2.36795099676747
 30
0.0
 11
-80.1291080003975
 21
9.56767398207509
 31
0.0
  0
LINE
  5
   628
  8
0
  6
CONTINUOUS
 62
     2
 10
-79.0490969711536
 20
2.36795099676747
 30
0.0
 11
-79.0490969711536
 21
9.56767398207509
 31
0.0
  0
LINE
  5
   629
  8
0
  6
CONTINUOUS
 62
     2
 10
-77.9691042524573
 20
2.36795099676747
 30
0.0
 11
-77.9691042524573
 21
9.56767398207509
 31
0.0
  0
LINE
  5
   62A
  8
0
  6
CONTINUOUS
 62
     2
 10
-76.8890932232134
 20
2.36795099676747
 30
0.0
 11
-76.8890932232134
 21
9.56767398207509
 31
0.0
  0
LINE
  5
   62B
  8
0
  6
CONTINUOUS
 62
     2
 10
-75.8091005045171
 20
2.36795099676747
 30
0.0
 11
-75.8091005045171
 21
9.56767398207509
 31
0.0
  0
LINE
  5
   62C
  8
0
  6
CONTINUOUS
 62
     2
 10
-74.7291077858208
 20
2.36795099676747
 30
0.0
 11
-74.7291077858208
 21
9.56767398207509
 31
0.0
  0
LINE
  5
   62D
  8
0
  6
CONTINUOUS
 62
     1
 10
-73.6490967565769
 20
68.367678035191
 30
0.0
 11
-73.6490967565769
 21
77.3679471105444
 31
0.0
  0
LINE
  5
   62E
  8
0
  6
CONTINUOUS
 62
     1
 10
-83.369104467034
 20
14.5179494768489
 30
0.0
 11
-83.369104467034
 21
21.4179451733934
 31
0.0
  0
LINE
  5
   62F
  8
0
  6
CONTINUOUS
 62
     1
 10
-82.2890934377901
 20
14.5179494768489
 30
0.0
 11
-82.2890934377901
 21
21.4179451733934
 31
0.0
  0
LINE
  5
   630
  8
0
  6
CONTINUOUS
 62
     2
 10
-73.6491077429055
 20
-21.5573223233223
 30
0.0
 11
-73.6491077429055
 21
1.91795282169207
 31
0.0
  0
LINE
  5
   631
  8
0
  6
CONTINUOUS
 62
     1
 10
-21.659116663337
 20
2.36795099676746
 30
0.0
 11
-21.659116663337
 21
9.56767398207509
 31
0.0
  0
LINE
  5
   632
  8
0
  6
CONTINUOUS
 62
     1
 10
-22.739127692581
 20
2.36795099676746
 30
0.0
 11
-22.739127692581
 21
9.56767398207509
 31
0.0
  0
LINE
  5
   633
  8
0
  6
CONTINUOUS
 62
     1
 10
-23.8191204112773
 20
2.36795099676746
 30
0.0
 11
-23.8191204112773
 21
9.56767398207509
 31
0.0
  0
LINE
  5
   634
  8
0
  6
CONTINUOUS
 62
     1
 10
-24.8991131299736
 20
2.36795099676746
 30
0.0
 11
-24.8991131299736
 21
9.56767398207509
 31
0.0
  0
LINE
  5
   635
  8
0
  6
CONTINUOUS
 62
     1
 10
-25.9791241592175
 20
2.36795099676746
 30
0.0
 11
-25.9791241592175
 21
9.56767398207509
 31
0.0
  0
LINE
  5
   636
  8
0
  6
CONTINUOUS
 62
     1
 10
-27.0591168779138
 20
2.36795099676746
 30
0.0
 11
-27.0591168779138
 21
9.56767398207509
 31
0.0
  0
LINE
  5
   637
  8
0
  6
CONTINUOUS
 62
     1
 10
-28.1391279071577
 20
2.36795099676746
 30
0.0
 11
-28.1391279071577
 21
9.56767398207509
 31
0.0
  0
LINE
  5
   638
  8
0
  6
CONTINUOUS
 62
     1
 10
-29.219120625854
 20
2.36795099676746
 30
0.0
 11
-29.219120625854
 21
9.56767398207509
 31
0.0
  0
LINE
  5
   639
  8
0
  6
CONTINUOUS
 62
     1
 10
-30.2991133445503
 20
2.36795099676746
 30
0.0
 11
-30.2991133445503
 21
9.56767398207509
 31
0.0
  0
LINE
  5
   63A
  8
0
  6
CONTINUOUS
 62
     1
 10
-31.3791243737942
 20
2.36795099676746
 30
0.0
 11
-31.3791243737942
 21
9.56767398207509
 31
0.0
  0
LINE
  5
   63B
  8
0
  6
CONTINUOUS
 62
     1
 10
-21.659116663337
 20
-21.5573223233223
 30
0.0
 11
-21.659116663337
 21
1.91795282169206
 31
0.0
  0
LINE
  5
   63C
  8
0
  6
CONTINUOUS
 62
     1
 10
-22.739127692581
 20
-21.5573223233223
 30
0.0
 11
-22.739127692581
 21
1.91795282169206
 31
0.0
  0
LINE
  5
   63D
  8
0
  6
CONTINUOUS
 62
     1
 10
-23.8191204112773
 20
-21.5573223233223
 30
0.0
 11
-23.8191204112773
 21
1.91795282169206
 31
0.0
  0
LINE
  5
   63E
  8
0
  6
CONTINUOUS
 62
     1
 10
-24.8991131299736
 20
-21.5573223233223
 30
0.0
 11
-24.8991131299736
 21
1.91795282169206
 31
0.0
  0
LINE
  5
   63F
  8
0
  6
CONTINUOUS
 62
     1
 10
-25.9791241592175
 20
-21.5573223233223
 30
0.0
 11
-25.9791241592175
 21
1.91795282169206
 31
0.0
  0
LINE
  5
   640
  8
0
  6
CONTINUOUS
 62
     1
 10
-27.0591168779138
 20
-21.5573223233223
 30
0.0
 11
-27.0591168779138
 21
1.91795282169206
 31
0.0
  0
LINE
  5
   641
  8
0
  6
CONTINUOUS
 62
     1
 10
-28.1391279071577
 20
-21.5573223233223
 30
0.0
 11
-28.1391279071577
 21
1.91795282169206
 31
0.0
  0
LINE
  5
   642
  8
0
  6
CONTINUOUS
 62
     1
 10
-29.219120625854
 20
-21.5573223233223
 30
0.0
 11
-29.219120625854
 21
1.91795282169206
 31
0.0
  0
LINE
  5
   643
  8
0
  6
CONTINUOUS
 62
     1
 10
-30.2991133445503
 20
-21.5573223233223
 30
0.0
 11
-30.2991133445503
 21
1.91795282169206
 31
0.0
  0
LINE
  5
   644
  8
0
  6
CONTINUOUS
 62
     1
 10
-31.3791133874656
 20
-21.5573223233223
 30
0.0
 11
-31.3791133874656
 21
1.91795282169206
 31
0.0
  0
CIRCLE
  5
   645
  8
0
  6
CONTINUOUS
 62
     1
 10
-63.0140820874933
 20
-6.03219194266562
 30
0.0
 40
1.35059393238156
  0
CIRCLE
  5
   646
  8
0
  6
CONTINUOUS
 62
     1
 10
-42.0140077310862
 20
-6.03209141947888
 30
0.0
 40
1.35074586707197
  0
LINE
  5
   647
  8
0
  6
DASHDOT
 62
     1
 10
-42.0140077310862
 20
-10.3828374057601
 30
0.0
 11
-42.0140077310862
 21
1.91795282169207
 31
0.0
  0
LINE
  5
   648
  8
0
  6
DASHDOT
 62
     1
 10
-37.663261744805
 20
-6.03209141947888
 30
0.0
 11
-46.3647537173675
 21
-6.03209141947888
 31
0.0
  0
LINE
  5
   649
  8
0
  6
DASHDOT
 62
     1
 10
-63.0140820874933
 20
-10.3827859942565
 30
0.0
 11
-63.0140820874933
 21
1.91795282169207
 31
0.0
  0
LINE
  5
   64A
  8
0
  6
DASHDOT
 62
     1
 10
-58.6634880359024
 20
-6.03219194266561
 30
0.0
 11
-67.3646761390841
 21
-6.03219194266561
 31
0.0
  0
LINE
  5
   64B
  8
0
  6
CONTINUOUS
 62
     1
 10
-52.0490486913896
 20
77.8179471284257
 30
0.0
 11
-52.0490486913896
 21
104.442682683468
 31
0.0
  0
LINE
  5
   64C
  8
0
  6
CONTINUOUS
 62
     1
 10
-50.9690496784427
 20
77.8179471284257
 30
0.0
 11
-50.9690496784427
 21
104.442682683468
 31
0.0
  0
LINE
  5
   64D
  8
0
  6
CONTINUOUS
 62
     1
 10
-49.7390486568193
 20
77.8179471284257
 30
0.0
 11
-49.7390486568193
 21
104.442682683468
 31
0.0
  0
LINE
  5
   64E
  8
0
  6
CONTINUOUS
 62
     1
 10
-48.6590487855656
 20
77.8179471284257
 30
0.0
 11
-48.6590487855656
 21
104.442682683468
 31
0.0
  0
LINE
  5
   64F
  8
0
  6
CONTINUOUS
 62
     1
 10
-47.5790609306085
 20
77.8179471284257
 30
0.0
 11
-47.5790609306085
 21
104.442682683468
 31
0.0
  0
LINE
  5
   650
  8
0
  6
CONTINUOUS
 62
     1
 10
-46.4990590566386
 20
77.8179471284257
 30
0.0
 11
-46.4990590566386
 21
104.442682683468
 31
0.0
  0
LINE
  5
   651
  8
0
  6
CONTINUOUS
 62
     1
 10
-45.4190480273957
 20
77.8179471284257
 30
0.0
 11
-45.4190480273957
 21
104.442682683468
 31
0.0
  0
LINE
  5
   652
  8
0
  6
CONTINUOUS
 62
     1
 10
-44.3390598863356
 20
77.8179471284257
 30
0.0
 11
-44.3390598863356
 21
104.442682683468
 31
0.0
  0
LINE
  5
   653
  8
0
  6
CONTINUOUS
 62
     1
 10
-53.1291758781696
 20
77.8179471284257
 30
0.0
 11
-53.1291758781696
 21
104.442682683468
 31
0.0
  0
LINE
  5
   654
  8
0
  6
CONTINUOUS
 62
     1
 10
-54.2091788965487
 20
77.8179471284257
 30
0.0
 11
-54.2091788965487
 21
104.442682683468
 31
0.0
  0
LINE
  5
   655
  8
0
  6
CONTINUOUS
 62
     1
 10
-55.2891770511887
 20
77.8179471284257
 30
0.0
 11
-55.2891770511887
 21
104.442682683468
 31
0.0
  0
LINE
  5
   656
  8
0
  6
CONTINUOUS
 62
     1
 10
-56.3691769224424
 20
77.8179471284257
 30
0.0
 11
-56.3691769224424
 21
104.442682683468
 31
0.0
  0
LINE
  5
   657
  8
0
  6
CONTINUOUS
 62
     1
 10
-57.4491647773995
 20
77.8179471284257
 30
0.0
 11
-57.4491647773995
 21
104.442682683468
 31
0.0
  0
LINE
  5
   658
  8
0
  6
CONTINUOUS
 62
     1
 10
-58.5291666513694
 20
77.8179471284257
 30
0.0
 11
-58.5291666513694
 21
104.442682683468
 31
0.0
  0
LINE
  5
   659
  8
0
  6
CONTINUOUS
 62
     1
 10
-59.6091776806123
 20
77.8179471284257
 30
0.0
 11
-59.6091776806123
 21
104.442682683468
 31
0.0
  0
LINE
  5
   65A
  8
0
  6
CONTINUOUS
 62
     1
 10
-60.6891658216724
 20
77.8179471284257
 30
0.0
 11
-60.6891658216724
 21
104.442682683468
 31
0.0
  0
LINE
  5
   65B
  8
0
  6
CONTINUOUS
 62
     1
 10
-61.7691356521855
 20
77.8179471284257
 30
0.0
 11
-61.7691356521855
 21
88.2730088842046
 31
0.0
  0
LINE
  5
   65C
  8
0
  6
CONTINUOUS
 62
     1
 10
-62.8491237932449
 20
77.8179471284257
 30
0.0
 11
-62.8491237932449
 21
87.4434861461642
 31
0.0
  0
LINE
  5
   65D
  8
0
  6
CONTINUOUS
 62
     1
 10
-63.929125667215
 20
77.8179471284257
 30
0.0
 11
-63.929125667215
 21
87.7964677275732
 31
0.0
  0
LINE
  5
   65E
  8
0
  6
CONTINUOUS
 62
     1
 10
-65.0091687399136
 20
77.8179471284257
 30
0.0
 11
-65.0091687399136
 21
104.442682683468
 31
0.0
  0
LINE
  5
   65F
  8
0
  6
CONTINUOUS
 62
     1
 10
-66.0891706138835
 20
77.8179471284257
 30
0.0
 11
-66.0891706138835
 21
104.442682683468
 31
0.0
  0
LINE
  5
   660
  8
0
  6
CONTINUOUS
 62
     1
 10
-67.1691724878533
 20
77.8179471284257
 30
0.0
 11
-67.1691724878533
 21
104.442682683468
 31
0.0
  0
LINE
  5
   661
  8
0
  6
CONTINUOUS
 62
     1
 10
-68.2491743618231
 20
77.8179471284257
 30
0.0
 11
-68.2491743618231
 21
104.442682683468
 31
0.0
  0
LINE
  5
   662
  8
0
  6
CONTINUOUS
 62
     1
 10
-69.329167080519
 20
77.8179471284257
 30
0.0
 11
-69.329167080519
 21
104.442682683468
 31
0.0
  0
LINE
  5
   663
  8
0
  6
CONTINUOUS
 62
     1
 10
-70.4091689544888
 20
77.8179471284257
 30
0.0
 11
-70.4091689544888
 21
104.442682683468
 31
0.0
  0
LINE
  5
   664
  8
0
  6
CONTINUOUS
 62
     1
 10
-71.4891708284586
 20
77.8179471284257
 30
0.0
 11
-71.4891708284586
 21
104.442682683468
 31
0.0
  0
LINE
  5
   665
  8
0
  6
CONTINUOUS
 62
     1
 10
-72.5691727024284
 20
77.8179471284257
 30
0.0
 11
-72.5691727024284
 21
104.442682683468
 31
0.0
  0
LINE
  5
   666
  8
0
  6
CONTINUOUS
 62
     1
 10
-42.1790973371262
 20
-4.69147222694522
 30
0.0
 11
-42.1790973371262
 21
1.91795282169207
 31
0.0
  0
LINE
  5
   667
  8
0
  6
CONTINUOUS
 62
     1
 10
-41.0990954631561
 20
-5.03838626230043
 30
0.0
 11
-41.0990954631561
 21
1.91795282169207
 31
0.0
  0
LINE
  5
   668
  8
0
  6
CONTINUOUS
 62
     1
 10
-43.2590900558225
 20
-5.50836973571811
 30
0.0
 11
-43.2590900558225
 21
1.91795282169207
 31
0.0
  0
LINE
  5
   669
  8
0
  6
CONTINUOUS
 62
     1
 10
-61.7691356521855
 20
-5.50853905820842
 30
0.0
 11
-61.7691356521855
 21
1.91795282169207
 31
0.0
  0
LINE
  5
   66A
  8
0
  6
CONTINUOUS
 62
     1
 10
-62.8491237932449
 20
-4.69170966701085
 30
0.0
 11
-62.8491237932449
 21
1.91795282169207
 31
0.0
  0
LINE
  5
   66B
  8
0
  6
CONTINUOUS
 62
     1
 10
-63.929125667215
 20
-5.0388142615211
 30
0.0
 11
-63.929125667215
 21
1.91795282169207
 31
0.0
  0
LINE
  5
   66C
  8
0
  6
DASHDOT
 62
     7
 10
-52.5141105651856
 20
-20.0326889586126
 30
0.0
 11
-52.5141105651856
 21
109.209486061782
 31
0.0
  0
LINE
  5
   66D
  8
0
  6
DASHDOT
 62
     7
 10
-31.5141097307205
 20
69.4178079310542
 30
0.0
 11
-31.5141097307205
 21
107.807373941114
 31
0.0
  0
LINE
  5
   66E
  8
0
  6
DASHDOT
 62
     7
 10
-73.5141113996506
 20
69.4178079310542
 30
0.0
 11
-73.5141113996506
 21
107.807373941114
 31
0.0
  0
LINE
  5
   66F
  8
0
  6
CONTINUOUS
 62
     1
 10
-43.2590598434204
 20
77.8179477373567
 30
0.0
 11
-43.2590598434204
 21
88.2442321485611
 31
0.0
  0
LINE
  5
   670
  8
0
  6
CONTINUOUS
 62
     1
 10
-42.1790598005051
 20
77.8179483462877
 30
0.0
 11
-42.1790598005051
 21
87.4274590792872
 31
0.0
  0
LINE
  5
   671
  8
0
  6
CONTINUOUS
 62
     1
 10
-41.0990597575898
 20
77.8179489552187
 30
0.0
 11
-41.0990597575898
 21
87.774601183623
 31
0.0
  0
LINE
  5
   672
  8
0
  6
CONTINUOUS
 62
     1
 10
-40.0190597146745
 20
77.8179495641498
 30
0.0
 11
-40.0190597146745
 21
104.442682683468
 31
0.0
  0
LINE
  5
   673
  8
0
  6
CONTINUOUS
 62
     1
 10
-38.9390596717591
 20
77.8179501730808
 30
0.0
 11
-38.9390596717591
 21
104.442682683468
 31
0.0
  0
LINE
  5
   674
  8
0
  6
CONTINUOUS
 62
     1
 10
-37.8590596288439
 20
77.8179507820118
 30
0.0
 11
-37.8590596288439
 21
104.442682683468
 31
0.0
  0
LINE
  5
   675
  8
0
  6
CONTINUOUS
 62
     1
 10
-35.6990595430132
 20
77.8179519998738
 30
0.0
 11
-35.6990595430132
 21
104.442682683468
 31
0.0
  0
LINE
  5
   676
  8
0
  6
CONTINUOUS
 62
     1
 10
-34.6190595000978
 20
77.8179526088048
 30
0.0
 11
-34.6190595000978
 21
104.442682683468
 31
0.0
  0
LINE
  5
   677
  8
0
  6
CONTINUOUS
 62
     1
 10
-33.5390594571826
 20
77.8179532177359
 30
0.0
 11
-33.5390594571826
 21
104.442682683468
 31
0.0
  0
LINE
  5
   678
  8
0
  6
CONTINUOUS
 62
     1
 10
-32.4590594142672
 20
77.8179538266669
 30
0.0
 11
-32.4590594142672
 21
104.442682683468
 31
0.0
  0
LINE
  5
   679
  8
0
  6
CONTINUOUS
 62
     1
 10
-31.3790593713519
 20
77.8179544355979
 30
0.0
 11
-31.3790593713519
 21
79.5895929574698
 31
0.0
  0
LINE
  5
   67A
  8
0
  6
CONTINUOUS
 62
     1
 10
-30.2990593284365
 20
77.817955044529
 30
0.0
 11
-30.2990593284365
 21
104.442682683468
 31
0.0
  0
LINE
  5
   67B
  8
0
  6
CONTINUOUS
 62
     1
 10
-29.2190592855211
 20
77.81795565346
 30
0.0
 11
-29.2190592855211
 21
104.442682683468
 31
0.0
  0
LINE
  5
   67C
  8
0
  6
CONTINUOUS
 62
     1
 10
-28.1390592426057
 20
77.817956262391
 30
0.0
 11
-28.1390592426057
 21
104.442682683468
 31
0.0
  0
LINE
  5
   67D
  8
0
  6
CONTINUOUS
 62
     1
 10
-27.0590591996902
 20
77.8179568713221
 30
0.0
 11
-27.0590591996902
 21
104.442682683468
 31
0.0
  0
LINE
  5
   67E
  8
0
  6
CONTINUOUS
 62
     1
 10
-25.9790591567748
 20
77.8179574802531
 30
0.0
 11
-25.9790591567748
 21
104.442682683468
 31
0.0
  0
LINE
  5
   67F
  8
0
  6
CONTINUOUS
 62
     1
 10
-24.8990591138594
 20
77.8179580891842
 30
0.0
 11
-24.8990591138594
 21
104.442682683468
 31
0.0
  0
LINE
  5
   680
  8
0
  6
CONTINUOUS
 62
     1
 10
-23.819059070944
 20
77.8179586981152
 30
0.0
 11
-23.819059070944
 21
104.442682683468
 31
0.0
  0
LINE
  5
   681
  8
0
  6
CONTINUOUS
 62
     1
 10
-22.7390590280286
 20
77.8179593070463
 30
0.0
 11
-22.7390590280286
 21
104.442682683468
 31
0.0
  0
LINE
  5
   682
  8
0
  6
CONTINUOUS
 62
     1
 10
-21.6590589851131
 20
77.8179599159774
 30
0.0
 11
-21.6590589851131
 21
104.442682683468
 31
0.0
  0
LINE
  5
   683
  8
0
  6
CONTINUOUS
 62
     1
 10
-36.7790595859286
 20
77.8179519998738
 30
0.0
 11
-36.7790595859286
 21
104.442682683468
 31
0.0
  0
CIRCLE
  5
   684
  8
0
  6
CONTINUOUS
 62
     1
 10
-42.0141390428778
 20
88.7679459736244
 30
0.0
 40
1.35059393238156
  0
LINE
  5
   685
  8
0
  6
DASHDOT
 62
     7
 10
-42.0141390428778
 20
87.1173520293219
 30
0.0
 11
-42.0141390428778
 21
90.4185399179268
 31
0.0
  0
LINE
  5
   686
  8
0
  6
DASHDOT
 62
     7
 10
-40.3635450985753
 20
88.7679459736244
 30
0.0
 11
-43.6647329871803
 21
88.7679459736244
 31
0.0
  0
LINE
  5
   687
  8
0
  6
CONTINUOUS
 62
     1
 10
-41.0990597575898
 20
89.7612907636257
 30
0.0
 11
-41.0990597575898
 21
104.442682683468
 31
0.0
  0
LINE
  5
   688
  8
0
  6
CONTINUOUS
 62
     1
 10
-43.2590598434204
 20
89.2916597986876
 30
0.0
 11
-43.2590598434204
 21
104.442682683468
 31
0.0
  0
LINE
  5
   689
  8
0
  6
CONTINUOUS
 62
     1
 10
-42.1790598005051
 20
90.1084328679615
 30
0.0
 11
-42.1790598005051
 21
104.442682683468
 31
0.0
  0
LINE
  5
   68A
  8
0
  6
CONTINUOUS
 62
     1
 10
-31.3791243737942
 20
35.3676730722186
 30
0.0
 11
-31.3791243737942
 21
52.9179252535203
 31
0.0
  0
LINE
  5
   68B
  8
0
  6
CONTINUOUS
 62
     3
 10
-21.014109313488
 20
104.442682683468
 30
0.0
 11
-84.0141118168831
 21
104.442682683468
 31
0.0
  0
LINE
  5
   68C
  8
0
  6
CONTINUOUS
 62
     3
 10
-21.014109313488
 20
-21.5573223233223
 30
0.0
 11
-84.0141118168831
 21
-21.5573223233223
 31
0.0
  0
CIRCLE
  5
   68D
  8
0
  6
CONTINUOUS
 62
     1
 10
-15.9141233539199
 20
33.792667386395
 30
0.0
 40
1.57501205796342
  0
LINE
  5
   68E
  8
0
  6
DASHDOT
 62
     7
 10
-15.9141233539199
 20
31.3176552926688
 30
0.0
 11
-15.9141233539199
 21
36.2676794801212
 31
0.0
  0
LINE
  5
   68F
  8
0
  6
DASHDOT
 62
     7
 10
-13.4391112601937
 20
33.792667386395
 30
0.0
 11
-18.3891354476461
 21
33.792667386395
 31
0.0
  0
LINE
  5
   690
  8
0
  6
DOT
 62
     7
 10
-21.014109313488
 20
9.56767398207509
 30
0.0
 11
-21.014109313488
 21
68.367678035191
 31
0.0
  0
LINE
  5
   691
  8
0
  6
DOT
 62
     7
 10
-13.2141102936374
 20
21.1176770836114
 30
0.0
 11
-21.014109313488
 21
21.1176770836114
 31
0.0
  0
LINE
  5
   692
  8
0
  6
DOT
 62
     7
 10
-13.2141102936374
 20
45.9426828238506
 30
0.0
 11
-21.014109313488
 21
45.9427011343959
 31
0.0
  0
LINE
  5
   693
  8
0
  6
DOT
 62
     7
 10
-13.2141102936374
 20
54.9426875829699
 30
0.0
 11
-21.014109313488
 21
54.9426875829699
 31
0.0
  0
INSERT
  5
   694
  8
0
  6
CONTINUOUS
 62
     7
  2
*UDIM1653
 10
0.0
 20
0.0
 30
0.0
  0
INSERT
  5
   695
  8
0
  6
CONTINUOUS
 62
     7
  2
*UDIM1654
 10
0.0
 20
0.0
 30
0.0
  0
INSERT
  5
   696
  8
0
  6
CONTINUOUS
 62
     7
  2
*UDIM1655
 10
0.0
 20
0.0
 30
0.0
  0
TEXT
  5
   697
  8
0
  6
CONTINUOUS
 62
     7
 10
-54.5779342986333
 20
122.881922929501
 30
0.0
 40
4.00000017086665
  1
Y
 50
359.999999948034
 41
0.91562505146116
 72
     1
 11
-53.1129341694742
 21
124.881923013613
 31
0.0
 73
     2
  0
INSERT
  5
   698
  8
0
  6
CONTINUOUS
 62
     7
  2
*UDIM1656
 10
0.0
 20
0.0
 30
0.0
  0
INSERT
  5
   699
  8
0
  6
CONTINUOUS
 62
     7
  2
*UDIM1657
 10
0.0
 20
0.0
 30
0.0
  0
INSERT
  5
   69A
  8
0
  6
CONTINUOUS
 62
     7
  2
*UDIM1658
 10
0.0
 20
0.0
 30
0.0
  0
TEXT
  5
   69B
  8
0
  6
CONTINUOUS
 62
     7
 10
-67.3366855678559
 20
107.479639614187
 30
0.0
 40
4.00000017086665
  1
=      =
 50
359.999999948034
 41
0.91562505146116
 72
     1
 11
-53.0529341706663
 21
109.479639686737
 31
0.0
 73
     2
  0
INSERT
  5
   69C
  8
0
  6
CONTINUOUS
 62
     7
  2
*UDIM1659
 10
0.0
 20
0.0
 30
0.0
  0
INSERT
  5
   69D
  8
0
  6
CONTINUOUS
 62
     7
  2
*UDIM1660
 10
0.0
 20
0.0
 30
0.0
  0
INSERT
  5
   69E
  8
0
  6
CONTINUOUS
 62
     7
  2
*UDIM1661
 10
0.0
 20
0.0
 30
0.0
  0
TEXT
  5
   69F
  8
0
  6
CONTINUOUS
 62
     7
 10
-4.86698809989397
 20
37.8510128414114
 30
0.0
 40
4.00000017086665
  1
x
 50
359.999999948034
 41
0.91562505146116
 72
     1
 11
-3.40198797073482
 21
39.8510129255234
 31
0.0
 73
     2
  0
INSERT
  5
   6A0
  8
255
  6
CONTINUOUS
 62
     2
  2
$1MOSTRA
 10
-52.5141118552792
 20
17.1426805773293
 30
0.0
 41
0.300000011920929
 42
0.300000011920929
 50
359.999999792138
 43
0.300000011920929
  0
LINE
  5
   6A1
  8
0
  6
DASHDOT
 62
     2
 10
34.0267333984375
 20
100.296623390694
 30
0.0
 11
34.0267333984375
 21
39.5477168015402
 31
0.0
  0
LINE
  5
   6A2
  8
0
  6
DASHDOT
 62
     2
 10
4.22070870790162
 20
69.2189254760742
 30
0.0
 11
75.2342013910815
 21
69.2189254760742
 31
0.0
  0
LINE
  5
   6A3
  8
0
  6
CONTINUOUS
 62
     7
 10
11.6517333984375
 20
89.3439254760742
 30
0.0
 11
54.1517333984375
 21
89.3439254760742
 31
0.0
  0
LINE
  5
   6A4
  8
0
  6
CONTINUOUS
 62
     7
 10
11.6517333984375
 20
49.0939254760742
 30
0.0
 11
54.1517333984375
 21
49.0939254760742
 31
0.0
  0
CIRCLE
  5
   6A5
  8
0
  6
CONTINUOUS
 62
     7
 10
59.2767333984375
 20
69.2189254760742
 30
0.0
 40
1.0
  0
CIRCLE
  5
   6A6
  8
0
  6
CONTINUOUS
 62
     7
 10
38.9642333984375
 20
91.3439254760742
 30
0.0
 40
0.875
  0
CIRCLE
  5
   6A7
  8
0
  6
CONTINUOUS
 62
     7
 10
18.6517333984375
 20
91.3439254760742
 30
0.0
 40
0.875
  0
CIRCLE
  5
   6A8
  8
0
  6
CONTINUOUS
 62
     7
 10
59.2767333984375
 20
47.0939254760742
 30
0.0
 40
0.875
  0
CIRCLE
  5
   6A9
  8
0
  6
CONTINUOUS
 62
     7
 10
38.9642333984375
 20
47.0939254760742
 30
0.0
 40
1.0
  0
CIRCLE
  5
   6AA
  8
0
  6
CONTINUOUS
 62
     7
 10
18.6517333984375
 20
47.0939254760742
 30
0.0
 40
1.0
  0
CIRCLE
  5
   6AB
  8
0
  6
CONTINUOUS
 62
     7
 10
59.2767333984375
 20
91.3439254760742
 30
0.0
 40
1.0
  0
LINE
  5
   6AC
  8
0
  6
DASHDOT
 62
     7
 10
59.2767333984375
 20
92.9689254760742
 30
0.0
 11
59.2767333984375
 21
70.6433746746189
 31
0.0
  0
LINE
  5
   6AD
  8
0
  6
DASHDOT
 62
     7
 10
57.6517333984375
 20
91.3439254760742
 30
0.0
 11
60.9017333984375
 21
91.3439254760742
 31
0.0
  0
LINE
  5
   6AE
  8
0
  6
DASHDOT
 62
     7
 10
38.9642333984375
 20
100.365377822135
 30
0.0
 11
38.9642333984375
 21
89.7189254760742
 31
0.0
  0
LINE
  5
   6AF
  8
0
  6
DASHDOT
 62
     7
 10
37.3392333984375
 20
91.3439254760742
 30
0.0
 11
40.5892333984375
 21
91.3439254760742
 31
0.0
  0
LINE
  5
   6B0
  8
0
  6
DASHDOT
 62
     7
 10
18.6517333984375
 20
92.9689254760742
 30
0.0
 11
18.6517333984375
 21
89.7189254760742
 31
0.0
  0
LINE
  5
   6B1
  8
0
  6
DASHDOT
 62
     7
 10
17.0267333984375
 20
91.3439254760742
 30
0.0
 11
20.2767333984375
 21
91.3439254760742
 31
0.0
  0
LINE
  5
   6B2
  8
0
  6
DASHDOT
 62
     7
 10
38.9642333984375
 20
48.7189254760742
 30
0.0
 11
38.9642333984375
 21
45.4689254760742
 31
0.0
  0
LINE
  5
   6B3
  8
0
  6
DASHDOT
 62
     7
 10
37.3392333984375
 20
47.0939254760742
 30
0.0
 11
40.5892333984375
 21
47.0939254760742
 31
0.0
  0
LINE
  5
   6B4
  8
0
  6
DASHDOT
 62
     7
 10
59.2767333984375
 20
48.7189254760742
 30
0.0
 11
59.2767333984375
 21
45.4689254760742
 31
0.0
  0
LINE
  5
   6B5
  8
0
  6
DASHDOT
 62
     7
 10
57.6517333984375
 20
47.0939254760742
 30
0.0
 11
60.9017333984375
 21
47.0939254760742
 31
0.0
  0
LINE
  5
   6B6
  8
0
  6
DASHDOT
 62
     7
 10
18.6517333984375
 20
48.7189254760742
 30
0.0
 11
18.6517333984375
 21
45.4689254760742
 31
0.0
  0
LINE
  5
   6B7
  8
0
  6
DASHDOT
 62
     7
 10
17.0267333984375
 20
47.0939254760742
 30
0.0
 11
20.2767333984375
 21
47.0939254760742
 31
0.0
  0
LINE
  5
   6B8
  8
0
  6
DASHDOT
 62
     7
 10
59.2767333984375
 20
70.8439254760742
 30
0.0
 11
59.2767333984375
 21
48.940148521564
 31
0.0
  0
ARC
  5
   6B9
  8
0
  6
CONTINUOUS
 62
     7
 10
64.2767333984375
 20
64.9689254760742
 30
0.0
 40
2.0
 50
359.999999844103
 51
539.999999844103
  0
ARC
  5
   6BA
  8
0
  6
CONTINUOUS
 62
     7
 10
64.2767333984375
 20
59.2189254760742
 30
0.0
 40
2.0
 50
539.999999844103
 51
719.999999844103
  0
LINE
  5
   6BB
  8
0
  6
CONTINUOUS
 62
     7
 10
66.2767333984375
 20
64.9689254760742
 30
0.0
 11
66.2767333984375
 21
59.2189254760742
 31
0.0
  0
LINE
  5
   6BC
  8
0
  6
CONTINUOUS
 62
     7
 10
62.2767333984375
 20
64.9689254760742
 30
0.0
 11
62.2767333984375
 21
59.2189254760742
 31
0.0
  0
LINE
  5
   6BD
  8
0
  6
DASHDOT
 62
     7
 10
64.2767333984375
 20
67.7189254760742
 30
0.0
 11
64.2767333984375
 21
62.2189254760742
 31
0.0
  0
LINE
  5
   6BE
  8
0
  6
DASHDOT
 62
     7
 10
61.5267333984375
 20
64.9689254760742
 30
0.0
 11
67.0267333984375
 21
64.9689254760742
 31
0.0
  0
LINE
  5
   6BF
  8
0
  6
DASHDOT
 62
     7
 10
64.2767333984375
 20
61.9689254760742
 30
0.0
 11
64.2767333984375
 21
56.4689254760742
 31
0.0
  0
LINE
  5
   6C0
  8
0
  6
DASHDOT
 62
     7
 10
61.5267333984375
 20
59.2189254760742
 30
0.0
 11
67.0267333984375
 21
59.2189254760742
 31
0.0
  0
POINT
  5
   6C1
  8
0
  6
CONTINUOUS
 62
     7
 10
64.2767333984375
 20
66.9689254760742
 30
0.0
  0
POINT
  5
   6C2
  8
0
  6
CONTINUOUS
 62
     7
 10
64.2767333984375
 20
57.2189254760742
 30
0.0
  0
CIRCLE
  5
   6C3
  8
0
  6
CONTINUOUS
 62
     7
 10
44.5892333984375
 20
91.7189254760742
 30
0.0
 40
0.5
  0
CIRCLE
  5
   6C4
  8
0
  6
CONTINUOUS
 62
     7
 10
33.3392333984375
 20
91.7189254760742
 30
0.0
 40
0.5
  0
CIRCLE
  5
   6C5
  8
0
  6
CONTINUOUS
 62
     7
 10
33.3392333984375
 20
91.7189254760742
 30
0.0
 40
0.92
  0
CIRCLE
  5
   6C6
  8
0
  6
CONTINUOUS
 62
     7
 10
44.5892333984375
 20
91.7189254760742
 30
0.0
 40
0.92
  0
LINE
  5
   6C7
  8
0
  6
DASHDOT
 62
     7
 10
44.5892333984375
 20
93.3889254760742
 30
0.0
 11
44.5892333984375
 21
90.0489254760742
 31
0.0
  0
LINE
  5
   6C8
  8
0
  6
DASHDOT
 62
     7
 10
42.9192333984375
 20
91.7189254760742
 30
0.0
 11
46.2592333984375
 21
91.7189254760742
 31
0.0
  0
LINE
  5
   6C9
  8
0
  6
DASHDOT
 62
     7
 10
33.3392333984375
 20
93.3889254760742
 30
0.0
 11
33.3392333984375
 21
90.0489254760742
 31
0.0
  0
LINE
  5
   6CA
  8
0
  6
DASHDOT
 62
     7
 10
31.6692333984375
 20
91.7189254760742
 30
0.0
 11
35.0092333984375
 21
91.7189254760742
 31
0.0
  0
LINE
  5
   6CB
  8
0
  6
CONTINUOUS
 62
     7
 10
9.01755776491382
 20
95.8352183236827
 30
0.0
 11
70.5715299300697
 21
95.8352183236827
 31
0.0
  0
LINE
  5
   6CC
  8
0
  6
CONTINUOUS
 62
     7
 10
9.01755776491382
 20
43.9755774695514
 30
0.0
 11
70.5715299300697
 21
43.9755774695514
 31
0.0
  0
LINE
  5
   6CD
  8
0
  6
CONTINUOUS
 62
     7
 10
9.01755776491382
 20
95.8352183236827
 30
0.0
 11
9.01755776491382
 21
43.9755774695514
 31
0.0
  0
LINE
  5
   6CE
  8
0
  6
CONTINUOUS
 62
     7
 10
70.5715299300697
 20
95.8352183236827
 30
0.0
 11
70.5715299300697
 21
43.9755774695514
 31
0.0
  0
LINE
  5
   6CF
  8
0
  6
CONTINUOUS
 62
     7
 10
54.1517333984375
 20
89.3439254760742
 30
0.0
 11
54.1517333984375
 21
49.0939254760742
 31
0.0
  0
LINE
  5
   6D0
  8
0
  6
CONTINUOUS
 62
     7
 10
11.6517333984375
 20
89.3439254760742
 30
0.0
 11
11.6517333984375
 21
49.0939254760742
 31
0.0
  0
LINE
  5
   6D1
  8
0
  6
CONTINUOUS
 62
     7
 10
78.9881475269501
 20
88.8417482843485
 30
0.0
 11
78.9881475269501
 21
76.8895766398072
 31
0.0
  0
LINE
  5
   6D2
  8
0
  6
CONTINUOUS
 62
     7
 10
74.6755082737652
 20
88.8417482843485
 30
0.0
 11
74.6755082737652
 21
76.8895766398072
 31
0.0
  0
LINE
  5
   6D3
  8
0
  6
CONTINUOUS
 62
     7
 10
74.6755082737652
 20
88.8417482843485
 30
0.0
 11
78.9881475269501
 21
88.8417482843485
 31
0.0
  0
LINE
  5
   6D4
  8
0
  6
CONTINUOUS
 62
     7
 10
74.6755082737652
 20
76.8895766398072
 30
0.0
 11
78.9881475269501
 21
76.8895766398072
 31
0.0
  0
LINE
  5
   6D5
  8
0
  6
CONTINUOUS
 62
     7
 10
74.6755082737652
 20
49.5961026677999
 30
0.0
 11
78.9881475269501
 21
49.5961026677999
 31
0.0
  0
LINE
  5
   6D6
  8
0
  6
CONTINUOUS
 62
     7
 10
74.6755082737652
 20
61.5482743123412
 30
0.0
 11
78.9881475269501
 21
61.5482743123412
 31
0.0
  0
LINE
  5
   6D7
  8
0
  6
CONTINUOUS
 62
     7
 10
74.6755082737652
 20
61.5482743123412
 30
0.0
 11
74.6755082737652
 21
49.5961026677999
 31
0.0
  0
LINE
  5
   6D8
  8
0
  6
CONTINUOUS
 62
     7
 10
78.9881475269501
 20
61.5482743123412
 30
0.0
 11
78.9881475269501
 21
49.5961026677999
 31
0.0
  0
LINE
  5
   6D9
  8
0
  6
DASHDOT
 62
     2
 10
76.8318279003576
 20
94.8794432388076
 30
0.0
 11
76.8318279003576
 21
15.7733175089567
 31
0.0
  0
INSERT
  5
   6DA
  8
0
  6
CONTINUOUS
 62
     7
  2
*UDIM1662
 10
0.0
 20
0.0
 30
0.0
  0
INSERT
  5
   6DB
  8
0
  6
CONTINUOUS
 62
     7
  2
*UDIM1663
 10
0.0
 20
0.0
 30
0.0
  0
INSERT
  5
   6DC
  8
0
  6
CONTINUOUS
 62
     7
  2
*UDIM1664
 10
0.0
 20
0.0
 30
0.0
  0
TEXT
  5
   6DD
  8
0
  6
CONTINUOUS
 62
     7
 10
-8.85428715295374
 20
67.8114789146579
 30
0.0
 40
4.00000017881393
  1
x
 50
359.999999844103
 41
0.915625062622128
 72
     1
 11
-7.38928699493408
 21
69.8114790000861
 31
0.0
 73
     2
  0
INSERT
  5
   6DE
  8
0
  6
CONTINUOUS
 62
     7
  2
*UDIM1665
 10
0.0
 20
0.0
 30
0.0
  0
TEXT
  5
   6DF
  8
0
  6
CONTINUOUS
 62
     7
 10
97.3084717888605
 20
67.6482067608884
 30
0.0
 40
3.00000002980232
  1
X
 50
359.999999844103
 41
0.916666604744064
 72
     2
 11
99.5084716577303
 21
67.6482067549134
 31
0.0
  0
TEXT
  5
   6E0
  8
0
  6
CONTINUOUS
 62
     7
 10
32.5275250572931
 20
116.117134025102
 30
0.0
 40
3.00000002980232
  1
Y
 50
359.999999844103
 41
0.916666604744064
 72
     2
 11
34.7275249261629
 21
116.117134019127
 31
0.0
  0
TEXT
  5
   6E1
  8
0
  6
CONTINUOUS
 62
     7
 10
32.7419453758967
 20
13.7314299845746
 30
0.0
 40
3.00000002980232
  1
Y
 50
359.999999844103
 41
0.916666604744064
 72
     2
 11
34.9419452447664
 21
13.7314299785997
 31
0.0
  0
TEXT
  5
   6E2
  8
0
  6
CONTINUOUS
 62
     7
 10
7.47435527295418
 20
64.8048587805902
 30
0.0
 40
2.50000005960464
  1
=  =
 50
449.999999844103
 41
0.899999932169916
 72
     2
 11
7.47435529616426
 21
73.3548583255088
 31
0.0
  0
INSERT
  5
   6E3
  8
0
  6
CONTINUOUS
 62
     7
  2
*UDIM1666
 10
0.0
 20
0.0
 30
0.0
  0
INSERT
  5
   6E4
  8
0
  6
CONTINUOUS
 62
     7
  2
*UDIM1667
 10
0.0
 20
0.0
 30
0.0
  0
INSERT
  5
   6E5
  8
0
  6
CONTINUOUS
 62
     7
  2
*UDIM1668
 10
0.0
 20
0.0
 30
0.0
  0
INSERT
  5
   6E6
  8
0
  6
CONTINUOUS
 62
     7
  2
*UDIM1669
 10
0.0
 20
0.0
 30
0.0
  0
INSERT
  5
   6E7
  8
0
  6
CONTINUOUS
 62
     7
  2
*UDIM1670
 10
0.0
 20
0.0
 30
0.0
  0
INSERT
  5
   6E8
  8
0
  6
CONTINUOUS
 62
     7
  2
*UDIM1671
 10
0.0
 20
0.0
 30
0.0
  0
INSERT
  5
   6E9
  8
0
  6
CONTINUOUS
 62
     7
  2
*UDIM1672
 10
0.0
 20
0.0
 30
0.0
  0
INSERT
  5
   6EA
  8
0
  6
CONTINUOUS
 62
     7
  2
*UDIM1673
 10
0.0
 20
0.0
 30
0.0
  0
INSERT
  5
   6EB
  8
0
  6
CONTINUOUS
 62
     7
  2
*UDIM1674
 10
0.0
 20
0.0
 30
0.0
  0
INSERT
  5
   6EC
  8
0
  6
CONTINUOUS
 62
     7
  2
*UDIM1675
 10
0.0
 20
0.0
 30
0.0
  0
INSERT
  5
   6ED
  8
0
  6
CONTINUOUS
 62
     7
  2
*UDIM1676
 10
0.0
 20
0.0
 30
0.0
  0
INSERT
  5
   6EE
  8
0
  6
CONTINUOUS
 62
     7
  2
*UDIM1677
 10
0.0
 20
0.0
 30
0.0
  0
INSERT
  5
   6EF
  8
0
  6
CONTINUOUS
 62
     7
  2
*UDIM1678
 10
0.0
 20
0.0
 30
0.0
  0
INSERT
  5
   6F0
  8
0
  6
CONTINUOUS
 62
     7
  2
*UDIM1679
 10
0.0
 20
0.0
 30
0.0
  0
TEXT
  5
   6F1
  8
0
  6
CONTINUOUS
 62
     7
 10
34.8186020172447
 20
97.3910940128378
 30
0.0
 40
2.50000005960464
  1
=  =
 50
359.999999844103
 41
0.899999932169916
 72
     2
 11
43.3686015621632
 21
97.3910939896169
 31
0.0
  0
INSERT
  5
   6F2
  8
0
  6
CONTINUOUS
 62
     7
  2
*UDIM1680
 10
0.0
 20
0.0
 30
0.0
  0
LINE
  5
   6F3
  8
0
  6
CONTINUOUS
 62
     7
 10
-130.742218017578
 20
-89.9834430532853
 30
0.0
 11
-130.742218017578
 21
-113.899964539488
 31
0.0
  0
LINE
  5
   6F4
  8
0
  6
CONTINUOUS
 62
     7
 10
-132.742218017578
 20
-89.9834430532853
 30
0.0
 11
-132.742218017578
 21
-113.899964539488
 31
0.0
  0
LINE
  5
   6F5
  8
0
  6
DASHDOT
 62
     7
 10
-135.944821119975
 20
-101.941703796387
 30
0.0
 11
-127.518601927538
 21
-101.941703796387
 31
0.0
  0
POINT
  5
   6F6
  8
0
  6
CONTINUOUS
 62
     7
 10
-132.742218017578
 20
-99.9417037963867
 30
0.0
  0
POINT
  5
   6F7
  8
0
  6
CONTINUOUS
 62
     7
 10
-132.742218017578
 20
-103.941703796387
 30
0.0
  0
LINE
  5
   6F8
  8
0
  6
CONTINUOUS
 62
     7
 10
-130.742218017578
 20
-98.2635045340322
 30
0.0
 11
-132.742218017578
 21
-99.9417037963867
 31
0.0
  0
LINE
  5
   6F9
  8
0
  6
CONTINUOUS
 62
     7
 10
-132.742218017578
 20
-103.941703796387
 30
0.0
 11
-130.742218017578
 21
-105.619903058741
 31
0.0
  0
LINE
  5
   6FA
  8
0
  6
CONTINUOUS
 62
     7
 10
-132.742218017578
 20
-111.441703796387
 30
0.0
 11
-130.742218017578
 21
-111.441703796387
 31
0.0
  0
CIRCLE
  5
   6FB
  8
0
  6
CONTINUOUS
 62
     7
 10
-131.742218017578
 20
-101.941703796387
 30
0.0
 40
12.0
  0
LINE
  5
   6FC
  8
0
  6
CONTINUOUS
 62
     7
 10
-138.742210388184
 20
-106.441703796387
 30
0.0
 11
-136.242210388184
 21
-106.441703796387
 31
0.0
  0
LINE
  5
   6FD
  8
0
  6
CONTINUOUS
 62
     7
 10
-135.242210388184
 20
-97.4417037963867
 30
0.0
 11
-135.242210388184
 21
-105.441703796387
 31
0.0
  0
LINE
  5
   6FE
  8
0
  6
CONTINUOUS
 62
     7
 10
-135.242210388184
 20
-97.4417037963867
 30
0.0
 11
-132.742218017578
 21
-97.4417037963867
 31
0.0
  0
LINE
  5
   6FF
  8
0
  6
CONTINUOUS
 62
     7
 10
-138.742210388184
 20
-108.941703796387
 30
0.0
 11
-136.242210388184
 21
-108.941703796387
 31
0.0
  0
LINE
  5
   700
  8
0
  6
CONTINUOUS
 62
     7
 10
-139.742210388184
 20
-109.941703796387
 30
0.0
 11
-139.742210388184
 21
-110.885982530318
 31
0.0
  0
ARC
  5
   701
  8
0
  6
CONTINUOUS
 62
     7
 10
-136.242206240904
 20
-105.441704467725
 30
0.0
 40
0.999996977799109
 50
629.999840735313
 51
720.000252836193
  0
ARC
  5
   702
  8
0
  6
CONTINUOUS
 62
     7
 10
-138.742195734677
 20
-109.941716482691
 30
0.0
 40
3.50001845311552
 50
450.000186734275
 51
513.408761128067
  0
ARC
  5
   703
  8
0
  6
CONTINUOUS
 62
     7
 10
-138.742254636334
 20
-109.941662901604
 30
0.0
 40
0.999949821243504
 50
449.997764042825
 51
540.001169660043
  0
ARC
  5
   704
  8
0
  6
CONTINUOUS
 62
     7
 10
-136.242191035802
 20
-105.441735843321
 30
0.0
 40
3.49997105594423
 50
629.999653243441
 51
720.000420168909
  0
INSERT
  5
   705
  8
0
  6
CONTINUOUS
 62
     7
  2
*HATCH325
 10
-131.742218017578
 20
-101.941703796387
 30
0.0
 50
269.999999844103
  0
INSERT
  5
   706
  8
0
  6
CONTINUOUS
 62
     7
  2
*HATCH326
 10
-131.742218017578
 20
-101.941703796387
 30
0.0
 50
269.999999844103
  0
LINE
  5
   707
  8
0
  6
CONTINUOUS
 62
     7
 10
-152.045433706841
 20
-89.9722490981694
 30
0.0
 11
-152.045433706841
 21
-114.554436884753
 31
0.0
  0
TEXT
  5
   708
  8
0
  6
CONTINUOUS
 62
     7
 10
-142.74913773497
 20
-83.4586772933984
 30
0.0
 40
3.00000002980232
  1
PART. Z
 50
359.999999844103
 41
0.916666689183977
 72
     1
 11
-133.399137407541
 21
-81.9586773038908
 31
0.0
 73
     2
  0
INSERT
  5
   709
  8
0
  6
CONTINUOUS
 62
     7
  2
*UDIM1681
 10
0.0
 20
0.0
 30
0.0
  0
INSERT
  5
   70A
  8
0
  6
CONTINUOUS
 62
     7
  2
*UDIM1682
 10
0.0
 20
0.0
 30
0.0
  0
LINE
  5
   70B
  8
0
  6
DASHDOT
 62
     2
 10
-227.504547119141
 20
-57.9503063626388
 30
0.0
 11
-227.504547119141
 21
-139.704767156005
 31
0.0
  0
LINE
  5
   70C
  8
0
  6
DASHDOT
 62
     2
 10
-197.522941520967
 20
-99.7449691146612
 30
0.0
 11
-250.660839251059
 21
-99.7449691146612
 31
0.0
  0
CIRCLE
  5
   70D
  8
0
  6
CONTINUOUS
 62
     7
 10
-240.10454761982
 20
-87.4599686264992
 30
0.0
 40
0.765000030398369
  0
CIRCLE
  5
   70E
  8
0
  6
CONTINUOUS
 62
     7
 10
-214.904546618462
 20
-87.4599686264992
 30
0.0
 40
0.765000030398369
  0
CIRCLE
  5
   70F
  8
0
  6
CONTINUOUS
 62
     7
 10
-214.904546618462
 20
-109.059969484806
 30
0.0
 40
0.765000030398369
  0
CIRCLE
  5
   710
  8
0
  6
CONTINUOUS
 62
     7
 10
-240.10454761982
 20
-109.059969484806
 30
0.0
 40
0.765000030398369
  0
LINE
  5
   711
  8
0
  6
DASHDOT
 62
     7
 10
-240.10454761982
 20
-88.9899686872959
 30
0.0
 11
-240.10454761982
 21
-94.1199688911438
 31
0.0
  0
LINE
  5
   712
  8
0
  6
DASHDOT
 62
     7
 10
-237.539547517896
 20
-87.4599686264992
 30
0.0
 11
-242.669547721744
 21
-87.4599686264992
 31
0.0
  0
LINE
  5
   713
  8
0
  6
DASHDOT
 62
     7
 10
-214.904546618462
 20
-85.9690839439565
 30
0.0
 11
-214.904546618462
 21
-110.164100870635
 31
0.0
  0
LINE
  5
   714
  8
0
  6
DASHDOT
 62
     7
 10
-212.339546516538
 20
-87.4599686264992
 30
0.0
 11
-217.469546720386
 21
-87.4599686264992
 31
0.0
  0
LINE
  5
   715
  8
0
  6
DASHDOT
 62
     7
 10
-214.904546618462
 20
-106.494969382882
 30
0.0
 11
-214.904546618462
 21
-111.62496958673
 31
0.0
  0
LINE
  5
   716
  8
0
  6
DASHDOT
 62
     7
 10
-212.339546516538
 20
-109.059969484806
 30
0.0
 11
-236.167062716203
 21
-109.059969484806
 31
0.0
  0
LINE
  5
   717
  8
0
  6
DASHDOT
 62
     7
 10
-240.10454761982
 20
-85.9690839439565
 30
0.0
 11
-240.10454761982
 21
-111.62496958673
 31
0.0
  0
LINE
  5
   718
  8
0
  6
DASHDOT
 62
     7
 10
-237.539547517896
 20
-109.059969484806
 30
0.0
 11
-242.669547721744
 21
-109.059969484806
 31
0.0
  0
CIRCLE
  5
   719
  8
0
  6
CONTINUOUS
 62
     7
 10
-212.757427354099
 20
-92.8792547462599
 30
0.0
 40
4.50000017881393E-2
  0
LINE
  5
   71A
  8
0
  6
CONTINUOUS
 62
     7
 10
-208.244546353817
 20
-83.0499684512615
 30
0.0
 11
-246.764547884464
 21
-83.0499684512615
 31
0.0
  0
LINE
  5
   71B
  8
0
  6
CONTINUOUS
 62
     7
 10
-208.244546353817
 20
-61.3599675893784
 30
0.0
 11
-246.764547884464
 21
-61.3599675893784
 31
0.0
  0
LINE
  5
   71C
  8
0
  6
CONTINUOUS
 62
     7
 10
-208.244546353817
 20
-61.3599675893784
 30
0.0
 11
-208.244546353817
 21
-83.0499684512615
 31
0.0
  0
LINE
  5
   71D
  8
0
  6
CONTINUOUS
 62
     7
 10
-246.764547884464
 20
-61.3599675893784
 30
0.0
 11
-246.764547884464
 21
-83.0499684512615
 31
0.0
  0
LINE
  5
   71E
  8
0
  6
CONTINUOUS
 62
     7
 10
-208.244546353817
 20
-113.469969660044
 30
0.0
 11
-208.244546353817
 21
-135.159970521927
 31
0.0
  0
LINE
  5
   71F
  8
0
  6
CONTINUOUS
 62
     7
 10
-246.764547884464
 20
-113.469969660044
 30
0.0
 11
-246.764547884464
 21
-135.159970521927
 31
0.0
  0
LINE
  5
   720
  8
0
  6
CONTINUOUS
 62
     7
 10
-208.244546353817
 20
-135.159970521927
 30
0.0
 11
-246.764547884464
 21
-135.159970521927
 31
0.0
  0
LINE
  5
   721
  8
0
  6
CONTINUOUS
 62
     7
 10
-208.244546353817
 20
-113.469969660044
 30
0.0
 11
-246.764547884464
 21
-113.469969660044
 31
0.0
  0
LINE
  5
   722
  8
0
  6
CONTINUOUS
 62
     7
 10
-204.24484667267
 20
-59.0351996812238
 30
0.0
 11
-248.647980354754
 21
-59.0351996812238
 31
0.0
  0
LINE
  5
   723
  8
0
  6
CONTINUOUS
 62
     7
 10
-248.647980354754
 20
-59.0351996812238
 30
0.0
 11
-248.647980354754
 21
-137.070028640657
 31
0.0
  0
LINE
  5
   724
  8
0
  6
CONTINUOUS
 62
     7
 10
-204.24484667267
 20
-59.0351996812238
 30
0.0
 11
-204.24484667267
 21
-137.070028640657
 31
0.0
  0
LINE
  5
   725
  8
0
  6
CONTINUOUS
 62
     7
 10
-204.24484667267
 20
-137.070028640657
 30
0.0
 11
-248.647980354754
 21
-137.070028640657
 31
0.0
  0
INSERT
  5
   726
  8
0
  6
CONTINUOUS
 62
     7
  2
*UDIM1683
 10
0.0
 20
0.0
 30
0.0
  0
INSERT
  5
   727
  8
0
  6
CONTINUOUS
 62
     7
  2
*UDIM1684
 10
0.0
 20
0.0
 30
0.0
  0
INSERT
  5
   728
  8
0
  6
CONTINUOUS
 62
     7
  2
*UDIM1685
 10
0.0
 20
0.0
 30
0.0
  0
INSERT
  5
   729
  8
0
  6
CONTINUOUS
 62
     7
  2
*UDIM1686
 10
0.0
 20
0.0
 30
0.0
  0
TEXT
  5
   72A
  8
0
  6
CONTINUOUS
 62
     7
 10
-235.820052379421
 20
-76.1886638285975
 30
0.0
 40
3.00000009059906
  1
=    =
 50
359.999999896069
 41
0.916666568954785
 72
     1
 11
-227.845052998881
 21
-74.6886637977241
 31
0.0
 73
     2
  0
INSERT
  5
   72B
  8
0
  6
CONTINUOUS
 62
     7
  2
*UDIM1687
 10
0.0
 20
0.0
 30
0.0
  0
INSERT
  5
   72C
  8
0
  6
CONTINUOUS
 62
     7
  2
*UDIM1688
 10
0.0
 20
0.0
 30
0.0
  0
TEXT
  5
   72D
  8
0
  6
CONTINUOUS
 62
     7
 10
-235.821160077449
 20
-124.460476187764
 30
0.0
 40
3.00000009059906
  1
=    =
 50
359.999999896069
 41
0.916666568954785
 72
     2
 11
-219.871161321795
 21
-124.460476216616
 31
0.0
  0
INSERT
  5
   72E
  8
0
  6
CONTINUOUS
 62
     7
  2
*UDIM1689
 10
0.0
 20
0.0
 30
0.0
  0
INSERT
  5
   72F
  8
0
  6
CONTINUOUS
 62
     7
  2
*UDIM1690
 10
0.0
 20
0.0
 30
0.0
  0
INSERT
  5
   730
  8
0
  6
CONTINUOUS
 62
     7
  2
*UDIM1691
 10
0.0
 20
0.0
 30
0.0
  0
TEXT
  5
   731
  8
0
  6
CONTINUOUS
 62
     7
 10
-228.344976795066
 20
-142.394799270024
 30
0.0
 40
3.00000009059906
  1
Y
 50
359.999999896069
 41
0.916666568954785
 72
     2
 11
-226.14497698898
 21
-142.394799274004
 31
0.0
  0
TEXT
  5
   732
  8
0
  6
CONTINUOUS
 62
     7
 10
-228.57745394473
 20
-57.5406436765433
 30
0.0
 40
3.00000009059906
  1
Y
 50
359.999999896069
 41
0.916666568954785
 72
     2
 11
-226.377454138644
 21
-57.5406436805229
 31
0.0
  0
TEXT
  5
   733
  8
0
  6
CONTINUOUS
 62
     7
 10
-287.85912410509
 20
-101.323838852
 30
0.0
 40
3.00000009059906
  1
X
 50
359.999999896069
 41
0.916666568954785
 72
     2
 11
-285.659124299004
 21
-101.32383885598
 31
0.0
  0
TEXT
  5
   734
  8
0
  6
CONTINUOUS
 62
     7
 10
-196.125845923805
 20
-101.767673479622
 30
0.0
 40
3.00000009059906
  1
X
 50
359.999999896069
 41
0.916666568954785
 72
     2
 11
-193.925846117718
 21
-101.767673483601
 31
0.0
  0
ENDSEC
  0
EOF
