  0
SECTION
  2
HEADER
  9
$ACADVER
  1
AC1009
  9
$DWGCODEPAGE
  3
iso8859-1
  9
$INSBASE
 10
0.0
 20
0.0
 30
0.0
  9
$EXTMIN
 10
1.0E20
 20
1.0E20
  9
$EXTMAX
 10
-1.0E20
 20
-1.0E20
  9
$LIMMIN
 10
0.0
 20
0.0
  9
$LIMMAX
 10
12.0
 20
9.0
  9
$ORTHOMODE
 70
     0
  9
$REGENMODE
 70
     1
  9
$FILLMODE
 70
     1
  9
$QTEXTMODE
 70
     0
  9
$MIRRTEXT
 70
     1
  9
$DRAGMODE
 70
     2
  9
$LTSCALE
 40
15.0
  9
$OSMODE
 70
     0
  9
$ATTMODE
 70
     1
  9
$TEXTSIZE
 40
0.2
  9
$TRACEWID
 40
0.05
  9
$TEXTSTYLE
  7
STANDARD
  9
$CLAYER
  8
0
  9
$CELTYPE
  6
DASHED
  9
$CECOLOR
 62
   256
  9
$DIMSCALE
 40
1.0
  9
$DIMASZ
 40
0.18
  9
$DIMEXO
 40
0.0625
  9
$DIMDLI
 40
0.38
  9
$DIMRND
 40
0.0
  9
$DIMDLE
 40
0.0
  9
$DIMEXE
 40
0.18
  9
$DIMTP
 40
0.0
  9
$DIMTM
 40
0.0
  9
$DIMTXT
 40
0.18
  9
$DIMCEN
 40
0.09
  9
$DIMTSZ
 40
0.0
  9
$DIMTOL
 70
     0
  9
$DIMLIM
 70
     0
  9
$DIMTIH
 70
     1
  9
$DIMTOH
 70
     1
  9
$DIMSE1
 70
     0
  9
$DIMSE2
 70
     0
  9
$DIMTAD
 70
     0
  9
$DIMZIN
 70
     0
  9
$DIMBLK
  1

  9
$DIMASO
 70
     1
  9
$DIMSHO
 70
     1
  9
$DIMPOST
  1

  9
$DIMAPOST
  1

  9
$DIMALT
 70
     0
  9
$DIMALTD
 70
     2
  9
$DIMALTF
 40
25.4
  9
$DIMLFAC
 40
1.0
  9
$DIMTOFL
 70
     0
  9
$DIMTVP
 40
0.0
  9
$DIMTIX
 70
     0
  9
$DIMSOXD
 70
     0
  9
$DIMSAH
 70
     0
  9
$DIMBLK1
  1

  9
$DIMBLK2
  1

  9
$DIMSTYLE
  2
STANDARD
  9
$DIMCLRD
 70
     0
  9
$DIMCLRE
 70
     0
  9
$DIMCLRT
 70
     0
  9
$DIMTFAC
 40
1.0
  9
$DIMGAP
 40
0.09
  9
$LUNITS
 70
     2
  9
$LUPREC
 70
     4
  9
$AXISMODE
 70
     0
  9
$AXISUNIT
 10
0.0
 20
0.0
  9
$SKETCHINC
 40
0.1
  9
$FILLETRAD
 40
0.0
  9
$AUNITS
 70
     0
  9
$AUPREC
 70
     0
  9
$MENU
  1
acad
  9
$ELEVATION
 40
0.0
  9
$PELEVATION
 40
0.0
  9
$THICKNESS
 40
0.0
  9
$LIMCHECK
 70
     0
  9
$BLIPMODE
 70
     1
  9
$CHAMFERA
 40
0.0
  9
$CHAMFERB
 40
0.0
  9
$SKPOLY
 70
     0
  9
$TDCREATE
 40
0.000000000
  9
$TDUPDATE
 40
0.000000000
  9
$TDINDWG
 40
0.0
  9
$TDUSRTIMER
 40
0.0
  9
$USRTIMER
 70
     1
  9
$ANGBASE
 50
0.0
  9
$ANGDIR
 70
     0
  9
$PDMODE
 70
     0
  9
$PDSIZE
 40
0.0
  9
$PLINEWID
 40
0.0
  9
$COORDS
 70
     1
  9
$SPLFRAME
 70
     0
  9
$SPLINETYPE
 70
     6
  9
$SPLINESEGS
 70
     8
  9
$ATTDIA
 70
     0
  9
$ATTREQ
 70
     1
  9
$HANDLING
 70
     1
  9
$HANDSEED
  5
   640
  9
$SURFTAB1
 70
     6
  9
$SURFTAB2
 70
     6
  9
$SURFTYPE
 70
     6
  9
$SURFU
 70
     6
  9
$SURFV
 70
     6
  9
$UCSNAME
  2

  9
$UCSORG
 10
0.0
 20
0.0
 30
0.0
  9
$UCSXDIR
 10
1.0
 20
0.0
 30
0.0
  9
$UCSYDIR
 10
0.0
 20
1.0
 30
0.0
  9
$PUCSNAME
  2

  9
$PUCSORG
 10
0.0
 20
0.0
 30
0.0
  9
$PUCSXDIR
 10
1.0
 20
0.0
 30
0.0
  9
$PUCSYDIR
 10
0.0
 20
1.0
 30
0.0
  9
$USERI1
 70
     0
  9
$USERI2
 70
     0
  9
$USERI3
 70
     0
  9
$USERI4
 70
     0
  9
$USERI5
 70
     0
  9
$USERR1
 40
0.0
  9
$USERR2
 40
0.0
  9
$USERR3
 40
0.0
  9
$USERR4
 40
0.0
  9
$USERR5
 40
0.0
  9
$WORLDVIEW
 70
     1
  9
$SHADEDGE
 70
     3
  9
$SHADEDIF
 70
    70
  9
$TILEMODE
 70
     1
  9
$MAXACTVP
 70
    16
  9
$PINSBASE
 10
0.0
 20
0.0
 30
0.0
  9
$PLIMCHECK
 70
     0
  9
$PEXTMIN
 10
1.0E20
 20
1.0E20
 30
1.0E20
  9
$PEXTMAX
 10
-1.0E20
 20
-1.0E20
 30
-1.0E20
  9
$PLIMMIN
 10
0.0
 20
0.0
  9
$PLIMMAX
 10
12.0
 20
9.0
  9
$UNITMODE
 70
     0
  9
$VISRETAIN
 70
     0
  0
ENDSEC
  0
SECTION
  2
TABLES
  0
TABLE
  2
VPORT
 70
     1
  0
VPORT
  2
*ACTIVE
 70
     0
 10
0.0
 20
0.0
 11
1.0
 21
1.0
 12
6.801242
 22
4.5
 13
0.0
 23
0.0
 14
1.0
 24
1.0
 15
0.0
 25
0.0
 16
0.0
 26
0.0
 36
1.0
 17
0.0
 27
0.0
 37
0.0
 40
9.0
 41
1.511387
 42
50.0
 43
0.0
 44
0.0
 50
0.0
 51
0.0
 71
     0
 72
   100
 73
     1
 74
     1
 75
     0
 76
     0
 77
     0
 78
     0
  0
ENDTAB
  0
TABLE
  2
LTYPE
 70
    41
  0
LTYPE
  2
BYBLOCK
 70
     0
  3

 72
    65
 73
     0
 40
0.0
  0
LTYPE
  2
BYLAYER
 70
     0
  3

 72
    65
 73
     0
 40
0.0
  0
LTYPE
  2
CONTINUOUS
 70
     0
  3
Solid line
 72
    65
 73
     0
 40
0.0
  0
LTYPE
  2
BORDER
 70
    64
  3
__ __ . __ __ . __ __ . __ __ . __ __ . __ __ .
 72
    65
 73
     6
 40
1.75
 49
0.5
 49
-0.25
 49
0.5
 49
-0.25
 49
0.0
 49
-0.25
  0
LTYPE
  2
BORDER2
 70
    64
  3
__.__.__.__.__.__.__.__.__.__.__.__.__.__.__.__
 72
    65
 73
     6
 40
0.875
 49
0.25
 49
-0.125
 49
0.25
 49
-0.125
 49
0.0
 49
-0.125
  0
LTYPE
  2
BORDERX2
 70
    64
  3
____  ____  .  ____  ____  .  ____  ____  .  __
 72
    65
 73
     6
 40
3.5
 49
1.0
 49
-0.5
 49
1.0
 49
-0.5
 49
0.0
 49
-0.5
  0
LTYPE
  2
CENTER
 70
    64
  3
____ _ ____ _ ____ _ ____ _ ____ _ ____ _ ____
 72
    65
 73
     4
 40
2.0
 49
1.25
 49
-0.25
 49
0.25
 49
-0.25
  0
LTYPE
  2
CENTER2
 70
    64
  3
___ _ ___ _ ___ _ ___ _ ___ _ ___ _ ___ _ ___ _
 72
    65
 73
     4
 40
1.125
 49
0.75
 49
-0.125
 49
0.125
 49
-0.125
  0
LTYPE
  2
CENTERX2
 70
    64
  3
________  __  ________  __  ________  __  _____
 72
    65
 73
     4
 40
4.0
 49
2.5
 49
-0.5
 49
0.5
 49
-0.5
  0
LTYPE
  2
DASHDOT
 70
    64
  3
__ . __ . __ . __ . __ . __ . __ . __ . __ . __
 72
    65
 73
     4
 40
1.0
 49
0.5
 49
-0.25
 49
0.0
 49
-0.25
  0
LTYPE
  2
DASHDOT2
 70
    64
  3
_._._._._._._._._._._._._._._._._._._._._._._._
 72
    65
 73
     4
 40
0.5
 49
0.25
 49
-0.125
 49
0.0
 49
-0.125
  0
LTYPE
  2
DASHDOTX2
 70
    64
  3
____  .  ____  .  ____  .  ____  .  ____  .  __
 72
    65
 73
     4
 40
2.0
 49
1.0
 49
-0.5
 49
0.0
 49
-0.5
  0
LTYPE
  2
DASHED
 70
    64
  3
__ __ __ __ __ __ __ __ __ __ __ __ __ __ __ __
 72
    65
 73
     2
 40
0.75
 49
0.5
 49
-0.25
  0
LTYPE
  2
DASHED2
 70
    64
  3
_ _ _ _ _ _ _ _ _ _ _ _ _ _ _ _ _ _ _ _ _ _ _ _
 72
    65
 73
     2
 40
0.375
 49
0.25
 49
-0.125
  0
LTYPE
  2
DASHEDX2
 70
    64
  3
____  ____  ____  ____  ____  ____  ____  ____
 72
    65
 73
     2
 40
1.5
 49
1.0
 49
-0.5
  0
LTYPE
  2
DIVIDE
 70
    64
  3
____ . . ____ . . ____ . . ____ . . ____ . . __
 72
    65
 73
     6
 40
1.25
 49
0.5
 49
-0.25
 49
0.0
 49
-0.25
 49
0.0
 49
-0.25
  0
LTYPE
  2
DIVIDE2
 70
    64
  3
__..__..__..__..__..__..__..__..__..__..__..__.
 72
    65
 73
     6
 40
0.625
 49
0.25
 49
-0.125
 49
0.0
 49
-0.125
 49
0.0
 49
-0.125
  0
LTYPE
  2
DIVIDEX2
 70
    64
  3
________  .  .  ________  .  .  ________  .  .
 72
    65
 73
     6
 40
2.5
 49
1.0
 49
-0.5
 49
0.0
 49
-0.5
 49
0.0
 49
-0.5
  0
LTYPE
  2
DOT
 70
    64
  3
. . . . . . . . . . . . . . . . . . . . . . . .
 72
    65
 73
     2
 40
0.25
 49
0.0
 49
-0.25
  0
LTYPE
  2
DOT2
 70
    64
  3
...............................................
 72
    65
 73
     2
 40
0.125
 49
0.0
 49
-0.125
  0
LTYPE
  2
DOTX2
 70
    64
  3
.  .  .  .  .  .  .  .  .  .  .  .  .  .  .  .
 72
    65
 73
     2
 40
0.5
 49
0.0
 49
-0.5
  0
LTYPE
  2
HIDDEN
 70
    64
  3
__ __ __ __ __ __ __ __ __ __ __ __ __ __ __ __
 72
    65
 73
     2
 40
0.375
 49
0.25
 49
-0.125
  0
LTYPE
  2
HIDDEN2
 70
    64
  3
_ _ _ _ _ _ _ _ _ _ _ _ _ _ _ _ _ _ _ _ _ _ _ _
 72
    65
 73
     2
 40
0.1875
 49
0.125
 49
-0.0625
  0
LTYPE
  2
HIDDENX2
 70
    64
  3
____ ____ ____ ____ ____ ____ ____ ____ ____ __
 72
    65
 73
     2
 40
0.75
 49
0.5
 49
-0.25
  0
LTYPE
  2
PHANTOM
 70
    64
  3
______  __  __  ______  __  __  ______  __  __
 72
    65
 73
     6
 40
2.5
 49
1.25
 49
-0.25
 49
0.25
 49
-0.25
 49
0.25
 49
-0.25
  0
LTYPE
  2
PHANTOM2
 70
    64
  3
___ _ _ ___ _ _ ___ _ _ ___ _ _ ___ _ _ ___ _ _
 72
    65
 73
     6
 40
1.25
 49
0.625
 49
-0.125
 49
0.125
 49
-0.125
 49
0.125
 49
-0.125
  0
LTYPE
  2
PHANTOMX2
 70
    64
  3
____________    ____    ____    ____________
 72
    65
 73
     6
 40
5.0
 49
2.5
 49
-0.5
 49
0.5
 49
-0.5
 49
0.5
 49
-0.5
  0
LTYPE
  2
ACAD_ISO02W100
 70
    64
  3
__ __ __ __ __ __ __ __ __ __ __ __ __ __ __ __
 72
    65
 73
     2
 40
15.0
 49
12.0
 49
-3.0
  0
LTYPE
  2
ACAD_ISO03W100
 70
    64
  3
__    __    __    __    __    __    __    __
 72
    65
 73
     2
 40
30.0
 49
12.0
 49
-18.0
  0
LTYPE
  2
ACAD_ISO04W100
 70
    64
  3
____ . ____ . ____ . ____ . ____ . ____ . ____
 72
    65
 73
     4
 40
30.5
 49
24.0
 49
-3.0
 49
0.5
 49
-3.0
  0
LTYPE
  2
ACAD_ISO05W100
 70
    64
  3
____ .. ____ .. ____ .. ____ .. ____ .. ____ ..
 72
    65
 73
     6
 40
34.0
 49
24.0
 49
-3.0
 49
0.5
 49
-3.0
 49
0.5
 49
-3.0
  0
LTYPE
  2
ACAD_ISO06W100
 70
    64
  3
____ ... ____ ... ____ ... ____ ... ____ ... __
 72
    65
 73
     8
 40
37.5
 49
24.0
 49
-3.0
 49
0.5
 49
-3.0
 49
0.5
 49
-3.0
 49
0.5
 49
-3.0
  0
LTYPE
  2
ACAD_ISO07W100
 70
    64
  3
. . . . . . . . . . . . . . . . . . . . . . . .
 72
    65
 73
     2
 40
3.5
 49
0.5
 49
-3.0
  0
LTYPE
  2
ACAD_ISO08W100
 70
    64
  3
____ __ ____ __ ____ __ ____ ____ __ __ ____ __
 72
    65
 73
     4
 40
36.0
 49
24.0
 49
-3.0
 49
6.0
 49
-3.0
  0
LTYPE
  2
ACAD_ISO09W100
 70
    64
  3
____ __ __ ____ __ __ ____ __ __ ____ __ __ ___
 72
    65
 73
     6
 40
45.0
 49
24.0
 49
-3.0
 49
6.0
 49
-3.0
 49
6.0
 49
-3.0
  0
LTYPE
  2
ACAD_ISO10W100
 70
    64
  3
__ . __ . __ . __ . __ . __ . __ . __ . __ . __
 72
    65
 73
     4
 40
18.5
 49
12.0
 49
-3.0
 49
0.5
 49
-3.0
  0
LTYPE
  2
ACAD_ISO11W100
 70
    64
  3
__ __ . __ __ . __ __ . __ __ . __ __ . __ __ .
 72
    65
 73
     6
 40
33.5
 49
12.0
 49
-3.0
 49
12.0
 49
-3.0
 49
0.5
 49
-3.0
  0
LTYPE
  2
ACAD_ISO12W100
 70
    64
  3
__ . . __ . . __ . . __ . . __ . . __ . . __ .
 72
    65
 73
     6
 40
22.0
 49
12.0
 49
-3.0
 49
0.5
 49
-3.0
 49
0.5
 49
-3.0
  0
LTYPE
  2
ACAD_ISO13W100
 70
    64
  3
__ __ . . __ __ . . __ __ . . __ __ . . __ __ .
 72
    65
 73
     8
 40
37.0
 49
12.0
 49
-3.0
 49
12.0
 49
-3.0
 49
0.5
 49
-3.0
 49
0.5
 49
-3.0
  0
LTYPE
  2
ACAD_ISO14W100
 70
    64
  3
__ . . . __ . . . __ . . . __ . . . __ . . . __
 72
    65
 73
     8
 40
25.5
 49
12.0
 49
-3.0
 49
0.5
 49
-3.0
 49
0.5
 49
-3.0
 49
0.5
 49
-3.0
  0
LTYPE
  2
ACAD_ISO15W100
 70
    64
  3
__ __ . . . __ __ . . . __ __ . . . __ __ . . .
 72
    65
 73
    10
 40
40.5
 49
12.0
 49
-3.0
 49
12.0
 49
-3.0
 49
0.5
 49
-3.0
 49
0.5
 49
-3.0
 49
0.5
 49
-3.0
  0
ENDTAB
  0
TABLE
  2
STYLE
 70
     4
  0
STYLE
  2
STANDARD
 70
    64
 40
0.0
 41
1.0
 50
0.0
 71
     0
 42
0.2
  3
txt
  4

  0
STYLE
  2
TOLERANCE
 70
    64
 40
0.0
 41
1.0
 50
0.0
 71
     0
 42
0.2
  3
../igesfont/iges1003.shx
  4

  0
STYLE
  2
ROMANS
 70
    64
 40
0.0
 41
1.0
 50
0.0
 71
     0
 42
0.2
  3
romans.shx
  4

  0
STYLE
  2
ROMANC
 70
    64
 40
0.0
 41
1.0
 50
0.0
 71
     0
 42
0.2
  3
romanc.shx
  4

  0
ENDTAB
  0
TABLE
  2
DIMSTYLE
 70
     2
  0
DIMSTYLE
  2
UNNAMED
 70
     0
  3

  4

  5

  6

  7

 40
1.0
 41
0.18
 42
0.0625
 43
0.38
 44
0.18
 45
0.0
 46
0.0
 47
0.0
 48
0.0
140
0.18
141
0.09
142
0.0
143
25.4
144
1.0
145
0.0
146
1.0
147
0.09
 71
     0
 72
     0
 73
     1
 74
     1
 75
     0
 76
     0
 77
     0
 78
     0
170
     0
171
     2
172
     0
173
     0
174
     0
175
     0
176
     0
177
     0
178
     0
  0
DIMSTYLE
  2
STANDARD
 70
     0
  3

  4

  5

  6

  7

 40
1.0
 41
0.18
 42
0.0625
 43
0.38
 44
0.18
 45
0.0
 46
0.0
 47
0.0
 48
0.0
140
0.18
141
0.09
142
0.0
143
25.4
144
1.0
145
0.0
146
1.0
147
0.09
 71
     0
 72
     0
 73
     1
 74
     1
 75
     0
 76
     0
 77
     0
 78
     0
170
     0
171
     2
172
     0
173
     0
174
     0
175
     0
176
     0
177
     0
178
     0
  0
ENDTAB
  0
TABLE
  2
LAYER
 70
     2
  0
LAYER
  2
0
 70
     0
 62
     7
  6
CONTINUOUS
  0
LAYER
  2
255
 70
     0
 62
     7
  6
CONTINUOUS
  0
ENDTAB
  0
ENDSEC
  0
SECTION
  2
BLOCKS
  0
BLOCK
  5
     B
  8
0
  6
CONTINUOUS
 62
     7
  2
*UDIM2449
 70
    65
 10
0.0
 20
0.0
 30
0.0
  3
*UDIM2449
  0
TEXT
  5
     C
  8
0
  6
CONTINUOUS
 62
     7
 10
-655.346851363519
 20
-113.499771207302
 30
0.0
 40
3.00000002980232
  1
107,25
 50
449.999999896069
 41
0.933333333333333
 72
     1
 11
-656.846851363778
 21
-105.399771124125
 31
0.0
 73
     2
  0
LINE
  5
     D
  8
0
  6
CONTINUOUS
 62
     7
 10
-637.214851480589
 20
-91.7185211181641
 30
0.0
 11
-656.346851348877
 21
-91.7185211181641
 31
0.0
  0
LINE
  5
     E
  8
0
  6
CONTINUOUS
 62
     7
 10
-645.574169928754
 20
-118.531021118164
 30
0.0
 11
-656.346851348877
 21
-118.531021118164
 31
0.0
  0
LINE
  5
     F
  8
0
  6
CONTINUOUS
 62
     7
 10
-654.346851348877
 20
-91.7185211181641
 30
0.0
 11
-654.346851348877
 21
-118.531021118164
 31
0.0
  0
LINE
  5
    10
  8
0
  6
CONTINUOUS
 62
     7
 10
-653.825906918925
 20
-94.672944395371
 30
0.0
 11
-654.346851348877
 21
-91.7185211181641
 31
0.0
  0
LINE
  5
    11
  8
0
  6
CONTINUOUS
 62
     7
 10
-654.346851348877
 20
-91.7185211181641
 30
0.0
 11
-654.867795778829
 21
-94.672944395371
 31
0.0
  0
LINE
  5
    12
  8
0
  6
CONTINUOUS
 62
     7
 10
-654.867795778829
 20
-115.576597840957
 30
0.0
 11
-654.346851348877
 21
-118.531021118164
 31
0.0
  0
LINE
  5
    13
  8
0
  6
CONTINUOUS
 62
     7
 10
-654.346851348877
 20
-118.531021118164
 30
0.0
 11
-653.825906918925
 21
-115.576597840957
 31
0.0
  0
ENDBLK
  5
    14
  8
0
  6
CONTINUOUS
 62
     7
  0
BLOCK
  5
    15
  8
0
  6
CONTINUOUS
 62
     7
  2
*UDIM2450
 70
    65
 10
0.0
 20
0.0
 30
0.0
  3
*UDIM2450
  0
TEXT
  5
    16
  8
0
  6
CONTINUOUS
 62
     7
 10
-593.961471569729
 20
-138.969998619685
 30
0.0
 40
3.00000002980232
  1
65,75
 50
449.999999896069
 41
0.933333333333333
 72
     1
 11
-595.461471572518
 21
-132.269998550415
 31
0.0
 73
     2
  0
LINE
  5
    17
  8
0
  6
CONTINUOUS
 62
     7
 10
-600.482801203283
 20
-102.093521118164
 30
0.0
 11
-590.961471557617
 21
-102.093521118164
 31
0.0
  0
LINE
  5
    18
  8
0
  6
CONTINUOUS
 62
     7
 10
-592.961471557617
 20
-102.093521118164
 30
0.0
 11
-592.961471557617
 21
-138.969998616974
 31
0.0
  0
LINE
  5
    19
  8
0
  6
CONTINUOUS
 62
     7
 10
-592.440527127666
 20
-105.047944395371
 30
0.0
 11
-592.961471557617
 21
-102.093521118164
 31
0.0
  0
LINE
  5
    1A
  8
0
  6
CONTINUOUS
 62
     7
 10
-592.961471557617
 20
-102.093521118164
 30
0.0
 11
-593.482415987569
 21
-105.047944395371
 31
0.0
  0
LINE
  5
    1B
  8
0
  6
CONTINUOUS
 62
     7
 10
-593.482415987569
 20
-115.576597840957
 30
0.0
 11
-592.961471557617
 21
-118.531021118164
 31
0.0
  0
LINE
  5
    1C
  8
0
  6
CONTINUOUS
 62
     7
 10
-592.961471557617
 20
-118.531021118164
 30
0.0
 11
-592.440527127666
 21
-115.576597840957
 31
0.0
  0
ENDBLK
  5
    1D
  8
0
  6
CONTINUOUS
 62
     7
  0
BLOCK
  5
    1E
  8
0
  6
CONTINUOUS
 62
     7
  2
*UDIM2451
 70
    65
 10
0.0
 20
0.0
 30
0.0
  3
*UDIM2451
  0
TEXT
  5
    1F
  8
0
  6
CONTINUOUS
 62
     7
 10
-589.538680083328
 20
-78.6643449705779
 30
0.0
 40
3.00000002980232
  1
18
 50
392.405678570768
 41
0.933333333333333
 72
     1
 11
-588.231858741353
 21
-76.0581565374364
 31
0.0
 73
     2
  0
TEXT
  5
    20
  8
0
  6
CONTINUOUS
 62
     7
 10
-591.860435850967
 20
-80.1380987971048
 30
0.0
 40
3.00000002980232
  1
R
 50
392.405678570768
 41
0.933333333333334
 72
     1
 11
-591.735599262699
 21
-78.2821850342985
 31
0.0
 73
     2
  0
LINE
  5
    21
  8
0
  6
CONTINUOUS
 62
     7
 10
-584.781395488065
 20
-76.8290673859725
 30
0.0
 11
-617.103166804559
 21
-97.3455811058106
 31
0.0
  0
LINE
  5
    22
  8
0
  6
CONTINUOUS
 62
     7
 10
-606.654210171817
 20
-91.3300506245584
 30
0.0
 11
-604.439044583761
 21
-89.3069239806013
 31
0.0
  0
LINE
  5
    23
  8
0
  6
CONTINUOUS
 62
     7
 10
-604.439044583761
 20
-89.3069239806013
 30
0.0
 11
-607.21256932564
 21
-90.4504101004048
 31
0.0
  0
ENDBLK
  5
    24
  8
0
  6
CONTINUOUS
 62
     7
  0
BLOCK
  5
    25
  8
0
  6
CONTINUOUS
 62
     7
  2
*UDIM2452
 70
    65
 10
0.0
 20
0.0
 30
0.0
  3
*UDIM2452
  0
TEXT
  5
    26
  8
0
  6
CONTINUOUS
 62
     7
 10
-624.750783218673
 20
-70.8650588893385
 30
0.0
 40
3.00000002980232
  1
87,5
 50
359.999999896069
 41
0.933333333333333
 72
     1
 11
-619.450783163309
 21
-69.3650588840246
 31
0.0
 73
     2
  0
LINE
  5
    27
  8
0
  6
CONTINUOUS
 62
     7
 10
-608.23828125
 20
-84.4347774832644
 30
0.0
 11
-608.23828125
 21
-69.8650588989258
 31
0.0
  0
LINE
  5
    28
  8
0
  6
CONTINUOUS
 62
     7
 10
-630.11328125
 20
-84.4347774832644
 30
0.0
 11
-630.11328125
 21
-69.8650588989258
 31
0.0
  0
LINE
  5
    29
  8
0
  6
CONTINUOUS
 62
     7
 10
-608.23828125
 20
-71.8650588989258
 30
0.0
 11
-630.11328125
 21
-71.8650588989258
 31
0.0
  0
LINE
  5
    2A
  8
0
  6
CONTINUOUS
 62
     7
 10
-611.192704527207
 20
-72.3860033288775
 30
0.0
 11
-608.23828125
 21
-71.8650588989258
 31
0.0
  0
LINE
  5
    2B
  8
0
  6
CONTINUOUS
 62
     7
 10
-608.23828125
 20
-71.8650588989258
 30
0.0
 11
-611.192704527207
 21
-71.3441144689741
 31
0.0
  0
LINE
  5
    2C
  8
0
  6
CONTINUOUS
 62
     7
 10
-627.158857972793
 20
-71.3441144689741
 30
0.0
 11
-630.11328125
 21
-71.8650588989258
 31
0.0
  0
LINE
  5
    2D
  8
0
  6
CONTINUOUS
 62
     7
 10
-630.11328125
 20
-71.8650588989258
 30
0.0
 11
-627.158857972793
 21
-72.3860033288775
 31
0.0
  0
ENDBLK
  5
    2E
  8
0
  6
CONTINUOUS
 62
     7
  0
BLOCK
  5
    2F
  8
0
  6
CONTINUOUS
 62
     7
  2
*UDIM2453
 70
    65
 10
0.0
 20
0.0
 30
0.0
  3
*UDIM2453
  0
TEXT
  5
    30
  8
0
  6
CONTINUOUS
 62
     7
 10
-663.201950080292
 20
-123.143520679547
 30
0.0
 40
3.00000002980232
  1
218
 50
449.999999896069
 41
0.933333333333333
 72
     1
 11
-664.701950088143
 21
-119.243520638092
 31
0.0
 73
     2
  0
LINE
  5
    31
  8
0
  6
CONTINUOUS
 62
     7
 10
-637.214851480588
 20
-91.7185203945306
 30
0.0
 11
-664.201950073242
 21
-91.7185008657634
 31
0.0
  0
LINE
  5
    32
  8
0
  6
CONTINUOUS
 62
     7
 10
-636.562586137998
 20
-146.218520413786
 30
0.0
 11
-664.201950073242
 21
-146.218500945226
 31
0.0
  0
LINE
  5
    33
  8
0
  6
CONTINUOUS
 62
     7
 10
-662.201950073242
 20
-91.7185023130303
 30
0.0
 11
-662.201950073242
 21
-146.218502353982
 31
0.0
  0
LINE
  5
    34
  8
0
  6
CONTINUOUS
 62
     7
 10
-661.681005643291
 20
-94.6729255902372
 30
0.0
 11
-662.201950073242
 21
-91.7185023130303
 31
0.0
  0
LINE
  5
    35
  8
0
  6
CONTINUOUS
 62
     7
 10
-662.201950073242
 20
-91.7185023130303
 30
0.0
 11
-662.722894503194
 21
-94.6729255902372
 31
0.0
  0
LINE
  5
    36
  8
0
  6
CONTINUOUS
 62
     7
 10
-662.722894503194
 20
-143.264079076775
 30
0.0
 11
-662.201950073242
 21
-146.218502353982
 31
0.0
  0
LINE
  5
    37
  8
0
  6
CONTINUOUS
 62
     7
 10
-662.201950073242
 20
-146.218502353982
 30
0.0
 11
-661.681005643291
 21
-143.264079076775
 31
0.0
  0
ENDBLK
  5
    38
  8
0
  6
CONTINUOUS
 62
     7
  0
BLOCK
  5
    39
  8
0
  6
CONTINUOUS
 62
     7
  2
*UDIM2454
 70
    65
 10
0.0
 20
0.0
 30
0.0
  3
*UDIM2454
  0
TEXT
  5
    3A
  8
0
  6
CONTINUOUS
 62
     7
 10
-589.91846840179
 20
-97.7790487944257
 30
0.0
 40
3.00000002980232
  1
6
 50
372.466948566418
 41
0.933333333333334
 72
     1
 11
-589.16822021831
 21
-96.0769536936957
 31
0.0
 73
     2
  0
TEXT
  5
    3B
  8
0
  6
CONTINUOUS
 62
     7
 10
-592.994193612858
 20
-98.4590594477155
 30
0.0
 40
3.00000002980232
  1
Ø
 50
372.466948566418
 41
0.933333333333334
 72
     1
 11
-592.243945429378
 21
-96.7569643469855
 31
0.0
 73
     2
  0
TEXT
  5
    3C
  8
0
  6
CONTINUOUS
 62
     7
 10
-587.233311449168
 20
-97.1853886849745
 30
0.0
 40
3.00000002980232
  1
 (M5)
 50
372.466948566418
 41
0.933333333333333
 72
     1
 11
-581.01510729564
 21
-94.2743857578669
 31
0.0
 73
     2
  0
LINE
  5
    3D
  8
0
  6
CONTINUOUS
 62
     7
 10
-573.933397552187
 20
-95.2690656439995
 30
0.0
 11
-605.533096774135
 21
-102.255428416056
 31
0.0
  0
LINE
  5
    3E
  8
0
  6
CONTINUOUS
 62
     7
 10
-601.296165291518
 20
-100.785162643064
 30
0.0
 11
-604.068465725865
 21
-101.931613820272
 31
0.0
  0
LINE
  5
    3F
  8
0
  6
CONTINUOUS
 62
     7
 10
-604.068465725865
 20
-101.931613820272
 30
0.0
 11
-601.071246078171
 21
-101.802484491771
 31
0.0
  0
LINE
  5
    40
  8
0
  6
CONTINUOUS
 62
     7
 10
-608.305397208482
 20
-103.401879593264
 30
0.0
 11
-605.533096774135
 21
-102.255428416056
 31
0.0
  0
LINE
  5
    41
  8
0
  6
CONTINUOUS
 62
     7
 10
-605.533096774135
 20
-102.255428416056
 30
0.0
 11
-608.530316421829
 21
-102.384557744557
 31
0.0
  0
ENDBLK
  5
    42
  8
0
  6
CONTINUOUS
 62
     7
  0
BLOCK
  5
    43
  8
0
  6
CONTINUOUS
 62
     7
  2
*UDIM2455
 70
    65
 10
0.0
 20
0.0
 30
0.0
  3
*UDIM2455
  0
TEXT
  5
    44
  8
0
  6
CONTINUOUS
 62
     7
 10
-616.76928610179
 20
-125.785797112086
 30
0.0
 40
3.00000002980232
  1
115
 50
359.999999896069
 41
0.933333333333333
 72
     1
 11
-612.869286060333
 21
-124.285797104239
 31
0.0
 73
     2
  0
LINE
  5
    45
  8
0
  6
CONTINUOUS
 62
     7
 10
-604.80078125
 20
-126.785797119141
 30
0.0
 11
-633.55078125
 21
-126.785797119141
 31
0.0
  0
LINE
  5
    46
  8
0
  6
CONTINUOUS
 62
     7
 10
-607.755204527207
 20
-127.306741549092
 30
0.0
 11
-604.80078125
 21
-126.785797119141
 31
0.0
  0
LINE
  5
    47
  8
0
  6
CONTINUOUS
 62
     7
 10
-604.80078125
 20
-126.785797119141
 30
0.0
 11
-607.755204527207
 21
-126.264852689189
 31
0.0
  0
LINE
  5
    48
  8
0
  6
CONTINUOUS
 62
     7
 10
-630.596357972793
 20
-126.264852689189
 30
0.0
 11
-633.55078125
 21
-126.785797119141
 31
0.0
  0
LINE
  5
    49
  8
0
  6
CONTINUOUS
 62
     7
 10
-633.55078125
 20
-126.785797119141
 30
0.0
 11
-630.596357972793
 21
-127.306741549092
 31
0.0
  0
ENDBLK
  5
    4A
  8
0
  6
CONTINUOUS
 62
     7
  0
BLOCK
  5
    4B
  8
0
  6
CONTINUOUS
 62
     7
  2
*UDIM2456
 70
    65
 10
0.0
 20
0.0
 30
0.0
  3
*UDIM2456
  0
TEXT
  5
    4C
  8
0
  6
CONTINUOUS
 62
     7
 10
-646.41727066745
 20
-127.713492376105
 30
0.0
 40
3.00000002980232
  1
135
 50
449.999999896069
 41
0.933333333333333
 72
     1
 11
-647.917270675302
 21
-123.81349233465
 31
0.0
 73
     2
  0
LINE
  5
    4D
  8
0
  6
CONTINUOUS
 62
     7
 10
-637.546994058955
 20
-102.093519563336
 30
0.0
 11
-647.417270660398
 21
-102.093504216755
 31
0.0
  0
LINE
  5
    4E
  8
0
  6
CONTINUOUS
 62
     7
 10
-637.59876610744
 20
-135.843519554208
 30
0.0
 11
-647.417270660398
 21
-135.843504198498
 31
0.0
  0
LINE
  5
    4F
  8
0
  6
CONTINUOUS
 62
     7
 10
-645.4172706604
 20
-102.09350732641
 30
0.0
 11
-645.4172706604
 21
-135.84350732641
 31
0.0
  0
LINE
  5
    50
  8
0
  6
CONTINUOUS
 62
     7
 10
-644.896326230449
 20
-105.047930603617
 30
0.0
 11
-645.4172706604
 21
-102.09350732641
 31
0.0
  0
LINE
  5
    51
  8
0
  6
CONTINUOUS
 62
     7
 10
-645.4172706604
 20
-102.09350732641
 30
0.0
 11
-645.938215090352
 21
-105.047930603617
 31
0.0
  0
LINE
  5
    52
  8
0
  6
CONTINUOUS
 62
     7
 10
-645.938215090352
 20
-132.889084049203
 30
0.0
 11
-645.4172706604
 21
-135.84350732641
 31
0.0
  0
LINE
  5
    53
  8
0
  6
CONTINUOUS
 62
     7
 10
-645.4172706604
 20
-135.84350732641
 30
0.0
 11
-644.896326230449
 21
-132.889084049203
 31
0.0
  0
ENDBLK
  5
    54
  8
0
  6
CONTINUOUS
 62
     7
  0
BLOCK
  5
    55
  8
0
  6
CONTINUOUS
 62
     7
  2
*HATCH1324
 70
    65
 10
0.0
 20
0.0
 30
0.0
  3
*HATCH1324
  0
LINE
  5
    56
  8
0
  6
CONTINUOUS
 62
    52
 10
187.863540649414
 20
-106.999984741211
 30
0.0
 11
185.863540649414
 21
-108.999984741211
 31
0.0
  0
LINE
  5
    57
  8
0
  6
CONTINUOUS
 62
    52
 10
192.106185913086
 20
-106.999984741211
 30
0.0
 11
190.106185913086
 21
-108.999984741211
 31
0.0
  0
LINE
  5
    58
  8
0
  6
CONTINUOUS
 62
    52
 10
196.348831176758
 20
-106.999984741211
 30
0.0
 11
194.348831176758
 21
-108.999984741211
 31
0.0
  0
LINE
  5
    59
  8
0
  6
CONTINUOUS
 62
    52
 10
200.59147644043
 20
-106.999984741211
 30
0.0
 11
198.59147644043
 21
-108.999984741211
 31
0.0
  0
LINE
  5
    5A
  8
0
  6
CONTINUOUS
 62
    52
 10
204.834121704102
 20
-106.999984741211
 30
0.0
 11
202.834121704102
 21
-108.999984741211
 31
0.0
  0
LINE
  5
    5B
  8
0
  6
CONTINUOUS
 62
    52
 10
209.076766967773
 20
-106.999984741211
 30
0.0
 11
207.076766967773
 21
-108.999984741211
 31
0.0
  0
LINE
  5
    5C
  8
0
  6
CONTINUOUS
 62
    52
 10
213.319412231445
 20
-106.999984741211
 30
0.0
 11
211.319412231445
 21
-108.999984741211
 31
0.0
  0
LINE
  5
    5D
  8
0
  6
CONTINUOUS
 62
    52
 10
217.562057495117
 20
-106.999984741211
 30
0.0
 11
215.562057495117
 21
-108.999984741211
 31
0.0
  0
LINE
  5
    5E
  8
0
  6
CONTINUOUS
 62
    52
 10
221.804702758789
 20
-106.999984741211
 30
0.0
 11
219.804702758789
 21
-108.999984741211
 31
0.0
  0
LINE
  5
    5F
  8
0
  6
CONTINUOUS
 62
    52
 10
226.047348022461
 20
-106.999984741211
 30
0.0
 11
224.047348022461
 21
-108.999984741211
 31
0.0
  0
LINE
  5
    60
  8
0
  6
CONTINUOUS
 62
    52
 10
230.289993286133
 20
-106.999984741211
 30
0.0
 11
228.289993286133
 21
-108.999984741211
 31
0.0
  0
LINE
  5
    61
  8
0
  6
CONTINUOUS
 62
    52
 10
234.532638549805
 20
-106.999984741211
 30
0.0
 11
232.532638549805
 21
-108.999984741211
 31
0.0
  0
LINE
  5
    62
  8
0
  6
CONTINUOUS
 62
    52
 10
238.775283813477
 20
-106.999984741211
 30
0.0
 11
236.775283813477
 21
-108.999984741211
 31
0.0
  0
LINE
  5
    63
  8
0
  6
CONTINUOUS
 62
    52
 10
243.017929077148
 20
-106.999984741211
 30
0.0
 11
241.017929077148
 21
-108.999984741211
 31
0.0
  0
ENDBLK
  5
    64
  8
0
  6
CONTINUOUS
 62
     7
  0
BLOCK
  5
    65
  8
0
  6
CONTINUOUS
 62
     7
  2
*HATCH1325
 70
    65
 10
0.0
 20
0.0
 30
0.0
  3
*HATCH1325
  0
LINE
  5
    66
  8
0
  6
CONTINUOUS
 62
    52
 10
168.771667480469
 20
-106.999984741211
 30
0.0
 11
166.771667480469
 21
-108.999984741211
 31
0.0
  0
LINE
  5
    67
  8
0
  6
CONTINUOUS
 62
    52
 10
173.014312744141
 20
-106.999984741211
 30
0.0
 11
171.014312744141
 21
-108.999984741211
 31
0.0
  0
LINE
  5
    68
  8
0
  6
CONTINUOUS
 62
    52
 10
177.256958007812
 20
-106.999984741211
 30
0.0
 11
175.256958007813
 21
-108.999984741211
 31
0.0
  0
ENDBLK
  5
    69
  8
0
  6
CONTINUOUS
 62
     7
  0
BLOCK
  5
    6A
  8
0
  6
CONTINUOUS
 62
     7
  2
*HATCH1326
 70
    65
 10
0.0
 20
0.0
 30
0.0
  3
*HATCH1326
  0
LINE
  5
    6B
  8
0
  6
CONTINUOUS
 62
    52
 10
45.7350769042969
 20
-106.999984741211
 30
0.0
 11
43.7350769042969
 21
-108.999984741211
 31
0.0
  0
LINE
  5
    6C
  8
0
  6
CONTINUOUS
 62
    52
 10
49.9777145385742
 20
-106.999984741211
 30
0.0
 11
47.9777145385742
 21
-108.999984741211
 31
0.0
  0
LINE
  5
    6D
  8
0
  6
CONTINUOUS
 62
    52
 10
53.9806251525879
 20
-107.239715576172
 30
0.0
 11
52.2203598022461
 21
-108.999984741211
 31
0.0
  0
ENDBLK
  5
    6E
  8
0
  6
CONTINUOUS
 62
     7
  0
BLOCK
  5
    6F
  8
0
  6
CONTINUOUS
 62
     7
  2
*HATCH1327
 70
    65
 10
0.0
 20
0.0
 30
0.0
  3
*HATCH1327
  0
LINE
  5
    70
  8
0
  6
CONTINUOUS
 62
    52
 10
-26.3898162841797
 20
-106.999984741211
 30
0.0
 11
-28.3898162841797
 21
-108.999984741211
 31
0.0
  0
LINE
  5
    71
  8
0
  6
CONTINUOUS
 62
    52
 10
-22.1471748352051
 20
-106.999984741211
 30
0.0
 11
-24.1471748352051
 21
-108.999984741211
 31
0.0
  0
LINE
  5
    72
  8
0
  6
CONTINUOUS
 62
    52
 10
-17.9045333862305
 20
-106.999984741211
 30
0.0
 11
-19.9045333862305
 21
-108.999984741211
 31
0.0
  0
LINE
  5
    73
  8
0
  6
CONTINUOUS
 62
    52
 10
-13.6618919372559
 20
-106.999984741211
 30
0.0
 11
-15.6618919372559
 21
-108.999984741211
 31
0.0
  0
LINE
  5
    74
  8
0
  6
CONTINUOUS
 62
    52
 10
-9.41925048828125
 20
-106.999984741211
 30
0.0
 11
-11.4192504882812
 21
-108.999984741211
 31
0.0
  0
LINE
  5
    75
  8
0
  6
CONTINUOUS
 62
    52
 10
-5.17660903930664
 20
-106.999984741211
 30
0.0
 11
-7.1766095161438
 21
-108.999984741211
 31
0.0
  0
LINE
  5
    76
  8
0
  6
CONTINUOUS
 62
    52
 10
-0.933968067169189
 20
-106.999984741211
 30
0.0
 11
-2.93396902084351
 21
-108.999984741211
 31
0.0
  0
LINE
  5
    77
  8
0
  6
CONTINUOUS
 62
    52
 10
3.30867290496826
 20
-106.999984741211
 30
0.0
 11
1.30867147445679
 21
-108.999984741211
 31
0.0
  0
LINE
  5
    78
  8
0
  6
CONTINUOUS
 62
    52
 10
7.55131435394287
 20
-106.999984741211
 30
0.0
 11
5.55131196975708
 21
-108.999984741211
 31
0.0
  0
LINE
  5
    79
  8
0
  6
CONTINUOUS
 62
    52
 10
11.7939558029175
 20
-106.999984741211
 30
0.0
 11
9.79395294189453
 21
-108.999984741211
 31
0.0
  0
LINE
  5
    7A
  8
0
  6
CONTINUOUS
 62
    52
 10
16.0365962982178
 20
-106.999984741211
 30
0.0
 11
14.0365943908691
 21
-108.999984741211
 31
0.0
  0
LINE
  5
    7B
  8
0
  6
CONTINUOUS
 62
    52
 10
20.2792377471924
 20
-106.999984741211
 30
0.0
 11
18.2792358398438
 21
-108.999984741211
 31
0.0
  0
LINE
  5
    7C
  8
0
  6
CONTINUOUS
 62
    52
 10
24.521879196167
 20
-106.999984741211
 30
0.0
 11
22.5218772888184
 21
-108.999984741211
 31
0.0
  0
LINE
  5
    7D
  8
0
  6
CONTINUOUS
 62
    52
 10
28.7645206451416
 20
-106.999984741211
 30
0.0
 11
26.764518737793
 21
-108.999984741211
 31
0.0
  0
LINE
  5
    7E
  8
0
  6
CONTINUOUS
 62
    52
 10
33.0071601867676
 20
-106.999984741211
 30
0.0
 11
31.0071601867676
 21
-108.999984741211
 31
0.0
  0
LINE
  5
    7F
  8
0
  6
CONTINUOUS
 62
    52
 10
35.4806251525879
 20
-108.769157409668
 30
0.0
 11
35.2497940063477
 21
-108.999984741211
 31
0.0
  0
ENDBLK
  5
    80
  8
0
  6
CONTINUOUS
 62
     7
  0
BLOCK
  5
    81
  8
0
  6
CONTINUOUS
 62
     7
  2
*UDIM2457
 70
    65
 10
0.0
 20
0.0
 30
0.0
  3
*UDIM2457
  0
TEXT
  5
    82
  8
0
  6
CONTINUOUS
 62
     7
 10
-519.921957411728
 20
35.4815826438564
 30
0.0
 40
3.00000002980232
  1
84
 50
359.999999948034
 41
0.933333333333333
 72
     1
 11
-517.42195738554
 21
36.9815826565027
 31
0.0
 73
     2
  0
LINE
  5
    83
  8
0
  6
CONTINUOUS
 62
     7
 10
-496.071952819824
 20
53.0321426391602
 30
0.0
 11
-496.071952819824
 21
32.4815826416016
 31
0.0
  0
LINE
  5
    84
  8
0
  6
CONTINUOUS
 62
     7
 10
-538.221960449219
 20
63.4071426391602
 30
0.0
 11
-538.221960449219
 21
32.4815826416016
 31
0.0
  0
LINE
  5
    85
  8
0
  6
CONTINUOUS
 62
     7
 10
-496.071952819824
 20
34.4815826416016
 30
0.0
 11
-538.221960449219
 21
34.4815826416016
 31
0.0
  0
LINE
  5
    86
  8
0
  6
CONTINUOUS
 62
     7
 10
-499.026376097031
 20
33.9606382116499
 30
0.0
 11
-496.071952819824
 21
34.4815826416016
 31
0.0
  0
LINE
  5
    87
  8
0
  6
CONTINUOUS
 62
     7
 10
-496.071952819824
 20
34.4815826416016
 30
0.0
 11
-499.026376097031
 21
35.0025270715532
 31
0.0
  0
LINE
  5
    88
  8
0
  6
CONTINUOUS
 62
     7
 10
-535.267537172012
 20
35.0025270715532
 30
0.0
 11
-538.221960449219
 21
34.4815826416016
 31
0.0
  0
LINE
  5
    89
  8
0
  6
CONTINUOUS
 62
     7
 10
-538.221960449219
 20
34.4815826416016
 30
0.0
 11
-535.267537172012
 21
33.9606382116499
 31
0.0
  0
ENDBLK
  5
    8A
  8
0
  6
CONTINUOUS
 62
     7
  0
BLOCK
  5
    8B
  8
0
  6
CONTINUOUS
 62
     7
  2
*UDIM2458
 70
    65
 10
0.0
 20
0.0
 30
0.0
  3
*UDIM2458
  0
TEXT
  5
    8C
  8
0
  6
CONTINUOUS
 62
     7
 10
-507.421957411728
 20
86.8034591697353
 30
0.0
 40
3.00000002980232
  1
34
 50
359.999999948034
 41
0.933333333333333
 72
     1
 11
-504.92195738554
 21
88.3034591823816
 31
0.0
 73
     2
  0
LINE
  5
    8D
  8
0
  6
CONTINUOUS
 62
     7
 10
-513.221960449219
 20
78.6571426391602
 30
0.0
 11
-513.221960449219
 21
87.8034591674805
 31
0.0
  0
LINE
  5
    8E
  8
0
  6
CONTINUOUS
 62
     7
 10
-496.071952819824
 20
85.8034591674805
 30
0.0
 11
-513.221960449219
 21
85.8034591674805
 31
0.0
  0
LINE
  5
    8F
  8
0
  6
CONTINUOUS
 62
     7
 10
-499.026376097031
 20
85.2825147375288
 30
0.0
 11
-496.071952819824
 21
85.8034591674805
 31
0.0
  0
LINE
  5
    90
  8
0
  6
CONTINUOUS
 62
     7
 10
-496.071952819824
 20
85.8034591674805
 30
0.0
 11
-499.026376097031
 21
86.3244035974321
 31
0.0
  0
LINE
  5
    91
  8
0
  6
CONTINUOUS
 62
     7
 10
-510.267537172012
 20
86.3244035974321
 30
0.0
 11
-513.221960449219
 21
85.8034591674805
 31
0.0
  0
LINE
  5
    92
  8
0
  6
CONTINUOUS
 62
     7
 10
-513.221960449219
 20
85.8034591674805
 30
0.0
 11
-510.267537172012
 21
85.2825147375288
 31
0.0
  0
ENDBLK
  5
    93
  8
0
  6
CONTINUOUS
 62
     7
  0
BLOCK
  5
    94
  8
0
  6
CONTINUOUS
 62
     7
  2
*UDIM2459
 70
    65
 10
0.0
 20
0.0
 30
0.0
  3
*UDIM2459
  0
TEXT
  5
    95
  8
0
  6
CONTINUOUS
 62
     7
 10
-554.404502875989
 20
35.8446501724159
 30
0.0
 40
3.00000002980232
  1
107,25
 50
89.9999999480344
 41
0.933333333333333
 72
     1
 11
-555.904502883554
 21
43.9446502542407
 31
0.0
 73
     2
  0
LINE
  5
    96
  8
0
  6
CONTINUOUS
 62
     7
 10
-504.339723535746
 20
17.4071597289862
 30
0.0
 11
-555.404502868652
 21
17.4071597289862
 31
0.0
  0
LINE
  5
    97
  8
0
  6
CONTINUOUS
 62
     7
 10
-553.404502868652
 20
17.4071597289862
 30
0.0
 11
-553.404502868652
 21
71.0321426391602
 31
0.0
  0
LINE
  5
    98
  8
0
  6
CONTINUOUS
 62
     7
 10
-553.925447298604
 20
20.3615830061932
 30
0.0
 11
-553.404502868652
 21
17.4071597289862
 31
0.0
  0
LINE
  5
    99
  8
0
  6
CONTINUOUS
 62
     7
 10
-553.404502868652
 20
17.4071597289862
 30
0.0
 11
-552.883558438701
 21
20.3615830061932
 31
0.0
  0
LINE
  5
    9A
  8
0
  6
CONTINUOUS
 62
     7
 10
-552.883558438701
 20
68.0777193619532
 30
0.0
 11
-553.404502868652
 21
71.0321426391602
 31
0.0
  0
LINE
  5
    9B
  8
0
  6
CONTINUOUS
 62
     7
 10
-553.404502868652
 20
71.0321426391602
 30
0.0
 11
-553.925447298604
 21
68.0777193619532
 31
0.0
  0
ENDBLK
  5
    9C
  8
0
  6
CONTINUOUS
 62
     7
  0
BLOCK
  5
    9D
  8
0
  6
CONTINUOUS
 62
     7
  2
*UDIM2460
 70
    65
 10
0.0
 20
0.0
 30
0.0
  3
*UDIM2460
  0
TEXT
  5
    9E
  8
0
  6
CONTINUOUS
 62
     7
 10
-413.821968186261
 20
-59.0148277272793
 30
0.0
 40
3.00000002980232
  1
2
 50
359.999999948034
 41
0.933333333333334
 72
     1
 11
-412.721968173981
 21
-57.5148277133703
 31
0.0
 73
     2
  0
LINE
  5
    9F
  8
0
  6
CONTINUOUS
 62
     7
 10
-416.821968078613
 20
-53.486551738476
 30
0.0
 11
-416.821968078613
 21
-62.0148277282715
 31
0.0
  0
LINE
  5
    A0
  8
0
  6
CONTINUOUS
 62
     7
 10
-417.821968078613
 20
-53.1313604816454
 30
0.0
 11
-417.821968078613
 21
-62.0148277282715
 31
0.0
  0
LINE
  5
    A1
  8
0
  6
CONTINUOUS
 62
     7
 10
-411.621968163053
 20
-60.0148277282715
 30
0.0
 11
-417.821968078613
 21
-60.0148277282715
 31
0.0
  0
LINE
  5
    A2
  8
0
  6
CONTINUOUS
 62
     7
 10
-413.867544801406
 20
-59.4938832983198
 30
0.0
 11
-416.821968078613
 21
-60.0148277282715
 31
0.0
  0
LINE
  5
    A3
  8
0
  6
CONTINUOUS
 62
     7
 10
-416.821968078613
 20
-60.0148277282715
 30
0.0
 11
-413.867544801406
 21
-60.5357721582232
 31
0.0
  0
LINE
  5
    A4
  8
0
  6
CONTINUOUS
 62
     7
 10
-420.77639135582
 20
-60.5357721582232
 30
0.0
 11
-417.821968078613
 21
-60.0148277282715
 31
0.0
  0
LINE
  5
    A5
  8
0
  6
CONTINUOUS
 62
     7
 10
-417.821968078613
 20
-60.0148277282715
 30
0.0
 11
-420.77639135582
 21
-59.4938832983198
 31
0.0
  0
ENDBLK
  5
    A6
  8
0
  6
CONTINUOUS
 62
     7
  0
BLOCK
  5
    A7
  8
0
  6
CONTINUOUS
 62
     7
  2
*UDIM2461
 70
    65
 10
0.0
 20
0.0
 30
0.0
  3
*UDIM2461
  0
TEXT
  5
    A8
  8
0
  6
CONTINUOUS
 62
     7
 10
-463.921960523091
 20
-59.0148277222285
 30
0.0
 40
3.00000002980232
  1
156,5
 50
359.999999948034
 41
0.933333333333333
 72
     1
 11
-457.221960455179
 21
-57.5148277133703
 31
0.0
 73
     2
  0
LINE
  5
    A9
  8
0
  6
CONTINUOUS
 62
     7
 10
-417.821968078613
 20
-60.0148277282715
 30
0.0
 11
-496.071952819824
 21
-60.0148277282715
 31
0.0
  0
LINE
  5
    AA
  8
0
  6
CONTINUOUS
 62
     7
 10
-420.77639135582
 20
-60.5357721582232
 30
0.0
 11
-417.821968078613
 21
-60.0148277282715
 31
0.0
  0
LINE
  5
    AB
  8
0
  6
CONTINUOUS
 62
     7
 10
-417.821968078613
 20
-60.0148277282715
 30
0.0
 11
-420.77639135582
 21
-59.4938832983198
 31
0.0
  0
LINE
  5
    AC
  8
0
  6
CONTINUOUS
 62
     7
 10
-493.117529542617
 20
-59.4938832983198
 30
0.0
 11
-496.071952819824
 21
-60.0148277282715
 31
0.0
  0
LINE
  5
    AD
  8
0
  6
CONTINUOUS
 62
     7
 10
-496.071952819824
 20
-60.0148277282715
 30
0.0
 11
-493.117529542617
 21
-60.5357721582232
 31
0.0
  0
ENDBLK
  5
    AE
  8
0
  6
CONTINUOUS
 62
     7
  0
BLOCK
  5
    AF
  8
0
  6
CONTINUOUS
 62
     7
  2
*UDIM2462
 70
    65
 10
0.0
 20
0.0
 30
0.0
  3
*UDIM2462
  0
TEXT
  5
    B0
  8
0
  6
CONTINUOUS
 62
     7
 10
-513.321823398364
 20
-64.3900241841885
 30
0.0
 40
3.00000002980232
  1
3
 50
359.999999948034
 41
0.933333333333334
 72
     1
 11
-512.221823386083
 21
-62.8900241702795
 31
0.0
 73
     2
  0
TEXT
  5
    B1
  8
0
  6
CONTINUOUS
 62
     7
 10
-516.07182343214
 20
-64.3900241841885
 30
0.0
 40
3.00000002980232
  1
_
 50
359.999999948034
 41
0.933333333333334
 72
     1
 11
-514.971823419859
 21
-62.8900241702795
 31
0.0
 73
     2
  0
LINE
  5
    B2
  8
0
  6
CONTINUOUS
 62
     7
 10
-496.071952445869
 20
-65.3900241851807
 30
0.0
 11
-516.071823430787
 21
-65.3900241851807
 31
0.0
  0
LINE
  5
    B3
  8
0
  6
CONTINUOUS
 62
     7
 10
-493.117529168662
 20
-64.869079755229
 30
0.0
 11
-496.071952445869
 21
-65.3900241851807
 31
0.0
  0
LINE
  5
    B4
  8
0
  6
CONTINUOUS
 62
     7
 10
-496.071952445869
 20
-65.3900241851807
 30
0.0
 11
-493.117529168662
 21
-65.9109686151323
 31
0.0
  0
LINE
  5
    B5
  8
0
  6
CONTINUOUS
 62
     7
 10
-500.52637585851
 20
-65.9109686151323
 30
0.0
 11
-497.571952581303
 21
-65.3900241851807
 31
0.0
  0
LINE
  5
    B6
  8
0
  6
CONTINUOUS
 62
     7
 10
-497.571952581303
 20
-65.3900241851807
 30
0.0
 11
-500.52637585851
 21
-64.869079755229
 31
0.0
  0
ENDBLK
  5
    B7
  8
0
  6
CONTINUOUS
 62
     7
  0
BLOCK
  5
    B8
  8
0
  6
CONTINUOUS
 62
     7
  2
*UDIM2463
 70
    65
 10
0.0
 20
0.0
 30
0.0
  3
*UDIM2463
  0
TEXT
  5
    B9
  8
0
  6
CONTINUOUS
 62
     7
 10
-560.622169498161
 20
12.3571425930981
 30
0.0
 40
3.00000002980232
  1
218
 50
89.9999999480344
 41
0.933333333333333
 72
     1
 11
-562.12216950953
 21
16.2571426331997
 31
0.0
 73
     2
  0
LINE
  5
    BA
  8
0
  6
CONTINUOUS
 62
     7
 10
-554.935525879775
 20
-37.9678573608398
 30
0.0
 11
-561.622169494629
 21
-37.9678573608398
 31
0.0
  0
LINE
  5
    BB
  8
0
  6
CONTINUOUS
 62
     7
 10
-559.622169494629
 20
-37.9678573608398
 30
0.0
 11
-559.622169494629
 21
71.0321426391602
 31
0.0
  0
LINE
  5
    BC
  8
0
  6
CONTINUOUS
 62
     7
 10
-560.143113924581
 20
-35.0134340836329
 30
0.0
 11
-559.622169494629
 21
-37.9678573608398
 31
0.0
  0
LINE
  5
    BD
  8
0
  6
CONTINUOUS
 62
     7
 10
-559.622169494629
 20
-37.9678573608398
 30
0.0
 11
-559.101225064677
 21
-35.0134340836329
 31
0.0
  0
LINE
  5
    BE
  8
0
  6
CONTINUOUS
 62
     7
 10
-559.101225064677
 20
68.0777193619532
 30
0.0
 11
-559.622169494629
 21
71.0321426391602
 31
0.0
  0
LINE
  5
    BF
  8
0
  6
CONTINUOUS
 62
     7
 10
-559.622169494629
 20
71.0321426391602
 30
0.0
 11
-560.143113924581
 21
68.0777193619532
 31
0.0
  0
ENDBLK
  5
    C0
  8
0
  6
CONTINUOUS
 62
     7
  0
BLOCK
  5
    C1
  8
0
  6
CONTINUOUS
 62
     7
  2
*UDIM2464
 70
    65
 10
0.0
 20
0.0
 30
0.0
  3
*UDIM2464
  0
TEXT
  5
    C2
  8
0
  6
CONTINUOUS
 62
     7
 10
-461.996952851415
 20
-53.3749046290508
 30
0.0
 40
3.00000002980232
  1
153
 50
359.999999948034
 41
0.933333333333333
 72
     1
 11
-458.096952811319
 21
-51.8749046176672
 31
0.0
 73
     2
  0
LINE
  5
    C3
  8
0
  6
CONTINUOUS
 62
     7
 10
-419.57196839253
 20
-9.84282501222463
 30
0.0
 11
-419.571982999716
 21
-56.3749046325683
 31
0.0
  0
LINE
  5
    C4
  8
0
  6
CONTINUOUS
 62
     7
 10
-419.571982371883
 20
-54.3749046325684
 30
0.0
 11
-496.071948988041
 21
-54.3749046325684
 31
0.0
  0
LINE
  5
    C5
  8
0
  6
CONTINUOUS
 62
     7
 10
-422.52640564909
 20
-54.89584906252
 30
0.0
 11
-419.571982371883
 21
-54.3749046325684
 31
0.0
  0
LINE
  5
    C6
  8
0
  6
CONTINUOUS
 62
     7
 10
-419.571982371883
 20
-54.3749046325684
 30
0.0
 11
-422.52640564909
 21
-53.8539602026167
 31
0.0
  0
LINE
  5
    C7
  8
0
  6
CONTINUOUS
 62
     7
 10
-493.117525710834
 20
-53.8539602026167
 30
0.0
 11
-496.071948988041
 21
-54.3749046325684
 31
0.0
  0
LINE
  5
    C8
  8
0
  6
CONTINUOUS
 62
     7
 10
-496.071948988041
 20
-54.3749046325684
 30
0.0
 11
-493.117525710834
 21
-54.89584906252
 31
0.0
  0
ENDBLK
  5
    C9
  8
0
  6
CONTINUOUS
 62
     7
  0
BLOCK
  5
    CA
  8
0
  6
CONTINUOUS
 62
     7
  2
*UDIM2465
 70
    65
 10
0.0
 20
0.0
 30
0.0
  3
*UDIM2465
  0
TEXT
  5
    CB
  8
0
  6
CONTINUOUS
 62
     7
 10
-456.910936049868
 20
-64.3900318085322
 30
0.0
 40
3.00000002980232
  1
184,5
 50
359.999999948034
 41
0.933333333333333
 72
     1
 11
-450.210935981956
 21
-62.890031799674
 31
0.0
 73
     2
  0
LINE
  5
    CC
  8
0
  6
CONTINUOUS
 62
     7
 10
-403.799927087518
 20
11.2821749877753
 30
0.0
 11
-403.79995178402
 21
-67.3900318145751
 31
0.0
  0
LINE
  5
    CD
  8
0
  6
CONTINUOUS
 62
     7
 10
-403.799951156187
 20
-65.3900318145752
 30
0.0
 11
-496.071952445871
 21
-65.3900318145752
 31
0.0
  0
LINE
  5
    CE
  8
0
  6
CONTINUOUS
 62
     7
 10
-406.754374433394
 20
-65.9109762445269
 30
0.0
 11
-403.799951156187
 21
-65.3900318145752
 31
0.0
  0
LINE
  5
    CF
  8
0
  6
CONTINUOUS
 62
     7
 10
-403.799951156187
 20
-65.3900318145752
 30
0.0
 11
-406.754374433394
 21
-64.8690873846235
 31
0.0
  0
LINE
  5
    D0
  8
0
  6
CONTINUOUS
 62
     7
 10
-493.117529168664
 20
-64.8690873846235
 30
0.0
 11
-496.071952445871
 21
-65.3900318145752
 31
0.0
  0
LINE
  5
    D1
  8
0
  6
CONTINUOUS
 62
     7
 10
-496.071952445871
 20
-65.3900318145752
 30
0.0
 11
-493.117529168664
 21
-65.9109762445269
 31
0.0
  0
ENDBLK
  5
    D2
  8
0
  6
CONTINUOUS
 62
     7
  0
BLOCK
  5
    D3
  8
0
  6
CONTINUOUS
 62
     7
  2
*UDIM2466
 70
    65
 10
0.0
 20
0.0
 30
0.0
  3
*UDIM2466
  0
TEXT
  5
    D4
  8
0
  6
CONTINUOUS
 62
     7
 10
-393.145141605095
 20
13.2321654943771
 30
0.0
 40
3.00000002980232
  1
105
 50
89.9999999480344
 41
0.933333333333333
 72
     1
 11
-394.645141616464
 21
17.1321655344787
 31
0.0
 73
     2
  0
LINE
  5
    D5
  8
0
  6
CONTINUOUS
 62
     7
 10
-416.821968078613
 20
-8.84282501222468
 30
0.0
 11
-390.145141601563
 21
-8.84282501222468
 31
0.0
  0
LINE
  5
    D6
  8
0
  6
CONTINUOUS
 62
     7
 10
-416.821968078613
 20
43.6571597289862
 30
0.0
 11
-390.145141601563
 21
43.6571597289862
 31
0.0
  0
LINE
  5
    D7
  8
0
  6
CONTINUOUS
 62
     7
 10
-392.145141601563
 20
-8.84282501222468
 30
0.0
 11
-392.145141601563
 21
43.6571597289862
 31
0.0
  0
LINE
  5
    D8
  8
0
  6
CONTINUOUS
 62
     7
 10
-392.666086031514
 20
-5.88840173501772
 30
0.0
 11
-392.145141601563
 21
-8.84282501222468
 31
0.0
  0
LINE
  5
    D9
  8
0
  6
CONTINUOUS
 62
     7
 10
-392.145141601563
 20
-8.84282501222468
 30
0.0
 11
-391.624197171611
 21
-5.88840173501772
 31
0.0
  0
LINE
  5
    DA
  8
0
  6
CONTINUOUS
 62
     7
 10
-391.624197171611
 20
40.7027364517793
 30
0.0
 11
-392.145141601563
 21
43.6571597289862
 31
0.0
  0
LINE
  5
    DB
  8
0
  6
CONTINUOUS
 62
     7
 10
-392.145141601563
 20
43.6571597289862
 30
0.0
 11
-392.666086031514
 21
40.7027364517793
 31
0.0
  0
ENDBLK
  5
    DC
  8
0
  6
CONTINUOUS
 62
     7
  0
BLOCK
  5
    DD
  8
0
  6
CONTINUOUS
 62
     0
  2
$1ON-OFF
 70
    64
 10
0.0
 20
0.0
 30
0.0
  3
$1ON-OFF
  0
LINE
  5
    DE
  8
0
  6
CONTINUOUS
 62
     0
 10
5.09999999999999
 20
-29.65
 30
0.0
 11
5.54999999999999
 21
-29.65
 31
0.0
  0
LINE
  5
    DF
  8
0
  6
CONTINUOUS
 62
     0
 10
3.79999999999999
 20
-37.35
 30
0.0
 11
4.59999999999999
 21
-37.35
 31
0.0
  0
LINE
  5
    E0
  8
0
  6
CONTINUOUS
 62
     0
 10
-2.6
 20
-34.75
 30
0.0
 11
-2.6
 21
-34.25
 31
0.0
  0
LINE
  5
    E1
  8
0
  6
CONTINUOUS
 62
     0
 10
2.6
 20
-34.75
 30
0.0
 11
2.6
 21
-34.25
 31
0.0
  0
ARC
  5
    E2
  8
0
  6
CONTINUOUS
 62
     0
 10
-3.5527136788005E-15
 20
-34.25
 30
0.0
 40
2.6
 50
0.0
 51
180.0
  0
ARC
  5
    E3
  8
0
  6
CONTINUOUS
 62
     0
 10
-3.5527136788005E-15
 20
-34.75
 30
0.0
 40
2.6
 50
180.0
 51
360.0
  0
ARC
  5
    E4
  8
0
  6
CONTINUOUS
 62
     0
 10
-3.5527136788005E-15
 20
-34.25
 30
0.0
 40
1.8
 50
0.0
 51
180.0
  0
ARC
  5
    E5
  8
0
  6
CONTINUOUS
 62
     0
 10
-3.5527136788005E-15
 20
-34.75
 30
0.0
 40
1.8
 50
180.0
 51
360.0
  0
LINE
  5
    E6
  8
0
  6
CONTINUOUS
 62
     0
 10
-1.8
 20
-34.75
 30
0.0
 11
-1.8
 21
-34.25
 31
0.0
  0
LINE
  5
    E7
  8
0
  6
CONTINUOUS
 62
     0
 10
1.8
 20
-34.75
 30
0.0
 11
1.8
 21
-34.25
 31
0.0
  0
LINE
  5
    E8
  8
0
  6
CONTINUOUS
 62
     0
 10
2.84999999999999
 20
-32.85
 30
0.0
 11
2.84999999999999
 21
-32.05
 31
0.0
  0
LINE
  5
    E9
  8
0
  6
CONTINUOUS
 62
     0
 10
2.84999999999999
 20
-32.85
 30
0.0
 11
3.79999999999999
 21
-32.85
 31
0.0
  0
LINE
  5
    EA
  8
0
  6
CONTINUOUS
 62
     0
 10
5.54999999999999
 20
-32.85
 30
0.0
 11
5.54999999999999
 21
-32.05
 31
0.0
  0
LINE
  5
    EB
  8
0
  6
CONTINUOUS
 62
     0
 10
2.84999999999999
 20
-32.05
 30
0.0
 11
3.79999999999999
 21
-32.05
 31
0.0
  0
LINE
  5
    EC
  8
0
  6
CONTINUOUS
 62
     0
 10
3.79999999999999
 20
-37.35
 30
0.0
 11
3.79999999999999
 21
-32.85
 31
0.0
  0
LINE
  5
    ED
  8
0
  6
CONTINUOUS
 62
     0
 10
4.59999999999999
 20
-37.35
 30
0.0
 11
4.59999999999999
 21
-32.85
 31
0.0
  0
LINE
  5
    EE
  8
0
  6
CONTINUOUS
 62
     0
 10
4.59999999999999
 20
-32.85
 30
0.0
 11
5.54999999999999
 21
-32.85
 31
0.0
  0
LINE
  5
    EF
  8
0
  6
CONTINUOUS
 62
     0
 10
4.59999999999999
 20
-32.05
 30
0.0
 11
5.54999999999999
 21
-32.05
 31
0.0
  0
LINE
  5
    F0
  8
0
  6
CONTINUOUS
 62
     0
 10
3.79999999999999
 20
-32.05
 30
0.0
 11
3.79999999999999
 21
-30.95
 31
0.0
  0
LINE
  5
    F1
  8
0
  6
CONTINUOUS
 62
     0
 10
4.59999999999999
 20
-32.05
 30
0.0
 11
4.59999999999999
 21
-30.95
 31
0.0
  0
ARC
  5
    F2
  8
0
  6
CONTINUOUS
 62
     0
 10
5.09999999999999
 20
-30.95
 30
0.0
 40
1.3
 50
89.9999999999999
 51
180.0
  0
ARC
  5
    F3
  8
0
  6
CONTINUOUS
 62
     0
 10
5.09999999999999
 20
-30.95
 30
0.0
 40
0.5
 50
89.9999999999999
 51
180.0
  0
LINE
  5
    F4
  8
0
  6
CONTINUOUS
 62
     0
 10
5.54999999999999
 20
-30.45
 30
0.0
 11
5.54999999999999
 21
-29.65
 31
0.0
  0
LINE
  5
    F5
  8
0
  6
CONTINUOUS
 62
     0
 10
5.09999999999999
 20
-30.45
 30
0.0
 11
5.54999999999999
 21
-30.45
 31
0.0
  0
LINE
  5
    F6
  8
0
  6
CONTINUOUS
 62
     0
 10
8.29999999999998
 20
-29.65
 30
0.0
 11
8.74999999999999
 21
-29.65
 31
0.0
  0
LINE
  5
    F7
  8
0
  6
CONTINUOUS
 62
     0
 10
6.99999999999999
 20
-37.35
 30
0.0
 11
7.79999999999999
 21
-37.35
 31
0.0
  0
LINE
  5
    F8
  8
0
  6
CONTINUOUS
 62
     0
 10
6.04999999999999
 20
-32.85
 30
0.0
 11
6.04999999999999
 21
-32.05
 31
0.0
  0
LINE
  5
    F9
  8
0
  6
CONTINUOUS
 62
     0
 10
6.04999999999999
 20
-32.85
 30
0.0
 11
6.99999999999999
 21
-32.85
 31
0.0
  0
LINE
  5
    FA
  8
0
  6
CONTINUOUS
 62
     0
 10
8.74999999999999
 20
-32.85
 30
0.0
 11
8.74999999999999
 21
-32.05
 31
0.0
  0
LINE
  5
    FB
  8
0
  6
CONTINUOUS
 62
     0
 10
6.04999999999999
 20
-32.05
 30
0.0
 11
6.99999999999999
 21
-32.05
 31
0.0
  0
LINE
  5
    FC
  8
0
  6
CONTINUOUS
 62
     0
 10
6.99999999999999
 20
-37.35
 30
0.0
 11
6.99999999999999
 21
-32.85
 31
0.0
  0
LINE
  5
    FD
  8
0
  6
CONTINUOUS
 62
     0
 10
7.79999999999999
 20
-37.35
 30
0.0
 11
7.79999999999999
 21
-32.85
 31
0.0
  0
LINE
  5
    FE
  8
0
  6
CONTINUOUS
 62
     0
 10
7.79999999999999
 20
-32.85
 30
0.0
 11
8.74999999999999
 21
-32.85
 31
0.0
  0
LINE
  5
    FF
  8
0
  6
CONTINUOUS
 62
     0
 10
7.79999999999999
 20
-32.05
 30
0.0
 11
8.74999999999999
 21
-32.05
 31
0.0
  0
LINE
  5
   100
  8
0
  6
CONTINUOUS
 62
     0
 10
6.99999999999999
 20
-32.05
 30
0.0
 11
6.99999999999999
 21
-30.95
 31
0.0
  0
LINE
  5
   101
  8
0
  6
CONTINUOUS
 62
     0
 10
7.79999999999999
 20
-32.05
 30
0.0
 11
7.79999999999999
 21
-30.95
 31
0.0
  0
ARC
  5
   102
  8
0
  6
CONTINUOUS
 62
     0
 10
8.29999999999998
 20
-30.95
 30
0.0
 40
1.3
 50
89.9999999999999
 51
180.0
  0
ARC
  5
   103
  8
0
  6
CONTINUOUS
 62
     0
 10
8.29999999999998
 20
-30.95
 30
0.0
 40
0.5
 50
89.9999999999999
 51
180.0
  0
LINE
  5
   104
  8
0
  6
CONTINUOUS
 62
     0
 10
8.74999999999999
 20
-30.45
 30
0.0
 11
8.74999999999999
 21
-29.65
 31
0.0
  0
LINE
  5
   105
  8
0
  6
CONTINUOUS
 62
     0
 10
8.29999999999998
 20
-30.45
 30
0.0
 11
8.74999999999999
 21
-30.45
 31
0.0
  0
LINE
  5
   106
  8
0
  6
CONTINUOUS
 62
     0
 10
3.4
 20
-2.85000000000002
 30
0.0
 11
4.19999999999999
 21
-2.85000000000002
 31
0.0
  0
ARC
  5
   107
  8
0
  6
CONTINUOUS
 62
     0
 10
-3.5527136788005E-15
 20
0.249999999999979
 30
0.0
 40
2.6
 50
0.0
 51
180.0
  0
ARC
  5
   108
  8
0
  6
CONTINUOUS
 62
     0
 10
-3.5527136788005E-15
 20
0.249999999999979
 30
0.0
 40
1.8
 50
0.0
 51
180.0
  0
ARC
  5
   109
  8
0
  6
CONTINUOUS
 62
     0
 10
-3.5527136788005E-15
 20
-0.250000000000018
 30
0.0
 40
2.6
 50
180.0
 51
360.0
  0
ARC
  5
   10A
  8
0
  6
CONTINUOUS
 62
     0
 10
-3.5527136788005E-15
 20
-0.250000000000018
 30
0.0
 40
1.8
 50
180.0
 51
360.0
  0
LINE
  5
   10B
  8
0
  6
CONTINUOUS
 62
     0
 10
1.8
 20
-0.250000000000018
 30
0.0
 11
1.8
 21
0.249999999999979
 31
0.0
  0
LINE
  5
   10C
  8
0
  6
CONTINUOUS
 62
     0
 10
2.6
 20
-0.250000000000018
 30
0.0
 11
2.6
 21
0.249999999999979
 31
0.0
  0
LINE
  5
   10D
  8
0
  6
CONTINUOUS
 62
     0
 10
-1.8
 20
-0.250000000000032
 30
0.0
 11
-1.8
 21
0.249999999999964
 31
0.0
  0
LINE
  5
   10E
  8
0
  6
CONTINUOUS
 62
     0
 10
-2.6
 20
-0.250000000000018
 30
0.0
 11
-2.6
 21
0.249999999999979
 31
0.0
  0
LINE
  5
   10F
  8
0
  6
CONTINUOUS
 62
     0
 10
3.4
 20
-2.85000000000002
 30
0.0
 11
3.4
 21
2.84999999999998
 31
0.0
  0
LINE
  5
   110
  8
0
  6
CONTINUOUS
 62
     0
 10
4.19999999999999
 20
-2.85000000000002
 30
0.0
 11
4.19999999999999
 21
0.649999999999981
 31
0.0
  0
LINE
  5
   111
  8
0
  6
CONTINUOUS
 62
     0
 10
6.99999999999999
 20
-2.85000000000002
 30
0.0
 11
6.99999999999999
 21
0.649999999999981
 31
0.0
  0
LINE
  5
   112
  8
0
  6
CONTINUOUS
 62
     0
 10
7.79999999999999
 20
-2.85000000000002
 30
0.0
 11
7.79999999999999
 21
0.84999999999998
 31
0.0
  0
LINE
  5
   113
  8
0
  6
CONTINUOUS
 62
     0
 10
3.4
 20
2.84999999999998
 30
0.0
 11
4.19999999999999
 21
2.84999999999998
 31
0.0
  0
ARC
  5
   114
  8
0
  6
CONTINUOUS
 62
     0
 10
5.59999999999999
 20
0.649999999999981
 30
0.0
 40
1.4
 50
0.0
 51
180.0
  0
LINE
  5
   115
  8
0
  6
CONTINUOUS
 62
     0
 10
4.19999999999999
 20
2.05
 30
0.0
 11
4.19999999999999
 21
2.84999999999998
 31
0.0
  0
ARC
  5
   116
  8
0
  6
CONTINUOUS
 62
     0
 10
5.79999999999999
 20
0.84999999999998
 30
0.0
 40
2.0
 50
0.0
 51
143.130102354155
  0
LINE
  5
   117
  8
0
  6
CONTINUOUS
 62
     0
 10
6.99999999999999
 20
-2.85000000000002
 30
0.0
 11
7.79999999999999
 21
-2.85000000000002
 31
0.0
  0
ENDBLK
  5
   118
  8
0
  6
CONTINUOUS
 62
     0
  0
BLOCK
  5
   119
  8
0
  6
CONTINUOUS
 62
     7
  2
MOSTRINA
 70
    64
 10
0.0
 20
0.0
 30
0.0
  3
MOSTRINA
  0
LINE
  5
   11A
  8
0
  6
CONTINUOUS
 62
     3
 10
173.338256835938
 20
30.7306251525879
 30
0.0
 11
173.338256835938
 21
189.230621337891
 31
0.0
  0
LINE
  5
   11B
  8
0
  6
CONTINUOUS
 62
     3
 10
57.5882568359375
 20
29.4806251525879
 30
0.0
 11
172.088256835938
 21
29.4806251525879
 31
0.0
  0
LINE
  5
   11C
  8
0
  6
CONTINUOUS
 62
     3
 10
56.3382568359375
 20
30.7306251525879
 30
0.0
 11
56.3382568359375
 21
189.230621337891
 31
0.0
  0
LINE
  5
   11D
  8
0
  6
CONTINUOUS
 62
     3
 10
57.5882568359375
 20
190.480621337891
 30
0.0
 11
172.088256835938
 21
190.480621337891
 31
0.0
  0
LINE
  5
   11E
  8
0
  6
CONTINUOUS
 62
     3
 10
167.838256835938
 20
56.9806251525879
 30
0.0
 11
167.838256835938
 21
162.980625152588
 31
0.0
  0
LINE
  5
   11F
  8
0
  6
CONTINUOUS
 62
     3
 10
61.8382568359375
 20
56.9806251525879
 30
0.0
 11
167.838256835938
 21
56.9806251525879
 31
0.0
  0
LINE
  5
   120
  8
0
  6
CONTINUOUS
 62
     3
 10
61.8382568359375
 20
56.9806251525879
 30
0.0
 11
61.8382568359375
 21
162.980625152588
 31
0.0
  0
LINE
  5
   121
  8
0
  6
CONTINUOUS
 62
     3
 10
61.8382568359375
 20
162.980621337891
 30
0.0
 11
167.838256835938
 21
162.980621337891
 31
0.0
  0
LINE
  5
   122
  8
0
  6
CONTINUOUS
 62
     3
 10
168.838256835938
 20
48.4806251525879
 30
0.0
 11
168.838256835938
 21
49.4806251525879
 31
0.0
  0
LINE
  5
   123
  8
0
  6
CONTINUOUS
 62
     3
 10
61.8382568359375
 20
50.4806251525879
 30
0.0
 11
167.838256835938
 21
50.4806251525879
 31
0.0
  0
LINE
  5
   124
  8
0
  6
CONTINUOUS
 62
     3
 10
60.8382568359375
 20
48.4806251525879
 30
0.0
 11
60.8382568359375
 21
49.4806251525879
 31
0.0
  0
LINE
  5
   125
  8
0
  6
CONTINUOUS
 62
     3
 10
61.8382568359375
 20
49.4806251525879
 30
0.0
 11
167.838256835938
 21
49.4806251525879
 31
0.0
  0
LINE
  5
   126
  8
0
  6
CONTINUOUS
 62
     3
 10
60.8382568359375
 20
29.4806251525879
 30
0.0
 11
60.8382568359375
 21
48.4806251525879
 31
0.0
  0
LINE
  5
   127
  8
0
  6
CONTINUOUS
 62
     3
 10
60.8382568359375
 20
49.4806213378906
 30
0.0
 11
60.8382568359375
 21
190.480621337891
 31
0.0
  0
LINE
  5
   128
  8
0
  6
CONTINUOUS
 62
     3
 10
61.8382568359375
 20
29.4806251525879
 30
0.0
 11
61.8382568359375
 21
49.4806251525879
 31
0.0
  0
LINE
  5
   129
  8
0
  6
CONTINUOUS
 62
     3
 10
61.8382568359375
 20
162.980621337891
 30
0.0
 11
61.8382568359375
 21
169.480621337891
 31
0.0
  0
LINE
  5
   12A
  8
0
  6
CONTINUOUS
 62
     3
 10
61.8382568359375
 20
50.4806251525879
 30
0.0
 11
61.8382568359375
 21
56.9806251525879
 31
0.0
  0
LINE
  5
   12B
  8
0
  6
CONTINUOUS
 62
     3
 10
168.838256835938
 20
29.4806251525879
 30
0.0
 11
168.838256835938
 21
48.4806251525879
 31
0.0
  0
LINE
  5
   12C
  8
0
  6
CONTINUOUS
 62
     3
 10
168.838256835938
 20
49.4806251525879
 30
0.0
 11
168.838256835938
 21
190.480621337891
 31
0.0
  0
LINE
  5
   12D
  8
0
  6
CONTINUOUS
 62
     3
 10
167.838256835938
 20
50.4806251525879
 30
0.0
 11
167.838256835938
 21
56.9806251525879
 31
0.0
  0
LINE
  5
   12E
  8
0
  6
CONTINUOUS
 62
     3
 10
167.838256835938
 20
162.980621337891
 30
0.0
 11
167.838256835938
 21
169.480621337891
 31
0.0
  0
LINE
  5
   12F
  8
0
  6
CONTINUOUS
 62
     3
 10
167.838256835938
 20
29.4806251525879
 30
0.0
 11
167.838256835938
 21
49.4806251525879
 31
0.0
  0
LINE
  5
   130
  8
0
  6
CONTINUOUS
 62
     3
 10
60.8382568359375
 20
170.480621337891
 30
0.0
 11
168.838256835938
 21
170.480621337891
 31
0.0
  0
LINE
  5
   131
  8
0
  6
CONTINUOUS
 62
     3
 10
61.8382568359375
 20
169.480621337891
 30
0.0
 11
167.838256835938
 21
169.480621337891
 31
0.0
  0
ARC
  5
   132
  8
0
  6
CONTINUOUS
 62
     3
 10
57.5882568359375
 20
30.7306251525879
 30
0.0
 40
1.25
 50
180.0
 51
270.0
  0
ARC
  5
   133
  8
0
  6
CONTINUOUS
 62
     3
 10
172.088256835938
 20
30.7306251525879
 30
0.0
 40
1.25
 50
270.0
 51
360.0
  0
ARC
  5
   134
  8
0
  6
CONTINUOUS
 62
     3
 10
172.088256835938
 20
189.230621337891
 30
0.0
 40
1.25
 50
0.0
 51
90.0
  0
ARC
  5
   135
  8
0
  6
CONTINUOUS
 62
     3
 10
57.5882568359375
 20
189.230621337891
 30
0.0
 40
1.25
 50
90.0
 51
180.0
  0
LINE
  5
   136
  8
0
  6
DOT
 62
     3
 10
60.3382577409677
 20
179.7306252571
 30
0.0
 11
60.8382568359375
 21
179.7306252571
 31
0.0
  0
LINE
  5
   137
  8
0
  6
DOT
 62
     3
 10
60.3382577409676
 20
181.2306252571
 30
0.0
 11
60.8382568359375
 21
181.2306252571
 31
0.0
  0
LINE
  5
   138
  8
0
  6
CONTINUOUS
 62
     3
 10
168.338257745313
 20
179.730625257273
 30
0.0
 11
168.838256835938
 21
179.730625257273
 31
0.0
  0
LINE
  5
   139
  8
0
  6
CONTINUOUS
 62
     3
 10
168.338257745314
 20
181.230625257273
 30
0.0
 11
168.838256835938
 21
181.230625257273
 31
0.0
  0
ARC
  5
   13A
  8
0
  6
DOT
 62
     3
 10
60.3382577401871
 20
180.480625257147
 30
0.0
 40
0.749999999345164
 50
90.0
 51
270.0
  0
ARC
  5
   13B
  8
0
  6
CONTINUOUS
 62
     3
 10
61.338257740822
 20
180.480625256974
 30
0.0
 40
0.750000000009701
 50
270.0
 51
450.0
  0
LINE
  5
   13C
  8
0
  6
CONTINUOUS
 62
     3
 10
60.8382568359375
 20
181.2306252571
 30
0.0
 11
61.3382577409688
 21
181.2306252571
 31
0.0
  0
LINE
  5
   13D
  8
0
  6
CONTINUOUS
 62
     3
 10
60.8382568359375
 20
179.7306252571
 30
0.0
 11
61.3382577409689
 21
179.7306252571
 31
0.0
  0
ARC
  5
   13E
  8
0
  6
CONTINUOUS
 62
     3
 10
168.338257745503
 20
180.480625256952
 30
0.0
 40
0.750000000048506
 50
90.0000000038822
 51
269.999999996024
  0
ARC
  5
   13F
  8
0
  6
DOT
 62
     3
 10
169.338257745421
 20
180.480625256965
 30
0.0
 40
0.750000000029104
 50
270.000000002449
 51
449.999999997486
  0
LINE
  5
   140
  8
0
  6
DOT
 62
     3
 10
168.838256835938
 20
181.230625257273
 30
0.0
 11
169.338257745315
 21
181.230625257273
 31
0.0
  0
LINE
  5
   141
  8
0
  6
DOT
 62
     3
 10
168.838256835938
 20
179.730625257273
 30
0.0
 11
169.338257745315
 21
179.730625257273
 31
0.0
  0
POINT
  5
   142
  8
0
  6
CONTINUOUS
 62
     3
 10
114.838256835938
 20
109.980621337891
 30
0.0
  0
ENDBLK
  5
   143
  8
0
  6
CONTINUOUS
 62
     7
  0
BLOCK
  5
   144
  8
0
  6
CONTINUOUS
 62
     7
  2
*UDIM2467
 70
    65
 10
0.0
 20
0.0
 30
0.0
  3
*UDIM2467
  0
TEXT
  5
   145
  8
0
  6
CONTINUOUS
 62
     7
 10
-575.172899965004
 20
13.2321502224926
 30
0.0
 40
3.00000002980232
  1
161
 50
89.9999999480344
 41
0.933333333333333
 72
     1
 11
-576.672899976373
 21
17.1321502625942
 31
0.0
 73
     2
  0
LINE
  5
   146
  8
0
  6
CONTINUOUS
 62
     7
 10
-589.550766677506
 20
-22.8428478240967
 30
0.0
 11
-572.172899961472
 21
-22.8428478240967
 31
0.0
  0
LINE
  5
   147
  8
0
  6
CONTINUOUS
 62
     7
 10
-589.550766677506
 20
57.6571502685547
 30
0.0
 11
-572.172899961472
 21
57.6571502685547
 31
0.0
  0
LINE
  5
   148
  8
0
  6
CONTINUOUS
 62
     7
 10
-574.172899961472
 20
-22.8428478240967
 30
0.0
 11
-574.172899961472
 21
57.6571502685547
 31
0.0
  0
LINE
  5
   149
  8
0
  6
CONTINUOUS
 62
     7
 10
-574.693844391423
 20
-19.8884245468897
 30
0.0
 11
-574.172899961472
 21
-22.8428478240967
 31
0.0
  0
LINE
  5
   14A
  8
0
  6
CONTINUOUS
 62
     7
 10
-574.172899961472
 20
-22.8428478240967
 30
0.0
 11
-573.65195553152
 21
-19.8884245468897
 31
0.0
  0
LINE
  5
   14B
  8
0
  6
CONTINUOUS
 62
     7
 10
-573.65195553152
 20
54.7027269913477
 30
0.0
 11
-574.172899961472
 21
57.6571502685547
 31
0.0
  0
LINE
  5
   14C
  8
0
  6
CONTINUOUS
 62
     7
 10
-574.172899961472
 20
57.6571502685547
 30
0.0
 11
-574.693844391423
 21
54.7027269913477
 31
0.0
  0
ENDBLK
  5
   14D
  8
0
  6
CONTINUOUS
 62
     7
  0
BLOCK
  5
   14E
  8
0
  6
CONTINUOUS
 62
     7
  2
*UDIM2468
 70
    65
 10
0.0
 20
0.0
 30
0.0
  3
*UDIM2468
  0
TEXT
  5
   14F
  8
0
  6
CONTINUOUS
 62
     7
 10
-623.350766038109
 20
-56.2642459834209
 30
0.0
 40
3.00000002980232
  1
117
 50
359.999999948034
 41
0.933333333333333
 72
     1
 11
-619.450765998013
 21
-54.7642459720373
 31
0.0
 73
     2
  0
LINE
  5
   150
  8
0
  6
CONTINUOUS
 62
     7
 10
-589.925766677506
 20
-23.2178478240967
 30
0.0
 11
-589.925766677506
 21
-59.2642459869385
 31
0.0
  0
LINE
  5
   151
  8
0
  6
CONTINUOUS
 62
     7
 10
-648.425766677506
 20
-23.2178478240967
 30
0.0
 11
-648.425766677506
 21
-59.2642459869385
 31
0.0
  0
LINE
  5
   152
  8
0
  6
CONTINUOUS
 62
     7
 10
-589.925766677506
 20
-57.2642459869385
 30
0.0
 11
-648.425766677506
 21
-57.2642459869385
 31
0.0
  0
LINE
  5
   153
  8
0
  6
CONTINUOUS
 62
     7
 10
-592.880189954713
 20
-57.7851904168901
 30
0.0
 11
-589.925766677506
 21
-57.2642459869385
 31
0.0
  0
LINE
  5
   154
  8
0
  6
CONTINUOUS
 62
     7
 10
-589.925766677506
 20
-57.2642459869385
 30
0.0
 11
-592.880189954713
 21
-56.7433015569868
 31
0.0
  0
LINE
  5
   155
  8
0
  6
CONTINUOUS
 62
     7
 10
-645.471343400299
 20
-56.7433015569868
 30
0.0
 11
-648.425766677506
 21
-57.2642459869385
 31
0.0
  0
LINE
  5
   156
  8
0
  6
CONTINUOUS
 62
     7
 10
-648.425766677506
 20
-57.2642459869385
 30
0.0
 11
-645.471343400299
 21
-57.7851904168902
 31
0.0
  0
ENDBLK
  5
   157
  8
0
  6
CONTINUOUS
 62
     7
  0
BLOCK
  5
   158
  8
0
  6
CONTINUOUS
 62
     7
  2
*UDIM2469
 70
    65
 10
0.0
 20
0.0
 30
0.0
  3
*UDIM2469
  0
TEXT
  5
   159
  8
0
  6
CONTINUOUS
 62
     7
 10
-663.871833808606
 20
40.9696349183037
 30
0.0
 40
3.00000002980232
  1
127,75
 50
89.9999999480344
 41
0.933333333333333
 72
     1
 11
-665.371833816171
 21
49.0696350001286
 31
0.0
 73
     2
  0
LINE
  5
   15A
  8
0
  6
CONTINUOUS
 62
     7
 10
-654.550769637309
 20
81.2821122930428
 30
0.0
 11
-664.87183380127
 21
81.2821122930428
 31
0.0
  0
LINE
  5
   15B
  8
0
  6
CONTINUOUS
 62
     7
 10
-662.87183380127
 20
17.4071502685547
 30
0.0
 11
-662.87183380127
 21
81.2821122930428
 31
0.0
  0
LINE
  5
   15C
  8
0
  6
CONTINUOUS
 62
     7
 10
-663.392778231221
 20
20.3615735457617
 30
0.0
 11
-662.87183380127
 21
17.4071502685547
 31
0.0
  0
LINE
  5
   15D
  8
0
  6
CONTINUOUS
 62
     7
 10
-662.87183380127
 20
17.4071502685547
 30
0.0
 11
-662.350889371318
 21
20.3615735457617
 31
0.0
  0
LINE
  5
   15E
  8
0
  6
CONTINUOUS
 62
     7
 10
-662.350889371318
 20
78.3276890158359
 30
0.0
 11
-662.87183380127
 21
81.2821122930428
 31
0.0
  0
LINE
  5
   15F
  8
0
  6
CONTINUOUS
 62
     7
 10
-662.87183380127
 20
81.2821122930428
 30
0.0
 11
-663.392778231221
 21
78.3276890158359
 31
0.0
  0
ENDBLK
  5
   160
  8
0
  6
CONTINUOUS
 62
     7
  0
BLOCK
  5
   161
  8
0
  6
CONTINUOUS
 62
     7
  2
*UDIM2470
 70
    65
 10
0.0
 20
0.0
 30
0.0
  3
*UDIM2470
  0
TEXT
  5
   162
  8
0
  6
CONTINUOUS
 62
     7
 10
-672.377082828239
 20
12.3571425930981
 30
0.0
 40
3.00000002980232
  1
259
 50
89.9999999480344
 41
0.933333333333333
 72
     1
 11
-673.877082839608
 21
16.2571426331997
 31
0.0
 73
     2
  0
LINE
  5
   163
  8
0
  6
CONTINUOUS
 62
     7
 10
-654.550769637309
 20
-48.2178270147225
 30
0.0
 11
-673.377082824707
 21
-48.2178270147225
 31
0.0
  0
LINE
  5
   164
  8
0
  6
CONTINUOUS
 62
     7
 10
-654.550769637309
 20
81.2821122930428
 30
0.0
 11
-673.377082824707
 21
81.2821122930428
 31
0.0
  0
LINE
  5
   165
  8
0
  6
CONTINUOUS
 62
     7
 10
-671.377082824707
 20
-48.2178270147225
 30
0.0
 11
-671.377082824707
 21
81.2821122930428
 31
0.0
  0
LINE
  5
   166
  8
0
  6
CONTINUOUS
 62
     7
 10
-671.898027254659
 20
-45.2634037375156
 30
0.0
 11
-671.377082824707
 21
-48.2178270147225
 31
0.0
  0
LINE
  5
   167
  8
0
  6
CONTINUOUS
 62
     7
 10
-671.377082824707
 20
-48.2178270147225
 30
0.0
 11
-670.856138394755
 21
-45.2634037375156
 31
0.0
  0
LINE
  5
   168
  8
0
  6
CONTINUOUS
 62
     7
 10
-670.856138394755
 20
78.3276890158359
 30
0.0
 11
-671.377082824707
 21
81.2821122930428
 31
0.0
  0
LINE
  5
   169
  8
0
  6
CONTINUOUS
 62
     7
 10
-671.377082824707
 20
81.2821122930428
 30
0.0
 11
-671.898027254659
 21
78.3276890158359
 31
0.0
  0
ENDBLK
  5
   16A
  8
0
  6
CONTINUOUS
 62
     7
  0
BLOCK
  5
   16B
  8
0
  6
CONTINUOUS
 62
     7
  2
*UDIM2471
 70
    65
 10
0.0
 20
0.0
 30
0.0
  3
*UDIM2471
  0
TEXT
  5
   16C
  8
0
  6
CONTINUOUS
 62
     7
 10
-623.350758408804
 20
87.1593704258809
 30
0.0
 40
3.00000002980232
  1
140
 50
359.999999948034
 41
0.933333333333333
 72
     1
 11
-619.450758368708
 21
88.6593704372645
 31
0.0
 73
     2
  0
LINE
  5
   16D
  8
0
  6
CONTINUOUS
 62
     7
 10
-584.175765945807
 20
69.0321502685544
 30
0.0
 11
-584.175751950442
 21
88.1593704223627
 31
0.0
  0
LINE
  5
   16E
  8
0
  6
CONTINUOUS
 62
     7
 10
-654.17576636359
 20
69.0321502685546
 30
0.0
 11
-654.17576035924
 21
88.1593704223632
 31
0.0
  0
LINE
  5
   16F
  8
0
  6
CONTINUOUS
 62
     7
 10
-584.17575341384
 20
86.1593704223633
 30
0.0
 11
-654.175760987073
 21
86.1593704223633
 31
0.0
  0
LINE
  5
   170
  8
0
  6
CONTINUOUS
 62
     7
 10
-587.130176691047
 20
85.6384259924116
 30
0.0
 11
-584.17575341384
 21
86.1593704223633
 31
0.0
  0
LINE
  5
   171
  8
0
  6
CONTINUOUS
 62
     7
 10
-584.17575341384
 20
86.1593704223633
 30
0.0
 11
-587.130176691047
 21
86.680314852315
 31
0.0
  0
LINE
  5
   172
  8
0
  6
CONTINUOUS
 62
     7
 10
-651.221337709866
 20
86.680314852315
 30
0.0
 11
-654.175760987073
 21
86.1593704223633
 31
0.0
  0
LINE
  5
   173
  8
0
  6
CONTINUOUS
 62
     7
 10
-654.175760987073
 20
86.1593704223633
 30
0.0
 11
-651.221337709866
 21
85.6384259924116
 31
0.0
  0
ENDBLK
  5
   174
  8
0
  6
CONTINUOUS
 62
     7
  0
BLOCK
  5
   175
  8
0
  6
CONTINUOUS
 62
     7
  2
*UDIM2472
 70
    65
 10
0.0
 20
0.0
 30
0.0
  3
*UDIM2472
  0
TEXT
  5
   176
  8
0
  6
CONTINUOUS
 62
     7
 10
-529.728832249392
 20
-125.366751102338
 30
0.0
 40
3.00000002980232
  1
16
 50
449.999999896069
 41
0.933333333333333
 72
     1
 11
-531.228832259774
 21
-122.866751074791
 31
0.0
 73
     2
  0
TEXT
  5
   177
  8
0
  6
CONTINUOUS
 62
     7
 10
-529.728832246861
 20
-128.116751136114
 30
0.0
 40
3.00000002980232
  1
M
 50
449.999999896069
 41
0.933333333333334
 72
     1
 11
-531.228832259774
 21
-127.016751122475
 31
0.0
 73
     2
  0
LINE
  5
   178
  8
0
  6
CONTINUOUS
 62
     7
 10
-521.379386901856
 20
-120.588722229004
 30
0.0
 11
-530.728832244873
 21
-120.588722229004
 31
0.0
  0
LINE
  5
   179
  8
0
  6
CONTINUOUS
 62
     7
 10
-521.379386901856
 20
-128.588722229004
 30
0.0
 11
-530.728832244873
 21
-128.588722229004
 31
0.0
  0
LINE
  5
   17A
  8
0
  6
CONTINUOUS
 62
     7
 10
-528.728832244873
 20
-120.366751049956
 30
0.0
 11
-528.728832244873
 21
-128.588722229004
 31
0.0
  0
LINE
  5
   17B
  8
0
  6
CONTINUOUS
 62
     7
 10
-529.249776674825
 20
-117.634298951797
 30
0.0
 11
-528.728832244873
 21
-120.588722229004
 31
0.0
  0
LINE
  5
   17C
  8
0
  6
CONTINUOUS
 62
     7
 10
-528.728832244873
 20
-120.588722229004
 30
0.0
 11
-528.207887814921
 21
-117.634298951797
 31
0.0
  0
LINE
  5
   17D
  8
0
  6
CONTINUOUS
 62
     7
 10
-528.207887814921
 20
-131.543145506211
 30
0.0
 11
-528.728832244873
 21
-128.588722229004
 31
0.0
  0
LINE
  5
   17E
  8
0
  6
CONTINUOUS
 62
     7
 10
-528.728832244873
 20
-128.588722229004
 30
0.0
 11
-529.249776674825
 21
-131.543145506211
 31
0.0
  0
ENDBLK
  5
   17F
  8
0
  6
CONTINUOUS
 62
     7
  0
BLOCK
  5
   180
  8
0
  6
CONTINUOUS
 62
     7
  2
*UDIM2473
 70
    65
 10
0.0
 20
0.0
 30
0.0
  3
*UDIM2473
  0
TEXT
  5
   181
  8
0
  6
CONTINUOUS
 62
     7
 10
-509.654390750062
 20
-141.179260249384
 30
0.0
 40
3.00000002980232
  1
58
 50
359.999999896069
 41
0.933333333333333
 72
     1
 11
-507.154390722513
 21
-139.679260239005
 31
0.0
 73
     2
  0
LINE
  5
   182
  8
0
  6
CONTINUOUS
 62
     7
 10
-492.37939453125
 20
-74.8387222290039
 30
0.0
 11
-492.37939453125
 21
-144.179260253906
 31
0.0
  0
LINE
  5
   183
  8
0
  6
CONTINUOUS
 62
     7
 10
-521.379386901856
 20
-128.588722229004
 30
0.0
 11
-521.379386901856
 21
-144.179260253906
 31
0.0
  0
LINE
  5
   184
  8
0
  6
CONTINUOUS
 62
     7
 10
-492.37939453125
 20
-142.179260253906
 30
0.0
 11
-521.379386901856
 21
-142.179260253906
 31
0.0
  0
LINE
  5
   185
  8
0
  6
CONTINUOUS
 62
     7
 10
-495.333817808457
 20
-142.700204683858
 30
0.0
 11
-492.37939453125
 21
-142.179260253906
 31
0.0
  0
LINE
  5
   186
  8
0
  6
CONTINUOUS
 62
     7
 10
-492.37939453125
 20
-142.179260253906
 30
0.0
 11
-495.333817808457
 21
-141.658315823955
 31
0.0
  0
LINE
  5
   187
  8
0
  6
CONTINUOUS
 62
     7
 10
-518.424963624649
 20
-141.658315823955
 30
0.0
 11
-521.379386901856
 21
-142.179260253906
 31
0.0
  0
LINE
  5
   188
  8
0
  6
CONTINUOUS
 62
     7
 10
-521.379386901856
 20
-142.179260253906
 30
0.0
 11
-518.424963624649
 21
-142.700204683858
 31
0.0
  0
ENDBLK
  5
   189
  8
0
  6
CONTINUOUS
 62
     7
  0
BLOCK
  5
   18A
  8
0
  6
CONTINUOUS
 62
     7
  2
*UDIM2474
 70
    65
 10
0.0
 20
0.0
 30
0.0
  3
*UDIM2474
  0
TEXT
  5
   18B
  8
0
  6
CONTINUOUS
 62
     7
 10
-523.55439076397
 20
-149.528251640894
 30
0.0
 40
3.00000002980232
  1
108
 50
359.999999896069
 41
0.933333333333333
 72
     1
 11
-519.654390722513
 21
-148.028251633048
 31
0.0
 73
     2
  0
LINE
  5
   18C
  8
0
  6
CONTINUOUS
 62
     7
 10
-492.37939453125
 20
-136.213722229004
 30
0.0
 11
-492.37939453125
 21
-152.528251647949
 31
0.0
  0
LINE
  5
   18D
  8
0
  6
CONTINUOUS
 62
     7
 10
-546.379386901856
 20
-106.713722229004
 30
0.0
 11
-546.379386901856
 21
-152.528251647949
 31
0.0
  0
LINE
  5
   18E
  8
0
  6
CONTINUOUS
 62
     7
 10
-492.37939453125
 20
-150.528251647949
 30
0.0
 11
-546.379386901856
 21
-150.528251647949
 31
0.0
  0
LINE
  5
   18F
  8
0
  6
CONTINUOUS
 62
     7
 10
-495.333817808457
 20
-151.049196077901
 30
0.0
 11
-492.37939453125
 21
-150.528251647949
 31
0.0
  0
LINE
  5
   190
  8
0
  6
CONTINUOUS
 62
     7
 10
-492.37939453125
 20
-150.528251647949
 30
0.0
 11
-495.333817808457
 21
-150.007307217998
 31
0.0
  0
LINE
  5
   191
  8
0
  6
CONTINUOUS
 62
     7
 10
-543.424963624649
 20
-150.007307217998
 30
0.0
 11
-546.379386901856
 21
-150.528251647949
 31
0.0
  0
LINE
  5
   192
  8
0
  6
CONTINUOUS
 62
     7
 10
-546.379386901856
 20
-150.528251647949
 30
0.0
 11
-543.424963624649
 21
-151.049196077901
 31
0.0
  0
ENDBLK
  5
   193
  8
0
  6
CONTINUOUS
 62
     7
  0
BLOCK
  5
   194
  8
0
  6
CONTINUOUS
 62
     7
  2
*UDIM2475
 70
    65
 10
0.0
 20
0.0
 30
0.0
  3
*UDIM2475
  0
TEXT
  5
   195
  8
0
  6
CONTINUOUS
 62
     7
 10
-557.973228466701
 20
-98.7512223110777
 30
0.0
 40
3.00000002980232
  1
43,75
 50
449.999999896069
 41
0.933333333333333
 72
     1
 11
-559.473228469491
 21
-92.0512222418076
 31
0.0
 73
     2
  0
LINE
  5
   196
  8
0
  6
CONTINUOUS
 62
     7
 10
-554.429175237393
 20
-80.838713207963
 30
0.0
 11
-558.973228454508
 21
-80.8386722158731
 31
0.0
  0
LINE
  5
   197
  8
0
  6
CONTINUOUS
 62
     7
 10
-528.989073365264
 20
-102.713721125951
 30
0.0
 11
-558.973228454589
 21
-102.71368805185
 31
0.0
  0
LINE
  5
   198
  8
0
  6
CONTINUOUS
 62
     7
 10
-556.97322845459
 20
-80.8386902579549
 30
0.0
 11
-556.97322845459
 21
-102.713690257956
 31
0.0
  0
LINE
  5
   199
  8
0
  6
CONTINUOUS
 62
     7
 10
-556.452284024638
 20
-83.7931135351618
 30
0.0
 11
-556.97322845459
 21
-80.8386902579549
 31
0.0
  0
LINE
  5
   19A
  8
0
  6
CONTINUOUS
 62
     7
 10
-556.97322845459
 20
-80.8386902579549
 30
0.0
 11
-557.494172884542
 21
-83.7931135351618
 31
0.0
  0
LINE
  5
   19B
  8
0
  6
CONTINUOUS
 62
     7
 10
-557.494172884542
 20
-99.7592669807486
 30
0.0
 11
-556.97322845459
 21
-102.713690257956
 31
0.0
  0
LINE
  5
   19C
  8
0
  6
CONTINUOUS
 62
     7
 10
-556.97322845459
 20
-102.713690257956
 30
0.0
 11
-556.452284024638
 21
-99.7592669807486
 31
0.0
  0
ENDBLK
  5
   19D
  8
0
  6
CONTINUOUS
 62
     7
  0
BLOCK
  5
   19E
  8
0
  6
CONTINUOUS
 62
     7
  2
*UDIM2476
 70
    65
 10
0.0
 20
0.0
 30
0.0
  3
*UDIM2476
  0
TEXT
  5
   19F
  8
0
  6
CONTINUOUS
 62
     7
 10
-557.973228466701
 20
-120.626222288563
 30
0.0
 40
3.00000002980232
  1
43,75
 50
449.999999896069
 41
0.933333333333333
 72
     1
 11
-559.473228469491
 21
-113.926222219293
 31
0.0
 73
     2
  0
LINE
  5
   1A0
  8
0
  6
CONTINUOUS
 62
     7
 10
-456.127511459559
 20
-124.588713207963
 30
0.0
 11
-558.973228454508
 21
-124.587785432543
 31
0.0
  0
LINE
  5
   1A1
  8
0
  6
CONTINUOUS
 62
     7
 10
-556.97322845459
 20
-102.713690257956
 30
0.0
 11
-556.97322845459
 21
-124.587803474624
 31
0.0
  0
LINE
  5
   1A2
  8
0
  6
CONTINUOUS
 62
     7
 10
-556.452284024638
 20
-105.668113535163
 30
0.0
 11
-556.97322845459
 21
-102.713690257956
 31
0.0
  0
LINE
  5
   1A3
  8
0
  6
CONTINUOUS
 62
     7
 10
-556.97322845459
 20
-102.713690257956
 30
0.0
 11
-557.494172884542
 21
-105.668113535163
 31
0.0
  0
LINE
  5
   1A4
  8
0
  6
CONTINUOUS
 62
     7
 10
-557.494172884542
 20
-121.633380197417
 30
0.0
 11
-556.97322845459
 21
-124.587803474624
 31
0.0
  0
LINE
  5
   1A5
  8
0
  6
CONTINUOUS
 62
     7
 10
-556.97322845459
 20
-124.587803474624
 30
0.0
 11
-556.452284024638
 21
-121.633380197417
 31
0.0
  0
ENDBLK
  5
   1A6
  8
0
  6
CONTINUOUS
 62
     7
  0
BLOCK
  5
   1A7
  8
0
  6
CONTINUOUS
 62
     7
  2
*UDIM2477
 70
    65
 10
0.0
 20
0.0
 30
0.0
  3
*UDIM2477
  0
TEXT
  5
   1A8
  8
0
  6
CONTINUOUS
 62
     7
 10
-366.134386839981
 20
2.50663220577124
 30
0.0
 40
3.00000002980232
  1
7
 50
404.893139787217
 41
0.933333333333334
 72
     1
 11
-366.413800189518
 21
4.34563417663599
 31
0.0
 73
     2
  0
TEXT
  5
   1A9
  8
0
  6
CONTINUOUS
 62
     7
 10
-368.365923540256
 20
0.2834039183675
 30
0.0
 40
3.00000002980232
  1
Ø
 50
404.893139787217
 41
0.933333333333334
 72
     1
 11
-368.645336889793
 21
2.12240588923225
 31
0.0
 73
     2
  0
LINE
  5
   1AA
  8
0
  6
CONTINUOUS
 62
     7
 10
-351.661989047886
 20
15.5135633196674
 30
0.0
 11
-367.660136779582
 21
-0.425020427933219
 31
0.0
  0
LINE
  5
   1AB
  8
0
  6
CONTINUOUS
 62
     7
 10
-349.936679345898
 20
17.9678058570358
 30
0.0
 11
-351.661989047886
 21
15.5135633196674
 31
0.0
  0
LINE
  5
   1AC
  8
0
  6
CONTINUOUS
 62
     7
 10
-351.661989047886
 20
15.5135633196674
 30
0.0
 11
-349.201327987688
 21
17.2297064217504
 31
0.0
  0
LINE
  5
   1AD
  8
0
  6
CONTINUOUS
 62
     7
 10
-354.627041357227
 20
11.8241939598587
 30
0.0
 11
-352.901731655239
 21
14.2784364972272
 31
0.0
  0
LINE
  5
   1AE
  8
0
  6
CONTINUOUS
 62
     7
 10
-352.901731655239
 20
14.2784364972272
 30
0.0
 11
-355.362392715437
 21
12.5622933951442
 31
0.0
  0
ENDBLK
  5
   1AF
  8
0
  6
CONTINUOUS
 62
     7
  0
BLOCK
  5
   1B0
  8
0
  6
CONTINUOUS
 62
     7
  2
*UDIM2478
 70
    65
 10
0.0
 20
0.0
 30
0.0
  3
*UDIM2478
  0
TEXT
  5
   1B1
  8
0
  6
CONTINUOUS
 62
     7
 10
-345.056860386432
 20
63.1821785041042
 30
0.0
 40
3.00000002980232
  1
80
 50
359.999999844103
 41
0.933333333333333
 72
     1
 11
-342.556860357523
 21
64.6821785122156
 31
0.0
 73
     2
  0
LINE
  5
   1B2
  8
0
  6
CONTINUOUS
 62
     7
 10
-352.281860351563
 20
53.0209999084473
 30
0.0
 11
-352.281860351563
 21
64.1821784973145
 31
0.0
  0
LINE
  5
   1B3
  8
0
  6
CONTINUOUS
 62
     7
 10
-332.281860351562
 20
53.0209999084473
 30
0.0
 11
-332.281860351562
 21
64.1821784973145
 31
0.0
  0
LINE
  5
   1B4
  8
0
  6
CONTINUOUS
 62
     7
 10
-352.281860351563
 20
62.1821784973145
 30
0.0
 11
-332.281860351562
 21
62.1821784973145
 31
0.0
  0
LINE
  5
   1B5
  8
0
  6
CONTINUOUS
 62
     7
 10
-349.327437074356
 20
62.7031229272661
 30
0.0
 11
-352.281860351563
 21
62.1821784973145
 31
0.0
  0
LINE
  5
   1B6
  8
0
  6
CONTINUOUS
 62
     7
 10
-352.281860351563
 20
62.1821784973145
 30
0.0
 11
-349.327437074356
 21
61.6612340673628
 31
0.0
  0
LINE
  5
   1B7
  8
0
  6
CONTINUOUS
 62
     7
 10
-335.236283628769
 20
61.6612340673628
 30
0.0
 11
-332.281860351562
 21
62.1821784973145
 31
0.0
  0
LINE
  5
   1B8
  8
0
  6
CONTINUOUS
 62
     7
 10
-332.281860351562
 20
62.1821784973145
 30
0.0
 11
-335.236283628769
 21
62.7031229272661
 31
0.0
  0
ENDBLK
  5
   1B9
  8
0
  6
CONTINUOUS
 62
     7
  0
BLOCK
  5
   1BA
  8
0
  6
CONTINUOUS
 62
     7
  2
*UDIM2479
 70
    65
 10
0.0
 20
0.0
 30
0.0
  3
*UDIM2479
  0
TEXT
  5
   1BB
  8
0
  6
CONTINUOUS
 62
     7
 10
-346.45686040034
 20
69.6218376265587
 30
0.0
 40
3.00000002980232
  1
112
 50
359.999999844103
 41
0.933333333333333
 72
     1
 11
-342.556860357523
 21
71.121837630868
 31
0.0
 73
     2
  0
LINE
  5
   1BC
  8
0
  6
CONTINUOUS
 62
     7
 10
-356.281860351563
 20
47.6459999084473
 30
0.0
 11
-356.281860351563
 21
70.6218376159668
 31
0.0
  0
LINE
  5
   1BD
  8
0
  6
CONTINUOUS
 62
     7
 10
-328.281860351563
 20
47.6459999084473
 30
0.0
 11
-328.281860351563
 21
70.6218376159668
 31
0.0
  0
LINE
  5
   1BE
  8
0
  6
CONTINUOUS
 62
     7
 10
-356.281860351563
 20
68.6218376159668
 30
0.0
 11
-328.281860351563
 21
68.6218376159668
 31
0.0
  0
LINE
  5
   1BF
  8
0
  6
CONTINUOUS
 62
     7
 10
-353.327437074356
 20
69.1427820459185
 30
0.0
 11
-356.281860351563
 21
68.6218376159668
 31
0.0
  0
LINE
  5
   1C0
  8
0
  6
CONTINUOUS
 62
     7
 10
-356.281860351563
 20
68.6218376159668
 30
0.0
 11
-353.327437074356
 21
68.1008931860151
 31
0.0
  0
LINE
  5
   1C1
  8
0
  6
CONTINUOUS
 62
     7
 10
-331.23628362877
 20
68.1008931860151
 30
0.0
 11
-328.281860351563
 21
68.6218376159668
 31
0.0
  0
LINE
  5
   1C2
  8
0
  6
CONTINUOUS
 62
     7
 10
-328.281860351563
 20
68.6218376159668
 30
0.0
 11
-331.23628362877
 21
69.1427820459185
 31
0.0
  0
ENDBLK
  5
   1C3
  8
0
  6
CONTINUOUS
 62
     7
  0
BLOCK
  5
   1C4
  8
0
  6
CONTINUOUS
 62
     7
  2
*UDIM2480
 70
    65
 10
0.0
 20
0.0
 30
0.0
  3
*UDIM2480
  0
TEXT
  5
   1C5
  8
0
  6
CONTINUOUS
 62
     7
 10
-368.689235697843
 20
28.4709998596718
 30
0.0
 40
3.00000002980232
  1
112
 50
449.999999844103
 41
0.933333333333333
 72
     1
 11
-370.189235702157
 21
32.3709999024868
 31
0.0
 73
     2
  0
LINE
  5
   1C6
  8
0
  6
CONTINUOUS
 62
     7
 10
-357.281860351562
 20
46.6459999084473
 30
0.0
 11
-369.689235687256
 21
46.6459999084473
 31
0.0
  0
LINE
  5
   1C7
  8
0
  6
CONTINUOUS
 62
     7
 10
-357.281860351562
 20
18.6459999084473
 30
0.0
 11
-369.689235687256
 21
18.6459999084473
 31
0.0
  0
LINE
  5
   1C8
  8
0
  6
CONTINUOUS
 62
     7
 10
-367.689235687256
 20
46.6459999084473
 30
0.0
 11
-367.689235687256
 21
18.6459999084473
 31
0.0
  0
LINE
  5
   1C9
  8
0
  6
CONTINUOUS
 62
     7
 10
-367.168291257304
 20
43.6915766312403
 30
0.0
 11
-367.689235687256
 21
46.6459999084473
 31
0.0
  0
LINE
  5
   1CA
  8
0
  6
CONTINUOUS
 62
     7
 10
-367.689235687256
 20
46.6459999084473
 30
0.0
 11
-368.210180117208
 21
43.6915766312403
 31
0.0
  0
LINE
  5
   1CB
  8
0
  6
CONTINUOUS
 62
     7
 10
-368.210180117208
 20
21.6004231856542
 30
0.0
 11
-367.689235687256
 21
18.6459999084473
 31
0.0
  0
LINE
  5
   1CC
  8
0
  6
CONTINUOUS
 62
     7
 10
-367.689235687256
 20
18.6459999084473
 30
0.0
 11
-367.168291257304
 21
21.6004231856542
 31
0.0
  0
ENDBLK
  5
   1CD
  8
0
  6
CONTINUOUS
 62
     7
  0
BLOCK
  5
   1CE
  8
0
  6
CONTINUOUS
 62
     7
  2
*UDIM2481
 70
    65
 10
0.0
 20
0.0
 30
0.0
  3
*UDIM2481
  0
TEXT
  5
   1CF
  8
0
  6
CONTINUOUS
 62
     7
 10
-376.065570841886
 20
28.4709998596718
 30
0.0
 40
3.00000002980232
  1
142
 50
449.999999844103
 41
0.933333333333333
 72
     1
 11
-377.5655708462
 21
32.3709999024868
 31
0.0
 73
     2
  0
LINE
  5
   1D0
  8
0
  6
CONTINUOUS
 62
     7
 10
-354.906860351563
 20
50.3959999084473
 30
0.0
 11
-377.065570831299
 21
50.3959999084473
 31
0.0
  0
LINE
  5
   1D1
  8
0
  6
CONTINUOUS
 62
     7
 10
-354.906860351563
 20
14.8959999084473
 30
0.0
 11
-377.065570831299
 21
14.8959999084473
 31
0.0
  0
LINE
  5
   1D2
  8
0
  6
CONTINUOUS
 62
     7
 10
-375.065570831299
 20
50.3959999084473
 30
0.0
 11
-375.065570831299
 21
14.8959999084473
 31
0.0
  0
LINE
  5
   1D3
  8
0
  6
CONTINUOUS
 62
     7
 10
-374.544626401347
 20
47.4415766312403
 30
0.0
 11
-375.065570831299
 21
50.3959999084473
 31
0.0
  0
LINE
  5
   1D4
  8
0
  6
CONTINUOUS
 62
     7
 10
-375.065570831299
 20
50.3959999084473
 30
0.0
 11
-375.586515261251
 21
47.4415766312403
 31
0.0
  0
LINE
  5
   1D5
  8
0
  6
CONTINUOUS
 62
     7
 10
-375.586515261251
 20
17.8504231856542
 30
0.0
 11
-375.065570831299
 21
14.8959999084473
 31
0.0
  0
LINE
  5
   1D6
  8
0
  6
CONTINUOUS
 62
     7
 10
-375.065570831299
 20
14.8959999084473
 30
0.0
 11
-374.544626401347
 21
17.8504231856542
 31
0.0
  0
ENDBLK
  5
   1D7
  8
0
  6
CONTINUOUS
 62
     7
  0
ENDSEC
  0
SECTION
  2
ENTITIES
  0
LINE
  5
   1D8
  8
0
  6
DASHDOT
 62
     7
 10
-619.17578125
 20
-75.1263853034117
 30
0.0
 11
-619.17578125
 21
-163.443112690186
 31
0.0
  0
LINE
  5
   1D9
  8
0
  6
CONTINUOUS
 62
     7
 10
-637.61328125
 20
-78.6486181534013
 30
0.0
 11
-637.61328125
 21
-158.094536880943
 31
0.0
  0
LINE
  5
   1DA
  8
0
  6
CONTINUOUS
 62
     7
 10
-600.73828125
 20
-78.6486181534013
 30
0.0
 11
-600.73828125
 21
-158.094536880943
 31
0.0
  0
CIRCLE
  5
   1DB
  8
0
  6
CONTINUOUS
 62
     7
 10
-632.724997042138
 20
-89.4615548428657
 30
0.0
 40
0.6875
  0
LINE
  5
   1DC
  8
0
  6
DASHDOT
 62
     7
 10
-601.482801203283
 20
-102.093521118164
 30
0.0
 11
-636.546994058956
 21
-102.093521118164
 31
0.0
  0
LINE
  5
   1DD
  8
0
  6
DASHDOT
 62
     7
 10
-601.482801203283
 20
-135.843521118164
 30
0.0
 11
-636.598766107441
 21
-135.843521118164
 31
0.0
  0
LINE
  5
   1DE
  8
0
  6
DASHDOT
 62
     7
 10
-633.55078125
 20
-98.3434344193297
 30
0.0
 11
-633.55078125
 21
-139.804216581347
 31
0.0
  0
LINE
  5
   1DF
  8
0
  6
DASHDOT
 62
     7
 10
-604.80078125
 20
-99.1113864718624
 30
0.0
 11
-604.80078125
 21
-140.632569357113
 31
0.0
  0
CIRCLE
  5
   1E0
  8
0
  6
CONTINUOUS
 62
     7
 10
-633.55078125
 20
-102.093521118164
 30
0.0
 40
0.75
  0
CIRCLE
  5
   1E1
  8
0
  6
CONTINUOUS
 62
     7
 10
-604.80078125
 20
-102.093521118164
 30
0.0
 40
0.75
  0
CIRCLE
  5
   1E2
  8
0
  6
CONTINUOUS
 62
     7
 10
-633.55078125
 20
-135.843521118164
 30
0.0
 40
0.75
  0
CIRCLE
  5
   1E3
  8
0
  6
CONTINUOUS
 62
     7
 10
-604.80078125
 20
-135.843521118164
 30
0.0
 40
0.75
  0
LINE
  5
   1E4
  8
0
  6
DASHDOT
 62
     7
 10
-602.297053665875
 20
-91.7185211181641
 30
0.0
 11
-636.214851480588
 21
-91.7185211181641
 31
0.0
  0
LINE
  5
   1E5
  8
0
  6
DASHDOT
 62
     7
 10
-602.427506734393
 20
-146.218521118164
 30
0.0
 11
-635.562586137998
 21
-146.218521118164
 31
0.0
  0
LINE
  5
   1E6
  8
0
  6
DASHDOT
 62
     7
 10
-630.11328125
 20
-85.4347774832644
 30
0.0
 11
-630.11328125
 21
-100.303827527411
 31
0.0
  0
LINE
  5
   1E7
  8
0
  6
DASHDOT
 62
     7
 10
-608.23828125
 20
-85.4347774832644
 30
0.0
 11
-608.23828125
 21
-100.434280595929
 31
0.0
  0
LINE
  5
   1E8
  8
0
  6
DASHDOT
 62
     7
 10
-608.23828125
 20
-139.700654219886
 30
0.0
 11
-608.23828125
 21
-151.310977318
 31
0.0
  0
LINE
  5
   1E9
  8
0
  6
DASHDOT
 62
     7
 10
-630.11328125
 20
-139.43974808285
 30
0.0
 11
-630.11328125
 21
-151.571883455036
 31
0.0
  0
ARC
  5
   1EA
  8
0
  6
CONTINUOUS
 62
     7
 10
-630.11328125
 20
-146.218521118164
 30
0.0
 40
4.5
 50
449.999999896069
 51
629.999999896069
  0
ARC
  5
   1EB
  8
0
  6
CONTINUOUS
 62
     7
 10
-608.23828125
 20
-146.218521118164
 30
0.0
 40
4.5
 50
269.999999896069
 51
449.999999896069
  0
ARC
  5
   1EC
  8
0
  6
CONTINUOUS
 62
     7
 10
-608.23828125
 20
-91.7185211181641
 30
0.0
 40
4.5
 50
269.999999896069
 51
449.999999896069
  0
ARC
  5
   1ED
  8
0
  6
CONTINUOUS
 62
     7
 10
-630.11328125
 20
-91.7185211181641
 30
0.0
 40
4.5
 50
449.999999896069
 51
629.999999896069
  0
LINE
  5
   1EE
  8
0
  6
CONTINUOUS
 62
     7
 10
-608.23828125
 20
-87.2185211181641
 30
0.0
 11
-630.11328125
 21
-87.2185211181641
 31
0.0
  0
LINE
  5
   1EF
  8
0
  6
CONTINUOUS
 62
     7
 10
-608.23828125
 20
-96.2185211181641
 30
0.0
 11
-630.11328125
 21
-96.2185211181641
 31
0.0
  0
LINE
  5
   1F0
  8
0
  6
CONTINUOUS
 62
     7
 10
-608.23828125
 20
-141.718521118164
 30
0.0
 11
-630.11328125
 21
-141.718521118164
 31
0.0
  0
LINE
  5
   1F1
  8
0
  6
CONTINUOUS
 62
     7
 10
-608.23828125
 20
-150.718521118164
 30
0.0
 11
-630.11328125
 21
-150.718521118164
 31
0.0
  0
LINE
  5
   1F2
  8
0
  6
CONTINUOUS
 62
     7
 10
-600.73828125
 20
-78.6486181534013
 30
0.0
 11
-637.61328125
 21
-78.6486181534013
 31
0.0
  0
LINE
  5
   1F3
  8
0
  6
CONTINUOUS
 62
     7
 10
-600.73828125
 20
-158.094536880943
 30
0.0
 11
-637.61328125
 21
-158.094536880943
 31
0.0
  0
CIRCLE
  5
   1F4
  8
0
  6
CONTINUOUS
 62
     7
 10
-632.724997042138
 20
-89.4615548428657
 30
0.0
 40
0.0625
  0
LINE
  5
   1F5
  8
0
  6
DASHDOT
 62
     7
 10
-591.390449965301
 20
-118.531021118164
 30
0.0
 11
-644.574169928754
 21
-118.531021118164
 31
0.0
  0
INSERT
  5
   1F6
  8
0
  6
CONTINUOUS
 62
     7
  2
*UDIM2449
 10
0.0
 20
0.0
 30
0.0
  0
INSERT
  5
   1F7
  8
0
  6
CONTINUOUS
 62
     7
  2
*UDIM2450
 10
0.0
 20
0.0
 30
0.0
  0
TEXT
  5
   1F8
  8
0
  6
CONTINUOUS
 62
     7
 10
-625.648151400418
 20
-76.9523086701614
 30
0.0
 40
3.00000002980232
  1
=    =
 50
359.999999896069
 41
0.916666604744064
 72
     2
 11
-609.698152323794
 21
-76.9523086990136
 31
0.0
  0
INSERT
  5
   1F9
  8
0
  6
CONTINUOUS
 62
     7
  2
*UDIM2451
 10
0.0
 20
0.0
 30
0.0
  0
INSERT
  5
   1FA
  8
0
  6
CONTINUOUS
 62
     7
  2
*UDIM2452
 10
0.0
 20
0.0
 30
0.0
  0
INSERT
  5
   1FB
  8
0
  6
CONTINUOUS
 62
     7
  2
*UDIM2453
 10
0.0
 20
0.0
 30
0.0
  0
TEXT
  5
   1FC
  8
0
  6
CONTINUOUS
 62
     7
 10
-626.561321261258
 20
-131.481689468501
 30
0.0
 40
3.00000002980232
  1
=    =
 50
359.999999896069
 41
0.916666604744064
 72
     2
 11
-610.611322184634
 21
-131.481689497353
 31
0.0
  0
INSERT
  5
   1FD
  8
0
  6
CONTINUOUS
 62
     7
  2
*UDIM2454
 10
0.0
 20
0.0
 30
0.0
  0
INSERT
  5
   1FE
  8
0
  6
CONTINUOUS
 62
     7
  2
*UDIM2455
 10
0.0
 20
0.0
 30
0.0
  0
INSERT
  5
   1FF
  8
0
  6
CONTINUOUS
 62
     7
  2
*UDIM2456
 10
0.0
 20
0.0
 30
0.0
  0
TEXT
  5
   200
  8
0
  6
CONTINUOUS
 62
     7
 10
-671.045818331571
 20
-120.784538773693
 30
0.0
 40
3.00000002980232
  1
X
 50
359.999999896069
 41
0.916666604744064
 72
     2
 11
-668.845818462701
 21
-120.784538777672
 31
0.0
  0
TEXT
  5
   201
  8
0
  6
CONTINUOUS
 62
     7
 10
-588.745601656766
 20
-120.41931488911
 30
0.0
 40
3.00000002980232
  1
X
 50
359.999999896069
 41
0.916666604744064
 72
     2
 11
-586.545601787896
 21
-120.41931489309
 31
0.0
  0
TEXT
  5
   202
  8
0
  6
CONTINUOUS
 62
     7
 10
-620.430030110212
 20
-168.138999966777
 30
0.0
 40
3.00000002980232
  1
Y
 50
359.999999896069
 41
0.916666604744064
 72
     2
 11
-618.230030241342
 21
-168.138999970757
 31
0.0
  0
LINE
  5
   203
  8
0
  6
CONTINUOUS
 62
     7
 10
-470.321975708008
 20
31.2821502685547
 30
0.0
 11
-470.321975708008
 21
31.5321350097656
 31
0.0
  0
LINE
  5
   204
  8
0
  6
CONTINUOUS
 62
     7
 10
-470.321975708008
 20
39.0321350097656
 30
0.0
 11
-470.321975708008
 21
49.0321197509766
 31
0.0
  0
LINE
  5
   205
  8
0
  6
CONTINUOUS
 62
     7
 10
-469.071960449219
 20
31.5321350097656
 30
0.0
 11
-469.071960449219
 21
39.0321350097656
 31
0.0
  0
LINE
  5
   206
  8
0
  6
CONTINUOUS
 62
     7
 10
-469.071960449219
 20
31.5321350097656
 30
0.0
 11
-470.321975708008
 21
31.5321350097656
 31
0.0
  0
LINE
  5
   207
  8
0
  6
CONTINUOUS
 62
     7
 10
-469.071960449219
 20
39.0321350097656
 30
0.0
 11
-470.321975708008
 21
39.0321350097656
 31
0.0
  0
LINE
  5
   208
  8
0
  6
CONTINUOUS
 62
     7
 10
-469.071960449219
 20
49.0321197509766
 30
0.0
 11
-469.071960449219
 21
56.5321197509766
 31
0.0
  0
LINE
  5
   209
  8
0
  6
CONTINUOUS
 62
     7
 10
-469.071960449219
 20
49.0321197509766
 30
0.0
 11
-470.321975708008
 21
49.0321197509766
 31
0.0
  0
LINE
  5
   20A
  8
0
  6
CONTINUOUS
 62
     7
 10
-469.071960449219
 20
56.5321197509766
 30
0.0
 11
-470.321975708008
 21
56.5321197509766
 31
0.0
  0
LINE
  5
   20B
  8
0
  6
CONTINUOUS
 62
     7
 10
-436.071983337402
 20
31.2821350097656
 30
0.0
 11
-436.071983337402
 21
58.7821197509766
 31
0.0
  0
LINE
  5
   20C
  8
0
  6
CONTINUOUS
 62
     2
 10
-470.321972297284
 20
58.5321197509765
 30
0.0
 11
-470.321964896017
 21
68.8394317626953
 31
0.0
  0
LINE
  5
   20D
  8
0
  6
CONTINUOUS
 62
     7
 10
-434.321975708008
 20
67.5321197509766
 30
0.0
 11
-436.071975708008
 21
67.5321197509766
 31
0.0
  0
LINE
  5
   20E
  8
0
  6
CONTINUOUS
 62
     7
 10
-436.071987697084
 20
58.7821153913698
 30
0.0
 11
-436.07198006769
 21
67.5321153913698
 31
0.0
  0
LINE
  5
   20F
  8
0
  6
CONTINUOUS
 62
     7
 10
-468.321975708008
 20
59.7821197509766
 30
0.0
 11
-470.321975708008
 21
59.7821197509766
 31
0.0
  0
LINE
  5
   210
  8
0
  6
CONTINUOUS
 62
     7
 10
-468.321974436625
 20
59.782113393447
 30
0.0
 11
-468.321971882258
 21
60.7865316897753
 31
0.0
  0
LINE
  5
   211
  8
0
  6
CONTINUOUS
 62
     7
 10
-436.071983337402
 20
26.5321426391602
 30
0.0
 11
-436.071983337402
 21
31.2821502685547
 31
0.0
  0
LINE
  5
   212
  8
0
  6
CONTINUOUS
 62
     7
 10
-470.321970608347
 20
-3.96784464177426
 30
0.0
 11
-470.321955349558
 21
-3.82072708663281
 31
0.0
  0
LINE
  5
   213
  8
0
  6
CONTINUOUS
 62
     7
 10
-470.321956329408
 20
3.88503601831848
 30
0.0
 11
-470.321971588196
 21
31.28214600367
 31
0.0
  0
LINE
  5
   214
  8
0
  6
CONTINUOUS
 62
     7
 10
-434.821975708008
 20
2.78215026855469
 30
0.0
 11
-468.821992492677
 21
2.78215026855469
 31
0.0
  0
LINE
  5
   215
  8
0
  6
CONTINUOUS
 62
     7
 10
-434.821975708008
 20
-2.71784973144531
 30
0.0
 11
-468.821992492677
 21
-2.71784973144531
 31
0.0
  0
LINE
  5
   216
  8
0
  6
CONTINUOUS
 62
     7
 10
-466.205946209883
 20
2.78215535316605
 30
0.0
 11
-470.321958606888
 21
3.88504106623447
 31
0.0
  0
LINE
  5
   217
  8
0
  6
CONTINUOUS
 62
     7
 10
-470.321956299897
 20
-3.82073136148168
 30
0.0
 11
-466.205943808119
 21
-2.71784919708549
 31
0.0
  0
LINE
  5
   218
  8
0
  6
CONTINUOUS
 62
     7
 10
-434.321983337402
 20
4.28215026855469
 30
0.0
 11
-438.321983337402
 21
4.28215026855469
 31
0.0
  0
LINE
  5
   219
  8
0
  6
CONTINUOUS
 62
     7
 10
-438.321983337402
 20
4.28215026855469
 30
0.0
 11
-438.321983337402
 21
25.5321426391602
 31
0.0
  0
LINE
  5
   21A
  8
0
  6
CONTINUOUS
 62
     7
 10
-469.821960449219
 20
0.282150268554688
 30
0.0
 11
-469.821960449219
 21
3.75106048583984
 31
0.0
  0
LINE
  5
   21B
  8
0
  6
CONTINUOUS
 62
     7
 10
-469.821967491719
 20
-3.68675497805098
 30
0.0
 11
-469.821959862331
 21
-3.21784476076582
 31
0.0
  0
LINE
  5
   21C
  8
0
  6
CONTINUOUS
 62
     2
 10
-470.321960449219
 20
4.28215026855469
 30
0.0
 11
-471.321960449219
 21
4.28215026855469
 31
0.0
  0
LINE
  5
   21D
  8
0
  6
CONTINUOUS
 62
     2
 10
-470.321960449219
 20
7.03215026855469
 30
0.0
 11
-471.321960449219
 21
7.03215026855469
 31
0.0
  0
LINE
  5
   21E
  8
0
  6
CONTINUOUS
 62
     7
 10
-434.321994142401
 20
-3.21783021834861
 30
0.0
 11
-434.821986496708
 21
-2.71783786404106
 31
0.0
  0
LINE
  5
   21F
  8
0
  6
CONTINUOUS
 62
     7
 10
-434.82198202627
 20
2.78215096953303
 30
0.0
 11
-434.321982043384
 21
3.28215095241872
 31
0.0
  0
LINE
  5
   220
  8
0
  6
CONTINUOUS
 62
     7
 10
-436.071983337402
 20
25.5321426391602
 30
0.0
 11
-436.071983337402
 21
26.5321426391602
 31
0.0
  0
LINE
  5
   221
  8
0
  6
CONTINUOUS
 62
     2
 10
-469.321960449219
 20
-12.9678344726557
 30
0.0
 11
-471.321960449219
 21
-12.9678344726557
 31
0.0
  0
LINE
  5
   222
  8
0
  6
CONTINUOUS
 62
     7
 10
-470.321975708008
 20
-5.96784973144531
 30
0.0
 11
-470.321975708008
 21
-3.96784973144531
 31
0.0
  0
LINE
  5
   223
  8
0
  6
CONTINUOUS
 62
     7
 10
-434.321983337402
 20
-10.4678344726563
 30
0.0
 11
-439.321975708008
 21
-10.4678344726563
 31
0.0
  0
LINE
  5
   224
  8
0
  6
CONTINUOUS
 62
     7
 10
-439.321975708008
 20
-12.9678344726563
 30
0.0
 11
-439.321975708008
 21
-10.4678344726563
 31
0.0
  0
LINE
  5
   225
  8
0
  6
CONTINUOUS
 62
     7
 10
-470.321975708008
 20
-11.7178250122249
 30
0.0
 11
-470.321975708008
 21
-5.96784973144531
 31
0.0
  0
LINE
  5
   226
  8
0
  6
CONTINUOUS
 62
     2
 10
-470.321975708008
 20
58.5321197509766
 30
0.0
 11
-470.571960449219
 21
58.5321197509766
 31
0.0
  0
LINE
  5
   227
  8
0
  6
CONTINUOUS
 62
     7
 10
-470.321968078613
 20
23.2821502685547
 30
0.0
 11
-470.571960449219
 21
23.2821502685547
 31
0.0
  0
LINE
  5
   228
  8
0
  6
CONTINUOUS
 62
     7
 10
-470.321960449219
 20
7.28215217590332
 30
0.0
 11
-470.571960449219
 21
7.28215217590332
 31
0.0
  0
LINE
  5
   229
  8
0
  6
CONTINUOUS
 62
     7
 10
-469.821960449219
 20
3.53215074539185
 30
0.0
 11
-470.571960449219
 21
3.53215074539185
 31
0.0
  0
LINE
  5
   22A
  8
0
  6
CONTINUOUS
 62
     7
 10
-470.321975708008
 20
-4.46784210205078
 30
0.0
 11
-470.571960449219
 21
-4.46784210205078
 31
0.0
  0
LINE
  5
   22B
  8
0
  6
CONTINUOUS
 62
     2
 10
-470.571960449219
 20
-11.2678296972
 30
0.0
 11
-470.571960449219
 21
4.28214263916016
 31
0.0
  0
LINE
  5
   22C
  8
0
  6
CONTINUOUS
 62
     2
 10
-470.571960449219
 20
7.03214263916016
 30
0.0
 11
-470.571960449219
 21
58.532112121582
 31
0.0
  0
LINE
  5
   22D
  8
0
  6
CONTINUOUS
 62
     7
 10
-469.821960449219
 20
49.0321426391602
 30
0.0
 11
-469.821960449219
 21
56.5321197509766
 31
0.0
  0
LINE
  5
   22E
  8
0
  6
CONTINUOUS
 62
     7
 10
-469.821960449219
 20
31.5321655273438
 30
0.0
 11
-469.821960449219
 21
39.0321578979492
 31
0.0
  0
LINE
  5
   22F
  8
0
  6
CONTINUOUS
 62
     7
 10
-469.821960449219
 20
-3.21781158447266
 30
0.0
 11
-469.821960449219
 21
0.282188415527344
 31
0.0
  0
LINE
  5
   230
  8
0
  6
CONTINUOUS
 62
     2
 10
-470.371964353735
 20
-11.467825792684
 30
0.0
 11
-470.571961299672
 21
-11.267828846747
 31
0.0
  0
LINE
  5
   231
  8
0
  6
CONTINUOUS
 62
     2
 10
-470.321960449219
 20
66.5321197509766
 30
0.0
 11
-471.321960449219
 21
66.5321197509766
 31
0.0
  0
LINE
  5
   232
  8
0
  6
CONTINUOUS
 62
     2
 10
-470.321960449219
 20
72.0321197509766
 30
0.0
 11
-471.321960449219
 21
72.0321197509766
 31
0.0
  0
LINE
  5
   233
  8
0
  6
CONTINUOUS
 62
     2
 10
-470.321960449219
 20
70.6879425048828
 30
0.0
 11
-471.321960449219
 21
70.6879425048828
 31
0.0
  0
LINE
  5
   234
  8
0
  6
CONTINUOUS
 62
     2
 10
-470.321960449219
 20
68.8394317626953
 30
0.0
 11
-471.321960449219
 21
68.8394317626953
 31
0.0
  0
LINE
  5
   235
  8
0
  6
CONTINUOUS
 62
     7
 10
-435.821990966797
 20
32.7821176623344
 30
0.0
 11
-435.821990966797
 21
60.032140550518
 31
0.0
  0
LINE
  5
   236
  8
0
  6
CONTINUOUS
 62
     7
 10
-434.321975708008
 20
67.2821292114081
 30
0.0
 11
-434.321975708008
 21
67.7821368408027
 31
0.0
  0
LINE
  5
   237
  8
0
  6
CONTINUOUS
 62
     7
 10
-423.071975708008
 20
67.7821368408027
 30
0.0
 11
-423.221977233887
 21
67.7821368408027
 31
0.0
  0
LINE
  5
   238
  8
0
  6
CONTINUOUS
 62
     7
 10
-434.321975708008
 20
67.2821444701972
 30
0.0
 11
-435.821975708008
 21
67.2821444701972
 31
0.0
  0
LINE
  5
   239
  8
0
  6
CONTINUOUS
 62
     7
 10
-435.821975708008
 20
60.0321444701972
 30
0.0
 11
-435.821975708008
 21
67.2821444701972
 31
0.0
  0
LINE
  5
   23A
  8
0
  6
CONTINUOUS
 62
     7
 10
-434.321998596192
 20
-9.96784790040828
 30
0.0
 11
-434.321998596192
 21
-6.32954223634578
 31
0.0
  0
LINE
  5
   23B
  8
0
  6
CONTINUOUS
 62
     7
 10
-435.821983337402
 20
26.7821368408027
 30
0.0
 11
-435.821983337402
 21
32.7821215820136
 31
0.0
  0
LINE
  5
   23C
  8
0
  6
CONTINUOUS
 62
     7
 10
-435.821983337402
 20
25.5321215820136
 30
0.0
 11
-436.321983337402
 21
25.5321215820136
 31
0.0
  0
LINE
  5
   23D
  8
0
  6
CONTINUOUS
 62
     7
 10
-423.221992870694
 20
-11.4678326416086
 30
0.0
 11
-434.32199897421
 21
-11.4678326416086
 31
0.0
  0
LINE
  5
   23E
  8
0
  6
CONTINUOUS
 62
     7
 10
-434.321998596192
 20
-11.4678479004083
 30
0.0
 11
-434.321998596192
 21
-9.96784790040828
 31
0.0
  0
LINE
  5
   23F
  8
0
  6
CONTINUOUS
 62
     7
 10
-434.321990966797
 20
-6.32954223634578
 30
0.0
 11
-434.321990966797
 21
-2.84284329526653
 31
0.0
  0
LINE
  5
   240
  8
0
  6
CONTINUOUS
 62
     7
 10
-423.071998596191
 20
-12.9678555298028
 30
0.0
 11
-423.071998596191
 21
-11.4678555298028
 31
0.0
  0
LINE
  5
   241
  8
0
  6
CONTINUOUS
 62
     7
 10
-423.071998596191
 20
-11.4678555298028
 30
0.0
 11
-423.221992462874
 21
-11.4678555298028
 31
0.0
  0
LINE
  5
   242
  8
0
  6
CONTINUOUS
 62
     7
 10
-436.321983337402
 20
25.5321215820136
 30
0.0
 11
-438.321983337402
 21
25.5321215820136
 31
0.0
  0
LINE
  5
   243
  8
0
  6
CONTINUOUS
 62
     7
 10
-435.821983337402
 20
25.5321215820136
 30
0.0
 11
-435.821983337402
 21
26.7821368408027
 31
0.0
  0
LINE
  5
   244
  8
0
  6
CONTINUOUS
 62
     7
 10
-423.221994571853
 20
-2.84283264161062
 30
0.0
 11
-434.321993045974
 21
-2.84283264161062
 31
0.0
  0
LINE
  5
   245
  8
0
  6
CONTINUOUS
 62
     7
 10
-423.221998249084
 20
2.90716735838802
 30
0.0
 11
-434.321996723205
 21
2.90716735838802
 31
0.0
  0
LINE
  5
   246
  8
0
  6
CONTINUOUS
 62
     7
 10
-433.672478243135
 20
-9.59283934207869
 30
0.0
 11
-433.571999132901
 21
-9.21783934725585
 31
0.0
  0
LINE
  5
   247
  8
0
  6
CONTINUOUS
 62
     7
 10
-433.946993925251
 20
-9.8673638748083
 30
0.0
 11
-433.67248069875
 21
-9.59284301208917
 31
0.0
  0
LINE
  5
   248
  8
0
  6
CONTINUOUS
 62
     7
 10
-434.32200723889
 20
-9.9678361825683
 30
0.0
 11
-433.946999624616
 21
-9.86735706468692
 31
0.0
  0
LINE
  5
   249
  8
0
  6
CONTINUOUS
 62
     7
 10
-433.946995446733
 20
-4.06832593816129
 30
0.0
 11
-434.321995443983
 21
-3.96783919163403
 31
0.0
  0
LINE
  5
   24A
  8
0
  6
CONTINUOUS
 62
     7
 10
-433.672482856392
 20
-4.34284336687028
 30
0.0
 11
-433.946996086712
 21
-4.06833013655029
 31
0.0
  0
LINE
  5
   24B
  8
0
  6
CONTINUOUS
 62
     7
 10
-433.572004322823
 20
-4.71784267170417
 30
0.0
 11
-433.67249106935
 21
-4.34284267445382
 31
0.0
  0
LINE
  5
   24C
  8
0
  6
CONTINUOUS
 62
     7
 10
-433.572002834727
 20
-9.21784493104301
 30
0.0
 11
-433.571995205332
 21
-4.71784493104301
 31
0.0
  0
LINE
  5
   24D
  8
0
  6
CONTINUOUS
 62
     7
 10
-423.221992492677
 20
-11.4678555298028
 30
0.0
 11
-423.221992492677
 21
67.78213058441
 31
0.0
  0
LINE
  5
   24E
  8
0
  6
CONTINUOUS
 62
     7
 10
-423.221969604492
 20
78.6321429443183
 30
0.0
 11
-470.321957864264
 21
78.6321429443183
 31
0.0
  0
LINE
  5
   24F
  8
0
  6
CONTINUOUS
 62
     7
 10
-423.222023010261
 20
67.7821333953196
 30
0.0
 11
-423.222023010261
 21
78.6321394988352
 31
0.0
  0
LINE
  5
   250
  8
0
  6
CONTINUOUS
 62
     7
 10
-434.321975708008
 20
67.7821444701972
 30
0.0
 11
-434.321975708008
 21
78.6321429443183
 31
0.0
  0
LINE
  5
   251
  8
0
  6
CONTINUOUS
 62
     7
 10
-415.071968078613
 20
-8.84282501222468
 30
0.0
 11
-415.071968078613
 21
0.657150268554688
 31
0.0
  0
LINE
  5
   252
  8
0
  6
CONTINUOUS
 62
     7
 10
-415.071968078613
 20
42.5321597289862
 30
0.0
 11
-415.071968078613
 21
42.6571597289862
 31
0.0
  0
LINE
  5
   253
  8
0
  6
CONTINUOUS
 62
     7
 10
-417.821968078613
 20
43.6571597289862
 30
0.0
 11
-419.571968078613
 21
43.6571597289862
 31
0.0
  0
LINE
  5
   254
  8
0
  6
CONTINUOUS
 62
     7
 10
-417.821968078613
 20
-8.84282501222468
 30
0.0
 11
-419.571968078613
 21
-8.84282501222468
 31
0.0
  0
LINE
  5
   255
  8
0
  6
CONTINUOUS
 62
     7
 10
-423.071968078613
 20
-16.9678250122247
 30
0.0
 11
-423.071968078613
 21
-11.4678555298028
 31
0.0
  0
LINE
  5
   256
  8
0
  6
CONTINUOUS
 62
     7
 10
-420.571968078613
 20
-16.9678250122247
 30
0.0
 11
-420.571968078613
 21
-8.84282501222468
 31
0.0
  0
LINE
  5
   257
  8
0
  6
CONTINUOUS
 62
     7
 10
-420.571968078613
 20
43.6571597289862
 30
0.0
 11
-420.571968078613
 21
67.7821597289863
 31
0.0
  0
LINE
  5
   258
  8
0
  6
CONTINUOUS
 62
     7
 10
-420.571968078613
 20
67.7821597289863
 30
0.0
 11
-423.071968078613
 21
67.7821597289863
 31
0.0
  0
LINE
  5
   259
  8
0
  6
CONTINUOUS
 62
     7
 10
-420.571968078613
 20
-16.9678250122247
 30
0.0
 11
-423.071968078613
 21
-16.9678250122247
 31
0.0
  0
LINE
  5
   25A
  8
0
  6
CONTINUOUS
 62
     7
 10
-419.571968078613
 20
-8.84282501222468
 30
0.0
 11
-419.571968078613
 21
43.6571597289862
 31
0.0
  0
LINE
  5
   25B
  8
0
  6
CONTINUOUS
 62
     7
 10
-419.571968078613
 20
-8.84282501222468
 30
0.0
 11
-420.571968078613
 21
-8.84282501222468
 31
0.0
  0
LINE
  5
   25C
  8
0
  6
CONTINUOUS
 62
     7
 10
-419.571968078613
 20
43.6571597289862
 30
0.0
 11
-420.571968078613
 21
43.6571597289862
 31
0.0
  0
LINE
  5
   25D
  8
0
  6
CONTINUOUS
 62
     7
 10
-423.222004072791
 20
3.18213679240584
 30
0.0
 11
-423.072002553867
 21
3.19525934939323
 31
0.0
  0
LINE
  5
   25E
  8
0
  6
CONTINUOUS
 62
     7
 10
-423.071976767832
 20
-3.13097592314956
 30
0.0
 11
-423.22197829095
 21
-3.11784573674319
 31
0.0
  0
LINE
  5
   25F
  8
0
  6
CONTINUOUS
 62
     7
 10
-434.321990966797
 20
2.90715670473482
 30
0.0
 11
-434.321990966797
 21
4.28213684080266
 31
0.0
  0
LINE
  5
   260
  8
0
  6
CONTINUOUS
 62
   218
 10
-423.221970081329
 20
-45.5678253936946
 30
0.0
 11
-470.321960926056
 21
-45.5678253936946
 31
0.0
  0
LINE
  5
   261
  8
0
  6
CONTINUOUS
 62
   218
 10
-421.821960926056
 20
-46.9678250122247
 30
0.0
 11
-470.321960926056
 21
-46.9678250122247
 31
0.0
  0
LINE
  5
   262
  8
0
  6
CONTINUOUS
 62
     2
 10
-469.321960449219
 20
-11.7178250122249
 30
0.0
 11
-471.321960449219
 21
-11.7178250122249
 31
0.0
  0
LINE
  5
   263
  8
0
  6
CONTINUOUS
 62
     7
 10
-423.221961975098
 20
-11.7178250122249
 30
0.0
 11
-431.821968078613
 21
-11.7178250122249
 31
0.0
  0
LINE
  5
   264
  8
0
  6
CONTINUOUS
 62
   218
 10
-421.821960449219
 20
-46.9678250122249
 30
0.0
 11
-421.821960449219
 21
-34.9678326416195
 31
0.0
  0
LINE
  5
   265
  8
0
  6
CONTINUOUS
 62
     2
 10
-469.321960449219
 20
-12.9678250122249
 30
0.0
 11
-469.321960449219
 21
-11.7178250122249
 31
0.0
  0
LINE
  5
   266
  8
0
  6
CONTINUOUS
 62
   218
 10
-423.221966076114
 20
-32.9678326420672
 30
0.0
 11
-423.071968078651
 21
-32.9678308814654
 31
0.0
  0
LINE
  5
   267
  8
0
  6
CONTINUOUS
 62
   218
 10
-421.071968078613
 20
-34.9678326416195
 30
0.0
 11
-423.221961975098
 21
-34.9678326416195
 31
0.0
  0
LINE
  5
   268
  8
0
  6
CONTINUOUS
 62
   218
 10
-423.221961975098
 20
-45.567823486346
 30
0.0
 11
-423.221961975098
 21
-32.9678250122249
 31
0.0
  0
LINE
  5
   269
  8
0
  6
CONTINUOUS
 62
   218
 10
-423.221961975098
 20
-32.9678250122249
 30
0.0
 11
-423.221961975098
 21
-11.7178250122249
 31
0.0
  0
LINE
  5
   26A
  8
0
  6
CONTINUOUS
 62
     7
 10
-423.071968078613
 20
-17.4678250122249
 30
0.0
 11
-423.221961975098
 21
-17.4678250122249
 31
0.0
  0
LINE
  5
   26B
  8
0
  6
CONTINUOUS
 62
   218
 10
-471.321960449055
 20
-29.9678326411247
 30
0.0
 11
-470.321960925915
 21
-29.9678250117302
 31
0.0
  0
LINE
  5
   26C
  8
0
  6
CONTINUOUS
 62
   218
 10
-470.321960926056
 20
-48.2178250122247
 30
0.0
 11
-470.321960926056
 21
-29.9678326416192
 31
0.0
  0
LINE
  5
   26D
  8
0
  6
CONTINUOUS
 62
   218
 10
-470.321960449219
 20
-35.3428326416195
 30
0.0
 11
-471.321960449219
 21
-35.3428326416195
 31
0.0
  0
LINE
  5
   26E
  8
0
  6
CONTINUOUS
 62
     7
 10
-434.321973799582
 20
-11.7178250099696
 30
0.0
 11
-434.321966170188
 21
-10.7178250099468
 31
0.0
  0
LINE
  5
   26F
  8
0
  6
CONTINUOUS
 62
     7
 10
-434.321960449219
 20
-10.7178250122249
 30
0.0
 11
-439.321960449219
 21
-10.7178250122249
 31
0.0
  0
LINE
  5
   270
  8
0
  6
CONTINUOUS
 62
     7
 10
-431.821968078613
 20
-11.7178250122249
 30
0.0
 11
-434.321968078613
 21
-11.7178250122249
 31
0.0
  0
LINE
  5
   271
  8
0
  6
CONTINUOUS
 62
   218
 10
-470.321960449219
 20
-39.7016282844722
 30
0.0
 11
-471.321960449219
 21
-39.7016282844722
 31
0.0
  0
LINE
  5
   272
  8
0
  6
CONTINUOUS
 62
   218
 10
-470.321960449219
 20
-38.4751339721859
 30
0.0
 11
-471.321960449219
 21
-38.4751339721859
 31
0.0
  0
LINE
  5
   273
  8
0
  6
CONTINUOUS
 62
   218
 10
-470.321960449219
 20
-35.4067211914241
 30
0.0
 11
-471.321960449219
 21
-35.4067211914241
 31
0.0
  0
LINE
  5
   274
  8
0
  6
CONTINUOUS
 62
     7
 10
-420.571968078613
 20
-17.2178250122247
 30
0.0
 11
-423.071968078613
 21
-17.2178250122247
 31
0.0
  0
LINE
  5
   275
  8
0
  6
CONTINUOUS
 62
     7
 10
-420.571968078613
 20
-34.7178250122247
 30
0.0
 11
-423.071968078613
 21
-34.7178250122247
 31
0.0
  0
LINE
  5
   276
  8
0
  6
CONTINUOUS
 62
     7
 10
-420.571968078613
 20
-34.7178250122247
 30
0.0
 11
-420.571968078613
 21
-17.2178250122247
 31
0.0
  0
LINE
  5
   277
  8
0
  6
CONTINUOUS
 62
     7
 10
-421.571968078613
 20
-34.7178250122247
 30
0.0
 11
-421.571968078613
 21
-17.2178250122247
 31
0.0
  0
LINE
  5
   278
  8
0
  6
CONTINUOUS
 62
     7
 10
-423.071968078613
 20
-34.7178250122247
 30
0.0
 11
-423.071968078613
 21
-17.2178250122247
 31
0.0
  0
ARC
  5
   279
  8
0
  6
CONTINUOUS
 62
     7
 10
-404.734441693357
 20
6.38523425524384
 30
0.0
 40
0.499999897877905
 50
348.623573369035
 51
436.688788706936
  0
ARC
  5
   27A
  8
0
  6
CONTINUOUS
 62
     7
 10
-405.332813893275
 20
3.41132527124499
 30
0.0
 40
0.50000037262337
 50
260.593992196011
 51
348.623573369035
  0
LINE
  5
   27B
  8
0
  6
DASHDOT
 62
     7
 10
-397.334149367583
 20
3.33090361734659
 30
0.0
 11
-422.392492602037
 21
8.37282378524483
 31
0.0
  0
LINE
  5
   27C
  8
0
  6
CONTINUOUS
 62
     7
 10
-404.61932172101
 20
6.87180072494253
 30
0.0
 11
-415.071968078614
 21
9.34486131291438
 31
0.0
  0
LINE
  5
   27D
  8
0
  6
CONTINUOUS
 62
     7
 10
-404.842637448395
 20
3.31269821996122
 30
0.0
 11
-404.24426541277
 21
6.28660723701707
 31
0.0
  0
LINE
  5
   27E
  8
0
  6
CONTINUOUS
 62
     7
 10
-405.414528631868
 20
2.91804754837359
 30
0.0
 11
-415.071968078613
 21
4.51786668327488
 31
0.0
  0
LINE
  5
   27F
  8
0
  6
CONTINUOUS
 62
     7
 10
-468.821992492677
 20
-2.71784973144531
 30
0.0
 11
-468.821992492677
 21
2.78215026855469
 31
0.0
  0
LINE
  5
   280
  8
0
  6
CONTINUOUS
 62
     2
 10
-470.321963568675
 20
70.6879425048828
 30
0.0
 11
-470.321955961398
 21
81.2821520995836
 31
0.0
  0
ARC
  5
   281
  8
0
  6
CONTINUOUS
 62
     7
 10
-441.821968078613
 20
12.2821749877753
 30
0.0
 40
38.0220413050115
 50
333.082565820193
 51
379.93594827737
  0
LINE
  5
   282
  8
0
  6
CONTINUOUS
 62
     7
 10
-403.799926773602
 20
12.2821749877753
 30
0.0
 11
-403.799926773602
 21
33.9568145032076
 31
0.0
  0
LINE
  5
   283
  8
0
  6
CONTINUOUS
 62
     7
 10
-439.321975708008
 20
-12.9678344726557
 30
0.0
 11
-469.321960449219
 21
-12.9678344726557
 31
0.0
  0
LINE
  5
   284
  8
0
  6
CONTINUOUS
 62
     7
 10
-415.071968078613
 20
24.4071502685547
 30
0.0
 11
-415.071968078613
 21
43.6571597289862
 31
0.0
  0
LINE
  5
   285
  8
0
  6
CONTINUOUS
 62
     7
 10
-415.071968078613
 20
17.9071502685547
 30
0.0
 11
-415.071968078613
 21
23.9071502685547
 31
0.0
  0
LINE
  5
   286
  8
0
  6
CONTINUOUS
 62
     7
 10
-415.071968078613
 20
7.65715590964363
 30
0.0
 11
-415.071968078613
 21
17.4071502685547
 31
0.0
  0
LINE
  5
   287
  8
0
  6
CONTINUOUS
 62
     7
 10
-415.071968078613
 20
1.15715026855469
 30
0.0
 11
-415.071968078613
 21
7.15715590964368
 31
0.0
  0
LINE
  5
   288
  8
0
  6
CONTINUOUS
 62
     7
 10
-471.321960449219
 20
66.5321197509766
 30
0.0
 11
-471.321960449219
 21
72.0321197509766
 31
0.0
  0
LINE
  5
   289
  8
0
  6
CONTINUOUS
 62
     7
 10
-471.321960449219
 20
4.28215026855468
 30
0.0
 11
-471.321960449219
 21
7.03215026855468
 31
0.0
  0
LINE
  5
   28A
  8
0
  6
CONTINUOUS
 62
     7
 10
-471.321960448987
 20
-29.9678326411247
 30
0.0
 11
-471.321960448987
 21
-11.7178250122249
 31
0.0
  0
LINE
  5
   28B
  8
0
  6
CONTINUOUS
 62
     7
 10
-471.321960449219
 20
-39.7016282844722
 30
0.0
 11
-471.321960449219
 21
-35.4067211914241
 31
0.0
  0
LINE
  5
   28C
  8
0
  6
CONTINUOUS
 62
     3
 10
-495.071960449219
 20
60.1259994506836
 30
0.0
 11
-495.821960449219
 21
60.1259994506836
 31
0.0
  0
LINE
  5
   28D
  8
0
  6
CONTINUOUS
 62
     3
 10
-495.071960449219
 20
-26.8740005493164
 30
0.0
 11
-495.821960449219
 21
-26.8740005493164
 31
0.0
  0
LINE
  5
   28E
  8
0
  6
CONTINUOUS
 62
     3
 10
-495.071960449219
 20
-26.8740005493164
 30
0.0
 11
-495.071960449219
 21
60.1259994506836
 31
0.0
  0
LINE
  5
   28F
  8
0
  6
CONTINUOUS
 62
     3
 10
-495.821960449219
 20
-26.8740005493164
 30
0.0
 11
-495.821960449219
 21
60.1259994506836
 31
0.0
  0
LINE
  5
   290
  8
0
  6
CONTINUOUS
 62
     2
 10
-471.321960449219
 20
80.0321426391602
 30
0.0
 11
-489.821952819824
 21
80.0321426391602
 31
0.0
  0
LINE
  5
   291
  8
0
  6
CONTINUOUS
 62
     2
 10
-471.321960449219
 20
-46.9678649902344
 30
0.0
 11
-489.821952819824
 21
-46.9678649902344
 31
0.0
  0
LINE
  5
   292
  8
0
  6
CONTINUOUS
 62
     2
 10
-471.321960449219
 20
78.6321411132813
 30
0.0
 11
-471.321960449219
 21
80.0321426391602
 31
0.0
  0
LINE
  5
   293
  8
0
  6
CONTINUOUS
 62
     2
 10
-471.321960449219
 20
-37.9678039550781
 30
0.0
 11
-471.321960449219
 21
71.0321502685547
 31
0.0
  0
LINE
  5
   294
  8
0
  6
CONTINUOUS
 62
     2
 10
-471.321960449219
 20
-46.9678649902344
 30
0.0
 11
-471.321960449219
 21
-45.5677871704102
 31
0.0
  0
LINE
  5
   295
  8
0
  6
CONTINUOUS
 62
     2
 10
-493.071952819824
 20
-1.46787261962891
 30
0.0
 11
-493.071952819824
 21
3.21426391601563E-2
 31
0.0
  0
LINE
  5
   296
  8
0
  6
CONTINUOUS
 62
     2
 10
-489.821952819824
 20
-46.9678649902344
 30
0.0
 11
-489.821952819824
 21
-45.9678497314453
 31
0.0
  0
LINE
  5
   297
  8
0
  6
CONTINUOUS
 62
     7
 10
-489.821952819824
 20
-37.9678649902344
 30
0.0
 11
-489.821952819824
 21
-29.9678502082825
 31
0.0
  0
LINE
  5
   298
  8
0
  6
CONTINUOUS
 62
     2
 10
-489.821952819824
 20
34.5321426391602
 30
0.0
 11
-493.071952819824
 21
34.5321426391602
 31
0.0
  0
LINE
  5
   299
  8
0
  6
CONTINUOUS
 62
     2
 10
-489.821952819824
 20
34.5321426391602
 30
0.0
 11
-489.821952819824
 21
46.5321426391602
 31
0.0
  0
LINE
  5
   29A
  8
0
  6
CONTINUOUS
 62
     2
 10
-496.071952819824
 20
46.5321426391602
 30
0.0
 11
-496.071952819824
 21
54.0321426391602
 31
0.0
  0
LINE
  5
   29B
  8
0
  6
CONTINUOUS
 62
     2
 10
-496.071952819824
 20
-20.9678573608398
 30
0.0
 11
-496.071952819824
 21
-13.4678573608398
 31
0.0
  0
LINE
  5
   29C
  8
0
  6
CONTINUOUS
 62
     2
 10
-495.321952819824
 20
63.0321426391602
 30
0.0
 11
-495.321952819824
 21
79.0321426391602
 31
0.0
  0
LINE
  5
   29D
  8
0
  6
CONTINUOUS
 62
     2
 10
-495.321952819824
 20
-45.9678497314453
 30
0.0
 11
-495.321952819824
 21
-29.9678573608398
 31
0.0
  0
LINE
  5
   29E
  8
0
  6
CONTINUOUS
 62
     2
 10
-493.071952819824
 20
3.21426391601563E-2
 30
0.0
 11
-495.071952819824
 21
3.21426391601563E-2
 31
0.0
  0
LINE
  5
   29F
  8
0
  6
CONTINUOUS
 62
     2
 10
-493.071952819824
 20
3.53214263916016
 30
0.0
 11
-495.071952819824
 21
3.53214263916016
 31
0.0
  0
LINE
  5
   2A0
  8
0
  6
CONTINUOUS
 62
     2
 10
-489.821952819824
 20
-4.96787261962891
 30
0.0
 11
-493.071952819824
 21
-4.96787261962891
 31
0.0
  0
LINE
  5
   2A1
  8
0
  6
CONTINUOUS
 62
     2
 10
-493.071952819824
 20
-4.96787261962891
 30
0.0
 11
-493.071952819824
 21
-1.46787261962891
 31
0.0
  0
LINE
  5
   2A2
  8
0
  6
CONTINUOUS
 62
     7
 10
-471.821945151035
 20
2.78213518927783
 30
0.0
 11
-493.071952780429
 21
2.78214281867223
 31
0.0
  0
LINE
  5
   2A3
  8
0
  6
CONTINUOUS
 62
     7
 10
-471.821948194788
 20
2.78212228310769
 30
0.0
 11
-471.32196351112
 21
3.28212989448493
 31
0.0
  0
LINE
  5
   2A4
  8
0
  6
CONTINUOUS
 62
     7
 10
-471.82194519043
 20
-2.71784973144531
 30
0.0
 11
-493.071952819824
 21
-2.71784973144531
 31
0.0
  0
LINE
  5
   2A5
  8
0
  6
CONTINUOUS
 62
     7
 10
-471.321959802123
 20
-3.21786189110905
 30
0.0
 11
-471.821944485791
 21
-2.71785427973181
 31
0.0
  0
LINE
  5
   2A6
  8
0
  6
CONTINUOUS
 62
     7
 10
-471.321960449217
 20
78.6321487426758
 30
0.0
 11
-489.821952819822
 21
78.6321487426758
 31
0.0
  0
LINE
  5
   2A7
  8
0
  6
CONTINUOUS
 62
     2
 10
-471.321960449232
 20
71.0321426391602
 30
0.0
 11
-471.321960449232
 21
78.6321487426758
 31
0.0
  0
LINE
  5
   2A8
  8
0
  6
CONTINUOUS
 62
     7
 10
-489.821952819824
 20
71.0321426391602
 30
0.0
 11
-489.821952819824
 21
78.6321487426758
 31
0.0
  0
LINE
  5
   2A9
  8
0
  6
CONTINUOUS
 62
     7
 10
-471.321960449216
 20
-45.5678496360779
 30
0.0
 11
-489.821952819822
 21
-45.5678496360779
 31
0.0
  0
LINE
  5
   2AA
  8
0
  6
CONTINUOUS
 62
     2
 10
-471.321960449218
 20
-45.5678496360779
 30
0.0
 11
-471.321960449218
 21
-37.9678611755371
 31
0.0
  0
LINE
  5
   2AB
  8
0
  6
CONTINUOUS
 62
     7
 10
-489.821952819824
 20
-45.5678496360779
 30
0.0
 11
-489.821952819824
 21
-37.9678611755371
 31
0.0
  0
LINE
  5
   2AC
  8
0
  6
CONTINUOUS
 62
     2
 10
-489.821952819824
 20
54.0321426391602
 30
0.0
 11
-495.071952819824
 21
54.0321426391602
 31
0.0
  0
LINE
  5
   2AD
  8
0
  6
CONTINUOUS
 62
     2
 10
-495.821952819824
 20
54.0321426391602
 30
0.0
 11
-496.071952819824
 21
54.0321426391602
 31
0.0
  0
LINE
  5
   2AE
  8
0
  6
CONTINUOUS
 62
     2
 10
-489.821952819824
 20
46.5321426391602
 30
0.0
 11
-495.071952819824
 21
46.5321426391602
 31
0.0
  0
LINE
  5
   2AF
  8
0
  6
CONTINUOUS
 62
     2
 10
-495.821952819824
 20
46.5321426391602
 30
0.0
 11
-496.071952819824
 21
46.5321426391602
 31
0.0
  0
LINE
  5
   2B0
  8
0
  6
CONTINUOUS
 62
     2
 10
-489.821952819824
 20
-13.4678573608398
 30
0.0
 11
-495.071952819824
 21
-13.4678573608398
 31
0.0
  0
LINE
  5
   2B1
  8
0
  6
CONTINUOUS
 62
     2
 10
-495.821952819824
 20
-13.4678573608398
 30
0.0
 11
-496.071952819824
 21
-13.4678573608398
 31
0.0
  0
LINE
  5
   2B2
  8
0
  6
CONTINUOUS
 62
     2
 10
-489.821952819824
 20
-20.9678573608398
 30
0.0
 11
-495.071952819824
 21
-20.9678573608398
 31
0.0
  0
LINE
  5
   2B3
  8
0
  6
CONTINUOUS
 62
     2
 10
-495.821952819824
 20
-20.9678573608398
 30
0.0
 11
-496.071952819824
 21
-20.9678573608398
 31
0.0
  0
LINE
  5
   2B4
  8
0
  6
CONTINUOUS
 62
     2
 10
-489.821952819824
 20
79.0321426391602
 30
0.0
 11
-491.821952819824
 21
79.0321426391602
 31
0.0
  0
LINE
  5
   2B5
  8
0
  6
CONTINUOUS
 62
     2
 10
-489.821952819824
 20
63.0321426391602
 30
0.0
 11
-491.821952819824
 21
63.0321426391602
 31
0.0
  0
LINE
  5
   2B6
  8
0
  6
CONTINUOUS
 62
     2
 10
-489.821952819824
 20
-45.9678497314453
 30
0.0
 11
-491.821952819824
 21
-45.9678497314453
 31
0.0
  0
LINE
  5
   2B7
  8
0
  6
CONTINUOUS
 62
     2
 10
-489.821952819824
 20
-29.9678502082825
 30
0.0
 11
-491.821952819824
 21
-29.9678502082825
 31
0.0
  0
LINE
  5
   2B8
  8
0
  6
DASHDOT
 62
     7
 10
-482.548421499221
 20
50.2821426391601
 30
0.0
 11
-506.725349381571
 21
50.2821426391601
 31
0.0
  0
LINE
  5
   2B9
  8
0
  6
DASHDOT
 62
     7
 10
-482.876311139628
 20
-17.2178573608398
 30
0.0
 11
-506.612284446081
 21
-17.2178573608398
 31
0.0
  0
LINE
  5
   2BA
  8
0
  6
CONTINUOUS
 62
     2
 10
-491.821952819824
 20
-45.9678497314453
 30
0.0
 11
-495.321952819824
 21
-45.9678497314453
 31
0.0
  0
LINE
  5
   2BB
  8
0
  6
CONTINUOUS
 62
     7
 10
-489.821952819824
 20
-45.9678497314453
 30
0.0
 11
-489.821952819824
 21
-45.5678491592407
 31
0.0
  0
LINE
  5
   2BC
  8
0
  6
CONTINUOUS
 62
     2
 10
-489.821952819824
 20
-29.9678502082825
 30
0.0
 11
-489.821952819824
 21
-20.9678573608398
 31
0.0
  0
LINE
  5
   2BD
  8
0
  6
CONTINUOUS
 62
     2
 10
-491.821952819824
 20
-29.9678502082825
 30
0.0
 11
-495.321952819824
 21
-29.9678502082825
 31
0.0
  0
LINE
  5
   2BE
  8
0
  6
CONTINUOUS
 62
     7
 10
-489.821952819824
 20
-20.9678573608398
 30
0.0
 11
-489.821952819824
 21
-13.4678573608398
 31
0.0
  0
LINE
  5
   2BF
  8
0
  6
CONTINUOUS
 62
     2
 10
-489.821952819824
 20
-13.4678573608398
 30
0.0
 11
-489.821952819824
 21
-4.96787261962891
 31
0.0
  0
LINE
  5
   2C0
  8
0
  6
CONTINUOUS
 62
     7
 10
-489.821952819824
 20
-4.96787261962891
 30
0.0
 11
-489.821952819824
 21
-3.21784973144531
 31
0.0
  0
LINE
  5
   2C1
  8
0
  6
CONTINUOUS
 62
     7
 10
-493.071952819824
 20
3.21426391601563E-2
 30
0.0
 11
-493.071952819824
 21
3.53214263916016
 31
0.0
  0
LINE
  5
   2C2
  8
0
  6
CONTINUOUS
 62
     2
 10
-493.071952819824
 20
3.53214263916016
 30
0.0
 11
-493.071952819824
 21
34.5321426391602
 31
0.0
  0
LINE
  5
   2C3
  8
0
  6
CONTINUOUS
 62
     7
 10
-489.821952819824
 20
46.5321426391602
 30
0.0
 11
-489.821952819824
 21
54.0321426391602
 31
0.0
  0
LINE
  5
   2C4
  8
0
  6
CONTINUOUS
 62
     2
 10
-489.821952819824
 20
54.0321426391602
 30
0.0
 11
-489.821952819824
 21
63.0321426391602
 31
0.0
  0
LINE
  5
   2C5
  8
0
  6
CONTINUOUS
 62
     7
 10
-489.821952819824
 20
63.0321426391602
 30
0.0
 11
-489.821952819824
 21
71.0321578979492
 31
0.0
  0
LINE
  5
   2C6
  8
0
  6
CONTINUOUS
 62
     2
 10
-491.821952819824
 20
63.0321426391602
 30
0.0
 11
-495.321952819824
 21
63.0321426391602
 31
0.0
  0
LINE
  5
   2C7
  8
0
  6
CONTINUOUS
 62
     2
 10
-489.821952819824
 20
79.0321426391602
 30
0.0
 11
-489.821952819824
 21
80.0321426391602
 31
0.0
  0
LINE
  5
   2C8
  8
0
  6
CONTINUOUS
 62
     2
 10
-491.821952819824
 20
79.0321426391602
 30
0.0
 11
-495.321952819824
 21
79.0321426391602
 31
0.0
  0
LINE
  5
   2C9
  8
0
  6
DASHDOT
 62
     7
 10
-496.071952819824
 20
54.0321426391602
 30
0.0
 11
-496.071952819824
 21
94.1622991986958
 31
0.0
  0
LINE
  5
   2CA
  8
0
  6
CONTINUOUS
 62
     7
 10
-496.071952819824
 20
-13.4678573608398
 30
0.0
 11
-496.071952819824
 21
46.5321426391601
 31
0.0
  0
LINE
  5
   2CB
  8
0
  6
DASHDOT
 62
     7
 10
-496.071952819824
 20
-66.5812826735677
 30
0.0
 11
-496.071952819824
 21
-20.9678573608398
 31
0.0
  0
LINE
  5
   2CC
  8
0
  6
DASHDOT
 62
     7
 10
-497.571952819824
 20
-66.1498489361897
 30
0.0
 11
-497.571952819824
 21
94.0501264269776
 31
0.0
  0
LINE
  5
   2CD
  8
0
  6
CONTINUOUS
 62
     7
 10
-501.574649317587
 20
93.6100640148521
 30
0.0
 11
-492.920088545786
 21
94.3780160673848
 31
0.0
  0
LINE
  5
   2CE
  8
0
  6
CONTINUOUS
 62
     7
 10
-492.609456254874
 20
-67.8755838857014
 30
0.0
 11
-501.091443531724
 21
-65.1575513402205
 31
0.0
  0
LINE
  5
   2CF
  8
0
  6
CONTINUOUS
 62
     2
 10
-495.321960449219
 20
-45.9678573608398
 30
0.0
 11
-495.321960449219
 21
-37.9678573608398
 31
0.0
  0
LINE
  5
   2D0
  8
0
  6
CONTINUOUS
 62
     2
 10
-495.321960449219
 20
-9.09285736083984
 30
0.0
 11
-495.321960449219
 21
-8.09285736083984
 31
0.0
  0
LINE
  5
   2D1
  8
0
  6
CONTINUOUS
 62
     2
 10
-495.321960449219
 20
-37.9678573608398
 30
0.0
 11
-495.321960449219
 21
-29.9678573608398
 31
0.0
  0
LINE
  5
   2D2
  8
0
  6
CONTINUOUS
 62
   253
 10
-513.221960449219
 20
77.0321426391602
 30
0.0
 11
-517.581313539819
 21
77.0321426391602
 31
0.0
  0
LINE
  5
   2D3
  8
0
  6
CONTINUOUS
 62
   253
 10
-513.221960449219
 20
65.0321426391602
 30
0.0
 11
-517.581313539819
 21
65.0321426391602
 31
0.0
  0
LINE
  5
   2D4
  8
0
  6
CONTINUOUS
 62
   253
 10
-528.321960449219
 20
-43.4678573608398
 30
0.0
 11
-528.321960449219
 21
-32.4678573608398
 31
0.0
  0
ARC
  5
   2D5
  8
0
  6
CONTINUOUS
 62
   253
 10
-527.821960449219
 20
-32.4678573608398
 30
0.0
 40
0.5
 50
449.999999948034
 51
539.999999948034
  0
ARC
  5
   2D6
  8
0
  6
CONTINUOUS
 62
   253
 10
-527.821960449219
 20
-43.4678573608398
 30
0.0
 40
0.5
 50
179.999999948034
 51
269.999999948034
  0
LINE
  5
   2D7
  8
0
  6
CONTINUOUS
 62
   253
 10
-503.321960449219
 20
-44.4678573608398
 30
0.0
 11
-503.321960449219
 21
-31.4678573608398
 31
0.0
  0
LINE
  5
   2D8
  8
0
  6
CONTINUOUS
 62
   212
 10
-550.071952819824
 20
-40.9678573608398
 30
0.0
 11
-550.071952819824
 21
-34.9678573608398
 31
0.0
  0
LINE
  5
   2D9
  8
0
  6
CONTINUOUS
 62
   212
 10
-538.221960449219
 20
-33.9678573608398
 30
0.0
 11
-542.581313539819
 21
-33.9678573608398
 31
0.0
  0
LINE
  5
   2DA
  8
0
  6
CONTINUOUS
 62
   212
 10
-538.221960449219
 20
-41.9678573608398
 30
0.0
 11
-542.581313539819
 21
-41.9678573608398
 31
0.0
  0
LINE
  5
   2DB
  8
0
  6
CONTINUOUS
 62
   212
 10
-550.071952819824
 20
-34.9678573608399
 30
0.0
 11
-549.071952819824
 21
-33.9678573608398
 31
0.0
  0
LINE
  5
   2DC
  8
0
  6
CONTINUOUS
 62
   212
 10
-549.071952819824
 20
-41.9678573608398
 30
0.0
 11
-550.071952819824
 21
-40.9678573608398
 31
0.0
  0
LINE
  5
   2DD
  8
0
  6
CONTINUOUS
 62
   212
 10
-549.071952819824
 20
-41.9678573608398
 30
0.0
 11
-549.071952819824
 21
-33.9678573608398
 31
0.0
  0
LINE
  5
   2DE
  8
0
  6
CONTINUOUS
 62
   212
 10
-538.221960449219
 20
-34.4678573608398
 30
0.0
 11
-542.581313539819
 21
-34.4678573608398
 31
0.0
  0
LINE
  5
   2DF
  8
0
  6
CONTINUOUS
 62
   212
 10
-538.221960449219
 20
-41.4678573608398
 30
0.0
 11
-542.581313539819
 21
-41.4678573608398
 31
0.0
  0
LINE
  5
   2E0
  8
0
  6
CONTINUOUS
 62
     7
 10
-528.721960449219
 20
-44.6553573608398
 30
0.0
 11
-528.721960449219
 21
-31.2803573608398
 31
0.0
  0
LINE
  5
   2E1
  8
0
  6
CONTINUOUS
 62
     7
 10
-528.321960449219
 20
-31.4678573608398
 30
0.0
 11
-528.721960449219
 21
-31.4678573608398
 31
0.0
  0
LINE
  5
   2E2
  8
0
  6
CONTINUOUS
 62
     7
 10
-528.321960449219
 20
-44.4678573608398
 30
0.0
 11
-528.721960449219
 21
-44.4678573608398
 31
0.0
  0
LINE
  5
   2E3
  8
0
  6
CONTINUOUS
 62
     7
 10
-528.321960449219
 20
-44.4678573608398
 30
0.0
 11
-528.321960449219
 21
-31.4678573608398
 31
0.0
  0
LINE
  5
   2E4
  8
0
  6
CONTINUOUS
 62
   253
 10
-495.321960449219
 20
-30.9678573608398
 30
0.0
 11
-502.821960449219
 21
-30.9678573608398
 31
0.0
  0
LINE
  5
   2E5
  8
0
  6
CONTINUOUS
 62
   253
 10
-495.321960449219
 20
-44.9678573608398
 30
0.0
 11
-502.821960449219
 21
-44.9678573608398
 31
0.0
  0
LINE
  5
   2E6
  8
0
  6
CONTINUOUS
 62
   212
 10
-525.071952819824
 20
68.0321426391602
 30
0.0
 11
-525.071952819824
 21
74.0321426391602
 31
0.0
  0
LINE
  5
   2E7
  8
0
  6
CONTINUOUS
 62
   212
 10
-513.221960449219
 20
75.0321426391602
 30
0.0
 11
-517.581313539819
 21
75.0321426391602
 31
0.0
  0
LINE
  5
   2E8
  8
0
  6
CONTINUOUS
 62
   212
 10
-513.221960449219
 20
67.0321426391602
 30
0.0
 11
-517.581313539819
 21
67.0321426391602
 31
0.0
  0
LINE
  5
   2E9
  8
0
  6
CONTINUOUS
 62
   212
 10
-513.221960449219
 20
74.5321426391602
 30
0.0
 11
-517.581313539819
 21
74.5321426391602
 31
0.0
  0
LINE
  5
   2EA
  8
0
  6
CONTINUOUS
 62
   212
 10
-513.221960449219
 20
67.5321426391602
 30
0.0
 11
-517.581313539819
 21
67.5321426391602
 31
0.0
  0
LINE
  5
   2EB
  8
0
  6
CONTINUOUS
 62
   212
 10
-524.071952819824
 20
67.0321426391602
 30
0.0
 11
-524.071952819824
 21
75.0321426391602
 31
0.0
  0
LINE
  5
   2EC
  8
0
  6
CONTINUOUS
 62
   212
 10
-525.071952819824
 20
74.0321426391602
 30
0.0
 11
-524.071952819824
 21
75.0321426391602
 31
0.0
  0
LINE
  5
   2ED
  8
0
  6
CONTINUOUS
 62
   212
 10
-524.071952819824
 20
67.0321426391601
 30
0.0
 11
-525.071952819824
 21
68.0321426391602
 31
0.0
  0
LINE
  5
   2EE
  8
0
  6
CONTINUOUS
 62
     7
 10
-503.321960449219
 20
77.5321426391602
 30
0.0
 11
-503.721960449219
 21
77.5321426391602
 31
0.0
  0
LINE
  5
   2EF
  8
0
  6
CONTINUOUS
 62
     7
 10
-503.321960449219
 20
64.5321426391602
 30
0.0
 11
-503.321960449219
 21
77.5321426391602
 31
0.0
  0
LINE
  5
   2F0
  8
0
  6
CONTINUOUS
 62
     7
 10
-503.721960449219
 20
64.3446426391602
 30
0.0
 11
-503.721960449219
 21
77.7196426391602
 31
0.0
  0
LINE
  5
   2F1
  8
0
  6
CONTINUOUS
 62
     7
 10
-503.321960449219
 20
64.5321426391602
 30
0.0
 11
-503.721960449219
 21
64.5321426391602
 31
0.0
  0
LINE
  5
   2F2
  8
0
  6
CONTINUOUS
 62
     7
 10
-532.721960449219
 20
-44.6553573608398
 30
0.0
 11
-532.721960449219
 21
-31.2803573608398
 31
0.0
  0
LINE
  5
   2F3
  8
0
  6
CONTINUOUS
 62
     7
 10
-528.721960449219
 20
-31.2803573608398
 30
0.0
 11
-532.721960449219
 21
-31.2803573608398
 31
0.0
  0
LINE
  5
   2F4
  8
0
  6
CONTINUOUS
 62
     7
 10
-528.721960449219
 20
-44.6553573608398
 30
0.0
 11
-532.721960449219
 21
-44.6553573608398
 31
0.0
  0
LINE
  5
   2F5
  8
0
  6
CONTINUOUS
 62
     7
 10
-528.721960449219
 20
-41.1553573608398
 30
0.0
 11
-532.721960449219
 21
-41.1553573608398
 31
0.0
  0
LINE
  5
   2F6
  8
0
  6
CONTINUOUS
 62
     7
 10
-528.721960449219
 20
-34.7803573608398
 30
0.0
 11
-532.721960449219
 21
-34.7803573608398
 31
0.0
  0
LINE
  5
   2F7
  8
0
  6
CONTINUOUS
 62
     7
 10
-503.721960449219
 20
77.7196426391602
 30
0.0
 11
-507.721960449219
 21
77.7196426391602
 31
0.0
  0
LINE
  5
   2F8
  8
0
  6
CONTINUOUS
 62
     7
 10
-507.721960449219
 20
64.3446426391602
 30
0.0
 11
-507.721960449219
 21
77.7196426391602
 31
0.0
  0
LINE
  5
   2F9
  8
0
  6
CONTINUOUS
 62
     7
 10
-503.721960449219
 20
67.8446426391602
 30
0.0
 11
-507.721960449219
 21
67.8446426391602
 31
0.0
  0
LINE
  5
   2FA
  8
0
  6
CONTINUOUS
 62
     7
 10
-503.721960449219
 20
74.2196426391602
 30
0.0
 11
-507.721960449219
 21
74.2196426391602
 31
0.0
  0
LINE
  5
   2FB
  8
0
  6
CONTINUOUS
 62
     7
 10
-503.721960449219
 20
64.3446426391602
 30
0.0
 11
-507.721960449219
 21
64.3446426391602
 31
0.0
  0
LINE
  5
   2FC
  8
0
  6
CONTINUOUS
 62
     7
 10
-532.721960449219
 20
-31.2803573608398
 30
0.0
 11
-536.721960449219
 21
-31.2803573608398
 31
0.0
  0
LINE
  5
   2FD
  8
0
  6
CONTINUOUS
 62
     7
 10
-532.721960449219
 20
-34.7803573608398
 30
0.0
 11
-536.721960449219
 21
-34.7803573608398
 31
0.0
  0
LINE
  5
   2FE
  8
0
  6
CONTINUOUS
 62
     7
 10
-532.721960449219
 20
-41.1553573608398
 30
0.0
 11
-536.721960449219
 21
-41.1553573608398
 31
0.0
  0
LINE
  5
   2FF
  8
0
  6
CONTINUOUS
 62
     7
 10
-532.721960449219
 20
-44.6553573608398
 30
0.0
 11
-536.721960449219
 21
-44.6553573608398
 31
0.0
  0
LINE
  5
   300
  8
0
  6
CONTINUOUS
 62
     7
 10
-536.721960449219
 20
-44.6553573608398
 30
0.0
 11
-536.721960449219
 21
-31.2803573608398
 31
0.0
  0
LINE
  5
   301
  8
0
  6
CONTINUOUS
 62
     7
 10
-507.721960449219
 20
77.7196426391602
 30
0.0
 11
-511.721960449219
 21
77.7196426391602
 31
0.0
  0
LINE
  5
   302
  8
0
  6
CONTINUOUS
 62
     7
 10
-507.721960449219
 20
74.2196426391602
 30
0.0
 11
-511.721960449219
 21
74.2196426391602
 31
0.0
  0
LINE
  5
   303
  8
0
  6
CONTINUOUS
 62
     7
 10
-507.721960449219
 20
67.8446426391602
 30
0.0
 11
-511.721960449219
 21
67.8446426391602
 31
0.0
  0
LINE
  5
   304
  8
0
  6
CONTINUOUS
 62
     7
 10
-507.721960449219
 20
64.3446426391602
 30
0.0
 11
-511.721960449219
 21
64.3446426391602
 31
0.0
  0
LINE
  5
   305
  8
0
  6
CONTINUOUS
 62
     7
 10
-511.721960449219
 20
64.3446426391602
 30
0.0
 11
-511.721960449219
 21
77.7196426391602
 31
0.0
  0
LINE
  5
   306
  8
0
  6
CONTINUOUS
 62
     7
 10
-548.081313539819
 20
-44.6553573608398
 30
0.0
 11
-548.081313539819
 21
-31.2803573608398
 31
0.0
  0
LINE
  5
   307
  8
0
  6
CONTINUOUS
 62
     7
 10
-544.081313539819
 20
-31.2803573608398
 30
0.0
 11
-548.081313539819
 21
-31.2803573608398
 31
0.0
  0
LINE
  5
   308
  8
0
  6
CONTINUOUS
 62
     7
 10
-544.081313539819
 20
-44.6553573608398
 30
0.0
 11
-544.081313539819
 21
-31.2803573608398
 31
0.0
  0
LINE
  5
   309
  8
0
  6
CONTINUOUS
 62
     7
 10
-544.081313539819
 20
-34.7803573608398
 30
0.0
 11
-548.081313539819
 21
-34.7803573608398
 31
0.0
  0
LINE
  5
   30A
  8
0
  6
CONTINUOUS
 62
     7
 10
-544.081313539819
 20
-41.1553573608398
 30
0.0
 11
-548.081313539819
 21
-41.1553573608398
 31
0.0
  0
LINE
  5
   30B
  8
0
  6
CONTINUOUS
 62
     7
 10
-544.081313539819
 20
-44.6553573608398
 30
0.0
 11
-548.081313539819
 21
-44.6553573608398
 31
0.0
  0
LINE
  5
   30C
  8
0
  6
CONTINUOUS
 62
   212
 10
-548.081313539819
 20
-33.9678573608398
 30
0.0
 11
-549.071952819824
 21
-33.9678573608398
 31
0.0
  0
LINE
  5
   30D
  8
0
  6
CONTINUOUS
 62
   212
 10
-548.081313539819
 20
-34.4678573608398
 30
0.0
 11
-549.571952819824
 21
-34.4678573608398
 31
0.0
  0
LINE
  5
   30E
  8
0
  6
CONTINUOUS
 62
   212
 10
-548.081313539819
 20
-41.4678573608398
 30
0.0
 11
-549.571952819824
 21
-41.4678573608398
 31
0.0
  0
LINE
  5
   30F
  8
0
  6
CONTINUOUS
 62
   212
 10
-548.081313539819
 20
-41.9678573608398
 30
0.0
 11
-549.071952819824
 21
-41.9678573608398
 31
0.0
  0
ARC
  5
   310
  8
0
  6
CONTINUOUS
 62
   253
 10
-502.821960449219
 20
-31.4678573608398
 30
0.0
 40
0.5
 50
449.999999948034
 51
539.999999948034
  0
ARC
  5
   311
  8
0
  6
CONTINUOUS
 62
   253
 10
-502.821960449219
 20
-44.4678573608398
 30
0.0
 40
0.5
 50
179.999999948034
 51
269.999999948034
  0
LINE
  5
   312
  8
0
  6
CONTINUOUS
 62
     7
 10
-542.581313539819
 20
-44.5928573608398
 30
0.0
 11
-542.581313539819
 21
-31.3428573608398
 31
0.0
  0
LINE
  5
   313
  8
0
  6
CONTINUOUS
 62
     7
 10
-538.221960449219
 20
-44.5928573608398
 30
0.0
 11
-538.221960449219
 21
-31.3428573608398
 31
0.0
  0
LINE
  5
   314
  8
0
  6
CONTINUOUS
 62
     7
 10
-536.721960449219
 20
-31.3428573608398
 30
0.0
 11
-538.221960449219
 21
-31.3428573608398
 31
0.0
  0
LINE
  5
   315
  8
0
  6
CONTINUOUS
 62
     7
 10
-536.721960449219
 20
-44.5928573608398
 30
0.0
 11
-538.221960449219
 21
-44.5928573608398
 31
0.0
  0
LINE
  5
   316
  8
0
  6
CONTINUOUS
 62
     7
 10
-542.581313539819
 20
-31.3428573608398
 30
0.0
 11
-544.081313539819
 21
-31.3428573608398
 31
0.0
  0
LINE
  5
   317
  8
0
  6
CONTINUOUS
 62
     7
 10
-542.581313539819
 20
-44.5928573608398
 30
0.0
 11
-544.081313539819
 21
-44.5928573608398
 31
0.0
  0
LINE
  5
   318
  8
0
  6
CONTINUOUS
 62
     7
 10
-519.081313539819
 20
77.7196426391602
 30
0.0
 11
-523.081313539819
 21
77.7196426391602
 31
0.0
  0
LINE
  5
   319
  8
0
  6
CONTINUOUS
 62
     7
 10
-519.081313539819
 20
74.2196426391602
 30
0.0
 11
-523.081313539819
 21
74.2196426391602
 31
0.0
  0
LINE
  5
   31A
  8
0
  6
CONTINUOUS
 62
     7
 10
-519.081313539819
 20
67.8446426391602
 30
0.0
 11
-523.081313539819
 21
67.8446426391602
 31
0.0
  0
LINE
  5
   31B
  8
0
  6
CONTINUOUS
 62
     7
 10
-519.081313539819
 20
64.3446426391602
 30
0.0
 11
-523.081313539819
 21
64.3446426391602
 31
0.0
  0
LINE
  5
   31C
  8
0
  6
CONTINUOUS
 62
     7
 10
-517.581313539819
 20
64.4071426391602
 30
0.0
 11
-519.081313539819
 21
64.4071426391602
 31
0.0
  0
LINE
  5
   31D
  8
0
  6
CONTINUOUS
 62
     7
 10
-517.581313539819
 20
77.6571426391602
 30
0.0
 11
-519.081313539819
 21
77.6571426391602
 31
0.0
  0
LINE
  5
   31E
  8
0
  6
CONTINUOUS
 62
     7
 10
-523.081313539819
 20
64.3446426391602
 30
0.0
 11
-523.081313539819
 21
77.7196426391602
 31
0.0
  0
LINE
  5
   31F
  8
0
  6
CONTINUOUS
 62
     7
 10
-519.081313539819
 20
64.3446426391602
 30
0.0
 11
-519.081313539819
 21
77.7196426391602
 31
0.0
  0
LINE
  5
   320
  8
0
  6
CONTINUOUS
 62
     7
 10
-517.581313539819
 20
64.4071426391602
 30
0.0
 11
-517.581313539819
 21
77.6571426391602
 31
0.0
  0
LINE
  5
   321
  8
0
  6
CONTINUOUS
 62
   212
 10
-523.081313539819
 20
75.0321426391602
 30
0.0
 11
-524.071952819824
 21
75.0321426391602
 31
0.0
  0
LINE
  5
   322
  8
0
  6
CONTINUOUS
 62
   212
 10
-523.081313539819
 20
74.5321426391602
 30
0.0
 11
-524.571952819824
 21
74.5321426391602
 31
0.0
  0
LINE
  5
   323
  8
0
  6
CONTINUOUS
 62
   212
 10
-523.081313539819
 20
67.5321426391602
 30
0.0
 11
-524.571952819824
 21
67.5321426391602
 31
0.0
  0
LINE
  5
   324
  8
0
  6
CONTINUOUS
 62
   212
 10
-523.081313539819
 20
67.0321426391602
 30
0.0
 11
-524.071952819824
 21
67.0321426391602
 31
0.0
  0
LINE
  5
   325
  8
0
  6
CONTINUOUS
 62
   253
 10
-495.321960449219
 20
78.0321426391602
 30
0.0
 11
-503.321960449219
 21
78.0321426391602
 31
0.0
  0
LINE
  5
   326
  8
0
  6
CONTINUOUS
 62
   253
 10
-495.321960449219
 20
64.0321426391602
 30
0.0
 11
-503.321960449219
 21
64.0321426391602
 31
0.0
  0
LINE
  5
   327
  8
0
  6
CONTINUOUS
 62
   253
 10
-523.081313539819
 20
77.0321426391602
 30
0.0
 11
-527.821960449219
 21
77.0321426391602
 31
0.0
  0
LINE
  5
   328
  8
0
  6
CONTINUOUS
 62
   253
 10
-523.081313539819
 20
65.0321426391602
 30
0.0
 11
-527.821960449219
 21
65.0321426391602
 31
0.0
  0
LINE
  5
   329
  8
0
  6
CONTINUOUS
 62
   253
 10
-528.321960449219
 20
65.5321426391602
 30
0.0
 11
-528.321960449219
 21
76.5321426391602
 31
0.0
  0
ARC
  5
   32A
  8
0
  6
CONTINUOUS
 62
   253
 10
-527.821960449219
 20
76.5321426391602
 30
0.0
 40
0.5
 50
449.999999948034
 51
539.999999948034
  0
ARC
  5
   32B
  8
0
  6
CONTINUOUS
 62
   253
 10
-527.821960449219
 20
65.5321426391602
 30
0.0
 40
0.5
 50
179.999999948034
 51
269.999999948034
  0
LINE
  5
   32C
  8
0
  6
CONTINUOUS
 62
   212
 10
-550.071952819824
 20
68.0321426391602
 30
0.0
 11
-550.071952819824
 21
74.0321426391602
 31
0.0
  0
LINE
  5
   32D
  8
0
  6
CONTINUOUS
 62
   212
 10
-538.221960449219
 20
75.0321426391602
 30
0.0
 11
-542.581313539819
 21
75.0321426391602
 31
0.0
  0
LINE
  5
   32E
  8
0
  6
CONTINUOUS
 62
   212
 10
-538.221960449219
 20
67.0321426391602
 30
0.0
 11
-542.581313539819
 21
67.0321426391602
 31
0.0
  0
LINE
  5
   32F
  8
0
  6
CONTINUOUS
 62
   212
 10
-550.071952819824
 20
74.0321426391602
 30
0.0
 11
-549.071952819824
 21
75.0321426391602
 31
0.0
  0
LINE
  5
   330
  8
0
  6
CONTINUOUS
 62
   212
 10
-549.071952819824
 20
67.0321426391602
 30
0.0
 11
-550.071952819824
 21
68.0321426391601
 31
0.0
  0
LINE
  5
   331
  8
0
  6
CONTINUOUS
 62
   212
 10
-549.071952819824
 20
67.0321426391602
 30
0.0
 11
-549.071952819824
 21
75.0321426391602
 31
0.0
  0
LINE
  5
   332
  8
0
  6
CONTINUOUS
 62
   212
 10
-538.221960449219
 20
74.5321426391602
 30
0.0
 11
-542.581313539819
 21
74.5321426391602
 31
0.0
  0
LINE
  5
   333
  8
0
  6
CONTINUOUS
 62
   212
 10
-538.221960449219
 20
67.5321426391602
 30
0.0
 11
-542.581313539819
 21
67.5321426391602
 31
0.0
  0
LINE
  5
   334
  8
0
  6
CONTINUOUS
 62
     7
 10
-528.721960449219
 20
64.3446426391602
 30
0.0
 11
-528.721960449219
 21
77.7196426391602
 31
0.0
  0
LINE
  5
   335
  8
0
  6
CONTINUOUS
 62
     7
 10
-528.321960449219
 20
77.5321426391602
 30
0.0
 11
-528.721960449219
 21
77.5321426391602
 31
0.0
  0
LINE
  5
   336
  8
0
  6
CONTINUOUS
 62
     7
 10
-528.321960449219
 20
64.5321426391602
 30
0.0
 11
-528.721960449219
 21
64.5321426391602
 31
0.0
  0
LINE
  5
   337
  8
0
  6
CONTINUOUS
 62
     7
 10
-528.321960449219
 20
64.5321426391602
 30
0.0
 11
-528.321960449219
 21
77.5321426391602
 31
0.0
  0
LINE
  5
   338
  8
0
  6
CONTINUOUS
 62
   253
 10
-503.321960449219
 20
64.0321426391602
 30
0.0
 11
-503.321960449219
 21
78.0321426391602
 31
0.0
  0
LINE
  5
   339
  8
0
  6
CONTINUOUS
 62
     7
 10
-532.721960449219
 20
64.3446426391602
 30
0.0
 11
-532.721960449219
 21
77.7196426391602
 31
0.0
  0
LINE
  5
   33A
  8
0
  6
CONTINUOUS
 62
     7
 10
-528.721960449219
 20
77.7196426391602
 30
0.0
 11
-532.721960449219
 21
77.7196426391602
 31
0.0
  0
LINE
  5
   33B
  8
0
  6
CONTINUOUS
 62
     7
 10
-528.721960449219
 20
64.3446426391602
 30
0.0
 11
-532.721960449219
 21
64.3446426391602
 31
0.0
  0
LINE
  5
   33C
  8
0
  6
CONTINUOUS
 62
     7
 10
-528.721960449219
 20
67.8446426391602
 30
0.0
 11
-532.721960449219
 21
67.8446426391602
 31
0.0
  0
LINE
  5
   33D
  8
0
  6
CONTINUOUS
 62
     7
 10
-528.721960449219
 20
74.2196426391602
 30
0.0
 11
-532.721960449219
 21
74.2196426391602
 31
0.0
  0
LINE
  5
   33E
  8
0
  6
CONTINUOUS
 62
     7
 10
-532.721960449219
 20
77.7196426391602
 30
0.0
 11
-536.721960449219
 21
77.7196426391602
 31
0.0
  0
LINE
  5
   33F
  8
0
  6
CONTINUOUS
 62
     7
 10
-532.721960449219
 20
74.2196426391602
 30
0.0
 11
-536.721960449219
 21
74.2196426391602
 31
0.0
  0
LINE
  5
   340
  8
0
  6
CONTINUOUS
 62
     7
 10
-532.721960449219
 20
67.8446426391602
 30
0.0
 11
-536.721960449219
 21
67.8446426391602
 31
0.0
  0
LINE
  5
   341
  8
0
  6
CONTINUOUS
 62
     7
 10
-532.721960449219
 20
64.3446426391602
 30
0.0
 11
-536.721960449219
 21
64.3446426391602
 31
0.0
  0
LINE
  5
   342
  8
0
  6
CONTINUOUS
 62
     7
 10
-536.721960449219
 20
64.3446426391602
 30
0.0
 11
-536.721960449219
 21
77.7196426391602
 31
0.0
  0
LINE
  5
   343
  8
0
  6
CONTINUOUS
 62
     7
 10
-548.081313539819
 20
64.3446426391602
 30
0.0
 11
-548.081313539819
 21
77.7196426391602
 31
0.0
  0
LINE
  5
   344
  8
0
  6
CONTINUOUS
 62
     7
 10
-544.081313539819
 20
77.7196426391602
 30
0.0
 11
-548.081313539819
 21
77.7196426391602
 31
0.0
  0
LINE
  5
   345
  8
0
  6
CONTINUOUS
 62
     7
 10
-544.081313539819
 20
64.3446426391602
 30
0.0
 11
-544.081313539819
 21
77.7196426391602
 31
0.0
  0
LINE
  5
   346
  8
0
  6
CONTINUOUS
 62
     7
 10
-544.081313539819
 20
74.2196426391602
 30
0.0
 11
-548.081313539819
 21
74.2196426391602
 31
0.0
  0
LINE
  5
   347
  8
0
  6
CONTINUOUS
 62
     7
 10
-544.081313539819
 20
67.8446426391602
 30
0.0
 11
-548.081313539819
 21
67.8446426391602
 31
0.0
  0
LINE
  5
   348
  8
0
  6
CONTINUOUS
 62
     7
 10
-544.081313539819
 20
64.3446426391602
 30
0.0
 11
-548.081313539819
 21
64.3446426391602
 31
0.0
  0
LINE
  5
   349
  8
0
  6
CONTINUOUS
 62
   212
 10
-548.081313539819
 20
75.0321426391602
 30
0.0
 11
-549.071952819824
 21
75.0321426391602
 31
0.0
  0
LINE
  5
   34A
  8
0
  6
CONTINUOUS
 62
   212
 10
-548.081313539819
 20
74.5321426391602
 30
0.0
 11
-549.571952819824
 21
74.5321426391602
 31
0.0
  0
LINE
  5
   34B
  8
0
  6
CONTINUOUS
 62
   212
 10
-548.081313539819
 20
67.5321426391602
 30
0.0
 11
-549.571952819824
 21
67.5321426391602
 31
0.0
  0
LINE
  5
   34C
  8
0
  6
CONTINUOUS
 62
   212
 10
-548.081313539819
 20
67.0321426391602
 30
0.0
 11
-549.071952819824
 21
67.0321426391602
 31
0.0
  0
LINE
  5
   34D
  8
0
  6
CONTINUOUS
 62
     7
 10
-542.581313539819
 20
64.4071426391602
 30
0.0
 11
-542.581313539819
 21
77.6571426391602
 31
0.0
  0
LINE
  5
   34E
  8
0
  6
CONTINUOUS
 62
     7
 10
-538.221960449219
 20
64.4071426391602
 30
0.0
 11
-538.221960449219
 21
77.6571426391602
 31
0.0
  0
LINE
  5
   34F
  8
0
  6
CONTINUOUS
 62
     7
 10
-536.721960449219
 20
77.6571426391602
 30
0.0
 11
-538.221960449219
 21
77.6571426391602
 31
0.0
  0
LINE
  5
   350
  8
0
  6
CONTINUOUS
 62
     7
 10
-536.721960449219
 20
64.4071426391602
 30
0.0
 11
-538.221960449219
 21
64.4071426391602
 31
0.0
  0
LINE
  5
   351
  8
0
  6
CONTINUOUS
 62
     7
 10
-542.581313539819
 20
77.6571426391602
 30
0.0
 11
-544.081313539819
 21
77.6571426391602
 31
0.0
  0
LINE
  5
   352
  8
0
  6
CONTINUOUS
 62
     7
 10
-542.581313539819
 20
64.4071426391602
 30
0.0
 11
-544.081313539819
 21
64.4071426391602
 31
0.0
  0
LINE
  5
   353
  8
0
  6
CONTINUOUS
 62
     2
 10
-495.071960449219
 20
-29.9678573608398
 30
0.0
 11
-495.321960449219
 21
-29.9678573608398
 31
0.0
  0
LINE
  5
   354
  8
0
  6
CONTINUOUS
 62
     2
 10
-495.071960449219
 20
-45.9678573608398
 30
0.0
 11
-495.321960449219
 21
-45.9678573608398
 31
0.0
  0
LINE
  5
   355
  8
0
  6
CONTINUOUS
 62
     7
 10
-511.721960449219
 20
77.6571426391602
 30
0.0
 11
-513.221960449219
 21
77.6571426391602
 31
0.0
  0
LINE
  5
   356
  8
0
  6
CONTINUOUS
 62
     7
 10
-513.221960449219
 20
64.4071426391602
 30
0.0
 11
-513.221960449219
 21
77.6571426391602
 31
0.0
  0
LINE
  5
   357
  8
0
  6
CONTINUOUS
 62
     7
 10
-511.721960449219
 20
64.4071426391602
 30
0.0
 11
-513.221960449219
 21
64.4071426391602
 31
0.0
  0
LINE
  5
   358
  8
0
  6
DASHDOT
 62
     7
 10
-491.590813461518
 20
-37.9678573608398
 30
0.0
 11
-553.935525879775
 21
-37.9678573608398
 31
0.0
  0
LINE
  5
   359
  8
0
  6
CONTINUOUS
 62
   253
 10
-503.321960449219
 20
64.5321426391602
 30
0.0
 11
-503.321960449219
 21
77.5321426391602
 31
0.0
  0
LINE
  5
   35A
  8
0
  6
CONTINUOUS
 62
   253
 10
-495.321960449219
 20
78.0321426391602
 30
0.0
 11
-502.821960449219
 21
78.0321426391602
 31
0.0
  0
LINE
  5
   35B
  8
0
  6
CONTINUOUS
 62
   253
 10
-495.321960449219
 20
64.0321426391602
 30
0.0
 11
-502.821960449219
 21
64.0321426391602
 31
0.0
  0
ARC
  5
   35C
  8
0
  6
CONTINUOUS
 62
   253
 10
-502.821960449219
 20
77.5321426391602
 30
0.0
 40
0.5
 50
449.999999948034
 51
539.999999948034
  0
ARC
  5
   35D
  8
0
  6
CONTINUOUS
 62
   253
 10
-502.821960449219
 20
64.5321426391602
 30
0.0
 40
0.5
 50
179.999999948034
 51
269.999999948034
  0
LINE
  5
   35E
  8
0
  6
CONTINUOUS
 62
   253
 10
-523.081313539819
 20
-31.9678573608398
 30
0.0
 11
-527.821960449219
 21
-31.9678573608398
 31
0.0
  0
LINE
  5
   35F
  8
0
  6
CONTINUOUS
 62
   253
 10
-523.081313539819
 20
-43.9678573608398
 30
0.0
 11
-527.821960449219
 21
-43.9678573608398
 31
0.0
  0
LINE
  5
   360
  8
0
  6
DASHDOT
 62
     7
 10
-487.220724064612
 20
71.0321426391602
 30
0.0
 11
-559.881966408491
 21
71.0321426391602
 31
0.0
  0
CIRCLE
  5
   361
  8
0
  6
CONTINUOUS
 62
     7
 10
-476.820577352517
 20
63.7492403996079
 30
0.0
 40
0.0625
  0
LINE
  5
   362
  8
0
  6
CONTINUOUS
 62
     1
 10
-417.821968078613
 20
-10.0960826873779
 30
0.0
 11
-417.821968078613
 21
-9.09608268737793
 31
0.0
  0
LINE
  5
   363
  8
0
  6
CONTINUOUS
 62
     1
 10
-416.821968078613
 20
-10.0960826873779
 30
0.0
 11
-417.821968078613
 21
-10.0960826873779
 31
0.0
  0
LINE
  5
   364
  8
0
  6
CONTINUOUS
 62
     1
 10
-417.821968078613
 20
43.9039154052734
 30
0.0
 11
-417.821968078613
 21
44.9039154052734
 31
0.0
  0
LINE
  5
   365
  8
0
  6
CONTINUOUS
 62
     1
 10
-416.821968078613
 20
44.9039154052734
 30
0.0
 11
-417.821968078613
 21
44.9039154052734
 31
0.0
  0
LINE
  5
   366
  8
0
  6
CONTINUOUS
 62
     1
 10
-417.821968078613
 20
-9.09608268737793
 30
0.0
 11
-417.821968078613
 21
43.9039173126221
 31
0.0
  0
LINE
  5
   367
  8
0
  6
CONTINUOUS
 62
     1
 10
-420.071967989206
 20
51.6925888061524
 30
0.0
 11
-420.071967989206
 21
54.1152420043945
 31
0.0
  0
LINE
  5
   368
  8
0
  6
CONTINUOUS
 62
     1
 10
-420.071967989206
 20
-19.3074073791504
 30
0.0
 11
-420.071967989206
 21
-16.8847579956055
 31
0.0
  0
LINE
  5
   369
  8
0
  6
CONTINUOUS
 62
     1
 10
-416.821968078613
 20
-23.3460826873779
 30
0.0
 11
-416.821968078613
 21
58.1539173126221
 31
0.0
  0
LINE
  5
   36A
  8
0
  6
CONTINUOUS
 62
     1
 10
-415.071968078613
 20
-23.3460826873779
 30
0.0
 11
-416.821968078613
 21
-23.3460826873779
 31
0.0
  0
LINE
  5
   36B
  8
0
  6
CONTINUOUS
 62
     1
 10
-415.071968078613
 20
-23.3460845947266
 30
0.0
 11
-415.071968078613
 21
58.1539154052734
 31
0.0
  0
LINE
  5
   36C
  8
0
  6
CONTINUOUS
 62
     1
 10
-415.071968078613
 20
58.1539154052734
 30
0.0
 11
-415.571968078613
 21
58.1539154052734
 31
0.0
  0
LINE
  5
   36D
  8
0
  6
CONTINUOUS
 62
     1
 10
-416.071968078613
 20
58.1539154052734
 30
0.0
 11
-416.821968078613
 21
58.1539154052734
 31
0.0
  0
LINE
  5
   36E
  8
0
  6
CONTINUOUS
 62
     1
 10
-416.821968078613
 20
51.4039154052734
 30
0.0
 11
-419.57196958752
 21
51.4039154052734
 31
0.0
  0
LINE
  5
   36F
  8
0
  6
CONTINUOUS
 62
     1
 10
-416.821968078613
 20
54.4039154052734
 30
0.0
 11
-419.571966350943
 21
54.4039154052734
 31
0.0
  0
LINE
  5
   370
  8
0
  6
CONTINUOUS
 62
     1
 10
-419.571967996057
 20
51.4039154052734
 30
0.0
 11
-419.571967996057
 21
51.5180969238281
 31
0.0
  0
LINE
  5
   371
  8
0
  6
CONTINUOUS
 62
     1
 10
-419.571967598195
 20
51.4039142567427
 30
0.0
 11
-420.071967614658
 21
51.6925876612409
 31
0.0
  0
LINE
  5
   372
  8
0
  6
CONTINUOUS
 62
     1
 10
-419.571967996057
 20
51.5180969238281
 30
0.0
 11
-419.571967996057
 21
51.8432540893555
 31
0.0
  0
LINE
  5
   373
  8
0
  6
CONTINUOUS
 62
     1
 10
-419.571967996057
 20
51.8432540893555
 30
0.0
 11
-419.571967996057
 21
52.3298950195313
 31
0.0
  0
LINE
  5
   374
  8
0
  6
CONTINUOUS
 62
     1
 10
-419.571967996057
 20
52.3298950195313
 30
0.0
 11
-419.571967996057
 21
52.9039154052734
 31
0.0
  0
LINE
  5
   375
  8
0
  6
CONTINUOUS
 62
     1
 10
-419.571967996057
 20
52.9039154052734
 30
0.0
 11
-419.571967996057
 21
53.4779434204102
 31
0.0
  0
LINE
  5
   376
  8
0
  6
CONTINUOUS
 62
     1
 10
-419.571967996057
 20
53.4779434204102
 30
0.0
 11
-419.571967996057
 21
53.9645767211914
 31
0.0
  0
LINE
  5
   377
  8
0
  6
CONTINUOUS
 62
     1
 10
-419.571967996057
 20
53.9645767211914
 30
0.0
 11
-419.571967996057
 21
54.2897338867188
 31
0.0
  0
LINE
  5
   378
  8
0
  6
CONTINUOUS
 62
     1
 10
-419.571967996057
 20
54.2897338867188
 30
0.0
 11
-419.571967996057
 21
54.4039154052734
 31
0.0
  0
LINE
  5
   379
  8
0
  6
CONTINUOUS
 62
     1
 10
-420.071968423795
 20
54.1152408135255
 30
0.0
 11
-419.571968407332
 21
54.4039142180237
 31
0.0
  0
LINE
  5
   37A
  8
0
  6
CONTINUOUS
 62
     1
 10
-416.821968078613
 20
-16.5960826873779
 30
0.0
 11
-419.571966993501
 21
-16.5960826873779
 31
0.0
  0
LINE
  5
   37B
  8
0
  6
CONTINUOUS
 62
     1
 10
-416.821968078613
 20
-19.5960826873779
 30
0.0
 11
-419.571968835281
 21
-19.5960826873779
 31
0.0
  0
LINE
  5
   37C
  8
0
  6
CONTINUOUS
 62
     1
 10
-420.071968250281
 20
-16.8847586957313
 30
0.0
 11
-419.571968233816
 21
-16.5960834034748
 31
0.0
  0
LINE
  5
   37D
  8
0
  6
CONTINUOUS
 62
     1
 10
-419.571967979399
 20
-16.7102642059326
 30
0.0
 11
-419.571967979399
 21
-16.5960826873779
 31
0.0
  0
LINE
  5
   37E
  8
0
  6
CONTINUOUS
 62
     1
 10
-419.571967979411
 20
-17.0354232788086
 30
0.0
 11
-419.571967979411
 21
-16.7102642059326
 31
0.0
  0
LINE
  5
   37F
  8
0
  6
CONTINUOUS
 62
     1
 10
-419.571967979397
 20
-17.5220565795899
 30
0.0
 11
-419.571967979397
 21
-17.0354232788086
 31
0.0
  0
LINE
  5
   380
  8
0
  6
CONTINUOUS
 62
     1
 10
-419.571967979432
 20
-18.0960826873779
 30
0.0
 11
-419.571967979432
 21
-17.5220565795899
 31
0.0
  0
LINE
  5
   381
  8
0
  6
CONTINUOUS
 62
     1
 10
-419.57196797937
 20
-18.6701068878174
 30
0.0
 11
-419.57196797937
 21
-18.0960826873779
 31
0.0
  0
LINE
  5
   382
  8
0
  6
CONTINUOUS
 62
     1
 10
-419.571967979397
 20
-19.1567420959473
 30
0.0
 11
-419.571967979397
 21
-18.6701068878174
 31
0.0
  0
LINE
  5
   383
  8
0
  6
CONTINUOUS
 62
     1
 10
-419.57196797941
 20
-19.4819011688233
 30
0.0
 11
-419.57196797941
 21
-19.1567420959473
 31
0.0
  0
LINE
  5
   384
  8
0
  6
CONTINUOUS
 62
     1
 10
-419.571967772236
 20
-19.5960833011274
 30
0.0
 11
-420.071967788701
 21
-19.3074080088709
 31
0.0
  0
LINE
  5
   385
  8
0
  6
CONTINUOUS
 62
     1
 10
-419.571967979399
 20
-19.5960826873779
 30
0.0
 11
-419.571967979399
 21
-19.4819011688233
 31
0.0
  0
LINE
  5
   386
  8
0
  6
CONTINUOUS
 62
     1
 10
-415.571968078613
 20
58.1539154052734
 30
0.0
 11
-416.071968078613
 21
58.1539154052734
 31
0.0
  0
CIRCLE
  5
   387
  8
0
  6
CONTINUOUS
 62
     7
 10
-444.587708522042
 20
63.787378317038
 30
0.0
 40
0.125
  0
LINE
  5
   388
  8
0
  6
CONTINUOUS
 62
     7
 10
-416.821968078613
 20
58.1539154052735
 30
0.0
 11
-416.821968078613
 21
84.6430334402734
 31
0.0
  0
LINE
  5
   389
  8
0
  6
CONTINUOUS
 62
     7
 10
-417.821968078613
 20
44.9039154052734
 30
0.0
 11
-417.821968078613
 21
51.4039154052734
 31
0.0
  0
LINE
  5
   38A
  8
0
  6
CONTINUOUS
 62
     7
 10
-416.821968078613
 20
-52.486551738476
 30
0.0
 11
-416.821968078613
 21
-23.3460826873779
 31
0.0
  0
LINE
  5
   38B
  8
0
  6
CONTINUOUS
 62
     7
 10
-417.821968078613
 20
-52.1313604816454
 30
0.0
 11
-417.821968078613
 21
-19.5960826873779
 31
0.0
  0
LINE
  5
   38C
  8
0
  6
CONTINUOUS
 62
     7
 10
-413.965797895298
 20
-53.5010384156098
 30
0.0
 11
-420.961814929873
 21
-51.016114332291
 31
0.0
  0
LINE
  5
   38D
  8
0
  6
CONTINUOUS
 62
     7
 10
-414.042257097862
 20
82.6345717489791
 30
0.0
 11
-420.655978119618
 21
87.4132719092076
 31
0.0
  0
LINE
  5
   38E
  8
0
  6
CONTINUOUS
 62
     7
 10
-416.821968078613
 20
-19.8460826873779
 30
0.0
 11
-417.821968078613
 21
-19.8460826873779
 31
0.0
  0
LINE
  5
   38F
  8
0
  6
CONTINUOUS
 62
     7
 10
-416.821968078613
 20
-16.3460826873779
 30
0.0
 11
-417.821968078613
 21
-16.3460826873779
 31
0.0
  0
LINE
  5
   390
  8
0
  6
CONTINUOUS
 62
     7
 10
-416.821968078613
 20
-10.5960826873779
 30
0.0
 11
-417.821968078613
 21
-10.5960826873779
 31
0.0
  0
LINE
  5
   391
  8
0
  6
CONTINUOUS
 62
     7
 10
-416.821968078613
 20
45.4039154052734
 30
0.0
 11
-417.821968078613
 21
45.4039154052734
 31
0.0
  0
LINE
  5
   392
  8
0
  6
CONTINUOUS
 62
     7
 10
-416.821968078613
 20
51.1539154052734
 30
0.0
 11
-417.821968078613
 21
51.1539154052734
 31
0.0
  0
LINE
  5
   393
  8
0
  6
CONTINUOUS
 62
     7
 10
-416.821968078613
 20
54.6539154052734
 30
0.0
 11
-417.821968078613
 21
54.6539154052734
 31
0.0
  0
LINE
  5
   394
  8
0
  6
CONTINUOUS
 62
     7
 10
-417.821968078613
 20
54.4039154052734
 30
0.0
 11
-417.821968078613
 21
85.3655767928745
 31
0.0
  0
LINE
  5
   395
  8
0
  6
CONTINUOUS
 62
     7
 10
-417.821968078613
 20
-16.5960826873779
 30
0.0
 11
-417.821968078613
 21
-10.0960826873779
 31
0.0
  0
INSERT
  5
   396
  8
0
  6
CONTINUOUS
 62
     7
  2
*HATCH1324
 10
-471.321960449219
 20
-37.5863952636719
 30
0.0
 41
0.5
 42
0.5
 50
89.9999999480344
 43
0.5
  0
INSERT
  5
   397
  8
0
  6
CONTINUOUS
 62
     7
  2
*HATCH1325
 10
-471.321960449219
 20
-37.5863952636719
 30
0.0
 41
0.5
 42
0.5
 50
89.9999999480344
 43
0.5
  0
INSERT
  5
   398
  8
0
  6
CONTINUOUS
 62
     7
  2
*HATCH1326
 10
-471.321960449219
 20
-37.5863952636719
 30
0.0
 41
0.5
 42
0.5
 50
89.9999999480344
 43
0.5
  0
INSERT
  5
   399
  8
0
  6
CONTINUOUS
 62
     7
  2
*HATCH1327
 10
-471.321960449219
 20
-37.5863952636719
 30
0.0
 41
0.5
 42
0.5
 50
89.9999999480344
 43
0.5
  0
LINE
  5
   39A
  8
0
  6
CONTINUOUS
 62
     7
 10
-421.071968078613
 20
81.2821520995836
 30
0.0
 11
-470.321955961398
 21
81.2821520995836
 31
0.0
  0
LINE
  5
   39B
  8
0
  6
CONTINUOUS
 62
     7
 10
-421.071968078613
 20
-48.2178250122247
 30
0.0
 11
-470.321960926056
 21
-48.2178250122247
 31
0.0
  0
LINE
  5
   39C
  8
0
  6
CONTINUOUS
 62
     7
 10
-420.571968078613
 20
-47.7178250122247
 30
0.0
 11
-420.571968078613
 21
-35.4678326416195
 31
0.0
  0
LINE
  5
   39D
  8
0
  6
CONTINUOUS
 62
     7
 10
-421.071968078613
 20
-35.4678326416195
 30
0.0
 11
-421.071968078613
 21
-34.9678326416195
 31
0.0
  0
LINE
  5
   39E
  8
0
  6
CONTINUOUS
 62
     7
 10
-420.571968078613
 20
-35.4678326416195
 30
0.0
 11
-421.071968078613
 21
-35.4678326416195
 31
0.0
  0
ARC
  5
   39F
  8
0
  6
CONTINUOUS
 62
     7
 10
-421.071968078613
 20
-47.7178250122247
 30
0.0
 40
0.5
 50
269.999999948034
 51
359.999999948034
  0
LINE
  5
   3A0
  8
0
  6
CONTINUOUS
 62
     7
 10
-420.571968078613
 20
68.2821597289862
 30
0.0
 11
-420.571968078613
 21
80.7821520995836
 31
0.0
  0
LINE
  5
   3A1
  8
0
  6
CONTINUOUS
 62
     7
 10
-420.571968078613
 20
68.2821597289862
 30
0.0
 11
-421.071968078613
 21
68.2821597289862
 31
0.0
  0
LINE
  5
   3A2
  8
0
  6
CONTINUOUS
 62
     7
 10
-421.071968078613
 20
67.7821597289863
 30
0.0
 11
-421.071968078613
 21
68.2821597289862
 31
0.0
  0
ARC
  5
   3A3
  8
0
  6
CONTINUOUS
 62
     7
 10
-421.071968078613
 20
80.7821520995836
 30
0.0
 40
0.5
 50
359.999999948034
 51
449.999999948034
  0
LINE
  5
   3A4
  8
0
  6
DASHDOT
 62
     7
 10
-398.196756744401
 20
17.4071597289862
 30
0.0
 11
-503.339723535746
 21
17.4071597289862
 31
0.0
  0
LINE
  5
   3A5
  8
0
  6
CONTINUOUS
 62
     7
 10
-523.081313539819
 20
-44.6553573608398
 30
0.0
 11
-523.081313539819
 21
-43.9678573608398
 31
0.0
  0
LINE
  5
   3A6
  8
0
  6
CONTINUOUS
 62
     7
 10
-519.081313539819
 20
-31.2803573608398
 30
0.0
 11
-523.081313539819
 21
-31.2803573608398
 31
0.0
  0
LINE
  5
   3A7
  8
0
  6
CONTINUOUS
 62
     7
 10
-519.081313539819
 20
-44.6553573608398
 30
0.0
 11
-519.081313539819
 21
-43.9678573608398
 31
0.0
  0
LINE
  5
   3A8
  8
0
  6
CONTINUOUS
 62
     7
 10
-517.581313539819
 20
-31.3428573608398
 30
0.0
 11
-519.081313539819
 21
-31.3428573608398
 31
0.0
  0
LINE
  5
   3A9
  8
0
  6
CONTINUOUS
 62
     7
 10
-517.581313539819
 20
-44.5928573608398
 30
0.0
 11
-517.581313539819
 21
-43.9678573608398
 31
0.0
  0
LINE
  5
   3AA
  8
0
  6
CONTINUOUS
 62
     7
 10
-513.221960449219
 20
-44.5928573608398
 30
0.0
 11
-513.221960449219
 21
-43.9678573608398
 31
0.0
  0
LINE
  5
   3AB
  8
0
  6
CONTINUOUS
 62
     7
 10
-511.721960449219
 20
-31.3428573608398
 30
0.0
 11
-513.221960449219
 21
-31.3428573608398
 31
0.0
  0
LINE
  5
   3AC
  8
0
  6
CONTINUOUS
 62
     7
 10
-511.721960449219
 20
-44.6553573608398
 30
0.0
 11
-511.721960449219
 21
-43.9678573608398
 31
0.0
  0
LINE
  5
   3AD
  8
0
  6
CONTINUOUS
 62
     7
 10
-507.721960449219
 20
-31.2803573608398
 30
0.0
 11
-511.721960449219
 21
-31.2803573608398
 31
0.0
  0
LINE
  5
   3AE
  8
0
  6
CONTINUOUS
 62
     7
 10
-507.721960449219
 20
-44.6553573608398
 30
0.0
 11
-507.721960449219
 21
-43.9678573608398
 31
0.0
  0
LINE
  5
   3AF
  8
0
  6
CONTINUOUS
 62
     7
 10
-503.721960449219
 20
-31.2803573608398
 30
0.0
 11
-507.721960449219
 21
-31.2803573608398
 31
0.0
  0
LINE
  5
   3B0
  8
0
  6
CONTINUOUS
 62
     7
 10
-503.721960449219
 20
-44.6553573608398
 30
0.0
 11
-503.721960449219
 21
-43.9678573608398
 31
0.0
  0
LINE
  5
   3B1
  8
0
  6
CONTINUOUS
 62
     7
 10
-503.321960449219
 20
-31.4678573608398
 30
0.0
 11
-503.721960449219
 21
-31.4678573608398
 31
0.0
  0
LINE
  5
   3B2
  8
0
  6
CONTINUOUS
 62
     7
 10
-503.321960449219
 20
-44.4678573608398
 30
0.0
 11
-503.321960449219
 21
-43.9678573608398
 31
0.0
  0
LINE
  5
   3B3
  8
0
  6
CONTINUOUS
 62
     7
 10
-503.321960449219
 20
-44.4678573608398
 30
0.0
 11
-503.721960449219
 21
-44.4678573608398
 31
0.0
  0
LINE
  5
   3B4
  8
0
  6
CONTINUOUS
 62
     7
 10
-503.721960449219
 20
-44.6553573608398
 30
0.0
 11
-507.721960449219
 21
-44.6553573608398
 31
0.0
  0
LINE
  5
   3B5
  8
0
  6
CONTINUOUS
 62
     7
 10
-507.721960449219
 20
-44.6553573608398
 30
0.0
 11
-511.721960449219
 21
-44.6553573608398
 31
0.0
  0
LINE
  5
   3B6
  8
0
  6
CONTINUOUS
 62
     7
 10
-511.721960449219
 20
-44.5928573608398
 30
0.0
 11
-513.221960449219
 21
-44.5928573608398
 31
0.0
  0
LINE
  5
   3B7
  8
0
  6
CONTINUOUS
 62
     7
 10
-517.581313539819
 20
-44.5928573608398
 30
0.0
 11
-519.081313539819
 21
-44.5928573608398
 31
0.0
  0
LINE
  5
   3B8
  8
0
  6
CONTINUOUS
 62
     7
 10
-519.081313539819
 20
-44.6553573608398
 30
0.0
 11
-523.081313539819
 21
-44.6553573608398
 31
0.0
  0
LINE
  5
   3B9
  8
0
  6
CONTINUOUS
 62
     7
 10
-523.081313539819
 20
-31.9678573608398
 30
0.0
 11
-523.081313539819
 21
-31.2803573608398
 31
0.0
  0
LINE
  5
   3BA
  8
0
  6
CONTINUOUS
 62
     7
 10
-519.081313539819
 20
-31.9678573608398
 30
0.0
 11
-519.081313539819
 21
-31.2803573608398
 31
0.0
  0
LINE
  5
   3BB
  8
0
  6
CONTINUOUS
 62
     7
 10
-517.581313539819
 20
-31.9678573608398
 30
0.0
 11
-517.581313539819
 21
-31.3428573608398
 31
0.0
  0
LINE
  5
   3BC
  8
0
  6
CONTINUOUS
 62
     7
 10
-513.221960449219
 20
-31.9678573608398
 30
0.0
 11
-513.221960449219
 21
-31.3428573608398
 31
0.0
  0
LINE
  5
   3BD
  8
0
  6
CONTINUOUS
 62
     7
 10
-511.721960449219
 20
-31.9678573608398
 30
0.0
 11
-511.721960449219
 21
-31.2803573608398
 31
0.0
  0
LINE
  5
   3BE
  8
0
  6
CONTINUOUS
 62
     7
 10
-507.721960449219
 20
-31.9678573608398
 30
0.0
 11
-507.721960449219
 21
-31.2803573608398
 31
0.0
  0
LINE
  5
   3BF
  8
0
  6
CONTINUOUS
 62
     7
 10
-503.721960449219
 20
-31.9678573608398
 30
0.0
 11
-503.721960449219
 21
-31.2803573608398
 31
0.0
  0
LINE
  5
   3C0
  8
0
  6
CONTINUOUS
 62
     7
 10
-503.321960449219
 20
-31.9678573608398
 30
0.0
 11
-503.321960449219
 21
-31.4678573608398
 31
0.0
  0
LINE
  5
   3C1
  8
0
  6
CONTINUOUS
 62
     7
 10
-499.571952819824
 20
48.2821426391601
 30
0.0
 11
-499.571952819824
 21
52.2821426391601
 31
0.0
  0
LINE
  5
   3C2
  8
0
  6
CONTINUOUS
 62
     7
 10
-501.571952819824
 20
49.0321426391601
 30
0.0
 11
-501.571952819824
 21
51.5321426391601
 31
0.0
  0
LINE
  5
   3C3
  8
0
  6
CONTINUOUS
 62
     7
 10
-497.571952819824
 20
52.2821426391601
 30
0.0
 11
-499.571952819824
 21
52.2821426391601
 31
0.0
  0
LINE
  5
   3C4
  8
0
  6
CONTINUOUS
 62
     7
 10
-497.571952819824
 20
48.2821426391601
 30
0.0
 11
-499.571952819824
 21
48.2821426391601
 31
0.0
  0
LINE
  5
   3C5
  8
0
  6
CONTINUOUS
 62
     7
 10
-497.571952819824
 20
51.5321426391601
 30
0.0
 11
-501.571952819824
 21
51.5321426391601
 31
0.0
  0
LINE
  5
   3C6
  8
0
  6
CONTINUOUS
 62
     7
 10
-497.571952819824
 20
49.0321426391601
 30
0.0
 11
-501.571952819824
 21
49.0321426391601
 31
0.0
  0
LINE
  5
   3C7
  8
0
  6
CONTINUOUS
 62
     7
 10
-497.571952819824
 20
-15.2178573608398
 30
0.0
 11
-499.571952819824
 21
-15.2178573608398
 31
0.0
  0
LINE
  5
   3C8
  8
0
  6
CONTINUOUS
 62
     7
 10
-497.571952819824
 20
-15.9678573608398
 30
0.0
 11
-501.571952819824
 21
-15.9678573608398
 31
0.0
  0
LINE
  5
   3C9
  8
0
  6
CONTINUOUS
 62
     7
 10
-497.571952819824
 20
-18.4678573608398
 30
0.0
 11
-501.571952819824
 21
-18.4678573608398
 31
0.0
  0
LINE
  5
   3CA
  8
0
  6
CONTINUOUS
 62
     7
 10
-497.571952819824
 20
-19.2178573608398
 30
0.0
 11
-499.571952819824
 21
-19.2178573608398
 31
0.0
  0
LINE
  5
   3CB
  8
0
  6
CONTINUOUS
 62
     7
 10
-499.571952819824
 20
-19.2178573608398
 30
0.0
 11
-499.571952819824
 21
-15.2178573608398
 31
0.0
  0
LINE
  5
   3CC
  8
0
  6
CONTINUOUS
 62
     7
 10
-501.571952819824
 20
-18.4678573608398
 30
0.0
 11
-501.571952819824
 21
-15.9678573608398
 31
0.0
  0
CIRCLE
  5
   3CD
  8
0
  6
CONTINUOUS
 62
     7
 10
-498.426358446213
 20
50.3736500611798
 30
0.0
 40
0.1
  0
LINE
  5
   3CE
  8
0
  6
CONTINUOUS
 62
   253
 10
-513.221960449219
 20
-31.9678573608398
 30
0.0
 11
-517.581313539819
 21
-31.9678573608398
 31
0.0
  0
LINE
  5
   3CF
  8
0
  6
CONTINUOUS
 62
   253
 10
-513.221960449219
 20
-43.9678573608398
 30
0.0
 11
-517.581313539819
 21
-43.9678573608398
 31
0.0
  0
LINE
  5
   3D0
  8
0
  6
CONTINUOUS
 62
   212
 10
-525.071952819824
 20
-40.9678573608398
 30
0.0
 11
-525.071952819824
 21
-34.9678573608398
 31
0.0
  0
LINE
  5
   3D1
  8
0
  6
CONTINUOUS
 62
   212
 10
-513.221960449219
 20
-33.9678573608398
 30
0.0
 11
-517.581313539819
 21
-33.9678573608398
 31
0.0
  0
LINE
  5
   3D2
  8
0
  6
CONTINUOUS
 62
   212
 10
-513.221960449219
 20
-41.9678573608398
 30
0.0
 11
-517.581313539819
 21
-41.9678573608398
 31
0.0
  0
LINE
  5
   3D3
  8
0
  6
CONTINUOUS
 62
   212
 10
-513.221960449219
 20
-34.4678573608398
 30
0.0
 11
-517.581313539819
 21
-34.4678573608398
 31
0.0
  0
LINE
  5
   3D4
  8
0
  6
CONTINUOUS
 62
   212
 10
-513.221960449219
 20
-41.4678573608398
 30
0.0
 11
-517.581313539819
 21
-41.4678573608398
 31
0.0
  0
LINE
  5
   3D5
  8
0
  6
CONTINUOUS
 62
   212
 10
-524.071952819824
 20
-41.9678573608398
 30
0.0
 11
-524.071952819824
 21
-33.9678573608398
 31
0.0
  0
LINE
  5
   3D6
  8
0
  6
CONTINUOUS
 62
   212
 10
-525.071952819824
 20
-34.9678573608398
 30
0.0
 11
-524.071952819824
 21
-33.9678573608398
 31
0.0
  0
LINE
  5
   3D7
  8
0
  6
CONTINUOUS
 62
   212
 10
-524.071952819824
 20
-41.9678573608399
 30
0.0
 11
-525.071952819824
 21
-40.9678573608398
 31
0.0
  0
LINE
  5
   3D8
  8
0
  6
CONTINUOUS
 62
     7
 10
-503.321960449219
 20
-31.4678573608398
 30
0.0
 11
-503.721960449219
 21
-31.4678573608398
 31
0.0
  0
LINE
  5
   3D9
  8
0
  6
CONTINUOUS
 62
     7
 10
-503.721960449219
 20
-44.6553573608398
 30
0.0
 11
-503.721960449219
 21
-31.2803573608398
 31
0.0
  0
LINE
  5
   3DA
  8
0
  6
CONTINUOUS
 62
     7
 10
-503.321960449219
 20
-44.4678573608398
 30
0.0
 11
-503.721960449219
 21
-44.4678573608398
 31
0.0
  0
LINE
  5
   3DB
  8
0
  6
CONTINUOUS
 62
     7
 10
-503.721960449219
 20
-31.2803573608398
 30
0.0
 11
-507.721960449219
 21
-31.2803573608398
 31
0.0
  0
LINE
  5
   3DC
  8
0
  6
CONTINUOUS
 62
     7
 10
-507.721960449219
 20
-44.6553573608398
 30
0.0
 11
-507.721960449219
 21
-31.2803573608398
 31
0.0
  0
LINE
  5
   3DD
  8
0
  6
CONTINUOUS
 62
     7
 10
-503.721960449219
 20
-41.1553573608398
 30
0.0
 11
-507.721960449219
 21
-41.1553573608398
 31
0.0
  0
LINE
  5
   3DE
  8
0
  6
CONTINUOUS
 62
     7
 10
-503.721960449219
 20
-34.7803573608398
 30
0.0
 11
-507.721960449219
 21
-34.7803573608398
 31
0.0
  0
LINE
  5
   3DF
  8
0
  6
CONTINUOUS
 62
     7
 10
-503.721960449219
 20
-44.6553573608398
 30
0.0
 11
-507.721960449219
 21
-44.6553573608398
 31
0.0
  0
LINE
  5
   3E0
  8
0
  6
CONTINUOUS
 62
     7
 10
-507.721960449219
 20
-31.2803573608398
 30
0.0
 11
-511.721960449219
 21
-31.2803573608398
 31
0.0
  0
LINE
  5
   3E1
  8
0
  6
CONTINUOUS
 62
     7
 10
-507.721960449219
 20
-34.7803573608398
 30
0.0
 11
-511.721960449219
 21
-34.7803573608398
 31
0.0
  0
LINE
  5
   3E2
  8
0
  6
CONTINUOUS
 62
     7
 10
-507.721960449219
 20
-41.1553573608398
 30
0.0
 11
-511.721960449219
 21
-41.1553573608398
 31
0.0
  0
LINE
  5
   3E3
  8
0
  6
CONTINUOUS
 62
     7
 10
-507.721960449219
 20
-44.6553573608398
 30
0.0
 11
-511.721960449219
 21
-44.6553573608398
 31
0.0
  0
LINE
  5
   3E4
  8
0
  6
CONTINUOUS
 62
     7
 10
-511.721960449219
 20
-44.6553573608398
 30
0.0
 11
-511.721960449219
 21
-31.2803573608398
 31
0.0
  0
LINE
  5
   3E5
  8
0
  6
CONTINUOUS
 62
     7
 10
-519.081313539819
 20
-31.2803573608398
 30
0.0
 11
-523.081313539819
 21
-31.2803573608398
 31
0.0
  0
LINE
  5
   3E6
  8
0
  6
CONTINUOUS
 62
     7
 10
-519.081313539819
 20
-34.7803573608398
 30
0.0
 11
-523.081313539819
 21
-34.7803573608398
 31
0.0
  0
LINE
  5
   3E7
  8
0
  6
CONTINUOUS
 62
     7
 10
-519.081313539819
 20
-41.1553573608398
 30
0.0
 11
-523.081313539819
 21
-41.1553573608398
 31
0.0
  0
LINE
  5
   3E8
  8
0
  6
CONTINUOUS
 62
     7
 10
-519.081313539819
 20
-44.6553573608398
 30
0.0
 11
-523.081313539819
 21
-44.6553573608398
 31
0.0
  0
LINE
  5
   3E9
  8
0
  6
CONTINUOUS
 62
     7
 10
-517.581313539819
 20
-44.5928573608398
 30
0.0
 11
-519.081313539819
 21
-44.5928573608398
 31
0.0
  0
LINE
  5
   3EA
  8
0
  6
CONTINUOUS
 62
     7
 10
-517.581313539819
 20
-31.3428573608398
 30
0.0
 11
-519.081313539819
 21
-31.3428573608398
 31
0.0
  0
LINE
  5
   3EB
  8
0
  6
CONTINUOUS
 62
     7
 10
-523.081313539819
 20
-44.6553573608398
 30
0.0
 11
-523.081313539819
 21
-31.2803573608398
 31
0.0
  0
LINE
  5
   3EC
  8
0
  6
CONTINUOUS
 62
     7
 10
-519.081313539819
 20
-44.6553573608398
 30
0.0
 11
-519.081313539819
 21
-31.2803573608398
 31
0.0
  0
LINE
  5
   3ED
  8
0
  6
CONTINUOUS
 62
     7
 10
-517.581313539819
 20
-44.5928573608398
 30
0.0
 11
-517.581313539819
 21
-31.3428573608398
 31
0.0
  0
LINE
  5
   3EE
  8
0
  6
CONTINUOUS
 62
   212
 10
-523.081313539819
 20
-33.9678573608398
 30
0.0
 11
-524.071952819824
 21
-33.9678573608398
 31
0.0
  0
LINE
  5
   3EF
  8
0
  6
CONTINUOUS
 62
   212
 10
-523.081313539819
 20
-34.4678573608398
 30
0.0
 11
-524.571952819824
 21
-34.4678573608398
 31
0.0
  0
LINE
  5
   3F0
  8
0
  6
CONTINUOUS
 62
   212
 10
-523.081313539819
 20
-41.4678573608398
 30
0.0
 11
-524.571952819824
 21
-41.4678573608398
 31
0.0
  0
LINE
  5
   3F1
  8
0
  6
CONTINUOUS
 62
   212
 10
-523.081313539819
 20
-41.9678573608398
 30
0.0
 11
-524.071952819824
 21
-41.9678573608398
 31
0.0
  0
LINE
  5
   3F2
  8
0
  6
CONTINUOUS
 62
     7
 10
-511.721960449219
 20
-31.3428573608398
 30
0.0
 11
-513.221960449219
 21
-31.3428573608398
 31
0.0
  0
LINE
  5
   3F3
  8
0
  6
CONTINUOUS
 62
     7
 10
-513.221960449219
 20
-44.5928573608398
 30
0.0
 11
-513.221960449219
 21
-31.3428573608398
 31
0.0
  0
LINE
  5
   3F4
  8
0
  6
CONTINUOUS
 62
     7
 10
-511.721960449219
 20
-44.5928573608398
 30
0.0
 11
-513.221960449219
 21
-44.5928573608398
 31
0.0
  0
TEXT
  5
   3F5
  8
0
  6
CONTINUOUS
 62
     7
 10
-572.231697082314
 20
6.39810620570351E-2
 30
0.0
 40
3.00000002980232
  1
=          =
 50
89.9999999480344
 41
0.916666604744064
 72
     1
 11
-573.73169708252
 21
16.2889801263809
 31
0.0
 73
     2
  0
INSERT
  5
   3F6
  8
0
  6
CONTINUOUS
 62
     7
  2
*UDIM2457
 10
0.0
 20
0.0
 30
0.0
  0
INSERT
  5
   3F7
  8
0
  6
CONTINUOUS
 62
     7
  2
*UDIM2458
 10
0.0
 20
0.0
 30
0.0
  0
TEXT
  5
   3F8
  8
0
  6
CONTINUOUS
 62
     7
 10
-372.354972847824
 20
22.4991466359619
 30
0.0
 40
3.00000002980232
  1
=     =
 50
89.9999999480344
 41
0.916666604744064
 72
     2
 11
-372.354972830887
 21
41.1991455541376
 31
0.0
  0
TEXT
  5
   3F9
  8
0
  6
CONTINUOUS
 62
     7
 10
-364.575393685226
 20
22.9085933522705
 30
0.0
 40
3.00000002980232
  1
=     =
 50
89.9999999480344
 41
0.916666604744064
 72
     2
 11
-364.575393668289
 21
41.6085922704462
 31
0.0
  0
TEXT
  5
   3FA
  8
0
  6
CONTINUOUS
 62
     7
 10
-389.551948562059
 20
0.287141812972646
 30
0.0
 40
3.00000002980232
  1
=          =
 50
89.9999999480344
 41
0.916666604744064
 72
     2
 11
-389.551948532668
 21
32.7371399389033
 31
0.0
  0
INSERT
  5
   3FB
  8
0
  6
CONTINUOUS
 62
     7
  2
*UDIM2459
 10
0.0
 20
0.0
 30
0.0
  0
INSERT
  5
   3FC
  8
0
  6
CONTINUOUS
 62
     7
  2
*UDIM2460
 10
0.0
 20
0.0
 30
0.0
  0
INSERT
  5
   3FD
  8
0
  6
CONTINUOUS
 62
     7
  2
*UDIM2461
 10
0.0
 20
0.0
 30
0.0
  0
INSERT
  5
   3FE
  8
0
  6
CONTINUOUS
 62
     7
  2
*UDIM2462
 10
0.0
 20
0.0
 30
0.0
  0
INSERT
  5
   3FF
  8
0
  6
CONTINUOUS
 62
     7
  2
*UDIM2463
 10
0.0
 20
0.0
 30
0.0
  0
INSERT
  5
   400
  8
0
  6
CONTINUOUS
 62
     7
  2
*UDIM2464
 10
0.0
 20
0.0
 30
0.0
  0
INSERT
  5
   401
  8
0
  6
CONTINUOUS
 62
     7
  2
*UDIM2465
 10
0.0
 20
0.0
 30
0.0
  0
INSERT
  5
   402
  8
0
  6
CONTINUOUS
 62
     7
  2
*UDIM2466
 10
0.0
 20
0.0
 30
0.0
  0
TEXT
  5
   403
  8
0
  6
CONTINUOUS
 62
     7
 10
-386.532371432942
 20
14.5784879035727
 30
0.0
 40
3.00000002980232
  1
X
 50
359.999999948034
 41
0.916666604744064
 72
     1
 11
-385.432371497154
 21
16.0784879174817
 31
0.0
 73
     2
  0
LINE
  5
   404
  8
0
  6
CONTINUOUS
 62
     7
 10
-654.175743105132
 20
68.0321502685547
 30
0.0
 11
-654.175743105132
 21
78.6321426391601
 31
0.0
  0
LINE
  5
   405
  8
0
  6
CONTINUOUS
 62
     7
 10
-584.175766481879
 20
-11.7178326416194
 30
0.0
 11
-584.175766481879
 21
-10.7178326416194
 31
0.0
  0
LINE
  5
   406
  8
0
  6
CONTINUOUS
 62
     7
 10
-654.175766481879
 20
-11.7178326416194
 30
0.0
 11
-654.175766481879
 21
-10.7178326416194
 31
0.0
  0
LINE
  5
   407
  8
0
  6
CONTINUOUS
 62
     7
 10
-584.175766481879
 20
-45.5678311157405
 30
0.0
 11
-584.175766481879
 21
-11.7178326416194
 31
0.0
  0
LINE
  5
   408
  8
0
  6
CONTINUOUS
 62
     7
 10
-654.175766481879
 20
-45.5678326654612
 30
0.0
 11
-654.175766481879
 21
-11.7178341913402
 31
0.0
  0
LINE
  5
   409
  8
0
  6
DASHDOT
 62
     7
 10
-626.738271327159
 20
-8.71781616502544
 30
0.0
 11
-633.488222173843
 21
-8.71781616502544
 31
0.0
  0
LINE
  5
   40A
  8
0
  6
DASHDOT
 62
     7
 10
-604.863281995475
 20
-8.71779038263653
 30
0.0
 11
-611.613152254628
 21
-8.71779038263653
 31
0.0
  0
LINE
  5
   40B
  8
0
  6
CONTINUOUS
 62
     1
 10
-584.175766677506
 20
43.9071578979492
 30
0.0
 11
-584.175766677506
 21
68.0321502685547
 31
0.0
  0
LINE
  5
   40C
  8
0
  6
CONTINUOUS
 62
     1
 10
-584.175766677506
 20
-16.2178497612476
 30
0.0
 11
-584.175766677506
 21
-8.59284210205078
 31
0.0
  0
LINE
  5
   40D
  8
0
  6
CONTINUOUS
 62
     1
 10
-654.175766677506
 20
-16.2178497612476
 30
0.0
 11
-654.175766677506
 21
-8.59285736083982
 31
0.0
  0
LINE
  5
   40E
  8
0
  6
CONTINUOUS
 62
     1
 10
-654.175766677506
 20
43.9071426391602
 30
0.0
 11
-654.175766677506
 21
68.0321502685547
 31
0.0
  0
LINE
  5
   40F
  8
0
  6
CONTINUOUS
 62
     1
 10
-584.6757743069
 20
-16.7178497314453
 30
0.0
 11
-589.925766677506
 21
-16.7178497314453
 31
0.0
  0
LINE
  5
   410
  8
0
  6
CONTINUOUS
 62
     1
 10
-654.175766677506
 20
-8.5928497314453
 30
0.0
 11
-654.175766677506
 21
43.9071502685547
 31
0.0
  0
LINE
  5
   411
  8
0
  6
CONTINUOUS
 62
     1
 10
-584.175766677506
 20
-8.59284973144532
 30
0.0
 11
-584.175766677506
 21
43.9071502685547
 31
0.0
  0
LINE
  5
   412
  8
0
  6
CONTINUOUS
 62
     1
 10
-584.425766677506
 20
-8.59284973144531
 30
0.0
 11
-589.925766677506
 21
-8.59284973144531
 31
0.0
  0
ARC
  5
   413
  8
0
  6
CONTINUOUS
 62
     1
 10
-584.425766677506
 20
-8.34284973144531
 30
0.0
 40
0.25
 50
269.999999948034
 51
359.999999948034
  0
ARC
  5
   414
  8
0
  6
CONTINUOUS
 62
     1
 10
-653.925766677506
 20
-8.34284973144531
 30
0.0
 40
0.25
 50
179.999999948034
 51
269.999999948034
  0
LINE
  5
   415
  8
0
  6
CONTINUOUS
 62
     1
 10
-584.175766677506
 20
-16.2178497612476
 30
0.0
 11
-589.925766677506
 21
-16.2178497612476
 31
0.0
  0
LINE
  5
   416
  8
0
  6
CONTINUOUS
 62
     1
 10
-648.425766677506
 20
-16.2178497612476
 30
0.0
 11
-654.175766677506
 21
-16.2178497612476
 31
0.0
  0
LINE
  5
   417
  8
0
  6
CONTINUOUS
 62
     1
 10
-584.6757743069
 20
-16.7178497314455
 30
0.0
 11
-584.6757743069
 21
-16.2178497612478
 31
0.0
  0
LINE
  5
   418
  8
0
  6
CONTINUOUS
 62
     1
 10
-653.675759048111
 20
-16.7178497314455
 30
0.0
 11
-653.675759048111
 21
-16.2178497612478
 31
0.0
  0
LINE
  5
   419
  8
0
  6
CONTINUOUS
 62
     1
 10
-592.750771255143
 20
-8.59285736083984
 30
0.0
 11
-592.750771255143
 21
43.9071426391601
 31
0.0
  0
LINE
  5
   41A
  8
0
  6
CONTINUOUS
 62
     1
 10
-592.750771255143
 20
57.6571502685547
 30
0.0
 11
-592.750771255143
 21
68.0321426391601
 31
0.0
  0
LINE
  5
   41B
  8
0
  6
CONTINUOUS
 62
     1
 10
-592.750771255143
 20
-48.2178270147225
 30
0.0
 11
-592.750771255143
 21
-22.8428478240967
 31
0.0
  0
LINE
  5
   41C
  8
0
  6
CONTINUOUS
 62
     1
 10
-644.675766677506
 20
57.6571502685547
 30
0.0
 11
-644.675766677506
 21
65.5321502685547
 31
0.0
  0
LINE
  5
   41D
  8
0
  6
CONTINUOUS
 62
     1
 10
-593.675766677506
 20
57.6571502685547
 30
0.0
 11
-593.675766677506
 21
65.5321502685547
 31
0.0
  0
LINE
  5
   41E
  8
0
  6
CONTINUOUS
 62
     1
 10
-593.675766677506
 20
65.5321502685547
 30
0.0
 11
-644.675766677506
 21
65.5321502685547
 31
0.0
  0
LINE
  5
   41F
  8
0
  6
CONTINUOUS
 62
     3
 10
-632.9257743069
 20
-8.84284973144531
 30
0.0
 11
-637.925766677506
 21
-8.84284973144531
 31
0.0
  0
LINE
  5
   420
  8
0
  6
CONTINUOUS
 62
     3
 10
-600.425781936295
 20
-8.84284973144531
 30
0.0
 11
-605.425781936295
 21
-8.84284973144531
 31
0.0
  0
LINE
  5
   421
  8
0
  6
CONTINUOUS
 62
     3
 10
-592.925766677506
 20
-8.59284973144531
 30
0.0
 11
-592.925766677506
 21
0.657142639160156
 31
0.0
  0
LINE
  5
   422
  8
0
  6
CONTINUOUS
 62
     3
 10
-645.425766677506
 20
-8.59284973144531
 30
0.0
 11
-645.425766677506
 21
0.657142639160156
 31
0.0
  0
LINE
  5
   423
  8
0
  6
CONTINUOUS
 62
     3
 10
-593.175766677506
 20
43.6571502685547
 30
0.0
 11
-645.175766677492
 21
43.6571502685547
 31
0.0
  0
LINE
  5
   424
  8
0
  6
CONTINUOUS
 62
     3
 10
-637.925766677506
 20
-8.84284973144531
 30
0.0
 11
-645.175766677506
 21
-8.84284973144531
 31
0.0
  0
LINE
  5
   425
  8
0
  6
CONTINUOUS
 62
     3
 10
-605.425781936295
 20
-8.84284973144531
 30
0.0
 11
-632.9257743069
 21
-8.84284973144531
 31
0.0
  0
LINE
  5
   426
  8
0
  6
CONTINUOUS
 62
     3
 10
-593.175766677506
 20
-8.84284973144531
 30
0.0
 11
-600.425781936295
 21
-8.84284973144531
 31
0.0
  0
LINE
  5
   427
  8
0
  6
CONTINUOUS
 62
     3
 10
-613.800766677506
 20
2.53214263916016
 30
0.0
 11
-613.800766677506
 21
22.5321350097656
 31
0.0
  0
LINE
  5
   428
  8
0
  6
CONTINUOUS
 62
     3
 10
-624.550766677506
 20
2.53214263916016
 30
0.0
 11
-624.550766677506
 21
22.5321350097656
 31
0.0
  0
LINE
  5
   429
  8
0
  6
CONTINUOUS
 62
     1
 10
-592.925766677506
 20
37.9071350097656
 30
0.0
 11
-645.425766677506
 21
37.9071350097656
 31
0.0
  0
LINE
  5
   42A
  8
0
  6
CONTINUOUS
 62
     1
 10
-592.925766677506
 20
42.9071350097656
 30
0.0
 11
-645.425766677506
 21
42.9071350097656
 31
0.0
  0
LINE
  5
   42B
  8
0
  6
CONTINUOUS
 62
     3
 10
-613.800766677506
 20
22.39990234375
 30
0.0
 11
-624.550766677506
 21
22.39990234375
 31
0.0
  0
LINE
  5
   42C
  8
0
  6
CONTINUOUS
 62
     3
 10
-613.800766677506
 20
22.5321350097656
 30
0.0
 11
-624.550766677506
 21
22.5321350097656
 31
0.0
  0
LINE
  5
   42D
  8
0
  6
CONTINUOUS
 62
     3
 10
-613.800766677506
 20
2.53214263916016
 30
0.0
 11
-624.550766677506
 21
2.53214263916016
 31
0.0
  0
LINE
  5
   42E
  8
0
  6
CONTINUOUS
 62
     3
 10
-613.800766677506
 20
2.66439056396484
 30
0.0
 11
-624.550766677506
 21
2.66439056396484
 31
0.0
  0
LINE
  5
   42F
  8
0
  6
DASHDOT
 62
     3
 10
-619.175766677506
 20
-57.2851516079912
 30
0.0
 11
-619.175766677506
 21
84.9395297683342
 31
0.0
  0
LINE
  5
   430
  8
0
  6
CONTINUOUS
 62
     3
 10
-592.925774306901
 20
1.15714263916016
 30
0.0
 11
-592.925774306901
 21
7.15713866254091
 31
0.0
  0
LINE
  5
   431
  8
0
  6
CONTINUOUS
 62
     3
 10
-592.925774306901
 20
24.4071426391602
 30
0.0
 11
-592.925774306901
 21
43.4071502685547
 31
0.0
  0
LINE
  5
   432
  8
0
  6
CONTINUOUS
 62
     3
 10
-592.925774306901
 20
7.65713866254094
 30
0.0
 11
-592.925774306901
 21
17.4071426391602
 31
0.0
  0
LINE
  5
   433
  8
0
  6
CONTINUOUS
 62
     3
 10
-592.925774306901
 20
17.9071426391602
 30
0.0
 11
-592.925774306901
 21
23.9071426391602
 31
0.0
  0
LINE
  5
   434
  8
0
  6
CONTINUOUS
 62
     3
 10
-645.425766677509
 20
1.15714263916016
 30
0.0
 11
-645.425766677509
 21
7.15714263916124
 31
0.0
  0
LINE
  5
   435
  8
0
  6
CONTINUOUS
 62
     3
 10
-645.425766677517
 20
7.65714263916128
 30
0.0
 11
-645.425766677517
 21
17.4071426391602
 31
0.0
  0
LINE
  5
   436
  8
0
  6
CONTINUOUS
 62
     3
 10
-645.425766677503
 20
17.9071426391602
 30
0.0
 11
-645.425766677503
 21
23.9071426391602
 31
0.0
  0
LINE
  5
   437
  8
0
  6
CONTINUOUS
 62
     3
 10
-645.425766677492
 20
24.4071426391602
 30
0.0
 11
-645.425766677492
 21
43.4071502685547
 31
0.0
  0
LINE
  5
   438
  8
0
  6
CONTINUOUS
 62
     1
 10
-624.550770664368
 20
7.15715225687228
 30
0.0
 11
-644.925766707308
 21
7.15715225687228
 31
0.0
  0
LINE
  5
   439
  8
0
  6
CONTINUOUS
 62
     3
 10
-592.925774306901
 20
7.15714828024915
 30
0.0
 11
-593.4257743069
 21
7.15714828024915
 31
0.0
  0
LINE
  5
   43A
  8
0
  6
CONTINUOUS
 62
     1
 10
-624.550780443912
 20
7.65715225687523
 30
0.0
 11
-644.925766707308
 21
7.65715225687523
 31
0.0
  0
LINE
  5
   43B
  8
0
  6
CONTINUOUS
 62
     3
 10
-592.925774306901
 20
7.6571482802491
 30
0.0
 11
-593.4257743069
 21
7.6571482802491
 31
0.0
  0
LINE
  5
   43C
  8
0
  6
CONTINUOUS
 62
     3
 10
-644.925766707308
 20
7.15714263916016
 30
0.0
 11
-644.925766707308
 21
7.65714263916016
 31
0.0
  0
LINE
  5
   43D
  8
0
  6
CONTINUOUS
 62
     3
 10
-593.4257743069
 20
7.15714263916016
 30
0.0
 11
-593.4257743069
 21
7.65714263916016
 31
0.0
  0
LINE
  5
   43E
  8
0
  6
CONTINUOUS
 62
     3
 10
-592.925766677506
 20
0.657142639160156
 30
0.0
 11
-593.4257743069
 21
0.657142639160156
 31
0.0
  0
LINE
  5
   43F
  8
0
  6
CONTINUOUS
 62
     3
 10
-592.925774306901
 20
1.15714263916016
 30
0.0
 11
-593.4257743069
 21
1.15714263916016
 31
0.0
  0
LINE
  5
   440
  8
0
  6
CONTINUOUS
 62
     3
 10
-644.925766707308
 20
0.657142639160156
 30
0.0
 11
-644.925766707308
 21
1.15714263916016
 31
0.0
  0
LINE
  5
   441
  8
0
  6
CONTINUOUS
 62
     3
 10
-593.4257743069
 20
0.657142639160156
 30
0.0
 11
-593.4257743069
 21
1.15714263916016
 31
0.0
  0
LINE
  5
   442
  8
0
  6
CONTINUOUS
 62
     3
 10
-592.925774306901
 20
23.9071426391602
 30
0.0
 11
-593.4257743069
 21
23.9071426391602
 31
0.0
  0
LINE
  5
   443
  8
0
  6
CONTINUOUS
 62
     3
 10
-592.925774306901
 20
24.4071426391602
 30
0.0
 11
-593.4257743069
 21
24.4071426391602
 31
0.0
  0
LINE
  5
   444
  8
0
  6
CONTINUOUS
 62
     3
 10
-644.925766707308
 20
23.9071426391602
 30
0.0
 11
-644.925766707308
 21
24.4071426391602
 31
0.0
  0
LINE
  5
   445
  8
0
  6
CONTINUOUS
 62
     3
 10
-593.4257743069
 20
23.9071426391602
 30
0.0
 11
-593.4257743069
 21
24.4071426391602
 31
0.0
  0
LINE
  5
   446
  8
0
  6
CONTINUOUS
 62
     1
 10
-624.550770641215
 20
17.4071426391602
 30
0.0
 11
-644.925766707308
 21
17.4071426391602
 31
0.0
  0
LINE
  5
   447
  8
0
  6
CONTINUOUS
 62
     3
 10
-592.925774306901
 20
17.4071426391602
 30
0.0
 11
-593.4257743069
 21
17.4071426391602
 31
0.0
  0
LINE
  5
   448
  8
0
  6
CONTINUOUS
 62
     1
 10
-624.550766677506
 20
17.9071426391602
 30
0.0
 11
-644.925766707308
 21
17.9071426391602
 31
0.0
  0
LINE
  5
   449
  8
0
  6
CONTINUOUS
 62
     3
 10
-592.925774306901
 20
17.9071426391602
 30
0.0
 11
-593.4257743069
 21
17.9071426391602
 31
0.0
  0
LINE
  5
   44A
  8
0
  6
CONTINUOUS
 62
     3
 10
-644.925766707308
 20
17.4071426391602
 30
0.0
 11
-644.925766707308
 21
17.9071426391602
 31
0.0
  0
LINE
  5
   44B
  8
0
  6
CONTINUOUS
 62
     3
 10
-593.4257743069
 20
17.4071426391602
 30
0.0
 11
-593.4257743069
 21
17.9071426391602
 31
0.0
  0
ARC
  5
   44C
  8
0
  6
CONTINUOUS
 62
     3
 10
-645.175766677506
 20
-8.59284973144531
 30
0.0
 40
0.25
 50
179.999999948034
 51
269.999999948034
  0
ARC
  5
   44D
  8
0
  6
CONTINUOUS
 62
     3
 10
-593.175766677506
 20
-8.59284973144531
 30
0.0
 40
0.25
 50
269.999999948034
 51
359.999999948034
  0
ARC
  5
   44E
  8
0
  6
CONTINUOUS
 62
     3
 10
-593.175766677506
 20
43.4071502685547
 30
0.0
 40
0.25
 50
359.999999948034
 51
449.999999948034
  0
ARC
  5
   44F
  8
0
  6
CONTINUOUS
 62
     3
 10
-645.175766677492
 20
43.4071502685547
 30
0.0
 40
0.25
 50
449.999999948034
 51
539.999999948034
  0
INSERT
  5
   450
  8
255
  6
CONTINUOUS
 62
     3
  2
$1ON-OFF
 10
-609.175771560319
 20
20.9071426391602
 30
0.0
 41
0.5
 42
0.5
 50
359.999999792137
 43
0.5
  0
LINE
  5
   451
  8
0
  6
CONTINUOUS
 62
     1
 10
-630.425766677506
 20
23.1571426391602
 30
0.0
 11
-631.175766677506
 21
23.1571426391602
 31
0.0
  0
LINE
  5
   452
  8
0
  6
CONTINUOUS
 62
     1
 10
-630.425766677506
 20
18.6571426391602
 30
0.0
 11
-631.175766677506
 21
18.6571426391602
 31
0.0
  0
CIRCLE
  5
   453
  8
0
  6
CONTINUOUS
 62
     1
 10
-630.800766677506
 20
4.15714263916017
 30
0.0
 40
2.25
  0
CIRCLE
  5
   454
  8
0
  6
CONTINUOUS
 62
     1
 10
-630.800766677506
 20
4.15714263916017
 30
0.0
 40
1.5
  0
LINE
  5
   455
  8
0
  6
CONTINUOUS
 62
     1
 10
-631.175766677506
 20
18.6571426391602
 30
0.0
 11
-631.175766677506
 21
23.1571426391602
 31
0.0
  0
LINE
  5
   456
  8
0
  6
CONTINUOUS
 62
     1
 10
-630.425766677506
 20
18.6571426391602
 30
0.0
 11
-630.425766677506
 21
23.1571426391602
 31
0.0
  0
LINE
  5
   457
  8
0
  6
CONTINUOUS
 62
     1
 10
-625.925766677506
 20
1.15714263916016
 30
0.0
 11
-625.925766677506
 21
7.15714978374292
 31
0.0
  0
LINE
  5
   458
  8
0
  6
CONTINUOUS
 62
     1
 10
-612.425766677506
 20
1.15714263916016
 30
0.0
 11
-612.425766677506
 21
7.15714580711978
 31
0.0
  0
LINE
  5
   459
  8
0
  6
CONTINUOUS
 62
     1
 10
-612.425766677506
 20
17.9071426391602
 30
0.0
 11
-612.425766677506
 21
23.9071426391602
 31
0.0
  0
LINE
  5
   45A
  8
0
  6
CONTINUOUS
 62
     1
 10
-625.925766677506
 20
17.9071426391602
 30
0.0
 11
-625.925766677506
 21
23.9071426391602
 31
0.0
  0
LINE
  5
   45B
  8
0
  6
CONTINUOUS
 62
     7
 10
-584.175766481879
 20
-17.2178326416192
 30
0.0
 11
-589.925766677506
 21
-17.2178326416192
 31
0.0
  0
LINE
  5
   45C
  8
0
  6
CONTINUOUS
 62
     7
 10
-613.800766677506
 20
6.87179309554799
 30
0.0
 11
-624.550766677506
 21
6.87179309554799
 31
0.0
  0
LINE
  5
   45D
  8
0
  6
CONTINUOUS
 62
     7
 10
-613.800766677506
 20
9.34485368351984
 30
0.0
 11
-624.550766677506
 21
9.34485368351984
 31
0.0
  0
LINE
  5
   45E
  8
0
  6
CONTINUOUS
 62
     7
 10
-613.800766677506
 20
2.91131726922709
 30
0.0
 11
-624.550766677506
 21
2.91131726922709
 31
0.0
  0
LINE
  5
   45F
  8
0
  6
CONTINUOUS
 62
     1
 10
-644.925766707308
 20
24.4071426391602
 30
0.0
 11
-645.425766677492
 21
24.4071426391602
 31
0.0
  0
LINE
  5
   460
  8
0
  6
CONTINUOUS
 62
     1
 10
-644.925766707308
 20
23.9071426391602
 30
0.0
 11
-645.425766677503
 21
23.9071426391602
 31
0.0
  0
LINE
  5
   461
  8
0
  6
CONTINUOUS
 62
     3
 10
-644.925766707308
 20
17.9071426391602
 30
0.0
 11
-645.425766677503
 21
17.9071426391602
 31
0.0
  0
LINE
  5
   462
  8
0
  6
CONTINUOUS
 62
     3
 10
-644.925766707308
 20
17.4071426391602
 30
0.0
 11
-645.425766677517
 21
17.4071426391602
 31
0.0
  0
LINE
  5
   463
  8
0
  6
CONTINUOUS
 62
     3
 10
-644.925766707308
 20
7.65715225687523
 30
0.0
 11
-645.425766677517
 21
7.65715225687523
 31
0.0
  0
LINE
  5
   464
  8
0
  6
CONTINUOUS
 62
     3
 10
-644.925766707308
 20
7.15715225687228
 30
0.0
 11
-645.425766677509
 21
7.15715225687228
 31
0.0
  0
LINE
  5
   465
  8
0
  6
CONTINUOUS
 62
     3
 10
-644.925766707308
 20
1.15714263916016
 30
0.0
 11
-645.425766677509
 21
1.15714263916016
 31
0.0
  0
LINE
  5
   466
  8
0
  6
CONTINUOUS
 62
     3
 10
-644.925766707308
 20
0.657142639160156
 30
0.0
 11
-645.425766677506
 21
0.657142639160156
 31
0.0
  0
LINE
  5
   467
  8
0
  6
CONTINUOUS
 62
     1
 10
-593.4257743069
 20
0.657142639160156
 30
0.0
 11
-644.925766707308
 21
0.657142639160156
 31
0.0
  0
LINE
  5
   468
  8
0
  6
CONTINUOUS
 62
     1
 10
-593.4257743069
 20
1.15714263916016
 30
0.0
 11
-644.925766707308
 21
1.15714263916016
 31
0.0
  0
LINE
  5
   469
  8
0
  6
CONTINUOUS
 62
     1
 10
-593.4257743069
 20
7.15714828024915
 30
0.0
 11
-613.80076835308
 21
7.15714828024915
 31
0.0
  0
LINE
  5
   46A
  8
0
  6
CONTINUOUS
 62
     1
 10
-593.4257743069
 20
7.6571482802491
 30
0.0
 11
-613.800768169885
 21
7.6571482802491
 31
0.0
  0
LINE
  5
   46B
  8
0
  6
CONTINUOUS
 62
     1
 10
-593.4257743069
 20
17.4071426391602
 30
0.0
 11
-613.800766677506
 21
17.4071426391602
 31
0.0
  0
LINE
  5
   46C
  8
0
  6
CONTINUOUS
 62
     1
 10
-593.4257743069
 20
17.9071426391602
 30
0.0
 11
-613.800766677506
 21
17.9071426391602
 31
0.0
  0
LINE
  5
   46D
  8
0
  6
CONTINUOUS
 62
     1
 10
-593.4257743069
 20
23.9071426391602
 30
0.0
 11
-644.925766707308
 21
23.9071426391602
 31
0.0
  0
LINE
  5
   46E
  8
0
  6
CONTINUOUS
 62
     1
 10
-593.4257743069
 20
24.4071426391602
 30
0.0
 11
-644.925766707308
 21
24.4071426391602
 31
0.0
  0
LINE
  5
   46F
  8
0
  6
CONTINUOUS
 62
     3
 10
-654.175770241392
 20
67.2821255195286
 30
0.0
 11
-654.175770241392
 21
80.6571275199511
 31
0.0
  0
LINE
  5
   470
  8
0
  6
CONTINUOUS
 62
     3
 10
-584.675770241393
 20
66.7821255493279
 30
0.0
 11
-653.675770241393
 21
66.7821255493279
 31
0.0
  0
LINE
  5
   471
  8
0
  6
CONTINUOUS
 62
     3
 10
-584.175770241407
 20
67.2821255773163
 30
0.0
 11
-584.175770241407
 21
80.6571262532698
 31
0.0
  0
LINE
  5
   472
  8
0
  6
CONTINUOUS
 62
     3
 10
-650.350770432128
 20
-48.2178270147225
 30
0.0
 11
-650.350770432128
 21
81.2821122930428
 31
0.0
  0
LINE
  5
   473
  8
0
  6
CONTINUOUS
 62
     3
 10
-648.55077071823
 20
-48.2178270147225
 30
0.0
 11
-648.55077071823
 21
81.2821122930428
 31
0.0
  0
LINE
  5
   474
  8
0
  6
CONTINUOUS
 62
     3
 10
-644.950771767272
 20
67.2821255195286
 30
0.0
 11
-644.950771767272
 21
81.2821122930428
 31
0.0
  0
LINE
  5
   475
  8
0
  6
CONTINUOUS
 62
     3
 10
-643.150776344908
 20
67.2821255195286
 30
0.0
 11
-643.150776344908
 21
81.2821122930428
 31
0.0
  0
LINE
  5
   476
  8
0
  6
CONTINUOUS
 62
     3
 10
-641.350773293151
 20
67.2821255195286
 30
0.0
 11
-641.350773293151
 21
81.2821122930428
 31
0.0
  0
LINE
  5
   477
  8
0
  6
CONTINUOUS
 62
     3
 10
-639.550777870787
 20
67.2821255195286
 30
0.0
 11
-639.550777870787
 21
81.2821122930428
 31
0.0
  0
LINE
  5
   478
  8
0
  6
CONTINUOUS
 62
     3
 10
-637.750774819029
 20
67.2821255195286
 30
0.0
 11
-637.750774819029
 21
81.2821122930428
 31
0.0
  0
LINE
  5
   479
  8
0
  6
CONTINUOUS
 62
     3
 10
-635.950771767272
 20
67.2821255195286
 30
0.0
 11
-635.950771767272
 21
81.2821122930428
 31
0.0
  0
LINE
  5
   47A
  8
0
  6
CONTINUOUS
 62
     3
 10
-634.150776344908
 20
67.2821255195286
 30
0.0
 11
-634.150776344908
 21
81.2821122930428
 31
0.0
  0
LINE
  5
   47B
  8
0
  6
CONTINUOUS
 62
     3
 10
-632.350773293151
 20
67.2821255195286
 30
0.0
 11
-632.350773293151
 21
81.2821122930428
 31
0.0
  0
LINE
  5
   47C
  8
0
  6
CONTINUOUS
 62
     3
 10
-630.550777870787
 20
67.2821255195286
 30
0.0
 11
-630.550777870787
 21
81.2821122930428
 31
0.0
  0
LINE
  5
   47D
  8
0
  6
CONTINUOUS
 62
     3
 10
-628.750774819029
 20
67.2821255195286
 30
0.0
 11
-628.750774819029
 21
81.2821122930428
 31
0.0
  0
LINE
  5
   47E
  8
0
  6
CONTINUOUS
 62
     3
 10
-626.950771767272
 20
67.2821255195286
 30
0.0
 11
-626.950771767272
 21
81.2821122930428
 31
0.0
  0
LINE
  5
   47F
  8
0
  6
CONTINUOUS
 62
     3
 10
-625.150776344908
 20
67.2821255195286
 30
0.0
 11
-625.150776344908
 21
81.2821122930428
 31
0.0
  0
LINE
  5
   480
  8
0
  6
CONTINUOUS
 62
     3
 10
-623.350773293151
 20
67.2821255195286
 30
0.0
 11
-623.350773293151
 21
81.2821122930428
 31
0.0
  0
LINE
  5
   481
  8
0
  6
CONTINUOUS
 62
     3
 10
-621.550777870787
 20
67.2821255195286
 30
0.0
 11
-621.550777870787
 21
81.2821122930428
 31
0.0
  0
LINE
  5
   482
  8
0
  6
CONTINUOUS
 62
     3
 10
-619.750774819029
 20
67.2821255195286
 30
0.0
 11
-619.750774819029
 21
81.2821122930428
 31
0.0
  0
LINE
  5
   483
  8
0
  6
CONTINUOUS
 62
     3
 10
-617.950771767272
 20
67.2821255195286
 30
0.0
 11
-617.950771767272
 21
81.2821122930428
 31
0.0
  0
LINE
  5
   484
  8
0
  6
CONTINUOUS
 62
     3
 10
-616.150776344908
 20
67.2821255195286
 30
0.0
 11
-616.150776344908
 21
81.2821122930428
 31
0.0
  0
LINE
  5
   485
  8
0
  6
CONTINUOUS
 62
     3
 10
-614.350773293151
 20
67.2821255195286
 30
0.0
 11
-614.350773293151
 21
81.2821122930428
 31
0.0
  0
LINE
  5
   486
  8
0
  6
CONTINUOUS
 62
     3
 10
-612.550777870787
 20
67.2821255195286
 30
0.0
 11
-612.550777870787
 21
81.2821122930428
 31
0.0
  0
LINE
  5
   487
  8
0
  6
CONTINUOUS
 62
     3
 10
-610.750774819029
 20
67.2821255195286
 30
0.0
 11
-610.750774819029
 21
81.2821122930428
 31
0.0
  0
LINE
  5
   488
  8
0
  6
CONTINUOUS
 62
     3
 10
-608.950771767272
 20
67.2821255195286
 30
0.0
 11
-608.950771767272
 21
81.2821122930428
 31
0.0
  0
LINE
  5
   489
  8
0
  6
CONTINUOUS
 62
     3
 10
-607.150776344908
 20
67.2821255195286
 30
0.0
 11
-607.150776344908
 21
81.2821122930428
 31
0.0
  0
LINE
  5
   48A
  8
0
  6
CONTINUOUS
 62
     3
 10
-605.350773293151
 20
67.2821255195286
 30
0.0
 11
-605.350773293151
 21
81.2821122930428
 31
0.0
  0
LINE
  5
   48B
  8
0
  6
CONTINUOUS
 62
     3
 10
-603.550777870787
 20
67.2821255195286
 30
0.0
 11
-603.550777870787
 21
81.2821122930428
 31
0.0
  0
LINE
  5
   48C
  8
0
  6
CONTINUOUS
 62
     3
 10
-601.750774819029
 20
67.2821255195286
 30
0.0
 11
-601.750774819029
 21
81.2821122930428
 31
0.0
  0
LINE
  5
   48D
  8
0
  6
CONTINUOUS
 62
     3
 10
-599.950771767272
 20
67.2821255195286
 30
0.0
 11
-599.950771767272
 21
81.2821122930428
 31
0.0
  0
LINE
  5
   48E
  8
0
  6
CONTINUOUS
 62
     3
 10
-598.150776344908
 20
67.2821255195286
 30
0.0
 11
-598.150776344908
 21
81.2821122930428
 31
0.0
  0
LINE
  5
   48F
  8
0
  6
CONTINUOUS
 62
     3
 10
-596.350773293151
 20
67.2821255195286
 30
0.0
 11
-596.350773293151
 21
81.2821122930428
 31
0.0
  0
LINE
  5
   490
  8
0
  6
CONTINUOUS
 62
     3
 10
-594.550777870787
 20
67.2821255195286
 30
0.0
 11
-594.550777870787
 21
81.2821122930428
 31
0.0
  0
LINE
  5
   491
  8
0
  6
CONTINUOUS
 62
     3
 10
-592.750774819029
 20
67.2821255195286
 30
0.0
 11
-592.750774819029
 21
81.2821122930428
 31
0.0
  0
LINE
  5
   492
  8
0
  6
CONTINUOUS
 62
     3
 10
-590.950771767272
 20
-48.2178270147225
 30
0.0
 11
-590.950771767272
 21
-22.8428478240967
 31
0.0
  0
LINE
  5
   493
  8
0
  6
CONTINUOUS
 62
     3
 10
-587.350773293151
 20
-48.2178270147225
 30
0.0
 11
-587.350773293151
 21
81.2821122930428
 31
0.0
  0
LINE
  5
   494
  8
0
  6
CONTINUOUS
 62
     3
 10
-584.22755496539
 20
67.2821255195286
 30
0.0
 11
-654.123993564023
 21
67.2821255195286
 31
0.0
  0
LINE
  5
   495
  8
0
  6
CONTINUOUS
 62
     3
 10
-584.175770322791
 20
67.2821198330804
 30
0.0
 11
-584.358830015174
 21
67.2821198330804
 31
0.0
  0
LINE
  5
   496
  8
0
  6
CONTINUOUS
 62
     3
 10
-584.675770241393
 20
66.7821255493309
 30
0.0
 11
-584.675770241393
 21
67.2821255195286
 31
0.0
  0
LINE
  5
   497
  8
0
  6
CONTINUOUS
 62
     3
 10
-654.123993564022
 20
67.2821255195286
 30
0.0
 11
-654.175770241392
 21
67.2821255195286
 31
0.0
  0
LINE
  5
   498
  8
0
  6
CONTINUOUS
 62
     3
 10
-653.675770241393
 20
66.7821255493279
 30
0.0
 11
-653.675770241393
 21
67.2821255195255
 31
0.0
  0
ARC
  5
   499
  8
0
  6
CONTINUOUS
 62
     3
 10
-653.550784268806
 20
80.6571275199511
 30
0.0
 40
0.624986446726238
 50
449.998658602021
 51
540.001080379242
  0
ARC
  5
   49A
  8
0
  6
CONTINUOUS
 62
     3
 10
-584.800764143543
 20
80.6571262532698
 30
0.0
 40
0.624984366596091
 50
359.998931305817
 51
450.001731127297
  0
LINE
  5
   49B
  8
0
  6
CONTINUOUS
 62
     7
 10
-584.800783027307
 20
81.2821122930428
 30
0.0
 11
-653.550769637309
 21
81.2821122930428
 31
0.0
  0
LINE
  5
   49C
  8
0
  6
CONTINUOUS
 62
     3
 10
-654.175770241392
 20
-47.5928422416307
 30
0.0
 11
-654.175770241392
 21
-34.2178402412083
 31
0.0
  0
LINE
  5
   49D
  8
0
  6
CONTINUOUS
 62
     3
 10
-584.675770241393
 20
-33.7178402710076
 30
0.0
 11
-653.675770241393
 21
-33.7178402710076
 31
0.0
  0
LINE
  5
   49E
  8
0
  6
CONTINUOUS
 62
     3
 10
-584.175770241407
 20
-47.5928409749495
 30
0.0
 11
-584.175770241407
 21
-34.217840298996
 31
0.0
  0
LINE
  5
   49F
  8
0
  6
CONTINUOUS
 62
     3
 10
-652.150770622862
 20
-48.2178270147225
 30
0.0
 11
-652.150770622862
 21
81.2821122930428
 31
0.0
  0
LINE
  5
   4A0
  8
0
  6
CONTINUOUS
 62
     3
 10
-646.750770527495
 20
-48.2178270147225
 30
0.0
 11
-646.750770527495
 21
-22.8428478240967
 31
0.0
  0
LINE
  5
   4A1
  8
0
  6
CONTINUOUS
 62
     3
 10
-644.950771767272
 20
-48.2178270147225
 30
0.0
 11
-644.950771767272
 21
-34.2178402412083
 31
0.0
  0
LINE
  5
   4A2
  8
0
  6
CONTINUOUS
 62
     3
 10
-643.150776344908
 20
-48.2178270147225
 30
0.0
 11
-643.150776344908
 21
-34.2178402412083
 31
0.0
  0
LINE
  5
   4A3
  8
0
  6
CONTINUOUS
 62
     3
 10
-641.35077329315
 20
-48.2178270147225
 30
0.0
 11
-641.35077329315
 21
-34.2178402412083
 31
0.0
  0
LINE
  5
   4A4
  8
0
  6
CONTINUOUS
 62
     3
 10
-639.550777870787
 20
-48.2178270147225
 30
0.0
 11
-639.550777870787
 21
-34.2178402412083
 31
0.0
  0
LINE
  5
   4A5
  8
0
  6
CONTINUOUS
 62
     3
 10
-637.750774819029
 20
-48.2178270147225
 30
0.0
 11
-637.750774819029
 21
-34.2178402412083
 31
0.0
  0
LINE
  5
   4A6
  8
0
  6
CONTINUOUS
 62
     3
 10
-635.950771767272
 20
-48.2178270147225
 30
0.0
 11
-635.950771767272
 21
-34.2178402412083
 31
0.0
  0
LINE
  5
   4A7
  8
0
  6
CONTINUOUS
 62
     3
 10
-634.150776344908
 20
-48.2178270147225
 30
0.0
 11
-634.150776344908
 21
-34.2178402412083
 31
0.0
  0
LINE
  5
   4A8
  8
0
  6
CONTINUOUS
 62
     3
 10
-632.35077329315
 20
-48.2178270147225
 30
0.0
 11
-632.35077329315
 21
-34.2178402412083
 31
0.0
  0
LINE
  5
   4A9
  8
0
  6
CONTINUOUS
 62
     3
 10
-630.550777870787
 20
-48.2178270147225
 30
0.0
 11
-630.550777870787
 21
-34.2178402412083
 31
0.0
  0
LINE
  5
   4AA
  8
0
  6
CONTINUOUS
 62
     3
 10
-628.750774819029
 20
-48.2178270147225
 30
0.0
 11
-628.750774819029
 21
-34.2178402412083
 31
0.0
  0
LINE
  5
   4AB
  8
0
  6
CONTINUOUS
 62
     3
 10
-626.950771767272
 20
-48.2178270147225
 30
0.0
 11
-626.950771767272
 21
-34.2178402412083
 31
0.0
  0
LINE
  5
   4AC
  8
0
  6
CONTINUOUS
 62
     3
 10
-625.150776344908
 20
-48.2178270147225
 30
0.0
 11
-625.150776344908
 21
-34.2178402412083
 31
0.0
  0
LINE
  5
   4AD
  8
0
  6
CONTINUOUS
 62
     3
 10
-623.35077329315
 20
-48.2178270147225
 30
0.0
 11
-623.35077329315
 21
-34.2178402412083
 31
0.0
  0
LINE
  5
   4AE
  8
0
  6
CONTINUOUS
 62
     3
 10
-621.550777870787
 20
-48.2178270147225
 30
0.0
 11
-621.550777870787
 21
-34.2178402412083
 31
0.0
  0
LINE
  5
   4AF
  8
0
  6
CONTINUOUS
 62
     3
 10
-619.750774819029
 20
-48.2178270147225
 30
0.0
 11
-619.750774819029
 21
-34.2178402412083
 31
0.0
  0
LINE
  5
   4B0
  8
0
  6
CONTINUOUS
 62
     3
 10
-617.950771767272
 20
-48.2178270147225
 30
0.0
 11
-617.950771767272
 21
-34.2178402412083
 31
0.0
  0
LINE
  5
   4B1
  8
0
  6
CONTINUOUS
 62
     3
 10
-616.150776344908
 20
-48.2178270147225
 30
0.0
 11
-616.150776344908
 21
-34.2178402412083
 31
0.0
  0
LINE
  5
   4B2
  8
0
  6
CONTINUOUS
 62
     3
 10
-614.35077329315
 20
-48.2178270147225
 30
0.0
 11
-614.35077329315
 21
-34.2178402412083
 31
0.0
  0
LINE
  5
   4B3
  8
0
  6
CONTINUOUS
 62
     3
 10
-612.550777870787
 20
-48.2178270147225
 30
0.0
 11
-612.550777870787
 21
-34.2178402412083
 31
0.0
  0
LINE
  5
   4B4
  8
0
  6
CONTINUOUS
 62
     3
 10
-610.750774819029
 20
-48.2178270147225
 30
0.0
 11
-610.750774819029
 21
-34.2178402412083
 31
0.0
  0
LINE
  5
   4B5
  8
0
  6
CONTINUOUS
 62
     3
 10
-608.950771767272
 20
-48.2178270147225
 30
0.0
 11
-608.950771767272
 21
-34.2178402412083
 31
0.0
  0
LINE
  5
   4B6
  8
0
  6
CONTINUOUS
 62
     3
 10
-607.150776344908
 20
-48.2178270147225
 30
0.0
 11
-607.150776344908
 21
-34.2178402412083
 31
0.0
  0
LINE
  5
   4B7
  8
0
  6
CONTINUOUS
 62
     3
 10
-605.35077329315
 20
-48.2178270147225
 30
0.0
 11
-605.35077329315
 21
-34.2178402412083
 31
0.0
  0
LINE
  5
   4B8
  8
0
  6
CONTINUOUS
 62
     3
 10
-603.550777870787
 20
-48.2178270147225
 30
0.0
 11
-603.550777870787
 21
-34.2178402412083
 31
0.0
  0
LINE
  5
   4B9
  8
0
  6
CONTINUOUS
 62
     3
 10
-601.750774819029
 20
-48.2178270147225
 30
0.0
 11
-601.750774819029
 21
-34.2178402412083
 31
0.0
  0
LINE
  5
   4BA
  8
0
  6
CONTINUOUS
 62
     3
 10
-599.950771767272
 20
-48.2178270147225
 30
0.0
 11
-599.950771767272
 21
-34.2178402412083
 31
0.0
  0
LINE
  5
   4BB
  8
0
  6
CONTINUOUS
 62
     3
 10
-598.150776344908
 20
-48.2178270147225
 30
0.0
 11
-598.150776344908
 21
-34.2178402412083
 31
0.0
  0
LINE
  5
   4BC
  8
0
  6
CONTINUOUS
 62
     3
 10
-596.35077329315
 20
-48.2178270147225
 30
0.0
 11
-596.35077329315
 21
-34.2178402412083
 31
0.0
  0
LINE
  5
   4BD
  8
0
  6
CONTINUOUS
 62
     3
 10
-594.550777870787
 20
-48.2178270147225
 30
0.0
 11
-594.550777870787
 21
-34.2178402412083
 31
0.0
  0
LINE
  5
   4BE
  8
0
  6
CONTINUOUS
 62
     3
 10
-589.150776344908
 20
-48.2178270147225
 30
0.0
 11
-589.150776344908
 21
81.2821122930428
 31
0.0
  0
LINE
  5
   4BF
  8
0
  6
CONTINUOUS
 62
     3
 10
-585.550777870787
 20
-48.2178270147225
 30
0.0
 11
-585.550777870787
 21
81.2821122930428
 31
0.0
  0
LINE
  5
   4C0
  8
0
  6
CONTINUOUS
 62
     3
 10
-584.22755496539
 20
-34.2178402412083
 30
0.0
 11
-654.123993564023
 21
-34.2178402412083
 31
0.0
  0
LINE
  5
   4C1
  8
0
  6
CONTINUOUS
 62
     3
 10
-584.175770322791
 20
-34.2178345547601
 30
0.0
 11
-584.358830015174
 21
-34.2178345547601
 31
0.0
  0
LINE
  5
   4C2
  8
0
  6
CONTINUOUS
 62
     3
 10
-584.675770241393
 20
-34.2178402412083
 30
0.0
 11
-584.675770241393
 21
-33.7178402710106
 31
0.0
  0
LINE
  5
   4C3
  8
0
  6
CONTINUOUS
 62
     3
 10
-654.123993564022
 20
-34.2178402412083
 30
0.0
 11
-654.175770241392
 21
-34.2178402412083
 31
0.0
  0
LINE
  5
   4C4
  8
0
  6
CONTINUOUS
 62
     3
 10
-653.675770241393
 20
-34.2178402412053
 30
0.0
 11
-653.675770241393
 21
-33.7178402710076
 31
0.0
  0
ARC
  5
   4C5
  8
0
  6
CONTINUOUS
 62
     3
 10
-653.550784268806
 20
-47.5928422416307
 30
0.0
 40
0.624986446726238
 50
179.998919516826
 51
270.001341294048
  0
ARC
  5
   4C6
  8
0
  6
CONTINUOUS
 62
     3
 10
-584.800764143543
 20
-47.5928409749495
 30
0.0
 40
0.624984366596091
 50
269.998268768772
 51
360.001068590252
  0
LINE
  5
   4C7
  8
0
  6
CONTINUOUS
 62
     7
 10
-584.800783027307
 20
-48.2178270147225
 30
0.0
 11
-653.550769637309
 21
-48.2178270147225
 31
0.0
  0
LINE
  5
   4C8
  8
0
  6
CONTINUOUS
 62
     7
 10
-644.925766707308
 20
24.4071426391602
 30
0.0
 11
-645.425766677492
 21
24.4071426391602
 31
0.0
  0
LINE
  5
   4C9
  8
0
  6
CONTINUOUS
 62
     7
 10
-644.925766707308
 20
23.9071426391602
 30
0.0
 11
-645.425766677503
 21
23.9071426391602
 31
0.0
  0
LINE
  5
   4CA
  8
0
  6
CONTINUOUS
 62
     1
 10
-584.175766677506
 20
43.6571502685547
 30
0.0
 11
-589.925766677506
 21
43.6571502685547
 31
0.0
  0
LINE
  5
   4CB
  8
0
  6
CONTINUOUS
 62
     1
 10
-648.425766677506
 20
43.6571502685547
 30
0.0
 11
-654.175766677506
 21
43.6571502685547
 31
0.0
  0
LINE
  5
   4CC
  8
0
  6
DASHDOT
 62
     3
 10
-577.066302535587
 20
17.4071502685547
 30
0.0
 11
-667.0073198326
 21
17.4071502685547
 31
0.0
  0
INSERT
  5
   4CD
  8
255
  6
CONTINUOUS
 62
     7
  2
MOSTRINA
 10
-676.594895095475
 20
-37.5831604003906
 30
0.0
 41
0.5
 42
0.5
 50
359.999999792138
 43
0.5
  0
LINE
  5
   4CE
  8
0
  6
CONTINUOUS
 62
     3
 10
-590.950771767272
 20
57.6571502685547
 30
0.0
 11
-590.950771767272
 21
81.2821122930428
 31
0.0
  0
LINE
  5
   4CF
  8
0
  6
CONTINUOUS
 62
     1
 10
-648.425766677506
 20
-16.7178497314453
 30
0.0
 11
-653.675759048111
 21
-16.7178497314453
 31
0.0
  0
LINE
  5
   4D0
  8
0
  6
CONTINUOUS
 62
     7
 10
-648.425766677506
 20
-17.2178326416192
 30
0.0
 11
-654.175766481879
 21
-17.2178326416192
 31
0.0
  0
LINE
  5
   4D1
  8
0
  6
CONTINUOUS
 62
     3
 10
-646.750770527495
 20
57.6571502685547
 30
0.0
 11
-646.750770527495
 21
81.2821122930428
 31
0.0
  0
CIRCLE
  5
   4D2
  8
0
  6
CONTINUOUS
 62
     7
 10
-591.107203273541
 20
54.3759308433415
 30
0.0
 40
0.1
  0
INSERT
  5
   4D3
  8
0
  6
CONTINUOUS
 62
     7
  2
*UDIM2467
 10
0.0
 20
0.0
 30
0.0
  0
INSERT
  5
   4D4
  8
0
  6
CONTINUOUS
 62
     7
  2
*UDIM2468
 10
0.0
 20
0.0
 30
0.0
  0
INSERT
  5
   4D5
  8
0
  6
CONTINUOUS
 62
     7
  2
*UDIM2469
 10
0.0
 20
0.0
 30
0.0
  0
INSERT
  5
   4D6
  8
0
  6
CONTINUOUS
 62
     7
  2
*UDIM2470
 10
0.0
 20
0.0
 30
0.0
  0
INSERT
  5
   4D7
  8
0
  6
CONTINUOUS
 62
     7
  2
*UDIM2471
 10
0.0
 20
0.0
 30
0.0
  0
TEXT
  5
   4D8
  8
0
  6
CONTINUOUS
 62
     7
 10
-621.092659289996
 20
-64.2987752362084
 30
0.0
 40
3.00000002980232
  1
Y
 50
359.999999948034
 41
0.916666604744064
 72
     2
 11
-618.892659421126
 21
-64.2987752381926
 31
0.0
  0
TEXT
  5
   4D9
  8
0
  6
CONTINUOUS
 62
     7
 10
-568.782763631505
 20
15.6522524423377
 30
0.0
 40
3.00000002980232
  1
X
 50
359.999999948034
 41
0.916666604744064
 72
     1
 11
-567.682763695717
 21
17.1522524562467
 31
0.0
 73
     2
  0
TEXT
  5
   4DA
  8
0
  6
CONTINUOUS
 62
     7
 10
-682.313590915364
 20
16.25060296724
 30
0.0
 40
3.00000002980232
  1
X
 50
359.999999948034
 41
0.916666604744064
 72
     1
 11
-681.213590979576
 21
17.750602981149
 31
0.0
 73
     2
  0
TEXT
  5
   4DB
  8
0
  6
CONTINUOUS
 62
     7
 10
-620.303932101887
 20
92.9996645517127
 30
0.0
 40
3.00000002980232
  1
Y
 50
359.999999948034
 41
0.916666604744064
 72
     1
 11
-619.2039321661
 21
94.4996645656217
 31
0.0
 73
     2
  0
LINE
  5
   4DC
  8
0
  6
CONTINUOUS
 62
     3
 10
-480.12939453125
 20
-101.463722229004
 30
0.0
 11
-481.12939453125
 21
-101.463722229004
 31
0.0
  0
LINE
  5
   4DD
  8
0
  6
CONTINUOUS
 62
     3
 10
-480.12939453125
 20
-103.963722229004
 30
0.0
 11
-481.12939453125
 21
-103.963722229004
 31
0.0
  0
LINE
  5
   4DE
  8
0
  6
CONTINUOUS
 62
     3
 10
-480.12939453125
 20
-95.2137222290039
 30
0.0
 11
-480.12939453125
 21
-110.213722229004
 31
0.0
  0
LINE
  5
   4DF
  8
0
  6
CONTINUOUS
 62
     3
 10
-477.12939453125
 20
-95.2137222290039
 30
0.0
 11
-480.12939453125
 21
-95.2137222290039
 31
0.0
  0
LINE
  5
   4E0
  8
0
  6
CONTINUOUS
 62
     3
 10
-467.629394531238
 20
-73.3387222290039
 30
0.0
 11
-477.12939453125
 21
-73.3387222290039
 31
0.0
  0
LINE
  5
   4E1
  8
0
  6
CONTINUOUS
 62
     3
 10
-467.629394531242
 20
-93.7137222290039
 30
0.0
 11
-467.629394531242
 21
-111.213724557064
 31
0.0
  0
LINE
  5
   4E2
  8
0
  6
CONTINUOUS
 62
     3
 10
-477.12939453125
 20
-93.7137222290039
 30
0.0
 11
-477.12939453125
 21
-95.2137222290039
 31
0.0
  0
LINE
  5
   4E3
  8
0
  6
CONTINUOUS
 62
     3
 10
-460.12939453125
 20
-94.3387222290039
 30
0.0
 11
-460.12939453125
 21
-111.088722229004
 31
0.0
  0
LINE
  5
   4E4
  8
0
  6
CONTINUOUS
 62
     3
 10
-476.87939453125
 20
-95.9637222290039
 30
0.0
 11
-477.37939453125
 21
-95.9637222290039
 31
0.0
  0
LINE
  5
   4E5
  8
0
  6
CONTINUOUS
 62
     3
 10
-476.87939453125
 20
-109.463722229004
 30
0.0
 11
-477.37939453125
 21
-109.463722229004
 31
0.0
  0
LINE
  5
   4E6
  8
0
  6
CONTINUOUS
 62
     2
 10
-467.62939453125
 20
-136.463722229004
 30
0.0
 11
-486.12939453125
 21
-136.463722229004
 31
0.0
  0
LINE
  5
   4E7
  8
0
  6
CONTINUOUS
 62
     2
 10
-486.12939453125
 20
-137.713722229004
 30
0.0
 11
-489.37939453125
 21
-137.713722229004
 31
0.0
  0
LINE
  5
   4E8
  8
0
  6
CONTINUOUS
 62
     2
 10
-489.37939453125
 20
-135.213722229004
 30
0.0
 11
-489.37939453125
 21
-137.713722229004
 31
0.0
  0
LINE
  5
   4E9
  8
0
  6
CONTINUOUS
 62
     2
 10
-489.37939453125
 20
-110.713722229004
 30
0.0
 11
-489.37939453125
 21
-116.588722229004
 31
0.0
  0
LINE
  5
   4EA
  8
0
  6
CONTINUOUS
 62
     2
 10
-486.12939453125
 20
-114.901218414307
 30
0.0
 11
-486.12939453125
 21
-137.713722229004
 31
0.0
  0
LINE
  5
   4EB
  8
0
  6
CONTINUOUS
 62
     2
 10
-486.12939453125
 20
-102.713722229004
 30
0.0
 11
-486.12939453125
 21
-112.401222229004
 31
0.0
  0
LINE
  5
   4EC
  8
0
  6
CONTINUOUS
 62
     2
 10
-492.37939453125
 20
-131.588722229004
 30
0.0
 11
-492.37939453125
 21
-135.213722229004
 31
0.0
  0
LINE
  5
   4ED
  8
0
  6
CONTINUOUS
 62
     2
 10
-491.62939453125
 20
-116.588722229004
 30
0.0
 11
-491.62939453125
 21
-131.588722229004
 31
0.0
  0
LINE
  5
   4EE
  8
0
  6
CONTINUOUS
 62
     2
 10
-491.62939453125
 20
-102.713722229004
 30
0.0
 11
-491.62939453125
 21
-110.713722229004
 31
0.0
  0
LINE
  5
   4EF
  8
0
  6
CONTINUOUS
 62
     2
 10
-491.37939453125
 20
-110.713722229004
 30
0.0
 11
-491.37939453125
 21
-116.588722229004
 31
0.0
  0
LINE
  5
   4F0
  8
0
  6
CONTINUOUS
 62
     2
 10
-481.12939453125
 20
-118.213722229004
 30
0.0
 11
-481.12939453125
 21
-130.963722229004
 31
0.0
  0
LINE
  5
   4F1
  8
0
  6
CONTINUOUS
 62
     2
 10
-480.12939453125
 20
-109.088722229004
 30
0.0
 11
-481.12939453125
 21
-109.088722229004
 31
0.0
  0
LINE
  5
   4F2
  8
0
  6
CONTINUOUS
 62
     2
 10
-481.12939453125
 20
-102.713722229004
 30
0.0
 11
-481.12939453125
 21
-109.088722229004
 31
0.0
  0
LINE
  5
   4F3
  8
0
  6
CONTINUOUS
 62
     2
 10
-467.62939453125
 20
-114.526222229004
 30
0.0
 11
-486.12939453125
 21
-114.526222229004
 31
0.0
  0
LINE
  5
   4F4
  8
0
  6
CONTINUOUS
 62
     2
 10
-467.629394531283
 20
-111.213724557065
 30
0.0
 11
-467.629394531283
 21
-116.088723864552
 31
0.0
  0
LINE
  5
   4F5
  8
0
  6
CONTINUOUS
 62
     2
 10
-467.62939453125
 20
-112.776222229004
 30
0.0
 11
-486.12939453125
 21
-112.776222229004
 31
0.0
  0
LINE
  5
   4F6
  8
0
  6
CONTINUOUS
 62
     2
 10
-486.12939453125
 20
-112.776222229004
 30
0.0
 11
-486.12939453125
 21
-114.526222229004
 31
0.0
  0
LINE
  5
   4F7
  8
0
  6
CONTINUOUS
 62
     2
 10
-467.629394531248
 20
-137.713722229004
 30
0.0
 11
-486.129394531248
 21
-137.713722229004
 31
0.0
  0
LINE
  5
   4F8
  8
0
  6
CONTINUOUS
 62
     2
 10
-467.629394531313
 20
-133.088724557065
 30
0.0
 11
-467.629394531313
 21
-137.713722229004
 31
0.0
  0
LINE
  5
   4F9
  8
0
  6
CONTINUOUS
 62
     2
 10
-480.12939453125
 20
-132.088722229004
 30
0.0
 11
-481.12939453125
 21
-132.088722229004
 31
0.0
  0
LINE
  5
   4FA
  8
0
  6
CONTINUOUS
 62
     2
 10
-480.12939453125
 20
-130.963722229004
 30
0.0
 11
-486.12939453125
 21
-130.963722229004
 31
0.0
  0
LINE
  5
   4FB
  8
0
  6
CONTINUOUS
 62
     2
 10
-481.12939453125
 20
-130.963722229004
 30
0.0
 11
-481.12939453125
 21
-132.088722229004
 31
0.0
  0
LINE
  5
   4FC
  8
0
  6
CONTINUOUS
 62
     2
 10
-480.12939453125
 20
-117.088722229004
 30
0.0
 11
-481.12939453125
 21
-117.088722229004
 31
0.0
  0
LINE
  5
   4FD
  8
0
  6
CONTINUOUS
 62
     2
 10
-480.12939453125
 20
-118.213722229004
 30
0.0
 11
-486.12939453125
 21
-118.213722229004
 31
0.0
  0
LINE
  5
   4FE
  8
0
  6
CONTINUOUS
 62
     2
 10
-481.12939453125
 20
-117.088722229004
 30
0.0
 11
-481.12939453125
 21
-118.213722229004
 31
0.0
  0
LINE
  5
   4FF
  8
0
  6
CONTINUOUS
 62
     2
 10
-481.12939453125
 20
-125.838722229004
 30
0.0
 11
-482.37939453125
 21
-125.838722229004
 31
0.0
  0
LINE
  5
   500
  8
0
  6
CONTINUOUS
 62
     2
 10
-481.12939453125
 20
-123.338722229004
 30
0.0
 11
-482.37939453125
 21
-123.338722229004
 31
0.0
  0
LINE
  5
   501
  8
0
  6
CONTINUOUS
 62
     2
 10
-482.37939453125
 20
-123.338722229004
 30
0.0
 11
-482.37939453125
 21
-125.838722229004
 31
0.0
  0
LINE
  5
   502
  8
0
  6
CONTINUOUS
 62
     2
 10
-480.62939453125
 20
-123.088722229004
 30
0.0
 11
-481.12939453125
 21
-123.088722229004
 31
0.0
  0
LINE
  5
   503
  8
0
  6
CONTINUOUS
 62
     2
 10
-480.62939453125
 20
-126.088722229004
 30
0.0
 11
-481.12939453125
 21
-126.088722229004
 31
0.0
  0
LINE
  5
   504
  8
0
  6
CONTINUOUS
 62
     2
 10
-480.12939453125
 20
-110.213722229004
 30
0.0
 11
-481.12939453125
 21
-110.213722229004
 31
0.0
  0
LINE
  5
   505
  8
0
  6
CONTINUOUS
 62
     2
 10
-481.12939453125
 20
-109.088722229004
 30
0.0
 11
-486.12939453125
 21
-109.088722229004
 31
0.0
  0
LINE
  5
   506
  8
0
  6
CONTINUOUS
 62
     2
 10
-481.12939453125
 20
-109.088722229004
 30
0.0
 11
-481.12939453125
 21
-110.213722229004
 31
0.0
  0
LINE
  5
   507
  8
0
  6
CONTINUOUS
 62
     2
 10
-481.12939453125
 20
-103.963722229004
 30
0.0
 11
-482.37939453125
 21
-103.963722229004
 31
0.0
  0
LINE
  5
   508
  8
0
  6
CONTINUOUS
 62
     2
 10
-482.37939453125
 20
-102.713722229004
 30
0.0
 11
-482.37939453125
 21
-103.963722229004
 31
0.0
  0
LINE
  5
   509
  8
0
  6
CONTINUOUS
 62
     2
 10
-480.62939453125
 20
-104.213722229004
 30
0.0
 11
-481.12939453125
 21
-104.213722229004
 31
0.0
  0
LINE
  5
   50A
  8
0
  6
CONTINUOUS
 62
     2
 10
-481.12939453125
 20
-102.713722229004
 30
0.0
 11
-491.62939453125
 21
-102.713722229004
 31
0.0
  0
LINE
  5
   50B
  8
0
  6
CONTINUOUS
 62
     3
 10
-467.629394531239
 20
-93.7137222290039
 30
0.0
 11
-477.129394531239
 21
-93.7137222290039
 31
0.0
  0
LINE
  5
   50C
  8
0
  6
CONTINUOUS
 62
     3
 10
-460.129394380337
 20
-94.3387238614791
 30
0.0
 11
-467.62939450399
 21
-94.213723865007
 31
0.0
  0
LINE
  5
   50D
  8
0
  6
CONTINUOUS
 62
     3
 10
-460.129394446379
 20
-111.088724561238
 30
0.0
 11
-467.629394570032
 21
-111.213724557711
 31
0.0
  0
LINE
  5
   50E
  8
0
  6
CONTINUOUS
 62
     3
 10
-476.87939453125
 20
-95.9637222290039
 30
0.0
 11
-476.87939453125
 21
-109.463722229004
 31
0.0
  0
LINE
  5
   50F
  8
0
  6
CONTINUOUS
 62
     3
 10
-477.37939453125
 20
-95.9637222290039
 30
0.0
 11
-477.37939453125
 21
-109.463722229004
 31
0.0
  0
LINE
  5
   510
  8
0
  6
CONTINUOUS
 62
     3
 10
-477.12939453125
 20
-95.9637222290039
 30
0.0
 11
-477.12939453125
 21
-109.463722229004
 31
0.0
  0
LINE
  5
   511
  8
0
  6
CONTINUOUS
 62
     2
 10
-467.62939453125
 20
-135.963722229004
 30
0.0
 11
-486.12939453125
 21
-135.963722229004
 31
0.0
  0
LINE
  5
   512
  8
0
  6
CONTINUOUS
 62
     2
 10
-486.12939453125
 20
-135.213722229004
 30
0.0
 11
-489.37939453125
 21
-135.213722229004
 31
0.0
  0
LINE
  5
   513
  8
0
  6
CONTINUOUS
 62
     2
 10
-486.12939453125
 20
-132.588722229004
 30
0.0
 11
-491.62939453125
 21
-132.588722229004
 31
0.0
  0
LINE
  5
   514
  8
0
  6
CONTINUOUS
 62
     2
 10
-486.12939453125
 20
-116.588722229004
 30
0.0
 11
-491.37939453125
 21
-116.588722229004
 31
0.0
  0
LINE
  5
   515
  8
0
  6
CONTINUOUS
 62
     2
 10
-486.12939453125
 20
-110.713722229004
 30
0.0
 11
-491.37939453125
 21
-110.713722229004
 31
0.0
  0
LINE
  5
   516
  8
0
  6
CONTINUOUS
 62
     2
 10
-480.62939453125
 20
-126.088722229004
 30
0.0
 11
-480.62939453125
 21
-130.963722229004
 31
0.0
  0
LINE
  5
   517
  8
0
  6
CONTINUOUS
 62
     2
 10
-480.62939453125
 20
-118.213722229004
 30
0.0
 11
-480.62939453125
 21
-123.088722229004
 31
0.0
  0
LINE
  5
   518
  8
0
  6
CONTINUOUS
 62
     2
 10
-480.62939453125
 20
-104.213722229004
 30
0.0
 11
-480.62939453125
 21
-109.088722229004
 31
0.0
  0
LINE
  5
   519
  8
0
  6
CONTINUOUS
 62
     2
 10
-483.37939453125
 20
-112.776222229004
 30
0.0
 11
-483.37939453125
 21
-114.526222229004
 31
0.0
  0
LINE
  5
   51A
  8
0
  6
CONTINUOUS
 62
     2
 10
-485.12939453125
 20
-112.776222229004
 30
0.0
 11
-485.12939453125
 21
-114.526222229004
 31
0.0
  0
LINE
  5
   51B
  8
0
  6
DASHDOT
 62
     7
 10
-455.1275114596
 20
-102.713722229004
 30
0.0
 11
-527.989073365265
 21
-102.713722229004
 31
0.0
  0
LINE
  5
   51C
  8
0
  6
CONTINUOUS
 62
     2
 10
-467.62939453125
 20
-68.9637222290039
 30
0.0
 11
-486.12939453125
 21
-68.9637222290039
 31
0.0
  0
LINE
  5
   51D
  8
0
  6
CONTINUOUS
 62
     2
 10
-486.12939453125
 20
-67.7137222290039
 30
0.0
 11
-489.37939453125
 21
-67.7137222290039
 31
0.0
  0
LINE
  5
   51E
  8
0
  6
CONTINUOUS
 62
     2
 10
-489.37939453125
 20
-67.7137222290039
 30
0.0
 11
-489.37939453125
 21
-70.2137222290039
 31
0.0
  0
LINE
  5
   51F
  8
0
  6
CONTINUOUS
 62
     2
 10
-489.37939453125
 20
-88.8387222290039
 30
0.0
 11
-489.37939453125
 21
-94.7137222290039
 31
0.0
  0
LINE
  5
   520
  8
0
  6
CONTINUOUS
 62
     2
 10
-486.12939453125
 20
-68.9637222290039
 30
0.0
 11
-486.12939453125
 21
-90.5262260437012
 31
0.0
  0
LINE
  5
   521
  8
0
  6
CONTINUOUS
 62
     2
 10
-486.12939453125
 20
-93.0262222290039
 30
0.0
 11
-486.12939453125
 21
-102.713722229004
 31
0.0
  0
LINE
  5
   522
  8
0
  6
CONTINUOUS
 62
     2
 10
-492.37939453125
 20
-70.2137222290039
 30
0.0
 11
-492.37939453125
 21
-73.8387222290039
 31
0.0
  0
LINE
  5
   523
  8
0
  6
CONTINUOUS
 62
     2
 10
-491.62939453125
 20
-72.8387222290039
 30
0.0
 11
-491.62939453125
 21
-73.8387222290039
 31
0.0
  0
LINE
  5
   524
  8
0
  6
CONTINUOUS
 62
     2
 10
-491.62939453125
 20
-94.7137222290039
 30
0.0
 11
-491.62939453125
 21
-102.713722229004
 31
0.0
  0
LINE
  5
   525
  8
0
  6
CONTINUOUS
 62
     2
 10
-491.37939453125
 20
-88.8387222290039
 30
0.0
 11
-491.37939453125
 21
-94.7137222290039
 31
0.0
  0
LINE
  5
   526
  8
0
  6
CONTINUOUS
 62
     2
 10
-481.12939453125
 20
-74.4637222290039
 30
0.0
 11
-481.12939453125
 21
-87.2137222290039
 31
0.0
  0
LINE
  5
   527
  8
0
  6
CONTINUOUS
 62
     2
 10
-480.12939453125
 20
-96.3387222290039
 30
0.0
 11
-481.12939453125
 21
-96.3387222290039
 31
0.0
  0
LINE
  5
   528
  8
0
  6
CONTINUOUS
 62
     2
 10
-481.12939453125
 20
-96.3387222290039
 30
0.0
 11
-481.12939453125
 21
-102.713722229004
 31
0.0
  0
LINE
  5
   529
  8
0
  6
CONTINUOUS
 62
     2
 10
-467.62939453125
 20
-90.9012222290039
 30
0.0
 11
-486.12939453125
 21
-90.9012222290039
 31
0.0
  0
LINE
  5
   52A
  8
0
  6
CONTINUOUS
 62
     2
 10
-467.629394531283
 20
-89.3387245570648
 30
0.0
 11
-467.629394531283
 21
-94.2137238645521
 31
0.0
  0
LINE
  5
   52B
  8
0
  6
CONTINUOUS
 62
     2
 10
-467.62939453125
 20
-92.6512222290039
 30
0.0
 11
-486.12939453125
 21
-92.6512222290039
 31
0.0
  0
LINE
  5
   52C
  8
0
  6
CONTINUOUS
 62
     2
 10
-486.12939453125
 20
-90.9012222290039
 30
0.0
 11
-486.12939453125
 21
-92.6512222290039
 31
0.0
  0
LINE
  5
   52D
  8
0
  6
CONTINUOUS
 62
     2
 10
-467.629394531248
 20
-67.7137222290039
 30
0.0
 11
-486.129394531248
 21
-67.7137222290039
 31
0.0
  0
LINE
  5
   52E
  8
0
  6
CONTINUOUS
 62
     2
 10
-467.629394531313
 20
-67.7137222290039
 30
0.0
 11
-467.629394531313
 21
-72.3387238645516
 31
0.0
  0
LINE
  5
   52F
  8
0
  6
CONTINUOUS
 62
     2
 10
-486.12939453125
 20
-67.7137222290039
 30
0.0
 11
-486.12939453125
 21
-68.9637222290039
 31
0.0
  0
LINE
  5
   530
  8
0
  6
CONTINUOUS
 62
     2
 10
-480.12939453125
 20
-73.3387222290039
 30
0.0
 11
-481.12939453125
 21
-73.3387222290039
 31
0.0
  0
LINE
  5
   531
  8
0
  6
CONTINUOUS
 62
     2
 10
-480.12939453125
 20
-74.4637222290039
 30
0.0
 11
-486.12939453125
 21
-74.4637222290039
 31
0.0
  0
LINE
  5
   532
  8
0
  6
CONTINUOUS
 62
     2
 10
-481.12939453125
 20
-73.3387222290039
 30
0.0
 11
-481.12939453125
 21
-74.4637222290039
 31
0.0
  0
LINE
  5
   533
  8
0
  6
CONTINUOUS
 62
     2
 10
-480.12939453125
 20
-88.3387222290039
 30
0.0
 11
-481.12939453125
 21
-88.3387222290039
 31
0.0
  0
LINE
  5
   534
  8
0
  6
CONTINUOUS
 62
     2
 10
-480.12939453125
 20
-87.2137222290039
 30
0.0
 11
-486.12939453125
 21
-87.2137222290039
 31
0.0
  0
LINE
  5
   535
  8
0
  6
CONTINUOUS
 62
     2
 10
-481.12939453125
 20
-87.2137222290039
 30
0.0
 11
-481.12939453125
 21
-88.3387222290039
 31
0.0
  0
LINE
  5
   536
  8
0
  6
CONTINUOUS
 62
     2
 10
-481.12939453125
 20
-79.5887222290039
 30
0.0
 11
-482.37939453125
 21
-79.5887222290039
 31
0.0
  0
LINE
  5
   537
  8
0
  6
CONTINUOUS
 62
     2
 10
-481.12939453125
 20
-82.0887222290039
 30
0.0
 11
-482.37939453125
 21
-82.0887222290039
 31
0.0
  0
LINE
  5
   538
  8
0
  6
CONTINUOUS
 62
     2
 10
-482.37939453125
 20
-79.5887222290039
 30
0.0
 11
-482.37939453125
 21
-82.0887222290039
 31
0.0
  0
LINE
  5
   539
  8
0
  6
CONTINUOUS
 62
     2
 10
-480.62939453125
 20
-82.3387222290039
 30
0.0
 11
-481.12939453125
 21
-82.3387222290039
 31
0.0
  0
LINE
  5
   53A
  8
0
  6
CONTINUOUS
 62
     2
 10
-480.62939453125
 20
-79.3387222290039
 30
0.0
 11
-481.12939453125
 21
-79.3387222290039
 31
0.0
  0
LINE
  5
   53B
  8
0
  6
CONTINUOUS
 62
     2
 10
-480.12939453125
 20
-95.2137222290039
 30
0.0
 11
-481.12939453125
 21
-95.2137222290039
 31
0.0
  0
LINE
  5
   53C
  8
0
  6
CONTINUOUS
 62
     2
 10
-481.12939453125
 20
-96.3387222290039
 30
0.0
 11
-486.12939453125
 21
-96.3387222290039
 31
0.0
  0
LINE
  5
   53D
  8
0
  6
CONTINUOUS
 62
     2
 10
-481.12939453125
 20
-95.2137222290039
 30
0.0
 11
-481.12939453125
 21
-96.3387222290039
 31
0.0
  0
LINE
  5
   53E
  8
0
  6
CONTINUOUS
 62
     2
 10
-481.12939453125
 20
-101.463722229004
 30
0.0
 11
-482.37939453125
 21
-101.463722229004
 31
0.0
  0
LINE
  5
   53F
  8
0
  6
CONTINUOUS
 62
     2
 10
-482.37939453125
 20
-101.463722229004
 30
0.0
 11
-482.37939453125
 21
-102.713722229004
 31
0.0
  0
LINE
  5
   540
  8
0
  6
CONTINUOUS
 62
     2
 10
-480.62939453125
 20
-101.213722229004
 30
0.0
 11
-481.12939453125
 21
-101.213722229004
 31
0.0
  0
LINE
  5
   541
  8
0
  6
CONTINUOUS
 62
     2
 10
-467.62939453125
 20
-69.4637222290039
 30
0.0
 11
-486.12939453125
 21
-69.4637222290039
 31
0.0
  0
LINE
  5
   542
  8
0
  6
CONTINUOUS
 62
     2
 10
-486.12939453125
 20
-70.2137222290039
 30
0.0
 11
-489.37939453125
 21
-70.2137222290039
 31
0.0
  0
LINE
  5
   543
  8
0
  6
CONTINUOUS
 62
     2
 10
-486.12939453125
 20
-72.8387222290039
 30
0.0
 11
-491.62939453125
 21
-72.8387222290039
 31
0.0
  0
LINE
  5
   544
  8
0
  6
CONTINUOUS
 62
     2
 10
-486.12939453125
 20
-88.8387222290039
 30
0.0
 11
-491.37939453125
 21
-88.8387222290039
 31
0.0
  0
LINE
  5
   545
  8
0
  6
CONTINUOUS
 62
     2
 10
-486.12939453125
 20
-94.7137222290039
 30
0.0
 11
-491.37939453125
 21
-94.7137222290039
 31
0.0
  0
LINE
  5
   546
  8
0
  6
CONTINUOUS
 62
     2
 10
-480.62939453125
 20
-74.4637222290039
 30
0.0
 11
-480.62939453125
 21
-79.3387222290039
 31
0.0
  0
LINE
  5
   547
  8
0
  6
CONTINUOUS
 62
     2
 10
-480.62939453125
 20
-82.3387222290039
 30
0.0
 11
-480.62939453125
 21
-87.2137222290039
 31
0.0
  0
LINE
  5
   548
  8
0
  6
CONTINUOUS
 62
     2
 10
-480.62939453125
 20
-96.3387222290039
 30
0.0
 11
-480.62939453125
 21
-101.213722229004
 31
0.0
  0
LINE
  5
   549
  8
0
  6
CONTINUOUS
 62
     2
 10
-483.37939453125
 20
-90.9012222290039
 30
0.0
 11
-483.37939453125
 21
-92.6512222290039
 31
0.0
  0
LINE
  5
   54A
  8
0
  6
CONTINUOUS
 62
     2
 10
-485.12939453125
 20
-90.9012222290039
 30
0.0
 11
-485.12939453125
 21
-92.6512222290039
 31
0.0
  0
LINE
  5
   54B
  8
0
  6
CONTINUOUS
 62
     3
 10
-480.12939453125
 20
-123.338722229004
 30
0.0
 11
-481.12939453125
 21
-123.338722229004
 31
0.0
  0
LINE
  5
   54C
  8
0
  6
CONTINUOUS
 62
     3
 10
-480.12939453125
 20
-125.838722229004
 30
0.0
 11
-481.12939453125
 21
-125.838722229004
 31
0.0
  0
LINE
  5
   54D
  8
0
  6
CONTINUOUS
 62
     3
 10
-480.12939453125
 20
-117.088722229004
 30
0.0
 11
-480.12939453125
 21
-132.088722229004
 31
0.0
  0
LINE
  5
   54E
  8
0
  6
CONTINUOUS
 62
     3
 10
-467.629394531242
 20
-115.588722229004
 30
0.0
 11
-467.629394531242
 21
-133.088724557064
 31
0.0
  0
LINE
  5
   54F
  8
0
  6
CONTINUOUS
 62
     3
 10
-477.12939453125
 20
-115.588722229004
 30
0.0
 11
-477.12939453125
 21
-117.088722229004
 31
0.0
  0
LINE
  5
   550
  8
0
  6
CONTINUOUS
 62
     3
 10
-460.12939453125
 20
-116.213722229004
 30
0.0
 11
-460.12939453125
 21
-132.963722229004
 31
0.0
  0
LINE
  5
   551
  8
0
  6
CONTINUOUS
 62
     3
 10
-476.87939453125
 20
-117.838722229004
 30
0.0
 11
-477.37939453125
 21
-117.838722229004
 31
0.0
  0
LINE
  5
   552
  8
0
  6
CONTINUOUS
 62
     3
 10
-476.87939453125
 20
-131.338722229004
 30
0.0
 11
-477.37939453125
 21
-131.338722229004
 31
0.0
  0
LINE
  5
   553
  8
0
  6
CONTINUOUS
 62
     3
 10
-467.629394531239
 20
-115.588722229004
 30
0.0
 11
-477.129394531239
 21
-115.588722229004
 31
0.0
  0
LINE
  5
   554
  8
0
  6
CONTINUOUS
 62
     3
 10
-460.129394380337
 20
-116.213723861479
 30
0.0
 11
-467.62939450399
 21
-116.088723865007
 31
0.0
  0
LINE
  5
   555
  8
0
  6
CONTINUOUS
 62
     3
 10
-460.129394446379
 20
-132.963724561238
 30
0.0
 11
-467.629394570032
 21
-133.088724557711
 31
0.0
  0
LINE
  5
   556
  8
0
  6
CONTINUOUS
 62
     3
 10
-476.87939453125
 20
-117.838722229004
 30
0.0
 11
-476.87939453125
 21
-131.338722229004
 31
0.0
  0
LINE
  5
   557
  8
0
  6
CONTINUOUS
 62
     3
 10
-477.37939453125
 20
-117.838722229004
 30
0.0
 11
-477.37939453125
 21
-131.338722229004
 31
0.0
  0
LINE
  5
   558
  8
0
  6
CONTINUOUS
 62
     3
 10
-477.12939453125
 20
-117.838722229004
 30
0.0
 11
-477.12939453125
 21
-131.338722229004
 31
0.0
  0
LINE
  5
   559
  8
0
  6
CONTINUOUS
 62
     3
 10
-467.629394531239
 20
-71.8387222290039
 30
0.0
 11
-477.129394531239
 21
-71.8387222290039
 31
0.0
  0
LINE
  5
   55A
  8
0
  6
CONTINUOUS
 62
     3
 10
-477.12939453125
 20
-71.8387222290039
 30
0.0
 11
-477.12939453125
 21
-73.3387222290039
 31
0.0
  0
LINE
  5
   55B
  8
0
  6
CONTINUOUS
 62
     3
 10
-460.129394380337
 20
-72.4637238614791
 30
0.0
 11
-467.62939450399
 21
-72.338723865007
 31
0.0
  0
LINE
  5
   55C
  8
0
  6
CONTINUOUS
 62
     3
 10
-460.12939453125
 20
-72.4637222290039
 30
0.0
 11
-460.12939453125
 21
-89.2137222290039
 31
0.0
  0
LINE
  5
   55D
  8
0
  6
CONTINUOUS
 62
     3
 10
-460.129394446379
 20
-89.2137245612384
 30
0.0
 11
-467.629394570032
 21
-89.3387245577106
 31
0.0
  0
LINE
  5
   55E
  8
0
  6
CONTINUOUS
 62
     3
 10
-476.87939453125
 20
-74.0887222290039
 30
0.0
 11
-477.37939453125
 21
-74.0887222290039
 31
0.0
  0
LINE
  5
   55F
  8
0
  6
CONTINUOUS
 62
     3
 10
-476.87939453125
 20
-74.0887222290039
 30
0.0
 11
-476.87939453125
 21
-87.5887222290039
 31
0.0
  0
LINE
  5
   560
  8
0
  6
CONTINUOUS
 62
     3
 10
-477.37939453125
 20
-74.0887222290039
 30
0.0
 11
-477.37939453125
 21
-87.5887222290039
 31
0.0
  0
LINE
  5
   561
  8
0
  6
CONTINUOUS
 62
     3
 10
-477.12939453125
 20
-74.0887222290039
 30
0.0
 11
-477.12939453125
 21
-87.5887222290039
 31
0.0
  0
LINE
  5
   562
  8
0
  6
CONTINUOUS
 62
     3
 10
-476.87939453125
 20
-87.5887222290039
 30
0.0
 11
-477.37939453125
 21
-87.5887222290039
 31
0.0
  0
LINE
  5
   563
  8
0
  6
CONTINUOUS
 62
     3
 10
-480.12939453125
 20
-73.3387222290039
 30
0.0
 11
-480.12939453125
 21
-88.3387222290039
 31
0.0
  0
LINE
  5
   564
  8
0
  6
CONTINUOUS
 62
     3
 10
-480.12939453125
 20
-82.0887222290039
 30
0.0
 11
-481.12939453125
 21
-82.0887222290039
 31
0.0
  0
LINE
  5
   565
  8
0
  6
CONTINUOUS
 62
     3
 10
-480.12939453125
 20
-79.5887222290039
 30
0.0
 11
-481.12939453125
 21
-79.5887222290039
 31
0.0
  0
LINE
  5
   566
  8
0
  6
CONTINUOUS
 62
     3
 10
-477.12939453125
 20
-110.213722229004
 30
0.0
 11
-477.12939453125
 21
-111.713722229004
 31
0.0
  0
LINE
  5
   567
  8
0
  6
CONTINUOUS
 62
     3
 10
-467.629394531239
 20
-111.713722229004
 30
0.0
 11
-477.129394531239
 21
-111.713722229004
 31
0.0
  0
LINE
  5
   568
  8
0
  6
CONTINUOUS
 62
     3
 10
-477.12939453125
 20
-88.3387222290039
 30
0.0
 11
-477.12939453125
 21
-89.8387222290039
 31
0.0
  0
LINE
  5
   569
  8
0
  6
CONTINUOUS
 62
     3
 10
-467.629394531239
 20
-89.8387222290039
 30
0.0
 11
-477.129394531239
 21
-89.8387222290039
 31
0.0
  0
LINE
  5
   56A
  8
0
  6
DASHDOT
 62
     7
 10
-455.1275114596
 20
-124.588722229004
 30
0.0
 11
-553.429175237434
 21
-124.588722229004
 31
0.0
  0
LINE
  5
   56B
  8
0
  6
CONTINUOUS
 62
     3
 10
-477.12939453125
 20
-132.088722229004
 30
0.0
 11
-477.12939453125
 21
-133.588722229004
 31
0.0
  0
LINE
  5
   56C
  8
0
  6
CONTINUOUS
 62
     3
 10
-467.629394531239
 20
-133.588722229004
 30
0.0
 11
-477.129394531239
 21
-133.588722229004
 31
0.0
  0
LINE
  5
   56D
  8
0
  6
CONTINUOUS
 62
     3
 10
-467.629394531238
 20
-110.213722229004
 30
0.0
 11
-477.12939453125
 21
-110.213722229004
 31
0.0
  0
LINE
  5
   56E
  8
0
  6
CONTINUOUS
 62
     3
 10
-467.629394531238
 20
-132.088722229004
 30
0.0
 11
-477.12939453125
 21
-132.088722229004
 31
0.0
  0
LINE
  5
   56F
  8
0
  6
CONTINUOUS
 62
     3
 10
-467.629394531238
 20
-117.088722229004
 30
0.0
 11
-477.12939453125
 21
-117.088722229004
 31
0.0
  0
LINE
  5
   570
  8
0
  6
CONTINUOUS
 62
     3
 10
-467.629394531238
 20
-88.3387222290039
 30
0.0
 11
-477.12939453125
 21
-88.3387222290039
 31
0.0
  0
LINE
  5
   571
  8
0
  6
CONTINUOUS
 62
     3
 10
-467.629394531238
 20
-95.2137222290039
 30
0.0
 11
-477.129394531238
 21
-95.2137222290039
 31
0.0
  0
LINE
  5
   572
  8
0
  6
CONTINUOUS
 62
   253
 10
-491.62939453125
 20
-117.588722229004
 30
0.0
 11
-499.62939453125
 21
-117.588722229004
 31
0.0
  0
LINE
  5
   573
  8
0
  6
CONTINUOUS
 62
   253
 10
-491.62939453125
 20
-131.588722229004
 30
0.0
 11
-499.62939453125
 21
-131.588722229004
 31
0.0
  0
LINE
  5
   574
  8
0
  6
CONTINUOUS
 62
   253
 10
-499.62939453125
 20
-96.2137222290039
 30
0.0
 11
-499.62939453125
 21
-109.213722229004
 31
0.0
  0
LINE
  5
   575
  8
0
  6
CONTINUOUS
 62
   253
 10
-499.62939453125
 20
-117.588722229004
 30
0.0
 11
-499.62939453125
 21
-131.588722229004
 31
0.0
  0
LINE
  5
   576
  8
0
  6
CONTINUOUS
 62
   253
 10
-491.62939453125
 20
-95.7137222290039
 30
0.0
 11
-499.12939453125
 21
-95.7137222290039
 31
0.0
  0
LINE
  5
   577
  8
0
  6
CONTINUOUS
 62
   253
 10
-491.62939453125
 20
-109.713722229004
 30
0.0
 11
-499.12939453125
 21
-109.713722229004
 31
0.0
  0
LINE
  5
   578
  8
0
  6
CONTINUOUS
 62
   212
 10
-521.379386901856
 20
-121.588722229004
 30
0.0
 11
-521.379386901856
 21
-127.588722229004
 31
0.0
  0
LINE
  5
   579
  8
0
  6
CONTINUOUS
 62
   212
 10
-509.52939453125
 20
-120.588722229004
 30
0.0
 11
-513.88874762185
 21
-120.588722229004
 31
0.0
  0
LINE
  5
   57A
  8
0
  6
CONTINUOUS
 62
   212
 10
-509.52939453125
 20
-128.588722229004
 30
0.0
 11
-513.88874762185
 21
-128.588722229004
 31
0.0
  0
LINE
  5
   57B
  8
0
  6
CONTINUOUS
 62
   212
 10
-509.52939453125
 20
-121.088722229004
 30
0.0
 11
-513.88874762185
 21
-121.088722229004
 31
0.0
  0
LINE
  5
   57C
  8
0
  6
CONTINUOUS
 62
   212
 10
-509.52939453125
 20
-128.088722229004
 30
0.0
 11
-513.88874762185
 21
-128.088722229004
 31
0.0
  0
LINE
  5
   57D
  8
0
  6
CONTINUOUS
 62
   212
 10
-520.379386901856
 20
-120.588722229004
 30
0.0
 11
-520.379386901856
 21
-128.588722229004
 31
0.0
  0
LINE
  5
   57E
  8
0
  6
CONTINUOUS
 62
   212
 10
-520.379386901856
 20
-120.588722229004
 30
0.0
 11
-521.379386901856
 21
-121.588722229004
 31
0.0
  0
LINE
  5
   57F
  8
0
  6
CONTINUOUS
 62
   212
 10
-520.379386901856
 20
-128.588722229004
 30
0.0
 11
-521.379386901856
 21
-127.588722229004
 31
0.0
  0
LINE
  5
   580
  8
0
  6
CONTINUOUS
 62
     7
 10
-499.62939453125
 20
-118.088722229004
 30
0.0
 11
-500.02939453125
 21
-118.088722229004
 31
0.0
  0
LINE
  5
   581
  8
0
  6
CONTINUOUS
 62
     7
 10
-499.62939453125
 20
-118.088722229004
 30
0.0
 11
-499.62939453125
 21
-131.088722229004
 31
0.0
  0
LINE
  5
   582
  8
0
  6
CONTINUOUS
 62
     7
 10
-500.02939453125
 20
-117.901222229004
 30
0.0
 11
-500.02939453125
 21
-131.276222229004
 31
0.0
  0
LINE
  5
   583
  8
0
  6
CONTINUOUS
 62
     7
 10
-499.62939453125
 20
-131.088722229004
 30
0.0
 11
-500.02939453125
 21
-131.088722229004
 31
0.0
  0
LINE
  5
   584
  8
0
  6
CONTINUOUS
 62
     7
 10
-500.02939453125
 20
-117.901222229004
 30
0.0
 11
-504.02939453125
 21
-117.901222229004
 31
0.0
  0
LINE
  5
   585
  8
0
  6
CONTINUOUS
 62
     7
 10
-504.02939453125
 20
-117.901222229004
 30
0.0
 11
-504.02939453125
 21
-131.276222229004
 31
0.0
  0
LINE
  5
   586
  8
0
  6
CONTINUOUS
 62
     7
 10
-500.02939453125
 20
-127.776222229004
 30
0.0
 11
-504.02939453125
 21
-127.776222229004
 31
0.0
  0
LINE
  5
   587
  8
0
  6
CONTINUOUS
 62
     7
 10
-500.02939453125
 20
-121.401222229004
 30
0.0
 11
-504.02939453125
 21
-121.401222229004
 31
0.0
  0
LINE
  5
   588
  8
0
  6
CONTINUOUS
 62
     7
 10
-500.02939453125
 20
-131.276222229004
 30
0.0
 11
-504.02939453125
 21
-131.276222229004
 31
0.0
  0
LINE
  5
   589
  8
0
  6
CONTINUOUS
 62
     7
 10
-455.192576676094
 20
-67.668904779792
 30
0.0
 11
-466.629394531313
 21
-67.668904779792
 31
0.0
  0
LINE
  5
   58A
  8
0
  6
CONTINUOUS
 62
     7
 10
-455.192576676094
 20
-137.713722229004
 30
0.0
 11
-466.629394531313
 21
-137.713722229004
 31
0.0
  0
LINE
  5
   58B
  8
0
  6
CONTINUOUS
 62
     7
 10
-455.192576676094
 20
-64.7225852497207
 30
0.0
 11
-455.192576676094
 21
-141.681366144507
 31
0.0
  0
LINE
  5
   58C
  8
0
  6
CONTINUOUS
 62
     7
 10
-504.02939453125
 20
-117.901222229004
 30
0.0
 11
-508.02939453125
 21
-117.901222229004
 31
0.0
  0
LINE
  5
   58D
  8
0
  6
CONTINUOUS
 62
     7
 10
-504.02939453125
 20
-121.401222229004
 30
0.0
 11
-508.02939453125
 21
-121.401222229004
 31
0.0
  0
LINE
  5
   58E
  8
0
  6
CONTINUOUS
 62
     7
 10
-504.02939453125
 20
-127.776222229004
 30
0.0
 11
-508.02939453125
 21
-127.776222229004
 31
0.0
  0
LINE
  5
   58F
  8
0
  6
CONTINUOUS
 62
     7
 10
-504.02939453125
 20
-131.276222229004
 30
0.0
 11
-508.02939453125
 21
-131.276222229004
 31
0.0
  0
LINE
  5
   590
  8
0
  6
CONTINUOUS
 62
     7
 10
-508.02939453125
 20
-117.901222229004
 30
0.0
 11
-508.02939453125
 21
-131.276222229004
 31
0.0
  0
ARC
  5
   591
  8
0
  6
CONTINUOUS
 62
   253
 10
-499.12939453125
 20
-96.2137222290039
 30
0.0
 40
0.5
 50
449.999999896069
 51
539.999999896069
  0
ARC
  5
   592
  8
0
  6
CONTINUOUS
 62
   253
 10
-499.12939453125
 20
-109.213722229004
 30
0.0
 40
0.5
 50
179.999999896069
 51
269.999999896069
  0
LINE
  5
   593
  8
0
  6
CONTINUOUS
 62
     7
 10
-515.38874762185
 20
-117.901222229004
 30
0.0
 11
-519.38874762185
 21
-117.901222229004
 31
0.0
  0
LINE
  5
   594
  8
0
  6
CONTINUOUS
 62
     7
 10
-515.38874762185
 20
-121.401222229004
 30
0.0
 11
-519.38874762185
 21
-121.401222229004
 31
0.0
  0
LINE
  5
   595
  8
0
  6
CONTINUOUS
 62
     7
 10
-515.38874762185
 20
-127.776222229004
 30
0.0
 11
-519.38874762185
 21
-127.776222229004
 31
0.0
  0
LINE
  5
   596
  8
0
  6
CONTINUOUS
 62
     7
 10
-515.38874762185
 20
-131.276222229004
 30
0.0
 11
-519.38874762185
 21
-131.276222229004
 31
0.0
  0
LINE
  5
   597
  8
0
  6
CONTINUOUS
 62
     7
 10
-513.88874762185
 20
-131.213722229004
 30
0.0
 11
-515.38874762185
 21
-131.213722229004
 31
0.0
  0
LINE
  5
   598
  8
0
  6
CONTINUOUS
 62
     7
 10
-513.88874762185
 20
-117.963722229004
 30
0.0
 11
-515.38874762185
 21
-117.963722229004
 31
0.0
  0
LINE
  5
   599
  8
0
  6
CONTINUOUS
 62
     7
 10
-519.38874762185
 20
-117.901222229004
 30
0.0
 11
-519.38874762185
 21
-131.276222229004
 31
0.0
  0
LINE
  5
   59A
  8
0
  6
CONTINUOUS
 62
     7
 10
-515.38874762185
 20
-117.901222229004
 30
0.0
 11
-515.38874762185
 21
-131.276222229004
 31
0.0
  0
LINE
  5
   59B
  8
0
  6
CONTINUOUS
 62
     7
 10
-513.88874762185
 20
-117.963722229004
 30
0.0
 11
-513.88874762185
 21
-131.213722229004
 31
0.0
  0
LINE
  5
   59C
  8
0
  6
CONTINUOUS
 62
   212
 10
-519.38874762185
 20
-120.588722229004
 30
0.0
 11
-520.379386901856
 21
-120.588722229004
 31
0.0
  0
LINE
  5
   59D
  8
0
  6
CONTINUOUS
 62
   212
 10
-519.38874762185
 20
-121.088722229004
 30
0.0
 11
-520.879386901856
 21
-121.088722229004
 31
0.0
  0
LINE
  5
   59E
  8
0
  6
CONTINUOUS
 62
   212
 10
-519.38874762185
 20
-128.088722229004
 30
0.0
 11
-520.879386901856
 21
-128.088722229004
 31
0.0
  0
LINE
  5
   59F
  8
0
  6
CONTINUOUS
 62
   212
 10
-519.38874762185
 20
-128.588722229004
 30
0.0
 11
-520.379386901856
 21
-128.588722229004
 31
0.0
  0
LINE
  5
   5A0
  8
0
  6
DASHDOT
 62
     7
 10
-455.1275114596
 20
-80.8387222290039
 30
0.0
 11
-553.429175237434
 21
-80.8387222290039
 31
0.0
  0
LINE
  5
   5A1
  8
0
  6
CONTINUOUS
 62
   253
 10
-491.62939453125
 20
-73.8387222290039
 30
0.0
 11
-499.62939453125
 21
-73.8387222290039
 31
0.0
  0
LINE
  5
   5A2
  8
0
  6
CONTINUOUS
 62
   253
 10
-491.62939453125
 20
-87.8387222290039
 30
0.0
 11
-499.62939453125
 21
-87.8387222290039
 31
0.0
  0
LINE
  5
   5A3
  8
0
  6
CONTINUOUS
 62
   253
 10
-499.62939453125
 20
-73.8387222290039
 30
0.0
 11
-499.62939453125
 21
-87.8387222290039
 31
0.0
  0
LINE
  5
   5A4
  8
0
  6
CONTINUOUS
 62
     3
 10
-467.629394531242
 20
-72.3387238645528
 30
0.0
 11
-467.629394531242
 21
-89.3387245570641
 31
0.0
  0
LINE
  5
   5A5
  8
0
  6
CONTINUOUS
 62
     3
 10
-477.12939453125
 20
-110.213722229004
 30
0.0
 11
-480.12939453125
 21
-110.213722229004
 31
0.0
  0
LINE
  5
   5A6
  8
0
  6
CONTINUOUS
 62
     3
 10
-477.12939453125
 20
-117.088722229004
 30
0.0
 11
-480.12939453125
 21
-117.088722229004
 31
0.0
  0
LINE
  5
   5A7
  8
0
  6
CONTINUOUS
 62
     3
 10
-477.12939453125
 20
-132.088722229004
 30
0.0
 11
-480.12939453125
 21
-132.088722229004
 31
0.0
  0
LINE
  5
   5A8
  8
0
  6
CONTINUOUS
 62
     3
 10
-477.12939453125
 20
-88.3387222290039
 30
0.0
 11
-480.12939453125
 21
-88.3387222290039
 31
0.0
  0
LINE
  5
   5A9
  8
0
  6
CONTINUOUS
 62
     3
 10
-477.12939453125
 20
-73.3387222290039
 30
0.0
 11
-480.12939453125
 21
-73.3387222290039
 31
0.0
  0
LINE
  5
   5AA
  8
0
  6
CONTINUOUS
 62
     2
 10
-491.37939453125
 20
-88.8387222290039
 30
0.0
 11
-491.62939453125
 21
-88.8387222290039
 31
0.0
  0
LINE
  5
   5AB
  8
0
  6
CONTINUOUS
 62
     2
 10
-491.37939453125
 20
-94.7137222290039
 30
0.0
 11
-491.62939453125
 21
-94.7137222290039
 31
0.0
  0
LINE
  5
   5AC
  8
0
  6
CONTINUOUS
 62
     2
 10
-491.62939453125
 20
-73.8387222290039
 30
0.0
 11
-491.62939453125
 21
-88.8387222290039
 31
0.0
  0
LINE
  5
   5AD
  8
0
  6
CONTINUOUS
 62
     2
 10
-491.37939453125
 20
-110.713722229004
 30
0.0
 11
-491.62939453125
 21
-110.713722229004
 31
0.0
  0
LINE
  5
   5AE
  8
0
  6
CONTINUOUS
 62
     2
 10
-491.37939453125
 20
-116.588722229004
 30
0.0
 11
-491.62939453125
 21
-116.588722229004
 31
0.0
  0
LINE
  5
   5AF
  8
0
  6
CONTINUOUS
 62
     2
 10
-491.62939453125
 20
-131.588722229004
 30
0.0
 11
-491.62939453125
 21
-132.588722229004
 31
0.0
  0
LINE
  5
   5B0
  8
0
  6
CONTINUOUS
 62
     2
 10
-489.37939453125
 20
-135.213722229004
 30
0.0
 11
-492.37939453125
 21
-135.213722229004
 31
0.0
  0
LINE
  5
   5B1
  8
0
  6
CONTINUOUS
 62
     2
 10
-489.37939453125
 20
-70.2137222290039
 30
0.0
 11
-492.37939453125
 21
-70.2137222290039
 31
0.0
  0
LINE
  5
   5B2
  8
0
  6
CONTINUOUS
 62
     7
 10
-466.629394531313
 20
-67.668904779792
 30
0.0
 11
-466.629394531313
 21
-72.3387238645516
 31
0.0
  0
LINE
  5
   5B3
  8
0
  6
CONTINUOUS
 62
     7
 10
-466.629394531283
 20
-89.3387245570648
 30
0.0
 11
-466.629394531283
 21
-94.2137238645521
 31
0.0
  0
LINE
  5
   5B4
  8
0
  6
CONTINUOUS
 62
     7
 10
-466.629394531283
 20
-111.213724557065
 30
0.0
 11
-466.629394531283
 21
-116.088723864552
 31
0.0
  0
LINE
  5
   5B5
  8
0
  6
CONTINUOUS
 62
     7
 10
-466.629394531313
 20
-133.088724557065
 30
0.0
 11
-466.629394531313
 21
-137.713722229004
 31
0.0
  0
LINE
  5
   5B6
  8
0
  6
CONTINUOUS
 62
     7
 10
-508.02939453125
 20
-117.963722229004
 30
0.0
 11
-509.52939453125
 21
-117.963722229004
 31
0.0
  0
LINE
  5
   5B7
  8
0
  6
CONTINUOUS
 62
     7
 10
-509.52939453125
 20
-117.963722229004
 30
0.0
 11
-509.52939453125
 21
-131.213722229004
 31
0.0
  0
LINE
  5
   5B8
  8
0
  6
CONTINUOUS
 62
     7
 10
-508.02939453125
 20
-131.213722229004
 30
0.0
 11
-509.52939453125
 21
-131.213722229004
 31
0.0
  0
LINE
  5
   5B9
  8
0
  6
CONTINUOUS
 62
     2
 10
-481.12939453125
 20
-73.3387222290039
 30
0.0
 11
-486.12939453125
 21
-73.3387222290039
 31
0.0
  0
LINE
  5
   5BA
  8
0
  6
CONTINUOUS
 62
     2
 10
-481.12939453125
 20
-88.3387222290039
 30
0.0
 11
-486.12939453125
 21
-88.3387222290039
 31
0.0
  0
LINE
  5
   5BB
  8
0
  6
CONTINUOUS
 62
     2
 10
-481.12939453125
 20
-95.2137222290039
 30
0.0
 11
-486.12939453125
 21
-95.2137222290039
 31
0.0
  0
LINE
  5
   5BC
  8
0
  6
CONTINUOUS
 62
     2
 10
-481.12939453125
 20
-110.213722229004
 30
0.0
 11
-486.12939453125
 21
-110.213722229004
 31
0.0
  0
LINE
  5
   5BD
  8
0
  6
CONTINUOUS
 62
     2
 10
-481.12939453125
 20
-117.088722229004
 30
0.0
 11
-486.12939453125
 21
-117.088722229004
 31
0.0
  0
LINE
  5
   5BE
  8
0
  6
CONTINUOUS
 62
     2
 10
-481.12939453125
 20
-132.088722229004
 30
0.0
 11
-486.12939453125
 21
-132.088722229004
 31
0.0
  0
LINE
  5
   5BF
  8
0
  6
CONTINUOUS
 62
   212
 10
-520.379386901856
 20
-84.8387222290039
 30
0.0
 11
-521.379386901856
 21
-83.8387222290039
 31
0.0
  0
LINE
  5
   5C0
  8
0
  6
CONTINUOUS
 62
   212
 10
-521.379386901856
 20
-77.8387222290039
 30
0.0
 11
-521.379386901856
 21
-83.8387222290039
 31
0.0
  0
LINE
  5
   5C1
  8
0
  6
CONTINUOUS
 62
   212
 10
-520.379386901856
 20
-76.8387222290039
 30
0.0
 11
-521.379386901856
 21
-77.8387222290039
 31
0.0
  0
LINE
  5
   5C2
  8
0
  6
CONTINUOUS
 62
   212
 10
-519.38874762185
 20
-77.3387222290039
 30
0.0
 11
-520.879386901856
 21
-77.3387222290039
 31
0.0
  0
LINE
  5
   5C3
  8
0
  6
CONTINUOUS
 62
   212
 10
-519.38874762185
 20
-76.8387222290039
 30
0.0
 11
-520.379386901856
 21
-76.8387222290039
 31
0.0
  0
LINE
  5
   5C4
  8
0
  6
CONTINUOUS
 62
   212
 10
-519.38874762185
 20
-84.3387222290039
 30
0.0
 11
-520.879386901856
 21
-84.3387222290039
 31
0.0
  0
LINE
  5
   5C5
  8
0
  6
CONTINUOUS
 62
   212
 10
-519.38874762185
 20
-84.8387222290039
 30
0.0
 11
-520.379386901856
 21
-84.8387222290039
 31
0.0
  0
LINE
  5
   5C6
  8
0
  6
CONTINUOUS
 62
   212
 10
-520.379386901856
 20
-76.8387222290039
 30
0.0
 11
-520.379386901856
 21
-84.8387222290039
 31
0.0
  0
LINE
  5
   5C7
  8
0
  6
CONTINUOUS
 62
     7
 10
-519.38874762185
 20
-74.1512222290039
 30
0.0
 11
-519.38874762185
 21
-87.5262222290039
 31
0.0
  0
LINE
  5
   5C8
  8
0
  6
CONTINUOUS
 62
     7
 10
-515.38874762185
 20
-74.1512222290039
 30
0.0
 11
-515.38874762185
 21
-87.5262222290039
 31
0.0
  0
LINE
  5
   5C9
  8
0
  6
CONTINUOUS
 62
     7
 10
-513.88874762185
 20
-74.2137222290039
 30
0.0
 11
-513.88874762185
 21
-87.4637222290039
 31
0.0
  0
LINE
  5
   5CA
  8
0
  6
CONTINUOUS
 62
     7
 10
-515.38874762185
 20
-87.5262222290039
 30
0.0
 11
-519.38874762185
 21
-87.5262222290039
 31
0.0
  0
LINE
  5
   5CB
  8
0
  6
CONTINUOUS
 62
     7
 10
-515.38874762185
 20
-84.0262222290039
 30
0.0
 11
-519.38874762185
 21
-84.0262222290039
 31
0.0
  0
LINE
  5
   5CC
  8
0
  6
CONTINUOUS
 62
     7
 10
-515.38874762185
 20
-77.6512222290039
 30
0.0
 11
-519.38874762185
 21
-77.6512222290039
 31
0.0
  0
LINE
  5
   5CD
  8
0
  6
CONTINUOUS
 62
     7
 10
-515.38874762185
 20
-74.1512222290039
 30
0.0
 11
-519.38874762185
 21
-74.1512222290039
 31
0.0
  0
LINE
  5
   5CE
  8
0
  6
CONTINUOUS
 62
     7
 10
-513.88874762185
 20
-74.2137222290039
 30
0.0
 11
-515.38874762185
 21
-74.2137222290039
 31
0.0
  0
LINE
  5
   5CF
  8
0
  6
CONTINUOUS
 62
     7
 10
-513.88874762185
 20
-87.4637222290039
 30
0.0
 11
-515.38874762185
 21
-87.4637222290039
 31
0.0
  0
LINE
  5
   5D0
  8
0
  6
CONTINUOUS
 62
   212
 10
-509.52939453125
 20
-84.8387222290039
 30
0.0
 11
-513.88874762185
 21
-84.8387222290039
 31
0.0
  0
LINE
  5
   5D1
  8
0
  6
CONTINUOUS
 62
   212
 10
-509.52939453125
 20
-84.3387222290039
 30
0.0
 11
-513.88874762185
 21
-84.3387222290039
 31
0.0
  0
LINE
  5
   5D2
  8
0
  6
CONTINUOUS
 62
   212
 10
-509.52939453125
 20
-77.3387222290039
 30
0.0
 11
-513.88874762185
 21
-77.3387222290039
 31
0.0
  0
LINE
  5
   5D3
  8
0
  6
CONTINUOUS
 62
   212
 10
-509.52939453125
 20
-76.8387222290039
 30
0.0
 11
-513.88874762185
 21
-76.8387222290039
 31
0.0
  0
LINE
  5
   5D4
  8
0
  6
CONTINUOUS
 62
     7
 10
-509.52939453125
 20
-74.2137222290039
 30
0.0
 11
-509.52939453125
 21
-87.4637222290039
 31
0.0
  0
LINE
  5
   5D5
  8
0
  6
CONTINUOUS
 62
     7
 10
-508.02939453125
 20
-74.1512222290039
 30
0.0
 11
-508.02939453125
 21
-87.5262222290039
 31
0.0
  0
LINE
  5
   5D6
  8
0
  6
CONTINUOUS
 62
     7
 10
-508.02939453125
 20
-74.2137222290039
 30
0.0
 11
-509.52939453125
 21
-74.2137222290039
 31
0.0
  0
LINE
  5
   5D7
  8
0
  6
CONTINUOUS
 62
     7
 10
-508.02939453125
 20
-87.4637222290039
 30
0.0
 11
-509.52939453125
 21
-87.4637222290039
 31
0.0
  0
LINE
  5
   5D8
  8
0
  6
CONTINUOUS
 62
     7
 10
-504.02939453125
 20
-87.5262222290039
 30
0.0
 11
-508.02939453125
 21
-87.5262222290039
 31
0.0
  0
LINE
  5
   5D9
  8
0
  6
CONTINUOUS
 62
     7
 10
-504.02939453125
 20
-84.0262222290039
 30
0.0
 11
-508.02939453125
 21
-84.0262222290039
 31
0.0
  0
LINE
  5
   5DA
  8
0
  6
CONTINUOUS
 62
     7
 10
-504.02939453125
 20
-77.6512222290039
 30
0.0
 11
-508.02939453125
 21
-77.6512222290039
 31
0.0
  0
LINE
  5
   5DB
  8
0
  6
CONTINUOUS
 62
     7
 10
-504.02939453125
 20
-74.1512222290039
 30
0.0
 11
-508.02939453125
 21
-74.1512222290039
 31
0.0
  0
LINE
  5
   5DC
  8
0
  6
CONTINUOUS
 62
     7
 10
-504.02939453125
 20
-74.1512222290039
 30
0.0
 11
-504.02939453125
 21
-87.5262222290039
 31
0.0
  0
LINE
  5
   5DD
  8
0
  6
CONTINUOUS
 62
     7
 10
-500.02939453125
 20
-87.5262222290039
 30
0.0
 11
-504.02939453125
 21
-87.5262222290039
 31
0.0
  0
LINE
  5
   5DE
  8
0
  6
CONTINUOUS
 62
     7
 10
-500.02939453125
 20
-84.0262222290039
 30
0.0
 11
-504.02939453125
 21
-84.0262222290039
 31
0.0
  0
LINE
  5
   5DF
  8
0
  6
CONTINUOUS
 62
     7
 10
-500.02939453125
 20
-77.6512222290039
 30
0.0
 11
-504.02939453125
 21
-77.6512222290039
 31
0.0
  0
LINE
  5
   5E0
  8
0
  6
CONTINUOUS
 62
     7
 10
-500.02939453125
 20
-74.1512222290039
 30
0.0
 11
-504.02939453125
 21
-74.1512222290039
 31
0.0
  0
LINE
  5
   5E1
  8
0
  6
CONTINUOUS
 62
     7
 10
-500.02939453125
 20
-74.1512222290039
 30
0.0
 11
-500.02939453125
 21
-87.5262222290039
 31
0.0
  0
LINE
  5
   5E2
  8
0
  6
CONTINUOUS
 62
     7
 10
-499.62939453125
 20
-74.3387222290039
 30
0.0
 11
-499.62939453125
 21
-87.3387222290039
 31
0.0
  0
LINE
  5
   5E3
  8
0
  6
CONTINUOUS
 62
     7
 10
-499.62939453125
 20
-87.3387222290039
 30
0.0
 11
-500.02939453125
 21
-87.3387222290039
 31
0.0
  0
LINE
  5
   5E4
  8
0
  6
CONTINUOUS
 62
     7
 10
-499.62939453125
 20
-74.3387222290039
 30
0.0
 11
-500.02939453125
 21
-74.3387222290039
 31
0.0
  0
LINE
  5
   5E5
  8
0
  6
CONTINUOUS
 62
   212
 10
-546.379386901856
 20
-99.7137222290039
 30
0.0
 11
-546.379386901856
 21
-105.713722229004
 31
0.0
  0
LINE
  5
   5E6
  8
0
  6
CONTINUOUS
 62
   212
 10
-545.379386901856
 20
-98.7137222290039
 30
0.0
 11
-545.379386901856
 21
-106.713722229004
 31
0.0
  0
LINE
  5
   5E7
  8
0
  6
CONTINUOUS
 62
   212
 10
-545.379386901856
 20
-98.7137222290039
 30
0.0
 11
-546.379386901856
 21
-99.7137222290039
 31
0.0
  0
LINE
  5
   5E8
  8
0
  6
CONTINUOUS
 62
   212
 10
-545.379386901856
 20
-106.713722229004
 30
0.0
 11
-546.379386901856
 21
-105.713722229004
 31
0.0
  0
LINE
  5
   5E9
  8
0
  6
CONTINUOUS
 62
   212
 10
-545.379386901856
 20
-98.7137222290039
 30
0.0
 11
-545.379386901856
 21
-106.713722229004
 31
0.0
  0
LINE
  5
   5EA
  8
0
  6
CONTINUOUS
 62
   212
 10
-544.38874762185
 20
-98.7137222290039
 30
0.0
 11
-545.379386901856
 21
-98.7137222290039
 31
0.0
  0
LINE
  5
   5EB
  8
0
  6
CONTINUOUS
 62
   212
 10
-544.38874762185
 20
-99.2137222290039
 30
0.0
 11
-545.879386901856
 21
-99.2137222290039
 31
0.0
  0
LINE
  5
   5EC
  8
0
  6
CONTINUOUS
 62
   212
 10
-544.38874762185
 20
-106.213722229004
 30
0.0
 11
-545.879386901856
 21
-106.213722229004
 31
0.0
  0
LINE
  5
   5ED
  8
0
  6
CONTINUOUS
 62
   212
 10
-544.38874762185
 20
-106.713722229004
 30
0.0
 11
-545.379386901856
 21
-106.713722229004
 31
0.0
  0
LINE
  5
   5EE
  8
0
  6
CONTINUOUS
 62
     7
 10
-544.38874762185
 20
-96.0262222290039
 30
0.0
 11
-544.38874762185
 21
-109.401222229004
 31
0.0
  0
LINE
  5
   5EF
  8
0
  6
CONTINUOUS
 62
     7
 10
-540.38874762185
 20
-96.0262222290039
 30
0.0
 11
-540.38874762185
 21
-109.401222229004
 31
0.0
  0
LINE
  5
   5F0
  8
0
  6
CONTINUOUS
 62
     7
 10
-538.88874762185
 20
-96.0887222290039
 30
0.0
 11
-538.88874762185
 21
-109.338722229004
 31
0.0
  0
LINE
  5
   5F1
  8
0
  6
CONTINUOUS
 62
     7
 10
-540.38874762185
 20
-96.0262222290039
 30
0.0
 11
-544.38874762185
 21
-96.0262222290039
 31
0.0
  0
LINE
  5
   5F2
  8
0
  6
CONTINUOUS
 62
     7
 10
-540.38874762185
 20
-99.5262222290039
 30
0.0
 11
-544.38874762185
 21
-99.5262222290039
 31
0.0
  0
LINE
  5
   5F3
  8
0
  6
CONTINUOUS
 62
     7
 10
-540.38874762185
 20
-105.901222229004
 30
0.0
 11
-544.38874762185
 21
-105.901222229004
 31
0.0
  0
LINE
  5
   5F4
  8
0
  6
CONTINUOUS
 62
     7
 10
-540.38874762185
 20
-109.401222229004
 30
0.0
 11
-544.38874762185
 21
-109.401222229004
 31
0.0
  0
LINE
  5
   5F5
  8
0
  6
CONTINUOUS
 62
     7
 10
-538.88874762185
 20
-109.338722229004
 30
0.0
 11
-540.38874762185
 21
-109.338722229004
 31
0.0
  0
LINE
  5
   5F6
  8
0
  6
CONTINUOUS
 62
     7
 10
-538.88874762185
 20
-96.0887222290039
 30
0.0
 11
-540.38874762185
 21
-96.0887222290039
 31
0.0
  0
LINE
  5
   5F7
  8
0
  6
CONTINUOUS
 62
   212
 10
-534.52939453125
 20
-98.7137222290039
 30
0.0
 11
-538.88874762185
 21
-98.7137222290039
 31
0.0
  0
LINE
  5
   5F8
  8
0
  6
CONTINUOUS
 62
   212
 10
-534.52939453125
 20
-99.2137222290039
 30
0.0
 11
-538.88874762185
 21
-99.2137222290039
 31
0.0
  0
LINE
  5
   5F9
  8
0
  6
CONTINUOUS
 62
   212
 10
-534.52939453125
 20
-106.213722229004
 30
0.0
 11
-538.88874762185
 21
-106.213722229004
 31
0.0
  0
LINE
  5
   5FA
  8
0
  6
CONTINUOUS
 62
   212
 10
-534.52939453125
 20
-106.713722229004
 30
0.0
 11
-538.88874762185
 21
-106.713722229004
 31
0.0
  0
LINE
  5
   5FB
  8
0
  6
CONTINUOUS
 62
     7
 10
-534.52939453125
 20
-96.0887222290039
 30
0.0
 11
-534.52939453125
 21
-109.338722229004
 31
0.0
  0
LINE
  5
   5FC
  8
0
  6
CONTINUOUS
 62
     7
 10
-533.02939453125
 20
-96.0262222290039
 30
0.0
 11
-533.02939453125
 21
-109.401222229004
 31
0.0
  0
LINE
  5
   5FD
  8
0
  6
CONTINUOUS
 62
     7
 10
-533.02939453125
 20
-109.338722229004
 30
0.0
 11
-534.52939453125
 21
-109.338722229004
 31
0.0
  0
LINE
  5
   5FE
  8
0
  6
CONTINUOUS
 62
     7
 10
-533.02939453125
 20
-96.0887222290039
 30
0.0
 11
-534.52939453125
 21
-96.0887222290039
 31
0.0
  0
LINE
  5
   5FF
  8
0
  6
CONTINUOUS
 62
     7
 10
-533.02939453125
 20
-96.0262222290039
 30
0.0
 11
-533.02939453125
 21
-109.401222229004
 31
0.0
  0
LINE
  5
   600
  8
0
  6
CONTINUOUS
 62
     7
 10
-529.02939453125
 20
-96.0262222290039
 30
0.0
 11
-533.02939453125
 21
-96.0262222290039
 31
0.0
  0
LINE
  5
   601
  8
0
  6
CONTINUOUS
 62
     7
 10
-529.02939453125
 20
-96.0262222290039
 30
0.0
 11
-529.02939453125
 21
-109.401222229004
 31
0.0
  0
LINE
  5
   602
  8
0
  6
CONTINUOUS
 62
     7
 10
-529.02939453125
 20
-99.5262222290039
 30
0.0
 11
-533.02939453125
 21
-99.5262222290039
 31
0.0
  0
LINE
  5
   603
  8
0
  6
CONTINUOUS
 62
     7
 10
-529.02939453125
 20
-105.901222229004
 30
0.0
 11
-533.02939453125
 21
-105.901222229004
 31
0.0
  0
LINE
  5
   604
  8
0
  6
CONTINUOUS
 62
     7
 10
-529.02939453125
 20
-109.401222229004
 30
0.0
 11
-533.02939453125
 21
-109.401222229004
 31
0.0
  0
LINE
  5
   605
  8
0
  6
CONTINUOUS
 62
     7
 10
-525.02939453125
 20
-96.0262222290039
 30
0.0
 11
-529.02939453125
 21
-96.0262222290039
 31
0.0
  0
LINE
  5
   606
  8
0
  6
CONTINUOUS
 62
     7
 10
-525.02939453125
 20
-99.5262222290039
 30
0.0
 11
-529.02939453125
 21
-99.5262222290039
 31
0.0
  0
LINE
  5
   607
  8
0
  6
CONTINUOUS
 62
     7
 10
-525.02939453125
 20
-105.901222229004
 30
0.0
 11
-529.02939453125
 21
-105.901222229004
 31
0.0
  0
LINE
  5
   608
  8
0
  6
CONTINUOUS
 62
     7
 10
-525.02939453125
 20
-109.401222229004
 30
0.0
 11
-529.02939453125
 21
-109.401222229004
 31
0.0
  0
LINE
  5
   609
  8
0
  6
CONTINUOUS
 62
     7
 10
-525.02939453125
 20
-96.0262222290039
 30
0.0
 11
-525.02939453125
 21
-109.401222229004
 31
0.0
  0
LINE
  5
   60A
  8
0
  6
CONTINUOUS
 62
     7
 10
-524.62939453125
 20
-96.2137222290039
 30
0.0
 11
-524.62939453125
 21
-109.213722229004
 31
0.0
  0
LINE
  5
   60B
  8
0
  6
CONTINUOUS
 62
     7
 10
-524.62939453125
 20
-96.2137222290039
 30
0.0
 11
-525.02939453125
 21
-96.2137222290039
 31
0.0
  0
LINE
  5
   60C
  8
0
  6
CONTINUOUS
 62
     7
 10
-524.62939453125
 20
-109.213722229004
 30
0.0
 11
-525.02939453125
 21
-109.213722229004
 31
0.0
  0
ARC
  5
   60D
  8
0
  6
CONTINUOUS
 62
   253
 10
-524.12939453125
 20
-97.2137222290039
 30
0.0
 40
0.5
 50
449.999999896069
 51
539.999999896069
  0
LINE
  5
   60E
  8
0
  6
CONTINUOUS
 62
   253
 10
-499.62939453125
 20
-96.7137222290039
 30
0.0
 11
-524.12939453125
 21
-96.7137222290039
 31
0.0
  0
LINE
  5
   60F
  8
0
  6
CONTINUOUS
 62
   253
 10
-499.62939453125
 20
-108.713722229004
 30
0.0
 11
-524.12939453125
 21
-108.713722229004
 31
0.0
  0
ARC
  5
   610
  8
0
  6
CONTINUOUS
 62
   253
 10
-524.12939453125
 20
-108.213722229004
 30
0.0
 40
0.5
 50
179.999999896069
 51
269.999999896069
  0
INSERT
  5
   611
  8
0
  6
CONTINUOUS
 62
     7
  2
*UDIM2472
 10
0.0
 20
0.0
 30
0.0
  0
INSERT
  5
   612
  8
0
  6
CONTINUOUS
 62
     7
  2
*UDIM2473
 10
0.0
 20
0.0
 30
0.0
  0
INSERT
  5
   613
  8
0
  6
CONTINUOUS
 62
     7
  2
*UDIM2474
 10
0.0
 20
0.0
 30
0.0
  0
INSERT
  5
   614
  8
0
  6
CONTINUOUS
 62
     7
  2
*UDIM2475
 10
0.0
 20
0.0
 30
0.0
  0
INSERT
  5
   615
  8
0
  6
CONTINUOUS
 62
     7
  2
*UDIM2476
 10
0.0
 20
0.0
 30
0.0
  0
LINE
  5
   616
  8
0
  6
CONTINUOUS
 62
     7
 10
-356.281860351563
 20
18.6459999084473
 30
0.0
 11
-328.281860351563
 21
18.6459999084473
 31
0.0
  0
LINE
  5
   617
  8
0
  6
CONTINUOUS
 62
     7
 10
-356.281860351563
 20
46.6459999084473
 30
0.0
 11
-328.281860351563
 21
46.6459999084473
 31
0.0
  0
LINE
  5
   618
  8
0
  6
CONTINUOUS
 62
     7
 10
-356.281860351563
 20
46.6459999084473
 30
0.0
 11
-356.281860351563
 21
18.6459999084473
 31
0.0
  0
LINE
  5
   619
  8
0
  6
CONTINUOUS
 62
     7
 10
-328.281860351563
 20
46.6459999084473
 30
0.0
 11
-328.281860351563
 21
18.6459999084473
 31
0.0
  0
CIRCLE
  5
   61A
  8
0
  6
CONTINUOUS
 62
     7
 10
-352.281860351563
 20
50.3959999084473
 30
0.0
 40
0.875
  0
CIRCLE
  5
   61B
  8
0
  6
CONTINUOUS
 62
     7
 10
-332.281860351562
 20
50.3959999084473
 30
0.0
 40
0.875
  0
CIRCLE
  5
   61C
  8
0
  6
CONTINUOUS
 62
     7
 10
-352.281860351563
 20
14.8959999084473
 30
0.0
 40
0.875
  0
CIRCLE
  5
   61D
  8
0
  6
CONTINUOUS
 62
     7
 10
-332.281860351562
 20
14.8959999084473
 30
0.0
 40
0.875
  0
LINE
  5
   61E
  8
0
  6
DASHDOT
 62
     7
 10
-352.281860351563
 20
52.0209999084473
 30
0.0
 11
-352.281860351563
 21
48.7709999084473
 31
0.0
  0
LINE
  5
   61F
  8
0
  6
DASHDOT
 62
     7
 10
-353.906860351563
 20
50.3959999084473
 30
0.0
 11
-350.656860351563
 21
50.3959999084473
 31
0.0
  0
LINE
  5
   620
  8
0
  6
DASHDOT
 62
     7
 10
-332.281860351562
 20
52.0209999084473
 30
0.0
 11
-332.281860351562
 21
48.7709999084473
 31
0.0
  0
LINE
  5
   621
  8
0
  6
DASHDOT
 62
     7
 10
-333.906860351563
 20
50.3959999084473
 30
0.0
 11
-330.656860351563
 21
50.3959999084473
 31
0.0
  0
LINE
  5
   622
  8
0
  6
DASHDOT
 62
     7
 10
-332.281860351562
 20
16.5209999084473
 30
0.0
 11
-332.281860351562
 21
13.2709999084473
 31
0.0
  0
LINE
  5
   623
  8
0
  6
DASHDOT
 62
     7
 10
-333.906860351563
 20
14.8959999084473
 30
0.0
 11
-330.656860351563
 21
14.8959999084473
 31
0.0
  0
LINE
  5
   624
  8
0
  6
DASHDOT
 62
     7
 10
-352.281860351563
 20
16.5209999084473
 30
0.0
 11
-352.281860351563
 21
13.2709999084473
 31
0.0
  0
LINE
  5
   625
  8
0
  6
DASHDOT
 62
     7
 10
-353.906860351563
 20
14.8959999084473
 30
0.0
 11
-350.656860351563
 21
14.8959999084473
 31
0.0
  0
LINE
  5
   626
  8
0
  6
DASHDOT
 62
     7
 10
-342.281860351562
 20
60.0161121937843
 30
0.0
 11
-342.281860351562
 21
3.52274906362626
 31
0.0
  0
LINE
  5
   627
  8
0
  6
CONTINUOUS
 62
     7
 10
-359.102436895228
 20
53.0471855636533
 30
0.0
 11
-325.147876671921
 21
53.0471855636533
 31
0.0
  0
LINE
  5
   628
  8
0
  6
CONTINUOUS
 62
     7
 10
-359.102436895228
 20
11.482120462708
 30
0.0
 11
-325.147876671921
 21
11.482120462708
 31
0.0
  0
LINE
  5
   629
  8
0
  6
CONTINUOUS
 62
     7
 10
-325.147876671921
 20
53.0471855636533
 30
0.0
 11
-325.147876671921
 21
11.482120462708
 31
0.0
  0
LINE
  5
   62A
  8
0
  6
CONTINUOUS
 62
     7
 10
-359.102436895228
 20
53.0471855636533
 30
0.0
 11
-359.102436895228
 21
11.482120462708
 31
0.0
  0
CIRCLE
  5
   62B
  8
0
  6
CONTINUOUS
 62
     7
 10
-357.229081848425
 20
51.2323728620627
 30
0.0
 40
0.0625
  0
LINE
  5
   62C
  8
0
  6
DASHDOT
 62
     7
 10
-365.713563751953
 20
32.6459999084473
 30
0.0
 11
-320.153921802374
 21
32.6459999084473
 31
0.0
  0
TEXT
  5
   62D
  8
0
  6
CONTINUOUS
 62
     1
 10
-455.224302619431
 20
-165.625774399891
 30
0.0
 40
2.00000008940697
  1
M 3076 95-01-16
 50
359.999999844103
 41
0.749999861419206
 72
     1
 11
-444.124304175377
 21
-164.625774385334
 31
0.0
 73
     2
  0
TEXT
  5
   62E
  8
0
  6
CONTINUOUS
 62
     1
 10
-467.757217398018
 20
-151.601283910072
 30
0.0
 40
2.00000008940697
  1
93-04-05 FERRARI M.
 50
359.999999844103
 41
0.749999861419206
 72
     2
 11
-439.557221355766
 21
-151.60128398666
 31
0.0
  0
INSERT
  5
   62F
  8
0
  6
CONTINUOUS
 62
     7
  2
*UDIM2477
 10
0.0
 20
0.0
 30
0.0
  0
TEXT
  5
   630
  8
0
  6
CONTINUOUS
 62
     7
 10
-349.182402344647
 20
65.8703457747244
 30
0.0
 40
3.00000002980232
  1
=   =
 50
359.999999844103
 41
0.916666604744064
 72
     2
 11
-335.982403109573
 21
65.8703457388747
 31
0.0
  0
TEXT
  5
   631
  8
0
  6
CONTINUOUS
 62
     7
 10
-349.240944596234
 20
59.3136040602468
 30
0.0
 40
3.00000002980232
  1
=   =
 50
359.999999844103
 41
0.916666604744064
 72
     2
 11
-336.04094536116
 21
59.3136040243971
 31
0.0
  0
INSERT
  5
   632
  8
0
  6
CONTINUOUS
 62
     7
  2
*UDIM2478
 10
0.0
 20
0.0
 30
0.0
  0
INSERT
  5
   633
  8
0
  6
CONTINUOUS
 62
     7
  2
*UDIM2479
 10
0.0
 20
0.0
 30
0.0
  0
INSERT
  5
   634
  8
0
  6
CONTINUOUS
 62
     7
  2
*UDIM2480
 10
0.0
 20
0.0
 30
0.0
  0
INSERT
  5
   635
  8
0
  6
CONTINUOUS
 62
     7
  2
*UDIM2481
 10
0.0
 20
0.0
 30
0.0
  0
TEXT
  5
   636
  8
0
  6
CONTINUOUS
 62
     7
 10
-343.47014034798
 20
-3.32909400224178
 30
0.0
 40
3.00000002980232
  1
Y
 50
359.999999844103
 41
0.916666604744064
 72
     2
 11
-341.270140479111
 21
-3.32909400821673
 31
0.0
  0
TEXT
  5
   637
  8
0
  6
CONTINUOUS
 62
     7
 10
-342.533462892078
 20
75.410362174516
 30
0.0
 40
3.00000002980232
  1
Y
 50
359.999999844103
 41
0.916666604744064
 72
     2
 11
-340.333463023208
 21
75.4103621685411
 31
0.0
  0
TEXT
  5
   638
  8
0
  6
CONTINUOUS
 62
     7
 10
-319.877393613361
 20
30.8732582831433
 30
0.0
 40
3.00000002980232
  1
X
 50
359.999999844103
 41
0.916666604744064
 72
     2
 11
-317.677393744491
 21
30.8732582771684
 31
0.0
  0
TEXT
  5
   639
  8
0
  6
CONTINUOUS
 62
     7
 10
-384.449783216022
 20
30.7425519728711
 30
0.0
 40
3.00000002980232
  1
X
 50
359.999999844103
 41
0.916666604744064
 72
     2
 11
-382.249783347153
 21
30.7425519668962
 31
0.0
  0
TEXT
  5
   63A
  8
0
  6
CONTINUOUS
 62
     1
 10
-360.440429669082
 20
-176.913555055054
 30
0.0
 40
4.00000017881393
  1
601812/281
 50
359.999999844103
 41
0.937499973922969
 72
     2
 11
-323.69042906931
 21
-176.913555154862
 31
0.0
  0
TEXT
  5
   63B
  8
0
  6
CONTINUOUS
 62
     1
 10
-349.354736314312
 20
-167.931972497229
 30
0.0
 40
3.00000002980232
  1
S5
 50
359.999999844103
 41
0.916666604744064
 72
     2
 11
-344.404736603891
 21
-167.931972510672
 31
0.0
  0
TEXT
  5
   63C
  8
0
  6
CONTINUOUS
 62
     1
 10
-370.889156073073
 20
-149.621700254325
 30
0.0
 40
2.00000008940697
  1
3POLE LOW VOLTAGE M.C.C.B SERIES ISOMAX
 50
359.999999844103
 41
0.749999861419206
 72
     1
 11
-341.789160150296
 21
-148.621700288654
 31
0.0
 73
     2
  0
TEXT
  5
   63D
  8
0
  6
CONTINUOUS
 62
     1
 10
-364.139156982777
 20
-152.621700272657
 30
0.0
 40
2.00000008940697
  1
PLUG-IN VERSION REAR TERMINALS
 50
359.999999844103
 41
0.749999861419206
 72
     1
 11
-341.789160114521
 21
-151.621700288654
 31
0.0
 73
     2
  0
TEXT
  5
   63E
  8
0
  6
CONTINUOUS
 62
     1
 10
-367.686764440427
 20
-157.69196699629
 30
0.0
 40
2.00000008940697
  1
INTERR.AUTOMATICO SERIE ISOMAX
 50
359.999999844103
 41
0.749999861419206
 72
     1
 11
-345.33676757217
 21
-156.691967012287
 31
0.0
 73
     2
  0
TEXT
  5
   63F
  8
0
  6
CONTINUOUS
 62
     1
 10
-379.686762723801
 20
-160.6919669637
 30
0.0
 40
2.00000008940697
  1
TRIPOL.ESECUZIONE RIMOVIBILE TERMIN.POSTERIORI
 50
359.999999844103
 41
0.749999861419206
 72
     1
 11
-345.336767536396
 21
-159.691967012287
 31
0.0
 73
     2
  0
ENDSEC
  0
EOF
