  0
SECTION
  2
HEADER
  9
$ACADVER
  1
AC1009
  9
$INSBASE
 10
0.0
 20
0.0
 30
0.0
  9
$EXTMIN
 10
-287.57945889545618
 20
325.3359371968503
 30
0.0
  9
$EXTMAX
 10
872.9905399999999
 20
762.32735400000001
 30
0.0
  9
$LIMMIN
 10
0.0
 20
0.0
  9
$LIMMAX
 10
420.0
 20
297.0
  9
$ORTHOMODE
 70
     0
  9
$REGENMODE
 70
     1
  9
$FILLMODE
 70
     1
  9
$QTEXTMODE
 70
     0
  9
$MIRRTEXT
 70
     1
  9
$DRAGMODE
 70
     2
  9
$LTSCALE
 40
1.0
  9
$OSMODE
 70
    47
  9
$ATTMODE
 70
     1
  9
$TEXTSIZE
 40
0.0
  9
$TRACEWID
 40
1.0
  9
$TEXTSTYLE
  7
STANDARD
  9
$CLAYER
  8
0
  9
$CELTYPE
  6
BYLAYER
  9
$CECOLOR
 62
   256
  9
$DIMSCALE
 40
1.0
  9
$DIMASZ
 40
2.5
  9
$DIMEXO
 40
0.625
  9
$DIMDLI
 40
3.75
  9
$DIMRND
 40
0.0
  9
$DIMDLE
 40
0.0
  9
$DIMEXE
 40
1.25
  9
$DIMTP
 40
0.0
  9
$DIMTM
 40
0.0
  9
$DIMTXT
 40
2.5
  9
$DIMCEN
 40
2.5
  9
$DIMTSZ
 40
0.0
  9
$DIMTOL
 70
     0
  9
$DIMLIM
 70
     0
  9
$DIMTIH
 70
     0
  9
$DIMTOH
 70
     0
  9
$DIMSE1
 70
     0
  9
$DIMSE2
 70
     0
  9
$DIMTAD
 70
     1
  9
$DIMZIN
 70
     8
  9
$DIMBLK
  1

  9
$DIMASO
 70
     1
  9
$DIMSHO
 70
     1
  9
$DIMPOST
  1

  9
$DIMAPOST
  1

  9
$DIMALT
 70
     0
  9
$DIMALTD
 70
     3
  9
$DIMALTF
 40
0.03937
  9
$DIMLFAC
 40
1.0
  9
$DIMTOFL
 70
     1
  9
$DIMTVP
 40
0.0
  9
$DIMTIX
 70
     0
  9
$DIMSOXD
 70
     0
  9
$DIMSAH
 70
     0
  9
$DIMBLK1
  1

  9
$DIMBLK2
  1

  9
$DIMSTYLE
  2
STANDARD
  9
$DIMCLRD
 70
     0
  9
$DIMCLRE
 70
     0
  9
$DIMCLRT
 70
     0
  9
$DIMTFAC
 40
1.0
  9
$DIMGAP
 40
0.625
  9
$LUNITS
 70
     2
  9
$LUPREC
 70
     4
  9
$SKETCHINC
 40
1.0
  9
$FILLETRAD
 40
2.5
  9
$AUNITS
 70
     0
  9
$AUPREC
 70
     0
  9
$MENU
  1
.
  9
$ELEVATION
 40
0.0
  9
$PELEVATION
 40
0.0
  9
$THICKNESS
 40
0.0
  9
$LIMCHECK
 70
     0
  9
$BLIPMODE
 70
     0
  9
$CHAMFERA
 40
2.5
  9
$CHAMFERB
 40
2.5
  9
$SKPOLY
 70
     0
  9
$TDCREATE
 40
2311942.6598650231
  9
$TDUPDATE
 40
2454455.3789467132
  9
$TDINDWG
 40
0.000415
  9
$TDUSRTIMER
 40
0.000415
  9
$USRTIMER
 70
     1
  9
$ANGBASE
 50
0.0
  9
$ANGDIR
 70
     0
  9
$PDMODE
 70
     0
  9
$PDSIZE
 40
0.0
  9
$PLINEWID
 40
0.0
  9
$COORDS
 70
     1
  9
$SPLFRAME
 70
     0
  9
$SPLINETYPE
 70
     6
  9
$SPLINESEGS
 70
     8
  9
$ATTDIA
 70
     0
  9
$ATTREQ
 70
     1
  9
$HANDLING
 70
 22529
  9
$HANDSEED
  5
10C1
  9
$SURFTAB1
 70
     6
  9
$SURFTAB2
 70
     6
  9
$SURFTYPE
 70
     6
  9
$SURFU
 70
     6
  9
$SURFV
 70
     6
  9
$UCSNAME
  2

  9
$UCSORG
 10
0.0
 20
0.0
 30
0.0
  9
$UCSXDIR
 10
1.0
 20
0.0
 30
0.0
  9
$UCSYDIR
 10
0.0
 20
1.0
 30
0.0
  9
$PUCSNAME
  2

  9
$PUCSORG
 10
0.0
 20
0.0
 30
0.0
  9
$PUCSXDIR
 10
1.0
 20
0.0
 30
0.0
  9
$PUCSYDIR
 10
0.0
 20
1.0
 30
0.0
  9
$USERI1
 70
     0
  9
$USERI2
 70
     0
  9
$USERI3
 70
     0
  9
$USERI4
 70
     0
  9
$USERI5
 70
     0
  9
$USERR1
 40
0.0
  9
$USERR2
 40
0.0
  9
$USERR3
 40
0.0
  9
$USERR4
 40
0.0
  9
$USERR5
 40
0.0
  9
$WORLDVIEW
 70
     1
  9
$SHADEDGE
 70
     3
  9
$SHADEDIF
 70
    70
  9
$TILEMODE
 70
     1
  9
$MAXACTVP
 70
    48
  9
$PLIMCHECK
 70
     0
  9
$PEXTMIN
 10
0.0
 20
0.0
 30
0.0
  9
$PEXTMAX
 10
268.993469
 20
259.25741599999998
 30
2.0
  9
$PLIMMIN
 10
0.0
 20
0.0
  9
$PLIMMAX
 10
420.0
 20
297.0
  9
$UNITMODE
 70
     0
  9
$VISRETAIN
 70
     0
  9
$PLINEGEN
 70
     0
  9
$PSLTSCALE
 70
     1
  0
ENDSEC
  0
SECTION
  2
TABLES
  0
TABLE
  2
VPORT
 70
     2
  0
VPORT
  2
*ACTIVE
 70
     0
 10
0.0
 20
0.0
 11
1.0
 21
1.0
 12
292.37225488140001
 22
543.72354241137361
 13
0.0
 23
0.0
 14
1.0
 24
1.0
 15
0.0
 25
0.0
 16
0.0
 26
0.0
 36
1.0
 17
0.0
 27
0.0
 37
0.0
 40
752.24360913651765
 41
1.550724637681159
 42
50.0
 43
0.0
 44
0.0
 50
0.0
 51
0.0
 71
     0
 72
   100
 73
     1
 74
     1
 75
     0
 76
     0
 77
     0
 78
     0
  0
ENDTAB
  0
TABLE
  2
LTYPE
 70
     8
  0
LTYPE
  2
CONTINUOUS
 70
     0
  3
Solid line
 72
    65
 73
     0
 40
0.0
  0
LTYPE
  2
DASHED
 70
     0
  3
__ __ __ __ __ __ __ __ __ __ __ __ __ __ __ __
 72
    65
 73
     2
 40
15.0
 49
12.0
 49
-3.0
  0
LTYPE
  2
DASHDOT
 70
     0
  3
 __ . __ . __ . __ . __ . __ . __ . 
 72
    65
 73
     4
 40
18.5
 49
12.0
 49
-3.0
 49
0.5
 49
-3.0
  0
LTYPE
  2
DOT
 70
     0
  3
 . . . . . . . . . . . . . . . .
 72
    65
 73
     2
 40
3.5
 49
0.5
 49
-3.0
  0
LTYPE
  2
DASHSPACE
 70
     0
  3
__    __    __    __    __   
 72
    65
 73
     2
 40
30.0
 49
12.0
 49
-18.0
  0
LTYPE
  2
DASHDOT2
 70
     0
  3
__ . . __ . . __ . . __ 
 72
    65
 73
     6
 40
22.0
 49
12.0
 49
-3.0
 49
0.5
 49
-3.0
 49
0.5
 49
-3.0
  0
LTYPE
  2
PHANTOM
 70
     0
  3
____________    ____    ____   _
 72
    65
 73
     6
 40
20.0
 49
10.0
 49
-2.0
 49
2.0
 49
-2.0
 49
2.0
 49
-2.0
  0
LTYPE
  2
AXES
 70
     0
  3
________  __  ________  __  _____
 72
    65
 73
     4
 40
24.0
 49
15.0
 49
-3.0
 49
3.0
 49
-3.0
  0
ENDTAB
  0
TABLE
  2
LAYER
 70
     1
  0
LAYER
  2
0
 70
     0
 62
     7
  6
CONTINUOUS
  0
ENDTAB
  0
TABLE
  2
STYLE
 70
     2
  0
STYLE
  2
STANDARD
 70
     0
 40
0.0
 41
1.0
 50
0.0
 71
     0
 42
0.0
  3
isocp.shx
  4

  0
STYLE
  2
GDT
 70
     0
 40
0.0
 41
1.0
 50
0.0
 71
     0
 42
0.0
  3
amgdt.shx
  4

  0
ENDTAB
  0
TABLE
  2
VIEW
 70
     0
  0
ENDTAB
  0
TABLE
  2
UCS
 70
     0
  0
ENDTAB
  0
TABLE
  2
APPID
 70
     1
  0
APPID
  2
ACAD
 70
     0
  0
ENDTAB
  0
TABLE
  2
DIMSTYLE
 70
     1
  0
DIMSTYLE
  2
STANDARD
 70
     0
  3

  4

  5

  6

  7

 40
1.0
 41
2.5
 42
0.625
 43
3.75
 44
1.25
 45
0.0
 46
0.0
 47
0.0
 48
0.0
140
2.5
141
2.5
142
0.0
143
0.03937
144
1.0
145
0.0
146
1.0
147
0.625
 71
     0
 72
     0
 73
     0
 74
     0
 75
     0
 76
     0
 77
     1
 78
     8
170
     0
171
     3
172
     1
173
     0
174
     0
175
     0
176
     0
177
     0
178
     0
  0
ENDTAB
  0
ENDSEC
  0
SECTION
  2
BLOCKS
  0
BLOCK
  8
0
  2
$MODEL_SPACE
 70
     0
 10
0.0
 20
0.0
 30
0.0
  3
$MODEL_SPACE
  1

  0
ENDBLK
  5
E
  8
0
  0
BLOCK
 67
     1
  8
0
  2
$PAPER_SPACE
 70
     0
 10
0.0
 20
0.0
 30
0.0
  3
$PAPER_SPACE
  1

  0
ENDBLK
  5
10
 67
     1
  8
0
  0
BLOCK
  8
0
  2
BLOCK0
 70
     0
 10
0.0
 20
0.0
 30
0.0
  3
BLOCK0
  1

  0
LINE
  5
8A5
  8
0
 62
     3
 10
-68.999968999999993
 20
-58.5
 30
0.0
 11
89.500022999999985
 21
-58.5
 31
0.0
  0
LINE
  5
8A6
  8
0
 62
     3
 10
-70.249968999999993
 20
57.25
 30
0.0
 11
-70.249968999999993
 21
-57.25
 31
0.0
  0
LINE
  5
8A7
  8
0
 62
     3
 10
-68.999968999999993
 20
58.5
 30
0.0
 11
89.500022999999985
 21
58.5
 31
0.0
  0
LINE
  5
8A8
  8
0
 62
     3
 10
90.750022999999985
 20
57.25
 30
0.0
 11
90.750022999999985
 21
-57.25
 31
0.0
  0
LINE
  5
8A9
  8
0
 62
     3
 10
-42.74997299999999
 20
-53.0
 30
0.0
 11
63.250022999999999
 21
-53.0
 31
0.0
  0
LINE
  5
8AA
  8
0
 62
     3
 10
-42.74997299999999
 20
53.0
 30
0.0
 11
-42.74997299999999
 21
-53.0
 31
0.0
  0
LINE
  5
8AB
  8
0
 62
     3
 10
-42.74997299999999
 20
53.0
 30
0.0
 11
63.250022999999999
 21
53.0
 31
0.0
  0
LINE
  5
8AC
  8
0
 62
     3
 10
63.250022999999999
 20
53.0
 30
0.0
 11
63.250022999999999
 21
-53.0
 31
0.0
  0
LINE
  5
8AD
  8
0
 62
     3
 10
-51.249972999999997
 20
-54.0
 30
0.0
 11
-50.24997299999999
 21
-54.0
 31
0.0
  0
LINE
  5
8AE
  8
0
 62
     3
 10
-49.249972999999997
 20
53.0
 30
0.0
 11
-49.249972999999997
 21
-53.0
 31
0.0
  0
LINE
  5
8AF
  8
0
 62
     3
 10
-51.249972999999997
 20
54.0
 30
0.0
 11
-50.24997299999999
 21
54.0
 31
0.0
  0
LINE
  5
8B0
  8
0
 62
     3
 10
-50.24997299999999
 20
53.0
 30
0.0
 11
-50.24997299999999
 21
-53.0
 31
0.0
  0
LINE
  5
8B1
  8
0
 62
     3
 10
-70.249968999999993
 20
54.0
 30
0.0
 11
-51.249972999999997
 21
54.0
 31
0.0
  0
LINE
  5
8B2
  8
0
 62
     3
 10
-50.249977000000001
 20
54.0
 30
0.0
 11
90.750022999999985
 21
54.0
 31
0.0
  0
LINE
  5
8B3
  8
0
 62
     3
 10
-70.249968999999993
 20
53.0
 30
0.0
 11
-50.24997299999999
 21
53.0
 31
0.0
  0
LINE
  5
8B4
  8
0
 62
     3
 10
63.250022999999999
 20
53.0
 30
0.0
 11
69.750022999999985
 21
53.0
 31
0.0
  0
LINE
  5
8B5
  8
0
 62
     3
 10
-49.249972999999997
 20
53.0
 30
0.0
 11
-42.74997299999999
 21
53.0
 31
0.0
  0
LINE
  5
8B6
  8
0
 62
     3
 10
-70.249968999999993
 20
-54.0
 30
0.0
 11
-51.249972999999997
 21
-54.0
 31
0.0
  0
LINE
  5
8B7
  8
0
 62
     3
 10
-50.24997299999999
 20
-54.0
 30
0.0
 11
90.750022999999985
 21
-54.0
 31
0.0
  0
LINE
  5
8B8
  8
0
 62
     3
 10
-49.249972999999997
 20
-53.0
 30
0.0
 11
-42.74997299999999
 21
-53.0
 31
0.0
  0
LINE
  5
8B9
  8
0
 62
     3
 10
63.250022999999999
 20
-53.0
 30
0.0
 11
69.750022999999985
 21
-53.0
 31
0.0
  0
LINE
  5
8BA
  8
0
 62
     3
 10
-70.249968999999993
 20
-53.0
 30
0.0
 11
-50.24997299999999
 21
-53.0
 31
0.0
  0
LINE
  5
8BB
  8
0
 62
     3
 10
70.750022999999999
 20
54.0
 30
0.0
 11
70.750022999999999
 21
-54.0
 31
0.0
  0
LINE
  5
8BC
  8
0
 62
     3
 10
69.750022999999985
 20
53.0
 30
0.0
 11
69.750022999999985
 21
-53.0
 31
0.0
  0
ARC
  5
8BD
  8
0
 62
     3
 10
-68.999968999999993
 20
57.25
 30
0.0
 40
1.25
 50
90.000005000000002
 51
180.00000099999991
  0
ARC
  5
8BE
  8
0
 62
     3
 10
-68.999968999999993
 20
-57.25
 30
0.0
 40
1.25
 50
180.00000099999991
 51
270.0
  0
ARC
  5
8BF
  8
0
 62
     3
 10
89.500022999999985
 20
-57.25
 30
0.0
 40
1.25
 50
270.0
 51
0.000003
  0
ARC
  5
8C0
  8
0
 62
     3
 10
89.500022999999985
 20
57.25
 30
0.0
 40
1.25
 50
0.000003
 51
90.000005000000002
  0
LINE
  5
8C1
  8
0
  6
DASHSPACE
 62
     3
 10
80.000022999999999
 20
54.5
 30
0.0
 11
80.000022999999999
 21
54.0
 31
0.0
  0
LINE
  5
8C2
  8
0
  6
DASHSPACE
 62
     3
 10
81.500022999999999
 20
54.5
 30
0.0
 11
81.500022999999999
 21
54.0
 31
0.0
  0
LINE
  5
8C3
  8
0
 62
     3
 10
80.000022999999999
 20
-53.5
 30
0.0
 11
80.000022999999999
 21
-54.0
 31
0.0
  0
LINE
  5
8C4
  8
0
 62
     3
 10
81.500022999999999
 20
-53.5
 30
0.0
 11
81.500022999999999
 21
-54.0
 31
0.0
  0
ARC
  5
8C5
  8
0
  6
DASHSPACE
 62
     3
 10
80.750022999999985
 20
54.5
 30
0.0
 40
0.75
 50
0.000003
 51
180.00000099999991
  0
ARC
  5
8C6
  8
0
 62
     3
 10
80.750022999999985
 20
53.5
 30
0.0
 40
0.75
 50
180.00000099999991
 51
0.000003
  0
LINE
  5
8C7
  8
0
 62
     3
 10
81.500022999999999
 20
54.0
 30
0.0
 11
81.500022999999999
 21
53.5
 31
0.0
  0
LINE
  5
8C8
  8
0
 62
     3
 10
80.000022999999999
 20
54.0
 30
0.0
 11
80.000022999999999
 21
53.5
 31
0.0
  0
ARC
  5
8C9
  8
0
 62
     3
 10
80.750022999999985
 20
-53.5
 30
0.0
 40
0.75
 50
0.000003
 51
180.00000099999991
  0
ARC
  5
8CA
  8
0
  6
DASHSPACE
 62
     3
 10
80.750022999999985
 20
-54.5
 30
0.0
 40
0.75
 50
180.00000099999991
 51
0.000003
  0
LINE
  5
8CB
  8
0
  6
DASHSPACE
 62
     3
 10
81.500022999999999
 20
-54.0
 30
0.0
 11
81.500022999999999
 21
-54.5
 31
0.0
  0
LINE
  5
8CC
  8
0
  6
DASHSPACE
 62
     3
 10
80.000022999999999
 20
-54.0
 30
0.0
 11
80.000022999999999
 21
-54.5
 31
0.0
  0
ENDBLK
  5
8CD
  8
0
  0
BLOCK
  8
0
  2
BLOCK1
 70
     0
 10
0.0
 20
0.0
 30
0.0
  3
BLOCK1
  1

  0
TEXT
  5
8CF
  8
0
 62
     7
 10
181.1431879999999
 20
-0.361772
 30
0.0
 40
3.0
  1
Y
 50
270.0
 41
0.9777777777777778
 72
     5
 11
181.1431879999999
 21
-2.561771999999999
 31
0.0
  0
ENDBLK
  5
8D0
  8
0
  0
BLOCK
  8
0
  2
BLOCK2
 70
     0
 10
0.0
 20
0.0
 30
0.0
  3
BLOCK2
  1

  0
TEXT
  5
8D2
  8
0
 62
     7
 10
4.2500150000000003
 20
97.360534999999999
 30
0.0
 40
3.0
  1
170
 41
1.4660032381380701
 72
     5
 11
11.949994999999991
 21
97.360534999999999
 31
0.0
  0
ENDBLK
  5
8D3
  8
0
  0
BLOCK
  8
0
  2
BLOCK3
 70
     0
 10
0.0
 20
0.0
 30
0.0
  3
BLOCK3
  1

  0
TEXT
  5
8D5
  8
0
 62
     7
 10
7.7837179999999986
 20
135.52621499999989
 30
0.0
 40
3.0
  1
X
 50
270.00002604357161
 41
0.9777764444445436
 72
     5
 11
7.7837189999999996
 21
133.3262179999999
 31
0.0
  0
ENDBLK
  5
8D6
  8
0
  0
BLOCK
  8
0
  2
BLOCK4
 70
     0
 10
0.0
 20
0.0
 30
0.0
  3
BLOCK4
  1

  0
TEXT
  5
8D8
  8
0
 62
     7
 10
9.0
 20
-121.0
 30
0.0
 40
3.0
  1
X
 50
270.00002604357161
 41
0.9777764444445436
 72
     5
 11
9.0000009999999993
 21
-123.1999969999999
 31
0.0
  0
ENDBLK
  5
8D9
  8
0
  0
BLOCK
  8
0
  2
BLOCK5
 70
     0
 10
0.0
 20
0.0
 30
0.0
  3
BLOCK5
  1

  0
TEXT
  5
8DB
  8
0
 62
     7
 10
40.125019000000002
 20
77.83721899999999
 30
0.0
 40
3.0
  1
87,25
 50
359.99996961578933
 41
1.4466879630616909
 72
     5
 11
53.324981999999991
 21
77.837211999999994
 31
0.0
  0
ENDBLK
  5
8DC
  8
0
  0
BLOCK
  8
0
  2
BLOCK6
 70
     0
 10
0.0
 20
0.0
 30
0.0
  3
BLOCK6
  1

  0
TEXT
  5
8DE
  8
0
 62
     7
 10
-100.999985
 20
97.513831999999994
 30
0.0
 40
3.0
  1
46
 41
1.178900571964369
 72
     5
 11
-96.049994999999996
 21
97.513831999999994
 31
0.0
  0
ENDBLK
  5
8DF
  8
0
  0
BLOCK
  8
0
  2
BLOCK7
 70
     0
 10
0.0
 20
0.0
 30
0.0
  3
BLOCK7
  1

  0
TEXT
  5
8E1
  8
0
 62
     7
 10
-131.68246499999989
 20
3.075391999999999
 30
0.0
 40
3.0
  1
Y
 50
270.0
 41
0.9777777777777776
 72
     5
 11
-131.68246499999989
 21
0.875392
 31
0.0
  0
ENDBLK
  5
8E2
  8
0
  0
BLOCK
  8
0
  2
BLOCK8
 70
     0
 10
0.0
 20
0.0
 30
0.0
  3
BLOCK8
  1

  0
TEXT
  5
8E4
  8
0
 62
     7
 10
2.0000309999999999
 20
-81.961731000000015
 30
0.0
 40
3.0
  1
161
 41
1.655909462365591
 72
     5
 11
9.7000100000000007
 21
-81.961731000000015
 31
0.0
  0
ENDBLK
  5
8E5
  8
0
  0
BLOCK
  8
0
  2
BLOCK9
 70
     0
 10
0.0
 20
0.0
 30
0.0
  3
BLOCK9
  1

  0
TEXT
  5
8E7
  8
0
 62
     7
 10
43.505729999999993
 20
-89.130066000000014
 30
0.0
 40
3.0
  1
=
 41
1.3333333333333299
 72
     5
 11
45.705729999999988
 21
-89.130066000000014
 31
0.0
  0
ENDBLK
  5
8E8
  8
0
  0
BLOCK
  8
0
  2
BLOCK10
 70
     0
 10
0.0
 20
0.0
 30
0.0
  3
BLOCK10
  1

  0
TEXT
  5
8EA
  8
0
 62
     7
 10
-37.464759999999991
 20
-88.096396999999996
 30
0.0
 40
3.0
  1
=
 41
1.3333339393939341
 72
     5
 11
-35.264758999999998
 21
-88.096396999999996
 31
0.0
  0
ENDBLK
  5
8EB
  8
0
  0
BLOCK
  8
0
  2
BLOCK11
 70
     0
 10
0.0
 20
0.0
 30
0.0
  3
BLOCK11
  1

  0
TEXT
  5
8ED
  8
0
 62
     7
 10
173.449814
 20
4.4500000000000002
 30
0.0
 40
3.0
  1
117
 50
270.0
 41
1.6774193548387091
 72
     5
 11
173.449814
 21
-3.3500000000000001
 31
0.0
  0
LINE
  5
8EE
  8
0
 62
     7
 10
90.500022999999999
 20
-58.5
 30
0.0
 11
174.449814
 21
-58.5
 31
0.0
  0
LINE
  5
8EF
  8
0
 62
     7
 10
90.500022999999999
 20
58.5
 30
0.0
 11
174.449814
 21
58.5
 31
0.0
  0
POLYLINE
  5
8F0
  8
0
 62
     7
 66
     1
 10
0.0
 20
0.0
 30
0.0
  0
VERTEX
  5
1091
  8
0
 62
     7
 10
171.93217499999989
 20
-56.568150000000003
 30
0.0
  0
VERTEX
  5
1092
  8
0
 62
     7
 10
172.449814
 20
-58.5
 30
0.0
  0
VERTEX
  5
1093
  8
0
 62
     7
 10
172.96745300000001
 20
-56.568150000000003
 30
0.0
  0
SEQEND
  5
1094
  8
0
 62
     7
  0
POLYLINE
  5
8F5
  8
0
 62
     7
 66
     1
 10
0.0
 20
0.0
 30
0.0
  0
VERTEX
  5
1095
  8
0
 62
     7
 10
172.96745300000001
 20
56.568150000000003
 30
0.0
  0
VERTEX
  5
1096
  8
0
 62
     7
 10
172.449814
 20
58.5
 30
0.0
  0
VERTEX
  5
1097
  8
0
 62
     7
 10
171.93217499999989
 20
56.568150000000003
 30
0.0
  0
SEQEND
  5
1098
  8
0
 62
     7
  0
LINE
  5
8FA
  8
0
 62
     7
 10
172.449814
 20
-58.5
 30
0.0
 11
172.449814
 21
58.5
 31
0.0
  0
ENDBLK
  5
8FB
  8
0
  0
BLOCK
  8
0
  2
BLOCK12
 70
     0
 10
0.0
 20
0.0
 30
0.0
  3
BLOCK12
  1

  0
TEXT
  5
8FD
  8
0
 62
     7
 10
163.05361899999991
 20
4.4500070000000003
 30
0.0
 40
3.0
  1
105
 50
270.0
 41
1.4513615074127639
 72
     5
 11
163.05361899999991
 21
-3.3499929999999991
 31
0.0
  0
LINE
  5
8FE
  8
0
 62
     7
 10
63.250027000000003
 20
-52.499985000000002
 30
0.0
 11
164.05361899999991
 21
-52.499985000000002
 31
0.0
  0
LINE
  5
8FF
  8
0
 62
     7
 10
63.250027000000003
 20
52.5
 30
0.0
 11
164.05361899999991
 21
52.5
 31
0.0
  0
POLYLINE
  5
900
  8
0
 62
     7
 66
     1
 10
0.0
 20
0.0
 30
0.0
  0
VERTEX
  5
1099
  8
0
 62
     7
 10
161.53598
 20
-50.568134000000001
 30
0.0
  0
VERTEX
  5
109A
  8
0
 62
     7
 10
162.05361899999991
 20
-52.499985000000002
 30
0.0
  0
VERTEX
  5
109B
  8
0
 62
     7
 10
162.571259
 20
-50.568134000000001
 30
0.0
  0
SEQEND
  5
109C
  8
0
 62
     7
  0
POLYLINE
  5
905
  8
0
 62
     7
 66
     1
 10
0.0
 20
0.0
 30
0.0
  0
VERTEX
  5
109D
  8
0
 62
     7
 10
162.571259
 20
50.568150000000003
 30
0.0
  0
VERTEX
  5
109E
  8
0
 62
     7
 10
162.05361899999991
 20
52.5
 30
0.0
  0
VERTEX
  5
109F
  8
0
 62
     7
 10
161.53598
 20
50.568150000000003
 30
0.0
  0
SEQEND
  5
10A0
  8
0
 62
     7
  0
LINE
  5
90A
  8
0
 62
     7
 10
162.05361899999991
 20
-52.499985000000002
 30
0.0
 11
162.05361899999991
 21
52.5
 31
0.0
  0
ENDBLK
  5
90B
  8
0
  0
BLOCK
  8
0
  2
BLOCK13
 70
     0
 10
0.0
 20
0.0
 30
0.0
  3
BLOCK13
  1

  0
TEXT
  5
90D
  8
0
 62
     7
 10
152.9404449999999
 20
-14.449956999999999
 30
0.0
 40
3.0
  1
35
 50
270.0
 41
1.2905676823578891
 72
     5
 11
152.9404449999999
 21
-19.449957000000001
 31
0.0
  0
LINE
  5
90E
  8
0
 62
     7
 10
97.448752999999996
 20
-35.000042000000001
 30
0.0
 11
152.9404449999999
 21
-35.000042000000001
 31
0.0
  0
POLYLINE
  5
90F
  8
0
 62
     7
 66
     1
 10
0.0
 20
0.0
 30
0.0
  0
VERTEX
  5
10A1
  8
0
 62
     7
 10
150.42280600000001
 20
-33.068191999999989
 30
0.0
  0
VERTEX
  5
10A2
  8
0
 62
     7
 10
150.9404449999999
 20
-35.000042000000001
 30
0.0
  0
VERTEX
  5
10A3
  8
0
 62
     7
 10
151.45808400000001
 20
-33.068191999999989
 30
0.0
  0
SEQEND
  5
10A4
  8
0
 62
     7
  0
POLYLINE
  5
914
  8
0
 62
     7
 66
     1
 10
0.0
 20
0.0
 30
0.0
  0
VERTEX
  5
10A5
  8
0
 62
     7
 10
151.45808400000001
 20
-1.9318519999999999
 30
0.0
  0
VERTEX
  5
10A6
  8
0
 62
     7
 10
150.9404449999999
 20
0.0
 30
0.0
  0
VERTEX
  5
10A7
  8
0
 62
     7
 10
150.42280600000001
 20
-1.9318519999999999
 30
0.0
  0
SEQEND
  5
10A8
  8
0
 62
     7
  0
LINE
  5
919
  8
0
 62
     7
 10
150.9404449999999
 20
-35.000042000000001
 30
0.0
 11
150.9404449999999
 21
0.0
 31
0.0
  0
ENDBLK
  5
91A
  8
0
  0
BLOCK
  8
0
  2
BLOCK14
 70
     0
 10
0.0
 20
0.0
 30
0.0
  3
BLOCK14
  1

  0
TEXT
  5
91C
  8
0
 62
     7
 10
152.9404449999999
 20
20.550428
 30
0.0
 40
3.0
  1
35
 50
270.0
 41
1.2905676823578891
 72
     5
 11
152.9404449999999
 21
15.550428
 31
0.0
  0
LINE
  5
91D
  8
0
 62
     7
 10
95.666152999999994
 20
35.000011000000001
 30
0.0
 11
152.9404449999999
 21
35.000011000000001
 31
0.0
  0
POLYLINE
  5
91E
  8
0
 62
     7
 66
     1
 10
0.0
 20
0.0
 30
0.0
  0
VERTEX
  5
10A9
  8
0
 62
     7
 10
150.42280600000001
 20
1.9318519999999999
 30
0.0
  0
VERTEX
  5
10AA
  8
0
 62
     7
 10
150.9404449999999
 20
0.0
 30
0.0
  0
VERTEX
  5
10AB
  8
0
 62
     7
 10
151.45808400000001
 20
1.9318519999999999
 30
0.0
  0
SEQEND
  5
10AC
  8
0
 62
     7
  0
POLYLINE
  5
923
  8
0
 62
     7
 66
     1
 10
0.0
 20
0.0
 30
0.0
  0
VERTEX
  5
10AD
  8
0
 62
     7
 10
151.45808400000001
 20
33.068160999999989
 30
0.0
  0
VERTEX
  5
10AE
  8
0
 62
     7
 10
150.9404449999999
 20
35.000011000000001
 30
0.0
  0
VERTEX
  5
10AF
  8
0
 62
     7
 10
150.42280600000001
 20
33.068160999999989
 30
0.0
  0
SEQEND
  5
10B0
  8
0
 62
     7
  0
LINE
  5
928
  8
0
 62
     7
 10
150.9404449999999
 20
0.0
 30
0.0
 11
150.9404449999999
 21
35.000011000000001
 31
0.0
  0
ENDBLK
  5
929
  8
0
  0
BLOCK
  8
0
  2
BLOCK15
 70
     0
 10
0.0
 20
0.0
 30
0.0
  3
BLOCK15
  1

  0
TEXT
  5
92B
  8
0
 62
     7
 10
117.583359
 20
97.525406000000004
 30
0.0
 40
3.5
  1
46
 41
1.190809975487243
 72
     5
 11
123.416687
 21
97.525406000000004
 31
0.0
  0
LINE
  5
92C
  8
0
 62
     7
 10
97.500015000000005
 20
50.000031
 30
0.0
 11
97.500015000000005
 21
97.525406000000004
 31
0.0
  0
LINE
  5
92D
  8
0
 62
     7
 10
143.50003100000001
 20
17.600964000000001
 30
0.0
 11
143.50003100000001
 21
97.525406000000004
 31
0.0
  0
POLYLINE
  5
92E
  8
0
 62
     7
 66
     1
 10
0.0
 20
0.0
 30
0.0
  0
VERTEX
  5
10B1
  8
0
 62
     7
 10
99.431869999999989
 20
96.043044999999992
 30
0.0
  0
VERTEX
  5
10B2
  8
0
 62
     7
 10
97.500015000000005
 20
95.525406000000004
 30
0.0
  0
VERTEX
  5
10B3
  8
0
 62
     7
 10
99.431869999999989
 20
95.007773999999998
 30
0.0
  0
SEQEND
  5
10B4
  8
0
 62
     7
  0
POLYLINE
  5
933
  8
0
 62
     7
 66
     1
 10
0.0
 20
0.0
 30
0.0
  0
VERTEX
  5
10B5
  8
0
 62
     7
 10
141.56817599999999
 20
95.007773999999998
 30
0.0
  0
VERTEX
  5
10B6
  8
0
 62
     7
 10
143.50003100000001
 20
95.525406000000004
 30
0.0
  0
VERTEX
  5
10B7
  8
0
 62
     7
 10
141.56817599999999
 20
96.043044999999992
 30
0.0
  0
SEQEND
  5
10B8
  8
0
 62
     7
  0
LINE
  5
938
  8
0
 62
     7
 10
97.500015000000005
 20
95.525406000000004
 30
0.0
 11
143.50003100000001
 21
95.525406000000004
 31
0.0
  0
ENDBLK
  5
939
  8
0
  0
BLOCK
  8
0
  2
BLOCK16
 70
     0
 10
0.0
 20
0.0
 30
0.0
  3
BLOCK16
  1

  0
TEXT
  5
93B
  8
0
 62
     1
 10
-541.0
 20
-124.0
 30
0.0
 40
3.0
  1
Ts3
 50
180.0
 41
1.225762527177944
 72
     5
 11
-548.69995099999994
 21
-124.0
 31
0.0
  0
ENDBLK
  5
93C
  8
0
  0
BLOCK
  8
0
  2
BLOCK17
 70
     0
 10
0.0
 20
0.0
 30
0.0
  3
BLOCK17
  1

  0
TEXT
  5
93E
  8
0
 62
     1
 10
-515.0
 20
-113.0
 30
0.0
 40
4.0
  1
1SDH000637R0.101
 50
180.0
 41
1.4177707416267931
 72
     5
 11
-574.26281700000004
 21
-113.0
 31
0.0
  0
ENDBLK
  5
93F
  8
0
  0
BLOCK
  8
0
  2
BLOCK18
 70
     0
 10
0.0
 20
0.0
 30
0.0
  3
BLOCK18
  1

  0
TEXT
  5
941
  8
0
 62
     1
 10
-518.40490699999987
 20
-146.5
 30
0.0
 40
2.0
  1
3POLE LOW VOLTAGE M.C.C.B SERIES TMAX
 50
180.0
 41
1.088562623274163
 72
     5
 11
-573.59503199999995
 21
-146.5
 31
0.0
  0
TEXT
  5
942
  8
0
 62
     1
 10
-524.40380900000002
 20
-143.5
 30
0.0
 40
2.0
  1
FIXED VERSION TERMINALS CABLE
 50
180.0
 41
1.0771137157107229
 72
     5
 11
-567.59606900000006
 21
-143.5
 31
0.0
  0
ENDBLK
  5
943
  8
0
  0
BLOCK
  8
0
  2
BLOCK19
 70
     0
 10
0.0
 20
0.0
 30
0.0
  3
BLOCK19
  1

  0
TEXT
  5
945
  8
0
 62
     1
 10
-525.15374799999995
 20
-137.5
 30
0.0
 40
2.0
  1
INTERR.AUTOMATICO SERIE TMAX
 50
180.0
 41
1.060877964376586
 72
     5
 11
-566.84625199999994
 21
-137.5
 31
0.0
  0
TEXT
  5
946
  8
0
 62
     1
 10
-512.40600599999993
 20
-134.49999999999989
 30
0.0
 40
2.0
  1
TRIPOL.ESECUZIONE FISSA TERMINALI POST.x CAVI
 50
180.0
 41
1.1292098823529439
 72
     5
 11
-579.59399400000007
 21
-134.49999999999989
 31
0.0
  0
ENDBLK
  5
947
  8
0
  0
BLOCK
  8
0
  2
BLOCK20
 70
     0
 10
0.0
 20
0.0
 30
0.0
  3
BLOCK20
  1

  0
TEXT
  5
949
  8
0
 62
     1
 10
-470.30425999999989
 20
-132.0
 30
0.0
 40
2.0
  1
N0214 2007-11-30
 50
180.0
 41
1.144634658248072
 72
     5
 11
-494.0
 21
-132.0
 31
0.0
  0
ENDBLK
  5
94A
  8
0
  0
BLOCK
  8
0
  2
BLOCK21
 70
     0
 10
0.0
 20
0.0
 30
0.0
  3
BLOCK21
  1

  0
TEXT
  5
94C
  8
0
 62
     7
 10
-2.0
 20
-103.0
 30
0.0
 40
3.0
  1
X
 50
90.0
 41
0.9777764444444425
 72
     5
 11
-2.0
 21
-100.800003
 31
0.0
  0
ENDBLK
  5
94D
  8
0
  0
BLOCK
  8
0
  2
BLOCK22
 70
     0
 10
0.0
 20
0.0
 30
0.0
  3
BLOCK22
  1

  0
TEXT
  5
94F
  8
0
 62
     7
 10
-5.0
 20
110.0
 30
0.0
 40
3.0
  1
X
 50
90.0
 41
0.9777764444444425
 72
     5
 11
-5.0
 21
112.199997
 31
0.0
  0
ENDBLK
  5
950
  8
0
  0
BLOCK
  8
0
  2
BLOCK23
 70
     0
 10
0.0
 20
0.0
 30
0.0
  3
BLOCK23
  1

  0
TEXT
  5
952
  8
0
 62
     7
 10
-128.0
 20
-1.0
 30
0.0
 40
3.0
  1
Y
 50
90.0
 41
0.9777777777777778
 72
     5
 11
-128.0
 21
1.1999999999999991
 31
0.0
  0
ENDBLK
  5
953
  8
0
  0
BLOCK
  8
0
  2
BLOCK24
 70
     0
 10
0.0
 20
0.0
 30
0.0
  3
BLOCK24
  1

  0
TEXT
  5
955
  8
0
 62
     7
 10
130.0
 20
-1.0
 30
0.0
 40
3.0
  1
Y
 50
90.0
 41
0.9777777777777778
 72
     5
 11
130.0
 21
1.1999999999999991
 31
0.0
  0
ENDBLK
  5
956
  8
0
  0
BLOCK
  8
0
  2
BLOCK25
 70
     0
 10
0.0
 20
0.0
 30
0.0
  3
BLOCK25
  1

  0
TEXT
  5
958
  8
0
 62
     7
 10
5.0
 20
-127.0
 30
0.0
 40
3.0
  1
112
 50
179.9999404717627
 41
1.5941402843842269
 72
     5
 11
-2.69998
 21
-126.99999199999991
 31
0.0
  0
ENDBLK
  5
959
  8
0
  0
BLOCK
  8
0
  2
BLOCK26
 70
     0
 10
0.0
 20
0.0
 30
0.0
  3
BLOCK26
  1

  0
TEXT
  5
95B
  8
0
 62
     7
 10
5.0
 20
-165.0
 30
0.0
 40
3.0
  1
142
 50
180.0
 41
1.3437594995413831
 72
     5
 11
-2.69998
 21
-165.0
 31
0.0
  0
ENDBLK
  5
95C
  8
0
  0
BLOCK
  8
0
  2
BLOCK27
 70
     0
 10
0.0
 20
0.0
 30
0.0
  3
BLOCK27
  1

  0
TEXT
  5
95E
  8
0
 62
     7
 10
-121.0
 20
-5.0
 30
0.0
 40
3.0
  1
80
 50
90.0
 41
1.3191663623963901
 72
     5
 11
-121.0
 21
-0.05001
 31
0.0
  0
ENDBLK
  5
95F
  8
0
  0
BLOCK
  8
0
  2
BLOCK28
 70
     0
 10
0.0
 20
0.0
 30
0.0
  3
BLOCK28
  1

  0
TEXT
  5
961
  8
0
 62
     7
 10
-154.251846
 20
-16.5
 30
0.0
 40
3.0
  1
112
 50
90.0
 41
1.594140284383367
 72
     5
 11
-154.251846
 21
-8.8000199999999982
 31
0.0
  0
ENDBLK
  5
962
  8
0
  0
BLOCK
  8
0
  2
BLOCK29
 70
     0
 10
0.0
 20
0.0
 30
0.0
  3
BLOCK29
  1

  0
TEXT
  5
964
  8
0
 62
     7
 10
122.34223899999991
 20
-111.27021000000001
 30
0.0
 40
3.0
  1
 7
 50
127.20898959685471
 41
1.736837925866495
 72
     5
 11
119.348862
 21
-107.3278659999999
 31
0.0
  0
ENDBLK
  5
965
  8
0
  0
BLOCK
  8
0
  2
BLOCK30
 70
     0
 10
0.0
 20
0.0
 30
0.0
  3
BLOCK30
  1

  0
TEXT
  5
967
  8
0
 62
     7
 10
123.30978399999999
 20
-112.544495
 30
0.0
 40
3.0
  1
%%c
 50
127.2089187033538
 41
0.9777779165820129
 72
     5
 11
121.9793929999999
 21
-110.79233600000001
 31
0.0
  0
ENDBLK
  5
968
  8
0
  0
BLOCK
  8
0
  2
BLOCK31
 70
     0
 10
0.0
 20
0.0
 30
0.0
  3
BLOCK31
  1

  0
TEXT
  5
96A
  8
0
 62
     7
 10
-10.142806999999999
 20
146.26348899999991
 30
0.0
 40
3.0
  1
 16
 41
1.7115558939354161
 72
     5
 11
-2.442826999999999
 21
146.26348899999991
 31
0.0
  0
ENDBLK
  5
96B
  8
0
  0
BLOCK
  8
0
  2
BLOCK32
 70
     0
 10
0.0
 20
0.0
 30
0.0
  3
BLOCK32
  1

  0
TEXT
  5
96D
  8
0
 62
     7
 10
-10.94281
 20
146.26348899999991
 30
0.0
 40
3.0
  1
%%c
 41
0.9777777777777773
 72
     5
 11
-8.7428100000000004
 21
146.26348899999991
 31
0.0
  0
ENDBLK
  5
96E
  8
0
  0
BLOCK
  8
0
  2
BLOCK33
 70
     0
 10
0.0
 20
0.0
 30
0.0
  3
BLOCK33
  1

  0
TEXT
  5
970
  8
0
 62
     7
 10
103.4829409999999
 20
-51.343139999999998
 30
0.0
 40
3.0
  1
105
 50
359.999977676914
 41
1.432750773232113
 72
     5
 11
111.18292199999991
 21
-51.343142999999991
 31
0.0
  0
ENDBLK
  5
971
  8
0
  0
BLOCK
  8
0
  2
BLOCK34
 70
     0
 10
0.0
 20
0.0
 30
0.0
  3
BLOCK34
  1

  0
TEXT
  5
973
  8
0
 62
     7
 10
107.730469
 20
-64.454498000000001
 30
0.0
 40
3.0
  1
X
 50
270.0
 41
0.9777764444444425
 72
     5
 11
107.730469
 21
-66.654494999999997
 31
0.0
  0
ENDBLK
  5
974
  8
0
  0
BLOCK
  8
0
  2
BLOCK35
 70
     0
 10
0.0
 20
0.0
 30
0.0
  3
BLOCK35
  1

  0
TEXT
  5
976
  8
0
 62
     7
 10
103.9870609999999
 20
178.21418799999989
 30
0.0
 40
3.0
  1
143
 41
1.357000821032974
 72
     5
 11
111.68704199999991
 21
178.21418799999989
 31
0.0
  0
ENDBLK
  5
977
  8
0
  0
BLOCK
  8
0
  2
BLOCK36
 70
     0
 10
0.0
 20
0.0
 30
0.0
  3
BLOCK36
  1

  0
TEXT
  5
979
  8
0
 62
     7
 10
-57.508743000000003
 20
64.999282999999991
 30
0.0
 40
3.0
  1
103,5
 50
269.9999652751772
 41
1.5485159649678719
 72
     5
 11
-57.508750999999997
 21
51.799323999999999
 31
0.0
  0
ENDBLK
  5
97A
  8
0
  0
BLOCK
  8
0
  2
BLOCK37
 70
     0
 10
0.0
 20
0.0
 30
0.0
  3
BLOCK37
  1

  0
TEXT
  5
97C
  8
0
 62
     7
 10
-57.508727999999998
 20
117.4999389999999
 30
0.0
 40
3.0
  1
3
 50
270.0
 41
1.2399490238209789
 72
     5
 11
-57.508727999999998
 21
115.2999419999999
 31
0.0
  0
ENDBLK
  5
97D
  8
0
  0
BLOCK
  8
0
  2
BLOCK38
 70
     0
 10
0.0
 20
0.0
 30
0.0
  3
BLOCK38
  1

  0
TEXT
  5
97F
  8
0
 62
     7
 10
-57.508727999999998
 20
122.9999389999999
 30
0.0
 40
3.0
  1
\U+2265
 50
270.0
 41
1.2422315693532049
 72
     5
 11
-57.508727999999998
 21
120.7999419999999
 31
0.0
  0
ENDBLK
  5
980
  8
0
  0
BLOCK
  8
0
  2
BLOCK39
 70
     0
 10
0.0
 20
0.0
 30
0.0
  3
BLOCK39
  1

  0
TEXT
  5
982
  8
0
 62
     7
 10
-86.731125000000006
 20
43.727416999999988
 30
0.0
 40
3.0
  1
135
 50
270.0
 41
1.4327509593039931
 72
     5
 11
-86.731125000000006
 21
36.02743499999999
 31
0.0
  0
ENDBLK
  5
983
  8
0
  0
BLOCK
  8
0
  2
BLOCK40
 70
     0
 10
0.0
 20
0.0
 30
0.0
  3
BLOCK40
  1

  0
TEXT
  5
985
  8
0
 62
     7
 10
-71.491714000000002
 20
-12.000061000000001
 30
0.0
 40
3.0
  1
2
 50
270.0
 41
1.2020694180030751
 72
     5
 11
-71.491714000000002
 21
-14.200060999999989
 31
0.0
  0
ENDBLK
  5
986
  8
0
  0
BLOCK
  8
0
  2
BLOCK41
 70
     0
 10
0.0
 20
0.0
 30
0.0
  3
BLOCK41
  1

  0
TEXT
  5
988
  8
0
 62
     7
 10
-71.491730000000004
 20
57.749939000000012
 30
0.0
 40
3.0
  1
107
 50
270.0
 41
1.4666632380952389
 72
     5
 11
-71.491730000000004
 21
50.049956999999999
 31
0.0
  0
ENDBLK
  5
989
  8
0
  0
BLOCK
  8
0
  2
BLOCK42
 70
     0
 10
0.0
 20
0.0
 30
0.0
  3
BLOCK42
  1

  0
TEXT
  5
98B
  8
0
 62
     7
 10
72.273918000000009
 20
-61.380890000000001
 30
0.0
 40
3.0
  1
=          =
 41
2.0603109841269829
 72
     5
 11
104.723816
 21
-61.380890000000001
 31
0.0
  0
ENDBLK
  5
98C
  8
0
  0
BLOCK
  8
0
  2
BLOCK43
 70
     0
 10
0.0
 20
0.0
 30
0.0
  3
BLOCK43
  1

  0
TEXT
  5
98E
  8
0
 62
     7
 10
133.11206100000001
 20
162.9052429999999
 30
0.0
 40
3.0
  1
73,75
 41
1.446688291855128
 72
     5
 11
146.312027
 21
162.9052429999999
 31
0.0
  0
ENDBLK
  5
98F
  8
0
  0
BLOCK
  8
0
  2
BLOCK44
 70
     0
 10
0.0
 20
0.0
 30
0.0
  3
BLOCK44
  1

  0
TEXT
  5
991
  8
0
 62
     7
 10
-0.7629390000000001
 20
166.016693
 30
0.0
 40
3.0
  1
13,5
 41
1.6266407931290441
 72
     5
 11
9.6870309999999993
 21
166.016693
 31
0.0
  0
ENDBLK
  5
992
  8
0
  0
BLOCK
  8
0
  2
BLOCK45
 70
     0
 10
0.0
 20
0.0
 30
0.0
  3
BLOCK45
  1

  0
TEXT
  5
994
  8
0
 62
     7
 10
265.493469
 20
60.066611999999992
 30
0.0
 40
3.5
  1
101.5
 50
270.0
 41
1.7236355597861961
 72
     5
 11
265.493469
 21
44.433281000000001
 31
0.0
  0
LINE
  5
995
  8
0
 62
     7
 10
242.9870149999999
 20
1.4999539999999989
 30
0.0
 11
265.493469
 21
1.4999539999999989
 31
0.0
  0
LINE
  5
996
  8
0
 62
     7
 10
253.55032299999991
 20
102.9999389999999
 30
0.0
 11
265.493469
 21
102.9999389999999
 31
0.0
  0
POLYLINE
  5
997
  8
0
 62
     7
 66
     1
 10
0.0
 20
0.0
 30
0.0
  0
VERTEX
  5
10B9
  8
0
 62
     7
 10
262.97582999999992
 20
3.431805999999999
 30
0.0
  0
VERTEX
  5
10BA
  8
0
 62
     7
 10
263.493469
 20
1.4999539999999989
 30
0.0
  0
VERTEX
  5
10BB
  8
0
 62
     7
 10
264.01110799999998
 20
3.431805999999999
 30
0.0
  0
SEQEND
  5
10BC
  8
0
 62
     7
  0
POLYLINE
  5
99C
  8
0
 62
     7
 66
     1
 10
0.0
 20
0.0
 30
0.0
  0
VERTEX
  5
10BD
  8
0
 62
     7
 10
264.01110799999998
 20
101.0680849999999
 30
0.0
  0
VERTEX
  5
10BE
  8
0
 62
     7
 10
263.493469
 20
102.9999389999999
 30
0.0
  0
VERTEX
  5
10BF
  8
0
 62
     7
 10
262.97582999999992
 20
101.0680849999999
 30
0.0
  0
SEQEND
  5
10C0
  8
0
 62
     7
  0
LINE
  5
9A1
  8
0
 62
     7
 10
263.493469
 20
1.4999539999999989
 30
0.0
 11
263.493469
 21
102.9999389999999
 31
0.0
  0
ENDBLK
  5
9A2
  8
0
  0
BLOCK
  8
0
  2
BLOCK46
 70
     0
 10
0.0
 20
0.0
 30
0.0
  3
BLOCK46
  1

  0
LINE
  5
9A4
  8
0
 62
     3
 10
13.238588
 20
114.04064199999991
 30
0.0
 11
13.822262
 21
113.4569629999999
 31
0.0
  0
LINE
  5
9A5
  8
0
 62
     3
 10
13.217142000000001
 20
115.1227419999999
 30
0.0
 11
15.553895000000001
 21
112.7859949999999
 31
0.0
  0
LINE
  5
9A6
  8
0
 62
     3
 10
13.721004999999989
 20
115.679543
 30
0.0
 11
16.758064000000001
 21
112.642487
 31
0.0
  0
LINE
  5
9A7
  8
0
 62
     3
 10
14.388966
 20
116.072243
 30
0.0
 11
17.805319000000001
 21
112.6558909999999
 31
0.0
  0
LINE
  5
9A8
  8
0
 62
     3
 10
15.156062
 20
116.365807
 30
0.0
 11
18.702673000000001
 21
112.8191909999999
 31
0.0
  0
LINE
  5
9A9
  8
0
 62
     3
 10
16.053417
 20
116.52911399999989
 30
0.0
 11
19.505814000000001
 21
113.0767139999999
 31
0.0
  0
LINE
  5
9AA
  8
0
 62
     3
 10
17.061474
 20
116.581711
 30
0.0
 11
20.216684000000001
 21
113.426506
 31
0.0
  0
LINE
  5
9AB
  8
0
 62
     3
 10
18.209004999999991
 20
116.4948429999999
 30
0.0
 11
20.785091000000001
 21
113.918755
 31
0.0
  0
LINE
  5
9AC
  8
0
 62
     3
 10
19.697406999999998
 20
116.06710099999989
 30
0.0
 11
20.974222000000001
 21
114.790283
 31
0.0
  0
ENDBLK
  5
9AD
  8
0
  0
BLOCK
  8
0
  2
BLOCK47
 70
     0
 10
0.0
 20
0.0
 30
0.0
  3
BLOCK47
  1

  0
LINE
  5
9AF
  8
0
 62
     6
 10
-18.762895999999991
 20
3.9136549999999999
 30
0.0
 11
-16.349195000000002
 21
1.4999539999999989
 31
0.0
  0
LINE
  5
9B0
  8
0
 62
     6
 10
-16.727858999999999
 20
3.999938999999999
 30
0.0
 11
-14.227876
 21
1.4999539999999989
 31
0.0
  0
LINE
  5
9B1
  8
0
 62
     6
 10
-14.60653999999999
 20
3.999938999999999
 30
0.0
 11
-12.106555
 21
1.4999539999999989
 31
0.0
  0
LINE
  5
9B2
  8
0
 62
     6
 10
-12.485219000000001
 20
3.999938999999999
 30
0.0
 11
-9.9852350000000012
 21
1.4999539999999989
 31
0.0
  0
LINE
  5
9B3
  8
0
 62
     6
 10
-10.363899
 20
3.999938999999999
 30
0.0
 11
-7.8639140000000003
 21
1.4999539999999989
 31
0.0
  0
LINE
  5
9B4
  8
0
 62
     6
 10
-8.2425789999999992
 20
3.999938999999999
 30
0.0
 11
-5.7425940000000004
 21
1.4999539999999989
 31
0.0
  0
LINE
  5
9B5
  8
0
 62
     6
 10
-6.1212589999999993
 20
3.999938999999999
 30
0.0
 11
-3.6212739999999992
 21
1.4999539999999989
 31
0.0
  0
LINE
  5
9B6
  8
0
 62
     6
 10
-3.9999379999999989
 20
3.999938999999999
 30
0.0
 11
-1.4999539999999989
 21
1.4999539999999989
 31
0.0
  0
LINE
  5
9B7
  8
0
 62
     6
 10
-1.8786179999999999
 20
3.999938999999999
 30
0.0
 11
0.621366
 21
1.4999539999999989
 31
0.0
  0
LINE
  5
9B8
  8
0
 62
     6
 10
0.242702
 20
3.999938999999999
 30
0.0
 11
2.7426859999999991
 21
1.4999539999999989
 31
0.0
  0
LINE
  5
9B9
  8
0
 62
     6
 10
-18.762895999999991
 20
25.126860000000001
 30
0.0
 11
-17.63599
 21
23.999953999999999
 31
0.0
  0
LINE
  5
9BA
  8
0
 62
     6
 10
1.537104
 20
4.8268570000000004
 30
0.0
 11
4.8640069999999991
 21
1.4999539999999989
 31
0.0
  0
LINE
  5
9BB
  8
0
 62
     6
 10
-18.014669000000001
 20
26.499953999999988
 30
0.0
 11
-15.514670000000001
 21
23.999953999999999
 31
0.0
  0
LINE
  5
9BC
  8
0
 62
     6
 10
1.537104
 20
6.9481779999999986
 30
0.0
 11
3.5371039999999998
 21
4.9481769999999994
 31
0.0
  0
LINE
  5
9BD
  8
0
 62
     6
 10
4.4853430000000003
 20
3.999938999999999
 30
0.0
 11
6.9853269999999998
 21
1.4999539999999989
 31
0.0
  0
LINE
  5
9BE
  8
0
 62
     6
 10
-15.89335
 20
26.499953999999988
 30
0.0
 11
-13.39335
 21
23.999953999999999
 31
0.0
  0
LINE
  5
9BF
  8
0
 62
     6
 10
1.537104
 20
9.0694979999999994
 30
0.0
 11
3.5371039999999998
 21
7.0694979999999994
 31
0.0
  0
LINE
  5
9C0
  8
0
 62
     6
 10
6.6066630000000002
 20
3.999938999999999
 30
0.0
 11
9.1066470000000006
 21
1.4999539999999989
 31
0.0
  0
LINE
  5
9C1
  8
0
 62
     6
 10
-13.77202999999999
 20
26.499953999999988
 30
0.0
 11
-11.272030000000001
 21
23.999953999999999
 31
0.0
  0
LINE
  5
9C2
  8
0
 62
     6
 10
1.537104
 20
11.190818999999999
 30
0.0
 11
3.5371039999999998
 21
9.1908189999999994
 31
0.0
  0
LINE
  5
9C3
  8
0
 62
     6
 10
8.727983
 20
3.999938999999999
 30
0.0
 11
11.227967
 21
1.4999539999999989
 31
0.0
  0
LINE
  5
9C4
  8
0
 62
     6
 10
-11.65070899999999
 20
26.499953999999988
 30
0.0
 11
-9.1507089999999991
 21
23.999953999999999
 31
0.0
  0
LINE
  5
9C5
  8
0
 62
     6
 10
1.537104
 20
13.312139999999999
 30
0.0
 11
3.5371039999999998
 21
11.312139
 31
0.0
  0
LINE
  5
9C6
  8
0
 62
     6
 10
10.84930299999999
 20
3.999938999999999
 30
0.0
 11
13.349287
 21
1.4999539999999989
 31
0.0
  0
LINE
  5
9C7
  8
0
 62
     6
 10
-9.5293890000000001
 20
26.499953999999988
 30
0.0
 11
-7.0293890000000001
 21
23.999953999999999
 31
0.0
  0
LINE
  5
9C8
  8
0
 62
     6
 10
1.537104
 20
15.433458999999999
 30
0.0
 11
3.5371039999999998
 21
13.433458999999999
 31
0.0
  0
LINE
  5
9C9
  8
0
 62
     6
 10
12.970623
 20
3.999938999999999
 30
0.0
 11
15.47060799999999
 21
1.4999539999999989
 31
0.0
  0
LINE
  5
9CA
  8
0
 62
     6
 10
-7.4080690000000002
 20
26.499953999999988
 30
0.0
 11
-4.9080690000000002
 21
23.999953999999999
 31
0.0
  0
LINE
  5
9CB
  8
0
 62
     6
 10
1.537104
 20
17.554780999999991
 30
0.0
 11
3.5371039999999998
 21
15.55477999999999
 31
0.0
  0
LINE
  5
9CC
  8
0
 62
     6
 10
15.091944
 20
3.999938999999999
 30
0.0
 11
17.591927999999999
 21
1.4999539999999989
 31
0.0
  0
LINE
  5
9CD
  8
0
 62
     6
 10
-5.2867489999999986
 20
26.499953999999988
 30
0.0
 11
-2.7867489999999999
 21
23.999953999999999
 31
0.0
  0
LINE
  5
9CE
  8
0
 62
     6
 10
1.537104
 20
19.676100000000002
 30
0.0
 11
3.5371039999999998
 21
17.676100000000002
 31
0.0
  0
LINE
  5
9CF
  8
0
 62
     6
 10
17.213263999999999
 20
3.999938999999999
 30
0.0
 11
19.713246999999999
 21
1.4999539999999989
 31
0.0
  0
LINE
  5
9D0
  8
0
 62
     6
 10
-3.165427999999999
 20
26.499953999999988
 30
0.0
 11
-0.6654290000000001
 21
23.999953999999999
 31
0.0
  0
LINE
  5
9D1
  8
0
 62
     6
 10
1.537104
 20
21.797420999999989
 30
0.0
 11
3.5371039999999998
 21
19.797421
 31
0.0
  0
LINE
  5
9D2
  8
0
 62
     6
 10
19.334582999999991
 20
3.999938999999999
 30
0.0
 11
21.834568000000001
 21
1.4999539999999989
 31
0.0
  0
LINE
  5
9D3
  8
0
 62
     6
 10
-1.044108
 20
26.499953999999988
 30
0.0
 11
1.455891
 21
23.999953999999999
 31
0.0
  0
LINE
  5
9D4
  8
0
 62
     6
 10
1.537104
 20
23.918741000000001
 30
0.0
 11
3.5371039999999998
 21
21.918741000000001
 31
0.0
  0
LINE
  5
9D5
  8
0
 62
     6
 10
21.455904
 20
3.999938999999999
 30
0.0
 11
23.955888999999999
 21
1.4999539999999989
 31
0.0
  0
LINE
  5
9D6
  8
0
 62
     6
 10
1.0772120000000001
 20
26.499953999999988
 30
0.0
 11
3.5371039999999998
 21
24.040061999999988
 31
0.0
  0
LINE
  5
9D7
  8
0
 62
     6
 10
22.537103999999999
 20
5.0400589999999994
 30
0.0
 11
26.077209
 21
1.4999539999999989
 31
0.0
  0
LINE
  5
9D8
  8
0
 62
     6
 10
3.1985320000000002
 20
26.499953999999988
 30
0.0
 11
3.5371039999999998
 21
26.16138299999999
 31
0.0
  0
LINE
  5
9D9
  8
0
 62
     6
 10
22.537103999999999
 20
7.1613800000000003
 30
0.0
 11
24.537103999999999
 21
5.1613790000000002
 31
0.0
  0
LINE
  5
9DA
  8
0
 62
     6
 10
25.698543999999998
 20
3.999938999999999
 30
0.0
 11
28.198528
 21
1.4999539999999989
 31
0.0
  0
LINE
  5
9DB
  8
0
 62
     6
 10
22.537103999999999
 20
9.2827009999999994
 30
0.0
 11
24.537103999999999
 21
7.2827000000000002
 31
0.0
  0
LINE
  5
9DC
  8
0
 62
     6
 10
27.819863999999999
 20
3.999938999999999
 30
0.0
 11
30.319848999999991
 21
1.4999539999999989
 31
0.0
  0
LINE
  5
9DD
  8
0
 62
     6
 10
22.537103999999999
 20
11.40401999999999
 30
0.0
 11
24.537103999999999
 21
9.4040199999999992
 31
0.0
  0
LINE
  5
9DE
  8
0
 62
     6
 10
29.94118499999999
 20
3.999938999999999
 30
0.0
 11
32.44117
 21
1.4999539999999989
 31
0.0
  0
LINE
  5
9DF
  8
0
 62
     6
 10
22.537103999999999
 20
13.525340999999999
 30
0.0
 11
24.537103999999999
 21
11.525340999999999
 31
0.0
  0
LINE
  5
9E0
  8
0
 62
     6
 10
32.062503999999997
 20
3.999938999999999
 30
0.0
 11
34.562488999999999
 21
1.4999539999999989
 31
0.0
  0
LINE
  5
9E1
  8
0
 62
     6
 10
22.537103999999999
 20
15.646661999999999
 30
0.0
 11
24.537103999999999
 21
13.646661999999999
 31
0.0
  0
LINE
  5
9E2
  8
0
 62
     6
 10
34.183826000000003
 20
3.999938999999999
 30
0.0
 11
36.683810999999992
 21
1.4999539999999989
 31
0.0
  0
LINE
  5
9E3
  8
0
 62
     6
 10
22.537103999999999
 20
17.767981999999989
 30
0.0
 11
24.537103999999999
 21
15.767981999999989
 31
0.0
  0
LINE
  5
9E4
  8
0
 62
     6
 10
36.305145000000003
 20
3.999938999999999
 30
0.0
 11
38.805129999999998
 21
1.4999539999999989
 31
0.0
  0
LINE
  5
9E5
  8
0
 62
     6
 10
22.537103999999999
 20
19.889302999999991
 30
0.0
 11
24.537103999999999
 21
17.889302999999991
 31
0.0
  0
LINE
  5
9E6
  8
0
 62
     6
 10
38.426464000000003
 20
3.999938999999999
 30
0.0
 11
40.926448999999991
 21
1.4999539999999989
 31
0.0
  0
LINE
  5
9E7
  8
0
 62
     6
 10
22.537103999999999
 20
22.010624
 30
0.0
 11
24.537103999999999
 21
20.010622000000001
 31
0.0
  0
LINE
  5
9E8
  8
0
 62
     6
 10
40.547786999999992
 20
3.999938999999999
 30
0.0
 11
43.047770999999997
 21
1.4999539999999989
 31
0.0
  0
LINE
  5
9E9
  8
0
 62
     6
 10
22.537103999999999
 20
24.131943
 30
0.0
 11
24.537103999999999
 21
22.131943
 31
0.0
  0
LINE
  5
9EA
  8
0
 62
     6
 10
42.669105999999999
 20
3.999938999999999
 30
0.0
 11
45.169089999999997
 21
1.4999539999999989
 31
0.0
  0
LINE
  5
9EB
  8
0
 62
     6
 10
22.537103999999999
 20
26.253263
 30
0.0
 11
24.790413000000001
 21
23.999953999999999
 31
0.0
  0
LINE
  5
9EC
  8
0
 62
     6
 10
44.790423999999987
 20
3.999938999999999
 30
0.0
 11
47.290408999999997
 21
1.4999539999999989
 31
0.0
  0
LINE
  5
9ED
  8
0
 62
     6
 10
24.411733999999999
 20
26.499953999999988
 30
0.0
 11
26.537103999999999
 21
24.374583999999999
 31
0.0
  0
LINE
  5
9EE
  8
0
 62
     6
 10
46.911746999999998
 20
3.999938999999999
 30
0.0
 11
49.411732000000001
 21
1.4999539999999989
 31
0.0
  0
LINE
  5
9EF
  8
0
 62
     6
 10
24.537103999999999
 20
28.495905
 30
0.0
 11
26.537103999999999
 21
26.495905
 31
0.0
  0
LINE
  5
9F0
  8
0
 62
     6
 10
49.033065999999998
 20
3.999938999999999
 30
0.0
 11
50.533051
 21
2.4999539999999998
 31
0.0
  0
LINE
  5
9F1
  8
0
 62
     6
 10
24.537103999999999
 20
30.617225999999999
 30
0.0
 11
26.537103999999999
 21
28.617225999999999
 31
0.0
  0
LINE
  5
9F2
  8
0
 62
     6
 10
51.15438799999999
 20
3.999938999999999
 30
0.0
 11
51.237102999999998
 21
3.9172220000000002
 31
0.0
  0
LINE
  5
9F3
  8
0
 62
     6
 10
24.537103999999999
 20
32.73854399999999
 30
0.0
 11
26.537103999999999
 21
30.738545999999999
 31
0.0
  0
LINE
  5
9F4
  8
0
 62
     6
 10
24.537103999999999
 20
34.859867000000001
 30
0.0
 11
26.537103999999999
 21
32.859867000000001
 31
0.0
  0
LINE
  5
9F5
  8
0
 62
     6
 10
24.537103999999999
 20
36.981186000000001
 30
0.0
 11
26.537103999999999
 21
34.981186000000001
 31
0.0
  0
LINE
  5
9F6
  8
0
 62
     6
 10
25.139655999999999
 20
38.499953999999988
 30
0.0
 11
26.537103999999999
 21
37.102508999999998
 31
0.0
  0
ENDBLK
  5
9F7
  8
0
  0
BLOCK
  8
0
  2
BLOCK48
 70
     0
 10
0.0
 20
0.0
 30
0.0
  3
BLOCK48
  1

  0
LINE
  5
9F9
  8
0
 62
     6
 10
168.367615
 20
91.999938999999998
 30
0.0
 11
167.17150899999999
 21
90.803832999999983
 31
0.0
  0
LINE
  5
9FA
  8
0
 62
     6
 10
170.48893699999999
 20
91.999938999999998
 30
0.0
 11
167.17150899999999
 21
88.682518000000016
 31
0.0
  0
LINE
  5
9FB
  8
0
 62
     6
 10
171.23706100000001
 20
90.626746999999995
 30
0.0
 11
168.61024499999991
 21
87.999938999999998
 31
0.0
  0
LINE
  5
9FC
  8
0
 62
     6
 10
171.23706100000001
 20
88.505431999999999
 30
0.0
 11
170.7315669999999
 21
87.999938999999998
 31
0.0
  0
ENDBLK
  5
9FD
  8
0
  0
BLOCK
  8
0
  2
BLOCK49
 70
     0
 10
0.0
 20
0.0
 30
0.0
  3
BLOCK49
  1

  0
LINE
  5
9FF
  8
0
 62
     6
 10
50.937564999999999
 20
86.999938999999998
 30
0.0
 11
50.737071999999998
 21
86.799446000000003
 31
0.0
  0
LINE
  5
A00
  8
0
 62
     6
 10
53.058886999999999
 20
86.999938999999998
 30
0.0
 11
50.737071999999998
 21
84.678122999999999
 31
0.0
  0
LINE
  5
A01
  8
0
 62
     6
 10
53.720267999999997
 20
85.540001000000004
 30
0.0
 11
51.180205999999998
 21
82.999938999999998
 31
0.0
  0
LINE
  5
A02
  8
0
 62
     6
 10
53.720267999999997
 20
83.418678000000014
 30
0.0
 11
53.301524999999998
 21
82.999938999999998
 31
0.0
  0
ENDBLK
  5
A03
  8
0
  0
BLOCK
  8
0
  2
BLOCK50
 70
     0
 10
0.0
 20
0.0
 30
0.0
  3
BLOCK50
  1

  0
LINE
  5
A05
  8
0
 62
     6
 10
44.837059000000004
 20
80.320839000000007
 30
0.0
 11
45.157963000000002
 21
79.999938999999983
 31
0.0
  0
LINE
  5
A06
  8
0
 62
     6
 10
44.837059000000004
 20
82.442161999999996
 30
0.0
 11
47.279282000000002
 21
79.999938999999983
 31
0.0
  0
LINE
  5
A07
  8
0
 62
     6
 10
46.400604000000001
 20
82.999938999999998
 30
0.0
 11
49.400604000000001
 21
79.999938999999983
 31
0.0
  0
LINE
  5
A08
  8
0
 62
     6
 10
48.521923000000001
 20
82.999938999999998
 30
0.0
 11
51.521923000000001
 21
79.999938999999983
 31
0.0
  0
LINE
  5
A09
  8
0
 62
     6
 10
50.643245999999998
 20
82.999938999999998
 30
0.0
 11
53.643242000000001
 21
79.999938999999983
 31
0.0
  0
LINE
  5
A0A
  8
0
 62
     6
 10
52.764564999999997
 20
82.999938999999998
 30
0.0
 11
54.720267999999997
 21
81.044235000000015
 31
0.0
  0
ENDBLK
  5
A0B
  8
0
  0
BLOCK
  8
0
  2
BLOCK51
 70
     0
 10
0.0
 20
0.0
 30
0.0
  3
BLOCK51
  1

  0
LINE
  5
A0D
  8
0
 62
     6
 10
31.737074
 20
78.571586999999994
 30
0.0
 11
32.308720000000001
 21
77.999938999999998
 31
0.0
  0
LINE
  5
A0E
  8
0
 62
     6
 10
31.737074
 20
80.692909
 30
0.0
 11
34.430042
 21
77.999938999999998
 31
0.0
  0
LINE
  5
A0F
  8
0
 62
     6
 10
31.737074
 20
82.814231999999976
 30
0.0
 11
36.551360999999993
 21
77.999938999999998
 31
0.0
  0
LINE
  5
A10
  8
0
 62
     6
 10
33.672683999999997
 20
82.999938999999998
 30
0.0
 11
36.637062
 21
80.035561000000001
 31
0.0
  0
LINE
  5
A11
  8
0
 62
     6
 10
35.794002999999996
 20
82.999938999999998
 30
0.0
 11
36.637062
 21
82.156882999999993
 31
0.0
  0
ENDBLK
  5
A12
  8
0
  0
BLOCK
  8
0
  2
BLOCK52
 70
     0
 10
0.0
 20
0.0
 30
0.0
  3
BLOCK52
  1

  0
LINE
  5
A14
  8
0
 62
     6
 10
45.837059000000004
 20
79.320839000000007
 30
0.0
 11
47.157963000000002
 21
77.999938999999998
 31
0.0
  0
LINE
  5
A15
  8
0
 62
     6
 10
47.279282000000002
 20
79.999938999999983
 30
0.0
 11
49.279282000000002
 21
77.999938999999998
 31
0.0
  0
LINE
  5
A16
  8
0
 62
     6
 10
49.400604000000001
 20
79.999938999999983
 30
0.0
 11
51.400604000000001
 21
77.999938999999998
 31
0.0
  0
LINE
  5
A17
  8
0
 62
     6
 10
51.521923000000001
 20
79.999938999999983
 30
0.0
 11
53.521923000000001
 21
77.999938999999998
 31
0.0
  0
LINE
  5
A18
  8
0
 62
     6
 10
53.643242000000001
 20
79.999938999999983
 30
0.0
 11
53.737071999999998
 21
79.906113000000005
 31
0.0
  0
ENDBLK
  5
A19
  8
0
  0
BLOCK
  8
0
  2
BLOCK53
 70
     0
 10
0.0
 20
0.0
 30
0.0
  3
BLOCK53
  1

  0
LINE
  5
A1B
  8
0
 62
     6
 10
187.93705700000001
 20
79.349296999999993
 30
0.0
 11
189.2864229999999
 21
77.999938999999998
 31
0.0
  0
LINE
  5
A1C
  8
0
 62
     6
 10
187.93705700000001
 20
81.470618999999999
 30
0.0
 11
191.40772999999999
 21
77.999938999999998
 31
0.0
  0
LINE
  5
A1D
  8
0
 62
     6
 10
188.52905299999989
 20
82.999938999999998
 30
0.0
 11
192.73706100000001
 21
78.791938999999999
 31
0.0
  0
LINE
  5
A1E
  8
0
 62
     6
 10
190.65037499999991
 20
82.999938999999998
 30
0.0
 11
192.73706100000001
 21
80.913253999999995
 31
0.0
  0
ENDBLK
  5
A1F
  8
0
  0
BLOCK
  8
0
  2
BLOCK54
 70
     0
 10
0.0
 20
0.0
 30
0.0
  3
BLOCK54
  1

  0
LINE
  5
A21
  8
0
 62
     6
 10
166.17150899999999
 20
84.144287000000006
 30
0.0
 11
171.93414300000001
 21
78.381644999999992
 31
0.0
  0
LINE
  5
A22
  8
0
 62
     6
 10
166.17150899999999
 20
86.265609999999995
 30
0.0
 11
174.43718000000001
 21
77.999938999999998
 31
0.0
  0
LINE
  5
A23
  8
0
 62
     6
 10
166.55850199999989
 20
87.999938999999998
 30
0.0
 11
176.558502
 21
77.999938999999998
 31
0.0
  0
LINE
  5
A24
  8
0
 62
     6
 10
169.724457
 20
86.955292000000014
 30
0.0
 11
178.67981
 21
77.999938999999998
 31
0.0
  0
LINE
  5
A25
  8
0
 62
     6
 10
175.801132
 20
82.999938999999998
 30
0.0
 11
179.5370639999999
 21
79.264015000000001
 31
0.0
  0
LINE
  5
A26
  8
0
 62
     6
 10
177.92245500000001
 20
82.999938999999998
 30
0.0
 11
179.5370639999999
 21
81.385338000000004
 31
0.0
  0
ENDBLK
  5
A27
  8
0
  0
BLOCK
  8
0
  2
BLOCK55
 70
     0
 10
0.0
 20
0.0
 30
0.0
  3
BLOCK55
  1

  0
LINE
  5
A29
  8
0
 62
     6
 10
171.338165
 20
77.999938999999998
 30
0.0
 11
171.23706100000001
 21
77.898833999999994
 31
0.0
  0
LINE
  5
A2A
  8
0
 62
     6
 10
173.45948799999991
 20
77.999938999999998
 30
0.0
 11
171.23706100000001
 21
75.777512000000002
 31
0.0
  0
LINE
  5
A2B
  8
0
 62
     6
 10
173.73706100000001
 20
76.156188999999998
 30
0.0
 11
171.23706100000001
 21
73.656196999999992
 31
0.0
  0
LINE
  5
A2C
  8
0
 62
     6
 10
173.73706100000001
 20
74.034874000000002
 30
0.0
 11
171.23706100000001
 21
71.534874000000002
 31
0.0
  0
LINE
  5
A2D
  8
0
 62
     6
 10
173.73706100000001
 20
71.913550999999998
 30
0.0
 11
171.23706100000001
 21
69.413558999999992
 31
0.0
  0
LINE
  5
A2E
  8
0
 62
     6
 10
173.73706100000001
 20
69.792236000000003
 30
0.0
 11
171.23706100000001
 21
67.292236000000003
 31
0.0
  0
LINE
  5
A2F
  8
0
 62
     6
 10
173.73706100000001
 20
67.670913999999996
 30
0.0
 11
172.33528100000001
 21
66.269134999999991
 31
0.0
  0
ENDBLK
  5
A30
  8
0
  0
BLOCK
  8
0
  2
BLOCK56
 70
     0
 10
0.0
 20
0.0
 30
0.0
  3
BLOCK56
  1

  0
LINE
  5
A32
  8
0
 62
     2
 10
184.4806209999999
 20
-4.168404999999999
 30
0.0
 11
186.31227100000001
 21
-6.000051
 31
0.0
  0
LINE
  5
A33
  8
0
 62
     2
 10
186.433594
 20
-4.000051
 30
0.0
 11
188.43359399999991
 21
-6.000051
 31
0.0
  0
LINE
  5
A34
  8
0
 62
     2
 10
188.554901
 20
-4.000051
 30
0.0
 11
190.554901
 21
-6.000051
 31
0.0
  0
LINE
  5
A35
  8
0
 62
     2
 10
190.67622399999991
 20
-4.000051
 30
0.0
 11
192.67622399999999
 21
-6.000051
 31
0.0
  0
LINE
  5
A36
  8
0
 62
     2
 10
192.7975459999999
 20
-4.000051
 30
0.0
 11
194.7975459999999
 21
-6.000051
 31
0.0
  0
LINE
  5
A37
  8
0
 62
     2
 10
194.91886899999989
 20
-4.000051
 30
0.0
 11
196.918869
 21
-6.000051
 31
0.0
  0
LINE
  5
A38
  8
0
 62
     2
 10
197.04019199999999
 20
-4.000051
 30
0.0
 11
199.04019199999999
 21
-6.000051
 31
0.0
  0
LINE
  5
A39
  8
0
 62
     2
 10
199.16151400000001
 20
-4.000051
 30
0.0
 11
201.1615139999999
 21
-6.000051
 31
0.0
  0
LINE
  5
A3A
  8
0
 62
     2
 10
201.282837
 20
-4.000051
 30
0.0
 11
203.28283699999989
 21
-6.000051
 31
0.0
  0
LINE
  5
A3B
  8
0
 62
     2
 10
203.404144
 20
-4.000051
 30
0.0
 11
205.404144
 21
-6.000051
 31
0.0
  0
LINE
  5
A3C
  8
0
 62
     2
 10
205.52546699999999
 20
-4.000051
 30
0.0
 11
207.52546699999999
 21
-6.000051
 31
0.0
  0
LINE
  5
A3D
  8
0
 62
     2
 10
207.6467899999999
 20
-4.000051
 30
0.0
 11
209.6467899999999
 21
-6.000051
 31
0.0
  0
LINE
  5
A3E
  8
0
 62
     2
 10
209.76811199999989
 20
-4.000051
 30
0.0
 11
211.76811199999989
 21
-6.000051
 31
0.0
  0
LINE
  5
A3F
  8
0
 62
     2
 10
211.88943499999999
 20
-4.000051
 30
0.0
 11
213.88943499999999
 21
-6.000051
 31
0.0
  0
LINE
  5
A40
  8
0
 62
     2
 10
214.01075700000001
 20
-4.000051
 30
0.0
 11
216.01075700000001
 21
-6.000051
 31
0.0
  0
LINE
  5
A41
  8
0
 62
     2
 10
216.1320649999999
 20
-4.000051
 30
0.0
 11
218.1320649999999
 21
-6.000051
 31
0.0
  0
LINE
  5
A42
  8
0
 62
     2
 10
218.25338699999989
 20
-4.000051
 30
0.0
 11
220.25338699999989
 21
-6.000051
 31
0.0
  0
LINE
  5
A43
  8
0
 62
     2
 10
220.37470999999999
 20
-4.000051
 30
0.0
 11
222.37470999999999
 21
-6.000051
 31
0.0
  0
LINE
  5
A44
  8
0
 62
     2
 10
222.49603300000001
 20
-4.000051
 30
0.0
 11
224.49603300000001
 21
-6.000051
 31
0.0
  0
LINE
  5
A45
  8
0
 62
     2
 10
224.61735499999989
 20
-4.000051
 30
0.0
 11
226.61735499999989
 21
-6.000051
 31
0.0
  0
LINE
  5
A46
  8
0
 62
     2
 10
226.73867799999991
 20
-4.000051
 30
0.0
 11
228.73867799999991
 21
-6.000051
 31
0.0
  0
LINE
  5
A47
  8
0
 62
     2
 10
228.85998499999999
 20
-4.000051
 30
0.0
 11
230.85998499999999
 21
-6.000051
 31
0.0
  0
LINE
  5
A48
  8
0
 62
     2
 10
230.98130800000001
 20
-4.000051
 30
0.0
 11
232.98130800000001
 21
-6.000051
 31
0.0
  0
LINE
  5
A49
  8
0
 62
     2
 10
233.10263099999989
 20
-4.000051
 30
0.0
 11
234.6011199999999
 21
-5.4985390000000001
 31
0.0
  0
LINE
  5
A4A
  8
0
 62
     2
 10
235.22395299999991
 20
-4.000051
 30
0.0
 11
235.56959499999999
 21
-4.3456960000000002
 31
0.0
  0
ENDBLK
  5
A4B
  8
0
  0
BLOCK
  8
0
  2
BLOCK57
 70
     0
 10
0.0
 20
0.0
 30
0.0
  3
BLOCK57
  1

  0
LINE
  5
A4D
  8
0
 62
     2
 10
165.9806209999999
 20
-4.760286999999999
 30
0.0
 11
167.22038299999991
 21
-6.000051
 31
0.0
  0
LINE
  5
A4E
  8
0
 62
     2
 10
167.34170499999999
 20
-4.000051
 30
0.0
 11
169.34170499999999
 21
-6.000051
 31
0.0
  0
LINE
  5
A4F
  8
0
 62
     2
 10
169.46302800000001
 20
-4.000051
 30
0.0
 11
171.46302800000001
 21
-6.000051
 31
0.0
  0
LINE
  5
A50
  8
0
 62
     2
 10
171.584351
 20
-4.000051
 30
0.0
 11
173.584351
 21
-6.000051
 31
0.0
  0
LINE
  5
A51
  8
0
 62
     2
 10
173.7056729999999
 20
-4.000051
 30
0.0
 11
175.7056729999999
 21
-6.000051
 31
0.0
  0
LINE
  5
A52
  8
0
 62
     2
 10
175.82698099999999
 20
-4.000051
 30
0.0
 11
177.4806209999999
 21
-5.6536860000000004
 31
0.0
  0
ENDBLK
  5
A53
  8
0
  0
BLOCK
  8
0
  2
BLOCK58
 70
     0
 10
0.0
 20
0.0
 30
0.0
  3
BLOCK58
  1

  0
LINE
  5
A55
  8
0
 62
     2
 10
42.480625000000003
 20
-4.2968619999999991
 30
0.0
 11
44.183815000000003
 21
-6.000051
 31
0.0
  0
LINE
  5
A56
  8
0
 62
     2
 10
44.305134000000002
 20
-4.000051
 30
0.0
 11
46.305134000000002
 21
-6.000051
 31
0.0
  0
LINE
  5
A57
  8
0
 62
     2
 10
46.426456000000002
 20
-4.000051
 30
0.0
 11
48.426456000000002
 21
-6.000051
 31
0.0
  0
LINE
  5
A58
  8
0
 62
     2
 10
48.547775000000001
 20
-4.000051
 30
0.0
 11
50.547775000000001
 21
-6.000051
 31
0.0
  0
LINE
  5
A59
  8
0
 62
     2
 10
50.669094000000001
 20
-4.000051
 30
0.0
 11
52.669093999999987
 21
-6.000051
 31
0.0
  0
LINE
  5
A5A
  8
0
 62
     2
 10
52.790416999999998
 20
-4.000051
 30
0.0
 11
53.980625000000003
 21
-5.1902609999999996
 31
0.0
  0
ENDBLK
  5
A5B
  8
0
  0
BLOCK
  8
0
  2
BLOCK59
 70
     0
 10
0.0
 20
0.0
 30
0.0
  3
BLOCK59
  1

  0
LINE
  5
A5D
  8
0
 62
     2
 10
-9.8679659999999991
 20
-4.9812769999999986
 30
0.0
 11
-8.8491910000000011
 21
-6.000051
 31
0.0
  0
LINE
  5
A5E
  8
0
 62
     2
 10
-8.7278699999999994
 20
-4.000051
 30
0.0
 11
-6.7278699999999994
 21
-6.000051
 31
0.0
  0
LINE
  5
A5F
  8
0
 62
     2
 10
-6.6065500000000004
 20
-4.000051
 30
0.0
 11
-4.6065500000000004
 21
-6.000051
 31
0.0
  0
LINE
  5
A60
  8
0
 62
     2
 10
-4.4852299999999996
 20
-4.000051
 30
0.0
 11
-2.4852300000000001
 21
-6.000051
 31
0.0
  0
LINE
  5
A61
  8
0
 62
     2
 10
-2.3639099999999988
 20
-4.000051
 30
0.0
 11
-0.36391
 21
-6.000051
 31
0.0
  0
LINE
  5
A62
  8
0
 62
     2
 10
-0.242589
 20
-4.000051
 30
0.0
 11
1.757409999999999
 21
-6.000051
 31
0.0
  0
LINE
  5
A63
  8
0
 62
     2
 10
1.8787309999999999
 20
-4.000051
 30
0.0
 11
3.8787309999999988
 21
-6.000051
 31
0.0
  0
LINE
  5
A64
  8
0
 62
     2
 10
4.000051
 20
-4.000051
 30
0.0
 11
6.000051
 21
-6.000051
 31
0.0
  0
LINE
  5
A65
  8
0
 62
     2
 10
6.121370999999999
 20
-4.000051
 30
0.0
 11
8.1213709999999981
 21
-6.000051
 31
0.0
  0
LINE
  5
A66
  8
0
 62
     2
 10
8.2426910000000007
 20
-4.000051
 30
0.0
 11
10.242691000000001
 21
-6.000051
 31
0.0
  0
LINE
  5
A67
  8
0
 62
     2
 10
10.364012000000001
 20
-4.000051
 30
0.0
 11
12.36401199999999
 21
-6.000051
 31
0.0
  0
LINE
  5
A68
  8
0
 62
     2
 10
12.485332
 20
-4.000051
 30
0.0
 11
14.485332
 21
-6.000051
 31
0.0
  0
LINE
  5
A69
  8
0
 62
     2
 10
14.606652
 20
-4.000051
 30
0.0
 11
16.606650999999999
 21
-6.000051
 31
0.0
  0
LINE
  5
A6A
  8
0
 62
     2
 10
16.727972000000001
 20
-4.000051
 30
0.0
 11
18.727972000000001
 21
-6.000051
 31
0.0
  0
LINE
  5
A6B
  8
0
 62
     2
 10
18.849292999999989
 20
-4.000051
 30
0.0
 11
20.849292999999999
 21
-6.000051
 31
0.0
  0
LINE
  5
A6C
  8
0
 62
     2
 10
20.970613
 20
-4.000051
 30
0.0
 11
22.970611999999988
 21
-6.000051
 31
0.0
  0
LINE
  5
A6D
  8
0
 62
     2
 10
23.091932
 20
-4.000051
 30
0.0
 11
25.091932
 21
-6.000051
 31
0.0
  0
LINE
  5
A6E
  8
0
 62
     2
 10
25.213252999999991
 20
-4.000051
 30
0.0
 11
27.213253000000002
 21
-6.000051
 31
0.0
  0
LINE
  5
A6F
  8
0
 62
     2
 10
27.334574
 20
-4.000051
 30
0.0
 11
29.334573999999989
 21
-6.000051
 31
0.0
  0
LINE
  5
A70
  8
0
 62
     2
 10
29.455892999999989
 20
-4.000051
 30
0.0
 11
31.455893
 21
-6.000051
 31
0.0
  0
LINE
  5
A71
  8
0
 62
     2
 10
31.577213
 20
-4.000051
 30
0.0
 11
33.577213
 21
-6.000051
 31
0.0
  0
LINE
  5
A72
  8
0
 62
     2
 10
33.698532
 20
-4.000051
 30
0.0
 11
35.480625000000003
 21
-5.7821429999999987
 31
0.0
  0
ENDBLK
  5
A73
  8
0
  0
BLOCK
  8
0
  2
BLOCK60
 70
     0
 10
0.0
 20
0.0
 30
0.0
  3
BLOCK60
  1

  0
LINE
  5
A75
  8
0
 62
     6
 10
44.737060999999997
 20
63.450279000000002
 30
0.0
 11
45.187396999999997
 21
62.999938999999998
 31
0.0
  0
LINE
  5
A76
  8
0
 62
     6
 10
44.737060999999997
 20
65.571601999999999
 30
0.0
 11
47.308720000000001
 21
62.999938999999998
 31
0.0
  0
LINE
  5
A77
  8
0
 62
     6
 10
44.737060999999997
 20
67.692917000000008
 30
0.0
 11
49.430038000000003
 21
62.999938999999998
 31
0.0
  0
LINE
  5
A78
  8
0
 62
     6
 10
44.737060999999997
 20
69.814239999999998
 30
0.0
 11
49.737060999999997
 21
64.814239999999998
 31
0.0
  0
LINE
  5
A79
  8
0
 62
     6
 10
44.737060999999997
 20
71.935562000000004
 30
0.0
 11
49.737060999999997
 21
66.935562000000004
 31
0.0
  0
LINE
  5
A7A
  8
0
 62
     6
 10
44.737060999999997
 20
74.056877
 30
0.0
 11
49.737060999999997
 21
69.056877
 31
0.0
  0
LINE
  5
A7B
  8
0
 62
     6
 10
44.737060999999997
 20
76.178200000000004
 30
0.0
 11
49.737060999999997
 21
71.178200000000004
 31
0.0
  0
LINE
  5
A7C
  8
0
 62
     6
 10
45.036644000000003
 20
77.999938999999998
 30
0.0
 11
49.737060999999997
 21
73.299521999999996
 31
0.0
  0
LINE
  5
A7D
  8
0
 62
     6
 10
47.157963000000002
 20
77.999938999999998
 30
0.0
 11
49.737060999999997
 21
75.420845
 31
0.0
  0
LINE
  5
A7E
  8
0
 62
     6
 10
49.279282000000002
 20
77.999938999999998
 30
0.0
 11
49.737060999999997
 21
77.542159999999996
 31
0.0
  0
ENDBLK
  5
A7F
  8
0
  0
BLOCK
  8
0
  2
BLOCK61
 70
     0
 10
0.0
 20
0.0
 30
0.0
  3
BLOCK61
  1

  0
LINE
  5
A81
  8
0
 62
     6
 10
27.23706099999999
 20
63.979717000000001
 30
0.0
 11
28.216836999999991
 21
62.999938999999998
 31
0.0
  0
LINE
  5
A82
  8
0
 62
     6
 10
27.23706099999999
 20
66.101035999999993
 30
0.0
 11
30.338158
 21
62.999938999999998
 31
0.0
  0
LINE
  5
A83
  8
0
 62
     6
 10
27.23706099999999
 20
68.222358999999983
 30
0.0
 11
32.459476000000002
 21
62.999938999999998
 31
0.0
  0
LINE
  5
A84
  8
0
 62
     6
 10
27.23706099999999
 20
70.343681000000004
 30
0.0
 11
34.580798999999992
 21
62.999938999999998
 31
0.0
  0
LINE
  5
A85
  8
0
 62
     6
 10
27.23706099999999
 20
72.464995999999985
 30
0.0
 11
36.702117999999999
 21
62.999938999999998
 31
0.0
  0
LINE
  5
A86
  8
0
 62
     6
 10
27.23706099999999
 20
74.586318999999989
 30
0.0
 11
36.73706099999999
 21
65.086318999999989
 31
0.0
  0
LINE
  5
A87
  8
0
 62
     6
 10
27.23706099999999
 20
76.707642000000007
 30
0.0
 11
36.73706099999999
 21
67.207642000000007
 31
0.0
  0
LINE
  5
A88
  8
0
 62
     6
 10
27.23706099999999
 20
78.828956999999974
 30
0.0
 11
36.73706099999999
 21
69.328956999999988
 31
0.0
  0
LINE
  5
A89
  8
0
 62
     6
 10
27.23706099999999
 20
80.950279000000009
 30
0.0
 11
36.73706099999999
 21
71.450279000000009
 31
0.0
  0
LINE
  5
A8A
  8
0
 62
     6
 10
27.308721999999989
 20
82.999938999999998
 30
0.0
 11
30.237061000000001
 21
80.071601999999984
 31
0.0
  0
LINE
  5
A8B
  8
0
 62
     6
 10
32.308720000000001
 20
77.999938999999998
 30
0.0
 11
36.73706099999999
 21
73.571601999999999
 31
0.0
  0
LINE
  5
A8C
  8
0
 62
     6
 10
29.43004199999999
 20
82.999938999999998
 30
0.0
 11
30.237061000000001
 21
82.192924000000005
 31
0.0
  0
LINE
  5
A8D
  8
0
 62
     6
 10
34.430042
 20
77.999938999999998
 30
0.0
 11
36.73706099999999
 21
75.692916999999994
 31
0.0
  0
LINE
  5
A8E
  8
0
 62
     6
 10
36.551360999999993
 20
77.999938999999998
 30
0.0
 11
36.73706099999999
 21
77.814239999999998
 31
0.0
  0
ENDBLK
  5
A8F
  8
0
  0
BLOCK
  8
0
  2
BLOCK62
 70
     0
 10
0.0
 20
0.0
 30
0.0
  3
BLOCK62
  1

  0
LINE
  5
A91
  8
0
 62
     6
 10
-0.262939
 20
63.902554000000002
 30
0.0
 11
0.639675
 21
62.999938999999998
 31
0.0
  0
LINE
  5
A92
  8
0
 62
     6
 10
0.760995
 20
64.999938999999983
 30
0.0
 11
2.760994999999999
 21
62.999938999999998
 31
0.0
  0
LINE
  5
A93
  8
0
 62
     6
 10
2.8823150000000002
 20
64.999938999999983
 30
0.0
 11
4.8823150000000002
 21
62.999938999999998
 31
0.0
  0
LINE
  5
A94
  8
0
 62
     6
 10
5.0036350000000001
 20
64.999938999999983
 30
0.0
 11
7.0036350000000001
 21
62.999938999999998
 31
0.0
  0
LINE
  5
A95
  8
0
 62
     6
 10
7.1249560000000001
 20
64.999938999999983
 30
0.0
 11
9.1249549999999982
 21
62.999938999999998
 31
0.0
  0
LINE
  5
A96
  8
0
 62
     6
 10
9.2462759999999982
 20
64.999938999999983
 30
0.0
 11
11.237061000000001
 21
63.009155000000007
 31
0.0
  0
ENDBLK
  5
A97
  8
0
  0
BLOCK
  8
0
  2
BLOCK63
 70
     0
 10
0.0
 20
0.0
 30
0.0
  3
BLOCK63
  1

  0
LINE
  5
A99
  8
0
 62
     6
 10
-0.262939
 20
82.994438000000002
 30
0.0
 11
1.7315590000000001
 21
80.999938999999983
 31
0.0
  0
LINE
  5
A9A
  8
0
 62
     6
 10
1.8528789999999999
 20
82.999938999999998
 30
0.0
 11
3.8528790000000002
 21
80.999938999999983
 31
0.0
  0
LINE
  5
A9B
  8
0
 62
     6
 10
3.9742000000000002
 20
82.999938999999998
 30
0.0
 11
5.9741989999999987
 21
80.999938999999983
 31
0.0
  0
LINE
  5
A9C
  8
0
 62
     6
 10
6.0955199999999987
 20
82.999938999999998
 30
0.0
 11
8.0955189999999995
 21
80.999938999999983
 31
0.0
  0
LINE
  5
A9D
  8
0
 62
     6
 10
8.2168399999999995
 20
82.999938999999998
 30
0.0
 11
10.216839999999999
 21
80.999938999999983
 31
0.0
  0
LINE
  5
A9E
  8
0
 62
     6
 10
10.33816
 20
82.999938999999998
 30
0.0
 11
11.237061000000001
 21
82.101035999999993
 31
0.0
  0
ENDBLK
  5
A9F
  8
0
  0
BLOCK
  8
0
  2
BLOCK64
 70
     0
 10
0.0
 20
0.0
 30
0.0
  3
BLOCK64
  1

  0
LINE
  5
AA1
  8
0
 62
     3
 10
203.47587599999989
 20
114.7221679999999
 30
0.0
 11
205.23193399999991
 21
112.96611
 31
0.0
  0
LINE
  5
AA2
  8
0
 62
     3
 10
203.83062699999999
 20
115.42806999999991
 30
0.0
 11
206.58813499999999
 21
112.67057
 31
0.0
  0
LINE
  5
AA3
  8
0
 62
     3
 10
204.40727199999989
 20
115.912102
 30
0.0
 11
207.6768799999999
 21
112.642487
 31
0.0
  0
LINE
  5
AA4
  8
0
 62
     3
 10
205.15444899999989
 20
116.2255779999999
 30
0.0
 11
208.6442569999999
 21
112.735771
 31
0.0
  0
LINE
  5
AA5
  8
0
 62
     3
 10
205.99499499999999
 20
116.44568599999999
 30
0.0
 11
209.52410900000001
 21
112.9165729999999
 31
0.0
  0
LINE
  5
AA6
  8
0
 62
     3
 10
206.91963200000001
 20
116.581711
 30
0.0
 11
210.27130099999991
 21
113.23004899999989
 31
0.0
  0
LINE
  5
AA7
  8
0
 62
     3
 10
207.98028600000001
 20
116.581711
 30
0.0
 11
210.89471399999999
 21
113.66728999999989
 31
0.0
  0
LINE
  5
AA8
  8
0
 62
     3
 10
209.2432399999999
 20
116.379425
 30
0.0
 11
211.32586699999999
 21
114.29679899999999
 31
0.0
  0
ENDBLK
  5
AA9
  8
0
  0
BLOCK
  8
0
  2
BLOCK65
 70
     0
 10
0.0
 20
0.0
 30
0.0
  3
BLOCK65
  1

  0
LINE
  5
AAB
  8
0
 62
     6
 10
174.73706100000001
 20
64.972130000000007
 30
0.0
 11
176.7092439999999
 21
62.999938999999998
 31
0.0
  0
LINE
  5
AAC
  8
0
 62
     6
 10
174.73706100000001
 20
67.093451999999999
 30
0.0
 11
178.83056599999989
 21
62.999938999999998
 31
0.0
  0
LINE
  5
AAD
  8
0
 62
     6
 10
174.73706100000001
 20
69.214775000000003
 30
0.0
 11
179.73706100000001
 21
64.214767000000009
 31
0.0
  0
LINE
  5
AAE
  8
0
 62
     6
 10
174.73706100000001
 20
71.336089999999984
 30
0.0
 11
179.73706100000001
 21
66.336089999999984
 31
0.0
  0
LINE
  5
AAF
  8
0
 62
     6
 10
174.73706100000001
 20
73.457413000000003
 30
0.0
 11
179.73706100000001
 21
68.457413000000003
 31
0.0
  0
LINE
  5
AB0
  8
0
 62
     6
 10
174.73706100000001
 20
75.578734999999995
 30
0.0
 11
179.73706100000001
 21
70.578734999999995
 31
0.0
  0
LINE
  5
AB1
  8
0
 62
     6
 10
174.73706100000001
 20
77.700050000000005
 30
0.0
 11
179.73706100000001
 21
72.700050000000005
 31
0.0
  0
LINE
  5
AB2
  8
0
 62
     6
 10
176.558502
 20
77.999938999999998
 30
0.0
 11
179.73706100000001
 21
74.821372999999994
 31
0.0
  0
LINE
  5
AB3
  8
0
 62
     6
 10
178.67981
 20
77.999938999999998
 30
0.0
 11
179.73706100000001
 21
76.942695999999998
 31
0.0
  0
ENDBLK
  5
AB4
  8
0
  0
BLOCK
  8
0
  2
BLOCK66
 70
     0
 10
0.0
 20
0.0
 30
0.0
  3
BLOCK66
  1

  0
LINE
  5
AB6
  8
0
 62
     6
 10
187.73706100000001
 20
64.700050000000005
 30
0.0
 11
189.43718000000001
 21
62.999938999999998
 31
0.0
  0
LINE
  5
AB7
  8
0
 62
     6
 10
187.73706100000001
 20
66.821372999999994
 30
0.0
 11
191.55848700000001
 21
62.999938999999998
 31
0.0
  0
LINE
  5
AB8
  8
0
 62
     6
 10
187.73706100000001
 20
68.942695999999998
 30
0.0
 11
193.67981
 21
62.999938999999998
 31
0.0
  0
LINE
  5
AB9
  8
0
 62
     6
 10
187.73706100000001
 20
71.064010999999994
 30
0.0
 11
195.80113199999991
 21
62.999938999999998
 31
0.0
  0
LINE
  5
ABA
  8
0
 62
     6
 10
187.73706100000001
 20
73.185333
 30
0.0
 11
197.23706100000001
 21
63.685332999999993
 31
0.0
  0
LINE
  5
ABB
  8
0
 62
     6
 10
187.73706100000001
 20
75.306656000000004
 30
0.0
 11
197.23706100000001
 21
65.806656000000004
 31
0.0
  0
LINE
  5
ABC
  8
0
 62
     6
 10
187.73706100000001
 20
77.427979000000008
 30
0.0
 11
197.23706100000001
 21
67.927970999999999
 31
0.0
  0
LINE
  5
ABD
  8
0
 62
     6
 10
189.2864229999999
 20
77.999938999999998
 30
0.0
 11
197.23706100000001
 21
70.049293999999989
 31
0.0
  0
LINE
  5
ABE
  8
0
 62
     6
 10
191.40772999999999
 20
77.999938999999998
 30
0.0
 11
197.23706100000001
 21
72.170615999999995
 31
0.0
  0
LINE
  5
ABF
  8
0
 62
     6
 10
193.52905299999989
 20
77.999938999999998
 30
0.0
 11
197.23706100000001
 21
74.291938999999999
 31
0.0
  0
LINE
  5
AC0
  8
0
 62
     6
 10
194.23706100000001
 20
79.413254000000009
 30
0.0
 11
197.23706100000001
 21
76.413254000000009
 31
0.0
  0
LINE
  5
AC1
  8
0
 62
     6
 10
194.23706100000001
 20
81.534576000000015
 30
0.0
 11
197.23706100000001
 21
78.534576000000001
 31
0.0
  0
LINE
  5
AC2
  8
0
 62
     6
 10
194.893021
 20
82.999938999999998
 30
0.0
 11
197.23706100000001
 21
80.655899000000005
 31
0.0
  0
LINE
  5
AC3
  8
0
 62
     6
 10
197.014343
 20
82.999938999999998
 30
0.0
 11
197.23706100000001
 21
82.777214000000001
 31
0.0
  0
ENDBLK
  5
AC4
  8
0
  0
BLOCK
  8
0
  2
BLOCK67
 70
     0
 10
0.0
 20
0.0
 30
0.0
  3
BLOCK67
  1

  0
LINE
  5
AC6
  8
0
 62
     6
 10
213.2370609999999
 20
64.655890999999997
 30
0.0
 11
214.893021
 21
62.999938999999998
 31
0.0
  0
LINE
  5
AC7
  8
0
 62
     6
 10
215.01432799999989
 20
64.999938999999983
 30
0.0
 11
217.01432800000001
 21
62.999938999999998
 31
0.0
  0
LINE
  5
AC8
  8
0
 62
     6
 10
217.13565099999991
 20
64.999938999999983
 30
0.0
 11
219.13565099999991
 21
62.999938999999998
 31
0.0
  0
LINE
  5
AC9
  8
0
 62
     6
 10
219.2569729999999
 20
64.999938999999983
 30
0.0
 11
221.2569729999999
 21
62.999938999999998
 31
0.0
  0
LINE
  5
ACA
  8
0
 62
     6
 10
221.37829600000001
 20
64.999938999999983
 30
0.0
 11
223.37829600000001
 21
62.999938999999998
 31
0.0
  0
LINE
  5
ACB
  8
0
 62
     6
 10
223.49961899999991
 20
64.999938999999983
 30
0.0
 11
224.7370609999999
 21
63.762496999999989
 31
0.0
  0
ENDBLK
  5
ACC
  8
0
  0
BLOCK
  8
0
  2
BLOCK68
 70
     0
 10
0.0
 20
0.0
 30
0.0
  3
BLOCK68
  1

  0
LINE
  5
ACE
  8
0
 62
     6
 10
213.2370609999999
 20
81.626456999999974
 30
0.0
 11
213.86358599999991
 21
80.999938999999983
 31
0.0
  0
LINE
  5
ACF
  8
0
 62
     6
 10
213.98489399999991
 20
82.999938999999998
 30
0.0
 11
215.98489399999991
 21
80.999938999999983
 31
0.0
  0
LINE
  5
AD0
  8
0
 62
     6
 10
216.10621599999999
 20
82.999938999999998
 30
0.0
 11
218.10621599999999
 21
80.999938999999983
 31
0.0
  0
LINE
  5
AD1
  8
0
 62
     6
 10
218.22753900000001
 20
82.999938999999998
 30
0.0
 11
220.22753900000001
 21
80.999938999999983
 31
0.0
  0
LINE
  5
AD2
  8
0
 62
     6
 10
220.348862
 20
82.999938999999998
 30
0.0
 11
222.348862
 21
80.999938999999983
 31
0.0
  0
LINE
  5
AD3
  8
0
 62
     6
 10
222.4701839999999
 20
82.999938999999998
 30
0.0
 11
224.4701839999999
 21
80.999938999999983
 31
0.0
  0
LINE
  5
AD4
  8
0
 62
     6
 10
224.59150699999989
 20
82.999938999999998
 30
0.0
 11
224.7370609999999
 21
82.854377999999997
 31
0.0
  0
ENDBLK
  5
AD5
  8
0
  0
BLOCK
  8
0
  2
BLOCK69
 70
     0
 10
0.0
 20
0.0
 30
0.0
  3
BLOCK69
  1

  0
LINE
  5
AD7
  8
0
 62
     6
 10
173.2370149999999
 20
2.8325599999999991
 30
0.0
 11
173.569626
 21
2.4999539999999998
 31
0.0
  0
LINE
  5
AD8
  8
0
 62
     6
 10
174.2370149999999
 20
1.8325599999999991
 30
0.0
 11
174.569626
 21
1.4999539999999989
 31
0.0
  0
LINE
  5
AD9
  8
0
 62
     6
 10
174.19096399999989
 20
3.999938999999999
 30
0.0
 11
176.69094799999991
 21
1.4999539999999989
 31
0.0
  0
LINE
  5
ADA
  8
0
 62
     6
 10
176.312286
 20
3.999938999999999
 30
0.0
 11
178.81225599999999
 21
1.4999539999999989
 31
0.0
  0
LINE
  5
ADB
  8
0
 62
     6
 10
178.433594
 20
3.999938999999999
 30
0.0
 11
180.9335779999999
 21
1.4999539999999989
 31
0.0
  0
LINE
  5
ADC
  8
0
 62
     6
 10
180.55491599999991
 20
3.999938999999999
 30
0.0
 11
183.054901
 21
1.4999539999999989
 31
0.0
  0
LINE
  5
ADD
  8
0
 62
     6
 10
182.6762389999999
 20
3.999938999999999
 30
0.0
 11
185.17622399999999
 21
1.4999539999999989
 31
0.0
  0
LINE
  5
ADE
  8
0
 62
     6
 10
184.79756199999991
 20
3.999938999999999
 30
0.0
 11
187.2975459999999
 21
1.4999539999999989
 31
0.0
  0
LINE
  5
ADF
  8
0
 62
     6
 10
186.91888399999999
 20
3.999938999999999
 30
0.0
 11
189.418869
 21
1.4999539999999989
 31
0.0
  0
LINE
  5
AE0
  8
0
 62
     6
 10
189.04020700000001
 20
3.999938999999999
 30
0.0
 11
191.54019199999991
 21
1.4999539999999989
 31
0.0
  0
LINE
  5
AE1
  8
0
 62
     6
 10
191.1615139999999
 20
3.999938999999999
 30
0.0
 11
193.66149899999991
 21
1.4999539999999989
 31
0.0
  0
LINE
  5
AE2
  8
0
 62
     6
 10
193.282837
 20
3.999938999999999
 30
0.0
 11
195.78282200000001
 21
1.4999539999999989
 31
0.0
  0
LINE
  5
AE3
  8
0
 62
     6
 10
195.40415999999999
 20
3.999938999999999
 30
0.0
 11
197.90414399999989
 21
1.4999539999999989
 31
0.0
  0
LINE
  5
AE4
  8
0
 62
     6
 10
197.52548200000001
 20
3.999938999999999
 30
0.0
 11
200.02546699999991
 21
1.4999539999999989
 31
0.0
  0
LINE
  5
AE5
  8
0
 62
     6
 10
199.646805
 20
3.999938999999999
 30
0.0
 11
202.1467899999999
 21
1.4999539999999989
 31
0.0
  0
LINE
  5
AE6
  8
0
 62
     6
 10
199.93701200000001
 20
5.8310430000000002
 30
0.0
 11
204.268112
 21
1.4999539999999989
 31
0.0
  0
LINE
  5
AE7
  8
0
 62
     6
 10
199.93701200000001
 20
7.9523640000000002
 30
0.0
 11
201.93701200000001
 21
5.9523630000000001
 31
0.0
  0
LINE
  5
AE8
  8
0
 62
     6
 10
203.88943499999999
 20
3.999938999999999
 30
0.0
 11
206.38942
 21
1.4999539999999989
 31
0.0
  0
LINE
  5
AE9
  8
0
 62
     6
 10
199.93701200000001
 20
10.073684999999999
 30
0.0
 11
201.93701200000001
 21
8.0736840000000001
 31
0.0
  0
LINE
  5
AEA
  8
0
 62
     6
 10
206.0107569999999
 20
3.999938999999999
 30
0.0
 11
208.51074199999991
 21
1.4999539999999989
 31
0.0
  0
LINE
  5
AEB
  8
0
 62
     6
 10
199.93701200000001
 20
12.195004000000001
 30
0.0
 11
201.93701200000001
 21
10.19500399999999
 31
0.0
  0
LINE
  5
AEC
  8
0
 62
     6
 10
208.13207999999989
 20
3.999938999999999
 30
0.0
 11
210.6320649999999
 21
1.4999539999999989
 31
0.0
  0
LINE
  5
AED
  8
0
 62
     6
 10
199.93701200000001
 20
14.316325000000001
 30
0.0
 11
201.93701200000001
 21
12.316325000000001
 31
0.0
  0
LINE
  5
AEE
  8
0
 62
     6
 10
210.25340299999999
 20
3.999938999999999
 30
0.0
 11
212.753387
 21
1.4999539999999989
 31
0.0
  0
LINE
  5
AEF
  8
0
 62
     6
 10
199.93701200000001
 20
16.437645
 30
0.0
 11
201.93701200000001
 21
14.43764599999999
 31
0.0
  0
LINE
  5
AF0
  8
0
 62
     6
 10
212.37472500000001
 20
3.999938999999999
 30
0.0
 11
214.87470999999999
 21
1.4999539999999989
 31
0.0
  0
LINE
  5
AF1
  8
0
 62
     6
 10
199.93701200000001
 20
18.558966000000002
 30
0.0
 11
201.93701200000001
 21
16.558966000000002
 31
0.0
  0
LINE
  5
AF2
  8
0
 62
     6
 10
214.49604799999989
 20
3.999938999999999
 30
0.0
 11
216.99603300000001
 21
1.4999539999999989
 31
0.0
  0
LINE
  5
AF3
  8
0
 62
     6
 10
199.93701200000001
 20
20.680285999999992
 30
0.0
 11
201.93701200000001
 21
18.680285999999992
 31
0.0
  0
LINE
  5
AF4
  8
0
 62
     6
 10
216.61735499999989
 20
3.999938999999999
 30
0.0
 11
219.1173399999999
 21
1.4999539999999989
 31
0.0
  0
LINE
  5
AF5
  8
0
 62
     6
 10
197.93701200000001
 20
24.801607000000001
 30
0.0
 11
198.73866299999989
 21
23.999953999999999
 31
0.0
  0
LINE
  5
AF6
  8
0
 62
     6
 10
199.93701200000001
 20
22.801607000000001
 30
0.0
 11
201.93701200000001
 21
20.80160699999999
 31
0.0
  0
LINE
  5
AF7
  8
0
 62
     6
 10
218.73867799999999
 20
3.999938999999999
 30
0.0
 11
221.238663
 21
1.4999539999999989
 31
0.0
  0
LINE
  5
AF8
  8
0
 62
     6
 10
197.93701200000001
 20
26.922927999999999
 30
0.0
 11
201.93701200000001
 21
22.922927999999992
 31
0.0
  0
LINE
  5
AF9
  8
0
 62
     6
 10
220.86000100000001
 20
3.999938999999999
 30
0.0
 11
223.35998499999999
 21
1.4999539999999989
 31
0.0
  0
LINE
  5
AFA
  8
0
 62
     6
 10
197.93701200000001
 20
29.044249000000001
 30
0.0
 11
199.93701200000001
 21
27.044249000000001
 31
0.0
  0
LINE
  5
AFB
  8
0
 62
     6
 10
200.48130800000001
 20
26.499953999999988
 30
0.0
 11
201.93701200000001
 21
25.044249000000001
 31
0.0
  0
LINE
  5
AFC
  8
0
 62
     6
 10
220.9370119999999
 20
6.0442450000000001
 30
0.0
 11
222.93701200000001
 21
4.0442450000000001
 31
0.0
  0
LINE
  5
AFD
  8
0
 62
     6
 10
222.98132299999989
 20
3.999938999999999
 30
0.0
 11
225.48130800000001
 21
1.4999539999999989
 31
0.0
  0
LINE
  5
AFE
  8
0
 62
     6
 10
197.93701200000001
 20
31.165569000000001
 30
0.0
 11
199.93701200000001
 21
29.165569000000001
 31
0.0
  0
LINE
  5
AFF
  8
0
 62
     6
 10
220.9370119999999
 20
8.1655649999999991
 30
0.0
 11
222.93701200000001
 21
6.1655649999999991
 31
0.0
  0
LINE
  5
B00
  8
0
 62
     6
 10
225.10264599999991
 20
3.999938999999999
 30
0.0
 11
227.602631
 21
1.4999539999999989
 31
0.0
  0
LINE
  5
B01
  8
0
 62
     6
 10
197.93701200000001
 20
33.286887999999998
 30
0.0
 11
199.93701200000001
 21
31.28689
 31
0.0
  0
LINE
  5
B02
  8
0
 62
     6
 10
220.9370119999999
 20
10.286886000000001
 30
0.0
 11
222.93701200000001
 21
8.2868860000000009
 31
0.0
  0
LINE
  5
B03
  8
0
 62
     6
 10
227.2239689999999
 20
3.999938999999999
 30
0.0
 11
229.72395299999991
 21
1.4999539999999989
 31
0.0
  0
LINE
  5
B04
  8
0
 62
     6
 10
197.93701200000001
 20
35.408211000000001
 30
0.0
 11
199.93701200000001
 21
33.408211000000001
 31
0.0
  0
LINE
  5
B05
  8
0
 62
     6
 10
220.9370119999999
 20
12.408207000000001
 30
0.0
 11
222.93701200000001
 21
10.408207000000001
 31
0.0
  0
LINE
  5
B06
  8
0
 62
     6
 10
229.345291
 20
3.999938999999999
 30
0.0
 11
231.84526099999999
 21
1.4999539999999989
 31
0.0
  0
LINE
  5
B07
  8
0
 62
     6
 10
197.93701200000001
 20
37.529530000000001
 30
0.0
 11
199.93701200000001
 21
35.529530000000001
 31
0.0
  0
LINE
  5
B08
  8
0
 62
     6
 10
220.9370119999999
 20
14.529528000000001
 30
0.0
 11
222.93701200000001
 21
12.529527
 31
0.0
  0
LINE
  5
B09
  8
0
 62
     6
 10
231.466599
 20
3.999938999999999
 30
0.0
 11
233.96658300000001
 21
1.4999539999999989
 31
0.0
  0
LINE
  5
B0A
  8
0
 62
     6
 10
199.08792099999991
 20
38.499953999999988
 30
0.0
 11
199.93701200000001
 21
37.650852
 31
0.0
  0
LINE
  5
B0B
  8
0
 62
     6
 10
220.9370119999999
 20
16.650847999999989
 30
0.0
 11
222.93701200000001
 21
14.650847000000001
 31
0.0
  0
LINE
  5
B0C
  8
0
 62
     6
 10
233.58792099999991
 20
3.999938999999999
 30
0.0
 11
236.087906
 21
1.4999539999999989
 31
0.0
  0
LINE
  5
B0D
  8
0
 62
     6
 10
220.9370119999999
 20
18.772169000000002
 30
0.0
 11
222.93701200000001
 21
16.772166999999989
 31
0.0
  0
LINE
  5
B0E
  8
0
 62
     6
 10
235.7092439999999
 20
3.999938999999999
 30
0.0
 11
238.20922899999999
 21
1.4999539999999989
 31
0.0
  0
LINE
  5
B0F
  8
0
 62
     6
 10
220.9370119999999
 20
20.893488000000001
 30
0.0
 11
222.93701200000001
 21
18.893488000000001
 31
0.0
  0
LINE
  5
B10
  8
0
 62
     6
 10
237.830566
 20
3.999938999999999
 30
0.0
 11
240.33055100000001
 21
1.4999539999999989
 31
0.0
  0
LINE
  5
B11
  8
0
 62
     6
 10
220.9370119999999
 20
23.014809
 30
0.0
 11
222.93701200000001
 21
21.014808999999989
 31
0.0
  0
LINE
  5
B12
  8
0
 62
     6
 10
239.95188899999999
 20
3.999938999999999
 30
0.0
 11
242.3536379999999
 21
1.598188999999999
 31
0.0
  0
LINE
  5
B13
  8
0
 62
     6
 10
220.9370119999999
 20
25.136129
 30
0.0
 11
222.93701200000001
 21
23.136129
 31
0.0
  0
LINE
  5
B14
  8
0
 62
     6
 10
242.07321200000001
 20
3.999938999999999
 30
0.0
 11
243.23701500000001
 21
2.836126999999999
 31
0.0
  0
LINE
  5
B15
  8
0
 62
     6
 10
221.69451900000001
 20
26.499953999999988
 30
0.0
 11
224.19451900000001
 21
23.999953999999999
 31
0.0
  0
LINE
  5
B16
  8
0
 62
     6
 10
223.81582599999999
 20
26.499953999999988
 30
0.0
 11
226.3158259999999
 21
23.999953999999999
 31
0.0
  0
LINE
  5
B17
  8
0
 62
     6
 10
225.93714900000001
 20
26.499953999999988
 30
0.0
 11
228.43714900000001
 21
23.999953999999999
 31
0.0
  0
LINE
  5
B18
  8
0
 62
     6
 10
228.05847199999999
 20
26.499953999999988
 30
0.0
 11
230.55847199999999
 21
23.999953999999999
 31
0.0
  0
LINE
  5
B19
  8
0
 62
     6
 10
230.1797939999999
 20
26.499953999999988
 30
0.0
 11
232.67979399999999
 21
23.999953999999999
 31
0.0
  0
LINE
  5
B1A
  8
0
 62
     6
 10
232.301117
 20
26.499953999999988
 30
0.0
 11
234.80111699999989
 21
23.999953999999999
 31
0.0
  0
LINE
  5
B1B
  8
0
 62
     6
 10
234.42243999999991
 20
26.499953999999988
 30
0.0
 11
236.92243999999991
 21
23.999953999999999
 31
0.0
  0
LINE
  5
B1C
  8
0
 62
     6
 10
236.543747
 20
26.499953999999988
 30
0.0
 11
239.043747
 21
23.999953999999999
 31
0.0
  0
LINE
  5
B1D
  8
0
 62
     6
 10
238.66506999999999
 20
26.499953999999988
 30
0.0
 11
241.16506999999999
 21
23.999953999999999
 31
0.0
  0
LINE
  5
B1E
  8
0
 62
     6
 10
240.78639200000001
 20
26.499953999999988
 30
0.0
 11
243.23701500000001
 21
24.049332
 31
0.0
  0
LINE
  5
B1F
  8
0
 62
     6
 10
242.90771499999991
 20
26.499953999999988
 30
0.0
 11
243.23701500000001
 21
26.170652
 31
0.0
  0
ENDBLK
  5
B20
  8
0
  0
BLOCK
  8
0
  2
BLOCK70
 70
     0
 10
0.0
 20
0.0
 30
0.0
  3
BLOCK70
  1

  0
TEXT
  5
B22
  8
0
 62
     7
 10
-106.0
 20
-2.0
 30
0.0
 40
3.0
  1
X
 50
180.0
 41
0.9777764444444425
 72
     5
 11
-108.199997
 21
-2.0
 31
0.0
  0
ENDBLK
  5
B23
  8
0
  0
BLOCK
  8
0
  2
BLOCK71
 70
     0
 10
0.0
 20
0.0
 30
0.0
  3
BLOCK71
  1

  0
TEXT
  5
B25
  8
0
 62
     7
 10
80.0
 20
-2.0
 30
0.0
 40
3.0
  1
X
 50
180.0
 41
0.9777764444444425
 72
     5
 11
77.800003000000004
 21
-2.0
 31
0.0
  0
ENDBLK
  5
B26
  8
0
  0
BLOCK
  8
0
  2
BLOCK72
 70
     0
 10
0.0
 20
0.0
 30
0.0
  3
BLOCK72
  1

  0
TEXT
  5
B28
  8
0
 62
     7
 10
5.1355129999999987
 20
-134.9686889999999
 30
0.0
 40
3.0
  1
Y
 50
180.0
 41
0.9777777777777775
 72
     5
 11
2.9355129999999998
 21
-134.9686889999999
 31
0.0
  0
ENDBLK
  5
B29
  8
0
  0
BLOCK
  8
0
  2
BLOCK73
 70
     0
 10
0.0
 20
0.0
 30
0.0
  3
BLOCK73
  1

  0
TEXT
  5
B2B
  8
0
 62
     7
 10
3.940062999999999
 20
168.91113300000001
 30
0.0
 40
3.0
  1
Y
 50
180.0
 41
0.9777777777777776
 72
     5
 11
1.7400629999999999
 21
168.91113300000001
 31
0.0
  0
ENDBLK
  5
B2C
  8
0
  0
BLOCK
  8
0
  2
BLOCK74
 70
     0
 10
0.0
 20
0.0
 30
0.0
  3
BLOCK74
  1

  0
TEXT
  5
B2E
  8
0
 62
     7
 10
-88.348998999999992
 20
-17.625
 30
0.0
 40
3.0
  1
94,75
 50
270.0000347248174
 41
1.3990794788440191
 72
     5
 11
-88.348990999999984
 21
-30.824960999999998
 31
0.0
  0
ENDBLK
  5
B2F
  8
0
  0
BLOCK
  8
0
  2
BLOCK75
 70
     0
 10
0.0
 20
0.0
 30
0.0
  3
BLOCK75
  1

  0
TEXT
  5
B31
  8
0
 62
     7
 10
91.571854000000016
 20
16.5
 30
0.0
 40
3.0
  1
185
 50
270.00005208720751
 41
1.432750587160609
 72
     5
 11
91.571860999999998
 21
8.8000199999999982
 31
0.0
  0
ENDBLK
  5
B32
  8
0
  0
BLOCK
  8
0
  2
BLOCK76
 70
     0
 10
0.0
 20
0.0
 30
0.0
  3
BLOCK76
  1

  0
TEXT
  5
B34
  8
0
 62
     7
 10
-7.9064329999999989
 20
140.3475949999999
 30
0.0
 40
3.0
  1
35
 50
180.0
 41
1.277659424398945
 72
     5
 11
-12.856422999999999
 21
140.3475949999999
 31
0.0
  0
ENDBLK
  5
B35
  8
0
  0
BLOCK
  8
0
  2
BLOCK77
 70
     0
 10
0.0
 20
0.0
 30
0.0
  3
BLOCK77
  1

  0
TEXT
  5
B37
  8
0
 62
     7
 10
28.377762000000001
 20
140.3475949999999
 30
0.0
 40
3.0
  1
35
 50
180.0
 41
1.277659166285408
 72
     5
 11
23.427772999999998
 21
140.3475949999999
 31
0.0
  0
ENDBLK
  5
B38
  8
0
  0
BLOCK
  8
0
  2
BLOCK78
 70
     0
 10
0.0
 20
0.0
 30
0.0
  3
BLOCK78
  1

  0
TEXT
  5
B3A
  8
0
 62
     7
 10
-69.959807999999995
 20
103.49121100000001
 30
0.0
 40
3.0
  1
 15
 50
156.28080877885139
 41
1.720948793787326
 72
     5
 11
-77.009354000000002
 21
106.588562
 31
0.0
  0
ENDBLK
  5
B3B
  8
0
  0
BLOCK
  8
0
  2
BLOCK79
 70
     0
 10
0.0
 20
0.0
 30
0.0
  3
BLOCK79
  1

  0
TEXT
  5
B3D
  8
0
 62
     7
 10
-69.959807999999995
 20
103.49121100000001
 30
0.0
 40
3.0
  1
R
 50
156.2807044731457
 41
1.1282058059691431
 72
     5
 11
-71.973968999999997
 21
104.376175
 31
0.0
  0
ENDBLK
  5
B3E
  8
0
  0
ENDSEC
  0
SECTION
  2
ENTITIES
  0
LINE
  5
25
  8
0
 62
     7
 10
-99.993273000000002
 20
673.03417799999988
 30
0.0
 11
-102.4932729999999
 21
673.03417799999988
 31
0.0
  0
LINE
  5
26
  8
0
 62
     7
 10
-102.4932729999999
 20
673.03417799999988
 30
0.0
 11
-102.4932729999999
 21
674.83418099999994
 31
0.0
  0
LINE
  5
27
  8
0
 62
     7
 10
-171.74327700000001
 20
675.83418099999994
 30
0.0
 11
-201.4932729999999
 21
675.83418099999994
 31
0.0
  0
LINE
  5
28
  8
0
 62
     7
 10
-136.74320700000001
 20
675.83418099999994
 30
0.0
 11
-168.243278
 21
675.83418099999994
 31
0.0
  0
LINE
  5
29
  8
0
 62
     7
 10
-103.4932729999999
 20
675.83418099999994
 30
0.0
 11
-133.24320800000001
 21
675.83418099999994
 31
0.0
  0
LINE
  5
2A
  8
0
 62
     7
 10
-202.4932729999999
 20
673.03417799999988
 30
0.0
 11
-202.4932729999999
 21
674.83418099999994
 31
0.0
  0
LINE
  5
2B
  8
0
 62
     7
 10
-202.4932729999999
 20
673.03417799999988
 30
0.0
 11
-204.99327299999999
 21
673.03417799999988
 31
0.0
  0
LINE
  5
2C
  8
0
 62
     7
 10
-204.99328399999999
 20
669.08418800000004
 30
0.0
 11
-204.99328399999999
 21
673.03417799999988
 31
0.0
  0
LINE
  5
2D
  8
0
 62
     7
 10
-202.4932729999999
 20
506.83418099999989
 30
0.0
 11
-202.4932729999999
 21
508.08419599999991
 31
0.0
  0
LINE
  5
2E
  8
0
 62
     7
 10
-181.01324700000001
 20
505.83418099999989
 30
0.0
 11
-201.4932729999999
 21
505.83418099999989
 31
0.0
  0
LINE
  5
2F
  8
0
 62
     7
 10
-167.49327799999989
 20
669.33418099999994
 30
0.0
 11
-172.49327700000001
 21
669.33418099999994
 31
0.0
  0
LINE
  5
30
  8
0
 62
     7
 10
-102.4932729999999
 20
669.08418800000004
 30
0.0
 11
-102.4932729999999
 21
673.03417799999988
 31
0.0
  0
LINE
  5
31
  8
0
 62
     7
 10
-202.49327699999989
 20
669.08418800000004
 30
0.0
 11
-202.49327699999989
 21
673.03417799999988
 31
0.0
  0
LINE
  5
32
  8
0
 62
     7
 10
-99.993273000000002
 20
669.08418800000004
 30
0.0
 11
-99.993273000000002
 21
673.03417799999988
 31
0.0
  0
CIRCLE
  5
33
  8
0
  6
DASHSPACE
 62
     7
 10
-187.4932729999999
 20
663.33417299999996
 30
0.0
 40
5.5000010000000001
  0
CIRCLE
  5
34
  8
0
  6
DASHSPACE
 62
     7
 10
-169.99327700000001
 20
660.33418800000004
 30
0.0
 40
4.499992999999999
  0
CIRCLE
  5
35
  8
0
  6
DASHSPACE
 62
     7
 10
-152.4932419999999
 20
663.33417299999996
 30
0.0
 40
5.500030999999999
  0
ARC
  5
36
  8
0
 62
     7
 10
-134.99327500000001
 20
652.33418800000004
 30
0.0
 40
3.7500070000000001
 50
180.000125
 51
187.66229999999999
  0
CIRCLE
  5
37
  8
0
  6
DASHSPACE
 62
     7
 10
-134.99326899999991
 20
660.33418800000004
 30
0.0
 40
4.5
  0
CIRCLE
  5
38
  8
0
  6
DASHSPACE
 62
     7
 10
-117.49326499999989
 20
663.33421099999998
 30
0.0
 40
5.4999719999999996
  0
ARC
  5
39
  8
0
 62
     7
 10
-103.49326499999999
 20
674.83418800000004
 30
0.0
 40
0.999995
 50
359.99980899999991
 51
90.000230999999985
  0
ARC
  5
3A
  8
0
 62
     7
 10
-201.493269
 20
674.83418099999994
 30
0.0
 40
1.0000039999999999
 50
90.000046999999995
 51
180.00048100000001
  0
ARC
  5
3B
  8
0
 62
     7
 10
-201.4932729999999
 20
506.83418099999989
 30
0.0
 40
1.0
 50
180.00000900000001
 51
269.99999100000002
  0
LINE
  5
3C
  8
0
  6
DASHDOT
 62
     7
 10
-187.49327700000001
 20
667.43418700000007
 30
0.0
 11
-187.49327700000001
 21
676.23419799999999
 31
0.0
  0
LINE
  5
3D
  8
0
  6
DASHDOT
 62
     7
 10
-178.99327099999991
 20
663.33417299999996
 30
0.0
 11
-195.99327299999999
 21
663.33417299999996
 31
0.0
  0
LINE
  5
3E
  8
0
  6
DASHDOT
 62
     7
 10
-143.99321099999989
 20
663.33417299999996
 30
0.0
 11
-160.9932739999999
 21
663.33417299999996
 31
0.0
  0
LINE
  5
3F
  8
0
  6
DASHDOT
 62
     7
 10
-169.99327700000001
 20
652.83419600000002
 30
0.0
 11
-169.99327700000001
 21
678.19779800000003
 31
0.0
  0
LINE
  5
40
  8
0
  6
DASHDOT
 62
     7
 10
-162.49328399999999
 20
660.33418800000004
 30
0.0
 11
-177.49327099999991
 21
660.33418800000004
 31
0.0
  0
LINE
  5
41
  8
0
  6
DASHDOT
 62
     7
 10
-117.493261
 20
667.43420199999991
 30
0.0
 11
-117.493261
 21
676.23418200000003
 31
0.0
  0
LINE
  5
42
  8
0
  6
DASHDOT
 62
     7
 10
-108.993292
 20
663.33421099999998
 30
0.0
 11
-125.99323699999999
 21
663.33421099999998
 31
0.0
  0
LINE
  5
43
  8
0
  6
DASHDOT
 62
     7
 10
-187.49325400000001
 20
509.83418799999993
 30
0.0
 11
-187.49325400000001
 21
673.00031799999988
 31
0.0
  0
LINE
  5
44
  8
0
  6
DASHDOT
 62
     7
 10
-117.4932
 20
509.83392900000001
 30
0.0
 11
-117.4932
 21
674.78291899999999
 31
0.0
  0
LINE
  5
45
  8
0
  6
DASHDOT
 62
     7
 10
-117.49325399999999
 20
505.43419499999999
 30
0.0
 11
-117.49325399999999
 21
514.23418200000003
 31
0.0
  0
LINE
  5
46
  8
0
  6
DASHDOT
 62
     7
 10
-187.493258
 20
505.43417899999997
 30
0.0
 11
-187.493258
 21
514.23418200000003
 31
0.0
  0
ARC
  5
47
  8
0
 62
     7
 10
-169.99328199999991
 20
652.334204
 30
0.0
 40
3.7500239999999989
 50
352.33745699999992
 51
359.99997300000001
  0
LINE
  5
48
  8
0
 62
     3
 10
-100.4932579999999
 20
641.08419200000003
 30
0.0
 11
-204.4932419999999
 21
641.08419200000003
 31
0.0
  0
LINE
  5
49
  8
0
 62
     3
 10
-100.4932579999999
 20
536.08420699999999
 30
0.0
 11
-113.993258
 21
536.08420699999999
 31
0.0
  0
LINE
  5
4A
  8
0
 62
     3
 10
-125.493258
 20
536.08420699999999
 30
0.0
 11
-150.04396299999991
 21
536.08420699999999
 31
0.0
  0
LINE
  5
4B
  8
0
 62
     3
 10
-190.9932419999999
 20
536.08420699999999
 30
0.0
 11
-204.4932419999999
 21
536.08420699999999
 31
0.0
  0
LINE
  5
4C
  8
0
 62
     3
 10
-179.4932419999999
 20
536.08420699999999
 30
0.0
 11
-190.9932419999999
 21
536.08420699999999
 31
0.0
  0
LINE
  5
4D
  8
0
 62
     3
 10
-113.993258
 20
536.08420699999999
 30
0.0
 11
-125.493258
 21
536.08420699999999
 31
0.0
  0
LINE
  5
4E
  8
0
  6
DASHDOT
 62
     7
 10
-152.4932419999999
 20
517.96300699999995
 30
0.0
 11
-152.4932419999999
 21
621.2582799999999
 31
0.0
  0
ARC
  5
4F
  8
0
 62
     3
 10
-204.4932419999999
 20
536.58420699999999
 30
0.0
 40
0.5
 50
180.00000299999991
 51
270.00000499999987
  0
ARC
  5
50
  8
0
 62
     3
 10
-204.4932419999999
 20
640.58419200000003
 30
0.0
 40
0.5
 50
90.0
 51
180.00000299999991
  0
ARC
  5
51
  8
0
 62
     3
 10
-100.4932579999999
 20
640.58419200000003
 30
0.0
 40
0.5
 50
0.000001
 51
90.0
  0
ARC
  5
52
  8
0
 62
     3
 10
-100.4932579999999
 20
536.58420699999999
 30
0.0
 40
0.5
 50
270.00000499999987
 51
0.000001
  0
LINE
  5
53
  8
0
  6
DASHDOT
 62
     7
 10
-152.4932419999999
 20
627.03751199999988
 30
0.0
 11
-152.4932419999999
 21
655.94776000000002
 31
0.0
  0
LINE
  5
54
  8
0
 62
     3
 10
-154.94269299999991
 20
536.08420699999999
 30
0.0
 11
-179.4932419999999
 21
536.08420699999999
 31
0.0
  0
LINE
  5
55
  8
0
 62
     7
 10
-179.993258
 20
536.08419200000003
 30
0.0
 11
-189.9932419999999
 21
536.08419200000003
 31
0.0
  0
LINE
  5
56
  8
0
 62
     7
 10
-114.9932729999999
 20
536.08419200000003
 30
0.0
 11
-124.993273
 21
536.08419200000003
 31
0.0
  0
LINE
  5
57
  8
0
 62
     7
 10
-100.493242
 20
641.08419200000003
 30
0.0
 11
-204.4932419999999
 21
641.08419200000003
 31
0.0
  0
LINE
  5
58
  8
0
 62
     7
 10
-189.9932419999999
 20
536.08419200000003
 30
0.0
 11
-204.4932419999999
 21
536.08419200000003
 31
0.0
  0
LINE
  5
59
  8
0
 62
     7
 10
-124.993273
 20
536.08419200000003
 30
0.0
 11
-179.993258
 21
536.08419200000003
 31
0.0
  0
LINE
  5
5A
  8
0
 62
     7
 10
-100.493242
 20
536.08419200000003
 30
0.0
 11
-114.9932729999999
 21
536.08419200000003
 31
0.0
  0
LINE
  5
5B
  8
0
 62
     7
 10
-141.7432419999999
 20
558.33417499999985
 30
0.0
 11
-141.7432419999999
 21
598.33416
 31
0.0
  0
LINE
  5
5C
  8
0
 62
     7
 10
-163.2432419999999
 20
558.33417499999985
 30
0.0
 11
-163.2432419999999
 21
598.33416
 31
0.0
  0
LINE
  5
5D
  8
0
 62
     7
 10
-99.993242000000009
 20
629.08416199999999
 30
0.0
 11
-204.9932419999999
 21
629.08416199999999
 31
0.0
  0
LINE
  5
5E
  8
0
 62
     7
 10
-99.993242000000009
 20
639.08416199999988
 30
0.0
 11
-204.9932419999999
 21
639.08416199999988
 31
0.0
  0
LINE
  5
5F
  8
0
 62
     7
 10
-141.7432419999999
 20
598.06969400000003
 30
0.0
 11
-163.2432419999999
 21
598.06969400000003
 31
0.0
  0
LINE
  5
60
  8
0
 62
     7
 10
-141.7432419999999
 20
598.33416
 30
0.0
 11
-163.2432419999999
 21
598.33416
 31
0.0
  0
LINE
  5
61
  8
0
 62
     7
 10
-141.7432419999999
 20
558.33417499999985
 30
0.0
 11
-163.2432419999999
 21
558.33417499999985
 31
0.0
  0
LINE
  5
62
  8
0
 62
     7
 10
-141.7432419999999
 20
558.59867099999985
 30
0.0
 11
-163.2432419999999
 21
558.59867099999985
 31
0.0
  0
LINE
  5
63
  8
0
  6
DASHDOT
 62
     7
 10
-152.4932419999999
 20
451.56302399999998
 30
0.0
 11
-152.4932419999999
 21
756.16132900000002
 31
0.0
  0
LINE
  5
64
  8
0
  6
DASHDOT
 62
     7
 10
-152.4932419999999
 20
618.51386100000002
 30
0.0
 11
-152.4932419999999
 21
696.78731300000004
 31
0.0
  0
LINE
  5
65
  8
0
 62
     7
 10
-99.993258000000012
 20
536.580286
 30
0.0
 11
-99.993258000000012
 21
640.58419200000003
 31
0.0
  0
LINE
  5
66
  8
0
 62
     7
 10
-204.9932419999999
 20
536.58419200000003
 30
0.0
 11
-204.9932419999999
 21
640.58419200000003
 31
0.0
  0
ARC
  5
67
  8
0
 62
     7
 10
-204.4932419999999
 20
536.58419200000003
 30
0.0
 40
0.5
 50
180.00000299999991
 51
270.00000499999987
  0
ARC
  5
68
  8
0
 62
     7
 10
-100.493242
 20
536.58419200000003
 30
0.0
 40
0.5
 50
270.00000499999987
 51
359.55237699999992
  0
ARC
  5
69
  8
0
 62
     7
 10
-100.493242
 20
640.58419200000003
 30
0.0
 40
0.5
 50
0.000001
 51
90.0
  0
ARC
  5
6A
  8
0
 62
     7
 10
-204.4932419999999
 20
640.58419200000003
 30
0.0
 40
0.5
 50
90.0
 51
180.00000299999991
  0
LINE
  5
6B
  8
0
 62
     7
 10
-174.9932419999999
 20
599.58417499999985
 30
0.0
 11
-176.4932419999999
 21
599.58417499999985
 31
0.0
  0
LINE
  5
6C
  8
0
 62
     7
 10
-174.9932419999999
 20
590.58417499999985
 30
0.0
 11
-176.4932419999999
 21
590.58417499999985
 31
0.0
  0
CIRCLE
  5
6D
  8
0
 62
     7
 10
-175.7432419999999
 20
561.58417499999985
 30
0.0
 40
4.5
  0
CIRCLE
  5
6E
  8
0
 62
     7
 10
-175.7432419999999
 20
561.58417499999985
 30
0.0
 40
3.0
  0
LINE
  5
6F
  8
0
 62
     7
 10
-176.4932419999999
 20
590.58417499999985
 30
0.0
 11
-176.4932419999999
 21
599.58417499999985
 31
0.0
  0
LINE
  5
70
  8
0
 62
     7
 10
-174.9932419999999
 20
590.58417499999985
 30
0.0
 11
-174.9932419999999
 21
599.58417499999985
 31
0.0
  0
LINE
  5
71
  8
0
 62
     7
 10
-126.943253
 20
565.43417499999987
 30
0.0
 11
-127.39325100000001
 21
565.43417499999987
 31
0.0
  0
LINE
  5
72
  8
0
 62
     7
 10
-127.89325100000001
 20
557.73417500000005
 30
0.0
 11
-128.693253
 21
557.73417500000005
 31
0.0
  0
LINE
  5
73
  8
0
 62
     7
 10
-135.09325200000001
 20
560.33417499999985
 30
0.0
 11
-135.09325200000001
 21
560.83417499999996
 31
0.0
  0
LINE
  5
74
  8
0
 62
     7
 10
-129.89325099999991
 20
560.33417499999985
 30
0.0
 11
-129.89325099999991
 21
560.83417499999996
 31
0.0
  0
ARC
  5
75
  8
0
 62
     7
 10
-132.49325200000001
 20
560.83417499999996
 30
0.0
 40
2.6000000000000001
 50
0.000001
 51
180.00000299999991
  0
ARC
  5
76
  8
0
 62
     7
 10
-132.49325200000001
 20
560.33417499999985
 30
0.0
 40
2.6000000000000001
 50
180.00000299999991
 51
0.000001
  0
ARC
  5
77
  8
0
 62
     7
 10
-132.49325200000001
 20
560.83417499999996
 30
0.0
 40
1.8
 50
0.000001
 51
180.00000299999991
  0
ARC
  5
78
  8
0
 62
     7
 10
-132.49325200000001
 20
560.33417499999985
 30
0.0
 40
1.8
 50
180.00000299999991
 51
0.000001
  0
LINE
  5
79
  8
0
 62
     7
 10
-134.29325299999991
 20
560.33417499999985
 30
0.0
 11
-134.29325299999991
 21
560.83417499999996
 31
0.0
  0
LINE
  5
7A
  8
0
 62
     7
 10
-130.693253
 20
560.33417499999985
 30
0.0
 11
-130.693253
 21
560.83417499999996
 31
0.0
  0
LINE
  5
7B
  8
0
 62
     7
 10
-129.64325099999999
 20
562.23417500000005
 30
0.0
 11
-129.64325099999999
 21
563.034175
 31
0.0
  0
LINE
  5
7C
  8
0
 62
     7
 10
-128.693253
 20
562.23417500000005
 30
0.0
 11
-129.64325099999999
 21
562.23417500000005
 31
0.0
  0
LINE
  5
7D
  8
0
 62
     7
 10
-126.943253
 20
562.23417500000005
 30
0.0
 11
-126.943253
 21
563.034175
 31
0.0
  0
LINE
  5
7E
  8
0
 62
     7
 10
-128.693253
 20
563.034175
 30
0.0
 11
-129.64325099999999
 21
563.034175
 31
0.0
  0
LINE
  5
7F
  8
0
 62
     7
 10
-128.693253
 20
557.73417500000005
 30
0.0
 11
-128.693253
 21
562.23417500000005
 31
0.0
  0
LINE
  5
80
  8
0
 62
     7
 10
-127.89325100000001
 20
557.73417500000005
 30
0.0
 11
-127.89325100000001
 21
562.23417500000005
 31
0.0
  0
LINE
  5
81
  8
0
 62
     7
 10
-126.943253
 20
562.23417500000005
 30
0.0
 11
-127.89325100000001
 21
562.23417500000005
 31
0.0
  0
LINE
  5
82
  8
0
 62
     7
 10
-126.943253
 20
563.034175
 30
0.0
 11
-127.89325100000001
 21
563.034175
 31
0.0
  0
LINE
  5
83
  8
0
 62
     7
 10
-128.693253
 20
563.034175
 30
0.0
 11
-128.693253
 21
564.13417500000003
 31
0.0
  0
LINE
  5
84
  8
0
 62
     7
 10
-127.89325100000001
 20
563.034175
 30
0.0
 11
-127.89325100000001
 21
564.13417500000003
 31
0.0
  0
ARC
  5
85
  8
0
 62
     7
 10
-127.39325100000001
 20
564.13417500000003
 30
0.0
 40
1.3
 50
90.000010000000003
 51
180.00000299999991
  0
ARC
  5
86
  8
0
 62
     7
 10
-127.39325100000001
 20
564.13417500000003
 30
0.0
 40
0.5
 50
90.000010000000003
 51
180.00000299999991
  0
LINE
  5
87
  8
0
 62
     7
 10
-126.943253
 20
564.63417500000003
 30
0.0
 11
-126.943253
 21
565.43417499999987
 31
0.0
  0
LINE
  5
88
  8
0
 62
     7
 10
-126.943253
 20
564.63417500000003
 30
0.0
 11
-127.39325100000001
 21
564.63417500000003
 31
0.0
  0
LINE
  5
89
  8
0
 62
     7
 10
-123.743252
 20
565.43417499999987
 30
0.0
 11
-124.1932529999999
 21
565.43417499999987
 31
0.0
  0
LINE
  5
8A
  8
0
 62
     7
 10
-124.693253
 20
557.73417500000005
 30
0.0
 11
-125.493252
 21
557.73417500000005
 31
0.0
  0
LINE
  5
8B
  8
0
 62
     7
 10
-126.443253
 20
562.23417500000005
 30
0.0
 11
-126.443253
 21
563.034175
 31
0.0
  0
LINE
  5
8C
  8
0
 62
     7
 10
-125.493252
 20
562.23417500000005
 30
0.0
 11
-126.443253
 21
562.23417500000005
 31
0.0
  0
LINE
  5
8D
  8
0
 62
     7
 10
-123.743252
 20
562.23417500000005
 30
0.0
 11
-123.743252
 21
563.034175
 31
0.0
  0
LINE
  5
8E
  8
0
 62
     7
 10
-125.493252
 20
563.034175
 30
0.0
 11
-126.443253
 21
563.034175
 31
0.0
  0
LINE
  5
8F
  8
0
 62
     7
 10
-125.493252
 20
557.73417500000005
 30
0.0
 11
-125.493252
 21
562.23417500000005
 31
0.0
  0
LINE
  5
90
  8
0
 62
     7
 10
-124.693253
 20
557.73417500000005
 30
0.0
 11
-124.693253
 21
562.23417500000005
 31
0.0
  0
LINE
  5
91
  8
0
 62
     7
 10
-123.743252
 20
562.23417500000005
 30
0.0
 11
-124.693253
 21
562.23417500000005
 31
0.0
  0
LINE
  5
92
  8
0
 62
     7
 10
-123.743252
 20
563.034175
 30
0.0
 11
-124.693253
 21
563.034175
 31
0.0
  0
LINE
  5
93
  8
0
 62
     7
 10
-125.493252
 20
563.034175
 30
0.0
 11
-125.493252
 21
564.13417500000003
 31
0.0
  0
LINE
  5
94
  8
0
 62
     7
 10
-124.693253
 20
563.034175
 30
0.0
 11
-124.693253
 21
564.13417500000003
 31
0.0
  0
ARC
  5
95
  8
0
 62
     7
 10
-124.1932529999999
 20
564.13417500000003
 30
0.0
 40
1.3
 50
90.000010000000003
 51
180.00000299999991
  0
ARC
  5
96
  8
0
 62
     7
 10
-124.1932529999999
 20
564.13417500000003
 30
0.0
 40
0.5
 50
90.000010000000003
 51
180.00000299999991
  0
LINE
  5
97
  8
0
 62
     7
 10
-123.743252
 20
564.63417500000003
 30
0.0
 11
-123.743252
 21
565.43417499999987
 31
0.0
  0
LINE
  5
98
  8
0
 62
     7
 10
-123.743252
 20
564.63417500000003
 30
0.0
 11
-124.1932529999999
 21
564.63417500000003
 31
0.0
  0
LINE
  5
99
  8
0
 62
     7
 10
-128.29325299999991
 20
592.23417500000005
 30
0.0
 11
-129.09325200000001
 21
592.23417500000005
 31
0.0
  0
ARC
  5
9A
  8
0
 62
     7
 10
-132.49325200000001
 20
595.33417499999985
 30
0.0
 40
2.6000000000000001
 50
0.000001
 51
180.00000299999991
  0
ARC
  5
9B
  8
0
 62
     7
 10
-132.49325200000001
 20
595.33417499999985
 30
0.0
 40
1.8
 50
0.000001
 51
180.00000299999991
  0
ARC
  5
9C
  8
0
 62
     7
 10
-132.49325200000001
 20
594.83417499999985
 30
0.0
 40
2.6000000000000001
 50
180.00000299999991
 51
0.000001
  0
ARC
  5
9D
  8
0
 62
     7
 10
-132.49325200000001
 20
594.83417499999985
 30
0.0
 40
1.8
 50
180.00000299999991
 51
0.000001
  0
LINE
  5
9E
  8
0
 62
     7
 10
-130.693253
 20
594.83417499999985
 30
0.0
 11
-130.693253
 21
595.33417499999985
 31
0.0
  0
LINE
  5
9F
  8
0
 62
     7
 10
-129.89325099999991
 20
594.83417499999985
 30
0.0
 11
-129.89325099999991
 21
595.33417499999985
 31
0.0
  0
LINE
  5
A0
  8
0
 62
     7
 10
-134.29325299999991
 20
594.83417499999985
 30
0.0
 11
-134.29325299999991
 21
595.33417499999985
 31
0.0
  0
LINE
  5
A1
  8
0
 62
     7
 10
-135.09325200000001
 20
594.83417499999985
 30
0.0
 11
-135.09325200000001
 21
595.33417499999985
 31
0.0
  0
LINE
  5
A2
  8
0
 62
     7
 10
-129.09325200000001
 20
592.23417500000005
 30
0.0
 11
-129.09325200000001
 21
597.93417499999987
 31
0.0
  0
LINE
  5
A3
  8
0
 62
     7
 10
-128.29325299999991
 20
592.23417500000005
 30
0.0
 11
-128.29325299999991
 21
595.73417500000005
 31
0.0
  0
LINE
  5
A4
  8
0
 62
     7
 10
-125.493252
 20
592.23417500000005
 30
0.0
 11
-125.493252
 21
595.73417500000005
 31
0.0
  0
LINE
  5
A5
  8
0
 62
     7
 10
-124.693253
 20
592.23417500000005
 30
0.0
 11
-124.693253
 21
595.93417499999998
 31
0.0
  0
LINE
  5
A6
  8
0
 62
     7
 10
-128.29325299999991
 20
597.93417499999987
 30
0.0
 11
-129.09325200000001
 21
597.93417499999987
 31
0.0
  0
ARC
  5
A7
  8
0
 62
     7
 10
-126.89325100000001
 20
595.73417500000005
 30
0.0
 40
1.399999999999999
 50
0.000001
 51
180.00000299999991
  0
LINE
  5
A8
  8
0
 62
     7
 10
-128.29325299999991
 20
597.13417400000003
 30
0.0
 11
-128.29325299999991
 21
597.93417499999987
 31
0.0
  0
ARC
  5
A9
  8
0
 62
     7
 10
-126.693253
 20
595.93417499999998
 30
0.0
 40
2.0
 50
0.000001
 51
143.13010199999999
  0
LINE
  5
AA
  8
0
 62
     7
 10
-124.693253
 20
592.23417500000005
 30
0.0
 11
-125.493252
 21
592.23417500000005
 31
0.0
  0
LINE
  5
AB
  8
0
 62
     7
 10
-171.74327700000001
 20
672.83418099999994
 30
0.0
 11
-171.74327700000001
 21
675.83418099999994
 31
0.0
  0
LINE
  5
AC
  8
0
 62
     7
 10
-168.243278
 20
672.83418099999994
 30
0.0
 11
-168.243278
 21
675.83418099999994
 31
0.0
  0
LINE
  5
AD
  8
0
 62
     7
 10
-172.49327700000001
 20
669.33418099999994
 30
0.0
 11
-172.49327700000001
 21
672.83418099999994
 31
0.0
  0
LINE
  5
AE
  8
0
 62
     7
 10
-167.49327799999989
 20
669.33418099999994
 30
0.0
 11
-167.49327799999989
 21
672.83418099999994
 31
0.0
  0
LINE
  5
AF
  8
0
 62
     7
 10
-167.49327799999989
 20
672.83418099999994
 30
0.0
 11
-168.243278
 21
672.83418099999994
 31
0.0
  0
LINE
  5
B0
  8
0
 62
     7
 10
-171.74327700000001
 20
672.83418099999994
 30
0.0
 11
-172.49327700000001
 21
672.83418099999994
 31
0.0
  0
LINE
  5
B1
  8
0
 62
     7
 10
-136.74320700000001
 20
672.83418099999994
 30
0.0
 11
-136.74320700000001
 21
675.83418099999994
 31
0.0
  0
LINE
  5
B2
  8
0
 62
     7
 10
-133.24320800000001
 20
672.83418099999994
 30
0.0
 11
-133.24320800000001
 21
675.83418099999994
 31
0.0
  0
LINE
  5
B3
  8
0
 62
     7
 10
-132.49320800000001
 20
669.33418099999994
 30
0.0
 11
-132.49320800000001
 21
672.83418099999994
 31
0.0
  0
LINE
  5
B4
  8
0
 62
     7
 10
-132.49320800000001
 20
669.33418099999994
 30
0.0
 11
-137.49320700000001
 21
669.33418099999994
 31
0.0
  0
LINE
  5
B5
  8
0
 62
     7
 10
-137.49320700000001
 20
669.33418099999994
 30
0.0
 11
-137.49320700000001
 21
672.83418099999994
 31
0.0
  0
LINE
  5
B6
  8
0
 62
     7
 10
-132.49320800000001
 20
672.83418099999994
 30
0.0
 11
-133.24320800000001
 21
672.83418099999994
 31
0.0
  0
LINE
  5
B7
  8
0
 62
     7
 10
-136.74320700000001
 20
672.83418099999994
 30
0.0
 11
-137.49320700000001
 21
672.83418099999994
 31
0.0
  0
LINE
  5
B8
  8
0
 62
     7
 10
-141.7432419999999
 20
572.45949599999994
 30
0.0
 11
-163.2432419999999
 21
572.45949599999994
 31
0.0
  0
LINE
  5
B9
  8
0
 62
     7
 10
-141.7432419999999
 20
566.34302999999989
 30
0.0
 11
-163.2432419999999
 21
566.34302999999989
 31
0.0
  0
LINE
  5
BA
  8
0
 62
     7
 10
-141.7432419999999
 20
560.39521200000001
 30
0.0
 11
-163.2432419999999
 21
560.39521200000001
 31
0.0
  0
LINE
  5
BB
  8
0
 62
     7
 10
-141.7432419999999
 20
559.59246399999995
 30
0.0
 11
-163.2432419999999
 21
559.59246399999995
 31
0.0
  0
LINE
  5
BC
  8
0
  6
DASHDOT
 62
     7
 10
-56.561585999999998
 20
588.58419000000004
 30
0.0
 11
-241.96291500000001
 21
588.58419000000004
 31
0.0
  0
LINE
  5
BD
  8
0
  6
DASHDOT
 62
     7
 10
-260.36672399999998
 20
588.58419000000004
 30
0.0
 11
-280.47458799999998
 21
588.58419000000004
 31
0.0
  0
LINE
  5
BE
  8
0
 62
     7
 10
-198.49325799999991
 20
478.33418099999989
 30
0.0
 11
-198.49325799999991
 21
505.43417899999997
 31
0.0
  0
LINE
  5
BF
  8
0
 62
     7
 10
-176.49325899999991
 20
478.33418099999989
 30
0.0
 11
-176.49325899999991
 21
481.68893200000002
 31
0.0
  0
LINE
  5
C0
  8
0
 62
     7
 10
-176.49325899999991
 20
478.33418099999989
 30
0.0
 11
-198.49325799999991
 21
478.33418099999989
 31
0.0
  0
CIRCLE
  5
C1
  8
0
 62
     7
 10
-187.493258
 20
497.33418099999989
 30
0.0
 40
8.0
  0
LINE
  5
C2
  8
0
  6
DASHSPACE
 62
     7
 10
-195.49325799999991
 20
478.33418099999989
 30
0.0
 11
-195.49325799999991
 21
497.33418099999989
 31
0.0
  0
LINE
  5
C3
  8
0
  6
DASHSPACE
 62
     7
 10
-179.49325899999991
 20
478.33418099999989
 30
0.0
 11
-179.49325899999991
 21
497.33418099999989
 31
0.0
  0
LINE
  5
C4
  8
0
  6
DASHSPACE
 62
     7
 10
-180.99325899999999
 20
478.33418099999989
 30
0.0
 11
-180.99325899999999
 21
492.67049199999991
 31
0.0
  0
LINE
  5
C5
  8
0
  6
DASHSPACE
 62
     7
 10
-193.99325799999991
 20
478.33418099999989
 30
0.0
 11
-193.99325799999991
 21
492.67049199999991
 31
0.0
  0
LINE
  5
C6
  8
0
  6
DASHDOT
 62
     7
 10
-134.99326899999991
 20
653.37566200000003
 30
0.0
 11
-134.99326899999991
 21
678.76137300000005
 31
0.0
  0
LINE
  5
C7
  8
0
  6
DASHDOT
 62
     7
 10
-128.408873
 20
660.33418800000004
 30
0.0
 11
-141.727834
 21
660.33418800000004
 31
0.0
  0
LINE
  5
C8
  8
0
 62
     1
 10
-99.993242000000009
 20
461.08418099999989
 30
0.0
 11
-99.993242000000009
 21
508.08419599999991
 31
0.0
  0
LINE
  5
C9
  8
0
 62
     1
 10
-101.243242
 20
459.83418099999989
 30
0.0
 11
-169.09420600000001
 21
459.83418099999989
 31
0.0
  0
ARC
  5
CA
  8
0
 62
     1
 10
-101.243242
 20
461.08418099999989
 30
0.0
 40
1.25
 50
270.00000499999987
 51
0.000001
  0
LINE
  5
CB
  8
0
 62
     1
 10
-103.59324100000001
 20
459.83418099999989
 30
0.0
 11
-103.59324100000001
 21
508.08419599999991
 31
0.0
  0
LINE
  5
CC
  8
0
 62
     1
 10
-107.1932429999999
 20
459.83418099999989
 30
0.0
 11
-107.1932429999999
 21
508.08419599999991
 31
0.0
  0
LINE
  5
CD
  8
0
 62
     1
 10
-110.79324200000001
 20
459.83418099999989
 30
0.0
 11
-110.79324200000001
 21
508.08419599999991
 31
0.0
  0
LINE
  5
CE
  8
0
 62
     1
 10
-114.3932439999999
 20
459.83418099999989
 30
0.0
 11
-114.3932439999999
 21
508.08419599999991
 31
0.0
  0
LINE
  5
CF
  8
0
 62
     1
 10
-117.9932419999999
 20
459.83418099999989
 30
0.0
 11
-117.9932419999999
 21
508.08419599999991
 31
0.0
  0
LINE
  5
D0
  8
0
 62
     1
 10
-121.5932429999999
 20
459.83418099999989
 30
0.0
 11
-121.5932429999999
 21
508.08419599999991
 31
0.0
  0
LINE
  5
D1
  8
0
 62
     1
 10
-125.1932429999999
 20
459.83418099999989
 30
0.0
 11
-125.1932429999999
 21
508.08419599999991
 31
0.0
  0
LINE
  5
D2
  8
0
 62
     1
 10
-128.79324199999991
 20
459.83418099999989
 30
0.0
 11
-128.79324199999991
 21
508.08419599999991
 31
0.0
  0
LINE
  5
D3
  8
0
 62
     1
 10
-132.3932419999999
 20
459.83418099999989
 30
0.0
 11
-132.3932419999999
 21
508.08419599999991
 31
0.0
  0
LINE
  5
D4
  8
0
 62
     1
 10
-135.9932419999999
 20
459.83418099999989
 30
0.0
 11
-135.9932419999999
 21
508.08419599999991
 31
0.0
  0
LINE
  5
D5
  8
0
 62
     1
 10
-139.593243
 20
459.83418099999989
 30
0.0
 11
-139.593243
 21
508.08419599999991
 31
0.0
  0
LINE
  5
D6
  8
0
 62
     1
 10
-143.193242
 20
459.83418099999989
 30
0.0
 11
-143.193242
 21
508.08419599999991
 31
0.0
  0
LINE
  5
D7
  8
0
 62
     1
 10
-146.79324199999991
 20
459.83418099999989
 30
0.0
 11
-146.79324199999991
 21
508.08419599999991
 31
0.0
  0
LINE
  5
D8
  8
0
 62
     1
 10
-150.3932419999999
 20
459.83418099999989
 30
0.0
 11
-150.3932419999999
 21
508.08419599999991
 31
0.0
  0
LINE
  5
D9
  8
0
 62
     1
 10
-153.9932419999999
 20
459.83418099999989
 30
0.0
 11
-153.9932419999999
 21
508.08419599999991
 31
0.0
  0
LINE
  5
DA
  8
0
 62
     1
 10
-157.593242
 20
459.83418099999989
 30
0.0
 11
-157.593242
 21
508.08419599999991
 31
0.0
  0
LINE
  5
DB
  8
0
 62
     1
 10
-161.193242
 20
459.83418099999989
 30
0.0
 11
-161.193242
 21
508.08419599999991
 31
0.0
  0
LINE
  5
DC
  8
0
 62
     1
 10
-164.79324199999999
 20
459.83418099999989
 30
0.0
 11
-164.79324199999999
 21
508.08419599999991
 31
0.0
  0
LINE
  5
DD
  8
0
 62
     1
 10
-168.3932419999999
 20
459.83418099999989
 30
0.0
 11
-168.3932419999999
 21
508.08419599999991
 31
0.0
  0
LINE
  5
DE
  8
0
 62
     1
 10
-171.9932419999999
 20
464.32667300000003
 30
0.0
 11
-171.9932419999999
 21
508.08419599999991
 31
0.0
  0
LINE
  5
DF
  8
0
 62
     1
 10
-175.593243
 20
477.75933600000002
 30
0.0
 11
-175.593243
 21
508.08419599999991
 31
0.0
  0
LINE
  5
E0
  8
0
 62
     1
 10
-179.19324299999991
 20
501.34945499999992
 30
0.0
 11
-179.19324299999991
 21
508.08419599999991
 31
0.0
  0
POLYLINE
  5
E1
  8
0
 62
     1
 66
     1
 10
0.0
 20
0.0
 30
0.0
  0
VERTEX
  5
BA2
  8
0
 62
     1
 10
-169.093727
 20
459.83444800000001
 30
0.0
  0
VERTEX
  5
BA3
  8
0
 62
     1
 10
-169.473164
 20
460.36222599999991
 30
0.0
  0
VERTEX
  5
BA4
  8
0
 62
     1
 10
-169.66174099999989
 20
460.62966699999993
 30
0.0
  0
VERTEX
  5
BA5
  8
0
 62
     1
 10
-169.84886
 20
460.89853499999998
 30
0.0
  0
VERTEX
  5
BA6
  8
0
 62
     1
 10
-170.032354
 20
461.16571599999997
 30
0.0
  0
VERTEX
  5
BA7
  8
0
 62
     1
 10
-170.21433099999999
 20
461.43430899999998
 30
0.0
  0
VERTEX
  5
BA8
  8
0
 62
     1
 10
-170.38990000000001
 20
461.6970649999999
 30
0.0
  0
VERTEX
  5
BA9
  8
0
 62
     1
 10
-170.56388699999999
 20
461.96118699999988
 30
0.0
  0
VERTEX
  5
BAA
  8
0
 62
     1
 10
-170.72957199999991
 20
462.21642100000003
 30
0.0
  0
VERTEX
  5
BAB
  8
0
 62
     1
 10
-170.89361
 20
462.472959
 30
0.0
  0
VERTEX
  5
BAC
  8
0
 62
     1
 10
-171.04843099999999
 20
462.71889299999992
 30
0.0
  0
VERTEX
  5
BAD
  8
0
 62
     1
 10
-171.20154600000001
 20
462.96606300000002
 30
0.0
  0
VERTEX
  5
BAE
  8
0
 62
     1
 10
-171.27136200000001
 20
463.08015999999992
 30
0.0
  0
VERTEX
  5
BAF
  8
0
 62
     1
 10
-171.41251199999999
 20
463.31375700000001
 30
0.0
  0
VERTEX
  5
BB0
  8
0
 62
     1
 10
-171.55179200000001
 20
463.54851300000001
 30
0.0
  0
VERTEX
  5
BB1
  8
0
 62
     1
 10
-171.67741599999991
 20
463.76434099999989
 30
0.0
  0
VERTEX
  5
BB2
  8
0
 62
     1
 10
-171.80114900000001
 20
463.98116900000002
 30
0.0
  0
VERTEX
  5
BB3
  8
0
 62
     1
 10
-171.91527699999989
 20
464.18533899999989
 30
0.0
  0
VERTEX
  5
BB4
  8
0
 62
     1
 10
-172.027502
 20
464.3904169999999
 30
0.0
  0
VERTEX
  5
BB5
  8
0
 62
     1
 10
-172.13235900000001
 20
464.58629400000001
 30
0.0
  0
VERTEX
  5
BB6
  8
0
 62
     1
 10
-172.2353019999999
 20
464.78301799999991
 30
0.0
  0
VERTEX
  5
BB7
  8
0
 62
     1
 10
-172.332279
 20
464.97274599999997
 30
0.0
  0
VERTEX
  5
BB8
  8
0
 62
     1
 10
-172.4273399999999
 20
465.16325899999998
 30
0.0
  0
VERTEX
  5
BB9
  8
0
 62
     1
 10
-172.51738899999989
 20
465.34829499999989
 30
0.0
  0
VERTEX
  5
BBA
  8
0
 62
     1
 10
-172.6055179999999
 20
465.53407900000002
 30
0.0
  0
VERTEX
  5
BBB
  8
0
 62
     1
 10
-172.68932699999991
 20
465.71548300000001
 30
0.0
  0
VERTEX
  5
BBC
  8
0
 62
     1
 10
-172.77121199999999
 20
465.89760399999989
 30
0.0
  0
VERTEX
  5
BBD
  8
0
 62
     1
 10
-172.8492929999999
 20
466.07620800000001
 30
0.0
  0
VERTEX
  5
BBE
  8
0
 62
     1
 10
-172.9254489999999
 20
466.25549099999989
 30
0.0
  0
VERTEX
  5
BBF
  8
0
 62
     1
 10
-172.9982029999999
 20
466.43193600000001
 30
0.0
  0
VERTEX
  5
BC0
  8
0
 62
     1
 10
-173.06903099999991
 20
466.60904499999998
 30
0.0
  0
VERTEX
  5
BC1
  8
0
 62
     1
 10
-173.13677599999991
 20
466.78387300000003
 30
0.0
  0
VERTEX
  5
BC2
  8
0
 62
     1
 10
-173.2025909999999
 20
466.95933300000002
 30
0.0
  0
VERTEX
  5
BC3
  8
0
 62
     1
 10
-173.26558099999991
 20
467.13300099999998
 30
0.0
  0
VERTEX
  5
BC4
  8
0
 62
     1
 10
-173.32664299999999
 20
467.30727999999988
 30
0.0
  0
VERTEX
  5
BC5
  8
0
 62
     1
 10
-173.440166
 20
467.64918299999988
 30
0.0
  0
VERTEX
  5
BC6
  8
0
 62
     1
 10
-173.546606
 20
467.99471899999998
 30
0.0
  0
VERTEX
  5
BC7
  8
0
 62
     1
 10
-173.64940100000001
 20
468.35509300000001
 30
0.0
  0
VERTEX
  5
BC8
  8
0
 62
     1
 10
-173.74901399999999
 20
468.73286200000001
 30
0.0
  0
VERTEX
  5
BC9
  8
0
 62
     1
 10
-173.84606599999989
 20
469.13151399999992
 30
0.0
  0
VERTEX
  5
BCA
  8
0
 62
     1
 10
-173.94142199999999
 20
469.55600500000003
 30
0.0
  0
VERTEX
  5
BCB
  8
0
 62
     1
 10
-174.03639599999991
 20
470.01394499999998
 30
0.0
  0
VERTEX
  5
BCC
  8
0
 62
     1
 10
-174.13318399999989
 20
470.518057
 30
0.0
  0
VERTEX
  5
BCD
  8
0
 62
     1
 10
-174.236053
 20
471.09319900000003
 30
0.0
  0
VERTEX
  5
BCE
  8
0
 62
     1
 10
-174.35602399999991
 20
471.80341900000002
 30
0.0
  0
VERTEX
  5
BCF
  8
0
 62
     1
 10
-174.556997
 20
473.01364699999988
 30
0.0
  0
VERTEX
  5
BD0
  8
0
 62
     1
 10
-174.6247789999999
 20
473.40495099999998
 30
0.0
  0
VERTEX
  5
BD1
  8
0
 62
     1
 10
-174.695438
 20
473.795546
 30
0.0
  0
VERTEX
  5
BD2
  8
0
 62
     1
 10
-174.78667300000001
 20
474.2694909999999
 30
0.0
  0
SEQEND
  5
BD3
  8
0
 62
     1
  0
POLYLINE
  5
114
  8
0
 62
     1
 66
     1
 10
0.0
 20
0.0
 30
0.0
  0
VERTEX
  5
BD4
  8
0
 62
     1
 10
-174.78667300000001
 20
474.2694909999999
 30
0.0
  0
VERTEX
  5
BD5
  8
0
 62
     1
 10
-174.92255800000001
 20
474.94286899999997
 30
0.0
  0
VERTEX
  5
BD6
  8
0
 62
     1
 10
-175.08305699999991
 20
475.6715759999999
 30
0.0
  0
VERTEX
  5
BD7
  8
0
 62
     1
 10
-175.27663799999991
 20
476.49070499999988
 30
0.0
  0
VERTEX
  5
BD8
  8
0
 62
     1
 10
-175.52580599999999
 20
477.49294099999997
 30
0.0
  0
VERTEX
  5
BD9
  8
0
 62
     1
 10
-175.7502519999999
 20
478.37941499999999
 30
0.0
  0
VERTEX
  5
BDA
  8
0
 62
     1
 10
-175.97094199999989
 20
479.26626399999992
 30
0.0
  0
VERTEX
  5
BDB
  8
0
 62
     1
 10
-176.0882189999999
 20
479.75565099999989
 30
0.0
  0
VERTEX
  5
BDC
  8
0
 62
     1
 10
-176.20076900000001
 20
480.24600800000002
 30
0.0
  0
VERTEX
  5
BDD
  8
0
 62
     1
 10
-176.25215
 20
480.47923099999991
 30
0.0
  0
VERTEX
  5
BDE
  8
0
 62
     1
 10
-176.32588399999989
 20
480.82718499999987
 30
0.0
  0
VERTEX
  5
BDF
  8
0
 62
     1
 10
-176.3962139999999
 20
481.1758559999999
 30
0.0
  0
VERTEX
  5
BE0
  8
0
 62
     1
 10
-176.52620099999999
 20
481.87274000000002
 30
0.0
  0
VERTEX
  5
BE1
  8
0
 62
     1
 10
-176.64380499999999
 20
482.57821500000011
 30
0.0
  0
VERTEX
  5
BE2
  8
0
 62
     1
 10
-176.75053199999991
 20
483.30149599999987
 30
0.0
  0
VERTEX
  5
BE3
  8
0
 62
     1
 10
-176.84794600000001
 20
484.05441100000002
 30
0.0
  0
VERTEX
  5
BE4
  8
0
 62
     1
 10
-176.938005
 20
484.85467299999999
 30
0.0
  0
VERTEX
  5
BE5
  8
0
 62
     1
 10
-177.02383199999991
 20
485.73423600000001
 30
0.0
  0
VERTEX
  5
BE6
  8
0
 62
     1
 10
-177.11235999999991
 20
486.76905599999992
 30
0.0
  0
VERTEX
  5
BE7
  8
0
 62
     1
 10
-177.129559
 20
486.9822749999999
 30
0.0
  0
VERTEX
  5
BE8
  8
0
 62
     1
 10
-177.26971399999999
 20
488.78809199999989
 30
0.0
  0
VERTEX
  5
BE9
  8
0
 62
     1
 10
-177.42538999999991
 20
490.78583300000003
 30
0.0
  0
VERTEX
  5
BEA
  8
0
 62
     1
 10
-177.59877599999999
 20
492.78208699999988
 30
0.0
  0
VERTEX
  5
BEB
  8
0
 62
     1
 10
-177.6604439999999
 20
493.41671600000001
 30
0.0
  0
VERTEX
  5
BEC
  8
0
 62
     1
 10
-177.7267379999999
 20
494.05109999999991
 30
0.0
  0
VERTEX
  5
BED
  8
0
 62
     1
 10
-177.781914
 20
494.5415099999999
 30
0.0
  0
VERTEX
  5
BEE
  8
0
 62
     1
 10
-177.8410429999999
 20
495.03146199999998
 30
0.0
  0
VERTEX
  5
BEF
  8
0
 62
     1
 10
-177.89657999999989
 20
495.46092800000002
 30
0.0
  0
VERTEX
  5
BF0
  8
0
 62
     1
 10
-177.95587699999999
 20
495.88984499999998
 30
0.0
  0
VERTEX
  5
BF1
  8
0
 62
     1
 10
-178.01367999999999
 20
496.28158400000001
 30
0.0
  0
VERTEX
  5
BF2
  8
0
 62
     1
 10
-178.07514399999991
 20
496.67272000000003
 30
0.0
  0
VERTEX
  5
BF3
  8
0
 62
     1
 10
-178.13610299999999
 20
497.03760299999999
 30
0.0
  0
VERTEX
  5
BF4
  8
0
 62
     1
 10
-178.20065899999989
 20
497.4018309999999
 30
0.0
  0
VERTEX
  5
BF5
  8
0
 62
     1
 10
-178.26528200000001
 20
497.7460769999999
 30
0.0
  0
VERTEX
  5
BF6
  8
0
 62
     1
 10
-178.33346199999991
 20
498.08962100000002
 30
0.0
  0
VERTEX
  5
BF7
  8
0
 62
     1
 10
-178.40207899999999
 20
498.41721100000001
 30
0.0
  0
VERTEX
  5
BF8
  8
0
 62
     1
 10
-178.47421800000001
 20
498.744055
 30
0.0
  0
VERTEX
  5
BF9
  8
0
 62
     1
 10
-178.477318
 20
498.75772699999987
 30
0.0
  0
VERTEX
  5
BFA
  8
0
 62
     1
 10
-178.55024299999999
 20
499.07111900000001
 30
0.0
  0
VERTEX
  5
BFB
  8
0
 62
     1
 10
-178.62660199999999
 20
499.38371799999987
 30
0.0
  0
VERTEX
  5
BFC
  8
0
 62
     1
 10
-178.70505
 20
499.69016799999991
 30
0.0
  0
VERTEX
  5
BFD
  8
0
 62
     1
 10
-178.78688
 20
499.99574799999999
 30
0.0
  0
VERTEX
  5
BFE
  8
0
 62
     1
 10
-178.871408
 20
500.29798699999998
 30
0.0
  0
VERTEX
  5
BFF
  8
0
 62
     1
 10
-178.95927399999991
 20
500.59929499999998
 30
0.0
  0
VERTEX
  5
C00
  8
0
 62
     1
 10
-179.14500000000001
 20
501.19921699999998
 30
0.0
  0
VERTEX
  5
C01
  8
0
 62
     1
 10
-179.34550899999999
 20
501.80038999999999
 30
0.0
  0
VERTEX
  5
C02
  8
0
 62
     1
 10
-179.56265300000001
 20
502.40817099999992
 30
0.0
  0
VERTEX
  5
C03
  8
0
 62
     1
 10
-179.7989649999999
 20
503.02915000000002
 30
0.0
  0
VERTEX
  5
C04
  8
0
 62
     1
 10
-180.0581949999999
 20
503.672392
 30
0.0
  0
VERTEX
  5
C05
  8
0
 62
     1
 10
-180.34643600000001
 20
504.35191900000001
 30
0.0
  0
VERTEX
  5
C06
  8
0
 62
     1
 10
-180.410561
 20
504.49899099999988
 30
0.0
  0
VERTEX
  5
C07
  8
0
 62
     1
 10
-180.74979999999999
 20
505.25864999999999
 30
0.0
  0
VERTEX
  5
C08
  8
0
 62
     1
 10
-181.19643999999991
 20
506.230368
 30
0.0
  0
VERTEX
  5
C09
  8
0
 62
     1
 10
-181.62537599999999
 20
507.15659900000003
 30
0.0
  0
VERTEX
  5
C0A
  8
0
 62
     1
 10
-182.048304
 20
508.08452399999999
 30
0.0
  0
SEQEND
  5
C0B
  8
0
 62
     1
  0
LINE
  5
14D
  8
0
 62
     7
 10
-176.49325899999991
 20
703.33419600000002
 30
0.0
 11
-198.49325799999991
 21
703.33419600000002
 31
0.0
  0
LINE
  5
14E
  8
0
 62
     7
 10
-176.49325899999991
 20
699.97944399999994
 30
0.0
 11
-176.49325899999991
 21
703.33419600000002
 31
0.0
  0
LINE
  5
14F
  8
0
  6
DASHSPACE
 62
     7
 10
-179.49325899999991
 20
684.33419600000002
 30
0.0
 11
-179.49325899999991
 21
703.33419600000002
 31
0.0
  0
LINE
  5
150
  8
0
  6
DASHSPACE
 62
     7
 10
-180.99325899999999
 20
688.997885
 30
0.0
 11
-180.99325899999999
 21
703.33419600000002
 31
0.0
  0
LINE
  5
151
  8
0
  6
DASHSPACE
 62
     7
 10
-193.99325799999991
 20
688.997885
 30
0.0
 11
-193.99325799999991
 21
703.33419600000002
 31
0.0
  0
LINE
  5
152
  8
0
  6
DASHSPACE
 62
     7
 10
-195.49325799999991
 20
684.33419600000002
 30
0.0
 11
-195.49325799999991
 21
703.33419600000002
 31
0.0
  0
LINE
  5
153
  8
0
 62
     7
 10
-198.49325799999991
 20
676.23419799999999
 30
0.0
 11
-198.49325799999991
 21
703.33419600000002
 31
0.0
  0
CIRCLE
  5
154
  8
0
 62
     7
 10
-187.493258
 20
684.33419600000002
 30
0.0
 40
8.0
  0
POLYLINE
  5
155
  8
0
 62
     1
 66
     1
 10
0.0
 20
0.0
 30
0.0
  0
VERTEX
  5
C0C
  8
0
 62
     1
 10
-169.093727
 20
721.83393699999988
 30
0.0
  0
VERTEX
  5
C0D
  8
0
 62
     1
 10
-169.47305299999999
 20
721.30630299999996
 30
0.0
  0
VERTEX
  5
C0E
  8
0
 62
     1
 10
-169.66163299999991
 20
721.03887699999996
 30
0.0
  0
VERTEX
  5
C0F
  8
0
 62
     1
 10
-169.84875299999999
 20
720.77000199999986
 30
0.0
  0
VERTEX
  5
C10
  8
0
 62
     1
 10
-170.03224900000001
 20
720.50282100000004
 30
0.0
  0
VERTEX
  5
C11
  8
0
 62
     1
 10
-170.21422799999991
 20
720.23422000000005
 30
0.0
  0
VERTEX
  5
C12
  8
0
 62
     1
 10
-170.38979900000001
 20
719.97146399999986
 30
0.0
  0
VERTEX
  5
C13
  8
0
 62
     1
 10
-170.56378900000001
 20
719.70735000000002
 30
0.0
  0
VERTEX
  5
C14
  8
0
 62
     1
 10
-170.729477
 20
719.45210099999986
 30
0.0
  0
VERTEX
  5
C15
  8
0
 62
     1
 10
-170.893518
 20
719.19556999999998
 30
0.0
  0
VERTEX
  5
C16
  8
0
 62
     1
 10
-171.04834199999991
 20
718.94962899999996
 30
0.0
  0
VERTEX
  5
C17
  8
0
 62
     1
 10
-171.20146
 20
718.70245199999999
 30
0.0
  0
VERTEX
  5
C18
  8
0
 62
     1
 10
-171.27136200000001
 20
718.58822399999985
 30
0.0
  0
VERTEX
  5
C19
  8
0
 62
     1
 10
-171.412498
 20
718.3546429999999
 30
0.0
  0
VERTEX
  5
C1A
  8
0
 62
     1
 10
-171.5517649999999
 20
718.11991699999999
 30
0.0
  0
VERTEX
  5
C1B
  8
0
 62
     1
 10
-171.67738899999989
 20
717.90408099999991
 30
0.0
  0
VERTEX
  5
C1C
  8
0
 62
     1
 10
-171.80112500000001
 20
717.68725400000005
 30
0.0
  0
VERTEX
  5
C1D
  8
0
 62
     1
 10
-171.91525300000001
 20
717.48309099999994
 30
0.0
  0
VERTEX
  5
C1E
  8
0
 62
     1
 10
-172.02747899999989
 20
717.27801299999987
 30
0.0
  0
VERTEX
  5
C1F
  8
0
 62
     1
 10
-172.13233600000001
 20
717.08212100000003
 30
0.0
  0
VERTEX
  5
C20
  8
0
 62
     1
 10
-172.23528099999999
 20
716.88540499999999
 30
0.0
  0
VERTEX
  5
C21
  8
0
 62
     1
 10
-172.33225999999999
 20
716.69567699999993
 30
0.0
  0
VERTEX
  5
C22
  8
0
 62
     1
 10
-172.42732000000001
 20
716.50515599999994
 30
0.0
  0
VERTEX
  5
C23
  8
0
 62
     1
 10
-172.51737199999991
 20
716.32012699999996
 30
0.0
  0
VERTEX
  5
C24
  8
0
 62
     1
 10
-172.605501
 20
716.13433599999996
 30
0.0
  0
VERTEX
  5
C25
  8
0
 62
     1
 10
-172.68931000000001
 20
715.95294000000001
 30
0.0
  0
VERTEX
  5
C26
  8
0
 62
     1
 10
-172.77119400000001
 20
715.77081099999987
 30
0.0
  0
VERTEX
  5
C27
  8
0
 62
     1
 10
-172.849277
 20
715.59220700000003
 30
0.0
  0
VERTEX
  5
C28
  8
0
 62
     1
 10
-172.92543399999991
 20
715.41293099999996
 30
0.0
  0
VERTEX
  5
C29
  8
0
 62
     1
 10
-172.99818799999991
 20
715.23647900000003
 30
0.0
  0
VERTEX
  5
C2A
  8
0
 62
     1
 10
-173.06901599999989
 20
715.05936999999994
 30
0.0
  0
VERTEX
  5
C2B
  8
0
 62
     1
 10
-173.13676100000001
 20
714.88454999999999
 30
0.0
  0
VERTEX
  5
C2C
  8
0
 62
     1
 10
-173.20257799999999
 20
714.70907399999999
 30
0.0
  0
VERTEX
  5
C2D
  8
0
 62
     1
 10
-173.265568
 20
714.53541399999995
 30
0.0
  0
VERTEX
  5
C2E
  8
0
 62
     1
 10
-173.32662999999991
 20
714.36112800000001
 30
0.0
  0
VERTEX
  5
C2F
  8
0
 62
     1
 10
-173.440166
 20
714.01919400000008
 30
0.0
  0
VERTEX
  5
C30
  8
0
 62
     1
 10
-173.546604
 20
713.67367399999989
 30
0.0
  0
VERTEX
  5
C31
  8
0
 62
     1
 10
-173.6493989999999
 20
713.31329200000005
 30
0.0
  0
VERTEX
  5
C32
  8
0
 62
     1
 10
-173.74901199999999
 20
712.93552999999997
 30
0.0
  0
VERTEX
  5
C33
  8
0
 62
     1
 10
-173.8460639999999
 20
712.536879
 30
0.0
  0
VERTEX
  5
C34
  8
0
 62
     1
 10
-173.94141999999991
 20
712.11237900000003
 30
0.0
  0
VERTEX
  5
C35
  8
0
 62
     1
 10
-174.03639399999989
 20
711.65444799999989
 30
0.0
  0
VERTEX
  5
C36
  8
0
 62
     1
 10
-174.133183
 20
711.15032799999994
 30
0.0
  0
VERTEX
  5
C37
  8
0
 62
     1
 10
-174.236052
 20
710.57519300000001
 30
0.0
  0
VERTEX
  5
C38
  8
0
 62
     1
 10
-174.35602199999991
 20
709.86497299999996
 30
0.0
  0
VERTEX
  5
C39
  8
0
 62
     1
 10
-174.5569899999999
 20
708.65478299999995
 30
0.0
  0
VERTEX
  5
C3A
  8
0
 62
     1
 10
-174.624773
 20
708.26345599999979
 30
0.0
  0
VERTEX
  5
C3B
  8
0
 62
     1
 10
-174.695435
 20
707.87286200000005
 30
0.0
  0
VERTEX
  5
C3C
  8
0
 62
     1
 10
-174.78667300000001
 20
707.39889299999993
 30
0.0
  0
SEQEND
  5
C3D
  8
0
 62
     1
  0
POLYLINE
  5
188
  8
0
 62
     1
 66
     1
 10
0.0
 20
0.0
 30
0.0
  0
VERTEX
  5
C3E
  8
0
 62
     1
 10
-174.78667300000001
 20
707.39889299999993
 30
0.0
  0
VERTEX
  5
C3F
  8
0
 62
     1
 10
-174.92255199999991
 20
706.72553800000003
 30
0.0
  0
VERTEX
  5
C40
  8
0
 62
     1
 10
-175.08305200000001
 20
705.99683200000004
 30
0.0
  0
VERTEX
  5
C41
  8
0
 62
     1
 10
-175.27663000000001
 20
705.17770199999995
 30
0.0
  0
VERTEX
  5
C42
  8
0
 62
     1
 10
-175.52579700000001
 20
704.17547400000001
 30
0.0
  0
VERTEX
  5
C43
  8
0
 62
     1
 10
-175.750235
 20
703.28903800000001
 30
0.0
  0
VERTEX
  5
C44
  8
0
 62
     1
 10
-175.97091499999991
 20
702.40222699999993
 30
0.0
  0
VERTEX
  5
C45
  8
0
 62
     1
 10
-176.08819800000001
 20
701.91281700000002
 30
0.0
  0
VERTEX
  5
C46
  8
0
 62
     1
 10
-176.20075399999999
 20
701.42243799999994
 30
0.0
  0
VERTEX
  5
C47
  8
0
 62
     1
 10
-176.25215
 20
701.18915400000003
 30
0.0
  0
VERTEX
  5
C48
  8
0
 62
     1
 10
-176.32588399999989
 20
700.84119999999984
 30
0.0
  0
VERTEX
  5
C49
  8
0
 62
     1
 10
-176.3962139999999
 20
700.49252100000001
 30
0.0
  0
VERTEX
  5
C4A
  8
0
 62
     1
 10
-176.52620099999999
 20
699.79563700000006
 30
0.0
  0
VERTEX
  5
C4B
  8
0
 62
     1
 10
-176.64380600000001
 20
699.09016199999985
 30
0.0
  0
VERTEX
  5
C4C
  8
0
 62
     1
 10
-176.75053399999999
 20
698.36688000000004
 30
0.0
  0
VERTEX
  5
C4D
  8
0
 62
     1
 10
-176.84794600000001
 20
697.613966
 30
0.0
  0
VERTEX
  5
C4E
  8
0
 62
     1
 10
-176.938005
 20
696.81370400000003
 30
0.0
  0
VERTEX
  5
C4F
  8
0
 62
     1
 10
-177.02383199999991
 20
695.93414099999995
 30
0.0
  0
VERTEX
  5
C50
  8
0
 62
     1
 10
-177.11236199999999
 20
694.89931299999989
 30
0.0
  0
VERTEX
  5
C51
  8
0
 62
     1
 10
-177.129559
 20
694.68610200000001
 30
0.0
  0
VERTEX
  5
C52
  8
0
 62
     1
 10
-177.26973699999999
 20
692.87998800000003
 30
0.0
  0
VERTEX
  5
C53
  8
0
 62
     1
 10
-177.42540399999999
 20
690.88239900000008
 30
0.0
  0
VERTEX
  5
C54
  8
0
 62
     1
 10
-177.59877599999999
 20
688.8862969999999
 30
0.0
  0
VERTEX
  5
C55
  8
0
 62
     1
 10
-177.66043999999999
 20
688.25168399999995
 30
0.0
  0
VERTEX
  5
C56
  8
0
 62
     1
 10
-177.72673399999999
 20
687.61732300000006
 30
0.0
  0
VERTEX
  5
C57
  8
0
 62
     1
 10
-177.78191000000001
 20
687.12691299999994
 30
0.0
  0
VERTEX
  5
C58
  8
0
 62
     1
 10
-177.84103799999991
 20
686.63696100000004
 30
0.0
  0
VERTEX
  5
C59
  8
0
 62
     1
 10
-177.89657600000001
 20
686.20749499999999
 30
0.0
  0
VERTEX
  5
C5A
  8
0
 62
     1
 10
-177.95587199999991
 20
685.77856999999995
 30
0.0
  0
VERTEX
  5
C5B
  8
0
 62
     1
 10
-178.01367599999989
 20
685.38683099999992
 30
0.0
  0
VERTEX
  5
C5C
  8
0
 62
     1
 10
-178.0751379999999
 20
684.99569500000007
 30
0.0
  0
VERTEX
  5
C5D
  8
0
 62
     1
 10
-178.13609700000001
 20
684.63080400000001
 30
0.0
  0
VERTEX
  5
C5E
  8
0
 62
     1
 10
-178.20065299999999
 20
684.26657699999987
 30
0.0
  0
VERTEX
  5
C5F
  8
0
 62
     1
 10
-178.26527599999989
 20
683.92233099999999
 30
0.0
  0
VERTEX
  5
C60
  8
0
 62
     1
 10
-178.33345399999999
 20
683.57878700000003
 30
0.0
  0
VERTEX
  5
C61
  8
0
 62
     1
 10
-178.40207299999989
 20
683.25120400000003
 30
0.0
  0
VERTEX
  5
C62
  8
0
 62
     1
 10
-178.474211
 20
682.924353
 30
0.0
  0
VERTEX
  5
C63
  8
0
 62
     1
 10
-178.477318
 20
682.91065000000003
 30
0.0
  0
VERTEX
  5
C64
  8
0
 62
     1
 10
-178.55024299999999
 20
682.59725800000001
 30
0.0
  0
VERTEX
  5
C65
  8
0
 62
     1
 10
-178.62660399999999
 20
682.28465800000004
 30
0.0
  0
VERTEX
  5
C66
  8
0
 62
     1
 10
-178.705051
 20
681.97820899999999
 30
0.0
  0
VERTEX
  5
C67
  8
0
 62
     1
 10
-178.78688199999999
 20
681.67262800000003
 30
0.0
  0
VERTEX
  5
C68
  8
0
 62
     1
 10
-178.87140999999991
 20
681.37039000000004
 30
0.0
  0
VERTEX
  5
C69
  8
0
 62
     1
 10
-178.95927399999991
 20
681.06908199999987
 30
0.0
  0
VERTEX
  5
C6A
  8
0
 62
     1
 10
-179.14500200000001
 20
680.46915200000001
 30
0.0
  0
VERTEX
  5
C6B
  8
0
 62
     1
 10
-179.34551200000001
 20
679.86798699999986
 30
0.0
  0
VERTEX
  5
C6C
  8
0
 62
     1
 10
-179.56265400000001
 20
679.26020599999993
 30
0.0
  0
VERTEX
  5
C6D
  8
0
 62
     1
 10
-179.79896699999989
 20
678.63922700000001
 30
0.0
  0
VERTEX
  5
C6E
  8
0
 62
     1
 10
-180.05819699999989
 20
677.99598500000002
 30
0.0
  0
VERTEX
  5
C6F
  8
0
 62
     1
 10
-180.346439
 20
677.31645800000001
 30
0.0
  0
VERTEX
  5
C70
  8
0
 62
     1
 10
-180.410561
 20
677.16938600000003
 30
0.0
  0
VERTEX
  5
C71
  8
0
 62
     1
 10
-180.7497919999999
 20
676.40974199999994
 30
0.0
  0
VERTEX
  5
C72
  8
0
 62
     1
 10
-181.19642999999991
 20
675.43803200000002
 30
0.0
  0
VERTEX
  5
C73
  8
0
 62
     1
 10
-181.62537199999991
 20
674.51179300000001
 30
0.0
  0
VERTEX
  5
C74
  8
0
 62
     1
 10
-182.048304
 20
673.58385299999986
 30
0.0
  0
SEQEND
  5
C75
  8
0
 62
     1
  0
LINE
  5
1C1
  8
0
 62
     1
 10
-101.243242
 20
721.83419600000002
 30
0.0
 11
-169.09420600000001
 21
721.83419600000002
 31
0.0
  0
ARC
  5
1C2
  8
0
 62
     1
 10
-101.243242
 20
720.58419600000002
 30
0.0
 40
1.25
 50
0.000001
 51
90.0
  0
LINE
  5
1C3
  8
0
 62
     1
 10
-99.993242000000009
 20
673.58418800000004
 30
0.0
 11
-99.993242000000009
 21
720.58419600000002
 31
0.0
  0
LINE
  5
1C4
  8
0
 62
     1
 10
-103.59324100000001
 20
673.58418800000004
 30
0.0
 11
-103.59324100000001
 21
721.83419600000002
 31
0.0
  0
LINE
  5
1C5
  8
0
 62
     1
 10
-107.1932429999999
 20
673.58418800000004
 30
0.0
 11
-107.1932429999999
 21
721.83419600000002
 31
0.0
  0
LINE
  5
1C6
  8
0
 62
     1
 10
-110.79324200000001
 20
673.58418800000004
 30
0.0
 11
-110.79324200000001
 21
721.83419600000002
 31
0.0
  0
LINE
  5
1C7
  8
0
 62
     1
 10
-114.3932439999999
 20
673.58418800000004
 30
0.0
 11
-114.3932439999999
 21
721.83419600000002
 31
0.0
  0
LINE
  5
1C8
  8
0
 62
     1
 10
-117.9932419999999
 20
673.58418800000004
 30
0.0
 11
-117.9932419999999
 21
721.83419600000002
 31
0.0
  0
LINE
  5
1C9
  8
0
 62
     1
 10
-121.5932429999999
 20
673.58418800000004
 30
0.0
 11
-121.5932429999999
 21
721.83419600000002
 31
0.0
  0
LINE
  5
1CA
  8
0
 62
     1
 10
-125.1932429999999
 20
673.58418800000004
 30
0.0
 11
-125.1932429999999
 21
721.83419600000002
 31
0.0
  0
LINE
  5
1CB
  8
0
 62
     1
 10
-128.79324199999991
 20
673.58418800000004
 30
0.0
 11
-128.79324199999991
 21
721.83419600000002
 31
0.0
  0
LINE
  5
1CC
  8
0
 62
     1
 10
-132.3932419999999
 20
673.58418800000004
 30
0.0
 11
-132.3932419999999
 21
721.83419600000002
 31
0.0
  0
LINE
  5
1CD
  8
0
 62
     1
 10
-135.9932419999999
 20
673.58418800000004
 30
0.0
 11
-135.9932419999999
 21
721.83419600000002
 31
0.0
  0
LINE
  5
1CE
  8
0
 62
     1
 10
-139.593243
 20
673.58418800000004
 30
0.0
 11
-139.593243
 21
721.83419600000002
 31
0.0
  0
LINE
  5
1CF
  8
0
 62
     1
 10
-143.193242
 20
673.58418800000004
 30
0.0
 11
-143.193242
 21
721.83419600000002
 31
0.0
  0
LINE
  5
1D0
  8
0
 62
     1
 10
-146.79324199999991
 20
673.58418800000004
 30
0.0
 11
-146.79324199999991
 21
721.83419600000002
 31
0.0
  0
LINE
  5
1D1
  8
0
 62
     1
 10
-150.3932419999999
 20
673.58418800000004
 30
0.0
 11
-150.3932419999999
 21
721.83419600000002
 31
0.0
  0
LINE
  5
1D2
  8
0
 62
     1
 10
-153.9932419999999
 20
673.58418800000004
 30
0.0
 11
-153.9932419999999
 21
721.83419600000002
 31
0.0
  0
LINE
  5
1D3
  8
0
 62
     1
 10
-157.593242
 20
673.58418800000004
 30
0.0
 11
-157.593242
 21
721.83419600000002
 31
0.0
  0
LINE
  5
1D4
  8
0
 62
     1
 10
-161.193242
 20
673.58418800000004
 30
0.0
 11
-161.193242
 21
721.83419600000002
 31
0.0
  0
LINE
  5
1D5
  8
0
 62
     1
 10
-164.79324199999999
 20
673.58418800000004
 30
0.0
 11
-164.79324199999999
 21
721.83419600000002
 31
0.0
  0
LINE
  5
1D6
  8
0
 62
     1
 10
-168.3932419999999
 20
673.58418800000004
 30
0.0
 11
-168.3932419999999
 21
721.83419600000002
 31
0.0
  0
LINE
  5
1D7
  8
0
 62
     1
 10
-171.9932419999999
 20
673.58418800000004
 30
0.0
 11
-171.9932419999999
 21
717.34170300000005
 31
0.0
  0
LINE
  5
1D8
  8
0
 62
     1
 10
-175.593243
 20
673.58418800000004
 30
0.0
 11
-175.593243
 21
703.9090480000001
 31
0.0
  0
LINE
  5
1D9
  8
0
 62
     1
 10
-179.19324299999991
 20
673.58418800000004
 30
0.0
 11
-179.19324299999991
 21
680.31892199999993
 31
0.0
  0
LINE
  5
1DA
  8
0
  6
DASHDOT
 62
     7
 10
-187.493258
 20
486.33418099999989
 30
0.0
 11
-187.493258
 21
508.33418099999989
 31
0.0
  0
LINE
  5
1DB
  8
0
  6
DASHDOT
 62
     7
 10
-176.49325899999991
 20
497.33418099999989
 30
0.0
 11
-198.49325799999991
 21
497.33418099999989
 31
0.0
  0
LINE
  5
1DC
  8
0
  6
DASHDOT
 62
     7
 10
-187.493258
 20
673.33419600000002
 30
0.0
 11
-187.493258
 21
695.33419600000002
 31
0.0
  0
LINE
  5
1DD
  8
0
  6
DASHDOT
 62
     7
 10
-176.49325899999991
 20
684.33419600000002
 30
0.0
 11
-198.49325799999991
 21
684.33419600000002
 31
0.0
  0
LINE
  5
1DE
  8
0
 62
     7
 10
-247.853769
 20
505.83418099999989
 30
0.0
 11
-246.81188399999991
 21
511.74302499999988
 31
0.0
  0
LINE
  5
1DF
  8
0
 62
     7
 10
-247.853769
 20
505.83418099999989
 30
0.0
 11
-248.89566199999999
 21
511.74302499999988
 31
0.0
  0
LINE
  5
1E0
  8
0
 62
     7
 10
-247.85377699999989
 20
675.83418099999994
 30
0.0
 11
-248.89567
 21
669.92532900000003
 31
0.0
  0
LINE
  5
1E1
  8
0
 62
     7
 10
-247.85377699999989
 20
675.83418099999994
 30
0.0
 11
-246.811892
 21
669.92532900000003
 31
0.0
  0
LINE
  5
1E2
  8
0
 62
     7
 10
-247.853769
 20
505.83418099999989
 30
0.0
 11
-247.85377699999989
 21
675.83418099999994
 31
0.0
  0
LINE
  5
1E3
  8
0
 62
     7
 10
-251.853769
 20
505.83418099999989
 30
0.0
 11
-201.493269
 21
505.83418099999989
 31
0.0
  0
LINE
  5
1E4
  8
0
 62
     7
 10
-251.85377700000001
 20
675.83418099999994
 30
0.0
 11
-201.493269
 21
675.83418099999994
 31
0.0
  0
LINE
  5
1E5
  8
0
 62
     7
 10
-228.33046200000001
 20
588.58418800000004
 30
0.0
 11
-227.28857599999989
 21
594.49303599999996
 31
0.0
  0
LINE
  5
1E6
  8
0
 62
     7
 10
-228.33046200000001
 20
588.58418800000004
 30
0.0
 11
-229.37234699999999
 21
594.49303599999996
 31
0.0
  0
LINE
  5
1E7
  8
0
 62
     7
 10
-228.33046200000001
 20
675.83418099999994
 30
0.0
 11
-229.37235499999991
 21
669.92532900000003
 31
0.0
  0
LINE
  5
1E8
  8
0
 62
     7
 10
-228.33046200000001
 20
675.83418099999994
 30
0.0
 11
-227.28857599999989
 21
669.92532900000003
 31
0.0
  0
LINE
  5
1E9
  8
0
 62
     7
 10
-228.33046200000001
 20
588.58418800000004
 30
0.0
 11
-228.33046200000001
 21
675.83418099999994
 31
0.0
  0
LINE
  5
1EA
  8
0
 62
     7
 10
-232.33046200000001
 20
675.83418099999994
 30
0.0
 11
-201.493269
 21
675.83418099999994
 31
0.0
  0
LINE
  5
1EB
  8
0
 62
     7
 10
-248.00707399999999
 20
459.83418099999989
 30
0.0
 11
-246.96518900000001
 21
465.74302499999988
 31
0.0
  0
LINE
  5
1EC
  8
0
 62
     7
 10
-248.00707399999999
 20
459.83418099999989
 30
0.0
 11
-249.048967
 21
465.74302499999988
 31
0.0
  0
LINE
  5
1ED
  8
0
 62
     7
 10
-248.00708199999991
 20
505.83418099999989
 30
0.0
 11
-249.048967
 21
499.9253369999999
 31
0.0
  0
LINE
  5
1EE
  8
0
 62
     7
 10
-248.00707399999999
 20
505.83418099999989
 30
0.0
 11
-246.96518900000001
 21
499.9253369999999
 31
0.0
  0
LINE
  5
1EF
  8
0
 62
     7
 10
-248.00707399999999
 20
459.83418099999989
 30
0.0
 11
-248.00707399999999
 21
505.83418099999989
 31
0.0
  0
LINE
  5
1F0
  8
0
 62
     7
 10
-252.00707399999999
 20
459.83418099999989
 30
0.0
 11
-169.09421
 21
459.83418099999989
 31
0.0
  0
LINE
  5
1F1
  8
0
 62
     7
 10
-252.00707399999999
 20
505.83418099999989
 30
0.0
 11
-201.493269
 21
505.83418099999989
 31
0.0
  0
LINE
  5
1F2
  8
0
 62
     7
 10
-68.531510999999995
 20
508.08419599999991
 30
0.0
 11
-67.489617999999993
 21
513.99303999999995
 31
0.0
  0
LINE
  5
1F3
  8
0
 62
     7
 10
-68.531510999999995
 20
508.08419599999991
 30
0.0
 11
-69.573397
 21
513.99303999999995
 31
0.0
  0
LINE
  5
1F4
  8
0
 62
     7
 10
-68.531510999999995
 20
669.08419600000002
 30
0.0
 11
-69.573404000000011
 21
663.17535199999998
 31
0.0
  0
LINE
  5
1F5
  8
0
 62
     7
 10
-68.531510999999995
 20
669.08419600000002
 30
0.0
 11
-67.489626000000001
 21
663.17535199999998
 31
0.0
  0
LINE
  5
1F6
  8
0
 62
     7
 10
-68.531510999999995
 20
508.08419599999991
 30
0.0
 11
-68.531510999999995
 21
669.08419600000002
 31
0.0
  0
LINE
  5
1F7
  8
0
 62
     7
 10
-64.531503999999998
 20
508.08419599999991
 30
0.0
 11
-95.243245999999985
 21
508.08419599999991
 31
0.0
  0
LINE
  5
1F8
  8
0
 62
     7
 10
-64.531510999999995
 20
669.08419600000002
 30
0.0
 11
-95.243245999999985
 21
669.08419600000002
 31
0.0
  0
LINE
  5
1F9
  8
0
 62
     7
 10
704.79054299999996
 20
532.58419000000004
 30
0.0
 11
816.79054299999984
 21
532.58419000000004
 31
0.0
  0
LINE
  5
1FA
  8
0
 62
     7
 10
704.79054299999996
 20
644.58419000000004
 30
0.0
 11
816.79054299999984
 21
644.58419000000004
 31
0.0
  0
LINE
  5
1FB
  8
0
 62
     7
 10
704.79054299999996
 20
644.58419000000004
 30
0.0
 11
704.79054299999996
 21
532.58419000000004
 31
0.0
  0
LINE
  5
1FC
  8
0
 62
     7
 10
816.79054299999984
 20
644.58419000000004
 30
0.0
 11
816.79054299999984
 21
532.58419000000004
 31
0.0
  0
LINE
  5
1FD
  8
0
  6
DASHDOT
 62
     7
 10
760.79054299999984
 20
704.96004500000004
 30
0.0
 11
760.79054299999984
 21
468.43702699999989
 31
0.0
  0
CIRCLE
  5
1FE
  8
0
 62
     7
 10
720.79054299999984
 20
659.58419000000004
 30
0.0
 40
3.5
  0
CIRCLE
  5
1FF
  8
0
 62
     7
 10
800.79054299999984
 20
659.58419000000004
 30
0.0
 40
3.5
  0
CIRCLE
  5
200
  8
0
 62
     7
 10
800.79054299999984
 20
517.58419000000004
 30
0.0
 40
3.5
  0
CIRCLE
  5
201
  8
0
 62
     7
 10
720.79054299999984
 20
517.58419000000004
 30
0.0
 40
3.5
  0
POLYLINE
  5
202
  8
0
 62
     3
 66
     1
 10
0.0
 20
0.0
 30
0.0
  0
VERTEX
  5
C76
  8
0
 62
     3
 10
688.93255599999986
 20
668.98339099999987
 30
0.0
  0
VERTEX
  5
C77
  8
0
 62
     3
 10
704.93255599999986
 20
668.98339099999987
 30
0.0
  0
VERTEX
  5
C78
  8
0
 62
     3
 10
705.93255599999986
 20
670.98339099999998
 30
0.0
  0
VERTEX
  5
C79
  8
0
 62
     3
 10
706.93255599999998
 20
666.98339099999998
 30
0.0
  0
VERTEX
  5
C7A
  8
0
 62
     3
 10
707.93255599999998
 20
668.98339099999987
 30
0.0
  0
VERTEX
  5
C7B
  8
0
 62
     3
 10
723.93255599999998
 20
668.98339099999987
 30
0.0
  0
VERTEX
  5
C7C
  8
0
 62
     3
 10
724.93255599999986
 20
670.98339099999998
 30
0.0
  0
VERTEX
  5
C7D
  8
0
 62
     3
 10
725.93255599999986
 20
666.98339099999998
 30
0.0
  0
VERTEX
  5
C7E
  8
0
 62
     3
 10
726.93255599999986
 20
668.98339099999987
 30
0.0
  0
VERTEX
  5
C7F
  8
0
 62
     3
 10
742.93255599999986
 20
668.98339099999987
 30
0.0
  0
VERTEX
  5
C80
  8
0
 62
     3
 10
743.93255599999998
 20
670.98339099999998
 30
0.0
  0
VERTEX
  5
C81
  8
0
 62
     3
 10
744.93255599999998
 20
666.98339099999998
 30
0.0
  0
VERTEX
  5
C82
  8
0
 62
     3
 10
745.93255599999986
 20
668.98339099999987
 30
0.0
  0
VERTEX
  5
C83
  8
0
 62
     3
 10
761.93255599999998
 20
668.98339099999987
 30
0.0
  0
VERTEX
  5
C84
  8
0
 62
     3
 10
762.93255599999986
 20
670.98339099999998
 30
0.0
  0
VERTEX
  5
C85
  8
0
 62
     3
 10
763.93255599999986
 20
666.98339099999998
 30
0.0
  0
VERTEX
  5
C86
  8
0
 62
     3
 10
764.93255599999998
 20
668.98339099999987
 30
0.0
  0
VERTEX
  5
C87
  8
0
 62
     3
 10
780.93255599999986
 20
668.98339099999987
 30
0.0
  0
VERTEX
  5
C88
  8
0
 62
     3
 10
781.93255599999998
 20
670.98339099999998
 30
0.0
  0
VERTEX
  5
C89
  8
0
 62
     3
 10
782.93255599999998
 20
666.98339099999998
 30
0.0
  0
VERTEX
  5
C8A
  8
0
 62
     3
 10
783.93255599999986
 20
668.98339099999987
 30
0.0
  0
VERTEX
  5
C8B
  8
0
 62
     3
 10
799.93255599999986
 20
668.98339099999987
 30
0.0
  0
VERTEX
  5
C8C
  8
0
 62
     3
 10
800.93255599999998
 20
670.98339099999998
 30
0.0
  0
VERTEX
  5
C8D
  8
0
 62
     3
 10
801.93255599999998
 20
666.98339099999998
 30
0.0
  0
VERTEX
  5
C8E
  8
0
 62
     3
 10
802.93255599999998
 20
668.98339099999987
 30
0.0
  0
VERTEX
  5
C8F
  8
0
 62
     3
 10
818.93255599999998
 20
668.98339099999987
 30
0.0
  0
VERTEX
  5
C90
  8
0
 62
     3
 10
819.93255599999998
 20
670.98339099999998
 30
0.0
  0
VERTEX
  5
C91
  8
0
 62
     3
 10
820.93255599999986
 20
666.98339099999998
 30
0.0
  0
VERTEX
  5
C92
  8
0
 62
     3
 10
821.93255599999986
 20
668.98339099999987
 30
0.0
  0
VERTEX
  5
C93
  8
0
 62
     3
 10
832.14603399999987
 20
668.98339099999987
 30
0.0
  0
SEQEND
  5
C94
  8
0
 62
     3
  0
POLYLINE
  5
222
  8
0
 62
     3
 66
     1
 10
0.0
 20
0.0
 30
0.0
  0
VERTEX
  5
C95
  8
0
 62
     3
 10
688.93255599999986
 20
504.16226999999998
 30
0.0
  0
VERTEX
  5
C96
  8
0
 62
     3
 10
704.93255599999986
 20
504.16226999999998
 30
0.0
  0
VERTEX
  5
C97
  8
0
 62
     3
 10
705.93255599999986
 20
506.16226999999998
 30
0.0
  0
VERTEX
  5
C98
  8
0
 62
     3
 10
706.93255599999998
 20
502.16226999999998
 30
0.0
  0
VERTEX
  5
C99
  8
0
 62
     3
 10
707.93255599999998
 20
504.16226999999998
 30
0.0
  0
VERTEX
  5
C9A
  8
0
 62
     3
 10
723.93255599999998
 20
504.16226999999998
 30
0.0
  0
VERTEX
  5
C9B
  8
0
 62
     3
 10
724.93255599999986
 20
506.16226999999998
 30
0.0
  0
VERTEX
  5
C9C
  8
0
 62
     3
 10
725.93255599999986
 20
502.16226999999998
 30
0.0
  0
VERTEX
  5
C9D
  8
0
 62
     3
 10
726.93255599999986
 20
504.16226999999998
 30
0.0
  0
VERTEX
  5
C9E
  8
0
 62
     3
 10
742.93255599999986
 20
504.16226999999998
 30
0.0
  0
VERTEX
  5
C9F
  8
0
 62
     3
 10
743.93255599999998
 20
506.16226999999998
 30
0.0
  0
VERTEX
  5
CA0
  8
0
 62
     3
 10
744.93255599999998
 20
502.16226999999998
 30
0.0
  0
VERTEX
  5
CA1
  8
0
 62
     3
 10
745.93255599999986
 20
504.16226999999998
 30
0.0
  0
VERTEX
  5
CA2
  8
0
 62
     3
 10
761.93255599999998
 20
504.16226999999998
 30
0.0
  0
VERTEX
  5
CA3
  8
0
 62
     3
 10
762.93255599999986
 20
506.16226999999998
 30
0.0
  0
VERTEX
  5
CA4
  8
0
 62
     3
 10
763.93255599999986
 20
502.16226999999998
 30
0.0
  0
VERTEX
  5
CA5
  8
0
 62
     3
 10
764.93255599999998
 20
504.16226999999998
 30
0.0
  0
VERTEX
  5
CA6
  8
0
 62
     3
 10
780.93255599999986
 20
504.16226999999998
 30
0.0
  0
VERTEX
  5
CA7
  8
0
 62
     3
 10
781.93255599999998
 20
506.16226999999998
 30
0.0
  0
VERTEX
  5
CA8
  8
0
 62
     3
 10
782.93255599999998
 20
502.16226999999998
 30
0.0
  0
VERTEX
  5
CA9
  8
0
 62
     3
 10
783.93255599999986
 20
504.16226999999998
 30
0.0
  0
VERTEX
  5
CAA
  8
0
 62
     3
 10
799.93255599999986
 20
504.16226999999998
 30
0.0
  0
VERTEX
  5
CAB
  8
0
 62
     3
 10
800.93255599999998
 20
506.16226999999998
 30
0.0
  0
VERTEX
  5
CAC
  8
0
 62
     3
 10
801.93255599999998
 20
502.16226999999998
 30
0.0
  0
VERTEX
  5
CAD
  8
0
 62
     3
 10
802.93255599999998
 20
504.16226999999998
 30
0.0
  0
VERTEX
  5
CAE
  8
0
 62
     3
 10
818.93255599999998
 20
504.16226999999998
 30
0.0
  0
VERTEX
  5
CAF
  8
0
 62
     3
 10
819.93255599999998
 20
506.16226999999998
 30
0.0
  0
VERTEX
  5
CB0
  8
0
 62
     3
 10
820.93255599999986
 20
502.16226999999998
 30
0.0
  0
VERTEX
  5
CB1
  8
0
 62
     3
 10
821.93255599999986
 20
504.16226999999998
 30
0.0
  0
VERTEX
  5
CB2
  8
0
 62
     3
 10
832.14603399999987
 20
504.16226999999998
 30
0.0
  0
SEQEND
  5
CB3
  8
0
 62
     3
  0
POLYLINE
  5
242
  8
0
 62
     3
 66
     1
 10
0.0
 20
0.0
 30
0.0
  0
VERTEX
  5
CB4
  8
0
 62
     3
 10
832.14603399999987
 20
668.98339099999987
 30
0.0
  0
VERTEX
  5
CB5
  8
0
 62
     3
 10
832.14603399999987
 20
652.98339099999987
 30
0.0
  0
VERTEX
  5
CB6
  8
0
 62
     3
 10
834.14603399999987
 20
651.98339099999998
 30
0.0
  0
VERTEX
  5
CB7
  8
0
 62
     3
 10
830.14603399999999
 20
650.98339099999998
 30
0.0
  0
VERTEX
  5
CB8
  8
0
 62
     3
 10
832.14603399999987
 20
649.98339099999987
 30
0.0
  0
VERTEX
  5
CB9
  8
0
 62
     3
 10
832.14603399999987
 20
633.98339099999998
 30
0.0
  0
VERTEX
  5
CBA
  8
0
 62
     3
 10
834.14603399999987
 20
632.98339099999987
 30
0.0
  0
VERTEX
  5
CBB
  8
0
 62
     3
 10
830.14603399999999
 20
631.98339099999987
 30
0.0
  0
VERTEX
  5
CBC
  8
0
 62
     3
 10
832.14603399999987
 20
630.98339099999998
 30
0.0
  0
VERTEX
  5
CBD
  8
0
 62
     3
 10
832.14603399999987
 20
614.98339099999987
 30
0.0
  0
VERTEX
  5
CBE
  8
0
 62
     3
 10
834.14603399999987
 20
613.98339099999998
 30
0.0
  0
VERTEX
  5
CBF
  8
0
 62
     3
 10
830.14603399999999
 20
612.98339099999998
 30
0.0
  0
VERTEX
  5
CC0
  8
0
 62
     3
 10
832.14603399999987
 20
611.98339099999987
 30
0.0
  0
VERTEX
  5
CC1
  8
0
 62
     3
 10
832.14603399999987
 20
595.98339099999987
 30
0.0
  0
VERTEX
  5
CC2
  8
0
 62
     3
 10
834.14603399999987
 20
594.98339099999987
 30
0.0
  0
VERTEX
  5
CC3
  8
0
 62
     3
 10
830.14603399999999
 20
593.98339099999987
 30
0.0
  0
VERTEX
  5
CC4
  8
0
 62
     3
 10
832.14603399999987
 20
592.98339099999998
 30
0.0
  0
VERTEX
  5
CC5
  8
0
 62
     3
 10
832.14603399999987
 20
576.98339099999998
 30
0.0
  0
VERTEX
  5
CC6
  8
0
 62
     3
 10
834.14603399999987
 20
575.98339099999998
 30
0.0
  0
VERTEX
  5
CC7
  8
0
 62
     3
 10
830.14603399999999
 20
574.98339099999987
 30
0.0
  0
VERTEX
  5
CC8
  8
0
 62
     3
 10
832.14603399999987
 20
573.98339099999987
 30
0.0
  0
VERTEX
  5
CC9
  8
0
 62
     3
 10
832.14603399999987
 20
557.98339099999987
 30
0.0
  0
VERTEX
  5
CCA
  8
0
 62
     3
 10
834.14603399999987
 20
556.98339099999987
 30
0.0
  0
VERTEX
  5
CCB
  8
0
 62
     3
 10
830.14603399999999
 20
555.98339099999998
 30
0.0
  0
VERTEX
  5
CCC
  8
0
 62
     3
 10
832.14603399999987
 20
554.98339099999998
 30
0.0
  0
VERTEX
  5
CCD
  8
0
 62
     3
 10
832.14603399999987
 20
538.98339099999998
 30
0.0
  0
VERTEX
  5
CCE
  8
0
 62
     3
 10
834.14603399999987
 20
537.98339099999998
 30
0.0
  0
VERTEX
  5
CCF
  8
0
 62
     3
 10
830.14603399999999
 20
536.98339099999987
 30
0.0
  0
VERTEX
  5
CD0
  8
0
 62
     3
 10
832.14603399999987
 20
535.98339099999987
 30
0.0
  0
VERTEX
  5
CD1
  8
0
 62
     3
 10
832.14603399999987
 20
519.98339099999987
 30
0.0
  0
VERTEX
  5
CD2
  8
0
 62
     3
 10
834.14603399999987
 20
518.98339099999987
 30
0.0
  0
VERTEX
  5
CD3
  8
0
 62
     3
 10
830.14603399999999
 20
517.98339099999998
 30
0.0
  0
VERTEX
  5
CD4
  8
0
 62
     3
 10
832.14603399999987
 20
516.98339099999998
 30
0.0
  0
VERTEX
  5
CD5
  8
0
 62
     3
 10
832.14603399999987
 20
504.16226999999998
 30
0.0
  0
SEQEND
  5
CD6
  8
0
 62
     3
  0
POLYLINE
  5
266
  8
0
 62
     3
 66
     1
 10
0.0
 20
0.0
 30
0.0
  0
VERTEX
  5
CD7
  8
0
 62
     3
 10
688.93255599999986
 20
668.98339099999987
 30
0.0
  0
VERTEX
  5
CD8
  8
0
 62
     3
 10
688.93255599999986
 20
652.98339099999987
 30
0.0
  0
VERTEX
  5
CD9
  8
0
 62
     3
 10
690.93255599999998
 20
651.98339099999998
 30
0.0
  0
VERTEX
  5
CDA
  8
0
 62
     3
 10
686.93255599999998
 20
650.98339099999998
 30
0.0
  0
VERTEX
  5
CDB
  8
0
 62
     3
 10
688.93255599999986
 20
649.98339099999987
 30
0.0
  0
VERTEX
  5
CDC
  8
0
 62
     3
 10
688.93255599999986
 20
633.98339099999998
 30
0.0
  0
VERTEX
  5
CDD
  8
0
 62
     3
 10
690.93255599999998
 20
632.98339099999987
 30
0.0
  0
VERTEX
  5
CDE
  8
0
 62
     3
 10
686.93255599999998
 20
631.98339099999987
 30
0.0
  0
VERTEX
  5
CDF
  8
0
 62
     3
 10
688.93255599999986
 20
630.98339099999998
 30
0.0
  0
VERTEX
  5
CE0
  8
0
 62
     3
 10
688.93255599999986
 20
614.98339099999987
 30
0.0
  0
VERTEX
  5
CE1
  8
0
 62
     3
 10
690.93255599999998
 20
613.98339099999998
 30
0.0
  0
VERTEX
  5
CE2
  8
0
 62
     3
 10
686.93255599999998
 20
612.98339099999998
 30
0.0
  0
VERTEX
  5
CE3
  8
0
 62
     3
 10
688.93255599999986
 20
611.98339099999987
 30
0.0
  0
VERTEX
  5
CE4
  8
0
 62
     3
 10
688.93255599999986
 20
595.98339099999987
 30
0.0
  0
VERTEX
  5
CE5
  8
0
 62
     3
 10
690.93255599999998
 20
594.98339099999987
 30
0.0
  0
VERTEX
  5
CE6
  8
0
 62
     3
 10
686.93255599999998
 20
593.98339099999987
 30
0.0
  0
VERTEX
  5
CE7
  8
0
 62
     3
 10
688.93255599999986
 20
592.98339099999998
 30
0.0
  0
VERTEX
  5
CE8
  8
0
 62
     3
 10
688.93255599999986
 20
576.98339099999998
 30
0.0
  0
VERTEX
  5
CE9
  8
0
 62
     3
 10
690.93255599999998
 20
575.98339099999998
 30
0.0
  0
VERTEX
  5
CEA
  8
0
 62
     3
 10
686.93255599999998
 20
574.98339099999987
 30
0.0
  0
VERTEX
  5
CEB
  8
0
 62
     3
 10
688.93255599999986
 20
573.98339099999987
 30
0.0
  0
VERTEX
  5
CEC
  8
0
 62
     3
 10
688.93255599999986
 20
557.98339099999987
 30
0.0
  0
VERTEX
  5
CED
  8
0
 62
     3
 10
690.93255599999998
 20
556.98339099999987
 30
0.0
  0
VERTEX
  5
CEE
  8
0
 62
     3
 10
686.93255599999998
 20
555.98339099999998
 30
0.0
  0
VERTEX
  5
CEF
  8
0
 62
     3
 10
688.93255599999986
 20
554.98339099999998
 30
0.0
  0
VERTEX
  5
CF0
  8
0
 62
     3
 10
688.93255599999986
 20
538.98339099999998
 30
0.0
  0
VERTEX
  5
CF1
  8
0
 62
     3
 10
690.93255599999998
 20
537.98339099999998
 30
0.0
  0
VERTEX
  5
CF2
  8
0
 62
     3
 10
686.93255599999998
 20
536.98339099999987
 30
0.0
  0
VERTEX
  5
CF3
  8
0
 62
     3
 10
688.93255599999986
 20
535.98339099999987
 30
0.0
  0
VERTEX
  5
CF4
  8
0
 62
     3
 10
688.93255599999986
 20
519.98339099999987
 30
0.0
  0
VERTEX
  5
CF5
  8
0
 62
     3
 10
690.93255599999998
 20
518.98339099999987
 30
0.0
  0
VERTEX
  5
CF6
  8
0
 62
     3
 10
686.93255599999998
 20
517.98339099999998
 30
0.0
  0
VERTEX
  5
CF7
  8
0
 62
     3
 10
688.93255599999986
 20
516.98339099999998
 30
0.0
  0
VERTEX
  5
CF8
  8
0
 62
     3
 10
688.93255599999986
 20
504.16226999999998
 30
0.0
  0
SEQEND
  5
CF9
  8
0
 62
     3
  0
LINE
  5
28A
  8
0
  6
DASHDOT
 62
     7
 10
800.79054299999984
 20
666.08419000000004
 30
0.0
 11
800.79054299999984
 21
653.08419000000004
 31
0.0
  0
LINE
  5
28B
  8
0
  6
DASHDOT
 62
     7
 10
794.29054299999984
 20
659.58419000000004
 30
0.0
 11
807.29054299999996
 21
659.58419000000004
 31
0.0
  0
LINE
  5
28C
  8
0
  6
DASHDOT
 62
     7
 10
720.79054299999984
 20
666.08419000000004
 30
0.0
 11
720.79054299999984
 21
653.08419000000004
 31
0.0
  0
LINE
  5
28D
  8
0
  6
DASHDOT
 62
     7
 10
714.29054299999984
 20
659.58419000000004
 30
0.0
 11
727.29054299999984
 21
659.58419000000004
 31
0.0
  0
LINE
  5
28E
  8
0
  6
DASHDOT
 62
     7
 10
720.79054299999984
 20
524.08419000000004
 30
0.0
 11
720.79054299999984
 21
511.08418999999998
 31
0.0
  0
LINE
  5
28F
  8
0
  6
DASHDOT
 62
     7
 10
714.29054299999984
 20
517.58419000000004
 30
0.0
 11
727.29054299999984
 21
517.58419000000004
 31
0.0
  0
LINE
  5
290
  8
0
  6
DASHDOT
 62
     7
 10
800.79054299999984
 20
524.08419000000004
 30
0.0
 11
800.79054299999984
 21
511.08418999999998
 31
0.0
  0
LINE
  5
291
  8
0
  6
DASHDOT
 62
     7
 10
794.29054299999984
 20
517.58419000000004
 30
0.0
 11
807.29054299999996
 21
517.58419000000004
 31
0.0
  0
CIRCLE
  5
292
  8
0
 62
     7
 10
695.46508800000004
 20
663.69718899999987
 30
0.0
 40
0.25
  0
LINE
  5
293
  8
0
  6
DASHDOT
 62
     7
 10
659.32710999999995
 20
588.58419000000004
 30
0.0
 11
871.31171400000005
 21
588.58419000000004
 31
0.0
  0
LINE
  5
294
  8
0
 62
     7
 10
638.19679299999996
 20
644.58419000000004
 30
0.0
 11
636.11305199999993
 21
632.76650199999995
 31
0.0
  0
LINE
  5
295
  8
0
 62
     7
 10
638.19679299999996
 20
644.58419000000004
 30
0.0
 11
640.28059399999995
 21
632.76650199999995
 31
0.0
  0
LINE
  5
296
  8
0
 62
     7
 10
638.19679299999996
 20
532.58419000000004
 30
0.0
 11
640.28059399999995
 21
544.40188599999988
 31
0.0
  0
LINE
  5
297
  8
0
 62
     7
 10
638.19679299999996
 20
532.58419000000004
 30
0.0
 11
636.11305199999993
 21
544.40188599999988
 31
0.0
  0
LINE
  5
298
  8
0
 62
     7
 10
638.19679299999996
 20
644.58419000000004
 30
0.0
 11
638.19679299999996
 21
532.58419000000004
 31
0.0
  0
LINE
  5
299
  8
0
 62
     7
 10
630.19679299999984
 20
644.58419000000004
 30
0.0
 11
704.79054299999996
 21
644.5841979999999
 31
0.0
  0
LINE
  5
29A
  8
0
 62
     7
 10
630.19679299999984
 20
532.58419000000004
 30
0.0
 11
704.79054299999996
 21
532.58419400000002
 31
0.0
  0
LINE
  5
29B
  8
0
 62
     7
 10
600.70759599999985
 20
659.58419000000004
 30
0.0
 11
598.62379499999986
 21
647.76650199999995
 31
0.0
  0
LINE
  5
29C
  8
0
 62
     7
 10
600.70759599999985
 20
659.58419000000004
 30
0.0
 11
602.791336
 21
647.76650199999995
 31
0.0
  0
LINE
  5
29D
  8
0
 62
     7
 10
600.70759599999985
 20
517.58419000000004
 30
0.0
 11
602.791336
 21
529.40188599999999
 31
0.0
  0
LINE
  5
29E
  8
0
 62
     7
 10
600.70759599999985
 20
517.58419000000004
 30
0.0
 11
598.62379499999986
 21
529.40188599999999
 31
0.0
  0
LINE
  5
29F
  8
0
 62
     7
 10
600.70759599999985
 20
659.58419000000004
 30
0.0
 11
600.70759599999985
 21
517.58419000000004
 31
0.0
  0
LINE
  5
2A0
  8
0
 62
     7
 10
592.70759599999985
 20
659.58419000000004
 30
0.0
 11
714.29054299999984
 21
659.58419800000001
 31
0.0
  0
LINE
  5
2A1
  8
0
 62
     7
 10
592.70759599999985
 20
517.58419000000004
 30
0.0
 11
714.29054299999984
 21
517.58419800000001
 31
0.0
  0
LINE
  5
2A2
  8
0
 62
     7
 10
720.79054299999984
 20
708.36816399999998
 30
0.0
 11
732.60823099999993
 21
706.28437799999995
 31
0.0
  0
LINE
  5
2A3
  8
0
 62
     7
 10
720.79054299999984
 20
708.36816399999998
 30
0.0
 11
732.60823099999993
 21
710.45193499999993
 31
0.0
  0
LINE
  5
2A4
  8
0
 62
     7
 10
800.79054299999984
 20
708.36816399999998
 30
0.0
 11
788.97285499999998
 21
710.45193499999993
 31
0.0
  0
LINE
  5
2A5
  8
0
 62
     7
 10
800.79054299999984
 20
708.36816399999998
 30
0.0
 11
788.97285499999998
 21
706.28437799999995
 31
0.0
  0
LINE
  5
2A6
  8
0
 62
     7
 10
720.79054299999984
 20
708.36816399999998
 30
0.0
 11
800.79054299999984
 21
708.36816399999998
 31
0.0
  0
LINE
  5
2A7
  8
0
 62
     7
 10
720.79054299999984
 20
716.36816399999998
 30
0.0
 11
720.79054299999984
 21
666.08419800000001
 31
0.0
  0
LINE
  5
2A8
  8
0
 62
     7
 10
800.79054299999984
 20
716.36816399999998
 30
0.0
 11
800.79054299999984
 21
666.08419800000001
 31
0.0
  0
LINE
  5
2A9
  8
0
 62
     7
 10
704.79054299999996
 20
741.08603700000003
 30
0.0
 11
716.60823099999993
 21
739.002251
 31
0.0
  0
LINE
  5
2AA
  8
0
 62
     7
 10
704.79054299999996
 20
741.08603700000003
 30
0.0
 11
716.60823099999993
 21
743.16980699999999
 31
0.0
  0
LINE
  5
2AB
  8
0
 62
     7
 10
816.79054299999984
 20
741.08603700000003
 30
0.0
 11
804.97285499999987
 21
743.16980699999999
 31
0.0
  0
LINE
  5
2AC
  8
0
 62
     7
 10
816.79054299999984
 20
741.08603700000003
 30
0.0
 11
804.97285499999987
 21
739.002251
 31
0.0
  0
LINE
  5
2AD
  8
0
 62
     7
 10
704.79054299999996
 20
741.08603700000003
 30
0.0
 11
816.79054299999984
 21
741.08603700000003
 31
0.0
  0
LINE
  5
2AE
  8
0
 62
     7
 10
704.79054299999996
 20
749.08603700000003
 30
0.0
 11
704.79054299999996
 21
644.58420599999999
 31
0.0
  0
LINE
  5
2AF
  8
0
 62
     7
 10
816.79054299999984
 20
749.08603700000003
 30
0.0
 11
816.79054299999984
 21
644.584202
 31
0.0
  0
LINE
  5
2B0
  8
0
 62
     7
 10
718.00300599999991
 20
515.46765900000003
 30
0.0
 11
707.33088699999985
 21
509.98081200000001
 31
0.0
  0
LINE
  5
2B1
  8
0
 62
     7
 10
718.00300599999991
 20
515.46765900000003
 30
0.0
 11
709.851089
 21
506.66162099999991
 31
0.0
  0
LINE
  5
2B2
  8
0
 62
     7
 10
723.57807899999989
 20
519.70072199999993
 30
0.0
 11
734.25019799999995
 21
525.18757599999992
 31
0.0
  0
LINE
  5
2B3
  8
0
 62
     7
 10
723.57807899999989
 20
519.70072199999993
 30
0.0
 11
731.72999600000003
 21
528.50675999999987
 31
0.0
  0
LINE
  5
2B4
  8
0
 62
     7
 10
723.57807899999989
 20
519.70072199999993
 30
0.0
 11
649.74903899999993
 21
463.64322699999991
 31
0.0
  0
LINE
  5
2B5
  8
0
 62
    31
 10
119.711876
 20
505.83418999999998
 30
0.0
 11
96.711876000000004
 21
505.83418999999998
 31
0.0
  0
LINE
  5
2B6
  8
0
 62
    31
 10
119.711876
 20
493.43419099999988
 30
0.0
 11
96.711876000000004
 21
493.43419099999988
 31
0.0
  0
LINE
  5
2B7
  8
0
 62
    31
 10
119.711876
 20
493.43419099999988
 30
0.0
 11
119.711876
 21
505.83418999999998
 31
0.0
  0
LINE
  5
2B8
  8
0
 62
    31
 10
96.711876000000004
 20
491.63419099999987
 30
0.0
 11
96.711876000000004
 21
507.63418999999999
 31
0.0
  0
LINE
  5
2B9
  8
0
  6
DASHDOT
 62
    31
 10
124.7731399999999
 20
499.63418999999999
 30
0.0
 11
76.099716000000001
 21
499.63418999999999
 31
0.0
  0
LINE
  5
2BA
  8
0
 62
    31
 10
96.711876000000004
 20
491.63419099999987
 30
0.0
 11
68.099716000000001
 21
491.63419099999987
 31
0.0
  0
LINE
  5
2BB
  8
0
 62
    31
 10
96.711876000000004
 20
507.63418999999999
 30
0.0
 11
68.099716000000001
 21
507.63418999999999
 31
0.0
  0
LINE
  5
2BC
  8
0
 62
    31
 10
119.711876
 20
499.63418999999999
 30
0.0
 11
96.711876000000004
 21
503.68971099999999
 31
0.0
  0
POLYLINE
  5
2BD
  8
0
 62
    31
 66
     1
 10
0.0
 20
0.0
 30
0.0
 70
     1
  0
VERTEX
  5
CFA
  8
0
 62
    31
 10
68.099716000000001
 20
491.63419099999987
 30
0.0
  0
VERTEX
  5
CFB
  8
0
 62
    31
 10
68.189171000000002
 20
491.638194
 30
0.0
  0
VERTEX
  5
CFC
  8
0
 62
    31
 10
68.278587000000002
 20
491.65021999999999
 30
0.0
  0
VERTEX
  5
CFD
  8
0
 62
    31
 10
68.368033999999994
 20
491.67034999999993
 30
0.0
  0
VERTEX
  5
CFE
  8
0
 62
    31
 10
68.457572999999996
 20
491.69874199999992
 30
0.0
  0
VERTEX
  5
CFF
  8
0
 62
    31
 10
68.547248999999994
 20
491.73561799999987
 30
0.0
  0
VERTEX
  5
D00
  8
0
 62
    31
 10
68.637046999999995
 20
491.78125799999992
 30
0.0
  0
VERTEX
  5
D01
  8
0
 62
    31
 10
68.726935999999995
 20
491.83598399999988
 30
0.0
  0
VERTEX
  5
D02
  8
0
 62
    31
 10
68.816818000000012
 20
491.90015199999988
 30
0.0
  0
VERTEX
  5
D03
  8
0
 62
    31
 10
68.906555000000012
 20
491.97413299999988
 30
0.0
  0
VERTEX
  5
D04
  8
0
 62
    31
 10
68.995956000000007
 20
492.05829699999992
 30
0.0
  0
VERTEX
  5
D05
  8
0
 62
    31
 10
69.084769999999992
 20
492.1530009999999
 30
0.0
  0
VERTEX
  5
D06
  8
0
 62
    31
 10
69.172698999999994
 20
492.25856800000003
 30
0.0
  0
VERTEX
  5
D07
  8
0
 62
    31
 10
69.259399000000002
 20
492.37527699999998
 30
0.0
  0
VERTEX
  5
D08
  8
0
 62
    31
 10
69.344481999999999
 20
492.50334399999991
 30
0.0
  0
VERTEX
  5
D09
  8
0
 62
    31
 10
69.427520999999984
 20
492.64290799999998
 30
0.0
  0
VERTEX
  5
D0A
  8
0
 62
    31
 10
69.508033999999995
 20
492.79402199999993
 30
0.0
  0
VERTEX
  5
D0B
  8
0
 62
    31
 10
69.585541000000006
 20
492.9566309999999
 30
0.0
  0
VERTEX
  5
D0C
  8
0
 62
    31
 10
69.659514999999999
 20
493.13057300000003
 30
0.0
  0
VERTEX
  5
D0D
  8
0
 62
    31
 10
69.729438999999999
 20
493.31556499999999
 30
0.0
  0
VERTEX
  5
D0E
  8
0
 62
    31
 10
69.794776999999996
 20
493.51119499999999
 30
0.0
  0
VERTEX
  5
D0F
  8
0
 62
    31
 10
69.854996
 20
493.71692300000012
 30
0.0
  0
VERTEX
  5
D10
  8
0
 62
    31
 10
69.909606999999994
 20
493.932075
 30
0.0
  0
VERTEX
  5
D11
  8
0
 62
    31
 10
69.958106999999984
 20
494.15584999999999
 30
0.0
  0
VERTEX
  5
D12
  8
0
 62
    31
 10
70.000068999999996
 20
494.38732700000003
 30
0.0
  0
VERTEX
  5
D13
  8
0
 62
    31
 10
70.035072
 20
494.62546500000002
 30
0.0
  0
VERTEX
  5
D14
  8
0
 62
    31
 10
70.062790000000007
 20
494.86912699999988
 30
0.0
  0
VERTEX
  5
D15
  8
0
 62
    31
 10
70.082932
 20
495.11708099999993
 30
0.0
  0
VERTEX
  5
D16
  8
0
 62
    31
 10
70.095283999999992
 20
495.36802699999993
 30
0.0
  0
VERTEX
  5
D17
  8
0
 62
    31
 10
70.099700999999996
 20
495.62061899999998
 30
0.0
  0
VERTEX
  5
D18
  8
0
 62
    31
 10
70.096130000000002
 20
495.87347199999988
 30
0.0
  0
VERTEX
  5
D19
  8
0
 62
    31
 10
70.09135400000001
 20
495.99951899999991
 30
0.0
  0
VERTEX
  5
D1A
  8
0
 62
    31
 10
70.084586999999999
 20
496.12520199999989
 30
0.0
  0
VERTEX
  5
D1B
  8
0
 62
    31
 10
70.075858999999994
 20
496.25012400000003
 30
0.0
  0
VERTEX
  5
D1C
  8
0
 62
    31
 10
70.065169999999995
 20
496.3744319999999
 30
0.0
  0
VERTEX
  5
D1D
  8
0
 62
    31
 10
70.052573999999993
 20
496.49755499999998
 30
0.0
  0
VERTEX
  5
D1E
  8
0
 62
    31
 10
70.038048000000003
 20
496.61982499999988
 30
0.0
  0
VERTEX
  5
D1F
  8
0
 62
    31
 10
70.021698000000001
 20
496.74050299999999
 30
0.0
  0
VERTEX
  5
D20
  8
0
 62
    31
 10
70.00347099999999
 20
496.86009999999987
 30
0.0
  0
VERTEX
  5
D21
  8
0
 62
    31
 10
69.983520999999996
 20
496.97772399999991
 30
0.0
  0
VERTEX
  5
D22
  8
0
 62
    31
 10
69.961760999999996
 20
497.09405099999998
 30
0.0
  0
VERTEX
  5
D23
  8
0
 62
    31
 10
69.938393000000005
 20
497.20805700000011
 30
0.0
  0
VERTEX
  5
D24
  8
0
 62
    31
 10
69.91328399999999
 20
497.32056799999992
 30
0.0
  0
VERTEX
  5
D25
  8
0
 62
    31
 10
69.886718999999985
 20
497.43044499999991
 30
0.0
  0
VERTEX
  5
D26
  8
0
 62
    31
 10
69.858481999999995
 20
497.53864899999991
 30
0.0
  0
VERTEX
  5
D27
  8
0
 62
    31
 10
69.828941
 20
497.64394599999991
 30
0.0
  0
VERTEX
  5
D28
  8
0
 62
    31
 10
69.797828999999993
 20
497.74740999999989
 30
0.0
  0
VERTEX
  5
D29
  8
0
 62
    31
 10
69.765563999999983
 20
497.84773799999999
 30
0.0
  0
VERTEX
  5
D2A
  8
0
 62
    31
 10
69.731818999999987
 20
497.9460959999999
 30
0.0
  0
VERTEX
  5
D2B
  8
0
 62
    31
 10
69.697105000000008
 20
498.04113399999989
 30
0.0
  0
VERTEX
  5
D2C
  8
0
 62
    31
 10
69.661002999999994
 20
498.1340889999999
 30
0.0
  0
VERTEX
  5
D2D
  8
0
 62
    31
 10
69.624106999999995
 20
498.22358099999991
 30
0.0
  0
VERTEX
  5
D2E
  8
0
 62
    31
 10
69.585921999999997
 20
498.31089600000001
 30
0.0
  0
VERTEX
  5
D2F
  8
0
 62
    31
 10
69.547111999999998
 20
498.39465899999999
 30
0.0
  0
VERTEX
  5
D30
  8
0
 62
    31
 10
69.507118000000006
 20
498.47617099999991
 30
0.0
  0
VERTEX
  5
D31
  8
0
 62
    31
 10
69.466667000000001
 20
498.55408099999988
 30
0.0
  0
VERTEX
  5
D32
  8
0
 62
    31
 10
69.425139999999999
 20
498.62968599999999
 30
0.0
  0
VERTEX
  5
D33
  8
0
 62
    31
 10
69.383316000000008
 20
498.70168299999989
 30
0.0
  0
VERTEX
  5
D34
  8
0
 62
    31
 10
69.340508
 20
498.77134299999989
 30
0.0
  0
VERTEX
  5
D35
  8
0
 62
    31
 10
69.297554000000005
 20
498.83742499999988
 30
0.0
  0
VERTEX
  5
D36
  8
0
 62
    31
 10
69.253722999999994
 20
498.90115399999991
 30
0.0
  0
VERTEX
  5
D37
  8
0
 62
    31
 10
69.209884999999986
 20
498.96136699999988
 30
0.0
  0
VERTEX
  5
D38
  8
0
 62
    31
 10
69.165260000000004
 20
499.01922599999989
 30
0.0
  0
VERTEX
  5
D39
  8
0
 62
    31
 10
69.120743000000004
 20
499.073666
 30
0.0
  0
VERTEX
  5
D3A
  8
0
 62
    31
 10
69.075539000000006
 20
499.125765
 30
0.0
  0
VERTEX
  5
D3B
  8
0
 62
    31
 10
69.030547999999996
 20
499.17456099999998
 30
0.0
  0
VERTEX
  5
D3C
  8
0
 62
    31
 10
68.984946999999991
 20
499.22103899999991
 30
0.0
  0
VERTEX
  5
D3D
  8
0
 62
    31
 10
68.939644000000001
 20
499.26435499999991
 30
0.0
  0
VERTEX
  5
D3E
  8
0
 62
    31
 10
68.893814000000006
 20
499.30538200000001
 30
0.0
  0
VERTEX
  5
D3F
  8
0
 62
    31
 10
68.848343
 20
499.34339699999992
 30
0.0
  0
VERTEX
  5
D40
  8
0
 62
    31
 10
68.802421999999993
 20
499.3791599999999
 30
0.0
  0
VERTEX
  5
D41
  8
0
 62
    31
 10
68.756905000000003
 20
499.41207300000002
 30
0.0
  0
VERTEX
  5
D42
  8
0
 62
    31
 10
68.711006000000012
 20
499.44277199999999
 30
0.0
  0
VERTEX
  5
D43
  8
0
 62
    31
 10
68.665526999999983
 20
499.47078099999987
 30
0.0
  0
VERTEX
  5
D44
  8
0
 62
    31
 10
68.619728000000009
 20
499.4966179999999
 30
0.0
  0
VERTEX
  5
D45
  8
0
 62
    31
 10
68.574348000000001
 20
499.51992000000001
 30
0.0
  0
VERTEX
  5
D46
  8
0
 62
    31
 10
68.528708999999992
 20
499.54109
 30
0.0
  0
VERTEX
  5
D47
  8
0
 62
    31
 10
68.483467000000005
 20
499.55986799999988
 30
0.0
  0
VERTEX
  5
D48
  8
0
 62
    31
 10
68.438018999999997
 20
499.57655099999999
 30
0.0
  0
VERTEX
  5
D49
  8
0
 62
    31
 10
68.392921000000001
 20
499.59097300000002
 30
0.0
  0
VERTEX
  5
D4A
  8
0
 62
    31
 10
68.347663999999995
 20
499.60333099999991
 30
0.0
  0
VERTEX
  5
D4B
  8
0
 62
    31
 10
68.302704000000006
 20
499.6135349999999
 30
0.0
  0
VERTEX
  5
D4C
  8
0
 62
    31
 10
68.257644999999997
 20
499.62169999999992
 30
0.0
  0
VERTEX
  5
D4D
  8
0
 62
    31
 10
68.212799000000004
 20
499.62779199999989
 30
0.0
  0
VERTEX
  5
D4E
  8
0
 62
    31
 10
68.167892000000009
 20
499.631866
 30
0.0
  0
VERTEX
  5
D4F
  8
0
 62
    31
 10
68.123122999999993
 20
499.63391699999988
 30
0.0
  0
VERTEX
  5
D50
  8
0
 62
    31
 10
68.078339
 20
499.63396299999999
 30
0.0
  0
VERTEX
  5
D51
  8
0
 62
    31
 10
67.988899000000004
 20
499.62804599999998
 30
0.0
  0
VERTEX
  5
D52
  8
0
 62
    31
 10
67.89949
 20
499.61409400000002
 30
0.0
  0
VERTEX
  5
D53
  8
0
 62
    31
 10
67.810028000000003
 20
499.5920089999999
 30
0.0
  0
VERTEX
  5
D54
  8
0
 62
    31
 10
67.720450999999997
 20
499.56161300000002
 30
0.0
  0
VERTEX
  5
D55
  8
0
 62
    31
 10
67.63074499999999
 20
499.52267099999989
 30
0.0
  0
VERTEX
  5
D56
  8
0
 62
    31
 10
67.54091600000001
 20
499.47489200000001
 30
0.0
  0
VERTEX
  5
D57
  8
0
 62
    31
 10
67.451018999999974
 20
499.41794399999998
 30
0.0
  0
VERTEX
  5
D58
  8
0
 62
    31
 10
67.361159999999984
 20
499.35146500000002
 30
0.0
  0
VERTEX
  5
D59
  8
0
 62
    31
 10
67.271484000000001
 20
499.27508499999999
 30
0.0
  0
VERTEX
  5
D5A
  8
0
 62
    31
 10
67.182197999999985
 20
499.18843499999991
 30
0.0
  0
VERTEX
  5
D5B
  8
0
 62
    31
 10
67.093566999999993
 20
499.09116599999999
 30
0.0
  0
VERTEX
  5
D5C
  8
0
 62
    31
 10
67.005898000000002
 20
498.98295999999988
 30
0.0
  0
VERTEX
  5
D5D
  8
0
 62
    31
 10
66.919547999999992
 20
498.8635559999999
 30
0.0
  0
VERTEX
  5
D5E
  8
0
 62
    31
 10
66.834915000000009
 20
498.732752
 30
0.0
  0
VERTEX
  5
D5F
  8
0
 62
    31
 10
66.752433999999994
 20
498.59043099999991
 30
0.0
  0
VERTEX
  5
D60
  8
0
 62
    31
 10
66.672592000000009
 20
498.43656299999998
 30
0.0
  0
VERTEX
  5
D61
  8
0
 62
    31
 10
66.595885999999993
 20
498.2712269999999
 30
0.0
  0
VERTEX
  5
D62
  8
0
 62
    31
 10
66.522827000000007
 20
498.09461599999997
 30
0.0
  0
VERTEX
  5
D63
  8
0
 62
    31
 10
66.453948999999994
 20
497.90704199999999
 30
0.0
  0
VERTEX
  5
D64
  8
0
 62
    31
 10
66.389786000000001
 20
497.70894399999997
 30
0.0
  0
VERTEX
  5
D65
  8
0
 62
    31
 10
66.330864000000005
 20
497.5009
 30
0.0
  0
VERTEX
  5
D66
  8
0
 62
    31
 10
66.277671999999995
 20
497.28361100000001
 30
0.0
  0
VERTEX
  5
D67
  8
0
 62
    31
 10
66.230689999999996
 20
497.057907
 30
0.0
  0
VERTEX
  5
D68
  8
0
 62
    31
 10
66.190360999999996
 20
496.82474100000002
 30
0.0
  0
VERTEX
  5
D69
  8
0
 62
    31
 10
66.157059000000004
 20
496.58517599999988
 30
0.0
  0
VERTEX
  5
D6A
  8
0
 62
    31
 10
66.131134000000003
 20
496.34037599999999
 30
0.0
  0
VERTEX
  5
D6B
  8
0
 62
    31
 10
66.112831
 20
496.091587
 30
0.0
  0
VERTEX
  5
D6C
  8
0
 62
    31
 10
66.102370999999991
 20
495.84012399999989
 30
0.0
  0
VERTEX
  5
D6D
  8
0
 62
    31
 10
66.099854000000008
 20
495.58734299999992
 30
0.0
  0
VERTEX
  5
D6E
  8
0
 62
    31
 10
66.101593000000008
 20
495.46090099999992
 30
0.0
  0
VERTEX
  5
D6F
  8
0
 62
    31
 10
66.105331000000007
 20
495.33463099999989
 30
0.0
  0
VERTEX
  5
D70
  8
0
 62
    31
 10
66.111060999999992
 20
495.20879200000002
 30
0.0
  0
VERTEX
  5
D71
  8
0
 62
    31
 10
66.118767000000005
 20
495.08337599999999
 30
0.0
  0
VERTEX
  5
D72
  8
0
 62
    31
 10
66.128433000000001
 20
494.95882199999988
 30
0.0
  0
VERTEX
  5
D73
  8
0
 62
    31
 10
66.140045000000001
 20
494.83494200000001
 30
0.0
  0
VERTEX
  5
D74
  8
0
 62
    31
 10
66.153548999999984
 20
494.71234500000003
 30
0.0
  0
VERTEX
  5
D75
  8
0
 62
    31
 10
66.168976000000001
 20
494.59065700000002
 30
0.0
  0
VERTEX
  5
D76
  8
0
 62
    31
 10
66.186194999999998
 20
494.47065499999991
 30
0.0
  0
VERTEX
  5
D77
  8
0
 62
    31
 10
66.205283999999992
 20
494.35178699999989
 30
0.0
  0
VERTEX
  5
D78
  8
0
 62
    31
 10
66.226067
 20
494.2349779999999
 30
0.0
  0
VERTEX
  5
D79
  8
0
 62
    31
 10
66.248649999999984
 20
494.11951399999992
 30
0.0
  0
VERTEX
  5
D7A
  8
0
 62
    31
 10
66.272803999999994
 20
494.00645100000003
 30
0.0
  0
VERTEX
  5
D7B
  8
0
 62
    31
 10
66.298676
 20
493.894924
 30
0.0
  0
VERTEX
  5
D7C
  8
0
 62
    31
 10
66.325980999999999
 20
493.78610300000003
 30
0.0
  0
VERTEX
  5
D7D
  8
0
 62
    31
 10
66.354918999999995
 20
493.67899399999999
 30
0.0
  0
VERTEX
  5
D7E
  8
0
 62
    31
 10
66.385138999999995
 20
493.57485199999991
 30
0.0
  0
VERTEX
  5
D7F
  8
0
 62
    31
 10
66.416900999999996
 20
493.472576
 30
0.0
  0
VERTEX
  5
D80
  8
0
 62
    31
 10
66.449776
 20
493.3734849999999
 30
0.0
  0
VERTEX
  5
D81
  8
0
 62
    31
 10
66.484107999999992
 20
493.27639199999999
 30
0.0
  0
VERTEX
  5
D82
  8
0
 62
    31
 10
66.519370999999992
 20
493.182658
 30
0.0
  0
VERTEX
  5
D83
  8
0
 62
    31
 10
66.555992000000003
 20
493.09103299999992
 30
0.0
  0
VERTEX
  5
D84
  8
0
 62
    31
 10
66.593376000000006
 20
493.00289299999991
 30
0.0
  0
VERTEX
  5
D85
  8
0
 62
    31
 10
66.632011000000006
 20
492.91695199999998
 30
0.0
  0
VERTEX
  5
D86
  8
0
 62
    31
 10
66.671242000000007
 20
492.83457900000002
 30
0.0
  0
VERTEX
  5
D87
  8
0
 62
    31
 10
66.711624
 20
492.75447000000003
 30
0.0
  0
VERTEX
  5
D88
  8
0
 62
    31
 10
66.752426
 20
492.6779699999999
 30
0.0
  0
VERTEX
  5
D89
  8
0
 62
    31
 10
66.794281000000012
 20
492.60378200000002
 30
0.0
  0
VERTEX
  5
D8A
  8
0
 62
    31
 10
66.836403000000004
 20
492.53320000000002
 30
0.0
  0
VERTEX
  5
D8B
  8
0
 62
    31
 10
66.879470999999995
 20
492.46495899999991
 30
0.0
  0
VERTEX
  5
D8C
  8
0
 62
    31
 10
66.922661000000005
 20
492.40028699999988
 30
0.0
  0
VERTEX
  5
D8D
  8
0
 62
    31
 10
66.966697999999994
 20
492.33796699999999
 30
0.0
  0
VERTEX
  5
D8E
  8
0
 62
    31
 10
67.010718999999995
 20
492.27914199999998
 30
0.0
  0
VERTEX
  5
D8F
  8
0
 62
    31
 10
67.055503999999985
 20
492.22266999999999
 30
0.0
  0
VERTEX
  5
D90
  8
0
 62
    31
 10
67.100143000000003
 20
492.16959100000003
 30
0.0
  0
VERTEX
  5
D91
  8
0
 62
    31
 10
67.145461999999995
 20
492.11884900000001
 30
0.0
  0
VERTEX
  5
D92
  8
0
 62
    31
 10
67.190543999999989
 20
492.07137699999981
 30
0.0
  0
VERTEX
  5
D93
  8
0
 62
    31
 10
67.236214000000004
 20
492.02621699999992
 30
0.0
  0
VERTEX
  5
D94
  8
0
 62
    31
 10
67.281570000000002
 20
491.98418500000002
 30
0.0
  0
VERTEX
  5
D95
  8
0
 62
    31
 10
67.327431000000004
 20
491.944433
 30
0.0
  0
VERTEX
  5
D96
  8
0
 62
    31
 10
67.372917000000001
 20
491.90765399999992
 30
0.0
  0
VERTEX
  5
D97
  8
0
 62
    31
 10
67.418846000000002
 20
491.87311799999992
 30
0.0
  0
VERTEX
  5
D98
  8
0
 62
    31
 10
67.464363000000006
 20
491.84139499999998
 30
0.0
  0
VERTEX
  5
D99
  8
0
 62
    31
 10
67.510245999999995
 20
491.81187499999987
 30
0.0
  0
VERTEX
  5
D9A
  8
0
 62
    31
 10
67.555701999999997
 20
491.785008
 30
0.0
  0
VERTEX
  5
D9B
  8
0
 62
    31
 10
67.601470999999989
 20
491.76030300000002
 30
0.0
  0
VERTEX
  5
D9C
  8
0
 62
    31
 10
67.646819999999991
 20
491.73809799999998
 30
0.0
  0
VERTEX
  5
D9D
  8
0
 62
    31
 10
67.692413000000002
 20
491.71801599999998
 30
0.0
  0
VERTEX
  5
D9E
  8
0
 62
    31
 10
67.737624999999994
 20
491.70029199999988
 30
0.0
  0
VERTEX
  5
D9F
  8
0
 62
    31
 10
67.783028000000002
 20
491.68465499999991
 30
0.0
  0
VERTEX
  5
DA0
  8
0
 62
    31
 10
67.828086999999996
 20
491.67125199999992
 30
0.0
  0
VERTEX
  5
DA1
  8
0
 62
    31
 10
67.873290999999995
 20
491.65990599999998
 30
0.0
  0
VERTEX
  5
DA2
  8
0
 62
    31
 10
67.918221000000003
 20
491.65069399999999
 30
0.0
  0
VERTEX
  5
DA3
  8
0
 62
    31
 10
67.963249000000005
 20
491.64351299999993
 30
0.0
  0
VERTEX
  5
DA4
  8
0
 62
    31
 10
68.008071999999999
 20
491.63839100000001
 30
0.0
  0
VERTEX
  5
DA5
  8
0
 62
    31
 10
68.052940000000007
 20
491.63528400000001
 30
0.0
  0
SEQEND
  5
DA6
  8
0
 62
    31
  0
POLYLINE
  5
36B
  8
0
 62
    31
 66
     1
 10
0.0
 20
0.0
 30
0.0
  0
VERTEX
  5
DA7
  8
0
 62
    31
 10
68.099716000000001
 20
507.63418999999999
 30
0.0
  0
VERTEX
  5
DA8
  8
0
 62
    31
 10
68.010261999999983
 20
507.63018799999992
 30
0.0
  0
VERTEX
  5
DA9
  8
0
 62
    31
 10
67.920845
 20
507.61815999999988
 30
0.0
  0
VERTEX
  5
DAA
  8
0
 62
    31
 10
67.831397999999993
 20
507.59802999999999
 30
0.0
  0
VERTEX
  5
DAB
  8
0
 62
    31
 10
67.741858999999991
 20
507.56963899999988
 30
0.0
  0
VERTEX
  5
DAC
  8
0
 62
    31
 10
67.652183999999991
 20
507.53276299999999
 30
0.0
  0
VERTEX
  5
DAD
  8
0
 62
    31
 10
67.562386000000004
 20
507.487123
 30
0.0
  0
VERTEX
  5
DAE
  8
0
 62
    31
 10
67.472495999999992
 20
507.43239599999998
 30
0.0
  0
VERTEX
  5
DAF
  8
0
 62
    31
 10
67.382614000000004
 20
507.36822899999993
 30
0.0
  0
VERTEX
  5
DB0
  8
0
 62
    31
 10
67.292869999999994
 20
507.29424699999998
 30
0.0
  0
VERTEX
  5
DB1
  8
0
 62
    31
 10
67.203475999999995
 20
507.210083
 30
0.0
  0
VERTEX
  5
DB2
  8
0
 62
    31
 10
67.114661999999996
 20
507.11537900000002
 30
0.0
  0
VERTEX
  5
DB3
  8
0
 62
    31
 10
67.026732999999993
 20
507.00981299999989
 30
0.0
  0
VERTEX
  5
DB4
  8
0
 62
    31
 10
66.940033
 20
506.89310499999988
 30
0.0
  0
VERTEX
  5
DB5
  8
0
 62
    31
 10
66.854950000000002
 20
506.76503799999989
 30
0.0
  0
VERTEX
  5
DB6
  8
0
 62
    31
 10
66.771912
 20
506.625473
 30
0.0
  0
VERTEX
  5
DB7
  8
0
 62
    31
 10
66.691399000000004
 20
506.47435999999988
 30
0.0
  0
VERTEX
  5
DB8
  8
0
 62
    31
 10
66.613892000000007
 20
506.31175000000002
 30
0.0
  0
VERTEX
  5
DB9
  8
0
 62
    31
 10
66.539917000000003
 20
506.13780799999989
 30
0.0
  0
VERTEX
  5
DBA
  8
0
 62
    31
 10
66.469994
 20
505.95281599999998
 30
0.0
  0
VERTEX
  5
DBB
  8
0
 62
    31
 10
66.404655000000005
 20
505.75718499999988
 30
0.0
  0
VERTEX
  5
DBC
  8
0
 62
    31
 10
66.344429000000005
 20
505.55145800000003
 30
0.0
  0
VERTEX
  5
DBD
  8
0
 62
    31
 10
66.289824999999993
 20
505.33630599999992
 30
0.0
  0
VERTEX
  5
DBE
  8
0
 62
    31
 10
66.241325000000003
 20
505.11252999999988
 30
0.0
  0
VERTEX
  5
DBF
  8
0
 62
    31
 10
66.199364000000003
 20
504.88105399999989
 30
0.0
  0
VERTEX
  5
DC0
  8
0
 62
    31
 10
66.164352000000008
 20
504.64291399999991
 30
0.0
  0
VERTEX
  5
DC1
  8
0
 62
    31
 10
66.136642000000009
 20
504.39925399999993
 30
0.0
  0
VERTEX
  5
DC2
  8
0
 62
    31
 10
66.116501
 20
504.15129999999999
 30
0.0
  0
VERTEX
  5
DC3
  8
0
 62
    31
 10
66.104148999999992
 20
503.90035399999999
 30
0.0
  0
VERTEX
  5
DC4
  8
0
 62
    31
 10
66.099723999999995
 20
503.647762
 30
0.0
  0
VERTEX
  5
DC5
  8
0
 62
    31
 10
66.103293999999991
 20
503.39490899999998
 30
0.0
  0
VERTEX
  5
DC6
  8
0
 62
    31
 10
66.108078000000006
 20
503.2688599999999
 30
0.0
  0
VERTEX
  5
DC7
  8
0
 62
    31
 10
66.114838000000006
 20
503.14317899999998
 30
0.0
  0
VERTEX
  5
DC8
  8
0
 62
    31
 10
66.123565999999997
 20
503.01825700000001
 30
0.0
  0
VERTEX
  5
DC9
  8
0
 62
    31
 10
66.134261999999993
 20
502.89394800000002
 30
0.0
  0
VERTEX
  5
DCA
  8
0
 62
    31
 10
66.146857999999995
 20
502.77082599999989
 30
0.0
  0
VERTEX
  5
DCB
  8
0
 62
    31
 10
66.161384999999996
 20
502.64855599999999
 30
0.0
  0
VERTEX
  5
DCC
  8
0
 62
    31
 10
66.177734000000001
 20
502.52787799999999
 30
0.0
  0
VERTEX
  5
DCD
  8
0
 62
    31
 10
66.195960999999997
 20
502.40828099999987
 30
0.0
  0
VERTEX
  5
DCE
  8
0
 62
    31
 10
66.215912000000003
 20
502.2906569999999
 30
0.0
  0
VERTEX
  5
DCF
  8
0
 62
    31
 10
66.237670999999992
 20
502.17432999999988
 30
0.0
  0
VERTEX
  5
DD0
  8
0
 62
    31
 10
66.261040000000008
 20
502.06032399999998
 30
0.0
  0
VERTEX
  5
DD1
  8
0
 62
    31
 10
66.286147999999997
 20
501.947813
 30
0.0
  0
VERTEX
  5
DD2
  8
0
 62
    31
 10
66.312714
 20
501.8379359999999
 30
0.0
  0
VERTEX
  5
DD3
  8
0
 62
    31
 10
66.340950000000007
 20
501.72973100000002
 30
0.0
  0
VERTEX
  5
DD4
  8
0
 62
    31
 10
66.370491000000001
 20
501.62443500000001
 30
0.0
  0
VERTEX
  5
DD5
  8
0
 62
    31
 10
66.401604000000006
 20
501.52097099999992
 30
0.0
  0
VERTEX
  5
DD6
  8
0
 62
    31
 10
66.433868000000004
 20
501.42064299999993
 30
0.0
  0
VERTEX
  5
DD7
  8
0
 62
    31
 10
66.467606000000004
 20
501.32228500000002
 30
0.0
  0
VERTEX
  5
DD8
  8
0
 62
    31
 10
66.502326999999994
 20
501.22724699999998
 30
0.0
  0
VERTEX
  5
DD9
  8
0
 62
    31
 10
66.538421999999997
 20
501.1342929999999
 30
0.0
  0
VERTEX
  5
DDA
  8
0
 62
    31
 10
66.575325000000007
 20
501.04480000000001
 30
0.0
  0
VERTEX
  5
DDB
  8
0
 62
    31
 10
66.613509999999991
 20
500.95748300000002
 30
0.0
  0
VERTEX
  5
DDC
  8
0
 62
    31
 10
66.652321000000001
 20
500.87372199999987
 30
0.0
  0
VERTEX
  5
DDD
  8
0
 62
    31
 10
66.692313999999996
 20
500.79221000000001
 30
0.0
  0
VERTEX
  5
DDE
  8
0
 62
    31
 10
66.732765000000001
 20
500.71429999999998
 30
0.0
  0
VERTEX
  5
DDF
  8
0
 62
    31
 10
66.774292000000003
 20
500.63869299999988
 30
0.0
  0
VERTEX
  5
DE0
  8
0
 62
    31
 10
66.816115999999994
 20
500.56669799999992
 30
0.0
  0
VERTEX
  5
DE1
  8
0
 62
    31
 10
66.858924999999999
 20
500.49703599999998
 30
0.0
  0
VERTEX
  5
DE2
  8
0
 62
    31
 10
66.901877999999996
 20
500.43095599999998
 30
0.0
  0
VERTEX
  5
DE3
  8
0
 62
    31
 10
66.945708999999994
 20
500.3672279999999
 30
0.0
  0
VERTEX
  5
DE4
  8
0
 62
    31
 10
66.989547999999999
 20
500.30701399999998
 30
0.0
  0
VERTEX
  5
DE5
  8
0
 62
    31
 10
67.034171999999998
 20
500.24915299999998
 30
0.0
  0
VERTEX
  5
DE6
  8
0
 62
    31
 10
67.078690000000009
 20
500.19471499999997
 30
0.0
  0
VERTEX
  5
DE7
  8
0
 62
    31
 10
67.123893999999993
 20
500.14261599999998
 30
0.0
  0
VERTEX
  5
DE8
  8
0
 62
    31
 10
67.168883999999991
 20
500.09382099999999
 30
0.0
  0
VERTEX
  5
DE9
  8
0
 62
    31
 10
67.214484999999996
 20
500.04734200000001
 30
0.0
  0
VERTEX
  5
DEA
  8
0
 62
    31
 10
67.259788999999998
 20
500.0040259999999
 30
0.0
  0
VERTEX
  5
DEB
  8
0
 62
    31
 10
67.30561800000001
 20
499.96299900000002
 30
0.0
  0
VERTEX
  5
DEC
  8
0
 62
    31
 10
67.351089000000002
 20
499.92498399999999
 30
0.0
  0
VERTEX
  5
DED
  8
0
 62
    31
 10
67.397010999999992
 20
499.88921900000003
 30
0.0
  0
VERTEX
  5
DEE
  8
0
 62
    31
 10
67.442527999999996
 20
499.85630800000001
 30
0.0
  0
VERTEX
  5
DEF
  8
0
 62
    31
 10
67.488426000000004
 20
499.82560699999999
 30
0.0
  0
VERTEX
  5
DF0
  8
0
 62
    31
 10
67.533905000000004
 20
499.79759999999999
 30
0.0
  0
VERTEX
  5
DF1
  8
0
 62
    31
 10
67.579704000000007
 20
499.77176299999991
 30
0.0
  0
VERTEX
  5
DF2
  8
0
 62
    31
 10
67.625084000000001
 20
499.74846099999991
 30
0.0
  0
VERTEX
  5
DF3
  8
0
 62
    31
 10
67.670722999999995
 20
499.72729099999998
 30
0.0
  0
VERTEX
  5
DF4
  8
0
 62
    31
 10
67.715964999999997
 20
499.70851299999998
 30
0.0
  0
VERTEX
  5
DF5
  8
0
 62
    31
 10
67.761414000000002
 20
499.69182999999992
 30
0.0
  0
VERTEX
  5
DF6
  8
0
 62
    31
 10
67.806511
 20
499.67740800000001
 30
0.0
  0
VERTEX
  5
DF7
  8
0
 62
    31
 10
67.851768000000007
 20
499.66504900000001
 30
0.0
  0
VERTEX
  5
DF8
  8
0
 62
    31
 10
67.896729000000008
 20
499.65484600000002
 30
0.0
  0
VERTEX
  5
DF9
  8
0
 62
    31
 10
67.941788000000003
 20
499.64668099999989
 30
0.0
  0
VERTEX
  5
DFA
  8
0
 62
    31
 10
67.986632999999998
 20
499.64058899999998
 30
0.0
  0
VERTEX
  5
DFB
  8
0
 62
    31
 10
68.031540000000007
 20
499.63651499999997
 30
0.0
  0
VERTEX
  5
DFC
  8
0
 62
    31
 10
68.099716000000001
 20
499.63418999999999
 30
0.0
  0
SEQEND
  5
DFD
  8
0
 62
    31
  0
LINE
  5
3C3
  8
0
 62
    31
 10
119.711876
 20
501.05578800000001
 30
0.0
 11
96.711876000000004
 21
505.11130900000001
 31
0.0
  0
LINE
  5
3C4
  8
0
 62
    31
 10
119.711876
 20
502.47738499999991
 30
0.0
 11
100.67448399999989
 21
505.83418999999998
 31
0.0
  0
LINE
  5
3C5
  8
0
 62
    31
 10
119.711876
 20
503.89898299999999
 30
0.0
 11
108.7367629999999
 21
505.83418999999998
 31
0.0
  0
LINE
  5
3C6
  8
0
 62
    31
 10
119.711876
 20
505.32057999999989
 30
0.0
 11
116.7990419999999
 21
505.83418999999998
 31
0.0
  0
LINE
  5
3C7
  8
0
 62
    31
 10
119.711876
 20
498.21259299999991
 30
0.0
 11
96.711876000000004
 21
502.26811399999991
 31
0.0
  0
LINE
  5
3C8
  8
0
 62
    31
 10
119.711876
 20
496.790997
 30
0.0
 11
96.711876000000004
 21
500.84651600000001
 31
0.0
  0
LINE
  5
3C9
  8
0
 62
    31
 10
119.711876
 20
495.36939799999999
 30
0.0
 11
96.711876000000004
 21
499.42491899999999
 31
0.0
  0
LINE
  5
3CA
  8
0
 62
    31
 10
119.711876
 20
493.94780200000002
 30
0.0
 11
96.711876000000004
 21
498.00332300000002
 31
0.0
  0
LINE
  5
3CB
  8
0
 62
    31
 10
114.562431
 20
493.43419099999988
 30
0.0
 11
96.711876000000004
 21
496.58172399999989
 31
0.0
  0
LINE
  5
3CC
  8
0
 62
    31
 10
106.5001529999999
 20
493.43419099999988
 30
0.0
 11
96.711876000000004
 21
495.16012799999999
 31
0.0
  0
LINE
  5
3CD
  8
0
 62
    31
 10
98.437873999999994
 20
493.43419099999988
 30
0.0
 11
96.711876000000004
 21
493.73852999999991
 31
0.0
  0
LINE
  5
3CE
  8
0
 62
     7
 10
86.434089999999998
 20
450.24655899999988
 30
0.0
 11
71.014922999999996
 21
450.87591200000003
 31
0.0
  0
LINE
  5
3CF
  8
0
 62
   230
 10
179.961861
 20
459.83423399999998
 30
0.0
 11
81.711876000000004
 21
459.83423399999998
 31
0.0
  0
LINE
  5
3D0
  8
0
 62
   230
 10
81.711876000000004
 20
459.83423399999998
 30
0.0
 11
81.711876000000004
 21
491.63419099999987
 31
0.0
  0
ARC
  5
3D1
  8
0
 62
   230
 10
179.961861
 20
461.08423399999992
 30
0.0
 40
1.25
 50
270.00000499999987
 51
0.000001
  0
LINE
  5
3D2
  8
0
 62
   230
 10
181.21186099999991
 20
461.08423399999992
 30
0.0
 11
181.21186099999991
 21
500.83423399999992
 31
0.0
  0
LINE
  5
3D3
  8
0
 62
   230
 10
181.21186099999991
 20
500.83423399999992
 30
0.0
 11
181.21186099999991
 21
528.83423200000004
 31
0.0
  0
LINE
  5
3D4
  8
0
 62
   230
 10
181.21186099999991
 20
528.83423200000004
 30
0.0
 11
180.21186099999991
 21
528.83423200000004
 31
0.0
  0
LINE
  5
3D5
  8
0
 62
   230
 10
180.21186099999991
 20
528.83423200000004
 30
0.0
 11
180.21186099999991
 21
529.83423200000004
 31
0.0
  0
LINE
  5
3D6
  8
0
 62
   230
 10
178.71187599999999
 20
503.13423299999999
 30
0.0
 11
178.71187599999999
 21
529.83423200000004
 31
0.0
  0
LINE
  5
3D7
  8
0
 62
   230
 10
178.71187599999999
 20
506.26495399999988
 30
0.0
 11
178.71187599999999
 21
511.83423199999999
 31
0.0
  0
LINE
  5
3D8
  8
0
 62
   230
 10
178.71187599999999
 20
482.13423399999999
 30
0.0
 11
156.21186099999991
 21
482.13423399999999
 31
0.0
  0
LINE
  5
3D9
  8
0
 62
   230
 10
178.71187599999999
 20
501.13423299999988
 30
0.0
 11
156.21186099999991
 21
501.13423299999988
 31
0.0
  0
LINE
  5
3DA
  8
0
 62
   230
 10
178.71187599999999
 20
480.13423399999988
 30
0.0
 11
158.711861
 21
480.13423399999988
 31
0.0
  0
LINE
  5
3DB
  8
0
 62
   230
 10
178.71187599999999
 20
503.13423299999999
 30
0.0
 11
158.711861
 21
503.13423299999999
 31
0.0
  0
LINE
  5
3DC
  8
0
 62
     1
 10
158.711861
 20
503.13423299999999
 30
0.0
 11
158.711861
 21
505.13423299999988
 31
0.0
  0
LINE
  5
3DD
  8
0
 62
   230
 10
158.711861
 20
459.83423399999998
 30
0.0
 11
158.711861
 21
480.13423399999988
 31
0.0
  0
LINE
  5
3DE
  8
0
 62
   230
 10
178.71187599999999
 20
459.83423399999998
 30
0.0
 11
178.71187599999999
 21
480.13423399999988
 31
0.0
  0
LINE
  5
3DF
  8
0
 62
   230
 10
178.71187599999999
 20
482.13423399999999
 30
0.0
 11
178.71187599999999
 21
501.13423299999988
 31
0.0
  0
LINE
  5
3E0
  8
0
 62
   230
 10
156.21186099999991
 20
461.83423399999992
 30
0.0
 11
81.711876000000004
 21
461.83423399999992
 31
0.0
  0
LINE
  5
3E1
  8
0
 62
   230
 10
156.21186099999991
 20
463.83423399999998
 30
0.0
 11
81.711876000000004
 21
463.83423399999998
 31
0.0
  0
LINE
  5
3E2
  8
0
 62
   230
 10
156.21186099999991
 20
465.83423399999992
 30
0.0
 11
81.711876000000004
 21
465.83423399999992
 31
0.0
  0
LINE
  5
3E3
  8
0
 62
   230
 10
158.711861
 20
505.13423299999988
 30
0.0
 11
119.711876
 21
505.13423299999988
 31
0.0
  0
LINE
  5
3E4
  8
0
 62
   230
 10
156.21186099999991
 20
503.13423299999999
 30
0.0
 11
119.711876
 21
503.13423299999999
 31
0.0
  0
LINE
  5
3E5
  8
0
 62
   230
 10
156.21186099999991
 20
459.83423399999998
 30
0.0
 11
156.21186099999991
 21
503.13423299999999
 31
0.0
  0
LINE
  5
3E6
  8
0
 62
     1
 10
144.211861
 20
503.13423299999999
 30
0.0
 11
144.211861
 21
505.13423299999988
 31
0.0
  0
LINE
  5
3E7
  8
0
 62
     7
 10
180.21186099999991
 20
529.83423200000004
 30
0.0
 11
178.71187599999999
 21
529.83423200000004
 31
0.0
  0
LINE
  5
3E8
  8
0
  6
DASHDOT
 62
     7
 10
79.711876000000004
 20
450.52093499999989
 30
0.0
 11
79.711876000000004
 21
491.63419099999987
 31
0.0
  0
LINE
  5
3E9
  8
0
  6
DASHDOT
 62
     7
 10
76.711876000000004
 20
450.64338299999997
 30
0.0
 11
76.711876000000004
 21
491.63419099999987
 31
0.0
  0
POLYLINE
  5
3EA
  8
0
 62
     3
 66
     1
 10
0.0
 20
0.0
 30
0.0
  0
VERTEX
  5
DFE
  8
0
 62
     3
 10
124.9805909999999
 20
507.80927800000001
 30
0.0
  0
VERTEX
  5
DFF
  8
0
 62
     3
 10
123.82382199999989
 20
523.76740599999994
 30
0.0
  0
VERTEX
  5
E00
  8
0
 62
     3
 10
121.75676
 20
524.62019299999986
 30
0.0
  0
VERTEX
  5
E01
  8
0
 62
     3
 10
125.673992
 20
525.90676900000005
 30
0.0
  0
VERTEX
  5
E02
  8
0
 62
     3
 10
123.60693000000001
 20
526.75955599999998
 30
0.0
  0
VERTEX
  5
E03
  8
0
 62
     3
 10
123.20405599999999
 20
532.31739799999991
 30
0.0
  0
SEQEND
  5
E04
  8
0
 62
     3
  0
LINE
  5
3F2
  8
0
 62
     7
 10
153.71187599999999
 20
508.63420499999989
 30
0.0
 11
120.6351889999999
 21
508.63420499999989
 31
0.0
  0
LINE
  5
3F3
  8
0
 62
     7
 10
81.711876000000004
 20
507.63418999999999
 30
0.0
 11
81.711876000000004
 21
546.12842599999999
 31
0.0
  0
LINE
  5
3F4
  8
0
 62
     7
 10
81.711876000000004
 20
546.12839500000007
 30
0.0
 11
81.711876000000004
 21
674.03418699999986
 31
0.0
  0
LINE
  5
3F5
  8
0
  6
DASHDOT
 62
     7
 10
79.711876000000004
 20
507.63418999999999
 30
0.0
 11
79.711876000000004
 21
674.03418699999986
 31
0.0
  0
LINE
  5
3F6
  8
0
 62
     7
 10
79.711876000000004
 20
665.16379500000005
 30
0.0
 11
79.711876000000004
 21
665.33416
 31
0.0
  0
LINE
  5
3F7
  8
0
 62
     7
 10
150.211872
 20
604.83416699999998
 30
0.0
 11
150.21185299999991
 21
613.08419000000004
 31
0.0
  0
LINE
  5
3F8
  8
0
 62
     7
 10
152.711817
 20
659.33419000000004
 30
0.0
 11
153.41893999999991
 21
659.62708299999986
 31
0.0
  0
LINE
  5
3F9
  8
0
 62
     7
 10
153.41895299999999
 20
659.62705199999994
 30
0.0
 11
153.7118449999999
 21
660.33416
 31
0.0
  0
LINE
  5
3FA
  8
0
 62
     7
 10
150.211861
 20
652.33419000000004
 30
0.0
 11
150.2118759999999
 21
659.33419000000004
 31
0.0
  0
LINE
  5
3FB
  8
0
 62
     7
 10
152.7118449999999
 20
659.33419000000004
 30
0.0
 11
150.2118759999999
 21
659.33419000000004
 31
0.0
  0
LINE
  5
3FC
  8
0
 62
     7
 10
150.211861
 20
613.08419000000004
 30
0.0
 11
150.211861
 21
652.33419000000004
 31
0.0
  0
LINE
  5
3FD
  8
0
 62
     7
 10
145.71187599999999
 20
562.33419000000004
 30
0.0
 11
145.71187599999999
 21
602.83419000000004
 31
0.0
  0
LINE
  5
3FE
  8
0
 62
     7
 10
145.71190599999991
 20
602.83424400000001
 30
0.0
 11
145.97985099999991
 21
603.83424400000001
 31
0.0
  0
LINE
  5
3FF
  8
0
 62
     7
 10
145.979885
 20
603.83428200000003
 30
0.0
 11
146.71192600000001
 21
604.56633799999986
 31
0.0
  0
LINE
  5
400
  8
0
 62
     7
 10
146.71182300000001
 20
604.56622300000004
 30
0.0
 11
147.711838
 21
604.83416699999998
 31
0.0
  0
LINE
  5
401
  8
0
 62
     7
 10
153.71187599999999
 20
562.33419000000004
 30
0.0
 11
145.71187599999999
 21
562.33419000000004
 31
0.0
  0
LINE
  5
402
  8
0
 62
     7
 10
153.71183400000001
 20
547.33417499999985
 30
0.0
 11
152.711758
 21
548.33417499999996
 31
0.0
  0
LINE
  5
403
  8
0
 62
     7
 10
152.711781
 20
559.3341979999999
 30
0.0
 11
153.711872
 21
560.33419800000001
 31
0.0
  0
LINE
  5
404
  8
0
 62
     7
 10
152.7117669999999
 20
559.33416
 30
0.0
 11
89.943961999999999
 21
559.33416
 31
0.0
  0
LINE
  5
405
  8
0
 62
     7
 10
152.71178199999991
 20
548.33419000000004
 30
0.0
 11
89.943916000000002
 21
548.33419000000004
 31
0.0
  0
LINE
  5
406
  8
0
 62
     7
 10
89.943954000000005
 20
559.33414500000003
 30
0.0
 11
86.211868000000024
 21
560.33416
 31
0.0
  0
LINE
  5
407
  8
0
 62
     7
 10
86.211905999999999
 20
560.33415199999979
 30
0.0
 11
82.711867999999996
 21
561.27198799999985
 31
0.0
  0
LINE
  5
408
  8
0
 62
     7
 10
81.711876000000004
 20
546.12842599999999
 30
0.0
 11
89.943916000000002
 21
548.33419000000004
 31
0.0
  0
LINE
  5
409
  8
0
 62
     7
 10
81.711891000000008
 20
563.62849400000005
 30
0.0
 11
82.711883999999984
 21
563.89643899999987
 31
0.0
  0
LINE
  5
40A
  8
0
 62
     7
 10
85.711876000000004
 20
539.83417499999985
 30
0.0
 11
81.711876000000004
 21
539.83417499999985
 31
0.0
  0
LINE
  5
40B
  8
0
 62
     7
 10
85.711876000000004
 20
532.31739799999991
 30
0.0
 11
85.711876000000004
 21
539.83417499999985
 31
0.0
  0
LINE
  5
40C
  8
0
 62
     7
 10
82.711876000000004
 20
546.39635499999986
 30
0.0
 11
82.711876000000004
 21
590.83417499999985
 31
0.0
  0
LINE
  5
40D
  8
0
 62
     7
 10
86.211876000000004
 20
560.33419000000004
 30
0.0
 11
86.211876000000004
 21
585.33419000000004
 31
0.0
  0
LINE
  5
40E
  8
0
 62
     7
 10
84.711876000000004
 20
590.83417499999985
 30
0.0
 11
81.711876000000004
 21
590.83417499999985
 31
0.0
  0
LINE
  5
40F
  8
0
 62
     7
 10
85.461883999999998
 20
590.63320899999985
 30
0.0
 11
84.711883999999998
 21
590.83416699999987
 31
0.0
  0
LINE
  5
410
  8
0
 62
     7
 10
85.461883999999998
 20
590.63320899999985
 30
0.0
 11
84.711883999999998
 21
590.83416699999987
 31
0.0
  0
LINE
  5
411
  8
0
 62
     7
 10
86.010918000000004
 20
590.08415999999988
 30
0.0
 11
85.461876000000004
 21
590.63320199999987
 31
0.0
  0
LINE
  5
412
  8
0
 62
     7
 10
86.211860999999999
 20
589.33414500000003
 30
0.0
 11
86.010901999999987
 21
590.08414500000003
 31
0.0
  0
LINE
  5
413
  8
0
 62
     7
 10
86.211890999999994
 20
585.33417499999985
 30
0.0
 11
86.211890999999994
 21
589.33416
 31
0.0
  0
LINE
  5
414
  8
0
 62
     7
 10
86.010925
 20
584.58416699999987
 30
0.0
 11
86.106148000000005
 21
584.93954500000007
 31
0.0
  0
LINE
  5
415
  8
0
 62
     7
 10
86.106139999999996
 20
584.93953699999986
 30
0.0
 11
86.211883999999984
 21
585.33417499999985
 31
0.0
  0
LINE
  5
416
  8
0
 62
     7
 10
85.461876000000004
 20
584.03509499999996
 30
0.0
 11
86.010918000000004
 21
584.58413700000006
 31
0.0
  0
LINE
  5
417
  8
0
 62
     7
 10
84.711860999999999
 20
583.8341519999999
 30
0.0
 11
85.461860999999985
 21
584.03510999999992
 31
0.0
  0
LINE
  5
418
  8
0
 62
     7
 10
84.711876000000004
 20
583.83417499999985
 30
0.0
 11
82.711876000000004
 21
583.83417499999985
 31
0.0
  0
LINE
  5
419
  8
0
 62
     7
 10
81.711876000000004
 20
516.33417499999985
 30
0.0
 11
79.711876000000004
 21
516.33417499999985
 31
0.0
  0
LINE
  5
41A
  8
0
 62
     7
 10
81.711876000000004
 20
665.33416
 30
0.0
 11
79.711876000000004
 21
665.33416
 31
0.0
  0
LINE
  5
41B
  8
0
 62
     7
 10
81.711876000000004
 20
655.46581299999991
 30
0.0
 11
79.711876000000004
 21
655.46581299999991
 31
0.0
  0
LINE
  5
41C
  8
0
 62
     7
 10
89.010886999999997
 20
548.08418300000005
 30
0.0
 11
86.211853000000005
 21
548.83418300000005
 31
0.0
  0
LINE
  5
41D
  8
0
 62
     7
 10
86.211844999999997
 20
548.83419000000004
 30
0.0
 11
86.211844999999997
 21
558.83419000000004
 31
0.0
  0
LINE
  5
41E
  8
0
 62
     7
 10
86.211844999999997
 20
558.83417499999985
 30
0.0
 11
89.010902000000002
 21
559.58417499999985
 31
0.0
  0
LINE
  5
41F
  8
0
 62
     7
 10
81.711876000000004
 20
526.11879699999986
 30
0.0
 11
79.711876000000004
 21
526.11879699999986
 31
0.0
  0
LINE
  5
420
  8
0
 62
     7
 10
81.711876000000004
 20
526.33417499999985
 30
0.0
 11
79.711876000000004
 21
526.33417499999985
 31
0.0
  0
LINE
  5
421
  8
0
 62
     7
 10
86.010925
 20
584.05487800000003
 30
0.0
 11
86.211883999999984
 21
584.93955199999994
 31
0.0
  0
LINE
  5
422
  8
0
 62
     7
 10
86.211876000000004
 20
584.93955199999994
 30
0.0
 11
86.106133
 21
584.93955199999994
 31
0.0
  0
LINE
  5
423
  8
0
 62
     7
 10
86.077895999999996
 20
570.83416699999998
 30
0.0
 11
86.211868000000024
 21
570.9336239999999
 31
0.0
  0
LINE
  5
424
  8
0
 62
     7
 10
86.077911
 20
570.83412899999985
 30
0.0
 11
86.010918000000004
 21
570.88385800000003
 31
0.0
  0
LINE
  5
425
  8
0
 62
     7
 10
86.211876000000004
 20
580.83419000000004
 30
0.0
 11
86.010909999999996
 21
580.83419000000004
 31
0.0
  0
LINE
  5
426
  8
0
 62
     7
 10
86.010909999999996
 20
574.784401
 30
0.0
 11
86.077895999999996
 21
574.83412899999985
 31
0.0
  0
LINE
  5
427
  8
0
 62
     7
 10
86.211876000000004
 20
574.73470300000008
 30
0.0
 11
86.077904000000004
 21
574.83415999999988
 31
0.0
  0
LINE
  5
428
  8
0
 62
     7
 10
86.120079000000004
 20
582.55625899999995
 30
0.0
 11
86.010909999999996
 21
583.16603099999998
 31
0.0
  0
LINE
  5
429
  8
0
 62
     7
 10
86.211876000000004
 20
580.83419000000004
 30
0.0
 11
86.120086999999998
 21
582.55626700000005
 31
0.0
  0
LINE
  5
42A
  8
0
 62
     7
 10
86.010909999999996
 20
570.88388799999996
 30
0.0
 11
85.495552000000004
 21
570.9863969999999
 31
0.0
  0
LINE
  5
42B
  8
0
 62
     7
 10
85.495552000000004
 20
570.98640399999999
 30
0.0
 11
85.461876000000004
 21
571.00891100000001
 31
0.0
  0
LINE
  5
42C
  8
0
 62
     7
 10
85.461860999999985
 20
574.65941599999985
 30
0.0
 11
85.495536999999999
 21
574.68192299999998
 31
0.0
  0
LINE
  5
42D
  8
0
 62
     7
 10
85.495543999999995
 20
574.681915
 30
0.0
 11
86.010901999999987
 21
574.78442399999994
 31
0.0
  0
LINE
  5
42E
  8
0
 62
     7
 10
86.010909999999996
 20
580.83419000000004
 30
0.0
 11
85.461876000000004
 21
580.83419000000004
 31
0.0
  0
LINE
  5
42F
  8
0
 62
     7
 10
85.461867999999996
 20
571.00889600000005
 30
0.0
 11
84.71186800000001
 21
571.14317300000005
 31
0.0
  0
LINE
  5
430
  8
0
 62
     7
 10
84.71186800000001
 20
574.52513899999985
 30
0.0
 11
85.461867999999996
 21
574.65941599999985
 31
0.0
  0
LINE
  5
431
  8
0
 62
     7
 10
85.461876000000004
 20
580.83419000000004
 30
0.0
 11
84.711876000000004
 21
580.83419000000004
 31
0.0
  0
LINE
  5
432
  8
0
 62
     7
 10
84.711876000000004
 20
574.52515400000004
 30
0.0
 11
82.711876000000004
 21
574.52515400000004
 31
0.0
  0
LINE
  5
433
  8
0
 62
     7
 10
84.711876000000004
 20
580.83419000000004
 30
0.0
 11
82.711876000000004
 21
580.83419000000004
 31
0.0
  0
LINE
  5
434
  8
0
 62
     7
 10
84.711876000000004
 20
571.14319599999988
 30
0.0
 11
82.711876000000004
 21
571.14319599999988
 31
0.0
  0
LINE
  5
435
  8
0
 62
     3
 10
178.71187599999999
 20
675.83419000000004
 30
0.0
 11
117.11187700000001
 21
675.83419000000004
 31
0.0
  0
LINE
  5
436
  8
0
 62
     3
 10
175.9118729999999
 20
673.03420300000005
 30
0.0
 11
147.2482719999999
 21
673.03420300000005
 31
0.0
  0
LINE
  5
437
  8
0
 62
     3
 10
175.9118729999999
 20
508.63420499999989
 30
0.0
 11
153.71187599999999
 21
508.63420499999989
 31
0.0
  0
LINE
  5
438
  8
0
 62
     3
 10
178.71187599999999
 20
505.83420599999988
 30
0.0
 11
119.711876
 21
505.83420599999988
 31
0.0
  0
LINE
  5
439
  8
0
 62
     3
 10
153.71187599999999
 20
505.83420599999988
 30
0.0
 11
153.71187599999999
 21
548.08419000000004
 31
0.0
  0
LINE
  5
43A
  8
0
 62
     3
 10
153.71187599999999
 20
559.58417499999985
 30
0.0
 11
153.71187599999999
 21
562.33425099999988
 31
0.0
  0
LINE
  5
43B
  8
0
 62
     3
 10
153.71187599999999
 20
660.33423600000003
 30
0.0
 11
153.71187599999999
 21
675.83419000000004
 31
0.0
  0
LINE
  5
43C
  8
0
 62
     3
 10
183.21187599999999
 20
603.78305799999987
 30
0.0
 11
183.21187599999999
 21
613.33387000000005
 31
0.0
  0
LINE
  5
43D
  8
0
 62
     3
 10
183.2118679999999
 20
546.33389299999988
 30
0.0
 11
183.2118219999999
 21
552.88461299999994
 31
0.0
  0
LINE
  5
43E
  8
0
 62
     3
 10
178.71187599999999
 20
651.58419000000004
 30
0.0
 11
178.71187599999999
 21
675.83419000000004
 31
0.0
  0
LINE
  5
43F
  8
0
 62
     3
 10
178.71187599999999
 20
659.58420599999988
 30
0.0
 11
175.9118729999999
 21
659.58420599999988
 31
0.0
  0
LINE
  5
440
  8
0
 62
     3
 10
178.71187599999999
 20
529.83423200000004
 30
0.0
 11
178.71187599999999
 21
530.58420599999988
 31
0.0
  0
LINE
  5
441
  8
0
 62
     3
 10
178.71187599999999
 20
522.08420599999988
 30
0.0
 11
175.9118729999999
 21
522.08420599999988
 31
0.0
  0
LINE
  5
442
  8
0
 62
     3
 10
175.9118729999999
 20
508.634209
 30
0.0
 11
175.9118729999999
 21
530.58420899999987
 31
0.0
  0
LINE
  5
443
  8
0
 62
     3
 10
175.91186999999991
 20
559.58419000000004
 30
0.0
 11
153.711872
 21
559.58419000000004
 31
0.0
  0
LINE
  5
444
  8
0
 62
     3
 10
175.91186999999991
 20
548.08419000000004
 30
0.0
 11
153.71187399999991
 21
548.08419000000004
 31
0.0
  0
LINE
  5
445
  8
0
 62
     1
 10
181.21187499999991
 20
651.58419000000004
 30
0.0
 11
175.9118729999999
 21
651.58419000000004
 31
0.0
  0
LINE
  5
446
  8
0
 62
     1
 10
185.168948
 20
640.93781300000001
 30
0.0
 11
185.13862800000001
 21
641.01102400000002
 31
0.0
  0
LINE
  5
447
  8
0
 62
     1
 10
185.13866200000001
 20
641.01094799999998
 30
0.0
 11
184.96188599999999
 21
641.08416
 31
0.0
  0
LINE
  5
448
  8
0
 62
     1
 10
178.71187599999999
 20
530.58420599999988
 30
0.0
 11
178.2118759999999
 21
530.58420599999988
 31
0.0
  0
LINE
  5
449
  8
0
 62
     1
 10
181.21187499999991
 20
530.58423200000004
 30
0.0
 11
175.9118729999999
 21
530.58423200000004
 31
0.0
  0
LINE
  5
44A
  8
0
 62
     2
 10
192.21318600000001
 20
536.58419000000004
 30
0.0
 11
192.21318600000001
 21
538.58419000000004
 31
0.0
  0
LINE
  5
44B
  8
0
 62
     2
 10
183.21318600000001
 20
536.08419000000004
 30
0.0
 11
183.21318600000001
 21
641.08419000000004
 31
0.0
  0
LINE
  5
44C
  8
0
 62
     2
 10
186.7118659999999
 20
641.08419000000004
 30
0.0
 11
181.21187499999991
 21
641.08419000000004
 31
0.0
  0
LINE
  5
44D
  8
0
 62
     2
 10
186.7118659999999
 20
536.08419000000004
 30
0.0
 11
181.21187499999991
 21
536.08419000000004
 31
0.0
  0
LINE
  5
44E
  8
0
 62
     2
 10
192.21298400000001
 20
568.58416699999998
 30
0.0
 11
192.2130369999999
 21
588.08416699999987
 31
0.0
  0
LINE
  5
44F
  8
0
 62
     7
 10
150.2118679999999
 20
604.83416699999998
 30
0.0
 11
147.711838
 21
604.83416699999998
 31
0.0
  0
LINE
  5
450
  8
0
 62
     7
 10
181.21187499999991
 20
641.08419000000004
 30
0.0
 11
181.21187499999991
 21
651.58419000000004
 31
0.0
  0
LINE
  5
451
  8
0
 62
     7
 10
181.21187499999991
 20
530.58420599999988
 30
0.0
 11
181.21187499999991
 21
536.08419000000004
 31
0.0
  0
LINE
  5
452
  8
0
 62
     3
 10
175.9118729999999
 20
651.58419000000004
 30
0.0
 11
175.9118729999999
 21
673.03420300000005
 31
0.0
  0
LINE
  5
453
  8
0
 62
     3
 10
175.9118729999999
 20
530.58420899999987
 30
0.0
 11
175.9118729999999
 21
651.58419000000004
 31
0.0
  0
ARC
  5
454
  8
0
 62
     7
 10
212.8879169999999
 20
566.54030599999999
 30
0.0
 40
1.0
 50
348.62360999999993
 51
76.688818000000012
  0
ARC
  5
455
  8
0
 62
     7
 10
211.69117399999999
 20
560.59249099999988
 30
0.0
 40
1.000000999999999
 50
260.59401500000001
 51
348.62360999999993
  0
LINE
  5
456
  8
0
  6
DASHDOT
 62
     7
 10
227.68850299999991
 20
560.43165599999998
 30
0.0
 11
177.57181199999999
 21
570.51547199999993
 31
0.0
  0
LINE
  5
457
  8
0
 62
     7
 10
213.11815499999989
 20
567.51344299999994
 30
0.0
 11
192.21299500000001
 21
572.459518
 31
0.0
  0
LINE
  5
458
  8
0
 62
     7
 10
212.67152799999991
 20
560.39523299999985
 30
0.0
 11
213.86826899999991
 21
566.34305599999993
 31
0.0
  0
LINE
  5
459
  8
0
 62
     7
 10
211.52774600000001
 20
559.60593399999993
 30
0.0
 11
192.21304499999999
 21
562.80553399999985
 31
0.0
  0
LINE
  5
45A
  8
0
  6
DASHDOT
 62
     7
 10
76.711876000000004
 20
507.63418999999999
 30
0.0
 11
76.711876000000004
 21
674.03418699999986
 31
0.0
  0
LINE
  5
45B
  8
0
 62
     7
 10
116.61116799999991
 20
652.33419000000004
 30
0.0
 11
104.610855
 21
652.33419000000004
 31
0.0
  0
LINE
  5
45C
  8
0
 62
     7
 10
116.3106689999999
 20
649.83419000000004
 30
0.0
 11
104.0420069999999
 21
649.83419000000004
 31
0.0
  0
LINE
  5
45D
  8
0
 62
     7
 10
90.711876000000004
 20
645.76863900000001
 30
0.0
 11
90.711876000000004
 21
649.83419000000004
 31
0.0
  0
LINE
  5
45E
  8
0
 62
     7
 10
94.711876000000004
 20
645.76863900000001
 30
0.0
 11
94.711876000000004
 21
649.83419000000004
 31
0.0
  0
LINE
  5
45F
  8
0
 62
     7
 10
104.711876
 20
649.83419000000004
 30
0.0
 11
104.711876
 21
652.33419000000004
 31
0.0
  0
LINE
  5
460
  8
0
 62
     7
 10
97.160324000000017
 20
649.83419000000004
 30
0.0
 11
90.711876000000004
 21
649.83419000000004
 31
0.0
  0
POLYLINE
  5
461
  8
0
 62
     3
 66
     1
 10
0.0
 20
0.0
 30
0.0
  0
VERTEX
  5
E05
  8
0
 62
     3
 10
116.9498209999999
 20
645.76863900000001
 30
0.0
  0
VERTEX
  5
E06
  8
0
 62
     3
 10
100.949821
 20
645.76863900000001
 30
0.0
  0
VERTEX
  5
E07
  8
0
 62
     3
 10
99.949821000000014
 20
643.76863900000001
 30
0.0
  0
VERTEX
  5
E08
  8
0
 62
     3
 10
98.949821
 20
647.76863900000001
 30
0.0
  0
VERTEX
  5
E09
  8
0
 62
     3
 10
97.949821
 20
645.76863900000001
 30
0.0
  0
VERTEX
  5
E0A
  8
0
 62
     3
 10
81.949821
 20
645.76863900000001
 30
0.0
  0
VERTEX
  5
E0B
  8
0
 62
     3
 10
80.949821000000014
 20
643.76863900000001
 30
0.0
  0
VERTEX
  5
E0C
  8
0
 62
     3
 10
79.949821
 20
647.76863900000001
 30
0.0
  0
VERTEX
  5
E0D
  8
0
 62
     3
 10
78.949821
 20
645.76863900000001
 30
0.0
  0
VERTEX
  5
E0E
  8
0
 62
     3
 10
74.483031999999994
 20
645.76863900000001
 30
0.0
  0
SEQEND
  5
E0F
  8
0
 62
     3
  0
LINE
  5
46D
  8
0
 62
     7
 10
104.711876
 20
671.33419000000004
 30
0.0
 11
99.711876000000004
 21
671.33419000000004
 31
0.0
  0
LINE
  5
46E
  8
0
 62
     7
 10
104.711876
 20
652.33419000000004
 30
0.0
 11
104.711876
 21
671.33419000000004
 31
0.0
  0
LINE
  5
46F
  8
0
 62
     7
 10
99.134658999999999
 20
644.76863900000001
 30
0.0
 11
103.21114300000001
 21
648.76276399999995
 31
0.0
  0
LINE
  5
470
  8
0
 62
     7
 10
96.212607999999989
 20
648.90561700000001
 30
0.0
 11
99.711876000000004
 21
652.33419000000004
 31
0.0
  0
LINE
  5
471
  8
0
 62
     7
 10
99.711876000000004
 20
652.33419000000004
 30
0.0
 11
99.711876000000004
 21
658.13419299999987
 31
0.0
  0
ARC
  5
472
  8
0
 62
     7
 10
99.711876000000004
 20
645.33419000000004
 30
0.0
 40
4.999998999999999
 50
134.41529800000001
 51
180.00000299999991
  0
ARC
  5
473
  8
0
 62
     7
 10
99.711876000000004
 20
652.33419000000004
 30
0.0
 40
5.0
 50
314.41529300000002
 51
0.000001
  0
LINE
  5
474
  8
0
  6
DASHDOT
 62
     7
 10
111.0444949999999
 20
662.33419000000004
 30
0.0
 11
94.38485
 21
662.33419000000004
 31
0.0
  0
LINE
  5
475
  8
0
 62
     7
 10
99.711876000000004
 20
529.33420199999989
 30
0.0
 11
81.711876000000004
 21
529.33420199999989
 31
0.0
  0
LINE
  5
476
  8
0
 62
     7
 10
95.711876000000004
 20
529.33420199999989
 30
0.0
 11
95.711876000000004
 21
532.31739799999991
 31
0.0
  0
LINE
  5
477
  8
0
 62
     7
 10
99.711876000000004
 20
529.33420199999989
 30
0.0
 11
99.711876000000004
 21
532.31739799999991
 31
0.0
  0
LINE
  5
478
  8
0
 62
     7
 10
105.711876
 20
529.33420199999989
 30
0.0
 11
105.711876
 21
532.31739799999991
 31
0.0
  0
LINE
  5
479
  8
0
 62
     7
 10
123.4202999999999
 20
529.33420199999989
 30
0.0
 11
105.711876
 21
529.33420199999989
 31
0.0
  0
POLYLINE
  5
47A
  8
0
 62
     3
 66
     1
 10
0.0
 20
0.0
 30
0.0
  0
VERTEX
  5
E10
  8
0
 62
     3
 10
123.20405599999999
 20
532.31739799999991
 30
0.0
  0
VERTEX
  5
E11
  8
0
 62
     3
 10
107.20405599999999
 20
532.31739799999991
 30
0.0
  0
VERTEX
  5
E12
  8
0
 62
     3
 10
106.20405599999999
 20
530.31739800000003
 30
0.0
  0
VERTEX
  5
E13
  8
0
 62
     3
 10
105.20405599999999
 20
534.31739800000003
 30
0.0
  0
VERTEX
  5
E14
  8
0
 62
     3
 10
104.20405599999999
 20
532.31739799999991
 30
0.0
  0
VERTEX
  5
E15
  8
0
 62
     3
 10
88.204055999999994
 20
532.31739799999991
 30
0.0
  0
VERTEX
  5
E16
  8
0
 62
     3
 10
87.204056000000008
 20
530.31739800000003
 30
0.0
  0
VERTEX
  5
E17
  8
0
 62
     3
 10
86.204056000000008
 20
534.31739800000003
 30
0.0
  0
VERTEX
  5
E18
  8
0
 62
     3
 10
85.204056000000008
 20
532.31739799999991
 30
0.0
  0
VERTEX
  5
E19
  8
0
 62
     3
 10
80.324050999999997
 20
532.31739799999991
 30
0.0
  0
SEQEND
  5
E1A
  8
0
 62
     3
  0
LINE
  5
486
  8
0
 62
     7
 10
102.711876
 20
510.334204
 30
0.0
 11
99.711876000000004
 21
510.334204
 31
0.0
  0
LINE
  5
487
  8
0
 62
     7
 10
102.711876
 20
523.33419000000004
 30
0.0
 11
102.711876
 21
532.31739799999991
 31
0.0
  0
LINE
  5
488
  8
0
 62
     7
 10
102.711876
 20
510.334204
 30
0.0
 11
102.711876
 21
515.08420199999989
 31
0.0
  0
LINE
  5
489
  8
0
 62
     7
 10
99.711876000000004
 20
510.334204
 30
0.0
 11
99.711876000000004
 21
532.31739799999991
 31
0.0
  0
LINE
  5
48A
  8
0
 62
     7
 10
104.711876
 20
510.334204
 30
0.0
 11
102.711876
 21
510.334204
 31
0.0
  0
LINE
  5
48B
  8
0
 62
     7
 10
104.711876
 20
531.334202
 30
0.0
 11
102.711876
 21
531.334202
 31
0.0
  0
LINE
  5
48C
  8
0
  6
DASHDOT
 62
     7
 10
121.5760419999999
 20
519.33419000000004
 30
0.0
 11
94.38485
 21
519.33419000000004
 31
0.0
  0
LINE
  5
48D
  8
0
 62
     7
 10
104.711876
 20
523.43418899999995
 30
0.0
 11
99.711876000000004
 21
523.43418899999995
 31
0.0
  0
LINE
  5
48E
  8
0
 62
     7
 10
104.711876
 20
515.23419200000001
 30
0.0
 11
99.711876000000004
 21
515.23419200000001
 31
0.0
  0
ARC
  5
48F
  8
0
  6
DASHDOT
 62
     7
 10
138.712673
 20
578.33419000000004
 30
0.0
 40
76.044273000000004
 50
337.49231500000002
 51
0.000001
  0
LINE
  5
490
  8
0
  6
DASHDOT
 62
     7
 10
214.75694300000001
 20
578.33419000000004
 30
0.0
 11
214.75694300000001
 21
584.08438899999999
 31
0.0
  0
LINE
  5
491
  8
0
 62
     7
 10
104.711876
 20
666.53418699999986
 30
0.0
 11
99.711876000000004
 21
666.53418699999986
 31
0.0
  0
LINE
  5
492
  8
0
 62
     7
 10
104.711876
 20
658.13419299999987
 30
0.0
 11
99.711876000000004
 21
658.13419299999987
 31
0.0
  0
LINE
  5
493
  8
0
 62
     1
 10
186.7118659999999
 20
533.57775500000002
 30
0.0
 11
186.7118659999999
 21
535.57775499999991
 31
0.0
  0
LINE
  5
494
  8
0
 62
     1
 10
188.7118659999999
 20
533.57775500000002
 30
0.0
 11
186.7118659999999
 21
533.57775500000002
 31
0.0
  0
LINE
  5
495
  8
0
 62
     1
 10
186.7118659999999
 20
641.57775099999981
 30
0.0
 11
186.7118659999999
 21
643.57775099999992
 31
0.0
  0
LINE
  5
496
  8
0
 62
     1
 10
188.7118659999999
 20
643.57775099999992
 30
0.0
 11
186.7118659999999
 21
643.57775099999992
 31
0.0
  0
LINE
  5
497
  8
0
 62
     1
 10
186.7118659999999
 20
535.57775499999991
 30
0.0
 11
186.7118659999999
 21
641.57775099999981
 31
0.0
  0
LINE
  5
498
  8
0
 62
     1
 10
182.2118669999999
 20
657.15509799999995
 30
0.0
 11
182.2118669999999
 21
662.000404
 31
0.0
  0
LINE
  5
499
  8
0
 62
     1
 10
182.2118669999999
 20
515.15510599999993
 30
0.0
 11
182.2118669999999
 21
520.000404
 31
0.0
  0
LINE
  5
49A
  8
0
 62
     1
 10
188.7118659999999
 20
507.07775499999991
 30
0.0
 11
188.7118659999999
 21
670.07775099999992
 31
0.0
  0
LINE
  5
49B
  8
0
 62
     1
 10
192.2118659999999
 20
507.07775499999991
 30
0.0
 11
188.7118659999999
 21
507.07775499999991
 31
0.0
  0
LINE
  5
49C
  8
0
 62
     1
 10
192.2118659999999
 20
507.07775099999998
 30
0.0
 11
192.2118659999999
 21
670.07775099999992
 31
0.0
  0
LINE
  5
49D
  8
0
 62
     1
 10
192.2118659999999
 20
670.07775099999992
 30
0.0
 11
191.2118659999999
 21
670.07775099999992
 31
0.0
  0
LINE
  5
49E
  8
0
 62
     1
 10
190.21186599999999
 20
670.07775099999992
 30
0.0
 11
188.7118659999999
 21
670.07775099999992
 31
0.0
  0
LINE
  5
49F
  8
0
 62
     1
 10
188.7118659999999
 20
656.57775099999992
 30
0.0
 11
183.2118669999999
 21
656.57775099999992
 31
0.0
  0
LINE
  5
4A0
  8
0
 62
     1
 10
188.7118659999999
 20
662.57775099999981
 30
0.0
 11
183.2118669999999
 21
662.57775099999981
 31
0.0
  0
LINE
  5
4A1
  8
0
 62
     1
 10
183.2118669999999
 20
656.57775099999992
 30
0.0
 11
182.2118669999999
 21
657.15509799999995
 31
0.0
  0
LINE
  5
4A2
  8
0
 62
     1
 10
183.2118669999999
 20
656.57775099999992
 30
0.0
 11
183.2118669999999
 21
657.45642899999984
 31
0.0
  0
LINE
  5
4A3
  8
0
 62
     1
 10
183.2118669999999
 20
657.45642899999984
 30
0.0
 11
183.2118669999999
 21
658.42971
 31
0.0
  0
LINE
  5
4A4
  8
0
 62
     1
 10
183.2118669999999
 20
658.42971
 30
0.0
 11
183.2118669999999
 21
659.57775099999992
 31
0.0
  0
LINE
  5
4A5
  8
0
 62
     1
 10
183.2118669999999
 20
659.57775099999992
 30
0.0
 11
183.2118669999999
 21
660.72580700000003
 31
0.0
  0
LINE
  5
4A6
  8
0
 62
     1
 10
183.2118669999999
 20
660.72580700000003
 30
0.0
 11
183.2118669999999
 21
662.57775099999981
 31
0.0
  0
LINE
  5
4A7
  8
0
 62
     1
 10
183.2118669999999
 20
661.699074
 30
0.0
 11
183.2118669999999
 21
662.34938799999986
 31
0.0
  0
LINE
  5
4A8
  8
0
 62
     1
 10
182.7118669999999
 20
662.34938799999986
 30
0.0
 11
182.7118669999999
 21
662.57775099999981
 31
0.0
  0
LINE
  5
4A9
  8
0
 62
     1
 10
182.2118659999999
 20
662.000404
 30
0.0
 11
183.2118659999999
 21
662.57775099999981
 31
0.0
  0
LINE
  5
4AA
  8
0
 62
     1
 10
188.7118659999999
 20
520.57775500000002
 30
0.0
 11
183.2118669999999
 21
520.57775500000002
 31
0.0
  0
LINE
  5
4AB
  8
0
 62
     1
 10
188.7118659999999
 20
514.57775500000002
 30
0.0
 11
183.2118669999999
 21
514.57775500000002
 31
0.0
  0
LINE
  5
4AC
  8
0
 62
     1
 10
182.2118659999999
 20
520.000404
 30
0.0
 11
183.2118659999999
 21
520.57775500000002
 31
0.0
  0
LINE
  5
4AD
  8
0
 62
     1
 10
183.2118669999999
 20
519.699074
 30
0.0
 11
183.2118669999999
 21
520.57775500000002
 31
0.0
  0
LINE
  5
4AE
  8
0
 62
     1
 10
183.2118669999999
 20
518.72580700000003
 30
0.0
 11
183.2118669999999
 21
519.699074
 31
0.0
  0
LINE
  5
4AF
  8
0
 62
     1
 10
183.2118669999999
 20
517.57775500000002
 30
0.0
 11
183.2118669999999
 21
518.72580700000003
 31
0.0
  0
LINE
  5
4B0
  8
0
 62
     1
 10
183.2118669999999
 20
516.42970699999989
 30
0.0
 11
183.2118669999999
 21
517.57775500000002
 31
0.0
  0
LINE
  5
4B1
  8
0
 62
     1
 10
183.2118669999999
 20
515.45643600000005
 30
0.0
 11
183.2118669999999
 21
516.42970699999989
 31
0.0
  0
LINE
  5
4B2
  8
0
 62
     1
 10
183.2118669999999
 20
514.80611799999997
 30
0.0
 11
183.2118669999999
 21
515.45643600000005
 31
0.0
  0
LINE
  5
4B3
  8
0
 62
     1
 10
183.2118669999999
 20
514.57775500000002
 30
0.0
 11
182.2118669999999
 21
515.15510599999993
 31
0.0
  0
LINE
  5
4B4
  8
0
 62
     1
 10
183.2118669999999
 20
514.57775500000002
 30
0.0
 11
183.2118669999999
 21
514.80611799999997
 31
0.0
  0
LINE
  5
4B5
  8
0
 62
     1
 10
191.2118659999999
 20
670.07775099999992
 30
0.0
 11
190.21186599999999
 21
670.07775099999992
 31
0.0
  0
LINE
  5
4B6
  8
0
 62
     7
 10
188.7118659999999
 20
670.07775099999992
 30
0.0
 11
188.7118659999999
 21
712.77693899999997
 31
0.0
  0
LINE
  5
4B7
  8
0
 62
     7
 10
186.7118659999999
 20
643.57775099999992
 30
0.0
 11
186.7118659999999
 21
656.57775099999992
 31
0.0
  0
LINE
  5
4B8
  8
0
 62
     7
 10
188.7118659999999
 20
468.11881099999999
 30
0.0
 11
188.7118659999999
 21
507.07775499999991
 31
0.0
  0
LINE
  5
4B9
  8
0
 62
     7
 10
186.7118659999999
 20
469.31702199999989
 30
0.0
 11
186.7118659999999
 21
514.57775500000002
 31
0.0
  0
LINE
  5
4BA
  8
0
 62
     7
 10
188.7118659999999
 20
663.07775099999992
 30
0.0
 11
186.7118659999999
 21
663.07775099999992
 31
0.0
  0
LINE
  5
4BB
  8
0
 62
     7
 10
188.7118659999999
 20
656.07775099999992
 30
0.0
 11
186.7118659999999
 21
656.07775099999992
 31
0.0
  0
LINE
  5
4BC
  8
0
 62
     7
 10
188.7118659999999
 20
644.57775099999992
 30
0.0
 11
186.7118659999999
 21
644.57775099999992
 31
0.0
  0
LINE
  5
4BD
  8
0
 62
     7
 10
188.7118659999999
 20
532.57775500000002
 30
0.0
 11
186.7118659999999
 21
532.57775500000002
 31
0.0
  0
LINE
  5
4BE
  8
0
 62
     7
 10
188.7118659999999
 20
521.07775500000002
 30
0.0
 11
186.7118659999999
 21
521.07775500000002
 31
0.0
  0
LINE
  5
4BF
  8
0
 62
     7
 10
188.7118659999999
 20
514.07775500000002
 30
0.0
 11
186.7118659999999
 21
514.07775500000002
 31
0.0
  0
LINE
  5
4C0
  8
0
 62
     7
 10
186.7118659999999
 20
520.57775500000002
 30
0.0
 11
186.7118659999999
 21
533.57775500000002
 31
0.0
  0
LINE
  5
4C1
  8
0
 62
     7
 10
186.7118659999999
 20
662.57775099999981
 30
0.0
 11
186.7118659999999
 21
714.45709999999997
 31
0.0
  0
POLYLINE
  5
4C2
  8
0
 62
     3
 66
     1
 10
0.0
 20
0.0
 30
0.0
  0
VERTEX
  5
E1B
  8
0
 62
     3
 10
192.75106099999999
 20
709.38370499999985
 30
0.0
  0
VERTEX
  5
E1C
  8
0
 62
     3
 10
185.43222
 20
715.53209700000002
 30
0.0
  0
VERTEX
  5
E1D
  8
0
 62
     3
 10
183.38009099999991
 20
714.64397399999996
 30
0.0
  0
VERTEX
  5
E1E
  8
0
 62
     3
 10
185.18732199999991
 20
718.34990700000003
 30
0.0
  0
VERTEX
  5
E1F
  8
0
 62
     3
 10
183.1351929999999
 20
717.46176899999989
 30
0.0
  0
SEQEND
  5
E20
  8
0
 62
     3
  0
POLYLINE
  5
4C9
  8
0
 62
     3
 66
     1
 10
0.0
 20
0.0
 30
0.0
  0
VERTEX
  5
E21
  8
0
 62
     3
 10
194.159165
 20
464.85530199999988
 30
0.0
  0
VERTEX
  5
E22
  8
0
 62
     3
 10
184.30058199999999
 20
470.76163700000001
 30
0.0
  0
VERTEX
  5
E23
  8
0
 62
     3
 10
182.41488699999999
 20
469.5599059999999
 30
0.0
  0
VERTEX
  5
E24
  8
0
 62
     3
 10
183.61278300000001
 20
473.50516199999998
 30
0.0
  0
VERTEX
  5
E25
  8
0
 62
     3
 10
181.72708899999989
 20
472.30343199999999
 30
0.0
  0
SEQEND
  5
E26
  8
0
 62
     3
  0
LINE
  5
4D0
  8
0
  6
DASHDOT
 62
     7
 10
214.75694300000001
 20
578.33419000000004
 30
0.0
 11
214.75694300000001
 21
599.39864299999988
 31
0.0
  0
LINE
  5
4D1
  8
0
  6
DASHDOT
 62
   150
 10
242.21722799999989
 20
588.58419000000004
 30
0.0
 11
51.547142000000001
 21
588.58419000000004
 31
0.0
  0
POLYLINE
  5
4D2
  8
0
 62
     3
 66
     1
 10
0.0
 20
0.0
 30
0.0
  0
VERTEX
  5
E27
  8
0
 62
     3
 10
144.890728
 20
651.61228200000005
 30
0.0
  0
VERTEX
  5
E28
  8
0
 62
     3
 10
146.641006
 20
667.51625799999999
 30
0.0
  0
VERTEX
  5
E29
  8
0
 62
     3
 10
144.76240200000001
 20
668.72904199999994
 30
0.0
  0
VERTEX
  5
E2A
  8
0
 62
     3
 10
148.84779
 20
669.28546900000003
 30
0.0
  0
VERTEX
  5
E2B
  8
0
 62
     3
 10
146.96918500000001
 20
670.49825299999986
 30
0.0
  0
VERTEX
  5
E2C
  8
0
 62
     3
 10
148.23153300000001
 20
681.96863599999995
 30
0.0
  0
SEQEND
  5
E2D
  8
0
 62
     3
  0
POLYLINE
  5
4DA
  8
0
 62
     3
 66
     1
 10
0.0
 20
0.0
 30
0.0
  0
VERTEX
  5
E2E
  8
0
 62
     3
 10
116.9498209999999
 20
645.76863900000001
 30
0.0
  0
VERTEX
  5
E2F
  8
0
 62
     3
 10
116.720955
 20
648.62188000000003
 30
0.0
  0
VERTEX
  5
E30
  8
0
 62
     3
 10
114.64739999999991
 20
649.45876299999986
 30
0.0
  0
VERTEX
  5
E31
  8
0
 62
     3
 10
118.55463399999999
 20
650.775398
 30
0.0
  0
VERTEX
  5
E32
  8
0
 62
     3
 10
116.481087
 20
651.61228200000005
 30
0.0
  0
SEQEND
  5
E33
  8
0
 62
     3
  0
POLYLINE
  5
4E1
  8
0
 62
     3
 66
     1
 10
0.0
 20
0.0
 30
0.0
  0
VERTEX
  5
E34
  8
0
 62
     3
 10
144.890728
 20
651.61228200000005
 30
0.0
  0
VERTEX
  5
E35
  8
0
 62
     3
 10
128.89072799999991
 20
651.61228200000005
 30
0.0
  0
VERTEX
  5
E36
  8
0
 62
     3
 10
127.890728
 20
649.61228200000005
 30
0.0
  0
VERTEX
  5
E37
  8
0
 62
     3
 10
126.890728
 20
653.61228200000005
 30
0.0
  0
VERTEX
  5
E38
  8
0
 62
     3
 10
125.890728
 20
651.61228200000005
 30
0.0
  0
VERTEX
  5
E39
  8
0
 62
     3
 10
116.48107899999999
 20
651.61228200000005
 30
0.0
  0
SEQEND
  5
E3A
  8
0
 62
     3
  0
LINE
  5
4E9
  8
0
 62
     7
 10
99.711876000000004
 20
666.53418699999986
 30
0.0
 11
99.711876000000004
 21
671.33419000000004
 31
0.0
  0
LINE
  5
4EA
  8
0
  6
DASHDOT
 62
     3
 10
145.8008879999999
 20
662.33419000000004
 30
0.0
 11
92.542229000000006
 21
662.33419000000004
 31
0.0
  0
LINE
  5
4EB
  8
0
  6
DASHSPACE
 62
     3
 10
104.711876
 20
652.33419000000004
 30
0.0
 11
99.711876000000004
 21
652.33419000000004
 31
0.0
  0
LINE
  5
4EC
  8
0
 62
     1
 10
119.711876
 20
528.33419000000004
 30
0.0
 11
104.711876
 21
528.33419000000004
 31
0.0
  0
LINE
  5
4ED
  8
0
 62
     1
 10
119.711876
 20
478.33418999999998
 30
0.0
 11
119.711876
 21
515.33419000000004
 31
0.0
  0
LINE
  5
4EE
  8
0
 62
     1
 10
119.711876
 20
478.33418999999998
 30
0.0
 11
99.711876000000004
 21
478.33418999999998
 31
0.0
  0
LINE
  5
4EF
  8
0
 62
     1
 10
99.711876000000004
 20
478.33418999999998
 30
0.0
 11
99.711876000000004
 21
493.44234299999988
 31
0.0
  0
LINE
  5
4F0
  8
0
 62
     1
 10
104.711876
 20
508.83418999999998
 30
0.0
 11
99.711876000000004
 21
508.83418999999998
 31
0.0
  0
LINE
  5
4F1
  8
0
 62
     1
 10
104.711876
 20
508.83418999999998
 30
0.0
 11
104.711876
 21
515.33419000000004
 31
0.0
  0
LINE
  5
4F2
  8
0
 62
     1
 10
120.211876
 20
523.33419000000004
 30
0.0
 11
99.711876000000004
 21
523.33419000000004
 31
0.0
  0
LINE
  5
4F3
  8
0
 62
     1
 10
120.211876
 20
515.33419000000004
 30
0.0
 11
99.711876000000004
 21
515.33419000000004
 31
0.0
  0
LINE
  5
4F4
  8
0
 62
     1
 10
119.711876
 20
505.83418999999998
 30
0.0
 11
99.711876000000004
 21
505.83418999999998
 31
0.0
  0
LINE
  5
4F5
  8
0
 62
     1
 10
101.711876
 20
489.83418999999998
 30
0.0
 11
99.711876000000004
 21
489.83418999999998
 31
0.0
  0
LINE
  5
4F6
  8
0
 62
     1
 10
101.711876
 20
478.33418999999998
 30
0.0
 11
101.711876
 21
492.44234299999999
 31
0.0
  0
LINE
  5
4F7
  8
0
 62
     1
 10
117.711876
 20
478.33418999999998
 30
0.0
 11
117.711876
 21
492.44234299999999
 31
0.0
  0
LINE
  5
4F8
  8
0
 62
     1
 10
103.211876
 20
480.7341899999999
 30
0.0
 11
103.211876
 21
492.44234299999999
 31
0.0
  0
LINE
  5
4F9
  8
0
 62
     1
 10
116.211876
 20
480.7341899999999
 30
0.0
 11
116.211876
 21
492.44234299999999
 31
0.0
  0
LINE
  5
4FA
  8
0
  6
DASHDOT
 62
     1
 10
109.711876
 20
471.93858399999999
 30
0.0
 11
109.711876
 21
494.20964700000002
 31
0.0
  0
LINE
  5
4FB
  8
0
 62
     1
 10
116.211876
 20
480.7341899999999
 30
0.0
 11
103.211876
 21
480.7341899999999
 31
0.0
  0
LINE
  5
4FC
  8
0
 62
     1
 10
96.011870999999999
 20
512.83419000000004
 30
0.0
 11
96.011870999999999
 21
525.83419000000004
 31
0.0
  0
LINE
  5
4FD
  8
0
 62
     1
 10
95.711876000000004
 20
513.13418999999988
 30
0.0
 11
95.711876000000004
 21
525.53419099999985
 31
0.0
  0
LINE
  5
4FE
  8
0
 62
     1
 10
98.711876000000004
 20
511.33418999999998
 30
0.0
 11
98.711876000000004
 21
527.33419000000004
 31
0.0
  0
LINE
  5
4FF
  8
0
 62
     1
 10
101.711876
 20
515.33419000000004
 30
0.0
 11
101.711876
 21
523.33419000000004
 31
0.0
  0
LINE
  5
500
  8
0
 62
     1
 10
98.711876000000004
 20
525.83419000000004
 30
0.0
 11
96.011870999999999
 21
525.83419000000004
 31
0.0
  0
LINE
  5
501
  8
0
 62
     1
 10
99.711876000000004
 20
527.33419000000004
 30
0.0
 11
98.711876000000004
 21
527.33419000000004
 31
0.0
  0
LINE
  5
502
  8
0
 62
     1
 10
95.711876000000004
 20
525.53419099999985
 30
0.0
 11
96.011870999999999
 21
525.83419000000004
 31
0.0
  0
LINE
  5
503
  8
0
 62
     1
 10
98.711876000000004
 20
512.83419000000004
 30
0.0
 11
96.011870999999999
 21
512.83419000000004
 31
0.0
  0
LINE
  5
504
  8
0
 62
     1
 10
96.011870999999999
 20
512.83419000000004
 30
0.0
 11
95.711876000000004
 21
513.13418999999988
 31
0.0
  0
LINE
  5
505
  8
0
 62
     1
 10
99.711876000000004
 20
511.33418999999998
 30
0.0
 11
98.711876000000004
 21
511.33418999999998
 31
0.0
  0
LINE
  5
506
  8
0
 62
     1
 10
120.7118759999999
 20
522.83419000000004
 30
0.0
 11
101.711876
 21
522.83419000000004
 31
0.0
  0
LINE
  5
507
  8
0
 62
     1
 10
120.7118759999999
 20
515.83419000000004
 30
0.0
 11
101.711876
 21
515.83419000000004
 31
0.0
  0
LINE
  5
508
  8
0
 62
     1
 10
120.7118759999999
 20
515.83419000000004
 30
0.0
 11
120.7118759999999
 21
522.83419000000004
 31
0.0
  0
LINE
  5
509
  8
0
 62
     1
 10
120.211876
 20
515.33419000000004
 30
0.0
 11
120.211876
 21
523.33419000000004
 31
0.0
  0
LINE
  5
50A
  8
0
 62
     1
 10
120.7118759999999
 20
522.83419000000004
 30
0.0
 11
120.211876
 21
523.33419000000004
 31
0.0
  0
LINE
  5
50B
  8
0
 62
     1
 10
120.211876
 20
515.33419000000004
 30
0.0
 11
120.7118759999999
 21
515.83419000000004
 31
0.0
  0
LINE
  5
50C
  8
0
 62
     1
 10
114.211876
 20
515.33419000000004
 30
0.0
 11
113.711876
 21
515.33419000000004
 31
0.0
  0
LINE
  5
50D
  8
0
 62
     1
 10
114.211876
 20
523.33419000000004
 30
0.0
 11
113.711876
 21
523.33419000000004
 31
0.0
  0
LINE
  5
50E
  8
0
 62
     1
 10
99.711876000000004
 20
511.33418999999998
 30
0.0
 11
99.711876000000004
 21
527.33419000000004
 31
0.0
  0
LINE
  5
50F
  8
0
 62
     1
 10
104.711876
 20
523.33419000000004
 30
0.0
 11
104.711876
 21
528.33419000000004
 31
0.0
  0
LINE
  5
510
  8
0
 62
     1
 10
119.711876
 20
523.33419000000004
 30
0.0
 11
119.711876
 21
528.33419000000004
 31
0.0
  0
LINE
  5
511
  8
0
 62
     1
 10
117.711876
 20
482.23419000000001
 30
0.0
 11
101.711876
 21
482.23419000000001
 31
0.0
  0
LINE
  5
512
  8
0
 62
     1
 10
116.211876
 20
480.7341899999999
 30
0.0
 11
117.711876
 21
482.23419000000001
 31
0.0
  0
LINE
  5
513
  8
0
 62
     1
 10
103.211876
 20
480.7341899999999
 30
0.0
 11
101.711876
 21
482.23419000000001
 31
0.0
  0
ARC
  5
514
  8
0
 62
     1
 10
109.711876
 20
460.94234299999988
 30
0.0
 40
32.5
 50
75.749967999999996
 51
104.2500329999999
  0
LINE
  5
515
  8
0
 62
     1
 10
117.711876
 20
492.44234299999999
 30
0.0
 11
101.711876
 21
492.44234299999999
 31
0.0
  0
LINE
  5
516
  8
0
 62
     1
 10
119.711876
 20
489.83418999999998
 30
0.0
 11
117.711876
 21
489.83418999999998
 31
0.0
  0
LINE
  5
517
  8
0
 62
     1
 10
99.711876000000004
 20
505.83418999999998
 30
0.0
 11
99.711876000000004
 21
508.83418999999998
 31
0.0
  0
LINE
  5
518
  8
0
 62
     7
 10
104.711876
 20
528.33419000000004
 30
0.0
 11
104.711876
 21
532.31739799999991
 31
0.0
  0
LINE
  5
519
  8
0
  6
DASHDOT
 62
    31
 10
87.356583000000001
 20
660.33419000000004
 30
0.0
 11
62.707481000000008
 21
660.33419000000004
 31
0.0
  0
LINE
  5
51A
  8
0
 62
     7
 10
76.711876000000004
 20
664.33419000000004
 30
0.0
 11
72.711876000000004
 21
664.33419000000004
 31
0.0
  0
LINE
  5
51B
  8
0
 62
     7
 10
76.711876000000004
 20
656.33419000000004
 30
0.0
 11
72.711876000000004
 21
656.33419000000004
 31
0.0
  0
LINE
  5
51C
  8
0
 62
     7
 10
72.711876000000004
 20
656.33419000000004
 30
0.0
 11
72.711876000000004
 21
664.33419000000004
 31
0.0
  0
LINE
  5
51D
  8
0
 62
     7
 10
68.711876000000004
 20
657.83419000000004
 30
0.0
 11
68.711876000000004
 21
662.83419000000004
 31
0.0
  0
LINE
  5
51E
  8
0
 62
     7
 10
76.711876000000004
 20
662.83419000000004
 30
0.0
 11
68.711876000000004
 21
662.83419000000004
 31
0.0
  0
LINE
  5
51F
  8
0
 62
     7
 10
76.711876000000004
 20
657.83419000000004
 30
0.0
 11
68.711876000000004
 21
657.83419000000004
 31
0.0
  0
LINE
  5
520
  8
0
 62
     7
 10
76.711876000000004
 20
525.33419000000004
 30
0.0
 11
72.711876000000004
 21
525.33419000000004
 31
0.0
  0
LINE
  5
521
  8
0
 62
     7
 10
76.711876000000004
 20
523.83419000000004
 30
0.0
 11
68.711876000000004
 21
523.83419000000004
 31
0.0
  0
LINE
  5
522
  8
0
 62
     7
 10
76.711876000000004
 20
518.83419000000004
 30
0.0
 11
68.711876000000004
 21
518.83419000000004
 31
0.0
  0
LINE
  5
523
  8
0
 62
     7
 10
76.711876000000004
 20
517.33419000000004
 30
0.0
 11
72.711876000000004
 21
517.33419000000004
 31
0.0
  0
LINE
  5
524
  8
0
  6
DASHDOT
 62
    31
 10
87.356583000000001
 20
521.33419000000004
 30
0.0
 11
62.707481000000008
 21
521.33419000000004
 31
0.0
  0
LINE
  5
525
  8
0
 62
     7
 10
72.711876000000004
 20
517.33419000000004
 30
0.0
 11
72.711876000000004
 21
525.33419000000004
 31
0.0
  0
LINE
  5
526
  8
0
 62
     7
 10
68.711876000000004
 20
518.83419000000004
 30
0.0
 11
68.711876000000004
 21
523.83419000000004
 31
0.0
  0
CIRCLE
  5
527
  8
0
 62
     7
 10
-76.345589000000004
 20
662.41828199999986
 30
0.0
 40
0.2
  0
LINE
  5
528
  8
0
 62
    31
 10
96.711876000000004
 20
674.03418699999986
 30
0.0
 11
68.099716000000001
 21
674.03418699999986
 31
0.0
  0
POLYLINE
  5
529
  8
0
 62
    31
 66
     1
 10
0.0
 20
0.0
 30
0.0
  0
VERTEX
  5
E3B
  8
0
 62
    31
 10
68.099716000000001
 20
682.03418699999997
 30
0.0
  0
VERTEX
  5
E3C
  8
0
 62
    31
 10
68.010261999999983
 20
682.03018999999995
 30
0.0
  0
VERTEX
  5
E3D
  8
0
 62
    31
 10
67.920845
 20
682.01816600000006
 30
0.0
  0
VERTEX
  5
E3E
  8
0
 62
    31
 10
67.831397999999993
 20
681.99802399999987
 30
0.0
  0
VERTEX
  5
E3F
  8
0
 62
    31
 10
67.741858999999991
 20
681.96964300000002
 30
0.0
  0
VERTEX
  5
E40
  8
0
 62
    31
 10
67.652183999999991
 20
681.93276200000003
 30
0.0
  0
VERTEX
  5
E41
  8
0
 62
    31
 10
67.562386000000004
 20
681.88712299999997
 30
0.0
  0
VERTEX
  5
E42
  8
0
 62
    31
 10
67.472495999999992
 20
681.83239000000003
 30
0.0
  0
VERTEX
  5
E43
  8
0
 62
    31
 10
67.382614000000004
 20
681.7682269999998
 30
0.0
  0
VERTEX
  5
E44
  8
0
 62
    31
 10
67.292869999999994
 20
681.69425200000001
 30
0.0
  0
VERTEX
  5
E45
  8
0
 62
    31
 10
67.203475999999995
 20
681.6100849999998
 30
0.0
  0
VERTEX
  5
E46
  8
0
 62
    31
 10
67.114661999999996
 20
681.51537299999995
 30
0.0
  0
VERTEX
  5
E47
  8
0
 62
    31
 10
67.026732999999993
 20
681.40981299999987
 30
0.0
  0
VERTEX
  5
E48
  8
0
 62
    31
 10
66.940033
 20
681.29309799999999
 30
0.0
  0
VERTEX
  5
E49
  8
0
 62
    31
 10
66.854950000000002
 20
681.165031
 30
0.0
  0
VERTEX
  5
E4A
  8
0
 62
    31
 10
66.771912
 20
681.02547500000003
 30
0.0
  0
VERTEX
  5
E4B
  8
0
 62
    31
 10
66.691399000000004
 20
680.87436700000001
 30
0.0
  0
VERTEX
  5
E4C
  8
0
 62
    31
 10
66.613892000000007
 20
680.71175400000004
 30
0.0
  0
VERTEX
  5
E4D
  8
0
 62
    31
 10
66.539917000000003
 20
680.53780400000005
 30
0.0
  0
VERTEX
  5
E4E
  8
0
 62
    31
 10
66.469994
 20
680.35282099999995
 30
0.0
  0
VERTEX
  5
E4F
  8
0
 62
    31
 10
66.404655000000005
 20
680.15718800000002
 30
0.0
  0
VERTEX
  5
E50
  8
0
 62
    31
 10
66.344429000000005
 20
679.95145400000001
 30
0.0
  0
VERTEX
  5
E51
  8
0
 62
    31
 10
66.289824999999993
 20
679.73630500000002
 30
0.0
  0
VERTEX
  5
E52
  8
0
 62
    31
 10
66.241325000000003
 20
679.51253499999984
 30
0.0
  0
VERTEX
  5
E53
  8
0
 62
    31
 10
66.199364000000003
 20
679.28105900000003
 30
0.0
  0
VERTEX
  5
E54
  8
0
 62
    31
 10
66.164352000000008
 20
679.04291499999999
 30
0.0
  0
VERTEX
  5
E55
  8
0
 62
    31
 10
66.136642000000009
 20
678.79924800000003
 30
0.0
  0
VERTEX
  5
E56
  8
0
 62
    31
 10
66.116501
 20
678.55130800000006
 30
0.0
  0
VERTEX
  5
E57
  8
0
 62
    31
 10
66.104148999999992
 20
678.30036199999995
 30
0.0
  0
VERTEX
  5
E58
  8
0
 62
    31
 10
66.099723999999995
 20
678.04776800000002
 30
0.0
  0
VERTEX
  5
E59
  8
0
 62
    31
 10
66.103293999999991
 20
677.79491399999995
 30
0.0
  0
VERTEX
  5
E5A
  8
0
 62
    31
 10
66.108078000000006
 20
677.66886099999988
 30
0.0
  0
VERTEX
  5
E5B
  8
0
 62
    31
 10
66.114838000000006
 20
677.54317500000002
 30
0.0
  0
VERTEX
  5
E5C
  8
0
 62
    31
 10
66.123565999999997
 20
677.41825099999994
 30
0.0
  0
VERTEX
  5
E5D
  8
0
 62
    31
 10
66.134261999999993
 20
677.29395299999999
 30
0.0
  0
VERTEX
  5
E5E
  8
0
 62
    31
 10
66.146857999999995
 20
677.17083000000002
 30
0.0
  0
VERTEX
  5
E5F
  8
0
 62
    31
 10
66.161384999999996
 20
677.04856099999995
 30
0.0
  0
VERTEX
  5
E60
  8
0
 62
    31
 10
66.177734000000001
 20
676.92787899999985
 30
0.0
  0
VERTEX
  5
E61
  8
0
 62
    31
 10
66.195960999999997
 20
676.80828099999997
 30
0.0
  0
VERTEX
  5
E62
  8
0
 62
    31
 10
66.215912000000003
 20
676.690651
 30
0.0
  0
VERTEX
  5
E63
  8
0
 62
    31
 10
66.237670999999992
 20
676.57433300000002
 30
0.0
  0
VERTEX
  5
E64
  8
0
 62
    31
 10
66.261040000000008
 20
676.46032000000002
 30
0.0
  0
VERTEX
  5
E65
  8
0
 62
    31
 10
66.286147999999997
 20
676.34781599999997
 30
0.0
  0
VERTEX
  5
E66
  8
0
 62
    31
 10
66.312714
 20
676.23793799999987
 30
0.0
  0
VERTEX
  5
E67
  8
0
 62
    31
 10
66.340950000000007
 20
676.12973799999997
 30
0.0
  0
VERTEX
  5
E68
  8
0
 62
    31
 10
66.370491000000001
 20
676.02443700000003
 30
0.0
  0
VERTEX
  5
E69
  8
0
 62
    31
 10
66.401604000000006
 20
675.92096700000002
 30
0.0
  0
VERTEX
  5
E6A
  8
0
 62
    31
 10
66.433868000000004
 20
675.82064100000002
 30
0.0
  0
VERTEX
  5
E6B
  8
0
 62
    31
 10
66.467606000000004
 20
675.72228199999995
 30
0.0
  0
VERTEX
  5
E6C
  8
0
 62
    31
 10
66.502326999999994
 20
675.627251
 30
0.0
  0
VERTEX
  5
E6D
  8
0
 62
    31
 10
66.538421999999997
 20
675.53429400000005
 30
0.0
  0
VERTEX
  5
E6E
  8
0
 62
    31
 10
66.575325000000007
 20
675.44480099999987
 30
0.0
  0
VERTEX
  5
E6F
  8
0
 62
    31
 10
66.613509999999991
 20
675.35749099999998
 30
0.0
  0
VERTEX
  5
E70
  8
0
 62
    31
 10
66.652321000000001
 20
675.27372000000003
 30
0.0
  0
VERTEX
  5
E71
  8
0
 62
    31
 10
66.692313999999996
 20
675.19220700000005
 30
0.0
  0
VERTEX
  5
E72
  8
0
 62
    31
 10
66.732765000000001
 20
675.11429599999997
 30
0.0
  0
VERTEX
  5
E73
  8
0
 62
    31
 10
66.774292000000003
 20
675.03868899999986
 30
0.0
  0
VERTEX
  5
E74
  8
0
 62
    31
 10
66.816115999999994
 20
674.96669799999995
 30
0.0
  0
VERTEX
  5
E75
  8
0
 62
    31
 10
66.858924999999999
 20
674.89704099999994
 30
0.0
  0
VERTEX
  5
E76
  8
0
 62
    31
 10
66.901877999999996
 20
674.83095600000001
 30
0.0
  0
VERTEX
  5
E77
  8
0
 62
    31
 10
66.945708999999994
 20
674.76723499999991
 30
0.0
  0
VERTEX
  5
E78
  8
0
 62
    31
 10
66.989547999999999
 20
674.70700799999997
 30
0.0
  0
VERTEX
  5
E79
  8
0
 62
    31
 10
67.034171999999998
 20
674.64914699999986
 30
0.0
  0
VERTEX
  5
E7A
  8
0
 62
    31
 10
67.078690000000009
 20
674.59471900000005
 30
0.0
  0
VERTEX
  5
E7B
  8
0
 62
    31
 10
67.123893999999993
 20
674.54260999999985
 30
0.0
  0
VERTEX
  5
E7C
  8
0
 62
    31
 10
67.168883999999991
 20
674.49381300000005
 30
0.0
  0
VERTEX
  5
E7D
  8
0
 62
    31
 10
67.214484999999996
 20
674.44733399999996
 30
0.0
  0
VERTEX
  5
E7E
  8
0
 62
    31
 10
67.259788999999998
 20
674.40403000000003
 30
0.0
  0
VERTEX
  5
E7F
  8
0
 62
    31
 10
67.30561800000001
 20
674.36299899999995
 30
0.0
  0
VERTEX
  5
E80
  8
0
 62
    31
 10
67.351089000000002
 20
674.32498899999985
 30
0.0
  0
VERTEX
  5
E81
  8
0
 62
    31
 10
67.397010999999992
 20
674.28922299999988
 30
0.0
  0
VERTEX
  5
E82
  8
0
 62
    31
 10
67.442520000000002
 20
674.25630999999987
 30
0.0
  0
VERTEX
  5
E83
  8
0
 62
    31
 10
67.488426000000004
 20
674.22560899999985
 30
0.0
  0
VERTEX
  5
E84
  8
0
 62
    31
 10
67.533905000000004
 20
674.19759400000009
 30
0.0
  0
VERTEX
  5
E85
  8
0
 62
    31
 10
67.579704000000007
 20
674.17176100000006
 30
0.0
  0
VERTEX
  5
E86
  8
0
 62
    31
 10
67.625084000000001
 20
674.14845999999989
 30
0.0
  0
VERTEX
  5
E87
  8
0
 62
    31
 10
67.670722999999995
 20
674.12729599999989
 30
0.0
  0
VERTEX
  5
E88
  8
0
 62
    31
 10
67.715964999999997
 20
674.10851300000002
 30
0.0
  0
VERTEX
  5
E89
  8
0
 62
    31
 10
67.761414000000002
 20
674.09183499999995
 30
0.0
  0
VERTEX
  5
E8A
  8
0
 62
    31
 10
67.806511
 20
674.07740000000001
 30
0.0
  0
VERTEX
  5
E8B
  8
0
 62
    31
 10
67.851760999999996
 20
674.0650559999998
 30
0.0
  0
VERTEX
  5
E8C
  8
0
 62
    31
 10
67.896720999999999
 20
674.05484799999999
 30
0.0
  0
VERTEX
  5
E8D
  8
0
 62
    31
 10
67.941788000000003
 20
674.04668400000003
 30
0.0
  0
VERTEX
  5
E8E
  8
0
 62
    31
 10
67.986632999999998
 20
674.04059600000005
 30
0.0
  0
VERTEX
  5
E8F
  8
0
 62
    31
 10
68.031540000000007
 20
674.03652199999999
 30
0.0
  0
VERTEX
  5
E90
  8
0
 62
    31
 10
68.099716000000001
 20
674.03418699999986
 30
0.0
  0
SEQEND
  5
E91
  8
0
 62
    31
  0
POLYLINE
  5
581
  8
0
 62
    31
 66
     1
 10
0.0
 20
0.0
 30
0.0
 70
     1
  0
VERTEX
  5
E92
  8
0
 62
    31
 10
68.099716000000001
 20
690.03418699999997
 30
0.0
  0
VERTEX
  5
E93
  8
0
 62
    31
 10
68.010261999999983
 20
690.03018999999995
 30
0.0
  0
VERTEX
  5
E94
  8
0
 62
    31
 10
67.920845
 20
690.01816600000006
 30
0.0
  0
VERTEX
  5
E95
  8
0
 62
    31
 10
67.831397999999993
 20
689.99802399999987
 30
0.0
  0
VERTEX
  5
E96
  8
0
 62
    31
 10
67.741858999999991
 20
689.96964300000002
 30
0.0
  0
VERTEX
  5
E97
  8
0
 62
    31
 10
67.652183999999991
 20
689.93276200000003
 30
0.0
  0
VERTEX
  5
E98
  8
0
 62
    31
 10
67.562386000000004
 20
689.88712300000009
 30
0.0
  0
VERTEX
  5
E99
  8
0
 62
    31
 10
67.472495999999992
 20
689.83239000000003
 30
0.0
  0
VERTEX
  5
E9A
  8
0
 62
    31
 10
67.382614000000004
 20
689.7682269999998
 30
0.0
  0
VERTEX
  5
E9B
  8
0
 62
    31
 10
67.292869999999994
 20
689.69425200000001
 30
0.0
  0
VERTEX
  5
E9C
  8
0
 62
    31
 10
67.203475999999995
 20
689.6100849999998
 30
0.0
  0
VERTEX
  5
E9D
  8
0
 62
    31
 10
67.114661999999996
 20
689.51537299999995
 30
0.0
  0
VERTEX
  5
E9E
  8
0
 62
    31
 10
67.026732999999993
 20
689.40981299999987
 30
0.0
  0
VERTEX
  5
E9F
  8
0
 62
    31
 10
66.940033
 20
689.29309799999999
 30
0.0
  0
VERTEX
  5
EA0
  8
0
 62
    31
 10
66.854950000000002
 20
689.165031
 30
0.0
  0
VERTEX
  5
EA1
  8
0
 62
    31
 10
66.771912
 20
689.02547500000003
 30
0.0
  0
VERTEX
  5
EA2
  8
0
 62
    31
 10
66.691399000000004
 20
688.87436700000001
 30
0.0
  0
VERTEX
  5
EA3
  8
0
 62
    31
 10
66.613892000000007
 20
688.71175400000004
 30
0.0
  0
VERTEX
  5
EA4
  8
0
 62
    31
 10
66.539917000000003
 20
688.53780400000005
 30
0.0
  0
VERTEX
  5
EA5
  8
0
 62
    31
 10
66.469994
 20
688.35282099999995
 30
0.0
  0
VERTEX
  5
EA6
  8
0
 62
    31
 10
66.404655000000005
 20
688.15718800000002
 30
0.0
  0
VERTEX
  5
EA7
  8
0
 62
    31
 10
66.344429000000005
 20
687.95145400000001
 30
0.0
  0
VERTEX
  5
EA8
  8
0
 62
    31
 10
66.289824999999993
 20
687.73630500000002
 30
0.0
  0
VERTEX
  5
EA9
  8
0
 62
    31
 10
66.241325000000003
 20
687.51253499999984
 30
0.0
  0
VERTEX
  5
EAA
  8
0
 62
    31
 10
66.199364000000003
 20
687.28105900000003
 30
0.0
  0
VERTEX
  5
EAB
  8
0
 62
    31
 10
66.164352000000008
 20
687.04291499999988
 30
0.0
  0
VERTEX
  5
EAC
  8
0
 62
    31
 10
66.136642000000009
 20
686.79924800000003
 30
0.0
  0
VERTEX
  5
EAD
  8
0
 62
    31
 10
66.116501
 20
686.55130799999995
 30
0.0
  0
VERTEX
  5
EAE
  8
0
 62
    31
 10
66.104148999999992
 20
686.30036199999995
 30
0.0
  0
VERTEX
  5
EAF
  8
0
 62
    31
 10
66.099723999999995
 20
686.04776800000002
 30
0.0
  0
VERTEX
  5
EB0
  8
0
 62
    31
 10
66.103293999999991
 20
685.79491399999995
 30
0.0
  0
VERTEX
  5
EB1
  8
0
 62
    31
 10
66.108078000000006
 20
685.66886099999988
 30
0.0
  0
VERTEX
  5
EB2
  8
0
 62
    31
 10
66.114838000000006
 20
685.54317500000002
 30
0.0
  0
VERTEX
  5
EB3
  8
0
 62
    31
 10
66.123565999999997
 20
685.41825099999994
 30
0.0
  0
VERTEX
  5
EB4
  8
0
 62
    31
 10
66.134261999999993
 20
685.29395299999999
 30
0.0
  0
VERTEX
  5
EB5
  8
0
 62
    31
 10
66.146857999999995
 20
685.17083000000002
 30
0.0
  0
VERTEX
  5
EB6
  8
0
 62
    31
 10
66.161384999999996
 20
685.04856099999995
 30
0.0
  0
VERTEX
  5
EB7
  8
0
 62
    31
 10
66.177734000000001
 20
684.92787899999985
 30
0.0
  0
VERTEX
  5
EB8
  8
0
 62
    31
 10
66.195960999999997
 20
684.80828099999997
 30
0.0
  0
VERTEX
  5
EB9
  8
0
 62
    31
 10
66.215912000000003
 20
684.690651
 30
0.0
  0
VERTEX
  5
EBA
  8
0
 62
    31
 10
66.237670999999992
 20
684.57433300000002
 30
0.0
  0
VERTEX
  5
EBB
  8
0
 62
    31
 10
66.261040000000008
 20
684.46032000000002
 30
0.0
  0
VERTEX
  5
EBC
  8
0
 62
    31
 10
66.286147999999997
 20
684.34781599999997
 30
0.0
  0
VERTEX
  5
EBD
  8
0
 62
    31
 10
66.312714
 20
684.23793799999987
 30
0.0
  0
VERTEX
  5
EBE
  8
0
 62
    31
 10
66.340950000000007
 20
684.12973799999997
 30
0.0
  0
VERTEX
  5
EBF
  8
0
 62
    31
 10
66.370491000000001
 20
684.02443700000003
 30
0.0
  0
VERTEX
  5
EC0
  8
0
 62
    31
 10
66.401604000000006
 20
683.92096700000002
 30
0.0
  0
VERTEX
  5
EC1
  8
0
 62
    31
 10
66.433868000000004
 20
683.82064100000002
 30
0.0
  0
VERTEX
  5
EC2
  8
0
 62
    31
 10
66.467606000000004
 20
683.72228199999995
 30
0.0
  0
VERTEX
  5
EC3
  8
0
 62
    31
 10
66.502326999999994
 20
683.627251
 30
0.0
  0
VERTEX
  5
EC4
  8
0
 62
    31
 10
66.538421999999997
 20
683.53429400000005
 30
0.0
  0
VERTEX
  5
EC5
  8
0
 62
    31
 10
66.575325000000007
 20
683.44480099999998
 30
0.0
  0
VERTEX
  5
EC6
  8
0
 62
    31
 10
66.613509999999991
 20
683.35749099999998
 30
0.0
  0
VERTEX
  5
EC7
  8
0
 62
    31
 10
66.652321000000001
 20
683.27372000000003
 30
0.0
  0
VERTEX
  5
EC8
  8
0
 62
    31
 10
66.692313999999996
 20
683.19220700000005
 30
0.0
  0
VERTEX
  5
EC9
  8
0
 62
    31
 10
66.732765000000001
 20
683.11429599999997
 30
0.0
  0
VERTEX
  5
ECA
  8
0
 62
    31
 10
66.774292000000003
 20
683.03868899999986
 30
0.0
  0
VERTEX
  5
ECB
  8
0
 62
    31
 10
66.816115999999994
 20
682.96669799999995
 30
0.0
  0
VERTEX
  5
ECC
  8
0
 62
    31
 10
66.858924999999999
 20
682.89704100000006
 30
0.0
  0
VERTEX
  5
ECD
  8
0
 62
    31
 10
66.901877999999996
 20
682.83095600000001
 30
0.0
  0
VERTEX
  5
ECE
  8
0
 62
    31
 10
66.945708999999994
 20
682.76723499999991
 30
0.0
  0
VERTEX
  5
ECF
  8
0
 62
    31
 10
66.989547999999999
 20
682.70700799999986
 30
0.0
  0
VERTEX
  5
ED0
  8
0
 62
    31
 10
67.034171999999998
 20
682.64914699999986
 30
0.0
  0
VERTEX
  5
ED1
  8
0
 62
    31
 10
67.078690000000009
 20
682.59471900000005
 30
0.0
  0
VERTEX
  5
ED2
  8
0
 62
    31
 10
67.123893999999993
 20
682.54260999999985
 30
0.0
  0
VERTEX
  5
ED3
  8
0
 62
    31
 10
67.168883999999991
 20
682.49381300000005
 30
0.0
  0
VERTEX
  5
ED4
  8
0
 62
    31
 10
67.214484999999996
 20
682.44733399999996
 30
0.0
  0
VERTEX
  5
ED5
  8
0
 62
    31
 10
67.259788999999998
 20
682.40403000000003
 30
0.0
  0
VERTEX
  5
ED6
  8
0
 62
    31
 10
67.30561800000001
 20
682.36299899999995
 30
0.0
  0
VERTEX
  5
ED7
  8
0
 62
    31
 10
67.351089000000002
 20
682.32498899999985
 30
0.0
  0
VERTEX
  5
ED8
  8
0
 62
    31
 10
67.397010999999992
 20
682.28922299999988
 30
0.0
  0
VERTEX
  5
ED9
  8
0
 62
    31
 10
67.442520000000002
 20
682.25630999999987
 30
0.0
  0
VERTEX
  5
EDA
  8
0
 62
    31
 10
67.488426000000004
 20
682.22560899999985
 30
0.0
  0
VERTEX
  5
EDB
  8
0
 62
    31
 10
67.533905000000004
 20
682.19759400000009
 30
0.0
  0
VERTEX
  5
EDC
  8
0
 62
    31
 10
67.579704000000007
 20
682.17176099999995
 30
0.0
  0
VERTEX
  5
EDD
  8
0
 62
    31
 10
67.625084000000001
 20
682.14845999999989
 30
0.0
  0
VERTEX
  5
EDE
  8
0
 62
    31
 10
67.670722999999995
 20
682.12729599999989
 30
0.0
  0
VERTEX
  5
EDF
  8
0
 62
    31
 10
67.715964999999997
 20
682.10851300000002
 30
0.0
  0
VERTEX
  5
EE0
  8
0
 62
    31
 10
67.761414000000002
 20
682.09183499999995
 30
0.0
  0
VERTEX
  5
EE1
  8
0
 62
    31
 10
67.806511
 20
682.07740000000001
 30
0.0
  0
VERTEX
  5
EE2
  8
0
 62
    31
 10
67.851760999999996
 20
682.0650559999998
 30
0.0
  0
VERTEX
  5
EE3
  8
0
 62
    31
 10
67.896720999999999
 20
682.05484799999999
 30
0.0
  0
VERTEX
  5
EE4
  8
0
 62
    31
 10
67.941788000000003
 20
682.04668400000003
 30
0.0
  0
VERTEX
  5
EE5
  8
0
 62
    31
 10
67.986632999999998
 20
682.04059600000005
 30
0.0
  0
VERTEX
  5
EE6
  8
0
 62
    31
 10
68.031540000000007
 20
682.03652199999999
 30
0.0
  0
VERTEX
  5
EE7
  8
0
 62
    31
 10
68.076308999999995
 20
682.03446199999996
 30
0.0
  0
VERTEX
  5
EE8
  8
0
 62
    31
 10
68.121093999999999
 20
682.03441599999985
 30
0.0
  0
VERTEX
  5
EE9
  8
0
 62
    31
 10
68.210526000000002
 20
682.04033700000002
 30
0.0
  0
VERTEX
  5
EEA
  8
0
 62
    31
 10
68.299942000000001
 20
682.05428300000005
 30
0.0
  0
VERTEX
  5
EEB
  8
0
 62
    31
 10
68.389403999999999
 20
682.07637799999998
 30
0.0
  0
VERTEX
  5
EEC
  8
0
 62
    31
 10
68.478981000000005
 20
682.10677300000009
 30
0.0
  0
VERTEX
  5
EED
  8
0
 62
    31
 10
68.568680000000001
 20
682.14571399999988
 30
0.0
  0
VERTEX
  5
EEE
  8
0
 62
    31
 10
68.658507999999998
 20
682.193489
 30
0.0
  0
VERTEX
  5
EEF
  8
0
 62
    31
 10
68.748412999999985
 20
682.25043499999992
 30
0.0
  0
VERTEX
  5
EF0
  8
0
 62
    31
 10
68.838272000000003
 20
682.31691699999988
 30
0.0
  0
VERTEX
  5
EF1
  8
0
 62
    31
 10
68.927948000000001
 20
682.39328799999998
 30
0.0
  0
VERTEX
  5
EF2
  8
0
 62
    31
 10
69.017234999999999
 20
682.47994199999994
 30
0.0
  0
VERTEX
  5
EF3
  8
0
 62
    31
 10
69.105864999999994
 20
682.57721700000002
 30
0.0
  0
VERTEX
  5
EF4
  8
0
 62
    31
 10
69.193534999999983
 20
682.68541700000003
 30
0.0
  0
VERTEX
  5
EF5
  8
0
 62
    31
 10
69.279883999999996
 20
682.80483200000003
 30
0.0
  0
VERTEX
  5
EF6
  8
0
 62
    31
 10
69.364517000000006
 20
682.93563099999994
 30
0.0
  0
VERTEX
  5
EF7
  8
0
 62
    31
 10
69.446999000000005
 20
683.07794999999999
 30
0.0
  0
VERTEX
  5
EF8
  8
0
 62
    31
 10
69.526840000000007
 20
683.23181900000009
 30
0.0
  0
VERTEX
  5
EF9
  8
0
 62
    31
 10
69.603545999999994
 20
683.39714800000002
 30
0.0
  0
VERTEX
  5
EFA
  8
0
 62
    31
 10
69.676604999999995
 20
683.57376900000008
 30
0.0
  0
VERTEX
  5
EFB
  8
0
 62
    31
 10
69.745475999999996
 20
683.76134500000001
 30
0.0
  0
VERTEX
  5
EFC
  8
0
 62
    31
 10
69.809639000000004
 20
683.95943499999987
 30
0.0
  0
VERTEX
  5
EFD
  8
0
 62
    31
 10
69.86856800000001
 20
684.16747300000009
 30
0.0
  0
VERTEX
  5
EFE
  8
0
 62
    31
 10
69.921761000000004
 20
684.384773
 30
0.0
  0
VERTEX
  5
EFF
  8
0
 62
    31
 10
69.968742000000006
 20
684.61046599999986
 30
0.0
  0
VERTEX
  5
F00
  8
0
 62
    31
 10
70.009070999999992
 20
684.84363599999995
 30
0.0
  0
VERTEX
  5
F01
  8
0
 62
    31
 10
70.042373999999995
 20
685.08319900000004
 30
0.0
  0
VERTEX
  5
F02
  8
0
 62
    31
 10
70.068297999999999
 20
685.32801099999995
 30
0.0
  0
VERTEX
  5
F03
  8
0
 62
    31
 10
70.086593999999991
 20
685.57678999999996
 30
0.0
  0
VERTEX
  5
F04
  8
0
 62
    31
 10
70.097060999999997
 20
685.82825500000001
 30
0.0
  0
VERTEX
  5
F05
  8
0
 62
    31
 10
70.099579000000006
 20
686.08103200000005
 30
0.0
  0
VERTEX
  5
F06
  8
0
 62
    31
 10
70.097839000000008
 20
686.20748099999992
 30
0.0
  0
VERTEX
  5
F07
  8
0
 62
    31
 10
70.094100999999995
 20
686.33374800000001
 30
0.0
  0
VERTEX
  5
F08
  8
0
 62
    31
 10
70.088370999999995
 20
686.45958700000006
 30
0.0
  0
VERTEX
  5
F09
  8
0
 62
    31
 10
70.080666000000008
 20
686.58499900000004
 30
0.0
  0
VERTEX
  5
F0A
  8
0
 62
    31
 10
70.070999
 20
686.70955700000002
 30
0.0
  0
VERTEX
  5
F0B
  8
0
 62
    31
 10
70.059387000000001
 20
686.83344299999987
 30
0.0
  0
VERTEX
  5
F0C
  8
0
 62
    31
 10
70.045876000000007
 20
686.95603200000005
 30
0.0
  0
VERTEX
  5
F0D
  8
0
 62
    31
 10
70.030456999999998
 20
687.07772099999988
 30
0.0
  0
VERTEX
  5
F0E
  8
0
 62
    31
 10
70.01322900000001
 20
687.19773099999998
 30
0.0
  0
VERTEX
  5
F0F
  8
0
 62
    31
 10
69.994147999999996
 20
687.316597
 30
0.0
  0
VERTEX
  5
F10
  8
0
 62
    31
 10
69.973365999999999
 20
687.43340299999988
 30
0.0
  0
VERTEX
  5
F11
  8
0
 62
    31
 10
69.950783000000001
 20
687.54886599999998
 30
0.0
  0
VERTEX
  5
F12
  8
0
 62
    31
 10
69.926628000000008
 20
687.66193399999986
 30
0.0
  0
VERTEX
  5
F13
  8
0
 62
    31
 10
69.900756999999999
 20
687.77346
 30
0.0
  0
VERTEX
  5
F14
  8
0
 62
    31
 10
69.873451000000003
 20
687.88227099999995
 30
0.0
  0
VERTEX
  5
F15
  8
0
 62
    31
 10
69.844504999999998
 20
687.98938799999996
 30
0.0
  0
VERTEX
  5
F16
  8
0
 62
    31
 10
69.814293000000006
 20
688.09352899999999
 30
0.0
  0
VERTEX
  5
F17
  8
0
 62
    31
 10
69.782523999999995
 20
688.19580800000006
 30
0.0
  0
VERTEX
  5
F18
  8
0
 62
    31
 10
69.749656999999999
 20
688.29489899999999
 30
0.0
  0
VERTEX
  5
F19
  8
0
 62
    31
 10
69.715323999999995
 20
688.39199099999985
 30
0.0
  0
VERTEX
  5
F1A
  8
0
 62
    31
 10
69.680060999999995
 20
688.485725
 30
0.0
  0
VERTEX
  5
F1B
  8
0
 62
    31
 10
69.643439999999998
 20
688.57735400000001
 30
0.0
  0
VERTEX
  5
F1C
  8
0
 62
    31
 10
69.606055999999995
 20
688.66548899999987
 30
0.0
  0
VERTEX
  5
F1D
  8
0
 62
    31
 10
69.567420999999996
 20
688.75142699999992
 30
0.0
  0
VERTEX
  5
F1E
  8
0
 62
    31
 10
69.528191000000007
 20
688.83380899999986
 30
0.0
  0
VERTEX
  5
F1F
  8
0
 62
    31
 10
69.487808000000001
 20
688.91391799999985
 30
0.0
  0
VERTEX
  5
F20
  8
0
 62
    31
 10
69.447006000000002
 20
688.99040999999988
 30
0.0
  0
VERTEX
  5
F21
  8
0
 62
    31
 10
69.405151000000004
 20
689.06459800000005
 30
0.0
  0
VERTEX
  5
F22
  8
0
 62
    31
 10
69.363028999999997
 20
689.13518499999986
 30
0.0
  0
VERTEX
  5
F23
  8
0
 62
    31
 10
69.319962000000004
 20
689.20342300000004
 30
0.0
  0
VERTEX
  5
F24
  8
0
 62
    31
 10
69.276771999999994
 20
689.26808899999992
 30
0.0
  0
VERTEX
  5
F25
  8
0
 62
    31
 10
69.232734999999991
 20
689.330421
 30
0.0
  0
VERTEX
  5
F26
  8
0
 62
    31
 10
69.188713000000007
 20
689.38924400000008
 30
0.0
  0
VERTEX
  5
F27
  8
0
 62
    31
 10
69.143929
 20
689.44571699999995
 30
0.0
  0
VERTEX
  5
F28
  8
0
 62
    31
 10
69.099281000000005
 20
689.49878699999999
 30
0.0
  0
VERTEX
  5
F29
  8
0
 62
    31
 10
69.053962999999996
 20
689.54953799999987
 30
0.0
  0
VERTEX
  5
F2A
  8
0
 62
    31
 10
69.008887999999999
 20
689.59700799999985
 30
0.0
  0
VERTEX
  5
F2B
  8
0
 62
    31
 10
68.963218999999995
 20
689.64215899999999
 30
0.0
  0
VERTEX
  5
F2C
  8
0
 62
    31
 10
68.917862
 20
689.68419600000004
 30
0.0
  0
VERTEX
  5
F2D
  8
0
 62
    31
 10
68.872001999999995
 20
689.72394599999996
 30
0.0
  0
VERTEX
  5
F2E
  8
0
 62
    31
 10
68.826515000000001
 20
689.76071899999999
 30
0.0
  0
VERTEX
  5
F2F
  8
0
 62
    31
 10
68.780586
 20
689.79526499999997
 30
0.0
  0
VERTEX
  5
F30
  8
0
 62
    31
 10
68.735068999999996
 20
689.82698800000003
 30
0.0
  0
VERTEX
  5
F31
  8
0
 62
    31
 10
68.689185999999992
 20
689.85649899999987
 30
0.0
  0
VERTEX
  5
F32
  8
0
 62
    31
 10
68.643730000000005
 20
689.88336900000002
 30
0.0
  0
VERTEX
  5
F33
  8
0
 62
    31
 10
68.597960999999998
 20
689.90807299999994
 30
0.0
  0
VERTEX
  5
F34
  8
0
 62
    31
 10
68.552611999999996
 20
689.93027500000005
 30
0.0
  0
VERTEX
  5
F35
  8
0
 62
    31
 10
68.507019
 20
689.95037100000002
 30
0.0
  0
VERTEX
  5
F36
  8
0
 62
    31
 10
68.461806999999993
 20
689.96808600000008
 30
0.0
  0
VERTEX
  5
F37
  8
0
 62
    31
 10
68.416405000000012
 20
689.98372699999993
 30
0.0
  0
VERTEX
  5
F38
  8
0
 62
    31
 10
68.371346000000003
 20
689.99712399999999
 30
0.0
  0
VERTEX
  5
F39
  8
0
 62
    31
 10
68.326141000000007
 20
690.00847599999986
 30
0.0
  0
VERTEX
  5
F3A
  8
0
 62
    31
 10
68.281204000000002
 20
690.01769300000001
 30
0.0
  0
VERTEX
  5
F3B
  8
0
 62
    31
 10
68.236182999999997
 20
690.02486399999998
 30
0.0
  0
VERTEX
  5
F3C
  8
0
 62
    31
 10
68.191360000000003
 20
690.029991
 30
0.0
  0
VERTEX
  5
F3D
  8
0
 62
    31
 10
68.146492000000009
 20
690.03310399999998
 30
0.0
  0
SEQEND
  5
F3E
  8
0
 62
    31
  0
POLYLINE
  5
62F
  8
0
 62
    31
 66
     1
 10
0.0
 20
0.0
 30
0.0
 70
     1
  0
VERTEX
  5
F3F
  8
0
 62
    31
 10
68.099716000000001
 20
690.03418699999997
 30
0.0
  0
VERTEX
  5
F40
  8
0
 62
    31
 10
68.010261999999983
 20
690.03018999999995
 30
0.0
  0
VERTEX
  5
F41
  8
0
 62
    31
 10
67.920845
 20
690.01816600000006
 30
0.0
  0
VERTEX
  5
F42
  8
0
 62
    31
 10
67.831397999999993
 20
689.99802399999987
 30
0.0
  0
VERTEX
  5
F43
  8
0
 62
    31
 10
67.741858999999991
 20
689.96964300000002
 30
0.0
  0
VERTEX
  5
F44
  8
0
 62
    31
 10
67.652183999999991
 20
689.93276200000003
 30
0.0
  0
VERTEX
  5
F45
  8
0
 62
    31
 10
67.562386000000004
 20
689.88712300000009
 30
0.0
  0
VERTEX
  5
F46
  8
0
 62
    31
 10
67.472495999999992
 20
689.83239000000003
 30
0.0
  0
VERTEX
  5
F47
  8
0
 62
    31
 10
67.382614000000004
 20
689.7682269999998
 30
0.0
  0
VERTEX
  5
F48
  8
0
 62
    31
 10
67.292869999999994
 20
689.69425200000001
 30
0.0
  0
VERTEX
  5
F49
  8
0
 62
    31
 10
67.203475999999995
 20
689.6100849999998
 30
0.0
  0
VERTEX
  5
F4A
  8
0
 62
    31
 10
67.114661999999996
 20
689.51537299999995
 30
0.0
  0
VERTEX
  5
F4B
  8
0
 62
    31
 10
67.026732999999993
 20
689.40981299999987
 30
0.0
  0
VERTEX
  5
F4C
  8
0
 62
    31
 10
66.940033
 20
689.29309799999999
 30
0.0
  0
VERTEX
  5
F4D
  8
0
 62
    31
 10
66.854950000000002
 20
689.165031
 30
0.0
  0
VERTEX
  5
F4E
  8
0
 62
    31
 10
66.771912
 20
689.02547500000003
 30
0.0
  0
VERTEX
  5
F4F
  8
0
 62
    31
 10
66.691399000000004
 20
688.87436700000001
 30
0.0
  0
VERTEX
  5
F50
  8
0
 62
    31
 10
66.613892000000007
 20
688.71175400000004
 30
0.0
  0
VERTEX
  5
F51
  8
0
 62
    31
 10
66.539917000000003
 20
688.53780400000005
 30
0.0
  0
VERTEX
  5
F52
  8
0
 62
    31
 10
66.469994
 20
688.35282099999995
 30
0.0
  0
VERTEX
  5
F53
  8
0
 62
    31
 10
66.404655000000005
 20
688.15718800000002
 30
0.0
  0
VERTEX
  5
F54
  8
0
 62
    31
 10
66.344429000000005
 20
687.95145400000001
 30
0.0
  0
VERTEX
  5
F55
  8
0
 62
    31
 10
66.289824999999993
 20
687.73630500000002
 30
0.0
  0
VERTEX
  5
F56
  8
0
 62
    31
 10
66.241325000000003
 20
687.51253499999984
 30
0.0
  0
VERTEX
  5
F57
  8
0
 62
    31
 10
66.199364000000003
 20
687.28105900000003
 30
0.0
  0
VERTEX
  5
F58
  8
0
 62
    31
 10
66.164352000000008
 20
687.04291499999988
 30
0.0
  0
VERTEX
  5
F59
  8
0
 62
    31
 10
66.136642000000009
 20
686.79924800000003
 30
0.0
  0
VERTEX
  5
F5A
  8
0
 62
    31
 10
66.116501
 20
686.55130799999995
 30
0.0
  0
VERTEX
  5
F5B
  8
0
 62
    31
 10
66.104148999999992
 20
686.30036199999995
 30
0.0
  0
VERTEX
  5
F5C
  8
0
 62
    31
 10
66.099723999999995
 20
686.04776800000002
 30
0.0
  0
VERTEX
  5
F5D
  8
0
 62
    31
 10
66.103293999999991
 20
685.79491399999995
 30
0.0
  0
VERTEX
  5
F5E
  8
0
 62
    31
 10
66.108078000000006
 20
685.66886099999988
 30
0.0
  0
VERTEX
  5
F5F
  8
0
 62
    31
 10
66.114838000000006
 20
685.54317500000002
 30
0.0
  0
VERTEX
  5
F60
  8
0
 62
    31
 10
66.123565999999997
 20
685.41825099999994
 30
0.0
  0
VERTEX
  5
F61
  8
0
 62
    31
 10
66.134261999999993
 20
685.29395299999999
 30
0.0
  0
VERTEX
  5
F62
  8
0
 62
    31
 10
66.146857999999995
 20
685.17083000000002
 30
0.0
  0
VERTEX
  5
F63
  8
0
 62
    31
 10
66.161384999999996
 20
685.04856099999995
 30
0.0
  0
VERTEX
  5
F64
  8
0
 62
    31
 10
66.177734000000001
 20
684.92787899999985
 30
0.0
  0
VERTEX
  5
F65
  8
0
 62
    31
 10
66.195960999999997
 20
684.80828099999997
 30
0.0
  0
VERTEX
  5
F66
  8
0
 62
    31
 10
66.215912000000003
 20
684.690651
 30
0.0
  0
VERTEX
  5
F67
  8
0
 62
    31
 10
66.237670999999992
 20
684.57433300000002
 30
0.0
  0
VERTEX
  5
F68
  8
0
 62
    31
 10
66.261040000000008
 20
684.46032000000002
 30
0.0
  0
VERTEX
  5
F69
  8
0
 62
    31
 10
66.286147999999997
 20
684.34781599999997
 30
0.0
  0
VERTEX
  5
F6A
  8
0
 62
    31
 10
66.312714
 20
684.23793799999987
 30
0.0
  0
VERTEX
  5
F6B
  8
0
 62
    31
 10
66.340950000000007
 20
684.12973799999997
 30
0.0
  0
VERTEX
  5
F6C
  8
0
 62
    31
 10
66.370491000000001
 20
684.02443700000003
 30
0.0
  0
VERTEX
  5
F6D
  8
0
 62
    31
 10
66.401604000000006
 20
683.92096700000002
 30
0.0
  0
VERTEX
  5
F6E
  8
0
 62
    31
 10
66.433868000000004
 20
683.82064100000002
 30
0.0
  0
VERTEX
  5
F6F
  8
0
 62
    31
 10
66.467606000000004
 20
683.72228199999995
 30
0.0
  0
VERTEX
  5
F70
  8
0
 62
    31
 10
66.502326999999994
 20
683.627251
 30
0.0
  0
VERTEX
  5
F71
  8
0
 62
    31
 10
66.538421999999997
 20
683.53429400000005
 30
0.0
  0
VERTEX
  5
F72
  8
0
 62
    31
 10
66.575325000000007
 20
683.44480099999998
 30
0.0
  0
VERTEX
  5
F73
  8
0
 62
    31
 10
66.613509999999991
 20
683.35749099999998
 30
0.0
  0
VERTEX
  5
F74
  8
0
 62
    31
 10
66.652321000000001
 20
683.27372000000003
 30
0.0
  0
VERTEX
  5
F75
  8
0
 62
    31
 10
66.692313999999996
 20
683.19220700000005
 30
0.0
  0
VERTEX
  5
F76
  8
0
 62
    31
 10
66.732765000000001
 20
683.11429599999997
 30
0.0
  0
VERTEX
  5
F77
  8
0
 62
    31
 10
66.774292000000003
 20
683.03868899999986
 30
0.0
  0
VERTEX
  5
F78
  8
0
 62
    31
 10
66.816115999999994
 20
682.96669799999995
 30
0.0
  0
VERTEX
  5
F79
  8
0
 62
    31
 10
66.858924999999999
 20
682.89704100000006
 30
0.0
  0
VERTEX
  5
F7A
  8
0
 62
    31
 10
66.901877999999996
 20
682.83095600000001
 30
0.0
  0
VERTEX
  5
F7B
  8
0
 62
    31
 10
66.945708999999994
 20
682.76723499999991
 30
0.0
  0
VERTEX
  5
F7C
  8
0
 62
    31
 10
66.989547999999999
 20
682.70700799999986
 30
0.0
  0
VERTEX
  5
F7D
  8
0
 62
    31
 10
67.034171999999998
 20
682.64914699999986
 30
0.0
  0
VERTEX
  5
F7E
  8
0
 62
    31
 10
67.078690000000009
 20
682.59471900000005
 30
0.0
  0
VERTEX
  5
F7F
  8
0
 62
    31
 10
67.123893999999993
 20
682.54260999999985
 30
0.0
  0
VERTEX
  5
F80
  8
0
 62
    31
 10
67.168883999999991
 20
682.49381300000005
 30
0.0
  0
VERTEX
  5
F81
  8
0
 62
    31
 10
67.214484999999996
 20
682.44733399999996
 30
0.0
  0
VERTEX
  5
F82
  8
0
 62
    31
 10
67.259788999999998
 20
682.40403000000003
 30
0.0
  0
VERTEX
  5
F83
  8
0
 62
    31
 10
67.30561800000001
 20
682.36299899999995
 30
0.0
  0
VERTEX
  5
F84
  8
0
 62
    31
 10
67.351089000000002
 20
682.32498899999985
 30
0.0
  0
VERTEX
  5
F85
  8
0
 62
    31
 10
67.397010999999992
 20
682.28922299999988
 30
0.0
  0
VERTEX
  5
F86
  8
0
 62
    31
 10
67.442520000000002
 20
682.25630999999987
 30
0.0
  0
VERTEX
  5
F87
  8
0
 62
    31
 10
67.488426000000004
 20
682.22560899999985
 30
0.0
  0
VERTEX
  5
F88
  8
0
 62
    31
 10
67.533905000000004
 20
682.19759400000009
 30
0.0
  0
VERTEX
  5
F89
  8
0
 62
    31
 10
67.579704000000007
 20
682.17176099999995
 30
0.0
  0
VERTEX
  5
F8A
  8
0
 62
    31
 10
67.625084000000001
 20
682.14845999999989
 30
0.0
  0
VERTEX
  5
F8B
  8
0
 62
    31
 10
67.670722999999995
 20
682.12729599999989
 30
0.0
  0
VERTEX
  5
F8C
  8
0
 62
    31
 10
67.715964999999997
 20
682.10851300000002
 30
0.0
  0
VERTEX
  5
F8D
  8
0
 62
    31
 10
67.761414000000002
 20
682.09183499999995
 30
0.0
  0
VERTEX
  5
F8E
  8
0
 62
    31
 10
67.806511
 20
682.07740000000001
 30
0.0
  0
VERTEX
  5
F8F
  8
0
 62
    31
 10
67.851760999999996
 20
682.0650559999998
 30
0.0
  0
VERTEX
  5
F90
  8
0
 62
    31
 10
67.896720999999999
 20
682.05484799999999
 30
0.0
  0
VERTEX
  5
F91
  8
0
 62
    31
 10
67.941788000000003
 20
682.04668400000003
 30
0.0
  0
VERTEX
  5
F92
  8
0
 62
    31
 10
67.986632999999998
 20
682.04059600000005
 30
0.0
  0
VERTEX
  5
F93
  8
0
 62
    31
 10
68.031540000000007
 20
682.03652199999999
 30
0.0
  0
VERTEX
  5
F94
  8
0
 62
    31
 10
68.076308999999995
 20
682.03446199999996
 30
0.0
  0
VERTEX
  5
F95
  8
0
 62
    31
 10
68.121093999999999
 20
682.03441599999985
 30
0.0
  0
VERTEX
  5
F96
  8
0
 62
    31
 10
68.210526000000002
 20
682.04033700000002
 30
0.0
  0
VERTEX
  5
F97
  8
0
 62
    31
 10
68.299942000000001
 20
682.05428300000005
 30
0.0
  0
VERTEX
  5
F98
  8
0
 62
    31
 10
68.389403999999999
 20
682.07637799999998
 30
0.0
  0
VERTEX
  5
F99
  8
0
 62
    31
 10
68.478981000000005
 20
682.10677300000009
 30
0.0
  0
VERTEX
  5
F9A
  8
0
 62
    31
 10
68.568680000000001
 20
682.14571399999988
 30
0.0
  0
VERTEX
  5
F9B
  8
0
 62
    31
 10
68.658507999999998
 20
682.193489
 30
0.0
  0
VERTEX
  5
F9C
  8
0
 62
    31
 10
68.748412999999985
 20
682.25043499999992
 30
0.0
  0
VERTEX
  5
F9D
  8
0
 62
    31
 10
68.838272000000003
 20
682.31691699999988
 30
0.0
  0
VERTEX
  5
F9E
  8
0
 62
    31
 10
68.927948000000001
 20
682.39328799999998
 30
0.0
  0
VERTEX
  5
F9F
  8
0
 62
    31
 10
69.017234999999999
 20
682.47994199999994
 30
0.0
  0
VERTEX
  5
FA0
  8
0
 62
    31
 10
69.105864999999994
 20
682.57721700000002
 30
0.0
  0
VERTEX
  5
FA1
  8
0
 62
    31
 10
69.193534999999983
 20
682.68541700000003
 30
0.0
  0
VERTEX
  5
FA2
  8
0
 62
    31
 10
69.279883999999996
 20
682.80483200000003
 30
0.0
  0
VERTEX
  5
FA3
  8
0
 62
    31
 10
69.364517000000006
 20
682.93563099999994
 30
0.0
  0
VERTEX
  5
FA4
  8
0
 62
    31
 10
69.446999000000005
 20
683.07794999999999
 30
0.0
  0
VERTEX
  5
FA5
  8
0
 62
    31
 10
69.526840000000007
 20
683.23181900000009
 30
0.0
  0
VERTEX
  5
FA6
  8
0
 62
    31
 10
69.603545999999994
 20
683.39714800000002
 30
0.0
  0
VERTEX
  5
FA7
  8
0
 62
    31
 10
69.676604999999995
 20
683.57376900000008
 30
0.0
  0
VERTEX
  5
FA8
  8
0
 62
    31
 10
69.745475999999996
 20
683.76134500000001
 30
0.0
  0
VERTEX
  5
FA9
  8
0
 62
    31
 10
69.809639000000004
 20
683.95943499999987
 30
0.0
  0
VERTEX
  5
FAA
  8
0
 62
    31
 10
69.86856800000001
 20
684.16747300000009
 30
0.0
  0
VERTEX
  5
FAB
  8
0
 62
    31
 10
69.921761000000004
 20
684.384773
 30
0.0
  0
VERTEX
  5
FAC
  8
0
 62
    31
 10
69.968742000000006
 20
684.61046599999986
 30
0.0
  0
VERTEX
  5
FAD
  8
0
 62
    31
 10
70.009070999999992
 20
684.84363599999995
 30
0.0
  0
VERTEX
  5
FAE
  8
0
 62
    31
 10
70.042373999999995
 20
685.08319900000004
 30
0.0
  0
VERTEX
  5
FAF
  8
0
 62
    31
 10
70.068297999999999
 20
685.32801099999995
 30
0.0
  0
VERTEX
  5
FB0
  8
0
 62
    31
 10
70.086593999999991
 20
685.57678999999996
 30
0.0
  0
VERTEX
  5
FB1
  8
0
 62
    31
 10
70.097060999999997
 20
685.82825500000001
 30
0.0
  0
VERTEX
  5
FB2
  8
0
 62
    31
 10
70.099579000000006
 20
686.08103200000005
 30
0.0
  0
VERTEX
  5
FB3
  8
0
 62
    31
 10
70.097839000000008
 20
686.20748099999992
 30
0.0
  0
VERTEX
  5
FB4
  8
0
 62
    31
 10
70.094100999999995
 20
686.33374800000001
 30
0.0
  0
VERTEX
  5
FB5
  8
0
 62
    31
 10
70.088370999999995
 20
686.45958700000006
 30
0.0
  0
VERTEX
  5
FB6
  8
0
 62
    31
 10
70.080666000000008
 20
686.58499900000004
 30
0.0
  0
VERTEX
  5
FB7
  8
0
 62
    31
 10
70.070999
 20
686.70955700000002
 30
0.0
  0
VERTEX
  5
FB8
  8
0
 62
    31
 10
70.059387000000001
 20
686.83344299999987
 30
0.0
  0
VERTEX
  5
FB9
  8
0
 62
    31
 10
70.045876000000007
 20
686.95603200000005
 30
0.0
  0
VERTEX
  5
FBA
  8
0
 62
    31
 10
70.030456999999998
 20
687.07772099999988
 30
0.0
  0
VERTEX
  5
FBB
  8
0
 62
    31
 10
70.01322900000001
 20
687.19773099999998
 30
0.0
  0
VERTEX
  5
FBC
  8
0
 62
    31
 10
69.994147999999996
 20
687.316597
 30
0.0
  0
VERTEX
  5
FBD
  8
0
 62
    31
 10
69.973365999999999
 20
687.43340299999988
 30
0.0
  0
VERTEX
  5
FBE
  8
0
 62
    31
 10
69.950783000000001
 20
687.54886599999998
 30
0.0
  0
VERTEX
  5
FBF
  8
0
 62
    31
 10
69.926628000000008
 20
687.66193399999986
 30
0.0
  0
VERTEX
  5
FC0
  8
0
 62
    31
 10
69.900756999999999
 20
687.77346
 30
0.0
  0
VERTEX
  5
FC1
  8
0
 62
    31
 10
69.873451000000003
 20
687.88227099999995
 30
0.0
  0
VERTEX
  5
FC2
  8
0
 62
    31
 10
69.844504999999998
 20
687.98938799999996
 30
0.0
  0
VERTEX
  5
FC3
  8
0
 62
    31
 10
69.814293000000006
 20
688.09352899999999
 30
0.0
  0
VERTEX
  5
FC4
  8
0
 62
    31
 10
69.782523999999995
 20
688.19580800000006
 30
0.0
  0
VERTEX
  5
FC5
  8
0
 62
    31
 10
69.749656999999999
 20
688.29489899999999
 30
0.0
  0
VERTEX
  5
FC6
  8
0
 62
    31
 10
69.715323999999995
 20
688.39199099999985
 30
0.0
  0
VERTEX
  5
FC7
  8
0
 62
    31
 10
69.680060999999995
 20
688.485725
 30
0.0
  0
VERTEX
  5
FC8
  8
0
 62
    31
 10
69.643439999999998
 20
688.57735400000001
 30
0.0
  0
VERTEX
  5
FC9
  8
0
 62
    31
 10
69.606055999999995
 20
688.66548899999987
 30
0.0
  0
VERTEX
  5
FCA
  8
0
 62
    31
 10
69.567420999999996
 20
688.75142699999992
 30
0.0
  0
VERTEX
  5
FCB
  8
0
 62
    31
 10
69.528191000000007
 20
688.83380899999986
 30
0.0
  0
VERTEX
  5
FCC
  8
0
 62
    31
 10
69.487808000000001
 20
688.91391799999985
 30
0.0
  0
VERTEX
  5
FCD
  8
0
 62
    31
 10
69.447006000000002
 20
688.99040999999988
 30
0.0
  0
VERTEX
  5
FCE
  8
0
 62
    31
 10
69.405151000000004
 20
689.06459800000005
 30
0.0
  0
VERTEX
  5
FCF
  8
0
 62
    31
 10
69.363028999999997
 20
689.13518499999986
 30
0.0
  0
VERTEX
  5
FD0
  8
0
 62
    31
 10
69.319962000000004
 20
689.20342300000004
 30
0.0
  0
VERTEX
  5
FD1
  8
0
 62
    31
 10
69.276771999999994
 20
689.26808899999992
 30
0.0
  0
VERTEX
  5
FD2
  8
0
 62
    31
 10
69.232734999999991
 20
689.330421
 30
0.0
  0
VERTEX
  5
FD3
  8
0
 62
    31
 10
69.188713000000007
 20
689.38924400000008
 30
0.0
  0
VERTEX
  5
FD4
  8
0
 62
    31
 10
69.143929
 20
689.44571699999995
 30
0.0
  0
VERTEX
  5
FD5
  8
0
 62
    31
 10
69.099281000000005
 20
689.49878699999999
 30
0.0
  0
VERTEX
  5
FD6
  8
0
 62
    31
 10
69.053962999999996
 20
689.54953799999987
 30
0.0
  0
VERTEX
  5
FD7
  8
0
 62
    31
 10
69.008887999999999
 20
689.59700799999985
 30
0.0
  0
VERTEX
  5
FD8
  8
0
 62
    31
 10
68.963218999999995
 20
689.64215899999999
 30
0.0
  0
VERTEX
  5
FD9
  8
0
 62
    31
 10
68.917862
 20
689.68419600000004
 30
0.0
  0
VERTEX
  5
FDA
  8
0
 62
    31
 10
68.872001999999995
 20
689.72394599999996
 30
0.0
  0
VERTEX
  5
FDB
  8
0
 62
    31
 10
68.826515000000001
 20
689.76071899999999
 30
0.0
  0
VERTEX
  5
FDC
  8
0
 62
    31
 10
68.780586
 20
689.79526499999997
 30
0.0
  0
VERTEX
  5
FDD
  8
0
 62
    31
 10
68.735068999999996
 20
689.82698800000003
 30
0.0
  0
VERTEX
  5
FDE
  8
0
 62
    31
 10
68.689185999999992
 20
689.85649899999987
 30
0.0
  0
VERTEX
  5
FDF
  8
0
 62
    31
 10
68.643730000000005
 20
689.88336900000002
 30
0.0
  0
VERTEX
  5
FE0
  8
0
 62
    31
 10
68.597960999999998
 20
689.90807299999994
 30
0.0
  0
VERTEX
  5
FE1
  8
0
 62
    31
 10
68.552611999999996
 20
689.93027500000005
 30
0.0
  0
VERTEX
  5
FE2
  8
0
 62
    31
 10
68.507019
 20
689.95037100000002
 30
0.0
  0
VERTEX
  5
FE3
  8
0
 62
    31
 10
68.461806999999993
 20
689.96808600000008
 30
0.0
  0
VERTEX
  5
FE4
  8
0
 62
    31
 10
68.416405000000012
 20
689.98372699999993
 30
0.0
  0
VERTEX
  5
FE5
  8
0
 62
    31
 10
68.371346000000003
 20
689.99712399999999
 30
0.0
  0
VERTEX
  5
FE6
  8
0
 62
    31
 10
68.326141000000007
 20
690.00847599999986
 30
0.0
  0
VERTEX
  5
FE7
  8
0
 62
    31
 10
68.281204000000002
 20
690.01769300000001
 30
0.0
  0
VERTEX
  5
FE8
  8
0
 62
    31
 10
68.236182999999997
 20
690.02486399999998
 30
0.0
  0
VERTEX
  5
FE9
  8
0
 62
    31
 10
68.191360000000003
 20
690.029991
 30
0.0
  0
VERTEX
  5
FEA
  8
0
 62
    31
 10
68.146492000000009
 20
690.03310399999998
 30
0.0
  0
SEQEND
  5
FEB
  8
0
 62
    31
  0
LINE
  5
6DD
  8
0
 62
    31
 10
96.711876000000004
 20
690.03418699999997
 30
0.0
 11
68.099716000000001
 21
690.03418699999997
 31
0.0
  0
LINE
  5
6DE
  8
0
 62
    31
 10
96.711876000000004
 20
674.03418699999986
 30
0.0
 11
96.711876000000004
 21
690.03418699999997
 31
0.0
  0
LINE
  5
6DF
  8
0
 62
    31
 10
96.711876000000004
 20
676.55707599999994
 30
0.0
 11
119.711876
 21
680.61258699999985
 31
0.0
  0
LINE
  5
6E0
  8
0
 62
     1
 10
99.711876000000004
 20
672.83419000000004
 30
0.0
 11
99.711876000000004
 21
675.83419000000004
 31
0.0
  0
LINE
  5
6E1
  8
0
 62
     1
 10
104.711876
 20
672.83419000000004
 30
0.0
 11
99.711876000000004
 21
672.83419000000004
 31
0.0
  0
LINE
  5
6E2
  8
0
 62
     1
 10
104.711876
 20
666.33419000000004
 30
0.0
 11
104.711876
 21
672.83419000000004
 31
0.0
  0
LINE
  5
6E3
  8
0
 62
     1
 10
99.711876000000004
 20
670.33419000000004
 30
0.0
 11
98.711876000000004
 21
670.33419000000004
 31
0.0
  0
LINE
  5
6E4
  8
0
 62
     1
 10
98.711876000000004
 20
654.33419000000004
 30
0.0
 11
98.711876000000004
 21
670.33419000000004
 31
0.0
  0
LINE
  5
6E5
  8
0
 62
     1
 10
98.711876000000004
 20
668.83419000000004
 30
0.0
 11
96.011870999999999
 21
668.83419000000004
 31
0.0
  0
LINE
  5
6E6
  8
0
 62
     1
 10
96.011870999999999
 20
655.83419000000004
 30
0.0
 11
96.011870999999999
 21
668.83419000000004
 31
0.0
  0
LINE
  5
6E7
  8
0
 62
     1
 10
95.711876000000004
 20
656.13419299999998
 30
0.0
 11
95.711876000000004
 21
668.53418699999997
 31
0.0
  0
LINE
  5
6E8
  8
0
 62
     1
 10
95.711876000000004
 20
668.53418699999997
 30
0.0
 11
96.011870999999999
 21
668.83419000000004
 31
0.0
  0
LINE
  5
6E9
  8
0
 62
     1
 10
98.711876000000004
 20
655.83419000000004
 30
0.0
 11
96.011870999999999
 21
655.83419000000004
 31
0.0
  0
LINE
  5
6EA
  8
0
 62
     1
 10
99.711876000000004
 20
654.33419000000004
 30
0.0
 11
98.711876000000004
 21
654.33419000000004
 31
0.0
  0
LINE
  5
6EB
  8
0
 62
     1
 10
99.711876000000004
 20
654.33419000000004
 30
0.0
 11
99.711876000000004
 21
670.33419000000004
 31
0.0
  0
LINE
  5
6EC
  8
0
 62
     1
 10
101.711876
 20
658.33419000000004
 30
0.0
 11
101.711876
 21
666.33419000000004
 31
0.0
  0
LINE
  5
6ED
  8
0
 62
     1
 10
120.7118759999999
 20
658.83419000000004
 30
0.0
 11
101.711876
 21
658.83419000000004
 31
0.0
  0
LINE
  5
6EE
  8
0
 62
     1
 10
120.7118759999999
 20
665.83419000000004
 30
0.0
 11
101.711876
 21
665.83419000000004
 31
0.0
  0
LINE
  5
6EF
  8
0
 62
     1
 10
120.7118759999999
 20
658.83419000000004
 30
0.0
 11
120.7118759999999
 21
665.83419000000004
 31
0.0
  0
LINE
  5
6F0
  8
0
 62
     1
 10
120.7118759999999
 20
665.83419000000004
 30
0.0
 11
120.211876
 21
666.33419000000004
 31
0.0
  0
LINE
  5
6F1
  8
0
 62
     1
 10
120.211876
 20
658.33419000000004
 30
0.0
 11
120.211876
 21
666.33419000000004
 31
0.0
  0
LINE
  5
6F2
  8
0
 62
     1
 10
120.211876
 20
658.33419000000004
 30
0.0
 11
120.7118759999999
 21
658.83419000000004
 31
0.0
  0
LINE
  5
6F3
  8
0
 62
     1
 10
119.711876
 20
653.33419000000004
 30
0.0
 11
119.711876
 21
658.33419000000004
 31
0.0
  0
LINE
  5
6F4
  8
0
 62
     1
 10
119.711876
 20
653.33419000000004
 30
0.0
 11
104.711876
 21
653.33419000000004
 31
0.0
  0
LINE
  5
6F5
  8
0
 62
     1
 10
114.211876
 20
658.33419000000004
 30
0.0
 11
113.711876
 21
658.33419000000004
 31
0.0
  0
LINE
  5
6F6
  8
0
 62
     1
 10
120.211876
 20
666.33419000000004
 30
0.0
 11
99.711876000000004
 21
666.33419000000004
 31
0.0
  0
LINE
  5
6F7
  8
0
 62
     1
 10
120.211876
 20
658.33419000000004
 30
0.0
 11
99.711876000000004
 21
658.33419000000004
 31
0.0
  0
LINE
  5
6F8
  8
0
 62
     1
 10
119.711876
 20
666.33419000000004
 30
0.0
 11
119.711876
 21
703.33419000000004
 31
0.0
  0
LINE
  5
6F9
  8
0
 62
     1
 10
119.711876
 20
691.83419000000004
 30
0.0
 11
117.711876
 21
691.83419000000004
 31
0.0
  0
LINE
  5
6FA
  8
0
 62
     1
 10
117.711876
 20
689.22603600000002
 30
0.0
 11
117.711876
 21
703.33419000000004
 31
0.0
  0
LINE
  5
6FB
  8
0
 62
     1
 10
117.711876
 20
689.22603600000002
 30
0.0
 11
101.711876
 21
689.22603600000002
 31
0.0
  0
ARC
  5
6FC
  8
0
 62
     1
 10
109.711876
 20
720.72603600000002
 30
0.0
 40
32.5
 50
255.74996300000001
 51
284.25003399999991
  0
ARC
  5
6FD
  8
0
 62
     1
 10
109.711876
 20
720.72603600000002
 30
0.0
 40
32.5
 50
255.74996300000001
 51
284.25003399999991
  0
LINE
  5
6FE
  8
0
 62
     1
 10
103.211876
 20
689.22603600000002
 30
0.0
 11
103.211876
 21
700.93419600000004
 31
0.0
  0
LINE
  5
6FF
  8
0
 62
     1
 10
116.211876
 20
689.22603600000002
 30
0.0
 11
116.211876
 21
700.93419600000004
 31
0.0
  0
LINE
  5
700
  8
0
 62
     1
 10
117.711876
 20
699.43419600000004
 30
0.0
 11
101.711876
 21
699.43419600000004
 31
0.0
  0
LINE
  5
701
  8
0
 62
     1
 10
116.211876
 20
700.93419600000004
 30
0.0
 11
103.211876
 21
700.93419600000004
 31
0.0
  0
LINE
  5
702
  8
0
 62
     1
 10
117.711876
 20
699.43419600000004
 30
0.0
 11
116.211876
 21
700.93419600000004
 31
0.0
  0
LINE
  5
703
  8
0
 62
     1
 10
101.711876
 20
699.43419600000004
 30
0.0
 11
103.211876
 21
700.93419600000004
 31
0.0
  0
LINE
  5
704
  8
0
 62
     1
 10
119.711876
 20
703.33419000000004
 30
0.0
 11
99.711876000000004
 21
703.33419000000004
 31
0.0
  0
LINE
  5
705
  8
0
 62
     1
 10
101.711876
 20
689.22603600000002
 30
0.0
 11
101.711876
 21
703.33419000000004
 31
0.0
  0
LINE
  5
706
  8
0
 62
     1
 10
99.711876000000004
 20
688.22603600000002
 30
0.0
 11
99.711876000000004
 21
703.33419000000004
 31
0.0
  0
LINE
  5
707
  8
0
 62
     1
 10
101.711876
 20
691.83419000000004
 30
0.0
 11
99.711876000000004
 21
691.83419000000004
 31
0.0
  0
LINE
  5
708
  8
0
 62
     1
 10
119.711876
 20
691.83419000000004
 30
0.0
 11
117.711876
 21
691.83419000000004
 31
0.0
  0
LINE
  5
709
  8
0
 62
    31
 10
119.711876
 20
688.23418400000003
 30
0.0
 11
96.711876000000004
 21
688.23418400000003
 31
0.0
  0
LINE
  5
70A
  8
0
 62
    31
 10
96.711876000000004
 20
683.66506200000003
 30
0.0
 11
119.711876
 21
687.72057299999994
 31
0.0
  0
LINE
  5
70B
  8
0
 62
    31
 10
116.7990419999999
 20
675.83419000000004
 30
0.0
 11
119.711876
 21
676.347801
 31
0.0
  0
LINE
  5
70C
  8
0
 62
    31
 10
108.7367629999999
 20
675.83419000000004
 30
0.0
 11
119.711876
 21
677.7694019999999
 31
0.0
  0
LINE
  5
70D
  8
0
 62
    31
 10
100.67448399999989
 20
675.83419000000004
 30
0.0
 11
119.711876
 21
679.19100199999991
 31
0.0
  0
LINE
  5
70E
  8
0
 62
    31
 10
96.711876000000004
 20
676.55707599999994
 30
0.0
 11
119.711876
 21
680.61258699999985
 31
0.0
  0
LINE
  5
70F
  8
0
 62
    31
 10
96.711876000000004
 20
677.97867599999995
 30
0.0
 11
119.711876
 21
682.03418699999997
 31
0.0
  0
LINE
  5
710
  8
0
 62
    31
 10
96.711876000000004
 20
679.40026099999989
 30
0.0
 11
119.711876
 21
683.45578799999998
 31
0.0
  0
LINE
  5
711
  8
0
 62
    31
 10
96.711876000000004
 20
680.8218609999999
 30
0.0
 11
119.711876
 21
684.877388
 31
0.0
  0
LINE
  5
712
  8
0
 62
    31
 10
96.711876000000004
 20
682.24346200000002
 30
0.0
 11
119.711876
 21
686.29898800000001
 31
0.0
  0
LINE
  5
713
  8
0
 62
    31
 10
96.711876000000004
 20
683.66506200000003
 30
0.0
 11
119.711876
 21
687.72057299999994
 31
0.0
  0
LINE
  5
714
  8
0
 62
    31
 10
96.711876000000004
 20
685.08666200000005
 30
0.0
 11
114.562431
 21
688.23418400000003
 31
0.0
  0
LINE
  5
715
  8
0
 62
    31
 10
96.711876000000004
 20
686.50824699999987
 30
0.0
 11
106.5001529999999
 21
688.23418400000003
 31
0.0
  0
LINE
  5
716
  8
0
 62
    31
 10
119.711876
 20
675.83419000000004
 30
0.0
 11
96.711876000000004
 21
675.83419000000004
 31
0.0
  0
LINE
  5
717
  8
0
  6
DASHDOT
 62
     1
 10
109.711876
 20
687.45873300000005
 30
0.0
 11
109.711876
 21
709.72978999999998
 31
0.0
  0
LINE
  5
718
  8
0
 62
   230
 10
156.21186099999991
 20
715.83414500000003
 30
0.0
 11
81.711876000000004
 21
715.83414500000003
 31
0.0
  0
LINE
  5
719
  8
0
 62
   230
 10
156.21186099999991
 20
717.83414500000003
 30
0.0
 11
81.711876000000004
 21
717.83414500000003
 31
0.0
  0
LINE
  5
71A
  8
0
 62
   230
 10
156.21186099999991
 20
719.83414500000003
 30
0.0
 11
81.711876000000004
 21
719.83414500000003
 31
0.0
  0
LINE
  5
71B
  8
0
 62
   230
 10
179.961861
 20
721.83414500000003
 30
0.0
 11
81.711876000000004
 21
721.83414500000003
 31
0.0
  0
LINE
  5
71C
  8
0
 62
   230
 10
81.711876000000004
 20
690.03418699999997
 30
0.0
 11
81.711876000000004
 21
721.83414500000003
 31
0.0
  0
LINE
  5
71D
  8
0
 62
   230
 10
156.21186099999991
 20
678.53414199999986
 30
0.0
 11
156.21186099999991
 21
721.83414500000003
 31
0.0
  0
LINE
  5
71E
  8
0
 62
   230
 10
158.711861
 20
701.53414199999986
 30
0.0
 11
158.711861
 21
721.83414500000003
 31
0.0
  0
LINE
  5
71F
  8
0
 62
   230
 10
178.71187599999999
 20
701.53414199999986
 30
0.0
 11
158.711861
 21
701.53414199999986
 31
0.0
  0
LINE
  5
720
  8
0
 62
   230
 10
178.71187599999999
 20
701.53414199999986
 30
0.0
 11
178.71187599999999
 21
721.83414500000003
 31
0.0
  0
ARC
  5
721
  8
0
 62
   230
 10
179.961861
 20
720.58414500000003
 30
0.0
 40
1.25
 50
0.000001
 51
90.000010000000003
  0
LINE
  5
722
  8
0
 62
   230
 10
181.21186099999991
 20
680.83414500000003
 30
0.0
 11
181.21186099999991
 21
720.58414500000003
 31
0.0
  0
LINE
  5
723
  8
0
 62
   230
 10
178.71187599999999
 20
699.53414199999986
 30
0.0
 11
156.21186099999991
 21
699.53414199999986
 31
0.0
  0
LINE
  5
724
  8
0
 62
   230
 10
178.71187599999999
 20
680.53414199999986
 30
0.0
 11
156.21186099999991
 21
680.53414199999986
 31
0.0
  0
LINE
  5
725
  8
0
 62
   230
 10
178.71187599999999
 20
680.53414199999986
 30
0.0
 11
178.71187599999999
 21
699.53414199999986
 31
0.0
  0
LINE
  5
726
  8
0
 62
   230
 10
178.71187599999999
 20
678.53414199999986
 30
0.0
 11
158.711861
 21
678.53414199999986
 31
0.0
  0
LINE
  5
727
  8
0
 62
   230
 10
178.71187599999999
 20
651.83414500000003
 30
0.0
 11
178.71187599999999
 21
678.53414199999986
 31
0.0
  0
LINE
  5
728
  8
0
 62
     7
 10
180.21186099999991
 20
651.83414500000003
 30
0.0
 11
178.71187599999999
 21
651.83414500000003
 31
0.0
  0
LINE
  5
729
  8
0
 62
   230
 10
180.21186099999991
 20
651.83414500000003
 30
0.0
 11
180.21186099999991
 21
652.83414500000003
 31
0.0
  0
LINE
  5
72A
  8
0
 62
   230
 10
181.21186099999991
 20
652.83414500000003
 30
0.0
 11
180.21186099999991
 21
652.83414500000003
 31
0.0
  0
LINE
  5
72B
  8
0
 62
   230
 10
181.21186099999991
 20
652.83414500000003
 30
0.0
 11
181.21186099999991
 21
680.83414500000003
 31
0.0
  0
LINE
  5
72C
  8
0
 62
     1
 10
158.711861
 20
676.53414199999986
 30
0.0
 11
158.711861
 21
678.53414199999986
 31
0.0
  0
LINE
  5
72D
  8
0
 62
   230
 10
158.711861
 20
676.53414199999986
 30
0.0
 11
119.711876
 21
676.53414199999986
 31
0.0
  0
LINE
  5
72E
  8
0
 62
   230
 10
156.21186099999991
 20
678.53414199999986
 30
0.0
 11
119.711876
 21
678.53414199999986
 31
0.0
  0
LINE
  5
72F
  8
0
 62
     1
 10
144.211861
 20
676.53414199999986
 30
0.0
 11
144.211861
 21
678.53414199999986
 31
0.0
  0
LINE
  5
730
  8
0
  6
DASHDOT
 62
     7
 10
79.711876000000004
 20
690.03418699999997
 30
0.0
 11
79.711876000000004
 21
731.14745300000004
 31
0.0
  0
LINE
  5
731
  8
0
  6
DASHDOT
 62
     7
 10
76.711876000000004
 20
690.03418699999997
 30
0.0
 11
76.711876000000004
 21
731.02500199999986
 31
0.0
  0
LINE
  5
732
  8
0
  6
DASHDOT
 62
     1
 10
124.35955
 20
682.03418699999997
 30
0.0
 11
58.576735999999997
 21
682.03418699999997
 31
0.0
  0
LINE
  5
733
  8
0
 62
     7
 10
38.448326000000002
 20
505.83418999999998
 30
0.0
 11
39.490210999999988
 21
511.74303399999991
 31
0.0
  0
LINE
  5
734
  8
0
 62
     7
 10
38.448326000000002
 20
505.83418999999998
 30
0.0
 11
37.406441000000001
 21
511.74303399999991
 31
0.0
  0
LINE
  5
735
  8
0
 62
     7
 10
38.448326000000002
 20
489.83418999999998
 30
0.0
 11
37.406441000000001
 21
483.92534599999999
 31
0.0
  0
LINE
  5
736
  8
0
 62
     7
 10
38.448326000000002
 20
489.83418999999998
 30
0.0
 11
39.490210999999988
 21
483.92534599999999
 31
0.0
  0
LINE
  5
737
  8
0
 62
     7
 10
38.448326000000002
 20
468.45432299999999
 30
0.0
 11
38.448326000000002
 21
505.83418999999998
 31
0.0
  0
LINE
  5
738
  8
0
 62
     7
 10
34.448326000000002
 20
505.83418999999998
 30
0.0
 11
96.711876000000004
 21
505.83418999999998
 31
0.0
  0
LINE
  5
739
  8
0
 62
     7
 10
34.448326000000002
 20
489.83418999999998
 30
0.0
 11
99.711876000000004
 21
489.83418999999998
 31
0.0
  0
LINE
  5
73A
  8
0
 62
     7
 10
236.05495499999989
 20
536.08419000000004
 30
0.0
 11
237.096825
 21
541.99303399999985
 31
0.0
  0
LINE
  5
73B
  8
0
 62
     7
 10
236.05495499999989
 20
536.08419000000004
 30
0.0
 11
235.01305400000001
 21
541.99303399999985
 31
0.0
  0
LINE
  5
73C
  8
0
 62
     7
 10
236.05495499999989
 20
641.08419000000004
 30
0.0
 11
235.01305400000001
 21
635.17534599999999
 31
0.0
  0
LINE
  5
73D
  8
0
 62
     7
 10
236.05495499999989
 20
641.08419000000004
 30
0.0
 11
237.09685499999989
 21
635.17534599999999
 31
0.0
  0
LINE
  5
73E
  8
0
 62
     7
 10
236.05495499999989
 20
536.08419000000004
 30
0.0
 11
236.05495499999989
 21
641.08419000000004
 31
0.0
  0
LINE
  5
73F
  8
0
 62
     7
 10
240.05495500000001
 20
536.08419000000004
 30
0.0
 11
186.7118759999999
 21
536.08419000000004
 31
0.0
  0
LINE
  5
740
  8
0
 62
     7
 10
240.05495500000001
 20
641.08419000000004
 30
0.0
 11
186.7118759999999
 21
641.08419000000004
 31
0.0
  0
LINE
  5
741
  8
0
 62
     7
 10
6.4976269999999987
 20
519.33419000000004
 30
0.0
 11
7.5395130000000004
 21
525.24303399999997
 31
0.0
  0
LINE
  5
742
  8
0
 62
     7
 10
6.4976269999999987
 20
519.33419000000004
 30
0.0
 11
5.455741999999999
 21
525.24303399999997
 31
0.0
  0
LINE
  5
743
  8
0
 62
     7
 10
6.4976269999999987
 20
662.33419000000004
 30
0.0
 11
5.455741999999999
 21
656.42534599999988
 31
0.0
  0
LINE
  5
744
  8
0
 62
     7
 10
6.4976269999999987
 20
662.33419000000004
 30
0.0
 11
7.5395130000000004
 21
656.42534599999988
 31
0.0
  0
LINE
  5
745
  8
0
 62
     7
 10
6.4976269999999987
 20
519.33419000000004
 30
0.0
 11
6.4976269999999987
 21
662.33419000000004
 31
0.0
  0
LINE
  5
746
  8
0
 62
     7
 10
2.497627
 20
519.33419000000004
 30
0.0
 11
94.38485
 21
519.33419800000001
 31
0.0
  0
LINE
  5
747
  8
0
 62
     7
 10
2.497627
 20
662.33419000000004
 30
0.0
 11
94.38485
 21
662.33419000000004
 31
0.0
  0
LINE
  5
748
  8
0
 62
     7
 10
183.213188
 20
419.08837099999988
 30
0.0
 11
177.3043439999999
 21
420.13025699999997
 31
0.0
  0
LINE
  5
749
  8
0
 62
     7
 10
183.213188
 20
419.08837099999988
 30
0.0
 11
177.3043439999999
 21
418.04647099999988
 31
0.0
  0
LINE
  5
74A
  8
0
 62
     7
 10
79.711876000000004
 20
419.08840199999992
 30
0.0
 11
85.620719999999977
 21
418.04650099999992
 31
0.0
  0
LINE
  5
74B
  8
0
 62
     7
 10
79.711876000000004
 20
419.08840199999992
 30
0.0
 11
85.620719999999977
 21
420.13028700000001
 31
0.0
  0
LINE
  5
74C
  8
0
 62
     7
 10
76.711876000000004
 20
419.08840199999992
 30
0.0
 11
70.803032000000002
 21
420.13028700000001
 31
0.0
  0
LINE
  5
74D
  8
0
 62
     7
 10
76.711876000000004
 20
419.08840199999992
 30
0.0
 11
70.803032000000002
 21
418.04650099999992
 31
0.0
  0
LINE
  5
74E
  8
0
 62
     7
 10
183.213188
 20
419.08837099999988
 30
0.0
 11
59.711875999999997
 21
419.08840199999992
 31
0.0
  0
LINE
  5
74F
  8
0
 62
     7
 10
183.213188
 20
415.088371
 30
0.0
 11
183.2132189999999
 21
536.08419000000004
 31
0.0
  0
LINE
  5
750
  8
0
 62
     7
 10
79.711876000000004
 20
415.08840199999992
 30
0.0
 11
79.711905999999985
 21
507.63422400000002
 31
0.0
  0
LINE
  5
751
  8
0
 62
     7
 10
76.711876000000004
 20
415.08840199999992
 30
0.0
 11
76.711905999999999
 21
507.63422400000002
 31
0.0
  0
LINE
  5
752
  8
0
 62
     7
 10
214.7569499999999
 20
389.86600499999992
 30
0.0
 11
208.84810599999989
 21
390.90789000000001
 31
0.0
  0
LINE
  5
753
  8
0
 62
     7
 10
214.7569499999999
 20
389.86600499999992
 30
0.0
 11
208.84810599999989
 21
388.82411999999988
 31
0.0
  0
LINE
  5
754
  8
0
 62
     7
 10
79.711876000000004
 20
389.86599000000001
 30
0.0
 11
85.620719999999977
 21
388.82410399999998
 31
0.0
  0
LINE
  5
755
  8
0
 62
     7
 10
79.711876000000004
 20
389.86599000000001
 30
0.0
 11
85.620719999999977
 21
390.90789000000001
 31
0.0
  0
LINE
  5
756
  8
0
 62
     7
 10
214.7569499999999
 20
389.86600499999992
 30
0.0
 11
79.711876000000004
 21
389.86600499999992
 31
0.0
  0
LINE
  5
757
  8
0
 62
     7
 10
214.7569499999999
 20
385.86600499999992
 30
0.0
 11
214.75691999999989
 21
578.33419000000004
 31
0.0
  0
LINE
  5
758
  8
0
 62
     7
 10
79.711876000000004
 20
385.86599000000001
 30
0.0
 11
79.711860999999999
 21
507.634186
 31
0.0
  0
LINE
  5
759
  8
0
 62
     7
 10
188.7118759999999
 20
405.10539999999992
 30
0.0
 11
194.62072000000001
 21
404.06351499999988
 31
0.0
  0
LINE
  5
75A
  8
0
 62
     7
 10
188.7118759999999
 20
405.10539999999992
 30
0.0
 11
194.62072000000001
 21
406.14730099999991
 31
0.0
  0
LINE
  5
75B
  8
0
 62
     7
 10
186.7118759999999
 20
405.10539999999992
 30
0.0
 11
180.803032
 21
406.14730099999991
 31
0.0
  0
LINE
  5
75C
  8
0
 62
     7
 10
186.7118759999999
 20
405.10539999999992
 30
0.0
 11
180.803032
 21
404.06351499999988
 31
0.0
  0
LINE
  5
75D
  8
0
 62
     7
 10
79.711876000000004
 20
405.10539999999992
 30
0.0
 11
85.620719999999977
 21
404.06351499999988
 31
0.0
  0
LINE
  5
75E
  8
0
 62
     7
 10
79.711876000000004
 20
405.10539999999992
 30
0.0
 11
85.620719999999977
 21
406.14728500000001
 31
0.0
  0
LINE
  5
75F
  8
0
 62
     7
 10
200.21187599999999
 20
405.10541499999988
 30
0.0
 11
79.711876000000004
 21
405.10539999999992
 31
0.0
  0
LINE
  5
760
  8
0
 62
     7
 10
188.7118759999999
 20
401.10539999999992
 30
0.0
 11
188.7118759999999
 21
468.11881299999988
 31
0.0
  0
LINE
  5
761
  8
0
 62
     7
 10
186.7118759999999
 20
401.10539999999992
 30
0.0
 11
186.7118759999999
 21
469.31702399999989
 31
0.0
  0
LINE
  5
762
  8
0
 62
     7
 10
79.711876000000004
 20
401.10539999999992
 30
0.0
 11
79.711860999999999
 21
507.634186
 31
0.0
  0
LINE
  5
763
  8
0
 62
     7
 10
21.806571999999999
 20
588.58419000000004
 30
0.0
 11
22.848456999999989
 21
594.49303399999985
 31
0.0
  0
LINE
  5
764
  8
0
 62
     7
 10
21.806571999999999
 20
588.58419000000004
 30
0.0
 11
20.764686999999991
 21
594.49303399999985
 31
0.0
  0
LINE
  5
765
  8
0
 62
     7
 10
21.806571999999999
 20
662.33419000000004
 30
0.0
 11
20.764686999999991
 21
656.42534599999988
 31
0.0
  0
LINE
  5
766
  8
0
 62
     7
 10
21.806571999999999
 20
662.33419000000004
 30
0.0
 11
22.848456999999989
 21
656.42534599999988
 31
0.0
  0
LINE
  5
767
  8
0
 62
     7
 10
21.806571999999999
 20
588.58419000000004
 30
0.0
 11
21.806571999999999
 21
662.33419000000004
 31
0.0
  0
LINE
  5
768
  8
0
 62
     7
 10
17.806571999999999
 20
588.58419000000004
 30
0.0
 11
51.547142000000001
 21
588.58419000000004
 31
0.0
  0
LINE
  5
769
  8
0
 62
     7
 10
17.806571999999999
 20
662.33419000000004
 30
0.0
 11
94.38485
 21
662.33419000000004
 31
0.0
  0
LINE
  5
76A
  8
0
 62
     7
 10
18.695122000000001
 20
505.83418999999998
 30
0.0
 11
17.653236
 21
499.92534599999999
 31
0.0
  0
LINE
  5
76B
  8
0
 62
     7
 10
18.695122000000001
 20
505.83418999999998
 30
0.0
 11
19.737006999999998
 21
499.92534599999999
 31
0.0
  0
LINE
  5
76C
  8
0
 62
     7
 10
18.695122000000001
 20
519.33419000000004
 30
0.0
 11
19.737006999999998
 21
525.24303399999997
 31
0.0
  0
LINE
  5
76D
  8
0
 62
     7
 10
18.695122000000001
 20
519.33419000000004
 30
0.0
 11
17.653236
 21
525.24303399999997
 31
0.0
  0
LINE
  5
76E
  8
0
 62
     7
 10
18.695122000000001
 20
477.83418999999998
 30
0.0
 11
18.695122000000001
 21
519.33419000000004
 31
0.0
  0
LINE
  5
76F
  8
0
 62
     7
 10
14.695122
 20
505.83418999999998
 30
0.0
 11
96.711876000000004
 21
505.83418999999998
 31
0.0
  0
LINE
  5
770
  8
0
 62
     7
 10
14.695122
 20
519.33419000000004
 30
0.0
 11
94.38485
 21
519.33419000000004
 31
0.0
  0
LINE
  5
771
  8
0
  6
DASHDOT
 62
     7
 10
426.8150369999999
 20
720.21507999999994
 30
0.0
 11
426.8150369999999
 21
464.522537
 31
0.0
  0
LINE
  5
772
  8
0
  6
DASHDOT
 62
     7
 10
456.76816200000002
 20
660.33419000000004
 30
0.0
 11
392.61048499999993
 21
660.33419000000004
 31
0.0
  0
LINE
  5
773
  8
0
  6
DASHDOT
 62
     7
 10
454.65880399999998
 20
521.33419000000004
 30
0.0
 11
394.93520899999999
 21
521.33419000000004
 31
0.0
  0
LINE
  5
774
  8
0
  6
DASHDOT
 62
     7
 10
409.31503700000002
 20
672.15369399999997
 30
0.0
 11
409.31503700000002
 21
507.61652400000003
 31
0.0
  0
LINE
  5
775
  8
0
  6
DASHDOT
 62
     7
 10
444.31503700000002
 20
673.56375100000002
 30
0.0
 11
444.31503700000002
 21
508.08531199999987
 31
0.0
  0
CIRCLE
  5
776
  8
0
 62
     7
 10
409.31503700000002
 20
660.33419000000004
 30
0.0
 40
2.75
  0
CIRCLE
  5
777
  8
0
 62
     7
 10
444.31503700000002
 20
660.33419000000004
 30
0.0
 40
2.75
  0
CIRCLE
  5
778
  8
0
 62
     7
 10
409.31503700000002
 20
521.33419000000004
 30
0.0
 40
2.75
  0
CIRCLE
  5
779
  8
0
 62
     7
 10
444.31503700000002
 20
521.33419000000004
 30
0.0
 40
2.75
  0
LINE
  5
77A
  8
0
  6
DASHDOT
 62
     7
 10
510.72584899999998
 20
588.58419000000004
 30
0.0
 11
355.46326099999999
 21
588.58419000000004
 31
0.0
  0
ARC
  5
77B
  8
0
 62
     7
 10
461.81503700000002
 20
683.33419000000004
 30
0.0
 40
15.0
 50
270.00000299999988
 51
90.000000999999983
  0
ARC
  5
77C
  8
0
 62
     7
 10
391.81503700000002
 20
683.33419000000004
 30
0.0
 40
15.0
 50
90.000000999999983
 51
270.00000299999988
  0
ARC
  5
77D
  8
0
 62
     7
 10
391.81503700000002
 20
498.33418999999998
 30
0.0
 40
15.0
 50
90.000000999999983
 51
270.00000299999988
  0
ARC
  5
77E
  8
0
 62
     7
 10
461.81503700000002
 20
498.33418999999998
 30
0.0
 40
15.0
 50
270.00000299999988
 51
90.000000999999983
  0
POLYLINE
  5
77F
  8
0
 62
     3
 66
     1
 10
0.0
 20
0.0
 30
0.0
  0
VERTEX
  5
FEC
  8
0
 62
     3
 10
362.67384700000002
 20
703.37984500000005
 30
0.0
  0
VERTEX
  5
FED
  8
0
 62
     3
 10
362.67384700000002
 20
687.37984500000005
 30
0.0
  0
VERTEX
  5
FEE
  8
0
 62
     3
 10
364.67384700000002
 20
686.37984500000005
 30
0.0
  0
VERTEX
  5
FEF
  8
0
 62
     3
 10
360.67384700000002
 20
685.37984500000005
 30
0.0
  0
VERTEX
  5
FF0
  8
0
 62
     3
 10
362.67384700000002
 20
684.37984500000005
 30
0.0
  0
VERTEX
  5
FF1
  8
0
 62
     3
 10
362.67384700000002
 20
668.37984500000005
 30
0.0
  0
VERTEX
  5
FF2
  8
0
 62
     3
 10
364.67384700000002
 20
667.37984500000005
 30
0.0
  0
VERTEX
  5
FF3
  8
0
 62
     3
 10
360.67384700000002
 20
666.37984500000005
 30
0.0
  0
VERTEX
  5
FF4
  8
0
 62
     3
 10
362.67384700000002
 20
665.37984500000005
 30
0.0
  0
VERTEX
  5
FF5
  8
0
 62
     3
 10
362.67384700000002
 20
649.37984500000005
 30
0.0
  0
VERTEX
  5
FF6
  8
0
 62
     3
 10
364.67384700000002
 20
648.37984500000005
 30
0.0
  0
VERTEX
  5
FF7
  8
0
 62
     3
 10
360.67384700000002
 20
647.37984500000005
 30
0.0
  0
VERTEX
  5
FF8
  8
0
 62
     3
 10
362.67384700000002
 20
646.37984500000005
 30
0.0
  0
VERTEX
  5
FF9
  8
0
 62
     3
 10
362.67384700000002
 20
630.37984500000005
 30
0.0
  0
VERTEX
  5
FFA
  8
0
 62
     3
 10
364.67384700000002
 20
629.37984500000005
 30
0.0
  0
VERTEX
  5
FFB
  8
0
 62
     3
 10
360.67384700000002
 20
628.37984500000005
 30
0.0
  0
VERTEX
  5
FFC
  8
0
 62
     3
 10
362.67384700000002
 20
627.37984500000005
 30
0.0
  0
VERTEX
  5
FFD
  8
0
 62
     3
 10
362.67384700000002
 20
611.37984500000005
 30
0.0
  0
VERTEX
  5
FFE
  8
0
 62
     3
 10
364.67384700000002
 20
610.37984500000005
 30
0.0
  0
VERTEX
  5
FFF
  8
0
 62
     3
 10
360.67384700000002
 20
609.37984500000005
 30
0.0
  0
VERTEX
  5
1000
  8
0
 62
     3
 10
362.67384700000002
 20
608.37984500000005
 30
0.0
  0
VERTEX
  5
1001
  8
0
 62
     3
 10
362.67384700000002
 20
592.37984500000005
 30
0.0
  0
VERTEX
  5
1002
  8
0
 62
     3
 10
364.67384700000002
 20
591.37984500000005
 30
0.0
  0
VERTEX
  5
1003
  8
0
 62
     3
 10
360.67384700000002
 20
590.37984500000005
 30
0.0
  0
VERTEX
  5
1004
  8
0
 62
     3
 10
362.67384700000002
 20
589.37984500000005
 30
0.0
  0
VERTEX
  5
1005
  8
0
 62
     3
 10
362.67384700000002
 20
573.37984500000005
 30
0.0
  0
VERTEX
  5
1006
  8
0
 62
     3
 10
364.67384700000002
 20
572.37984500000005
 30
0.0
  0
VERTEX
  5
1007
  8
0
 62
     3
 10
360.67384700000002
 20
571.37984500000005
 30
0.0
  0
VERTEX
  5
1008
  8
0
 62
     3
 10
362.67384700000002
 20
570.37984500000005
 30
0.0
  0
VERTEX
  5
1009
  8
0
 62
     3
 10
362.67384700000002
 20
554.37984500000005
 30
0.0
  0
VERTEX
  5
100A
  8
0
 62
     3
 10
364.67384700000002
 20
553.37984500000005
 30
0.0
  0
VERTEX
  5
100B
  8
0
 62
     3
 10
360.67384700000002
 20
552.37984500000005
 30
0.0
  0
VERTEX
  5
100C
  8
0
 62
     3
 10
362.67384700000002
 20
551.37984500000005
 30
0.0
  0
VERTEX
  5
100D
  8
0
 62
     3
 10
362.67384700000002
 20
535.37984500000005
 30
0.0
  0
VERTEX
  5
100E
  8
0
 62
     3
 10
364.67384700000002
 20
534.37984500000005
 30
0.0
  0
VERTEX
  5
100F
  8
0
 62
     3
 10
360.67384700000002
 20
533.37984500000005
 30
0.0
  0
VERTEX
  5
1010
  8
0
 62
     3
 10
362.67384700000002
 20
532.37984500000005
 30
0.0
  0
VERTEX
  5
1011
  8
0
 62
     3
 10
362.67384700000002
 20
516.37984500000005
 30
0.0
  0
VERTEX
  5
1012
  8
0
 62
     3
 10
364.67384700000002
 20
515.37984500000005
 30
0.0
  0
VERTEX
  5
1013
  8
0
 62
     3
 10
360.67384700000002
 20
514.37984500000005
 30
0.0
  0
VERTEX
  5
1014
  8
0
 62
     3
 10
362.67384700000002
 20
513.37984500000005
 30
0.0
  0
VERTEX
  5
1015
  8
0
 62
     3
 10
362.67384700000002
 20
497.37984499999999
 30
0.0
  0
VERTEX
  5
1016
  8
0
 62
     3
 10
364.67384700000002
 20
496.37984499999999
 30
0.0
  0
VERTEX
  5
1017
  8
0
 62
     3
 10
360.67384700000002
 20
495.37984499999999
 30
0.0
  0
VERTEX
  5
1018
  8
0
 62
     3
 10
362.67384700000002
 20
494.37984499999999
 30
0.0
  0
VERTEX
  5
1019
  8
0
 62
     3
 10
362.67384700000002
 20
478.37984499999999
 30
0.0
  0
VERTEX
  5
101A
  8
0
 62
     3
 10
364.67384700000002
 20
477.37984499999999
 30
0.0
  0
VERTEX
  5
101B
  8
0
 62
     3
 10
360.67384700000002
 20
476.37984499999999
 30
0.0
  0
VERTEX
  5
101C
  8
0
 62
     3
 10
362.67384700000002
 20
475.37984499999999
 30
0.0
  0
VERTEX
  5
101D
  8
0
 62
     3
 10
362.67384700000002
 20
473.99354599999992
 30
0.0
  0
SEQEND
  5
101E
  8
0
 62
     3
  0
POLYLINE
  5
7B3
  8
0
 62
     3
 66
     1
 10
0.0
 20
0.0
 30
0.0
  0
VERTEX
  5
101F
  8
0
 62
     3
 10
490.086521
 20
703.37984500000005
 30
0.0
  0
VERTEX
  5
1020
  8
0
 62
     3
 10
490.086521
 20
687.37984500000005
 30
0.0
  0
VERTEX
  5
1021
  8
0
 62
     3
 10
492.086521
 20
686.37984500000005
 30
0.0
  0
VERTEX
  5
1022
  8
0
 62
     3
 10
488.086521
 20
685.37984500000005
 30
0.0
  0
VERTEX
  5
1023
  8
0
 62
     3
 10
490.086521
 20
684.37984500000005
 30
0.0
  0
VERTEX
  5
1024
  8
0
 62
     3
 10
490.086521
 20
668.37984500000005
 30
0.0
  0
VERTEX
  5
1025
  8
0
 62
     3
 10
492.086521
 20
667.37984500000005
 30
0.0
  0
VERTEX
  5
1026
  8
0
 62
     3
 10
488.086521
 20
666.37984500000005
 30
0.0
  0
VERTEX
  5
1027
  8
0
 62
     3
 10
490.086521
 20
665.37984500000005
 30
0.0
  0
VERTEX
  5
1028
  8
0
 62
     3
 10
490.086521
 20
649.37984500000005
 30
0.0
  0
VERTEX
  5
1029
  8
0
 62
     3
 10
492.086521
 20
648.37984500000005
 30
0.0
  0
VERTEX
  5
102A
  8
0
 62
     3
 10
488.086521
 20
647.37984500000005
 30
0.0
  0
VERTEX
  5
102B
  8
0
 62
     3
 10
490.086521
 20
646.37984500000005
 30
0.0
  0
VERTEX
  5
102C
  8
0
 62
     3
 10
490.086521
 20
630.37984500000005
 30
0.0
  0
VERTEX
  5
102D
  8
0
 62
     3
 10
492.086521
 20
629.37984500000005
 30
0.0
  0
VERTEX
  5
102E
  8
0
 62
     3
 10
488.086521
 20
628.37984500000005
 30
0.0
  0
VERTEX
  5
102F
  8
0
 62
     3
 10
490.086521
 20
627.37984500000005
 30
0.0
  0
VERTEX
  5
1030
  8
0
 62
     3
 10
490.086521
 20
611.37984500000005
 30
0.0
  0
VERTEX
  5
1031
  8
0
 62
     3
 10
492.086521
 20
610.37984500000005
 30
0.0
  0
VERTEX
  5
1032
  8
0
 62
     3
 10
488.086521
 20
609.37984500000005
 30
0.0
  0
VERTEX
  5
1033
  8
0
 62
     3
 10
490.086521
 20
608.37984500000005
 30
0.0
  0
VERTEX
  5
1034
  8
0
 62
     3
 10
490.086521
 20
592.37984500000005
 30
0.0
  0
VERTEX
  5
1035
  8
0
 62
     3
 10
492.086521
 20
591.37984500000005
 30
0.0
  0
VERTEX
  5
1036
  8
0
 62
     3
 10
488.086521
 20
590.37984500000005
 30
0.0
  0
VERTEX
  5
1037
  8
0
 62
     3
 10
490.086521
 20
589.37984500000005
 30
0.0
  0
VERTEX
  5
1038
  8
0
 62
     3
 10
490.086521
 20
573.37984500000005
 30
0.0
  0
VERTEX
  5
1039
  8
0
 62
     3
 10
492.086521
 20
572.37984500000005
 30
0.0
  0
VERTEX
  5
103A
  8
0
 62
     3
 10
488.086521
 20
571.37984500000005
 30
0.0
  0
VERTEX
  5
103B
  8
0
 62
     3
 10
490.086521
 20
570.37984500000005
 30
0.0
  0
VERTEX
  5
103C
  8
0
 62
     3
 10
490.086521
 20
554.37984500000005
 30
0.0
  0
VERTEX
  5
103D
  8
0
 62
     3
 10
492.086521
 20
553.37984500000005
 30
0.0
  0
VERTEX
  5
103E
  8
0
 62
     3
 10
488.086521
 20
552.37984500000005
 30
0.0
  0
VERTEX
  5
103F
  8
0
 62
     3
 10
490.086521
 20
551.37984500000005
 30
0.0
  0
VERTEX
  5
1040
  8
0
 62
     3
 10
490.086521
 20
535.37984500000005
 30
0.0
  0
VERTEX
  5
1041
  8
0
 62
     3
 10
492.086521
 20
534.37984500000005
 30
0.0
  0
VERTEX
  5
1042
  8
0
 62
     3
 10
488.086521
 20
533.37984500000005
 30
0.0
  0
VERTEX
  5
1043
  8
0
 62
     3
 10
490.086521
 20
532.37984500000005
 30
0.0
  0
VERTEX
  5
1044
  8
0
 62
     3
 10
490.086521
 20
516.37984500000005
 30
0.0
  0
VERTEX
  5
1045
  8
0
 62
     3
 10
492.086521
 20
515.37984500000005
 30
0.0
  0
VERTEX
  5
1046
  8
0
 62
     3
 10
488.086521
 20
514.37984500000005
 30
0.0
  0
VERTEX
  5
1047
  8
0
 62
     3
 10
490.086521
 20
513.37984500000005
 30
0.0
  0
VERTEX
  5
1048
  8
0
 62
     3
 10
490.086521
 20
497.37984499999999
 30
0.0
  0
VERTEX
  5
1049
  8
0
 62
     3
 10
492.086521
 20
496.37984499999999
 30
0.0
  0
VERTEX
  5
104A
  8
0
 62
     3
 10
488.086521
 20
495.37984499999999
 30
0.0
  0
VERTEX
  5
104B
  8
0
 62
     3
 10
490.086521
 20
494.37984499999999
 30
0.0
  0
VERTEX
  5
104C
  8
0
 62
     3
 10
490.086521
 20
478.37984499999999
 30
0.0
  0
VERTEX
  5
104D
  8
0
 62
     3
 10
492.086521
 20
477.37984499999999
 30
0.0
  0
VERTEX
  5
104E
  8
0
 62
     3
 10
488.086521
 20
476.37984499999999
 30
0.0
  0
VERTEX
  5
104F
  8
0
 62
     3
 10
490.086521
 20
475.37984499999999
 30
0.0
  0
VERTEX
  5
1050
  8
0
 62
     3
 10
490.086521
 20
473.99354599999992
 30
0.0
  0
SEQEND
  5
1051
  8
0
 62
     3
  0
POLYLINE
  5
7E7
  8
0
 62
     3
 66
     1
 10
0.0
 20
0.0
 30
0.0
  0
VERTEX
  5
1052
  8
0
 62
     3
 10
490.086521
 20
473.99354599999992
 30
0.0
  0
VERTEX
  5
1053
  8
0
 62
     3
 10
474.08652099999989
 20
473.99354599999992
 30
0.0
  0
VERTEX
  5
1054
  8
0
 62
     3
 10
473.086521
 20
471.99354599999998
 30
0.0
  0
VERTEX
  5
1055
  8
0
 62
     3
 10
472.086521
 20
475.99354599999998
 30
0.0
  0
VERTEX
  5
1056
  8
0
 62
     3
 10
471.086521
 20
473.99354599999992
 30
0.0
  0
VERTEX
  5
1057
  8
0
 62
     3
 10
455.086521
 20
473.99354599999992
 30
0.0
  0
VERTEX
  5
1058
  8
0
 62
     3
 10
454.08652099999989
 20
471.99354599999998
 30
0.0
  0
VERTEX
  5
1059
  8
0
 62
     3
 10
453.08652099999989
 20
475.99354599999998
 30
0.0
  0
VERTEX
  5
105A
  8
0
 62
     3
 10
452.086521
 20
473.99354599999992
 30
0.0
  0
VERTEX
  5
105B
  8
0
 62
     3
 10
436.086521
 20
473.99354599999992
 30
0.0
  0
VERTEX
  5
105C
  8
0
 62
     3
 10
435.086521
 20
471.99354599999998
 30
0.0
  0
VERTEX
  5
105D
  8
0
 62
     3
 10
434.086521
 20
475.99354599999998
 30
0.0
  0
VERTEX
  5
105E
  8
0
 62
     3
 10
433.08652099999989
 20
473.99354599999992
 30
0.0
  0
VERTEX
  5
105F
  8
0
 62
     3
 10
417.086521
 20
473.99354599999992
 30
0.0
  0
VERTEX
  5
1060
  8
0
 62
     3
 10
416.08652099999989
 20
471.99354599999998
 30
0.0
  0
VERTEX
  5
1061
  8
0
 62
     3
 10
415.086521
 20
475.99354599999998
 30
0.0
  0
VERTEX
  5
1062
  8
0
 62
     3
 10
414.086521
 20
473.99354599999992
 30
0.0
  0
VERTEX
  5
1063
  8
0
 62
     3
 10
398.086521
 20
473.99354599999992
 30
0.0
  0
VERTEX
  5
1064
  8
0
 62
     3
 10
397.08652099999989
 20
471.99354599999998
 30
0.0
  0
VERTEX
  5
1065
  8
0
 62
     3
 10
396.086521
 20
475.99354599999998
 30
0.0
  0
VERTEX
  5
1066
  8
0
 62
     3
 10
395.086521
 20
473.99354599999992
 30
0.0
  0
VERTEX
  5
1067
  8
0
 62
     3
 10
379.086521
 20
473.99354599999992
 30
0.0
  0
VERTEX
  5
1068
  8
0
 62
     3
 10
378.08652099999989
 20
471.99354599999998
 30
0.0
  0
VERTEX
  5
1069
  8
0
 62
     3
 10
377.086521
 20
475.99354599999998
 30
0.0
  0
VERTEX
  5
106A
  8
0
 62
     3
 10
376.08652099999989
 20
473.99354599999992
 30
0.0
  0
VERTEX
  5
106B
  8
0
 62
     3
 10
362.67384700000002
 20
473.99354599999992
 30
0.0
  0
SEQEND
  5
106C
  8
0
 62
     3
  0
POLYLINE
  5
803
  8
0
 62
     3
 66
     1
 10
0.0
 20
0.0
 30
0.0
  0
VERTEX
  5
106D
  8
0
 62
     3
 10
490.086521
 20
703.37984500000005
 30
0.0
  0
VERTEX
  5
106E
  8
0
 62
     3
 10
474.08652099999989
 20
703.37984500000005
 30
0.0
  0
VERTEX
  5
106F
  8
0
 62
     3
 10
473.086521
 20
701.37984500000005
 30
0.0
  0
VERTEX
  5
1070
  8
0
 62
     3
 10
472.086521
 20
705.37984500000005
 30
0.0
  0
VERTEX
  5
1071
  8
0
 62
     3
 10
471.086521
 20
703.37984500000005
 30
0.0
  0
VERTEX
  5
1072
  8
0
 62
     3
 10
455.086521
 20
703.37984500000005
 30
0.0
  0
VERTEX
  5
1073
  8
0
 62
     3
 10
454.08652099999989
 20
701.37984500000005
 30
0.0
  0
VERTEX
  5
1074
  8
0
 62
     3
 10
453.08652099999989
 20
705.37984500000005
 30
0.0
  0
VERTEX
  5
1075
  8
0
 62
     3
 10
452.086521
 20
703.37984500000005
 30
0.0
  0
VERTEX
  5
1076
  8
0
 62
     3
 10
436.086521
 20
703.37984500000005
 30
0.0
  0
VERTEX
  5
1077
  8
0
 62
     3
 10
435.086521
 20
701.37984500000005
 30
0.0
  0
VERTEX
  5
1078
  8
0
 62
     3
 10
434.086521
 20
705.37984500000005
 30
0.0
  0
VERTEX
  5
1079
  8
0
 62
     3
 10
433.08652099999989
 20
703.37984500000005
 30
0.0
  0
VERTEX
  5
107A
  8
0
 62
     3
 10
417.086521
 20
703.37984500000005
 30
0.0
  0
VERTEX
  5
107B
  8
0
 62
     3
 10
416.08652099999989
 20
701.37984500000005
 30
0.0
  0
VERTEX
  5
107C
  8
0
 62
     3
 10
415.086521
 20
705.37984500000005
 30
0.0
  0
VERTEX
  5
107D
  8
0
 62
     3
 10
414.086521
 20
703.37984500000005
 30
0.0
  0
VERTEX
  5
107E
  8
0
 62
     3
 10
398.086521
 20
703.37984500000005
 30
0.0
  0
VERTEX
  5
107F
  8
0
 62
     3
 10
397.08652099999989
 20
701.37984500000005
 30
0.0
  0
VERTEX
  5
1080
  8
0
 62
     3
 10
396.086521
 20
705.37984500000005
 30
0.0
  0
VERTEX
  5
1081
  8
0
 62
     3
 10
395.086521
 20
703.37984500000005
 30
0.0
  0
VERTEX
  5
1082
  8
0
 62
     3
 10
379.086521
 20
703.37984500000005
 30
0.0
  0
VERTEX
  5
1083
  8
0
 62
     3
 10
378.08652099999989
 20
701.37984500000005
 30
0.0
  0
VERTEX
  5
1084
  8
0
 62
     3
 10
377.086521
 20
705.37984500000005
 30
0.0
  0
VERTEX
  5
1085
  8
0
 62
     3
 10
376.08652099999989
 20
703.37984500000005
 30
0.0
  0
VERTEX
  5
1086
  8
0
 62
     3
 10
362.67384700000002
 20
703.37984500000005
 30
0.0
  0
SEQEND
  5
1087
  8
0
 62
     3
  0
LINE
  5
81F
  8
0
  6
DASHDOT
 62
     7
 10
461.81503700000002
 20
701.33419000000004
 30
0.0
 11
461.81503700000002
 21
665.33419000000004
 31
0.0
  0
LINE
  5
820
  8
0
  6
DASHDOT
 62
     7
 10
479.81503700000002
 20
683.33419000000004
 30
0.0
 11
443.81503700000002
 21
683.33419000000004
 31
0.0
  0
LINE
  5
821
  8
0
  6
DASHDOT
 62
     7
 10
426.8150369999999
 20
701.33419000000004
 30
0.0
 11
426.8150369999999
 21
665.33419000000004
 31
0.0
  0
LINE
  5
822
  8
0
  6
DASHDOT
 62
     7
 10
444.81503700000002
 20
683.33419000000004
 30
0.0
 11
408.81503700000002
 21
683.33419000000004
 31
0.0
  0
LINE
  5
823
  8
0
  6
DASHDOT
 62
     7
 10
391.81503700000002
 20
701.33419000000004
 30
0.0
 11
391.81503700000002
 21
665.33419000000004
 31
0.0
  0
LINE
  5
824
  8
0
  6
DASHDOT
 62
     7
 10
409.8150369999999
 20
683.33419000000004
 30
0.0
 11
373.81503700000002
 21
683.33419000000004
 31
0.0
  0
LINE
  5
825
  8
0
  6
DASHDOT
 62
     7
 10
391.81503700000002
 20
516.33419000000004
 30
0.0
 11
391.81503700000002
 21
480.33418999999998
 31
0.0
  0
LINE
  5
826
  8
0
  6
DASHDOT
 62
     7
 10
409.8150369999999
 20
498.33418999999998
 30
0.0
 11
373.81503700000002
 21
498.33418999999998
 31
0.0
  0
LINE
  5
827
  8
0
  6
DASHDOT
 62
     7
 10
426.8150369999999
 20
516.33419000000004
 30
0.0
 11
426.8150369999999
 21
480.33418999999998
 31
0.0
  0
LINE
  5
828
  8
0
  6
DASHDOT
 62
     7
 10
444.81503700000002
 20
498.33418999999998
 30
0.0
 11
408.81503700000002
 21
498.33418999999998
 31
0.0
  0
LINE
  5
829
  8
0
  6
DASHDOT
 62
     7
 10
461.81503700000002
 20
516.33419000000004
 30
0.0
 11
461.81503700000002
 21
480.33418999999998
 31
0.0
  0
LINE
  5
82A
  8
0
  6
DASHDOT
 62
     7
 10
479.81503700000002
 20
498.33418999999998
 30
0.0
 11
443.81503700000002
 21
498.33418999999998
 31
0.0
  0
LINE
  5
82B
  8
0
 62
     7
 10
461.81503700000002
 20
668.33419000000004
 30
0.0
 11
391.81503700000002
 21
668.33419000000004
 31
0.0
  0
LINE
  5
82C
  8
0
 62
     7
 10
461.81503700000002
 20
698.33419000000004
 30
0.0
 11
391.81503700000002
 21
698.33419000000004
 31
0.0
  0
LINE
  5
82D
  8
0
 62
     7
 10
461.81503700000002
 20
513.33419000000004
 30
0.0
 11
391.81503700000002
 21
513.33419000000004
 31
0.0
  0
LINE
  5
82E
  8
0
 62
     7
 10
461.81503700000002
 20
483.33418999999998
 30
0.0
 11
391.81503700000002
 21
483.33418999999998
 31
0.0
  0
CIRCLE
  5
82F
  8
0
 62
     7
 10
369.339382
 20
695.78803300000004
 30
0.0
 40
0.3
  0
LINE
  5
830
  8
0
 62
     7
 10
519.16403600000001
 20
683.33419000000004
 30
0.0
 11
517.08025700000007
 21
671.51650199999995
 31
0.0
  0
LINE
  5
831
  8
0
 62
     7
 10
519.16403600000001
 20
683.33419000000004
 30
0.0
 11
521.24781399999995
 21
671.51650199999995
 31
0.0
  0
LINE
  5
832
  8
0
 62
     7
 10
519.16404299999988
 20
588.58419000000004
 30
0.0
 11
521.24782199999993
 21
600.4018779999999
 31
0.0
  0
LINE
  5
833
  8
0
 62
     7
 10
519.16404299999988
 20
588.58419000000004
 30
0.0
 11
517.08026500000005
 21
600.4018779999999
 31
0.0
  0
LINE
  5
834
  8
0
 62
     7
 10
519.16403600000001
 20
683.33419000000004
 30
0.0
 11
519.16404299999988
 21
588.58419000000004
 31
0.0
  0
LINE
  5
835
  8
0
 62
     7
 10
527.16403600000001
 20
683.33419000000004
 30
0.0
 11
479.81503700000002
 21
683.33419000000004
 31
0.0
  0
LINE
  5
836
  8
0
 62
     7
 10
527.16404299999988
 20
588.58419000000004
 30
0.0
 11
510.72585699999991
 21
588.58419000000004
 31
0.0
  0
LINE
  5
837
  8
0
 62
     7
 10
339.24318299999999
 20
683.33419000000004
 30
0.0
 11
337.15941199999997
 21
671.51650199999995
 31
0.0
  0
LINE
  5
838
  8
0
 62
     7
 10
339.24318299999999
 20
683.33419000000004
 30
0.0
 11
341.32698399999992
 21
671.51650199999995
 31
0.0
  0
LINE
  5
839
  8
0
 62
     7
 10
339.24321400000002
 20
498.33418999999998
 30
0.0
 11
341.32698399999992
 21
510.15187800000001
 31
0.0
  0
LINE
  5
83A
  8
0
 62
     7
 10
339.24321400000002
 20
498.33418999999998
 30
0.0
 11
337.15941199999997
 21
510.15187800000001
 31
0.0
  0
LINE
  5
83B
  8
0
 62
     7
 10
339.24318299999999
 20
683.33419000000004
 30
0.0
 11
339.24321400000002
 21
498.33418999999998
 31
0.0
  0
LINE
  5
83C
  8
0
 62
     7
 10
331.24318299999987
 20
683.33419000000004
 30
0.0
 11
409.8150369999999
 21
683.33419000000004
 31
0.0
  0
LINE
  5
83D
  8
0
 62
     7
 10
331.24321400000002
 20
498.33418999999998
 30
0.0
 11
444.81505199999992
 21
498.33418999999998
 31
0.0
  0
LINE
  5
83E
  8
0
 62
     7
 10
461.81503700000002
 20
446.48659500000002
 30
0.0
 11
473.63273199999998
 21
444.40279399999997
 31
0.0
  0
LINE
  5
83F
  8
0
 62
     7
 10
461.81503700000002
 20
446.48659500000002
 30
0.0
 11
473.63273199999998
 21
448.57033499999989
 31
0.0
  0
POLYLINE
  5
840
  8
0
 62
     7
 66
     1
 10
0.0
 20
0.0
 30
0.0
 70
     1
  0
VERTEX
  5
1088
  8
0
 62
     7
 10
424.81503700000002
 20
446.48659500000002
 30
0.0
  0
VERTEX
  5
1089
  8
0
 62
     7
 10
425.40082199999989
 20
445.07241099999999
 30
0.0
  0
VERTEX
  5
108A
  8
0
 62
     7
 10
426.8150369999999
 20
444.48659500000002
 30
0.0
  0
VERTEX
  5
108B
  8
0
 62
     7
 10
428.22925199999992
 20
445.07241099999999
 30
0.0
  0
VERTEX
  5
108C
  8
0
 62
     7
 10
428.81503700000002
 20
446.48659500000002
 30
0.0
  0
VERTEX
  5
108D
  8
0
 62
     7
 10
428.22925199999992
 20
447.90077999999988
 30
0.0
  0
VERTEX
  5
108E
  8
0
 62
     7
 10
426.8150369999999
 20
448.48659500000002
 30
0.0
  0
VERTEX
  5
108F
  8
0
 62
     7
 10
425.40082199999989
 20
447.90077999999988
 30
0.0
  0
SEQEND
  5
1090
  8
0
 62
     7
  0
LINE
  5
84A
  8
0
 62
     7
 10
391.81503700000002
 20
446.48659500000002
 30
0.0
 11
379.99734899999999
 21
448.57033499999989
 31
0.0
  0
LINE
  5
84B
  8
0
 62
     7
 10
391.81503700000002
 20
446.48659500000002
 30
0.0
 11
379.99734899999999
 21
444.40279399999997
 31
0.0
  0
LINE
  5
84C
  8
0
 62
     7
 10
461.81503700000002
 20
446.48659500000002
 30
0.0
 11
391.81503700000002
 21
446.48659500000002
 31
0.0
  0
LINE
  5
84D
  8
0
 62
     7
 10
461.81503700000002
 20
438.48659500000002
 30
0.0
 11
461.81503700000002
 21
480.33418999999998
 31
0.0
  0
LINE
  5
84E
  8
0
 62
     7
 10
426.8150369999999
 20
438.48659500000002
 30
0.0
 11
426.8150369999999
 21
480.33418999999998
 31
0.0
  0
LINE
  5
84F
  8
0
 62
     7
 10
391.81503700000002
 20
438.48659500000002
 30
0.0
 11
391.81503700000002
 21
480.33418999999998
 31
0.0
  0
LINE
  5
850
  8
0
 62
     7
 10
475.547955
 20
492.30037700000003
 30
0.0
 11
485.52917100000002
 21
485.63887799999998
 31
0.0
  0
LINE
  5
851
  8
0
 62
     7
 10
475.547955
 20
492.30037700000003
 30
0.0
 11
487.20559300000002
 21
489.45442999999989
 31
0.0
  0
LINE
  5
852
  8
0
 62
     7
 10
458.02522699999992
 20
499.99928999999997
 30
0.0
 11
535.44903199999999
 21
465.98165099999989
 31
0.0
  0
INSERT
  5
B3F
  8
0
  2
BLOCK0
 10
-152.4932419999999
 20
578.33416599999987
 30
0.0
 50
90.0
  0
INSERT
  5
B40
  8
0
  2
BLOCK1
 10
-152.4932419999999
 20
578.33416599999987
 30
0.0
 50
90.0
  0
INSERT
  5
B41
  8
0
  2
BLOCK2
 10
-152.4932419999999
 20
578.33416599999987
 30
0.0
 50
90.0
  0
INSERT
  5
B42
  8
0
  2
BLOCK3
 10
-152.4932419999999
 20
578.33416599999987
 30
0.0
 50
90.0
  0
INSERT
  5
B43
  8
0
  2
BLOCK4
 10
-152.4932419999999
 20
578.33416599999987
 30
0.0
 50
90.0
  0
INSERT
  5
B44
  8
0
  2
BLOCK5
 10
-152.4932419999999
 20
578.33416599999987
 30
0.0
 50
90.0
  0
INSERT
  5
B45
  8
0
  2
BLOCK6
 10
-152.4932419999999
 20
578.33416599999987
 30
0.0
 50
90.0
  0
INSERT
  5
B46
  8
0
  2
BLOCK7
 10
-152.4932419999999
 20
578.33416599999987
 30
0.0
 50
90.0
  0
INSERT
  5
B47
  8
0
  2
BLOCK8
 10
-152.4932419999999
 20
578.33416599999987
 30
0.0
 50
90.0
  0
INSERT
  5
B48
  8
0
  2
BLOCK9
 10
-152.4932419999999
 20
578.33416599999987
 30
0.0
 50
90.0
  0
INSERT
  5
B49
  8
0
  2
BLOCK10
 10
-152.4932419999999
 20
578.33416599999987
 30
0.0
 50
90.0
  0
INSERT
  5
B4A
  8
0
  2
BLOCK11
 10
-152.4932419999999
 20
578.33416599999987
 30
0.0
 50
90.0
  0
INSERT
  5
B4B
  8
0
  2
BLOCK12
 10
-152.4932419999999
 20
578.33416599999987
 30
0.0
 50
90.0
  0
INSERT
  5
B4C
  8
0
  2
BLOCK13
 10
-152.4932419999999
 20
578.33416599999987
 30
0.0
 50
90.0
  0
INSERT
  5
B4D
  8
0
  2
BLOCK14
 10
-152.4932419999999
 20
578.33416599999987
 30
0.0
 50
90.0
  0
INSERT
  5
B4E
  8
0
  2
BLOCK15
 10
-152.4932419999999
 20
578.33416599999987
 30
0.0
 50
90.0
  0
INSERT
  5
B4F
  8
0
  2
BLOCK16
 10
-197.9949949999999
 20
212.13751199999999
 30
0.0
 50
180.0
  0
INSERT
  5
B50
  8
0
  2
BLOCK17
 10
-197.9949949999999
 20
212.13751199999999
 30
0.0
 50
180.0
  0
INSERT
  5
B51
  8
0
  2
BLOCK18
 10
-197.9949949999999
 20
212.13751199999999
 30
0.0
 50
180.0
  0
INSERT
  5
B52
  8
0
  2
BLOCK19
 10
-197.9949949999999
 20
212.13751199999999
 30
0.0
 50
180.0
  0
INSERT
  5
B53
  8
0
  2
BLOCK20
 10
-197.9949949999999
 20
212.13751199999999
 30
0.0
 50
180.0
  0
INSERT
  5
B54
  8
0
  2
BLOCK21
 10
760.79054299999984
 20
590.83419000000004
 30
0.0
 50
270.0
  0
INSERT
  5
B55
  8
0
  2
BLOCK22
 10
760.79054299999984
 20
590.83419000000004
 30
0.0
 50
270.0
  0
INSERT
  5
B56
  8
0
  2
BLOCK23
 10
760.79054299999984
 20
590.83419000000004
 30
0.0
 50
270.0
  0
INSERT
  5
B57
  8
0
  2
BLOCK24
 10
760.79054299999984
 20
590.83419000000004
 30
0.0
 50
270.0
  0
INSERT
  5
B58
  8
0
  2
BLOCK25
 10
760.79054299999984
 20
590.83419000000004
 30
0.0
 50
270.0
  0
INSERT
  5
B59
  8
0
  2
BLOCK26
 10
760.79054299999984
 20
590.83419000000004
 30
0.0
 50
270.0
  0
INSERT
  5
B5A
  8
0
  2
BLOCK27
 10
760.79054299999984
 20
590.83419000000004
 30
0.0
 50
270.0
  0
INSERT
  5
B5B
  8
0
  2
BLOCK28
 10
760.79054299999984
 20
590.83419000000004
 30
0.0
 50
270.0
  0
INSERT
  5
B5C
  8
0
  2
BLOCK29
 10
760.79054299999984
 20
590.83419000000004
 30
0.0
 50
270.0
  0
INSERT
  5
B5D
  8
0
  2
BLOCK30
 10
760.79054299999984
 20
590.83419000000004
 30
0.0
 50
270.0
  0
INSERT
  5
B5E
  8
0
  2
BLOCK31
 10
182.711815
 20
478.59712999999988
 30
0.0
 50
90.0
  0
INSERT
  5
B5F
  8
0
  2
BLOCK32
 10
182.711815
 20
478.59712999999988
 30
0.0
 50
90.0
  0
INSERT
  5
B60
  8
0
  2
BLOCK33
 10
182.711815
 20
478.59712999999988
 30
0.0
 50
90.0
  0
INSERT
  5
B61
  8
0
  2
BLOCK34
 10
182.711815
 20
478.59712999999988
 30
0.0
 50
90.0
  0
INSERT
  5
B62
  8
0
  2
BLOCK35
 10
182.711815
 20
478.59712999999988
 30
0.0
 50
90.0
  0
INSERT
  5
B63
  8
0
  2
BLOCK36
 10
182.711815
 20
478.59712999999988
 30
0.0
 50
90.0
  0
INSERT
  5
B64
  8
0
  2
BLOCK37
 10
182.711815
 20
478.59712999999988
 30
0.0
 50
90.0
  0
INSERT
  5
B65
  8
0
  2
BLOCK38
 10
182.711815
 20
478.59712999999988
 30
0.0
 50
90.0
  0
INSERT
  5
B66
  8
0
  2
BLOCK39
 10
182.711815
 20
478.59712999999988
 30
0.0
 50
90.0
  0
INSERT
  5
B67
  8
0
  2
BLOCK40
 10
182.711815
 20
478.59712999999988
 30
0.0
 50
90.0
  0
INSERT
  5
B68
  8
0
  2
BLOCK41
 10
182.711815
 20
478.59712999999988
 30
0.0
 50
90.0
  0
INSERT
  5
B69
  8
0
  2
BLOCK42
 10
182.711815
 20
478.59712999999988
 30
0.0
 50
90.0
  0
INSERT
  5
B6A
  8
0
  2
BLOCK43
 10
182.711815
 20
478.59712999999988
 30
0.0
 50
90.0
  0
INSERT
  5
B6B
  8
0
  2
BLOCK44
 10
182.711815
 20
478.59712999999988
 30
0.0
 50
90.0
  0
INSERT
  5
B6C
  8
0
  2
BLOCK45
 10
182.711815
 20
478.59712999999988
 30
0.0
 50
90.0
  0
INSERT
  5
B6D
  8
0
  2
BLOCK46
 10
182.711815
 20
478.59712999999988
 30
0.0
 50
90.0
  0
INSERT
  5
B6E
  8
0
  2
BLOCK47
 10
182.711815
 20
478.59712999999988
 30
0.0
 50
90.0
  0
INSERT
  5
B6F
  8
0
  2
BLOCK48
 10
182.711815
 20
478.59712999999988
 30
0.0
 50
90.0
  0
INSERT
  5
B70
  8
0
  2
BLOCK49
 10
182.711815
 20
478.59712999999988
 30
0.0
 50
90.0
  0
INSERT
  5
B71
  8
0
  2
BLOCK50
 10
182.711815
 20
478.59712999999988
 30
0.0
 50
90.0
  0
INSERT
  5
B72
  8
0
  2
BLOCK51
 10
182.711815
 20
478.59712999999988
 30
0.0
 50
90.0
  0
INSERT
  5
B73
  8
0
  2
BLOCK52
 10
182.711815
 20
478.59712999999988
 30
0.0
 50
90.0
  0
INSERT
  5
B74
  8
0
  2
BLOCK53
 10
182.711815
 20
478.59712999999988
 30
0.0
 50
90.0
  0
INSERT
  5
B75
  8
0
  2
BLOCK54
 10
182.711815
 20
478.59712999999988
 30
0.0
 50
90.0
  0
INSERT
  5
B76
  8
0
  2
BLOCK55
 10
182.711815
 20
478.59712999999988
 30
0.0
 50
90.0
  0
INSERT
  5
B77
  8
0
  2
BLOCK56
 10
182.711815
 20
478.59712999999988
 30
0.0
 50
90.0
  0
INSERT
  5
B78
  8
0
  2
BLOCK57
 10
182.711815
 20
478.59712999999988
 30
0.0
 50
90.0
  0
INSERT
  5
B79
  8
0
  2
BLOCK58
 10
182.711815
 20
478.59712999999988
 30
0.0
 50
90.0
  0
INSERT
  5
B7A
  8
0
  2
BLOCK59
 10
182.711815
 20
478.59712999999988
 30
0.0
 50
90.0
  0
INSERT
  5
B7B
  8
0
  2
BLOCK60
 10
182.711815
 20
478.59712999999988
 30
0.0
 50
90.0
  0
INSERT
  5
B7C
  8
0
  2
BLOCK61
 10
182.711815
 20
478.59712999999988
 30
0.0
 50
90.0
  0
INSERT
  5
B7D
  8
0
  2
BLOCK62
 10
182.711815
 20
478.59712999999988
 30
0.0
 50
90.0
  0
INSERT
  5
B7E
  8
0
  2
BLOCK63
 10
182.711815
 20
478.59712999999988
 30
0.0
 50
90.0
  0
INSERT
  5
B7F
  8
0
  2
BLOCK64
 10
182.711815
 20
478.59712999999988
 30
0.0
 50
90.0
  0
INSERT
  5
B80
  8
0
  2
BLOCK65
 10
182.711815
 20
478.59712999999988
 30
0.0
 50
90.0
  0
INSERT
  5
B81
  8
0
  2
BLOCK66
 10
182.711815
 20
478.59712999999988
 30
0.0
 50
90.0
  0
INSERT
  5
B82
  8
0
  2
BLOCK67
 10
182.711815
 20
478.59712999999988
 30
0.0
 50
90.0
  0
INSERT
  5
B83
  8
0
  2
BLOCK68
 10
182.711815
 20
478.59712999999988
 30
0.0
 50
90.0
  0
INSERT
  5
B84
  8
0
  2
BLOCK69
 10
182.711815
 20
478.59712999999988
 30
0.0
 50
90.0
  0
INSERT
  5
B85
  8
0
  2
BLOCK70
 10
426.8150369999999
 20
590.83419000000004
 30
0.0
 50
180.0
  0
INSERT
  5
B86
  8
0
  2
BLOCK71
 10
426.8150369999999
 20
590.83419000000004
 30
0.0
 50
180.0
  0
INSERT
  5
B87
  8
0
  2
BLOCK72
 10
426.8150369999999
 20
590.83419000000004
 30
0.0
 50
180.0
  0
INSERT
  5
B88
  8
0
  2
BLOCK73
 10
426.8150369999999
 20
590.83419000000004
 30
0.0
 50
180.0
  0
INSERT
  5
B89
  8
0
  2
BLOCK74
 10
426.8150369999999
 20
590.83419000000004
 30
0.0
 50
180.0
  0
INSERT
  5
B8A
  8
0
  2
BLOCK75
 10
426.8150369999999
 20
590.83419000000004
 30
0.0
 50
180.0
  0
INSERT
  5
B8B
  8
0
  2
BLOCK76
 10
426.8150369999999
 20
590.83419000000004
 30
0.0
 50
180.0
  0
INSERT
  5
B8C
  8
0
  2
BLOCK77
 10
426.8150369999999
 20
590.83419000000004
 30
0.0
 50
180.0
  0
INSERT
  5
B8D
  8
0
  2
BLOCK78
 10
426.8150369999999
 20
590.83419000000004
 30
0.0
 50
180.0
  0
INSERT
  5
B8E
  8
0
  2
BLOCK79
 10
426.8150369999999
 20
590.83419000000004
 30
0.0
 50
180.0
  0
VIEWPORT
  5
853
 67
     1
  8
0
 62
     0
 10
0.0
 20
0.0
 30
0.0
 40
1000.0
 41
1000.0
 68
     1
 69
     1
1001
ACAD
1000
MVIEW
1002
{
1070
    16
1010
0.0
1020
0.0
1030
0.0
1010
0.0
1020
0.0
1030
1.0
1040
0.0
1040
1000.0
1040
0.0
1040
0.0
1040
50.0
1040
0.0
1040
0.0
1070
     0
1070
   100
1070
     1
1070
     1
1070
     0
1070
     0
1070
     0
1070
     0
1040
0.0
1040
0.0
1040
0.0
1040
1.0
1040
1.0
1040
1.0
1040
1.0
1070
     0
1002
{
1002
}
1002
}
  0
ENDSEC
  0
EOF
