  0
SECTION
  2
HEADER
  9
$ACADVER
  1
AC1009
  9
$DWGCODEPAGE
  3
iso8859-1
  9
$INSBASE
 10
0.0
 20
0.0
 30
0.0
  9
$EXTMIN
 10
1.0E20
 20
1.0E20
  9
$EXTMAX
 10
-1.0E20
 20
-1.0E20
  9
$LIMMIN
 10
0.0
 20
0.0
  9
$LIMMAX
 10
12.0
 20
9.0
  9
$ORTHOMODE
 70
     0
  9
$REGENMODE
 70
     1
  9
$FILLMODE
 70
     1
  9
$QTEXTMODE
 70
     0
  9
$MIRRTEXT
 70
     1
  9
$DRAGMODE
 70
     2
  9
$LTSCALE
 40
15.0
  9
$OSMODE
 70
     0
  9
$ATTMODE
 70
     1
  9
$TEXTSIZE
 40
0.2
  9
$TRACEWID
 40
0.05
  9
$TEXTSTYLE
  7
STANDARD
  9
$CLAYER
  8
0
  9
$CELTYPE
  6
DASHED
  9
$CECOLOR
 62
   256
  9
$DIMSCALE
 40
1.0
  9
$DIMASZ
 40
0.18
  9
$DIMEXO
 40
0.0625
  9
$DIMDLI
 40
0.38
  9
$DIMRND
 40
0.0
  9
$DIMDLE
 40
0.0
  9
$DIMEXE
 40
0.18
  9
$DIMTP
 40
0.0
  9
$DIMTM
 40
0.0
  9
$DIMTXT
 40
0.18
  9
$DIMCEN
 40
0.09
  9
$DIMTSZ
 40
0.0
  9
$DIMTOL
 70
     0
  9
$DIMLIM
 70
     0
  9
$DIMTIH
 70
     1
  9
$DIMTOH
 70
     1
  9
$DIMSE1
 70
     0
  9
$DIMSE2
 70
     0
  9
$DIMTAD
 70
     0
  9
$DIMZIN
 70
     0
  9
$DIMBLK
  1

  9
$DIMASO
 70
     1
  9
$DIMSHO
 70
     1
  9
$DIMPOST
  1

  9
$DIMAPOST
  1

  9
$DIMALT
 70
     0
  9
$DIMALTD
 70
     2
  9
$DIMALTF
 40
25.4
  9
$DIMLFAC
 40
1.0
  9
$DIMTOFL
 70
     0
  9
$DIMTVP
 40
0.0
  9
$DIMTIX
 70
     0
  9
$DIMSOXD
 70
     0
  9
$DIMSAH
 70
     0
  9
$DIMBLK1
  1

  9
$DIMBLK2
  1

  9
$DIMSTYLE
  2
STANDARD
  9
$DIMCLRD
 70
     0
  9
$DIMCLRE
 70
     0
  9
$DIMCLRT
 70
     0
  9
$DIMTFAC
 40
1.0
  9
$DIMGAP
 40
0.09
  9
$LUNITS
 70
     2
  9
$LUPREC
 70
     4
  9
$AXISMODE
 70
     0
  9
$AXISUNIT
 10
0.0
 20
0.0
  9
$SKETCHINC
 40
0.1
  9
$FILLETRAD
 40
0.0
  9
$AUNITS
 70
     0
  9
$AUPREC
 70
     0
  9
$MENU
  1
acad
  9
$ELEVATION
 40
0.0
  9
$PELEVATION
 40
0.0
  9
$THICKNESS
 40
0.0
  9
$LIMCHECK
 70
     0
  9
$BLIPMODE
 70
     1
  9
$CHAMFERA
 40
0.0
  9
$CHAMFERB
 40
0.0
  9
$SKPOLY
 70
     0
  9
$TDCREATE
 40
0.000000000
  9
$TDUPDATE
 40
0.000000000
  9
$TDINDWG
 40
0.0
  9
$TDUSRTIMER
 40
0.0
  9
$USRTIMER
 70
     1
  9
$ANGBASE
 50
0.0
  9
$ANGDIR
 70
     0
  9
$PDMODE
 70
     0
  9
$PDSIZE
 40
0.0
  9
$PLINEWID
 40
0.0
  9
$COORDS
 70
     1
  9
$SPLFRAME
 70
     0
  9
$SPLINETYPE
 70
     6
  9
$SPLINESEGS
 70
     8
  9
$ATTDIA
 70
     0
  9
$ATTREQ
 70
     1
  9
$HANDLING
 70
     1
  9
$HANDSEED
  5
   77B
  9
$SURFTAB1
 70
     6
  9
$SURFTAB2
 70
     6
  9
$SURFTYPE
 70
     6
  9
$SURFU
 70
     6
  9
$SURFV
 70
     6
  9
$UCSNAME
  2

  9
$UCSORG
 10
0.0
 20
0.0
 30
0.0
  9
$UCSXDIR
 10
1.0
 20
0.0
 30
0.0
  9
$UCSYDIR
 10
0.0
 20
1.0
 30
0.0
  9
$PUCSNAME
  2

  9
$PUCSORG
 10
0.0
 20
0.0
 30
0.0
  9
$PUCSXDIR
 10
1.0
 20
0.0
 30
0.0
  9
$PUCSYDIR
 10
0.0
 20
1.0
 30
0.0
  9
$USERI1
 70
     0
  9
$USERI2
 70
     0
  9
$USERI3
 70
     0
  9
$USERI4
 70
     0
  9
$USERI5
 70
     0
  9
$USERR1
 40
0.0
  9
$USERR2
 40
0.0
  9
$USERR3
 40
0.0
  9
$USERR4
 40
0.0
  9
$USERR5
 40
0.0
  9
$WORLDVIEW
 70
     1
  9
$SHADEDGE
 70
     3
  9
$SHADEDIF
 70
    70
  9
$TILEMODE
 70
     1
  9
$MAXACTVP
 70
    16
  9
$PINSBASE
 10
0.0
 20
0.0
 30
0.0
  9
$PLIMCHECK
 70
     0
  9
$PEXTMIN
 10
1.0E20
 20
1.0E20
 30
1.0E20
  9
$PEXTMAX
 10
-1.0E20
 20
-1.0E20
 30
-1.0E20
  9
$PLIMMIN
 10
0.0
 20
0.0
  9
$PLIMMAX
 10
12.0
 20
9.0
  9
$UNITMODE
 70
     0
  9
$VISRETAIN
 70
     0
  0
ENDSEC
  0
SECTION
  2
TABLES
  0
TABLE
  2
VPORT
 70
     1
  0
VPORT
  2
*ACTIVE
 70
     0
 10
0.0
 20
0.0
 11
1.0
 21
1.0
 12
6.801242
 22
4.5
 13
0.0
 23
0.0
 14
1.0
 24
1.0
 15
0.0
 25
0.0
 16
0.0
 26
0.0
 36
1.0
 17
0.0
 27
0.0
 37
0.0
 40
9.0
 41
1.511387
 42
50.0
 43
0.0
 44
0.0
 50
0.0
 51
0.0
 71
     0
 72
   100
 73
     1
 74
     1
 75
     0
 76
     0
 77
     0
 78
     0
  0
ENDTAB
  0
TABLE
  2
LTYPE
 70
    41
  0
LTYPE
  2
BYBLOCK
 70
     0
  3

 72
    65
 73
     0
 40
0.0
  0
LTYPE
  2
BYLAYER
 70
     0
  3

 72
    65
 73
     0
 40
0.0
  0
LTYPE
  2
CONTINUOUS
 70
     0
  3
Solid line
 72
    65
 73
     0
 40
0.0
  0
LTYPE
  2
BORDER
 70
    64
  3
__ __ . __ __ . __ __ . __ __ . __ __ . __ __ .
 72
    65
 73
     6
 40
1.75
 49
0.5
 49
-0.25
 49
0.5
 49
-0.25
 49
0.0
 49
-0.25
  0
LTYPE
  2
BORDER2
 70
    64
  3
__.__.__.__.__.__.__.__.__.__.__.__.__.__.__.__
 72
    65
 73
     6
 40
0.875
 49
0.25
 49
-0.125
 49
0.25
 49
-0.125
 49
0.0
 49
-0.125
  0
LTYPE
  2
BORDERX2
 70
    64
  3
____  ____  .  ____  ____  .  ____  ____  .  __
 72
    65
 73
     6
 40
3.5
 49
1.0
 49
-0.5
 49
1.0
 49
-0.5
 49
0.0
 49
-0.5
  0
LTYPE
  2
CENTER
 70
    64
  3
____ _ ____ _ ____ _ ____ _ ____ _ ____ _ ____
 72
    65
 73
     4
 40
2.0
 49
1.25
 49
-0.25
 49
0.25
 49
-0.25
  0
LTYPE
  2
CENTER2
 70
    64
  3
___ _ ___ _ ___ _ ___ _ ___ _ ___ _ ___ _ ___ _
 72
    65
 73
     4
 40
1.125
 49
0.75
 49
-0.125
 49
0.125
 49
-0.125
  0
LTYPE
  2
CENTERX2
 70
    64
  3
________  __  ________  __  ________  __  _____
 72
    65
 73
     4
 40
4.0
 49
2.5
 49
-0.5
 49
0.5
 49
-0.5
  0
LTYPE
  2
DASHDOT
 70
    64
  3
__ . __ . __ . __ . __ . __ . __ . __ . __ . __
 72
    65
 73
     4
 40
1.0
 49
0.5
 49
-0.25
 49
0.0
 49
-0.25
  0
LTYPE
  2
DASHDOT2
 70
    64
  3
_._._._._._._._._._._._._._._._._._._._._._._._
 72
    65
 73
     4
 40
0.5
 49
0.25
 49
-0.125
 49
0.0
 49
-0.125
  0
LTYPE
  2
DASHDOTX2
 70
    64
  3
____  .  ____  .  ____  .  ____  .  ____  .  __
 72
    65
 73
     4
 40
2.0
 49
1.0
 49
-0.5
 49
0.0
 49
-0.5
  0
LTYPE
  2
DASHED
 70
    64
  3
__ __ __ __ __ __ __ __ __ __ __ __ __ __ __ __
 72
    65
 73
     2
 40
0.75
 49
0.5
 49
-0.25
  0
LTYPE
  2
DASHED2
 70
    64
  3
_ _ _ _ _ _ _ _ _ _ _ _ _ _ _ _ _ _ _ _ _ _ _ _
 72
    65
 73
     2
 40
0.375
 49
0.25
 49
-0.125
  0
LTYPE
  2
DASHEDX2
 70
    64
  3
____  ____  ____  ____  ____  ____  ____  ____
 72
    65
 73
     2
 40
1.5
 49
1.0
 49
-0.5
  0
LTYPE
  2
DIVIDE
 70
    64
  3
____ . . ____ . . ____ . . ____ . . ____ . . __
 72
    65
 73
     6
 40
1.25
 49
0.5
 49
-0.25
 49
0.0
 49
-0.25
 49
0.0
 49
-0.25
  0
LTYPE
  2
DIVIDE2
 70
    64
  3
__..__..__..__..__..__..__..__..__..__..__..__.
 72
    65
 73
     6
 40
0.625
 49
0.25
 49
-0.125
 49
0.0
 49
-0.125
 49
0.0
 49
-0.125
  0
LTYPE
  2
DIVIDEX2
 70
    64
  3
________  .  .  ________  .  .  ________  .  .
 72
    65
 73
     6
 40
2.5
 49
1.0
 49
-0.5
 49
0.0
 49
-0.5
 49
0.0
 49
-0.5
  0
LTYPE
  2
DOT
 70
    64
  3
. . . . . . . . . . . . . . . . . . . . . . . .
 72
    65
 73
     2
 40
0.25
 49
0.0
 49
-0.25
  0
LTYPE
  2
DOT2
 70
    64
  3
...............................................
 72
    65
 73
     2
 40
0.125
 49
0.0
 49
-0.125
  0
LTYPE
  2
DOTX2
 70
    64
  3
.  .  .  .  .  .  .  .  .  .  .  .  .  .  .  .
 72
    65
 73
     2
 40
0.5
 49
0.0
 49
-0.5
  0
LTYPE
  2
HIDDEN
 70
    64
  3
__ __ __ __ __ __ __ __ __ __ __ __ __ __ __ __
 72
    65
 73
     2
 40
0.375
 49
0.25
 49
-0.125
  0
LTYPE
  2
HIDDEN2
 70
    64
  3
_ _ _ _ _ _ _ _ _ _ _ _ _ _ _ _ _ _ _ _ _ _ _ _
 72
    65
 73
     2
 40
0.1875
 49
0.125
 49
-0.0625
  0
LTYPE
  2
HIDDENX2
 70
    64
  3
____ ____ ____ ____ ____ ____ ____ ____ ____ __
 72
    65
 73
     2
 40
0.75
 49
0.5
 49
-0.25
  0
LTYPE
  2
PHANTOM
 70
    64
  3
______  __  __  ______  __  __  ______  __  __
 72
    65
 73
     6
 40
2.5
 49
1.25
 49
-0.25
 49
0.25
 49
-0.25
 49
0.25
 49
-0.25
  0
LTYPE
  2
PHANTOM2
 70
    64
  3
___ _ _ ___ _ _ ___ _ _ ___ _ _ ___ _ _ ___ _ _
 72
    65
 73
     6
 40
1.25
 49
0.625
 49
-0.125
 49
0.125
 49
-0.125
 49
0.125
 49
-0.125
  0
LTYPE
  2
PHANTOMX2
 70
    64
  3
____________    ____    ____    ____________
 72
    65
 73
     6
 40
5.0
 49
2.5
 49
-0.5
 49
0.5
 49
-0.5
 49
0.5
 49
-0.5
  0
LTYPE
  2
ACAD_ISO02W100
 70
    64
  3
__ __ __ __ __ __ __ __ __ __ __ __ __ __ __ __
 72
    65
 73
     2
 40
15.0
 49
12.0
 49
-3.0
  0
LTYPE
  2
ACAD_ISO03W100
 70
    64
  3
__    __    __    __    __    __    __    __
 72
    65
 73
     2
 40
30.0
 49
12.0
 49
-18.0
  0
LTYPE
  2
ACAD_ISO04W100
 70
    64
  3
____ . ____ . ____ . ____ . ____ . ____ . ____
 72
    65
 73
     4
 40
30.5
 49
24.0
 49
-3.0
 49
0.5
 49
-3.0
  0
LTYPE
  2
ACAD_ISO05W100
 70
    64
  3
____ .. ____ .. ____ .. ____ .. ____ .. ____ ..
 72
    65
 73
     6
 40
34.0
 49
24.0
 49
-3.0
 49
0.5
 49
-3.0
 49
0.5
 49
-3.0
  0
LTYPE
  2
ACAD_ISO06W100
 70
    64
  3
____ ... ____ ... ____ ... ____ ... ____ ... __
 72
    65
 73
     8
 40
37.5
 49
24.0
 49
-3.0
 49
0.5
 49
-3.0
 49
0.5
 49
-3.0
 49
0.5
 49
-3.0
  0
LTYPE
  2
ACAD_ISO07W100
 70
    64
  3
. . . . . . . . . . . . . . . . . . . . . . . .
 72
    65
 73
     2
 40
3.5
 49
0.5
 49
-3.0
  0
LTYPE
  2
ACAD_ISO08W100
 70
    64
  3
____ __ ____ __ ____ __ ____ ____ __ __ ____ __
 72
    65
 73
     4
 40
36.0
 49
24.0
 49
-3.0
 49
6.0
 49
-3.0
  0
LTYPE
  2
ACAD_ISO09W100
 70
    64
  3
____ __ __ ____ __ __ ____ __ __ ____ __ __ ___
 72
    65
 73
     6
 40
45.0
 49
24.0
 49
-3.0
 49
6.0
 49
-3.0
 49
6.0
 49
-3.0
  0
LTYPE
  2
ACAD_ISO10W100
 70
    64
  3
__ . __ . __ . __ . __ . __ . __ . __ . __ . __
 72
    65
 73
     4
 40
18.5
 49
12.0
 49
-3.0
 49
0.5
 49
-3.0
  0
LTYPE
  2
ACAD_ISO11W100
 70
    64
  3
__ __ . __ __ . __ __ . __ __ . __ __ . __ __ .
 72
    65
 73
     6
 40
33.5
 49
12.0
 49
-3.0
 49
12.0
 49
-3.0
 49
0.5
 49
-3.0
  0
LTYPE
  2
ACAD_ISO12W100
 70
    64
  3
__ . . __ . . __ . . __ . . __ . . __ . . __ .
 72
    65
 73
     6
 40
22.0
 49
12.0
 49
-3.0
 49
0.5
 49
-3.0
 49
0.5
 49
-3.0
  0
LTYPE
  2
ACAD_ISO13W100
 70
    64
  3
__ __ . . __ __ . . __ __ . . __ __ . . __ __ .
 72
    65
 73
     8
 40
37.0
 49
12.0
 49
-3.0
 49
12.0
 49
-3.0
 49
0.5
 49
-3.0
 49
0.5
 49
-3.0
  0
LTYPE
  2
ACAD_ISO14W100
 70
    64
  3
__ . . . __ . . . __ . . . __ . . . __ . . . __
 72
    65
 73
     8
 40
25.5
 49
12.0
 49
-3.0
 49
0.5
 49
-3.0
 49
0.5
 49
-3.0
 49
0.5
 49
-3.0
  0
LTYPE
  2
ACAD_ISO15W100
 70
    64
  3
__ __ . . . __ __ . . . __ __ . . . __ __ . . .
 72
    65
 73
    10
 40
40.5
 49
12.0
 49
-3.0
 49
12.0
 49
-3.0
 49
0.5
 49
-3.0
 49
0.5
 49
-3.0
 49
0.5
 49
-3.0
  0
ENDTAB
  0
TABLE
  2
STYLE
 70
     4
  0
STYLE
  2
STANDARD
 70
    64
 40
0.0
 41
1.0
 50
0.0
 71
     0
 42
0.2
  3
txt
  4

  0
STYLE
  2
TOLERANCE
 70
    64
 40
0.0
 41
1.0
 50
0.0
 71
     0
 42
0.2
  3
../igesfont/iges1003.shx
  4

  0
STYLE
  2
ROMANS
 70
    64
 40
0.0
 41
1.0
 50
0.0
 71
     0
 42
0.2
  3
romans.shx
  4

  0
STYLE
  2
ROMANC
 70
    64
 40
0.0
 41
1.0
 50
0.0
 71
     0
 42
0.2
  3
romanc.shx
  4

  0
ENDTAB
  0
TABLE
  2
DIMSTYLE
 70
     2
  0
DIMSTYLE
  2
UNNAMED
 70
     0
  3

  4

  5

  6

  7

 40
1.0
 41
0.18
 42
0.0625
 43
0.38
 44
0.18
 45
0.0
 46
0.0
 47
0.0
 48
0.0
140
0.18
141
0.09
142
0.0
143
25.4
144
1.0
145
0.0
146
1.0
147
0.09
 71
     0
 72
     0
 73
     1
 74
     1
 75
     0
 76
     0
 77
     0
 78
     0
170
     0
171
     2
172
     0
173
     0
174
     0
175
     0
176
     0
177
     0
178
     0
  0
DIMSTYLE
  2
STANDARD
 70
     0
  3

  4

  5

  6

  7

 40
1.0
 41
0.18
 42
0.0625
 43
0.38
 44
0.18
 45
0.0
 46
0.0
 47
0.0
 48
0.0
140
0.18
141
0.09
142
0.0
143
25.4
144
1.0
145
0.0
146
1.0
147
0.09
 71
     0
 72
     0
 73
     1
 74
     1
 75
     0
 76
     0
 77
     0
 78
     0
170
     0
171
     2
172
     0
173
     0
174
     0
175
     0
176
     0
177
     0
178
     0
  0
ENDTAB
  0
TABLE
  2
LAYER
 70
     1
  0
LAYER
  2
0
 70
     0
 62
     7
  6
CONTINUOUS
  0
ENDTAB
  0
ENDSEC
  0
SECTION
  2
BLOCKS
  0
BLOCK
  5
     B
  8
0
  6
CONTINUOUS
 62
     3
  2
*UDIM294
 70
    65
 10
0.0
 20
0.0
 30
0.0
  3
*UDIM294
  0
TEXT
  5
     C
  8
0
  6
CONTINUOUS
 62
     3
 10
-21.9342278053288
 20
-71.5014724691571
 30
0.0
 40
3.00000002980232
  1
12,5
 50
360.0
 41
0.933333333333333
 72
     1
 11
-16.6342277526856
 21
-70.0014724542293
 31
0.0
 73
     2
  0
LINE
  5
     D
  8
0
  6
CONTINUOUS
 62
     3
 10
-8.76380348205567
 20
-81.8210780067186
 30
0.0
 11
-8.76380348205567
 21
-70.5014724691305
 31
0.0
  0
LINE
  5
     E
  8
0
  6
CONTINUOUS
 62
     3
 10
-2.51380348205567
 20
-91.8560028076172
 30
0.0
 11
-2.51380348205567
 21
-70.5014724691305
 31
0.0
  0
LINE
  5
     F
  8
0
  6
CONTINUOUS
 62
     3
 10
-21.9342278053363
 20
-72.5014724691305
 30
0.0
 11
-2.51380348205567
 21
-72.5014724691305
 31
0.0
  0
LINE
  5
    10
  8
0
  6
CONTINUOUS
 62
     3
 10
-11.7182267592626
 20
-73.0224168990821
 30
0.0
 11
-8.76380348205567
 21
-72.5014724691305
 31
0.0
  0
LINE
  5
    11
  8
0
  6
CONTINUOUS
 62
     3
 10
-8.76380348205567
 20
-72.5014724691305
 30
0.0
 11
-11.7182267592626
 21
-71.9805280391788
 31
0.0
  0
LINE
  5
    12
  8
0
  6
CONTINUOUS
 62
     3
 10
0.44061979515129
 20
-71.9805280391788
 30
0.0
 11
-2.51380348205567
 21
-72.5014724691305
 31
0.0
  0
LINE
  5
    13
  8
0
  6
CONTINUOUS
 62
     3
 10
-2.51380348205567
 20
-72.5014724691305
 30
0.0
 11
0.44061979515129
 21
-73.0224168990821
 31
0.0
  0
ENDBLK
  5
    14
  8
0
  6
CONTINUOUS
 62
     3
  0
BLOCK
  5
    15
  8
0
  6
CONTINUOUS
 62
     3
  2
*UDIM295
 70
    65
 10
0.0
 20
0.0
 30
0.0
  3
*UDIM295
  0
TEXT
  5
    16
  8
0
  6
CONTINUOUS
 62
     3
 10
36.9780376962199
 20
-135.631002749004
 30
0.0
 40
3.00000002980232
  1
35
 50
90.0
 41
0.933333333333333
 72
     1
 11
35.4780376813156
 21
-133.131002724171
 31
0.0
 73
     2
  0
LINE
  5
    17
  8
0
  6
CONTINUOUS
 62
     3
 10
8.73619651794434
 20
-124.106002807617
 30
0.0
 11
39.9780376962168
 21
-124.106002807617
 31
0.0
  0
LINE
  5
    18
  8
0
  6
CONTINUOUS
 62
     3
 10
11.2361965179443
 20
-141.606002807617
 30
0.0
 11
39.9780376962168
 21
-141.606002807617
 31
0.0
  0
LINE
  5
    19
  8
0
  6
CONTINUOUS
 62
     3
 10
37.9780376962168
 20
-124.106002807617
 30
0.0
 11
37.9780376962168
 21
-141.606002807617
 31
0.0
  0
LINE
  5
    1A
  8
0
  6
CONTINUOUS
 62
     3
 10
38.4989821261685
 20
-127.060426084824
 30
0.0
 11
37.9780376962168
 21
-124.106002807617
 31
0.0
  0
LINE
  5
    1B
  8
0
  6
CONTINUOUS
 62
     3
 10
37.9780376962168
 20
-124.106002807617
 30
0.0
 11
37.4570932662651
 21
-127.060426084824
 31
0.0
  0
LINE
  5
    1C
  8
0
  6
CONTINUOUS
 62
     3
 10
37.4570932662651
 20
-138.65157953041
 30
0.0
 11
37.9780376962168
 21
-141.606002807617
 31
0.0
  0
LINE
  5
    1D
  8
0
  6
CONTINUOUS
 62
     3
 10
37.9780376962168
 20
-141.606002807617
 30
0.0
 11
38.4989821261685
 21
-138.65157953041
 31
0.0
  0
ENDBLK
  5
    1E
  8
0
  6
CONTINUOUS
 62
     3
  0
BLOCK
  5
    1F
  8
0
  6
CONTINUOUS
 62
     3
  2
*UDIM296
 70
    65
 10
0.0
 20
0.0
 30
0.0
  3
*UDIM296
  0
TEXT
  5
    20
  8
0
  6
CONTINUOUS
 62
     3
 10
-17.7888003052257
 20
-52.1598587036258
 30
0.0
 40
3.00000002980232
  1
75
 50
360.0
 41
0.933333333333333
 72
     1
 11
-15.2888002803979
 21
-50.6598586887121
 31
0.0
 73
     2
  0
LINE
  5
    21
  8
0
  6
CONTINUOUS
 62
     3
 10
-33.7638034820557
 20
-119.106002807617
 30
0.0
 11
-33.7637821526413
 21
-51.1598587036134
 31
0.0
  0
LINE
  5
    22
  8
0
  6
CONTINUOUS
 62
     3
 10
3.73619651794433
 20
-119.106002807617
 30
0.0
 11
3.73621784735874
 21
-51.1598587036134
 31
0.0
  0
LINE
  5
    23
  8
0
  6
CONTINUOUS
 62
     3
 10
-33.7637827804742
 20
-53.1598587036133
 30
0.0
 11
3.73621721952578
 21
-53.1598587036133
 31
0.0
  0
LINE
  5
    24
  8
0
  6
CONTINUOUS
 62
     3
 10
-30.8093595032673
 20
-52.6389142736616
 30
0.0
 11
-33.7637827804742
 21
-53.1598587036133
 31
0.0
  0
LINE
  5
    25
  8
0
  6
CONTINUOUS
 62
     3
 10
-33.7637827804742
 20
-53.1598587036133
 30
0.0
 11
-30.8093595032673
 21
-53.680803133565
 31
0.0
  0
LINE
  5
    26
  8
0
  6
CONTINUOUS
 62
     3
 10
0.781793942318821
 20
-53.680803133565
 30
0.0
 11
3.73621721952578
 21
-53.1598587036133
 31
0.0
  0
LINE
  5
    27
  8
0
  6
CONTINUOUS
 62
     3
 10
3.73621721952578
 20
-53.1598587036133
 30
0.0
 11
0.781793942318821
 21
-52.6389142736616
 31
0.0
  0
ENDBLK
  5
    28
  8
0
  6
CONTINUOUS
 62
     3
  0
BLOCK
  5
    29
  8
0
  6
CONTINUOUS
 62
     3
  2
*UDIM297
 70
    65
 10
0.0
 20
0.0
 30
0.0
  3
*UDIM297
  0
TEXT
  5
    2A
  8
0
  6
CONTINUOUS
 62
     3
 10
-17.7887993514232
 20
-59.8463058471805
 30
0.0
 40
3.00000002980232
  1
50
 50
360.0
 41
0.933333333333333
 72
     1
 11
-15.2887993265955
 21
-58.3463058322668
 31
0.0
 73
     2
  0
LINE
  5
    2B
  8
0
  6
CONTINUOUS
 62
     3
 10
-27.5138034820557
 20
-91.8560028076172
 30
0.0
 11
-27.5137931197678
 21
-58.8463058471681
 31
0.0
  0
LINE
  5
    2C
  8
0
  6
CONTINUOUS
 62
     3
 10
-2.51380348205567
 20
-91.8560028076172
 30
0.0
 11
-2.51379311976778
 21
-58.8463058471681
 31
0.0
  0
LINE
  5
    2D
  8
0
  6
CONTINUOUS
 62
     3
 10
-27.5137937476007
 20
-60.846305847168
 30
0.0
 11
-2.51379374760075
 21
-60.846305847168
 31
0.0
  0
LINE
  5
    2E
  8
0
  6
CONTINUOUS
 62
     3
 10
-24.5593704703938
 20
-60.3253614172163
 30
0.0
 11
-27.5137937476007
 21
-60.846305847168
 31
0.0
  0
LINE
  5
    2F
  8
0
  6
CONTINUOUS
 62
     3
 10
-27.5137937476007
 20
-60.846305847168
 30
0.0
 11
-24.5593704703938
 21
-61.3672502771196
 31
0.0
  0
LINE
  5
    30
  8
0
  6
CONTINUOUS
 62
     3
 10
-5.46821702480771
 20
-61.3672502771196
 30
0.0
 11
-2.51379374760075
 21
-60.846305847168
 31
0.0
  0
LINE
  5
    31
  8
0
  6
CONTINUOUS
 62
     3
 10
-2.51379374760075
 20
-60.846305847168
 30
0.0
 11
-5.46821702480771
 21
-60.3253614172163
 31
0.0
  0
ENDBLK
  5
    32
  8
0
  6
CONTINUOUS
 62
     3
  0
BLOCK
  5
    33
  8
0
  6
CONTINUOUS
 62
     3
  2
*UDIM298
 70
    65
 10
0.0
 20
0.0
 30
0.0
  3
*UDIM298
  0
TEXT
  5
    34
  8
0
  6
CONTINUOUS
 62
     3
 10
4.39895739059407
 20
-103.260478973415
 30
0.0
 40
3.00000002980232
  1
12,5
 50
360.0
 41
0.933333333333333
 72
     1
 11
9.6989574432373
 21
-101.760478958488
 31
0.0
 73
     2
  0
LINE
  5
    35
  8
0
  6
CONTINUOUS
 62
     3
 10
-2.51380348205567
 20
-101.856002807617
 30
0.0
 11
-2.51380348205567
 21
-106.260478973389
 31
0.0
  0
LINE
  5
    36
  8
0
  6
CONTINUOUS
 62
     3
 10
3.73619651794433
 20
-119.106002807617
 30
0.0
 11
3.73619651794433
 21
-102.260478973389
 31
0.0
  0
LINE
  5
    37
  8
0
  6
CONTINUOUS
 62
     3
 10
-2.51380348205567
 20
-104.260478973389
 30
0.0
 11
14.9989574958881
 21
-104.260478973389
 31
0.0
  0
LINE
  5
    38
  8
0
  6
CONTINUOUS
 62
     3
 10
-5.46822675926264
 20
-104.78142340334
 30
0.0
 11
-2.51380348205567
 21
-104.260478973389
 31
0.0
  0
LINE
  5
    39
  8
0
  6
CONTINUOUS
 62
     3
 10
-2.51380348205567
 20
-104.260478973389
 30
0.0
 11
-5.46822675926264
 21
-103.739534543437
 31
0.0
  0
LINE
  5
    3A
  8
0
  6
CONTINUOUS
 62
     3
 10
6.6906197951513
 20
-103.739534543437
 30
0.0
 11
3.73619651794433
 21
-104.260478973389
 31
0.0
  0
LINE
  5
    3B
  8
0
  6
CONTINUOUS
 62
     3
 10
3.73619651794433
 20
-104.260478973389
 30
0.0
 11
6.6906197951513
 21
-104.78142340334
 31
0.0
  0
ENDBLK
  5
    3C
  8
0
  6
CONTINUOUS
 62
     3
  0
BLOCK
  5
    3D
  8
0
  6
CONTINUOUS
 62
     3
  2
*UDIM299
 70
    65
 10
0.0
 20
0.0
 30
0.0
  3
*UDIM299
  0
TEXT
  5
    3E
  8
0
  6
CONTINUOUS
 62
     3
 10
-1.6787338256787
 20
-135.906004372237
 30
0.0
 40
3.00000002980232
  1
5,5
 50
90.0
 41
0.933333333333333
 72
     1
 11
-3.17873384058475
 21
-132.006004333496
 31
0.0
 73
     2
  0
LINE
  5
    3F
  8
0
  6
CONTINUOUS
 62
     3
 10
1.23619651794434
 20
-141.606002807617
 30
0.0
 11
-2.67873382568359
 21
-141.606002807617
 31
0.0
  0
LINE
  5
    40
  8
0
  6
CONTINUOUS
 62
     3
 10
-0.678733825683594
 20
-128.106004294753
 30
0.0
 11
-0.678733825683594
 21
-141.606002807617
 31
0.0
  0
LINE
  5
    41
  8
0
  6
CONTINUOUS
 62
     3
 10
-1.19967825563526
 20
-135.90157953041
 30
0.0
 11
-0.678733825683594
 21
-138.856002807617
 31
0.0
  0
LINE
  5
    42
  8
0
  6
CONTINUOUS
 62
     3
 10
-0.678733825683594
 20
-138.856002807617
 30
0.0
 11
-0.15778939573193
 21
-135.90157953041
 31
0.0
  0
LINE
  5
    43
  8
0
  6
CONTINUOUS
 62
     3
 10
-0.15778939573193
 20
-144.560426084824
 30
0.0
 11
-0.678733825683594
 21
-141.606002807617
 31
0.0
  0
LINE
  5
    44
  8
0
  6
CONTINUOUS
 62
     3
 10
-0.678733825683594
 20
-141.606002807617
 30
0.0
 11
-1.19967825563526
 21
-144.560426084824
 31
0.0
  0
ENDBLK
  5
    45
  8
0
  6
CONTINUOUS
 62
     3
  0
BLOCK
  5
    46
  8
0
  6
CONTINUOUS
 62
     3
  2
*UDIM300
 70
    65
 10
0.0
 20
0.0
 30
0.0
  3
*UDIM300
  0
TEXT
  5
    47
  8
0
  6
CONTINUOUS
 62
     3
 10
-74.3868618011443
 20
-120.63100179533
 30
0.0
 40
3.00000002980232
  1
84
 50
90.0
 41
0.933333333333333
 72
     1
 11
-75.8868618160486
 21
-118.131001770496
 31
0.0
 73
     2
  0
LINE
  5
    48
  8
0
  6
CONTINUOUS
 62
     3
 10
-7.51380348205566
 20
-96.8560028076172
 30
0.0
 11
-75.3868618011475
 21
-96.8560028076172
 31
0.0
  0
LINE
  5
    49
  8
0
  6
CONTINUOUS
 62
     3
 10
-42.550709232422
 20
-138.856002807617
 30
0.0
 11
-75.3868618011475
 21
-138.856002807617
 31
0.0
  0
LINE
  5
    4A
  8
0
  6
CONTINUOUS
 62
     3
 10
-73.3868618011475
 20
-96.8560028076172
 30
0.0
 11
-73.3868618011475
 21
-138.856002807617
 31
0.0
  0
LINE
  5
    4B
  8
0
  6
CONTINUOUS
 62
     3
 10
-72.8659173711958
 20
-99.8104260848242
 30
0.0
 11
-73.3868618011475
 21
-96.8560028076172
 31
0.0
  0
LINE
  5
    4C
  8
0
  6
CONTINUOUS
 62
     3
 10
-73.3868618011475
 20
-96.8560028076172
 30
0.0
 11
-73.9078062310991
 21
-99.8104260848242
 31
0.0
  0
LINE
  5
    4D
  8
0
  6
CONTINUOUS
 62
     3
 10
-73.9078062310991
 20
-135.90157953041
 30
0.0
 11
-73.3868618011475
 21
-138.856002807617
 31
0.0
  0
LINE
  5
    4E
  8
0
  6
CONTINUOUS
 62
     3
 10
-73.3868618011475
 20
-138.856002807617
 30
0.0
 11
-72.8659173711958
 21
-135.90157953041
 31
0.0
  0
ENDBLK
  5
    4F
  8
0
  6
CONTINUOUS
 62
     3
  0
BLOCK
  5
    50
  8
0
  6
CONTINUOUS
 62
     3
  2
*UDIM301
 70
    65
 10
0.0
 20
0.0
 30
0.0
  3
*UDIM301
  0
TEXT
  5
    51
  8
0
  6
CONTINUOUS
 62
     3
 10
-85.0624790191601
 20
-137.031004193423
 30
0.0
 40
3.00000002980232
  1
144
 50
90.0
 41
0.933333333333333
 72
     1
 11
-86.5624790340662
 21
-133.131004154682
 31
0.0
 73
     2
  0
LINE
  5
    52
  8
0
  6
CONTINUOUS
 62
     3
 10
-7.51380348205566
 20
-96.8560028076172
 30
0.0
 11
-86.062479019165
 21
-96.8560028076172
 31
0.0
  0
LINE
  5
    53
  8
0
  6
CONTINUOUS
 62
     3
 10
-6.26380348205566
 20
-168.856002807617
 30
0.0
 11
-86.062479019165
 21
-168.856002807617
 31
0.0
  0
LINE
  5
    54
  8
0
  6
CONTINUOUS
 62
     3
 10
-84.062479019165
 20
-96.8560028076172
 30
0.0
 11
-84.062479019165
 21
-168.856002807617
 31
0.0
  0
LINE
  5
    55
  8
0
  6
CONTINUOUS
 62
     3
 10
-83.5415345892134
 20
-99.8104260848242
 30
0.0
 11
-84.062479019165
 21
-96.8560028076172
 31
0.0
  0
LINE
  5
    56
  8
0
  6
CONTINUOUS
 62
     3
 10
-84.062479019165
 20
-96.8560028076172
 30
0.0
 11
-84.5834234491167
 21
-99.8104260848242
 31
0.0
  0
LINE
  5
    57
  8
0
  6
CONTINUOUS
 62
     3
 10
-84.5834234491167
 20
-165.90157953041
 30
0.0
 11
-84.062479019165
 21
-168.856002807617
 31
0.0
  0
LINE
  5
    58
  8
0
  6
CONTINUOUS
 62
     3
 10
-84.062479019165
 20
-168.856002807617
 30
0.0
 11
-83.5415345892134
 21
-165.90157953041
 31
0.0
  0
ENDBLK
  5
    59
  8
0
  6
CONTINUOUS
 62
     3
  0
BLOCK
  5
    5A
  8
0
  6
CONTINUOUS
 62
     7
  2
*UDIM302
 70
    65
 10
0.0
 20
0.0
 30
0.0
  3
*UDIM302
  0
TEXT
  5
    5B
  8
0
  6
CONTINUOUS
 62
     7
 10
21.0084902781555
 20
-71.8087673584836
 30
0.0
 40
3.00000002980232
  1
4.5
 50
45.1306175473105
 41
0.933333333333333
 72
     1
 11
22.696837390377
 21
-67.986531837803
 31
0.0
 73
     2
  0
TEXT
  5
    5C
  8
0
  6
CONTINUOUS
 62
     7
 10
18.1865184595746
 20
-74.6436351320409
 30
0.0
 40
3.00000002980232
  1
Ø
 50
45.1306175473105
 41
1.2
 72
     1
 11
18.1816824764443
 21
-72.5223202797207
 31
0.0
 73
     2
  0
TEXT
  5
    5D
  8
0
  6
CONTINUOUS
 62
     7
 10
10.0028001723787
 20
-82.8647516887388
 30
0.0
 40
3.00000002980232
  1
M4 o
 50
45.1306175473105
 41
0.933333333333333
 72
     1
 11
12.6788374235556
 21
-78.0503124448481
 31
0.0
 73
     2
  0
LINE
  5
    5E
  8
0
  6
CONTINUOUS
 62
     7
 10
-2.51380348205567
 20
-96.8560028076172
 30
0.0
 11
27.2200522761594
 21
-66.9862681357034
 31
0.0
  0
LINE
  5
    5F
  8
0
  6
CONTINUOUS
 62
     3
 10
-0.314237294889796
 20
-93.5457968420166
 30
0.0
 11
-1.80831053266705
 21
-96.147285869508
 31
0.0
  0
LINE
  5
    60
  8
0
  6
CONTINUOUS
 62
     3
 10
-1.80831053266705
 20
-96.147285869508
 30
0.0
 11
0.786339382050121
 21
-94.6413669407279
 31
0.0
  0
ENDBLK
  5
    61
  8
0
  6
CONTINUOUS
 62
     7
  0
BLOCK
  5
    62
  8
0
  6
CONTINUOUS
 62
     7
  2
*UDIM303
 70
    65
 10
0.0
 20
0.0
 30
0.0
  3
*UDIM303
  0
TEXT
  5
    63
  8
0
  6
CONTINUOUS
 62
     7
 10
45.0822208527973
 20
-141.297059083976
 30
0.0
 40
3.00000002980232
  1
60
 50
90.0
 41
0.933333333333333
 72
     1
 11
43.582220837893
 21
-138.797059059143
 31
0.0
 73
     2
  0
TEXT
  5
    64
  8
0
  6
CONTINUOUS
 62
     7
 10
45.0822208528008
 20
-135.297059034306
 30
0.0
 40
3.00000002980232
  1
 MAX
 50
90.0
 41
0.933333333333333
 72
     1
 11
43.582220837893
 21
-129.997058981657
 31
0.0
 73
     2
  0
LINE
  5
    65
  8
0
  6
CONTINUOUS
 62
     7
 10
20.8558729897454
 20
-117.856002807617
 30
0.0
 11
48.0822208527942
 21
-117.856002807617
 31
0.0
  0
LINE
  5
    66
  8
0
  6
CONTINUOUS
 62
     7
 10
20.8558729897454
 20
-147.856002807617
 30
0.0
 11
48.0822208527942
 21
-147.856002807617
 31
0.0
  0
LINE
  5
    67
  8
0
  6
CONTINUOUS
 62
     7
 10
46.0822208527942
 20
-117.856002807617
 30
0.0
 11
46.0822208527942
 21
-147.856002807617
 31
0.0
  0
LINE
  5
    68
  8
0
  6
CONTINUOUS
 62
     3
 10
46.8586780092127
 20
-120.753780280828
 30
0.0
 11
46.0822208527942
 21
-117.856002807617
 31
0.0
  0
LINE
  5
    69
  8
0
  6
CONTINUOUS
 62
     3
 10
46.0822208527942
 20
-117.856002807617
 30
0.0
 11
45.3057636963756
 21
-120.753780280828
 31
0.0
  0
LINE
  5
    6A
  8
0
  6
CONTINUOUS
 62
     3
 10
45.3057636963756
 20
-144.958225334407
 30
0.0
 11
46.0822208527942
 21
-147.856002807617
 31
0.0
  0
LINE
  5
    6B
  8
0
  6
CONTINUOUS
 62
     3
 10
46.0822208527942
 20
-147.856002807617
 30
0.0
 11
46.8586780092127
 21
-144.958225334407
 31
0.0
  0
ENDBLK
  5
    6C
  8
0
  6
CONTINUOUS
 62
     7
  0
BLOCK
  5
    6D
  8
0
  6
CONTINUOUS
 62
     3
  2
*UDIM304
 70
    65
 10
0.0
 20
0.0
 30
0.0
  3
*UDIM304
  0
TEXT
  5
    6E
  8
0
  6
CONTINUOUS
 62
     3
 10
55.3273735001195
 20
-119.786269513497
 30
0.0
 40
3.00000002980232
  1
25
 50
449.999999896069
 41
0.933333333333333
 72
     1
 11
53.8273734897375
 21
-117.28626948595
 31
0.0
 73
     2
  0
LINE
  5
    6F
  8
0
  6
CONTINUOUS
 62
     3
 10
64.8292120963979
 20
-110.761268615723
 30
0.0
 11
54.3273735046387
 21
-110.761268615723
 31
0.0
  0
LINE
  5
    70
  8
0
  6
CONTINUOUS
 62
     3
 10
64.8292120963979
 20
-123.261268615723
 30
0.0
 11
54.3273735046387
 21
-123.261268615723
 31
0.0
  0
LINE
  5
    71
  8
0
  6
CONTINUOUS
 62
     3
 10
56.3273735046387
 20
-110.761268615723
 30
0.0
 11
56.3273735046387
 21
-123.261268615723
 31
0.0
  0
LINE
  5
    72
  8
0
  6
CONTINUOUS
 62
     3
 10
56.8483179345903
 20
-113.71569189293
 30
0.0
 11
56.3273735046387
 21
-110.761268615723
 31
0.0
  0
LINE
  5
    73
  8
0
  6
CONTINUOUS
 62
     3
 10
56.3273735046387
 20
-110.761268615723
 30
0.0
 11
55.806429074687
 21
-113.71569189293
 31
0.0
  0
LINE
  5
    74
  8
0
  6
CONTINUOUS
 62
     3
 10
55.806429074687
 20
-120.306845338516
 30
0.0
 11
56.3273735046387
 21
-123.261268615723
 31
0.0
  0
LINE
  5
    75
  8
0
  6
CONTINUOUS
 62
     3
 10
56.3273735046387
 20
-123.261268615723
 30
0.0
 11
56.8483179345903
 21
-120.306845338516
 31
0.0
  0
ENDBLK
  5
    76
  8
0
  6
CONTINUOUS
 62
     3
  0
BLOCK
  5
    77
  8
0
  6
CONTINUOUS
 62
     7
  2
*UDIM305
 70
    65
 10
0.0
 20
0.0
 30
0.0
  3
*UDIM305
  0
TEXT
  5
    78
  8
0
  6
CONTINUOUS
 62
     7
 10
55.3273735001195
 20
-94.7862685598229
 30
0.0
 40
3.00000002980232
  1
25
 50
449.999999896069
 41
0.933333333333333
 72
     1
 11
53.8273734897375
 21
-92.2862685322762
 31
0.0
 73
     2
  0
LINE
  5
    79
  8
0
  6
CONTINUOUS
 62
     3
 10
63.8292120963979
 20
-85.7612686157227
 30
0.0
 11
54.3273735046387
 21
-85.7612686157227
 31
0.0
  0
LINE
  5
    7A
  8
0
  6
CONTINUOUS
 62
     3
 10
60.7725424452419
 20
-98.2612686157227
 30
0.0
 11
54.3273735046387
 21
-98.2612686157227
 31
0.0
  0
LINE
  5
    7B
  8
0
  6
CONTINUOUS
 62
     3
 10
56.3273735046387
 20
-85.7612686157227
 30
0.0
 11
56.3273735046387
 21
-98.2612686157227
 31
0.0
  0
LINE
  5
    7C
  8
0
  6
CONTINUOUS
 62
     3
 10
56.8483179345903
 20
-88.7156918929296
 30
0.0
 11
56.3273735046387
 21
-85.7612686157227
 31
0.0
  0
LINE
  5
    7D
  8
0
  6
CONTINUOUS
 62
     3
 10
56.3273735046387
 20
-85.7612686157227
 30
0.0
 11
55.806429074687
 21
-88.7156918929296
 31
0.0
  0
LINE
  5
    7E
  8
0
  6
CONTINUOUS
 62
     3
 10
55.806429074687
 20
-95.3068453385157
 30
0.0
 11
56.3273735046387
 21
-98.2612686157227
 31
0.0
  0
LINE
  5
    7F
  8
0
  6
CONTINUOUS
 62
     3
 10
56.3273735046387
 20
-98.2612686157227
 30
0.0
 11
56.8483179345903
 21
-95.3068453385157
 31
0.0
  0
ENDBLK
  5
    80
  8
0
  6
CONTINUOUS
 62
     7
  0
BLOCK
  5
    81
  8
0
  6
CONTINUOUS
 62
     7
  2
*UDIM306
 70
    65
 10
0.0
 20
0.0
 30
0.0
  3
*UDIM306
  0
TEXT
  5
    82
  8
0
  6
CONTINUOUS
 62
     7
 10
55.3273735001195
 20
-107.286267606149
 30
0.0
 40
3.00000002980232
  1
25
 50
449.999999896069
 41
0.933333333333333
 72
     1
 11
53.8273734897375
 21
-104.786267578602
 31
0.0
 73
     2
  0
LINE
  5
    83
  8
0
  6
CONTINUOUS
 62
     3
 10
63.8292120963979
 20
-110.761268615723
 30
0.0
 11
54.3273735046387
 21
-110.761268615723
 31
0.0
  0
LINE
  5
    84
  8
0
  6
CONTINUOUS
 62
     3
 10
56.3273735046387
 20
-98.2612686157227
 30
0.0
 11
56.3273735046387
 21
-110.761268615723
 31
0.0
  0
LINE
  5
    85
  8
0
  6
CONTINUOUS
 62
     3
 10
56.8483179345903
 20
-101.21569189293
 30
0.0
 11
56.3273735046387
 21
-98.2612686157227
 31
0.0
  0
LINE
  5
    86
  8
0
  6
CONTINUOUS
 62
     3
 10
56.3273735046387
 20
-98.2612686157227
 30
0.0
 11
55.806429074687
 21
-101.21569189293
 31
0.0
  0
LINE
  5
    87
  8
0
  6
CONTINUOUS
 62
     3
 10
55.806429074687
 20
-107.806845338516
 30
0.0
 11
56.3273735046387
 21
-110.761268615723
 31
0.0
  0
LINE
  5
    88
  8
0
  6
CONTINUOUS
 62
     3
 10
56.3273735046387
 20
-110.761268615723
 30
0.0
 11
56.8483179345903
 21
-107.806845338516
 31
0.0
  0
ENDBLK
  5
    89
  8
0
  6
CONTINUOUS
 62
     7
  0
BLOCK
  5
    8A
  8
0
  6
CONTINUOUS
 62
     3
  2
*UDIM307
 70
    65
 10
0.0
 20
0.0
 30
0.0
  3
*UDIM307
  0
TEXT
  5
    8B
  8
0
  6
CONTINUOUS
 62
     3
 10
278.602757734916
 20
-2.33896691600293
 30
0.0
 40
2.99999994039535
  1
53
 50
90.0
 41
0.933333333333333
 72
     1
 11
277.102757764716
 21
0.161033034324646
 31
0.0
 73
     2
  0
LINE
  5
    8C
  8
0
  6
CONTINUOUS
 62
     3
 10
257.841416537762
 20
16.3360338807106
 30
0.0
 11
281.602757734913
 21
16.3360338807106
 31
0.0
  0
LINE
  5
    8D
  8
0
  6
CONTINUOUS
 62
     3
 10
257.841416537762
 20
-15.4639673829079
 30
0.0
 11
281.602757734913
 21
-15.4639673829079
 31
0.0
  0
LINE
  5
    8E
  8
0
  6
CONTINUOUS
 62
     3
 10
279.602757734913
 20
16.3360338807106
 30
0.0
 11
279.602757734913
 21
-15.4639673829079
 31
0.0
  0
LINE
  5
    8F
  8
0
  6
CONTINUOUS
 62
     3
 10
280.123702164865
 20
13.3816106035036
 30
0.0
 11
279.602757734913
 21
16.3360338807106
 31
0.0
  0
LINE
  5
    90
  8
0
  6
CONTINUOUS
 62
     3
 10
279.602757734913
 20
16.3360338807106
 30
0.0
 11
279.081813304962
 21
13.3816106035036
 31
0.0
  0
LINE
  5
    91
  8
0
  6
CONTINUOUS
 62
     3
 10
279.081813304962
 20
-12.5095441057009
 30
0.0
 11
279.602757734913
 21
-15.4639673829079
 31
0.0
  0
LINE
  5
    92
  8
0
  6
CONTINUOUS
 62
     3
 10
279.602757734913
 20
-15.4639673829079
 30
0.0
 11
280.123702164865
 21
-12.5095441057009
 31
0.0
  0
ENDBLK
  5
    93
  8
0
  6
CONTINUOUS
 62
     3
  0
BLOCK
  5
    94
  8
0
  6
CONTINUOUS
 62
     3
  2
*UDIM308
 70
    65
 10
0.0
 20
0.0
 30
0.0
  3
*UDIM308
  0
TEXT
  5
    95
  8
0
  6
CONTINUOUS
 62
     3
 10
243.066415896026
 20
31.2999687617468
 30
0.0
 40
2.99999994039535
  1
43
 50
360.0
 41
0.933333333333333
 72
     1
 11
245.566415846348
 21
32.799968731957
 31
0.0
 73
     2
  0
LINE
  5
    96
  8
0
  6
CONTINUOUS
 62
     3
 10
232.941415548325
 20
21.2845855538373
 30
0.0
 11
232.941415548325
 21
32.2999687617594
 31
0.0
  0
LINE
  5
    97
  8
0
  6
CONTINUOUS
 62
     3
 10
258.741416573524
 20
15.4360338449478
 30
0.0
 11
258.741416573524
 21
32.2999687617594
 31
0.0
  0
LINE
  5
    98
  8
0
  6
CONTINUOUS
 62
     3
 10
232.941415548325
 20
30.2999687617594
 30
0.0
 11
258.741416573524
 21
30.2999687617594
 31
0.0
  0
LINE
  5
    99
  8
0
  6
CONTINUOUS
 62
     3
 10
235.895838825532
 20
30.820913191711
 30
0.0
 11
232.941415548325
 21
30.2999687617594
 31
0.0
  0
LINE
  5
    9A
  8
0
  6
CONTINUOUS
 62
     3
 10
232.941415548325
 20
30.2999687617594
 30
0.0
 11
235.895838825532
 21
29.7790243318077
 31
0.0
  0
LINE
  5
    9B
  8
0
  6
CONTINUOUS
 62
     3
 10
255.786993296318
 20
29.7790243318077
 30
0.0
 11
258.741416573524
 21
30.2999687617594
 31
0.0
  0
LINE
  5
    9C
  8
0
  6
CONTINUOUS
 62
     3
 10
258.741416573524
 20
30.2999687617594
 30
0.0
 11
255.786993296318
 21
30.820913191711
 31
0.0
  0
ENDBLK
  5
    9D
  8
0
  6
CONTINUOUS
 62
     3
  0
BLOCK
  5
    9E
  8
0
  6
CONTINUOUS
 62
     3
  2
*UDIM309
 70
    65
 10
0.0
 20
0.0
 30
0.0
  3
*UDIM309
  0
TEXT
  5
    9F
  8
0
  6
CONTINUOUS
 62
     3
 10
221.266418421276
 20
-4.18563445497198
 30
0.0
 40
2.99999994039535
  1
111
 50
360.0
 41
0.933333333333333
 72
     1
 11
225.166418343782
 21
-2.6856344847547
 31
0.0
 73
     2
  0
LINE
  5
    A0
  8
0
  6
CONTINUOUS
 62
     3
 10
192.141413927078
 20
-5.18563445495238
 30
0.0
 11
258.741416573524
 21
-5.18563445495238
 31
0.0
  0
LINE
  5
    A1
  8
0
  6
CONTINUOUS
 62
     3
 10
195.095837204285
 20
-4.66469002500072
 30
0.0
 11
192.141413927078
 21
-5.18563445495238
 31
0.0
  0
LINE
  5
    A2
  8
0
  6
CONTINUOUS
 62
     3
 10
192.141413927078
 20
-5.18563445495238
 30
0.0
 11
195.095837204285
 21
-5.70657888490404
 31
0.0
  0
LINE
  5
    A3
  8
0
  6
CONTINUOUS
 62
     3
 10
255.786993296318
 20
-5.70657888490404
 30
0.0
 11
258.741416573524
 21
-5.18563445495238
 31
0.0
  0
LINE
  5
    A4
  8
0
  6
CONTINUOUS
 62
     3
 10
258.741416573524
 20
-5.18563445495238
 30
0.0
 11
255.786993296318
 21
-4.66469002500071
 31
0.0
  0
ENDBLK
  5
    A5
  8
0
  6
CONTINUOUS
 62
     3
  0
BLOCK
  5
    A6
  8
0
  6
CONTINUOUS
 62
     3
  2
*UDIM310
 70
    65
 10
0.0
 20
0.0
 30
0.0
  3
*UDIM310
  0
TEXT
  5
    A7
  8
0
  6
CONTINUOUS
 62
     3
 10
200.615406590465
 20
28.6016368711063
 30
0.0
 40
2.99999994039535
  1
4
 50
44.8180796134209
 41
0.933333333333333
 72
     1
 11
200.338402667598
 21
30.441003253649
 31
0.0
 73
     2
  0
TEXT
  5
    A8
  8
0
  6
CONTINUOUS
 62
     3
 10
198.6646987643
 20
26.6632773021345
 30
0.0
 40
2.99999994039535
  1
Ø
 50
44.8180796134209
 41
0.933333333333333
 72
     1
 11
198.387694841434
 21
28.5026436846773
 31
0.0
 73
     2
  0
LINE
  5
    A9
  8
0
  6
CONTINUOUS
 62
     3
 10
202.880831018963
 20
29.4429762594829
 30
0.0
 11
192.160195902128
 21
18.7902042833577
 31
0.0
  0
LINE
  5
    AA
  8
0
  6
CONTINUOUS
 62
     3
 10
195.591155421891
 20
22.9338439305294
 30
0.0
 11
193.86263202117
 21
20.481863740324
 31
0.0
  0
LINE
  5
    AB
  8
0
  6
CONTINUOUS
 62
     3
 10
193.86263202117
 20
20.481863740324
 30
0.0
 11
196.325539202277
 21
22.1947817819274
 31
0.0
  0
LINE
  5
    AC
  8
0
  6
CONTINUOUS
 62
     3
 10
190.431672501407
 20
16.3382240931522
 30
0.0
 11
192.160195902128
 21
18.7902042833577
 31
0.0
  0
LINE
  5
    AD
  8
0
  6
CONTINUOUS
 62
     3
 10
192.160195902128
 20
18.7902042833577
 30
0.0
 11
189.69728872102
 21
17.0772862417543
 31
0.0
  0
ENDBLK
  5
    AE
  8
0
  6
CONTINUOUS
 62
     3
  0
BLOCK
  5
    AF
  8
0
  6
CONTINUOUS
 62
     3
  2
*UDIM311
 70
    65
 10
0.0
 20
0.0
 30
0.0
  3
*UDIM311
  0
TEXT
  5
    B0
  8
0
  6
CONTINUOUS
 62
     3
 10
177.632569396148
 20
-2.33896691600293
 30
0.0
 40
2.99999994039535
  1
64
 50
90.0
 41
0.933333333333333
 72
     1
 11
176.132569425947
 21
0.161033034324646
 31
0.0
 73
     2
  0
LINE
  5
    B1
  8
0
  6
CONTINUOUS
 62
     3
 10
187.611413747072
 20
19.6360340118408
 30
0.0
 11
176.632569396144
 21
19.6360340118408
 31
0.0
  0
LINE
  5
    B2
  8
0
  6
CONTINUOUS
 62
     3
 10
187.611413747072
 20
-18.7639675140381
 30
0.0
 11
176.632569396144
 21
-18.7639675140381
 31
0.0
  0
LINE
  5
    B3
  8
0
  6
CONTINUOUS
 62
     3
 10
178.632569396144
 20
19.6360340118408
 30
0.0
 11
178.632569396144
 21
-18.7639675140381
 31
0.0
  0
LINE
  5
    B4
  8
0
  6
CONTINUOUS
 62
     3
 10
179.153513826096
 20
16.6816107346339
 30
0.0
 11
178.632569396144
 21
19.6360340118408
 31
0.0
  0
LINE
  5
    B5
  8
0
  6
CONTINUOUS
 62
     3
 10
178.632569396144
 20
19.6360340118408
 30
0.0
 11
178.111624966193
 21
16.6816107346339
 31
0.0
  0
LINE
  5
    B6
  8
0
  6
CONTINUOUS
 62
     3
 10
178.111624966193
 20
-15.8095442368311
 30
0.0
 11
178.632569396144
 21
-18.7639675140381
 31
0.0
  0
LINE
  5
    B7
  8
0
  6
CONTINUOUS
 62
     3
 10
178.632569396144
 20
-18.7639675140381
 30
0.0
 11
179.153513826096
 21
-15.8095442368311
 31
0.0
  0
ENDBLK
  5
    B8
  8
0
  6
CONTINUOUS
 62
     3
  0
BLOCK
  5
    B9
  8
0
  6
CONTINUOUS
 62
     3
  2
*UDIM312
 70
    65
 10
0.0
 20
0.0
 30
0.0
  3
*UDIM312
  0
TEXT
  5
    BA
  8
0
  6
CONTINUOUS
 62
     3
 10
218.586416335908
 20
-41.7388235082508
 30
0.0
 40
2.99999994039535
  1
108,5
 50
360.0
 41
0.933333333333333
 72
     1
 11
225.286416202784
 21
-40.2388235380195
 31
0.0
 73
     2
  0
LINE
  5
    BB
  8
0
  6
CONTINUOUS
 62
     3
 10
193.011413961649
 20
-24.1639677286148
 30
0.0
 11
193.011413961649
 21
-44.7388235082171
 31
0.0
  0
LINE
  5
    BC
  8
0
  6
CONTINUOUS
 62
     3
 10
258.111416548491
 20
-24.1639677286148
 30
0.0
 11
258.111416548491
 21
-44.7388235082171
 31
0.0
  0
LINE
  5
    BD
  8
0
  6
CONTINUOUS
 62
     3
 10
193.011413961649
 20
-42.7388235082171
 30
0.0
 11
258.111416548491
 21
-42.7388235082171
 31
0.0
  0
LINE
  5
    BE
  8
0
  6
CONTINUOUS
 62
     3
 10
195.965837238856
 20
-42.2178790782655
 30
0.0
 11
193.011413961649
 21
-42.7388235082171
 31
0.0
  0
LINE
  5
    BF
  8
0
  6
CONTINUOUS
 62
     3
 10
193.011413961649
 20
-42.7388235082171
 30
0.0
 11
195.965837238856
 21
-43.2597679381688
 31
0.0
  0
LINE
  5
    C0
  8
0
  6
CONTINUOUS
 62
     3
 10
255.156993271284
 20
-43.2597679381688
 30
0.0
 11
258.111416548491
 21
-42.7388235082171
 31
0.0
  0
LINE
  5
    C1
  8
0
  6
CONTINUOUS
 62
     3
 10
258.111416548491
 20
-42.7388235082171
 30
0.0
 11
255.156993271284
 21
-42.2178790782655
 31
0.0
  0
ENDBLK
  5
    C2
  8
0
  6
CONTINUOUS
 62
     3
  0
BLOCK
  5
    C3
  8
0
  6
CONTINUOUS
 62
     3
  2
*UDIM313
 70
    65
 10
0.0
 20
0.0
 30
0.0
  3
*UDIM313
  0
TEXT
  5
    C4
  8
0
  6
CONTINUOUS
 62
     3
 10
243.303883110491
 20
-29.8141228695898
 30
0.0
 40
2.99999994039535
  1
42
 50
360.0
 41
0.933333333333333
 72
     1
 11
245.803883060813
 21
-28.3141228993795
 31
0.0
 73
     2
  0
LINE
  5
    C5
  8
0
  6
CONTINUOUS
 62
     3
 10
232.941415548325
 20
-20.3656948037159
 30
0.0
 11
232.941415548325
 21
-32.8141228695772
 31
0.0
  0
LINE
  5
    C6
  8
0
  6
CONTINUOUS
 62
     3
 10
258.111416548491
 20
-24.1639677286148
 30
0.0
 11
258.111416548491
 21
-32.8141228695772
 31
0.0
  0
LINE
  5
    C7
  8
0
  6
CONTINUOUS
 62
     3
 10
232.941415548325
 20
-30.8141228695772
 30
0.0
 11
258.111416548491
 21
-30.8141228695772
 31
0.0
  0
LINE
  5
    C8
  8
0
  6
CONTINUOUS
 62
     3
 10
235.895838825532
 20
-30.2931784396255
 30
0.0
 11
232.941415548325
 21
-30.8141228695772
 31
0.0
  0
LINE
  5
    C9
  8
0
  6
CONTINUOUS
 62
     3
 10
232.941415548325
 20
-30.8141228695772
 30
0.0
 11
235.895838825532
 21
-31.3350672995289
 31
0.0
  0
LINE
  5
    CA
  8
0
  6
CONTINUOUS
 62
     3
 10
255.156993271284
 20
-31.3350672995289
 30
0.0
 11
258.111416548491
 21
-30.8141228695772
 31
0.0
  0
LINE
  5
    CB
  8
0
  6
CONTINUOUS
 62
     3
 10
258.111416548491
 20
-30.8141228695772
 30
0.0
 11
255.156993271284
 21
-30.2931784396255
 31
0.0
  0
ENDBLK
  5
    CC
  8
0
  6
CONTINUOUS
 62
     3
  0
BLOCK
  5
    CD
  8
0
  6
CONTINUOUS
 62
     7
  2
*UDIM314
 70
    65
 10
0.0
 20
0.0
 30
0.0
  3
*UDIM314
  0
TEXT
  5
    CE
  8
0
  6
CONTINUOUS
 62
     7
 10
249.224669010505
 20
7.16792296567254
 30
0.0
 40
2.99999994039535
  1
1.5
 50
48.6206171365348
 41
0.933333333333333
 72
     1
 11
250.67720893238
 21
11.0858467885104
 31
0.0
 73
     2
  0
TEXT
  5
    CF
  8
0
  6
CONTINUOUS
 62
     7
 10
246.580501430456
 20
4.16652706846375
 30
0.0
 40
2.99999994039535
  1
R
 50
48.6206171365348
 41
1.2
 72
     1
 11
246.446540812184
 21
6.28361336191951
 31
0.0
 73
     2
  0
LINE
  5
    D0
  8
0
  6
CONTINUOUS
 62
     7
 10
258.436354275778
 20
16.1113479587175
 30
0.0
 11
247.330850415938
 21
3.50548516360148
 31
0.0
  0
LINE
  5
    D1
  8
0
  6
CONTINUOUS
 62
     3
 10
257.103415774611
 20
13.4237328538141
 30
0.0
 11
258.436354275778
 21
16.1113479587175
 31
0.0
  0
LINE
  5
    D2
  8
0
  6
CONTINUOUS
 62
     3
 10
258.436354275778
 20
16.1113479587175
 30
0.0
 11
255.93818809543
 21
14.4502742892597
 31
0.0
  0
ENDBLK
  5
    D3
  8
0
  6
CONTINUOUS
 62
     7
  0
BLOCK
  5
    D4
  8
0
  6
CONTINUOUS
 62
     3
  2
*UDIM315
 70
    65
 10
0.0
 20
0.0
 30
0.0
  3
*UDIM315
  0
TEXT
  5
    D5
  8
0
  6
CONTINUOUS
 62
     3
 10
-18.9138717085047
 20
71.4371016574733
 30
0.0
 40
3.00000002980232
  1
116
 50
360.0
 41
0.933333333333333
 72
     1
 11
-15.0138716697693
 21
72.9371016723941
 31
0.0
 73
     2
  0
LINE
  5
    D6
  8
0
  6
CONTINUOUS
 62
     3
 10
-44.0138716697693
 20
24.8110694885254
 30
0.0
 11
-44.0138716697693
 21
72.4371016574929
 31
0.0
  0
LINE
  5
    D7
  8
0
  6
CONTINUOUS
 62
     3
 10
13.9861283302307
 20
24.8110694885254
 30
0.0
 11
13.9861283302307
 21
72.4371016574929
 31
0.0
  0
LINE
  5
    D8
  8
0
  6
CONTINUOUS
 62
     3
 10
-44.0138716697693
 20
70.4371016574929
 30
0.0
 11
13.9861283302307
 21
70.4371016574929
 31
0.0
  0
LINE
  5
    D9
  8
0
  6
CONTINUOUS
 62
     3
 10
-41.1160941965587
 20
71.2135588139114
 30
0.0
 11
-44.0138716697693
 21
70.4371016574929
 31
0.0
  0
LINE
  5
    DA
  8
0
  6
CONTINUOUS
 62
     3
 10
-44.0138716697693
 20
70.4371016574929
 30
0.0
 11
-41.1160941965587
 21
69.6606445010744
 31
0.0
  0
LINE
  5
    DB
  8
0
  6
CONTINUOUS
 62
     3
 10
11.0883508570202
 20
69.6606445010744
 30
0.0
 11
13.9861283302307
 21
70.4371016574929
 31
0.0
  0
LINE
  5
    DC
  8
0
  6
CONTINUOUS
 62
     3
 10
13.9861283302307
 20
70.4371016574929
 30
0.0
 11
11.0883508570202
 21
71.2135588139114
 31
0.0
  0
ENDBLK
  5
    DD
  8
0
  6
CONTINUOUS
 62
     3
  0
BLOCK
  5
    DE
  8
0
  6
CONTINUOUS
 62
     3
  2
*UDIM316
 70
    65
 10
0.0
 20
0.0
 30
0.0
  3
*UDIM316
  0
TEXT
  5
    DF
  8
0
  6
CONTINUOUS
 62
     3
 10
-18.9138212782044
 20
64.0998195152955
 30
0.0
 40
3.00000002980232
  1
103
 50
360.0
 41
0.933333333333333
 72
     1
 11
-15.0138212394689
 21
65.5998195302162
 31
0.0
 73
     2
  0
LINE
  5
    E0
  8
0
  6
CONTINUOUS
 62
     3
 10
-40.7638108542146
 20
48.1860218048108
 30
0.0
 11
-40.7638116650959
 21
65.0998195153151
 31
0.0
  0
LINE
  5
    E1
  8
0
  6
CONTINUOUS
 62
     3
 10
10.7361730585044
 20
48.1860218048108
 30
0.0
 11
10.7361685581184
 21
65.099819515315
 31
0.0
  0
LINE
  5
    E2
  8
0
  6
CONTINUOUS
 62
     3
 10
-40.7638115692119
 20
63.0998195153151
 30
0.0
 11
10.736169090274
 21
63.0998195153151
 31
0.0
  0
LINE
  5
    E3
  8
0
  6
CONTINUOUS
 62
     3
 10
-37.8660340960013
 20
63.8762766717336
 30
0.0
 11
-40.7638115692119
 21
63.0998195153151
 31
0.0
  0
LINE
  5
    E4
  8
0
  6
CONTINUOUS
 62
     3
 10
-40.7638115692119
 20
63.0998195153151
 30
0.0
 11
-37.8660340960013
 21
62.3233623588965
 31
0.0
  0
LINE
  5
    E5
  8
0
  6
CONTINUOUS
 62
     3
 10
7.83839161706349
 20
62.3233623588965
 30
0.0
 11
10.736169090274
 21
63.0998195153151
 31
0.0
  0
LINE
  5
    E6
  8
0
  6
CONTINUOUS
 62
     3
 10
10.736169090274
 20
63.0998195153151
 30
0.0
 11
7.83839161706349
 21
63.8762766717336
 31
0.0
  0
ENDBLK
  5
    E7
  8
0
  6
CONTINUOUS
 62
     3
  0
BLOCK
  5
    E8
  8
0
  6
CONTINUOUS
 62
     3
  2
*UDIM317
 70
    65
 10
0.0
 20
0.0
 30
0.0
  3
*UDIM317
  0
TEXT
  5
    E9
  8
0
  6
CONTINUOUS
 62
     3
 10
-1.51381773285908
 20
56.9464803794745
 30
0.0
 40
3.00000002980232
  1
39
 50
360.0
 41
0.933333333333333
 72
     1
 11
0.98618229196865
 21
58.4464803943883
 31
0.0
 73
     2
  0
LINE
  5
    EA
  8
0
  6
CONTINUOUS
 62
     3
 10
10.7361727655122
 20
48.1860218048106
 30
0.0
 11
10.7361673087321
 21
57.9464803794868
 31
0.0
  0
LINE
  5
    EB
  8
0
  6
CONTINUOUS
 62
     3
 10
-8.76380384293493
 20
55.9464803794871
 30
0.0
 11
10.7361684268722
 21
55.9464803794871
 31
0.0
  0
LINE
  5
    EC
  8
0
  6
CONTINUOUS
 62
     3
 10
-5.86602636972439
 20
56.7229375359056
 30
0.0
 11
-8.76380384293493
 21
55.9464803794871
 31
0.0
  0
LINE
  5
    ED
  8
0
  6
CONTINUOUS
 62
     3
 10
-8.76380384293493
 20
55.9464803794871
 30
0.0
 11
-5.86602636972439
 21
55.1700232230686
 31
0.0
  0
LINE
  5
    EE
  8
0
  6
CONTINUOUS
 62
     3
 10
7.83839095366169
 20
55.1700232230686
 30
0.0
 11
10.7361684268722
 21
55.9464803794871
 31
0.0
  0
LINE
  5
    EF
  8
0
  6
CONTINUOUS
 62
     3
 10
10.7361684268722
 20
55.9464803794871
 30
0.0
 11
7.83839095366169
 21
56.7229375359056
 31
0.0
  0
ENDBLK
  5
    F0
  8
0
  6
CONTINUOUS
 62
     3
  0
BLOCK
  5
    F1
  8
0
  6
CONTINUOUS
 62
     3
  2
*UDIM318
 70
    65
 10
0.0
 20
0.0
 30
0.0
  3
*UDIM318
  0
TEXT
  5
    F2
  8
0
  6
CONTINUOUS
 62
     3
 10
-56.0201514956094
 20
1.75849554439574
 30
0.0
 40
3.00000002980232
  1
96
 50
90.0
 41
0.933333333333333
 72
     1
 11
-57.5201515105137
 21
4.25849556922913
 31
0.0
 73
     2
  0
LINE
  5
    F3
  8
0
  6
CONTINUOUS
 62
     3
 10
-44.3888716697693
 20
24.4360694885254
 30
0.0
 11
-57.0201514956125
 21
24.4360694885254
 31
0.0
  0
LINE
  5
    F4
  8
0
  6
CONTINUOUS
 62
     3
 10
-44.3888716697693
 20
-23.5639305114746
 30
0.0
 11
-57.0201514956125
 21
-23.5639305114746
 31
0.0
  0
LINE
  5
    F5
  8
0
  6
CONTINUOUS
 62
     3
 10
-55.0201514956125
 20
24.4360694885254
 30
0.0
 11
-55.0201514956125
 21
-23.5639305114746
 31
0.0
  0
LINE
  5
    F6
  8
0
  6
CONTINUOUS
 62
     3
 10
-54.243694339194
 20
21.5382920153149
 30
0.0
 11
-55.0201514956125
 21
24.4360694885254
 31
0.0
  0
LINE
  5
    F7
  8
0
  6
CONTINUOUS
 62
     3
 10
-55.0201514956125
 20
24.4360694885254
 30
0.0
 11
-55.7966086520311
 21
21.5382920153149
 31
0.0
  0
LINE
  5
    F8
  8
0
  6
CONTINUOUS
 62
     3
 10
-55.7966086520311
 20
-20.6661530382641
 30
0.0
 11
-55.0201514956125
 21
-23.5639305114746
 31
0.0
  0
LINE
  5
    F9
  8
0
  6
CONTINUOUS
 62
     3
 10
-55.0201514956125
 20
-23.5639305114746
 30
0.0
 11
-54.243694339194
 21
-20.6661530382641
 31
0.0
  0
ENDBLK
  5
    FA
  8
0
  6
CONTINUOUS
 62
     3
  0
BLOCK
  5
    FB
  8
0
  6
CONTINUOUS
 62
     3
  2
*UDIM319
 70
    65
 10
0.0
 20
0.0
 30
0.0
  3
*UDIM319
  0
TEXT
  5
    FC
  8
0
  6
CONTINUOUS
 62
     3
 10
-72.6465554584535
 20
2.26102423370194
 30
0.0
 40
3.00000002980232
  1
163
 50
90.0
 41
0.933333333333333
 72
     1
 11
-74.1465554733596
 21
6.16102427244307
 31
0.0
 73
     2
  0
LINE
  5
    FD
  8
0
  6
CONTINUOUS
 62
     3
 10
-40.7638108062726
 20
47.1860218048108
 30
0.0
 11
-73.6465554584584
 21
47.1860218048108
 31
0.0
  0
LINE
  5
    FE
  8
0
  6
CONTINUOUS
 62
     3
 10
-40.7637983703621
 20
-34.3139781951892
 30
0.0
 11
-73.6465554584584
 21
-34.3139781951892
 31
0.0
  0
LINE
  5
    FF
  8
0
  6
CONTINUOUS
 62
     3
 10
-71.6465554584584
 20
47.1860218048108
 30
0.0
 11
-71.6465554584584
 21
-34.3139781951892
 31
0.0
  0
LINE
  5
   100
  8
0
  6
CONTINUOUS
 62
     3
 10
-71.1256110285067
 20
44.2315985276038
 30
0.0
 11
-71.6465554584584
 21
47.1860218048108
 31
0.0
  0
LINE
  5
   101
  8
0
  6
CONTINUOUS
 62
     3
 10
-71.6465554584584
 20
47.1860218048108
 30
0.0
 11
-72.1674998884101
 21
44.2315985276038
 31
0.0
  0
LINE
  5
   102
  8
0
  6
CONTINUOUS
 62
     3
 10
-72.1674998884101
 20
-31.3595549179823
 30
0.0
 11
-71.6465554584584
 21
-34.3139781951892
 31
0.0
  0
LINE
  5
   103
  8
0
  6
CONTINUOUS
 62
     3
 10
-71.6465554584584
 20
-34.3139781951892
 30
0.0
 11
-71.1256110285067
 21
-31.3595549179823
 31
0.0
  0
ENDBLK
  5
   104
  8
0
  6
CONTINUOUS
 62
     3
  0
BLOCK
  5
   105
  8
0
  6
CONTINUOUS
 62
     7
  2
*UDIM320
 70
    65
 10
0.0
 20
0.0
 30
0.0
  3
*UDIM320
  0
TEXT
  5
   106
  8
0
  6
CONTINUOUS
 62
     7
 10
20.1986221075072
 20
4.96103323797321
 30
0.0
 40
3.00000002980232
  1
=
 50
90.0
 41
0.933333333333334
 72
     1
 11
18.6986220926046
 21
6.06103324889884
 31
0.0
 73
     2
  0
LINE
  5
   107
  8
0
  6
CONTINUOUS
 62
     3
 10
11.736167907715
 20
11.6860332488988
 30
0.0
 11
23.1986221075058
 21
11.6860332488988
 31
0.0
  0
LINE
  5
   108
  8
0
  6
CONTINUOUS
 62
     3
 10
18.7348562937622
 20
0.436033248898845
 30
0.0
 11
23.1986221075058
 21
0.436033248898845
 31
0.0
  0
LINE
  5
   109
  8
0
  6
CONTINUOUS
 62
     3
 10
21.1986221075058
 20
11.6860332488988
 30
0.0
 11
21.1986221075058
 21
0.436033248898845
 31
0.0
  0
LINE
  5
   10A
  8
0
  6
CONTINUOUS
 62
     3
 10
21.7195665374575
 20
8.73160997169188
 30
0.0
 11
21.1986221075058
 21
11.6860332488988
 31
0.0
  0
LINE
  5
   10B
  8
0
  6
CONTINUOUS
 62
     3
 10
21.1986221075058
 20
11.6860332488988
 30
0.0
 11
20.6776776775541
 21
8.73160997169188
 31
0.0
  0
LINE
  5
   10C
  8
0
  6
CONTINUOUS
 62
     3
 10
20.6776776775541
 20
3.39045652610581
 30
0.0
 11
21.1986221075058
 21
0.436033248898845
 31
0.0
  0
LINE
  5
   10D
  8
0
  6
CONTINUOUS
 62
     3
 10
21.1986221075058
 20
0.436033248898845
 30
0.0
 11
21.7195665374575
 21
3.39045652610581
 31
0.0
  0
ENDBLK
  5
   10E
  8
0
  6
CONTINUOUS
 62
     7
  0
BLOCK
  5
   10F
  8
0
  6
CONTINUOUS
 62
     7
  2
*UDIM321
 70
    65
 10
0.0
 20
0.0
 30
0.0
  3
*UDIM321
  0
TEXT
  5
   110
  8
0
  6
CONTINUOUS
 62
     7
 10
20.1986221075072
 20
-6.28896676202382
 30
0.0
 40
3.00000002980232
  1
=
 50
90.0
 41
0.933333333333334
 72
     1
 11
18.6986220926046
 21
-5.18896675109819
 31
0.0
 73
     2
  0
LINE
  5
   111
  8
0
  6
CONTINUOUS
 62
     3
 10
11.7361644744882
 20
-10.8139667510952
 30
0.0
 11
23.1986221075058
 21
-10.8139667510952
 31
0.0
  0
LINE
  5
   112
  8
0
  6
CONTINUOUS
 62
     3
 10
21.1986221075058
 20
0.436033248898845
 30
0.0
 11
21.1986221075058
 21
-10.8139667510952
 31
0.0
  0
LINE
  5
   113
  8
0
  6
CONTINUOUS
 62
     3
 10
21.7195665374575
 20
-2.51839002830812
 30
0.0
 11
21.1986221075058
 21
0.436033248898845
 31
0.0
  0
LINE
  5
   114
  8
0
  6
CONTINUOUS
 62
     3
 10
21.1986221075058
 20
0.436033248898845
 30
0.0
 11
20.6776776775541
 21
-2.51839002830812
 31
0.0
  0
LINE
  5
   115
  8
0
  6
CONTINUOUS
 62
     3
 10
20.6776776775541
 20
-7.85954347388825
 30
0.0
 11
21.1986221075058
 21
-10.8139667510952
 31
0.0
  0
LINE
  5
   116
  8
0
  6
CONTINUOUS
 62
     3
 10
21.1986221075058
 20
-10.8139667510952
 30
0.0
 11
21.7195665374575
 21
-7.85954347388825
 31
0.0
  0
ENDBLK
  5
   117
  8
0
  6
CONTINUOUS
 62
     7
  0
BLOCK
  5
   118
  8
0
  6
CONTINUOUS
 62
     7
  2
*UDIM322
 70
    65
 10
0.0
 20
0.0
 30
0.0
  3
*UDIM322
  0
TEXT
  5
   119
  8
0
  6
CONTINUOUS
 62
     7
 10
-64.2362724459032
 20
-19.4389724979786
 30
0.0
 40
3.00000002980232
  1
70
 50
90.0
 41
0.933333333333333
 72
     1
 11
-65.7362724608075
 21
-16.9389724731452
 31
0.0
 73
     2
  0
LINE
  5
   11A
  8
0
  6
CONTINUOUS
 62
     7
 10
-49.2526916633099
 20
0.436033248898845
 30
0.0
 11
-65.2362724459064
 21
0.436033248898845
 31
0.0
  0
LINE
  5
   11B
  8
0
  6
CONTINUOUS
 62
     7
 10
-41.7637983703621
 20
-34.3139781951892
 30
0.0
 11
-65.2362724459064
 21
-34.3139781951892
 31
0.0
  0
LINE
  5
   11C
  8
0
  6
CONTINUOUS
 62
     7
 10
-63.2362724459064
 20
0.436033248898845
 30
0.0
 11
-63.2362724459064
 21
-34.3139781951892
 31
0.0
  0
LINE
  5
   11D
  8
0
  6
CONTINUOUS
 62
     3
 10
-62.4598152894878
 20
-2.46174422431169
 30
0.0
 11
-63.2362724459064
 21
0.436033248898845
 31
0.0
  0
LINE
  5
   11E
  8
0
  6
CONTINUOUS
 62
     3
 10
-63.2362724459064
 20
0.436033248898845
 30
0.0
 11
-64.0127296023249
 21
-2.46174422431169
 31
0.0
  0
LINE
  5
   11F
  8
0
  6
CONTINUOUS
 62
     3
 10
-64.0127296023249
 20
-31.4162007219787
 30
0.0
 11
-63.2362724459064
 21
-34.3139781951892
 31
0.0
  0
LINE
  5
   120
  8
0
  6
CONTINUOUS
 62
     3
 10
-63.2362724459064
 20
-34.3139781951892
 30
0.0
 11
-62.4598152894878
 21
-31.4162007219787
 31
0.0
  0
ENDBLK
  5
   121
  8
0
  6
CONTINUOUS
 62
     7
  0
BLOCK
  5
   122
  8
0
  6
CONTINUOUS
 62
     2
  2
*HATCH123
 70
    65
 10
0.0
 20
0.0
 30
0.0
  3
*HATCH123
  0
LINE
  5
   123
  8
0
  6
CONTINUOUS
 62
   210
 10
-27.8999786376953
 20
102.146270751953
 30
0.0
 11
-26.0535907745361
 21
100.299880981445
 31
0.0
  0
LINE
  5
   124
  8
0
  6
CONTINUOUS
 62
   210
 10
-25.9322681427002
 20
102.299880981445
 30
0.0
 11
-23.9322719573975
 21
100.299880981445
 31
0.0
  0
LINE
  5
   125
  8
0
  6
CONTINUOUS
 62
   210
 10
-23.8109493255615
 20
102.299880981445
 30
0.0
 11
-19.8999786376953
 21
98.3889083862305
 31
0.0
  0
ENDBLK
  5
   126
  8
0
  6
CONTINUOUS
 62
     2
  0
BLOCK
  5
   127
  8
0
  6
CONTINUOUS
 62
     2
  2
*HATCH124
 70
    65
 10
0.0
 20
0.0
 30
0.0
  3
*HATCH124
  0
LINE
  5
   128
  8
0
  6
CONTINUOUS
 62
   210
 10
-27.8999786376953
 20
83.0543746948242
 30
0.0
 11
-25.8999805450439
 21
81.0543746948242
 31
0.0
  0
LINE
  5
   129
  8
0
  6
CONTINUOUS
 62
   210
 10
-25.9028415679932
 20
85.2998809814453
 30
0.0
 11
-23.9028453826904
 21
83.2998809814453
 31
0.0
  0
LINE
  5
   12A
  8
0
  6
CONTINUOUS
 62
   210
 10
-24.8999786376953
 20
88.5396575927734
 30
0.0
 11
-23.6602020263672
 21
87.2998809814453
 31
0.0
  0
LINE
  5
   12B
  8
0
  6
CONTINUOUS
 62
   210
 10
-23.0388813018799
 20
88.7998809814453
 30
0.0
 11
-19.8999786376953
 21
85.6609725952148
 31
0.0
  0
ENDBLK
  5
   12C
  8
0
  6
CONTINUOUS
 62
     2
  0
BLOCK
  5
   12D
  8
0
  6
CONTINUOUS
 62
     2
  2
*HATCH125
 70
    65
 10
0.0
 20
0.0
 30
0.0
  3
*HATCH125
  0
LINE
  5
   12E
  8
0
  6
CONTINUOUS
 62
     3
 10
-45.3999786376953
 20
96.6653060913086
 30
0.0
 11
-43.4211235046387
 21
94.6864547729492
 31
0.0
  0
LINE
  5
   12F
  8
0
  6
CONTINUOUS
 62
     3
 10
-44.9132308959961
 20
98.2998809814453
 30
0.0
 11
-43.3999786376953
 21
96.7866287231445
 31
0.0
  0
ENDBLK
  5
   130
  8
0
  6
CONTINUOUS
 62
     2
  0
BLOCK
  5
   131
  8
0
  6
CONTINUOUS
 62
     2
  2
*HATCH126
 70
    65
 10
0.0
 20
0.0
 30
0.0
  3
*HATCH126
  0
LINE
  5
   132
  8
0
  6
CONTINUOUS
 62
     3
 10
-45.3999786376953
 20
88.1800231933594
 30
0.0
 11
-43.5198364257813
 21
86.2998809814453
 31
0.0
  0
LINE
  5
   133
  8
0
  6
CONTINUOUS
 62
     3
 10
-45.0119476318359
 20
89.9133071899414
 30
0.0
 11
-43.3999786376953
 21
88.3013381958008
 31
0.0
  0
ENDBLK
  5
   134
  8
0
  6
CONTINUOUS
 62
     2
  0
BLOCK
  5
   135
  8
0
  6
CONTINUOUS
 62
     2
  2
*HATCH127
 70
    65
 10
0.0
 20
0.0
 30
0.0
  3
*HATCH127
  0
LINE
  5
   136
  8
0
  6
CONTINUOUS
 62
     7
 10
-41.9499015808105
 20
102.299880981445
 30
0.0
 11
-45.9499015808106
 21
98.2998809814453
 31
0.0
  0
LINE
  5
   137
  8
0
  6
CONTINUOUS
 62
     7
 10
-33.4646186828613
 20
102.299880981445
 30
0.0
 11
-37.4646186828613
 21
98.2998809814453
 31
0.0
  0
LINE
  5
   138
  8
0
  6
CONTINUOUS
 62
     7
 10
-27.8999786376953
 20
99.3792419433594
 30
0.0
 11
-28.9793376922607
 21
98.2998809814453
 31
0.0
  0
ENDBLK
  5
   139
  8
0
  6
CONTINUOUS
 62
     2
  0
BLOCK
  5
   13A
  8
0
  6
CONTINUOUS
 62
     2
  2
*HATCH128
 70
    65
 10
0.0
 20
0.0
 30
0.0
  3
*HATCH128
  0
LINE
  5
   13B
  8
0
  6
CONTINUOUS
 62
    52
 10
49.0999908447266
 20
55.4639472961426
 30
0.0
 11
46.0999908447266
 21
52.4639472961426
 31
0.0
  0
LINE
  5
   13C
  8
0
  6
CONTINUOUS
 62
    52
 10
49.0999908447266
 20
51.2213096618652
 30
0.0
 11
46.0999908447266
 21
48.2213096618652
 31
0.0
  0
LINE
  5
   13D
  8
0
  6
CONTINUOUS
 62
    52
 10
49.0999908447266
 20
46.9786720275879
 30
0.0
 11
46.0999908447266
 21
43.9786720275879
 31
0.0
  0
LINE
  5
   13E
  8
0
  6
CONTINUOUS
 62
    52
 10
49.0999908447266
 20
42.7360343933105
 30
0.0
 11
46.0999908447266
 21
39.7360343933105
 31
0.0
  0
LINE
  5
   13F
  8
0
  6
CONTINUOUS
 62
    52
 10
49.0999908447266
 20
38.4933967590332
 30
0.0
 11
46.0999908447266
 21
35.4933967590332
 31
0.0
  0
LINE
  5
   140
  8
0
  6
CONTINUOUS
 62
    52
 10
46.0278282165527
 20
33.2999038696289
 30
0.0
 11
44.5999908447266
 21
31.8720664978027
 31
0.0
  0
LINE
  5
   141
  8
0
  6
CONTINUOUS
 62
    52
 10
49.0999908447266
 20
32.1294250488281
 30
0.0
 11
48.7704696655273
 21
31.7999038696289
 31
0.0
  0
ENDBLK
  5
   142
  8
0
  6
CONTINUOUS
 62
     2
  0
BLOCK
  5
   143
  8
0
  6
CONTINUOUS
 62
     2
  2
*HATCH129
 70
    65
 10
0.0
 20
0.0
 30
0.0
  3
*HATCH129
  0
LINE
  5
   144
  8
0
  6
CONTINUOUS
 62
    52
 10
48.4395141601563
 20
-15.2000961303711
 30
0.0
 11
46.0999908447266
 21
-17.5396213531494
 31
0.0
  0
LINE
  5
   145
  8
0
  6
CONTINUOUS
 62
    52
 10
49.0999908447266
 20
-18.7822608947754
 30
0.0
 11
46.0999908447266
 21
-21.7822608947754
 31
0.0
  0
LINE
  5
   146
  8
0
  6
CONTINUOUS
 62
    52
 10
49.0999908447266
 20
-23.02490234375
 30
0.0
 11
46.0999908447266
 21
-26.02490234375
 31
0.0
  0
LINE
  5
   147
  8
0
  6
CONTINUOUS
 62
    52
 10
49.0999908447266
 20
-27.2675437927246
 30
0.0
 11
46.0999908447266
 21
-30.2675437927246
 31
0.0
  0
LINE
  5
   148
  8
0
  6
CONTINUOUS
 62
    52
 10
49.0999908447266
 20
-31.5101852416992
 30
0.0
 11
46.0999908447266
 21
-34.510181427002
 31
0.0
  0
LINE
  5
   149
  8
0
  6
CONTINUOUS
 62
    52
 10
49.0999908447266
 20
-35.7528228759766
 30
0.0
 11
46.0999908447266
 21
-38.7528190612793
 31
0.0
  0
ENDBLK
  5
   14A
  8
0
  6
CONTINUOUS
 62
     2
  0
BLOCK
  5
   14B
  8
0
  6
CONTINUOUS
 62
     2
  2
*HATCH130
 70
    65
 10
0.0
 20
0.0
 30
0.0
  3
*HATCH130
  0
LINE
  5
   14C
  8
0
  6
CONTINUOUS
 62
     7
 10
54.753532409668
 20
151.485717773438
 30
0.0
 11
52.903263092041
 21
149.635452270508
 31
0.0
  0
LINE
  5
   14D
  8
0
  6
CONTINUOUS
 62
     7
 10
55.4813919067383
 20
151.365051269531
 30
0.0
 11
52.9931335449219
 21
148.87678527832
 31
0.0
  0
LINE
  5
   14E
  8
0
  6
CONTINUOUS
 62
     7
 10
56.0293045043945
 20
151.064422607422
 30
0.0
 11
53.2689437866211
 21
148.304061889648
 31
0.0
  0
LINE
  5
   14F
  8
0
  6
CONTINUOUS
 62
     7
 10
56.4662017822266
 20
150.652801513672
 30
0.0
 11
53.7264099121094
 21
147.913009643555
 31
0.0
  0
LINE
  5
   150
  8
0
  6
CONTINUOUS
 62
     7
 10
56.7420120239258
 20
150.080078125
 30
0.0
 11
54.297248840332
 21
147.635314941406
 31
0.0
  0
LINE
  5
   151
  8
0
  6
CONTINUOUS
 62
     7
 10
56.8029747009277
 20
149.292526245117
 30
0.0
 11
55.0679321289063
 21
147.557479858398
 31
0.0
  0
ENDBLK
  5
   152
  8
0
  6
CONTINUOUS
 62
     2
  0
BLOCK
  5
   153
  8
0
  6
CONTINUOUS
 62
     2
  2
*HATCH131
 70
    65
 10
0.0
 20
0.0
 30
0.0
  3
*HATCH131
  0
LINE
  5
   154
  8
0
  6
CONTINUOUS
 62
     7
 10
-35.4948959350586
 20
158.393753051758
 30
0.0
 11
-37.1968574523926
 21
156.691787719727
 31
0.0
  0
LINE
  5
   155
  8
0
  6
CONTINUOUS
 62
     7
 10
-34.7119178771973
 20
158.328201293945
 30
0.0
 11
-37.1441917419434
 21
155.895919799805
 31
0.0
  0
LINE
  5
   156
  8
0
  6
CONTINUOUS
 62
     7
 10
-34.1344947814941
 20
158.057098388672
 30
0.0
 11
-36.8683815002441
 21
155.323196411133
 31
0.0
  0
LINE
  5
   157
  8
0
  6
CONTINUOUS
 62
     7
 10
-33.6711196899414
 20
157.671936035156
 30
0.0
 11
-36.4373893737793
 21
154.905670166016
 31
0.0
  0
LINE
  5
   158
  8
0
  6
CONTINUOUS
 62
     7
 10
-33.3953132629395
 20
157.099212646484
 30
0.0
 11
-35.8960609436035
 21
154.59846496582
 31
0.0
  0
LINE
  5
   159
  8
0
  6
CONTINUOUS
 62
     7
 10
-33.2971458435059
 20
156.348861694336
 30
0.0
 11
-35.1804962158203
 21
154.46549987793
 31
0.0
  0
ENDBLK
  5
   15A
  8
0
  6
CONTINUOUS
 62
     2
  0
BLOCK
  5
   15B
  8
0
  6
CONTINUOUS
 62
     3
  2
*UDIM323
 70
    65
 10
0.0
 20
0.0
 30
0.0
  3
*UDIM323
  0
TEXT
  5
   15C
  8
0
  6
CONTINUOUS
 62
     3
 10
160.241662991325
 20
2.26102232635209
 30
0.0
 40
3.00000002980232
  1
124
 50
90.0
 41
0.933333333333333
 72
     1
 11
158.741662976419
 21
6.16102236509322
 31
0.0
 73
     2
  0
LINE
  5
   15D
  8
0
  6
CONTINUOUS
 62
     3
 10
126.656997799873
 20
-24.5639820098877
 30
0.0
 11
163.24166299132
 21
-24.5639820098877
 31
0.0
  0
LINE
  5
   15E
  8
0
  6
CONTINUOUS
 62
     3
 10
126.656997799873
 20
37.4360256195068
 30
0.0
 11
163.24166299132
 21
37.4360256195068
 31
0.0
  0
LINE
  5
   15F
  8
0
  6
CONTINUOUS
 62
     3
 10
161.24166299132
 20
-24.5639820098877
 30
0.0
 11
161.24166299132
 21
37.4360256195068
 31
0.0
  0
LINE
  5
   160
  8
0
  6
CONTINUOUS
 62
     3
 10
160.720718561368
 20
-21.6095587326807
 30
0.0
 11
161.24166299132
 21
-24.5639820098877
 31
0.0
  0
LINE
  5
   161
  8
0
  6
CONTINUOUS
 62
     3
 10
161.24166299132
 20
-24.5639820098877
 30
0.0
 11
161.762607421272
 21
-21.6095587326807
 31
0.0
  0
LINE
  5
   162
  8
0
  6
CONTINUOUS
 62
     3
 10
161.762607421272
 20
34.4816023422999
 30
0.0
 11
161.24166299132
 21
37.4360256195068
 31
0.0
  0
LINE
  5
   163
  8
0
  6
CONTINUOUS
 62
     3
 10
161.24166299132
 20
37.4360256195068
 30
0.0
 11
160.720718561368
 21
34.4816023422999
 31
0.0
  0
ENDBLK
  5
   164
  8
0
  6
CONTINUOUS
 62
     3
  0
BLOCK
  5
   165
  8
0
  6
CONTINUOUS
 62
     3
  2
*UDIM324
 70
    65
 10
0.0
 20
0.0
 30
0.0
  3
*UDIM324
  0
TEXT
  5
   166
  8
0
  6
CONTINUOUS
 62
     3
 10
70.8090831538041
 20
67.5179367190984
 30
0.0
 40
3.00000002980232
  1
28
 41
0.933333333333333
 72
     1
 11
73.3090831786394
 21
69.0179367339996
 31
0.0
 73
     2
  0
LINE
  5
   167
  8
0
  6
CONTINUOUS
 62
     3
 10
66.1570124626158
 20
50.6807605172001
 30
0.0
 11
66.1570124626158
 21
68.5179367190984
 31
0.0
  0
LINE
  5
   168
  8
0
  6
CONTINUOUS
 62
     3
 10
80.1570053100586
 20
47.7351950715322
 30
0.0
 11
80.1570053100586
 21
68.5179367190984
 31
0.0
  0
LINE
  5
   169
  8
0
  6
CONTINUOUS
 62
     3
 10
66.1570124626158
 20
66.5179367190984
 30
0.0
 11
80.1570053100586
 21
66.5179367190984
 31
0.0
  0
LINE
  5
   16A
  8
0
  6
CONTINUOUS
 62
     3
 10
69.0547899358264
 20
67.294393875517
 30
0.0
 11
66.1570124626158
 21
66.5179367190984
 31
0.0
  0
LINE
  5
   16B
  8
0
  6
CONTINUOUS
 62
     3
 10
66.1570124626158
 20
66.5179367190984
 30
0.0
 11
69.0547899358264
 21
65.7414795626799
 31
0.0
  0
LINE
  5
   16C
  8
0
  6
CONTINUOUS
 62
     3
 10
77.2592278368481
 20
65.7414795626799
 30
0.0
 11
80.1570053100586
 21
66.5179367190984
 31
0.0
  0
LINE
  5
   16D
  8
0
  6
CONTINUOUS
 62
     3
 10
80.1570053100586
 20
66.5179367190984
 30
0.0
 11
77.2592278368481
 21
67.294393875517
 31
0.0
  0
ENDBLK
  5
   16E
  8
0
  6
CONTINUOUS
 62
     3
  0
BLOCK
  5
   16F
  8
0
  6
CONTINUOUS
 62
     3
  2
*UDIM325
 70
    65
 10
0.0
 20
0.0
 30
0.0
  3
*UDIM325
  0
TEXT
  5
   170
  8
0
  6
CONTINUOUS
 62
     3
 10
146.500064849857
 20
-14.83897432188
 30
0.0
 40
3.00000002980232
  1
50
 50
90.0
 41
0.933333333333333
 72
     1
 11
145.000064834952
 21
-12.3389742970467
 31
0.0
 73
     2
  0
LINE
  5
   171
  8
0
  6
CONTINUOUS
 62
     3
 10
126.656997799873
 20
-24.5639820098877
 30
0.0
 11
149.500064849854
 21
-24.5639820098877
 31
0.0
  0
LINE
  5
   172
  8
0
  6
CONTINUOUS
 62
     3
 10
147.500064849854
 20
-24.5639820098877
 30
0.0
 11
147.500064849854
 21
0.436033248901392
 31
0.0
  0
LINE
  5
   173
  8
0
  6
CONTINUOUS
 62
     3
 10
146.979120419902
 20
-21.6095587326807
 30
0.0
 11
147.500064849854
 21
-24.5639820098877
 31
0.0
  0
LINE
  5
   174
  8
0
  6
CONTINUOUS
 62
     3
 10
147.500064849854
 20
-24.5639820098877
 30
0.0
 11
148.021009279805
 21
-21.6095587326807
 31
0.0
  0
LINE
  5
   175
  8
0
  6
CONTINUOUS
 62
     3
 10
148.021009279805
 20
-2.51839002830557
 30
0.0
 11
147.500064849854
 21
0.436033248901392
 31
0.0
  0
LINE
  5
   176
  8
0
  6
CONTINUOUS
 62
     3
 10
147.500064849854
 20
0.436033248901392
 30
0.0
 11
146.979120419902
 21
-2.51839002830557
 31
0.0
  0
ENDBLK
  5
   177
  8
0
  6
CONTINUOUS
 62
     3
  0
BLOCK
  5
   178
  8
0
  6
CONTINUOUS
 62
     3
  2
*UDIM326
 70
    65
 10
0.0
 20
0.0
 30
0.0
  3
*UDIM326
  0
TEXT
  5
   179
  8
0
  6
CONTINUOUS
 62
     3
 10
78.8820044368506
 20
-50.6539897918701
 30
0.0
 40
3.00000002980232
  1
42
 41
0.933333333333333
 72
     1
 11
81.3820044616859
 21
-49.153989776969
 31
0.0
 73
     2
  0
LINE
  5
   17A
  8
0
  6
CONTINUOUS
 62
     3
 10
71.1570053100586
 20
-26.9109297903315
 30
0.0
 11
71.1570053100586
 21
-53.6539897918701
 31
0.0
  0
LINE
  5
   17B
  8
0
  6
CONTINUOUS
 62
     3
 10
92.1570045789083
 20
-25.1027682087615
 30
0.0
 11
92.1570045789083
 21
-53.6539897918701
 31
0.0
  0
LINE
  5
   17C
  8
0
  6
CONTINUOUS
 62
     3
 10
71.1570053100586
 20
-51.6539897918701
 30
0.0
 11
92.1570045789083
 21
-51.6539897918701
 31
0.0
  0
LINE
  5
   17D
  8
0
  6
CONTINUOUS
 62
     3
 10
74.1114285872656
 20
-51.1330453619185
 30
0.0
 11
71.1570053100586
 21
-51.6539897918701
 31
0.0
  0
LINE
  5
   17E
  8
0
  6
CONTINUOUS
 62
     3
 10
71.1570053100586
 20
-51.6539897918701
 30
0.0
 11
74.1114285872656
 21
-52.1749342218218
 31
0.0
  0
LINE
  5
   17F
  8
0
  6
CONTINUOUS
 62
     3
 10
89.2025813017014
 20
-52.1749342218218
 30
0.0
 11
92.1570045789083
 21
-51.6539897918701
 31
0.0
  0
LINE
  5
   180
  8
0
  6
CONTINUOUS
 62
     3
 10
92.1570045789083
 20
-51.6539897918701
 30
0.0
 11
89.2025813017014
 21
-51.1330453619185
 31
0.0
  0
ENDBLK
  5
   181
  8
0
  6
CONTINUOUS
 62
     3
  0
BLOCK
  5
   182
  8
0
  6
CONTINUOUS
 62
     3
  2
*UDIM327
 70
    65
 10
0.0
 20
0.0
 30
0.0
  3
*UDIM327
  0
TEXT
  5
   183
  8
0
  6
CONTINUOUS
 62
     3
 10
108.132000622153
 20
-50.6539897918701
 30
0.0
 40
3.00000002980232
  1
75
 41
0.933333333333333
 72
     1
 11
110.632000646989
 21
-49.153989776969
 31
0.0
 73
     2
  0
LINE
  5
   184
  8
0
  6
CONTINUOUS
 62
     3
 10
92.1570045789083
 20
-25.1027682087615
 30
0.0
 11
92.1570045789083
 21
-53.6539897918701
 31
0.0
  0
LINE
  5
   185
  8
0
  6
CONTINUOUS
 62
     3
 10
129.656997799873
 20
-10.8139667510986
 30
0.0
 11
129.656997799873
 21
-53.6539897918701
 31
0.0
  0
LINE
  5
   186
  8
0
  6
CONTINUOUS
 62
     3
 10
92.1570045789083
 20
-51.6539897918701
 30
0.0
 11
129.656997799873
 21
-51.6539897918701
 31
0.0
  0
LINE
  5
   187
  8
0
  6
CONTINUOUS
 62
     3
 10
95.1114278561153
 20
-51.1330453619185
 30
0.0
 11
92.1570045789083
 21
-51.6539897918701
 31
0.0
  0
LINE
  5
   188
  8
0
  6
CONTINUOUS
 62
     3
 10
92.1570045789083
 20
-51.6539897918701
 30
0.0
 11
95.1114278561153
 21
-52.1749342218218
 31
0.0
  0
LINE
  5
   189
  8
0
  6
CONTINUOUS
 62
     3
 10
126.702574522666
 20
-52.1749342218218
 30
0.0
 11
129.656997799873
 21
-51.6539897918701
 31
0.0
  0
LINE
  5
   18A
  8
0
  6
CONTINUOUS
 62
     3
 10
129.656997799873
 20
-51.6539897918701
 30
0.0
 11
126.702574522666
 21
-51.1330453619185
 31
0.0
  0
ENDBLK
  5
   18B
  8
0
  6
CONTINUOUS
 62
     3
  0
BLOCK
  5
   18C
  8
0
  6
CONTINUOUS
 62
     3
  2
*UDIM328
 70
    65
 10
0.0
 20
0.0
 30
0.0
  3
*UDIM328
  0
TEXT
  5
   18D
  8
0
  6
CONTINUOUS
 62
     3
 10
76.3820082515478
 20
-59.2464199066162
 30
0.0
 40
3.00000002980232
  1
52
 41
0.933333333333333
 72
     1
 11
78.882008276383
 21
-57.7464198917151
 31
0.0
 73
     2
  0
LINE
  5
   18E
  8
0
  6
CONTINUOUS
 62
     3
 10
66.1570124626158
 20
-36.808716907581
 30
0.0
 11
66.1570124626158
 21
-62.2464199066162
 31
0.0
  0
LINE
  5
   18F
  8
0
  6
CONTINUOUS
 62
     3
 10
92.1570045789083
 20
-25.1027682087615
 30
0.0
 11
92.1570045789083
 21
-62.2464199066162
 31
0.0
  0
LINE
  5
   190
  8
0
  6
CONTINUOUS
 62
     3
 10
66.1570124626158
 20
-60.2464199066162
 30
0.0
 11
92.1570045789083
 21
-60.2464199066162
 31
0.0
  0
LINE
  5
   191
  8
0
  6
CONTINUOUS
 62
     3
 10
69.1114357398228
 20
-59.7254754766645
 30
0.0
 11
66.1570124626158
 21
-60.2464199066162
 31
0.0
  0
LINE
  5
   192
  8
0
  6
CONTINUOUS
 62
     3
 10
66.1570124626158
 20
-60.2464199066162
 30
0.0
 11
69.1114357398228
 21
-60.7673643365679
 31
0.0
  0
LINE
  5
   193
  8
0
  6
CONTINUOUS
 62
     3
 10
89.2025813017014
 20
-60.7673643365679
 30
0.0
 11
92.1570045789083
 21
-60.2464199066162
 31
0.0
  0
LINE
  5
   194
  8
0
  6
CONTINUOUS
 62
     3
 10
92.1570045789083
 20
-60.2464199066162
 30
0.0
 11
89.2025813017014
 21
-59.7254754766645
 31
0.0
  0
ENDBLK
  5
   195
  8
0
  6
CONTINUOUS
 62
     3
  0
BLOCK
  5
   196
  8
0
  6
CONTINUOUS
 62
     3
  2
*UDIM329
 70
    65
 10
0.0
 20
0.0
 30
0.0
  3
*UDIM329
  0
TEXT
  5
   197
  8
0
  6
CONTINUOUS
 62
     3
 10
112.132003475229
 20
-59.2464199066162
 30
0.0
 40
3.00000002980232
  1
91
 41
0.933333333333333
 72
     1
 11
114.632003500064
 21
-57.7464198917151
 31
0.0
 73
     2
  0
LINE
  5
   198
  8
0
  6
CONTINUOUS
 62
     3
 10
92.1570045789083
 20
-25.1027682087615
 30
0.0
 11
92.1570045789083
 21
-62.2464199066162
 31
0.0
  0
LINE
  5
   199
  8
0
  6
CONTINUOUS
 62
     3
 10
137.657004578908
 20
-8.10842760200937
 30
0.0
 11
137.657004578908
 21
-62.2464199066162
 31
0.0
  0
LINE
  5
   19A
  8
0
  6
CONTINUOUS
 62
     3
 10
92.1570045789083
 20
-60.2464199066162
 30
0.0
 11
137.657004578908
 21
-60.2464199066162
 31
0.0
  0
LINE
  5
   19B
  8
0
  6
CONTINUOUS
 62
     3
 10
95.1114278561153
 20
-59.7254754766645
 30
0.0
 11
92.1570045789083
 21
-60.2464199066162
 31
0.0
  0
LINE
  5
   19C
  8
0
  6
CONTINUOUS
 62
     3
 10
92.1570045789083
 20
-60.2464199066162
 30
0.0
 11
95.1114278561153
 21
-60.7673643365679
 31
0.0
  0
LINE
  5
   19D
  8
0
  6
CONTINUOUS
 62
     3
 10
134.702581301701
 20
-60.7673643365679
 30
0.0
 11
137.657004578908
 21
-60.2464199066162
 31
0.0
  0
LINE
  5
   19E
  8
0
  6
CONTINUOUS
 62
     3
 10
137.657004578908
 20
-60.2464199066162
 30
0.0
 11
134.702581301701
 21
-59.7254754766645
 31
0.0
  0
ENDBLK
  5
   19F
  8
0
  6
CONTINUOUS
 62
     3
  0
BLOCK
  5
   1A0
  8
0
  6
CONTINUOUS
 62
     7
  2
*UDIM330
 70
    65
 10
0.0
 20
0.0
 30
0.0
  3
*UDIM330
  0
TEXT
  5
   1A1
  8
0
  6
CONTINUOUS
 62
     7
 10
53.8458943933247
 20
54.3130359649658
 30
0.0
 40
3.00000002980232
  1
2.5
 41
0.933333333333333
 72
     1
 11
57.7458944320677
 21
55.813035979867
 31
0.0
 73
     2
  0
TEXT
  5
   1A2
  8
0
  6
CONTINUOUS
 62
     7
 10
50.6458943714697
 20
54.3130359649658
 30
0.0
 40
3.00000002980232
  1
_
 41
0.933333333333334
 72
     1
 11
51.7458943823972
 21
55.813035979867
 31
0.0
 73
     2
  0
LINE
  5
   1A3
  8
0
  6
CONTINUOUS
 62
     7
 10
65.1570124626158
 20
50.922215924656
 30
0.0
 11
65.1570124626158
 21
55.3130359649658
 31
0.0
  0
LINE
  5
   1A4
  8
0
  6
CONTINUOUS
 62
     7
 10
66.1570124626158
 20
50.6807605172001
 30
0.0
 11
66.1570124626158
 21
55.3130359649658
 31
0.0
  0
LINE
  5
   1A5
  8
0
  6
CONTINUOUS
 62
     7
 10
50.6458943714697
 20
53.3130359649658
 30
0.0
 11
71.1570124626158
 21
53.3130359649658
 31
0.0
  0
LINE
  5
   1A6
  8
0
  6
CONTINUOUS
 62
     3
 10
62.2592349894053
 20
52.5365788085473
 30
0.0
 11
65.1570124626158
 21
53.3130359649658
 31
0.0
  0
LINE
  5
   1A7
  8
0
  6
CONTINUOUS
 62
     3
 10
65.1570124626158
 20
53.3130359649658
 30
0.0
 11
62.2592349894053
 21
54.0894931213844
 31
0.0
  0
LINE
  5
   1A8
  8
0
  6
CONTINUOUS
 62
     3
 10
69.0547899358264
 20
54.0894931213844
 30
0.0
 11
66.1570124626158
 21
53.3130359649658
 31
0.0
  0
LINE
  5
   1A9
  8
0
  6
CONTINUOUS
 62
     3
 10
66.1570124626158
 20
53.3130359649658
 30
0.0
 11
69.0547899358264
 21
52.5365788085473
 31
0.0
  0
ENDBLK
  5
   1AA
  8
0
  6
CONTINUOUS
 62
     7
  0
BLOCK
  5
   1AB
  8
0
  6
CONTINUOUS
 62
     7
  2
*UDIM331
 70
    65
 10
0.0
 20
0.0
 30
0.0
  3
*UDIM331
  0
TEXT
  5
   1AC
  8
0
  6
CONTINUOUS
 62
     7
 10
85.1570053100586
 20
60.1664909142752
 30
0.0
 40
3.00000002980232
  1
10.5
 41
0.933333333333333
 72
     1
 11
90.4570053627094
 21
61.6664909291763
 31
0.0
 73
     2
  0
TEXT
  5
   1AD
  8
0
  6
CONTINUOUS
 62
     7
 10
96.7570054153602
 20
60.1664909142752
 30
0.0
 40
3.00000002980232
  1
x11
 41
0.933333333333333
 72
     1
 11
100.657005454103
 21
61.6664909291763
 31
0.0
 73
     2
  0
LINE
  5
   1AE
  8
0
  6
CONTINUOUS
 62
     7
 10
73.6570053100586
 20
47.7351950715322
 30
0.0
 11
73.6570053100586
 21
61.1664909142752
 31
0.0
  0
LINE
  5
   1AF
  8
0
  6
CONTINUOUS
 62
     7
 10
80.1570053100586
 20
47.7351950715322
 30
0.0
 11
80.1570053100586
 21
61.1664909142752
 31
0.0
  0
LINE
  5
   1B0
  8
0
  6
CONTINUOUS
 62
     7
 10
68.6570053100586
 20
59.1664909142752
 30
0.0
 11
104.557005492846
 21
59.1664909142752
 31
0.0
  0
LINE
  5
   1B1
  8
0
  6
CONTINUOUS
 62
     3
 10
70.7592278368481
 20
58.3900337578566
 30
0.0
 11
73.6570053100586
 21
59.1664909142752
 31
0.0
  0
LINE
  5
   1B2
  8
0
  6
CONTINUOUS
 62
     3
 10
73.6570053100586
 20
59.1664909142752
 30
0.0
 11
70.7592278368481
 21
59.9429480706937
 31
0.0
  0
LINE
  5
   1B3
  8
0
  6
CONTINUOUS
 62
     3
 10
83.0547827832691
 20
59.9429480706937
 30
0.0
 11
80.1570053100586
 21
59.1664909142752
 31
0.0
  0
LINE
  5
   1B4
  8
0
  6
CONTINUOUS
 62
     3
 10
80.1570053100586
 20
59.1664909142752
 30
0.0
 11
83.0547827832691
 21
58.3900337578566
 31
0.0
  0
ENDBLK
  5
   1B5
  8
0
  6
CONTINUOUS
 62
     7
  0
BLOCK
  5
   1B6
  8
0
  6
CONTINUOUS
 62
     7
  2
*UDIM332
 70
    65
 10
0.0
 20
0.0
 30
0.0
  3
*UDIM332
  0
TEXT
  5
   1B7
  8
0
  6
CONTINUOUS
 62
     7
 10
92.8820012181997
 20
73.4733595540874
 30
0.0
 40
3.00000002980232
  1
123
 41
0.933333333333333
 72
     1
 11
96.7820012569427
 21
74.9733595689886
 31
0.0
 73
     2
  0
LINE
  5
   1B8
  8
0
  6
CONTINUOUS
 62
     7
 10
66.1570124626158
 20
50.6807605172001
 30
0.0
 11
66.1570124626158
 21
74.4733595540874
 31
0.0
  0
LINE
  5
   1B9
  8
0
  6
CONTINUOUS
 62
     7
 10
127.40699005127
 20
51.4166017498791
 30
0.0
 11
127.40699005127
 21
74.4733595540874
 31
0.0
  0
LINE
  5
   1BA
  8
0
  6
CONTINUOUS
 62
     7
 10
66.1570124626158
 20
72.4733595540874
 30
0.0
 11
127.40699005127
 21
72.4733595540874
 31
0.0
  0
LINE
  5
   1BB
  8
0
  6
CONTINUOUS
 62
     3
 10
69.0547899358264
 20
73.249816710506
 30
0.0
 11
66.1570124626158
 21
72.4733595540874
 31
0.0
  0
LINE
  5
   1BC
  8
0
  6
CONTINUOUS
 62
     3
 10
66.1570124626158
 20
72.4733595540874
 30
0.0
 11
69.0547899358264
 21
71.6969023976689
 31
0.0
  0
LINE
  5
   1BD
  8
0
  6
CONTINUOUS
 62
     3
 10
124.509212578059
 20
71.6969023976689
 30
0.0
 11
127.40699005127
 21
72.4733595540874
 31
0.0
  0
LINE
  5
   1BE
  8
0
  6
CONTINUOUS
 62
     3
 10
127.40699005127
 20
72.4733595540874
 30
0.0
 11
124.509212578059
 21
73.249816710506
 31
0.0
  0
ENDBLK
  5
   1BF
  8
0
  6
CONTINUOUS
 62
     7
  0
BLOCK
  5
   1C0
  8
0
  6
CONTINUOUS
 62
     7
  2
*UDIM333
 70
    65
 10
0.0
 20
0.0
 30
0.0
  3
*UDIM333
  0
TEXT
  5
   1C1
  8
0
  6
CONTINUOUS
 62
     7
 10
130.885607299209
 20
49.8362331390381
 30
0.0
 40
3.00000002980232
  1
1.5
 41
0.933333333333333
 72
     1
 11
134.785607337952
 21
51.3362331539393
 31
0.0
 73
     2
  0
TEXT
  5
   1C2
  8
0
  6
CONTINUOUS
 62
     7
 10
139.685607376695
 20
49.8362331390381
 30
0.0
 40
3.00000002980232
  1
-2
 41
0.933333333333333
 72
     1
 11
142.18560740153
 21
51.3362331539393
 31
0.0
 73
     2
  0
LINE
  5
   1C3
  8
0
  6
CONTINUOUS
 62
     7
 10
122.40699005127
 20
48.8362331390381
 30
0.0
 11
144.685607426365
 21
48.8362331390381
 31
0.0
  0
LINE
  5
   1C4
  8
0
  6
CONTINUOUS
 62
     3
 10
124.509212578059
 20
48.0597759826195
 30
0.0
 11
127.40699005127
 21
48.8362331390381
 31
0.0
  0
LINE
  5
   1C5
  8
0
  6
CONTINUOUS
 62
     3
 10
127.40699005127
 20
48.8362331390381
 30
0.0
 11
124.509212578059
 21
49.6126902954566
 31
0.0
  0
LINE
  5
   1C6
  8
0
  6
CONTINUOUS
 62
     3
 10
131.05476752448
 20
49.6126902954566
 30
0.0
 11
128.15699005127
 21
48.8362331390381
 31
0.0
  0
LINE
  5
   1C7
  8
0
  6
CONTINUOUS
 62
     3
 10
128.15699005127
 20
48.8362331390381
 30
0.0
 11
131.05476752448
 21
48.0597759826195
 31
0.0
  0
ENDBLK
  5
   1C8
  8
0
  6
CONTINUOUS
 62
     7
  0
ENDSEC
  0
SECTION
  2
ENTITIES
  0
CIRCLE
  5
   1C9
  8
0
  6
CONTINUOUS
 62
   130
 10
-27.5138034820557
 20
-96.8560028076172
 30
0.0
 40
1.0
  0
CIRCLE
  5
   1CA
  8
0
  6
CONTINUOUS
 62
   130
 10
-2.51380348205566
 20
-96.8560028076172
 30
0.0
 40
1.0
  0
CIRCLE
  5
   1CB
  8
0
  6
CONTINUOUS
 62
   130
 10
-26.2638034820557
 20
-168.856002807617
 30
0.0
 40
1.0
  0
CIRCLE
  5
   1CC
  8
0
  6
CONTINUOUS
 62
   130
 10
-2.51380348205566
 20
-168.856002807617
 30
0.0
 40
1.0
  0
LINE
  5
   1CD
  8
0
  6
CONTINUOUS
 62
   130
 10
-59.0428265081946
 20
-86.0030498603568
 30
0.0
 11
16.0979693525875
 21
-86.0030498603568
 31
0.0
  0
LINE
  5
   1CE
  8
0
  6
CONTINUOUS
 62
   130
 10
-59.0428265081946
 20
-182.156671506657
 30
0.0
 11
16.0979693525875
 21
-182.156671506657
 31
0.0
  0
LINE
  5
   1CF
  8
0
  6
DASHDOT
 62
   130
 10
-27.5138034820557
 20
-101.856002807617
 30
0.0
 11
-27.5138034820557
 21
-91.8560028076172
 31
0.0
  0
LINE
  5
   1D0
  8
0
  6
DASHDOT
 62
   130
 10
-20.0138034820557
 20
-96.8560028076172
 30
0.0
 11
-10.0138034820557
 21
-96.8560028076172
 31
0.0
  0
LINE
  5
   1D1
  8
0
  6
DASHDOT
 62
   130
 10
-2.51380348205567
 20
-101.856002807617
 30
0.0
 11
-2.51380348205567
 21
-91.8560028076172
 31
0.0
  0
LINE
  5
   1D2
  8
0
  6
DASHDOT
 62
   130
 10
-7.51380348205566
 20
-96.8560028076172
 30
0.0
 11
2.48619651794434
 21
-96.8560028076172
 31
0.0
  0
LINE
  5
   1D3
  8
0
  6
DASHDOT
 62
   130
 10
-26.2638034820557
 20
-174.856002807617
 30
0.0
 11
-26.2638034820557
 21
-162.856002807617
 31
0.0
  0
LINE
  5
   1D4
  8
0
  6
DASHDOT
 62
   130
 10
-21.0138034820557
 20
-168.856002807617
 30
0.0
 11
-9.01380348205566
 21
-168.856002807617
 31
0.0
  0
LINE
  5
   1D5
  8
0
  6
DASHDOT
 62
   130
 10
-2.51380348205566
 20
-173.856002807617
 30
0.0
 11
-2.51380348205566
 21
-163.856002807617
 31
0.0
  0
LINE
  5
   1D6
  8
0
  6
DASHDOT
 62
   130
 10
-6.26380348205566
 20
-168.856002807617
 30
0.0
 11
3.73619651794434
 21
-168.856002807617
 31
0.0
  0
CIRCLE
  5
   1D7
  8
0
  6
CONTINUOUS
 62
   130
 10
-33.7638034820557
 20
-124.106002807617
 30
0.0
 40
1.0
  0
CIRCLE
  5
   1D8
  8
0
  6
CONTINUOUS
 62
   130
 10
3.73619651794434
 20
-124.106002807617
 30
0.0
 40
1.0
  0
CIRCLE
  5
   1D9
  8
0
  6
CONTINUOUS
 62
   130
 10
-33.7638034820557
 20
-141.606002807617
 30
0.0
 40
1.0
  0
CIRCLE
  5
   1DA
  8
0
  6
CONTINUOUS
 62
   130
 10
3.73619651794434
 20
-141.606002807617
 30
0.0
 40
1.0
  0
LINE
  5
   1DB
  8
0
  6
DASHDOT
 62
   130
 10
-33.7638034820557
 20
-129.106002807617
 30
0.0
 11
-33.7638034820557
 21
-119.106002807617
 31
0.0
  0
LINE
  5
   1DC
  8
0
  6
DASHDOT
 62
   130
 10
-37.5138034820557
 20
-124.106002807617
 30
0.0
 11
-27.5138034820557
 21
-124.106002807617
 31
0.0
  0
LINE
  5
   1DD
  8
0
  6
DASHDOT
 62
   130
 10
3.73619651794433
 20
-129.106002807617
 30
0.0
 11
3.73619651794433
 21
-119.106002807617
 31
0.0
  0
LINE
  5
   1DE
  8
0
  6
DASHDOT
 62
   130
 10
-1.26380348205566
 20
-124.106002807617
 30
0.0
 11
8.73619651794434
 21
-124.106002807617
 31
0.0
  0
LINE
  5
   1DF
  8
0
  6
DASHDOT
 62
   130
 10
-33.7638034820557
 20
-146.606002807617
 30
0.0
 11
-33.7638034820557
 21
-136.606002807617
 31
0.0
  0
LINE
  5
   1E0
  8
0
  6
DASHDOT
 62
   130
 10
-37.5138034820557
 20
-141.606002807617
 30
0.0
 11
-27.5138034820557
 21
-141.606002807617
 31
0.0
  0
LINE
  5
   1E1
  8
0
  6
DASHDOT
 62
   130
 10
3.73619651794434
 20
-146.606002807617
 30
0.0
 11
3.73619651794434
 21
-136.606002807617
 31
0.0
  0
LINE
  5
   1E2
  8
0
  6
DASHDOT
 62
   130
 10
1.23619651794434
 20
-141.606002807617
 30
0.0
 11
11.2361965179443
 21
-141.606002807617
 31
0.0
  0
LINE
  5
   1E3
  8
0
  6
CONTINUOUS
 62
   130
 10
-59.0428265081946
 20
-182.156671506657
 30
0.0
 11
-59.0428265081946
 21
-86.0030498603568
 31
0.0
  0
LINE
  5
   1E4
  8
0
  6
CONTINUOUS
 62
   130
 10
16.0979693525875
 20
-182.156671506657
 30
0.0
 11
16.0979693525875
 21
-86.0030498603568
 31
0.0
  0
LINE
  5
   1E5
  8
0
  6
CONTINUOUS
 62
   130
 10
-64.84977123722
 20
-117.856002807617
 30
0.0
 11
19.8558729897454
 21
-117.856002807617
 31
0.0
  0
LINE
  5
   1E6
  8
0
  6
CONTINUOUS
 62
   130
 10
-64.84977123722
 20
-147.856002807617
 30
0.0
 11
19.8558729897454
 21
-147.856002807617
 31
0.0
  0
LINE
  5
   1E7
  8
0
  6
CONTINUOUS
 62
   130
 10
19.8558729897454
 20
-147.856002807617
 30
0.0
 11
19.8558729897454
 21
-117.856002807617
 31
0.0
  0
LINE
  5
   1E8
  8
0
  6
CONTINUOUS
 62
   130
 10
-64.84977123722
 20
-147.856002807617
 30
0.0
 11
-64.84977123722
 21
-117.856002807617
 31
0.0
  0
LINE
  5
   1E9
  8
0
  6
DASHDOT
 62
   130
 10
-42.550709232422
 20
-138.856002807617
 30
0.0
 11
26.0510165583334
 21
-138.856002807617
 31
0.0
  0
LINE
  5
   1EA
  8
0
  6
DASHDOT
 62
   130
 10
-8.76380348205567
 20
-186.971210759101
 30
0.0
 11
-8.76380348205567
 21
-81.8210780067186
 31
0.0
  0
TEXT
  5
   1EB
  8
0
  6
CONTINUOUS
 62
     2
 10
-10.045615291292
 20
-67.2980123902594
 30
0.0
 40
3.00000002980232
  1
Y
 50
360.0
 41
0.983333351877
 72
     2
 11
-7.84561521381347
 21
-65.7980123753472
 31
0.0
 73
     2
  0
INSERT
  5
   1EC
  8
0
  6
CONTINUOUS
 62
     3
  2
*UDIM294
 10
0.0
 20
0.0
 30
0.0
  0
TEXT
  5
   1ED
  8
0
  6
CONTINUOUS
 62
     2
 10
-78.3808880807039
 20
-140.535815731181
 30
0.0
 40
3.00000002980232
  1
X
 50
360.0
 41
0.983333351877
 72
     2
 11
-76.1808880032254
 21
-139.035815716269
 31
0.0
 73
     2
  0
INSERT
  5
   1EE
  8
0
  6
CONTINUOUS
 62
     3
  2
*UDIM295
 10
0.0
 20
0.0
 30
0.0
  0
TEXT
  5
   1EF
  8
0
  6
CONTINUOUS
 62
     2
 10
27.4683940112666
 20
-140.199757638978
 30
0.0
 40
3.00000002980232
  1
X
 50
360.0
 41
0.983333351877
 72
     2
 11
29.6683940887451
 21
-138.699757624066
 31
0.0
 73
     2
  0
TEXT
  5
   1F0
  8
0
  6
CONTINUOUS
 62
     2
 10
-9.36030605434618
 20
-189.701480928468
 30
0.0
 40
3.00000002980232
  1
Y
 50
360.0
 41
0.983333351877
 72
     2
 11
-7.16030597686768
 21
-188.201480913556
 31
0.0
 73
     2
  0
INSERT
  5
   1F1
  8
0
  6
CONTINUOUS
 62
     3
  2
*UDIM296
 10
0.0
 20
0.0
 30
0.0
  0
INSERT
  5
   1F2
  8
0
  6
CONTINUOUS
 62
     3
  2
*UDIM297
 10
0.0
 20
0.0
 30
0.0
  0
INSERT
  5
   1F3
  8
0
  6
CONTINUOUS
 62
     3
  2
*UDIM298
 10
0.0
 20
0.0
 30
0.0
  0
INSERT
  5
   1F4
  8
0
  6
CONTINUOUS
 62
     3
  2
*UDIM299
 10
0.0
 20
0.0
 30
0.0
  0
INSERT
  5
   1F5
  8
0
  6
CONTINUOUS
 62
     3
  2
*UDIM300
 10
0.0
 20
0.0
 30
0.0
  0
INSERT
  5
   1F6
  8
0
  6
CONTINUOUS
 62
     3
  2
*UDIM301
 10
0.0
 20
0.0
 30
0.0
  0
INSERT
  5
   1F7
  8
0
  6
CONTINUOUS
 62
     7
  2
*UDIM302
 10
0.0
 20
0.0
 30
0.0
  0
INSERT
  5
   1F8
  8
0
  6
CONTINUOUS
 62
     7
  2
*UDIM303
 10
0.0
 20
0.0
 30
0.0
  0
LINE
  5
   1F9
  8
0
  6
DASHDOT
 62
   130
 10
90.8069900512695
 20
-102.711268615723
 30
0.0
 11
90.5569900512695
 21
-102.711268615723
 31
0.0
  0
LINE
  5
   1FA
  8
0
  6
CONTINUOUS
 62
   130
 10
67.1569972038268
 20
-94.5112686157227
 30
0.0
 11
67.1569972038268
 21
-98.2612686157227
 31
0.0
  0
LINE
  5
   1FB
  8
0
  6
CONTINUOUS
 62
   130
 10
71.1569900512695
 20
-80.2112838745117
 30
0.0
 11
67.1569972038268
 21
-80.2112838745117
 31
0.0
  0
LINE
  5
   1FC
  8
0
  6
CONTINUOUS
 62
   130
 10
67.1569972038268
 20
-80.2112838745117
 30
0.0
 11
67.1569972038268
 21
-89.4612841288249
 31
0.0
  0
LINE
  5
   1FD
  8
0
  6
CONTINUOUS
 62
   130
 10
71.1569900512695
 20
-78.7612686157227
 30
0.0
 11
71.1569900512695
 21
-98.2612686157227
 31
0.0
  0
LINE
  5
   1FE
  8
0
  6
CONTINUOUS
 62
   130
 10
91.1569900512695
 20
-78.7612686157227
 30
0.0
 11
91.1569900512695
 21
-98.2612686157227
 31
0.0
  0
LINE
  5
   1FF
  8
0
  6
DASHDOT
 62
   130
 10
144.111318284715
 20
-98.2612686157227
 30
0.0
 11
61.7725424452419
 21
-98.2612686157227
 31
0.0
  0
LINE
  5
   200
  8
0
  6
CONTINUOUS
 62
   130
 10
91.1569900512695
 20
-93.4362533569336
 30
0.0
 11
71.1569900512695
 21
-93.4362533569336
 31
0.0
  0
LINE
  5
   201
  8
0
  6
CONTINUOUS
 62
   130
 10
91.1569900512695
 20
-90.6862533569336
 30
0.0
 11
71.1569900512695
 21
-90.6862533569336
 31
0.0
  0
LINE
  5
   202
  8
0
  6
CONTINUOUS
 62
   130
 10
82.4070380099843
 20
-83.2612686157227
 30
0.0
 11
73.6570380099848
 21
-83.2612686157227
 31
0.0
  0
LINE
  5
   203
  8
0
  6
CONTINUOUS
 62
   130
 10
82.4070380099843
 20
-88.2612686157227
 30
0.0
 11
73.6570380099848
 21
-88.2612686157227
 31
0.0
  0
LINE
  5
   204
  8
0
  6
CONTINUOUS
 62
   130
 10
82.4070380099843
 20
-95.7612686157227
 30
0.0
 11
73.6570380099848
 21
-95.7612686157227
 31
0.0
  0
LINE
  5
   205
  8
0
  6
CONTINUOUS
 62
   130
 10
73.6570380099848
 20
-83.2612686157227
 30
0.0
 11
73.6570380099848
 21
-88.2612686157227
 31
0.0
  0
LINE
  5
   206
  8
0
  6
CONTINUOUS
 62
   130
 10
74.6570384710038
 20
-83.2612686157227
 30
0.0
 11
74.6570384710038
 21
-88.2612686157227
 31
0.0
  0
LINE
  5
   207
  8
0
  6
CONTINUOUS
 62
   130
 10
81.4070378946562
 20
-83.2612686157227
 30
0.0
 11
81.4070378946562
 21
-88.2612686157227
 31
0.0
  0
LINE
  5
   208
  8
0
  6
CONTINUOUS
 62
   130
 10
82.4070380099843
 20
-83.2612686157227
 30
0.0
 11
82.4070380099843
 21
-88.2612686157227
 31
0.0
  0
LINE
  5
   209
  8
0
  6
CONTINUOUS
 62
   130
 10
73.6570380099848
 20
-95.7612686157227
 30
0.0
 11
73.6570380099848
 21
-98.2612686157227
 31
0.0
  0
LINE
  5
   20A
  8
0
  6
CONTINUOUS
 62
   130
 10
74.6570384710038
 20
-95.7612686157227
 30
0.0
 11
74.6570384710038
 21
-98.2612686157227
 31
0.0
  0
LINE
  5
   20B
  8
0
  6
CONTINUOUS
 62
   130
 10
81.4070378946562
 20
-95.7612686157227
 30
0.0
 11
81.4070378946562
 21
-98.2612686157227
 31
0.0
  0
LINE
  5
   20C
  8
0
  6
CONTINUOUS
 62
   130
 10
82.4070380099843
 20
-95.7612686157227
 30
0.0
 11
82.4070380099843
 21
-98.2612686157227
 31
0.0
  0
LINE
  5
   20D
  8
0
  6
CONTINUOUS
 62
   130
 10
86.1569900512695
 20
-82.2612686157227
 30
0.0
 11
71.1569900512695
 21
-82.2612686157227
 31
0.0
  0
LINE
  5
   20E
  8
0
  6
CONTINUOUS
 62
   130
 10
86.1569900512695
 20
-89.2612686157227
 30
0.0
 11
71.1569900512695
 21
-89.2612686157227
 31
0.0
  0
LINE
  5
   20F
  8
0
  6
CONTINUOUS
 62
   130
 10
86.1569900512695
 20
-94.7612686157227
 30
0.0
 11
71.1569900512695
 21
-94.7612686157227
 31
0.0
  0
LINE
  5
   210
  8
0
  6
CONTINUOUS
 62
   130
 10
86.1569900512695
 20
-82.2612686157227
 30
0.0
 11
86.1569900512695
 21
-89.2612686157227
 31
0.0
  0
LINE
  5
   211
  8
0
  6
CONTINUOUS
 62
   130
 10
86.1569900512695
 20
-94.7612686157227
 30
0.0
 11
86.1569900512695
 21
-98.2612686157227
 31
0.0
  0
LINE
  5
   212
  8
0
  6
CONTINUOUS
 62
   130
 10
70.6569900512695
 20
-89.4612841288249
 30
0.0
 11
65.1569900512695
 21
-89.4612841288249
 31
0.0
  0
LINE
  5
   213
  8
0
  6
CONTINUOUS
 62
   130
 10
70.6569900512695
 20
-94.5112686157227
 30
0.0
 11
65.1569900512695
 21
-94.5112686157227
 31
0.0
  0
LINE
  5
   214
  8
0
  6
CONTINUOUS
 62
   130
 10
65.1569900512695
 20
-89.4612841288249
 30
0.0
 11
65.1569900512695
 21
-94.5112686157227
 31
0.0
  0
ARC
  5
   215
  8
0
  6
CONTINUOUS
 62
   130
 10
70.6569900512695
 20
-88.9612841288249
 30
0.0
 40
0.5
 50
269.999999896069
 51
359.999999896069
  0
ARC
  5
   216
  8
0
  6
CONTINUOUS
 62
   130
 10
70.6569900512695
 20
-95.0112686157227
 30
0.0
 40
0.5
 50
359.999999896069
 51
449.999999896069
  0
LINE
  5
   217
  8
0
  6
DASHDOT
 62
   130
 10
130.066032729521
 20
-85.7612686157227
 30
0.0
 11
64.8292120963979
 21
-85.7612686157227
 31
0.0
  0
LINE
  5
   218
  8
0
  6
DASHDOT
 62
   130
 10
94.3291810871718
 20
-91.9862763722738
 30
0.0
 11
63.5684773090329
 21
-91.9862763722738
 31
0.0
  0
LINE
  5
   219
  8
0
  6
CONTINUOUS
 62
   130
 10
127.156997799873
 20
-78.7612686157227
 30
0.0
 11
127.156997799873
 21
-98.2612686157227
 31
0.0
  0
LINE
  5
   21A
  8
0
  6
CONTINUOUS
 62
   130
 10
129.656997799873
 20
-78.7612686157227
 30
0.0
 11
129.656997799873
 21
-98.2612686157227
 31
0.0
  0
LINE
  5
   21B
  8
0
  6
CONTINUOUS
 62
   130
 10
138.339981069576
 20
-95.5112686157227
 30
0.0
 11
138.339981069576
 21
-98.2612686157227
 31
0.0
  0
LINE
  5
   21C
  8
0
  6
CONTINUOUS
 62
   130
 10
137.839981069576
 20
-95.0112686157227
 30
0.0
 11
129.656997799873
 21
-95.0112686157227
 31
0.0
  0
ARC
  5
   21D
  8
0
  6
CONTINUOUS
 62
   130
 10
137.839981069576
 20
-95.5112686157227
 30
0.0
 40
0.5
 50
359.999999896069
 51
449.999999896069
  0
LINE
  5
   21E
  8
0
  6
CONTINUOUS
 62
   130
 10
114.906997799873
 20
-95.2612686157227
 30
0.0
 11
114.906997799873
 21
-97.5112686157227
 31
0.0
  0
LINE
  5
   21F
  8
0
  6
CONTINUOUS
 62
   130
 10
126.156997799873
 20
-97.5112686157227
 30
0.0
 11
114.906997799873
 21
-97.5112686157227
 31
0.0
  0
LINE
  5
   220
  8
0
  6
CONTINUOUS
 62
   130
 10
126.156997799873
 20
-95.2612686157227
 30
0.0
 11
114.906997799873
 21
-95.2612686157227
 31
0.0
  0
LINE
  5
   221
  8
0
  6
CONTINUOUS
 62
   130
 10
126.156997799873
 20
-95.2612686157227
 30
0.0
 11
126.156997799873
 21
-97.5112686157227
 31
0.0
  0
LINE
  5
   222
  8
0
  6
CONTINUOUS
 62
   130
 10
126.156997799873
 20
-88.7612686157227
 30
0.0
 11
114.906997799873
 21
-88.7612686157227
 31
0.0
  0
LINE
  5
   223
  8
0
  6
CONTINUOUS
 62
   130
 10
114.906997799873
 20
-86.5112686157227
 30
0.0
 11
114.906997799873
 21
-88.7612686157227
 31
0.0
  0
LINE
  5
   224
  8
0
  6
CONTINUOUS
 62
   130
 10
126.156997799873
 20
-86.5112686157227
 30
0.0
 11
114.906997799873
 21
-86.5112686157227
 31
0.0
  0
LINE
  5
   225
  8
0
  6
CONTINUOUS
 62
   130
 10
126.156997799873
 20
-86.5112686157227
 30
0.0
 11
126.156997799873
 21
-88.7612686157227
 31
0.0
  0
LINE
  5
   226
  8
0
  6
CONTINUOUS
 62
   130
 10
126.156997799873
 20
-85.0112686157227
 30
0.0
 11
114.906997799873
 21
-85.0112686157227
 31
0.0
  0
LINE
  5
   227
  8
0
  6
CONTINUOUS
 62
   130
 10
114.906997799873
 20
-82.7612686157227
 30
0.0
 11
114.906997799873
 21
-85.0112686157227
 31
0.0
  0
LINE
  5
   228
  8
0
  6
CONTINUOUS
 62
   130
 10
126.156997799873
 20
-82.7612686157227
 30
0.0
 11
114.906997799873
 21
-82.7612686157227
 31
0.0
  0
LINE
  5
   229
  8
0
  6
CONTINUOUS
 62
   130
 10
126.156997799873
 20
-82.7612686157227
 30
0.0
 11
126.156997799873
 21
-85.0112686157227
 31
0.0
  0
LINE
  5
   22A
  8
0
  6
DOT
 62
   130
 10
65.1569900512695
 20
-75.3743003087819
 30
0.0
 11
65.1569900512695
 21
-137.995423711858
 31
0.0
  0
LINE
  5
   22B
  8
0
  6
DOT
 62
   130
 10
64.1569900512695
 20
-73.9968816146162
 30
0.0
 11
64.1569900512695
 21
-123.66305251691
 31
0.0
  0
LINE
  5
   22C
  8
0
  6
CONTINUOUS
 62
   130
 10
92.1569900512695
 20
-78.7612686157227
 30
0.0
 11
92.1569900512695
 21
-98.2612686157227
 31
0.0
  0
LINE
  5
   22D
  8
0
  6
CONTINUOUS
 62
   130
 10
129.656997799873
 20
-78.7612686157227
 30
0.0
 11
71.1569900512695
 21
-78.7612686157227
 31
0.0
  0
LINE
  5
   22E
  8
0
  6
DASHDOT
 62
   130
 10
90.8069900512695
 20
-93.8112686157227
 30
0.0
 11
90.5569900512695
 21
-93.8112686157227
 31
0.0
  0
LINE
  5
   22F
  8
0
  6
CONTINUOUS
 62
   130
 10
67.1569972038268
 20
-98.2612686157227
 30
0.0
 11
67.1569972038268
 21
-102.011268615723
 31
0.0
  0
LINE
  5
   230
  8
0
  6
CONTINUOUS
 62
   130
 10
67.1569972038268
 20
-107.06125310262
 30
0.0
 11
67.1569972038268
 21
-114.461284128825
 31
0.0
  0
LINE
  5
   231
  8
0
  6
CONTINUOUS
 62
   130
 10
71.1569900512695
 20
-98.2612686157227
 30
0.0
 11
71.1569900512695
 21
-117.761268615723
 31
0.0
  0
LINE
  5
   232
  8
0
  6
CONTINUOUS
 62
   130
 10
91.1569900512695
 20
-98.2612686157227
 30
0.0
 11
91.1569900512695
 21
-117.761268615723
 31
0.0
  0
LINE
  5
   233
  8
0
  6
DASHDOT
 62
   130
 10
144.111318284715
 20
-98.2612686157227
 30
0.0
 11
61.7725424452419
 21
-98.2612686157227
 31
0.0
  0
LINE
  5
   234
  8
0
  6
CONTINUOUS
 62
   130
 10
91.1569900512695
 20
-103.086283874512
 30
0.0
 11
71.1569900512695
 21
-103.086283874512
 31
0.0
  0
LINE
  5
   235
  8
0
  6
CONTINUOUS
 62
   130
 10
91.1569900512695
 20
-105.836283874512
 30
0.0
 11
71.1569900512695
 21
-105.836283874512
 31
0.0
  0
LINE
  5
   236
  8
0
  6
CONTINUOUS
 62
   130
 10
82.4070380099843
 20
-113.261268615723
 30
0.0
 11
73.6570380099848
 21
-113.261268615723
 31
0.0
  0
LINE
  5
   237
  8
0
  6
CONTINUOUS
 62
   130
 10
82.4070380099843
 20
-108.261268615723
 30
0.0
 11
73.6570380099848
 21
-108.261268615723
 31
0.0
  0
LINE
  5
   238
  8
0
  6
CONTINUOUS
 62
   130
 10
82.4070380099843
 20
-100.761268615723
 30
0.0
 11
73.6570380099848
 21
-100.761268615723
 31
0.0
  0
LINE
  5
   239
  8
0
  6
CONTINUOUS
 62
   130
 10
73.6570380099848
 20
-108.261268615723
 30
0.0
 11
73.6570380099848
 21
-113.261268615723
 31
0.0
  0
LINE
  5
   23A
  8
0
  6
CONTINUOUS
 62
   130
 10
74.6570384710038
 20
-108.261268615723
 30
0.0
 11
74.6570384710038
 21
-113.261268615723
 31
0.0
  0
LINE
  5
   23B
  8
0
  6
CONTINUOUS
 62
   130
 10
81.4070378946562
 20
-108.261268615723
 30
0.0
 11
81.4070378946562
 21
-113.261268615723
 31
0.0
  0
LINE
  5
   23C
  8
0
  6
CONTINUOUS
 62
   130
 10
82.4070380099843
 20
-108.261268615723
 30
0.0
 11
82.4070380099843
 21
-113.261268615723
 31
0.0
  0
LINE
  5
   23D
  8
0
  6
CONTINUOUS
 62
   130
 10
73.6570380099848
 20
-98.2612686157227
 30
0.0
 11
73.6570380099848
 21
-100.761268615723
 31
0.0
  0
LINE
  5
   23E
  8
0
  6
CONTINUOUS
 62
   130
 10
74.6570384710038
 20
-98.2612686157227
 30
0.0
 11
74.6570384710038
 21
-100.761268615723
 31
0.0
  0
LINE
  5
   23F
  8
0
  6
CONTINUOUS
 62
   130
 10
81.4070378946562
 20
-98.2612686157227
 30
0.0
 11
81.4070378946562
 21
-100.761268615723
 31
0.0
  0
LINE
  5
   240
  8
0
  6
CONTINUOUS
 62
   130
 10
82.4070380099843
 20
-98.2612686157227
 30
0.0
 11
82.4070380099843
 21
-100.761268615723
 31
0.0
  0
LINE
  5
   241
  8
0
  6
CONTINUOUS
 62
   130
 10
86.1569900512695
 20
-114.261268615723
 30
0.0
 11
71.1569900512695
 21
-114.261268615723
 31
0.0
  0
LINE
  5
   242
  8
0
  6
CONTINUOUS
 62
   130
 10
86.1569900512695
 20
-107.261268615723
 30
0.0
 11
71.1569900512695
 21
-107.261268615723
 31
0.0
  0
LINE
  5
   243
  8
0
  6
CONTINUOUS
 62
   130
 10
86.1569900512695
 20
-101.761268615723
 30
0.0
 11
71.1569900512695
 21
-101.761268615723
 31
0.0
  0
LINE
  5
   244
  8
0
  6
CONTINUOUS
 62
   130
 10
86.1569900512695
 20
-107.261268615723
 30
0.0
 11
86.1569900512695
 21
-114.261268615723
 31
0.0
  0
LINE
  5
   245
  8
0
  6
CONTINUOUS
 62
   130
 10
86.1569900512695
 20
-98.2612686157227
 30
0.0
 11
86.1569900512695
 21
-101.761268615723
 31
0.0
  0
LINE
  5
   246
  8
0
  6
CONTINUOUS
 62
   130
 10
70.6569900512695
 20
-107.06125310262
 30
0.0
 11
65.1569900512695
 21
-107.06125310262
 31
0.0
  0
LINE
  5
   247
  8
0
  6
CONTINUOUS
 62
   130
 10
70.6569900512695
 20
-102.011268615723
 30
0.0
 11
65.1569900512695
 21
-102.011268615723
 31
0.0
  0
LINE
  5
   248
  8
0
  6
CONTINUOUS
 62
   130
 10
65.1569900512695
 20
-102.011268615723
 30
0.0
 11
65.1569900512695
 21
-107.06125310262
 31
0.0
  0
ARC
  5
   249
  8
0
  6
CONTINUOUS
 62
   130
 10
70.6569900512695
 20
-107.56125310262
 30
0.0
 40
0.5
 50
359.999999896069
 51
449.999999896069
  0
ARC
  5
   24A
  8
0
  6
CONTINUOUS
 62
   130
 10
70.6569900512695
 20
-101.511268615723
 30
0.0
 40
0.5
 50
269.999999896069
 51
359.999999896069
  0
LINE
  5
   24B
  8
0
  6
DASHDOT
 62
   130
 10
130.066032729521
 20
-110.761268615723
 30
0.0
 11
64.8292120963979
 21
-110.761268615723
 31
0.0
  0
LINE
  5
   24C
  8
0
  6
DASHDOT
 62
   130
 10
94.3291810871718
 20
-104.536260859172
 30
0.0
 11
63.5684773090329
 21
-104.536260859172
 31
0.0
  0
LINE
  5
   24D
  8
0
  6
CONTINUOUS
 62
   130
 10
127.156997799873
 20
-98.2612686157227
 30
0.0
 11
127.156997799873
 21
-117.761268615723
 31
0.0
  0
LINE
  5
   24E
  8
0
  6
CONTINUOUS
 62
   130
 10
129.656997799873
 20
-98.2612686157227
 30
0.0
 11
129.656997799873
 21
-117.761268615723
 31
0.0
  0
LINE
  5
   24F
  8
0
  6
CONTINUOUS
 62
   130
 10
138.339981069576
 20
-98.2612686157227
 30
0.0
 11
138.339981069576
 21
-101.011268615723
 31
0.0
  0
LINE
  5
   250
  8
0
  6
CONTINUOUS
 62
   130
 10
137.839981069576
 20
-101.511268615723
 30
0.0
 11
129.656997799873
 21
-101.511268615723
 31
0.0
  0
ARC
  5
   251
  8
0
  6
CONTINUOUS
 62
   130
 10
137.839981069576
 20
-101.011268615723
 30
0.0
 40
0.5
 50
269.999999896069
 51
359.999999896069
  0
LINE
  5
   252
  8
0
  6
CONTINUOUS
 62
   130
 10
114.906997799873
 20
-99.0112686157227
 30
0.0
 11
114.906997799873
 21
-101.261268615723
 31
0.0
  0
LINE
  5
   253
  8
0
  6
CONTINUOUS
 62
   130
 10
126.156997799873
 20
-99.0112686157227
 30
0.0
 11
114.906997799873
 21
-99.0112686157227
 31
0.0
  0
LINE
  5
   254
  8
0
  6
CONTINUOUS
 62
   130
 10
126.156997799873
 20
-101.261268615723
 30
0.0
 11
114.906997799873
 21
-101.261268615723
 31
0.0
  0
LINE
  5
   255
  8
0
  6
CONTINUOUS
 62
   130
 10
126.156997799873
 20
-99.0112686157227
 30
0.0
 11
126.156997799873
 21
-101.261268615723
 31
0.0
  0
LINE
  5
   256
  8
0
  6
CONTINUOUS
 62
   130
 10
126.156997799873
 20
-107.761268615723
 30
0.0
 11
114.906997799873
 21
-107.761268615723
 31
0.0
  0
LINE
  5
   257
  8
0
  6
CONTINUOUS
 62
   130
 10
114.906997799873
 20
-107.761268615723
 30
0.0
 11
114.906997799873
 21
-110.011268615723
 31
0.0
  0
LINE
  5
   258
  8
0
  6
CONTINUOUS
 62
   130
 10
126.156997799873
 20
-110.011268615723
 30
0.0
 11
114.906997799873
 21
-110.011268615723
 31
0.0
  0
LINE
  5
   259
  8
0
  6
CONTINUOUS
 62
   130
 10
126.156997799873
 20
-107.761268615723
 30
0.0
 11
126.156997799873
 21
-110.011268615723
 31
0.0
  0
LINE
  5
   25A
  8
0
  6
CONTINUOUS
 62
   130
 10
126.156997799873
 20
-111.511268615723
 30
0.0
 11
114.906997799873
 21
-111.511268615723
 31
0.0
  0
LINE
  5
   25B
  8
0
  6
CONTINUOUS
 62
   130
 10
114.906997799873
 20
-111.511268615723
 30
0.0
 11
114.906997799873
 21
-113.761268615723
 31
0.0
  0
LINE
  5
   25C
  8
0
  6
CONTINUOUS
 62
   130
 10
126.156997799873
 20
-113.761268615723
 30
0.0
 11
114.906997799873
 21
-113.761268615723
 31
0.0
  0
LINE
  5
   25D
  8
0
  6
CONTINUOUS
 62
   130
 10
126.156997799873
 20
-111.511268615723
 30
0.0
 11
126.156997799873
 21
-113.761268615723
 31
0.0
  0
LINE
  5
   25E
  8
0
  6
DOT
 62
   130
 10
65.1569900512695
 20
-72.8594847145355
 30
0.0
 11
65.1569900512695
 21
-121.148236922663
 31
0.0
  0
LINE
  5
   25F
  8
0
  6
DOT
 62
   130
 10
64.1569900512695
 20
-72.8594847145355
 30
0.0
 11
64.1569900512695
 21
-135.717959038994
 31
0.0
  0
LINE
  5
   260
  8
0
  6
CONTINUOUS
 62
   130
 10
92.1569900512695
 20
-98.2612686157227
 30
0.0
 11
92.1569900512695
 21
-117.761268615723
 31
0.0
  0
LINE
  5
   261
  8
0
  6
CONTINUOUS
 62
   130
 10
71.1569900512695
 20
-128.811253356934
 30
0.0
 11
67.1569972038268
 21
-128.811253356934
 31
0.0
  0
LINE
  5
   262
  8
0
  6
CONTINUOUS
 62
   130
 10
67.1569972038268
 20
-119.56125310262
 30
0.0
 11
67.1569972038268
 21
-128.811253356934
 31
0.0
  0
LINE
  5
   263
  8
0
  6
CONTINUOUS
 62
   130
 10
71.1569900512695
 20
-110.761268615723
 30
0.0
 11
71.1569900512695
 21
-130.261268615723
 31
0.0
  0
LINE
  5
   264
  8
0
  6
CONTINUOUS
 62
   130
 10
91.1569900512695
 20
-110.761268615723
 30
0.0
 11
91.1569900512695
 21
-130.261268615723
 31
0.0
  0
LINE
  5
   265
  8
0
  6
CONTINUOUS
 62
   130
 10
82.4070380099843
 20
-125.761268615723
 30
0.0
 11
73.6570380099848
 21
-125.761268615723
 31
0.0
  0
LINE
  5
   266
  8
0
  6
CONTINUOUS
 62
   130
 10
82.4070380099843
 20
-120.761268615723
 30
0.0
 11
73.6570380099848
 21
-120.761268615723
 31
0.0
  0
LINE
  5
   267
  8
0
  6
CONTINUOUS
 62
   130
 10
73.6570380099848
 20
-120.761268615723
 30
0.0
 11
73.6570380099848
 21
-125.761268615723
 31
0.0
  0
LINE
  5
   268
  8
0
  6
CONTINUOUS
 62
   130
 10
74.6570384710038
 20
-120.761268615723
 30
0.0
 11
74.6570384710038
 21
-125.761268615723
 31
0.0
  0
LINE
  5
   269
  8
0
  6
CONTINUOUS
 62
   130
 10
81.4070378946562
 20
-120.761268615723
 30
0.0
 11
81.4070378946562
 21
-125.761268615723
 31
0.0
  0
LINE
  5
   26A
  8
0
  6
CONTINUOUS
 62
   130
 10
82.4070380099843
 20
-120.761268615723
 30
0.0
 11
82.4070380099843
 21
-125.761268615723
 31
0.0
  0
LINE
  5
   26B
  8
0
  6
CONTINUOUS
 62
   130
 10
86.1569900512695
 20
-126.761268615723
 30
0.0
 11
71.1569900512695
 21
-126.761268615723
 31
0.0
  0
LINE
  5
   26C
  8
0
  6
CONTINUOUS
 62
   130
 10
86.1569900512695
 20
-119.761268615723
 30
0.0
 11
71.1569900512695
 21
-119.761268615723
 31
0.0
  0
LINE
  5
   26D
  8
0
  6
CONTINUOUS
 62
   130
 10
86.1569900512695
 20
-119.761268615723
 30
0.0
 11
86.1569900512695
 21
-126.761268615723
 31
0.0
  0
LINE
  5
   26E
  8
0
  6
CONTINUOUS
 62
   130
 10
70.6569900512695
 20
-119.56125310262
 30
0.0
 11
65.1569900512695
 21
-119.56125310262
 31
0.0
  0
LINE
  5
   26F
  8
0
  6
CONTINUOUS
 62
   130
 10
65.1569900512695
 20
-114.511268615723
 30
0.0
 11
65.1569900512695
 21
-119.56125310262
 31
0.0
  0
ARC
  5
   270
  8
0
  6
CONTINUOUS
 62
   130
 10
70.6569900512695
 20
-120.06125310262
 30
0.0
 40
0.5
 50
359.999999896069
 51
449.999999896069
  0
LINE
  5
   271
  8
0
  6
DASHDOT
 62
   130
 10
130.066032729521
 20
-123.261268615723
 30
0.0
 11
64.8292120963979
 21
-123.261268615723
 31
0.0
  0
LINE
  5
   272
  8
0
  6
CONTINUOUS
 62
   130
 10
127.156997799873
 20
-110.761268615723
 30
0.0
 11
127.156997799873
 21
-130.261268615723
 31
0.0
  0
LINE
  5
   273
  8
0
  6
CONTINUOUS
 62
   130
 10
129.656997799873
 20
-110.761268615723
 30
0.0
 11
129.656997799873
 21
-130.261268615723
 31
0.0
  0
LINE
  5
   274
  8
0
  6
CONTINUOUS
 62
   130
 10
126.156997799873
 20
-120.261268615723
 30
0.0
 11
114.906997799873
 21
-120.261268615723
 31
0.0
  0
LINE
  5
   275
  8
0
  6
CONTINUOUS
 62
   130
 10
114.906997799873
 20
-120.261268615723
 30
0.0
 11
114.906997799873
 21
-122.511268615723
 31
0.0
  0
LINE
  5
   276
  8
0
  6
CONTINUOUS
 62
   130
 10
126.156997799873
 20
-122.511268615723
 30
0.0
 11
114.906997799873
 21
-122.511268615723
 31
0.0
  0
LINE
  5
   277
  8
0
  6
CONTINUOUS
 62
   130
 10
126.156997799873
 20
-120.261268615723
 30
0.0
 11
126.156997799873
 21
-122.511268615723
 31
0.0
  0
LINE
  5
   278
  8
0
  6
CONTINUOUS
 62
   130
 10
126.156997799873
 20
-124.011268615723
 30
0.0
 11
114.906997799873
 21
-124.011268615723
 31
0.0
  0
LINE
  5
   279
  8
0
  6
CONTINUOUS
 62
   130
 10
114.906997799873
 20
-124.011268615723
 30
0.0
 11
114.906997799873
 21
-126.261268615723
 31
0.0
  0
LINE
  5
   27A
  8
0
  6
CONTINUOUS
 62
   130
 10
126.156997799873
 20
-126.261268615723
 30
0.0
 11
114.906997799873
 21
-126.261268615723
 31
0.0
  0
LINE
  5
   27B
  8
0
  6
CONTINUOUS
 62
   130
 10
126.156997799873
 20
-124.011268615723
 30
0.0
 11
126.156997799873
 21
-126.261268615723
 31
0.0
  0
LINE
  5
   27C
  8
0
  6
CONTINUOUS
 62
   130
 10
92.1569900512695
 20
-110.761268615723
 30
0.0
 11
92.1569900512695
 21
-130.261268615723
 31
0.0
  0
LINE
  5
   27D
  8
0
  6
CONTINUOUS
 62
   130
 10
129.656997799873
 20
-130.261268615723
 30
0.0
 11
71.1569900512695
 21
-130.261268615723
 31
0.0
  0
LINE
  5
   27E
  8
0
  6
CONTINUOUS
 62
   130
 10
91.1569900512695
 20
-118.436253356934
 30
0.0
 11
71.1569900512695
 21
-118.436253356934
 31
0.0
  0
LINE
  5
   27F
  8
0
  6
CONTINUOUS
 62
   130
 10
91.1569900512695
 20
-115.686253356934
 30
0.0
 11
71.1569900512695
 21
-115.686253356934
 31
0.0
  0
LINE
  5
   280
  8
0
  6
CONTINUOUS
 62
   130
 10
70.6569900512695
 20
-114.461284128825
 30
0.0
 11
65.1569900512695
 21
-114.461284128825
 31
0.0
  0
LINE
  5
   281
  8
0
  6
DASHDOT
 62
   130
 10
94.3291810871718
 20
-117.036260859172
 30
0.0
 11
63.5684773090329
 21
-117.036260859172
 31
0.0
  0
ARC
  5
   282
  8
0
  6
CONTINUOUS
 62
   130
 10
70.6569900512695
 20
-113.961284128825
 30
0.0
 40
0.5
 50
269.999999896069
 51
359.999999896069
  0
TEXT
  5
   283
  8
0
  6
CONTINUOUS
 62
     2
 10
223.699153522083
 20
-168.700056543775
 30
0.0
 40
2.00000008940697
  1
4 POLE LOW VOLTAGE M.C.C.B SERIES ISOMAX
 50
359.999999896069
 41
0.75
 72
     1
 11
253.449154853821
 21
-167.700056552887
 31
0.0
 73
     2
  0
TEXT
  5
   284
  8
0
  6
CONTINUOUS
 62
     2
 10
230.449153823832
 20
-171.900056365251
 30
0.0
 40
2.00000008940697
  1
PLUG-IN VERSION FRONT TERMINALS
 50
359.999999896069
 41
0.75
 72
     1
 11
253.449154853821
 21
-170.900056362152
 31
0.0
 73
     2
  0
TEXT
  5
   285
  8
0
  6
CONTINUOUS
 62
     2
 10
220.205822314994
 20
-177.396026779536
 30
0.0
 40
2.00000008940697
  1
   INTERR.AUTOMATICO SERIE ISOMAX
 50
359.999999896069
 41
0.75
 11
220.205822318612
 21
-175.396026690129
 31
0.0
 73
     3
  0
TEXT
  5
   286
  8
0
  6
CONTINUOUS
 62
     2
 10
220.205820305928
 20
-180.596028466872
 30
0.0
 40
2.00000008940697
  1
ESECUZ.RIMOVIBILE TETR.TERMINALI ANT.
 50
359.999999896069
 41
0.75
 11
220.205820309546
 21
-178.596028377465
 31
0.0
 73
     3
  0
TEXT
  5
   287
  8
0
  6
CONTINUOUS
 62
     2
 10
127.679623602012
 20
-168.307001149551
 30
0.0
 40
2.00000008940697
  1
3/11/92
 50
359.999999896069
 41
0.75
 72
     2
 11
137.679624050856
 21
-167.307001122936
 31
0.0
 73
     2
  0
TEXT
  5
   288
  8
0
  6
CONTINUOUS
 62
     2
 10
129.311612127402
 20
-171.57098010768
 30
0.0
 40
2.00000008940697
  1
mostosi
 50
359.999999896069
 41
0.75
 72
     2
 11
139.311612576246
 21
-170.570980081066
 31
0.0
 73
     2
  0
TEXT
  5
   289
  8
0
  6
CONTINUOUS
 62
     2
 10
137.778561589841
 20
-185.534686071528
 30
0.0
 40
2.50000005960464
  1
M3727 95-01-18
 50
359.999999896069
 41
0.649999919056892
 11
137.778561592102
 21
-184.284686041726
 31
0.0
 73
     2
  0
TEXT
  5
   28A
  8
0
  6
CONTINUOUS
 62
     2
 10
252.478552271693
 20
-187.432462993183
 30
0.0
 40
3.00000002980232
  1
S1
 50
359.999999896069
 41
0.983333351877
 72
     2
 11
257.628552436829
 21
-185.932462987597
 31
0.0
 73
     2
  0
TEXT
  5
   28B
  8
0
  6
CONTINUOUS
 62
     2
 10
229.391629184735
 20
-196.889816517392
 30
0.0
 40
5.00000011920929
  1
601855/091
 50
359.999999896069
 41
0.983334023157739
 72
     2
 11
277.308331489568
 21
-194.389816544465
 31
0.0
 73
     2
  0
TEXT
  5
   28C
  8
0
  6
CONTINUOUS
 62
     2
 10
287.93658722711
 20
-198.431125664358
 30
0.0
 40
2.50000005960464
  1
1/1
 50
359.999999896069
 41
1.01399994459152
 72
     1
 11
291.426587104797
 21
-197.181125640869
 31
0.0
 73
     2
  0
INSERT
  5
   28D
  8
0
  6
CONTINUOUS
 62
     3
  2
*UDIM304
 10
0.0
 20
0.0
 30
0.0
  0
INSERT
  5
   28E
  8
0
  6
CONTINUOUS
 62
     7
  2
*UDIM305
 10
0.0
 20
0.0
 30
0.0
  0
INSERT
  5
   28F
  8
0
  6
CONTINUOUS
 62
     7
  2
*UDIM306
 10
0.0
 20
0.0
 30
0.0
  0
LINE
  5
   290
  8
0
  6
DASHDOT
 62
   130
 10
184.751798988154
 20
0.436033248901367
 30
0.0
 11
266.896198958551
 21
0.436033248901367
 31
0.0
  0
LINE
  5
   291
  8
0
  6
DASHDOT
 62
   130
 10
232.941415548325
 20
-20.3656948037159
 30
0.0
 11
232.941415548325
 21
21.2845855538373
 31
0.0
  0
CIRCLE
  5
   292
  8
0
  6
CONTINUOUS
 62
   130
 10
258.111416548491
 20
19.6360340118408
 30
0.0
 40
1.20000004768372
  0
CIRCLE
  5
   293
  8
0
  6
CONTINUOUS
 62
   130
 10
193.011413961649
 20
19.6360340118408
 30
0.0
 40
1.20000004768372
  0
CIRCLE
  5
   294
  8
0
  6
CONTINUOUS
 62
   130
 10
193.011413961649
 20
-18.7639675140381
 30
0.0
 40
1.20000004768372
  0
CIRCLE
  5
   295
  8
0
  6
CONTINUOUS
 62
   130
 10
258.111416548491
 20
-18.7639675140381
 30
0.0
 40
1.20000004768372
  0
LINE
  5
   296
  8
0
  6
CONTINUOUS
 62
   130
 10
258.741416573524
 20
-14.5639673471451
 30
0.0
 11
258.741416573524
 21
15.4360338449478
 31
0.0
  0
LINE
  5
   297
  8
0
  6
CONTINUOUS
 62
   130
 10
192.141413927078
 20
-14.5639673471451
 30
0.0
 11
192.141413927078
 21
15.4360338449478
 31
0.0
  0
LINE
  5
   298
  8
0
  6
CONTINUOUS
 62
   130
 10
193.041413962841
 20
16.3360338807106
 30
0.0
 11
257.841416537762
 21
16.3360338807106
 31
0.0
  0
LINE
  5
   299
  8
0
  6
CONTINUOUS
 62
   130
 10
193.041413962841
 20
-15.4639673829079
 30
0.0
 11
257.841416537762
 21
-15.4639673829079
 31
0.0
  0
ARC
  5
   29A
  8
0
  6
CONTINUOUS
 62
   130
 10
257.841416537762
 20
15.4360338449478
 30
0.0
 40
0.900000035762787
 50
360.0
 51
450.0
  0
ARC
  5
   29B
  8
0
  6
CONTINUOUS
 62
   130
 10
257.841416537762
 20
-14.5639673471451
 30
0.0
 40
0.900000035762787
 50
270.0
 51
360.0
  0
ARC
  5
   29C
  8
0
  6
CONTINUOUS
 62
   130
 10
193.041413962841
 20
-14.5639673471451
 30
0.0
 40
0.900000035762787
 50
180.0
 51
270.0
  0
ARC
  5
   29D
  8
0
  6
CONTINUOUS
 62
   130
 10
193.041413962841
 20
15.4360338449478
 30
0.0
 40
0.900000035762787
 50
90.0
 51
180.0
  0
LINE
  5
   29E
  8
0
  6
CONTINUOUS
 62
   130
 10
186.373184163468
 20
22.5478474196492
 30
0.0
 11
262.475212810481
 21
22.5478474196492
 31
0.0
  0
LINE
  5
   29F
  8
0
  6
CONTINUOUS
 62
   130
 10
186.373184163468
 20
-23.8212956164379
 30
0.0
 11
262.475212810481
 21
-23.8212956164379
 31
0.0
  0
LINE
  5
   2A0
  8
0
  6
CONTINUOUS
 62
   130
 10
262.475212810481
 20
-23.8212956164379
 30
0.0
 11
262.475212810481
 21
22.5478474196492
 31
0.0
  0
LINE
  5
   2A1
  8
0
  6
CONTINUOUS
 62
   130
 10
186.373184163468
 20
-23.8212956164379
 30
0.0
 11
186.373184163468
 21
22.5478474196492
 31
0.0
  0
LINE
  5
   2A2
  8
0
  6
DASHDOT
 62
     2
 10
258.111416548491
 20
14.2360337972641
 30
0.0
 11
258.111416548491
 21
25.0360342264175
 31
0.0
  0
LINE
  5
   2A3
  8
0
  6
DASHDOT
 62
     2
 10
252.711416333914
 20
19.6360340118408
 30
0.0
 11
263.511416763067
 21
19.6360340118408
 31
0.0
  0
LINE
  5
   2A4
  8
0
  6
DASHDOT
 62
     2
 10
193.011413961649
 20
14.2360337972641
 30
0.0
 11
193.011413961649
 21
25.0360342264175
 31
0.0
  0
LINE
  5
   2A5
  8
0
  6
DASHDOT
 62
     2
 10
187.611413747072
 20
19.6360340118408
 30
0.0
 11
198.411414176226
 21
19.6360340118408
 31
0.0
  0
LINE
  5
   2A6
  8
0
  6
DASHDOT
 62
     2
 10
193.011413961649
 20
-24.1639677286148
 30
0.0
 11
193.011413961649
 21
-13.3639672994614
 31
0.0
  0
LINE
  5
   2A7
  8
0
  6
DASHDOT
 62
     2
 10
187.611413747072
 20
-18.7639675140381
 30
0.0
 11
198.411414176226
 21
-18.7639675140381
 31
0.0
  0
LINE
  5
   2A8
  8
0
  6
DASHDOT
 62
     2
 10
258.111416548491
 20
-24.1639677286148
 30
0.0
 11
258.111416548491
 21
-13.3639672994614
 31
0.0
  0
LINE
  5
   2A9
  8
0
  6
DASHDOT
 62
     2
 10
252.711416333914
 20
-18.7639675140381
 30
0.0
 11
263.511416763067
 21
-18.7639675140381
 31
0.0
  0
INSERT
  5
   2AA
  8
0
  6
CONTINUOUS
 62
     3
  2
*UDIM307
 10
0.0
 20
0.0
 30
0.0
  0
TEXT
  5
   2AB
  8
0
  6
CONTINUOUS
 62
     2
 10
267.730735015452
 20
-0.799336702643737
 30
0.0
 40
2.99999994039535
  1
X
 50
360.0
 41
0.983333333333333
 11
267.730735015445
 21
0.700663267553937
 31
0.0
 73
     2
  0
TEXT
  5
   2AC
  8
0
  6
CONTINUOUS
 62
     2
 10
180.452714831427
 20
-1.26392736603635
 30
0.0
 40
2.99999994039535
  1
X
 50
360.0
 41
0.983333333333333
 72
     2
 11
182.65271478771
 21
0.236072604172376
 31
0.0
 73
     2
  0
TEXT
  5
   2AD
  8
0
  6
CONTINUOUS
 62
     2
 10
232.377691329975
 20
33.800652535933
 30
0.0
 40
2.99999994039535
  1
Y
 50
360.0
 41
0.983333333333333
 72
     2
 11
234.577691286257
 21
35.3006525061417
 31
0.0
 73
     2
  0
TEXT
  5
   2AE
  8
0
  6
CONTINUOUS
 62
     2
 10
232.642150568999
 20
-36.9060946584663
 30
0.0
 40
2.99999994039535
  1
Y
 50
360.0
 41
0.983333333333333
 72
     2
 11
234.842150525281
 21
-35.4060946882575
 31
0.0
 73
     2
  0
INSERT
  5
   2AF
  8
0
  6
CONTINUOUS
 62
     3
  2
*UDIM308
 10
0.0
 20
0.0
 30
0.0
  0
INSERT
  5
   2B0
  8
0
  6
CONTINUOUS
 62
     3
  2
*UDIM309
 10
0.0
 20
0.0
 30
0.0
  0
INSERT
  5
   2B1
  8
0
  6
CONTINUOUS
 62
     3
  2
*UDIM310
 10
0.0
 20
0.0
 30
0.0
  0
INSERT
  5
   2B2
  8
0
  6
CONTINUOUS
 62
     3
  2
*UDIM311
 10
0.0
 20
0.0
 30
0.0
  0
INSERT
  5
   2B3
  8
0
  6
CONTINUOUS
 62
     3
  2
*UDIM312
 10
0.0
 20
0.0
 30
0.0
  0
INSERT
  5
   2B4
  8
0
  6
CONTINUOUS
 62
     3
  2
*UDIM313
 10
0.0
 20
0.0
 30
0.0
  0
INSERT
  5
   2B5
  8
0
  6
CONTINUOUS
 62
     7
  2
*UDIM314
 10
0.0
 20
0.0
 30
0.0
  0
CIRCLE
  5
   2B6
  8
0
  6
CONTINUOUS
 62
     2
 10
3.73618473054369
 20
35.9360179901138
 30
0.0
 40
1.0
  0
LINE
  5
   2B7
  8
0
  6
CONTINUOUS
 62
     2
 10
2.94623562287526
 20
35.322845577742
 30
0.0
 11
4.3493571429155
 21
36.7259670977823
 31
0.0
  0
LINE
  5
   2B8
  8
0
  6
CONTINUOUS
 62
     2
 10
3.12301231817191
 20
35.1460688824454
 30
0.0
 11
4.52613383821211
 21
36.5491904024856
 31
0.0
  0
LINE
  5
   2B9
  8
0
  6
DASHDOT
 62
     2
 10
3.73618473054369
 20
30.9360179901138
 30
0.0
 11
3.73618473054369
 21
40.9360179901138
 31
0.0
  0
LINE
  5
   2BA
  8
0
  6
DASHDOT
 62
     2
 10
-1.26381526945631
 20
35.9360179901138
 30
0.0
 11
8.73618473054369
 21
35.9360179901138
 31
0.0
  0
LINE
  5
   2BB
  8
0
  6
CONTINUOUS
 62
     7
 10
13.9861283302307
 20
-22.9389305114746
 30
0.0
 11
13.9861283302307
 21
23.8110694885254
 31
0.0
  0
LINE
  5
   2BC
  8
0
  6
CONTINUOUS
 62
     7
 10
-43.3888716697693
 20
-23.5639305114746
 30
0.0
 11
13.3611283302307
 21
-23.5639305114746
 31
0.0
  0
LINE
  5
   2BD
  8
0
  6
CONTINUOUS
 62
     7
 10
-44.0138716697693
 20
-22.9389305114746
 30
0.0
 11
-44.0138716697693
 21
23.8110694885254
 31
0.0
  0
LINE
  5
   2BE
  8
0
  6
CONTINUOUS
 62
     7
 10
-43.3888716697693
 20
24.4360694885254
 30
0.0
 11
13.3611283302307
 21
24.4360694885254
 31
0.0
  0
LINE
  5
   2BF
  8
0
  6
CONTINUOUS
 62
     7
 10
-41.5138716697693
 20
-11.5639305114746
 30
0.0
 11
11.4861283302307
 21
-11.5639305114746
 31
0.0
  0
LINE
  5
   2C0
  8
0
  6
CONTINUOUS
 62
     7
 10
-41.5138716697693
 20
12.4360694885254
 30
0.0
 11
11.4861283302307
 21
12.4360694885254
 31
0.0
  0
LINE
  5
   2C1
  8
0
  6
CONTINUOUS
 62
     7
 10
-41.7638716697693
 20
-23.5639305114746
 30
0.0
 11
-41.7638716697693
 21
24.4360694885254
 31
0.0
  0
LINE
  5
   2C2
  8
0
  6
CONTINUOUS
 62
     7
 10
-41.2638716697693
 20
12.4360694885254
 30
0.0
 11
-41.2638716697693
 21
17.6860694885254
 31
0.0
  0
LINE
  5
   2C3
  8
0
  6
CONTINUOUS
 62
     7
 10
-41.2638716697693
 20
-16.8139305114746
 30
0.0
 11
-41.2638716697693
 21
-11.5639305114746
 31
0.0
  0
LINE
  5
   2C4
  8
0
  6
CONTINUOUS
 62
     7
 10
-41.2638716697693
 20
-23.5639305114746
 30
0.0
 11
-41.2638716697693
 21
-17.3139305114746
 31
0.0
  0
LINE
  5
   2C5
  8
0
  6
CONTINUOUS
 62
     7
 10
11.7361283302307
 20
-23.5639305114746
 30
0.0
 11
11.7361283302307
 21
24.4360694885254
 31
0.0
  0
LINE
  5
   2C6
  8
0
  6
CONTINUOUS
 62
     7
 10
11.2361283302307
 20
-16.8139305114746
 30
0.0
 11
11.2361283302307
 21
-11.5639305114746
 31
0.0
  0
LINE
  5
   2C7
  8
0
  6
CONTINUOUS
 62
     7
 10
11.2361283302307
 20
-23.5639305114746
 30
0.0
 11
11.2361283302307
 21
-17.3139305114746
 31
0.0
  0
LINE
  5
   2C8
  8
0
  6
CONTINUOUS
 62
     7
 10
11.2361283302307
 20
12.4360694885254
 30
0.0
 11
11.2361283302307
 21
17.6860694885254
 31
0.0
  0
LINE
  5
   2C9
  8
0
  6
CONTINUOUS
 62
     7
 10
-41.7638716697693
 20
18.1860694885254
 30
0.0
 11
11.7361283302307
 21
18.1860694885254
 31
0.0
  0
LINE
  5
   2CA
  8
0
  6
CONTINUOUS
 62
     7
 10
-41.2638716697693
 20
17.6860694885254
 30
0.0
 11
11.2361283302307
 21
17.6860694885254
 31
0.0
  0
LINE
  5
   2CB
  8
0
  6
CONTINUOUS
 62
     7
 10
-41.2638716697693
 20
-17.3139305114746
 30
0.0
 11
11.2361283302307
 21
-17.3139305114746
 31
0.0
  0
LINE
  5
   2CC
  8
0
  6
CONTINUOUS
 62
     7
 10
-41.2638716697693
 20
-16.8139305114746
 30
0.0
 11
11.2361283302307
 21
-16.8139305114746
 31
0.0
  0
LINE
  5
   2CD
  8
0
  6
CONTINUOUS
 62
     7
 10
-41.7638716697693
 20
21.6860694885254
 30
0.0
 11
-41.6138701438904
 21
21.6860694885254
 31
0.0
  0
LINE
  5
   2CE
  8
0
  6
CONTINUOUS
 62
     7
 10
-41.7638716697693
 20
20.9360694885254
 30
0.0
 11
-41.6138701438904
 21
20.9360694885254
 31
0.0
  0
LINE
  5
   2CF
  8
0
  6
CONTINUOUS
 62
     7
 10
11.5861282348633
 20
21.6860694885254
 30
0.0
 11
11.7361283302307
 21
21.6860694885254
 31
0.0
  0
LINE
  5
   2D0
  8
0
  6
CONTINUOUS
 62
     7
 10
11.5861282348633
 20
20.9360694885254
 30
0.0
 11
11.7361283302307
 21
20.9360694885254
 31
0.0
  0
ARC
  5
   2D1
  8
0
  6
CONTINUOUS
 62
     7
 10
-41.6138901152284
 20
21.3110570295482
 30
0.0
 40
0.375021724720464
 50
270.002994872341
 51
449.997011910154
  0
ARC
  5
   2D2
  8
0
  6
CONTINUOUS
 62
     7
 10
11.5861356664221
 20
21.3110667334602
 30
0.0
 40
0.375007470094436
 50
90.0011356573896
 51
269.998857743064
  0
ARC
  5
   2D3
  8
0
  6
CONTINUOUS
 62
     7
 10
13.3611283302307
 20
23.8110694885254
 30
0.0
 40
0.625
 50
360.0
 51
450.0
  0
ARC
  5
   2D4
  8
0
  6
CONTINUOUS
 62
     7
 10
-43.3888716697693
 20
23.8110694885254
 30
0.0
 40
0.625
 50
90.0
 51
180.0
  0
ARC
  5
   2D5
  8
0
  6
CONTINUOUS
 62
     7
 10
-43.3888716697693
 20
-22.9389305114746
 30
0.0
 40
0.625
 50
180.0
 51
270.0
  0
ARC
  5
   2D6
  8
0
  6
CONTINUOUS
 62
     7
 10
13.3611283302307
 20
-22.9389305114746
 30
0.0
 40
0.625
 50
270.0
 51
360.0
  0
LINE
  5
   2D7
  8
0
  6
CONTINUOUS
 62
     7
 10
11.4861283302307
 20
-11.5639305114746
 30
0.0
 11
11.4861283302307
 21
12.4360694885254
 31
0.0
  0
LINE
  5
   2D8
  8
0
  6
CONTINUOUS
 62
     7
 10
-41.5138716697693
 20
-11.5639305114746
 30
0.0
 11
-41.5138716697693
 21
12.4360694885254
 31
0.0
  0
LINE
  5
   2D9
  8
0
  6
CONTINUOUS
 62
   130
 10
20.1926021575928
 20
-0.813982009887695
 30
0.0
 11
20.1926021575928
 21
-0.813982009887695
 31
0.0
  0
LINE
  5
   2DA
  8
0
  6
CONTINUOUS
 62
   130
 10
20.1926021575928
 20
-0.813982009887695
 30
0.0
 11
20.1926021575928
 21
-0.813982009887695
 31
0.0
  0
LINE
  5
   2DB
  8
0
  6
CONTINUOUS
 62
   130
 10
20.1926021575928
 20
-0.813982009887695
 30
0.0
 11
20.1926021575928
 21
-0.813982009887695
 31
0.0
  0
LINE
  5
   2DC
  8
0
  6
CONTINUOUS
 62
   130
 10
20.1926021575928
 20
-0.813982009887695
 30
0.0
 11
20.1926021575928
 21
-0.813982009887695
 31
0.0
  0
LINE
  5
   2DD
  8
0
  6
CONTINUOUS
 62
   130
 10
20.1926021575928
 20
-0.813982009887695
 30
0.0
 11
20.1926021575928
 21
-0.813982009887695
 31
0.0
  0
LINE
  5
   2DE
  8
0
  6
CONTINUOUS
 62
   130
 10
20.1926021575928
 20
-0.813982009887695
 30
0.0
 11
20.1926021575928
 21
-0.813982009887695
 31
0.0
  0
LINE
  5
   2DF
  8
0
  6
CONTINUOUS
 62
   130
 10
20.1926021575928
 20
-0.813982009887695
 30
0.0
 11
20.1926021575928
 21
-0.813982009887695
 31
0.0
  0
LINE
  5
   2E0
  8
0
  6
CONTINUOUS
 62
   130
 10
20.1926021575928
 20
-0.813982009887695
 30
0.0
 11
20.1926021575928
 21
-0.813982009887695
 31
0.0
  0
LINE
  5
   2E1
  8
0
  6
CONTINUOUS
 62
   130
 10
-40.7638034820533
 20
24.4360694885254
 30
0.0
 11
-40.7638034820533
 21
47.1860218048108
 31
0.0
  0
LINE
  5
   2E2
  8
0
  6
CONTINUOUS
 62
   130
 10
-40.7638019561785
 20
-10.8139667510952
 30
0.0
 11
-8.7638172149673
 21
-10.8139667510952
 31
0.0
  0
LINE
  5
   2E3
  8
0
  6
CONTINUOUS
 62
   130
 10
-40.7638053894053
 20
11.6860332488988
 30
0.0
 11
-8.76382064819413
 21
11.6860332488988
 31
0.0
  0
LINE
  5
   2E4
  8
0
  6
CONTINUOUS
 62
   130
 10
-12.5138262107091
 20
7.50403496950648
 30
0.0
 11
-5.44160343801428
 21
7.50403496950648
 31
0.0
  0
LINE
  5
   2E5
  8
0
  6
CONTINUOUS
 62
   130
 10
-12.5138258934018
 20
-5.01989214841571
 30
0.0
 11
-12.5138258934018
 21
8.43603324889884
 31
0.0
  0
LINE
  5
   2E6
  8
0
  6
CONTINUOUS
 62
   130
 10
-12.513825732959
 20
-5.01989214841571
 30
0.0
 11
-12.013825732959
 21
-5.01989214841571
 31
0.0
  0
LINE
  5
   2E7
  8
0
  6
CONTINUOUS
 62
   130
 10
-12.5138257401345
 20
-4.83179040581878
 30
0.0
 11
-12.0138257401345
 21
-4.83179040581878
 31
0.0
  0
LINE
  5
   2E8
  8
0
  6
CONTINUOUS
 62
   130
 10
-28.2638047790539
 20
7.68603324889884
 30
0.0
 11
-12.5138262176518
 21
7.68603324889884
 31
0.0
  0
LINE
  5
   2E9
  8
0
  6
CONTINUOUS
 62
   130
 10
-28.2638350296018
 20
-7.56396675109522
 30
0.0
 11
-21.5638175964359
 21
-7.56396675109522
 31
0.0
  0
LINE
  5
   2EA
  8
0
  6
CONTINUOUS
 62
   130
 10
-28.2638349151609
 20
-6.81396675109522
 30
0.0
 11
-12.0138256645204
 21
-6.81396675109522
 31
0.0
  0
LINE
  5
   2EB
  8
0
  6
CONTINUOUS
 62
   130
 10
-16.5638175964359
 20
-7.56396675109522
 30
0.0
 11
10.7361649703987
 21
-7.56396675109522
 31
0.0
  0
LINE
  5
   2EC
  8
0
  6
CONTINUOUS
 62
   130
 10
-12.0138258934018
 20
-6.63030022145089
 30
0.0
 11
-12.0138258934018
 21
-2.42379462331528
 31
0.0
  0
LINE
  5
   2ED
  8
0
  6
CONTINUOUS
 62
   130
 10
20.1926021575928
 20
-0.813982009887695
 30
0.0
 11
20.1926021575928
 21
-0.813982009887695
 31
0.0
  0
LINE
  5
   2EE
  8
0
  6
CONTINUOUS
 62
   130
 10
20.1926021575928
 20
-0.813982009887695
 30
0.0
 11
20.1926021575928
 21
-0.813982009887695
 31
0.0
  0
LINE
  5
   2EF
  8
0
  6
CONTINUOUS
 62
   130
 10
20.1926021575928
 20
-0.813982009887695
 30
0.0
 11
20.1926021575928
 21
-0.813982009887695
 31
0.0
  0
LINE
  5
   2F0
  8
0
  6
CONTINUOUS
 62
   130
 10
20.1926021575928
 20
-0.813982009887695
 30
0.0
 11
20.1926021575928
 21
-0.813982009887695
 31
0.0
  0
LINE
  5
   2F1
  8
0
  6
CONTINUOUS
 62
   130
 10
20.1926021575928
 20
-0.813982009887695
 30
0.0
 11
20.1926021575928
 21
-0.813982009887695
 31
0.0
  0
LINE
  5
   2F2
  8
0
  6
CONTINUOUS
 62
   130
 10
20.1926021575928
 20
-0.813982009887695
 30
0.0
 11
20.1926021575928
 21
-0.813982009887695
 31
0.0
  0
LINE
  5
   2F3
  8
0
  6
CONTINUOUS
 62
   130
 10
20.1926021575928
 20
-0.813982009887695
 30
0.0
 11
20.1926021575928
 21
-0.813982009887695
 31
0.0
  0
LINE
  5
   2F4
  8
0
  6
CONTINUOUS
 62
   130
 10
-40.2638187408422
 20
28.4360121073551
 30
0.0
 11
-40.2638187408422
 21
29.1860121073551
 31
0.0
  0
LINE
  5
   2F5
  8
0
  6
CONTINUOUS
 62
   130
 10
-40.7638080596896
 20
29.1860121073551
 30
0.0
 11
-8.76383363875539
 21
29.1860121073551
 31
0.0
  0
LINE
  5
   2F6
  8
0
  6
CONTINUOUS
 62
   130
 10
-40.7638079452487
 20
28.4360121073551
 30
0.0
 11
-8.76381874084473
 21
28.4360121073551
 31
0.0
  0
LINE
  5
   2F7
  8
0
  6
CONTINUOUS
 62
   130
 10
20.1926021575928
 20
-0.813982009887695
 30
0.0
 11
20.1926021575928
 21
-0.813982009887695
 31
0.0
  0
LINE
  5
   2F8
  8
0
  6
CONTINUOUS
 62
   130
 10
20.1926021575928
 20
-0.813982009887695
 30
0.0
 11
20.1926021575928
 21
-0.813982009887695
 31
0.0
  0
LINE
  5
   2F9
  8
0
  6
CONTINUOUS
 62
   130
 10
20.1926021575928
 20
-0.813982009887695
 30
0.0
 11
20.1926021575928
 21
-0.813982009887695
 31
0.0
  0
LINE
  5
   2FA
  8
0
  6
CONTINUOUS
 62
   130
 10
20.1926021575928
 20
-0.813982009887695
 30
0.0
 11
20.1926021575928
 21
-0.813982009887695
 31
0.0
  0
LINE
  5
   2FB
  8
0
  6
CONTINUOUS
 62
   130
 10
20.1926021575928
 20
-0.813982009887695
 30
0.0
 11
20.1926021575928
 21
-0.813982009887695
 31
0.0
  0
LINE
  5
   2FC
  8
0
  6
CONTINUOUS
 62
   130
 10
20.1926021575928
 20
-0.813982009887695
 30
0.0
 11
20.1926021575928
 21
-0.813982009887695
 31
0.0
  0
LINE
  5
   2FD
  8
0
  6
CONTINUOUS
 62
   130
 10
20.1926021575928
 20
-0.813982009887695
 30
0.0
 11
20.1926021575928
 21
-0.813982009887695
 31
0.0
  0
LINE
  5
   2FE
  8
0
  6
CONTINUOUS
 62
   130
 10
20.1926021575928
 20
-0.813982009887695
 30
0.0
 11
20.1926021575928
 21
-0.813982009887695
 31
0.0
  0
LINE
  5
   2FF
  8
0
  6
CONTINUOUS
 62
   130
 10
10.7361660003646
 20
24.4360694885254
 30
0.0
 11
10.7361660003646
 21
47.1860218048108
 31
0.0
  0
LINE
  5
   300
  8
0
  6
CONTINUOUS
 62
   130
 10
-5.51381127098116
 20
7.50403496950648
 30
0.0
 11
-5.01381127098117
 21
7.50403496950648
 31
0.0
  0
LINE
  5
   301
  8
0
  6
CONTINUOUS
 62
   130
 10
-5.01381158828847
 20
-5.01989214841571
 30
0.0
 11
-5.01381158828847
 21
8.43603324889884
 31
0.0
  0
LINE
  5
   302
  8
0
  6
CONTINUOUS
 62
   130
 10
-5.51381174873132
 20
-5.01989214841571
 30
0.0
 11
-5.01381174873134
 21
-5.01989214841571
 31
0.0
  0
LINE
  5
   303
  8
0
  6
CONTINUOUS
 62
   130
 10
-5.5138117415558
 20
-4.83179040581878
 30
0.0
 11
-5.01381174155582
 21
-4.83179040581878
 31
0.0
  0
LINE
  5
   304
  8
0
  6
CONTINUOUS
 62
   130
 10
-28.2638048934948
 20
8.43603324889884
 30
0.0
 11
10.7361674118044
 21
8.43603324889884
 31
0.0
  0
LINE
  5
   305
  8
0
  6
CONTINUOUS
 62
   130
 10
-5.01381126403849
 20
7.68603324889884
 30
0.0
 11
10.7361672973636
 21
7.68603324889884
 31
0.0
  0
LINE
  5
   306
  8
0
  6
CONTINUOUS
 62
   130
 10
-5.51381158828846
 20
-6.63030022145089
 30
0.0
 11
-5.51381158828846
 21
-2.42379462331528
 31
0.0
  0
LINE
  5
   307
  8
0
  6
CONTINUOUS
 62
   130
 10
20.1926021575928
 20
-0.813982009887695
 30
0.0
 11
20.1926021575928
 21
-0.813982009887695
 31
0.0
  0
LINE
  5
   308
  8
0
  6
CONTINUOUS
 62
   130
 10
20.1926021575928
 20
-0.813982009887695
 30
0.0
 11
20.1926021575928
 21
-0.813982009887695
 31
0.0
  0
LINE
  5
   309
  8
0
  6
CONTINUOUS
 62
   130
 10
20.1926021575928
 20
-0.813982009887695
 30
0.0
 11
20.1926021575928
 21
-0.813982009887695
 31
0.0
  0
LINE
  5
   30A
  8
0
  6
CONTINUOUS
 62
   130
 10
20.1926021575928
 20
-0.813982009887695
 30
0.0
 11
20.1926021575928
 21
-0.813982009887695
 31
0.0
  0
LINE
  5
   30B
  8
0
  6
CONTINUOUS
 62
   130
 10
20.1926021575928
 20
-0.813982009887695
 30
0.0
 11
20.1926021575928
 21
-0.813982009887695
 31
0.0
  0
LINE
  5
   30C
  8
0
  6
CONTINUOUS
 62
   130
 10
20.1926021575928
 20
-0.813982009887695
 30
0.0
 11
20.1926021575928
 21
-0.813982009887695
 31
0.0
  0
LINE
  5
   30D
  8
0
  6
CONTINUOUS
 62
   130
 10
20.1926021575928
 20
-0.813982009887695
 30
0.0
 11
20.1926021575928
 21
-0.813982009887695
 31
0.0
  0
LINE
  5
   30E
  8
0
  6
CONTINUOUS
 62
   130
 10
10.2361812591534
 20
28.4360121073551
 30
0.0
 11
10.2361812591534
 21
29.1860121073551
 31
0.0
  0
LINE
  5
   30F
  8
0
  6
CONTINUOUS
 62
   130
 10
-8.76380384293493
 20
29.1860121073551
 30
0.0
 11
10.7361705779993
 21
29.1860121073551
 31
0.0
  0
LINE
  5
   310
  8
0
  6
CONTINUOUS
 62
   130
 10
-8.76381874084559
 20
28.4360121073551
 30
0.0
 11
10.7361704635584
 21
28.4360121073551
 31
0.0
  0
LINE
  5
   311
  8
0
  6
CONTINUOUS
 62
   130
 10
-8.76380384293493
 20
-41.0203269689246
 30
0.0
 11
-8.76380384293493
 21
38.8221550323911
 31
0.0
  0
LINE
  5
   312
  8
0
  6
CONTINUOUS
 62
   130
 10
-12.0138258319923
 20
-2.42379462331528
 30
0.0
 11
-5.51381164969801
 21
-2.42379462331528
 31
0.0
  0
LINE
  5
   313
  8
0
  6
CONTINUOUS
 62
   130
 10
-11.7638257176315
 20
-5.1716927016986
 30
0.0
 11
-5.7638117640588
 21
-5.1716927016986
 31
0.0
  0
LINE
  5
   314
  8
0
  6
CONTINUOUS
 62
   130
 10
-11.7638256715268
 20
-6.88030021191414
 30
0.0
 11
-5.76381181016355
 21
-6.88030021191414
 31
0.0
  0
LINE
  5
   315
  8
0
  6
CONTINUOUS
 62
   130
 10
-5.51381181716987
 20
-6.81396675109522
 30
0.0
 11
10.7361650848396
 21
-6.81396675109522
 31
0.0
  0
ARC
  5
   316
  8
0
  6
CONTINUOUS
 62
   130
 10
-11.7638256715268
 20
-6.63030021191414
 30
0.0
 40
0.25
 50
180.000002185662
 51
270.0
  0
ARC
  5
   317
  8
0
  6
CONTINUOUS
 62
   130
 10
-5.76381181016355
 20
-6.63030021191414
 30
0.0
 40
0.25
 50
270.0
 51
359.999997814338
  0
ARC
  5
   318
  8
0
  6
CONTINUOUS
 62
   130
 10
-5.7638117640588
 20
-5.4216927016986
 30
0.0
 40
0.25
 50
359.999997814338
 51
450.0
  0
ARC
  5
   319
  8
0
  6
CONTINUOUS
 62
   130
 10
-11.7638257176315
 20
-5.4216927016986
 30
0.0
 40
0.25
 50
90.0
 51
180.000002185662
  0
LINE
  5
   31A
  8
0
  6
CONTINUOUS
 62
   130
 10
-8.76382026672302
 20
-10.8139667510952
 30
0.0
 11
10.7361644744882
 21
-10.8139667510952
 31
0.0
  0
LINE
  5
   31B
  8
0
  6
CONTINUOUS
 62
   130
 10
-8.76381683349619
 20
11.6860332488988
 30
0.0
 11
10.736167907715
 21
11.6860332488988
 31
0.0
  0
LINE
  5
   31C
  8
0
  6
DASHDOT
 62
   130
 10
-48.2526916633099
 20
0.436033248898845
 30
0.0
 11
17.7348562937622
 21
0.436033248898845
 31
0.0
  0
LINE
  5
   31D
  8
0
  6
CONTINUOUS
 62
   130
 10
-15.64817237854
 20
6.61410666948776
 30
0.0
 11
-15.27317237854
 21
6.61410666948776
 31
0.0
  0
LINE
  5
   31E
  8
0
  6
CONTINUOUS
 62
   130
 10
-15.64817237854
 20
4.36410666948776
 30
0.0
 11
-15.27317237854
 21
4.36410666948776
 31
0.0
  0
CIRCLE
  5
   31F
  8
0
  6
CONTINUOUS
 62
   130
 10
-15.46067237854
 20
-2.88589333051223
 30
0.0
 40
1.125
  0
CIRCLE
  5
   320
  8
0
  6
CONTINUOUS
 62
   130
 10
-15.46067237854
 20
-2.88589333051223
 30
0.0
 40
0.75
  0
LINE
  5
   321
  8
0
  6
CONTINUOUS
 62
   130
 10
-15.64817237854
 20
4.36410666948776
 30
0.0
 11
-15.64817237854
 21
6.61410666948776
 31
0.0
  0
LINE
  5
   322
  8
0
  6
CONTINUOUS
 62
   130
 10
-15.27317237854
 20
4.36410666948776
 30
0.0
 11
-15.27317237854
 21
6.61410666948776
 31
0.0
  0
LINE
  5
   323
  8
0
  6
CONTINUOUS
 62
   130
 10
-1.37317481994631
 20
-1.92339333051224
 30
0.0
 11
-1.26067481994631
 21
-1.92339333051224
 31
0.0
  0
LINE
  5
   324
  8
0
  6
CONTINUOUS
 62
   130
 10
-1.69817481994632
 20
-3.84839333051224
 30
0.0
 11
-1.49817481994631
 21
-3.84839333051224
 31
0.0
  0
LINE
  5
   325
  8
0
  6
CONTINUOUS
 62
   130
 10
-1.9981748199463
 20
-3.19839333051222
 30
0.0
 11
-1.9981748199463
 21
-3.07339333051222
 31
0.0
  0
ARC
  5
   326
  8
0
  6
CONTINUOUS
 62
   130
 10
-2.64817481994631
 20
-3.07339333051224
 30
0.0
 40
0.65
 50
360.0
 51
540.0
  0
ARC
  5
   327
  8
0
  6
CONTINUOUS
 62
   130
 10
-2.64817481994631
 20
-3.19839333051223
 30
0.0
 40
0.649999999999999
 50
180.0
 51
360.0
  0
ARC
  5
   328
  8
0
  6
CONTINUOUS
 62
   130
 10
-2.64817481994631
 20
-3.07339333051224
 30
0.0
 40
0.45
 50
360.0
 51
540.0
  0
ARC
  5
   329
  8
0
  6
CONTINUOUS
 62
   130
 10
-2.64817481994631
 20
-3.19839333051223
 30
0.0
 40
0.449999999999999
 50
180.0
 51
360.0
  0
LINE
  5
   32A
  8
0
  6
CONTINUOUS
 62
   130
 10
-2.1981748199463
 20
-3.19839333051222
 30
0.0
 11
-2.1981748199463
 21
-3.07339333051222
 31
0.0
  0
LINE
  5
   32B
  8
0
  6
CONTINUOUS
 62
   130
 10
-1.9356748199463
 20
-2.72339333051222
 30
0.0
 11
-1.9356748199463
 21
-2.52339333051222
 31
0.0
  0
LINE
  5
   32C
  8
0
  6
CONTINUOUS
 62
   130
 10
-1.93567481994631
 20
-2.72339333051224
 30
0.0
 11
-1.69817481994631
 21
-2.72339333051224
 31
0.0
  0
LINE
  5
   32D
  8
0
  6
CONTINUOUS
 62
   130
 10
-1.2606748199463
 20
-2.72339333051222
 30
0.0
 11
-1.2606748199463
 21
-2.52339333051222
 31
0.0
  0
LINE
  5
   32E
  8
0
  6
CONTINUOUS
 62
   130
 10
-1.93567481994631
 20
-2.52339333051224
 30
0.0
 11
-1.69817481994631
 21
-2.52339333051224
 31
0.0
  0
LINE
  5
   32F
  8
0
  6
CONTINUOUS
 62
   130
 10
-1.6981748199463
 20
-3.84839333051222
 30
0.0
 11
-1.6981748199463
 21
-2.72339333051222
 31
0.0
  0
LINE
  5
   330
  8
0
  6
CONTINUOUS
 62
   130
 10
-1.4981748199463
 20
-3.84839333051222
 30
0.0
 11
-1.4981748199463
 21
-2.72339333051222
 31
0.0
  0
LINE
  5
   331
  8
0
  6
CONTINUOUS
 62
   130
 10
-1.49817481994631
 20
-2.72339333051224
 30
0.0
 11
-1.26067481994631
 21
-2.72339333051224
 31
0.0
  0
LINE
  5
   332
  8
0
  6
CONTINUOUS
 62
   130
 10
-1.49817481994631
 20
-2.52339333051224
 30
0.0
 11
-1.26067481994631
 21
-2.52339333051224
 31
0.0
  0
LINE
  5
   333
  8
0
  6
CONTINUOUS
 62
   130
 10
-1.6981748199463
 20
-2.52339333051222
 30
0.0
 11
-1.6981748199463
 21
-2.24839333051222
 31
0.0
  0
LINE
  5
   334
  8
0
  6
CONTINUOUS
 62
   130
 10
-1.4981748199463
 20
-2.52339333051223
 30
0.0
 11
-1.4981748199463
 21
-2.24839333051222
 31
0.0
  0
ARC
  5
   335
  8
0
  6
CONTINUOUS
 62
   130
 10
-1.37317481994631
 20
-2.24839333051224
 30
0.0
 40
0.325
 50
89.9999999999997
 51
180.0
  0
ARC
  5
   336
  8
0
  6
CONTINUOUS
 62
   130
 10
-1.37317481994631
 20
-2.24839333051224
 30
0.0
 40
0.125
 50
89.9999999999997
 51
180.0
  0
LINE
  5
   337
  8
0
  6
CONTINUOUS
 62
   130
 10
-1.2606748199463
 20
-2.12339333051222
 30
0.0
 11
-1.2606748199463
 21
-1.92339333051222
 31
0.0
  0
LINE
  5
   338
  8
0
  6
CONTINUOUS
 62
   130
 10
-1.37317481994631
 20
-2.12339333051224
 30
0.0
 11
-1.26067481994631
 21
-2.12339333051224
 31
0.0
  0
LINE
  5
   339
  8
0
  6
CONTINUOUS
 62
   130
 10
-0.898174819946316
 20
-3.84839333051224
 30
0.0
 11
-0.698174819946317
 21
-3.84839333051224
 31
0.0
  0
LINE
  5
   33A
  8
0
  6
CONTINUOUS
 62
   130
 10
-1.1356748199463
 20
-2.72339333051222
 30
0.0
 11
-1.1356748199463
 21
-2.52339333051223
 31
0.0
  0
LINE
  5
   33B
  8
0
  6
CONTINUOUS
 62
   130
 10
-1.13567481994631
 20
-2.72339333051224
 30
0.0
 11
-0.898174819946313
 21
-2.72339333051224
 31
0.0
  0
LINE
  5
   33C
  8
0
  6
CONTINUOUS
 62
   130
 10
-0.460674819946306
 20
-2.72339333051222
 30
0.0
 11
-0.460674819946306
 21
-2.52339333051223
 31
0.0
  0
LINE
  5
   33D
  8
0
  6
CONTINUOUS
 62
   130
 10
-1.13567481994631
 20
-2.52339333051224
 30
0.0
 11
-0.898174819946313
 21
-2.52339333051224
 31
0.0
  0
LINE
  5
   33E
  8
0
  6
CONTINUOUS
 62
   130
 10
-0.898174819946306
 20
-3.84839333051222
 30
0.0
 11
-0.898174819946306
 21
-2.72339333051222
 31
0.0
  0
LINE
  5
   33F
  8
0
  6
CONTINUOUS
 62
   130
 10
-0.698174819946303
 20
-3.84839333051222
 30
0.0
 11
-0.698174819946303
 21
-2.72339333051222
 31
0.0
  0
LINE
  5
   340
  8
0
  6
CONTINUOUS
 62
   130
 10
-0.698174819946313
 20
-2.72339333051224
 30
0.0
 11
-0.460674819946313
 21
-2.72339333051224
 31
0.0
  0
LINE
  5
   341
  8
0
  6
CONTINUOUS
 62
   130
 10
-0.698174819946313
 20
-2.52339333051224
 30
0.0
 11
-0.460674819946313
 21
-2.52339333051224
 31
0.0
  0
LINE
  5
   342
  8
0
  6
CONTINUOUS
 62
   130
 10
-0.898174819946306
 20
-2.52339333051222
 30
0.0
 11
-0.898174819946306
 21
-2.24839333051222
 31
0.0
  0
LINE
  5
   343
  8
0
  6
CONTINUOUS
 62
   130
 10
-0.698174819946303
 20
-2.52339333051222
 30
0.0
 11
-0.698174819946303
 21
-2.24839333051222
 31
0.0
  0
ARC
  5
   344
  8
0
  6
CONTINUOUS
 62
   130
 10
-0.573174819946313
 20
-2.24839333051224
 30
0.0
 40
0.325
 50
89.9999999999997
 51
180.0
  0
ARC
  5
   345
  8
0
  6
CONTINUOUS
 62
   130
 10
-0.573174819946313
 20
-2.24839333051224
 30
0.0
 40
0.125
 50
89.9999999999997
 51
180.0
  0
LINE
  5
   346
  8
0
  6
CONTINUOUS
 62
   130
 10
-0.460674819946306
 20
-2.12339333051222
 30
0.0
 11
-0.460674819946306
 21
-1.92339333051222
 31
0.0
  0
LINE
  5
   347
  8
0
  6
CONTINUOUS
 62
   130
 10
-1.79817481994629
 20
4.77660666948776
 30
0.0
 11
-1.59817481994629
 21
4.77660666948776
 31
0.0
  0
ARC
  5
   348
  8
0
  6
CONTINUOUS
 62
   130
 10
-2.64817481994629
 20
5.55160666948776
 30
0.0
 40
0.65
 50
360.0
 51
540.0
  0
ARC
  5
   349
  8
0
  6
CONTINUOUS
 62
   130
 10
-2.64817481994629
 20
5.55160666948776
 30
0.0
 40
0.45
 50
360.0
 51
540.0
  0
ARC
  5
   34A
  8
0
  6
CONTINUOUS
 62
   130
 10
-2.64817481994629
 20
5.42660666948776
 30
0.0
 40
0.649999999999999
 50
180.0
 51
360.0
  0
ARC
  5
   34B
  8
0
  6
CONTINUOUS
 62
   130
 10
-2.64817481994629
 20
5.42660666948776
 30
0.0
 40
0.449999999999999
 50
180.0
 51
360.0
  0
LINE
  5
   34C
  8
0
  6
CONTINUOUS
 62
   130
 10
-1.7981748199463
 20
4.77660666948777
 30
0.0
 11
-1.7981748199463
 21
6.20160666948777
 31
0.0
  0
LINE
  5
   34D
  8
0
  6
CONTINUOUS
 62
   130
 10
-1.5981748199463
 20
4.77660666948777
 30
0.0
 11
-1.5981748199463
 21
5.65160666948777
 31
0.0
  0
LINE
  5
   34E
  8
0
  6
CONTINUOUS
 62
   130
 10
-0.898174819946302
 20
4.77660666948777
 30
0.0
 11
-0.898174819946302
 21
5.65160666948777
 31
0.0
  0
LINE
  5
   34F
  8
0
  6
CONTINUOUS
 62
   130
 10
-0.698174819946303
 20
4.77660666948777
 30
0.0
 11
-0.698174819946303
 21
5.70160666948777
 31
0.0
  0
LINE
  5
   350
  8
0
  6
CONTINUOUS
 62
   130
 10
-1.79817481994629
 20
6.20160666948776
 30
0.0
 11
-1.59817481994629
 21
6.20160666948776
 31
0.0
  0
ARC
  5
   351
  8
0
  6
CONTINUOUS
 62
   130
 10
-1.24817481994629
 20
5.65160666948776
 30
0.0
 40
0.35
 50
360.0
 51
540.0
  0
LINE
  5
   352
  8
0
  6
CONTINUOUS
 62
   130
 10
-1.5981748199463
 20
6.00160666948778
 30
0.0
 11
-1.5981748199463
 21
6.20160666948777
 31
0.0
  0
ARC
  5
   353
  8
0
  6
CONTINUOUS
 62
   130
 10
-1.19817481994629
 20
5.70160666948775
 30
0.0
 40
0.5
 50
360.0
 51
503.130102354155
  0
LINE
  5
   354
  8
0
  6
CONTINUOUS
 62
   130
 10
-0.898174819946295
 20
4.77660666948776
 30
0.0
 11
-0.698174819946296
 21
4.77660666948776
 31
0.0
  0
LINE
  5
   355
  8
0
  6
CONTINUOUS
 62
   130
 10
-1.6810282699204
 20
10.9949551436922
 30
0.0
 11
-1.56401242289721
 21
11.0155878853453
 31
0.0
  0
LINE
  5
   356
  8
0
  6
CONTINUOUS
 62
   130
 10
-1.78392249263336
 20
10.9355496999047
 30
0.0
 11
-1.68102104247578
 21
10.9949590714912
 31
0.0
  0
LINE
  5
   357
  8
0
  6
CONTINUOUS
 62
   130
 10
-1.8603007879815
 20
10.844525006333
 30
0.0
 11
-1.78392672548498
 21
10.935545361934
 31
0.0
  0
LINE
  5
   358
  8
0
  6
CONTINUOUS
 62
   130
 10
-1.90093733033653
 20
10.7328724764426
 30
0.0
 11
-1.86029936259464
 21
10.8445255635636
 31
0.0
  0
LINE
  5
   359
  8
0
  6
CONTINUOUS
 62
   130
 10
-1.90094096337521
 20
10.6140539196569
 30
0.0
 11
-1.90094096337521
 21
10.7328726795751
 31
0.0
  0
LINE
  5
   35A
  8
0
  6
CONTINUOUS
 62
   130
 10
-1.90093766147626
 20
10.614055130317
 30
0.0
 11
-1.86029969373437
 21
10.502402043196
 31
0.0
  0
LINE
  5
   35B
  8
0
  6
CONTINUOUS
 62
   130
 10
-1.8603014736926
 20
10.5024015666193
 30
0.0
 11
-1.78392741119607
 21
10.4113812110183
 31
0.0
  0
LINE
  5
   35C
  8
0
  6
CONTINUOUS
 62
   130
 10
-1.78392082489643
 20
10.4113789108248
 30
0.0
 11
-1.68101937473887
 21
10.3519695392382
 31
0.0
  0
LINE
  5
   35D
  8
0
  6
CONTINUOUS
 62
   130
 10
-1.68102745658656
 20
10.3519710030455
 30
0.0
 11
-1.56401160956336
 21
10.3313382613924
 31
0.0
  0
LINE
  5
   35E
  8
0
  6
CONTINUOUS
 62
   130
 10
-1.56401164208614
 20
10.3313383606511
 30
0.0
 11
-1.44929988061153
 21
10.3313383606511
 31
0.0
  0
LINE
  5
   35F
  8
0
  6
CONTINUOUS
 62
   130
 10
-1.44929377718865
 20
10.3313407938144
 30
0.0
 11
-1.40552776294571
 21
10.317119605008
 31
0.0
  0
LINE
  5
   360
  8
0
  6
CONTINUOUS
 62
   130
 10
-1.40552824556767
 20
10.3171194903345
 30
0.0
 11
-1.37847823187252
 21
10.2798882881626
 31
0.0
  0
LINE
  5
   361
  8
0
  6
CONTINUOUS
 62
   130
 10
-1.37848384057247
 20
10.2338656929571
 30
0.0
 11
-1.37848384057247
 21
10.279885962351
 31
0.0
  0
LINE
  5
   362
  8
0
  6
CONTINUOUS
 62
   130
 10
-1.40553024484876
 20
10.1966361314947
 30
0.0
 11
-1.37848023115361
 21
10.2338673336665
 31
0.0
  0
LINE
  5
   363
  8
0
  6
CONTINUOUS
 62
   130
 10
-1.44929500844039
 20
10.1824149437399
 30
0.0
 11
-1.40552899419744
 21
10.1966361325462
 31
0.0
  0
LINE
  5
   364
  8
0
  6
CONTINUOUS
 62
   130
 10
-1.86588771020138
 20
10.1824132946569
 30
0.0
 11
-1.44929988061153
 21
10.1824132946569
 31
0.0
  0
LINE
  5
   365
  8
0
  6
CONTINUOUS
 62
   130
 10
-1.86588771020138
 20
9.90871353421987
 30
0.0
 11
-1.86588771020138
 21
10.1824132946569
 31
0.0
  0
LINE
  5
   366
  8
0
  6
CONTINUOUS
 62
   130
 10
-1.86588771020138
 20
9.90871353421987
 30
0.0
 11
-1.44929988061153
 21
9.90871353421987
 31
0.0
  0
LINE
  5
   367
  8
0
  6
CONTINUOUS
 62
   130
 10
-1.44929726236302
 20
9.9087141464598
 30
0.0
 11
-1.33022149399435
 21
9.9297107149524
 31
0.0
  0
LINE
  5
   368
  8
0
  6
CONTINUOUS
 62
   130
 10
-1.33022253452895
 20
9.92971123116326
 30
0.0
 11
-1.22550526507331
 21
9.99016918540429
 31
0.0
  0
LINE
  5
   369
  8
0
  6
CONTINUOUS
 62
   130
 10
-1.22550097813253
 20
9.99016986282566
 30
0.0
 11
-1.14777652173898
 21
10.0827964282363
 31
0.0
  0
LINE
  5
   36A
  8
0
  6
CONTINUOUS
 62
   130
 10
-1.14778030944437
 20
10.0827933725776
 30
0.0
 11
-1.10642517476101
 21
10.196416769046
 31
0.0
  0
LINE
  5
   36B
  8
0
  6
CONTINUOUS
 62
   130
 10
-1.10642726098263
 20
10.1964180019933
 30
0.0
 11
-1.10642726098263
 21
10.3173336533147
 31
0.0
  0
LINE
  5
   36C
  8
0
  6
CONTINUOUS
 62
   130
 10
-1.14778040433763
 20
10.4309577556013
 30
0.0
 11
-1.10642526965428
 21
10.3173343591329
 31
0.0
  0
LINE
  5
   36D
  8
0
  6
CONTINUOUS
 62
   130
 10
-1.22550354387492
 20
10.5235867871105
 30
0.0
 11
-1.14777908226921
 21
10.4309599699561
 31
0.0
  0
LINE
  5
   36E
  8
0
  6
CONTINUOUS
 62
   130
 10
-1.33022470554994
 20
10.5840420326353
 30
0.0
 11
-1.22550744077586
 21
10.5235843195314
 31
0.0
  0
LINE
  5
   36F
  8
0
  6
CONTINUOUS
 62
   130
 10
-1.44929373868765
 20
10.605037657259
 30
0.0
 11
-1.33021797203472
 21
10.5840408508212
 31
0.0
  0
LINE
  5
   370
  8
0
  6
CONTINUOUS
 62
   130
 10
-1.56401164208614
 20
10.6050383595067
 30
0.0
 11
-1.44929988061153
 21
10.6050383595067
 31
0.0
  0
LINE
  5
   371
  8
0
  6
CONTINUOUS
 62
   130
 10
-1.6042295940688
 20
10.6181075003767
 30
0.0
 11
-1.56400742668231
 21
10.6050395401609
 31
0.0
  0
LINE
  5
   372
  8
0
  6
CONTINUOUS
 62
   130
 10
-1.62908890763384
 20
10.652318217547
 30
0.0
 11
-1.60423234023782
 21
10.6181056270662
 31
0.0
  0
LINE
  5
   373
  8
0
  6
CONTINUOUS
 62
   130
 10
-1.62909037743771
 20
10.6523189095098
 30
0.0
 11
-1.62909037743771
 21
10.6946076897222
 31
0.0
  0
LINE
  5
   374
  8
0
  6
CONTINUOUS
 62
   130
 10
-1.62908521566544
 20
10.6946065354946
 30
0.0
 11
-1.60422864826942
 21
10.7288191259754
 31
0.0
  0
LINE
  5
   375
  8
0
  6
CONTINUOUS
 62
   130
 10
-1.60422804142213
 20
10.7288221490543
 30
0.0
 11
-1.56400587403562
 21
10.7418901092701
 31
0.0
  0
LINE
  5
   376
  8
0
  6
CONTINUOUS
 62
   130
 10
-1.56401164208614
 20
10.7418882397252
 30
0.0
 11
-1.14138896142208
 21
10.7418882397252
 31
0.0
  0
LINE
  5
   377
  8
0
  6
CONTINUOUS
 62
   130
 10
-1.14138896142208
 20
10.7418882397252
 30
0.0
 11
-1.14138896142208
 21
11.0155882385808
 31
0.0
  0
LINE
  5
   378
  8
0
  6
CONTINUOUS
 62
   130
 10
-1.56401164208614
 20
11.0155882385808
 30
0.0
 11
-1.14138896142208
 21
11.0155882385808
 31
0.0
  0
LINE
  5
   379
  8
0
  6
CONTINUOUS
 62
   130
 10
-1.10114009057247
 20
9.90871353421987
 30
0.0
 11
-0.816090652095909
 21
9.90871353421987
 31
0.0
  0
LINE
  5
   37A
  8
0
  6
CONTINUOUS
 62
   130
 10
-0.816087679426701
 20
9.9087143262679
 30
0.0
 11
-0.7516879621523
 21
10.1300890741335
 31
0.0
  0
LINE
  5
   37B
  8
0
  6
CONTINUOUS
 62
   130
 10
-0.751690932857628
 20
10.1300882843572
 30
0.0
 11
-0.44433314477169
 21
10.1300882843572
 31
0.0
  0
LINE
  5
   37C
  8
0
  6
CONTINUOUS
 62
   130
 10
-0.444330787579069
 20
10.1300888745496
 30
0.0
 11
-0.379931070304664
 21
9.90871412668395
 31
0.0
  0
LINE
  5
   37D
  8
0
  6
CONTINUOUS
 62
   130
 10
-0.379933425533409
 20
9.90871353421987
 30
0.0
 11
-9.48878017541119E-2
 21
9.90871353421987
 31
0.0
  0
LINE
  5
   37E
  8
0
  6
CONTINUOUS
 62
   130
 10
-0.416887493724875
 20
11.0155884077437
 30
0.0
 11
-9.48849983650248E-2
 21
9.9087134229745
 31
0.0
  0
LINE
  5
   37F
  8
0
  6
CONTINUOUS
 62
   130
 10
-0.779137679683799
 20
11.0155882385808
 30
0.0
 11
-0.416890212642784
 21
11.0155882385808
 31
0.0
  0
LINE
  5
   380
  8
0
  6
CONTINUOUS
 62
   130
 10
-1.10113864172019
 20
9.90870903730807
 30
0.0
 11
-0.77913614636034
 21
11.0155840220773
 31
0.0
  0
LINE
  5
   381
  8
0
  6
CONTINUOUS
 62
   130
 10
-0.598009847841222
 20
10.6583594020417
 30
0.0
 11
-0.523955092098838
 21
10.4037883164
 31
0.0
  0
LINE
  5
   382
  8
0
  6
CONTINUOUS
 62
   130
 10
-0.672070571529503
 20
10.4037882832128
 30
0.0
 11
-0.523957320797081
 21
10.4037882832128
 31
0.0
  0
LINE
  5
   383
  8
0
  6
CONTINUOUS
 62
   130
 10
-0.672066104641509
 20
10.4037887057159
 30
0.0
 11
-0.59800757748371
 21
10.6583596512776
 31
0.0
  0
LINE
  5
   384
  8
0
  6
CONTINUOUS
 62
   130
 10
0.838797391365542
 20
10.8642803537959
 30
0.0
 11
0.936690149147321
 21
10.7408636872847
 31
0.0
  0
LINE
  5
   385
  8
0
  6
CONTINUOUS
 62
   130
 10
0.710106313229112
 20
10.9551170981432
 30
0.0
 11
0.838798932244135
 21
10.8642781959481
 31
0.0
  0
LINE
  5
   386
  8
0
  6
CONTINUOUS
 62
   130
 10
0.561029919501273
 20
11.0060167462002
 30
0.0
 11
0.710104472669926
 21
10.9551150999958
 31
0.0
  0
LINE
  5
   387
  8
0
  6
CONTINUOUS
 62
   130
 10
0.403654906525357
 20
11.0128583841766
 30
0.0
 11
0.561030246418397
 21
11.0060174396904
 31
0.0
  0
LINE
  5
   388
  8
0
  6
CONTINUOUS
 62
   130
 10
0.250720898022976
 20
10.9750845874762
 30
0.0
 11
0.4036521112799
 21
11.0128586714486
 31
0.0
  0
LINE
  5
   389
  8
0
  6
CONTINUOUS
 62
   130
 10
0.114633979841891
 20
10.8957573435499
 30
0.0
 11
0.250723296778826
 21
10.9750863562985
 31
0.0
  0
LINE
  5
   38A
  8
0
  6
CONTINUOUS
 62
   130
 10
6.40126729009083E-3
 20
10.7812978072848
 30
0.0
 11
0.11463185696573
 21
10.8957549366362
 31
0.0
  0
LINE
  5
   38B
  8
0
  6
CONTINUOUS
 62
   130
 10
-6.51941478480822E-2
 20
10.640987624017
 30
0.0
 11
6.40389694667931E-3
 21
10.7813000550258
 31
0.0
  0
LINE
  5
   38C
  8
0
  6
CONTINUOUS
 62
   130
 10
-9.43625697998876E-2
 20
10.4861846467413
 30
0.0
 11
-6.51953945171613E-2
 21
10.640985304202
 31
0.0
  0
LINE
  5
   38D
  8
0
  6
CONTINUOUS
 62
   130
 10
-9.43622588781707E-2
 20
10.4861855907221
 30
0.0
 11
-7.87372663547998E-2
 21
10.3294377749178
 31
0.0
  0
LINE
  5
   38E
  8
0
  6
CONTINUOUS
 62
   130
 10
-7.87384804356321E-2
 20
10.3294381428316
 30
0.0
 11
-1.95839772043591E-2
 21
10.1834420566335
 31
0.0
  0
LINE
  5
   38F
  8
0
  6
CONTINUOUS
 62
   130
 10
-1.95836856957747E-2
 20
10.1834433277703
 30
0.0
 11
6.84328270769043E-2
 21
10.0695948752748
 31
0.0
  0
LINE
  5
   390
  8
0
  6
CONTINUOUS
 62
   130
 10
6.84343368822731E-2
 20
10.0695922659227
 30
0.0
 11
0.182829477647854
 21
9.98228504843945
 31
0.0
  0
LINE
  5
   391
  8
0
  6
CONTINUOUS
 62
   130
 10
0.18282714436052
 20
9.98228631263056
 30
0.0
 11
0.315864709049546
 21
9.92742333762631
 31
0.0
  0
LINE
  5
   392
  8
0
  6
CONTINUOUS
 62
   130
 10
0.315866130048132
 20
9.92742267232276
 30
0.0
 11
0.458551063634925
 21
9.908713490363
 31
0.0
  0
LINE
  5
   393
  8
0
  6
CONTINUOUS
 62
   130
 10
0.458553120159642
 20
9.90871402504455
 30
0.0
 11
0.601238053746432
 21
9.92742320700432
 31
0.0
  0
LINE
  5
   394
  8
0
  6
CONTINUOUS
 62
   130
 10
0.601233515711112
 20
9.92742275451224
 30
0.0
 11
0.734271080400138
 21
9.98228572951649
 31
0.0
  0
LINE
  5
   395
  8
0
  6
CONTINUOUS
 62
   130
 10
0.734274914713716
 20
9.9822886116143
 30
0.0
 11
0.8486700554793
 21
10.0695958290975
 31
0.0
  0
LINE
  5
   396
  8
0
  6
CONTINUOUS
 62
   130
 10
0.848669111528448
 20
10.069593238378
 30
0.0
 11
0.936689435295445
 21
10.1834416832377
 31
0.0
  0
LINE
  5
   397
  8
0
  6
CONTINUOUS
 62
   130
 10
0.700228591373484
 20
10.3212770518467
 30
0.0
 11
0.936690204851722
 21
10.1834425217789
 31
0.0
  0
LINE
  5
   398
  8
0
  6
CONTINUOUS
 62
   130
 10
0.637766289979528
 20
10.2473602688918
 30
0.0
 11
0.700224332423662
 21
10.3212743260169
 31
0.0
  0
LINE
  5
   399
  8
0
  6
CONTINUOUS
 62
   130
 10
0.553859367801074
 20
10.199151657909
 30
0.0
 11
0.637767465118468
 21
10.2473622877474
 31
0.0
  0
LINE
  5
   39A
  8
0
  6
CONTINUOUS
 62
   130
 10
0.458551438939981
 20
10.1824133549574
 30
0.0
 11
0.553861661950851
 21
10.1991512925311
 31
0.0
  0
LINE
  5
   39B
  8
0
  6
CONTINUOUS
 62
   130
 10
0.363236470220386
 20
10.1991513996246
 30
0.0
 11
0.458546693231259
 21
10.182413462051
 31
0.0
  0
LINE
  5
   39C
  8
0
  6
CONTINUOUS
 62
   130
 10
0.279330164315766
 20
10.2473629461679
 30
0.0
 11
0.363238261633164
 21
10.1991523163295
 31
0.0
  0
LINE
  5
   39D
  8
0
  6
CONTINUOUS
 62
   130
 10
0.216872441075104
 20
10.3212774730611
 30
0.0
 11
0.279330483519242
 21
10.247363415936
 31
0.0
  0
LINE
  5
   39E
  8
0
  6
CONTINUOUS
 62
   130
 10
0.181360786679921
 20
10.4244856422671
 30
0.0
 11
0.216875618170093
 21
10.3212768587526
 31
0.0
  0
LINE
  5
   39F
  8
0
  6
CONTINUOUS
 62
   130
 10
0.181361943296881
 20
10.4244835163438
 30
0.0
 11
0.188049108385165
 21
10.5334267515395
 31
0.0
  0
LINE
  5
   3A0
  8
0
  6
CONTINUOUS
 62
   130
 10
0.188048951525705
 20
10.5334289702086
 30
0.0
 11
0.235915775168703
 21
10.6315208157771
 31
0.0
  0
LINE
  5
   3A1
  8
0
  6
CONTINUOUS
 62
   130
 10
0.235912081896227
 20
10.6315208761825
 30
0.0
 11
0.317676309510826
 21
10.7038279968917
 31
0.0
  0
LINE
  5
   3A2
  8
0
  6
CONTINUOUS
 62
   130
 10
0.31767708799465
 20
10.70382740864
 30
0.0
 11
0.420883722510776
 21
10.739341283091
 31
0.0
  0
LINE
  5
   3A3
  8
0
  6
CONTINUOUS
 62
   130
 10
0.42088191718042
 20
10.7393402618545
 30
0.0
 11
0.52982588976344
 21
10.7326547648255
 31
0.0
  0
LINE
  5
   3A4
  8
0
  6
CONTINUOUS
 62
   130
 10
0.529828886956206
 20
10.7326538409991
 30
0.0
 11
0.627920024649214
 21
10.6847862975247
 31
0.0
  0
LINE
  5
   3A5
  8
0
  6
CONTINUOUS
 62
   130
 10
0.627921337524434
 20
10.6847921254254
 30
0.0
 11
0.700228929712512
 21
10.6030302859819
 31
0.0
  0
LINE
  5
   3A6
  8
0
  6
CONTINUOUS
 62
   130
 10
0.700230360373173
 20
10.6030292246471
 30
0.0
 11
0.93669197385141
 21
10.7408637547149
 31
0.0
  0
LINE
  5
   3A7
  8
0
  6
CONTINUOUS
 62
   130
 10
1.03731053198612
 20
9.90871353421987
 30
0.0
 11
1.03731053198612
 21
11.0155880001623
 31
0.0
  0
LINE
  5
   3A8
  8
0
  6
CONTINUOUS
 62
   130
 10
1.03731053198612
 20
9.90871353421987
 30
0.0
 11
1.76180928076542
 21
9.90871353421987
 31
0.0
  0
LINE
  5
   3A9
  8
0
  6
CONTINUOUS
 62
   130
 10
1.76180928076542
 20
9.90871353421987
 30
0.0
 11
1.76180928076542
 21
10.1824132946569
 31
0.0
  0
LINE
  5
   3AA
  8
0
  6
CONTINUOUS
 62
   130
 10
1.31101124609745
 20
10.1824132946569
 30
0.0
 11
1.76180928076542
 21
10.1824132946569
 31
0.0
  0
LINE
  5
   3AB
  8
0
  6
CONTINUOUS
 62
   130
 10
1.31101124609745
 20
10.1824132946569
 30
0.0
 11
1.31101124609745
 21
10.3253008869726
 31
0.0
  0
LINE
  5
   3AC
  8
0
  6
CONTINUOUS
 62
   130
 10
1.31101124609745
 20
10.3253008869726
 30
0.0
 11
1.70143406714237
 21
10.3253008869726
 31
0.0
  0
LINE
  5
   3AD
  8
0
  6
CONTINUOUS
 62
   130
 10
1.70143406714237
 20
10.3253008869726
 30
0.0
 11
1.70143406714237
 21
10.5990008858281
 31
0.0
  0
LINE
  5
   3AE
  8
0
  6
CONTINUOUS
 62
   130
 10
1.31101124609745
 20
10.5990008858281
 30
0.0
 11
1.70143406714237
 21
10.5990008858281
 31
0.0
  0
LINE
  5
   3AF
  8
0
  6
CONTINUOUS
 62
   130
 10
1.31101124609745
 20
10.5990008858281
 30
0.0
 11
1.31101124609745
 21
10.7418882248241
 31
0.0
  0
LINE
  5
   3B0
  8
0
  6
CONTINUOUS
 62
   130
 10
1.31101124609745
 20
10.7418882397252
 30
0.0
 11
1.76180928076542
 21
10.7418882397252
 31
0.0
  0
LINE
  5
   3B1
  8
0
  6
CONTINUOUS
 62
   130
 10
1.76180928076542
 20
10.7418882397252
 30
0.0
 11
1.76180928076542
 21
11.0155882385808
 31
0.0
  0
LINE
  5
   3B2
  8
0
  6
CONTINUOUS
 62
   130
 10
1.03731053198612
 20
11.0155882385808
 30
0.0
 11
1.76180928076542
 21
11.0155882385808
 31
0.0
  0
LINE
  5
   3B3
  8
0
  6
CONTINUOUS
 62
   130
 10
-26.6439685362297
 20
10.4695999628307
 30
0.0
 11
-26.4170398798707
 21
11.1179762795417
 31
0.0
  0
LINE
  5
   3B4
  8
0
  6
CONTINUOUS
 62
   130
 10
-26.6439723968506
 20
10.4696018770337
 30
0.0
 11
-26.234167098999
 21
10.4696018770337
 31
0.0
  0
LINE
  5
   3B5
  8
0
  6
CONTINUOUS
 62
   130
 10
-26.4170436859131
 20
11.1179783418775
 30
0.0
 11
-26.234167098999
 21
11.1179783418775
 31
0.0
  0
LINE
  5
   3B6
  8
0
  6
CONTINUOUS
 62
   130
 10
-26.8825435638428
 20
9.78798008710146
 30
0.0
 11
-26.5500431060791
 21
9.78798008710146
 31
0.0
  0
LINE
  5
   3B7
  8
0
  6
CONTINUOUS
 62
   130
 10
-26.5500402988559
 20
9.78797933594169
 30
0.0
 11
-26.456938801026
 21
10.0539791424113
 31
0.0
  0
LINE
  5
   3B8
  8
0
  6
CONTINUOUS
 62
   130
 10
-26.4569416046143
 20
10.0539798811078
 30
0.0
 11
-26.234167098999
 21
10.0539798811078
 31
0.0
  0
LINE
  5
   3B9
  8
0
  6
CONTINUOUS
 62
   130
 10
-26.655611038208
 20
10.4363529756665
 30
0.0
 11
-26.234167098999
 21
10.4363529756665
 31
0.0
  0
LINE
  5
   3BA
  8
0
  6
CONTINUOUS
 62
   130
 10
-26.8825408426774
 20
9.78797887312812
 30
0.0
 11
-26.6556083848571
 21
10.4363516268699
 31
0.0
  0
LINE
  5
   3BB
  8
0
  6
CONTINUOUS
 62
   130
 10
-25.7794671503637
 20
10.436351537509
 30
0.0
 11
-25.5525346925433
 21
9.78797878376718
 31
0.0
  0
LINE
  5
   3BC
  8
0
  6
CONTINUOUS
 62
   130
 10
-26.2009181976318
 20
10.4363529756665
 30
0.0
 11
-25.7794742584229
 21
10.4363529756665
 31
0.0
  0
LINE
  5
   3BD
  8
0
  6
CONTINUOUS
 62
   130
 10
-26.2009181976318
 20
10.0539798811078
 30
0.0
 11
-26.2009181976318
 21
10.4363529756665
 31
0.0
  0
LINE
  5
   3BE
  8
0
  6
CONTINUOUS
 62
   130
 10
-26.2009181976318
 20
10.0539798811078
 30
0.0
 11
-25.9781436920166
 21
10.0539798811078
 31
0.0
  0
LINE
  5
   3BF
  8
0
  6
CONTINUOUS
 62
   130
 10
-25.9781379005288
 20
10.0539803010418
 30
0.0
 11
-25.8850364026988
 21
9.78798049457214
 31
0.0
  0
LINE
  5
   3C0
  8
0
  6
CONTINUOUS
 62
   130
 10
-25.8850421905518
 20
9.78798008710146
 30
0.0
 11
-25.5525417327881
 21
9.78798008710146
 31
0.0
  0
LINE
  5
   3C1
  8
0
  6
CONTINUOUS
 62
   130
 10
-26.2009181976318
 20
11.1179783418775
 30
0.0
 11
-26.0180416107178
 21
11.1179783418775
 31
0.0
  0
LINE
  5
   3C2
  8
0
  6
CONTINUOUS
 62
   130
 10
-26.2009181976318
 20
10.4696018770337
 30
0.0
 11
-26.2009181976318
 21
11.1179783418775
 31
0.0
  0
LINE
  5
   3C3
  8
0
  6
CONTINUOUS
 62
   130
 10
-26.2009181976318
 20
10.4696018770337
 30
0.0
 11
-25.791109085083
 21
10.4696018770337
 31
0.0
  0
LINE
  5
   3C4
  8
0
  6
CONTINUOUS
 62
   130
 10
-26.0180377922432
 20
11.1179770264405
 30
0.0
 11
-25.7911053174775
 21
10.4696006153041
 31
0.0
  0
LINE
  5
   3C5
  8
0
  6
CONTINUOUS
 62
   130
 10
-25.4694156646729
 20
10.4696018770337
 30
0.0
 11
-25.0870418548584
 21
10.4696018770337
 31
0.0
  0
LINE
  5
   3C6
  8
0
  6
CONTINUOUS
 62
   130
 10
-25.0870418548584
 20
10.4696018770337
 30
0.0
 11
-25.0870418548584
 21
11.1179783418775
 31
0.0
  0
LINE
  5
   3C7
  8
0
  6
CONTINUOUS
 62
   130
 10
-25.4694156646729
 20
11.1179783418775
 30
0.0
 11
-25.0870418548584
 21
11.1179783418775
 31
0.0
  0
LINE
  5
   3C8
  8
0
  6
CONTINUOUS
 62
   130
 10
-25.4694156646729
 20
9.78798008710146
 30
0.0
 11
-25.0870418548584
 21
9.78798008710146
 31
0.0
  0
LINE
  5
   3C9
  8
0
  6
CONTINUOUS
 62
   130
 10
-25.0870418548584
 20
9.78798008710146
 30
0.0
 11
-25.0870418548584
 21
10.4363529756665
 31
0.0
  0
LINE
  5
   3CA
  8
0
  6
CONTINUOUS
 62
   130
 10
-25.4694156646729
 20
10.4363529756665
 30
0.0
 11
-25.0870418548584
 21
10.4363529756665
 31
0.0
  0
LINE
  5
   3CB
  8
0
  6
CONTINUOUS
 62
   130
 10
-24.4386692047119
 20
10.4696018770337
 30
0.0
 11
-24.4386692047119
 21
11.1179783418775
 31
0.0
  0
LINE
  5
   3CC
  8
0
  6
CONTINUOUS
 62
   130
 10
-24.4386692047119
 20
10.4696018770337
 30
0.0
 11
-24.0562915802002
 21
10.4696018770337
 31
0.0
  0
LINE
  5
   3CD
  8
0
  6
CONTINUOUS
 62
   130
 10
-24.0562915802002
 20
10.4696018770337
 30
0.0
 11
-24.0562915802002
 21
11.1179783418775
 31
0.0
  0
LINE
  5
   3CE
  8
0
  6
CONTINUOUS
 62
   130
 10
-24.4386692047119
 20
11.1179783418775
 30
0.0
 11
-24.0562915802002
 21
11.1179783418775
 31
0.0
  0
LINE
  5
   3CF
  8
0
  6
CONTINUOUS
 62
   130
 10
-24.4386692047119
 20
9.78798008710146
 30
0.0
 11
-24.0562915802002
 21
9.78798008710146
 31
0.0
  0
LINE
  5
   3D0
  8
0
  6
CONTINUOUS
 62
   130
 10
-24.0562915802002
 20
9.78798008710146
 30
0.0
 11
-24.0562915802002
 21
10.4363529756665
 31
0.0
  0
LINE
  5
   3D1
  8
0
  6
CONTINUOUS
 62
   130
 10
-24.4386692047119
 20
10.4363529756665
 30
0.0
 11
-24.0562915802002
 21
10.4363529756665
 31
0.0
  0
LINE
  5
   3D2
  8
0
  6
CONTINUOUS
 62
   130
 10
-24.4386692047119
 20
9.78798008710146
 30
0.0
 11
-24.4386692047119
 21
10.4363529756665
 31
0.0
  0
LINE
  5
   3D3
  8
0
  6
CONTINUOUS
 62
   130
 10
-24.023042678833
 20
11.1179783418775
 30
0.0
 11
-23.9161739349365
 21
11.1179783418775
 31
0.0
  0
LINE
  5
   3D4
  8
0
  6
CONTINUOUS
 62
   130
 10
-24.023042678833
 20
10.4696018770337
 30
0.0
 11
-24.023042678833
 21
11.1179783418775
 31
0.0
  0
LINE
  5
   3D5
  8
0
  6
CONTINUOUS
 62
   130
 10
-24.023042678833
 20
10.4696018770337
 30
0.0
 11
-23.6359539031982
 21
10.4696018770337
 31
0.0
  0
LINE
  5
   3D6
  8
0
  6
CONTINUOUS
 62
   130
 10
-23.6930614545044
 20
10.5126709879907
 30
0.0
 11
-23.635955428627
 21
10.4696030493928
 31
0.0
  0
LINE
  5
   3D7
  8
0
  6
CONTINUOUS
 62
   130
 10
-23.7570426964371
 20
10.5446332053306
 30
0.0
 11
-23.6930587698412
 21
10.5126698540078
 31
0.0
  0
LINE
  5
   3D8
  8
0
  6
CONTINUOUS
 62
   130
 10
-23.7570419164075
 20
10.5446312856974
 30
0.0
 11
-23.6808814926207
 21
10.609298024475
 31
0.0
  0
LINE
  5
   3D9
  8
0
  6
CONTINUOUS
 62
   130
 10
-23.6808792196095
 20
10.6092972983586
 30
0.0
 11
-23.6293579240577
 21
10.6948991021423
 31
0.0
  0
LINE
  5
   3DA
  8
0
  6
CONTINUOUS
 62
   130
 10
-23.6293591018774
 20
10.6948994088875
 30
0.0
 11
-23.6078709147468
 21
10.7924679091985
 31
0.0
  0
LINE
  5
   3DB
  8
0
  6
CONTINUOUS
 62
   130
 10
-23.618663478276
 20
10.8917962737055
 30
0.0
 11
-23.6078717029092
 21
10.7924691653436
 31
0.0
  0
LINE
  5
   3DC
  8
0
  6
CONTINUOUS
 62
   130
 10
-23.6606088043027
 20
10.9824738318756
 30
0.0
 11
-23.6186662013106
 21
10.8917984668708
 31
0.0
  0
LINE
  5
   3DD
  8
0
  6
CONTINUOUS
 62
   130
 10
-23.7293129831296
 20
11.0550149307594
 30
0.0
 11
-23.660610278855
 21
10.9824746430044
 31
0.0
  0
LINE
  5
   3DE
  8
0
  6
CONTINUOUS
 62
   130
 10
-23.8175775350721
 20
11.1018071919063
 30
0.0
 11
-23.7293092512918
 21
11.0550084820167
 31
0.0
  0
LINE
  5
   3DF
  8
0
  6
CONTINUOUS
 62
   130
 10
-24.023042678833
 20
10.4363529756665
 30
0.0
 11
-23.6034641265869
 21
10.4363529756665
 31
0.0
  0
LINE
  5
   3E0
  8
0
  6
CONTINUOUS
 62
   130
 10
-24.023042678833
 20
9.78798008710146
 30
0.0
 11
-24.023042678833
 21
10.4363529756665
 31
0.0
  0
LINE
  5
   3E1
  8
0
  6
CONTINUOUS
 62
   130
 10
-24.023042678833
 20
9.78798008710146
 30
0.0
 11
-23.8993854522705
 21
9.78798008710146
 31
0.0
  0
LINE
  5
   3E2
  8
0
  6
CONTINUOUS
 62
   130
 10
-23.8993838426413
 20
9.78797935757225
 30
0.0
 11
-23.7890017506521
 21
9.80385302679212
 31
0.0
  0
LINE
  5
   3E3
  8
0
  6
CONTINUOUS
 62
   130
 10
-23.7890023583958
 20
9.8038532748162
 30
0.0
 11
-23.6875657370942
 21
9.85018778064908
 31
0.0
  0
LINE
  5
   3E4
  8
0
  6
CONTINUOUS
 62
   130
 10
-23.6875666823605
 20
9.85018746802823
 30
0.0
 11
-23.6033000119659
 21
9.92322771736133
 31
0.0
  0
LINE
  5
   3E5
  8
0
  6
CONTINUOUS
 62
   130
 10
-23.6032993511412
 20
9.92322801953657
 30
0.0
 11
-23.5430271346312
 21
10.0170543123623
 31
0.0
  0
LINE
  5
   3E6
  8
0
  6
CONTINUOUS
 62
   130
 10
-23.543022912263
 20
10.0170530364315
 30
0.0
 11
-23.5116355840206
 21
10.1240607730558
 31
0.0
  0
LINE
  5
   3E7
  8
0
  6
CONTINUOUS
 62
   130
 10
-23.511673209534
 20
10.235579677965
 30
0.0
 11
-23.5116388772602
 21
10.1240629585756
 31
0.0
  0
LINE
  5
   3E8
  8
0
  6
CONTINUOUS
 62
   130
 10
-23.5431284726069
 20
10.3425683947295
 30
0.0
 11
-23.5116724813034
 21
10.235580436115
 31
0.0
  0
LINE
  5
   3E9
  8
0
  6
CONTINUOUS
 62
   130
 10
-23.6034632087753
 20
10.4363515759555
 30
0.0
 11
-23.5431299574691
 21
10.3425658146509
 31
0.0
  0
LINE
  5
   3EA
  8
0
  6
CONTINUOUS
 62
   130
 10
-25.0537929534912
 20
11.1179783418775
 30
0.0
 11
-24.9469203948975
 21
11.1179783418775
 31
0.0
  0
LINE
  5
   3EB
  8
0
  6
CONTINUOUS
 62
   130
 10
-25.0537929534912
 20
10.4696018770337
 30
0.0
 11
-25.0537929534912
 21
11.1179783418775
 31
0.0
  0
LINE
  5
   3EC
  8
0
  6
CONTINUOUS
 62
   130
 10
-25.0537929534912
 20
10.4696018770337
 30
0.0
 11
-24.6667041778564
 21
10.4696018770337
 31
0.0
  0
LINE
  5
   3ED
  8
0
  6
CONTINUOUS
 62
   130
 10
-24.723809249151
 20
10.5126690471135
 30
0.0
 11
-24.6667032232736
 21
10.4696011085156
 31
0.0
  0
LINE
  5
   3EE
  8
0
  6
CONTINUOUS
 62
   130
 10
-24.7877937102745
 20
10.5446332797178
 30
0.0
 11
-24.7238097836786
 21
10.512669928395
 31
0.0
  0
LINE
  5
   3EF
  8
0
  6
CONTINUOUS
 62
   130
 10
-24.7877927560016
 20
10.5446332799936
 30
0.0
 11
-24.7116323322148
 21
10.6093000187712
 31
0.0
  0
LINE
  5
   3F0
  8
0
  6
CONTINUOUS
 62
   130
 10
-24.7116310406765
 20
10.6092984372613
 30
0.0
 11
-24.6601097451247
 21
10.694900241045
 31
0.0
  0
LINE
  5
   3F1
  8
0
  6
CONTINUOUS
 62
   130
 10
-24.6601100040794
 20
10.6948998225988
 30
0.0
 11
-24.6386180014764
 21
10.7924683286039
 31
0.0
  0
LINE
  5
   3F2
  8
0
  6
CONTINUOUS
 62
   130
 10
-24.6494094997059
 20
10.8917979236908
 30
0.0
 11
-24.6386177243392
 21
10.7924708153289
 31
0.0
  0
LINE
  5
   3F3
  8
0
  6
CONTINUOUS
 62
   130
 10
-24.6913575620907
 20
10.9824707991902
 30
0.0
 11
-24.6494111479794
 21
10.8917954385027
 31
0.0
  0
LINE
  5
   3F4
  8
0
  6
CONTINUOUS
 62
   130
 10
-24.7600617133164
 20
11.0550166694917
 30
0.0
 11
-24.6913590090419
 21
10.9824763817368
 31
0.0
  0
LINE
  5
   3F5
  8
0
  6
CONTINUOUS
 62
   130
 10
-24.8483303013583
 20
11.1018083985779
 30
0.0
 11
-24.7600620175781
 21
11.0550096886883
 31
0.0
  0
LINE
  5
   3F6
  8
0
  6
CONTINUOUS
 62
   130
 10
-24.9469207074997
 20
11.1179785922117
 30
0.0
 11
-24.8483298358136
 21
11.1018119057127
 31
0.0
  0
LINE
  5
   3F7
  8
0
  6
CONTINUOUS
 62
   130
 10
-25.0537929534912
 20
10.4363529756665
 30
0.0
 11
-24.6342144012451
 21
10.4363529756665
 31
0.0
  0
LINE
  5
   3F8
  8
0
  6
CONTINUOUS
 62
   130
 10
-25.0537929534912
 20
9.78798008710146
 30
0.0
 11
-25.0537929534912
 21
10.4363529756665
 31
0.0
  0
LINE
  5
   3F9
  8
0
  6
CONTINUOUS
 62
   130
 10
-25.0537929534912
 20
9.78798008710146
 30
0.0
 11
-24.9301357269287
 21
9.78798008710146
 31
0.0
  0
LINE
  5
   3FA
  8
0
  6
CONTINUOUS
 62
   130
 10
-24.9301354099
 20
9.78797690452832
 30
0.0
 11
-24.8197533179107
 21
9.80385057374819
 31
0.0
  0
LINE
  5
   3FB
  8
0
  6
CONTINUOUS
 62
   130
 10
-24.8197525258278
 20
9.8038526211433
 30
0.0
 11
-24.7183159045261
 21
9.85018712697618
 31
0.0
  0
LINE
  5
   3FC
  8
0
  6
CONTINUOUS
 62
   130
 10
-24.7183166691511
 20
9.85018698084343
 30
0.0
 11
-24.6340499987565
 21
9.92322723017651
 31
0.0
  0
LINE
  5
   3FD
  8
0
  6
CONTINUOUS
 62
   130
 10
-24.6340501426087
 20
9.92322814772493
 30
0.0
 11
-24.5737779260986
 21
10.0170544405506
 31
0.0
  0
LINE
  5
   3FE
  8
0
  6
CONTINUOUS
 62
   130
 10
-24.5737753113537
 20
10.0170544396479
 30
0.0
 11
-24.5423841651978
 21
10.1240621878127
 31
0.0
  0
LINE
  5
   3FF
  8
0
  6
CONTINUOUS
 62
   130
 10
-24.5424246568633
 20
10.2355797938381
 30
0.0
 11
-24.5423865099093
 21
10.1240630732022
 31
0.0
  0
LINE
  5
   400
  8
0
  6
CONTINUOUS
 62
   130
 10
-24.5738778158028
 20
10.3425683437027
 30
0.0
 11
-24.5424218244993
 21
10.2355803850882
 31
0.0
  0
LINE
  5
   401
  8
0
  6
CONTINUOUS
 62
   130
 10
-24.6342124847788
 20
10.4363518309706
 30
0.0
 11
-24.5738792334726
 21
10.3425660696661
 31
0.0
  0
LINE
  5
   402
  8
0
  6
CONTINUOUS
 62
   130
 10
-25.4694156646729
 20
9.78798008710146
 30
0.0
 11
-25.4694156646729
 21
11.1179783418775
 31
0.0
  0
LINE
  5
   403
  8
0
  6
CONTINUOUS
 62
   130
 10
-28.2638049697887
 20
8.93603324889884
 30
0.0
 11
-14.2638262653356
 21
8.93603324889884
 31
0.0
  0
LINE
  5
   404
  8
0
  6
CONTINUOUS
 62
   130
 10
-14.0138258934018
 20
8.43603324889885
 30
0.0
 11
-14.0138258934018
 21
9.93603324889885
 31
0.0
  0
LINE
  5
   405
  8
0
  6
CONTINUOUS
 62
   130
 10
-3.51381158828847
 20
8.43603324889885
 30
0.0
 11
-3.51381158828847
 21
9.93603324889885
 31
0.0
  0
LINE
  5
   406
  8
0
  6
CONTINUOUS
 62
   130
 10
-14.0138263034826
 20
9.93603324889884
 30
0.0
 11
-3.51381117820774
 21
9.93603324889884
 31
0.0
  0
LINE
  5
   407
  8
0
  6
CONTINUOUS
 62
   130
 10
-3.26381121635474
 20
8.93603324889884
 30
0.0
 11
10.7361674880984
 21
8.93603324889884
 31
0.0
  0
LINE
  5
   408
  8
0
  6
CONTINUOUS
 62
   130
 10
-14.2638263130193
 20
10.1860332488988
 30
0.0
 11
-3.263811168671
 21
10.1860332488988
 31
0.0
  0
LINE
  5
   409
  8
0
  6
CONTINUOUS
 62
   130
 10
-3.26381158828848
 20
8.43603324889885
 30
0.0
 11
-3.26381158828848
 21
10.1860332488988
 31
0.0
  0
LINE
  5
   40A
  8
0
  6
CONTINUOUS
 62
   130
 10
-14.2638258934018
 20
8.43603324889885
 30
0.0
 11
-14.2638258934018
 21
10.1860332488988
 31
0.0
  0
LINE
  5
   40B
  8
0
  6
CONTINUOUS
 62
   130
 10
-3.51381158828847
 20
-6.01989214841571
 30
0.0
 11
-3.51381158828847
 21
-4.51989214841571
 31
0.0
  0
LINE
  5
   40C
  8
0
  6
CONTINUOUS
 62
   130
 10
-14.0138258934018
 20
-6.01989214841571
 30
0.0
 11
-14.0138258934018
 21
-4.51989214841571
 31
0.0
  0
LINE
  5
   40D
  8
0
  6
CONTINUOUS
 62
   130
 10
-14.0138257520325
 20
-4.51989214841571
 30
0.0
 11
-12.5138257520325
 21
-4.51989214841571
 31
0.0
  0
LINE
  5
   40E
  8
0
  6
CONTINUOUS
 62
   130
 10
-5.01381172965783
 20
-4.51989214841571
 30
0.0
 11
-3.51381172965783
 21
-4.51989214841571
 31
0.0
  0
LINE
  5
   40F
  8
0
  6
CONTINUOUS
 62
   130
 10
-14.013825694812
 20
-6.01989214841571
 30
0.0
 11
-12.013825694812
 21
-6.01989214841571
 31
0.0
  0
LINE
  5
   410
  8
0
  6
CONTINUOUS
 62
   130
 10
-5.51381178687831
 20
-6.01989214841571
 30
0.0
 11
-3.51381178687832
 21
-6.01989214841571
 31
0.0
  0
LINE
  5
   411
  8
0
  6
CONTINUOUS
 62
   130
 10
-16.5638175964359
 20
-9.43897438049225
 30
0.0
 11
-16.5638175964359
 21
-7.18897438049225
 31
0.0
  0
LINE
  5
   412
  8
0
  6
CONTINUOUS
 62
   130
 10
-21.5638175964359
 20
-9.43897438049225
 30
0.0
 11
-21.5638175964359
 21
-7.18897438049225
 31
0.0
  0
LINE
  5
   413
  8
0
  6
CONTINUOUS
 62
   130
 10
-21.5638175964359
 20
-7.18897438049225
 30
0.0
 11
-16.5638175964359
 21
-7.18897438049225
 31
0.0
  0
LINE
  5
   414
  8
0
  6
CONTINUOUS
 62
   130
 10
-21.5638175964359
 20
-9.43897438049225
 30
0.0
 11
-16.5638175964359
 21
-9.43897438049225
 31
0.0
  0
LINE
  5
   415
  8
0
  6
CONTINUOUS
 62
   130
 10
-40.2638092422464
 20
37.4360179901138
 30
0.0
 11
10.2361717605561
 21
37.4360179901138
 31
0.0
  0
LINE
  5
   416
  8
0
  6
CONTINUOUS
 62
   130
 10
-40.2637999343882
 20
-24.5639743804923
 30
0.0
 11
10.2361624526979
 21
-24.5639743804923
 31
0.0
  0
ARC
  5
   417
  8
0
  6
CONTINUOUS
 62
   130
 10
10.2361717605561
 20
36.9360179901138
 30
0.0
 40
0.5
 50
359.99999125736
 51
450.0
  0
ARC
  5
   418
  8
0
  6
CONTINUOUS
 62
   130
 10
-40.2638092422464
 20
36.9360179901138
 30
0.0
 40
0.5
 50
90.0
 51
180.00000874264
  0
ARC
  5
   419
  8
0
  6
CONTINUOUS
 62
   130
 10
-40.2637999343882
 20
-24.0639743804923
 30
0.0
 40
0.5
 50
180.00000874264
 51
270.0
  0
ARC
  5
   41A
  8
0
  6
CONTINUOUS
 62
   130
 10
10.2361624526979
 20
-24.0639743804923
 30
0.0
 40
0.5
 50
270.0
 51
359.99999125736
  0
LINE
  5
   41B
  8
0
  6
CONTINUOUS
 62
   130
 10
-28.2638339996349
 20
7.68603324889884
 30
0.0
 11
-28.2638339996349
 21
8.43603324889884
 31
0.0
  0
LINE
  5
   41C
  8
0
  6
CONTINUOUS
 62
   130
 10
-28.2638339996349
 20
-7.56396675109522
 30
0.0
 11
-28.2638339996349
 21
-6.81396675109522
 31
0.0
  0
LINE
  5
   41D
  8
0
  6
CONTINUOUS
 62
   130
 10
-28.5138339996349
 20
24.4360694885254
 30
0.0
 11
-28.5138339996349
 21
28.4360121073551
 31
0.0
  0
LINE
  5
   41E
  8
0
  6
CONTINUOUS
 62
   130
 10
-29.1638339996349
 20
24.4360694885254
 30
0.0
 11
-29.1638339996349
 21
28.4360121073551
 31
0.0
  0
LINE
  5
   41F
  8
0
  6
CONTINUOUS
 62
   130
 10
-29.4138339996349
 20
24.4360694885254
 30
0.0
 11
-29.4138339996349
 21
28.4360121073551
 31
0.0
  0
LINE
  5
   420
  8
0
  6
CONTINUOUS
 62
   130
 10
-30.0638339996349
 20
24.4360694885254
 30
0.0
 11
-30.0638339996349
 21
28.4360121073551
 31
0.0
  0
LINE
  5
   421
  8
0
  6
CONTINUOUS
 62
   130
 10
-30.3138339996349
 20
24.4360694885254
 30
0.0
 11
-30.3138339996349
 21
28.4360121073551
 31
0.0
  0
LINE
  5
   422
  8
0
  6
CONTINUOUS
 62
   130
 10
-30.0638339996349
 20
24.4360694885254
 30
0.0
 11
-30.0638339996349
 21
28.4360121073551
 31
0.0
  0
LINE
  5
   423
  8
0
  6
CONTINUOUS
 62
   130
 10
-30.9638339996349
 20
24.4360694885254
 30
0.0
 11
-30.9638339996349
 21
28.4360121073551
 31
0.0
  0
LINE
  5
   424
  8
0
  6
CONTINUOUS
 62
   130
 10
-31.2138339996349
 20
24.4360694885254
 30
0.0
 11
-31.2138339996349
 21
28.4360121073551
 31
0.0
  0
LINE
  5
   425
  8
0
  6
CONTINUOUS
 62
   130
 10
-31.8638339996349
 20
24.4360694885254
 30
0.0
 11
-31.8638339996349
 21
28.4360121073551
 31
0.0
  0
LINE
  5
   426
  8
0
  6
CONTINUOUS
 62
   130
 10
-32.1138339996348
 20
24.4360694885254
 30
0.0
 11
-32.1138339996348
 21
28.4360121073551
 31
0.0
  0
LINE
  5
   427
  8
0
  6
CONTINUOUS
 62
   130
 10
-32.7638339996349
 20
24.4360694885254
 30
0.0
 11
-32.7638339996349
 21
28.4360121073551
 31
0.0
  0
LINE
  5
   428
  8
0
  6
CONTINUOUS
 62
   130
 10
-33.0138339996348
 20
24.4360694885254
 30
0.0
 11
-33.0138339996348
 21
28.4360121073551
 31
0.0
  0
LINE
  5
   429
  8
0
  6
CONTINUOUS
 62
   130
 10
-33.6638339996348
 20
24.4360694885254
 30
0.0
 11
-33.6638339996348
 21
28.4360121073551
 31
0.0
  0
LINE
  5
   42A
  8
0
  6
CONTINUOUS
 62
   130
 10
-33.9138339996348
 20
24.4360694885254
 30
0.0
 11
-33.9138339996348
 21
28.4360121073551
 31
0.0
  0
LINE
  5
   42B
  8
0
  6
CONTINUOUS
 62
   130
 10
-34.5638339996348
 20
24.4360694885254
 30
0.0
 11
-34.5638339996348
 21
28.4360121073551
 31
0.0
  0
LINE
  5
   42C
  8
0
  6
CONTINUOUS
 62
   130
 10
-34.8138339996348
 20
24.4360694885254
 30
0.0
 11
-34.8138339996348
 21
28.4360121073551
 31
0.0
  0
LINE
  5
   42D
  8
0
  6
CONTINUOUS
 62
   130
 10
-35.4638339996348
 20
24.4360694885254
 30
0.0
 11
-35.4638339996348
 21
28.4360121073551
 31
0.0
  0
LINE
  5
   42E
  8
0
  6
CONTINUOUS
 62
   130
 10
-35.7138339996348
 20
24.4360694885254
 30
0.0
 11
-35.7138339996348
 21
28.4360121073551
 31
0.0
  0
LINE
  5
   42F
  8
0
  6
CONTINUOUS
 62
   130
 10
-36.3638339996348
 20
24.4360694885254
 30
0.0
 11
-36.3638339996348
 21
28.4360121073551
 31
0.0
  0
LINE
  5
   430
  8
0
  6
CONTINUOUS
 62
   130
 10
-36.6138339996348
 20
24.4360694885254
 30
0.0
 11
-36.6138339996348
 21
28.4360121073551
 31
0.0
  0
LINE
  5
   431
  8
0
  6
CONTINUOUS
 62
   130
 10
-37.2638339996348
 20
24.4360694885254
 30
0.0
 11
-37.2638339996348
 21
28.4360121073551
 31
0.0
  0
LINE
  5
   432
  8
0
  6
CONTINUOUS
 62
   130
 10
-37.5138339996347
 20
24.4360694885254
 30
0.0
 11
-37.5138339996347
 21
28.4360121073551
 31
0.0
  0
LINE
  5
   433
  8
0
  6
CONTINUOUS
 62
   130
 10
-38.1638339996347
 20
24.4360694885254
 30
0.0
 11
-38.1638339996347
 21
28.4360121073551
 31
0.0
  0
LINE
  5
   434
  8
0
  6
CONTINUOUS
 62
   130
 10
-38.4138339996347
 20
24.4360694885254
 30
0.0
 11
-38.4138339996347
 21
28.4360121073551
 31
0.0
  0
LINE
  5
   435
  8
0
  6
CONTINUOUS
 62
   130
 10
-39.0638339996347
 20
24.4360694885254
 30
0.0
 11
-39.0638339996347
 21
28.4360121073551
 31
0.0
  0
LINE
  5
   436
  8
0
  6
CONTINUOUS
 62
   130
 10
-39.3138339996347
 20
24.4360694885254
 30
0.0
 11
-39.3138339996347
 21
28.4360121073551
 31
0.0
  0
LINE
  5
   437
  8
0
  6
CONTINUOUS
 62
   130
 10
-39.9638339996347
 20
24.4360694885254
 30
0.0
 11
-39.9638339996347
 21
28.4360121073551
 31
0.0
  0
LINE
  5
   438
  8
0
  6
CONTINUOUS
 62
   130
 10
-40.2138339996347
 20
24.4360694885254
 30
0.0
 11
-40.2138339996347
 21
28.4360121073551
 31
0.0
  0
LINE
  5
   439
  8
0
  6
CONTINUOUS
 62
   130
 10
-40.7638108062726
 20
47.1860218048108
 30
0.0
 11
10.7361733245822
 21
47.1860218048108
 31
0.0
  0
LINE
  5
   43A
  8
0
  6
CONTINUOUS
 62
   130
 10
-40.7637983703621
 20
-34.3139781951892
 30
0.0
 11
10.7361608886717
 21
-34.3139781951892
 31
0.0
  0
LINE
  5
   43B
  8
0
  6
CONTINUOUS
 62
   130
 10
-40.2138295364421
 20
29.1860121073551
 30
0.0
 11
-40.2138295364421
 21
37.4360179901138
 31
0.0
  0
LINE
  5
   43C
  8
0
  6
CONTINUOUS
 62
   130
 10
-39.9638362503056
 20
29.1860121073551
 30
0.0
 11
-39.9638362503056
 21
37.4360179901138
 31
0.0
  0
LINE
  5
   43D
  8
0
  6
CONTINUOUS
 62
   130
 10
-39.3138295364421
 20
29.1860121073551
 30
0.0
 11
-39.3138295364421
 21
37.4360179901138
 31
0.0
  0
LINE
  5
   43E
  8
0
  6
CONTINUOUS
 62
   130
 10
-39.0638362503056
 20
29.1860121073551
 30
0.0
 11
-39.0638362503056
 21
37.4360179901138
 31
0.0
  0
LINE
  5
   43F
  8
0
  6
CONTINUOUS
 62
   130
 10
-38.4138295364421
 20
29.1860121073551
 30
0.0
 11
-38.4138295364421
 21
37.4360179901138
 31
0.0
  0
LINE
  5
   440
  8
0
  6
CONTINUOUS
 62
   130
 10
-38.1638362503056
 20
29.1860121073551
 30
0.0
 11
-38.1638362503056
 21
37.4360179901138
 31
0.0
  0
LINE
  5
   441
  8
0
  6
CONTINUOUS
 62
   130
 10
-37.5138295364421
 20
29.1860121073551
 30
0.0
 11
-37.5138295364421
 21
37.4360179901138
 31
0.0
  0
LINE
  5
   442
  8
0
  6
CONTINUOUS
 62
   130
 10
-37.2638362503056
 20
29.1860121073551
 30
0.0
 11
-37.2638362503056
 21
37.4360179901138
 31
0.0
  0
LINE
  5
   443
  8
0
  6
CONTINUOUS
 62
   130
 10
-36.6138295364421
 20
29.1860121073551
 30
0.0
 11
-36.6138295364421
 21
37.4360179901138
 31
0.0
  0
LINE
  5
   444
  8
0
  6
CONTINUOUS
 62
   130
 10
-36.3638362503056
 20
29.1860121073551
 30
0.0
 11
-36.3638362503056
 21
37.4360179901138
 31
0.0
  0
LINE
  5
   445
  8
0
  6
CONTINUOUS
 62
   130
 10
-35.7138295364421
 20
29.1860121073551
 30
0.0
 11
-35.7138295364421
 21
37.4360179901138
 31
0.0
  0
LINE
  5
   446
  8
0
  6
CONTINUOUS
 62
   130
 10
-35.4638362503056
 20
29.1860121073551
 30
0.0
 11
-35.4638362503056
 21
37.4360179901138
 31
0.0
  0
LINE
  5
   447
  8
0
  6
CONTINUOUS
 62
   130
 10
-34.8138295364421
 20
29.1860121073551
 30
0.0
 11
-34.8138295364421
 21
37.4360179901138
 31
0.0
  0
LINE
  5
   448
  8
0
  6
CONTINUOUS
 62
   130
 10
-34.5638362503056
 20
29.1860121073551
 30
0.0
 11
-34.5638362503056
 21
37.4360179901138
 31
0.0
  0
LINE
  5
   449
  8
0
  6
CONTINUOUS
 62
   130
 10
-33.9138295364421
 20
29.1860121073551
 30
0.0
 11
-33.9138295364421
 21
37.4360179901138
 31
0.0
  0
LINE
  5
   44A
  8
0
  6
CONTINUOUS
 62
   130
 10
-33.6638362503056
 20
29.1860121073551
 30
0.0
 11
-33.6638362503056
 21
37.4360179901138
 31
0.0
  0
LINE
  5
   44B
  8
0
  6
CONTINUOUS
 62
   130
 10
-33.0138295364421
 20
29.1860121073551
 30
0.0
 11
-33.0138295364421
 21
37.4360179901138
 31
0.0
  0
LINE
  5
   44C
  8
0
  6
CONTINUOUS
 62
   130
 10
-32.7638362503055
 20
29.1860121073551
 30
0.0
 11
-32.7638362503055
 21
37.4360179901138
 31
0.0
  0
LINE
  5
   44D
  8
0
  6
CONTINUOUS
 62
   130
 10
-32.1138295364421
 20
29.1860121073551
 30
0.0
 11
-32.1138295364421
 21
37.4360179901138
 31
0.0
  0
LINE
  5
   44E
  8
0
  6
CONTINUOUS
 62
   130
 10
-31.8638362503055
 20
29.1860121073551
 30
0.0
 11
-31.8638362503055
 21
37.4360179901138
 31
0.0
  0
LINE
  5
   44F
  8
0
  6
CONTINUOUS
 62
   130
 10
-31.2138295364421
 20
29.1860121073551
 30
0.0
 11
-31.2138295364421
 21
37.4360179901138
 31
0.0
  0
LINE
  5
   450
  8
0
  6
CONTINUOUS
 62
   130
 10
-30.9638362503055
 20
29.1860121073551
 30
0.0
 11
-30.9638362503055
 21
37.4360179901138
 31
0.0
  0
LINE
  5
   451
  8
0
  6
CONTINUOUS
 62
   130
 10
-30.313829536442
 20
29.1860121073551
 30
0.0
 11
-30.313829536442
 21
37.4360179901138
 31
0.0
  0
LINE
  5
   452
  8
0
  6
CONTINUOUS
 62
   130
 10
-30.0638362503055
 20
29.1860121073551
 30
0.0
 11
-30.0638362503055
 21
37.4360179901138
 31
0.0
  0
LINE
  5
   453
  8
0
  6
CONTINUOUS
 62
   130
 10
-29.413829536442
 20
29.1860121073551
 30
0.0
 11
-29.413829536442
 21
37.4360179901138
 31
0.0
  0
LINE
  5
   454
  8
0
  6
CONTINUOUS
 62
   130
 10
-29.1638362503055
 20
29.1860121073551
 30
0.0
 11
-29.1638362503055
 21
37.4360179901138
 31
0.0
  0
LINE
  5
   455
  8
0
  6
CONTINUOUS
 62
   130
 10
-28.513829536442
 20
29.1860121073551
 30
0.0
 11
-28.513829536442
 21
37.4360179901138
 31
0.0
  0
LINE
  5
   456
  8
0
  6
CONTINUOUS
 62
   130
 10
-28.2638362503055
 20
29.1860121073551
 30
0.0
 11
-28.2638362503055
 21
37.4360179901138
 31
0.0
  0
LINE
  5
   457
  8
0
  6
CONTINUOUS
 62
   130
 10
-27.613829536442
 20
29.1860121073551
 30
0.0
 11
-27.613829536442
 21
37.4360179901138
 31
0.0
  0
LINE
  5
   458
  8
0
  6
CONTINUOUS
 62
   130
 10
-27.3638362503055
 20
29.1860121073551
 30
0.0
 11
-27.3638362503055
 21
37.4360179901138
 31
0.0
  0
LINE
  5
   459
  8
0
  6
CONTINUOUS
 62
   130
 10
-26.713829536442
 20
29.1860121073551
 30
0.0
 11
-26.713829536442
 21
37.4360179901138
 31
0.0
  0
LINE
  5
   45A
  8
0
  6
CONTINUOUS
 62
   130
 10
-26.4638362503055
 20
29.1860121073551
 30
0.0
 11
-26.4638362503055
 21
37.4360179901138
 31
0.0
  0
LINE
  5
   45B
  8
0
  6
CONTINUOUS
 62
   130
 10
-25.813829536442
 20
29.1860121073551
 30
0.0
 11
-25.813829536442
 21
37.4360179901138
 31
0.0
  0
LINE
  5
   45C
  8
0
  6
CONTINUOUS
 62
   130
 10
-25.5638362503055
 20
29.1860121073551
 30
0.0
 11
-25.5638362503055
 21
37.4360179901138
 31
0.0
  0
LINE
  5
   45D
  8
0
  6
CONTINUOUS
 62
   130
 10
-24.913829536442
 20
29.1860121073551
 30
0.0
 11
-24.913829536442
 21
37.4360179901138
 31
0.0
  0
LINE
  5
   45E
  8
0
  6
CONTINUOUS
 62
   130
 10
-24.6638362503055
 20
29.1860121073551
 30
0.0
 11
-24.6638362503055
 21
37.4360179901138
 31
0.0
  0
LINE
  5
   45F
  8
0
  6
CONTINUOUS
 62
   130
 10
-24.013829536442
 20
29.1860121073551
 30
0.0
 11
-24.013829536442
 21
37.4360179901138
 31
0.0
  0
LINE
  5
   460
  8
0
  6
CONTINUOUS
 62
   130
 10
-23.7638362503055
 20
29.1860121073551
 30
0.0
 11
-23.7638362503055
 21
37.4360179901138
 31
0.0
  0
LINE
  5
   461
  8
0
  6
CONTINUOUS
 62
   130
 10
-23.113829536442
 20
29.1860121073551
 30
0.0
 11
-23.113829536442
 21
37.4360179901138
 31
0.0
  0
LINE
  5
   462
  8
0
  6
CONTINUOUS
 62
   130
 10
-22.8638362503055
 20
29.1860121073551
 30
0.0
 11
-22.8638362503055
 21
37.4360179901138
 31
0.0
  0
LINE
  5
   463
  8
0
  6
CONTINUOUS
 62
   130
 10
-21.9638362503055
 20
29.1860121073551
 30
0.0
 11
-21.9638362503055
 21
37.4360179901138
 31
0.0
  0
LINE
  5
   464
  8
0
  6
CONTINUOUS
 62
   130
 10
-21.9638362503055
 20
29.1860121073551
 30
0.0
 11
-21.9638362503055
 21
37.4360179901138
 31
0.0
  0
LINE
  5
   465
  8
0
  6
CONTINUOUS
 62
   130
 10
-22.213829536442
 20
29.1860121073551
 30
0.0
 11
-22.213829536442
 21
37.4360179901138
 31
0.0
  0
LINE
  5
   466
  8
0
  6
CONTINUOUS
 62
   130
 10
-21.313829536442
 20
29.1860121073551
 30
0.0
 11
-21.313829536442
 21
37.4360179901138
 31
0.0
  0
LINE
  5
   467
  8
0
  6
CONTINUOUS
 62
   130
 10
-21.0638362503055
 20
29.1860121073551
 30
0.0
 11
-21.0638362503055
 21
37.4360179901138
 31
0.0
  0
LINE
  5
   468
  8
0
  6
CONTINUOUS
 62
   130
 10
-20.413829536442
 20
29.1860121073551
 30
0.0
 11
-20.413829536442
 21
37.4360179901138
 31
0.0
  0
LINE
  5
   469
  8
0
  6
CONTINUOUS
 62
   130
 10
-20.1638362503055
 20
29.1860121073551
 30
0.0
 11
-20.1638362503055
 21
37.4360179901138
 31
0.0
  0
LINE
  5
   46A
  8
0
  6
CONTINUOUS
 62
   130
 10
-19.513829536442
 20
29.1860121073551
 30
0.0
 11
-19.513829536442
 21
37.4360179901138
 31
0.0
  0
LINE
  5
   46B
  8
0
  6
CONTINUOUS
 62
   130
 10
-18.613829536442
 20
29.1860121073551
 30
0.0
 11
-18.613829536442
 21
37.4360179901138
 31
0.0
  0
LINE
  5
   46C
  8
0
  6
CONTINUOUS
 62
   130
 10
-19.513829536442
 20
29.1860121073551
 30
0.0
 11
-19.513829536442
 21
37.4360179901138
 31
0.0
  0
LINE
  5
   46D
  8
0
  6
CONTINUOUS
 62
   130
 10
-19.2638362503055
 20
29.1860121073551
 30
0.0
 11
-19.2638362503055
 21
37.4360179901138
 31
0.0
  0
LINE
  5
   46E
  8
0
  6
CONTINUOUS
 62
   130
 10
-18.3638362503055
 20
29.1860121073551
 30
0.0
 11
-18.3638362503055
 21
37.4360179901138
 31
0.0
  0
LINE
  5
   46F
  8
0
  6
CONTINUOUS
 62
   130
 10
-18.613829536442
 20
29.1860121073551
 30
0.0
 11
-18.613829536442
 21
37.4360179901138
 31
0.0
  0
LINE
  5
   470
  8
0
  6
CONTINUOUS
 62
   130
 10
-17.713829536442
 20
29.1860121073551
 30
0.0
 11
-17.713829536442
 21
37.4360179901138
 31
0.0
  0
LINE
  5
   471
  8
0
  6
CONTINUOUS
 62
   130
 10
-17.4638362503054
 20
29.1860121073551
 30
0.0
 11
-17.4638362503054
 21
37.4360179901138
 31
0.0
  0
LINE
  5
   472
  8
0
  6
CONTINUOUS
 62
   130
 10
-16.813829536442
 20
29.1860121073551
 30
0.0
 11
-16.813829536442
 21
37.4360179901138
 31
0.0
  0
LINE
  5
   473
  8
0
  6
CONTINUOUS
 62
   130
 10
-16.5638362503054
 20
29.1860121073551
 30
0.0
 11
-16.5638362503054
 21
37.4360179901138
 31
0.0
  0
LINE
  5
   474
  8
0
  6
CONTINUOUS
 62
   130
 10
-15.6638362503054
 20
29.1860121073551
 30
0.0
 11
-15.6638362503054
 21
37.4360179901138
 31
0.0
  0
LINE
  5
   475
  8
0
  6
CONTINUOUS
 62
   130
 10
-15.913829536442
 20
29.1860121073551
 30
0.0
 11
-15.913829536442
 21
37.4360179901138
 31
0.0
  0
LINE
  5
   476
  8
0
  6
CONTINUOUS
 62
   130
 10
-14.7638362503054
 20
29.1860121073551
 30
0.0
 11
-14.7638362503054
 21
37.4360179901138
 31
0.0
  0
LINE
  5
   477
  8
0
  6
CONTINUOUS
 62
   130
 10
-15.0138295364419
 20
29.1860121073551
 30
0.0
 11
-15.0138295364419
 21
37.4360179901138
 31
0.0
  0
LINE
  5
   478
  8
0
  6
CONTINUOUS
 62
   130
 10
-14.7638362503054
 20
29.1860121073551
 30
0.0
 11
-14.7638362503054
 21
37.4360179901138
 31
0.0
  0
LINE
  5
   479
  8
0
  6
CONTINUOUS
 62
   130
 10
-14.1138295364419
 20
29.1860121073551
 30
0.0
 11
-14.1138295364419
 21
37.4360179901138
 31
0.0
  0
LINE
  5
   47A
  8
0
  6
CONTINUOUS
 62
   130
 10
-14.1138295364419
 20
29.1860121073551
 30
0.0
 11
-14.1138295364419
 21
37.4360179901138
 31
0.0
  0
LINE
  5
   47B
  8
0
  6
CONTINUOUS
 62
   130
 10
-13.8638362503054
 20
29.1860121073551
 30
0.0
 11
-13.8638362503054
 21
37.4360179901138
 31
0.0
  0
LINE
  5
   47C
  8
0
  6
CONTINUOUS
 62
   130
 10
-13.2138295364419
 20
29.1860121073551
 30
0.0
 11
-13.2138295364419
 21
37.4360179901138
 31
0.0
  0
LINE
  5
   47D
  8
0
  6
CONTINUOUS
 62
   130
 10
-12.9638362503054
 20
29.1860121073551
 30
0.0
 11
-12.9638362503054
 21
37.4360179901138
 31
0.0
  0
LINE
  5
   47E
  8
0
  6
CONTINUOUS
 62
   130
 10
-12.3138295364419
 20
29.1860121073551
 30
0.0
 11
-12.3138295364419
 21
37.4360179901138
 31
0.0
  0
LINE
  5
   47F
  8
0
  6
CONTINUOUS
 62
   130
 10
-12.0638362503054
 20
29.1860121073551
 30
0.0
 11
-12.0638362503054
 21
37.4360179901138
 31
0.0
  0
LINE
  5
   480
  8
0
  6
CONTINUOUS
 62
   130
 10
-11.4138295364419
 20
29.1860121073551
 30
0.0
 11
-11.4138295364419
 21
37.4360179901138
 31
0.0
  0
LINE
  5
   481
  8
0
  6
CONTINUOUS
 62
   130
 10
-11.1638362503054
 20
29.1860121073551
 30
0.0
 11
-11.1638362503054
 21
37.4360179901138
 31
0.0
  0
LINE
  5
   482
  8
0
  6
CONTINUOUS
 62
   130
 10
-10.5138295364419
 20
29.1860121073551
 30
0.0
 11
-10.5138295364419
 21
37.4360179901138
 31
0.0
  0
LINE
  5
   483
  8
0
  6
CONTINUOUS
 62
   130
 10
-10.2638362503054
 20
29.1860121073551
 30
0.0
 11
-10.2638362503054
 21
37.4360179901138
 31
0.0
  0
LINE
  5
   484
  8
0
  6
CONTINUOUS
 62
   130
 10
-9.3638362503054
 20
29.1860121073551
 30
0.0
 11
-9.3638362503054
 21
37.4360179901138
 31
0.0
  0
LINE
  5
   485
  8
0
  6
CONTINUOUS
 62
   130
 10
-9.61382953644191
 20
29.1860121073551
 30
0.0
 11
-9.61382953644191
 21
37.4360179901138
 31
0.0
  0
LINE
  5
   486
  8
0
  6
CONTINUOUS
 62
   130
 10
-8.71382953644191
 20
29.1860121073551
 30
0.0
 11
-8.71382953644191
 21
37.4360179901138
 31
0.0
  0
LINE
  5
   487
  8
0
  6
CONTINUOUS
 62
   130
 10
-8.46383625030539
 20
29.1860121073551
 30
0.0
 11
-8.46383625030539
 21
37.4360179901138
 31
0.0
  0
LINE
  5
   488
  8
0
  6
CONTINUOUS
 62
   130
 10
-7.8138295364419
 20
29.1860121073551
 30
0.0
 11
-7.8138295364419
 21
37.4360179901138
 31
0.0
  0
LINE
  5
   489
  8
0
  6
CONTINUOUS
 62
   130
 10
-7.56383625030539
 20
29.1860121073551
 30
0.0
 11
-7.56383625030539
 21
37.4360179901138
 31
0.0
  0
LINE
  5
   48A
  8
0
  6
CONTINUOUS
 62
   130
 10
-6.9138295364419
 20
29.1860121073551
 30
0.0
 11
-6.9138295364419
 21
37.4360179901138
 31
0.0
  0
LINE
  5
   48B
  8
0
  6
CONTINUOUS
 62
   130
 10
-6.66383625030538
 20
29.1860121073551
 30
0.0
 11
-6.66383625030538
 21
37.4360179901138
 31
0.0
  0
LINE
  5
   48C
  8
0
  6
CONTINUOUS
 62
   130
 10
-6.01382953644189
 20
29.1860121073551
 30
0.0
 11
-6.01382953644189
 21
37.4360179901138
 31
0.0
  0
LINE
  5
   48D
  8
0
  6
CONTINUOUS
 62
   130
 10
-5.76383625030537
 20
29.1860121073551
 30
0.0
 11
-5.76383625030537
 21
37.4360179901138
 31
0.0
  0
LINE
  5
   48E
  8
0
  6
CONTINUOUS
 62
   130
 10
-5.11382953644188
 20
29.1860121073551
 30
0.0
 11
-5.11382953644188
 21
37.4360179901138
 31
0.0
  0
LINE
  5
   48F
  8
0
  6
CONTINUOUS
 62
   130
 10
-4.86383625030537
 20
29.1860121073551
 30
0.0
 11
-4.86383625030537
 21
37.4360179901138
 31
0.0
  0
LINE
  5
   490
  8
0
  6
CONTINUOUS
 62
   130
 10
-4.21382953644188
 20
29.1860121073551
 30
0.0
 11
-4.21382953644188
 21
37.4360179901138
 31
0.0
  0
LINE
  5
   491
  8
0
  6
CONTINUOUS
 62
   130
 10
-3.96383625030536
 20
29.1860121073551
 30
0.0
 11
-3.96383625030536
 21
37.4360179901138
 31
0.0
  0
LINE
  5
   492
  8
0
  6
CONTINUOUS
 62
   130
 10
-3.31382953644187
 20
29.1860121073551
 30
0.0
 11
-3.31382953644187
 21
37.4360179901138
 31
0.0
  0
LINE
  5
   493
  8
0
  6
CONTINUOUS
 62
   130
 10
-3.06383625030536
 20
29.1860121073551
 30
0.0
 11
-3.06383625030536
 21
37.4360179901138
 31
0.0
  0
LINE
  5
   494
  8
0
  6
CONTINUOUS
 62
   130
 10
-2.41382953644187
 20
29.1860121073551
 30
0.0
 11
-2.41382953644187
 21
37.4360179901138
 31
0.0
  0
LINE
  5
   495
  8
0
  6
CONTINUOUS
 62
   130
 10
-2.16383625030535
 20
29.1860121073551
 30
0.0
 11
-2.16383625030535
 21
37.4360179901138
 31
0.0
  0
LINE
  5
   496
  8
0
  6
CONTINUOUS
 62
   130
 10
-1.51382953644186
 20
29.1860121073551
 30
0.0
 11
-1.51382953644186
 21
37.4360179901138
 31
0.0
  0
LINE
  5
   497
  8
0
  6
CONTINUOUS
 62
   130
 10
-1.26383625030535
 20
29.1860121073551
 30
0.0
 11
-1.26383625030535
 21
37.4360179901138
 31
0.0
  0
LINE
  5
   498
  8
0
  6
CONTINUOUS
 62
   130
 10
-0.613829536441855
 20
29.1860121073551
 30
0.0
 11
-0.613829536441855
 21
37.4360179901138
 31
0.0
  0
LINE
  5
   499
  8
0
  6
CONTINUOUS
 62
   130
 10
-0.36383625030534
 20
29.1860121073551
 30
0.0
 11
-0.36383625030534
 21
37.4360179901138
 31
0.0
  0
LINE
  5
   49A
  8
0
  6
CONTINUOUS
 62
   130
 10
0.28617046355815
 20
29.1860121073551
 30
0.0
 11
0.28617046355815
 21
37.4360179901138
 31
0.0
  0
LINE
  5
   49B
  8
0
  6
CONTINUOUS
 62
   130
 10
0.536163749694666
 20
29.1860121073551
 30
0.0
 11
0.536163749694666
 21
37.4360179901138
 31
0.0
  0
LINE
  5
   49C
  8
0
  6
CONTINUOUS
 62
   130
 10
1.18617046355816
 20
29.1860121073551
 30
0.0
 11
1.18617046355816
 21
37.4360179901138
 31
0.0
  0
LINE
  5
   49D
  8
0
  6
CONTINUOUS
 62
   130
 10
1.43616374969467
 20
29.1860121073551
 30
0.0
 11
1.43616374969467
 21
37.4360179901138
 31
0.0
  0
LINE
  5
   49E
  8
0
  6
CONTINUOUS
 62
   130
 10
2.33616374969468
 20
29.1860121073551
 30
0.0
 11
2.33616374969468
 21
37.4360179901138
 31
0.0
  0
LINE
  5
   49F
  8
0
  6
CONTINUOUS
 62
   130
 10
2.08617046355816
 20
29.1860121073551
 30
0.0
 11
2.08617046355816
 21
37.4360179901138
 31
0.0
  0
LINE
  5
   4A0
  8
0
  6
CONTINUOUS
 62
   130
 10
2.33616374969468
 20
29.1860121073551
 30
0.0
 11
2.33616374969468
 21
37.4360179901138
 31
0.0
  0
LINE
  5
   4A1
  8
0
  6
CONTINUOUS
 62
   130
 10
2.98617046355817
 20
29.1860121073551
 30
0.0
 11
2.98617046355817
 21
37.4360179901138
 31
0.0
  0
LINE
  5
   4A2
  8
0
  6
CONTINUOUS
 62
   130
 10
3.23616374969468
 20
29.1860121073551
 30
0.0
 11
3.23616374969468
 21
37.4360179901138
 31
0.0
  0
LINE
  5
   4A3
  8
0
  6
CONTINUOUS
 62
   130
 10
3.88617046355817
 20
29.1860121073551
 30
0.0
 11
3.88617046355817
 21
37.4360179901138
 31
0.0
  0
LINE
  5
   4A4
  8
0
  6
CONTINUOUS
 62
   130
 10
4.13616374969469
 20
29.1860121073551
 30
0.0
 11
4.13616374969469
 21
37.4360179901138
 31
0.0
  0
LINE
  5
   4A5
  8
0
  6
CONTINUOUS
 62
   130
 10
4.78617046355818
 20
29.1860121073551
 30
0.0
 11
4.78617046355818
 21
37.4360179901138
 31
0.0
  0
LINE
  5
   4A6
  8
0
  6
CONTINUOUS
 62
   130
 10
5.03616374969469
 20
29.1860121073551
 30
0.0
 11
5.03616374969469
 21
37.4360179901138
 31
0.0
  0
LINE
  5
   4A7
  8
0
  6
CONTINUOUS
 62
   130
 10
5.68617046355818
 20
29.1860121073551
 30
0.0
 11
5.68617046355818
 21
37.4360179901138
 31
0.0
  0
LINE
  5
   4A8
  8
0
  6
CONTINUOUS
 62
   130
 10
5.9361637496947
 20
29.1860121073551
 30
0.0
 11
5.9361637496947
 21
37.4360179901138
 31
0.0
  0
LINE
  5
   4A9
  8
0
  6
CONTINUOUS
 62
   130
 10
6.58617046355819
 20
29.1860121073551
 30
0.0
 11
6.58617046355819
 21
37.4360179901138
 31
0.0
  0
LINE
  5
   4AA
  8
0
  6
CONTINUOUS
 62
   130
 10
6.83616374969471
 20
29.1860121073551
 30
0.0
 11
6.83616374969471
 21
37.4360179901138
 31
0.0
  0
LINE
  5
   4AB
  8
0
  6
CONTINUOUS
 62
   130
 10
7.4861704635582
 20
29.1860121073551
 30
0.0
 11
7.4861704635582
 21
37.4360179901138
 31
0.0
  0
LINE
  5
   4AC
  8
0
  6
CONTINUOUS
 62
   130
 10
7.73616374969471
 20
29.1860121073551
 30
0.0
 11
7.73616374969471
 21
37.4360179901138
 31
0.0
  0
LINE
  5
   4AD
  8
0
  6
CONTINUOUS
 62
   130
 10
8.3861704635582
 20
29.1860121073551
 30
0.0
 11
8.3861704635582
 21
37.4360179901138
 31
0.0
  0
LINE
  5
   4AE
  8
0
  6
CONTINUOUS
 62
   130
 10
8.63616374969472
 20
29.1860121073551
 30
0.0
 11
8.63616374969472
 21
37.4360179901138
 31
0.0
  0
LINE
  5
   4AF
  8
0
  6
CONTINUOUS
 62
   130
 10
9.28617046355821
 20
29.1860121073551
 30
0.0
 11
9.28617046355821
 21
37.4360179901138
 31
0.0
  0
LINE
  5
   4B0
  8
0
  6
CONTINUOUS
 62
   130
 10
9.53616374969472
 20
29.1860121073551
 30
0.0
 11
9.53616374969472
 21
37.4360179901138
 31
0.0
  0
LINE
  5
   4B1
  8
0
  6
CONTINUOUS
 62
   130
 10
10.1861704635582
 20
29.1860121073551
 30
0.0
 11
10.1861704635582
 21
37.4360179901138
 31
0.0
  0
LINE
  5
   4B2
  8
0
  6
CONTINUOUS
 62
   130
 10
10.4361637496947
 20
29.1860121073551
 30
0.0
 11
10.4361637496947
 21
37.4360179901138
 31
0.0
  0
LINE
  5
   4B3
  8
0
  6
CONTINUOUS
 62
   130
 10
-8.76380384293493
 20
-25.9501114227695
 30
0.0
 11
-8.76380384293493
 21
56.1268830579979
 31
0.0
  0
CIRCLE
  5
   4B4
  8
0
  6
CONTINUOUS
 62
   130
 10
-33.7638038429349
 20
42.4360218048096
 30
0.0
 40
1.25
  0
CIRCLE
  5
   4B5
  8
0
  6
CONTINUOUS
 62
   130
 10
-21.2638038429349
 20
42.4360218048096
 30
0.0
 40
1.25
  0
CIRCLE
  5
   4B6
  8
0
  6
CONTINUOUS
 62
   130
 10
-8.76380384293493
 20
42.4360218048096
 30
0.0
 40
1.25
  0
CIRCLE
  5
   4B7
  8
0
  6
CONTINUOUS
 62
   130
 10
3.73619615706507
 20
42.4360218048096
 30
0.0
 40
1.25
  0
CIRCLE
  5
   4B8
  8
0
  6
CONTINUOUS
 62
   130
 10
-33.7638038429349
 20
-29.5639781951904
 30
0.0
 40
1.25
  0
CIRCLE
  5
   4B9
  8
0
  6
CONTINUOUS
 62
   130
 10
-21.2638038429349
 20
-29.5639781951904
 30
0.0
 40
1.25
  0
CIRCLE
  5
   4BA
  8
0
  6
CONTINUOUS
 62
   130
 10
3.73619615706507
 20
-29.5639781951904
 30
0.0
 40
1.25
  0
CIRCLE
  5
   4BB
  8
0
  6
CONTINUOUS
 62
   130
 10
-8.76380384293493
 20
-29.5639781951904
 30
0.0
 40
1.25
  0
LINE
  5
   4BC
  8
0
  6
DASHDOT
 62
   130
 10
-33.7638038429349
 20
40.6860218048096
 30
0.0
 11
-33.7638038429349
 21
44.1860218048096
 31
0.0
  0
LINE
  5
   4BD
  8
0
  6
DASHDOT
 62
   130
 10
-35.5138038429349
 20
42.4360218048096
 30
0.0
 11
-32.0138038429349
 21
42.4360218048096
 31
0.0
  0
LINE
  5
   4BE
  8
0
  6
DASHDOT
 62
   130
 10
-21.2638038429349
 20
40.6860218048096
 30
0.0
 11
-21.2638038429349
 21
44.1860218048096
 31
0.0
  0
LINE
  5
   4BF
  8
0
  6
DASHDOT
 62
   130
 10
-23.0138038429349
 20
42.4360218048096
 30
0.0
 11
-19.5138038429349
 21
42.4360218048096
 31
0.0
  0
LINE
  5
   4C0
  8
0
  6
DASHDOT
 62
   130
 10
-8.76380384293493
 20
40.6860218048096
 30
0.0
 11
-8.76380384293493
 21
44.1860218048096
 31
0.0
  0
LINE
  5
   4C1
  8
0
  6
DASHDOT
 62
   130
 10
-10.5138038429349
 20
42.4360218048096
 30
0.0
 11
-7.01380384293493
 21
42.4360218048096
 31
0.0
  0
LINE
  5
   4C2
  8
0
  6
DASHDOT
 62
   130
 10
3.73619615706507
 20
41.9360218048096
 30
0.0
 11
3.73619615706507
 21
42.9360218048096
 31
0.0
  0
LINE
  5
   4C3
  8
0
  6
DASHDOT
 62
   130
 10
3.23619615706507
 20
42.4360218048096
 30
0.0
 11
4.23619615706507
 21
42.4360218048096
 31
0.0
  0
LINE
  5
   4C4
  8
0
  6
DASHDOT
 62
   130
 10
-33.7638038429349
 20
-31.3139781951904
 30
0.0
 11
-33.7638038429349
 21
-27.8139781951904
 31
0.0
  0
LINE
  5
   4C5
  8
0
  6
DASHDOT
 62
   130
 10
-35.5138038429349
 20
-29.5639781951904
 30
0.0
 11
-32.0138038429349
 21
-29.5639781951904
 31
0.0
  0
LINE
  5
   4C6
  8
0
  6
DASHDOT
 62
   130
 10
-21.2638038429349
 20
-31.3139781951904
 30
0.0
 11
-21.2638038429349
 21
-27.8139781951904
 31
0.0
  0
LINE
  5
   4C7
  8
0
  6
DASHDOT
 62
   130
 10
-23.0138038429349
 20
-29.5639781951904
 30
0.0
 11
-19.5138038429349
 21
-29.5639781951904
 31
0.0
  0
LINE
  5
   4C8
  8
0
  6
DASHDOT
 62
   130
 10
-8.76380384293493
 20
-31.3139781951904
 30
0.0
 11
-8.76380384293493
 21
-27.8139781951904
 31
0.0
  0
LINE
  5
   4C9
  8
0
  6
DASHDOT
 62
   130
 10
-10.5138038429349
 20
-29.5639781951904
 30
0.0
 11
-7.01380384293493
 21
-29.5639781951904
 31
0.0
  0
LINE
  5
   4CA
  8
0
  6
DASHDOT
 62
   130
 10
3.73619615706507
 20
-31.3139781951904
 30
0.0
 11
3.73619615706507
 21
-27.8139781951904
 31
0.0
  0
LINE
  5
   4CB
  8
0
  6
DASHDOT
 62
   130
 10
1.98619615706507
 20
-29.5639781951904
 30
0.0
 11
5.48619615706507
 21
-29.5639781951904
 31
0.0
  0
LINE
  5
   4CC
  8
0
  6
DASHDOT
 62
   130
 10
342.572862978927
 20
-208.771638882339
 30
0.0
 11
342.572862978927
 21
-207.771638882339
 31
0.0
  0
LINE
  5
   4CD
  8
0
  6
DASHDOT
 62
   130
 10
342.072862978927
 20
-208.271638882339
 30
0.0
 11
343.072862978927
 21
-208.271638882339
 31
0.0
  0
TEXT
  5
   4CE
  8
0
  6
CONTINUOUS
 62
     2
 10
-68.4815511840659
 20
-0.991897986168853
 30
0.0
 40
3.00000002980232
  1
X
 50
360.0
 41
0.983333351877
 72
     2
 11
-66.2815511065874
 21
0.508102028743363
 31
0.0
 73
     2
  0
TEXT
  5
   4CF
  8
0
  6
CONTINUOUS
 62
     2
 10
23.1703943977866
 20
-1.16387567066642
 30
0.0
 40
3.00000002980232
  1
X
 50
360.0
 41
0.983333351877
 11
23.1703943977791
 21
0.336124344234745
 31
0.0
 73
     2
  0
LINE
  5
   4D0
  8
0
  6
CONTINUOUS
 62
   130
 10
-40.7638034820533
 20
-11.5639305114746
 30
0.0
 11
-40.7638034820533
 21
12.4360694885254
 31
0.0
  0
LINE
  5
   4D1
  8
0
  6
CONTINUOUS
 62
   130
 10
-28.5138339996349
 20
-11.5639305114746
 30
0.0
 11
-28.5138339996349
 21
12.4360694885254
 31
0.0
  0
LINE
  5
   4D2
  8
0
  6
CONTINUOUS
 62
   130
 10
-29.1638339996349
 20
-11.5639305114746
 30
0.0
 11
-29.1638339996349
 21
12.4360694885254
 31
0.0
  0
LINE
  5
   4D3
  8
0
  6
CONTINUOUS
 62
   130
 10
-29.4138339996349
 20
-11.5639305114746
 30
0.0
 11
-29.4138339996349
 21
12.4360694885254
 31
0.0
  0
LINE
  5
   4D4
  8
0
  6
CONTINUOUS
 62
   130
 10
-30.0638339996349
 20
-11.5639305114746
 30
0.0
 11
-30.0638339996349
 21
12.4360694885254
 31
0.0
  0
LINE
  5
   4D5
  8
0
  6
CONTINUOUS
 62
   130
 10
-30.3138339996349
 20
-11.5639305114746
 30
0.0
 11
-30.3138339996349
 21
12.4360694885254
 31
0.0
  0
LINE
  5
   4D6
  8
0
  6
CONTINUOUS
 62
   130
 10
-30.0638339996349
 20
-11.5639305114746
 30
0.0
 11
-30.0638339996349
 21
12.4360694885254
 31
0.0
  0
LINE
  5
   4D7
  8
0
  6
CONTINUOUS
 62
   130
 10
-30.9638339996349
 20
-11.5639305114746
 30
0.0
 11
-30.9638339996349
 21
12.4360694885254
 31
0.0
  0
LINE
  5
   4D8
  8
0
  6
CONTINUOUS
 62
   130
 10
-31.2138339996349
 20
-11.5639305114746
 30
0.0
 11
-31.2138339996349
 21
12.4360694885254
 31
0.0
  0
LINE
  5
   4D9
  8
0
  6
CONTINUOUS
 62
   130
 10
-31.8638339996349
 20
-11.5639305114746
 30
0.0
 11
-31.8638339996349
 21
12.4360694885254
 31
0.0
  0
LINE
  5
   4DA
  8
0
  6
CONTINUOUS
 62
   130
 10
-32.1138339996348
 20
-11.5639305114746
 30
0.0
 11
-32.1138339996348
 21
12.4360694885254
 31
0.0
  0
LINE
  5
   4DB
  8
0
  6
CONTINUOUS
 62
   130
 10
-32.7638339996349
 20
-11.5639305114746
 30
0.0
 11
-32.7638339996349
 21
12.4360694885254
 31
0.0
  0
LINE
  5
   4DC
  8
0
  6
CONTINUOUS
 62
   130
 10
-33.0138339996348
 20
-11.5639305114746
 30
0.0
 11
-33.0138339996348
 21
12.4360694885254
 31
0.0
  0
LINE
  5
   4DD
  8
0
  6
CONTINUOUS
 62
   130
 10
-33.6638339996348
 20
-11.5639305114746
 30
0.0
 11
-33.6638339996348
 21
12.4360694885254
 31
0.0
  0
LINE
  5
   4DE
  8
0
  6
CONTINUOUS
 62
   130
 10
-33.9138339996348
 20
-11.5639305114746
 30
0.0
 11
-33.9138339996348
 21
12.4360694885254
 31
0.0
  0
LINE
  5
   4DF
  8
0
  6
CONTINUOUS
 62
   130
 10
-34.5638339996348
 20
-11.5639305114746
 30
0.0
 11
-34.5638339996348
 21
12.4360694885254
 31
0.0
  0
LINE
  5
   4E0
  8
0
  6
CONTINUOUS
 62
   130
 10
-34.8138339996348
 20
-11.5639305114746
 30
0.0
 11
-34.8138339996348
 21
12.4360694885254
 31
0.0
  0
LINE
  5
   4E1
  8
0
  6
CONTINUOUS
 62
   130
 10
-35.4638339996348
 20
-11.5639305114746
 30
0.0
 11
-35.4638339996348
 21
12.4360694885254
 31
0.0
  0
LINE
  5
   4E2
  8
0
  6
CONTINUOUS
 62
   130
 10
-35.7138339996348
 20
-11.5639305114746
 30
0.0
 11
-35.7138339996348
 21
12.4360694885254
 31
0.0
  0
LINE
  5
   4E3
  8
0
  6
CONTINUOUS
 62
   130
 10
-36.3638339996348
 20
-11.5639305114746
 30
0.0
 11
-36.3638339996348
 21
12.4360694885254
 31
0.0
  0
LINE
  5
   4E4
  8
0
  6
CONTINUOUS
 62
   130
 10
-36.6138339996348
 20
-11.5639305114746
 30
0.0
 11
-36.6138339996348
 21
12.4360694885254
 31
0.0
  0
LINE
  5
   4E5
  8
0
  6
CONTINUOUS
 62
   130
 10
-37.2638339996348
 20
-11.5639305114746
 30
0.0
 11
-37.2638339996348
 21
12.4360694885254
 31
0.0
  0
LINE
  5
   4E6
  8
0
  6
CONTINUOUS
 62
   130
 10
-37.5138339996347
 20
-11.5639305114746
 30
0.0
 11
-37.5138339996347
 21
12.4360694885254
 31
0.0
  0
LINE
  5
   4E7
  8
0
  6
CONTINUOUS
 62
   130
 10
-38.1638339996347
 20
-11.5639305114746
 30
0.0
 11
-38.1638339996347
 21
12.4360694885254
 31
0.0
  0
LINE
  5
   4E8
  8
0
  6
CONTINUOUS
 62
   130
 10
-38.4138339996347
 20
-11.5639305114746
 30
0.0
 11
-38.4138339996347
 21
12.4360694885254
 31
0.0
  0
LINE
  5
   4E9
  8
0
  6
CONTINUOUS
 62
   130
 10
-39.0638339996347
 20
-11.5639305114746
 30
0.0
 11
-39.0638339996347
 21
12.4360694885254
 31
0.0
  0
LINE
  5
   4EA
  8
0
  6
CONTINUOUS
 62
   130
 10
-39.3138339996347
 20
-11.5639305114746
 30
0.0
 11
-39.3138339996347
 21
12.4360694885254
 31
0.0
  0
LINE
  5
   4EB
  8
0
  6
CONTINUOUS
 62
   130
 10
-39.9638339996347
 20
-11.5639305114746
 30
0.0
 11
-39.9638339996347
 21
12.4360694885254
 31
0.0
  0
LINE
  5
   4EC
  8
0
  6
CONTINUOUS
 62
   130
 10
-40.2138339996347
 20
-11.5639305114746
 30
0.0
 11
-40.2138339996347
 21
12.4360694885254
 31
0.0
  0
LINE
  5
   4ED
  8
0
  6
CONTINUOUS
 62
   130
 10
10.7361660003646
 20
-11.5639305114746
 30
0.0
 11
10.7361660003646
 21
12.4360694885254
 31
0.0
  0
LINE
  5
   4EE
  8
0
  6
CONTINUOUS
 62
   130
 10
-8.46383625030539
 20
-24.5639743804923
 30
0.0
 11
-8.46383625030539
 21
-23.5639305114746
 31
0.0
  0
LINE
  5
   4EF
  8
0
  6
CONTINUOUS
 62
   130
 10
-7.8138295364419
 20
-24.5639743804923
 30
0.0
 11
-7.8138295364419
 21
-23.5639305114746
 31
0.0
  0
LINE
  5
   4F0
  8
0
  6
CONTINUOUS
 62
   130
 10
-7.56383625030539
 20
-24.5639743804923
 30
0.0
 11
-7.56383625030539
 21
-23.5639305114746
 31
0.0
  0
LINE
  5
   4F1
  8
0
  6
CONTINUOUS
 62
   130
 10
-6.9138295364419
 20
-24.5639743804923
 30
0.0
 11
-6.9138295364419
 21
-23.5639305114746
 31
0.0
  0
LINE
  5
   4F2
  8
0
  6
CONTINUOUS
 62
   130
 10
-6.66383625030538
 20
-24.5639743804923
 30
0.0
 11
-6.66383625030538
 21
-23.5639305114746
 31
0.0
  0
LINE
  5
   4F3
  8
0
  6
CONTINUOUS
 62
   130
 10
-6.01382953644189
 20
-24.5639743804923
 30
0.0
 11
-6.01382953644189
 21
-23.5639305114746
 31
0.0
  0
LINE
  5
   4F4
  8
0
  6
CONTINUOUS
 62
   130
 10
-5.76383625030537
 20
-24.5639743804923
 30
0.0
 11
-5.76383625030537
 21
-23.5639305114746
 31
0.0
  0
LINE
  5
   4F5
  8
0
  6
CONTINUOUS
 62
   130
 10
-5.11382953644188
 20
-24.5639743804923
 30
0.0
 11
-5.11382953644188
 21
-23.5639305114746
 31
0.0
  0
LINE
  5
   4F6
  8
0
  6
CONTINUOUS
 62
   130
 10
-4.86383625030537
 20
-24.5639743804923
 30
0.0
 11
-4.86383625030537
 21
-23.5639305114746
 31
0.0
  0
LINE
  5
   4F7
  8
0
  6
CONTINUOUS
 62
   130
 10
-4.21382953644188
 20
-24.5639743804923
 30
0.0
 11
-4.21382953644188
 21
-23.5639305114746
 31
0.0
  0
LINE
  5
   4F8
  8
0
  6
CONTINUOUS
 62
   130
 10
-3.96383625030536
 20
-24.5639743804923
 30
0.0
 11
-3.96383625030536
 21
-23.5639305114746
 31
0.0
  0
LINE
  5
   4F9
  8
0
  6
CONTINUOUS
 62
   130
 10
-3.31382953644187
 20
-24.5639743804923
 30
0.0
 11
-3.31382953644187
 21
-23.5639305114746
 31
0.0
  0
LINE
  5
   4FA
  8
0
  6
CONTINUOUS
 62
   130
 10
-3.06383625030536
 20
-24.5639743804923
 30
0.0
 11
-3.06383625030536
 21
-23.5639305114746
 31
0.0
  0
LINE
  5
   4FB
  8
0
  6
CONTINUOUS
 62
   130
 10
-2.41382953644187
 20
-24.5639743804923
 30
0.0
 11
-2.41382953644187
 21
-23.5639305114746
 31
0.0
  0
LINE
  5
   4FC
  8
0
  6
CONTINUOUS
 62
   130
 10
-2.16383625030535
 20
-24.5639743804923
 30
0.0
 11
-2.16383625030535
 21
-23.5639305114746
 31
0.0
  0
LINE
  5
   4FD
  8
0
  6
CONTINUOUS
 62
   130
 10
-1.51382953644186
 20
-24.5639743804923
 30
0.0
 11
-1.51382953644186
 21
-23.5639305114746
 31
0.0
  0
LINE
  5
   4FE
  8
0
  6
CONTINUOUS
 62
   130
 10
-1.26383625030535
 20
-24.5639743804923
 30
0.0
 11
-1.26383625030535
 21
-23.5639305114746
 31
0.0
  0
LINE
  5
   4FF
  8
0
  6
CONTINUOUS
 62
   130
 10
-0.613829536441855
 20
-24.5639743804923
 30
0.0
 11
-0.613829536441855
 21
-23.5639305114746
 31
0.0
  0
LINE
  5
   500
  8
0
  6
CONTINUOUS
 62
   130
 10
-0.36383625030534
 20
-24.5639743804923
 30
0.0
 11
-0.36383625030534
 21
-23.5639305114746
 31
0.0
  0
LINE
  5
   501
  8
0
  6
CONTINUOUS
 62
   130
 10
0.28617046355815
 20
-24.5639743804923
 30
0.0
 11
0.28617046355815
 21
-23.5639305114746
 31
0.0
  0
LINE
  5
   502
  8
0
  6
CONTINUOUS
 62
   130
 10
0.536163749694666
 20
-24.5639743804923
 30
0.0
 11
0.536163749694666
 21
-23.5639305114746
 31
0.0
  0
LINE
  5
   503
  8
0
  6
CONTINUOUS
 62
   130
 10
1.18617046355816
 20
-24.5639743804923
 30
0.0
 11
1.18617046355816
 21
-23.5639305114746
 31
0.0
  0
LINE
  5
   504
  8
0
  6
CONTINUOUS
 62
   130
 10
1.43616374969467
 20
-24.5639743804923
 30
0.0
 11
1.43616374969467
 21
-23.5639305114746
 31
0.0
  0
LINE
  5
   505
  8
0
  6
CONTINUOUS
 62
   130
 10
2.33616374969468
 20
-24.5639743804923
 30
0.0
 11
2.33616374969468
 21
-23.5639305114746
 31
0.0
  0
LINE
  5
   506
  8
0
  6
CONTINUOUS
 62
   130
 10
2.08617046355816
 20
-24.5639743804923
 30
0.0
 11
2.08617046355816
 21
-23.5639305114746
 31
0.0
  0
LINE
  5
   507
  8
0
  6
CONTINUOUS
 62
   130
 10
2.33616374969468
 20
-24.5639743804923
 30
0.0
 11
2.33616374969468
 21
-23.5639305114746
 31
0.0
  0
LINE
  5
   508
  8
0
  6
CONTINUOUS
 62
   130
 10
2.98617046355817
 20
-24.5639743804923
 30
0.0
 11
2.98617046355817
 21
-23.5639305114746
 31
0.0
  0
LINE
  5
   509
  8
0
  6
CONTINUOUS
 62
   130
 10
3.23616374969468
 20
-24.5639743804923
 30
0.0
 11
3.23616374969468
 21
-23.5639305114746
 31
0.0
  0
LINE
  5
   50A
  8
0
  6
CONTINUOUS
 62
   130
 10
3.88617046355817
 20
-24.5639743804923
 30
0.0
 11
3.88617046355817
 21
-23.5639305114746
 31
0.0
  0
LINE
  5
   50B
  8
0
  6
CONTINUOUS
 62
   130
 10
4.13616374969469
 20
-24.5639743804923
 30
0.0
 11
4.13616374969469
 21
-23.5639305114746
 31
0.0
  0
LINE
  5
   50C
  8
0
  6
CONTINUOUS
 62
   130
 10
4.78617046355818
 20
-24.5639743804923
 30
0.0
 11
4.78617046355818
 21
-23.5639305114746
 31
0.0
  0
LINE
  5
   50D
  8
0
  6
CONTINUOUS
 62
   130
 10
5.03616374969469
 20
-24.5639743804923
 30
0.0
 11
5.03616374969469
 21
-23.5639305114746
 31
0.0
  0
LINE
  5
   50E
  8
0
  6
CONTINUOUS
 62
   130
 10
5.68617046355818
 20
-24.5639743804923
 30
0.0
 11
5.68617046355818
 21
-23.5639305114746
 31
0.0
  0
LINE
  5
   50F
  8
0
  6
CONTINUOUS
 62
   130
 10
5.9361637496947
 20
-24.5639743804923
 30
0.0
 11
5.9361637496947
 21
-23.5639305114746
 31
0.0
  0
LINE
  5
   510
  8
0
  6
CONTINUOUS
 62
   130
 10
6.58617046355819
 20
-24.5639743804923
 30
0.0
 11
6.58617046355819
 21
-23.5639305114746
 31
0.0
  0
LINE
  5
   511
  8
0
  6
CONTINUOUS
 62
   130
 10
6.83616374969471
 20
-24.5639743804923
 30
0.0
 11
6.83616374969471
 21
-23.5639305114746
 31
0.0
  0
LINE
  5
   512
  8
0
  6
CONTINUOUS
 62
   130
 10
7.4861704635582
 20
-24.5639743804923
 30
0.0
 11
7.4861704635582
 21
-23.5639305114746
 31
0.0
  0
LINE
  5
   513
  8
0
  6
CONTINUOUS
 62
   130
 10
7.73616374969471
 20
-24.5639743804923
 30
0.0
 11
7.73616374969471
 21
-23.5639305114746
 31
0.0
  0
LINE
  5
   514
  8
0
  6
CONTINUOUS
 62
   130
 10
8.3861704635582
 20
-24.5639743804923
 30
0.0
 11
8.3861704635582
 21
-23.5639305114746
 31
0.0
  0
LINE
  5
   515
  8
0
  6
CONTINUOUS
 62
   130
 10
8.63616374969472
 20
-24.5639743804923
 30
0.0
 11
8.63616374969472
 21
-23.5639305114746
 31
0.0
  0
LINE
  5
   516
  8
0
  6
CONTINUOUS
 62
   130
 10
9.28617046355821
 20
-24.5639743804923
 30
0.0
 11
9.28617046355821
 21
-23.5639305114746
 31
0.0
  0
LINE
  5
   517
  8
0
  6
CONTINUOUS
 62
   130
 10
9.53616374969472
 20
-24.5639743804923
 30
0.0
 11
9.53616374969472
 21
-23.5639305114746
 31
0.0
  0
LINE
  5
   518
  8
0
  6
CONTINUOUS
 62
   130
 10
10.1861704635582
 20
-24.5639743804923
 30
0.0
 11
10.1861704635582
 21
-23.5639305114746
 31
0.0
  0
LINE
  5
   519
  8
0
  6
CONTINUOUS
 62
   130
 10
10.4361637496947
 20
-24.5639743804923
 30
0.0
 11
10.4361637496947
 21
-23.5639305114746
 31
0.0
  0
LINE
  5
   51A
  8
0
  6
CONTINUOUS
 62
   130
 10
10.7361660003646
 20
-34.3139781951892
 30
0.0
 11
10.7361660003646
 21
-23.5639305114746
 31
0.0
  0
LINE
  5
   51B
  8
0
  6
CONTINUOUS
 62
   130
 10
-39.9638362503056
 20
-24.5639743804923
 30
0.0
 11
-39.9638362503056
 21
-23.5639305114746
 31
0.0
  0
LINE
  5
   51C
  8
0
  6
CONTINUOUS
 62
   130
 10
-39.3138295364421
 20
-24.5639743804923
 30
0.0
 11
-39.3138295364421
 21
-23.5639305114746
 31
0.0
  0
LINE
  5
   51D
  8
0
  6
CONTINUOUS
 62
   130
 10
-39.0638362503056
 20
-24.5639743804923
 30
0.0
 11
-39.0638362503056
 21
-23.5639305114746
 31
0.0
  0
LINE
  5
   51E
  8
0
  6
CONTINUOUS
 62
   130
 10
-38.4138295364421
 20
-24.5639743804923
 30
0.0
 11
-38.4138295364421
 21
-23.5639305114746
 31
0.0
  0
LINE
  5
   51F
  8
0
  6
CONTINUOUS
 62
   130
 10
-38.1638362503056
 20
-24.5639743804923
 30
0.0
 11
-38.1638362503056
 21
-23.5639305114746
 31
0.0
  0
LINE
  5
   520
  8
0
  6
CONTINUOUS
 62
   130
 10
-37.5138295364421
 20
-24.5639743804923
 30
0.0
 11
-37.5138295364421
 21
-23.5639305114746
 31
0.0
  0
LINE
  5
   521
  8
0
  6
CONTINUOUS
 62
   130
 10
-37.2638362503056
 20
-24.5639743804923
 30
0.0
 11
-37.2638362503056
 21
-23.5639305114746
 31
0.0
  0
LINE
  5
   522
  8
0
  6
CONTINUOUS
 62
   130
 10
-36.6138295364421
 20
-24.5639743804923
 30
0.0
 11
-36.6138295364421
 21
-23.5639305114746
 31
0.0
  0
LINE
  5
   523
  8
0
  6
CONTINUOUS
 62
   130
 10
-36.3638362503056
 20
-24.5639743804923
 30
0.0
 11
-36.3638362503056
 21
-23.5639305114746
 31
0.0
  0
LINE
  5
   524
  8
0
  6
CONTINUOUS
 62
   130
 10
-35.7138295364421
 20
-24.5639743804923
 30
0.0
 11
-35.7138295364421
 21
-23.5639305114746
 31
0.0
  0
LINE
  5
   525
  8
0
  6
CONTINUOUS
 62
   130
 10
-35.4638362503056
 20
-24.5639743804923
 30
0.0
 11
-35.4638362503056
 21
-23.5639305114746
 31
0.0
  0
LINE
  5
   526
  8
0
  6
CONTINUOUS
 62
   130
 10
-34.8138295364421
 20
-24.5639743804923
 30
0.0
 11
-34.8138295364421
 21
-23.5639305114746
 31
0.0
  0
LINE
  5
   527
  8
0
  6
CONTINUOUS
 62
   130
 10
-34.5638362503056
 20
-24.5639743804923
 30
0.0
 11
-34.5638362503056
 21
-23.5639305114746
 31
0.0
  0
LINE
  5
   528
  8
0
  6
CONTINUOUS
 62
   130
 10
-33.9138295364421
 20
-24.5639743804923
 30
0.0
 11
-33.9138295364421
 21
-23.5639305114746
 31
0.0
  0
LINE
  5
   529
  8
0
  6
CONTINUOUS
 62
   130
 10
-33.6638362503056
 20
-24.5639743804923
 30
0.0
 11
-33.6638362503056
 21
-23.5639305114746
 31
0.0
  0
LINE
  5
   52A
  8
0
  6
CONTINUOUS
 62
   130
 10
-33.0138295364421
 20
-24.5639743804923
 30
0.0
 11
-33.0138295364421
 21
-23.5639305114746
 31
0.0
  0
LINE
  5
   52B
  8
0
  6
CONTINUOUS
 62
   130
 10
-32.7638362503055
 20
-24.5639743804923
 30
0.0
 11
-32.7638362503055
 21
-23.5639305114746
 31
0.0
  0
LINE
  5
   52C
  8
0
  6
CONTINUOUS
 62
   130
 10
-32.1138295364421
 20
-24.5639743804923
 30
0.0
 11
-32.1138295364421
 21
-23.5639305114746
 31
0.0
  0
LINE
  5
   52D
  8
0
  6
CONTINUOUS
 62
   130
 10
-31.8638362503055
 20
-24.5639743804923
 30
0.0
 11
-31.8638362503055
 21
-23.5639305114746
 31
0.0
  0
LINE
  5
   52E
  8
0
  6
CONTINUOUS
 62
   130
 10
-31.2138295364421
 20
-24.5639743804923
 30
0.0
 11
-31.2138295364421
 21
-23.5639305114746
 31
0.0
  0
LINE
  5
   52F
  8
0
  6
CONTINUOUS
 62
   130
 10
-30.9638362503055
 20
-24.5639743804923
 30
0.0
 11
-30.9638362503055
 21
-23.5639305114746
 31
0.0
  0
LINE
  5
   530
  8
0
  6
CONTINUOUS
 62
   130
 10
-30.313829536442
 20
-24.5639743804923
 30
0.0
 11
-30.313829536442
 21
-23.5639305114746
 31
0.0
  0
LINE
  5
   531
  8
0
  6
CONTINUOUS
 62
   130
 10
-30.0638362503055
 20
-24.5639743804923
 30
0.0
 11
-30.0638362503055
 21
-23.5639305114746
 31
0.0
  0
LINE
  5
   532
  8
0
  6
CONTINUOUS
 62
   130
 10
-29.413829536442
 20
-24.5639743804923
 30
0.0
 11
-29.413829536442
 21
-23.5639305114746
 31
0.0
  0
LINE
  5
   533
  8
0
  6
CONTINUOUS
 62
   130
 10
-29.1638362503055
 20
-24.5639743804923
 30
0.0
 11
-29.1638362503055
 21
-23.5639305114746
 31
0.0
  0
LINE
  5
   534
  8
0
  6
CONTINUOUS
 62
   130
 10
-28.513829536442
 20
-24.5639743804923
 30
0.0
 11
-28.513829536442
 21
-23.5639305114746
 31
0.0
  0
LINE
  5
   535
  8
0
  6
CONTINUOUS
 62
   130
 10
-28.2638362503055
 20
-24.5639743804923
 30
0.0
 11
-28.2638362503055
 21
-23.5639305114746
 31
0.0
  0
LINE
  5
   536
  8
0
  6
CONTINUOUS
 62
   130
 10
-27.613829536442
 20
-24.5639743804923
 30
0.0
 11
-27.613829536442
 21
-23.5639305114746
 31
0.0
  0
LINE
  5
   537
  8
0
  6
CONTINUOUS
 62
   130
 10
-27.3638362503055
 20
-24.5639743804923
 30
0.0
 11
-27.3638362503055
 21
-23.5639305114746
 31
0.0
  0
LINE
  5
   538
  8
0
  6
CONTINUOUS
 62
   130
 10
-26.713829536442
 20
-24.5639743804923
 30
0.0
 11
-26.713829536442
 21
-23.5639305114746
 31
0.0
  0
LINE
  5
   539
  8
0
  6
CONTINUOUS
 62
   130
 10
-26.4638362503055
 20
-24.5639743804923
 30
0.0
 11
-26.4638362503055
 21
-23.5639305114746
 31
0.0
  0
LINE
  5
   53A
  8
0
  6
CONTINUOUS
 62
   130
 10
-25.813829536442
 20
-24.5639743804923
 30
0.0
 11
-25.813829536442
 21
-23.5639305114746
 31
0.0
  0
LINE
  5
   53B
  8
0
  6
CONTINUOUS
 62
   130
 10
-25.5638362503055
 20
-24.5639743804923
 30
0.0
 11
-25.5638362503055
 21
-23.5639305114746
 31
0.0
  0
LINE
  5
   53C
  8
0
  6
CONTINUOUS
 62
   130
 10
-24.913829536442
 20
-24.5639743804923
 30
0.0
 11
-24.913829536442
 21
-23.5639305114746
 31
0.0
  0
LINE
  5
   53D
  8
0
  6
CONTINUOUS
 62
   130
 10
-24.6638362503055
 20
-24.5639743804923
 30
0.0
 11
-24.6638362503055
 21
-23.5639305114746
 31
0.0
  0
LINE
  5
   53E
  8
0
  6
CONTINUOUS
 62
   130
 10
-24.013829536442
 20
-24.5639743804923
 30
0.0
 11
-24.013829536442
 21
-23.5639305114746
 31
0.0
  0
LINE
  5
   53F
  8
0
  6
CONTINUOUS
 62
   130
 10
-23.7638362503055
 20
-24.5639743804923
 30
0.0
 11
-23.7638362503055
 21
-23.5639305114746
 31
0.0
  0
LINE
  5
   540
  8
0
  6
CONTINUOUS
 62
   130
 10
-23.113829536442
 20
-24.5639743804923
 30
0.0
 11
-23.113829536442
 21
-23.5639305114746
 31
0.0
  0
LINE
  5
   541
  8
0
  6
CONTINUOUS
 62
   130
 10
-22.8638362503055
 20
-24.5639743804923
 30
0.0
 11
-22.8638362503055
 21
-23.5639305114746
 31
0.0
  0
LINE
  5
   542
  8
0
  6
CONTINUOUS
 62
   130
 10
-21.9638362503055
 20
-24.5639743804923
 30
0.0
 11
-21.9638362503055
 21
-23.5639305114746
 31
0.0
  0
LINE
  5
   543
  8
0
  6
CONTINUOUS
 62
   130
 10
-21.9638362503055
 20
-24.5639743804923
 30
0.0
 11
-21.9638362503055
 21
-23.5639305114746
 31
0.0
  0
LINE
  5
   544
  8
0
  6
CONTINUOUS
 62
   130
 10
-22.213829536442
 20
-24.5639743804923
 30
0.0
 11
-22.213829536442
 21
-23.5639305114746
 31
0.0
  0
LINE
  5
   545
  8
0
  6
CONTINUOUS
 62
   130
 10
-21.313829536442
 20
-24.5639743804923
 30
0.0
 11
-21.313829536442
 21
-23.5639305114746
 31
0.0
  0
LINE
  5
   546
  8
0
  6
CONTINUOUS
 62
   130
 10
-21.0638362503055
 20
-24.5639743804923
 30
0.0
 11
-21.0638362503055
 21
-23.5639305114746
 31
0.0
  0
LINE
  5
   547
  8
0
  6
CONTINUOUS
 62
   130
 10
-20.413829536442
 20
-24.5639743804923
 30
0.0
 11
-20.413829536442
 21
-23.5639305114746
 31
0.0
  0
LINE
  5
   548
  8
0
  6
CONTINUOUS
 62
   130
 10
-20.1638362503055
 20
-24.5639743804923
 30
0.0
 11
-20.1638362503055
 21
-23.5639305114746
 31
0.0
  0
LINE
  5
   549
  8
0
  6
CONTINUOUS
 62
   130
 10
-19.513829536442
 20
-24.5639743804923
 30
0.0
 11
-19.513829536442
 21
-23.5639305114746
 31
0.0
  0
LINE
  5
   54A
  8
0
  6
CONTINUOUS
 62
   130
 10
-18.613829536442
 20
-24.5639743804923
 30
0.0
 11
-18.613829536442
 21
-23.5639305114746
 31
0.0
  0
LINE
  5
   54B
  8
0
  6
CONTINUOUS
 62
   130
 10
-19.513829536442
 20
-24.5639743804923
 30
0.0
 11
-19.513829536442
 21
-23.5639305114746
 31
0.0
  0
LINE
  5
   54C
  8
0
  6
CONTINUOUS
 62
   130
 10
-19.2638362503055
 20
-24.5639743804923
 30
0.0
 11
-19.2638362503055
 21
-23.5639305114746
 31
0.0
  0
LINE
  5
   54D
  8
0
  6
CONTINUOUS
 62
   130
 10
-18.3638362503055
 20
-24.5639743804923
 30
0.0
 11
-18.3638362503055
 21
-23.5639305114746
 31
0.0
  0
LINE
  5
   54E
  8
0
  6
CONTINUOUS
 62
   130
 10
-18.613829536442
 20
-24.5639743804923
 30
0.0
 11
-18.613829536442
 21
-23.5639305114746
 31
0.0
  0
LINE
  5
   54F
  8
0
  6
CONTINUOUS
 62
   130
 10
-17.713829536442
 20
-24.5639743804923
 30
0.0
 11
-17.713829536442
 21
-23.5639305114746
 31
0.0
  0
LINE
  5
   550
  8
0
  6
CONTINUOUS
 62
   130
 10
-17.4638362503054
 20
-24.5639743804923
 30
0.0
 11
-17.4638362503054
 21
-23.5639305114746
 31
0.0
  0
LINE
  5
   551
  8
0
  6
CONTINUOUS
 62
   130
 10
-16.813829536442
 20
-24.5639743804923
 30
0.0
 11
-16.813829536442
 21
-23.5639305114746
 31
0.0
  0
LINE
  5
   552
  8
0
  6
CONTINUOUS
 62
   130
 10
-16.5638362503054
 20
-24.5639743804923
 30
0.0
 11
-16.5638362503054
 21
-23.5639305114746
 31
0.0
  0
LINE
  5
   553
  8
0
  6
CONTINUOUS
 62
   130
 10
-15.6638362503054
 20
-24.5639743804923
 30
0.0
 11
-15.6638362503054
 21
-23.5639305114746
 31
0.0
  0
LINE
  5
   554
  8
0
  6
CONTINUOUS
 62
   130
 10
-15.913829536442
 20
-24.5639743804923
 30
0.0
 11
-15.913829536442
 21
-23.5639305114746
 31
0.0
  0
LINE
  5
   555
  8
0
  6
CONTINUOUS
 62
   130
 10
-14.7638362503054
 20
-24.5639743804923
 30
0.0
 11
-14.7638362503054
 21
-23.5639305114746
 31
0.0
  0
LINE
  5
   556
  8
0
  6
CONTINUOUS
 62
   130
 10
-15.0138295364419
 20
-24.5639743804923
 30
0.0
 11
-15.0138295364419
 21
-23.5639305114746
 31
0.0
  0
LINE
  5
   557
  8
0
  6
CONTINUOUS
 62
   130
 10
-14.7638362503054
 20
-24.5639743804923
 30
0.0
 11
-14.7638362503054
 21
-23.5639305114746
 31
0.0
  0
LINE
  5
   558
  8
0
  6
CONTINUOUS
 62
   130
 10
-14.1138295364419
 20
-24.5639743804923
 30
0.0
 11
-14.1138295364419
 21
-23.5639305114746
 31
0.0
  0
LINE
  5
   559
  8
0
  6
CONTINUOUS
 62
   130
 10
-14.1138295364419
 20
-24.5639743804923
 30
0.0
 11
-14.1138295364419
 21
-23.5639305114746
 31
0.0
  0
LINE
  5
   55A
  8
0
  6
CONTINUOUS
 62
   130
 10
-13.8638362503054
 20
-24.5639743804923
 30
0.0
 11
-13.8638362503054
 21
-23.5639305114746
 31
0.0
  0
LINE
  5
   55B
  8
0
  6
CONTINUOUS
 62
   130
 10
-13.2138295364419
 20
-24.5639743804923
 30
0.0
 11
-13.2138295364419
 21
-23.5639305114746
 31
0.0
  0
LINE
  5
   55C
  8
0
  6
CONTINUOUS
 62
   130
 10
-12.9638362503054
 20
-24.5639743804923
 30
0.0
 11
-12.9638362503054
 21
-23.5639305114746
 31
0.0
  0
LINE
  5
   55D
  8
0
  6
CONTINUOUS
 62
   130
 10
-12.3138295364419
 20
-24.5639743804923
 30
0.0
 11
-12.3138295364419
 21
-23.5639305114746
 31
0.0
  0
LINE
  5
   55E
  8
0
  6
CONTINUOUS
 62
   130
 10
-12.0638362503054
 20
-24.5639743804923
 30
0.0
 11
-12.0638362503054
 21
-23.5639305114746
 31
0.0
  0
LINE
  5
   55F
  8
0
  6
CONTINUOUS
 62
   130
 10
-11.4138295364419
 20
-24.5639743804923
 30
0.0
 11
-11.4138295364419
 21
-23.5639305114746
 31
0.0
  0
LINE
  5
   560
  8
0
  6
CONTINUOUS
 62
   130
 10
-11.1638362503054
 20
-24.5639743804923
 30
0.0
 11
-11.1638362503054
 21
-23.5639305114746
 31
0.0
  0
LINE
  5
   561
  8
0
  6
CONTINUOUS
 62
   130
 10
-10.5138295364419
 20
-24.5639743804923
 30
0.0
 11
-10.5138295364419
 21
-23.5639305114746
 31
0.0
  0
LINE
  5
   562
  8
0
  6
CONTINUOUS
 62
   130
 10
-10.2638362503054
 20
-24.5639743804923
 30
0.0
 11
-10.2638362503054
 21
-23.5639305114746
 31
0.0
  0
LINE
  5
   563
  8
0
  6
CONTINUOUS
 62
   130
 10
-9.3638362503054
 20
-24.5639743804923
 30
0.0
 11
-9.3638362503054
 21
-23.5639305114746
 31
0.0
  0
LINE
  5
   564
  8
0
  6
CONTINUOUS
 62
   130
 10
-9.61382953644191
 20
-24.5639743804923
 30
0.0
 11
-9.61382953644191
 21
-23.5639305114746
 31
0.0
  0
LINE
  5
   565
  8
0
  6
CONTINUOUS
 62
   130
 10
-40.7638034820533
 20
-34.3139781951892
 30
0.0
 11
-40.7638034820533
 21
-23.5639305114746
 31
0.0
  0
LINE
  5
   566
  8
0
  6
CONTINUOUS
 62
   130
 10
-8.71382953644191
 20
-24.5639743804923
 30
0.0
 11
-8.71382953644191
 21
-23.5639305114746
 31
0.0
  0
INSERT
  5
   567
  8
0
  6
CONTINUOUS
 62
     3
  2
*UDIM315
 10
0.0
 20
0.0
 30
0.0
  0
INSERT
  5
   568
  8
0
  6
CONTINUOUS
 62
     3
  2
*UDIM316
 10
0.0
 20
0.0
 30
0.0
  0
INSERT
  5
   569
  8
0
  6
CONTINUOUS
 62
     3
  2
*UDIM317
 10
0.0
 20
0.0
 30
0.0
  0
INSERT
  5
   56A
  8
0
  6
CONTINUOUS
 62
     3
  2
*UDIM318
 10
0.0
 20
0.0
 30
0.0
  0
INSERT
  5
   56B
  8
0
  6
CONTINUOUS
 62
     3
  2
*UDIM319
 10
0.0
 20
0.0
 30
0.0
  0
TEXT
  5
   56C
  8
0
  6
CONTINUOUS
 62
     2
 10
-9.68372119962415
 20
-43.9437427669819
 30
0.0
 40
3.00000002980232
  1
Y
 50
360.0
 41
0.983333351877
 72
     1
 11
-8.58372116088867
 21
-42.4437427520752
 31
0.0
 73
     2
  0
TEXT
  5
   56D
  8
0
  6
CONTINUOUS
 62
     2
 10
-9.82606281339369
 20
58.2574863284771
 30
0.0
 40
3.00000002980232
  1
Y
 50
360.0
 41
0.983333351877
 72
     1
 11
-8.7260627746582
 21
59.7574863433838
 31
0.0
 73
     2
  0
INSERT
  5
   56E
  8
0
  6
CONTINUOUS
 62
     7
  2
*UDIM320
 10
0.0
 20
0.0
 30
0.0
  0
INSERT
  5
   56F
  8
0
  6
CONTINUOUS
 62
     7
  2
*UDIM321
 10
0.0
 20
0.0
 30
0.0
  0
INSERT
  5
   570
  8
0
  6
CONTINUOUS
 62
     7
  2
*UDIM322
 10
0.0
 20
0.0
 30
0.0
  0
LINE
  5
   571
  8
0
  6
CONTINUOUS
 62
     2
 10
2.94623562287525
 20
-23.677154422258
 30
0.0
 11
3.05945953365863
 21
-23.5639305114746
 31
0.0
  0
LINE
  5
   572
  8
0
  6
CONTINUOUS
 62
     2
 10
3.12301231817191
 20
-23.8539311175546
 30
0.0
 11
3.41301292425191
 21
-23.5639305114746
 31
0.0
  0
ARC
  5
   573
  8
0
  6
CONTINUOUS
 62
     2
 10
3.73618473054369
 20
-23.0639820098862
 30
0.0
 40
1.0
 50
209.996592950999
 51
330.003407049001
  0
LINE
  5
   574
  8
0
  6
DASHDOT
 62
     2
 10
-33.7638152694563
 20
30.9360179901138
 30
0.0
 11
-33.7638152694563
 21
40.9360179901138
 31
0.0
  0
LINE
  5
   575
  8
0
  6
DASHDOT
 62
     2
 10
-38.7638152694563
 20
35.9360179901138
 30
0.0
 11
-28.7638152694563
 21
35.9360179901138
 31
0.0
  0
LINE
  5
   576
  8
0
  6
CONTINUOUS
 62
     2
 10
-34.5537643771247
 20
35.322845577742
 30
0.0
 11
-33.1506428570845
 21
36.7259670977823
 31
0.0
  0
LINE
  5
   577
  8
0
  6
CONTINUOUS
 62
     2
 10
-34.3769876818281
 20
35.1460688824454
 30
0.0
 11
-32.9738661617879
 21
36.5491904024856
 31
0.0
  0
CIRCLE
  5
   578
  8
0
  6
CONTINUOUS
 62
     2
 10
-33.7638152694563
 20
35.9360179901138
 30
0.0
 40
1.0
  0
LINE
  5
   579
  8
0
  6
CONTINUOUS
 62
     2
 10
-34.5537643771247
 20
-23.677154422258
 30
0.0
 11
-34.4405404663414
 21
-23.5639305114746
 31
0.0
  0
LINE
  5
   57A
  8
0
  6
CONTINUOUS
 62
     2
 10
-34.3769876818281
 20
-23.8539311175546
 30
0.0
 11
-34.0869870757481
 21
-23.5639305114746
 31
0.0
  0
ARC
  5
   57B
  8
0
  6
CONTINUOUS
 62
     2
 10
-33.7638152694563
 20
-23.0639820098862
 30
0.0
 40
1.0
 50
209.996592950999
 51
330.003407049001
  0
LINE
  5
   57C
  8
0
  6
CONTINUOUS
 62
   130
 10
82.4070053100586
 20
43.6293068048096
 30
0.0
 11
82.4070053100586
 21
45.4360218048095
 31
0.0
  0
LINE
  5
   57D
  8
0
  6
CONTINUOUS
 62
   130
 10
83.4070053100586
 20
43.6293068048096
 30
0.0
 11
83.4070053100586
 21
45.4360218048095
 31
0.0
  0
LINE
  5
   57E
  8
0
  6
CONTINUOUS
 62
   130
 10
82.4070053100586
 20
39.4360218048095
 30
0.0
 11
82.4070053100586
 21
41.2427368048096
 31
0.0
  0
LINE
  5
   57F
  8
0
  6
CONTINUOUS
 62
   130
 10
83.4070053100586
 20
39.4360218048095
 30
0.0
 11
83.4070053100586
 21
41.2427368048096
 31
0.0
  0
LINE
  5
   580
  8
0
  6
CONTINUOUS
 62
   130
 10
81.1570053100586
 20
47.4360218048096
 30
0.0
 11
94.6570053100586
 21
47.4360218048096
 31
0.0
  0
LINE
  5
   581
  8
0
  6
CONTINUOUS
 62
     7
 10
88.6570053100586
 20
40.9360218048096
 30
0.0
 11
88.6570053100586
 21
43.9360218048096
 31
0.0
  0
LINE
  5
   582
  8
0
  6
CONTINUOUS
 62
     7
 10
91.4070053100586
 20
39.6651362707668
 30
0.0
 11
91.4070053100586
 21
45.2069073388523
 31
0.0
  0
LINE
  5
   583
  8
0
  6
CONTINUOUS
 62
     7
 10
81.6570053100586
 20
40.9360218048096
 30
0.0
 11
82.4070053100586
 21
40.9360218048096
 31
0.0
  0
LINE
  5
   584
  8
0
  6
CONTINUOUS
 62
     7
 10
81.6570053100586
 20
43.9360218048096
 30
0.0
 11
82.4070053100586
 21
43.9360218048096
 31
0.0
  0
ARC
  5
   585
  8
0
  6
CONTINUOUS
 62
     7
 10
86.2070053100586
 20
42.4360218048096
 30
0.0
 40
6.0
 50
332.615940274844
 51
358.08978682829
  0
LINE
  5
   586
  8
0
  6
CONTINUOUS
 62
     7
 10
89.9070053100586
 20
39.5339021066284
 30
0.0
 11
91.5346656085789
 21
39.6763051991468
 31
0.0
  0
LINE
  5
   587
  8
0
  6
CONTINUOUS
 62
     7
 10
89.9070053100586
 20
45.3381415029907
 30
0.0
 11
91.5346656085789
 21
45.1957384104723
 31
0.0
  0
LINE
  5
   588
  8
0
  6
CONTINUOUS
 62
     7
 10
89.9070053100586
 20
39.5339021066284
 30
0.0
 11
89.9070053100586
 21
45.3381415029907
 31
0.0
  0
LINE
  5
   589
  8
0
  6
CONTINUOUS
 62
     7
 10
81.4070053100586
 20
41.2427368048096
 30
0.0
 11
88.6570053100586
 21
41.2427368048096
 31
0.0
  0
LINE
  5
   58A
  8
0
  6
CONTINUOUS
 62
     2
 10
81.4070053100586
 20
43.6293068048096
 30
0.0
 11
88.6570053100586
 21
43.6293068048096
 31
0.0
  0
LINE
  5
   58B
  8
0
  6
CONTINUOUS
 62
     7
 10
91.8070053100586
 20
42.2360218048096
 30
0.0
 11
91.8070053100586
 21
42.6360218048096
 31
0.0
  0
LINE
  5
   58C
  8
0
  6
CONTINUOUS
 62
     7
 10
91.8070053100586
 20
42.2360218048096
 30
0.0
 11
92.2036710502846
 21
42.2360218048096
 31
0.0
  0
LINE
  5
   58D
  8
0
  6
CONTINUOUS
 62
     7
 10
91.8070053100586
 20
42.6360218048096
 30
0.0
 11
92.2036710502846
 21
42.6360218048096
 31
0.0
  0
ARC
  5
   58E
  8
0
  6
CONTINUOUS
 62
     7
 10
86.2070053100586
 20
42.4360218048096
 30
0.0
 40
6.0
 50
1.9102131717099
 51
27.3840597251555
  0
LINE
  5
   58F
  8
0
  6
CONTINUOUS
 62
   130
 10
92.6570053100586
 20
44.1860218048096
 30
0.0
 11
95.1570053100586
 21
44.1860218048096
 31
0.0
  0
LINE
  5
   590
  8
0
  6
CONTINUOUS
 62
   130
 10
95.1570053100586
 20
38.4360218048096
 30
0.0
 11
95.1570053100586
 21
46.9360218048096
 31
0.0
  0
LINE
  5
   591
  8
0
  6
CONTINUOUS
 62
   130
 10
92.1570045789083
 20
37.9360218048096
 30
0.0
 11
94.6570053100586
 21
37.9360218048096
 31
0.0
  0
LINE
  5
   592
  8
0
  6
CONTINUOUS
 62
   130
 10
92.6570053100586
 20
39.9360218048096
 30
0.0
 11
92.6570053100586
 21
44.9360218048096
 31
0.0
  0
LINE
  5
   593
  8
0
  6
CONTINUOUS
 62
   130
 10
92.6570053100586
 20
40.6860218048096
 30
0.0
 11
95.1570053100586
 21
40.6860218048096
 31
0.0
  0
LINE
  5
   594
  8
0
  6
CONTINUOUS
 62
   130
 10
92.6570053100586
 20
44.9360218048096
 30
0.0
 11
94.1570053100586
 21
44.9360218048096
 31
0.0
  0
LINE
  5
   595
  8
0
  6
CONTINUOUS
 62
   130
 10
92.6570053100586
 20
39.9360218048096
 30
0.0
 11
94.1570053100586
 21
39.9360218048096
 31
0.0
  0
LINE
  5
   596
  8
0
  6
CONTINUOUS
 62
   130
 10
94.1570053100586
 20
38.9360218048096
 30
0.0
 11
94.1570053100586
 21
39.9360218048096
 31
0.0
  0
LINE
  5
   597
  8
0
  6
CONTINUOUS
 62
   130
 10
91.1570053100586
 20
46.4360218048096
 30
0.0
 11
94.1570053100586
 21
46.4360218048096
 31
0.0
  0
LINE
  5
   598
  8
0
  6
CONTINUOUS
 62
   130
 10
91.1570053100586
 20
38.9360218048096
 30
0.0
 11
94.1570053100586
 21
38.9360218048096
 31
0.0
  0
LINE
  5
   599
  8
0
  6
CONTINUOUS
 62
   130
 10
94.1570053100586
 20
44.9360218048096
 30
0.0
 11
94.1570053100586
 21
46.4360218048096
 31
0.0
  0
LINE
  5
   59A
  8
0
  6
CONTINUOUS
 62
     7
 10
81.6570053100586
 20
40.9360218048096
 30
0.0
 11
81.6570053100586
 21
43.9360218048096
 31
0.0
  0
LINE
  5
   59B
  8
0
  6
CONTINUOUS
 62
     7
 10
81.4070053100586
 20
43.6860218048096
 30
0.0
 11
81.6570053100586
 21
43.9360218048096
 31
0.0
  0
LINE
  5
   59C
  8
0
  6
CONTINUOUS
 62
     7
 10
81.4070053100586
 20
41.1860218048096
 30
0.0
 11
81.6570053100586
 21
40.9360218048096
 31
0.0
  0
ARC
  5
   59D
  8
0
  6
CONTINUOUS
 62
   130
 10
94.6570053100586
 20
46.9360218048096
 30
0.0
 40
0.5
 50
0.0
 51
90.0
  0
ARC
  5
   59E
  8
0
  6
CONTINUOUS
 62
   130
 10
94.6570053100586
 20
38.4360218048096
 30
0.0
 40
0.5
 50
270.0
 51
360.0
  0
INSERT
  5
   59F
  8
0
  6
CONTINUOUS
 62
     2
  2
*HATCH123
 10
105.106994628906
 20
-3.71391868591309
 30
0.0
 41
0.5
 42
0.5
 43
0.5
  0
INSERT
  5
   5A0
  8
0
  6
CONTINUOUS
 62
     2
  2
*HATCH124
 10
105.106994628906
 20
-3.71391868591309
 30
0.0
 41
0.5
 42
0.5
 43
0.5
  0
LINE
  5
   5A1
  8
0
  6
CONTINUOUS
 62
     2
 10
82.4070053100586
 20
43.6293068048096
 30
0.0
 11
83.4070053100586
 21
43.6293068048096
 31
0.0
  0
LINE
  5
   5A2
  8
0
  6
CONTINUOUS
 62
     2
 10
82.4070053100586
 20
41.2427368048096
 30
0.0
 11
83.4070053100586
 21
41.2427368048096
 31
0.0
  0
LINE
  5
   5A3
  8
0
  6
CONTINUOUS
 62
     7
 10
83.4070053100586
 20
43.9360218048096
 30
0.0
 11
89.9070053100586
 21
43.9360218048096
 31
0.0
  0
LINE
  5
   5A4
  8
0
  6
CONTINUOUS
 62
     2
 10
82.4070053100586
 20
43.9360218048096
 30
0.0
 11
83.4070053100586
 21
43.9360218048096
 31
0.0
  0
LINE
  5
   5A5
  8
0
  6
CONTINUOUS
 62
     7
 10
82.4070053100586
 20
40.9360218048096
 30
0.0
 11
83.4070053100586
 21
40.9360218048096
 31
0.0
  0
LINE
  5
   5A6
  8
0
  6
CONTINUOUS
 62
     7
 10
83.4070053100586
 20
40.9360218048096
 30
0.0
 11
89.9070053100586
 21
40.9360218048096
 31
0.0
  0
INSERT
  5
   5A7
  8
0
  6
CONTINUOUS
 62
     2
  2
*HATCH125
 10
105.106994628906
 20
-3.71391868591309
 30
0.0
 41
0.5
 42
0.5
 43
0.5
  0
INSERT
  5
   5A8
  8
0
  6
CONTINUOUS
 62
     2
  2
*HATCH126
 10
105.106994628906
 20
-3.71391868591309
 30
0.0
 41
0.5
 42
0.5
 43
0.5
  0
LINE
  5
   5A9
  8
0
  6
DOT
 62
   130
 10
82.4070053100586
 20
-32.5639781951904
 30
0.0
 11
82.4070053100586
 21
-30.7572631951904
 31
0.0
  0
LINE
  5
   5AA
  8
0
  6
DOT
 62
   130
 10
83.4070053100586
 20
-32.5639781951904
 30
0.0
 11
83.4070053100586
 21
-30.7572631951904
 31
0.0
  0
LINE
  5
   5AB
  8
0
  6
DOT
 62
   130
 10
82.4070053100586
 20
-28.3706931951904
 30
0.0
 11
82.4070053100586
 21
-26.5639781951904
 31
0.0
  0
LINE
  5
   5AC
  8
0
  6
DOT
 62
   130
 10
83.4070053100586
 20
-28.3706931951904
 30
0.0
 11
83.4070053100586
 21
-26.5639781951904
 31
0.0
  0
LINE
  5
   5AD
  8
0
  6
DOT
 62
     7
 10
83.4070053100586
 20
-28.0639781951904
 30
0.0
 11
89.9070053100586
 21
-28.0639781951904
 31
0.0
  0
LINE
  5
   5AE
  8
0
  6
DOT
 62
     7
 10
89.9070053100586
 20
-32.4660978933716
 30
0.0
 11
89.9070053100586
 21
-26.6618584970093
 31
0.0
  0
LINE
  5
   5AF
  8
0
  6
DOT
 62
     7
 10
91.4070053100586
 20
-32.3348637292332
 30
0.0
 11
91.4070053100586
 21
-26.7930926611477
 31
0.0
  0
ARC
  5
   5B0
  8
0
  6
DOT
 62
     7
 10
86.2070053100586
 20
-29.5639781951904
 30
0.0
 40
6.0
 50
332.615940274844
 51
358.08978682829
  0
ARC
  5
   5B1
  8
0
  6
DOT
 62
     7
 10
86.2070053100586
 20
-29.5639781951904
 30
0.0
 40
6.0
 50
1.9102131717099
 51
27.3840597251555
  0
LINE
  5
   5B2
  8
0
  6
DOT
 62
     7
 10
89.9070053100586
 20
-32.4660978933716
 30
0.0
 11
91.5346656085789
 21
-32.3236948008532
 31
0.0
  0
LINE
  5
   5B3
  8
0
  6
DOT
 62
     7
 10
89.9070053100586
 20
-26.6618584970093
 30
0.0
 11
91.5346656085789
 21
-26.8042615895277
 31
0.0
  0
LINE
  5
   5B4
  8
0
  6
DOT
 62
     7
 10
81.6570053100586
 20
-28.0639781951904
 30
0.0
 11
82.4070053100586
 21
-28.0639781951904
 31
0.0
  0
LINE
  5
   5B5
  8
0
  6
DOT
 62
     7
 10
81.4070053100586
 20
-28.3139781951904
 30
0.0
 11
81.6570053100586
 21
-28.0639781951904
 31
0.0
  0
LINE
  5
   5B6
  8
0
  6
DOT
 62
     7
 10
81.6570053100586
 20
-31.0639781951904
 30
0.0
 11
81.6570053100586
 21
-28.0639781951904
 31
0.0
  0
LINE
  5
   5B7
  8
0
  6
DOT
 62
     2
 10
82.4070053100586
 20
-28.3706931951904
 30
0.0
 11
83.4070053100586
 21
-28.3706931951904
 31
0.0
  0
LINE
  5
   5B8
  8
0
  6
DOT
 62
     7
 10
81.4070053100586
 20
-30.8139781951904
 30
0.0
 11
81.6570053100586
 21
-31.0639781951904
 31
0.0
  0
LINE
  5
   5B9
  8
0
  6
DOT
 62
     7
 10
81.6570053100586
 20
-31.0639781951904
 30
0.0
 11
82.4070053100586
 21
-31.0639781951904
 31
0.0
  0
LINE
  5
   5BA
  8
0
  6
DOT
 62
     7
 10
83.4070053100586
 20
-31.0639781951904
 30
0.0
 11
89.9070053100586
 21
-31.0639781951904
 31
0.0
  0
LINE
  5
   5BB
  8
0
  6
DOT
 62
     2
 10
81.4070053100586
 20
-28.3706931951904
 30
0.0
 11
82.4070053100586
 21
-28.3706931951904
 31
0.0
  0
LINE
  5
   5BC
  8
0
  6
DOT
 62
     7
 10
88.6570053100586
 20
-31.0639781951904
 30
0.0
 11
88.6570053100586
 21
-28.0639781951904
 31
0.0
  0
LINE
  5
   5BD
  8
0
  6
DOT
 62
     7
 10
91.8070053100586
 20
-29.3639781951904
 30
0.0
 11
92.2036710502846
 21
-29.3639781951904
 31
0.0
  0
LINE
  5
   5BE
  8
0
  6
DOT
 62
     7
 10
91.8070053100586
 20
-29.7639781951904
 30
0.0
 11
92.2036710502846
 21
-29.7639781951904
 31
0.0
  0
LINE
  5
   5BF
  8
0
  6
DOT
 62
     7
 10
91.8070053100586
 20
-29.7639781951904
 30
0.0
 11
91.8070053100586
 21
-29.3639781951904
 31
0.0
  0
LINE
  5
   5C0
  8
0
  6
DOT
 62
     2
 10
81.4070053100586
 20
-30.7572631951904
 30
0.0
 11
82.4070053100586
 21
-30.7572631951904
 31
0.0
  0
LINE
  5
   5C1
  8
0
  6
DOT
 62
     2
 10
82.4070053100586
 20
-28.0639781951904
 30
0.0
 11
83.4070053100586
 21
-28.0639781951904
 31
0.0
  0
LINE
  5
   5C2
  8
0
  6
DOT
 62
     7
 10
82.4070053100586
 20
-31.0639781951904
 30
0.0
 11
83.4070053100586
 21
-31.0639781951904
 31
0.0
  0
LINE
  5
   5C3
  8
0
  6
DOT
 62
     2
 10
82.4070053100586
 20
-30.7572631951904
 30
0.0
 11
83.4070053100586
 21
-30.7572631951904
 31
0.0
  0
LINE
  5
   5C4
  8
0
  6
DOT
 62
     2
 10
83.4070053100586
 20
-28.3706931951904
 30
0.0
 11
88.6570053100586
 21
-28.3706931951904
 31
0.0
  0
LINE
  5
   5C5
  8
0
  6
DOT
 62
     2
 10
83.4070053100586
 20
-30.7572631951904
 30
0.0
 11
88.6570053100586
 21
-30.7572631951904
 31
0.0
  0
LINE
  5
   5C6
  8
0
  6
CONTINUOUS
 62
   130
 10
91.1570053100586
 20
-34.5639781951904
 30
0.0
 11
94.6570053100586
 21
-34.5639781951904
 31
0.0
  0
LINE
  5
   5C7
  8
0
  6
CONTINUOUS
 62
   130
 10
95.1570053100586
 20
-34.0639781951904
 30
0.0
 11
95.1570053100586
 21
-25.5639781951904
 31
0.0
  0
LINE
  5
   5C8
  8
0
  6
CONTINUOUS
 62
   130
 10
92.1570045789083
 20
-25.0639781951904
 30
0.0
 11
94.6570053100586
 21
-25.0639781951904
 31
0.0
  0
LINE
  5
   5C9
  8
0
  6
DOT
 62
   130
 10
92.6570053100586
 20
-27.8139781951904
 30
0.0
 11
95.1570053100586
 21
-27.8139781951904
 31
0.0
  0
LINE
  5
   5CA
  8
0
  6
DOT
 62
   130
 10
92.6570053100586
 20
-31.3139781951904
 30
0.0
 11
95.1570053100586
 21
-31.3139781951904
 31
0.0
  0
LINE
  5
   5CB
  8
0
  6
DOT
 62
   130
 10
92.6570053100586
 20
-27.0639781951904
 30
0.0
 11
94.1570053100586
 21
-27.0639781951904
 31
0.0
  0
LINE
  5
   5CC
  8
0
  6
DOT
 62
   130
 10
92.6570053100586
 20
-32.0639781951904
 30
0.0
 11
94.1570053100586
 21
-32.0639781951904
 31
0.0
  0
LINE
  5
   5CD
  8
0
  6
DOT
 62
   130
 10
94.1570053100586
 20
-33.5639781951904
 30
0.0
 11
94.1570053100586
 21
-32.0639781951904
 31
0.0
  0
LINE
  5
   5CE
  8
0
  6
DOT
 62
   130
 10
91.1570053100586
 20
-26.0639781951904
 30
0.0
 11
94.1570053100586
 21
-26.0639781951904
 31
0.0
  0
LINE
  5
   5CF
  8
0
  6
DOT
 62
   130
 10
91.1570053100586
 20
-33.5639781951904
 30
0.0
 11
94.1570053100586
 21
-33.5639781951904
 31
0.0
  0
LINE
  5
   5D0
  8
0
  6
DOT
 62
   130
 10
92.6570053100586
 20
-32.0639781951904
 30
0.0
 11
92.6570053100586
 21
-27.0639781951904
 31
0.0
  0
LINE
  5
   5D1
  8
0
  6
DOT
 62
   130
 10
94.1570053100586
 20
-27.0639781951904
 30
0.0
 11
94.1570053100586
 21
-26.0639781951904
 31
0.0
  0
ARC
  5
   5D2
  8
0
  6
CONTINUOUS
 62
   130
 10
94.6570053100586
 20
-25.5639781951904
 30
0.0
 40
0.5
 50
0.0
 51
90.0
  0
ARC
  5
   5D3
  8
0
  6
CONTINUOUS
 62
   130
 10
94.6570053100586
 20
-34.0639781951904
 30
0.0
 40
0.5
 50
270.0
 51
360.0
  0
LINE
  5
   5D4
  8
0
  6
CONTINUOUS
 62
   130
 10
71.1570053100586
 20
-34.5639781951904
 30
0.0
 11
92.1570045789083
 21
-34.5639781951904
 31
0.0
  0
LINE
  5
   5D5
  8
0
  6
CONTINUOUS
 62
   130
 10
71.157012462616
 20
-4.45777581233282
 30
0.0
 11
71.157012462616
 21
0.629355430603027
 31
0.0
  0
LINE
  5
   5D6
  8
0
  6
CONTINUOUS
 62
   130
 10
91.1570053100586
 20
-34.5639781951904
 30
0.0
 11
91.1570053100586
 21
-32.5639751434326
 31
0.0
  0
LINE
  5
   5D7
  8
0
  6
CONTINUOUS
 62
   130
 10
71.157012462616
 20
0.629355430603028
 30
0.0
 11
71.407012462616
 21
0.629355430603028
 31
0.0
  0
LINE
  5
   5D8
  8
0
  6
CONTINUOUS
 62
   130
 10
71.157012462616
 20
-5.37064170837402
 30
0.0
 11
71.407012462616
 21
-5.37064170837402
 31
0.0
  0
LINE
  5
   5D9
  8
0
  6
CONTINUOUS
 62
   130
 10
71.157012462616
 20
13.8063569011139
 30
0.0
 11
71.157012462616
 21
18.2426853179932
 31
0.0
  0
LINE
  5
   5DA
  8
0
  6
CONTINUOUS
 62
   130
 10
91.1570053100586
 20
33.8703547267192
 30
0.0
 11
91.1570053100586
 21
39.6432639100771
 31
0.0
  0
LINE
  5
   5DB
  8
0
  6
CONTINUOUS
 62
   130
 10
71.157012462616
 20
12.2426881790161
 30
0.0
 11
71.407012462616
 21
12.2426881790161
 31
0.0
  0
LINE
  5
   5DC
  8
0
  6
CONTINUOUS
 62
   130
 10
71.157012462616
 20
18.2426853179932
 30
0.0
 11
71.407012462616
 21
18.2426853179932
 31
0.0
  0
LINE
  5
   5DD
  8
0
  6
CONTINUOUS
 62
   130
 10
66.6570124626158
 20
37.436014175415
 30
0.0
 11
71.1570053100586
 21
37.436014175415
 31
0.0
  0
LINE
  5
   5DE
  8
0
  6
CONTINUOUS
 62
   130
 10
66.6570124626158
 20
-24.5639705657959
 30
0.0
 11
71.1570053100586
 21
-24.5639705657959
 31
0.0
  0
LINE
  5
   5DF
  8
0
  6
CONTINUOUS
 62
   130
 10
71.1570053100586
 20
47.4360218048096
 30
0.0
 11
72.6570053100586
 21
47.4360218048096
 31
0.0
  0
LINE
  5
   5E0
  8
0
  6
DASHDOT
 62
   130
 10
61.0429916828166
 20
15.2426867485046
 30
0.0
 11
74.5310838807177
 21
15.2426867485046
 31
0.0
  0
LINE
  5
   5E1
  8
0
  6
DASHDOT
 62
   130
 10
62.4636719397373
 20
-2.3706431388855
 30
0.0
 11
75.0829819549026
 21
-2.3706431388855
 31
0.0
  0
LINE
  5
   5E2
  8
0
  6
CONTINUOUS
 62
   130
 10
67.1570124626158
 20
26.9598836718071
 30
0.0
 11
67.1570124626158
 21
37.4360139211019
 31
0.0
  0
LINE
  5
   5E3
  8
0
  6
CONTINUOUS
 62
   130
 10
67.1570124626158
 20
-15.5639705657959
 30
0.0
 11
67.1570124626158
 21
-13.5639703114828
 31
0.0
  0
LINE
  5
   5E4
  8
0
  6
CONTINUOUS
 62
   130
 10
91.1570053100586
 20
-26.067250164668
 30
0.0
 11
91.1570053100586
 21
35.486014175415
 31
0.0
  0
LINE
  5
   5E5
  8
0
  6
CONTINUOUS
 62
   130
 10
66.6570124626158
 20
26.436014175415
 30
0.0
 11
71.1570053100586
 21
26.436014175415
 31
0.0
  0
LINE
  5
   5E6
  8
0
  6
CONTINUOUS
 62
   130
 10
66.6570124626158
 20
-13.5639703114828
 30
0.0
 11
71.1570053100586
 21
-13.5639703114828
 31
0.0
  0
LINE
  5
   5E7
  8
0
  6
DASHDOT
 62
   130
 10
63.7400757611422
 20
42.4360218048096
 30
0.0
 11
96.242826559775
 21
42.4360218048096
 31
0.0
  0
LINE
  5
   5E8
  8
0
  6
DASHDOT
 62
   130
 10
63.3890532608235
 20
-29.5639781951904
 30
0.0
 11
92.0266389118237
 21
-29.5639781951904
 31
0.0
  0
LINE
  5
   5E9
  8
0
  6
CONTINUOUS
 62
   130
 10
66.1570124626158
 20
45.4360218048096
 30
0.0
 11
70.4070053100586
 21
45.4360218048096
 31
0.0
  0
LINE
  5
   5EA
  8
0
  6
CONTINUOUS
 62
   130
 10
66.1570124626158
 20
39.4360218048096
 30
0.0
 11
70.4070053100586
 21
39.4360218048096
 31
0.0
  0
LINE
  5
   5EB
  8
0
  6
CONTINUOUS
 62
   130
 10
66.1570124626158
 20
-26.5639781951904
 30
0.0
 11
70.4070053100586
 21
-26.5639781951904
 31
0.0
  0
LINE
  5
   5EC
  8
0
  6
CONTINUOUS
 62
   130
 10
66.1570124626158
 20
-32.5639781951904
 30
0.0
 11
70.4070053100586
 21
-32.5639781951904
 31
0.0
  0
LINE
  5
   5ED
  8
0
  6
CONTINUOUS
 62
   130
 10
66.1570124626158
 20
39.4360218048096
 30
0.0
 11
66.1570124626158
 21
45.4360218048096
 31
0.0
  0
LINE
  5
   5EE
  8
0
  6
CONTINUOUS
 62
   130
 10
66.1570124626158
 20
-32.5639781951904
 30
0.0
 11
66.1570124626158
 21
-26.5639781951904
 31
0.0
  0
LINE
  5
   5EF
  8
0
  6
DOT
 62
   130
 10
83.6570124626158
 20
40.3110218048096
 30
0.0
 11
83.6570124626158
 21
44.5610218048096
 31
0.0
  0
LINE
  5
   5F0
  8
0
  6
DOT
 62
   130
 10
66.1570124626158
 20
43.4860218048096
 30
0.0
 11
83.6570124626158
 21
43.4860218048096
 31
0.0
  0
LINE
  5
   5F1
  8
0
  6
DOT
 62
   130
 10
66.1570124626158
 20
41.3860218048096
 30
0.0
 11
83.6570124626158
 21
41.3860218048096
 31
0.0
  0
LINE
  5
   5F2
  8
0
  6
DOT
 62
   130
 10
66.1570124626158
 20
-28.5139781951904
 30
0.0
 11
83.6570124626158
 21
-28.5139781951904
 31
0.0
  0
LINE
  5
   5F3
  8
0
  6
DOT
 62
   130
 10
66.1570124626158
 20
-30.6139781951904
 30
0.0
 11
83.6570124626158
 21
-30.6139781951904
 31
0.0
  0
LINE
  5
   5F4
  8
0
  6
DOT
 62
   130
 10
83.6570124626158
 20
-27.4389781951904
 30
0.0
 11
91.1570053100586
 21
-27.4389781951904
 31
0.0
  0
LINE
  5
   5F5
  8
0
  6
DOT
 62
   130
 10
83.6570124626158
 20
-31.6889781951904
 30
0.0
 11
91.1570053100586
 21
-31.6889781951904
 31
0.0
  0
LINE
  5
   5F6
  8
0
  6
DOT
 62
   130
 10
83.6570124626158
 20
44.5610218048096
 30
0.0
 11
91.1570053100586
 21
44.5610218048096
 31
0.0
  0
LINE
  5
   5F7
  8
0
  6
DOT
 62
   130
 10
83.6570124626158
 20
40.3110218048096
 30
0.0
 11
91.1570053100586
 21
40.3110218048096
 31
0.0
  0
LINE
  5
   5F8
  8
0
  6
DOT
 62
   130
 10
83.6570124626158
 20
-31.6889781951904
 30
0.0
 11
83.6570124626158
 21
-27.4389781951904
 31
0.0
  0
LINE
  5
   5F9
  8
0
  6
CONTINUOUS
 62
   130
 10
71.1570053100586
 20
22.436012828391
 30
0.0
 11
71.1570053100586
 21
26.436014175415
 31
0.0
  0
LINE
  5
   5FA
  8
0
  6
CONTINUOUS
 62
   130
 10
71.1570053100586
 20
-26.9109297903315
 30
0.0
 11
71.1570053100586
 21
-9.56397031148276
 31
0.0
  0
LINE
  5
   5FB
  8
0
  6
CONTINUOUS
 62
   130
 10
71.407012462616
 20
18.2426853179932
 30
0.0
 11
71.407012462616
 21
22.436012828391
 31
0.0
  0
LINE
  5
   5FC
  8
0
  6
CONTINUOUS
 62
   130
 10
71.1570053100586
 20
24.2789100624938
 30
0.0
 11
71.1570053100586
 21
47.4360218048096
 31
0.0
  0
ARC
  5
   5FD
  8
0
  6
CONTINUOUS
 62
   130
 10
70.4070053100586
 20
46.1860218048096
 30
0.0
 40
0.75
 50
270.0
 51
360.0
  0
ARC
  5
   5FE
  8
0
  6
CONTINUOUS
 62
   130
 10
70.4070053100586
 20
38.6860218048096
 30
0.0
 40
0.75
 50
360.0
 51
450.0
  0
LINE
  5
   5FF
  8
0
  6
CONTINUOUS
 62
   130
 10
71.1570053100586
 20
-34.5639781951904
 30
0.0
 11
71.1570053100586
 21
-24.5639705657959
 31
0.0
  0
ARC
  5
   600
  8
0
  6
CONTINUOUS
 62
   130
 10
70.4070053100586
 20
-25.8139781951904
 30
0.0
 40
0.75
 50
270.0
 51
360.0
  0
ARC
  5
   601
  8
0
  6
CONTINUOUS
 62
   130
 10
70.4070053100586
 20
-33.3139781951904
 30
0.0
 40
0.75
 50
360.0
 51
450.0
  0
LINE
  5
   602
  8
0
  6
CONTINUOUS
 62
   130
 10
67.1570124626158
 20
26.436014175415
 30
0.0
 11
67.1570124626158
 21
28.436014175415
 31
0.0
  0
LINE
  5
   603
  8
0
  6
DOT
 62
   130
 10
72.907012462616
 20
-22.5639705657959
 30
0.0
 11
72.907012462616
 21
-15.5639705657959
 31
0.0
  0
LINE
  5
   604
  8
0
  6
DOT
 62
   130
 10
75.9987000674383
 20
-21.5639705657959
 30
0.0
 11
75.9987000674383
 21
-16.5639705657959
 31
0.0
  0
LINE
  5
   605
  8
0
  6
DOT
 62
   130
 10
79.657012462616
 20
-21.5639705657959
 30
0.0
 11
79.657012462616
 21
-16.5639705657959
 31
0.0
  0
LINE
  5
   606
  8
0
  6
DOT
 62
   130
 10
79.657012462616
 20
-21.5639705657959
 30
0.0
 11
79.657012462616
 21
-16.5639705657959
 31
0.0
  0
ARC
  5
   607
  8
0
  6
DOT
 62
   130
 10
77.657012462616
 20
-24.0639705657959
 30
0.0
 40
3.0
 50
56.4426902380793
 51
123.557309761921
  0
ARC
  5
   608
  8
0
  6
DOT
 62
   130
 10
77.657012462616
 20
-14.0639705657959
 30
0.0
 40
3.0
 50
236.442690238079
 51
303.557309761921
  0
LINE
  5
   609
  8
0
  6
DOT
 62
   130
 10
72.907012462616
 20
-21.5639705657959
 30
0.0
 11
75.9987000674383
 21
-21.5639705657959
 31
0.0
  0
LINE
  5
   60A
  8
0
  6
DOT
 62
   130
 10
72.907012462616
 20
-16.5639705657959
 30
0.0
 11
75.9987000674383
 21
-16.5639705657959
 31
0.0
  0
LINE
  5
   60B
  8
0
  6
DOT
 62
   130
 10
80.157012462616
 20
-21.0639705657959
 30
0.0
 11
80.157012462616
 21
-17.0639705657959
 31
0.0
  0
ARC
  5
   60C
  8
0
  6
DOT
 62
   130
 10
79.657012462616
 20
-21.0639705657959
 30
0.0
 40
0.5
 50
270.0
 51
360.0
  0
ARC
  5
   60D
  8
0
  6
DOT
 62
   130
 10
79.657012462616
 20
-17.0639705657959
 30
0.0
 40
0.5
 50
360.0
 51
450.0
  0
LINE
  5
   60E
  8
0
  6
DOT
 62
   130
 10
79.3153248577937
 20
-16.5639705657959
 30
0.0
 11
79.657012462616
 21
-16.5639705657959
 31
0.0
  0
LINE
  5
   60F
  8
0
  6
CONTINUOUS
 62
   130
 10
67.1570124626158
 20
-24.563970820109
 30
0.0
 11
67.1570124626158
 21
-15.433011525459
 31
0.0
  0
LINE
  5
   610
  8
0
  6
CONTINUOUS
 62
   130
 10
91.1570053100586
 20
47.4360218048096
 30
0.0
 11
92.1570053100586
 21
47.4360218048096
 31
0.0
  0
LINE
  5
   611
  8
0
  6
CONTINUOUS
 62
   130
 10
91.1570053100586
 20
-34.5639781951904
 30
0.0
 11
92.1570053100586
 21
-34.5639781951904
 31
0.0
  0
LINE
  5
   612
  8
0
  6
DASHDOT
 62
   130
 10
90.5570053100586
 20
23.886014175415
 30
0.0
 11
90.8070053100586
 21
23.886014175415
 31
0.0
  0
LINE
  5
   613
  8
0
  6
DOT
 62
   130
 10
78.6252582991678
 20
-15.3139705657959
 30
0.0
 11
85.1887666260641
 21
-15.3139705657959
 31
0.0
  0
CIRCLE
  5
   614
  8
0
  6
DOT
 62
   130
 10
77.657012462616
 20
-15.7639705657959
 30
0.0
 40
0.55
  0
ARC
  5
   615
  8
0
  6
DOT
 62
   130
 10
77.657012462616
 20
-15.0639705657959
 30
0.0
 40
1.0
 50
241.040339060838
 51
345.52248781407
  0
CIRCLE
  5
   616
  8
0
  6
DOT
 62
   130
 10
86.1570124626159
 20
-15.7639705657959
 30
0.0
 40
0.55
  0
LINE
  5
   617
  8
0
  6
DOT
 62
   130
 10
76.6238817995654
 20
-15.38999444766
 30
0.0
 11
77.1728187379806
 21
-15.9389313860751
 31
0.0
  0
LINE
  5
   618
  8
0
  6
DOT
 62
   130
 10
86.6412061872514
 20
-15.9389313860751
 30
0.0
 11
87.1901431256665
 21
-15.38999444766
 31
0.0
  0
ARC
  5
   619
  8
0
  6
DOT
 62
   130
 10
86.157012462616
 20
-15.0639705657959
 30
0.0
 40
1.0
 50
194.47751218593
 51
298.959660939162
  0
LINE
  5
   61A
  8
0
  6
DOT
 62
   130
 10
87.1901431256665
 20
-15.3899944476599
 30
0.0
 11
88.101556110879
 21
-16.3014074328724
 31
0.0
  0
LINE
  5
   61B
  8
0
  6
DOT
 62
   130
 10
87.571226024989
 20
-16.478184128169
 30
0.0
 11
87.9247794155823
 21
-16.1246307375757
 31
0.0
  0
LINE
  5
   61C
  8
0
  6
DOT
 62
   130
 10
87.7480027202857
 20
-16.6549608234656
 30
0.0
 11
88.1015561108789
 21
-16.3014074328724
 31
0.0
  0
LINE
  5
   61D
  8
0
  6
DOT
 62
   130
 10
75.712468814353
 20
-16.3014074328724
 30
0.0
 11
76.6238817995654
 21
-15.3899944476599
 31
0.0
  0
LINE
  5
   61E
  8
0
  6
DOT
 62
   130
 10
75.8892455096496
 20
-16.1246307375757
 30
0.0
 11
76.2427989002429
 21
-16.478184128169
 31
0.0
  0
LINE
  5
   61F
  8
0
  6
DOT
 62
   130
 10
75.712468814353
 20
-16.3014074328724
 30
0.0
 11
76.0660222049462
 21
-16.6549608234656
 31
0.0
  0
ARC
  5
   620
  8
0
  6
DOT
 62
   130
 10
77.657012462616
 20
-15.0639705657959
 30
0.0
 40
2.0
 50
225.0
 51
321.31781254651
  0
ARC
  5
   621
  8
0
  6
DOT
 62
   130
 10
77.657012462616
 20
-15.0639705657959
 30
0.0
 40
2.25
 50
225.0
 51
318.189685104221
  0
LINE
  5
   622
  8
0
  6
DOT
 62
   130
 10
79.2182619622156
 20
-16.3139705657959
 30
0.0
 11
84.5957629630164
 21
-16.3139705657959
 31
0.0
  0
LINE
  5
   623
  8
0
  6
DOT
 62
   130
 10
79.3340634457408
 20
-16.5639705657959
 30
0.0
 11
84.4799614794911
 21
-16.5639705657959
 31
0.0
  0
ARC
  5
   624
  8
0
  6
DOT
 62
   130
 10
86.157012462616
 20
-15.0639705657959
 30
0.0
 40
2.0
 50
218.682187453489
 51
315.0
  0
ARC
  5
   625
  8
0
  6
DOT
 62
   130
 10
86.157012462616
 20
-15.0639705657959
 30
0.0
 40
2.25
 50
221.810314895778
 51
315.0
  0
LINE
  5
   626
  8
0
  6
DOT
 62
   130
 10
78.6252582991678
 20
-22.8139705657959
 30
0.0
 11
85.1887666260641
 21
-22.8139705657959
 31
0.0
  0
CIRCLE
  5
   627
  8
0
  6
DOT
 62
   130
 10
77.657012462616
 20
-22.6139705657959
 30
0.0
 40
0.55
  0
ARC
  5
   628
  8
0
  6
DOT
 62
   130
 10
77.657012462616
 20
-23.0639705657959
 30
0.0
 40
1.0
 50
14.47751218593
 51
118.959660939162
  0
CIRCLE
  5
   629
  8
0
  6
DOT
 62
   130
 10
86.1570124626159
 20
-22.6139705657959
 30
0.0
 40
0.55
  0
LINE
  5
   62A
  8
0
  6
DOT
 62
   130
 10
76.6238817995654
 20
-22.7379466839318
 30
0.0
 11
77.1728187379806
 21
-22.1890097455167
 31
0.0
  0
LINE
  5
   62B
  8
0
  6
DOT
 62
   130
 10
86.6412061872514
 20
-22.1890097455167
 30
0.0
 11
87.1901431256665
 21
-22.7379466839318
 31
0.0
  0
ARC
  5
   62C
  8
0
  6
DOT
 62
   130
 10
86.157012462616
 20
-23.0639705657959
 30
0.0
 40
1.0
 50
61.0403390608383
 51
165.52248781407
  0
LINE
  5
   62D
  8
0
  6
DOT
 62
   130
 10
87.1901431256665
 20
-22.7379466839318
 30
0.0
 11
88.101556110879
 21
-21.8265336987194
 31
0.0
  0
LINE
  5
   62E
  8
0
  6
DOT
 62
   130
 10
87.571226024989
 20
-21.6497570034228
 30
0.0
 11
87.9247794155823
 21
-22.0033103940161
 31
0.0
  0
LINE
  5
   62F
  8
0
  6
DOT
 62
   130
 10
87.7480027202857
 20
-21.4729803081261
 30
0.0
 11
88.1015561108789
 21
-21.8265336987194
 31
0.0
  0
LINE
  5
   630
  8
0
  6
DOT
 62
   130
 10
75.712468814353
 20
-21.8265336987194
 30
0.0
 11
76.6238817995654
 21
-22.7379466839318
 31
0.0
  0
LINE
  5
   631
  8
0
  6
DOT
 62
   130
 10
75.8892455096496
 20
-22.0033103940161
 30
0.0
 11
76.2427989002429
 21
-21.6497570034228
 31
0.0
  0
LINE
  5
   632
  8
0
  6
DOT
 62
   130
 10
75.712468814353
 20
-21.8265336987194
 30
0.0
 11
76.0660222049462
 21
-21.4729803081262
 31
0.0
  0
ARC
  5
   633
  8
0
  6
DOT
 62
   130
 10
77.657012462616
 20
-23.0639705657959
 30
0.0
 40
2.0
 50
38.6821874534895
 51
135.0
  0
ARC
  5
   634
  8
0
  6
DOT
 62
   130
 10
77.657012462616
 20
-23.0639705657959
 30
0.0
 40
2.25
 50
41.8103148957787
 51
135.0
  0
LINE
  5
   635
  8
0
  6
DOT
 62
   130
 10
79.2182619622156
 20
-21.8139705657959
 30
0.0
 11
84.5957629630164
 21
-21.8139705657959
 31
0.0
  0
ARC
  5
   636
  8
0
  6
DOT
 62
   130
 10
86.157012462616
 20
-23.0639705657959
 30
0.0
 40
2.0
 50
45.0000000000001
 51
141.317812546511
  0
ARC
  5
   637
  8
0
  6
DOT
 62
   130
 10
86.157012462616
 20
-23.0639705657959
 30
0.0
 40
2.25
 50
45.0000000000001
 51
138.189685104221
  0
LINE
  5
   638
  8
0
  6
CONTINUOUS
 62
   130
 10
71.407012462616
 20
0.629355430603028
 30
0.0
 11
71.407012462616
 21
12.2426881790161
 31
0.0
  0
LINE
  5
   639
  8
0
  6
CONTINUOUS
 62
   130
 10
71.407012462616
 20
-9.56397031148276
 30
0.0
 11
71.407012462616
 21
-5.37064170837402
 31
0.0
  0
LINE
  5
   63A
  8
0
  6
DOT
 62
   130
 10
80.157012462616
 20
-19.4639692187719
 30
0.0
 11
82.407012462616
 21
-19.4639692187719
 31
0.0
  0
LINE
  5
   63B
  8
0
  6
DOT
 62
   130
 10
80.157012462616
 20
-17.6639692187719
 30
0.0
 11
82.407012462616
 21
-17.6639692187719
 31
0.0
  0
LINE
  5
   63C
  8
0
  6
DOT
 62
   130
 10
80.6070124626159
 20
-22.8639705657959
 30
0.0
 11
91.7070124626159
 21
-22.8639705657959
 31
0.0
  0
LINE
  5
   63D
  8
0
  6
DOT
 62
   130
 10
92.1569976806641
 20
-22.8189110565186
 30
0.0
 11
98.4069900512695
 21
-22.8189110565186
 31
0.0
  0
LINE
  5
   63E
  8
0
  6
DOT
 62
   130
 10
96.1569976806641
 20
-22.0689110565186
 30
0.0
 11
96.1569976806641
 21
-21.0689433730344
 31
0.0
  0
LINE
  5
   63F
  8
0
  6
DOT
 62
   130
 10
92.1569976806641
 20
-16.0689186859131
 30
0.0
 11
96.1569976806641
 21
-16.0689186859131
 31
0.0
  0
LINE
  5
   640
  8
0
  6
DOT
 62
   130
 10
92.1569976806641
 20
-22.0689110565186
 30
0.0
 11
96.1569976806641
 21
-22.0689110565186
 31
0.0
  0
LINE
  5
   641
  8
0
  6
DASHDOT
 62
   130
 10
65.0261039091739
 20
-19.0689110565186
 30
0.0
 11
116.999984337206
 21
-19.0689110565186
 31
0.0
  0
LINE
  5
   642
  8
0
  6
CONTINUOUS
 62
   130
 10
128.15699005127
 20
11.6860332489014
 30
0.0
 11
128.15699005127
 21
12.1860332489014
 31
0.0
  0
LINE
  5
   643
  8
0
  6
CONTINUOUS
 62
   130
 10
128.15699005127
 20
-11.3139667510986
 30
0.0
 11
128.15699005127
 21
-10.8139667510986
 31
0.0
  0
LINE
  5
   644
  8
0
  6
DOT
 62
   130
 10
105.656994533539
 20
-20.3189113616943
 30
0.0
 11
105.656994533539
 21
-17.8189189910888
 31
0.0
  0
LINE
  5
   645
  8
0
  6
DOT
 62
   130
 10
105.656993664281
 20
-17.8189100786749
 30
0.0
 11
105.906993651446
 21
-17.5689100915106
 31
0.0
  0
LINE
  5
   646
  8
0
  6
DOT
 62
   130
 10
105.656992241588
 20
-20.318898702754
 30
0.0
 11
105.906992228723
 21
-20.5689063185849
 31
0.0
  0
LINE
  5
   647
  8
0
  6
DOT
 62
   130
 10
105.906994533539
 20
-20.5689189910888
 30
0.0
 11
105.906994533539
 21
-17.683092880249
 31
0.0
  0
LINE
  5
   648
  8
0
  6
DOT
 62
   130
 10
105.906994406382
 20
-17.5689178721199
 30
0.0
 11
113.406992975874
 21
-17.5689102427273
 31
0.0
  0
LINE
  5
   649
  8
0
  6
DOT
 62
   130
 10
105.906994533539
 20
-20.5689189910888
 30
0.0
 11
113.321413395345
 21
-20.5689189910888
 31
0.0
  0
LINE
  5
   64A
  8
0
  6
DOT
 62
   130
 10
113.406990212468
 20
-17.5689043121602
 30
0.0
 11
113.656990199603
 21
-17.8189119279911
 31
0.0
  0
LINE
  5
   64B
  8
0
  6
DOT
 62
   130
 10
113.406991823421
 20
-20.568912456332
 30
0.0
 11
113.656991810585
 21
-20.3189124691677
 31
0.0
  0
LINE
  5
   64C
  8
0
  6
DOT
 62
   130
 10
105.656994533539
 20
-17.8189119279911
 30
0.0
 11
112.156993103028
 21
-17.8189119279911
 31
0.0
  0
LINE
  5
   64D
  8
0
  6
DOT
 62
   130
 10
105.65699005127
 20
-20.318912163992
 30
0.0
 11
112.156993103028
 21
-20.318912163992
 31
0.0
  0
LINE
  5
   64E
  8
0
  6
DOT
 62
   130
 10
112.156993103028
 20
-20.5689189910888
 30
0.0
 11
112.156993103028
 21
-17.5689115142929
 31
0.0
  0
LINE
  5
   64F
  8
0
  6
DOT
 62
   130
 10
97.4069900512695
 20
-15.9939110565186
 30
0.0
 11
104.65699005127
 21
-15.9939110565186
 31
0.0
  0
LINE
  5
   650
  8
0
  6
DOT
 62
   130
 10
97.4069900512695
 20
-22.1439110565186
 30
0.0
 11
98.4069900512695
 21
-22.1439110565186
 31
0.0
  0
LINE
  5
   651
  8
0
  6
DOT
 62
   130
 10
97.4069900512695
 20
-22.1439110565186
 30
0.0
 11
97.4069900512695
 21
-21.0689421014765
 31
0.0
  0
LINE
  5
   652
  8
0
  6
DOT
 62
   130
 10
96.1569976806641
 20
-16.9939110565186
 30
0.0
 11
97.4069900512695
 21
-16.9939110565186
 31
0.0
  0
LINE
  5
   653
  8
0
  6
DOT
 62
   130
 10
96.1569976806641
 20
-21.1439110565186
 30
0.0
 11
97.4069900512695
 21
-21.1439110565186
 31
0.0
  0
LINE
  5
   654
  8
0
  6
DOT
 62
   130
 10
104.65699005127
 20
-21.8189110565186
 30
0.0
 11
104.65699005127
 21
-15.5091033013528
 31
0.0
  0
LINE
  5
   655
  8
0
  6
DOT
 62
   130
 10
105.65699005127
 20
-21.8189110565186
 30
0.0
 11
105.65699005127
 21
-15.5091033013528
 31
0.0
  0
LINE
  5
   656
  8
0
  6
DOT
 62
   130
 10
104.65699005127
 20
-21.8189110565186
 30
0.0
 11
105.65699005127
 21
-21.8189110565186
 31
0.0
  0
LINE
  5
   657
  8
0
  6
DOT
 62
   130
 10
113.406990212468
 20
-20.5689189910888
 30
0.0
 11
113.406990212468
 21
-17.5689102427301
 31
0.0
  0
LINE
  5
   658
  8
0
  6
DOT
 62
   130
 10
101.65699005127
 20
-16.0689110565186
 30
0.0
 11
104.65699005127
 21
-16.0689110565186
 31
0.0
  0
LINE
  5
   659
  8
0
  6
DOT
 62
   130
 10
101.65699005127
 20
-22.0689110565186
 30
0.0
 11
111.40699005127
 21
-22.0689110565186
 31
0.0
  0
LINE
  5
   65A
  8
0
  6
DOT
 62
   130
 10
110.40699005127
 20
-22.068911819458
 30
0.0
 11
110.40699005127
 21
-20.5689189910888
 31
0.0
  0
LINE
  5
   65B
  8
0
  6
DOT
 62
   130
 10
109.40699005127
 20
-22.068911819458
 30
0.0
 11
109.40699005127
 21
-20.5689189910888
 31
0.0
  0
LINE
  5
   65C
  8
0
  6
DOT
 62
   130
 10
101.65699005127
 20
-22.0689110565186
 30
0.0
 11
101.65699005127
 21
-21.0689377781532
 31
0.0
  0
LINE
  5
   65D
  8
0
  6
DOT
 62
   130
 10
102.65699005127
 20
-22.0689110565186
 30
0.0
 11
102.65699005127
 21
-21.0689367609006
 31
0.0
  0
LINE
  5
   65E
  8
0
  6
DOT
 62
   130
 10
111.40699005127
 20
-22.068911819458
 30
0.0
 11
111.40699005127
 21
-20.5689189910888
 31
0.0
  0
LINE
  5
   65F
  8
0
  6
DOT
 62
   130
 10
105.65699005127
 20
-16.0689110565186
 30
0.0
 11
111.419438284817
 21
-16.0689110565186
 31
0.0
  0
LINE
  5
   660
  8
0
  6
DOT
 62
   130
 10
101.65699005127
 20
-17.0689110565186
 30
0.0
 11
102.65699005127
 21
-17.0689110565186
 31
0.0
  0
LINE
  5
   661
  8
0
  6
DOT
 62
   130
 10
101.65699005127
 20
-21.0689110565186
 30
0.0
 11
102.65699005127
 21
-21.0689110565186
 31
0.0
  0
LINE
  5
   662
  8
0
  6
CONTINUOUS
 62
   130
 10
101.65699005127
 20
-17.5689110565186
 30
0.0
 11
102.65699005127
 21
-17.5689110565186
 31
0.0
  0
LINE
  5
   663
  8
0
  6
CONTINUOUS
 62
   130
 10
101.65699005127
 20
-20.5689110565186
 30
0.0
 11
102.65699005127
 21
-20.5689110565186
 31
0.0
  0
LINE
  5
   664
  8
0
  6
DASHDOT
 62
   130
 10
61.3507900706881
 20
31.936014175415
 30
0.0
 11
93.185609309647
 21
31.936014175415
 31
0.0
  0
LINE
  5
   665
  8
0
  6
CONTINUOUS
 62
   130
 10
101.657049572465
 20
-20.5689377780924
 30
0.0
 11
104.657049572465
 21
-20.5689347263348
 31
0.0
  0
LINE
  5
   666
  8
0
  6
CONTINUOUS
 62
   130
 10
101.657043468949
 20
-17.568937778097
 30
0.0
 11
104.657043468949
 21
-17.5689347263394
 31
0.0
  0
LINE
  5
   667
  8
0
  6
DOT
 62
   130
 10
83.6570505897171
 20
-21.0689560886374
 30
0.0
 11
104.657050589717
 21
-21.068934726334
 31
0.0
  0
LINE
  5
   668
  8
0
  6
DOT
 62
   130
 10
83.6570424516967
 20
-17.0689560886436
 30
0.0
 11
104.657042451697
 21
-17.0689347263402
 31
0.0
  0
LINE
  5
   669
  8
0
  6
DOT
 62
   130
 10
82.1570435624488
 20
-17.614914495835
 30
0.0
 11
82.1570494789712
 21
-20.5230037928339
 31
0.0
  0
LINE
  5
   66A
  8
0
  6
DOT
 62
   130
 10
83.6570424516967
 20
-17.068956090478
 30
0.0
 11
83.6570505897171
 21
-21.0689560904738
 31
0.0
  0
LINE
  5
   66B
  8
0
  6
DOT
 62
   130
 10
82.1570494789712
 20
-20.5230037889968
 30
0.0
 11
83.6570505897171
 21
-21.0689560886374
 31
0.0
  0
LINE
  5
   66C
  8
0
  6
DOT
 62
   130
 10
82.1570435624488
 20
-17.6149144917994
 30
0.0
 11
83.6570424516967
 21
-17.0689560886436
 31
0.0
  0
LINE
  5
   66D
  8
0
  6
DOT
 62
   130
 10
105.407045249157
 20
-18.4439416114513
 30
0.0
 11
105.407047792288
 21
-19.6939416114501
 31
0.0
  0
LINE
  5
   66E
  8
0
  6
DOT
 62
   130
 10
96.1569976806641
 20
-17.0689433730323
 30
0.0
 11
96.1569976806641
 21
-16.0689186859131
 31
0.0
  0
LINE
  5
   66F
  8
0
  6
DOT
 62
   130
 10
97.4069900512695
 20
-17.0689421014744
 30
0.0
 11
97.4069900512695
 21
-15.9939110565186
 31
0.0
  0
LINE
  5
   670
  8
0
  6
CONTINUOUS
 62
   130
 10
91.1570053100586
 20
-33.4271512804013
 30
0.0
 11
91.1570053100586
 21
-24.2299561810182
 31
0.0
  0
LINE
  5
   671
  8
0
  6
DOT
 62
   130
 10
104.65699005127
 20
-18.4439416115038
 30
0.0
 11
105.65699005127
 21
-18.4439416115038
 31
0.0
  0
LINE
  5
   672
  8
0
  6
DOT
 62
   130
 10
104.65699005127
 20
-19.6939416114991
 30
0.0
 11
105.65699005127
 21
-19.6939416114991
 31
0.0
  0
LINE
  5
   673
  8
0
  6
DOT
 62
   130
 10
102.65699005127
 20
-17.0689367608986
 30
0.0
 11
102.65699005127
 21
-16.0689110565186
 31
0.0
  0
LINE
  5
   674
  8
0
  6
DOT
 62
   130
 10
101.65699005127
 20
-17.0689377781511
 30
0.0
 11
101.65699005127
 21
-16.0689110565186
 31
0.0
  0
LINE
  5
   675
  8
0
  6
DOT
 62
   130
 10
98.4069900512695
 20
-23.3189110565185
 30
0.0
 11
98.4069900512695
 21
-21.9689110565185
 31
0.0
  0
LINE
  5
   676
  8
0
  6
DOT
 62
   130
 10
98.9069900512695
 20
-22.8189110565185
 30
0.0
 11
98.9069900512695
 21
-21.0689372721952
 31
0.0
  0
LINE
  5
   677
  8
0
  6
DOT
 62
   130
 10
97.9069900512695
 20
-21.4689110565185
 30
0.0
 11
98.3069621973518
 21
-21.0689376255731
 31
0.0
  0
LINE
  5
   678
  8
0
  6
DOT
 62
   130
 10
97.9069900512695
 20
-21.9689110565185
 30
0.0
 11
97.9069900512695
 21
-21.4689110565185
 31
0.0
  0
LINE
  5
   679
  8
0
  6
DOT
 62
   130
 10
97.9069900512695
 20
-21.9689110565185
 30
0.0
 11
98.4069900512695
 21
-21.9689110565185
 31
0.0
  0
LINE
  5
   67A
  8
0
  6
DOT
 62
   130
 10
107.15699005127
 20
-22.8189110565185
 30
0.0
 11
107.15699005127
 21
-22.1689110565185
 31
0.0
  0
LINE
  5
   67B
  8
0
  6
DOT
 62
   130
 10
98.9069900512695
 20
-22.8189110565186
 30
0.0
 11
107.15699005127
 21
-22.8189110565186
 31
0.0
  0
LINE
  5
   67C
  8
0
  6
DOT
 62
   130
 10
108.40699005127
 20
-22.6689110565185
 30
0.0
 11
108.40699005127
 21
-22.1689110565185
 31
0.0
  0
LINE
  5
   67D
  8
0
  6
DOT
 62
   130
 10
107.15699005127
 20
-22.1689110565185
 30
0.0
 11
108.40699005127
 21
-22.1689110565185
 31
0.0
  0
LINE
  5
   67E
  8
0
  6
DOT
 62
   130
 10
107.65699005127
 20
-22.6689110565185
 30
0.0
 11
108.40699005127
 21
-22.6689110565185
 31
0.0
  0
LINE
  5
   67F
  8
0
  6
DOT
 62
   130
 10
107.65699005127
 20
-23.5689110565186
 30
0.0
 11
107.65699005127
 21
-22.6689110565185
 31
0.0
  0
LINE
  5
   680
  8
0
  6
DOT
 62
   130
 10
98.9069900512695
 20
-22.1439110565186
 30
0.0
 11
113.65699005127
 21
-22.1439110565186
 31
0.0
  0
LINE
  5
   681
  8
0
  6
DOT
 62
   130
 10
109.40699005127
 20
-17.5689143117405
 30
0.0
 11
109.40699005127
 21
-16.0689110565186
 31
0.0
  0
LINE
  5
   682
  8
0
  6
DOT
 62
   130
 10
110.40699005127
 20
-17.5689132944879
 30
0.0
 11
110.40699005127
 21
-16.068911819458
 31
0.0
  0
LINE
  5
   683
  8
0
  6
DOT
 62
   130
 10
111.40699005127
 20
-17.5689122772354
 30
0.0
 11
111.40699005127
 21
-16.068911819458
 31
0.0
  0
LINE
  5
   684
  8
0
  6
CONTINUOUS
 62
   130
 10
70.157012462616
 20
12.7926867485046
 30
0.0
 11
70.157012462616
 21
17.6926867485046
 31
0.0
  0
LINE
  5
   685
  8
0
  6
CONTINUOUS
 62
   130
 10
69.757012462616
 20
12.7926867485046
 30
0.0
 11
69.757012462616
 21
17.6926867485046
 31
0.0
  0
LINE
  5
   686
  8
0
  6
CONTINUOUS
 62
   130
 10
68.257012462616
 20
13.2926867485046
 30
0.0
 11
68.257012462616
 21
17.1926867485046
 31
0.0
  0
LINE
  5
   687
  8
0
  6
CONTINUOUS
 62
   130
 10
66.4070053100586
 20
16.2426867485046
 30
0.0
 11
68.257012462616
 21
16.2426867485046
 31
0.0
  0
LINE
  5
   688
  8
0
  6
CONTINUOUS
 62
   130
 10
66.4070053100586
 20
14.2426867485046
 30
0.0
 11
68.257012462616
 21
14.2426867485046
 31
0.0
  0
LINE
  5
   689
  8
0
  6
CONTINUOUS
 62
   130
 10
71.157012462616
 20
12.2426881790161
 30
0.0
 11
71.157012462616
 21
14.2426867485046
 31
0.0
  0
LINE
  5
   68A
  8
0
  6
CONTINUOUS
 62
   130
 10
68.257012462616
 20
17.1926867485046
 30
0.0
 11
69.757012462616
 21
17.1926867485046
 31
0.0
  0
LINE
  5
   68B
  8
0
  6
CONTINUOUS
 62
   130
 10
68.257012462616
 20
13.2926867485046
 30
0.0
 11
69.757012462616
 21
13.2926867485046
 31
0.0
  0
LINE
  5
   68C
  8
0
  6
CONTINUOUS
 62
   130
 10
69.757012462616
 20
17.6926867485046
 30
0.0
 11
70.157012462616
 21
17.6926867485046
 31
0.0
  0
LINE
  5
   68D
  8
0
  6
CONTINUOUS
 62
   130
 10
69.757012462616
 20
12.7926867485046
 30
0.0
 11
70.157012462616
 21
12.7926867485046
 31
0.0
  0
LINE
  5
   68E
  8
0
  6
CONTINUOUS
 62
   130
 10
68.257012462616
 20
16.2426867485046
 30
0.0
 11
69.757012462616
 21
16.2426867485046
 31
0.0
  0
LINE
  5
   68F
  8
0
  6
CONTINUOUS
 62
   130
 10
68.257012462616
 20
14.2426867485046
 30
0.0
 11
69.757012462616
 21
14.2426867485046
 31
0.0
  0
LINE
  5
   690
  8
0
  6
CONTINUOUS
 62
   130
 10
66.1570053100586
 20
14.4926867485046
 30
0.0
 11
66.1570053100586
 21
15.9926867485046
 31
0.0
  0
LINE
  5
   691
  8
0
  6
CONTINUOUS
 62
   130
 10
66.1570053100586
 20
15.9926867485046
 30
0.0
 11
66.4070053100586
 21
16.2426867485046
 31
0.0
  0
LINE
  5
   692
  8
0
  6
CONTINUOUS
 62
   130
 10
66.1570053100586
 20
14.4926867485046
 30
0.0
 11
66.4070053100586
 21
14.2426867485046
 31
0.0
  0
LINE
  5
   693
  8
0
  6
CONTINUOUS
 62
   130
 10
66.4070053100586
 20
14.2426867485046
 30
0.0
 11
66.4070053100586
 21
16.2426867485046
 31
0.0
  0
LINE
  5
   694
  8
0
  6
CONTINUOUS
 62
   130
 10
68.257012462616
 20
-3.3706431388855
 30
0.0
 11
69.757012462616
 21
-3.3706431388855
 31
0.0
  0
LINE
  5
   695
  8
0
  6
CONTINUOUS
 62
   130
 10
68.257012462616
 20
-1.3706431388855
 30
0.0
 11
69.757012462616
 21
-1.3706431388855
 31
0.0
  0
LINE
  5
   696
  8
0
  6
CONTINUOUS
 62
   130
 10
68.257012462616
 20
-4.3206431388855
 30
0.0
 11
69.757012462616
 21
-4.3206431388855
 31
0.0
  0
LINE
  5
   697
  8
0
  6
CONTINUOUS
 62
   130
 10
68.257012462616
 20
-0.420643138885497
 30
0.0
 11
69.757012462616
 21
-0.420643138885497
 31
0.0
  0
LINE
  5
   698
  8
0
  6
CONTINUOUS
 62
   130
 10
66.4070053100586
 20
-3.3706431388855
 30
0.0
 11
68.257012462616
 21
-3.3706431388855
 31
0.0
  0
LINE
  5
   699
  8
0
  6
CONTINUOUS
 62
   130
 10
66.4070053100586
 20
-1.3706431388855
 30
0.0
 11
68.257012462616
 21
-1.3706431388855
 31
0.0
  0
LINE
  5
   69A
  8
0
  6
CONTINUOUS
 62
   130
 10
70.157012462616
 20
-4.8206431388855
 30
0.0
 11
70.157012462616
 21
7.93568611145035E-2
 31
0.0
  0
LINE
  5
   69B
  8
0
  6
CONTINUOUS
 62
   130
 10
69.757012462616
 20
-4.8206431388855
 30
0.0
 11
69.757012462616
 21
7.93568611145035E-2
 31
0.0
  0
LINE
  5
   69C
  8
0
  6
CONTINUOUS
 62
   130
 10
69.757012462616
 20
-4.8206431388855
 30
0.0
 11
70.157012462616
 21
-4.8206431388855
 31
0.0
  0
LINE
  5
   69D
  8
0
  6
CONTINUOUS
 62
   130
 10
69.757012462616
 20
7.93568611145035E-2
 30
0.0
 11
70.157012462616
 21
7.93568611145035E-2
 31
0.0
  0
LINE
  5
   69E
  8
0
  6
CONTINUOUS
 62
   130
 10
68.257012462616
 20
-4.3206431388855
 30
0.0
 11
68.257012462616
 21
-0.420643138885497
 31
0.0
  0
LINE
  5
   69F
  8
0
  6
CONTINUOUS
 62
   130
 10
66.4070053100586
 20
-3.3706431388855
 30
0.0
 11
66.4070053100586
 21
-1.3706431388855
 31
0.0
  0
LINE
  5
   6A0
  8
0
  6
CONTINUOUS
 62
   130
 10
66.1570053100586
 20
-3.1206431388855
 30
0.0
 11
66.1570053100586
 21
-1.6206431388855
 31
0.0
  0
LINE
  5
   6A1
  8
0
  6
CONTINUOUS
 62
   130
 10
66.4070053100586
 20
-3.3706431388855
 30
0.0
 11
66.4070053100586
 21
-1.3706431388855
 31
0.0
  0
LINE
  5
   6A2
  8
0
  6
CONTINUOUS
 62
   130
 10
66.4070053100586
 20
-3.3706431388855
 30
0.0
 11
66.4070053100586
 21
-1.3706431388855
 31
0.0
  0
LINE
  5
   6A3
  8
0
  6
CONTINUOUS
 62
   130
 10
66.1570053100586
 20
-3.12064313888551
 30
0.0
 11
66.4070053100586
 21
-3.37064313888551
 31
0.0
  0
LINE
  5
   6A4
  8
0
  6
CONTINUOUS
 62
   130
 10
66.1570053100586
 20
-3.12064313888551
 30
0.0
 11
66.4070053100586
 21
-3.37064313888551
 31
0.0
  0
LINE
  5
   6A5
  8
0
  6
CONTINUOUS
 62
   130
 10
66.1570053100586
 20
-1.62064313888548
 30
0.0
 11
66.4070053100586
 21
-1.37064313888548
 31
0.0
  0
LINE
  5
   6A6
  8
0
  6
CONTINUOUS
 62
   130
 10
66.4070053100586
 20
-3.1206431388855
 30
0.0
 11
68.257012462616
 21
-3.1206431388855
 31
0.0
  0
LINE
  5
   6A7
  8
0
  6
CONTINUOUS
 62
   130
 10
66.4070053100586
 20
-1.6206431388855
 30
0.0
 11
68.257012462616
 21
-1.6206431388855
 31
0.0
  0
LINE
  5
   6A8
  8
0
  6
CONTINUOUS
 62
   130
 10
71.157012462616
 20
-5.37064170837402
 30
0.0
 11
71.157012462616
 21
-3.3706431388855
 31
0.0
  0
LINE
  5
   6A9
  8
0
  6
DASHDOT
 62
   130
 10
91.382097157717
 20
3.53605503291587
 30
0.0
 11
131.522002244539
 21
3.53608726903723
 31
0.0
  0
LINE
  5
   6AA
  8
0
  6
DOT
 62
   130
 10
122.424130554203
 20
29.6810791595034
 30
0.0
 11
122.424130554203
 21
33.1810791595046
 31
0.0
  0
LINE
  5
   6AB
  8
0
  6
DOT
 62
   130
 10
122.424130554203
 20
33.1810791595046
 30
0.0
 11
123.424130152655
 21
33.1810799625984
 31
0.0
  0
LINE
  5
   6AC
  8
0
  6
DOT
 62
   130
 10
122.424130554203
 20
29.6810791595035
 30
0.0
 11
123.42413095575
 21
29.6810799625979
 31
0.0
  0
LINE
  5
   6AD
  8
0
  6
DOT
 62
   130
 10
123.924130554203
 20
30.1810799625977
 30
0.0
 11
123.924130554203
 21
32.6810799625985
 31
0.0
  0
LINE
  5
   6AE
  8
0
  6
DOT
 62
   130
 10
119.674130554203
 20
32.4310769509956
 30
0.0
 11
122.424130554203
 21
32.4310791595044
 31
0.0
  0
LINE
  5
   6AF
  8
0
  6
DOT
 62
   130
 10
119.674130554203
 20
30.4310769509949
 30
0.0
 11
122.424130554203
 21
30.4310791595037
 31
0.0
  0
LINE
  5
   6B0
  8
0
  6
DOT
 62
   130
 10
123.603015934938
 20
31.5205227966276
 30
0.0
 11
123.924130554203
 21
31.6810803641453
 31
0.0
  0
LINE
  5
   6B1
  8
0
  6
DOT
 62
   130
 10
123.603016049867
 20
31.3416373584276
 30
0.0
 11
123.924130554203
 21
31.1810803641451
 31
0.0
  0
ARC
  5
   6B2
  8
0
  6
DOT
 62
   130
 10
123.647737351952
 20
31.43108010626
 30
0.0
 40
0.1
 50
116.565087988197
 51
243.434985634048
  0
ARC
  5
   6B3
  8
0
  6
DOT
 62
   130
 10
123.424130554203
 20
32.6810799625985
 30
0.0
 40
0.5
 50
0.0
 51
90.0000460139031
  0
ARC
  5
   6B4
  8
0
  6
DOT
 62
   130
 10
123.424130554203
 20
30.1810799625977
 30
0.0
 40
0.5
 50
270.000046013903
 51
360.0
  0
LINE
  5
   6B5
  8
0
  6
DOT
 62
   130
 10
118.674172315096
 20
-19.5689230489877
 30
0.0
 11
121.424172315096
 21
-19.5689208404789
 31
0.0
  0
LINE
  5
   6B6
  8
0
  6
DOT
 62
   130
 10
118.67416910272
 20
-17.5689230489896
 30
0.0
 11
121.42416910272
 21
-17.5689208404808
 31
0.0
  0
LINE
  5
   6B7
  8
0
  6
DOT
 62
   130
 10
121.424167898079
 20
-16.8189208471734
 30
0.0
 11
121.424173519737
 21
-20.3189208471711
 31
0.0
  0
LINE
  5
   6B8
  8
0
  6
DOT
 62
   130
 10
122.924168701172
 20
-17.3189192421206
 30
0.0
 11
122.924172716643
 21
-19.818919242119
 31
0.0
  0
LINE
  5
   6B9
  8
0
  6
DOT
 62
   130
 10
121.424173519737
 20
-20.3189208404782
 30
0.0
 11
122.42417311819
 21
-20.3189200373844
 31
0.0
  0
LINE
  5
   6BA
  8
0
  6
DOT
 62
   130
 10
121.424167898079
 20
-16.8189208404816
 30
0.0
 11
122.424168299626
 21
-16.8189200373871
 31
0.0
  0
ARC
  5
   6BB
  8
0
  6
DOT
 62
   130
 10
122.424172716643
 20
-19.8189200373845
 30
0.0
 40
0.5
 50
270.000046013903
 51
360.000092027806
  0
ARC
  5
   6BC
  8
0
  6
DOT
 62
   130
 10
122.424168701173
 20
-17.318920037387
 30
0.0
 40
0.5
 50
9.20278061667574E-5
 51
90.0000460139032
  0
LINE
  5
   6BD
  8
0
  6
DOT
 62
   130
 10
122.603056233305
 20
-18.6583625840915
 30
0.0
 11
122.924171110455
 21
-18.8189196358384
 31
0.0
  0
LINE
  5
   6BE
  8
0
  6
DOT
 62
   130
 10
122.603056060911
 20
-18.4794771458916
 30
0.0
 11
122.924170307361
 21
-18.3189196358389
 31
0.0
  0
ARC
  5
   6BF
  8
0
  6
DOT
 62
   130
 10
122.647777506658
 20
-18.568919821893
 30
0.0
 40
0.1
 50
116.565106393758
 51
243.435004039609
  0
LINE
  5
   6C0
  8
0
  6
DOT
 62
   130
 10
81.8241723150929
 20
-19.5689526430057
 30
0.0
 11
82.1570364017209
 21
-19.5689523756845
 31
0.0
  0
LINE
  5
   6C1
  8
0
  6
DOT
 62
   130
 10
81.8241691027165
 20
-17.5689526430076
 30
0.0
 11
82.1570331893445
 21
-17.5689523756864
 31
0.0
  0
LINE
  5
   6C2
  8
0
  6
DOT
 62
   130
 10
81.8241691027164
 20
-17.5689526379863
 30
0.0
 11
81.8241723150929
 21
-19.568952637985
 31
0.0
  0
LINE
  5
   6C3
  8
0
  6
DOT
 62
   130
 10
81.5741719135459
 20
-19.3189528437795
 30
0.0
 11
81.8241723150929
 21
-19.5689526430057
 31
0.0
  0
LINE
  5
   6C4
  8
0
  6
DOT
 62
   130
 10
81.5741695042636
 20
-17.8189528409813
 30
0.0
 11
81.5741719135459
 21
-19.3189528409804
 31
0.0
  0
LINE
  5
   6C5
  8
0
  6
DOT
 62
   130
 10
81.5741695042636
 20
-17.8189528437808
 30
0.0
 11
81.8241691027165
 21
-17.5689526430076
 31
0.0
  0
LINE
  5
   6C6
  8
0
  6
DOT
 62
   130
 10
82.1570331893445
 20
-17.5689523756864
 30
0.0
 11
124.407028599787
 21
-17.5689184449639
 31
0.0
  0
LINE
  5
   6C7
  8
0
  6
DOT
 62
   130
 10
82.1570364017209
 20
-19.5689523756845
 30
0.0
 11
124.407031812163
 21
-19.568918444962
 31
0.0
  0
LINE
  5
   6C8
  8
0
  6
DOT
 62
   130
 10
80.9923493751187
 20
-18.5689533110374
 30
0.0
 11
133.751997145575
 21
-18.5689109400751
 31
0.0
  0
LINE
  5
   6C9
  8
0
  6
DOT
 62
   130
 10
71.157012462616
 20
-7.3706431388855
 30
0.0
 11
71.157012462616
 21
20.2426867485046
 31
0.0
  0
LINE
  5
   6CA
  8
0
  6
DOT
 62
   130
 10
70.157012462616
 20
-6.3706431388855
 30
0.0
 11
70.157012462616
 21
19.2426867485046
 31
0.0
  0
LINE
  5
   6CB
  8
0
  6
DOT
 62
   130
 10
65.157012462616
 20
20.2426867485046
 30
0.0
 11
71.157012462616
 21
20.2426867485046
 31
0.0
  0
LINE
  5
   6CC
  8
0
  6
DOT
 62
   130
 10
65.157012462616
 20
-7.3706431388855
 30
0.0
 11
71.157012462616
 21
-7.3706431388855
 31
0.0
  0
LINE
  5
   6CD
  8
0
  6
DOT
 62
   130
 10
65.157012462616
 20
19.2426867485046
 30
0.0
 11
70.157012462616
 21
19.2426867485046
 31
0.0
  0
LINE
  5
   6CE
  8
0
  6
DOT
 62
   130
 10
65.157012462616
 20
-6.3706431388855
 30
0.0
 11
70.157012462616
 21
-6.3706431388855
 31
0.0
  0
LINE
  5
   6CF
  8
0
  6
DOT
 62
   130
 10
65.157012462616
 20
19.2426867485046
 30
0.0
 11
65.157012462616
 21
20.2426867485046
 31
0.0
  0
LINE
  5
   6D0
  8
0
  6
DOT
 62
   130
 10
65.157012462616
 20
-7.3706431388855
 30
0.0
 11
65.157012462616
 21
-6.3706431388855
 31
0.0
  0
LINE
  5
   6D1
  8
0
  6
CONTINUOUS
 62
   130
 10
66.4070053100586
 20
14.4926867485046
 30
0.0
 11
68.257012462616
 21
14.4926867485046
 31
0.0
  0
LINE
  5
   6D2
  8
0
  6
CONTINUOUS
 62
   130
 10
66.4070053100586
 20
15.9926867485046
 30
0.0
 11
68.257012462616
 21
15.9926867485046
 31
0.0
  0
LINE
  5
   6D3
  8
0
  6
DOT
 62
   130
 10
66.1570124626158
 20
21.6029459930468
 30
0.0
 11
66.1570124626158
 21
49.6807605172001
 31
0.0
  0
LINE
  5
   6D4
  8
0
  6
DOT
 62
   130
 10
65.1570124626158
 20
21.6374396226834
 30
0.0
 11
65.1570124626158
 21
49.922215924656
 31
0.0
  0
LINE
  5
   6D5
  8
0
  6
DOT
 62
   130
 10
66.1570124626158
 20
-36.808716907581
 30
0.0
 11
66.1570124626158
 21
-8.73090238342771
 31
0.0
  0
LINE
  5
   6D6
  8
0
  6
DOT
 62
   130
 10
65.1570124626158
 20
-37.0501723150369
 30
0.0
 11
65.1570124626158
 21
-8.76539601306426
 31
0.0
  0
LINE
  5
   6D7
  8
0
  6
CONTINUOUS
 62
   130
 10
128.15699005127
 20
12.9360332489014
 30
0.0
 11
128.15699005127
 21
24.4360332489014
 31
0.0
  0
LINE
  5
   6D8
  8
0
  6
DASHDOT
 62
   130
 10
66.1570124626158
 20
47.0905312176589
 30
0.0
 11
66.1570124626158
 21
62.1243222242466
 31
0.0
  0
LINE
  5
   6D9
  8
0
  6
CONTINUOUS
 62
   130
 10
72.3596894326191
 20
39.4360218048095
 30
0.0
 11
80.1570053100586
 21
39.4360218048095
 31
0.0
  0
LINE
  5
   6DA
  8
0
  6
CONTINUOUS
 62
   130
 10
72.6570053100586
 20
39.4360218048095
 30
0.0
 11
72.6570053100586
 21
45.4360218048095
 31
0.0
  0
LINE
  5
   6DB
  8
0
  6
CONTINUOUS
 62
   130
 10
72.3596894326191
 20
45.4360218048095
 30
0.0
 11
73.6570053100586
 21
45.4360218048095
 31
0.0
  0
LINE
  5
   6DC
  8
0
  6
CONTINUOUS
 62
   130
 10
72.6570053100586
 20
43.9360218048095
 30
0.0
 11
73.6570053100586
 21
43.9360218048095
 31
0.0
  0
LINE
  5
   6DD
  8
0
  6
CONTINUOUS
 62
   130
 10
72.6570053100586
 20
40.9360218048095
 30
0.0
 11
73.6570053100586
 21
40.9360218048095
 31
0.0
  0
LINE
  5
   6DE
  8
0
  6
CONTINUOUS
 62
   130
 10
81.4070053100586
 20
38.8610218048095
 30
0.0
 11
81.4070053100586
 21
45.1110218048095
 31
0.0
  0
LINE
  5
   6DF
  8
0
  6
CONTINUOUS
 62
   130
 10
80.1570053100586
 20
38.8610218048095
 30
0.0
 11
80.1570053100586
 21
45.1110218048095
 31
0.0
  0
LINE
  5
   6E0
  8
0
  6
CONTINUOUS
 62
   130
 10
80.1570053100586
 20
45.1110218048095
 30
0.0
 11
81.4070053100586
 21
45.1110218048095
 31
0.0
  0
ARC
  5
   6E1
  8
0
  6
CONTINUOUS
 62
   130
 10
79.1570053100586
 20
38.8610218048095
 30
0.0
 40
1.0
 50
270.0
 51
360.0
  0
ARC
  5
   6E2
  8
0
  6
CONTINUOUS
 62
   130
 10
79.1570053100586
 20
38.8610218048095
 30
0.0
 40
2.25
 50
270.0
 51
360.0
  0
LINE
  5
   6E3
  8
0
  6
DOT
 62
   130
 10
72.6570053100586
 20
-26.5639781951904
 30
0.0
 11
80.1570053100586
 21
-26.5639781951904
 31
0.0
  0
LINE
  5
   6E4
  8
0
  6
DOT
 62
   130
 10
73.6570053100586
 20
-34.5639781951904
 30
0.0
 11
73.6570053100586
 21
-26.5639781951904
 31
0.0
  0
LINE
  5
   6E5
  8
0
  6
DOT
 62
   130
 10
72.6570053100586
 20
-32.5639781951904
 30
0.0
 11
72.6570053100586
 21
-26.5639781951904
 31
0.0
  0
LINE
  5
   6E6
  8
0
  6
DOT
 62
   130
 10
72.6570053100586
 20
-32.5639781951904
 30
0.0
 11
83.4070053100586
 21
-32.5639781951904
 31
0.0
  0
LINE
  5
   6E7
  8
0
  6
DOT
 62
   130
 10
72.6570053100586
 20
-31.0639781951904
 30
0.0
 11
73.6570053100586
 21
-31.0639781951904
 31
0.0
  0
LINE
  5
   6E8
  8
0
  6
DOT
 62
   130
 10
72.6570053100586
 20
-28.0639781951904
 30
0.0
 11
73.6570053100586
 21
-28.0639781951904
 31
0.0
  0
LINE
  5
   6E9
  8
0
  6
DOT
 62
   130
 10
81.4070053100586
 20
-32.2389781951904
 30
0.0
 11
81.4070053100586
 21
-25.9889781951904
 31
0.0
  0
LINE
  5
   6EA
  8
0
  6
DOT
 62
   130
 10
80.1570053100586
 20
-34.5639781951904
 30
0.0
 11
80.1570053100586
 21
-25.9889781951904
 31
0.0
  0
LINE
  5
   6EB
  8
0
  6
DOT
 62
   130
 10
80.1570053100586
 20
-32.2389781951904
 30
0.0
 11
81.4070053100586
 21
-32.2389781951904
 31
0.0
  0
ARC
  5
   6EC
  8
0
  6
DOT
 62
   130
 10
79.1570053100586
 20
-25.9889781951904
 30
0.0
 40
1.0
 50
5.99520433297584E-14
 51
90.0
  0
ARC
  5
   6ED
  8
0
  6
DOT
 62
   130
 10
79.1570053100586
 20
-25.9889781951904
 30
0.0
 40
2.25
 50
5.99520433297584E-14
 51
90.0
  0
LINE
  5
   6EE
  8
0
  6
CONTINUOUS
 62
   130
 10
72.3596894326191
 20
36.4551719420615
 30
0.0
 11
92.1570045789083
 21
36.4551719420615
 31
0.0
  0
LINE
  5
   6EF
  8
0
  6
CONTINUOUS
 62
   130
 10
72.3596894326191
 20
36.4551719420615
 30
0.0
 11
72.3596894326191
 21
47.4360218048096
 31
0.0
  0
LINE
  5
   6F0
  8
0
  6
CONTINUOUS
 62
   130
 10
73.6570053100586
 20
39.4360218048095
 30
0.0
 11
73.6570053100586
 21
46.7351950715322
 31
0.0
  0
LINE
  5
   6F1
  8
0
  6
CONTINUOUS
 62
   130
 10
80.1570053100586
 20
39.4360218048095
 30
0.0
 11
80.1570053100586
 21
46.7351950715322
 31
0.0
  0
LINE
  5
   6F2
  8
0
  6
CONTINUOUS
 62
   130
 10
72.6570053100586
 20
46.7351950715322
 30
0.0
 11
81.1570053100586
 21
46.7351950715322
 31
0.0
  0
LINE
  5
   6F3
  8
0
  6
CONTINUOUS
 62
   130
 10
81.1570053100586
 20
46.7351950715322
 30
0.0
 11
81.1570053100586
 21
55.6609572507121
 31
0.0
  0
LINE
  5
   6F4
  8
0
  6
CONTINUOUS
 62
   130
 10
72.6570053100586
 20
46.7351950715322
 30
0.0
 11
72.6570053100586
 21
55.6609572507121
 31
0.0
  0
LINE
  5
   6F5
  8
0
  6
CONTINUOUS
 62
   130
 10
71.7627038077427
 20
55.6609572507121
 30
0.0
 11
81.86697614061
 21
55.6609572507121
 31
0.0
  0
LINE
  5
   6F6
  8
0
  6
CONTINUOUS
 62
   130
 10
71.7381213013369
 20
-42.7889136410929
 30
0.0
 11
84.2543686608832
 21
-42.7889136410929
 31
0.0
  0
LINE
  5
   6F7
  8
0
  6
CONTINUOUS
 62
   130
 10
72.6570053100586
 20
-42.7889136410929
 30
0.0
 11
72.6570053100586
 21
-34.5639781951904
 31
0.0
  0
LINE
  5
   6F8
  8
0
  6
CONTINUOUS
 62
   130
 10
81.1570053100586
 20
-42.7889136410929
 30
0.0
 11
81.1570053100586
 21
-34.5639781951904
 31
0.0
  0
LINE
  5
   6F9
  8
0
  6
CONTINUOUS
 62
   130
 10
66.6570124626158
 20
26.436014175415
 30
0.0
 11
66.6570124626158
 21
37.436014175415
 31
0.0
  0
LINE
  5
   6FA
  8
0
  6
CONTINUOUS
 62
   130
 10
66.6570124626158
 20
-24.5639705657959
 30
0.0
 11
66.6570124626158
 21
-13.5639703114828
 31
0.0
  0
LINE
  5
   6FB
  8
0
  6
CONTINUOUS
 62
   130
 10
81.875993101143
 20
45.4360218048095
 30
0.0
 11
81.875993101143
 21
47.4360218048096
 31
0.0
  0
LINE
  5
   6FC
  8
0
  6
CONTINUOUS
 62
   130
 10
81.1570053100586
 20
47.4360218048096
 30
0.0
 11
92.1570045789083
 21
47.4360218048096
 31
0.0
  0
LINE
  5
   6FD
  8
0
  6
CONTINUOUS
 62
   130
 10
80.1570053100586
 20
45.4360218048095
 30
0.0
 11
91.1570053100586
 21
45.4360218048095
 31
0.0
  0
LINE
  5
   6FE
  8
0
  6
CONTINUOUS
 62
   130
 10
81.4070053100586
 20
39.4360218048095
 30
0.0
 11
83.4070053100586
 21
39.4360218048095
 31
0.0
  0
LINE
  5
   6FF
  8
0
  6
CONTINUOUS
 62
   130
 10
72.3596894326191
 20
37.8610218048095
 30
0.0
 11
79.1570053100586
 21
37.8610218048095
 31
0.0
  0
INSERT
  5
   700
  8
0
  6
CONTINUOUS
 62
     2
  2
*HATCH127
 10
105.106994628906
 20
-3.71391868591309
 30
0.0
 41
0.5
 42
0.5
 43
0.5
  0
LINE
  5
   701
  8
0
  6
CONTINUOUS
 62
   130
 10
79.1217291296485
 20
39.4360218048095
 30
0.0
 11
80.1570053100586
 21
43.2997251099658
 31
0.0
  0
LINE
  5
   702
  8
0
  6
CONTINUOUS
 62
   130
 10
78.0864529492385
 20
39.4360218048095
 30
0.0
 11
80.0422605314716
 21
46.7351950715322
 31
0.0
  0
LINE
  5
   703
  8
0
  6
CONTINUOUS
 62
   130
 10
77.0511767688284
 20
39.4360218048095
 30
0.0
 11
79.0069843510615
 21
46.7351950715322
 31
0.0
  0
LINE
  5
   704
  8
0
  6
CONTINUOUS
 62
   130
 10
76.0159005884183
 20
39.4360218048095
 30
0.0
 11
77.9717081706515
 21
46.7351950715322
 31
0.0
  0
LINE
  5
   705
  8
0
  6
CONTINUOUS
 62
   130
 10
74.9806244080082
 20
39.4360218048095
 30
0.0
 11
76.9364319902414
 21
46.7351950715321
 31
0.0
  0
LINE
  5
   706
  8
0
  6
CONTINUOUS
 62
   130
 10
73.9453482275982
 20
39.4360218048095
 30
0.0
 11
75.9011558098313
 21
46.7351950715322
 31
0.0
  0
LINE
  5
   707
  8
0
  6
CONTINUOUS
 62
   130
 10
73.6570053100586
 20
42.2236146917057
 30
0.0
 11
74.8658796294212
 21
46.7351950715322
 31
0.0
  0
LINE
  5
   708
  8
0
  6
DASHDOT
 62
   130
 10
128.15699005127
 20
-33.8154148882972
 30
0.0
 11
128.15699005127
 21
50.1549923310963
 31
0.0
  0
LINE
  5
   709
  8
0
  6
CONTINUOUS
 62
   130
 10
91.1570045789084
 20
25.6860256195068
 30
0.0
 11
91.1570045789084
 21
36.4360179901123
 31
0.0
  0
LINE
  5
   70A
  8
0
  6
CONTINUOUS
 62
   130
 10
128.656997799873
 20
-2.42379462331527
 30
0.0
 11
137.254814997731
 21
-5.02190859226597
 31
0.0
  0
LINE
  5
   70B
  8
0
  6
CONTINUOUS
 62
   130
 10
137.254842062955
 20
-5.02191671229447
 30
0.0
 11
137.361928654965
 21
-5.08711863688184
 31
0.0
  0
LINE
  5
   70C
  8
0
  6
CONTINUOUS
 62
   130
 10
137.361909597802
 20
-5.08711161576974
 30
0.0
 11
137.423878658619
 21
-5.19610449526517
 31
0.0
  0
LINE
  5
   70D
  8
0
  6
CONTINUOUS
 62
   130
 10
137.423888973722
 20
-5.19611080771355
 30
0.0
 11
137.425151771938
 21
-5.32148099785623
 31
0.0
  0
LINE
  5
   70E
  8
0
  6
CONTINUOUS
 62
   130
 10
137.060685570293
 20
-6.78911026819701
 30
0.0
 11
137.425147141421
 21
-5.3214768111312
 31
0.0
  0
LINE
  5
   70F
  8
0
  6
CONTINUOUS
 62
   130
 10
136.998056924553
 20
-6.90235118643913
 30
0.0
 11
137.060688651884
 21
-6.78910784979241
 31
0.0
  0
LINE
  5
   710
  8
0
  6
CONTINUOUS
 62
   130
 10
136.887196763556
 20
-6.96911029137398
 30
0.0
 11
136.998060129674
 21
-6.90235512951291
 31
0.0
  0
LINE
  5
   711
  8
0
  6
CONTINUOUS
 62
   130
 10
136.757820697264
 20
-6.97149070088115
 30
0.0
 11
136.887208346601
 21
-6.96911029901801
 31
0.0
  0
LINE
  5
   712
  8
0
  6
CONTINUOUS
 62
   130
 10
128.656997799873
 20
-4.9598364448889
 30
0.0
 11
136.757807885739
 21
-6.97149015563124
 31
0.0
  0
LINE
  5
   713
  8
0
  6
CONTINUOUS
 62
   130
 10
91.1570045789084
 20
-23.5639743804932
 30
0.0
 11
91.1570045789084
 21
-3.16397438049317
 31
0.0
  0
LINE
  5
   714
  8
0
  6
DOT
 62
   130
 10
91.0230297446251
 20
12.1860199571238
 30
0.0
 11
91.1570043563843
 21
12.1860199571238
 31
0.0
  0
LINE
  5
   715
  8
0
  6
CONTINUOUS
 62
   130
 10
91.1570043563843
 20
-22.0639743208303
 30
0.0
 11
91.1570043563843
 21
36.4360179901123
 31
0.0
  0
LINE
  5
   716
  8
0
  6
CONTINUOUS
 62
   130
 10
127.156990170479
 20
-15.0639743804932
 30
0.0
 11
127.156990170479
 21
-10.8139667510986
 31
0.0
  0
LINE
  5
   717
  8
0
  6
CONTINUOUS
 62
   130
 10
127.156990008151
 20
-10.8139667510986
 30
0.0
 11
129.656997799873
 21
-10.8139667510986
 31
0.0
  0
LINE
  5
   718
  8
0
  6
CONTINUOUS
 62
   130
 10
127.156997637546
 20
11.6860332489014
 30
0.0
 11
129.656997799873
 21
11.6860332489014
 31
0.0
  0
LINE
  5
   719
  8
0
  6
CONTINUOUS
 62
   130
 10
127.156997799873
 20
11.6860332489014
 30
0.0
 11
127.156997799873
 21
27.9360256195068
 31
0.0
  0
LINE
  5
   71A
  8
0
  6
CONTINUOUS
 62
   130
 10
129.656997799873
 20
-10.8139667510986
 30
0.0
 11
129.656997799873
 21
11.6860332489014
 31
0.0
  0
LINE
  5
   71B
  8
0
  6
CONTINUOUS
 62
   130
 10
126.656990170479
 20
-16.3139743804932
 30
0.0
 11
126.656990170479
 21
-15.5639743804932
 31
0.0
  0
LINE
  5
   71C
  8
0
  6
CONTINUOUS
 62
   130
 10
123.906990170479
 20
-16.3139743804932
 30
0.0
 11
125.906990170479
 21
-16.3139743804932
 31
0.0
  0
LINE
  5
   71D
  8
0
  6
CONTINUOUS
 62
   130
 10
123.906990170479
 20
-15.5639743804932
 30
0.0
 11
126.656990170479
 21
-15.5639743804932
 31
0.0
  0
LINE
  5
   71E
  8
0
  6
CONTINUOUS
 62
   130
 10
123.906990170479
 20
28.4360256195068
 30
0.0
 11
126.656997799873
 21
28.4360256195068
 31
0.0
  0
LINE
  5
   71F
  8
0
  6
CONTINUOUS
 62
   130
 10
126.656990170479
 20
28.4360256195068
 30
0.0
 11
126.656990170479
 21
29.1860256195068
 31
0.0
  0
LINE
  5
   720
  8
0
  6
CONTINUOUS
 62
   130
 10
123.906990170479
 20
29.1860256195068
 30
0.0
 11
125.906990170479
 21
29.1860256195068
 31
0.0
  0
LINE
  5
   721
  8
0
  6
CONTINUOUS
 62
   130
 10
123.906990170479
 20
28.4360256195068
 30
0.0
 11
123.906990170479
 21
33.9360247797354
 31
0.0
  0
LINE
  5
   722
  8
0
  6
CONTINUOUS
 62
   130
 10
92.1570045789084
 20
34.4360247797354
 30
0.0
 11
123.406990170479
 21
34.4360247797354
 31
0.0
  0
ARC
  5
   723
  8
0
  6
CONTINUOUS
 62
   130
 10
123.406990170479
 20
33.9360247797354
 30
0.0
 40
0.5
 50
0.0
 51
90.0
  0
ARC
  5
   724
  8
0
  6
CONTINUOUS
 62
   130
 10
126.656997799873
 20
27.9360256195068
 30
0.0
 40
0.5
 50
0.0
 51
90.0
  0
LINE
  5
   725
  8
0
  6
CONTINUOUS
 62
   130
 10
123.906990170479
 20
-21.0639735407217
 30
0.0
 11
123.906990170479
 21
-15.5639743804932
 31
0.0
  0
ARC
  5
   726
  8
0
  6
CONTINUOUS
 62
   130
 10
126.656990170479
 20
-15.0639743804932
 30
0.0
 40
0.5
 50
270.0
 51
360.0
  0
LINE
  5
   727
  8
0
  6
CONTINUOUS
 62
   130
 10
91.1570043563843
 20
-21.5639735407217
 30
0.0
 11
123.406990170479
 21
-21.5639735407217
 31
0.0
  0
LINE
  5
   728
  8
0
  6
CONTINUOUS
 62
   130
 10
125.156997799873
 20
29.1860256195068
 30
0.0
 11
127.156997799873
 21
29.1860256195068
 31
0.0
  0
LINE
  5
   729
  8
0
  6
CONTINUOUS
 62
   130
 10
125.156997799873
 20
-16.3139743804932
 30
0.0
 11
127.156997799873
 21
-16.3139743804932
 31
0.0
  0
LINE
  5
   72A
  8
0
  6
CONTINUOUS
 62
   130
 10
114.906994669053
 20
-22.5639820098877
 30
0.0
 11
114.906994669053
 21
35.4360256195068
 31
0.0
  0
ARC
  5
   72B
  8
0
  6
CONTINUOUS
 62
   130
 10
123.406990170479
 20
-21.0639735407217
 30
0.0
 40
0.5
 50
270.0
 51
360.0
  0
LINE
  5
   72C
  8
0
  6
CONTINUOUS
 62
   130
 10
92.1570045789083
 20
-25.1027682087615
 30
0.0
 11
92.1570045789083
 21
37.9360218048096
 31
0.0
  0
LINE
  5
   72D
  8
0
  6
CONTINUOUS
 62
   130
 10
92.1570045789083
 20
37.4360256195068
 30
0.0
 11
95.1570053100586
 21
37.4360256195068
 31
0.0
  0
LINE
  5
   72E
  8
0
  6
CONTINUOUS
 62
   130
 10
92.1570045789083
 20
37.4360256195068
 30
0.0
 11
126.656997799873
 21
37.4360256195068
 31
0.0
  0
LINE
  5
   72F
  8
0
  6
CONTINUOUS
 62
   130
 10
127.156997799873
 20
29.1860256195068
 30
0.0
 11
127.156997799873
 21
36.9360256195068
 31
0.0
  0
ARC
  5
   730
  8
0
  6
CONTINUOUS
 62
   130
 10
126.656997799873
 20
36.9360256195068
 30
0.0
 40
0.5
 50
0.0
 51
90.0
  0
LINE
  5
   731
  8
0
  6
CONTINUOUS
 62
   130
 10
92.1570045789083
 20
35.4360256195068
 30
0.0
 11
125.156997799873
 21
35.4360256195068
 31
0.0
  0
LINE
  5
   732
  8
0
  6
CONTINUOUS
 62
   130
 10
125.156997799873
 20
29.1860256195068
 30
0.0
 11
125.156997799873
 21
35.4360256195068
 31
0.0
  0
LINE
  5
   733
  8
0
  6
CONTINUOUS
 62
   130
 10
92.1570045789083
 20
-24.5639820098877
 30
0.0
 11
126.656997799873
 21
-24.5639820098877
 31
0.0
  0
ARC
  5
   734
  8
0
  6
CONTINUOUS
 62
   130
 10
126.656997799873
 20
-24.0639820098877
 30
0.0
 40
0.5
 50
270.0
 51
360.0
  0
LINE
  5
   735
  8
0
  6
CONTINUOUS
 62
   130
 10
127.156997799873
 20
-24.0639820098877
 30
0.0
 11
127.156997799873
 21
-16.3139820098877
 31
0.0
  0
LINE
  5
   736
  8
0
  6
CONTINUOUS
 62
   130
 10
125.156997799873
 20
-22.5639820098877
 30
0.0
 11
125.156997799873
 21
-16.3139820098877
 31
0.0
  0
LINE
  5
   737
  8
0
  6
CONTINUOUS
 62
   130
 10
92.1570045789083
 20
-22.5639820098877
 30
0.0
 11
125.156997799873
 21
-22.5639820098877
 31
0.0
  0
LINE
  5
   738
  8
0
  6
DASHDOT
 62
   130
 10
57.0740266745836
 20
0.436033248901392
 30
0.0
 11
149.569894815796
 21
0.436033248901392
 31
0.0
  0
LINE
  5
   739
  8
0
  6
DASHDOT
 62
   130
 10
118.300685731241
 20
31.4310758479898
 30
0.0
 11
125.399429369472
 21
31.431081548949
 31
0.0
  0
LINE
  5
   73A
  8
0
  6
CONTINUOUS
 62
   130
 10
129.65699005127
 20
-23.5639667510986
 30
0.0
 11
129.65699005127
 21
-10.8139667510986
 31
0.0
  0
LINE
  5
   73B
  8
0
  6
CONTINUOUS
 62
   130
 10
127.40699005127
 20
12.1860332489014
 30
0.0
 11
128.15699005127
 21
12.1860332489014
 31
0.0
  0
LINE
  5
   73C
  8
0
  6
CONTINUOUS
 62
   130
 10
127.40699005127
 20
12.9360332489014
 30
0.0
 11
128.15699005127
 21
12.9360332489014
 31
0.0
  0
LINE
  5
   73D
  8
0
  6
CONTINUOUS
 62
   130
 10
127.40699005127
 20
12.1860332489014
 30
0.0
 11
127.40699005127
 21
12.9360332489014
 31
0.0
  0
LINE
  5
   73E
  8
0
  6
CONTINUOUS
 62
   130
 10
128.15699005127
 20
24.4360332489014
 30
0.0
 11
129.65699005127
 21
24.4360332489014
 31
0.0
  0
LINE
  5
   73F
  8
0
  6
CONTINUOUS
 62
   130
 10
128.15699005127
 20
-23.5639667510986
 30
0.0
 11
129.65699005127
 21
-23.5639667510986
 31
0.0
  0
LINE
  5
   740
  8
0
  6
CONTINUOUS
 62
   130
 10
128.15699005127
 20
-23.5639667510986
 30
0.0
 11
128.15699005127
 21
-12.0639667510986
 31
0.0
  0
LINE
  5
   741
  8
0
  6
CONTINUOUS
 62
   130
 10
127.40699005127
 20
-12.0639667510986
 30
0.0
 11
128.15699005127
 21
-12.0639667510986
 31
0.0
  0
LINE
  5
   742
  8
0
  6
CONTINUOUS
 62
   130
 10
127.40699005127
 20
-12.0639667510986
 30
0.0
 11
127.40699005127
 21
-11.3139667510986
 31
0.0
  0
LINE
  5
   743
  8
0
  6
DOT
 62
   130
 10
128.15699005127
 20
-10.8139667510986
 30
0.0
 11
128.15699005127
 21
11.6860332489014
 31
0.0
  0
LINE
  5
   744
  8
0
  6
CONTINUOUS
 62
   130
 10
129.65699005127
 20
11.6860332489014
 30
0.0
 11
129.65699005127
 21
24.4360332489014
 31
0.0
  0
LINE
  5
   745
  8
0
  6
CONTINUOUS
 62
   130
 10
127.15699005127
 20
17.1860332489014
 30
0.0
 11
128.15699005127
 21
17.1860332489014
 31
0.0
  0
LINE
  5
   746
  8
0
  6
CONTINUOUS
 62
   130
 10
127.15699005127
 20
15.6860332489014
 30
0.0
 11
128.15699005127
 21
15.6860332489014
 31
0.0
  0
LINE
  5
   747
  8
0
  6
CONTINUOUS
 62
   130
 10
127.15699005127
 20
15.3110332489014
 30
0.0
 11
127.15699005127
 21
17.5610332489014
 31
0.0
  0
LINE
  5
   748
  8
0
  6
DOT
 62
   130
 10
126.15699005127
 20
16.886524732059
 30
0.0
 11
127.15699005127
 21
17.5610332489014
 31
0.0
  0
LINE
  5
   749
  8
0
  6
DOT
 62
   130
 10
126.15699005127
 20
15.9855417657438
 30
0.0
 11
127.15699005127
 21
15.3110332489014
 31
0.0
  0
LINE
  5
   74A
  8
0
  6
DOT
 62
   130
 10
126.15699005127
 20
15.9855417657438
 30
0.0
 11
126.15699005127
 21
16.886524732059
 31
0.0
  0
LINE
  5
   74B
  8
0
  6
DOT
 62
   130
 10
126.15699005127
 20
-16.0144582342562
 30
0.0
 11
127.15699005127
 21
-16.6889667510986
 31
0.0
  0
LINE
  5
   74C
  8
0
  6
DOT
 62
   130
 10
126.15699005127
 20
-16.0144582342562
 30
0.0
 11
126.15699005127
 21
-15.113475267941
 31
0.0
  0
LINE
  5
   74D
  8
0
  6
DOT
 62
   130
 10
126.15699005127
 20
-15.113475267941
 30
0.0
 11
127.15699005127
 21
-14.4389667510986
 31
0.0
  0
LINE
  5
   74E
  8
0
  6
CONTINUOUS
 62
   130
 10
127.15699005127
 20
-16.6889667510986
 30
0.0
 11
127.15699005127
 21
-14.4389667510986
 31
0.0
  0
LINE
  5
   74F
  8
0
  6
CONTINUOUS
 62
   130
 10
127.15699005127
 20
-16.3139667510986
 30
0.0
 11
128.15699005127
 21
-16.3139667510986
 31
0.0
  0
LINE
  5
   750
  8
0
  6
CONTINUOUS
 62
   130
 10
127.15699005127
 20
-14.8139667510986
 30
0.0
 11
128.15699005127
 21
-14.8139667510986
 31
0.0
  0
LINE
  5
   751
  8
0
  6
CONTINUOUS
 62
   130
 10
128.15699005127
 20
12.1860332489014
 30
0.0
 11
129.65699005127
 21
12.1860332489014
 31
0.0
  0
LINE
  5
   752
  8
0
  6
CONTINUOUS
 62
   130
 10
127.40699005127
 20
-11.3139667510986
 30
0.0
 11
129.65699005127
 21
-11.3139667510986
 31
0.0
  0
INSERT
  5
   753
  8
0
  6
CONTINUOUS
 62
     2
  2
*HATCH128
 10
105.106994628906
 20
-3.71391868591309
 30
0.0
 41
0.5
 42
0.5
 43
0.5
  0
INSERT
  5
   754
  8
0
  6
CONTINUOUS
 62
     2
  2
*HATCH129
 10
105.106994628906
 20
-3.71391868591309
 30
0.0
 41
0.5
 42
0.5
 43
0.5
  0
LINE
  5
   755
  8
0
  6
DASHDOT
 62
   130
 10
127.40699005127
 20
-34.0815508018459
 30
0.0
 11
127.40699005127
 21
50.4166017498791
 31
0.0
  0
LINE
  5
   756
  8
0
  6
DASHDOT
 62
   130
 10
137.657004578908
 20
-8.10842760200937
 30
0.0
 11
137.657004578908
 21
-4.38428529295736
 31
0.0
  0
LINE
  5
   757
  8
0
  6
CONTINUOUS
 62
   130
 10
126.906997799873
 20
37.1860256195068
 30
0.0
 11
128.656997799873
 21
37.1860256195068
 31
0.0
  0
LINE
  5
   758
  8
0
  6
CONTINUOUS
 62
   130
 10
126.906997799873
 20
34.6860256195068
 30
0.0
 11
128.656997799873
 21
34.6860256195068
 31
0.0
  0
LINE
  5
   759
  8
0
  6
CONTINUOUS
 62
   130
 10
128.906997799873
 20
34.9360256195068
 30
0.0
 11
128.906997799873
 21
36.9360256195068
 31
0.0
  0
CIRCLE
  5
   75A
  8
0
  6
CONTINUOUS
 62
   130
 10
127.906997799873
 20
35.9360256195068
 30
0.0
 40
0.375
  0
LINE
  5
   75B
  8
0
  6
CONTINUOUS
 62
   130
 10
128.656997799873
 20
37.1860256195068
 30
0.0
 11
128.906997799873
 21
36.9360256195068
 31
0.0
  0
LINE
  5
   75C
  8
0
  6
CONTINUOUS
 62
   130
 10
128.656997799873
 20
34.6860256195068
 30
0.0
 11
128.906997799873
 21
34.9360256195068
 31
0.0
  0
LINE
  5
   75D
  8
0
  6
CONTINUOUS
 62
   130
 10
128.656997799873
 20
34.6860256195068
 30
0.0
 11
128.656997799873
 21
37.1860256195068
 31
0.0
  0
LINE
  5
   75E
  8
0
  6
CONTINUOUS
 62
   130
 10
126.906997799873
 20
-24.3139743804932
 30
0.0
 11
128.656997799873
 21
-24.3139743804932
 31
0.0
  0
LINE
  5
   75F
  8
0
  6
CONTINUOUS
 62
   130
 10
128.656997799873
 20
-24.3139743804932
 30
0.0
 11
128.656997799873
 21
-21.8139743804932
 31
0.0
  0
LINE
  5
   760
  8
0
  6
CONTINUOUS
 62
   130
 10
126.906997799873
 20
-21.8139743804932
 30
0.0
 11
128.656997799873
 21
-21.8139743804932
 31
0.0
  0
LINE
  5
   761
  8
0
  6
CONTINUOUS
 62
   130
 10
128.656997799873
 20
-24.3139743804932
 30
0.0
 11
128.906997799873
 21
-24.0639743804932
 31
0.0
  0
LINE
  5
   762
  8
0
  6
CONTINUOUS
 62
   130
 10
128.906997799873
 20
-24.0639743804932
 30
0.0
 11
128.906997799873
 21
-22.0639743804932
 31
0.0
  0
LINE
  5
   763
  8
0
  6
CONTINUOUS
 62
   130
 10
128.656997799873
 20
-21.8139743804932
 30
0.0
 11
128.906997799873
 21
-22.0639743804932
 31
0.0
  0
CIRCLE
  5
   764
  8
0
  6
CONTINUOUS
 62
   130
 10
127.906997799873
 20
-23.0639743804932
 30
0.0
 40
0.375
  0
CIRCLE
  5
   765
  8
0
  6
CONTINUOUS
 62
   130
 10
132.533554309062
 20
71.0403053541529
 30
0.0
 40
1.0
  0
CIRCLE
  5
   766
  8
0
  6
CONTINUOUS
 62
   130
 10
87.4834946102686
 20
74.5112454659751
 30
0.0
 40
1.0
  0
INSERT
  5
   767
  8
0
  6
CONTINUOUS
 62
     2
  2
*HATCH130
 10
105.106994628906
 20
-3.71391868591309
 30
0.0
 41
0.5
 42
0.5
 43
0.5
  0
INSERT
  5
   768
  8
0
  6
CONTINUOUS
 62
     2
  2
*HATCH131
 10
105.106994628906
 20
-3.71391868591309
 30
0.0
 41
0.5
 42
0.5
 43
0.5
  0
LINE
  5
   769
  8
0
  6
CONTINUOUS
 62
   130
 10
91.1570053100586
 20
45.228779699542
 30
0.0
 11
91.1570053100586
 21
47.4360218048096
 31
0.0
  0
INSERT
  5
   76A
  8
0
  6
CONTINUOUS
 62
     3
  2
*UDIM323
 10
0.0
 20
0.0
 30
0.0
  0
TEXT
  5
   76B
  8
0
  6
CONTINUOUS
 62
     2
 10
150.83629202485
 20
-1.26392736265178
 30
0.0
 40
3.00000002980232
  1
X
 41
0.983333351877
 11
150.83629202485
 21
0.236072652249376
 31
0.0
 73
     2
  0
LINE
  5
   76C
  8
0
  6
DOT
 62
   130
 10
91.1570053100586
 20
39.6432639100771
 30
0.0
 11
91.1570053100586
 21
45.228779699542
 31
0.0
  0
INSERT
  5
   76D
  8
0
  6
CONTINUOUS
 62
     3
  2
*UDIM324
 10
0.0
 20
0.0
 30
0.0
  0
TEXT
  5
   76E
  8
0
  6
CONTINUOUS
 62
     2
 10
135.349182128906
 20
71.5403079539538
 30
0.0
 40
2.00000008940697
  1
127mm.CON VITI SIGILLABILI
 41
0.75
 11
135.349182128906
 21
72.5403079986572
 31
0.0
 73
     2
  0
TEXT
  5
   76F
  8
0
  6
CONTINUOUS
 62
     2
 10
135.349182128906
 20
68.5403079539537
 30
0.0
 40
2.00000008940697
  1
127mm.WITH SCREWS TO SEAL
 41
0.75
 11
135.349182128906
 21
69.5403079986572
 31
0.0
 73
     2
  0
TEXT
  5
   770
  8
0
  6
CONTINUOUS
 62
     2
 10
56.2937743365765
 20
-1.06439210474491
 30
0.0
 40
3.00000002980232
  1
X
 41
0.983333351877
 72
     2
 11
58.4937744140625
 21
0.43560791015625
 31
0.0
 73
     2
  0
INSERT
  5
   771
  8
0
  6
CONTINUOUS
 62
     3
  2
*UDIM325
 10
0.0
 20
0.0
 30
0.0
  0
INSERT
  5
   772
  8
0
  6
CONTINUOUS
 62
     3
  2
*UDIM326
 10
0.0
 20
0.0
 30
0.0
  0
INSERT
  5
   773
  8
0
  6
CONTINUOUS
 62
     3
  2
*UDIM327
 10
0.0
 20
0.0
 30
0.0
  0
INSERT
  5
   774
  8
0
  6
CONTINUOUS
 62
     3
  2
*UDIM328
 10
0.0
 20
0.0
 30
0.0
  0
INSERT
  5
   775
  8
0
  6
CONTINUOUS
 62
     3
  2
*UDIM329
 10
0.0
 20
0.0
 30
0.0
  0
INSERT
  5
   776
  8
0
  6
CONTINUOUS
 62
     7
  2
*UDIM330
 10
0.0
 20
0.0
 30
0.0
  0
INSERT
  5
   777
  8
0
  6
CONTINUOUS
 62
     7
  2
*UDIM331
 10
0.0
 20
0.0
 30
0.0
  0
INSERT
  5
   778
  8
0
  6
CONTINUOUS
 62
     7
  2
*UDIM332
 10
0.0
 20
0.0
 30
0.0
  0
INSERT
  5
   779
  8
0
  6
CONTINUOUS
 62
     7
  2
*UDIM333
 10
0.0
 20
0.0
 30
0.0
  0
TEXT
  5
   77A
  8
0
  6
CONTINUOUS
 62
     2
 10
139.405317139952
 20
49.6509856482024
 30
0.0
 40
3.5
  1
:
 41
0.933333333333334
 72
     1
 11
140.688650473285
 21
51.4009856482024
 31
0.0
 73
     2
  0
ENDSEC
  0
EOF
