  0
SECTION
  2
HEADER
  9
$ACADVER
  1
AC1009
  9
$INSBASE
 10
0.0
 20
0.0
 30
0.0
  9
$EXTMIN
 10
0.236802
 20
0.237701
 30
0.0
  9
$EXTMAX
 10
392.236802
 20
262.737701
 30
0.0
  9
$LIMMIN
 10
0.0
 20
0.0
  9
$LIMMAX
 10
12.0
 20
9.0
  9
$ORTHOMODE
 70
     1
  9
$REGENMODE
 70
     1
  9
$FILLMODE
 70
     1
  9
$QTEXTMODE
 70
     0
  9
$MIRRTEXT
 70
     1
  9
$DRAGMODE
 70
     2
  9
$LTSCALE
 40
5.0
  9
$OSMODE
 70
     0
  9
$ATTMODE
 70
     1
  9
$TEXTSIZE
 40
2.0
  9
$TRACEWID
 40
0.05
  9
$TEXTSTYLE
  7
ROMANS
  9
$CLAYER
  8
0
  9
$CELTYPE
  6
CONTINUOUS
  9
$CECOLOR
 62
   256
  9
$DIMSCALE
 40
1.0
  9
$DIMASZ
 40
0.18
  9
$DIMEXO
 40
0.0625
  9
$DIMDLI
 40
0.38
  9
$DIMRND
 40
0.0
  9
$DIMDLE
 40
0.0
  9
$DIMEXE
 40
0.18
  9
$DIMTP
 40
0.0
  9
$DIMTM
 40
0.0
  9
$DIMTXT
 40
0.18
  9
$DIMCEN
 40
0.09
  9
$DIMTSZ
 40
0.0
  9
$DIMTOL
 70
     0
  9
$DIMLIM
 70
     0
  9
$DIMTIH
 70
     1
  9
$DIMTOH
 70
     1
  9
$DIMSE1
 70
     0
  9
$DIMSE2
 70
     0
  9
$DIMTAD
 70
     0
  9
$DIMZIN
 70
     0
  9
$DIMBLK
  1

  9
$DIMASO
 70
     1
  9
$DIMSHO
 70
     1
  9
$DIMPOST
  1

  9
$DIMAPOST
  1

  9
$DIMALT
 70
     0
  9
$DIMALTD
 70
     2
  9
$DIMALTF
 40
25.4
  9
$DIMLFAC
 40
1.0
  9
$DIMTOFL
 70
     0
  9
$DIMTVP
 40
0.0
  9
$DIMTIX
 70
     0
  9
$DIMSOXD
 70
     0
  9
$DIMSAH
 70
     0
  9
$DIMBLK1
  1

  9
$DIMBLK2
  1

  9
$DIMSTYLE
  2
*UNNAMED
  9
$DIMCLRD
 70
     0
  9
$DIMCLRE
 70
     0
  9
$DIMCLRT
 70
     0
  9
$DIMTFAC
 40
1.0
  9
$DIMGAP
 40
0.09
  9
$LUNITS
 70
     2
  9
$LUPREC
 70
     4
  9
$SKETCHINC
 40
0.1
  9
$FILLETRAD
 40
1.5
  9
$AUNITS
 70
     0
  9
$AUPREC
 70
     0
  9
$MENU
  1
acad
  9
$ELEVATION
 40
0.0
  9
$PELEVATION
 40
0.0
  9
$THICKNESS
 40
0.0
  9
$LIMCHECK
 70
     0
  9
$BLIPMODE
 70
     1
  9
$CHAMFERA
 40
0.0
  9
$CHAMFERB
 40
0.0
  9
$SKPOLY
 70
     0
  9
$TDCREATE
 40
2449065.509616319
  9
$TDUPDATE
 40
2449162.526273842
  9
$TDINDWG
 40
0.0090817130
  9
$TDUSRTIMER
 40
0.0090817130
  9
$USRTIMER
 70
     1
  9
$ANGBASE
 50
0.0
  9
$ANGDIR
 70
     0
  9
$PDMODE
 70
     0
  9
$PDSIZE
 40
0.0
  9
$PLINEWID
 40
0.0
  9
$COORDS
 70
     2
  9
$SPLFRAME
 70
     0
  9
$SPLINETYPE
 70
     6
  9
$SPLINESEGS
 70
     8
  9
$ATTDIA
 70
     0
  9
$ATTREQ
 70
     1
  9
$HANDLING
 70
     0
  9
$HANDSEED
  5
0
  9
$SURFTAB1
 70
   100
  9
$SURFTAB2
 70
   100
  9
$SURFTYPE
 70
     6
  9
$SURFU
 70
     6
  9
$SURFV
 70
     6
  9
$UCSNAME
  2

  9
$UCSORG
 10
0.0
 20
0.0
 30
0.0
  9
$UCSXDIR
 10
1.0
 20
0.0
 30
0.0
  9
$UCSYDIR
 10
0.0
 20
1.0
 30
0.0
  9
$PUCSNAME
  2

  9
$PUCSORG
 10
0.0
 20
0.0
 30
0.0
  9
$PUCSXDIR
 10
1.0
 20
0.0
 30
0.0
  9
$PUCSYDIR
 10
0.0
 20
1.0
 30
0.0
  9
$USERI1
 70
     0
  9
$USERI2
 70
     0
  9
$USERI3
 70
     0
  9
$USERI4
 70
     0
  9
$USERI5
 70
     0
  9
$USERR1
 40
0.0
  9
$USERR2
 40
0.0
  9
$USERR3
 40
0.0
  9
$USERR4
 40
0.0
  9
$USERR5
 40
0.0
  9
$WORLDVIEW
 70
     1
  9
$SHADEDGE
 70
     3
  9
$SHADEDIF
 70
    70
  9
$TILEMODE
 70
     1
  9
$MAXACTVP
 70
    16
  9
$PINSBASE
 10
0.0
 20
0.0
 30
0.0
  9
$PLIMCHECK
 70
     0
  9
$PEXTMIN
 10
1.000000E+20
 20
1.000000E+20
 30
1.000000E+20
  9
$PEXTMAX
 10
-1.000000E+20
 20
-1.000000E+20
 30
-1.000000E+20
  9
$PLIMMIN
 10
0.0
 20
0.0
  9
$PLIMMAX
 10
12.0
 20
9.0
  9
$UNITMODE
 70
     0
  9
$VISRETAIN
 70
     0
  9
$PLINEGEN
 70
     0
  9
$PSLTSCALE
 70
     0
  9
$TREEDEPTH
 70
  3020
  9
$DWGCODEPAGE
  3
undefined
  0
ENDSEC
  0
SECTION
  2
TABLES
  0
TABLE
  2
VPORT
 70
     2
  0
VPORT
  2
*ACTIVE
 70
     0
 10
0.0
 20
0.0
 11
1.0
 21
1.0
 12
222.522675
 22
142.040378
 13
0.0
 23
0.0
 14
2.5
 24
2.5
 15
0.0
 25
0.0
 16
0.0
 26
0.0
 36
1.0
 17
0.0
 27
0.0
 37
0.0
 40
284.080756
 41
1.566616
 42
50.0
 43
0.0
 44
0.0
 50
0.0
 51
0.0
 71
     0
 72
   100
 73
     1
 74
     1
 75
     1
 76
     0
 77
     0
 78
     0
  0
ENDTAB
  0
TABLE
  2
LTYPE
 70
     4
  0
LTYPE
  2
CONTINUOUS
 70
    64
  3
Solid line
 72
    65
 73
     0
 40
0.0
  0
LTYPE
  2
DASHED
 70
    64
  3
__ __ __ __ __ __ __ __ __ __ __ __ __ __ __ __
 72
    65
 73
     2
 40
0.75
 49
0.5
 49
-0.25
  0
LTYPE
  2
CENTER
 70
    64
  3
____ _ ____ _ ____ _ ____ _ ____ _ ____ _ ____ 
 72
    65
 73
     4
 40
2.0
 49
1.25
 49
-0.25
 49
0.25
 49
-0.25
  0
LTYPE
  2
HIDDEN
 70
    64
  3
__ __ __ __ __ __ __ __ __ __ __ __ __ __ __ __
 72
    65
 73
     2
 40
0.375
 49
0.25
 49
-0.125
  0
ENDTAB
  0
TABLE
  2
LAYER
 70
    14
  0
LAYER
  2
0
 70
    64
 62
     7
  6
CONTINUOUS
  0
LAYER
  2
RAAMI
 70
    64
 62
    -4
  6
CONTINUOUS
  0
LAYER
  2
PAKSU
 70
    64
 62
    -3
  6
CONTINUOUS
  0
LAYER
  2
OHUT
 70
    64
 62
    -6
  6
CONTINUOUS
  0
LAYER
  2
SWEDEN
 70
    64
 62
    -7
  6
CONTINUOUS
  0
LAYER
  2
SWEDEN2
 70
    64
 62
    -5
  6
CONTINUOUS
  0
LAYER
  2
BASE
 70
    64
 62
    -7
  6
CONTINUOUS
  0
LAYER
  2
21
 70
    64
 62
    -2
  6
CONTINUOUS
  0
LAYER
  2
HEL035
 70
    64
 62
    -7
  6
CONTINUOUS
  0
LAYER
  2
MUO
 70
    64
 62
    -7
  6
CONTINUOUS
  0
LAYER
  2
1
 70
    64
 62
    -2
  6
CONTINUOUS
  0
LAYER
  2
BASE1
 70
    64
 62
    -5
  6
CONTINUOUS
  0
LAYER
  2
TEKS
 70
    64
 62
    -5
  6
CONTINUOUS
  0
LAYER
  2
DEFPOINTS
 70
    64
 62
    -7
  6
CONTINUOUS
  0
ENDTAB
  0
TABLE
  2
STYLE
 70
     4
  0
STYLE
  2
STANDARD
 70
    64
 40
0.0
 41
1.0
 50
0.0
 71
     0
 42
2.0
  3
txt
  4

  0
STYLE
  2
ROMANS
 70
    64
 40
0.0
 41
1.0
 50
0.0
 71
     0
 42
2.0
  3
romans
  4

  0
STYLE
  2
GREEKS
 70
    64
 40
0.0
 41
1.0
 50
0.0
 71
     0
 42
2.5
  3
TXT
  4

  0
STYLE
  2
STAND
 70
    64
 40
0.0
 41
1.0
 50
0.0
 71
     0
 42
2.0
  3
TXT
  4

  0
ENDTAB
  0
TABLE
  2
VIEW
 70
     0
  0
ENDTAB
  0
TABLE
  2
UCS
 70
     0
  0
ENDTAB
  0
TABLE
  2
APPID
 70
     1
  0
APPID
  2
ACAD
 70
    64
  0
ENDTAB
  0
TABLE
  2
DIMSTYLE
 70
     0
  0
ENDTAB
  0
ENDSEC
  0
SECTION
  2
BLOCKS
  0
BLOCK
  8
0
  2
1
 70
    64
 10
0.0
 20
0.0
 30
0.0
  3
1
  0
ENDBLK
  8
0
  0
BLOCK
  8
0
  2
BLC27
 70
    64
 10
0.0
 20
0.0
 30
0.0
  3
BLC27
  0
INSERT
  8
SWEDEN2
  6
CENTER
  2
BLC26
 10
0.08063
 20
0.037985
 30
0.0
 41
1.006225
 42
1.006225
 43
1.006225
  0
ENDBLK
  8
0
  0
BLOCK
  8
0
  2
BLC26
 70
    64
 10
0.0
 20
0.0
 30
0.0
  3
BLC26
  0
ARC
  8
0
  6
CONTINUOUS
 10
-0.180576
 20
1.17922
 30
0.0
 40
1.196859
 50
90.0
 51
265.706237
  0
LINE
  8
0
  6
CONTINUOUS
 10
-0.186638
 20
-0.01092
 30
0.0
 11
0.458942
 21
-0.01092
 31
0.0
  0
LINE
  8
0
  6
CONTINUOUS
 10
-0.186638
 20
2.375671
 30
0.0
 11
0.45288
 21
2.375671
 31
0.0
  0
LINE
  8
0
  6
CONTINUOUS
 10
-0.185509
 20
-2.404629
 30
0.0
 11
0.460071
 21
-2.404629
 31
0.0
  0
ARC
  8
0
  6
CONTINUOUS
 10
-0.180576
 20
-1.207779
 30
0.0
 40
1.196859
 50
90.0
 51
270.0
  0
LINE
  8
0
  6
CONTINUOUS
 10
0.451525
 20
-2.404586
 30
0.0
 11
1.401805
 21
-2.404586
 31
0.0
  0
LINE
  8
0
  6
CONTINUOUS
 10
0.446785
 20
2.375674
 30
0.0
 11
1.418544
 21
2.375674
 31
0.0
  0
LINE
  8
0
  6
CONTINUOUS
 10
0.456627
 20
-0.010911
 30
0.0
 11
1.422749
 21
-0.010911
 31
0.0
  0
ENDBLK
  8
0
  0
BLOCK
  8
0
  2
BLC29
 70
    64
 10
0.0
 20
0.0
 30
0.0
  3
BLC29
  0
LINE
  8
0
  6
CONTINUOUS
 10
0.004865
 20
1.206889
 30
0.0
 11
2.350631
 21
-0.128465
 31
0.0
  0
LINE
  8
0
  6
CONTINUOUS
 10
2.350631
 20
-0.128465
 30
0.0
 11
0.004865
 21
-1.318384
 31
0.0
  0
ENDBLK
  8
0
  0
BLOCK
  8
0
  2
WKU130
 70
    64
 10
190.0
 20
250.0
 30
0.0
  3
WKU130
  0
ARC
  8
21
 10
191.083333
 20
249.916667
 30
0.0
 40
1.086534
 50
32.471192
 51
175.601295
  0
ARC
  8
21
 10
192.916667
 20
251.083333
 30
0.0
 40
1.086534
 50
212.471192
 51
355.601295
  0
ENDBLK
  8
0
  0
BLOCK
  8
0
  2
BLC15
 70
    64
 10
0.0
 20
0.0
 30
0.0
  3
BLC15
  0
LINE
  8
0
  6
CONTINUOUS
 10
0.142084
 20
3.490022
 30
0.0
 11
0.142084
 21
0.844365
 31
0.0
  0
LINE
  8
0
  6
CONTINUOUS
 10
-0.461611
 20
-0.937188
 30
0.0
 11
0.745779
 21
-0.937188
 31
0.0
  0
LINE
  8
0
  6
CONTINUOUS
 10
-0.894108
 20
-0.049675
 30
0.0
 11
1.169267
 21
-0.049675
 31
0.0
  0
LINE
  8
0
  6
CONTINUOUS
 10
-1.389679
 20
0.844365
 30
0.0
 11
1.673848
 21
0.844365
 31
0.0
  0
ENDBLK
  8
0
  0
BLOCK
  8
0
  2
BLC55
 70
    64
 10
0.0
 20
0.0
 30
0.0
  3
BLC55
  0
INSERT
  8
SWEDEN
  6
CENTER
  2
BLC5
 10
0.087066
 20
-0.756831
 30
0.0
 41
0.6
 42
0.6
 43
0.6
  0
ENDBLK
  8
0
  0
BLOCK
  8
0
  2
BLC5
 70
    64
 10
0.0
 20
0.0
 30
0.0
  3
BLC5
  0
TEXT
  8
0
 10
-3.043704
 20
-6.645912
 30
0.0
 40
3.2
  1
PE
  0
LINE
  8
0
 10
-2.946392
 20
1.181176
 30
0.0
 11
2.135458
 21
1.181176
 31
0.0
  0
LINE
  8
0
 10
-0.48656
 20
2.238362
 30
0.0
 11
-0.48656
 21
6.930438
 31
0.0
  0
LINE
  8
0
 10
-1.973271
 20
0.065258
 30
0.0
 11
1.225411
 21
0.065258
 31
0.0
  0
LINE
  8
0
 10
2.685091
 20
2.238362
 30
0.0
 11
1.68494
 21
2.238362
 31
0.0
  0
LINE
  8
0
 10
-3.505035
 20
2.238362
 30
0.0
 11
2.649049
 21
2.238362
 31
0.0
  0
CIRCLE
  8
0
 10
-0.47755
 20
1.422632
 30
0.0
 40
3.804563
  0
ENDBLK
  8
0
  0
BLOCK
  8
0
  2
BLC43
 70
    64
 10
0.0
 20
0.0
 30
0.0
  3
BLC43
  0
TEXT
  8
SWEDEN2
  6
CONTINUOUS
 10
-0.646672
 20
-0.986365
 30
0.0
 40
2.0
  1
+
  0
ENDBLK
  8
0
  0
BLOCK
  8
0
  2
BLC42
 70
    64
 10
0.0
 20
0.0
 30
0.0
  3
BLC42
  0
TEXT
  8
SWEDEN2
  6
CONTINUOUS
 10
-0.655237
 20
-0.99442
 30
0.0
 40
2.0
  1
-
  0
ENDBLK
  8
0
  0
BLOCK
  8
0
  2
BLC44
 70
    64
 10
0.0
 20
0.0
 30
0.0
  3
BLC44
  0
LINE
  8
HEL035
 10
-2.520993
 20
1.697877
 30
0.0
 11
1.479007
 21
1.697877
 31
0.0
  0
INSERT
  8
HEL035
  2
WKU130
 10
-2.181043
 20
-0.027675
 30
0.0
 41
0.8
 42
0.8
 43
0.8
  0
ENDBLK
  8
0
  0
BLOCK
  8
0
  2
B39
 70
     0
 10
0.0
 20
0.0
 30
0.0
  3
B39
  0
LINE
  8
0
 10
-10.0
 20
2.5
 30
0.0
 11
-11.519867
 21
2.5
 31
0.0
  0
ARC
  8
0
 10
-9.934151
 20
3.75
 30
0.0
 40
1.251733
 50
266.984476
 51
93.015524
  0
LINE
  8
0
 10
-10.0
 20
5.0
 30
0.0
 11
-11.519867
 21
5.0
 31
0.0
  0
LINE
  8
0
 10
-10.0
 20
7.5
 30
0.0
 11
-11.519867
 21
7.5
 31
0.0
  0
ARC
  8
0
 10
-9.934151
 20
6.25
 30
0.0
 40
1.251733
 50
266.984476
 51
93.015524
  0
LINE
  8
0
 10
-5.0
 20
0.0
 30
0.0
 11
-2.5
 21
0.0
 31
0.0
  0
ARC
  8
0
 10
-5.065849
 20
1.25
 30
0.0
 40
1.251733
 50
86.984476
 51
273.015524
  0
ARC
  8
0
 10
-5.065849
 20
3.75
 30
0.0
 40
1.251733
 50
86.984476
 51
273.015524
  0
LINE
  8
0
 10
-5.0
 20
2.5
 30
0.0
 11
-2.5
 21
2.5
 31
0.0
  0
LINE
  8
0
 10
-5.0
 20
5.0
 30
0.0
 11
-2.5
 21
5.0
 31
0.0
  0
LINE
  8
0
 10
-2.5
 20
5.0
 30
0.0
 11
0.0
 21
5.0
 31
0.0
  0
LINE
  8
0
 10
-2.5
 20
0.0
 30
0.0
 11
0.0
 21
0.0
 31
0.0
  0
LINE
  8
0
 10
-2.5
 20
5.0
 30
0.0
 11
0.0
 21
5.0
 31
0.0
  0
LINE
  8
0
 10
-2.5
 20
10.0
 30
0.0
 11
0.0
 21
10.0
 31
0.0
  0
LINE
  8
0
 10
-5.0
 20
10.0
 30
0.0
 11
-2.5
 21
10.0
 31
0.0
  0
LINE
  8
0
 10
-5.0
 20
7.5
 30
0.0
 11
-2.5
 21
7.5
 31
0.0
  0
ARC
  8
0
 10
-5.065849
 20
8.75
 30
0.0
 40
1.251733
 50
86.984476
 51
273.015524
  0
ARC
  8
0
 10
-5.065849
 20
6.25
 30
0.0
 40
1.251733
 50
86.984476
 51
273.015524
  0
LINE
  8
0
 10
-5.0
 20
5.0
 30
0.0
 11
-2.5
 21
5.0
 31
0.0
  0
ENDBLK
  8
0
  0
BLOCK
  8
0
  2
ABBA3SX
 70
    64
 10
0.0
 20
0.0
 30
0.0
  3
ABBA3SX
  0
TEXT
  8
RAAMI
  6
DASHED
 10
354.190282
 20
15.793111
 30
0.0
 40
1.4
  1
LEHTI SHEET
  7
STAND
  0
LINE
  8
PAKSU
 10
0.236802
 20
0.237701
 30
0.0
 11
0.236802
 21
262.737701
 31
0.0
  0
LINE
  8
PAKSU
 10
392.236802
 20
262.737701
 30
0.0
 11
392.236802
 21
0.237701
 31
0.0
  0
LINE
  8
PAKSU
 10
0.236802
 20
0.237701
 30
0.0
 11
392.236802
 21
0.237701
 31
0.0
  0
TEXT
  8
RAAMI
 10
42.236802
 20
5.587211
 30
0.0
 40
2.5
  1
C
  7
ROMANS
  0
TEXT
  8
RAAMI
 10
42.236802
 20
1.194994
 30
0.0
 40
2.5
  1
B
  7
ROMANS
  0
TEXT
  8
RAAMI
 10
257.406709
 20
1.741485
 30
0.0
 40
3.0
  1
Power
 41
0.8
  7
ROMANS
  0
TEXT
  8
RAAMI
 10
273.236802
 20
7.237701
 30
0.0
 40
1.4
  1
VAST.OSASTO RESP.DEPT.
  7
ROMANS
  0
TEXT
  8
RAAMI
 10
210.236802
 20
32.237701
 30
0.0
 40
1.4
  1
TEKI  PREPARED
  7
ROMANS
  0
LINE
  8
OHUT
 10
271.236802
 20
9.737701
 30
0.0
 11
271.236802
 21
0.237701
 31
0.0
  0
LINE
  8
OHUT
 10
257.236802
 20
9.737701
 30
0.0
 11
257.236802
 21
35.237701
 31
0.0
  0
LINE
  8
OHUT
 10
40.736802
 20
4.737701
 30
0.0
 11
209.236802
 21
4.737701
 31
0.0
  0
LINE
  8
OHUT
 10
46.736802
 20
0.237701
 30
0.0
 11
46.736802
 21
9.237701
 31
0.0
  0
LINE
  8
OHUT
 10
46.736802
 20
9.237701
 30
0.0
 11
209.236802
 21
9.237701
 31
0.0
  0
TEXT
  8
RAAMI
 10
27.736802
 20
2.471035
 30
0.0
 40
1.4
  1
REVISION
  7
ROMANS
  0
TEXT
  8
RAAMI
 10
27.736802
 20
4.737701
 30
0.0
 40
1.4
  1
MUUTOS
  7
ROMANS
  0
LINE
  8
OHUT
 10
282.236802
 20
9.737701
 30
0.0
 11
282.236802
 21
18.237701
 31
0.0
  0
TEXT
  8
RAAMI
 10
237.736802
 20
1.737701
 30
0.0
 40
3.0
  1
Strömberg
 41
0.8
  7
ROMANS
  0
TEXT
  8
RAAMI
 10
229.736802
 20
1.737701
 30
0.0
 40
3.0
  1
ABB 
 41
0.8
  7
ROMANS
  0
LINE
  8
RAAMI
 10
223.136802
 20
1.737701
 30
0.0
 11
223.136802
 21
5.097701
 31
0.0
  0
LINE
  8
RAAMI
 10
223.136802
 20
8.737701
 30
0.0
 11
225.096802
 21
8.737701
 31
0.0
  0
LINE
  8
RAAMI
 10
225.096802
 20
8.737701
 30
0.0
 11
225.096802
 21
5.377701
 31
0.0
  0
LINE
  8
RAAMI
 10
225.096802
 20
5.377701
 30
0.0
 11
223.136802
 21
5.377701
 31
0.0
  0
LINE
  8
RAAMI
 10
223.136802
 20
5.097701
 30
0.0
 11
225.096802
 21
5.097701
 31
0.0
  0
LINE
  8
RAAMI
 10
225.096802
 20
5.097701
 30
0.0
 11
225.096802
 21
1.737701
 31
0.0
  0
LINE
  8
RAAMI
 10
225.096802
 20
1.737701
 30
0.0
 11
223.136802
 21
1.737701
 31
0.0
  0
LINE
  8
RAAMI
 10
223.136802
 20
5.377701
 30
0.0
 11
223.136802
 21
8.737701
 31
0.0
  0
ARC
  8
RAAMI
 10
225.936802
 20
7.162701
 30
0.0
 40
1.575
 50
298.455859
 51
90.052437
  0
LINE
  8
RAAMI
 10
225.376802
 20
8.737701
 30
0.0
 11
225.935361
 21
8.737701
 31
0.0
  0
LINE
  8
RAAMI
 10
225.376802
 20
8.737701
 30
0.0
 11
225.376802
 21
5.377701
 31
0.0
  0
LINE
  8
RAAMI
 10
225.376802
 20
5.377701
 30
0.0
 11
227.361245
 21
5.377701
 31
0.0
  0
LINE
  8
RAAMI
 10
227.616802
 20
5.097701
 30
0.0
 11
225.376802
 21
5.097701
 31
0.0
  0
LINE
  8
RAAMI
 10
225.376802
 20
5.097701
 30
0.0
 11
225.376802
 21
1.737701
 31
0.0
  0
ARC
  8
RAAMI
 10
225.936802
 20
3.837701
 30
0.0
 40
2.1
 50
269.937724
 51
37.056553
  0
LINE
  8
RAAMI
 10
225.376802
 20
1.737701
 30
0.0
 11
225.93452
 21
1.737703
 31
0.0
  0
ARC
  8
RAAMI
 10
225.936802
 20
3.837701
 30
0.0
 40
2.1
 50
47.28622
 51
68.787999
  0
INSERT
  8
RAAMI
  2
*X17
 10
215.646802
 20
1.737701
 30
0.0
 41
0.7
 42
0.7
 43
0.7
  0
INSERT
  8
RAAMI
  2
*X18
 10
215.646802
 20
1.737701
 30
0.0
 41
0.7
 42
0.7
 43
0.7
  0
INSERT
  8
RAAMI
  2
*X19
 10
215.646802
 20
1.737701
 30
0.0
 41
0.7
 42
0.7
 43
0.7
  0
INSERT
  8
RAAMI
  2
*X20
 10
215.646802
 20
1.737701
 30
0.0
 41
0.7
 42
0.7
 43
0.7
  0
INSERT
  8
RAAMI
  2
*X20
 10
210.186802
 20
1.737701
 30
0.0
 41
0.7
 42
0.7
 43
0.7
  0
INSERT
  8
RAAMI
  2
*X19
 10
210.186802
 20
1.737701
 30
0.0
 41
0.7
 42
0.7
 43
0.7
  0
INSERT
  8
RAAMI
  2
*X18
 10
210.186802
 20
1.737701
 30
0.0
 41
0.7
 42
0.7
 43
0.7
  0
INSERT
  8
RAAMI
  2
*X17
 10
210.186802
 20
1.737701
 30
0.0
 41
0.7
 42
0.7
 43
0.7
  0
ARC
  8
RAAMI
 10
220.476802
 20
3.837701
 30
0.0
 40
2.1
 50
47.28622
 51
68.787999
  0
LINE
  8
RAAMI
 10
219.916802
 20
1.737701
 30
0.0
 11
220.47452
 21
1.737703
 31
0.0
  0
ARC
  8
RAAMI
 10
220.476802
 20
3.837701
 30
0.0
 40
2.1
 50
269.937724
 51
37.056553
  0
LINE
  8
RAAMI
 10
219.916802
 20
5.097701
 30
0.0
 11
219.916802
 21
1.737701
 31
0.0
  0
LINE
  8
RAAMI
 10
222.156802
 20
5.097701
 30
0.0
 11
219.916802
 21
5.097701
 31
0.0
  0
LINE
  8
RAAMI
 10
219.916802
 20
5.377701
 30
0.0
 11
221.901245
 21
5.377701
 31
0.0
  0
LINE
  8
RAAMI
 10
219.916802
 20
8.737701
 30
0.0
 11
219.916802
 21
5.377701
 31
0.0
  0
LINE
  8
RAAMI
 10
219.916802
 20
8.737701
 30
0.0
 11
220.475361
 21
8.737701
 31
0.0
  0
ARC
  8
RAAMI
 10
220.476802
 20
7.162701
 30
0.0
 40
1.575
 50
298.455859
 51
90.052437
  0
LINE
  8
RAAMI
 10
217.676802
 20
5.377701
 30
0.0
 11
217.676802
 21
8.737701
 31
0.0
  0
LINE
  8
RAAMI
 10
219.636802
 20
1.737701
 30
0.0
 11
217.676802
 21
1.737701
 31
0.0
  0
LINE
  8
RAAMI
 10
219.636802
 20
5.097701
 30
0.0
 11
219.636802
 21
1.737701
 31
0.0
  0
LINE
  8
RAAMI
 10
217.676802
 20
5.097701
 30
0.0
 11
219.636802
 21
5.097701
 31
0.0
  0
LINE
  8
RAAMI
 10
219.636802
 20
5.377701
 30
0.0
 11
217.676802
 21
5.377701
 31
0.0
  0
LINE
  8
RAAMI
 10
219.636802
 20
8.737701
 30
0.0
 11
219.636802
 21
5.377701
 31
0.0
  0
LINE
  8
RAAMI
 10
217.676802
 20
8.737701
 30
0.0
 11
219.636802
 21
8.737701
 31
0.0
  0
LINE
  8
RAAMI
 10
217.676802
 20
1.737701
 30
0.0
 11
217.676802
 21
5.097701
 31
0.0
  0
INSERT
  8
RAAMI
  2
*X16
 10
210.186802
 20
1.737701
 30
0.0
 41
0.7
 42
0.7
 43
0.7
  0
INSERT
  8
RAAMI
  2
*X15
 10
210.186802
 20
1.737701
 30
0.0
 41
0.7
 42
0.7
 43
0.7
  0
INSERT
  8
RAAMI
  2
*X14
 10
210.186802
 20
1.737701
 30
0.0
 41
0.7
 42
0.7
 43
0.7
  0
INSERT
  8
RAAMI
  2
*X13
 10
210.186802
 20
1.737701
 30
0.0
 41
0.7
 42
0.7
 43
0.7
  0
LINE
  8
RAAMI
 10
211.356691
 20
5.08024
 30
0.0
 11
210.186802
 21
1.737701
 31
0.0
  0
LINE
  8
RAAMI
 10
213.546802
 20
5.097701
 30
0.0
 11
213.546802
 21
3.137701
 31
0.0
  0
LINE
  8
RAAMI
 10
213.826802
 20
5.097701
 30
0.0
 11
213.826802
 21
3.137701
 31
0.0
  0
LINE
  8
RAAMI
 10
213.826802
 20
5.097701
 30
0.0
 11
216.010059
 21
5.097701
 31
0.0
  0
LINE
  8
RAAMI
 10
213.826802
 20
5.377701
 30
0.0
 11
215.911916
 21
5.377701
 31
0.0
  0
LINE
  8
RAAMI
 10
216.011294
 20
5.096296
 30
0.0
 11
217.186802
 21
1.737701
 31
0.0
  0
LINE
  8
RAAMI
 10
211.359785
 20
5.097701
 30
0.0
 11
213.546802
 21
5.097701
 31
0.0
  0
LINE
  8
RAAMI
 10
211.458743
 20
5.377701
 30
0.0
 11
213.546802
 21
5.377701
 31
0.0
  0
LINE
  8
RAAMI
 10
213.546802
 20
8.737701
 30
0.0
 11
212.636802
 21
8.737701
 31
0.0
  0
LINE
  8
RAAMI
 10
213.826802
 20
3.137701
 30
0.0
 11
214.946696
 21
3.137701
 31
0.0
  0
LINE
  8
RAAMI
 10
213.826802
 20
8.737701
 30
0.0
 11
213.826802
 21
5.377701
 31
0.0
  0
LINE
  8
RAAMI
 10
213.546802
 20
8.737701
 30
0.0
 11
213.546802
 21
5.377701
 31
0.0
  0
LINE
  8
RAAMI
 10
214.736802
 20
8.737701
 30
0.0
 11
213.826802
 21
8.737701
 31
0.0
  0
LINE
  8
RAAMI
 10
214.9479
 20
3.134565
 30
0.0
 11
215.436802
 21
1.737701
 31
0.0
  0
LINE
  8
RAAMI
 10
214.736802
 20
8.737701
 30
0.0
 11
215.913155
 21
5.376693
 31
0.0
  0
LINE
  8
RAAMI
 10
212.425592
 20
3.134244
 30
0.0
 11
211.936802
 21
1.737701
 31
0.0
  0
LINE
  8
RAAMI
 10
212.425589
 20
3.137701
 30
0.0
 11
213.546802
 21
3.137701
 31
0.0
  0
LINE
  8
RAAMI
 10
212.636802
 20
8.737701
 30
0.0
 11
211.459274
 21
5.373336
 31
0.0
  0
LINE
  8
RAAMI
 10
215.436802
 20
1.737701
 30
0.0
 11
217.186802
 21
1.737701
 31
0.0
  0
LINE
  8
RAAMI
 10
210.186802
 20
1.737701
 30
0.0
 11
211.936802
 21
1.737701
 31
0.0
  0
LINE
  8
OHUT
 10
369.736802
 20
9.737701
 30
0.0
 11
369.736802
 21
0.237701
 31
0.0
  0
TEXT
  8
RAAMI
 10
371.236802
 20
7.237701
 30
0.0
 40
1.4
  1
PAINOS  REVISION
  7
ROMANS
  0
LINE
  8
OHUT
 10
349.736802
 20
9.737701
 30
0.0
 11
349.736802
 21
18.237701
 31
0.0
  0
TEXT
  8
RAAMI
 10
309.236802
 20
7.237701
 30
0.0
 40
1.4
  1
PIIRUSTUS NO  DRAWING NR
  7
ROMANS
  0
TEXT
  8
RAAMI
 10
309.236802
 20
15.737701
 30
0.0
 40
1.4
  1
KOODI  CODE
  7
ROMANS
  0
TEXT
  8
RAAMI
 10
309.236802
 20
32.737701
 30
0.0
 40
1.4
  1
NIMITYS  NAME
  7
ROMANS
  0
TEXT
  8
RAAMI
 10
259.236802
 20
15.737701
 30
0.0
 40
1.4
  1
SUHDE  SCALE
  7
ROMANS
  0
TEXT
  8
RAAMI
 10
259.236802
 20
23.737701
 30
0.0
 40
1.4
  1
TOLERANSSIT  TOLERANCES
  7
ROMANS
  0
TEXT
  8
RAAMI
 10
259.236802
 20
32.737701
 30
0.0
 40
1.4
  1
LIITTYY  CONCERNING
  7
ROMANS
  0
LINE
  8
OHUT
 10
307.236802
 20
0.237701
 30
0.0
 11
307.236802
 21
35.237701
 31
0.0
  0
TEXT
  8
RAAMI
 10
209.979637
 20
15.704368
 30
0.0
 40
1.4
  1
HYVÄKSYI  APPROVED
  7
ROMANS
  0
TEXT
  8
RAAMI
 10
210.236802
 20
23.971035
 30
0.0
 40
1.4
  1
TARKASTI  CHECKED
  7
ROMANS
  0
LINE
  8
PAKSU
 10
209.236802
 20
35.237701
 30
0.0
 11
392.236802
 21
35.237701
 31
0.0
  0
LINE
  8
OHUT
 10
209.236802
 20
26.737701
 30
0.0
 11
307.236802
 21
26.737701
 31
0.0
  0
LINE
  8
OHUT
 10
209.236802
 20
9.737701
 30
0.0
 11
392.236802
 21
9.737701
 31
0.0
  0
LINE
  8
OHUT
 10
209.236802
 20
18.237701
 30
0.0
 11
392.236802
 21
18.237701
 31
0.0
  0
LINE
  8
PAKSU
 10
392.236802
 20
0.237701
 30
0.0
 11
392.236802
 21
35.237701
 31
0.0
  0
LINE
  8
PAKSU
 10
209.236802
 20
0.237701
 30
0.0
 11
209.236802
 21
35.237701
 31
0.0
  0
LINE
  8
PAKSU
 10
209.236802
 20
0.237701
 30
0.0
 11
392.236802
 21
0.237701
 31
0.0
  0
LINE
  8
RAAMI
 10
18.236802
 20
0.237701
 30
0.0
 11
0.236802
 21
0.237701
 31
0.0
  0
LINE
  8
PAKSU
 10
0.236802
 20
262.737701
 30
0.0
 11
392.236802
 21
262.737701
 31
0.0
  0
TEXT
  8
RAAMI
  6
DASHED
 10
292.216898
 20
11.813061
 30
0.0
 40
3.0
  1
A3
  7
GREEKS
  0
ENDBLK
  8
0
  0
BLOCK
  8
0
  2
*X13
 70
    65
 10
0.0
 20
0.0
 30
0.0
  3
*X
  0
LINE
  8
0
 62
     0
 10
2.284499
 20
6.52714
 30
0.0
 11
4.8
 21
9.042641
 31
0.0
  0
LINE
  8
0
 62
     0
 10
2.379686
 20
6.799104
 30
0.0
 11
4.8
 21
9.219417
 31
0.0
  0
LINE
  8
0
 62
     0
 10
2.474874
 20
7.071068
 30
0.0
 11
4.8
 21
9.396194
 31
0.0
  0
LINE
  8
0
 62
     0
 10
2.570061
 20
7.343032
 30
0.0
 11
4.8
 21
9.572971
 31
0.0
  0
LINE
  8
0
 62
     0
 10
2.665249
 20
7.614996
 30
0.0
 11
4.8
 21
9.749747
 31
0.0
  0
LINE
  8
0
 62
     0
 10
2.760436
 20
7.88696
 30
0.0
 11
4.8
 21
9.926524
 31
0.0
  0
LINE
  8
0
 62
     0
 10
2.855624
 20
8.158924
 30
0.0
 11
4.696699
 21
10.0
 31
0.0
  0
LINE
  8
0
 62
     0
 10
2.950811
 20
8.430889
 30
0.0
 11
4.519922
 21
10.0
 31
0.0
  0
LINE
  8
0
 62
     0
 10
3.045998
 20
8.702853
 30
0.0
 11
4.343146
 21
10.0
 31
0.0
  0
LINE
  8
0
 62
     0
 10
3.141186
 20
8.974817
 30
0.0
 11
4.166369
 21
10.0
 31
0.0
  0
LINE
  8
0
 62
     0
 10
3.236373
 20
9.246781
 30
0.0
 11
3.989592
 21
10.0
 31
0.0
  0
LINE
  8
0
 62
     0
 10
3.331561
 20
9.518745
 30
0.0
 11
3.812816
 21
10.0
 31
0.0
  0
LINE
  8
0
 62
     0
 10
3.426748
 20
9.790709
 30
0.0
 11
3.636039
 21
10.0
 31
0.0
  0
LINE
  8
0
 62
     0
 10
2.189311
 20
6.255175
 30
0.0
 11
4.8
 21
8.865864
 31
0.0
  0
LINE
  8
0
 62
     0
 10
2.094124
 20
5.983211
 30
0.0
 11
4.8
 21
8.689087
 31
0.0
  0
LINE
  8
0
 62
     0
 10
1.998936
 20
5.711247
 30
0.0
 11
4.8
 21
8.512311
 31
0.0
  0
LINE
  8
0
 62
     0
 10
1.903749
 20
5.439283
 30
0.0
 11
4.8
 21
8.335534
 31
0.0
  0
LINE
  8
0
 62
     0
 10
1.841243
 20
5.2
 30
0.0
 11
4.8
 21
8.158757
 31
0.0
  0
LINE
  8
0
 62
     0
 10
2.018019
 20
5.2
 30
0.0
 11
4.8
 21
7.981981
 31
0.0
  0
LINE
  8
0
 62
     0
 10
2.194796
 20
5.2
 30
0.0
 11
4.8
 21
7.805204
 31
0.0
  0
LINE
  8
0
 62
     0
 10
2.371573
 20
5.2
 30
0.0
 11
4.8
 21
7.628427
 31
0.0
  0
LINE
  8
0
 62
     0
 10
2.54835
 20
5.2
 30
0.0
 11
4.8
 21
7.45165
 31
0.0
  0
LINE
  8
0
 62
     0
 10
2.725126
 20
5.2
 30
0.0
 11
4.8
 21
7.274874
 31
0.0
  0
LINE
  8
0
 62
     0
 10
2.901903
 20
5.2
 30
0.0
 11
4.8
 21
7.098097
 31
0.0
  0
LINE
  8
0
 62
     0
 10
3.07868
 20
5.2
 30
0.0
 11
4.8
 21
6.92132
 31
0.0
  0
LINE
  8
0
 62
     0
 10
3.255456
 20
5.2
 30
0.0
 11
4.8
 21
6.744544
 31
0.0
  0
LINE
  8
0
 62
     0
 10
3.432233
 20
5.2
 30
0.0
 11
4.8
 21
6.567767
 31
0.0
  0
LINE
  8
0
 62
     0
 10
3.60901
 20
5.2
 30
0.0
 11
4.8
 21
6.39099
 31
0.0
  0
LINE
  8
0
 62
     0
 10
3.785786
 20
5.2
 30
0.0
 11
4.8
 21
6.214214
 31
0.0
  0
LINE
  8
0
 62
     0
 10
3.962563
 20
5.2
 30
0.0
 11
4.8
 21
6.037437
 31
0.0
  0
LINE
  8
0
 62
     0
 10
4.13934
 20
5.2
 30
0.0
 11
4.8
 21
5.86066
 31
0.0
  0
LINE
  8
0
 62
     0
 10
4.316117
 20
5.2
 30
0.0
 11
4.8
 21
5.683883
 31
0.0
  0
LINE
  8
0
 62
     0
 10
4.492893
 20
5.2
 30
0.0
 11
4.8
 21
5.507107
 31
0.0
  0
LINE
  8
0
 62
     0
 10
4.66967
 20
5.2
 30
0.0
 11
4.8
 21
5.33033
 31
0.0
  0
ENDBLK
  8
0
  0
BLOCK
  8
0
  2
*X14
 70
    65
 10
0.0
 20
0.0
 30
0.0
  3
*X
  0
LINE
  8
0
 62
     0
 10
5.2
 20
6.083883
 30
0.0
 11
7.178252
 21
8.062136
 31
0.0
  0
LINE
  8
0
 62
     0
 10
5.2
 20
6.26066
 30
0.0
 11
7.132421
 21
8.193082
 31
0.0
  0
LINE
  8
0
 62
     0
 10
5.2
 20
6.437437
 30
0.0
 11
7.08659
 21
8.324027
 31
0.0
  0
LINE
  8
0
 62
     0
 10
5.2
 20
6.614214
 30
0.0
 11
7.040759
 21
8.454973
 31
0.0
  0
LINE
  8
0
 62
     0
 10
5.2
 20
6.79099
 30
0.0
 11
6.994928
 21
8.585919
 31
0.0
  0
LINE
  8
0
 62
     0
 10
5.2
 20
6.967767
 30
0.0
 11
6.949097
 21
8.716864
 31
0.0
  0
LINE
  8
0
 62
     0
 10
5.2
 20
7.144544
 30
0.0
 11
6.903266
 21
8.84781
 31
0.0
  0
LINE
  8
0
 62
     0
 10
5.2
 20
7.32132
 30
0.0
 11
6.857435
 21
8.978756
 31
0.0
  0
LINE
  8
0
 62
     0
 10
5.2
 20
7.498097
 30
0.0
 11
6.811604
 21
9.109702
 31
0.0
  0
LINE
  8
0
 62
     0
 10
5.2
 20
7.674874
 30
0.0
 11
6.765773
 21
9.240647
 31
0.0
  0
LINE
  8
0
 62
     0
 10
5.2
 20
7.85165
 30
0.0
 11
6.719942
 21
9.371593
 31
0.0
  0
LINE
  8
0
 62
     0
 10
5.2
 20
8.028427
 30
0.0
 11
6.674111
 21
9.502539
 31
0.0
  0
LINE
  8
0
 62
     0
 10
5.2
 20
8.205204
 30
0.0
 11
6.62828
 21
9.633484
 31
0.0
  0
LINE
  8
0
 62
     0
 10
5.2
 20
8.381981
 30
0.0
 11
6.582449
 21
9.76443
 31
0.0
  0
LINE
  8
0
 62
     0
 10
5.2
 20
8.558757
 30
0.0
 11
6.536619
 21
9.895376
 31
0.0
  0
LINE
  8
0
 62
     0
 10
5.2
 20
8.735534
 30
0.0
 11
6.464466
 21
10.0
 31
0.0
  0
LINE
  8
0
 62
     0
 10
5.2
 20
8.912311
 30
0.0
 11
6.287689
 21
10.0
 31
0.0
  0
LINE
  8
0
 62
     0
 10
5.2
 20
9.089087
 30
0.0
 11
6.110913
 21
10.0
 31
0.0
  0
LINE
  8
0
 62
     0
 10
5.2
 20
9.265864
 30
0.0
 11
5.934136
 21
10.0
 31
0.0
  0
LINE
  8
0
 62
     0
 10
5.2
 20
9.442641
 30
0.0
 11
5.757359
 21
10.0
 31
0.0
  0
LINE
  8
0
 62
     0
 10
5.2
 20
9.619417
 30
0.0
 11
5.580583
 21
10.0
 31
0.0
  0
LINE
  8
0
 62
     0
 10
5.2
 20
9.796194
 30
0.0
 11
5.403806
 21
10.0
 31
0.0
  0
LINE
  8
0
 62
     0
 10
5.2
 20
9.972971
 30
0.0
 11
5.227029
 21
10.0
 31
0.0
  0
LINE
  8
0
 62
     0
 10
5.2
 20
5.907107
 30
0.0
 11
7.224083
 21
7.93119
 31
0.0
  0
LINE
  8
0
 62
     0
 10
5.2
 20
5.73033
 30
0.0
 11
7.269914
 21
7.800245
 31
0.0
  0
LINE
  8
0
 62
     0
 10
5.2
 20
5.553553
 30
0.0
 11
7.315745
 21
7.669299
 31
0.0
  0
LINE
  8
0
 62
     0
 10
5.2
 20
5.376777
 30
0.0
 11
7.361576
 21
7.538353
 31
0.0
  0
LINE
  8
0
 62
     0
 10
5.2
 20
5.2
 30
0.0
 11
7.407407
 21
7.407407
 31
0.0
  0
LINE
  8
0
 62
     0
 10
5.376777
 20
5.2
 30
0.0
 11
7.453238
 21
7.276462
 31
0.0
  0
LINE
  8
0
 62
     0
 10
5.553553
 20
5.2
 30
0.0
 11
7.499069
 21
7.145516
 31
0.0
  0
LINE
  8
0
 62
     0
 10
5.73033
 20
5.2
 30
0.0
 11
7.5449
 21
7.01457
 31
0.0
  0
LINE
  8
0
 62
     0
 10
5.907107
 20
5.2
 30
0.0
 11
7.590731
 21
6.883625
 31
0.0
  0
LINE
  8
0
 62
     0
 10
6.083883
 20
5.2
 30
0.0
 11
7.636562
 21
6.752679
 31
0.0
  0
LINE
  8
0
 62
     0
 10
6.26066
 20
5.2
 30
0.0
 11
7.682393
 21
6.621733
 31
0.0
  0
LINE
  8
0
 62
     0
 10
6.437437
 20
5.2
 30
0.0
 11
7.728224
 21
6.490788
 31
0.0
  0
LINE
  8
0
 62
     0
 10
6.614214
 20
5.2
 30
0.0
 11
7.774055
 21
6.359842
 31
0.0
  0
LINE
  8
0
 62
     0
 10
6.79099
 20
5.2
 30
0.0
 11
7.819886
 21
6.228896
 31
0.0
  0
LINE
  8
0
 62
     0
 10
6.967767
 20
5.2
 30
0.0
 11
7.865717
 21
6.09795
 31
0.0
  0
LINE
  8
0
 62
     0
 10
7.144544
 20
5.2
 30
0.0
 11
7.911548
 21
5.967005
 31
0.0
  0
LINE
  8
0
 62
     0
 10
7.32132
 20
5.2
 30
0.0
 11
7.957379
 21
5.836059
 31
0.0
  0
LINE
  8
0
 62
     0
 10
7.498097
 20
5.2
 30
0.0
 11
8.00321
 21
5.705113
 31
0.0
  0
LINE
  8
0
 62
     0
 10
7.674874
 20
5.2
 30
0.0
 11
8.049041
 21
5.574168
 31
0.0
  0
LINE
  8
0
 62
     0
 10
7.85165
 20
5.2
 30
0.0
 11
8.094872
 21
5.443222
 31
0.0
  0
LINE
  8
0
 62
     0
 10
8.028427
 20
5.2
 30
0.0
 11
8.140703
 21
5.312276
 31
0.0
  0
ENDBLK
  8
0
  0
BLOCK
  8
0
  2
*X15
 70
    65
 10
0.0
 20
0.0
 30
0.0
  3
*X
  0
LINE
  8
0
 62
     0
 10
0.0
 20
0.0
 30
0.0
 11
4.8
 21
4.8
 31
0.0
  0
LINE
  8
0
 62
     0
 10
0.095187
 20
0.271964
 30
0.0
 11
4.623223
 21
4.8
 31
0.0
  0
LINE
  8
0
 62
     0
 10
0.190375
 20
0.543928
 30
0.0
 11
4.446447
 21
4.8
 31
0.0
  0
LINE
  8
0
 62
     0
 10
0.285562
 20
0.815892
 30
0.0
 11
4.26967
 21
4.8
 31
0.0
  0
LINE
  8
0
 62
     0
 10
0.38075
 20
1.087857
 30
0.0
 11
4.092893
 21
4.8
 31
0.0
  0
LINE
  8
0
 62
     0
 10
0.475937
 20
1.359821
 30
0.0
 11
3.916117
 21
4.8
 31
0.0
  0
LINE
  8
0
 62
     0
 10
0.571125
 20
1.631785
 30
0.0
 11
3.73934
 21
4.8
 31
0.0
  0
LINE
  8
0
 62
     0
 10
0.666312
 20
1.903749
 30
0.0
 11
3.562563
 21
4.8
 31
0.0
  0
LINE
  8
0
 62
     0
 10
0.7615
 20
2.175713
 30
0.0
 11
3.385786
 21
4.8
 31
0.0
  0
LINE
  8
0
 62
     0
 10
0.856687
 20
2.447677
 30
0.0
 11
3.20901
 21
4.8
 31
0.0
  0
LINE
  8
0
 62
     0
 10
0.951875
 20
2.719641
 30
0.0
 11
3.032233
 21
4.8
 31
0.0
  0
LINE
  8
0
 62
     0
 10
1.047062
 20
2.991606
 30
0.0
 11
2.855456
 21
4.8
 31
0.0
  0
LINE
  8
0
 62
     0
 10
1.142249
 20
3.26357
 30
0.0
 11
2.67868
 21
4.8
 31
0.0
  0
LINE
  8
0
 62
     0
 10
1.237437
 20
3.535534
 30
0.0
 11
2.501903
 21
4.8
 31
0.0
  0
LINE
  8
0
 62
     0
 10
1.332624
 20
3.807498
 30
0.0
 11
2.325126
 21
4.8
 31
0.0
  0
LINE
  8
0
 62
     0
 10
1.427812
 20
4.079462
 30
0.0
 11
2.14835
 21
4.8
 31
0.0
  0
LINE
  8
0
 62
     0
 10
1.522999
 20
4.351426
 30
0.0
 11
1.971573
 21
4.8
 31
0.0
  0
LINE
  8
0
 62
     0
 10
1.618187
 20
4.62339
 30
0.0
 11
1.794796
 21
4.8
 31
0.0
  0
LINE
  8
0
 62
     0
 10
0.176777
 20
0.0
 30
0.0
 11
4.8
 21
4.623223
 31
0.0
  0
LINE
  8
0
 62
     0
 10
0.353553
 20
0.0
 30
0.0
 11
4.8
 21
4.446447
 31
0.0
  0
LINE
  8
0
 62
     0
 10
0.53033
 20
0.0
 30
0.0
 11
4.8
 21
4.26967
 31
0.0
  0
LINE
  8
0
 62
     0
 10
0.707107
 20
0.0
 30
0.0
 11
4.8
 21
4.092893
 31
0.0
  0
LINE
  8
0
 62
     0
 10
0.883883
 20
0.0
 30
0.0
 11
4.8
 21
3.916117
 31
0.0
  0
LINE
  8
0
 62
     0
 10
1.06066
 20
0.0
 30
0.0
 11
4.8
 21
3.73934
 31
0.0
  0
LINE
  8
0
 62
     0
 10
1.237437
 20
0.0
 30
0.0
 11
3.179842
 21
1.942405
 31
0.0
  0
LINE
  8
0
 62
     0
 10
3.237437
 20
2.0
 30
0.0
 11
4.8
 21
3.562563
 31
0.0
  0
LINE
  8
0
 62
     0
 10
1.414214
 20
0.0
 30
0.0
 11
3.084654
 21
1.670441
 31
0.0
  0
LINE
  8
0
 62
     0
 10
3.414214
 20
2.0
 30
0.0
 11
4.8
 21
3.385786
 31
0.0
  0
LINE
  8
0
 62
     0
 10
1.59099
 20
0.0
 30
0.0
 11
2.989467
 21
1.398477
 31
0.0
  0
LINE
  8
0
 62
     0
 10
3.59099
 20
2.0
 30
0.0
 11
4.8
 21
3.20901
 31
0.0
  0
LINE
  8
0
 62
     0
 10
1.767767
 20
0.0
 30
0.0
 11
2.894279
 21
1.126512
 31
0.0
  0
LINE
  8
0
 62
     0
 10
3.767767
 20
2.0
 30
0.0
 11
4.8
 21
3.032233
 31
0.0
  0
LINE
  8
0
 62
     0
 10
1.944544
 20
0.0
 30
0.0
 11
2.799092
 21
0.854548
 31
0.0
  0
LINE
  8
0
 62
     0
 10
3.944544
 20
2.0
 30
0.0
 11
4.8
 21
2.855456
 31
0.0
  0
LINE
  8
0
 62
     0
 10
2.12132
 20
0.0
 30
0.0
 11
2.703904
 21
0.582584
 31
0.0
  0
LINE
  8
0
 62
     0
 10
4.12132
 20
2.0
 30
0.0
 11
4.8
 21
2.67868
 31
0.0
  0
LINE
  8
0
 62
     0
 10
2.298097
 20
0.0
 30
0.0
 11
2.608717
 21
0.31062
 31
0.0
  0
LINE
  8
0
 62
     0
 10
4.298097
 20
2.0
 30
0.0
 11
4.8
 21
2.501903
 31
0.0
  0
LINE
  8
0
 62
     0
 10
2.474874
 20
0.0
 30
0.0
 11
2.51353
 21
0.038656
 31
0.0
  0
LINE
  8
0
 62
     0
 10
4.474874
 20
2.0
 30
0.0
 11
4.8
 21
2.325126
 31
0.0
  0
LINE
  8
0
 62
     0
 10
4.65165
 20
2.0
 30
0.0
 11
4.8
 21
2.14835
 31
0.0
  0
ENDBLK
  8
0
  0
BLOCK
  8
0
  2
*X16
 70
    65
 10
0.0
 20
0.0
 30
0.0
  3
*X
  0
LINE
  8
0
 62
     0
 10
6.884654
 20
1.75813
 30
0.0
 11
8.736506
 21
3.609982
 31
0.0
  0
LINE
  8
0
 62
     0
 10
6.838823
 20
1.889076
 30
0.0
 11
8.690675
 21
3.740928
 31
0.0
  0
LINE
  8
0
 62
     0
 10
6.772971
 20
2.0
 30
0.0
 11
8.644844
 21
3.871874
 31
0.0
  0
LINE
  8
0
 62
     0
 10
6.596194
 20
2.0
 30
0.0
 11
8.599013
 21
4.002819
 31
0.0
  0
LINE
  8
0
 62
     0
 10
6.419417
 20
2.0
 30
0.0
 11
8.553182
 21
4.133765
 31
0.0
  0
LINE
  8
0
 62
     0
 10
6.242641
 20
2.0
 30
0.0
 11
8.507351
 21
4.264711
 31
0.0
  0
LINE
  8
0
 62
     0
 10
6.065864
 20
2.0
 30
0.0
 11
8.46152
 21
4.395656
 31
0.0
  0
LINE
  8
0
 62
     0
 10
5.889087
 20
2.0
 30
0.0
 11
8.415689
 21
4.526602
 31
0.0
  0
LINE
  8
0
 62
     0
 10
5.712311
 20
2.0
 30
0.0
 11
8.369858
 21
4.657548
 31
0.0
  0
LINE
  8
0
 62
     0
 10
5.535534
 20
2.0
 30
0.0
 11
8.324027
 21
4.788493
 31
0.0
  0
LINE
  8
0
 62
     0
 10
5.358757
 20
2.0
 30
0.0
 11
8.158757
 21
4.8
 31
0.0
  0
LINE
  8
0
 62
     0
 10
5.2
 20
2.018019
 30
0.0
 11
7.981981
 21
4.8
 31
0.0
  0
LINE
  8
0
 62
     0
 10
5.2
 20
2.194796
 30
0.0
 11
7.805204
 21
4.8
 31
0.0
  0
LINE
  8
0
 62
     0
 10
5.2
 20
2.371573
 30
0.0
 11
7.628427
 21
4.8
 31
0.0
  0
LINE
  8
0
 62
     0
 10
5.2
 20
2.54835
 30
0.0
 11
7.45165
 21
4.8
 31
0.0
  0
LINE
  8
0
 62
     0
 10
5.2
 20
2.725126
 30
0.0
 11
7.274874
 21
4.8
 31
0.0
  0
LINE
  8
0
 62
     0
 10
5.2
 20
2.901903
 30
0.0
 11
7.098097
 21
4.8
 31
0.0
  0
LINE
  8
0
 62
     0
 10
5.2
 20
3.07868
 30
0.0
 11
6.92132
 21
4.8
 31
0.0
  0
LINE
  8
0
 62
     0
 10
5.2
 20
3.255456
 30
0.0
 11
6.744544
 21
4.8
 31
0.0
  0
LINE
  8
0
 62
     0
 10
5.2
 20
3.432233
 30
0.0
 11
6.567767
 21
4.8
 31
0.0
  0
LINE
  8
0
 62
     0
 10
5.2
 20
3.60901
 30
0.0
 11
6.39099
 21
4.8
 31
0.0
  0
LINE
  8
0
 62
     0
 10
5.2
 20
3.785786
 30
0.0
 11
6.214214
 21
4.8
 31
0.0
  0
LINE
  8
0
 62
     0
 10
5.2
 20
3.962563
 30
0.0
 11
6.037437
 21
4.8
 31
0.0
  0
LINE
  8
0
 62
     0
 10
5.2
 20
4.13934
 30
0.0
 11
5.86066
 21
4.8
 31
0.0
  0
LINE
  8
0
 62
     0
 10
5.2
 20
4.316117
 30
0.0
 11
5.683883
 21
4.8
 31
0.0
  0
LINE
  8
0
 62
     0
 10
5.2
 20
4.492893
 30
0.0
 11
5.507107
 21
4.8
 31
0.0
  0
LINE
  8
0
 62
     0
 10
5.2
 20
4.66967
 30
0.0
 11
5.33033
 21
4.8
 31
0.0
  0
LINE
  8
0
 62
     0
 10
6.930485
 20
1.627185
 30
0.0
 11
8.782337
 21
3.479036
 31
0.0
  0
LINE
  8
0
 62
     0
 10
6.976316
 20
1.496239
 30
0.0
 11
8.828168
 21
3.348091
 31
0.0
  0
LINE
  8
0
 62
     0
 10
7.022147
 20
1.365293
 30
0.0
 11
8.873999
 21
3.217145
 31
0.0
  0
LINE
  8
0
 62
     0
 10
7.067978
 20
1.234347
 30
0.0
 11
8.91983
 21
3.086199
 31
0.0
  0
LINE
  8
0
 62
     0
 10
7.113809
 20
1.103402
 30
0.0
 11
8.965661
 21
2.955254
 31
0.0
  0
LINE
  8
0
 62
     0
 10
7.15964
 20
0.972456
 30
0.0
 11
9.011492
 21
2.824308
 31
0.0
  0
LINE
  8
0
 62
     0
 10
7.205471
 20
0.84151
 30
0.0
 11
9.057323
 21
2.693362
 31
0.0
  0
LINE
  8
0
 62
     0
 10
7.251302
 20
0.710565
 30
0.0
 11
9.103154
 21
2.562416
 31
0.0
  0
LINE
  8
0
 62
     0
 10
7.297133
 20
0.579619
 30
0.0
 11
9.148985
 21
2.431471
 31
0.0
  0
LINE
  8
0
 62
     0
 10
7.342964
 20
0.448673
 30
0.0
 11
9.194816
 21
2.300525
 31
0.0
  0
LINE
  8
0
 62
     0
 10
7.388795
 20
0.317728
 30
0.0
 11
9.240647
 21
2.169579
 31
0.0
  0
LINE
  8
0
 62
     0
 10
7.434626
 20
0.186782
 30
0.0
 11
9.286478
 21
2.038634
 31
0.0
  0
LINE
  8
0
 62
     0
 10
7.480457
 20
0.055836
 30
0.0
 11
9.332309
 21
1.907688
 31
0.0
  0
LINE
  8
0
 62
     0
 10
7.601398
 20
0.0
 30
0.0
 11
9.37814
 21
1.776742
 31
0.0
  0
LINE
  8
0
 62
     0
 10
7.778175
 20
0.0
 30
0.0
 11
9.423971
 21
1.645797
 31
0.0
  0
LINE
  8
0
 62
     0
 10
7.954951
 20
0.0
 30
0.0
 11
9.469802
 21
1.514851
 31
0.0
  0
LINE
  8
0
 62
     0
 10
8.131728
 20
0.0
 30
0.0
 11
9.515633
 21
1.383905
 31
0.0
  0
LINE
  8
0
 62
     0
 10
8.308505
 20
0.0
 30
0.0
 11
9.561464
 21
1.252959
 31
0.0
  0
LINE
  8
0
 62
     0
 10
8.485281
 20
0.0
 30
0.0
 11
9.607295
 21
1.122014
 31
0.0
  0
LINE
  8
0
 62
     0
 10
8.662058
 20
0.0
 30
0.0
 11
9.653126
 21
0.991068
 31
0.0
  0
LINE
  8
0
 62
     0
 10
8.838835
 20
0.0
 30
0.0
 11
9.698957
 21
0.860122
 31
0.0
  0
LINE
  8
0
 62
     0
 10
9.015611
 20
0.0
 30
0.0
 11
9.744788
 21
0.729177
 31
0.0
  0
LINE
  8
0
 62
     0
 10
9.192388
 20
0.0
 30
0.0
 11
9.790619
 21
0.598231
 31
0.0
  0
LINE
  8
0
 62
     0
 10
9.369165
 20
0.0
 30
0.0
 11
9.83645
 21
0.467285
 31
0.0
  0
LINE
  8
0
 62
     0
 10
9.545942
 20
0.0
 30
0.0
 11
9.882281
 21
0.33634
 31
0.0
  0
LINE
  8
0
 62
     0
 10
9.722718
 20
0.0
 30
0.0
 11
9.928112
 21
0.205394
 31
0.0
  0
LINE
  8
0
 62
     0
 10
9.899495
 20
0.0
 30
0.0
 11
9.973943
 21
0.074448
 31
0.0
  0
ENDBLK
  8
0
  0
BLOCK
  8
0
  2
*X17
 70
    65
 10
0.0
 20
0.0
 30
0.0
  3
*X
  0
LINE
  8
0
 62
     0
 10
10.7
 20
6.280583
 30
0.0
 11
13.5
 21
9.080583
 31
0.0
  0
LINE
  8
0
 62
     0
 10
10.7
 20
6.457359
 30
0.0
 11
13.5
 21
9.257359
 31
0.0
  0
LINE
  8
0
 62
     0
 10
10.7
 20
6.634136
 30
0.0
 11
13.5
 21
9.434136
 31
0.0
  0
LINE
  8
0
 62
     0
 10
10.7
 20
6.810913
 30
0.0
 11
13.5
 21
9.610913
 31
0.0
  0
LINE
  8
0
 62
     0
 10
10.7
 20
6.987689
 30
0.0
 11
13.5
 21
9.787689
 31
0.0
  0
LINE
  8
0
 62
     0
 10
10.7
 20
7.164466
 30
0.0
 11
13.5
 21
9.964466
 31
0.0
  0
LINE
  8
0
 62
     0
 10
10.7
 20
7.341243
 30
0.0
 11
13.358757
 21
10.0
 31
0.0
  0
LINE
  8
0
 62
     0
 10
10.7
 20
7.518019
 30
0.0
 11
13.181981
 21
10.0
 31
0.0
  0
LINE
  8
0
 62
     0
 10
10.7
 20
7.694796
 30
0.0
 11
13.005204
 21
10.0
 31
0.0
  0
LINE
  8
0
 62
     0
 10
10.7
 20
7.871573
 30
0.0
 11
12.828427
 21
10.0
 31
0.0
  0
LINE
  8
0
 62
     0
 10
10.7
 20
8.04835
 30
0.0
 11
12.65165
 21
10.0
 31
0.0
  0
LINE
  8
0
 62
     0
 10
10.7
 20
8.225126
 30
0.0
 11
12.474874
 21
10.0
 31
0.0
  0
LINE
  8
0
 62
     0
 10
10.7
 20
8.401903
 30
0.0
 11
12.298097
 21
10.0
 31
0.0
  0
LINE
  8
0
 62
     0
 10
10.7
 20
8.57868
 30
0.0
 11
12.12132
 21
10.0
 31
0.0
  0
LINE
  8
0
 62
     0
 10
10.7
 20
8.755456
 30
0.0
 11
11.944544
 21
10.0
 31
0.0
  0
LINE
  8
0
 62
     0
 10
10.7
 20
8.932233
 30
0.0
 11
11.767767
 21
10.0
 31
0.0
  0
LINE
  8
0
 62
     0
 10
10.7
 20
9.10901
 30
0.0
 11
11.59099
 21
10.0
 31
0.0
  0
LINE
  8
0
 62
     0
 10
10.7
 20
9.285786
 30
0.0
 11
11.414214
 21
10.0
 31
0.0
  0
LINE
  8
0
 62
     0
 10
10.7
 20
9.462563
 30
0.0
 11
11.237437
 21
10.0
 31
0.0
  0
LINE
  8
0
 62
     0
 10
10.7
 20
9.63934
 30
0.0
 11
11.06066
 21
10.0
 31
0.0
  0
LINE
  8
0
 62
     0
 10
10.7
 20
9.816117
 30
0.0
 11
10.883883
 21
10.0
 31
0.0
  0
LINE
  8
0
 62
     0
 10
10.7
 20
9.992893
 30
0.0
 11
10.707107
 21
10.0
 31
0.0
  0
LINE
  8
0
 62
     0
 10
10.7
 20
6.103806
 30
0.0
 11
13.5
 21
8.903806
 31
0.0
  0
LINE
  8
0
 62
     0
 10
10.7
 20
5.927029
 30
0.0
 11
13.5
 21
8.727029
 31
0.0
  0
LINE
  8
0
 62
     0
 10
10.7
 20
5.750253
 30
0.0
 11
13.5
 21
8.550253
 31
0.0
  0
LINE
  8
0
 62
     0
 10
10.7
 20
5.573476
 30
0.0
 11
13.5
 21
8.373476
 31
0.0
  0
LINE
  8
0
 62
     0
 10
10.7
 20
5.396699
 30
0.0
 11
13.5
 21
8.196699
 31
0.0
  0
LINE
  8
0
 62
     0
 10
10.7
 20
5.219922
 30
0.0
 11
13.5
 21
8.019922
 31
0.0
  0
LINE
  8
0
 62
     0
 10
10.856854
 20
5.2
 30
0.0
 11
13.5
 21
7.843146
 31
0.0
  0
LINE
  8
0
 62
     0
 10
11.033631
 20
5.2
 30
0.0
 11
13.5
 21
7.666369
 31
0.0
  0
LINE
  8
0
 62
     0
 10
11.210408
 20
5.2
 30
0.0
 11
13.5
 21
7.489592
 31
0.0
  0
LINE
  8
0
 62
     0
 10
11.387184
 20
5.2
 30
0.0
 11
13.5
 21
7.312816
 31
0.0
  0
LINE
  8
0
 62
     0
 10
11.563961
 20
5.2
 30
0.0
 11
13.5
 21
7.136039
 31
0.0
  0
LINE
  8
0
 62
     0
 10
11.740738
 20
5.2
 30
0.0
 11
13.5
 21
6.959262
 31
0.0
  0
LINE
  8
0
 62
     0
 10
11.917514
 20
5.2
 30
0.0
 11
13.5
 21
6.782486
 31
0.0
  0
LINE
  8
0
 62
     0
 10
12.094291
 20
5.2
 30
0.0
 11
13.5
 21
6.605709
 31
0.0
  0
LINE
  8
0
 62
     0
 10
12.271068
 20
5.2
 30
0.0
 11
13.5
 21
6.428932
 31
0.0
  0
LINE
  8
0
 62
     0
 10
12.447845
 20
5.2
 30
0.0
 11
13.5
 21
6.252155
 31
0.0
  0
LINE
  8
0
 62
     0
 10
12.624621
 20
5.2
 30
0.0
 11
13.5
 21
6.075379
 31
0.0
  0
LINE
  8
0
 62
     0
 10
12.801398
 20
5.2
 30
0.0
 11
13.5
 21
5.898602
 31
0.0
  0
LINE
  8
0
 62
     0
 10
12.978175
 20
5.2
 30
0.0
 11
13.5
 21
5.721825
 31
0.0
  0
LINE
  8
0
 62
     0
 10
13.154951
 20
5.2
 30
0.0
 11
13.5
 21
5.545049
 31
0.0
  0
LINE
  8
0
 62
     0
 10
13.331728
 20
5.2
 30
0.0
 11
13.5
 21
5.368272
 31
0.0
  0
ENDBLK
  8
0
  0
BLOCK
  8
0
  2
*X18
 70
    65
 10
0.0
 20
0.0
 30
0.0
  3
*X
  0
LINE
  8
0
 62
     0
 10
10.7
 20
1.154058
 30
0.0
 11
13.5
 21
3.954058
 31
0.0
  0
LINE
  8
0
 62
     0
 10
10.7
 20
1.330835
 30
0.0
 11
13.5
 21
4.130835
 31
0.0
  0
LINE
  8
0
 62
     0
 10
10.7
 20
1.507612
 30
0.0
 11
13.5
 21
4.307612
 31
0.0
  0
LINE
  8
0
 62
     0
 10
10.7
 20
1.684389
 30
0.0
 11
13.5
 21
4.484389
 31
0.0
  0
LINE
  8
0
 62
     0
 10
10.7
 20
1.861165
 30
0.0
 11
13.5
 21
4.661165
 31
0.0
  0
LINE
  8
0
 62
     0
 10
10.7
 20
2.037942
 30
0.0
 11
13.462058
 21
4.8
 31
0.0
  0
LINE
  8
0
 62
     0
 10
10.7
 20
2.214719
 30
0.0
 11
13.285281
 21
4.8
 31
0.0
  0
LINE
  8
0
 62
     0
 10
10.7
 20
2.391495
 30
0.0
 11
13.108505
 21
4.8
 31
0.0
  0
LINE
  8
0
 62
     0
 10
10.7
 20
2.568272
 30
0.0
 11
12.931728
 21
4.8
 31
0.0
  0
LINE
  8
0
 62
     0
 10
10.7
 20
2.745049
 30
0.0
 11
12.754951
 21
4.8
 31
0.0
  0
LINE
  8
0
 62
     0
 10
10.7
 20
2.921825
 30
0.0
 11
12.578175
 21
4.8
 31
0.0
  0
LINE
  8
0
 62
     0
 10
10.7
 20
3.098602
 30
0.0
 11
12.401398
 21
4.8
 31
0.0
  0
LINE
  8
0
 62
     0
 10
10.7
 20
3.275379
 30
0.0
 11
12.224621
 21
4.8
 31
0.0
  0
LINE
  8
0
 62
     0
 10
10.7
 20
3.452155
 30
0.0
 11
12.047845
 21
4.8
 31
0.0
  0
LINE
  8
0
 62
     0
 10
10.7
 20
3.628932
 30
0.0
 11
11.871068
 21
4.8
 31
0.0
  0
LINE
  8
0
 62
     0
 10
10.7
 20
3.805709
 30
0.0
 11
11.694291
 21
4.8
 31
0.0
  0
LINE
  8
0
 62
     0
 10
10.7
 20
3.982486
 30
0.0
 11
11.517514
 21
4.8
 31
0.0
  0
LINE
  8
0
 62
     0
 10
10.7
 20
4.159262
 30
0.0
 11
11.340738
 21
4.8
 31
0.0
  0
LINE
  8
0
 62
     0
 10
10.7
 20
4.336039
 30
0.0
 11
11.163961
 21
4.8
 31
0.0
  0
LINE
  8
0
 62
     0
 10
10.7
 20
4.512816
 30
0.0
 11
10.987184
 21
4.8
 31
0.0
  0
LINE
  8
0
 62
     0
 10
10.7
 20
4.689592
 30
0.0
 11
10.810408
 21
4.8
 31
0.0
  0
LINE
  8
0
 62
     0
 10
10.7
 20
0.977282
 30
0.0
 11
13.5
 21
3.777282
 31
0.0
  0
LINE
  8
0
 62
     0
 10
10.7
 20
0.800505
 30
0.0
 11
13.5
 21
3.600505
 31
0.0
  0
LINE
  8
0
 62
     0
 10
10.7
 20
0.623728
 30
0.0
 11
13.5
 21
3.423728
 31
0.0
  0
LINE
  8
0
 62
     0
 10
10.7
 20
0.446952
 30
0.0
 11
13.5
 21
3.246952
 31
0.0
  0
LINE
  8
0
 62
     0
 10
10.7
 20
0.270175
 30
0.0
 11
13.5
 21
3.070175
 31
0.0
  0
LINE
  8
0
 62
     0
 10
10.7
 20
0.093398
 30
0.0
 11
13.5
 21
2.893398
 31
0.0
  0
LINE
  8
0
 62
     0
 10
10.783378
 20
0.0
 30
0.0
 11
13.5
 21
2.716622
 31
0.0
  0
LINE
  8
0
 62
     0
 10
10.960155
 20
0.0
 30
0.0
 11
13.5
 21
2.539845
 31
0.0
  0
LINE
  8
0
 62
     0
 10
11.136932
 20
0.0
 30
0.0
 11
13.5
 21
2.363068
 31
0.0
  0
LINE
  8
0
 62
     0
 10
11.313708
 20
0.0
 30
0.0
 11
13.5
 21
2.186292
 31
0.0
  0
LINE
  8
0
 62
     0
 10
11.490485
 20
0.0
 30
0.0
 11
13.5
 21
2.009515
 31
0.0
  0
LINE
  8
0
 62
     0
 10
11.667262
 20
0.0
 30
0.0
 11
13.5
 21
1.832738
 31
0.0
  0
LINE
  8
0
 62
     0
 10
11.844039
 20
0.0
 30
0.0
 11
13.5
 21
1.655961
 31
0.0
  0
LINE
  8
0
 62
     0
 10
12.020815
 20
0.0
 30
0.0
 11
13.5
 21
1.479185
 31
0.0
  0
LINE
  8
0
 62
     0
 10
12.197592
 20
0.0
 30
0.0
 11
13.5
 21
1.302408
 31
0.0
  0
LINE
  8
0
 62
     0
 10
12.374369
 20
0.0
 30
0.0
 11
13.5
 21
1.125631
 31
0.0
  0
LINE
  8
0
 62
     0
 10
12.551145
 20
0.0
 30
0.0
 11
13.5
 21
0.948855
 31
0.0
  0
LINE
  8
0
 62
     0
 10
12.727922
 20
0.0
 30
0.0
 11
13.5
 21
0.772078
 31
0.0
  0
LINE
  8
0
 62
     0
 10
12.904699
 20
0.0
 30
0.0
 11
13.5
 21
0.595301
 31
0.0
  0
LINE
  8
0
 62
     0
 10
13.081475
 20
0.0
 30
0.0
 11
13.5
 21
0.418525
 31
0.0
  0
LINE
  8
0
 62
     0
 10
13.258252
 20
0.0
 30
0.0
 11
13.5
 21
0.241748
 31
0.0
  0
LINE
  8
0
 62
     0
 10
13.435029
 20
0.0
 30
0.0
 11
13.5
 21
0.064971
 31
0.0
  0
ENDBLK
  8
0
  0
BLOCK
  8
0
  2
*X19
 70
    65
 10
0.0
 20
0.0
 30
0.0
  3
*X
  0
LINE
  8
0
 62
     0
 10
13.9
 20
6.298602
 30
0.0
 11
16.582995
 21
8.981597
 31
0.0
  0
LINE
  8
0
 62
     0
 10
13.9
 20
6.475379
 30
0.0
 11
16.510503
 21
9.085882
 31
0.0
  0
LINE
  8
0
 62
     0
 10
13.9
 20
6.652155
 30
0.0
 11
16.432927
 21
9.185083
 31
0.0
  0
LINE
  8
0
 62
     0
 10
13.9
 20
6.828932
 30
0.0
 11
16.350372
 21
9.279304
 31
0.0
  0
LINE
  8
0
 62
     0
 10
13.9
 20
7.005709
 30
0.0
 11
16.262892
 21
9.368601
 31
0.0
  0
LINE
  8
0
 62
     0
 10
13.9
 20
7.182486
 30
0.0
 11
16.170495
 21
9.452981
 31
0.0
  0
LINE
  8
0
 62
     0
 10
13.9
 20
7.359262
 30
0.0
 11
16.073145
 21
9.532407
 31
0.0
  0
LINE
  8
0
 62
     0
 10
13.9
 20
7.536039
 30
0.0
 11
15.970755
 21
9.606794
 31
0.0
  0
LINE
  8
0
 62
     0
 10
13.9
 20
7.712816
 30
0.0
 11
15.863189
 21
9.676004
 31
0.0
  0
LINE
  8
0
 62
     0
 10
13.9
 20
7.889592
 30
0.0
 11
15.75025
 21
9.739843
 31
0.0
  0
LINE
  8
0
 62
     0
 10
13.9
 20
8.066369
 30
0.0
 11
15.631675
 21
9.798044
 31
0.0
  0
LINE
  8
0
 62
     0
 10
13.9
 20
8.243146
 30
0.0
 11
15.50711
 21
9.850256
 31
0.0
  0
LINE
  8
0
 62
     0
 10
13.9
 20
8.419922
 30
0.0
 11
15.376096
 21
9.896018
 31
0.0
  0
LINE
  8
0
 62
     0
 10
13.9
 20
8.596699
 30
0.0
 11
15.238027
 21
9.934726
 31
0.0
  0
LINE
  8
0
 62
     0
 10
13.9
 20
8.773476
 30
0.0
 11
15.092096
 21
9.965572
 31
0.0
  0
LINE
  8
0
 62
     0
 10
13.9
 20
8.950253
 30
0.0
 11
14.937209
 21
9.987461
 31
0.0
  0
LINE
  8
0
 62
     0
 10
13.9
 20
9.127029
 30
0.0
 11
14.771824
 21
9.998853
 31
0.0
  0
LINE
  8
0
 62
     0
 10
13.9
 20
9.303806
 30
0.0
 11
14.596193
 21
9.999999
 31
0.0
  0
LINE
  8
0
 62
     0
 10
13.9
 20
9.480583
 30
0.0
 11
14.419417
 21
9.999999
 31
0.0
  0
LINE
  8
0
 62
     0
 10
13.9
 20
9.657359
 30
0.0
 11
14.24264
 21
10.0
 31
0.0
  0
LINE
  8
0
 62
     0
 10
13.9
 20
9.834136
 30
0.0
 11
14.065864
 21
10.0
 31
0.0
  0
LINE
  8
0
 62
     0
 10
13.9
 20
6.121825
 30
0.0
 11
16.650245
 21
8.872071
 31
0.0
  0
LINE
  8
0
 62
     0
 10
13.9
 20
5.945049
 30
0.0
 11
16.712035
 21
8.757083
 31
0.0
  0
LINE
  8
0
 62
     0
 10
13.9
 20
5.768272
 30
0.0
 11
16.768067
 21
8.636339
 31
0.0
  0
LINE
  8
0
 62
     0
 10
13.9
 20
5.591495
 30
0.0
 11
16.817955
 21
8.509451
 31
0.0
  0
LINE
  8
0
 62
     0
 10
13.9
 20
5.414719
 30
0.0
 11
16.861189
 21
8.375908
 31
0.0
  0
LINE
  8
0
 62
     0
 10
13.9
 20
5.237942
 30
0.0
 11
16.897097
 21
8.235039
 31
0.0
  0
LINE
  8
0
 62
     0
 10
14.038835
 20
5.2
 30
0.0
 11
16.924779
 21
8.085944
 31
0.0
  0
LINE
  8
0
 62
     0
 10
14.215611
 20
5.2
 30
0.0
 11
16.942997
 21
7.927385
 31
0.0
  0
LINE
  8
0
 62
     0
 10
14.392388
 20
5.2
 30
0.0
 11
16.949987
 21
7.757599
 31
0.0
  0
LINE
  8
0
 62
     0
 10
14.569165
 20
5.2
 30
0.0
 11
16.943101
 21
7.573936
 31
0.0
  0
LINE
  8
0
 62
     0
 10
14.745942
 20
5.2
 30
0.0
 11
16.918037
 21
7.372095
 31
0.0
  0
LINE
  8
0
 62
     0
 10
14.922718
 20
5.2
 30
0.0
 11
16.866909
 21
7.144191
 31
0.0
  0
LINE
  8
0
 62
     0
 10
15.099495
 20
5.2
 30
0.0
 11
16.771715
 21
6.87222
 31
0.0
  0
LINE
  8
0
 62
     0
 10
15.276272
 20
5.2
 30
0.0
 11
15.847951
 21
5.77168
 31
0.0
  0
LINE
  8
0
 62
     0
 10
15.96673
 20
5.890458
 30
0.0
 11
16.559542
 21
6.48327
 31
0.0
  0
LINE
  8
0
 62
     0
 10
15.453048
 20
5.2
 30
0.0
 11
15.970661
 21
5.717613
 31
0.0
  0
LINE
  8
0
 62
     0
 10
15.629825
 20
5.2
 30
0.0
 11
16.088934
 21
5.659109
 31
0.0
  0
LINE
  8
0
 62
     0
 10
15.806602
 20
5.2
 30
0.0
 11
16.202964
 21
5.596363
 31
0.0
  0
LINE
  8
0
 62
     0
 10
15.983378
 20
5.2
 30
0.0
 11
16.312909
 21
5.529531
 31
0.0
  0
LINE
  8
0
 62
     0
 10
16.160155
 20
5.2
 30
0.0
 11
16.418895
 21
5.45874
 31
0.0
  0
LINE
  8
0
 62
     0
 10
16.336932
 20
5.2
 30
0.0
 11
16.521021
 21
5.384089
 31
0.0
  0
LINE
  8
0
 62
     0
 10
16.513708
 20
5.2
 30
0.0
 11
16.619363
 21
5.305655
 31
0.0
  0
LINE
  8
0
 62
     0
 10
16.690485
 20
5.2
 30
0.0
 11
16.713975
 21
5.22349
 31
0.0
  0
ENDBLK
  8
0
  0
BLOCK
  8
0
  2
*X20
 70
    65
 10
0.0
 20
0.0
 30
0.0
  3
*X
  0
LINE
  8
0
 62
     0
 10
13.9
 20
0.818525
 30
0.0
 11
17.39645
 21
4.314974
 31
0.0
  0
LINE
  8
0
 62
     0
 10
13.9
 20
0.995301
 30
0.0
 11
17.336354
 21
4.431655
 31
0.0
  0
LINE
  8
0
 62
     0
 10
13.9
 20
1.172078
 30
0.0
 11
17.272078
 21
4.544156
 31
0.0
  0
LINE
  8
0
 62
     0
 10
13.9
 20
1.348855
 30
0.0
 11
17.203766
 21
4.652621
 31
0.0
  0
LINE
  8
0
 62
     0
 10
13.9
 20
1.525631
 30
0.0
 11
17.131535
 21
4.757167
 31
0.0
  0
LINE
  8
0
 62
     0
 10
13.9
 20
1.702408
 30
0.0
 11
16.997592
 21
4.8
 31
0.0
  0
LINE
  8
0
 62
     0
 10
13.9
 20
1.879185
 30
0.0
 11
16.820815
 21
4.8
 31
0.0
  0
LINE
  8
0
 62
     0
 10
13.9
 20
2.055961
 30
0.0
 11
16.644039
 21
4.8
 31
0.0
  0
LINE
  8
0
 62
     0
 10
13.9
 20
2.232738
 30
0.0
 11
16.467262
 21
4.8
 31
0.0
  0
LINE
  8
0
 62
     0
 10
13.9
 20
2.409515
 30
0.0
 11
16.290485
 21
4.8
 31
0.0
  0
LINE
  8
0
 62
     0
 10
13.9
 20
2.586292
 30
0.0
 11
16.113708
 21
4.8
 31
0.0
  0
LINE
  8
0
 62
     0
 10
13.9
 20
2.763068
 30
0.0
 11
15.936932
 21
4.8
 31
0.0
  0
LINE
  8
0
 62
     0
 10
13.9
 20
2.939845
 30
0.0
 11
15.760155
 21
4.8
 31
0.0
  0
LINE
  8
0
 62
     0
 10
13.9
 20
3.116622
 30
0.0
 11
15.583378
 21
4.8
 31
0.0
  0
LINE
  8
0
 62
     0
 10
13.9
 20
3.293398
 30
0.0
 11
15.406602
 21
4.8
 31
0.0
  0
LINE
  8
0
 62
     0
 10
13.9
 20
3.470175
 30
0.0
 11
15.229825
 21
4.8
 31
0.0
  0
LINE
  8
0
 62
     0
 10
13.9
 20
3.646952
 30
0.0
 11
15.053048
 21
4.8
 31
0.0
  0
LINE
  8
0
 62
     0
 10
13.9
 20
3.823728
 30
0.0
 11
14.876272
 21
4.8
 31
0.0
  0
LINE
  8
0
 62
     0
 10
13.9
 20
4.000505
 30
0.0
 11
14.699495
 21
4.8
 31
0.0
  0
LINE
  8
0
 62
     0
 10
13.9
 20
4.177282
 30
0.0
 11
14.522718
 21
4.8
 31
0.0
  0
LINE
  8
0
 62
     0
 10
13.9
 20
4.354058
 30
0.0
 11
14.345942
 21
4.8
 31
0.0
  0
LINE
  8
0
 62
     0
 10
13.9
 20
4.530835
 30
0.0
 11
14.169165
 21
4.8
 31
0.0
  0
LINE
  8
0
 62
     0
 10
13.9
 20
4.707612
 30
0.0
 11
13.992388
 21
4.8
 31
0.0
  0
LINE
  8
0
 62
     0
 10
13.9
 20
0.641748
 30
0.0
 11
17.452185
 21
4.193933
 31
0.0
  0
LINE
  8
0
 62
     0
 10
13.9
 20
0.464971
 30
0.0
 11
17.503339
 21
4.068311
 31
0.0
  0
LINE
  8
0
 62
     0
 10
13.9
 20
0.288194
 30
0.0
 11
17.549642
 21
3.937837
 31
0.0
  0
LINE
  8
0
 62
     0
 10
13.9
 20
0.111418
 30
0.0
 11
17.590762
 21
3.80218
 31
0.0
  0
LINE
  8
0
 62
     0
 10
13.965359
 20
0.0
 30
0.0
 11
17.62629
 21
3.660931
 31
0.0
  0
LINE
  8
0
 62
     0
 10
14.142136
 20
0.000001
 30
0.0
 11
17.655713
 21
3.513577
 31
0.0
  0
LINE
  8
0
 62
     0
 10
14.318913
 20
0.000001
 30
0.0
 11
17.678385
 21
3.359473
 31
0.0
  0
LINE
  8
0
 62
     0
 10
14.49569
 20
0.000001
 30
0.0
 11
17.693473
 21
3.197784
 31
0.0
  0
LINE
  8
0
 62
     0
 10
14.672467
 20
0.000002
 30
0.0
 11
17.699875
 21
3.027409
 31
0.0
  0
LINE
  8
0
 62
     0
 10
14.853154
 20
0.003912
 30
0.0
 11
17.696088
 21
2.846846
 31
0.0
  0
LINE
  8
0
 62
     0
 10
15.046044
 20
0.020025
 30
0.0
 11
17.679975
 21
2.653956
 31
0.0
  0
LINE
  8
0
 62
     0
 10
15.254483
 20
0.051687
 30
0.0
 11
17.648313
 21
2.445517
 31
0.0
  0
LINE
  8
0
 62
     0
 10
15.483762
 20
0.10419
 30
0.0
 11
17.59581
 21
2.216238
 31
0.0
  0
LINE
  8
0
 62
     0
 10
15.743786
 20
0.187437
 30
0.0
 11
17.512563
 21
1.956214
 31
0.0
  0
LINE
  8
0
 62
     0
 10
16.058176
 20
0.32505
 30
0.0
 11
17.37495
 21
1.641824
 31
0.0
  0
LINE
  8
0
 62
     0
 10
16.54193
 20
0.632028
 30
0.0
 11
17.067972
 21
1.15807
 31
0.0
  0
ENDBLK
  8
0
  0
BLOCK
  8
0
  2
B155
 70
     0
 10
0.0
 20
0.0
 30
0.0
  3
B155
  0
LINE
  8
0
  6
CONTINUOUS
 10
0.0
 20
0.0
 30
0.0
 11
0.0
 21
-1.35427
 31
0.0
  0
LINE
  8
0
  6
CONTINUOUS
 10
-1.210228
 20
-1.35427
 30
0.0
 11
-0.015887
 21
-1.35427
 31
0.0
  0
LINE
  8
0
  6
CONTINUOUS
 10
-0.015887
 20
-1.35427
 30
0.0
 11
1.178454
 21
-1.35427
 31
0.0
  0
LINE
  8
0
  6
CONTINUOUS
 10
-0.831823
 20
-1.833881
 30
0.0
 11
0.752749
 21
-1.833881
 31
0.0
  0
LINE
  8
0
  6
CONTINUOUS
 10
-0.500718
 20
-2.322055
 30
0.0
 11
0.386169
 21
-2.322055
 31
0.0
  0
ENDBLK
  8
0
  0
BLOCK
  8
0
  2
MAA
 70
    64
 10
0.0
 20
0.0
 30
0.0
  3
MAA
  0
LINE
  8
0
  6
CONTINUOUS
 10
-0.500718
 20
-2.587966
 30
0.0
 11
0.386169
 21
-2.587966
 31
0.0
  0
LINE
  8
0
  6
CONTINUOUS
 10
-0.831823
 20
-1.976333
 30
0.0
 11
0.752749
 21
-1.976333
 31
0.0
  0
LINE
  8
0
  6
CONTINUOUS
 10
-0.015887
 20
-1.35427
 30
0.0
 11
1.178454
 21
-1.35427
 31
0.0
  0
LINE
  8
0
  6
CONTINUOUS
 10
-1.210228
 20
-1.35427
 30
0.0
 11
-0.015887
 21
-1.35427
 31
0.0
  0
LINE
  8
0
  6
CONTINUOUS
 10
0.0
 20
0.0
 30
0.0
 11
0.0
 21
-1.35427
 31
0.0
  0
ENDBLK
  8
0
  0
BLOCK
  8
0
  2
B230
 70
    64
 10
0.0
 20
0.0
 30
0.0
  3
B230
  0
TEXT
  8
BASE
  6
DASHED
 10
-4.19596
 20
-6.639601
 30
0.0
 40
1.5
  1
0,1...1s
  7
ROMANS
  0
LINE
  8
BASE
 10
-4.875812
 20
-0.6616
 30
0.0
 11
-4.875812
 21
-8.851525
 31
0.0
  0
LINE
  8
BASE
 10
4.901872
 20
-0.6616
 30
0.0
 11
-4.875812
 21
-0.6616
 31
0.0
  0
LINE
  8
BASE
 10
-4.875812
 20
-8.851525
 30
0.0
 11
4.901872
 21
-8.851525
 31
0.0
  0
LINE
  8
BASE
 10
4.901872
 20
-8.851525
 30
0.0
 11
4.901872
 21
-0.6616
 31
0.0
  0
LINE
  8
BASE
 10
2.759106
 20
-1.955255
 30
0.0
 11
2.759106
 21
-3.391635
 31
0.0
  0
LINE
  8
BASE
 10
-2.557808
 20
-1.955255
 30
0.0
 11
-2.557808
 21
-3.391635
 31
0.0
  0
LINE
  8
BASE
 10
-2.557808
 20
-2.673445
 30
0.0
 11
2.76563
 21
-2.673445
 31
0.0
  0
ENDBLK
  8
0
  0
BLOCK
  8
0
  2
B67
 70
     0
 10
0.0
 20
0.0
 30
0.0
  3
B67
  0
LINE
  8
BASE
  6
CONTINUOUS
 10
-1.897097
 20
-3.556254
 30
0.0
 11
-2.963522
 21
-2.489829
 31
0.0
  0
LINE
  8
BASE
  6
CONTINUOUS
 10
-2.963522
 20
-2.489829
 30
0.0
 11
-1.897097
 21
-1.423405
 31
0.0
  0
LINE
  8
BASE
  6
CONTINUOUS
 10
-1.897097
 20
-1.423405
 30
0.0
 11
-0.830672
 21
-2.489829
 31
0.0
  0
LINE
  8
BASE
  6
CONTINUOUS
 10
-0.830672
 20
-2.489829
 30
0.0
 11
-1.897097
 21
-3.556254
 31
0.0
  0
LINE
  8
BASE
  6
DASHED
 10
0.0
 20
0.0
 30
0.0
 11
-5.000117
 21
0.0
 31
0.0
  0
TEXT
  8
BASE
  6
DASHED
 10
-8.422045
 20
-3.481615
 30
0.0
 40
2.0
  1
14B
  0
LINE
  8
BASE
  6
DASHED
 10
-12.5
 20
0.0
 30
0.0
 11
-30.0
 21
0.0
 31
0.0
  0
TEXT
  8
BASE
  6
DASHED
 10
-12.5
 20
3.402046
 30
0.0
 40
2.0
  1
101
  0
TEXT
  8
BASE
  6
DASHED
 10
-18.160336
 20
-3.602839
 30
0.0
 40
2.0
  1
14A 
  0
INSERT
  8
0
  6
CONTINUOUS
  2
B37
 10
-12.5
 20
0.0
 30
0.0
 50
90.0
  0
ENDBLK
  8
0
  0
BLOCK
  8
0
  2
B37
 70
    64
 10
0.0
 20
0.0
 30
0.0
  3
B37
  0
LINE
  8
BASE
  6
CONTINUOUS
 10
-0.006589
 20
-6.018035
 30
0.0
 11
2.434804
 21
0.662841
 31
0.0
  0
LINE
  8
BASE
  6
CONTINUOUS
 10
0.0
 20
0.0
 30
0.0
 11
2.765661
 21
0.0
 31
0.0
  0
LINE
  8
BASE
  6
CONTINUOUS
 10
2.434804
 20
0.662841
 30
0.0
 11
1.549106
 21
1.107734
 31
0.0
  0
CIRCLE
  8
BASE
  6
CONTINUOUS
 10
0.0
 20
-6.758945
 30
0.0
 40
0.740939
  0
ENDBLK
  8
0
  0
BLOCK
  8
0
  2
B68
 70
     0
 10
0.0
 20
0.0
 30
0.0
  3
B68
  0
TEXT
  8
BASE
  6
CONTINUOUS
 10
-25.0
 20
-3.800404
 30
0.0
 40
2.0
  1
17A    17B
  0
CIRCLE
  8
BASE
  6
CONTINUOUS
 10
-2.5
 20
-2.5
 30
0.0
 40
0.806201
  0
CIRCLE
  8
BASE
  6
CONTINUOUS
 10
-2.5
 20
-2.5
 30
0.0
 40
1.484482
  0
LINE
  8
BASE
  6
CONTINUOUS
 10
-10.0
 20
0.0
 30
0.0
 11
0.0
 21
0.0
 31
0.0
  0
TEXT
  8
BASE
  6
DASHED
 10
-17.440617
 20
3.559927
 30
0.0
 40
2.0
  1
101
  0
LINE
  8
BASE
  6
DASHED
 10
-27.5
 20
0.0
 30
0.0
 11
-17.5
 21
0.0
 31
0.0
  0
LINE
  8
BASE
  6
CONTINUOUS
 10
-11.481965
 20
-0.006589
 30
0.0
 11
-18.162841
 21
2.434804
 31
0.0
  0
LINE
  8
BASE
  6
CONTINUOUS
 10
-17.5
 20
0.0
 30
0.0
 11
-17.5
 21
2.765661
 31
0.0
  0
LINE
  8
BASE
  6
CONTINUOUS
 10
-18.162841
 20
2.434804
 30
0.0
 11
-18.607734
 21
1.549106
 31
0.0
  0
CIRCLE
  8
BASE
  6
CONTINUOUS
 10
-10.741055
 20
0.0
 30
0.0
 40
0.740939
  0
ENDBLK
  8
0
  0
BLOCK
  8
0
  2
B13
 70
     0
 10
0.0
 20
0.0
 30
0.0
  3
B13
  0
LINE
  8
BASE
  6
CONTINUOUS
 10
0.00793
 20
5.0
 30
0.0
 11
0.00793
 21
-5.0
 31
0.0
  0
LINE
  8
BASE
  6
CONTINUOUS
 10
0.0
 20
-11.000004
 30
0.0
 11
0.0
 21
-17.5
 31
0.0
  0
LINE
  8
BASE
  6
CONTINUOUS
 10
5.0
 20
-11.000004
 30
0.0
 11
5.0
 21
-17.5
 31
0.0
  0
LINE
  8
BASE
  6
CONTINUOUS
 10
4.982972
 20
5.0
 30
0.0
 11
4.982972
 21
-5.0
 31
0.0
  0
LINE
  8
BASE
  6
CONTINUOUS
 10
10.0
 20
-5.0
 30
0.0
 11
10.0
 21
-1.412306
 31
0.0
  0
LINE
  8
BASE
  6
CONTINUOUS
 10
10.0
 20
-0.21377
 30
0.0
 11
10.0
 21
2.28623
 31
0.0
  0
LINE
  8
BASE
  6
CONTINUOUS
 10
10.0
 20
-11.000004
 30
0.0
 11
10.0
 21
-17.5
 31
0.0
  0
LINE
  8
BASE
  6
CONTINUOUS
 10
10.0
 20
-11.000004
 30
0.0
 11
12.434804
 21
-4.337159
 31
0.0
  0
LINE
  8
BASE
  6
CONTINUOUS
 10
10.0
 20
-5.0
 30
0.0
 11
12.765661
 21
-5.0
 31
0.0
  0
LINE
  8
BASE
  6
CONTINUOUS
 10
12.434804
 20
-4.337159
 30
0.0
 11
11.549106
 21
-3.892266
 31
0.0
  0
LINE
  8
BASE
  6
CONTINUOUS
 10
5.0
 20
-5.0
 30
0.0
 11
7.765661
 21
-5.0
 31
0.0
  0
LINE
  8
BASE
  6
CONTINUOUS
 10
7.434804
 20
-4.337159
 30
0.0
 11
6.549106
 21
-3.892266
 31
0.0
  0
LINE
  8
BASE
  6
CONTINUOUS
 10
5.0
 20
-11.000004
 30
0.0
 11
7.434804
 21
-4.337159
 31
0.0
  0
LINE
  8
BASE
  6
CONTINUOUS
 10
0.0
 20
-11.000004
 30
0.0
 11
2.434804
 21
-4.337159
 31
0.0
  0
LINE
  8
BASE
  6
CONTINUOUS
 10
0.0
 20
-5.0
 30
0.0
 11
2.765661
 21
-5.0
 31
0.0
  0
ENDBLK
  8
0
  0
BLOCK
  8
0
  2
B11
 70
     0
 10
0.0
 20
0.0
 30
0.0
  3
B11
  0
TEXT
  8
BASE
  6
CONTINUOUS
 10
-4.579696
 20
-2.847581
 30
0.0
 40
2.0
  1
8A
  0
TEXT
  8
BASE
  6
CONTINUOUS
 10
-4.579696
 20
6.962947
 30
0.0
 40
2.0
  1
7A
  0
TEXT
  8
BASE
  6
CONTINUOUS
 10
-4.579696
 20
17.07474
 30
0.0
 40
2.0
  1
6A
  0
TEXT
  8
BASE
  6
CONTINUOUS
 10
-4.579696
 20
27.186533
 30
0.0
 40
2.0
  1
5A
  0
TEXT
  8
BASE
  6
CONTINUOUS
 10
-4.579696
 20
37.448958
 30
0.0
 40
2.0
  1
4A
  0
TEXT
  8
BASE
  6
CONTINUOUS
 10
-4.579696
 20
46.958222
 30
0.0
 40
2.0
  1
3A
  0
TEXT
  8
BASE
  6
CONTINUOUS
 10
-20.369738
 20
48.419138
 30
0.0
 40
1.5
  1
101
  0
INSERT
  8
BASE
  6
CONTINUOUS
  2
BLC29
 10
-27.142151
 20
29.871732
 30
0.0
 50
180.0
  0
INSERT
  8
BASE
  6
CONTINUOUS
  2
BLC29
 10
-27.142151
 20
-0.128536
 30
0.0
 50
180.0
  0
LINE
  8
BASE
  6
CONTINUOUS
 10
-20.0
 20
-5.0
 30
0.0
 11
-17.5
 21
-5.0
 31
0.0
  0
LINE
  8
BASE
  6
CONTINUOUS
 10
-20.0
 20
5.0
 30
0.0
 11
-17.5
 21
5.0
 31
0.0
  0
LINE
  8
BASE
  6
CONTINUOUS
 10
-20.0
 20
15.0
 30
0.0
 11
-17.5
 21
15.0
 31
0.0
  0
LINE
  8
BASE
  6
CONTINUOUS
 10
-20.0
 20
25.0
 30
0.0
 11
-17.5
 21
25.0
 31
0.0
  0
LINE
  8
BASE
  6
CONTINUOUS
 10
-20.0
 20
35.0
 30
0.0
 11
-17.5
 21
35.0
 31
0.0
  0
LINE
  8
BASE
  6
CONTINUOUS
 10
-20.0
 20
45.0
 30
0.0
 11
-17.5
 21
45.0
 31
0.0
  0
LINE
  8
BASE
  6
CONTINUOUS
 10
-22.5
 20
5.0
 30
0.0
 11
-21.5
 21
6.0
 31
0.0
  0
LINE
  8
BASE
  6
CONTINUOUS
 10
-22.5
 20
-5.0
 30
0.0
 11
-21.5
 21
-6.0
 31
0.0
  0
LINE
  8
BASE
  6
CONTINUOUS
 10
-22.5
 20
5.0
 30
0.0
 11
-22.5
 21
-5.0
 31
0.0
  0
LINE
  8
BASE
  6
CONTINUOUS
 10
-22.5
 20
15.0
 30
0.0
 11
-21.5
 21
14.0
 31
0.0
  0
LINE
  8
BASE
  6
CONTINUOUS
 10
-22.5
 20
45.0
 30
0.0
 11
-21.5
 21
46.0
 31
0.0
  0
LINE
  8
BASE
  6
CONTINUOUS
 10
-22.5
 20
45.0
 30
0.0
 11
-22.5
 21
15.0
 31
0.0
  0
LINE
  8
21
 10
-5.0
 20
0.0
 30
0.0
 11
-10.8
 21
-3.5
 31
0.0
  0
LINE
  8
HEL035
 10
-11.11905
 20
-3.055575
 30
0.0
 11
-10.439687
 21
-3.991319
 31
0.0
  0
LINE
  8
21
 10
-10.0
 20
-5.0
 30
0.0
 11
-10.0
 21
-2.1
 31
0.0
  0
LINE
  8
21
 10
-12.5
 20
-5.0
 30
0.0
 11
-10.0
 21
-5.0
 31
0.0
  0
LINE
  8
HEL035
 10
-17.5
 20
-5.0
 30
0.0
 11
-12.5
 21
-5.0
 31
0.0
  0
INSERT
  8
BASE
  6
CENTER
  2
BLC22
 10
-15.0
 20
0.0
 30
0.0
  0
LINE
  8
HEL035
 10
-17.5
 20
15.0
 30
0.0
 11
-12.5
 21
15.0
 31
0.0
  0
LINE
  8
21
 10
-12.5
 20
15.0
 30
0.0
 11
-10.0
 21
15.0
 31
0.0
  0
LINE
  8
21
 10
-10.0
 20
15.0
 30
0.0
 11
-10.0
 21
17.9
 31
0.0
  0
LINE
  8
HEL035
 10
-11.11905
 20
16.944425
 30
0.0
 11
-10.439687
 21
16.008681
 31
0.0
  0
LINE
  8
21
 10
-5.0
 20
20.0
 30
0.0
 11
-10.8
 21
16.5
 31
0.0
  0
INSERT
  8
BASE
  6
CENTER
  2
BLC22
 10
-15.0
 20
20.0
 30
0.0
  0
LINE
  8
21
 10
-5.0
 20
40.0
 30
0.0
 11
-10.8
 21
36.5
 31
0.0
  0
LINE
  8
HEL035
 10
-11.11905
 20
36.944425
 30
0.0
 11
-10.439687
 21
36.008681
 31
0.0
  0
LINE
  8
21
 10
-10.0
 20
35.0
 30
0.0
 11
-10.0
 21
37.9
 31
0.0
  0
LINE
  8
21
 10
-12.5
 20
35.0
 30
0.0
 11
-10.0
 21
35.0
 31
0.0
  0
LINE
  8
HEL035
 10
-17.5
 20
35.0
 30
0.0
 11
-12.5
 21
35.0
 31
0.0
  0
INSERT
  8
BASE
  6
CENTER
  2
BLC22
 10
-15.0
 20
40.0
 30
0.0
  0
LINE
  8
BASE
  6
CONTINUOUS
 10
-22.5
 20
0.0
 30
0.0
 11
-32.049385
 21
0.0
 31
0.0
  0
LINE
  8
BASE
  6
CONTINUOUS
 10
-22.5
 20
30.0
 30
0.0
 11
-32.049385
 21
30.0
 31
0.0
  0
LINE
  8
BASE
  6
CONTINUOUS
 10
-5.0
 20
50.0
 30
0.0
 11
0.0
 21
50.0
 31
0.0
  0
LINE
  8
BASE
  6
CONTINUOUS
 10
-5.0
 20
40.0
 30
0.0
 11
0.0
 21
40.0
 31
0.0
  0
LINE
  8
BASE
  6
CONTINUOUS
 10
-5.0
 20
30.0
 30
0.0
 11
0.0
 21
30.0
 31
0.0
  0
LINE
  8
BASE
  6
CONTINUOUS
 10
-5.0
 20
20.0
 30
0.0
 11
0.0
 21
20.0
 31
0.0
  0
LINE
  8
BASE
  6
CONTINUOUS
 10
-5.0
 20
10.0
 30
0.0
 11
0.0
 21
10.0
 31
0.0
  0
LINE
  8
BASE
  6
CONTINUOUS
 10
-5.0
 20
0.0
 30
0.0
 11
0.0
 21
0.0
 31
0.0
  0
ENDBLK
  8
0
  0
BLOCK
  8
0
  2
BLC22
 70
    64
 10
0.0
 20
0.0
 30
0.0
  3
BLC22
  0
LINE
  8
HEL035
 10
0.0
 20
-0.00155
 30
0.0
 11
0.0
 21
9.99845
 31
0.0
  0
LINE
  8
21
 10
2.5
 20
10.0
 30
0.0
 11
5.0
 21
10.0
 31
0.0
  0
LINE
  8
HEL035
 10
0.0
 20
9.99845
 30
0.0
 11
2.5
 21
9.99845
 31
0.0
  0
LINE
  8
HEL035
 10
-2.5
 20
5.0
 30
0.0
 11
2.5
 21
5.0
 31
0.0
  0
LINE
  8
21
 10
2.5
 20
5.0
 30
0.0
 11
5.0
 21
5.0
 31
0.0
  0
LINE
  8
21
 10
5.0
 20
5.0
 30
0.0
 11
5.0
 21
7.9
 31
0.0
  0
LINE
  8
HEL035
 10
3.88095
 20
6.944425
 30
0.0
 11
4.560313
 21
6.008681
 31
0.0
  0
LINE
  8
21
 10
10.0
 20
10.0
 30
0.0
 11
4.2
 21
6.5
 31
0.0
  0
LINE
  8
HEL035
 10
2.5
 20
-0.00155
 30
0.0
 11
0.0
 21
-0.00155
 31
0.0
  0
LINE
  8
21
 10
2.5
 20
0.0
 30
0.0
 11
5.0
 21
0.0
 31
0.0
  0
ENDBLK
  8
0
  0
BLOCK
  8
0
  2
B204
 70
     0
 10
0.0
 20
0.0
 30
0.0
  3
B204
  0
TEXT
  8
BASE
  6
CONTINUOUS
 10
-5.818294
 20
-13.161989
 30
0.0
 40
2.0
  1
12A
  0
TEXT
  8
BASE
  6
CONTINUOUS
 10
-5.818294
 20
-3.442734
 30
0.0
 40
2.0
  1
11A
  0
LINE
  8
BASE
  6
CONTINUOUS
 10
-5.0
 20
-10.0
 30
0.0
 11
0.0
 21
-10.0
 31
0.0
  0
LINE
  8
BASE
  6
CONTINUOUS
 10
-20.0
 20
-10.017028
 30
0.0
 11
-10.0
 21
-10.017028
 31
0.0
  0
LINE
  8
BASE
  6
CONTINUOUS
 10
-10.0
 20
-10.017028
 30
0.0
 11
-10.0
 21
-7.234339
 31
0.0
  0
LINE
  8
BASE
  6
CONTINUOUS
 10
-10.897173
 20
-7.565196
 30
0.0
 11
-11.342066
 21
-8.450894
 31
0.0
  0
LINE
  8
BASE
  6
CONTINUOUS
 10
-10.897173
 20
-7.565196
 30
0.0
 11
-5.0
 21
-10.0
 31
0.0
  0
LINE
  8
BASE
  6
CONTINUOUS
 10
-10.897173
 20
2.434804
 30
0.0
 11
-5.0
 21
0.0
 31
0.0
  0
LINE
  8
BASE
  6
CONTINUOUS
 10
-10.897173
 20
2.434804
 30
0.0
 11
-11.342066
 21
1.549106
 31
0.0
  0
LINE
  8
BASE
  6
CONTINUOUS
 10
-10.0
 20
-0.017028
 30
0.0
 11
-10.0
 21
2.765661
 31
0.0
  0
LINE
  8
BASE
  6
CONTINUOUS
 10
-20.0
 20
-0.017028
 30
0.0
 11
-10.0
 21
-0.017028
 31
0.0
  0
LINE
  8
BASE
  6
CONTINUOUS
 10
-5.0
 20
0.0
 30
0.0
 11
0.0
 21
0.0
 31
0.0
  0
ENDBLK
  8
0
  0
ENDSEC
  0
SECTION
  2
ENTITIES
  0
INSERT
  8
0
  2
1
 10
65.405438
 20
98.713066
 30
0.0
  0
INSERT
  8
0
  2
1
 10
72.541652
 20
49.71056
 30
0.0
  0
INSERT
  8
0
  2
1
 10
85.390443
 20
73.497234
 30
0.0
  0
LINE
  8
0
  6
CENTER
 62
   249
 10
230.0
 20
217.5
 30
0.0
 11
230.0
 21
87.5
 31
0.0
  0
LINE
  8
0
  6
CENTER
 62
   249
 10
230.0
 20
87.5
 30
0.0
 11
230.0
 21
57.5
 31
0.0
  0
LINE
  8
0
  6
CONTINUOUS
 62
   249
 10
200.0
 20
72.5
 30
0.0
 11
210.0
 21
72.5
 31
0.0
  0
LINE
  8
0
  6
CONTINUOUS
 62
   249
 10
200.0
 20
72.5
 30
0.0
 11
202.5
 21
75.0
 31
0.0
  0
LINE
  8
0
  6
CONTINUOUS
 62
   249
 10
205.0
 20
72.5
 30
0.0
 11
207.5
 21
75.0
 31
0.0
  0
LINE
  8
0
  6
CONTINUOUS
 62
   249
 10
210.0
 20
72.5
 30
0.0
 11
212.5
 21
75.0
 31
0.0
  0
LINE
  8
0
  6
CONTINUOUS
 62
   249
 10
205.0
 20
72.5
 30
0.0
 11
205.0
 21
57.5
 31
0.0
  0
LINE
  8
0
  6
CONTINUOUS
 62
   249
 10
192.5
 20
75.0
 30
0.0
 11
192.5
 21
57.5
 31
0.0
  0
LINE
  8
0
  6
CONTINUOUS
 62
   249
 10
187.5
 20
75.0
 30
0.0
 11
187.5
 21
57.5
 31
0.0
  0
LINE
  8
0
  6
DASHED
 62
   249
 10
192.5
 20
57.5
 30
0.0
 11
192.5
 21
50.0
 31
0.0
  0
LINE
  8
0
  6
DASHED
 62
   249
 10
205.0
 20
57.5
 30
0.0
 11
205.0
 21
50.0
 31
0.0
  0
LINE
  8
0
  6
DASHED
 62
   249
 10
187.5
 20
57.5
 30
0.0
 11
187.5
 21
50.0
 31
0.0
  0
LINE
  8
0
  6
DASHED
 62
   249
 10
172.5
 20
57.5
 30
0.0
 11
172.5
 21
50.0
 31
0.0
  0
LINE
  8
0
  6
DASHED
 62
   249
 10
157.5
 20
57.5
 30
0.0
 11
157.5
 21
50.0
 31
0.0
  0
LINE
  8
0
  6
DASHED
 62
   249
 10
150.0
 20
57.5
 30
0.0
 11
150.0
 21
50.0
 31
0.0
  0
LINE
  8
0
  6
DASHED
 62
   249
 10
145.0
 20
57.5
 30
0.0
 11
145.0
 21
50.0
 31
0.0
  0
TEXT
  8
0
  6
CONTINUOUS
 62
   249
 10
169.335932
 20
155.912104
 30
0.0
 40
2.5
  1
I
 11
169.335932
 21
155.078771
 31
0.0
 73
     1
  0
LINE
  8
0
  6
CONTINUOUS
 62
   249
 10
175.999501
 20
181.820633
 30
0.0
 11
173.653736
 21
180.630714
 31
0.0
  0
LINE
  8
0
  6
CONTINUOUS
 62
   249
 10
173.653736
 20
183.155987
 30
0.0
 11
175.999501
 21
181.820633
 31
0.0
  0
LINE
  8
0
  6
CONTINUOUS
 62
   249
 10
173.455418
 20
181.820633
 30
0.0
 11
171.109652
 21
180.630714
 31
0.0
  0
LINE
  8
0
  6
CONTINUOUS
 62
   249
 10
171.109652
 20
183.155987
 30
0.0
 11
173.455418
 21
181.820633
 31
0.0
  0
TEXT
  8
0
  6
CONTINUOUS
 62
   249
 10
169.300457
 20
180.639998
 30
0.0
 40
2.5
  1
I
 11
169.300457
 21
179.806664
 31
0.0
 73
     1
  0
TEXT
  8
0
  6
CONTINUOUS
 62
   249
 10
191.065851
 20
165.294697
 30
0.0
 40
2.5
  1
I
 11
191.065851
 21
164.461364
 31
0.0
 73
     1
  0
LINE
  8
0
  6
CONTINUOUS
 62
   249
 10
167.5
 20
137.732891
 30
0.0
 11
197.950615
 21
137.732891
 31
0.0
  0
TEXT
  8
0
  6
CONTINUOUS
 62
   249
 10
179.408766
 20
133.795815
 30
0.0
 40
2.5
  1
IRF
 11
179.408766
 21
132.962481
 31
0.0
 73
     1
  0
LINE
  8
0
  6
CONTINUOUS
 62
   249
 10
197.950615
 20
132.5
 30
0.0
 11
167.5
 21
132.5
 31
0.0
  0
LINE
  8
0
  6
CONTINUOUS
 62
   249
 10
197.950615
 20
187.209828
 30
0.0
 11
197.950615
 21
132.5
 31
0.0
  0
LINE
  8
0
  6
CONTINUOUS
 62
   249
 10
197.950615
 20
205.0
 30
0.0
 11
197.950615
 21
187.18832
 31
0.0
  0
LINE
  8
0
  6
CONTINUOUS
 62
   249
 10
172.5
 20
77.5
 30
0.0
 11
172.5
 21
70.0
 31
0.0
  0
LINE
  8
0
  6
CONTINUOUS
 62
   249
 10
150.0
 20
77.5
 30
0.0
 11
150.0
 21
57.5
 31
0.0
  0
LINE
  8
0
  6
CONTINUOUS
 62
   249
 10
167.5
 20
142.5
 30
0.0
 11
197.950615
 21
142.5
 31
0.0
  0
TEXT
  8
0
  6
CONTINUOUS
 62
   249
 10
171.230324
 20
138.495811
 30
0.0
 40
2.5
  1
SERIAL I/O
  0
LINE
  8
0
  6
CONTINUOUS
 62
   249
 10
167.5
 20
155.0
 30
0.0
 11
197.950615
 21
155.0
 31
0.0
  0
CIRCLE
  8
0
  6
CONTINUOUS
 62
   249
 10
166.512659
 20
134.998324
 30
0.0
 40
1.0
  0
TEXT
  8
0
  6
CONTINUOUS
 62
   249
 10
168.34902
 20
143.997146
 30
0.0
 40
1.5
  1
EN RESET
  0
TEXT
  8
0
  6
CONTINUOUS
 62
   249
 10
168.34902
 20
150.0
 30
0.0
 40
1.5
  1
EN RC SETTINGS
  0
TEXT
  8
0
  6
CONTINUOUS
 62
   249
 10
168.406909
 20
159.464509
 30
0.0
 40
1.5
  1
EN
  0
CIRCLE
  8
0
  6
CONTINUOUS
 62
   249
 10
166.512659
 20
160.218011
 30
0.0
 40
1.0
  0
LINE
  8
0
  6
CONTINUOUS
 62
   249
 10
179.01908
 20
156.63098
 30
0.0
 11
176.673314
 21
155.441061
 31
0.0
  0
LINE
  8
0
  6
CONTINUOUS
 62
   249
 10
176.673314
 20
157.966334
 30
0.0
 11
179.01908
 21
156.63098
 31
0.0
  0
LINE
  8
0
  6
CONTINUOUS
 62
   249
 10
174.11726
 20
157.966334
 30
0.0
 11
176.463026
 21
156.63098
 31
0.0
  0
LINE
  8
0
  6
CONTINUOUS
 62
   249
 10
176.463026
 20
156.63098
 30
0.0
 11
174.11726
 21
155.441061
 31
0.0
  0
LINE
  8
0
  6
CONTINUOUS
 62
   249
 10
195.906026
 20
193.206796
 30
0.0
 11
193.56026
 21
192.016877
 31
0.0
  0
LINE
  8
0
  6
CONTINUOUS
 62
   249
 10
193.56026
 20
194.54215
 30
0.0
 11
195.906026
 21
193.206796
 31
0.0
  0
LINE
  8
0
  6
CONTINUOUS
 62
   249
 10
176.463026
 20
171.955251
 30
0.0
 11
174.11726
 21
170.765332
 31
0.0
  0
LINE
  8
0
  6
CONTINUOUS
 62
   249
 10
174.11726
 20
173.290605
 30
0.0
 11
176.463026
 21
171.955251
 31
0.0
  0
TEXT
  8
0
  6
CONTINUOUS
 62
   249
 10
169.335932
 20
171.236375
 30
0.0
 40
2.5
  1
I
 11
169.335932
 21
170.403042
 31
0.0
 73
     1
  0
LINE
  8
0
  6
CONTINUOUS
 62
   249
 10
187.5
 20
155.0
 30
0.0
 11
187.5
 21
202.5
 31
0.0
  0
LINE
  8
0
  6
CONTINUOUS
 62
   249
 10
167.5
 20
175.0
 30
0.0
 11
187.5
 21
175.0
 31
0.0
  0
LINE
  8
0
  6
CONTINUOUS
 62
   249
 10
167.5
 20
170.0
 30
0.0
 11
187.5
 21
170.0
 31
0.0
  0
TEXT
  8
0
  6
CONTINUOUS
 62
   249
 10
169.335932
 20
163.489978
 30
0.0
 40
2.5
  1
I
 11
169.335932
 21
162.656645
 31
0.0
 73
     1
  0
LINE
  8
0
  6
CONTINUOUS
 62
   249
 10
176.463026
 20
164.208854
 30
0.0
 11
174.11726
 21
163.018935
 31
0.0
  0
LINE
  8
0
  6
CONTINUOUS
 62
   249
 10
174.11726
 20
165.544208
 30
0.0
 11
176.463026
 21
164.208854
 31
0.0
  0
TEXT
  8
0
  6
CONTINUOUS
 62
   249
 10
168.406909
 20
167.135468
 30
0.0
 40
1.5
  1
EN
  0
CIRCLE
  8
0
  6
CONTINUOUS
 62
   249
 10
166.512659
 20
167.88897
 30
0.0
 40
1.0
  0
LINE
  8
0
  6
CONTINUOUS
 62
   249
 10
176.463026
 20
177.264458
 30
0.0
 11
174.11726
 21
176.074538
 31
0.0
  0
LINE
  8
0
  6
CONTINUOUS
 62
   249
 10
174.11726
 20
178.599811
 30
0.0
 11
176.463026
 21
177.264458
 31
0.0
  0
LINE
  8
0
  6
CONTINUOUS
 62
   249
 10
167.5
 20
180.0
 30
0.0
 11
197.950615
 21
180.0
 31
0.0
  0
LINE
  8
0
  6
CONTINUOUS
 62
   249
 10
167.5
 20
187.5
 30
0.0
 11
187.5
 21
187.5
 31
0.0
  0
TEXT
  8
0
  6
CONTINUOUS
 62
   249
 10
168.406909
 20
197.339137
 30
0.0
 40
1.5
  1
EN
  0
CIRCLE
  8
0
  6
CONTINUOUS
 62
   249
 10
166.512659
 20
198.092639
 30
0.0
 40
1.0
  0
LINE
  8
0
  6
CONTINUOUS
 62
   249
 10
178.653232
 20
165.033887
 30
0.0
 11
178.653232
 21
163.245756
 31
0.0
  0
LINE
  8
0
  6
CONTINUOUS
 62
   249
 10
178.684263
 20
164.188609
 30
0.0
 11
186.472468
 21
164.188609
 31
0.0
  0
LINE
  8
0
  6
CONTINUOUS
 62
   249
 10
181.068408
 20
163.021006
 30
0.0
 11
183.944519
 21
165.849565
 31
0.0
  0
LINE
  8
0
  6
CONTINUOUS
 62
   249
 10
183.490396
 20
166.386772
 30
0.0
 11
184.391073
 21
165.263023
 31
0.0
  0
LINE
  8
0
  6
CONTINUOUS
 62
   249
 10
186.467927
 20
165.033887
 30
0.0
 11
186.467927
 21
163.245756
 31
0.0
  0
LINE
  8
0
  6
CONTINUOUS
 62
   249
 10
178.926606
 20
195.261888
 30
0.0
 11
178.926606
 21
193.473756
 31
0.0
  0
LINE
  8
0
  6
CONTINUOUS
 62
   249
 10
178.957637
 20
194.416609
 30
0.0
 11
186.745842
 21
194.416609
 31
0.0
  0
LINE
  8
0
  6
CONTINUOUS
 62
   249
 10
181.341782
 20
193.249007
 30
0.0
 11
184.217892
 21
196.077565
 31
0.0
  0
LINE
  8
0
  6
CONTINUOUS
 62
   249
 10
183.787189
 20
196.614772
 30
0.0
 11
184.687866
 21
195.491023
 31
0.0
  0
LINE
  8
0
  6
CONTINUOUS
 62
   249
 10
186.741301
 20
195.261888
 30
0.0
 11
186.741301
 21
193.473756
 31
0.0
  0
ARC
  8
0
  6
HIDDEN
 62
   249
 10
185.652505
 20
198.345153
 30
0.0
 40
4.998196
 50
206.402922
 51
282.21115
  0
LINE
  8
0
  6
CONTINUOUS
 62
   249
 10
167.5
 20
192.5
 30
0.0
 11
187.5
 21
192.5
 31
0.0
  0
TEXT
  8
0
  6
CONTINUOUS
 62
   249
 10
169.300457
 20
188.71687
 30
0.0
 40
2.5
  1
I
 11
169.300457
 21
187.883536
 31
0.0
 73
     1
  0
LINE
  8
0
  6
CONTINUOUS
 62
   249
 10
173.455418
 20
189.897505
 30
0.0
 11
171.109652
 21
188.707586
 31
0.0
  0
LINE
  8
0
  6
CONTINUOUS
 62
   249
 10
175.999501
 20
189.897505
 30
0.0
 11
173.653736
 21
188.707586
 31
0.0
  0
LINE
  8
0
  6
CONTINUOUS
 62
   249
 10
171.109652
 20
191.232859
 30
0.0
 11
173.455418
 21
189.897505
 31
0.0
  0
LINE
  8
0
  6
CONTINUOUS
 62
   249
 10
173.653736
 20
191.232859
 30
0.0
 11
175.999501
 21
189.897505
 31
0.0
  0
LINE
  8
0
  6
CONTINUOUS
 62
   249
 10
167.5
 20
200.0
 30
0.0
 11
187.5
 21
200.0
 31
0.0
  0
TEXT
  8
0
  6
CONTINUOUS
 62
   249
 10
169.300457
 20
193.188304
 30
0.0
 40
2.5
  1
I
 11
169.300457
 21
192.35497
 31
0.0
 73
     1
  0
LINE
  8
0
  6
CONTINUOUS
 62
   249
 10
173.455418
 20
194.368939
 30
0.0
 11
171.109652
 21
193.17902
 31
0.0
  0
LINE
  8
0
  6
CONTINUOUS
 62
   249
 10
171.109652
 20
195.704293
 30
0.0
 11
173.455418
 21
194.368939
 31
0.0
  0
LINE
  8
0
  6
CONTINUOUS
 62
   249
 10
167.5
 20
205.0
 30
0.0
 11
197.950615
 21
205.0
 31
0.0
  0
LINE
  8
0
  6
CONTINUOUS
 62
   249
 10
187.5
 20
202.5
 30
0.0
 11
187.5
 21
205.0
 31
0.0
  0
LINE
  8
0
  6
CONTINUOUS
 62
   249
 10
167.5
 20
200.0
 30
0.0
 11
167.5
 21
185.0
 31
0.0
  0
LINE
  8
0
  6
CONTINUOUS
 62
   249
 10
167.5
 20
200.0
 30
0.0
 11
167.5
 21
205.0
 31
0.0
  0
LINE
  8
0
  6
CONTINUOUS
 62
   249
 10
167.5
 20
185.0
 30
0.0
 11
167.5
 21
132.5
 31
0.0
  0
CIRCLE
  8
0
  6
CONTINUOUS
 62
   249
 10
166.512659
 20
185.403208
 30
0.0
 40
1.0
  0
TEXT
  8
0
  6
CONTINUOUS
 62
   249
 10
168.406909
 20
184.649707
 30
0.0
 40
1.5
  1
EN
  0
LINE
  8
0
  6
CONTINUOUS
 62
   249
 10
173.455418
 20
202.531151
 30
0.0
 11
171.109652
 21
201.341232
 31
0.0
  0
LINE
  8
0
  6
CONTINUOUS
 62
   249
 10
171.109652
 20
203.866505
 30
0.0
 11
173.455418
 21
202.531151
 31
0.0
  0
TEXT
  8
0
  6
CONTINUOUS
 62
   249
 10
169.300457
 20
201.350516
 30
0.0
 40
2.5
  1
I
 11
169.300457
 21
200.517182
 31
0.0
 73
     1
  0
LINE
  8
0
  6
CONTINUOUS
 62
   249
 10
72.5
 20
125.0
 30
0.0
 11
72.5
 21
120.0
 31
0.0
  0
LINE
  8
0
  6
CONTINUOUS
 62
   249
 10
72.5
 20
120.0
 30
0.0
 11
85.0
 21
120.0
 31
0.0
  0
LINE
  8
0
  6
CONTINUOUS
 62
   249
 10
85.0
 20
120.0
 30
0.0
 11
85.0
 21
125.0
 31
0.0
  0
LINE
  8
0
  6
CONTINUOUS
 62
   249
 10
85.0
 20
125.0
 30
0.0
 11
72.5
 21
125.0
 31
0.0
  0
LINE
  8
0
  6
CONTINUOUS
 62
   249
 10
75.0
 20
125.0
 30
0.0
 11
75.0
 21
127.5
 31
0.0
  0
LINE
  8
0
  6
CONTINUOUS
 62
   249
 10
77.5
 20
125.0
 30
0.0
 11
77.5
 21
127.5
 31
0.0
  0
LINE
  8
0
  6
CONTINUOUS
 62
   249
 10
80.0
 20
125.0
 30
0.0
 11
80.0
 21
127.5
 31
0.0
  0
LINE
  8
0
  6
CONTINUOUS
 62
   249
 10
82.5
 20
125.0
 30
0.0
 11
82.5
 21
127.5
 31
0.0
  0
LINE
  8
0
  6
CONTINUOUS
 62
   249
 10
77.5
 20
120.0
 30
0.0
 11
77.5
 21
117.5
 31
0.0
  0
LINE
  8
0
  6
CONTINUOUS
 62
   249
 10
82.5
 20
132.5
 30
0.0
 11
82.5
 21
135.0
 31
0.0
  0
LINE
  8
0
  6
CONTINUOUS
 62
   249
 10
80.0
 20
132.5
 30
0.0
 11
80.0
 21
135.0
 31
0.0
  0
LINE
  8
0
  6
CONTINUOUS
 62
   249
 10
77.5
 20
132.5
 30
0.0
 11
77.5
 21
135.0
 31
0.0
  0
LINE
  8
0
  6
CONTINUOUS
 62
   249
 10
75.0
 20
132.5
 30
0.0
 11
75.0
 21
135.0
 31
0.0
  0
LINE
  8
0
  6
CONTINUOUS
 62
   249
 10
82.5
 20
127.5
 30
0.0
 11
80.78221
 21
132.514966
 31
0.0
  0
LINE
  8
0
  6
CONTINUOUS
 62
   249
 10
80.0
 20
127.5
 30
0.0
 11
78.28221
 21
132.514966
 31
0.0
  0
LINE
  8
0
  6
CONTINUOUS
 62
   249
 10
77.5
 20
127.5
 30
0.0
 11
75.78221
 21
132.514966
 31
0.0
  0
LINE
  8
0
  6
CONTINUOUS
 62
   249
 10
75.0
 20
127.5
 30
0.0
 11
73.28221
 21
132.514966
 31
0.0
  0
LINE
  8
0
  6
CONTINUOUS
 62
   249
 10
78.74635
 20
122.789195
 30
0.0
 11
76.400585
 21
121.599276
 31
0.0
  0
LINE
  8
0
  6
CONTINUOUS
 62
   249
 10
76.392543
 20
120.799262
 30
0.0
 11
78.776004
 21
121.987454
 31
0.0
  0
LINE
  8
0
  6
CONTINUOUS
 62
   249
 10
76.400585
 20
124.124549
 30
0.0
 11
78.74635
 21
122.789195
 31
0.0
  0
TEXT
  8
0
  6
CONTINUOUS
 62
   249
 10
80.834447
 20
121.464455
 30
0.0
 40
2.5
  1
1
 11
80.834447
 21
120.631122
 31
0.0
 73
     1
  0
TEXT
  8
0
  6
CONTINUOUS
 62
   249
 10
95.834447
 20
121.464455
 30
0.0
 40
2.5
  1
1
 11
95.834447
 21
120.631122
 31
0.0
 73
     1
  0
LINE
  8
0
  6
CONTINUOUS
 62
   249
 10
91.400585
 20
124.124549
 30
0.0
 11
93.74635
 21
122.789195
 31
0.0
  0
LINE
  8
0
  6
CONTINUOUS
 62
   249
 10
91.392543
 20
120.799262
 30
0.0
 11
93.776004
 21
121.987454
 31
0.0
  0
LINE
  8
0
  6
CONTINUOUS
 62
   249
 10
93.74635
 20
122.789195
 30
0.0
 11
91.400585
 21
121.599276
 31
0.0
  0
LINE
  8
0
  6
CONTINUOUS
 62
   249
 10
90.0
 20
127.5
 30
0.0
 11
88.28221
 21
132.514966
 31
0.0
  0
LINE
  8
0
  6
CONTINUOUS
 62
   249
 10
92.5
 20
127.5
 30
0.0
 11
90.78221
 21
132.514966
 31
0.0
  0
LINE
  8
0
  6
CONTINUOUS
 62
   249
 10
95.0
 20
127.5
 30
0.0
 11
93.28221
 21
132.514966
 31
0.0
  0
LINE
  8
0
  6
CONTINUOUS
 62
   249
 10
97.5
 20
127.5
 30
0.0
 11
95.78221
 21
132.514966
 31
0.0
  0
LINE
  8
0
  6
CONTINUOUS
 62
   249
 10
90.0
 20
132.5
 30
0.0
 11
90.0
 21
135.0
 31
0.0
  0
LINE
  8
0
  6
CONTINUOUS
 62
   249
 10
92.5
 20
132.5
 30
0.0
 11
92.5
 21
135.0
 31
0.0
  0
LINE
  8
0
  6
CONTINUOUS
 62
   249
 10
95.0
 20
132.5
 30
0.0
 11
95.0
 21
135.0
 31
0.0
  0
LINE
  8
0
  6
CONTINUOUS
 62
   249
 10
97.5
 20
132.5
 30
0.0
 11
97.5
 21
135.0
 31
0.0
  0
LINE
  8
0
  6
CONTINUOUS
 62
   249
 10
92.5
 20
120.0
 30
0.0
 11
92.5
 21
117.5
 31
0.0
  0
LINE
  8
0
  6
CONTINUOUS
 62
   249
 10
97.5
 20
125.0
 30
0.0
 11
97.5
 21
127.5
 31
0.0
  0
LINE
  8
0
  6
CONTINUOUS
 62
   249
 10
95.0
 20
125.0
 30
0.0
 11
95.0
 21
127.5
 31
0.0
  0
LINE
  8
0
  6
CONTINUOUS
 62
   249
 10
92.5
 20
125.0
 30
0.0
 11
92.5
 21
127.5
 31
0.0
  0
LINE
  8
0
  6
CONTINUOUS
 62
   249
 10
90.0
 20
125.0
 30
0.0
 11
90.0
 21
127.5
 31
0.0
  0
LINE
  8
0
  6
CONTINUOUS
 62
   249
 10
100.0
 20
125.0
 30
0.0
 11
87.5
 21
125.0
 31
0.0
  0
LINE
  8
0
  6
CONTINUOUS
 62
   249
 10
100.0
 20
120.0
 30
0.0
 11
100.0
 21
125.0
 31
0.0
  0
LINE
  8
0
  6
CONTINUOUS
 62
   249
 10
87.5
 20
120.0
 30
0.0
 11
100.0
 21
120.0
 31
0.0
  0
LINE
  8
0
  6
CONTINUOUS
 62
   249
 10
87.5
 20
125.0
 30
0.0
 11
87.5
 21
120.0
 31
0.0
  0
LINE
  8
0
  6
CONTINUOUS
 62
   249
 10
102.5
 20
125.0
 30
0.0
 11
102.5
 21
120.0
 31
0.0
  0
LINE
  8
0
  6
CONTINUOUS
 62
   249
 10
102.5
 20
120.0
 30
0.0
 11
115.0
 21
120.0
 31
0.0
  0
LINE
  8
0
  6
CONTINUOUS
 62
   249
 10
115.0
 20
120.0
 30
0.0
 11
115.0
 21
125.0
 31
0.0
  0
LINE
  8
0
  6
CONTINUOUS
 62
   249
 10
115.0
 20
125.0
 30
0.0
 11
102.5
 21
125.0
 31
0.0
  0
LINE
  8
0
  6
CONTINUOUS
 62
   249
 10
105.0
 20
125.0
 30
0.0
 11
105.0
 21
127.5
 31
0.0
  0
LINE
  8
0
  6
CONTINUOUS
 62
   249
 10
107.5
 20
125.0
 30
0.0
 11
107.5
 21
127.5
 31
0.0
  0
LINE
  8
0
  6
CONTINUOUS
 62
   249
 10
110.0
 20
125.0
 30
0.0
 11
110.0
 21
127.5
 31
0.0
  0
LINE
  8
0
  6
CONTINUOUS
 62
   249
 10
112.5
 20
125.0
 30
0.0
 11
112.5
 21
127.5
 31
0.0
  0
LINE
  8
0
  6
CONTINUOUS
 62
   249
 10
107.5
 20
120.0
 30
0.0
 11
107.5
 21
117.5
 31
0.0
  0
LINE
  8
0
  6
CONTINUOUS
 62
   249
 10
112.5
 20
132.5
 30
0.0
 11
112.5
 21
135.0
 31
0.0
  0
LINE
  8
0
  6
CONTINUOUS
 62
   249
 10
110.0
 20
132.5
 30
0.0
 11
110.0
 21
135.0
 31
0.0
  0
LINE
  8
0
  6
CONTINUOUS
 62
   249
 10
107.5
 20
132.5
 30
0.0
 11
107.5
 21
135.0
 31
0.0
  0
LINE
  8
0
  6
CONTINUOUS
 62
   249
 10
105.0
 20
132.5
 30
0.0
 11
105.0
 21
135.0
 31
0.0
  0
LINE
  8
0
  6
CONTINUOUS
 62
   249
 10
112.5
 20
127.5
 30
0.0
 11
110.78221
 21
132.514966
 31
0.0
  0
LINE
  8
0
  6
CONTINUOUS
 62
   249
 10
110.0
 20
127.5
 30
0.0
 11
108.28221
 21
132.514966
 31
0.0
  0
LINE
  8
0
  6
CONTINUOUS
 62
   249
 10
107.5
 20
127.5
 30
0.0
 11
105.78221
 21
132.514966
 31
0.0
  0
LINE
  8
0
  6
CONTINUOUS
 62
   249
 10
105.0
 20
127.5
 30
0.0
 11
103.28221
 21
132.514966
 31
0.0
  0
LINE
  8
0
  6
CONTINUOUS
 62
   249
 10
108.74635
 20
122.789195
 30
0.0
 11
106.400585
 21
121.599276
 31
0.0
  0
LINE
  8
0
  6
CONTINUOUS
 62
   249
 10
106.392543
 20
120.799262
 30
0.0
 11
108.776004
 21
121.987454
 31
0.0
  0
LINE
  8
0
  6
CONTINUOUS
 62
   249
 10
106.400585
 20
124.124549
 30
0.0
 11
108.74635
 21
122.789195
 31
0.0
  0
TEXT
  8
0
  6
CONTINUOUS
 62
   249
 10
110.834447
 20
121.464455
 30
0.0
 40
2.5
  1
1
 11
110.834447
 21
120.631122
 31
0.0
 73
     1
  0
TEXT
  8
0
  6
CONTINUOUS
 62
   249
 10
65.834447
 20
121.464455
 30
0.0
 40
2.5
  1
1
 11
65.834447
 21
120.631122
 31
0.0
 73
     1
  0
LINE
  8
0
  6
CONTINUOUS
 62
   249
 10
61.400585
 20
124.124549
 30
0.0
 11
63.74635
 21
122.789195
 31
0.0
  0
LINE
  8
0
  6
CONTINUOUS
 62
   249
 10
61.392543
 20
120.799262
 30
0.0
 11
63.776004
 21
121.987454
 31
0.0
  0
LINE
  8
0
  6
CONTINUOUS
 62
   249
 10
63.74635
 20
122.789195
 30
0.0
 11
61.400585
 21
121.599276
 31
0.0
  0
LINE
  8
0
  6
CONTINUOUS
 62
   249
 10
62.5
 20
120.0
 30
0.0
 11
62.5
 21
117.5
 31
0.0
  0
LINE
  8
0
  6
CONTINUOUS
 62
   249
 10
67.5
 20
125.0
 30
0.0
 11
67.5
 21
127.5
 31
0.0
  0
LINE
  8
0
  6
CONTINUOUS
 62
   249
 10
65.0
 20
125.0
 30
0.0
 11
65.0
 21
127.5
 31
0.0
  0
LINE
  8
0
  6
CONTINUOUS
 62
   249
 10
62.5
 20
125.0
 30
0.0
 11
62.5
 21
133.652485
 31
0.0
  0
LINE
  8
0
  6
CONTINUOUS
 62
   249
 10
70.0
 20
125.0
 30
0.0
 11
57.5
 21
125.0
 31
0.0
  0
LINE
  8
0
  6
CONTINUOUS
 62
   249
 10
70.0
 20
120.0
 30
0.0
 11
70.0
 21
125.0
 31
0.0
  0
LINE
  8
0
  6
CONTINUOUS
 62
   249
 10
57.5
 20
120.0
 30
0.0
 11
70.0
 21
120.0
 31
0.0
  0
LINE
  8
0
  6
CONTINUOUS
 62
   249
 10
57.5
 20
125.0
 30
0.0
 11
57.5
 21
120.0
 31
0.0
  0
LINE
  8
0
  6
CONTINUOUS
 62
   249
 10
60.0
 20
125.0
 30
0.0
 11
60.0
 21
133.652485
 31
0.0
  0
LINE
  8
0
  6
CONTINUOUS
 62
   249
 10
117.5
 20
125.0
 30
0.0
 11
117.5
 21
120.0
 31
0.0
  0
LINE
  8
0
  6
CONTINUOUS
 62
   249
 10
117.5
 20
120.0
 30
0.0
 11
142.5
 21
120.0
 31
0.0
  0
LINE
  8
0
  6
CONTINUOUS
 62
   249
 10
142.5
 20
120.0
 30
0.0
 11
142.5
 21
125.0
 31
0.0
  0
LINE
  8
0
  6
CONTINUOUS
 62
   249
 10
142.5
 20
125.0
 30
0.0
 11
117.5
 21
125.0
 31
0.0
  0
LINE
  8
0
  6
CONTINUOUS
 62
   249
 10
125.777828
 20
120.799262
 30
0.0
 11
128.161289
 21
121.987454
 31
0.0
  0
LINE
  8
0
  6
CONTINUOUS
 62
   249
 10
128.131635
 20
122.789195
 30
0.0
 11
125.78587
 21
121.599276
 31
0.0
  0
LINE
  8
0
  6
CONTINUOUS
 62
   249
 10
125.78587
 20
124.124549
 30
0.0
 11
128.131635
 21
122.789195
 31
0.0
  0
TEXT
  8
0
  6
CONTINUOUS
 62
   249
 10
130.219732
 20
121.464455
 30
0.0
 40
2.5
  1
1
 11
130.219732
 21
120.631122
 31
0.0
 73
     1
  0
LINE
  8
0
  6
CONTINUOUS
 62
   249
 10
120.0
 20
125.0
 30
0.0
 11
120.0
 21
127.5
 31
0.0
  0
LINE
  8
0
  6
CONTINUOUS
 62
   249
 10
122.5
 20
125.0
 30
0.0
 11
122.5
 21
127.5
 31
0.0
  0
LINE
  8
0
  6
CONTINUOUS
 62
   249
 10
125.0
 20
125.0
 30
0.0
 11
125.0
 21
127.5
 31
0.0
  0
LINE
  8
0
  6
CONTINUOUS
 62
   249
 10
127.5
 20
125.0
 30
0.0
 11
127.5
 21
127.5
 31
0.0
  0
LINE
  8
0
  6
CONTINUOUS
 62
   249
 10
130.0
 20
125.0
 30
0.0
 11
130.0
 21
127.5
 31
0.0
  0
LINE
  8
0
  6
CONTINUOUS
 62
   249
 10
132.5
 20
125.0
 30
0.0
 11
132.5
 21
127.5
 31
0.0
  0
LINE
  8
0
  6
CONTINUOUS
 62
   249
 10
135.0
 20
125.0
 30
0.0
 11
135.0
 21
127.5
 31
0.0
  0
LINE
  8
0
  6
CONTINUOUS
 62
   249
 10
137.5
 20
125.0
 30
0.0
 11
137.5
 21
127.5
 31
0.0
  0
LINE
  8
0
  6
CONTINUOUS
 62
   249
 10
140.0
 20
125.0
 30
0.0
 11
140.0
 21
127.5
 31
0.0
  0
LINE
  8
0
  6
CONTINUOUS
 62
   249
 10
122.5
 20
127.5
 30
0.0
 11
120.78221
 21
132.514966
 31
0.0
  0
LINE
  8
0
  6
CONTINUOUS
 62
   249
 10
125.0
 20
127.5
 30
0.0
 11
123.28221
 21
132.514966
 31
0.0
  0
LINE
  8
0
  6
CONTINUOUS
 62
   249
 10
127.5
 20
127.5
 30
0.0
 11
125.78221
 21
132.514966
 31
0.0
  0
LINE
  8
0
  6
CONTINUOUS
 62
   249
 10
130.0
 20
127.5
 30
0.0
 11
128.28221
 21
132.514966
 31
0.0
  0
LINE
  8
0
  6
CONTINUOUS
 62
   249
 10
132.5
 20
127.5
 30
0.0
 11
130.78221
 21
132.514966
 31
0.0
  0
LINE
  8
0
  6
CONTINUOUS
 62
   249
 10
135.0
 20
127.5
 30
0.0
 11
133.28221
 21
132.514966
 31
0.0
  0
LINE
  8
0
  6
CONTINUOUS
 62
   249
 10
137.5
 20
127.5
 30
0.0
 11
135.78221
 21
132.514966
 31
0.0
  0
LINE
  8
0
  6
CONTINUOUS
 62
   249
 10
140.0
 20
127.5
 30
0.0
 11
138.28221
 21
132.514966
 31
0.0
  0
LINE
  8
0
  6
CONTINUOUS
 62
   249
 10
120.0
 20
127.5
 30
0.0
 11
120.0
 21
135.0
 31
0.0
  0
LINE
  8
0
  6
CONTINUOUS
 62
   249
 10
122.5
 20
132.5
 30
0.0
 11
122.5
 21
135.0
 31
0.0
  0
LINE
  8
0
  6
CONTINUOUS
 62
   249
 10
125.0
 20
132.5
 30
0.0
 11
125.0
 21
135.0
 31
0.0
  0
LINE
  8
0
  6
CONTINUOUS
 62
   249
 10
127.5
 20
132.5
 30
0.0
 11
127.5
 21
135.0
 31
0.0
  0
LINE
  8
0
  6
CONTINUOUS
 62
   249
 10
130.0
 20
132.5
 30
0.0
 11
130.0
 21
135.0
 31
0.0
  0
LINE
  8
0
  6
CONTINUOUS
 62
   249
 10
132.5
 20
132.5
 30
0.0
 11
132.5
 21
135.0
 31
0.0
  0
LINE
  8
0
  6
CONTINUOUS
 62
   249
 10
135.0
 20
132.5
 30
0.0
 11
135.0
 21
135.0
 31
0.0
  0
LINE
  8
0
  6
CONTINUOUS
 62
   249
 10
137.5
 20
132.5
 30
0.0
 11
137.5
 21
135.0
 31
0.0
  0
LINE
  8
0
  6
CONTINUOUS
 62
   249
 10
140.0
 20
132.5
 30
0.0
 11
140.0
 21
135.0
 31
0.0
  0
LINE
  8
0
  6
CONTINUOUS
 62
   249
 10
140.0
 20
135.0
 30
0.0
 11
140.0
 21
135.0
 31
0.0
  0
LINE
  8
0
  6
CONTINUOUS
 62
   249
 10
167.5
 20
156.393212
 30
0.0
 11
67.5
 21
156.393212
 31
0.0
  0
LINE
  8
0
  6
CONTINUOUS
 62
   249
 10
67.5
 20
156.393212
 30
0.0
 11
67.5
 21
147.5
 31
0.0
  0
LINE
  8
0
  6
CONTINUOUS
 62
   249
 10
165.515269
 20
145.0
 30
0.0
 11
162.5
 21
145.0
 31
0.0
  0
LINE
  8
0
  6
CONTINUOUS
 62
   249
 10
157.5
 20
145.0
 30
0.0
 11
150.0
 21
145.0
 31
0.0
  0
LINE
  8
0
  6
CONTINUOUS
 62
   249
 10
150.0
 20
145.0
 30
0.0
 11
150.0
 21
207.5
 31
0.0
  0
LINE
  8
0
  6
CONTINUOUS
 62
   249
 10
162.5
 20
145.0
 30
0.0
 11
157.016258
 21
143.708764
 31
0.0
  0
LINE
  8
0
  6
CONTINUOUS
 62
   249
 10
157.5
 20
150.719573
 30
0.0
 11
150.0
 21
150.719573
 31
0.0
  0
LINE
  8
0
  6
CONTINUOUS
 62
   249
 10
162.5
 20
150.719573
 30
0.0
 11
157.016258
 21
149.428337
 31
0.0
  0
LINE
  8
0
  6
CONTINUOUS
 62
   249
 10
165.514369
 20
150.719573
 30
0.0
 11
162.5
 21
150.719573
 31
0.0
  0
LINE
  8
0
  6
CONTINUOUS
 62
   249
 10
157.5
 20
160.170555
 30
0.0
 11
150.0
 21
160.170555
 31
0.0
  0
LINE
  8
0
  6
CONTINUOUS
 62
   249
 10
162.5
 20
160.170555
 30
0.0
 11
157.016258
 21
158.879319
 31
0.0
  0
LINE
  8
0
  6
CONTINUOUS
 62
   249
 10
165.513785
 20
160.170555
 30
0.0
 11
162.5
 21
160.170555
 31
0.0
  0
LINE
  8
0
  6
CONTINUOUS
 62
   249
 10
167.5
 20
172.5
 30
0.0
 11
112.5
 21
172.5
 31
0.0
  0
LINE
  8
0
  6
CONTINUOUS
 62
   249
 10
112.5
 20
172.5
 30
0.0
 11
112.5
 21
135.0
 31
0.0
  0
LINE
  8
0
  6
CONTINUOUS
 62
   249
 10
167.5
 20
164.231945
 30
0.0
 11
65.0
 21
164.231945
 31
0.0
  0
LINE
  8
0
  6
CONTINUOUS
 62
   249
 10
65.0
 20
164.231945
 30
0.0
 11
65.0
 21
147.5
 31
0.0
  0
LINE
  8
0
  6
CONTINUOUS
 62
   249
 10
157.5
 20
167.877043
 30
0.0
 11
150.0
 21
167.877043
 31
0.0
  0
LINE
  8
0
  6
CONTINUOUS
 62
   249
 10
162.5
 20
167.877043
 30
0.0
 11
157.016258
 21
166.585808
 31
0.0
  0
LINE
  8
0
  6
CONTINUOUS
 62
   249
 10
165.51273
 20
167.877043
 30
0.0
 11
162.5
 21
167.877043
 31
0.0
  0
LINE
  8
0
  6
CONTINUOUS
 62
   249
 10
167.5
 20
177.5
 30
0.0
 11
110.0
 21
177.5
 31
0.0
  0
LINE
  8
0
  6
CONTINUOUS
 62
   249
 10
110.0
 20
177.5
 30
0.0
 11
110.0
 21
135.0
 31
0.0
  0
LINE
  8
0
  6
CONTINUOUS
 62
   249
 10
167.5
 20
181.68117
 30
0.0
 11
62.5
 21
181.68117
 31
0.0
  0
LINE
  8
0
  6
CONTINUOUS
 62
   249
 10
62.5
 20
181.68117
 30
0.0
 11
62.5
 21
147.5
 31
0.0
  0
LINE
  8
0
  6
CONTINUOUS
 62
   249
 10
157.5
 20
185.409512
 30
0.0
 11
150.0
 21
185.409512
 31
0.0
  0
LINE
  8
0
  6
CONTINUOUS
 62
   249
 10
162.5
 20
185.409512
 30
0.0
 11
157.016258
 21
184.118276
 31
0.0
  0
LINE
  8
0
  6
CONTINUOUS
 62
   249
 10
165.51273
 20
185.409512
 30
0.0
 11
162.5
 21
185.409512
 31
0.0
  0
LINE
  8
0
  6
CONTINUOUS
 62
   249
 10
167.5
 20
190.0
 30
0.0
 11
107.5
 21
190.0
 31
0.0
  0
LINE
  8
0
  6
CONTINUOUS
 62
   249
 10
107.5
 20
190.0
 30
0.0
 11
107.5
 21
135.0
 31
0.0
  0
LINE
  8
0
  6
CONTINUOUS
 62
   249
 10
167.5
 20
194.139282
 30
0.0
 11
60.0
 21
194.139282
 31
0.0
  0
LINE
  8
0
  6
CONTINUOUS
 62
   249
 10
60.0
 20
194.139282
 30
0.0
 11
60.0
 21
147.5
 31
0.0
  0
LINE
  8
0
  6
CONTINUOUS
 62
   249
 10
157.5
 20
198.131988
 30
0.0
 11
150.0
 21
198.131988
 31
0.0
  0
LINE
  8
0
  6
CONTINUOUS
 62
   249
 10
162.5
 20
198.131988
 30
0.0
 11
157.016258
 21
196.840752
 31
0.0
  0
LINE
  8
0
  6
CONTINUOUS
 62
   249
 10
165.51273
 20
198.131988
 30
0.0
 11
162.5
 21
198.131988
 31
0.0
  0
LINE
  8
0
  6
CONTINUOUS
 62
   249
 10
167.5
 20
202.5
 30
0.0
 11
105.0
 21
202.5
 31
0.0
  0
LINE
  8
0
  6
CONTINUOUS
 62
   249
 10
105.0
 20
202.5
 30
0.0
 11
105.0
 21
135.0
 31
0.0
  0
LINE
  8
0
  6
CONTINUOUS
 62
   249
 10
140.0
 20
135.0
 30
0.0
 11
140.0
 21
156.393212
 31
0.0
  0
LINE
  8
0
  6
CONTINUOUS
 62
   249
 10
137.5
 20
135.0
 30
0.0
 11
137.5
 21
164.231945
 31
0.0
  0
LINE
  8
0
  6
CONTINUOUS
 62
   249
 10
135.0
 20
135.0
 30
0.0
 11
135.0
 21
172.5
 31
0.0
  0
LINE
  8
0
  6
CONTINUOUS
 62
   249
 10
132.5
 20
135.0
 30
0.0
 11
132.5
 21
177.5
 31
0.0
  0
LINE
  8
0
  6
CONTINUOUS
 62
   249
 10
130.0
 20
135.0
 30
0.0
 11
130.0
 21
181.68117
 31
0.0
  0
LINE
  8
0
  6
CONTINUOUS
 62
   249
 10
127.5
 20
135.0
 30
0.0
 11
127.5
 21
190.0
 31
0.0
  0
LINE
  8
0
  6
CONTINUOUS
 62
   249
 10
125.0
 20
135.0
 30
0.0
 11
125.0
 21
194.139282
 31
0.0
  0
LINE
  8
0
  6
CONTINUOUS
 62
   249
 10
122.5
 20
135.0
 30
0.0
 11
122.5
 21
202.5
 31
0.0
  0
LINE
  8
0
  6
CONTINUOUS
 62
   249
 10
75.0
 20
135.0
 30
0.0
 11
75.0
 21
194.139282
 31
0.0
  0
LINE
  8
0
  6
CONTINUOUS
 62
   249
 10
77.5
 20
135.0
 30
0.0
 11
77.5
 21
181.68117
 31
0.0
  0
LINE
  8
0
  6
CONTINUOUS
 62
   249
 10
80.0
 20
135.0
 30
0.0
 11
80.0
 21
164.231945
 31
0.0
  0
LINE
  8
0
  6
CONTINUOUS
 62
   249
 10
82.5
 20
135.0
 30
0.0
 11
82.5
 21
156.393212
 31
0.0
  0
LINE
  8
0
  6
CONTINUOUS
 62
   249
 10
90.0
 20
135.0
 30
0.0
 11
90.0
 21
194.139282
 31
0.0
  0
LINE
  8
0
  6
CONTINUOUS
 62
   249
 10
92.5
 20
135.0
 30
0.0
 11
92.5
 21
181.68117
 31
0.0
  0
LINE
  8
0
  6
CONTINUOUS
 62
   249
 10
95.0
 20
135.0
 30
0.0
 11
95.0
 21
164.231945
 31
0.0
  0
LINE
  8
0
  6
CONTINUOUS
 62
   249
 10
97.5
 20
135.0
 30
0.0
 11
97.5
 21
156.393212
 31
0.0
  0
TEXT
  8
0
  6
CONTINUOUS
 62
   249
 10
74.696757
 20
135.761507
 30
0.0
 40
1.5
  1
SGR2/2
 50
90.0
  7
ROMANS
  0
TEXT
  8
0
  6
CONTINUOUS
 62
   249
 10
77.248443
 20
135.761507
 30
0.0
 40
1.5
  1
SGR2/4
 50
90.0
  7
ROMANS
  0
TEXT
  8
0
  6
CONTINUOUS
 62
   249
 10
79.748443
 20
135.761507
 30
0.0
 40
1.5
  1
SGR2/6
 50
90.0
  7
ROMANS
  0
TEXT
  8
0
  6
CONTINUOUS
 62
   249
 10
82.196757
 20
135.761507
 30
0.0
 40
1.5
  1
SGR2/8
 50
90.0
  7
ROMANS
  0
TEXT
  8
0
  6
CONTINUOUS
 62
   249
 10
89.48328
 20
135.761507
 30
0.0
 40
1.5
  1
SGR2/1
 50
90.0
  7
ROMANS
  0
TEXT
  8
0
  6
CONTINUOUS
 62
   249
 10
92.306493
 20
135.761507
 30
0.0
 40
1.5
  1
SGR2/3
 50
90.0
  7
ROMANS
  0
TEXT
  8
0
  6
CONTINUOUS
 62
   249
 10
94.48328
 20
135.761507
 30
0.0
 40
1.5
  1
SGR2/5
 50
90.0
  7
ROMANS
  0
TEXT
  8
0
  6
CONTINUOUS
 62
   249
 10
97.091018
 20
135.761507
 30
0.0
 40
1.5
  1
SGR2/7
 50
90.0
  7
ROMANS
  0
TEXT
  8
0
  6
CONTINUOUS
 62
   249
 10
104.466233
 20
135.761507
 30
0.0
 40
1.5
  1
SGR1/1
 50
90.0
  7
ROMANS
  0
TEXT
  8
0
  6
CONTINUOUS
 62
   249
 10
107.3201
 20
135.761507
 30
0.0
 40
1.5
  1
SGR1/3
 50
90.0
  7
ROMANS
  0
TEXT
  8
0
  6
CONTINUOUS
 62
   249
 10
109.837329
 20
135.761507
 30
0.0
 40
1.5
  1
SGR1/5
 50
90.0
  7
ROMANS
  0
TEXT
  8
0
  6
CONTINUOUS
 62
   249
 10
111.966233
 20
135.761507
 30
0.0
 40
1.5
  1
SGR1/7
 50
90.0
  7
ROMANS
  0
TEXT
  8
0
  6
CONTINUOUS
 62
   249
 10
121.937817
 20
135.802387
 30
0.0
 40
1.5
  1
SGR3/1
 50
90.0
  7
ROMANS
  0
TEXT
  8
0
  6
CONTINUOUS
 62
   249
 10
124.532149
 20
135.802387
 30
0.0
 40
1.5
  1
SGR3/2
 50
90.0
  7
ROMANS
  0
TEXT
  8
0
  6
CONTINUOUS
 62
   249
 10
126.937817
 20
135.802387
 30
0.0
 40
1.5
  1
SGR3/3
 50
90.0
  7
ROMANS
  0
TEXT
  8
0
  6
CONTINUOUS
 62
   249
 10
129.808913
 20
135.802387
 30
0.0
 40
1.5
  1
SGR3/4
 50
90.0
  7
ROMANS
  0
TEXT
  8
0
  6
CONTINUOUS
 62
   249
 10
132.308913
 20
135.802387
 30
0.0
 40
1.5
  1
SGR3/7
 50
90.0
  7
ROMANS
  0
TEXT
  8
0
  6
CONTINUOUS
 62
   249
 10
134.774435
 20
135.802387
 30
0.0
 40
1.5
  1
SGR3/5
 50
90.0
  7
ROMANS
  0
TEXT
  8
0
  6
CONTINUOUS
 62
   249
 10
137.308913
 20
135.802387
 30
0.0
 40
1.5
  1
SGR3/6
 50
90.0
  7
ROMANS
  0
TEXT
  8
0
  6
CONTINUOUS
 62
   249
 10
139.455056
 20
135.802387
 30
0.0
 40
1.5
  1
SGR3/8
 50
90.0
  7
ROMANS
  0
CIRCLE
  8
0
  6
CONTINUOUS
 62
   249
 10
67.505242
 20
130.69998
 30
0.0
 40
0.7
  0
LINE
  8
0
  6
CONTINUOUS
 62
   249
 10
67.5
 20
127.5
 30
0.0
 11
67.5
 21
130.0
 31
0.0
  0
LINE
  8
0
  6
CONTINUOUS
 62
   249
 10
65.0
 20
127.5
 30
0.0
 11
65.0
 21
130.0
 31
0.0
  0
CIRCLE
  8
0
  6
CONTINUOUS
 62
   249
 10
65.005242
 20
130.69998
 30
0.0
 40
0.7
  0
LINE
  8
0
  6
CONTINUOUS
 62
   249
 10
67.5
 20
142.5
 30
0.0
 11
67.5
 21
131.399961
 31
0.0
  0
LINE
  8
0
  6
CONTINUOUS
 62
   249
 10
65.0
 20
142.5
 30
0.0
 11
65.0
 21
131.399961
 31
0.0
  0
CIRCLE
  8
0
  6
CONTINUOUS
 62
   249
 10
62.505242
 20
134.352465
 30
0.0
 40
0.7
  0
CIRCLE
  8
0
  6
CONTINUOUS
 62
   249
 10
60.005242
 20
134.352465
 30
0.0
 40
0.7
  0
LINE
  8
0
  6
CONTINUOUS
 62
   249
 10
62.5
 20
142.5
 30
0.0
 11
62.5
 21
135.052445
 31
0.0
  0
LINE
  8
0
  6
CONTINUOUS
 62
   249
 10
60.0
 20
142.5
 30
0.0
 11
60.0
 21
135.052445
 31
0.0
  0
LINE
  8
0
  6
CONTINUOUS
 62
   249
 10
65.705184
 20
130.690977
 30
0.0
 11
66.8053
 21
130.690977
 31
0.0
  0
LINE
  8
0
  6
CONTINUOUS
 62
   249
 10
60.705241
 20
134.351524
 30
0.0
 11
61.805243
 21
134.351524
 31
0.0
  0
LINE
  8
0
  6
CONTINUOUS
 62
   249
 10
57.5
 20
140.0
 30
0.0
 11
67.5
 21
140.0
 31
0.0
  0
LINE
  8
0
  6
CONTINUOUS
 62
   249
 10
67.5
 20
139.101912
 30
0.0
 11
66.206597
 21
140.0
 31
0.0
  0
LINE
  8
0
  6
CONTINUOUS
 62
   249
 10
66.206597
 20
140.0
 30
0.0
 11
67.5
 21
140.906769
 31
0.0
  0
LINE
  8
0
  6
CONTINUOUS
 62
   249
 10
65.0
 20
139.101912
 30
0.0
 11
63.706597
 21
140.0
 31
0.0
  0
LINE
  8
0
  6
CONTINUOUS
 62
   249
 10
63.706597
 20
140.0
 30
0.0
 11
65.0
 21
140.906769
 31
0.0
  0
LINE
  8
0
  6
CONTINUOUS
 62
   249
 10
62.5
 20
139.101912
 30
0.0
 11
61.206597
 21
140.0
 31
0.0
  0
LINE
  8
0
  6
CONTINUOUS
 62
   249
 10
61.206597
 20
140.0
 30
0.0
 11
62.5
 21
140.906769
 31
0.0
  0
LINE
  8
0
  6
CONTINUOUS
 62
   249
 10
60.0
 20
139.101912
 30
0.0
 11
58.706597
 21
140.0
 31
0.0
  0
LINE
  8
0
  6
CONTINUOUS
 62
   249
 10
58.706597
 20
140.0
 30
0.0
 11
60.0
 21
140.906769
 31
0.0
  0
LINE
  8
0
  6
CONTINUOUS
 62
   249
 10
67.5
 20
142.5
 30
0.0
 11
65.78221
 21
147.514966
 31
0.0
  0
LINE
  8
0
  6
CONTINUOUS
 62
   249
 10
65.0
 20
142.5
 30
0.0
 11
63.28221
 21
147.514966
 31
0.0
  0
LINE
  8
0
  6
CONTINUOUS
 62
   249
 10
62.5
 20
142.5
 30
0.0
 11
60.78221
 21
147.514966
 31
0.0
  0
LINE
  8
0
  6
CONTINUOUS
 62
   249
 10
60.0
 20
142.5
 30
0.0
 11
58.28221
 21
147.514966
 31
0.0
  0
LINE
  8
0
  6
CONTINUOUS
 62
   249
 10
59.305852
 20
134.323245
 30
0.0
 11
57.645492
 21
134.323245
 31
0.0
  0
LINE
  8
0
  6
CONTINUOUS
 62
   249
 10
64.305603
 20
130.6775
 30
0.0
 11
57.839749
 21
130.6775
 31
0.0
  0
LINE
  8
0
  6
CONTINUOUS
 62
   249
 10
52.533827
 20
130.630553
 30
0.0
 11
46.193952
 21
130.630553
 31
0.0
  0
LINE
  8
0
  6
CONTINUOUS
 62
   249
 10
52.533827
 20
134.354176
 30
0.0
 11
46.193952
 21
134.354176
 31
0.0
  0
LINE
  8
0
  6
CONTINUOUS
 62
   249
 10
57.839749
 20
130.6775
 30
0.0
 11
53.790766
 21
129.119972
 31
0.0
  0
LINE
  8
0
  6
CONTINUOUS
 62
   249
 10
57.645492
 20
134.323245
 30
0.0
 11
53.790766
 21
132.840443
 31
0.0
  0
TEXT
  8
0
  6
CONTINUOUS
 62
   249
 10
39.655214
 20
135.261802
 30
0.0
 40
1.5
  1
SEAL. IN
  7
ROMANS
  0
TEXT
  8
0
  6
CONTINUOUS
 62
   249
 10
59.714398
 20
150.167256
 30
0.0
 40
1.5
  1
SGR1/2
 50
90.0
  7
ROMANS
  0
TEXT
  8
0
  6
CONTINUOUS
 62
   249
 10
62.214398
 20
150.167256
 30
0.0
 40
1.5
  1
SGR1/4
 50
90.0
  7
ROMANS
  0
TEXT
  8
0
  6
CONTINUOUS
 62
   249
 10
64.546806
 20
150.167256
 30
0.0
 40
1.5
  1
SGR1/6
 50
90.0
  7
ROMANS
  0
TEXT
  8
0
  6
CONTINUOUS
 62
   249
 10
67.214398
 20
150.167256
 30
0.0
 40
1.5
  1
SGR1/8
 50
90.0
  7
ROMANS
  0
LINE
  8
0
  6
CENTER
 62
   249
 10
37.5
 20
225.0
 30
0.0
 11
37.5
 21
57.5
 31
0.0
  0
LINE
  8
0
  6
CONTINUOUS
 62
   249
 10
55.0
 20
107.5
 30
0.0
 11
60.0
 21
107.5
 31
0.0
  0
LINE
  8
0
  6
CONTINUOUS
 62
   249
 10
65.0
 20
107.5
 30
0.0
 11
70.0
 21
107.5
 31
0.0
  0
LINE
  8
0
  6
CONTINUOUS
 62
   249
 10
65.0
 20
107.5
 30
0.0
 11
59.256076
 21
104.285297
 31
0.0
  0
LINE
  8
0
  6
CONTINUOUS
 62
   249
 10
80.0
 20
100.0
 30
0.0
 11
74.256076
 21
96.785297
 31
0.0
  0
LINE
  8
0
  6
CONTINUOUS
 62
   249
 10
80.0
 20
100.0
 30
0.0
 11
85.0
 21
100.0
 31
0.0
  0
LINE
  8
0
  6
CONTINUOUS
 62
   249
 10
95.0
 20
92.5
 30
0.0
 11
100.0
 21
92.5
 31
0.0
  0
LINE
  8
0
  6
CONTINUOUS
 62
   249
 10
95.0
 20
92.5
 30
0.0
 11
89.256076
 21
89.285297
 31
0.0
  0
LINE
  8
0
  6
CONTINUOUS
 62
   249
 10
110.0
 20
85.0
 30
0.0
 11
104.256076
 21
81.785297
 31
0.0
  0
LINE
  8
0
  6
CONTINUOUS
 62
   249
 10
110.0
 20
85.0
 30
0.0
 11
115.0
 21
85.0
 31
0.0
  0
LINE
  8
0
  6
CONTINUOUS
 62
   249
 10
125.0
 20
77.5
 30
0.0
 11
119.256076
 21
74.285297
 31
0.0
  0
LINE
  8
0
  6
CONTINUOUS
 62
   249
 10
125.0
 20
77.5
 30
0.0
 11
130.0
 21
77.5
 31
0.0
  0
LINE
  8
0
  6
CONTINUOUS
 62
   249
 10
75.0
 20
100.0
 30
0.0
 11
37.5
 21
100.0
 31
0.0
  0
LINE
  8
0
  6
CONTINUOUS
 62
   249
 10
90.0
 20
92.5
 30
0.0
 11
37.5
 21
92.5
 31
0.0
  0
LINE
  8
0
  6
CONTINUOUS
 62
   249
 10
105.0
 20
85.0
 30
0.0
 11
37.5
 21
85.0
 31
0.0
  0
LINE
  8
0
  6
CONTINUOUS
 62
   249
 10
60.0
 20
77.5
 30
0.0
 11
52.5
 21
77.5
 31
0.0
  0
LINE
  8
0
  6
CONTINUOUS
 62
   249
 10
37.5
 20
77.5
 30
0.0
 11
42.5
 21
77.5
 31
0.0
  0
LINE
  8
0
  6
CONTINUOUS
 62
   249
 10
127.5
 20
70.0
 30
0.0
 11
37.5
 21
70.0
 31
0.0
  0
LINE
  8
0
  6
CONTINUOUS
 62
   249
 10
127.5
 20
65.0
 30
0.0
 11
37.5
 21
65.0
 31
0.0
  0
LINE
  8
0
  6
CONTINUOUS
 62
   249
 10
62.5
 20
117.5
 30
0.0
 11
62.5
 21
112.5
 31
0.0
  0
LINE
  8
0
  6
CONTINUOUS
 62
   249
 10
77.5
 20
117.5
 30
0.0
 11
77.5
 21
112.5
 31
0.0
  0
LINE
  8
0
  6
CONTINUOUS
 62
   249
 10
92.5
 20
117.5
 30
0.0
 11
92.5
 21
112.5
 31
0.0
  0
LINE
  8
0
  6
CONTINUOUS
 62
   249
 10
107.5
 20
117.5
 30
0.0
 11
107.5
 21
112.5
 31
0.0
  0
LINE
  8
0
  6
CONTINUOUS
 62
   249
 10
122.5
 20
120.0
 30
0.0
 11
122.5
 21
112.5
 31
0.0
  0
LINE
  8
0
  6
DASHED
 62
   249
 10
62.5
 20
112.5
 30
0.0
 11
62.5
 21
106.100824
 31
0.0
  0
LINE
  8
0
  6
DASHED
 62
   249
 10
77.5
 20
112.5
 30
0.0
 11
77.5
 21
98.600824
 31
0.0
  0
LINE
  8
0
  6
DASHED
 62
   249
 10
92.5
 20
112.5
 30
0.0
 11
92.5
 21
91.100824
 31
0.0
  0
LINE
  8
0
  6
DASHED
 62
   249
 10
107.5
 20
112.5
 30
0.0
 11
107.5
 21
83.600824
 31
0.0
  0
LINE
  8
0
  6
DASHED
 62
   249
 10
122.5
 20
112.5
 30
0.0
 11
122.5
 21
76.100824
 31
0.0
  0
TEXT
  8
0
  6
DASHED
 62
   249
 10
58.197373
 20
108.403492
 30
0.0
 40
2.0
  1
A
  7
ROMANS
  0
TEXT
  8
0
  6
DASHED
 62
   249
 10
74.143373
 20
101.274588
 30
0.0
 40
2.0
  1
B
  7
ROMANS
  0
TEXT
  8
0
  6
DASHED
 62
   249
 10
88.555109
 20
93.134364
 30
0.0
 40
2.0
  1
C
  7
ROMANS
  0
TEXT
  8
0
  6
DASHED
 62
   249
 10
103.484014
 20
85.755752
 30
0.0
 40
2.0
  1
D
  7
ROMANS
  0
TEXT
  8
0
  6
DASHED
 62
   249
 10
118.171573
 20
78.364654
 30
0.0
 40
2.0
  1
E
  7
ROMANS
  0
TEXT
  8
0
  6
DASHED
 62
   249
 10
131.066284
 20
70.736332
 30
0.0
 40
2.0
  1
F
  7
ROMANS
  0
LINE
  8
0
  6
CENTER
 62
   249
 10
37.5
 20
57.5
 30
0.0
 11
230.0
 21
57.5
 31
0.0
  0
LINE
  8
0
  6
CONTINUOUS
 62
   249
 10
142.5
 20
70.0
 30
0.0
 11
145.0
 21
70.0
 31
0.0
  0
LINE
  8
0
  6
CONTINUOUS
 62
   249
 10
145.0
 20
70.0
 30
0.0
 11
145.0
 21
57.5
 31
0.0
  0
LINE
  8
0
  6
CONTINUOUS
 62
   249
 10
130.0
 20
77.5
 30
0.0
 11
150.0
 21
77.5
 31
0.0
  0
LINE
  8
0
  6
CONTINUOUS
 62
   249
 10
167.5
 20
107.5
 30
0.0
 11
167.5
 21
70.0
 31
0.0
  0
LINE
  8
0
  6
CONTINUOUS
 62
   249
 10
162.5
 20
80.0
 30
0.0
 11
162.5
 21
70.0
 31
0.0
  0
LINE
  8
0
  6
CONTINUOUS
 62
   249
 10
162.5
 20
85.0
 30
0.0
 11
162.5
 21
78.249065
 31
0.0
  0
LINE
  8
0
  6
CONTINUOUS
 62
   249
 10
115.0
 20
85.0
 30
0.0
 11
157.5
 21
85.0
 31
0.0
  0
LINE
  8
0
  6
CONTINUOUS
 62
   249
 10
100.0
 20
92.5
 30
0.0
 11
162.5
 21
92.5
 31
0.0
  0
LINE
  8
0
  6
CONTINUOUS
 62
   249
 10
85.0
 20
100.0
 30
0.0
 11
162.5
 21
100.0
 31
0.0
  0
LINE
  8
0
  6
CONTINUOUS
 62
   249
 10
162.5
 20
100.0
 30
0.0
 11
162.5
 21
85.0
 31
0.0
  0
LINE
  8
0
  6
CONTINUOUS
 62
   249
 10
70.0
 20
107.5
 30
0.0
 11
167.5
 21
107.5
 31
0.0
  0
LINE
  8
0
  6
CONTINUOUS
 62
   249
 10
165.51266
 20
135.0
 30
0.0
 11
157.5
 21
135.0
 31
0.0
  0
LINE
  8
0
  6
CONTINUOUS
 62
   249
 10
157.5
 20
135.0
 30
0.0
 11
157.5
 21
115.0
 31
0.0
  0
LINE
  8
0
  6
CONTINUOUS
 62
   249
 10
157.5
 20
115.0
 30
0.0
 11
135.0
 21
115.0
 31
0.0
  0
LINE
  8
0
  6
CONTINUOUS
 62
   249
 10
135.0
 20
115.0
 30
0.0
 11
135.0
 21
110.0
 31
0.0
  0
LINE
  8
0
  6
DASHED
 62
   249
 10
135.0
 20
110.0
 30
0.0
 11
135.0
 21
68.600824
 31
0.0
  0
LINE
  8
0
  6
CONTINUOUS
 62
   249
 10
127.5
 20
70.0
 30
0.0
 11
132.5
 21
70.0
 31
0.0
  0
LINE
  8
0
  6
CONTINUOUS
 62
   249
 10
132.5
 20
65.0
 30
0.0
 11
127.5
 21
65.0
 31
0.0
  0
LINE
  8
0
  6
CONTINUOUS
 62
   249
 10
132.5
 20
65.0
 30
0.0
 11
132.5
 21
67.5
 31
0.0
  0
LINE
  8
0
  6
CONTINUOUS
 62
   249
 10
137.5
 20
70.0
 30
0.0
 11
142.5
 21
70.0
 31
0.0
  0
LINE
  8
0
  6
CONTINUOUS
 62
   249
 10
137.5
 20
70.0
 30
0.0
 11
131.756076
 21
66.785297
 31
0.0
  0
LINE
  8
0
  6
CONTINUOUS
 62
   249
 10
80.221556
 20
207.5
 30
0.0
 11
150.0
 21
207.5
 31
0.0
  0
LINE
  8
0
  6
CONTINUOUS
 62
   249
 10
57.5
 20
140.0
 30
0.0
 11
50.0
 21
140.0
 31
0.0
  0
LINE
  8
0
  6
CONTINUOUS
 62
   249
 10
120.0
 20
135.0
 30
0.0
 11
120.0
 21
185.0
 31
0.0
  0
LINE
  8
0
  6
CONTINUOUS
 62
   249
 10
120.0
 20
185.0
 30
0.0
 11
50.0
 21
185.0
 31
0.0
  0
LINE
  8
0
  6
CONTINUOUS
 62
   249
 10
50.0
 20
185.0
 30
0.0
 11
50.0
 21
177.5
 31
0.0
  0
LINE
  8
0
  6
CONTINUOUS
 62
   249
 10
50.0
 20
172.5
 30
0.0
 11
50.0
 21
167.5
 31
0.0
  0
LINE
  8
0
  6
CONTINUOUS
 62
   249
 10
50.0
 20
172.5
 30
0.0
 11
47.629915
 21
177.42295
 31
0.0
  0
LINE
  8
0
  6
CONTINUOUS
 62
   249
 10
50.0
 20
140.0
 30
0.0
 11
50.0
 21
152.5
 31
0.0
  0
LINE
  8
0
  6
CONTINUOUS
 62
   249
 10
207.5
 20
140.0
 30
0.0
 11
197.950615
 21
140.0
 31
0.0
  0
LINE
  8
0
  6
CENTER
 62
   249
 10
230.0
 20
217.5
 30
0.0
 11
230.0
 21
225.0
 31
0.0
  0
LINE
  8
0
  6
CENTER
 62
   249
 10
230.0
 20
225.0
 30
0.0
 11
37.5
 21
225.0
 31
0.0
  0
LINE
  8
0
  6
CONTINUOUS
 62
   249
 10
207.5
 20
140.0
 30
0.0
 11
215.0
 21
140.0
 31
0.0
  0
LINE
  8
0
  6
CONTINUOUS
 62
   249
 10
223.838166
 20
133.592819
 30
0.0
 11
225.757416
 21
136.280896
 31
0.0
  0
TEXT
  8
0
  6
CONTINUOUS
 62
   249
 10
227.389365
 20
136.707347
 30
0.0
 40
2.0
  1
9
  7
ROMANS
  0
TEXT
  8
0
  6
CONTINUOUS
 62
   249
 10
208.531325
 20
130.630555
 30
0.0
 40
2.0
  1
SERIAL PORT
  7
ROMANS
  0
LINE
  8
0
  6
DASHED
 62
   249
 10
162.5
 20
57.5
 30
0.0
 11
162.5
 21
50.0
 31
0.0
  0
LINE
  8
0
  6
DASHED
 62
   249
 10
167.5
 20
57.5
 30
0.0
 11
167.5
 21
50.0
 31
0.0
  0
ARC
  8
0
  6
CONTINUOUS
 62
   249
 10
232.5
 20
135.0
 30
0.0
 40
2.5
 50
90.0
 51
270.0
  0
LINE
  8
0
  6
CONTINUOUS
 62
   249
 10
231.819436
 20
135.49
 30
0.0
 11
231.819436
 21
134.51
 31
0.0
  0
LINE
  8
0
  6
CONTINUOUS
 62
   249
 10
231.819436
 20
134.51
 30
0.0
 11
235.249436
 21
134.51
 31
0.0
  0
LINE
  8
0
  6
CONTINUOUS
 62
   249
 10
235.249436
 20
134.51
 30
0.0
 11
235.249436
 21
135.49
 31
0.0
  0
LINE
  8
0
  6
CONTINUOUS
 62
   249
 10
235.249436
 20
135.49
 30
0.0
 11
231.819436
 21
135.49
 31
0.0
  0
LINE
  8
0
  6
CONTINUOUS
 62
   249
 10
357.507689
 20
252.745101
 30
0.0
 11
377.483683
 21
252.745101
 31
0.0
  0
LINE
  8
0
  6
CONTINUOUS
 62
   249
 10
377.483683
 20
252.745101
 30
0.0
 11
377.483683
 21
210.0
 31
0.0
  0
LINE
  8
0
  6
CONTINUOUS
 62
   249
 10
357.507689
 20
210.0
 30
0.0
 11
357.507689
 21
252.745101
 31
0.0
  0
LINE
  8
0
  6
CONTINUOUS
 62
   249
 10
368.997403
 20
218.294663
 30
0.0
 11
371.343169
 21
216.95931
 31
0.0
  0
LINE
  8
0
  6
CONTINUOUS
 62
   249
 10
371.343169
 20
216.95931
 30
0.0
 11
368.997403
 21
215.76939
 31
0.0
  0
LINE
  8
0
  6
CONTINUOUS
 62
   249
 10
371.439683
 20
218.294663
 30
0.0
 11
373.785448
 21
216.95931
 31
0.0
  0
LINE
  8
0
  6
CONTINUOUS
 62
   249
 10
373.785448
 20
216.95931
 30
0.0
 11
371.439683
 21
215.76939
 31
0.0
  0
TEXT
  8
0
  6
CONTINUOUS
 62
   249
 10
363.87244
 20
228.509035
 30
0.0
 40
2.5
  1
I
 11
363.87244
 21
227.675702
 31
0.0
 73
     1
  0
LINE
  8
0
  6
CONTINUOUS
 62
   249
 10
363.100275
 20
244.896317
 30
0.0
 11
363.100275
 21
243.108185
 31
0.0
  0
LINE
  8
0
  6
CONTINUOUS
 62
   249
 10
363.131307
 20
244.051038
 30
0.0
 11
370.919512
 21
244.051038
 31
0.0
  0
LINE
  8
0
  6
CONTINUOUS
 62
   249
 10
367.960859
 20
246.249201
 30
0.0
 11
368.861536
 21
245.125452
 31
0.0
  0
ARC
  8
0
  6
HIDDEN
 62
   249
 10
369.826175
 20
247.979582
 30
0.0
 40
4.998196
 50
206.402922
 51
282.21115
  0
LINE
  8
0
  6
CONTINUOUS
 62
   249
 10
365.515452
 20
242.883436
 30
0.0
 11
368.391562
 21
245.711994
 31
0.0
  0
LINE
  8
0
  6
CONTINUOUS
 62
   249
 10
370.914971
 20
244.896317
 30
0.0
 11
370.914971
 21
243.108185
 31
0.0
  0
LINE
  8
0
  6
CONTINUOUS
 62
   249
 10
370.938869
 20
239.199734
 30
0.0
 11
368.593104
 21
238.009814
 31
0.0
  0
LINE
  8
0
  6
CONTINUOUS
 62
   249
 10
368.593104
 20
240.535087
 30
0.0
 11
370.938869
 21
239.199734
 31
0.0
  0
LINE
  8
0
  6
CONTINUOUS
 62
   249
 10
371.035383
 20
240.535087
 30
0.0
 11
373.381149
 21
239.199734
 31
0.0
  0
LINE
  8
0
  6
CONTINUOUS
 62
   249
 10
373.381149
 20
239.199734
 30
0.0
 11
371.035383
 21
238.009814
 31
0.0
  0
LINE
  8
0
  6
CONTINUOUS
 62
   249
 10
363.100275
 20
225.585606
 30
0.0
 11
363.100275
 21
223.797475
 31
0.0
  0
LINE
  8
0
  6
CONTINUOUS
 62
   249
 10
363.131307
 20
224.740328
 30
0.0
 11
370.919512
 21
224.740328
 31
0.0
  0
LINE
  8
0
  6
CONTINUOUS
 62
   249
 10
365.515452
 20
223.572725
 30
0.0
 11
368.391562
 21
226.401284
 31
0.0
  0
LINE
  8
0
  6
CONTINUOUS
 62
   249
 10
367.960859
 20
226.93849
 30
0.0
 11
368.861536
 21
225.814741
 31
0.0
  0
LINE
  8
0
  6
CONTINUOUS
 62
   249
 10
370.914971
 20
225.585606
 30
0.0
 11
370.914971
 21
223.797475
 31
0.0
  0
LINE
  8
0
  6
HIDDEN
 62
   249
 10
357.5
 20
232.190174
 30
0.0
 11
377.483683
 21
232.190174
 31
0.0
  0
LINE
  8
0
  6
CONTINUOUS
 62
   249
 10
371.29298
 20
229.399181
 30
0.0
 11
368.947215
 21
228.209261
 31
0.0
  0
LINE
  8
0
  6
CONTINUOUS
 62
   249
 10
368.947215
 20
230.734534
 30
0.0
 11
371.29298
 21
229.399181
 31
0.0
  0
TEXT
  8
0
  6
CONTINUOUS
 62
   249
 10
363.87244
 20
215.756706
 30
0.0
 40
2.5
  1
I
 11
363.87244
 21
214.923373
 31
0.0
 73
     1
  0
LINE
  8
0
  6
CONTINUOUS
 62
   249
 10
370.914971
 20
235.242346
 30
0.0
 11
370.914971
 21
233.454215
 31
0.0
  0
LINE
  8
0
  6
CONTINUOUS
 62
   249
 10
367.960859
 20
236.59523
 30
0.0
 11
368.861536
 21
235.471481
 31
0.0
  0
LINE
  8
0
  6
CONTINUOUS
 62
   249
 10
365.515452
 20
233.229465
 30
0.0
 11
368.391562
 21
236.058024
 31
0.0
  0
LINE
  8
0
  6
CONTINUOUS
 62
   249
 10
363.131307
 20
234.397068
 30
0.0
 11
370.919512
 21
234.397068
 31
0.0
  0
LINE
  8
0
  6
CONTINUOUS
 62
   249
 10
363.100275
 20
235.242346
 30
0.0
 11
363.100275
 21
233.454215
 31
0.0
  0
LINE
  8
0
  6
DASHED
 62
   249
 10
37.5
 20
210.0
 30
0.0
 11
32.5
 21
210.0
 31
0.0
  0
LINE
  8
0
  6
DASHED
 62
   249
 10
37.5
 20
205.0
 30
0.0
 11
32.5
 21
205.0
 31
0.0
  0
TEXT
  8
0
  6
DASHED
 62
   249
 10
20.0
 20
210.0
 30
0.0
 40
2.0
  1
1)
  7
ROMANS
  0
LINE
  8
0
  6
DASHED
 62
   249
 10
37.5
 20
107.5
 30
0.0
 11
32.5
 21
107.5
 31
0.0
  0
LINE
  8
0
  6
DASHED
 62
   249
 10
37.5
 20
100.0
 30
0.0
 11
32.5
 21
100.0
 31
0.0
  0
LINE
  8
0
  6
DASHED
 62
   249
 10
37.5
 20
92.5
 30
0.0
 11
32.5
 21
92.5
 31
0.0
  0
LINE
  8
0
  6
DASHED
 62
   249
 10
37.5
 20
85.0
 30
0.0
 11
32.5
 21
85.0
 31
0.0
  0
LINE
  8
0
  6
DASHED
 62
   249
 10
37.5
 20
77.5
 30
0.0
 11
32.5
 21
77.5
 31
0.0
  0
LINE
  8
0
  6
DASHED
 62
   249
 10
37.5
 20
65.0
 30
0.0
 11
32.5
 21
65.0
 31
0.0
  0
LINE
  8
0
  6
CONTINUOUS
 62
   249
 10
30.0
 20
100.0
 30
0.0
 11
30.0
 21
92.499655
 31
0.0
  0
LINE
  8
0
  6
CONTINUOUS
 62
   249
 10
30.0
 20
100.0
 30
0.0
 11
31.0
 21
101.0
 31
0.0
  0
LINE
  8
0
  6
CONTINUOUS
 62
   249
 10
30.0
 20
92.499655
 30
0.0
 11
31.0
 21
91.499655
 31
0.0
  0
TEXT
  8
0
  6
CONTINUOUS
 62
   249
 10
22.5
 20
106.363971
 30
0.0
 40
2.0
  1
3)
  7
ROMANS
  0
TEXT
  8
0
  6
CONTINUOUS
 62
   249
 10
22.5
 20
95.187933
 30
0.0
 40
2.0
  1
4)
  7
ROMANS
  0
TEXT
  8
0
  6
CONTINUOUS
 62
   249
 10
22.5
 20
84.04309
 30
0.0
 40
2.0
  1
5)
  7
ROMANS
  0
TEXT
  8
0
  6
CONTINUOUS
 62
   249
 10
22.5
 20
76.460295
 30
0.0
 40
2.0
  1
6)
  7
ROMANS
  0
LINE
  8
0
  6
CONTINUOUS
 62
   249
 10
60.0
 20
107.5
 30
0.0
 11
48.500004
 21
107.5
 31
0.0
  0
TEXT
  8
0
  6
CONTINUOUS
 62
   249
 10
22.490901
 20
63.99157
 30
0.0
 40
2.0
  1
7)
  7
ROMANS
  0
LINE
  8
0
  6
DASHED
 62
   249
 10
235.0
 20
135.0
 30
0.0
 11
252.5
 21
135.0
 31
0.0
  0
TEXT
  8
0
  6
DASHED
 62
   249
 10
255.060371
 20
134.008638
 30
0.0
 40
2.0
  1
2)
  7
ROMANS
  0
TEXT
  8
0
  6
DASHED
 62
   249
 10
334.939364
 20
163.895487
 30
0.0
 40
2.0
  1
1) EXTERNAL BLOCKING
  7
ROMANS
  0
TEXT
  8
0
  6
DASHED
 62
   249
 10
336.291209
 20
160.562153
 30
0.0
 40
2.0
  1
  EXTERN BLOCKERING
  7
ROMANS
  0
TEXT
  8
0
  6
DASHED
 62
   249
 10
334.939364
 20
154.72882
 30
0.0
 40
2.0
  1
2) BUS CONNECTION MODULE
  7
ROMANS
  0
TEXT
  8
0
  6
DASHED
 62
   249
 10
336.278379
 20
151.395487
 30
0.0
 40
2.0
  1
  BUSSANSLUTNINGSMODUL
  7
ROMANS
  0
TEXT
  8
0
  6
DASHED
 62
   249
 10
334.939364
 20
136.395487
 30
0.0
 40
2.0
  1
4) ALARM ETC.
  7
ROMANS
  0
TEXT
  8
0
  6
DASHED
 62
   249
 10
336.278379
 20
133.062153
 30
0.0
 40
2.0
  1
  SIGNAL MM.
  7
ROMANS
  0
TEXT
  8
0
  6
DASHED
 62
   249
 10
334.939364
 20
127.22882
 30
0.0
 40
2.0
  1
5) START, BLOCKING ETC.
  7
ROMANS
  0
TEXT
  8
0
  6
DASHED
 62
   249
 10
336.278379
 20
123.895487
 30
0.0
 40
2.0
  1
  START, BLOCKERING MM.
  7
ROMANS
  0
TEXT
  8
0
  6
DASHED
 62
   249
 10
334.939364
 20
108.895487
 30
0.0
 40
2.0
  1
7) INTERNAL RELAY FAULT
  7
ROMANS
  0
TEXT
  8
0
  6
DASHED
 62
   249
 10
336.263163
 20
105.562153
 30
0.0
 40
2.0
  1
  INTERNT RELÄFEL
  7
ROMANS
  0
LINE
  8
0
  6
CONTINUOUS
 62
   249
 10
72.798812
 20
205.0
 30
0.0
 11
37.5
 21
205.0
 31
0.0
  0
LINE
  8
0
  6
CONTINUOUS
 62
   249
 10
72.798812
 20
210.0
 30
0.0
 11
54.494051
 21
210.0
 31
0.0
  0
LINE
  8
0
 62
   249
 10
72.798812
 20
211.589925
 30
0.0
 11
72.798812
 21
203.4
 31
0.0
  0
LINE
  8
0
 62
   249
 10
77.004853
 20
211.59384
 30
0.0
 11
75.09105
 21
209.315018
 31
0.0
  0
LINE
  8
0
 62
   249
 10
78.496971
 20
211.59384
 30
0.0
 11
76.642636
 21
209.315018
 31
0.0
  0
LINE
  8
0
 62
   249
 10
80.221556
 20
211.589925
 30
0.0
 11
72.798812
 21
211.589925
 31
0.0
  0
LINE
  8
0
 62
   249
 10
72.798812
 20
203.4
 30
0.0
 11
80.221556
 21
203.4
 31
0.0
  0
LINE
  8
0
 62
   249
 10
80.221556
 20
203.4
 30
0.0
 11
80.221556
 21
211.589925
 31
0.0
  0
LINE
  8
0
  6
CONTINUOUS
 62
   249
 10
80.221556
 20
207.5
 30
0.0
 11
83.098812
 21
207.5
 31
0.0
  0
LINE
  8
0
  6
CONTINUOUS
 62
   249
 10
50.0
 20
156.148475
 30
0.0
 11
50.0
 21
152.5
 31
0.0
  0
LINE
  8
0
  6
CONTINUOUS
 62
   249
 10
50.0
 20
164.3384
 30
0.0
 11
50.0
 21
167.5
 31
0.0
  0
LINE
  8
0
  6
CONTINUOUS
 62
   249
 10
192.5
 20
77.929605
 30
0.0
 11
192.5
 21
75.0
 31
0.0
  0
LINE
  8
0
  6
CONTINUOUS
 62
   249
 10
187.5
 20
77.929605
 30
0.0
 11
187.5
 21
75.0
 31
0.0
  0
LINE
  8
0
  6
CONTINUOUS
 62
   249
 10
192.5
 20
92.5
 30
0.0
 11
192.5
 21
87.252154
 31
0.0
  0
LINE
  8
0
  6
CONTINUOUS
 62
   249
 10
187.5
 20
92.5
 30
0.0
 11
187.5
 21
87.252154
 31
0.0
  0
LINE
  8
0
 62
   249
 10
189.966311
 20
80.22844
 30
0.0
 11
193.966311
 21
80.22844
 31
0.0
  0
LINE
  8
0
 62
   249
 10
186.209901
 20
85.174464
 30
0.0
 11
190.209901
 21
85.174464
 31
0.0
  0
LINE
  8
0
 62
   249
 10
185.295103
 20
78.886207
 30
0.0
 11
193.658613
 21
87.252154
 31
0.0
  0
LINE
  8
0
 62
   249
 10
186.279395
 20
77.929605
 30
0.0
 11
194.619756
 21
86.267352
 31
0.0
  0
LINE
  8
0
 62
   249
 10
185.295103
 20
77.929605
 30
0.0
 11
185.295103
 21
87.252154
 31
0.0
  0
LINE
  8
0
 62
   249
 10
194.619756
 20
77.929605
 30
0.0
 11
185.295103
 21
77.929605
 31
0.0
  0
LINE
  8
0
 62
   249
 10
194.619756
 20
87.252154
 30
0.0
 11
194.619756
 21
77.929605
 31
0.0
  0
LINE
  8
0
 62
   249
 10
185.295103
 20
87.252154
 30
0.0
 11
194.619756
 21
87.252154
 31
0.0
  0
TEXT
  8
0
  6
CONTINUOUS
 62
   249
 10
186.866734
 20
93.05315
 30
0.0
 40
2.0
  1
+
  0
TEXT
  8
0
  6
CONTINUOUS
 62
   249
 10
191.797086
 20
93.077719
 30
0.0
 40
2.0
  1
-
  0
LINE
  8
0
  6
CONTINUOUS
 62
   249
 10
215.0
 20
135.0
 30
0.0
 11
230.0
 21
135.0
 31
0.0
  0
LINE
  8
0
  6
CONTINUOUS
 62
   249
 10
215.0
 20
135.0
 30
0.0
 11
215.0
 21
140.0
 31
0.0
  0
ARC
  8
0
 62
   249
 10
191.172927
 20
78.436221
 30
0.0
 40
0.869227
 50
32.471192
 51
175.601295
  0
ARC
  8
0
 62
   249
 10
192.639595
 20
79.369554
 30
0.0
 40
0.869227
 50
212.471192
 51
355.601295
  0
LINE
  8
0
  6
CONTINUOUS
 62
   249
 10
157.5
 20
57.5
 30
0.0
 11
157.5
 21
63.999996
 31
0.0
  0
LINE
  8
0
  6
CONTINUOUS
 62
   249
 10
178.653232
 20
182.960318
 30
0.0
 11
178.653232
 21
181.172187
 31
0.0
  0
LINE
  8
0
  6
CONTINUOUS
 62
   249
 10
186.467927
 20
182.960318
 30
0.0
 11
186.467927
 21
181.172187
 31
0.0
  0
LINE
  8
0
  6
CONTINUOUS
 62
   249
 10
178.684263
 20
182.115039
 30
0.0
 11
186.472468
 21
182.115039
 31
0.0
  0
LINE
  8
0
  6
CONTINUOUS
 62
   249
 10
181.068408
 20
180.947437
 30
0.0
 11
183.944519
 21
183.775995
 31
0.0
  0
LINE
  8
0
  6
CONTINUOUS
 62
   249
 10
183.490396
 20
184.313202
 30
0.0
 11
184.391073
 21
183.189453
 31
0.0
  0
TEXT
  8
0
  6
DASHED
 62
   249
 10
49.140763
 20
179.05783
 30
0.0
 40
1.5
  1
SGF1/4
 50
90.0
  7
ROMANS
  0
TEXT
  8
0
  6
DASHED
 62
   249
 10
39.640631
 20
131.957131
 30
0.0
 40
1.5
  1
SGB1/6
  7
ROMANS
  0
TEXT
  8
0
  6
DASHED
 62
   249
 10
39.640631
 20
128.454754
 30
0.0
 40
1.5
  1
SGB1/7
  7
ROMANS
  0
CIRCLE
  8
0
  6
CONTINUOUS
 62
   249
 10
166.512659
 20
150.778044
 30
0.0
 40
1.0
  0
CIRCLE
  8
0
  6
CONTINUOUS
 62
   249
 10
166.512659
 20
145.072207
 30
0.0
 40
1.0
  0
LINE
  8
0
  6
CONTINUOUS
 62
   249
 10
167.5
 20
162.5
 30
0.0
 11
187.5
 21
162.5
 31
0.0
  0
TEXT
  8
0
  6
DASHED
 62
   249
 10
168.667061
 20
176.502319
 30
0.0
 40
2.5
  1
U
  0
LINE
  8
0
  6
CONTINUOUS
 62
   249
 10
188.986076
 20
159.880922
 30
0.0
 11
196.529662
 21
159.880922
 31
0.0
  0
TEXT
  8
0
  6
DASHED
 62
   249
 10
190.339663
 20
172.547888
 30
0.0
 40
2.5
  1
U
  0
TEXT
  8
0
  6
DASHED
 62
   249
 10
189.030889
 20
192.032586
 30
0.0
 40
2.5
  1
2I
  0
TEXT
  8
0
  6
DASHED
 62
   249
 10
151.739899
 20
145.948446
 30
0.0
 40
1.5
  1
SGB1/8
  7
ROMANS
  0
TEXT
  8
0
  6
DASHED
 62
   249
 10
151.739899
 20
151.384531
 30
0.0
 40
1.5
  1
SGB1/5
  7
ROMANS
  0
TEXT
  8
0
  6
DASHED
 62
   249
 10
151.739899
 20
160.852163
 30
0.0
 40
1.5
  1
SGB1/4
  7
ROMANS
  0
TEXT
  8
0
  6
DASHED
 62
   249
 10
151.739899
 20
168.551116
 30
0.0
 40
1.5
  1
SGB1/3
  7
ROMANS
  0
TEXT
  8
0
  6
DASHED
 62
   249
 10
151.727928
 20
186.26391
 30
0.0
 40
1.5
  1
SGB1/2
  7
ROMANS
  0
TEXT
  8
0
  6
DASHED
 62
   249
 10
151.727928
 20
198.956779
 30
0.0
 40
1.5
  1
SGB1/1
  7
ROMANS
  0
TEXT
  8
0
  6
DASHED
 62
   249
 10
363.970025
 20
248.028368
 30
0.0
 40
2.5
  1
2I
  0
LINE
  8
0
  6
CONTINUOUS
 62
   249
 10
362.982292
 20
221.120267
 30
0.0
 11
370.525878
 21
221.120267
 31
0.0
  0
LINE
  8
0
  6
CONTINUOUS
 62
   249
 10
368.56026
 20
250.537932
 30
0.0
 11
370.906026
 21
249.202578
 31
0.0
  0
LINE
  8
0
  6
CONTINUOUS
 62
   249
 10
370.906026
 20
249.202578
 30
0.0
 11
368.56026
 21
248.012659
 31
0.0
  0
TEXT
  8
0
  6
DASHED
 62
   249
 10
363.970025
 20
237.933708
 30
0.0
 40
2.5
  1
2I
  0
LINE
  8
0
  6
CONTINUOUS
 62
   249
 10
362.982292
 20
212.858919
 30
0.0
 11
370.525878
 21
212.858919
 31
0.0
  0
LINE
  8
0
  6
CONTINUOUS
 62
   249
 10
357.507689
 20
210.0
 30
0.0
 11
377.483683
 21
210.0
 31
0.0
  0
TEXT
  8
0
  6
CONTINUOUS
 62
   249
 10
352.548949
 20
205.154757
 30
0.0
 40
2.0
  1
FEEDER PROTECTION
  7
ROMANS
  0
TEXT
  8
0
  6
CONTINUOUS
 62
   249
 10
352.548949
 20
201.821424
 30
0.0
 40
2.0
  1
LEDNINGSSKYDD
  7
ROMANS
  0
TEXT
  8
0
  6
CONTINUOUS
 62
   249
 10
334.939364
 20
145.569309
 30
0.0
 40
2.0
  1
3) TRIP 1
  7
ROMANS
  0
TEXT
  8
0
  6
CONTINUOUS
 62
   249
 10
334.269856
 20
142.235976
 30
0.0
 40
2.0
  1
   UTLÖSNING 1
  7
ROMANS
  0
TEXT
  8
0
  6
CONTINUOUS
 62
   249
 10
334.924148
 20
118.040421
 30
0.0
 40
2.0
  1
6) START OR TRIP 2
  7
ROMANS
  0
TEXT
  8
0
  6
CONTINUOUS
 62
   249
 10
334.300288
 20
114.707088
 30
0.0
 40
2.0
  1
   START ELLER UTLÖSNING 2
  7
ROMANS
  0
TEXT
  8
0
  6
CONTINUOUS
 62
   249
 10
211.997891
 20
27.774321
 30
0.0
 40
2.0
  1
1993-03-18  KM / RITU
  7
ROMANS
  0
TEXT
  8
0
  6
CONTINUOUS
 62
   249
 10
317.5
 20
24.166667
 30
0.0
 40
2.0
  1
SPAA 121 C  WITH TEST SWITCH
  7
ROMANS
  0
TEXT
  8
0
  6
CONTINUOUS
 62
   249
 10
372.5
 20
12.5
 30
0.0
 40
2.0
  1
1
  7
ROMANS
  0
TEXT
  8
0
  6
CONTINUOUS
 62
   249
 10
380.0
 20
2.5
 30
0.0
 40
2.5
  1
C
  7
ROMANS
  0
TEXT
  8
0
  6
CONTINUOUS
 62
   249
 10
51.313078
 20
1.443554
 30
0.0
 40
2.0
  1
REDRAWN WITH AUTOCAD  1993-03-18  KM / RITU Power
  7
ROMANS
  0
TEXT
  8
0
  6
CONTINUOUS
 62
   249
 10
95.0
 20
217.5
 30
0.0
 40
2.0
  1
RS 10081-AA SPAA 121 C
  7
ROMANS
  0
LINE
  8
0
  6
DASHED
 62
   249
 10
265.0
 20
157.5
 30
0.0
 11
265.0
 21
132.5
 31
0.0
  0
LINE
  8
0
  6
DASHED
 62
   249
 10
287.5
 20
145.0
 30
0.0
 11
287.5
 21
215.0
 31
0.0
  0
LINE
  8
0
  6
DASHED
 62
   249
 10
295.0
 20
155.0
 30
0.0
 11
295.0
 21
202.5
 31
0.0
  0
LINE
  8
0
  6
DASHED
 62
   249
 10
230.0
 20
155.0
 30
0.0
 11
295.0
 21
155.0
 31
0.0
  0
LINE
  8
0
  6
CONTINUOUS
 62
   249
 10
292.5
 20
215.0
 30
0.0
 11
287.5
 21
222.5
 31
0.0
  0
LINE
  8
0
  6
CONTINUOUS
 62
   249
 10
295.0
 20
215.0
 30
0.0
 11
292.5
 21
215.0
 31
0.0
  0
LINE
  8
0
  6
CONTINUOUS
 62
   249
 10
286.506031
 20
220.098556
 30
0.0
 11
287.478167
 21
220.098556
 31
0.0
  0
LINE
  8
0
  6
CONTINUOUS
 62
   249
 10
286.496128
 20
222.499996
 30
0.0
 11
287.473936
 21
222.499996
 31
0.0
  0
LINE
  8
0
  6
CONTINUOUS
 62
   249
 10
286.500897
 20
217.68998
 30
0.0
 11
287.5
 21
217.68998
 31
0.0
  0
ARC
  8
0
  6
CONTINUOUS
 62
   249
 10
285.864862
 20
218.894238
 30
0.0
 40
1.204309
 50
90.0
 51
270.0
  0
LINE
  8
0
  6
CONTINUOUS
 62
   249
 10
285.859898
 20
217.689937
 30
0.0
 11
286.509496
 21
217.689937
 31
0.0
  0
LINE
  8
0
  6
CONTINUOUS
 62
   249
 10
285.858762
 20
222.499993
 30
0.0
 11
286.502261
 21
222.499993
 31
0.0
  0
LINE
  8
0
  6
CONTINUOUS
 62
   249
 10
285.858762
 20
220.098547
 30
0.0
 11
286.50836
 21
220.098547
 31
0.0
  0
ARC
  8
0
  6
CONTINUOUS
 62
   249
 10
285.864862
 20
221.296095
 30
0.0
 40
1.204309
 50
90.0
 51
265.706237
  0
LINE
  8
0
  6
CONTINUOUS
 62
   249
 10
294.006031
 20
220.098556
 30
0.0
 11
294.978167
 21
220.098556
 31
0.0
  0
LINE
  8
0
  6
CONTINUOUS
 62
   249
 10
293.996128
 20
222.499996
 30
0.0
 11
294.973936
 21
222.499996
 31
0.0
  0
LINE
  8
0
  6
CONTINUOUS
 62
   249
 10
294.000897
 20
217.68998
 30
0.0
 11
295.0
 21
217.68998
 31
0.0
  0
ARC
  8
0
  6
CONTINUOUS
 62
   249
 10
293.364862
 20
218.894238
 30
0.0
 40
1.204309
 50
90.0
 51
270.0
  0
LINE
  8
0
  6
CONTINUOUS
 62
   249
 10
293.359898
 20
217.689937
 30
0.0
 11
294.009496
 21
217.689937
 31
0.0
  0
LINE
  8
0
  6
CONTINUOUS
 62
   249
 10
293.358762
 20
222.499993
 30
0.0
 11
294.002261
 21
222.499993
 31
0.0
  0
LINE
  8
0
  6
CONTINUOUS
 62
   249
 10
293.358762
 20
220.098547
 30
0.0
 11
294.00836
 21
220.098547
 31
0.0
  0
ARC
  8
0
  6
CONTINUOUS
 62
   249
 10
293.364862
 20
221.296095
 30
0.0
 40
1.204309
 50
90.0
 51
265.706237
  0
LINE
  8
0
  6
CONTINUOUS
 62
   249
 10
295.0
 20
217.68998
 30
0.0
 11
295.0
 21
215.0
 31
0.0
  0
LINE
  8
0
  6
CONTINUOUS
 62
   249
 10
287.5
 20
217.68998
 30
0.0
 11
287.5
 21
215.0
 31
0.0
  0
LINE
  8
0
  6
DASHED
 62
   249
 10
295.0
 20
232.5
 30
0.0
 11
295.0
 21
250.0
 31
0.0
  0
LINE
  8
0
  6
DASHED
 62
   249
 10
287.5
 20
232.5
 30
0.0
 11
287.5
 21
255.0
 31
0.0
  0
LINE
  8
0
  6
DASHED
 62
   249
 10
270.0
 20
195.0
 30
0.0
 11
230.0
 21
195.0
 31
0.0
  0
LINE
  8
0
  6
DASHED
 62
   249
 10
260.0
 20
215.0
 30
0.0
 11
230.0
 21
215.0
 31
0.0
  0
LINE
  8
0
  6
DASHED
 62
   249
 10
262.5
 20
165.0
 30
0.0
 11
265.0
 21
165.0
 31
0.0
  0
LINE
  8
0
  6
DASHED
 62
   249
 10
265.0
 20
165.0
 30
0.0
 11
265.0
 21
165.0
 31
0.0
  0
LINE
  8
0
  6
DASHED
 62
   249
 10
252.5
 20
169.810016
 30
0.0
 11
265.0
 21
169.810016
 31
0.0
  0
LINE
  8
0
  6
CONTINUOUS
 62
   249
 10
262.5
 20
167.40144
 30
0.0
 11
265.0
 21
167.40144
 31
0.0
  0
LINE
  8
0
  6
DASHED
 62
   249
 10
252.5
 20
160.0
 30
0.0
 11
252.5
 21
165.0
 31
0.0
  0
LINE
  8
0
  6
DASHED
 62
   249
 10
262.5
 20
182.5
 30
0.0
 11
262.5
 21
160.0
 31
0.0
  0
LINE
  8
0
  6
CONTINUOUS
 62
   249
 10
265.0
 20
177.5
 30
0.0
 11
265.0
 21
157.5
 31
0.0
  0
LINE
  8
0
  6
CONTINUOUS
 62
   249
 10
265.0
 20
177.5
 30
0.0
 11
267.5
 21
182.5
 31
0.0
  0
LINE
  8
0
  6
CONTINUOUS
 62
   249
 10
262.5
 20
182.5
 30
0.0
 11
265.0
 21
177.5
 31
0.0
  0
LINE
  8
0
  6
CONTINUOUS
 62
   249
 10
260.0
 20
182.5
 30
0.0
 11
270.0
 21
182.5
 31
0.0
  0
LINE
  8
0
  6
DASHED
 62
   249
 10
255.0
 20
210.189992
 30
0.0
 11
255.0
 21
185.0
 31
0.0
  0
LINE
  8
0
  6
DASHED
 62
   249
 10
252.5
 20
175.0
 30
0.0
 11
252.5
 21
169.810016
 31
0.0
  0
LINE
  8
0
  6
DASHED
 62
   249
 10
230.0
 20
175.0
 30
0.0
 11
252.5
 21
175.0
 31
0.0
  0
LINE
  8
0
  6
DASHED
 62
   249
 10
240.0
 20
205.0
 30
0.0
 11
240.0
 21
185.0
 31
0.0
  0
LINE
  8
0
  6
DASHED
 62
   249
 10
270.006921
 20
190.189984
 30
0.0
 11
255.0
 21
190.189984
 31
0.0
  0
LINE
  8
0
  6
DASHED
 62
   249
 10
260.0
 20
187.5
 30
0.0
 11
260.0
 21
182.5
 31
0.0
  0
LINE
  8
0
  6
DASHED
 62
   249
 10
265.0
 20
187.5
 30
0.0
 11
265.0
 21
182.5
 31
0.0
  0
LINE
  8
0
  6
DASHED
 62
   249
 10
270.0
 20
187.5
 30
0.0
 11
270.0
 21
182.5
 31
0.0
  0
LINE
  8
0
  6
DASHED
 62
   249
 10
260.0
 20
220.0
 30
0.0
 11
260.0
 21
187.5
 31
0.0
  0
LINE
  8
0
  6
DASHED
 62
   249
 10
260.0
 20
227.5
 30
0.0
 11
260.0
 21
240.0
 31
0.0
  0
LINE
  8
0
  6
DASHED
 62
   249
 10
265.0
 20
250.0
 30
0.0
 11
265.0
 21
227.5
 31
0.0
  0
LINE
  8
0
  6
DASHED
 62
   249
 10
265.0
 20
220.0
 30
0.0
 11
265.0
 21
187.5
 31
0.0
  0
LINE
  8
0
  6
DASHED
 62
   249
 10
270.0
 20
245.0
 30
0.0
 11
270.0
 21
227.5
 31
0.0
  0
LINE
  8
0
  6
DASHED
 62
   249
 10
270.0
 20
220.0
 30
0.0
 11
270.0
 21
187.5
 31
0.0
  0
LINE
  8
0
  6
DASHED
 62
   249
 10
265.0
 20
240.0
 30
0.0
 11
265.0
 21
247.5
 31
0.0
  0
LINE
  8
0
  6
DASHED
 62
   249
 10
260.0
 20
240.0
 30
0.0
 11
260.0
 21
255.0
 31
0.0
  0
LINE
  8
0
  6
CONTINUOUS
 62
   249
 10
260.0
 20
220.0
 30
0.0
 11
257.5
 21
227.5
 31
0.0
  0
LINE
  8
0
  6
CONTINUOUS
 62
   249
 10
265.0
 20
220.0
 30
0.0
 11
262.5
 21
227.5
 31
0.0
  0
LINE
  8
0
  6
CONTINUOUS
 62
   249
 10
270.0
 20
220.0
 30
0.0
 11
267.5
 21
227.5
 31
0.0
  0
LINE
  8
0
  6
CONTINUOUS
 62
   249
 10
260.0
 20
227.5
 30
0.0
 11
259.5
 21
228.0
 31
0.0
  0
LINE
  8
0
  6
CONTINUOUS
 62
   249
 10
260.0
 20
227.5
 30
0.0
 11
260.5
 21
227.0
 31
0.0
  0
LINE
  8
0
  6
CONTINUOUS
 62
   249
 10
260.0
 20
227.5
 30
0.0
 11
260.5
 21
228.0
 31
0.0
  0
LINE
  8
0
  6
CONTINUOUS
 62
   249
 10
260.0
 20
227.5
 30
0.0
 11
259.5
 21
227.0
 31
0.0
  0
LINE
  8
0
  6
CONTINUOUS
 62
   249
 10
265.0
 20
227.5
 30
0.0
 11
265.5
 21
228.0
 31
0.0
  0
LINE
  8
0
  6
CONTINUOUS
 62
   249
 10
265.0
 20
227.5
 30
0.0
 11
265.5
 21
227.0
 31
0.0
  0
LINE
  8
0
  6
CONTINUOUS
 62
   249
 10
265.0
 20
227.5
 30
0.0
 11
264.5
 21
227.0
 31
0.0
  0
LINE
  8
0
  6
CONTINUOUS
 62
   249
 10
265.0
 20
227.5
 30
0.0
 11
264.5
 21
228.0
 31
0.0
  0
LINE
  8
0
  6
CONTINUOUS
 62
   249
 10
270.0
 20
227.5
 30
0.0
 11
270.5
 21
227.0
 31
0.0
  0
LINE
  8
0
  6
CONTINUOUS
 62
   249
 10
270.0
 20
227.5
 30
0.0
 11
270.5
 21
228.0
 31
0.0
  0
LINE
  8
0
  6
CONTINUOUS
 62
   249
 10
270.0
 20
227.5
 30
0.0
 11
269.5
 21
228.0
 31
0.0
  0
LINE
  8
0
  6
CONTINUOUS
 62
   249
 10
270.0
 20
227.5
 30
0.0
 11
269.5
 21
227.0
 31
0.0
  0
LINE
  8
0
  6
DASHED
 62
   249
 10
260.0
 20
210.189992
 30
0.0
 11
255.0
 21
210.189992
 31
0.0
  0
TEXT
  8
0
  6
CONTINUOUS
 62
   249
 10
243.732328
 20
253.985054
 30
0.0
 40
2.0
  1
L1(R)
  7
ROMANS
 11
243.732328
 21
253.318387
 31
0.0
 73
     1
  0
TEXT
  8
0
  6
CONTINUOUS
 62
   249
 10
243.732328
 20
248.928359
 30
0.0
 40
2.0
  1
L2(S)
  7
ROMANS
 11
243.732328
 21
248.261693
 31
0.0
 73
     1
  0
TEXT
  8
0
  6
CONTINUOUS
 62
   249
 10
243.732328
 20
244.006967
 30
0.0
 40
2.0
  1
L3(T)
  7
ROMANS
 11
243.732328
 21
243.3403
 31
0.0
 73
     1
  0
LINE
  8
0
  6
DASHED
 62
   249
 10
230.0
 20
145.0
 30
0.0
 11
287.5
 21
145.0
 31
0.0
  0
LINE
  8
0
  6
DASHED
 62
   249
 10
230.0
 20
165.0
 30
0.0
 11
262.5
 21
165.0
 31
0.0
  0
LINE
  8
0
  6
DASHED
 62
   249
 10
230.0
 20
185.0
 30
0.0
 11
255.0
 21
185.0
 31
0.0
  0
LINE
  8
0
  6
DASHED
 62
   249
 10
230.0
 20
205.0
 30
0.0
 11
240.0
 21
205.0
 31
0.0
  0
LINE
  8
0
  6
DASHED
 62
   249
 10
312.5
 20
202.5
 30
0.0
 11
312.5
 21
222.5
 31
0.0
  0
LINE
  8
0
  6
DASHED
 62
   249
 10
295.0
 20
202.5
 30
0.0
 11
312.5
 21
202.5
 31
0.0
  0
LINE
  8
0
  6
DASHED
 62
   249
 10
307.5
 20
227.68998
 30
0.0
 11
316.663362
 21
227.68998
 31
0.0
  0
LINE
  8
0
  6
DASHED
 62
   249
 10
307.5
 20
222.5
 30
0.0
 11
316.84682
 21
222.5
 31
0.0
  0
LINE
  8
0
  6
CONTINUOUS
 62
   249
 10
302.5
 20
222.5
 30
0.0
 11
307.5
 21
222.5
 31
0.0
  0
LINE
  8
0
  6
CONTINUOUS
 62
   249
 10
300.0
 20
215.0
 30
0.0
 11
295.0
 21
222.5
 31
0.0
  0
LINE
  8
0
  6
CONTINUOUS
 62
   249
 10
302.5
 20
215.0
 30
0.0
 11
300.0
 21
215.0
 31
0.0
  0
LINE
  8
0
  6
CONTINUOUS
 62
   249
 10
301.506031
 20
220.098556
 30
0.0
 11
302.478167
 21
220.098556
 31
0.0
  0
LINE
  8
0
  6
CONTINUOUS
 62
   249
 10
301.496128
 20
222.499996
 30
0.0
 11
302.473936
 21
222.499996
 31
0.0
  0
LINE
  8
0
  6
CONTINUOUS
 62
   249
 10
301.500897
 20
217.68998
 30
0.0
 11
302.5
 21
217.68998
 31
0.0
  0
ARC
  8
0
  6
CONTINUOUS
 62
   249
 10
300.864862
 20
218.894238
 30
0.0
 40
1.204309
 50
90.0
 51
270.0
  0
LINE
  8
0
  6
CONTINUOUS
 62
   249
 10
300.859898
 20
217.689937
 30
0.0
 11
301.509496
 21
217.689937
 31
0.0
  0
LINE
  8
0
  6
CONTINUOUS
 62
   249
 10
300.858762
 20
222.499993
 30
0.0
 11
301.502261
 21
222.499993
 31
0.0
  0
LINE
  8
0
  6
CONTINUOUS
 62
   249
 10
300.858762
 20
220.098547
 30
0.0
 11
301.50836
 21
220.098547
 31
0.0
  0
ARC
  8
0
  6
CONTINUOUS
 62
   249
 10
300.864862
 20
221.296095
 30
0.0
 40
1.204309
 50
90.0
 51
265.706237
  0
LINE
  8
0
  6
CONTINUOUS
 62
   249
 10
302.5
 20
217.68998
 30
0.0
 11
302.5
 21
215.0
 31
0.0
  0
LINE
  8
0
  6
CONTINUOUS
 62
   249
 10
287.5
 20
227.68998
 30
0.0
 11
307.5
 21
227.68998
 31
0.0
  0
LINE
  8
0
  6
DASHED
 62
   249
 10
302.5
 20
232.5
 30
0.0
 11
302.5
 21
245.0
 31
0.0
  0
LINE
  8
0
  6
DASHED
 62
   249
 10
338.595465
 20
245.0
 30
0.0
 11
252.5
 21
245.0
 31
0.0
  0
LINE
  8
0
  6
DASHED
 62
   249
 10
338.595465
 20
250.0
 30
0.0
 11
252.5
 21
250.0
 31
0.0
  0
LINE
  8
0
  6
DASHED
 62
   249
 10
338.595465
 20
255.0
 30
0.0
 11
252.5
 21
255.0
 31
0.0
  0
TEXT
  8
0
  6
CONTINUOUS
 62
   249
 10
317.5
 20
27.5
 30
0.0
 40
2.0
  1
TERMINAL DIAGRAM / UTTAGSSCHEMA
  7
ROMANS
  0
TEXT
  8
0
  6
CONTINUOUS
 62
   249
 10
322.5
 20
2.5
 30
0.0
 40
2.5
  1
RS 10081-AAA
  7
ROMANS
  0
TEXT
  8
0
  6
CONTINUOUS
 62
   249
 10
37.809952
 20
52.648529
 30
0.0
 40
2.0
  1
DIM. 168 X 192
  7
ROMANS
  0
TEXT
  8
0
  6
CONTINUOUS
 62
   249
 10
37.809952
 20
49.315195
 30
0.0
 40
2.0
  1
RS 10081-AAA
  7
ROMANS
  0
LINE
  8
0
  6
CONTINUOUS
 62
   249
 10
54.512083
 20
209.993411
 30
0.0
 11
47.831207
 21
212.434804
 31
0.0
  0
LINE
  8
0
  6
CONTINUOUS
 62
   249
 10
48.494047
 20
210.0
 30
0.0
 11
48.494047
 21
212.765661
 31
0.0
  0
LINE
  8
0
  6
CONTINUOUS
 62
   249
 10
47.831207
 20
212.434804
 30
0.0
 11
47.386313
 21
211.549106
 31
0.0
  0
LINE
  8
0
  6
CONTINUOUS
 62
   249
 10
48.494047
 20
210.0
 30
0.0
 11
37.5
 21
210.0
 31
0.0
  0
TEXT
  8
0
  6
CONTINUOUS
 62
   249
 10
38.169049
 20
211.24854
 30
0.0
 40
2.0
  1
101
  7
ROMANS
  0
TEXT
  8
0
  6
CONTINUOUS
 62
   249
 10
38.157078
 20
206.922217
 30
0.0
 40
2.0
  1
14A
  7
ROMANS
  0
LINE
  8
0
  6
CONTINUOUS
 62
   249
 10
42.5
 20
107.5
 30
0.0
 11
42.5
 21
110.265661
 31
0.0
  0
LINE
  8
0
  6
CONTINUOUS
 62
   249
 10
48.518035
 20
107.493411
 30
0.0
 11
41.837159
 21
109.934804
 31
0.0
  0
LINE
  8
0
  6
CONTINUOUS
 62
   249
 10
42.5
 20
107.5
 30
0.0
 11
37.5
 21
107.5
 31
0.0
  0
LINE
  8
0
  6
CONTINUOUS
 62
   249
 10
42.5
 20
77.5
 30
0.0
 11
42.5
 21
80.265661
 31
0.0
  0
LINE
  8
0
  6
CONTINUOUS
 62
   249
 10
48.518035
 20
77.493411
 30
0.0
 11
41.837159
 21
79.934804
 31
0.0
  0
LINE
  8
0
  6
CONTINUOUS
 62
   249
 10
48.500004
 20
77.5
 30
0.0
 11
120.0
 21
77.5
 31
0.0
  0
LINE
  8
0
  6
CONTINUOUS
 62
   249
 10
172.5
 20
63.999996
 30
0.0
 11
174.934804
 21
70.662841
 31
0.0
  0
LINE
  8
0
  6
CONTINUOUS
 62
   249
 10
174.934804
 20
70.662841
 30
0.0
 11
174.049106
 21
71.107734
 31
0.0
  0
LINE
  8
0
  6
CONTINUOUS
 62
   249
 10
172.5
 20
70.0
 30
0.0
 11
175.265661
 21
70.0
 31
0.0
  0
LINE
  8
0
  6
CONTINUOUS
 62
   249
 10
167.5
 20
63.999996
 30
0.0
 11
169.934804
 21
70.662841
 31
0.0
  0
LINE
  8
0
  6
CONTINUOUS
 62
   249
 10
167.5
 20
70.0
 30
0.0
 11
170.265661
 21
70.0
 31
0.0
  0
LINE
  8
0
  6
CONTINUOUS
 62
   249
 10
162.5
 20
63.999996
 30
0.0
 11
164.934804
 21
70.662841
 31
0.0
  0
LINE
  8
0
  6
CONTINUOUS
 62
   249
 10
162.5
 20
70.0
 30
0.0
 11
165.265661
 21
70.0
 31
0.0
  0
LINE
  8
0
  6
CONTINUOUS
 62
   249
 10
157.5
 20
70.0
 30
0.0
 11
160.265661
 21
70.0
 31
0.0
  0
LINE
  8
0
  6
CONTINUOUS
 62
   249
 10
157.5
 20
63.999996
 30
0.0
 11
159.934804
 21
70.662841
 31
0.0
  0
LINE
  8
0
  6
CONTINUOUS
 62
   249
 10
157.5
 20
70.0
 30
0.0
 11
157.5
 21
85.0
 31
0.0
  0
LINE
  8
0
  6
CONTINUOUS
 62
   249
 10
162.5
 20
63.999996
 30
0.0
 11
162.5
 21
57.5
 31
0.0
  0
LINE
  8
0
  6
CONTINUOUS
 62
   249
 10
167.5
 20
63.999996
 30
0.0
 11
167.5
 21
57.5
 31
0.0
  0
LINE
  8
0
  6
CONTINUOUS
 62
   249
 10
172.5
 20
63.999996
 30
0.0
 11
172.5
 21
57.5
 31
0.0
  0
LINE
  8
0
  6
CONTINUOUS
 62
   249
 10
169.934804
 20
70.662841
 30
0.0
 11
169.049106
 21
71.107734
 31
0.0
  0
TEXT
  8
0
  6
CONTINUOUS
 62
   249
 10
225.420304
 20
211.958222
 30
0.0
 40
2.0
  1
3A
  7
ROMANS
  0
TEXT
  8
0
  6
CONTINUOUS
 62
   249
 10
217.914089
 20
217.710781
 30
0.0
 40
2.0
  1
101
  7
ROMANS
  0
LINE
  8
0
  6
CONTINUOUS
 62
   249
 10
210.0
 20
160.0
 30
0.0
 11
212.5
 21
160.0
 31
0.0
  0
LINE
  8
0
  6
CONTINUOUS
 62
   249
 10
210.0
 20
170.0
 30
0.0
 11
212.5
 21
170.0
 31
0.0
  0
LINE
  8
0
  6
CONTINUOUS
 62
   249
 10
210.0
 20
180.0
 30
0.0
 11
212.5
 21
180.0
 31
0.0
  0
LINE
  8
0
  6
CONTINUOUS
 62
   249
 10
210.0
 20
190.0
 30
0.0
 11
212.5
 21
190.0
 31
0.0
  0
LINE
  8
0
  6
CONTINUOUS
 62
   249
 10
210.0
 20
200.0
 30
0.0
 11
212.5
 21
200.0
 31
0.0
  0
LINE
  8
0
  6
CONTINUOUS
 62
   249
 10
210.0
 20
210.0
 30
0.0
 11
212.5
 21
210.0
 31
0.0
  0
LINE
  8
0
  6
CONTINUOUS
 62
   249
 10
207.5
 20
170.0
 30
0.0
 11
208.5
 21
171.0
 31
0.0
  0
LINE
  8
0
  6
CONTINUOUS
 62
   249
 10
207.5
 20
145.0
 30
0.0
 11
208.5
 21
144.0
 31
0.0
  0
LINE
  8
0
  6
CONTINUOUS
 62
   249
 10
207.5
 20
170.0
 30
0.0
 11
207.5
 21
145.0
 31
0.0
  0
LINE
  8
0
  6
CONTINUOUS
 62
   249
 10
207.5
 20
180.0
 30
0.0
 11
208.5
 21
179.0
 31
0.0
  0
LINE
  8
0
  6
CONTINUOUS
 62
   249
 10
207.5
 20
210.0
 30
0.0
 11
208.5
 21
211.0
 31
0.0
  0
LINE
  8
0
  6
CONTINUOUS
 62
   249
 10
207.5
 20
210.0
 30
0.0
 11
207.5
 21
180.0
 31
0.0
  0
LINE
  8
0
 62
   249
 10
225.0
 20
165.0
 30
0.0
 11
219.2
 21
161.5
 31
0.0
  0
LINE
  8
0
 62
   249
 10
218.88095
 20
161.944425
 30
0.0
 11
219.560313
 21
161.008681
 31
0.0
  0
LINE
  8
0
 62
   249
 10
220.0
 20
160.0
 30
0.0
 11
220.0
 21
162.9
 31
0.0
  0
LINE
  8
0
 62
   249
 10
217.5
 20
160.0
 30
0.0
 11
220.0
 21
160.0
 31
0.0
  0
LINE
  8
0
 62
   249
 10
212.5
 20
160.0
 30
0.0
 11
217.5
 21
160.0
 31
0.0
  0
LINE
  8
0
 62
   249
 10
212.5
 20
180.0
 30
0.0
 11
217.5
 21
180.0
 31
0.0
  0
LINE
  8
0
 62
   249
 10
217.5
 20
180.0
 30
0.0
 11
220.0
 21
180.0
 31
0.0
  0
LINE
  8
0
 62
   249
 10
220.0
 20
180.0
 30
0.0
 11
220.0
 21
182.9
 31
0.0
  0
LINE
  8
0
 62
   249
 10
218.88095
 20
181.944425
 30
0.0
 11
219.560313
 21
181.008681
 31
0.0
  0
LINE
  8
0
 62
   249
 10
225.0
 20
185.0
 30
0.0
 11
219.2
 21
181.5
 31
0.0
  0
LINE
  8
0
 62
   249
 10
225.0
 20
205.0
 30
0.0
 11
219.2
 21
201.5
 31
0.0
  0
LINE
  8
0
 62
   249
 10
218.88095
 20
201.944425
 30
0.0
 11
219.560313
 21
201.008681
 31
0.0
  0
LINE
  8
0
 62
   249
 10
220.0
 20
200.0
 30
0.0
 11
220.0
 21
202.9
 31
0.0
  0
LINE
  8
0
 62
   249
 10
217.5
 20
200.0
 30
0.0
 11
220.0
 21
200.0
 31
0.0
  0
LINE
  8
0
 62
   249
 10
212.5
 20
200.0
 30
0.0
 11
217.5
 21
200.0
 31
0.0
  0
LINE
  8
0
  6
CONTINUOUS
 62
   249
 10
205.0
 20
165.0
 30
0.0
 11
197.950615
 21
165.0
 31
0.0
  0
LINE
  8
0
  6
CONTINUOUS
 62
   249
 10
207.5
 20
195.0
 30
0.0
 11
197.950615
 21
195.0
 31
0.0
  0
LINE
  8
0
  6
CONTINUOUS
 62
   249
 10
225.0
 20
215.0
 30
0.0
 11
230.0
 21
215.0
 31
0.0
  0
LINE
  8
0
  6
CONTINUOUS
 62
   249
 10
225.0
 20
205.0
 30
0.0
 11
230.0
 21
205.0
 31
0.0
  0
LINE
  8
0
  6
CONTINUOUS
 62
   249
 10
225.0
 20
195.0
 30
0.0
 11
230.0
 21
195.0
 31
0.0
  0
LINE
  8
0
  6
CONTINUOUS
 62
   249
 10
225.0
 20
185.0
 30
0.0
 11
230.0
 21
185.0
 31
0.0
  0
LINE
  8
0
  6
CONTINUOUS
 62
   249
 10
225.0
 20
175.0
 30
0.0
 11
230.0
 21
175.0
 31
0.0
  0
LINE
  8
0
  6
CONTINUOUS
 62
   249
 10
225.0
 20
165.0
 30
0.0
 11
230.0
 21
165.0
 31
0.0
  0
LINE
  8
0
  6
CONTINUOUS
 62
   249
 10
205.0
 20
165.0
 30
0.0
 11
205.0
 21
157.5
 31
0.0
  0
LINE
  8
0
  6
CONTINUOUS
 62
   249
 10
205.0
 20
157.5
 30
0.0
 11
207.5
 21
157.5
 31
0.0
  0
TEXT
  8
0
  6
CONTINUOUS
 62
   249
 10
223.140243
 20
141.838011
 30
0.0
 40
2.0
  1
12A
  7
ROMANS
  0
TEXT
  8
0
  6
CONTINUOUS
 62
   249
 10
223.140243
 20
151.557266
 30
0.0
 40
2.0
  1
11A
  7
ROMANS
  0
LINE
  8
0
  6
CONTINUOUS
 62
   249
 10
225.0
 20
145.0
 30
0.0
 11
230.0
 21
145.0
 31
0.0
  0
LINE
  8
0
  6
CONTINUOUS
 62
   249
 10
210.0
 20
144.982972
 30
0.0
 11
220.0
 21
144.982972
 31
0.0
  0
LINE
  8
0
  6
CONTINUOUS
 62
   249
 10
220.0
 20
144.982972
 30
0.0
 11
220.0
 21
147.765661
 31
0.0
  0
LINE
  8
0
  6
CONTINUOUS
 62
   249
 10
219.102827
 20
147.434804
 30
0.0
 11
218.657934
 21
146.549106
 31
0.0
  0
LINE
  8
0
  6
CONTINUOUS
 62
   249
 10
219.102827
 20
147.434804
 30
0.0
 11
225.0
 21
145.0
 31
0.0
  0
LINE
  8
0
  6
CONTINUOUS
 62
   249
 10
219.102827
 20
157.434804
 30
0.0
 11
225.0
 21
155.0
 31
0.0
  0
LINE
  8
0
  6
CONTINUOUS
 62
   249
 10
219.102827
 20
157.434804
 30
0.0
 11
218.657934
 21
156.549106
 31
0.0
  0
LINE
  8
0
  6
CONTINUOUS
 62
   249
 10
220.0
 20
154.982972
 30
0.0
 11
220.0
 21
157.765661
 31
0.0
  0
LINE
  8
0
  6
CONTINUOUS
 62
   249
 10
210.0
 20
154.982972
 30
0.0
 11
220.0
 21
154.982972
 31
0.0
  0
LINE
  8
0
  6
CONTINUOUS
 62
   249
 10
225.0
 20
155.0
 30
0.0
 11
230.0
 21
155.0
 31
0.0
  0
TEXT
  8
0
  6
CONTINUOUS
 62
   249
 10
42.682058
 20
110.711384
 30
0.0
 40
2.0
  1
101
  7
ROMANS
  0
TEXT
  8
0
  6
CONTINUOUS
 62
   249
 10
39.569638
 20
103.810075
 30
0.0
 40
2.0
  1
17A
  7
ROMANS
  0
TEXT
  8
0
  6
CONTINUOUS
 62
   249
 10
37.989486
 20
97.004136
 30
0.0
 40
2.0
  1
108:68
  7
ROMANS
  0
TEXT
  8
0
  6
CONTINUOUS
 62
   249
 10
37.774011
 20
89.435239
 30
0.0
 40
2.0
  1
108:80
  7
ROMANS
  0
TEXT
  8
0
  6
CONTINUOUS
 62
   249
 10
37.749481
 20
82.24857
 30
0.0
 40
2.0
  1
108:77
  7
ROMANS
  0
TEXT
  8
0
  6
CONTINUOUS
 62
   249
 10
44.628843
 20
79.572876
 30
0.0
 40
2.0
  1
101
  7
ROMANS
  0
TEXT
  8
0
  6
CONTINUOUS
 62
   249
 10
40.0
 20
75.0
 30
0.0
 40
2.0
  1
16A
  7
ROMANS
  0
TEXT
  8
0
  6
CONTINUOUS
 62
   249
 10
37.761451
 20
67.37862
 30
0.0
 40
2.0
  1
108:70
  7
ROMANS
  0
TEXT
  8
0
  6
CONTINUOUS
 62
   249
 10
37.761451
 20
62.37862
 30
0.0
 40
2.0
  1
108:71
  7
ROMANS
  0
TEXT
  8
0
  6
CONTINUOUS
 62
   249
 10
38.097223
 20
202.179735
 30
0.0
 40
2.0
  1
108:11
  7
ROMANS
  0
TEXT
  8
0
  6
CONTINUOUS
 62
   249
 10
225.644498
 20
191.645702
 30
0.0
 40
2.0
  1
7A
  7
ROMANS
  0
TEXT
  8
0
  6
CONTINUOUS
 62
   249
 10
225.297343
 20
181.215709
 30
0.0
 40
2.0
  1
8A
  7
ROMANS
  0
TEXT
  8
0
  6
CONTINUOUS
 62
   249
 10
225.0
 20
172.5
 30
0.0
 40
2.0
  1
9A
  7
ROMANS
  0
TEXT
  8
0
  6
CONTINUOUS
 62
   249
 10
223.16846
 20
161.416252
 30
0.0
 40
2.0
  1
10A
  7
ROMANS
  0
TEXT
  8
0
  6
CONTINUOUS
 62
   249
 10
225.333255
 20
201.815595
 30
0.0
 40
2.0
  1
4A
  7
ROMANS
  0
TEXT
  8
0
  6
CONTINUOUS
 62
   249
 10
143.979373
 20
58.19728
 30
0.0
 40
2.0
  1
108:72
 50
90.0
  7
ROMANS
  0
TEXT
  8
0
  6
CONTINUOUS
 62
   249
 10
149.150779
 20
58.09324
 30
0.0
 40
2.0
  1
108:75
 50
90.0
  7
ROMANS
  0
TEXT
  8
0
  6
CONTINUOUS
 62
   249
 10
152.921597
 20
58.26664
 30
0.0
 40
2.0
  1
101
 50
90.0
  7
ROMANS
  0
TEXT
  8
0
  6
CONTINUOUS
 62
   249
 10
160.45126
 20
58.36201
 30
0.0
 40
2.0
  1
13A
 50
90.0
  7
ROMANS
  0
TEXT
  8
0
  6
CONTINUOUS
 62
   249
 10
165.191716
 20
58.778169
 30
0.0
 40
2.0
  1
2A
 50
90.0
  7
ROMANS
  0
TEXT
  8
0
  6
CONTINUOUS
 62
   249
 10
170.099763
 20
58.500729
 30
0.0
 40
2.0
  1
1A
 50
90.0
  7
ROMANS
  0
TEXT
  8
0
  6
CONTINUOUS
 62
   249
 10
175.582412
 20
58.466049
 30
0.0
 40
2.0
  1
18A
 50
90.0
  7
ROMANS
  0
TEXT
  8
0
  6
CONTINUOUS
 62
   249
 10
190.641738
 20
58.22329
 30
0.0
 40
2.0
  1
108:61
 50
90.0
  7
ROMANS
  0
TEXT
  8
0
  6
CONTINUOUS
 62
   249
 10
196.363804
 20
58.18861
 30
0.0
 40
2.0
  1
108:62
 50
90.0
  7
ROMANS
  0
TEXT
  8
0
  6
CONTINUOUS
 62
   249
 10
208.538156
 20
58.14526
 30
0.0
 40
2.0
  1
108:63
 50
90.0
  7
ROMANS
  0
LINE
  8
0
  6
CONTINUOUS
 62
   249
 10
159.934804
 20
70.662841
 30
0.0
 11
159.049106
 21
71.107734
 31
0.0
  0
TEXT
  8
0
  6
CONTINUOUS
 62
   249
 10
317.5
 20
20.776108
 30
0.0
 40
2.0
  1
SPAA 121 C MED PROVDON
  7
ROMANS
  0
TEXT
  8
0
  6
CONTINUOUS
 62
   249
 10
51.313078
 20
5.752537
 30
0.0
 40
2.0
  1
ORDER OF SWITCHGROUP SGR3 IN CHANGED 1993-06-23  KM / RITU Power
  7
ROMANS
  0
TEXT
  8
0
  6
DASHED
 62
   249
 10
354.190282
 20
15.793111
 30
0.0
 40
1.4
  1
LEHTI SHEET
  7
STAND
  0
LINE
  8
PAKSU
 10
0.236802
 20
0.237701
 30
0.0
 11
0.236802
 21
262.737701
 31
0.0
  0
LINE
  8
0
 62
   249
 10
392.236802
 20
262.737701
 30
0.0
 11
392.236802
 21
0.237701
 31
0.0
  0
LINE
  8
0
 62
   249
 10
0.236802
 20
0.237701
 30
0.0
 11
392.236802
 21
0.237701
 31
0.0
  0
TEXT
  8
0
 62
   249
 10
42.236802
 20
5.587211
 30
0.0
 40
2.5
  1
C
  7
ROMANS
  0
TEXT
  8
0
 62
   249
 10
42.236802
 20
1.194994
 30
0.0
 40
2.5
  1
B
  7
ROMANS
  0
TEXT
  8
0
 62
   249
 10
257.406709
 20
1.741485
 30
0.0
 40
3.0
  1
Power
 41
0.8
  7
ROMANS
  0
TEXT
  8
0
 62
   249
 10
273.236802
 20
7.237701
 30
0.0
 40
1.4
  1
VAST.OSASTO RESP.DEPT.
  7
ROMANS
  0
TEXT
  8
0
 62
   249
 10
210.236802
 20
32.237701
 30
0.0
 40
1.4
  1
TEKI  PREPARED
  7
ROMANS
  0
LINE
  8
0
 62
   249
 10
271.236802
 20
9.737701
 30
0.0
 11
271.236802
 21
0.237701
 31
0.0
  0
LINE
  8
0
 62
   249
 10
257.236802
 20
9.737701
 30
0.0
 11
257.236802
 21
35.237701
 31
0.0
  0
LINE
  8
0
 62
   249
 10
40.736802
 20
4.737701
 30
0.0
 11
209.236802
 21
4.737701
 31
0.0
  0
LINE
  8
0
 62
   249
 10
46.736802
 20
0.237701
 30
0.0
 11
46.736802
 21
9.237701
 31
0.0
  0
LINE
  8
0
 62
   249
 10
46.736802
 20
9.237701
 30
0.0
 11
209.236802
 21
9.237701
 31
0.0
  0
TEXT
  8
0
 62
   249
 10
27.736802
 20
2.471035
 30
0.0
 40
1.4
  1
REVISION
  7
ROMANS
  0
TEXT
  8
0
 62
   249
 10
27.736802
 20
4.737701
 30
0.0
 40
1.4
  1
MUUTOS
  7
ROMANS
  0
LINE
  8
0
 62
   249
 10
282.236802
 20
9.737701
 30
0.0
 11
282.236802
 21
18.237701
 31
0.0
  0
TEXT
  8
0
 62
   249
 10
237.736802
 20
1.737701
 30
0.0
 40
3.0
  1
Strömberg
 41
0.8
  7
ROMANS
  0
TEXT
  8
0
 62
   249
 10
229.736802
 20
1.737701
 30
0.0
 40
3.0
  1
ABB 
 41
0.8
  7
ROMANS
  0
LINE
  8
0
 62
   249
 10
223.136802
 20
1.737701
 30
0.0
 11
223.136802
 21
5.097701
 31
0.0
  0
LINE
  8
0
 62
   249
 10
223.136802
 20
8.737701
 30
0.0
 11
225.096802
 21
8.737701
 31
0.0
  0
LINE
  8
0
 62
   249
 10
225.096802
 20
8.737701
 30
0.0
 11
225.096802
 21
5.377701
 31
0.0
  0
LINE
  8
0
 62
   249
 10
225.096802
 20
5.377701
 30
0.0
 11
223.136802
 21
5.377701
 31
0.0
  0
LINE
  8
0
 62
   249
 10
223.136802
 20
5.097701
 30
0.0
 11
225.096802
 21
5.097701
 31
0.0
  0
LINE
  8
0
 62
   249
 10
225.096802
 20
5.097701
 30
0.0
 11
225.096802
 21
1.737701
 31
0.0
  0
LINE
  8
0
 62
   249
 10
225.096802
 20
1.737701
 30
0.0
 11
223.136802
 21
1.737701
 31
0.0
  0
LINE
  8
0
 62
   249
 10
223.136802
 20
5.377701
 30
0.0
 11
223.136802
 21
8.737701
 31
0.0
  0
ARC
  8
0
 62
   249
 10
225.936802
 20
7.162701
 30
0.0
 40
1.575
 50
298.455859
 51
90.052437
  0
LINE
  8
0
 62
   249
 10
225.376802
 20
8.737701
 30
0.0
 11
225.935361
 21
8.737701
 31
0.0
  0
LINE
  8
0
 62
   249
 10
225.376802
 20
8.737701
 30
0.0
 11
225.376802
 21
5.377701
 31
0.0
  0
LINE
  8
0
 62
   249
 10
225.376802
 20
5.377701
 30
0.0
 11
227.361245
 21
5.377701
 31
0.0
  0
LINE
  8
0
 62
   249
 10
227.616802
 20
5.097701
 30
0.0
 11
225.376802
 21
5.097701
 31
0.0
  0
LINE
  8
0
 62
   249
 10
225.376802
 20
5.097701
 30
0.0
 11
225.376802
 21
1.737701
 31
0.0
  0
ARC
  8
0
 62
   249
 10
225.936802
 20
3.837701
 30
0.0
 40
2.1
 50
269.937724
 51
37.056553
  0
LINE
  8
0
 62
   249
 10
225.376802
 20
1.737701
 30
0.0
 11
225.93452
 21
1.737703
 31
0.0
  0
ARC
  8
0
 62
   249
 10
225.936802
 20
3.837701
 30
0.0
 40
2.1
 50
47.28622
 51
68.787999
  0
INSERT
  8
0
 62
   249
  2
*X17
 10
215.646802
 20
1.737701
 30
0.0
 41
0.7
 42
0.7
 43
0.7
  0
INSERT
  8
0
 62
   249
  2
*X18
 10
215.646802
 20
1.737701
 30
0.0
 41
0.7
 42
0.7
 43
0.7
  0
INSERT
  8
0
 62
   249
  2
*X19
 10
215.646802
 20
1.737701
 30
0.0
 41
0.7
 42
0.7
 43
0.7
  0
INSERT
  8
0
 62
   249
  2
*X20
 10
215.646802
 20
1.737701
 30
0.0
 41
0.7
 42
0.7
 43
0.7
  0
INSERT
  8
0
 62
   249
  2
*X20
 10
210.186802
 20
1.737701
 30
0.0
 41
0.7
 42
0.7
 43
0.7
  0
INSERT
  8
0
 62
   249
  2
*X19
 10
210.186802
 20
1.737701
 30
0.0
 41
0.7
 42
0.7
 43
0.7
  0
INSERT
  8
0
 62
   249
  2
*X18
 10
210.186802
 20
1.737701
 30
0.0
 41
0.7
 42
0.7
 43
0.7
  0
INSERT
  8
0
 62
   249
  2
*X17
 10
210.186802
 20
1.737701
 30
0.0
 41
0.7
 42
0.7
 43
0.7
  0
ARC
  8
0
 62
   249
 10
220.476802
 20
3.837701
 30
0.0
 40
2.1
 50
47.28622
 51
68.787999
  0
LINE
  8
0
 62
   249
 10
219.916802
 20
1.737701
 30
0.0
 11
220.47452
 21
1.737703
 31
0.0
  0
ARC
  8
0
 62
   249
 10
220.476802
 20
3.837701
 30
0.0
 40
2.1
 50
269.937724
 51
37.056553
  0
LINE
  8
0
 62
   249
 10
219.916802
 20
5.097701
 30
0.0
 11
219.916802
 21
1.737701
 31
0.0
  0
LINE
  8
0
 62
   249
 10
222.156802
 20
5.097701
 30
0.0
 11
219.916802
 21
5.097701
 31
0.0
  0
LINE
  8
0
 62
   249
 10
219.916802
 20
5.377701
 30
0.0
 11
221.901245
 21
5.377701
 31
0.0
  0
LINE
  8
0
 62
   249
 10
219.916802
 20
8.737701
 30
0.0
 11
219.916802
 21
5.377701
 31
0.0
  0
LINE
  8
0
 62
   249
 10
219.916802
 20
8.737701
 30
0.0
 11
220.475361
 21
8.737701
 31
0.0
  0
ARC
  8
0
 62
   249
 10
220.476802
 20
7.162701
 30
0.0
 40
1.575
 50
298.455859
 51
90.052437
  0
LINE
  8
0
 62
   249
 10
217.676802
 20
5.377701
 30
0.0
 11
217.676802
 21
8.737701
 31
0.0
  0
LINE
  8
0
 62
   249
 10
219.636802
 20
1.737701
 30
0.0
 11
217.676802
 21
1.737701
 31
0.0
  0
LINE
  8
0
 62
   249
 10
219.636802
 20
5.097701
 30
0.0
 11
219.636802
 21
1.737701
 31
0.0
  0
LINE
  8
0
 62
   249
 10
217.676802
 20
5.097701
 30
0.0
 11
219.636802
 21
5.097701
 31
0.0
  0
LINE
  8
0
 62
   249
 10
219.636802
 20
5.377701
 30
0.0
 11
217.676802
 21
5.377701
 31
0.0
  0
LINE
  8
0
 62
   249
 10
219.636802
 20
8.737701
 30
0.0
 11
219.636802
 21
5.377701
 31
0.0
  0
LINE
  8
0
 62
   249
 10
217.676802
 20
8.737701
 30
0.0
 11
219.636802
 21
8.737701
 31
0.0
  0
LINE
  8
0
 62
   249
 10
217.676802
 20
1.737701
 30
0.0
 11
217.676802
 21
5.097701
 31
0.0
  0
INSERT
  8
0
 62
   249
  2
*X16
 10
210.186802
 20
1.737701
 30
0.0
 41
0.7
 42
0.7
 43
0.7
  0
INSERT
  8
0
 62
   249
  2
*X15
 10
210.186802
 20
1.737701
 30
0.0
 41
0.7
 42
0.7
 43
0.7
  0
INSERT
  8
0
 62
   249
  2
*X14
 10
210.186802
 20
1.737701
 30
0.0
 41
0.7
 42
0.7
 43
0.7
  0
INSERT
  8
0
 62
   249
  2
*X13
 10
210.186802
 20
1.737701
 30
0.0
 41
0.7
 42
0.7
 43
0.7
  0
LINE
  8
0
 62
   249
 10
211.356691
 20
5.08024
 30
0.0
 11
210.186802
 21
1.737701
 31
0.0
  0
LINE
  8
0
 62
   249
 10
213.546802
 20
5.097701
 30
0.0
 11
213.546802
 21
3.137701
 31
0.0
  0
LINE
  8
0
 62
   249
 10
213.826802
 20
5.097701
 30
0.0
 11
213.826802
 21
3.137701
 31
0.0
  0
LINE
  8
0
 62
   249
 10
213.826802
 20
5.097701
 30
0.0
 11
216.010059
 21
5.097701
 31
0.0
  0
LINE
  8
0
 62
   249
 10
213.826802
 20
5.377701
 30
0.0
 11
215.911916
 21
5.377701
 31
0.0
  0
LINE
  8
0
 62
   249
 10
216.011294
 20
5.096296
 30
0.0
 11
217.186802
 21
1.737701
 31
0.0
  0
LINE
  8
0
 62
   249
 10
211.359785
 20
5.097701
 30
0.0
 11
213.546802
 21
5.097701
 31
0.0
  0
LINE
  8
0
 62
   249
 10
211.458743
 20
5.377701
 30
0.0
 11
213.546802
 21
5.377701
 31
0.0
  0
LINE
  8
0
 62
   249
 10
213.546802
 20
8.737701
 30
0.0
 11
212.636802
 21
8.737701
 31
0.0
  0
LINE
  8
0
 62
   249
 10
213.826802
 20
3.137701
 30
0.0
 11
214.946696
 21
3.137701
 31
0.0
  0
LINE
  8
0
 62
   249
 10
213.826802
 20
8.737701
 30
0.0
 11
213.826802
 21
5.377701
 31
0.0
  0
LINE
  8
0
 62
   249
 10
213.546802
 20
8.737701
 30
0.0
 11
213.546802
 21
5.377701
 31
0.0
  0
LINE
  8
0
 62
   249
 10
214.736802
 20
8.737701
 30
0.0
 11
213.826802
 21
8.737701
 31
0.0
  0
LINE
  8
0
 62
   249
 10
214.9479
 20
3.134565
 30
0.0
 11
215.436802
 21
1.737701
 31
0.0
  0
LINE
  8
0
 62
   249
 10
214.736802
 20
8.737701
 30
0.0
 11
215.913155
 21
5.376693
 31
0.0
  0
LINE
  8
0
 62
   249
 10
212.425592
 20
3.134244
 30
0.0
 11
211.936802
 21
1.737701
 31
0.0
  0
LINE
  8
0
 62
   249
 10
212.425589
 20
3.137701
 30
0.0
 11
213.546802
 21
3.137701
 31
0.0
  0
LINE
  8
0
 62
   249
 10
212.636802
 20
8.737701
 30
0.0
 11
211.459274
 21
5.373336
 31
0.0
  0
LINE
  8
0
 62
   249
 10
215.436802
 20
1.737701
 30
0.0
 11
217.186802
 21
1.737701
 31
0.0
  0
LINE
  8
0
 62
   249
 10
210.186802
 20
1.737701
 30
0.0
 11
211.936802
 21
1.737701
 31
0.0
  0
LINE
  8
0
 62
   249
 10
369.736802
 20
9.737701
 30
0.0
 11
369.736802
 21
0.237701
 31
0.0
  0
TEXT
  8
0
 62
   249
 10
371.236802
 20
7.237701
 30
0.0
 40
1.4
  1
PAINOS  REVISION
  7
ROMANS
  0
LINE
  8
0
 62
   249
 10
349.736802
 20
9.737701
 30
0.0
 11
349.736802
 21
18.237701
 31
0.0
  0
TEXT
  8
0
 62
   249
 10
309.236802
 20
7.237701
 30
0.0
 40
1.4
  1
PIIRUSTUS NO  DRAWING NR
  7
ROMANS
  0
TEXT
  8
0
 62
   249
 10
309.236802
 20
15.737701
 30
0.0
 40
1.4
  1
KOODI  CODE
  7
ROMANS
  0
TEXT
  8
0
 62
   249
 10
309.236802
 20
32.737701
 30
0.0
 40
1.4
  1
NIMITYS  NAME
  7
ROMANS
  0
TEXT
  8
0
 62
   249
 10
259.236802
 20
15.737701
 30
0.0
 40
1.4
  1
SUHDE  SCALE
  7
ROMANS
  0
TEXT
  8
0
 62
   249
 10
259.236802
 20
23.737701
 30
0.0
 40
1.4
  1
TOLERANSSIT  TOLERANCES
  7
ROMANS
  0
TEXT
  8
0
 62
   249
 10
259.236802
 20
32.737701
 30
0.0
 40
1.4
  1
LIITTYY  CONCERNING
  7
ROMANS
  0
LINE
  8
0
 62
   249
 10
307.236802
 20
0.237701
 30
0.0
 11
307.236802
 21
35.237701
 31
0.0
  0
TEXT
  8
0
 62
   249
 10
209.979637
 20
15.704368
 30
0.0
 40
1.4
  1
HYVÄKSYI  APPROVED
  7
ROMANS
  0
TEXT
  8
0
 62
   249
 10
210.236802
 20
23.971035
 30
0.0
 40
1.4
  1
TARKASTI  CHECKED
  7
ROMANS
  0
LINE
  8
0
 62
   249
 10
209.236802
 20
35.237701
 30
0.0
 11
392.236802
 21
35.237701
 31
0.0
  0
LINE
  8
0
 62
   249
 10
209.236802
 20
26.737701
 30
0.0
 11
307.236802
 21
26.737701
 31
0.0
  0
LINE
  8
0
 62
   249
 10
209.236802
 20
9.737701
 30
0.0
 11
392.236802
 21
9.737701
 31
0.0
  0
LINE
  8
0
 62
   249
 10
209.236802
 20
18.237701
 30
0.0
 11
392.236802
 21
18.237701
 31
0.0
  0
LINE
  8
0
 62
   249
 10
392.236802
 20
0.237701
 30
0.0
 11
392.236802
 21
35.237701
 31
0.0
  0
LINE
  8
0
 62
   249
 10
209.236802
 20
0.237701
 30
0.0
 11
209.236802
 21
35.237701
 31
0.0
  0
LINE
  8
0
 62
   249
 10
209.236802
 20
0.237701
 30
0.0
 11
392.236802
 21
0.237701
 31
0.0
  0
LINE
  8
0
 62
   249
 10
18.236802
 20
0.237701
 30
0.0
 11
0.236802
 21
0.237701
 31
0.0
  0
LINE
  8
0
 62
   249
 10
0.236802
 20
262.737701
 30
0.0
 11
392.236802
 21
262.737701
 31
0.0
  0
TEXT
  8
0
  6
DASHED
 62
   249
 10
292.216898
 20
11.813061
 30
0.0
 40
3.0
  1
A3
  7
GREEKS
  0
TEXT
  8
0
  6
CONTINUOUS
 62
   249
 10
149.353328
 20
44.013635
 30
0.0
 40
2.0
  1
+
  0
TEXT
  8
0
  6
CONTINUOUS
 62
   249
 10
144.353328
 20
44.013635
 30
0.0
 40
2.0
  1
+
  0
TEXT
  8
0
  6
CONTINUOUS
 62
   249
 10
156.853328
 20
44.013635
 30
0.0
 40
2.0
  1
+
  0
TEXT
  8
0
  6
CONTINUOUS
 62
   249
 10
161.853328
 20
44.013635
 30
0.0
 40
2.0
  1
+
  0
TEXT
  8
0
  6
CONTINUOUS
 62
   249
 10
171.844763
 20
44.00558
 30
0.0
 40
2.0
  1
-
  0
TEXT
  8
0
  6
CONTINUOUS
 62
   249
 10
166.853328
 20
44.013635
 30
0.0
 40
2.0
  1
+
  0
LINE
  8
0
 62
   249
 10
188.137404
 20
43.283527
 30
0.0
 11
192.137404
 21
43.283527
 31
0.0
  0
INSERT
  8
0
 62
   249
  2
WKU130
 10
188.477354
 20
41.557974
 30
0.0
 41
0.8
 42
0.8
 43
0.8
  0
TEXT
  8
0
  6
CONTINUOUS
 62
   249
 10
186.853328
 20
44.013635
 30
0.0
 40
2.0
  1
+
  0
TEXT
  8
0
  6
CONTINUOUS
 62
   249
 10
191.844763
 20
44.00558
 30
0.0
 40
2.0
  1
-
  0
ARC
  8
0
  6
CONTINUOUS
 62
   249
 10
162.5
 20
92.5
 30
0.0
 40
0.5
 50
180.0
 51
0.0
  0
ARC
  8
0
  6
CONTINUOUS
 62
   249
 10
162.5
 20
92.5
 30
0.0
 40
0.5
 50
0.0
 51
180.0
  0
LINE
  8
0
  6
CONTINUOUS
 62
   249
 10
158.835331
 20
128.832288
 30
0.0
 11
157.499977
 21
126.486522
 31
0.0
  0
LINE
  8
0
  6
CONTINUOUS
 62
   249
 10
157.499977
 20
126.486522
 30
0.0
 11
156.310058
 21
128.832288
 31
0.0
  0
3DFACE
  8
0
  6
CONTINUOUS
 62
   249
 10
61.206597
 20
140.0
 30
0.0
 11
61.219531
 21
139.991019
 31
0.0
 12
61.219531
 22
140.009068
 32
0.0
 13
61.206597
 23
140.0
 33
0.0
  0
3DFACE
  8
0
  6
CONTINUOUS
 62
   249
 10
61.219531
 20
139.991019
 30
0.0
 11
61.232465
 21
139.982038
 31
0.0
 12
61.232465
 22
140.018136
 32
0.0
 13
61.219531
 23
140.009068
 33
0.0
  0
3DFACE
  8
0
  6
CONTINUOUS
 62
   249
 10
61.232465
 20
139.982038
 30
0.0
 11
61.245399
 21
139.973057
 31
0.0
 12
61.245399
 22
140.027203
 32
0.0
 13
61.232465
 23
140.018136
 33
0.0
  0
3DFACE
  8
0
  6
CONTINUOUS
 62
   249
 10
61.245399
 20
139.973057
 30
0.0
 11
61.258333
 21
139.964077
 31
0.0
 12
61.258333
 22
140.036271
 32
0.0
 13
61.245399
 23
140.027203
 33
0.0
  0
3DFACE
  8
0
  6
CONTINUOUS
 62
   249
 10
61.258333
 20
139.964077
 30
0.0
 11
61.271267
 21
139.955096
 31
0.0
 12
61.271267
 22
140.045339
 32
0.0
 13
61.258333
 23
140.036271
 33
0.0
  0
3DFACE
  8
0
  6
CONTINUOUS
 62
   249
 10
61.271267
 20
139.955096
 30
0.0
 11
61.284202
 21
139.946115
 31
0.0
 12
61.284202
 22
140.054406
 32
0.0
 13
61.271267
 23
140.045339
 33
0.0
  0
3DFACE
  8
0
  6
CONTINUOUS
 62
   249
 10
61.284202
 20
139.946115
 30
0.0
 11
61.297136
 21
139.937134
 31
0.0
 12
61.297136
 22
140.063474
 32
0.0
 13
61.284202
 23
140.054406
 33
0.0
  0
3DFACE
  8
0
  6
CONTINUOUS
 62
   249
 10
61.297136
 20
139.937134
 30
0.0
 11
61.31007
 21
139.928153
 31
0.0
 12
61.31007
 22
140.072542
 32
0.0
 13
61.297136
 23
140.063474
 33
0.0
  0
3DFACE
  8
0
  6
CONTINUOUS
 62
   249
 10
61.31007
 20
139.928153
 30
0.0
 11
61.323004
 21
139.919172
 31
0.0
 12
61.323004
 22
140.081609
 32
0.0
 13
61.31007
 23
140.072542
 33
0.0
  0
3DFACE
  8
0
  6
CONTINUOUS
 62
   249
 10
61.323004
 20
139.919172
 30
0.0
 11
61.335938
 21
139.910191
 31
0.0
 12
61.335938
 22
140.090677
 32
0.0
 13
61.323004
 23
140.081609
 33
0.0
  0
3DFACE
  8
0
  6
CONTINUOUS
 62
   249
 10
61.335938
 20
139.910191
 30
0.0
 11
61.348872
 21
139.90121
 31
0.0
 12
61.348872
 22
140.099745
 32
0.0
 13
61.335938
 23
140.090677
 33
0.0
  0
3DFACE
  8
0
  6
CONTINUOUS
 62
   249
 10
61.348872
 20
139.90121
 30
0.0
 11
61.361806
 21
139.89223
 31
0.0
 12
61.361806
 22
140.108812
 32
0.0
 13
61.348872
 23
140.099745
 33
0.0
  0
3DFACE
  8
0
  6
CONTINUOUS
 62
   249
 10
61.361806
 20
139.89223
 30
0.0
 11
61.37474
 21
139.883249
 31
0.0
 12
61.37474
 22
140.11788
 32
0.0
 13
61.361806
 23
140.108812
 33
0.0
  0
3DFACE
  8
0
  6
CONTINUOUS
 62
   249
 10
61.37474
 20
139.883249
 30
0.0
 11
61.387674
 21
139.874268
 31
0.0
 12
61.387674
 22
140.126948
 32
0.0
 13
61.37474
 23
140.11788
 33
0.0
  0
3DFACE
  8
0
  6
CONTINUOUS
 62
   249
 10
61.387674
 20
139.874268
 30
0.0
 11
61.400608
 21
139.865287
 31
0.0
 12
61.400608
 22
140.136015
 32
0.0
 13
61.387674
 23
140.126948
 33
0.0
  0
3DFACE
  8
0
  6
CONTINUOUS
 62
   249
 10
61.400608
 20
139.865287
 30
0.0
 11
61.413542
 21
139.856306
 31
0.0
 12
61.413542
 22
140.145083
 32
0.0
 13
61.400608
 23
140.136015
 33
0.0
  0
3DFACE
  8
0
  6
CONTINUOUS
 62
   249
 10
61.413542
 20
139.856306
 30
0.0
 11
61.426476
 21
139.847325
 31
0.0
 12
61.426476
 22
140.154151
 32
0.0
 13
61.413542
 23
140.145083
 33
0.0
  0
3DFACE
  8
0
  6
CONTINUOUS
 62
   249
 10
61.426476
 20
139.847325
 30
0.0
 11
61.43941
 21
139.838344
 31
0.0
 12
61.43941
 22
140.163219
 32
0.0
 13
61.426476
 23
140.154151
 33
0.0
  0
3DFACE
  8
0
  6
CONTINUOUS
 62
   249
 10
61.43941
 20
139.838344
 30
0.0
 11
61.452344
 21
139.829363
 31
0.0
 12
61.452344
 22
140.172286
 32
0.0
 13
61.43941
 23
140.163219
 33
0.0
  0
3DFACE
  8
0
  6
CONTINUOUS
 62
   249
 10
61.452344
 20
139.829363
 30
0.0
 11
61.465278
 21
139.820383
 31
0.0
 12
61.465278
 22
140.181354
 32
0.0
 13
61.452344
 23
140.172286
 33
0.0
  0
3DFACE
  8
0
  6
CONTINUOUS
 62
   249
 10
61.465278
 20
139.820383
 30
0.0
 11
61.478212
 21
139.811402
 31
0.0
 12
61.478212
 22
140.190422
 32
0.0
 13
61.465278
 23
140.181354
 33
0.0
  0
3DFACE
  8
0
  6
CONTINUOUS
 62
   249
 10
61.478212
 20
139.811402
 30
0.0
 11
61.491146
 21
139.802421
 31
0.0
 12
61.491146
 22
140.199489
 32
0.0
 13
61.478212
 23
140.190422
 33
0.0
  0
3DFACE
  8
0
  6
CONTINUOUS
 62
   249
 10
61.491146
 20
139.802421
 30
0.0
 11
61.50408
 21
139.79344
 31
0.0
 12
61.50408
 22
140.208557
 32
0.0
 13
61.491146
 23
140.199489
 33
0.0
  0
3DFACE
  8
0
  6
CONTINUOUS
 62
   249
 10
61.50408
 20
139.79344
 30
0.0
 11
61.517014
 21
139.784459
 31
0.0
 12
61.517014
 22
140.217625
 32
0.0
 13
61.50408
 23
140.208557
 33
0.0
  0
3DFACE
  8
0
  6
CONTINUOUS
 62
   249
 10
61.517014
 20
139.784459
 30
0.0
 11
61.529948
 21
139.775478
 31
0.0
 12
61.529948
 22
140.226692
 32
0.0
 13
61.517014
 23
140.217625
 33
0.0
  0
3DFACE
  8
0
  6
CONTINUOUS
 62
   249
 10
61.529948
 20
139.775478
 30
0.0
 11
61.542882
 21
139.766497
 31
0.0
 12
61.542882
 22
140.23576
 32
0.0
 13
61.529948
 23
140.226692
 33
0.0
  0
3DFACE
  8
0
  6
CONTINUOUS
 62
   249
 10
61.542882
 20
139.766497
 30
0.0
 11
61.555816
 21
139.757516
 31
0.0
 12
61.555816
 22
140.244828
 32
0.0
 13
61.542882
 23
140.23576
 33
0.0
  0
3DFACE
  8
0
  6
CONTINUOUS
 62
   249
 10
61.555816
 20
139.757516
 30
0.0
 11
61.56875
 21
139.748536
 31
0.0
 12
61.56875
 22
140.253895
 32
0.0
 13
61.555816
 23
140.244828
 33
0.0
  0
3DFACE
  8
0
  6
CONTINUOUS
 62
   249
 10
61.56875
 20
139.748536
 30
0.0
 11
61.581684
 21
139.739555
 31
0.0
 12
61.581684
 22
140.262963
 32
0.0
 13
61.56875
 23
140.253895
 33
0.0
  0
3DFACE
  8
0
  6
CONTINUOUS
 62
   249
 10
61.581684
 20
139.739555
 30
0.0
 11
61.594618
 21
139.730574
 31
0.0
 12
61.594618
 22
140.272031
 32
0.0
 13
61.581684
 23
140.262963
 33
0.0
  0
3DFACE
  8
0
  6
CONTINUOUS
 62
   249
 10
61.594618
 20
139.730574
 30
0.0
 11
61.607552
 21
139.721593
 31
0.0
 12
61.607552
 22
140.281098
 32
0.0
 13
61.594618
 23
140.272031
 33
0.0
  0
3DFACE
  8
0
  6
CONTINUOUS
 62
   249
 10
61.607552
 20
139.721593
 30
0.0
 11
61.620486
 21
139.712612
 31
0.0
 12
61.620486
 22
140.290166
 32
0.0
 13
61.607552
 23
140.281098
 33
0.0
  0
3DFACE
  8
0
  6
CONTINUOUS
 62
   249
 10
61.620486
 20
139.712612
 30
0.0
 11
61.63342
 21
139.703631
 31
0.0
 12
61.63342
 22
140.299234
 32
0.0
 13
61.620486
 23
140.290166
 33
0.0
  0
3DFACE
  8
0
  6
CONTINUOUS
 62
   249
 10
61.63342
 20
139.703631
 30
0.0
 11
61.646354
 21
139.69465
 31
0.0
 12
61.646354
 22
140.308301
 32
0.0
 13
61.63342
 23
140.299234
 33
0.0
  0
3DFACE
  8
0
  6
CONTINUOUS
 62
   249
 10
61.646354
 20
139.69465
 30
0.0
 11
61.659288
 21
139.685669
 31
0.0
 12
61.659288
 22
140.317369
 32
0.0
 13
61.646354
 23
140.308301
 33
0.0
  0
3DFACE
  8
0
  6
CONTINUOUS
 62
   249
 10
61.659288
 20
139.685669
 30
0.0
 11
61.672222
 21
139.676689
 31
0.0
 12
61.672222
 22
140.326437
 32
0.0
 13
61.659288
 23
140.317369
 33
0.0
  0
3DFACE
  8
0
  6
CONTINUOUS
 62
   249
 10
61.672222
 20
139.676689
 30
0.0
 11
61.685156
 21
139.667708
 31
0.0
 12
61.685156
 22
140.335505
 32
0.0
 13
61.672222
 23
140.326437
 33
0.0
  0
3DFACE
  8
0
  6
CONTINUOUS
 62
   249
 10
61.685156
 20
139.667708
 30
0.0
 11
61.69809
 21
139.658727
 31
0.0
 12
61.69809
 22
140.344572
 32
0.0
 13
61.685156
 23
140.335505
 33
0.0
  0
3DFACE
  8
0
  6
CONTINUOUS
 62
   249
 10
61.69809
 20
139.658727
 30
0.0
 11
61.711024
 21
139.649746
 31
0.0
 12
61.711024
 22
140.35364
 32
0.0
 13
61.69809
 23
140.344572
 33
0.0
  0
3DFACE
  8
0
  6
CONTINUOUS
 62
   249
 10
61.711024
 20
139.649746
 30
0.0
 11
61.723958
 21
139.640765
 31
0.0
 12
61.723958
 22
140.362708
 32
0.0
 13
61.711024
 23
140.35364
 33
0.0
  0
3DFACE
  8
0
  6
CONTINUOUS
 62
   249
 10
61.723958
 20
139.640765
 30
0.0
 11
61.736892
 21
139.631784
 31
0.0
 12
61.736892
 22
140.371775
 32
0.0
 13
61.723958
 23
140.362708
 33
0.0
  0
3DFACE
  8
0
  6
CONTINUOUS
 62
   249
 10
61.736892
 20
139.631784
 30
0.0
 11
61.749826
 21
139.622803
 31
0.0
 12
61.749826
 22
140.380843
 32
0.0
 13
61.736892
 23
140.371775
 33
0.0
  0
3DFACE
  8
0
  6
CONTINUOUS
 62
   249
 10
61.749826
 20
139.622803
 30
0.0
 11
61.76276
 21
139.613822
 31
0.0
 12
61.76276
 22
140.389911
 32
0.0
 13
61.749826
 23
140.380843
 33
0.0
  0
3DFACE
  8
0
  6
CONTINUOUS
 62
   249
 10
61.76276
 20
139.613822
 30
0.0
 11
61.775695
 21
139.604842
 31
0.0
 12
61.775695
 22
140.398978
 32
0.0
 13
61.76276
 23
140.389911
 33
0.0
  0
3DFACE
  8
0
  6
CONTINUOUS
 62
   249
 10
61.775695
 20
139.604842
 30
0.0
 11
61.788629
 21
139.595861
 31
0.0
 12
61.788629
 22
140.408046
 32
0.0
 13
61.775695
 23
140.398978
 33
0.0
  0
3DFACE
  8
0
  6
CONTINUOUS
 62
   249
 10
61.788629
 20
139.595861
 30
0.0
 11
61.801563
 21
139.58688
 31
0.0
 12
61.801563
 22
140.417114
 32
0.0
 13
61.788629
 23
140.408046
 33
0.0
  0
3DFACE
  8
0
  6
CONTINUOUS
 62
   249
 10
61.801563
 20
139.58688
 30
0.0
 11
61.814497
 21
139.577899
 31
0.0
 12
61.814497
 22
140.426181
 32
0.0
 13
61.801563
 23
140.417114
 33
0.0
  0
3DFACE
  8
0
  6
CONTINUOUS
 62
   249
 10
61.814497
 20
139.577899
 30
0.0
 11
61.827431
 21
139.568918
 31
0.0
 12
61.827431
 22
140.435249
 32
0.0
 13
61.814497
 23
140.426181
 33
0.0
  0
3DFACE
  8
0
  6
CONTINUOUS
 62
   249
 10
61.827431
 20
139.568918
 30
0.0
 11
61.840365
 21
139.559937
 31
0.0
 12
61.840365
 22
140.444317
 32
0.0
 13
61.827431
 23
140.435249
 33
0.0
  0
3DFACE
  8
0
  6
CONTINUOUS
 62
   249
 10
61.840365
 20
139.559937
 30
0.0
 11
61.853299
 21
139.550956
 31
0.0
 12
61.853299
 22
140.453384
 32
0.0
 13
61.840365
 23
140.444317
 33
0.0
  0
3DFACE
  8
0
  6
CONTINUOUS
 62
   249
 10
61.853299
 20
139.550956
 30
0.0
 11
61.866233
 21
139.541975
 31
0.0
 12
61.866233
 22
140.462452
 32
0.0
 13
61.853299
 23
140.453384
 33
0.0
  0
3DFACE
  8
0
  6
CONTINUOUS
 62
   249
 10
61.866233
 20
139.541975
 30
0.0
 11
61.879167
 21
139.532995
 31
0.0
 12
61.879167
 22
140.47152
 32
0.0
 13
61.866233
 23
140.462452
 33
0.0
  0
3DFACE
  8
0
  6
CONTINUOUS
 62
   249
 10
61.879167
 20
139.532995
 30
0.0
 11
61.892101
 21
139.524014
 31
0.0
 12
61.892101
 22
140.480588
 32
0.0
 13
61.879167
 23
140.47152
 33
0.0
  0
3DFACE
  8
0
  6
CONTINUOUS
 62
   249
 10
61.892101
 20
139.524014
 30
0.0
 11
61.905035
 21
139.515033
 31
0.0
 12
61.905035
 22
140.489655
 32
0.0
 13
61.892101
 23
140.480588
 33
0.0
  0
3DFACE
  8
0
  6
CONTINUOUS
 62
   249
 10
61.905035
 20
139.515033
 30
0.0
 11
61.917969
 21
139.506052
 31
0.0
 12
61.917969
 22
140.498723
 32
0.0
 13
61.905035
 23
140.489655
 33
0.0
  0
3DFACE
  8
0
  6
CONTINUOUS
 62
   249
 10
61.917969
 20
139.506052
 30
0.0
 11
61.930903
 21
139.497071
 31
0.0
 12
61.930903
 22
140.507791
 32
0.0
 13
61.917969
 23
140.498723
 33
0.0
  0
3DFACE
  8
0
  6
CONTINUOUS
 62
   249
 10
61.930903
 20
139.497071
 30
0.0
 11
61.943837
 21
139.48809
 31
0.0
 12
61.943837
 22
140.516858
 32
0.0
 13
61.930903
 23
140.507791
 33
0.0
  0
3DFACE
  8
0
  6
CONTINUOUS
 62
   249
 10
61.943837
 20
139.48809
 30
0.0
 11
61.956771
 21
139.479109
 31
0.0
 12
61.956771
 22
140.525926
 32
0.0
 13
61.943837
 23
140.516858
 33
0.0
  0
3DFACE
  8
0
  6
CONTINUOUS
 62
   249
 10
61.956771
 20
139.479109
 30
0.0
 11
61.969705
 21
139.470128
 31
0.0
 12
61.969705
 22
140.534994
 32
0.0
 13
61.956771
 23
140.525926
 33
0.0
  0
3DFACE
  8
0
  6
CONTINUOUS
 62
   249
 10
61.969705
 20
139.470128
 30
0.0
 11
61.982639
 21
139.461147
 31
0.0
 12
61.982639
 22
140.544061
 32
0.0
 13
61.969705
 23
140.534994
 33
0.0
  0
3DFACE
  8
0
  6
CONTINUOUS
 62
   249
 10
61.982639
 20
139.461147
 30
0.0
 11
61.995573
 21
139.452167
 31
0.0
 12
61.995573
 22
140.553129
 32
0.0
 13
61.982639
 23
140.544061
 33
0.0
  0
3DFACE
  8
0
  6
CONTINUOUS
 62
   249
 10
61.995573
 20
139.452167
 30
0.0
 11
62.008507
 21
139.443186
 31
0.0
 12
62.008507
 22
140.562197
 32
0.0
 13
61.995573
 23
140.553129
 33
0.0
  0
3DFACE
  8
0
  6
CONTINUOUS
 62
   249
 10
62.008507
 20
139.443186
 30
0.0
 11
62.021441
 21
139.434205
 31
0.0
 12
62.021441
 22
140.571264
 32
0.0
 13
62.008507
 23
140.562197
 33
0.0
  0
3DFACE
  8
0
  6
CONTINUOUS
 62
   249
 10
62.021441
 20
139.434205
 30
0.0
 11
62.034375
 21
139.425224
 31
0.0
 12
62.034375
 22
140.580332
 32
0.0
 13
62.021441
 23
140.571264
 33
0.0
  0
3DFACE
  8
0
  6
CONTINUOUS
 62
   249
 10
62.034375
 20
139.425224
 30
0.0
 11
62.047309
 21
139.416243
 31
0.0
 12
62.047309
 22
140.5894
 32
0.0
 13
62.034375
 23
140.580332
 33
0.0
  0
3DFACE
  8
0
  6
CONTINUOUS
 62
   249
 10
62.047309
 20
139.416243
 30
0.0
 11
62.060243
 21
139.407262
 31
0.0
 12
62.060243
 22
140.598467
 32
0.0
 13
62.047309
 23
140.5894
 33
0.0
  0
3DFACE
  8
0
  6
CONTINUOUS
 62
   249
 10
62.060243
 20
139.407262
 30
0.0
 11
62.073177
 21
139.398281
 31
0.0
 12
62.073177
 22
140.607535
 32
0.0
 13
62.060243
 23
140.598467
 33
0.0
  0
3DFACE
  8
0
  6
CONTINUOUS
 62
   249
 10
62.073177
 20
139.398281
 30
0.0
 11
62.086111
 21
139.3893
 31
0.0
 12
62.086111
 22
140.616603
 32
0.0
 13
62.073177
 23
140.607535
 33
0.0
  0
3DFACE
  8
0
  6
CONTINUOUS
 62
   249
 10
62.086111
 20
139.3893
 30
0.0
 11
62.099045
 21
139.38032
 31
0.0
 12
62.099045
 22
140.625671
 32
0.0
 13
62.086111
 23
140.616603
 33
0.0
  0
3DFACE
  8
0
  6
CONTINUOUS
 62
   249
 10
62.099045
 20
139.38032
 30
0.0
 11
62.111979
 21
139.371339
 31
0.0
 12
62.111979
 22
140.634738
 32
0.0
 13
62.099045
 23
140.625671
 33
0.0
  0
3DFACE
  8
0
  6
CONTINUOUS
 62
   249
 10
62.111979
 20
139.371339
 30
0.0
 11
62.124913
 21
139.362358
 31
0.0
 12
62.124913
 22
140.643806
 32
0.0
 13
62.111979
 23
140.634738
 33
0.0
  0
3DFACE
  8
0
  6
CONTINUOUS
 62
   249
 10
62.124913
 20
139.362358
 30
0.0
 11
62.137847
 21
139.353377
 31
0.0
 12
62.137847
 22
140.652874
 32
0.0
 13
62.124913
 23
140.643806
 33
0.0
  0
3DFACE
  8
0
  6
CONTINUOUS
 62
   249
 10
62.137847
 20
139.353377
 30
0.0
 11
62.150781
 21
139.344396
 31
0.0
 12
62.150781
 22
140.661941
 32
0.0
 13
62.137847
 23
140.652874
 33
0.0
  0
3DFACE
  8
0
  6
CONTINUOUS
 62
   249
 10
62.150781
 20
139.344396
 30
0.0
 11
62.163715
 21
139.335415
 31
0.0
 12
62.163715
 22
140.671009
 32
0.0
 13
62.150781
 23
140.661941
 33
0.0
  0
3DFACE
  8
0
  6
CONTINUOUS
 62
   249
 10
62.163715
 20
139.335415
 30
0.0
 11
62.176649
 21
139.326434
 31
0.0
 12
62.176649
 22
140.680077
 32
0.0
 13
62.163715
 23
140.671009
 33
0.0
  0
3DFACE
  8
0
  6
CONTINUOUS
 62
   249
 10
62.176649
 20
139.326434
 30
0.0
 11
62.189583
 21
139.317453
 31
0.0
 12
62.189583
 22
140.689144
 32
0.0
 13
62.176649
 23
140.680077
 33
0.0
  0
3DFACE
  8
0
  6
CONTINUOUS
 62
   249
 10
62.189583
 20
139.317453
 30
0.0
 11
62.202517
 21
139.308473
 31
0.0
 12
62.202517
 22
140.698212
 32
0.0
 13
62.189583
 23
140.689144
 33
0.0
  0
3DFACE
  8
0
  6
CONTINUOUS
 62
   249
 10
62.202517
 20
139.308473
 30
0.0
 11
62.215451
 21
139.299492
 31
0.0
 12
62.215451
 22
140.70728
 32
0.0
 13
62.202517
 23
140.698212
 33
0.0
  0
3DFACE
  8
0
  6
CONTINUOUS
 62
   249
 10
62.215451
 20
139.299492
 30
0.0
 11
62.228385
 21
139.290511
 31
0.0
 12
62.228385
 22
140.716347
 32
0.0
 13
62.215451
 23
140.70728
 33
0.0
  0
3DFACE
  8
0
  6
CONTINUOUS
 62
   249
 10
62.228385
 20
139.290511
 30
0.0
 11
62.241319
 21
139.28153
 31
0.0
 12
62.241319
 22
140.725415
 32
0.0
 13
62.228385
 23
140.716347
 33
0.0
  0
3DFACE
  8
0
  6
CONTINUOUS
 62
   249
 10
62.241319
 20
139.28153
 30
0.0
 11
62.254253
 21
139.272549
 31
0.0
 12
62.254253
 22
140.734483
 32
0.0
 13
62.241319
 23
140.725415
 33
0.0
  0
3DFACE
  8
0
  6
CONTINUOUS
 62
   249
 10
62.254253
 20
139.272549
 30
0.0
 11
62.267188
 21
139.263568
 31
0.0
 12
62.267188
 22
140.74355
 32
0.0
 13
62.254253
 23
140.734483
 33
0.0
  0
3DFACE
  8
0
  6
CONTINUOUS
 62
   249
 10
62.267188
 20
139.263568
 30
0.0
 11
62.280122
 21
139.254587
 31
0.0
 12
62.280122
 22
140.752618
 32
0.0
 13
62.267188
 23
140.74355
 33
0.0
  0
3DFACE
  8
0
  6
CONTINUOUS
 62
   249
 10
62.280122
 20
139.254587
 30
0.0
 11
62.293056
 21
139.245606
 31
0.0
 12
62.293056
 22
140.761686
 32
0.0
 13
62.280122
 23
140.752618
 33
0.0
  0
3DFACE
  8
0
  6
CONTINUOUS
 62
   249
 10
62.293056
 20
139.245606
 30
0.0
 11
62.30599
 21
139.236626
 31
0.0
 12
62.30599
 22
140.770754
 32
0.0
 13
62.293056
 23
140.761686
 33
0.0
  0
3DFACE
  8
0
  6
CONTINUOUS
 62
   249
 10
62.30599
 20
139.236626
 30
0.0
 11
62.318924
 21
139.227645
 31
0.0
 12
62.318924
 22
140.779821
 32
0.0
 13
62.30599
 23
140.770754
 33
0.0
  0
3DFACE
  8
0
  6
CONTINUOUS
 62
   249
 10
62.318924
 20
139.227645
 30
0.0
 11
62.331858
 21
139.218664
 31
0.0
 12
62.331858
 22
140.788889
 32
0.0
 13
62.318924
 23
140.779821
 33
0.0
  0
3DFACE
  8
0
  6
CONTINUOUS
 62
   249
 10
62.331858
 20
139.218664
 30
0.0
 11
62.344792
 21
139.209683
 31
0.0
 12
62.344792
 22
140.797957
 32
0.0
 13
62.331858
 23
140.788889
 33
0.0
  0
3DFACE
  8
0
  6
CONTINUOUS
 62
   249
 10
62.344792
 20
139.209683
 30
0.0
 11
62.357726
 21
139.200702
 31
0.0
 12
62.357726
 22
140.807024
 32
0.0
 13
62.344792
 23
140.797957
 33
0.0
  0
3DFACE
  8
0
  6
CONTINUOUS
 62
   249
 10
62.357726
 20
139.200702
 30
0.0
 11
62.37066
 21
139.191721
 31
0.0
 12
62.37066
 22
140.816092
 32
0.0
 13
62.357726
 23
140.807024
 33
0.0
  0
3DFACE
  8
0
  6
CONTINUOUS
 62
   249
 10
62.37066
 20
139.191721
 30
0.0
 11
62.383594
 21
139.18274
 31
0.0
 12
62.383594
 22
140.82516
 32
0.0
 13
62.37066
 23
140.816092
 33
0.0
  0
3DFACE
  8
0
  6
CONTINUOUS
 62
   249
 10
62.383594
 20
139.18274
 30
0.0
 11
62.396528
 21
139.173759
 31
0.0
 12
62.396528
 22
140.834227
 32
0.0
 13
62.383594
 23
140.82516
 33
0.0
  0
3DFACE
  8
0
  6
CONTINUOUS
 62
   249
 10
62.396528
 20
139.173759
 30
0.0
 11
62.409462
 21
139.164779
 31
0.0
 12
62.409462
 22
140.843295
 32
0.0
 13
62.396528
 23
140.834227
 33
0.0
  0
3DFACE
  8
0
  6
CONTINUOUS
 62
   249
 10
62.409462
 20
139.164779
 30
0.0
 11
62.422396
 21
139.155798
 31
0.0
 12
62.422396
 22
140.852363
 32
0.0
 13
62.409462
 23
140.843295
 33
0.0
  0
3DFACE
  8
0
  6
CONTINUOUS
 62
   249
 10
62.422396
 20
139.155798
 30
0.0
 11
62.43533
 21
139.146817
 31
0.0
 12
62.43533
 22
140.86143
 32
0.0
 13
62.422396
 23
140.852363
 33
0.0
  0
3DFACE
  8
0
  6
CONTINUOUS
 62
   249
 10
62.43533
 20
139.146817
 30
0.0
 11
62.448264
 21
139.137836
 31
0.0
 12
62.448264
 22
140.870498
 32
0.0
 13
62.43533
 23
140.86143
 33
0.0
  0
3DFACE
  8
0
  6
CONTINUOUS
 62
   249
 10
62.448264
 20
139.137836
 30
0.0
 11
62.461198
 21
139.128855
 31
0.0
 12
62.461198
 22
140.879566
 32
0.0
 13
62.448264
 23
140.870498
 33
0.0
  0
3DFACE
  8
0
  6
CONTINUOUS
 62
   249
 10
62.461198
 20
139.128855
 30
0.0
 11
62.474132
 21
139.119874
 31
0.0
 12
62.474132
 22
140.888633
 32
0.0
 13
62.461198
 23
140.879566
 33
0.0
  0
3DFACE
  8
0
  6
CONTINUOUS
 62
   249
 10
62.474132
 20
139.119874
 30
0.0
 11
62.487066
 21
139.110893
 31
0.0
 12
62.487066
 22
140.897701
 32
0.0
 13
62.474132
 23
140.888633
 33
0.0
  0
3DFACE
  8
0
  6
CONTINUOUS
 62
   249
 10
62.487066
 20
139.110893
 30
0.0
 11
62.5
 21
139.101912
 31
0.0
 12
62.5
 22
140.906769
 32
0.0
 13
62.487066
 23
140.897701
 33
0.0
  0
3DFACE
  8
0
  6
CONTINUOUS
 62
   249
 10
58.706597
 20
140.0
 30
0.0
 11
58.719531
 21
139.991019
 31
0.0
 12
58.719531
 22
140.009068
 32
0.0
 13
58.706597
 23
140.0
 33
0.0
  0
3DFACE
  8
0
  6
CONTINUOUS
 62
   249
 10
58.719531
 20
139.991019
 30
0.0
 11
58.732465
 21
139.982038
 31
0.0
 12
58.732465
 22
140.018136
 32
0.0
 13
58.719531
 23
140.009068
 33
0.0
  0
3DFACE
  8
0
  6
CONTINUOUS
 62
   249
 10
58.732465
 20
139.982038
 30
0.0
 11
58.745399
 21
139.973057
 31
0.0
 12
58.745399
 22
140.027203
 32
0.0
 13
58.732465
 23
140.018136
 33
0.0
  0
3DFACE
  8
0
  6
CONTINUOUS
 62
   249
 10
58.745399
 20
139.973057
 30
0.0
 11
58.758333
 21
139.964077
 31
0.0
 12
58.758333
 22
140.036271
 32
0.0
 13
58.745399
 23
140.027203
 33
0.0
  0
3DFACE
  8
0
  6
CONTINUOUS
 62
   249
 10
58.758333
 20
139.964077
 30
0.0
 11
58.771267
 21
139.955096
 31
0.0
 12
58.771267
 22
140.045339
 32
0.0
 13
58.758333
 23
140.036271
 33
0.0
  0
3DFACE
  8
0
  6
CONTINUOUS
 62
   249
 10
58.771267
 20
139.955096
 30
0.0
 11
58.784202
 21
139.946115
 31
0.0
 12
58.784202
 22
140.054406
 32
0.0
 13
58.771267
 23
140.045339
 33
0.0
  0
3DFACE
  8
0
  6
CONTINUOUS
 62
   249
 10
58.784202
 20
139.946115
 30
0.0
 11
58.797136
 21
139.937134
 31
0.0
 12
58.797136
 22
140.063474
 32
0.0
 13
58.784202
 23
140.054406
 33
0.0
  0
3DFACE
  8
0
  6
CONTINUOUS
 62
   249
 10
58.797136
 20
139.937134
 30
0.0
 11
58.81007
 21
139.928153
 31
0.0
 12
58.81007
 22
140.072542
 32
0.0
 13
58.797136
 23
140.063474
 33
0.0
  0
3DFACE
  8
0
  6
CONTINUOUS
 62
   249
 10
58.81007
 20
139.928153
 30
0.0
 11
58.823004
 21
139.919172
 31
0.0
 12
58.823004
 22
140.081609
 32
0.0
 13
58.81007
 23
140.072542
 33
0.0
  0
3DFACE
  8
0
  6
CONTINUOUS
 62
   249
 10
58.823004
 20
139.919172
 30
0.0
 11
58.835938
 21
139.910191
 31
0.0
 12
58.835938
 22
140.090677
 32
0.0
 13
58.823004
 23
140.081609
 33
0.0
  0
3DFACE
  8
0
  6
CONTINUOUS
 62
   249
 10
58.835938
 20
139.910191
 30
0.0
 11
58.848872
 21
139.90121
 31
0.0
 12
58.848872
 22
140.099745
 32
0.0
 13
58.835938
 23
140.090677
 33
0.0
  0
3DFACE
  8
0
  6
CONTINUOUS
 62
   249
 10
58.848872
 20
139.90121
 30
0.0
 11
58.861806
 21
139.89223
 31
0.0
 12
58.861806
 22
140.108812
 32
0.0
 13
58.848872
 23
140.099745
 33
0.0
  0
3DFACE
  8
0
  6
CONTINUOUS
 62
   249
 10
58.861806
 20
139.89223
 30
0.0
 11
58.87474
 21
139.883249
 31
0.0
 12
58.87474
 22
140.11788
 32
0.0
 13
58.861806
 23
140.108812
 33
0.0
  0
3DFACE
  8
0
  6
CONTINUOUS
 62
   249
 10
58.87474
 20
139.883249
 30
0.0
 11
58.887674
 21
139.874268
 31
0.0
 12
58.887674
 22
140.126948
 32
0.0
 13
58.87474
 23
140.11788
 33
0.0
  0
3DFACE
  8
0
  6
CONTINUOUS
 62
   249
 10
58.887674
 20
139.874268
 30
0.0
 11
58.900608
 21
139.865287
 31
0.0
 12
58.900608
 22
140.136015
 32
0.0
 13
58.887674
 23
140.126948
 33
0.0
  0
3DFACE
  8
0
  6
CONTINUOUS
 62
   249
 10
58.900608
 20
139.865287
 30
0.0
 11
58.913542
 21
139.856306
 31
0.0
 12
58.913542
 22
140.145083
 32
0.0
 13
58.900608
 23
140.136015
 33
0.0
  0
3DFACE
  8
0
  6
CONTINUOUS
 62
   249
 10
58.913542
 20
139.856306
 30
0.0
 11
58.926476
 21
139.847325
 31
0.0
 12
58.926476
 22
140.154151
 32
0.0
 13
58.913542
 23
140.145083
 33
0.0
  0
3DFACE
  8
0
  6
CONTINUOUS
 62
   249
 10
58.926476
 20
139.847325
 30
0.0
 11
58.93941
 21
139.838344
 31
0.0
 12
58.93941
 22
140.163219
 32
0.0
 13
58.926476
 23
140.154151
 33
0.0
  0
3DFACE
  8
0
  6
CONTINUOUS
 62
   249
 10
58.93941
 20
139.838344
 30
0.0
 11
58.952344
 21
139.829363
 31
0.0
 12
58.952344
 22
140.172286
 32
0.0
 13
58.93941
 23
140.163219
 33
0.0
  0
3DFACE
  8
0
  6
CONTINUOUS
 62
   249
 10
58.952344
 20
139.829363
 30
0.0
 11
58.965278
 21
139.820383
 31
0.0
 12
58.965278
 22
140.181354
 32
0.0
 13
58.952344
 23
140.172286
 33
0.0
  0
3DFACE
  8
0
  6
CONTINUOUS
 62
   249
 10
58.965278
 20
139.820383
 30
0.0
 11
58.978212
 21
139.811402
 31
0.0
 12
58.978212
 22
140.190422
 32
0.0
 13
58.965278
 23
140.181354
 33
0.0
  0
3DFACE
  8
0
  6
CONTINUOUS
 62
   249
 10
58.978212
 20
139.811402
 30
0.0
 11
58.991146
 21
139.802421
 31
0.0
 12
58.991146
 22
140.199489
 32
0.0
 13
58.978212
 23
140.190422
 33
0.0
  0
3DFACE
  8
0
  6
CONTINUOUS
 62
   249
 10
58.991146
 20
139.802421
 30
0.0
 11
59.00408
 21
139.79344
 31
0.0
 12
59.00408
 22
140.208557
 32
0.0
 13
58.991146
 23
140.199489
 33
0.0
  0
3DFACE
  8
0
  6
CONTINUOUS
 62
   249
 10
59.00408
 20
139.79344
 30
0.0
 11
59.017014
 21
139.784459
 31
0.0
 12
59.017014
 22
140.217625
 32
0.0
 13
59.00408
 23
140.208557
 33
0.0
  0
3DFACE
  8
0
  6
CONTINUOUS
 62
   249
 10
59.017014
 20
139.784459
 30
0.0
 11
59.029948
 21
139.775478
 31
0.0
 12
59.029948
 22
140.226692
 32
0.0
 13
59.017014
 23
140.217625
 33
0.0
  0
3DFACE
  8
0
  6
CONTINUOUS
 62
   249
 10
59.029948
 20
139.775478
 30
0.0
 11
59.042882
 21
139.766497
 31
0.0
 12
59.042882
 22
140.23576
 32
0.0
 13
59.029948
 23
140.226692
 33
0.0
  0
3DFACE
  8
0
  6
CONTINUOUS
 62
   249
 10
59.042882
 20
139.766497
 30
0.0
 11
59.055816
 21
139.757516
 31
0.0
 12
59.055816
 22
140.244828
 32
0.0
 13
59.042882
 23
140.23576
 33
0.0
  0
3DFACE
  8
0
  6
CONTINUOUS
 62
   249
 10
59.055816
 20
139.757516
 30
0.0
 11
59.06875
 21
139.748536
 31
0.0
 12
59.06875
 22
140.253895
 32
0.0
 13
59.055816
 23
140.244828
 33
0.0
  0
3DFACE
  8
0
  6
CONTINUOUS
 62
   249
 10
59.06875
 20
139.748536
 30
0.0
 11
59.081684
 21
139.739555
 31
0.0
 12
59.081684
 22
140.262963
 32
0.0
 13
59.06875
 23
140.253895
 33
0.0
  0
3DFACE
  8
0
  6
CONTINUOUS
 62
   249
 10
59.081684
 20
139.739555
 30
0.0
 11
59.094618
 21
139.730574
 31
0.0
 12
59.094618
 22
140.272031
 32
0.0
 13
59.081684
 23
140.262963
 33
0.0
  0
3DFACE
  8
0
  6
CONTINUOUS
 62
   249
 10
59.094618
 20
139.730574
 30
0.0
 11
59.107552
 21
139.721593
 31
0.0
 12
59.107552
 22
140.281098
 32
0.0
 13
59.094618
 23
140.272031
 33
0.0
  0
3DFACE
  8
0
  6
CONTINUOUS
 62
   249
 10
59.107552
 20
139.721593
 30
0.0
 11
59.120486
 21
139.712612
 31
0.0
 12
59.120486
 22
140.290166
 32
0.0
 13
59.107552
 23
140.281098
 33
0.0
  0
3DFACE
  8
0
  6
CONTINUOUS
 62
   249
 10
59.120486
 20
139.712612
 30
0.0
 11
59.13342
 21
139.703631
 31
0.0
 12
59.13342
 22
140.299234
 32
0.0
 13
59.120486
 23
140.290166
 33
0.0
  0
3DFACE
  8
0
  6
CONTINUOUS
 62
   249
 10
59.13342
 20
139.703631
 30
0.0
 11
59.146354
 21
139.69465
 31
0.0
 12
59.146354
 22
140.308301
 32
0.0
 13
59.13342
 23
140.299234
 33
0.0
  0
3DFACE
  8
0
  6
CONTINUOUS
 62
   249
 10
59.146354
 20
139.69465
 30
0.0
 11
59.159288
 21
139.685669
 31
0.0
 12
59.159288
 22
140.317369
 32
0.0
 13
59.146354
 23
140.308301
 33
0.0
  0
3DFACE
  8
0
  6
CONTINUOUS
 62
   249
 10
59.159288
 20
139.685669
 30
0.0
 11
59.172222
 21
139.676689
 31
0.0
 12
59.172222
 22
140.326437
 32
0.0
 13
59.159288
 23
140.317369
 33
0.0
  0
3DFACE
  8
0
  6
CONTINUOUS
 62
   249
 10
59.172222
 20
139.676689
 30
0.0
 11
59.185156
 21
139.667708
 31
0.0
 12
59.185156
 22
140.335505
 32
0.0
 13
59.172222
 23
140.326437
 33
0.0
  0
3DFACE
  8
0
  6
CONTINUOUS
 62
   249
 10
59.185156
 20
139.667708
 30
0.0
 11
59.19809
 21
139.658727
 31
0.0
 12
59.19809
 22
140.344572
 32
0.0
 13
59.185156
 23
140.335505
 33
0.0
  0
3DFACE
  8
0
  6
CONTINUOUS
 62
   249
 10
59.19809
 20
139.658727
 30
0.0
 11
59.211024
 21
139.649746
 31
0.0
 12
59.211024
 22
140.35364
 32
0.0
 13
59.19809
 23
140.344572
 33
0.0
  0
3DFACE
  8
0
  6
CONTINUOUS
 62
   249
 10
59.211024
 20
139.649746
 30
0.0
 11
59.223958
 21
139.640765
 31
0.0
 12
59.223958
 22
140.362708
 32
0.0
 13
59.211024
 23
140.35364
 33
0.0
  0
3DFACE
  8
0
  6
CONTINUOUS
 62
   249
 10
59.223958
 20
139.640765
 30
0.0
 11
59.236892
 21
139.631784
 31
0.0
 12
59.236892
 22
140.371775
 32
0.0
 13
59.223958
 23
140.362708
 33
0.0
  0
3DFACE
  8
0
  6
CONTINUOUS
 62
   249
 10
59.236892
 20
139.631784
 30
0.0
 11
59.249826
 21
139.622803
 31
0.0
 12
59.249826
 22
140.380843
 32
0.0
 13
59.236892
 23
140.371775
 33
0.0
  0
3DFACE
  8
0
  6
CONTINUOUS
 62
   249
 10
59.249826
 20
139.622803
 30
0.0
 11
59.26276
 21
139.613822
 31
0.0
 12
59.26276
 22
140.389911
 32
0.0
 13
59.249826
 23
140.380843
 33
0.0
  0
3DFACE
  8
0
  6
CONTINUOUS
 62
   249
 10
59.26276
 20
139.613822
 30
0.0
 11
59.275695
 21
139.604842
 31
0.0
 12
59.275695
 22
140.398978
 32
0.0
 13
59.26276
 23
140.389911
 33
0.0
  0
3DFACE
  8
0
  6
CONTINUOUS
 62
   249
 10
59.275695
 20
139.604842
 30
0.0
 11
59.288629
 21
139.595861
 31
0.0
 12
59.288629
 22
140.408046
 32
0.0
 13
59.275695
 23
140.398978
 33
0.0
  0
3DFACE
  8
0
  6
CONTINUOUS
 62
   249
 10
59.288629
 20
139.595861
 30
0.0
 11
59.301563
 21
139.58688
 31
0.0
 12
59.301563
 22
140.417114
 32
0.0
 13
59.288629
 23
140.408046
 33
0.0
  0
3DFACE
  8
0
  6
CONTINUOUS
 62
   249
 10
59.301563
 20
139.58688
 30
0.0
 11
59.314497
 21
139.577899
 31
0.0
 12
59.314497
 22
140.426181
 32
0.0
 13
59.301563
 23
140.417114
 33
0.0
  0
3DFACE
  8
0
  6
CONTINUOUS
 62
   249
 10
59.314497
 20
139.577899
 30
0.0
 11
59.327431
 21
139.568918
 31
0.0
 12
59.327431
 22
140.435249
 32
0.0
 13
59.314497
 23
140.426181
 33
0.0
  0
3DFACE
  8
0
  6
CONTINUOUS
 62
   249
 10
59.327431
 20
139.568918
 30
0.0
 11
59.340365
 21
139.559937
 31
0.0
 12
59.340365
 22
140.444317
 32
0.0
 13
59.327431
 23
140.435249
 33
0.0
  0
3DFACE
  8
0
  6
CONTINUOUS
 62
   249
 10
59.340365
 20
139.559937
 30
0.0
 11
59.353299
 21
139.550956
 31
0.0
 12
59.353299
 22
140.453384
 32
0.0
 13
59.340365
 23
140.444317
 33
0.0
  0
3DFACE
  8
0
  6
CONTINUOUS
 62
   249
 10
59.353299
 20
139.550956
 30
0.0
 11
59.366233
 21
139.541975
 31
0.0
 12
59.366233
 22
140.462452
 32
0.0
 13
59.353299
 23
140.453384
 33
0.0
  0
3DFACE
  8
0
  6
CONTINUOUS
 62
   249
 10
59.366233
 20
139.541975
 30
0.0
 11
59.379167
 21
139.532995
 31
0.0
 12
59.379167
 22
140.47152
 32
0.0
 13
59.366233
 23
140.462452
 33
0.0
  0
3DFACE
  8
0
  6
CONTINUOUS
 62
   249
 10
59.379167
 20
139.532995
 30
0.0
 11
59.392101
 21
139.524014
 31
0.0
 12
59.392101
 22
140.480588
 32
0.0
 13
59.379167
 23
140.47152
 33
0.0
  0
3DFACE
  8
0
  6
CONTINUOUS
 62
   249
 10
59.392101
 20
139.524014
 30
0.0
 11
59.405035
 21
139.515033
 31
0.0
 12
59.405035
 22
140.489655
 32
0.0
 13
59.392101
 23
140.480588
 33
0.0
  0
3DFACE
  8
0
  6
CONTINUOUS
 62
   249
 10
59.405035
 20
139.515033
 30
0.0
 11
59.417969
 21
139.506052
 31
0.0
 12
59.417969
 22
140.498723
 32
0.0
 13
59.405035
 23
140.489655
 33
0.0
  0
3DFACE
  8
0
  6
CONTINUOUS
 62
   249
 10
59.417969
 20
139.506052
 30
0.0
 11
59.430903
 21
139.497071
 31
0.0
 12
59.430903
 22
140.507791
 32
0.0
 13
59.417969
 23
140.498723
 33
0.0
  0
3DFACE
  8
0
  6
CONTINUOUS
 62
   249
 10
59.430903
 20
139.497071
 30
0.0
 11
59.443837
 21
139.48809
 31
0.0
 12
59.443837
 22
140.516858
 32
0.0
 13
59.430903
 23
140.507791
 33
0.0
  0
3DFACE
  8
0
  6
CONTINUOUS
 62
   249
 10
59.443837
 20
139.48809
 30
0.0
 11
59.456771
 21
139.479109
 31
0.0
 12
59.456771
 22
140.525926
 32
0.0
 13
59.443837
 23
140.516858
 33
0.0
  0
3DFACE
  8
0
  6
CONTINUOUS
 62
   249
 10
59.456771
 20
139.479109
 30
0.0
 11
59.469705
 21
139.470128
 31
0.0
 12
59.469705
 22
140.534994
 32
0.0
 13
59.456771
 23
140.525926
 33
0.0
  0
3DFACE
  8
0
  6
CONTINUOUS
 62
   249
 10
59.469705
 20
139.470128
 30
0.0
 11
59.482639
 21
139.461147
 31
0.0
 12
59.482639
 22
140.544061
 32
0.0
 13
59.469705
 23
140.534994
 33
0.0
  0
3DFACE
  8
0
  6
CONTINUOUS
 62
   249
 10
59.482639
 20
139.461147
 30
0.0
 11
59.495573
 21
139.452167
 31
0.0
 12
59.495573
 22
140.553129
 32
0.0
 13
59.482639
 23
140.544061
 33
0.0
  0
3DFACE
  8
0
  6
CONTINUOUS
 62
   249
 10
59.495573
 20
139.452167
 30
0.0
 11
59.508507
 21
139.443186
 31
0.0
 12
59.508507
 22
140.562197
 32
0.0
 13
59.495573
 23
140.553129
 33
0.0
  0
3DFACE
  8
0
  6
CONTINUOUS
 62
   249
 10
59.508507
 20
139.443186
 30
0.0
 11
59.521441
 21
139.434205
 31
0.0
 12
59.521441
 22
140.571264
 32
0.0
 13
59.508507
 23
140.562197
 33
0.0
  0
3DFACE
  8
0
  6
CONTINUOUS
 62
   249
 10
59.521441
 20
139.434205
 30
0.0
 11
59.534375
 21
139.425224
 31
0.0
 12
59.534375
 22
140.580332
 32
0.0
 13
59.521441
 23
140.571264
 33
0.0
  0
3DFACE
  8
0
  6
CONTINUOUS
 62
   249
 10
59.534375
 20
139.425224
 30
0.0
 11
59.547309
 21
139.416243
 31
0.0
 12
59.547309
 22
140.5894
 32
0.0
 13
59.534375
 23
140.580332
 33
0.0
  0
3DFACE
  8
0
  6
CONTINUOUS
 62
   249
 10
59.547309
 20
139.416243
 30
0.0
 11
59.560243
 21
139.407262
 31
0.0
 12
59.560243
 22
140.598467
 32
0.0
 13
59.547309
 23
140.5894
 33
0.0
  0
3DFACE
  8
0
  6
CONTINUOUS
 62
   249
 10
59.560243
 20
139.407262
 30
0.0
 11
59.573177
 21
139.398281
 31
0.0
 12
59.573177
 22
140.607535
 32
0.0
 13
59.560243
 23
140.598467
 33
0.0
  0
3DFACE
  8
0
  6
CONTINUOUS
 62
   249
 10
59.573177
 20
139.398281
 30
0.0
 11
59.586111
 21
139.3893
 31
0.0
 12
59.586111
 22
140.616603
 32
0.0
 13
59.573177
 23
140.607535
 33
0.0
  0
3DFACE
  8
0
  6
CONTINUOUS
 62
   249
 10
59.586111
 20
139.3893
 30
0.0
 11
59.599045
 21
139.38032
 31
0.0
 12
59.599045
 22
140.625671
 32
0.0
 13
59.586111
 23
140.616603
 33
0.0
  0
3DFACE
  8
0
  6
CONTINUOUS
 62
   249
 10
59.599045
 20
139.38032
 30
0.0
 11
59.611979
 21
139.371339
 31
0.0
 12
59.611979
 22
140.634738
 32
0.0
 13
59.599045
 23
140.625671
 33
0.0
  0
3DFACE
  8
0
  6
CONTINUOUS
 62
   249
 10
59.611979
 20
139.371339
 30
0.0
 11
59.624913
 21
139.362358
 31
0.0
 12
59.624913
 22
140.643806
 32
0.0
 13
59.611979
 23
140.634738
 33
0.0
  0
3DFACE
  8
0
  6
CONTINUOUS
 62
   249
 10
59.624913
 20
139.362358
 30
0.0
 11
59.637847
 21
139.353377
 31
0.0
 12
59.637847
 22
140.652874
 32
0.0
 13
59.624913
 23
140.643806
 33
0.0
  0
3DFACE
  8
0
  6
CONTINUOUS
 62
   249
 10
59.637847
 20
139.353377
 30
0.0
 11
59.650781
 21
139.344396
 31
0.0
 12
59.650781
 22
140.661941
 32
0.0
 13
59.637847
 23
140.652874
 33
0.0
  0
3DFACE
  8
0
  6
CONTINUOUS
 62
   249
 10
59.650781
 20
139.344396
 30
0.0
 11
59.663715
 21
139.335415
 31
0.0
 12
59.663715
 22
140.671009
 32
0.0
 13
59.650781
 23
140.661941
 33
0.0
  0
3DFACE
  8
0
  6
CONTINUOUS
 62
   249
 10
59.663715
 20
139.335415
 30
0.0
 11
59.676649
 21
139.326434
 31
0.0
 12
59.676649
 22
140.680077
 32
0.0
 13
59.663715
 23
140.671009
 33
0.0
  0
3DFACE
  8
0
  6
CONTINUOUS
 62
   249
 10
59.676649
 20
139.326434
 30
0.0
 11
59.689583
 21
139.317453
 31
0.0
 12
59.689583
 22
140.689144
 32
0.0
 13
59.676649
 23
140.680077
 33
0.0
  0
3DFACE
  8
0
  6
CONTINUOUS
 62
   249
 10
59.689583
 20
139.317453
 30
0.0
 11
59.702517
 21
139.308473
 31
0.0
 12
59.702517
 22
140.698212
 32
0.0
 13
59.689583
 23
140.689144
 33
0.0
  0
3DFACE
  8
0
  6
CONTINUOUS
 62
   249
 10
59.702517
 20
139.308473
 30
0.0
 11
59.715451
 21
139.299492
 31
0.0
 12
59.715451
 22
140.70728
 32
0.0
 13
59.702517
 23
140.698212
 33
0.0
  0
3DFACE
  8
0
  6
CONTINUOUS
 62
   249
 10
59.715451
 20
139.299492
 30
0.0
 11
59.728385
 21
139.290511
 31
0.0
 12
59.728385
 22
140.716347
 32
0.0
 13
59.715451
 23
140.70728
 33
0.0
  0
3DFACE
  8
0
  6
CONTINUOUS
 62
   249
 10
59.728385
 20
139.290511
 30
0.0
 11
59.741319
 21
139.28153
 31
0.0
 12
59.741319
 22
140.725415
 32
0.0
 13
59.728385
 23
140.716347
 33
0.0
  0
3DFACE
  8
0
  6
CONTINUOUS
 62
   249
 10
59.741319
 20
139.28153
 30
0.0
 11
59.754253
 21
139.272549
 31
0.0
 12
59.754253
 22
140.734483
 32
0.0
 13
59.741319
 23
140.725415
 33
0.0
  0
3DFACE
  8
0
  6
CONTINUOUS
 62
   249
 10
59.754253
 20
139.272549
 30
0.0
 11
59.767188
 21
139.263568
 31
0.0
 12
59.767188
 22
140.74355
 32
0.0
 13
59.754253
 23
140.734483
 33
0.0
  0
3DFACE
  8
0
  6
CONTINUOUS
 62
   249
 10
59.767188
 20
139.263568
 30
0.0
 11
59.780122
 21
139.254587
 31
0.0
 12
59.780122
 22
140.752618
 32
0.0
 13
59.767188
 23
140.74355
 33
0.0
  0
3DFACE
  8
0
  6
CONTINUOUS
 62
   249
 10
59.780122
 20
139.254587
 30
0.0
 11
59.793056
 21
139.245606
 31
0.0
 12
59.793056
 22
140.761686
 32
0.0
 13
59.780122
 23
140.752618
 33
0.0
  0
3DFACE
  8
0
  6
CONTINUOUS
 62
   249
 10
59.793056
 20
139.245606
 30
0.0
 11
59.80599
 21
139.236626
 31
0.0
 12
59.80599
 22
140.770754
 32
0.0
 13
59.793056
 23
140.761686
 33
0.0
  0
3DFACE
  8
0
  6
CONTINUOUS
 62
   249
 10
59.80599
 20
139.236626
 30
0.0
 11
59.818924
 21
139.227645
 31
0.0
 12
59.818924
 22
140.779821
 32
0.0
 13
59.80599
 23
140.770754
 33
0.0
  0
3DFACE
  8
0
  6
CONTINUOUS
 62
   249
 10
59.818924
 20
139.227645
 30
0.0
 11
59.831858
 21
139.218664
 31
0.0
 12
59.831858
 22
140.788889
 32
0.0
 13
59.818924
 23
140.779821
 33
0.0
  0
3DFACE
  8
0
  6
CONTINUOUS
 62
   249
 10
59.831858
 20
139.218664
 30
0.0
 11
59.844792
 21
139.209683
 31
0.0
 12
59.844792
 22
140.797957
 32
0.0
 13
59.831858
 23
140.788889
 33
0.0
  0
3DFACE
  8
0
  6
CONTINUOUS
 62
   249
 10
59.844792
 20
139.209683
 30
0.0
 11
59.857726
 21
139.200702
 31
0.0
 12
59.857726
 22
140.807024
 32
0.0
 13
59.844792
 23
140.797957
 33
0.0
  0
3DFACE
  8
0
  6
CONTINUOUS
 62
   249
 10
59.857726
 20
139.200702
 30
0.0
 11
59.87066
 21
139.191721
 31
0.0
 12
59.87066
 22
140.816092
 32
0.0
 13
59.857726
 23
140.807024
 33
0.0
  0
3DFACE
  8
0
  6
CONTINUOUS
 62
   249
 10
59.87066
 20
139.191721
 30
0.0
 11
59.883594
 21
139.18274
 31
0.0
 12
59.883594
 22
140.82516
 32
0.0
 13
59.87066
 23
140.816092
 33
0.0
  0
3DFACE
  8
0
  6
CONTINUOUS
 62
   249
 10
59.883594
 20
139.18274
 30
0.0
 11
59.896528
 21
139.173759
 31
0.0
 12
59.896528
 22
140.834227
 32
0.0
 13
59.883594
 23
140.82516
 33
0.0
  0
3DFACE
  8
0
  6
CONTINUOUS
 62
   249
 10
59.896528
 20
139.173759
 30
0.0
 11
59.909462
 21
139.164779
 31
0.0
 12
59.909462
 22
140.843295
 32
0.0
 13
59.896528
 23
140.834227
 33
0.0
  0
3DFACE
  8
0
  6
CONTINUOUS
 62
   249
 10
59.909462
 20
139.164779
 30
0.0
 11
59.922396
 21
139.155798
 31
0.0
 12
59.922396
 22
140.852363
 32
0.0
 13
59.909462
 23
140.843295
 33
0.0
  0
3DFACE
  8
0
  6
CONTINUOUS
 62
   249
 10
59.922396
 20
139.155798
 30
0.0
 11
59.93533
 21
139.146817
 31
0.0
 12
59.93533
 22
140.86143
 32
0.0
 13
59.922396
 23
140.852363
 33
0.0
  0
3DFACE
  8
0
  6
CONTINUOUS
 62
   249
 10
59.93533
 20
139.146817
 30
0.0
 11
59.948264
 21
139.137836
 31
0.0
 12
59.948264
 22
140.870498
 32
0.0
 13
59.93533
 23
140.86143
 33
0.0
  0
3DFACE
  8
0
  6
CONTINUOUS
 62
   249
 10
59.948264
 20
139.137836
 30
0.0
 11
59.961198
 21
139.128855
 31
0.0
 12
59.961198
 22
140.879566
 32
0.0
 13
59.948264
 23
140.870498
 33
0.0
  0
3DFACE
  8
0
  6
CONTINUOUS
 62
   249
 10
59.961198
 20
139.128855
 30
0.0
 11
59.974132
 21
139.119874
 31
0.0
 12
59.974132
 22
140.888633
 32
0.0
 13
59.961198
 23
140.879566
 33
0.0
  0
3DFACE
  8
0
  6
CONTINUOUS
 62
   249
 10
59.974132
 20
139.119874
 30
0.0
 11
59.987066
 21
139.110893
 31
0.0
 12
59.987066
 22
140.897701
 32
0.0
 13
59.974132
 23
140.888633
 33
0.0
  0
3DFACE
  8
0
  6
CONTINUOUS
 62
   249
 10
59.987066
 20
139.110893
 30
0.0
 11
60.0
 21
139.101912
 31
0.0
 12
60.0
 22
140.906769
 32
0.0
 13
59.987066
 23
140.897701
 33
0.0
  0
3DFACE
  8
0
  6
CONTINUOUS
 62
   249
 10
63.706597
 20
140.0
 30
0.0
 11
63.719531
 21
139.991019
 31
0.0
 12
63.719531
 22
140.009068
 32
0.0
 13
63.706597
 23
140.0
 33
0.0
  0
3DFACE
  8
0
  6
CONTINUOUS
 62
   249
 10
63.719531
 20
139.991019
 30
0.0
 11
63.732465
 21
139.982038
 31
0.0
 12
63.732465
 22
140.018136
 32
0.0
 13
63.719531
 23
140.009068
 33
0.0
  0
3DFACE
  8
0
  6
CONTINUOUS
 62
   249
 10
63.732465
 20
139.982038
 30
0.0
 11
63.745399
 21
139.973057
 31
0.0
 12
63.745399
 22
140.027203
 32
0.0
 13
63.732465
 23
140.018136
 33
0.0
  0
3DFACE
  8
0
  6
CONTINUOUS
 62
   249
 10
63.745399
 20
139.973057
 30
0.0
 11
63.758333
 21
139.964077
 31
0.0
 12
63.758333
 22
140.036271
 32
0.0
 13
63.745399
 23
140.027203
 33
0.0
  0
3DFACE
  8
0
  6
CONTINUOUS
 62
   249
 10
63.758333
 20
139.964077
 30
0.0
 11
63.771267
 21
139.955096
 31
0.0
 12
63.771267
 22
140.045339
 32
0.0
 13
63.758333
 23
140.036271
 33
0.0
  0
3DFACE
  8
0
  6
CONTINUOUS
 62
   249
 10
63.771267
 20
139.955096
 30
0.0
 11
63.784202
 21
139.946115
 31
0.0
 12
63.784202
 22
140.054406
 32
0.0
 13
63.771267
 23
140.045339
 33
0.0
  0
3DFACE
  8
0
  6
CONTINUOUS
 62
   249
 10
63.784202
 20
139.946115
 30
0.0
 11
63.797136
 21
139.937134
 31
0.0
 12
63.797136
 22
140.063474
 32
0.0
 13
63.784202
 23
140.054406
 33
0.0
  0
3DFACE
  8
0
  6
CONTINUOUS
 62
   249
 10
63.797136
 20
139.937134
 30
0.0
 11
63.81007
 21
139.928153
 31
0.0
 12
63.81007
 22
140.072542
 32
0.0
 13
63.797136
 23
140.063474
 33
0.0
  0
3DFACE
  8
0
  6
CONTINUOUS
 62
   249
 10
63.81007
 20
139.928153
 30
0.0
 11
63.823004
 21
139.919172
 31
0.0
 12
63.823004
 22
140.081609
 32
0.0
 13
63.81007
 23
140.072542
 33
0.0
  0
3DFACE
  8
0
  6
CONTINUOUS
 62
   249
 10
63.823004
 20
139.919172
 30
0.0
 11
63.835938
 21
139.910191
 31
0.0
 12
63.835938
 22
140.090677
 32
0.0
 13
63.823004
 23
140.081609
 33
0.0
  0
3DFACE
  8
0
  6
CONTINUOUS
 62
   249
 10
63.835938
 20
139.910191
 30
0.0
 11
63.848872
 21
139.90121
 31
0.0
 12
63.848872
 22
140.099745
 32
0.0
 13
63.835938
 23
140.090677
 33
0.0
  0
3DFACE
  8
0
  6
CONTINUOUS
 62
   249
 10
63.848872
 20
139.90121
 30
0.0
 11
63.861806
 21
139.89223
 31
0.0
 12
63.861806
 22
140.108812
 32
0.0
 13
63.848872
 23
140.099745
 33
0.0
  0
3DFACE
  8
0
  6
CONTINUOUS
 62
   249
 10
63.861806
 20
139.89223
 30
0.0
 11
63.87474
 21
139.883249
 31
0.0
 12
63.87474
 22
140.11788
 32
0.0
 13
63.861806
 23
140.108812
 33
0.0
  0
3DFACE
  8
0
  6
CONTINUOUS
 62
   249
 10
63.87474
 20
139.883249
 30
0.0
 11
63.887674
 21
139.874268
 31
0.0
 12
63.887674
 22
140.126948
 32
0.0
 13
63.87474
 23
140.11788
 33
0.0
  0
3DFACE
  8
0
  6
CONTINUOUS
 62
   249
 10
63.887674
 20
139.874268
 30
0.0
 11
63.900608
 21
139.865287
 31
0.0
 12
63.900608
 22
140.136015
 32
0.0
 13
63.887674
 23
140.126948
 33
0.0
  0
3DFACE
  8
0
  6
CONTINUOUS
 62
   249
 10
63.900608
 20
139.865287
 30
0.0
 11
63.913542
 21
139.856306
 31
0.0
 12
63.913542
 22
140.145083
 32
0.0
 13
63.900608
 23
140.136015
 33
0.0
  0
3DFACE
  8
0
  6
CONTINUOUS
 62
   249
 10
63.913542
 20
139.856306
 30
0.0
 11
63.926476
 21
139.847325
 31
0.0
 12
63.926476
 22
140.154151
 32
0.0
 13
63.913542
 23
140.145083
 33
0.0
  0
3DFACE
  8
0
  6
CONTINUOUS
 62
   249
 10
63.926476
 20
139.847325
 30
0.0
 11
63.93941
 21
139.838344
 31
0.0
 12
63.93941
 22
140.163219
 32
0.0
 13
63.926476
 23
140.154151
 33
0.0
  0
3DFACE
  8
0
  6
CONTINUOUS
 62
   249
 10
63.93941
 20
139.838344
 30
0.0
 11
63.952344
 21
139.829363
 31
0.0
 12
63.952344
 22
140.172286
 32
0.0
 13
63.93941
 23
140.163219
 33
0.0
  0
3DFACE
  8
0
  6
CONTINUOUS
 62
   249
 10
63.952344
 20
139.829363
 30
0.0
 11
63.965278
 21
139.820383
 31
0.0
 12
63.965278
 22
140.181354
 32
0.0
 13
63.952344
 23
140.172286
 33
0.0
  0
3DFACE
  8
0
  6
CONTINUOUS
 62
   249
 10
63.965278
 20
139.820383
 30
0.0
 11
63.978212
 21
139.811402
 31
0.0
 12
63.978212
 22
140.190422
 32
0.0
 13
63.965278
 23
140.181354
 33
0.0
  0
3DFACE
  8
0
  6
CONTINUOUS
 62
   249
 10
63.978212
 20
139.811402
 30
0.0
 11
63.991146
 21
139.802421
 31
0.0
 12
63.991146
 22
140.199489
 32
0.0
 13
63.978212
 23
140.190422
 33
0.0
  0
3DFACE
  8
0
  6
CONTINUOUS
 62
   249
 10
63.991146
 20
139.802421
 30
0.0
 11
64.00408
 21
139.79344
 31
0.0
 12
64.00408
 22
140.208557
 32
0.0
 13
63.991146
 23
140.199489
 33
0.0
  0
3DFACE
  8
0
  6
CONTINUOUS
 62
   249
 10
64.00408
 20
139.79344
 30
0.0
 11
64.017014
 21
139.784459
 31
0.0
 12
64.017014
 22
140.217625
 32
0.0
 13
64.00408
 23
140.208557
 33
0.0
  0
3DFACE
  8
0
  6
CONTINUOUS
 62
   249
 10
64.017014
 20
139.784459
 30
0.0
 11
64.029948
 21
139.775478
 31
0.0
 12
64.029948
 22
140.226692
 32
0.0
 13
64.017014
 23
140.217625
 33
0.0
  0
3DFACE
  8
0
  6
CONTINUOUS
 62
   249
 10
64.029948
 20
139.775478
 30
0.0
 11
64.042882
 21
139.766497
 31
0.0
 12
64.042882
 22
140.23576
 32
0.0
 13
64.029948
 23
140.226692
 33
0.0
  0
3DFACE
  8
0
  6
CONTINUOUS
 62
   249
 10
64.042882
 20
139.766497
 30
0.0
 11
64.055816
 21
139.757516
 31
0.0
 12
64.055816
 22
140.244828
 32
0.0
 13
64.042882
 23
140.23576
 33
0.0
  0
3DFACE
  8
0
  6
CONTINUOUS
 62
   249
 10
64.055816
 20
139.757516
 30
0.0
 11
64.06875
 21
139.748536
 31
0.0
 12
64.06875
 22
140.253895
 32
0.0
 13
64.055816
 23
140.244828
 33
0.0
  0
3DFACE
  8
0
  6
CONTINUOUS
 62
   249
 10
64.06875
 20
139.748536
 30
0.0
 11
64.081684
 21
139.739555
 31
0.0
 12
64.081684
 22
140.262963
 32
0.0
 13
64.06875
 23
140.253895
 33
0.0
  0
3DFACE
  8
0
  6
CONTINUOUS
 62
   249
 10
64.081684
 20
139.739555
 30
0.0
 11
64.094618
 21
139.730574
 31
0.0
 12
64.094618
 22
140.272031
 32
0.0
 13
64.081684
 23
140.262963
 33
0.0
  0
3DFACE
  8
0
  6
CONTINUOUS
 62
   249
 10
64.094618
 20
139.730574
 30
0.0
 11
64.107552
 21
139.721593
 31
0.0
 12
64.107552
 22
140.281098
 32
0.0
 13
64.094618
 23
140.272031
 33
0.0
  0
3DFACE
  8
0
  6
CONTINUOUS
 62
   249
 10
64.107552
 20
139.721593
 30
0.0
 11
64.120486
 21
139.712612
 31
0.0
 12
64.120486
 22
140.290166
 32
0.0
 13
64.107552
 23
140.281098
 33
0.0
  0
3DFACE
  8
0
  6
CONTINUOUS
 62
   249
 10
64.120486
 20
139.712612
 30
0.0
 11
64.13342
 21
139.703631
 31
0.0
 12
64.13342
 22
140.299234
 32
0.0
 13
64.120486
 23
140.290166
 33
0.0
  0
3DFACE
  8
0
  6
CONTINUOUS
 62
   249
 10
64.13342
 20
139.703631
 30
0.0
 11
64.146354
 21
139.69465
 31
0.0
 12
64.146354
 22
140.308301
 32
0.0
 13
64.13342
 23
140.299234
 33
0.0
  0
3DFACE
  8
0
  6
CONTINUOUS
 62
   249
 10
64.146354
 20
139.69465
 30
0.0
 11
64.159288
 21
139.685669
 31
0.0
 12
64.159288
 22
140.317369
 32
0.0
 13
64.146354
 23
140.308301
 33
0.0
  0
3DFACE
  8
0
  6
CONTINUOUS
 62
   249
 10
64.159288
 20
139.685669
 30
0.0
 11
64.172222
 21
139.676689
 31
0.0
 12
64.172222
 22
140.326437
 32
0.0
 13
64.159288
 23
140.317369
 33
0.0
  0
3DFACE
  8
0
  6
CONTINUOUS
 62
   249
 10
64.172222
 20
139.676689
 30
0.0
 11
64.185156
 21
139.667708
 31
0.0
 12
64.185156
 22
140.335505
 32
0.0
 13
64.172222
 23
140.326437
 33
0.0
  0
3DFACE
  8
0
  6
CONTINUOUS
 62
   249
 10
64.185156
 20
139.667708
 30
0.0
 11
64.19809
 21
139.658727
 31
0.0
 12
64.19809
 22
140.344572
 32
0.0
 13
64.185156
 23
140.335505
 33
0.0
  0
3DFACE
  8
0
  6
CONTINUOUS
 62
   249
 10
64.19809
 20
139.658727
 30
0.0
 11
64.211024
 21
139.649746
 31
0.0
 12
64.211024
 22
140.35364
 32
0.0
 13
64.19809
 23
140.344572
 33
0.0
  0
3DFACE
  8
0
  6
CONTINUOUS
 62
   249
 10
64.211024
 20
139.649746
 30
0.0
 11
64.223958
 21
139.640765
 31
0.0
 12
64.223958
 22
140.362708
 32
0.0
 13
64.211024
 23
140.35364
 33
0.0
  0
3DFACE
  8
0
  6
CONTINUOUS
 62
   249
 10
64.223958
 20
139.640765
 30
0.0
 11
64.236892
 21
139.631784
 31
0.0
 12
64.236892
 22
140.371775
 32
0.0
 13
64.223958
 23
140.362708
 33
0.0
  0
3DFACE
  8
0
  6
CONTINUOUS
 62
   249
 10
64.236892
 20
139.631784
 30
0.0
 11
64.249826
 21
139.622803
 31
0.0
 12
64.249826
 22
140.380843
 32
0.0
 13
64.236892
 23
140.371775
 33
0.0
  0
3DFACE
  8
0
  6
CONTINUOUS
 62
   249
 10
64.249826
 20
139.622803
 30
0.0
 11
64.26276
 21
139.613822
 31
0.0
 12
64.26276
 22
140.389911
 32
0.0
 13
64.249826
 23
140.380843
 33
0.0
  0
3DFACE
  8
0
  6
CONTINUOUS
 62
   249
 10
64.26276
 20
139.613822
 30
0.0
 11
64.275695
 21
139.604842
 31
0.0
 12
64.275695
 22
140.398978
 32
0.0
 13
64.26276
 23
140.389911
 33
0.0
  0
3DFACE
  8
0
  6
CONTINUOUS
 62
   249
 10
64.275695
 20
139.604842
 30
0.0
 11
64.288629
 21
139.595861
 31
0.0
 12
64.288629
 22
140.408046
 32
0.0
 13
64.275695
 23
140.398978
 33
0.0
  0
3DFACE
  8
0
  6
CONTINUOUS
 62
   249
 10
64.288629
 20
139.595861
 30
0.0
 11
64.301563
 21
139.58688
 31
0.0
 12
64.301563
 22
140.417114
 32
0.0
 13
64.288629
 23
140.408046
 33
0.0
  0
3DFACE
  8
0
  6
CONTINUOUS
 62
   249
 10
64.301563
 20
139.58688
 30
0.0
 11
64.314497
 21
139.577899
 31
0.0
 12
64.314497
 22
140.426181
 32
0.0
 13
64.301563
 23
140.417114
 33
0.0
  0
3DFACE
  8
0
  6
CONTINUOUS
 62
   249
 10
64.314497
 20
139.577899
 30
0.0
 11
64.327431
 21
139.568918
 31
0.0
 12
64.327431
 22
140.435249
 32
0.0
 13
64.314497
 23
140.426181
 33
0.0
  0
3DFACE
  8
0
  6
CONTINUOUS
 62
   249
 10
64.327431
 20
139.568918
 30
0.0
 11
64.340365
 21
139.559937
 31
0.0
 12
64.340365
 22
140.444317
 32
0.0
 13
64.327431
 23
140.435249
 33
0.0
  0
3DFACE
  8
0
  6
CONTINUOUS
 62
   249
 10
64.340365
 20
139.559937
 30
0.0
 11
64.353299
 21
139.550956
 31
0.0
 12
64.353299
 22
140.453384
 32
0.0
 13
64.340365
 23
140.444317
 33
0.0
  0
3DFACE
  8
0
  6
CONTINUOUS
 62
   249
 10
64.353299
 20
139.550956
 30
0.0
 11
64.366233
 21
139.541975
 31
0.0
 12
64.366233
 22
140.462452
 32
0.0
 13
64.353299
 23
140.453384
 33
0.0
  0
3DFACE
  8
0
  6
CONTINUOUS
 62
   249
 10
64.366233
 20
139.541975
 30
0.0
 11
64.379167
 21
139.532995
 31
0.0
 12
64.379167
 22
140.47152
 32
0.0
 13
64.366233
 23
140.462452
 33
0.0
  0
3DFACE
  8
0
  6
CONTINUOUS
 62
   249
 10
64.379167
 20
139.532995
 30
0.0
 11
64.392101
 21
139.524014
 31
0.0
 12
64.392101
 22
140.480588
 32
0.0
 13
64.379167
 23
140.47152
 33
0.0
  0
3DFACE
  8
0
  6
CONTINUOUS
 62
   249
 10
64.392101
 20
139.524014
 30
0.0
 11
64.405035
 21
139.515033
 31
0.0
 12
64.405035
 22
140.489655
 32
0.0
 13
64.392101
 23
140.480588
 33
0.0
  0
3DFACE
  8
0
  6
CONTINUOUS
 62
   249
 10
64.405035
 20
139.515033
 30
0.0
 11
64.417969
 21
139.506052
 31
0.0
 12
64.417969
 22
140.498723
 32
0.0
 13
64.405035
 23
140.489655
 33
0.0
  0
3DFACE
  8
0
  6
CONTINUOUS
 62
   249
 10
64.417969
 20
139.506052
 30
0.0
 11
64.430903
 21
139.497071
 31
0.0
 12
64.430903
 22
140.507791
 32
0.0
 13
64.417969
 23
140.498723
 33
0.0
  0
3DFACE
  8
0
  6
CONTINUOUS
 62
   249
 10
64.430903
 20
139.497071
 30
0.0
 11
64.443837
 21
139.48809
 31
0.0
 12
64.443837
 22
140.516858
 32
0.0
 13
64.430903
 23
140.507791
 33
0.0
  0
3DFACE
  8
0
  6
CONTINUOUS
 62
   249
 10
64.443837
 20
139.48809
 30
0.0
 11
64.456771
 21
139.479109
 31
0.0
 12
64.456771
 22
140.525926
 32
0.0
 13
64.443837
 23
140.516858
 33
0.0
  0
3DFACE
  8
0
  6
CONTINUOUS
 62
   249
 10
64.456771
 20
139.479109
 30
0.0
 11
64.469705
 21
139.470128
 31
0.0
 12
64.469705
 22
140.534994
 32
0.0
 13
64.456771
 23
140.525926
 33
0.0
  0
3DFACE
  8
0
  6
CONTINUOUS
 62
   249
 10
64.469705
 20
139.470128
 30
0.0
 11
64.482639
 21
139.461147
 31
0.0
 12
64.482639
 22
140.544061
 32
0.0
 13
64.469705
 23
140.534994
 33
0.0
  0
3DFACE
  8
0
  6
CONTINUOUS
 62
   249
 10
64.482639
 20
139.461147
 30
0.0
 11
64.495573
 21
139.452167
 31
0.0
 12
64.495573
 22
140.553129
 32
0.0
 13
64.482639
 23
140.544061
 33
0.0
  0
3DFACE
  8
0
  6
CONTINUOUS
 62
   249
 10
64.495573
 20
139.452167
 30
0.0
 11
64.508507
 21
139.443186
 31
0.0
 12
64.508507
 22
140.562197
 32
0.0
 13
64.495573
 23
140.553129
 33
0.0
  0
3DFACE
  8
0
  6
CONTINUOUS
 62
   249
 10
64.508507
 20
139.443186
 30
0.0
 11
64.521441
 21
139.434205
 31
0.0
 12
64.521441
 22
140.571264
 32
0.0
 13
64.508507
 23
140.562197
 33
0.0
  0
3DFACE
  8
0
  6
CONTINUOUS
 62
   249
 10
64.521441
 20
139.434205
 30
0.0
 11
64.534375
 21
139.425224
 31
0.0
 12
64.534375
 22
140.580332
 32
0.0
 13
64.521441
 23
140.571264
 33
0.0
  0
3DFACE
  8
0
  6
CONTINUOUS
 62
   249
 10
64.534375
 20
139.425224
 30
0.0
 11
64.547309
 21
139.416243
 31
0.0
 12
64.547309
 22
140.5894
 32
0.0
 13
64.534375
 23
140.580332
 33
0.0
  0
3DFACE
  8
0
  6
CONTINUOUS
 62
   249
 10
64.547309
 20
139.416243
 30
0.0
 11
64.560243
 21
139.407262
 31
0.0
 12
64.560243
 22
140.598467
 32
0.0
 13
64.547309
 23
140.5894
 33
0.0
  0
3DFACE
  8
0
  6
CONTINUOUS
 62
   249
 10
64.560243
 20
139.407262
 30
0.0
 11
64.573177
 21
139.398281
 31
0.0
 12
64.573177
 22
140.607535
 32
0.0
 13
64.560243
 23
140.598467
 33
0.0
  0
3DFACE
  8
0
  6
CONTINUOUS
 62
   249
 10
64.573177
 20
139.398281
 30
0.0
 11
64.586111
 21
139.3893
 31
0.0
 12
64.586111
 22
140.616603
 32
0.0
 13
64.573177
 23
140.607535
 33
0.0
  0
3DFACE
  8
0
  6
CONTINUOUS
 62
   249
 10
64.586111
 20
139.3893
 30
0.0
 11
64.599045
 21
139.38032
 31
0.0
 12
64.599045
 22
140.625671
 32
0.0
 13
64.586111
 23
140.616603
 33
0.0
  0
3DFACE
  8
0
  6
CONTINUOUS
 62
   249
 10
64.599045
 20
139.38032
 30
0.0
 11
64.611979
 21
139.371339
 31
0.0
 12
64.611979
 22
140.634738
 32
0.0
 13
64.599045
 23
140.625671
 33
0.0
  0
3DFACE
  8
0
  6
CONTINUOUS
 62
   249
 10
64.611979
 20
139.371339
 30
0.0
 11
64.624913
 21
139.362358
 31
0.0
 12
64.624913
 22
140.643806
 32
0.0
 13
64.611979
 23
140.634738
 33
0.0
  0
3DFACE
  8
0
  6
CONTINUOUS
 62
   249
 10
64.624913
 20
139.362358
 30
0.0
 11
64.637847
 21
139.353377
 31
0.0
 12
64.637847
 22
140.652874
 32
0.0
 13
64.624913
 23
140.643806
 33
0.0
  0
3DFACE
  8
0
  6
CONTINUOUS
 62
   249
 10
64.637847
 20
139.353377
 30
0.0
 11
64.650781
 21
139.344396
 31
0.0
 12
64.650781
 22
140.661941
 32
0.0
 13
64.637847
 23
140.652874
 33
0.0
  0
3DFACE
  8
0
  6
CONTINUOUS
 62
   249
 10
64.650781
 20
139.344396
 30
0.0
 11
64.663715
 21
139.335415
 31
0.0
 12
64.663715
 22
140.671009
 32
0.0
 13
64.650781
 23
140.661941
 33
0.0
  0
3DFACE
  8
0
  6
CONTINUOUS
 62
   249
 10
64.663715
 20
139.335415
 30
0.0
 11
64.676649
 21
139.326434
 31
0.0
 12
64.676649
 22
140.680077
 32
0.0
 13
64.663715
 23
140.671009
 33
0.0
  0
3DFACE
  8
0
  6
CONTINUOUS
 62
   249
 10
64.676649
 20
139.326434
 30
0.0
 11
64.689583
 21
139.317453
 31
0.0
 12
64.689583
 22
140.689144
 32
0.0
 13
64.676649
 23
140.680077
 33
0.0
  0
3DFACE
  8
0
  6
CONTINUOUS
 62
   249
 10
64.689583
 20
139.317453
 30
0.0
 11
64.702517
 21
139.308473
 31
0.0
 12
64.702517
 22
140.698212
 32
0.0
 13
64.689583
 23
140.689144
 33
0.0
  0
3DFACE
  8
0
  6
CONTINUOUS
 62
   249
 10
64.702517
 20
139.308473
 30
0.0
 11
64.715451
 21
139.299492
 31
0.0
 12
64.715451
 22
140.70728
 32
0.0
 13
64.702517
 23
140.698212
 33
0.0
  0
3DFACE
  8
0
  6
CONTINUOUS
 62
   249
 10
64.715451
 20
139.299492
 30
0.0
 11
64.728385
 21
139.290511
 31
0.0
 12
64.728385
 22
140.716347
 32
0.0
 13
64.715451
 23
140.70728
 33
0.0
  0
3DFACE
  8
0
  6
CONTINUOUS
 62
   249
 10
64.728385
 20
139.290511
 30
0.0
 11
64.741319
 21
139.28153
 31
0.0
 12
64.741319
 22
140.725415
 32
0.0
 13
64.728385
 23
140.716347
 33
0.0
  0
3DFACE
  8
0
  6
CONTINUOUS
 62
   249
 10
64.741319
 20
139.28153
 30
0.0
 11
64.754253
 21
139.272549
 31
0.0
 12
64.754253
 22
140.734483
 32
0.0
 13
64.741319
 23
140.725415
 33
0.0
  0
3DFACE
  8
0
  6
CONTINUOUS
 62
   249
 10
64.754253
 20
139.272549
 30
0.0
 11
64.767188
 21
139.263568
 31
0.0
 12
64.767188
 22
140.74355
 32
0.0
 13
64.754253
 23
140.734483
 33
0.0
  0
3DFACE
  8
0
  6
CONTINUOUS
 62
   249
 10
64.767188
 20
139.263568
 30
0.0
 11
64.780122
 21
139.254587
 31
0.0
 12
64.780122
 22
140.752618
 32
0.0
 13
64.767188
 23
140.74355
 33
0.0
  0
3DFACE
  8
0
  6
CONTINUOUS
 62
   249
 10
64.780122
 20
139.254587
 30
0.0
 11
64.793056
 21
139.245606
 31
0.0
 12
64.793056
 22
140.761686
 32
0.0
 13
64.780122
 23
140.752618
 33
0.0
  0
3DFACE
  8
0
  6
CONTINUOUS
 62
   249
 10
64.793056
 20
139.245606
 30
0.0
 11
64.80599
 21
139.236626
 31
0.0
 12
64.80599
 22
140.770754
 32
0.0
 13
64.793056
 23
140.761686
 33
0.0
  0
3DFACE
  8
0
  6
CONTINUOUS
 62
   249
 10
64.80599
 20
139.236626
 30
0.0
 11
64.818924
 21
139.227645
 31
0.0
 12
64.818924
 22
140.779821
 32
0.0
 13
64.80599
 23
140.770754
 33
0.0
  0
3DFACE
  8
0
  6
CONTINUOUS
 62
   249
 10
64.818924
 20
139.227645
 30
0.0
 11
64.831858
 21
139.218664
 31
0.0
 12
64.831858
 22
140.788889
 32
0.0
 13
64.818924
 23
140.779821
 33
0.0
  0
3DFACE
  8
0
  6
CONTINUOUS
 62
   249
 10
64.831858
 20
139.218664
 30
0.0
 11
64.844792
 21
139.209683
 31
0.0
 12
64.844792
 22
140.797957
 32
0.0
 13
64.831858
 23
140.788889
 33
0.0
  0
3DFACE
  8
0
  6
CONTINUOUS
 62
   249
 10
64.844792
 20
139.209683
 30
0.0
 11
64.857726
 21
139.200702
 31
0.0
 12
64.857726
 22
140.807024
 32
0.0
 13
64.844792
 23
140.797957
 33
0.0
  0
3DFACE
  8
0
  6
CONTINUOUS
 62
   249
 10
64.857726
 20
139.200702
 30
0.0
 11
64.87066
 21
139.191721
 31
0.0
 12
64.87066
 22
140.816092
 32
0.0
 13
64.857726
 23
140.807024
 33
0.0
  0
3DFACE
  8
0
  6
CONTINUOUS
 62
   249
 10
64.87066
 20
139.191721
 30
0.0
 11
64.883594
 21
139.18274
 31
0.0
 12
64.883594
 22
140.82516
 32
0.0
 13
64.87066
 23
140.816092
 33
0.0
  0
3DFACE
  8
0
  6
CONTINUOUS
 62
   249
 10
64.883594
 20
139.18274
 30
0.0
 11
64.896528
 21
139.173759
 31
0.0
 12
64.896528
 22
140.834227
 32
0.0
 13
64.883594
 23
140.82516
 33
0.0
  0
3DFACE
  8
0
  6
CONTINUOUS
 62
   249
 10
64.896528
 20
139.173759
 30
0.0
 11
64.909462
 21
139.164779
 31
0.0
 12
64.909462
 22
140.843295
 32
0.0
 13
64.896528
 23
140.834227
 33
0.0
  0
3DFACE
  8
0
  6
CONTINUOUS
 62
   249
 10
64.909462
 20
139.164779
 30
0.0
 11
64.922396
 21
139.155798
 31
0.0
 12
64.922396
 22
140.852363
 32
0.0
 13
64.909462
 23
140.843295
 33
0.0
  0
3DFACE
  8
0
  6
CONTINUOUS
 62
   249
 10
64.922396
 20
139.155798
 30
0.0
 11
64.93533
 21
139.146817
 31
0.0
 12
64.93533
 22
140.86143
 32
0.0
 13
64.922396
 23
140.852363
 33
0.0
  0
3DFACE
  8
0
  6
CONTINUOUS
 62
   249
 10
64.93533
 20
139.146817
 30
0.0
 11
64.948264
 21
139.137836
 31
0.0
 12
64.948264
 22
140.870498
 32
0.0
 13
64.93533
 23
140.86143
 33
0.0
  0
3DFACE
  8
0
  6
CONTINUOUS
 62
   249
 10
64.948264
 20
139.137836
 30
0.0
 11
64.961198
 21
139.128855
 31
0.0
 12
64.961198
 22
140.879566
 32
0.0
 13
64.948264
 23
140.870498
 33
0.0
  0
3DFACE
  8
0
  6
CONTINUOUS
 62
   249
 10
64.961198
 20
139.128855
 30
0.0
 11
64.974132
 21
139.119874
 31
0.0
 12
64.974132
 22
140.888633
 32
0.0
 13
64.961198
 23
140.879566
 33
0.0
  0
3DFACE
  8
0
  6
CONTINUOUS
 62
   249
 10
64.974132
 20
139.119874
 30
0.0
 11
64.987066
 21
139.110893
 31
0.0
 12
64.987066
 22
140.897701
 32
0.0
 13
64.974132
 23
140.888633
 33
0.0
  0
3DFACE
  8
0
  6
CONTINUOUS
 62
   249
 10
64.987066
 20
139.110893
 30
0.0
 11
65.0
 21
139.101912
 31
0.0
 12
65.0
 22
140.906769
 32
0.0
 13
64.987066
 23
140.897701
 33
0.0
  0
3DFACE
  8
0
  6
CONTINUOUS
 62
   249
 10
66.206597
 20
140.0
 30
0.0
 11
66.219531
 21
139.991019
 31
0.0
 12
66.219531
 22
140.009068
 32
0.0
 13
66.206597
 23
140.0
 33
0.0
  0
3DFACE
  8
0
  6
CONTINUOUS
 62
   249
 10
66.219531
 20
139.991019
 30
0.0
 11
66.232465
 21
139.982038
 31
0.0
 12
66.232465
 22
140.018136
 32
0.0
 13
66.219531
 23
140.009068
 33
0.0
  0
3DFACE
  8
0
  6
CONTINUOUS
 62
   249
 10
66.232465
 20
139.982038
 30
0.0
 11
66.245399
 21
139.973057
 31
0.0
 12
66.245399
 22
140.027203
 32
0.0
 13
66.232465
 23
140.018136
 33
0.0
  0
3DFACE
  8
0
  6
CONTINUOUS
 62
   249
 10
66.245399
 20
139.973057
 30
0.0
 11
66.258333
 21
139.964077
 31
0.0
 12
66.258333
 22
140.036271
 32
0.0
 13
66.245399
 23
140.027203
 33
0.0
  0
3DFACE
  8
0
  6
CONTINUOUS
 62
   249
 10
66.258333
 20
139.964077
 30
0.0
 11
66.271267
 21
139.955096
 31
0.0
 12
66.271267
 22
140.045339
 32
0.0
 13
66.258333
 23
140.036271
 33
0.0
  0
3DFACE
  8
0
  6
CONTINUOUS
 62
   249
 10
66.271267
 20
139.955096
 30
0.0
 11
66.284202
 21
139.946115
 31
0.0
 12
66.284202
 22
140.054406
 32
0.0
 13
66.271267
 23
140.045339
 33
0.0
  0
3DFACE
  8
0
  6
CONTINUOUS
 62
   249
 10
66.284202
 20
139.946115
 30
0.0
 11
66.297136
 21
139.937134
 31
0.0
 12
66.297136
 22
140.063474
 32
0.0
 13
66.284202
 23
140.054406
 33
0.0
  0
3DFACE
  8
0
  6
CONTINUOUS
 62
   249
 10
66.297136
 20
139.937134
 30
0.0
 11
66.31007
 21
139.928153
 31
0.0
 12
66.31007
 22
140.072542
 32
0.0
 13
66.297136
 23
140.063474
 33
0.0
  0
3DFACE
  8
0
  6
CONTINUOUS
 62
   249
 10
66.31007
 20
139.928153
 30
0.0
 11
66.323004
 21
139.919172
 31
0.0
 12
66.323004
 22
140.081609
 32
0.0
 13
66.31007
 23
140.072542
 33
0.0
  0
3DFACE
  8
0
  6
CONTINUOUS
 62
   249
 10
66.323004
 20
139.919172
 30
0.0
 11
66.335938
 21
139.910191
 31
0.0
 12
66.335938
 22
140.090677
 32
0.0
 13
66.323004
 23
140.081609
 33
0.0
  0
3DFACE
  8
0
  6
CONTINUOUS
 62
   249
 10
66.335938
 20
139.910191
 30
0.0
 11
66.348872
 21
139.90121
 31
0.0
 12
66.348872
 22
140.099745
 32
0.0
 13
66.335938
 23
140.090677
 33
0.0
  0
3DFACE
  8
0
  6
CONTINUOUS
 62
   249
 10
66.348872
 20
139.90121
 30
0.0
 11
66.361806
 21
139.89223
 31
0.0
 12
66.361806
 22
140.108812
 32
0.0
 13
66.348872
 23
140.099745
 33
0.0
  0
3DFACE
  8
0
  6
CONTINUOUS
 62
   249
 10
66.361806
 20
139.89223
 30
0.0
 11
66.37474
 21
139.883249
 31
0.0
 12
66.37474
 22
140.11788
 32
0.0
 13
66.361806
 23
140.108812
 33
0.0
  0
3DFACE
  8
0
  6
CONTINUOUS
 62
   249
 10
66.37474
 20
139.883249
 30
0.0
 11
66.387674
 21
139.874268
 31
0.0
 12
66.387674
 22
140.126948
 32
0.0
 13
66.37474
 23
140.11788
 33
0.0
  0
3DFACE
  8
0
  6
CONTINUOUS
 62
   249
 10
66.387674
 20
139.874268
 30
0.0
 11
66.400608
 21
139.865287
 31
0.0
 12
66.400608
 22
140.136015
 32
0.0
 13
66.387674
 23
140.126948
 33
0.0
  0
3DFACE
  8
0
  6
CONTINUOUS
 62
   249
 10
66.400608
 20
139.865287
 30
0.0
 11
66.413542
 21
139.856306
 31
0.0
 12
66.413542
 22
140.145083
 32
0.0
 13
66.400608
 23
140.136015
 33
0.0
  0
3DFACE
  8
0
  6
CONTINUOUS
 62
   249
 10
66.413542
 20
139.856306
 30
0.0
 11
66.426476
 21
139.847325
 31
0.0
 12
66.426476
 22
140.154151
 32
0.0
 13
66.413542
 23
140.145083
 33
0.0
  0
3DFACE
  8
0
  6
CONTINUOUS
 62
   249
 10
66.426476
 20
139.847325
 30
0.0
 11
66.43941
 21
139.838344
 31
0.0
 12
66.43941
 22
140.163219
 32
0.0
 13
66.426476
 23
140.154151
 33
0.0
  0
3DFACE
  8
0
  6
CONTINUOUS
 62
   249
 10
66.43941
 20
139.838344
 30
0.0
 11
66.452344
 21
139.829363
 31
0.0
 12
66.452344
 22
140.172286
 32
0.0
 13
66.43941
 23
140.163219
 33
0.0
  0
3DFACE
  8
0
  6
CONTINUOUS
 62
   249
 10
66.452344
 20
139.829363
 30
0.0
 11
66.465278
 21
139.820383
 31
0.0
 12
66.465278
 22
140.181354
 32
0.0
 13
66.452344
 23
140.172286
 33
0.0
  0
3DFACE
  8
0
  6
CONTINUOUS
 62
   249
 10
66.465278
 20
139.820383
 30
0.0
 11
66.478212
 21
139.811402
 31
0.0
 12
66.478212
 22
140.190422
 32
0.0
 13
66.465278
 23
140.181354
 33
0.0
  0
3DFACE
  8
0
  6
CONTINUOUS
 62
   249
 10
66.478212
 20
139.811402
 30
0.0
 11
66.491146
 21
139.802421
 31
0.0
 12
66.491146
 22
140.199489
 32
0.0
 13
66.478212
 23
140.190422
 33
0.0
  0
3DFACE
  8
0
  6
CONTINUOUS
 62
   249
 10
66.491146
 20
139.802421
 30
0.0
 11
66.50408
 21
139.79344
 31
0.0
 12
66.50408
 22
140.208557
 32
0.0
 13
66.491146
 23
140.199489
 33
0.0
  0
3DFACE
  8
0
  6
CONTINUOUS
 62
   249
 10
66.50408
 20
139.79344
 30
0.0
 11
66.517014
 21
139.784459
 31
0.0
 12
66.517014
 22
140.217625
 32
0.0
 13
66.50408
 23
140.208557
 33
0.0
  0
3DFACE
  8
0
  6
CONTINUOUS
 62
   249
 10
66.517014
 20
139.784459
 30
0.0
 11
66.529948
 21
139.775478
 31
0.0
 12
66.529948
 22
140.226692
 32
0.0
 13
66.517014
 23
140.217625
 33
0.0
  0
3DFACE
  8
0
  6
CONTINUOUS
 62
   249
 10
66.529948
 20
139.775478
 30
0.0
 11
66.542882
 21
139.766497
 31
0.0
 12
66.542882
 22
140.23576
 32
0.0
 13
66.529948
 23
140.226692
 33
0.0
  0
3DFACE
  8
0
  6
CONTINUOUS
 62
   249
 10
66.542882
 20
139.766497
 30
0.0
 11
66.555816
 21
139.757516
 31
0.0
 12
66.555816
 22
140.244828
 32
0.0
 13
66.542882
 23
140.23576
 33
0.0
  0
3DFACE
  8
0
  6
CONTINUOUS
 62
   249
 10
66.555816
 20
139.757516
 30
0.0
 11
66.56875
 21
139.748536
 31
0.0
 12
66.56875
 22
140.253895
 32
0.0
 13
66.555816
 23
140.244828
 33
0.0
  0
3DFACE
  8
0
  6
CONTINUOUS
 62
   249
 10
66.56875
 20
139.748536
 30
0.0
 11
66.581684
 21
139.739555
 31
0.0
 12
66.581684
 22
140.262963
 32
0.0
 13
66.56875
 23
140.253895
 33
0.0
  0
3DFACE
  8
0
  6
CONTINUOUS
 62
   249
 10
66.581684
 20
139.739555
 30
0.0
 11
66.594618
 21
139.730574
 31
0.0
 12
66.594618
 22
140.272031
 32
0.0
 13
66.581684
 23
140.262963
 33
0.0
  0
3DFACE
  8
0
  6
CONTINUOUS
 62
   249
 10
66.594618
 20
139.730574
 30
0.0
 11
66.607552
 21
139.721593
 31
0.0
 12
66.607552
 22
140.281098
 32
0.0
 13
66.594618
 23
140.272031
 33
0.0
  0
3DFACE
  8
0
  6
CONTINUOUS
 62
   249
 10
66.607552
 20
139.721593
 30
0.0
 11
66.620486
 21
139.712612
 31
0.0
 12
66.620486
 22
140.290166
 32
0.0
 13
66.607552
 23
140.281098
 33
0.0
  0
3DFACE
  8
0
  6
CONTINUOUS
 62
   249
 10
66.620486
 20
139.712612
 30
0.0
 11
66.63342
 21
139.703631
 31
0.0
 12
66.63342
 22
140.299234
 32
0.0
 13
66.620486
 23
140.290166
 33
0.0
  0
3DFACE
  8
0
  6
CONTINUOUS
 62
   249
 10
66.63342
 20
139.703631
 30
0.0
 11
66.646354
 21
139.69465
 31
0.0
 12
66.646354
 22
140.308301
 32
0.0
 13
66.63342
 23
140.299234
 33
0.0
  0
3DFACE
  8
0
  6
CONTINUOUS
 62
   249
 10
66.646354
 20
139.69465
 30
0.0
 11
66.659288
 21
139.685669
 31
0.0
 12
66.659288
 22
140.317369
 32
0.0
 13
66.646354
 23
140.308301
 33
0.0
  0
3DFACE
  8
0
  6
CONTINUOUS
 62
   249
 10
66.659288
 20
139.685669
 30
0.0
 11
66.672222
 21
139.676689
 31
0.0
 12
66.672222
 22
140.326437
 32
0.0
 13
66.659288
 23
140.317369
 33
0.0
  0
3DFACE
  8
0
  6
CONTINUOUS
 62
   249
 10
66.672222
 20
139.676689
 30
0.0
 11
66.685156
 21
139.667708
 31
0.0
 12
66.685156
 22
140.335505
 32
0.0
 13
66.672222
 23
140.326437
 33
0.0
  0
3DFACE
  8
0
  6
CONTINUOUS
 62
   249
 10
66.685156
 20
139.667708
 30
0.0
 11
66.69809
 21
139.658727
 31
0.0
 12
66.69809
 22
140.344572
 32
0.0
 13
66.685156
 23
140.335505
 33
0.0
  0
3DFACE
  8
0
  6
CONTINUOUS
 62
   249
 10
66.69809
 20
139.658727
 30
0.0
 11
66.711024
 21
139.649746
 31
0.0
 12
66.711024
 22
140.35364
 32
0.0
 13
66.69809
 23
140.344572
 33
0.0
  0
3DFACE
  8
0
  6
CONTINUOUS
 62
   249
 10
66.711024
 20
139.649746
 30
0.0
 11
66.723958
 21
139.640765
 31
0.0
 12
66.723958
 22
140.362708
 32
0.0
 13
66.711024
 23
140.35364
 33
0.0
  0
3DFACE
  8
0
  6
CONTINUOUS
 62
   249
 10
66.723958
 20
139.640765
 30
0.0
 11
66.736892
 21
139.631784
 31
0.0
 12
66.736892
 22
140.371775
 32
0.0
 13
66.723958
 23
140.362708
 33
0.0
  0
3DFACE
  8
0
  6
CONTINUOUS
 62
   249
 10
66.736892
 20
139.631784
 30
0.0
 11
66.749826
 21
139.622803
 31
0.0
 12
66.749826
 22
140.380843
 32
0.0
 13
66.736892
 23
140.371775
 33
0.0
  0
3DFACE
  8
0
  6
CONTINUOUS
 62
   249
 10
66.749826
 20
139.622803
 30
0.0
 11
66.76276
 21
139.613822
 31
0.0
 12
66.76276
 22
140.389911
 32
0.0
 13
66.749826
 23
140.380843
 33
0.0
  0
3DFACE
  8
0
  6
CONTINUOUS
 62
   249
 10
66.76276
 20
139.613822
 30
0.0
 11
66.775695
 21
139.604842
 31
0.0
 12
66.775695
 22
140.398978
 32
0.0
 13
66.76276
 23
140.389911
 33
0.0
  0
3DFACE
  8
0
  6
CONTINUOUS
 62
   249
 10
66.775695
 20
139.604842
 30
0.0
 11
66.788629
 21
139.595861
 31
0.0
 12
66.788629
 22
140.408046
 32
0.0
 13
66.775695
 23
140.398978
 33
0.0
  0
3DFACE
  8
0
  6
CONTINUOUS
 62
   249
 10
66.788629
 20
139.595861
 30
0.0
 11
66.801563
 21
139.58688
 31
0.0
 12
66.801563
 22
140.417114
 32
0.0
 13
66.788629
 23
140.408046
 33
0.0
  0
3DFACE
  8
0
  6
CONTINUOUS
 62
   249
 10
66.801563
 20
139.58688
 30
0.0
 11
66.814497
 21
139.577899
 31
0.0
 12
66.814497
 22
140.426181
 32
0.0
 13
66.801563
 23
140.417114
 33
0.0
  0
3DFACE
  8
0
  6
CONTINUOUS
 62
   249
 10
66.814497
 20
139.577899
 30
0.0
 11
66.827431
 21
139.568918
 31
0.0
 12
66.827431
 22
140.435249
 32
0.0
 13
66.814497
 23
140.426181
 33
0.0
  0
3DFACE
  8
0
  6
CONTINUOUS
 62
   249
 10
66.827431
 20
139.568918
 30
0.0
 11
66.840365
 21
139.559937
 31
0.0
 12
66.840365
 22
140.444317
 32
0.0
 13
66.827431
 23
140.435249
 33
0.0
  0
3DFACE
  8
0
  6
CONTINUOUS
 62
   249
 10
66.840365
 20
139.559937
 30
0.0
 11
66.853299
 21
139.550956
 31
0.0
 12
66.853299
 22
140.453384
 32
0.0
 13
66.840365
 23
140.444317
 33
0.0
  0
3DFACE
  8
0
  6
CONTINUOUS
 62
   249
 10
66.853299
 20
139.550956
 30
0.0
 11
66.866233
 21
139.541975
 31
0.0
 12
66.866233
 22
140.462452
 32
0.0
 13
66.853299
 23
140.453384
 33
0.0
  0
3DFACE
  8
0
  6
CONTINUOUS
 62
   249
 10
66.866233
 20
139.541975
 30
0.0
 11
66.879167
 21
139.532995
 31
0.0
 12
66.879167
 22
140.47152
 32
0.0
 13
66.866233
 23
140.462452
 33
0.0
  0
3DFACE
  8
0
  6
CONTINUOUS
 62
   249
 10
66.879167
 20
139.532995
 30
0.0
 11
66.892101
 21
139.524014
 31
0.0
 12
66.892101
 22
140.480588
 32
0.0
 13
66.879167
 23
140.47152
 33
0.0
  0
3DFACE
  8
0
  6
CONTINUOUS
 62
   249
 10
66.892101
 20
139.524014
 30
0.0
 11
66.905035
 21
139.515033
 31
0.0
 12
66.905035
 22
140.489655
 32
0.0
 13
66.892101
 23
140.480588
 33
0.0
  0
3DFACE
  8
0
  6
CONTINUOUS
 62
   249
 10
66.905035
 20
139.515033
 30
0.0
 11
66.917969
 21
139.506052
 31
0.0
 12
66.917969
 22
140.498723
 32
0.0
 13
66.905035
 23
140.489655
 33
0.0
  0
3DFACE
  8
0
  6
CONTINUOUS
 62
   249
 10
66.917969
 20
139.506052
 30
0.0
 11
66.930903
 21
139.497071
 31
0.0
 12
66.930903
 22
140.507791
 32
0.0
 13
66.917969
 23
140.498723
 33
0.0
  0
3DFACE
  8
0
  6
CONTINUOUS
 62
   249
 10
66.930903
 20
139.497071
 30
0.0
 11
66.943837
 21
139.48809
 31
0.0
 12
66.943837
 22
140.516858
 32
0.0
 13
66.930903
 23
140.507791
 33
0.0
  0
3DFACE
  8
0
  6
CONTINUOUS
 62
   249
 10
66.943837
 20
139.48809
 30
0.0
 11
66.956771
 21
139.479109
 31
0.0
 12
66.956771
 22
140.525926
 32
0.0
 13
66.943837
 23
140.516858
 33
0.0
  0
3DFACE
  8
0
  6
CONTINUOUS
 62
   249
 10
66.956771
 20
139.479109
 30
0.0
 11
66.969705
 21
139.470128
 31
0.0
 12
66.969705
 22
140.534994
 32
0.0
 13
66.956771
 23
140.525926
 33
0.0
  0
3DFACE
  8
0
  6
CONTINUOUS
 62
   249
 10
66.969705
 20
139.470128
 30
0.0
 11
66.982639
 21
139.461147
 31
0.0
 12
66.982639
 22
140.544061
 32
0.0
 13
66.969705
 23
140.534994
 33
0.0
  0
3DFACE
  8
0
  6
CONTINUOUS
 62
   249
 10
66.982639
 20
139.461147
 30
0.0
 11
66.995573
 21
139.452167
 31
0.0
 12
66.995573
 22
140.553129
 32
0.0
 13
66.982639
 23
140.544061
 33
0.0
  0
3DFACE
  8
0
  6
CONTINUOUS
 62
   249
 10
66.995573
 20
139.452167
 30
0.0
 11
67.008507
 21
139.443186
 31
0.0
 12
67.008507
 22
140.562197
 32
0.0
 13
66.995573
 23
140.553129
 33
0.0
  0
3DFACE
  8
0
  6
CONTINUOUS
 62
   249
 10
67.008507
 20
139.443186
 30
0.0
 11
67.021441
 21
139.434205
 31
0.0
 12
67.021441
 22
140.571264
 32
0.0
 13
67.008507
 23
140.562197
 33
0.0
  0
3DFACE
  8
0
  6
CONTINUOUS
 62
   249
 10
67.021441
 20
139.434205
 30
0.0
 11
67.034375
 21
139.425224
 31
0.0
 12
67.034375
 22
140.580332
 32
0.0
 13
67.021441
 23
140.571264
 33
0.0
  0
3DFACE
  8
0
  6
CONTINUOUS
 62
   249
 10
67.034375
 20
139.425224
 30
0.0
 11
67.047309
 21
139.416243
 31
0.0
 12
67.047309
 22
140.5894
 32
0.0
 13
67.034375
 23
140.580332
 33
0.0
  0
3DFACE
  8
0
  6
CONTINUOUS
 62
   249
 10
67.047309
 20
139.416243
 30
0.0
 11
67.060243
 21
139.407262
 31
0.0
 12
67.060243
 22
140.598467
 32
0.0
 13
67.047309
 23
140.5894
 33
0.0
  0
3DFACE
  8
0
  6
CONTINUOUS
 62
   249
 10
67.060243
 20
139.407262
 30
0.0
 11
67.073177
 21
139.398281
 31
0.0
 12
67.073177
 22
140.607535
 32
0.0
 13
67.060243
 23
140.598467
 33
0.0
  0
3DFACE
  8
0
  6
CONTINUOUS
 62
   249
 10
67.073177
 20
139.398281
 30
0.0
 11
67.086111
 21
139.3893
 31
0.0
 12
67.086111
 22
140.616603
 32
0.0
 13
67.073177
 23
140.607535
 33
0.0
  0
3DFACE
  8
0
  6
CONTINUOUS
 62
   249
 10
67.086111
 20
139.3893
 30
0.0
 11
67.099045
 21
139.38032
 31
0.0
 12
67.099045
 22
140.625671
 32
0.0
 13
67.086111
 23
140.616603
 33
0.0
  0
3DFACE
  8
0
  6
CONTINUOUS
 62
   249
 10
67.099045
 20
139.38032
 30
0.0
 11
67.111979
 21
139.371339
 31
0.0
 12
67.111979
 22
140.634738
 32
0.0
 13
67.099045
 23
140.625671
 33
0.0
  0
3DFACE
  8
0
  6
CONTINUOUS
 62
   249
 10
67.111979
 20
139.371339
 30
0.0
 11
67.124913
 21
139.362358
 31
0.0
 12
67.124913
 22
140.643806
 32
0.0
 13
67.111979
 23
140.634738
 33
0.0
  0
3DFACE
  8
0
  6
CONTINUOUS
 62
   249
 10
67.124913
 20
139.362358
 30
0.0
 11
67.137847
 21
139.353377
 31
0.0
 12
67.137847
 22
140.652874
 32
0.0
 13
67.124913
 23
140.643806
 33
0.0
  0
3DFACE
  8
0
  6
CONTINUOUS
 62
   249
 10
67.137847
 20
139.353377
 30
0.0
 11
67.150781
 21
139.344396
 31
0.0
 12
67.150781
 22
140.661941
 32
0.0
 13
67.137847
 23
140.652874
 33
0.0
  0
3DFACE
  8
0
  6
CONTINUOUS
 62
   249
 10
67.150781
 20
139.344396
 30
0.0
 11
67.163715
 21
139.335415
 31
0.0
 12
67.163715
 22
140.671009
 32
0.0
 13
67.150781
 23
140.661941
 33
0.0
  0
3DFACE
  8
0
  6
CONTINUOUS
 62
   249
 10
67.163715
 20
139.335415
 30
0.0
 11
67.176649
 21
139.326434
 31
0.0
 12
67.176649
 22
140.680077
 32
0.0
 13
67.163715
 23
140.671009
 33
0.0
  0
3DFACE
  8
0
  6
CONTINUOUS
 62
   249
 10
67.176649
 20
139.326434
 30
0.0
 11
67.189583
 21
139.317453
 31
0.0
 12
67.189583
 22
140.689144
 32
0.0
 13
67.176649
 23
140.680077
 33
0.0
  0
3DFACE
  8
0
  6
CONTINUOUS
 62
   249
 10
67.189583
 20
139.317453
 30
0.0
 11
67.202517
 21
139.308473
 31
0.0
 12
67.202517
 22
140.698212
 32
0.0
 13
67.189583
 23
140.689144
 33
0.0
  0
3DFACE
  8
0
  6
CONTINUOUS
 62
   249
 10
67.202517
 20
139.308473
 30
0.0
 11
67.215451
 21
139.299492
 31
0.0
 12
67.215451
 22
140.70728
 32
0.0
 13
67.202517
 23
140.698212
 33
0.0
  0
3DFACE
  8
0
  6
CONTINUOUS
 62
   249
 10
67.215451
 20
139.299492
 30
0.0
 11
67.228385
 21
139.290511
 31
0.0
 12
67.228385
 22
140.716347
 32
0.0
 13
67.215451
 23
140.70728
 33
0.0
  0
3DFACE
  8
0
  6
CONTINUOUS
 62
   249
 10
67.228385
 20
139.290511
 30
0.0
 11
67.241319
 21
139.28153
 31
0.0
 12
67.241319
 22
140.725415
 32
0.0
 13
67.228385
 23
140.716347
 33
0.0
  0
3DFACE
  8
0
  6
CONTINUOUS
 62
   249
 10
67.241319
 20
139.28153
 30
0.0
 11
67.254253
 21
139.272549
 31
0.0
 12
67.254253
 22
140.734483
 32
0.0
 13
67.241319
 23
140.725415
 33
0.0
  0
3DFACE
  8
0
  6
CONTINUOUS
 62
   249
 10
67.254253
 20
139.272549
 30
0.0
 11
67.267188
 21
139.263568
 31
0.0
 12
67.267188
 22
140.74355
 32
0.0
 13
67.254253
 23
140.734483
 33
0.0
  0
3DFACE
  8
0
  6
CONTINUOUS
 62
   249
 10
67.267188
 20
139.263568
 30
0.0
 11
67.280122
 21
139.254587
 31
0.0
 12
67.280122
 22
140.752618
 32
0.0
 13
67.267188
 23
140.74355
 33
0.0
  0
3DFACE
  8
0
  6
CONTINUOUS
 62
   249
 10
67.280122
 20
139.254587
 30
0.0
 11
67.293056
 21
139.245606
 31
0.0
 12
67.293056
 22
140.761686
 32
0.0
 13
67.280122
 23
140.752618
 33
0.0
  0
3DFACE
  8
0
  6
CONTINUOUS
 62
   249
 10
67.293056
 20
139.245606
 30
0.0
 11
67.30599
 21
139.236626
 31
0.0
 12
67.30599
 22
140.770754
 32
0.0
 13
67.293056
 23
140.761686
 33
0.0
  0
3DFACE
  8
0
  6
CONTINUOUS
 62
   249
 10
67.30599
 20
139.236626
 30
0.0
 11
67.318924
 21
139.227645
 31
0.0
 12
67.318924
 22
140.779821
 32
0.0
 13
67.30599
 23
140.770754
 33
0.0
  0
3DFACE
  8
0
  6
CONTINUOUS
 62
   249
 10
67.318924
 20
139.227645
 30
0.0
 11
67.331858
 21
139.218664
 31
0.0
 12
67.331858
 22
140.788889
 32
0.0
 13
67.318924
 23
140.779821
 33
0.0
  0
3DFACE
  8
0
  6
CONTINUOUS
 62
   249
 10
67.331858
 20
139.218664
 30
0.0
 11
67.344792
 21
139.209683
 31
0.0
 12
67.344792
 22
140.797957
 32
0.0
 13
67.331858
 23
140.788889
 33
0.0
  0
3DFACE
  8
0
  6
CONTINUOUS
 62
   249
 10
67.344792
 20
139.209683
 30
0.0
 11
67.357726
 21
139.200702
 31
0.0
 12
67.357726
 22
140.807024
 32
0.0
 13
67.344792
 23
140.797957
 33
0.0
  0
3DFACE
  8
0
  6
CONTINUOUS
 62
   249
 10
67.357726
 20
139.200702
 30
0.0
 11
67.37066
 21
139.191721
 31
0.0
 12
67.37066
 22
140.816092
 32
0.0
 13
67.357726
 23
140.807024
 33
0.0
  0
3DFACE
  8
0
  6
CONTINUOUS
 62
   249
 10
67.37066
 20
139.191721
 30
0.0
 11
67.383594
 21
139.18274
 31
0.0
 12
67.383594
 22
140.82516
 32
0.0
 13
67.37066
 23
140.816092
 33
0.0
  0
3DFACE
  8
0
  6
CONTINUOUS
 62
   249
 10
67.383594
 20
139.18274
 30
0.0
 11
67.396528
 21
139.173759
 31
0.0
 12
67.396528
 22
140.834227
 32
0.0
 13
67.383594
 23
140.82516
 33
0.0
  0
3DFACE
  8
0
  6
CONTINUOUS
 62
   249
 10
67.396528
 20
139.173759
 30
0.0
 11
67.409462
 21
139.164779
 31
0.0
 12
67.409462
 22
140.843295
 32
0.0
 13
67.396528
 23
140.834227
 33
0.0
  0
3DFACE
  8
0
  6
CONTINUOUS
 62
   249
 10
67.409462
 20
139.164779
 30
0.0
 11
67.422396
 21
139.155798
 31
0.0
 12
67.422396
 22
140.852363
 32
0.0
 13
67.409462
 23
140.843295
 33
0.0
  0
3DFACE
  8
0
  6
CONTINUOUS
 62
   249
 10
67.422396
 20
139.155798
 30
0.0
 11
67.43533
 21
139.146817
 31
0.0
 12
67.43533
 22
140.86143
 32
0.0
 13
67.422396
 23
140.852363
 33
0.0
  0
3DFACE
  8
0
  6
CONTINUOUS
 62
   249
 10
67.43533
 20
139.146817
 30
0.0
 11
67.448264
 21
139.137836
 31
0.0
 12
67.448264
 22
140.870498
 32
0.0
 13
67.43533
 23
140.86143
 33
0.0
  0
3DFACE
  8
0
  6
CONTINUOUS
 62
   249
 10
67.448264
 20
139.137836
 30
0.0
 11
67.461198
 21
139.128855
 31
0.0
 12
67.461198
 22
140.879566
 32
0.0
 13
67.448264
 23
140.870498
 33
0.0
  0
3DFACE
  8
0
  6
CONTINUOUS
 62
   249
 10
67.461198
 20
139.128855
 30
0.0
 11
67.474132
 21
139.119874
 31
0.0
 12
67.474132
 22
140.888633
 32
0.0
 13
67.461198
 23
140.879566
 33
0.0
  0
3DFACE
  8
0
  6
CONTINUOUS
 62
   249
 10
67.474132
 20
139.119874
 30
0.0
 11
67.487066
 21
139.110893
 31
0.0
 12
67.487066
 22
140.897701
 32
0.0
 13
67.474132
 23
140.888633
 33
0.0
  0
3DFACE
  8
0
  6
CONTINUOUS
 62
   249
 10
67.487066
 20
139.110893
 30
0.0
 11
67.5
 21
139.101912
 31
0.0
 12
67.5
 22
140.906769
 32
0.0
 13
67.487066
 23
140.897701
 33
0.0
  0
TEXT
  8
0
  6
DASHED
 62
   249
 10
45.80404
 20
158.360399
 30
0.0
 40
1.5
  1
0,1...1s
  7
ROMANS
  0
LINE
  8
0
 62
   249
 10
45.124188
 20
164.3384
 30
0.0
 11
45.124188
 21
156.148475
 31
0.0
  0
LINE
  8
0
 62
   249
 10
54.901872
 20
164.3384
 30
0.0
 11
45.124188
 21
164.3384
 31
0.0
  0
LINE
  8
0
 62
   249
 10
45.124188
 20
156.148475
 30
0.0
 11
54.901872
 21
156.148475
 31
0.0
  0
LINE
  8
0
 62
   249
 10
54.901872
 20
156.148475
 30
0.0
 11
54.901872
 21
164.3384
 31
0.0
  0
LINE
  8
0
 62
   249
 10
52.759106
 20
163.044745
 30
0.0
 11
52.759106
 21
161.608365
 31
0.0
  0
LINE
  8
0
 62
   249
 10
47.442192
 20
163.044745
 30
0.0
 11
47.442192
 21
161.608365
 31
0.0
  0
LINE
  8
0
 62
   249
 10
47.442192
 20
162.326555
 30
0.0
 11
52.76563
 21
162.326555
 31
0.0
  0
TEXT
  8
0
  6
CONTINUOUS
 62
   249
 10
26.844763
 20
204.00558
 30
0.0
 40
2.0
  1
-
  0
TEXT
  8
0
  6
CONTINUOUS
 62
   249
 10
26.853328
 20
209.013635
 30
0.0
 40
2.0
  1
+
  0
LINE
  8
0
 62
   249
 10
21.491073
 20
208.135937
 30
0.0
 11
25.491073
 21
208.135937
 31
0.0
  0
INSERT
  8
0
 62
   249
  2
WKU130
 10
21.831022
 20
206.410384
 30
0.0
 41
0.8
 42
0.8
 43
0.8
  0
ARC
  8
0
  6
CONTINUOUS
 62
   249
 10
135.0
 20
172.5
 30
0.0
 40
0.5
 50
180.0
 51
0.0
  0
ARC
  8
0
  6
CONTINUOUS
 62
   249
 10
135.0
 20
172.5
 30
0.0
 40
0.5
 50
0.0
 51
180.0
  0
ARC
  8
0
  6
CONTINUOUS
 62
   249
 10
82.5
 20
156.393212
 30
0.0
 40
0.5
 50
180.0
 51
0.0
  0
ARC
  8
0
  6
CONTINUOUS
 62
   249
 10
82.5
 20
156.393212
 30
0.0
 40
0.5
 50
0.0
 51
180.0
  0
ARC
  8
0
  6
CONTINUOUS
 62
   249
 10
80.0
 20
164.231945
 30
0.0
 40
0.5
 50
180.0
 51
0.0
  0
ARC
  8
0
  6
CONTINUOUS
 62
   249
 10
80.0
 20
164.231945
 30
0.0
 40
0.5
 50
0.0
 51
180.0
  0
ARC
  8
0
  6
CONTINUOUS
 62
   249
 10
97.5
 20
156.393212
 30
0.0
 40
0.5
 50
180.0
 51
0.0
  0
ARC
  8
0
  6
CONTINUOUS
 62
   249
 10
97.5
 20
156.393212
 30
0.0
 40
0.5
 50
0.0
 51
180.0
  0
ARC
  8
0
  6
CONTINUOUS
 62
   249
 10
95.0
 20
164.231945
 30
0.0
 40
0.5
 50
180.0
 51
0.0
  0
ARC
  8
0
  6
CONTINUOUS
 62
   249
 10
95.0
 20
164.231945
 30
0.0
 40
0.5
 50
0.0
 51
180.0
  0
ARC
  8
0
  6
CONTINUOUS
 62
   249
 10
77.5
 20
181.68117
 30
0.0
 40
0.5
 50
180.0
 51
0.0
  0
ARC
  8
0
  6
CONTINUOUS
 62
   249
 10
77.5
 20
181.68117
 30
0.0
 40
0.5
 50
0.0
 51
180.0
  0
ARC
  8
0
  6
CONTINUOUS
 62
   249
 10
92.5
 20
181.68117
 30
0.0
 40
0.5
 50
180.0
 51
0.0
  0
ARC
  8
0
  6
CONTINUOUS
 62
   249
 10
92.5
 20
181.68117
 30
0.0
 40
0.5
 50
0.0
 51
180.0
  0
ARC
  8
0
  6
CONTINUOUS
 62
   249
 10
75.0
 20
194.139282
 30
0.0
 40
0.5
 50
180.0
 51
0.0
  0
ARC
  8
0
  6
CONTINUOUS
 62
   249
 10
75.0
 20
194.139282
 30
0.0
 40
0.5
 50
0.0
 51
180.0
  0
ARC
  8
0
  6
CONTINUOUS
 62
   249
 10
90.0
 20
194.139282
 30
0.0
 40
0.5
 50
180.0
 51
0.0
  0
ARC
  8
0
  6
CONTINUOUS
 62
   249
 10
90.0
 20
194.139282
 30
0.0
 40
0.5
 50
0.0
 51
180.0
  0
ARC
  8
0
  6
CONTINUOUS
 62
   249
 10
132.5
 20
177.5
 30
0.0
 40
0.5
 50
180.0
 51
0.0
  0
ARC
  8
0
  6
CONTINUOUS
 62
   249
 10
132.5
 20
177.5
 30
0.0
 40
0.5
 50
0.0
 51
180.0
  0
ARC
  8
0
  6
CONTINUOUS
 62
   249
 10
130.0
 20
181.68117
 30
0.0
 40
0.5
 50
180.0
 51
0.0
  0
ARC
  8
0
  6
CONTINUOUS
 62
   249
 10
130.0
 20
181.68117
 30
0.0
 40
0.5
 50
0.0
 51
180.0
  0
ARC
  8
0
  6
CONTINUOUS
 62
   249
 10
127.5
 20
190.0
 30
0.0
 40
0.5
 50
180.0
 51
0.0
  0
ARC
  8
0
  6
CONTINUOUS
 62
   249
 10
127.5
 20
190.0
 30
0.0
 40
0.5
 50
0.0
 51
180.0
  0
ARC
  8
0
  6
CONTINUOUS
 62
   249
 10
122.5
 20
202.5
 30
0.0
 40
0.5
 50
180.0
 51
0.0
  0
ARC
  8
0
  6
CONTINUOUS
 62
   249
 10
122.5
 20
202.5
 30
0.0
 40
0.5
 50
0.0
 51
180.0
  0
ARC
  8
0
  6
CONTINUOUS
 62
   249
 10
125.0
 20
194.139282
 30
0.0
 40
0.5
 50
180.0
 51
0.0
  0
ARC
  8
0
  6
CONTINUOUS
 62
   249
 10
125.0
 20
194.139282
 30
0.0
 40
0.5
 50
0.0
 51
180.0
  0
LINE
  8
0
  6
CONTINUOUS
 62
   249
 10
193.863954
 20
171.804464
 30
0.0
 11
194.750841
 21
171.804464
 31
0.0
  0
LINE
  8
0
  6
CONTINUOUS
 62
   249
 10
193.532849
 20
172.416097
 30
0.0
 11
195.117421
 21
172.416097
 31
0.0
  0
LINE
  8
0
  6
CONTINUOUS
 62
   249
 10
194.348785
 20
173.03816
 30
0.0
 11
195.543126
 21
173.03816
 31
0.0
  0
LINE
  8
0
  6
CONTINUOUS
 62
   249
 10
193.154444
 20
173.03816
 30
0.0
 11
194.348785
 21
173.03816
 31
0.0
  0
LINE
  8
0
  6
CONTINUOUS
 62
   249
 10
194.364672
 20
174.39243
 30
0.0
 11
194.364672
 21
173.03816
 31
0.0
  0
LINE
  8
0
  6
CONTINUOUS
 62
   249
 10
171.861535
 20
170.451946
 30
0.0
 11
172.748422
 21
170.451946
 31
0.0
  0
LINE
  8
0
  6
CONTINUOUS
 62
   249
 10
171.530431
 20
171.06358
 30
0.0
 11
173.115002
 21
171.06358
 31
0.0
  0
LINE
  8
0
  6
CONTINUOUS
 62
   249
 10
172.346367
 20
171.685642
 30
0.0
 11
173.540708
 21
171.685642
 31
0.0
  0
LINE
  8
0
  6
CONTINUOUS
 62
   249
 10
171.152026
 20
171.685642
 30
0.0
 11
172.346367
 21
171.685642
 31
0.0
  0
LINE
  8
0
  6
CONTINUOUS
 62
   249
 10
172.362254
 20
173.039912
 30
0.0
 11
172.362254
 21
171.685642
 31
0.0
  0
LINE
  8
0
  6
CONTINUOUS
 62
   249
 10
165.266539
 20
171.164654
 30
0.0
 11
162.920774
 21
172.500008
 31
0.0
  0
LINE
  8
0
  6
CONTINUOUS
 62
   249
 10
162.920774
 20
172.500008
 30
0.0
 11
165.266539
 21
173.689927
 31
0.0
  0
ARC
  8
0
  6
CONTINUOUS
 62
   249
 10
150.0
 20
150.719573
 30
0.0
 40
0.5
 50
180.0
 51
0.0
  0
ARC
  8
0
  6
CONTINUOUS
 62
   249
 10
150.0
 20
150.719573
 30
0.0
 40
0.5
 50
0.0
 51
180.0
  0
ARC
  8
0
  6
CONTINUOUS
 62
   249
 10
150.0
 20
167.877043
 30
0.0
 40
0.5
 50
180.0
 51
0.0
  0
ARC
  8
0
  6
CONTINUOUS
 62
   249
 10
150.0
 20
167.877043
 30
0.0
 40
0.5
 50
0.0
 51
180.0
  0
ARC
  8
0
  6
CONTINUOUS
 62
   249
 10
150.0
 20
160.170555
 30
0.0
 40
0.5
 50
180.0
 51
0.0
  0
ARC
  8
0
  6
CONTINUOUS
 62
   249
 10
150.0
 20
160.170555
 30
0.0
 40
0.5
 50
0.0
 51
180.0
  0
ARC
  8
0
  6
CONTINUOUS
 62
   249
 10
140.0
 20
156.393212
 30
0.0
 40
0.5
 50
180.0
 51
0.0
  0
ARC
  8
0
  6
CONTINUOUS
 62
   249
 10
140.0
 20
156.393212
 30
0.0
 40
0.5
 50
0.0
 51
180.0
  0
ARC
  8
0
  6
CONTINUOUS
 62
   249
 10
137.5
 20
164.231945
 30
0.0
 40
0.5
 50
180.0
 51
0.0
  0
ARC
  8
0
  6
CONTINUOUS
 62
   249
 10
137.5
 20
164.231945
 30
0.0
 40
0.5
 50
0.0
 51
180.0
  0
LINE
  8
0
  6
CONTINUOUS
 62
   249
 10
165.266539
 20
155.05792
 30
0.0
 11
162.920774
 21
156.393273
 31
0.0
  0
LINE
  8
0
  6
CONTINUOUS
 62
   249
 10
162.920774
 20
156.393273
 30
0.0
 11
165.266539
 21
157.583193
 31
0.0
  0
LINE
  8
0
  6
CONTINUOUS
 62
   249
 10
165.266539
 20
162.896523
 30
0.0
 11
162.920774
 21
164.231877
 31
0.0
  0
LINE
  8
0
  6
CONTINUOUS
 62
   249
 10
162.920774
 20
164.231877
 30
0.0
 11
165.266539
 21
165.421796
 31
0.0
  0
LINE
  8
0
  6
CONTINUOUS
 62
   249
 10
172.053069
 20
155.74765
 30
0.0
 11
172.939956
 21
155.74765
 31
0.0
  0
LINE
  8
0
  6
CONTINUOUS
 62
   249
 10
171.721964
 20
156.359284
 30
0.0
 11
173.306536
 21
156.359284
 31
0.0
  0
LINE
  8
0
  6
CONTINUOUS
 62
   249
 10
172.5379
 20
156.981346
 30
0.0
 11
173.732241
 21
156.981346
 31
0.0
  0
LINE
  8
0
  6
CONTINUOUS
 62
   249
 10
171.343559
 20
156.981346
 30
0.0
 11
172.5379
 21
156.981346
 31
0.0
  0
LINE
  8
0
  6
CONTINUOUS
 62
   249
 10
172.553787
 20
158.335616
 30
0.0
 11
172.553787
 21
156.981346
 31
0.0
  0
LINE
  8
0
  6
CONTINUOUS
 62
   249
 10
172.053069
 20
163.117138
 30
0.0
 11
172.939956
 21
163.117138
 31
0.0
  0
LINE
  8
0
  6
CONTINUOUS
 62
   249
 10
171.721964
 20
163.728772
 30
0.0
 11
173.306536
 21
163.728772
 31
0.0
  0
LINE
  8
0
  6
CONTINUOUS
 62
   249
 10
172.5379
 20
164.350834
 30
0.0
 11
173.732241
 21
164.350834
 31
0.0
  0
LINE
  8
0
  6
CONTINUOUS
 62
   249
 10
171.343559
 20
164.350834
 30
0.0
 11
172.5379
 21
164.350834
 31
0.0
  0
LINE
  8
0
  6
CONTINUOUS
 62
   249
 10
172.553787
 20
165.705104
 30
0.0
 11
172.553787
 21
164.350834
 31
0.0
  0
LINE
  8
0
  6
CONTINUOUS
 62
   249
 10
190.984616
 20
159.156785
 30
0.0
 11
189.735943
 21
159.867607
 31
0.0
  0
LINE
  8
0
  6
CONTINUOUS
 62
   249
 10
189.735943
 20
159.867607
 30
0.0
 11
190.984616
 21
160.501012
 31
0.0
  0
LINE
  8
0
  6
CONTINUOUS
 62
   249
 10
194.608981
 20
160.591743
 30
0.0
 11
195.857655
 21
159.880922
 31
0.0
  0
LINE
  8
0
  6
CONTINUOUS
 62
   249
 10
195.857655
 20
159.880922
 30
0.0
 11
194.608981
 21
159.247517
 31
0.0
  0
LINE
  8
0
  6
CONTINUOUS
 62
   249
 10
194.055487
 20
164.469656
 30
0.0
 11
194.942374
 21
164.469656
 31
0.0
  0
LINE
  8
0
  6
CONTINUOUS
 62
   249
 10
193.724383
 20
165.081289
 30
0.0
 11
195.308954
 21
165.081289
 31
0.0
  0
LINE
  8
0
  6
CONTINUOUS
 62
   249
 10
194.540319
 20
165.703352
 30
0.0
 11
195.73466
 21
165.703352
 31
0.0
  0
LINE
  8
0
  6
CONTINUOUS
 62
   249
 10
193.345978
 20
165.703352
 30
0.0
 11
194.540319
 21
165.703352
 31
0.0
  0
LINE
  8
0
  6
CONTINUOUS
 62
   249
 10
194.556206
 20
167.057622
 30
0.0
 11
194.556206
 21
165.703352
 31
0.0
  0
LINE
  8
0
  6
CONTINUOUS
 62
   249
 10
165.266539
 20
192.80467
 30
0.0
 11
162.920774
 21
194.140024
 31
0.0
  0
LINE
  8
0
  6
CONTINUOUS
 62
   249
 10
162.920774
 20
194.140024
 30
0.0
 11
165.266539
 21
195.329943
 31
0.0
  0
ARC
  8
0
  6
CONTINUOUS
 62
   249
 10
150.0
 20
185.409512
 30
0.0
 40
0.5
 50
180.0
 51
0.0
  0
ARC
  8
0
  6
CONTINUOUS
 62
   249
 10
150.0
 20
185.409512
 30
0.0
 40
0.5
 50
0.0
 51
180.0
  0
LINE
  8
0
  6
CONTINUOUS
 62
   249
 10
165.266539
 20
180.345803
 30
0.0
 11
162.920774
 21
181.681157
 31
0.0
  0
LINE
  8
0
  6
CONTINUOUS
 62
   249
 10
162.920774
 20
181.681157
 30
0.0
 11
165.266539
 21
182.871076
 31
0.0
  0
LINE
  8
0
  6
CONTINUOUS
 62
   249
 10
165.266539
 20
176.164575
 30
0.0
 11
162.920774
 21
177.499929
 31
0.0
  0
LINE
  8
0
  6
CONTINUOUS
 62
   249
 10
162.920774
 20
177.499929
 30
0.0
 11
165.266539
 21
178.689848
 31
0.0
  0
LINE
  8
0
  6
CONTINUOUS
 62
   249
 10
165.266539
 20
188.664419
 30
0.0
 11
162.920774
 21
189.999773
 31
0.0
  0
LINE
  8
0
  6
CONTINUOUS
 62
   249
 10
162.920774
 20
189.999773
 30
0.0
 11
165.266539
 21
191.189692
 31
0.0
  0
ARC
  8
0
  6
CONTINUOUS
 62
   249
 10
150.0
 20
198.131988
 30
0.0
 40
0.5
 50
180.0
 51
0.0
  0
ARC
  8
0
  6
CONTINUOUS
 62
   249
 10
150.0
 20
198.131988
 30
0.0
 40
0.5
 50
0.0
 51
180.0
  0
LINE
  8
0
  6
CONTINUOUS
 62
   249
 10
165.266539
 20
201.164637
 30
0.0
 11
162.920774
 21
202.499991
 31
0.0
  0
LINE
  8
0
  6
CONTINUOUS
 62
   249
 10
162.920774
 20
202.499991
 30
0.0
 11
165.266539
 21
203.68991
 31
0.0
  0
LINE
  8
0
  6
CONTINUOUS
 62
   249
 10
171.861535
 20
175.853348
 30
0.0
 11
172.748422
 21
175.853348
 31
0.0
  0
LINE
  8
0
  6
CONTINUOUS
 62
   249
 10
171.530431
 20
176.464981
 30
0.0
 11
173.115002
 21
176.464981
 31
0.0
  0
LINE
  8
0
  6
CONTINUOUS
 62
   249
 10
172.346367
 20
177.087043
 30
0.0
 11
173.540708
 21
177.087043
 31
0.0
  0
LINE
  8
0
  6
CONTINUOUS
 62
   249
 10
171.152026
 20
177.087043
 30
0.0
 11
172.346367
 21
177.087043
 31
0.0
  0
LINE
  8
0
  6
CONTINUOUS
 62
   249
 10
172.362254
 20
178.441313
 30
0.0
 11
172.362254
 21
177.087043
 31
0.0
  0
INSERT
  8
0
  6
CENTER
 62
   249
  2
BLC5
 10
205.291926
 20
45.842005
 30
0.0
 41
0.6
 42
0.6
 43
0.6
  0
LINE
  8
0
  6
CONTINUOUS
 62
   249
 10
316.509978
 20
222.5
 30
0.0
 11
319.155635
 21
222.5
 31
0.0
  0
LINE
  8
0
  6
CONTINUOUS
 62
   249
 10
320.937188
 20
221.896305
 30
0.0
 11
320.937188
 21
223.103695
 31
0.0
  0
LINE
  8
0
  6
CONTINUOUS
 62
   249
 10
320.049675
 20
221.463807
 30
0.0
 11
320.049675
 21
223.527182
 31
0.0
  0
LINE
  8
0
  6
CONTINUOUS
 62
   249
 10
319.155635
 20
220.968237
 30
0.0
 11
319.155635
 21
224.031763
 31
0.0
  0
LINE
  8
0
  6
CONTINUOUS
 62
   249
 10
316.509978
 20
227.68998
 30
0.0
 11
319.155635
 21
227.68998
 31
0.0
  0
LINE
  8
0
  6
CONTINUOUS
 62
   249
 10
320.937188
 20
227.086285
 30
0.0
 11
320.937188
 21
228.293675
 31
0.0
  0
LINE
  8
0
  6
CONTINUOUS
 62
   249
 10
320.049675
 20
226.653787
 30
0.0
 11
320.049675
 21
228.717163
 31
0.0
  0
LINE
  8
0
  6
CONTINUOUS
 62
   249
 10
319.155635
 20
226.158217
 30
0.0
 11
319.155635
 21
229.221743
 31
0.0
  0
LINE
  8
0
 62
   249
 10
215.0
 20
204.99845
 30
0.0
 11
215.0
 21
214.99845
 31
0.0
  0
LINE
  8
0
 62
   249
 10
217.5
 20
215.0
 30
0.0
 11
220.0
 21
215.0
 31
0.0
  0
LINE
  8
0
 62
   249
 10
215.0
 20
214.99845
 30
0.0
 11
217.5
 21
214.99845
 31
0.0
  0
LINE
  8
0
 62
   249
 10
212.5
 20
210.0
 30
0.0
 11
217.5
 21
210.0
 31
0.0
  0
LINE
  8
0
 62
   249
 10
217.5
 20
210.0
 30
0.0
 11
220.0
 21
210.0
 31
0.0
  0
LINE
  8
0
 62
   249
 10
220.0
 20
210.0
 30
0.0
 11
220.0
 21
212.9
 31
0.0
  0
LINE
  8
0
 62
   249
 10
218.88095
 20
211.944425
 30
0.0
 11
219.560313
 21
211.008681
 31
0.0
  0
LINE
  8
0
 62
   249
 10
225.0
 20
215.0
 30
0.0
 11
219.2
 21
211.5
 31
0.0
  0
LINE
  8
0
 62
   249
 10
217.5
 20
204.99845
 30
0.0
 11
215.0
 21
204.99845
 31
0.0
  0
LINE
  8
0
 62
   249
 10
217.5
 20
205.0
 30
0.0
 11
220.0
 21
205.0
 31
0.0
  0
INSERT
  8
0
  6
CENTER
 62
   249
  2
BLC26
 10
261.410524
 20
212.580448
 30
0.0
 41
1.006225
 42
1.006225
 50
180.0
 43
1.006225
  0
LINE
  8
0
 62
   249
 10
215.0
 20
164.99845
 30
0.0
 11
215.0
 21
174.99845
 31
0.0
  0
LINE
  8
0
 62
   249
 10
217.5
 20
175.0
 30
0.0
 11
220.0
 21
175.0
 31
0.0
  0
LINE
  8
0
 62
   249
 10
215.0
 20
174.99845
 30
0.0
 11
217.5
 21
174.99845
 31
0.0
  0
LINE
  8
0
 62
   249
 10
212.5
 20
170.0
 30
0.0
 11
217.5
 21
170.0
 31
0.0
  0
LINE
  8
0
 62
   249
 10
217.5
 20
170.0
 30
0.0
 11
220.0
 21
170.0
 31
0.0
  0
LINE
  8
0
 62
   249
 10
220.0
 20
170.0
 30
0.0
 11
220.0
 21
172.9
 31
0.0
  0
LINE
  8
0
 62
   249
 10
218.88095
 20
171.944425
 30
0.0
 11
219.560313
 21
171.008681
 31
0.0
  0
LINE
  8
0
 62
   249
 10
225.0
 20
175.0
 30
0.0
 11
219.2
 21
171.5
 31
0.0
  0
LINE
  8
0
 62
   249
 10
217.5
 20
164.99845
 30
0.0
 11
215.0
 21
164.99845
 31
0.0
  0
LINE
  8
0
 62
   249
 10
217.5
 20
165.0
 30
0.0
 11
220.0
 21
165.0
 31
0.0
  0
LINE
  8
0
  6
CONTINUOUS
 62
   249
 10
204.489729
 20
138.664649
 30
0.0
 11
202.143963
 21
140.000003
 31
0.0
  0
LINE
  8
0
  6
CONTINUOUS
 62
   249
 10
202.143963
 20
140.000003
 30
0.0
 11
204.489729
 21
141.189922
 31
0.0
  0
LINE
  8
0
  6
CONTINUOUS
 62
   249
 10
208.133044
 20
141.335351
 30
0.0
 11
210.47881
 21
139.999997
 31
0.0
  0
LINE
  8
0
  6
CONTINUOUS
 62
   249
 10
210.47881
 20
139.999997
 30
0.0
 11
208.133044
 21
138.810078
 31
0.0
  0
LINE
  8
0
  6
CONTINUOUS
 62
   249
 10
202.852984
 20
163.664575
 30
0.0
 11
200.507219
 21
164.999928
 31
0.0
  0
LINE
  8
0
  6
CONTINUOUS
 62
   249
 10
200.507219
 20
164.999928
 30
0.0
 11
202.852984
 21
166.189847
 31
0.0
  0
3DFACE
  8
0
  6
CONTINUOUS
 62
   249
 10
231.819436
 20
134.51
 30
0.0
 11
231.833156
 21
134.51
 31
0.0
 12
231.833156
 22
135.49
 32
0.0
 13
231.819436
 23
135.49
 33
0.0
  0
3DFACE
  8
0
  6
CONTINUOUS
 62
   249
 10
231.833156
 20
134.51
 30
0.0
 11
231.846876
 21
134.51
 31
0.0
 12
231.846876
 22
135.49
 32
0.0
 13
231.833156
 23
135.49
 33
0.0
  0
3DFACE
  8
0
  6
CONTINUOUS
 62
   249
 10
231.846876
 20
134.51
 30
0.0
 11
231.860596
 21
134.51
 31
0.0
 12
231.860596
 22
135.49
 32
0.0
 13
231.846876
 23
135.49
 33
0.0
  0
3DFACE
  8
0
  6
CONTINUOUS
 62
   249
 10
231.860596
 20
134.51
 30
0.0
 11
231.874316
 21
134.51
 31
0.0
 12
231.874316
 22
135.49
 32
0.0
 13
231.860596
 23
135.49
 33
0.0
  0
3DFACE
  8
0
  6
CONTINUOUS
 62
   249
 10
231.874316
 20
134.51
 30
0.0
 11
231.888036
 21
134.51
 31
0.0
 12
231.888036
 22
135.49
 32
0.0
 13
231.874316
 23
135.49
 33
0.0
  0
3DFACE
  8
0
  6
CONTINUOUS
 62
   249
 10
231.888036
 20
134.51
 30
0.0
 11
231.901756
 21
134.51
 31
0.0
 12
231.901756
 22
135.49
 32
0.0
 13
231.888036
 23
135.49
 33
0.0
  0
3DFACE
  8
0
  6
CONTINUOUS
 62
   249
 10
231.901756
 20
134.51
 30
0.0
 11
231.915476
 21
134.51
 31
0.0
 12
231.915476
 22
135.49
 32
0.0
 13
231.901756
 23
135.49
 33
0.0
  0
3DFACE
  8
0
  6
CONTINUOUS
 62
   249
 10
231.915476
 20
134.51
 30
0.0
 11
231.929196
 21
134.51
 31
0.0
 12
231.929196
 22
135.49
 32
0.0
 13
231.915476
 23
135.49
 33
0.0
  0
3DFACE
  8
0
  6
CONTINUOUS
 62
   249
 10
231.929196
 20
134.51
 30
0.0
 11
231.942916
 21
134.51
 31
0.0
 12
231.942916
 22
135.49
 32
0.0
 13
231.929196
 23
135.49
 33
0.0
  0
3DFACE
  8
0
  6
CONTINUOUS
 62
   249
 10
231.942916
 20
134.51
 30
0.0
 11
231.956636
 21
134.51
 31
0.0
 12
231.956636
 22
135.49
 32
0.0
 13
231.942916
 23
135.49
 33
0.0
  0
3DFACE
  8
0
  6
CONTINUOUS
 62
   249
 10
231.956636
 20
134.51
 30
0.0
 11
231.970356
 21
134.51
 31
0.0
 12
231.970356
 22
135.49
 32
0.0
 13
231.956636
 23
135.49
 33
0.0
  0
3DFACE
  8
0
  6
CONTINUOUS
 62
   249
 10
231.970356
 20
134.51
 30
0.0
 11
231.984076
 21
134.51
 31
0.0
 12
231.984076
 22
135.49
 32
0.0
 13
231.970356
 23
135.49
 33
0.0
  0
3DFACE
  8
0
  6
CONTINUOUS
 62
   249
 10
231.984076
 20
134.51
 30
0.0
 11
231.997796
 21
134.51
 31
0.0
 12
231.997796
 22
135.49
 32
0.0
 13
231.984076
 23
135.49
 33
0.0
  0
3DFACE
  8
0
  6
CONTINUOUS
 62
   249
 10
231.997796
 20
134.51
 30
0.0
 11
232.011516
 21
134.51
 31
0.0
 12
232.011516
 22
135.49
 32
0.0
 13
231.997796
 23
135.49
 33
0.0
  0
3DFACE
  8
0
  6
CONTINUOUS
 62
   249
 10
232.011516
 20
134.51
 30
0.0
 11
232.025236
 21
134.51
 31
0.0
 12
232.025236
 22
135.49
 32
0.0
 13
232.011516
 23
135.49
 33
0.0
  0
3DFACE
  8
0
  6
CONTINUOUS
 62
   249
 10
232.025236
 20
134.51
 30
0.0
 11
232.038956
 21
134.51
 31
0.0
 12
232.038956
 22
135.49
 32
0.0
 13
232.025236
 23
135.49
 33
0.0
  0
3DFACE
  8
0
  6
CONTINUOUS
 62
   249
 10
232.038956
 20
134.51
 30
0.0
 11
232.052676
 21
134.51
 31
0.0
 12
232.052676
 22
135.49
 32
0.0
 13
232.038956
 23
135.49
 33
0.0
  0
3DFACE
  8
0
  6
CONTINUOUS
 62
   249
 10
232.052676
 20
134.51
 30
0.0
 11
232.066396
 21
134.51
 31
0.0
 12
232.066396
 22
135.49
 32
0.0
 13
232.052676
 23
135.49
 33
0.0
  0
3DFACE
  8
0
  6
CONTINUOUS
 62
   249
 10
232.066396
 20
134.51
 30
0.0
 11
232.080116
 21
134.51
 31
0.0
 12
232.080116
 22
135.49
 32
0.0
 13
232.066396
 23
135.49
 33
0.0
  0
3DFACE
  8
0
  6
CONTINUOUS
 62
   249
 10
232.080116
 20
134.51
 30
0.0
 11
232.093836
 21
134.51
 31
0.0
 12
232.093836
 22
135.49
 32
0.0
 13
232.080116
 23
135.49
 33
0.0
  0
3DFACE
  8
0
  6
CONTINUOUS
 62
   249
 10
232.093836
 20
134.51
 30
0.0
 11
232.107556
 21
134.51
 31
0.0
 12
232.107556
 22
135.49
 32
0.0
 13
232.093836
 23
135.49
 33
0.0
  0
3DFACE
  8
0
  6
CONTINUOUS
 62
   249
 10
232.107556
 20
134.51
 30
0.0
 11
232.121276
 21
134.51
 31
0.0
 12
232.121276
 22
135.49
 32
0.0
 13
232.107556
 23
135.49
 33
0.0
  0
3DFACE
  8
0
  6
CONTINUOUS
 62
   249
 10
232.121276
 20
134.51
 30
0.0
 11
232.134996
 21
134.51
 31
0.0
 12
232.134996
 22
135.49
 32
0.0
 13
232.121276
 23
135.49
 33
0.0
  0
3DFACE
  8
0
  6
CONTINUOUS
 62
   249
 10
232.134996
 20
134.51
 30
0.0
 11
232.148716
 21
134.51
 31
0.0
 12
232.148716
 22
135.49
 32
0.0
 13
232.134996
 23
135.49
 33
0.0
  0
3DFACE
  8
0
  6
CONTINUOUS
 62
   249
 10
232.148716
 20
134.51
 30
0.0
 11
232.162436
 21
134.51
 31
0.0
 12
232.162436
 22
135.49
 32
0.0
 13
232.148716
 23
135.49
 33
0.0
  0
3DFACE
  8
0
  6
CONTINUOUS
 62
   249
 10
232.162436
 20
134.51
 30
0.0
 11
232.176156
 21
134.51
 31
0.0
 12
232.176156
 22
135.49
 32
0.0
 13
232.162436
 23
135.49
 33
0.0
  0
3DFACE
  8
0
  6
CONTINUOUS
 62
   249
 10
232.176156
 20
134.51
 30
0.0
 11
232.189876
 21
134.51
 31
0.0
 12
232.189876
 22
135.49
 32
0.0
 13
232.176156
 23
135.49
 33
0.0
  0
3DFACE
  8
0
  6
CONTINUOUS
 62
   249
 10
232.189876
 20
134.51
 30
0.0
 11
232.203596
 21
134.51
 31
0.0
 12
232.203596
 22
135.49
 32
0.0
 13
232.189876
 23
135.49
 33
0.0
  0
3DFACE
  8
0
  6
CONTINUOUS
 62
   249
 10
232.203596
 20
134.51
 30
0.0
 11
232.217316
 21
134.51
 31
0.0
 12
232.217316
 22
135.49
 32
0.0
 13
232.203596
 23
135.49
 33
0.0
  0
3DFACE
  8
0
  6
CONTINUOUS
 62
   249
 10
232.217316
 20
134.51
 30
0.0
 11
232.231036
 21
134.51
 31
0.0
 12
232.231036
 22
135.49
 32
0.0
 13
232.217316
 23
135.49
 33
0.0
  0
3DFACE
  8
0
  6
CONTINUOUS
 62
   249
 10
232.231036
 20
134.51
 30
0.0
 11
232.244756
 21
134.51
 31
0.0
 12
232.244756
 22
135.49
 32
0.0
 13
232.231036
 23
135.49
 33
0.0
  0
3DFACE
  8
0
  6
CONTINUOUS
 62
   249
 10
232.244756
 20
134.51
 30
0.0
 11
232.258476
 21
134.51
 31
0.0
 12
232.258476
 22
135.49
 32
0.0
 13
232.244756
 23
135.49
 33
0.0
  0
3DFACE
  8
0
  6
CONTINUOUS
 62
   249
 10
232.258476
 20
134.51
 30
0.0
 11
232.272196
 21
134.51
 31
0.0
 12
232.272196
 22
135.49
 32
0.0
 13
232.258476
 23
135.49
 33
0.0
  0
3DFACE
  8
0
  6
CONTINUOUS
 62
   249
 10
232.272196
 20
134.51
 30
0.0
 11
232.285916
 21
134.51
 31
0.0
 12
232.285916
 22
135.49
 32
0.0
 13
232.272196
 23
135.49
 33
0.0
  0
3DFACE
  8
0
  6
CONTINUOUS
 62
   249
 10
232.285916
 20
134.51
 30
0.0
 11
232.299636
 21
134.51
 31
0.0
 12
232.299636
 22
135.49
 32
0.0
 13
232.285916
 23
135.49
 33
0.0
  0
3DFACE
  8
0
  6
CONTINUOUS
 62
   249
 10
232.299636
 20
134.51
 30
0.0
 11
232.313356
 21
134.51
 31
0.0
 12
232.313356
 22
135.49
 32
0.0
 13
232.299636
 23
135.49
 33
0.0
  0
3DFACE
  8
0
  6
CONTINUOUS
 62
   249
 10
232.313356
 20
134.51
 30
0.0
 11
232.327076
 21
134.51
 31
0.0
 12
232.327076
 22
135.49
 32
0.0
 13
232.313356
 23
135.49
 33
0.0
  0
3DFACE
  8
0
  6
CONTINUOUS
 62
   249
 10
232.327076
 20
134.51
 30
0.0
 11
232.340796
 21
134.51
 31
0.0
 12
232.340796
 22
135.49
 32
0.0
 13
232.327076
 23
135.49
 33
0.0
  0
3DFACE
  8
0
  6
CONTINUOUS
 62
   249
 10
232.340796
 20
134.51
 30
0.0
 11
232.354516
 21
134.51
 31
0.0
 12
232.354516
 22
135.49
 32
0.0
 13
232.340796
 23
135.49
 33
0.0
  0
3DFACE
  8
0
  6
CONTINUOUS
 62
   249
 10
232.354516
 20
134.51
 30
0.0
 11
232.368236
 21
134.51
 31
0.0
 12
232.368236
 22
135.49
 32
0.0
 13
232.354516
 23
135.49
 33
0.0
  0
3DFACE
  8
0
  6
CONTINUOUS
 62
   249
 10
232.368236
 20
134.51
 30
0.0
 11
232.381956
 21
134.51
 31
0.0
 12
232.381956
 22
135.49
 32
0.0
 13
232.368236
 23
135.49
 33
0.0
  0
3DFACE
  8
0
  6
CONTINUOUS
 62
   249
 10
232.381956
 20
134.51
 30
0.0
 11
232.395676
 21
134.51
 31
0.0
 12
232.395676
 22
135.49
 32
0.0
 13
232.381956
 23
135.49
 33
0.0
  0
3DFACE
  8
0
  6
CONTINUOUS
 62
   249
 10
232.395676
 20
134.51
 30
0.0
 11
232.409396
 21
134.51
 31
0.0
 12
232.409396
 22
135.49
 32
0.0
 13
232.395676
 23
135.49
 33
0.0
  0
3DFACE
  8
0
  6
CONTINUOUS
 62
   249
 10
232.409396
 20
134.51
 30
0.0
 11
232.423116
 21
134.51
 31
0.0
 12
232.423116
 22
135.49
 32
0.0
 13
232.409396
 23
135.49
 33
0.0
  0
3DFACE
  8
0
  6
CONTINUOUS
 62
   249
 10
232.423116
 20
134.51
 30
0.0
 11
232.436836
 21
134.51
 31
0.0
 12
232.436836
 22
135.49
 32
0.0
 13
232.423116
 23
135.49
 33
0.0
  0
3DFACE
  8
0
  6
CONTINUOUS
 62
   249
 10
232.436836
 20
134.51
 30
0.0
 11
232.450556
 21
134.51
 31
0.0
 12
232.450556
 22
135.49
 32
0.0
 13
232.436836
 23
135.49
 33
0.0
  0
3DFACE
  8
0
  6
CONTINUOUS
 62
   249
 10
232.450556
 20
134.51
 30
0.0
 11
232.464276
 21
134.51
 31
0.0
 12
232.464276
 22
135.49
 32
0.0
 13
232.450556
 23
135.49
 33
0.0
  0
3DFACE
  8
0
  6
CONTINUOUS
 62
   249
 10
232.464276
 20
134.51
 30
0.0
 11
232.477996
 21
134.51
 31
0.0
 12
232.477996
 22
135.49
 32
0.0
 13
232.464276
 23
135.49
 33
0.0
  0
3DFACE
  8
0
  6
CONTINUOUS
 62
   249
 10
232.477996
 20
134.51
 30
0.0
 11
232.491716
 21
134.51
 31
0.0
 12
232.491716
 22
135.49
 32
0.0
 13
232.477996
 23
135.49
 33
0.0
  0
3DFACE
  8
0
  6
CONTINUOUS
 62
   249
 10
232.491716
 20
134.51
 30
0.0
 11
232.505436
 21
134.51
 31
0.0
 12
232.505436
 22
135.49
 32
0.0
 13
232.491716
 23
135.49
 33
0.0
  0
3DFACE
  8
0
  6
CONTINUOUS
 62
   249
 10
232.505436
 20
134.51
 30
0.0
 11
232.519156
 21
134.51
 31
0.0
 12
232.519156
 22
135.49
 32
0.0
 13
232.505436
 23
135.49
 33
0.0
  0
3DFACE
  8
0
  6
CONTINUOUS
 62
   249
 10
232.519156
 20
134.51
 30
0.0
 11
232.532876
 21
134.51
 31
0.0
 12
232.532876
 22
135.49
 32
0.0
 13
232.519156
 23
135.49
 33
0.0
  0
3DFACE
  8
0
  6
CONTINUOUS
 62
   249
 10
232.532876
 20
134.51
 30
0.0
 11
232.546596
 21
134.51
 31
0.0
 12
232.546596
 22
135.49
 32
0.0
 13
232.532876
 23
135.49
 33
0.0
  0
3DFACE
  8
0
  6
CONTINUOUS
 62
   249
 10
232.546596
 20
134.51
 30
0.0
 11
232.560316
 21
134.51
 31
0.0
 12
232.560316
 22
135.49
 32
0.0
 13
232.546596
 23
135.49
 33
0.0
  0
3DFACE
  8
0
  6
CONTINUOUS
 62
   249
 10
232.560316
 20
134.51
 30
0.0
 11
232.574036
 21
134.51
 31
0.0
 12
232.574036
 22
135.49
 32
0.0
 13
232.560316
 23
135.49
 33
0.0
  0
3DFACE
  8
0
  6
CONTINUOUS
 62
   249
 10
232.574036
 20
134.51
 30
0.0
 11
232.587756
 21
134.51
 31
0.0
 12
232.587756
 22
135.49
 32
0.0
 13
232.574036
 23
135.49
 33
0.0
  0
3DFACE
  8
0
  6
CONTINUOUS
 62
   249
 10
232.587756
 20
134.51
 30
0.0
 11
232.601476
 21
134.51
 31
0.0
 12
232.601476
 22
135.49
 32
0.0
 13
232.587756
 23
135.49
 33
0.0
  0
3DFACE
  8
0
  6
CONTINUOUS
 62
   249
 10
232.601476
 20
134.51
 30
0.0
 11
232.615196
 21
134.51
 31
0.0
 12
232.615196
 22
135.49
 32
0.0
 13
232.601476
 23
135.49
 33
0.0
  0
3DFACE
  8
0
  6
CONTINUOUS
 62
   249
 10
232.615196
 20
134.51
 30
0.0
 11
232.628916
 21
134.51
 31
0.0
 12
232.628916
 22
135.49
 32
0.0
 13
232.615196
 23
135.49
 33
0.0
  0
3DFACE
  8
0
  6
CONTINUOUS
 62
   249
 10
232.628916
 20
134.51
 30
0.0
 11
232.642636
 21
134.51
 31
0.0
 12
232.642636
 22
135.49
 32
0.0
 13
232.628916
 23
135.49
 33
0.0
  0
3DFACE
  8
0
  6
CONTINUOUS
 62
   249
 10
232.642636
 20
134.51
 30
0.0
 11
232.656356
 21
134.51
 31
0.0
 12
232.656356
 22
135.49
 32
0.0
 13
232.642636
 23
135.49
 33
0.0
  0
3DFACE
  8
0
  6
CONTINUOUS
 62
   249
 10
232.656356
 20
134.51
 30
0.0
 11
232.670076
 21
134.51
 31
0.0
 12
232.670076
 22
135.49
 32
0.0
 13
232.656356
 23
135.49
 33
0.0
  0
3DFACE
  8
0
  6
CONTINUOUS
 62
   249
 10
232.670076
 20
134.51
 30
0.0
 11
232.683796
 21
134.51
 31
0.0
 12
232.683796
 22
135.49
 32
0.0
 13
232.670076
 23
135.49
 33
0.0
  0
3DFACE
  8
0
  6
CONTINUOUS
 62
   249
 10
232.683796
 20
134.51
 30
0.0
 11
232.697516
 21
134.51
 31
0.0
 12
232.697516
 22
135.49
 32
0.0
 13
232.683796
 23
135.49
 33
0.0
  0
3DFACE
  8
0
  6
CONTINUOUS
 62
   249
 10
232.697516
 20
134.51
 30
0.0
 11
232.711236
 21
134.51
 31
0.0
 12
232.711236
 22
135.49
 32
0.0
 13
232.697516
 23
135.49
 33
0.0
  0
3DFACE
  8
0
  6
CONTINUOUS
 62
   249
 10
232.711236
 20
134.51
 30
0.0
 11
232.724956
 21
134.51
 31
0.0
 12
232.724956
 22
135.49
 32
0.0
 13
232.711236
 23
135.49
 33
0.0
  0
3DFACE
  8
0
  6
CONTINUOUS
 62
   249
 10
232.724956
 20
134.51
 30
0.0
 11
232.738676
 21
134.51
 31
0.0
 12
232.738676
 22
135.49
 32
0.0
 13
232.724956
 23
135.49
 33
0.0
  0
3DFACE
  8
0
  6
CONTINUOUS
 62
   249
 10
232.738676
 20
134.51
 30
0.0
 11
232.752396
 21
134.51
 31
0.0
 12
232.752396
 22
135.49
 32
0.0
 13
232.738676
 23
135.49
 33
0.0
  0
3DFACE
  8
0
  6
CONTINUOUS
 62
   249
 10
232.752396
 20
134.51
 30
0.0
 11
232.766116
 21
134.51
 31
0.0
 12
232.766116
 22
135.49
 32
0.0
 13
232.752396
 23
135.49
 33
0.0
  0
3DFACE
  8
0
  6
CONTINUOUS
 62
   249
 10
232.766116
 20
134.51
 30
0.0
 11
232.779836
 21
134.51
 31
0.0
 12
232.779836
 22
135.49
 32
0.0
 13
232.766116
 23
135.49
 33
0.0
  0
3DFACE
  8
0
  6
CONTINUOUS
 62
   249
 10
232.779836
 20
134.51
 30
0.0
 11
232.793556
 21
134.51
 31
0.0
 12
232.793556
 22
135.49
 32
0.0
 13
232.779836
 23
135.49
 33
0.0
  0
3DFACE
  8
0
  6
CONTINUOUS
 62
   249
 10
232.793556
 20
134.51
 30
0.0
 11
232.807276
 21
134.51
 31
0.0
 12
232.807276
 22
135.49
 32
0.0
 13
232.793556
 23
135.49
 33
0.0
  0
3DFACE
  8
0
  6
CONTINUOUS
 62
   249
 10
232.807276
 20
134.51
 30
0.0
 11
232.820996
 21
134.51
 31
0.0
 12
232.820996
 22
135.49
 32
0.0
 13
232.807276
 23
135.49
 33
0.0
  0
3DFACE
  8
0
  6
CONTINUOUS
 62
   249
 10
232.820996
 20
134.51
 30
0.0
 11
232.834716
 21
134.51
 31
0.0
 12
232.834716
 22
135.49
 32
0.0
 13
232.820996
 23
135.49
 33
0.0
  0
3DFACE
  8
0
  6
CONTINUOUS
 62
   249
 10
232.834716
 20
134.51
 30
0.0
 11
232.848436
 21
134.51
 31
0.0
 12
232.848436
 22
135.49
 32
0.0
 13
232.834716
 23
135.49
 33
0.0
  0
3DFACE
  8
0
  6
CONTINUOUS
 62
   249
 10
232.848436
 20
134.51
 30
0.0
 11
232.862156
 21
134.51
 31
0.0
 12
232.862156
 22
135.49
 32
0.0
 13
232.848436
 23
135.49
 33
0.0
  0
3DFACE
  8
0
  6
CONTINUOUS
 62
   249
 10
232.862156
 20
134.51
 30
0.0
 11
232.875876
 21
134.51
 31
0.0
 12
232.875876
 22
135.49
 32
0.0
 13
232.862156
 23
135.49
 33
0.0
  0
3DFACE
  8
0
  6
CONTINUOUS
 62
   249
 10
232.875876
 20
134.51
 30
0.0
 11
232.889596
 21
134.51
 31
0.0
 12
232.889596
 22
135.49
 32
0.0
 13
232.875876
 23
135.49
 33
0.0
  0
3DFACE
  8
0
  6
CONTINUOUS
 62
   249
 10
232.889596
 20
134.51
 30
0.0
 11
232.903316
 21
134.51
 31
0.0
 12
232.903316
 22
135.49
 32
0.0
 13
232.889596
 23
135.49
 33
0.0
  0
3DFACE
  8
0
  6
CONTINUOUS
 62
   249
 10
232.903316
 20
134.51
 30
0.0
 11
232.917036
 21
134.51
 31
0.0
 12
232.917036
 22
135.49
 32
0.0
 13
232.903316
 23
135.49
 33
0.0
  0
3DFACE
  8
0
  6
CONTINUOUS
 62
   249
 10
232.917036
 20
134.51
 30
0.0
 11
232.930756
 21
134.51
 31
0.0
 12
232.930756
 22
135.49
 32
0.0
 13
232.917036
 23
135.49
 33
0.0
  0
3DFACE
  8
0
  6
CONTINUOUS
 62
   249
 10
232.930756
 20
134.51
 30
0.0
 11
232.944476
 21
134.51
 31
0.0
 12
232.944476
 22
135.49
 32
0.0
 13
232.930756
 23
135.49
 33
0.0
  0
3DFACE
  8
0
  6
CONTINUOUS
 62
   249
 10
232.944476
 20
134.51
 30
0.0
 11
232.958196
 21
134.51
 31
0.0
 12
232.958196
 22
135.49
 32
0.0
 13
232.944476
 23
135.49
 33
0.0
  0
3DFACE
  8
0
  6
CONTINUOUS
 62
   249
 10
232.958196
 20
134.51
 30
0.0
 11
232.971916
 21
134.51
 31
0.0
 12
232.971916
 22
135.49
 32
0.0
 13
232.958196
 23
135.49
 33
0.0
  0
3DFACE
  8
0
  6
CONTINUOUS
 62
   249
 10
232.971916
 20
134.51
 30
0.0
 11
232.985636
 21
134.51
 31
0.0
 12
232.985636
 22
135.49
 32
0.0
 13
232.971916
 23
135.49
 33
0.0
  0
3DFACE
  8
0
  6
CONTINUOUS
 62
   249
 10
232.985636
 20
134.51
 30
0.0
 11
232.999356
 21
134.51
 31
0.0
 12
232.999356
 22
135.49
 32
0.0
 13
232.985636
 23
135.49
 33
0.0
  0
3DFACE
  8
0
  6
CONTINUOUS
 62
   249
 10
232.999356
 20
134.51
 30
0.0
 11
233.013076
 21
134.51
 31
0.0
 12
233.013076
 22
135.49
 32
0.0
 13
232.999356
 23
135.49
 33
0.0
  0
3DFACE
  8
0
  6
CONTINUOUS
 62
   249
 10
233.013076
 20
134.51
 30
0.0
 11
233.026796
 21
134.51
 31
0.0
 12
233.026796
 22
135.49
 32
0.0
 13
233.013076
 23
135.49
 33
0.0
  0
3DFACE
  8
0
  6
CONTINUOUS
 62
   249
 10
233.026796
 20
134.51
 30
0.0
 11
233.040516
 21
134.51
 31
0.0
 12
233.040516
 22
135.49
 32
0.0
 13
233.026796
 23
135.49
 33
0.0
  0
3DFACE
  8
0
  6
CONTINUOUS
 62
   249
 10
233.040516
 20
134.51
 30
0.0
 11
233.054236
 21
134.51
 31
0.0
 12
233.054236
 22
135.49
 32
0.0
 13
233.040516
 23
135.49
 33
0.0
  0
3DFACE
  8
0
  6
CONTINUOUS
 62
   249
 10
233.054236
 20
134.51
 30
0.0
 11
233.067956
 21
134.51
 31
0.0
 12
233.067956
 22
135.49
 32
0.0
 13
233.054236
 23
135.49
 33
0.0
  0
3DFACE
  8
0
  6
CONTINUOUS
 62
   249
 10
233.067956
 20
134.51
 30
0.0
 11
233.081676
 21
134.51
 31
0.0
 12
233.081676
 22
135.49
 32
0.0
 13
233.067956
 23
135.49
 33
0.0
  0
3DFACE
  8
0
  6
CONTINUOUS
 62
   249
 10
233.081676
 20
134.51
 30
0.0
 11
233.095396
 21
134.51
 31
0.0
 12
233.095396
 22
135.49
 32
0.0
 13
233.081676
 23
135.49
 33
0.0
  0
3DFACE
  8
0
  6
CONTINUOUS
 62
   249
 10
233.095396
 20
134.51
 30
0.0
 11
233.109116
 21
134.51
 31
0.0
 12
233.109116
 22
135.49
 32
0.0
 13
233.095396
 23
135.49
 33
0.0
  0
3DFACE
  8
0
  6
CONTINUOUS
 62
   249
 10
233.109116
 20
134.51
 30
0.0
 11
233.122836
 21
134.51
 31
0.0
 12
233.122836
 22
135.49
 32
0.0
 13
233.109116
 23
135.49
 33
0.0
  0
3DFACE
  8
0
  6
CONTINUOUS
 62
   249
 10
233.122836
 20
134.51
 30
0.0
 11
233.136556
 21
134.51
 31
0.0
 12
233.136556
 22
135.49
 32
0.0
 13
233.122836
 23
135.49
 33
0.0
  0
3DFACE
  8
0
  6
CONTINUOUS
 62
   249
 10
233.136556
 20
134.51
 30
0.0
 11
233.150276
 21
134.51
 31
0.0
 12
233.150276
 22
135.49
 32
0.0
 13
233.136556
 23
135.49
 33
0.0
  0
3DFACE
  8
0
  6
CONTINUOUS
 62
   249
 10
233.150276
 20
134.51
 30
0.0
 11
233.163996
 21
134.51
 31
0.0
 12
233.163996
 22
135.49
 32
0.0
 13
233.150276
 23
135.49
 33
0.0
  0
3DFACE
  8
0
  6
CONTINUOUS
 62
   249
 10
233.163996
 20
134.51
 30
0.0
 11
233.177716
 21
134.51
 31
0.0
 12
233.177716
 22
135.49
 32
0.0
 13
233.163996
 23
135.49
 33
0.0
  0
3DFACE
  8
0
  6
CONTINUOUS
 62
   249
 10
233.177716
 20
134.51
 30
0.0
 11
233.191436
 21
134.51
 31
0.0
 12
233.191436
 22
135.49
 32
0.0
 13
233.177716
 23
135.49
 33
0.0
  0
3DFACE
  8
0
  6
CONTINUOUS
 62
   249
 10
233.191436
 20
134.51
 30
0.0
 11
233.205156
 21
134.51
 31
0.0
 12
233.205156
 22
135.49
 32
0.0
 13
233.191436
 23
135.49
 33
0.0
  0
3DFACE
  8
0
  6
CONTINUOUS
 62
   249
 10
233.205156
 20
134.51
 30
0.0
 11
233.218876
 21
134.51
 31
0.0
 12
233.218876
 22
135.49
 32
0.0
 13
233.205156
 23
135.49
 33
0.0
  0
3DFACE
  8
0
  6
CONTINUOUS
 62
   249
 10
233.218876
 20
134.51
 30
0.0
 11
233.232596
 21
134.51
 31
0.0
 12
233.232596
 22
135.49
 32
0.0
 13
233.218876
 23
135.49
 33
0.0
  0
3DFACE
  8
0
  6
CONTINUOUS
 62
   249
 10
233.232596
 20
134.51
 30
0.0
 11
233.246316
 21
134.51
 31
0.0
 12
233.246316
 22
135.49
 32
0.0
 13
233.232596
 23
135.49
 33
0.0
  0
3DFACE
  8
0
  6
CONTINUOUS
 62
   249
 10
233.246316
 20
134.51
 30
0.0
 11
233.260036
 21
134.51
 31
0.0
 12
233.260036
 22
135.49
 32
0.0
 13
233.246316
 23
135.49
 33
0.0
  0
3DFACE
  8
0
  6
CONTINUOUS
 62
   249
 10
233.260036
 20
134.51
 30
0.0
 11
233.273756
 21
134.51
 31
0.0
 12
233.273756
 22
135.49
 32
0.0
 13
233.260036
 23
135.49
 33
0.0
  0
3DFACE
  8
0
  6
CONTINUOUS
 62
   249
 10
233.273756
 20
134.51
 30
0.0
 11
233.287476
 21
134.51
 31
0.0
 12
233.287476
 22
135.49
 32
0.0
 13
233.273756
 23
135.49
 33
0.0
  0
3DFACE
  8
0
  6
CONTINUOUS
 62
   249
 10
233.287476
 20
134.51
 30
0.0
 11
233.301196
 21
134.51
 31
0.0
 12
233.301196
 22
135.49
 32
0.0
 13
233.287476
 23
135.49
 33
0.0
  0
3DFACE
  8
0
  6
CONTINUOUS
 62
   249
 10
233.301196
 20
134.51
 30
0.0
 11
233.314916
 21
134.51
 31
0.0
 12
233.314916
 22
135.49
 32
0.0
 13
233.301196
 23
135.49
 33
0.0
  0
3DFACE
  8
0
  6
CONTINUOUS
 62
   249
 10
233.314916
 20
134.51
 30
0.0
 11
233.328636
 21
134.51
 31
0.0
 12
233.328636
 22
135.49
 32
0.0
 13
233.314916
 23
135.49
 33
0.0
  0
3DFACE
  8
0
  6
CONTINUOUS
 62
   249
 10
233.328636
 20
134.51
 30
0.0
 11
233.342356
 21
134.51
 31
0.0
 12
233.342356
 22
135.49
 32
0.0
 13
233.328636
 23
135.49
 33
0.0
  0
3DFACE
  8
0
  6
CONTINUOUS
 62
   249
 10
233.342356
 20
134.51
 30
0.0
 11
233.356076
 21
134.51
 31
0.0
 12
233.356076
 22
135.49
 32
0.0
 13
233.342356
 23
135.49
 33
0.0
  0
3DFACE
  8
0
  6
CONTINUOUS
 62
   249
 10
233.356076
 20
134.51
 30
0.0
 11
233.369796
 21
134.51
 31
0.0
 12
233.369796
 22
135.49
 32
0.0
 13
233.356076
 23
135.49
 33
0.0
  0
3DFACE
  8
0
  6
CONTINUOUS
 62
   249
 10
233.369796
 20
134.51
 30
0.0
 11
233.383516
 21
134.51
 31
0.0
 12
233.383516
 22
135.49
 32
0.0
 13
233.369796
 23
135.49
 33
0.0
  0
3DFACE
  8
0
  6
CONTINUOUS
 62
   249
 10
233.383516
 20
134.51
 30
0.0
 11
233.397236
 21
134.51
 31
0.0
 12
233.397236
 22
135.49
 32
0.0
 13
233.383516
 23
135.49
 33
0.0
  0
3DFACE
  8
0
  6
CONTINUOUS
 62
   249
 10
233.397236
 20
134.51
 30
0.0
 11
233.410956
 21
134.51
 31
0.0
 12
233.410956
 22
135.49
 32
0.0
 13
233.397236
 23
135.49
 33
0.0
  0
3DFACE
  8
0
  6
CONTINUOUS
 62
   249
 10
233.410956
 20
134.51
 30
0.0
 11
233.424676
 21
134.51
 31
0.0
 12
233.424676
 22
135.49
 32
0.0
 13
233.410956
 23
135.49
 33
0.0
  0
3DFACE
  8
0
  6
CONTINUOUS
 62
   249
 10
233.424676
 20
134.51
 30
0.0
 11
233.438396
 21
134.51
 31
0.0
 12
233.438396
 22
135.49
 32
0.0
 13
233.424676
 23
135.49
 33
0.0
  0
3DFACE
  8
0
  6
CONTINUOUS
 62
   249
 10
233.438396
 20
134.51
 30
0.0
 11
233.452116
 21
134.51
 31
0.0
 12
233.452116
 22
135.49
 32
0.0
 13
233.438396
 23
135.49
 33
0.0
  0
3DFACE
  8
0
  6
CONTINUOUS
 62
   249
 10
233.452116
 20
134.51
 30
0.0
 11
233.465836
 21
134.51
 31
0.0
 12
233.465836
 22
135.49
 32
0.0
 13
233.452116
 23
135.49
 33
0.0
  0
3DFACE
  8
0
  6
CONTINUOUS
 62
   249
 10
233.465836
 20
134.51
 30
0.0
 11
233.479556
 21
134.51
 31
0.0
 12
233.479556
 22
135.49
 32
0.0
 13
233.465836
 23
135.49
 33
0.0
  0
3DFACE
  8
0
  6
CONTINUOUS
 62
   249
 10
233.479556
 20
134.51
 30
0.0
 11
233.493276
 21
134.51
 31
0.0
 12
233.493276
 22
135.49
 32
0.0
 13
233.479556
 23
135.49
 33
0.0
  0
3DFACE
  8
0
  6
CONTINUOUS
 62
   249
 10
233.493276
 20
134.51
 30
0.0
 11
233.506996
 21
134.51
 31
0.0
 12
233.506996
 22
135.49
 32
0.0
 13
233.493276
 23
135.49
 33
0.0
  0
3DFACE
  8
0
  6
CONTINUOUS
 62
   249
 10
233.506996
 20
134.51
 30
0.0
 11
233.520716
 21
134.51
 31
0.0
 12
233.520716
 22
135.49
 32
0.0
 13
233.506996
 23
135.49
 33
0.0
  0
3DFACE
  8
0
  6
CONTINUOUS
 62
   249
 10
233.520716
 20
134.51
 30
0.0
 11
233.534436
 21
134.51
 31
0.0
 12
233.534436
 22
135.49
 32
0.0
 13
233.520716
 23
135.49
 33
0.0
  0
3DFACE
  8
0
  6
CONTINUOUS
 62
   249
 10
233.534436
 20
134.51
 30
0.0
 11
233.548156
 21
134.51
 31
0.0
 12
233.548156
 22
135.49
 32
0.0
 13
233.534436
 23
135.49
 33
0.0
  0
3DFACE
  8
0
  6
CONTINUOUS
 62
   249
 10
233.548156
 20
134.51
 30
0.0
 11
233.561876
 21
134.51
 31
0.0
 12
233.561876
 22
135.49
 32
0.0
 13
233.548156
 23
135.49
 33
0.0
  0
3DFACE
  8
0
  6
CONTINUOUS
 62
   249
 10
233.561876
 20
134.51
 30
0.0
 11
233.575596
 21
134.51
 31
0.0
 12
233.575596
 22
135.49
 32
0.0
 13
233.561876
 23
135.49
 33
0.0
  0
3DFACE
  8
0
  6
CONTINUOUS
 62
   249
 10
233.575596
 20
134.51
 30
0.0
 11
233.589316
 21
134.51
 31
0.0
 12
233.589316
 22
135.49
 32
0.0
 13
233.575596
 23
135.49
 33
0.0
  0
3DFACE
  8
0
  6
CONTINUOUS
 62
   249
 10
233.589316
 20
134.51
 30
0.0
 11
233.603036
 21
134.51
 31
0.0
 12
233.603036
 22
135.49
 32
0.0
 13
233.589316
 23
135.49
 33
0.0
  0
3DFACE
  8
0
  6
CONTINUOUS
 62
   249
 10
233.603036
 20
134.51
 30
0.0
 11
233.616756
 21
134.51
 31
0.0
 12
233.616756
 22
135.49
 32
0.0
 13
233.603036
 23
135.49
 33
0.0
  0
3DFACE
  8
0
  6
CONTINUOUS
 62
   249
 10
233.616756
 20
134.51
 30
0.0
 11
233.630476
 21
134.51
 31
0.0
 12
233.630476
 22
135.49
 32
0.0
 13
233.616756
 23
135.49
 33
0.0
  0
3DFACE
  8
0
  6
CONTINUOUS
 62
   249
 10
233.630476
 20
134.51
 30
0.0
 11
233.644196
 21
134.51
 31
0.0
 12
233.644196
 22
135.49
 32
0.0
 13
233.630476
 23
135.49
 33
0.0
  0
3DFACE
  8
0
  6
CONTINUOUS
 62
   249
 10
233.644196
 20
134.51
 30
0.0
 11
233.657916
 21
134.51
 31
0.0
 12
233.657916
 22
135.49
 32
0.0
 13
233.644196
 23
135.49
 33
0.0
  0
3DFACE
  8
0
  6
CONTINUOUS
 62
   249
 10
233.657916
 20
134.51
 30
0.0
 11
233.671636
 21
134.51
 31
0.0
 12
233.671636
 22
135.49
 32
0.0
 13
233.657916
 23
135.49
 33
0.0
  0
3DFACE
  8
0
  6
CONTINUOUS
 62
   249
 10
233.671636
 20
134.51
 30
0.0
 11
233.685356
 21
134.51
 31
0.0
 12
233.685356
 22
135.49
 32
0.0
 13
233.671636
 23
135.49
 33
0.0
  0
3DFACE
  8
0
  6
CONTINUOUS
 62
   249
 10
233.685356
 20
134.51
 30
0.0
 11
233.699076
 21
134.51
 31
0.0
 12
233.699076
 22
135.49
 32
0.0
 13
233.685356
 23
135.49
 33
0.0
  0
3DFACE
  8
0
  6
CONTINUOUS
 62
   249
 10
233.699076
 20
134.51
 30
0.0
 11
233.712796
 21
134.51
 31
0.0
 12
233.712796
 22
135.49
 32
0.0
 13
233.699076
 23
135.49
 33
0.0
  0
3DFACE
  8
0
  6
CONTINUOUS
 62
   249
 10
233.712796
 20
134.51
 30
0.0
 11
233.726516
 21
134.51
 31
0.0
 12
233.726516
 22
135.49
 32
0.0
 13
233.712796
 23
135.49
 33
0.0
  0
3DFACE
  8
0
  6
CONTINUOUS
 62
   249
 10
233.726516
 20
134.51
 30
0.0
 11
233.740236
 21
134.51
 31
0.0
 12
233.740236
 22
135.49
 32
0.0
 13
233.726516
 23
135.49
 33
0.0
  0
3DFACE
  8
0
  6
CONTINUOUS
 62
   249
 10
233.740236
 20
134.51
 30
0.0
 11
233.753956
 21
134.51
 31
0.0
 12
233.753956
 22
135.49
 32
0.0
 13
233.740236
 23
135.49
 33
0.0
  0
3DFACE
  8
0
  6
CONTINUOUS
 62
   249
 10
233.753956
 20
134.51
 30
0.0
 11
233.767676
 21
134.51
 31
0.0
 12
233.767676
 22
135.49
 32
0.0
 13
233.753956
 23
135.49
 33
0.0
  0
3DFACE
  8
0
  6
CONTINUOUS
 62
   249
 10
233.767676
 20
134.51
 30
0.0
 11
233.781396
 21
134.51
 31
0.0
 12
233.781396
 22
135.49
 32
0.0
 13
233.767676
 23
135.49
 33
0.0
  0
3DFACE
  8
0
  6
CONTINUOUS
 62
   249
 10
233.781396
 20
134.51
 30
0.0
 11
233.795116
 21
134.51
 31
0.0
 12
233.795116
 22
135.49
 32
0.0
 13
233.781396
 23
135.49
 33
0.0
  0
3DFACE
  8
0
  6
CONTINUOUS
 62
   249
 10
233.795116
 20
134.51
 30
0.0
 11
233.808836
 21
134.51
 31
0.0
 12
233.808836
 22
135.49
 32
0.0
 13
233.795116
 23
135.49
 33
0.0
  0
3DFACE
  8
0
  6
CONTINUOUS
 62
   249
 10
233.808836
 20
134.51
 30
0.0
 11
233.822556
 21
134.51
 31
0.0
 12
233.822556
 22
135.49
 32
0.0
 13
233.808836
 23
135.49
 33
0.0
  0
3DFACE
  8
0
  6
CONTINUOUS
 62
   249
 10
233.822556
 20
134.51
 30
0.0
 11
233.836276
 21
134.51
 31
0.0
 12
233.836276
 22
135.49
 32
0.0
 13
233.822556
 23
135.49
 33
0.0
  0
3DFACE
  8
0
  6
CONTINUOUS
 62
   249
 10
233.836276
 20
134.51
 30
0.0
 11
233.849996
 21
134.51
 31
0.0
 12
233.849996
 22
135.49
 32
0.0
 13
233.836276
 23
135.49
 33
0.0
  0
3DFACE
  8
0
  6
CONTINUOUS
 62
   249
 10
233.849996
 20
134.51
 30
0.0
 11
233.863716
 21
134.51
 31
0.0
 12
233.863716
 22
135.49
 32
0.0
 13
233.849996
 23
135.49
 33
0.0
  0
3DFACE
  8
0
  6
CONTINUOUS
 62
   249
 10
233.863716
 20
134.51
 30
0.0
 11
233.877436
 21
134.51
 31
0.0
 12
233.877436
 22
135.49
 32
0.0
 13
233.863716
 23
135.49
 33
0.0
  0
3DFACE
  8
0
  6
CONTINUOUS
 62
   249
 10
233.877436
 20
134.51
 30
0.0
 11
233.891156
 21
134.51
 31
0.0
 12
233.891156
 22
135.49
 32
0.0
 13
233.877436
 23
135.49
 33
0.0
  0
3DFACE
  8
0
  6
CONTINUOUS
 62
   249
 10
233.891156
 20
134.51
 30
0.0
 11
233.904876
 21
134.51
 31
0.0
 12
233.904876
 22
135.49
 32
0.0
 13
233.891156
 23
135.49
 33
0.0
  0
3DFACE
  8
0
  6
CONTINUOUS
 62
   249
 10
233.904876
 20
134.51
 30
0.0
 11
233.918596
 21
134.51
 31
0.0
 12
233.918596
 22
135.49
 32
0.0
 13
233.904876
 23
135.49
 33
0.0
  0
3DFACE
  8
0
  6
CONTINUOUS
 62
   249
 10
233.918596
 20
134.51
 30
0.0
 11
233.932316
 21
134.51
 31
0.0
 12
233.932316
 22
135.49
 32
0.0
 13
233.918596
 23
135.49
 33
0.0
  0
3DFACE
  8
0
  6
CONTINUOUS
 62
   249
 10
233.932316
 20
134.51
 30
0.0
 11
233.946036
 21
134.51
 31
0.0
 12
233.946036
 22
135.49
 32
0.0
 13
233.932316
 23
135.49
 33
0.0
  0
3DFACE
  8
0
  6
CONTINUOUS
 62
   249
 10
233.946036
 20
134.51
 30
0.0
 11
233.959756
 21
134.51
 31
0.0
 12
233.959756
 22
135.49
 32
0.0
 13
233.946036
 23
135.49
 33
0.0
  0
3DFACE
  8
0
  6
CONTINUOUS
 62
   249
 10
233.959756
 20
134.51
 30
0.0
 11
233.973476
 21
134.51
 31
0.0
 12
233.973476
 22
135.49
 32
0.0
 13
233.959756
 23
135.49
 33
0.0
  0
3DFACE
  8
0
  6
CONTINUOUS
 62
   249
 10
233.973476
 20
134.51
 30
0.0
 11
233.987196
 21
134.51
 31
0.0
 12
233.987196
 22
135.49
 32
0.0
 13
233.973476
 23
135.49
 33
0.0
  0
3DFACE
  8
0
  6
CONTINUOUS
 62
   249
 10
233.987196
 20
134.51
 30
0.0
 11
234.000916
 21
134.51
 31
0.0
 12
234.000916
 22
135.49
 32
0.0
 13
233.987196
 23
135.49
 33
0.0
  0
3DFACE
  8
0
  6
CONTINUOUS
 62
   249
 10
234.000916
 20
134.51
 30
0.0
 11
234.014636
 21
134.51
 31
0.0
 12
234.014636
 22
135.49
 32
0.0
 13
234.000916
 23
135.49
 33
0.0
  0
3DFACE
  8
0
  6
CONTINUOUS
 62
   249
 10
234.014636
 20
134.51
 30
0.0
 11
234.028356
 21
134.51
 31
0.0
 12
234.028356
 22
135.49
 32
0.0
 13
234.014636
 23
135.49
 33
0.0
  0
3DFACE
  8
0
  6
CONTINUOUS
 62
   249
 10
234.028356
 20
134.51
 30
0.0
 11
234.042076
 21
134.51
 31
0.0
 12
234.042076
 22
135.49
 32
0.0
 13
234.028356
 23
135.49
 33
0.0
  0
3DFACE
  8
0
  6
CONTINUOUS
 62
   249
 10
234.042076
 20
134.51
 30
0.0
 11
234.055796
 21
134.51
 31
0.0
 12
234.055796
 22
135.49
 32
0.0
 13
234.042076
 23
135.49
 33
0.0
  0
3DFACE
  8
0
  6
CONTINUOUS
 62
   249
 10
234.055796
 20
134.51
 30
0.0
 11
234.069516
 21
134.51
 31
0.0
 12
234.069516
 22
135.49
 32
0.0
 13
234.055796
 23
135.49
 33
0.0
  0
3DFACE
  8
0
  6
CONTINUOUS
 62
   249
 10
234.069516
 20
134.51
 30
0.0
 11
234.083236
 21
134.51
 31
0.0
 12
234.083236
 22
135.49
 32
0.0
 13
234.069516
 23
135.49
 33
0.0
  0
3DFACE
  8
0
  6
CONTINUOUS
 62
   249
 10
234.083236
 20
134.51
 30
0.0
 11
234.096956
 21
134.51
 31
0.0
 12
234.096956
 22
135.49
 32
0.0
 13
234.083236
 23
135.49
 33
0.0
  0
3DFACE
  8
0
  6
CONTINUOUS
 62
   249
 10
234.096956
 20
134.51
 30
0.0
 11
234.110676
 21
134.51
 31
0.0
 12
234.110676
 22
135.49
 32
0.0
 13
234.096956
 23
135.49
 33
0.0
  0
3DFACE
  8
0
  6
CONTINUOUS
 62
   249
 10
234.110676
 20
134.51
 30
0.0
 11
234.124396
 21
134.51
 31
0.0
 12
234.124396
 22
135.49
 32
0.0
 13
234.110676
 23
135.49
 33
0.0
  0
3DFACE
  8
0
  6
CONTINUOUS
 62
   249
 10
234.124396
 20
134.51
 30
0.0
 11
234.138116
 21
134.51
 31
0.0
 12
234.138116
 22
135.49
 32
0.0
 13
234.124396
 23
135.49
 33
0.0
  0
3DFACE
  8
0
  6
CONTINUOUS
 62
   249
 10
234.138116
 20
134.51
 30
0.0
 11
234.151836
 21
134.51
 31
0.0
 12
234.151836
 22
135.49
 32
0.0
 13
234.138116
 23
135.49
 33
0.0
  0
3DFACE
  8
0
  6
CONTINUOUS
 62
   249
 10
234.151836
 20
134.51
 30
0.0
 11
234.165556
 21
134.51
 31
0.0
 12
234.165556
 22
135.49
 32
0.0
 13
234.151836
 23
135.49
 33
0.0
  0
3DFACE
  8
0
  6
CONTINUOUS
 62
   249
 10
234.165556
 20
134.51
 30
0.0
 11
234.179276
 21
134.51
 31
0.0
 12
234.179276
 22
135.49
 32
0.0
 13
234.165556
 23
135.49
 33
0.0
  0
3DFACE
  8
0
  6
CONTINUOUS
 62
   249
 10
234.179276
 20
134.51
 30
0.0
 11
234.192996
 21
134.51
 31
0.0
 12
234.192996
 22
135.49
 32
0.0
 13
234.179276
 23
135.49
 33
0.0
  0
3DFACE
  8
0
  6
CONTINUOUS
 62
   249
 10
234.192996
 20
134.51
 30
0.0
 11
234.206716
 21
134.51
 31
0.0
 12
234.206716
 22
135.49
 32
0.0
 13
234.192996
 23
135.49
 33
0.0
  0
3DFACE
  8
0
  6
CONTINUOUS
 62
   249
 10
234.206716
 20
134.51
 30
0.0
 11
234.220436
 21
134.51
 31
0.0
 12
234.220436
 22
135.49
 32
0.0
 13
234.206716
 23
135.49
 33
0.0
  0
3DFACE
  8
0
  6
CONTINUOUS
 62
   249
 10
234.220436
 20
134.51
 30
0.0
 11
234.234156
 21
134.51
 31
0.0
 12
234.234156
 22
135.49
 32
0.0
 13
234.220436
 23
135.49
 33
0.0
  0
3DFACE
  8
0
  6
CONTINUOUS
 62
   249
 10
234.234156
 20
134.51
 30
0.0
 11
234.247876
 21
134.51
 31
0.0
 12
234.247876
 22
135.49
 32
0.0
 13
234.234156
 23
135.49
 33
0.0
  0
3DFACE
  8
0
  6
CONTINUOUS
 62
   249
 10
234.247876
 20
134.51
 30
0.0
 11
234.261596
 21
134.51
 31
0.0
 12
234.261596
 22
135.49
 32
0.0
 13
234.247876
 23
135.49
 33
0.0
  0
3DFACE
  8
0
  6
CONTINUOUS
 62
   249
 10
234.261596
 20
134.51
 30
0.0
 11
234.275316
 21
134.51
 31
0.0
 12
234.275316
 22
135.49
 32
0.0
 13
234.261596
 23
135.49
 33
0.0
  0
3DFACE
  8
0
  6
CONTINUOUS
 62
   249
 10
234.275316
 20
134.51
 30
0.0
 11
234.289036
 21
134.51
 31
0.0
 12
234.289036
 22
135.49
 32
0.0
 13
234.275316
 23
135.49
 33
0.0
  0
3DFACE
  8
0
  6
CONTINUOUS
 62
   249
 10
234.289036
 20
134.51
 30
0.0
 11
234.302756
 21
134.51
 31
0.0
 12
234.302756
 22
135.49
 32
0.0
 13
234.289036
 23
135.49
 33
0.0
  0
3DFACE
  8
0
  6
CONTINUOUS
 62
   249
 10
234.302756
 20
134.51
 30
0.0
 11
234.316476
 21
134.51
 31
0.0
 12
234.316476
 22
135.49
 32
0.0
 13
234.302756
 23
135.49
 33
0.0
  0
3DFACE
  8
0
  6
CONTINUOUS
 62
   249
 10
234.316476
 20
134.51
 30
0.0
 11
234.330196
 21
134.51
 31
0.0
 12
234.330196
 22
135.49
 32
0.0
 13
234.316476
 23
135.49
 33
0.0
  0
3DFACE
  8
0
  6
CONTINUOUS
 62
   249
 10
234.330196
 20
134.51
 30
0.0
 11
234.343916
 21
134.51
 31
0.0
 12
234.343916
 22
135.49
 32
0.0
 13
234.330196
 23
135.49
 33
0.0
  0
3DFACE
  8
0
  6
CONTINUOUS
 62
   249
 10
234.343916
 20
134.51
 30
0.0
 11
234.357636
 21
134.51
 31
0.0
 12
234.357636
 22
135.49
 32
0.0
 13
234.343916
 23
135.49
 33
0.0
  0
3DFACE
  8
0
  6
CONTINUOUS
 62
   249
 10
234.357636
 20
134.51
 30
0.0
 11
234.371356
 21
134.51
 31
0.0
 12
234.371356
 22
135.49
 32
0.0
 13
234.357636
 23
135.49
 33
0.0
  0
3DFACE
  8
0
  6
CONTINUOUS
 62
   249
 10
234.371356
 20
134.51
 30
0.0
 11
234.385076
 21
134.51
 31
0.0
 12
234.385076
 22
135.49
 32
0.0
 13
234.371356
 23
135.49
 33
0.0
  0
3DFACE
  8
0
  6
CONTINUOUS
 62
   249
 10
234.385076
 20
134.51
 30
0.0
 11
234.398796
 21
134.51
 31
0.0
 12
234.398796
 22
135.49
 32
0.0
 13
234.385076
 23
135.49
 33
0.0
  0
3DFACE
  8
0
  6
CONTINUOUS
 62
   249
 10
234.398796
 20
134.51
 30
0.0
 11
234.412516
 21
134.51
 31
0.0
 12
234.412516
 22
135.49
 32
0.0
 13
234.398796
 23
135.49
 33
0.0
  0
3DFACE
  8
0
  6
CONTINUOUS
 62
   249
 10
234.412516
 20
134.51
 30
0.0
 11
234.426236
 21
134.51
 31
0.0
 12
234.426236
 22
135.49
 32
0.0
 13
234.412516
 23
135.49
 33
0.0
  0
3DFACE
  8
0
  6
CONTINUOUS
 62
   249
 10
234.426236
 20
134.51
 30
0.0
 11
234.439956
 21
134.51
 31
0.0
 12
234.439956
 22
135.49
 32
0.0
 13
234.426236
 23
135.49
 33
0.0
  0
3DFACE
  8
0
  6
CONTINUOUS
 62
   249
 10
234.439956
 20
134.51
 30
0.0
 11
234.453676
 21
134.51
 31
0.0
 12
234.453676
 22
135.49
 32
0.0
 13
234.439956
 23
135.49
 33
0.0
  0
3DFACE
  8
0
  6
CONTINUOUS
 62
   249
 10
234.453676
 20
134.51
 30
0.0
 11
234.467396
 21
134.51
 31
0.0
 12
234.467396
 22
135.49
 32
0.0
 13
234.453676
 23
135.49
 33
0.0
  0
3DFACE
  8
0
  6
CONTINUOUS
 62
   249
 10
234.467396
 20
134.51
 30
0.0
 11
234.481116
 21
134.51
 31
0.0
 12
234.481116
 22
135.49
 32
0.0
 13
234.467396
 23
135.49
 33
0.0
  0
3DFACE
  8
0
  6
CONTINUOUS
 62
   249
 10
234.481116
 20
134.51
 30
0.0
 11
234.494836
 21
134.51
 31
0.0
 12
234.494836
 22
135.49
 32
0.0
 13
234.481116
 23
135.49
 33
0.0
  0
3DFACE
  8
0
  6
CONTINUOUS
 62
   249
 10
234.494836
 20
134.51
 30
0.0
 11
234.508556
 21
134.51
 31
0.0
 12
234.508556
 22
135.49
 32
0.0
 13
234.494836
 23
135.49
 33
0.0
  0
3DFACE
  8
0
  6
CONTINUOUS
 62
   249
 10
234.508556
 20
134.51
 30
0.0
 11
234.522276
 21
134.51
 31
0.0
 12
234.522276
 22
135.49
 32
0.0
 13
234.508556
 23
135.49
 33
0.0
  0
3DFACE
  8
0
  6
CONTINUOUS
 62
   249
 10
234.522276
 20
134.51
 30
0.0
 11
234.535996
 21
134.51
 31
0.0
 12
234.535996
 22
135.49
 32
0.0
 13
234.522276
 23
135.49
 33
0.0
  0
3DFACE
  8
0
  6
CONTINUOUS
 62
   249
 10
234.535996
 20
134.51
 30
0.0
 11
234.549716
 21
134.51
 31
0.0
 12
234.549716
 22
135.49
 32
0.0
 13
234.535996
 23
135.49
 33
0.0
  0
3DFACE
  8
0
  6
CONTINUOUS
 62
   249
 10
234.549716
 20
134.51
 30
0.0
 11
234.563436
 21
134.51
 31
0.0
 12
234.563436
 22
135.49
 32
0.0
 13
234.549716
 23
135.49
 33
0.0
  0
3DFACE
  8
0
  6
CONTINUOUS
 62
   249
 10
234.563436
 20
134.51
 30
0.0
 11
234.577156
 21
134.51
 31
0.0
 12
234.577156
 22
135.49
 32
0.0
 13
234.563436
 23
135.49
 33
0.0
  0
3DFACE
  8
0
  6
CONTINUOUS
 62
   249
 10
234.577156
 20
134.51
 30
0.0
 11
234.590876
 21
134.51
 31
0.0
 12
234.590876
 22
135.49
 32
0.0
 13
234.577156
 23
135.49
 33
0.0
  0
3DFACE
  8
0
  6
CONTINUOUS
 62
   249
 10
234.590876
 20
134.51
 30
0.0
 11
234.604596
 21
134.51
 31
0.0
 12
234.604596
 22
135.49
 32
0.0
 13
234.590876
 23
135.49
 33
0.0
  0
3DFACE
  8
0
  6
CONTINUOUS
 62
   249
 10
234.604596
 20
134.51
 30
0.0
 11
234.618316
 21
134.51
 31
0.0
 12
234.618316
 22
135.49
 32
0.0
 13
234.604596
 23
135.49
 33
0.0
  0
3DFACE
  8
0
  6
CONTINUOUS
 62
   249
 10
234.618316
 20
134.51
 30
0.0
 11
234.632036
 21
134.51
 31
0.0
 12
234.632036
 22
135.49
 32
0.0
 13
234.618316
 23
135.49
 33
0.0
  0
3DFACE
  8
0
  6
CONTINUOUS
 62
   249
 10
234.632036
 20
134.51
 30
0.0
 11
234.645756
 21
134.51
 31
0.0
 12
234.645756
 22
135.49
 32
0.0
 13
234.632036
 23
135.49
 33
0.0
  0
3DFACE
  8
0
  6
CONTINUOUS
 62
   249
 10
234.645756
 20
134.51
 30
0.0
 11
234.659476
 21
134.51
 31
0.0
 12
234.659476
 22
135.49
 32
0.0
 13
234.645756
 23
135.49
 33
0.0
  0
3DFACE
  8
0
  6
CONTINUOUS
 62
   249
 10
234.659476
 20
134.51
 30
0.0
 11
234.673196
 21
134.51
 31
0.0
 12
234.673196
 22
135.49
 32
0.0
 13
234.659476
 23
135.49
 33
0.0
  0
3DFACE
  8
0
  6
CONTINUOUS
 62
   249
 10
234.673196
 20
134.51
 30
0.0
 11
234.686916
 21
134.51
 31
0.0
 12
234.686916
 22
135.49
 32
0.0
 13
234.673196
 23
135.49
 33
0.0
  0
3DFACE
  8
0
  6
CONTINUOUS
 62
   249
 10
234.686916
 20
134.51
 30
0.0
 11
234.700636
 21
134.51
 31
0.0
 12
234.700636
 22
135.49
 32
0.0
 13
234.686916
 23
135.49
 33
0.0
  0
3DFACE
  8
0
  6
CONTINUOUS
 62
   249
 10
234.700636
 20
134.51
 30
0.0
 11
234.714356
 21
134.51
 31
0.0
 12
234.714356
 22
135.49
 32
0.0
 13
234.700636
 23
135.49
 33
0.0
  0
3DFACE
  8
0
  6
CONTINUOUS
 62
   249
 10
234.714356
 20
134.51
 30
0.0
 11
234.728076
 21
134.51
 31
0.0
 12
234.728076
 22
135.49
 32
0.0
 13
234.714356
 23
135.49
 33
0.0
  0
3DFACE
  8
0
  6
CONTINUOUS
 62
   249
 10
234.728076
 20
134.51
 30
0.0
 11
234.741796
 21
134.51
 31
0.0
 12
234.741796
 22
135.49
 32
0.0
 13
234.728076
 23
135.49
 33
0.0
  0
3DFACE
  8
0
  6
CONTINUOUS
 62
   249
 10
234.741796
 20
134.51
 30
0.0
 11
234.755516
 21
134.51
 31
0.0
 12
234.755516
 22
135.49
 32
0.0
 13
234.741796
 23
135.49
 33
0.0
  0
3DFACE
  8
0
  6
CONTINUOUS
 62
   249
 10
234.755516
 20
134.51
 30
0.0
 11
234.769236
 21
134.51
 31
0.0
 12
234.769236
 22
135.49
 32
0.0
 13
234.755516
 23
135.49
 33
0.0
  0
3DFACE
  8
0
  6
CONTINUOUS
 62
   249
 10
234.769236
 20
134.51
 30
0.0
 11
234.782956
 21
134.51
 31
0.0
 12
234.782956
 22
135.49
 32
0.0
 13
234.769236
 23
135.49
 33
0.0
  0
3DFACE
  8
0
  6
CONTINUOUS
 62
   249
 10
234.782956
 20
134.51
 30
0.0
 11
234.796676
 21
134.51
 31
0.0
 12
234.796676
 22
135.49
 32
0.0
 13
234.782956
 23
135.49
 33
0.0
  0
3DFACE
  8
0
  6
CONTINUOUS
 62
   249
 10
234.796676
 20
134.51
 30
0.0
 11
234.810396
 21
134.51
 31
0.0
 12
234.810396
 22
135.49
 32
0.0
 13
234.796676
 23
135.49
 33
0.0
  0
3DFACE
  8
0
  6
CONTINUOUS
 62
   249
 10
234.810396
 20
134.51
 30
0.0
 11
234.824116
 21
134.51
 31
0.0
 12
234.824116
 22
135.49
 32
0.0
 13
234.810396
 23
135.49
 33
0.0
  0
3DFACE
  8
0
  6
CONTINUOUS
 62
   249
 10
234.824116
 20
134.51
 30
0.0
 11
234.837836
 21
134.51
 31
0.0
 12
234.837836
 22
135.49
 32
0.0
 13
234.824116
 23
135.49
 33
0.0
  0
3DFACE
  8
0
  6
CONTINUOUS
 62
   249
 10
234.837836
 20
134.51
 30
0.0
 11
234.851556
 21
134.51
 31
0.0
 12
234.851556
 22
135.49
 32
0.0
 13
234.837836
 23
135.49
 33
0.0
  0
3DFACE
  8
0
  6
CONTINUOUS
 62
   249
 10
234.851556
 20
134.51
 30
0.0
 11
234.865276
 21
134.51
 31
0.0
 12
234.865276
 22
135.49
 32
0.0
 13
234.851556
 23
135.49
 33
0.0
  0
3DFACE
  8
0
  6
CONTINUOUS
 62
   249
 10
234.865276
 20
134.51
 30
0.0
 11
234.878996
 21
134.51
 31
0.0
 12
234.878996
 22
135.49
 32
0.0
 13
234.865276
 23
135.49
 33
0.0
  0
3DFACE
  8
0
  6
CONTINUOUS
 62
   249
 10
234.878996
 20
134.51
 30
0.0
 11
234.892716
 21
134.51
 31
0.0
 12
234.892716
 22
135.49
 32
0.0
 13
234.878996
 23
135.49
 33
0.0
  0
3DFACE
  8
0
  6
CONTINUOUS
 62
   249
 10
234.892716
 20
134.51
 30
0.0
 11
234.906436
 21
134.51
 31
0.0
 12
234.906436
 22
135.49
 32
0.0
 13
234.892716
 23
135.49
 33
0.0
  0
3DFACE
  8
0
  6
CONTINUOUS
 62
   249
 10
234.906436
 20
134.51
 30
0.0
 11
234.920156
 21
134.51
 31
0.0
 12
234.920156
 22
135.49
 32
0.0
 13
234.906436
 23
135.49
 33
0.0
  0
3DFACE
  8
0
  6
CONTINUOUS
 62
   249
 10
234.920156
 20
134.51
 30
0.0
 11
234.933876
 21
134.51
 31
0.0
 12
234.933876
 22
135.49
 32
0.0
 13
234.920156
 23
135.49
 33
0.0
  0
3DFACE
  8
0
  6
CONTINUOUS
 62
   249
 10
234.933876
 20
134.51
 30
0.0
 11
234.947596
 21
134.51
 31
0.0
 12
234.947596
 22
135.49
 32
0.0
 13
234.933876
 23
135.49
 33
0.0
  0
3DFACE
  8
0
  6
CONTINUOUS
 62
   249
 10
234.947596
 20
134.51
 30
0.0
 11
234.961316
 21
134.51
 31
0.0
 12
234.961316
 22
135.49
 32
0.0
 13
234.947596
 23
135.49
 33
0.0
  0
3DFACE
  8
0
  6
CONTINUOUS
 62
   249
 10
234.961316
 20
134.51
 30
0.0
 11
234.975036
 21
134.51
 31
0.0
 12
234.975036
 22
135.49
 32
0.0
 13
234.961316
 23
135.49
 33
0.0
  0
3DFACE
  8
0
  6
CONTINUOUS
 62
   249
 10
234.975036
 20
134.51
 30
0.0
 11
234.988756
 21
134.51
 31
0.0
 12
234.988756
 22
135.49
 32
0.0
 13
234.975036
 23
135.49
 33
0.0
  0
3DFACE
  8
0
  6
CONTINUOUS
 62
   249
 10
234.988756
 20
134.51
 30
0.0
 11
235.002476
 21
134.51
 31
0.0
 12
235.002476
 22
135.49
 32
0.0
 13
234.988756
 23
135.49
 33
0.0
  0
3DFACE
  8
0
  6
CONTINUOUS
 62
   249
 10
235.002476
 20
134.51
 30
0.0
 11
235.016196
 21
134.51
 31
0.0
 12
235.016196
 22
135.49
 32
0.0
 13
235.002476
 23
135.49
 33
0.0
  0
3DFACE
  8
0
  6
CONTINUOUS
 62
   249
 10
235.016196
 20
134.51
 30
0.0
 11
235.029916
 21
134.51
 31
0.0
 12
235.029916
 22
135.49
 32
0.0
 13
235.016196
 23
135.49
 33
0.0
  0
3DFACE
  8
0
  6
CONTINUOUS
 62
   249
 10
235.029916
 20
134.51
 30
0.0
 11
235.043636
 21
134.51
 31
0.0
 12
235.043636
 22
135.49
 32
0.0
 13
235.029916
 23
135.49
 33
0.0
  0
3DFACE
  8
0
  6
CONTINUOUS
 62
   249
 10
235.043636
 20
134.51
 30
0.0
 11
235.057356
 21
134.51
 31
0.0
 12
235.057356
 22
135.49
 32
0.0
 13
235.043636
 23
135.49
 33
0.0
  0
3DFACE
  8
0
  6
CONTINUOUS
 62
   249
 10
235.057356
 20
134.51
 30
0.0
 11
235.071076
 21
134.51
 31
0.0
 12
235.071076
 22
135.49
 32
0.0
 13
235.057356
 23
135.49
 33
0.0
  0
3DFACE
  8
0
  6
CONTINUOUS
 62
   249
 10
235.071076
 20
134.51
 30
0.0
 11
235.084796
 21
134.51
 31
0.0
 12
235.084796
 22
135.49
 32
0.0
 13
235.071076
 23
135.49
 33
0.0
  0
3DFACE
  8
0
  6
CONTINUOUS
 62
   249
 10
235.084796
 20
134.51
 30
0.0
 11
235.098516
 21
134.51
 31
0.0
 12
235.098516
 22
135.49
 32
0.0
 13
235.084796
 23
135.49
 33
0.0
  0
3DFACE
  8
0
  6
CONTINUOUS
 62
   249
 10
235.098516
 20
134.51
 30
0.0
 11
235.112236
 21
134.51
 31
0.0
 12
235.112236
 22
135.49
 32
0.0
 13
235.098516
 23
135.49
 33
0.0
  0
3DFACE
  8
0
  6
CONTINUOUS
 62
   249
 10
235.112236
 20
134.51
 30
0.0
 11
235.125956
 21
134.51
 31
0.0
 12
235.125956
 22
135.49
 32
0.0
 13
235.112236
 23
135.49
 33
0.0
  0
3DFACE
  8
0
  6
CONTINUOUS
 62
   249
 10
235.125956
 20
134.51
 30
0.0
 11
235.139676
 21
134.51
 31
0.0
 12
235.139676
 22
135.49
 32
0.0
 13
235.125956
 23
135.49
 33
0.0
  0
3DFACE
  8
0
  6
CONTINUOUS
 62
   249
 10
235.139676
 20
134.51
 30
0.0
 11
235.153396
 21
134.51
 31
0.0
 12
235.153396
 22
135.49
 32
0.0
 13
235.139676
 23
135.49
 33
0.0
  0
3DFACE
  8
0
  6
CONTINUOUS
 62
   249
 10
235.153396
 20
134.51
 30
0.0
 11
235.167116
 21
134.51
 31
0.0
 12
235.167116
 22
135.49
 32
0.0
 13
235.153396
 23
135.49
 33
0.0
  0
3DFACE
  8
0
  6
CONTINUOUS
 62
   249
 10
235.167116
 20
134.51
 30
0.0
 11
235.180836
 21
134.51
 31
0.0
 12
235.180836
 22
135.49
 32
0.0
 13
235.167116
 23
135.49
 33
0.0
  0
3DFACE
  8
0
  6
CONTINUOUS
 62
   249
 10
235.180836
 20
134.51
 30
0.0
 11
235.194556
 21
134.51
 31
0.0
 12
235.194556
 22
135.49
 32
0.0
 13
235.180836
 23
135.49
 33
0.0
  0
3DFACE
  8
0
  6
CONTINUOUS
 62
   249
 10
235.194556
 20
134.51
 30
0.0
 11
235.208276
 21
134.51
 31
0.0
 12
235.208276
 22
135.49
 32
0.0
 13
235.194556
 23
135.49
 33
0.0
  0
3DFACE
  8
0
  6
CONTINUOUS
 62
   249
 10
235.208276
 20
134.51
 30
0.0
 11
235.221996
 21
134.51
 31
0.0
 12
235.221996
 22
135.49
 32
0.0
 13
235.208276
 23
135.49
 33
0.0
  0
3DFACE
  8
0
  6
CONTINUOUS
 62
   249
 10
235.221996
 20
134.51
 30
0.0
 11
235.235716
 21
134.51
 31
0.0
 12
235.235716
 22
135.49
 32
0.0
 13
235.221996
 23
135.49
 33
0.0
  0
3DFACE
  8
0
  6
CONTINUOUS
 62
   249
 10
235.235716
 20
134.51
 30
0.0
 11
235.249436
 21
134.51
 31
0.0
 12
235.249436
 22
135.49
 32
0.0
 13
235.235716
 23
135.49
 33
0.0
  0
LINE
  8
0
  6
CONTINUOUS
 62
   249
 10
252.5
 20
160.990022
 30
0.0
 11
252.5
 21
158.344365
 31
0.0
  0
LINE
  8
0
  6
CONTINUOUS
 62
   249
 10
251.896305
 20
156.562812
 30
0.0
 11
253.103695
 21
156.562812
 31
0.0
  0
LINE
  8
0
  6
CONTINUOUS
 62
   249
 10
251.463807
 20
157.450325
 30
0.0
 11
253.527182
 21
157.450325
 31
0.0
  0
LINE
  8
0
  6
CONTINUOUS
 62
   249
 10
250.968237
 20
158.344365
 30
0.0
 11
254.031763
 21
158.344365
 31
0.0
  0
ARC
  8
0
  6
CONTINUOUS
 62
   249
 10
252.5
 20
165.0
 30
0.0
 40
0.5
 50
180.0
 51
0.0
  0
ARC
  8
0
  6
CONTINUOUS
 62
   249
 10
252.5
 20
165.0
 30
0.0
 40
0.5
 50
0.0
 51
180.0
  0
LINE
  8
0
 62
   249
 10
215.0
 20
184.99845
 30
0.0
 11
215.0
 21
194.99845
 31
0.0
  0
LINE
  8
0
 62
   249
 10
217.5
 20
195.0
 30
0.0
 11
220.0
 21
195.0
 31
0.0
  0
LINE
  8
0
 62
   249
 10
215.0
 20
194.99845
 30
0.0
 11
217.5
 21
194.99845
 31
0.0
  0
LINE
  8
0
 62
   249
 10
212.5
 20
190.0
 30
0.0
 11
217.5
 21
190.0
 31
0.0
  0
LINE
  8
0
 62
   249
 10
217.5
 20
190.0
 30
0.0
 11
220.0
 21
190.0
 31
0.0
  0
LINE
  8
0
 62
   249
 10
220.0
 20
190.0
 30
0.0
 11
220.0
 21
192.9
 31
0.0
  0
LINE
  8
0
 62
   249
 10
218.88095
 20
191.944425
 30
0.0
 11
219.560313
 21
191.008681
 31
0.0
  0
LINE
  8
0
 62
   249
 10
225.0
 20
195.0
 30
0.0
 11
219.2
 21
191.5
 31
0.0
  0
LINE
  8
0
 62
   249
 10
217.5
 20
184.99845
 30
0.0
 11
215.0
 21
184.99845
 31
0.0
  0
LINE
  8
0
 62
   249
 10
217.5
 20
185.0
 30
0.0
 11
220.0
 21
185.0
 31
0.0
  0
LINE
  8
0
  6
CONTINUOUS
 62
   249
 10
202.852984
 20
193.664843
 30
0.0
 11
200.507219
 21
195.000196
 31
0.0
  0
LINE
  8
0
  6
CONTINUOUS
 62
   249
 10
200.507219
 20
195.000196
 30
0.0
 11
202.852984
 21
196.190116
 31
0.0
  0
ARC
  8
0
  6
CONTINUOUS
 62
   249
 10
240.0
 20
185.0
 30
0.0
 40
0.5
 50
180.0
 51
0.0
  0
ARC
  8
0
  6
CONTINUOUS
 62
   249
 10
240.0
 20
185.0
 30
0.0
 40
0.5
 50
0.0
 51
180.0
  0
LINE
  8
0
  6
CONTINUOUS
 62
   249
 10
255.0
 20
184.577547
 30
0.0
 11
255.0
 21
181.93189
 31
0.0
  0
LINE
  8
0
  6
CONTINUOUS
 62
   249
 10
254.396305
 20
180.150336
 30
0.0
 11
255.603695
 21
180.150336
 31
0.0
  0
LINE
  8
0
  6
CONTINUOUS
 62
   249
 10
253.963807
 20
181.03785
 30
0.0
 11
256.027182
 21
181.03785
 31
0.0
  0
LINE
  8
0
  6
CONTINUOUS
 62
   249
 10
253.468237
 20
181.93189
 30
0.0
 11
256.531763
 21
181.93189
 31
0.0
  0
ARC
  8
0
  6
CONTINUOUS
 62
   249
 10
255.0
 20
185.0
 30
0.0
 40
0.5
 50
180.0
 51
0.0
  0
ARC
  8
0
  6
CONTINUOUS
 62
   249
 10
255.0
 20
185.0
 30
0.0
 40
0.5
 50
0.0
 51
180.0
  0
ARC
  8
0
  6
CONTINUOUS
 62
   249
 10
255.0
 20
190.189984
 30
0.0
 40
0.5
 50
180.0
 51
0.0
  0
ARC
  8
0
  6
CONTINUOUS
 62
   249
 10
255.0
 20
190.189984
 30
0.0
 40
0.5
 50
0.0
 51
180.0
  0
LINE
  8
0
  6
CONTINUOUS
 62
   249
 10
262.5
 20
160.990022
 30
0.0
 11
262.5
 21
158.344365
 31
0.0
  0
LINE
  8
0
  6
CONTINUOUS
 62
   249
 10
261.896305
 20
156.562812
 30
0.0
 11
263.103695
 21
156.562812
 31
0.0
  0
LINE
  8
0
  6
CONTINUOUS
 62
   249
 10
261.463807
 20
157.450325
 30
0.0
 11
263.527182
 21
157.450325
 31
0.0
  0
LINE
  8
0
  6
CONTINUOUS
 62
   249
 10
260.968237
 20
158.344365
 30
0.0
 11
264.031763
 21
158.344365
 31
0.0
  0
INSERT
  8
0
  6
CENTER
 62
   249
  2
BLC26
 10
266.41053
 20
167.390461
 30
0.0
 41
1.006225
 42
1.006225
 50
180.0
 43
1.006225
  0
INSERT
  8
0
  6
CENTER
 62
   249
  2
BLC26
 10
271.410526
 20
192.580446
 30
0.0
 41
1.006225
 42
1.006225
 50
180.0
 43
1.006225
  0
ARC
  8
0
  6
CONTINUOUS
 62
   249
 10
262.5
 20
182.5
 30
0.0
 40
0.5
 50
180.0
 51
0.0
  0
ARC
  8
0
  6
CONTINUOUS
 62
   249
 10
262.5
 20
182.5
 30
0.0
 40
0.5
 50
0.0
 51
180.0
  0
ARC
  8
0
  6
CONTINUOUS
 62
   249
 10
287.5
 20
255.0
 30
0.0
 40
0.5
 50
180.0
 51
0.0
  0
ARC
  8
0
  6
CONTINUOUS
 62
   249
 10
287.5
 20
255.0
 30
0.0
 40
0.5
 50
0.0
 51
180.0
  0
ARC
  8
0
  6
CONTINUOUS
 62
   249
 10
260.0
 20
255.0
 30
0.0
 40
0.5
 50
180.0
 51
0.0
  0
ARC
  8
0
  6
CONTINUOUS
 62
   249
 10
260.0
 20
255.0
 30
0.0
 40
0.5
 50
0.0
 51
180.0
  0
INSERT
  8
0
  6
CENTER
 62
   249
  2
BLC26
 10
286.046562
 20
230.109534
 30
0.0
 41
1.006225
 42
1.006225
 43
1.006225
  0
ARC
  8
0
  6
CONTINUOUS
 62
   249
 10
270.0
 20
245.0
 30
0.0
 40
0.5
 50
180.0
 51
0.0
  0
ARC
  8
0
  6
CONTINUOUS
 62
   249
 10
270.0
 20
245.0
 30
0.0
 40
0.5
 50
0.0
 51
180.0
  0
ARC
  8
0
  6
CONTINUOUS
 62
   249
 10
265.0
 20
250.0
 30
0.0
 40
0.5
 50
180.0
 51
0.0
  0
ARC
  8
0
  6
CONTINUOUS
 62
   249
 10
265.0
 20
250.0
 30
0.0
 40
0.5
 50
0.0
 51
180.0
  0
INSERT
  8
0
  6
CENTER
 62
   249
  2
BLC26
 10
293.546562
 20
230.109534
 30
0.0
 41
1.006225
 42
1.006225
 43
1.006225
  0
INSERT
  8
0
  6
CENTER
 62
   249
  2
BLC26
 10
301.046562
 20
230.109534
 30
0.0
 41
1.006225
 42
1.006225
 43
1.006225
  0
ARC
  8
0
  6
CONTINUOUS
 62
   249
 10
312.5
 20
222.5
 30
0.0
 40
0.5
 50
180.0
 51
0.0
  0
ARC
  8
0
  6
CONTINUOUS
 62
   249
 10
312.5
 20
222.5
 30
0.0
 40
0.5
 50
0.0
 51
180.0
  0
ARC
  8
0
  6
CONTINUOUS
 62
   249
 10
302.5
 20
245.0
 30
0.0
 40
0.5
 50
180.0
 51
0.0
  0
ARC
  8
0
  6
CONTINUOUS
 62
   249
 10
302.5
 20
245.0
 30
0.0
 40
0.5
 50
0.0
 51
180.0
  0
ARC
  8
0
  6
CONTINUOUS
 62
   249
 10
295.0
 20
250.0
 30
0.0
 40
0.5
 50
180.0
 51
0.0
  0
ARC
  8
0
  6
CONTINUOUS
 62
   249
 10
295.0
 20
250.0
 30
0.0
 40
0.5
 50
0.0
 51
180.0
  0
LINE
  8
0
  6
CONTINUOUS
 62
   249
 10
368.605198
 20
213.569741
 30
0.0
 11
369.853871
 21
212.858919
 31
0.0
  0
LINE
  8
0
  6
CONTINUOUS
 62
   249
 10
369.853871
 20
212.858919
 30
0.0
 11
368.605198
 21
212.225514
 31
0.0
  0
LINE
  8
0
  6
CONTINUOUS
 62
   249
 10
364.980832
 20
212.134783
 30
0.0
 11
363.732159
 21
212.845604
 31
0.0
  0
LINE
  8
0
  6
CONTINUOUS
 62
   249
 10
363.732159
 20
212.845604
 30
0.0
 11
364.980832
 21
213.479009
 31
0.0
  0
LINE
  8
0
  6
CONTINUOUS
 62
   249
 10
364.980832
 20
220.396131
 30
0.0
 11
363.732159
 21
221.106952
 31
0.0
  0
LINE
  8
0
  6
CONTINUOUS
 62
   249
 10
363.732159
 20
221.106952
 30
0.0
 11
364.980832
 21
221.740357
 31
0.0
  0
LINE
  8
0
  6
CONTINUOUS
 62
   249
 10
366.278849
 20
214.68506
 30
0.0
 11
367.165736
 21
214.68506
 31
0.0
  0
LINE
  8
0
  6
CONTINUOUS
 62
   249
 10
365.947745
 20
215.296693
 30
0.0
 11
367.532316
 21
215.296693
 31
0.0
  0
LINE
  8
0
  6
CONTINUOUS
 62
   249
 10
366.763681
 20
215.918755
 30
0.0
 11
367.958022
 21
215.918755
 31
0.0
  0
LINE
  8
0
  6
CONTINUOUS
 62
   249
 10
365.56934
 20
215.918755
 30
0.0
 11
366.763681
 21
215.918755
 31
0.0
  0
LINE
  8
0
  6
CONTINUOUS
 62
   249
 10
366.779567
 20
217.273026
 30
0.0
 11
366.779567
 21
215.918755
 31
0.0
  0
LINE
  8
0
  6
CONTINUOUS
 62
   249
 10
368.605198
 20
221.831089
 30
0.0
 11
369.853871
 21
221.120267
 31
0.0
  0
LINE
  8
0
  6
CONTINUOUS
 62
   249
 10
369.853871
 20
221.120267
 30
0.0
 11
368.605198
 21
220.486862
 31
0.0
  0
LINE
  8
0
  6
CONTINUOUS
 62
   249
 10
366.278849
 20
227.59591
 30
0.0
 11
367.165736
 21
227.59591
 31
0.0
  0
LINE
  8
0
  6
CONTINUOUS
 62
   249
 10
365.947745
 20
228.207544
 30
0.0
 11
367.532316
 21
228.207544
 31
0.0
  0
LINE
  8
0
  6
CONTINUOUS
 62
   249
 10
366.763681
 20
228.829606
 30
0.0
 11
367.958022
 21
228.829606
 31
0.0
  0
LINE
  8
0
  6
CONTINUOUS
 62
   249
 10
365.56934
 20
228.829606
 30
0.0
 11
366.763681
 21
228.829606
 31
0.0
  0
LINE
  8
0
  6
CONTINUOUS
 62
   249
 10
366.779567
 20
230.183876
 30
0.0
 11
366.779567
 21
228.829606
 31
0.0
  0
ENDSEC
  0
EOF
