  0
SECTION
  2
HEADER
  9
$ACADVER
  1
AC1009
  9
$DWGCODEPAGE
  3
iso8859-1
  9
$INSBASE
 10
0.0
 20
0.0
 30
0.0
  9
$EXTMIN
 10
1.0E20
 20
1.0E20
  9
$EXTMAX
 10
-1.0E20
 20
-1.0E20
  9
$LIMMIN
 10
0.0
 20
0.0
  9
$LIMMAX
 10
12.0
 20
9.0
  9
$ORTHOMODE
 70
     0
  9
$REGENMODE
 70
     1
  9
$FILLMODE
 70
     1
  9
$QTEXTMODE
 70
     0
  9
$MIRRTEXT
 70
     1
  9
$DRAGMODE
 70
     2
  9
$LTSCALE
 40
15.0
  9
$OSMODE
 70
     0
  9
$ATTMODE
 70
     1
  9
$TEXTSIZE
 40
0.2
  9
$TRACEWID
 40
0.05
  9
$TEXTSTYLE
  7
STANDARD
  9
$CLAYER
  8
0
  9
$CELTYPE
  6
DASHED
  9
$CECOLOR
 62
   256
  9
$DIMSCALE
 40
1.0
  9
$DIMASZ
 40
0.18
  9
$DIMEXO
 40
0.0625
  9
$DIMDLI
 40
0.38
  9
$DIMRND
 40
0.0
  9
$DIMDLE
 40
0.0
  9
$DIMEXE
 40
0.18
  9
$DIMTP
 40
0.0
  9
$DIMTM
 40
0.0
  9
$DIMTXT
 40
0.18
  9
$DIMCEN
 40
0.09
  9
$DIMTSZ
 40
0.0
  9
$DIMTOL
 70
     0
  9
$DIMLIM
 70
     0
  9
$DIMTIH
 70
     1
  9
$DIMTOH
 70
     1
  9
$DIMSE1
 70
     0
  9
$DIMSE2
 70
     0
  9
$DIMTAD
 70
     0
  9
$DIMZIN
 70
     0
  9
$DIMBLK
  1

  9
$DIMASO
 70
     1
  9
$DIMSHO
 70
     1
  9
$DIMPOST
  1

  9
$DIMAPOST
  1

  9
$DIMALT
 70
     0
  9
$DIMALTD
 70
     2
  9
$DIMALTF
 40
25.4
  9
$DIMLFAC
 40
1.0
  9
$DIMTOFL
 70
     0
  9
$DIMTVP
 40
0.0
  9
$DIMTIX
 70
     0
  9
$DIMSOXD
 70
     0
  9
$DIMSAH
 70
     0
  9
$DIMBLK1
  1

  9
$DIMBLK2
  1

  9
$DIMSTYLE
  2
STANDARD
  9
$DIMCLRD
 70
     0
  9
$DIMCLRE
 70
     0
  9
$DIMCLRT
 70
     0
  9
$DIMTFAC
 40
1.0
  9
$DIMGAP
 40
0.09
  9
$LUNITS
 70
     2
  9
$LUPREC
 70
     4
  9
$AXISMODE
 70
     0
  9
$AXISUNIT
 10
0.0
 20
0.0
  9
$SKETCHINC
 40
0.1
  9
$FILLETRAD
 40
0.0
  9
$AUNITS
 70
     0
  9
$AUPREC
 70
     0
  9
$MENU
  1
acad
  9
$ELEVATION
 40
0.0
  9
$PELEVATION
 40
0.0
  9
$THICKNESS
 40
0.0
  9
$LIMCHECK
 70
     0
  9
$BLIPMODE
 70
     1
  9
$CHAMFERA
 40
0.0
  9
$CHAMFERB
 40
0.0
  9
$SKPOLY
 70
     0
  9
$TDCREATE
 40
0.000000000
  9
$TDUPDATE
 40
0.000000000
  9
$TDINDWG
 40
0.0
  9
$TDUSRTIMER
 40
0.0
  9
$USRTIMER
 70
     1
  9
$ANGBASE
 50
0.0
  9
$ANGDIR
 70
     0
  9
$PDMODE
 70
     0
  9
$PDSIZE
 40
0.0
  9
$PLINEWID
 40
0.0
  9
$COORDS
 70
     1
  9
$SPLFRAME
 70
     0
  9
$SPLINETYPE
 70
     6
  9
$SPLINESEGS
 70
     8
  9
$ATTDIA
 70
     0
  9
$ATTREQ
 70
     1
  9
$HANDLING
 70
     1
  9
$HANDSEED
  5
   6F5
  9
$SURFTAB1
 70
     6
  9
$SURFTAB2
 70
     6
  9
$SURFTYPE
 70
     6
  9
$SURFU
 70
     6
  9
$SURFV
 70
     6
  9
$UCSNAME
  2

  9
$UCSORG
 10
0.0
 20
0.0
 30
0.0
  9
$UCSXDIR
 10
1.0
 20
0.0
 30
0.0
  9
$UCSYDIR
 10
0.0
 20
1.0
 30
0.0
  9
$PUCSNAME
  2

  9
$PUCSORG
 10
0.0
 20
0.0
 30
0.0
  9
$PUCSXDIR
 10
1.0
 20
0.0
 30
0.0
  9
$PUCSYDIR
 10
0.0
 20
1.0
 30
0.0
  9
$USERI1
 70
     0
  9
$USERI2
 70
     0
  9
$USERI3
 70
     0
  9
$USERI4
 70
     0
  9
$USERI5
 70
     0
  9
$USERR1
 40
0.0
  9
$USERR2
 40
0.0
  9
$USERR3
 40
0.0
  9
$USERR4
 40
0.0
  9
$USERR5
 40
0.0
  9
$WORLDVIEW
 70
     1
  9
$SHADEDGE
 70
     3
  9
$SHADEDIF
 70
    70
  9
$TILEMODE
 70
     1
  9
$MAXACTVP
 70
    16
  9
$PINSBASE
 10
0.0
 20
0.0
 30
0.0
  9
$PLIMCHECK
 70
     0
  9
$PEXTMIN
 10
1.0E20
 20
1.0E20
 30
1.0E20
  9
$PEXTMAX
 10
-1.0E20
 20
-1.0E20
 30
-1.0E20
  9
$PLIMMIN
 10
0.0
 20
0.0
  9
$PLIMMAX
 10
12.0
 20
9.0
  9
$UNITMODE
 70
     0
  9
$VISRETAIN
 70
     0
  0
ENDSEC
  0
SECTION
  2
TABLES
  0
TABLE
  2
VPORT
 70
     1
  0
VPORT
  2
*ACTIVE
 70
     0
 10
0.0
 20
0.0
 11
1.0
 21
1.0
 12
6.801242
 22
4.5
 13
0.0
 23
0.0
 14
1.0
 24
1.0
 15
0.0
 25
0.0
 16
0.0
 26
0.0
 36
1.0
 17
0.0
 27
0.0
 37
0.0
 40
9.0
 41
1.511387
 42
50.0
 43
0.0
 44
0.0
 50
0.0
 51
0.0
 71
     0
 72
   100
 73
     1
 74
     1
 75
     0
 76
     0
 77
     0
 78
     0
  0
ENDTAB
  0
TABLE
  2
LTYPE
 70
    41
  0
LTYPE
  2
BYBLOCK
 70
     0
  3

 72
    65
 73
     0
 40
0.0
  0
LTYPE
  2
BYLAYER
 70
     0
  3

 72
    65
 73
     0
 40
0.0
  0
LTYPE
  2
CONTINUOUS
 70
     0
  3
Solid line
 72
    65
 73
     0
 40
0.0
  0
LTYPE
  2
BORDER
 70
    64
  3
__ __ . __ __ . __ __ . __ __ . __ __ . __ __ .
 72
    65
 73
     6
 40
1.75
 49
0.5
 49
-0.25
 49
0.5
 49
-0.25
 49
0.0
 49
-0.25
  0
LTYPE
  2
BORDER2
 70
    64
  3
__.__.__.__.__.__.__.__.__.__.__.__.__.__.__.__
 72
    65
 73
     6
 40
0.875
 49
0.25
 49
-0.125
 49
0.25
 49
-0.125
 49
0.0
 49
-0.125
  0
LTYPE
  2
BORDERX2
 70
    64
  3
____  ____  .  ____  ____  .  ____  ____  .  __
 72
    65
 73
     6
 40
3.5
 49
1.0
 49
-0.5
 49
1.0
 49
-0.5
 49
0.0
 49
-0.5
  0
LTYPE
  2
CENTER
 70
    64
  3
____ _ ____ _ ____ _ ____ _ ____ _ ____ _ ____
 72
    65
 73
     4
 40
2.0
 49
1.25
 49
-0.25
 49
0.25
 49
-0.25
  0
LTYPE
  2
CENTER2
 70
    64
  3
___ _ ___ _ ___ _ ___ _ ___ _ ___ _ ___ _ ___ _
 72
    65
 73
     4
 40
1.125
 49
0.75
 49
-0.125
 49
0.125
 49
-0.125
  0
LTYPE
  2
CENTERX2
 70
    64
  3
________  __  ________  __  ________  __  _____
 72
    65
 73
     4
 40
4.0
 49
2.5
 49
-0.5
 49
0.5
 49
-0.5
  0
LTYPE
  2
DASHDOT
 70
    64
  3
__ . __ . __ . __ . __ . __ . __ . __ . __ . __
 72
    65
 73
     4
 40
1.0
 49
0.5
 49
-0.25
 49
0.0
 49
-0.25
  0
LTYPE
  2
DASHDOT2
 70
    64
  3
_._._._._._._._._._._._._._._._._._._._._._._._
 72
    65
 73
     4
 40
0.5
 49
0.25
 49
-0.125
 49
0.0
 49
-0.125
  0
LTYPE
  2
DASHDOTX2
 70
    64
  3
____  .  ____  .  ____  .  ____  .  ____  .  __
 72
    65
 73
     4
 40
2.0
 49
1.0
 49
-0.5
 49
0.0
 49
-0.5
  0
LTYPE
  2
DASHED
 70
    64
  3
__ __ __ __ __ __ __ __ __ __ __ __ __ __ __ __
 72
    65
 73
     2
 40
0.75
 49
0.5
 49
-0.25
  0
LTYPE
  2
DASHED2
 70
    64
  3
_ _ _ _ _ _ _ _ _ _ _ _ _ _ _ _ _ _ _ _ _ _ _ _
 72
    65
 73
     2
 40
0.375
 49
0.25
 49
-0.125
  0
LTYPE
  2
DASHEDX2
 70
    64
  3
____  ____  ____  ____  ____  ____  ____  ____
 72
    65
 73
     2
 40
1.5
 49
1.0
 49
-0.5
  0
LTYPE
  2
DIVIDE
 70
    64
  3
____ . . ____ . . ____ . . ____ . . ____ . . __
 72
    65
 73
     6
 40
1.25
 49
0.5
 49
-0.25
 49
0.0
 49
-0.25
 49
0.0
 49
-0.25
  0
LTYPE
  2
DIVIDE2
 70
    64
  3
__..__..__..__..__..__..__..__..__..__..__..__.
 72
    65
 73
     6
 40
0.625
 49
0.25
 49
-0.125
 49
0.0
 49
-0.125
 49
0.0
 49
-0.125
  0
LTYPE
  2
DIVIDEX2
 70
    64
  3
________  .  .  ________  .  .  ________  .  .
 72
    65
 73
     6
 40
2.5
 49
1.0
 49
-0.5
 49
0.0
 49
-0.5
 49
0.0
 49
-0.5
  0
LTYPE
  2
DOT
 70
    64
  3
. . . . . . . . . . . . . . . . . . . . . . . .
 72
    65
 73
     2
 40
0.25
 49
0.0
 49
-0.25
  0
LTYPE
  2
DOT2
 70
    64
  3
...............................................
 72
    65
 73
     2
 40
0.125
 49
0.0
 49
-0.125
  0
LTYPE
  2
DOTX2
 70
    64
  3
.  .  .  .  .  .  .  .  .  .  .  .  .  .  .  .
 72
    65
 73
     2
 40
0.5
 49
0.0
 49
-0.5
  0
LTYPE
  2
HIDDEN
 70
    64
  3
__ __ __ __ __ __ __ __ __ __ __ __ __ __ __ __
 72
    65
 73
     2
 40
0.375
 49
0.25
 49
-0.125
  0
LTYPE
  2
HIDDEN2
 70
    64
  3
_ _ _ _ _ _ _ _ _ _ _ _ _ _ _ _ _ _ _ _ _ _ _ _
 72
    65
 73
     2
 40
0.1875
 49
0.125
 49
-0.0625
  0
LTYPE
  2
HIDDENX2
 70
    64
  3
____ ____ ____ ____ ____ ____ ____ ____ ____ __
 72
    65
 73
     2
 40
0.75
 49
0.5
 49
-0.25
  0
LTYPE
  2
PHANTOM
 70
    64
  3
______  __  __  ______  __  __  ______  __  __
 72
    65
 73
     6
 40
2.5
 49
1.25
 49
-0.25
 49
0.25
 49
-0.25
 49
0.25
 49
-0.25
  0
LTYPE
  2
PHANTOM2
 70
    64
  3
___ _ _ ___ _ _ ___ _ _ ___ _ _ ___ _ _ ___ _ _
 72
    65
 73
     6
 40
1.25
 49
0.625
 49
-0.125
 49
0.125
 49
-0.125
 49
0.125
 49
-0.125
  0
LTYPE
  2
PHANTOMX2
 70
    64
  3
____________    ____    ____    ____________
 72
    65
 73
     6
 40
5.0
 49
2.5
 49
-0.5
 49
0.5
 49
-0.5
 49
0.5
 49
-0.5
  0
LTYPE
  2
ACAD_ISO02W100
 70
    64
  3
__ __ __ __ __ __ __ __ __ __ __ __ __ __ __ __
 72
    65
 73
     2
 40
15.0
 49
12.0
 49
-3.0
  0
LTYPE
  2
ACAD_ISO03W100
 70
    64
  3
__    __    __    __    __    __    __    __
 72
    65
 73
     2
 40
30.0
 49
12.0
 49
-18.0
  0
LTYPE
  2
ACAD_ISO04W100
 70
    64
  3
____ . ____ . ____ . ____ . ____ . ____ . ____
 72
    65
 73
     4
 40
30.5
 49
24.0
 49
-3.0
 49
0.5
 49
-3.0
  0
LTYPE
  2
ACAD_ISO05W100
 70
    64
  3
____ .. ____ .. ____ .. ____ .. ____ .. ____ ..
 72
    65
 73
     6
 40
34.0
 49
24.0
 49
-3.0
 49
0.5
 49
-3.0
 49
0.5
 49
-3.0
  0
LTYPE
  2
ACAD_ISO06W100
 70
    64
  3
____ ... ____ ... ____ ... ____ ... ____ ... __
 72
    65
 73
     8
 40
37.5
 49
24.0
 49
-3.0
 49
0.5
 49
-3.0
 49
0.5
 49
-3.0
 49
0.5
 49
-3.0
  0
LTYPE
  2
ACAD_ISO07W100
 70
    64
  3
. . . . . . . . . . . . . . . . . . . . . . . .
 72
    65
 73
     2
 40
3.5
 49
0.5
 49
-3.0
  0
LTYPE
  2
ACAD_ISO08W100
 70
    64
  3
____ __ ____ __ ____ __ ____ ____ __ __ ____ __
 72
    65
 73
     4
 40
36.0
 49
24.0
 49
-3.0
 49
6.0
 49
-3.0
  0
LTYPE
  2
ACAD_ISO09W100
 70
    64
  3
____ __ __ ____ __ __ ____ __ __ ____ __ __ ___
 72
    65
 73
     6
 40
45.0
 49
24.0
 49
-3.0
 49
6.0
 49
-3.0
 49
6.0
 49
-3.0
  0
LTYPE
  2
ACAD_ISO10W100
 70
    64
  3
__ . __ . __ . __ . __ . __ . __ . __ . __ . __
 72
    65
 73
     4
 40
18.5
 49
12.0
 49
-3.0
 49
0.5
 49
-3.0
  0
LTYPE
  2
ACAD_ISO11W100
 70
    64
  3
__ __ . __ __ . __ __ . __ __ . __ __ . __ __ .
 72
    65
 73
     6
 40
33.5
 49
12.0
 49
-3.0
 49
12.0
 49
-3.0
 49
0.5
 49
-3.0
  0
LTYPE
  2
ACAD_ISO12W100
 70
    64
  3
__ . . __ . . __ . . __ . . __ . . __ . . __ .
 72
    65
 73
     6
 40
22.0
 49
12.0
 49
-3.0
 49
0.5
 49
-3.0
 49
0.5
 49
-3.0
  0
LTYPE
  2
ACAD_ISO13W100
 70
    64
  3
__ __ . . __ __ . . __ __ . . __ __ . . __ __ .
 72
    65
 73
     8
 40
37.0
 49
12.0
 49
-3.0
 49
12.0
 49
-3.0
 49
0.5
 49
-3.0
 49
0.5
 49
-3.0
  0
LTYPE
  2
ACAD_ISO14W100
 70
    64
  3
__ . . . __ . . . __ . . . __ . . . __ . . . __
 72
    65
 73
     8
 40
25.5
 49
12.0
 49
-3.0
 49
0.5
 49
-3.0
 49
0.5
 49
-3.0
 49
0.5
 49
-3.0
  0
LTYPE
  2
ACAD_ISO15W100
 70
    64
  3
__ __ . . . __ __ . . . __ __ . . . __ __ . . .
 72
    65
 73
    10
 40
40.5
 49
12.0
 49
-3.0
 49
12.0
 49
-3.0
 49
0.5
 49
-3.0
 49
0.5
 49
-3.0
 49
0.5
 49
-3.0
  0
ENDTAB
  0
TABLE
  2
STYLE
 70
     4
  0
STYLE
  2
STANDARD
 70
    64
 40
0.0
 41
1.0
 50
0.0
 71
     0
 42
0.2
  3
txt
  4

  0
STYLE
  2
TOLERANCE
 70
    64
 40
0.0
 41
1.0
 50
0.0
 71
     0
 42
0.2
  3
../igesfont/iges1003.shx
  4

  0
STYLE
  2
ROMANS
 70
    64
 40
0.0
 41
1.0
 50
0.0
 71
     0
 42
0.2
  3
romans.shx
  4

  0
STYLE
  2
ROMANC
 70
    64
 40
0.0
 41
1.0
 50
0.0
 71
     0
 42
0.2
  3
romanc.shx
  4

  0
ENDTAB
  0
TABLE
  2
DIMSTYLE
 70
     2
  0
DIMSTYLE
  2
UNNAMED
 70
     0
  3

  4

  5

  6

  7

 40
1.0
 41
0.18
 42
0.0625
 43
0.38
 44
0.18
 45
0.0
 46
0.0
 47
0.0
 48
0.0
140
0.18
141
0.09
142
0.0
143
25.4
144
1.0
145
0.0
146
1.0
147
0.09
 71
     0
 72
     0
 73
     1
 74
     1
 75
     0
 76
     0
 77
     0
 78
     0
170
     0
171
     2
172
     0
173
     0
174
     0
175
     0
176
     0
177
     0
178
     0
  0
DIMSTYLE
  2
STANDARD
 70
     0
  3

  4

  5

  6

  7

 40
1.0
 41
0.18
 42
0.0625
 43
0.38
 44
0.18
 45
0.0
 46
0.0
 47
0.0
 48
0.0
140
0.18
141
0.09
142
0.0
143
25.4
144
1.0
145
0.0
146
1.0
147
0.09
 71
     0
 72
     0
 73
     1
 74
     1
 75
     0
 76
     0
 77
     0
 78
     0
170
     0
171
     2
172
     0
173
     0
174
     0
175
     0
176
     0
177
     0
178
     0
  0
ENDTAB
  0
TABLE
  2
LAYER
 70
     2
  0
LAYER
  2
0
 70
     0
 62
     7
  6
CONTINUOUS
  0
LAYER
  2
255
 70
     0
 62
     7
  6
CONTINUOUS
  0
ENDTAB
  0
ENDSEC
  0
SECTION
  2
BLOCKS
  0
BLOCK
  5
     B
  8
0
  6
CONTINUOUS
 62
     7
  2
MOSTRA
 70
    64
 10
0.0
 20
0.0
 30
0.0
  3
MOSTRA
  0
LINE
  5
     C
  8
0
  6
CONTINUOUS
 62
     1
 10
75.9999847412109
 20
-24.000020980835
 30
0.0
 11
75.9999847412109
 21
169.499979019165
 31
0.0
  0
LINE
  5
     D
  8
0
  6
CONTINUOUS
 62
     1
 10
-71.5000076293913
 20
170.749954223637
 30
0.0
 11
71.4999923706087
 21
170.749984741215
 31
0.0
  0
LINE
  5
     E
  8
0
  6
CONTINUOUS
 62
     1
 10
71.4999923722532
 20
170.749969484304
 30
0.0
 11
74.7499847428587
 21
170.749984743093
 31
0.0
  0
LINE
  5
     F
  8
0
  6
CONTINUOUS
 62
     1
 10
-74.7500152650933
 20
170.749938972373
 30
0.0
 11
-71.5000076356988
 21
170.74996948995
 31
0.0
  0
LINE
  5
    10
  8
0
  6
CONTINUOUS
 62
     1
 10
-76.0000152587891
 20
-24.0000553131103
 30
0.0
 11
-76.0000152587891
 21
169.49994468689
 31
0.0
  0
LINE
  5
    11
  8
0
  6
CONTINUOUS
 62
     1
 10
-74.7500152587851
 20
-25.250055313111
 30
0.0
 11
74.7499847412149
 21
-25.2500209808356
 31
0.0
  0
LINE
  5
    12
  8
0
  6
CONTINUOUS
 62
     1
 10
-70.50000762559
 20
2.24997818470003
 30
0.0
 11
70.49999237441
 21
2.24997818470002
 31
0.0
  0
LINE
  5
    13
  8
0
  6
CONTINUOUS
 62
     1
 10
-70.5000074412761
 20
2.24997806549074
 30
0.0
 11
-70.5000074412761
 21
93.0689001568776
 31
0.0
  0
LINE
  5
    14
  8
0
  6
CONTINUOUS
 62
     1
 10
-70.5000152587891
 20
108.431043142038
 30
0.0
 11
-70.5000152587891
 21
143.249984741211
 31
0.0
  0
LINE
  5
    15
  8
0
  6
CONTINUOUS
 62
     1
 10
-70.500015258789
 20
143.249984741211
 30
0.0
 11
70.4999694824219
 21
143.249984741211
 31
0.0
  0
LINE
  5
    16
  8
0
  6
CONTINUOUS
 62
     1
 10
70.499992735838
 20
2.24997854232794
 30
0.0
 11
70.499992735838
 21
143.249978542328
 31
0.0
  0
LINE
  5
    17
  8
0
  6
CONTINUOUS
 62
     1
 10
-71.5000076293945
 20
150.749984741211
 30
0.0
 11
-71.5000076293945
 21
170.749969482422
 31
0.0
  0
LINE
  5
    18
  8
0
  6
CONTINUOUS
 62
     1
 10
71.4999923706055
 20
150.749984741211
 30
0.0
 11
71.4999923706055
 21
170.749969482422
 31
0.0
  0
LINE
  5
    19
  8
0
  6
CONTINUOUS
 62
     1
 10
-71.5000076293945
 20
150.749984741211
 30
0.0
 11
71.4999923706055
 21
150.749984741211
 31
0.0
  0
LINE
  5
    1A
  8
0
  6
CONTINUOUS
 62
     1
 10
-70.5000152587891
 20
-4.25005340576171
 30
0.0
 11
70.4999847412109
 21
-4.25005340576172
 31
0.0
  0
LINE
  5
    1B
  8
0
  6
CONTINUOUS
 62
     1
 10
-70.5000152587891
 20
-5.25005340576171
 30
0.0
 11
70.4999847412109
 21
-5.25005340576172
 31
0.0
  0
LINE
  5
    1C
  8
0
  6
CONTINUOUS
 62
     1
 10
-70.5000305175649
 20
149.74993896486
 30
0.0
 11
70.4999694824351
 21
149.750000000014
 31
0.0
  0
LINE
  5
    1D
  8
0
  6
CONTINUOUS
 62
     1
 10
71.4999858357699
 20
-25.2500247955323
 30
0.0
 11
71.4999858357699
 21
150.749990463257
 31
0.0
  0
LINE
  5
    1E
  8
0
  6
CONTINUOUS
 62
     1
 10
70.4999847412109
 20
-25.2500247955322
 30
0.0
 11
70.4999847412109
 21
-5.25005340576172
 31
0.0
  0
LINE
  5
    1F
  8
0
  6
CONTINUOUS
 62
     1
 10
70.4999847412595
 20
-4.25005341252316
 30
0.0
 11
70.4999923706543
 21
2.24997805388479
 31
0.0
  0
LINE
  5
    20
  8
0
  6
CONTINUOUS
 62
     1
 10
70.4999694824219
 20
143.249984741211
 30
0.0
 11
70.4999694824219
 21
149.75
 31
0.0
  0
LINE
  5
    21
  8
0
  6
CONTINUOUS
 62
     1
 10
-71.5000141642294
 20
-25.2500457763669
 30
0.0
 11
-71.5000141642294
 21
150.749984741211
 31
0.0
  0
LINE
  5
    22
  8
0
  6
CONTINUOUS
 62
     1
 10
-70.5000152587891
 20
-25.2500419616699
 30
0.0
 11
-70.5000152587891
 21
-5.25005340576171
 31
0.0
  0
LINE
  5
    23
  8
0
  6
CONTINUOUS
 62
     1
 10
-70.5000152588376
 20
-4.25005339719544
 30
0.0
 11
-70.5000076294428
 21
2.24997808131977
 31
0.0
  0
LINE
  5
    24
  8
0
  6
CONTINUOUS
 62
     1
 10
-70.5000305177719
 20
149.749938959778
 30
0.0
 11
-70.5000152589833
 21
143.249984736586
 31
0.0
  0
LINE
  5
    25
  8
0
  6
CONTINUOUS
 62
     1
 10
-71.5000076293945
 20
159.999984741211
 30
0.0
 11
-71.0
 21
159.999984741211
 31
0.0
  0
LINE
  5
    26
  8
0
  6
CONTINUOUS
 62
     1
 10
-71.5000076293945
 20
161.499984741211
 30
0.0
 11
-71.0
 21
161.499984741211
 31
0.0
  0
LINE
  5
    27
  8
0
  6
CONTINUOUS
 62
     1
 10
70.9999923706055
 20
159.999984741211
 30
0.0
 11
71.4999923706055
 21
159.999984741211
 31
0.0
  0
LINE
  5
    28
  8
0
  6
CONTINUOUS
 62
     1
 10
70.9999923706055
 20
161.499984741211
 30
0.0
 11
71.4999923706055
 21
161.499984741211
 31
0.0
  0
ARC
  5
    29
  8
0
  6
CONTINUOUS
 62
     1
 10
-74.7500446175772
 20
169.499966747805
 30
0.0
 40
1.2499712385188
 50
89.9986335430652
 51
180.000984426699
  0
ARC
  5
    2A
  8
0
  6
CONTINUOUS
 62
     1
 10
-71.0000555065448
 20
160.749933035418
 30
0.0
 40
0.750060676953542
 50
270.004052802733
 51
449.996390805965
  0
ARC
  5
    2B
  8
0
  6
CONTINUOUS
 62
     1
 10
71.0004519501049
 20
160.749941254871
 30
0.0
 40
0.750296104915764
 50
90.0
 51
270.0
  0
ARC
  5
    2C
  8
0
  6
CONTINUOUS
 62
     1
 10
74.7499844400411
 20
169.499990278414
 30
0.0
 40
1.25000142315613
 50
2.89360398659739E-4
 51
89.9998353051498
  0
ARC
  5
    2D
  8
0
  6
CONTINUOUS
 62
     1
 10
74.7499756668578
 20
-24.0000128113076
 30
0.0
 40
1.25000813012569
 50
270.000329889624
 51
359.999635393882
  0
ARC
  5
    2E
  8
0
  6
CONTINUOUS
 62
     1
 10
-74.7500061806411
 20
-24.0000471426785
 30
0.0
 40
1.25000813391971
 50
180.000364647548
 51
269.999670038333
  0
ARC
  5
    2F
  8
0
  6
CONTINUOUS
 62
     1
 10
-41.5002621522514
 20
100.749971717654
 30
0.0
 40
29.9997423066705
 50
165.164904903841
 51
194.835095365634
  0
ARC
  5
    30
  8
0
  6
DOT
 62
     1
 10
-71.9999597522443
 20
160.749933035418
 30
0.0
 40
0.750060676953542
 50
90.003609194035
 51
269.995947197267
  0
LINE
  5
    31
  8
0
  6
DOT
 62
     1
 10
-72.0000152587891
 20
161.499984741211
 30
0.0
 11
-71.5000076293945
 21
161.499984741211
 31
0.0
  0
LINE
  5
    32
  8
0
  6
DOT
 62
     1
 10
-72.0000152587891
 20
159.999984741211
 30
0.0
 11
-71.5000076293945
 21
159.999984741211
 31
0.0
  0
LINE
  5
    33
  8
0
  6
DOT
 62
     1
 10
71.4999923706055
 20
161.499984741211
 30
0.0
 11
71.9999923706055
 21
161.499984741211
 31
0.0
  0
LINE
  5
    34
  8
0
  6
DOT
 62
     1
 10
71.4999923706055
 20
159.999984741211
 30
0.0
 11
71.9999923706055
 21
159.999984741211
 31
0.0
  0
ARC
  5
    35
  8
0
  6
DOT
 62
     1
 10
71.999532791106
 20
160.749941254871
 30
0.0
 40
0.750296104915764
 50
270.0
 51
450.0
  0
POINT
  5
    36
  8
0
  6
CONTINUOUS
 62
     1
 10
-2.28881835892954E-5
 20
72.7499785423279
 30
0.0
  0
ENDBLK
  5
    37
  8
0
  6
CONTINUOUS
 62
     7
  0
BLOCK
  5
    38
  8
0
  6
CONTINUOUS
 62
     7
  2
*UDIM74
 70
    65
 10
0.0
 20
0.0
 30
0.0
  3
*UDIM74
  0
TEXT
  5
    39
  8
0
  6
CONTINUOUS
 62
     7
 10
160.768120535907
 20
71.2410499122779
 30
0.0
 40
2.4999999335834
  1
196
 50
89.9999999480344
 41
0.933333333333333
 72
     1
 11
159.518120572059
 21
74.4910498270684
 31
0.0
 73
     2
  0
LINE
  5
    3A
  8
0
  6
CONTINUOUS
 62
     7
 10
142.010799343885
 20
40.4202159702797
 30
0.0
 11
163.768120538851
 21
40.4202159702797
 31
0.0
  0
LINE
  5
    3B
  8
0
  6
CONTINUOUS
 62
     7
 10
140.873302033545
 20
109.020217472315
 30
0.0
 11
163.768120538851
 21
109.020217472315
 31
0.0
  0
LINE
  5
    3C
  8
0
  6
CONTINUOUS
 62
     7
 10
161.768120538851
 20
40.4202159702797
 30
0.0
 11
161.768120538851
 21
109.020217472315
 31
0.0
  0
LINE
  5
    3D
  8
0
  6
CONTINUOUS
 62
     7
 10
161.24717602085
 20
43.3746392319613
 30
0.0
 11
161.768120538851
 21
40.4202159702797
 31
0.0
  0
LINE
  5
    3E
  8
0
  6
CONTINUOUS
 62
     7
 10
161.768120538851
 20
40.4202159702797
 30
0.0
 11
162.289065056851
 21
43.3746392319613
 31
0.0
  0
LINE
  5
    3F
  8
0
  6
CONTINUOUS
 62
     7
 10
162.289065056851
 20
106.065794210633
 30
0.0
 11
161.768120538851
 21
109.020217472315
 31
0.0
  0
LINE
  5
    40
  8
0
  6
CONTINUOUS
 62
     7
 10
161.768120538851
 20
109.020217472315
 30
0.0
 11
161.24717602085
 21
106.065794210633
 31
0.0
  0
ENDBLK
  5
    41
  8
0
  6
CONTINUOUS
 62
     7
  0
BLOCK
  5
    42
  8
0
  6
CONTINUOUS
 62
     7
  2
*UDIM75
 70
    65
 10
0.0
 20
0.0
 30
0.0
  3
*UDIM75
  0
TEXT
  5
    43
  8
0
  6
CONTINUOUS
 62
     7
 10
156.164810982953
 20
71.2410232040419
 30
0.0
 40
2.4999999335834
  1
140
 50
89.9999999480344
 41
0.933333333333333
 72
     1
 11
154.914811019105
 21
74.4910231188325
 31
0.0
 73
     2
  0
LINE
  5
    44
  8
0
  6
CONTINUOUS
 62
     7
 10
140.173295201564
 20
50.2201891160113
 30
0.0
 11
159.164810985897
 21
50.2201891160113
 31
0.0
  0
LINE
  5
    45
  8
0
  6
CONTINUOUS
 62
     7
 10
140.173295201564
 20
99.2201905346018
 30
0.0
 11
159.164810985897
 21
99.2201905346018
 31
0.0
  0
LINE
  5
    46
  8
0
  6
CONTINUOUS
 62
     7
 10
157.164810985897
 20
50.2201891160113
 30
0.0
 11
157.164810985897
 21
99.2201905346018
 31
0.0
  0
LINE
  5
    47
  8
0
  6
CONTINUOUS
 62
     7
 10
156.643866467897
 20
53.1746123776929
 30
0.0
 11
157.164810985897
 21
50.2201891160113
 31
0.0
  0
LINE
  5
    48
  8
0
  6
CONTINUOUS
 62
     7
 10
157.164810985897
 20
50.2201891160113
 30
0.0
 11
157.685755503897
 21
53.1746123776929
 31
0.0
  0
LINE
  5
    49
  8
0
  6
CONTINUOUS
 62
     7
 10
157.685755503897
 20
96.2657672729202
 30
0.0
 11
157.164810985897
 21
99.2201905346018
 31
0.0
  0
LINE
  5
    4A
  8
0
  6
CONTINUOUS
 62
     7
 10
157.164810985897
 20
99.2201905346018
 30
0.0
 11
156.643866467897
 21
96.2657672729202
 31
0.0
  0
ENDBLK
  5
    4B
  8
0
  6
CONTINUOUS
 62
     7
  0
BLOCK
  5
    4C
  8
0
  6
CONTINUOUS
 62
     7
  2
*UDIM76
 70
    65
 10
0.0
 20
0.0
 30
0.0
  3
*UDIM76
  0
TEXT
  5
    4D
  8
0
  6
CONTINUOUS
 62
     7
 10
111.369133814879
 20
11.3709391078171
 30
0.0
 40
2.4999999335834
  1
152
 50
359.999999948034
 41
0.933333333333333
 72
     1
 11
114.619133729665
 21
12.6209390716775
 31
0.0
 73
     2
  0
LINE
  5
    4E
  8
0
  6
CONTINUOUS
 62
     7
 10
141.448299336433
 20
39.8577219709757
 30
0.0
 11
141.448299336433
 21
8.37093910488579
 31
0.0
  0
LINE
  5
    4F
  8
0
  6
CONTINUOUS
 62
     7
 10
88.248300242424
 20
39.8577099546796
 30
0.0
 11
88.248300242424
 21
8.37093910488579
 31
0.0
  0
LINE
  5
    50
  8
0
  6
CONTINUOUS
 62
     7
 10
141.448299336433
 20
10.3709391048858
 30
0.0
 11
88.248300242424
 21
10.3709391048858
 31
0.0
  0
LINE
  5
    51
  8
0
  6
CONTINUOUS
 62
     7
 10
138.493876074752
 20
9.84999458688545
 30
0.0
 11
141.448299336433
 21
10.3709391048858
 31
0.0
  0
LINE
  5
    52
  8
0
  6
CONTINUOUS
 62
     7
 10
141.448299336433
 20
10.3709391048858
 30
0.0
 11
138.493876074752
 21
10.8918836228861
 31
0.0
  0
LINE
  5
    53
  8
0
  6
CONTINUOUS
 62
     7
 10
91.2027235041056
 20
10.8918836228861
 30
0.0
 11
88.248300242424
 21
10.3709391048858
 31
0.0
  0
LINE
  5
    54
  8
0
  6
CONTINUOUS
 62
     7
 10
88.248300242424
 20
10.3709391048858
 30
0.0
 11
91.2027235041056
 21
9.84999458688545
 31
0.0
  0
ENDBLK
  5
    55
  8
0
  6
CONTINUOUS
 62
     7
  0
BLOCK
  5
    56
  8
0
  6
CONTINUOUS
 62
     7
  2
*UDIM77
 70
    65
 10
0.0
 20
0.0
 30
0.0
  3
*UDIM77
  0
TEXT
  5
    57
  8
0
  6
CONTINUOUS
 62
     7
 10
111.369128474303
 20
17.929449585726
 30
0.0
 40
2.4999999335834
  1
140
 50
359.999999948034
 41
0.933333333333333
 72
     1
 11
114.619128389089
 21
19.1794495495863
 31
0.0
 73
     2
  0
LINE
  5
    58
  8
0
  6
CONTINUOUS
 62
     7
 10
139.348298205232
 20
61.2952722895379
 30
0.0
 11
139.348298205232
 21
14.9294495827946
 31
0.0
  0
LINE
  5
    59
  8
0
  6
CONTINUOUS
 62
     7
 10
90.348296033049
 20
49.395189113031
 30
0.0
 11
90.348296033049
 21
14.9294495827946
 31
0.0
  0
LINE
  5
    5A
  8
0
  6
CONTINUOUS
 62
     7
 10
139.348298205232
 20
16.9294495827946
 30
0.0
 11
90.348296033049
 21
16.9294495827946
 31
0.0
  0
LINE
  5
    5B
  8
0
  6
CONTINUOUS
 62
     7
 10
136.393874943551
 20
16.4085050647943
 30
0.0
 11
139.348298205232
 21
16.9294495827946
 31
0.0
  0
LINE
  5
    5C
  8
0
  6
CONTINUOUS
 62
     7
 10
139.348298205232
 20
16.9294495827946
 30
0.0
 11
136.393874943551
 21
17.450394100795
 31
0.0
  0
LINE
  5
    5D
  8
0
  6
CONTINUOUS
 62
     7
 10
93.3027192947306
 20
17.450394100795
 30
0.0
 11
90.348296033049
 21
16.9294495827946
 31
0.0
  0
LINE
  5
    5E
  8
0
  6
CONTINUOUS
 62
     7
 10
90.348296033049
 20
16.9294495827946
 30
0.0
 11
93.3027192947306
 21
16.4085050647943
 31
0.0
  0
ENDBLK
  5
    5F
  8
0
  6
CONTINUOUS
 62
     7
  0
BLOCK
  5
    60
  8
0
  6
CONTINUOUS
 62
     7
  2
*UDIM78
 70
    65
 10
0.0
 20
0.0
 30
0.0
  3
*UDIM78
  0
TEXT
  5
    61
  8
0
  6
CONTINUOUS
 62
     7
 10
124.785796924937
 20
170.917784305348
 30
0.0
 40
2.4999999335834
  1
70
 50
359.999999948034
 41
0.933333333333333
 72
     1
 11
126.86913020405
 21
172.16778427026
 31
0.0
 73
     2
  0
LINE
  5
    62
  8
0
  6
CONTINUOUS
 62
     7
 10
139.348296701908
 20
166.617435439991
 30
0.0
 11
139.348296701908
 21
171.917784303469
 31
0.0
  0
LINE
  5
    63
  8
0
  6
CONTINUOUS
 62
     7
 10
139.348296701908
 20
169.917784303469
 30
0.0
 11
114.848297119141
 21
169.917784303469
 31
0.0
  0
LINE
  5
    64
  8
0
  6
CONTINUOUS
 62
     7
 10
136.393873440227
 20
169.396839785468
 30
0.0
 11
139.348296701908
 21
169.917784303469
 31
0.0
  0
LINE
  5
    65
  8
0
  6
CONTINUOUS
 62
     7
 10
139.348296701908
 20
169.917784303469
 30
0.0
 11
136.393873440227
 21
170.438728821469
 31
0.0
  0
LINE
  5
    66
  8
0
  6
CONTINUOUS
 62
     7
 10
117.802720380822
 20
170.438728821469
 30
0.0
 11
114.848297119141
 21
169.917784303469
 31
0.0
  0
LINE
  5
    67
  8
0
  6
CONTINUOUS
 62
     7
 10
114.848297119141
 20
169.917784303469
 30
0.0
 11
117.802720380822
 21
169.396839785468
 31
0.0
  0
ENDBLK
  5
    68
  8
0
  6
CONTINUOUS
 62
     7
  0
BLOCK
  5
    69
  8
0
  6
CONTINUOUS
 62
     7
  2
*UDIM79
 70
    65
 10
0.0
 20
0.0
 30
0.0
  3
*UDIM79
  0
TEXT
  5
    6A
  8
0
  6
CONTINUOUS
 62
     7
 10
100.285798677313
 20
170.917784305348
 30
0.0
 40
2.4999999335834
  1
70
 50
359.999999948034
 41
0.933333333333333
 72
     1
 11
102.369131956427
 21
172.16778427026
 31
0.0
 73
     2
  0
LINE
  5
    6B
  8
0
  6
CONTINUOUS
 62
     7
 10
90.3482975363732
 20
169.826953880002
 30
0.0
 11
90.3482975363732
 21
171.917784303469
 31
0.0
  0
LINE
  5
    6C
  8
0
  6
CONTINUOUS
 62
     7
 10
114.848297119141
 20
169.917784303469
 30
0.0
 11
90.3482975363732
 21
169.917784303469
 31
0.0
  0
LINE
  5
    6D
  8
0
  6
CONTINUOUS
 62
     7
 10
111.893873857459
 20
169.396839785468
 30
0.0
 11
114.848297119141
 21
169.917784303469
 31
0.0
  0
LINE
  5
    6E
  8
0
  6
CONTINUOUS
 62
     7
 10
114.848297119141
 20
169.917784303469
 30
0.0
 11
111.893873857459
 21
170.438728821469
 31
0.0
  0
LINE
  5
    6F
  8
0
  6
CONTINUOUS
 62
     7
 10
93.3027207980548
 20
170.438728821469
 30
0.0
 11
90.3482975363732
 21
169.917784303469
 31
0.0
  0
LINE
  5
    70
  8
0
  6
CONTINUOUS
 62
     7
 10
90.3482975363732
 20
169.917784303469
 30
0.0
 11
93.3027207980548
 21
169.396839785468
 31
0.0
  0
ENDBLK
  5
    71
  8
0
  6
CONTINUOUS
 62
     7
  0
BLOCK
  5
    72
  8
0
  6
CONTINUOUS
 62
     7
  2
*UDIM80
 70
    65
 10
0.0
 20
0.0
 30
0.0
  3
*UDIM80
  0
TEXT
  5
    73
  8
0
  6
CONTINUOUS
 62
     7
 10
75.7858017648338
 20
170.917784305348
 30
0.0
 40
2.4999999335834
  1
70
 50
359.999999948034
 41
0.933333333333333
 72
     1
 11
77.8691350439474
 21
172.16778427026
 31
0.0
 73
     2
  0
LINE
  5
    74
  8
0
  6
CONTINUOUS
 62
     7
 10
65.8482979536057
 20
168.314471513044
 30
0.0
 11
65.8482979536057
 21
171.917784303469
 31
0.0
  0
LINE
  5
    75
  8
0
  6
CONTINUOUS
 62
     7
 10
90.3482975363732
 20
169.917784303469
 30
0.0
 11
65.8482979536057
 21
169.917784303469
 31
0.0
  0
LINE
  5
    76
  8
0
  6
CONTINUOUS
 62
     7
 10
87.3938742746916
 20
169.396839785468
 30
0.0
 11
90.3482975363732
 21
169.917784303469
 31
0.0
  0
LINE
  5
    77
  8
0
  6
CONTINUOUS
 62
     7
 10
90.3482975363732
 20
169.917784303469
 30
0.0
 11
87.3938742746916
 21
170.438728821469
 31
0.0
  0
LINE
  5
    78
  8
0
  6
CONTINUOUS
 62
     7
 10
68.8027212152873
 20
170.438728821469
 30
0.0
 11
65.8482979536057
 21
169.917784303469
 31
0.0
  0
LINE
  5
    79
  8
0
  6
CONTINUOUS
 62
     7
 10
65.8482979536057
 20
169.917784303469
 30
0.0
 11
68.8027212152873
 21
169.396839785468
 31
0.0
  0
ENDBLK
  5
    7A
  8
0
  6
CONTINUOUS
 62
     7
  0
BLOCK
  5
    7B
  8
0
  6
CONTINUOUS
 62
     7
  2
*UDIM81
 70
    65
 10
0.0
 20
0.0
 30
0.0
  3
*UDIM81
  0
TEXT
  5
    7C
  8
0
  6
CONTINUOUS
 62
     7
 10
47.2492732848794
 20
42.9202236966344
 30
0.0
 40
2.4999999335834
  1
148,5
 50
89.9999999480344
 41
0.933333333333333
 72
     1
 11
45.9992733231446
 21
48.5035568827695
 31
0.0
 73
     2
  0
LINE
  5
    7D
  8
0
  6
CONTINUOUS
 62
     7
 10
78.4982871118964
 20
22.7452274531163
 30
0.0
 11
46.2492732899364
 21
22.7452274531163
 31
0.0
  0
LINE
  5
    7E
  8
0
  6
CONTINUOUS
 62
     7
 10
57.7736220993423
 20
74.7202212274078
 30
0.0
 11
46.2492732899364
 21
74.7202212274078
 31
0.0
  0
LINE
  5
    7F
  8
0
  6
CONTINUOUS
 62
     7
 10
48.2492732899364
 20
22.7452274531163
 30
0.0
 11
48.2492732899364
 21
74.7202212274078
 31
0.0
  0
LINE
  5
    80
  8
0
  6
CONTINUOUS
 62
     7
 10
47.728328771936
 20
25.6996507147979
 30
0.0
 11
48.2492732899364
 21
22.7452274531163
 31
0.0
  0
LINE
  5
    81
  8
0
  6
CONTINUOUS
 62
     7
 10
48.2492732899364
 20
22.7452274531163
 30
0.0
 11
48.7702178079367
 21
25.6996507147979
 31
0.0
  0
LINE
  5
    82
  8
0
  6
CONTINUOUS
 62
     7
 10
48.7702178079367
 20
71.7657979657262
 30
0.0
 11
48.2492732899364
 21
74.7202212274078
 31
0.0
  0
LINE
  5
    83
  8
0
  6
CONTINUOUS
 62
     7
 10
48.2492732899364
 20
74.7202212274078
 30
0.0
 11
47.728328771936
 21
71.7657979657262
 31
0.0
  0
ENDBLK
  5
    84
  8
0
  6
CONTINUOUS
 62
     7
  0
BLOCK
  5
    85
  8
0
  6
CONTINUOUS
 62
     7
  2
*UDIM82
 70
    65
 10
0.0
 20
0.0
 30
0.0
  3
*UDIM82
  0
TEXT
  5
    86
  8
0
  6
CONTINUOUS
 62
     7
 10
40.8943081852563
 20
90.3160656091611
 30
0.0
 40
2.4999999335834
  1
406
 50
89.9999999480344
 41
0.933333333333333
 72
     1
 11
39.6443082214081
 21
93.5660655239517
 31
0.0
 73
     2
  0
LINE
  5
    87
  8
0
  6
CONTINUOUS
 62
     7
 10
78.4982871118964
 20
22.7452274531163
 30
0.0
 11
39.8943081881998
 21
22.7452274531163
 31
0.0
  0
LINE
  5
    88
  8
0
  6
CONTINUOUS
 62
     7
 10
78.3233020898487
 20
164.84524105489
 30
0.0
 11
39.8943081881998
 21
164.84524105489
 31
0.0
  0
LINE
  5
    89
  8
0
  6
CONTINUOUS
 62
     7
 10
41.8943081881998
 20
22.7452274531163
 30
0.0
 11
41.8943081881998
 21
164.84524105489
 31
0.0
  0
LINE
  5
    8A
  8
0
  6
CONTINUOUS
 62
     7
 10
41.3733636701995
 20
25.6996507147979
 30
0.0
 11
41.8943081881998
 21
22.7452274531163
 31
0.0
  0
LINE
  5
    8B
  8
0
  6
CONTINUOUS
 62
     7
 10
41.8943081881998
 20
22.7452274531163
 30
0.0
 11
42.4152527062002
 21
25.6996507147979
 31
0.0
  0
LINE
  5
    8C
  8
0
  6
CONTINUOUS
 62
     7
 10
42.4152527062002
 20
161.890817793209
 30
0.0
 11
41.8943081881998
 21
164.84524105489
 31
0.0
  0
LINE
  5
    8D
  8
0
  6
CONTINUOUS
 62
     7
 10
41.8943081881998
 20
164.84524105489
 30
0.0
 11
41.3733636701995
 21
161.890817793209
 31
0.0
  0
ENDBLK
  5
    8E
  8
0
  6
CONTINUOUS
 62
     7
  0
BLOCK
  5
    8F
  8
0
  6
CONTINUOUS
 62
     7
  2
*UDIM83
 70
    65
 10
0.0
 20
0.0
 30
0.0
  3
*UDIM83
  0
TEXT
  5
    90
  8
0
  6
CONTINUOUS
 62
     7
 10
99.1191393521949
 20
177.041384971159
 30
0.0
 40
2.4999999335834
  1
280
 50
359.999999948034
 41
0.933333333333333
 72
     1
 11
102.369139266981
 21
178.291384935019
 31
0.0
 73
     2
  0
LINE
  5
    91
  8
0
  6
CONTINUOUS
 62
     7
 10
151.598304283663
 20
164.795235732198
 30
0.0
 11
151.598304283663
 21
178.041384968227
 31
0.0
  0
LINE
  5
    92
  8
0
  6
CONTINUOUS
 62
     7
 10
53.5983059525932
 20
164.795235732198
 30
0.0
 11
53.5983059525932
 21
178.041384968227
 31
0.0
  0
LINE
  5
    93
  8
0
  6
CONTINUOUS
 62
     7
 10
151.598304283663
 20
176.041384968227
 30
0.0
 11
53.5983059525932
 21
176.041384968227
 31
0.0
  0
LINE
  5
    94
  8
0
  6
CONTINUOUS
 62
     7
 10
148.643881021982
 20
175.520440450227
 30
0.0
 11
151.598304283663
 21
176.041384968227
 31
0.0
  0
LINE
  5
    95
  8
0
  6
CONTINUOUS
 62
     7
 10
151.598304283663
 20
176.041384968227
 30
0.0
 11
148.643881021982
 21
176.562329486228
 31
0.0
  0
LINE
  5
    96
  8
0
  6
CONTINUOUS
 62
     7
 10
56.5527292142748
 20
176.562329486228
 30
0.0
 11
53.5983059525932
 21
176.041384968227
 31
0.0
  0
LINE
  5
    97
  8
0
  6
CONTINUOUS
 62
     7
 10
53.5983059525932
 20
176.041384968227
 30
0.0
 11
56.5527292142748
 21
175.520440450227
 31
0.0
  0
ENDBLK
  5
    98
  8
0
  6
CONTINUOUS
 62
     7
  0
BLOCK
  5
    99
  8
0
  6
CONTINUOUS
 62
     7
  2
*HATCH14
 70
    65
 10
0.0
 20
0.0
 30
0.0
  3
*HATCH14
  0
LINE
  5
    9A
  8
0
  6
CONTINUOUS
 62
    52
 10
139.993118286133
 20
335.154571533203
 30
0.0
 11
137.963439941406
 21
333.124908447266
 31
0.0
  0
LINE
  5
    9B
  8
0
  6
CONTINUOUS
 62
    52
 10
139.992172241211
 20
330.910980224609
 30
0.0
 11
137.964385986328
 21
328.883209228516
 31
0.0
  0
LINE
  5
    9C
  8
0
  6
CONTINUOUS
 62
    52
 10
139.991226196289
 20
326.667388916016
 30
0.0
 11
137.96533203125
 21
324.641510009766
 31
0.0
  0
LINE
  5
    9D
  8
0
  6
CONTINUOUS
 62
    52
 10
139.990280151367
 20
322.423797607422
 30
0.0
 11
137.966278076172
 21
320.399810791016
 31
0.0
  0
LINE
  5
    9E
  8
0
  6
CONTINUOUS
 62
    52
 10
139.989334106445
 20
318.180206298828
 30
0.0
 11
137.967224121094
 21
316.158111572266
 31
0.0
  0
LINE
  5
    9F
  8
0
  6
CONTINUOUS
 62
    52
 10
139.988388061523
 20
313.936614990234
 30
0.0
 11
137.968170166016
 21
311.916412353516
 31
0.0
  0
LINE
  5
    A0
  8
0
  6
CONTINUOUS
 62
    52
 10
139.987442016602
 20
309.693023681641
 30
0.0
 11
137.969116210938
 21
307.674713134766
 31
0.0
  0
LINE
  5
    A1
  8
0
  6
CONTINUOUS
 62
    52
 10
139.98649597168
 20
305.449432373047
 30
0.0
 11
137.970062255859
 21
303.433013916016
 31
0.0
  0
LINE
  5
    A2
  8
0
  6
CONTINUOUS
 62
    52
 10
139.985549926758
 20
301.205841064453
 30
0.0
 11
137.971008300781
 21
299.191314697266
 31
0.0
  0
LINE
  5
    A3
  8
0
  6
CONTINUOUS
 62
    52
 10
139.984603881836
 20
296.962249755859
 30
0.0
 11
137.971954345703
 21
294.949615478516
 31
0.0
  0
LINE
  5
    A4
  8
0
  6
CONTINUOUS
 62
    52
 10
139.983657836914
 20
292.718658447266
 30
0.0
 11
137.972900390625
 21
290.707916259766
 31
0.0
  0
LINE
  5
    A5
  8
0
  6
CONTINUOUS
 62
    52
 10
139.982711791992
 20
288.475067138672
 30
0.0
 11
137.973846435547
 21
286.466217041016
 31
0.0
  0
LINE
  5
    A6
  8
0
  6
CONTINUOUS
 62
    52
 10
139.98176574707
 20
284.231475830078
 30
0.0
 11
137.974792480469
 21
282.224517822266
 31
0.0
  0
LINE
  5
    A7
  8
0
  6
CONTINUOUS
 62
    52
 10
139.980819702148
 20
279.987884521484
 30
0.0
 11
137.975738525391
 21
277.982818603516
 31
0.0
  0
LINE
  5
    A8
  8
0
  6
CONTINUOUS
 62
    52
 10
139.979873657227
 20
275.744293212891
 30
0.0
 11
137.976684570313
 21
273.741119384766
 31
0.0
  0
LINE
  5
    A9
  8
0
  6
CONTINUOUS
 62
    52
 10
139.978927612305
 20
271.500701904297
 30
0.0
 11
137.977630615234
 21
269.499420166016
 31
0.0
  0
LINE
  5
    AA
  8
0
  6
CONTINUOUS
 62
    52
 10
139.977981567383
 20
267.257110595703
 30
0.0
 11
137.978576660156
 21
265.257720947266
 31
0.0
  0
LINE
  5
    AB
  8
0
  6
CONTINUOUS
 62
    52
 10
139.977035522461
 20
263.013519287109
 30
0.0
 11
137.979522705078
 21
261.016021728516
 31
0.0
  0
LINE
  5
    AC
  8
0
  6
CONTINUOUS
 62
    52
 10
139.976089477539
 20
258.769927978516
 30
0.0
 11
137.98046875
 21
256.774322509766
 31
0.0
  0
LINE
  5
    AD
  8
0
  6
CONTINUOUS
 62
    52
 10
139.975143432617
 20
254.526336669922
 30
0.0
 11
137.981414794922
 21
252.532623291016
 31
0.0
  0
LINE
  5
    AE
  8
0
  6
CONTINUOUS
 62
    52
 10
139.974197387695
 20
250.282745361328
 30
0.0
 11
137.982360839844
 21
248.290924072266
 31
0.0
  0
LINE
  5
    AF
  8
0
  6
CONTINUOUS
 62
    52
 10
139.973251342773
 20
246.039154052734
 30
0.0
 11
137.983306884766
 21
244.049224853516
 31
0.0
  0
LINE
  5
    B0
  8
0
  6
CONTINUOUS
 62
    52
 10
139.972305297852
 20
241.795562744141
 30
0.0
 11
137.984252929688
 21
239.807525634766
 31
0.0
  0
LINE
  5
    B1
  8
0
  6
CONTINUOUS
 62
    52
 10
139.97135925293
 20
237.551971435547
 30
0.0
 11
137.985198974609
 21
235.565826416016
 31
0.0
  0
LINE
  5
    B2
  8
0
  6
CONTINUOUS
 62
    52
 10
139.970413208008
 20
233.308380126953
 30
0.0
 11
137.986145019531
 21
231.324127197266
 31
0.0
  0
LINE
  5
    B3
  8
0
  6
CONTINUOUS
 62
    52
 10
139.969467163086
 20
229.064788818359
 30
0.0
 11
137.987091064453
 21
227.082427978516
 31
0.0
  0
LINE
  5
    B4
  8
0
  6
CONTINUOUS
 62
    52
 10
139.968521118164
 20
224.821197509766
 30
0.0
 11
137.988037109375
 21
222.840728759766
 31
0.0
  0
LINE
  5
    B5
  8
0
  6
CONTINUOUS
 62
    52
 10
139.967575073242
 20
220.577606201172
 30
0.0
 11
137.988983154297
 21
218.599029541016
 31
0.0
  0
LINE
  5
    B6
  8
0
  6
CONTINUOUS
 62
    52
 10
139.96662902832
 20
216.334014892578
 30
0.0
 11
137.989929199219
 21
214.357330322266
 31
0.0
  0
LINE
  5
    B7
  8
0
  6
CONTINUOUS
 62
    52
 10
139.965682983398
 20
212.090423583984
 30
0.0
 11
137.990875244141
 21
210.115631103516
 31
0.0
  0
LINE
  5
    B8
  8
0
  6
CONTINUOUS
 62
    52
 10
139.964736938477
 20
207.846832275391
 30
0.0
 11
137.991821289063
 21
205.873931884766
 31
0.0
  0
LINE
  5
    B9
  8
0
  6
CONTINUOUS
 62
    52
 10
139.963790893555
 20
203.603240966797
 30
0.0
 11
137.992767333984
 21
201.632232666016
 31
0.0
  0
LINE
  5
    BA
  8
0
  6
CONTINUOUS
 62
    52
 10
139.962844848633
 20
199.359649658203
 30
0.0
 11
137.993713378906
 21
197.390533447266
 31
0.0
  0
LINE
  5
    BB
  8
0
  6
CONTINUOUS
 62
    52
 10
139.961898803711
 20
195.116058349609
 30
0.0
 11
137.994659423828
 21
193.148834228516
 31
0.0
  0
LINE
  5
    BC
  8
0
  6
CONTINUOUS
 62
    52
 10
139.960952758789
 20
190.872467041016
 30
0.0
 11
137.99560546875
 21
188.907135009766
 31
0.0
  0
LINE
  5
    BD
  8
0
  6
CONTINUOUS
 62
    52
 10
139.960006713867
 20
186.628875732422
 30
0.0
 11
137.996551513672
 21
184.665435791016
 31
0.0
  0
LINE
  5
    BE
  8
0
  6
CONTINUOUS
 62
    52
 10
139.959060668945
 20
182.385284423828
 30
0.0
 11
137.997497558594
 21
180.423736572266
 31
0.0
  0
LINE
  5
    BF
  8
0
  6
CONTINUOUS
 62
    52
 10
139.958114624023
 20
178.141693115234
 30
0.0
 11
137.998443603516
 21
176.182037353516
 31
0.0
  0
LINE
  5
    C0
  8
0
  6
CONTINUOUS
 62
    52
 10
139.957168579102
 20
173.898101806641
 30
0.0
 11
137.999389648438
 21
171.940338134766
 31
0.0
  0
LINE
  5
    C1
  8
0
  6
CONTINUOUS
 62
    52
 10
139.95622253418
 20
169.654510498047
 30
0.0
 11
138.000335693359
 21
167.698638916016
 31
0.0
  0
LINE
  5
    C2
  8
0
  6
CONTINUOUS
 62
    52
 10
139.955276489258
 20
165.410919189453
 30
0.0
 11
138.001281738281
 21
163.456939697266
 31
0.0
  0
LINE
  5
    C3
  8
0
  6
CONTINUOUS
 62
    52
 10
139.954330444336
 20
161.167327880859
 30
0.0
 11
138.002227783203
 21
159.215240478516
 31
0.0
  0
LINE
  5
    C4
  8
0
  6
CONTINUOUS
 62
    52
 10
139.953384399414
 20
156.923736572266
 30
0.0
 11
138.003173828125
 21
154.973541259766
 31
0.0
  0
ENDBLK
  5
    C5
  8
0
  6
CONTINUOUS
 62
     7
  0
BLOCK
  5
    C6
  8
0
  6
CONTINUOUS
 62
     7
  2
*HATCH15
 70
    65
 10
0.0
 20
0.0
 30
0.0
  3
*HATCH15
  0
LINE
  5
    C7
  8
0
  6
CONTINUOUS
 62
    52
 10
139.814422607422
 20
6.17123985290527
 30
0.0
 11
137.852127075195
 21
4.2089467048645
 31
0.0
  0
LINE
  5
    C8
  8
0
  6
CONTINUOUS
 62
    52
 10
139.825103759766
 20
1.93928360939026
 30
0.0
 11
137.841537475586
 21
-4.42690849304199E-2
 31
0.0
  0
LINE
  5
    C9
  8
0
  6
CONTINUOUS
 62
    52
 10
139.835784912109
 20
-2.29267239570618
 30
0.0
 11
137.830947875977
 21
-4.29748487472534
 31
0.0
  0
LINE
  5
    CA
  8
0
  6
CONTINUOUS
 62
    52
 10
139.846466064453
 20
-6.52462863922119
 30
0.0
 11
137.820358276367
 21
-8.55070114135742
 31
0.0
  0
LINE
  5
    CB
  8
0
  6
CONTINUOUS
 62
    52
 10
139.857147216797
 20
-10.7565851211548
 30
0.0
 11
137.809768676758
 21
-12.8039169311523
 31
0.0
  0
LINE
  5
    CC
  8
0
  6
CONTINUOUS
 62
    52
 10
139.867828369141
 20
-14.9885416030884
 30
0.0
 11
137.799179077148
 21
-17.0571327209473
 31
0.0
  0
LINE
  5
    CD
  8
0
  6
CONTINUOUS
 62
    52
 10
139.878509521484
 20
-19.2204971313477
 30
0.0
 11
137.788589477539
 21
-21.3103485107422
 31
0.0
  0
LINE
  5
    CE
  8
0
  6
CONTINUOUS
 62
    52
 10
139.889190673828
 20
-23.4524536132813
 30
0.0
 11
137.77799987793
 21
-25.5635643005371
 31
0.0
  0
LINE
  5
    CF
  8
0
  6
CONTINUOUS
 62
    52
 10
139.899871826172
 20
-27.6844100952148
 30
0.0
 11
137.76741027832
 21
-29.816780090332
 31
0.0
  0
LINE
  5
    D0
  8
0
  6
CONTINUOUS
 62
    52
 10
139.910552978516
 20
-31.9163665771484
 30
0.0
 11
137.756820678711
 21
-34.069995880127
 31
0.0
  0
LINE
  5
    D1
  8
0
  6
CONTINUOUS
 62
    52
 10
139.921234130859
 20
-36.148323059082
 30
0.0
 11
137.746231079102
 21
-38.3232116699219
 31
0.0
  0
LINE
  5
    D2
  8
0
  6
CONTINUOUS
 62
    52
 10
139.931915283203
 20
-40.3802795410156
 30
0.0
 11
137.735641479492
 21
-42.5764312744141
 31
0.0
  0
LINE
  5
    D3
  8
0
  6
CONTINUOUS
 62
    52
 10
139.942596435547
 20
-44.6122360229492
 30
0.0
 11
137.725051879883
 21
-46.8296508789062
 31
0.0
  0
LINE
  5
    D4
  8
0
  6
CONTINUOUS
 62
    52
 10
139.953277587891
 20
-48.8441925048828
 30
0.0
 11
137.714462280273
 21
-51.0828704833984
 31
0.0
  0
LINE
  5
    D5
  8
0
  6
CONTINUOUS
 62
    52
 10
139.963958740234
 20
-53.0761489868164
 30
0.0
 11
137.703872680664
 21
-55.3360900878906
 31
0.0
  0
LINE
  5
    D6
  8
0
  6
CONTINUOUS
 62
    52
 10
139.974639892578
 20
-57.30810546875
 30
0.0
 11
137.693283081055
 21
-59.5893096923828
 31
0.0
  0
LINE
  5
    D7
  8
0
  6
CONTINUOUS
 62
    52
 10
139.985321044922
 20
-61.5400619506836
 30
0.0
 11
137.682693481445
 21
-63.842529296875
 31
0.0
  0
LINE
  5
    D8
  8
0
  6
CONTINUOUS
 62
    52
 10
139.996002197266
 20
-65.7720184326172
 30
0.0
 11
137.672103881836
 21
-68.0957489013672
 31
0.0
  0
LINE
  5
    D9
  8
0
  6
CONTINUOUS
 62
    52
 10
140.006683349609
 20
-70.0039672851563
 30
0.0
 11
137.661514282227
 21
-72.3489685058594
 31
0.0
  0
LINE
  5
    DA
  8
0
  6
CONTINUOUS
 62
    52
 10
140.017364501953
 20
-74.2359161376953
 30
0.0
 11
137.650924682617
 21
-76.6021881103516
 31
0.0
  0
LINE
  5
    DB
  8
0
  6
CONTINUOUS
 62
    52
 10
140.028045654297
 20
-78.4678649902344
 30
0.0
 11
137.640335083008
 21
-80.8554077148438
 31
0.0
  0
ENDBLK
  5
    DC
  8
0
  6
CONTINUOUS
 62
     7
  0
BLOCK
  5
    DD
  8
0
  6
CONTINUOUS
 62
     7
  2
*HATCH16
 70
    65
 10
0.0
 20
0.0
 30
0.0
  3
*HATCH16
  0
LINE
  5
    DE
  8
0
  6
CONTINUOUS
 62
   210
 10
139.999374389648
 20
-14.8415689468384
 30
0.0
 11
142.157836914063
 21
-17.0000438690186
 31
0.0
  0
LINE
  5
    DF
  8
0
  6
CONTINUOUS
 62
   210
 10
139.999374389648
 20
-10.5989246368408
 30
0.0
 11
143.499374389648
 21
-14.0989294052124
 31
0.0
  0
LINE
  5
    E0
  8
0
  6
CONTINUOUS
 62
   210
 10
139.999374389648
 20
-6.35628128051758
 30
0.0
 11
143.499374389648
 21
-9.85628604888916
 31
0.0
  0
LINE
  5
    E1
  8
0
  6
CONTINUOUS
 62
   210
 10
139.999374389648
 20
-2.11363792419434
 30
0.0
 11
143.499374389648
 21
-5.61364269256592
 31
0.0
  0
LINE
  5
    E2
  8
0
  6
CONTINUOUS
 62
   210
 10
139.999374389648
 20
2.12900543212891
 30
0.0
 11
143.499374389648
 21
-1.37099933624268
 31
0.0
  0
LINE
  5
    E3
  8
0
  6
CONTINUOUS
 62
   210
 10
139.999374389648
 20
6.37164878845215
 30
0.0
 11
143.499374389648
 21
2.87164402008057
 31
0.0
  0
LINE
  5
    E4
  8
0
  6
CONTINUOUS
 62
   210
 10
139.999374389648
 20
8.49296951293945
 30
0.0
 11
143.499374389648
 21
4.99296569824219
 31
0.0
  0
LINE
  5
    E5
  8
0
  6
CONTINUOUS
 62
   210
 10
142.23503112793
 20
10.4999561309814
 30
0.0
 11
143.499374389648
 21
9.23560905456543
 31
0.0
  0
ENDBLK
  5
    E6
  8
0
  6
CONTINUOUS
 62
     7
  0
BLOCK
  5
    E7
  8
0
  6
CONTINUOUS
 62
     7
  2
*HATCH17
 70
    65
 10
0.0
 20
0.0
 30
0.0
  3
*HATCH17
  0
LINE
  5
    E8
  8
0
  6
CONTINUOUS
 62
   210
 10
139.242248535156
 20
153.499969482422
 30
0.0
 11
141.242248535156
 21
151.499954223633
 31
0.0
  0
LINE
  5
    E9
  8
0
  6
CONTINUOUS
 62
   210
 10
139.999374389648
 20
156.985488891602
 30
0.0
 11
143.499374389648
 21
153.485488891602
 31
0.0
  0
LINE
  5
    EA
  8
0
  6
CONTINUOUS
 62
   210
 10
139.999374389648
 20
161.228134155273
 30
0.0
 11
143.499374389648
 21
157.728134155273
 31
0.0
  0
LINE
  5
    EB
  8
0
  6
CONTINUOUS
 62
   210
 10
139.999374389648
 20
165.470779418945
 30
0.0
 11
143.499374389648
 21
161.970779418945
 31
0.0
  0
LINE
  5
    EC
  8
0
  6
CONTINUOUS
 62
   210
 10
139.999374389648
 20
169.713424682617
 30
0.0
 11
143.499374389648
 21
166.213424682617
 31
0.0
  0
LINE
  5
    ED
  8
0
  6
CONTINUOUS
 62
   210
 10
139.999374389648
 20
173.956069946289
 30
0.0
 11
143.499374389648
 21
170.456069946289
 31
0.0
  0
LINE
  5
    EE
  8
0
  6
CONTINUOUS
 62
   210
 10
139.999374389648
 20
178.198715209961
 30
0.0
 11
143.499374389648
 21
174.698715209961
 31
0.0
  0
LINE
  5
    EF
  8
0
  6
CONTINUOUS
 62
   210
 10
143.440765380859
 20
178.999954223633
 30
0.0
 11
143.499374389648
 21
178.941345214844
 31
0.0
  0
ENDBLK
  5
    F0
  8
0
  6
CONTINUOUS
 62
     7
  0
BLOCK
  5
    F1
  8
0
  6
CONTINUOUS
 62
     7
  2
*HATCH18
 70
    65
 10
0.0
 20
0.0
 30
0.0
  3
*HATCH18
  0
LINE
  5
    F2
  8
0
  6
CONTINUOUS
 62
   210
 10
128.499374389648
 20
155.757568359375
 30
0.0
 11
130.999374389648
 21
153.257553100586
 31
0.0
  0
LINE
  5
    F3
  8
0
  6
CONTINUOUS
 62
   210
 10
128.499374389648
 20
160.000213623047
 30
0.0
 11
130.999374389648
 21
157.500198364258
 31
0.0
  0
LINE
  5
    F4
  8
0
  6
CONTINUOUS
 62
   210
 10
128.682418823242
 20
164.059814453125
 30
0.0
 11
130.999374389648
 21
161.74284362793
 31
0.0
  0
LINE
  5
    F5
  8
0
  6
CONTINUOUS
 62
   210
 10
130.747482299805
 20
166.237380981445
 30
0.0
 11
132.984893798828
 21
163.999969482422
 31
0.0
  0
LINE
  5
    F6
  8
0
  6
CONTINUOUS
 62
   210
 10
134.696350097656
 20
166.531158447266
 30
0.0
 11
136.537536621094
 21
164.689971923828
 31
0.0
  0
LINE
  5
    F7
  8
0
  6
CONTINUOUS
 62
   210
 10
135.499374389648
 20
169.970764160156
 30
0.0
 11
137.995986938477
 21
167.474166870117
 31
0.0
  0
LINE
  5
    F8
  8
0
  6
CONTINUOUS
 62
   210
 10
135.499374389648
 20
174.213409423828
 30
0.0
 11
137.999374389648
 21
171.713424682617
 31
0.0
  0
ENDBLK
  5
    F9
  8
0
  6
CONTINUOUS
 62
     7
  0
BLOCK
  5
    FA
  8
0
  6
CONTINUOUS
 62
     7
  2
*UDIM84
 70
    65
 10
0.0
 20
0.0
 30
0.0
  3
*UDIM84
  0
TEXT
  5
    FB
  8
0
  6
CONTINUOUS
 62
     7
 10
241.129786533084
 20
172.10574204691
 30
0.0
 40
2.4999999335834
  1
2
 41
0.933333333333333
 72
     1
 11
242.046453175398
 21
173.355742013701
 31
0.0
 73
     2
  0
LINE
  5
    FC
  8
0
  6
CONTINUOUS
 62
     7
 10
246.421453100892
 20
165.502082023067
 30
0.0
 11
246.421453100892
 21
173.10574204691
 31
0.0
  0
LINE
  5
    FD
  8
0
  6
CONTINUOUS
 62
     7
 10
247.121453088971
 20
165.28614635423
 30
0.0
 11
247.121453088971
 21
173.10574204691
 31
0.0
  0
LINE
  5
    FE
  8
0
  6
CONTINUOUS
 62
     7
 10
241.129786533084
 20
171.10574204691
 30
0.0
 11
247.121453088971
 21
171.10574204691
 31
0.0
  0
LINE
  5
    FF
  8
0
  6
CONTINUOUS
 62
     7
 10
243.46702983921
 20
170.584797528909
 30
0.0
 11
246.421453100892
 21
171.10574204691
 31
0.0
  0
LINE
  5
   100
  8
0
  6
CONTINUOUS
 62
     7
 10
246.421453100892
 20
171.10574204691
 30
0.0
 11
243.46702983921
 21
171.62668656491
 31
0.0
  0
LINE
  5
   101
  8
0
  6
CONTINUOUS
 62
     7
 10
250.075876350653
 20
171.62668656491
 30
0.0
 11
247.121453088971
 21
171.10574204691
 31
0.0
  0
LINE
  5
   102
  8
0
  6
CONTINUOUS
 62
     7
 10
247.121453088971
 20
171.10574204691
 30
0.0
 11
250.075876350653
 21
170.584797528909
 31
0.0
  0
ENDBLK
  5
   103
  8
0
  6
CONTINUOUS
 62
     7
  0
BLOCK
  5
   104
  8
0
  6
CONTINUOUS
 62
     7
  2
*UDIM85
 70
    65
 10
0.0
 20
0.0
 30
0.0
  3
*UDIM85
  0
TEXT
  5
   105
  8
0
  6
CONTINUOUS
 62
     7
 10
250.263123017544
 20
172.10574204691
 30
0.0
 40
2.4999999335834
  1
44,5
 41
0.933333333333333
 72
     1
 11
254.679789566875
 21
173.355742013701
 31
0.0
 73
     2
  0
LINE
  5
   106
  8
0
  6
CONTINUOUS
 62
     7
 10
262.69645282373
 20
93.3952487957021
 30
0.0
 11
262.69645282373
 21
173.10574204691
 31
0.0
  0
LINE
  5
   107
  8
0
  6
CONTINUOUS
 62
     7
 10
247.121453088971
 20
171.10574204691
 30
0.0
 11
262.69645282373
 21
171.10574204691
 31
0.0
  0
LINE
  5
   108
  8
0
  6
CONTINUOUS
 62
     7
 10
250.075876350653
 20
171.62668656491
 30
0.0
 11
247.121453088971
 21
171.10574204691
 31
0.0
  0
LINE
  5
   109
  8
0
  6
CONTINUOUS
 62
     7
 10
247.121453088971
 20
171.10574204691
 30
0.0
 11
250.075876350653
 21
170.584797528909
 31
0.0
  0
LINE
  5
   10A
  8
0
  6
CONTINUOUS
 62
     7
 10
259.742029562049
 20
170.584797528909
 30
0.0
 11
262.69645282373
 21
171.10574204691
 31
0.0
  0
LINE
  5
   10B
  8
0
  6
CONTINUOUS
 62
     7
 10
262.69645282373
 20
171.10574204691
 30
0.0
 11
259.742029562049
 21
171.62668656491
 31
0.0
  0
ENDBLK
  5
   10C
  8
0
  6
CONTINUOUS
 62
     7
  0
BLOCK
  5
   10D
  8
0
  6
CONTINUOUS
 62
     7
  2
*UDIM86
 70
    65
 10
0.0
 20
0.0
 30
0.0
  3
*UDIM86
  0
TEXT
  5
   10E
  8
0
  6
CONTINUOUS
 62
     7
 10
264.794146514427
 20
172.10574204691
 30
0.0
 40
2.4999999335834
  1
22
 41
0.933333333333333
 72
     1
 11
266.877479792413
 21
173.355742013701
 31
0.0
 73
     2
  0
LINE
  5
   10F
  8
0
  6
CONTINUOUS
 62
     7
 10
270.3964526926
 20
76.1444236781523
 30
0.0
 11
270.3964526926
 21
173.10574204691
 31
0.0
  0
LINE
  5
   110
  8
0
  6
CONTINUOUS
 62
     7
 10
262.69645282373
 20
171.10574204691
 30
0.0
 11
270.3964526926
 21
171.10574204691
 31
0.0
  0
LINE
  5
   111
  8
0
  6
CONTINUOUS
 62
     7
 10
259.742029562049
 20
170.584797528909
 30
0.0
 11
262.69645282373
 21
171.10574204691
 31
0.0
  0
LINE
  5
   112
  8
0
  6
CONTINUOUS
 62
     7
 10
262.69645282373
 20
171.10574204691
 30
0.0
 11
259.742029562049
 21
171.62668656491
 31
0.0
  0
LINE
  5
   113
  8
0
  6
CONTINUOUS
 62
     7
 10
273.350875954282
 20
171.62668656491
 30
0.0
 11
270.3964526926
 21
171.10574204691
 31
0.0
  0
LINE
  5
   114
  8
0
  6
CONTINUOUS
 62
     7
 10
270.3964526926
 20
171.10574204691
 30
0.0
 11
273.350875954282
 21
170.584797528909
 31
0.0
  0
ENDBLK
  5
   115
  8
0
  6
CONTINUOUS
 62
     7
  0
BLOCK
  5
   116
  8
0
  6
CONTINUOUS
 62
     7
  2
*UDIM87
 70
    65
 10
0.0
 20
0.0
 30
0.0
  3
*UDIM87
  0
TEXT
  5
   117
  8
0
  6
CONTINUOUS
 62
     7
 10
209.546661966783
 20
178.558247430188
 30
0.0
 40
2.4999999335834
  1
103,5
 41
0.933333333333333
 72
     1
 11
215.129995151786
 21
179.80824739698
 31
0.0
 73
     2
  0
LINE
  5
   118
  8
0
  6
CONTINUOUS
 62
     7
 10
197.246673598886
 20
173.107850750742
 30
0.0
 11
197.246673598886
 21
179.558247430188
 31
0.0
  0
LINE
  5
   119
  8
0
  6
CONTINUOUS
 62
     7
 10
233.471651619672
 20
92.0827262893322
 30
0.0
 11
233.471651619672
 21
179.558247430188
 31
0.0
  0
LINE
  5
   11A
  8
0
  6
CONTINUOUS
 62
     7
 10
197.246673598886
 20
177.558247430188
 30
0.0
 11
233.471651619672
 21
177.558247430188
 31
0.0
  0
LINE
  5
   11B
  8
0
  6
CONTINUOUS
 62
     7
 10
200.201096860567
 20
178.079191948189
 30
0.0
 11
197.246673598886
 21
177.558247430188
 31
0.0
  0
LINE
  5
   11C
  8
0
  6
CONTINUOUS
 62
     7
 10
197.246673598886
 20
177.558247430188
 30
0.0
 11
200.201096860567
 21
177.037302912188
 31
0.0
  0
LINE
  5
   11D
  8
0
  6
CONTINUOUS
 62
     7
 10
230.51722835799
 20
177.037302912188
 30
0.0
 11
233.471651619672
 21
177.558247430188
 31
0.0
  0
LINE
  5
   11E
  8
0
  6
CONTINUOUS
 62
     7
 10
233.471651619672
 20
177.558247430188
 30
0.0
 11
230.51722835799
 21
178.079191948189
 31
0.0
  0
ENDBLK
  5
   11F
  8
0
  6
CONTINUOUS
 62
     7
  0
BLOCK
  5
   120
  8
0
  6
CONTINUOUS
 62
     7
  2
*UDIM88
 70
    65
 10
0.0
 20
0.0
 30
0.0
  3
*UDIM88
  0
TEXT
  5
   121
  8
0
  6
CONTINUOUS
 62
     7
 10
237.634051395325
 20
178.558247430188
 30
0.0
 40
2.4999999335834
  1
37
 41
0.933333333333333
 72
     1
 11
239.717384673311
 21
179.80824739698
 31
0.0
 73
     2
  0
LINE
  5
   122
  8
0
  6
CONTINUOUS
 62
     7
 10
246.421453100892
 20
165.502082023067
 30
0.0
 11
246.421453100892
 21
179.558247430188
 31
0.0
  0
LINE
  5
   123
  8
0
  6
CONTINUOUS
 62
     7
 10
233.471651619672
 20
177.558247430188
 30
0.0
 11
246.421453100892
 21
177.558247430188
 31
0.0
  0
LINE
  5
   124
  8
0
  6
CONTINUOUS
 62
     7
 10
236.426074881353
 20
178.079191948189
 30
0.0
 11
233.471651619672
 21
177.558247430188
 31
0.0
  0
LINE
  5
   125
  8
0
  6
CONTINUOUS
 62
     7
 10
233.471651619672
 20
177.558247430188
 30
0.0
 11
236.426074881353
 21
177.037302912188
 31
0.0
  0
LINE
  5
   126
  8
0
  6
CONTINUOUS
 62
     7
 10
243.46702983921
 20
177.037302912188
 30
0.0
 11
246.421453100892
 21
177.558247430188
 31
0.0
  0
LINE
  5
   127
  8
0
  6
CONTINUOUS
 62
     7
 10
246.421453100892
 20
177.558247430188
 30
0.0
 11
243.46702983921
 21
178.079191948189
 31
0.0
  0
ENDBLK
  5
   128
  8
0
  6
CONTINUOUS
 62
     7
  0
BLOCK
  5
   129
  8
0
  6
CONTINUOUS
 62
     7
  2
*UDIM89
 70
    65
 10
0.0
 20
0.0
 30
0.0
  3
*UDIM89
  0
TEXT
  5
   12A
  8
0
  6
CONTINUOUS
 62
     7
 10
236.206029821186
 20
11.4620706951307
 30
0.0
 40
2.4999999335834
  1
42,5
 41
0.933333333333333
 72
     1
 11
240.622696370517
 21
12.7120706619224
 31
0.0
 73
     2
  0
LINE
  5
   12B
  8
0
  6
CONTINUOUS
 62
     7
 10
233.471651619672
 20
53.332732255757
 30
0.0
 11
233.471651619672
 21
8.46207069513071
 31
0.0
  0
LINE
  5
   12C
  8
0
  6
CONTINUOUS
 62
     7
 10
248.346453068109
 20
39.4202266669823
 30
0.0
 11
248.346453068109
 21
8.46207069513071
 31
0.0
  0
LINE
  5
   12D
  8
0
  6
CONTINUOUS
 62
     7
 10
233.471651619672
 20
10.4620706951307
 30
0.0
 11
248.346453068109
 21
10.4620706951307
 31
0.0
  0
LINE
  5
   12E
  8
0
  6
CONTINUOUS
 62
     7
 10
236.426074881353
 20
10.983015213131
 30
0.0
 11
233.471651619672
 21
10.4620706951307
 31
0.0
  0
LINE
  5
   12F
  8
0
  6
CONTINUOUS
 62
     7
 10
233.471651619672
 20
10.4620706951307
 30
0.0
 11
236.426074881353
 21
9.94112617713036
 31
0.0
  0
LINE
  5
   130
  8
0
  6
CONTINUOUS
 62
     7
 10
245.392029806428
 20
9.94112617713036
 30
0.0
 11
248.346453068109
 21
10.4620706951307
 31
0.0
  0
LINE
  5
   131
  8
0
  6
CONTINUOUS
 62
     7
 10
248.346453068109
 20
10.4620706951307
 30
0.0
 11
245.392029806428
 21
10.983015213131
 31
0.0
  0
ENDBLK
  5
   132
  8
0
  6
CONTINUOUS
 62
     7
  0
BLOCK
  5
   133
  8
0
  6
CONTINUOUS
 62
     7
  2
*UDIM90
 70
    65
 10
0.0
 20
0.0
 30
0.0
  3
*UDIM90
  0
TEXT
  5
   134
  8
0
  6
CONTINUOUS
 62
     7
 10
131.369130456045
 20
-46.7165904189312
 30
0.0
 40
2.50000001341104
  1
200
 50
359.999999844103
 41
0.933333333333333
 72
     1
 11
134.619130476875
 21
-45.4665904210523
 31
0.0
 73
     2
  0
TEXT
  5
   135
  8
0
  6
CONTINUOUS
 62
     7
 10
117.410797070161
 20
-46.7165904094256
 30
0.0
 40
2.50000001341104
  1
R.min.
 50
359.999999844103
 41
0.933333333333333
 72
     1
 11
124.160797109765
 21
-45.4665904210523
 31
0.0
 73
     2
  0
LINE
  5
   136
  8
0
  6
CONTINUOUS
 62
     7
 10
154.848297715187
 20
-53.0536468361146
 30
0.0
 11
154.848297715187
 21
-45.7165904277579
 31
0.0
  0
LINE
  5
   137
  8
0
  6
CONTINUOUS
 62
     7
 10
114.848297119141
 20
-47.7165904277579
 30
0.0
 11
154.848297715187
 21
-47.7165904277579
 31
0.0
  0
LINE
  5
   138
  8
0
  6
CONTINUOUS
 62
     7
 10
117.802720380822
 20
-47.1956459097575
 30
0.0
 11
114.848297119141
 21
-47.7165904277579
 31
0.0
  0
LINE
  5
   139
  8
0
  6
CONTINUOUS
 62
     7
 10
114.848297119141
 20
-47.7165904277579
 30
0.0
 11
117.802720380822
 21
-48.2375349457582
 31
0.0
  0
LINE
  5
   13A
  8
0
  6
CONTINUOUS
 62
     7
 10
151.893874453505
 20
-48.2375349457582
 30
0.0
 11
154.848297715187
 21
-47.7165904277579
 31
0.0
  0
LINE
  5
   13B
  8
0
  6
CONTINUOUS
 62
     7
 10
154.848297715187
 20
-47.7165904277579
 30
0.0
 11
151.893874453505
 21
-47.1956459097575
 31
0.0
  0
ENDBLK
  5
   13C
  8
0
  6
CONTINUOUS
 62
     7
  0
BLOCK
  5
   13D
  8
0
  6
CONTINUOUS
 62
     7
  2
*UDIM91
 70
    65
 10
0.0
 20
0.0
 30
0.0
  3
*UDIM91
  0
TEXT
  5
   13E
  8
0
  6
CONTINUOUS
 62
     7
 10
103.84372368049
 20
-72.3943877344269
 30
0.0
 40
2.50000001341104
  1
2,75
 50
359.999999844103
 41
0.933333333333333
 72
     1
 11
108.260390374245
 21
-71.1443877397165
 31
0.0
 73
     2
  0
LINE
  5
   13F
  8
0
  6
CONTINUOUS
 62
     7
 10
114.298297110945
 20
-62.942486269623
 30
0.0
 11
114.298297110945
 21
-75.394387746422
 31
0.0
  0
LINE
  5
   140
  8
0
  6
CONTINUOUS
 62
     7
 10
103.843723683885
 20
-73.394387746422
 30
0.0
 11
114.848297119141
 21
-73.394387746422
 31
0.0
  0
LINE
  5
   141
  8
0
  6
CONTINUOUS
 62
     7
 10
111.343873849263
 20
-73.9153322644223
 30
0.0
 11
114.298297110945
 21
-73.394387746422
 31
0.0
  0
LINE
  5
   142
  8
0
  6
CONTINUOUS
 62
     7
 10
114.298297110945
 20
-73.394387746422
 30
0.0
 11
111.343873849263
 21
-72.8734432284217
 31
0.0
  0
LINE
  5
   143
  8
0
  6
CONTINUOUS
 62
     7
 10
117.802720380822
 20
-72.8734432284217
 30
0.0
 11
114.848297119141
 21
-73.394387746422
 31
0.0
  0
LINE
  5
   144
  8
0
  6
CONTINUOUS
 62
     7
 10
114.848297119141
 20
-73.394387746422
 30
0.0
 11
117.802720380822
 21
-73.9153322644223
 31
0.0
  0
ENDBLK
  5
   145
  8
0
  6
CONTINUOUS
 62
     7
  0
BLOCK
  5
   146
  8
0
  6
CONTINUOUS
 62
     7
  2
*UDIM92
 70
    65
 10
0.0
 20
0.0
 30
0.0
  3
*UDIM92
  0
TEXT
  5
   147
  8
0
  6
CONTINUOUS
 62
     7
 10
139.697687147109
 20
-71.9189863143894
 30
0.0
 40
2.50000001341104
  1
90
 50
449.999999844103
 41
0.933333333333333
 72
     1
 11
138.447687146059
 21
-69.8356529664869
 31
0.0
 73
     2
  0
LINE
  5
   148
  8
0
  6
CONTINUOUS
 62
     7
 10
125.634297264963
 20
-60.6064862497151
 30
0.0
 11
142.697687152764
 21
-60.6064862497151
 31
0.0
  0
LINE
  5
   149
  8
0
  6
CONTINUOUS
 62
     7
 10
137.952532088016
 20
-78.606486517936
 30
0.0
 11
142.697687152764
 21
-78.606486517936
 31
0.0
  0
LINE
  5
   14A
  8
0
  6
CONTINUOUS
 62
     7
 10
140.697687152764
 20
-60.6064862497151
 30
0.0
 11
140.697687152764
 21
-78.606486517936
 31
0.0
  0
LINE
  5
   14B
  8
0
  6
CONTINUOUS
 62
     7
 10
141.218631670764
 20
-63.5609095113967
 30
0.0
 11
140.697687152764
 21
-60.6064862497151
 31
0.0
  0
LINE
  5
   14C
  8
0
  6
CONTINUOUS
 62
     7
 10
140.697687152764
 20
-60.6064862497151
 30
0.0
 11
140.176742634764
 21
-63.5609095113967
 31
0.0
  0
LINE
  5
   14D
  8
0
  6
CONTINUOUS
 62
     7
 10
140.176742634764
 20
-75.6520632562544
 30
0.0
 11
140.697687152764
 21
-78.606486517936
 31
0.0
  0
LINE
  5
   14E
  8
0
  6
CONTINUOUS
 62
     7
 10
140.697687152764
 20
-78.606486517936
 30
0.0
 11
141.218631670764
 21
-75.6520632562544
 31
0.0
  0
ENDBLK
  5
   14F
  8
0
  6
CONTINUOUS
 62
     7
  0
BLOCK
  5
   150
  8
0
  6
CONTINUOUS
 62
     7
  2
*UDIM93
 70
    65
 10
0.0
 20
0.0
 30
0.0
  3
*UDIM93
  0
TEXT
  5
   151
  8
0
  6
CONTINUOUS
 62
     7
 10
116.737885790494
 20
-52.5179622736837
 30
0.0
 40
2.50000001341104
  1
45
 50
359.999999844103
 41
0.933333333333333
 72
     1
 11
118.821219138398
 21
-51.2679622726362
 31
0.0
 73
     2
  0
LINE
  5
   152
  8
0
  6
CONTINUOUS
 62
     7
 10
114.298297110945
 20
-58.2704862298071
 30
0.0
 11
114.298297110945
 21
-51.5179622793418
 31
0.0
  0
LINE
  5
   153
  8
0
  6
CONTINUOUS
 62
     7
 10
123.298297245055
 20
-58.2704862298071
 30
0.0
 11
123.298297245055
 21
-51.5179622793418
 31
0.0
  0
LINE
  5
   154
  8
0
  6
CONTINUOUS
 62
     7
 10
114.298297110945
 20
-53.5179622793418
 30
0.0
 11
123.298297245055
 21
-53.5179622793418
 31
0.0
  0
LINE
  5
   155
  8
0
  6
CONTINUOUS
 62
     7
 10
117.252720372627
 20
-52.9970177613414
 30
0.0
 11
114.298297110945
 21
-53.5179622793418
 31
0.0
  0
LINE
  5
   156
  8
0
  6
CONTINUOUS
 62
     7
 10
114.298297110945
 20
-53.5179622793418
 30
0.0
 11
117.252720372627
 21
-54.0389067973421
 31
0.0
  0
LINE
  5
   157
  8
0
  6
CONTINUOUS
 62
     7
 10
120.343873983374
 20
-54.0389067973421
 30
0.0
 11
123.298297245055
 21
-53.5179622793418
 31
0.0
  0
LINE
  5
   158
  8
0
  6
CONTINUOUS
 62
     7
 10
123.298297245055
 20
-53.5179622793418
 30
0.0
 11
120.343873983374
 21
-52.9970177613414
 31
0.0
  0
ENDBLK
  5
   159
  8
0
  6
CONTINUOUS
 62
     7
  0
BLOCK
  5
   15A
  8
0
  6
CONTINUOUS
 62
     7
  2
*UDIM94
 70
    65
 10
0.0
 20
0.0
 30
0.0
  3
*UDIM94
  0
TEXT
  5
   15B
  8
0
  6
CONTINUOUS
 62
     7
 10
90.6524534279511
 20
-104.69068042104
 30
0.0
 40
2.50000001341104
  1
7
 50
397.208926617964
 41
0.933333333333333
 72
     1
 11
90.6266154901056
 21
-103.140806166616
 31
0.0
 73
     2
  0
TEXT
  5
   15C
  8
0
  6
CONTINUOUS
 62
     7
 10
88.5618096633125
 20
-106.278078860411
 30
0.0
 40
2.50000001341104
  1
Ø
 50
397.208926617964
 41
0.933333333333333
 72
     1
 11
88.535971725467
 21
-104.728204605987
 31
0.0
 73
     2
  0
LINE
  5
   15D
  8
0
  6
CONTINUOUS
 62
     7
 10
103.90580195368
 20
-95.8831805296697
 30
0.0
 11
89.1665328756768
 21
-107.074514571191
 31
0.0
  0
LINE
  5
   15E
  8
0
  6
CONTINUOUS
 62
     7
 10
105.943782904054
 20
-93.6816733991082
 30
0.0
 11
103.90580195368
 21
-95.8831805296697
 31
0.0
  0
LINE
  5
   15F
  8
0
  6
CONTINUOUS
 62
     7
 10
103.90580195368
 20
-95.8831805296697
 30
0.0
 11
106.573837384446
 21
-94.5114710341225
 31
0.0
  0
LINE
  5
   160
  8
0
  6
CONTINUOUS
 62
     7
 10
100.752810991501
 20
-98.931300164265
 30
0.0
 11
102.790791941875
 21
-96.7297930337033
 31
0.0
  0
LINE
  5
   161
  8
0
  6
CONTINUOUS
 62
     7
 10
102.790791941875
 20
-96.7297930337033
 30
0.0
 11
100.122756511108
 21
-98.1015025292506
 31
0.0
  0
ENDBLK
  5
   162
  8
0
  6
CONTINUOUS
 62
     7
  0
BLOCK
  5
   163
  8
0
  6
CONTINUOUS
 62
     7
  2
*UDIM95
 70
    65
 10
0.0
 20
0.0
 30
0.0
  3
*UDIM95
  0
TEXT
  5
   164
  8
0
  6
CONTINUOUS
 62
     7
 10
111.369130158022
 20
-112.967363500871
 30
0.0
 40
2.50000001341104
  1
147
 50
359.999999844103
 41
0.933333333333333
 72
     1
 11
114.619130178851
 21
-111.717363502992
 31
0.0
 73
     2
  0
LINE
  5
   165
  8
0
  6
CONTINUOUS
 62
     7
 10
100.148296900094
 20
-94.3064867369831
 30
0.0
 11
100.148296900094
 21
-115.967363509698
 31
0.0
  0
LINE
  5
   166
  8
0
  6
CONTINUOUS
 62
     7
 10
129.548297338188
 20
-94.3064867369831
 30
0.0
 11
129.548297338188
 21
-115.967363509698
 31
0.0
  0
LINE
  5
   167
  8
0
  6
CONTINUOUS
 62
     7
 10
100.148296900094
 20
-113.967363509698
 30
0.0
 11
129.548297338188
 21
-113.967363509698
 31
0.0
  0
LINE
  5
   168
  8
0
  6
CONTINUOUS
 62
     7
 10
103.102720161775
 20
-113.446418991698
 30
0.0
 11
100.148296900094
 21
-113.967363509698
 31
0.0
  0
LINE
  5
   169
  8
0
  6
CONTINUOUS
 62
     7
 10
100.148296900094
 20
-113.967363509698
 30
0.0
 11
103.102720161775
 21
-114.488308027698
 31
0.0
  0
LINE
  5
   16A
  8
0
  6
CONTINUOUS
 62
     7
 10
126.593874076506
 20
-114.488308027698
 30
0.0
 11
129.548297338188
 21
-113.967363509698
 31
0.0
  0
LINE
  5
   16B
  8
0
  6
CONTINUOUS
 62
     7
 10
129.548297338188
 20
-113.967363509698
 30
0.0
 11
126.593874076506
 21
-113.446418991698
 31
0.0
  0
ENDBLK
  5
   16C
  8
0
  6
CONTINUOUS
 62
     7
  0
BLOCK
  5
   16D
  8
0
  6
CONTINUOUS
 62
     7
  2
*UDIM96
 70
    65
 10
0.0
 20
0.0
 30
0.0
  3
*UDIM96
  0
TEXT
  5
   16E
  8
0
  6
CONTINUOUS
 62
     7
 10
111.369130158022
 20
-106.375044677052
 30
0.0
 40
2.50000001341104
  1
115
 50
359.999999844103
 41
0.933333333333333
 72
     1
 11
114.619130178851
 21
-105.125044679173
 31
0.0
 73
     2
  0
LINE
  5
   16F
  8
0
  6
CONTINUOUS
 62
     7
 10
103.348296947777
 20
-63.2064862735569
 30
0.0
 11
103.348296947777
 21
-109.375044685879
 31
0.0
  0
LINE
  5
   170
  8
0
  6
CONTINUOUS
 62
     7
 10
126.348297290504
 20
-63.2064862735569
 30
0.0
 11
126.348297290504
 21
-109.375044685879
 31
0.0
  0
LINE
  5
   171
  8
0
  6
CONTINUOUS
 62
     7
 10
103.348296947777
 20
-107.375044685879
 30
0.0
 11
126.348297290504
 21
-107.375044685879
 31
0.0
  0
LINE
  5
   172
  8
0
  6
CONTINUOUS
 62
     7
 10
106.302720209459
 20
-106.854100167878
 30
0.0
 11
103.348296947777
 21
-107.375044685879
 31
0.0
  0
LINE
  5
   173
  8
0
  6
CONTINUOUS
 62
     7
 10
103.348296947777
 20
-107.375044685879
 30
0.0
 11
106.302720209459
 21
-107.895989203879
 31
0.0
  0
LINE
  5
   174
  8
0
  6
CONTINUOUS
 62
     7
 10
123.393874028822
 20
-107.895989203879
 30
0.0
 11
126.348297290504
 21
-107.375044685879
 31
0.0
  0
LINE
  5
   175
  8
0
  6
CONTINUOUS
 62
     7
 10
126.348297290504
 20
-107.375044685879
 30
0.0
 11
123.393874028822
 21
-106.854100167878
 31
0.0
  0
ENDBLK
  5
   176
  8
0
  6
CONTINUOUS
 62
     7
  0
BLOCK
  5
   177
  8
0
  6
CONTINUOUS
 62
     7
  2
*UDIM97
 70
    65
 10
0.0
 20
0.0
 30
0.0
  3
*UDIM97
  0
TEXT
  5
   178
  8
0
  6
CONTINUOUS
 62
     7
 10
81.8317042260071
 20
-82.0856534790529
 30
0.0
 40
2.50000001341104
  1
177
 50
449.999999844103
 41
0.933333333333333
 72
     1
 11
80.5817042281241
 21
-78.8356534582252
 31
0.0
 73
     2
  0
LINE
  5
   179
  8
0
  6
CONTINUOUS
 62
     7
 10
101.048296928406
 20
-60.9064862541854
 30
0.0
 11
80.8317042348297
 21
-60.9064862541854
 31
0.0
  0
LINE
  5
   17A
  8
0
  6
CONTINUOUS
 62
     7
 10
101.048296928406
 20
-96.3064867816865
 30
0.0
 11
80.8317042348297
 21
-96.3064867816865
 31
0.0
  0
LINE
  5
   17B
  8
0
  6
CONTINUOUS
 62
     7
 10
82.8317042348297
 20
-60.9064862541854
 30
0.0
 11
82.8317042348297
 21
-96.3064867816865
 31
0.0
  0
LINE
  5
   17C
  8
0
  6
CONTINUOUS
 62
     7
 10
83.35264875283
 20
-63.8609095158671
 30
0.0
 11
82.8317042348297
 21
-60.9064862541854
 31
0.0
  0
LINE
  5
   17D
  8
0
  6
CONTINUOUS
 62
     7
 10
82.8317042348297
 20
-60.9064862541854
 30
0.0
 11
82.3107597168293
 21
-63.8609095158671
 31
0.0
  0
LINE
  5
   17E
  8
0
  6
CONTINUOUS
 62
     7
 10
82.3107597168293
 20
-93.3520635200049
 30
0.0
 11
82.8317042348297
 21
-96.3064867816865
 31
0.0
  0
LINE
  5
   17F
  8
0
  6
CONTINUOUS
 62
     7
 10
82.8317042348297
 20
-96.3064867816865
 30
0.0
 11
83.35264875283
 21
-93.3520635200049
 31
0.0
  0
ENDBLK
  5
   180
  8
0
  6
CONTINUOUS
 62
     7
  0
BLOCK
  5
   181
  8
0
  6
CONTINUOUS
 62
     7
  2
*UDIM98
 70
    65
 10
0.0
 20
0.0
 30
0.0
  3
*UDIM98
  0
TEXT
  5
   182
  8
0
  6
CONTINUOUS
 62
     7
 10
89.329551322597
 20
-82.0856534790529
 30
0.0
 40
2.50000001341104
  1
147
 50
449.999999844103
 41
0.933333333333333
 72
     1
 11
88.079551324714
 21
-78.8356534582252
 31
0.0
 73
     2
  0
LINE
  5
   183
  8
0
  6
CONTINUOUS
 62
     7
 10
99.1482969000936
 20
-63.9064862988889
 30
0.0
 11
88.3295513314196
 21
-63.9064862988889
 31
0.0
  0
LINE
  5
   184
  8
0
  6
CONTINUOUS
 62
     7
 10
99.1482969000936
 20
-93.3064867369831
 30
0.0
 11
88.3295513314196
 21
-93.3064867369831
 31
0.0
  0
LINE
  5
   185
  8
0
  6
CONTINUOUS
 62
     7
 10
90.3295513314196
 20
-63.9064862988889
 30
0.0
 11
90.3295513314196
 21
-93.3064867369831
 31
0.0
  0
LINE
  5
   186
  8
0
  6
CONTINUOUS
 62
     7
 10
90.8504958494199
 20
-66.8609095605705
 30
0.0
 11
90.3295513314196
 21
-63.9064862988889
 31
0.0
  0
LINE
  5
   187
  8
0
  6
CONTINUOUS
 62
     7
 10
90.3295513314196
 20
-63.9064862988889
 30
0.0
 11
89.8086068134192
 21
-66.8609095605705
 31
0.0
  0
LINE
  5
   188
  8
0
  6
CONTINUOUS
 62
     7
 10
89.8086068134192
 20
-90.3520634753015
 30
0.0
 11
90.3295513314196
 21
-93.3064867369831
 31
0.0
  0
LINE
  5
   189
  8
0
  6
CONTINUOUS
 62
     7
 10
90.3295513314196
 20
-93.3064867369831
 30
0.0
 11
90.8504958494199
 21
-90.3520634753015
 31
0.0
  0
ENDBLK
  5
   18A
  8
0
  6
CONTINUOUS
 62
     7
  0
BLOCK
  5
   18B
  8
0
  6
CONTINUOUS
 62
     7
  2
*UDIM99
 70
    65
 10
0.0
 20
0.0
 30
0.0
  3
*UDIM99
  0
TEXT
  5
   18C
  8
0
  6
CONTINUOUS
 62
     7
 10
139.697687147109
 20
-71.9189863143894
 30
0.0
 40
2.50000001341104
  1
90
 50
449.999999844103
 41
0.933333333333333
 72
     1
 11
138.447687146059
 21
-69.8356529664869
 31
0.0
 73
     2
  0
LINE
  5
   18D
  8
0
  6
CONTINUOUS
 62
     7
 10
125.634297264963
 20
-60.6064862497151
 30
0.0
 11
142.697687152764
 21
-60.6064862497151
 31
0.0
  0
LINE
  5
   18E
  8
0
  6
CONTINUOUS
 62
     7
 10
140.697687152764
 20
-60.6064862497151
 30
0.0
 11
140.697687152764
 21
-78.606486517936
 31
0.0
  0
LINE
  5
   18F
  8
0
  6
CONTINUOUS
 62
     7
 10
141.218631670764
 20
-63.5609095113967
 30
0.0
 11
140.697687152764
 21
-60.6064862497151
 31
0.0
  0
LINE
  5
   190
  8
0
  6
CONTINUOUS
 62
     7
 10
140.697687152764
 20
-60.6064862497151
 30
0.0
 11
140.176742634764
 21
-63.5609095113967
 31
0.0
  0
LINE
  5
   191
  8
0
  6
CONTINUOUS
 62
     7
 10
140.176742634764
 20
-75.6520632562544
 30
0.0
 11
140.697687152764
 21
-78.606486517936
 31
0.0
  0
LINE
  5
   192
  8
0
  6
CONTINUOUS
 62
     7
 10
140.697687152764
 20
-78.606486517936
 30
0.0
 11
141.218631670764
 21
-75.6520632562544
 31
0.0
  0
ENDBLK
  5
   193
  8
0
  6
CONTINUOUS
 62
     7
  0
BLOCK
  5
   194
  8
0
  6
CONTINUOUS
 62
     7
  2
*HATCH19
 70
    65
 10
0.0
 20
0.0
 30
0.0
  3
*HATCH19
  0
LINE
  5
   195
  8
0
  6
CONTINUOUS
 62
    52
 10
-11.7279224395752
 20
1.0
 30
0.0
 11
-11.9763488769531
 21
0.75157368183136
 31
0.0
  0
LINE
  5
   196
  8
0
  6
CONTINUOUS
 62
    52
 10
-9.60660171508789
 20
1.0
 30
0.0
 11
-11.6066026687622
 21
-1.0
 31
0.0
  0
LINE
  5
   197
  8
0
  6
CONTINUOUS
 62
    52
 10
-7.48528146743774
 20
1.0
 30
0.0
 11
-9.48528289794922
 21
-1.0
 31
0.0
  0
LINE
  5
   198
  8
0
  6
CONTINUOUS
 62
    52
 10
-5.3639612197876
 20
1.0
 30
0.0
 11
-7.36396265029907
 21
-1.0
 31
0.0
  0
LINE
  5
   199
  8
0
  6
CONTINUOUS
 62
    52
 10
-3.47947335243225
 20
0.763167560100555
 30
0.0
 11
-5.24264097213745
 21
-1.0
 31
0.0
  0
LINE
  5
   19A
  8
0
  6
CONTINUOUS
 62
    52
 10
-2.51160907745361
 20
-0.390288293361664
 30
0.0
 11
-3.1213207244873
 21
-1.0
 31
0.0
  0
ENDBLK
  5
   19B
  8
0
  6
CONTINUOUS
 62
     7
  0
BLOCK
  5
   19C
  8
0
  6
CONTINUOUS
 62
     7
  2
*HATCH20
 70
    65
 10
0.0
 20
0.0
 30
0.0
  3
*HATCH20
  0
LINE
  5
   19D
  8
0
  6
CONTINUOUS
 62
    52
 10
5.24264097213745
 20
1.0
 30
0.0
 11
3.24264073371887
 21
-1.0
 31
0.0
  0
LINE
  5
   19E
  8
0
  6
CONTINUOUS
 62
    52
 10
7.3639612197876
 20
1.0
 30
0.0
 11
5.3639612197876
 21
-1.0
 31
0.0
  0
LINE
  5
   19F
  8
0
  6
CONTINUOUS
 62
    52
 10
9.48528099060059
 20
1.0
 30
0.0
 11
7.4852819442749
 21
-1.0
 31
0.0
  0
ENDBLK
  5
   1A0
  8
0
  6
CONTINUOUS
 62
     7
  0
BLOCK
  5
   1A1
  8
0
  6
CONTINUOUS
 62
     7
  2
*UDIM100
 70
    65
 10
0.0
 20
0.0
 30
0.0
  3
*UDIM100
  0
TEXT
  5
   1A2
  8
0
  6
CONTINUOUS
 62
     7
 10
92.370332405111
 20
-38.0191505487932
 30
0.0
 40
2.50000005960464
  1
80
 50
449.375116932104
 41
0.933333333333333
 72
     1
 11
91.1431276558587
 21
-35.9223085035603
 31
0.0
 73
     2
  0
TEXT
  5
   1A3
  8
0
  6
CONTINUOUS
 62
     7
 10
91.9158040006489
 20
-33.8472785616339
 30
0.0
 40
2.50000005960464
  1
°
 50
449.375116932104
 41
0.933333333333333
 72
     1
 11
90.6758755252076
 21
-32.9170338260181
 31
0.0
 73
     2
  0
LINE
  5
   1A4
  8
0
  6
CONTINUOUS
 62
     7
 10
75.2923124484901
 20
-39.0975295356153
 30
0.0
 11
89.4942796147206
 21
-51.0143949467912
 31
0.0
  0
LINE
  5
   1A5
  8
0
  6
CONTINUOUS
 62
     7
 10
75.2923124484901
 20
-30.4555557915331
 30
0.0
 11
89.4942796147206
 21
-18.5386903803573
 31
0.0
  0
ARC
  5
   1A6
  8
0
  6
CONTINUOUS
 62
     7
 10
70.1427608201827
 20
-34.7765426635742
 30
0.0
 40
23.2616136940404
 50
319.999999815233
 51
399.999999769042
  0
LINE
  5
   1A7
  8
0
  6
CONTINUOUS
 62
     7
 10
89.4621907416738
 20
-47.1307435236807
 30
0.0
 11
87.9621907284826
 21
-49.7288197274181
 31
0.0
  0
LINE
  5
   1A8
  8
0
  6
CONTINUOUS
 62
     7
 10
87.9621907284826
 20
-49.7288197274181
 30
0.0
 11
90.2603240480487
 21
-47.8004568866902
 31
0.0
  0
LINE
  5
   1A9
  8
0
  6
CONTINUOUS
 62
     7
 10
90.2603240480487
 20
-21.7526284404582
 30
0.0
 11
87.9621907284826
 21
-19.8242655997303
 31
0.0
  0
LINE
  5
   1AA
  8
0
  6
CONTINUOUS
 62
     7
 10
87.9621907284826
 20
-19.8242655997303
 30
0.0
 11
89.4621907416738
 21
-22.4223418034677
 31
0.0
  0
ENDBLK
  5
   1AB
  8
0
  6
CONTINUOUS
 62
     7
  0
BLOCK
  5
   1AC
  8
0
  6
CONTINUOUS
 62
     7
  2
*UDIM101
 70
    65
 10
0.0
 20
0.0
 30
0.0
  3
*UDIM101
  0
TEXT
  5
   1AD
  8
0
  6
CONTINUOUS
 62
     7
 10
52.0806007328699
 20
-27.970642460799
 30
0.0
 40
2.50000005960464
  1
Ø4
 50
449.999999844103
 41
0.933333333333333
 72
     1
 11
50.8306007087231
 21
-25.8873090744019
 31
0.0
 73
     2
  0
LINE
  5
   1AE
  8
0
  6
CONTINUOUS
 62
     7
 10
71.5262680053711
 20
-32.7765426635742
 30
0.0
 11
51.0806007385254
 21
-32.7765426635742
 31
0.0
  0
LINE
  5
   1AF
  8
0
  6
CONTINUOUS
 62
     7
 10
71.5262680053711
 20
-36.7765426635742
 30
0.0
 11
51.0806007385254
 21
-36.7765426635742
 31
0.0
  0
LINE
  5
   1B0
  8
0
  6
CONTINUOUS
 62
     7
 10
53.0806007385254
 20
-23.803975691398
 30
0.0
 11
53.0806007385254
 21
-36.7765426635742
 31
0.0
  0
LINE
  5
   1B1
  8
0
  6
CONTINUOUS
 62
     7
 10
52.5596562205251
 20
-29.8221194018926
 30
0.0
 11
53.0806007385254
 21
-32.7765426635742
 31
0.0
  0
LINE
  5
   1B2
  8
0
  6
CONTINUOUS
 62
     7
 10
53.0806007385254
 20
-32.7765426635742
 30
0.0
 11
53.6015452565257
 21
-29.8221194018926
 31
0.0
  0
LINE
  5
   1B3
  8
0
  6
CONTINUOUS
 62
     7
 10
53.6015452565257
 20
-39.7309659252558
 30
0.0
 11
53.0806007385254
 21
-36.7765426635742
 31
0.0
  0
LINE
  5
   1B4
  8
0
  6
CONTINUOUS
 62
     7
 10
53.0806007385254
 20
-36.7765426635742
 30
0.0
 11
52.5596562205251
 21
-39.7309659252558
 31
0.0
  0
ENDBLK
  5
   1B5
  8
0
  6
CONTINUOUS
 62
     7
  0
BLOCK
  5
   1B6
  8
0
  6
CONTINUOUS
 62
     7
  2
*UDIM102
 70
    65
 10
0.0
 20
0.0
 30
0.0
  3
*UDIM102
  0
TEXT
  5
   1B7
  8
0
  6
CONTINUOUS
 62
     7
 10
249.923263724681
 20
-37.6709512183303
 30
0.0
 40
2.50000001341104
  1
70
 50
359.999999896069
 41
0.933333333333333
 72
     1
 11
252.006597071451
 21
-36.4209512153934
 31
0.0
 73
     2
  0
LINE
  5
   1B8
  8
0
  6
CONTINUOUS
 62
     7
 10
259.235763758421
 20
-36.006482783705
 30
0.0
 11
259.235763758421
 21
-40.6709512220989
 31
0.0
  0
LINE
  5
   1B9
  8
0
  6
CONTINUOUS
 62
     7
 10
259.235763758421
 20
-38.6709512220989
 30
0.0
 11
245.235763549805
 21
-38.6709512220989
 31
0.0
  0
LINE
  5
   1BA
  8
0
  6
CONTINUOUS
 62
     7
 10
256.281340496739
 20
-39.1918957400992
 30
0.0
 11
259.235763758421
 21
-38.6709512220989
 31
0.0
  0
LINE
  5
   1BB
  8
0
  6
CONTINUOUS
 62
     7
 10
259.235763758421
 20
-38.6709512220989
 30
0.0
 11
256.281340496739
 21
-38.1500067040986
 31
0.0
  0
LINE
  5
   1BC
  8
0
  6
CONTINUOUS
 62
     7
 10
248.190186811486
 20
-38.1500067040986
 30
0.0
 11
245.235763549805
 21
-38.6709512220989
 31
0.0
  0
LINE
  5
   1BD
  8
0
  6
CONTINUOUS
 62
     7
 10
245.235763549805
 20
-38.6709512220989
 30
0.0
 11
248.190186811486
 21
-39.1918957400992
 31
0.0
  0
ENDBLK
  5
   1BE
  8
0
  6
CONTINUOUS
 62
     7
  0
BLOCK
  5
   1BF
  8
0
  6
CONTINUOUS
 62
     7
  2
*UDIM103
 70
    65
 10
0.0
 20
0.0
 30
0.0
  3
*UDIM103
  0
TEXT
  5
   1C0
  8
0
  6
CONTINUOUS
 62
     7
 10
235.923262753125
 20
-37.6709512183303
 30
0.0
 40
2.50000001341104
  1
70
 50
359.999999896069
 41
0.933333333333333
 72
     1
 11
238.006596099896
 21
-36.4209512153934
 31
0.0
 73
     2
  0
LINE
  5
   1C1
  8
0
  6
CONTINUOUS
 62
     7
 10
231.235763341188
 20
-34.8564827665687
 30
0.0
 11
231.235763341188
 21
-40.6709512220989
 31
0.0
  0
LINE
  5
   1C2
  8
0
  6
CONTINUOUS
 62
     7
 10
245.235763549805
 20
-38.6709512220989
 30
0.0
 11
231.235763341188
 21
-38.6709512220989
 31
0.0
  0
LINE
  5
   1C3
  8
0
  6
CONTINUOUS
 62
     7
 10
242.281340288123
 20
-39.1918957400992
 30
0.0
 11
245.235763549805
 21
-38.6709512220989
 31
0.0
  0
LINE
  5
   1C4
  8
0
  6
CONTINUOUS
 62
     7
 10
245.235763549805
 20
-38.6709512220989
 30
0.0
 11
242.281340288123
 21
-38.1500067040986
 31
0.0
  0
LINE
  5
   1C5
  8
0
  6
CONTINUOUS
 62
     7
 10
234.19018660287
 20
-38.1500067040986
 30
0.0
 11
231.235763341188
 21
-38.6709512220989
 31
0.0
  0
LINE
  5
   1C6
  8
0
  6
CONTINUOUS
 62
     7
 10
231.235763341188
 20
-38.6709512220989
 30
0.0
 11
234.19018660287
 21
-39.1918957400992
 31
0.0
  0
ENDBLK
  5
   1C7
  8
0
  6
CONTINUOUS
 62
     7
  0
BLOCK
  5
   1C8
  8
0
  6
CONTINUOUS
 62
     7
  2
*UDIM104
 70
    65
 10
0.0
 20
0.0
 30
0.0
  3
*UDIM104
  0
TEXT
  5
   1C9
  8
0
  6
CONTINUOUS
 62
     7
 10
221.92326101863
 20
-37.6709512183303
 30
0.0
 40
2.50000001341104
  1
70
 50
359.999999896069
 41
0.933333333333333
 72
     1
 11
224.006594365401
 21
-36.4209512153934
 31
0.0
 73
     2
  0
LINE
  5
   1CA
  8
0
  6
CONTINUOUS
 62
     7
 10
217.235763132572
 20
-34.8564827665687
 30
0.0
 11
217.235763132572
 21
-40.6709512220989
 31
0.0
  0
LINE
  5
   1CB
  8
0
  6
CONTINUOUS
 62
     7
 10
231.235763341188
 20
-38.6709512220989
 30
0.0
 11
217.235763132572
 21
-38.6709512220989
 31
0.0
  0
LINE
  5
   1CC
  8
0
  6
CONTINUOUS
 62
     7
 10
228.281340079507
 20
-39.1918957400992
 30
0.0
 11
231.235763341188
 21
-38.6709512220989
 31
0.0
  0
LINE
  5
   1CD
  8
0
  6
CONTINUOUS
 62
     7
 10
231.235763341188
 20
-38.6709512220989
 30
0.0
 11
228.281340079507
 21
-38.1500067040986
 31
0.0
  0
LINE
  5
   1CE
  8
0
  6
CONTINUOUS
 62
     7
 10
220.190186394254
 20
-38.1500067040986
 30
0.0
 11
217.235763132572
 21
-38.6709512220989
 31
0.0
  0
LINE
  5
   1CF
  8
0
  6
CONTINUOUS
 62
     7
 10
217.235763132572
 20
-38.6709512220989
 30
0.0
 11
220.190186394254
 21
-39.1918957400992
 31
0.0
  0
ENDBLK
  5
   1D0
  8
0
  6
CONTINUOUS
 62
     7
  0
BLOCK
  5
   1D1
  8
0
  6
CONTINUOUS
 62
     7
  2
*UDIM105
 70
    65
 10
0.0
 20
0.0
 30
0.0
  3
*UDIM105
  0
TEXT
  5
   1D2
  8
0
  6
CONTINUOUS
 62
     7
 10
255.21493038278
 20
-73.0378111813727
 30
0.0
 40
2.50000001341104
  1
35
 50
359.999999896069
 41
0.933333333333333
 72
     1
 11
257.29826372955
 21
-71.7878111784358
 31
0.0
 73
     2
  0
LINE
  5
   1D3
  8
0
  6
CONTINUOUS
 62
     7
 10
259.381597074059
 20
-74.0378111851413
 30
0.0
 11
245.235763549805
 21
-74.0378111851413
 31
0.0
  0
LINE
  5
   1D4
  8
0
  6
CONTINUOUS
 62
     7
 10
249.281340392431
 20
-74.5587557031417
 30
0.0
 11
252.235763654113
 21
-74.0378111851413
 31
0.0
  0
LINE
  5
   1D5
  8
0
  6
CONTINUOUS
 62
     7
 10
252.235763654113
 20
-74.0378111851413
 30
0.0
 11
249.281340392431
 21
-73.516866667141
 31
0.0
  0
LINE
  5
   1D6
  8
0
  6
CONTINUOUS
 62
     7
 10
248.190186811486
 20
-73.516866667141
 30
0.0
 11
245.235763549805
 21
-74.0378111851413
 31
0.0
  0
LINE
  5
   1D7
  8
0
  6
CONTINUOUS
 62
     7
 10
245.235763549805
 20
-74.0378111851413
 30
0.0
 11
248.190186811486
 21
-74.5587557031417
 31
0.0
  0
ENDBLK
  5
   1D8
  8
0
  6
CONTINUOUS
 62
     7
  0
BLOCK
  5
   1D9
  8
0
  6
CONTINUOUS
 62
     7
  2
*UDIM106
 70
    65
 10
0.0
 20
0.0
 30
0.0
  3
*UDIM106
  0
TEXT
  5
   1DA
  8
0
  6
CONTINUOUS
 62
     7
 10
231.256596433358
 20
-73.0378111792623
 30
0.0
 40
2.50000001341104
  1
105
 50
359.999999896069
 41
0.933333333333333
 72
     1
 11
234.506596453053
 21
-71.7878111784358
 31
0.0
 73
     2
  0
LINE
  5
   1DB
  8
0
  6
CONTINUOUS
 62
     7
 10
245.235763549805
 20
-74.0378111851413
 30
0.0
 11
224.23576323688
 21
-74.0378111851413
 31
0.0
  0
LINE
  5
   1DC
  8
0
  6
CONTINUOUS
 62
     7
 10
242.281340288123
 20
-74.5587557031417
 30
0.0
 11
245.235763549805
 21
-74.0378111851413
 31
0.0
  0
LINE
  5
   1DD
  8
0
  6
CONTINUOUS
 62
     7
 10
245.235763549805
 20
-74.0378111851413
 30
0.0
 11
242.281340288123
 21
-73.516866667141
 31
0.0
  0
LINE
  5
   1DE
  8
0
  6
CONTINUOUS
 62
     7
 10
227.190186498562
 20
-73.516866667141
 30
0.0
 11
224.23576323688
 21
-74.0378111851413
 31
0.0
  0
LINE
  5
   1DF
  8
0
  6
CONTINUOUS
 62
     7
 10
224.23576323688
 20
-74.0378111851413
 30
0.0
 11
227.190186498562
 21
-74.5587557031417
 31
0.0
  0
ENDBLK
  5
   1E0
  8
0
  6
CONTINUOUS
 62
     7
  0
BLOCK
  5
   1E1
  8
0
  6
CONTINUOUS
 62
     7
  2
*UDIM107
 70
    65
 10
0.0
 20
0.0
 30
0.0
  3
*UDIM107
  0
TEXT
  5
   1E2
  8
0
  6
CONTINUOUS
 62
     7
 10
231.761352529448
 20
-59.8322871786096
 30
0.0
 40
2.50000001341104
  1
5,5
 50
337.561676423779
 41
0.933333333333333
 72
     1
 11
235.242408969
 21
-59.9174117622521
 31
0.0
 73
     2
  0
TEXT
  5
   1E3
  8
0
  6
CONTINUOUS
 62
     7
 10
229.335088782938
 20
-58.830354352363
 30
0.0
 40
2.50000001341104
  1
Ø
 50
337.561676423779
 41
0.933333333333333
 72
     1
 11
230.659466352581
 21
-58.0248719772716
 31
0.0
 73
     2
  0
TEXT
  5
   1E4
  8
0
  6
CONTINUOUS
 62
     7
 10
238.192877000666
 20
-62.4882043389618
 30
0.0
 40
2.50000001341104
  1
-M5
 50
337.561676423779
 41
0.933333333333333
 72
     1
 11
241.673933440218
 21
-62.5733289226042
 31
0.0
 73
     2
  0
LINE
  5
   1E5
  8
0
  6
CONTINUOUS
 62
     7
 10
243.819079449724
 20
-65.8934718022708
 30
0.0
 11
223.727403212317
 21
-57.5965543392391
 31
0.0
  0
LINE
  5
   1E6
  8
0
  6
CONTINUOUS
 62
     7
 10
227.673708547218
 20
-58.6625775624114
 30
0.0
 11
224.744123261444
 21
-58.0164119076639
 31
0.0
  0
LINE
  5
   1E7
  8
0
  6
CONTINUOUS
 62
     7
 10
224.744123261444
 20
-58.0164119076639
 30
0.0
 11
227.27603128294
 21
-59.6255861588502
 31
0.0
  0
LINE
  5
   1E8
  8
0
  6
CONTINUOUS
 62
     7
 10
220.797817926543
 20
-56.9503886844916
 30
0.0
 11
223.727403212317
 21
-57.5965543392391
 31
0.0
  0
LINE
  5
   1E9
  8
0
  6
CONTINUOUS
 62
     7
 10
223.727403212317
 20
-57.5965543392391
 30
0.0
 11
221.19549519082
 21
-55.9873800880527
 31
0.0
  0
ENDBLK
  5
   1EA
  8
0
  6
CONTINUOUS
 62
     7
  0
BLOCK
  5
   1EB
  8
0
  6
CONTINUOUS
 62
     7
  2
*UDIM108
 70
    65
 10
0.0
 20
0.0
 30
0.0
  3
*UDIM108
  0
TEXT
  5
   1EC
  8
0
  6
CONTINUOUS
 62
     7
 10
268.31052028104
 20
-34.6163781759726
 30
0.0
 40
2.50000001341104
  1
35
 50
326.487613132109
 41
0.933333333333333
 72
     1
 11
270.737680355212
 21
-34.7244143525646
 31
0.0
 73
     2
  0
TEXT
  5
   1ED
  8
0
  6
CONTINUOUS
 62
     7
 10
266.121883246615
 20
-33.1670703799943
 30
0.0
 40
2.50000001341104
  1
Ø
 50
326.487613132109
 41
0.933333333333333
 72
     1
 11
267.576315757403
 21
-32.6309697596647
 31
0.0
 73
     2
  0
LINE
  5
   1EE
  8
0
  6
CONTINUOUS
 62
     7
 10
271.232430047057
 20
-37.750633213939
 30
0.0
 11
256.317581036944
 21
-27.8740723023054
 31
0.0
  0
LINE
  5
   1EF
  8
0
  6
CONTINUOUS
 62
     7
 10
259.403024943571
 20
-30.5420511402065
 30
0.0
 11
262.153946479898
 21
-31.7388931101325
 31
0.0
  0
LINE
  5
   1F0
  8
0
  6
CONTINUOUS
 62
     7
 10
262.153946479898
 20
-31.7388931101325
 30
0.0
 11
259.978269852969
 21
-29.6733589867073
 31
0.0
  0
LINE
  5
   1F1
  8
0
  6
CONTINUOUS
 62
     7
 10
259.068502573271
 20
-29.0709142722314
 30
0.0
 11
256.317581036944
 21
-27.8740723023054
 31
0.0
  0
LINE
  5
   1F2
  8
0
  6
CONTINUOUS
 62
     7
 10
256.317581036944
 20
-27.8740723023054
 30
0.0
 11
258.493257663873
 21
-29.9396064257306
 31
0.0
  0
ENDBLK
  5
   1F3
  8
0
  6
CONTINUOUS
 62
     7
  0
BLOCK
  5
   1F4
  8
0
  6
CONTINUOUS
 62
     7
  2
*UDIM109
 70
    65
 10
0.0
 20
0.0
 30
0.0
  3
*UDIM109
  0
TEXT
  5
   1F5
  8
0
  6
CONTINUOUS
 62
     7
 10
275.179770352688
 20
-95.5856505945445
 30
0.0
 40
2.50000001341104
  1
135
 50
449.999999896069
 41
0.933333333333333
 72
     1
 11
273.929770351857
 21
-92.3356505748506
 31
0.0
 73
     2
  0
LINE
  5
   1F6
  8
0
  6
CONTINUOUS
 62
     7
 10
264.449378834183
 20
-78.6064834333956
 30
0.0
 11
278.179770358563
 21
-78.6064834333956
 31
0.0
  0
LINE
  5
   1F7
  8
0
  6
CONTINUOUS
 62
     7
 10
265.435763835907
 20
-105.606483835727
 30
0.0
 11
278.179770358563
 21
-105.606483835727
 31
0.0
  0
LINE
  5
   1F8
  8
0
  6
CONTINUOUS
 62
     7
 10
276.179770358563
 20
-78.6064834333956
 30
0.0
 11
276.179770358563
 21
-105.606483835727
 31
0.0
  0
LINE
  5
   1F9
  8
0
  6
CONTINUOUS
 62
     7
 10
276.700714876563
 20
-81.5609066950772
 30
0.0
 11
276.179770358563
 21
-78.6064834333956
 31
0.0
  0
LINE
  5
   1FA
  8
0
  6
CONTINUOUS
 62
     7
 10
276.179770358563
 20
-78.6064834333956
 30
0.0
 11
275.658825840562
 21
-81.5609066950772
 31
0.0
  0
LINE
  5
   1FB
  8
0
  6
CONTINUOUS
 62
     7
 10
275.658825840562
 20
-102.652060574045
 30
0.0
 11
276.179770358563
 21
-105.606483835727
 31
0.0
  0
LINE
  5
   1FC
  8
0
  6
CONTINUOUS
 62
     7
 10
276.179770358563
 20
-105.606483835727
 30
0.0
 11
276.700714876563
 21
-102.652060574045
 31
0.0
  0
ENDBLK
  5
   1FD
  8
0
  6
CONTINUOUS
 62
     7
  0
BLOCK
  5
   1FE
  8
0
  6
CONTINUOUS
 62
     7
  2
*UDIM110
 70
    65
 10
0.0
 20
0.0
 30
0.0
  3
*UDIM110
  0
TEXT
  5
   1FF
  8
0
  6
CONTINUOUS
 62
     7
 10
196.546837662411
 20
-71.1856502309561
 30
0.0
 40
2.50000001341104
  1
375
 50
449.999999896069
 41
0.933333333333333
 72
     1
 11
195.29683766158
 21
-67.9356502112622
 31
0.0
 73
     2
  0
LINE
  5
   200
  8
0
  6
CONTINUOUS
 62
     7
 10
234.671252693255
 20
-30.2064827121794
 30
0.0
 11
195.546837668286
 21
-30.2064827121794
 31
0.0
  0
LINE
  5
   201
  8
0
  6
CONTINUOUS
 62
     7
 10
234.533330798437
 20
-105.206483829767
 30
0.0
 11
195.546837668286
 21
-105.206483829767
 31
0.0
  0
LINE
  5
   202
  8
0
  6
CONTINUOUS
 62
     7
 10
197.546837668286
 20
-30.2064827121794
 30
0.0
 11
197.546837668286
 21
-105.206483829767
 31
0.0
  0
LINE
  5
   203
  8
0
  6
CONTINUOUS
 62
     7
 10
198.067782186286
 20
-33.160905973861
 30
0.0
 11
197.546837668286
 21
-30.2064827121794
 31
0.0
  0
LINE
  5
   204
  8
0
  6
CONTINUOUS
 62
     7
 10
197.546837668286
 20
-30.2064827121794
 30
0.0
 11
197.025893150286
 21
-33.160905973861
 31
0.0
  0
LINE
  5
   205
  8
0
  6
CONTINUOUS
 62
     7
 10
197.025893150286
 20
-102.252060568085
 30
0.0
 11
197.546837668286
 21
-105.206483829767
 31
0.0
  0
LINE
  5
   206
  8
0
  6
CONTINUOUS
 62
     7
 10
197.546837668286
 20
-105.206483829767
 30
0.0
 11
198.067782186286
 21
-102.252060568085
 31
0.0
  0
ENDBLK
  5
   207
  8
0
  6
CONTINUOUS
 62
     7
  0
BLOCK
  5
   208
  8
0
  6
CONTINUOUS
 62
     7
  2
*UDIM111
 70
    65
 10
0.0
 20
0.0
 30
0.0
  3
*UDIM111
  0
TEXT
  5
   209
  8
0
  6
CONTINUOUS
 62
     7
 10
202.670436996824
 20
-71.6856502384067
 30
0.0
 40
2.50000001341104
  1
104
 50
449.999999896069
 41
0.933333333333333
 72
     1
 11
201.420436995993
 21
-68.4356502187128
 31
0.0
 73
     2
  0
LINE
  5
   20A
  8
0
  6
CONTINUOUS
 62
     7
 10
234.671252693255
 20
-57.8064831234515
 30
0.0
 11
201.670437002699
 21
-57.8064831234515
 31
0.0
  0
LINE
  5
   20B
  8
0
  6
CONTINUOUS
 62
     7
 10
208.984482289035
 20
-78.6064834333956
 30
0.0
 11
201.670437002699
 21
-78.6064834333956
 31
0.0
  0
LINE
  5
   20C
  8
0
  6
CONTINUOUS
 62
     7
 10
203.670437002699
 20
-57.8064831234515
 30
0.0
 11
203.670437002699
 21
-78.6064834333956
 31
0.0
  0
LINE
  5
   20D
  8
0
  6
CONTINUOUS
 62
     7
 10
204.191381520699
 20
-60.7609063851331
 30
0.0
 11
203.670437002699
 21
-57.8064831234515
 31
0.0
  0
LINE
  5
   20E
  8
0
  6
CONTINUOUS
 62
     7
 10
203.670437002699
 20
-57.8064831234515
 30
0.0
 11
203.149492484698
 21
-60.7609063851331
 31
0.0
  0
LINE
  5
   20F
  8
0
  6
CONTINUOUS
 62
     7
 10
203.149492484698
 20
-75.652060171714
 30
0.0
 11
203.670437002699
 21
-78.6064834333956
 31
0.0
  0
LINE
  5
   210
  8
0
  6
CONTINUOUS
 62
     7
 10
203.670437002699
 20
-78.6064834333956
 30
0.0
 11
204.191381520699
 21
-75.652060171714
 31
0.0
  0
ENDBLK
  5
   211
  8
0
  6
CONTINUOUS
 62
     7
  0
BLOCK
  5
   212
  8
0
  6
CONTINUOUS
 62
     7
  2
*UDIM112
 70
    65
 10
0.0
 20
0.0
 30
0.0
  3
*UDIM112
  0
TEXT
  5
   213
  8
0
  6
CONTINUOUS
 62
     7
 10
202.670436996824
 20
-95.3856505915642
 30
0.0
 40
2.50000001341104
  1
133
 50
449.999999896069
 41
0.933333333333333
 72
     1
 11
201.420436995993
 21
-92.1356505718703
 31
0.0
 73
     2
  0
LINE
  5
   214
  8
0
  6
CONTINUOUS
 62
     7
 10
234.533330798437
 20
-105.206483829767
 30
0.0
 11
201.670437002699
 21
-105.206483829767
 31
0.0
  0
LINE
  5
   215
  8
0
  6
CONTINUOUS
 62
     7
 10
203.670437002699
 20
-78.6064834333956
 30
0.0
 11
203.670437002699
 21
-105.206483829767
 31
0.0
  0
LINE
  5
   216
  8
0
  6
CONTINUOUS
 62
     7
 10
204.191381520699
 20
-81.5609066950772
 30
0.0
 11
203.670437002699
 21
-78.6064834333956
 31
0.0
  0
LINE
  5
   217
  8
0
  6
CONTINUOUS
 62
     7
 10
203.670437002699
 20
-78.6064834333956
 30
0.0
 11
203.149492484698
 21
-81.5609066950772
 31
0.0
  0
LINE
  5
   218
  8
0
  6
CONTINUOUS
 62
     7
 10
203.149492484698
 20
-102.252060568085
 30
0.0
 11
203.670437002699
 21
-105.206483829767
 31
0.0
  0
LINE
  5
   219
  8
0
  6
CONTINUOUS
 62
     7
 10
203.670437002699
 20
-105.206483829767
 30
0.0
 11
204.191381520699
 21
-102.252060568085
 31
0.0
  0
ENDBLK
  5
   21A
  8
0
  6
CONTINUOUS
 62
     7
  0
BLOCK
  5
   21B
  8
0
  6
CONTINUOUS
 62
     7
  2
*UDIM113
 70
    65
 10
0.0
 20
0.0
 30
0.0
  3
*UDIM113
  0
TEXT
  5
   21C
  8
0
  6
CONTINUOUS
 62
     7
 10
269.304280462225
 20
-99.1064839867001
 30
0.0
 40
2.50000001341104
  1
8
 50
449.999999896069
 41
0.933333333333333
 72
     1
 11
268.054280457177
 21
-98.1898173128565
 31
0.0
 73
     2
  0
LINE
  5
   21D
  8
0
  6
CONTINUOUS
 62
     7
 10
260.235763758421
 20
-102.106483783573
 30
0.0
 11
272.304280463882
 21
-102.106483783573
 31
0.0
  0
LINE
  5
   21E
  8
0
  6
CONTINUOUS
 62
     7
 10
256.735763706267
 20
-103.706483807415
 30
0.0
 11
272.304280463882
 21
-103.706483807415
 31
0.0
  0
LINE
  5
   21F
  8
0
  6
CONTINUOUS
 62
     7
 10
270.304280463882
 20
-97.2731506412725
 30
0.0
 11
270.304280463882
 21
-103.706483807415
 31
0.0
  0
LINE
  5
   220
  8
0
  6
CONTINUOUS
 62
     7
 10
269.783335945882
 20
-99.1520605218913
 30
0.0
 11
270.304280463882
 21
-102.106483783573
 31
0.0
  0
LINE
  5
   221
  8
0
  6
CONTINUOUS
 62
     7
 10
270.304280463882
 20
-102.106483783573
 30
0.0
 11
270.825224981882
 21
-99.1520605218913
 31
0.0
  0
LINE
  5
   222
  8
0
  6
CONTINUOUS
 62
     7
 10
270.825224981882
 20
-106.660907069096
 30
0.0
 11
270.304280463882
 21
-103.706483807415
 31
0.0
  0
LINE
  5
   223
  8
0
  6
CONTINUOUS
 62
     7
 10
270.304280463882
 20
-103.706483807415
 30
0.0
 11
269.783335945882
 21
-106.660907069096
 31
0.0
  0
ENDBLK
  5
   224
  8
0
  6
CONTINUOUS
 62
     7
  0
BLOCK
  5
   225
  8
0
  6
CONTINUOUS
 62
     7
  2
*UDIM114
 70
    65
 10
0.0
 20
0.0
 30
0.0
  3
*UDIM114
  0
TEXT
  5
   226
  8
0
  6
CONTINUOUS
 62
     7
 10
280.988208549592
 20
-71.1856502309561
 30
0.0
 40
2.50000001341104
  1
379
 50
449.999999896069
 41
0.933333333333333
 72
     1
 11
279.738208548761
 21
-67.9356502112622
 31
0.0
 73
     2
  0
LINE
  5
   227
  8
0
  6
CONTINUOUS
 62
     7
 10
265.435763835907
 20
-29.806482706219
 30
0.0
 11
283.988208555467
 21
-29.806482706219
 31
0.0
  0
LINE
  5
   228
  8
0
  6
CONTINUOUS
 62
     7
 10
265.435763835907
 20
-105.606483835727
 30
0.0
 11
283.988208555467
 21
-105.606483835727
 31
0.0
  0
LINE
  5
   229
  8
0
  6
CONTINUOUS
 62
     7
 10
281.988208555467
 20
-29.806482706219
 30
0.0
 11
281.988208555467
 21
-105.606483835727
 31
0.0
  0
LINE
  5
   22A
  8
0
  6
CONTINUOUS
 62
     7
 10
282.509153073467
 20
-32.7609059679006
 30
0.0
 11
281.988208555467
 21
-29.806482706219
 31
0.0
  0
LINE
  5
   22B
  8
0
  6
CONTINUOUS
 62
     7
 10
281.988208555467
 20
-29.806482706219
 30
0.0
 11
281.467264037466
 21
-32.7609059679006
 31
0.0
  0
LINE
  5
   22C
  8
0
  6
CONTINUOUS
 62
     7
 10
281.467264037466
 20
-102.652060574045
 30
0.0
 11
281.988208555467
 21
-105.606483835727
 31
0.0
  0
LINE
  5
   22D
  8
0
  6
CONTINUOUS
 62
     7
 10
281.988208555467
 20
-105.606483835727
 30
0.0
 11
282.509153073467
 21
-102.652060574045
 31
0.0
  0
ENDBLK
  5
   22E
  8
0
  6
CONTINUOUS
 62
     7
  0
ENDSEC
  0
SECTION
  2
ENTITIES
  0
LINE
  5
   22F
  8
0
  6
CONTINUOUS
 62
     1
 10
88.2482975721359
 20
54.3327320860261
 30
0.0
 11
53.773305949613
 21
54.3327320860261
 31
0.0
  0
ARC
  5
   230
  8
0
  6
CONTINUOUS
 62
     1
 10
65.8482784896822
 20
27.4702699945967
 30
0.0
 40
2.97503256700413
 50
404.899302393594
 51
495.100813987516
  0
LINE
  5
   231
  8
0
  6
DASHDOT
 62
     2
 10
65.8482784896822
 20
21.4711521208361
 30
0.0
 11
65.8482784896822
 21
34.8641142603295
 31
0.0
  0
LINE
  5
   232
  8
0
  6
DASHDOT
 62
     2
 10
69.8732833927536
 20
24.3202402848412
 30
0.0
 11
69.8732833927536
 21
30.6202304432554
 31
0.0
  0
LINE
  5
   233
  8
0
  6
DASHDOT
 62
     2
 10
61.8232758877416
 20
24.3202352638195
 30
0.0
 11
61.8232758877416
 21
30.6202311984851
 31
0.0
  0
LINE
  5
   234
  8
0
  6
CONTINUOUS
 62
     1
 10
88.2482975721359
 20
91.0827314601773
 30
0.0
 11
53.773305949613
 21
91.0827314601773
 31
0.0
  0
LINE
  5
   235
  8
0
  6
CONTINUOUS
 62
     1
 10
88.2482975721359
 20
46.7202375353806
 30
0.0
 11
54.035805924281
 21
46.7202375353806
 31
0.0
  0
LINE
  5
   236
  8
0
  6
CONTINUOUS
 62
     1
 10
151.510804285153
 20
31.2152324797171
 30
0.0
 11
53.5983059525932
 21
31.2152324797171
 31
0.0
  0
LINE
  5
   237
  8
0
  6
CONTINUOUS
 62
     1
 10
78.3958056638087
 20
108.425242015717
 30
0.0
 11
78.3958056638087
 21
109.752200197477
 31
0.0
  0
LINE
  5
   238
  8
0
  6
CONTINUOUS
 62
     1
 10
77.135805885538
 20
108.425242015717
 30
0.0
 11
77.135805885538
 21
110.103654655584
 31
0.0
  0
LINE
  5
   239
  8
0
  6
CONTINUOUS
 62
     1
 10
75.8758061072673
 20
108.425242015717
 30
0.0
 11
75.8758061072673
 21
156.270235690617
 31
0.0
  0
LINE
  5
   23A
  8
0
  6
CONTINUOUS
 62
     1
 10
74.6158063289965
 20
108.425242015717
 30
0.0
 11
74.6158063289965
 21
156.270235690617
 31
0.0
  0
LINE
  5
   23B
  8
0
  6
CONTINUOUS
 62
     1
 10
73.3558065507258
 20
108.425242015717
 30
0.0
 11
73.3558065507258
 21
156.270235690617
 31
0.0
  0
LINE
  5
   23C
  8
0
  6
CONTINUOUS
 62
     1
 10
72.0958067724551
 20
108.425242015717
 30
0.0
 11
72.0958067724551
 21
156.270235690617
 31
0.0
  0
LINE
  5
   23D
  8
0
  6
CONTINUOUS
 62
     1
 10
70.8358069941844
 20
108.425242015717
 30
0.0
 11
70.8358069941844
 21
156.270235690617
 31
0.0
  0
LINE
  5
   23E
  8
0
  6
CONTINUOUS
 62
     1
 10
69.5758072159136
 20
108.425242015717
 30
0.0
 11
69.5758072159136
 21
156.270235690617
 31
0.0
  0
LINE
  5
   23F
  8
0
  6
CONTINUOUS
 62
     1
 10
68.3158074376429
 20
108.425242015717
 30
0.0
 11
68.3158074376429
 21
156.270235690617
 31
0.0
  0
LINE
  5
   240
  8
0
  6
CONTINUOUS
 62
     1
 10
67.0558076593722
 20
108.425242015717
 30
0.0
 11
67.0558076593722
 21
156.270235690617
 31
0.0
  0
LINE
  5
   241
  8
0
  6
CONTINUOUS
 62
     1
 10
65.7958078811015
 20
108.425242015717
 30
0.0
 11
65.7958078811015
 21
156.270235690617
 31
0.0
  0
LINE
  5
   242
  8
0
  6
CONTINUOUS
 62
     1
 10
64.5358081028307
 20
108.425242015717
 30
0.0
 11
64.5358081028307
 21
156.270235690617
 31
0.0
  0
LINE
  5
   243
  8
0
  6
CONTINUOUS
 62
     1
 10
63.27580832456
 20
108.425242015717
 30
0.0
 11
63.27580832456
 21
156.270235690617
 31
0.0
  0
LINE
  5
   244
  8
0
  6
CONTINUOUS
 62
     1
 10
62.0158085462893
 20
108.425242015717
 30
0.0
 11
62.0158085462893
 21
156.270235690617
 31
0.0
  0
LINE
  5
   245
  8
0
  6
CONTINUOUS
 62
     1
 10
60.7558087680186
 20
108.425242015717
 30
0.0
 11
60.7558087680186
 21
156.270235690617
 31
0.0
  0
LINE
  5
   246
  8
0
  6
CONTINUOUS
 62
     1
 10
59.4958089897478
 20
108.425242015717
 30
0.0
 11
59.4958089897478
 21
156.270235690617
 31
0.0
  0
LINE
  5
   247
  8
0
  6
CONTINUOUS
 62
     1
 10
58.2358092114771
 20
108.425242015717
 30
0.0
 11
58.2358092114771
 21
156.270235690617
 31
0.0
  0
LINE
  5
   248
  8
0
  6
CONTINUOUS
 62
     1
 10
56.9758094332064
 20
108.425242015717
 30
0.0
 11
56.9758094332064
 21
156.270235690617
 31
0.0
  0
LINE
  5
   249
  8
0
  6
CONTINUOUS
 62
     1
 10
55.7158096549357
 20
108.425242015717
 30
0.0
 11
55.7158096549357
 21
156.270235690617
 31
0.0
  0
LINE
  5
   24A
  8
0
  6
CONTINUOUS
 62
     1
 10
78.3958056638087
 20
91.0827314601773
 30
0.0
 11
78.3958056638087
 21
107.970236513161
 31
0.0
  0
LINE
  5
   24B
  8
0
  6
CONTINUOUS
 62
     1
 10
77.135805885538
 20
91.0827314601773
 30
0.0
 11
77.135805885538
 21
107.970236513161
 31
0.0
  0
LINE
  5
   24C
  8
0
  6
CONTINUOUS
 62
     1
 10
75.8758061072673
 20
91.0827314601773
 30
0.0
 11
75.8758061072673
 21
107.970236513161
 31
0.0
  0
LINE
  5
   24D
  8
0
  6
CONTINUOUS
 62
     1
 10
74.6158063289965
 20
91.0827314601773
 30
0.0
 11
74.6158063289965
 21
107.970236513161
 31
0.0
  0
LINE
  5
   24E
  8
0
  6
CONTINUOUS
 62
     1
 10
73.3558065507258
 20
91.0827314601773
 30
0.0
 11
73.3558065507258
 21
107.970236513161
 31
0.0
  0
LINE
  5
   24F
  8
0
  6
CONTINUOUS
 62
     1
 10
72.0958067724551
 20
91.0827314601773
 30
0.0
 11
72.0958067724551
 21
107.970236513161
 31
0.0
  0
LINE
  5
   250
  8
0
  6
CONTINUOUS
 62
     1
 10
70.8358069941844
 20
91.0827314601773
 30
0.0
 11
70.8358069941844
 21
107.970236513161
 31
0.0
  0
LINE
  5
   251
  8
0
  6
CONTINUOUS
 62
     1
 10
69.5758072159136
 20
91.0827314601773
 30
0.0
 11
69.5758072159136
 21
107.970236513161
 31
0.0
  0
LINE
  5
   252
  8
0
  6
CONTINUOUS
 62
     1
 10
68.3158074376429
 20
91.0827314601773
 30
0.0
 11
68.3158074376429
 21
107.970236513161
 31
0.0
  0
LINE
  5
   253
  8
0
  6
CONTINUOUS
 62
     1
 10
67.0558076593722
 20
91.0827314601773
 30
0.0
 11
67.0558076593722
 21
107.970236513161
 31
0.0
  0
LINE
  5
   254
  8
0
  6
CONTINUOUS
 62
     1
 10
65.7958078811015
 20
91.0827314601773
 30
0.0
 11
65.7958078811015
 21
107.970236513161
 31
0.0
  0
LINE
  5
   255
  8
0
  6
CONTINUOUS
 62
     1
 10
64.5358081028307
 20
91.0827314601773
 30
0.0
 11
64.5358081028307
 21
107.970236513161
 31
0.0
  0
LINE
  5
   256
  8
0
  6
CONTINUOUS
 62
     1
 10
63.27580832456
 20
91.0827314601773
 30
0.0
 11
63.27580832456
 21
107.970236513161
 31
0.0
  0
LINE
  5
   257
  8
0
  6
CONTINUOUS
 62
     1
 10
62.0158085462893
 20
91.0827314601773
 30
0.0
 11
62.0158085462893
 21
107.970236513161
 31
0.0
  0
LINE
  5
   258
  8
0
  6
CONTINUOUS
 62
     1
 10
60.7558087680186
 20
91.0827314601773
 30
0.0
 11
60.7558087680186
 21
107.970236513161
 31
0.0
  0
LINE
  5
   259
  8
0
  6
CONTINUOUS
 62
     1
 10
59.4958089897478
 20
91.0827314601773
 30
0.0
 11
59.4958089897478
 21
107.970236513161
 31
0.0
  0
LINE
  5
   25A
  8
0
  6
CONTINUOUS
 62
     1
 10
58.2358092114771
 20
91.0827314601773
 30
0.0
 11
58.2358092114771
 21
107.970236513161
 31
0.0
  0
LINE
  5
   25B
  8
0
  6
CONTINUOUS
 62
     1
 10
56.9758094332064
 20
91.0827314601773
 30
0.0
 11
56.9758094332064
 21
107.970236513161
 31
0.0
  0
LINE
  5
   25C
  8
0
  6
CONTINUOUS
 62
     1
 10
55.7158096549357
 20
91.0827314601773
 30
0.0
 11
55.7158096549357
 21
107.970236513161
 31
0.0
  0
LINE
  5
   25D
  8
0
  6
CONTINUOUS
 62
     1
 10
78.3958056638087
 20
54.3327320860261
 30
0.0
 11
78.3958056638087
 21
91.0827314601773
 31
0.0
  0
LINE
  5
   25E
  8
0
  6
CONTINUOUS
 62
     1
 10
77.135805885538
 20
54.3327320860261
 30
0.0
 11
77.135805885538
 21
91.0827314601773
 31
0.0
  0
LINE
  5
   25F
  8
0
  6
CONTINUOUS
 62
     1
 10
75.8758061072673
 20
54.3327320860261
 30
0.0
 11
75.8758061072673
 21
91.0827314601773
 31
0.0
  0
LINE
  5
   260
  8
0
  6
CONTINUOUS
 62
     1
 10
74.6158063289965
 20
54.3327320860261
 30
0.0
 11
74.6158063289965
 21
91.0827314601773
 31
0.0
  0
LINE
  5
   261
  8
0
  6
CONTINUOUS
 62
     1
 10
73.3558065507258
 20
54.3327320860261
 30
0.0
 11
73.3558065507258
 21
91.0827314601773
 31
0.0
  0
LINE
  5
   262
  8
0
  6
CONTINUOUS
 62
     1
 10
72.0958067724551
 20
54.3327320860261
 30
0.0
 11
72.0958067724551
 21
91.0827314601773
 31
0.0
  0
LINE
  5
   263
  8
0
  6
CONTINUOUS
 62
     1
 10
70.8358069941844
 20
54.3327320860261
 30
0.0
 11
70.8358069941844
 21
91.0827314601773
 31
0.0
  0
LINE
  5
   264
  8
0
  6
CONTINUOUS
 62
     1
 10
69.5758072159136
 20
54.3327320860261
 30
0.0
 11
69.5758072159136
 21
91.0827314601773
 31
0.0
  0
LINE
  5
   265
  8
0
  6
CONTINUOUS
 62
     1
 10
68.3158074376429
 20
54.3327320860261
 30
0.0
 11
68.3158074376429
 21
91.0827314601773
 31
0.0
  0
LINE
  5
   266
  8
0
  6
CONTINUOUS
 62
     1
 10
67.0558076593722
 20
54.3327320860261
 30
0.0
 11
67.0558076593722
 21
91.0827314601773
 31
0.0
  0
LINE
  5
   267
  8
0
  6
CONTINUOUS
 62
     1
 10
65.7958078811015
 20
54.3327320860261
 30
0.0
 11
65.7958078811015
 21
91.0827314601773
 31
0.0
  0
LINE
  5
   268
  8
0
  6
CONTINUOUS
 62
     1
 10
64.5358081028307
 20
54.3327320860261
 30
0.0
 11
64.5358081028307
 21
91.0827314601773
 31
0.0
  0
LINE
  5
   269
  8
0
  6
CONTINUOUS
 62
     1
 10
63.27580832456
 20
54.3327320860261
 30
0.0
 11
63.27580832456
 21
91.0827314601773
 31
0.0
  0
LINE
  5
   26A
  8
0
  6
CONTINUOUS
 62
     1
 10
62.0158085462893
 20
54.3327320860261
 30
0.0
 11
62.0158085462893
 21
91.0827314601773
 31
0.0
  0
LINE
  5
   26B
  8
0
  6
CONTINUOUS
 62
     1
 10
60.7558087680186
 20
54.3327320860261
 30
0.0
 11
60.7558087680186
 21
91.0827314601773
 31
0.0
  0
LINE
  5
   26C
  8
0
  6
CONTINUOUS
 62
     1
 10
59.4958089897478
 20
54.3327320860261
 30
0.0
 11
59.4958089897478
 21
91.0827314601773
 31
0.0
  0
LINE
  5
   26D
  8
0
  6
CONTINUOUS
 62
     1
 10
58.2358092114771
 20
54.3327320860261
 30
0.0
 11
58.2358092114771
 21
91.0827314601773
 31
0.0
  0
LINE
  5
   26E
  8
0
  6
CONTINUOUS
 62
     1
 10
56.9758094332064
 20
54.3327320860261
 30
0.0
 11
56.9758094332064
 21
91.0827314601773
 31
0.0
  0
LINE
  5
   26F
  8
0
  6
CONTINUOUS
 62
     1
 10
55.7158096549357
 20
54.3327320860261
 30
0.0
 11
55.7158096549357
 21
91.0827314601773
 31
0.0
  0
LINE
  5
   270
  8
0
  6
CONTINUOUS
 62
     1
 10
78.3958056638087
 20
46.7202375353806
 30
0.0
 11
78.3958056638087
 21
54.3327320651645
 31
0.0
  0
LINE
  5
   271
  8
0
  6
CONTINUOUS
 62
     1
 10
77.135805885538
 20
46.7202375353806
 30
0.0
 11
77.135805885538
 21
54.3327320651645
 31
0.0
  0
LINE
  5
   272
  8
0
  6
CONTINUOUS
 62
     1
 10
75.8758061072673
 20
46.7202375353806
 30
0.0
 11
75.8758061072673
 21
54.3327320651645
 31
0.0
  0
LINE
  5
   273
  8
0
  6
CONTINUOUS
 62
     1
 10
74.6158063289965
 20
46.7202375353806
 30
0.0
 11
74.6158063289965
 21
54.3327320651645
 31
0.0
  0
LINE
  5
   274
  8
0
  6
CONTINUOUS
 62
     1
 10
73.3558065507258
 20
46.7202375353806
 30
0.0
 11
73.3558065507258
 21
54.3327320651645
 31
0.0
  0
LINE
  5
   275
  8
0
  6
CONTINUOUS
 62
     1
 10
72.0958067724551
 20
46.7202375353806
 30
0.0
 11
72.0958067724551
 21
54.3327320651645
 31
0.0
  0
LINE
  5
   276
  8
0
  6
CONTINUOUS
 62
     1
 10
70.8358069941844
 20
46.7202375353806
 30
0.0
 11
70.8358069941844
 21
54.3327320651645
 31
0.0
  0
LINE
  5
   277
  8
0
  6
CONTINUOUS
 62
     1
 10
69.5758072159136
 20
46.7202375353806
 30
0.0
 11
69.5758072159136
 21
54.3327320651645
 31
0.0
  0
LINE
  5
   278
  8
0
  6
CONTINUOUS
 62
     1
 10
68.3158074376429
 20
46.7202375353806
 30
0.0
 11
68.3158074376429
 21
54.3327320651645
 31
0.0
  0
LINE
  5
   279
  8
0
  6
CONTINUOUS
 62
     1
 10
67.0558076593722
 20
46.7202375353806
 30
0.0
 11
67.0558076593722
 21
54.3327320651645
 31
0.0
  0
LINE
  5
   27A
  8
0
  6
CONTINUOUS
 62
     1
 10
65.7958078811015
 20
46.7202375353806
 30
0.0
 11
65.7958078811015
 21
54.3327320651645
 31
0.0
  0
LINE
  5
   27B
  8
0
  6
CONTINUOUS
 62
     1
 10
64.5358081028307
 20
46.7202375353806
 30
0.0
 11
64.5358081028307
 21
54.3327320651645
 31
0.0
  0
LINE
  5
   27C
  8
0
  6
CONTINUOUS
 62
     1
 10
63.27580832456
 20
46.7202375353806
 30
0.0
 11
63.27580832456
 21
54.3327320651645
 31
0.0
  0
LINE
  5
   27D
  8
0
  6
CONTINUOUS
 62
     1
 10
62.0158085462893
 20
46.7202375353806
 30
0.0
 11
62.0158085462893
 21
54.3327320651645
 31
0.0
  0
LINE
  5
   27E
  8
0
  6
CONTINUOUS
 62
     1
 10
60.7558087680186
 20
46.7202375353806
 30
0.0
 11
60.7558087680186
 21
54.3327320651645
 31
0.0
  0
LINE
  5
   27F
  8
0
  6
CONTINUOUS
 62
     1
 10
59.4958089897478
 20
46.7202375353806
 30
0.0
 11
59.4958089897478
 21
54.3327320651645
 31
0.0
  0
LINE
  5
   280
  8
0
  6
CONTINUOUS
 62
     1
 10
58.2358092114771
 20
46.7202375353806
 30
0.0
 11
58.2358092114771
 21
54.3327320651645
 31
0.0
  0
LINE
  5
   281
  8
0
  6
CONTINUOUS
 62
     1
 10
56.9758094332064
 20
46.7202375353806
 30
0.0
 11
56.9758094332064
 21
54.3327320651645
 31
0.0
  0
LINE
  5
   282
  8
0
  6
CONTINUOUS
 62
     1
 10
55.7158096549357
 20
46.7202375353806
 30
0.0
 11
55.7158096549357
 21
54.3327320651645
 31
0.0
  0
LINE
  5
   283
  8
0
  6
CONTINUOUS
 62
     1
 10
78.3958056638087
 20
31.3202273070849
 30
0.0
 11
78.3958056638087
 21
46.3002375633948
 31
0.0
  0
LINE
  5
   284
  8
0
  6
CONTINUOUS
 62
     1
 10
77.135805885538
 20
31.3202273070849
 30
0.0
 11
77.135805885538
 21
46.3002375633948
 31
0.0
  0
LINE
  5
   285
  8
0
  6
CONTINUOUS
 62
     1
 10
75.8758061072673
 20
31.3202273070849
 30
0.0
 11
75.8758061072673
 21
46.3002375633948
 31
0.0
  0
LINE
  5
   286
  8
0
  6
CONTINUOUS
 62
     1
 10
74.6158063289965
 20
31.3202273070849
 30
0.0
 11
74.6158063289965
 21
46.3002375633948
 31
0.0
  0
LINE
  5
   287
  8
0
  6
CONTINUOUS
 62
     1
 10
73.3558065507258
 20
31.3202273070849
 30
0.0
 11
73.3558065507258
 21
46.3002375633948
 31
0.0
  0
LINE
  5
   288
  8
0
  6
CONTINUOUS
 62
     1
 10
72.0958067724551
 20
31.3202273070849
 30
0.0
 11
72.0958067724551
 21
46.3002375633948
 31
0.0
  0
LINE
  5
   289
  8
0
  6
CONTINUOUS
 62
     1
 10
70.8358069941844
 20
31.3202273070849
 30
0.0
 11
70.8358069941844
 21
46.3002375633948
 31
0.0
  0
LINE
  5
   28A
  8
0
  6
CONTINUOUS
 62
     1
 10
69.5758072159136
 20
31.3202273070849
 30
0.0
 11
69.5758072159136
 21
46.3002375633948
 31
0.0
  0
LINE
  5
   28B
  8
0
  6
CONTINUOUS
 62
     1
 10
68.3158074376429
 20
31.3202273070849
 30
0.0
 11
68.3158074376429
 21
46.3002375633948
 31
0.0
  0
LINE
  5
   28C
  8
0
  6
CONTINUOUS
 62
     1
 10
67.0558076593722
 20
31.3202273070849
 30
0.0
 11
67.0558076593722
 21
46.3002375633948
 31
0.0
  0
LINE
  5
   28D
  8
0
  6
CONTINUOUS
 62
     1
 10
65.7958078811015
 20
31.3202273070849
 30
0.0
 11
65.7958078811015
 21
46.3002375633948
 31
0.0
  0
LINE
  5
   28E
  8
0
  6
CONTINUOUS
 62
     1
 10
64.5358081028307
 20
31.3202273070849
 30
0.0
 11
64.5358081028307
 21
46.3002375633948
 31
0.0
  0
LINE
  5
   28F
  8
0
  6
CONTINUOUS
 62
     1
 10
63.27580832456
 20
31.3202273070849
 30
0.0
 11
63.27580832456
 21
46.3002375633948
 31
0.0
  0
LINE
  5
   290
  8
0
  6
CONTINUOUS
 62
     1
 10
62.0158085462893
 20
31.3202273070849
 30
0.0
 11
62.0158085462893
 21
46.3002375633948
 31
0.0
  0
LINE
  5
   291
  8
0
  6
CONTINUOUS
 62
     1
 10
60.7558087680186
 20
31.3202273070849
 30
0.0
 11
60.7558087680186
 21
46.3002375633948
 31
0.0
  0
LINE
  5
   292
  8
0
  6
CONTINUOUS
 62
     1
 10
59.4958089897478
 20
31.3202273070849
 30
0.0
 11
59.4958089897478
 21
46.3002375633948
 31
0.0
  0
LINE
  5
   293
  8
0
  6
CONTINUOUS
 62
     1
 10
58.2358092114771
 20
31.3202273070849
 30
0.0
 11
58.2358092114771
 21
46.3002375633948
 31
0.0
  0
LINE
  5
   294
  8
0
  6
CONTINUOUS
 62
     1
 10
56.9758094332064
 20
31.3202273070849
 30
0.0
 11
56.9758094332064
 21
46.3002375633948
 31
0.0
  0
LINE
  5
   295
  8
0
  6
CONTINUOUS
 62
     1
 10
55.7158096549357
 20
31.3202273070849
 30
0.0
 11
55.7158096549357
 21
46.3002375633948
 31
0.0
  0
LINE
  5
   296
  8
0
  6
CONTINUOUS
 62
     3
 10
60.1258087787474
 20
109.720241993664
 30
0.0
 11
60.1258087787474
 21
113.920241922138
 31
0.0
  0
LINE
  5
   297
  8
0
  6
CONTINUOUS
 62
     3
 10
60.7558087680186
 20
113.920241922138
 30
0.0
 11
60.1258087787474
 21
113.920241922138
 31
0.0
  0
LINE
  5
   298
  8
0
  6
CONTINUOUS
 62
     3
 10
60.7558087680186
 20
109.720241993664
 30
0.0
 11
60.1258087787474
 21
109.720241993664
 31
0.0
  0
LINE
  5
   299
  8
0
  6
CONTINUOUS
 62
     3
 10
62.0158087465609
 20
109.720241993664
 30
0.0
 11
61.3858087572897
 21
109.720241993664
 31
0.0
  0
LINE
  5
   29A
  8
0
  6
CONTINUOUS
 62
     3
 10
61.3858087572897
 20
109.720241993664
 30
0.0
 11
61.3858087572897
 21
113.920241922138
 31
0.0
  0
LINE
  5
   29B
  8
0
  6
CONTINUOUS
 62
     3
 10
62.0158087465609
 20
113.920241922138
 30
0.0
 11
61.3858087572897
 21
113.920241922138
 31
0.0
  0
LINE
  5
   29C
  8
0
  6
CONTINUOUS
 62
     3
 10
63.2758087251032
 20
113.920241922138
 30
0.0
 11
62.6458087358321
 21
113.920241922138
 31
0.0
  0
LINE
  5
   29D
  8
0
  6
CONTINUOUS
 62
     3
 10
62.6458087358321
 20
109.720241993664
 30
0.0
 11
62.6458087358321
 21
113.920241922138
 31
0.0
  0
LINE
  5
   29E
  8
0
  6
CONTINUOUS
 62
     3
 10
63.2758087251032
 20
109.720241993664
 30
0.0
 11
62.6458087358321
 21
109.720241993664
 31
0.0
  0
LINE
  5
   29F
  8
0
  6
CONTINUOUS
 62
     3
 10
64.5358087036455
 20
109.720241993664
 30
0.0
 11
63.9058087143744
 21
109.720241993664
 31
0.0
  0
LINE
  5
   2A0
  8
0
  6
CONTINUOUS
 62
     3
 10
63.9058087143744
 20
109.720241993664
 30
0.0
 11
63.9058087143744
 21
113.920241922138
 31
0.0
  0
LINE
  5
   2A1
  8
0
  6
CONTINUOUS
 62
     3
 10
64.5358087036455
 20
113.920241922138
 30
0.0
 11
63.9058087143744
 21
113.920241922138
 31
0.0
  0
LINE
  5
   2A2
  8
0
  6
CONTINUOUS
 62
     3
 10
65.7958086821879
 20
112.695241943
 30
0.0
 11
65.1658086929167
 21
112.695241943
 31
0.0
  0
LINE
  5
   2A3
  8
0
  6
CONTINUOUS
 62
     3
 10
65.1658086929167
 20
109.720241993664
 30
0.0
 11
65.1658086929167
 21
112.695241943
 31
0.0
  0
LINE
  5
   2A4
  8
0
  6
CONTINUOUS
 62
     3
 10
65.7958086821879
 20
109.720241993664
 30
0.0
 11
65.1658086929167
 21
109.720241993664
 31
0.0
  0
LINE
  5
   2A5
  8
0
  6
CONTINUOUS
 62
     3
 10
67.0558086607302
 20
109.720241993664
 30
0.0
 11
66.425808671459
 21
109.720241993664
 31
0.0
  0
LINE
  5
   2A6
  8
0
  6
CONTINUOUS
 62
     3
 10
66.425808671459
 20
109.720241993664
 30
0.0
 11
66.425808671459
 21
112.695241943
 31
0.0
  0
LINE
  5
   2A7
  8
0
  6
CONTINUOUS
 62
     3
 10
67.0558086607302
 20
112.695241943
 30
0.0
 11
66.425808671459
 21
112.695241943
 31
0.0
  0
LINE
  5
   2A8
  8
0
  6
CONTINUOUS
 62
     3
 10
68.3158086392725
 20
113.920241922138
 30
0.0
 11
67.6858086500014
 21
113.920241922138
 31
0.0
  0
LINE
  5
   2A9
  8
0
  6
CONTINUOUS
 62
     3
 10
67.6858086500014
 20
109.720241993664
 30
0.0
 11
67.6858086500014
 21
113.920241922138
 31
0.0
  0
LINE
  5
   2AA
  8
0
  6
CONTINUOUS
 62
     3
 10
68.3158086392725
 20
109.720241993664
 30
0.0
 11
67.6858086500014
 21
109.720241993664
 31
0.0
  0
LINE
  5
   2AB
  8
0
  6
CONTINUOUS
 62
     3
 10
69.5758086178149
 20
113.920241922138
 30
0.0
 11
68.9458086285437
 21
113.920241922138
 31
0.0
  0
LINE
  5
   2AC
  8
0
  6
CONTINUOUS
 62
     3
 10
68.9458086285437
 20
109.720241993664
 30
0.0
 11
68.9458086285437
 21
113.920241922138
 31
0.0
  0
LINE
  5
   2AD
  8
0
  6
CONTINUOUS
 62
     3
 10
69.5758086178149
 20
109.720241993664
 30
0.0
 11
68.9458086285437
 21
109.720241993664
 31
0.0
  0
LINE
  5
   2AE
  8
0
  6
CONTINUOUS
 62
     3
 10
70.8358085963572
 20
113.920241922138
 30
0.0
 11
70.205808607086
 21
113.920241922138
 31
0.0
  0
LINE
  5
   2AF
  8
0
  6
CONTINUOUS
 62
     3
 10
70.205808607086
 20
109.720241993664
 30
0.0
 11
70.205808607086
 21
113.920241922138
 31
0.0
  0
LINE
  5
   2B0
  8
0
  6
CONTINUOUS
 62
     3
 10
70.8358085963572
 20
109.720241993664
 30
0.0
 11
70.205808607086
 21
109.720241993664
 31
0.0
  0
LINE
  5
   2B1
  8
0
  6
CONTINUOUS
 62
     3
 10
72.0958085748995
 20
113.920241922138
 30
0.0
 11
71.4658085856283
 21
113.920241922138
 31
0.0
  0
LINE
  5
   2B2
  8
0
  6
CONTINUOUS
 62
     3
 10
71.4658085856283
 20
109.720241993664
 30
0.0
 11
71.4658085856283
 21
113.920241922138
 31
0.0
  0
LINE
  5
   2B3
  8
0
  6
CONTINUOUS
 62
     3
 10
72.0958085748995
 20
109.720241993664
 30
0.0
 11
71.4658085856283
 21
109.720241993664
 31
0.0
  0
LINE
  5
   2B4
  8
0
  6
CONTINUOUS
 62
     2
 10
101.810781391341
 20
22.7452379645379
 30
0.0
 11
79.4982871118964
 21
22.7452379645379
 31
0.0
  0
LINE
  5
   2B5
  8
0
  6
CONTINUOUS
 62
     7
 10
54.4733195096251
 20
156.270253258097
 30
0.0
 11
54.4733195096251
 21
163.795235732198
 31
0.0
  0
LINE
  5
   2B6
  8
0
  6
CONTINUOUS
 62
     1
 10
88.2482975721359
 20
54.3327320860261
 30
0.0
 11
78.2733055323805
 21
54.3327320860261
 31
0.0
  0
LINE
  5
   2B7
  8
0
  6
CONTINUOUS
 62
     3
 10
54.035805924281
 20
46.3702375622027
 30
0.0
 11
54.035805924281
 21
46.7202375353806
 31
0.0
  0
LINE
  5
   2B8
  8
0
  6
CONTINUOUS
 62
     1
 10
79.6558054420794
 20
91.0827314601773
 30
0.0
 11
79.6558054420794
 21
107.970236513161
 31
0.0
  0
LINE
  5
   2B9
  8
0
  6
CONTINUOUS
 62
     1
 10
79.6558054420794
 20
54.3327320860261
 30
0.0
 11
79.6558054420794
 21
91.0827314601773
 31
0.0
  0
LINE
  5
   2BA
  8
0
  6
CONTINUOUS
 62
     1
 10
79.6558054420794
 20
46.7202375353806
 30
0.0
 11
79.6558054420794
 21
54.3327320651645
 31
0.0
  0
LINE
  5
   2BB
  8
0
  6
CONTINUOUS
 62
     3
 10
54.4732875380696
 20
23.7252376808183
 30
0.0
 11
53.5983059525932
 21
23.7252376808183
 31
0.0
  0
LINE
  5
   2BC
  8
0
  6
CONTINUOUS
 62
     3
 10
54.4732875380696
 20
23.2702376218097
 30
0.0
 11
54.4732875380696
 21
23.7252376808183
 31
0.0
  0
LINE
  5
   2BD
  8
0
  6
CONTINUOUS
 62
     3
 10
101.542546718446
 20
22.7452379645379
 30
0.0
 11
79.4982871118964
 21
22.7452379645379
 31
0.0
  0
LINE
  5
   2BE
  8
0
  6
CONTINUOUS
 62
     1
 10
54.4732875380696
 20
23.7252376808183
 30
0.0
 11
54.4732875380696
 21
31.2152324797171
 31
0.0
  0
ARC
  5
   2BF
  8
0
  6
CONTINUOUS
 62
     3
 10
54.9982858135831
 20
23.2702369960395
 30
0.0
 40
0.524998573004765
 50
179.999941123702
 51
270.000103159103
  0
CIRCLE
  5
   2C0
  8
0
  6
CONTINUOUS
 62
     1
 10
55.8732867390939
 20
24.1452374417552
 30
0.0
 40
0.49000039187499
  0
LINE
  5
   2C1
  8
0
  6
DASHDOT
 62
     2
 10
55.8732867390939
 20
22.6052370677616
 30
0.0
 11
55.8732867390939
 21
25.6852378157488
 31
0.0
  0
LINE
  5
   2C2
  8
0
  6
DASHDOT
 62
     2
 10
57.4132871130875
 20
24.1452374417552
 30
0.0
 11
54.3332863651003
 21
24.1452374417552
 31
0.0
  0
LINE
  5
   2C3
  8
0
  6
CONTINUOUS
 62
     1
 10
88.2482975721359
 20
91.0827314601773
 30
0.0
 11
78.2733055323805
 21
91.0827314601773
 31
0.0
  0
LINE
  5
   2C4
  8
0
  6
CONTINUOUS
 62
     1
 10
88.2482975721359
 20
46.3702375622027
 30
0.0
 11
78.5358055070485
 21
46.3702375622027
 31
0.0
  0
LINE
  5
   2C5
  8
0
  6
CONTINUOUS
 62
     3
 10
101.810781391341
 20
164.84524105489
 30
0.0
 11
79.3233020898487
 21
164.84524105489
 31
0.0
  0
ARC
  5
   2C6
  8
0
  6
CONTINUOUS
 62
     3
 10
54.8233183756306
 20
164.495233953419
 30
0.0
 40
0.349996002028132
 50
90.0005173512766
 51
180.001122723422
  0
LINE
  5
   2C7
  8
0
  6
CONTINUOUS
 62
     3
 10
54.4733195096251
 20
163.795235732198
 30
0.0
 11
54.4733195096251
 21
164.495235720277
 31
0.0
  0
LINE
  5
   2C8
  8
0
  6
CONTINUOUS
 62
     3
 10
54.4733195096251
 20
163.795235732198
 30
0.0
 11
53.5983059525932
 21
163.795235732198
 31
0.0
  0
LINE
  5
   2C9
  8
0
  6
CONTINUOUS
 62
     7
 10
150.723293837904
 20
156.445244556243
 30
0.0
 11
78.9733190923926
 21
156.445244556243
 31
0.0
  0
LINE
  5
   2CA
  8
0
  6
CONTINUOUS
 62
     7
 10
150.723293837904
 20
156.445244556243
 30
0.0
 11
54.4733195096251
 21
156.445244556243
 31
0.0
  0
LINE
  5
   2CB
  8
0
  6
CONTINUOUS
 62
     1
 10
151.598304283663
 20
156.270235690617
 30
0.0
 11
53.5983059525932
 21
156.270235690617
 31
0.0
  0
LINE
  5
   2CC
  8
0
  6
CONTINUOUS
 62
     3
 10
54.0358059451426
 20
108.075242021678
 30
0.0
 11
54.0358059451426
 21
108.425242015717
 31
0.0
  0
LINE
  5
   2CD
  8
0
  6
CONTINUOUS
 62
     1
 10
151.598288702921
 20
31.2152324797171
 30
0.0
 11
78.0983055353607
 21
31.2152324797171
 31
0.0
  0
LINE
  5
   2CE
  8
0
  6
CONTINUOUS
 62
     1
 10
79.6558054420794
 20
108.425242015717
 30
0.0
 11
79.6558054420794
 21
156.270235690617
 31
0.0
  0
CIRCLE
  5
   2CF
  8
0
  6
CONTINUOUS
 62
     1
 10
55.8732981234789
 20
163.445241078732
 30
0.0
 40
0.769999986886978
  0
CIRCLE
  5
   2D0
  8
0
  6
CONTINUOUS
 62
     1
 10
75.6482977867127
 20
163.445241078732
 30
0.0
 40
0.769999986886978
  0
LINE
  5
   2D1
  8
0
  6
CONTINUOUS
 62
     3
 10
53.5983059525932
 20
23.7252376808183
 30
0.0
 11
53.5983059525932
 21
46.3702375622027
 31
0.0
  0
LINE
  5
   2D2
  8
0
  6
CONTINUOUS
 62
     3
 10
53.5983059525932
 20
108.425242015717
 30
0.0
 11
53.5983059525932
 21
163.795235732198
 31
0.0
  0
LINE
  5
   2D3
  8
0
  6
CONTINUOUS
 62
     3
 10
53.5983059525932
 20
46.7202375353806
 30
0.0
 11
53.5983059525932
 21
108.075242021678
 31
0.0
  0
LINE
  5
   2D4
  8
0
  6
CONTINUOUS
 62
     3
 10
54.0358059451426
 20
108.425242015717
 30
0.0
 11
53.5983059525932
 21
108.425242015717
 31
0.0
  0
LINE
  5
   2D5
  8
0
  6
CONTINUOUS
 62
     3
 10
54.0358059451426
 20
108.075242021678
 30
0.0
 11
53.5983059525932
 21
108.075242021678
 31
0.0
  0
LINE
  5
   2D6
  8
0
  6
CONTINUOUS
 62
     3
 10
54.035805924281
 20
46.7202375353806
 30
0.0
 11
53.5983059525932
 21
46.7202375353806
 31
0.0
  0
LINE
  5
   2D7
  8
0
  6
CONTINUOUS
 62
     1
 10
54.035805924281
 20
46.3002375633948
 30
0.0
 11
53.5983059525932
 21
46.3002375633948
 31
0.0
  0
LINE
  5
   2D8
  8
0
  6
CONTINUOUS
 62
     3
 10
151.598304283663
 20
108.425242015717
 30
0.0
 11
151.598304283663
 21
163.795235732198
 31
0.0
  0
LINE
  5
   2D9
  8
0
  6
CONTINUOUS
 62
     3
 10
78.8857817817511
 20
163.970246580094
 30
0.0
 11
78.8857817817511
 21
164.845246565193
 31
0.0
  0
LINE
  5
   2DA
  8
0
  6
CONTINUOUS
 62
     3
 10
77.3107818085732
 20
163.9702465801
 30
0.0
 11
77.3107818085732
 21
164.845246565199
 31
0.0
  0
LINE
  5
   2DB
  8
0
  6
CONTINUOUS
 62
     3
 10
77.3107818085732
 20
163.970246580094
 30
0.0
 11
76.8732818160238
 21
163.970246580094
 31
0.0
  0
LINE
  5
   2DC
  8
0
  6
CONTINUOUS
 62
     3
 10
76.8732818160238
 20
162.395246606916
 30
0.0
 11
76.8732818160238
 21
163.970246580094
 31
0.0
  0
LINE
  5
   2DD
  8
0
  6
CONTINUOUS
 62
     3
 10
79.3232817743005
 20
162.395246606916
 30
0.0
 11
76.8732818160238
 21
162.395246606916
 31
0.0
  0
LINE
  5
   2DE
  8
0
  6
CONTINUOUS
 62
     3
 10
79.3232817743005
 20
162.395246606916
 30
0.0
 11
79.3232817743005
 21
163.970246580094
 31
0.0
  0
LINE
  5
   2DF
  8
0
  6
CONTINUOUS
 62
     3
 10
79.3232817743005
 20
163.970246580094
 30
0.0
 11
78.8857817817511
 21
163.970246580094
 31
0.0
  0
ARC
  5
   2E0
  8
0
  6
CONTINUOUS
 62
     1
 10
78.4483806381153
 20
159.420270410306
 30
0.0
 40
1.04999998211861
 50
269.999999948034
 51
449.999999948034
  0
LINE
  5
   2E1
  8
0
  6
DASHDOT
 62
     7
 10
81.685880582981
 20
159.420270410306
 30
0.0
 11
74.5108807051705
 21
159.420270410306
 31
0.0
  0
ARC
  5
   2E2
  8
0
  6
CONTINUOUS
 62
     1
 10
77.7483806500362
 20
159.420270410306
 30
0.0
 40
1.04999998211861
 50
89.9999999480344
 51
269.999999948034
  0
LINE
  5
   2E3
  8
0
  6
CONTINUOUS
 62
     1
 10
78.4483806381153
 20
160.470270392425
 30
0.0
 11
77.7483806500362
 21
160.470270392425
 31
0.0
  0
LINE
  5
   2E4
  8
0
  6
CONTINUOUS
 62
     1
 10
78.4483806381153
 20
158.370270428188
 30
0.0
 11
77.7483806500362
 21
158.370270428188
 31
0.0
  0
LINE
  5
   2E5
  8
0
  6
CONTINUOUS
 62
     3
 10
77.3107818085732
 20
164.84524105489
 30
0.0
 11
54.8233025070813
 21
164.84524105489
 31
0.0
  0
ARC
  5
   2E6
  8
0
  6
CONTINUOUS
 62
     1
 10
69.8735212208262
 20
160.120251699926
 30
0.0
 40
2.86999995112419
 50
269.679654033286
 51
449.999999948034
  0
ARC
  5
   2E7
  8
0
  6
CONTINUOUS
 62
     1
 10
69.8735212208262
 20
160.120251699926
 30
0.0
 40
2.09985599432712
 50
269.999999948034
 51
449.999945306521
  0
LINE
  5
   2E8
  8
0
  6
CONTINUOUS
 62
     1
 10
69.8735212208262
 20
162.990251651051
 30
0.0
 11
67.971569017476
 21
162.990251651051
 31
0.0
  0
LINE
  5
   2E9
  8
0
  6
CONTINUOUS
 62
     1
 10
69.8735212208262
 20
162.22023575902
 30
0.0
 11
67.9555774568272
 21
162.22023575902
 31
0.0
  0
LINE
  5
   2EA
  8
0
  6
CONTINUOUS
 62
     1
 10
69.8735212208262
 20
158.020235830546
 30
0.0
 11
67.9555774568272
 21
158.020235830546
 31
0.0
  0
LINE
  5
   2EB
  8
0
  6
CONTINUOUS
 62
     1
 10
69.8574748736535
 20
157.250296607212
 30
0.0
 11
67.9715083823582
 21
157.250296607212
 31
0.0
  0
ARC
  5
   2EC
  8
0
  6
CONTINUOUS
 62
     1
 10
65.8483140314805
 20
160.120296558337
 30
0.0
 40
2.97505973521659
 50
224.901380849089
 51
315.098568474349
  0
ARC
  5
   2ED
  8
0
  6
CONTINUOUS
 62
     1
 10
65.8483032941818
 20
160.120296558337
 30
0.0
 40
3.56999993920326
 50
233.507448791235
 51
306.493766547859
  0
ARC
  5
   2EE
  8
0
  6
CONTINUOUS
 62
     1
 10
65.8483140314805
 20
160.120296558337
 30
0.0
 40
2.97505973521659
 50
404.897963373026
 51
495.101923170488
  0
ARC
  5
   2EF
  8
0
  6
CONTINUOUS
 62
     1
 10
65.8483032941818
 20
160.120296558337
 30
0.0
 40
3.56999993920326
 50
413.505022838263
 51
486.494981956033
  0
LINE
  5
   2F0
  8
0
  6
CONTINUOUS
 62
     1
 10
63.7250373255346
 20
162.990251469532
 30
0.0
 11
61.8395675881039
 21
162.990251469532
 31
0.0
  0
LINE
  5
   2F1
  8
0
  6
CONTINUOUS
 62
     1
 10
61.8234709631252
 20
162.220229376928
 30
0.0
 11
63.7410396651328
 21
162.220235909291
 31
0.0
  0
LINE
  5
   2F2
  8
0
  6
CONTINUOUS
 62
     1
 10
63.7410369867112
 20
158.020235680753
 30
0.0
 11
61.8234709716586
 21
158.020242213085
 31
0.0
  0
LINE
  5
   2F3
  8
0
  6
CONTINUOUS
 62
     1
 10
63.7251590891772
 20
157.250251567284
 30
0.0
 11
61.8234888083973
 21
157.250251567284
 31
0.0
  0
ARC
  5
   2F4
  8
0
  6
CONTINUOUS
 62
     1
 10
61.8234888083973
 20
160.120296558337
 30
0.0
 40
2.86999995112419
 50
449.679006550204
 51
629.999999948034
  0
ARC
  5
   2F5
  8
0
  6
CONTINUOUS
 62
     1
 10
61.8234888083973
 20
160.120251518408
 30
0.0
 40
2.1001148727515
 50
90.0052836333811
 51
269.995265213079
  0
LINE
  5
   2F6
  8
0
  6
DASHDOT
 62
     7
 10
61.8234888083973
 20
157.600113671106
 30
0.0
 11
61.8234888083973
 21
162.64038936571
 31
0.0
  0
LINE
  5
   2F7
  8
0
  6
DASHDOT
 62
     7
 10
64.3436213151231
 20
160.120251518408
 30
0.0
 11
59.3033563016716
 21
160.120251518408
 31
0.0
  0
LINE
  5
   2F8
  8
0
  6
DASHDOT
 62
     7
 10
72.3933430734426
 20
160.120251699926
 30
0.0
 11
67.3536993682097
 21
160.120251699926
 31
0.0
  0
LINE
  5
   2F9
  8
0
  6
DASHDOT
 62
     7
 10
69.8735212208262
 20
157.600424506734
 30
0.0
 11
69.8735212208262
 21
162.640078893119
 31
0.0
  0
LINE
  5
   2FA
  8
0
  6
DASHDOT
 62
     7
 10
65.8482979536057
 20
22.0851296935325
 30
0.0
 11
65.8482979536057
 21
167.314471513044
 31
0.0
  0
LINE
  5
   2FB
  8
0
  6
DASHDOT
 62
     7
 10
69.4183750325882
 20
160.120296558337
 30
0.0
 11
62.2782263274924
 21
160.120296558337
 31
0.0
  0
ARC
  5
   2FC
  8
0
  6
CONTINUOUS
 62
     1
 10
61.8232758877416
 20
27.4702332311523
 30
0.0
 40
2.09999798521424
 50
90.0001399327154
 51
270.000100332566
  0
LINE
  5
   2FD
  8
0
  6
DASHDOT
 62
     2
 10
61.8232758877416
 20
24.3202352638195
 30
0.0
 11
61.8232758877416
 21
30.6202311984851
 31
0.0
  0
LINE
  5
   2FE
  8
0
  6
CONTINUOUS
 62
     1
 10
63.741008174919
 20
25.3702379198329
 30
0.0
 11
61.8232820723238
 21
25.3702379198329
 31
0.0
  0
LINE
  5
   2FF
  8
0
  6
CONTINUOUS
 62
     1
 10
63.7410058195594
 20
29.5702309647164
 30
0.0
 11
61.823279716886
 21
29.5702363052908
 31
0.0
  0
ARC
  5
   300
  8
0
  6
CONTINUOUS
 62
     1
 10
65.8482784896822
 20
27.4702699945967
 30
0.0
 40
2.97503256700413
 50
404.899302393594
 51
495.100813987516
  0
ARC
  5
   301
  8
0
  6
CONTINUOUS
 62
     1
 10
65.8482784896822
 20
27.4702699945967
 30
0.0
 40
2.97503256700413
 50
224.901119153159
 51
315.09888074291
  0
LINE
  5
   302
  8
0
  6
CONTINUOUS
 62
     1
 10
69.8732819352331
 20
25.3702379198329
 30
0.0
 11
67.9555611732139
 21
25.3702379198329
 31
0.0
  0
LINE
  5
   303
  8
0
  6
CONTINUOUS
 62
     1
 10
69.873284920528
 20
29.5702299089837
 30
0.0
 11
67.9555588187476
 21
29.5702352495581
 31
0.0
  0
ARC
  5
   304
  8
0
  6
CONTINUOUS
 62
     1
 10
69.8732833927536
 20
27.4702353640483
 30
0.0
 40
2.09999509708851
 50
269.999747131106
 51
450.000048027357
  0
LINE
  5
   305
  8
0
  6
DASHDOT
 62
     2
 10
69.8732833927536
 20
24.3202402848412
 30
0.0
 11
69.8732833927536
 21
30.6202304432554
 31
0.0
  0
LINE
  5
   306
  8
0
  6
DASHDOT
 62
     2
 10
73.0232784719608
 20
27.4702353640483
 30
0.0
 11
66.7232883135465
 21
27.4702353640483
 31
0.0
  0
LINE
  5
   307
  8
0
  6
DASHDOT
 62
     2
 10
64.9732738550744
 20
27.4702332311523
 30
0.0
 11
58.6732779204087
 21
27.4702332311523
 31
0.0
  0
LINE
  5
   308
  8
0
  6
DASHDOT
 62
     2
 10
69.873311038805
 20
27.4702699945967
 30
0.0
 11
61.8232459405595
 21
27.4702699945967
 31
0.0
  0
CIRCLE
  5
   309
  8
0
  6
CONTINUOUS
 62
     1
 10
55.8732867390939
 20
24.1452374417552
 30
0.0
 40
0.49000039187499
  0
LINE
  5
   30A
  8
0
  6
CONTINUOUS
 62
     3
 10
77.3107818085732
 20
22.7452379645379
 30
0.0
 11
54.9982875291289
 21
22.7452379645379
 31
0.0
  0
LINE
  5
   30B
  8
0
  6
CONTINUOUS
 62
     3
 10
77.3107818085732
 20
22.7452272833784
 30
0.0
 11
77.3107818085732
 21
23.6202272684772
 31
0.0
  0
LINE
  5
   30C
  8
0
  6
CONTINUOUS
 62
     3
 10
77.3107818085732
 20
23.6202272684831
 30
0.0
 11
76.8732818160238
 21
23.6202272684831
 31
0.0
  0
LINE
  5
   30D
  8
0
  6
CONTINUOUS
 62
     3
 10
76.8732818160238
 20
23.6202272684831
 30
0.0
 11
76.8732818160238
 21
25.195227241661
 31
0.0
  0
LINE
  5
   30E
  8
0
  6
CONTINUOUS
 62
     3
 10
79.3232817743005
 20
25.195227241661
 30
0.0
 11
76.8732818160238
 21
25.195227241661
 31
0.0
  0
LINE
  5
   30F
  8
0
  6
CONTINUOUS
 62
     3
 10
79.3232817743005
 20
23.6202272684831
 30
0.0
 11
79.3232817743005
 21
25.195227241661
 31
0.0
  0
LINE
  5
   310
  8
0
  6
CONTINUOUS
 62
     3
 10
79.3232817743005
 20
23.6202272684831
 30
0.0
 11
78.8857817817511
 21
23.6202272684831
 31
0.0
  0
LINE
  5
   311
  8
0
  6
CONTINUOUS
 62
     3
 10
78.8857817817511
 20
22.7452272833848
 30
0.0
 11
78.8857817817511
 21
23.6202272684837
 31
0.0
  0
CIRCLE
  5
   312
  8
0
  6
CONTINUOUS
 62
     1
 10
78.0982863649867
 20
28.1702504203284
 30
0.0
 40
1.83749026298616
  0
CIRCLE
  5
   313
  8
0
  6
CONTINUOUS
 62
     1
 10
78.098276709481
 20
28.1702270508738
 30
0.0
 40
0.962507390421093
  0
LINE
  5
   314
  8
0
  6
DASHDOT
 62
     2
 10
81.3265574549512
 20
28.1702504203284
 30
0.0
 11
75.210796119882
 21
28.1702504203284
 31
0.0
  0
LINE
  5
   315
  8
0
  6
CONTINUOUS
 62
     3
 10
54.035805924281
 20
46.3702375622027
 30
0.0
 11
53.5983059525932
 21
46.3702375622027
 31
0.0
  0
LINE
  5
   316
  8
0
  6
CONTINUOUS
 62
     1
 10
54.4558096763933
 20
108.425242015717
 30
0.0
 11
54.4558096763933
 21
156.270235690617
 31
0.0
  0
LINE
  5
   317
  8
0
  6
CONTINUOUS
 62
     1
 10
54.4558096763933
 20
91.0827314601773
 30
0.0
 11
54.4558096763933
 21
107.970236513161
 31
0.0
  0
LINE
  5
   318
  8
0
  6
CONTINUOUS
 62
     1
 10
54.4558096763933
 20
54.3327320860261
 30
0.0
 11
54.4558096763933
 21
91.0827314601773
 31
0.0
  0
LINE
  5
   319
  8
0
  6
CONTINUOUS
 62
     1
 10
54.4558096763933
 20
46.7202375353806
 30
0.0
 11
54.4558096763933
 21
54.3327320651645
 31
0.0
  0
LINE
  5
   31A
  8
0
  6
CONTINUOUS
 62
     1
 10
54.4558096763933
 20
31.3202273070849
 30
0.0
 11
54.4558096763933
 21
46.3002375633948
 31
0.0
  0
LINE
  5
   31B
  8
0
  6
CONTINUOUS
 62
     2
 10
101.810781391341
 20
22.7452379645379
 30
0.0
 11
79.4982871118964
 21
22.7452379645379
 31
0.0
  0
LINE
  5
   31C
  8
0
  6
CONTINUOUS
 62
     1
 10
88.2482975721359
 20
54.3327320860261
 30
0.0
 11
78.2733055323805
 21
54.3327320860261
 31
0.0
  0
LINE
  5
   31D
  8
0
  6
CONTINUOUS
 62
     1
 10
79.6558054420794
 20
91.0827314601773
 30
0.0
 11
79.6558054420794
 21
107.970236513161
 31
0.0
  0
LINE
  5
   31E
  8
0
  6
CONTINUOUS
 62
     1
 10
79.6558054420794
 20
54.3327320860261
 30
0.0
 11
79.6558054420794
 21
91.0827314601773
 31
0.0
  0
LINE
  5
   31F
  8
0
  6
CONTINUOUS
 62
     1
 10
79.6558054420794
 20
46.7202375353806
 30
0.0
 11
79.6558054420794
 21
54.3327320651645
 31
0.0
  0
LINE
  5
   320
  8
0
  6
CONTINUOUS
 62
     3
 10
101.542546718446
 20
22.7452379645379
 30
0.0
 11
78.8857817817511
 21
22.7452379645379
 31
0.0
  0
LINE
  5
   321
  8
0
  6
DASHDOT
 62
     2
 10
81.913286695855
 20
24.1452374417552
 30
0.0
 11
78.8332859478678
 21
24.1452374417552
 31
0.0
  0
LINE
  5
   322
  8
0
  6
CONTINUOUS
 62
     1
 10
88.2482975721359
 20
91.0827314601773
 30
0.0
 11
78.2733055323805
 21
91.0827314601773
 31
0.0
  0
LINE
  5
   323
  8
0
  6
CONTINUOUS
 62
     1
 10
88.2482975721359
 20
46.3702375622027
 30
0.0
 11
78.5358055070485
 21
46.3702375622027
 31
0.0
  0
LINE
  5
   324
  8
0
  6
CONTINUOUS
 62
     3
 10
101.810781391341
 20
164.84524105489
 30
0.0
 11
79.3233020898487
 21
164.84524105489
 31
0.0
  0
LINE
  5
   325
  8
0
  6
CONTINUOUS
 62
     7
 10
150.723293837904
 20
156.445244556243
 30
0.0
 11
78.9733190923926
 21
156.445244556243
 31
0.0
  0
LINE
  5
   326
  8
0
  6
CONTINUOUS
 62
     1
 10
151.598304283663
 20
156.270235690617
 30
0.0
 11
78.1858055338706
 21
156.270235690617
 31
0.0
  0
LINE
  5
   327
  8
0
  6
CONTINUOUS
 62
     1
 10
151.598288702921
 20
31.2152324797171
 30
0.0
 11
78.0983055353607
 21
31.2152324797171
 31
0.0
  0
LINE
  5
   328
  8
0
  6
CONTINUOUS
 62
     1
 10
88.2482975721359
 20
46.3002375633948
 30
0.0
 11
54.035805924281
 21
46.3002375633948
 31
0.0
  0
LINE
  5
   329
  8
0
  6
CONTINUOUS
 62
     1
 10
79.6558054420794
 20
108.425242015717
 30
0.0
 11
79.6558054420794
 21
156.270235690617
 31
0.0
  0
LINE
  5
   32A
  8
0
  6
DASHDOT
 62
     7
 10
90.3482975363732
 20
12.4130826839882
 30
0.0
 11
90.3482975363732
 21
168.826953880002
 31
0.0
  0
CIRCLE
  5
   32B
  8
0
  6
CONTINUOUS
 62
     1
 10
78.0983806440758
 20
111.120241969822
 30
0.0
 40
1.39999997615814
  0
LINE
  5
   32C
  8
0
  6
CONTINUOUS
 62
     1
 10
77.135805885538
 20
112.136829284059
 30
0.0
 11
77.135805885538
 21
156.270235690617
 31
0.0
  0
LINE
  5
   32D
  8
0
  6
CONTINUOUS
 62
     1
 10
78.3958056638087
 20
112.488283742166
 30
0.0
 11
78.3958056638087
 21
156.270235690617
 31
0.0
  0
LINE
  5
   32E
  8
0
  6
DASHDOT
 62
     7
 10
170.571057459091
 20
74.7202212274078
 30
0.0
 11
58.7736220993423
 21
74.7202212274078
 31
0.0
  0
LINE
  5
   32F
  8
0
  6
CONTINUOUS
 62
     1
 10
78.1858055338706
 20
54.5077215716243
 30
0.0
 11
78.1858055338706
 21
90.907720951736
 31
0.0
  0
LINE
  5
   330
  8
0
  6
CONTINUOUS
 62
     1
 10
79.6558054420794
 20
91.0827209487558
 30
0.0
 11
79.6558054420794
 21
107.970226001739
 31
0.0
  0
LINE
  5
   331
  8
0
  6
CONTINUOUS
 62
     1
 10
79.6558054420794
 20
54.3327215746045
 30
0.0
 11
79.6558054420794
 21
91.0827209487558
 31
0.0
  0
LINE
  5
   332
  8
0
  6
CONTINUOUS
 62
     1
 10
79.6558054420794
 20
46.7202270239591
 30
0.0
 11
79.6558054420794
 21
54.3327215537429
 31
0.0
  0
ARC
  5
   333
  8
0
  6
CONTINUOUS
 62
     1
 10
78.3608055308903
 20
90.907720951736
 30
0.0
 40
0.174999997019768
 50
89.9999999480344
 51
179.999999948034
  0
ARC
  5
   334
  8
0
  6
CONTINUOUS
 62
     1
 10
78.3608055308903
 20
54.5077215716243
 30
0.0
 40
0.174999997019768
 50
179.999999948034
 51
269.999999948034
  0
LINE
  5
   335
  8
0
  6
CONTINUOUS
 62
     3
 10
101.810781391341
 20
22.7452274531163
 30
0.0
 11
79.4982871118964
 21
22.7452274531163
 31
0.0
  0
CIRCLE
  5
   336
  8
0
  6
CONTINUOUS
 62
     1
 10
80.3732863218614
 20
24.1452269303336
 30
0.0
 40
0.49000039187499
  0
LINE
  5
   337
  8
0
  6
DASHDOT
 62
     2
 10
81.913286695855
 20
24.1452269303336
 30
0.0
 11
78.8332859478678
 21
24.1452269303336
 31
0.0
  0
LINE
  5
   338
  8
0
  6
CONTINUOUS
 62
     1
 10
88.248300242424
 20
91.0827209487558
 30
0.0
 11
78.3608055308903
 21
91.0827209487558
 31
0.0
  0
LINE
  5
   339
  8
0
  6
CONTINUOUS
 62
     1
 10
88.248300242424
 20
54.3327215746045
 30
0.0
 11
78.3608055308903
 21
54.3327215746045
 31
0.0
  0
LINE
  5
   33A
  8
0
  6
CONTINUOUS
 62
     1
 10
88.248300242424
 20
46.7202270239591
 30
0.0
 11
78.0983055353607
 21
46.7202270239591
 31
0.0
  0
LINE
  5
   33B
  8
0
  6
CONTINUOUS
 62
     1
 10
88.248300242424
 20
107.970226001739
 30
0.0
 11
78.1858055338706
 21
107.970226001739
 31
0.0
  0
LINE
  5
   33C
  8
0
  6
CONTINUOUS
 62
     3
 10
101.810781391341
 20
164.84524105489
 30
0.0
 11
79.3233020898487
 21
164.84524105489
 31
0.0
  0
LINE
  5
   33D
  8
0
  6
CONTINUOUS
 62
     7
 10
150.723293837904
 20
156.445244556243
 30
0.0
 11
78.9733190923926
 21
156.445244556243
 31
0.0
  0
LINE
  5
   33E
  8
0
  6
CONTINUOUS
 62
     7
 10
150.723293837904
 20
156.445244556243
 30
0.0
 11
78.9733190923926
 21
156.445244556243
 31
0.0
  0
LINE
  5
   33F
  8
0
  6
CONTINUOUS
 62
     1
 10
151.598304283663
 20
156.270235690617
 30
0.0
 11
78.1858055338706
 21
156.270235690617
 31
0.0
  0
LINE
  5
   340
  8
0
  6
CONTINUOUS
 62
     1
 10
79.6558054420794
 20
108.425242015717
 30
0.0
 11
79.6558054420794
 21
156.270235690617
 31
0.0
  0
LINE
  5
   341
  8
0
  6
DASHDOT
 62
     7
 10
114.848297119141
 20
121.293629964827
 30
0.0
 11
114.848297119141
 21
182.341027293032
 31
0.0
  0
LINE
  5
   342
  8
0
  6
CONTINUOUS
 62
     1
 10
79.6558054420794
 20
31.3202273070849
 30
0.0
 11
79.6558054420794
 21
46.3702270507812
 31
0.0
  0
LINE
  5
   343
  8
0
  6
DASHDOT
 62
     7
 10
139.348296701908
 20
154.036662434991
 30
0.0
 11
139.348296701908
 21
165.617435439991
 31
0.0
  0
LINE
  5
   344
  8
0
  6
CONTINUOUS
 62
     1
 10
139.505779609382
 20
51.445239982009
 30
0.0
 11
139.505779609382
 21
88.1952126532798
 31
0.0
  0
LINE
  5
   345
  8
0
  6
DASHDOT
 62
     7
 10
114.848297119141
 20
21.4355430026258
 30
0.0
 11
114.848297119141
 21
167.48753958703
 31
0.0
  0
LINE
  5
   346
  8
0
  6
DASHDOT
 62
     7
 10
170.571057459091
 20
74.7202212274078
 30
0.0
 11
58.7736220993423
 21
74.7202212274078
 31
0.0
  0
LINE
  5
   347
  8
0
  6
CONTINUOUS
 62
     1
 10
139.330803424462
 20
43.8327270731329
 30
0.0
 11
139.330803424462
 21
51.4452216029167
 31
0.0
  0
LINE
  5
   348
  8
0
  6
CONTINUOUS
 62
     1
 10
90.3658010539855
 20
43.8327270731329
 30
0.0
 11
90.3658010539855
 21
51.4452216029167
 31
0.0
  0
LINE
  5
   349
  8
0
  6
DASHDOT
 62
     2
 10
90.3482780724497
 20
18.5836416585883
 30
0.0
 11
90.3482780724497
 21
45.0779073698754
 31
0.0
  0
LINE
  5
   34A
  8
0
  6
DASHDOT
 62
     2
 10
114.848297119141
 20
18.2084505319579
 30
0.0
 11
114.848297119141
 21
45.1644899375594
 31
0.0
  0
LINE
  5
   34B
  8
0
  6
DASHDOT
 62
     2
 10
139.348253779625
 20
18.2950330996419
 30
0.0
 11
139.348253779625
 21
44.5872728196664
 31
0.0
  0
LINE
  5
   34C
  8
0
  6
CONTINUOUS
 62
     1
 10
139.505779609382
 20
51.445239982009
 30
0.0
 11
139.505779609382
 21
88.1952126532798
 31
0.0
  0
LINE
  5
   34D
  8
0
  6
CONTINUOUS
 62
     7
 10
139.173295201564
 20
99.2201905346018
 30
0.0
 11
90.5232960300687
 21
99.2201905346018
 31
0.0
  0
LINE
  5
   34E
  8
0
  6
CONTINUOUS
 62
     7
 10
139.173295201564
 20
50.2201891160113
 30
0.0
 11
90.5232960300687
 21
50.2201891160113
 31
0.0
  0
LINE
  5
   34F
  8
0
  6
CONTINUOUS
 62
     7
 10
139.085795203054
 20
95.0201906061273
 30
0.0
 11
90.6107960285786
 21
95.0201906061273
 31
0.0
  0
LINE
  5
   350
  8
0
  6
CONTINUOUS
 62
     7
 10
139.085795203054
 20
98.5201905465227
 30
0.0
 11
90.6107960285786
 21
98.5201905465227
 31
0.0
  0
LINE
  5
   351
  8
0
  6
CONTINUOUS
 62
     7
 10
90.348296033049
 20
50.395189113031
 30
0.0
 11
90.348296033049
 21
99.045190537582
 31
0.0
  0
LINE
  5
   352
  8
0
  6
CONTINUOUS
 62
     7
 10
139.348295198584
 20
50.395189113031
 30
0.0
 11
139.348295198584
 21
99.045190537582
 31
0.0
  0
LINE
  5
   353
  8
0
  6
CONTINUOUS
 62
     7
 10
136.198295252228
 20
91.6076879939538
 30
0.0
 11
136.198295252228
 21
92.6576879760724
 31
0.0
  0
LINE
  5
   354
  8
0
  6
CONTINUOUS
 62
     7
 10
137.248295234347
 20
91.6076879939538
 30
0.0
 11
137.248295234347
 21
92.6576879760724
 31
0.0
  0
LINE
  5
   355
  8
0
  6
DOT
 62
     7
 10
130.49328493526
 20
53.8708996961778
 30
0.0
 11
130.49328493526
 21
56.7194781960982
 31
0.0
  0
LINE
  5
   356
  8
0
  6
DOT
 62
     7
 10
134.903284326101
 20
53.8708996961778
 30
0.0
 11
134.903284326101
 21
56.7194781960982
 31
0.0
  0
LINE
  5
   357
  8
0
  6
CONTINUOUS
 62
     7
 10
137.42328478837
 20
61.682736731145
 30
0.0
 11
137.372028609343
 21
61.8064805492498
 31
0.0
  0
LINE
  5
   358
  8
0
  6
CONTINUOUS
 62
     7
 10
137.372028784293
 20
61.806480455379
 30
0.0
 11
137.248284966188
 21
61.8577366344052
 31
0.0
  0
LINE
  5
   359
  8
0
  6
CONTINUOUS
 62
     7
 10
137.248284553195
 20
61.857736565778
 30
0.0
 11
136.198284571076
 21
61.857736565778
 31
0.0
  0
LINE
  5
   35A
  8
0
  6
CONTINUOUS
 62
     7
 10
136.074541239054
 20
61.8064806273878
 30
0.0
 11
136.198285057159
 21
61.857736806414
 31
0.0
  0
LINE
  5
   35B
  8
0
  6
CONTINUOUS
 62
     7
 10
136.023284890338
 20
61.682736902128
 30
0.0
 11
136.074541069364
 21
61.8064807202327
 31
0.0
  0
LINE
  5
   35C
  8
0
  6
CONTINUOUS
 62
     7
 10
136.023284574056
 20
60.8077365836594
 30
0.0
 11
136.023284574056
 21
61.6827365687583
 31
0.0
  0
LINE
  5
   35D
  8
0
  6
CONTINUOUS
 62
     7
 10
136.023284574056
 20
60.1077359280083
 30
0.0
 11
136.023284574056
 21
60.8077365836594
 31
0.0
  0
LINE
  5
   35E
  8
0
  6
CONTINUOUS
 62
     7
 10
136.023284574056
 20
59.4077359399293
 30
0.0
 11
136.023284574056
 21
60.1077359280083
 31
0.0
  0
LINE
  5
   35F
  8
0
  6
CONTINUOUS
 62
     7
 10
136.023284574056
 20
58.7077359518502
 30
0.0
 11
136.023284574056
 21
59.4077359399293
 31
0.0
  0
LINE
  5
   360
  8
0
  6
CONTINUOUS
 62
     7
 10
136.023284574056
 20
57.8327359667514
 30
0.0
 11
136.023284574056
 21
58.7077359518502
 31
0.0
  0
LINE
  5
   361
  8
0
  6
CONTINUOUS
 62
     7
 10
136.074540989611
 20
57.7089922361062
 30
0.0
 11
136.023284810584
 21
57.832736054211
 31
0.0
  0
LINE
  5
   362
  8
0
  6
CONTINUOUS
 62
     7
 10
136.198284976379
 20
57.6577359910357
 30
0.0
 11
136.074541158274
 21
57.7089921700619
 31
0.0
  0
LINE
  5
   363
  8
0
  6
CONTINUOUS
 62
     7
 10
137.248284553195
 20
57.6577359697316
 30
0.0
 11
136.198284571076
 21
57.6577359697316
 31
0.0
  0
LINE
  5
   364
  8
0
  6
CONTINUOUS
 62
     7
 10
137.248285046967
 20
57.6577361630445
 30
0.0
 11
137.372028865072
 21
57.7089923420707
 31
0.0
  0
LINE
  5
   365
  8
0
  6
CONTINUOUS
 62
     7
 10
137.372028689097
 20
57.7089924070892
 30
0.0
 11
137.423284868124
 21
57.8327362251939
 31
0.0
  0
LINE
  5
   366
  8
0
  6
CONTINUOUS
 62
     7
 10
137.423284550214
 20
57.8327359667514
 30
0.0
 11
137.423284550214
 21
58.7077359518502
 31
0.0
  0
LINE
  5
   367
  8
0
  6
CONTINUOUS
 62
     7
 10
137.423284550214
 20
58.7077359518502
 30
0.0
 11
137.423284550214
 21
59.4077359399293
 31
0.0
  0
LINE
  5
   368
  8
0
  6
CONTINUOUS
 62
     7
 10
137.423284550214
 20
59.4077359399293
 30
0.0
 11
137.423284550214
 21
60.1077359280083
 31
0.0
  0
LINE
  5
   369
  8
0
  6
CONTINUOUS
 62
     7
 10
137.423284550214
 20
60.1077359280083
 30
0.0
 11
137.423284550214
 21
60.8077352485154
 31
0.0
  0
LINE
  5
   36A
  8
0
  6
CONTINUOUS
 62
     7
 10
137.423284550214
 20
60.8077352485154
 30
0.0
 11
137.423284550214
 21
61.6827365687583
 31
0.0
  0
LINE
  5
   36B
  8
0
  6
CONTINUOUS
 62
     7
 10
105.310787099803
 20
50.4826891115409
 30
0.0
 11
105.310787099803
 21
76.7003246900092
 31
0.0
  0
LINE
  5
   36C
  8
0
  6
CONTINUOUS
 62
     7
 10
104.960821019267
 20
76.4878292561132
 30
0.0
 11
105.310786969584
 21
76.7003254312823
 31
0.0
  0
LINE
  5
   36D
  8
0
  6
CONTINUOUS
 62
     7
 10
104.960786958997
 20
50.4826891115409
 30
0.0
 11
104.960786958997
 21
76.487809816309
 31
0.0
  0
LINE
  5
   36E
  8
0
  6
CONTINUOUS
 62
     7
 10
95.6857864004559
 20
50.4826891115409
 30
0.0
 11
95.6857864004559
 21
76.4878098997555
 31
0.0
  0
LINE
  5
   36F
  8
0
  6
CONTINUOUS
 62
     7
 10
95.6857933963254
 20
76.4878080793931
 30
0.0
 11
95.3357880615072
 21
76.7003229436621
 31
0.0
  0
LINE
  5
   370
  8
0
  6
CONTINUOUS
 62
     7
 10
95.3357866021042
 20
50.4826891115409
 30
0.0
 11
95.3357866021042
 21
76.7003247734557
 31
0.0
  0
LINE
  5
   371
  8
0
  6
CONTINUOUS
 62
     7
 10
139.085795203054
 20
89.5076960405807
 30
0.0
 11
131.001175554796
 21
89.5076960405807
 31
0.0
  0
ARC
  5
   372
  8
0
  6
CONTINUOUS
 62
     7
 10
136.723292380606
 20
92.6576846476543
 30
0.0
 40
0.525002708658833
 50
360.000264330205
 51
539.999752563663
  0
ARC
  5
   373
  8
0
  6
CONTINUOUS
 62
     7
 10
136.723274458568
 20
91.6076951138262
 30
0.0
 40
0.525020335878607
 50
180.000872430867
 51
359.99911053366
  0
CIRCLE
  5
   374
  8
0
  6
CONTINUOUS
 62
     7
 10
137.160795331411
 20
52.4076935398102
 30
0.0
 40
0.90999636102439
  0
CIRCLE
  5
   375
  8
0
  6
CONTINUOUS
 62
     7
 10
137.160795383702
 20
52.4076844101863
 30
0.0
 40
1.48750489245877
  0
ARC
  5
   376
  8
0
  6
DOT
 62
     7
 10
132.69828264471
 20
55.2951986430664
 30
0.0
 40
2.62499027843626
 50
392.859484181593
 51
507.140355930743
  0
ARC
  5
   377
  8
0
  6
DOT
 62
     7
 10
132.69828264471
 20
55.2951986430664
 30
0.0
 40
2.62499027843626
 50
212.859643965326
 51
327.140515714475
  0
CIRCLE
  5
   378
  8
0
  6
CONTINUOUS
 62
     7
 10
92.5357971185981
 20
52.4076880026594
 30
0.0
 40
0.910000197304893
  0
CIRCLE
  5
   379
  8
0
  6
CONTINUOUS
 62
     7
 10
92.5357974992793
 20
52.4076895563036
 30
0.0
 40
1.48749890725016
  0
LINE
  5
   37A
  8
0
  6
DASHDOT
 62
     7
 10
136.723292380606
 20
91.782681944956
 30
0.0
 11
136.723292380606
 21
93.5326873503527
 31
0.0
  0
LINE
  5
   37B
  8
0
  6
CONTINUOUS
 62
     7
 10
139.085795203054
 20
50.6576891085607
 30
0.0
 11
139.085795203054
 21
98.7826905420523
 31
0.0
  0
LINE
  5
   37C
  8
0
  6
CONTINUOUS
 62
     7
 10
138.910795206035
 20
50.4826891115409
 30
0.0
 11
90.7857960255984
 21
50.4826891115409
 31
0.0
  0
LINE
  5
   37D
  8
0
  6
CONTINUOUS
 62
     7
 10
90.6107960285786
 20
50.6576891085607
 30
0.0
 11
90.6107960285786
 21
98.7826905420523
 31
0.0
  0
LINE
  5
   37E
  8
0
  6
CONTINUOUS
 62
     7
 10
138.910795206035
 20
98.9576905390721
 30
0.0
 11
90.7857960255984
 21
98.9576905390721
 31
0.0
  0
ARC
  5
   37F
  8
0
  6
CONTINUOUS
 62
     7
 10
90.7857960255984
 20
98.7826905420523
 30
0.0
 40
0.174999997019768
 50
89.9999999480344
 51
179.999999948034
  0
ARC
  5
   380
  8
0
  6
CONTINUOUS
 62
     7
 10
90.5232960300687
 20
99.045190537582
 30
0.0
 40
0.174999997019768
 50
89.9999999480344
 51
179.999999948034
  0
ARC
  5
   381
  8
0
  6
CONTINUOUS
 62
     7
 10
139.173295201564
 20
99.045190537582
 30
0.0
 40
0.174999997019768
 50
359.999999948034
 51
449.999999948034
  0
ARC
  5
   382
  8
0
  6
CONTINUOUS
 62
     7
 10
138.910795206035
 20
98.7826905420523
 30
0.0
 40
0.174999997019768
 50
359.999999948034
 51
449.999999948034
  0
ARC
  5
   383
  8
0
  6
CONTINUOUS
 62
     7
 10
138.910795206035
 20
50.6576891085607
 30
0.0
 40
0.174999997019768
 50
269.999999948034
 51
359.999999948034
  0
ARC
  5
   384
  8
0
  6
CONTINUOUS
 62
     7
 10
139.173295201564
 20
50.395189113031
 30
0.0
 40
0.174999997019768
 50
269.999999948034
 51
359.999999948034
  0
ARC
  5
   385
  8
0
  6
CONTINUOUS
 62
     7
 10
90.7857960255984
 20
50.6576891085607
 30
0.0
 40
0.174999997019768
 50
179.999999948034
 51
269.999999948034
  0
ARC
  5
   386
  8
0
  6
CONTINUOUS
 62
     7
 10
90.5232960300687
 20
50.395189113031
 30
0.0
 40
0.174999997019768
 50
179.999999948034
 51
269.999999948034
  0
LINE
  5
   387
  8
0
  6
CONTINUOUS
 62
     7
 10
139.348298205232
 20
62.2952722895379
 30
0.0
 11
139.348298205232
 21
98.6952075891193
 31
0.0
  0
LINE
  5
   388
  8
0
  6
CONTINUOUS
 62
     7
 10
139.085795203054
 20
89.1577120230379
 30
0.0
 11
131.433837769969
 21
89.1577120230379
 31
0.0
  0
LINE
  5
   389
  8
0
  6
CONTINUOUS
 62
     7
 10
135.323291927379
 20
79.8826961592619
 30
0.0
 11
131.433971918491
 21
79.8826961592619
 31
0.0
  0
LINE
  5
   38A
  8
0
  6
CONTINUOUS
 62
     7
 10
139.085795203054
 20
79.5326961652224
 30
0.0
 11
131.001337636378
 21
79.5326961652224
 31
0.0
  0
LINE
  5
   38B
  8
0
  6
CONTINUOUS
 62
     7
 10
104.970666557311
 20
50.6576798929796
 30
0.0
 11
104.970666557311
 21
54.1576798333749
 31
0.0
  0
LINE
  5
   38C
  8
0
  6
CONTINUOUS
 62
     7
 10
95.6857866495133
 20
50.6576798929796
 30
0.0
 11
95.6857866495133
 21
54.1576798333749
 31
0.0
  0
LINE
  5
   38D
  8
0
  6
CONTINUOUS
 62
     7
 10
138.823291867775
 20
89.1577120230379
 30
0.0
 11
135.323291927379
 21
89.1577120230379
 31
0.0
  0
LINE
  5
   38E
  8
0
  6
CONTINUOUS
 62
     7
 10
139.085795203054
 20
79.8826961592619
 30
0.0
 11
135.323291927379
 21
79.8826961592619
 31
0.0
  0
LINE
  5
   38F
  8
0
  6
CONTINUOUS
 62
   253
 10
132.523295133851
 20
82.4201433663843
 30
0.0
 11
132.523295133851
 21
86.6201432948587
 31
0.0
  0
LINE
  5
   390
  8
0
  6
CONTINUOUS
 62
   253
 10
129.023272704274
 20
90.1201432352541
 30
0.0
 11
99.8663217353429
 21
90.1201432352541
 31
0.0
  0
LINE
  5
   391
  8
0
  6
CONTINUOUS
 62
   253
 10
129.023314259494
 20
78.920143425989
 30
0.0
 11
99.8663217353429
 21
78.920143425989
 31
0.0
  0
LINE
  5
   392
  8
0
  6
CONTINUOUS
 62
   253
 10
97.4184179531779
 20
83.0326433559535
 30
0.0
 11
97.4184179531779
 21
86.0076433052896
 31
0.0
  0
LINE
  5
   393
  8
0
  6
CONTINUOUS
 62
   253
 10
94.5484197862727
 20
84.5201440378147
 30
0.0
 11
97.4184186516536
 21
86.0076439796104
 31
0.0
  0
LINE
  5
   394
  8
0
  6
CONTINUOUS
 62
   253
 10
97.4184182545144
 20
83.0326438595462
 30
0.0
 11
94.5484193891335
 21
84.520143801342
 31
0.0
  0
LINE
  5
   395
  8
0
  6
CONTINUOUS
 62
   253
 10
111.435918782577
 20
87.7576432754872
 30
0.0
 11
95.3359190567579
 21
87.7576432754872
 31
0.0
  0
LINE
  5
   396
  8
0
  6
CONTINUOUS
 62
   253
 10
111.435918782577
 20
81.2826433857558
 30
0.0
 11
95.3359190567579
 21
81.2826433857558
 31
0.0
  0
LINE
  5
   397
  8
0
  6
CONTINUOUS
 62
   253
 10
111.435918782577
 20
87.4076432814477
 30
0.0
 11
95.3359190567579
 21
87.4076432814477
 31
0.0
  0
LINE
  5
   398
  8
0
  6
CONTINUOUS
 62
   253
 10
111.435918782577
 20
81.6326433797954
 30
0.0
 11
95.3359190567579
 21
81.6326433797954
 31
0.0
  0
LINE
  5
   399
  8
0
  6
CONTINUOUS
 62
   212
 10
91.0485024778183
 20
81.6476935224935
 30
0.0
 11
91.0508950558924
 21
81.6626444653442
 31
0.0
  0
LINE
  5
   39A
  8
0
  6
CONTINUOUS
 62
   212
 10
91.0492591169142
 20
81.6428474754788
 30
0.0
 11
91.0485007551128
 21
81.647688707808
 31
0.0
  0
ARC
  5
   39B
  8
0
  6
CONTINUOUS
 62
   253
 10
95.3359280107327
 20
84.5201353506222
 30
0.0
 40
2.88751064947138
 50
90.0002154635732
 51
269.99979239382
  0
ARC
  5
   39C
  8
0
  6
CONTINUOUS
 62
   253
 10
111.43598865602
 20
84.52020232346
 30
0.0
 40
2.88741004600406
 50
269.998670528618
 51
450.001337085033
  0
ARC
  5
   39D
  8
0
  6
CONTINUOUS
 62
   253
 10
111.435911715012
 20
84.5201313299096
 30
0.0
 40
3.2375098915971
 50
270.000071014136
 51
449.999851941332
  0
ARC
  5
   39E
  8
0
  6
CONTINUOUS
 62
   253
 10
129.023272704274
 20
86.6201169497219
 30
0.0
 40
3.50003038444959
 50
360.000408171145
 51
449.999687224272
  0
ARC
  5
   39F
  8
0
  6
CONTINUOUS
 62
   253
 10
129.023314259494
 20
82.4201160218328
 30
0.0
 40
3.49996712953807
 50
269.999625886224
 51
360.000495208613
  0
ARC
  5
   3A0
  8
0
  6
CONTINUOUS
 62
   253
 10
95.3361297654412
 20
84.5201286752688
 30
0.0
 40
3.23766984125148
 50
90.0037124837677
 51
269.996243749254
  0
ARC
  5
   3A1
  8
0
  6
CONTINUOUS
 62
   253
 10
99.8663184753443
 20
97.1201586585181
 30
0.0
 40
7.00001349317962
 50
234.341115437973
 51
269.999999948034
  0
ARC
  5
   3A2
  8
0
  6
CONTINUOUS
 62
   253
 10
99.866283131268
 20
71.9203697185065
 30
0.0
 40
6.99977286552926
 50
89.9999999480344
 51
125.659728516165
  0
ARC
  5
   3A3
  8
0
  6
CONTINUOUS
 62
   253
 10
94.9694464644066
 20
78.7451565138018
 30
0.0
 40
1.40001082514171
 50
227.167359060545
 51
305.659728516165
  0
ARC
  5
   3A4
  8
0
  6
CONTINUOUS
 62
   253
 10
94.9694599894388
 20
90.2951291863115
 30
0.0
 40
1.4000150065032
 50
414.341115437973
 51
492.832984108824
  0
ARC
  5
   3A5
  8
0
  6
CONTINUOUS
 62
   253
 10
100.323295682214
 20
84.5201848431478
 30
0.0
 40
9.27487107576462
 50
400.975915448473
 51
679.023494202201
  0
ARC
  5
   3A6
  8
0
  6
CONTINUOUS
 62
   253
 10
108.382594191826
 20
77.5201434498308
 30
0.0
 40
1.39999997615814
 50
89.9999999480344
 51
139.023494202201
  0
ARC
  5
   3A7
  8
0
  6
CONTINUOUS
 62
   253
 10
108.382666303903
 20
91.5201432114122
 30
0.0
 40
1.39999997615814
 50
220.975915448474
 51
269.999999948034
  0
LINE
  5
   3A8
  8
0
  6
DASHDOT
 62
     7
 10
100.323295682214
 20
74.5453137793042
 30
0.0
 11
100.323295682214
 21
94.4950559069915
 31
0.0
  0
LINE
  5
   3A9
  8
0
  6
DASHDOT
 62
     7
 10
133.277080950364
 20
84.5201848431478
 30
0.0
 11
90.3484246183704
 21
84.5201848431478
 31
0.0
  0
LINE
  5
   3AA
  8
0
  6
DASHDOT
 62
     7
 10
110.823431069918
 20
109.300148909685
 30
0.0
 11
110.823431069918
 21
114.340310249551
 31
0.0
  0
LINE
  5
   3AB
  8
0
  6
CONTINUOUS
 62
     1
 10
151.510804285153
 20
107.970226001739
 30
0.0
 11
141.448299336433
 21
107.970226001739
 31
0.0
  0
LINE
  5
   3AC
  8
0
  6
CONTINUOUS
 62
     1
 10
151.598304283663
 20
46.3702270507812
 30
0.0
 11
141.448299336433
 21
46.3702270507812
 31
0.0
  0
LINE
  5
   3AD
  8
0
  6
CONTINUOUS
 62
     1
 10
151.510804285153
 20
54.5077215716243
 30
0.0
 11
151.510804285153
 21
90.907720951736
 31
0.0
  0
LINE
  5
   3AE
  8
0
  6
CONTINUOUS
 62
     1
 10
151.335804288134
 20
54.3327215746045
 30
0.0
 11
141.448299336433
 21
54.3327215746045
 31
0.0
  0
LINE
  5
   3AF
  8
0
  6
CONTINUOUS
 62
     1
 10
151.335804288134
 20
91.0827209487558
 30
0.0
 11
141.448299336433
 21
91.0827209487558
 31
0.0
  0
LINE
  5
   3B0
  8
0
  6
CONTINUOUS
 62
     1
 10
151.598304283663
 20
46.7202270239591
 30
0.0
 11
141.448299336433
 21
46.7202270239591
 31
0.0
  0
LINE
  5
   3B1
  8
0
  6
CONTINUOUS
 62
     1
 10
150.040800037726
 20
91.0827209487558
 30
0.0
 11
150.040800037726
 21
107.970226001739
 31
0.0
  0
LINE
  5
   3B2
  8
0
  6
CONTINUOUS
 62
     1
 10
150.845801092133
 20
91.0827209487558
 30
0.0
 11
150.845801092133
 21
107.970226001739
 31
0.0
  0
LINE
  5
   3B3
  8
0
  6
CONTINUOUS
 62
     1
 10
145.000802259787
 20
91.0827209487558
 30
0.0
 11
145.000802259787
 21
107.970226001739
 31
0.0
  0
LINE
  5
   3B4
  8
0
  6
CONTINUOUS
 62
     1
 10
146.260799033984
 20
91.0827209487558
 30
0.0
 11
146.260799033984
 21
107.970226001739
 31
0.0
  0
LINE
  5
   3B5
  8
0
  6
CONTINUOUS
 62
     1
 10
147.520801148757
 20
91.0827209487558
 30
0.0
 11
147.520801148757
 21
107.970226001739
 31
0.0
  0
LINE
  5
   3B6
  8
0
  6
CONTINUOUS
 62
     1
 10
148.78080326353
 20
91.0827209487558
 30
0.0
 11
148.78080326353
 21
107.970226001739
 31
0.0
  0
LINE
  5
   3B7
  8
0
  6
CONTINUOUS
 62
     1
 10
142.480803370818
 20
91.0827209487558
 30
0.0
 11
142.480803370818
 21
107.970226001739
 31
0.0
  0
LINE
  5
   3B8
  8
0
  6
CONTINUOUS
 62
     1
 10
143.740800145015
 20
91.0827209487558
 30
0.0
 11
143.740800145015
 21
107.970226001739
 31
0.0
  0
LINE
  5
   3B9
  8
0
  6
CONTINUOUS
 62
     1
 10
146.260799033984
 20
54.3327215746045
 30
0.0
 11
146.260799033984
 21
91.0827209487558
 31
0.0
  0
LINE
  5
   3BA
  8
0
  6
CONTINUOUS
 62
     1
 10
148.78080326353
 20
54.3327215746045
 30
0.0
 11
148.78080326353
 21
91.0827209487558
 31
0.0
  0
LINE
  5
   3BB
  8
0
  6
CONTINUOUS
 62
     1
 10
147.520801148757
 20
54.3327215746045
 30
0.0
 11
147.520801148757
 21
91.0827209487558
 31
0.0
  0
LINE
  5
   3BC
  8
0
  6
CONTINUOUS
 62
     1
 10
143.740800145015
 20
54.3327215746045
 30
0.0
 11
143.740800145015
 21
91.0827209487558
 31
0.0
  0
LINE
  5
   3BD
  8
0
  6
CONTINUOUS
 62
     1
 10
142.480803370818
 20
54.3327215746045
 30
0.0
 11
142.480803370818
 21
91.0827209487558
 31
0.0
  0
LINE
  5
   3BE
  8
0
  6
CONTINUOUS
 62
     1
 10
150.040800037726
 20
54.3327215746045
 30
0.0
 11
150.040800037726
 21
91.0827209487558
 31
0.0
  0
LINE
  5
   3BF
  8
0
  6
CONTINUOUS
 62
     1
 10
150.845801092133
 20
54.3327215746045
 30
0.0
 11
150.845801092133
 21
91.0827209487558
 31
0.0
  0
LINE
  5
   3C0
  8
0
  6
CONTINUOUS
 62
     1
 10
150.040800037726
 20
46.7202270239591
 30
0.0
 11
150.040800037726
 21
54.3327215537429
 31
0.0
  0
LINE
  5
   3C1
  8
0
  6
CONTINUOUS
 62
     1
 10
150.845801092133
 20
46.7202270239591
 30
0.0
 11
150.845801092133
 21
54.3327215537429
 31
0.0
  0
LINE
  5
   3C2
  8
0
  6
CONTINUOUS
 62
     1
 10
145.000802259787
 20
46.7202270239591
 30
0.0
 11
145.000802259787
 21
91.0827209487558
 31
0.0
  0
LINE
  5
   3C3
  8
0
  6
CONTINUOUS
 62
     1
 10
146.260799033984
 20
46.7202270239591
 30
0.0
 11
146.260799033984
 21
54.3327215537429
 31
0.0
  0
LINE
  5
   3C4
  8
0
  6
CONTINUOUS
 62
     1
 10
147.520801148757
 20
46.7202270239591
 30
0.0
 11
147.520801148757
 21
54.3327215537429
 31
0.0
  0
LINE
  5
   3C5
  8
0
  6
CONTINUOUS
 62
     1
 10
148.78080326353
 20
46.7202270239591
 30
0.0
 11
148.78080326353
 21
54.3327215537429
 31
0.0
  0
LINE
  5
   3C6
  8
0
  6
CONTINUOUS
 62
     1
 10
142.480803370818
 20
46.7202270239591
 30
0.0
 11
142.480803370818
 21
54.3327215537429
 31
0.0
  0
LINE
  5
   3C7
  8
0
  6
CONTINUOUS
 62
     1
 10
143.740800145015
 20
46.7202270239591
 30
0.0
 11
143.740800145015
 21
54.3327215537429
 31
0.0
  0
LINE
  5
   3C8
  8
0
  6
CONTINUOUS
 62
     1
 10
79.6558054420794
 20
91.0827209487558
 30
0.0
 11
79.6558054420794
 21
107.970226001739
 31
0.0
  0
LINE
  5
   3C9
  8
0
  6
CONTINUOUS
 62
     1
 10
84.6958022186603
 20
91.0827209487558
 30
0.0
 11
84.6958022186603
 21
107.970226001739
 31
0.0
  0
LINE
  5
   3CA
  8
0
  6
CONTINUOUS
 62
     1
 10
83.4358054444636
 20
91.0827209487558
 30
0.0
 11
83.4358054444636
 21
107.970226001739
 31
0.0
  0
LINE
  5
   3CB
  8
0
  6
CONTINUOUS
 62
     1
 10
82.1758053324069
 20
91.0827209487558
 30
0.0
 11
82.1758053324069
 21
107.970226001739
 31
0.0
  0
LINE
  5
   3CC
  8
0
  6
CONTINUOUS
 62
     1
 10
80.9158052203501
 20
91.0827209487558
 30
0.0
 11
80.9158052203501
 21
107.970226001739
 31
0.0
  0
LINE
  5
   3CD
  8
0
  6
CONTINUOUS
 62
     1
 10
87.2158011076297
 20
91.0827209487558
 30
0.0
 11
87.2158011076297
 21
107.970226001739
 31
0.0
  0
LINE
  5
   3CE
  8
0
  6
CONTINUOUS
 62
     1
 10
85.9558043334331
 20
91.0827209487558
 30
0.0
 11
85.9558043334331
 21
107.970226001739
 31
0.0
  0
LINE
  5
   3CF
  8
0
  6
CONTINUOUS
 62
     1
 10
83.4358051106776
 20
54.3327215746045
 30
0.0
 11
83.4358051106776
 21
91.0827209487558
 31
0.0
  0
LINE
  5
   3D0
  8
0
  6
CONTINUOUS
 62
     1
 10
84.6958022186603
 20
54.3327215746045
 30
0.0
 11
84.6958022186603
 21
91.0827209487558
 31
0.0
  0
LINE
  5
   3D1
  8
0
  6
CONTINUOUS
 62
     1
 10
80.9158052203501
 20
54.3327215746045
 30
0.0
 11
80.9158052203501
 21
91.0827209487558
 31
0.0
  0
LINE
  5
   3D2
  8
0
  6
CONTINUOUS
 62
     1
 10
82.1758053324069
 20
54.3327215746045
 30
0.0
 11
82.1758053324069
 21
91.0827209487558
 31
0.0
  0
LINE
  5
   3D3
  8
0
  6
CONTINUOUS
 62
     1
 10
85.9558043334331
 20
54.3327215746045
 30
0.0
 11
85.9558043334331
 21
91.0827209487558
 31
0.0
  0
LINE
  5
   3D4
  8
0
  6
CONTINUOUS
 62
     1
 10
87.2158011076297
 20
54.3327215746045
 30
0.0
 11
87.2158011076297
 21
91.0827209487558
 31
0.0
  0
LINE
  5
   3D5
  8
0
  6
CONTINUOUS
 62
     1
 10
79.6558054420794
 20
54.3327215746045
 30
0.0
 11
79.6558054420794
 21
91.0827209487558
 31
0.0
  0
LINE
  5
   3D6
  8
0
  6
CONTINUOUS
 62
     1
 10
79.6558054420794
 20
46.7202270239591
 30
0.0
 11
79.6558054420794
 21
54.3327215537429
 31
0.0
  0
LINE
  5
   3D7
  8
0
  6
CONTINUOUS
 62
     1
 10
84.6958022186603
 20
46.7202270239591
 30
0.0
 11
84.6958022186603
 21
54.3327215537429
 31
0.0
  0
LINE
  5
   3D8
  8
0
  6
CONTINUOUS
 62
     1
 10
83.4358054444636
 20
46.7202270239591
 30
0.0
 11
83.4358054444636
 21
54.3327215537429
 31
0.0
  0
LINE
  5
   3D9
  8
0
  6
CONTINUOUS
 62
     1
 10
82.1758053324069
 20
46.7202270239591
 30
0.0
 11
82.1758053324069
 21
54.3327215537429
 31
0.0
  0
LINE
  5
   3DA
  8
0
  6
CONTINUOUS
 62
     1
 10
80.9158052203501
 20
46.7202270239591
 30
0.0
 11
80.9158052203501
 21
54.3327215537429
 31
0.0
  0
LINE
  5
   3DB
  8
0
  6
CONTINUOUS
 62
     1
 10
87.2158011076297
 20
46.7202270239591
 30
0.0
 11
87.2158011076297
 21
54.3327215537429
 31
0.0
  0
LINE
  5
   3DC
  8
0
  6
CONTINUOUS
 62
     1
 10
85.9558043334331
 20
46.7202270239591
 30
0.0
 11
85.9558043334331
 21
54.3327215537429
 31
0.0
  0
ARC
  5
   3DD
  8
0
  6
CONTINUOUS
 62
     1
 10
78.3608055308903
 20
90.907720951736
 30
0.0
 40
0.174999997019768
 50
89.9999999480344
 51
179.999999948034
  0
ARC
  5
   3DE
  8
0
  6
CONTINUOUS
 62
     1
 10
151.335804288134
 20
90.907720951736
 30
0.0
 40
0.174999997019768
 50
359.999999948034
 51
449.999999948034
  0
ARC
  5
   3DF
  8
0
  6
CONTINUOUS
 62
     1
 10
151.335804288134
 20
54.5077215716243
 30
0.0
 40
0.174999997019768
 50
269.999999948034
 51
359.999999948034
  0
ARC
  5
   3E0
  8
0
  6
CONTINUOUS
 62
     1
 10
78.3608055308903
 20
54.5077215716243
 30
0.0
 40
0.174999997019768
 50
179.999999948034
 51
269.999999948034
  0
LINE
  5
   3E1
  8
0
  6
CONTINUOUS
 62
     3
 10
101.810781391341
 20
22.7452274531163
 30
0.0
 11
79.4982871118964
 21
22.7452274531163
 31
0.0
  0
LINE
  5
   3E2
  8
0
  6
CONTINUOUS
 62
     3
 10
126.310786314684
 20
22.7452274531155
 30
0.0
 11
103.385786705095
 21
22.7452274531155
 31
0.0
  0
LINE
  5
   3E3
  8
0
  6
CONTINUOUS
 62
     3
 10
150.198280567307
 20
22.7452274530959
 30
0.0
 11
127.885786287862
 21
22.7452274530959
 31
0.0
  0
LINE
  5
   3E4
  8
0
  6
CONTINUOUS
 62
     3
 10
150.723280558366
 20
23.2702274441741
 30
0.0
 11
150.723280558366
 21
23.7252271693967
 31
0.0
  0
LINE
  5
   3E5
  8
0
  6
CONTINUOUS
 62
     1
 10
151.510804285153
 20
23.7252271693967
 30
0.0
 11
150.723280558366
 21
23.7252271693967
 31
0.0
  0
LINE
  5
   3E6
  8
0
  6
CONTINUOUS
 62
     1
 10
150.723275217771
 20
23.7252269678312
 30
0.0
 11
150.723275217771
 21
31.3202273070849
 31
0.0
  0
LINE
  5
   3E7
  8
0
  6
CONTINUOUS
 62
     1
 10
143.373283668349
 20
29.5702217950243
 30
0.0
 11
141.455557566568
 21
29.5702271355987
 31
0.0
  0
LINE
  5
   3E8
  8
0
  6
CONTINUOUS
 62
     1
 10
137.241004568266
 20
29.570217510181
 30
0.0
 11
135.323278465592
 21
29.5702228507554
 31
0.0
  0
LINE
  5
   3E9
  8
0
  6
CONTINUOUS
 62
     1
 10
137.241006923221
 20
25.3702274084114
 30
0.0
 11
135.323280820626
 21
25.3702274084114
 31
0.0
  0
LINE
  5
   3EA
  8
0
  6
CONTINUOUS
 62
     1
 10
143.373280683536
 20
25.3702274084114
 30
0.0
 11
141.455559921516
 21
25.3702274084114
 31
0.0
  0
LINE
  5
   3EB
  8
0
  6
CONTINUOUS
 62
     1
 10
94.3732845049101
 20
29.5702193975621
 30
0.0
 11
92.4555584022367
 21
29.5702247381365
 31
0.0
  0
LINE
  5
   3EC
  8
0
  6
CONTINUOUS
 62
     1
 10
88.2410054030485
 20
29.5702204532949
 30
0.0
 11
86.3232793003751
 21
29.5702257938692
 31
0.0
  0
LINE
  5
   3ED
  8
0
  6
CONTINUOUS
 62
     1
 10
88.2410077576865
 20
25.3702274084114
 30
0.0
 11
86.3232816550913
 21
25.3702274084114
 31
0.0
  0
LINE
  5
   3EE
  8
0
  6
CONTINUOUS
 62
     1
 10
94.3732815180006
 20
25.3702274084114
 30
0.0
 11
92.4555607559814
 21
25.3702274084114
 31
0.0
  0
LINE
  5
   3EF
  8
0
  6
CONTINUOUS
 62
     1
 10
118.87328408663
 20
29.5702205962932
 30
0.0
 11
116.955557983956
 21
29.5702259368676
 31
0.0
  0
LINE
  5
   3F0
  8
0
  6
CONTINUOUS
 62
     1
 10
112.741004985661
 20
29.570221652026
 30
0.0
 11
110.823278882987
 21
29.5702269926003
 31
0.0
  0
LINE
  5
   3F1
  8
0
  6
CONTINUOUS
 62
     1
 10
112.741007340454
 20
25.3702274084114
 30
0.0
 11
110.823281237859
 21
25.3702274084114
 31
0.0
  0
LINE
  5
   3F2
  8
0
  6
CONTINUOUS
 62
     1
 10
118.873281100768
 20
25.3702274084114
 30
0.0
 11
116.955560338749
 21
25.3702274084114
 31
0.0
  0
LINE
  5
   3F3
  8
0
  6
CONTINUOUS
 62
     3
 10
128.323286280412
 20
23.6202274382137
 30
0.0
 11
128.323286280412
 21
25.1952274113916
 31
0.0
  0
LINE
  5
   3F4
  8
0
  6
CONTINUOUS
 62
     3
 10
128.323286280412
 20
23.6202274382137
 30
0.0
 11
127.885786287862
 21
23.6202274382137
 31
0.0
  0
LINE
  5
   3F5
  8
0
  6
CONTINUOUS
 62
     3
 10
127.885786287862
 20
22.745227453109
 30
0.0
 11
127.885786287862
 21
23.6202274382078
 31
0.0
  0
LINE
  5
   3F6
  8
0
  6
CONTINUOUS
 62
     3
 10
126.310786314684
 20
22.7452274531155
 30
0.0
 11
126.310786314684
 21
23.6202274382143
 31
0.0
  0
LINE
  5
   3F7
  8
0
  6
CONTINUOUS
 62
     3
 10
126.310786314684
 20
23.6202274382137
 30
0.0
 11
125.873286322135
 21
23.6202274382137
 31
0.0
  0
LINE
  5
   3F8
  8
0
  6
CONTINUOUS
 62
     3
 10
125.873286322135
 20
23.6202274382137
 30
0.0
 11
125.873286322135
 21
25.1952274113916
 31
0.0
  0
LINE
  5
   3F9
  8
0
  6
CONTINUOUS
 62
     3
 10
128.323286280412
 20
25.1952274113916
 30
0.0
 11
125.873286322135
 21
25.1952274113916
 31
0.0
  0
LINE
  5
   3FA
  8
0
  6
CONTINUOUS
 62
     3
 10
101.373281398791
 20
23.6202274382137
 30
0.0
 11
101.373281398791
 21
25.1952274113916
 31
0.0
  0
LINE
  5
   3FB
  8
0
  6
CONTINUOUS
 62
     3
 10
101.810781391341
 20
23.6202274382137
 30
0.0
 11
101.373281398791
 21
23.6202274382137
 31
0.0
  0
LINE
  5
   3FC
  8
0
  6
CONTINUOUS
 62
     3
 10
101.810781391341
 20
22.745227453109
 30
0.0
 11
101.810781391341
 21
23.6202274382078
 31
0.0
  0
LINE
  5
   3FD
  8
0
  6
CONTINUOUS
 62
     3
 10
103.385781364519
 20
22.7452274531155
 30
0.0
 11
103.385781364519
 21
23.6202274382143
 31
0.0
  0
LINE
  5
   3FE
  8
0
  6
CONTINUOUS
 62
     3
 10
103.823281357068
 20
23.6202274382137
 30
0.0
 11
103.385781364519
 21
23.6202274382137
 31
0.0
  0
LINE
  5
   3FF
  8
0
  6
CONTINUOUS
 62
     3
 10
103.823281357068
 20
23.6202274382137
 30
0.0
 11
103.823281357068
 21
25.1952274113916
 31
0.0
  0
LINE
  5
   400
  8
0
  6
CONTINUOUS
 62
     3
 10
103.823281357068
 20
25.1952274113916
 30
0.0
 11
101.373281398791
 21
25.1952274113916
 31
0.0
  0
CIRCLE
  5
   401
  8
0
  6
CONTINUOUS
 62
     1
 10
80.3732863218614
 20
24.1452269303336
 30
0.0
 40
0.49000039187499
  0
ARC
  5
   402
  8
0
  6
CONTINUOUS
 62
     1
 10
86.3232754705091
 20
27.4702227197307
 30
0.0
 40
2.09999798521424
 50
90.0001399327154
 51
270.000100332566
  0
ARC
  5
   403
  8
0
  6
CONTINUOUS
 62
     1
 10
90.3482780724497
 20
27.4702594831751
 30
0.0
 40
2.97503256700413
 50
404.899302393594
 51
495.100813987516
  0
ARC
  5
   404
  8
0
  6
CONTINUOUS
 62
     1
 10
94.3732829755211
 20
27.4702248526267
 30
0.0
 40
2.09999509708851
 50
269.999747131106
 51
450.000048027357
  0
CIRCLE
  5
   405
  8
0
  6
CONTINUOUS
 62
     1
 10
102.598285947754
 20
28.1702399089068
 30
0.0
 40
1.83749026298616
  0
CIRCLE
  5
   406
  8
0
  6
CONTINUOUS
 62
     1
 10
102.598276292248
 20
28.1702165394522
 30
0.0
 40
0.962507390421093
  0
ARC
  5
   407
  8
0
  6
CONTINUOUS
 62
     1
 10
110.823251192894
 20
27.4702066226879
 30
0.0
 40
2.09996804617799
 50
449.999680793011
 51
630.000858183329
  0
ARC
  5
   408
  8
0
  6
CONTINUOUS
 62
     1
 10
114.848297119141
 20
27.4702324755757
 30
0.0
 40
2.97499672471136
 50
404.900757179708
 51
495.099359217673
  0
ARC
  5
   409
  8
0
  6
CONTINUOUS
 62
     1
 10
118.873281811225
 20
27.4702253323861
 30
0.0
 40
2.09999630096849
 50
269.999783457987
 51
450.000092622467
  0
CIRCLE
  5
   40A
  8
0
  6
CONTINUOUS
 62
     1
 10
127.098320663321
 20
28.170176199558
 30
0.0
 40
1.83755586507084
  0
CIRCLE
  5
   40B
  8
0
  6
CONTINUOUS
 62
     1
 10
127.098266099413
 20
28.1702464166554
 30
0.0
 40
0.962478285897051
  0
ARC
  5
   40C
  8
0
  6
CONTINUOUS
 62
     1
 10
135.323267863048
 20
27.4702263653091
 30
0.0
 40
2.09999328114419
 50
90.0003609959681
 51
270.000490903722
  0
ARC
  5
   40D
  8
0
  6
CONTINUOUS
 62
     1
 10
143.373231614503
 20
27.4702339997734
 30
0.0
 40
2.10004126020305
 50
270.001034630644
 51
449.998799421533
  0
ARC
  5
   40E
  8
0
  6
CONTINUOUS
 62
     1
 10
139.348253779625
 20
27.4702106268705
 30
0.0
 40
2.97500388320602
 50
404.901246442185
 51
495.09901516511
  0
CIRCLE
  5
   40F
  8
0
  6
CONTINUOUS
 62
     1
 10
149.323280400888
 20
24.1452248011596
 30
0.0
 40
0.489998730940279
  0
ARC
  5
   410
  8
0
  6
CONTINUOUS
 62
     1
 10
139.348253779625
 20
27.4702106268705
 30
0.0
 40
2.97500388320602
 50
224.900341297451
 51
315.099658598617
  0
ARC
  5
   411
  8
0
  6
CONTINUOUS
 62
     1
 10
114.848297119141
 20
27.4702324755757
 30
0.0
 40
2.97499672471136
 50
224.901072739214
 51
315.098927156855
  0
ARC
  5
   412
  8
0
  6
CONTINUOUS
 62
     1
 10
90.3482780724497
 20
27.4702594831751
 30
0.0
 40
2.97503256700413
 50
224.901119153159
 51
315.09888074291
  0
LINE
  5
   413
  8
0
  6
DASHDOT
 62
     2
 10
94.3733106215725
 20
27.4702594831751
 30
0.0
 11
86.323245523327
 21
27.4702594831751
 31
0.0
  0
LINE
  5
   414
  8
0
  6
DASHDOT
 62
     2
 10
94.3732829755211
 20
24.3202297734196
 30
0.0
 11
94.3732829755211
 21
30.6202199318339
 31
0.0
  0
LINE
  5
   415
  8
0
  6
DASHDOT
 62
     2
 10
97.5232780547283
 20
27.4702248526267
 30
0.0
 11
91.223287896314
 21
27.4702248526267
 31
0.0
  0
LINE
  5
   416
  8
0
  6
DASHDOT
 62
     2
 10
86.3232754705091
 20
24.3202247523979
 30
0.0
 11
86.3232754705091
 21
30.6202206870636
 31
0.0
  0
LINE
  5
   417
  8
0
  6
DASHDOT
 62
     2
 10
89.4732734378419
 20
27.4702227197307
 30
0.0
 11
83.1732775031762
 21
27.4702227197307
 31
0.0
  0
LINE
  5
   418
  8
0
  6
DASHDOT
 62
     2
 10
110.823251192894
 20
24.3202385943913
 30
0.0
 11
110.823251192894
 21
30.6201746509845
 31
0.0
  0
LINE
  5
   419
  8
0
  6
DASHDOT
 62
     2
 10
113.973219221191
 20
27.4702066226879
 30
0.0
 11
107.673283164597
 21
27.4702066226879
 31
0.0
  0
LINE
  5
   41A
  8
0
  6
DASHDOT
 62
     2
 10
118.873293825971
 20
27.4702324755757
 30
0.0
 11
110.823300412311
 21
27.4702324755757
 31
0.0
  0
LINE
  5
   41B
  8
0
  6
DASHDOT
 62
     2
 10
118.873281811225
 20
24.320229049299
 30
0.0
 11
118.873281811225
 21
30.6202216154732
 31
0.0
  0
LINE
  5
   41C
  8
0
  6
DASHDOT
 62
     2
 10
122.023278094312
 20
27.4702253323861
 30
0.0
 11
115.723285528138
 21
27.4702253323861
 31
0.0
  0
LINE
  5
   41D
  8
0
  6
DASHDOT
 62
     2
 10
127.098320663321
 20
25.2826203523686
 30
0.0
 11
127.098320663321
 21
31.0577320467475
 31
0.0
  0
LINE
  5
   41E
  8
0
  6
DASHDOT
 62
     2
 10
135.323267863048
 20
24.3202331020463
 30
0.0
 11
135.323267863048
 21
30.6202196285719
 31
0.0
  0
LINE
  5
   41F
  8
0
  6
DASHDOT
 62
     2
 10
138.473261126311
 20
27.4702263653091
 30
0.0
 11
132.173274599785
 21
27.4702263653091
 31
0.0
  0
LINE
  5
   420
  8
0
  6
DASHDOT
 62
     2
 10
139.348253779625
 20
21.182533050468
 30
0.0
 11
139.348253779625
 21
31.3978068544282
 31
0.0
  0
LINE
  5
   421
  8
0
  6
DASHDOT
 62
     2
 10
143.373257644949
 20
27.4702106268705
 30
0.0
 11
135.3232499143
 21
27.4702106268705
 31
0.0
  0
LINE
  5
   422
  8
0
  6
DASHDOT
 62
     2
 10
143.373231614503
 20
24.3201927574517
 30
0.0
 11
143.373231614503
 21
30.6202752420951
 31
0.0
  0
LINE
  5
   423
  8
0
  6
DASHDOT
 62
     2
 10
146.523272856824
 20
27.4702339997734
 30
0.0
 11
140.223190372181
 21
27.4702339997734
 31
0.0
  0
LINE
  5
   424
  8
0
  6
DASHDOT
 62
     2
 10
149.323280400888
 20
22.6052260881008
 30
0.0
 11
149.323280400888
 21
25.6852235142185
 31
0.0
  0
LINE
  5
   425
  8
0
  6
DASHDOT
 62
     2
 10
80.3732863218614
 20
22.60522655634
 30
0.0
 11
80.3732863218614
 21
25.6852273043272
 31
0.0
  0
LINE
  5
   426
  8
0
  6
DASHDOT
 62
     2
 10
81.913286695855
 20
24.1452269303336
 30
0.0
 11
78.8332859478678
 21
24.1452269303336
 31
0.0
  0
ARC
  5
   427
  8
0
  6
CONTINUOUS
 62
     3
 10
150.19826563707
 20
23.2702228740474
 30
0.0
 40
0.525005873581529
 50
270.001088208967
 51
360.000070595423
  0
LINE
  5
   428
  8
0
  6
DASHDOT
 62
     2
 10
113.825948989248
 20
28.1702399089068
 30
0.0
 11
107.470876494422
 21
28.1702399089068
 31
0.0
  0
LINE
  5
   429
  8
0
  6
DASHDOT
 62
     2
 10
130.180261423484
 20
28.1702399089068
 30
0.0
 11
115.766542221933
 21
28.1702399089068
 31
0.0
  0
LINE
  5
   42A
  8
0
  6
CONTINUOUS
 62
     1
 10
90.3482975363732
 20
32.5452272862195
 30
0.0
 11
90.3482975363732
 21
46.1952270537614
 31
0.0
  0
LINE
  5
   42B
  8
0
  6
CONTINUOUS
 62
     1
 10
139.348296701908
 20
32.5452272862195
 30
0.0
 11
139.348296701908
 21
40.4202159702797
 31
0.0
  0
LINE
  5
   42C
  8
0
  6
CONTINUOUS
 62
     1
 10
88.248300242424
 20
91.0827209487558
 30
0.0
 11
78.3608055308903
 21
91.0827209487558
 31
0.0
  0
LINE
  5
   42D
  8
0
  6
CONTINUOUS
 62
     1
 10
88.248300242424
 20
54.3327215746045
 30
0.0
 11
78.3608055308903
 21
54.3327215746045
 31
0.0
  0
INSERT
  5
   42E
  8
255
  6
CONTINUOUS
 62
     7
  2
MOSTRA
 10
114.848305130005
 20
49.2577291712167
 30
0.0
 41
0.349999994039536
 42
0.349999994039536
 50
359.999999792138
 43
0.349999994039536
  0
LINE
  5
   42F
  8
0
  6
DASHDOT
 62
     7
 10
90.3482780724497
 20
23.4452269340524
 30
0.0
 11
90.3482780724497
 21
31.4952920322978
 31
0.0
  0
LINE
  5
   430
  8
0
  6
CONTINUOUS
 62
     1
 10
88.248300242424
 20
46.3702270507812
 30
0.0
 11
78.0983055353607
 21
46.3702270507812
 31
0.0
  0
LINE
  5
   431
  8
0
  6
CONTINUOUS
 62
     1
 10
88.248300242424
 20
46.7202270239591
 30
0.0
 11
78.0983055353607
 21
46.7202270239591
 31
0.0
  0
LINE
  5
   432
  8
0
  6
CONTINUOUS
 62
     1
 10
88.248300242424
 20
107.970226001739
 30
0.0
 11
78.1858055338706
 21
107.970226001739
 31
0.0
  0
LINE
  5
   433
  8
0
  6
CONTINUOUS
 62
     1
 10
94.3735208035937
 20
162.22023575902
 30
0.0
 11
92.4555770395947
 21
162.22023575902
 31
0.0
  0
LINE
  5
   434
  8
0
  6
CONTINUOUS
 62
     1
 10
94.3735208035937
 20
158.020235830546
 30
0.0
 11
92.4555770395947
 21
158.020235830546
 31
0.0
  0
LINE
  5
   435
  8
0
  6
CONTINUOUS
 62
     1
 10
88.2410365637807
 20
158.020235680753
 30
0.0
 11
86.323470548728
 21
158.020242213085
 31
0.0
  0
LINE
  5
   436
  8
0
  6
CONTINUOUS
 62
     1
 10
86.3234705518751
 20
162.220229376928
 30
0.0
 11
88.2410392538827
 21
162.220235909291
 31
0.0
  0
LINE
  5
   437
  8
0
  6
CONTINUOUS
 62
     1
 10
112.741019284849
 20
162.22023575902
 30
0.0
 11
110.823431069918
 21
162.22023575902
 31
0.0
  0
LINE
  5
   438
  8
0
  6
CONTINUOUS
 62
     1
 10
112.740643824285
 20
158.020235830546
 30
0.0
 11
110.823431069918
 21
158.020235830546
 31
0.0
  0
LINE
  5
   439
  8
0
  6
CONTINUOUS
 62
     1
 10
116.955575434697
 20
158.020232328386
 30
0.0
 11
118.873344660499
 21
158.020238861432
 31
0.0
  0
LINE
  5
   43A
  8
0
  6
CONTINUOUS
 62
     1
 10
118.873344665075
 20
162.220232728893
 30
0.0
 11
116.955575433433
 21
162.220239261939
 31
0.0
  0
LINE
  5
   43B
  8
0
  6
CONTINUOUS
 62
     3
 10
150.723275145889
 20
163.795235732198
 30
0.0
 11
150.723275145889
 21
164.495235720277
 31
0.0
  0
LINE
  5
   43C
  8
0
  6
CONTINUOUS
 62
     1
 10
137.241012191897
 20
162.22023575902
 30
0.0
 11
135.323214859084
 21
162.22023575902
 31
0.0
  0
LINE
  5
   43D
  8
0
  6
CONTINUOUS
 62
     1
 10
137.241012191897
 20
158.020235830546
 30
0.0
 11
135.323214859084
 21
158.020235830546
 31
0.0
  0
LINE
  5
   43E
  8
0
  6
CONTINUOUS
 62
     1
 10
141.455558001554
 20
158.020235680754
 30
0.0
 11
143.373342417999
 21
158.02024221383
 31
0.0
  0
LINE
  5
   43F
  8
0
  6
CONTINUOUS
 62
     1
 10
143.373358431531
 20
162.22022937644
 30
0.0
 11
141.455555314656
 21
162.22023590958
 31
0.0
  0
LINE
  5
   440
  8
0
  6
DASHDOT
 62
     7
 10
113.343512073638
 20
160.120239268495
 30
0.0
 11
108.303350399985
 21
160.120239268495
 31
0.0
  0
LINE
  5
   441
  8
0
  6
DASHDOT
 62
     7
 10
110.823431069918
 20
157.600158598562
 30
0.0
 11
110.823431069918
 21
162.640319938428
 31
0.0
  0
ARC
  5
   442
  8
0
  6
CONTINUOUS
 62
     1
 10
110.823431069918
 20
160.120239268495
 30
0.0
 40
2.10006689115832
 50
90.0036557603355
 51
269.996301839899
  0
LINE
  5
   443
  8
0
  6
DASHDOT
 62
     7
 10
118.418424889333
 20
160.120093993202
 30
0.0
 11
111.278092522162
 21
160.120093993202
 31
0.0
  0
ARC
  5
   444
  8
0
  6
CONTINUOUS
 62
     1
 10
114.848258705758
 20
160.120093993202
 30
0.0
 40
2.97513848632147
 50
224.89430374687
 51
315.105491686916
  0
LINE
  5
   445
  8
0
  6
DASHDOT
 62
     7
 10
121.393277206038
 20
160.120293326879
 30
0.0
 11
116.35339714586
 21
160.120293326879
 31
0.0
  0
LINE
  5
   446
  8
0
  6
DASHDOT
 62
     7
 10
118.873337509738
 20
157.600351764718
 30
0.0
 11
118.873337509738
 21
162.640231157325
 31
0.0
  0
ARC
  5
   447
  8
0
  6
CONTINUOUS
 62
     1
 10
118.873337509735
 20
160.120293326879
 30
0.0
 40
2.09994941313343
 50
269.999007927624
 51
450.00105270767
  0
LINE
  5
   448
  8
0
  6
DASHDOT
 62
     7
 10
137.843111775797
 20
160.120256174804
 30
0.0
 11
132.803296580067
 21
160.120256174804
 31
0.0
  0
LINE
  5
   449
  8
0
  6
DASHDOT
 62
     7
 10
135.323214859084
 20
157.600343236362
 30
0.0
 11
135.323214859084
 21
162.640169113245
 31
0.0
  0
ARC
  5
   44A
  8
0
  6
CONTINUOUS
 62
     1
 10
135.323214859084
 20
160.120256174804
 30
0.0
 40
2.09992678112893
 50
449.999999948034
 51
630.002376467854
  0
LINE
  5
   44B
  8
0
  6
DASHDOT
 62
     7
 10
142.918323504112
 20
160.12020627718
 30
0.0
 11
135.778264909971
 21
160.12020627718
 31
0.0
  0
ARC
  5
   44C
  8
0
  6
CONTINUOUS
 62
     1
 10
139.348299547617
 20
160.12020627718
 30
0.0
 40
2.97502441422517
 50
404.901045292561
 51
495.098630845462
  0
LINE
  5
   44D
  8
0
  6
DASHDOT
 62
     7
 10
145.89334407478
 20
160.120225333578
 30
0.0
 11
140.853337125179
 21
160.120225333578
 31
0.0
  0
LINE
  5
   44E
  8
0
  6
DASHDOT
 62
     7
 10
143.373340599979
 20
157.600216518202
 30
0.0
 11
143.373340599979
 21
162.640234148954
 31
0.0
  0
ARC
  5
   44F
  8
0
  6
CONTINUOUS
 62
     1
 10
143.373340599979
 20
160.120225333578
 30
0.0
 40
2.10000667857487
 50
269.998338346111
 51
450.001473300288
  0
LINE
  5
   450
  8
0
  6
DASHDOT
 62
     7
 10
88.8436208978906
 20
160.120251518408
 30
0.0
 11
83.8033558844391
 21
160.120251518408
 31
0.0
  0
LINE
  5
   451
  8
0
  6
DASHDOT
 62
     7
 10
86.3234883911648
 20
157.600113671106
 30
0.0
 11
86.3234883911648
 21
162.64038936571
 31
0.0
  0
ARC
  5
   452
  8
0
  6
CONTINUOUS
 62
     1
 10
86.3234883911648
 20
160.120251518408
 30
0.0
 40
2.1001148727515
 50
90.0052836333811
 51
269.995265213079
  0
LINE
  5
   453
  8
0
  6
DASHDOT
 62
     7
 10
93.9183746153557
 20
160.120296558337
 30
0.0
 11
86.7782259102598
 21
160.120296558337
 31
0.0
  0
ARC
  5
   454
  8
0
  6
CONTINUOUS
 62
     1
 10
90.348313614248
 20
160.120296558337
 30
0.0
 40
2.97505973521659
 50
224.901380849089
 51
315.098568474349
  0
LINE
  5
   455
  8
0
  6
DASHDOT
 62
     7
 10
96.8933426562101
 20
160.120251699926
 30
0.0
 11
91.8536989509772
 21
160.120251699926
 31
0.0
  0
LINE
  5
   456
  8
0
  6
DASHDOT
 62
     7
 10
94.3735208035937
 20
157.600424506734
 30
0.0
 11
94.3735208035937
 21
162.640078893119
 31
0.0
  0
ARC
  5
   457
  8
0
  6
CONTINUOUS
 62
     1
 10
94.3735208035937
 20
160.120251699926
 30
0.0
 40
2.09985599432712
 50
269.999999948034
 51
449.999945306521
  0
ARC
  5
   458
  8
0
  6
CONTINUOUS
 62
     1
 10
90.348313614248
 20
160.120296558337
 30
0.0
 40
2.97505973521659
 50
404.897963373026
 51
495.101923170488
  0
ARC
  5
   459
  8
0
  6
CONTINUOUS
 62
     1
 10
114.848258705758
 20
160.120093993202
 30
0.0
 40
2.97513848632147
 50
404.902109287098
 51
495.097767281763
  0
ARC
  5
   45A
  8
0
  6
CONTINUOUS
 62
     1
 10
139.348299547617
 20
160.12020627718
 30
0.0
 40
2.97502441422517
 50
224.899545375473
 51
315.100341172749
  0
LINE
  5
   45B
  8
0
  6
CONTINUOUS
 62
     1
 10
127.098214011438
 20
155.832770471401
 30
0.0
 11
127.098214011438
 21
163.007770349212
 31
0.0
  0
LINE
  5
   45C
  8
0
  6
DASHDOT
 62
     7
 10
130.685713950343
 20
159.420270410306
 30
0.0
 11
123.510714072533
 21
159.420270410306
 31
0.0
  0
LINE
  5
   45D
  8
0
  6
CONTINUOUS
 62
     3
 10
101.810781391341
 20
164.84524105489
 30
0.0
 11
78.8857817817511
 21
164.84524105489
 31
0.0
  0
LINE
  5
   45E
  8
0
  6
CONTINUOUS
 62
     3
 10
101.810781391341
 20
163.9702465801
 30
0.0
 11
101.810781391341
 21
164.845246565199
 31
0.0
  0
LINE
  5
   45F
  8
0
  6
CONTINUOUS
 62
     3
 10
101.810781391341
 20
163.970246580094
 30
0.0
 11
101.373281398791
 21
163.970246580094
 31
0.0
  0
LINE
  5
   460
  8
0
  6
CONTINUOUS
 62
     3
 10
101.373281398791
 20
162.395246606916
 30
0.0
 11
101.373281398791
 21
163.970246580094
 31
0.0
  0
LINE
  5
   461
  8
0
  6
CONTINUOUS
 62
     3
 10
103.823281357068
 20
162.395246606916
 30
0.0
 11
101.373281398791
 21
162.395246606916
 31
0.0
  0
LINE
  5
   462
  8
0
  6
CONTINUOUS
 62
     3
 10
103.823281357068
 20
162.395246606916
 30
0.0
 11
103.823281357068
 21
163.970246580094
 31
0.0
  0
LINE
  5
   463
  8
0
  6
CONTINUOUS
 62
     3
 10
103.823281357068
 20
163.970246580094
 30
0.0
 11
103.385781364519
 21
163.970246580094
 31
0.0
  0
LINE
  5
   464
  8
0
  6
CONTINUOUS
 62
     3
 10
103.385781364519
 20
163.970246580094
 30
0.0
 11
103.385781364519
 21
164.845246565193
 31
0.0
  0
LINE
  5
   465
  8
0
  6
CONTINUOUS
 62
     3
 10
126.310786314684
 20
164.845235714314
 30
0.0
 11
103.385781364519
 21
164.845235714314
 31
0.0
  0
LINE
  5
   466
  8
0
  6
CONTINUOUS
 62
     3
 10
126.310786314684
 20
163.970246580094
 30
0.0
 11
126.310786314684
 21
164.845246565193
 31
0.0
  0
LINE
  5
   467
  8
0
  6
CONTINUOUS
 62
     3
 10
126.310786314684
 20
163.970246580094
 30
0.0
 11
125.873286322135
 21
163.970246580094
 31
0.0
  0
LINE
  5
   468
  8
0
  6
CONTINUOUS
 62
     3
 10
125.873286322135
 20
162.395246606916
 30
0.0
 11
125.873286322135
 21
163.970246580094
 31
0.0
  0
LINE
  5
   469
  8
0
  6
CONTINUOUS
 62
     3
 10
128.323286280412
 20
162.395246606916
 30
0.0
 11
125.873286322135
 21
162.395246606916
 31
0.0
  0
LINE
  5
   46A
  8
0
  6
CONTINUOUS
 62
     3
 10
128.323286280412
 20
162.395246606916
 30
0.0
 11
128.323286280412
 21
163.970246580094
 31
0.0
  0
LINE
  5
   46B
  8
0
  6
CONTINUOUS
 62
     3
 10
128.323286280412
 20
163.970246580094
 30
0.0
 11
127.885786287862
 21
163.970246580094
 31
0.0
  0
LINE
  5
   46C
  8
0
  6
CONTINUOUS
 62
     3
 10
127.885786287862
 20
163.9702465801
 30
0.0
 11
127.885786287862
 21
164.845246565199
 31
0.0
  0
LINE
  5
   46D
  8
0
  6
CONTINUOUS
 62
     3
 10
150.373292148433
 20
164.84524105489
 30
0.0
 11
127.885786287862
 21
164.84524105489
 31
0.0
  0
ARC
  5
   46E
  8
0
  6
CONTINUOUS
 62
     3
 10
150.373277899614
 20
164.495227725582
 30
0.0
 40
0.349999722807106
 50
360.000054589548
 51
449.999945306521
  0
LINE
  5
   46F
  8
0
  6
CONTINUOUS
 62
     7
 10
150.723288497329
 20
156.270235860353
 30
0.0
 11
150.723288497329
 21
164.495227725582
 31
0.0
  0
LINE
  5
   470
  8
0
  6
CONTINUOUS
 62
     3
 10
151.598304283663
 20
163.795235732198
 30
0.0
 11
150.723275145889
 21
163.795235732198
 31
0.0
  0
LINE
  5
   471
  8
0
  6
CONTINUOUS
 62
     1
 10
150.723288497329
 20
156.270235860353
 30
0.0
 11
150.723288497329
 21
164.495227725582
 31
0.0
  0
LINE
  5
   472
  8
0
  6
CONTINUOUS
 62
     7
 10
150.723293837904
 20
156.445244556243
 30
0.0
 11
78.9733190923926
 21
156.445244556243
 31
0.0
  0
LINE
  5
   473
  8
0
  6
CONTINUOUS
 62
     7
 10
150.723293837904
 20
156.445244556243
 30
0.0
 11
78.9733190923926
 21
156.445244556243
 31
0.0
  0
LINE
  5
   474
  8
0
  6
CONTINUOUS
 62
     1
 10
151.598304283663
 20
156.270235690617
 30
0.0
 11
78.1858055338706
 21
156.270235690617
 31
0.0
  0
LINE
  5
   475
  8
0
  6
CONTINUOUS
 62
     1
 10
151.598304283663
 20
108.075242021678
 30
0.0
 11
141.448299336433
 21
108.075242021678
 31
0.0
  0
LINE
  5
   476
  8
0
  6
CONTINUOUS
 62
     3
 10
151.160804291114
 20
108.075242021678
 30
0.0
 11
151.160804291114
 21
108.425242015717
 31
0.0
  0
LINE
  5
   477
  8
0
  6
CONTINUOUS
 62
     1
 10
150.845801092133
 20
108.425242015717
 30
0.0
 11
150.845801092133
 21
156.270235690617
 31
0.0
  0
LINE
  5
   478
  8
0
  6
CONTINUOUS
 62
     1
 10
150.040800037726
 20
108.425242015717
 30
0.0
 11
150.040800037726
 21
156.270235690617
 31
0.0
  0
LINE
  5
   479
  8
0
  6
CONTINUOUS
 62
     1
 10
148.78080326353
 20
108.425242015717
 30
0.0
 11
148.78080326353
 21
156.270235690617
 31
0.0
  0
LINE
  5
   47A
  8
0
  6
CONTINUOUS
 62
     1
 10
147.520801148757
 20
108.425242015717
 30
0.0
 11
147.520801148757
 21
156.270235690617
 31
0.0
  0
LINE
  5
   47B
  8
0
  6
CONTINUOUS
 62
     1
 10
145.000802259787
 20
108.425242015717
 30
0.0
 11
145.000802259787
 21
156.270235690617
 31
0.0
  0
LINE
  5
   47C
  8
0
  6
CONTINUOUS
 62
     1
 10
143.740800145015
 20
108.425242015717
 30
0.0
 11
143.740800145015
 21
156.270235690617
 31
0.0
  0
LINE
  5
   47D
  8
0
  6
CONTINUOUS
 62
     1
 10
142.480803370818
 20
108.425242015717
 30
0.0
 11
142.480803370818
 21
156.270235690617
 31
0.0
  0
LINE
  5
   47E
  8
0
  6
CONTINUOUS
 62
     1
 10
141.220801256045
 20
108.966529177226
 30
0.0
 11
141.220801256045
 21
156.270235690617
 31
0.0
  0
LINE
  5
   47F
  8
0
  6
CONTINUOUS
 62
     1
 10
79.6558054420794
 20
108.425242015717
 30
0.0
 11
79.6558054420794
 21
156.270235690617
 31
0.0
  0
LINE
  5
   480
  8
0
  6
CONTINUOUS
 62
     1
 10
80.9158052203501
 20
108.425242015717
 30
0.0
 11
80.9158052203501
 21
156.270235690617
 31
0.0
  0
LINE
  5
   481
  8
0
  6
CONTINUOUS
 62
     1
 10
82.1758053324069
 20
108.425242015717
 30
0.0
 11
82.1758053324069
 21
156.270235690617
 31
0.0
  0
LINE
  5
   482
  8
0
  6
CONTINUOUS
 62
     1
 10
83.4358054444636
 20
108.425242015717
 30
0.0
 11
83.4358054444636
 21
156.270235690617
 31
0.0
  0
LINE
  5
   483
  8
0
  6
CONTINUOUS
 62
     1
 10
84.6958022186603
 20
108.425242015717
 30
0.0
 11
84.6958022186603
 21
156.270235690617
 31
0.0
  0
LINE
  5
   484
  8
0
  6
CONTINUOUS
 62
     1
 10
85.9558043334331
 20
108.425242015717
 30
0.0
 11
85.9558043334331
 21
156.270235690617
 31
0.0
  0
LINE
  5
   485
  8
0
  6
CONTINUOUS
 62
     1
 10
87.2158011076297
 20
108.425242015717
 30
0.0
 11
87.2158011076297
 21
156.270235690617
 31
0.0
  0
LINE
  5
   486
  8
0
  6
CONTINUOUS
 62
     1
 10
88.4758032224025
 20
108.966517259576
 30
0.0
 11
88.4758032224025
 21
156.270235690617
 31
0.0
  0
LINE
  5
   487
  8
0
  6
CONTINUOUS
 62
     1
 10
89.7358053371753
 20
109.020216653348
 30
0.0
 11
89.7358053371753
 21
156.270235690617
 31
0.0
  0
ARC
  5
   488
  8
0
  6
CONTINUOUS
 62
     1
 10
86.3234883911648
 20
160.120296558337
 30
0.0
 40
2.86999995112419
 50
449.679006550204
 51
629.999999948034
  0
ARC
  5
   489
  8
0
  6
CONTINUOUS
 62
     1
 10
90.3483028769493
 20
160.120296558337
 30
0.0
 40
3.56999993920326
 50
413.505022838263
 51
486.494981956033
  0
LINE
  5
   48A
  8
0
  6
CONTINUOUS
 62
     1
 10
88.225036908302
 20
162.990251469532
 30
0.0
 11
86.3395671708714
 21
162.990251469532
 31
0.0
  0
LINE
  5
   48B
  8
0
  6
CONTINUOUS
 62
     1
 10
94.3735208035937
 20
162.990251651051
 30
0.0
 11
92.4715686002434
 21
162.990251651051
 31
0.0
  0
LINE
  5
   48C
  8
0
  6
CONTINUOUS
 62
     1
 10
94.357474456421
 20
157.250296607212
 30
0.0
 11
92.4715079651257
 21
157.250296607212
 31
0.0
  0
LINE
  5
   48D
  8
0
  6
CONTINUOUS
 62
     1
 10
88.2251586719447
 20
157.250251567284
 30
0.0
 11
86.3234883911648
 21
157.250251567284
 31
0.0
  0
ARC
  5
   48E
  8
0
  6
CONTINUOUS
 62
     1
 10
90.3483028769493
 20
160.120296558337
 30
0.0
 40
3.56999993920326
 50
233.507448791235
 51
306.493766547859
  0
ARC
  5
   48F
  8
0
  6
CONTINUOUS
 62
     1
 10
94.3735208035937
 20
160.120251699926
 30
0.0
 40
2.86999995112419
 50
269.679654033286
 51
449.999999948034
  0
ARC
  5
   490
  8
0
  6
CONTINUOUS
 62
     1
 10
118.873520386361
 20
160.120251699926
 30
0.0
 40
2.86999995112419
 50
269.679654033286
 51
449.999999948034
  0
LINE
  5
   491
  8
0
  6
CONTINUOUS
 62
     1
 10
118.873520386361
 20
162.990251651051
 30
0.0
 11
116.971568183011
 21
162.990251651051
 31
0.0
  0
LINE
  5
   492
  8
0
  6
CONTINUOUS
 62
     1
 10
118.857474039188
 20
157.250296607212
 30
0.0
 11
116.971507547893
 21
157.250296607212
 31
0.0
  0
ARC
  5
   493
  8
0
  6
CONTINUOUS
 62
     1
 10
114.848302459717
 20
160.120296558337
 30
0.0
 40
3.56999993920326
 50
233.507448791235
 51
306.493766547859
  0
ARC
  5
   494
  8
0
  6
CONTINUOUS
 62
     1
 10
114.848302459717
 20
160.120296558337
 30
0.0
 40
3.56999993920326
 50
413.505022838263
 51
486.494981956033
  0
LINE
  5
   495
  8
0
  6
CONTINUOUS
 62
     1
 10
112.72503649107
 20
162.990251469532
 30
0.0
 11
110.839566753639
 21
162.990251469532
 31
0.0
  0
ARC
  5
   496
  8
0
  6
CONTINUOUS
 62
     1
 10
110.823487973932
 20
160.120296558337
 30
0.0
 40
2.86999995112419
 50
449.679006550204
 51
629.999999948034
  0
LINE
  5
   497
  8
0
  6
CONTINUOUS
 62
     1
 10
112.725158254712
 20
157.250251567284
 30
0.0
 11
110.823487973932
 21
157.250251567284
 31
0.0
  0
ARC
  5
   498
  8
0
  6
CONTINUOUS
 62
     1
 10
143.373519969129
 20
160.120251699926
 30
0.0
 40
2.86999995112419
 50
269.679654033286
 51
449.999999948034
  0
LINE
  5
   499
  8
0
  6
CONTINUOUS
 62
     1
 10
143.373519969129
 20
162.990251651051
 30
0.0
 11
141.471567765778
 21
162.990251651051
 31
0.0
  0
LINE
  5
   49A
  8
0
  6
CONTINUOUS
 62
     1
 10
143.357473621956
 20
157.250296607212
 30
0.0
 11
141.471507130661
 21
157.250296607212
 31
0.0
  0
ARC
  5
   49B
  8
0
  6
CONTINUOUS
 62
     1
 10
139.348302042484
 20
160.120296558337
 30
0.0
 40
3.56999993920326
 50
233.507448791235
 51
306.493766547859
  0
ARC
  5
   49C
  8
0
  6
CONTINUOUS
 62
     1
 10
139.348302042484
 20
160.120296558337
 30
0.0
 40
3.56999993920326
 50
413.505022838263
 51
486.494981956033
  0
LINE
  5
   49D
  8
0
  6
CONTINUOUS
 62
     1
 10
137.225036073837
 20
162.990251469532
 30
0.0
 11
135.339566336406
 21
162.990251469532
 31
0.0
  0
LINE
  5
   49E
  8
0
  6
CONTINUOUS
 62
     1
 10
137.22515783748
 20
157.250251567284
 30
0.0
 11
135.3234875567
 21
157.250251567284
 31
0.0
  0
ARC
  5
   49F
  8
0
  6
CONTINUOUS
 62
     1
 10
135.3234875567
 20
160.120296558337
 30
0.0
 40
2.86999995112419
 50
449.679006550204
 51
629.999999948034
  0
ARC
  5
   4A0
  8
0
  6
CONTINUOUS
 62
     1
 10
127.44837980365
 20
159.420270410306
 30
0.0
 40
1.04999998211861
 50
269.999999948034
 51
449.999999948034
  0
LINE
  5
   4A1
  8
0
  6
CONTINUOUS
 62
     1
 10
127.44837980365
 20
160.470270392425
 30
0.0
 11
126.748379815571
 21
160.470270392425
 31
0.0
  0
LINE
  5
   4A2
  8
0
  6
CONTINUOUS
 62
     1
 10
127.44837980365
 20
158.370270428188
 30
0.0
 11
126.748379815571
 21
158.370270428188
 31
0.0
  0
ARC
  5
   4A3
  8
0
  6
CONTINUOUS
 62
     1
 10
126.748379815571
 20
159.420270410306
 30
0.0
 40
1.04999998211861
 50
89.9999999480344
 51
269.999999948034
  0
CIRCLE
  5
   4A4
  8
0
  6
CONTINUOUS
 62
     1
 10
100.14829736948
 20
163.445241078732
 30
0.0
 40
0.769999986886978
  0
CIRCLE
  5
   4A5
  8
0
  6
CONTINUOUS
 62
     1
 10
129.548296868801
 20
163.445241078732
 30
0.0
 40
0.769999986886978
  0
CIRCLE
  5
   4A6
  8
0
  6
CONTINUOUS
 62
     1
 10
149.323296532035
 20
163.445241078732
 30
0.0
 40
0.769999986886978
  0
LINE
  5
   4A7
  8
0
  6
CONTINUOUS
 62
     3
 10
151.598304283663
 20
108.425242015717
 30
0.0
 11
151.598304283663
 21
163.795235732198
 31
0.0
  0
LINE
  5
   4A8
  8
0
  6
CONTINUOUS
 62
     3
 10
151.598304283663
 20
108.425242015717
 30
0.0
 11
151.160804291114
 21
108.425242015717
 31
0.0
  0
LINE
  5
   4A9
  8
0
  6
CONTINUOUS
 62
     3
 10
151.598304283663
 20
108.075242021678
 30
0.0
 11
151.160804291114
 21
108.075242021678
 31
0.0
  0
LINE
  5
   4AA
  8
0
  6
CONTINUOUS
 62
     1
 10
138.823296710849
 20
154.520235890148
 30
0.0
 11
90.8732975274325
 21
154.520235890148
 31
0.0
  0
LINE
  5
   4AB
  8
0
  6
CONTINUOUS
 62
     1
 10
138.823296710849
 20
147.170236015318
 30
0.0
 11
90.8732975274325
 21
147.170236015318
 31
0.0
  0
LINE
  5
   4AC
  8
0
  6
CONTINUOUS
 62
     1
 10
90.8732975274325
 20
147.170236015318
 30
0.0
 11
90.8732975274325
 21
154.520235890148
 31
0.0
  0
LINE
  5
   4AD
  8
0
  6
CONTINUOUS
 62
     1
 10
138.823296710849
 20
147.170236015318
 30
0.0
 11
138.823296710849
 21
154.520235890148
 31
0.0
  0
LINE
  5
   4AE
  8
0
  6
CONTINUOUS
 62
     3
 10
114.760797120631
 20
109.720241993664
 30
0.0
 11
114.760797120631
 21
112.695241943
 31
0.0
  0
LINE
  5
   4AF
  8
0
  6
CONTINUOUS
 62
     3
 10
115.390797109902
 20
109.720241993664
 30
0.0
 11
115.390797109902
 21
112.695241943
 31
0.0
  0
LINE
  5
   4B0
  8
0
  6
CONTINUOUS
 62
     3
 10
116.020797099173
 20
109.720241993664
 30
0.0
 11
116.020797099173
 21
113.920241922138
 31
0.0
  0
LINE
  5
   4B1
  8
0
  6
CONTINUOUS
 62
     3
 10
116.650797088444
 20
109.720241993664
 30
0.0
 11
116.650797088444
 21
113.920241922138
 31
0.0
  0
LINE
  5
   4B2
  8
0
  6
CONTINUOUS
 62
     3
 10
117.280797077715
 20
109.720241993664
 30
0.0
 11
117.280797077715
 21
113.920241922138
 31
0.0
  0
LINE
  5
   4B3
  8
0
  6
CONTINUOUS
 62
     3
 10
117.910797066987
 20
109.720241993664
 30
0.0
 11
117.910797066987
 21
113.920241922138
 31
0.0
  0
LINE
  5
   4B4
  8
0
  6
CONTINUOUS
 62
     3
 10
118.540797056258
 20
109.720241993664
 30
0.0
 11
118.540797056258
 21
113.920241922138
 31
0.0
  0
LINE
  5
   4B5
  8
0
  6
CONTINUOUS
 62
     3
 10
119.170797045529
 20
109.720241993664
 30
0.0
 11
119.170797045529
 21
113.920241922138
 31
0.0
  0
LINE
  5
   4B6
  8
0
  6
CONTINUOUS
 62
     3
 10
119.8007970348
 20
109.720241993664
 30
0.0
 11
119.8007970348
 21
113.920241922138
 31
0.0
  0
LINE
  5
   4B7
  8
0
  6
CONTINUOUS
 62
     3
 10
120.430797024071
 20
109.720241993664
 30
0.0
 11
120.430797024071
 21
113.920241922138
 31
0.0
  0
LINE
  5
   4B8
  8
0
  6
CONTINUOUS
 62
     1
 10
151.598304283663
 20
108.425242015717
 30
0.0
 11
141.448299336433
 21
108.425242015717
 31
0.0
  0
LINE
  5
   4B9
  8
0
  6
CONTINUOUS
 62
     3
 10
114.13079713136
 20
109.720241993664
 30
0.0
 11
114.13079713136
 21
112.695241943
 31
0.0
  0
LINE
  5
   4BA
  8
0
  6
CONTINUOUS
 62
     3
 10
113.500797142088
 20
109.720241993664
 30
0.0
 11
113.500797142088
 21
112.695241943
 31
0.0
  0
LINE
  5
   4BB
  8
0
  6
CONTINUOUS
 62
     3
 10
112.870797152817
 20
109.720241993664
 30
0.0
 11
112.870797152817
 21
113.920241922138
 31
0.0
  0
LINE
  5
   4BC
  8
0
  6
CONTINUOUS
 62
     3
 10
112.240797163546
 20
109.720241993664
 30
0.0
 11
112.240797163546
 21
113.920241922138
 31
0.0
  0
LINE
  5
   4BD
  8
0
  6
CONTINUOUS
 62
     3
 10
111.610797174275
 20
109.720241993664
 30
0.0
 11
111.610797174275
 21
113.920241922138
 31
0.0
  0
LINE
  5
   4BE
  8
0
  6
CONTINUOUS
 62
     3
 10
110.980797185004
 20
109.720241993664
 30
0.0
 11
110.980797185004
 21
113.920241922138
 31
0.0
  0
LINE
  5
   4BF
  8
0
  6
CONTINUOUS
 62
     3
 10
110.350797195733
 20
109.720241993664
 30
0.0
 11
110.350797195733
 21
113.920241922138
 31
0.0
  0
LINE
  5
   4C0
  8
0
  6
CONTINUOUS
 62
     3
 10
109.720797206461
 20
109.720241993664
 30
0.0
 11
109.720797206461
 21
113.920241922138
 31
0.0
  0
LINE
  5
   4C1
  8
0
  6
CONTINUOUS
 62
     3
 10
109.09079721719
 20
109.720241993664
 30
0.0
 11
109.09079721719
 21
113.920241922138
 31
0.0
  0
LINE
  5
   4C2
  8
0
  6
CONTINUOUS
 62
     3
 10
115.390797109902
 20
109.720241993664
 30
0.0
 11
114.760797120631
 21
109.720241993664
 31
0.0
  0
LINE
  5
   4C3
  8
0
  6
CONTINUOUS
 62
     3
 10
115.390797109902
 20
112.695241943
 30
0.0
 11
114.760797120631
 21
112.695241943
 31
0.0
  0
LINE
  5
   4C4
  8
0
  6
CONTINUOUS
 62
     3
 10
114.13079713136
 20
112.695241943
 30
0.0
 11
113.500797142088
 21
112.695241943
 31
0.0
  0
LINE
  5
   4C5
  8
0
  6
CONTINUOUS
 62
     3
 10
112.870797152817
 20
113.920241922138
 30
0.0
 11
112.240797163546
 21
113.920241922138
 31
0.0
  0
LINE
  5
   4C6
  8
0
  6
CONTINUOUS
 62
     3
 10
111.610797174275
 20
113.920241922138
 30
0.0
 11
110.980797185004
 21
113.920241922138
 31
0.0
  0
LINE
  5
   4C7
  8
0
  6
CONTINUOUS
 62
     3
 10
110.350797195733
 20
113.920241922138
 30
0.0
 11
109.720797206461
 21
113.920241922138
 31
0.0
  0
LINE
  5
   4C8
  8
0
  6
CONTINUOUS
 62
     3
 10
116.650797088444
 20
113.920241922138
 30
0.0
 11
116.020797099173
 21
113.920241922138
 31
0.0
  0
LINE
  5
   4C9
  8
0
  6
CONTINUOUS
 62
     3
 10
117.910797066987
 20
113.920241922138
 30
0.0
 11
117.280797077715
 21
113.920241922138
 31
0.0
  0
LINE
  5
   4CA
  8
0
  6
CONTINUOUS
 62
     3
 10
119.170797045529
 20
113.920241922138
 30
0.0
 11
118.540797056258
 21
113.920241922138
 31
0.0
  0
LINE
  5
   4CB
  8
0
  6
CONTINUOUS
 62
     3
 10
120.430797024071
 20
113.920241922138
 30
0.0
 11
119.8007970348
 21
113.920241922138
 31
0.0
  0
LINE
  5
   4CC
  8
0
  6
CONTINUOUS
 62
     3
 10
108.460797227919
 20
109.720241993664
 30
0.0
 11
108.460797227919
 21
113.920241922138
 31
0.0
  0
LINE
  5
   4CD
  8
0
  6
CONTINUOUS
 62
     3
 10
109.09079721719
 20
113.920241922138
 30
0.0
 11
108.460797227919
 21
113.920241922138
 31
0.0
  0
LINE
  5
   4CE
  8
0
  6
CONTINUOUS
 62
     3
 10
109.09079721719
 20
109.720241993664
 30
0.0
 11
108.460797227919
 21
109.720241993664
 31
0.0
  0
LINE
  5
   4CF
  8
0
  6
CONTINUOUS
 62
     3
 10
110.350797195733
 20
109.720241993664
 30
0.0
 11
109.720797206461
 21
109.720241993664
 31
0.0
  0
LINE
  5
   4D0
  8
0
  6
CONTINUOUS
 62
     3
 10
111.610797174275
 20
109.720241993664
 30
0.0
 11
110.980797185004
 21
109.720241993664
 31
0.0
  0
LINE
  5
   4D1
  8
0
  6
CONTINUOUS
 62
     3
 10
112.870797152817
 20
109.720241993664
 30
0.0
 11
112.240797163546
 21
109.720241993664
 31
0.0
  0
LINE
  5
   4D2
  8
0
  6
CONTINUOUS
 62
     3
 10
114.13079713136
 20
109.720241993664
 30
0.0
 11
113.500797142088
 21
109.720241993664
 31
0.0
  0
LINE
  5
   4D3
  8
0
  6
CONTINUOUS
 62
     3
 10
116.650797088444
 20
109.720241993664
 30
0.0
 11
116.020797099173
 21
109.720241993664
 31
0.0
  0
LINE
  5
   4D4
  8
0
  6
CONTINUOUS
 62
     3
 10
117.910797066987
 20
109.720241993664
 30
0.0
 11
117.280797077715
 21
109.720241993664
 31
0.0
  0
LINE
  5
   4D5
  8
0
  6
CONTINUOUS
 62
     3
 10
119.170797045529
 20
109.720241993664
 30
0.0
 11
118.540797056258
 21
109.720241993664
 31
0.0
  0
LINE
  5
   4D6
  8
0
  6
CONTINUOUS
 62
     3
 10
120.430797024071
 20
109.720241993664
 30
0.0
 11
119.8007970348
 21
109.720241993664
 31
0.0
  0
LINE
  5
   4D7
  8
0
  6
CONTINUOUS
 62
     3
 10
145.000796605647
 20
109.720241993664
 30
0.0
 11
145.000796605647
 21
113.920241922138
 31
0.0
  0
LINE
  5
   4D8
  8
0
  6
CONTINUOUS
 62
     3
 10
145.000796605647
 20
109.720241993664
 30
0.0
 11
144.370796616375
 21
109.720241993664
 31
0.0
  0
LINE
  5
   4D9
  8
0
  6
CONTINUOUS
 62
     3
 10
143.740796627104
 20
109.720241993664
 30
0.0
 11
143.110796637833
 21
109.720241993664
 31
0.0
  0
LINE
  5
   4DA
  8
0
  6
CONTINUOUS
 62
     3
 10
142.480796648562
 20
109.720241993664
 30
0.0
 11
141.850796659291
 21
109.720241993664
 31
0.0
  0
LINE
  5
   4DB
  8
0
  6
CONTINUOUS
 62
     3
 10
141.22079667002
 20
109.720241993664
 30
0.0
 11
140.590796680749
 21
109.720241993664
 31
0.0
  0
LINE
  5
   4DC
  8
0
  6
CONTINUOUS
 62
     3
 10
138.700796712935
 20
109.720241993664
 30
0.0
 11
138.070796723664
 21
109.720241993664
 31
0.0
  0
LINE
  5
   4DD
  8
0
  6
CONTINUOUS
 62
     3
 10
137.440796734393
 20
109.720241993664
 30
0.0
 11
136.810796745122
 21
109.720241993664
 31
0.0
  0
LINE
  5
   4DE
  8
0
  6
CONTINUOUS
 62
     3
 10
136.18079675585
 20
109.720241993664
 30
0.0
 11
135.550796766579
 21
109.720241993664
 31
0.0
  0
LINE
  5
   4DF
  8
0
  6
CONTINUOUS
 62
     3
 10
134.920796777308
 20
109.720241993664
 30
0.0
 11
134.290796788037
 21
109.720241993664
 31
0.0
  0
LINE
  5
   4E0
  8
0
  6
CONTINUOUS
 62
     3
 10
133.660796798766
 20
109.720241993664
 30
0.0
 11
133.030796809495
 21
109.720241993664
 31
0.0
  0
LINE
  5
   4E1
  8
0
  6
CONTINUOUS
 62
     3
 10
133.660796798766
 20
113.920241922138
 30
0.0
 11
133.030796809495
 21
113.920241922138
 31
0.0
  0
LINE
  5
   4E2
  8
0
  6
CONTINUOUS
 62
     3
 10
133.030796809495
 20
109.720241993664
 30
0.0
 11
133.030796809495
 21
113.920241922138
 31
0.0
  0
LINE
  5
   4E3
  8
0
  6
CONTINUOUS
 62
     3
 10
145.000796605647
 20
113.920241922138
 30
0.0
 11
144.370796616375
 21
113.920241922138
 31
0.0
  0
LINE
  5
   4E4
  8
0
  6
CONTINUOUS
 62
     3
 10
143.740796627104
 20
113.920241922138
 30
0.0
 11
143.110796637833
 21
113.920241922138
 31
0.0
  0
LINE
  5
   4E5
  8
0
  6
CONTINUOUS
 62
     3
 10
142.480796648562
 20
113.920241922138
 30
0.0
 11
141.850796659291
 21
113.920241922138
 31
0.0
  0
LINE
  5
   4E6
  8
0
  6
CONTINUOUS
 62
     3
 10
141.22079667002
 20
113.920241922138
 30
0.0
 11
140.590796680749
 21
113.920241922138
 31
0.0
  0
LINE
  5
   4E7
  8
0
  6
CONTINUOUS
 62
     3
 10
134.920796777308
 20
113.920241922138
 30
0.0
 11
134.290796788037
 21
113.920241922138
 31
0.0
  0
LINE
  5
   4E8
  8
0
  6
CONTINUOUS
 62
     3
 10
136.18079675585
 20
113.920241922138
 30
0.0
 11
135.550796766579
 21
113.920241922138
 31
0.0
  0
LINE
  5
   4E9
  8
0
  6
CONTINUOUS
 62
     3
 10
137.440796734393
 20
113.920241922138
 30
0.0
 11
136.810796745122
 21
113.920241922138
 31
0.0
  0
LINE
  5
   4EA
  8
0
  6
CONTINUOUS
 62
     3
 10
138.700796712935
 20
112.695241943
 30
0.0
 11
138.070796723664
 21
112.695241943
 31
0.0
  0
LINE
  5
   4EB
  8
0
  6
CONTINUOUS
 62
     3
 10
139.960796691477
 20
112.695241943
 30
0.0
 11
139.330796702206
 21
112.695241943
 31
0.0
  0
LINE
  5
   4EC
  8
0
  6
CONTINUOUS
 62
     3
 10
139.960796691477
 20
109.720241993664
 30
0.0
 11
139.330796702206
 21
109.720241993664
 31
0.0
  0
LINE
  5
   4ED
  8
0
  6
CONTINUOUS
 62
     3
 10
133.660796798766
 20
109.720241993664
 30
0.0
 11
133.660796798766
 21
113.920241922138
 31
0.0
  0
LINE
  5
   4EE
  8
0
  6
CONTINUOUS
 62
     3
 10
134.290796788037
 20
109.720241993664
 30
0.0
 11
134.290796788037
 21
113.920241922138
 31
0.0
  0
LINE
  5
   4EF
  8
0
  6
CONTINUOUS
 62
     3
 10
134.920796777308
 20
109.720241993664
 30
0.0
 11
134.920796777308
 21
113.920241922138
 31
0.0
  0
LINE
  5
   4F0
  8
0
  6
CONTINUOUS
 62
     3
 10
135.550796766579
 20
109.720241993664
 30
0.0
 11
135.550796766579
 21
113.920241922138
 31
0.0
  0
LINE
  5
   4F1
  8
0
  6
CONTINUOUS
 62
     3
 10
136.18079675585
 20
109.720241993664
 30
0.0
 11
136.18079675585
 21
113.920241922138
 31
0.0
  0
LINE
  5
   4F2
  8
0
  6
CONTINUOUS
 62
     3
 10
136.810796745122
 20
109.720241993664
 30
0.0
 11
136.810796745122
 21
113.920241922138
 31
0.0
  0
LINE
  5
   4F3
  8
0
  6
CONTINUOUS
 62
     3
 10
137.440796734393
 20
109.720241993664
 30
0.0
 11
137.440796734393
 21
113.920241922138
 31
0.0
  0
LINE
  5
   4F4
  8
0
  6
CONTINUOUS
 62
     3
 10
138.070796723664
 20
109.720241993664
 30
0.0
 11
138.070796723664
 21
112.695241943
 31
0.0
  0
LINE
  5
   4F5
  8
0
  6
CONTINUOUS
 62
     3
 10
138.700796712935
 20
109.720241993664
 30
0.0
 11
138.700796712935
 21
112.695241943
 31
0.0
  0
LINE
  5
   4F6
  8
0
  6
CONTINUOUS
 62
     3
 10
145.000796605647
 20
109.720241993664
 30
0.0
 11
145.000796605647
 21
113.920241922138
 31
0.0
  0
LINE
  5
   4F7
  8
0
  6
CONTINUOUS
 62
     3
 10
144.370796616375
 20
109.720241993664
 30
0.0
 11
144.370796616375
 21
113.920241922138
 31
0.0
  0
LINE
  5
   4F8
  8
0
  6
CONTINUOUS
 62
     3
 10
143.740796627104
 20
109.720241993664
 30
0.0
 11
143.740796627104
 21
113.920241922138
 31
0.0
  0
LINE
  5
   4F9
  8
0
  6
CONTINUOUS
 62
     3
 10
143.110796637833
 20
109.720241993664
 30
0.0
 11
143.110796637833
 21
113.920241922138
 31
0.0
  0
LINE
  5
   4FA
  8
0
  6
CONTINUOUS
 62
     3
 10
142.480796648562
 20
109.720241993664
 30
0.0
 11
142.480796648562
 21
113.920241922138
 31
0.0
  0
LINE
  5
   4FB
  8
0
  6
CONTINUOUS
 62
     3
 10
141.850796659291
 20
109.720241993664
 30
0.0
 11
141.850796659291
 21
113.920241922138
 31
0.0
  0
LINE
  5
   4FC
  8
0
  6
CONTINUOUS
 62
     3
 10
141.22079667002
 20
109.720241993664
 30
0.0
 11
141.22079667002
 21
113.920241922138
 31
0.0
  0
LINE
  5
   4FD
  8
0
  6
CONTINUOUS
 62
     3
 10
140.590796680749
 20
109.720241993664
 30
0.0
 11
140.590796680749
 21
113.920241922138
 31
0.0
  0
LINE
  5
   4FE
  8
0
  6
CONTINUOUS
 62
     3
 10
139.960796691477
 20
109.020217472315
 30
0.0
 11
139.960796691477
 21
156.270235690617
 31
0.0
  0
LINE
  5
   4FF
  8
0
  6
CONTINUOUS
 62
     3
 10
139.330796702206
 20
109.720241993664
 30
0.0
 11
139.330796702206
 21
112.695241943
 31
0.0
  0
LINE
  5
   500
  8
0
  6
CONTINUOUS
 62
     3
 10
96.0357974395156
 20
109.720241993664
 30
0.0
 11
95.4057974502444
 21
109.720241993664
 31
0.0
  0
LINE
  5
   501
  8
0
  6
CONTINUOUS
 62
     3
 10
94.7757974609733
 20
109.720241993664
 30
0.0
 11
94.1457974717021
 21
109.720241993664
 31
0.0
  0
LINE
  5
   502
  8
0
  6
CONTINUOUS
 62
     3
 10
93.515797482431
 20
109.720241993664
 30
0.0
 11
92.8857974931598
 21
109.720241993664
 31
0.0
  0
LINE
  5
   503
  8
0
  6
CONTINUOUS
 62
     3
 10
92.2557975038886
 20
109.720241993664
 30
0.0
 11
91.6257975146175
 21
109.720241993664
 31
0.0
  0
LINE
  5
   504
  8
0
  6
CONTINUOUS
 62
     3
 10
89.735797546804
 20
109.720241993664
 30
0.0
 11
89.1057975575328
 21
109.720241993664
 31
0.0
  0
LINE
  5
   505
  8
0
  6
CONTINUOUS
 62
     3
 10
88.4757975682616
 20
109.720241993664
 30
0.0
 11
87.8457975789905
 21
109.720241993664
 31
0.0
  0
LINE
  5
   506
  8
0
  6
CONTINUOUS
 62
     3
 10
87.2157975897193
 20
109.720241993664
 30
0.0
 11
86.5857976004482
 21
109.720241993664
 31
0.0
  0
LINE
  5
   507
  8
0
  6
CONTINUOUS
 62
     3
 10
85.955797611177
 20
109.720241993664
 30
0.0
 11
85.3257976219058
 21
109.720241993664
 31
0.0
  0
LINE
  5
   508
  8
0
  6
CONTINUOUS
 62
     3
 10
84.6957976326347
 20
109.720241993664
 30
0.0
 11
84.0657976433635
 21
109.720241993664
 31
0.0
  0
LINE
  5
   509
  8
0
  6
CONTINUOUS
 62
     3
 10
84.6957976326347
 20
113.920241922138
 30
0.0
 11
84.0657976433635
 21
113.920241922138
 31
0.0
  0
LINE
  5
   50A
  8
0
  6
CONTINUOUS
 62
     3
 10
84.0657976433635
 20
109.720241993664
 30
0.0
 11
84.0657976433635
 21
113.920241922138
 31
0.0
  0
LINE
  5
   50B
  8
0
  6
CONTINUOUS
 62
     3
 10
96.0357974395156
 20
113.920241922138
 30
0.0
 11
95.4057974502444
 21
113.920241922138
 31
0.0
  0
LINE
  5
   50C
  8
0
  6
CONTINUOUS
 62
     3
 10
94.7757974609733
 20
113.920241922138
 30
0.0
 11
94.1457974717021
 21
113.920241922138
 31
0.0
  0
LINE
  5
   50D
  8
0
  6
CONTINUOUS
 62
     3
 10
93.515797482431
 20
113.920241922138
 30
0.0
 11
92.8857974931598
 21
113.920241922138
 31
0.0
  0
LINE
  5
   50E
  8
0
  6
CONTINUOUS
 62
     3
 10
92.2557975038886
 20
113.920241922138
 30
0.0
 11
91.6257975146175
 21
113.920241922138
 31
0.0
  0
LINE
  5
   50F
  8
0
  6
CONTINUOUS
 62
     3
 10
85.955797611177
 20
113.920241922138
 30
0.0
 11
85.3257976219058
 21
113.920241922138
 31
0.0
  0
LINE
  5
   510
  8
0
  6
CONTINUOUS
 62
     3
 10
87.2157975897193
 20
113.920241922138
 30
0.0
 11
86.5857976004482
 21
113.920241922138
 31
0.0
  0
LINE
  5
   511
  8
0
  6
CONTINUOUS
 62
     3
 10
88.4757975682616
 20
113.920241922138
 30
0.0
 11
87.8457975789905
 21
113.920241922138
 31
0.0
  0
LINE
  5
   512
  8
0
  6
CONTINUOUS
 62
     3
 10
89.735797546804
 20
112.695241943
 30
0.0
 11
89.1057975575328
 21
112.695241943
 31
0.0
  0
LINE
  5
   513
  8
0
  6
CONTINUOUS
 62
     3
 10
90.9957975253463
 20
112.695241943
 30
0.0
 11
90.3657975360751
 21
112.695241943
 31
0.0
  0
LINE
  5
   514
  8
0
  6
CONTINUOUS
 62
     3
 10
90.9957975253463
 20
109.720241993664
 30
0.0
 11
90.3657975360751
 21
109.720241993664
 31
0.0
  0
LINE
  5
   515
  8
0
  6
CONTINUOUS
 62
     3
 10
84.6957976326347
 20
109.720241993664
 30
0.0
 11
84.6957976326347
 21
113.920241922138
 31
0.0
  0
LINE
  5
   516
  8
0
  6
CONTINUOUS
 62
     3
 10
85.3257976219058
 20
109.720241993664
 30
0.0
 11
85.3257976219058
 21
113.920241922138
 31
0.0
  0
LINE
  5
   517
  8
0
  6
CONTINUOUS
 62
     3
 10
85.955797611177
 20
109.720241993664
 30
0.0
 11
85.955797611177
 21
113.920241922138
 31
0.0
  0
LINE
  5
   518
  8
0
  6
CONTINUOUS
 62
     3
 10
86.5857976004482
 20
109.720241993664
 30
0.0
 11
86.5857976004482
 21
113.920241922138
 31
0.0
  0
LINE
  5
   519
  8
0
  6
CONTINUOUS
 62
     3
 10
87.2157975897193
 20
109.720241993664
 30
0.0
 11
87.2157975897193
 21
113.920241922138
 31
0.0
  0
LINE
  5
   51A
  8
0
  6
CONTINUOUS
 62
     3
 10
87.8457975789905
 20
109.720241993664
 30
0.0
 11
87.8457975789905
 21
113.920241922138
 31
0.0
  0
LINE
  5
   51B
  8
0
  6
CONTINUOUS
 62
     3
 10
88.4757975682616
 20
109.720241993664
 30
0.0
 11
88.4757975682616
 21
113.920241922138
 31
0.0
  0
LINE
  5
   51C
  8
0
  6
CONTINUOUS
 62
     3
 10
89.1057975575328
 20
109.720241993664
 30
0.0
 11
89.1057975575328
 21
112.695241943
 31
0.0
  0
LINE
  5
   51D
  8
0
  6
CONTINUOUS
 62
     3
 10
89.735797546804
 20
109.020216653275
 30
0.0
 11
89.735797546804
 21
112.695241943
 31
0.0
  0
LINE
  5
   51E
  8
0
  6
CONTINUOUS
 62
     3
 10
96.0357974395156
 20
109.720241993664
 30
0.0
 11
96.0357974395156
 21
113.920241922138
 31
0.0
  0
LINE
  5
   51F
  8
0
  6
CONTINUOUS
 62
     3
 10
95.4057974502444
 20
109.720241993664
 30
0.0
 11
95.4057974502444
 21
113.920241922138
 31
0.0
  0
LINE
  5
   520
  8
0
  6
CONTINUOUS
 62
     3
 10
94.7757974609733
 20
109.720241993664
 30
0.0
 11
94.7757974609733
 21
113.920241922138
 31
0.0
  0
LINE
  5
   521
  8
0
  6
CONTINUOUS
 62
     3
 10
94.1457974717021
 20
109.720241993664
 30
0.0
 11
94.1457974717021
 21
113.920241922138
 31
0.0
  0
LINE
  5
   522
  8
0
  6
CONTINUOUS
 62
     3
 10
93.515797482431
 20
109.720241993664
 30
0.0
 11
93.515797482431
 21
113.920241922138
 31
0.0
  0
LINE
  5
   523
  8
0
  6
CONTINUOUS
 62
     3
 10
92.8857974931598
 20
109.720241993664
 30
0.0
 11
92.8857974931598
 21
113.920241922138
 31
0.0
  0
LINE
  5
   524
  8
0
  6
CONTINUOUS
 62
     3
 10
92.2557975038886
 20
109.720241993664
 30
0.0
 11
92.2557975038886
 21
113.920241922138
 31
0.0
  0
LINE
  5
   525
  8
0
  6
CONTINUOUS
 62
     3
 10
91.6257975146175
 20
109.720241993664
 30
0.0
 11
91.6257975146175
 21
113.920241922138
 31
0.0
  0
LINE
  5
   526
  8
0
  6
CONTINUOUS
 62
     3
 10
90.9957975253463
 20
109.720241993664
 30
0.0
 11
90.9957975253463
 21
112.695241943
 31
0.0
  0
LINE
  5
   527
  8
0
  6
CONTINUOUS
 62
     3
 10
90.3657975360751
 20
109.720241993664
 30
0.0
 11
90.3657975360751
 21
112.695241943
 31
0.0
  0
LINE
  5
   528
  8
0
  6
CONTINUOUS
 62
     3
 10
151.598304283663
 20
23.7252271693967
 30
0.0
 11
151.598304283663
 21
108.075242021678
 31
0.0
  0
LINE
  5
   529
  8
0
  6
CONTINUOUS
 62
     3
 10
151.598304283663
 20
23.7252271693967
 30
0.0
 11
150.723275217771
 21
23.7252271693967
 31
0.0
  0
LINE
  5
   52A
  8
0
  6
CONTINUOUS
 62
     1
 10
146.260799033984
 20
108.425242015717
 30
0.0
 11
146.260799033984
 21
156.270235690617
 31
0.0
  0
LINE
  5
   52B
  8
0
  6
CONTINUOUS
 62
     1
 10
151.598304283663
 20
31.3202273070849
 30
0.0
 11
53.5983059525932
 21
31.3202273070849
 31
0.0
  0
LINE
  5
   52C
  8
0
  6
CONTINUOUS
 62
     7
 10
151.160804291114
 20
46.3702270507812
 30
0.0
 11
151.160804291114
 21
46.7202270239591
 31
0.0
  0
LINE
  5
   52D
  8
0
  6
CONTINUOUS
 62
     7
 10
151.598304283663
 20
46.7202270239591
 30
0.0
 11
151.160804291114
 21
46.7202270239591
 31
0.0
  0
LINE
  5
   52E
  8
0
  6
CONTINUOUS
 62
     7
 10
151.598304283663
 20
46.3702270507812
 30
0.0
 11
151.160804291114
 21
46.3702270507812
 31
0.0
  0
LINE
  5
   52F
  8
0
  6
CONTINUOUS
 62
     1
 10
142.480803370818
 20
31.3202273070849
 30
0.0
 11
142.480803370818
 21
46.3702270507812
 31
0.0
  0
LINE
  5
   530
  8
0
  6
CONTINUOUS
 62
     1
 10
143.740800145015
 20
31.3202273070849
 30
0.0
 11
143.740800145015
 21
46.3702270507812
 31
0.0
  0
LINE
  5
   531
  8
0
  6
CONTINUOUS
 62
     1
 10
145.000802259787
 20
31.3202273070849
 30
0.0
 11
145.000802259787
 21
46.3702270507812
 31
0.0
  0
LINE
  5
   532
  8
0
  6
CONTINUOUS
 62
     1
 10
146.260799033984
 20
31.3202273070849
 30
0.0
 11
146.260799033984
 21
46.3702270507812
 31
0.0
  0
LINE
  5
   533
  8
0
  6
CONTINUOUS
 62
     1
 10
147.520801148757
 20
31.3202273070849
 30
0.0
 11
147.520801148757
 21
46.3702270507812
 31
0.0
  0
LINE
  5
   534
  8
0
  6
CONTINUOUS
 62
     1
 10
148.78080326353
 20
31.3202273070849
 30
0.0
 11
148.78080326353
 21
46.3702270507812
 31
0.0
  0
LINE
  5
   535
  8
0
  6
CONTINUOUS
 62
     1
 10
150.040800037726
 20
31.3202273070849
 30
0.0
 11
150.040800037726
 21
46.3702270507812
 31
0.0
  0
LINE
  5
   536
  8
0
  6
CONTINUOUS
 62
     1
 10
150.845801092133
 20
31.3202273070849
 30
0.0
 11
150.845801092133
 21
46.3702270507812
 31
0.0
  0
LINE
  5
   537
  8
0
  6
CONTINUOUS
 62
     1
 10
79.6558054420794
 20
31.3202273070849
 30
0.0
 11
79.6558054420794
 21
46.3702270507812
 31
0.0
  0
LINE
  5
   538
  8
0
  6
CONTINUOUS
 62
     1
 10
80.9158052203501
 20
31.3202273070849
 30
0.0
 11
80.9158052203501
 21
46.3702270507812
 31
0.0
  0
LINE
  5
   539
  8
0
  6
CONTINUOUS
 62
     1
 10
82.1758053324069
 20
31.3202273070849
 30
0.0
 11
82.1758053324069
 21
46.3702270507812
 31
0.0
  0
LINE
  5
   53A
  8
0
  6
CONTINUOUS
 62
     1
 10
83.4358054444636
 20
31.3202273070849
 30
0.0
 11
83.4358054444636
 21
46.3702270507812
 31
0.0
  0
LINE
  5
   53B
  8
0
  6
CONTINUOUS
 62
     1
 10
84.6958022186603
 20
31.3202273070849
 30
0.0
 11
84.6958022186603
 21
46.3702270507812
 31
0.0
  0
LINE
  5
   53C
  8
0
  6
CONTINUOUS
 62
     1
 10
85.9558043334331
 20
31.3202273070849
 30
0.0
 11
85.9558043334331
 21
46.3702270507812
 31
0.0
  0
LINE
  5
   53D
  8
0
  6
CONTINUOUS
 62
     1
 10
87.2158011076297
 20
31.3202273070849
 30
0.0
 11
87.2158011076297
 21
46.3702270507812
 31
0.0
  0
LINE
  5
   53E
  8
0
  6
CONTINUOUS
 62
     1
 10
88.4758010861721
 20
31.3202273070849
 30
0.0
 11
88.4758010861721
 21
40.4739058869414
 31
0.0
  0
LINE
  5
   53F
  8
0
  6
CONTINUOUS
 62
     1
 10
89.7358010647144
 20
31.3202273070849
 30
0.0
 11
89.7358010647144
 21
40.4202159702797
 31
0.0
  0
LINE
  5
   540
  8
0
  6
CONTINUOUS
 62
     1
 10
141.220803392276
 20
31.3202273070849
 30
0.0
 11
141.220803392276
 21
40.4739205845897
 31
0.0
  0
LINE
  5
   541
  8
0
  6
CONTINUOUS
 62
     1
 10
139.960803413733
 20
31.3202273070849
 30
0.0
 11
139.960803413733
 21
40.4202159702797
 31
0.0
  0
CIRCLE
  5
   542
  8
0
  6
CONTINUOUS
 62
     3
 10
127.098214011438
 20
111.120236629246
 30
0.0
 40
1.39999997615814
  0
LINE
  5
   543
  8
0
  6
DASHDOT
 62
     7
 10
102.598285947754
 20
25.6327496578416
 30
0.0
 11
102.598285947754
 21
30.7077301599721
 31
0.0
  0
LINE
  5
   544
  8
0
  6
DASHDOT
 62
     7
 10
105.135776198819
 20
28.1702399089068
 30
0.0
 11
100.060795696689
 21
28.1702399089068
 31
0.0
  0
LINE
  5
   545
  8
0
  6
DASHDOT
 62
     7
 10
114.848297119141
 20
2.76970487412569
 30
0.0
 11
114.848297119141
 21
9.15538633913888
 31
0.0
  0
LINE
  5
   546
  8
0
  6
CONTINUOUS
 62
     1
 10
88.248300242424
 20
108.425242015717
 30
0.0
 11
54.0358059451426
 21
108.425242015717
 31
0.0
  0
LINE
  5
   547
  8
0
  6
CONTINUOUS
 62
     1
 10
88.248300242424
 20
108.075242021678
 30
0.0
 11
54.0358059451426
 21
108.075242021678
 31
0.0
  0
LINE
  5
   548
  8
0
  6
CONTINUOUS
 62
     1
 10
88.248300242424
 20
107.970236513161
 30
0.0
 11
53.5983059525932
 21
107.970236513161
 31
0.0
  0
LINE
  5
   549
  8
0
  6
CONTINUOUS
 62
     1
 10
102.598214428671
 20
155.832770471401
 30
0.0
 11
102.598214428671
 21
163.007770349212
 31
0.0
  0
LINE
  5
   54A
  8
0
  6
CONTINUOUS
 62
     1
 10
78.0982148459031
 20
155.832770471401
 30
0.0
 11
78.0982148459031
 21
163.007770349212
 31
0.0
  0
TEXT
  5
   54B
  8
0
  6
CONTINUOUS
 62
     7
 10
113.780513129764
 20
183.624137955494
 30
0.0
 40
2.99999997871263
  1
Y
 50
359.999999948034
 41
0.91666663951344
 72
     1
 11
114.880513098973
 21
185.124137943858
 31
0.0
 73
     2
  0
TEXT
  5
   54C
  8
0
  6
CONTINUOUS
 62
     7
 10
37.3675957334974
 20
73.1730821041192
 30
0.0
 40
2.99999997871263
  1
X
 50
359.999999948034
 41
0.91666663951344
 72
     1
 11
38.4675957027063
 21
74.6730820924834
 31
0.0
 73
     2
  0
TEXT
  5
   54D
  8
0
  6
CONTINUOUS
 62
     7
 10
172.992036581964
 20
73.2736750511605
 30
0.0
 40
2.99999997871263
  1
X
 50
359.999999948034
 41
0.91666663951344
 72
     1
 11
174.092036551173
 21
74.7736750395246
 31
0.0
 73
     2
  0
TEXT
  5
   54E
  8
0
  6
CONTINUOUS
 62
     7
 10
114.394412282527
 20
-0.832475953708425
 30
0.0
 40
2.99999997871263
  1
Y
 50
359.999999948034
 41
0.91666663951344
 72
     2
 11
116.59441221824
 21
-0.832475955692704
 31
0.0
  0
INSERT
  5
   54F
  8
0
  6
CONTINUOUS
 62
     7
  2
*UDIM74
 10
0.0
 20
0.0
 30
0.0
  0
INSERT
  5
   550
  8
0
  6
CONTINUOUS
 62
     7
  2
*UDIM75
 10
0.0
 20
0.0
 30
0.0
  0
INSERT
  5
   551
  8
0
  6
CONTINUOUS
 62
     7
  2
*UDIM76
 10
0.0
 20
0.0
 30
0.0
  0
INSERT
  5
   552
  8
0
  6
CONTINUOUS
 62
     7
  2
*UDIM77
 10
0.0
 20
0.0
 30
0.0
  0
INSERT
  5
   553
  8
0
  6
CONTINUOUS
 62
     7
  2
*UDIM78
 10
0.0
 20
0.0
 30
0.0
  0
INSERT
  5
   554
  8
0
  6
CONTINUOUS
 62
     7
  2
*UDIM79
 10
0.0
 20
0.0
 30
0.0
  0
INSERT
  5
   555
  8
0
  6
CONTINUOUS
 62
     7
  2
*UDIM80
 10
0.0
 20
0.0
 30
0.0
  0
INSERT
  5
   556
  8
0
  6
CONTINUOUS
 62
     7
  2
*UDIM81
 10
0.0
 20
0.0
 30
0.0
  0
INSERT
  5
   557
  8
0
  6
CONTINUOUS
 62
     7
  2
*UDIM82
 10
0.0
 20
0.0
 30
0.0
  0
INSERT
  5
   558
  8
0
  6
CONTINUOUS
 62
     7
  2
*UDIM83
 10
0.0
 20
0.0
 30
0.0
  0
LINE
  5
   559
  8
0
  6
DASHDOT
 62
   130
 10
197.246673598886
 20
47.0702484011649
 30
0.0
 11
197.246673598886
 21
123.807851573286
 31
0.0
  0
LINE
  5
   55A
  8
0
  6
CONTINUOUS
 62
     3
 10
197.596673634648
 20
75.2452479213475
 30
0.0
 11
197.596673634648
 21
79.7952478438615
 31
0.0
  0
LINE
  5
   55B
  8
0
  6
CONTINUOUS
 62
   130
 10
197.246673932672
 20
161.170246458054
 30
0.0
 11
198.121673583984
 21
161.170246458054
 31
0.0
  0
LINE
  5
   55C
  8
0
  6
CONTINUOUS
 62
   130
 10
197.246673932672
 20
157.670241177082
 30
0.0
 11
198.121673583984
 21
157.670241177082
 31
0.0
  0
LINE
  5
   55D
  8
0
  6
CONTINUOUS
 62
   130
 10
197.246673932672
 20
157.670241177082
 30
0.0
 11
197.246673932672
 21
158.138075641771
 31
0.0
  0
LINE
  5
   55E
  8
0
  6
CONTINUOUS
 62
   130
 10
197.246673932672
 20
158.138107685228
 30
0.0
 11
197.246673932672
 21
158.742949288697
 31
0.0
  0
LINE
  5
   55F
  8
0
  6
CONTINUOUS
 62
   130
 10
197.246673932672
 20
158.742992013305
 30
0.0
 11
197.246673932672
 21
161.170246124268
 31
0.0
  0
LINE
  5
   560
  8
0
  6
CONTINUOUS
 62
     3
 10
197.771673589945
 20
47.0702480673789
 30
0.0
 11
198.121673563123
 21
47.0702480673789
 31
0.0
  0
LINE
  5
   561
  8
0
  6
CONTINUOUS
 62
     3
 10
197.771673589945
 20
75.4924418258292
 30
0.0
 11
197.771673589945
 21
79.7952478438615
 31
0.0
  0
LINE
  5
   562
  8
0
  6
CONTINUOUS
 62
   130
 10
197.771673589945
 20
152.595246610828
 30
0.0
 11
198.121673583984
 21
152.595241270252
 31
0.0
  0
LINE
  5
   563
  8
0
  6
CONTINUOUS
 62
   130
 10
198.121672949357
 20
152.805997561227
 30
0.0
 11
198.12167363779
 21
152.595231726198
 31
0.0
  0
LINE
  5
   564
  8
0
  6
CONTINUOUS
 62
   130
 10
198.121673583984
 20
152.595241263509
 30
0.0
 11
198.121673583984
 21
164.845241054893
 31
0.0
  0
LINE
  5
   565
  8
0
  6
CONTINUOUS
 62
     3
 10
198.121673563123
 20
47.0702480673789
 30
0.0
 11
213.684101581788
 21
47.0702480673789
 31
0.0
  0
LINE
  5
   566
  8
0
  6
CONTINUOUS
 62
     3
 10
197.771672268375
 20
70.0984197241227
 30
0.0
 11
198.121673583984
 21
70.1921990396338
 31
0.0
  0
LINE
  5
   567
  8
0
  6
CONTINUOUS
 62
     3
 10
197.771676167541
 20
75.4924368604958
 30
0.0
 11
200.653479693781
 21
74.7202324607835
 31
0.0
  0
LINE
  5
   568
  8
0
  6
CONTINUOUS
 62
     3
 10
198.996651138662
 20
74.7202324902584
 30
0.0
 11
230.916650595068
 21
74.720247647852
 31
0.0
  0
LINE
  5
   569
  8
0
  6
CONTINUOUS
 62
     3
 10
198.996651138662
 20
70.8702218746382
 30
0.0
 11
230.916650595068
 21
70.870237031379
 31
0.0
  0
LINE
  5
   56A
  8
0
  6
CONTINUOUS
 62
     3
 10
198.121673583984
 20
70.1921817537386
 30
0.0
 11
198.121673583984
 21
75.2452479213475
 31
0.0
  0
LINE
  5
   56B
  8
0
  6
DASHDOT
 62
   130
 10
197.246673598886
 20
21.7673816185916
 30
0.0
 11
197.246673598886
 21
172.107850750742
 31
0.0
  0
LINE
  5
   56C
  8
0
  6
CONTINUOUS
 62
     3
 10
197.246673598886
 20
52.320248311758
 30
0.0
 11
197.771673256159
 21
52.320248311758
 31
0.0
  0
LINE
  5
   56D
  8
0
  6
CONTINUOUS
 62
     3
 10
197.246673710147
 20
47.070248401165
 30
0.0
 11
197.771673701207
 21
47.070248067379
 31
0.0
  0
LINE
  5
   56E
  8
0
  6
CONTINUOUS
 62
     3
 10
213.684093160558
 20
47.0702464743405
 30
0.0
 11
213.871654177533
 21
46.3702468509929
 31
0.0
  0
LINE
  5
   56F
  8
0
  6
CONTINUOUS
 62
     3
 10
213.696667978168
 20
46.3702484130858
 30
0.0
 11
225.071651762724
 21
46.3702484130858
 31
0.0
  0
LINE
  5
   570
  8
0
  6
CONTINUOUS
 62
     3
 10
223.146651795507
 20
70.7827266350391
 30
0.0
 11
223.146651795507
 21
70.8702373147012
 31
0.0
  0
LINE
  5
   571
  8
0
  6
CONTINUOUS
 62
     3
 10
223.146651795507
 20
74.7202479302882
 30
0.0
 11
223.146651795507
 21
74.8077265664938
 31
0.0
  0
LINE
  5
   572
  8
0
  6
CONTINUOUS
 62
     3
 10
223.146651795507
 20
74.8077265664938
 30
0.0
 11
230.916650595068
 21
74.8077265664938
 31
0.0
  0
LINE
  5
   573
  8
0
  6
CONTINUOUS
 62
     3
 10
223.146648396837
 20
70.7827246943282
 30
0.0
 11
230.916650595068
 21
70.7826815815471
 31
0.0
  0
LINE
  5
   574
  8
0
  6
CONTINUOUS
 62
     3
 10
197.596673926711
 20
79.7952478438615
 30
0.0
 11
197.771674257517
 21
79.7952478438615
 31
0.0
  0
LINE
  5
   575
  8
0
  6
CONTINUOUS
 62
     3
 10
197.596673905849
 20
75.2452479213475
 30
0.0
 11
198.121673563123
 21
75.2452479213475
 31
0.0
  0
LINE
  5
   576
  8
0
  6
CONTINUOUS
 62
     3
 10
232.771651631593
 20
46.7202323853971
 30
0.0
 11
232.771651631593
 21
54.332732255757
 31
0.0
  0
LINE
  5
   577
  8
0
  6
CONTINUOUS
 62
     3
 10
232.771651631593
 20
108.425242015719
 30
0.0
 11
232.771651631593
 21
156.270225179196
 31
0.0
  0
LINE
  5
   578
  8
0
  6
CONTINUOUS
 62
     7
 10
231.021651661395
 20
107.97022600174
 30
0.0
 11
232.771651631593
 21
107.97022600174
 31
0.0
  0
LINE
  5
   579
  8
0
  6
CONTINUOUS
 62
     3
 10
231.896667935252
 20
46.3702323913576
 30
0.0
 11
232.421651637553
 21
46.3702323913576
 31
0.0
  0
LINE
  5
   57A
  8
0
  6
CONTINUOUS
 62
     3
 10
233.471651619672
 20
54.332732255757
 30
0.0
 11
233.471651619672
 21
91.0827262893322
 31
0.0
  0
LINE
  5
   57B
  8
0
  6
CONTINUOUS
 62
     3
 10
232.771651631593
 20
54.332732255757
 30
0.0
 11
233.471651619672
 21
54.332732255757
 31
0.0
  0
LINE
  5
   57C
  8
0
  6
CONTINUOUS
 62
     3
 10
232.771651631593
 20
91.0827262893322
 30
0.0
 11
233.471651619672
 21
91.0827262893322
 31
0.0
  0
LINE
  5
   57D
  8
0
  6
CONTINUOUS
 62
     3
 10
224.021651780604
 20
81.1952405217456
 30
0.0
 11
224.021651780604
 21
105.778378964094
 31
0.0
  0
LINE
  5
   57E
  8
0
  6
CONTINUOUS
 62
     3
 10
224.021650938483
 20
81.1952406621034
 30
0.0
 11
225.071651222116
 21
81.0202353486283
 31
0.0
  0
LINE
  5
   57F
  8
0
  6
CONTINUOUS
 62
     3
 10
224.021651447512
 20
81.1952380847065
 30
0.0
 11
224.021651781298
 21
81.3702327413131
 31
0.0
  0
LINE
  5
   580
  8
0
  6
CONTINUOUS
 62
     3
 10
198.121673583984
 20
163.795253167211
 30
0.0
 11
230.916650595068
 21
163.795225672062
 31
0.0
  0
LINE
  5
   581
  8
0
  6
CONTINUOUS
 62
     3
 10
225.071651762723
 20
164.845241054893
 30
0.0
 11
231.721651649474
 21
164.845241054893
 31
0.0
  0
LINE
  5
   582
  8
0
  6
CONTINUOUS
 62
     3
 10
225.071651762723
 20
46.3702484130858
 30
0.0
 11
231.021646320819
 21
46.3702484130858
 31
0.0
  0
LINE
  5
   583
  8
0
  6
CONTINUOUS
 62
     3
 10
225.071651762723
 20
47.0702430605888
 30
0.0
 11
230.916650595068
 21
47.0702430605888
 31
0.0
  0
LINE
  5
   584
  8
0
  6
CONTINUOUS
 62
     3
 10
225.071651762723
 20
46.3702484130858
 30
0.0
 11
225.071651762723
 21
70.7827140132181
 31
0.0
  0
LINE
  5
   585
  8
0
  6
CONTINUOUS
 62
     3
 10
231.721651649474
 20
164.845241054893
 30
0.0
 11
231.896651646494
 21
164.845241054893
 31
0.0
  0
LINE
  5
   586
  8
0
  6
CONTINUOUS
 62
     3
 10
231.896651646494
 20
156.270241200924
 30
0.0
 11
231.896651646494
 21
164.845241054893
 31
0.0
  0
LINE
  5
   587
  8
0
  6
CONTINUOUS
 62
     3
 10
230.916650595068
 20
74.8077265664938
 30
0.0
 11
230.916650595068
 21
163.795225672062
 31
0.0
  0
LINE
  5
   588
  8
0
  6
CONTINUOUS
 62
     3
 10
230.916650595068
 20
47.0702430605888
 30
0.0
 11
230.916650595068
 21
70.7826815815471
 31
0.0
  0
LINE
  5
   589
  8
0
  6
CONTINUOUS
 62
     3
 10
232.421651637553
 20
107.970236682892
 30
0.0
 11
232.771651631593
 21
107.970236682892
 31
0.0
  0
LINE
  5
   58A
  8
0
  6
CONTINUOUS
 62
     3
 10
232.771651631593
 20
91.0827369704844
 30
0.0
 11
233.471651619672
 21
91.0827369704844
 31
0.0
  0
LINE
  5
   58B
  8
0
  6
CONTINUOUS
 62
     3
 10
231.021651661395
 20
46.3702323913576
 30
0.0
 11
231.021651661395
 21
107.97022600174
 31
0.0
  0
LINE
  5
   58C
  8
0
  6
CONTINUOUS
 62
     3
 10
230.916652230542
 20
66.8277274454695
 30
0.0
 11
231.021653293444
 21
66.8092136759159
 31
0.0
  0
LINE
  5
   58D
  8
0
  6
CONTINUOUS
 62
     3
 10
230.916652506937
 20
47.0702484142553
 30
0.0
 11
231.021648227223
 21
47.0011520451384
 31
0.0
  0
LINE
  5
   58E
  8
0
  6
CONTINUOUS
 62
     3
 10
230.916648870562
 20
78.7627307416329
 30
0.0
 11
231.021649933193
 21
78.781246517432
 31
0.0
  0
LINE
  5
   58F
  8
0
  6
CONTINUOUS
 62
     3
 10
230.916649139734
 20
153.407860337838
 30
0.0
 11
231.021644859597
 21
153.363159722135
 31
0.0
  0
LINE
  5
   590
  8
0
  6
CONTINUOUS
 62
     3
 10
230.916654848307
 20
154.932621867277
 30
0.0
 11
231.021650573589
 21
154.977317142693
 31
0.0
  0
LINE
  5
   591
  8
0
  6
CONTINUOUS
 62
     2
 10
197.246673598886
 20
26.420243412256
 30
0.0
 11
197.946668246389
 21
26.420243412256
 31
0.0
  0
LINE
  5
   592
  8
0
  6
CONTINUOUS
 62
     2
 10
197.246673598886
 20
26.420243412256
 30
0.0
 11
197.246673598886
 21
33.2452432960272
 31
0.0
  0
LINE
  5
   593
  8
0
  6
CONTINUOUS
 62
     3
 10
197.246668258309
 20
46.8952430635688
 30
0.0
 11
213.696667978168
 21
46.8952430635688
 31
0.0
  0
LINE
  5
   594
  8
0
  6
CONTINUOUS
 62
     2
 10
231.896667668223
 20
22.7452434748409
 30
0.0
 11
231.896667668223
 21
31.1452379912137
 31
0.0
  0
LINE
  5
   595
  8
0
  6
CONTINUOUS
 62
     3
 10
197.246668258309
 20
21.8175523672665
 30
0.0
 11
197.246668258309
 21
46.8952430635688
 31
0.0
  0
LINE
  5
   596
  8
0
  6
CONTINUOUS
 62
     2
 10
230.916667951942
 20
31.1452379912137
 30
0.0
 11
231.896667668223
 21
31.1452379912137
 31
0.0
  0
LINE
  5
   597
  8
0
  6
CONTINUOUS
 62
     3
 10
230.916667951942
 20
23.7252445262668
 30
0.0
 11
230.916667951942
 21
31.1452379912137
 31
0.0
  0
LINE
  5
   598
  8
0
  6
CONTINUOUS
 62
     3
 10
213.696667978168
 20
46.3702377319335
 30
0.0
 11
213.696667978168
 21
46.8952430635688
 31
0.0
  0
LINE
  5
   599
  8
0
  6
CONTINUOUS
 62
     2
 10
230.916667951942
 20
32.5452379673718
 30
0.0
 11
230.916667951942
 21
46.3702377319335
 31
0.0
  0
LINE
  5
   59A
  8
0
  6
CONTINUOUS
 62
     2
 10
197.946668246389
 20
22.7452434748419
 30
0.0
 11
197.946668246389
 21
26.420243412256
 31
0.0
  0
LINE
  5
   59B
  8
0
  6
CONTINUOUS
 62
     7
 10
232.771667920351
 20
32.5452377976411
 30
0.0
 11
232.771667920351
 21
46.195237565183
 31
0.0
  0
LINE
  5
   59C
  8
0
  6
CONTINUOUS
 62
     7
 10
230.916667951942
 20
46.195237565183
 30
0.0
 11
231.896667935252
 21
46.195237565183
 31
0.0
  0
LINE
  5
   59D
  8
0
  6
CONTINUOUS
 62
     7
 10
230.916667951942
 20
32.5452377976411
 30
0.0
 11
232.771667920351
 21
32.5452377976411
 31
0.0
  0
LINE
  5
   59E
  8
0
  6
CONTINUOUS
 62
     7
 10
231.896667935252
 20
32.5452377976411
 30
0.0
 11
231.896667935252
 21
46.195237565183
 31
0.0
  0
LINE
  5
   59F
  8
0
  6
CONTINUOUS
 62
     3
 10
225.071651762723
 20
74.8077265664938
 30
0.0
 11
225.071651762723
 21
81.0202211201195
 31
0.0
  0
LINE
  5
   5A0
  8
0
  6
CONTINUOUS
 62
     3
 10
230.916650595068
 20
70.870237031379
 30
0.0
 11
230.916650595068
 21
74.720247647852
 31
0.0
  0
LINE
  5
   5A1
  8
0
  6
CONTINUOUS
 62
     3
 10
198.996651138662
 20
70.870237031379
 30
0.0
 11
198.996651138662
 21
74.7202324902584
 31
0.0
  0
LINE
  5
   5A2
  8
0
  6
DASHDOT
 62
     7
 10
196.196668276191
 20
21.6952402512365
 30
0.0
 11
196.196668276191
 21
171.962430069427
 31
0.0
  0
LINE
  5
   5A3
  8
0
  6
CONTINUOUS
 62
     3
 10
198.121673583984
 20
70.1921990396338
 30
0.0
 11
200.652203736369
 21
70.870229021201
 31
0.0
  0
LINE
  5
   5A4
  8
0
  6
CONTINUOUS
 62
     3
 10
198.121673583984
 20
75.2452479213475
 30
0.0
 11
198.121673583984
 21
75.3986559692721
 31
0.0
  0
LINE
  5
   5A5
  8
0
  6
CONTINUOUS
 62
     3
 10
197.771673589945
 20
115.495241895319
 30
0.0
 11
197.771673589945
 21
151.549011530694
 31
0.0
  0
LINE
  5
   5A6
  8
0
  6
CONTINUOUS
 62
     3
 10
197.771673589945
 20
52.320248311758
 30
0.0
 11
197.771673589945
 21
70.0984172594858
 31
0.0
  0
LINE
  5
   5A7
  8
0
  6
CONTINUOUS
 62
     2
 10
230.916667951942
 20
31.1452379912137
 30
0.0
 11
230.916667951942
 21
32.5452379673718
 31
0.0
  0
LINE
  5
   5A8
  8
0
  6
CONTINUOUS
 62
   130
 10
198.121673583984
 20
164.845241054893
 30
0.0
 11
225.071673125029
 21
164.845241054893
 31
0.0
  0
LINE
  5
   5A9
  8
0
  6
DASHDOT
 62
   218
 10
191.014481657811
 20
159.420225125552
 30
0.0
 11
197.674262399164
 21
159.420225125552
 31
0.0
  0
LINE
  5
   5AA
  8
0
  6
CONTINUOUS
 62
     7
 10
194.796668300033
 20
109.720225971937
 30
0.0
 11
194.796668300033
 21
112.520225924254
 31
0.0
  0
LINE
  5
   5AB
  8
0
  6
CONTINUOUS
 62
     7
 10
193.396668323875
 20
110.245225962997
 30
0.0
 11
193.396668323875
 21
111.995225933194
 31
0.0
  0
LINE
  5
   5AC
  8
0
  6
CONTINUOUS
 62
     7
 10
194.796668300033
 20
112.520225924254
 30
0.0
 11
196.196668276191
 21
112.520225924254
 31
0.0
  0
LINE
  5
   5AD
  8
0
  6
CONTINUOUS
 62
     7
 10
194.796668300033
 20
109.720225971937
 30
0.0
 11
196.196668276191
 21
109.720225971937
 31
0.0
  0
LINE
  5
   5AE
  8
0
  6
CONTINUOUS
 62
     7
 10
193.396668323875
 20
111.995225933194
 30
0.0
 11
196.196668276191
 21
111.995225933194
 31
0.0
  0
LINE
  5
   5AF
  8
0
  6
CONTINUOUS
 62
     7
 10
193.396668323875
 20
110.245225962997
 30
0.0
 11
196.196668276191
 21
110.245225962997
 31
0.0
  0
LINE
  5
   5B0
  8
0
  6
CONTINUOUS
 62
     7
 10
194.796668300033
 20
29.5702273368838
 30
0.0
 11
196.196668276191
 21
29.5702273368838
 31
0.0
  0
LINE
  5
   5B1
  8
0
  6
CONTINUOUS
 62
     7
 10
193.396668323875
 20
29.0452273458245
 30
0.0
 11
196.196668276191
 21
29.0452273458245
 31
0.0
  0
LINE
  5
   5B2
  8
0
  6
CONTINUOUS
 62
     7
 10
193.396668323875
 20
27.2952273756268
 30
0.0
 11
196.196668276191
 21
27.2952273756268
 31
0.0
  0
LINE
  5
   5B3
  8
0
  6
CONTINUOUS
 62
     7
 10
194.796668300033
 20
26.7702273845675
 30
0.0
 11
196.196668276191
 21
26.7702273845675
 31
0.0
  0
LINE
  5
   5B4
  8
0
  6
CONTINUOUS
 62
     7
 10
194.796668300033
 20
26.7702273845675
 30
0.0
 11
194.796668300033
 21
29.5702273368838
 31
0.0
  0
LINE
  5
   5B5
  8
0
  6
CONTINUOUS
 62
     7
 10
193.396668323875
 20
27.2952273756268
 30
0.0
 11
193.396668323875
 21
29.0452273458245
 31
0.0
  0
LINE
  5
   5B6
  8
0
  6
CONTINUOUS
 62
     3
 10
232.771651631593
 20
91.0827262893322
 30
0.0
 11
232.771651631593
 21
107.97022600174
 31
0.0
  0
LINE
  5
   5B7
  8
0
  6
CONTINUOUS
 62
     3
 10
231.896651646494
 20
156.270241200924
 30
0.0
 11
232.771651631593
 21
156.270241200924
 31
0.0
  0
LINE
  5
   5B8
  8
0
  6
CONTINUOUS
 62
     7
 10
231.021651661395
 20
108.07524202168
 30
0.0
 11
231.021651661395
 21
164.845241054893
 31
0.0
  0
LINE
  5
   5B9
  8
0
  6
CONTINUOUS
 62
     7
 10
231.021651661395
 20
108.07524202168
 30
0.0
 11
232.421651637553
 21
108.07524202168
 31
0.0
  0
LINE
  5
   5BA
  8
0
  6
CONTINUOUS
 62
     7
 10
231.021651661395
 20
108.425242015719
 30
0.0
 11
232.421651637553
 21
108.425242015719
 31
0.0
  0
LINE
  5
   5BB
  8
0
  6
CONTINUOUS
 62
     3
 10
232.421651637553
 20
107.970236682892
 30
0.0
 11
232.421651637553
 21
108.425242015719
 31
0.0
  0
LINE
  5
   5BC
  8
0
  6
CONTINUOUS
 62
     3
 10
197.771673589945
 20
115.495241895319
 30
0.0
 11
231.021651661395
 21
115.495241895319
 31
0.0
  0
LINE
  5
   5BD
  8
0
  6
CONTINUOUS
 62
     3
 10
225.071651762723
 20
105.870242059232
 30
0.0
 11
225.071651762723
 21
117.070241868497
 31
0.0
  0
LINE
  5
   5BE
  8
0
  6
CONTINUOUS
 62
     3
 10
224.021651780604
 20
117.070241868497
 30
0.0
 11
225.071651762723
 21
117.070241868497
 31
0.0
  0
LINE
  5
   5BF
  8
0
  6
CONTINUOUS
 62
     3
 10
224.021651780604
 20
117.070241868497
 30
0.0
 11
224.021651780604
 21
153.120241254569
 31
0.0
  0
LINE
  5
   5C0
  8
0
  6
CONTINUOUS
 62
     3
 10
224.021651780604
 20
153.120241254569
 30
0.0
 11
225.071651762723
 21
153.120241254569
 31
0.0
  0
LINE
  5
   5C1
  8
0
  6
CONTINUOUS
 62
     3
 10
225.071651762723
 20
153.120241254569
 30
0.0
 11
225.071651762723
 21
164.845241054893
 31
0.0
  0
LINE
  5
   5C2
  8
0
  6
CONTINUOUS
 62
     3
 10
224.021651780604
 20
105.778378964094
 30
0.0
 11
225.071651762723
 21
105.870242059232
 31
0.0
  0
LINE
  5
   5C3
  8
0
  6
CONTINUOUS
 62
     7
 10
194.796668300033
 20
160.82022510171
 30
0.0
 11
196.196668276191
 21
160.82022510171
 31
0.0
  0
LINE
  5
   5C4
  8
0
  6
CONTINUOUS
 62
     7
 10
193.396668323875
 20
160.29522511065
 30
0.0
 11
196.196668276191
 21
160.29522511065
 31
0.0
  0
LINE
  5
   5C5
  8
0
  6
CONTINUOUS
 62
     7
 10
193.396668323875
 20
158.545225140453
 30
0.0
 11
193.396668323875
 21
160.29522511065
 31
0.0
  0
LINE
  5
   5C6
  8
0
  6
CONTINUOUS
 62
     7
 10
193.396668323875
 20
158.545225140453
 30
0.0
 11
196.196668276191
 21
158.545225140453
 31
0.0
  0
LINE
  5
   5C7
  8
0
  6
CONTINUOUS
 62
     7
 10
194.796668300033
 20
158.020225149393
 30
0.0
 11
196.196668276191
 21
158.020225149393
 31
0.0
  0
LINE
  5
   5C8
  8
0
  6
CONTINUOUS
 62
     7
 10
194.796668300033
 20
158.020225149393
 30
0.0
 11
194.796668300033
 21
160.82022510171
 31
0.0
  0
LINE
  5
   5C9
  8
0
  6
DASHDOT
 62
   218
 10
191.014481657811
 20
111.120225948096
 30
0.0
 11
197.674262399164
 21
111.120225948096
 31
0.0
  0
LINE
  5
   5CA
  8
0
  6
CONTINUOUS
 62
     3
 10
197.246673932672
 20
112.870247280598
 30
0.0
 11
198.121673583984
 21
112.870247280598
 31
0.0
  0
LINE
  5
   5CB
  8
0
  6
CONTINUOUS
 62
     3
 10
197.246673932672
 20
109.370241999626
 30
0.0
 11
198.121673583984
 21
109.370241999626
 31
0.0
  0
LINE
  5
   5CC
  8
0
  6
CONTINUOUS
 62
     3
 10
198.121673583984
 20
104.295242086053
 30
0.0
 11
198.121673583984
 21
115.495241895319
 31
0.0
  0
LINE
  5
   5CD
  8
0
  6
CONTINUOUS
 62
     3
 10
197.771673589945
 20
104.295247433372
 30
0.0
 11
198.121673583984
 21
104.295242092796
 31
0.0
  0
LINE
  5
   5CE
  8
0
  6
CONTINUOUS
 62
     3
 10
197.771673589945
 20
79.7952478438615
 30
0.0
 11
197.771673589945
 21
104.295247426629
 31
0.0
  0
LINE
  5
   5CF
  8
0
  6
CONTINUOUS
 62
   130
 10
197.771673589945
 20
151.549011530694
 30
0.0
 11
197.771673589945
 21
152.595246604085
 31
0.0
  0
LINE
  5
   5D0
  8
0
  6
CONTINUOUS
 62
     3
 10
231.021651661395
 20
46.7202323853971
 30
0.0
 11
232.421651637553
 21
46.7202323853971
 31
0.0
  0
LINE
  5
   5D1
  8
0
  6
CONTINUOUS
 62
     3
 10
232.421651637553
 20
46.3702323913576
 30
0.0
 11
232.421651637553
 21
46.7202323853971
 31
0.0
  0
LINE
  5
   5D2
  8
0
  6
CONTINUOUS
 62
     3
 10
232.421651637553
 20
108.425242015719
 30
0.0
 11
232.771651631593
 21
108.425242015719
 31
0.0
  0
LINE
  5
   5D3
  8
0
  6
CONTINUOUS
 62
     3
 10
232.421651637553
 20
46.7202323853971
 30
0.0
 11
232.771651631593
 21
46.7202323853971
 31
0.0
  0
LINE
  5
   5D4
  8
0
  6
CONTINUOUS
 62
     3
 10
231.896667935252
 20
46.195237565183
 30
0.0
 11
231.896667935252
 21
46.3702323913576
 31
0.0
  0
LINE
  5
   5D5
  8
0
  6
CONTINUOUS
 62
     7
 10
231.896667935252
 20
46.195237565183
 30
0.0
 11
232.771667920351
 21
46.195237565183
 31
0.0
  0
LINE
  5
   5D6
  8
0
  6
CONTINUOUS
 62
     7
 10
230.916667951942
 20
46.3702375622027
 30
0.0
 11
231.896667935252
 21
46.3702375622027
 31
0.0
  0
LINE
  5
   5D7
  8
0
  6
CONTINUOUS
 62
     3
 10
197.771673589945
 20
115.495241895319
 30
0.0
 11
198.121673583984
 21
115.495241895319
 31
0.0
  0
LINE
  5
   5D8
  8
0
  6
CONTINUOUS
 62
     7
 10
231.021651661395
 20
156.270241200924
 30
0.0
 11
231.896651646494
 21
156.270241200924
 31
0.0
  0
LINE
  5
   5D9
  8
0
  6
CONTINUOUS
 62
     2
 10
197.946668246389
 20
22.7452434748409
 30
0.0
 11
231.896667668223
 21
22.7452434748409
 31
0.0
  0
LINE
  5
   5DA
  8
0
  6
CONTINUOUS
 62
     3
 10
197.946668246389
 20
23.7252445262668
 30
0.0
 11
230.916667951942
 21
23.7252445262668
 31
0.0
  0
LINE
  5
   5DB
  8
0
  6
CONTINUOUS
 62
     1
 10
247.121453088971
 20
109.020228897548
 30
0.0
 11
248.346453068109
 21
109.020225498995
 31
0.0
  0
LINE
  5
   5DC
  8
0
  6
CONTINUOUS
 62
     1
 10
247.121453088971
 20
40.4202300655353
 30
0.0
 11
248.346453068109
 21
40.4202266669823
 31
0.0
  0
LINE
  5
   5DD
  8
0
  6
CONTINUOUS
 62
     1
 10
246.421453100892
 20
50.0452318436898
 30
0.0
 11
248.346453068109
 21
50.0452265031066
 31
0.0
  0
LINE
  5
   5DE
  8
0
  6
CONTINUOUS
 62
     1
 10
246.421453100892
 20
99.3952310034543
 30
0.0
 11
248.346453068109
 21
99.395225662871
 31
0.0
  0
LINE
  5
   5DF
  8
0
  6
CONTINUOUS
 62
     1
 10
246.421453100892
 20
100.095230991536
 30
0.0
 11
247.121453088971
 21
100.095229049506
 31
0.0
  0
LINE
  5
   5E0
  8
0
  6
CONTINUOUS
 62
     1
 10
246.421453100892
 20
49.5202318526372
 30
0.0
 11
247.121453088971
 21
49.5202299106069
 31
0.0
  0
LINE
  5
   5E1
  8
0
  6
CONTINUOUS
 62
     7
 10
246.421452129877
 20
49.170231858599
 30
0.0
 11
247.121452117956
 21
49.1702299165688
 31
0.0
  0
LINE
  5
   5E2
  8
0
  6
CONTINUOUS
 62
     1
 10
246.421454071907
 20
100.445230985574
 30
0.0
 11
247.121454059986
 21
100.445229043544
 31
0.0
  0
LINE
  5
   5E3
  8
0
  6
DASHDOT
 62
     2
 10
193.061572514895
 20
74.7203794614364
 30
0.0
 11
271.89277387119
 21
74.7201607577481
 31
0.0
  0
LINE
  5
   5E4
  8
0
  6
CONTINUOUS
 62
   212
 10
232.771651631593
 20
99.2202688754827
 30
0.0
 11
247.996454045085
 21
99.2202266368717
 31
0.0
  0
LINE
  5
   5E5
  8
0
  6
CONTINUOUS
 62
   212
 10
232.771651631593
 20
50.2202697097591
 30
0.0
 11
247.996452103055
 21
50.2202274711536
 31
0.0
  0
LINE
  5
   5E6
  8
0
  6
CONTINUOUS
 62
   212
 10
248.346453068109
 20
47.6827275143656
 30
0.0
 11
248.346453068109
 21
72.605990288617
 31
0.0
  0
ARC
  5
   5E7
  8
0
  6
CONTINUOUS
 62
   212
 10
247.99645307407
 20
50.5702274651918
 30
0.0
 40
0.349999994039536
 50
269.999841042657
 51
360.0
  0
ARC
  5
   5E8
  8
0
  6
CONTINUOUS
 62
   212
 10
247.99645307407
 20
98.8702266428335
 30
0.0
 40
0.349999994039536
 50
0.0
 51
89.999841042657
  0
LINE
  5
   5E9
  8
0
  6
CONTINUOUS
 62
     7
 10
237.846656885741
 20
50.2202556300248
 30
0.0
 11
237.846656885741
 21
99.2202547957484
 31
0.0
  0
LINE
  5
   5EA
  8
0
  6
CONTINUOUS
 62
     1
 10
246.421453100892
 20
99.2202310064425
 30
0.0
 11
246.421453100892
 21
100.095230991536
 31
0.0
  0
LINE
  5
   5EB
  8
0
  6
CONTINUOUS
 62
     1
 10
247.121453088971
 20
40.4202300655353
 30
0.0
 11
247.121453088971
 21
49.5202299106069
 31
0.0
  0
LINE
  5
   5EC
  8
0
  6
CONTINUOUS
 62
     1
 10
248.346453068109
 20
40.4202266669823
 30
0.0
 11
248.346453068109
 21
109.020225498995
 31
0.0
  0
LINE
  5
   5ED
  8
0
  6
CONTINUOUS
 62
     7
 10
247.121453088971
 20
109.020228897548
 30
0.0
 11
247.121453088971
 21
164.28614635423
 31
0.0
  0
LINE
  5
   5EE
  8
0
  6
CONTINUOUS
 62
     7
 10
247.121453088971
 20
18.1211575827187
 30
0.0
 11
247.121453088971
 21
40.4202300655353
 31
0.0
  0
LINE
  5
   5EF
  8
0
  6
CONTINUOUS
 62
     7
 10
246.421453100892
 20
99.2202310064425
 30
0.0
 11
246.421453100892
 21
164.502082023067
 31
0.0
  0
LINE
  5
   5F0
  8
0
  6
CONTINUOUS
 62
     7
 10
246.421453100892
 20
17.7119885352456
 30
0.0
 11
246.421453100892
 21
50.220231840719
 31
0.0
  0
INSERT
  5
   5F1
  8
0
  6
CONTINUOUS
 62
     7
  2
*HATCH14
 10
198.121673583984
 20
46.3702430725098
 30
0.0
 41
0.349999994039536
 42
0.349999994039536
 43
0.349999994039536
  0
INSERT
  5
   5F2
  8
0
  6
CONTINUOUS
 62
     7
  2
*HATCH15
 10
198.121673583984
 20
46.3702430725098
 30
0.0
 41
0.349999994039536
 42
0.349999994039536
 43
0.349999994039536
  0
LINE
  5
   5F3
  8
0
  6
CONTINUOUS
 62
     7
 10
243.096453825088
 20
99.74523099752
 30
0.0
 11
243.971455812903
 21
99.74523099752
 31
0.0
  0
LINE
  5
   5F4
  8
0
  6
CONTINUOUS
 62
     7
 10
243.096453825088
 20
99.74523099752
 30
0.0
 11
243.096453825088
 21
103.420230934935
 31
0.0
  0
LINE
  5
   5F5
  8
0
  6
CONTINUOUS
 62
     7
 10
244.321455806943
 20
104.645230914074
 30
0.0
 11
245.196455792042
 21
104.645230914074
 31
0.0
  0
LINE
  5
   5F6
  8
0
  6
CONTINUOUS
 62
     7
 10
245.546455786081
 20
104.995230908113
 30
0.0
 11
245.546455786081
 21
107.795230860429
 31
0.0
  0
LINE
  5
   5F7
  8
0
  6
CONTINUOUS
 62
     7
 10
245.546455786081
 20
107.795230860429
 30
0.0
 11
246.421453100892
 21
107.795230860429
 31
0.0
  0
LINE
  5
   5F8
  8
0
  6
CONTINUOUS
 62
     7
 10
244.321455806943
 20
103.770230928975
 30
0.0
 11
245.196455792042
 21
103.770230928975
 31
0.0
  0
LINE
  5
   5F9
  8
0
  6
CONTINUOUS
 62
     7
 10
243.971455812903
 20
99.74523099752
 30
0.0
 11
243.971455812903
 21
103.420230934935
 31
0.0
  0
ARC
  5
   5FA
  8
0
  6
CONTINUOUS
 62
     7
 10
245.19645724359
 20
104.995230673145
 30
0.0
 40
0.349998936269242
 50
269.99984089121
 51
360.00025299209
  0
ARC
  5
   5FB
  8
0
  6
CONTINUOUS
 62
     7
 10
244.32146093567
 20
103.420226494729
 30
0.0
 40
1.2250064377287
 50
90.000186890172
 51
179.999680705376
  0
ARC
  5
   5FC
  8
0
  6
CONTINUOUS
 62
     7
 10
244.321440320091
 20
103.420245248109
 30
0.0
 40
0.349982431475061
 50
89.997764198722
 51
180.00116981594
  0
ARC
  5
   5FD
  8
0
  6
CONTINUOUS
 62
     7
 10
245.196462565375
 20
104.995219691686
 30
0.0
 40
1.22498984871903
 50
269.999653399338
 51
360.000420324806
  0
LINE
  5
   5FE
  8
0
  6
CONTINUOUS
 62
     7
 10
244.496453133675
 20
101.670236305312
 30
0.0
 11
245.196453121754
 21
101.670234363282
 31
0.0
  0
LINE
  5
   5FF
  8
0
  6
CONTINUOUS
 62
     7
 10
245.196453121754
 20
99.2202344049955
 30
0.0
 11
245.196453121754
 21
101.670234363282
 31
0.0
  0
LINE
  5
   600
  8
0
  6
CONTINUOUS
 62
     7
 10
244.496453133675
 20
99.2202344049955
 30
0.0
 11
244.496453133675
 21
101.670234363282
 31
0.0
  0
LINE
  5
   601
  8
0
  6
CONTINUOUS
 62
     1
 10
247.121453088971
 20
100.095229049506
 30
0.0
 11
247.121453088971
 21
109.020228897548
 31
0.0
  0
LINE
  5
   602
  8
0
  6
CONTINUOUS
 62
     7
 10
244.354211690597
 20
165.139783686184
 30
0.0
 11
249.216393232015
 21
163.639900198993
 31
0.0
  0
LINE
  5
   603
  8
0
  6
CONTINUOUS
 62
     7
 10
245.008189324822
 20
16.8858973882021
 30
0.0
 11
249.969889201884
 21
19.7861460269428
 31
0.0
  0
INSERT
  5
   604
  8
0
  6
CONTINUOUS
 62
     7
  2
*HATCH16
 10
198.121673583984
 20
46.3702430725098
 30
0.0
 41
0.349999994039536
 42
0.349999994039536
 43
0.349999994039536
  0
INSERT
  5
   605
  8
0
  6
CONTINUOUS
 62
     7
  2
*HATCH17
 10
198.121673583984
 20
46.3702430725098
 30
0.0
 41
0.349999994039536
 42
0.349999994039536
 43
0.349999994039536
  0
INSERT
  5
   606
  8
0
  6
CONTINUOUS
 62
     7
  2
*HATCH18
 10
198.121673583984
 20
46.3702430725098
 30
0.0
 41
0.349999994039536
 42
0.349999994039536
 43
0.349999994039536
  0
LINE
  5
   607
  8
0
  6
DASHDOT
 62
     2
 10
179.236559406774
 20
74.7204178165713
 30
0.0
 11
282.535907594642
 21
74.7201312301935
 31
0.0
  0
LINE
  5
   608
  8
0
  6
CONTINUOUS
 62
   253
 10
250.971453023406
 20
78.92024902518
 30
0.0
 11
250.971453023406
 21
90.1202488344451
 31
0.0
  0
LINE
  5
   609
  8
0
  6
CONTINUOUS
 62
   253
 10
262.69645282373
 20
78.7479914139777
 30
0.0
 11
262.69645282373
 21
90.2925037753593
 31
0.0
  0
LINE
  5
   60A
  8
0
  6
CONTINUOUS
 62
   253
 10
256.396452931019
 20
90.1202488344451
 30
0.0
 11
256.396452931019
 21
92.3952487957021
 31
0.0
  0
LINE
  5
   60B
  8
0
  6
CONTINUOUS
 62
   253
 10
250.971453023406
 20
75.2452490877648
 30
0.0
 11
250.971453023406
 21
78.92024902518
 31
0.0
  0
LINE
  5
   60C
  8
0
  6
CONTINUOUS
 62
   253
 10
250.971453023406
 20
90.1202488344451
 30
0.0
 11
250.971453023406
 21
93.7952487718602
 31
0.0
  0
LINE
  5
   60D
  8
0
  6
CONTINUOUS
 62
   253
 10
256.396452931019
 20
76.6452434793428
 30
0.0
 11
256.396452931019
 21
90.1202488344451
 31
0.0
  0
LINE
  5
   60E
  8
0
  6
CONTINUOUS
 62
   212
 10
250.795945843398
 20
92.2203876536639
 30
0.0
 11
250.797263675059
 21
93.7930217453482
 31
0.0
  0
LINE
  5
   60F
  8
0
  6
CONTINUOUS
 62
   212
 10
250.797585228738
 20
80.3215361073894
 30
0.0
 11
250.797611204564
 21
75.4934924710856
 31
0.0
  0
LINE
  5
   610
  8
0
  6
CONTINUOUS
 62
   212
 10
250.796411986953
 20
93.7929999109952
 30
0.0
 11
250.796539815992
 21
88.8952755902577
 31
0.0
  0
LINE
  5
   611
  8
0
  6
CONTINUOUS
 62
   253
 10
256.396452931019
 20
91.6925037515174
 30
0.0
 11
261.296452847572
 21
91.6925037515174
 31
0.0
  0
LINE
  5
   612
  8
0
  6
CONTINUOUS
 62
   253
 10
256.396452931019
 20
77.3479914378196
 30
0.0
 11
261.296452847572
 21
77.3479914378196
 31
0.0
  0
LINE
  5
   613
  8
0
  6
CONTINUOUS
 62
   253
 10
250.971453023406
 20
75.2452490877648
 30
0.0
 11
254.996452954861
 21
75.2452490877648
 31
0.0
  0
LINE
  5
   614
  8
0
  6
CONTINUOUS
 62
   253
 10
250.971453023406
 20
93.7952487718602
 30
0.0
 11
254.996452954861
 21
93.7952487718602
 31
0.0
  0
LINE
  5
   615
  8
0
  6
CONTINUOUS
 62
   212
 10
248.34645574628
 20
93.7930372938509
 30
0.0
 11
250.796411986953
 21
93.7929999106281
 31
0.0
  0
LINE
  5
   616
  8
0
  6
CONTINUOUS
 62
   212
 10
248.34645574628
 20
75.493481262869
 30
0.0
 11
250.797611204322
 21
75.4935373281535
 31
0.0
  0
ARC
  5
   617
  8
0
  6
CONTINUOUS
 62
   253
 10
254.996456763207
 20
92.3952542765794
 30
0.0
 40
1.39999438874601
 50
359.999720152757
 51
450.000090729959
  0
ARC
  5
   618
  8
0
  6
CONTINUOUS
 62
   253
 10
254.996458260615
 20
76.6452434793428
 30
0.0
 40
1.39999282298145
 50
269.999805810039
 51
360.000186401615
  0
ARC
  5
   619
  8
0
  6
CONTINUOUS
 62
   253
 10
261.296452847572
 20
90.2925037753593
 30
0.0
 40
1.39999997615814
 50
7.01670929853487E-15
 51
90.0
  0
ARC
  5
   61A
  8
0
  6
CONTINUOUS
 62
   253
 10
261.296452847572
 20
78.7479914139777
 30
0.0
 40
1.39999997615814
 50
270.0
 51
360.0
  0
LINE
  5
   61B
  8
0
  6
DASHED
 62
     7
 10
262.69645282373
 20
53.7202494543334
 30
0.0
 11
262.69645282373
 21
92.3952487957021
 31
0.0
  0
LINE
  5
   61C
  8
0
  6
DASHED
 62
     7
 10
257.796452907177
 20
52.3202494781753
 30
0.0
 11
261.296452847572
 21
52.3202494781753
 31
0.0
  0
LINE
  5
   61D
  8
0
  6
DASHED
 62
     7
 10
250.971453023406
 20
73.1541251609741
 30
0.0
 11
253.946452972742
 21
73.1541251609741
 31
0.0
  0
LINE
  5
   61E
  8
0
  6
DASHED
 62
     7
 10
254.996452954861
 20
93.7952487718602
 30
0.0
 11
261.296452847572
 21
93.7952487718602
 31
0.0
  0
ARC
  5
   61F
  8
0
  6
DASHED
 62
     7
 10
257.796452907177
 20
53.7202494543334
 30
0.0
 40
1.39999997615814
 50
180.0
 51
270.0
  0
ARC
  5
   620
  8
0
  6
DASHED
 62
     7
 10
261.296452847572
 20
53.7202494543334
 30
0.0
 40
1.39999997615814
 50
270.0
 51
360.0
  0
ARC
  5
   621
  8
0
  6
DASHED
 62
     7
 10
253.946452972742
 20
70.7041252026974
 30
0.0
 40
2.44999995827675
 50
7.01670929853487E-15
 51
90.0
  0
ARC
  5
   622
  8
0
  6
DASHED
 62
     7
 10
253.946452972742
 20
71.934617964335
 30
0.0
 40
2.44999995827675
 50
7.01670929853487E-15
 51
90.0
  0
ARC
  5
   623
  8
0
  6
DASHED
 62
     7
 10
261.296452847572
 20
92.3952487957021
 30
0.0
 40
1.39999997615814
 50
7.01670929853487E-15
 51
90.0
  0
LINE
  5
   624
  8
0
  6
DASHED
 62
     7
 10
256.396452931019
 20
53.7202494543334
 30
0.0
 11
256.396452931019
 21
71.934617964335
 31
0.0
  0
LINE
  5
   625
  8
0
  6
DASHED
 62
     7
 10
265.496452776047
 20
75.0702490907451
 30
0.0
 11
265.496452776047
 21
80.6702489953776
 31
0.0
  0
ARC
  5
   626
  8
0
  6
DASHED
 62
     7
 10
264.096452799889
 20
75.0702490907451
 30
0.0
 40
1.39999997615814
 50
180.0
 51
360.0
  0
ARC
  5
   627
  8
0
  6
DASHED
 62
     7
 10
264.096452799889
 20
80.6702489953776
 30
0.0
 40
1.39999997615814
 50
7.01670929853487E-15
 51
180.0
  0
LINE
  5
   628
  8
0
  6
DASHDOT
 62
     7
 10
261.646452841613
 20
75.0702500617602
 30
0.0
 11
265.846452770087
 21
75.0702500617602
 31
0.0
  0
LINE
  5
   629
  8
0
  6
DASHDOT
 62
     7
 10
264.096452799889
 20
72.9702491265079
 30
0.0
 11
264.096452799889
 21
82.7702489596149
 31
0.0
  0
LINE
  5
   62A
  8
0
  6
DASHDOT
 62
     7
 10
261.646452841613
 20
80.6702499663928
 30
0.0
 11
265.846452770087
 21
80.6702499663928
 31
0.0
  0
ARC
  5
   62B
  8
0
  6
DASHED
 62
     7
 10
259.546452877375
 20
87.3202488821288
 30
0.0
 40
14.454787887877
 50
282.586944950844
 51
307.750050331541
  0
ARC
  5
   62C
  8
0
  6
DASHED
 62
     7
 10
259.546452877375
 20
87.3202488821288
 30
0.0
 40
15.5047878699956
 50
281.72198665881
 51
307.180704244992
  0
LINE
  5
   62D
  8
0
  6
DASHED
 62
     7
 10
262.69645282373
 20
86.0073912531505
 30
0.0
 11
269.476107802753
 21
73.9737345942099
 31
0.0
  0
LINE
  5
   62E
  8
0
  6
DASHED
 62
     7
 10
262.69645282373
 20
88.146533743353
 30
0.0
 11
270.390913566708
 21
74.4891280135355
 31
0.0
  0
LINE
  5
   62F
  8
0
  6
DASHED
 62
     7
 10
269.476107802753
 20
73.97373459421
 30
0.0
 11
270.390913566708
 21
74.4891280135352
 31
0.0
  0
LINE
  5
   630
  8
0
  6
DASHED
 62
     7
 10
250.971453023406
 20
73.1541251609741
 30
0.0
 11
250.971453023406
 21
75.2452490877648
 31
0.0
  0
LINE
  5
   631
  8
0
  6
DASHED
 62
     7
 10
250.971453023406
 20
74.3846179226117
 30
0.0
 11
253.946452972742
 21
74.3846179226117
 31
0.0
  0
LINE
  5
   632
  8
0
  6
CONTINUOUS
 62
     7
 10
270.3964526926
 20
74.4891280135352
 30
0.0
 11
270.3964526926
 21
75.1444236781523
 31
0.0
  0
TEXT
  5
   633
  8
0
  6
CONTINUOUS
 62
     7
 10
284.147243063981
 20
73.097637392846
 30
0.0
 40
2.99999997871263
  1
X
 41
0.91666663951344
 72
     1
 11
285.247243031837
 21
74.5976373822024
 31
0.0
 73
     2
  0
TEXT
  5
   634
  8
0
  6
CONTINUOUS
 62
     1
 10
233.05940246582
 20
-195.708282449416
 30
0.0
 40
2.99999997871263
  1
   S6X IV
 41
0.91666663951344
 72
     2
 11
257.259401593748
 21
-195.708282449416
 31
0.0
  0
TEXT
  5
   635
  8
0
  6
CONTINUOUS
 62
     1
 10
130.357192993164
 20
-178.689422641907
 30
0.0
 40
2.00000003448554
  1
96-11-14 ZANCHI.
 41
0.749999888539317
 72
     2
 11
154.05718988276
 21
-178.689422641907
 31
0.0
  0
TEXT
  5
   636
  8
0
  6
CONTINUOUS
 62
     1
 10
162.6225813142
 20
-193.442703264313
 30
0.0
 40
2.00000003448554
  1
M4371 97-07-07
 41
0.749999888539317
 72
     1
 11
172.972579956055
 21
-192.44270324707
 31
0.0
 73
     2
  0
INSERT
  5
   637
  8
0
  6
CONTINUOUS
 62
     7
  2
*UDIM84
 10
0.0
 20
0.0
 30
0.0
  0
INSERT
  5
   638
  8
0
  6
CONTINUOUS
 62
     7
  2
*UDIM85
 10
0.0
 20
0.0
 30
0.0
  0
INSERT
  5
   639
  8
0
  6
CONTINUOUS
 62
     7
  2
*UDIM86
 10
0.0
 20
0.0
 30
0.0
  0
INSERT
  5
   63A
  8
0
  6
CONTINUOUS
 62
     7
  2
*UDIM87
 10
0.0
 20
0.0
 30
0.0
  0
INSERT
  5
   63B
  8
0
  6
CONTINUOUS
 62
     7
  2
*UDIM88
 10
0.0
 20
0.0
 30
0.0
  0
INSERT
  5
   63C
  8
0
  6
CONTINUOUS
 62
     7
  2
*UDIM89
 10
0.0
 20
0.0
 30
0.0
  0
TEXT
  5
   63D
  8
0
  6
CONTINUOUS
 62
     1
 10
136.882585187049
 20
-193.442695395769
 30
0.0
 40
2.00000003448554
  1
M 4352 96-12-17
 41
0.749999888539317
 72
     1
 11
147.982583730376
 21
-192.442695378526
 31
0.0
 73
     2
  0
TEXT
  5
   63E
  8
0
  6
CONTINUOUS
 62
     1
 10
231.973708323324
 20
-204.689867759807
 30
0.0
 40
4.00000006897109
  1
605031/151
 41
0.937499981746078
 72
     2
 11
268.723708226839
 21
-204.689867759807
 31
0.0
  0
TEXT
  5
   63F
  8
0
  6
CONTINUOUS
 62
     1
 10
219.274983276547
 20
-177.398020960846
 30
0.0
 40
2.00000003448554
  1
4POLE LOW VOLTAGE M.C.C.B SERIES ISOMAX LL
 41
0.749999888539317
 72
     1
 11
250.624979159601
 21
-176.398020943603
 31
0.0
 73
     2
  0
TEXT
  5
   640
  8
0
  6
CONTINUOUS
 62
     1
 10
221.52498324323
 20
-180.398020960846
 30
0.0
 40
2.00000003448554
  1
FIXED ROTARY HANDLE OPERATING MECHANISM
 41
0.749999888539317
 72
     1
 11
250.62497942187
 21
-179.398020943603
 31
0.0
 73
     2
  0
TEXT
  5
   641
  8
0
  6
CONTINUOUS
 62
     1
 10
222.477376554209
 20
-185.468272288254
 30
0.0
 40
2.00000003448554
  1
INTERR.AUTOMATICO SERIE ISOMAX LL
 41
0.749999888539317
 72
     1
 11
247.077373324021
 21
-184.468272271012
 31
0.0
 73
     2
  0
TEXT
  5
   642
  8
0
  6
CONTINUOUS
 62
     1
 10
219.477377210592
 20
-188.468272288254
 30
0.0
 40
2.00000003448554
  1
TETRAP.FISSO COMANDO MANIGLIA ROTANTE
 41
0.749999888539317
 72
     1
 11
247.077373586289
 21
-187.468272271012
 31
0.0
 73
     2
  0
LINE
  5
   643
  8
0
  6
DASHDOT
 62
     7
 10
114.848297119141
 20
-47.494803144328
 30
0.0
 11
114.848297119141
 21
-103.259218669094
 31
0.0
  0
LINE
  5
   644
  8
0
  6
CONTINUOUS
 62
     3
 10
96.9767003173015
 20
-59.0266459883406
 30
0.0
 11
153.105568114379
 21
-59.0266459883406
 31
0.0
  0
LINE
  5
   645
  8
0
  6
CONTINUOUS
 62
     3
 10
96.9767003173015
 20
-98.9908714836582
 30
0.0
 11
153.105568114379
 21
-98.9908714836582
 31
0.0
  0
LINE
  5
   646
  8
0
  6
DASHDOT
 62
     7
 10
94.5556107740708
 20
-78.606486517936
 30
0.0
 11
157.93211627386
 21
-78.606486517936
 31
0.0
  0
LINE
  5
   647
  8
0
  6
DASHDOT
 62
     7
 10
121.962297225148
 20
-60.6064862497151
 30
0.0
 11
124.634297264963
 21
-60.6064862497151
 31
0.0
  0
LINE
  5
   648
  8
0
  6
DASHDOT
 62
     7
 10
154.848297715187
 20
-54.0536468361146
 30
0.0
 11
154.848297715187
 21
-96.7049405635809
 31
0.0
  0
LINE
  5
   649
  8
0
  6
CONTINUOUS
 62
     7
 10
153.105568114379
 20
-64.1048089826624
 30
0.0
 11
156.339852963516
 21
-64.1048089826624
 31
0.0
  0
LINE
  5
   64A
  8
0
  6
CONTINUOUS
 62
     7
 10
153.105568114379
 20
-59.0266459883406
 30
0.0
 11
153.105568114379
 21
-71.1704774223148
 31
0.0
  0
LINE
  5
   64B
  8
0
  6
CONTINUOUS
 62
     7
 10
156.339852963516
 20
-64.1048089826624
 30
0.0
 11
156.339852963516
 21
-71.1704774223148
 31
0.0
  0
LINE
  5
   64C
  8
0
  6
CONTINUOUS
 62
     7
 10
153.105568114379
 20
-71.1704774223148
 30
0.0
 11
156.339852963516
 21
-71.1704774223148
 31
0.0
  0
LINE
  5
   64D
  8
0
  6
CONTINUOUS
 62
     7
 10
153.105568114379
 20
-71.1704774223148
 30
0.0
 11
153.105568114379
 21
-98.9908714836582
 31
0.0
  0
LINE
  5
   64E
  8
0
  6
CONTINUOUS
 62
     7
 10
153.105568114379
 20
-93.1081640532096
 30
0.0
 11
156.339852963516
 21
-93.1081640532096
 31
0.0
  0
LINE
  5
   64F
  8
0
  6
CONTINUOUS
 62
     7
 10
153.105568114379
 20
-86.0424956135572
 30
0.0
 11
156.339852963516
 21
-86.0424956135572
 31
0.0
  0
LINE
  5
   650
  8
0
  6
CONTINUOUS
 62
     7
 10
156.339852963516
 20
-86.0424956135572
 30
0.0
 11
156.339852963516
 21
-93.1081640532096
 31
0.0
  0
LINE
  5
   651
  8
0
  6
CONTINUOUS
 62
     7
 10
100.148296900094
 20
-93.3064867369831
 30
0.0
 11
129.548297338188
 21
-93.3064867369831
 31
0.0
  0
LINE
  5
   652
  8
0
  6
CONTINUOUS
 62
     7
 10
100.148296900094
 20
-63.9064862988889
 30
0.0
 11
129.548297338188
 21
-63.9064862988889
 31
0.0
  0
LINE
  5
   653
  8
0
  6
CONTINUOUS
 62
     7
 10
100.148296900094
 20
-63.9064862988889
 30
0.0
 11
100.148296900094
 21
-93.3064867369831
 31
0.0
  0
LINE
  5
   654
  8
0
  6
CONTINUOUS
 62
     7
 10
129.548297338188
 20
-63.9064862988889
 30
0.0
 11
129.548297338188
 21
-93.3064867369831
 31
0.0
  0
LINE
  5
   655
  8
0
  6
DASHDOT
 62
     7
 10
114.848297119141
 20
-38.9215033539329
 30
0.0
 11
114.848297119141
 21
-103.259218669094
 31
0.0
  0
CIRCLE
  5
   656
  8
0
  6
CONTINUOUS
 62
     7
 10
103.348296947777
 20
-60.9064862541854
 30
0.0
 40
0.700000010430813
  0
CIRCLE
  5
   657
  8
0
  6
CONTINUOUS
 62
     7
 10
126.348297290504
 20
-60.9064862541854
 30
0.0
 40
0.700000010430813
  0
CIRCLE
  5
   658
  8
0
  6
CONTINUOUS
 62
     7
 10
126.348297290504
 20
-96.3064867816865
 30
0.0
 40
0.700000010430813
  0
CIRCLE
  5
   659
  8
0
  6
CONTINUOUS
 62
     7
 10
103.348296947777
 20
-96.3064867816865
 30
0.0
 40
0.700000010430813
  0
LINE
  5
   65A
  8
0
  6
CONTINUOUS
 62
     3
 10
96.9767003173015
 20
-98.9908714836582
 30
0.0
 11
132.619396264407
 21
-98.9908714836582
 31
0.0
  0
LINE
  5
   65B
  8
0
  6
CONTINUOUS
 62
     3
 10
96.9767003173015
 20
-59.0266459883406
 30
0.0
 11
96.9767003173015
 21
-98.9908714836582
 31
0.0
  0
LINE
  5
   65C
  8
0
  6
DASHDOT
 62
     7
 10
126.348297290504
 20
-59.6064862348139
 30
0.0
 11
126.348297290504
 21
-62.206486273557
 31
0.0
  0
LINE
  5
   65D
  8
0
  6
DASHDOT
 62
     7
 10
125.048297271132
 20
-60.9064862541854
 30
0.0
 11
127.648297309876
 21
-60.9064862541854
 31
0.0
  0
LINE
  5
   65E
  8
0
  6
DASHDOT
 62
     7
 10
103.348296947777
 20
-59.6064862348139
 30
0.0
 11
103.348296947777
 21
-62.206486273557
 31
0.0
  0
LINE
  5
   65F
  8
0
  6
DASHDOT
 62
     7
 10
102.048296928406
 20
-60.9064862541854
 30
0.0
 11
104.648296967149
 21
-60.9064862541854
 31
0.0
  0
LINE
  5
   660
  8
0
  6
DASHDOT
 62
     7
 10
103.348296947777
 20
-95.006486762315
 30
0.0
 11
103.348296947777
 21
-97.6064868010581
 31
0.0
  0
LINE
  5
   661
  8
0
  6
DASHDOT
 62
     7
 10
102.048296928406
 20
-96.3064867816865
 30
0.0
 11
104.648296967149
 21
-96.3064867816865
 31
0.0
  0
LINE
  5
   662
  8
0
  6
DASHDOT
 62
     7
 10
126.348297290504
 20
-95.006486762315
 30
0.0
 11
126.348297290504
 21
-97.6064868010581
 31
0.0
  0
LINE
  5
   663
  8
0
  6
DASHDOT
 62
     7
 10
125.048297271132
 20
-96.3064867816865
 30
0.0
 11
127.648297309876
 21
-96.3064867816865
 31
0.0
  0
LINE
  5
   664
  8
0
  6
DASHDOT
 62
     7
 10
94.5556107740708
 20
-78.606486517936
 30
0.0
 11
136.952532088016
 21
-78.606486517936
 31
0.0
  0
CIRCLE
  5
   665
  8
0
  6
CONTINUOUS
 62
     7
 10
123.298297245055
 20
-60.6064862497151
 30
0.0
 40
0.400000005960464
  0
CIRCLE
  5
   666
  8
0
  6
CONTINUOUS
 62
     7
 10
114.298297110945
 20
-60.6064862497151
 30
0.0
 40
0.400000005960464
  0
CIRCLE
  5
   667
  8
0
  6
CONTINUOUS
 62
     7
 10
114.298297110945
 20
-60.6064862497151
 30
0.0
 40
0.736000010967255
  0
CIRCLE
  5
   668
  8
0
  6
CONTINUOUS
 62
     7
 10
123.298297245055
 20
-60.6064862497151
 30
0.0
 40
0.736000010967255
  0
LINE
  5
   669
  8
0
  6
DASHDOT
 62
     7
 10
123.298297245055
 20
-59.2704862298071
 30
0.0
 11
123.298297245055
 21
-61.9424862696231
 31
0.0
  0
LINE
  5
   66A
  8
0
  6
DASHDOT
 62
     7
 10
121.962297225148
 20
-60.6064862497151
 30
0.0
 11
124.634297264963
 21
-60.6064862497151
 31
0.0
  0
LINE
  5
   66B
  8
0
  6
DASHDOT
 62
     7
 10
114.298297110945
 20
-59.2704862298071
 30
0.0
 11
114.298297110945
 21
-61.9424862696231
 31
0.0
  0
LINE
  5
   66C
  8
0
  6
DASHDOT
 62
     7
 10
112.962297091037
 20
-60.6064862497151
 30
0.0
 11
115.634297130853
 21
-60.6064862497151
 31
0.0
  0
LINE
  5
   66D
  8
0
  6
DASHDOT
 62
     7
 10
114.298297110945
 20
-59.4704862327874
 30
0.0
 11
114.298297110945
 21
-61.7424862666428
 31
0.0
  0
LINE
  5
   66E
  8
0
  6
DASHDOT
 62
     7
 10
113.162297094017
 20
-60.6064862497151
 30
0.0
 11
115.434297127873
 21
-60.6064862497151
 31
0.0
  0
CIRCLE
  5
   66F
  8
0
  6
CONTINUOUS
 62
     7
 10
114.298297110945
 20
-60.6064862497151
 30
0.0
 40
1.73600002586842
  0
CIRCLE
  5
   670
  8
0
  6
CONTINUOUS
 62
     7
 10
123.298297245055
 20
-60.6064862497151
 30
0.0
 40
0.736000010967256
  0
CIRCLE
  5
   671
  8
0
  6
CONTINUOUS
 62
     7
 10
123.298297245055
 20
-60.6064862497151
 30
0.0
 40
1.73600002586842
  0
TEXT
  5
   672
  8
0
  6
CONTINUOUS
 62
     7
 10
113.604475528474
 20
-38.183310253944
 30
0.0
 40
2.99999994933605
  1
Y
 50
359.999999844103
 41
0.916666607525612
 72
     1
 11
114.704475441651
 21
-36.6833102822634
 31
0.0
 73
     2
  0
INSERT
  5
   673
  8
0
  6
CONTINUOUS
 62
     7
  2
*UDIM90
 10
0.0
 20
0.0
 30
0.0
  0
INSERT
  5
   674
  8
0
  6
CONTINUOUS
 62
     7
  2
*UDIM91
 10
0.0
 20
0.0
 30
0.0
  0
INSERT
  5
   675
  8
0
  6
CONTINUOUS
 62
     7
  2
*UDIM92
 10
0.0
 20
0.0
 30
0.0
  0
INSERT
  5
   676
  8
0
  6
CONTINUOUS
 62
     7
  2
*UDIM93
 10
0.0
 20
0.0
 30
0.0
  0
TEXT
  5
   677
  8
0
  6
CONTINUOUS
 62
     7
 10
106.719912714383
 20
-109.031414023727
 30
0.0
 40
2.99999994933605
  1
=   =
 50
359.999999844103
 41
0.916666607525612
 72
     2
 11
119.919911637129
 21
-109.031414059576
 31
0.0
  0
TEXT
  5
   678
  8
0
  6
CONTINUOUS
 62
     7
 10
104.676402130295
 20
-116.083864746709
 30
0.0
 40
2.99999994933605
  1
=    =
 50
359.999999844103
 41
0.916666607525612
 72
     2
 11
120.626400829175
 21
-116.083864790027
 31
0.0
  0
TEXT
  5
   679
  8
0
  6
CONTINUOUS
 62
     7
 10
93.6013385142081
 20
-90.6676053165513
 30
0.0
 40
2.99999994933605
  1
=     =
 50
449.999999844103
 41
0.916666607525612
 72
     2
 11
93.6013385649717
 21
-71.9676068415361
 31
0.0
  0
TEXT
  5
   67A
  8
0
  6
CONTINUOUS
 62
     7
 10
85.8308425450721
 20
-93.4411148074412
 30
0.0
 40
2.99999994933605
  1
=       =
 50
449.999999844103
 41
0.916666607525612
 72
     2
 11
85.8308426107661
 21
-69.2411167801563
 31
0.0
  0
INSERT
  5
   67B
  8
0
  6
CONTINUOUS
 62
     7
  2
*UDIM94
 10
0.0
 20
0.0
 30
0.0
  0
INSERT
  5
   67C
  8
0
  6
CONTINUOUS
 62
     7
  2
*UDIM95
 10
0.0
 20
0.0
 30
0.0
  0
INSERT
  5
   67D
  8
0
  6
CONTINUOUS
 62
     7
  2
*UDIM96
 10
0.0
 20
0.0
 30
0.0
  0
INSERT
  5
   67E
  8
0
  6
CONTINUOUS
 62
     7
  2
*UDIM97
 10
0.0
 20
0.0
 30
0.0
  0
INSERT
  5
   67F
  8
0
  6
CONTINUOUS
 62
     7
  2
*UDIM98
 10
0.0
 20
0.0
 30
0.0
  0
TEXT
  5
   680
  8
0
  6
CONTINUOUS
 62
     7
 10
113.654279319681
 20
-120.676186310639
 30
0.0
 40
2.99999994933605
  1
Y
 50
359.999999844103
 41
0.916666607525612
 72
     2
 11
115.854279137886
 21
-120.676186316614
 31
0.0
  0
TEXT
  5
   681
  8
0
  6
CONTINUOUS
 62
     7
 10
74.7650478213017
 20
-79.7334021540966
 30
0.0
 40
2.99999994933605
  1
X
 50
359.999999844103
 41
0.916666607525612
 72
     2
 11
76.9650476395075
 21
-79.7334021600716
 31
0.0
  0
INSERT
  5
   682
  8
0
  6
CONTINUOUS
 62
     7
  2
*UDIM99
 10
0.0
 20
0.0
 30
0.0
  0
TEXT
  5
   683
  8
0
  6
CONTINUOUS
 62
     7
 10
158.366642084641
 20
-80.1767169037445
 30
0.0
 40
2.99999994933605
  1
X
 50
359.999999844103
 41
0.916666607525612
 72
     2
 11
160.566641902846
 21
-80.1767169097194
 31
0.0
  0
LINE
  5
   684
  8
0
  6
CONTINUOUS
 62
     7
 10
74.5262680053711
 20
-22.8182819204728
 30
0.0
 11
74.5262680053711
 21
-46.7348034066756
 31
0.0
  0
LINE
  5
   685
  8
0
  6
CONTINUOUS
 62
     7
 10
72.5262680053711
 20
-22.8182819204728
 30
0.0
 11
72.5262680053711
 21
-46.7348034066756
 31
0.0
  0
LINE
  5
   686
  8
0
  6
DASHDOT
 62
     7
 10
69.3236649029742
 20
-34.7765426635742
 30
0.0
 11
77.7498840954115
 21
-34.7765426635742
 31
0.0
  0
POINT
  5
   687
  8
0
  6
CONTINUOUS
 62
     7
 10
72.5262680053711
 20
-32.7765426635742
 30
0.0
  0
POINT
  5
   688
  8
0
  6
CONTINUOUS
 62
     7
 10
72.5262680053711
 20
-36.7765426635742
 30
0.0
  0
LINE
  5
   689
  8
0
  6
CONTINUOUS
 62
     7
 10
74.5262680053711
 20
-31.0983434012197
 30
0.0
 11
72.5262680053711
 21
-32.7765426635742
 31
0.0
  0
LINE
  5
   68A
  8
0
  6
CONTINUOUS
 62
     7
 10
72.5262680053711
 20
-36.7765426635742
 30
0.0
 11
74.5262680053711
 21
-38.4547419259288
 31
0.0
  0
LINE
  5
   68B
  8
0
  6
CONTINUOUS
 62
     7
 10
72.5262680053711
 20
-44.2765426635742
 30
0.0
 11
74.5262680053711
 21
-44.2765426635742
 31
0.0
  0
CIRCLE
  5
   68C
  8
0
  6
CONTINUOUS
 62
     7
 10
73.5262680053711
 20
-34.7765426635742
 30
0.0
 40
12.0
  0
LINE
  5
   68D
  8
0
  6
CONTINUOUS
 62
     7
 10
66.5262756347656
 20
-39.2765426635742
 30
0.0
 11
69.0262756347656
 21
-39.2765426635742
 31
0.0
  0
LINE
  5
   68E
  8
0
  6
CONTINUOUS
 62
     7
 10
70.0262756347656
 20
-30.2765426635742
 30
0.0
 11
70.0262756347656
 21
-38.2765426635742
 31
0.0
  0
LINE
  5
   68F
  8
0
  6
CONTINUOUS
 62
     7
 10
70.0262756347656
 20
-30.2765426635742
 30
0.0
 11
72.5262680053711
 21
-30.2765426635742
 31
0.0
  0
LINE
  5
   690
  8
0
  6
CONTINUOUS
 62
     7
 10
66.5262756347656
 20
-41.7765426635742
 30
0.0
 11
69.0262756347656
 21
-41.7765426635742
 31
0.0
  0
LINE
  5
   691
  8
0
  6
CONTINUOUS
 62
     7
 10
65.5262756347656
 20
-42.7765426635742
 30
0.0
 11
65.5262756347656
 21
-43.7208213975054
 31
0.0
  0
ARC
  5
   692
  8
0
  6
CONTINUOUS
 62
     7
 10
69.0262797820456
 20
-38.2765433349129
 30
0.0
 40
0.999996977799109
 50
629.999840735313
 51
720.000252836193
  0
ARC
  5
   693
  8
0
  6
CONTINUOUS
 62
     7
 10
66.5262902882723
 20
-42.7765553498787
 30
0.0
 40
3.50001845311552
 50
450.000186734275
 51
513.408761128067
  0
ARC
  5
   694
  8
0
  6
CONTINUOUS
 62
     7
 10
66.5262313866157
 20
-42.7765017687918
 30
0.0
 40
0.999949821243504
 50
449.997764042825
 51
540.001169660043
  0
ARC
  5
   695
  8
0
  6
CONTINUOUS
 62
     7
 10
69.0262949871473
 20
-38.2765747105085
 30
0.0
 40
3.49997105594423
 50
629.999653243441
 51
720.000420168909
  0
INSERT
  5
   696
  8
0
  6
CONTINUOUS
 62
     7
  2
*HATCH19
 10
73.5262680053711
 20
-34.7765426635742
 30
0.0
 50
269.999999844103
  0
INSERT
  5
   697
  8
0
  6
CONTINUOUS
 62
     7
  2
*HATCH20
 10
73.5262680053711
 20
-34.7765426635742
 30
0.0
 50
269.999999844103
  0
LINE
  5
   698
  8
0
  6
CONTINUOUS
 62
     7
 10
80.2137952092899
 20
-44.7403260763571
 30
0.0
 11
84.9772146331156
 21
-51.8373707680677
 31
0.0
  0
LINE
  5
   699
  8
0
  6
CONTINUOUS
 62
     7
 10
84.9772146331156
 20
-51.8373707680677
 30
0.0
 11
121.688216734674
 21
-60.3834542532484
 31
0.0
  0
LINE
  5
   69A
  8
0
  6
CONTINUOUS
 62
     7
 10
121.688216734674
 20
-60.3834542532484
 30
0.0
 11
118.68985796047
 21
-60.4826745190692
 31
0.0
  0
LINE
  5
   69B
  8
0
  6
CONTINUOUS
 62
     7
 10
119.041951733643
 20
-58.970202136917
 30
0.0
 11
121.688216734674
 21
-60.3834542532484
 31
0.0
  0
LINE
  5
   69C
  8
0
  6
CONTINUOUS
 62
     7
 10
84.9772146331156
 20
-51.8373707680677
 30
0.0
 11
112.600302141548
 21
-60.1442343554293
 31
0.0
  0
LINE
  5
   69D
  8
0
  6
CONTINUOUS
 62
     7
 10
109.601680938888
 20
-60.0532899605439
 30
0.0
 11
112.600302141548
 21
-60.1442343554293
 31
0.0
  0
LINE
  5
   69E
  8
0
  6
CONTINUOUS
 62
     7
 10
110.048892201161
 20
-58.566163597797
 30
0.0
 11
112.600302141548
 21
-60.1442343554293
 31
0.0
  0
INSERT
  5
   69F
  8
0
  6
CONTINUOUS
 62
     7
  2
*UDIM100
 10
0.0
 20
0.0
 30
0.0
  0
INSERT
  5
   6A0
  8
0
  6
CONTINUOUS
 62
     7
  2
*UDIM101
 10
0.0
 20
0.0
 30
0.0
  0
LINE
  5
   6A1
  8
0
  6
DASHDOT
 62
     2
 10
254.15278659887
 20
-57.8064831234515
 30
0.0
 11
235.671252693255
 21
-57.8064831234515
 31
0.0
  0
LINE
  5
   6A2
  8
0
  6
DASHDOT
 62
     2
 10
254.911357020369
 20
-105.206483829767
 30
0.0
 11
235.533330798437
 21
-105.206483829767
 31
0.0
  0
LINE
  5
   6A3
  8
0
  6
DASHDOT
 62
     2
 10
224.23576323688
 20
-27.0167936426885
 30
0.0
 11
224.23576323688
 21
-107.318414700452
 31
0.0
  0
LINE
  5
   6A4
  8
0
  6
DASHDOT
 62
     2
 10
252.235763654113
 20
-27.2392176727122
 30
0.0
 11
252.235763654113
 21
-107.180492805634
 31
0.0
  0
LINE
  5
   6A5
  8
0
  6
DASHDOT
 62
     2
 10
245.235763549805
 20
-52.3788757042863
 30
0.0
 11
245.235763549805
 21
-112.236978055308
 31
0.0
  0
CIRCLE
  5
   6A6
  8
0
  6
CONTINUOUS
 62
     7
 10
252.235763654113
 20
-57.8064831234515
 30
0.0
 40
0.550000008195639
  0
CIRCLE
  5
   6A7
  8
0
  6
CONTINUOUS
 62
     7
 10
224.23576323688
 20
-57.8064831234515
 30
0.0
 40
0.550000008195639
  0
CIRCLE
  5
   6A8
  8
0
  6
CONTINUOUS
 62
     7
 10
224.23576323688
 20
-105.206483829767
 30
0.0
 40
0.550000008195639
  0
CIRCLE
  5
   6A9
  8
0
  6
CONTINUOUS
 62
     7
 10
252.235763654113
 20
-105.206483829767
 30
0.0
 40
0.550000008195639
  0
LINE
  5
   6AA
  8
0
  6
DASHDOT
 62
     2
 10
263.449378834183
 20
-78.6064834333956
 30
0.0
 11
209.984482289035
 21
-78.6064834333956
 31
0.0
  0
LINE
  5
   6AB
  8
0
  6
DASHDOT
 62
     7
 10
231.235763341188
 20
-23.4564826115966
 30
0.0
 11
231.235763341188
 21
-33.8564827665687
 31
0.0
  0
LINE
  5
   6AC
  8
0
  6
DASHDOT
 62
     7
 10
236.435763418674
 20
-29.806482706219
 30
0.0
 11
226.035763263702
 21
-29.806482706219
 31
0.0
  0
LINE
  5
   6AD
  8
0
  6
DASHDOT
 62
     3
 10
245.235763549805
 20
-18.6711427971945
 30
0.0
 11
245.235763549805
 21
-61.4564831778407
 31
0.0
  0
LINE
  5
   6AE
  8
0
  6
DASHDOT
 62
     7
 10
250.435763627291
 20
-29.806482706219
 30
0.0
 11
240.035763472319
 21
-29.806482706219
 31
0.0
  0
LINE
  5
   6AF
  8
0
  6
DASHDOT
 62
     7
 10
259.235763758421
 20
-24.6064826287329
 30
0.0
 11
259.235763758421
 21
-35.006482783705
 31
0.0
  0
LINE
  5
   6B0
  8
0
  6
DASHDOT
 62
     7
 10
264.435763835907
 20
-29.806482706219
 30
0.0
 11
254.035763680935
 21
-29.806482706219
 31
0.0
  0
LINE
  5
   6B1
  8
0
  6
DASHDOT
 62
     7
 10
259.235763758421
 20
-99.2564837411046
 30
0.0
 11
259.235763758421
 21
-109.656483896077
 31
0.0
  0
LINE
  5
   6B2
  8
0
  6
DASHDOT
 62
     7
 10
264.435763835907
 20
-105.606483835727
 30
0.0
 11
254.035763680935
 21
-105.606483835727
 31
0.0
  0
LINE
  5
   6B3
  8
0
  6
DASHDOT
 62
     7
 10
245.235763549805
 20
-99.2564837411046
 30
0.0
 11
245.235763549805
 21
-116.145108851718
 31
0.0
  0
LINE
  5
   6B4
  8
0
  6
DASHDOT
 62
     7
 10
250.435763627291
 20
-105.606483835727
 30
0.0
 11
240.035763472319
 21
-105.606483835727
 31
0.0
  0
LINE
  5
   6B5
  8
0
  6
DASHDOT
 62
     7
 10
231.235763341188
 20
-100.406483758241
 30
0.0
 11
231.235763341188
 21
-110.806483913213
 31
0.0
  0
LINE
  5
   6B6
  8
0
  6
DASHDOT
 62
     7
 10
236.435763418674
 20
-105.606483835727
 30
0.0
 11
226.035763263702
 21
-105.606483835727
 31
0.0
  0
LINE
  5
   6B7
  8
0
  6
CONTINUOUS
 62
     7
 10
211.415215969559
 20
-21.5667427922534
 30
0.0
 11
211.415215969559
 21
-112.376899941514
 31
0.0
  0
CIRCLE
  5
   6B8
  8
0
  6
CONTINUOUS
 62
     7
 10
227.144874110193
 20
-25.729040556843
 30
0.0
 40
0.175
  0
LINE
  5
   6B9
  8
0
  6
CONTINUOUS
 62
     7
 10
264.826608755044
 20
-21.5667427922534
 30
0.0
 11
211.415215969559
 21
-21.5667427922534
 31
0.0
  0
LINE
  5
   6BA
  8
0
  6
CONTINUOUS
 62
     7
 10
264.826608755044
 20
-112.376899941514
 30
0.0
 11
211.415215969559
 21
-112.376899941514
 31
0.0
  0
LINE
  5
   6BB
  8
0
  6
CONTINUOUS
 62
     7
 10
264.826608755044
 20
-21.5667427922534
 30
0.0
 11
264.826608755044
 21
-112.376899941514
 31
0.0
  0
ARC
  5
   6BC
  8
0
  6
CONTINUOUS
 62
     7
 10
217.235763132572
 20
-29.806482706219
 30
0.0
 40
3.50000005215406
 50
359.999999896069
 51
629.999999896069
  0
ARC
  5
   6BD
  8
0
  6
CONTINUOUS
 62
     7
 10
245.235763549805
 20
-29.806482706219
 30
0.0
 40
3.50000005215406
 50
359.999999896069
 51
539.999999896069
  0
ARC
  5
   6BE
  8
0
  6
CONTINUOUS
 62
     7
 10
259.235763758421
 20
-29.806482706219
 30
0.0
 40
3.50000005215406
 50
269.999999896069
 51
539.999999896069
  0
ARC
  5
   6BF
  8
0
  6
CONTINUOUS
 62
     7
 10
217.235763132572
 20
-105.606483835727
 30
0.0
 40
3.50000005215406
 50
449.999999896069
 51
719.999999896069
  0
ARC
  5
   6C0
  8
0
  6
CONTINUOUS
 62
     7
 10
245.235763549805
 20
-105.606483835727
 30
0.0
 40
3.50000005215406
 50
179.999999896069
 51
359.999999896069
  0
ARC
  5
   6C1
  8
0
  6
CONTINUOUS
 62
     7
 10
259.235763758421
 20
-105.606483835727
 30
0.0
 40
3.50000005215406
 50
179.999999896069
 51
449.999999896069
  0
LINE
  5
   6C2
  8
0
  6
CONTINUOUS
 62
     7
 10
259.235763758421
 20
-33.306482758373
 30
0.0
 11
217.235763132572
 21
-33.306482758373
 31
0.0
  0
LINE
  5
   6C3
  8
0
  6
CONTINUOUS
 62
     7
 10
259.235763758421
 20
-102.106483783573
 30
0.0
 11
217.235763132572
 21
-102.106483783573
 31
0.0
  0
LINE
  5
   6C4
  8
0
  6
CONTINUOUS
 62
     7
 10
255.735763706267
 20
-103.706483807415
 30
0.0
 11
248.735763601959
 21
-103.706483807415
 31
0.0
  0
LINE
  5
   6C5
  8
0
  6
CONTINUOUS
 62
     7
 10
255.735763706267
 20
-31.7064827345312
 30
0.0
 11
248.735763601959
 21
-31.7064827345312
 31
0.0
  0
LINE
  5
   6C6
  8
0
  6
CONTINUOUS
 62
     7
 10
234.735763393343
 20
-28.6564826890826
 30
0.0
 11
234.735763393343
 21
-30.5564827173948
 31
0.0
  0
LINE
  5
   6C7
  8
0
  6
CONTINUOUS
 62
     7
 10
241.735763497651
 20
-29.806482706219
 30
0.0
 11
241.735763497651
 21
-31.7064827345312
 31
0.0
  0
LINE
  5
   6C8
  8
0
  6
CONTINUOUS
 62
     7
 10
248.735763601959
 20
-29.806482706219
 30
0.0
 11
248.735763601959
 21
-31.7064827345312
 31
0.0
  0
LINE
  5
   6C9
  8
0
  6
CONTINUOUS
 62
     7
 10
255.735763706267
 20
-29.806482706219
 30
0.0
 11
255.735763706267
 21
-31.7064827345312
 31
0.0
  0
LINE
  5
   6CA
  8
0
  6
CONTINUOUS
 62
     7
 10
241.735763497651
 20
-31.7064827345312
 30
0.0
 11
234.735763393343
 21
-31.7064827345312
 31
0.0
  0
LINE
  5
   6CB
  8
0
  6
CONTINUOUS
 62
     7
 10
234.735763393343
 20
-103.706483807415
 30
0.0
 11
234.735763393343
 21
-105.606483835727
 31
0.0
  0
LINE
  5
   6CC
  8
0
  6
CONTINUOUS
 62
     7
 10
241.735763497651
 20
-103.706483807415
 30
0.0
 11
241.735763497651
 21
-105.606483835727
 31
0.0
  0
LINE
  5
   6CD
  8
0
  6
CONTINUOUS
 62
     7
 10
248.735763601959
 20
-103.706483807415
 30
0.0
 11
248.735763601959
 21
-105.606483835727
 31
0.0
  0
LINE
  5
   6CE
  8
0
  6
CONTINUOUS
 62
     7
 10
255.735763706267
 20
-103.706483807415
 30
0.0
 11
255.735763706267
 21
-105.606483835727
 31
0.0
  0
LINE
  5
   6CF
  8
0
  6
CONTINUOUS
 62
     7
 10
241.735763497651
 20
-103.706483807415
 30
0.0
 11
234.735763393343
 21
-103.706483807415
 31
0.0
  0
ARC
  5
   6D0
  8
0
  6
CONTINUOUS
 62
     7
 10
259.235763758421
 20
-105.606483835727
 30
0.0
 40
3.50000005215406
 50
483.928032185622
 51
547.491880120627
  0
CIRCLE
  5
   6D1
  8
0
  6
CONTINUOUS
 62
     7
 10
224.23576323688
 20
-30.2064827121794
 30
0.0
 40
0.550000008195639
  0
CIRCLE
  5
   6D2
  8
0
  6
CONTINUOUS
 62
     7
 10
252.235763654113
 20
-30.2064827121794
 30
0.0
 40
0.550000008195639
  0
LINE
  5
   6D3
  8
0
  6
DASHDOT
 62
     2
 10
254.15278659887
 20
-30.2064827121794
 30
0.0
 11
235.671252693255
 21
-30.2064827121794
 31
0.0
  0
LINE
  5
   6D4
  8
0
  6
CONTINUOUS
 62
     7
 10
292.50061728503
 20
-12.5914328996395
 30
0.0
 11
212.43388917765
 21
-12.5914328996395
 31
0.0
  0
LINE
  5
   6D5
  8
0
  6
CONTINUOUS
 62
     7
 10
259.589753584451
 20
-12.5914328996395
 30
0.0
 11
259.589753584451
 21
-24.7630342758974
 31
0.0
  0
LINE
  5
   6D6
  8
0
  6
CONTINUOUS
 62
     7
 10
259.589753584451
 20
-24.7630342758974
 30
0.0
 11
258.892072994103
 21
-22.1592548652645
 31
0.0
  0
LINE
  5
   6D7
  8
0
  6
CONTINUOUS
 62
     7
 10
260.2874341748
 20
-22.1592548652579
 30
0.0
 11
259.589753584451
 21
-24.7630342758974
 31
0.0
  0
LINE
  5
   6D8
  8
0
  6
CONTINUOUS
 62
     7
 10
227.735763289034
 20
-103.706483807415
 30
0.0
 11
220.735763184726
 21
-103.706483807415
 31
0.0
  0
LINE
  5
   6D9
  8
0
  6
CONTINUOUS
 62
     7
 10
220.735763184726
 20
-103.706483807415
 30
0.0
 11
220.735763184726
 21
-105.606483835727
 31
0.0
  0
LINE
  5
   6DA
  8
0
  6
CONTINUOUS
 62
     7
 10
227.735763289034
 20
-103.706483807415
 30
0.0
 11
227.735763289034
 21
-105.606483835727
 31
0.0
  0
ARC
  5
   6DB
  8
0
  6
CONTINUOUS
 62
     7
 10
231.235763341188
 20
-105.606483835727
 30
0.0
 40
3.50000005215406
 50
179.999999896069
 51
359.999999896069
  0
LINE
  5
   6DC
  8
0
  6
CONTINUOUS
 62
     7
 10
220.735763184726
 20
-29.806482706219
 30
0.0
 11
220.735763184726
 21
-31.7064827345312
 31
0.0
  0
LINE
  5
   6DD
  8
0
  6
CONTINUOUS
 62
     7
 10
227.735763289034
 20
-29.806482706219
 30
0.0
 11
227.735763289034
 21
-31.7064827345312
 31
0.0
  0
ARC
  5
   6DE
  8
0
  6
CONTINUOUS
 62
     7
 10
231.235763341188
 20
-29.806482706219
 30
0.0
 40
3.50000005215406
 50
359.999999896069
 51
539.999999896069
  0
LINE
  5
   6DF
  8
0
  6
CONTINUOUS
 62
     7
 10
234.735763393343
 20
-29.806482706219
 30
0.0
 11
234.735763393343
 21
-31.7064827345312
 31
0.0
  0
LINE
  5
   6E0
  8
0
  6
CONTINUOUS
 62
     7
 10
227.735763289034
 20
-31.7064827345312
 30
0.0
 11
220.735763184726
 21
-31.7064827345312
 31
0.0
  0
LINE
  5
   6E1
  8
0
  6
DASHDOT
 62
     7
 10
217.235763132572
 20
-23.4564826115966
 30
0.0
 11
217.235763132572
 21
-33.8564827665687
 31
0.0
  0
TEXT
  5
   6E2
  8
0
  6
CONTINUOUS
 62
     7
 10
244.149135840098
 20
-17.4730395297884
 30
0.0
 40
2.99999994933605
  1
Y
 50
359.999999896069
 41
0.916666607525612
 72
     1
 11
245.249135751915
 21
-15.9730395571102
 31
0.0
 73
     2
  0
TEXT
  5
   6E3
  8
0
  6
CONTINUOUS
 62
     7
 10
244.111318923314
 20
-120.155422829198
 30
0.0
 40
2.99999994933605
  1
Y
 50
359.999999896069
 41
0.916666607525612
 72
     1
 11
245.21131883513
 21
-118.655422856519
 31
0.0
 73
     2
  0
INSERT
  5
   6E4
  8
0
  6
CONTINUOUS
 62
     7
  2
*UDIM102
 10
0.0
 20
0.0
 30
0.0
  0
INSERT
  5
   6E5
  8
0
  6
CONTINUOUS
 62
     7
  2
*UDIM103
 10
0.0
 20
0.0
 30
0.0
  0
INSERT
  5
   6E6
  8
0
  6
CONTINUOUS
 62
     7
  2
*UDIM104
 10
0.0
 20
0.0
 30
0.0
  0
INSERT
  5
   6E7
  8
0
  6
CONTINUOUS
 62
     7
  2
*UDIM105
 10
0.0
 20
0.0
 30
0.0
  0
INSERT
  5
   6E8
  8
0
  6
CONTINUOUS
 62
     7
  2
*UDIM106
 10
0.0
 20
0.0
 30
0.0
  0
TEXT
  5
   6E9
  8
0
  6
CONTINUOUS
 62
     1
 10
213.221663149811
 20
-7.99804729857142
 30
0.0
 40
2.00000007748604
  1
FORATURA DA ESEGUIRE PER ESECUZIONE TERM. POSTERIORI
 50
359.999999896069
 41
0.749999997615814
 72
     1
 11
252.071664526849
 21
-6.99804733010478
 31
0.0
 73
     2
  0
TEXT
  5
   6EA
  8
0
  6
CONTINUOUS
 62
     1
 10
218.471663336523
 20
-10.9980473080682
 30
0.0
 40
2.00000007748604
  1
REAR TERMINAL EXECTION ONLY DRILLING TEMPLATE
 50
359.999999896069
 41
0.749999997615814
 72
     1
 11
252.071664526849
 21
-9.99804733010478
 31
0.0
 73
     2
  0
INSERT
  5
   6EB
  8
0
  6
CONTINUOUS
 62
     7
  2
*UDIM107
 10
0.0
 20
0.0
 30
0.0
  0
INSERT
  5
   6EC
  8
0
  6
CONTINUOUS
 62
     7
  2
*UDIM108
 10
0.0
 20
0.0
 30
0.0
  0
INSERT
  5
   6ED
  8
0
  6
CONTINUOUS
 62
     7
  2
*UDIM109
 10
0.0
 20
0.0
 30
0.0
  0
INSERT
  5
   6EE
  8
0
  6
CONTINUOUS
 62
     7
  2
*UDIM110
 10
0.0
 20
0.0
 30
0.0
  0
INSERT
  5
   6EF
  8
0
  6
CONTINUOUS
 62
     7
  2
*UDIM111
 10
0.0
 20
0.0
 30
0.0
  0
INSERT
  5
   6F0
  8
0
  6
CONTINUOUS
 62
     7
  2
*UDIM112
 10
0.0
 20
0.0
 30
0.0
  0
INSERT
  5
   6F1
  8
0
  6
CONTINUOUS
 62
     7
  2
*UDIM113
 10
0.0
 20
0.0
 30
0.0
  0
INSERT
  5
   6F2
  8
0
  6
CONTINUOUS
 62
     7
  2
*UDIM114
 10
0.0
 20
0.0
 30
0.0
  0
TEXT
  5
   6F3
  8
0
  6
CONTINUOUS
 62
     7
 10
205.539556290533
 20
-79.4922980159861
 30
0.0
 40
2.99999994933605
  1
X
 50
359.999999896069
 41
0.916666607525612
 72
     2
 11
207.739556108739
 21
-79.4922980199657
 31
0.0
  0
TEXT
  5
   6F4
  8
0
  6
CONTINUOUS
 62
     7
 10
278.011261472008
 20
-79.2648768242428
 30
0.0
 40
2.99999994933605
  1
X
 50
359.999999896069
 41
0.916666607525612
 72
     2
 11
280.211261290214
 21
-79.2648768282224
 31
0.0
  0
ENDSEC
  0
EOF
