  0
SECTION
  2
HEADER
  9
$ACADVER
  1
AC1009
  9
$DWGCODEPAGE
  3
iso8859-1
  9
$INSBASE
 10
0.0
 20
0.0
 30
0.0
  9
$EXTMIN
 10
1.0E20
 20
1.0E20
  9
$EXTMAX
 10
-1.0E20
 20
-1.0E20
  9
$LIMMIN
 10
0.0
 20
0.0
  9
$LIMMAX
 10
12.0
 20
9.0
  9
$ORTHOMODE
 70
     0
  9
$REGENMODE
 70
     1
  9
$FILLMODE
 70
     1
  9
$QTEXTMODE
 70
     0
  9
$MIRRTEXT
 70
     1
  9
$DRAGMODE
 70
     2
  9
$LTSCALE
 40
15.0
  9
$OSMODE
 70
     0
  9
$ATTMODE
 70
     1
  9
$TEXTSIZE
 40
0.2
  9
$TRACEWID
 40
0.05
  9
$TEXTSTYLE
  7
STANDARD
  9
$CLAYER
  8
0
  9
$CELTYPE
  6
DASHED
  9
$CECOLOR
 62
   256
  9
$DIMSCALE
 40
1.0
  9
$DIMASZ
 40
0.18
  9
$DIMEXO
 40
0.0625
  9
$DIMDLI
 40
0.38
  9
$DIMRND
 40
0.0
  9
$DIMDLE
 40
0.0
  9
$DIMEXE
 40
0.18
  9
$DIMTP
 40
0.0
  9
$DIMTM
 40
0.0
  9
$DIMTXT
 40
0.18
  9
$DIMCEN
 40
0.09
  9
$DIMTSZ
 40
0.0
  9
$DIMTOL
 70
     0
  9
$DIMLIM
 70
     0
  9
$DIMTIH
 70
     1
  9
$DIMTOH
 70
     1
  9
$DIMSE1
 70
     0
  9
$DIMSE2
 70
     0
  9
$DIMTAD
 70
     0
  9
$DIMZIN
 70
     0
  9
$DIMBLK
  1

  9
$DIMASO
 70
     1
  9
$DIMSHO
 70
     1
  9
$DIMPOST
  1

  9
$DIMAPOST
  1

  9
$DIMALT
 70
     0
  9
$DIMALTD
 70
     2
  9
$DIMALTF
 40
25.4
  9
$DIMLFAC
 40
1.0
  9
$DIMTOFL
 70
     0
  9
$DIMTVP
 40
0.0
  9
$DIMTIX
 70
     0
  9
$DIMSOXD
 70
     0
  9
$DIMSAH
 70
     0
  9
$DIMBLK1
  1

  9
$DIMBLK2
  1

  9
$DIMSTYLE
  2
STANDARD
  9
$DIMCLRD
 70
     0
  9
$DIMCLRE
 70
     0
  9
$DIMCLRT
 70
     0
  9
$DIMTFAC
 40
1.0
  9
$DIMGAP
 40
0.09
  9
$LUNITS
 70
     2
  9
$LUPREC
 70
     4
  9
$AXISMODE
 70
     0
  9
$AXISUNIT
 10
0.0
 20
0.0
  9
$SKETCHINC
 40
0.1
  9
$FILLETRAD
 40
0.0
  9
$AUNITS
 70
     0
  9
$AUPREC
 70
     0
  9
$MENU
  1
acad
  9
$ELEVATION
 40
0.0
  9
$PELEVATION
 40
0.0
  9
$THICKNESS
 40
0.0
  9
$LIMCHECK
 70
     0
  9
$BLIPMODE
 70
     1
  9
$CHAMFERA
 40
0.0
  9
$CHAMFERB
 40
0.0
  9
$SKPOLY
 70
     0
  9
$TDCREATE
 40
0.000000000
  9
$TDUPDATE
 40
0.000000000
  9
$TDINDWG
 40
0.0
  9
$TDUSRTIMER
 40
0.0
  9
$USRTIMER
 70
     1
  9
$ANGBASE
 50
0.0
  9
$ANGDIR
 70
     0
  9
$PDMODE
 70
     0
  9
$PDSIZE
 40
0.0
  9
$PLINEWID
 40
0.0
  9
$COORDS
 70
     1
  9
$SPLFRAME
 70
     0
  9
$SPLINETYPE
 70
     6
  9
$SPLINESEGS
 70
     8
  9
$ATTDIA
 70
     0
  9
$ATTREQ
 70
     1
  9
$HANDLING
 70
     1
  9
$HANDSEED
  5
   779
  9
$SURFTAB1
 70
     6
  9
$SURFTAB2
 70
     6
  9
$SURFTYPE
 70
     6
  9
$SURFU
 70
     6
  9
$SURFV
 70
     6
  9
$UCSNAME
  2

  9
$UCSORG
 10
0.0
 20
0.0
 30
0.0
  9
$UCSXDIR
 10
1.0
 20
0.0
 30
0.0
  9
$UCSYDIR
 10
0.0
 20
1.0
 30
0.0
  9
$PUCSNAME
  2

  9
$PUCSORG
 10
0.0
 20
0.0
 30
0.0
  9
$PUCSXDIR
 10
1.0
 20
0.0
 30
0.0
  9
$PUCSYDIR
 10
0.0
 20
1.0
 30
0.0
  9
$USERI1
 70
     0
  9
$USERI2
 70
     0
  9
$USERI3
 70
     0
  9
$USERI4
 70
     0
  9
$USERI5
 70
     0
  9
$USERR1
 40
0.0
  9
$USERR2
 40
0.0
  9
$USERR3
 40
0.0
  9
$USERR4
 40
0.0
  9
$USERR5
 40
0.0
  9
$WORLDVIEW
 70
     1
  9
$SHADEDGE
 70
     3
  9
$SHADEDIF
 70
    70
  9
$TILEMODE
 70
     1
  9
$MAXACTVP
 70
    16
  9
$PINSBASE
 10
0.0
 20
0.0
 30
0.0
  9
$PLIMCHECK
 70
     0
  9
$PEXTMIN
 10
1.0E20
 20
1.0E20
 30
1.0E20
  9
$PEXTMAX
 10
-1.0E20
 20
-1.0E20
 30
-1.0E20
  9
$PLIMMIN
 10
0.0
 20
0.0
  9
$PLIMMAX
 10
12.0
 20
9.0
  9
$UNITMODE
 70
     0
  9
$VISRETAIN
 70
     0
  0
ENDSEC
  0
SECTION
  2
TABLES
  0
TABLE
  2
VPORT
 70
     1
  0
VPORT
  2
*ACTIVE
 70
     0
 10
0.0
 20
0.0
 11
1.0
 21
1.0
 12
6.801242
 22
4.5
 13
0.0
 23
0.0
 14
1.0
 24
1.0
 15
0.0
 25
0.0
 16
0.0
 26
0.0
 36
1.0
 17
0.0
 27
0.0
 37
0.0
 40
9.0
 41
1.511387
 42
50.0
 43
0.0
 44
0.0
 50
0.0
 51
0.0
 71
     0
 72
   100
 73
     1
 74
     1
 75
     0
 76
     0
 77
     0
 78
     0
  0
ENDTAB
  0
TABLE
  2
LTYPE
 70
    41
  0
LTYPE
  2
BYBLOCK
 70
     0
  3

 72
    65
 73
     0
 40
0.0
  0
LTYPE
  2
BYLAYER
 70
     0
  3

 72
    65
 73
     0
 40
0.0
  0
LTYPE
  2
CONTINUOUS
 70
     0
  3
Solid line
 72
    65
 73
     0
 40
0.0
  0
LTYPE
  2
BORDER
 70
    64
  3
__ __ . __ __ . __ __ . __ __ . __ __ . __ __ .
 72
    65
 73
     6
 40
1.75
 49
0.5
 49
-0.25
 49
0.5
 49
-0.25
 49
0.0
 49
-0.25
  0
LTYPE
  2
BORDER2
 70
    64
  3
__.__.__.__.__.__.__.__.__.__.__.__.__.__.__.__
 72
    65
 73
     6
 40
0.875
 49
0.25
 49
-0.125
 49
0.25
 49
-0.125
 49
0.0
 49
-0.125
  0
LTYPE
  2
BORDERX2
 70
    64
  3
____  ____  .  ____  ____  .  ____  ____  .  __
 72
    65
 73
     6
 40
3.5
 49
1.0
 49
-0.5
 49
1.0
 49
-0.5
 49
0.0
 49
-0.5
  0
LTYPE
  2
CENTER
 70
    64
  3
____ _ ____ _ ____ _ ____ _ ____ _ ____ _ ____
 72
    65
 73
     4
 40
2.0
 49
1.25
 49
-0.25
 49
0.25
 49
-0.25
  0
LTYPE
  2
CENTER2
 70
    64
  3
___ _ ___ _ ___ _ ___ _ ___ _ ___ _ ___ _ ___ _
 72
    65
 73
     4
 40
1.125
 49
0.75
 49
-0.125
 49
0.125
 49
-0.125
  0
LTYPE
  2
CENTERX2
 70
    64
  3
________  __  ________  __  ________  __  _____
 72
    65
 73
     4
 40
4.0
 49
2.5
 49
-0.5
 49
0.5
 49
-0.5
  0
LTYPE
  2
DASHDOT
 70
    64
  3
__ . __ . __ . __ . __ . __ . __ . __ . __ . __
 72
    65
 73
     4
 40
1.0
 49
0.5
 49
-0.25
 49
0.0
 49
-0.25
  0
LTYPE
  2
DASHDOT2
 70
    64
  3
_._._._._._._._._._._._._._._._._._._._._._._._
 72
    65
 73
     4
 40
0.5
 49
0.25
 49
-0.125
 49
0.0
 49
-0.125
  0
LTYPE
  2
DASHDOTX2
 70
    64
  3
____  .  ____  .  ____  .  ____  .  ____  .  __
 72
    65
 73
     4
 40
2.0
 49
1.0
 49
-0.5
 49
0.0
 49
-0.5
  0
LTYPE
  2
DASHED
 70
    64
  3
__ __ __ __ __ __ __ __ __ __ __ __ __ __ __ __
 72
    65
 73
     2
 40
0.75
 49
0.5
 49
-0.25
  0
LTYPE
  2
DASHED2
 70
    64
  3
_ _ _ _ _ _ _ _ _ _ _ _ _ _ _ _ _ _ _ _ _ _ _ _
 72
    65
 73
     2
 40
0.375
 49
0.25
 49
-0.125
  0
LTYPE
  2
DASHEDX2
 70
    64
  3
____  ____  ____  ____  ____  ____  ____  ____
 72
    65
 73
     2
 40
1.5
 49
1.0
 49
-0.5
  0
LTYPE
  2
DIVIDE
 70
    64
  3
____ . . ____ . . ____ . . ____ . . ____ . . __
 72
    65
 73
     6
 40
1.25
 49
0.5
 49
-0.25
 49
0.0
 49
-0.25
 49
0.0
 49
-0.25
  0
LTYPE
  2
DIVIDE2
 70
    64
  3
__..__..__..__..__..__..__..__..__..__..__..__.
 72
    65
 73
     6
 40
0.625
 49
0.25
 49
-0.125
 49
0.0
 49
-0.125
 49
0.0
 49
-0.125
  0
LTYPE
  2
DIVIDEX2
 70
    64
  3
________  .  .  ________  .  .  ________  .  .
 72
    65
 73
     6
 40
2.5
 49
1.0
 49
-0.5
 49
0.0
 49
-0.5
 49
0.0
 49
-0.5
  0
LTYPE
  2
DOT
 70
    64
  3
. . . . . . . . . . . . . . . . . . . . . . . .
 72
    65
 73
     2
 40
0.25
 49
0.0
 49
-0.25
  0
LTYPE
  2
DOT2
 70
    64
  3
...............................................
 72
    65
 73
     2
 40
0.125
 49
0.0
 49
-0.125
  0
LTYPE
  2
DOTX2
 70
    64
  3
.  .  .  .  .  .  .  .  .  .  .  .  .  .  .  .
 72
    65
 73
     2
 40
0.5
 49
0.0
 49
-0.5
  0
LTYPE
  2
HIDDEN
 70
    64
  3
__ __ __ __ __ __ __ __ __ __ __ __ __ __ __ __
 72
    65
 73
     2
 40
0.375
 49
0.25
 49
-0.125
  0
LTYPE
  2
HIDDEN2
 70
    64
  3
_ _ _ _ _ _ _ _ _ _ _ _ _ _ _ _ _ _ _ _ _ _ _ _
 72
    65
 73
     2
 40
0.1875
 49
0.125
 49
-0.0625
  0
LTYPE
  2
HIDDENX2
 70
    64
  3
____ ____ ____ ____ ____ ____ ____ ____ ____ __
 72
    65
 73
     2
 40
0.75
 49
0.5
 49
-0.25
  0
LTYPE
  2
PHANTOM
 70
    64
  3
______  __  __  ______  __  __  ______  __  __
 72
    65
 73
     6
 40
2.5
 49
1.25
 49
-0.25
 49
0.25
 49
-0.25
 49
0.25
 49
-0.25
  0
LTYPE
  2
PHANTOM2
 70
    64
  3
___ _ _ ___ _ _ ___ _ _ ___ _ _ ___ _ _ ___ _ _
 72
    65
 73
     6
 40
1.25
 49
0.625
 49
-0.125
 49
0.125
 49
-0.125
 49
0.125
 49
-0.125
  0
LTYPE
  2
PHANTOMX2
 70
    64
  3
____________    ____    ____    ____________
 72
    65
 73
     6
 40
5.0
 49
2.5
 49
-0.5
 49
0.5
 49
-0.5
 49
0.5
 49
-0.5
  0
LTYPE
  2
ACAD_ISO02W100
 70
    64
  3
__ __ __ __ __ __ __ __ __ __ __ __ __ __ __ __
 72
    65
 73
     2
 40
15.0
 49
12.0
 49
-3.0
  0
LTYPE
  2
ACAD_ISO03W100
 70
    64
  3
__    __    __    __    __    __    __    __
 72
    65
 73
     2
 40
30.0
 49
12.0
 49
-18.0
  0
LTYPE
  2
ACAD_ISO04W100
 70
    64
  3
____ . ____ . ____ . ____ . ____ . ____ . ____
 72
    65
 73
     4
 40
30.5
 49
24.0
 49
-3.0
 49
0.5
 49
-3.0
  0
LTYPE
  2
ACAD_ISO05W100
 70
    64
  3
____ .. ____ .. ____ .. ____ .. ____ .. ____ ..
 72
    65
 73
     6
 40
34.0
 49
24.0
 49
-3.0
 49
0.5
 49
-3.0
 49
0.5
 49
-3.0
  0
LTYPE
  2
ACAD_ISO06W100
 70
    64
  3
____ ... ____ ... ____ ... ____ ... ____ ... __
 72
    65
 73
     8
 40
37.5
 49
24.0
 49
-3.0
 49
0.5
 49
-3.0
 49
0.5
 49
-3.0
 49
0.5
 49
-3.0
  0
LTYPE
  2
ACAD_ISO07W100
 70
    64
  3
. . . . . . . . . . . . . . . . . . . . . . . .
 72
    65
 73
     2
 40
3.5
 49
0.5
 49
-3.0
  0
LTYPE
  2
ACAD_ISO08W100
 70
    64
  3
____ __ ____ __ ____ __ ____ ____ __ __ ____ __
 72
    65
 73
     4
 40
36.0
 49
24.0
 49
-3.0
 49
6.0
 49
-3.0
  0
LTYPE
  2
ACAD_ISO09W100
 70
    64
  3
____ __ __ ____ __ __ ____ __ __ ____ __ __ ___
 72
    65
 73
     6
 40
45.0
 49
24.0
 49
-3.0
 49
6.0
 49
-3.0
 49
6.0
 49
-3.0
  0
LTYPE
  2
ACAD_ISO10W100
 70
    64
  3
__ . __ . __ . __ . __ . __ . __ . __ . __ . __
 72
    65
 73
     4
 40
18.5
 49
12.0
 49
-3.0
 49
0.5
 49
-3.0
  0
LTYPE
  2
ACAD_ISO11W100
 70
    64
  3
__ __ . __ __ . __ __ . __ __ . __ __ . __ __ .
 72
    65
 73
     6
 40
33.5
 49
12.0
 49
-3.0
 49
12.0
 49
-3.0
 49
0.5
 49
-3.0
  0
LTYPE
  2
ACAD_ISO12W100
 70
    64
  3
__ . . __ . . __ . . __ . . __ . . __ . . __ .
 72
    65
 73
     6
 40
22.0
 49
12.0
 49
-3.0
 49
0.5
 49
-3.0
 49
0.5
 49
-3.0
  0
LTYPE
  2
ACAD_ISO13W100
 70
    64
  3
__ __ . . __ __ . . __ __ . . __ __ . . __ __ .
 72
    65
 73
     8
 40
37.0
 49
12.0
 49
-3.0
 49
12.0
 49
-3.0
 49
0.5
 49
-3.0
 49
0.5
 49
-3.0
  0
LTYPE
  2
ACAD_ISO14W100
 70
    64
  3
__ . . . __ . . . __ . . . __ . . . __ . . . __
 72
    65
 73
     8
 40
25.5
 49
12.0
 49
-3.0
 49
0.5
 49
-3.0
 49
0.5
 49
-3.0
 49
0.5
 49
-3.0
  0
LTYPE
  2
ACAD_ISO15W100
 70
    64
  3
__ __ . . . __ __ . . . __ __ . . . __ __ . . .
 72
    65
 73
    10
 40
40.5
 49
12.0
 49
-3.0
 49
12.0
 49
-3.0
 49
0.5
 49
-3.0
 49
0.5
 49
-3.0
 49
0.5
 49
-3.0
  0
ENDTAB
  0
TABLE
  2
STYLE
 70
     4
  0
STYLE
  2
STANDARD
 70
    64
 40
0.0
 41
1.0
 50
0.0
 71
     0
 42
0.2
  3
txt
  4

  0
STYLE
  2
TOLERANCE
 70
    64
 40
0.0
 41
1.0
 50
0.0
 71
     0
 42
0.2
  3
../igesfont/iges1003.shx
  4

  0
STYLE
  2
ROMANS
 70
    64
 40
0.0
 41
1.0
 50
0.0
 71
     0
 42
0.2
  3
romans.shx
  4

  0
STYLE
  2
ROMANC
 70
    64
 40
0.0
 41
1.0
 50
0.0
 71
     0
 42
0.2
  3
romanc.shx
  4

  0
ENDTAB
  0
TABLE
  2
DIMSTYLE
 70
     2
  0
DIMSTYLE
  2
UNNAMED
 70
     0
  3

  4

  5

  6

  7

 40
1.0
 41
0.18
 42
0.0625
 43
0.38
 44
0.18
 45
0.0
 46
0.0
 47
0.0
 48
0.0
140
0.18
141
0.09
142
0.0
143
25.4
144
1.0
145
0.0
146
1.0
147
0.09
 71
     0
 72
     0
 73
     1
 74
     1
 75
     0
 76
     0
 77
     0
 78
     0
170
     0
171
     2
172
     0
173
     0
174
     0
175
     0
176
     0
177
     0
178
     0
  0
DIMSTYLE
  2
STANDARD
 70
     0
  3

  4

  5

  6

  7

 40
1.0
 41
0.18
 42
0.0625
 43
0.38
 44
0.18
 45
0.0
 46
0.0
 47
0.0
 48
0.0
140
0.18
141
0.09
142
0.0
143
25.4
144
1.0
145
0.0
146
1.0
147
0.09
 71
     0
 72
     0
 73
     1
 74
     1
 75
     0
 76
     0
 77
     0
 78
     0
170
     0
171
     2
172
     0
173
     0
174
     0
175
     0
176
     0
177
     0
178
     0
  0
ENDTAB
  0
TABLE
  2
LAYER
 70
     2
  0
LAYER
  2
0
 70
     0
 62
     7
  6
CONTINUOUS
  0
LAYER
  2
255
 70
     0
 62
     7
  6
CONTINUOUS
  0
ENDTAB
  0
ENDSEC
  0
SECTION
  2
BLOCKS
  0
BLOCK
  5
     B
  8
0
  6
CONTINUOUS
 62
     3
  2
*HATCH876
 70
    65
 10
0.0
 20
0.0
 30
0.0
  3
*HATCH876
  0
LINE
  5
     C
  8
0
  6
CONTINUOUS
 62
     7
 10
-2.59645748138428
 20
-31.3446865081787
 30
0.0
 11
-2.24040460586548
 21
-31.7007389068604
 31
0.0
  0
ENDBLK
  5
     D
  8
0
  6
CONTINUOUS
 62
     3
  0
BLOCK
  5
     E
  8
0
  6
CONTINUOUS
 62
     7
  2
*HATCH877
 70
    65
 10
0.0
 20
0.0
 30
0.0
  3
*HATCH877
  0
LINE
  5
     F
  8
0
  6
CONTINUOUS
 62
     7
 10
-2.40004777908325
 20
-2.40004777908325
 30
0.0
 11
-2.50002670288086
 21
-2.50002646446228
 31
0.0
  0
ENDBLK
  5
    10
  8
0
  6
CONTINUOUS
 62
     7
  0
BLOCK
  5
    11
  8
0
  6
CONTINUOUS
 62
     7
  2
*HATCH878
 70
    65
 10
0.0
 20
0.0
 30
0.0
  3
*HATCH878
  0
LINE
  5
    12
  8
0
  6
CONTINUOUS
 62
     7
 10
-3.52946472167969
 20
-20.5000267028809
 30
0.0
 11
-3.6000018119812
 21
-20.5705642700195
 31
0.0
  0
LINE
  5
    13
  8
0
  6
CONTINUOUS
 62
     7
 10
-2.40004777908325
 20
-23.6132507324219
 30
0.0
 11
-3.6000018119812
 21
-24.8132038116455
 31
0.0
  0
LINE
  5
    14
  8
0
  6
CONTINUOUS
 62
     7
 10
-2.40004777908325
 20
-27.8558921813965
 30
0.0
 11
-3.6000018119812
 21
-29.0558433532715
 31
0.0
  0
LINE
  5
    15
  8
0
  6
CONTINUOUS
 62
     7
 10
-2.40004777908325
 20
-32.0985336303711
 30
0.0
 11
-3.6000018119812
 21
-33.2984848022461
 31
0.0
  0
ENDBLK
  5
    16
  8
0
  6
CONTINUOUS
 62
     7
  0
BLOCK
  5
    17
  8
0
  6
CONTINUOUS
 62
     7
  2
*HATCH879
 70
    65
 10
0.0
 20
0.0
 30
0.0
  3
*HATCH879
  0
LINE
  5
    18
  8
0
  6
CONTINUOUS
 62
     7
 10
-2.40004777908325
 20
-44.8264541625977
 30
0.0
 11
-3.6877498626709
 21
-46.1141548156738
 31
0.0
  0
ENDBLK
  5
    19
  8
0
  6
CONTINUOUS
 62
     7
  0
BLOCK
  5
    1A
  8
0
  6
CONTINUOUS
 62
     7
  2
*HATCH880
 70
    65
 10
0.0
 20
0.0
 30
0.0
  3
*HATCH880
  0
LINE
  5
    1B
  8
0
  6
CONTINUOUS
 62
     7
 10
-2.40001606941223
 20
-53.3117027282715
 30
0.0
 11
-3.6000018119812
 21
-54.5116882324219
 31
0.0
  0
ENDBLK
  5
    1C
  8
0
  6
CONTINUOUS
 62
     7
  0
BLOCK
  5
    1D
  8
0
  6
CONTINUOUS
 62
     3
  2
*HATCH881
 70
    65
 10
0.0
 20
0.0
 30
0.0
  3
*HATCH881
  0
LINE
  5
    1E
  8
0
  6
CONTINUOUS
 62
     7
 10
-2.59645748138428
 20
-31.3446865081787
 30
0.0
 11
-2.24040460586548
 21
-31.7007389068604
 31
0.0
  0
ENDBLK
  5
    1F
  8
0
  6
CONTINUOUS
 62
     3
  0
BLOCK
  5
    20
  8
0
  6
CONTINUOUS
 62
     3
  2
*HATCH882
 70
    65
 10
0.0
 20
0.0
 30
0.0
  3
*HATCH882
  0
LINE
  5
    21
  8
0
  6
CONTINUOUS
 62
     7
 10
-2.59601783752441
 20
-44.073055267334
 30
0.0
 11
-2.17350578308105
 21
-44.4955673217773
 31
0.0
  0
ENDBLK
  5
    22
  8
0
  6
CONTINUOUS
 62
     3
  0
BLOCK
  5
    23
  8
0
  6
CONTINUOUS
 62
     3
  2
*HATCH883
 70
    65
 10
0.0
 20
0.0
 30
0.0
  3
*HATCH883
  0
LINE
  5
    24
  8
0
  6
CONTINUOUS
 62
   210
 10
-0.793899476528168
 20
-43.7538528442383
 30
0.0
 11
-0.392414540052414
 21
-44.1553382873535
 31
0.0
  0
ENDBLK
  5
    25
  8
0
  6
CONTINUOUS
 62
     3
  0
BLOCK
  5
    26
  8
0
  6
CONTINUOUS
 62
     3
  2
*HATCH884
 70
    65
 10
0.0
 20
0.0
 30
0.0
  3
*HATCH884
  0
LINE
  5
    27
  8
0
  6
CONTINUOUS
 62
   210
 10
-1.09645795822144
 20
-39.2086524963379
 30
0.0
 11
-0.654154121875763
 21
-39.6509552001953
 31
0.0
  0
ENDBLK
  5
    28
  8
0
  6
CONTINUOUS
 62
     3
  0
BLOCK
  5
    29
  8
0
  6
CONTINUOUS
 62
     3
  2
*HATCH885
 70
    65
 10
0.0
 20
0.0
 30
0.0
  3
*HATCH885
  0
LINE
  5
    2A
  8
0
  6
CONTINUOUS
 62
   210
 10
-0.830833554267883
 20
-37.352954864502
 30
0.0
 11
-0.403591841459274
 21
-37.7801971435547
 31
0.0
  0
ENDBLK
  5
    2B
  8
0
  6
CONTINUOUS
 62
     3
  0
BLOCK
  5
    2C
  8
0
  6
CONTINUOUS
 62
     3
  2
*HATCH886
 70
    65
 10
0.0
 20
0.0
 30
0.0
  3
*HATCH886
  0
LINE
  5
    2D
  8
0
  6
CONTINUOUS
 62
   210
 10
-1.09645795822144
 20
-32.8446884155273
 30
0.0
 11
-0.677002429962158
 21
-33.2641448974609
 31
0.0
  0
ENDBLK
  5
    2E
  8
0
  6
CONTINUOUS
 62
     3
  0
BLOCK
  5
    2F
  8
0
  6
CONTINUOUS
 62
     3
  2
*HATCH887
 70
    65
 10
0.0
 20
0.0
 30
0.0
  3
*HATCH887
  0
LINE
  5
    30
  8
0
  6
CONTINUOUS
 62
   210
 10
-0.853675007820129
 20
-30.9661483764648
 30
0.0
 11
-0.403591841459274
 21
-31.4162330627441
 31
0.0
  0
ENDBLK
  5
    31
  8
0
  6
CONTINUOUS
 62
     3
  0
BLOCK
  5
    32
  8
0
  6
CONTINUOUS
 62
     3
  2
*HATCH888
 70
    65
 10
0.0
 20
0.0
 30
0.0
  3
*HATCH888
  0
LINE
  5
    33
  8
0
  6
CONTINUOUS
 62
   210
 10
-4.94111394882202
 20
-29.0000267028809
 30
0.0
 11
-4.88759756088257
 21
-29.0535430908203
 31
0.0
  0
ENDBLK
  5
    34
  8
0
  6
CONTINUOUS
 62
     3
  0
BLOCK
  5
    35
  8
0
  6
CONTINUOUS
 62
     3
  2
*HATCH889
 70
    65
 10
0.0
 20
0.0
 30
0.0
  3
*HATCH889
  0
LINE
  5
    36
  8
0
  6
CONTINUOUS
 62
   210
 10
-5.59645795822144
 20
-30.4660034179688
 30
0.0
 11
-5.1905083656311
 21
-30.8719539642334
 31
0.0
  0
ENDBLK
  5
    37
  8
0
  6
CONTINUOUS
 62
     3
  0
BLOCK
  5
    38
  8
0
  6
CONTINUOUS
 62
     3
  2
*HATCH890
 70
    65
 10
0.0
 20
0.0
 30
0.0
  3
*HATCH890
  0
LINE
  5
    39
  8
0
  6
CONTINUOUS
 62
   210
 10
-5.3443431854248
 20
-34.9607620239258
 30
0.0
 11
-4.90359163284302
 21
-35.4015121459961
 31
0.0
  0
ENDBLK
  5
    3A
  8
0
  6
CONTINUOUS
 62
     3
  0
BLOCK
  5
    3B
  8
0
  6
CONTINUOUS
 62
     3
  2
*HATCH891
 70
    65
 10
0.0
 20
0.0
 30
0.0
  3
*HATCH891
  0
LINE
  5
    3C
  8
0
  6
CONTINUOUS
 62
   210
 10
-5.59645795822144
 20
-36.8299674987793
 30
0.0
 11
-5.16767072677612
 21
-37.2587547302246
 31
0.0
  0
ENDBLK
  5
    3D
  8
0
  6
CONTINUOUS
 62
     3
  0
BLOCK
  5
    3E
  8
0
  6
CONTINUOUS
 62
     3
  2
*HATCH892
 70
    65
 10
0.0
 20
0.0
 30
0.0
  3
*HATCH892
  0
LINE
  5
    3F
  8
0
  6
CONTINUOUS
 62
   210
 10
-5.32150220870972
 20
-41.3475685119629
 30
0.0
 11
-4.90359163284302
 21
-41.7654800415039
 31
0.0
  0
ENDBLK
  5
    40
  8
0
  6
CONTINUOUS
 62
     3
  0
BLOCK
  5
    41
  8
0
  6
CONTINUOUS
 62
     3
  2
*HATCH893
 70
    65
 10
0.0
 20
0.0
 30
0.0
  3
*HATCH893
  0
LINE
  5
    42
  8
0
  6
CONTINUOUS
 62
   210
 10
-5.59645795822144
 20
-43.1939315795898
 30
0.0
 11
-5.14482545852661
 21
-43.645565032959
 31
0.0
  0
ENDBLK
  5
    43
  8
0
  6
CONTINUOUS
 62
     3
  0
BLOCK
  5
    44
  8
0
  6
CONTINUOUS
 62
     7
  2
*HATCH894
 70
    65
 10
0.0
 20
0.0
 30
0.0
  3
*HATCH894
  0
LINE
  5
    45
  8
0
  6
CONTINUOUS
 62
     7
 10
-1.96218597888947
 20
-27.7363147735596
 30
0.0
 11
-1.04660403728485
 21
-28.6518974304199
 31
0.0
  0
LINE
  5
    46
  8
0
  6
CONTINUOUS
 62
     7
 10
-1.2000321149826
 20
-24.2558269500732
 30
0.0
 11
-1.71661376953125E-5
 21
-25.4558429718018
 31
0.0
  0
LINE
  5
    47
  8
0
  6
CONTINUOUS
 62
     7
 10
-1.2000321149826
 20
-20.01318359375
 30
0.0
 11
-1.71661376953125E-5
 21
-21.2131996154785
 31
0.0
  0
LINE
  5
    48
  8
0
  6
CONTINUOUS
 62
     7
 10
-0.470546126365662
 20
-16.5000267028809
 30
0.0
 11
-1.71661376953125E-5
 21
-16.9705562591553
 31
0.0
  0
ENDBLK
  5
    49
  8
0
  6
CONTINUOUS
 62
     7
  0
BLOCK
  5
    4A
  8
0
  6
CONTINUOUS
 62
     7
  2
*HATCH895
 70
    65
 10
0.0
 20
0.0
 30
0.0
  3
*HATCH895
  0
LINE
  5
    4B
  8
0
  6
CONTINUOUS
 62
     7
 10
-6.14109420776367
 20
-27.8000450134277
 30
0.0
 11
-4.94111394882202
 21
-29.0000267028809
 31
0.0
  0
ENDBLK
  5
    4C
  8
0
  6
CONTINUOUS
 62
     7
  0
BLOCK
  5
    4D
  8
0
  6
CONTINUOUS
 62
     7
  2
*HATCH896
 70
    65
 10
0.0
 20
0.0
 30
0.0
  3
*HATCH896
  0
LINE
  5
    4E
  8
0
  6
CONTINUOUS
 62
     7
 10
-6.1543288230896
 20
-49.0000267028809
 30
0.0
 11
-4.95433330535889
 21
-50.200023651123
 31
0.0
  0
ENDBLK
  5
    4F
  8
0
  6
CONTINUOUS
 62
     7
  0
BLOCK
  5
    50
  8
0
  6
CONTINUOUS
 62
     7
  2
*HATCH897
 70
    65
 10
0.0
 20
0.0
 30
0.0
  3
*HATCH897
  0
LINE
  5
    51
  8
0
  6
CONTINUOUS
 62
     7
 10
-1.20003223419189
 20
-70.9249038696289
 30
0.0
 11
-3.84867265820503E-2
 21
-72.0864486694336
 31
0.0
  0
LINE
  5
    52
  8
0
  6
CONTINUOUS
 62
     7
 10
-1.20003223419189
 20
-66.682258605957
 30
0.0
 11
-2.93496814265382E-5
 21
-67.8822631835938
 31
0.0
  0
LINE
  5
    53
  8
0
  6
CONTINUOUS
 62
     7
 10
-1.20003223419189
 20
-62.4396133422852
 30
0.0
 11
-2.62511530308984E-5
 21
-63.6396217346191
 31
0.0
  0
LINE
  5
    54
  8
0
  6
CONTINUOUS
 62
     7
 10
-1.20003223419189
 20
-58.1969680786133
 30
0.0
 11
-2.31526246352587E-5
 21
-59.3969802856445
 31
0.0
  0
LINE
  5
    55
  8
0
  6
CONTINUOUS
 62
     7
 10
-1.20003223419189
 20
-53.9543228149414
 30
0.0
 11
-2.0054096239619E-5
 21
-55.1543388366699
 31
0.0
  0
LINE
  5
    56
  8
0
  6
CONTINUOUS
 62
     7
 10
-1.80615484714508
 20
-49.1055641174316
 30
0.0
 11
-0.105551064014435
 21
-50.8061676025391
 31
0.0
  0
ENDBLK
  5
    57
  8
0
  6
CONTINUOUS
 62
     7
  0
BLOCK
  5
    58
  8
0
  6
CONTINUOUS
 62
     3
  2
*HATCH898
 70
    65
 10
0.0
 20
0.0
 30
0.0
  3
*HATCH898
  0
LINE
  5
    59
  8
0
  6
CONTINUOUS
 62
     7
 10
-2.59645748138428
 20
-31.3446865081787
 30
0.0
 11
-2.24040460586548
 21
-31.7007389068604
 31
0.0
  0
ENDBLK
  5
    5A
  8
0
  6
CONTINUOUS
 62
     3
  0
BLOCK
  5
    5B
  8
0
  6
CONTINUOUS
 62
     3
  2
*HATCH899
 70
    65
 10
0.0
 20
0.0
 30
0.0
  3
*HATCH899
  0
LINE
  5
    5C
  8
0
  6
CONTINUOUS
 62
     7
 10
-2.59601783752441
 20
-44.073055267334
 30
0.0
 11
-2.17350578308105
 21
-44.4955673217773
 31
0.0
  0
ENDBLK
  5
    5D
  8
0
  6
CONTINUOUS
 62
     3
  0
BLOCK
  5
    5E
  8
0
  6
CONTINUOUS
 62
     3
  2
*HATCH900
 70
    65
 10
0.0
 20
0.0
 30
0.0
  3
*HATCH900
  0
LINE
  5
    5F
  8
0
  6
CONTINUOUS
 62
   210
 10
-0.793899476528168
 20
-43.7538528442383
 30
0.0
 11
-0.392414540052414
 21
-44.1553382873535
 31
0.0
  0
ENDBLK
  5
    60
  8
0
  6
CONTINUOUS
 62
     3
  0
BLOCK
  5
    61
  8
0
  6
CONTINUOUS
 62
     3
  2
*HATCH901
 70
    65
 10
0.0
 20
0.0
 30
0.0
  3
*HATCH901
  0
LINE
  5
    62
  8
0
  6
CONTINUOUS
 62
   210
 10
-1.09645795822144
 20
-39.2086524963379
 30
0.0
 11
-0.654154121875763
 21
-39.6509552001953
 31
0.0
  0
ENDBLK
  5
    63
  8
0
  6
CONTINUOUS
 62
     3
  0
BLOCK
  5
    64
  8
0
  6
CONTINUOUS
 62
     3
  2
*HATCH902
 70
    65
 10
0.0
 20
0.0
 30
0.0
  3
*HATCH902
  0
LINE
  5
    65
  8
0
  6
CONTINUOUS
 62
   210
 10
-0.830833554267883
 20
-37.352954864502
 30
0.0
 11
-0.403591841459274
 21
-37.7801971435547
 31
0.0
  0
ENDBLK
  5
    66
  8
0
  6
CONTINUOUS
 62
     3
  0
BLOCK
  5
    67
  8
0
  6
CONTINUOUS
 62
     3
  2
*HATCH903
 70
    65
 10
0.0
 20
0.0
 30
0.0
  3
*HATCH903
  0
LINE
  5
    68
  8
0
  6
CONTINUOUS
 62
   210
 10
-1.09645795822144
 20
-32.8446884155273
 30
0.0
 11
-0.677002429962158
 21
-33.2641448974609
 31
0.0
  0
ENDBLK
  5
    69
  8
0
  6
CONTINUOUS
 62
     3
  0
BLOCK
  5
    6A
  8
0
  6
CONTINUOUS
 62
     3
  2
*HATCH904
 70
    65
 10
0.0
 20
0.0
 30
0.0
  3
*HATCH904
  0
LINE
  5
    6B
  8
0
  6
CONTINUOUS
 62
   210
 10
-0.853675007820129
 20
-30.9661483764648
 30
0.0
 11
-0.403591841459274
 21
-31.4162330627441
 31
0.0
  0
ENDBLK
  5
    6C
  8
0
  6
CONTINUOUS
 62
     3
  0
BLOCK
  5
    6D
  8
0
  6
CONTINUOUS
 62
     3
  2
*HATCH905
 70
    65
 10
0.0
 20
0.0
 30
0.0
  3
*HATCH905
  0
LINE
  5
    6E
  8
0
  6
CONTINUOUS
 62
   210
 10
-4.94111394882202
 20
-29.0000267028809
 30
0.0
 11
-4.88759756088257
 21
-29.0535430908203
 31
0.0
  0
ENDBLK
  5
    6F
  8
0
  6
CONTINUOUS
 62
     3
  0
BLOCK
  5
    70
  8
0
  6
CONTINUOUS
 62
     3
  2
*HATCH906
 70
    65
 10
0.0
 20
0.0
 30
0.0
  3
*HATCH906
  0
LINE
  5
    71
  8
0
  6
CONTINUOUS
 62
   210
 10
-5.59645795822144
 20
-30.4660034179688
 30
0.0
 11
-5.1905083656311
 21
-30.8719539642334
 31
0.0
  0
ENDBLK
  5
    72
  8
0
  6
CONTINUOUS
 62
     3
  0
BLOCK
  5
    73
  8
0
  6
CONTINUOUS
 62
     3
  2
*HATCH907
 70
    65
 10
0.0
 20
0.0
 30
0.0
  3
*HATCH907
  0
LINE
  5
    74
  8
0
  6
CONTINUOUS
 62
   210
 10
-5.3443431854248
 20
-34.9607620239258
 30
0.0
 11
-4.90359163284302
 21
-35.4015121459961
 31
0.0
  0
ENDBLK
  5
    75
  8
0
  6
CONTINUOUS
 62
     3
  0
BLOCK
  5
    76
  8
0
  6
CONTINUOUS
 62
     3
  2
*HATCH908
 70
    65
 10
0.0
 20
0.0
 30
0.0
  3
*HATCH908
  0
LINE
  5
    77
  8
0
  6
CONTINUOUS
 62
   210
 10
-5.59645795822144
 20
-36.8299674987793
 30
0.0
 11
-5.16767072677612
 21
-37.2587547302246
 31
0.0
  0
ENDBLK
  5
    78
  8
0
  6
CONTINUOUS
 62
     3
  0
BLOCK
  5
    79
  8
0
  6
CONTINUOUS
 62
     3
  2
*HATCH909
 70
    65
 10
0.0
 20
0.0
 30
0.0
  3
*HATCH909
  0
LINE
  5
    7A
  8
0
  6
CONTINUOUS
 62
   210
 10
-5.32150220870972
 20
-41.3475685119629
 30
0.0
 11
-4.90359163284302
 21
-41.7654800415039
 31
0.0
  0
ENDBLK
  5
    7B
  8
0
  6
CONTINUOUS
 62
     3
  0
BLOCK
  5
    7C
  8
0
  6
CONTINUOUS
 62
     3
  2
*HATCH910
 70
    65
 10
0.0
 20
0.0
 30
0.0
  3
*HATCH910
  0
LINE
  5
    7D
  8
0
  6
CONTINUOUS
 62
   210
 10
-5.59645795822144
 20
-43.1939315795898
 30
0.0
 11
-5.14482545852661
 21
-43.645565032959
 31
0.0
  0
ENDBLK
  5
    7E
  8
0
  6
CONTINUOUS
 62
     3
  0
BLOCK
  5
    7F
  8
0
  6
CONTINUOUS
 62
     3
  2
*UDIM1274
 70
    65
 10
0.0
 20
0.0
 30
0.0
  3
*UDIM1274
  0
TEXT
  5
    80
  8
0
  6
CONTINUOUS
 62
     3
 10
219.833129776518
 20
45.546901853948
 30
0.0
 40
3.00000002980232
  1
3
 41
0.933333333333334
 72
     1
 11
220.933129787445
 21
47.0469018688492
 31
0.0
 73
     2
  0
LINE
  5
    81
  8
0
  6
CONTINUOUS
 62
     3
 10
225.583128929138
 20
89.5245553256245
 30
0.0
 11
225.583128929138
 21
42.546901853948
 31
0.0
  0
LINE
  5
    82
  8
0
  6
CONTINUOUS
 62
     3
 10
228.583143234253
 20
63.0245667697163
 30
0.0
 11
228.583143234253
 21
42.546901853948
 31
0.0
  0
LINE
  5
    83
  8
0
  6
CONTINUOUS
 62
     3
 10
219.833129776518
 20
44.546901853948
 30
0.0
 11
228.583143234253
 21
44.546901853948
 31
0.0
  0
LINE
  5
    84
  8
0
  6
CONTINUOUS
 62
     3
 10
222.628705651931
 20
44.0259574239964
 30
0.0
 11
225.583128929138
 21
44.546901853948
 31
0.0
  0
LINE
  5
    85
  8
0
  6
CONTINUOUS
 62
     3
 10
225.583128929138
 20
44.546901853948
 30
0.0
 11
222.628705651931
 21
45.0678462838997
 31
0.0
  0
LINE
  5
    86
  8
0
  6
CONTINUOUS
 62
     3
 10
231.53756651146
 20
45.0678462838997
 30
0.0
 11
228.583143234253
 21
44.546901853948
 31
0.0
  0
LINE
  5
    87
  8
0
  6
CONTINUOUS
 62
     3
 10
228.583143234253
 20
44.546901853948
 30
0.0
 11
231.53756651146
 21
44.0259574239964
 31
0.0
  0
ENDBLK
  5
    88
  8
0
  6
CONTINUOUS
 62
     3
  0
BLOCK
  5
    89
  8
0
  6
CONTINUOUS
 62
     7
  2
*UDIM1275
 70
    65
 10
0.0
 20
0.0
 30
0.0
  3
*UDIM1275
  0
TEXT
  5
    8A
  8
0
  6
CONTINUOUS
 62
     7
 10
211.754638350179
 20
115.424568606477
 30
0.0
 40
3.00000002980232
  1
=
 50
90.0
 41
0.933333333333334
 72
     1
 11
210.254638335277
 21
116.524568617402
 31
0.0
 73
     2
  0
LINE
  5
    8B
  8
0
  6
CONTINUOUS
 62
     3
 10
224.583128929138
 20
125.024555325625
 30
0.0
 11
210.754638350178
 21
125.024555325625
 31
0.0
  0
LINE
  5
    8C
  8
0
  6
CONTINUOUS
 62
     3
 10
212.754638350178
 20
108.02458190918
 30
0.0
 11
212.754638350178
 21
125.024555325625
 31
0.0
  0
LINE
  5
    8D
  8
0
  6
CONTINUOUS
 62
     3
 10
212.233693920226
 20
110.979005186387
 30
0.0
 11
212.754638350178
 21
108.02458190918
 31
0.0
  0
LINE
  5
    8E
  8
0
  6
CONTINUOUS
 62
     3
 10
212.754638350178
 20
108.02458190918
 30
0.0
 11
213.27558278013
 21
110.979005186387
 31
0.0
  0
LINE
  5
    8F
  8
0
  6
CONTINUOUS
 62
     3
 10
213.27558278013
 20
122.070132048418
 30
0.0
 11
212.754638350178
 21
125.024555325625
 31
0.0
  0
LINE
  5
    90
  8
0
  6
CONTINUOUS
 62
     3
 10
212.754638350178
 20
125.024555325625
 30
0.0
 11
212.233693920226
 21
122.070132048418
 31
0.0
  0
ENDBLK
  5
    91
  8
0
  6
CONTINUOUS
 62
     7
  0
BLOCK
  5
    92
  8
0
  6
CONTINUOUS
 62
     7
  2
*UDIM1276
 70
    65
 10
0.0
 20
0.0
 30
0.0
  3
*UDIM1276
  0
TEXT
  5
    93
  8
0
  6
CONTINUOUS
 62
     7
 10
211.754638350179
 20
97.6745686064765
 30
0.0
 40
3.00000002980232
  1
=
 50
90.0
 41
0.933333333333334
 72
     1
 11
210.254638335277
 21
98.7745686174021
 31
0.0
 73
     2
  0
LINE
  5
    94
  8
0
  6
CONTINUOUS
 62
     3
 10
224.583128929138
 20
89.5245553256245
 30
0.0
 11
210.754638350178
 21
89.5245553256245
 31
0.0
  0
LINE
  5
    95
  8
0
  6
CONTINUOUS
 62
     3
 10
218.912337141687
 20
108.02458190918
 30
0.0
 11
210.754638350178
 21
108.02458190918
 31
0.0
  0
LINE
  5
    96
  8
0
  6
CONTINUOUS
 62
     3
 10
212.754638350178
 20
89.5245553256245
 30
0.0
 11
212.754638350178
 21
108.02458190918
 31
0.0
  0
LINE
  5
    97
  8
0
  6
CONTINUOUS
 62
     3
 10
212.233693920226
 20
92.4789786028315
 30
0.0
 11
212.754638350178
 21
89.5245553256245
 31
0.0
  0
LINE
  5
    98
  8
0
  6
CONTINUOUS
 62
     3
 10
212.754638350178
 20
89.5245553256245
 30
0.0
 11
213.27558278013
 21
92.4789786028315
 31
0.0
  0
LINE
  5
    99
  8
0
  6
CONTINUOUS
 62
     3
 10
213.27558278013
 20
105.070158631973
 30
0.0
 11
212.754638350178
 21
108.02458190918
 31
0.0
  0
LINE
  5
    9A
  8
0
  6
CONTINUOUS
 62
     3
 10
212.754638350178
 20
108.02458190918
 30
0.0
 11
212.233693920226
 21
105.070158631973
 31
0.0
  0
ENDBLK
  5
    9B
  8
0
  6
CONTINUOUS
 62
     7
  0
BLOCK
  5
    9C
  8
0
  6
CONTINUOUS
 62
     7
  2
*UDIM1277
 70
    65
 10
0.0
 20
0.0
 30
0.0
  3
*UDIM1277
  0
TEXT
  5
    9D
  8
0
  6
CONTINUOUS
 62
     7
 10
271.666489919027
 20
213.611519698972
 30
0.0
 40
3.5
  1
92
 41
0.933333333333333
 72
     1
 11
274.583156585693
 21
215.361519698972
 31
0.0
 73
     2
  0
LINE
  5
    9E
  8
0
  6
CONTINUOUS
 62
     7
 10
228.583152770996
 20
189.801044842903
 30
0.0
 11
228.583152770996
 21
214.611519698972
 31
0.0
  0
LINE
  5
    9F
  8
0
  6
CONTINUOUS
 62
     7
 10
320.583160400391
 20
131.52458190918
 30
0.0
 11
320.583160400391
 21
214.611519698972
 31
0.0
  0
LINE
  5
    A0
  8
0
  6
CONTINUOUS
 62
     7
 10
228.583152770996
 20
212.611519698972
 30
0.0
 11
320.583160400391
 21
212.611519698972
 31
0.0
  0
LINE
  5
    A1
  8
0
  6
CONTINUOUS
 62
     3
 10
231.480930244207
 20
213.38797685539
 30
0.0
 11
228.583152770996
 21
212.611519698972
 31
0.0
  0
LINE
  5
    A2
  8
0
  6
CONTINUOUS
 62
     3
 10
228.583152770996
 20
212.611519698972
 30
0.0
 11
231.480930244207
 21
211.835062542553
 31
0.0
  0
LINE
  5
    A3
  8
0
  6
CONTINUOUS
 62
     3
 10
317.68538292718
 20
211.835062542553
 30
0.0
 11
320.583160400391
 21
212.611519698972
 31
0.0
  0
LINE
  5
    A4
  8
0
  6
CONTINUOUS
 62
     3
 10
320.583160400391
 20
212.611519698972
 30
0.0
 11
317.68538292718
 21
213.38797685539
 31
0.0
  0
ENDBLK
  5
    A5
  8
0
  6
CONTINUOUS
 62
     7
  0
BLOCK
  5
    A6
  8
0
  6
CONTINUOUS
 62
     7
  2
*UDIM1278
 70
    65
 10
0.0
 20
0.0
 30
0.0
  3
*UDIM1278
  0
TEXT
  5
    A7
  8
0
  6
CONTINUOUS
 62
     7
 10
258.476123253504
 20
207.18731645742
 30
0.0
 40
3.5
  1
70.2
 41
0.933333333333333
 72
     1
 11
264.659456586838
 21
208.93731645742
 31
0.0
 73
     2
  0
LINE
  5
    A8
  8
0
  6
CONTINUOUS
 62
     7
 10
228.583152770996
 20
189.801044842903
 30
0.0
 11
228.583152770996
 21
208.18731645742
 31
0.0
  0
LINE
  5
    A9
  8
0
  6
CONTINUOUS
 62
     7
 10
298.783160400391
 20
164.724582672119
 30
0.0
 11
298.783160400391
 21
208.18731645742
 31
0.0
  0
LINE
  5
    AA
  8
0
  6
CONTINUOUS
 62
     7
 10
228.583152770996
 20
206.18731645742
 30
0.0
 11
298.783160400391
 21
206.18731645742
 31
0.0
  0
LINE
  5
    AB
  8
0
  6
CONTINUOUS
 62
     3
 10
231.480930244207
 20
206.963773613838
 30
0.0
 11
228.583152770996
 21
206.18731645742
 31
0.0
  0
LINE
  5
    AC
  8
0
  6
CONTINUOUS
 62
     3
 10
228.583152770996
 20
206.18731645742
 30
0.0
 11
231.480930244207
 21
205.410859301001
 31
0.0
  0
LINE
  5
    AD
  8
0
  6
CONTINUOUS
 62
     3
 10
295.88538292718
 20
205.410859301001
 30
0.0
 11
298.783160400391
 21
206.18731645742
 31
0.0
  0
LINE
  5
    AE
  8
0
  6
CONTINUOUS
 62
     3
 10
298.783160400391
 20
206.18731645742
 30
0.0
 11
295.88538292718
 21
206.963773613838
 31
0.0
  0
ENDBLK
  5
    AF
  8
0
  6
CONTINUOUS
 62
     7
  0
BLOCK
  5
    B0
  8
0
  6
CONTINUOUS
 62
     7
  2
*UDIM1279
 70
    65
 10
0.0
 20
0.0
 30
0.0
  3
*UDIM1279
  0
TEXT
  5
    B1
  8
0
  6
CONTINUOUS
 62
     7
 10
305.514191055298
 20
196.634172148957
 30
0.0
 40
3.5
  1
6.7
 41
0.933333333333333
 72
     1
 11
310.064191055298
 21
198.384172148957
 31
0.0
 73
     2
  0
LINE
  5
    B2
  8
0
  6
CONTINUOUS
 62
     7
 10
320.583160400391
 20
125.02458190918
 30
0.0
 11
320.583160400391
 21
197.634172148957
 31
0.0
  0
LINE
  5
    B3
  8
0
  6
CONTINUOUS
 62
     7
 10
327.233160400391
 20
116.020652770996
 30
0.0
 11
327.233160400391
 21
197.634172148957
 31
0.0
  0
LINE
  5
    B4
  8
0
  6
CONTINUOUS
 62
     7
 10
305.514191055298
 20
195.634172148957
 30
0.0
 11
332.233160400391
 21
195.634172148957
 31
0.0
  0
LINE
  5
    B5
  8
0
  6
CONTINUOUS
 62
     3
 10
317.68538292718
 20
194.857714992538
 30
0.0
 11
320.583160400391
 21
195.634172148957
 31
0.0
  0
LINE
  5
    B6
  8
0
  6
CONTINUOUS
 62
     3
 10
320.583160400391
 20
195.634172148957
 30
0.0
 11
317.68538292718
 21
196.410629305375
 31
0.0
  0
LINE
  5
    B7
  8
0
  6
CONTINUOUS
 62
     3
 10
330.130937873601
 20
196.410629305375
 30
0.0
 11
327.233160400391
 21
195.634172148957
 31
0.0
  0
LINE
  5
    B8
  8
0
  6
CONTINUOUS
 62
     3
 10
327.233160400391
 20
195.634172148957
 30
0.0
 11
330.130937873601
 21
194.857714992538
 31
0.0
  0
ENDBLK
  5
    B9
  8
0
  6
CONTINUOUS
 62
     7
  0
BLOCK
  5
    BA
  8
0
  6
CONTINUOUS
 62
     3
  2
*UDIM1280
 70
    65
 10
0.0
 20
0.0
 30
0.0
  3
*UDIM1280
  0
TEXT
  5
    BB
  8
0
  6
CONTINUOUS
 62
     3
 10
-25.909225463864
 20
81.2495971371733
 30
0.0
 40
3.00000002980232
  1
48
 50
90.0
 41
0.933333333333333
 72
     1
 11
-27.4092254787683
 21
83.7495971620067
 31
0.0
 73
     2
  0
LINE
  5
    BC
  8
0
  6
CONTINUOUS
 62
     3
 10
-15.2572591400104
 20
60.0245819091815
 30
0.0
 11
-26.9092254638672
 21
60.0245819091815
 31
0.0
  0
LINE
  5
    BD
  8
0
  6
CONTINUOUS
 62
     3
 10
-22.6650975020364
 20
108.024597167964
 30
0.0
 11
-26.9092254638672
 21
108.024597167964
 31
0.0
  0
LINE
  5
    BE
  8
0
  6
CONTINUOUS
 62
     3
 10
-24.9092254638672
 20
60.0245819091815
 30
0.0
 11
-24.9092254638672
 21
108.024597167964
 31
0.0
  0
LINE
  5
    BF
  8
0
  6
CONTINUOUS
 62
     3
 10
-25.4301698938189
 20
62.9790051863885
 30
0.0
 11
-24.9092254638672
 21
60.0245819091815
 31
0.0
  0
LINE
  5
    C0
  8
0
  6
CONTINUOUS
 62
     3
 10
-24.9092254638672
 20
60.0245819091815
 30
0.0
 11
-24.3882810339155
 21
62.9790051863885
 31
0.0
  0
LINE
  5
    C1
  8
0
  6
CONTINUOUS
 62
     3
 10
-24.3882810339155
 20
105.070173890757
 30
0.0
 11
-24.9092254638672
 21
108.024597167964
 31
0.0
  0
LINE
  5
    C2
  8
0
  6
CONTINUOUS
 62
     3
 10
-24.9092254638672
 20
108.024597167964
 30
0.0
 11
-25.4301698938189
 21
105.070173890757
 31
0.0
  0
ENDBLK
  5
    C3
  8
0
  6
CONTINUOUS
 62
     3
  0
BLOCK
  5
    C4
  8
0
  6
CONTINUOUS
 62
     7
  2
TC_M3_CROCE____F
 70
    64
 10
0.0
 20
0.0
 30
0.0
  3
TC_M3_CROCE____F
  0
CIRCLE
  5
    C5
  8
0
  6
CONTINUOUS
 62
     3
 10
0.0
 20
0.0
 30
0.0
 40
3.0
  0
LINE
  5
    C6
  8
0
  6
CONTINUOUS
 62
     3
 10
-0.37
 20
1.55
 30
0.0
 11
0.37
 21
1.55
 31
0.0
  0
LINE
  5
    C7
  8
0
  6
CONTINUOUS
 62
     3
 10
-0.37
 20
-1.55
 30
0.0
 11
0.37
 21
-1.55
 31
0.0
  0
LINE
  5
    C8
  8
0
  6
CONTINUOUS
 62
     3
 10
-1.55
 20
-0.37
 30
0.0
 11
-1.55
 21
0.37
 31
0.0
  0
LINE
  5
    C9
  8
0
  6
CONTINUOUS
 62
     3
 10
1.55
 20
-0.37
 30
0.0
 11
1.55
 21
0.37
 31
0.0
  0
LINE
  5
    CA
  8
0
  6
CONTINUOUS
 62
     3
 10
-1.55
 20
0.37
 30
0.0
 11
-0.37
 21
0.37
 31
0.0
  0
LINE
  5
    CB
  8
0
  6
CONTINUOUS
 62
     3
 10
-1.55
 20
-0.37
 30
0.0
 11
-0.37
 21
-0.37
 31
0.0
  0
LINE
  5
    CC
  8
0
  6
CONTINUOUS
 62
     3
 10
-0.37
 20
-1.55
 30
0.0
 11
-0.37
 21
-0.37
 31
0.0
  0
LINE
  5
    CD
  8
0
  6
CONTINUOUS
 62
     3
 10
0.37
 20
-1.55
 30
0.0
 11
0.37
 21
-0.37
 31
0.0
  0
LINE
  5
    CE
  8
0
  6
CONTINUOUS
 62
     3
 10
-0.37
 20
0.37
 30
0.0
 11
-0.37
 21
1.55
 31
0.0
  0
LINE
  5
    CF
  8
0
  6
CONTINUOUS
 62
     3
 10
0.37
 20
0.37
 30
0.0
 11
0.37
 21
1.55
 31
0.0
  0
LINE
  5
    D0
  8
0
  6
CONTINUOUS
 62
     3
 10
0.37
 20
0.37
 30
0.0
 11
1.55
 21
0.37
 31
0.0
  0
LINE
  5
    D1
  8
0
  6
CONTINUOUS
 62
     3
 10
0.37
 20
-0.37
 30
0.0
 11
1.55
 21
-0.37
 31
0.0
  0
LINE
  5
    D2
  8
0
  6
DASHDOT
 62
     7
 10
0.0
 20
-5.0
 30
0.0
 11
0.0
 21
5.0
 31
0.0
  0
LINE
  5
    D3
  8
0
  6
DASHDOT
 62
     7
 10
-5.0
 20
0.0
 30
0.0
 11
5.0
 21
0.0
 31
0.0
  0
ENDBLK
  5
    D4
  8
0
  6
CONTINUOUS
 62
     7
  0
BLOCK
  5
    D5
  8
0
  6
CONTINUOUS
 62
     7
  2
TC_M4_CROCE____F
 70
    64
 10
0.0
 20
0.0
 30
0.0
  3
TC_M4_CROCE____F
  0
CIRCLE
  5
    D6
  8
0
  6
CONTINUOUS
 62
     3
 10
0.0
 20
0.0
 30
0.0
 40
4.0
  0
LINE
  5
    D7
  8
0
  6
CONTINUOUS
 62
     3
 10
-2.3
 20
0.565
 30
0.0
 11
-0.565
 21
0.565
 31
0.0
  0
LINE
  5
    D8
  8
0
  6
CONTINUOUS
 62
     3
 10
-2.3
 20
-0.565
 30
0.0
 11
-0.565
 21
-0.565
 31
0.0
  0
LINE
  5
    D9
  8
0
  6
CONTINUOUS
 62
     3
 10
-0.565
 20
-2.3
 30
0.0
 11
-0.565
 21
-0.565
 31
0.0
  0
LINE
  5
    DA
  8
0
  6
CONTINUOUS
 62
     3
 10
0.565
 20
-2.3
 30
0.0
 11
0.565
 21
-0.565
 31
0.0
  0
LINE
  5
    DB
  8
0
  6
CONTINUOUS
 62
     3
 10
-0.565
 20
2.3
 30
0.0
 11
0.565
 21
2.3
 31
0.0
  0
LINE
  5
    DC
  8
0
  6
CONTINUOUS
 62
     3
 10
-0.565
 20
-2.3
 30
0.0
 11
0.565
 21
-2.3
 31
0.0
  0
LINE
  5
    DD
  8
0
  6
CONTINUOUS
 62
     3
 10
-2.3
 20
-0.565
 30
0.0
 11
-2.3
 21
0.565
 31
0.0
  0
LINE
  5
    DE
  8
0
  6
CONTINUOUS
 62
     3
 10
2.3
 20
-0.565
 30
0.0
 11
2.3
 21
0.565
 31
0.0
  0
LINE
  5
    DF
  8
0
  6
CONTINUOUS
 62
     3
 10
0.565
 20
0.565
 30
0.0
 11
2.3
 21
0.565
 31
0.0
  0
LINE
  5
    E0
  8
0
  6
CONTINUOUS
 62
     3
 10
0.565
 20
-0.565
 30
0.0
 11
2.3
 21
-0.565
 31
0.0
  0
LINE
  5
    E1
  8
0
  6
CONTINUOUS
 62
     3
 10
0.565
 20
0.565
 30
0.0
 11
0.565
 21
2.3
 31
0.0
  0
LINE
  5
    E2
  8
0
  6
CONTINUOUS
 62
     3
 10
-0.565
 20
0.565
 30
0.0
 11
-0.565
 21
2.3
 31
0.0
  0
LINE
  5
    E3
  8
0
  6
DASHDOT
 62
     7
 10
0.0
 20
-6.0
 30
0.0
 11
0.0
 21
6.0
 31
0.0
  0
LINE
  5
    E4
  8
0
  6
DASHDOT
 62
     7
 10
-6.0
 20
0.0
 30
0.0
 11
6.0
 21
0.0
 31
0.0
  0
ENDBLK
  5
    E5
  8
0
  6
CONTINUOUS
 62
     7
  0
BLOCK
  5
    E6
  8
0
  6
CONTINUOUS
 62
     7
  2
*UDIM1281
 70
    65
 10
0.0
 20
0.0
 30
0.0
  3
*UDIM1281
  0
TEXT
  5
    E7
  8
0
  6
CONTINUOUS
 62
     7
 10
53.441365987626
 20
206.42512285249
 30
0.0
 40
3.5
  1
90
 41
0.933333333333333
 72
     1
 11
56.3580326542926
 21
208.17512285249
 31
0.0
 73
     2
  0
TEXT
  5
    E8
  8
0
  6
CONTINUOUS
 62
     7
 10
42.0080326542926
 20
200.92512285249
 30
0.0
 40
3.5
  1
=       =
 41
0.933333333333333
 72
     1
 11
56.3580326542926
 21
202.67512285249
 31
0.0
 73
     2
  0
LINE
  5
    E9
  8
0
  6
CONTINUOUS
 62
     7
 10
11.2428316087867
 20
165.024551391602
 30
0.0
 11
11.2428316087867
 21
207.42512285249
 31
0.0
  0
LINE
  5
    EA
  8
0
  6
CONTINUOUS
 62
     7
 10
101.242774963379
 20
164.724582672119
 30
0.0
 11
101.242774963379
 21
207.42512285249
 31
0.0
  0
LINE
  5
    EB
  8
0
  6
CONTINUOUS
 62
     7
 10
11.2428316087867
 20
205.42512285249
 30
0.0
 11
101.242774963379
 21
205.42512285249
 31
0.0
  0
LINE
  5
    EC
  8
0
  6
CONTINUOUS
 62
     3
 10
14.1406090819972
 20
206.201580008908
 30
0.0
 11
11.2428316087867
 21
205.42512285249
 31
0.0
  0
LINE
  5
    ED
  8
0
  6
CONTINUOUS
 62
     3
 10
11.2428316087867
 20
205.42512285249
 30
0.0
 11
14.1406090819972
 21
204.648665696071
 31
0.0
  0
LINE
  5
    EE
  8
0
  6
CONTINUOUS
 62
     3
 10
98.3449974901684
 20
204.648665696071
 30
0.0
 11
101.242774963379
 21
205.42512285249
 31
0.0
  0
LINE
  5
    EF
  8
0
  6
CONTINUOUS
 62
     3
 10
101.242774963379
 20
205.42512285249
 30
0.0
 11
98.3449974901684
 21
206.201580008908
 31
0.0
  0
ENDBLK
  5
    F0
  8
0
  6
CONTINUOUS
 62
     7
  0
BLOCK
  5
    F1
  8
0
  6
CONTINUOUS
 62
     7
  2
*UDIM1282
 70
    65
 10
0.0
 20
0.0
 30
0.0
  3
*UDIM1282
  0
TEXT
  5
    F2
  8
0
  6
CONTINUOUS
 62
     7
 10
82.4046648964954
 20
213.284865296859
 30
0.0
 40
3.5
  1
168
 41
0.933333333333333
 72
     1
 11
86.9546648964954
 21
215.034865296859
 31
0.0
 73
     2
  0
LINE
  5
    F3
  8
0
  6
CONTINUOUS
 62
     7
 10
11.2428316087867
 20
165.024551391602
 30
0.0
 11
11.2428316087867
 21
214.284865296859
 31
0.0
  0
LINE
  5
    F4
  8
0
  6
CONTINUOUS
 62
     7
 10
179.242774963379
 20
164.724582672119
 30
0.0
 11
179.242774963379
 21
214.284865296859
 31
0.0
  0
LINE
  5
    F5
  8
0
  6
CONTINUOUS
 62
     7
 10
11.2428316087867
 20
212.284865296859
 30
0.0
 11
179.242774963379
 21
212.284865296859
 31
0.0
  0
LINE
  5
    F6
  8
0
  6
CONTINUOUS
 62
     3
 10
14.1406090819972
 20
213.061322453277
 30
0.0
 11
11.2428316087867
 21
212.284865296859
 31
0.0
  0
LINE
  5
    F7
  8
0
  6
CONTINUOUS
 62
     3
 10
11.2428316087867
 20
212.284865296859
 30
0.0
 11
14.1406090819972
 21
211.50840814044
 31
0.0
  0
LINE
  5
    F8
  8
0
  6
CONTINUOUS
 62
     3
 10
176.344997490168
 20
211.50840814044
 30
0.0
 11
179.242774963379
 21
212.284865296859
 31
0.0
  0
LINE
  5
    F9
  8
0
  6
CONTINUOUS
 62
     3
 10
179.242774963379
 20
212.284865296859
 30
0.0
 11
176.344997490168
 21
213.061322453277
 31
0.0
  0
ENDBLK
  5
    FA
  8
0
  6
CONTINUOUS
 62
     7
  0
BLOCK
  5
    FB
  8
0
  6
CONTINUOUS
 62
     7
  2
*UDIM1283
 70
    65
 10
0.0
 20
0.0
 30
0.0
  3
*UDIM1283
  0
TEXT
  5
    FC
  8
0
  6
CONTINUOUS
 62
     7
 10
187.255555907141
 20
105.834290583931
 30
0.0
 40
3.5
  1
45
 50
90.0
 41
0.933333333333333
 72
     1
 11
185.505555907137
 21
108.750957250595
 31
0.0
 73
     2
  0
LINE
  5
    FD
  8
0
  6
CONTINUOUS
 62
     7
 10
180.242774963379
 20
85.5245819091797
 30
0.0
 11
190.255555907137
 21
85.5245819091797
 31
0.0
  0
LINE
  5
    FE
  8
0
  6
CONTINUOUS
 62
     7
 10
180.242774963379
 20
130.52458190918
 30
0.0
 11
190.255555907137
 21
130.52458190918
 31
0.0
  0
LINE
  5
    FF
  8
0
  6
CONTINUOUS
 62
     7
 10
188.255555907137
 20
85.5245819091797
 30
0.0
 11
188.255555907137
 21
130.52458190918
 31
0.0
  0
LINE
  5
   100
  8
0
  6
CONTINUOUS
 62
     3
 10
187.479098750718
 20
88.4223593823902
 30
0.0
 11
188.255555907137
 21
85.5245819091797
 31
0.0
  0
LINE
  5
   101
  8
0
  6
CONTINUOUS
 62
     3
 10
188.255555907137
 20
85.5245819091797
 30
0.0
 11
189.032013063556
 21
88.4223593823902
 31
0.0
  0
LINE
  5
   102
  8
0
  6
CONTINUOUS
 62
     3
 10
189.032013063556
 20
127.626804435969
 30
0.0
 11
188.255555907137
 21
130.52458190918
 31
0.0
  0
LINE
  5
   103
  8
0
  6
CONTINUOUS
 62
     3
 10
188.255555907137
 20
130.52458190918
 30
0.0
 11
187.479098750718
 21
127.626804435969
 31
0.0
  0
ENDBLK
  5
   104
  8
0
  6
CONTINUOUS
 62
     7
  0
BLOCK
  5
   105
  8
0
  6
CONTINUOUS
 62
     7
  2
*UDIM1284
 70
    65
 10
0.0
 20
0.0
 30
0.0
  3
*UDIM1284
  0
TEXT
  5
   106
  8
0
  6
CONTINUOUS
 62
     7
 10
204.132701590127
 20
104.636496734621
 30
0.0
 40
3.5
  1
124
 50
90.0
 41
0.933333333333333
 72
     1
 11
202.382701590121
 21
109.186496734619
 31
0.0
 73
     2
  0
LINE
  5
   107
  8
0
  6
CONTINUOUS
 62
     7
 10
178.942774963379
 20
58.0245819091797
 30
0.0
 11
207.132701590121
 21
58.0245819091797
 31
0.0
  0
LINE
  5
   108
  8
0
  6
CONTINUOUS
 62
     7
 10
178.942774963379
 20
182.02458190918
 30
0.0
 11
207.132701590121
 21
182.02458190918
 31
0.0
  0
LINE
  5
   109
  8
0
  6
CONTINUOUS
 62
     7
 10
205.132701590121
 20
58.0245819091797
 30
0.0
 11
205.132701590121
 21
182.02458190918
 31
0.0
  0
LINE
  5
   10A
  8
0
  6
CONTINUOUS
 62
     3
 10
204.356244433702
 20
60.9223593823902
 30
0.0
 11
205.132701590121
 21
58.0245819091797
 31
0.0
  0
LINE
  5
   10B
  8
0
  6
CONTINUOUS
 62
     3
 10
205.132701590121
 20
58.0245819091797
 30
0.0
 11
205.909158746539
 21
60.9223593823902
 31
0.0
  0
LINE
  5
   10C
  8
0
  6
CONTINUOUS
 62
     3
 10
205.909158746539
 20
179.126804435969
 30
0.0
 11
205.132701590121
 21
182.02458190918
 31
0.0
  0
LINE
  5
   10D
  8
0
  6
CONTINUOUS
 62
     3
 10
205.132701590121
 20
182.02458190918
 30
0.0
 11
204.356244433702
 21
179.126804435969
 31
0.0
  0
ENDBLK
  5
   10E
  8
0
  6
CONTINUOUS
 62
     7
  0
BLOCK
  5
   10F
  8
0
  6
CONTINUOUS
 62
     7
  2
*UDIM1285
 70
    65
 10
0.0
 20
0.0
 30
0.0
  3
*UDIM1285
  0
TEXT
  5
   110
  8
0
  6
CONTINUOUS
 62
     7
 10
195.530801532346
 20
83.404019435249
 30
0.0
 40
3.5
  1
50
 50
90.0
 41
0.933333333333333
 72
     1
 11
193.780801532342
 21
86.3206861019134
 31
0.0
 73
     2
  0
LINE
  5
   111
  8
0
  6
CONTINUOUS
 62
     7
 10
178.942774963379
 20
58.0245819091797
 30
0.0
 11
198.530801532342
 21
58.0245819091797
 31
0.0
  0
LINE
  5
   112
  8
0
  6
CONTINUOUS
 62
     7
 10
183.664413252175
 20
108.02458190918
 30
0.0
 11
198.530801532342
 21
108.02458190918
 31
0.0
  0
LINE
  5
   113
  8
0
  6
CONTINUOUS
 62
     7
 10
196.530801532342
 20
58.0245819091797
 30
0.0
 11
196.530801532342
 21
108.02458190918
 31
0.0
  0
LINE
  5
   114
  8
0
  6
CONTINUOUS
 62
     3
 10
195.754344375923
 20
60.9223593823902
 30
0.0
 11
196.530801532342
 21
58.0245819091797
 31
0.0
  0
LINE
  5
   115
  8
0
  6
CONTINUOUS
 62
     3
 10
196.530801532342
 20
58.0245819091797
 30
0.0
 11
197.30725868876
 21
60.9223593823902
 31
0.0
  0
LINE
  5
   116
  8
0
  6
CONTINUOUS
 62
     3
 10
197.30725868876
 20
105.126804435969
 30
0.0
 11
196.530801532342
 21
108.02458190918
 31
0.0
  0
LINE
  5
   117
  8
0
  6
CONTINUOUS
 62
     3
 10
196.530801532342
 20
108.02458190918
 30
0.0
 11
195.754344375923
 21
105.126804435969
 31
0.0
  0
ENDBLK
  5
   118
  8
0
  6
CONTINUOUS
 62
     7
  0
BLOCK
  5
   119
  8
0
  6
CONTINUOUS
 62
     7
  2
*UDIM1286
 70
    65
 10
0.0
 20
0.0
 30
0.0
  3
*UDIM1286
  0
TEXT
  5
   11A
  8
0
  6
CONTINUOUS
 62
     7
 10
-37.5669166651788
 20
114.436129522328
 30
0.0
 40
3.5
  1
120
 50
90.0
 41
0.933333333333333
 72
     1
 11
-39.3169166651845
 21
118.986129522326
 31
0.0
 73
     2
  0
LINE
  5
   11B
  8
0
  6
CONTINUOUS
 62
     7
 10
-16.2572591400104
 20
60.0245819091815
 30
0.0
 11
-38.5669166651845
 21
60.0245819091815
 31
0.0
  0
LINE
  5
   11C
  8
0
  6
CONTINUOUS
 62
     7
 10
-16.2572594451842
 20
180.024566650394
 30
0.0
 11
-38.5669166651845
 21
180.024566650394
 31
0.0
  0
LINE
  5
   11D
  8
0
  6
CONTINUOUS
 62
     7
 10
-36.5669166651845
 20
60.0245819091815
 30
0.0
 11
-36.5669166651845
 21
180.024566650394
 31
0.0
  0
LINE
  5
   11E
  8
0
  6
CONTINUOUS
 62
     3
 10
-37.343373821603
 20
62.9223593823921
 30
0.0
 11
-36.5669166651845
 21
60.0245819091815
 31
0.0
  0
LINE
  5
   11F
  8
0
  6
CONTINUOUS
 62
     3
 10
-36.5669166651845
 20
60.0245819091815
 30
0.0
 11
-35.7904595087659
 21
62.9223593823921
 31
0.0
  0
LINE
  5
   120
  8
0
  6
CONTINUOUS
 62
     3
 10
-35.7904595087659
 20
177.126789177183
 30
0.0
 11
-36.5669166651845
 21
180.024566650394
 31
0.0
  0
LINE
  5
   121
  8
0
  6
CONTINUOUS
 62
     3
 10
-36.5669166651845
 20
180.024566650394
 30
0.0
 11
-37.343373821603
 21
177.126789177183
 31
0.0
  0
ENDBLK
  5
   122
  8
0
  6
CONTINUOUS
 62
     7
  0
BLOCK
  5
   123
  8
0
  6
CONTINUOUS
 62
     2
  2
*UDIM1287
 70
    65
 10
0.0
 20
0.0
 30
0.0
  3
*UDIM1287
  0
TEXT
  5
   124
  8
0
  6
CONTINUOUS
 62
     2
 10
19.0964448607035
 20
48.8843479824885
 30
0.0
 40
3.5
  1
75
 41
0.933333333333333
 72
     1
 11
22.0131115273702
 21
50.6343479824885
 31
0.0
 73
     2
  0
LINE
  5
   125
  8
0
  6
CONTINUOUS
 62
     2
 10
-18.7572357177619
 20
163.024554884876
 30
0.0
 11
-18.7572357177619
 21
45.8843479824885
 31
0.0
  0
LINE
  5
   126
  8
0
  6
CONTINUOUS
 62
     2
 10
56.2428684862473
 20
59.274418360551
 30
0.0
 11
56.2428684862473
 21
45.8843479824885
 31
0.0
  0
LINE
  5
   127
  8
0
  6
CONTINUOUS
 62
     2
 10
-18.7572357177619
 20
47.8843479824885
 30
0.0
 11
56.2428684862473
 21
47.8843479824885
 31
0.0
  0
LINE
  5
   128
  8
0
  6
CONTINUOUS
 62
     2
 10
-15.8594582445513
 20
48.660805138907
 30
0.0
 11
-18.7572357177619
 21
47.8843479824885
 31
0.0
  0
LINE
  5
   129
  8
0
  6
CONTINUOUS
 62
     2
 10
-18.7572357177619
 20
47.8843479824885
 30
0.0
 11
-15.8594582445513
 21
47.10789082607
 31
0.0
  0
LINE
  5
   12A
  8
0
  6
CONTINUOUS
 62
     2
 10
53.3450910130368
 20
47.10789082607
 30
0.0
 11
56.2428684862473
 21
47.8843479824885
 31
0.0
  0
LINE
  5
   12B
  8
0
  6
CONTINUOUS
 62
     2
 10
56.2428684862473
 20
47.8843479824885
 30
0.0
 11
53.3450910130368
 21
48.660805138907
 31
0.0
  0
ENDBLK
  5
   12C
  8
0
  6
CONTINUOUS
 62
     2
  0
BLOCK
  5
   12D
  8
0
  6
CONTINUOUS
 62
     7
  2
*UDIM1288
 70
    65
 10
0.0
 20
0.0
 30
0.0
  3
*UDIM1288
  0
TEXT
  5
   12E
  8
0
  6
CONTINUOUS
 62
     7
 10
82.7939978599606
 20
42.8956833853007
 30
0.0
 40
3.5
  1
198
 41
0.933333333333333
 72
     1
 11
87.3439978599606
 21
44.6456833853007
 31
0.0
 73
     2
  0
LINE
  5
   12F
  8
0
  6
CONTINUOUS
 62
     7
 10
-18.7572357177619
 20
64.0245852498711
 30
0.0
 11
-18.7572357177619
 21
39.8956833853007
 31
0.0
  0
LINE
  5
   130
  8
0
  6
CONTINUOUS
 62
     7
 10
179.242774963379
 20
84.5245819091797
 30
0.0
 11
179.242774963379
 21
39.8956833853007
 31
0.0
  0
LINE
  5
   131
  8
0
  6
CONTINUOUS
 62
     7
 10
-18.7572357177619
 20
41.8956833853007
 30
0.0
 11
179.242774963379
 21
41.8956833853007
 31
0.0
  0
LINE
  5
   132
  8
0
  6
CONTINUOUS
 62
     3
 10
-15.8594582445513
 20
42.6721405417192
 30
0.0
 11
-18.7572357177619
 21
41.8956833853007
 31
0.0
  0
LINE
  5
   133
  8
0
  6
CONTINUOUS
 62
     3
 10
-18.7572357177619
 20
41.8956833853007
 30
0.0
 11
-15.8594582445513
 21
41.1192262288822
 31
0.0
  0
LINE
  5
   134
  8
0
  6
CONTINUOUS
 62
     3
 10
176.344997490168
 20
41.1192262288822
 30
0.0
 11
179.242774963379
 21
41.8956833853007
 31
0.0
  0
LINE
  5
   135
  8
0
  6
CONTINUOUS
 62
     3
 10
179.242774963379
 20
41.8956833853007
 30
0.0
 11
176.344997490168
 21
42.6721405417192
 31
0.0
  0
ENDBLK
  5
   136
  8
0
  6
CONTINUOUS
 62
     7
  0
BLOCK
  5
   137
  8
0
  6
CONTINUOUS
 62
     7
  2
*UDIM1289
 70
    65
 10
0.0
 20
0.0
 30
0.0
  3
*UDIM1289
  0
TEXT
  5
   138
  8
0
  6
CONTINUOUS
 62
     7
 10
-37.4952825785759
 20
186.284498233587
 30
0.0
 40
3.5
  1
24.5
 50
90.0
 41
0.933333333333333
 72
     1
 11
-39.2452825785837
 21
192.467831566918
 31
0.0
 73
     2
  0
LINE
  5
   139
  8
0
  6
CONTINUOUS
 62
     7
 10
13.7428359985352
 20
180.02455139159
 30
0.0
 11
-38.4952825785837
 21
180.02455139159
 31
0.0
  0
LINE
  5
   13A
  8
0
  6
CONTINUOUS
 62
     7
 10
39.4928117036743
 20
204.52455139159
 30
0.0
 11
-38.4952825785837
 21
204.52455139159
 31
0.0
  0
LINE
  5
   13B
  8
0
  6
CONTINUOUS
 62
     7
 10
-36.4952825785837
 20
180.02455139159
 30
0.0
 11
-36.4952825785837
 21
204.52455139159
 31
0.0
  0
LINE
  5
   13C
  8
0
  6
CONTINUOUS
 62
     3
 10
-37.2717397350022
 20
182.9223288648
 30
0.0
 11
-36.4952825785837
 21
180.02455139159
 31
0.0
  0
LINE
  5
   13D
  8
0
  6
CONTINUOUS
 62
     3
 10
-36.4952825785837
 20
180.02455139159
 30
0.0
 11
-35.7188254221652
 21
182.9223288648
 31
0.0
  0
LINE
  5
   13E
  8
0
  6
CONTINUOUS
 62
     3
 10
-35.7188254221652
 20
201.626773918379
 30
0.0
 11
-36.4952825785837
 21
204.52455139159
 31
0.0
  0
LINE
  5
   13F
  8
0
  6
CONTINUOUS
 62
     3
 10
-36.4952825785837
 20
204.52455139159
 30
0.0
 11
-37.2717397350022
 21
201.626773918379
 31
0.0
  0
ENDBLK
  5
   140
  8
0
  6
CONTINUOUS
 62
     7
  0
BLOCK
  5
   141
  8
0
  6
CONTINUOUS
 62
     7
  2
*HATCH911
 70
    65
 10
0.0
 20
0.0
 30
0.0
  3
*HATCH911
  0
LINE
  5
   142
  8
0
  6
CONTINUOUS
 62
     7
 10
-6.72705316543579
 20
2.18249082565308
 30
0.0
 11
-7.30467510223389
 21
1.60486936569214
 31
0.0
  0
LINE
  5
   143
  8
0
  6
CONTINUOUS
 62
     7
 10
-6.27154493331909
 20
2.21373534202576
 30
0.0
 11
-7.22455787658691
 21
1.26072216033936
 31
0.0
  0
LINE
  5
   144
  8
0
  6
CONTINUOUS
 62
     7
 10
-5.84726810455322
 20
2.21374821662903
 30
0.0
 11
-6.39466667175293
 21
1.66634941101074
 31
0.0
  0
LINE
  5
   145
  8
0
  6
CONTINUOUS
 62
     7
 10
-6.66426229476929
 20
1.39675414562225
 30
0.0
 11
-7.0505313873291
 21
1.01048505306244
 31
0.0
  0
LINE
  5
   146
  8
0
  6
CONTINUOUS
 62
     7
 10
-5.806396484375
 20
1.83035564422607
 30
0.0
 11
-5.97040271759033
 21
1.66634941101074
 31
0.0
  0
LINE
  5
   147
  8
0
  6
CONTINUOUS
 62
     7
 10
-6.29627180099487
 20
1.34048020839691
 30
0.0
 11
-6.75053644180298
 21
0.886215686798096
 31
0.0
  0
LINE
  5
   148
  8
0
  6
CONTINUOUS
 62
     7
 10
-7.08935260772705
 20
0.547399520874023
 30
0.0
 11
-7.25539398193359
 21
0.381358295679092
 31
0.0
  0
LINE
  5
   149
  8
0
  6
CONTINUOUS
 62
     7
 10
-5.99627304077148
 20
1.2162150144577
 30
0.0
 11
-6.38071584701538
 21
0.83177250623703
 31
0.0
  0
LINE
  5
   14A
  8
0
  6
CONTINUOUS
 62
     7
 10
-6.66508865356445
 20
0.547399520874023
 30
0.0
 11
-7.21248769760132
 21
5.17343551109661E-7
 31
0.0
  0
LINE
  5
   14B
  8
0
  6
CONTINUOUS
 62
     7
 10
-5.83309316635132
 20
0.955130934715271
 30
0.0
 11
-6.78821849822998
 21
5.63298863198725E-6
 31
0.0
  0
LINE
  5
   14C
  8
0
  6
CONTINUOUS
 62
     7
 10
-5.76708984375
 20
0.596870422363281
 30
0.0
 11
-6.32275247573853
 21
4.12076637148857E-2
 31
0.0
  0
ENDBLK
  5
   14D
  8
0
  6
CONTINUOUS
 62
     7
  0
BLOCK
  5
   14E
  8
0
  6
CONTINUOUS
 62
     7
  2
*HATCH912
 70
    65
 10
0.0
 20
0.0
 30
0.0
  3
*HATCH912
  0
LINE
  5
   14F
  8
0
  6
CONTINUOUS
 62
     7
 10
-4.99874639511108
 20
2.21374201774597
 30
0.0
 11
-5.11600208282471
 21
2.09648633003235
 31
0.0
  0
LINE
  5
   150
  8
0
  6
CONTINUOUS
 62
     7
 10
-4.5744776725769
 20
2.21374702453613
 30
0.0
 11
-5.29006290435791
 21
1.49816131591797
 31
0.0
  0
LINE
  5
   151
  8
0
  6
CONTINUOUS
 62
     7
 10
-4.31070804595947
 20
2.05325198173523
 30
0.0
 11
-5.46412372589111
 21
0.899836301803589
 31
0.0
  0
LINE
  5
   152
  8
0
  6
CONTINUOUS
 62
     7
 10
-4.21509790420532
 20
1.72459805011749
 30
0.0
 11
-4.65671157836914
 21
1.28298437595367
 31
0.0
  0
LINE
  5
   153
  8
0
  6
CONTINUOUS
 62
     7
 10
-4.8342022895813
 20
1.10549378395081
 30
0.0
 11
-5.63818502426147
 21
0.301511287689209
 31
0.0
  0
LINE
  5
   154
  8
0
  6
CONTINUOUS
 62
     7
 10
-4.11948823928833
 20
1.39594399929047
 30
0.0
 11
-5.51543140411377
 21
5.84804922709736E-7
 31
0.0
  0
LINE
  5
   155
  8
0
  6
CONTINUOUS
 62
     7
 10
-4.02387809753418
 20
1.06729006767273
 30
0.0
 11
-4.64841794967651
 21
0.442750215530396
 31
0.0
  0
LINE
  5
   156
  8
0
  6
CONTINUOUS
 62
     7
 10
-3.92826819419861
 20
0.738636076450348
 30
0.0
 11
-4.36988687515259
 21
0.297017365694046
 31
0.0
  0
LINE
  5
   157
  8
0
  6
CONTINUOUS
 62
     7
 10
-3.83265805244446
 20
0.409982055425644
 30
0.0
 11
-4.24264001846313
 21
-1.59405963984227E-8
 31
0.0
  0
LINE
  5
   158
  8
0
  6
CONTINUOUS
 62
     7
 10
-3.73704814910889
 20
8.13280642032623E-2
 30
0.0
 11
-3.81837606430054
 21
-1.81517350483773E-7
 31
0.0
  0
ENDBLK
  5
   159
  8
0
  6
CONTINUOUS
 62
     7
  0
BLOCK
  5
   15A
  8
0
  6
CONTINUOUS
 62
     7
  2
*HATCH913
 70
    65
 10
0.0
 20
0.0
 30
0.0
  3
*HATCH913
  0
LINE
  5
   15B
  8
0
  6
CONTINUOUS
 62
     7
 10
-2.9884078502655
 20
2.10276007652283
 30
0.0
 11
-3.5777416229248
 21
1.51342642307281
 31
0.0
  0
LINE
  5
   15C
  8
0
  6
CONTINUOUS
 62
     7
 10
-2.51154756546021
 20
2.15535640716553
 30
0.0
 11
-3.66166138648987
 21
1.00524282455444
 31
0.0
  0
LINE
  5
   15D
  8
0
  6
CONTINUOUS
 62
     7
 10
-2.14052557945251
 20
2.10211443901062
 30
0.0
 11
-2.58813261985779
 21
1.65450739860535
 31
0.0
  0
LINE
  5
   15E
  8
0
  6
CONTINUOUS
 62
     7
 10
-3.09122323989868
 20
1.15141689777374
 30
0.0
 11
-3.58603048324585
 21
0.65660959482193
 31
0.0
  0
LINE
  5
   15F
  8
0
  6
CONTINUOUS
 62
     7
 10
-1.91638314723969
 20
1.90199279785156
 30
0.0
 11
-2.31821155548096
 21
1.50016450881958
 31
0.0
  0
LINE
  5
   160
  8
0
  6
CONTINUOUS
 62
     7
 10
-3.04562044143677
 20
0.772755563259125
 30
0.0
 11
-3.43465447425842
 21
0.383721768856049
 31
0.0
  0
LINE
  5
   161
  8
0
  6
CONTINUOUS
 62
     7
 10
-1.69224071502686
 20
1.70187127590179
 30
0.0
 11
-1.84102010726929
 21
1.55309188365936
 31
0.0
  0
LINE
  5
   162
  8
0
  6
CONTINUOUS
 62
     7
 10
-2.80736231803894
 20
0.586749851703644
 30
0.0
 11
-3.20844173431396
 21
0.185670480132103
 31
0.0
  0
LINE
  5
   163
  8
0
  6
CONTINUOUS
 62
     7
 10
-2.35260963439941
 20
0.617238461971283
 30
0.0
 11
-2.92059206962585
 21
4.92561422288418E-2
 31
0.0
  0
LINE
  5
   164
  8
0
  6
CONTINUOUS
 62
     7
 10
-1.86875593662262
 20
0.676828145980835
 30
0.0
 11
-2.53638815879822
 21
9.19588841497898E-3
 31
0.0
  0
ENDBLK
  5
   165
  8
0
  6
CONTINUOUS
 62
     7
  0
BLOCK
  5
   166
  8
0
  6
CONTINUOUS
 62
     7
  2
*HATCH914
 70
    65
 10
0.0
 20
0.0
 30
0.0
  3
*HATCH914
  0
LINE
  5
   167
  8
0
  6
CONTINUOUS
 62
     7
 10
-1.18036293983459
 20
2.21374893188477
 30
0.0
 11
-1.44899749755859
 21
1.94511449337006
 31
0.0
  0
LINE
  5
   168
  8
0
  6
CONTINUOUS
 62
     7
 10
-0.756098747253418
 20
2.21374917030334
 30
0.0
 11
-1.44899749755859
 21
1.52085041999817
 31
0.0
  0
LINE
  5
   169
  8
0
  6
CONTINUOUS
 62
     7
 10
-0.331834644079208
 20
2.21374940872192
 30
0.0
 11
-0.879234552383423
 21
1.66634941101074
 31
0.0
  0
LINE
  5
   16A
  8
0
  6
CONTINUOUS
 62
     7
 10
-0.901596069335938
 20
1.64398789405823
 30
0.0
 11
-1.44899749755859
 21
1.09658646583557
 31
0.0
  0
LINE
  5
   16B
  8
0
  6
CONTINUOUS
 62
     7
 10
1.8455197529913E-16
 20
2.12132000923157
 30
0.0
 11
-0.45497053861618
 21
1.66634941101074
 31
0.0
  0
LINE
  5
   16C
  8
0
  6
CONTINUOUS
 62
     7
 10
-0.740745306015015
 20
1.38057470321655
 30
0.0
 11
-1.44899749755859
 21
0.672322511672974
 31
0.0
  0
LINE
  5
   16D
  8
0
  6
CONTINUOUS
 62
     7
 10
1.24556434776123E-17
 20
1.69705593585968
 30
0.0
 11
-3.07065322995186E-2
 21
1.66634941101074
 31
0.0
  0
LINE
  5
   16E
  8
0
  6
CONTINUOUS
 62
     7
 10
-0.31648126244545
 20
1.38057470321655
 30
0.0
 11
-0.863881289958954
 21
0.833174705505371
 31
0.0
  0
LINE
  5
   16F
  8
0
  6
CONTINUOUS
 62
     7
 10
-0.901596069335938
 20
0.795459926128387
 30
0.0
 11
-1.44899749755859
 21
0.248058557510376
 31
0.0
  0
LINE
  5
   170
  8
0
  6
CONTINUOUS
 62
     7
 10
-0.120750427246094
 20
1.15204155445099
 30
0.0
 11
-0.439617276191711
 21
0.833174705505371
 31
0.0
  0
LINE
  5
   171
  8
0
  6
CONTINUOUS
 62
     7
 10
-0.725392460823059
 20
0.547399520874023
 30
0.0
 11
-1.27279210090637
 21
1.13804191595359E-15
 31
0.0
  0
LINE
  5
   172
  8
0
  6
CONTINUOUS
 62
     7
 10
-0.301128476858139
 20
0.547399520874023
 30
0.0
 11
-0.848528027534485
 21
7.58694610635728E-16
 31
0.0
  0
LINE
  5
   173
  8
0
  6
CONTINUOUS
 62
     7
 10
0.0
 20
0.42426398396492
 30
0.0
 11
-0.424264013767242
 21
3.79347305317864E-16
 31
0.0
  0
LINE
  5
   174
  8
0
  6
CONTINUOUS
 62
     7
 10
0.0
 20
0.0
 30
0.0
 11
0.0
 21
2.64697796016969E-23
 31
0.0
  0
ENDBLK
  5
   175
  8
0
  6
CONTINUOUS
 62
     7
  0
BLOCK
  5
   176
  8
0
  6
CONTINUOUS
 62
     7
  2
*HATCH915
 70
    65
 10
0.0
 20
0.0
 30
0.0
  3
*HATCH915
  0
LINE
  5
   177
  8
0
  6
CONTINUOUS
 62
     7
 10
3.48652029037476
 20
2.2137279510498
 30
0.0
 11
2.70458126068115
 21
1.43178904056549
 31
0.0
  0
LINE
  5
   178
  8
0
  6
CONTINUOUS
 62
     7
 10
3.91079711914063
 20
2.21374082565308
 30
0.0
 11
3.36340570449829
 21
1.66634941101074
 31
0.0
  0
LINE
  5
   179
  8
0
  6
CONTINUOUS
 62
     7
 10
3.21820473670959
 20
1.52114868164063
 30
0.0
 11
2.82884836196899
 21
1.13179218769073
 31
0.0
  0
LINE
  5
   17A
  8
0
  6
CONTINUOUS
 62
     7
 10
4.193603515625
 20
2.07228326797485
 30
0.0
 11
3.78766965866089
 21
1.66634941101074
 31
0.0
  0
LINE
  5
   17B
  8
0
  6
CONTINUOUS
 62
     7
 10
3.51397061347961
 20
1.39265036582947
 30
0.0
 11
3.07839775085449
 21
0.95707768201828
 31
0.0
  0
LINE
  5
   17C
  8
0
  6
CONTINUOUS
 62
     7
 10
3.8326587677002
 20
1.28707456588745
 30
0.0
 11
3.39083480834961
 21
0.84525054693222
 31
0.0
  0
LINE
  5
   17D
  8
0
  6
CONTINUOUS
 62
     7
 10
3.09298372268677
 20
0.547399520874023
 30
0.0
 11
2.74460601806641
 21
0.199021905660629
 31
0.0
  0
LINE
  5
   17E
  8
0
  6
CONTINUOUS
 62
     7
 10
4.0960488319397
 20
1.12620043754578
 30
0.0
 11
3.71637558937073
 21
0.746527493000031
 31
0.0
  0
LINE
  5
   17F
  8
0
  6
CONTINUOUS
 62
     7
 10
3.51724767684937
 20
0.547399520874023
 30
0.0
 11
2.96985077857971
 21
2.7158998818777E-6
 31
0.0
  0
LINE
  5
   180
  8
0
  6
CONTINUOUS
 62
     7
 10
4.22031116485596
 20
0.826198935508728
 30
0.0
 11
3.39411997795105
 21
7.83154519012896E-6
 31
0.0
  0
LINE
  5
   181
  8
0
  6
CONTINUOUS
 62
     7
 10
4.10397624969482
 20
0.285600155591965
 30
0.0
 11
3.98851370811462
 21
0.17013755440712
 31
0.0
  0
ENDBLK
  5
   182
  8
0
  6
CONTINUOUS
 62
     7
  0
BLOCK
  5
   183
  8
0
  6
CONTINUOUS
 62
     7
  2
$5SACE
 70
    64
 10
0.0
 20
0.0
 30
0.0
  3
$5SACE
  0
LINE
  5
   184
  8
0
  6
CONTINUOUS
 62
     7
 10
-6.65164184570313
 20
0.84524965286255
 30
0.0
 11
-6.42221832275391
 21
0.84524965286255
 31
0.0
  0
LINE
  5
   185
  8
0
  6
CONTINUOUS
 62
     7
 10
-6.42220611590814
 20
0.845254519188986
 30
0.0
 11
-6.33467408742227
 21
0.816812141576352
 31
0.0
  0
LINE
  5
   186
  8
0
  6
CONTINUOUS
 62
     7
 10
-6.33467505266625
 20
0.816811912229196
 30
0.0
 11
-6.28057502527593
 21
0.742349507885549
 31
0.0
  0
LINE
  5
   187
  8
0
  6
CONTINUOUS
 62
     7
 10
-6.28058624267578
 20
0.650304317474365
 30
0.0
 11
-6.28058624267578
 21
0.742344856262207
 31
0.0
  0
LINE
  5
   188
  8
0
  6
CONTINUOUS
 62
     7
 10
-6.33467905122843
 20
0.575845194549703
 30
0.0
 11
-6.28057902383813
 21
0.65030759889333
 31
0.0
  0
LINE
  5
   189
  8
0
  6
CONTINUOUS
 62
     7
 10
-6.42220857841173
 20
0.5474028190401
 30
0.0
 11
-6.33467654992582
 21
0.575845196652747
 31
0.0
  0
LINE
  5
   18A
  8
0
  6
CONTINUOUS
 62
     7
 10
-7.25539398193359
 20
0.547399520874025
 30
0.0
 11
-6.42221832275391
 21
0.547399520874025
 31
0.0
  0
LINE
  5
   18B
  8
0
  6
CONTINUOUS
 62
     7
 10
-7.25539398193359
 20
0.0
 30
0.0
 11
-7.25539398193359
 21
0.547399520874023
 31
0.0
  0
LINE
  5
   18C
  8
0
  6
CONTINUOUS
 62
     7
 10
-7.25539398193359
 20
1.29559252739714E-15
 30
0.0
 11
-6.42221832275391
 21
1.29559252739714E-15
 31
0.0
  0
LINE
  5
   18D
  8
0
  6
CONTINUOUS
 62
     7
 10
-6.65164184570313
 20
1.39264965057373
 30
0.0
 11
-6.42221832275391
 21
1.39264965057373
 31
0.0
  0
LINE
  5
   18E
  8
0
  6
CONTINUOUS
 62
     7
 10
-6.73207774966845
 20
1.41878793231365
 30
0.0
 11
-6.65163341489544
 21
1.39265201188207
 31
0.0
  0
LINE
  5
   18F
  8
0
  6
CONTINUOUS
 62
     7
 10
-6.78179637679859
 20
1.48720936665429
 30
0.0
 11
-6.73208324200653
 21
1.41878418569267
 31
0.0
  0
LINE
  5
   190
  8
0
  6
CONTINUOUS
 62
     7
 10
-6.78179931640625
 20
1.48721075057983
 30
0.0
 11
-6.78179931640625
 21
1.57178831100464
 31
0.0
  0
LINE
  5
   191
  8
0
  6
CONTINUOUS
 62
     7
 10
-6.78178899286177
 20
1.57178600254942
 30
0.0
 11
-6.73207585806973
 21
1.64021118351102
 31
0.0
  0
LINE
  5
   192
  8
0
  6
CONTINUOUS
 62
     7
 10
-6.73207464437523
 20
1.64021722966892
 30
0.0
 11
-6.65163030960224
 21
1.66635315010049
 31
0.0
  0
LINE
  5
   193
  8
0
  6
CONTINUOUS
 62
     7
 10
-6.65164184570313
 20
1.66634941101074
 30
0.0
 11
-5.806396484375
 21
1.66634941101074
 31
0.0
  0
LINE
  5
   194
  8
0
  6
CONTINUOUS
 62
     7
 10
-5.806396484375
 20
1.66634941101074
 30
0.0
 11
-5.806396484375
 21
2.21374940872192
 31
0.0
  0
LINE
  5
   195
  8
0
  6
CONTINUOUS
 62
     7
 10
-6.65164184570313
 20
2.21374940872193
 30
0.0
 11
-5.806396484375
 21
2.21374940872193
 31
0.0
  0
LINE
  5
   196
  8
0
  6
CONTINUOUS
 62
     7
 10
-5.72589874267578
 20
1.29559252739714E-15
 30
0.0
 11
-5.15579986572266
 21
1.29559252739714E-15
 31
0.0
  0
LINE
  5
   197
  8
0
  6
CONTINUOUS
 62
     7
 10
-5.1557939203843
 20
1.58409603323584E-6
 30
0.0
 11
-5.02699448583549
 21
0.442751079827253
 31
0.0
  0
LINE
  5
   198
  8
0
  6
CONTINUOUS
 62
     7
 10
-5.02700042724609
 20
0.442749500274659
 30
0.0
 11
-4.41228485107422
 21
0.442749500274659
 31
0.0
  0
LINE
  5
   199
  8
0
  6
CONTINUOUS
 62
     7
 10
-4.41228013668901
 20
0.44275068065938
 30
0.0
 11
-4.2834807021402
 21
1.18492813605542E-6
 31
0.0
  0
LINE
  5
   19A
  8
0
  6
CONTINUOUS
 62
     7
 10
-4.28348541259766
 20
1.29559252739714E-15
 30
0.0
 11
-3.71339416503906
 21
1.29559252739714E-15
 31
0.0
  0
LINE
  5
   19B
  8
0
  6
CONTINUOUS
 62
     7
 10
-4.35739354898064
 20
2.21374974704771
 30
0.0
 11
-3.71338855826095
 21
-2.22490754153704E-7
 31
0.0
  0
LINE
  5
   19C
  8
0
  6
CONTINUOUS
 62
     7
 10
-5.08189392089844
 20
2.21374940872193
 30
0.0
 11
-4.35739898681641
 21
2.21374940872193
 31
0.0
  0
LINE
  5
   19D
  8
0
  6
CONTINUOUS
 62
     7
 10
-5.72589584497131
 20
-8.9938235985354E-6
 30
0.0
 11
-5.08189085425162
 21
2.21374097571487
 31
0.0
  0
LINE
  5
   19E
  8
0
  6
CONTINUOUS
 62
     7
 10
-4.71963825721332
 20
1.49929173564375
 30
0.0
 11
-4.57152874572855
 21
0.990149564360234
 31
0.0
  0
LINE
  5
   19F
  8
0
  6
CONTINUOUS
 62
     7
 10
-4.86775970458984
 20
0.990149497985841
 30
0.0
 11
-4.571533203125
 21
0.990149497985841
 31
0.0
  0
LINE
  5
   1A0
  8
0
  6
CONTINUOUS
 62
     7
 10
-4.86775077081381
 20
0.990150342992026
 30
0.0
 11
-4.71963371649822
 21
1.4992922341155
 31
0.0
  0
LINE
  5
   1A1
  8
0
  6
CONTINUOUS
 62
     7
 10
-3.56278593292238
 20
0.549459587100848
 30
0.0
 11
-3.38675290737703
 21
0.321762682109787
 31
0.0
  0
LINE
  5
   1A2
  8
0
  6
CONTINUOUS
 62
     7
 10
-3.38674988776631
 20
0.321757463405608
 30
0.0
 11
-3.15795960623514
 21
0.14714302843915
 31
0.0
  0
LINE
  5
   1A3
  8
0
  6
CONTINUOUS
 62
     7
 10
-3.15796427280975
 20
0.147145556821385
 30
0.0
 11
-2.89188914343168
 21
3.74196068128748E-2
 31
0.0
  0
LINE
  5
   1A4
  8
0
  6
CONTINUOUS
 62
     7
 10
-2.8918863014344
 20
3.74182762057862E-2
 30
0.0
 11
-2.60651643426088
 21
-8.77137409371898E-8
 31
0.0
  0
LINE
  5
   1A5
  8
0
  6
CONTINUOUS
 62
     7
 10
-2.6065123212118
 20
9.81649358466896E-7
 30
0.0
 11
-2.32114245403815
 21
3.74193455689014E-2
 31
0.0
  0
LINE
  5
   1A6
  8
0
  6
CONTINUOUS
 62
     7
 10
-2.32115153010861
 20
3.74184405847323E-2
 30
0.0
 11
-2.05507640073053
 21
0.147144390593243
 31
0.0
  0
LINE
  5
   1A7
  8
0
  6
CONTINUOUS
 62
     7
 10
-2.05506873210346
 20
0.147150154788858
 30
0.0
 11
-1.82627845057229
 21
0.321764589755317
 31
0.0
  0
LINE
  5
   1A8
  8
0
  6
CONTINUOUS
 62
     7
 10
-1.82628033847405
 20
0.321759408316239
 30
0.0
 11
-1.65023969094006
 21
0.549456298035748
 31
0.0
  0
LINE
  5
   1A9
  8
0
  6
CONTINUOUS
 62
     7
 10
-2.12316137878389
 20
0.825127035253691
 30
0.0
 11
-1.65023815182741
 21
0.549457975118036
 31
0.0
  0
LINE
  5
   1AA
  8
0
  6
CONTINUOUS
 62
     7
 10
-2.24808598157176
 20
0.677293469343914
 30
0.0
 11
-2.12316989668348
 21
0.825121583594019
 31
0.0
  0
LINE
  5
   1AB
  8
0
  6
CONTINUOUS
 62
     7
 10
-2.41589982592873
 20
0.580876247378224
 30
0.0
 11
-2.24808363129394
 21
0.677297507055141
 31
0.0
  0
LINE
  5
   1AC
  8
0
  6
CONTINUOUS
 62
     7
 10
-2.60651568365088
 20
0.547399641475173
 30
0.0
 11
-2.41589523762909
 21
0.580875516622462
 31
0.0
  0
LINE
  5
   1AD
  8
0
  6
CONTINUOUS
 62
     7
 10
-2.79714562109014
 20
0.580875730809506
 30
0.0
 11
-2.60652517506844
 21
0.547399855662232
 31
0.0
  0
LINE
  5
   1AE
  8
0
  6
CONTINUOUS
 62
     7
 10
-2.96495823289931
 20
0.677298823896134
 30
0.0
 11
-2.7971420382645
 21
0.580877564219204
 31
0.0
  0
LINE
  5
   1AF
  8
0
  6
CONTINUOUS
 62
     7
 10
-3.08987367938059
 20
0.825127877682344
 30
0.0
 11
-2.96495759449232
 21
0.677299763432247
 31
0.0
  0
LINE
  5
   1B0
  8
0
  6
CONTINUOUS
 62
     7
 10
-2.12315784078463
 20
1.38863138085445
 30
0.0
 11
-1.65023461382815
 21
1.6643004409901
 31
0.0
  0
LINE
  5
   1B1
  8
0
  6
CONTINUOUS
 62
     7
 10
-1.44899749755859
 20
0.0
 30
0.0
 11
-1.44899749755859
 21
2.21374893188477
 31
0.0
  0
LINE
  5
   1B2
  8
0
  6
CONTINUOUS
 62
     7
 10
-1.44899749755859
 20
1.29559252739714E-15
 30
0.0
 11
7.93321620838069E-32
 21
1.29559252739714E-15
 31
0.0
  0
LINE
  5
   1B3
  8
0
  6
CONTINUOUS
 62
     7
 10
0.0
 20
0.0
 30
0.0
 11
0.0
 21
0.547399520874023
 31
0.0
  0
LINE
  5
   1B4
  8
0
  6
CONTINUOUS
 62
     7
 10
-0.901596069335938
 20
0.547399520874025
 30
0.0
 11
3.35185535546584E-17
 21
0.547399520874025
 31
0.0
  0
LINE
  5
   1B5
  8
0
  6
CONTINUOUS
 62
     7
 10
-0.901596069335938
 20
0.547399520874023
 30
0.0
 11
-0.901596069335938
 21
0.833174705505371
 31
0.0
  0
LINE
  5
   1B6
  8
0
  6
CONTINUOUS
 62
     7
 10
-0.901596069335938
 20
0.833174705505373
 30
0.0
 11
-0.120750427246094
 21
0.833174705505373
 31
0.0
  0
LINE
  5
   1B7
  8
0
  6
CONTINUOUS
 62
     7
 10
-0.120750427246094
 20
0.833174705505371
 30
0.0
 11
-0.120750427246094
 21
1.38057470321655
 31
0.0
  0
LINE
  5
   1B8
  8
0
  6
CONTINUOUS
 62
     7
 10
-0.901596069335937
 20
1.38057470321655
 30
0.0
 11
-0.120750427246094
 21
1.38057470321655
 31
0.0
  0
LINE
  5
   1B9
  8
0
  6
CONTINUOUS
 62
     7
 10
-0.901596069335938
 20
1.38057470321655
 30
0.0
 11
-0.901596069335938
 21
1.66634938120842
 31
0.0
  0
LINE
  5
   1BA
  8
0
  6
CONTINUOUS
 62
     7
 10
-0.901596069335937
 20
1.66634941101074
 30
0.0
 11
1.02034473622769E-16
 21
1.66634941101074
 31
0.0
  0
LINE
  5
   1BB
  8
0
  6
CONTINUOUS
 62
     7
 10
0.0
 20
1.66634941101074
 30
0.0
 11
0.0
 21
2.21374940872192
 31
0.0
  0
LINE
  5
   1BC
  8
0
  6
CONTINUOUS
 62
     7
 10
-1.44899749755859
 20
2.21374940872193
 30
0.0
 11
1.35553056375283E-16
 21
2.21374940872193
 31
0.0
  0
ARC
  5
   1BD
  8
0
  6
CONTINUOUS
 62
     7
 10
-6.65167272329478
 20
1.52950251971625
 30
0.0
 40
0.684221325991138
 50
89.9975452090749
 51
270.002590974911
  0
ARC
  5
   1BE
  8
0
  6
CONTINUOUS
 62
     7
 10
-6.4222121249208
 20
0.696328140844565
 30
0.0
 40
0.696318094728419
 50
269.999920898491
 51
449.999499220325
  0
ARC
  5
   1BF
  8
0
  6
CONTINUOUS
 62
     7
 10
-2.60648164577671
 20
1.10683590907698
 30
0.0
 40
1.10692783346537
 50
30.24104526357
 51
210.235617348036
  0
ARC
  5
   1C0
  8
0
  6
CONTINUOUS
 62
     7
 10
-2.60650097665835
 20
1.10686381958204
 30
0.0
 40
0.5594873152035
 50
30.2406197505008
 51
210.236398393491
  0
INSERT
  5
   1C1
  8
0
  6
CONTINUOUS
 62
     7
  2
*HATCH911
 10
0.0
 20
0.0
 30
0.0
  0
INSERT
  5
   1C2
  8
0
  6
CONTINUOUS
 62
     7
  2
*HATCH912
 10
0.0
 20
0.0
 30
0.0
  0
INSERT
  5
   1C3
  8
0
  6
CONTINUOUS
 62
     7
  2
*HATCH913
 10
0.0
 20
0.0
 30
0.0
  0
INSERT
  5
   1C4
  8
0
  6
CONTINUOUS
 62
     7
  2
*HATCH914
 10
0.0
 20
0.0
 30
0.0
  0
INSERT
  5
   1C5
  8
0
  6
CONTINUOUS
 62
     7
  2
*HATCH915
 10
0.0
 20
0.0
 30
0.0
  0
LINE
  5
   1C6
  8
0
  6
CONTINUOUS
 62
     7
 10
3.34835815429688
 20
1.66634941101074
 30
0.0
 11
4.193603515625
 21
1.66634941101074
 31
0.0
  0
LINE
  5
   1C7
  8
0
  6
CONTINUOUS
 62
     7
 10
4.193603515625
 20
1.66634941101074
 30
0.0
 11
4.193603515625
 21
2.21374940872192
 31
0.0
  0
LINE
  5
   1C8
  8
0
  6
CONTINUOUS
 62
     7
 10
3.34835815429688
 20
2.21374940872193
 30
0.0
 11
4.193603515625
 21
2.21374940872193
 31
0.0
  0
ARC
  5
   1C9
  8
0
  6
CONTINUOUS
 62
     7
 10
3.34832727670522
 20
1.52950251971625
 30
0.0
 40
0.684221325991138
 50
89.9975452090749
 51
270.002590974911
  0
LINE
  5
   1CA
  8
0
  6
CONTINUOUS
 62
     7
 10
3.21820068359375
 20
1.48721075057983
 30
0.0
 11
3.21820068359375
 21
1.57178831100464
 31
0.0
  0
LINE
  5
   1CB
  8
0
  6
CONTINUOUS
 62
     7
 10
3.34835815429688
 20
1.39264965057373
 30
0.0
 11
3.57778167724609
 21
1.39264965057373
 31
0.0
  0
ARC
  5
   1CC
  8
0
  6
CONTINUOUS
 62
     7
 10
3.5777878750792
 20
0.696328140844565
 30
0.0
 40
0.696318094728419
 50
269.999920898491
 51
449.999499220325
  0
LINE
  5
   1CD
  8
0
  6
CONTINUOUS
 62
     7
 10
3.66532494733375
 20
0.8168119122292
 30
0.0
 11
3.71942497472407
 21
0.742349507885553
 31
0.0
  0
LINE
  5
   1CE
  8
0
  6
CONTINUOUS
 62
     7
 10
2.74460601806641
 20
0.547399520874025
 30
0.0
 11
3.57778167724609
 21
0.547399520874025
 31
0.0
  0
LINE
  5
   1CF
  8
0
  6
CONTINUOUS
 62
     7
 10
2.74460601806641
 20
1.29559252739714E-15
 30
0.0
 11
3.57778167724609
 21
1.29559252739714E-15
 31
0.0
  0
LINE
  5
   1D0
  8
0
  6
CONTINUOUS
 62
     7
 10
2.74460601806641
 20
0.0
 30
0.0
 11
2.74460601806641
 21
0.547399520874023
 31
0.0
  0
LINE
  5
   1D1
  8
0
  6
CONTINUOUS
 62
     7
 10
3.57779388409186
 20
0.845254519188985
 30
0.0
 11
3.66532591257773
 21
0.816812141576352
 31
0.0
  0
LINE
  5
   1D2
  8
0
  6
CONTINUOUS
 62
     7
 10
3.66532094877157
 20
0.5758451945497
 30
0.0
 11
3.71942097616187
 21
0.650307598893327
 31
0.0
  0
LINE
  5
   1D3
  8
0
  6
CONTINUOUS
 62
     7
 10
3.26792535562477
 20
1.64021722966892
 30
0.0
 11
3.34836969039776
 21
1.66635315010049
 31
0.0
  0
LINE
  5
   1D4
  8
0
  6
CONTINUOUS
 62
     7
 10
3.26792225033155
 20
1.41878793231365
 30
0.0
 11
3.34836658510456
 21
1.39265201188207
 31
0.0
  0
LINE
  5
   1D5
  8
0
  6
CONTINUOUS
 62
     7
 10
3.66532094877157
 20
0.5758451945497
 30
0.0
 11
3.71942097616187
 21
0.650307598893327
 31
0.0
  0
ENDBLK
  5
   1D6
  8
0
  6
CONTINUOUS
 62
     7
  0
BLOCK
  5
   1D7
  8
0
  6
CONTINUOUS
 62
     7
  2
*HATCH916
 70
    65
 10
0.0
 20
0.0
 30
0.0
  3
*HATCH916
  0
LINE
  5
   1D8
  8
0
  6
CONTINUOUS
 62
     7
 10
-3.7039635181427
 20
2.659996509552
 30
0.0
 11
-4.09285688400269
 21
2.27110314369202
 31
0.0
  0
LINE
  5
   1D9
  8
0
  6
CONTINUOUS
 62
     7
 10
-3.6409957408905
 20
2.2987003326416
 30
0.0
 11
-4.3212947845459
 21
1.61840128898621
 31
0.0
  0
LINE
  5
   1DA
  8
0
  6
CONTINUOUS
 62
     7
 10
-3.6409957408905
 20
1.87443625926971
 30
0.0
 11
-4.10218858718872
 21
1.41324353218079
 31
0.0
  0
LINE
  5
   1DB
  8
0
  6
CONTINUOUS
 62
     7
 10
-3.6409957408905
 20
1.45017230510712
 30
0.0
 11
-3.67792463302612
 21
1.41324353218079
 31
0.0
  0
ENDBLK
  5
   1DC
  8
0
  6
CONTINUOUS
 62
     7
  0
BLOCK
  5
   1DD
  8
0
  6
CONTINUOUS
 62
     7
  2
*HATCH917
 70
    65
 10
0.0
 20
0.0
 30
0.0
  3
*HATCH917
  0
LINE
  5
   1DE
  8
0
  6
CONTINUOUS
 62
     7
 10
-4.26868629455566
 20
1.24674582481384
 30
0.0
 11
-4.54975318908691
 21
0.965678870677948
 31
0.0
  0
LINE
  5
   1DF
  8
0
  6
CONTINUOUS
 62
     7
 10
-3.84442234039307
 20
1.24674582481384
 30
0.0
 11
-4.77821111679077
 21
0.312956929206848
 31
0.0
  0
LINE
  5
   1E0
  8
0
  6
CONTINUOUS
 62
     7
 10
-3.6409957408905
 20
1.02590835094452
 30
0.0
 11
-4.66690492630005
 21
-4.98909855650709E-7
 31
0.0
  0
LINE
  5
   1E1
  8
0
  6
CONTINUOUS
 62
     7
 10
-3.6409957408905
 20
0.601644337177277
 30
0.0
 11
-3.71064043045044
 21
0.531999588012695
 31
0.0
  0
LINE
  5
   1E2
  8
0
  6
CONTINUOUS
 62
     7
 10
-4.21202754974365
 20
3.06128244847059E-2
 30
0.0
 11
-4.24264144897461
 21
-1.45736464673973E-6
 31
0.0
  0
ENDBLK
  5
   1E3
  8
0
  6
CONTINUOUS
 62
     7
  0
BLOCK
  5
   1E4
  8
0
  6
CONTINUOUS
 62
     7
  2
*HATCH918
 70
    65
 10
0.0
 20
0.0
 30
0.0
  3
*HATCH918
  0
LINE
  5
   1E5
  8
0
  6
CONTINUOUS
 62
     7
 10
-3.42015838623047
 20
1.24674582481384
 30
0.0
 11
-3.47449803352356
 21
1.19240605831146
 31
0.0
  0
LINE
  5
   1E6
  8
0
  6
CONTINUOUS
 62
     7
 10
-2.99589443206787
 20
1.24674582481384
 30
0.0
 11
-3.47449803352356
 21
0.768142104148865
 31
0.0
  0
LINE
  5
   1E7
  8
0
  6
CONTINUOUS
 62
     7
 10
-2.64012384414673
 20
1.17825222015381
 30
0.0
 11
-3.28637623786926
 21
0.532000005245209
 31
0.0
  0
LINE
  5
   1E8
  8
0
  6
CONTINUOUS
 62
     7
 10
-2.53012871742249
 20
0.863983333110809
 30
0.0
 11
-3.02272534370422
 21
0.371386826038361
 31
0.0
  0
LINE
  5
   1E9
  8
0
  6
CONTINUOUS
 62
     7
 10
-2.42013359069824
 20
0.54971444606781
 30
0.0
 11
-2.91273474693298
 21
0.057113379240036
 31
0.0
  0
LINE
  5
   1EA
  8
0
  6
CONTINUOUS
 62
     7
 10
-2.310138463974
 20
0.235445529222488
 30
0.0
 11
-2.54558539390564
 21
-1.36076994294854E-6
 31
0.0
  0
ENDBLK
  5
   1EB
  8
0
  6
CONTINUOUS
 62
     7
  0
BLOCK
  5
   1EC
  8
0
  6
CONTINUOUS
 62
     7
  2
*HATCH919
 70
    65
 10
0.0
 20
0.0
 30
0.0
  3
*HATCH919
  0
LINE
  5
   1ED
  8
0
  6
CONTINUOUS
 62
     7
 10
-3.27970123291016
 20
2.65999484062195
 30
0.0
 11
-3.47449803352356
 21
2.46519804000854
 31
0.0
  0
LINE
  5
   1EE
  8
0
  6
CONTINUOUS
 62
     7
 10
-3.08010387420654
 20
2.43532824516296
 30
0.0
 11
-3.47449803352356
 21
2.04093408584595
 31
0.0
  0
LINE
  5
   1EF
  8
0
  6
CONTINUOUS
 62
     7
 10
-2.97010922431946
 20
2.12105894088745
 30
0.0
 11
-3.47449803352356
 21
1.61667013168335
 31
0.0
  0
LINE
  5
   1F0
  8
0
  6
CONTINUOUS
 62
     7
 10
-2.86011457443237
 20
1.80678939819336
 30
0.0
 11
-3.25366044044495
 21
1.41324353218079
 31
0.0
  0
LINE
  5
   1F1
  8
0
  6
CONTINUOUS
 62
     7
 10
-2.75011992454529
 20
1.49252009391785
 30
0.0
 11
-2.82939648628235
 21
1.41324353218079
 31
0.0
  0
ENDBLK
  5
   1F2
  8
0
  6
CONTINUOUS
 62
     7
  0
BLOCK
  5
   1F3
  8
0
  6
CONTINUOUS
 62
     7
  2
*HATCH920
 70
    65
 10
0.0
 20
0.0
 30
0.0
  3
*HATCH920
  0
LINE
  5
   1F4
  8
0
  6
CONTINUOUS
 62
     7
 10
-2.00690746307373
 20
2.659996509552
 30
0.0
 11
-2.06149291992188
 21
2.60541105270386
 31
0.0
  0
LINE
  5
   1F5
  8
0
  6
CONTINUOUS
 62
     7
 10
-1.58264350891113
 20
2.659996509552
 30
0.0
 11
-2.06149291992188
 21
2.18114709854126
 31
0.0
  0
LINE
  5
   1F6
  8
0
  6
CONTINUOUS
 62
     7
 10
-1.34674525260925
 20
2.47163057327271
 30
0.0
 11
-2.06149291992188
 21
1.75688314437866
 31
0.0
  0
LINE
  5
   1F7
  8
0
  6
CONTINUOUS
 62
     7
 10
-1.34674525260925
 20
2.04736661911011
 30
0.0
 11
-1.98086845874786
 21
1.41324353218079
 31
0.0
  0
LINE
  5
   1F8
  8
0
  6
CONTINUOUS
 62
     7
 10
-1.34674525260925
 20
1.62310266494751
 30
0.0
 11
-1.55660438537598
 21
1.41324353218079
 31
0.0
  0
ENDBLK
  5
   1F9
  8
0
  6
CONTINUOUS
 62
     7
  0
BLOCK
  5
   1FA
  8
0
  6
CONTINUOUS
 62
     7
  2
*HATCH921
 70
    65
 10
0.0
 20
0.0
 30
0.0
  3
*HATCH921
  0
LINE
  5
   1FB
  8
0
  6
CONTINUOUS
 62
     7
 10
-1.72310221195221
 20
1.24674582481384
 30
0.0
 11
-2.06149291992188
 21
0.908355116844177
 31
0.0
  0
LINE
  5
   1FC
  8
0
  6
CONTINUOUS
 62
     7
 10
-1.34674525260925
 20
1.19883871078491
 30
0.0
 11
-2.06149291992188
 21
0.484091132879257
 31
0.0
  0
LINE
  5
   1FD
  8
0
  6
CONTINUOUS
 62
     7
 10
-1.34674525260925
 20
0.774574756622314
 30
0.0
 11
-2.06149291992188
 21
5.98271489143372E-2
 31
0.0
  0
LINE
  5
   1FE
  8
0
  6
CONTINUOUS
 62
     7
 10
-1.34674525260925
 20
0.350310742855072
 30
0.0
 11
-1.69705605506897
 21
6.53578086579266E-16
 31
0.0
  0
ENDBLK
  5
   1FF
  8
0
  6
CONTINUOUS
 62
     7
  0
BLOCK
  5
   200
  8
0
  6
CONTINUOUS
 62
     7
  2
*HATCH922
 70
    65
 10
0.0
 20
0.0
 30
0.0
  3
*HATCH922
  0
LINE
  5
   201
  8
0
  6
CONTINUOUS
 62
     7
 10
-1.15837943553925
 20
2.659996509552
 30
0.0
 11
-1.18024754524231
 21
2.63812851905823
 31
0.0
  0
LINE
  5
   202
  8
0
  6
CONTINUOUS
 62
     7
 10
-0.823453903198242
 20
2.57065796852112
 30
0.0
 11
-1.18024754524231
 21
2.21386456489563
 31
0.0
  0
LINE
  5
   203
  8
0
  6
CONTINUOUS
 62
     7
 10
-0.5418501496315
 20
2.42799782752991
 30
0.0
 11
-1.18024754524231
 21
1.78960049152374
 31
0.0
  0
LINE
  5
   204
  8
0
  6
CONTINUOUS
 62
     7
 10
-0.449764907360077
 20
2.09581899642944
 30
0.0
 11
-1.13234043121338
 21
1.41324353218079
 31
0.0
  0
LINE
  5
   205
  8
0
  6
CONTINUOUS
 62
     7
 10
-0.638074100017548
 20
1.48324584960938
 30
0.0
 11
-0.708076417446136
 21
1.41324353218079
 31
0.0
  0
ENDBLK
  5
   206
  8
0
  6
CONTINUOUS
 62
     7
  0
BLOCK
  5
   207
  8
0
  6
CONTINUOUS
 62
     7
  2
*HATCH923
 70
    65
 10
0.0
 20
0.0
 30
0.0
  3
*HATCH923
  0
LINE
  5
   208
  8
0
  6
CONTINUOUS
 62
     7
 10
-0.874574244022369
 20
1.24674582481384
 30
0.0
 11
-1.18024754524231
 21
0.941072523593903
 31
0.0
  0
LINE
  5
   209
  8
0
  6
CONTINUOUS
 62
     7
 10
-0.450310230255127
 20
1.24674582481384
 30
0.0
 11
-1.18024754524231
 21
0.51680850982666
 31
0.0
  0
LINE
  5
   20A
  8
0
  6
CONTINUOUS
 62
     7
 10
-0.281659334897995
 20
0.991132616996765
 30
0.0
 11
-1.18024754524231
 21
9.25445482134819E-2
 31
0.0
  0
LINE
  5
   20B
  8
0
  6
CONTINUOUS
 62
     7
 10
-0.263972669839859
 20
0.584555327892303
 30
0.0
 11
-0.764747977256775
 21
8.37800353765488E-2
 31
0.0
  0
ENDBLK
  5
   20C
  8
0
  6
CONTINUOUS
 62
     7
  0
BLOCK
  5
   20D
  8
0
  6
CONTINUOUS
 62
     7
  2
*HATCH924
 70
    65
 10
0.0
 20
0.0
 30
0.0
  3
*HATCH924
  0
LINE
  5
   20E
  8
0
  6
CONTINUOUS
 62
     7
 10
0.114412605762482
 20
2.659996509552
 30
0.0
 11
0.0
 21
2.54558396339417
 31
0.0
  0
LINE
  5
   20F
  8
0
  6
CONTINUOUS
 62
     7
 10
0.538676619529724
 20
2.659996509552
 30
0.0
 11
0.0
 21
2.12132000923157
 31
0.0
  0
LINE
  5
   210
  8
0
  6
CONTINUOUS
 62
     7
 10
0.714747607707977
 20
2.41180348396301
 30
0.0
 11
0.0
 21
1.69705593585968
 31
0.0
  0
LINE
  5
   211
  8
0
  6
CONTINUOUS
 62
     7
 10
0.714747607707977
 20
1.98753952980042
 30
0.0
 11
0.140451639890671
 21
1.41324353218079
 31
0.0
  0
LINE
  5
   212
  8
0
  6
CONTINUOUS
 62
     7
 10
0.714747607707977
 20
1.56327557563782
 30
0.0
 11
0.564715623855591
 21
1.41324353218079
 31
0.0
  0
ENDBLK
  5
   213
  8
0
  6
CONTINUOUS
 62
     7
  0
BLOCK
  5
   214
  8
0
  6
CONTINUOUS
 62
     7
  2
*HATCH925
 70
    65
 10
0.0
 20
0.0
 30
0.0
  3
*HATCH925
  0
LINE
  5
   215
  8
0
  6
CONTINUOUS
 62
     7
 10
0.962940633296967
 20
2.659996509552
 30
0.0
 11
0.88124543428421
 21
2.57830119132996
 31
0.0
  0
LINE
  5
   216
  8
0
  6
CONTINUOUS
 62
     7
 10
1.2789386510849
 20
2.55173063278198
 30
0.0
 11
0.88124543428421
 21
2.15403723716736
 31
0.0
  0
LINE
  5
   217
  8
0
  6
CONTINUOUS
 62
     7
 10
1.53262805938721
 20
2.3811559677124
 30
0.0
 11
0.88124543428421
 21
1.72977328300476
 31
0.0
  0
LINE
  5
   218
  8
0
  6
CONTINUOUS
 62
     7
 10
1.62471330165863
 20
2.04897713661194
 30
0.0
 11
0.988979697227478
 21
1.41324353218079
 31
0.0
  0
LINE
  5
   219
  8
0
  6
CONTINUOUS
 62
     7
 10
1.46331548690796
 20
1.46331536769867
 30
0.0
 11
1.41324365139008
 21
1.41324353218079
 31
0.0
  0
ENDBLK
  5
   21A
  8
0
  6
CONTINUOUS
 62
     7
  0
BLOCK
  5
   21B
  8
0
  6
CONTINUOUS
 62
     7
  2
*HATCH926
 70
    65
 10
0.0
 20
0.0
 30
0.0
  3
*HATCH926
  0
LINE
  5
   21C
  8
0
  6
CONTINUOUS
 62
     7
 10
0.39821782708168
 20
1.24674582481384
 30
0.0
 11
0.0
 21
0.84852796792984
 31
0.0
  0
LINE
  5
   21D
  8
0
  6
CONTINUOUS
 62
     7
 10
0.714747607707977
 20
1.13901150226593
 30
0.0
 11
0.0
 21
0.42426398396492
 31
0.0
  0
LINE
  5
   21E
  8
0
  6
CONTINUOUS
 62
     7
 10
0.714747607707977
 20
0.714747548103333
 30
0.0
 11
0.0
 21
0.0
 31
0.0
  0
LINE
  5
   21F
  8
0
  6
CONTINUOUS
 62
     7
 10
0.714747607707977
 20
0.290483593940735
 30
0.0
 11
0.424264013767242
 21
7.91553348000328E-16
 31
0.0
  0
ENDBLK
  5
   220
  8
0
  6
CONTINUOUS
 62
     7
  0
BLOCK
  5
   221
  8
0
  6
CONTINUOUS
 62
     7
  2
*HATCH927
 70
    65
 10
0.0
 20
0.0
 30
0.0
  3
*HATCH927
  0
LINE
  5
   222
  8
0
  6
CONTINUOUS
 62
     7
 10
1.24674582481384
 20
1.24674582481384
 30
0.0
 11
0.88124543428421
 21
0.881245374679565
 31
0.0
  0
LINE
  5
   223
  8
0
  6
CONTINUOUS
 62
     7
 10
1.67100977897644
 20
1.24674582481384
 30
0.0
 11
0.88124543428421
 21
0.456981390714645
 31
0.0
  0
LINE
  5
   224
  8
0
  6
CONTINUOUS
 62
     7
 10
1.79262113571167
 20
0.944092988967896
 30
0.0
 11
0.88124543428421
 21
3.27173843979836E-2
 31
0.0
  0
LINE
  5
   225
  8
0
  6
CONTINUOUS
 62
     7
 10
1.73607635498047
 20
0.463284254074097
 30
0.0
 11
1.39401113986969
 21
0.121219135820866
 31
0.0
  0
ENDBLK
  5
   226
  8
0
  6
CONTINUOUS
 62
     7
  0
BLOCK
  5
   227
  8
0
  6
CONTINUOUS
 62
     7
  2
$5ABB
 70
    64
 10
0.0
 20
0.0
 30
0.0
  3
$5ABB
  0
LINE
  5
   228
  8
0
  6
CONTINUOUS
 62
     7
 10
-4.39309755866065
 20
1.41324357986451
 30
0.0
 11
-3.95674135031761
 21
2.65999238488041
 31
0.0
  0
LINE
  5
   229
  8
0
  6
CONTINUOUS
 62
     7
 10
-4.88774871826172
 20
1.33351129624183E-15
 30
0.0
 11
-4.22274780273438
 21
1.33351129624183E-15
 31
0.0
  0
LINE
  5
   22A
  8
0
  6
CONTINUOUS
 62
     7
 10
-4.22274218828809
 20
-1.50231959361591E-6
 30
0.0
 11
-4.0365391926282
 21
0.531998110619613
 31
0.0
  0
LINE
  5
   22B
  8
0
  6
CONTINUOUS
 62
     7
 10
-4.03654479980469
 20
0.531999588012697
 30
0.0
 11
-3.64099578857422
 21
0.531999588012697
 31
0.0
  0
LINE
  5
   22C
  8
0
  6
CONTINUOUS
 62
     7
 10
-4.88774327593104
 20
-2.42794669125246E-6
 30
0.0
 11
-4.45137756989492
 21
1.24674577713013
 31
0.0
  0
LINE
  5
   22D
  8
0
  6
CONTINUOUS
 62
     7
 10
-2.66409674425225
 20
1.24674577713013
 30
0.0
 11
-2.22773097566292
 21
-2.60666856599645E-6
 31
0.0
  0
LINE
  5
   22E
  8
0
  6
CONTINUOUS
 62
     7
 10
-3.47449798583984
 20
0.531999588012697
 30
0.0
 11
-3.07894897460938
 21
0.531999588012697
 31
0.0
  0
LINE
  5
   22F
  8
0
  6
CONTINUOUS
 62
     7
 10
-3.07893739163377
 20
0.532000427880589
 30
0.0
 11
-2.89273439597387
 21
8.14941383042722E-7
 31
0.0
  0
LINE
  5
   230
  8
0
  6
CONTINUOUS
 62
     7
 10
-2.89274597167969
 20
1.33351129624183E-15
 30
0.0
 11
-2.22774505615234
 21
1.33351129624183E-15
 31
0.0
  0
LINE
  5
   231
  8
0
  6
CONTINUOUS
 62
     7
 10
-3.15873717506253
 20
2.65999387867798
 30
0.0
 11
-2.72237316510625
 21
1.4132435798645
 31
0.0
  0
LINE
  5
   232
  8
0
  6
CONTINUOUS
 62
     7
 10
-2.06149291992188
 20
1.33351129624183E-15
 30
0.0
 11
-1.34674530029297
 21
1.33351129624183E-15
 31
0.0
  0
LINE
  5
   233
  8
0
  6
CONTINUOUS
 62
     7
 10
-0.698249011125256
 20
1.51330638523267
 30
0.0
 11
-0.497944258065633
 21
1.4132435798645
 31
0.0
  0
LINE
  5
   234
  8
0
  6
CONTINUOUS
 62
     7
 10
-1.18024749755859
 20
1.33351129624183E-15
 30
0.0
 11
-0.982933044433594
 21
1.33351129624183E-15
 31
0.0
  0
LINE
  5
   235
  8
0
  6
CONTINUOUS
 62
     7
 10
-2.06149291992188
 20
0.0
 30
0.0
 11
-2.06149291992188
 21
1.24674577713013
 31
0.0
  0
LINE
  5
   236
  8
0
  6
CONTINUOUS
 62
     7
 10
-3.95674896240234
 20
2.659996509552
 30
0.0
 11
-3.64099578857422
 21
2.659996509552
 31
0.0
  0
LINE
  5
   237
  8
0
  6
CONTINUOUS
 62
     7
 10
-3.47449798583984
 20
2.659996509552
 30
0.0
 11
-3.15874481201172
 21
2.659996509552
 31
0.0
  0
LINE
  5
   238
  8
0
  6
CONTINUOUS
 62
     7
 10
-2.06149291992188
 20
2.659996509552
 30
0.0
 11
-1.34674530029297
 21
2.659996509552
 31
0.0
  0
LINE
  5
   239
  8
0
  6
CONTINUOUS
 62
     7
 10
-1.18024749755859
 20
2.659996509552
 30
0.0
 11
-1.01650238037109
 21
2.659996509552
 31
0.0
  0
LINE
  5
   23A
  8
0
  6
CONTINUOUS
 62
     7
 10
-3.47449798583984
 20
1.4132435798645
 30
0.0
 11
-3.47449798583984
 21
2.659996509552
 31
0.0
  0
LINE
  5
   23B
  8
0
  6
CONTINUOUS
 62
     7
 10
-3.47449798583984
 20
0.531999588012695
 30
0.0
 11
-3.47449798583984
 21
1.24674577713013
 31
0.0
  0
LINE
  5
   23C
  8
0
  6
CONTINUOUS
 62
     7
 10
-3.64099578857422
 20
1.4132435798645
 30
0.0
 11
-3.64099578857422
 21
2.659996509552
 31
0.0
  0
LINE
  5
   23D
  8
0
  6
CONTINUOUS
 62
     7
 10
-3.64099578857422
 20
0.531999588012695
 30
0.0
 11
-3.64099578857422
 21
1.24674577713013
 31
0.0
  0
LINE
  5
   23E
  8
0
  6
CONTINUOUS
 62
     7
 10
-4.39309755866065
 20
1.4132435798645
 30
0.0
 11
-3.64099578857422
 21
1.4132435798645
 31
0.0
  0
LINE
  5
   23F
  8
0
  6
CONTINUOUS
 62
     7
 10
-4.45137756989492
 20
1.24674577713013
 30
0.0
 11
-3.64099578857422
 21
1.24674577713013
 31
0.0
  0
LINE
  5
   240
  8
0
  6
CONTINUOUS
 62
     7
 10
-3.47449798583984
 20
1.24674577713013
 30
0.0
 11
-2.66409674425225
 21
1.24674577713013
 31
0.0
  0
LINE
  5
   241
  8
0
  6
CONTINUOUS
 62
     7
 10
-1.34674530029297
 20
1.4132435798645
 30
0.0
 11
-1.34674530029297
 21
2.659996509552
 31
0.0
  0
LINE
  5
   242
  8
0
  6
CONTINUOUS
 62
     7
 10
-2.06149291992188
 20
1.4132435798645
 30
0.0
 11
-1.34674530029297
 21
1.4132435798645
 31
0.0
  0
LINE
  5
   243
  8
0
  6
CONTINUOUS
 62
     7
 10
-1.18024749755859
 20
1.4132435798645
 30
0.0
 11
-1.18024749755859
 21
2.659996509552
 31
0.0
  0
LINE
  5
   244
  8
0
  6
CONTINUOUS
 62
     7
 10
-1.18024749755859
 20
1.4132435798645
 30
0.0
 11
-0.497944258065633
 21
1.4132435798645
 31
0.0
  0
LINE
  5
   245
  8
0
  6
CONTINUOUS
 62
     7
 10
-2.06149291992188
 20
1.24674577713013
 30
0.0
 11
-1.34674530029297
 21
1.24674577713013
 31
0.0
  0
LINE
  5
   246
  8
0
  6
CONTINUOUS
 62
     7
 10
-1.18024749755859
 20
1.24674577713013
 30
0.0
 11
-0.351146494976341
 21
1.24674577713013
 31
0.0
  0
LINE
  5
   247
  8
0
  6
CONTINUOUS
 62
     7
 10
-1.18024749755859
 20
0.0
 30
0.0
 11
-1.18024749755859
 21
1.24674577713013
 31
0.0
  0
LINE
  5
   248
  8
0
  6
CONTINUOUS
 62
     7
 10
-1.34674530029297
 20
0.0
 30
0.0
 11
-1.34674530029297
 21
1.24674577713013
 31
0.0
  0
ARC
  5
   249
  8
0
  6
CONTINUOUS
 62
     7
 10
-1.01636629288394
 20
2.0426469527994
 30
0.0
 40
0.617302755021266
 50
300.988438672012
 51
450.0
  0
ARC
  5
   24A
  8
0
  6
CONTINUOUS
 62
     7
 10
-0.983116632612569
 20
0.783417365308862
 30
0.0
 40
0.783619468916367
 50
270.01347311298
 51
396.246977192996
  0
LINE
  5
   24B
  8
0
  6
CONTINUOUS
 62
     7
 10
-2.06149291992188
 20
1.4132435798645
 30
0.0
 11
-2.06149291992188
 21
2.659996509552
 31
0.0
  0
LINE
  5
   24C
  8
0
  6
CONTINUOUS
 62
     7
 10
-3.47449798583984
 20
1.4132435798645
 30
0.0
 11
-2.72237316510625
 21
1.4132435798645
 31
0.0
  0
LINE
  5
   24D
  8
0
  6
CONTINUOUS
 62
     7
 10
0.0
 20
1.33351129624183E-15
 30
0.0
 11
0.714747619628906
 21
1.33351129624183E-15
 31
0.0
  0
LINE
  5
   24E
  8
0
  6
CONTINUOUS
 62
     7
 10
1.36324390879662
 20
1.51330638523267
 30
0.0
 11
1.56354866185624
 21
1.4132435798645
 31
0.0
  0
LINE
  5
   24F
  8
0
  6
CONTINUOUS
 62
     7
 10
0.881245422363281
 20
1.33351129624183E-15
 30
0.0
 11
1.07855987548828
 21
1.33351129624183E-15
 31
0.0
  0
LINE
  5
   250
  8
0
  6
CONTINUOUS
 62
     7
 10
0.0
 20
0.0
 30
0.0
 11
0.0
 21
1.24674577713013
 31
0.0
  0
LINE
  5
   251
  8
0
  6
CONTINUOUS
 62
     7
 10
0.0
 20
2.659996509552
 30
0.0
 11
0.714747619628906
 21
2.659996509552
 31
0.0
  0
LINE
  5
   252
  8
0
  6
CONTINUOUS
 62
     7
 10
0.881245422363281
 20
2.659996509552
 30
0.0
 11
1.04499053955078
 21
2.659996509552
 31
0.0
  0
LINE
  5
   253
  8
0
  6
CONTINUOUS
 62
     7
 10
0.714747619628906
 20
1.4132435798645
 30
0.0
 11
0.714747619628906
 21
2.659996509552
 31
0.0
  0
LINE
  5
   254
  8
0
  6
CONTINUOUS
 62
     7
 10
0.0
 20
1.4132435798645
 30
0.0
 11
0.714747619628906
 21
1.4132435798645
 31
0.0
  0
LINE
  5
   255
  8
0
  6
CONTINUOUS
 62
     7
 10
0.881245422363281
 20
1.4132435798645
 30
0.0
 11
0.881245422363281
 21
2.659996509552
 31
0.0
  0
LINE
  5
   256
  8
0
  6
CONTINUOUS
 62
     7
 10
0.881245422363281
 20
1.4132435798645
 30
0.0
 11
1.56354866185624
 21
1.4132435798645
 31
0.0
  0
LINE
  5
   257
  8
0
  6
CONTINUOUS
 62
     7
 10
0.0
 20
1.24674577713013
 30
0.0
 11
0.714747619628906
 21
1.24674577713013
 31
0.0
  0
LINE
  5
   258
  8
0
  6
CONTINUOUS
 62
     7
 10
0.881245422363281
 20
1.24674577713013
 30
0.0
 11
1.71034642494553
 21
1.24674577713013
 31
0.0
  0
LINE
  5
   259
  8
0
  6
CONTINUOUS
 62
     7
 10
0.881245422363281
 20
0.0
 30
0.0
 11
0.881245422363281
 21
1.24674577713013
 31
0.0
  0
LINE
  5
   25A
  8
0
  6
CONTINUOUS
 62
     7
 10
0.714747619628906
 20
0.0
 30
0.0
 11
0.714747619628906
 21
1.24674577713013
 31
0.0
  0
ARC
  5
   25B
  8
0
  6
CONTINUOUS
 62
     7
 10
1.04512662703793
 20
2.0426469527994
 30
0.0
 40
0.617302755021266
 50
300.988438672012
 51
450.0
  0
ARC
  5
   25C
  8
0
  6
CONTINUOUS
 62
     7
 10
1.07837628730931
 20
0.783417365308862
 30
0.0
 40
0.783619468916367
 50
270.01347311298
 51
396.246977192996
  0
LINE
  5
   25D
  8
0
  6
CONTINUOUS
 62
     7
 10
0.0
 20
1.4132435798645
 30
0.0
 11
0.0
 21
2.659996509552
 31
0.0
  0
INSERT
  5
   25E
  8
0
  6
CONTINUOUS
 62
     7
  2
*HATCH916
 10
0.0
 20
0.0
 30
0.0
  0
INSERT
  5
   25F
  8
0
  6
CONTINUOUS
 62
     7
  2
*HATCH917
 10
0.0
 20
0.0
 30
0.0
  0
INSERT
  5
   260
  8
0
  6
CONTINUOUS
 62
     7
  2
*HATCH918
 10
0.0
 20
0.0
 30
0.0
  0
INSERT
  5
   261
  8
0
  6
CONTINUOUS
 62
     7
  2
*HATCH919
 10
0.0
 20
0.0
 30
0.0
  0
INSERT
  5
   262
  8
0
  6
CONTINUOUS
 62
     7
  2
*HATCH920
 10
0.0
 20
0.0
 30
0.0
  0
INSERT
  5
   263
  8
0
  6
CONTINUOUS
 62
     7
  2
*HATCH921
 10
0.0
 20
0.0
 30
0.0
  0
INSERT
  5
   264
  8
0
  6
CONTINUOUS
 62
     7
  2
*HATCH922
 10
0.0
 20
0.0
 30
0.0
  0
INSERT
  5
   265
  8
0
  6
CONTINUOUS
 62
     7
  2
*HATCH923
 10
0.0
 20
0.0
 30
0.0
  0
INSERT
  5
   266
  8
0
  6
CONTINUOUS
 62
     7
  2
*HATCH924
 10
0.0
 20
0.0
 30
0.0
  0
INSERT
  5
   267
  8
0
  6
CONTINUOUS
 62
     7
  2
*HATCH925
 10
0.0
 20
0.0
 30
0.0
  0
INSERT
  5
   268
  8
0
  6
CONTINUOUS
 62
     7
  2
*HATCH926
 10
0.0
 20
0.0
 30
0.0
  0
INSERT
  5
   269
  8
0
  6
CONTINUOUS
 62
     7
  2
*HATCH927
 10
0.0
 20
0.0
 30
0.0
  0
ENDBLK
  5
   26A
  8
0
  6
CONTINUOUS
 62
     7
  0
BLOCK
  5
   26B
  8
0
  6
CONTINUOUS
 62
     7
  2
*UDIM1290
 70
    65
 10
0.0
 20
0.0
 30
0.0
  3
*UDIM1290
  0
TEXT
  5
   26C
  8
0
  6
CONTINUOUS
 62
     7
 10
-37.7680784037388
 20
27.5273952953662
 30
0.0
 40
3.5
  1
30
 41
0.933333333333333
 72
     1
 11
-34.8514117370721
 21
29.2773952953662
 31
0.0
 73
     2
  0
TEXT
  5
   26D
  8
0
  6
CONTINUOUS
 62
     7
 10
-29.8347450704054
 20
28.0523953162278
 30
0.0
 40
2.44999995827675
  1
±0.1
 41
0.933333333333333
 72
     1
 11
-25.5064118107832
 21
29.2773952953662
 31
0.0
 73
     2
  0
LINE
  5
   26E
  8
0
  6
CONTINUOUS
 62
     7
 10
-37.7680784037388
 20
26.5273952953662
 30
0.0
 11
2.10643697964014
 21
26.5273952953662
 31
0.0
  0
LINE
  5
   26F
  8
0
  6
CONTINUOUS
 62
     3
 10
-9.99578554702262
 20
27.3038524517847
 30
0.0
 11
-12.8935630202332
 21
26.5273952953662
 31
0.0
  0
LINE
  5
   270
  8
0
  6
CONTINUOUS
 62
     3
 10
-12.8935630202332
 20
26.5273952953662
 30
0.0
 11
-9.99578554702262
 21
25.7509381389476
 31
0.0
  0
LINE
  5
   271
  8
0
  6
CONTINUOUS
 62
     3
 10
-0.791340493570392
 20
25.7509381389477
 30
0.0
 11
2.10643697964014
 21
26.5273952953662
 31
0.0
  0
LINE
  5
   272
  8
0
  6
CONTINUOUS
 62
     3
 10
2.10643697964014
 20
26.5273952953662
 30
0.0
 11
-0.791340493570392
 21
27.3038524517847
 31
0.0
  0
ENDBLK
  5
   273
  8
0
  6
CONTINUOUS
 62
     7
  0
BLOCK
  5
   274
  8
0
  6
CONTINUOUS
 62
     7
  2
*UDIM1291
 70
    65
 10
0.0
 20
0.0
 30
0.0
  3
*UDIM1291
  0
TEXT
  5
   275
  8
0
  6
CONTINUOUS
 62
     7
 10
2.81146358639683
 20
29.2773952536429
 30
0.0
 40
3.5
  1
36
 41
0.933333333333333
 72
     1
 11
5.7281302530635
 21
31.0273952536429
 31
0.0
 73
     2
  0
TEXT
  5
   276
  8
0
  6
CONTINUOUS
 62
     7
 10
10.7447969197302
 20
32.0773952536429
 30
0.0
 40
2.44999995827675
  1
+0.2
 41
0.933333333333333
 72
     1
 11
15.0731301793524
 21
33.3023952327813
 31
0.0
 73
     2
  0
TEXT
  5
   277
  8
0
  6
CONTINUOUS
 62
     7
 10
10.7447969197302
 20
27.5273952953662
 30
0.0
 40
2.44999995827675
  1
 0
 41
0.933333333333333
 72
     1
 11
12.7864635516275
 21
28.7523952745046
 31
0.0
 73
     2
  0
LINE
  5
   278
  8
0
  6
CONTINUOUS
 62
     7
 10
2.10643697964014
 20
26.5273952953662
 30
0.0
 11
20.1064900457314
 21
26.5273952953662
 31
0.0
  0
LINE
  5
   279
  8
0
  6
CONTINUOUS
 62
     3
 10
-0.791340493570392
 20
25.7509381389476
 30
0.0
 11
2.10643697964014
 21
26.5273952953662
 31
0.0
  0
LINE
  5
   27A
  8
0
  6
CONTINUOUS
 62
     3
 10
2.10643697964014
 20
26.5273952953662
 30
0.0
 11
-0.791340493570392
 21
27.3038524517847
 31
0.0
  0
LINE
  5
   27B
  8
0
  6
CONTINUOUS
 62
     3
 10
23.0042675189419
 20
27.3038524517847
 30
0.0
 11
20.1064900457314
 21
26.5273952953662
 31
0.0
  0
LINE
  5
   27C
  8
0
  6
CONTINUOUS
 62
     3
 10
20.1064900457314
 20
26.5273952953662
 30
0.0
 11
23.0042675189419
 21
25.7509381389476
 31
0.0
  0
ENDBLK
  5
   27D
  8
0
  6
CONTINUOUS
 62
     7
  0
BLOCK
  5
   27E
  8
0
  6
CONTINUOUS
 62
     7
  2
*UDIM1292
 70
    65
 10
0.0
 20
0.0
 30
0.0
  3
*UDIM1292
  0
TEXT
  5
   27F
  8
0
  6
CONTINUOUS
 62
     7
 10
27.8649168043783
 20
27.5273952953662
 30
0.0
 40
3.5
  1
66
 41
0.933333333333333
 72
     1
 11
30.781583471045
 21
29.2773952953662
 31
0.0
 73
     2
  0
TEXT
  5
   280
  8
0
  6
CONTINUOUS
 62
     7
 10
35.7982501377117
 20
28.0523953162278
 30
0.0
 40
2.44999995827675
  1
±0.15
 41
0.933333333333333
 72
     1
 11
41.2699167111964
 21
29.2773952953662
 31
0.0
 73
     2
  0
LINE
  5
   281
  8
0
  6
CONTINUOUS
 62
     7
 10
20.1064900457314
 20
26.5273952953662
 30
0.0
 11
53.1064900457314
 21
26.5273952953662
 31
0.0
  0
LINE
  5
   282
  8
0
  6
CONTINUOUS
 62
     3
 10
23.0042675189419
 20
27.3038524517847
 30
0.0
 11
20.1064900457314
 21
26.5273952953662
 31
0.0
  0
LINE
  5
   283
  8
0
  6
CONTINUOUS
 62
     3
 10
20.1064900457314
 20
26.5273952953662
 30
0.0
 11
23.0042675189419
 21
25.7509381389476
 31
0.0
  0
LINE
  5
   284
  8
0
  6
CONTINUOUS
 62
     3
 10
50.2087125725209
 20
25.7509381389477
 30
0.0
 11
53.1064900457314
 21
26.5273952953662
 31
0.0
  0
LINE
  5
   285
  8
0
  6
CONTINUOUS
 62
     3
 10
53.1064900457314
 20
26.5273952953662
 30
0.0
 11
50.2087125725209
 21
27.3038524517847
 31
0.0
  0
ENDBLK
  5
   286
  8
0
  6
CONTINUOUS
 62
     7
  0
BLOCK
  5
   287
  8
0
  6
CONTINUOUS
 62
     7
  2
*UDIM1293
 70
    65
 10
0.0
 20
0.0
 30
0.0
  3
*UDIM1293
  0
TEXT
  5
   288
  8
0
  6
CONTINUOUS
 62
     7
 10
-40.9096937923924
 20
-22.7474554855902
 30
0.0
 40
3.5
  1
100
 50
90.0
 41
0.933333333333333
 72
     1
 11
-42.6596937923981
 21
-18.1974554855924
 31
0.0
 73
     2
  0
TEXT
  5
   289
  8
0
  6
CONTINUOUS
 62
     7
 10
-41.4346938132528
 20
-11.5474554855909
 30
0.0
 40
2.44999995827675
  1
±0.15
 50
90.0
 41
0.933333333333333
 72
     1
 11
-42.6596937923981
 21
-6.07578891210768
 31
0.0
 73
     2
  0
LINE
  5
   28A
  8
0
  6
CONTINUOUS
 62
     7
 10
-33.7512724799534
 20
-36.6757602691715
 30
0.0
 11
-41.9096937923981
 21
-36.6757602691715
 31
0.0
  0
LINE
  5
   28B
  8
0
  6
CONTINUOUS
 62
     7
 10
-31.4589654796373
 20
13.3241824449562
 30
0.0
 11
-41.9096937923981
 21
13.3241824449562
 31
0.0
  0
LINE
  5
   28C
  8
0
  6
CONTINUOUS
 62
     7
 10
-39.9096937923981
 20
-36.6757602691715
 30
0.0
 11
-39.9096937923981
 21
13.3241824449562
 31
0.0
  0
LINE
  5
   28D
  8
0
  6
CONTINUOUS
 62
     3
 10
-40.6861509488166
 20
-33.777982795961
 30
0.0
 11
-39.9096937923981
 21
-36.6757602691715
 31
0.0
  0
LINE
  5
   28E
  8
0
  6
CONTINUOUS
 62
     3
 10
-39.9096937923981
 20
-36.6757602691715
 30
0.0
 11
-39.1332366359795
 21
-33.777982795961
 31
0.0
  0
LINE
  5
   28F
  8
0
  6
CONTINUOUS
 62
     3
 10
-39.1332366359795
 20
10.4264049717456
 30
0.0
 11
-39.9096937923981
 21
13.3241824449562
 31
0.0
  0
LINE
  5
   290
  8
0
  6
CONTINUOUS
 62
     3
 10
-39.9096937923981
 20
13.3241824449562
 30
0.0
 11
-40.6861509488166
 21
10.4264049717456
 31
0.0
  0
ENDBLK
  5
   291
  8
0
  6
CONTINUOUS
 62
     7
  0
BLOCK
  5
   292
  8
0
  6
CONTINUOUS
 62
     7
  2
*UDIM1294
 70
    65
 10
0.0
 20
0.0
 30
0.0
  3
*UDIM1294
  0
TEXT
  5
   293
  8
0
  6
CONTINUOUS
 62
     7
 10
37.2283764226948
 20
-21.114087403927
 30
0.0
 40
3.5
  1
80
 50
90.0
 41
0.933333333333333
 72
     1
 11
35.4783764226911
 21
-18.1974207372626
 31
0.0
 73
     2
  0
TEXT
  5
   294
  8
0
  6
CONTINUOUS
 62
     7
 10
36.7033764018363
 20
-13.1807540705944
 30
0.0
 40
2.44999995827675
  1
±0.15
 50
90.0
 41
0.933333333333333
 72
     1
 11
35.4783764226911
 21
-7.70908749711116
 31
0.0
 73
     2
  0
LINE
  5
   295
  8
0
  6
CONTINUOUS
 62
     7
 10
38.2283764226911
 20
-31.6757541637778
 30
0.0
 11
38.2283764226911
 21
8.32424583622218
 31
0.0
  0
LINE
  5
   296
  8
0
  6
CONTINUOUS
 62
     3
 10
37.4519192662726
 20
-28.7779766905673
 30
0.0
 11
38.2283764226911
 21
-31.6757541637778
 31
0.0
  0
LINE
  5
   297
  8
0
  6
CONTINUOUS
 62
     3
 10
38.2283764226911
 20
-31.6757541637778
 30
0.0
 11
39.0048335791096
 21
-28.7779766905673
 31
0.0
  0
LINE
  5
   298
  8
0
  6
CONTINUOUS
 62
     3
 10
39.0048335791096
 20
5.42646836301165
 30
0.0
 11
38.2283764226911
 21
8.32424583622218
 31
0.0
  0
LINE
  5
   299
  8
0
  6
CONTINUOUS
 62
     3
 10
38.2283764226911
 20
8.32424583622218
 30
0.0
 11
37.4519192662726
 21
5.42646836301165
 31
0.0
  0
ENDBLK
  5
   29A
  8
0
  6
CONTINUOUS
 62
     7
  0
BLOCK
  5
   29B
  8
0
  6
CONTINUOUS
 62
     7
  2
*UDIM1295
 70
    65
 10
0.0
 20
0.0
 30
0.0
  3
*UDIM1295
  0
TEXT
  5
   29C
  8
0
  6
CONTINUOUS
 62
     7
 10
-13.3348141000252
 20
-46.7741186963296
 30
0.0
 40
3.5
  1
4.5
 50
36.291069662505
 41
0.933333333333333
 72
     1
 11
-10.7032238402798
 21
-42.6704943586479
 31
0.0
 73
     2
  0
TEXT
  5
   29D
  8
0
  6
CONTINUOUS
 62
     7
 10
-16.9619065564772
 20
-49.4376127008936
 30
0.0
 40
3.5
  1
Ø
 50
36.291069662505
 41
1.2
 72
     1
 11
-16.5871738251895
 21
-46.9912735216093
 31
0.0
 73
     2
  0
TEXT
  5
   29E
  8
0
  6
CONTINUOUS
 62
     7
 10
-25.1027140698446
 20
-55.4156770222523
 30
0.0
 40
3.5
  1
M4-
 50
36.291069662505
 41
0.933333333333333
 72
     1
 11
-22.4711238100992
 21
-51.3120526845707
 31
0.0
 73
     2
  0
LINE
  5
   29F
  8
0
  6
CONTINUOUS
 62
     7
 10
-24.5108265132767
 20
-56.221697568129
 30
0.0
 11
7.0433128231433
 21
-33.0504489851799
 31
0.0
  0
LINE
  5
   2A0
  8
0
  6
CONTINUOUS
 62
     3
 10
-0.676428986169149
 20
-39.6826326194826
 30
0.0
 11
1.1996638655272
 21
-37.3416337703129
 31
0.0
  0
LINE
  5
   2A1
  8
0
  6
CONTINUOUS
 62
     3
 10
1.1996638655272
 20
-37.3416337703129
 30
0.0
 11
-1.59557964435695
 21
-38.4309517773479
 31
0.0
  0
LINE
  5
   2A2
  8
0
  6
CONTINUOUS
 62
     3
 10
4.88930294544944
 20
-33.6688879188604
 30
0.0
 11
3.01321009375309
 21
-36.0098867680301
 31
0.0
  0
LINE
  5
   2A3
  8
0
  6
CONTINUOUS
 62
     3
 10
3.01321009375309
 20
-36.0098867680301
 30
0.0
 11
5.80845360363724
 21
-34.9205687609952
 31
0.0
  0
ENDBLK
  5
   2A4
  8
0
  6
CONTINUOUS
 62
     7
  0
BLOCK
  5
   2A5
  8
0
  6
CONTINUOUS
 62
     7
  2
*UDIM1296
 70
    65
 10
0.0
 20
0.0
 30
0.0
  3
*UDIM1296
  0
TEXT
  5
   2A6
  8
0
  6
CONTINUOUS
 62
     7
 10
-32.8522177889054
 20
-7.77113364721489
 30
0.0
 40
3.5
  1
62
 50
90.0
 41
0.933333333333333
 72
     1
 11
-34.6022177889091
 21
-4.85446698055042
 31
0.0
 73
     2
  0
LINE
  5
   2A7
  8
0
  6
CONTINUOUS
 62
     7
 10
-23.289374622113
 20
-17.6758175550438
 30
0.0
 11
-33.8522177889091
 21
-17.6758175550438
 31
0.0
  0
LINE
  5
   2A8
  8
0
  6
CONTINUOUS
 62
     7
 10
-31.4589654796373
 20
13.3241824449562
 30
0.0
 11
-33.8522177889091
 21
13.3241824449562
 31
0.0
  0
LINE
  5
   2A9
  8
0
  6
CONTINUOUS
 62
     7
 10
-31.8522177889091
 20
-17.6758175550438
 30
0.0
 11
-31.8522177889091
 21
13.3241824449562
 31
0.0
  0
LINE
  5
   2AA
  8
0
  6
CONTINUOUS
 62
     3
 10
-32.6286749453276
 20
-14.7780400818333
 30
0.0
 11
-31.8522177889091
 21
-17.6758175550438
 31
0.0
  0
LINE
  5
   2AB
  8
0
  6
CONTINUOUS
 62
     3
 10
-31.8522177889091
 20
-17.6758175550438
 30
0.0
 11
-31.0757606324905
 21
-14.7780400818333
 31
0.0
  0
LINE
  5
   2AC
  8
0
  6
CONTINUOUS
 62
     3
 10
-31.0757606324905
 20
10.4264049717456
 30
0.0
 11
-31.8522177889091
 21
13.3241824449562
 31
0.0
  0
LINE
  5
   2AD
  8
0
  6
CONTINUOUS
 62
     3
 10
-31.8522177889091
 20
13.3241824449562
 30
0.0
 11
-32.6286749453276
 21
10.4264049717456
 31
0.0
  0
ENDBLK
  5
   2AE
  8
0
  6
CONTINUOUS
 62
     7
  0
BLOCK
  5
   2AF
  8
0
  6
CONTINUOUS
 62
     7
  2
*UDIM1297
 70
    65
 10
0.0
 20
0.0
 30
0.0
  3
*UDIM1297
  0
TEXT
  5
   2B0
  8
0
  6
CONTINUOUS
 62
     7
 10
45.4430449276619
 20
-7.59245252607529
 30
0.0
 40
3.5
  1
52
 50
90.0
 41
0.933333333333333
 72
     1
 11
43.6930449276583
 21
-4.67578585941082
 31
0.0
 73
     2
  0
LINE
  5
   2B1
  8
0
  6
CONTINUOUS
 62
     7
 10
46.4430449276583
 20
-17.6758175550438
 30
0.0
 11
46.4430449276583
 21
8.32424583622218
 31
0.0
  0
LINE
  5
   2B2
  8
0
  6
CONTINUOUS
 62
     3
 10
45.6665877712397
 20
-14.7780400818333
 30
0.0
 11
46.4430449276583
 21
-17.6758175550438
 31
0.0
  0
LINE
  5
   2B3
  8
0
  6
CONTINUOUS
 62
     3
 10
46.4430449276583
 20
-17.6758175550438
 30
0.0
 11
47.2195020840768
 21
-14.7780400818333
 31
0.0
  0
LINE
  5
   2B4
  8
0
  6
CONTINUOUS
 62
     3
 10
47.2195020840768
 20
5.42646836301165
 30
0.0
 11
46.4430449276583
 21
8.32424583622218
 31
0.0
  0
LINE
  5
   2B5
  8
0
  6
CONTINUOUS
 62
     3
 10
46.4430449276583
 20
8.32424583622218
 30
0.0
 11
45.6665877712397
 21
5.42646836301165
 31
0.0
  0
ENDBLK
  5
   2B6
  8
0
  6
CONTINUOUS
 62
     7
  0
ENDSEC
  0
SECTION
  2
ENTITIES
  0
INSERT
  5
   2B7
  8
0
  6
CONTINUOUS
 62
     3
  2
*HATCH876
 10
228.583160400391
 20
180.02458190918
 30
0.0
  0
LINE
  5
   2B8
  8
0
  6
CONTINUOUS
 62
   130
 10
227.383128166199
 20
163.524555325625
 30
0.0
 11
228.583143234253
 21
163.524555325625
 31
0.0
  0
LINE
  5
   2B9
  8
0
  6
CONTINUOUS
 62
   130
 10
227.383128166199
 20
175.024555325625
 30
0.0
 11
228.583143234253
 21
175.024555325625
 31
0.0
  0
LINE
  5
   2BA
  8
0
  6
CONTINUOUS
 62
   130
 10
227.383128166199
 20
63.0245667697163
 30
0.0
 11
228.583143234253
 21
63.0245667697163
 31
0.0
  0
LINE
  5
   2BB
  8
0
  6
CONTINUOUS
 62
   130
 10
227.383128166199
 20
153.224477450526
 30
0.0
 11
227.383128166199
 21
175.024555325625
 31
0.0
  0
LINE
  5
   2BC
  8
0
  6
CONTINUOUS
 62
   130
 10
227.383128166199
 20
63.0245705844136
 30
0.0
 11
227.383128166199
 21
83.5245858432027
 31
0.0
  0
LINE
  5
   2BD
  8
0
  6
CONTINUOUS
 62
   130
 10
228.583143234253
 20
63.0245667697163
 30
0.0
 11
228.583143234253
 21
175.024551510927
 31
0.0
  0
LINE
  5
   2BE
  8
0
  6
CONTINUOUS
 62
   130
 10
226.18311252594
 20
152.224537015078
 30
0.0
 11
226.383128166199
 21
152.224537015078
 31
0.0
  0
LINE
  5
   2BF
  8
0
  6
CONTINUOUS
 62
   130
 10
226.18311252594
 20
151.024555325625
 30
0.0
 11
226.383127975464
 21
151.024555325625
 31
0.0
  0
LINE
  5
   2C0
  8
0
  6
CONTINUOUS
 62
   130
 10
220.583128929138
 20
151.024555325625
 30
0.0
 11
220.583128929138
 21
152.224537015078
 31
0.0
  0
LINE
  5
   2C1
  8
0
  6
CONTINUOUS
 62
   130
 10
220.583128929138
 20
129.824558377382
 30
0.0
 11
220.583128929138
 21
131.024555325625
 31
0.0
  0
LINE
  5
   2C2
  8
0
  6
CONTINUOUS
 62
   130
 10
220.583128929138
 20
87.0245553256245
 30
0.0
 11
220.583128929138
 21
92.0245553256245
 31
0.0
  0
LINE
  5
   2C3
  8
0
  6
CONTINUOUS
 62
   130
 10
220.583128929138
 20
92.0245553256245
 30
0.0
 11
223.913270950317
 21
92.0245553256245
 31
0.0
  0
LINE
  5
   2C4
  8
0
  6
CONTINUOUS
 62
   130
 10
223.913241508207
 20
92.024553043251
 30
0.0
 11
224.583114045952
 21
89.5245555616811
 31
0.0
  0
LINE
  5
   2C5
  8
0
  6
CONTINUOUS
 62
   130
 10
224.583128929138
 20
89.5245553256245
 30
0.0
 11
225.583128929138
 21
89.5245553256245
 31
0.0
  0
LINE
  5
   2C6
  8
0
  6
CONTINUOUS
 62
   130
 10
225.583128929138
 20
89.5245553256245
 30
0.0
 11
225.583128929138
 21
125.024555325625
 31
0.0
  0
LINE
  5
   2C7
  8
0
  6
CONTINUOUS
 62
   130
 10
224.583128929138
 20
125.024555325625
 30
0.0
 11
225.583128929138
 21
125.024555325625
 31
0.0
  0
LINE
  5
   2C8
  8
0
  6
CONTINUOUS
 62
   130
 10
220.583113332744
 20
126.096371755852
 30
0.0
 11
223.573744769539
 21
125.295026337612
 31
0.0
  0
LINE
  5
   2C9
  8
0
  6
CONTINUOUS
 62
   130
 10
220.583128929138
 20
126.096363186953
 30
0.0
 11
220.583128929138
 21
128.024555325625
 31
0.0
  0
LINE
  5
   2CA
  8
0
  6
DOT
 62
   130
 10
227.383128166199
 20
131.524555325625
 30
0.0
 11
228.315194070339
 21
131.524555325625
 31
0.0
  0
LINE
  5
   2CB
  8
0
  6
CONTINUOUS
 62
   130
 10
224.083143234253
 20
83.524565816042
 30
0.0
 11
228.583143234253
 21
83.524565816042
 31
0.0
  0
LINE
  5
   2CC
  8
0
  6
CONTINUOUS
 62
   130
 10
224.983158493042
 20
179.524555325625
 30
0.0
 11
226.18311252594
 21
179.524555325625
 31
0.0
  0
LINE
  5
   2CD
  8
0
  6
CONTINUOUS
 62
   130
 10
226.18311252594
 20
124.2030221225
 30
0.0
 11
226.18311252594
 21
125.024540066835
 31
0.0
  0
LINE
  5
   2CE
  8
0
  6
CONTINUOUS
 62
   130
 10
226.18311252594
 20
125.024555325625
 30
0.0
 11
226.18311252594
 21
151.024524808046
 31
0.0
  0
LINE
  5
   2CF
  8
0
  6
CONTINUOUS
 62
   130
 10
226.18311252594
 20
151.024555325625
 30
0.0
 11
226.18311252594
 21
179.524555325625
 31
0.0
  0
LINE
  5
   2D0
  8
0
  6
CONTINUOUS
 62
   130
 10
224.022411884625
 20
120.460452296549
 30
0.0
 11
226.183181988078
 21
124.203022492233
 31
0.0
  0
LINE
  5
   2D1
  8
0
  6
CONTINUOUS
 62
   130
 10
222.983141329223
 20
121.060433397887
 30
0.0
 11
224.022332238615
 21
120.460450111332
 31
0.0
  0
LINE
  5
   2D2
  8
0
  6
CONTINUOUS
 62
   130
 10
222.983128615905
 20
121.060444592218
 30
0.0
 11
224.983128565597
 21
124.52454049801
 31
0.0
  0
LINE
  5
   2D3
  8
0
  6
CONTINUOUS
 62
   130
 10
224.983158493042
 20
151.024555325625
 30
0.0
 11
224.983158493042
 21
179.524555325625
 31
0.0
  0
LINE
  5
   2D4
  8
0
  6
CONTINUOUS
 62
   130
 10
224.983158493042
 20
134.59562313749
 30
0.0
 11
224.983158493042
 21
151.024555325625
 31
0.0
  0
LINE
  5
   2D5
  8
0
  6
CONTINUOUS
 62
   130
 10
224.983158493042
 20
124.524555325625
 30
0.0
 11
224.983158493042
 21
125.319339871523
 31
0.0
  0
LINE
  5
   2D6
  8
0
  6
CONTINUOUS
 62
   130
 10
226.183113098145
 20
66.5245667697163
 30
0.0
 11
226.383128166199
 21
66.5245667697163
 31
0.0
  0
LINE
  5
   2D7
  8
0
  6
CONTINUOUS
 62
   130
 10
226.183113098145
 20
71.524565816042
 30
0.0
 11
226.383128166199
 21
71.524565816042
 31
0.0
  0
ARC
  5
   2D8
  8
0
  6
CONTINUOUS
 62
   130
 10
224.083080016967
 20
128.024563009373
 30
0.0
 40
3.49996037873244
 50
149.049876462408
 51
179.999945358486
  0
LINE
  5
   2D9
  8
0
  6
CONTINUOUS
 62
   130
 10
224.883127975464
 20
151.024555325625
 30
0.0
 11
224.883127975464
 21
152.224537015078
 31
0.0
  0
LINE
  5
   2DA
  8
0
  6
CONTINUOUS
 62
   130
 10
224.883127975464
 20
129.824558377382
 30
0.0
 11
224.883127975464
 21
131.024555325625
 31
0.0
  0
LINE
  5
   2DB
  8
0
  6
CONTINUOUS
 62
   130
 10
226.283143043518
 20
151.024555325625
 30
0.0
 11
226.283143043518
 21
152.224537015078
 31
0.0
  0
LINE
  5
   2DC
  8
0
  6
CONTINUOUS
 62
   130
 10
226.283143043518
 20
129.824558377382
 30
0.0
 11
226.283143043518
 21
131.024555325625
 31
0.0
  0
LINE
  5
   2DD
  8
0
  6
CONTINUOUS
 62
   130
 10
220.583129882813
 20
152.224537015078
 30
0.0
 11
224.883127975464
 21
152.224537015078
 31
0.0
  0
LINE
  5
   2DE
  8
0
  6
CONTINUOUS
 62
   130
 10
220.583129882813
 20
151.024555325625
 30
0.0
 11
224.883127975464
 21
151.024555325625
 31
0.0
  0
LINE
  5
   2DF
  8
0
  6
CONTINUOUS
 62
   130
 10
220.583128929138
 20
131.024555325625
 30
0.0
 11
224.883127975464
 21
131.024555325625
 31
0.0
  0
LINE
  5
   2E0
  8
0
  6
CONTINUOUS
 62
   130
 10
220.583128929138
 20
129.824558377382
 30
0.0
 11
224.883127975464
 21
129.824558377382
 31
0.0
  0
LINE
  5
   2E1
  8
0
  6
CONTINUOUS
 62
   130
 10
224.507401694036
 20
131.194254479353
 30
0.0
 11
224.973107526628
 21
134.454195307497
 31
0.0
  0
LINE
  5
   2E2
  8
0
  6
CONTINUOUS
 62
   130
 10
225.695341086429
 20
131.024548851868
 30
0.0
 11
226.173107335893
 21
134.368912598114
 31
0.0
  0
LINE
  5
   2E3
  8
0
  6
CONTINUOUS
 62
   130
 10
224.507401694036
 20
131.194254479353
 30
0.0
 11
225.695341086429
 21
131.024548851869
 31
0.0
  0
ARC
  5
   2E4
  8
0
  6
CONTINUOUS
 62
   130
 10
223.983158493042
 20
134.59562313749
 30
0.0
 40
1.0
 50
351.869897645844
 51
360.0
  0
ARC
  5
   2E5
  8
0
  6
CONTINUOUS
 62
   130
 10
225.18311252594
 20
134.510340428107
 30
0.0
 40
1.0
 50
351.869897645844
 51
360.0
  0
LINE
  5
   2E6
  8
0
  6
CONTINUOUS
 62
   130
 10
226.18311252594
 20
131.024555325625
 30
0.0
 11
226.383127975464
 21
131.024555325625
 31
0.0
  0
LINE
  5
   2E7
  8
0
  6
CONTINUOUS
 62
   130
 10
226.18311252594
 20
129.824558377382
 30
0.0
 11
226.383128166199
 21
129.824558377382
 31
0.0
  0
LINE
  5
   2E8
  8
0
  6
DOT
 62
   130
 10
224.983158493042
 20
131.126295761833
 30
0.0
 11
224.983158493042
 21
134.59562313749
 31
0.0
  0
LINE
  5
   2E9
  8
0
  6
CONTINUOUS
 62
   130
 10
224.983158493042
 20
125.319311154637
 30
0.0
 11
224.983158493042
 21
131.126295761833
 31
0.0
  0
LINE
  5
   2EA
  8
0
  6
CONTINUOUS
 62
   130
 10
224.983158493042
 20
177.524555325625
 30
0.0
 11
226.18311252594
 21
177.524555325625
 31
0.0
  0
LINE
  5
   2EB
  8
0
  6
CONTINUOUS
 62
   130
 10
224.983158493042
 20
159.524555325625
 30
0.0
 11
226.18311252594
 21
159.524555325625
 31
0.0
  0
LINE
  5
   2EC
  8
0
  6
CONTINUOUS
 62
   130
 10
224.983158493042
 20
144.024555325625
 30
0.0
 11
226.18311252594
 21
144.024555325625
 31
0.0
  0
LINE
  5
   2ED
  8
0
  6
CONTINUOUS
 62
   130
 10
224.983158493042
 20
137.024555325625
 30
0.0
 11
226.18311252594
 21
137.024555325625
 31
0.0
  0
LINE
  5
   2EE
  8
0
  6
CONTINUOUS
 62
   130
 10
224.983158493042
 20
129.524558377382
 30
0.0
 11
226.18311252594
 21
129.524558377382
 31
0.0
  0
INSERT
  5
   2EF
  8
0
  6
CONTINUOUS
 62
     7
  2
*HATCH877
 10
228.583160400391
 20
180.02458190918
 30
0.0
  0
INSERT
  5
   2F0
  8
0
  6
CONTINUOUS
 62
     7
  2
*HATCH878
 10
228.583160400391
 20
180.02458190918
 30
0.0
  0
INSERT
  5
   2F1
  8
0
  6
CONTINUOUS
 62
     7
  2
*HATCH879
 10
228.583160400391
 20
180.02458190918
 30
0.0
  0
INSERT
  5
   2F2
  8
0
  6
CONTINUOUS
 62
     7
  2
*HATCH880
 10
228.583160400391
 20
180.02458190918
 30
0.0
  0
ARC
  5
   2F3
  8
0
  6
CONTINUOUS
 62
   130
 10
226.383128166199
 20
128.824558377382
 30
0.0
 40
1.0
 50
4.73805202541488E-14
 51
90.0
  0
ARC
  5
   2F4
  8
0
  6
CONTINUOUS
 62
   130
 10
226.383127975464
 20
128.824555325625
 30
0.0
 40
2.19999904632568
 50
4.73805202541488E-14
 51
90.0
  0
LINE
  5
   2F5
  8
0
  6
CONTINUOUS
 62
   130
 10
226.18311252594
 20
131.524555325625
 30
0.0
 11
227.383128166199
 21
131.524555325625
 31
0.0
  0
ARC
  5
   2F6
  8
0
  6
CONTINUOUS
 62
   130
 10
224.083080016967
 20
128.024563009373
 30
0.0
 40
3.49996037873244
 50
107.486019218245
 51
121.001855307785
  0
ARC
  5
   2F7
  8
0
  6
DOT
 62
   130
 10
224.083080016967
 20
128.024563009373
 30
0.0
 40
3.49996037873244
 50
121.001855307785
 51
149.049876462408
  0
ARC
  5
   2F8
  8
0
  6
CONTINUOUS
 62
   130
 10
224.083080016967
 20
128.024563009373
 30
0.0
 40
3.49996037873244
 50
90.0
 51
107.486019218245
  0
LINE
  5
   2F9
  8
0
  6
CONTINUOUS
 62
   130
 10
224.083130776882
 20
131.524555325625
 30
0.0
 11
224.554571805682
 21
131.524555325625
 31
0.0
  0
LINE
  5
   2FA
  8
0
  6
CONTINUOUS
 62
   130
 10
223.573744769539
 20
125.295026337612
 30
0.0
 11
224.583114866068
 21
125.024563688083
 31
0.0
  0
ARC
  5
   2FB
  8
0
  6
CONTINUOUS
 62
   130
 10
224.083074433929
 20
87.0245372031031
 30
0.0
 40
3.49994520846391
 50
180.000159781254
 51
270.000829632805
  0
ARC
  5
   2FC
  8
0
  6
CONTINUOUS
 62
   130
 10
226.383127975464
 20
153.224540066835
 30
0.0
 40
2.19999904632568
 50
270.0
 51
360.0
  0
LINE
  5
   2FD
  8
0
  6
DOT
 62
   130
 10
227.383128166199
 20
128.824558377382
 30
0.0
 11
227.383128166199
 21
130.784147022517
 31
0.0
  0
LINE
  5
   2FE
  8
0
  6
CONTINUOUS
 62
   130
 10
227.383128166199
 20
107.625673338078
 30
0.0
 11
227.383128166199
 21
128.824558377382
 31
0.0
  0
LINE
  5
   2FF
  8
0
  6
CONTINUOUS
 62
   130
 10
227.383128166199
 20
130.784147022517
 30
0.0
 11
227.383128166199
 21
151.264963628732
 31
0.0
  0
LINE
  5
   300
  8
0
  6
DOT
 62
   130
 10
227.383128166199
 20
151.264963628732
 30
0.0
 11
227.383128166199
 21
153.224477450526
 31
0.0
  0
LINE
  5
   301
  8
0
  6
CONTINUOUS
 62
   130
 10
227.383128166199
 20
74.5245667697163
 30
0.0
 11
228.583143234253
 21
74.5245667697163
 31
0.0
  0
ARC
  5
   302
  8
0
  6
CONTINUOUS
 62
   130
 10
226.383127717029
 20
153.224564848668
 30
0.0
 40
1.00003107655773
 50
270.000702922647
 51
359.997118426408
  0
ARC
  5
   303
  8
0
  6
CONTINUOUS
 62
   130
 10
226.383128118587
 20
72.5245646723263
 30
0.0
 40
0.999999854264095
 50
270.000056857099
 51
359.999980768838
  0
ARC
  5
   304
  8
0
  6
CONTINUOUS
 62
   130
 10
226.383129276109
 20
65.5245683234924
 30
0.0
 40
0.999999781581745
 50
359.999963924677
 51
449.999994772631
  0
LINE
  5
   305
  8
0
  6
DASHDOT
 62
   130
 10
224.871654238956
 20
69.0245667697163
 30
0.0
 11
229.835270403095
 21
69.0245667697163
 31
0.0
  0
LINE
  5
   306
  8
0
  6
DOT
 62
   130
 10
226.183113098145
 20
70.5245667697163
 30
0.0
 11
228.583143234253
 21
70.5245667697163
 31
0.0
  0
LINE
  5
   307
  8
0
  6
DOT
 62
   130
 10
226.183113098145
 20
67.5245667697163
 30
0.0
 11
228.583143234253
 21
67.5245667697163
 31
0.0
  0
LINE
  5
   308
  8
0
  6
DOT
 62
   130
 10
226.183113098145
 20
71.0245667697163
 30
0.0
 11
228.583143234253
 21
71.0245667697163
 31
0.0
  0
LINE
  5
   309
  8
0
  6
DOT
 62
   130
 10
226.183113098145
 20
67.0245667697163
 30
0.0
 11
228.583143234253
 21
67.0245667697163
 31
0.0
  0
LINE
  5
   30A
  8
0
  6
CONTINUOUS
 62
   130
 10
226.183113098145
 20
66.5245667697163
 30
0.0
 11
226.183113098145
 21
71.524565816042
 31
0.0
  0
ARC
  5
   30B
  8
0
  6
CONTINUOUS
 62
   130
 10
226.383129276109
 20
172.524549957151
 30
0.0
 40
0.999999781581745
 50
270.000005227369
 51
360.000036075322
  0
LINE
  5
   30C
  8
0
  6
CONTINUOUS
 62
   130
 10
226.183113098145
 20
171.524551510927
 30
0.0
 11
226.383128166199
 21
171.524551510927
 31
0.0
  0
LINE
  5
   30D
  8
0
  6
CONTINUOUS
 62
   130
 10
226.183113098145
 20
166.524552464602
 30
0.0
 11
226.183113098145
 21
171.524551510927
 31
0.0
  0
LINE
  5
   30E
  8
0
  6
CONTINUOUS
 62
   130
 10
226.183113098145
 20
166.524552464602
 30
0.0
 11
226.383128166199
 21
166.524552464602
 31
0.0
  0
ARC
  5
   30F
  8
0
  6
CONTINUOUS
 62
   130
 10
226.383128118587
 20
165.524553608317
 30
0.0
 40
0.999999854264095
 50
1.92311620988667E-5
 51
89.9998885013881
  0
LINE
  5
   310
  8
0
  6
DOT
 62
   130
 10
226.183113098145
 20
167.024551510927
 30
0.0
 11
228.583143234253
 21
167.024551510927
 31
0.0
  0
LINE
  5
   311
  8
0
  6
DOT
 62
   130
 10
226.183113098145
 20
167.524551510927
 30
0.0
 11
228.583143234253
 21
167.524551510927
 31
0.0
  0
LINE
  5
   312
  8
0
  6
DASHDOT
 62
   130
 10
224.871654238956
 20
169.024551510927
 30
0.0
 11
229.835270403095
 21
169.024551510927
 31
0.0
  0
LINE
  5
   313
  8
0
  6
DOT
 62
   130
 10
226.183113098145
 20
170.524551510927
 30
0.0
 11
228.583143234253
 21
170.524551510927
 31
0.0
  0
LINE
  5
   314
  8
0
  6
DOT
 62
   130
 10
226.183113098145
 20
171.024551510927
 30
0.0
 11
228.583143234253
 21
171.024551510927
 31
0.0
  0
LINE
  5
   315
  8
0
  6
CONTINUOUS
 62
   130
 10
226.18311252594
 20
135.524555325625
 30
0.0
 11
227.903688777305
 21
135.524555325625
 31
0.0
  0
LINE
  5
   316
  8
0
  6
DASHDOT
 62
   130
 10
223.333143138886
 20
133.458933834678
 30
0.0
 11
223.333143138886
 21
153.624467578296
 31
0.0
  0
LINE
  5
   317
  8
0
  6
DASHDOT
 62
   130
 10
227.833143138885
 20
133.944389490892
 30
0.0
 11
227.833143138885
 21
153.750965005672
 31
0.0
  0
CIRCLE
  5
   318
  8
0
  6
CONTINUOUS
 62
   130
 10
223.333143138886
 20
136.718285325625
 30
0.0
 40
0.39999988079071
  0
CIRCLE
  5
   319
  8
0
  6
CONTINUOUS
 62
   130
 10
223.333143138886
 20
138.318285325625
 30
0.0
 40
0.39999988079071
  0
CIRCLE
  5
   31A
  8
0
  6
CONTINUOUS
 62
   130
 10
223.333143138886
 20
139.918285325625
 30
0.0
 40
0.39999988079071
  0
CIRCLE
  5
   31B
  8
0
  6
CONTINUOUS
 62
   130
 10
223.333143138886
 20
141.518270066835
 30
0.0
 40
0.39999988079071
  0
CIRCLE
  5
   31C
  8
0
  6
CONTINUOUS
 62
   130
 10
223.333143138886
 20
143.118270066835
 30
0.0
 40
0.39999988079071
  0
CIRCLE
  5
   31D
  8
0
  6
CONTINUOUS
 62
   130
 10
223.333143138886
 20
144.718285325625
 30
0.0
 40
0.39999988079071
  0
CIRCLE
  5
   31E
  8
0
  6
CONTINUOUS
 62
   130
 10
223.333143138886
 20
146.318285325625
 30
0.0
 40
0.39999988079071
  0
CIRCLE
  5
   31F
  8
0
  6
CONTINUOUS
 62
   130
 10
223.333143138886
 20
147.918285325625
 30
0.0
 40
0.39999988079071
  0
CIRCLE
  5
   320
  8
0
  6
CONTINUOUS
 62
   130
 10
223.333143138886
 20
149.518270066835
 30
0.0
 40
0.39999988079071
  0
ARC
  5
   321
  8
0
  6
CONTINUOUS
 62
   130
 10
223.333143138886
 20
151.118270066835
 30
0.0
 40
0.39999988079071
 50
193.551673260582
 51
269.999945358487
  0
CIRCLE
  5
   322
  8
0
  6
CONTINUOUS
 62
   130
 10
227.833143138885
 20
137.518270066836
 30
0.0
 40
0.39999988079071
  0
ARC
  5
   323
  8
0
  6
CONTINUOUS
 62
   130
 10
227.833143138885
 20
135.918285325625
 30
0.0
 40
0.39999988079071
 50
280.158049843883
 51
619.841895514604
  0
CIRCLE
  5
   324
  8
0
  6
CONTINUOUS
 62
   130
 10
227.833143138885
 20
139.118270066835
 30
0.0
 40
0.39999988079071
  0
CIRCLE
  5
   325
  8
0
  6
CONTINUOUS
 62
   130
 10
227.833143138885
 20
140.718285325625
 30
0.0
 40
0.39999988079071
  0
CIRCLE
  5
   326
  8
0
  6
CONTINUOUS
 62
   130
 10
227.833143138885
 20
142.318285325625
 30
0.0
 40
0.39999988079071
  0
CIRCLE
  5
   327
  8
0
  6
CONTINUOUS
 62
   130
 10
227.833143138885
 20
143.918285325625
 30
0.0
 40
0.39999988079071
  0
CIRCLE
  5
   328
  8
0
  6
CONTINUOUS
 62
   130
 10
227.833143138885
 20
145.518270066835
 30
0.0
 40
0.39999988079071
  0
CIRCLE
  5
   329
  8
0
  6
CONTINUOUS
 62
   130
 10
227.833143138885
 20
147.118270066835
 30
0.0
 40
0.39999988079071
  0
LINE
  5
   32A
  8
0
  6
CONTINUOUS
 62
   130
 10
226.183130219969
 20
136.03121144093
 30
0.0
 11
227.763147027912
 21
136.312103317897
 31
0.0
  0
LINE
  5
   32B
  8
0
  6
CONTINUOUS
 62
   130
 10
226.183115196737
 20
136.818665134078
 30
0.0
 11
227.903158672455
 21
137.124450640872
 31
0.0
  0
LINE
  5
   32C
  8
0
  6
CONTINUOUS
 62
   130
 10
226.183157595635
 20
137.631231805755
 30
0.0
 11
227.763129333884
 21
137.912115670332
 31
0.0
  0
LINE
  5
   32D
  8
0
  6
CONTINUOUS
 62
   130
 10
226.183142572403
 20
138.418685498903
 30
0.0
 11
227.903125955195
 21
138.72446032251
 31
0.0
  0
LINE
  5
   32E
  8
0
  6
CONTINUOUS
 62
   130
 10
226.1831452432
 20
139.231214111726
 30
0.0
 11
227.763101958217
 21
139.512095305507
 31
0.0
  0
LINE
  5
   32F
  8
0
  6
CONTINUOUS
 62
   130
 10
226.183130219969
 20
140.018667804874
 30
0.0
 11
227.903158672455
 21
140.324450640872
 31
0.0
  0
LINE
  5
   330
  8
0
  6
CONTINUOUS
 62
   130
 10
226.183115196737
 20
140.831208770133
 30
0.0
 11
227.763132004681
 21
141.112100647101
 31
0.0
  0
LINE
  5
   331
  8
0
  6
CONTINUOUS
 62
   130
 10
226.183157595635
 20
141.6186881697
 30
0.0
 11
227.903140978426
 21
141.924462993307
 31
0.0
  0
LINE
  5
   332
  8
0
  6
CONTINUOUS
 62
   130
 10
226.183142572403
 20
142.431229134958
 30
0.0
 11
227.763114310652
 21
142.712112999536
 31
0.0
  0
LINE
  5
   333
  8
0
  6
CONTINUOUS
 62
   130
 10
226.183142572403
 20
143.218685498903
 30
0.0
 11
227.90317102489
 21
143.5244683349
 31
0.0
  0
LINE
  5
   334
  8
0
  6
CONTINUOUS
 62
   130
 10
226.183130219969
 20
144.03121144093
 30
0.0
 11
227.763147027912
 21
144.312103317897
 31
0.0
  0
LINE
  5
   335
  8
0
  6
CONTINUOUS
 62
   130
 10
226.183115196737
 20
144.818665134078
 30
0.0
 11
227.903158672455
 21
145.124450640872
 31
0.0
  0
LINE
  5
   336
  8
0
  6
CONTINUOUS
 62
   130
 10
226.183157595635
 20
145.631231805755
 30
0.0
 11
227.763129333884
 21
145.912115670332
 31
0.0
  0
LINE
  5
   337
  8
0
  6
CONTINUOUS
 62
   130
 10
226.183142572403
 20
146.418685498903
 30
0.0
 11
227.903125955195
 21
146.72446032251
 31
0.0
  0
LINE
  5
   338
  8
0
  6
CONTINUOUS
 62
   130
 10
226.1831452432
 20
147.231214111726
 30
0.0
 11
227.763101958217
 21
147.512095305507
 31
0.0
  0
LINE
  5
   339
  8
0
  6
CONTINUOUS
 62
   130
 10
226.183130219969
 20
148.018667804874
 30
0.0
 11
227.903173695686
 21
148.324453311669
 31
0.0
  0
LINE
  5
   33A
  8
0
  6
CONTINUOUS
 62
   130
 10
226.18311252594
 20
148.831223793365
 30
0.0
 11
227.763144357115
 21
149.112118341129
 31
0.0
  0
LINE
  5
   33B
  8
0
  6
CONTINUOUS
 62
   130
 10
226.183157595635
 20
149.6186881697
 30
0.0
 11
227.903140978426
 21
149.924462993307
 31
0.0
  0
LINE
  5
   33C
  8
0
  6
CONTINUOUS
 62
   130
 10
226.183160266432
 20
150.431216782523
 30
0.0
 11
227.763116981449
 21
150.712097976304
 31
0.0
  0
LINE
  5
   33D
  8
0
  6
CONTINUOUS
 62
   130
 10
223.403173695686
 20
150.724453311669
 30
0.0
 11
224.983145433935
 21
151.005337176246
 31
0.0
  0
CIRCLE
  5
   33E
  8
0
  6
CONTINUOUS
 62
   130
 10
227.833143138885
 20
148.718285325624
 30
0.0
 40
0.39999988079071
  0
CIRCLE
  5
   33F
  8
0
  6
CONTINUOUS
 62
   130
 10
227.833143138885
 20
150.318285325625
 30
0.0
 40
0.39999988079071
  0
ARC
  5
   340
  8
0
  6
CONTINUOUS
 62
   130
 10
223.333143138886
 20
151.118270066835
 30
0.0
 40
0.39999988079071
 50
270.0
 51
346.448162814878
  0
LINE
  5
   341
  8
0
  6
CONTINUOUS
 62
   130
 10
223.263116981449
 20
149.912097976304
 30
0.0
 11
224.983160457167
 21
150.217883483098
 31
0.0
  0
LINE
  5
   342
  8
0
  6
CONTINUOUS
 62
   130
 10
223.403140978426
 20
149.124462993307
 30
0.0
 11
224.98315778637
 21
149.405354870275
 31
0.0
  0
LINE
  5
   343
  8
0
  6
CONTINUOUS
 62
   130
 10
223.263144357116
 20
148.312118341129
 30
0.0
 11
224.983112716675
 21
148.61789049394
 31
0.0
  0
LINE
  5
   344
  8
0
  6
CONTINUOUS
 62
   130
 10
223.403173695686
 20
147.524453311669
 30
0.0
 11
224.983130410703
 21
147.80533450545
 31
0.0
  0
LINE
  5
   345
  8
0
  6
CONTINUOUS
 62
   130
 10
223.263101958217
 20
146.712095305507
 30
0.0
 11
224.983145433935
 21
147.017880812301
 31
0.0
  0
LINE
  5
   346
  8
0
  6
CONTINUOUS
 62
   130
 10
223.403125955195
 20
145.92446032251
 30
0.0
 11
224.98315778637
 21
146.205354870275
 31
0.0
  0
LINE
  5
   347
  8
0
  6
CONTINUOUS
 62
   130
 10
223.263129333884
 20
145.112115670332
 30
0.0
 11
224.983112716675
 21
145.41789049394
 31
0.0
  0
LINE
  5
   348
  8
0
  6
CONTINUOUS
 62
   130
 10
223.403158672455
 20
144.324450640872
 30
0.0
 11
224.983115387472
 21
144.605331834653
 31
0.0
  0
LINE
  5
   349
  8
0
  6
CONTINUOUS
 62
   130
 10
223.263147027912
 20
143.512103317897
 30
0.0
 11
224.983130410703
 21
143.817878141505
 31
0.0
  0
LINE
  5
   34A
  8
0
  6
CONTINUOUS
 62
   130
 10
223.403171024889
 20
142.7244683349
 30
0.0
 11
224.983142763138
 21
143.005352199478
 31
0.0
  0
LINE
  5
   34B
  8
0
  6
CONTINUOUS
 62
   130
 10
223.263114310652
 20
141.912112999536
 30
0.0
 11
224.98315778637
 21
142.21789850633
 31
0.0
  0
LINE
  5
   34C
  8
0
  6
CONTINUOUS
 62
   130
 10
223.403140978426
 20
141.124462993307
 30
0.0
 11
224.98315778637
 21
141.405354870275
 31
0.0
  0
LINE
  5
   34D
  8
0
  6
CONTINUOUS
 62
   130
 10
223.263147027912
 20
140.312103317897
 30
0.0
 11
224.983115387472
 21
140.617875470708
 31
0.0
  0
LINE
  5
   34E
  8
0
  6
CONTINUOUS
 62
   130
 10
223.403173695686
 20
139.524453311669
 30
0.0
 11
224.983130410703
 21
139.80533450545
 31
0.0
  0
LINE
  5
   34F
  8
0
  6
CONTINUOUS
 62
   130
 10
223.263101958217
 20
138.712095305507
 30
0.0
 11
224.983145433935
 21
139.017880812302
 31
0.0
  0
LINE
  5
   350
  8
0
  6
CONTINUOUS
 62
   130
 10
223.403125955195
 20
137.92446032251
 30
0.0
 11
224.98315778637
 21
138.205354870275
 31
0.0
  0
LINE
  5
   351
  8
0
  6
CONTINUOUS
 62
   130
 10
223.263129333884
 20
137.112115670332
 30
0.0
 11
224.98315778637
 21
137.41789850633
 31
0.0
  0
LINE
  5
   352
  8
0
  6
CONTINUOUS
 62
   130
 10
223.403158672454
 20
136.324450640872
 30
0.0
 11
224.983115387472
 21
136.605331834653
 31
0.0
  0
LINE
  5
   353
  8
0
  6
CONTINUOUS
 62
   130
 10
223.333105065699
 20
135.524540302393
 30
0.0
 11
224.983130410703
 21
135.817878141505
 31
0.0
  0
LINE
  5
   354
  8
0
  6
CONTINUOUS
 62
   130
 10
223.33313291248
 20
135.524555325625
 30
0.0
 11
224.983158493042
 21
135.524555325625
 31
0.0
  0
INSERT
  5
   355
  8
0
  6
CONTINUOUS
 62
     3
  2
*HATCH881
 10
228.583160400391
 20
180.02458190918
 30
0.0
  0
INSERT
  5
   356
  8
0
  6
CONTINUOUS
 62
     3
  2
*HATCH882
 10
228.583160400391
 20
180.02458190918
 30
0.0
  0
INSERT
  5
   357
  8
0
  6
CONTINUOUS
 62
     3
  2
*HATCH883
 10
228.583160400391
 20
180.02458190918
 30
0.0
  0
INSERT
  5
   358
  8
0
  6
CONTINUOUS
 62
     3
  2
*HATCH884
 10
228.583160400391
 20
180.02458190918
 30
0.0
  0
INSERT
  5
   359
  8
0
  6
CONTINUOUS
 62
     3
  2
*HATCH885
 10
228.583160400391
 20
180.02458190918
 30
0.0
  0
INSERT
  5
   35A
  8
0
  6
CONTINUOUS
 62
     3
  2
*HATCH886
 10
228.583160400391
 20
180.02458190918
 30
0.0
  0
INSERT
  5
   35B
  8
0
  6
CONTINUOUS
 62
     3
  2
*HATCH887
 10
228.583160400391
 20
180.02458190918
 30
0.0
  0
INSERT
  5
   35C
  8
0
  6
CONTINUOUS
 62
     3
  2
*HATCH888
 10
228.583160400391
 20
180.02458190918
 30
0.0
  0
INSERT
  5
   35D
  8
0
  6
CONTINUOUS
 62
     3
  2
*HATCH889
 10
228.583160400391
 20
180.02458190918
 30
0.0
  0
INSERT
  5
   35E
  8
0
  6
CONTINUOUS
 62
     3
  2
*HATCH890
 10
228.583160400391
 20
180.02458190918
 30
0.0
  0
INSERT
  5
   35F
  8
0
  6
CONTINUOUS
 62
     3
  2
*HATCH891
 10
228.583160400391
 20
180.02458190918
 30
0.0
  0
INSERT
  5
   360
  8
0
  6
CONTINUOUS
 62
     3
  2
*HATCH892
 10
228.583160400391
 20
180.02458190918
 30
0.0
  0
INSERT
  5
   361
  8
0
  6
CONTINUOUS
 62
     3
  2
*HATCH893
 10
228.583160400391
 20
180.02458190918
 30
0.0
  0
POLYLINE
  5
   362
  8
0
  6
CONTINUOUS
 62
   130
 66
     1
 10
0.0
 20
0.0
 30
0.0
  0
VERTEX
  5
   363
  8
0
  6
CONTINUOUS
 10
228.583217196336
 20
107.931941768582
 30
0.0
 40
0.0
 41
0.0
  0
VERTEX
  5
   364
  8
0
  6
CONTINUOUS
 10
228.482117244429
 20
107.947951617183
 30
0.0
 40
0.0
 41
0.0
  0
VERTEX
  5
   365
  8
0
  6
CONTINUOUS
 10
228.382139050324
 20
107.960607142879
 30
0.0
 40
0.0
 41
0.0
  0
VERTEX
  5
   366
  8
0
  6
CONTINUOUS
 10
228.332603599204
 20
107.965305277688
 30
0.0
 40
0.0
 41
0.0
  0
VERTEX
  5
   367
  8
0
  6
CONTINUOUS
 10
228.233961041783
 20
107.970694654213
 30
0.0
 40
0.0
 41
0.0
  0
VERTEX
  5
   368
  8
0
  6
CONTINUOUS
 10
228.13656629166
 20
107.969634840055
 30
0.0
 40
0.0
 41
0.0
  0
VERTEX
  5
   369
  8
0
  6
CONTINUOUS
 10
228.088316137558
 20
107.966310027074
 30
0.0
 40
0.0
 41
0.0
  0
VERTEX
  5
   36A
  8
0
  6
CONTINUOUS
 10
228.040346887577
 20
107.960933573466
 30
0.0
 40
0.0
 41
0.0
  0
VERTEX
  5
   36B
  8
0
  6
CONTINUOUS
 10
227.992642699557
 20
107.953376060456
 30
0.0
 40
0.0
 41
0.0
  0
VERTEX
  5
   36C
  8
0
  6
CONTINUOUS
 10
227.945186065205
 20
107.943520370119
 30
0.0
 40
0.0
 41
0.0
  0
VERTEX
  5
   36D
  8
0
  6
CONTINUOUS
 10
227.897958361502
 20
107.931264030267
 30
0.0
 40
0.0
 41
0.0
  0
VERTEX
  5
   36E
  8
0
  6
CONTINUOUS
 10
227.85094040211
 20
107.916521559325
 30
0.0
 40
0.0
 41
0.0
  0
VERTEX
  5
   36F
  8
0
  6
CONTINUOUS
 10
227.804112988772
 20
107.899226811219
 30
0.0
 40
0.0
 41
0.0
  0
VERTEX
  5
   370
  8
0
  6
CONTINUOUS
 10
227.757457462722
 20
107.879335320252
 30
0.0
 40
0.0
 41
0.0
  0
VERTEX
  5
   371
  8
0
  6
CONTINUOUS
 10
227.710956256091
 20
107.85682664599
 30
0.0
 40
0.0
 41
0.0
  0
VERTEX
  5
   372
  8
0
  6
CONTINUOUS
 10
227.664593443306
 20
107.831706718143
 30
0.0
 40
0.0
 41
0.0
  0
VERTEX
  5
   373
  8
0
  6
CONTINUOUS
 10
227.618355292502
 20
107.804010181446
 30
0.0
 40
0.0
 41
0.0
  0
VERTEX
  5
   374
  8
0
  6
CONTINUOUS
 10
227.572230816925
 20
107.77380274054
 30
0.0
 40
0.0
 41
0.0
  0
VERTEX
  5
   375
  8
0
  6
CONTINUOUS
 10
227.480295978413
 20
107.706287333498
 30
0.0
 40
0.0
 41
0.0
  0
VERTEX
  5
   376
  8
0
  6
CONTINUOUS
 10
227.388776889341
 20
107.630396437806
 30
0.0
 40
0.0
 41
0.0
  0
VERTEX
  5
   377
  8
0
  6
CONTINUOUS
 10
227.283492556748
 20
107.534643577859
 30
0.0
 40
0.0
 41
0.0
  0
VERTEX
  5
   378
  8
0
  6
CONTINUOUS
 10
227.075926756632
 20
107.334013561662
 30
0.0
 40
0.0
 41
0.0
  0
VERTEX
  5
   379
  8
0
  6
CONTINUOUS
 10
226.974410619992
 20
107.239404197415
 30
0.0
 40
0.0
 41
0.0
  0
VERTEX
  5
   37A
  8
0
  6
CONTINUOUS
 10
226.924398209543
 20
107.195916377648
 30
0.0
 40
0.0
 41
0.0
  0
VERTEX
  5
   37B
  8
0
  6
CONTINUOUS
 10
226.874945038122
 20
107.155865960058
 30
0.0
 40
0.0
 41
0.0
  0
VERTEX
  5
   37C
  8
0
  6
CONTINUOUS
 10
226.826090672888
 20
107.11988606883
 30
0.0
 40
0.0
 41
0.0
  0
VERTEX
  5
   37D
  8
0
  6
CONTINUOUS
 10
226.777866814459
 20
107.088565621667
 30
0.0
 40
0.0
 41
0.0
  0
VERTEX
  5
   37E
  8
0
  6
CONTINUOUS
 10
226.730295430249
 20
107.062436821912
 30
0.0
 40
0.0
 41
0.0
  0
VERTEX
  5
   37F
  8
0
  6
CONTINUOUS
 10
226.683386887807
 20
107.041962650663
 30
0.0
 40
0.0
 41
0.0
  0
VERTEX
  5
   380
  8
0
  6
CONTINUOUS
 10
226.63713808815
 20
107.027524358887
 30
0.0
 40
0.0
 41
0.0
  0
VERTEX
  5
   381
  8
0
  6
CONTINUOUS
 10
226.5915305991
 20
107.019408959541
 30
0.0
 40
0.0
 41
0.0
  0
VERTEX
  5
   382
  8
0
  6
CONTINUOUS
 10
226.546528788624
 20
107.017796719686
 30
0.0
 40
0.0
 41
0.0
  0
VERTEX
  5
   383
  8
0
  6
CONTINUOUS
 10
226.502077958163
 20
107.022748652603
 30
0.0
 40
0.0
 41
0.0
  0
VERTEX
  5
   384
  8
0
  6
CONTINUOUS
 10
226.458102475975
 20
107.034194009911
 30
0.0
 40
0.0
 41
0.0
  0
VERTEX
  5
   385
  8
0
  6
CONTINUOUS
 10
226.41450391047
 20
107.051917773683
 30
0.0
 40
0.0
 41
0.0
  0
VERTEX
  5
   386
  8
0
  6
CONTINUOUS
 10
226.386134159342
 20
107.066734705929
 30
0.0
 40
0.0
 41
0.0
  0
VERTEX
  5
   387
  8
0
  6
CONTINUOUS
 10
226.329559866646
 20
107.103364858414
 30
0.0
 40
0.0
 41
0.0
  0
VERTEX
  5
   388
  8
0
  6
CONTINUOUS
 10
226.301263192446
 20
107.124814832408
 30
0.0
 40
0.0
 41
0.0
  0
VERTEX
  5
   389
  8
0
  6
CONTINUOUS
 10
226.244400195185
 20
107.172910885518
 30
0.0
 40
0.0
 41
0.0
  0
VERTEX
  5
   38A
  8
0
  6
CONTINUOUS
 10
226.18682629044
 20
107.226305262219
 30
0.0
 40
0.0
 41
0.0
  0
VERTEX
  5
   38B
  8
0
  6
CONTINUOUS
 10
226.067873751006
 20
107.340445977087
 30
0.0
 40
0.0
 41
0.0
  0
VERTEX
  5
   38C
  8
0
  6
CONTINUOUS
 10
226.005734477896
 20
107.396800576779
 30
0.0
 40
0.0
 41
0.0
  0
VERTEX
  5
   38D
  8
0
  6
CONTINUOUS
 10
225.941411934351
 20
107.449873444867
 30
0.0
 40
0.0
 41
0.0
  0
VERTEX
  5
   38E
  8
0
  6
CONTINUOUS
 10
225.874711222732
 20
107.497806177245
 30
0.0
 40
0.0
 41
0.0
  0
VERTEX
  5
   38F
  8
0
  6
CONTINUOUS
 10
225.805555636533
 20
107.539058435444
 30
0.0
 40
0.0
 41
0.0
  0
VERTEX
  5
   390
  8
0
  6
CONTINUOUS
 10
225.762565710383
 20
107.560270537548
 30
0.0
 40
0.0
 41
0.0
  0
VERTEX
  5
   391
  8
0
  6
CONTINUOUS
 10
225.718742473621
 20
107.578457248267
 30
0.0
 40
0.0
 41
0.0
  0
VERTEX
  5
   392
  8
0
  6
CONTINUOUS
 10
225.674147915595
 20
107.593519262428
 30
0.0
 40
0.0
 41
0.0
  0
VERTEX
  5
   393
  8
0
  6
CONTINUOUS
 10
225.628861249072
 20
107.605413978246
 30
0.0
 40
0.0
 41
0.0
  0
VERTEX
  5
   394
  8
0
  6
CONTINUOUS
 10
225.582976330108
 20
107.614148979644
 30
0.0
 40
0.0
 41
0.0
  0
SEQEND
  5
   395
  8
0
  6
CONTINUOUS
 62
   130
  0
LINE
  5
   396
  8
0
  6
DOT
 62
   130
 10
227.383128166199
 20
83.524565816042
 30
0.0
 11
227.383128166199
 21
107.625673338078
 31
0.0
  0
LINE
  5
   397
  8
0
  6
CONTINUOUS
 62
   130
 10
224.683113098145
 20
152.224537015078
 30
0.0
 11
224.983158493042
 21
152.224537015078
 31
0.0
  0
LINE
  5
   398
  8
0
  6
CONTINUOUS
 62
   130
 10
224.683113098145
 20
151.024555325625
 30
0.0
 11
224.983158493042
 21
151.024555325625
 31
0.0
  0
LINE
  5
   399
  8
0
  6
CONTINUOUS
 62
   130
 10
224.883127975464
 20
131.024555325625
 30
0.0
 11
224.983158493042
 21
131.024555325625
 31
0.0
  0
LINE
  5
   39A
  8
0
  6
CONTINUOUS
 62
   130
 10
224.883127975464
 20
129.824558377382
 30
0.0
 11
224.983158493042
 21
129.824558377382
 31
0.0
  0
LINE
  5
   39B
  8
0
  6
CONTINUOUS
 62
   130
 10
224.554571805682
 20
131.524555325625
 30
0.0
 11
224.983158493042
 21
131.524555325625
 31
0.0
  0
LINE
  5
   39C
  8
0
  6
DOT
 62
   130
 10
224.983158493042
 20
131.524555325625
 30
0.0
 11
226.18311252594
 21
131.524555325625
 31
0.0
  0
INSERT
  5
   39D
  8
0
  6
CONTINUOUS
 62
     7
  2
*HATCH894
 10
228.583160400391
 20
180.02458190918
 30
0.0
  0
INSERT
  5
   39E
  8
0
  6
CONTINUOUS
 62
     7
  2
*HATCH895
 10
228.583160400391
 20
180.02458190918
 30
0.0
  0
INSERT
  5
   39F
  8
0
  6
CONTINUOUS
 62
     7
  2
*HATCH896
 10
228.583160400391
 20
180.02458190918
 30
0.0
  0
INSERT
  5
   3A0
  8
0
  6
CONTINUOUS
 62
     7
  2
*HATCH897
 10
228.583160400391
 20
180.02458190918
 30
0.0
  0
INSERT
  5
   3A1
  8
0
  6
CONTINUOUS
 62
     3
  2
*HATCH898
 10
228.583160400391
 20
180.02458190918
 30
0.0
  0
INSERT
  5
   3A2
  8
0
  6
CONTINUOUS
 62
     3
  2
*HATCH899
 10
228.583160400391
 20
180.02458190918
 30
0.0
  0
INSERT
  5
   3A3
  8
0
  6
CONTINUOUS
 62
     3
  2
*HATCH900
 10
228.583160400391
 20
180.02458190918
 30
0.0
  0
INSERT
  5
   3A4
  8
0
  6
CONTINUOUS
 62
     3
  2
*HATCH901
 10
228.583160400391
 20
180.02458190918
 30
0.0
  0
INSERT
  5
   3A5
  8
0
  6
CONTINUOUS
 62
     3
  2
*HATCH902
 10
228.583160400391
 20
180.02458190918
 30
0.0
  0
INSERT
  5
   3A6
  8
0
  6
CONTINUOUS
 62
     3
  2
*HATCH903
 10
228.583160400391
 20
180.02458190918
 30
0.0
  0
INSERT
  5
   3A7
  8
0
  6
CONTINUOUS
 62
     3
  2
*HATCH904
 10
228.583160400391
 20
180.02458190918
 30
0.0
  0
INSERT
  5
   3A8
  8
0
  6
CONTINUOUS
 62
     3
  2
*HATCH905
 10
228.583160400391
 20
180.02458190918
 30
0.0
  0
INSERT
  5
   3A9
  8
0
  6
CONTINUOUS
 62
     3
  2
*HATCH906
 10
228.583160400391
 20
180.02458190918
 30
0.0
  0
INSERT
  5
   3AA
  8
0
  6
CONTINUOUS
 62
     3
  2
*HATCH907
 10
228.583160400391
 20
180.02458190918
 30
0.0
  0
INSERT
  5
   3AB
  8
0
  6
CONTINUOUS
 62
     3
  2
*HATCH908
 10
228.583160400391
 20
180.02458190918
 30
0.0
  0
INSERT
  5
   3AC
  8
0
  6
CONTINUOUS
 62
     3
  2
*HATCH909
 10
228.583160400391
 20
180.02458190918
 30
0.0
  0
INSERT
  5
   3AD
  8
0
  6
CONTINUOUS
 62
     3
  2
*HATCH910
 10
228.583160400391
 20
180.02458190918
 30
0.0
  0
LINE
  5
   3AE
  8
0
  6
DASHDOT
 62
   130
 10
219.912337141687
 20
108.02458190918
 30
0.0
 11
331.112427752781
 21
108.02458190918
 31
0.0
  0
POINT
  5
   3AF
  8
0
  6
CONTINUOUS
 62
   130
 10
225.583128929138
 20
125.024555325625
 30
0.0
  0
POINT
  5
   3B0
  8
0
  6
CONTINUOUS
 62
   130
 10
225.583128929138
 20
89.5245553256245
 30
0.0
  0
INSERT
  5
   3B1
  8
0
  6
CONTINUOUS
 62
     3
  2
*UDIM1274
 10
0.0
 20
0.0
 30
0.0
  0
INSERT
  5
   3B2
  8
0
  6
CONTINUOUS
 62
     7
  2
*UDIM1275
 10
0.0
 20
0.0
 30
0.0
  0
INSERT
  5
   3B3
  8
0
  6
CONTINUOUS
 62
     7
  2
*UDIM1276
 10
0.0
 20
0.0
 30
0.0
  0
LINE
  5
   3B4
  8
0
  6
CONTINUOUS
 62
   130
 10
298.783154206853
 20
76.0245971679688
 30
0.0
 11
298.783154206853
 21
85.5245971679688
 31
0.0
  0
LINE
  5
   3B5
  8
0
  6
CONTINUOUS
 62
   130
 10
298.783154206853
 20
130.524597167969
 30
0.0
 11
298.783154206853
 21
164.024597167969
 31
0.0
  0
LINE
  5
   3B6
  8
0
  6
CONTINUOUS
 62
   130
 10
298.783154206853
 20
130.524597167969
 30
0.0
 11
303.883154392242
 21
130.524597167969
 31
0.0
  0
LINE
  5
   3B7
  8
0
  6
CONTINUOUS
 62
   130
 10
298.783154206853
 20
85.5245971679688
 30
0.0
 11
303.883154392242
 21
85.5245971679688
 31
0.0
  0
LINE
  5
   3B8
  8
0
  6
CONTINUOUS
 62
   130
 10
292.783154010773
 20
60.0245971679688
 30
0.0
 11
296.083154201508
 21
60.0245971679688
 31
0.0
  0
LINE
  5
   3B9
  8
0
  6
CONTINUOUS
 62
   130
 10
292.783154010773
 20
64.0245971679688
 30
0.0
 11
292.783154010773
 21
74.5245971679688
 31
0.0
  0
LINE
  5
   3BA
  8
0
  6
CONTINUOUS
 62
   130
 10
292.783154010773
 20
74.5245971679688
 30
0.0
 11
292.783154010773
 21
76.0245971679688
 31
0.0
  0
LINE
  5
   3BB
  8
0
  6
CONTINUOUS
 62
   130
 10
272.083154678345
 20
64.0245971679688
 30
0.0
 11
292.783154010773
 21
64.0245971679688
 31
0.0
  0
LINE
  5
   3BC
  8
0
  6
CONTINUOUS
 62
   130
 10
272.083154678345
 20
60.0245971679688
 30
0.0
 11
292.783154010773
 21
60.0245971679688
 31
0.0
  0
LINE
  5
   3BD
  8
0
  6
CONTINUOUS
 62
   130
 10
297.583154201508
 20
74.5245971679688
 30
0.0
 11
297.583154201508
 21
76.0245971679688
 31
0.0
  0
LINE
  5
   3BE
  8
0
  6
CONTINUOUS
 62
   130
 10
292.783154010773
 20
180.024597167956
 30
0.0
 11
296.083154201508
 21
180.024597167956
 31
0.0
  0
LINE
  5
   3BF
  8
0
  6
CONTINUOUS
 62
   130
 10
292.783154010773
 20
165.524597167969
 30
0.0
 11
292.783154010773
 21
176.024597167969
 31
0.0
  0
LINE
  5
   3C0
  8
0
  6
CONTINUOUS
 62
   130
 10
292.783154010773
 20
164.024597167969
 30
0.0
 11
292.783154010773
 21
165.524597167969
 31
0.0
  0
LINE
  5
   3C1
  8
0
  6
CONTINUOUS
 62
   130
 10
272.083154678345
 20
176.024597167969
 30
0.0
 11
292.783154010773
 21
176.024597167969
 31
0.0
  0
LINE
  5
   3C2
  8
0
  6
CONTINUOUS
 62
   130
 10
272.083154678345
 20
180.024597167956
 30
0.0
 11
292.783154010773
 21
180.024597167956
 31
0.0
  0
LINE
  5
   3C3
  8
0
  6
CONTINUOUS
 62
   130
 10
297.583154201508
 20
164.024597167969
 30
0.0
 11
297.583154201508
 21
165.524597167969
 31
0.0
  0
LINE
  5
   3C4
  8
0
  6
CONTINUOUS
 62
   130
 10
228.583152770996
 20
180.024597167956
 30
0.0
 11
272.083154678345
 21
180.024597167956
 31
0.0
  0
LINE
  5
   3C5
  8
0
  6
CONTINUOUS
 62
   130
 10
228.583152770996
 20
176.024597167969
 30
0.0
 11
228.583152770996
 21
180.024597167956
 31
0.0
  0
LINE
  5
   3C6
  8
0
  6
CONTINUOUS
 62
   130
 10
228.583152770996
 20
176.024597167969
 30
0.0
 11
272.083154678345
 21
176.024597167969
 31
0.0
  0
LINE
  5
   3C7
  8
0
  6
CONTINUOUS
 62
   130
 10
228.583152770996
 20
60.0245971679688
 30
0.0
 11
272.083154678345
 21
60.0245971679688
 31
0.0
  0
LINE
  5
   3C8
  8
0
  6
CONTINUOUS
 62
   130
 10
228.583152770996
 20
60.0245971679688
 30
0.0
 11
228.583152770996
 21
64.0245971679688
 31
0.0
  0
LINE
  5
   3C9
  8
0
  6
CONTINUOUS
 62
   130
 10
228.583152770996
 20
64.0245971679688
 30
0.0
 11
272.083154678345
 21
64.0245971679688
 31
0.0
  0
LINE
  5
   3CA
  8
0
  6
CONTINUOUS
 62
   130
 10
292.783154010773
 20
76.0245971679688
 30
0.0
 11
298.783154206853
 21
76.0245971679688
 31
0.0
  0
LINE
  5
   3CB
  8
0
  6
CONTINUOUS
 62
   130
 10
292.783154010773
 20
74.5245971679688
 30
0.0
 11
297.583154201508
 21
74.5245971679688
 31
0.0
  0
LINE
  5
   3CC
  8
0
  6
CONTINUOUS
 62
   130
 10
296.083154201508
 20
60.0245971679688
 30
0.0
 11
296.083154201508
 21
74.5245971679688
 31
0.0
  0
LINE
  5
   3CD
  8
0
  6
CONTINUOUS
 62
   130
 10
292.783154010773
 20
164.024597167969
 30
0.0
 11
298.783154206853
 21
164.024597167969
 31
0.0
  0
LINE
  5
   3CE
  8
0
  6
CONTINUOUS
 62
   130
 10
292.783154010773
 20
165.524597167969
 30
0.0
 11
297.583154201508
 21
165.524597167969
 31
0.0
  0
LINE
  5
   3CF
  8
0
  6
CONTINUOUS
 62
   130
 10
296.083154201508
 20
165.524597167969
 30
0.0
 11
296.083154201508
 21
180.024597167956
 31
0.0
  0
LINE
  5
   3D0
  8
0
  6
CONTINUOUS
 62
   130
 10
304.283075288782
 20
119.724613189697
 30
0.0
 11
304.283075288782
 21
130.524597167969
 31
0.0
  0
LINE
  5
   3D1
  8
0
  6
CONTINUOUS
 62
   130
 10
304.283075288782
 20
104.324615478516
 30
0.0
 11
304.283075288782
 21
117.724613189697
 31
0.0
  0
LINE
  5
   3D2
  8
0
  6
CONTINUOUS
 62
   130
 10
304.283075288782
 20
85.5245971679688
 30
0.0
 11
304.283075288782
 21
102.324615478516
 31
0.0
  0
LINE
  5
   3D3
  8
0
  6
CONTINUOUS
 62
   130
 10
304.283233642578
 20
117.724613189697
 30
0.0
 11
304.283233642578
 21
119.724613189697
 31
0.0
  0
LINE
  5
   3D4
  8
0
  6
CONTINUOUS
 62
   130
 10
304.283233642578
 20
102.324615478516
 30
0.0
 11
304.283233642578
 21
104.324615478516
 31
0.0
  0
LINE
  5
   3D5
  8
0
  6
CONTINUOUS
 62
   130
 10
298.783228742029
 20
85.5245971679567
 30
0.0
 11
304.283075332642
 21
85.5245971679567
 31
0.0
  0
LINE
  5
   3D6
  8
0
  6
CONTINUOUS
 62
   130
 10
298.783075288782
 20
130.524597167957
 30
0.0
 11
304.283075332642
 21
130.524597167957
 31
0.0
  0
LINE
  5
   3D7
  8
0
  6
DASHDOT
 62
   130
 10
228.583152770996
 20
47.6408609808883
 30
0.0
 11
228.583152770996
 21
188.801044842903
 31
0.0
  0
TEXT
  5
   3D8
  8
0
  6
CONTINUOUS
 62
     2
 10
168.762977600098
 20
-26.623214751482
 30
0.0
 40
2.50000005960464
  1
97-08-19
 41
1.09999991695086
 11
168.762977600098
 21
-25.3732147216796
 31
0.0
 73
     2
  0
TEXT
  5
   3D9
  8
0
  6
CONTINUOUS
 62
     2
 10
168.762977600098
 20
-30.623214751482
 30
0.0
 40
2.50000005960464
  1
MAZZOLENI
 41
1.09799996061325
 11
168.762977600098
 21
-29.3732147216796
 31
0.0
 73
     2
  0
TEXT
  5
   3DA
  8
0
  6
CONTINUOUS
 62
     2
 10
180.229713439941
 20
-43.3086157143115
 30
0.0
 40
2.50000005960464
  1
M4375 97-09-15
 41
0.64999958527089
 11
180.229713439941
 21
-42.0586156845092
 31
0.0
 73
     2
  0
TEXT
  5
   3DB
  8
0
  6
CONTINUOUS
 62
     2
 10
270.234707640111
 20
-54.8920526206493
 30
0.0
 40
4.49999994039536
  1
601855/411
 41
1.09999994414824
 72
     1
 11
294.159706115723
 21
-52.6420526504516
 31
0.0
 73
     2
  0
TEXT
  5
   3DC
  8
0
  6
CONTINUOUS
 62
     2
 10
-20.6504154334466
 20
-292.325311690569
 30
0.0
 40
2.50000005960464
  1
S2 III IV
 41
1.09999991695086
 72
     1
 11
-8.73374938964844
 21
-291.075311660767
 31
0.0
 73
     2
  0
TEXT
  5
   3DD
  8
0
  6
CONTINUOUS
 62
     2
 10
264.823039181729
 20
-30.5751892477273
 30
0.0
 40
2.20000007748604
  1
SIDE BY SIDE REMOTE CONTROL
 41
0.86666664481163
 72
     1
 11
290.159706115723
 21
-29.4751892089843
 31
0.0
 73
     2
  0
TEXT
  5
   3DE
  8
0
  6
CONTINUOUS
 62
     2
 10
263.869705838859
 20
-34.5751892477273
 30
0.0
 40
2.20000007748604
  1
COMANDO SOLENOIDE AFFIANCATO
 41
0.86666664481163
 72
     1
 11
290.159706115723
 21
-33.4751892089843
 31
0.0
 73
     2
  0
TEXT
  5
   3DF
  8
0
  6
CONTINUOUS
 62
     2
 10
329.747693576415
 20
-56.1973877251148
 30
0.0
 40
2.50000005960464
  1
1/1
 41
1.09999991695086
 72
     1
 11
333.414360046387
 21
-54.9473876953124
 31
0.0
 73
     2
  0
TEXT
  5
   3E0
  8
0
  6
CONTINUOUS
 62
     2
 10
329.747693576415
 20
-47.7305908501148
 30
0.0
 40
2.50000005960464
  1
1:1
 41
1.09999991695086
 72
     1
 11
333.414360046387
 21
-46.4805908203124
 31
0.0
 73
     2
  0
TEXT
  5
   3E1
  8
0
  6
CONTINUOUS
 62
     2
 10
331.122693505387
 20
-39.2638092339038
 30
0.0
 40
2.50000005960464
  1
IT
 41
1.09999991695086
 72
     1
 11
333.414360046387
 21
-38.0138092041015
 31
0.0
 73
     2
  0
TEXT
  5
   3E2
  8
0
  6
CONTINUOUS
 62
     2
 10
168.762977600098
 20
-39.089914751482
 30
0.0
 40
2.50000005960464
  1
GIUPPONI
 41
1.09799996061325
 11
168.762977600098
 21
-37.8399147216796
 31
0.0
 73
     2
  0
TEXT
  5
   3E3
  8
0
  6
CONTINUOUS
 62
     2
 10
168.762977600098
 20
-35.089914751482
 30
0.0
 40
2.50000005960464
  1
97-08-19
 41
1.09999991695086
 11
168.762977600098
 21
-33.8399147216796
 31
0.0
 73
     2
  0
LINE
  5
   3E4
  8
0
  6
CONTINUOUS
 62
     3
 10
310.883110046387
 20
109.482696533203
 30
0.0
 11
311.283157348633
 21
109.482696533203
 31
0.0
  0
LINE
  5
   3E5
  8
0
  6
CONTINUOUS
 62
     3
 10
310.883110046387
 20
121.166469573975
 30
0.0
 11
311.283157348633
 21
121.166469573975
 31
0.0
  0
LINE
  5
   3E6
  8
0
  6
CONTINUOUS
 62
     7
 10
306.883110046387
 20
110.338050842285
 30
0.0
 11
307.883110046387
 21
110.338050842285
 31
0.0
  0
LINE
  5
   3E7
  8
0
  6
CONTINUOUS
 62
     7
 10
306.883110046387
 20
120.311115264893
 30
0.0
 11
307.883110046387
 21
120.311115264893
 31
0.0
  0
LINE
  5
   3E8
  8
0
  6
CONTINUOUS
 62
     7
 10
306.833160400391
 20
117.708675384521
 30
0.0
 11
306.883110046387
 21
117.708675384521
 31
0.0
  0
LINE
  5
   3E9
  8
0
  6
CONTINUOUS
 62
     7
 10
304.383110046387
 20
117.708675384521
 30
0.0
 11
304.833160400391
 21
117.708675384521
 31
0.0
  0
LINE
  5
   3EA
  8
0
  6
CONTINUOUS
 62
     7
 10
306.833160400391
 20
112.940490722656
 30
0.0
 11
306.883110046387
 21
112.940490722656
 31
0.0
  0
LINE
  5
   3EB
  8
0
  6
CONTINUOUS
 62
     7
 10
304.383110046387
 20
112.940490722656
 30
0.0
 11
304.833160400391
 21
112.940490722656
 31
0.0
  0
LINE
  5
   3EC
  8
0
  6
CONTINUOUS
 62
   252
 10
283.583160400391
 20
182.02458190918
 30
0.0
 11
298.783157348633
 21
182.02458190918
 31
0.0
  0
LINE
  5
   3ED
  8
0
  6
CONTINUOUS
 62
   252
 10
283.583160400391
 20
58.0245819091797
 30
0.0
 11
298.783157348633
 21
58.0245819091797
 31
0.0
  0
LINE
  5
   3EE
  8
0
  6
CONTINUOUS
 62
     7
 10
306.883109690779
 20
115.324584960938
 30
0.0
 11
306.883109690779
 21
120.311115264893
 31
0.0
  0
LINE
  5
   3EF
  8
0
  6
CONTINUOUS
 62
     7
 10
306.883109690779
 20
110.338050842285
 30
0.0
 11
306.883109690779
 21
115.324584960938
 31
0.0
  0
LINE
  5
   3F0
  8
0
  6
CONTINUOUS
 62
     7
 10
304.383109690779
 20
112.940490722656
 30
0.0
 11
304.383109690779
 21
115.311431884766
 31
0.0
  0
LINE
  5
   3F1
  8
0
  6
CONTINUOUS
 62
     7
 10
304.383109690779
 20
115.311431884766
 30
0.0
 11
304.383109690779
 21
117.708675384521
 31
0.0
  0
LINE
  5
   3F2
  8
0
  6
CONTINUOUS
 62
    98
 10
320.583160400391
 20
98.0206507893453
 30
0.0
 11
324.23316192627
 21
98.0206507893453
 31
0.0
  0
LINE
  5
   3F3
  8
0
  6
CONTINUOUS
 62
    98
 10
320.583160400391
 20
118.020650789345
 30
0.0
 11
324.23316192627
 21
118.020650789345
 31
0.0
  0
LINE
  5
   3F4
  8
0
  6
CONTINUOUS
 62
   130
 10
306.833160400391
 20
111.66773223877
 30
0.0
 11
306.883110046387
 21
111.648612976074
 31
0.0
  0
LINE
  5
   3F5
  8
0
  6
CONTINUOUS
 62
   130
 10
307.883109690779
 20
95.4301910400391
 30
0.0
 11
307.883109690779
 21
95.4441986083984
 31
0.0
  0
ARC
  5
   3F6
  8
0
  6
CONTINUOUS
 62
    98
 10
324.233160400391
 20
115.020650789345
 30
0.0
 40
2.99999999999993
 50
3.78463518413777E-5
 51
89.9999708578404
  0
LINE
  5
   3F7
  8
0
  6
CONTINUOUS
 62
    98
 10
327.233160400391
 20
101.020652770996
 30
0.0
 11
327.233160400391
 21
115.020652770996
 31
0.0
  0
ARC
  5
   3F8
  8
0
  6
CONTINUOUS
 62
    98
 10
324.233160400391
 20
101.020650789345
 30
0.0
 40
2.99999999999967
 50
270.000029142154
 51
360.000037846352
  0
ARC
  5
   3F9
  8
0
  6
CONTINUOUS
 62
    98
 10
323.233160400391
 20
104.520650789345
 30
0.0
 40
1.49999999999999
 50
179.999924307296
 51
360.000075692704
  0
LINE
  5
   3FA
  8
0
  6
CONTINUOUS
 62
    98
 10
321.733160400391
 20
104.520652770996
 30
0.0
 11
321.733160400391
 21
111.520652770996
 31
0.0
  0
ARC
  5
   3FB
  8
0
  6
CONTINUOUS
 62
    98
 10
323.233160400391
 20
111.520650789345
 30
0.0
 40
1.5
 50
7.56927036827596E-5
 51
179.999924307296
  0
LINE
  5
   3FC
  8
0
  6
CONTINUOUS
 62
    98
 10
324.733160400391
 20
104.520652770996
 30
0.0
 11
324.733160400391
 21
111.520652770996
 31
0.0
  0
LINE
  5
   3FD
  8
0
  6
CONTINUOUS
 62
    98
 10
304.283075288782
 20
122.02458190918
 30
0.0
 11
306.833160400391
 21
122.02458190918
 31
0.0
  0
LINE
  5
   3FE
  8
0
  6
CONTINUOUS
 62
    98
 10
306.833160400391
 20
120.02458190918
 30
0.0
 11
306.833160400391
 21
122.02458190918
 31
0.0
  0
LINE
  5
   3FF
  8
0
  6
CONTINUOUS
 62
    98
 10
304.833160400391
 20
120.02458190918
 30
0.0
 11
304.833160400391
 21
122.02458190918
 31
0.0
  0
LINE
  5
   400
  8
0
  6
CONTINUOUS
 62
    98
 10
304.283075288782
 20
106.52458190918
 30
0.0
 11
306.833160400391
 21
106.52458190918
 31
0.0
  0
LINE
  5
   401
  8
0
  6
CONTINUOUS
 62
    98
 10
304.833160400391
 20
108.52458190918
 30
0.0
 11
304.833160400391
 21
120.02458190918
 31
0.0
  0
LINE
  5
   402
  8
0
  6
CONTINUOUS
 62
    98
 10
306.833160400391
 20
108.52458190918
 30
0.0
 11
306.833160400391
 21
120.02458190918
 31
0.0
  0
LINE
  5
   403
  8
0
  6
CONTINUOUS
 62
    98
 10
306.833160400391
 20
106.52458190918
 30
0.0
 11
306.833160400391
 21
108.52458190918
 31
0.0
  0
LINE
  5
   404
  8
0
  6
CONTINUOUS
 62
    98
 10
304.833160400391
 20
106.52458190918
 30
0.0
 11
304.833160400391
 21
108.52458190918
 31
0.0
  0
LINE
  5
   405
  8
0
  6
CONTINUOUS
 62
   252
 10
304.283160400391
 20
99.5245819091797
 30
0.0
 11
304.283160400391
 21
100.02458190918
 31
0.0
  0
LINE
  5
   406
  8
0
  6
CONTINUOUS
 62
   252
 10
298.783157348633
 20
130.52458190918
 30
0.0
 11
319.583160400391
 21
130.52458190918
 31
0.0
  0
LINE
  5
   407
  8
0
  6
CONTINUOUS
 62
   252
 10
298.783157348633
 20
85.5245819091797
 30
0.0
 11
319.583160400391
 21
85.5245819091797
 31
0.0
  0
LINE
  5
   408
  8
0
  6
CONTINUOUS
 62
   252
 10
305.110021732911
 20
102.02458190918
 30
0.0
 11
307.883110046387
 21
102.02458190918
 31
0.0
  0
LINE
  5
   409
  8
0
  6
CONTINUOUS
 62
   252
 10
310.883110046387
 20
102.02458190918
 30
0.0
 11
311.283157348633
 21
102.02458190918
 31
0.0
  0
LINE
  5
   40A
  8
0
  6
CONTINUOUS
 62
   252
 10
304.283160400391
 20
100.02458190918
 30
0.0
 11
304.283160400391
 21
102.02458190918
 31
0.0
  0
LINE
  5
   40B
  8
0
  6
CONTINUOUS
 62
   252
 10
319.583160400391
 20
130.52458190918
 30
0.0
 11
320.583160400391
 21
130.52458190918
 31
0.0
  0
LINE
  5
   40C
  8
0
  6
CONTINUOUS
 62
   252
 10
319.583160400391
 20
85.5245819091797
 30
0.0
 11
320.583160400391
 21
85.5245819091797
 31
0.0
  0
LINE
  5
   40D
  8
0
  6
CONTINUOUS
 62
   252
 10
320.583160400391
 20
124.02458190918
 30
0.0
 11
320.583160400391
 21
130.52458190918
 31
0.0
  0
LINE
  5
   40E
  8
0
  6
CONTINUOUS
 62
   252
 10
320.583160400391
 20
85.5245819091797
 30
0.0
 11
320.583160400391
 21
99.5245819091797
 31
0.0
  0
LINE
  5
   40F
  8
0
  6
CONTINUOUS
 62
   252
 10
311.283157348633
 20
124.02458190918
 30
0.0
 11
315.583160400391
 21
124.02458190918
 31
0.0
  0
LINE
  5
   410
  8
0
  6
CONTINUOUS
 62
   252
 10
311.283160400391
 20
121.52458190918
 30
0.0
 11
311.283160400391
 21
124.02458190918
 31
0.0
  0
LINE
  5
   411
  8
0
  6
CONTINUOUS
 62
   252
 10
311.283160400391
 20
102.02458190918
 30
0.0
 11
311.283160400391
 21
121.52458190918
 31
0.0
  0
LINE
  5
   412
  8
0
  6
CONTINUOUS
 62
   252
 10
311.283160400391
 20
100.350057199092
 30
0.0
 11
311.283160400391
 21
102.02458190918
 31
0.0
  0
LINE
  5
   413
  8
0
  6
CONTINUOUS
 62
   252
 10
320.583160400391
 20
99.5245819091797
 30
0.0
 11
320.583160400391
 21
124.02458190918
 31
0.0
  0
LINE
  5
   414
  8
0
  6
CONTINUOUS
 62
   252
 10
315.583160400391
 20
99.5245819091797
 30
0.0
 11
315.583160400391
 21
124.02458190918
 31
0.0
  0
LINE
  5
   415
  8
0
  6
CONTINUOUS
 62
   252
 10
314.326276695126
 20
99.5245819091797
 30
0.0
 11
320.583160400391
 21
99.5245819091797
 31
0.0
  0
LINE
  5
   416
  8
0
  6
CONTINUOUS
 62
   252
 10
315.583160400391
 20
124.02458190918
 30
0.0
 11
320.583160400391
 21
124.02458190918
 31
0.0
  0
LINE
  5
   417
  8
0
  6
CONTINUOUS
 62
   252
 10
298.783160400391
 20
165.724581718445
 30
0.0
 11
298.783160400391
 21
182.02458190918
 31
0.0
  0
LINE
  5
   418
  8
0
  6
CONTINUOUS
 62
   252
 10
298.783160400391
 20
130.52458190918
 30
0.0
 11
298.783160400391
 21
163.724582672119
 31
0.0
  0
LINE
  5
   419
  8
0
  6
CONTINUOUS
 62
   252
 10
298.783160400391
 20
76.3245849609375
 30
0.0
 11
298.783160400391
 21
85.5245819091797
 31
0.0
  0
LINE
  5
   41A
  8
0
  6
CONTINUOUS
 62
   252
 10
298.783160400391
 20
58.0245819091797
 30
0.0
 11
298.783160400391
 21
74.3245849609375
 31
0.0
  0
LINE
  5
   41B
  8
0
  6
CONTINUOUS
 62
   252
 10
304.283075288782
 20
124.02458190918
 30
0.0
 11
311.283157348633
 21
124.02458190918
 31
0.0
  0
LINE
  5
   41C
  8
0
  6
CONTINUOUS
 62
   252
 10
283.583160400391
 20
58.0245819091797
 30
0.0
 11
283.583160400391
 21
60.0245971679688
 31
0.0
  0
LINE
  5
   41D
  8
0
  6
CONTINUOUS
 62
   252
 10
297.583160400391
 20
74.3245849609375
 30
0.0
 11
297.583160400391
 21
76.3245849609375
 31
0.0
  0
LINE
  5
   41E
  8
0
  6
CONTINUOUS
 62
   252
 10
297.583160400391
 20
74.3245819091797
 30
0.0
 11
298.783157348633
 21
74.3245819091797
 31
0.0
  0
LINE
  5
   41F
  8
0
  6
CONTINUOUS
 62
   252
 10
297.583160400391
 20
76.3245819091797
 30
0.0
 11
298.783157348633
 21
76.3245819091797
 31
0.0
  0
LINE
  5
   420
  8
0
  6
CONTINUOUS
 62
   252
 10
297.583160400391
 20
163.724582672119
 30
0.0
 11
297.583160400391
 21
165.724581718445
 31
0.0
  0
LINE
  5
   421
  8
0
  6
CONTINUOUS
 62
   252
 10
297.583160400391
 20
163.72458190918
 30
0.0
 11
298.783157348633
 21
163.72458190918
 31
0.0
  0
LINE
  5
   422
  8
0
  6
CONTINUOUS
 62
   252
 10
297.583160400391
 20
165.72458190918
 30
0.0
 11
298.783157348633
 21
165.72458190918
 31
0.0
  0
LINE
  5
   423
  8
0
  6
CONTINUOUS
 62
     7
 10
283.583159882728
 20
180.024597167956
 30
0.0
 11
283.583159882728
 21
182.02458190918
 31
0.0
  0
LINE
  5
   424
  8
0
  6
CONTINUOUS
 62
     7
 10
228.583002046595
 20
182.02458190918
 30
0.0
 11
283.583160400391
 21
182.02458190918
 31
0.0
  0
LINE
  5
   425
  8
0
  6
CONTINUOUS
 62
     7
 10
228.583145760621
 20
58.0245819091798
 30
0.0
 11
283.583160400391
 21
58.0245819091798
 31
0.0
  0
LINE
  5
   426
  8
0
  6
DASHDOT
 62
     7
 10
302.383109690779
 20
115.32458190918
 30
0.0
 11
313.283157348633
 21
115.32458190918
 31
0.0
  0
LINE
  5
   427
  8
0
  6
CONTINUOUS
 62
     7
 10
316.128976821899
 20
94.8942108154296
 30
0.0
 11
317.599452972412
 21
95.1740798950195
 31
0.0
  0
LINE
  5
   428
  8
0
  6
CONTINUOUS
 62
     7
 10
317.599452972412
 20
95.1740798950195
 30
0.0
 11
318.460199356079
 21
96.3873825073242
 31
0.0
  0
LINE
  5
   429
  8
0
  6
CONTINUOUS
 62
     7
 10
318.240226745606
 20
97.8555984497074
 30
0.0
 11
318.460199356079
 21
96.3873825073246
 31
0.0
  0
LINE
  5
   42A
  8
0
  6
CONTINUOUS
 62
     7
 10
317.068399429321
 20
98.7807540893555
 30
0.0
 11
318.240226745606
 21
97.855598449707
 31
0.0
  0
LINE
  5
   42B
  8
0
  6
CONTINUOUS
 62
     7
 10
304.283075288782
 20
97.412136388198
 30
0.0
 11
316.128976821899
 21
94.8942108154297
 31
0.0
  0
LINE
  5
   42C
  8
0
  6
CONTINUOUS
 62
     7
 10
304.283233642578
 20
102.248856328052
 30
0.0
 11
317.068399429321
 21
98.7807540893554
 31
0.0
  0
LINE
  5
   42D
  8
0
  6
CONTINUOUS
 62
     1
 10
307.883110046387
 20
93.9294357299805
 30
0.0
 11
310.883110046387
 21
93.9207611083984
 31
0.0
  0
LINE
  5
   42E
  8
0
  6
CONTINUOUS
 62
     1
 10
310.883110046387
 20
100.458574800776
 30
0.0
 11
310.883110046387
 21
101.266090393066
 31
0.0
  0
LINE
  5
   42F
  8
0
  6
CONTINUOUS
 62
     1
 10
310.883110046387
 20
102.067565917969
 30
0.0
 11
310.883110046387
 21
103.250732421875
 31
0.0
  0
LINE
  5
   430
  8
0
  6
CONTINUOUS
 62
     1
 10
310.883110046387
 20
101.266090393066
 30
0.0
 11
310.883110046387
 21
102.067565917969
 31
0.0
  0
LINE
  5
   431
  8
0
  6
CONTINUOUS
 62
     1
 10
310.883110046387
 20
103.250732421875
 30
0.0
 11
310.883110046387
 21
105.748344421387
 31
0.0
  0
LINE
  5
   432
  8
0
  6
CONTINUOUS
 62
     1
 10
310.883110046387
 20
110.674591064453
 30
0.0
 11
310.883110046387
 21
115.789375305176
 31
0.0
  0
LINE
  5
   433
  8
0
  6
CONTINUOUS
 62
     1
 10
310.883110046387
 20
115.789375305176
 30
0.0
 11
310.883110046387
 21
115.936347961426
 31
0.0
  0
LINE
  5
   434
  8
0
  6
CONTINUOUS
 62
     1
 10
310.883110046387
 20
115.936347961426
 30
0.0
 11
310.883110046387
 21
122.680335998535
 31
0.0
  0
LINE
  5
   435
  8
0
  6
CONTINUOUS
 62
     1
 10
310.883110046387
 20
122.825794219971
 30
0.0
 11
310.883110046387
 21
123.57084274292
 31
0.0
  0
LINE
  5
   436
  8
0
  6
CONTINUOUS
 62
     1
 10
310.883110046387
 20
122.680335998535
 30
0.0
 11
310.883110046387
 21
122.825794219971
 31
0.0
  0
LINE
  5
   437
  8
0
  6
CONTINUOUS
 62
     1
 10
310.883110046387
 20
123.57084274292
 30
0.0
 11
310.883110046387
 21
124.032516479492
 31
0.0
  0
LINE
  5
   438
  8
0
  6
CONTINUOUS
 62
     1
 10
310.883110046387
 20
124.032516479492
 30
0.0
 11
310.883110046387
 21
124.301319122314
 31
0.0
  0
LINE
  5
   439
  8
0
  6
CONTINUOUS
 62
     1
 10
310.883110046387
 20
93.9207611083984
 30
0.0
 11
310.883110046387
 21
93.9440765380859
 31
0.0
  0
LINE
  5
   43A
  8
0
  6
CONTINUOUS
 62
     1
 10
304.883110046387
 20
110.611030578613
 30
0.0
 11
306.368858337402
 21
110.495315551758
 31
0.0
  0
LINE
  5
   43B
  8
0
  6
CONTINUOUS
 62
     1
 10
306.368858337402
 20
110.495315551758
 30
0.0
 11
307.466331481934
 21
110.200004577637
 31
0.0
  0
LINE
  5
   43C
  8
0
  6
CONTINUOUS
 62
     1
 10
307.466331481934
 20
110.200004577637
 30
0.0
 11
307.883110046387
 21
109.793167114258
 31
0.0
  0
LINE
  5
   43D
  8
0
  6
CONTINUOUS
 62
     1
 10
307.883110046387
 20
124.032516479492
 30
0.0
 11
307.883110046387
 21
124.301319122314
 31
0.0
  0
LINE
  5
   43E
  8
0
  6
CONTINUOUS
 62
     1
 10
307.883110046387
 20
123.57084274292
 30
0.0
 11
307.883110046387
 21
124.032516479492
 31
0.0
  0
LINE
  5
   43F
  8
0
  6
CONTINUOUS
 62
     1
 10
307.883110046387
 20
122.680335998535
 30
0.0
 11
307.883110046387
 21
122.827655792236
 31
0.0
  0
LINE
  5
   440
  8
0
  6
CONTINUOUS
 62
     1
 10
307.883110046387
 20
122.827655792236
 30
0.0
 11
307.883110046387
 21
123.57084274292
 31
0.0
  0
LINE
  5
   441
  8
0
  6
CONTINUOUS
 62
     1
 10
307.883110046387
 20
115.936347961426
 30
0.0
 11
307.883110046387
 21
122.680335998535
 31
0.0
  0
LINE
  5
   442
  8
0
  6
CONTINUOUS
 62
     1
 10
307.883110046387
 20
115.789375305176
 30
0.0
 11
307.883110046387
 21
115.936347961426
 31
0.0
  0
LINE
  5
   443
  8
0
  6
CONTINUOUS
 62
     1
 10
307.883110046387
 20
109.616989135742
 30
0.0
 11
307.883110046387
 21
115.789375305176
 31
0.0
  0
LINE
  5
   444
  8
0
  6
CONTINUOUS
 62
     1
 10
307.883110046387
 20
107.844451904297
 30
0.0
 11
307.883110046387
 21
108.872161865234
 31
0.0
  0
LINE
  5
   445
  8
0
  6
CONTINUOUS
 62
     1
 10
307.883110046387
 20
108.872161865234
 30
0.0
 11
307.883110046387
 21
109.616989135742
 31
0.0
  0
LINE
  5
   446
  8
0
  6
CONTINUOUS
 62
     1
 10
307.883110046387
 20
107.479148864746
 30
0.0
 11
307.883110046387
 21
107.844451904297
 31
0.0
  0
LINE
  5
   447
  8
0
  6
CONTINUOUS
 62
     1
 10
307.883110046387
 20
106.430503845215
 30
0.0
 11
307.883110046387
 21
106.829010009766
 31
0.0
  0
LINE
  5
   448
  8
0
  6
CONTINUOUS
 62
     1
 10
307.883110046387
 20
106.829010009766
 30
0.0
 11
307.883110046387
 21
107.479148864746
 31
0.0
  0
LINE
  5
   449
  8
0
  6
CONTINUOUS
 62
     1
 10
307.883110046387
 20
105.748344421387
 30
0.0
 11
307.883110046387
 21
106.430503845215
 31
0.0
  0
LINE
  5
   44A
  8
0
  6
CONTINUOUS
 62
     1
 10
307.883110046387
 20
103.250732421875
 30
0.0
 11
307.883110046387
 21
105.748344421387
 31
0.0
  0
LINE
  5
   44B
  8
0
  6
CONTINUOUS
 62
     1
 10
307.883110046387
 20
101.272354370759
 30
0.0
 11
307.883110046387
 21
102.139305114746
 31
0.0
  0
LINE
  5
   44C
  8
0
  6
CONTINUOUS
 62
     1
 10
307.883110046387
 20
102.139305114746
 30
0.0
 11
307.883110046387
 21
103.250732421875
 31
0.0
  0
LINE
  5
   44D
  8
0
  6
CONTINUOUS
 62
     1
 10
307.883110046387
 20
93.9294357299805
 30
0.0
 11
307.883110046387
 21
94.3080139160156
 31
0.0
  0
LINE
  5
   44E
  8
0
  6
CONTINUOUS
 62
     1
 10
307.883110046387
 20
94.3080139160156
 30
0.0
 11
307.883110046387
 21
95.5407867431641
 31
0.0
  0
LINE
  5
   44F
  8
0
  6
CONTINUOUS
 62
     1
 10
307.883110046387
 20
95.5407867431641
 30
0.0
 11
307.883110046387
 21
96.646924930574
 31
0.0
  0
LINE
  5
   450
  8
0
  6
CONTINUOUS
 62
     1
 10
307.883110046387
 20
105.748344421387
 30
0.0
 11
310.883110046387
 21
105.748344421387
 31
0.0
  0
LINE
  5
   451
  8
0
  6
CONTINUOUS
 62
     1
 10
310.883110046387
 20
105.748344421387
 30
0.0
 11
310.883110046387
 21
105.853630065918
 31
0.0
  0
LINE
  5
   452
  8
0
  6
CONTINUOUS
 62
     1
 10
310.883110046387
 20
106.036735534668
 30
0.0
 11
310.883110046387
 21
106.430503845215
 31
0.0
  0
LINE
  5
   453
  8
0
  6
CONTINUOUS
 62
     1
 10
310.883110046387
 20
105.853630065918
 30
0.0
 11
310.883110046387
 21
106.036735534668
 31
0.0
  0
LINE
  5
   454
  8
0
  6
CONTINUOUS
 62
     1
 10
310.883110046387
 20
106.430503845215
 30
0.0
 11
310.883110046387
 21
106.828147888184
 31
0.0
  0
LINE
  5
   455
  8
0
  6
CONTINUOUS
 62
     1
 10
310.883110046387
 20
106.828147888184
 30
0.0
 11
310.883110046387
 21
107.479148864746
 31
0.0
  0
LINE
  5
   456
  8
0
  6
CONTINUOUS
 62
     1
 10
310.883110046387
 20
107.479148864746
 30
0.0
 11
310.883110046387
 21
107.844436645508
 31
0.0
  0
LINE
  5
   457
  8
0
  6
CONTINUOUS
 62
     1
 10
310.883110046387
 20
107.844436645508
 30
0.0
 11
310.883110046387
 21
108.876388549805
 31
0.0
  0
LINE
  5
   458
  8
0
  6
CONTINUOUS
 62
     1
 10
310.883110046387
 20
108.876388549805
 30
0.0
 11
310.883110046387
 21
109.616989135742
 31
0.0
  0
LINE
  5
   459
  8
0
  6
CONTINUOUS
 62
     1
 10
307.883110046387
 20
115.789375305176
 30
0.0
 11
310.883110046387
 21
115.789375305176
 31
0.0
  0
LINE
  5
   45A
  8
0
  6
CONTINUOUS
 62
     1
 10
310.883110046387
 20
109.616989135742
 30
0.0
 11
310.883110046387
 21
109.979530334473
 31
0.0
  0
LINE
  5
   45B
  8
0
  6
CONTINUOUS
 62
     1
 10
310.883110046387
 20
109.979530334473
 30
0.0
 11
310.883110046387
 21
110.249458312988
 31
0.0
  0
LINE
  5
   45C
  8
0
  6
CONTINUOUS
 62
     1
 10
310.883110046387
 20
110.249458312988
 30
0.0
 11
310.883110046387
 21
110.404663085938
 31
0.0
  0
LINE
  5
   45D
  8
0
  6
CONTINUOUS
 62
     1
 10
310.883110046387
 20
110.404663085938
 30
0.0
 11
310.883110046387
 21
110.674591064453
 31
0.0
  0
LINE
  5
   45E
  8
0
  6
CONTINUOUS
 62
     1
 10
307.883110046387
 20
115.936347961426
 30
0.0
 11
310.883110046387
 21
115.936347961426
 31
0.0
  0
LINE
  5
   45F
  8
0
  6
CONTINUOUS
 62
     1
 10
307.883110046387
 20
122.680335998535
 30
0.0
 11
310.883110046387
 21
122.680335998535
 31
0.0
  0
LINE
  5
   460
  8
0
  6
CONTINUOUS
 62
     1
 10
307.883110046387
 20
124.032516479492
 30
0.0
 11
310.883110046387
 21
124.032516479492
 31
0.0
  0
LINE
  5
   461
  8
0
  6
CONTINUOUS
 62
     1
 10
310.883110046387
 20
94.4554443359375
 30
0.0
 11
310.883110046387
 21
95.5597686767578
 31
0.0
  0
LINE
  5
   462
  8
0
  6
CONTINUOUS
 62
     1
 10
310.883110046387
 20
95.5597686767578
 30
0.0
 11
310.883110046387
 21
96.0092548725216
 31
0.0
  0
LINE
  5
   463
  8
0
  6
CONTINUOUS
 62
     1
 10
310.883110046387
 20
93.9440765380859
 30
0.0
 11
310.883110046387
 21
94.059944152832
 31
0.0
  0
LINE
  5
   464
  8
0
  6
CONTINUOUS
 62
     1
 10
310.883110046387
 20
94.059944152832
 30
0.0
 11
310.883110046387
 21
94.1704711914062
 31
0.0
  0
LINE
  5
   465
  8
0
  6
CONTINUOUS
 62
     1
 10
310.883110046387
 20
94.1704711914062
 30
0.0
 11
310.883110046387
 21
94.3114700317383
 31
0.0
  0
LINE
  5
   466
  8
0
  6
CONTINUOUS
 62
     1
 10
310.883110046387
 20
94.3114700317383
 30
0.0
 11
310.883110046387
 21
94.4554443359375
 31
0.0
  0
INSERT
  5
   467
  8
0
  6
CONTINUOUS
 62
     7
  2
*UDIM1277
 10
0.0
 20
0.0
 30
0.0
  0
INSERT
  5
   468
  8
0
  6
CONTINUOUS
 62
     7
  2
*UDIM1278
 10
0.0
 20
0.0
 30
0.0
  0
LINE
  5
   469
  8
0
  6
CONTINUOUS
 62
     7
 10
228.583146603901
 20
179.024551510811
 30
0.0
 11
228.583146603901
 21
179.709405213594
 31
0.0
  0
LINE
  5
   46A
  8
0
  6
CONTINUOUS
 62
     7
 10
228.583146603901
 20
179.709405213594
 30
0.0
 11
228.583146603901
 21
180.024551391591
 31
0.0
  0
LINE
  5
   46B
  8
0
  6
CONTINUOUS
 62
     7
 10
228.583146603901
 20
176.024551391602
 30
0.0
 11
228.583146603901
 21
179.024551510811
 31
0.0
  0
LINE
  5
   46C
  8
0
  6
CONTINUOUS
 62
     7
 10
228.583146603901
 20
176.024551391602
 30
0.0
 11
274.083145141602
 21
176.024551391602
 31
0.0
  0
LINE
  5
   46D
  8
0
  6
CONTINUOUS
 62
     7
 10
228.583146603901
 20
175.024551391602
 30
0.0
 11
228.583146603901
 21
175.709404945374
 31
0.0
  0
LINE
  5
   46E
  8
0
  6
CONTINUOUS
 62
     7
 10
228.583146603901
 20
175.709404945374
 30
0.0
 11
228.583146603901
 21
176.024551391602
 31
0.0
  0
LINE
  5
   46F
  8
0
  6
CONTINUOUS
 62
     7
 10
274.083145141602
 20
175.709404945374
 30
0.0
 11
274.083145141602
 21
176.024551391602
 31
0.0
  0
LINE
  5
   470
  8
0
  6
CONTINUOUS
 62
     7
 10
274.083145141602
 20
112.224548339844
 30
0.0
 11
274.083145141602
 21
112.724548339844
 31
0.0
  0
LINE
  5
   471
  8
0
  6
CONTINUOUS
 62
     7
 10
274.083145141602
 20
60.0245971679688
 30
0.0
 11
274.083145141602
 21
180.024597167956
 31
0.0
  0
LINE
  5
   472
  8
0
  6
CONTINUOUS
 62
     7
 10
274.083145141602
 20
102.324554443359
 30
0.0
 11
274.083145141602
 21
102.824554443359
 31
0.0
  0
LINE
  5
   473
  8
0
  6
CONTINUOUS
 62
     7
 10
228.583146603901
 20
64.0245666503906
 30
0.0
 11
228.583146603901
 21
64.3381576538086
 31
0.0
  0
LINE
  5
   474
  8
0
  6
CONTINUOUS
 62
     7
 10
228.583146603901
 20
64.3381576538086
 30
0.0
 11
228.583146603901
 21
65.0245666503906
 31
0.0
  0
LINE
  5
   475
  8
0
  6
CONTINUOUS
 62
     7
 10
228.583146603901
 20
64.0245666503906
 30
0.0
 11
274.083145141602
 21
64.0245666503906
 31
0.0
  0
LINE
  5
   476
  8
0
  6
CONTINUOUS
 62
     7
 10
228.583146603901
 20
61.0245666503906
 30
0.0
 11
228.583146603901
 21
64.0245666503906
 31
0.0
  0
LINE
  5
   477
  8
0
  6
CONTINUOUS
 62
     7
 10
228.583146603901
 20
60.0245666503906
 30
0.0
 11
228.583146603901
 21
60.3381576538086
 31
0.0
  0
LINE
  5
   478
  8
0
  6
CONTINUOUS
 62
     7
 10
228.583146603901
 20
60.3381576538086
 30
0.0
 11
228.583146603901
 21
61.0245666503906
 31
0.0
  0
LINE
  5
   479
  8
0
  6
CONTINUOUS
 62
     7
 10
228.583146603901
 20
60.0245666503906
 30
0.0
 11
274.083145141602
 21
60.0245666503906
 31
0.0
  0
LINE
  5
   47A
  8
0
  6
CONTINUOUS
 62
     7
 10
230.58317565918
 20
102.824554443359
 30
0.0
 11
231.083160400391
 21
103.32453918457
 31
0.0
  0
LINE
  5
   47B
  8
0
  6
CONTINUOUS
 62
     7
 10
230.08317565918
 20
102.324554443359
 30
0.0
 11
274.083145141602
 21
102.324554443359
 31
0.0
  0
LINE
  5
   47C
  8
0
  6
CONTINUOUS
 62
     7
 10
228.583146603901
 20
100.824523925781
 30
0.0
 11
230.08317565918
 21
102.324554443359
 31
0.0
  0
LINE
  5
   47D
  8
0
  6
CONTINUOUS
 62
     7
 10
228.583146603901
 20
58.0245819091798
 30
0.0
 11
228.583146603901
 21
100.824523925781
 31
0.0
  0
LINE
  5
   47E
  8
0
  6
CONTINUOUS
 62
     7
 10
231.083160400391
 20
112.724548339844
 30
0.0
 11
231.083160400391
 21
157.024536132813
 31
0.0
  0
LINE
  5
   47F
  8
0
  6
CONTINUOUS
 62
     7
 10
231.083160400391
 20
112.724548339844
 30
0.0
 11
274.083145141602
 21
112.724548339844
 31
0.0
  0
LINE
  5
   480
  8
0
  6
CONTINUOUS
 62
     7
 10
231.083160400391
 20
103.32453918457
 30
0.0
 11
231.083160400391
 21
112.224548339844
 31
0.0
  0
LINE
  5
   481
  8
0
  6
CONTINUOUS
 62
     7
 10
228.583146603901
 20
159.524549484253
 30
0.0
 11
231.083160400391
 21
157.024536132813
 31
0.0
  0
LINE
  5
   482
  8
0
  6
CONTINUOUS
 62
     7
 10
228.583146603901
 20
159.524549484253
 30
0.0
 11
228.583146603901
 21
203.524551391589
 31
0.0
  0
LINE
  5
   483
  8
0
  6
CONTINUOUS
 62
     7
 10
230.08317565918
 20
102.324554443359
 30
0.0
 11
230.58317565918
 21
102.824554443359
 31
0.0
  0
LINE
  5
   484
  8
0
  6
CONTINUOUS
 62
     7
 10
231.083160400391
 20
112.224548339844
 30
0.0
 11
231.083160400391
 21
112.724548339844
 31
0.0
  0
TEXT
  5
   485
  8
0
  6
CONTINUOUS
 62
     7
 10
207.857273996867
 20
105.905743564315
 30
0.0
 40
3.5
  1
X
 41
0.933333333333334
 72
     1
 11
209.1406073302
 21
107.655743564315
 31
0.0
 73
     2
  0
TEXT
  5
   486
  8
0
  6
CONTINUOUS
 62
     7
 10
332.857025205375
 20
105.905743564315
 30
0.0
 40
3.5
  1
X
 41
0.933333333333334
 72
     1
 11
334.140358538708
 21
107.655743564315
 31
0.0
 73
     2
  0
TEXT
  5
   487
  8
0
  6
CONTINUOUS
 62
     7
 10
2.50053986860487
 20
105.905743564315
 30
0.0
 40
3.5
  1
X
 41
0.933333333333334
 72
     1
 11
3.78387320193821
 21
107.655743564315
 31
0.0
 73
     2
  0
INSERT
  5
   488
  8
0
  6
CONTINUOUS
 62
     7
  2
*UDIM1279
 10
0.0
 20
0.0
 30
0.0
  0
LINE
  5
   489
  8
0
  6
CONTINUOUS
 62
     7
 10
278.583146603901
 20
182.02458190918
 30
0.0
 11
278.583146603901
 21
203.524551391589
 31
0.0
  0
LINE
  5
   48A
  8
0
  6
CONTINUOUS
 62
     7
 10
229.583146603901
 20
204.52455139159
 30
0.0
 11
277.583146603901
 21
204.52455139159
 31
0.0
  0
ARC
  5
   48B
  8
0
  6
CONTINUOUS
 62
     7
 10
277.583146603901
 20
203.524551391589
 30
0.0
 40
1.0
 50
0.0
 51
90.0
  0
ARC
  5
   48C
  8
0
  6
CONTINUOUS
 62
     7
 10
229.583146603901
 20
203.524551391589
 30
0.0
 40
1.0
 50
90.0
 51
180.0
  0
LINE
  5
   48D
  8
0
  6
CONTINUOUS
 62
     7
 10
-18.7572357177619
 20
164.024554884876
 30
0.0
 11
-18.7572357177619
 21
175.024569991082
 31
0.0
  0
LINE
  5
   48E
  8
0
  6
CONTINUOUS
 62
     7
 10
-18.7572143554722
 20
85.5245971679756
 30
0.0
 11
-0.214625466223197
 21
85.5245971679756
 31
0.0
  0
LINE
  5
   48F
  8
0
  6
CONTINUOUS
 62
     7
 10
-18.7572212219258
 20
130.524597167964
 30
0.0
 11
-0.214625466223197
 21
130.524597167964
 31
0.0
  0
LINE
  5
   490
  8
0
  6
CONTINUOUS
 62
     7
 10
-17.757257080072
 20
74.5245854024543
 30
0.0
 11
-0.214625466223197
 21
74.5245854024543
 31
0.0
  0
ARC
  5
   491
  8
0
  6
CONTINUOUS
 62
     7
 10
-15.2572591400104
 20
179.024570143665
 30
0.0
 40
1.0
 50
90.0
 51
180.00000874264
  0
ARC
  5
   492
  8
0
  6
CONTINUOUS
 62
     7
 10
-15.2572591400104
 20
61.0245701436652
 30
0.0
 40
1.0
 50
179.99999125736
 51
270.0
  0
LINE
  5
   493
  8
0
  6
CONTINUOUS
 62
     7
 10
-16.2572340393024
 20
64.0245854024543
 30
0.0
 11
-16.2572340393024
 21
74.5245854024543
 31
0.0
  0
LINE
  5
   494
  8
0
  6
CONTINUOUS
 62
     7
 10
-18.7572129058858
 20
76.0245854024543
 30
0.0
 11
-0.214625466223197
 21
76.0245854024543
 31
0.0
  0
LINE
  5
   495
  8
0
  6
CONTINUOUS
 62
     7
 10
-17.7572340393024
 20
74.5245854024543
 30
0.0
 11
-17.7572340393024
 21
76.0245854024543
 31
0.0
  0
LINE
  5
   496
  8
0
  6
CONTINUOUS
 62
     7
 10
-17.7572662353396
 20
164.024554884876
 30
0.0
 11
-17.7572662353396
 21
165.524554884876
 31
0.0
  0
LINE
  5
   497
  8
0
  6
CONTINUOUS
 62
     7
 10
-17.757257080072
 20
165.524554884876
 30
0.0
 11
-0.214625466223197
 21
165.524554884876
 31
0.0
  0
LINE
  5
   498
  8
0
  6
CONTINUOUS
 62
     7
 10
-18.7572263336127
 20
164.024554884876
 30
0.0
 11
-0.214625466223197
 21
164.024554884876
 31
0.0
  0
LINE
  5
   499
  8
0
  6
CONTINUOUS
 62
     7
 10
-16.2572662353396
 20
176.024570143665
 30
0.0
 11
-16.2572662353396
 21
179.024569991077
 31
0.0
  0
LINE
  5
   49A
  8
0
  6
CONTINUOUS
 62
     7
 10
-17.757258529659
 20
176.024570143665
 30
0.0
 11
-16.2572586822468
 21
176.024570143665
 31
0.0
  0
LINE
  5
   49B
  8
0
  6
CONTINUOUS
 62
     7
 10
-17.7572417449969
 20
64.0245854024543
 30
0.0
 11
-16.2572586822445
 21
64.0245854024543
 31
0.0
  0
ARC
  5
   49C
  8
0
  6
CONTINUOUS
 62
     7
 10
-17.757258529659
 20
175.024570143665
 30
0.0
 40
1.0
 50
90.0
 51
180.00000874264
  0
ARC
  5
   49D
  8
0
  6
CONTINUOUS
 62
     7
 10
-17.7572417449969
 20
65.0245854024543
 30
0.0
 40
1.0
 50
180.00000874264
 51
270.0
  0
LINE
  5
   49E
  8
0
  6
DASHDOT
 62
     7
 10
-22.6650975020364
 20
108.024597167964
 30
0.0
 11
-0.214625466223197
 21
108.024597167964
 31
0.0
  0
CIRCLE
  5
   49F
  8
0
  6
CONTINUOUS
 62
     7
 10
-3.75727772062601
 20
68.8245582771541
 30
0.0
 40
3.0
  0
CIRCLE
  5
   4A0
  8
0
  6
CONTINUOUS
 62
     7
 10
-3.75726215666441
 20
63.0245819091815
 30
0.0
 40
1.25
  0
LINE
  5
   4A1
  8
0
  6
CONTINUOUS
 62
     7
 10
-15.2572591400104
 20
60.0245819091815
 30
0.0
 11
-0.214625466223197
 21
60.0245819091815
 31
0.0
  0
CIRCLE
  5
   4A2
  8
0
  6
CONTINUOUS
 62
     7
 10
-3.75723994904112
 20
177.024557495127
 30
0.0
 40
1.25
  0
CIRCLE
  5
   4A3
  8
0
  6
CONTINUOUS
 62
     7
 10
-3.75727772062601
 20
171.224575023631
 30
0.0
 40
3.0
  0
LINE
  5
   4A4
  8
0
  6
DASHDOT
 62
     7
 10
-16.757277720626
 20
171.224575023631
 30
0.0
 11
-0.214625466223197
 21
171.224575023631
 31
0.0
  0
LINE
  5
   4A5
  8
0
  6
DASHDOT
 62
     7
 10
-3.75727772062601
 20
158.224575023631
 30
0.0
 11
-3.75727772062601
 21
184.224575023631
 31
0.0
  0
LINE
  5
   4A6
  8
0
  6
CONTINUOUS
 62
     7
 10
-15.2572594451842
 20
180.024566650394
 30
0.0
 11
-0.214625466223197
 21
180.024566650394
 31
0.0
  0
LINE
  5
   4A7
  8
0
  6
DASHDOT
 62
     7
 10
-3.75724792480469
 20
56.3245582771541
 30
0.0
 11
-3.75724792480469
 21
81.3245582771541
 31
0.0
  0
LINE
  5
   4A8
  8
0
  6
DASHDOT
 62
     7
 10
-16.2572479248047
 20
68.8245582771541
 30
0.0
 11
-0.214625466223197
 21
68.8245582771541
 31
0.0
  0
LINE
  5
   4A9
  8
0
  6
CONTINUOUS
 62
     7
 10
-16.2572662353396
 20
165.524554884876
 30
0.0
 11
-16.2572662353396
 21
176.024570143665
 31
0.0
  0
LINE
  5
   4AA
  8
0
  6
CONTINUOUS
 62
     7
 10
-16.2572340393024
 20
61.0245702962531
 30
0.0
 11
-16.2572340393024
 21
64.0245854024543
 31
0.0
  0
LINE
  5
   4AB
  8
0
  6
CONTINUOUS
 62
     7
 10
-0.857218128985068
 20
76.0245854024543
 30
0.0
 11
-0.857218128985068
 21
164.024554884876
 31
0.0
  0
LINE
  5
   4AC
  8
0
  6
CONTINUOUS
 62
     7
 10
-1.35721812898507
 20
76.0245854024543
 30
0.0
 11
-1.35721812898507
 21
164.024554884876
 31
0.0
  0
LINE
  5
   4AD
  8
0
  6
CONTINUOUS
 62
     7
 10
-2.65721812898505
 20
76.0245854024543
 30
0.0
 11
-2.65721812898505
 21
164.024554884876
 31
0.0
  0
LINE
  5
   4AE
  8
0
  6
CONTINUOUS
 62
     7
 10
-3.15721812898505
 20
76.0245854024543
 30
0.0
 11
-3.15721812898505
 21
164.024554884876
 31
0.0
  0
LINE
  5
   4AF
  8
0
  6
CONTINUOUS
 62
     7
 10
-4.45721812898506
 20
76.0245854024543
 30
0.0
 11
-4.45721812898506
 21
164.024554884876
 31
0.0
  0
LINE
  5
   4B0
  8
0
  6
CONTINUOUS
 62
     7
 10
-4.45721812898506
 20
76.0245854024543
 30
0.0
 11
-4.45721812898506
 21
164.024554884876
 31
0.0
  0
LINE
  5
   4B1
  8
0
  6
CONTINUOUS
 62
     7
 10
-4.95721812898506
 20
76.0245854024543
 30
0.0
 11
-4.95721812898506
 21
164.024554884876
 31
0.0
  0
LINE
  5
   4B2
  8
0
  6
CONTINUOUS
 62
     7
 10
-6.25721812898507
 20
76.0245854024543
 30
0.0
 11
-6.25721812898507
 21
164.024554884876
 31
0.0
  0
LINE
  5
   4B3
  8
0
  6
CONTINUOUS
 62
     7
 10
-6.75721812898507
 20
76.0245854024543
 30
0.0
 11
-6.75721812898507
 21
164.024554884876
 31
0.0
  0
LINE
  5
   4B4
  8
0
  6
CONTINUOUS
 62
     7
 10
-8.05721812898506
 20
76.0245854024543
 30
0.0
 11
-8.05721812898506
 21
164.024554884876
 31
0.0
  0
LINE
  5
   4B5
  8
0
  6
CONTINUOUS
 62
     7
 10
-8.55721812898506
 20
76.0245854024543
 30
0.0
 11
-8.55721812898506
 21
164.024554884876
 31
0.0
  0
LINE
  5
   4B6
  8
0
  6
CONTINUOUS
 62
     7
 10
-9.85721812898504
 20
76.0245854024543
 30
0.0
 11
-9.85721812898504
 21
164.024554884876
 31
0.0
  0
LINE
  5
   4B7
  8
0
  6
CONTINUOUS
 62
     7
 10
-10.357218128985
 20
76.0245854024543
 30
0.0
 11
-10.357218128985
 21
164.024554884876
 31
0.0
  0
LINE
  5
   4B8
  8
0
  6
CONTINUOUS
 62
     7
 10
-11.6572181289851
 20
76.0245854024543
 30
0.0
 11
-11.6572181289851
 21
164.024554884876
 31
0.0
  0
LINE
  5
   4B9
  8
0
  6
CONTINUOUS
 62
     7
 10
-12.1572181289851
 20
76.0245854024543
 30
0.0
 11
-12.1572181289851
 21
164.024554884876
 31
0.0
  0
LINE
  5
   4BA
  8
0
  6
CONTINUOUS
 62
     7
 10
-13.4572181289851
 20
76.0245854024543
 30
0.0
 11
-13.4572181289851
 21
164.024554884876
 31
0.0
  0
LINE
  5
   4BB
  8
0
  6
CONTINUOUS
 62
     7
 10
-13.9572181289851
 20
76.0245854024543
 30
0.0
 11
-13.9572181289851
 21
164.024554884876
 31
0.0
  0
LINE
  5
   4BC
  8
0
  6
CONTINUOUS
 62
     7
 10
-15.257218128985
 20
76.0245854024543
 30
0.0
 11
-15.257218128985
 21
164.024554884876
 31
0.0
  0
LINE
  5
   4BD
  8
0
  6
CONTINUOUS
 62
     7
 10
-15.7572181289851
 20
76.0245854024543
 30
0.0
 11
-15.7572181289851
 21
164.024554884876
 31
0.0
  0
LINE
  5
   4BE
  8
0
  6
CONTINUOUS
 62
     7
 10
-17.057218128985
 20
76.0245854024543
 30
0.0
 11
-17.057218128985
 21
164.024554884876
 31
0.0
  0
LINE
  5
   4BF
  8
0
  6
CONTINUOUS
 62
     7
 10
-17.5572181289851
 20
76.0245854024543
 30
0.0
 11
-17.5572181289851
 21
164.024554884876
 31
0.0
  0
LINE
  5
   4C0
  8
0
  6
CONTINUOUS
 62
     7
 10
-18.7572357177619
 20
65.0245852498711
 30
0.0
 11
-18.7572357177619
 21
164.024554884876
 31
0.0
  0
INSERT
  5
   4C1
  8
0
  6
CONTINUOUS
 62
     3
  2
*UDIM1280
 10
0.0
 20
0.0
 30
0.0
  0
LINE
  5
   4C2
  8
0
  6
DASHDOT
 62
     7
 10
-3.75723994904112
 20
174.774557495127
 30
0.0
 11
-3.75723994904112
 21
179.274557495127
 31
0.0
  0
LINE
  5
   4C3
  8
0
  6
DASHDOT
 62
     7
 10
-6.00723994904112
 20
177.024557495127
 30
0.0
 11
-1.50723994904112
 21
177.024557495127
 31
0.0
  0
LINE
  5
   4C4
  8
0
  6
DASHDOT
 62
     7
 10
-3.75726215666441
 20
60.7745819091815
 30
0.0
 11
-3.75726215666441
 21
65.2745819091815
 31
0.0
  0
LINE
  5
   4C5
  8
0
  6
DASHDOT
 62
     7
 10
-6.00726215666441
 20
63.0245819091815
 30
0.0
 11
-1.50726215666441
 21
63.0245819091815
 31
0.0
  0
LINE
  5
   4C6
  8
0
  6
CONTINUOUS
 62
     7
 10
179.242774963379
 20
154.52458190918
 30
0.0
 11
190.242774963379
 21
154.52458190918
 31
0.0
  0
LINE
  5
   4C7
  8
0
  6
CONTINUOUS
 62
     7
 10
179.242774963379
 20
152.52458190918
 30
0.0
 11
190.242774963379
 21
152.52458190918
 31
0.0
  0
LINE
  5
   4C8
  8
0
  6
CONTINUOUS
 62
     7
 10
179.242774963379
 20
152.02458190918
 30
0.0
 11
190.242774963379
 21
152.02458190918
 31
0.0
  0
LINE
  5
   4C9
  8
0
  6
CONTINUOUS
 62
     7
 10
179.242774963379
 20
150.02458190918
 30
0.0
 11
190.242774963379
 21
150.02458190918
 31
0.0
  0
LINE
  5
   4CA
  8
0
  6
CONTINUOUS
 62
     7
 10
179.242774963379
 20
149.52458190918
 30
0.0
 11
190.242774963379
 21
149.52458190918
 31
0.0
  0
LINE
  5
   4CB
  8
0
  6
CONTINUOUS
 62
     7
 10
179.242774963379
 20
147.52458190918
 30
0.0
 11
190.242774963379
 21
147.52458190918
 31
0.0
  0
LINE
  5
   4CC
  8
0
  6
CONTINUOUS
 62
     7
 10
179.242774963379
 20
147.02458190918
 30
0.0
 11
190.242774963379
 21
147.02458190918
 31
0.0
  0
LINE
  5
   4CD
  8
0
  6
CONTINUOUS
 62
     7
 10
179.242774963379
 20
145.02458190918
 30
0.0
 11
190.242774963379
 21
145.02458190918
 31
0.0
  0
ARC
  5
   4CE
  8
0
  6
CONTINUOUS
 62
     7
 10
190.242774963379
 20
153.52458190918
 30
0.0
 40
1.0
 50
270.0
 51
450.0
  0
ARC
  5
   4CF
  8
0
  6
CONTINUOUS
 62
     7
 10
190.242774963379
 20
151.02458190918
 30
0.0
 40
1.0
 50
270.0
 51
450.0
  0
ARC
  5
   4D0
  8
0
  6
CONTINUOUS
 62
     7
 10
190.242774963379
 20
148.52458190918
 30
0.0
 40
1.0
 50
270.0
 51
450.0
  0
ARC
  5
   4D1
  8
0
  6
CONTINUOUS
 62
     7
 10
190.242774963379
 20
146.02458190918
 30
0.0
 40
1.0
 50
270.0
 51
450.0
  0
LINE
  5
   4D2
  8
0
  6
CONTINUOUS
 62
   252
 10
97.7486834526062
 20
60.0245513916016
 30
0.0
 11
97.7685561180115
 21
60.0245666503906
 31
0.0
  0
LINE
  5
   4D3
  8
0
  6
CONTINUOUS
 62
   252
 10
12.2428359985352
 20
64.0245666503785
 30
0.0
 11
13.7428359985352
 21
64.0245666503785
 31
0.0
  0
LINE
  5
   4D4
  8
0
  6
CONTINUOUS
 62
   252
 10
11.2428269622744
 20
65.0245666503906
 30
0.0
 11
11.2428269622744
 21
74.5245513916016
 31
0.0
  0
LINE
  5
   4D5
  8
0
  6
CONTINUOUS
 62
   252
 10
38.7428131103522
 20
64.5245823003751
 30
0.0
 11
43.7428131103519
 21
64.5245744753328
 31
0.0
  0
LINE
  5
   4D6
  8
0
  6
CONTINUOUS
 62
   252
 10
43.7428126571107
 20
60.0245513916016
 30
0.0
 11
43.7428126571107
 21
64.5245742797852
 31
0.0
  0
LINE
  5
   4D7
  8
0
  6
CONTINUOUS
 62
   252
 10
68.7428117033993
 20
60.0245513916016
 30
0.0
 11
68.7428117033993
 21
64.5245361328125
 31
0.0
  0
LINE
  5
   4D8
  8
0
  6
CONTINUOUS
 62
   252
 10
68.7428092956546
 20
175.52459795063
 30
0.0
 11
73.7428092956543
 21
175.524605775672
 31
0.0
  0
LINE
  5
   4D9
  8
0
  6
CONTINUOUS
 62
   252
 10
38.7428126571181
 20
60.0245513916016
 30
0.0
 11
38.7428126571181
 21
64.5245819091797
 31
0.0
  0
LINE
  5
   4DA
  8
0
  6
CONTINUOUS
 62
   252
 10
13.7428337524268
 20
61.0245208740234
 30
0.0
 11
13.7428337524268
 21
74.5245513915895
 31
0.0
  0
LINE
  5
   4DB
  8
0
  6
CONTINUOUS
 62
   252
 10
73.7428112030029
 20
60.0245489822907
 30
0.0
 11
97.7486834526062
 21
60.0245489822907
 31
0.0
  0
ARC
  5
   4DC
  8
0
  6
CONTINUOUS
 62
   252
 10
100.242817765959
 20
65.0244800012153
 30
0.0
 40
1.00000000003024
 50
269.999565876102
 51
359.997533280822
  0
ARC
  5
   4DD
  8
0
  6
CONTINUOUS
 62
   252
 10
12.2428482836594
 20
65.0244800016583
 30
0.0
 40
1.00000000003324
 50
179.9950354922
 51
269.999296053234
  0
ARC
  5
   4DE
  8
0
  6
CONTINUOUS
 62
   252
 10
14.7428488939893
 20
61.0244800022017
 30
0.0
 40
1.00000000002911
 50
179.997658247517
 51
270.000135418783
  0
ARC
  5
   4DF
  8
0
  6
CONTINUOUS
 62
   252
 10
97.7428183763037
 20
61.0244800016578
 30
0.0
 40
1.0000000000318
 50
270.336064256589
 51
360.004964681348
  0
ARC
  5
   4E0
  8
0
  6
CONTINUOUS
 62
   252
 10
97.7428003709495
 20
179.02446474232
 30
0.0
 40
1.00000000003177
 50
2.4921472855032E-3
 51
90.0004311808279
  0
ARC
  5
   4E1
  8
0
  6
CONTINUOUS
 62
   252
 10
14.7428542103113
 20
179.024464742868
 30
0.0
 40
1.00000000003172
 50
90.0010433675038
 51
179.995028653691
  0
ARC
  5
   4E2
  8
0
  6
CONTINUOUS
 62
   252
 10
12.2428314989847
 20
175.024464743308
 30
0.0
 40
1.00000000003127
 50
90.000616405554
 51
180.000007731249
  0
ARC
  5
   4E3
  8
0
  6
CONTINUOUS
 62
   252
 10
100.242800981286
 20
175.024464742868
 30
0.0
 40
1.00000000003177
 50
7.64223965368476E-3
 51
90.0008690937733
  0
LINE
  5
   4E4
  8
0
  6
CONTINUOUS
 62
   252
 10
98.7428032347237
 20
61.0245666503906
 30
0.0
 11
98.7428032347237
 21
74.5245513915895
 31
0.0
  0
LINE
  5
   4E5
  8
0
  6
CONTINUOUS
 62
   252
 10
98.7428028583527
 20
64.0245666503785
 30
0.0
 11
100.24276471138
 21
64.0245666503785
 31
0.0
  0
LINE
  5
   4E6
  8
0
  6
CONTINUOUS
 62
   252
 10
73.7428097967385
 20
175.524605751038
 30
0.0
 11
73.7428097967385
 21
180.024551391591
 31
0.0
  0
LINE
  5
   4E7
  8
0
  6
CONTINUOUS
 62
   252
 10
14.7428359985352
 20
180.02455139159
 30
0.0
 11
38.7428131103516
 21
180.02455139159
 31
0.0
  0
LINE
  5
   4E8
  8
0
  6
CONTINUOUS
 62
   252
 10
68.742810749725
 20
175.524598121643
 30
0.0
 11
68.742810749725
 21
180.024551391591
 31
0.0
  0
LINE
  5
   4E9
  8
0
  6
CONTINUOUS
 62
   252
 10
43.7428169250488
 20
180.02455139159
 30
0.0
 11
70.4928117036743
 21
180.02455139159
 31
0.0
  0
LINE
  5
   4EA
  8
0
  6
CONTINUOUS
 62
   252
 10
71.9928117036743
 20
180.02455139159
 30
0.0
 11
97.7427928447723
 21
180.02455139159
 31
0.0
  0
LINE
  5
   4EB
  8
0
  6
CONTINUOUS
 62
   252
 10
98.7427856871222
 20
165.524551391589
 30
0.0
 11
98.7427856871222
 21
179.024508237839
 31
0.0
  0
LINE
  5
   4EC
  8
0
  6
CONTINUOUS
 62
   252
 10
98.742785692215
 20
176.02455139159
 30
0.0
 11
100.242785811424
 21
176.02455139159
 31
0.0
  0
LINE
  5
   4ED
  8
0
  6
CONTINUOUS
 62
   252
 10
12.2428207397461
 20
176.02455139159
 30
0.0
 11
13.7428359985352
 21
176.02455139159
 31
0.0
  0
LINE
  5
   4EE
  8
0
  6
CONTINUOUS
 62
   252
 10
13.7428386109707
 20
165.524551391589
 30
0.0
 11
13.7428386109707
 21
179.024551510811
 31
0.0
  0
LINE
  5
   4EF
  8
0
  6
CONTINUOUS
 62
   252
 10
38.7428117034438
 20
175.524550914764
 30
0.0
 11
38.7428117034438
 21
180.024551391591
 31
0.0
  0
LINE
  5
   4F0
  8
0
  6
CONTINUOUS
 62
   252
 10
38.7428131103514
 20
175.524551000382
 30
0.0
 11
43.7428131103519
 21
175.524558825424
 31
0.0
  0
LINE
  5
   4F1
  8
0
  6
CONTINUOUS
 62
   252
 10
43.7428117040885
 20
175.524559020996
 30
0.0
 11
43.7428117040885
 21
180.024551391591
 31
0.0
  0
LINE
  5
   4F2
  8
0
  6
CONTINUOUS
 62
   252
 10
11.2428269622744
 20
165.524551391602
 30
0.0
 11
11.2428269622744
 21
175.024464607239
 31
0.0
  0
LINE
  5
   4F3
  8
0
  6
CONTINUOUS
 62
   252
 10
68.7428131103503
 20
64.5245353501213
 30
0.0
 11
73.7428112030014
 21
64.524527525082
 31
0.0
  0
LINE
  5
   4F4
  8
0
  6
CONTINUOUS
 62
   252
 10
73.7428117033919
 20
60.0245513916016
 30
0.0
 11
73.7428117033919
 21
64.524528503418
 31
0.0
  0
LINE
  5
   4F5
  8
0
  6
CONTINUOUS
 62
   252
 10
43.7428131103516
 20
60.0245489822907
 30
0.0
 11
68.7428131103516
 21
60.0245489822907
 31
0.0
  0
LINE
  5
   4F6
  8
0
  6
CONTINUOUS
 62
   252
 10
14.7428512573242
 20
60.0245489822907
 30
0.0
 11
38.7428131103516
 21
60.0245489822907
 31
0.0
  0
LINE
  5
   4F7
  8
0
  6
CONTINUOUS
 62
   252
 10
11.2428283691406
 20
165.524551391589
 30
0.0
 11
101.242799025944
 21
165.524551391589
 31
0.0
  0
LINE
  5
   4F8
  8
0
  6
CONTINUOUS
 62
   252
 10
11.2428295436555
 20
164.024551391602
 30
0.0
 11
11.2428295436555
 21
165.524551391602
 31
0.0
  0
LINE
  5
   4F9
  8
0
  6
CONTINUOUS
 62
   252
 10
11.2428283691406
 20
164.024551391589
 30
0.0
 11
101.242801091075
 21
164.024551391589
 31
0.0
  0
LINE
  5
   4FA
  8
0
  6
CONTINUOUS
 62
   252
 10
101.242801091075
 20
163.724582672119
 30
0.0
 11
101.242801091075
 21
164.024551391602
 31
0.0
  0
LINE
  5
   4FB
  8
0
  6
CONTINUOUS
 62
   252
 10
11.2428316087867
 20
130.524566650391
 30
0.0
 11
11.2428316087867
 21
164.024551391602
 31
0.0
  0
LINE
  5
   4FC
  8
0
  6
CONTINUOUS
 62
   252
 10
11.2428436279297
 20
130.524566650379
 30
0.0
 11
101.242774963379
 21
130.524566650379
 31
0.0
  0
LINE
  5
   4FD
  8
0
  6
CONTINUOUS
 62
   252
 10
11.2428436279297
 20
130.22456741333
 30
0.0
 11
11.2428436279297
 21
130.524566650391
 31
0.0
  0
LINE
  5
   4FE
  8
0
  6
CONTINUOUS
 62
   252
 10
11.2428403854826
 20
85.8245697021484
 30
0.0
 11
11.2428403854826
 21
130.22456741333
 31
0.0
  0
LINE
  5
   4FF
  8
0
  6
CONTINUOUS
 62
   252
 10
11.2428436279297
 20
85.5245666503906
 30
0.0
 11
11.2428436279297
 21
85.8245697021484
 31
0.0
  0
LINE
  5
   500
  8
0
  6
CONTINUOUS
 62
   252
 10
11.2428436279297
 20
85.5245666503792
 30
0.0
 11
101.242774963379
 21
85.5245666503792
 31
0.0
  0
LINE
  5
   501
  8
0
  6
CONTINUOUS
 62
   252
 10
101.242801091048
 20
76.0245513916016
 30
0.0
 11
101.242801091048
 21
76.3245849609375
 31
0.0
  0
LINE
  5
   502
  8
0
  6
CONTINUOUS
 62
   252
 10
11.2428316087604
 20
76.0245513916016
 30
0.0
 11
11.2428316087604
 21
85.5245666503906
 31
0.0
  0
LINE
  5
   503
  8
0
  6
CONTINUOUS
 62
   252
 10
11.2428283691406
 20
76.0245513915895
 30
0.0
 11
101.242801091048
 21
76.0245513915895
 31
0.0
  0
LINE
  5
   504
  8
0
  6
CONTINUOUS
 62
   252
 10
11.2428295436555
 20
74.5245513916016
 30
0.0
 11
11.2428295436555
 21
76.0245513916016
 31
0.0
  0
LINE
  5
   505
  8
0
  6
CONTINUOUS
 62
   252
 10
11.2428283691406
 20
74.5245513915895
 30
0.0
 11
101.242799025944
 21
74.5245513915895
 31
0.0
  0
CIRCLE
  5
   506
  8
0
  6
CONTINUOUS
 62
   252
 10
71.2428117034209
 20
70.0245513915886
 30
0.0
 40
4.25000000000082
  0
CIRCLE
  5
   507
  8
0
  6
CONTINUOUS
 62
   252
 10
26.2428684862917
 20
171.024571154422
 30
0.0
 40
3.75000000000004
  0
CIRCLE
  5
   508
  8
0
  6
CONTINUOUS
 62
   252
 10
56.2428684862473
 20
171.024571154422
 30
0.0
 40
3.74999999999999
  0
CIRCLE
  5
   509
  8
0
  6
CONTINUOUS
 62
   252
 10
86.2428684862029
 20
171.024571154422
 30
0.0
 40
3.75
  0
CIRCLE
  5
   50A
  8
0
  6
CONTINUOUS
 62
   252
 10
86.2428121482643
 20
69.0242700707232
 30
0.0
 40
3.7500000000002
  0
CIRCLE
  5
   50B
  8
0
  6
CONTINUOUS
 62
   252
 10
56.2428121486778
 20
69.024418360551
 30
0.0
 40
3.74999999999998
  0
CIRCLE
  5
   50C
  8
0
  6
CONTINUOUS
 62
   252
 10
26.2428121490906
 20
69.0245666503786
 30
0.0
 40
3.75000000000004
  0
LINE
  5
   50D
  8
0
  6
CONTINUOUS
 62
   252
 10
48.742824554427
 20
97.9401329320632
 30
0.0
 11
49.2427749633626
 21
97.9401329320632
 31
0.0
  0
LINE
  5
   50E
  8
0
  6
CONTINUOUS
 62
   252
 10
63.2427749633626
 20
97.9401329320631
 30
0.0
 11
63.7428207397298
 21
97.9401329320631
 31
0.0
  0
LINE
  5
   50F
  8
0
  6
CONTINUOUS
 62
   252
 10
48.7428245544433
 20
122.160567145328
 30
0.0
 11
63.7428169250488
 21
122.160567145328
 31
0.0
  0
LINE
  5
   510
  8
0
  6
CONTINUOUS
 62
   252
 10
63.7428251266149
 20
112.203308105469
 30
0.0
 11
63.7428251266149
 21
123.823795318604
 31
0.0
  0
LINE
  5
   511
  8
0
  6
CONTINUOUS
 62
   252
 10
63.7428251266149
 20
97.2691650390625
 30
0.0
 11
63.7428251266149
 21
106.341934204102
 31
0.0
  0
LINE
  5
   512
  8
0
  6
CONTINUOUS
 62
   252
 10
48.7428251266372
 20
97.1454391479492
 30
0.0
 11
48.7428251266372
 21
123.823795318604
 31
0.0
  0
LINE
  5
   513
  8
0
  6
CONTINUOUS
 62
   252
 10
63.2427749633789
 20
97.1454387019507
 30
0.0
 11
63.5240097045898
 21
97.1454387019507
 31
0.0
  0
LINE
  5
   514
  8
0
  6
CONTINUOUS
 62
   252
 10
48.7428245544434
 20
97.1454387019507
 30
0.0
 11
49.2427749633789
 21
97.1454387019507
 31
0.0
  0
LINE
  5
   515
  8
0
  6
CONTINUOUS
 62
   130
 10
53.4189835935283
 20
103.482659231151
 30
0.0
 11
57.0246663539249
 21
102.910579152991
 31
0.0
  0
ARC
  5
   516
  8
0
  6
CONTINUOUS
 62
   130
 10
57.1813675874498
 20
103.898225204673
 30
0.0
 40
0.999999999994522
 50
260.984524434776
 51
299.484697160587
  0
LINE
  5
   517
  8
0
  6
CONTINUOUS
 62
   130
 10
57.673558671093
 20
103.027738020863
 30
0.0
 11
63.4851293523918
 21
106.313699508676
 31
0.0
  0
ARC
  5
   518
  8
0
  6
CONTINUOUS
 62
   130
 10
64.2234145826714
 20
105.007967944091
 30
0.0
 40
1.50000000000006
 50
29.4846255575321
 51
119.484635939135
  0
LINE
  5
   519
  8
0
  6
CONTINUOUS
 62
   130
 10
65.5291462810263
 20
105.746252937785
 30
0.0
 11
67.9900938007361
 21
101.393806779544
 31
0.0
  0
ARC
  5
   51A
  8
0
  6
CONTINUOUS
 62
   130
 10
66.684359628879
 20
100.6555261605
 30
0.0
 40
1.50000000000007
 50
299.484492926009
 51
389.484433597134
  0
LINE
  5
   51B
  8
0
  6
CONTINUOUS
 62
   130
 10
63.3741914114145
 20
97.0607297554404
 30
0.0
 11
67.4226415999869
 21
99.3497927531232
 31
0.0
  0
ARC
  5
   51C
  8
0
  6
CONTINUOUS
 62
   130
 10
62.8820004928596
 20
97.9312170323955
 30
0.0
 40
0.999999999821211
 50
291.971812800874
 51
299.48468629967
  0
LINE
  5
   51D
  8
0
  6
CONTINUOUS
 62
   130
 10
56.4369680948482
 20
95.4141149659073
 30
0.0
 11
57.9042169596453
 21
92.8191300531359
 31
0.0
  0
ARC
  5
   51E
  8
0
  6
CONTINUOUS
 62
   130
 10
61.3861694765972
 20
94.7878876993931
 30
0.0
 40
4.00000000000003
 50
209.484587103331
 51
299.484557514029
  0
LINE
  5
   51F
  8
0
  6
CONTINUOUS
 62
   130
 10
63.3549253246662
 20
91.3059341657151
 30
0.0
 11
76.1319778866689
 21
98.5302982746492
 31
0.0
  0
LINE
  5
   520
  8
0
  6
CONTINUOUS
 62
   130
 10
66.6823616804514
 20
113.865370963218
 30
0.0
 11
69.2427747291657
 21
114.133783667287
 31
0.0
  0
LINE
  5
   521
  8
0
  6
CONTINUOUS
 62
   130
 10
53.229128994174
 20
106.258683660707
 30
0.0
 11
66.6823616747581
 21
113.865371576806
 31
0.0
  0
LINE
  5
   522
  8
0
  6
CONTINUOUS
 62
   130
 10
76.1319781487255
 20
98.5302985155186
 30
0.0
 11
78.7242622872548
 21
99.5245817795868
 31
0.0
  0
CIRCLE
  5
   523
  8
0
  6
CONTINUOUS
 62
   252
 10
38.042825126868
 20
95.72455139159
 30
0.0
 40
1.20000000000002
  0
CIRCLE
  5
   524
  8
0
  6
CONTINUOUS
 62
   252
 10
72.242773843244
 20
127.224551391592
 30
0.0
 40
1.20000000000006
  0
CIRCLE
  5
   525
  8
0
  6
CONTINUOUS
 62
   252
 10
83.0428251266023
 20
88.7745513915923
 30
0.0
 40
1.34999999999972
  0
CIRCLE
  5
   526
  8
0
  6
CONTINUOUS
 62
   252
 10
94.0428194475956
 20
90.7245513915906
 30
0.0
 40
4.30000000000004
  0
LINE
  5
   527
  8
0
  6
CONTINUOUS
 62
   252
 10
98.273444497806
 20
89.9552220461545
 30
0.0
 11
99.042772376758
 21
90.7245499251066
 31
0.0
  0
LINE
  5
   528
  8
0
  6
CONTINUOUS
 62
   252
 10
89.0427755477158
 20
90.7245496871201
 30
0.0
 11
89.8122305037705
 21
89.9550947310654
 31
0.0
  0
POLYLINE
  5
   529
  8
0
  6
CONTINUOUS
 62
   252
 66
     1
 10
0.0
 20
0.0
 30
0.0
  0
VERTEX
  5
   52A
  8
0
  6
CONTINUOUS
 10
99.0427738432388
 20
90.7245513916002
 30
0.0
 40
0.0
 41
0.0
  0
VERTEX
  5
   52B
  8
0
  6
CONTINUOUS
 10
99.0398160148525
 20
90.8881821691748
 30
0.0
 40
0.0
 41
0.0
  0
VERTEX
  5
   52C
  8
0
  6
CONTINUOUS
 10
99.0316000096382
 20
91.051622871378
 30
0.0
 40
0.0
 41
0.0
  0
VERTEX
  5
   52D
  8
0
  6
CONTINUOUS
 10
99.0181170696215
 20
91.2147022121235
 30
0.0
 40
0.0
 41
0.0
  0
VERTEX
  5
   52E
  8
0
  6
CONTINUOUS
 10
98.9993662196713
 20
91.3772486678184
 30
0.0
 40
0.0
 41
0.0
  0
VERTEX
  5
   52F
  8
0
  6
CONTINUOUS
 10
98.9753540983083
 20
91.5390907330861
 30
0.0
 40
0.0
 41
0.0
  0
VERTEX
  5
   530
  8
0
  6
CONTINUOUS
 10
98.9460947885122
 20
91.7000571708683
 30
0.0
 40
0.0
 41
0.0
  0
VERTEX
  5
   531
  8
0
  6
CONTINUOUS
 10
98.9116096485298
 20
91.8599772569066
 30
0.0
 40
0.0
 41
0.0
  0
VERTEX
  5
   532
  8
0
  6
CONTINUOUS
 10
98.8719271426822
 20
92.0186810186051
 30
0.0
 40
0.0
 41
0.0
  0
VERTEX
  5
   533
  8
0
  6
CONTINUOUS
 10
98.8270826721735
 20
92.1759994682708
 30
0.0
 40
0.0
 41
0.0
  0
VERTEX
  5
   534
  8
0
  6
CONTINUOUS
 10
98.7771184058975
 20
92.3317648307353
 30
0.0
 40
0.0
 41
0.0
  0
VERTEX
  5
   535
  8
0
  6
CONTINUOUS
 10
98.722083111246
 20
92.4858107653554
 30
0.0
 40
0.0
 41
0.0
  0
VERTEX
  5
   536
  8
0
  6
CONTINUOUS
 10
98.6620319849167
 20
92.6379725823937
 30
0.0
 40
0.0
 41
0.0
  0
VERTEX
  5
   537
  8
0
  6
CONTINUOUS
 10
98.5970264837205
 20
92.788087453779
 30
0.0
 40
0.0
 41
0.0
  0
VERTEX
  5
   538
  8
0
  6
CONTINUOUS
 10
98.5271341553895
 20
92.9359946182463
 30
0.0
 40
0.0
 41
0.0
  0
VERTEX
  5
   539
  8
0
  6
CONTINUOUS
 10
98.4524284693846
 20
93.0815355808562
 30
0.0
 40
0.0
 41
0.0
  0
VERTEX
  5
   53A
  8
0
  6
CONTINUOUS
 10
98.3729886477036
 20
93.2245543068951
 30
0.0
 40
0.0
 41
0.0
  0
VERTEX
  5
   53B
  8
0
  6
CONTINUOUS
 10
98.2888994956885
 20
93.3648974101534
 30
0.0
 40
0.0
 41
0.0
  0
VERTEX
  5
   53C
  8
0
  6
CONTINUOUS
 10
98.2002512328334
 20
93.5024143355855
 30
0.0
 40
0.0
 41
0.0
  0
VERTEX
  5
   53D
  8
0
  6
CONTINUOUS
 10
98.1071393235924
 20
93.6369575363475
 30
0.0
 40
0.0
 41
0.0
  0
VERTEX
  5
   53E
  8
0
  6
CONTINUOUS
 10
98.0096643081872
 20
93.7683826452161
 30
0.0
 40
0.0
 41
0.0
  0
VERTEX
  5
   53F
  8
0
  6
CONTINUOUS
 10
97.9079316334149
 20
93.8965486403868
 30
0.0
 40
0.0
 41
0.0
  0
VERTEX
  5
   540
  8
0
  6
CONTINUOUS
 10
97.8020514834556
 20
94.0213180056511
 30
0.0
 40
0.0
 41
0.0
  0
VERTEX
  5
   541
  8
0
  6
CONTINUOUS
 10
97.6921386106804
 20
94.1425568849547
 30
0.0
 40
0.0
 41
0.0
  0
VERTEX
  5
   542
  8
0
  6
CONTINUOUS
 10
97.5783121664589
 20
94.2601352313345
 30
0.0
 40
0.0
 41
0.0
  0
VERTEX
  5
   543
  8
0
  6
CONTINUOUS
 10
97.4606955319672
 20
94.3739269502355
 30
0.0
 40
0.0
 41
0.0
  0
VERTEX
  5
   544
  8
0
  6
CONTINUOUS
 10
97.3394161489953
 20
94.4838100372077
 30
0.0
 40
0.0
 41
0.0
  0
VERTEX
  5
   545
  8
0
  6
CONTINUOUS
 10
97.2146053507552
 20
94.5896667099825
 30
0.0
 40
0.0
 41
0.0
  0
VERTEX
  5
   546
  8
0
  6
CONTINUOUS
 10
97.0863981926886
 20
94.6913835349288
 30
0.0
 40
0.0
 41
0.0
  0
VERTEX
  5
   547
  8
0
  6
CONTINUOUS
 10
96.9549332832742
 20
94.7888515478891
 30
0.0
 40
0.0
 41
0.0
  0
VERTEX
  5
   548
  8
0
  6
CONTINUOUS
 10
96.8203526148361
 20
94.8819663693948
 30
0.0
 40
0.0
 41
0.0
  0
VERTEX
  5
   549
  8
0
  6
CONTINUOUS
 10
96.682801394351
 20
94.9706283142619
 30
0.0
 40
0.0
 41
0.0
  0
VERTEX
  5
   54A
  8
0
  6
CONTINUOUS
 10
96.5424278742564
 20
95.0547424955658
 30
0.0
 40
0.0
 41
0.0
  0
VERTEX
  5
   54B
  8
0
  6
CONTINUOUS
 10
96.3993831832581
 20
95.1342189229961
 30
0.0
 40
0.0
 41
0.0
  0
VERTEX
  5
   54C
  8
0
  6
CONTINUOUS
 10
96.2538211571376
 20
95.2089725955916
 30
0.0
 40
0.0
 41
0.0
  0
VERTEX
  5
   54D
  8
0
  6
CONTINUOUS
 10
96.1058981695608
 20
95.2789235888539
 30
0.0
 40
0.0
 41
0.0
  0
VERTEX
  5
   54E
  8
0
  6
CONTINUOUS
 10
95.9557729628847
 20
95.3439971362418
 30
0.0
 40
0.0
 41
0.0
  0
VERTEX
  5
   54F
  8
0
  6
CONTINUOUS
 10
95.8036064789657
 20
95.4041237050448
 30
0.0
 40
0.0
 41
0.0
  0
VERTEX
  5
   550
  8
0
  6
CONTINUOUS
 10
95.6495616899674
 20
95.4592390666367
 30
0.0
 40
0.0
 41
0.0
  0
VERTEX
  5
   551
  8
0
  6
CONTINUOUS
 10
95.4938034291682
 20
95.5092843611086
 30
0.0
 40
0.0
 41
0.0
  0
VERTEX
  5
   552
  8
0
  6
CONTINUOUS
 10
95.3364982217687
 20
95.5542061562819
 30
0.0
 40
0.0
 41
0.0
  0
VERTEX
  5
   553
  8
0
  6
CONTINUOUS
 10
95.1778141157003
 20
95.5939565011009
 30
0.0
 40
0.0
 41
0.0
  0
VERTEX
  5
   554
  8
0
  6
CONTINUOUS
 10
95.0179205124321
 20
95.6284929734049
 30
0.0
 40
0.0
 41
0.0
  0
VERTEX
  5
   555
  8
0
  6
CONTINUOUS
 10
94.856987997779
 20
95.6577787220806
 30
0.0
 40
0.0
 41
0.0
  0
VERTEX
  5
   556
  8
0
  6
CONTINUOUS
 10
94.6951881727095
 20
95.6817825035938
 30
0.0
 40
0.0
 41
0.0
  0
VERTEX
  5
   557
  8
0
  6
CONTINUOUS
 10
94.5326934841534
 20
95.7004787129007
 30
0.0
 40
0.0
 41
0.0
  0
VERTEX
  5
   558
  8
0
  6
CONTINUOUS
 10
94.3696770558094
 20
95.7138474087393
 30
0.0
 40
0.0
 41
0.0
  0
VERTEX
  5
   559
  8
0
  6
CONTINUOUS
 10
94.206312518953
 20
95.7218743333003
 30
0.0
 40
0.0
 41
0.0
  0
VERTEX
  5
   55A
  8
0
  6
CONTINUOUS
 10
94.0427738432444
 20
95.724550926278
 30
0.0
 40
0.0
 41
0.0
  0
VERTEX
  5
   55B
  8
0
  6
CONTINUOUS
 10
93.8792351675357
 20
95.7218743333004
 30
0.0
 40
0.0
 41
0.0
  0
VERTEX
  5
   55C
  8
0
  6
CONTINUOUS
 10
93.7158706306794
 20
95.7138474087394
 30
0.0
 40
0.0
 41
0.0
  0
VERTEX
  5
   55D
  8
0
  6
CONTINUOUS
 10
93.5528542023354
 20
95.7004787129008
 30
0.0
 40
0.0
 41
0.0
  0
VERTEX
  5
   55E
  8
0
  6
CONTINUOUS
 10
93.3903595137792
 20
95.681782503594
 30
0.0
 40
0.0
 41
0.0
  0
VERTEX
  5
   55F
  8
0
  6
CONTINUOUS
 10
93.2285596887097
 20
95.6577787220809
 30
0.0
 40
0.0
 41
0.0
  0
VERTEX
  5
   560
  8
0
  6
CONTINUOUS
 10
93.0676271740566
 20
95.6284929734052
 30
0.0
 40
0.0
 41
0.0
  0
VERTEX
  5
   561
  8
0
  6
CONTINUOUS
 10
92.9077335707884
 20
95.5939565011012
 30
0.0
 40
0.0
 41
0.0
  0
VERTEX
  5
   562
  8
0
  6
CONTINUOUS
 10
92.7490494647199
 20
95.5542061562823
 30
0.0
 40
0.0
 41
0.0
  0
VERTEX
  5
   563
  8
0
  6
CONTINUOUS
 10
92.5917442573205
 20
95.509284361109
 30
0.0
 40
0.0
 41
0.0
  0
VERTEX
  5
   564
  8
0
  6
CONTINUOUS
 10
92.4359859965212
 20
95.4592390666372
 30
0.0
 40
0.0
 41
0.0
  0
VERTEX
  5
   565
  8
0
  6
CONTINUOUS
 10
92.281941207523
 20
95.4041237050453
 30
0.0
 40
0.0
 41
0.0
  0
VERTEX
  5
   566
  8
0
  6
CONTINUOUS
 10
92.129774723604
 20
95.3439971362424
 30
0.0
 40
0.0
 41
0.0
  0
VERTEX
  5
   567
  8
0
  6
CONTINUOUS
 10
91.9796495169278
 20
95.2789235888546
 30
0.0
 40
0.0
 41
0.0
  0
VERTEX
  5
   568
  8
0
  6
CONTINUOUS
 10
91.8317265293509
 20
95.2089725955923
 30
0.0
 40
0.0
 41
0.0
  0
VERTEX
  5
   569
  8
0
  6
CONTINUOUS
 10
91.6861645032305
 20
95.1342189229968
 30
0.0
 40
0.0
 41
0.0
  0
VERTEX
  5
   56A
  8
0
  6
CONTINUOUS
 10
91.5431198122321
 20
95.0547424955665
 30
0.0
 40
0.0
 41
0.0
  0
VERTEX
  5
   56B
  8
0
  6
CONTINUOUS
 10
91.4027462921375
 20
94.9706283142627
 30
0.0
 40
0.0
 41
0.0
  0
VERTEX
  5
   56C
  8
0
  6
CONTINUOUS
 10
91.2651950716524
 20
94.8819663693957
 30
0.0
 40
0.0
 41
0.0
  0
VERTEX
  5
   56D
  8
0
  6
CONTINUOUS
 10
91.1306144032143
 20
94.78885154789
 30
0.0
 40
0.0
 41
0.0
  0
VERTEX
  5
   56E
  8
0
  6
CONTINUOUS
 10
90.9991494937999
 20
94.6913835349297
 30
0.0
 40
0.0
 41
0.0
  0
VERTEX
  5
   56F
  8
0
  6
CONTINUOUS
 10
90.8709423357332
 20
94.5896667099834
 30
0.0
 40
0.0
 41
0.0
  0
VERTEX
  5
   570
  8
0
  6
CONTINUOUS
 10
90.7461315374931
 20
94.4838100372086
 30
0.0
 40
0.0
 41
0.0
  0
VERTEX
  5
   571
  8
0
  6
CONTINUOUS
 10
90.6248521545212
 20
94.3739269502365
 30
0.0
 40
0.0
 41
0.0
  0
VERTEX
  5
   572
  8
0
  6
CONTINUOUS
 10
90.5072355200294
 20
94.2601352313355
 30
0.0
 40
0.0
 41
0.0
  0
VERTEX
  5
   573
  8
0
  6
CONTINUOUS
 10
90.3934090758079
 20
94.1425568849558
 30
0.0
 40
0.0
 41
0.0
  0
VERTEX
  5
   574
  8
0
  6
CONTINUOUS
 10
90.2834962030326
 20
94.0213180056522
 30
0.0
 40
0.0
 41
0.0
  0
VERTEX
  5
   575
  8
0
  6
CONTINUOUS
 10
90.1776160530733
 20
93.8965486403879
 30
0.0
 40
0.0
 41
0.0
  0
VERTEX
  5
   576
  8
0
  6
CONTINUOUS
 10
90.0758833783009
 20
93.7683826452173
 30
0.0
 40
0.0
 41
0.0
  0
VERTEX
  5
   577
  8
0
  6
CONTINUOUS
 10
89.9784083628957
 20
93.6369575363487
 30
0.0
 40
0.0
 41
0.0
  0
VERTEX
  5
   578
  8
0
  6
CONTINUOUS
 10
89.8852964536547
 20
93.5024143355867
 30
0.0
 40
0.0
 41
0.0
  0
VERTEX
  5
   579
  8
0
  6
CONTINUOUS
 10
89.7966481907996
 20
93.3648974101547
 30
0.0
 40
0.0
 41
0.0
  0
VERTEX
  5
   57A
  8
0
  6
CONTINUOUS
 10
89.7125590387844
 20
93.2245543068964
 30
0.0
 40
0.0
 41
0.0
  0
VERTEX
  5
   57B
  8
0
  6
CONTINUOUS
 10
89.6331192171033
 20
93.0815355808575
 30
0.0
 40
0.0
 41
0.0
  0
VERTEX
  5
   57C
  8
0
  6
CONTINUOUS
 10
89.5584135310984
 20
92.9359946182476
 30
0.0
 40
0.0
 41
0.0
  0
VERTEX
  5
   57D
  8
0
  6
CONTINUOUS
 10
89.4885212027674
 20
92.7880874537804
 30
0.0
 40
0.0
 41
0.0
  0
VERTEX
  5
   57E
  8
0
  6
CONTINUOUS
 10
89.4235157015711
 20
92.6379725823951
 30
0.0
 40
0.0
 41
0.0
  0
VERTEX
  5
   57F
  8
0
  6
CONTINUOUS
 10
89.3634645752418
 20
92.4858107653568
 30
0.0
 40
0.0
 41
0.0
  0
VERTEX
  5
   580
  8
0
  6
CONTINUOUS
 10
89.3084292805903
 20
92.3317648307367
 30
0.0
 40
0.0
 41
0.0
  0
VERTEX
  5
   581
  8
0
  6
CONTINUOUS
 10
89.2584650143142
 20
92.1759994682723
 30
0.0
 40
0.0
 41
0.0
  0
VERTEX
  5
   582
  8
0
  6
CONTINUOUS
 10
89.2136205438054
 20
92.0186810186065
 30
0.0
 40
0.0
 41
0.0
  0
VERTEX
  5
   583
  8
0
  6
CONTINUOUS
 10
89.1739380379578
 20
91.8599772569081
 30
0.0
 40
0.0
 41
0.0
  0
VERTEX
  5
   584
  8
0
  6
CONTINUOUS
 10
89.1394528979753
 20
91.7000571708697
 30
0.0
 40
0.0
 41
0.0
  0
VERTEX
  5
   585
  8
0
  6
CONTINUOUS
 10
89.1101935881792
 20
91.5390907330876
 30
0.0
 40
0.0
 41
0.0
  0
VERTEX
  5
   586
  8
0
  6
CONTINUOUS
 10
89.0861814668161
 20
91.3772486678199
 30
0.0
 40
0.0
 41
0.0
  0
VERTEX
  5
   587
  8
0
  6
CONTINUOUS
 10
89.0674306168659
 20
91.214702212125
 30
0.0
 40
0.0
 41
0.0
  0
VERTEX
  5
   588
  8
0
  6
CONTINUOUS
 10
89.0539476768491
 20
91.0516228713795
 30
0.0
 40
0.0
 41
0.0
  0
VERTEX
  5
   589
  8
0
  6
CONTINUOUS
 10
89.0457316716348
 20
90.8881821691763
 30
0.0
 40
0.0
 41
0.0
  0
VERTEX
  5
   58A
  8
0
  6
CONTINUOUS
 10
89.0427738432485
 20
90.7245513916017
 30
0.0
 40
0.0
 41
0.0
  0
SEQEND
  5
   58B
  8
0
  6
CONTINUOUS
 62
   252
  0
LINE
  5
   58C
  8
0
  6
CONTINUOUS
 62
   252
 10
86.0428251267581
 20
92.0245513916016
 30
0.0
 11
86.0428251267581
 21
93.5245513916016
 31
0.0
  0
LINE
  5
   58D
  8
0
  6
CONTINUOUS
 62
   252
 10
64.6258773803711
 20
92.0245513915895
 30
0.0
 11
86.0428247451782
 21
92.0245513915895
 31
0.0
  0
LINE
  5
   58E
  8
0
  6
CONTINUOUS
 62
   252
 10
12.2428283691406
 20
92.0245513915895
 30
0.0
 11
30.7428251266372
 21
92.0245513915895
 31
0.0
  0
LINE
  5
   58F
  8
0
  6
CONTINUOUS
 62
   252
 10
12.2428251268674
 20
92.0245513916016
 30
0.0
 11
12.2428251268674
 21
93.5245513916016
 31
0.0
  0
LINE
  5
   590
  8
0
  6
CONTINUOUS
 62
   252
 10
12.2428283691406
 20
93.5245513915895
 30
0.0
 11
57.5053596496582
 21
93.5245513915895
 31
0.0
  0
LINE
  5
   591
  8
0
  6
CONTINUOUS
 62
   252
 10
67.2787857055664
 20
93.5245513915895
 30
0.0
 11
86.0428247451782
 21
93.5245513915895
 31
0.0
  0
LINE
  5
   592
  8
0
  6
CONTINUOUS
 62
   252
 10
67.7428251267852
 20
122.524551391602
 30
0.0
 11
67.7428251267852
 21
124.024551391602
 31
0.0
  0
LINE
  5
   593
  8
0
  6
CONTINUOUS
 62
   252
 10
12.2428283691406
 20
124.024551391589
 30
0.0
 11
69.2427749633789
 21
124.024551391589
 31
0.0
  0
LINE
  5
   594
  8
0
  6
CONTINUOUS
 62
   252
 10
67.7428245544434
 20
122.524551391589
 30
0.0
 11
69.2427749633789
 21
122.524551391589
 31
0.0
  0
LINE
  5
   595
  8
0
  6
CONTINUOUS
 62
   252
 10
44.7428251268193
 20
122.524551391602
 30
0.0
 11
44.7428251268193
 21
124.024551391602
 31
0.0
  0
LINE
  5
   596
  8
0
  6
CONTINUOUS
 62
   252
 10
12.2428251268674
 20
122.524551391602
 30
0.0
 11
12.2428251268674
 21
124.024551391602
 31
0.0
  0
LINE
  5
   597
  8
0
  6
CONTINUOUS
 62
   252
 10
12.2428283691406
 20
122.524551391589
 30
0.0
 11
44.7428245544434
 21
122.524551391589
 31
0.0
  0
LINE
  5
   598
  8
0
  6
CONTINUOUS
 62
   252
 10
12.492816349995
 20
151.524551391602
 30
0.0
 11
12.492816349995
 21
162.024551391602
 31
0.0
  0
LINE
  5
   599
  8
0
  6
CONTINUOUS
 62
   252
 10
12.4928131103516
 20
151.524551391589
 30
0.0
 11
99.9928163290024
 21
151.524551391589
 31
0.0
  0
LINE
  5
   59A
  8
0
  6
CONTINUOUS
 62
   252
 10
99.9928163498654
 20
151.524551391602
 30
0.0
 11
99.9928163498654
 21
162.024551391602
 31
0.0
  0
LINE
  5
   59B
  8
0
  6
CONTINUOUS
 62
   252
 10
12.4928131103516
 20
162.024551391589
 30
0.0
 11
99.9928163290024
 21
162.024551391589
 31
0.0
  0
CIRCLE
  5
   59C
  8
0
  6
CONTINUOUS
 62
   252
 10
41.2428117036743
 20
170.024436819844
 30
0.0
 40
4.25000000000072
  0
LINE
  5
   59D
  8
0
  6
CONTINUOUS
 62
   252
 10
71.2427768707275
 20
172.274544239044
 30
0.0
 11
71.2447185516357
 21
172.273721694946
 31
0.0
  0
ARC
  5
   59E
  8
0
  6
CONTINUOUS
 62
   130
 10
53.575684460916
 20
104.470305340929
 30
0.0
 40
0.999999999999915
 50
170.984518027921
 51
260.984545675236
  0
LINE
  5
   59F
  8
0
  6
CONTINUOUS
 62
   252
 10
100.242774963379
 20
99.5245819091797
 30
0.0
 11
101.242774963379
 21
99.5245819091797
 31
0.0
  0
LINE
  5
   5A0
  8
0
  6
CONTINUOUS
 62
   252
 10
100.242774963379
 20
124.02458190918
 30
0.0
 11
101.242774963379
 21
124.02458190918
 31
0.0
  0
LINE
  5
   5A1
  8
0
  6
CONTINUOUS
 62
   252
 10
101.242774963375
 20
124.02458190918
 30
0.0
 11
101.242774963375
 21
130.52458190918
 31
0.0
  0
LINE
  5
   5A2
  8
0
  6
CONTINUOUS
 62
   252
 10
101.242774963375
 20
99.5245819091797
 30
0.0
 11
101.242774963375
 21
124.02458190918
 31
0.0
  0
LINE
  5
   5A3
  8
0
  6
CONTINUOUS
 62
   252
 10
101.242774963375
 20
85.5245819091797
 30
0.0
 11
101.242774963375
 21
99.5245819091797
 31
0.0
  0
LINE
  5
   5A4
  8
0
  6
CONTINUOUS
 62
   252
 10
102.242774963379
 20
130.52458190918
 30
0.0
 11
179.242774963379
 21
130.52458190918
 31
0.0
  0
LINE
  5
   5A5
  8
0
  6
CONTINUOUS
 62
   252
 10
102.242774963379
 20
85.5245819091797
 30
0.0
 11
179.242774963379
 21
85.5245819091797
 31
0.0
  0
LINE
  5
   5A6
  8
0
  6
CONTINUOUS
 62
   252
 10
87.9030294418335
 20
99.5245819091797
 30
0.0
 11
100.242774963379
 21
99.5245819091797
 31
0.0
  0
LINE
  5
   5A7
  8
0
  6
CONTINUOUS
 62
   252
 10
87.9030294418335
 20
124.02458190918
 30
0.0
 11
100.242774963379
 21
124.02458190918
 31
0.0
  0
LINE
  5
   5A8
  8
0
  6
CONTINUOUS
 62
   252
 10
101.242774963379
 20
130.52458190918
 30
0.0
 11
102.242774963379
 21
130.52458190918
 31
0.0
  0
LINE
  5
   5A9
  8
0
  6
CONTINUOUS
 62
   252
 10
101.242774963379
 20
85.5245819091797
 30
0.0
 11
102.242774963379
 21
85.5245819091797
 31
0.0
  0
LINE
  5
   5AA
  8
0
  6
CONTINUOUS
 62
   252
 10
102.742774963379
 20
92.0245819091797
 30
0.0
 11
102.742774963379
 21
93.5245819091797
 31
0.0
  0
LINE
  5
   5AB
  8
0
  6
CONTINUOUS
 62
   252
 10
102.742774963379
 20
93.5245819091797
 30
0.0
 11
177.742774963379
 21
93.5245819091797
 31
0.0
  0
LINE
  5
   5AC
  8
0
  6
CONTINUOUS
 62
   252
 10
102.742774963379
 20
92.0245819091797
 30
0.0
 11
177.742774963379
 21
92.0245819091797
 31
0.0
  0
LINE
  5
   5AD
  8
0
  6
CONTINUOUS
 62
   252
 10
177.742774963379
 20
92.0245819091797
 30
0.0
 11
177.742774963379
 21
93.5245819091797
 31
0.0
  0
LINE
  5
   5AE
  8
0
  6
CONTINUOUS
 62
   252
 10
102.742774963379
 20
122.52458190918
 30
0.0
 11
102.742774963379
 21
124.02458190918
 31
0.0
  0
LINE
  5
   5AF
  8
0
  6
CONTINUOUS
 62
   252
 10
102.742774963379
 20
124.02458190918
 30
0.0
 11
177.742774963379
 21
124.02458190918
 31
0.0
  0
LINE
  5
   5B0
  8
0
  6
CONTINUOUS
 62
   252
 10
102.742774963379
 20
122.52458190918
 30
0.0
 11
177.742774963379
 21
122.52458190918
 31
0.0
  0
LINE
  5
   5B1
  8
0
  6
CONTINUOUS
 62
   252
 10
177.742774963379
 20
122.52458190918
 30
0.0
 11
177.742774963379
 21
124.02458190918
 31
0.0
  0
LINE
  5
   5B2
  8
0
  6
CONTINUOUS
 62
   252
 10
87.9030290012233
 20
99.5245819091797
 30
0.0
 11
87.9030290012233
 21
124.02458190918
 31
0.0
  0
LINE
  5
   5B3
  8
0
  6
CONTINUOUS
 62
   252
 10
69.2427749633789
 20
99.5245819091797
 30
0.0
 11
69.2427749633789
 21
124.02458190918
 31
0.0
  0
LINE
  5
   5B4
  8
0
  6
CONTINUOUS
 62
   252
 10
69.2427749633789
 20
99.5245819091797
 30
0.0
 11
87.9030294418335
 21
99.5245819091797
 31
0.0
  0
LINE
  5
   5B5
  8
0
  6
CONTINUOUS
 62
   252
 10
69.2427749633789
 20
124.02458190918
 30
0.0
 11
87.9030294418335
 21
124.02458190918
 31
0.0
  0
LINE
  5
   5B6
  8
0
  6
CONTINUOUS
 62
   252
 10
179.242774963379
 20
165.724581718445
 30
0.0
 11
179.242774963379
 21
180.72458190918
 31
0.0
  0
LINE
  5
   5B7
  8
0
  6
CONTINUOUS
 62
   252
 10
101.242774963379
 20
165.724581718445
 30
0.0
 11
101.242774963379
 21
180.72458190918
 31
0.0
  0
LINE
  5
   5B8
  8
0
  6
CONTINUOUS
 62
   252
 10
179.242774963379
 20
130.52458190918
 30
0.0
 11
179.242774963379
 21
163.724582672119
 31
0.0
  0
LINE
  5
   5B9
  8
0
  6
CONTINUOUS
 62
   252
 10
101.242774963379
 20
130.52458190918
 30
0.0
 11
101.242774963379
 21
163.724582672119
 31
0.0
  0
LINE
  5
   5BA
  8
0
  6
CONTINUOUS
 62
   252
 10
179.242774963379
 20
76.3245849609375
 30
0.0
 11
179.242774963379
 21
85.5245819091797
 31
0.0
  0
LINE
  5
   5BB
  8
0
  6
CONTINUOUS
 62
   252
 10
101.242774963379
 20
76.3245849609375
 30
0.0
 11
101.242774963379
 21
85.5245666503906
 31
0.0
  0
LINE
  5
   5BC
  8
0
  6
CONTINUOUS
 62
   252
 10
179.242774963379
 20
59.3245819091797
 30
0.0
 11
179.242774963379
 21
74.3245849609375
 31
0.0
  0
LINE
  5
   5BD
  8
0
  6
CONTINUOUS
 62
   252
 10
101.242774963379
 20
59.3245819091797
 30
0.0
 11
101.242774963379
 21
74.3245849609375
 31
0.0
  0
LINE
  5
   5BE
  8
0
  6
CONTINUOUS
 62
   252
 10
101.242774963379
 20
163.72458190918
 30
0.0
 11
171.151893615723
 21
163.72458190918
 31
0.0
  0
LINE
  5
   5BF
  8
0
  6
CONTINUOUS
 62
   252
 10
175.333946228027
 20
163.72458190918
 30
0.0
 11
179.242774963379
 21
163.72458190918
 31
0.0
  0
LINE
  5
   5C0
  8
0
  6
CONTINUOUS
 62
   252
 10
101.242774963379
 20
76.3245819091797
 30
0.0
 11
105.15181517601
 21
76.3245819091797
 31
0.0
  0
LINE
  5
   5C1
  8
0
  6
CONTINUOUS
 62
   252
 10
109.334010124207
 20
76.3245819091797
 30
0.0
 11
179.242774963379
 21
76.3245819091797
 31
0.0
  0
LINE
  5
   5C2
  8
0
  6
CONTINUOUS
 62
   252
 10
167.492774963379
 20
97.7706527709961
 30
0.0
 11
167.492774963379
 21
118.270652770996
 31
0.0
  0
LINE
  5
   5C3
  8
0
  6
CONTINUOUS
 62
   252
 10
167.492774963379
 20
97.7706507893453
 30
0.0
 11
169.992774963379
 21
97.7706507893453
 31
0.0
  0
LINE
  5
   5C4
  8
0
  6
CONTINUOUS
 62
   252
 10
167.492774963379
 20
118.270650789345
 30
0.0
 11
169.992774963379
 21
118.270650789345
 31
0.0
  0
LINE
  5
   5C5
  8
0
  6
CONTINUOUS
 62
   252
 10
169.992774963379
 20
97.7706527709961
 30
0.0
 11
169.992774963379
 21
118.270652770996
 31
0.0
  0
LINE
  5
   5C6
  8
0
  6
CONTINUOUS
 62
   252
 10
101.242774963379
 20
74.3245849609375
 30
0.0
 11
101.242774963379
 21
76.0245513916016
 31
0.0
  0
LINE
  5
   5C7
  8
0
  6
CONTINUOUS
 62
   252
 10
101.242774963379
 20
74.3245819091797
 30
0.0
 11
179.242774963379
 21
74.3245819091797
 31
0.0
  0
LINE
  5
   5C8
  8
0
  6
CONTINUOUS
 62
   252
 10
179.242774963379
 20
74.3245849609375
 30
0.0
 11
179.242774963379
 21
76.3245849609375
 31
0.0
  0
LINE
  5
   5C9
  8
0
  6
CONTINUOUS
 62
   252
 10
101.242774963379
 20
164.024551391602
 30
0.0
 11
101.242774963379
 21
165.724581718445
 31
0.0
  0
LINE
  5
   5CA
  8
0
  6
CONTINUOUS
 62
   252
 10
101.242774963379
 20
165.72458190918
 30
0.0
 11
179.242774963379
 21
165.72458190918
 31
0.0
  0
LINE
  5
   5CB
  8
0
  6
CONTINUOUS
 62
   252
 10
179.242774963379
 20
163.724582672119
 30
0.0
 11
179.242774963379
 21
165.724581718445
 31
0.0
  0
LINE
  5
   5CC
  8
0
  6
CONTINUOUS
 62
   252
 10
102.542774963379
 20
58.0245819091797
 30
0.0
 11
177.942774963379
 21
58.0245819091797
 31
0.0
  0
LINE
  5
   5CD
  8
0
  6
CONTINUOUS
 62
   252
 10
102.542774963379
 20
182.02458190918
 30
0.0
 11
177.942774963379
 21
182.02458190918
 31
0.0
  0
LINE
  5
   5CE
  8
0
  6
CONTINUOUS
 62
   252
 10
179.242774963379
 20
85.5245819091797
 30
0.0
 11
179.242774963379
 21
130.52458190918
 31
0.0
  0
LINE
  5
   5CF
  8
0
  6
CONTINUOUS
 62
     7
 10
49.2427749633789
 20
104.039271884326
 30
0.0
 11
52.7519989013672
 21
104.039271884326
 31
0.0
  0
LINE
  5
   5D0
  8
0
  6
CONTINUOUS
 62
     7
 10
59.4625625610352
 20
104.039271884326
 30
0.0
 11
63.2427749633789
 21
104.039271884326
 31
0.0
  0
LINE
  5
   5D1
  8
0
  6
CONTINUOUS
 62
     7
 10
49.2427749633789
 20
95.414115323251
 30
0.0
 11
63.2427749633789
 21
95.414115323251
 31
0.0
  0
LINE
  5
   5D2
  8
0
  6
CONTINUOUS
 62
     7
 10
63.2427749633789
 20
99.3006591796875
 30
0.0
 11
63.2427749633789
 21
104.039268493652
 31
0.0
  0
LINE
  5
   5D3
  8
0
  6
CONTINUOUS
 62
     7
 10
63.2427749633789
 20
111.920570373535
 30
0.0
 11
63.2427749633789
 21
122.160568237305
 31
0.0
  0
LINE
  5
   5D4
  8
0
  6
CONTINUOUS
 62
     7
 10
63.2427749633789
 20
104.039268493652
 30
0.0
 11
63.2427749633789
 21
106.176666259766
 31
0.0
  0
LINE
  5
   5D5
  8
0
  6
CONTINUOUS
 62
     7
 10
63.2427749633789
 20
95.4141159057617
 30
0.0
 11
63.2427749633789
 21
99.3006591796875
 31
0.0
  0
LINE
  5
   5D6
  8
0
  6
CONTINUOUS
 62
     7
 10
49.2427749633789
 20
99.3006591796875
 30
0.0
 11
49.2427749633789
 21
104.039268493652
 31
0.0
  0
LINE
  5
   5D7
  8
0
  6
CONTINUOUS
 62
     7
 10
49.2427749633789
 20
104.039268493652
 30
0.0
 11
49.2427749633789
 21
122.160568237305
 31
0.0
  0
LINE
  5
   5D8
  8
0
  6
CONTINUOUS
 62
     7
 10
49.2427749633789
 20
95.4141159057617
 30
0.0
 11
49.2427749633789
 21
99.3006591796875
 31
0.0
  0
LINE
  5
   5D9
  8
0
  6
CONTINUOUS
 62
     7
 10
72.7427749633789
 20
60.0245819091786
 30
0.0
 11
73.7427730560303
 21
60.0245819091786
 31
0.0
  0
LINE
  5
   5DA
  8
0
  6
CONTINUOUS
 62
     7
 10
72.7427740097047
 20
60.0245819091797
 30
0.0
 11
72.7427740097047
 21
62.0244750976563
 31
0.0
  0
LINE
  5
   5DB
  8
0
  6
CONTINUOUS
 62
     7
 10
72.7427749633895
 20
62.0244789121584
 30
0.0
 11
73.742612838748
 21
62.0244761382837
 31
0.0
  0
LINE
  5
   5DC
  8
0
  6
CONTINUOUS
 62
     7
 10
68.7428131103516
 20
63.5245513915895
 30
0.0
 11
73.7426166534424
 21
63.5245513915895
 31
0.0
  0
LINE
  5
   5DD
  8
0
  6
CONTINUOUS
 62
     7
 10
68.7428131103506
 20
62.0244900093504
 30
0.0
 11
69.7427749633702
 21
62.0244872351318
 31
0.0
  0
LINE
  5
   5DE
  8
0
  6
CONTINUOUS
 62
     7
 10
69.7427740097046
 20
60.0245513916016
 30
0.0
 11
69.7427740097046
 21
62.0244903564453
 31
0.0
  0
LINE
  5
   5DF
  8
0
  6
CONTINUOUS
 62
     7
 10
42.7427749633789
 20
60.0245513915895
 30
0.0
 11
43.7427749633789
 21
60.0245513915895
 31
0.0
  0
LINE
  5
   5E0
  8
0
  6
CONTINUOUS
 62
     7
 10
68.7428131103516
 20
60.0245513915895
 30
0.0
 11
69.7427749633789
 21
60.0245513915895
 31
0.0
  0
LINE
  5
   5E1
  8
0
  6
CONTINUOUS
 62
     7
 10
42.7427749633814
 20
60.0245513916016
 30
0.0
 11
42.7427749633814
 21
62.0245590209961
 31
0.0
  0
LINE
  5
   5E2
  8
0
  6
CONTINUOUS
 62
     7
 10
42.7427749633876
 20
62.0245621418921
 30
0.0
 11
43.7426147460947
 21
62.0245593680122
 31
0.0
  0
LINE
  5
   5E3
  8
0
  6
CONTINUOUS
 62
     7
 10
38.7428131103516
 20
63.5245628356827
 30
0.0
 11
43.742618560791
 21
63.5245628356827
 31
0.0
  0
LINE
  5
   5E4
  8
0
  6
CONTINUOUS
 62
     7
 10
38.7428131103487
 20
62.0245732390841
 30
0.0
 11
39.7427749633895
 21
62.0245704648655
 31
0.0
  0
LINE
  5
   5E5
  8
0
  6
CONTINUOUS
 62
     7
 10
39.7427749633761
 20
60.0245666503906
 30
0.0
 11
39.7427749633761
 21
62.0245666503906
 31
0.0
  0
LINE
  5
   5E6
  8
0
  6
CONTINUOUS
 62
     7
 10
38.7428131103516
 20
60.0245666503786
 30
0.0
 11
39.7427749633789
 21
60.0245666503786
 31
0.0
  0
LINE
  5
   5E7
  8
0
  6
CONTINUOUS
 62
     7
 10
38.7428131103516
 20
180.02455139159
 30
0.0
 11
40.4928117036743
 21
180.02455139159
 31
0.0
  0
LINE
  5
   5E8
  8
0
  6
CONTINUOUS
 62
     7
 10
39.7427759170504
 20
178.024547576904
 30
0.0
 11
39.7427759170504
 21
180.024551391591
 31
0.0
  0
LINE
  5
   5E9
  8
0
  6
CONTINUOUS
 62
     7
 10
38.7428131103516
 20
178.024547576894
 30
0.0
 11
39.7427749633789
 21
178.024547576894
 31
0.0
  0
LINE
  5
   5EA
  8
0
  6
CONTINUOUS
 62
     7
 10
38.7428131103516
 20
176.524547576894
 30
0.0
 11
43.7427749633789
 21
176.524547576894
 31
0.0
  0
LINE
  5
   5EB
  8
0
  6
CONTINUOUS
 62
     7
 10
42.7427749633789
 20
178.024547576894
 30
0.0
 11
43.7427749633789
 21
178.024547576894
 31
0.0
  0
LINE
  5
   5EC
  8
0
  6
CONTINUOUS
 62
     7
 10
42.7427759170533
 20
178.024547576904
 30
0.0
 11
42.7427759170533
 21
180.024554859561
 31
0.0
  0
LINE
  5
   5ED
  8
0
  6
CONTINUOUS
 62
     7
 10
68.7428092956543
 20
180.024518793297
 30
0.0
 11
69.7427749633789
 21
180.024517406182
 31
0.0
  0
LINE
  5
   5EE
  8
0
  6
CONTINUOUS
 62
     7
 10
41.9928117036743
 20
180.024555899883
 30
0.0
 11
43.7427787780762
 21
180.024553472395
 31
0.0
  0
LINE
  5
   5EF
  8
0
  6
CONTINUOUS
 62
     7
 10
69.7427740097046
 20
178.024547576904
 30
0.0
 11
69.7427740097046
 21
180.024517406186
 31
0.0
  0
LINE
  5
   5F0
  8
0
  6
CONTINUOUS
 62
     7
 10
68.7428092956543
 20
178.024547576894
 30
0.0
 11
69.7427749633789
 21
178.024547576894
 31
0.0
  0
LINE
  5
   5F1
  8
0
  6
CONTINUOUS
 62
     7
 10
68.7428092956543
 20
176.5245361328
 30
0.0
 11
73.7427749633789
 21
176.5245361328
 31
0.0
  0
LINE
  5
   5F2
  8
0
  6
CONTINUOUS
 62
     7
 10
72.7427749633789
 20
178.024547576894
 30
0.0
 11
73.7427749633789
 21
178.024547576894
 31
0.0
  0
LINE
  5
   5F3
  8
0
  6
CONTINUOUS
 62
     7
 10
72.7427740097076
 20
178.024547576904
 30
0.0
 11
72.7427740097076
 21
180.024536132802
 31
0.0
  0
LINE
  5
   5F4
  8
0
  6
CONTINUOUS
 62
     7
 10
72.7427749633789
 20
180.0245361328
 30
0.0
 11
73.7427749633789
 21
180.0245361328
 31
0.0
  0
ARC
  5
   5F5
  8
0
  6
CONTINUOUS
 62
   130
 10
53.7213174575287
 20
105.388194995337
 30
0.0
 40
0.999999999998836
 50
119.484524691914
 51
170.984353195392
  0
LINE
  5
   5F6
  8
0
  6
CONTINUOUS
 62
   130
 10
52.5880384267515
 20
104.627006684891
 30
0.0
 11
52.733671874172
 21
105.544899180625
 31
0.0
  0
LINE
  5
   5F7
  8
0
  6
DASHDOT
 62
     7
 10
173.242917835603
 20
72.0245636023759
 30
0.0
 11
173.242917835603
 21
88.0245636023758
 31
0.0
  0
LINE
  5
   5F8
  8
0
  6
DASHDOT
 62
     7
 10
165.242917835603
 20
80.0245636023758
 30
0.0
 11
181.242917835603
 21
80.0245636023758
 31
0.0
  0
LINE
  5
   5F9
  8
0
  6
DASHDOT
 62
     7
 10
107.242917835603
 20
70.774563602376
 30
0.0
 11
107.242917835603
 21
89.274563602376
 31
0.0
  0
LINE
  5
   5FA
  8
0
  6
DASHDOT
 62
     7
 10
97.9929178356034
 20
80.024563602376
 30
0.0
 11
116.492917835603
 21
80.024563602376
 31
0.0
  0
LINE
  5
   5FB
  8
0
  6
DASHDOT
 62
     7
 10
107.242917835603
 20
152.024563602376
 30
0.0
 11
107.242917835603
 21
168.024563602376
 31
0.0
  0
LINE
  5
   5FC
  8
0
  6
DASHDOT
 62
     7
 10
99.2429178356034
 20
160.024563602376
 30
0.0
 11
115.242917835603
 21
160.024563602376
 31
0.0
  0
LINE
  5
   5FD
  8
0
  6
DASHDOT
 62
     7
 10
173.242917835603
 20
150.774563602376
 30
0.0
 11
173.242917835603
 21
169.274563602376
 31
0.0
  0
LINE
  5
   5FE
  8
0
  6
DASHDOT
 62
     7
 10
163.992917835603
 20
160.024563602376
 30
0.0
 11
182.492917835603
 21
160.024563602376
 31
0.0
  0
LINE
  5
   5FF
  8
0
  6
DASHDOT
 62
     7
 10
86.2428684862029
 20
162.274571154422
 30
0.0
 11
86.2428684862029
 21
179.774571154422
 31
0.0
  0
LINE
  5
   600
  8
0
  6
DASHDOT
 62
     7
 10
77.4928684862029
 20
171.024571154422
 30
0.0
 11
94.9928684862029
 21
171.024571154422
 31
0.0
  0
LINE
  5
   601
  8
0
  6
DASHDOT
 62
     7
 10
71.2428117034116
 20
160.774553800889
 30
0.0
 11
71.2428117034116
 21
179.274553800891
 31
0.0
  0
LINE
  5
   602
  8
0
  6
DASHDOT
 62
     7
 10
61.9928117034109
 20
170.02455380089
 30
0.0
 11
80.4928117034123
 21
170.02455380089
 31
0.0
  0
LINE
  5
   603
  8
0
  6
DASHDOT
 62
     7
 10
56.2428684862473
 20
60.274418360551
 30
0.0
 11
56.2428684862473
 21
183.010398257217
 31
0.0
  0
LINE
  5
   604
  8
0
  6
DASHDOT
 62
     7
 10
47.4928684862473
 20
171.024571154422
 30
0.0
 11
64.9928684862473
 21
171.024571154422
 31
0.0
  0
LINE
  5
   605
  8
0
  6
DASHDOT
 62
     7
 10
41.2428117036743
 20
160.774436819843
 30
0.0
 11
41.2428117036743
 21
179.274436819845
 31
0.0
  0
LINE
  5
   606
  8
0
  6
DASHDOT
 62
     7
 10
31.9928117036736
 20
170.024436819844
 30
0.0
 11
50.492811703675
 21
170.024436819844
 31
0.0
  0
LINE
  5
   607
  8
0
  6
DASHDOT
 62
     7
 10
26.2428684862917
 20
162.274571154422
 30
0.0
 11
26.2428684862917
 21
179.774571154422
 31
0.0
  0
LINE
  5
   608
  8
0
  6
DASHDOT
 62
     7
 10
17.4928684862916
 20
171.024571154422
 30
0.0
 11
34.9928684862917
 21
171.024571154422
 31
0.0
  0
LINE
  5
   609
  8
0
  6
DASHDOT
 62
     7
 10
41.2428117036836
 20
60.7744344105418
 30
0.0
 11
41.2428117036836
 21
79.2744344105433
 31
0.0
  0
LINE
  5
   60A
  8
0
  6
DASHDOT
 62
     7
 10
31.9928117036828
 20
70.0244344105425
 30
0.0
 11
50.4928117036843
 21
70.0244344105425
 31
0.0
  0
LINE
  5
   60B
  8
0
  6
DASHDOT
 62
     7
 10
26.2428121490906
 20
60.2745666503785
 30
0.0
 11
26.2428121490906
 21
77.7745666503786
 31
0.0
  0
LINE
  5
   60C
  8
0
  6
DASHDOT
 62
     7
 10
17.4928121490906
 20
69.0245666503786
 30
0.0
 11
34.9928121490907
 21
69.0245666503786
 31
0.0
  0
LINE
  5
   60D
  8
0
  6
DASHDOT
 62
     7
 10
47.4928121486778
 20
69.024418360551
 30
0.0
 11
64.9928121486777
 21
69.024418360551
 31
0.0
  0
LINE
  5
   60E
  8
0
  6
DASHDOT
 62
     7
 10
71.2428117034209
 20
60.7745513915878
 30
0.0
 11
71.2428117034209
 21
79.2745513915894
 31
0.0
  0
LINE
  5
   60F
  8
0
  6
DASHDOT
 62
     7
 10
61.9928117034201
 20
70.0245513915886
 30
0.0
 11
80.4928117034217
 21
70.0245513915886
 31
0.0
  0
LINE
  5
   610
  8
0
  6
DASHDOT
 62
     7
 10
86.2428121482643
 20
60.274270070723
 30
0.0
 11
86.2428121482643
 21
77.7742700707234
 31
0.0
  0
LINE
  5
   611
  8
0
  6
DASHDOT
 62
     7
 10
77.4928121482641
 20
69.0242700707232
 30
0.0
 11
94.9928121482645
 21
69.0242700707232
 31
0.0
  0
LINE
  5
   612
  8
0
  6
DASHDOT
 62
     7
 10
94.0428168662627
 20
82.7245513915909
 30
0.0
 11
94.0428168662627
 21
98.7245513915907
 31
0.0
  0
LINE
  5
   613
  8
0
  6
DASHDOT
 62
     7
 10
86.0428168662628
 20
90.7245513915908
 30
0.0
 11
102.042816866263
 21
90.7245513915908
 31
0.0
  0
ARC
  5
   614
  8
0
  6
CONTINUOUS
 62
     7
 10
177.942774963379
 20
180.72458190918
 30
0.0
 40
1.3
 50
0.0
 51
90.0
  0
ARC
  5
   615
  8
0
  6
CONTINUOUS
 62
     7
 10
102.542774963379
 20
180.72458190918
 30
0.0
 40
1.3
 50
90.0
 51
180.0
  0
ARC
  5
   616
  8
0
  6
CONTINUOUS
 62
     7
 10
102.542774963379
 20
59.3245819091797
 30
0.0
 40
1.3
 50
180.0
 51
270.0
  0
ARC
  5
   617
  8
0
  6
CONTINUOUS
 62
     7
 10
177.942774963379
 20
59.3245819091797
 30
0.0
 40
1.3
 50
270.0
 51
360.0
  0
INSERT
  5
   618
  8
255
  6
CONTINUOUS
 62
     7
  2
TC_M3_CROCE____F
 10
107.242917835603
 20
160.024563602376
 30
0.0
 50
89.9999999480344
  0
INSERT
  5
   619
  8
255
  6
CONTINUOUS
 62
     7
  2
TC_M3_CROCE____F
 10
173.242917835603
 20
80.0245636023758
 30
0.0
  0
INSERT
  5
   61A
  8
255
  6
CONTINUOUS
 62
     7
  2
TC_M4_CROCE____F
 10
173.242917835603
 20
160.024563602376
 30
0.0
  0
INSERT
  5
   61B
  8
255
  6
CONTINUOUS
 62
     7
  2
TC_M4_CROCE____F
 10
107.242917835603
 20
80.024563602376
 30
0.0
  0
INSERT
  5
   61C
  8
255
  6
CONTINUOUS
 62
     7
  2
TC_M4_CROCE____F
 10
41.2428117036743
 20
170.024436819844
 30
0.0
  0
INSERT
  5
   61D
  8
255
  6
CONTINUOUS
 62
     7
  2
TC_M4_CROCE____F
 10
71.2428117034209
 20
70.0245513915886
 30
0.0
  0
LINE
  5
   61E
  8
0
  6
CONTINUOUS
 62
     7
 10
103.092774963379
 20
165.72458190918
 30
0.0
 11
103.092774963379
 21
182.02458190918
 31
0.0
  0
LINE
  5
   61F
  8
0
  6
CONTINUOUS
 62
     7
 10
103.592774963379
 20
165.72458190918
 30
0.0
 11
103.592774963379
 21
182.02458190918
 31
0.0
  0
LINE
  5
   620
  8
0
  6
CONTINUOUS
 62
     7
 10
105.392774963379
 20
165.72458190918
 30
0.0
 11
105.392774963379
 21
182.02458190918
 31
0.0
  0
LINE
  5
   621
  8
0
  6
CONTINUOUS
 62
     7
 10
104.892774963379
 20
165.72458190918
 30
0.0
 11
104.892774963379
 21
182.02458190918
 31
0.0
  0
LINE
  5
   622
  8
0
  6
CONTINUOUS
 62
     7
 10
106.692774963379
 20
165.72458190918
 30
0.0
 11
106.692774963379
 21
182.02458190918
 31
0.0
  0
LINE
  5
   623
  8
0
  6
CONTINUOUS
 62
     7
 10
107.192774963379
 20
165.72458190918
 30
0.0
 11
107.192774963379
 21
182.02458190918
 31
0.0
  0
LINE
  5
   624
  8
0
  6
CONTINUOUS
 62
     7
 10
108.992774963379
 20
165.72458190918
 30
0.0
 11
108.992774963379
 21
182.02458190918
 31
0.0
  0
LINE
  5
   625
  8
0
  6
CONTINUOUS
 62
     7
 10
108.492774963379
 20
165.72458190918
 30
0.0
 11
108.492774963379
 21
182.02458190918
 31
0.0
  0
LINE
  5
   626
  8
0
  6
CONTINUOUS
 62
     7
 10
110.292774963379
 20
165.72458190918
 30
0.0
 11
110.292774963379
 21
182.02458190918
 31
0.0
  0
LINE
  5
   627
  8
0
  6
CONTINUOUS
 62
     7
 10
110.792774963379
 20
165.72458190918
 30
0.0
 11
110.792774963379
 21
182.02458190918
 31
0.0
  0
LINE
  5
   628
  8
0
  6
CONTINUOUS
 62
     7
 10
112.592774963379
 20
165.72458190918
 30
0.0
 11
112.592774963379
 21
182.02458190918
 31
0.0
  0
LINE
  5
   629
  8
0
  6
CONTINUOUS
 62
     7
 10
112.092774963379
 20
165.72458190918
 30
0.0
 11
112.092774963379
 21
182.02458190918
 31
0.0
  0
LINE
  5
   62A
  8
0
  6
CONTINUOUS
 62
     7
 10
113.892774963379
 20
165.72458190918
 30
0.0
 11
113.892774963379
 21
182.02458190918
 31
0.0
  0
LINE
  5
   62B
  8
0
  6
CONTINUOUS
 62
     7
 10
114.392774963379
 20
165.72458190918
 30
0.0
 11
114.392774963379
 21
182.02458190918
 31
0.0
  0
LINE
  5
   62C
  8
0
  6
CONTINUOUS
 62
     7
 10
116.192774963379
 20
165.72458190918
 30
0.0
 11
116.192774963379
 21
182.02458190918
 31
0.0
  0
LINE
  5
   62D
  8
0
  6
CONTINUOUS
 62
     7
 10
115.692774963379
 20
165.72458190918
 30
0.0
 11
115.692774963379
 21
182.02458190918
 31
0.0
  0
LINE
  5
   62E
  8
0
  6
CONTINUOUS
 62
     7
 10
117.492774963379
 20
165.72458190918
 30
0.0
 11
117.492774963379
 21
182.02458190918
 31
0.0
  0
LINE
  5
   62F
  8
0
  6
CONTINUOUS
 62
     7
 10
117.992774963379
 20
165.72458190918
 30
0.0
 11
117.992774963379
 21
182.02458190918
 31
0.0
  0
LINE
  5
   630
  8
0
  6
CONTINUOUS
 62
     7
 10
119.792774963379
 20
165.72458190918
 30
0.0
 11
119.792774963379
 21
182.02458190918
 31
0.0
  0
LINE
  5
   631
  8
0
  6
CONTINUOUS
 62
     7
 10
119.292774963379
 20
165.72458190918
 30
0.0
 11
119.292774963379
 21
182.02458190918
 31
0.0
  0
LINE
  5
   632
  8
0
  6
CONTINUOUS
 62
     7
 10
121.092774963379
 20
165.72458190918
 30
0.0
 11
121.092774963379
 21
182.02458190918
 31
0.0
  0
LINE
  5
   633
  8
0
  6
CONTINUOUS
 62
     7
 10
121.592774963379
 20
165.72458190918
 30
0.0
 11
121.592774963379
 21
182.02458190918
 31
0.0
  0
LINE
  5
   634
  8
0
  6
CONTINUOUS
 62
     7
 10
123.392774963379
 20
165.72458190918
 30
0.0
 11
123.392774963379
 21
182.02458190918
 31
0.0
  0
LINE
  5
   635
  8
0
  6
CONTINUOUS
 62
     7
 10
122.892774963379
 20
165.72458190918
 30
0.0
 11
122.892774963379
 21
182.02458190918
 31
0.0
  0
LINE
  5
   636
  8
0
  6
CONTINUOUS
 62
     7
 10
124.692774963379
 20
165.72458190918
 30
0.0
 11
124.692774963379
 21
182.02458190918
 31
0.0
  0
LINE
  5
   637
  8
0
  6
CONTINUOUS
 62
     7
 10
125.192774963379
 20
165.72458190918
 30
0.0
 11
125.192774963379
 21
182.02458190918
 31
0.0
  0
LINE
  5
   638
  8
0
  6
CONTINUOUS
 62
     7
 10
126.992774963379
 20
165.72458190918
 30
0.0
 11
126.992774963379
 21
182.02458190918
 31
0.0
  0
LINE
  5
   639
  8
0
  6
CONTINUOUS
 62
     7
 10
126.492774963379
 20
165.72458190918
 30
0.0
 11
126.492774963379
 21
182.02458190918
 31
0.0
  0
LINE
  5
   63A
  8
0
  6
CONTINUOUS
 62
     7
 10
128.292774963379
 20
165.72458190918
 30
0.0
 11
128.292774963379
 21
182.02458190918
 31
0.0
  0
LINE
  5
   63B
  8
0
  6
CONTINUOUS
 62
     7
 10
128.792774963379
 20
165.72458190918
 30
0.0
 11
128.792774963379
 21
182.02458190918
 31
0.0
  0
LINE
  5
   63C
  8
0
  6
CONTINUOUS
 62
     7
 10
130.592774963379
 20
165.72458190918
 30
0.0
 11
130.592774963379
 21
182.02458190918
 31
0.0
  0
LINE
  5
   63D
  8
0
  6
CONTINUOUS
 62
     7
 10
130.092774963379
 20
165.72458190918
 30
0.0
 11
130.092774963379
 21
182.02458190918
 31
0.0
  0
LINE
  5
   63E
  8
0
  6
CONTINUOUS
 62
     7
 10
131.892774963379
 20
165.72458190918
 30
0.0
 11
131.892774963379
 21
182.02458190918
 31
0.0
  0
LINE
  5
   63F
  8
0
  6
CONTINUOUS
 62
     7
 10
132.392774963379
 20
165.72458190918
 30
0.0
 11
132.392774963379
 21
182.02458190918
 31
0.0
  0
LINE
  5
   640
  8
0
  6
CONTINUOUS
 62
     7
 10
134.192774963379
 20
165.72458190918
 30
0.0
 11
134.192774963379
 21
182.02458190918
 31
0.0
  0
LINE
  5
   641
  8
0
  6
CONTINUOUS
 62
     7
 10
133.692774963379
 20
165.72458190918
 30
0.0
 11
133.692774963379
 21
182.02458190918
 31
0.0
  0
LINE
  5
   642
  8
0
  6
CONTINUOUS
 62
     7
 10
135.492774963379
 20
165.72458190918
 30
0.0
 11
135.492774963379
 21
182.02458190918
 31
0.0
  0
LINE
  5
   643
  8
0
  6
CONTINUOUS
 62
     7
 10
135.992774963379
 20
165.72458190918
 30
0.0
 11
135.992774963379
 21
182.02458190918
 31
0.0
  0
LINE
  5
   644
  8
0
  6
CONTINUOUS
 62
     7
 10
137.792774963379
 20
165.72458190918
 30
0.0
 11
137.792774963379
 21
182.02458190918
 31
0.0
  0
LINE
  5
   645
  8
0
  6
CONTINUOUS
 62
     7
 10
137.292774963379
 20
165.72458190918
 30
0.0
 11
137.292774963379
 21
182.02458190918
 31
0.0
  0
LINE
  5
   646
  8
0
  6
CONTINUOUS
 62
     7
 10
139.092774963379
 20
165.72458190918
 30
0.0
 11
139.092774963379
 21
182.02458190918
 31
0.0
  0
LINE
  5
   647
  8
0
  6
CONTINUOUS
 62
     7
 10
139.592774963379
 20
165.72458190918
 30
0.0
 11
139.592774963379
 21
182.02458190918
 31
0.0
  0
LINE
  5
   648
  8
0
  6
CONTINUOUS
 62
     7
 10
141.392774963379
 20
165.72458190918
 30
0.0
 11
141.392774963379
 21
182.02458190918
 31
0.0
  0
LINE
  5
   649
  8
0
  6
CONTINUOUS
 62
     7
 10
140.892774963379
 20
165.72458190918
 30
0.0
 11
140.892774963379
 21
182.02458190918
 31
0.0
  0
LINE
  5
   64A
  8
0
  6
CONTINUOUS
 62
     7
 10
142.692774963379
 20
165.72458190918
 30
0.0
 11
142.692774963379
 21
182.02458190918
 31
0.0
  0
LINE
  5
   64B
  8
0
  6
CONTINUOUS
 62
     7
 10
143.192774963379
 20
165.72458190918
 30
0.0
 11
143.192774963379
 21
182.02458190918
 31
0.0
  0
LINE
  5
   64C
  8
0
  6
CONTINUOUS
 62
     7
 10
144.992774963379
 20
165.72458190918
 30
0.0
 11
144.992774963379
 21
182.02458190918
 31
0.0
  0
LINE
  5
   64D
  8
0
  6
CONTINUOUS
 62
     7
 10
144.492774963379
 20
165.72458190918
 30
0.0
 11
144.492774963379
 21
182.02458190918
 31
0.0
  0
LINE
  5
   64E
  8
0
  6
CONTINUOUS
 62
     7
 10
146.292774963379
 20
165.72458190918
 30
0.0
 11
146.292774963379
 21
182.02458190918
 31
0.0
  0
LINE
  5
   64F
  8
0
  6
CONTINUOUS
 62
     7
 10
146.792774963379
 20
165.72458190918
 30
0.0
 11
146.792774963379
 21
182.02458190918
 31
0.0
  0
LINE
  5
   650
  8
0
  6
CONTINUOUS
 62
     7
 10
148.592774963379
 20
165.72458190918
 30
0.0
 11
148.592774963379
 21
182.02458190918
 31
0.0
  0
LINE
  5
   651
  8
0
  6
CONTINUOUS
 62
     7
 10
148.092774963379
 20
165.72458190918
 30
0.0
 11
148.092774963379
 21
182.02458190918
 31
0.0
  0
LINE
  5
   652
  8
0
  6
CONTINUOUS
 62
     7
 10
149.892774963379
 20
165.72458190918
 30
0.0
 11
149.892774963379
 21
182.02458190918
 31
0.0
  0
LINE
  5
   653
  8
0
  6
CONTINUOUS
 62
     7
 10
150.392774963379
 20
165.72458190918
 30
0.0
 11
150.392774963379
 21
182.02458190918
 31
0.0
  0
LINE
  5
   654
  8
0
  6
CONTINUOUS
 62
     7
 10
152.192774963379
 20
165.72458190918
 30
0.0
 11
152.192774963379
 21
182.02458190918
 31
0.0
  0
LINE
  5
   655
  8
0
  6
CONTINUOUS
 62
     7
 10
151.692774963379
 20
165.72458190918
 30
0.0
 11
151.692774963379
 21
182.02458190918
 31
0.0
  0
LINE
  5
   656
  8
0
  6
CONTINUOUS
 62
     7
 10
153.492774963379
 20
165.72458190918
 30
0.0
 11
153.492774963379
 21
182.02458190918
 31
0.0
  0
LINE
  5
   657
  8
0
  6
CONTINUOUS
 62
     7
 10
153.992774963379
 20
165.72458190918
 30
0.0
 11
153.992774963379
 21
182.02458190918
 31
0.0
  0
LINE
  5
   658
  8
0
  6
CONTINUOUS
 62
     7
 10
155.792774963379
 20
165.72458190918
 30
0.0
 11
155.792774963379
 21
182.02458190918
 31
0.0
  0
LINE
  5
   659
  8
0
  6
CONTINUOUS
 62
     7
 10
155.292774963379
 20
165.72458190918
 30
0.0
 11
155.292774963379
 21
182.02458190918
 31
0.0
  0
LINE
  5
   65A
  8
0
  6
CONTINUOUS
 62
     7
 10
157.092774963379
 20
165.72458190918
 30
0.0
 11
157.092774963379
 21
182.02458190918
 31
0.0
  0
LINE
  5
   65B
  8
0
  6
CONTINUOUS
 62
     7
 10
157.592774963379
 20
165.72458190918
 30
0.0
 11
157.592774963379
 21
182.02458190918
 31
0.0
  0
LINE
  5
   65C
  8
0
  6
CONTINUOUS
 62
     7
 10
159.392774963379
 20
165.72458190918
 30
0.0
 11
159.392774963379
 21
182.02458190918
 31
0.0
  0
LINE
  5
   65D
  8
0
  6
CONTINUOUS
 62
     7
 10
158.892774963379
 20
165.72458190918
 30
0.0
 11
158.892774963379
 21
182.02458190918
 31
0.0
  0
LINE
  5
   65E
  8
0
  6
CONTINUOUS
 62
     7
 10
160.692774963379
 20
165.72458190918
 30
0.0
 11
160.692774963379
 21
182.02458190918
 31
0.0
  0
LINE
  5
   65F
  8
0
  6
CONTINUOUS
 62
     7
 10
161.192774963379
 20
165.72458190918
 30
0.0
 11
161.192774963379
 21
182.02458190918
 31
0.0
  0
LINE
  5
   660
  8
0
  6
CONTINUOUS
 62
     7
 10
162.992774963379
 20
165.72458190918
 30
0.0
 11
162.992774963379
 21
182.02458190918
 31
0.0
  0
LINE
  5
   661
  8
0
  6
CONTINUOUS
 62
     7
 10
162.492774963379
 20
165.72458190918
 30
0.0
 11
162.492774963379
 21
182.02458190918
 31
0.0
  0
LINE
  5
   662
  8
0
  6
CONTINUOUS
 62
     7
 10
164.292774963379
 20
165.72458190918
 30
0.0
 11
164.292774963379
 21
182.02458190918
 31
0.0
  0
LINE
  5
   663
  8
0
  6
CONTINUOUS
 62
     7
 10
164.792774963379
 20
165.72458190918
 30
0.0
 11
164.792774963379
 21
182.02458190918
 31
0.0
  0
LINE
  5
   664
  8
0
  6
CONTINUOUS
 62
     7
 10
166.592774963379
 20
165.72458190918
 30
0.0
 11
166.592774963379
 21
182.02458190918
 31
0.0
  0
LINE
  5
   665
  8
0
  6
CONTINUOUS
 62
     7
 10
166.092774963379
 20
165.72458190918
 30
0.0
 11
166.092774963379
 21
182.02458190918
 31
0.0
  0
LINE
  5
   666
  8
0
  6
CONTINUOUS
 62
     7
 10
167.892774963379
 20
165.72458190918
 30
0.0
 11
167.892774963379
 21
182.02458190918
 31
0.0
  0
LINE
  5
   667
  8
0
  6
CONTINUOUS
 62
     7
 10
168.392774963379
 20
165.72458190918
 30
0.0
 11
168.392774963379
 21
182.02458190918
 31
0.0
  0
LINE
  5
   668
  8
0
  6
CONTINUOUS
 62
     7
 10
170.192774963379
 20
165.72458190918
 30
0.0
 11
170.192774963379
 21
182.02458190918
 31
0.0
  0
LINE
  5
   669
  8
0
  6
CONTINUOUS
 62
     7
 10
169.692774963379
 20
165.72458190918
 30
0.0
 11
169.692774963379
 21
182.02458190918
 31
0.0
  0
LINE
  5
   66A
  8
0
  6
CONTINUOUS
 62
     7
 10
171.492774963379
 20
165.72458190918
 30
0.0
 11
171.492774963379
 21
182.02458190918
 31
0.0
  0
LINE
  5
   66B
  8
0
  6
CONTINUOUS
 62
     7
 10
171.992774963379
 20
165.72458190918
 30
0.0
 11
171.992774963379
 21
182.02458190918
 31
0.0
  0
LINE
  5
   66C
  8
0
  6
CONTINUOUS
 62
     7
 10
173.792774963379
 20
165.72458190918
 30
0.0
 11
173.792774963379
 21
182.02458190918
 31
0.0
  0
LINE
  5
   66D
  8
0
  6
CONTINUOUS
 62
     7
 10
173.292774963379
 20
165.72458190918
 30
0.0
 11
173.292774963379
 21
182.02458190918
 31
0.0
  0
LINE
  5
   66E
  8
0
  6
CONTINUOUS
 62
     7
 10
175.092774963379
 20
165.72458190918
 30
0.0
 11
175.092774963379
 21
182.02458190918
 31
0.0
  0
LINE
  5
   66F
  8
0
  6
CONTINUOUS
 62
     7
 10
175.592774963379
 20
165.72458190918
 30
0.0
 11
175.592774963379
 21
182.02458190918
 31
0.0
  0
LINE
  5
   670
  8
0
  6
CONTINUOUS
 62
     7
 10
177.392774963379
 20
165.72458190918
 30
0.0
 11
177.392774963379
 21
182.02458190918
 31
0.0
  0
LINE
  5
   671
  8
0
  6
CONTINUOUS
 62
     7
 10
176.892774963379
 20
165.72458190918
 30
0.0
 11
176.892774963379
 21
182.02458190918
 31
0.0
  0
LINE
  5
   672
  8
0
  6
CONTINUOUS
 62
     7
 10
176.892774963379
 20
58.0245819091797
 30
0.0
 11
176.892774963379
 21
74.3245819091797
 31
0.0
  0
LINE
  5
   673
  8
0
  6
CONTINUOUS
 62
     7
 10
177.392774963379
 20
58.0245819091797
 30
0.0
 11
177.392774963379
 21
74.3245819091797
 31
0.0
  0
LINE
  5
   674
  8
0
  6
CONTINUOUS
 62
     7
 10
175.592774963379
 20
58.0245819091797
 30
0.0
 11
175.592774963379
 21
74.3245819091797
 31
0.0
  0
LINE
  5
   675
  8
0
  6
CONTINUOUS
 62
     7
 10
175.092774963379
 20
58.0245819091797
 30
0.0
 11
175.092774963379
 21
74.3245819091797
 31
0.0
  0
LINE
  5
   676
  8
0
  6
CONTINUOUS
 62
     7
 10
173.292774963379
 20
58.0245819091797
 30
0.0
 11
173.292774963379
 21
74.3245819091797
 31
0.0
  0
LINE
  5
   677
  8
0
  6
CONTINUOUS
 62
     7
 10
173.792774963379
 20
58.0245819091797
 30
0.0
 11
173.792774963379
 21
74.3245819091797
 31
0.0
  0
LINE
  5
   678
  8
0
  6
CONTINUOUS
 62
     7
 10
171.992774963379
 20
58.0245819091797
 30
0.0
 11
171.992774963379
 21
74.3245819091797
 31
0.0
  0
LINE
  5
   679
  8
0
  6
CONTINUOUS
 62
     7
 10
171.492774963379
 20
58.0245819091797
 30
0.0
 11
171.492774963379
 21
74.3245819091797
 31
0.0
  0
LINE
  5
   67A
  8
0
  6
CONTINUOUS
 62
     7
 10
169.692774963379
 20
58.0245819091797
 30
0.0
 11
169.692774963379
 21
74.3245819091797
 31
0.0
  0
LINE
  5
   67B
  8
0
  6
CONTINUOUS
 62
     7
 10
170.192774963379
 20
58.0245819091797
 30
0.0
 11
170.192774963379
 21
74.3245819091797
 31
0.0
  0
LINE
  5
   67C
  8
0
  6
CONTINUOUS
 62
     7
 10
168.392774963379
 20
58.0245819091797
 30
0.0
 11
168.392774963379
 21
74.3245819091797
 31
0.0
  0
LINE
  5
   67D
  8
0
  6
CONTINUOUS
 62
     7
 10
167.892774963379
 20
58.0245819091797
 30
0.0
 11
167.892774963379
 21
74.3245819091797
 31
0.0
  0
LINE
  5
   67E
  8
0
  6
CONTINUOUS
 62
     7
 10
166.092774963379
 20
58.0245819091797
 30
0.0
 11
166.092774963379
 21
74.3245819091797
 31
0.0
  0
LINE
  5
   67F
  8
0
  6
CONTINUOUS
 62
     7
 10
166.592774963379
 20
58.0245819091797
 30
0.0
 11
166.592774963379
 21
74.3245819091797
 31
0.0
  0
LINE
  5
   680
  8
0
  6
CONTINUOUS
 62
     7
 10
164.792774963379
 20
58.0245819091797
 30
0.0
 11
164.792774963379
 21
74.3245819091797
 31
0.0
  0
LINE
  5
   681
  8
0
  6
CONTINUOUS
 62
     7
 10
164.292774963379
 20
58.0245819091797
 30
0.0
 11
164.292774963379
 21
74.3245819091797
 31
0.0
  0
LINE
  5
   682
  8
0
  6
CONTINUOUS
 62
     7
 10
162.492774963379
 20
58.0245819091797
 30
0.0
 11
162.492774963379
 21
74.3245819091797
 31
0.0
  0
LINE
  5
   683
  8
0
  6
CONTINUOUS
 62
     7
 10
162.992774963379
 20
58.0245819091797
 30
0.0
 11
162.992774963379
 21
74.3245819091797
 31
0.0
  0
LINE
  5
   684
  8
0
  6
CONTINUOUS
 62
     7
 10
161.192774963379
 20
58.0245819091797
 30
0.0
 11
161.192774963379
 21
74.3245819091797
 31
0.0
  0
LINE
  5
   685
  8
0
  6
CONTINUOUS
 62
     7
 10
160.692774963379
 20
58.0245819091797
 30
0.0
 11
160.692774963379
 21
74.3245819091797
 31
0.0
  0
LINE
  5
   686
  8
0
  6
CONTINUOUS
 62
     7
 10
158.892774963379
 20
58.0245819091797
 30
0.0
 11
158.892774963379
 21
74.3245819091797
 31
0.0
  0
LINE
  5
   687
  8
0
  6
CONTINUOUS
 62
     7
 10
159.392774963379
 20
58.0245819091797
 30
0.0
 11
159.392774963379
 21
74.3245819091797
 31
0.0
  0
LINE
  5
   688
  8
0
  6
CONTINUOUS
 62
     7
 10
157.592774963379
 20
58.0245819091797
 30
0.0
 11
157.592774963379
 21
74.3245819091797
 31
0.0
  0
LINE
  5
   689
  8
0
  6
CONTINUOUS
 62
     7
 10
157.092774963379
 20
58.0245819091797
 30
0.0
 11
157.092774963379
 21
74.3245819091797
 31
0.0
  0
LINE
  5
   68A
  8
0
  6
CONTINUOUS
 62
     7
 10
155.292774963379
 20
58.0245819091797
 30
0.0
 11
155.292774963379
 21
74.3245819091797
 31
0.0
  0
LINE
  5
   68B
  8
0
  6
CONTINUOUS
 62
     7
 10
155.792774963379
 20
58.0245819091797
 30
0.0
 11
155.792774963379
 21
74.3245819091797
 31
0.0
  0
LINE
  5
   68C
  8
0
  6
CONTINUOUS
 62
     7
 10
153.992774963379
 20
58.0245819091797
 30
0.0
 11
153.992774963379
 21
74.3245819091797
 31
0.0
  0
LINE
  5
   68D
  8
0
  6
CONTINUOUS
 62
     7
 10
153.492774963379
 20
58.0245819091797
 30
0.0
 11
153.492774963379
 21
74.3245819091797
 31
0.0
  0
LINE
  5
   68E
  8
0
  6
CONTINUOUS
 62
     7
 10
151.692774963379
 20
58.0245819091797
 30
0.0
 11
151.692774963379
 21
74.3245819091797
 31
0.0
  0
LINE
  5
   68F
  8
0
  6
CONTINUOUS
 62
     7
 10
152.192774963379
 20
58.0245819091797
 30
0.0
 11
152.192774963379
 21
74.3245819091797
 31
0.0
  0
LINE
  5
   690
  8
0
  6
CONTINUOUS
 62
     7
 10
150.392774963379
 20
58.0245819091797
 30
0.0
 11
150.392774963379
 21
74.3245819091797
 31
0.0
  0
LINE
  5
   691
  8
0
  6
CONTINUOUS
 62
     7
 10
149.892774963379
 20
58.0245819091797
 30
0.0
 11
149.892774963379
 21
74.3245819091797
 31
0.0
  0
LINE
  5
   692
  8
0
  6
CONTINUOUS
 62
     7
 10
148.092774963379
 20
58.0245819091797
 30
0.0
 11
148.092774963379
 21
74.3245819091797
 31
0.0
  0
LINE
  5
   693
  8
0
  6
CONTINUOUS
 62
     7
 10
148.592774963379
 20
58.0245819091797
 30
0.0
 11
148.592774963379
 21
74.3245819091797
 31
0.0
  0
LINE
  5
   694
  8
0
  6
CONTINUOUS
 62
     7
 10
146.792774963379
 20
58.0245819091797
 30
0.0
 11
146.792774963379
 21
74.3245819091797
 31
0.0
  0
LINE
  5
   695
  8
0
  6
CONTINUOUS
 62
     7
 10
146.292774963379
 20
58.0245819091797
 30
0.0
 11
146.292774963379
 21
74.3245819091797
 31
0.0
  0
LINE
  5
   696
  8
0
  6
CONTINUOUS
 62
     7
 10
144.492774963379
 20
58.0245819091797
 30
0.0
 11
144.492774963379
 21
74.3245819091797
 31
0.0
  0
LINE
  5
   697
  8
0
  6
CONTINUOUS
 62
     7
 10
144.992774963379
 20
58.0245819091797
 30
0.0
 11
144.992774963379
 21
74.3245819091797
 31
0.0
  0
LINE
  5
   698
  8
0
  6
CONTINUOUS
 62
     7
 10
143.192774963379
 20
58.0245819091797
 30
0.0
 11
143.192774963379
 21
74.3245819091797
 31
0.0
  0
LINE
  5
   699
  8
0
  6
CONTINUOUS
 62
     7
 10
142.692774963379
 20
58.0245819091797
 30
0.0
 11
142.692774963379
 21
74.3245819091797
 31
0.0
  0
LINE
  5
   69A
  8
0
  6
CONTINUOUS
 62
     7
 10
140.892774963379
 20
58.0245819091797
 30
0.0
 11
140.892774963379
 21
74.3245819091797
 31
0.0
  0
LINE
  5
   69B
  8
0
  6
CONTINUOUS
 62
     7
 10
141.392774963379
 20
58.0245819091797
 30
0.0
 11
141.392774963379
 21
74.3245819091797
 31
0.0
  0
LINE
  5
   69C
  8
0
  6
CONTINUOUS
 62
     7
 10
139.592774963379
 20
58.0245819091797
 30
0.0
 11
139.592774963379
 21
74.3245819091797
 31
0.0
  0
LINE
  5
   69D
  8
0
  6
CONTINUOUS
 62
     7
 10
139.092774963379
 20
58.0245819091797
 30
0.0
 11
139.092774963379
 21
74.3245819091797
 31
0.0
  0
LINE
  5
   69E
  8
0
  6
CONTINUOUS
 62
     7
 10
137.292774963379
 20
58.0245819091797
 30
0.0
 11
137.292774963379
 21
74.3245819091797
 31
0.0
  0
LINE
  5
   69F
  8
0
  6
CONTINUOUS
 62
     7
 10
137.792774963379
 20
58.0245819091797
 30
0.0
 11
137.792774963379
 21
74.3245819091797
 31
0.0
  0
LINE
  5
   6A0
  8
0
  6
CONTINUOUS
 62
     7
 10
135.992774963379
 20
58.0245819091797
 30
0.0
 11
135.992774963379
 21
74.3245819091797
 31
0.0
  0
LINE
  5
   6A1
  8
0
  6
CONTINUOUS
 62
     7
 10
135.492774963379
 20
58.0245819091797
 30
0.0
 11
135.492774963379
 21
74.3245819091797
 31
0.0
  0
LINE
  5
   6A2
  8
0
  6
CONTINUOUS
 62
     7
 10
133.692774963379
 20
58.0245819091797
 30
0.0
 11
133.692774963379
 21
74.3245819091797
 31
0.0
  0
LINE
  5
   6A3
  8
0
  6
CONTINUOUS
 62
     7
 10
134.192774963379
 20
58.0245819091797
 30
0.0
 11
134.192774963379
 21
74.3245819091797
 31
0.0
  0
LINE
  5
   6A4
  8
0
  6
CONTINUOUS
 62
     7
 10
132.392774963379
 20
58.0245819091797
 30
0.0
 11
132.392774963379
 21
74.3245819091797
 31
0.0
  0
LINE
  5
   6A5
  8
0
  6
CONTINUOUS
 62
     7
 10
131.892774963379
 20
58.0245819091797
 30
0.0
 11
131.892774963379
 21
74.3245819091797
 31
0.0
  0
LINE
  5
   6A6
  8
0
  6
CONTINUOUS
 62
     7
 10
130.092774963379
 20
58.0245819091797
 30
0.0
 11
130.092774963379
 21
74.3245819091797
 31
0.0
  0
LINE
  5
   6A7
  8
0
  6
CONTINUOUS
 62
     7
 10
130.592774963379
 20
58.0245819091797
 30
0.0
 11
130.592774963379
 21
74.3245819091797
 31
0.0
  0
LINE
  5
   6A8
  8
0
  6
CONTINUOUS
 62
     7
 10
128.792774963379
 20
58.0245819091797
 30
0.0
 11
128.792774963379
 21
74.3245819091797
 31
0.0
  0
LINE
  5
   6A9
  8
0
  6
CONTINUOUS
 62
     7
 10
128.292774963379
 20
58.0245819091797
 30
0.0
 11
128.292774963379
 21
74.3245819091797
 31
0.0
  0
LINE
  5
   6AA
  8
0
  6
CONTINUOUS
 62
     7
 10
126.492774963379
 20
58.0245819091797
 30
0.0
 11
126.492774963379
 21
74.3245819091797
 31
0.0
  0
LINE
  5
   6AB
  8
0
  6
CONTINUOUS
 62
     7
 10
126.992774963379
 20
58.0245819091797
 30
0.0
 11
126.992774963379
 21
74.3245819091797
 31
0.0
  0
LINE
  5
   6AC
  8
0
  6
CONTINUOUS
 62
     7
 10
125.192774963379
 20
58.0245819091797
 30
0.0
 11
125.192774963379
 21
74.3245819091797
 31
0.0
  0
LINE
  5
   6AD
  8
0
  6
CONTINUOUS
 62
     7
 10
124.692774963379
 20
58.0245819091797
 30
0.0
 11
124.692774963379
 21
74.3245819091797
 31
0.0
  0
LINE
  5
   6AE
  8
0
  6
CONTINUOUS
 62
     7
 10
122.892774963379
 20
58.0245819091797
 30
0.0
 11
122.892774963379
 21
74.3245819091797
 31
0.0
  0
LINE
  5
   6AF
  8
0
  6
CONTINUOUS
 62
     7
 10
123.392774963379
 20
58.0245819091797
 30
0.0
 11
123.392774963379
 21
74.3245819091797
 31
0.0
  0
LINE
  5
   6B0
  8
0
  6
CONTINUOUS
 62
     7
 10
121.592774963379
 20
58.0245819091797
 30
0.0
 11
121.592774963379
 21
74.3245819091797
 31
0.0
  0
LINE
  5
   6B1
  8
0
  6
CONTINUOUS
 62
     7
 10
121.092774963379
 20
58.0245819091797
 30
0.0
 11
121.092774963379
 21
74.3245819091797
 31
0.0
  0
LINE
  5
   6B2
  8
0
  6
CONTINUOUS
 62
     7
 10
119.292774963379
 20
58.0245819091797
 30
0.0
 11
119.292774963379
 21
74.3245819091797
 31
0.0
  0
LINE
  5
   6B3
  8
0
  6
CONTINUOUS
 62
     7
 10
119.792774963379
 20
58.0245819091797
 30
0.0
 11
119.792774963379
 21
74.3245819091797
 31
0.0
  0
LINE
  5
   6B4
  8
0
  6
CONTINUOUS
 62
     7
 10
117.992774963379
 20
58.0245819091797
 30
0.0
 11
117.992774963379
 21
74.3245819091797
 31
0.0
  0
LINE
  5
   6B5
  8
0
  6
CONTINUOUS
 62
     7
 10
117.492774963379
 20
58.0245819091797
 30
0.0
 11
117.492774963379
 21
74.3245819091797
 31
0.0
  0
LINE
  5
   6B6
  8
0
  6
CONTINUOUS
 62
     7
 10
115.692774963379
 20
58.0245819091797
 30
0.0
 11
115.692774963379
 21
74.3245819091797
 31
0.0
  0
LINE
  5
   6B7
  8
0
  6
CONTINUOUS
 62
     7
 10
116.192774963379
 20
58.0245819091797
 30
0.0
 11
116.192774963379
 21
74.3245819091797
 31
0.0
  0
LINE
  5
   6B8
  8
0
  6
CONTINUOUS
 62
     7
 10
114.392774963379
 20
58.0245819091797
 30
0.0
 11
114.392774963379
 21
74.3245819091797
 31
0.0
  0
LINE
  5
   6B9
  8
0
  6
CONTINUOUS
 62
     7
 10
113.892774963379
 20
58.0245819091797
 30
0.0
 11
113.892774963379
 21
74.3245819091797
 31
0.0
  0
LINE
  5
   6BA
  8
0
  6
CONTINUOUS
 62
     7
 10
112.092774963379
 20
58.0245819091797
 30
0.0
 11
112.092774963379
 21
74.3245819091797
 31
0.0
  0
LINE
  5
   6BB
  8
0
  6
CONTINUOUS
 62
     7
 10
112.592774963379
 20
58.0245819091797
 30
0.0
 11
112.592774963379
 21
74.3245819091797
 31
0.0
  0
LINE
  5
   6BC
  8
0
  6
CONTINUOUS
 62
     7
 10
110.792774963379
 20
58.0245819091797
 30
0.0
 11
110.792774963379
 21
74.3245819091797
 31
0.0
  0
LINE
  5
   6BD
  8
0
  6
CONTINUOUS
 62
     7
 10
110.292774963379
 20
58.0245819091797
 30
0.0
 11
110.292774963379
 21
74.3245819091797
 31
0.0
  0
LINE
  5
   6BE
  8
0
  6
CONTINUOUS
 62
     7
 10
108.492774963379
 20
58.0245819091797
 30
0.0
 11
108.492774963379
 21
74.3245819091797
 31
0.0
  0
LINE
  5
   6BF
  8
0
  6
CONTINUOUS
 62
     7
 10
108.992774963379
 20
58.0245819091797
 30
0.0
 11
108.992774963379
 21
74.3245819091797
 31
0.0
  0
LINE
  5
   6C0
  8
0
  6
CONTINUOUS
 62
     7
 10
107.192774963379
 20
58.0245819091797
 30
0.0
 11
107.192774963379
 21
74.3245819091797
 31
0.0
  0
LINE
  5
   6C1
  8
0
  6
CONTINUOUS
 62
     7
 10
106.692774963379
 20
58.0245819091797
 30
0.0
 11
106.692774963379
 21
74.3245819091797
 31
0.0
  0
LINE
  5
   6C2
  8
0
  6
CONTINUOUS
 62
     7
 10
104.892774963379
 20
58.0245819091797
 30
0.0
 11
104.892774963379
 21
74.3245819091797
 31
0.0
  0
LINE
  5
   6C3
  8
0
  6
CONTINUOUS
 62
     7
 10
105.392774963379
 20
58.0245819091797
 30
0.0
 11
105.392774963379
 21
74.3245819091797
 31
0.0
  0
LINE
  5
   6C4
  8
0
  6
CONTINUOUS
 62
     7
 10
103.592774963379
 20
58.0245819091797
 30
0.0
 11
103.592774963379
 21
74.3245819091797
 31
0.0
  0
LINE
  5
   6C5
  8
0
  6
CONTINUOUS
 62
     7
 10
103.092774963379
 20
58.0245819091797
 30
0.0
 11
103.092774963379
 21
74.3245819091797
 31
0.0
  0
LINE
  5
   6C6
  8
0
  6
CONTINUOUS
 62
   130
 10
16.9507004384396
 20
126.484870778791
 30
0.0
 11
16.9507004384396
 21
129.144867288343
 31
0.0
  0
LINE
  5
   6C7
  8
0
  6
CONTINUOUS
 62
   130
 10
18.6211067982277
 20
127.78161426653
 30
0.0
 11
18.7417733008402
 21
127.59404274392
 31
0.0
  0
LINE
  5
   6C8
  8
0
  6
CONTINUOUS
 62
   130
 10
18.7417761361797
 20
127.594047291994
 30
0.0
 11
18.8046881187868
 21
127.380071374765
 31
0.0
  0
LINE
  5
   6C9
  8
0
  6
CONTINUOUS
 62
   130
 10
18.8046824540586
 20
127.380070192222
 30
0.0
 11
18.8047587479666
 21
127.157036750992
 31
0.0
  0
LINE
  5
   6CA
  8
0
  6
CONTINUOUS
 62
   130
 10
18.7419811450779
 20
126.943019483884
 30
0.0
 11
18.8047634373896
 21
127.157034980214
 31
0.0
  0
LINE
  5
   6CB
  8
0
  6
CONTINUOUS
 62
   130
 10
18.6214314825679
 20
126.755366900038
 30
0.0
 11
18.7419759155881
 21
126.94301948569
 31
0.0
  0
LINE
  5
   6CC
  8
0
  6
CONTINUOUS
 62
   130
 10
18.4528984294832
 20
126.609284566275
 30
0.0
 11
18.6214317702724
 21
126.755365064941
 31
0.0
  0
LINE
  5
   6CD
  8
0
  6
CONTINUOUS
 62
   130
 10
18.2500267161297
 20
126.516615846875
 30
0.0
 11
18.4528999587331
 21
126.609284858541
 31
0.0
  0
LINE
  5
   6CE
  8
0
  6
CONTINUOUS
 62
   130
 10
18.0292609479853
 20
126.484864413645
 30
0.0
 11
18.2500251319638
 21
126.516611752085
 31
0.0
  0
LINE
  5
   6CF
  8
0
  6
CONTINUOUS
 62
   130
 10
17.7819458608029
 20
126.484870778791
 30
0.0
 11
18.0292603139279
 21
126.484870778791
 31
0.0
  0
LINE
  5
   6D0
  8
0
  6
CONTINUOUS
 62
   130
 10
17.7819458608029
 20
126.484870778791
 30
0.0
 11
17.7819458608029
 21
127.781616555921
 31
0.0
  0
LINE
  5
   6D1
  8
0
  6
CONTINUOUS
 62
   130
 10
17.7819458608029
 20
127.781616555921
 30
0.0
 11
18.621102965295
 21
127.781616555921
 31
0.0
  0
LINE
  5
   6D2
  8
0
  6
CONTINUOUS
 62
   130
 10
17.9956903527859
 20
129.144867789012
 30
0.0
 11
18.192872096158
 21
129.112534416014
 31
0.0
  0
LINE
  5
   6D3
  8
0
  6
CONTINUOUS
 62
   130
 10
18.1928711650686
 20
129.112527401744
 30
0.0
 11
18.3694077326291
 21
129.018929981965
 31
0.0
  0
LINE
  5
   6D4
  8
0
  6
CONTINUOUS
 62
   130
 10
18.3694083411524
 20
129.018943943572
 30
0.0
 11
18.5068137497016
 21
128.873863368062
 31
0.0
  0
LINE
  5
   6D5
  8
0
  6
CONTINUOUS
 62
   130
 10
18.5068166436038
 20
128.873852202969
 30
0.0
 11
18.5907094718266
 21
128.692501481594
 31
0.0
  0
LINE
  5
   6D6
  8
0
  6
CONTINUOUS
 62
   130
 10
18.5907127683734
 20
128.69250645197
 30
0.0
 11
18.612296319107
 21
128.493852235246
 31
0.0
  0
LINE
  5
   6D7
  8
0
  6
CONTINUOUS
 62
   130
 10
18.5693117596264
 20
128.298710249786
 30
0.0
 11
18.6122957648325
 21
128.493847261796
 31
0.0
  0
LINE
  5
   6D8
  8
0
  6
CONTINUOUS
 62
   130
 10
18.4662696864323
 20
128.127507479111
 30
0.0
 11
18.5693122775359
 21
128.298711086678
 31
0.0
  0
LINE
  5
   6D9
  8
0
  6
CONTINUOUS
 62
   130
 10
18.3139462557821
 20
127.998177164576
 30
0.0
 11
18.4662671033557
 21
128.127510642131
 31
0.0
  0
LINE
  5
   6DA
  8
0
  6
CONTINUOUS
 62
   130
 10
18.3139443472362
 20
127.998177164024
 30
0.0
 11
18.4419122004281
 21
127.934250461378
 31
0.0
  0
LINE
  5
   6DB
  8
0
  6
CONTINUOUS
 62
   130
 10
18.4419132694833
 20
127.934248698815
 30
0.0
 11
18.5561253212382
 21
127.84811282162
 31
0.0
  0
LINE
  5
   6DC
  8
0
  6
CONTINUOUS
 62
   130
 10
17.7819458608029
 20
127.848114358656
 30
0.0
 11
18.5561234120724
 21
127.848114358656
 31
0.0
  0
LINE
  5
   6DD
  8
0
  6
CONTINUOUS
 62
   130
 10
17.7819458608029
 20
127.848114358656
 30
0.0
 11
17.7819458608029
 21
129.144867288343
 31
0.0
  0
LINE
  5
   6DE
  8
0
  6
CONTINUOUS
 62
   130
 10
17.7819458608029
 20
129.144867288343
 30
0.0
 11
17.9956909779904
 21
129.144867288343
 31
0.0
  0
LINE
  5
   6DF
  8
0
  6
CONTINUOUS
 62
   130
 10
20.6826053502347
 20
127.781613756499
 30
0.0
 11
20.8032718528471
 21
127.59404223389
 31
0.0
  0
LINE
  5
   6E0
  8
0
  6
CONTINUOUS
 62
   130
 10
20.8032748225715
 20
127.594047394047
 30
0.0
 11
20.8661868051785
 21
127.380071476818
 31
0.0
  0
LINE
  5
   6E1
  8
0
  6
CONTINUOUS
 62
   130
 10
20.8661853487172
 20
127.380069960496
 30
0.0
 11
20.8662540132648
 21
127.157036521717
 31
0.0
  0
LINE
  5
   6E2
  8
0
  6
CONTINUOUS
 62
   130
 10
20.8034859432593
 20
126.943016677451
 30
0.0
 11
20.8662605997441
 21
127.1570321507
 31
0.0
  0
LINE
  5
   6E3
  8
0
  6
CONTINUOUS
 62
   130
 10
20.6829330655028
 20
126.755366643662
 30
0.0
 11
20.8034774985229
 21
126.943019229313
 31
0.0
  0
LINE
  5
   6E4
  8
0
  6
CONTINUOUS
 62
   130
 10
20.5143984030643
 20
126.609285540645
 30
0.0
 11
20.6829317438535
 21
126.755366039311
 31
0.0
  0
LINE
  5
   6E5
  8
0
  6
CONTINUOUS
 62
   130
 10
20.3115270509936
 20
126.516617154221
 30
0.0
 11
20.514400293597
 21
126.609286165887
 31
0.0
  0
LINE
  5
   6E6
  8
0
  6
CONTINUOUS
 62
   130
 10
20.0907640825026
 20
126.484869319733
 30
0.0
 11
20.3115282664811
 21
126.516616658173
 31
0.0
  0
LINE
  5
   6E7
  8
0
  6
CONTINUOUS
 62
   130
 10
19.8434464101193
 20
126.484870778791
 30
0.0
 11
20.0907608632443
 21
126.484870778791
 31
0.0
  0
LINE
  5
   6E8
  8
0
  6
CONTINUOUS
 62
   130
 10
19.8434464101193
 20
126.484870778791
 30
0.0
 11
19.8434464101193
 21
127.781616555921
 31
0.0
  0
LINE
  5
   6E9
  8
0
  6
CONTINUOUS
 62
   130
 10
19.8434464101193
 20
127.781616555921
 30
0.0
 11
20.6826035146114
 21
127.781616555921
 31
0.0
  0
LINE
  5
   6EA
  8
0
  6
CONTINUOUS
 62
   130
 10
20.2543766976411
 20
129.112524988401
 30
0.0
 11
20.4309132652017
 21
129.018927568622
 31
0.0
  0
LINE
  5
   6EB
  8
0
  6
CONTINUOUS
 62
   130
 10
20.430905801526
 20
129.018940466107
 30
0.0
 11
20.5683112100752
 21
128.873859890597
 31
0.0
  0
LINE
  5
   6EC
  8
0
  6
CONTINUOUS
 62
   130
 10
20.5683141591799
 20
128.87385826834
 30
0.0
 11
20.6521993651642
 21
128.69250753833
 31
0.0
  0
LINE
  5
   6ED
  8
0
  6
CONTINUOUS
 62
   130
 10
20.6522048112333
 20
128.692503151999
 30
0.0
 11
20.6737883619669
 21
128.493848935275
 31
0.0
  0
LINE
  5
   6EE
  8
0
  6
CONTINUOUS
 62
   130
 10
20.6308135640304
 20
128.298709422363
 30
0.0
 11
20.6737899382916
 21
128.493846422985
 31
0.0
  0
LINE
  5
   6EF
  8
0
  6
CONTINUOUS
 62
   130
 10
20.5277733285663
 20
128.127505201306
 30
0.0
 11
20.6308159196699
 21
128.298708808873
 31
0.0
  0
LINE
  5
   6F0
  8
0
  6
CONTINUOUS
 62
   130
 10
20.3754479349703
 20
127.998173175983
 30
0.0
 11
20.5277687825438
 21
128.127506653538
 31
0.0
  0
LINE
  5
   6F1
  8
0
  6
CONTINUOUS
 62
   130
 10
20.3754463749111
 20
127.99817701525
 30
0.0
 11
20.5034142281029
 21
127.934250312604
 31
0.0
  0
LINE
  5
   6F2
  8
0
  6
CONTINUOUS
 62
   130
 10
20.5034088587764
 20
127.93425258057
 30
0.0
 11
20.6176209105313
 21
127.848116703374
 31
0.0
  0
LINE
  5
   6F3
  8
0
  6
CONTINUOUS
 62
   130
 10
19.8434464101193
 20
127.848114358656
 30
0.0
 11
20.6176239613888
 21
127.848114358656
 31
0.0
  0
LINE
  5
   6F4
  8
0
  6
CONTINUOUS
 62
   130
 10
19.8434464101193
 20
127.848114358656
 30
0.0
 11
19.8434464101193
 21
129.144867288343
 31
0.0
  0
LINE
  5
   6F5
  8
0
  6
CONTINUOUS
 62
   130
 10
19.8434464101193
 20
129.144867288343
 30
0.0
 11
20.0571838979122
 21
129.144867288343
 31
0.0
  0
LINE
  5
   6F6
  8
0
  6
CONTINUOUS
 62
   130
 10
19.0121933583614
 20
126.484870778791
 30
0.0
 11
19.0121933583614
 21
127.781616555921
 31
0.0
  0
LINE
  5
   6F7
  8
0
  6
CONTINUOUS
 62
   130
 10
19.0121933583614
 20
127.781616555921
 30
0.0
 11
19.7769486073849
 21
127.781616555921
 31
0.0
  0
LINE
  5
   6F8
  8
0
  6
CONTINUOUS
 62
   130
 10
19.7769486073849
 20
126.484870778791
 30
0.0
 11
19.7769486073849
 21
127.781616555921
 31
0.0
  0
LINE
  5
   6F9
  8
0
  6
CONTINUOUS
 62
   130
 10
19.0121933583614
 20
126.484870778791
 30
0.0
 11
19.7769486073849
 21
126.484870778791
 31
0.0
  0
LINE
  5
   6FA
  8
0
  6
CONTINUOUS
 62
   130
 10
19.0121933583614
 20
129.144867288343
 30
0.0
 11
19.7769486073849
 21
129.144867288343
 31
0.0
  0
LINE
  5
   6FB
  8
0
  6
CONTINUOUS
 62
   130
 10
19.7769486073849
 20
127.848114358656
 30
0.0
 11
19.7769486073849
 21
129.144867288343
 31
0.0
  0
LINE
  5
   6FC
  8
0
  6
CONTINUOUS
 62
   130
 10
19.0121933583614
 20
127.848114358656
 30
0.0
 11
19.7769486073849
 21
127.848114358656
 31
0.0
  0
LINE
  5
   6FD
  8
0
  6
CONTINUOUS
 62
   130
 10
19.0121933583614
 20
127.848114358656
 30
0.0
 11
19.0121933583614
 21
129.144867288343
 31
0.0
  0
LINE
  5
   6FE
  8
0
  6
CONTINUOUS
 62
   130
 10
16.9507004384396
 20
127.781616555921
 30
0.0
 11
17.7154480580685
 21
127.781616555921
 31
0.0
  0
LINE
  5
   6FF
  8
0
  6
CONTINUOUS
 62
   130
 10
17.7154480580685
 20
126.484870778791
 30
0.0
 11
17.7154480580685
 21
127.781616555921
 31
0.0
  0
LINE
  5
   700
  8
0
  6
CONTINUOUS
 62
   130
 10
16.9507004384396
 20
126.484870778791
 30
0.0
 11
17.7154480580685
 21
126.484870778791
 31
0.0
  0
LINE
  5
   701
  8
0
  6
CONTINUOUS
 62
   130
 10
16.9507004384396
 20
129.144867288343
 30
0.0
 11
17.7154480580685
 21
129.144867288343
 31
0.0
  0
LINE
  5
   702
  8
0
  6
CONTINUOUS
 62
   130
 10
17.7154480580685
 20
127.848114358656
 30
0.0
 11
17.7154480580685
 21
129.144867288343
 31
0.0
  0
LINE
  5
   703
  8
0
  6
CONTINUOUS
 62
   130
 10
16.9507004384396
 20
127.848114358656
 30
0.0
 11
17.7154480580685
 21
127.848114358656
 31
0.0
  0
LINE
  5
   704
  8
0
  6
CONTINUOUS
 62
   130
 10
15.853456183299
 20
129.144864657469
 30
0.0
 11
16.3073211328302
 21
127.848111835197
 31
0.0
  0
LINE
  5
   705
  8
0
  6
CONTINUOUS
 62
   130
 10
15.4876953725216
 20
127.848114358656
 30
0.0
 11
16.3073135976193
 21
127.848114358656
 31
0.0
  0
LINE
  5
   706
  8
0
  6
CONTINUOUS
 62
   130
 10
15.4876953725216
 20
127.848114358656
 30
0.0
 11
15.4876953725216
 21
129.144867288343
 31
0.0
  0
LINE
  5
   707
  8
0
  6
CONTINUOUS
 62
   130
 10
15.4876953725216
 20
129.144867288343
 30
0.0
 11
15.8534485463497
 21
129.144867288343
 31
0.0
  0
LINE
  5
   708
  8
0
  6
CONTINUOUS
 62
   130
 10
16.1194473866818
 20
126.484870778791
 30
0.0
 11
16.7844483022091
 21
126.484870778791
 31
0.0
  0
LINE
  5
   709
  8
0
  6
CONTINUOUS
 62
   130
 10
15.9332559667278
 20
127.016871206672
 30
0.0
 11
16.1194589623877
 21
126.484871593733
 31
0.0
  0
LINE
  5
   70A
  8
0
  6
CONTINUOUS
 62
   130
 10
15.4876953725216
 20
127.016870366804
 30
0.0
 11
15.9332443837521
 21
127.016870366804
 31
0.0
  0
LINE
  5
   70B
  8
0
  6
CONTINUOUS
 62
   130
 10
15.4876953725216
 20
127.016870366804
 30
0.0
 11
15.4876953725216
 21
127.781616555921
 31
0.0
  0
LINE
  5
   70C
  8
0
  6
CONTINUOUS
 62
   130
 10
15.4876953725216
 20
127.781616555921
 30
0.0
 11
16.3305832509396
 21
127.781616555921
 31
0.0
  0
LINE
  5
   70D
  8
0
  6
CONTINUOUS
 62
   130
 10
16.330597467058
 20
127.781613679606
 30
0.0
 11
16.7844623826986
 21
126.484868172123
 31
0.0
  0
LINE
  5
   70E
  8
0
  6
CONTINUOUS
 62
   130
 10
14.1244500824305
 20
126.484868350845
 30
0.0
 11
14.5783149980711
 21
127.781613858328
 31
0.0
  0
LINE
  5
   70F
  8
0
  6
CONTINUOUS
 62
   130
 10
14.5783096913693
 20
127.781616555921
 30
0.0
 11
15.4211975697872
 21
127.781616555921
 31
0.0
  0
LINE
  5
   710
  8
0
  6
CONTINUOUS
 62
   130
 10
14.9756485585568
 20
127.016870366804
 30
0.0
 11
15.4211975697872
 21
127.016870366804
 31
0.0
  0
LINE
  5
   711
  8
0
  6
CONTINUOUS
 62
   130
 10
14.7894511700734
 20
126.484869276472
 30
0.0
 11
14.9756541657333
 21
127.016868889411
 31
0.0
  0
LINE
  5
   712
  8
0
  6
CONTINUOUS
 62
   130
 10
14.1244446400997
 20
126.484870778791
 30
0.0
 11
14.7894455556271
 21
126.484870778791
 31
0.0
  0
LINE
  5
   713
  8
0
  6
CONTINUOUS
 62
   130
 10
15.0554443959591
 20
129.144867288343
 30
0.0
 11
15.4211975697872
 21
129.144867288343
 31
0.0
  0
LINE
  5
   714
  8
0
  6
CONTINUOUS
 62
   130
 10
14.6015869740841
 20
127.848114358656
 30
0.0
 11
15.4211975697872
 21
127.848114358656
 31
0.0
  0
LINE
  5
   715
  8
0
  6
CONTINUOUS
 62
   130
 10
14.601594695326
 20
127.84811053025
 30
0.0
 11
15.0554520080439
 21
129.144863163672
 31
0.0
  0
LINE
  5
   716
  8
0
  6
CONTINUOUS
 62
   130
 10
45.7428268192234
 20
127.024566650367
 30
0.0
 11
66.7428570697731
 21
127.024566650367
 31
0.0
  0
LINE
  5
   717
  8
0
  6
CONTINUOUS
 62
   130
 10
45.2428268001499
 20
127.524566650367
 30
0.0
 11
67.2428570888466
 21
127.524566650367
 31
0.0
  0
LINE
  5
   718
  8
0
  6
CONTINUOUS
 62
   130
 10
67.2428562496116
 20
124.024566650367
 30
0.0
 11
67.2428562496116
 21
127.524566650367
 31
0.0
  0
LINE
  5
   719
  8
0
  6
CONTINUOUS
 62
   130
 10
66.7428562496116
 20
124.024566650367
 30
0.0
 11
66.7428562496116
 21
127.024566650367
 31
0.0
  0
LINE
  5
   71A
  8
0
  6
CONTINUOUS
 62
   130
 10
45.742827639385
 20
124.024566650367
 30
0.0
 11
45.742827639385
 21
127.024566650367
 31
0.0
  0
LINE
  5
   71B
  8
0
  6
CONTINUOUS
 62
   130
 10
45.242827639385
 20
124.024566650367
 30
0.0
 11
45.242827639385
 21
127.524566650367
 31
0.0
  0
LINE
  5
   71C
  8
0
  6
CONTINUOUS
 62
   130
 10
67.2428569934791
 20
125.024566650367
 30
0.0
 11
101.242774963375
 21
125.024566650367
 31
0.0
  0
LINE
  5
   71D
  8
0
  6
CONTINUOUS
 62
   130
 10
11.2428403854826
 20
125.024566650367
 30
0.0
 11
45.2428268955174
 21
125.024566650367
 31
0.0
  0
LINE
  5
   71E
  8
0
  6
CONTINUOUS
 62
   130
 10
45.7428280365646
 20
95.1127158557382
 30
0.0
 11
49.7428280365646
 21
95.1127158557382
 31
0.0
  0
LINE
  5
   71F
  8
0
  6
CONTINUOUS
 62
   130
 10
45.742827639385
 20
95.1127158557382
 30
0.0
 11
45.742827639385
 21
98.1127158557382
 31
0.0
  0
LINE
  5
   720
  8
0
  6
CONTINUOUS
 62
   130
 10
45.7428279221236
 20
98.1127158557382
 30
0.0
 11
48.7428279221236
 21
98.1127158557382
 31
0.0
  0
LINE
  5
   721
  8
0
  6
CONTINUOUS
 62
     7
 10
40.7428251266372
 20
88.0245513915895
 30
0.0
 11
40.7428251266372
 21
92.7745513915895
 31
0.0
  0
LINE
  5
   722
  8
0
  6
CONTINUOUS
 62
     7
 10
30.7428251266372
 20
88.0245513915895
 30
0.0
 11
30.7428251266372
 21
92.7745513915895
 31
0.0
  0
LINE
  5
   723
  8
0
  6
CONTINUOUS
 62
     7
 10
30.7428251266372
 20
88.0245513915895
 30
0.0
 11
40.7428251266372
 21
88.0245513915895
 31
0.0
  0
LINE
  5
   724
  8
0
  6
CONTINUOUS
 62
     7
 10
30.7428251266372
 20
92.7745513915895
 30
0.0
 11
40.7428251266372
 21
92.7745513915895
 31
0.0
  0
LINE
  5
   725
  8
0
  6
CONTINUOUS
 62
   252
 10
40.7428251266372
 20
92.0245513915895
 30
0.0
 11
58.7014045715332
 21
92.0245513915895
 31
0.0
  0
LINE
  5
   726
  8
0
  6
DASHDOT
 62
     7
 10
8.12206144686465
 20
108.02458190918
 30
0.0
 11
182.664413252175
 21
108.02458190918
 31
0.0
  0
INSERT
  5
   727
  8
0
  6
CONTINUOUS
 62
     7
  2
*UDIM1281
 10
0.0
 20
0.0
 30
0.0
  0
INSERT
  5
   728
  8
0
  6
CONTINUOUS
 62
     7
  2
*UDIM1282
 10
0.0
 20
0.0
 30
0.0
  0
INSERT
  5
   729
  8
0
  6
CONTINUOUS
 62
     7
  2
*UDIM1283
 10
0.0
 20
0.0
 30
0.0
  0
INSERT
  5
   72A
  8
0
  6
CONTINUOUS
 62
     7
  2
*UDIM1284
 10
0.0
 20
0.0
 30
0.0
  0
INSERT
  5
   72B
  8
0
  6
CONTINUOUS
 62
     7
  2
*UDIM1285
 10
0.0
 20
0.0
 30
0.0
  0
TEXT
  5
   72C
  8
0
  6
CONTINUOUS
 62
     2
 10
54.8107240416062
 20
50.271970795091
 30
0.0
 40
3.5
  1
Y
 41
0.933333333333334
 72
     1
 11
56.0940573749395
 21
52.021970795091
 31
0.0
 73
     2
  0
TEXT
  5
   72D
  8
0
  6
CONTINUOUS
 62
     2
 10
54.8107240416062
 20
185.724675502393
 30
0.0
 40
3.5
  1
Y
 41
0.933333333333334
 72
     1
 11
56.0940573749395
 21
187.474675502393
 31
0.0
 73
     2
  0
LINE
  5
   72E
  8
0
  6
CONTINUOUS
 62
     7
 10
-0.214625466223197
 20
55.8618583331836
 30
0.0
 11
-0.214625466223197
 21
185.108128821582
 31
0.0
  0
INSERT
  5
   72F
  8
0
  6
CONTINUOUS
 62
     7
  2
*UDIM1286
 10
0.0
 20
0.0
 30
0.0
  0
INSERT
  5
   730
  8
0
  6
CONTINUOUS
 62
     2
  2
*UDIM1287
 10
0.0
 20
0.0
 30
0.0
  0
INSERT
  5
   731
  8
0
  6
CONTINUOUS
 62
     7
  2
*UDIM1288
 10
0.0
 20
0.0
 30
0.0
  0
CIRCLE
  5
   732
  8
0
  6
CONTINUOUS
 62
     3
 10
71.2428117034116
 20
170.02455380089
 30
0.0
 40
4.0
  0
LINE
  5
   733
  8
0
  6
CONTINUOUS
 62
     3
 10
70.6778117034116
 20
167.72455380089
 30
0.0
 11
70.6778117034116
 21
169.45955380089
 31
0.0
  0
LINE
  5
   734
  8
0
  6
CONTINUOUS
 62
     3
 10
71.8078117034116
 20
167.72455380089
 30
0.0
 11
71.8078117034116
 21
169.45955380089
 31
0.0
  0
LINE
  5
   735
  8
0
  6
CONTINUOUS
 62
     3
 10
71.8078117034116
 20
169.45955380089
 30
0.0
 11
73.5428117034116
 21
169.45955380089
 31
0.0
  0
LINE
  5
   736
  8
0
  6
CONTINUOUS
 62
     3
 10
71.8078117034116
 20
170.58955380089
 30
0.0
 11
73.5428117034116
 21
170.58955380089
 31
0.0
  0
LINE
  5
   737
  8
0
  6
CONTINUOUS
 62
     3
 10
68.9428117034116
 20
169.45955380089
 30
0.0
 11
68.9428117034116
 21
170.58955380089
 31
0.0
  0
LINE
  5
   738
  8
0
  6
CONTINUOUS
 62
     3
 10
73.5428117034116
 20
169.45955380089
 30
0.0
 11
73.5428117034116
 21
170.58955380089
 31
0.0
  0
LINE
  5
   739
  8
0
  6
CONTINUOUS
 62
     3
 10
70.6778117034116
 20
167.72455380089
 30
0.0
 11
71.8078117034116
 21
167.72455380089
 31
0.0
  0
LINE
  5
   73A
  8
0
  6
CONTINUOUS
 62
     3
 10
70.6778117034116
 20
172.32455380089
 30
0.0
 11
71.8078117034116
 21
172.32455380089
 31
0.0
  0
LINE
  5
   73B
  8
0
  6
CONTINUOUS
 62
     3
 10
70.6778117034116
 20
170.58955380089
 30
0.0
 11
70.6778117034116
 21
172.32455380089
 31
0.0
  0
LINE
  5
   73C
  8
0
  6
CONTINUOUS
 62
     3
 10
71.8078117034116
 20
170.58955380089
 30
0.0
 11
71.8078117034116
 21
172.32455380089
 31
0.0
  0
LINE
  5
   73D
  8
0
  6
CONTINUOUS
 62
     3
 10
68.9428117034116
 20
170.58955380089
 30
0.0
 11
70.6778117034116
 21
170.58955380089
 31
0.0
  0
LINE
  5
   73E
  8
0
  6
CONTINUOUS
 62
     3
 10
68.9428117034116
 20
169.45955380089
 30
0.0
 11
70.6778117034116
 21
169.45955380089
 31
0.0
  0
CIRCLE
  5
   73F
  8
0
  6
CONTINUOUS
 62
     3
 10
41.2428117036836
 20
70.0244344105425
 30
0.0
 40
4.0
  0
LINE
  5
   740
  8
0
  6
CONTINUOUS
 62
     3
 10
38.9428117036836
 20
70.5894344105425
 30
0.0
 11
40.6778117036836
 21
70.5894344105425
 31
0.0
  0
LINE
  5
   741
  8
0
  6
CONTINUOUS
 62
     3
 10
38.9428117036836
 20
69.4594344105425
 30
0.0
 11
40.6778117036836
 21
69.4594344105425
 31
0.0
  0
LINE
  5
   742
  8
0
  6
CONTINUOUS
 62
     3
 10
40.6778117036836
 20
67.7244344105425
 30
0.0
 11
40.6778117036836
 21
69.4594344105425
 31
0.0
  0
LINE
  5
   743
  8
0
  6
CONTINUOUS
 62
     3
 10
41.8078117036836
 20
67.7244344105425
 30
0.0
 11
41.8078117036836
 21
69.4594344105425
 31
0.0
  0
LINE
  5
   744
  8
0
  6
CONTINUOUS
 62
     3
 10
40.6778117036836
 20
72.3244344105425
 30
0.0
 11
41.8078117036836
 21
72.3244344105425
 31
0.0
  0
LINE
  5
   745
  8
0
  6
CONTINUOUS
 62
     3
 10
40.6778117036836
 20
67.7244344105425
 30
0.0
 11
41.8078117036836
 21
67.7244344105425
 31
0.0
  0
LINE
  5
   746
  8
0
  6
CONTINUOUS
 62
     3
 10
38.9428117036836
 20
69.4594344105425
 30
0.0
 11
38.9428117036836
 21
70.5894344105425
 31
0.0
  0
LINE
  5
   747
  8
0
  6
CONTINUOUS
 62
     3
 10
43.5428117036836
 20
69.4594344105425
 30
0.0
 11
43.5428117036836
 21
70.5894344105425
 31
0.0
  0
LINE
  5
   748
  8
0
  6
CONTINUOUS
 62
     3
 10
41.8078117036836
 20
70.5894344105425
 30
0.0
 11
43.5428117036836
 21
70.5894344105425
 31
0.0
  0
LINE
  5
   749
  8
0
  6
CONTINUOUS
 62
     3
 10
41.8078117036836
 20
69.4594344105425
 30
0.0
 11
43.5428117036836
 21
69.4594344105425
 31
0.0
  0
LINE
  5
   74A
  8
0
  6
CONTINUOUS
 62
     3
 10
41.8078117036836
 20
70.5894344105425
 30
0.0
 11
41.8078117036836
 21
72.3244344105425
 31
0.0
  0
LINE
  5
   74B
  8
0
  6
CONTINUOUS
 62
     3
 10
40.6778117036836
 20
70.5894344105425
 30
0.0
 11
40.6778117036836
 21
72.3244344105425
 31
0.0
  0
LINE
  5
   74C
  8
0
  6
CONTINUOUS
 62
     7
 10
40.4928117036743
 20
204.52455139159
 30
0.0
 11
41.9928117036743
 21
204.52455139159
 31
0.0
  0
LINE
  5
   74D
  8
0
  6
CONTINUOUS
 62
     7
 10
40.4928117036743
 20
180.02455139159
 30
0.0
 11
40.4928117036743
 21
204.52455139159
 31
0.0
  0
LINE
  5
   74E
  8
0
  6
CONTINUOUS
 62
     7
 10
41.9928117036743
 20
180.024555899883
 30
0.0
 11
41.9928117036743
 21
204.52455139159
 31
0.0
  0
LINE
  5
   74F
  8
0
  6
CONTINUOUS
 62
     7
 10
71.9928117036743
 20
180.024555899883
 30
0.0
 11
71.9928117036743
 21
204.52455139159
 31
0.0
  0
LINE
  5
   750
  8
0
  6
CONTINUOUS
 62
     7
 10
70.4928117036743
 20
180.02455139159
 30
0.0
 11
70.4928117036743
 21
204.52455139159
 31
0.0
  0
LINE
  5
   751
  8
0
  6
CONTINUOUS
 62
     7
 10
70.4928117036743
 20
204.52455139159
 30
0.0
 11
71.9928117036743
 21
204.52455139159
 31
0.0
  0
INSERT
  5
   752
  8
0
  6
CONTINUOUS
 62
     7
  2
*UDIM1289
 10
0.0
 20
0.0
 30
0.0
  0
INSERT
  5
   753
  8
255
  6
CONTINUOUS
 62
     7
  2
$5SACE
 10
172.652389199513
 20
126.275918654455
 30
0.0
 41
1.2
 42
1.2
 50
359.999999792138
 43
1.2
  0
INSERT
  5
   754
  8
255
  6
CONTINUOUS
 62
     7
  2
$5ABB
 10
110.313527995805
 20
126.208507105582
 30
0.0
 41
1.2
 42
1.2
 50
359.999999792138
 43
1.2
  0
LINE
  5
   755
  8
0
  6
DASHDOT
 62
     7
 10
101.242774963379
 20
125.024585723877
 30
0.0
 11
179.242774963379
 21
125.024585723877
 31
0.0
  0
LINE
  5
   756
  8
0
  6
CONTINUOUS
 62
   252
 10
17.1064316734538
 20
-33.675760269165
 30
0.0
 11
17.1064316734538
 21
-33.5257434844971
 31
0.0
  0
POINT
  5
   757
  8
0
  6
CONTINUOUS
 62
     7
 10
53.1064900457314
 20
8.32424583622218
 30
0.0
  0
POINT
  5
   758
  8
0
  6
CONTINUOUS
 62
     7
 10
20.1064900457314
 20
-31.6757541637778
 30
0.0
  0
POINT
  5
   759
  8
0
  6
CONTINUOUS
 62
     7
 10
2.10643697964014
 20
-36.6757602691715
 30
0.0
  0
POINT
  5
   75A
  8
0
  6
CONTINUOUS
 62
     7
 10
-12.8935630202332
 20
13.3241824449562
 30
0.0
  0
CIRCLE
  5
   75B
  8
0
  6
CONTINUOUS
 62
     7
 10
53.1064900457314
 20
8.32424583622218
 30
0.0
 40
1.125
  0
CIRCLE
  5
   75C
  8
0
  6
CONTINUOUS
 62
     7
 10
20.1064900457314
 20
-31.6757541637778
 30
0.0
 40
1.125
  0
CIRCLE
  5
   75D
  8
0
  6
CONTINUOUS
 62
     7
 10
2.10643697964014
 20
-36.6757602691715
 30
0.0
 40
1.125
  0
CIRCLE
  5
   75E
  8
0
  6
CONTINUOUS
 62
     7
 10
-12.8935630202332
 20
13.3241824449562
 30
0.0
 40
1.125
  0
LINE
  5
   75F
  8
0
  6
DASHDOT
 62
     7
 10
53.1064900457314
 20
6.19924583622218
 30
0.0
 11
53.1064900457314
 21
31.0138165335245
 31
0.0
  0
LINE
  5
   760
  8
0
  6
DASHDOT
 62
     7
 10
37.0822229225331
 20
8.32424583622218
 30
0.0
 11
55.2314900457314
 21
8.32424583622218
 31
0.0
  0
LINE
  5
   761
  8
0
  6
DASHDOT
 62
     7
 10
-12.8935630202332
 20
11.1991824449562
 30
0.0
 11
-12.8935630202332
 21
31.7506294979118
 31
0.0
  0
LINE
  5
   762
  8
0
  6
DASHDOT
 62
     7
 10
-30.4589654796373
 20
13.3241824449562
 30
0.0
 11
-10.7685630202332
 21
13.3241824449562
 31
0.0
  0
LINE
  5
   763
  8
0
  6
DASHDOT
 62
     7
 10
20.1064900457314
 20
-33.8007541637778
 30
0.0
 11
20.1064900457314
 21
31.3412889621411
 31
0.0
  0
LINE
  5
   764
  8
0
  6
DASHDOT
 62
     7
 10
17.9814900457314
 20
-31.6757541637778
 30
0.0
 11
40.0294747800823
 21
-31.6757541637778
 31
0.0
  0
LINE
  5
   765
  8
0
  6
DASHDOT
 62
     7
 10
2.10643697964014
 20
-38.8007602691715
 30
0.0
 11
2.10643697964014
 21
29.7039268190582
 31
0.0
  0
LINE
  5
   766
  8
0
  6
DASHDOT
 62
     7
 10
-32.7512724799534
 20
-36.6757602691715
 30
0.0
 11
4.23143697964014
 21
-36.6757602691715
 31
0.0
  0
LINE
  5
   767
  8
0
  6
CONTINUOUS
 62
     7
 10
-16.4460056677679
 20
-47.3648674942508
 30
0.0
 11
57.764011719738
 21
-47.1578660510499
 31
0.0
  0
INSERT
  5
   768
  8
0
  6
CONTINUOUS
 62
     7
  2
*UDIM1290
 10
0.0
 20
0.0
 30
0.0
  0
INSERT
  5
   769
  8
0
  6
CONTINUOUS
 62
     7
  2
*UDIM1291
 10
0.0
 20
0.0
 30
0.0
  0
INSERT
  5
   76A
  8
0
  6
CONTINUOUS
 62
     7
  2
*UDIM1292
 10
0.0
 20
0.0
 30
0.0
  0
INSERT
  5
   76B
  8
0
  6
CONTINUOUS
 62
     7
  2
*UDIM1293
 10
0.0
 20
0.0
 30
0.0
  0
INSERT
  5
   76C
  8
0
  6
CONTINUOUS
 62
     7
  2
*UDIM1294
 10
0.0
 20
0.0
 30
0.0
  0
LINE
  5
   76D
  8
0
  6
CONTINUOUS
 62
     7
 10
-17.5582238872749
 20
18.891560724954
 30
0.0
 11
58.3012750935929
 21
17.7742502748482
 31
0.0
  0
LINE
  5
   76E
  8
0
  6
CONTINUOUS
 62
     7
 10
57.764011719738
 20
-47.1578660510517
 30
0.0
 11
58.3012750935929
 21
17.7742502748465
 31
0.0
  0
LINE
  5
   76F
  8
0
  6
CONTINUOUS
 62
     7
 10
-17.5582238872749
 20
18.8915607249535
 30
0.0
 11
-16.4460056677679
 21
-47.3648674942513
 31
0.0
  0
INSERT
  5
   770
  8
0
  6
CONTINUOUS
 62
     7
  2
*UDIM1295
 10
0.0
 20
0.0
 30
0.0
  0
LINE
  5
   771
  8
0
  6
DASHDOT
 62
     7
 10
-5.3935630202965
 20
-50.3169378677295
 30
0.0
 11
-5.3935630202965
 21
20.6759588116604
 31
0.0
  0
LINE
  5
   772
  8
0
  6
DASHDOT
 62
     7
 10
-22.289374622113
 20
-17.6758175550438
 30
0.0
 11
61.4430449276583
 21
-17.6758175550438
 31
0.0
  0
TEXT
  5
   773
  8
0
  6
CONTINUOUS
 62
     2
 10
61.9018685680523
 20
-20.1636882863473
 30
0.0
 40
3.5
  1
X
 41
0.933333333333334
 72
     1
 11
63.1852019013856
 21
-18.4136882863473
 31
0.0
 73
     2
  0
TEXT
  5
   774
  8
0
  6
CONTINUOUS
 62
     2
 10
-26.8392522811851
 20
-19.9459186646313
 30
0.0
 40
3.5
  1
X
 41
0.933333333333334
 72
     1
 11
-25.5559189478518
 21
-18.1959186646313
 31
0.0
 73
     2
  0
TEXT
  5
   775
  8
0
  6
CONTINUOUS
 62
     2
 10
-6.58667746160457
 20
21.8658487048253
 30
0.0
 40
3.5
  1
Y
 41
0.933333333333334
 72
     1
 11
-5.30334412827123
 21
23.6158487048253
 31
0.0
 73
     2
  0
TEXT
  5
   776
  8
0
  6
CONTINUOUS
 62
     2
 10
-6.80444708332048
 20
-54.7890581391786
 30
0.0
 40
3.5
  1
Y
 41
0.933333333333334
 72
     1
 11
-5.52111374998715
 21
-53.0390581391786
 31
0.0
 73
     2
  0
INSERT
  5
   777
  8
0
  6
CONTINUOUS
 62
     7
  2
*UDIM1296
 10
0.0
 20
0.0
 30
0.0
  0
INSERT
  5
   778
  8
0
  6
CONTINUOUS
 62
     7
  2
*UDIM1297
 10
0.0
 20
0.0
 30
0.0
  0
ENDSEC
  0
EOF
