  0
SECTION
  2
HEADER
  9
$ACADVER
  1
AC1009
  9
$INSBASE
 10
0.0
 20
0.0
 30
0.0
  9
$EXTMIN
 10
0.577972
 20
0.580166
 30
0.0
  9
$EXTMAX
 10
392.577972
 20
263.080166
 30
0.0
  9
$LIMMIN
 10
0.0
 20
0.0
  9
$LIMMAX
 10
12.0
 20
9.0
  9
$ORTHOMODE
 70
     1
  9
$REGENMODE
 70
     1
  9
$FILLMODE
 70
     1
  9
$QTEXTMODE
 70
     0
  9
$MIRRTEXT
 70
     1
  9
$DRAGMODE
 70
     2
  9
$LTSCALE
 40
5.0
  9
$OSMODE
 70
     0
  9
$ATTMODE
 70
     1
  9
$TEXTSIZE
 40
2.0
  9
$TRACEWID
 40
0.05
  9
$TEXTSTYLE
  7
ROMANS
  9
$CLAYER
  8
0
  9
$CELTYPE
  6
CONTINUOUS
  9
$CECOLOR
 62
   256
  9
$DIMSCALE
 40
1.0
  9
$DIMASZ
 40
0.18
  9
$DIMEXO
 40
0.0625
  9
$DIMDLI
 40
0.38
  9
$DIMRND
 40
0.0
  9
$DIMDLE
 40
0.0
  9
$DIMEXE
 40
0.18
  9
$DIMTP
 40
0.0
  9
$DIMTM
 40
0.0
  9
$DIMTXT
 40
0.18
  9
$DIMCEN
 40
0.09
  9
$DIMTSZ
 40
0.0
  9
$DIMTOL
 70
     0
  9
$DIMLIM
 70
     0
  9
$DIMTIH
 70
     1
  9
$DIMTOH
 70
     1
  9
$DIMSE1
 70
     0
  9
$DIMSE2
 70
     0
  9
$DIMTAD
 70
     0
  9
$DIMZIN
 70
     0
  9
$DIMBLK
  1

  9
$DIMASO
 70
     1
  9
$DIMSHO
 70
     1
  9
$DIMPOST
  1

  9
$DIMAPOST
  1

  9
$DIMALT
 70
     0
  9
$DIMALTD
 70
     2
  9
$DIMALTF
 40
25.4
  9
$DIMLFAC
 40
1.0
  9
$DIMTOFL
 70
     0
  9
$DIMTVP
 40
0.0
  9
$DIMTIX
 70
     0
  9
$DIMSOXD
 70
     0
  9
$DIMSAH
 70
     0
  9
$DIMBLK1
  1

  9
$DIMBLK2
  1

  9
$DIMSTYLE
  2
*UNNAMED
  9
$DIMCLRD
 70
     0
  9
$DIMCLRE
 70
     0
  9
$DIMCLRT
 70
     0
  9
$DIMTFAC
 40
1.0
  9
$DIMGAP
 40
0.09
  9
$LUNITS
 70
     2
  9
$LUPREC
 70
     4
  9
$SKETCHINC
 40
0.1
  9
$FILLETRAD
 40
0.0
  9
$AUNITS
 70
     0
  9
$AUPREC
 70
     0
  9
$MENU
  1
acad
  9
$ELEVATION
 40
0.0
  9
$PELEVATION
 40
0.0
  9
$THICKNESS
 40
0.0
  9
$LIMCHECK
 70
     0
  9
$BLIPMODE
 70
     1
  9
$CHAMFERA
 40
0.0
  9
$CHAMFERB
 40
0.0
  9
$SKPOLY
 70
     0
  9
$TDCREATE
 40
2449171.346923727
  9
$TDUPDATE
 40
2449171.346923727
  9
$TDINDWG
 40
0.0000000000
  9
$TDUSRTIMER
 40
0.0000000000
  9
$USRTIMER
 70
     1
  9
$ANGBASE
 50
0.0
  9
$ANGDIR
 70
     0
  9
$PDMODE
 70
     0
  9
$PDSIZE
 40
0.0
  9
$PLINEWID
 40
0.0
  9
$COORDS
 70
     2
  9
$SPLFRAME
 70
     0
  9
$SPLINETYPE
 70
     6
  9
$SPLINESEGS
 70
     8
  9
$ATTDIA
 70
     0
  9
$ATTREQ
 70
     1
  9
$HANDLING
 70
     0
  9
$HANDSEED
  5
0
  9
$SURFTAB1
 70
   250
  9
$SURFTAB2
 70
   250
  9
$SURFTYPE
 70
     6
  9
$SURFU
 70
     6
  9
$SURFV
 70
     6
  9
$UCSNAME
  2

  9
$UCSORG
 10
0.0
 20
0.0
 30
0.0
  9
$UCSXDIR
 10
1.0
 20
0.0
 30
0.0
  9
$UCSYDIR
 10
0.0
 20
1.0
 30
0.0
  9
$PUCSNAME
  2

  9
$PUCSORG
 10
0.0
 20
0.0
 30
0.0
  9
$PUCSXDIR
 10
1.0
 20
0.0
 30
0.0
  9
$PUCSYDIR
 10
0.0
 20
1.0
 30
0.0
  9
$USERI1
 70
     0
  9
$USERI2
 70
     0
  9
$USERI3
 70
     0
  9
$USERI4
 70
     0
  9
$USERI5
 70
     0
  9
$USERR1
 40
0.0
  9
$USERR2
 40
0.0
  9
$USERR3
 40
0.0
  9
$USERR4
 40
0.0
  9
$USERR5
 40
0.0
  9
$WORLDVIEW
 70
     1
  9
$SHADEDGE
 70
     3
  9
$SHADEDIF
 70
    70
  9
$TILEMODE
 70
     1
  9
$MAXACTVP
 70
    16
  9
$PINSBASE
 10
0.0
 20
0.0
 30
0.0
  9
$PLIMCHECK
 70
     0
  9
$PEXTMIN
 10
1.000000E+20
 20
1.000000E+20
 30
1.000000E+20
  9
$PEXTMAX
 10
-1.000000E+20
 20
-1.000000E+20
 30
-1.000000E+20
  9
$PLIMMIN
 10
0.0
 20
0.0
  9
$PLIMMAX
 10
12.0
 20
9.0
  9
$UNITMODE
 70
     0
  9
$VISRETAIN
 70
     0
  9
$PLINEGEN
 70
     0
  9
$PSLTSCALE
 70
     0
  9
$TREEDEPTH
 70
  3020
  9
$DWGCODEPAGE
  3
undefined
  0
ENDSEC
  0
SECTION
  2
TABLES
  0
TABLE
  2
VPORT
 70
     2
  0
VPORT
  2
*ACTIVE
 70
     0
 10
0.0
 20
0.0
 11
1.0
 21
1.0
 12
222.716226
 22
142.163925
 13
0.0
 23
0.0
 14
2.5
 24
2.5
 15
0.0
 25
0.0
 16
0.0
 26
0.0
 36
1.0
 17
0.0
 27
0.0
 37
0.0
 40
284.32785
 41
1.566616
 42
50.0
 43
0.0
 44
0.0
 50
0.0
 51
0.0
 71
     0
 72
   100
 73
     1
 74
     1
 75
     1
 76
     0
 77
     0
 78
     0
  0
ENDTAB
  0
TABLE
  2
LTYPE
 70
     7
  0
LTYPE
  2
CONTINUOUS
 70
    64
  3
Solid line
 72
    65
 73
     0
 40
0.0
  0
LTYPE
  2
DASHED
 70
    64
  3
__ __ __ __ __ __ __ __ __ __ __ __ __ __ __ __
 72
    65
 73
     2
 40
0.75
 49
0.5
 49
-0.25
  0
LTYPE
  2
CENTER
 70
    64
  3
____ _ ____ _ ____ _ ____ _ ____ _ ____ _ ____ 
 72
    65
 73
     4
 40
2.0
 49
1.25
 49
-0.25
 49
0.25
 49
-0.25
  0
LTYPE
  2
HIDDEN
 70
    64
  3
__ __ __ __ __ __ __ __ __ __ __ __ __ __ __ __
 72
    65
 73
     2
 40
0.375
 49
0.25
 49
-0.125
  0
LTYPE
  2
DOT
 70
     0
  3
. . . . . . . . . . . . . . . . . . . . . . . .
 72
    65
 73
     2
 40
0.25
 49
0.0
 49
-0.25
  0
LTYPE
  2
DASHDOT
 70
     0
  3
__ . __ . __ . __ . __ . __ . __ . __ . __ . __
 72
    65
 73
     4
 40
1.0
 49
0.5
 49
-0.25
 49
0.0
 49
-0.25
  0
LTYPE
  2
PHANTOM
 70
     0
  3
______  __  __  ______  __  __  ______  __  __ 
 72
    65
 73
     6
 40
2.5
 49
1.25
 49
-0.25
 49
0.25
 49
-0.25
 49
0.25
 49
-0.25
  0
ENDTAB
  0
TABLE
  2
LAYER
 70
    13
  0
LAYER
  2
0
 70
    64
 62
     7
  6
CONTINUOUS
  0
LAYER
  2
RAAMI
 70
    64
 62
    -4
  6
CONTINUOUS
  0
LAYER
  2
PAKSU
 70
    64
 62
    -3
  6
CONTINUOUS
  0
LAYER
  2
OHUT
 70
    64
 62
    -6
  6
CONTINUOUS
  0
LAYER
  2
SWEDEN
 70
    64
 62
    -7
  6
CONTINUOUS
  0
LAYER
  2
SWEDEN2
 70
    64
 62
    -5
  6
CONTINUOUS
  0
LAYER
  2
BASE
 70
    64
 62
    -7
  6
CONTINUOUS
  0
LAYER
  2
21
 70
    64
 62
    -2
  6
CONTINUOUS
  0
LAYER
  2
HEL035
 70
    64
 62
    -7
  6
CONTINUOUS
  0
LAYER
  2
MUO
 70
    64
 62
    -7
  6
CONTINUOUS
  0
LAYER
  2
1
 70
    64
 62
    -2
  6
CONTINUOUS
  0
LAYER
  2
BASE1
 70
    64
 62
    -1
  6
CONTINUOUS
  0
LAYER
  2
TEKS
 70
    64
 62
    -5
  6
CONTINUOUS
  0
ENDTAB
  0
TABLE
  2
STYLE
 70
     7
  0
STYLE
  2
STANDARD
 70
    64
 40
0.0
 41
1.0
 50
0.0
 71
     0
 42
2.5
  3
txt
  4

  0
STYLE
  2
ROMANS
 70
    64
 40
0.0
 41
1.0
 50
0.0
 71
     0
 42
2.0
  3
ROMANS
  4

  0
STYLE
  2
GREEKC
 70
    64
 40
0.0
 41
1.0
 50
0.0
 71
     0
 42
1.5
  3
GREEKC
  4

  0
STYLE
  2
GREEKS
 70
    64
 40
0.0
 41
1.0
 50
0.0
 71
     0
 42
2.0
  3
TXT
  4

  0
STYLE
  2
MONOTXT
 70
     0
 40
0.0
 41
1.0
 50
0.0
 71
     0
 42
2.0
  3
monotxt
  4

  0
STYLE
  2
ROMANT
 70
     0
 40
0.0
 41
1.0
 50
0.0
 71
     0
 42
2.5
  3
romant
  4

  0
STYLE
  2
STAND
 70
    64
 40
0.0
 41
1.0
 50
0.0
 71
     0
 42
2.0
  3
TXT
  4

  0
ENDTAB
  0
TABLE
  2
VIEW
 70
     0
  0
ENDTAB
  0
TABLE
  2
UCS
 70
     0
  0
ENDTAB
  0
TABLE
  2
APPID
 70
     1
  0
APPID
  2
ACAD
 70
    64
  0
ENDTAB
  0
TABLE
  2
DIMSTYLE
 70
     0
  0
ENDTAB
  0
ENDSEC
  0
SECTION
  2
BLOCKS
  0
BLOCK
  8
0
  2
1
 70
    64
 10
0.0
 20
0.0
 30
0.0
  3
1
  0
ENDBLK
  8
0
  0
BLOCK
  8
0
  2
BLC27
 70
    64
 10
0.0
 20
0.0
 30
0.0
  3
BLC27
  0
INSERT
  8
SWEDEN2
  6
CENTER
  2
BLC26
 10
0.08063
 20
0.037985
 30
0.0
 41
1.006225
 42
1.006225
 43
1.006225
  0
ENDBLK
  8
0
  0
BLOCK
  8
0
  2
BLC26
 70
    64
 10
0.0
 20
0.0
 30
0.0
  3
BLC26
  0
ARC
  8
0
  6
CONTINUOUS
 10
-0.180576
 20
1.17922
 30
0.0
 40
1.196859
 50
90.0
 51
265.706237
  0
LINE
  8
0
  6
CONTINUOUS
 10
-0.186638
 20
-0.01092
 30
0.0
 11
0.458942
 21
-0.01092
 31
0.0
  0
LINE
  8
0
  6
CONTINUOUS
 10
-0.186638
 20
2.375671
 30
0.0
 11
0.45288
 21
2.375671
 31
0.0
  0
LINE
  8
0
  6
CONTINUOUS
 10
-0.185509
 20
-2.404629
 30
0.0
 11
0.460071
 21
-2.404629
 31
0.0
  0
ARC
  8
0
  6
CONTINUOUS
 10
-0.180576
 20
-1.207779
 30
0.0
 40
1.196859
 50
90.0
 51
270.0
  0
LINE
  8
0
  6
CONTINUOUS
 10
0.451525
 20
-2.404586
 30
0.0
 11
1.401805
 21
-2.404586
 31
0.0
  0
LINE
  8
0
  6
CONTINUOUS
 10
0.446785
 20
2.375674
 30
0.0
 11
1.418544
 21
2.375674
 31
0.0
  0
LINE
  8
0
  6
CONTINUOUS
 10
0.456627
 20
-0.010911
 30
0.0
 11
1.422749
 21
-0.010911
 31
0.0
  0
ENDBLK
  8
0
  0
BLOCK
  8
0
  2
BLC29
 70
    64
 10
0.0
 20
0.0
 30
0.0
  3
BLC29
  0
LINE
  8
0
  6
CONTINUOUS
 10
0.004865
 20
1.206889
 30
0.0
 11
2.350631
 21
-0.128465
 31
0.0
  0
LINE
  8
0
  6
CONTINUOUS
 10
2.350631
 20
-0.128465
 30
0.0
 11
0.004865
 21
-1.318384
 31
0.0
  0
ENDBLK
  8
0
  0
BLOCK
  8
0
  2
BLC15
 70
    64
 10
0.0
 20
0.0
 30
0.0
  3
BLC15
  0
LINE
  8
0
  6
CONTINUOUS
 10
0.142084
 20
3.490022
 30
0.0
 11
0.142084
 21
0.844365
 31
0.0
  0
LINE
  8
0
  6
CONTINUOUS
 10
-0.461611
 20
-0.937188
 30
0.0
 11
0.745779
 21
-0.937188
 31
0.0
  0
LINE
  8
0
  6
CONTINUOUS
 10
-0.894108
 20
-0.049675
 30
0.0
 11
1.169267
 21
-0.049675
 31
0.0
  0
LINE
  8
0
  6
CONTINUOUS
 10
-1.389679
 20
0.844365
 30
0.0
 11
1.673848
 21
0.844365
 31
0.0
  0
ENDBLK
  8
0
  0
BLOCK
  8
0
  2
BLC43
 70
    64
 10
0.0
 20
0.0
 30
0.0
  3
BLC43
  0
TEXT
  8
SWEDEN2
  6
CONTINUOUS
 10
-0.646672
 20
-0.986365
 30
0.0
 40
2.0
  1
+
  0
ENDBLK
  8
0
  0
BLOCK
  8
0
  2
BLC42
 70
    64
 10
0.0
 20
0.0
 30
0.0
  3
BLC42
  0
TEXT
  8
SWEDEN2
  6
CONTINUOUS
 10
-0.655237
 20
-0.99442
 30
0.0
 40
2.0
  1
-
  0
ENDBLK
  8
0
  0
BLOCK
  8
0
  2
B155
 70
     0
 10
0.0
 20
0.0
 30
0.0
  3
B155
  0
LINE
  8
0
  6
CONTINUOUS
 10
0.0
 20
0.0
 30
0.0
 11
0.0
 21
-1.35427
 31
0.0
  0
LINE
  8
0
  6
CONTINUOUS
 10
-1.210228
 20
-1.35427
 30
0.0
 11
-0.015887
 21
-1.35427
 31
0.0
  0
LINE
  8
0
  6
CONTINUOUS
 10
-0.015887
 20
-1.35427
 30
0.0
 11
1.178454
 21
-1.35427
 31
0.0
  0
LINE
  8
0
  6
CONTINUOUS
 10
-0.831823
 20
-1.833881
 30
0.0
 11
0.752749
 21
-1.833881
 31
0.0
  0
LINE
  8
0
  6
CONTINUOUS
 10
-0.500718
 20
-2.322055
 30
0.0
 11
0.386169
 21
-2.322055
 31
0.0
  0
ENDBLK
  8
0
  0
BLOCK
  8
0
  2
ABBA3SX
 70
    64
 10
0.0
 20
0.0
 30
0.0
  3
ABBA3SX
  0
TEXT
  8
RAAMI
  6
DASHED
 10
354.190282
 20
15.793111
 30
0.0
 40
1.4
  1
LEHTI SHEET
  7
STAND
  0
LINE
  8
PAKSU
 10
0.236802
 20
0.237701
 30
0.0
 11
0.236802
 21
262.737701
 31
0.0
  0
LINE
  8
PAKSU
 10
392.236802
 20
262.737701
 30
0.0
 11
392.236802
 21
0.237701
 31
0.0
  0
LINE
  8
PAKSU
 10
0.236802
 20
0.237701
 30
0.0
 11
392.236802
 21
0.237701
 31
0.0
  0
TEXT
  8
RAAMI
 10
42.236802
 20
5.587211
 30
0.0
 40
2.5
  1
C
  7
ROMANS
  0
TEXT
  8
RAAMI
 10
42.236802
 20
1.194994
 30
0.0
 40
2.5
  1
B
  7
ROMANS
  0
TEXT
  8
RAAMI
 10
257.406709
 20
1.741485
 30
0.0
 40
3.0
  1
Power
 41
0.8
  7
ROMANS
  0
TEXT
  8
RAAMI
 10
273.236802
 20
7.237701
 30
0.0
 40
1.4
  1
VAST.OSASTO RESP.DEPT.
  7
ROMANS
  0
TEXT
  8
RAAMI
 10
210.236802
 20
32.237701
 30
0.0
 40
1.4
  1
TEKI  PREPARED
  7
ROMANS
  0
LINE
  8
OHUT
 10
271.236802
 20
9.737701
 30
0.0
 11
271.236802
 21
0.237701
 31
0.0
  0
LINE
  8
OHUT
 10
257.236802
 20
9.737701
 30
0.0
 11
257.236802
 21
35.237701
 31
0.0
  0
LINE
  8
OHUT
 10
40.736802
 20
4.737701
 30
0.0
 11
209.236802
 21
4.737701
 31
0.0
  0
LINE
  8
OHUT
 10
46.736802
 20
0.237701
 30
0.0
 11
46.736802
 21
9.237701
 31
0.0
  0
LINE
  8
OHUT
 10
46.736802
 20
9.237701
 30
0.0
 11
209.236802
 21
9.237701
 31
0.0
  0
TEXT
  8
RAAMI
 10
27.736802
 20
2.471035
 30
0.0
 40
1.4
  1
REVISION
  7
ROMANS
  0
TEXT
  8
RAAMI
 10
27.736802
 20
4.737701
 30
0.0
 40
1.4
  1
MUUTOS
  7
ROMANS
  0
LINE
  8
OHUT
 10
282.236802
 20
9.737701
 30
0.0
 11
282.236802
 21
18.237701
 31
0.0
  0
TEXT
  8
RAAMI
 10
237.736802
 20
1.737701
 30
0.0
 40
3.0
  1
Strömberg
 41
0.8
  7
ROMANS
  0
TEXT
  8
RAAMI
 10
229.736802
 20
1.737701
 30
0.0
 40
3.0
  1
ABB 
 41
0.8
  7
ROMANS
  0
LINE
  8
RAAMI
 10
223.136802
 20
1.737701
 30
0.0
 11
223.136802
 21
5.097701
 31
0.0
  0
LINE
  8
RAAMI
 10
223.136802
 20
8.737701
 30
0.0
 11
225.096802
 21
8.737701
 31
0.0
  0
LINE
  8
RAAMI
 10
225.096802
 20
8.737701
 30
0.0
 11
225.096802
 21
5.377701
 31
0.0
  0
LINE
  8
RAAMI
 10
225.096802
 20
5.377701
 30
0.0
 11
223.136802
 21
5.377701
 31
0.0
  0
LINE
  8
RAAMI
 10
223.136802
 20
5.097701
 30
0.0
 11
225.096802
 21
5.097701
 31
0.0
  0
LINE
  8
RAAMI
 10
225.096802
 20
5.097701
 30
0.0
 11
225.096802
 21
1.737701
 31
0.0
  0
LINE
  8
RAAMI
 10
225.096802
 20
1.737701
 30
0.0
 11
223.136802
 21
1.737701
 31
0.0
  0
LINE
  8
RAAMI
 10
223.136802
 20
5.377701
 30
0.0
 11
223.136802
 21
8.737701
 31
0.0
  0
ARC
  8
RAAMI
 10
225.936802
 20
7.162701
 30
0.0
 40
1.575
 50
298.455859
 51
90.052437
  0
LINE
  8
RAAMI
 10
225.376802
 20
8.737701
 30
0.0
 11
225.935361
 21
8.737701
 31
0.0
  0
LINE
  8
RAAMI
 10
225.376802
 20
8.737701
 30
0.0
 11
225.376802
 21
5.377701
 31
0.0
  0
LINE
  8
RAAMI
 10
225.376802
 20
5.377701
 30
0.0
 11
227.361245
 21
5.377701
 31
0.0
  0
LINE
  8
RAAMI
 10
227.616802
 20
5.097701
 30
0.0
 11
225.376802
 21
5.097701
 31
0.0
  0
LINE
  8
RAAMI
 10
225.376802
 20
5.097701
 30
0.0
 11
225.376802
 21
1.737701
 31
0.0
  0
ARC
  8
RAAMI
 10
225.936802
 20
3.837701
 30
0.0
 40
2.1
 50
269.937724
 51
37.056553
  0
LINE
  8
RAAMI
 10
225.376802
 20
1.737701
 30
0.0
 11
225.93452
 21
1.737703
 31
0.0
  0
ARC
  8
RAAMI
 10
225.936802
 20
3.837701
 30
0.0
 40
2.1
 50
47.28622
 51
68.787999
  0
INSERT
  8
RAAMI
  2
*X13
 10
215.646802
 20
1.737701
 30
0.0
 41
0.7
 42
0.7
 43
0.7
  0
INSERT
  8
RAAMI
  2
*X14
 10
215.646802
 20
1.737701
 30
0.0
 41
0.7
 42
0.7
 43
0.7
  0
INSERT
  8
RAAMI
  2
*X15
 10
215.646802
 20
1.737701
 30
0.0
 41
0.7
 42
0.7
 43
0.7
  0
INSERT
  8
RAAMI
  2
*X16
 10
215.646802
 20
1.737701
 30
0.0
 41
0.7
 42
0.7
 43
0.7
  0
INSERT
  8
RAAMI
  2
*X16
 10
210.186802
 20
1.737701
 30
0.0
 41
0.7
 42
0.7
 43
0.7
  0
INSERT
  8
RAAMI
  2
*X15
 10
210.186802
 20
1.737701
 30
0.0
 41
0.7
 42
0.7
 43
0.7
  0
INSERT
  8
RAAMI
  2
*X14
 10
210.186802
 20
1.737701
 30
0.0
 41
0.7
 42
0.7
 43
0.7
  0
INSERT
  8
RAAMI
  2
*X13
 10
210.186802
 20
1.737701
 30
0.0
 41
0.7
 42
0.7
 43
0.7
  0
ARC
  8
RAAMI
 10
220.476802
 20
3.837701
 30
0.0
 40
2.1
 50
47.28622
 51
68.787999
  0
LINE
  8
RAAMI
 10
219.916802
 20
1.737701
 30
0.0
 11
220.47452
 21
1.737703
 31
0.0
  0
ARC
  8
RAAMI
 10
220.476802
 20
3.837701
 30
0.0
 40
2.1
 50
269.937724
 51
37.056553
  0
LINE
  8
RAAMI
 10
219.916802
 20
5.097701
 30
0.0
 11
219.916802
 21
1.737701
 31
0.0
  0
LINE
  8
RAAMI
 10
222.156802
 20
5.097701
 30
0.0
 11
219.916802
 21
5.097701
 31
0.0
  0
LINE
  8
RAAMI
 10
219.916802
 20
5.377701
 30
0.0
 11
221.901245
 21
5.377701
 31
0.0
  0
LINE
  8
RAAMI
 10
219.916802
 20
8.737701
 30
0.0
 11
219.916802
 21
5.377701
 31
0.0
  0
LINE
  8
RAAMI
 10
219.916802
 20
8.737701
 30
0.0
 11
220.475361
 21
8.737701
 31
0.0
  0
ARC
  8
RAAMI
 10
220.476802
 20
7.162701
 30
0.0
 40
1.575
 50
298.455859
 51
90.052437
  0
LINE
  8
RAAMI
 10
217.676802
 20
5.377701
 30
0.0
 11
217.676802
 21
8.737701
 31
0.0
  0
LINE
  8
RAAMI
 10
219.636802
 20
1.737701
 30
0.0
 11
217.676802
 21
1.737701
 31
0.0
  0
LINE
  8
RAAMI
 10
219.636802
 20
5.097701
 30
0.0
 11
219.636802
 21
1.737701
 31
0.0
  0
LINE
  8
RAAMI
 10
217.676802
 20
5.097701
 30
0.0
 11
219.636802
 21
5.097701
 31
0.0
  0
LINE
  8
RAAMI
 10
219.636802
 20
5.377701
 30
0.0
 11
217.676802
 21
5.377701
 31
0.0
  0
LINE
  8
RAAMI
 10
219.636802
 20
8.737701
 30
0.0
 11
219.636802
 21
5.377701
 31
0.0
  0
LINE
  8
RAAMI
 10
217.676802
 20
8.737701
 30
0.0
 11
219.636802
 21
8.737701
 31
0.0
  0
LINE
  8
RAAMI
 10
217.676802
 20
1.737701
 30
0.0
 11
217.676802
 21
5.097701
 31
0.0
  0
INSERT
  8
RAAMI
  2
*X12
 10
210.186802
 20
1.737701
 30
0.0
 41
0.7
 42
0.7
 43
0.7
  0
INSERT
  8
RAAMI
  2
*X11
 10
210.186802
 20
1.737701
 30
0.0
 41
0.7
 42
0.7
 43
0.7
  0
INSERT
  8
RAAMI
  2
*X10
 10
210.186802
 20
1.737701
 30
0.0
 41
0.7
 42
0.7
 43
0.7
  0
INSERT
  8
RAAMI
  2
*X9
 10
210.186802
 20
1.737701
 30
0.0
 41
0.7
 42
0.7
 43
0.7
  0
LINE
  8
RAAMI
 10
211.356691
 20
5.08024
 30
0.0
 11
210.186802
 21
1.737701
 31
0.0
  0
LINE
  8
RAAMI
 10
213.546802
 20
5.097701
 30
0.0
 11
213.546802
 21
3.137701
 31
0.0
  0
LINE
  8
RAAMI
 10
213.826802
 20
5.097701
 30
0.0
 11
213.826802
 21
3.137701
 31
0.0
  0
LINE
  8
RAAMI
 10
213.826802
 20
5.097701
 30
0.0
 11
216.010059
 21
5.097701
 31
0.0
  0
LINE
  8
RAAMI
 10
213.826802
 20
5.377701
 30
0.0
 11
215.911916
 21
5.377701
 31
0.0
  0
LINE
  8
RAAMI
 10
216.011294
 20
5.096296
 30
0.0
 11
217.186802
 21
1.737701
 31
0.0
  0
LINE
  8
RAAMI
 10
211.359785
 20
5.097701
 30
0.0
 11
213.546802
 21
5.097701
 31
0.0
  0
LINE
  8
RAAMI
 10
211.458743
 20
5.377701
 30
0.0
 11
213.546802
 21
5.377701
 31
0.0
  0
LINE
  8
RAAMI
 10
213.546802
 20
8.737701
 30
0.0
 11
212.636802
 21
8.737701
 31
0.0
  0
LINE
  8
RAAMI
 10
213.826802
 20
3.137701
 30
0.0
 11
214.946696
 21
3.137701
 31
0.0
  0
LINE
  8
RAAMI
 10
213.826802
 20
8.737701
 30
0.0
 11
213.826802
 21
5.377701
 31
0.0
  0
LINE
  8
RAAMI
 10
213.546802
 20
8.737701
 30
0.0
 11
213.546802
 21
5.377701
 31
0.0
  0
LINE
  8
RAAMI
 10
214.736802
 20
8.737701
 30
0.0
 11
213.826802
 21
8.737701
 31
0.0
  0
LINE
  8
RAAMI
 10
214.9479
 20
3.134565
 30
0.0
 11
215.436802
 21
1.737701
 31
0.0
  0
LINE
  8
RAAMI
 10
214.736802
 20
8.737701
 30
0.0
 11
215.913155
 21
5.376693
 31
0.0
  0
LINE
  8
RAAMI
 10
212.425592
 20
3.134244
 30
0.0
 11
211.936802
 21
1.737701
 31
0.0
  0
LINE
  8
RAAMI
 10
212.425589
 20
3.137701
 30
0.0
 11
213.546802
 21
3.137701
 31
0.0
  0
LINE
  8
RAAMI
 10
212.636802
 20
8.737701
 30
0.0
 11
211.459274
 21
5.373336
 31
0.0
  0
LINE
  8
RAAMI
 10
215.436802
 20
1.737701
 30
0.0
 11
217.186802
 21
1.737701
 31
0.0
  0
LINE
  8
RAAMI
 10
210.186802
 20
1.737701
 30
0.0
 11
211.936802
 21
1.737701
 31
0.0
  0
LINE
  8
OHUT
 10
369.736802
 20
9.737701
 30
0.0
 11
369.736802
 21
0.237701
 31
0.0
  0
TEXT
  8
RAAMI
 10
371.236802
 20
7.237701
 30
0.0
 40
1.4
  1
PAINOS  REVISION
  7
ROMANS
  0
LINE
  8
OHUT
 10
349.736802
 20
9.737701
 30
0.0
 11
349.736802
 21
18.237701
 31
0.0
  0
TEXT
  8
RAAMI
 10
309.236802
 20
7.237701
 30
0.0
 40
1.4
  1
PIIRUSTUS NO  DRAWING NR
  7
ROMANS
  0
TEXT
  8
RAAMI
 10
309.236802
 20
15.737701
 30
0.0
 40
1.4
  1
KOODI  CODE
  7
ROMANS
  0
TEXT
  8
RAAMI
 10
309.236802
 20
32.737701
 30
0.0
 40
1.4
  1
NIMITYS  NAME
  7
ROMANS
  0
TEXT
  8
RAAMI
 10
259.236802
 20
15.737701
 30
0.0
 40
1.4
  1
SUHDE  SCALE
  7
ROMANS
  0
TEXT
  8
RAAMI
 10
259.236802
 20
23.737701
 30
0.0
 40
1.4
  1
TOLERANSSIT  TOLERANCES
  7
ROMANS
  0
TEXT
  8
RAAMI
 10
259.236802
 20
32.737701
 30
0.0
 40
1.4
  1
LIITTYY  CONCERNING
  7
ROMANS
  0
LINE
  8
OHUT
 10
307.236802
 20
0.237701
 30
0.0
 11
307.236802
 21
35.237701
 31
0.0
  0
TEXT
  8
RAAMI
 10
209.979637
 20
15.704368
 30
0.0
 40
1.4
  1
HYVÄKSYI  APPROVED
  7
ROMANS
  0
TEXT
  8
RAAMI
 10
210.236802
 20
23.971035
 30
0.0
 40
1.4
  1
TARKASTI  CHECKED
  7
ROMANS
  0
LINE
  8
PAKSU
 10
209.236802
 20
35.237701
 30
0.0
 11
392.236802
 21
35.237701
 31
0.0
  0
LINE
  8
OHUT
 10
209.236802
 20
26.737701
 30
0.0
 11
307.236802
 21
26.737701
 31
0.0
  0
LINE
  8
OHUT
 10
209.236802
 20
9.737701
 30
0.0
 11
392.236802
 21
9.737701
 31
0.0
  0
LINE
  8
OHUT
 10
209.236802
 20
18.237701
 30
0.0
 11
392.236802
 21
18.237701
 31
0.0
  0
LINE
  8
PAKSU
 10
392.236802
 20
0.237701
 30
0.0
 11
392.236802
 21
35.237701
 31
0.0
  0
LINE
  8
PAKSU
 10
209.236802
 20
0.237701
 30
0.0
 11
209.236802
 21
35.237701
 31
0.0
  0
LINE
  8
PAKSU
 10
209.236802
 20
0.237701
 30
0.0
 11
392.236802
 21
0.237701
 31
0.0
  0
LINE
  8
RAAMI
 10
18.236802
 20
0.237701
 30
0.0
 11
0.236802
 21
0.237701
 31
0.0
  0
LINE
  8
PAKSU
 10
0.236802
 20
262.737701
 30
0.0
 11
392.236802
 21
262.737701
 31
0.0
  0
TEXT
  8
RAAMI
  6
DASHED
 10
292.216898
 20
11.813061
 30
0.0
 40
3.0
  1
A3
  7
GREEKS
  0
ENDBLK
  8
0
  0
BLOCK
  8
0
  2
*X9
 70
    65
 10
0.0
 20
0.0
 30
0.0
  3
*X
  0
LINE
  8
0
 62
     0
 10
2.284499
 20
6.52714
 30
0.0
 11
4.8
 21
9.042641
 31
0.0
  0
LINE
  8
0
 62
     0
 10
2.379686
 20
6.799104
 30
0.0
 11
4.8
 21
9.219417
 31
0.0
  0
LINE
  8
0
 62
     0
 10
2.474874
 20
7.071068
 30
0.0
 11
4.8
 21
9.396194
 31
0.0
  0
LINE
  8
0
 62
     0
 10
2.570061
 20
7.343032
 30
0.0
 11
4.8
 21
9.572971
 31
0.0
  0
LINE
  8
0
 62
     0
 10
2.665249
 20
7.614996
 30
0.0
 11
4.8
 21
9.749747
 31
0.0
  0
LINE
  8
0
 62
     0
 10
2.760436
 20
7.88696
 30
0.0
 11
4.8
 21
9.926524
 31
0.0
  0
LINE
  8
0
 62
     0
 10
2.855624
 20
8.158924
 30
0.0
 11
4.696699
 21
10.0
 31
0.0
  0
LINE
  8
0
 62
     0
 10
2.950811
 20
8.430889
 30
0.0
 11
4.519922
 21
10.0
 31
0.0
  0
LINE
  8
0
 62
     0
 10
3.045998
 20
8.702853
 30
0.0
 11
4.343146
 21
10.0
 31
0.0
  0
LINE
  8
0
 62
     0
 10
3.141186
 20
8.974817
 30
0.0
 11
4.166369
 21
10.0
 31
0.0
  0
LINE
  8
0
 62
     0
 10
3.236373
 20
9.246781
 30
0.0
 11
3.989592
 21
10.0
 31
0.0
  0
LINE
  8
0
 62
     0
 10
3.331561
 20
9.518745
 30
0.0
 11
3.812816
 21
10.0
 31
0.0
  0
LINE
  8
0
 62
     0
 10
3.426748
 20
9.790709
 30
0.0
 11
3.636039
 21
10.0
 31
0.0
  0
LINE
  8
0
 62
     0
 10
2.189311
 20
6.255175
 30
0.0
 11
4.8
 21
8.865864
 31
0.0
  0
LINE
  8
0
 62
     0
 10
2.094124
 20
5.983211
 30
0.0
 11
4.8
 21
8.689087
 31
0.0
  0
LINE
  8
0
 62
     0
 10
1.998936
 20
5.711247
 30
0.0
 11
4.8
 21
8.512311
 31
0.0
  0
LINE
  8
0
 62
     0
 10
1.903749
 20
5.439283
 30
0.0
 11
4.8
 21
8.335534
 31
0.0
  0
LINE
  8
0
 62
     0
 10
1.841243
 20
5.2
 30
0.0
 11
4.8
 21
8.158757
 31
0.0
  0
LINE
  8
0
 62
     0
 10
2.018019
 20
5.2
 30
0.0
 11
4.8
 21
7.981981
 31
0.0
  0
LINE
  8
0
 62
     0
 10
2.194796
 20
5.2
 30
0.0
 11
4.8
 21
7.805204
 31
0.0
  0
LINE
  8
0
 62
     0
 10
2.371573
 20
5.2
 30
0.0
 11
4.8
 21
7.628427
 31
0.0
  0
LINE
  8
0
 62
     0
 10
2.54835
 20
5.2
 30
0.0
 11
4.8
 21
7.45165
 31
0.0
  0
LINE
  8
0
 62
     0
 10
2.725126
 20
5.2
 30
0.0
 11
4.8
 21
7.274874
 31
0.0
  0
LINE
  8
0
 62
     0
 10
2.901903
 20
5.2
 30
0.0
 11
4.8
 21
7.098097
 31
0.0
  0
LINE
  8
0
 62
     0
 10
3.07868
 20
5.2
 30
0.0
 11
4.8
 21
6.92132
 31
0.0
  0
LINE
  8
0
 62
     0
 10
3.255456
 20
5.2
 30
0.0
 11
4.8
 21
6.744544
 31
0.0
  0
LINE
  8
0
 62
     0
 10
3.432233
 20
5.2
 30
0.0
 11
4.8
 21
6.567767
 31
0.0
  0
LINE
  8
0
 62
     0
 10
3.60901
 20
5.2
 30
0.0
 11
4.8
 21
6.39099
 31
0.0
  0
LINE
  8
0
 62
     0
 10
3.785786
 20
5.2
 30
0.0
 11
4.8
 21
6.214214
 31
0.0
  0
LINE
  8
0
 62
     0
 10
3.962563
 20
5.2
 30
0.0
 11
4.8
 21
6.037437
 31
0.0
  0
LINE
  8
0
 62
     0
 10
4.13934
 20
5.2
 30
0.0
 11
4.8
 21
5.86066
 31
0.0
  0
LINE
  8
0
 62
     0
 10
4.316117
 20
5.2
 30
0.0
 11
4.8
 21
5.683883
 31
0.0
  0
LINE
  8
0
 62
     0
 10
4.492893
 20
5.2
 30
0.0
 11
4.8
 21
5.507107
 31
0.0
  0
LINE
  8
0
 62
     0
 10
4.66967
 20
5.2
 30
0.0
 11
4.8
 21
5.33033
 31
0.0
  0
ENDBLK
  8
0
  0
BLOCK
  8
0
  2
*X10
 70
    65
 10
0.0
 20
0.0
 30
0.0
  3
*X
  0
LINE
  8
0
 62
     0
 10
5.2
 20
6.083883
 30
0.0
 11
7.178252
 21
8.062136
 31
0.0
  0
LINE
  8
0
 62
     0
 10
5.2
 20
6.26066
 30
0.0
 11
7.132421
 21
8.193082
 31
0.0
  0
LINE
  8
0
 62
     0
 10
5.2
 20
6.437437
 30
0.0
 11
7.08659
 21
8.324027
 31
0.0
  0
LINE
  8
0
 62
     0
 10
5.2
 20
6.614214
 30
0.0
 11
7.040759
 21
8.454973
 31
0.0
  0
LINE
  8
0
 62
     0
 10
5.2
 20
6.79099
 30
0.0
 11
6.994928
 21
8.585919
 31
0.0
  0
LINE
  8
0
 62
     0
 10
5.2
 20
6.967767
 30
0.0
 11
6.949097
 21
8.716864
 31
0.0
  0
LINE
  8
0
 62
     0
 10
5.2
 20
7.144544
 30
0.0
 11
6.903266
 21
8.84781
 31
0.0
  0
LINE
  8
0
 62
     0
 10
5.2
 20
7.32132
 30
0.0
 11
6.857435
 21
8.978756
 31
0.0
  0
LINE
  8
0
 62
     0
 10
5.2
 20
7.498097
 30
0.0
 11
6.811604
 21
9.109702
 31
0.0
  0
LINE
  8
0
 62
     0
 10
5.2
 20
7.674874
 30
0.0
 11
6.765773
 21
9.240647
 31
0.0
  0
LINE
  8
0
 62
     0
 10
5.2
 20
7.85165
 30
0.0
 11
6.719942
 21
9.371593
 31
0.0
  0
LINE
  8
0
 62
     0
 10
5.2
 20
8.028427
 30
0.0
 11
6.674111
 21
9.502539
 31
0.0
  0
LINE
  8
0
 62
     0
 10
5.2
 20
8.205204
 30
0.0
 11
6.62828
 21
9.633484
 31
0.0
  0
LINE
  8
0
 62
     0
 10
5.2
 20
8.381981
 30
0.0
 11
6.582449
 21
9.76443
 31
0.0
  0
LINE
  8
0
 62
     0
 10
5.2
 20
8.558757
 30
0.0
 11
6.536619
 21
9.895376
 31
0.0
  0
LINE
  8
0
 62
     0
 10
5.2
 20
8.735534
 30
0.0
 11
6.464466
 21
10.0
 31
0.0
  0
LINE
  8
0
 62
     0
 10
5.2
 20
8.912311
 30
0.0
 11
6.287689
 21
10.0
 31
0.0
  0
LINE
  8
0
 62
     0
 10
5.2
 20
9.089087
 30
0.0
 11
6.110913
 21
10.0
 31
0.0
  0
LINE
  8
0
 62
     0
 10
5.2
 20
9.265864
 30
0.0
 11
5.934136
 21
10.0
 31
0.0
  0
LINE
  8
0
 62
     0
 10
5.2
 20
9.442641
 30
0.0
 11
5.757359
 21
10.0
 31
0.0
  0
LINE
  8
0
 62
     0
 10
5.2
 20
9.619417
 30
0.0
 11
5.580583
 21
10.0
 31
0.0
  0
LINE
  8
0
 62
     0
 10
5.2
 20
9.796194
 30
0.0
 11
5.403806
 21
10.0
 31
0.0
  0
LINE
  8
0
 62
     0
 10
5.2
 20
9.972971
 30
0.0
 11
5.227029
 21
10.0
 31
0.0
  0
LINE
  8
0
 62
     0
 10
5.2
 20
5.907107
 30
0.0
 11
7.224083
 21
7.93119
 31
0.0
  0
LINE
  8
0
 62
     0
 10
5.2
 20
5.73033
 30
0.0
 11
7.269914
 21
7.800245
 31
0.0
  0
LINE
  8
0
 62
     0
 10
5.2
 20
5.553553
 30
0.0
 11
7.315745
 21
7.669299
 31
0.0
  0
LINE
  8
0
 62
     0
 10
5.2
 20
5.376777
 30
0.0
 11
7.361576
 21
7.538353
 31
0.0
  0
LINE
  8
0
 62
     0
 10
5.2
 20
5.2
 30
0.0
 11
7.407407
 21
7.407407
 31
0.0
  0
LINE
  8
0
 62
     0
 10
5.376777
 20
5.2
 30
0.0
 11
7.453238
 21
7.276462
 31
0.0
  0
LINE
  8
0
 62
     0
 10
5.553553
 20
5.2
 30
0.0
 11
7.499069
 21
7.145516
 31
0.0
  0
LINE
  8
0
 62
     0
 10
5.73033
 20
5.2
 30
0.0
 11
7.5449
 21
7.01457
 31
0.0
  0
LINE
  8
0
 62
     0
 10
5.907107
 20
5.2
 30
0.0
 11
7.590731
 21
6.883625
 31
0.0
  0
LINE
  8
0
 62
     0
 10
6.083883
 20
5.2
 30
0.0
 11
7.636562
 21
6.752679
 31
0.0
  0
LINE
  8
0
 62
     0
 10
6.26066
 20
5.2
 30
0.0
 11
7.682393
 21
6.621733
 31
0.0
  0
LINE
  8
0
 62
     0
 10
6.437437
 20
5.2
 30
0.0
 11
7.728224
 21
6.490788
 31
0.0
  0
LINE
  8
0
 62
     0
 10
6.614214
 20
5.2
 30
0.0
 11
7.774055
 21
6.359842
 31
0.0
  0
LINE
  8
0
 62
     0
 10
6.79099
 20
5.2
 30
0.0
 11
7.819886
 21
6.228896
 31
0.0
  0
LINE
  8
0
 62
     0
 10
6.967767
 20
5.2
 30
0.0
 11
7.865717
 21
6.09795
 31
0.0
  0
LINE
  8
0
 62
     0
 10
7.144544
 20
5.2
 30
0.0
 11
7.911548
 21
5.967005
 31
0.0
  0
LINE
  8
0
 62
     0
 10
7.32132
 20
5.2
 30
0.0
 11
7.957379
 21
5.836059
 31
0.0
  0
LINE
  8
0
 62
     0
 10
7.498097
 20
5.2
 30
0.0
 11
8.00321
 21
5.705113
 31
0.0
  0
LINE
  8
0
 62
     0
 10
7.674874
 20
5.2
 30
0.0
 11
8.049041
 21
5.574168
 31
0.0
  0
LINE
  8
0
 62
     0
 10
7.85165
 20
5.2
 30
0.0
 11
8.094872
 21
5.443222
 31
0.0
  0
LINE
  8
0
 62
     0
 10
8.028427
 20
5.2
 30
0.0
 11
8.140703
 21
5.312276
 31
0.0
  0
ENDBLK
  8
0
  0
BLOCK
  8
0
  2
*X11
 70
    65
 10
0.0
 20
0.0
 30
0.0
  3
*X
  0
LINE
  8
0
 62
     0
 10
0.0
 20
0.0
 30
0.0
 11
4.8
 21
4.8
 31
0.0
  0
LINE
  8
0
 62
     0
 10
0.095187
 20
0.271964
 30
0.0
 11
4.623223
 21
4.8
 31
0.0
  0
LINE
  8
0
 62
     0
 10
0.190375
 20
0.543928
 30
0.0
 11
4.446447
 21
4.8
 31
0.0
  0
LINE
  8
0
 62
     0
 10
0.285562
 20
0.815892
 30
0.0
 11
4.26967
 21
4.8
 31
0.0
  0
LINE
  8
0
 62
     0
 10
0.38075
 20
1.087857
 30
0.0
 11
4.092893
 21
4.8
 31
0.0
  0
LINE
  8
0
 62
     0
 10
0.475937
 20
1.359821
 30
0.0
 11
3.916117
 21
4.8
 31
0.0
  0
LINE
  8
0
 62
     0
 10
0.571125
 20
1.631785
 30
0.0
 11
3.73934
 21
4.8
 31
0.0
  0
LINE
  8
0
 62
     0
 10
0.666312
 20
1.903749
 30
0.0
 11
3.562563
 21
4.8
 31
0.0
  0
LINE
  8
0
 62
     0
 10
0.7615
 20
2.175713
 30
0.0
 11
3.385786
 21
4.8
 31
0.0
  0
LINE
  8
0
 62
     0
 10
0.856687
 20
2.447677
 30
0.0
 11
3.20901
 21
4.8
 31
0.0
  0
LINE
  8
0
 62
     0
 10
0.951875
 20
2.719641
 30
0.0
 11
3.032233
 21
4.8
 31
0.0
  0
LINE
  8
0
 62
     0
 10
1.047062
 20
2.991606
 30
0.0
 11
2.855456
 21
4.8
 31
0.0
  0
LINE
  8
0
 62
     0
 10
1.142249
 20
3.26357
 30
0.0
 11
2.67868
 21
4.8
 31
0.0
  0
LINE
  8
0
 62
     0
 10
1.237437
 20
3.535534
 30
0.0
 11
2.501903
 21
4.8
 31
0.0
  0
LINE
  8
0
 62
     0
 10
1.332624
 20
3.807498
 30
0.0
 11
2.325126
 21
4.8
 31
0.0
  0
LINE
  8
0
 62
     0
 10
1.427812
 20
4.079462
 30
0.0
 11
2.14835
 21
4.8
 31
0.0
  0
LINE
  8
0
 62
     0
 10
1.522999
 20
4.351426
 30
0.0
 11
1.971573
 21
4.8
 31
0.0
  0
LINE
  8
0
 62
     0
 10
1.618187
 20
4.62339
 30
0.0
 11
1.794796
 21
4.8
 31
0.0
  0
LINE
  8
0
 62
     0
 10
0.176777
 20
0.0
 30
0.0
 11
4.8
 21
4.623223
 31
0.0
  0
LINE
  8
0
 62
     0
 10
0.353553
 20
0.0
 30
0.0
 11
4.8
 21
4.446447
 31
0.0
  0
LINE
  8
0
 62
     0
 10
0.53033
 20
0.0
 30
0.0
 11
4.8
 21
4.26967
 31
0.0
  0
LINE
  8
0
 62
     0
 10
0.707107
 20
0.0
 30
0.0
 11
4.8
 21
4.092893
 31
0.0
  0
LINE
  8
0
 62
     0
 10
0.883883
 20
0.0
 30
0.0
 11
4.8
 21
3.916117
 31
0.0
  0
LINE
  8
0
 62
     0
 10
1.06066
 20
0.0
 30
0.0
 11
4.8
 21
3.73934
 31
0.0
  0
LINE
  8
0
 62
     0
 10
1.237437
 20
0.0
 30
0.0
 11
3.179842
 21
1.942405
 31
0.0
  0
LINE
  8
0
 62
     0
 10
3.237437
 20
2.0
 30
0.0
 11
4.8
 21
3.562563
 31
0.0
  0
LINE
  8
0
 62
     0
 10
1.414214
 20
0.0
 30
0.0
 11
3.084654
 21
1.670441
 31
0.0
  0
LINE
  8
0
 62
     0
 10
3.414214
 20
2.0
 30
0.0
 11
4.8
 21
3.385786
 31
0.0
  0
LINE
  8
0
 62
     0
 10
1.59099
 20
0.0
 30
0.0
 11
2.989467
 21
1.398477
 31
0.0
  0
LINE
  8
0
 62
     0
 10
3.59099
 20
2.0
 30
0.0
 11
4.8
 21
3.20901
 31
0.0
  0
LINE
  8
0
 62
     0
 10
1.767767
 20
0.0
 30
0.0
 11
2.894279
 21
1.126512
 31
0.0
  0
LINE
  8
0
 62
     0
 10
3.767767
 20
2.0
 30
0.0
 11
4.8
 21
3.032233
 31
0.0
  0
LINE
  8
0
 62
     0
 10
1.944544
 20
0.0
 30
0.0
 11
2.799092
 21
0.854548
 31
0.0
  0
LINE
  8
0
 62
     0
 10
3.944544
 20
2.0
 30
0.0
 11
4.8
 21
2.855456
 31
0.0
  0
LINE
  8
0
 62
     0
 10
2.12132
 20
0.0
 30
0.0
 11
2.703904
 21
0.582584
 31
0.0
  0
LINE
  8
0
 62
     0
 10
4.12132
 20
2.0
 30
0.0
 11
4.8
 21
2.67868
 31
0.0
  0
LINE
  8
0
 62
     0
 10
2.298097
 20
0.0
 30
0.0
 11
2.608717
 21
0.31062
 31
0.0
  0
LINE
  8
0
 62
     0
 10
4.298097
 20
2.0
 30
0.0
 11
4.8
 21
2.501903
 31
0.0
  0
LINE
  8
0
 62
     0
 10
2.474874
 20
0.0
 30
0.0
 11
2.51353
 21
0.038656
 31
0.0
  0
LINE
  8
0
 62
     0
 10
4.474874
 20
2.0
 30
0.0
 11
4.8
 21
2.325126
 31
0.0
  0
LINE
  8
0
 62
     0
 10
4.65165
 20
2.0
 30
0.0
 11
4.8
 21
2.14835
 31
0.0
  0
ENDBLK
  8
0
  0
BLOCK
  8
0
  2
*X12
 70
    65
 10
0.0
 20
0.0
 30
0.0
  3
*X
  0
LINE
  8
0
 62
     0
 10
6.884654
 20
1.75813
 30
0.0
 11
8.736506
 21
3.609982
 31
0.0
  0
LINE
  8
0
 62
     0
 10
6.838823
 20
1.889076
 30
0.0
 11
8.690675
 21
3.740928
 31
0.0
  0
LINE
  8
0
 62
     0
 10
6.772971
 20
2.0
 30
0.0
 11
8.644844
 21
3.871874
 31
0.0
  0
LINE
  8
0
 62
     0
 10
6.596194
 20
2.0
 30
0.0
 11
8.599013
 21
4.002819
 31
0.0
  0
LINE
  8
0
 62
     0
 10
6.419417
 20
2.0
 30
0.0
 11
8.553182
 21
4.133765
 31
0.0
  0
LINE
  8
0
 62
     0
 10
6.242641
 20
2.0
 30
0.0
 11
8.507351
 21
4.264711
 31
0.0
  0
LINE
  8
0
 62
     0
 10
6.065864
 20
2.0
 30
0.0
 11
8.46152
 21
4.395656
 31
0.0
  0
LINE
  8
0
 62
     0
 10
5.889087
 20
2.0
 30
0.0
 11
8.415689
 21
4.526602
 31
0.0
  0
LINE
  8
0
 62
     0
 10
5.712311
 20
2.0
 30
0.0
 11
8.369858
 21
4.657548
 31
0.0
  0
LINE
  8
0
 62
     0
 10
5.535534
 20
2.0
 30
0.0
 11
8.324027
 21
4.788493
 31
0.0
  0
LINE
  8
0
 62
     0
 10
5.358757
 20
2.0
 30
0.0
 11
8.158757
 21
4.8
 31
0.0
  0
LINE
  8
0
 62
     0
 10
5.2
 20
2.018019
 30
0.0
 11
7.981981
 21
4.8
 31
0.0
  0
LINE
  8
0
 62
     0
 10
5.2
 20
2.194796
 30
0.0
 11
7.805204
 21
4.8
 31
0.0
  0
LINE
  8
0
 62
     0
 10
5.2
 20
2.371573
 30
0.0
 11
7.628427
 21
4.8
 31
0.0
  0
LINE
  8
0
 62
     0
 10
5.2
 20
2.54835
 30
0.0
 11
7.45165
 21
4.8
 31
0.0
  0
LINE
  8
0
 62
     0
 10
5.2
 20
2.725126
 30
0.0
 11
7.274874
 21
4.8
 31
0.0
  0
LINE
  8
0
 62
     0
 10
5.2
 20
2.901903
 30
0.0
 11
7.098097
 21
4.8
 31
0.0
  0
LINE
  8
0
 62
     0
 10
5.2
 20
3.07868
 30
0.0
 11
6.92132
 21
4.8
 31
0.0
  0
LINE
  8
0
 62
     0
 10
5.2
 20
3.255456
 30
0.0
 11
6.744544
 21
4.8
 31
0.0
  0
LINE
  8
0
 62
     0
 10
5.2
 20
3.432233
 30
0.0
 11
6.567767
 21
4.8
 31
0.0
  0
LINE
  8
0
 62
     0
 10
5.2
 20
3.60901
 30
0.0
 11
6.39099
 21
4.8
 31
0.0
  0
LINE
  8
0
 62
     0
 10
5.2
 20
3.785786
 30
0.0
 11
6.214214
 21
4.8
 31
0.0
  0
LINE
  8
0
 62
     0
 10
5.2
 20
3.962563
 30
0.0
 11
6.037437
 21
4.8
 31
0.0
  0
LINE
  8
0
 62
     0
 10
5.2
 20
4.13934
 30
0.0
 11
5.86066
 21
4.8
 31
0.0
  0
LINE
  8
0
 62
     0
 10
5.2
 20
4.316117
 30
0.0
 11
5.683883
 21
4.8
 31
0.0
  0
LINE
  8
0
 62
     0
 10
5.2
 20
4.492893
 30
0.0
 11
5.507107
 21
4.8
 31
0.0
  0
LINE
  8
0
 62
     0
 10
5.2
 20
4.66967
 30
0.0
 11
5.33033
 21
4.8
 31
0.0
  0
LINE
  8
0
 62
     0
 10
6.930485
 20
1.627185
 30
0.0
 11
8.782337
 21
3.479036
 31
0.0
  0
LINE
  8
0
 62
     0
 10
6.976316
 20
1.496239
 30
0.0
 11
8.828168
 21
3.348091
 31
0.0
  0
LINE
  8
0
 62
     0
 10
7.022147
 20
1.365293
 30
0.0
 11
8.873999
 21
3.217145
 31
0.0
  0
LINE
  8
0
 62
     0
 10
7.067978
 20
1.234347
 30
0.0
 11
8.91983
 21
3.086199
 31
0.0
  0
LINE
  8
0
 62
     0
 10
7.113809
 20
1.103402
 30
0.0
 11
8.965661
 21
2.955254
 31
0.0
  0
LINE
  8
0
 62
     0
 10
7.15964
 20
0.972456
 30
0.0
 11
9.011492
 21
2.824308
 31
0.0
  0
LINE
  8
0
 62
     0
 10
7.205471
 20
0.84151
 30
0.0
 11
9.057323
 21
2.693362
 31
0.0
  0
LINE
  8
0
 62
     0
 10
7.251302
 20
0.710565
 30
0.0
 11
9.103154
 21
2.562416
 31
0.0
  0
LINE
  8
0
 62
     0
 10
7.297133
 20
0.579619
 30
0.0
 11
9.148985
 21
2.431471
 31
0.0
  0
LINE
  8
0
 62
     0
 10
7.342964
 20
0.448673
 30
0.0
 11
9.194816
 21
2.300525
 31
0.0
  0
LINE
  8
0
 62
     0
 10
7.388795
 20
0.317728
 30
0.0
 11
9.240647
 21
2.169579
 31
0.0
  0
LINE
  8
0
 62
     0
 10
7.434626
 20
0.186782
 30
0.0
 11
9.286478
 21
2.038634
 31
0.0
  0
LINE
  8
0
 62
     0
 10
7.480457
 20
0.055836
 30
0.0
 11
9.332309
 21
1.907688
 31
0.0
  0
LINE
  8
0
 62
     0
 10
7.601398
 20
0.0
 30
0.0
 11
9.37814
 21
1.776742
 31
0.0
  0
LINE
  8
0
 62
     0
 10
7.778175
 20
0.0
 30
0.0
 11
9.423971
 21
1.645797
 31
0.0
  0
LINE
  8
0
 62
     0
 10
7.954951
 20
0.0
 30
0.0
 11
9.469802
 21
1.514851
 31
0.0
  0
LINE
  8
0
 62
     0
 10
8.131728
 20
0.0
 30
0.0
 11
9.515633
 21
1.383905
 31
0.0
  0
LINE
  8
0
 62
     0
 10
8.308505
 20
0.0
 30
0.0
 11
9.561464
 21
1.252959
 31
0.0
  0
LINE
  8
0
 62
     0
 10
8.485281
 20
0.0
 30
0.0
 11
9.607295
 21
1.122014
 31
0.0
  0
LINE
  8
0
 62
     0
 10
8.662058
 20
0.0
 30
0.0
 11
9.653126
 21
0.991068
 31
0.0
  0
LINE
  8
0
 62
     0
 10
8.838835
 20
0.0
 30
0.0
 11
9.698957
 21
0.860122
 31
0.0
  0
LINE
  8
0
 62
     0
 10
9.015611
 20
0.0
 30
0.0
 11
9.744788
 21
0.729177
 31
0.0
  0
LINE
  8
0
 62
     0
 10
9.192388
 20
0.0
 30
0.0
 11
9.790619
 21
0.598231
 31
0.0
  0
LINE
  8
0
 62
     0
 10
9.369165
 20
0.0
 30
0.0
 11
9.83645
 21
0.467285
 31
0.0
  0
LINE
  8
0
 62
     0
 10
9.545942
 20
0.0
 30
0.0
 11
9.882281
 21
0.33634
 31
0.0
  0
LINE
  8
0
 62
     0
 10
9.722718
 20
0.0
 30
0.0
 11
9.928112
 21
0.205394
 31
0.0
  0
LINE
  8
0
 62
     0
 10
9.899495
 20
0.0
 30
0.0
 11
9.973943
 21
0.074448
 31
0.0
  0
ENDBLK
  8
0
  0
BLOCK
  8
0
  2
*X13
 70
    65
 10
0.0
 20
0.0
 30
0.0
  3
*X
  0
LINE
  8
0
 62
     0
 10
10.7
 20
6.280583
 30
0.0
 11
13.5
 21
9.080583
 31
0.0
  0
LINE
  8
0
 62
     0
 10
10.7
 20
6.457359
 30
0.0
 11
13.5
 21
9.257359
 31
0.0
  0
LINE
  8
0
 62
     0
 10
10.7
 20
6.634136
 30
0.0
 11
13.5
 21
9.434136
 31
0.0
  0
LINE
  8
0
 62
     0
 10
10.7
 20
6.810913
 30
0.0
 11
13.5
 21
9.610913
 31
0.0
  0
LINE
  8
0
 62
     0
 10
10.7
 20
6.987689
 30
0.0
 11
13.5
 21
9.787689
 31
0.0
  0
LINE
  8
0
 62
     0
 10
10.7
 20
7.164466
 30
0.0
 11
13.5
 21
9.964466
 31
0.0
  0
LINE
  8
0
 62
     0
 10
10.7
 20
7.341243
 30
0.0
 11
13.358757
 21
10.0
 31
0.0
  0
LINE
  8
0
 62
     0
 10
10.7
 20
7.518019
 30
0.0
 11
13.181981
 21
10.0
 31
0.0
  0
LINE
  8
0
 62
     0
 10
10.7
 20
7.694796
 30
0.0
 11
13.005204
 21
10.0
 31
0.0
  0
LINE
  8
0
 62
     0
 10
10.7
 20
7.871573
 30
0.0
 11
12.828427
 21
10.0
 31
0.0
  0
LINE
  8
0
 62
     0
 10
10.7
 20
8.04835
 30
0.0
 11
12.65165
 21
10.0
 31
0.0
  0
LINE
  8
0
 62
     0
 10
10.7
 20
8.225126
 30
0.0
 11
12.474874
 21
10.0
 31
0.0
  0
LINE
  8
0
 62
     0
 10
10.7
 20
8.401903
 30
0.0
 11
12.298097
 21
10.0
 31
0.0
  0
LINE
  8
0
 62
     0
 10
10.7
 20
8.57868
 30
0.0
 11
12.12132
 21
10.0
 31
0.0
  0
LINE
  8
0
 62
     0
 10
10.7
 20
8.755456
 30
0.0
 11
11.944544
 21
10.0
 31
0.0
  0
LINE
  8
0
 62
     0
 10
10.7
 20
8.932233
 30
0.0
 11
11.767767
 21
10.0
 31
0.0
  0
LINE
  8
0
 62
     0
 10
10.7
 20
9.10901
 30
0.0
 11
11.59099
 21
10.0
 31
0.0
  0
LINE
  8
0
 62
     0
 10
10.7
 20
9.285786
 30
0.0
 11
11.414214
 21
10.0
 31
0.0
  0
LINE
  8
0
 62
     0
 10
10.7
 20
9.462563
 30
0.0
 11
11.237437
 21
10.0
 31
0.0
  0
LINE
  8
0
 62
     0
 10
10.7
 20
9.63934
 30
0.0
 11
11.06066
 21
10.0
 31
0.0
  0
LINE
  8
0
 62
     0
 10
10.7
 20
9.816117
 30
0.0
 11
10.883883
 21
10.0
 31
0.0
  0
LINE
  8
0
 62
     0
 10
10.7
 20
9.992893
 30
0.0
 11
10.707107
 21
10.0
 31
0.0
  0
LINE
  8
0
 62
     0
 10
10.7
 20
6.103806
 30
0.0
 11
13.5
 21
8.903806
 31
0.0
  0
LINE
  8
0
 62
     0
 10
10.7
 20
5.927029
 30
0.0
 11
13.5
 21
8.727029
 31
0.0
  0
LINE
  8
0
 62
     0
 10
10.7
 20
5.750253
 30
0.0
 11
13.5
 21
8.550253
 31
0.0
  0
LINE
  8
0
 62
     0
 10
10.7
 20
5.573476
 30
0.0
 11
13.5
 21
8.373476
 31
0.0
  0
LINE
  8
0
 62
     0
 10
10.7
 20
5.396699
 30
0.0
 11
13.5
 21
8.196699
 31
0.0
  0
LINE
  8
0
 62
     0
 10
10.7
 20
5.219922
 30
0.0
 11
13.5
 21
8.019922
 31
0.0
  0
LINE
  8
0
 62
     0
 10
10.856854
 20
5.2
 30
0.0
 11
13.5
 21
7.843146
 31
0.0
  0
LINE
  8
0
 62
     0
 10
11.033631
 20
5.2
 30
0.0
 11
13.5
 21
7.666369
 31
0.0
  0
LINE
  8
0
 62
     0
 10
11.210408
 20
5.2
 30
0.0
 11
13.5
 21
7.489592
 31
0.0
  0
LINE
  8
0
 62
     0
 10
11.387184
 20
5.2
 30
0.0
 11
13.5
 21
7.312816
 31
0.0
  0
LINE
  8
0
 62
     0
 10
11.563961
 20
5.2
 30
0.0
 11
13.5
 21
7.136039
 31
0.0
  0
LINE
  8
0
 62
     0
 10
11.740738
 20
5.2
 30
0.0
 11
13.5
 21
6.959262
 31
0.0
  0
LINE
  8
0
 62
     0
 10
11.917514
 20
5.2
 30
0.0
 11
13.5
 21
6.782486
 31
0.0
  0
LINE
  8
0
 62
     0
 10
12.094291
 20
5.2
 30
0.0
 11
13.5
 21
6.605709
 31
0.0
  0
LINE
  8
0
 62
     0
 10
12.271068
 20
5.2
 30
0.0
 11
13.5
 21
6.428932
 31
0.0
  0
LINE
  8
0
 62
     0
 10
12.447845
 20
5.2
 30
0.0
 11
13.5
 21
6.252155
 31
0.0
  0
LINE
  8
0
 62
     0
 10
12.624621
 20
5.2
 30
0.0
 11
13.5
 21
6.075379
 31
0.0
  0
LINE
  8
0
 62
     0
 10
12.801398
 20
5.2
 30
0.0
 11
13.5
 21
5.898602
 31
0.0
  0
LINE
  8
0
 62
     0
 10
12.978175
 20
5.2
 30
0.0
 11
13.5
 21
5.721825
 31
0.0
  0
LINE
  8
0
 62
     0
 10
13.154951
 20
5.2
 30
0.0
 11
13.5
 21
5.545049
 31
0.0
  0
LINE
  8
0
 62
     0
 10
13.331728
 20
5.2
 30
0.0
 11
13.5
 21
5.368272
 31
0.0
  0
ENDBLK
  8
0
  0
BLOCK
  8
0
  2
*X14
 70
    65
 10
0.0
 20
0.0
 30
0.0
  3
*X
  0
LINE
  8
0
 62
     0
 10
10.7
 20
1.154058
 30
0.0
 11
13.5
 21
3.954058
 31
0.0
  0
LINE
  8
0
 62
     0
 10
10.7
 20
1.330835
 30
0.0
 11
13.5
 21
4.130835
 31
0.0
  0
LINE
  8
0
 62
     0
 10
10.7
 20
1.507612
 30
0.0
 11
13.5
 21
4.307612
 31
0.0
  0
LINE
  8
0
 62
     0
 10
10.7
 20
1.684389
 30
0.0
 11
13.5
 21
4.484389
 31
0.0
  0
LINE
  8
0
 62
     0
 10
10.7
 20
1.861165
 30
0.0
 11
13.5
 21
4.661165
 31
0.0
  0
LINE
  8
0
 62
     0
 10
10.7
 20
2.037942
 30
0.0
 11
13.462058
 21
4.8
 31
0.0
  0
LINE
  8
0
 62
     0
 10
10.7
 20
2.214719
 30
0.0
 11
13.285281
 21
4.8
 31
0.0
  0
LINE
  8
0
 62
     0
 10
10.7
 20
2.391495
 30
0.0
 11
13.108505
 21
4.8
 31
0.0
  0
LINE
  8
0
 62
     0
 10
10.7
 20
2.568272
 30
0.0
 11
12.931728
 21
4.8
 31
0.0
  0
LINE
  8
0
 62
     0
 10
10.7
 20
2.745049
 30
0.0
 11
12.754951
 21
4.8
 31
0.0
  0
LINE
  8
0
 62
     0
 10
10.7
 20
2.921825
 30
0.0
 11
12.578175
 21
4.8
 31
0.0
  0
LINE
  8
0
 62
     0
 10
10.7
 20
3.098602
 30
0.0
 11
12.401398
 21
4.8
 31
0.0
  0
LINE
  8
0
 62
     0
 10
10.7
 20
3.275379
 30
0.0
 11
12.224621
 21
4.8
 31
0.0
  0
LINE
  8
0
 62
     0
 10
10.7
 20
3.452155
 30
0.0
 11
12.047845
 21
4.8
 31
0.0
  0
LINE
  8
0
 62
     0
 10
10.7
 20
3.628932
 30
0.0
 11
11.871068
 21
4.8
 31
0.0
  0
LINE
  8
0
 62
     0
 10
10.7
 20
3.805709
 30
0.0
 11
11.694291
 21
4.8
 31
0.0
  0
LINE
  8
0
 62
     0
 10
10.7
 20
3.982486
 30
0.0
 11
11.517514
 21
4.8
 31
0.0
  0
LINE
  8
0
 62
     0
 10
10.7
 20
4.159262
 30
0.0
 11
11.340738
 21
4.8
 31
0.0
  0
LINE
  8
0
 62
     0
 10
10.7
 20
4.336039
 30
0.0
 11
11.163961
 21
4.8
 31
0.0
  0
LINE
  8
0
 62
     0
 10
10.7
 20
4.512816
 30
0.0
 11
10.987184
 21
4.8
 31
0.0
  0
LINE
  8
0
 62
     0
 10
10.7
 20
4.689592
 30
0.0
 11
10.810408
 21
4.8
 31
0.0
  0
LINE
  8
0
 62
     0
 10
10.7
 20
0.977282
 30
0.0
 11
13.5
 21
3.777282
 31
0.0
  0
LINE
  8
0
 62
     0
 10
10.7
 20
0.800505
 30
0.0
 11
13.5
 21
3.600505
 31
0.0
  0
LINE
  8
0
 62
     0
 10
10.7
 20
0.623728
 30
0.0
 11
13.5
 21
3.423728
 31
0.0
  0
LINE
  8
0
 62
     0
 10
10.7
 20
0.446952
 30
0.0
 11
13.5
 21
3.246952
 31
0.0
  0
LINE
  8
0
 62
     0
 10
10.7
 20
0.270175
 30
0.0
 11
13.5
 21
3.070175
 31
0.0
  0
LINE
  8
0
 62
     0
 10
10.7
 20
0.093398
 30
0.0
 11
13.5
 21
2.893398
 31
0.0
  0
LINE
  8
0
 62
     0
 10
10.783378
 20
0.0
 30
0.0
 11
13.5
 21
2.716622
 31
0.0
  0
LINE
  8
0
 62
     0
 10
10.960155
 20
0.0
 30
0.0
 11
13.5
 21
2.539845
 31
0.0
  0
LINE
  8
0
 62
     0
 10
11.136932
 20
0.0
 30
0.0
 11
13.5
 21
2.363068
 31
0.0
  0
LINE
  8
0
 62
     0
 10
11.313708
 20
0.0
 30
0.0
 11
13.5
 21
2.186292
 31
0.0
  0
LINE
  8
0
 62
     0
 10
11.490485
 20
0.0
 30
0.0
 11
13.5
 21
2.009515
 31
0.0
  0
LINE
  8
0
 62
     0
 10
11.667262
 20
0.0
 30
0.0
 11
13.5
 21
1.832738
 31
0.0
  0
LINE
  8
0
 62
     0
 10
11.844039
 20
0.0
 30
0.0
 11
13.5
 21
1.655961
 31
0.0
  0
LINE
  8
0
 62
     0
 10
12.020815
 20
0.0
 30
0.0
 11
13.5
 21
1.479185
 31
0.0
  0
LINE
  8
0
 62
     0
 10
12.197592
 20
0.0
 30
0.0
 11
13.5
 21
1.302408
 31
0.0
  0
LINE
  8
0
 62
     0
 10
12.374369
 20
0.0
 30
0.0
 11
13.5
 21
1.125631
 31
0.0
  0
LINE
  8
0
 62
     0
 10
12.551145
 20
0.0
 30
0.0
 11
13.5
 21
0.948855
 31
0.0
  0
LINE
  8
0
 62
     0
 10
12.727922
 20
0.0
 30
0.0
 11
13.5
 21
0.772078
 31
0.0
  0
LINE
  8
0
 62
     0
 10
12.904699
 20
0.0
 30
0.0
 11
13.5
 21
0.595301
 31
0.0
  0
LINE
  8
0
 62
     0
 10
13.081475
 20
0.0
 30
0.0
 11
13.5
 21
0.418525
 31
0.0
  0
LINE
  8
0
 62
     0
 10
13.258252
 20
0.0
 30
0.0
 11
13.5
 21
0.241748
 31
0.0
  0
LINE
  8
0
 62
     0
 10
13.435029
 20
0.0
 30
0.0
 11
13.5
 21
0.064971
 31
0.0
  0
ENDBLK
  8
0
  0
BLOCK
  8
0
  2
*X15
 70
    65
 10
0.0
 20
0.0
 30
0.0
  3
*X
  0
LINE
  8
0
 62
     0
 10
13.9
 20
6.298602
 30
0.0
 11
16.582995
 21
8.981597
 31
0.0
  0
LINE
  8
0
 62
     0
 10
13.9
 20
6.475379
 30
0.0
 11
16.510503
 21
9.085882
 31
0.0
  0
LINE
  8
0
 62
     0
 10
13.9
 20
6.652155
 30
0.0
 11
16.432927
 21
9.185083
 31
0.0
  0
LINE
  8
0
 62
     0
 10
13.9
 20
6.828932
 30
0.0
 11
16.350372
 21
9.279304
 31
0.0
  0
LINE
  8
0
 62
     0
 10
13.9
 20
7.005709
 30
0.0
 11
16.262892
 21
9.368601
 31
0.0
  0
LINE
  8
0
 62
     0
 10
13.9
 20
7.182486
 30
0.0
 11
16.170495
 21
9.452981
 31
0.0
  0
LINE
  8
0
 62
     0
 10
13.9
 20
7.359262
 30
0.0
 11
16.073145
 21
9.532407
 31
0.0
  0
LINE
  8
0
 62
     0
 10
13.9
 20
7.536039
 30
0.0
 11
15.970755
 21
9.606794
 31
0.0
  0
LINE
  8
0
 62
     0
 10
13.9
 20
7.712816
 30
0.0
 11
15.863189
 21
9.676004
 31
0.0
  0
LINE
  8
0
 62
     0
 10
13.9
 20
7.889592
 30
0.0
 11
15.75025
 21
9.739843
 31
0.0
  0
LINE
  8
0
 62
     0
 10
13.9
 20
8.066369
 30
0.0
 11
15.631675
 21
9.798044
 31
0.0
  0
LINE
  8
0
 62
     0
 10
13.9
 20
8.243146
 30
0.0
 11
15.50711
 21
9.850256
 31
0.0
  0
LINE
  8
0
 62
     0
 10
13.9
 20
8.419922
 30
0.0
 11
15.376096
 21
9.896018
 31
0.0
  0
LINE
  8
0
 62
     0
 10
13.9
 20
8.596699
 30
0.0
 11
15.238027
 21
9.934726
 31
0.0
  0
LINE
  8
0
 62
     0
 10
13.9
 20
8.773476
 30
0.0
 11
15.092096
 21
9.965572
 31
0.0
  0
LINE
  8
0
 62
     0
 10
13.9
 20
8.950253
 30
0.0
 11
14.937209
 21
9.987461
 31
0.0
  0
LINE
  8
0
 62
     0
 10
13.9
 20
9.127029
 30
0.0
 11
14.771824
 21
9.998853
 31
0.0
  0
LINE
  8
0
 62
     0
 10
13.9
 20
9.303806
 30
0.0
 11
14.596193
 21
9.999999
 31
0.0
  0
LINE
  8
0
 62
     0
 10
13.9
 20
9.480583
 30
0.0
 11
14.419417
 21
9.999999
 31
0.0
  0
LINE
  8
0
 62
     0
 10
13.9
 20
9.657359
 30
0.0
 11
14.24264
 21
10.0
 31
0.0
  0
LINE
  8
0
 62
     0
 10
13.9
 20
9.834136
 30
0.0
 11
14.065864
 21
10.0
 31
0.0
  0
LINE
  8
0
 62
     0
 10
13.9
 20
6.121825
 30
0.0
 11
16.650245
 21
8.872071
 31
0.0
  0
LINE
  8
0
 62
     0
 10
13.9
 20
5.945049
 30
0.0
 11
16.712035
 21
8.757083
 31
0.0
  0
LINE
  8
0
 62
     0
 10
13.9
 20
5.768272
 30
0.0
 11
16.768067
 21
8.636339
 31
0.0
  0
LINE
  8
0
 62
     0
 10
13.9
 20
5.591495
 30
0.0
 11
16.817955
 21
8.509451
 31
0.0
  0
LINE
  8
0
 62
     0
 10
13.9
 20
5.414719
 30
0.0
 11
16.861189
 21
8.375908
 31
0.0
  0
LINE
  8
0
 62
     0
 10
13.9
 20
5.237942
 30
0.0
 11
16.897097
 21
8.235039
 31
0.0
  0
LINE
  8
0
 62
     0
 10
14.038835
 20
5.2
 30
0.0
 11
16.924779
 21
8.085944
 31
0.0
  0
LINE
  8
0
 62
     0
 10
14.215611
 20
5.2
 30
0.0
 11
16.942997
 21
7.927385
 31
0.0
  0
LINE
  8
0
 62
     0
 10
14.392388
 20
5.2
 30
0.0
 11
16.949987
 21
7.757599
 31
0.0
  0
LINE
  8
0
 62
     0
 10
14.569165
 20
5.2
 30
0.0
 11
16.943101
 21
7.573936
 31
0.0
  0
LINE
  8
0
 62
     0
 10
14.745942
 20
5.2
 30
0.0
 11
16.918037
 21
7.372095
 31
0.0
  0
LINE
  8
0
 62
     0
 10
14.922718
 20
5.2
 30
0.0
 11
16.866909
 21
7.144191
 31
0.0
  0
LINE
  8
0
 62
     0
 10
15.099495
 20
5.2
 30
0.0
 11
16.771715
 21
6.87222
 31
0.0
  0
LINE
  8
0
 62
     0
 10
15.276272
 20
5.2
 30
0.0
 11
15.847951
 21
5.77168
 31
0.0
  0
LINE
  8
0
 62
     0
 10
15.96673
 20
5.890458
 30
0.0
 11
16.559542
 21
6.48327
 31
0.0
  0
LINE
  8
0
 62
     0
 10
15.453048
 20
5.2
 30
0.0
 11
15.970661
 21
5.717613
 31
0.0
  0
LINE
  8
0
 62
     0
 10
15.629825
 20
5.2
 30
0.0
 11
16.088934
 21
5.659109
 31
0.0
  0
LINE
  8
0
 62
     0
 10
15.806602
 20
5.2
 30
0.0
 11
16.202964
 21
5.596363
 31
0.0
  0
LINE
  8
0
 62
     0
 10
15.983378
 20
5.2
 30
0.0
 11
16.312909
 21
5.529531
 31
0.0
  0
LINE
  8
0
 62
     0
 10
16.160155
 20
5.2
 30
0.0
 11
16.418895
 21
5.45874
 31
0.0
  0
LINE
  8
0
 62
     0
 10
16.336932
 20
5.2
 30
0.0
 11
16.521021
 21
5.384089
 31
0.0
  0
LINE
  8
0
 62
     0
 10
16.513708
 20
5.2
 30
0.0
 11
16.619363
 21
5.305655
 31
0.0
  0
LINE
  8
0
 62
     0
 10
16.690485
 20
5.2
 30
0.0
 11
16.713975
 21
5.22349
 31
0.0
  0
ENDBLK
  8
0
  0
BLOCK
  8
0
  2
*X16
 70
    65
 10
0.0
 20
0.0
 30
0.0
  3
*X
  0
LINE
  8
0
 62
     0
 10
13.9
 20
0.818525
 30
0.0
 11
17.39645
 21
4.314974
 31
0.0
  0
LINE
  8
0
 62
     0
 10
13.9
 20
0.995301
 30
0.0
 11
17.336354
 21
4.431655
 31
0.0
  0
LINE
  8
0
 62
     0
 10
13.9
 20
1.172078
 30
0.0
 11
17.272078
 21
4.544156
 31
0.0
  0
LINE
  8
0
 62
     0
 10
13.9
 20
1.348855
 30
0.0
 11
17.203766
 21
4.652621
 31
0.0
  0
LINE
  8
0
 62
     0
 10
13.9
 20
1.525631
 30
0.0
 11
17.131535
 21
4.757167
 31
0.0
  0
LINE
  8
0
 62
     0
 10
13.9
 20
1.702408
 30
0.0
 11
16.997592
 21
4.8
 31
0.0
  0
LINE
  8
0
 62
     0
 10
13.9
 20
1.879185
 30
0.0
 11
16.820815
 21
4.8
 31
0.0
  0
LINE
  8
0
 62
     0
 10
13.9
 20
2.055961
 30
0.0
 11
16.644039
 21
4.8
 31
0.0
  0
LINE
  8
0
 62
     0
 10
13.9
 20
2.232738
 30
0.0
 11
16.467262
 21
4.8
 31
0.0
  0
LINE
  8
0
 62
     0
 10
13.9
 20
2.409515
 30
0.0
 11
16.290485
 21
4.8
 31
0.0
  0
LINE
  8
0
 62
     0
 10
13.9
 20
2.586292
 30
0.0
 11
16.113708
 21
4.8
 31
0.0
  0
LINE
  8
0
 62
     0
 10
13.9
 20
2.763068
 30
0.0
 11
15.936932
 21
4.8
 31
0.0
  0
LINE
  8
0
 62
     0
 10
13.9
 20
2.939845
 30
0.0
 11
15.760155
 21
4.8
 31
0.0
  0
LINE
  8
0
 62
     0
 10
13.9
 20
3.116622
 30
0.0
 11
15.583378
 21
4.8
 31
0.0
  0
LINE
  8
0
 62
     0
 10
13.9
 20
3.293398
 30
0.0
 11
15.406602
 21
4.8
 31
0.0
  0
LINE
  8
0
 62
     0
 10
13.9
 20
3.470175
 30
0.0
 11
15.229825
 21
4.8
 31
0.0
  0
LINE
  8
0
 62
     0
 10
13.9
 20
3.646952
 30
0.0
 11
15.053048
 21
4.8
 31
0.0
  0
LINE
  8
0
 62
     0
 10
13.9
 20
3.823728
 30
0.0
 11
14.876272
 21
4.8
 31
0.0
  0
LINE
  8
0
 62
     0
 10
13.9
 20
4.000505
 30
0.0
 11
14.699495
 21
4.8
 31
0.0
  0
LINE
  8
0
 62
     0
 10
13.9
 20
4.177282
 30
0.0
 11
14.522718
 21
4.8
 31
0.0
  0
LINE
  8
0
 62
     0
 10
13.9
 20
4.354058
 30
0.0
 11
14.345942
 21
4.8
 31
0.0
  0
LINE
  8
0
 62
     0
 10
13.9
 20
4.530835
 30
0.0
 11
14.169165
 21
4.8
 31
0.0
  0
LINE
  8
0
 62
     0
 10
13.9
 20
4.707612
 30
0.0
 11
13.992388
 21
4.8
 31
0.0
  0
LINE
  8
0
 62
     0
 10
13.9
 20
0.641748
 30
0.0
 11
17.452185
 21
4.193933
 31
0.0
  0
LINE
  8
0
 62
     0
 10
13.9
 20
0.464971
 30
0.0
 11
17.503339
 21
4.068311
 31
0.0
  0
LINE
  8
0
 62
     0
 10
13.9
 20
0.288194
 30
0.0
 11
17.549642
 21
3.937837
 31
0.0
  0
LINE
  8
0
 62
     0
 10
13.9
 20
0.111418
 30
0.0
 11
17.590762
 21
3.80218
 31
0.0
  0
LINE
  8
0
 62
     0
 10
13.965359
 20
0.0
 30
0.0
 11
17.62629
 21
3.660931
 31
0.0
  0
LINE
  8
0
 62
     0
 10
14.142136
 20
0.000001
 30
0.0
 11
17.655713
 21
3.513577
 31
0.0
  0
LINE
  8
0
 62
     0
 10
14.318913
 20
0.000001
 30
0.0
 11
17.678385
 21
3.359473
 31
0.0
  0
LINE
  8
0
 62
     0
 10
14.49569
 20
0.000001
 30
0.0
 11
17.693473
 21
3.197784
 31
0.0
  0
LINE
  8
0
 62
     0
 10
14.672467
 20
0.000002
 30
0.0
 11
17.699875
 21
3.027409
 31
0.0
  0
LINE
  8
0
 62
     0
 10
14.853154
 20
0.003912
 30
0.0
 11
17.696088
 21
2.846846
 31
0.0
  0
LINE
  8
0
 62
     0
 10
15.046044
 20
0.020025
 30
0.0
 11
17.679975
 21
2.653956
 31
0.0
  0
LINE
  8
0
 62
     0
 10
15.254483
 20
0.051687
 30
0.0
 11
17.648313
 21
2.445517
 31
0.0
  0
LINE
  8
0
 62
     0
 10
15.483762
 20
0.10419
 30
0.0
 11
17.59581
 21
2.216238
 31
0.0
  0
LINE
  8
0
 62
     0
 10
15.743786
 20
0.187437
 30
0.0
 11
17.512563
 21
1.956214
 31
0.0
  0
LINE
  8
0
 62
     0
 10
16.058176
 20
0.32505
 30
0.0
 11
17.37495
 21
1.641824
 31
0.0
  0
LINE
  8
0
 62
     0
 10
16.54193
 20
0.632028
 30
0.0
 11
17.067972
 21
1.15807
 31
0.0
  0
ENDBLK
  8
0
  0
BLOCK
  8
0
  2
MAA
 70
    64
 10
0.0
 20
0.0
 30
0.0
  3
MAA
  0
LINE
  8
0
  6
CONTINUOUS
 10
-0.500718
 20
-2.587966
 30
0.0
 11
0.386169
 21
-2.587966
 31
0.0
  0
LINE
  8
0
  6
CONTINUOUS
 10
-0.831823
 20
-1.976333
 30
0.0
 11
0.752749
 21
-1.976333
 31
0.0
  0
LINE
  8
0
  6
CONTINUOUS
 10
-0.015887
 20
-1.35427
 30
0.0
 11
1.178454
 21
-1.35427
 31
0.0
  0
LINE
  8
0
  6
CONTINUOUS
 10
-1.210228
 20
-1.35427
 30
0.0
 11
-0.015887
 21
-1.35427
 31
0.0
  0
LINE
  8
0
  6
CONTINUOUS
 10
0.0
 20
0.0
 30
0.0
 11
0.0
 21
-1.35427
 31
0.0
  0
ENDBLK
  8
0
  0
BLOCK
  8
0
  2
B507
 70
    64
 10
0.0
 20
0.0
 30
0.0
  3
B507
  0
LINE
  8
0
  6
CONTINUOUS
 10
0.079622
 20
0.147754
 30
0.0
 11
0.079622
 21
-9.002074
 31
0.0
  0
INSERT
  8
0
  6
CONTINUOUS
  2
BLC29
 10
0.212369
 20
-6.641509
 30
0.0
 50
270.0
  0
ENDBLK
  8
0
  0
ENDSEC
  0
SECTION
  2
ENTITIES
  0
INSERT
  8
0
  2
1
 10
65.405438
 20
98.713066
 30
0.0
  0
INSERT
  8
0
  2
1
 10
72.541652
 20
49.71056
 30
0.0
  0
INSERT
  8
0
  2
1
 10
85.390443
 20
73.497234
 30
0.0
  0
LINE
  8
0
  6
CENTER
 62
   249
 10
260.0
 20
182.5
 30
0.0
 11
260.0
 21
75.0
 31
0.0
  0
LINE
  8
0
  6
CENTER
 62
   249
 10
260.0
 20
75.0
 30
0.0
 11
260.0
 21
45.0
 31
0.0
  0
LINE
  8
0
  6
CONTINUOUS
 62
   249
 10
210.450615
 20
174.709828
 30
0.0
 11
210.450615
 21
97.5
 31
0.0
  0
LINE
  8
0
  6
CONTINUOUS
 62
   249
 10
210.450615
 20
202.5
 30
0.0
 11
210.450615
 21
174.68832
 31
0.0
  0
LINE
  8
0
  6
CENTER
 62
   249
 10
260.0
 20
205.0
 30
0.0
 11
260.0
 21
182.5
 31
0.0
  0
LINE
  8
0
  6
CONTINUOUS
 62
   249
 10
200.0
 20
97.5
 30
0.0
 11
200.0
 21
202.5
 31
0.0
  0
LINE
  8
0
  6
CONTINUOUS
 62
   249
 10
180.0
 20
187.5
 30
0.0
 11
180.0
 21
172.5
 31
0.0
  0
LINE
  8
0
  6
CONTINUOUS
 62
   249
 10
180.0
 20
187.5
 30
0.0
 11
180.0
 21
202.5
 31
0.0
  0
LINE
  8
0
  6
CONTINUOUS
 62
   249
 10
180.0
 20
172.5
 30
0.0
 11
180.0
 21
97.5
 31
0.0
  0
LINE
  8
0
  6
CENTER
 62
   249
 10
40.0
 20
230.0
 30
0.0
 11
40.0
 21
45.0
 31
0.0
  0
LINE
  8
0
  6
CONTINUOUS
 62
   249
 10
62.5
 20
120.0
 30
0.0
 11
56.756076
 21
116.785297
 31
0.0
  0
LINE
  8
0
  6
CONTINUOUS
 62
   249
 10
75.0
 20
110.0
 30
0.0
 11
69.256076
 21
106.785297
 31
0.0
  0
LINE
  8
0
  6
CONTINUOUS
 62
   249
 10
75.0
 20
110.0
 30
0.0
 11
77.5
 21
110.0
 31
0.0
  0
LINE
  8
0
  6
CONTINUOUS
 62
   249
 10
70.0
 20
110.0
 30
0.0
 11
40.0
 21
110.0
 31
0.0
  0
LINE
  8
0
  6
DASHED
 62
   249
 10
60.0
 20
125.0
 30
0.0
 11
60.0
 21
118.600824
 31
0.0
  0
LINE
  8
0
  6
DASHED
 62
   249
 10
72.5
 20
122.5
 30
0.0
 11
72.5
 21
108.600824
 31
0.0
  0
LINE
  8
0
  6
DASHED
 62
   249
 10
85.0
 20
122.5
 30
0.0
 11
85.0
 21
93.600824
 31
0.0
  0
LINE
  8
0
  6
DASHED
 62
   249
 10
97.5
 20
122.5
 30
0.0
 11
97.5
 21
78.600824
 31
0.0
  0
LINE
  8
0
  6
DASHED
 62
   249
 10
107.5
 20
100.0
 30
0.0
 11
107.5
 21
63.600824
 31
0.0
  0
TEXT
  8
0
  6
DASHED
 62
   249
 10
55.697373
 20
120.903492
 30
0.0
 40
2.0
  1
A
  7
ROMANS
  0
TEXT
  8
0
  6
DASHED
 62
   249
 10
69.143373
 20
111.274588
 30
0.0
 40
2.0
  1
B
  7
ROMANS
  0
TEXT
  8
0
  6
DASHED
 62
   249
 10
81.055109
 20
95.634364
 30
0.0
 40
2.0
  1
C
  7
ROMANS
  0
TEXT
  8
0
  6
DASHED
 62
   249
 10
93.484014
 20
80.755752
 30
0.0
 40
2.0
  1
D
  7
ROMANS
  0
TEXT
  8
0
  6
DASHED
 62
   249
 10
103.171573
 20
65.864654
 30
0.0
 40
2.0
  1
E
  7
ROMANS
  0
LINE
  8
0
  6
CENTER
 62
   249
 10
40.0
 20
45.0
 30
0.0
 11
260.0
 21
45.0
 31
0.0
  0
LINE
  8
0
  6
CONTINUOUS
 62
   249
 10
240.0
 20
165.0
 30
0.0
 11
241.0
 21
164.0
 31
0.0
  0
LINE
  8
0
  6
CONTINUOUS
 62
   249
 10
240.0
 20
210.0
 30
0.0
 11
241.0
 21
211.0
 31
0.0
  0
LINE
  8
0
  6
CONTINUOUS
 62
   249
 10
240.0
 20
210.0
 30
0.0
 11
240.0
 21
165.0
 31
0.0
  0
LINE
  8
0
  6
CENTER
 62
   249
 10
260.0
 20
205.0
 30
0.0
 11
260.0
 21
230.0
 31
0.0
  0
LINE
  8
0
  6
CENTER
 62
   249
 10
260.0
 20
230.0
 30
0.0
 11
40.0
 21
230.0
 31
0.0
  0
LINE
  8
0
  6
CONTINUOUS
 62
   249
 10
25.0
 20
95.0
 30
0.0
 11
25.0
 21
84.999655
 31
0.0
  0
LINE
  8
0
  6
CONTINUOUS
 62
   249
 10
25.0
 20
95.0
 30
0.0
 11
26.0
 21
96.0
 31
0.0
  0
LINE
  8
0
  6
CONTINUOUS
 62
   249
 10
25.0
 20
84.999655
 30
0.0
 11
26.0
 21
83.999655
 31
0.0
  0
TEXT
  8
0
  6
CONTINUOUS
 62
   249
 10
20.0
 20
116.777191
 30
0.0
 40
2.0
  1
4)
  7
ROMANS
  0
LINE
  8
0
  6
CONTINUOUS
 62
   249
 10
180.0
 20
135.0
 30
0.0
 11
210.450615
 21
135.0
 31
0.0
  0
LINE
  8
0
  6
CONTINUOUS
 62
   249
 10
107.5
 20
162.5
 30
0.0
 11
107.5
 21
100.0
 31
0.0
  0
TEXT
  8
0
 62
   249
 10
350.447956
 20
88.338465
 30
0.0
 40
2.0
  1
TERMINALS / UTTAG
  7
ROMANS
 11
350.447956
 21
87.671798
 31
0.0
 73
     1
  0
LINE
  8
0
 62
   249
 10
358.50882
 20
58.564865
 30
0.0
 11
388.50882
 21
58.564865
 31
0.0
  0
LINE
  8
0
 62
   249
 10
373.612509
 20
87.671798
 30
0.0
 11
373.612509
 21
41.519587
 31
0.0
  0
LINE
  8
0
 62
   249
 10
358.50882
 20
87.671798
 30
0.0
 11
358.50882
 21
41.519587
 31
0.0
  0
LINE
  8
0
 62
   249
 10
344.50882
 20
87.671798
 30
0.0
 11
388.50882
 21
87.671798
 31
0.0
  0
LINE
  8
0
 62
   249
 10
388.50882
 20
41.519587
 30
0.0
 11
388.50882
 21
93.671798
 31
0.0
  0
LINE
  8
0
 62
   249
 10
344.50882
 20
93.671798
 30
0.0
 11
344.50882
 21
41.519587
 31
0.0
  0
LINE
  8
0
  6
CONTINUOUS
 62
   249
 10
344.50882
 20
41.519587
 30
0.0
 11
388.50882
 21
41.519587
 31
0.0
  0
LINE
  8
0
  6
CONTINUOUS
 62
   249
 10
199.245375
 20
194.210612
 30
0.0
 11
199.245375
 21
192.422481
 31
0.0
  0
LINE
  8
0
  6
CONTINUOUS
 62
   249
 10
193.845856
 20
192.197731
 30
0.0
 11
196.721966
 21
195.026289
 31
0.0
  0
ARC
  8
0
  6
HIDDEN
 62
   249
 10
198.156579
 20
197.293878
 30
0.0
 40
4.998196
 50
206.402922
 51
282.21115
  0
LINE
  8
0
  6
CONTINUOUS
 62
   249
 10
196.291263
 20
195.563496
 30
0.0
 11
197.19194
 21
194.439747
 31
0.0
  0
LINE
  8
0
  6
CONTINUOUS
 62
   249
 10
191.461711
 20
193.365333
 30
0.0
 11
199.249916
 21
193.365333
 31
0.0
  0
LINE
  8
0
  6
CONTINUOUS
 62
   249
 10
191.430679
 20
194.210612
 30
0.0
 11
191.430679
 21
192.422481
 31
0.0
  0
LINE
  8
0
  6
HIDDEN
 62
   249
 10
180.0
 20
150.0
 30
0.0
 11
200.0
 21
150.0
 31
0.0
  0
LINE
  8
0
  6
HIDDEN
 62
   249
 10
180.0
 20
145.0
 30
0.0
 11
200.0
 21
145.0
 31
0.0
  0
LINE
  8
0
  6
HIDDEN
 62
   249
 10
180.0
 20
160.0
 30
0.0
 11
200.0
 21
160.0
 31
0.0
  0
LINE
  8
0
  6
CONTINUOUS
 62
   249
 10
186.941403
 20
163.677597
 30
0.0
 11
189.287169
 21
162.342244
 31
0.0
  0
LINE
  8
0
  6
CONTINUOUS
 62
   249
 10
189.287169
 20
162.342244
 30
0.0
 11
186.941403
 21
161.152325
 31
0.0
  0
LINE
  8
0
  6
HIDDEN
 62
   249
 10
182.5
 20
185.0
 30
0.0
 11
200.0
 21
185.0
 31
0.0
  0
TEXT
  8
0
  6
CONTINUOUS
 62
   249
 10
183.770128
 20
179.8404
 30
0.0
 40
2.5
  1
I
 11
183.770128
 21
179.007066
 31
0.0
 73
     1
  0
LINE
  8
0
  6
CONTINUOUS
 62
   249
 10
189.337442
 20
181.043003
 30
0.0
 11
186.991677
 21
179.853084
 31
0.0
  0
LINE
  8
0
  6
CONTINUOUS
 62
   249
 10
186.991677
 20
182.378357
 30
0.0
 11
189.337442
 21
181.043003
 31
0.0
  0
LINE
  8
0
  6
CONTINUOUS
 62
   249
 10
187.678827
 20
181.043003
 30
0.0
 11
185.333062
 21
179.853084
 31
0.0
  0
LINE
  8
0
  6
CONTINUOUS
 62
   249
 10
185.333062
 20
182.378357
 30
0.0
 11
187.678827
 21
181.043003
 31
0.0
  0
LINE
  8
0
  6
CONTINUOUS
 62
   249
 10
199.245829
 20
181.615882
 30
0.0
 11
199.245829
 21
179.82775
 31
0.0
  0
LINE
  8
0
  6
CONTINUOUS
 62
   249
 10
193.84631
 20
179.603
 30
0.0
 11
196.72242
 21
182.431559
 31
0.0
  0
LINE
  8
0
  6
CONTINUOUS
 62
   249
 10
196.291717
 20
182.968766
 30
0.0
 11
197.192394
 21
181.845017
 31
0.0
  0
LINE
  8
0
  6
CONTINUOUS
 62
   249
 10
191.462165
 20
180.770603
 30
0.0
 11
199.25037
 21
180.770603
 31
0.0
  0
LINE
  8
0
  6
CONTINUOUS
 62
   249
 10
191.431134
 20
181.615882
 30
0.0
 11
191.431134
 21
179.82775
 31
0.0
  0
LINE
  8
0
  6
HIDDEN
 62
   249
 10
182.5
 20
190.0
 30
0.0
 11
200.0
 21
190.0
 31
0.0
  0
LINE
  8
0
  6
CONTINUOUS
 62
   249
 10
185.333062
 20
188.730934
 30
0.0
 11
187.678827
 21
187.395581
 31
0.0
  0
LINE
  8
0
  6
CONTINUOUS
 62
   249
 10
187.678827
 20
187.395581
 30
0.0
 11
185.333062
 21
186.205662
 31
0.0
  0
LINE
  8
0
  6
CONTINUOUS
 62
   249
 10
186.991677
 20
188.730934
 30
0.0
 11
189.337442
 21
187.395581
 31
0.0
  0
LINE
  8
0
  6
CONTINUOUS
 62
   249
 10
189.337442
 20
187.395581
 30
0.0
 11
186.991677
 21
186.205662
 31
0.0
  0
TEXT
  8
0
  6
CONTINUOUS
 62
   249
 10
183.770128
 20
186.192977
 30
0.0
 40
2.5
  1
I
 11
183.770128
 21
185.359644
 31
0.0
 73
     1
  0
LINE
  8
0
  6
HIDDEN
 62
   249
 10
182.5
 20
197.5
 30
0.0
 11
200.0
 21
197.5
 31
0.0
  0
TEXT
  8
0
  6
CONTINUOUS
 62
   249
 10
183.770128
 20
192.252437
 30
0.0
 40
2.5
  1
I
 11
183.770128
 21
191.419104
 31
0.0
 73
     1
  0
LINE
  8
0
  6
CONTINUOUS
 62
   249
 10
188.906117
 20
193.455041
 30
0.0
 11
186.560351
 21
192.265121
 31
0.0
  0
LINE
  8
0
  6
CONTINUOUS
 62
   249
 10
186.560351
 20
194.790394
 30
0.0
 11
188.906117
 21
193.455041
 31
0.0
  0
LINE
  8
0
  6
CONTINUOUS
 62
   249
 10
180.0
 20
202.5
 30
0.0
 11
210.450615
 21
202.5
 31
0.0
  0
LINE
  8
0
  6
CONTINUOUS
 62
   249
 10
186.560351
 20
200.779314
 30
0.0
 11
188.906117
 21
199.44396
 31
0.0
  0
LINE
  8
0
  6
CONTINUOUS
 62
   249
 10
188.906117
 20
199.44396
 30
0.0
 11
186.560351
 21
198.254041
 31
0.0
  0
TEXT
  8
0
  6
CONTINUOUS
 62
   249
 10
183.770128
 20
198.241357
 30
0.0
 40
2.5
  1
I
 11
183.770128
 21
197.408023
 31
0.0
 73
     1
  0
TEXT
  8
0
  6
CONTINUOUS
 62
   249
 10
205.0
 20
197.5
 30
0.0
 40
2.5
  1
U1
  7
ROMANS
  0
LINE
  8
0
  6
CONTINUOUS
 62
   249
 10
208.262126
 20
184.090072
 30
0.0
 11
210.079543
 21
183.055487
 31
0.0
  0
LINE
  8
0
  6
CONTINUOUS
 62
   249
 10
210.079543
 20
183.055487
 30
0.0
 11
208.262126
 21
182.133579
 31
0.0
  0
LINE
  8
0
  6
CONTINUOUS
 62
   249
 10
52.798812
 20
202.5
 30
0.0
 11
47.5
 21
202.5
 31
0.0
  0
LINE
  8
0
  6
CONTINUOUS
 62
   249
 10
52.798812
 20
207.5
 30
0.0
 11
40.0
 21
207.5
 31
0.0
  0
LINE
  8
0
 62
   249
 10
52.798812
 20
209.089925
 30
0.0
 11
52.798812
 21
200.9
 31
0.0
  0
LINE
  8
0
 62
   249
 10
57.004853
 20
209.09384
 30
0.0
 11
55.09105
 21
206.815018
 31
0.0
  0
LINE
  8
0
 62
   249
 10
58.496971
 20
209.09384
 30
0.0
 11
56.642636
 21
206.815018
 31
0.0
  0
LINE
  8
0
 62
   249
 10
60.221556
 20
209.089925
 30
0.0
 11
52.798812
 21
209.089925
 31
0.0
  0
LINE
  8
0
 62
   249
 10
60.221556
 20
200.9
 30
0.0
 11
60.221556
 21
209.089925
 31
0.0
  0
LINE
  8
0
  6
CONTINUOUS
 62
   249
 10
60.221556
 20
205.0
 30
0.0
 11
65.0
 21
205.0
 31
0.0
  0
LINE
  8
0
  6
CONTINUOUS
 62
   249
 10
60.221556
 20
197.5
 30
0.0
 11
167.5
 21
197.5
 31
0.0
  0
LINE
  8
0
 62
   249
 10
60.221556
 20
193.704212
 30
0.0
 11
60.221556
 21
201.589925
 31
0.0
  0
LINE
  8
0
 62
   249
 10
60.221556
 20
201.204212
 30
0.0
 11
52.798812
 21
201.204212
 31
0.0
  0
LINE
  8
0
 62
   249
 10
58.496971
 20
201.208127
 30
0.0
 11
56.642636
 21
198.929305
 31
0.0
  0
LINE
  8
0
 62
   249
 10
57.004853
 20
201.208127
 30
0.0
 11
55.09105
 21
198.929305
 31
0.0
  0
LINE
  8
0
 62
   249
 10
52.798812
 20
201.589925
 30
0.0
 11
52.798812
 21
193.704212
 31
0.0
  0
LINE
  8
0
  6
CONTINUOUS
 62
   249
 10
52.798812
 20
200.0
 30
0.0
 11
40.0
 21
200.0
 31
0.0
  0
LINE
  8
0
  6
CONTINUOUS
 62
   249
 10
52.798812
 20
195.0
 30
0.0
 11
47.5
 21
195.0
 31
0.0
  0
LINE
  8
0
 62
   249
 10
60.221556
 20
193.704212
 30
0.0
 11
52.798812
 21
193.704212
 31
0.0
  0
LINE
  8
0
  6
CONTINUOUS
 62
   249
 10
232.5
 20
77.5
 30
0.0
 11
240.0
 21
77.5
 31
0.0
  0
LINE
  8
0
 62
   249
 10
245.0
 20
125.0
 30
0.0
 11
243.480133
 21
125.0
 31
0.0
  0
ARC
  8
0
 62
   249
 10
245.065849
 20
126.25
 30
0.0
 40
1.251733
 50
266.984476
 51
93.015524
  0
LINE
  8
0
 62
   249
 10
245.0
 20
127.5
 30
0.0
 11
243.480133
 21
127.5
 31
0.0
  0
LINE
  8
0
 62
   249
 10
245.0
 20
130.0
 30
0.0
 11
243.480133
 21
130.0
 31
0.0
  0
ARC
  8
0
 62
   249
 10
245.065849
 20
128.75
 30
0.0
 40
1.251733
 50
266.984476
 51
93.015524
  0
LINE
  8
0
 62
   249
 10
250.0
 20
122.5
 30
0.0
 11
252.5
 21
122.5
 31
0.0
  0
ARC
  8
0
 62
   249
 10
249.934151
 20
123.75
 30
0.0
 40
1.251733
 50
86.984476
 51
273.015524
  0
ARC
  8
0
 62
   249
 10
249.934151
 20
126.25
 30
0.0
 40
1.251733
 50
86.984476
 51
273.015524
  0
LINE
  8
0
 62
   249
 10
250.0
 20
125.0
 30
0.0
 11
252.5
 21
125.0
 31
0.0
  0
LINE
  8
0
 62
   249
 10
250.0
 20
127.5
 30
0.0
 11
252.5
 21
127.5
 31
0.0
  0
LINE
  8
0
 62
   249
 10
252.5
 20
127.5
 30
0.0
 11
255.0
 21
127.5
 31
0.0
  0
LINE
  8
0
 62
   249
 10
252.5
 20
122.5
 30
0.0
 11
260.0
 21
122.5
 31
0.0
  0
LINE
  8
0
 62
   249
 10
252.5
 20
127.5
 30
0.0
 11
260.0
 21
127.5
 31
0.0
  0
LINE
  8
0
 62
   249
 10
252.5
 20
132.5
 30
0.0
 11
260.0
 21
132.5
 31
0.0
  0
LINE
  8
0
 62
   249
 10
250.0
 20
132.5
 30
0.0
 11
252.5
 21
132.5
 31
0.0
  0
LINE
  8
0
 62
   249
 10
250.0
 20
130.0
 30
0.0
 11
252.5
 21
130.0
 31
0.0
  0
ARC
  8
0
 62
   249
 10
249.934151
 20
131.25
 30
0.0
 40
1.251733
 50
86.984476
 51
273.015524
  0
ARC
  8
0
 62
   249
 10
249.934151
 20
128.75
 30
0.0
 40
1.251733
 50
86.984476
 51
273.015524
  0
LINE
  8
0
 62
   249
 10
250.0
 20
127.5
 30
0.0
 11
252.5
 21
127.5
 31
0.0
  0
LINE
  8
0
 62
   249
 10
245.0
 20
165.0
 30
0.0
 11
243.480133
 21
165.0
 31
0.0
  0
ARC
  8
0
 62
   249
 10
245.065849
 20
166.25
 30
0.0
 40
1.251733
 50
266.984476
 51
93.015524
  0
LINE
  8
0
 62
   249
 10
245.0
 20
167.5
 30
0.0
 11
243.480133
 21
167.5
 31
0.0
  0
LINE
  8
0
 62
   249
 10
245.0
 20
170.0
 30
0.0
 11
243.480133
 21
170.0
 31
0.0
  0
ARC
  8
0
 62
   249
 10
245.065849
 20
168.75
 30
0.0
 40
1.251733
 50
266.984476
 51
93.015524
  0
LINE
  8
0
 62
   249
 10
250.0
 20
162.5
 30
0.0
 11
252.5
 21
162.5
 31
0.0
  0
ARC
  8
0
 62
   249
 10
249.934151
 20
163.75
 30
0.0
 40
1.251733
 50
86.984476
 51
273.015524
  0
ARC
  8
0
 62
   249
 10
249.934151
 20
166.25
 30
0.0
 40
1.251733
 50
86.984476
 51
273.015524
  0
LINE
  8
0
 62
   249
 10
250.0
 20
165.0
 30
0.0
 11
252.5
 21
165.0
 31
0.0
  0
LINE
  8
0
 62
   249
 10
250.0
 20
167.5
 30
0.0
 11
252.5
 21
167.5
 31
0.0
  0
LINE
  8
0
 62
   249
 10
252.5
 20
167.5
 30
0.0
 11
255.0
 21
167.5
 31
0.0
  0
LINE
  8
0
 62
   249
 10
252.5
 20
162.5
 30
0.0
 11
260.0
 21
162.5
 31
0.0
  0
LINE
  8
0
 62
   249
 10
252.5
 20
167.5
 30
0.0
 11
260.0
 21
167.5
 31
0.0
  0
LINE
  8
0
 62
   249
 10
252.5
 20
172.5
 30
0.0
 11
260.0
 21
172.5
 31
0.0
  0
LINE
  8
0
 62
   249
 10
250.0
 20
172.5
 30
0.0
 11
252.5
 21
172.5
 31
0.0
  0
LINE
  8
0
 62
   249
 10
250.0
 20
170.0
 30
0.0
 11
252.5
 21
170.0
 31
0.0
  0
ARC
  8
0
 62
   249
 10
249.934151
 20
171.25
 30
0.0
 40
1.251733
 50
86.984476
 51
273.015524
  0
ARC
  8
0
 62
   249
 10
249.934151
 20
168.75
 30
0.0
 40
1.251733
 50
86.984476
 51
273.015524
  0
LINE
  8
0
 62
   249
 10
250.0
 20
167.5
 30
0.0
 11
252.5
 21
167.5
 31
0.0
  0
LINE
  8
0
 62
   249
 10
245.0
 20
185.0
 30
0.0
 11
243.480133
 21
185.0
 31
0.0
  0
ARC
  8
0
 62
   249
 10
245.065849
 20
186.25
 30
0.0
 40
1.251733
 50
266.984476
 51
93.015524
  0
LINE
  8
0
 62
   249
 10
245.0
 20
187.5
 30
0.0
 11
243.480133
 21
187.5
 31
0.0
  0
LINE
  8
0
 62
   249
 10
245.0
 20
190.0
 30
0.0
 11
243.480133
 21
190.0
 31
0.0
  0
ARC
  8
0
 62
   249
 10
245.065849
 20
188.75
 30
0.0
 40
1.251733
 50
266.984476
 51
93.015524
  0
LINE
  8
0
 62
   249
 10
250.0
 20
182.5
 30
0.0
 11
252.5
 21
182.5
 31
0.0
  0
ARC
  8
0
 62
   249
 10
249.934151
 20
183.75
 30
0.0
 40
1.251733
 50
86.984476
 51
273.015524
  0
ARC
  8
0
 62
   249
 10
249.934151
 20
186.25
 30
0.0
 40
1.251733
 50
86.984476
 51
273.015524
  0
LINE
  8
0
 62
   249
 10
250.0
 20
185.0
 30
0.0
 11
252.5
 21
185.0
 31
0.0
  0
LINE
  8
0
 62
   249
 10
250.0
 20
187.5
 30
0.0
 11
252.5
 21
187.5
 31
0.0
  0
LINE
  8
0
 62
   249
 10
252.5
 20
187.5
 30
0.0
 11
255.0
 21
187.5
 31
0.0
  0
LINE
  8
0
 62
   249
 10
252.5
 20
182.5
 30
0.0
 11
260.0
 21
182.5
 31
0.0
  0
LINE
  8
0
 62
   249
 10
252.5
 20
187.5
 30
0.0
 11
260.0
 21
187.5
 31
0.0
  0
LINE
  8
0
 62
   249
 10
252.5
 20
192.5
 30
0.0
 11
260.0
 21
192.5
 31
0.0
  0
LINE
  8
0
 62
   249
 10
250.0
 20
192.5
 30
0.0
 11
252.5
 21
192.5
 31
0.0
  0
LINE
  8
0
 62
   249
 10
250.0
 20
190.0
 30
0.0
 11
252.5
 21
190.0
 31
0.0
  0
ARC
  8
0
 62
   249
 10
249.934151
 20
191.25
 30
0.0
 40
1.251733
 50
86.984476
 51
273.015524
  0
ARC
  8
0
 62
   249
 10
249.934151
 20
188.75
 30
0.0
 40
1.251733
 50
86.984476
 51
273.015524
  0
LINE
  8
0
 62
   249
 10
250.0
 20
187.5
 30
0.0
 11
252.5
 21
187.5
 31
0.0
  0
LINE
  8
0
 62
   249
 10
245.0
 20
205.0
 30
0.0
 11
243.480133
 21
205.0
 31
0.0
  0
ARC
  8
0
 62
   249
 10
245.065849
 20
206.25
 30
0.0
 40
1.251733
 50
266.984476
 51
93.015524
  0
LINE
  8
0
 62
   249
 10
245.0
 20
207.5
 30
0.0
 11
243.480133
 21
207.5
 31
0.0
  0
LINE
  8
0
 62
   249
 10
245.0
 20
210.0
 30
0.0
 11
243.480133
 21
210.0
 31
0.0
  0
ARC
  8
0
 62
   249
 10
245.065849
 20
208.75
 30
0.0
 40
1.251733
 50
266.984476
 51
93.015524
  0
LINE
  8
0
 62
   249
 10
250.0
 20
202.5
 30
0.0
 11
252.5
 21
202.5
 31
0.0
  0
ARC
  8
0
 62
   249
 10
249.934151
 20
203.75
 30
0.0
 40
1.251733
 50
86.984476
 51
273.015524
  0
ARC
  8
0
 62
   249
 10
249.934151
 20
206.25
 30
0.0
 40
1.251733
 50
86.984476
 51
273.015524
  0
LINE
  8
0
 62
   249
 10
250.0
 20
205.0
 30
0.0
 11
252.5
 21
205.0
 31
0.0
  0
LINE
  8
0
 62
   249
 10
250.0
 20
207.5
 30
0.0
 11
252.5
 21
207.5
 31
0.0
  0
LINE
  8
0
 62
   249
 10
252.5
 20
207.5
 30
0.0
 11
255.0
 21
207.5
 31
0.0
  0
LINE
  8
0
 62
   249
 10
252.5
 20
202.5
 30
0.0
 11
260.0
 21
202.5
 31
0.0
  0
LINE
  8
0
 62
   249
 10
252.5
 20
207.5
 30
0.0
 11
255.0
 21
207.5
 31
0.0
  0
LINE
  8
0
 62
   249
 10
252.5
 20
212.5
 30
0.0
 11
255.0
 21
212.5
 31
0.0
  0
LINE
  8
0
 62
   249
 10
250.0
 20
212.5
 30
0.0
 11
260.0
 21
212.5
 31
0.0
  0
LINE
  8
0
 62
   249
 10
250.0
 20
210.0
 30
0.0
 11
252.5
 21
210.0
 31
0.0
  0
ARC
  8
0
 62
   249
 10
249.934151
 20
211.25
 30
0.0
 40
1.251733
 50
86.984476
 51
273.015524
  0
ARC
  8
0
 62
   249
 10
249.934151
 20
208.75
 30
0.0
 40
1.251733
 50
86.984476
 51
273.015524
  0
LINE
  8
0
 62
   249
 10
250.0
 20
207.5
 30
0.0
 11
260.0
 21
207.5
 31
0.0
  0
TEXT
  8
0
  6
CONTINUOUS
 62
   249
 10
256.332442
 20
209.663714
 30
0.0
 40
2.0
  1
3
  7
ROMANS
  0
TEXT
  8
0
  6
CONTINUOUS
 62
   249
 10
256.332442
 20
204.699365
 30
0.0
 40
2.0
  1
2
  7
ROMANS
  0
TEXT
  8
0
  6
CONTINUOUS
 62
   249
 10
256.332442
 20
199.746037
 30
0.0
 40
2.0
  1
1
  7
ROMANS
  0
TEXT
  8
0
  6
CONTINUOUS
 62
   249
 10
256.332442
 20
169.606638
 30
0.0
 40
2.0
  1
9
  7
ROMANS
  0
TEXT
  8
0
  6
CONTINUOUS
 62
   249
 10
256.332442
 20
165.005961
 30
0.0
 40
2.0
  1
8
  7
ROMANS
  0
TEXT
  8
0
  6
CONTINUOUS
 62
   249
 10
256.332442
 20
159.501615
 30
0.0
 40
2.0
  1
7
  7
ROMANS
  0
LINE
  8
0
  6
HIDDEN
 62
   249
 10
260.0
 20
217.5
 30
0.0
 11
255.0
 21
217.5
 31
0.0
  0
LINE
  8
0
  6
HIDDEN
 62
   249
 10
255.0
 20
217.5
 30
0.0
 11
255.0
 21
47.5
 31
0.0
  0
LINE
  8
0
  6
HIDDEN
 62
   249
 10
255.0
 20
47.5
 30
0.0
 11
260.0
 21
47.5
 31
0.0
  0
TEXT
  8
0
  6
HIDDEN
 62
   249
 10
255.929881
 20
213.686149
 30
0.0
 40
2.0
  1
X0
  7
ROMANS
  0
LINE
  8
0
  6
CONTINUOUS
 62
   249
 10
240.0
 20
137.5
 30
0.0
 11
232.5
 21
137.5
 31
0.0
  0
LINE
  8
0
  6
CONTINUOUS
 62
   249
 10
240.0
 20
187.5
 30
0.0
 11
232.5
 21
187.5
 31
0.0
  0
LINE
  8
0
  6
DASHED
 62
   249
 10
40.0
 20
207.5
 30
0.0
 11
32.5
 21
207.5
 31
0.0
  0
LINE
  8
0
  6
DASHED
 62
   249
 10
40.0
 20
200.0
 30
0.0
 11
32.5
 21
200.0
 31
0.0
  0
LINE
  8
0
  6
DASHED
 62
   249
 10
40.0
 20
195.0
 30
0.0
 11
32.5
 21
195.0
 31
0.0
  0
LINE
  8
0
  6
CONTINUOUS
 62
   249
 10
22.5
 20
194.999655
 30
0.0
 11
23.5
 21
193.999655
 31
0.0
  0
LINE
  8
0
  6
CONTINUOUS
 62
   249
 10
22.5
 20
207.5
 30
0.0
 11
23.5
 21
208.5
 31
0.0
  0
LINE
  8
0
  6
CONTINUOUS
 62
   249
 10
22.5
 20
207.5
 30
0.0
 11
22.5
 21
194.999655
 31
0.0
  0
LINE
  8
0
  6
DASHED
 62
   249
 10
40.0
 20
95.0
 30
0.0
 11
27.5
 21
95.0
 31
0.0
  0
LINE
  8
0
  6
DASHED
 62
   249
 10
40.0
 20
85.0
 30
0.0
 11
27.5
 21
85.0
 31
0.0
  0
LINE
  8
0
  6
DASHED
 62
   249
 10
40.0
 20
80.0
 30
0.0
 11
27.5
 21
80.0
 31
0.0
  0
LINE
  8
0
  6
DASHED
 62
   249
 10
40.0
 20
70.0
 30
0.0
 11
27.5
 21
70.0
 31
0.0
  0
LINE
  8
0
  6
DASHED
 62
   249
 10
40.0
 20
65.0
 30
0.0
 11
27.5
 21
65.0
 31
0.0
  0
LINE
  8
0
  6
CONTINUOUS
 62
   249
 10
25.0
 20
80.0
 30
0.0
 11
26.0
 21
81.0
 31
0.0
  0
LINE
  8
0
  6
CONTINUOUS
 62
   249
 10
25.0
 20
54.999655
 30
0.0
 11
26.0
 21
53.999655
 31
0.0
  0
LINE
  8
0
  6
CONTINUOUS
 62
   249
 10
25.0
 20
80.0
 30
0.0
 11
25.0
 21
54.999655
 31
0.0
  0
LINE
  8
0
  6
CONTINUOUS
 62
   249
 10
363.185823
 20
161.796181
 30
0.0
 11
367.678973
 21
161.796181
 31
0.0
  0
TEXT
  8
0
  6
CONTINUOUS
 62
   249
 10
361.308659
 20
160.879555
 30
0.0
 40
2.0
  1
O
  0
TEXT
  8
0
  6
CONTINUOUS
 62
   249
 10
367.831775
 20
160.875304
 30
0.0
 40
2.0
  1
I
  0
LINE
  8
0
  6
CONTINUOUS
 62
   249
 10
355.727984
 20
155.0
 30
0.0
 11
355.727984
 21
257.5
 31
0.0
  0
LINE
  8
0
  6
CONTINUOUS
 62
   249
 10
375.727984
 20
197.5
 30
0.0
 11
355.727984
 21
197.5
 31
0.0
  0
LINE
  8
0
  6
CONTINUOUS
 62
   249
 10
375.727984
 20
257.5
 30
0.0
 11
375.727984
 21
155.0
 31
0.0
  0
LINE
  8
0
  6
CONTINUOUS
 62
   249
 10
355.727984
 20
257.5
 30
0.0
 11
375.727984
 21
257.5
 31
0.0
  0
LINE
  8
0
  6
CONTINUOUS
 62
   249
 10
355.727984
 20
225.0
 30
0.0
 11
375.727984
 21
225.0
 31
0.0
  0
LINE
  8
0
  6
CONTINUOUS
 62
   249
 10
361.32826
 20
235.552173
 30
0.0
 11
361.32826
 21
233.764041
 31
0.0
  0
LINE
  8
0
  6
CONTINUOUS
 62
   249
 10
361.359291
 20
234.706894
 30
0.0
 11
369.147496
 21
234.706894
 31
0.0
  0
LINE
  8
0
  6
CONTINUOUS
 62
   249
 10
363.743436
 20
233.539291
 30
0.0
 11
366.619546
 21
236.36785
 31
0.0
  0
LINE
  8
0
  6
CONTINUOUS
 62
   249
 10
366.188843
 20
236.905057
 30
0.0
 11
367.08952
 21
235.781308
 31
0.0
  0
LINE
  8
0
  6
CONTINUOUS
 62
   249
 10
369.142955
 20
235.552173
 30
0.0
 11
369.142955
 21
233.764041
 31
0.0
  0
LINE
  8
0
  6
CONTINUOUS
 62
   249
 10
370.75938
 20
242.00956
 30
0.0
 11
368.413614
 21
240.819641
 31
0.0
  0
LINE
  8
0
  6
CONTINUOUS
 62
   249
 10
368.413614
 20
243.344914
 30
0.0
 11
370.75938
 21
242.00956
 31
0.0
  0
LINE
  8
0
  6
CONTINUOUS
 62
   249
 10
366.821088
 20
243.344914
 30
0.0
 11
369.166854
 21
242.00956
 31
0.0
  0
LINE
  8
0
  6
CONTINUOUS
 62
   249
 10
369.166854
 20
242.00956
 30
0.0
 11
366.821088
 21
240.819641
 31
0.0
  0
LINE
  8
0
  6
CONTINUOUS
 62
   249
 10
369.142955
 20
247.706143
 30
0.0
 11
369.142955
 21
245.918012
 31
0.0
  0
LINE
  8
0
  6
CONTINUOUS
 62
   249
 10
363.743436
 20
245.693262
 30
0.0
 11
366.619546
 21
248.521821
 31
0.0
  0
ARC
  8
0
  6
HIDDEN
 62
   249
 10
368.054159
 20
250.789409
 30
0.0
 40
4.998196
 50
206.402922
 51
282.21115
  0
LINE
  8
0
  6
CONTINUOUS
 62
   249
 10
366.188843
 20
249.059027
 30
0.0
 11
367.08952
 21
247.935278
 31
0.0
  0
LINE
  8
0
  6
CONTINUOUS
 62
   249
 10
361.359291
 20
246.860865
 30
0.0
 11
369.147496
 21
246.860865
 31
0.0
  0
LINE
  8
0
  6
CONTINUOUS
 62
   249
 10
361.32826
 20
247.706143
 30
0.0
 11
361.32826
 21
245.918012
 31
0.0
  0
LINE
  8
0
  6
CONTINUOUS
 62
   249
 10
368.924329
 20
254.4814
 30
0.0
 11
366.578563
 21
253.291481
 31
0.0
  0
LINE
  8
0
  6
CONTINUOUS
 62
   249
 10
366.578563
 20
255.816754
 30
0.0
 11
368.924329
 21
254.4814
 31
0.0
  0
LINE
  8
0
  6
CONTINUOUS
 62
   249
 10
366.430299
 20
162.507003
 30
0.0
 11
367.678973
 21
161.796181
 31
0.0
  0
LINE
  8
0
  6
CONTINUOUS
 62
   249
 10
367.678973
 20
161.796181
 30
0.0
 11
366.430299
 21
161.162776
 31
0.0
  0
TEXT
  8
0
  6
CONTINUOUS
 62
   249
 10
361.074498
 20
83.820117
 30
0.0
 40
2.0
  1
In=1A
  7
ROMANS
  0
TEXT
  8
0
  6
CONTINUOUS
 62
   249
 10
349.799383
 20
69.637557
 30
0.0
 40
2.0
  1
L3
  7
ROMANS
  0
TEXT
  8
0
  6
CONTINUOUS
 62
   249
 10
362.23092
 20
69.565595
 30
0.0
 40
2.0
  1
7-9
  7
ROMANS
  0
TEXT
  8
0
  6
CONTINUOUS
 62
   249
 10
377.370919
 20
69.565595
 30
0.0
 40
2.0
  1
7-8
  7
ROMANS
  0
TEXT
  8
0
  6
CONTINUOUS
 62
   249
 10
203.537884
 20
155.244195
 30
0.0
 40
2.5
  1
U
  7
GREEKS
  0
TEXT
  8
0
  6
CONTINUOUS
 62
   249
 10
255.345388
 20
129.794439
 30
0.0
 40
2.0
  1
30
  7
ROMANS
  0
TEXT
  8
0
  6
CONTINUOUS
 62
   249
 10
255.345388
 20
124.745957
 30
0.0
 40
2.0
  1
29
  7
ROMANS
  0
TEXT
  8
0
  6
CONTINUOUS
 62
   249
 10
255.345388
 20
119.697475
 30
0.0
 40
2.0
  1
28
  7
ROMANS
  0
LINE
  8
0
 62
   249
 10
358.50882
 20
83.171798
 30
0.0
 11
388.50882
 21
83.171798
 31
0.0
  0
TEXT
  8
0
  6
DASHED
 62
   249
 10
376.077552
 20
83.820117
 30
0.0
 40
2.0
  1
In=5A
  7
ROMANS
  0
TEXT
  8
0
  6
DASHED
 62
   249
 10
349.799383
 20
77.869116
 30
0.0
 40
2.0
  1
L1            
  7
ROMANS
  0
TEXT
  8
0
  6
DASHED
 62
   249
 10
362.095071
 20
77.869116
 30
0.0
 40
2.0
  1
1-3
  7
ROMANS
  0
TEXT
  8
0
  6
DASHED
 62
   249
 10
377.250285
 20
77.869116
 30
0.0
 40
2.0
  1
1-2
  7
ROMANS
  0
TEXT
  8
0
  6
CONTINUOUS
 62
   249
 10
359.206231
 20
59.594715
 30
0.0
 40
2.0
  1
Un=100V
  7
ROMANS
  0
TEXT
  8
0
  6
CONTINUOUS
 62
   249
 10
374.156524
 20
59.594715
 30
0.0
 40
2.0
  1
Un=110V
  7
ROMANS
  0
TEXT
  8
0
  6
CONTINUOUS
 62
   249
 10
361.285952
 20
54.50507
 30
0.0
 40
2.0
  1
28-29
  7
ROMANS
  0
TEXT
  8
0
  6
CONTINUOUS
 62
   249
 10
376.707719
 20
54.50507
 30
0.0
 40
2.0
  1
28-30
  7
ROMANS
  0
LINE
  8
0
  6
CONTINUOUS
 62
   249
 10
47.5
 20
195.0
 30
0.0
 11
40.0
 21
195.0
 31
0.0
  0
LINE
  8
0
  6
CONTINUOUS
 62
   249
 10
47.5
 20
202.5
 30
0.0
 11
47.5
 21
195.0
 31
0.0
  0
LINE
  8
0
  6
CONTINUOUS
 62
   249
 10
180.0
 20
165.0
 30
0.0
 11
210.450615
 21
165.0
 31
0.0
  0
LINE
  8
0
  6
CONTINUOUS
 62
   249
 10
189.900936
 20
154.960055
 30
0.0
 11
192.400936
 21
154.960055
 31
0.0
  0
LINE
  8
0
  6
CONTINUOUS
 62
   249
 10
189.900936
 20
154.960055
 30
0.0
 11
187.676489
 21
154.399413
 31
0.0
  0
LINE
  8
0
  6
CONTINUOUS
 62
   249
 10
184.900936
 20
154.960055
 30
0.0
 11
187.400936
 21
154.960055
 31
0.0
  0
TEXT
  8
0
  6
HIDDEN
 62
   249
 10
181.080478
 20
154.226807
 30
0.0
 40
1.5
  1
EN
  0
TEXT
  8
0
  6
HIDDEN
 62
   249
 10
181.080478
 20
157.167847
 30
0.0
 40
1.5
  1
EN
  0
LINE
  8
0
  6
CONTINUOUS
 62
   249
 10
184.900936
 20
157.901095
 30
0.0
 11
187.400936
 21
157.901095
 31
0.0
  0
LINE
  8
0
  6
CONTINUOUS
 62
   249
 10
189.900936
 20
157.901095
 30
0.0
 11
187.676489
 21
157.340453
 31
0.0
  0
LINE
  8
0
  6
CONTINUOUS
 62
   249
 10
189.900936
 20
157.901095
 30
0.0
 11
192.400936
 21
157.901095
 31
0.0
  0
LINE
  8
0
  6
CONTINUOUS
 62
   249
 10
178.01273
 20
154.971652
 30
0.0
 11
170.0
 21
154.971652
 31
0.0
  0
LINE
  8
0
  6
CONTINUOUS
 62
   249
 10
178.01273
 20
158.000813
 30
0.0
 11
167.5
 21
158.000813
 31
0.0
  0
CIRCLE
  8
0
  6
CONTINUOUS
 62
   249
 10
179.012659
 20
157.994509
 30
0.0
 40
1.0
  0
CIRCLE
  8
0
  6
CONTINUOUS
 62
   249
 10
179.012659
 20
154.965349
 30
0.0
 40
1.0
  0
LINE
  8
0
  6
CONTINUOUS
 62
   249
 10
191.431134
 20
152.590902
 30
0.0
 11
191.431134
 21
150.80277
 31
0.0
  0
LINE
  8
0
  6
CONTINUOUS
 62
   249
 10
191.462165
 20
151.745623
 30
0.0
 11
199.25037
 21
151.745623
 31
0.0
  0
LINE
  8
0
  6
CONTINUOUS
 62
   249
 10
196.291717
 20
153.943786
 30
0.0
 11
197.192394
 21
152.820037
 31
0.0
  0
LINE
  8
0
  6
CONTINUOUS
 62
   249
 10
193.84631
 20
150.578021
 30
0.0
 11
196.72242
 21
153.406579
 31
0.0
  0
LINE
  8
0
  6
CONTINUOUS
 62
   249
 10
199.245829
 20
152.590902
 30
0.0
 11
199.245829
 21
150.80277
 31
0.0
  0
LINE
  8
0
  6
CONTINUOUS
 62
   249
 10
186.955194
 20
148.561795
 30
0.0
 11
189.300959
 21
147.226442
 31
0.0
  0
LINE
  8
0
  6
CONTINUOUS
 62
   249
 10
189.300959
 20
147.226442
 30
0.0
 11
186.955194
 21
146.036523
 31
0.0
  0
LINE
  8
0
  6
CONTINUOUS
 62
   249
 10
188.470034
 20
148.561795
 30
0.0
 11
190.815799
 21
147.226442
 31
0.0
  0
LINE
  8
0
  6
CONTINUOUS
 62
   249
 10
190.815799
 20
147.226442
 30
0.0
 11
188.470034
 21
146.036523
 31
0.0
  0
LINE
  8
0
  6
CONTINUOUS
 62
   249
 10
189.900936
 20
142.901095
 30
0.0
 11
192.400936
 21
142.901095
 31
0.0
  0
LINE
  8
0
  6
CONTINUOUS
 62
   249
 10
189.900936
 20
142.901095
 30
0.0
 11
187.676489
 21
142.340453
 31
0.0
  0
LINE
  8
0
  6
CONTINUOUS
 62
   249
 10
184.900936
 20
142.901095
 30
0.0
 11
187.400936
 21
142.901095
 31
0.0
  0
TEXT
  8
0
  6
HIDDEN
 62
   249
 10
181.080478
 20
142.167847
 30
0.0
 40
1.5
  1
EN
  0
TEXT
  8
0
  6
HIDDEN
 62
   249
 10
181.080478
 20
139.226807
 30
0.0
 40
1.5
  1
EN
  0
LINE
  8
0
  6
CONTINUOUS
 62
   249
 10
184.900936
 20
139.960055
 30
0.0
 11
187.400936
 21
139.960055
 31
0.0
  0
LINE
  8
0
  6
CONTINUOUS
 62
   249
 10
189.900936
 20
139.960055
 30
0.0
 11
187.676489
 21
139.399413
 31
0.0
  0
LINE
  8
0
  6
CONTINUOUS
 62
   249
 10
189.900936
 20
139.960055
 30
0.0
 11
192.400936
 21
139.960055
 31
0.0
  0
LINE
  8
0
  6
CONTINUOUS
 62
   249
 10
178.01273
 20
143.000813
 30
0.0
 11
167.5
 21
143.000813
 31
0.0
  0
CIRCLE
  8
0
  6
CONTINUOUS
 62
   249
 10
179.012659
 20
142.994509
 30
0.0
 40
1.0
  0
LINE
  8
0
  6
CONTINUOUS
 62
   249
 10
199.245829
 20
137.489158
 30
0.0
 11
199.245829
 21
135.701026
 31
0.0
  0
LINE
  8
0
  6
CONTINUOUS
 62
   249
 10
193.84631
 20
135.476276
 30
0.0
 11
196.72242
 21
138.304835
 31
0.0
  0
LINE
  8
0
  6
CONTINUOUS
 62
   249
 10
196.291717
 20
138.842042
 30
0.0
 11
197.192394
 21
137.718293
 31
0.0
  0
LINE
  8
0
  6
CONTINUOUS
 62
   249
 10
191.462165
 20
136.643879
 30
0.0
 11
199.25037
 21
136.643879
 31
0.0
  0
LINE
  8
0
  6
CONTINUOUS
 62
   249
 10
191.431134
 20
137.489158
 30
0.0
 11
191.431134
 21
135.701026
 31
0.0
  0
TEXT
  8
0
  6
CONTINUOUS
 62
   249
 10
205.0
 20
160.775586
 30
0.0
 40
2.5
  1
U2
  7
ROMANS
  0
TEXT
  8
0
  6
CONTINUOUS
 62
   249
 10
205.001359
 20
130.658649
 30
0.0
 40
2.5
  1
U3
  7
ROMANS
  0
ARC
  8
0
 62
   249
 10
249.934151
 20
98.75
 30
0.0
 40
1.251733
 50
86.984476
 51
273.015524
  0
ARC
  8
0
 62
   249
 10
249.934151
 20
101.25
 30
0.0
 40
1.251733
 50
86.984476
 51
273.015524
  0
LINE
  8
0
 62
   249
 10
250.0
 20
100.0
 30
0.0
 11
252.5
 21
100.0
 31
0.0
  0
LINE
  8
0
 62
   249
 10
252.5
 20
102.5
 30
0.0
 11
255.0
 21
102.5
 31
0.0
  0
LINE
  8
0
 62
   249
 10
252.5
 20
97.5
 30
0.0
 11
255.0
 21
97.5
 31
0.0
  0
LINE
  8
0
 62
   249
 10
252.5
 20
97.5
 30
0.0
 11
255.0
 21
97.5
 31
0.0
  0
LINE
  8
0
 62
   249
 10
250.0
 20
97.5
 30
0.0
 11
260.0
 21
97.5
 31
0.0
  0
LINE
  8
0
 62
   249
 10
250.0
 20
95.0
 30
0.0
 11
252.5
 21
95.0
 31
0.0
  0
ARC
  8
0
 62
   249
 10
249.934151
 20
96.25
 30
0.0
 40
1.251733
 50
86.984476
 51
273.015524
  0
ARC
  8
0
 62
   249
 10
249.934151
 20
93.75
 30
0.0
 40
1.251733
 50
86.984476
 51
273.015524
  0
LINE
  8
0
 62
   249
 10
250.0
 20
92.5
 30
0.0
 11
252.5
 21
92.5
 31
0.0
  0
ARC
  8
0
 62
   249
 10
245.065849
 20
98.75
 30
0.0
 40
1.251733
 50
266.984476
 51
93.015524
  0
LINE
  8
0
 62
   249
 10
245.0
 20
100.0
 30
0.0
 11
243.480133
 21
100.0
 31
0.0
  0
LINE
  8
0
 62
   249
 10
245.0
 20
97.5
 30
0.0
 11
243.480133
 21
97.5
 31
0.0
  0
ARC
  8
0
 62
   249
 10
245.065849
 20
96.25
 30
0.0
 40
1.251733
 50
266.984476
 51
93.015524
  0
LINE
  8
0
 62
   249
 10
245.0
 20
95.0
 30
0.0
 11
243.480133
 21
95.0
 31
0.0
  0
LINE
  8
0
 62
   249
 10
250.0
 20
77.5
 30
0.0
 11
252.5
 21
77.5
 31
0.0
  0
ARC
  8
0
 62
   249
 10
249.934151
 20
78.75
 30
0.0
 40
1.251733
 50
86.984476
 51
273.015524
  0
ARC
  8
0
 62
   249
 10
249.934151
 20
81.25
 30
0.0
 40
1.251733
 50
86.984476
 51
273.015524
  0
LINE
  8
0
 62
   249
 10
250.0
 20
80.0
 30
0.0
 11
252.5
 21
80.0
 31
0.0
  0
LINE
  8
0
 62
   249
 10
252.5
 20
77.5
 30
0.0
 11
255.0
 21
77.5
 31
0.0
  0
LINE
  8
0
 62
   249
 10
250.0
 20
77.5
 30
0.0
 11
260.0
 21
77.5
 31
0.0
  0
LINE
  8
0
 62
   249
 10
250.0
 20
75.0
 30
0.0
 11
252.5
 21
75.0
 31
0.0
  0
ARC
  8
0
 62
   249
 10
249.934151
 20
76.25
 30
0.0
 40
1.251733
 50
86.984476
 51
273.015524
  0
ARC
  8
0
 62
   249
 10
249.934151
 20
73.75
 30
0.0
 40
1.251733
 50
86.984476
 51
273.015524
  0
LINE
  8
0
 62
   249
 10
250.0
 20
72.5
 30
0.0
 11
252.5
 21
72.5
 31
0.0
  0
ARC
  8
0
 62
   249
 10
245.065849
 20
78.75
 30
0.0
 40
1.251733
 50
266.984476
 51
93.015524
  0
LINE
  8
0
 62
   249
 10
245.0
 20
80.0
 30
0.0
 11
243.480133
 21
80.0
 31
0.0
  0
LINE
  8
0
 62
   249
 10
245.0
 20
77.5
 30
0.0
 11
243.480133
 21
77.5
 31
0.0
  0
ARC
  8
0
 62
   249
 10
245.065849
 20
76.25
 30
0.0
 40
1.251733
 50
266.984476
 51
93.015524
  0
LINE
  8
0
 62
   249
 10
245.0
 20
75.0
 30
0.0
 11
243.480133
 21
75.0
 31
0.0
  0
LINE
  8
0
 62
   249
 10
250.0
 20
57.5
 30
0.0
 11
252.5
 21
57.5
 31
0.0
  0
ARC
  8
0
 62
   249
 10
249.934151
 20
58.75
 30
0.0
 40
1.251733
 50
86.984476
 51
273.015524
  0
ARC
  8
0
 62
   249
 10
249.934151
 20
61.25
 30
0.0
 40
1.251733
 50
86.984476
 51
273.015524
  0
LINE
  8
0
 62
   249
 10
250.0
 20
60.0
 30
0.0
 11
252.5
 21
60.0
 31
0.0
  0
LINE
  8
0
 62
   249
 10
252.5
 20
57.5
 30
0.0
 11
255.0
 21
57.5
 31
0.0
  0
LINE
  8
0
 62
   249
 10
250.0
 20
57.5
 30
0.0
 11
260.0
 21
57.5
 31
0.0
  0
LINE
  8
0
 62
   249
 10
250.0
 20
55.0
 30
0.0
 11
252.5
 21
55.0
 31
0.0
  0
ARC
  8
0
 62
   249
 10
249.934151
 20
56.25
 30
0.0
 40
1.251733
 50
86.984476
 51
273.015524
  0
ARC
  8
0
 62
   249
 10
249.934151
 20
53.75
 30
0.0
 40
1.251733
 50
86.984476
 51
273.015524
  0
LINE
  8
0
 62
   249
 10
250.0
 20
52.5
 30
0.0
 11
252.5
 21
52.5
 31
0.0
  0
ARC
  8
0
 62
   249
 10
245.065849
 20
58.75
 30
0.0
 40
1.251733
 50
266.984476
 51
93.015524
  0
LINE
  8
0
 62
   249
 10
245.0
 20
60.0
 30
0.0
 11
243.480133
 21
60.0
 31
0.0
  0
LINE
  8
0
 62
   249
 10
245.0
 20
57.5
 30
0.0
 11
243.480133
 21
57.5
 31
0.0
  0
ARC
  8
0
 62
   249
 10
245.065849
 20
56.25
 30
0.0
 40
1.251733
 50
266.984476
 51
93.015524
  0
LINE
  8
0
 62
   249
 10
245.0
 20
55.0
 30
0.0
 11
243.480133
 21
55.0
 31
0.0
  0
LINE
  8
0
 62
   249
 10
250.0
 20
102.5
 30
0.0
 11
260.0
 21
102.5
 31
0.0
  0
LINE
  8
0
 62
   249
 10
252.5
 20
92.5
 30
0.0
 11
260.0
 21
92.5
 31
0.0
  0
LINE
  8
0
 62
   249
 10
250.0
 20
62.5
 30
0.0
 11
260.0
 21
62.5
 31
0.0
  0
LINE
  8
0
 62
   249
 10
252.5
 20
52.5
 30
0.0
 11
260.0
 21
52.5
 31
0.0
  0
LINE
  8
0
 62
   249
 10
252.5
 20
72.5
 30
0.0
 11
260.0
 21
72.5
 31
0.0
  0
LINE
  8
0
 62
   249
 10
250.0
 20
82.5
 30
0.0
 11
260.0
 21
82.5
 31
0.0
  0
LINE
  8
0
  6
CONTINUOUS
 62
   249
 10
240.0
 20
100.0
 30
0.0
 11
240.0
 21
55.0
 31
0.0
  0
LINE
  8
0
  6
CONTINUOUS
 62
   249
 10
240.0
 20
55.0
 30
0.0
 11
241.0
 21
54.0
 31
0.0
  0
LINE
  8
0
  6
CONTINUOUS
 62
   249
 10
240.0
 20
100.0
 30
0.0
 11
241.0
 21
101.0
 31
0.0
  0
TEXT
  8
0
  6
HIDDEN
 62
   249
 10
256.315128
 20
190.005131
 30
0.0
 40
2.0
  1
6
  7
ROMANS
  0
TEXT
  8
0
  6
HIDDEN
 62
   249
 10
256.315128
 20
184.953437
 30
0.0
 40
2.0
  1
5
  7
ROMANS
  0
TEXT
  8
0
  6
HIDDEN
 62
   249
 10
256.315128
 20
179.890728
 30
0.0
 40
2.0
  1
4
  7
ROMANS
  0
TEXT
  8
0
  6
HIDDEN
 62
   249
 10
255.318963
 20
99.959045
 30
0.0
 40
2.0
  1
15
  7
ROMANS
  0
TEXT
  8
0
  6
HIDDEN
 62
   249
 10
255.318963
 20
94.852276
 30
0.0
 40
2.0
  1
14
  7
ROMANS
  0
TEXT
  8
0
  6
HIDDEN
 62
   249
 10
255.318963
 20
89.844643
 30
0.0
 40
2.0
  1
13
  7
ROMANS
  0
TEXT
  8
0
  6
HIDDEN
 62
   249
 10
255.318963
 20
79.825125
 30
0.0
 40
2.0
  1
18
  7
ROMANS
  0
TEXT
  8
0
  6
HIDDEN
 62
   249
 10
255.318963
 20
74.828507
 30
0.0
 40
2.0
  1
17
  7
ROMANS
  0
TEXT
  8
0
  6
HIDDEN
 62
   249
 10
255.318963
 20
69.820874
 30
0.0
 40
2.0
  1
16
  7
ROMANS
  0
TEXT
  8
0
  6
HIDDEN
 62
   249
 10
255.86752
 20
59.955568
 30
0.0
 40
2.0
  1
21
  7
ROMANS
  0
TEXT
  8
0
  6
HIDDEN
 62
   249
 10
255.86752
 20
54.793723
 30
0.0
 40
2.0
  1
20
  7
ROMANS
  0
TEXT
  8
0
  6
HIDDEN
 62
   249
 10
255.306773
 20
49.797105
 30
0.0
 40
2.0
  1
19
  7
ROMANS
  0
LINE
  8
0
  6
CONTINUOUS
 62
   249
 10
240.0
 20
125.0
 30
0.0
 11
241.0
 21
124.0
 31
0.0
  0
LINE
  8
0
  6
CONTINUOUS
 62
   249
 10
240.0
 20
150.0
 30
0.0
 11
241.0
 21
151.0
 31
0.0
  0
LINE
  8
0
  6
CONTINUOUS
 62
   249
 10
240.0
 20
150.0
 30
0.0
 11
240.0
 21
125.0
 31
0.0
  0
TEXT
  8
0
  6
CONTINUOUS
 62
   249
 10
51.636438
 20
141.7654
 30
0.0
 40
2.0
  1
SGR
 50
90.0
  7
ROMANS
  0
LINE
  8
0
  6
CONTINUOUS
 62
   249
 10
55.0
 20
145.0
 30
0.0
 11
55.0
 21
155.0
 31
0.0
  0
LINE
  8
0
  6
CONTINUOUS
 62
   249
 10
55.0
 20
140.0
 30
0.0
 11
53.285914
 21
145.086297
 31
0.0
  0
LINE
  8
0
  6
CONTINUOUS
 62
   249
 10
55.0
 20
135.0
 30
0.0
 11
55.0
 21
140.0
 31
0.0
  0
TEXT
  8
0
  6
CONTINUOUS
 62
   249
 10
60.367753
 20
131.464455
 30
0.0
 40
2.5
  1
1
 11
60.367753
 21
130.631122
 31
0.0
 73
     1
  0
LINE
  8
0
  6
CONTINUOUS
 62
   249
 10
55.933891
 20
134.124549
 30
0.0
 11
58.279656
 21
132.789195
 31
0.0
  0
LINE
  8
0
  6
CONTINUOUS
 62
   249
 10
55.925849
 20
130.799262
 30
0.0
 11
58.30931
 21
131.987454
 31
0.0
  0
LINE
  8
0
  6
CONTINUOUS
 62
   249
 10
58.279656
 20
132.789195
 30
0.0
 11
55.933891
 21
131.599276
 31
0.0
  0
LINE
  8
0
  6
CONTINUOUS
 62
   249
 10
60.0
 20
137.5
 30
0.0
 11
60.0
 21
140.0
 31
0.0
  0
LINE
  8
0
  6
CONTINUOUS
 62
   249
 10
60.0
 20
130.0
 30
0.0
 11
60.0
 21
125.0
 31
0.0
  0
LINE
  8
0
  6
CONTINUOUS
 62
   249
 10
65.0
 20
135.0
 30
0.0
 11
52.5
 21
135.0
 31
0.0
  0
LINE
  8
0
  6
CONTINUOUS
 62
   249
 10
65.0
 20
135.0
 30
0.0
 11
65.0
 21
130.0
 31
0.0
  0
LINE
  8
0
  6
CONTINUOUS
 62
   249
 10
57.5
 20
135.0
 30
0.0
 11
57.5
 21
181.168365
 31
0.0
  0
LINE
  8
0
  6
CONTINUOUS
 62
   249
 10
52.5
 20
130.0
 30
0.0
 11
65.0
 21
130.0
 31
0.0
  0
LINE
  8
0
  6
CONTINUOUS
 62
   249
 10
52.5
 20
135.0
 30
0.0
 11
52.5
 21
130.0
 31
0.0
  0
LINE
  8
0
  6
CONTINUOUS
 62
   249
 10
67.5
 20
135.0
 30
0.0
 11
75.0
 21
135.0
 31
0.0
  0
LINE
  8
0
  6
CONTINUOUS
 62
   249
 10
75.0
 20
135.0
 30
0.0
 11
75.0
 21
130.0
 31
0.0
  0
LINE
  8
0
  6
CONTINUOUS
 62
   249
 10
75.0
 20
130.0
 30
0.0
 11
67.5
 21
130.0
 31
0.0
  0
LINE
  8
0
  6
CONTINUOUS
 62
   249
 10
67.5
 20
130.0
 30
0.0
 11
67.5
 21
135.0
 31
0.0
  0
LINE
  8
0
  6
CONTINUOUS
 62
   249
 10
70.91616
 20
132.789195
 30
0.0
 11
68.570394
 21
131.599276
 31
0.0
  0
LINE
  8
0
  6
CONTINUOUS
 62
   249
 10
68.562352
 20
130.799262
 30
0.0
 11
70.945813
 21
131.987454
 31
0.0
  0
LINE
  8
0
  6
CONTINUOUS
 62
   249
 10
68.570394
 20
134.124549
 30
0.0
 11
70.91616
 21
132.789195
 31
0.0
  0
TEXT
  8
0
  6
CONTINUOUS
 62
   249
 10
73.004256
 20
131.464455
 30
0.0
 40
2.5
  1
1
 11
73.004256
 21
130.631122
 31
0.0
 73
     1
  0
TEXT
  8
0
  6
CONTINUOUS
 62
   249
 10
86.295492
 20
131.464455
 30
0.0
 40
2.5
  1
1
 11
86.295492
 21
130.631122
 31
0.0
 73
     1
  0
LINE
  8
0
  6
CONTINUOUS
 62
   249
 10
81.86163
 20
134.124549
 30
0.0
 11
84.207396
 21
132.789195
 31
0.0
  0
LINE
  8
0
  6
CONTINUOUS
 62
   249
 10
81.853589
 20
130.799262
 30
0.0
 11
84.237049
 21
131.987454
 31
0.0
  0
LINE
  8
0
  6
CONTINUOUS
 62
   249
 10
84.207396
 20
132.789195
 30
0.0
 11
81.86163
 21
131.599276
 31
0.0
  0
LINE
  8
0
  6
CONTINUOUS
 62
   249
 10
80.0
 20
130.0
 30
0.0
 11
80.0
 21
135.0
 31
0.0
  0
LINE
  8
0
  6
CONTINUOUS
 62
   249
 10
90.0
 20
130.0
 30
0.0
 11
80.0
 21
130.0
 31
0.0
  0
LINE
  8
0
  6
CONTINUOUS
 62
   249
 10
90.0
 20
135.0
 30
0.0
 11
90.0
 21
130.0
 31
0.0
  0
LINE
  8
0
  6
CONTINUOUS
 62
   249
 10
80.0
 20
135.0
 30
0.0
 11
90.0
 21
135.0
 31
0.0
  0
LINE
  8
0
  6
CONTINUOUS
 62
   249
 10
92.5
 20
135.0
 30
0.0
 11
105.0
 21
135.0
 31
0.0
  0
LINE
  8
0
  6
CONTINUOUS
 62
   249
 10
105.0
 20
135.0
 30
0.0
 11
105.0
 21
130.0
 31
0.0
  0
LINE
  8
0
  6
CONTINUOUS
 62
   249
 10
105.0
 20
130.0
 30
0.0
 11
92.5
 21
130.0
 31
0.0
  0
LINE
  8
0
  6
CONTINUOUS
 62
   249
 10
92.5
 20
130.0
 30
0.0
 11
92.5
 21
135.0
 31
0.0
  0
LINE
  8
0
  6
CONTINUOUS
 62
   249
 10
96.707396
 20
132.789195
 30
0.0
 11
94.36163
 21
131.599276
 31
0.0
  0
LINE
  8
0
  6
CONTINUOUS
 62
   249
 10
94.353589
 20
130.799262
 30
0.0
 11
96.737049
 21
131.987454
 31
0.0
  0
LINE
  8
0
  6
CONTINUOUS
 62
   249
 10
94.36163
 20
134.124549
 30
0.0
 11
96.707396
 21
132.789195
 31
0.0
  0
TEXT
  8
0
  6
CONTINUOUS
 62
   249
 10
98.795492
 20
131.464455
 30
0.0
 40
2.5
  1
1
 11
98.795492
 21
130.631122
 31
0.0
 73
     1
  0
TEXT
  8
0
  6
CONTINUOUS
 62
   249
 10
97.164066
 20
142.495896
 30
0.0
 40
2.0
  1
5
  7
ROMANS
  0
LINE
  8
0
  6
CONTINUOUS
 62
   249
 10
97.5
 20
145.0
 30
0.0
 11
97.5
 21
147.5
 31
0.0
  0
LINE
  8
0
  6
CONTINUOUS
 62
   249
 10
97.5
 20
140.0
 30
0.0
 11
95.785914
 21
145.086297
 31
0.0
  0
LINE
  8
0
  6
CONTINUOUS
 62
   249
 10
97.5
 20
135.0
 30
0.0
 11
97.5
 21
140.0
 31
0.0
  0
LINE
  8
0
  6
CONTINUOUS
 62
   249
 10
95.0
 20
135.0
 30
0.0
 11
95.0
 21
140.0
 31
0.0
  0
LINE
  8
0
  6
CONTINUOUS
 62
   249
 10
95.0
 20
140.0
 30
0.0
 11
93.285914
 21
145.086297
 31
0.0
  0
LINE
  8
0
  6
CONTINUOUS
 62
   249
 10
95.0
 20
145.0
 30
0.0
 11
95.0
 21
147.5
 31
0.0
  0
LINE
  8
0
  6
CONTINUOUS
 62
   249
 10
87.5
 20
135.0
 30
0.0
 11
87.5
 21
140.0
 31
0.0
  0
LINE
  8
0
  6
CONTINUOUS
 62
   249
 10
87.5
 20
140.0
 30
0.0
 11
85.785914
 21
145.086297
 31
0.0
  0
LINE
  8
0
  6
CONTINUOUS
 62
   249
 10
87.5
 20
145.0
 30
0.0
 11
87.5
 21
157.5
 31
0.0
  0
LINE
  8
0
  6
CONTINUOUS
 62
   249
 10
72.5
 20
145.0
 30
0.0
 11
72.5
 21
157.5
 31
0.0
  0
LINE
  8
0
  6
CONTINUOUS
 62
   249
 10
72.5
 20
140.0
 30
0.0
 11
70.785914
 21
145.086297
 31
0.0
  0
LINE
  8
0
  6
CONTINUOUS
 62
   249
 10
72.5
 20
135.0
 30
0.0
 11
72.5
 21
140.0
 31
0.0
  0
LINE
  8
0
  6
CONTINUOUS
 62
   249
 10
70.0
 20
135.0
 30
0.0
 11
70.0
 21
140.0
 31
0.0
  0
LINE
  8
0
  6
CONTINUOUS
 62
   249
 10
70.0
 20
140.0
 30
0.0
 11
68.285914
 21
145.086297
 31
0.0
  0
TEXT
  8
0
  6
CONTINUOUS
 62
   249
 10
54.411099
 20
142.5
 30
0.0
 40
2.0
  1
3
  7
ROMANS
  0
TEXT
  8
0
  6
CONTINUOUS
 62
   249
 10
69.292202
 20
142.5
 30
0.0
 40
2.0
  1
2
  7
ROMANS
  0
TEXT
  8
0
  6
CONTINUOUS
 62
   249
 10
72.061751
 20
142.5
 30
0.0
 40
2.0
  1
7
  7
ROMANS
  0
TEXT
  8
0
  6
CONTINUOUS
 62
   249
 10
87.11958
 20
142.5
 30
0.0
 40
2.0
  1
8
  7
ROMANS
  0
TEXT
  8
0
  6
CONTINUOUS
 62
   249
 10
94.15804
 20
142.5
 30
0.0
 40
2.0
  1
1
  7
ROMANS
  0
LINE
  8
0
  6
CONTINUOUS
 62
   249
 10
60.0
 20
135.0
 30
0.0
 11
60.0
 21
147.5
 31
0.0
  0
LINE
  8
0
  6
CONTINUOUS
 62
   249
 10
57.5
 20
120.0
 30
0.0
 11
40.0
 21
120.0
 31
0.0
  0
LINE
  8
0
  6
CONTINUOUS
 62
   249
 10
65.0
 20
120.0
 30
0.0
 11
65.0
 21
115.0
 31
0.0
  0
LINE
  8
0
  6
CONTINUOUS
 62
   249
 10
65.0
 20
115.0
 30
0.0
 11
40.0
 21
115.0
 31
0.0
  0
LINE
  8
0
  6
CONTINUOUS
 62
   249
 10
62.5
 20
120.0
 30
0.0
 11
65.0
 21
120.0
 31
0.0
  0
LINE
  8
0
  6
CONTINUOUS
 62
   249
 10
77.5
 20
110.0
 30
0.0
 11
77.5
 21
105.0
 31
0.0
  0
LINE
  8
0
  6
CONTINUOUS
 62
   249
 10
77.5
 20
105.0
 30
0.0
 11
40.0
 21
105.0
 31
0.0
  0
LINE
  8
0
  6
CONTINUOUS
 62
   249
 10
115.0
 20
80.0
 30
0.0
 11
115.0
 21
77.5
 31
0.0
  0
LINE
  8
0
  6
CONTINUOUS
 62
   249
 10
112.5
 20
72.5
 30
0.0
 11
112.5
 21
72.499975
 31
0.0
  0
LINE
  8
0
  6
CONTINUOUS
 62
   249
 10
117.5
 20
77.5
 30
0.0
 11
117.5
 21
72.5
 31
0.0
  0
LINE
  8
0
  6
CONTINUOUS
 62
   249
 10
117.5
 20
72.5
 30
0.0
 11
110.0
 21
72.5
 31
0.0
  0
LINE
  8
0
  6
CONTINUOUS
 62
   249
 10
110.0
 20
72.5
 30
0.0
 11
110.0
 21
77.5
 31
0.0
  0
LINE
  8
0
  6
CONTINUOUS
 62
   249
 10
110.0
 20
77.5
 30
0.0
 11
117.5
 21
77.5
 31
0.0
  0
LINE
  8
0
  6
CONTINUOUS
 62
   249
 10
120.0
 20
77.5
 30
0.0
 11
135.0
 21
77.5
 31
0.0
  0
LINE
  8
0
  6
CONTINUOUS
 62
   249
 10
135.0
 20
77.5
 30
0.0
 11
135.0
 21
72.5
 31
0.0
  0
LINE
  8
0
  6
CONTINUOUS
 62
   249
 10
135.0
 20
72.5
 30
0.0
 11
120.0
 21
72.5
 31
0.0
  0
LINE
  8
0
  6
CONTINUOUS
 62
   249
 10
120.0
 20
72.5
 30
0.0
 11
120.0
 21
77.5
 31
0.0
  0
LINE
  8
0
  6
CONTINUOUS
 62
   249
 10
126.829949
 20
75.289195
 30
0.0
 11
124.484184
 21
74.099276
 31
0.0
  0
LINE
  8
0
  6
CONTINUOUS
 62
   249
 10
124.476142
 20
73.299262
 30
0.0
 11
126.859603
 21
74.487454
 31
0.0
  0
LINE
  8
0
  6
CONTINUOUS
 62
   249
 10
124.484184
 20
76.624549
 30
0.0
 11
126.829949
 21
75.289195
 31
0.0
  0
TEXT
  8
0
  6
CONTINUOUS
 62
   249
 10
128.918046
 20
73.964455
 30
0.0
 40
2.5
  1
1
 11
128.918046
 21
73.131122
 31
0.0
 73
     1
  0
TEXT
  8
0
  6
CONTINUOUS
 62
   249
 10
145.651854
 20
73.964455
 30
0.0
 40
2.5
  1
1
 11
145.651854
 21
73.131122
 31
0.0
 73
     1
  0
LINE
  8
0
  6
CONTINUOUS
 62
   249
 10
141.217992
 20
76.624549
 30
0.0
 11
143.563758
 21
75.289195
 31
0.0
  0
LINE
  8
0
  6
CONTINUOUS
 62
   249
 10
141.20995
 20
73.299262
 30
0.0
 11
143.593411
 21
74.487454
 31
0.0
  0
LINE
  8
0
  6
CONTINUOUS
 62
   249
 10
143.563758
 20
75.289195
 30
0.0
 11
141.217992
 21
74.099276
 31
0.0
  0
LINE
  8
0
  6
CONTINUOUS
 62
   249
 10
137.5
 20
72.5
 30
0.0
 11
137.5
 21
77.5
 31
0.0
  0
LINE
  8
0
  6
CONTINUOUS
 62
   249
 10
150.0
 20
72.5
 30
0.0
 11
137.5
 21
72.5
 31
0.0
  0
LINE
  8
0
  6
CONTINUOUS
 62
   249
 10
150.0
 20
77.5
 30
0.0
 11
150.0
 21
72.5
 31
0.0
  0
LINE
  8
0
  6
CONTINUOUS
 62
   249
 10
137.5
 20
77.5
 30
0.0
 11
150.0
 21
77.5
 31
0.0
  0
LINE
  8
0
  6
CONTINUOUS
 62
   249
 10
145.0
 20
77.5
 30
0.0
 11
145.0
 21
80.0
 31
0.0
  0
LINE
  8
0
  6
CONTINUOUS
 62
   249
 10
152.5
 20
77.5
 30
0.0
 11
167.5
 21
77.5
 31
0.0
  0
LINE
  8
0
  6
CONTINUOUS
 62
   249
 10
167.5
 20
77.5
 30
0.0
 11
167.5
 21
72.5
 31
0.0
  0
LINE
  8
0
  6
CONTINUOUS
 62
   249
 10
167.5
 20
72.5
 30
0.0
 11
152.5
 21
72.5
 31
0.0
  0
LINE
  8
0
  6
CONTINUOUS
 62
   249
 10
152.5
 20
72.5
 30
0.0
 11
152.5
 21
77.5
 31
0.0
  0
LINE
  8
0
  6
CONTINUOUS
 62
   249
 10
159.329949
 20
75.289195
 30
0.0
 11
156.984184
 21
74.099276
 31
0.0
  0
LINE
  8
0
  6
CONTINUOUS
 62
   249
 10
156.976142
 20
73.299262
 30
0.0
 11
159.359603
 21
74.487454
 31
0.0
  0
LINE
  8
0
  6
CONTINUOUS
 62
   249
 10
156.984184
 20
76.624549
 30
0.0
 11
159.329949
 21
75.289195
 31
0.0
  0
TEXT
  8
0
  6
CONTINUOUS
 62
   249
 10
161.418046
 20
73.964455
 30
0.0
 40
2.5
  1
1
 11
161.418046
 21
73.131122
 31
0.0
 73
     1
  0
LINE
  8
0
  6
CONTINUOUS
 62
   249
 10
72.5
 20
122.5
 30
0.0
 11
72.5
 21
130.0
 31
0.0
  0
LINE
  8
0
  6
CONTINUOUS
 62
   249
 10
85.0
 20
122.5
 30
0.0
 11
85.0
 21
130.0
 31
0.0
  0
LINE
  8
0
  6
CONTINUOUS
 62
   249
 10
97.5
 20
122.5
 30
0.0
 11
97.5
 21
130.0
 31
0.0
  0
LINE
  8
0
  6
CONTINUOUS
 62
   249
 10
115.0
 20
72.5
 30
0.0
 11
115.0
 21
45.0
 31
0.0
  0
LINE
  8
0
  6
CONTINUOUS
 62
   249
 10
127.5
 20
72.5
 30
0.0
 11
127.5
 21
45.0
 31
0.0
  0
LINE
  8
0
  6
CONTINUOUS
 62
   249
 10
145.0
 20
72.5
 30
0.0
 11
145.0
 21
45.0
 31
0.0
  0
LINE
  8
0
  6
CONTINUOUS
 62
   249
 10
160.0
 20
72.5
 30
0.0
 11
160.0
 21
45.0
 31
0.0
  0
TEXT
  8
0
  6
CONTINUOUS
 62
   249
 10
113.25176
 20
73.955036
 30
0.0
 40
2.5
  1
&
  7
GREEKS
  0
LINE
  8
0
  6
CONTINUOUS
 62
   249
 10
112.5
 20
115.0
 30
0.0
 11
112.5
 21
78.914794
 31
0.0
  0
CIRCLE
  8
0
  6
CONTINUOUS
 62
   249
 10
112.499507
 20
78.207385
 30
0.0
 40
0.707409
  0
LINE
  8
0
  6
CONTINUOUS
 62
   249
 10
95.0
 20
147.5
 30
0.0
 11
95.0
 21
200.0
 31
0.0
  0
LINE
  8
0
  6
CONTINUOUS
 62
   249
 10
95.0
 20
200.0
 30
0.0
 11
180.0
 21
200.0
 31
0.0
  0
LINE
  8
0
  6
CONTINUOUS
 62
   249
 10
100.0
 20
135.0
 30
0.0
 11
100.0
 21
187.5
 31
0.0
  0
LINE
  8
0
  6
CONTINUOUS
 62
   249
 10
100.0
 20
187.5
 30
0.0
 11
180.0
 21
187.5
 31
0.0
  0
LINE
  8
0
  6
CONTINUOUS
 62
   249
 10
132.5
 20
175.0
 30
0.0
 11
180.0
 21
175.0
 31
0.0
  0
LINE
  8
0
  6
CONTINUOUS
 62
   249
 10
65.0
 20
205.0
 30
0.0
 11
170.0
 21
205.0
 31
0.0
  0
LINE
  8
0
  6
CONTINUOUS
 62
   249
 10
170.0
 20
205.0
 30
0.0
 11
170.0
 21
127.601504
 31
0.0
  0
LINE
  8
0
  6
CONTINUOUS
 62
   249
 10
167.5
 20
197.5
 30
0.0
 11
167.5
 21
143.000813
 31
0.0
  0
LINE
  8
0
  6
CONTINUOUS
 62
   249
 10
145.0
 20
147.5
 30
0.0
 11
145.0
 21
77.5
 31
0.0
  0
LINE
  8
0
  6
CONTINUOUS
 62
   249
 10
112.5
 20
115.0
 30
0.0
 11
112.5
 21
138.555194
 31
0.0
  0
LINE
  8
0
  6
CONTINUOUS
 62
   249
 10
55.0
 20
138.555194
 30
0.0
 11
112.5
 21
138.555194
 31
0.0
  0
LINE
  8
0
  6
CONTINUOUS
 62
   249
 10
40.0
 20
95.0
 30
0.0
 11
82.5
 21
95.0
 31
0.0
  0
LINE
  8
0
  6
CONTINUOUS
 62
   249
 10
82.5
 20
90.0
 30
0.0
 11
40.0
 21
90.0
 31
0.0
  0
LINE
  8
0
  6
CONTINUOUS
 62
   249
 10
82.5
 20
90.0
 30
0.0
 11
82.5
 21
92.5
 31
0.0
  0
LINE
  8
0
  6
CONTINUOUS
 62
   249
 10
87.5
 20
95.0
 30
0.0
 11
90.0
 21
95.0
 31
0.0
  0
LINE
  8
0
  6
CONTINUOUS
 62
   249
 10
87.5
 20
95.0
 30
0.0
 11
81.756076
 21
91.785297
 31
0.0
  0
LINE
  8
0
  6
CONTINUOUS
 62
   249
 10
100.0
 20
80.0
 30
0.0
 11
94.256076
 21
76.785297
 31
0.0
  0
LINE
  8
0
  6
CONTINUOUS
 62
   249
 10
100.0
 20
80.0
 30
0.0
 11
102.5
 21
80.0
 31
0.0
  0
LINE
  8
0
  6
CONTINUOUS
 62
   249
 10
95.0
 20
75.0
 30
0.0
 11
95.0
 21
77.5
 31
0.0
  0
LINE
  8
0
  6
CONTINUOUS
 62
   249
 10
95.0
 20
75.0
 30
0.0
 11
40.0
 21
75.0
 31
0.0
  0
LINE
  8
0
  6
CONTINUOUS
 62
   249
 10
40.0
 20
80.0
 30
0.0
 11
95.0
 21
80.0
 31
0.0
  0
LINE
  8
0
  6
CONTINUOUS
 62
   249
 10
40.0
 20
65.0
 30
0.0
 11
105.0
 21
65.0
 31
0.0
  0
LINE
  8
0
  6
CONTINUOUS
 62
   249
 10
105.0
 20
60.0
 30
0.0
 11
40.0
 21
60.0
 31
0.0
  0
LINE
  8
0
  6
CONTINUOUS
 62
   249
 10
105.0
 20
60.0
 30
0.0
 11
105.0
 21
62.5
 31
0.0
  0
LINE
  8
0
  6
CONTINUOUS
 62
   249
 10
110.0
 20
65.0
 30
0.0
 11
112.5
 21
65.0
 31
0.0
  0
LINE
  8
0
  6
CONTINUOUS
 62
   249
 10
110.0
 20
65.0
 30
0.0
 11
104.256076
 21
61.785297
 31
0.0
  0
LINE
  8
0
  6
CONTINUOUS
 62
   249
 10
90.0
 20
95.0
 30
0.0
 11
90.0
 21
85.0
 31
0.0
  0
LINE
  8
0
  6
CONTINUOUS
 62
   249
 10
90.0
 20
85.0
 30
0.0
 11
40.0
 21
85.0
 31
0.0
  0
LINE
  8
0
  6
CONTINUOUS
 62
   249
 10
102.5
 20
80.0
 30
0.0
 11
102.5
 21
70.0
 31
0.0
  0
LINE
  8
0
  6
CONTINUOUS
 62
   249
 10
102.5
 20
70.0
 30
0.0
 11
40.0
 21
70.0
 31
0.0
  0
LINE
  8
0
  6
CONTINUOUS
 62
   249
 10
112.5
 20
65.0
 30
0.0
 11
112.5
 21
55.0
 31
0.0
  0
LINE
  8
0
  6
CONTINUOUS
 62
   249
 10
112.5
 20
55.0
 30
0.0
 11
40.0
 21
55.0
 31
0.0
  0
LINE
  8
0
  6
CONTINUOUS
 62
   249
 10
180.0
 20
181.168365
 30
0.0
 11
57.5
 21
181.168365
 31
0.0
  0
LINE
  8
0
  6
CONTINUOUS
 62
   249
 10
180.0
 20
192.165835
 30
0.0
 11
68.75
 21
192.165835
 31
0.0
  0
LINE
  8
0
  6
CONTINUOUS
 62
   249
 10
160.0
 20
170.0
 30
0.0
 11
160.0
 21
77.5
 31
0.0
  0
LINE
  8
0
  6
CONTINUOUS
 62
   249
 10
165.0
 20
77.5
 30
0.0
 11
165.0
 21
107.5
 31
0.0
  0
LINE
  8
0
  6
CONTINUOUS
 62
   249
 10
162.5
 20
77.5
 30
0.0
 11
162.5
 21
145.0
 31
0.0
  0
LINE
  8
0
  6
CONTINUOUS
 62
   249
 10
85.0
 20
150.0
 30
0.0
 11
85.0
 21
135.0
 31
0.0
  0
LINE
  8
0
  6
CONTINUOUS
 62
   249
 10
157.5
 20
77.5
 30
0.0
 11
157.5
 21
158.031649
 31
0.0
  0
LINE
  8
0
  6
CONTINUOUS
 62
   249
 10
147.5
 20
77.5
 30
0.0
 11
147.5
 21
150.0
 31
0.0
  0
LINE
  8
0
  6
CONTINUOUS
 62
   249
 10
142.5
 20
77.5
 30
0.0
 11
142.5
 21
155.0
 31
0.0
  0
LINE
  8
0
  6
CONTINUOUS
 62
   249
 10
140.0
 20
77.5
 30
0.0
 11
140.0
 21
162.5
 31
0.0
  0
LINE
  8
0
  6
CONTINUOUS
 62
   249
 10
132.5
 20
77.5
 30
0.0
 11
132.5
 21
175.0
 31
0.0
  0
LINE
  8
0
  6
CONTINUOUS
 62
   249
 10
130.0
 20
77.5
 30
0.0
 11
130.0
 21
181.168365
 31
0.0
  0
LINE
  8
0
  6
CONTINUOUS
 62
   249
 10
127.5
 20
77.5
 30
0.0
 11
127.5
 21
187.5
 31
0.0
  0
LINE
  8
0
  6
CONTINUOUS
 62
   249
 10
125.0
 20
77.5
 30
0.0
 11
125.0
 21
192.165835
 31
0.0
  0
LINE
  8
0
  6
CONTINUOUS
 62
   249
 10
115.0
 20
77.5
 30
0.0
 11
115.0
 21
155.0
 31
0.0
  0
LINE
  8
0
  6
HIDDEN
 62
   249
 10
40.0
 20
212.5
 30
0.0
 11
45.0
 21
212.5
 31
0.0
  0
LINE
  8
0
  6
HIDDEN
 62
   249
 10
45.0
 20
212.5
 30
0.0
 11
45.0
 21
190.0
 31
0.0
  0
LINE
  8
0
  6
HIDDEN
 62
   249
 10
45.0
 20
190.0
 30
0.0
 11
40.0
 21
190.0
 31
0.0
  0
TEXT
  8
0
  6
HIDDEN
 62
   249
 10
40.879157
 20
209.246473
 30
0.0
 40
2.0
  1
X2
  7
ROMANS
  0
TEXT
  8
0
  6
HIDDEN
 62
   249
 10
40.762789
 20
204.833058
 30
0.0
 40
2.0
  1
12
  7
ROMANS
  0
TEXT
  8
0
  6
HIDDEN
 62
   249
 10
40.762789
 20
197.206445
 30
0.0
 40
2.0
  1
10
  7
ROMANS
  0
TEXT
  8
0
  6
HIDDEN
 62
   249
 10
40.762789
 20
192.066051
 30
0.0
 40
2.0
  1
11
  7
ROMANS
  0
LINE
  8
0
  6
HIDDEN
 62
   249
 10
40.0
 20
125.0
 30
0.0
 11
45.0
 21
125.0
 31
0.0
  0
LINE
  8
0
  6
HIDDEN
 62
   249
 10
45.0
 20
125.0
 30
0.0
 11
45.0
 21
100.711798
 31
0.0
  0
LINE
  8
0
  6
HIDDEN
 62
   249
 10
45.0
 20
100.711798
 30
0.0
 11
40.0
 21
100.711798
 31
0.0
  0
LINE
  8
0
  6
HIDDEN
 62
   249
 10
40.0
 20
50.0
 30
0.0
 11
45.0
 21
50.0
 31
0.0
  0
LINE
  8
0
  6
HIDDEN
 62
   249
 10
45.0
 20
50.0
 30
0.0
 11
45.0
 21
99.47351
 31
0.0
  0
LINE
  8
0
  6
HIDDEN
 62
   249
 10
45.0
 20
99.47351
 30
0.0
 11
40.0
 21
99.47351
 31
0.0
  0
TEXT
  8
0
  6
HIDDEN
 62
   249
 10
40.380937
 20
121.129257
 30
0.0
 40
2.0
  1
X1
  7
ROMANS
  0
TEXT
  8
0
  6
HIDDEN
 62
   249
 10
41.1717
 20
117.410394
 30
0.0
 40
2.0
  1
4
  7
ROMANS
  0
TEXT
  8
0
  6
HIDDEN
 62
   249
 10
41.1717
 20
112.402761
 30
0.0
 40
2.0
  1
3
  7
ROMANS
  0
TEXT
  8
0
  6
HIDDEN
 62
   249
 10
41.1717
 20
107.11975
 30
0.0
 40
2.0
  1
7
  7
ROMANS
  0
TEXT
  8
0
  6
HIDDEN
 62
   249
 10
41.1717
 20
102.310389
 30
0.0
 40
2.0
  1
6
  7
ROMANS
  0
TEXT
  8
0
  6
HIDDEN
 62
   249
 10
40.745853
 20
96.476621
 30
0.0
 40
2.0
  1
X2
  7
ROMANS
  0
TEXT
  8
0
  6
HIDDEN
 62
   249
 10
41.1717
 20
92.273092
 30
0.0
 40
2.0
  1
3
  7
ROMANS
  0
TEXT
  8
0
  6
HIDDEN
 62
   249
 10
41.1717
 20
87.342565
 30
0.0
 40
2.0
  1
1
  7
ROMANS
  0
TEXT
  8
0
  6
HIDDEN
 62
   249
 10
41.1717
 20
82.125644
 30
0.0
 40
2.0
  1
2
  7
ROMANS
  0
TEXT
  8
0
  6
HIDDEN
 62
   249
 10
41.1717
 20
77.195117
 30
0.0
 40
2.0
  1
6
  7
ROMANS
  0
TEXT
  8
0
  6
HIDDEN
 62
   249
 10
41.1717
 20
72.418802
 30
0.0
 40
2.0
  1
4
  7
ROMANS
  0
TEXT
  8
0
  6
HIDDEN
 62
   249
 10
41.1717
 20
67.190866
 30
0.0
 40
2.0
  1
5
  7
ROMANS
  0
TEXT
  8
0
  6
HIDDEN
 62
   249
 10
41.1717
 20
62.260338
 30
0.0
 40
2.0
  1
9
  7
ROMANS
  0
TEXT
  8
0
  6
HIDDEN
 62
   249
 10
41.1717
 20
57.186614
 30
0.0
 40
2.0
  1
7
  7
ROMANS
  0
TEXT
  8
0
  6
HIDDEN
 62
   249
 10
41.1717
 20
52.256087
 30
0.0
 40
2.0
  1
8
  7
ROMANS
  0
TEXT
  8
0
  6
HIDDEN
 62
   249
 10
17.455888
 20
218.739977
 30
0.0
 40
2.0
  1
2)
  7
ROMANS
  0
LINE
  8
0
  6
DASHED
 62
   249
 10
40.0
 20
120.0
 30
0.0
 11
27.5
 21
120.0
 31
0.0
  0
LINE
  8
0
  6
DASHED
 62
   249
 10
40.0
 20
115.0
 30
0.0
 11
27.5
 21
115.0
 31
0.0
  0
LINE
  8
0
  6
DASHED
 62
   249
 10
40.0
 20
105.0
 30
0.0
 11
27.5
 21
105.0
 31
0.0
  0
LINE
  8
0
  6
DASHED
 62
   249
 10
40.0
 20
110.0
 30
0.0
 11
27.5
 21
110.0
 31
0.0
  0
LINE
  8
0
  6
CONTINUOUS
 62
   249
 10
25.0
 20
110.0
 30
0.0
 11
26.0
 21
111.0
 31
0.0
  0
LINE
  8
0
  6
CONTINUOUS
 62
   249
 10
25.0
 20
104.999655
 30
0.0
 11
26.0
 21
103.999655
 31
0.0
  0
LINE
  8
0
  6
CONTINUOUS
 62
   249
 10
25.0
 20
110.0
 30
0.0
 11
25.0
 21
105.0
 31
0.0
  0
LINE
  8
0
  6
DASHED
 62
   249
 10
40.0
 20
55.0
 30
0.0
 11
27.5
 21
55.0
 31
0.0
  0
LINE
  8
0
  6
CONTINUOUS
 62
   249
 10
115.0
 20
37.5
 30
0.0
 11
227.500345
 21
37.5
 31
0.0
  0
LINE
  8
0
  6
CONTINUOUS
 62
   249
 10
227.500345
 20
37.5
 30
0.0
 11
228.500345
 21
38.5
 31
0.0
  0
LINE
  8
0
  6
CONTINUOUS
 62
   249
 10
115.0
 20
37.5
 30
0.0
 11
114.0
 21
38.5
 31
0.0
  0
TEXT
  8
0
  6
HIDDEN
 62
   249
 10
168.484926
 20
31.167815
 30
0.0
 40
2.0
  1
SHEET 2
  7
ROMANS
  0
LINE
  8
0
  6
CONTINUOUS
 62
   249
 10
355.727984
 20
155.0
 30
0.0
 11
375.727984
 21
155.0
 31
0.0
  0
LINE
  8
0
  6
CONTINUOUS
 62
   249
 10
372.519318
 20
158.102225
 30
0.0
 11
372.519318
 21
156.314094
 31
0.0
  0
LINE
  8
0
  6
CONTINUOUS
 62
   249
 10
369.565206
 20
159.45511
 30
0.0
 11
370.465883
 21
158.331361
 31
0.0
  0
LINE
  8
0
  6
CONTINUOUS
 62
   249
 10
367.119799
 20
156.089344
 30
0.0
 11
369.99591
 21
158.917903
 31
0.0
  0
LINE
  8
0
  6
CONTINUOUS
 62
   249
 10
364.735654
 20
157.256947
 30
0.0
 11
372.523859
 21
157.256947
 31
0.0
  0
LINE
  8
0
  6
CONTINUOUS
 62
   249
 10
364.704623
 20
158.102225
 30
0.0
 11
364.704623
 21
156.314094
 31
0.0
  0
TEXT
  8
0
  6
CONTINUOUS
 62
   249
 10
358.595465
 20
156.612471
 30
0.0
 40
2.5
  1
n
  7
GREEKS
  0
TEXT
  8
0
  6
CONTINUOUS
 62
   249
 10
361.987037
 20
156.59044
 30
0.0
 40
2.0
  1
x
  7
GREEKS
  0
TEXT
  8
0
  6
CONTINUOUS
 62
   249
 10
349.799383
 20
73.813619
 30
0.0
 40
2.0
  1
L2
  7
ROMANS
  0
TEXT
  8
0
  6
CONTINUOUS
 62
   249
 10
362.246136
 20
73.82464
 30
0.0
 40
2.0
  1
4-6
  7
ROMANS
  0
TEXT
  8
0
  6
CONTINUOUS
 62
   249
 10
377.340486
 20
73.82464
 30
0.0
 40
2.0
  1
4-5
  7
ROMANS
  0
LINE
  8
0
 62
   249
 10
388.50882
 20
93.671798
 30
0.0
 11
344.50882
 21
93.671798
 31
0.0
  0
TEXT
  8
0
  6
HIDDEN
 62
   249
 10
349.866951
 20
54.533631
 30
0.0
 40
2.0
  1
Uo
  7
ROMANS
  0
TEXT
  8
0
  6
HIDDEN
 62
   249
 10
349.836213
 20
50.444869
 30
0.0
 40
2.0
  1
U12
  7
ROMANS
  0
TEXT
  8
0
  6
HIDDEN
 62
   249
 10
349.836213
 20
46.372315
 30
0.0
 40
2.0
  1
U23
  7
ROMANS
  0
TEXT
  8
0
  6
HIDDEN
 62
   249
 10
349.836213
 20
42.462756
 30
0.0
 40
2.0
  1
U31
  7
ROMANS
  0
LINE
  8
0
  6
CONTINUOUS
 62
   249
 10
358.50882
 20
63.060985
 30
0.0
 11
388.493873
 21
63.060985
 31
0.0
  0
TEXT
  8
0
  6
CONTINUOUS
 62
   249
 10
360.815824
 20
50.44301
 30
0.0
 40
2.0
  1
13-14
  7
ROMANS
  0
TEXT
  8
0
  6
CONTINUOUS
 62
   249
 10
360.815824
 20
46.360291
 30
0.0
 40
2.0
  1
16-17
  7
ROMANS
  0
TEXT
  8
0
  6
CONTINUOUS
 62
   249
 10
360.815824
 20
42.48696
 30
0.0
 40
2.0
  1
19-20
  7
ROMANS
  0
TEXT
  8
0
  6
CONTINUOUS
 62
   249
 10
376.290577
 20
50.420969
 30
0.0
 40
2.0
  1
13-15
  7
ROMANS
  0
TEXT
  8
0
  6
CONTINUOUS
 62
   249
 10
376.290577
 20
46.349271
 30
0.0
 40
2.0
  1
16-18
  7
ROMANS
  0
TEXT
  8
0
  6
CONTINUOUS
 62
   249
 10
376.290577
 20
42.49798
 30
0.0
 40
2.0
  1
19-21
  7
ROMANS
  0
TEXT
  8
0
  6
CONTINUOUS
 62
   249
 10
339.380218
 20
92.284112
 30
0.0
 40
2.0
  1
1)
  7
ROMANS
  0
LINE
  8
0
 62
   249
 10
60.221556
 20
216.204212
 30
0.0
 11
52.798812
 21
216.204212
 31
0.0
  0
LINE
  8
0
  6
CONTINUOUS
 62
   249
 10
60.221556
 20
220.0
 30
0.0
 11
65.0
 21
220.0
 31
0.0
  0
LINE
  8
0
 62
   249
 10
60.221556
 20
216.204212
 30
0.0
 11
60.221556
 21
224.089925
 31
0.0
  0
LINE
  8
0
 62
   249
 10
60.221556
 20
224.089925
 30
0.0
 11
52.798812
 21
224.089925
 31
0.0
  0
LINE
  8
0
 62
   249
 10
58.496971
 20
224.067786
 30
0.0
 11
56.642636
 21
221.788964
 31
0.0
  0
LINE
  8
0
 62
   249
 10
57.004853
 20
224.067786
 30
0.0
 11
55.09105
 21
221.788964
 31
0.0
  0
LINE
  8
0
 62
   249
 10
52.798812
 20
224.089925
 30
0.0
 11
52.798812
 21
216.204212
 31
0.0
  0
LINE
  8
0
  6
CONTINUOUS
 62
   249
 10
52.798812
 20
217.5
 30
0.0
 11
40.0
 21
217.5
 31
0.0
  0
LINE
  8
0
  6
CONTINUOUS
 62
   249
 10
52.798812
 20
222.5
 30
0.0
 11
40.0
 21
222.5
 31
0.0
  0
LINE
  8
0
  6
HIDDEN
 62
   249
 10
40.0
 20
227.5
 30
0.0
 11
45.0
 21
227.5
 31
0.0
  0
LINE
  8
0
  6
HIDDEN
 62
   249
 10
40.0
 20
213.848482
 30
0.0
 11
45.0
 21
213.848482
 31
0.0
  0
LINE
  8
0
  6
HIDDEN
 62
   249
 10
45.0
 20
227.5
 30
0.0
 11
45.0
 21
213.848482
 31
0.0
  0
TEXT
  8
0
  6
CONTINUOUS
 62
   249
 10
41.09856
 20
224.098074
 30
0.0
 40
2.0
  1
X1
  7
ROMANS
  0
TEXT
  8
0
  6
CONTINUOUS
 62
   249
 10
40.729977
 20
219.752652
 30
0.0
 40
2.0
  1
12
  7
ROMANS
  0
TEXT
  8
0
  6
CONTINUOUS
 62
   249
 10
40.729977
 20
214.901185
 30
0.0
 40
2.0
  1
11
  7
ROMANS
  0
LINE
  8
0
  6
HIDDEN
 62
   249
 10
182.5
 20
177.5
 30
0.0
 11
200.0
 21
177.5
 31
0.0
  0
LINE
  8
0
  6
HIDDEN
 62
   249
 10
182.5
 20
172.5
 30
0.0
 11
200.0
 21
172.5
 31
0.0
  0
LINE
  8
0
  6
CONTINUOUS
 62
   249
 10
185.333062
 20
176.232238
 30
0.0
 11
187.678827
 21
174.896885
 31
0.0
  0
LINE
  8
0
  6
CONTINUOUS
 62
   249
 10
187.678827
 20
174.896885
 30
0.0
 11
185.333062
 21
173.706966
 31
0.0
  0
LINE
  8
0
  6
CONTINUOUS
 62
   249
 10
186.991677
 20
176.232238
 30
0.0
 11
189.337442
 21
174.896885
 31
0.0
  0
LINE
  8
0
  6
CONTINUOUS
 62
   249
 10
189.337442
 20
174.896885
 30
0.0
 11
186.991677
 21
173.706966
 31
0.0
  0
TEXT
  8
0
  6
CONTINUOUS
 62
   249
 10
183.770128
 20
173.694281
 30
0.0
 40
2.5
  1
I
 11
183.770128
 21
172.860948
 31
0.0
 73
     1
  0
LINE
  8
0
  6
CONTINUOUS
 62
   249
 10
190.844928
 20
174.896885
 30
0.0
 11
188.499162
 21
173.706966
 31
0.0
  0
LINE
  8
0
  6
CONTINUOUS
 62
   249
 10
188.499162
 20
176.232238
 30
0.0
 11
190.844928
 21
174.896885
 31
0.0
  0
LINE
  8
0
  6
CONTINUOUS
 62
   249
 10
188.403312
 20
169.757133
 30
0.0
 11
190.749078
 21
168.421779
 31
0.0
  0
LINE
  8
0
  6
CONTINUOUS
 62
   249
 10
190.749078
 20
168.421779
 30
0.0
 11
188.403312
 21
167.23186
 31
0.0
  0
TEXT
  8
0
  6
CONTINUOUS
 62
   249
 10
183.770128
 20
167.219176
 30
0.0
 40
2.5
  1
I
 11
183.770128
 21
166.385842
 31
0.0
 73
     1
  0
LINE
  8
0
  6
CONTINUOUS
 62
   249
 10
189.337442
 20
168.421779
 30
0.0
 11
186.991677
 21
167.23186
 31
0.0
  0
LINE
  8
0
  6
CONTINUOUS
 62
   249
 10
186.991677
 20
169.757133
 30
0.0
 11
189.337442
 21
168.421779
 31
0.0
  0
LINE
  8
0
  6
CONTINUOUS
 62
   249
 10
187.678827
 20
168.421779
 30
0.0
 11
185.333062
 21
167.23186
 31
0.0
  0
LINE
  8
0
  6
CONTINUOUS
 62
   249
 10
185.333062
 20
169.757133
 30
0.0
 11
187.678827
 21
168.421779
 31
0.0
  0
LINE
  8
0
  6
CONTINUOUS
 62
   249
 10
191.431134
 20
168.994658
 30
0.0
 11
191.431134
 21
167.206526
 31
0.0
  0
LINE
  8
0
  6
CONTINUOUS
 62
   249
 10
191.462165
 20
168.149379
 30
0.0
 11
199.25037
 21
168.149379
 31
0.0
  0
LINE
  8
0
  6
CONTINUOUS
 62
   249
 10
196.291717
 20
170.347542
 30
0.0
 11
197.192394
 21
169.223793
 31
0.0
  0
LINE
  8
0
  6
CONTINUOUS
 62
   249
 10
193.84631
 20
166.981776
 30
0.0
 11
196.72242
 21
169.810335
 31
0.0
  0
LINE
  8
0
  6
CONTINUOUS
 62
   249
 10
199.245829
 20
168.994658
 30
0.0
 11
199.245829
 21
167.206526
 31
0.0
  0
LINE
  8
0
  6
CONTINUOUS
 62
   249
 10
182.5
 20
202.5
 30
0.0
 11
182.5
 21
165.0
 31
0.0
  0
TEXT
  8
0
  6
CONTINUOUS
 62
   249
 10
181.991916
 20
165.787092
 30
0.0
 40
1.5
  1
PROGRAMMING: SEE SHEET 3
 50
90.0
  7
ROMANS
  0
TEXT
  8
0
  6
CONTINUOUS
 62
   249
 10
182.005063
 20
146.346592
 30
0.0
 40
2.5
  1
I
 11
182.005063
 21
145.513259
 31
0.0
 73
     1
  0
TEXT
  8
0
  6
CONTINUOUS
 62
   249
 10
182.005063
 20
150.765761
 30
0.0
 40
2.5
  1
I
 11
182.005063
 21
149.932428
 31
0.0
 73
     1
  0
LINE
  8
0
  6
CONTINUOUS
 62
   249
 10
189.287169
 20
151.762687
 30
0.0
 11
186.941403
 21
150.572768
 31
0.0
  0
LINE
  8
0
  6
CONTINUOUS
 62
   249
 10
186.941403
 20
153.098041
 30
0.0
 11
189.287169
 21
151.762687
 31
0.0
  0
TEXT
  8
0
  6
CONTINUOUS
 62
   249
 10
182.005063
 20
161.268175
 30
0.0
 40
2.5
  1
I
 11
182.005063
 21
160.434842
 31
0.0
 73
     1
  0
CIRCLE
  8
0
  6
CONTINUOUS
 62
   249
 10
179.012659
 20
140.021725
 30
0.0
 40
1.0
  0
LINE
  8
0
  6
CONTINUOUS
 62
   249
 10
178.01273
 20
140.019111
 30
0.0
 11
170.0
 21
140.019111
 31
0.0
  0
TEXT
  8
0
  6
CONTINUOUS
 62
   249
 10
182.005063
 20
135.733974
 30
0.0
 40
2.5
  1
I
 11
182.005063
 21
134.900641
 31
0.0
 73
     1
  0
LINE
  8
0
  6
CONTINUOUS
 62
   249
 10
190.831015
 20
136.613824
 30
0.0
 11
188.48525
 21
135.423905
 31
0.0
  0
LINE
  8
0
  6
CONTINUOUS
 62
   249
 10
188.48525
 20
137.949178
 30
0.0
 11
190.831015
 21
136.613824
 31
0.0
  0
LINE
  8
0
  6
CONTINUOUS
 62
   249
 10
189.316175
 20
136.613824
 30
0.0
 11
186.97041
 21
135.423905
 31
0.0
  0
LINE
  8
0
  6
CONTINUOUS
 62
   249
 10
186.97041
 20
137.949178
 30
0.0
 11
189.316175
 21
136.613824
 31
0.0
  0
LINE
  8
0
  6
CONTINUOUS
 62
   249
 10
199.245829
 20
101.494658
 30
0.0
 11
199.245829
 21
99.706526
 31
0.0
  0
LINE
  8
0
  6
CONTINUOUS
 62
   249
 10
193.84631
 20
99.481776
 30
0.0
 11
196.72242
 21
102.310335
 31
0.0
  0
LINE
  8
0
  6
CONTINUOUS
 62
   249
 10
196.291717
 20
102.847542
 30
0.0
 11
197.192394
 21
101.723793
 31
0.0
  0
LINE
  8
0
  6
CONTINUOUS
 62
   249
 10
191.462165
 20
100.649379
 30
0.0
 11
199.25037
 21
100.649379
 31
0.0
  0
LINE
  8
0
  6
CONTINUOUS
 62
   249
 10
191.431134
 20
101.494658
 30
0.0
 11
191.431134
 21
99.706526
 31
0.0
  0
LINE
  8
0
  6
CONTINUOUS
 62
   249
 10
185.333062
 20
102.257133
 30
0.0
 11
187.678827
 21
100.921779
 31
0.0
  0
LINE
  8
0
  6
CONTINUOUS
 62
   249
 10
187.678827
 20
100.921779
 30
0.0
 11
185.333062
 21
99.73186
 31
0.0
  0
LINE
  8
0
  6
CONTINUOUS
 62
   249
 10
186.83592
 20
102.257133
 30
0.0
 11
189.181686
 21
100.921779
 31
0.0
  0
LINE
  8
0
  6
CONTINUOUS
 62
   249
 10
189.181686
 20
100.921779
 30
0.0
 11
186.83592
 21
99.73186
 31
0.0
  0
TEXT
  8
0
  6
CONTINUOUS
 62
   249
 10
183.770128
 20
99.719176
 30
0.0
 40
2.5
  1
I
 11
183.770128
 21
98.885842
 31
0.0
 73
     1
  0
LINE
  8
0
  6
CONTINUOUS
 62
   249
 10
190.77304
 20
100.921779
 30
0.0
 11
188.427275
 21
99.73186
 31
0.0
  0
LINE
  8
0
  6
CONTINUOUS
 62
   249
 10
188.427275
 20
102.257133
 30
0.0
 11
190.77304
 21
100.921779
 31
0.0
  0
LINE
  8
0
  6
CONTINUOUS
 62
   249
 10
188.427275
 20
108.732238
 30
0.0
 11
190.77304
 21
107.396885
 31
0.0
  0
LINE
  8
0
  6
CONTINUOUS
 62
   249
 10
190.77304
 20
107.396885
 30
0.0
 11
188.427275
 21
106.206966
 31
0.0
  0
TEXT
  8
0
  6
CONTINUOUS
 62
   249
 10
183.770128
 20
106.194281
 30
0.0
 40
2.5
  1
I
 11
183.770128
 21
105.360948
 31
0.0
 73
     1
  0
LINE
  8
0
  6
CONTINUOUS
 62
   249
 10
189.181686
 20
107.396885
 30
0.0
 11
186.83592
 21
106.206966
 31
0.0
  0
LINE
  8
0
  6
CONTINUOUS
 62
   249
 10
186.83592
 20
108.732238
 30
0.0
 11
189.181686
 21
107.396885
 31
0.0
  0
LINE
  8
0
  6
CONTINUOUS
 62
   249
 10
187.678827
 20
107.396885
 30
0.0
 11
185.333062
 21
106.206966
 31
0.0
  0
LINE
  8
0
  6
CONTINUOUS
 62
   249
 10
185.333062
 20
108.732238
 30
0.0
 11
187.678827
 21
107.396885
 31
0.0
  0
TEXT
  8
0
  6
CONTINUOUS
 62
   249
 10
183.770128
 20
130.741357
 30
0.0
 40
2.5
  1
I
 11
183.770128
 21
129.908023
 31
0.0
 73
     1
  0
LINE
  8
0
  6
CONTINUOUS
 62
   249
 10
188.906117
 20
131.94396
 30
0.0
 11
186.560351
 21
130.754041
 31
0.0
  0
LINE
  8
0
  6
CONTINUOUS
 62
   249
 10
186.560351
 20
133.279314
 30
0.0
 11
188.906117
 21
131.94396
 31
0.0
  0
LINE
  8
0
  6
CONTINUOUS
 62
   249
 10
186.560351
 20
127.290394
 30
0.0
 11
188.906117
 21
125.955041
 31
0.0
  0
LINE
  8
0
  6
CONTINUOUS
 62
   249
 10
188.906117
 20
125.955041
 30
0.0
 11
186.560351
 21
124.765121
 31
0.0
  0
TEXT
  8
0
  6
CONTINUOUS
 62
   249
 10
183.770128
 20
124.752437
 30
0.0
 40
2.5
  1
I
 11
183.770128
 21
123.919104
 31
0.0
 73
     1
  0
TEXT
  8
0
  6
CONTINUOUS
 62
   249
 10
183.770128
 20
118.692977
 30
0.0
 40
2.5
  1
I
 11
183.770128
 21
117.859644
 31
0.0
 73
     1
  0
LINE
  8
0
  6
CONTINUOUS
 62
   249
 10
189.373386
 20
119.895581
 30
0.0
 11
187.027621
 21
118.705662
 31
0.0
  0
LINE
  8
0
  6
CONTINUOUS
 62
   249
 10
187.027621
 20
121.230934
 30
0.0
 11
189.373386
 21
119.895581
 31
0.0
  0
LINE
  8
0
  6
CONTINUOUS
 62
   249
 10
187.678827
 20
119.895581
 30
0.0
 11
185.333062
 21
118.705662
 31
0.0
  0
LINE
  8
0
  6
CONTINUOUS
 62
   249
 10
185.333062
 20
121.230934
 30
0.0
 11
187.678827
 21
119.895581
 31
0.0
  0
LINE
  8
0
  6
CONTINUOUS
 62
   249
 10
191.431134
 20
114.115882
 30
0.0
 11
191.431134
 21
112.32775
 31
0.0
  0
LINE
  8
0
  6
CONTINUOUS
 62
   249
 10
191.462165
 20
113.270603
 30
0.0
 11
199.25037
 21
113.270603
 31
0.0
  0
LINE
  8
0
  6
CONTINUOUS
 62
   249
 10
196.291717
 20
115.468766
 30
0.0
 11
197.192394
 21
114.345017
 31
0.0
  0
LINE
  8
0
  6
CONTINUOUS
 62
   249
 10
193.84631
 20
112.103
 30
0.0
 11
196.72242
 21
114.931559
 31
0.0
  0
LINE
  8
0
  6
CONTINUOUS
 62
   249
 10
199.245829
 20
114.115882
 30
0.0
 11
199.245829
 21
112.32775
 31
0.0
  0
LINE
  8
0
  6
CONTINUOUS
 62
   249
 10
185.333062
 20
114.878357
 30
0.0
 11
187.678827
 21
113.543003
 31
0.0
  0
LINE
  8
0
  6
CONTINUOUS
 62
   249
 10
187.678827
 20
113.543003
 30
0.0
 11
185.333062
 21
112.353084
 31
0.0
  0
LINE
  8
0
  6
CONTINUOUS
 62
   249
 10
187.027621
 20
114.878357
 30
0.0
 11
189.373386
 21
113.543003
 31
0.0
  0
LINE
  8
0
  6
CONTINUOUS
 62
   249
 10
189.373386
 20
113.543003
 30
0.0
 11
187.027621
 21
112.353084
 31
0.0
  0
TEXT
  8
0
  6
CONTINUOUS
 62
   249
 10
183.770128
 20
112.3404
 30
0.0
 40
2.5
  1
I
 11
183.770128
 21
111.507066
 31
0.0
 73
     1
  0
LINE
  8
0
  6
CONTINUOUS
 62
   249
 10
191.430679
 20
126.710612
 30
0.0
 11
191.430679
 21
124.922481
 31
0.0
  0
LINE
  8
0
  6
CONTINUOUS
 62
   249
 10
191.461711
 20
125.865333
 30
0.0
 11
199.249916
 21
125.865333
 31
0.0
  0
LINE
  8
0
  6
CONTINUOUS
 62
   249
 10
196.291263
 20
128.063496
 30
0.0
 11
197.19194
 21
126.939747
 31
0.0
  0
ARC
  8
0
  6
HIDDEN
 62
   249
 10
198.156579
 20
129.793878
 30
0.0
 40
4.998196
 50
206.402922
 51
282.21115
  0
LINE
  8
0
  6
CONTINUOUS
 62
   249
 10
193.845856
 20
124.697731
 30
0.0
 11
196.721966
 21
127.526289
 31
0.0
  0
LINE
  8
0
  6
CONTINUOUS
 62
   249
 10
199.245375
 20
126.710612
 30
0.0
 11
199.245375
 21
124.922481
 31
0.0
  0
LINE
  8
0
  6
CONTINUOUS
 62
   249
 10
182.5
 20
135.0
 30
0.0
 11
182.5
 21
97.5
 31
0.0
  0
LINE
  8
0
  6
HIDDEN
 62
   249
 10
182.5
 20
105.0
 30
0.0
 11
200.0
 21
105.0
 31
0.0
  0
LINE
  8
0
  6
HIDDEN
 62
   249
 10
182.5
 20
110.0
 30
0.0
 11
200.0
 21
110.0
 31
0.0
  0
LINE
  8
0
  6
HIDDEN
 62
   249
 10
182.5
 20
117.5
 30
0.0
 11
200.0
 21
117.5
 31
0.0
  0
LINE
  8
0
  6
HIDDEN
 62
   249
 10
182.5
 20
122.5
 30
0.0
 11
200.0
 21
122.5
 31
0.0
  0
LINE
  8
0
  6
HIDDEN
 62
   249
 10
182.5
 20
130.0
 30
0.0
 11
200.0
 21
130.0
 31
0.0
  0
LINE
  8
0
  6
CONTINUOUS
 62
   249
 10
180.0
 20
97.5
 30
0.0
 11
210.450615
 21
97.5
 31
0.0
  0
TEXT
  8
0
  6
CONTINUOUS
 62
   249
 10
181.990245
 20
98.288729
 30
0.0
 40
1.5
  1
PROGRAMMING: SEE SHEET 4
 50
90.0
  7
ROMANS
  0
TEXT
  8
0
  6
CONTINUOUS
 62
   249
 10
200.396803
 20
182.09134
 30
0.0
 40
2.0
  1
2
  7
GREEKS
  0
LINE
  8
0
  6
CONTINUOUS
 62
   249
 10
201.724689
 20
148.214764
 30
0.0
 11
209.268276
 21
148.214764
 31
0.0
  0
TEXT
  8
0
  6
CONTINUOUS
 62
   249
 10
204.296619
 20
150.776781
 30
0.0
 40
2.5
  1
I
 11
204.296619
 21
149.943448
 31
0.0
 73
     1
  0
TEXT
  8
0
  6
CONTINUOUS
 62
   249
 10
204.72661
 20
143.025469
 30
0.0
 40
1.5
  1
f
  7
GREEKC
  0
TEXT
  8
0
  6
CONTINUOUS
 62
   249
 10
200.471568
 20
142.510459
 30
0.0
 40
1.5
  1
SIN
  7
GREEKS
  0
TEXT
  8
0
  6
CONTINUOUS
 62
   249
 10
200.471568
 20
138.357643
 30
0.0
 40
1.5
  1
COS
  7
GREEKS
  0
TEXT
  8
0
  6
CONTINUOUS
 62
   249
 10
204.72661
 20
138.864059
 30
0.0
 40
1.5
  1
f
  7
GREEKC
  0
TEXT
  8
0
  6
HIDDEN
 62
   249
 10
207.367691
 20
138.362921
 30
0.0
 40
1.5
  1
EN
  0
TEXT
  8
0
  6
HIDDEN
 62
   249
 10
207.367691
 20
142.499914
 30
0.0
 40
1.5
  1
EN
  0
LINE
  8
0
  6
CONTINUOUS
 62
   249
 10
201.724689
 20
177.586908
 30
0.0
 11
209.268276
 21
177.586908
 31
0.0
  0
LINE
  8
0
  6
CONTINUOUS
 62
   249
 10
201.724689
 20
113.817126
 30
0.0
 11
209.268276
 21
113.817126
 31
0.0
  0
LINE
  8
0
  6
CONTINUOUS
 62
   249
 10
180.0
 20
127.601504
 30
0.0
 11
170.0
 21
127.601504
 31
0.0
  0
LINE
  8
0
  6
CONTINUOUS
 62
   249
 10
180.0
 20
195.0
 30
0.0
 11
170.0
 21
195.0
 31
0.0
  0
LINE
  8
0
  6
CONTINUOUS
 62
   249
 10
70.0
 20
145.0
 30
0.0
 11
70.0
 21
167.877204
 31
0.0
  0
LINE
  8
0
  6
CONTINUOUS
 62
   249
 10
180.0
 20
107.5
 30
0.0
 11
165.0
 21
107.5
 31
0.0
  0
LINE
  8
0
  6
CONTINUOUS
 62
   249
 10
55.0
 20
155.0
 30
0.0
 11
165.0
 21
155.0
 31
0.0
  0
LINE
  8
0
  6
CONTINUOUS
 62
   249
 10
165.0
 20
155.0
 30
0.0
 11
165.0
 21
151.398487
 31
0.0
  0
LINE
  8
0
  6
CONTINUOUS
 62
   249
 10
165.0
 20
151.398487
 30
0.0
 11
180.0
 21
151.398487
 31
0.0
  0
LINE
  8
0
  6
CONTINUOUS
 62
   249
 10
155.0
 20
178.176888
 30
0.0
 11
155.0
 21
77.5
 31
0.0
  0
LINE
  8
0
  6
CONTINUOUS
 62
   249
 10
62.5
 20
135.0
 30
0.0
 11
62.5
 21
150.0
 31
0.0
  0
LINE
  8
0
  6
CONTINUOUS
 62
   249
 10
62.5
 20
150.0
 30
0.0
 11
147.5
 21
150.0
 31
0.0
  0
LINE
  8
0
  6
CONTINUOUS
 62
   249
 10
60.0
 20
147.5
 30
0.0
 11
102.5
 21
147.5
 31
0.0
  0
LINE
  8
0
  6
CONTINUOUS
 62
   249
 10
47.5
 20
126.108096
 30
0.0
 11
47.5
 21
157.5
 31
0.0
  0
LINE
  8
0
  6
CONTINUOUS
 62
   249
 10
47.5
 20
157.5
 30
0.0
 11
87.5
 21
157.5
 31
0.0
  0
LINE
  8
0
  6
CONTINUOUS
 62
   249
 10
60.0
 20
126.108096
 30
0.0
 11
47.5
 21
126.108096
 31
0.0
  0
LINE
  8
0
  6
CONTINUOUS
 62
   249
 10
82.5
 20
135.0
 30
0.0
 11
82.5
 21
155.0
 31
0.0
  0
LINE
  8
0
  6
CONTINUOUS
 62
   249
 10
180.0
 20
113.998058
 30
0.0
 11
162.5
 21
113.998058
 31
0.0
  0
LINE
  8
0
  6
CONTINUOUS
 62
   249
 10
180.0
 20
120.0
 30
0.0
 11
157.5
 21
120.0
 31
0.0
  0
LINE
  8
0
  6
CONTINUOUS
 62
   249
 10
180.0
 20
123.887472
 30
0.0
 11
155.0
 21
123.887472
 31
0.0
  0
LINE
  8
0
  6
CONTINUOUS
 62
   249
 10
180.0
 20
132.5
 30
0.0
 11
160.0
 21
132.5
 31
0.0
  0
LINE
  8
0
  6
CONTINUOUS
 62
   249
 10
180.0
 20
136.168039
 30
0.0
 11
147.5
 21
136.168039
 31
0.0
  0
LINE
  8
0
  6
CONTINUOUS
 62
   249
 10
180.0
 20
147.5
 30
0.0
 11
145.0
 21
147.5
 31
0.0
  0
LINE
  8
0
  6
CONTINUOUS
 62
   249
 10
145.0
 20
147.5
 30
0.0
 11
145.0
 21
145.0
 31
0.0
  0
LINE
  8
0
  6
CONTINUOUS
 62
   249
 10
180.0
 20
162.5
 30
0.0
 11
107.5
 21
162.5
 31
0.0
  0
LINE
  8
0
  6
CONTINUOUS
 62
   249
 10
66.25
 20
167.877204
 30
0.0
 11
73.75
 21
167.877204
 31
0.0
  0
LINE
  8
0
  6
CONTINUOUS
 62
   249
 10
73.75
 20
167.877204
 30
0.0
 11
73.75
 21
172.877204
 31
0.0
  0
LINE
  8
0
  6
CONTINUOUS
 62
   249
 10
73.75
 20
172.877204
 30
0.0
 11
66.25
 21
172.877204
 31
0.0
  0
LINE
  8
0
  6
CONTINUOUS
 62
   249
 10
66.25
 20
172.877204
 30
0.0
 11
66.25
 21
167.877204
 31
0.0
  0
TEXT
  8
0
  6
CONTINUOUS
 62
   249
 10
71.745812
 20
169.432409
 30
0.0
 40
2.5
  1
1
 11
71.745812
 21
168.599076
 31
0.0
 73
     1
  0
LINE
  8
0
  6
CONTINUOUS
 62
   249
 10
67.31195
 20
172.092502
 30
0.0
 11
69.657716
 21
170.757149
 31
0.0
  0
LINE
  8
0
  6
CONTINUOUS
 62
   249
 10
67.303908
 20
168.767216
 30
0.0
 11
69.687369
 21
169.955408
 31
0.0
  0
LINE
  8
0
  6
CONTINUOUS
 62
   249
 10
69.657716
 20
170.757149
 30
0.0
 11
67.31195
 21
169.56723
 31
0.0
  0
LINE
  8
0
  6
CONTINUOUS
 62
   249
 10
97.5
 20
147.5
 30
0.0
 11
97.5
 21
170.0
 31
0.0
  0
LINE
  8
0
  6
CONTINUOUS
 62
   249
 10
102.5
 20
147.5
 30
0.0
 11
120.0
 21
147.5
 31
0.0
  0
LINE
  8
0
  6
CONTINUOUS
 62
   249
 10
120.0
 20
147.5
 30
0.0
 11
120.0
 21
145.0
 31
0.0
  0
LINE
  8
0
  6
CONTINUOUS
 62
   249
 10
120.0
 20
145.0
 30
0.0
 11
162.5
 21
145.0
 31
0.0
  0
LINE
  8
0
  6
CONTINUOUS
 62
   249
 10
122.5
 20
77.5
 30
0.0
 11
122.5
 21
200.0
 31
0.0
  0
LINE
  8
0
  6
CONTINUOUS
 62
   249
 10
100.0
 20
172.877204
 30
0.0
 11
100.0
 21
177.5
 31
0.0
  0
LINE
  8
0
  6
CONTINUOUS
 62
   249
 10
97.5
 20
170.0
 30
0.0
 11
160.0
 21
170.0
 31
0.0
  0
TEXT
  8
0
  6
CONTINUOUS
 62
   249
 10
174.842601
 20
200.521445
 30
0.0
 40
1.5
  1
SS1
  7
ROMANS
  0
TEXT
  8
0
  6
CONTINUOUS
 62
   249
 10
174.842601
 20
192.656162
 30
0.0
 40
1.5
  1
TS1
  7
ROMANS
  0
TEXT
  8
0
  6
CONTINUOUS
 62
   249
 10
174.842601
 20
188.129465
 30
0.0
 40
1.5
  1
SS2
  7
ROMANS
  0
TEXT
  8
0
  6
CONTINUOUS
 62
   249
 10
174.842601
 20
181.668574
 30
0.0
 40
1.5
  1
TS2
  7
ROMANS
  0
TEXT
  8
0
  6
CONTINUOUS
 62
   249
 10
174.842601
 20
175.510427
 30
0.0
 40
1.5
  1
SS3
  7
ROMANS
  0
TEXT
  8
0
  6
CONTINUOUS
 62
   249
 10
174.842601
 20
163.146044
 30
0.0
 40
1.5
  1
SS1
  7
ROMANS
  0
TEXT
  8
0
  6
CONTINUOUS
 62
   249
 10
174.842601
 20
152.068319
 30
0.0
 40
1.5
  1
TS1
  7
ROMANS
  0
TEXT
  8
0
  6
CONTINUOUS
 62
   249
 10
174.842601
 20
148.189156
 30
0.0
 40
1.5
  1
SS2
  7
ROMANS
  0
TEXT
  8
0
  6
CONTINUOUS
 62
   249
 10
174.842601
 20
136.934831
 30
0.0
 40
1.5
  1
TS2
  7
ROMANS
  0
TEXT
  8
0
  6
CONTINUOUS
 62
   249
 10
174.842601
 20
133.240677
 30
0.0
 40
1.5
  1
SS1
  7
ROMANS
  0
TEXT
  8
0
  6
CONTINUOUS
 62
   249
 10
174.842601
 20
124.55967
 30
0.0
 40
1.5
  1
TS1
  7
ROMANS
  0
TEXT
  8
0
  6
CONTINUOUS
 62
   249
 10
174.842601
 20
120.747783
 30
0.0
 40
1.5
  1
SS2
  7
ROMANS
  0
TEXT
  8
0
  6
CONTINUOUS
 62
   249
 10
174.842601
 20
114.69055
 30
0.0
 40
1.5
  1
TS2
  7
ROMANS
  0
TEXT
  8
0
  6
CONTINUOUS
 62
   249
 10
174.842601
 20
108.280117
 30
0.0
 40
1.5
  1
SS3
  7
ROMANS
  0
ARC
  8
0
 62
   249
 10
249.934151
 20
148.75
 30
0.0
 40
1.251733
 50
86.984476
 51
273.015524
  0
LINE
  8
0
 62
   249
 10
250.0
 20
147.5
 30
0.0
 11
252.5
 21
147.5
 31
0.0
  0
ARC
  8
0
 62
   249
 10
249.934151
 20
151.25
 30
0.0
 40
1.251733
 50
86.984476
 51
273.015524
  0
LINE
  8
0
 62
   249
 10
250.0
 20
150.0
 30
0.0
 11
252.5
 21
150.0
 31
0.0
  0
LINE
  8
0
 62
   249
 10
250.0
 20
152.5
 30
0.0
 11
252.5
 21
152.5
 31
0.0
  0
LINE
  8
0
 62
   249
 10
252.5
 20
147.5
 30
0.0
 11
255.0
 21
147.5
 31
0.0
  0
LINE
  8
0
 62
   249
 10
250.0
 20
147.5
 30
0.0
 11
252.5
 21
147.5
 31
0.0
  0
LINE
  8
0
 62
   249
 10
250.0
 20
145.0
 30
0.0
 11
252.5
 21
145.0
 31
0.0
  0
ARC
  8
0
 62
   249
 10
249.934151
 20
146.25
 30
0.0
 40
1.251733
 50
86.984476
 51
273.015524
  0
ARC
  8
0
 62
   249
 10
249.934151
 20
143.75
 30
0.0
 40
1.251733
 50
86.984476
 51
273.015524
  0
LINE
  8
0
 62
   249
 10
250.0
 20
142.5
 30
0.0
 11
252.5
 21
142.5
 31
0.0
  0
ARC
  8
0
 62
   249
 10
245.065849
 20
148.75
 30
0.0
 40
1.251733
 50
266.984476
 51
93.015524
  0
LINE
  8
0
 62
   249
 10
245.0
 20
150.0
 30
0.0
 11
243.480133
 21
150.0
 31
0.0
  0
LINE
  8
0
 62
   249
 10
245.0
 20
147.5
 30
0.0
 11
243.480133
 21
147.5
 31
0.0
  0
ARC
  8
0
 62
   249
 10
245.065849
 20
146.25
 30
0.0
 40
1.251733
 50
266.984476
 51
93.015524
  0
LINE
  8
0
 62
   249
 10
245.0
 20
145.0
 30
0.0
 11
243.480133
 21
145.0
 31
0.0
  0
LINE
  8
0
 62
   249
 10
252.5
 20
142.5
 30
0.0
 11
260.0
 21
142.5
 31
0.0
  0
LINE
  8
0
 62
   249
 10
252.5
 20
147.5
 30
0.0
 11
260.0
 21
147.5
 31
0.0
  0
LINE
  8
0
 62
   249
 10
252.5
 20
152.5
 30
0.0
 11
260.0
 21
152.5
 31
0.0
  0
TEXT
  8
0
  6
CONTINUOUS
 62
   249
 10
255.85973
 20
149.60337
 30
0.0
 40
2.0
  1
27
  7
ROMANS
  0
TEXT
  8
0
  6
CONTINUOUS
 62
   249
 10
255.85973
 20
144.705888
 30
0.0
 40
2.0
  1
26
  7
ROMANS
  0
TEXT
  8
0
  6
CONTINUOUS
 62
   249
 10
255.85973
 20
139.68724
 30
0.0
 40
2.0
  1
25
  7
ROMANS
  0
LINE
  8
0
  6
CONTINUOUS
 62
   249
 10
237.5
 20
210.0
 30
0.0
 11
238.5
 21
211.0
 31
0.0
  0
LINE
  8
0
  6
CONTINUOUS
 62
   249
 10
237.5
 20
185.0
 30
0.0
 11
238.5
 21
184.0
 31
0.0
  0
LINE
  8
0
  6
CONTINUOUS
 62
   249
 10
237.5
 20
210.0
 30
0.0
 11
237.5
 21
187.847904
 31
0.0
  0
LINE
  8
0
  6
CONTINUOUS
 62
   249
 10
235.0
 20
210.0
 30
0.0
 11
236.0
 21
211.0
 31
0.0
  0
LINE
  8
0
  6
CONTINUOUS
 62
   249
 10
235.0
 20
205.0
 30
0.0
 11
236.0
 21
204.0
 31
0.0
  0
LINE
  8
0
  6
CONTINUOUS
 62
   249
 10
235.0
 20
210.0
 30
0.0
 11
235.0
 21
205.0
 31
0.0
  0
LINE
  8
0
  6
CONTINUOUS
 62
   249
 10
237.5
 20
187.142936
 30
0.0
 11
237.5
 21
185.0
 31
0.0
  0
LINE
  8
0
  6
CONTINUOUS
 62
   249
 10
237.5
 20
197.5
 30
0.0
 11
230.0
 21
197.5
 31
0.0
  0
LINE
  8
0
  6
CONTINUOUS
 62
   249
 10
235.0
 20
170.0
 30
0.0
 11
235.0
 21
165.0
 31
0.0
  0
LINE
  8
0
  6
CONTINUOUS
 62
   249
 10
235.0
 20
165.0
 30
0.0
 11
236.0
 21
164.0
 31
0.0
  0
LINE
  8
0
  6
CONTINUOUS
 62
   249
 10
235.0
 20
170.0
 30
0.0
 11
236.0
 21
171.0
 31
0.0
  0
LINE
  8
0
  6
CONTINUOUS
 62
   249
 10
235.0
 20
207.5
 30
0.0
 11
227.5
 21
207.5
 31
0.0
  0
LINE
  8
0
  6
CONTINUOUS
 62
   249
 10
235.0
 20
167.5
 30
0.0
 11
217.5
 21
167.5
 31
0.0
  0
LINE
  8
0
  6
CONTINUOUS
 62
   249
 10
217.5
 20
167.5
 30
0.0
 11
217.5
 21
207.5
 31
0.0
  0
LINE
  8
0
  6
CONTINUOUS
 62
   249
 10
217.5
 20
207.5
 30
0.0
 11
227.5
 21
207.5
 31
0.0
  0
LINE
  8
0
  6
CONTINUOUS
 62
   249
 10
237.5
 20
100.0
 30
0.0
 11
238.5
 21
101.0
 31
0.0
  0
LINE
  8
0
  6
CONTINUOUS
 62
   249
 10
237.5
 20
75.0
 30
0.0
 11
238.5
 21
74.0
 31
0.0
  0
LINE
  8
0
  6
CONTINUOUS
 62
   249
 10
237.5
 20
100.0
 30
0.0
 11
237.5
 21
77.895739
 31
0.0
  0
LINE
  8
0
  6
CONTINUOUS
 62
   249
 10
235.0
 20
80.0
 30
0.0
 11
236.0
 21
81.0
 31
0.0
  0
LINE
  8
0
  6
CONTINUOUS
 62
   249
 10
235.0
 20
55.0
 30
0.0
 11
236.0
 21
54.0
 31
0.0
  0
LINE
  8
0
  6
CONTINUOUS
 62
   249
 10
235.0
 20
80.0
 30
0.0
 11
235.0
 21
77.884723
 31
0.0
  0
LINE
  8
0
  6
CONTINUOUS
 62
   249
 10
237.5
 20
77.179755
 30
0.0
 11
237.5
 21
75.0
 31
0.0
  0
LINE
  8
0
  6
CONTINUOUS
 62
   249
 10
235.0
 20
77.14671
 30
0.0
 11
235.0
 21
55.0
 31
0.0
  0
LINE
  8
0
  6
CONTINUOUS
 62
   249
 10
210.450615
 20
154.560179
 30
0.0
 11
217.5
 21
154.560179
 31
0.0
  0
LINE
  8
0
  6
CONTINUOUS
 62
   249
 10
217.5
 20
154.560179
 30
0.0
 11
217.5
 21
137.5
 31
0.0
  0
LINE
  8
0
  6
CONTINUOUS
 62
   249
 10
217.5
 20
137.5
 30
0.0
 11
232.5
 21
137.5
 31
0.0
  0
CIRCLE
  8
0
  6
CONTINUOUS
 62
   249
 10
211.450323
 20
143.483421
 30
0.0
 40
1.0
  0
LINE
  8
0
  6
CONTINUOUS
 62
   249
 10
65.0
 20
220.0
 30
0.0
 11
215.0
 21
220.0
 31
0.0
  0
LINE
  8
0
  6
CONTINUOUS
 62
   249
 10
215.0
 20
220.0
 30
0.0
 11
215.0
 21
139.043906
 31
0.0
  0
LINE
  8
0
  6
CONTINUOUS
 62
   249
 10
210.450615
 20
139.043906
 30
0.0
 11
215.0
 21
139.043906
 31
0.0
  0
LINE
  8
0
  6
CONTINUOUS
 62
   249
 10
212.450316
 20
143.479447
 30
0.0
 11
215.0
 21
143.479447
 31
0.0
  0
LINE
  8
0
  6
CONTINUOUS
 62
   249
 10
230.0
 20
197.5
 30
0.0
 11
220.0
 21
197.5
 31
0.0
  0
LINE
  8
0
  6
CONTINUOUS
 62
   249
 10
220.0
 20
197.5
 30
0.0
 11
220.0
 21
120.0
 31
0.0
  0
LINE
  8
0
  6
CONTINUOUS
 62
   249
 10
220.0
 20
120.0
 30
0.0
 11
210.450615
 21
120.0
 31
0.0
  0
LINE
  8
0
  6
CONTINUOUS
 62
   249
 10
210.450615
 20
180.0
 30
0.0
 11
222.5
 21
180.0
 31
0.0
  0
LINE
  8
0
  6
CONTINUOUS
 62
   249
 10
222.5
 20
180.0
 30
0.0
 11
222.5
 21
87.5
 31
0.0
  0
LINE
  8
0
  6
CONTINUOUS
 62
   249
 10
222.5
 20
87.5
 30
0.0
 11
237.5
 21
87.5
 31
0.0
  0
LINE
  8
0
  6
CONTINUOUS
 62
   249
 10
232.5
 20
187.5
 30
0.0
 11
225.0
 21
187.5
 31
0.0
  0
LINE
  8
0
  6
CONTINUOUS
 62
   249
 10
225.0
 20
187.5
 30
0.0
 11
225.0
 21
45.0
 31
0.0
  0
LINE
  8
0
  6
CONTINUOUS
 62
   249
 10
210.450615
 20
185.0
 30
0.0
 11
217.5
 21
185.0
 31
0.0
  0
LINE
  8
0
  6
CONTINUOUS
 62
   249
 10
210.450615
 20
115.0
 30
0.0
 11
220.0
 21
115.0
 31
0.0
  0
LINE
  8
0
  6
CONTINUOUS
 62
   249
 10
220.0
 20
115.0
 30
0.0
 11
220.0
 21
67.5
 31
0.0
  0
LINE
  8
0
  6
CONTINUOUS
 62
   249
 10
220.0
 20
67.5
 30
0.0
 11
235.0
 21
67.5
 31
0.0
  0
LINE
  8
0
  6
CONTINUOUS
 62
   249
 10
232.5
 20
77.5
 30
0.0
 11
227.5
 21
77.5
 31
0.0
  0
LINE
  8
0
  6
CONTINUOUS
 62
   249
 10
227.5
 20
77.5
 30
0.0
 11
227.5
 21
45.0
 31
0.0
  0
TEXT
  8
0
  6
CONTINUOUS
 62
   249
 10
65.0
 20
217.5
 30
0.0
 40
1.5
  1
BACTRL
  7
ROMANS
  0
TEXT
  8
0
  6
CONTINUOUS
 62
   249
 10
65.0
 20
202.5
 30
0.0
 40
1.5
  1
BS1
  7
ROMANS
  0
TEXT
  8
0
  6
CONTINUOUS
 62
   249
 10
65.0
 20
195.0
 30
0.0
 40
1.5
  1
BS2
  7
ROMANS
  0
LINE
  8
0
  6
DASHED
 62
   249
 10
40.0
 20
222.5
 30
0.0
 11
32.5
 21
222.5
 31
0.0
  0
LINE
  8
0
  6
DASHED
 62
   249
 10
40.0
 20
217.5
 30
0.0
 11
32.5
 21
217.5
 31
0.0
  0
LINE
  8
0
  6
CONTINUOUS
 62
   249
 10
22.5
 20
222.5
 30
0.0
 11
23.5
 21
223.5
 31
0.0
  0
LINE
  8
0
  6
CONTINUOUS
 62
   249
 10
22.5
 20
217.499655
 30
0.0
 11
23.5
 21
216.499655
 31
0.0
  0
LINE
  8
0
  6
CONTINUOUS
 62
   249
 10
22.5
 20
222.5
 30
0.0
 11
22.5
 21
217.5
 31
0.0
  0
TEXT
  8
0
  6
CONTINUOUS
 62
   249
 10
17.440672
 20
200.567384
 30
0.0
 40
2.0
  1
3)
  7
ROMANS
  0
TEXT
  8
0
  6
CONTINUOUS
 62
   249
 10
17.993014
 20
106.673819
 30
0.0
 40
2.0
  1
5a)
  7
ROMANS
  0
TEXT
  8
0
  6
CONTINUOUS
 62
   249
 10
17.993014
 20
89.091145
 30
0.0
 40
2.0
  1
5b)
  7
GREEKS
  0
TEXT
  8
0
  6
CONTINUOUS
 62
   249
 10
17.993014
 20
67.937871
 30
0.0
 40
2.0
  1
5c)
  7
ROMANS
  0
TEXT
  8
0
  6
CONTINUOUS
 62
   249
 10
349.687037
 20
65.047644
 30
0.0
 40
2.5
  1
I
 11
349.687037
 21
64.21431
 31
0.0
 73
     1
  0
LINE
  8
0
  6
CONTINUOUS
 62
   249
 10
361.221603
 20
250.474187
 30
0.0
 11
368.765189
 21
250.474187
 31
0.0
  0
TEXT
  8
0
  6
DASHED
 62
   249
 10
362.133208
 20
253.289445
 30
0.0
 40
2.0
  1
2
  7
GREEKS
  0
TEXT
  8
0
  6
DASHED
 62
   249
 10
364.383505
 20
253.276511
 30
0.0
 40
2.5
  1
I
  7
GREEKS
  0
TEXT
  8
0
  6
DASHED
 62
   249
 10
364.383505
 20
240.845531
 30
0.0
 40
2.5
  1
I
  7
GREEKS
  0
TEXT
  8
0
  6
DASHED
 62
   249
 10
362.133208
 20
240.858466
 30
0.0
 40
2.0
  1
2
  7
GREEKS
  0
LINE
  8
0
  6
CONTINUOUS
 62
   249
 10
361.221603
 20
238.337859
 30
0.0
 11
368.765189
 21
238.337859
 31
0.0
  0
TEXT
  8
0
  6
DASHED
 62
   249
 10
362.133208
 20
229.878826
 30
0.0
 40
2.0
  1
2
  7
GREEKS
  0
TEXT
  8
0
  6
DASHED
 62
   249
 10
364.383505
 20
229.865891
 30
0.0
 40
2.5
  1
I
  7
GREEKS
  0
LINE
  8
0
  6
CONTINUOUS
 62
   249
 10
369.166854
 20
231.029919
 30
0.0
 11
366.821088
 21
229.84
 31
0.0
  0
LINE
  8
0
  6
CONTINUOUS
 62
   249
 10
366.821088
 20
232.365273
 30
0.0
 11
369.166854
 21
231.029919
 31
0.0
  0
LINE
  8
0
  6
CONTINUOUS
 62
   249
 10
368.413614
 20
232.365273
 30
0.0
 11
370.75938
 21
231.029919
 31
0.0
  0
LINE
  8
0
  6
CONTINUOUS
 62
   249
 10
370.75938
 20
231.029919
 30
0.0
 11
368.413614
 21
229.84
 31
0.0
  0
LINE
  8
0
  6
CONTINUOUS
 62
   249
 10
372.316678
 20
231.029919
 30
0.0
 11
369.970913
 21
229.84
 31
0.0
  0
LINE
  8
0
  6
CONTINUOUS
 62
   249
 10
369.970913
 20
232.365273
 30
0.0
 11
372.316678
 21
231.029919
 31
0.0
  0
LINE
  8
0
  6
CONTINUOUS
 62
   249
 10
369.142955
 20
227.512174
 30
0.0
 11
369.142955
 21
225.724043
 31
0.0
  0
LINE
  8
0
  6
CONTINUOUS
 62
   249
 10
366.188843
 20
228.865059
 30
0.0
 11
367.08952
 21
227.74131
 31
0.0
  0
LINE
  8
0
  6
CONTINUOUS
 62
   249
 10
363.743436
 20
225.499293
 30
0.0
 11
366.619546
 21
228.327852
 31
0.0
  0
LINE
  8
0
  6
CONTINUOUS
 62
   249
 10
361.359291
 20
226.666896
 30
0.0
 11
369.147496
 21
226.666896
 31
0.0
  0
LINE
  8
0
  6
CONTINUOUS
 62
   249
 10
361.32826
 20
227.512174
 30
0.0
 11
361.32826
 21
225.724043
 31
0.0
  0
LINE
  8
0
  6
CONTINUOUS
 62
   249
 10
366.672272
 20
222.103633
 30
0.0
 11
369.018038
 21
220.76828
 31
0.0
  0
LINE
  8
0
  6
CONTINUOUS
 62
   249
 10
369.018038
 20
220.76828
 30
0.0
 11
366.672272
 21
219.578361
 31
0.0
  0
TEXT
  8
0
  6
CONTINUOUS
 62
   249
 10
362.148225
 20
219.88843
 30
0.0
 40
2.5
  1
I
 11
362.148225
 21
219.055097
 31
0.0
 73
     1
  0
LINE
  8
0
  6
CONTINUOUS
 62
   249
 10
361.32826
 20
217.241188
 30
0.0
 11
361.32826
 21
215.453057
 31
0.0
  0
LINE
  8
0
  6
CONTINUOUS
 62
   249
 10
361.359291
 20
216.39591
 30
0.0
 11
369.147496
 21
216.39591
 31
0.0
  0
LINE
  8
0
  6
CONTINUOUS
 62
   249
 10
363.743436
 20
215.228307
 30
0.0
 11
366.619546
 21
218.056866
 31
0.0
  0
LINE
  8
0
  6
CONTINUOUS
 62
   249
 10
366.188843
 20
218.594072
 30
0.0
 11
367.08952
 21
217.470323
 31
0.0
  0
LINE
  8
0
  6
CONTINUOUS
 62
   249
 10
369.142955
 20
217.241188
 30
0.0
 11
369.142955
 21
215.453057
 31
0.0
  0
LINE
  8
0
  6
CONTINUOUS
 62
   249
 10
361.221603
 20
212.594271
 30
0.0
 11
368.765189
 21
212.594271
 31
0.0
  0
TEXT
  8
0
  6
CONTINUOUS
 62
   249
 10
362.148225
 20
207.358267
 30
0.0
 40
2.5
  1
I
 11
362.148225
 21
206.524934
 31
0.0
 73
     1
  0
LINE
  8
0
  6
CONTINUOUS
 62
   249
 10
370.777902
 20
208.238117
 30
0.0
 11
368.432136
 21
207.048198
 31
0.0
  0
LINE
  8
0
  6
CONTINUOUS
 62
   249
 10
368.432136
 20
209.573471
 30
0.0
 11
370.777902
 21
208.238117
 31
0.0
  0
LINE
  8
0
  6
CONTINUOUS
 62
   249
 10
369.002822
 20
208.238117
 30
0.0
 11
366.657057
 21
207.048198
 31
0.0
  0
LINE
  8
0
  6
CONTINUOUS
 62
   249
 10
366.657057
 20
209.573471
 30
0.0
 11
369.002822
 21
208.238117
 31
0.0
  0
LINE
  8
0
  6
CONTINUOUS
 62
   249
 10
369.142955
 20
204.060824
 30
0.0
 11
369.142955
 21
202.272692
 31
0.0
  0
LINE
  8
0
  6
CONTINUOUS
 62
   249
 10
366.188843
 20
205.413708
 30
0.0
 11
367.08952
 21
204.289959
 31
0.0
  0
LINE
  8
0
  6
CONTINUOUS
 62
   249
 10
363.743436
 20
202.047943
 30
0.0
 11
366.619546
 21
204.876501
 31
0.0
  0
LINE
  8
0
  6
CONTINUOUS
 62
   249
 10
361.359291
 20
203.215545
 30
0.0
 11
369.147496
 21
203.215545
 31
0.0
  0
LINE
  8
0
  6
CONTINUOUS
 62
   249
 10
361.32826
 20
204.060824
 30
0.0
 11
361.32826
 21
202.272692
 31
0.0
  0
LINE
  8
0
  6
CONTINUOUS
 62
   249
 10
361.221603
 20
199.435947
 30
0.0
 11
368.765189
 21
199.435947
 31
0.0
  0
LINE
  8
0
  6
CONTINUOUS
 62
   249
 10
361.32826
 20
167.512174
 30
0.0
 11
361.32826
 21
165.724043
 31
0.0
  0
LINE
  8
0
  6
CONTINUOUS
 62
   249
 10
361.359291
 20
166.666896
 30
0.0
 11
369.147496
 21
166.666896
 31
0.0
  0
LINE
  8
0
  6
CONTINUOUS
 62
   249
 10
363.743436
 20
165.499293
 30
0.0
 11
366.619546
 21
168.327852
 31
0.0
  0
LINE
  8
0
  6
CONTINUOUS
 62
   249
 10
366.188843
 20
168.865059
 30
0.0
 11
367.08952
 21
167.74131
 31
0.0
  0
LINE
  8
0
  6
CONTINUOUS
 62
   249
 10
369.142955
 20
167.512174
 30
0.0
 11
369.142955
 21
165.724043
 31
0.0
  0
LINE
  8
0
  6
CONTINUOUS
 62
   249
 10
369.757861
 20
172.365273
 30
0.0
 11
372.103626
 21
171.029919
 31
0.0
  0
LINE
  8
0
  6
CONTINUOUS
 62
   249
 10
372.103626
 20
171.029919
 30
0.0
 11
369.757861
 21
169.84
 31
0.0
  0
LINE
  8
0
  6
CONTINUOUS
 62
   249
 10
370.698507
 20
171.029919
 30
0.0
 11
368.352742
 21
169.84
 31
0.0
  0
LINE
  8
0
  6
CONTINUOUS
 62
   249
 10
368.352742
 20
172.365273
 30
0.0
 11
370.698507
 21
171.029919
 31
0.0
  0
LINE
  8
0
  6
CONTINUOUS
 62
   249
 10
366.821088
 20
172.365273
 30
0.0
 11
369.166854
 21
171.029919
 31
0.0
  0
LINE
  8
0
  6
CONTINUOUS
 62
   249
 10
369.166854
 20
171.029919
 30
0.0
 11
366.821088
 21
169.84
 31
0.0
  0
TEXT
  8
0
  6
DASHED
 62
   249
 10
364.383505
 20
169.865891
 30
0.0
 40
2.5
  1
I
  7
GREEKS
  0
TEXT
  8
0
  6
DASHED
 62
   249
 10
362.133208
 20
169.878826
 30
0.0
 40
2.0
  1
2
  7
GREEKS
  0
LINE
  8
0
  6
CONTINUOUS
 62
   249
 10
361.221603
 20
178.337859
 30
0.0
 11
368.765189
 21
178.337859
 31
0.0
  0
TEXT
  8
0
  6
DASHED
 62
   249
 10
362.133208
 20
180.858466
 30
0.0
 40
2.0
  1
2
  7
GREEKS
  0
TEXT
  8
0
  6
DASHED
 62
   249
 10
364.383505
 20
180.845531
 30
0.0
 40
2.5
  1
I
  7
GREEKS
  0
TEXT
  8
0
  6
DASHED
 62
   249
 10
364.383505
 20
193.276511
 30
0.0
 40
2.5
  1
I
  7
GREEKS
  0
TEXT
  8
0
  6
DASHED
 62
   249
 10
362.133208
 20
193.289445
 30
0.0
 40
2.0
  1
2
  7
GREEKS
  0
LINE
  8
0
  6
CONTINUOUS
 62
   249
 10
361.221603
 20
190.474187
 30
0.0
 11
368.765189
 21
190.474187
 31
0.0
  0
LINE
  8
0
  6
CONTINUOUS
 62
   249
 10
366.578563
 20
195.816754
 30
0.0
 11
368.924329
 21
194.4814
 31
0.0
  0
LINE
  8
0
  6
CONTINUOUS
 62
   249
 10
368.924329
 20
194.4814
 30
0.0
 11
366.578563
 21
193.291481
 31
0.0
  0
LINE
  8
0
  6
CONTINUOUS
 62
   249
 10
361.32826
 20
187.706143
 30
0.0
 11
361.32826
 21
185.918012
 31
0.0
  0
LINE
  8
0
  6
CONTINUOUS
 62
   249
 10
361.359291
 20
186.860865
 30
0.0
 11
369.147496
 21
186.860865
 31
0.0
  0
LINE
  8
0
  6
CONTINUOUS
 62
   249
 10
366.188843
 20
189.059027
 30
0.0
 11
367.08952
 21
187.935278
 31
0.0
  0
ARC
  8
0
  6
HIDDEN
 62
   249
 10
368.054159
 20
190.789409
 30
0.0
 40
4.998196
 50
206.402922
 51
282.21115
  0
LINE
  8
0
  6
CONTINUOUS
 62
   249
 10
363.743436
 20
185.693262
 30
0.0
 11
366.619546
 21
188.521821
 31
0.0
  0
LINE
  8
0
  6
CONTINUOUS
 62
   249
 10
369.142955
 20
187.706143
 30
0.0
 11
369.142955
 21
185.918012
 31
0.0
  0
LINE
  8
0
  6
CONTINUOUS
 62
   249
 10
369.166854
 20
182.00956
 30
0.0
 11
366.821088
 21
180.819641
 31
0.0
  0
LINE
  8
0
  6
CONTINUOUS
 62
   249
 10
366.821088
 20
183.344914
 30
0.0
 11
369.166854
 21
182.00956
 31
0.0
  0
LINE
  8
0
  6
CONTINUOUS
 62
   249
 10
368.580972
 20
183.344914
 30
0.0
 11
370.926737
 21
182.00956
 31
0.0
  0
LINE
  8
0
  6
CONTINUOUS
 62
   249
 10
370.926737
 20
182.00956
 30
0.0
 11
368.580972
 21
180.819641
 31
0.0
  0
LINE
  8
0
  6
CONTINUOUS
 62
   249
 10
369.142955
 20
175.552173
 30
0.0
 11
369.142955
 21
173.764041
 31
0.0
  0
LINE
  8
0
  6
CONTINUOUS
 62
   249
 10
366.188843
 20
176.905057
 30
0.0
 11
367.08952
 21
175.781308
 31
0.0
  0
LINE
  8
0
  6
CONTINUOUS
 62
   249
 10
363.743436
 20
173.539291
 30
0.0
 11
366.619546
 21
176.36785
 31
0.0
  0
LINE
  8
0
  6
CONTINUOUS
 62
   249
 10
361.359291
 20
174.706894
 30
0.0
 11
369.147496
 21
174.706894
 31
0.0
  0
LINE
  8
0
  6
CONTINUOUS
 62
   249
 10
361.32826
 20
175.552173
 30
0.0
 11
361.32826
 21
173.764041
 31
0.0
  0
LINE
  8
0
  6
CONTINUOUS
 62
   249
 10
355.727984
 20
165.0
 30
0.0
 11
375.727984
 21
165.0
 31
0.0
  0
TEXT
  8
0
  6
DASHED
 62
   249
 10
351.620768
 20
148.465966
 30
0.0
 40
2.0
  1
FEEDER TERMINAL
  7
ROMANS
  0
TEXT
  8
0
  6
DASHED
 62
   249
 10
351.620768
 20
145.132633
 30
0.0
 40
2.0
  1
LEDNINGSTERMINAL
  7
ROMANS
  0
TEXT
  8
0
  6
DASHED
 62
   249
 10
360.070236
 20
65.460528
 30
0.0
 40
2.0
  1
25-27
  7
ROMANS
  0
TEXT
  8
0
  6
DASHED
 62
   249
 10
375.514557
 20
65.460528
 30
0.0
 40
2.0
  1
25-26
  7
ROMANS
  0
TEXT
  8
0
  6
CONTINUOUS
 62
   249
 10
52.713192
 20
26.887285
 30
0.0
 40
2.014518
  1
f
  7
GREEKC
  0
TEXT
  8
0
  6
DASHED
 62
   249
 10
19.98632
 20
36.221695
 30
0.0
 40
2.0
  1
2) OPERATING CHARACTERISTICS
  7
GREEKS
  0
TEXT
  8
0
  6
DASHED
 62
   249
 10
21.313679
 20
32.888361
 30
0.0
 40
2.0
  1
  SIN  OR COS  /
  7
GREEKS
  0
TEXT
  8
0
  6
DASHED
 62
   249
 10
21.313679
 20
29.555028
 30
0.0
 40
2.0
  1
  FUNKTIONSKARAKTERISTIKEN
  7
ROMANS
  0
TEXT
  8
0
  6
DASHED
 62
   249
 10
21.313679
 20
26.221695
 30
0.0
 40
2.0
  1
  SIN  ELLER COS
  7
ROMANS
  0
TEXT
  8
0
  6
CONTINUOUS
 62
   249
 10
30.676688
 20
26.887285
 30
0.0
 40
2.014518
  1
f
  7
GREEKC
  0
TEXT
  8
0
  6
CONTINUOUS
 62
   249
 10
30.676688
 20
33.574201
 30
0.0
 40
2.014518
  1
f
  7
GREEKC
  0
TEXT
  8
0
  6
CONTINUOUS
 62
   249
 10
46.675472
 20
33.574201
 30
0.0
 40
2.014518
  1
f
  7
GREEKC
  0
TEXT
  8
0
  6
DASHED
 62
   249
 10
19.996249
 20
21.479261
 30
0.0
 40
2.0
  1
3) BLOCKING INPUT /
  7
ROMANS
  0
TEXT
  8
0
  6
DASHED
 62
   249
 10
21.323608
 20
18.145927
 30
0.0
 40
2.0
  1
  BLOCKERING IN
  7
ROMANS
  0
TEXT
  8
0
  6
DASHED
 62
   249
 10
20.043235
 20
13.843157
 30
0.0
 40
2.0
  1
4) TRIP 1 /
  7
ROMANS
  0
TEXT
  8
0
  6
DASHED
 62
   249
 10
21.323608
 20
10.509824
 30
0.0
 40
2.0
  1
  UTLÖSNING 1
  7
ROMANS
  0
TEXT
  8
0
  6
DASHED
 62
   249
 10
87.5
 20
32.5
 30
0.0
 40
2.0
  1
5a) TRIP 2 OR ALARM OUTPUT /
  7
ROMANS
  0
TEXT
  8
0
  6
DASHED
 62
   249
 10
88.839015
 20
29.166667
 30
0.0
 40
2.0
  1
   UTLÖSNING 2 ELLER SIGNALUTGÅNG
  7
ROMANS
  0
TEXT
  8
0
  6
DASHED
 62
   249
 10
87.5
 20
23.333333
 30
0.0
 40
2.0
  1
5b) ALARM OUTPUT /
  7
ROMANS
  0
TEXT
  8
0
  6
DASHED
 62
   249
 10
88.839015
 20
20.0
 30
0.0
 40
2.0
  1
   SIGNALUTGÅNG
  7
ROMANS
  0
TEXT
  8
0
  6
DASHED
 62
   249
 10
87.5
 20
13.809142
 30
0.0
 40
2.0
  1
5c) START, BLOCKING ETC.
  7
ROMANS
  0
TEXT
  8
0
  6
DASHED
 62
   249
 10
88.839015
 20
10.475808
 30
0.0
 40
2.0
  1
   START, BLOCKERING MM.
  7
ROMANS
  0
LINE
  8
0
  6
CONTINUOUS
 62
   249
 10
115.0
 20
45.0
 30
0.0
 11
115.0
 21
40.0
 31
0.0
  0
LINE
  8
0
  6
CONTINUOUS
 62
   249
 10
127.5
 20
45.0
 30
0.0
 11
127.5
 21
40.0
 31
0.0
  0
LINE
  8
0
  6
CONTINUOUS
 62
   249
 10
145.0
 20
45.0
 30
0.0
 11
145.0
 21
40.0
 31
0.0
  0
LINE
  8
0
  6
CONTINUOUS
 62
   249
 10
160.0
 20
45.0
 30
0.0
 11
160.0
 21
40.0
 31
0.0
  0
LINE
  8
0
  6
CONTINUOUS
 62
   249
 10
225.0
 20
45.0
 30
0.0
 11
225.0
 21
40.0
 31
0.0
  0
LINE
  8
0
  6
CONTINUOUS
 62
   249
 10
227.5
 20
45.0
 30
0.0
 11
227.5
 21
40.0
 31
0.0
  0
LINE
  8
0
  6
CONTINUOUS
 62
   249
 10
265.0
 20
132.8468
 30
0.0
 11
265.0
 21
127.16187
 31
0.0
  0
LINE
  8
0
  6
CONTINUOUS
 62
   249
 10
265.0
 20
127.16187
 30
0.0
 11
264.0
 21
126.16187
 31
0.0
  0
LINE
  8
0
  6
CONTINUOUS
 62
   249
 10
265.0
 20
132.8468
 30
0.0
 11
264.0
 21
133.8468
 31
0.0
  0
LINE
  8
0
  6
CONTINUOUS
 62
   249
 10
265.0
 20
152.8468
 30
0.0
 11
264.0
 21
153.8468
 31
0.0
  0
LINE
  8
0
  6
CONTINUOUS
 62
   249
 10
265.0
 20
147.16187
 30
0.0
 11
264.0
 21
146.16187
 31
0.0
  0
LINE
  8
0
  6
CONTINUOUS
 62
   249
 10
265.0
 20
152.8468
 30
0.0
 11
265.0
 21
147.16187
 31
0.0
  0
LINE
  8
0
  6
CONTINUOUS
 62
   249
 10
265.0
 20
172.8468
 30
0.0
 11
265.0
 21
167.16187
 31
0.0
  0
LINE
  8
0
  6
CONTINUOUS
 62
   249
 10
265.0
 20
167.16187
 30
0.0
 11
264.0
 21
166.16187
 31
0.0
  0
LINE
  8
0
  6
CONTINUOUS
 62
   249
 10
265.0
 20
172.8468
 30
0.0
 11
264.0
 21
173.8468
 31
0.0
  0
LINE
  8
0
  6
CONTINUOUS
 62
   249
 10
265.0
 20
192.8468
 30
0.0
 11
264.0
 21
193.8468
 31
0.0
  0
LINE
  8
0
  6
CONTINUOUS
 62
   249
 10
265.0
 20
187.16187
 30
0.0
 11
264.0
 21
186.16187
 31
0.0
  0
LINE
  8
0
  6
CONTINUOUS
 62
   249
 10
265.0
 20
192.8468
 30
0.0
 11
265.0
 21
187.16187
 31
0.0
  0
LINE
  8
0
  6
CONTINUOUS
 62
   249
 10
265.0
 20
212.8468
 30
0.0
 11
265.0
 21
207.16187
 31
0.0
  0
LINE
  8
0
  6
CONTINUOUS
 62
   249
 10
265.0
 20
207.16187
 30
0.0
 11
264.0
 21
206.16187
 31
0.0
  0
LINE
  8
0
  6
CONTINUOUS
 62
   249
 10
265.0
 20
212.8468
 30
0.0
 11
264.0
 21
213.8468
 31
0.0
  0
LINE
  8
0
  6
DASHED
 62
   249
 10
295.0
 20
135.0
 30
0.0
 11
295.0
 21
125.0
 31
0.0
  0
LINE
  8
0
  6
DASHED
 62
   249
 10
317.5
 20
122.5
 30
0.0
 11
317.5
 21
212.5
 31
0.0
  0
LINE
  8
0
  6
DASHED
 62
   249
 10
325.0
 20
132.5
 30
0.0
 11
325.0
 21
200.0
 31
0.0
  0
LINE
  8
0
  6
DASHED
 62
   249
 10
265.0
 20
132.5
 30
0.0
 11
325.0
 21
132.5
 31
0.0
  0
LINE
  8
0
  6
CONTINUOUS
 62
   249
 10
322.5
 20
212.5
 30
0.0
 11
317.5
 21
220.0
 31
0.0
  0
LINE
  8
0
  6
CONTINUOUS
 62
   249
 10
325.0
 20
212.5
 30
0.0
 11
322.5
 21
212.5
 31
0.0
  0
LINE
  8
0
  6
CONTINUOUS
 62
   249
 10
316.506031
 20
217.598556
 30
0.0
 11
317.478167
 21
217.598556
 31
0.0
  0
LINE
  8
0
  6
CONTINUOUS
 62
   249
 10
316.496128
 20
219.999996
 30
0.0
 11
317.473936
 21
219.999996
 31
0.0
  0
LINE
  8
0
  6
CONTINUOUS
 62
   249
 10
316.500897
 20
215.18998
 30
0.0
 11
317.5
 21
215.18998
 31
0.0
  0
ARC
  8
0
  6
CONTINUOUS
 62
   249
 10
315.864862
 20
216.394238
 30
0.0
 40
1.204309
 50
90.0
 51
270.0
  0
LINE
  8
0
  6
CONTINUOUS
 62
   249
 10
315.859898
 20
215.189937
 30
0.0
 11
316.509496
 21
215.189937
 31
0.0
  0
LINE
  8
0
  6
CONTINUOUS
 62
   249
 10
315.858762
 20
219.999993
 30
0.0
 11
316.502261
 21
219.999993
 31
0.0
  0
LINE
  8
0
  6
CONTINUOUS
 62
   249
 10
315.858762
 20
217.598547
 30
0.0
 11
316.50836
 21
217.598547
 31
0.0
  0
ARC
  8
0
  6
CONTINUOUS
 62
   249
 10
315.864862
 20
218.796095
 30
0.0
 40
1.204309
 50
90.0
 51
265.706237
  0
LINE
  8
0
  6
CONTINUOUS
 62
   249
 10
324.006031
 20
217.598556
 30
0.0
 11
324.978167
 21
217.598556
 31
0.0
  0
LINE
  8
0
  6
CONTINUOUS
 62
   249
 10
323.996128
 20
219.999996
 30
0.0
 11
324.973936
 21
219.999996
 31
0.0
  0
LINE
  8
0
  6
CONTINUOUS
 62
   249
 10
324.000897
 20
215.18998
 30
0.0
 11
325.0
 21
215.18998
 31
0.0
  0
ARC
  8
0
  6
CONTINUOUS
 62
   249
 10
323.364862
 20
216.394238
 30
0.0
 40
1.204309
 50
90.0
 51
270.0
  0
LINE
  8
0
  6
CONTINUOUS
 62
   249
 10
323.359898
 20
215.189937
 30
0.0
 11
324.009496
 21
215.189937
 31
0.0
  0
LINE
  8
0
  6
CONTINUOUS
 62
   249
 10
323.358762
 20
219.999993
 30
0.0
 11
324.002261
 21
219.999993
 31
0.0
  0
LINE
  8
0
  6
CONTINUOUS
 62
   249
 10
323.358762
 20
217.598547
 30
0.0
 11
324.00836
 21
217.598547
 31
0.0
  0
ARC
  8
0
  6
CONTINUOUS
 62
   249
 10
323.364862
 20
218.796095
 30
0.0
 40
1.204309
 50
90.0
 51
265.706237
  0
LINE
  8
0
  6
CONTINUOUS
 62
   249
 10
325.0
 20
215.18998
 30
0.0
 11
325.0
 21
212.5
 31
0.0
  0
LINE
  8
0
  6
CONTINUOUS
 62
   249
 10
317.5
 20
215.18998
 30
0.0
 11
317.5
 21
212.5
 31
0.0
  0
LINE
  8
0
  6
DASHED
 62
   249
 10
325.0
 20
230.0
 30
0.0
 11
325.0
 21
247.5
 31
0.0
  0
LINE
  8
0
  6
DASHED
 62
   249
 10
317.5
 20
230.0
 30
0.0
 11
317.5
 21
252.5
 31
0.0
  0
LINE
  8
0
  6
DASHED
 62
   249
 10
300.0
 20
172.5
 30
0.0
 11
265.0
 21
172.5
 31
0.0
  0
LINE
  8
0
  6
DASHED
 62
   249
 10
295.0
 20
192.5
 30
0.0
 11
265.0
 21
192.5
 31
0.0
  0
LINE
  8
0
  6
DASHED
 62
   249
 10
290.0
 20
212.5
 30
0.0
 11
265.0
 21
212.5
 31
0.0
  0
LINE
  8
0
  6
DASHED
 62
   249
 10
292.5
 20
142.5
 30
0.0
 11
295.0
 21
142.5
 31
0.0
  0
LINE
  8
0
  6
DASHED
 62
   249
 10
295.0
 20
142.5
 30
0.0
 11
295.0
 21
142.5
 31
0.0
  0
LINE
  8
0
  6
DASHED
 62
   249
 10
282.5
 20
147.310016
 30
0.0
 11
295.0
 21
147.310016
 31
0.0
  0
LINE
  8
0
  6
CONTINUOUS
 62
   249
 10
292.5
 20
144.90144
 30
0.0
 11
295.0
 21
144.90144
 31
0.0
  0
LINE
  8
0
  6
DASHED
 62
   249
 10
282.5
 20
137.5
 30
0.0
 11
282.5
 21
142.5
 31
0.0
  0
LINE
  8
0
  6
DASHED
 62
   249
 10
292.5
 20
160.0
 30
0.0
 11
292.5
 21
137.5
 31
0.0
  0
LINE
  8
0
  6
CONTINUOUS
 62
   249
 10
295.0
 20
155.0
 30
0.0
 11
295.0
 21
135.0
 31
0.0
  0
LINE
  8
0
  6
CONTINUOUS
 62
   249
 10
295.0
 20
155.0
 30
0.0
 11
297.5
 21
160.0
 31
0.0
  0
LINE
  8
0
  6
CONTINUOUS
 62
   249
 10
292.5
 20
160.0
 30
0.0
 11
295.0
 21
155.0
 31
0.0
  0
LINE
  8
0
  6
CONTINUOUS
 62
   249
 10
290.0
 20
160.0
 30
0.0
 11
300.0
 21
160.0
 31
0.0
  0
LINE
  8
0
  6
DASHED
 62
   249
 10
285.0
 20
207.689992
 30
0.0
 11
285.0
 21
160.0
 31
0.0
  0
LINE
  8
0
  6
DASHED
 62
   249
 10
282.5
 20
152.5
 30
0.0
 11
282.5
 21
147.310016
 31
0.0
  0
LINE
  8
0
  6
DASHED
 62
   249
 10
265.0
 20
152.5
 30
0.0
 11
282.5
 21
152.5
 31
0.0
  0
LINE
  8
0
  6
DASHED
 62
   249
 10
270.0
 20
202.5
 30
0.0
 11
270.0
 21
162.5
 31
0.0
  0
LINE
  8
0
  6
DASHED
 62
   249
 10
300.006921
 20
167.689984
 30
0.0
 11
285.0
 21
167.689984
 31
0.0
  0
LINE
  8
0
  6
DASHED
 62
   249
 10
295.069797
 20
187.689984
 30
0.0
 11
285.0
 21
187.689984
 31
0.0
  0
LINE
  8
0
  6
DASHED
 62
   249
 10
290.0
 20
185.0
 30
0.0
 11
290.0
 21
160.0
 31
0.0
  0
LINE
  8
0
  6
DASHED
 62
   249
 10
295.0
 20
185.0
 30
0.0
 11
295.0
 21
160.0
 31
0.0
  0
LINE
  8
0
  6
DASHED
 62
   249
 10
300.0
 20
185.0
 30
0.0
 11
300.0
 21
160.0
 31
0.0
  0
LINE
  8
0
  6
DASHED
 62
   249
 10
290.0
 20
217.5
 30
0.0
 11
290.0
 21
185.0
 31
0.0
  0
LINE
  8
0
  6
DASHED
 62
   249
 10
290.0
 20
225.0
 30
0.0
 11
290.0
 21
237.5
 31
0.0
  0
LINE
  8
0
  6
DASHED
 62
   249
 10
295.0
 20
247.5
 30
0.0
 11
295.0
 21
225.0
 31
0.0
  0
LINE
  8
0
  6
DASHED
 62
   249
 10
295.0
 20
217.5
 30
0.0
 11
295.0
 21
185.0
 31
0.0
  0
LINE
  8
0
  6
DASHED
 62
   249
 10
300.0
 20
242.5
 30
0.0
 11
300.0
 21
225.0
 31
0.0
  0
LINE
  8
0
  6
DASHED
 62
   249
 10
300.0
 20
217.5
 30
0.0
 11
300.0
 21
185.0
 31
0.0
  0
LINE
  8
0
  6
DASHED
 62
   249
 10
295.0
 20
237.5
 30
0.0
 11
295.0
 21
245.0
 31
0.0
  0
LINE
  8
0
  6
DASHED
 62
   249
 10
290.0
 20
237.5
 30
0.0
 11
290.0
 21
252.5
 31
0.0
  0
LINE
  8
0
  6
CONTINUOUS
 62
   249
 10
290.0
 20
217.5
 30
0.0
 11
287.5
 21
225.0
 31
0.0
  0
LINE
  8
0
  6
CONTINUOUS
 62
   249
 10
295.0
 20
217.5
 30
0.0
 11
292.5
 21
225.0
 31
0.0
  0
LINE
  8
0
  6
CONTINUOUS
 62
   249
 10
300.0
 20
217.5
 30
0.0
 11
297.5
 21
225.0
 31
0.0
  0
LINE
  8
0
  6
CONTINUOUS
 62
   249
 10
290.0
 20
225.0
 30
0.0
 11
289.5
 21
225.5
 31
0.0
  0
LINE
  8
0
  6
CONTINUOUS
 62
   249
 10
290.0
 20
225.0
 30
0.0
 11
290.5
 21
224.5
 31
0.0
  0
LINE
  8
0
  6
CONTINUOUS
 62
   249
 10
290.0
 20
225.0
 30
0.0
 11
290.5
 21
225.5
 31
0.0
  0
LINE
  8
0
  6
CONTINUOUS
 62
   249
 10
290.0
 20
225.0
 30
0.0
 11
289.5
 21
224.5
 31
0.0
  0
LINE
  8
0
  6
CONTINUOUS
 62
   249
 10
295.0
 20
225.0
 30
0.0
 11
295.5
 21
225.5
 31
0.0
  0
LINE
  8
0
  6
CONTINUOUS
 62
   249
 10
295.0
 20
225.0
 30
0.0
 11
295.5
 21
224.5
 31
0.0
  0
LINE
  8
0
  6
CONTINUOUS
 62
   249
 10
295.0
 20
225.0
 30
0.0
 11
294.5
 21
224.5
 31
0.0
  0
LINE
  8
0
  6
CONTINUOUS
 62
   249
 10
295.0
 20
225.0
 30
0.0
 11
294.5
 21
225.5
 31
0.0
  0
LINE
  8
0
  6
CONTINUOUS
 62
   249
 10
300.0
 20
225.0
 30
0.0
 11
300.5
 21
224.5
 31
0.0
  0
LINE
  8
0
  6
CONTINUOUS
 62
   249
 10
300.0
 20
225.0
 30
0.0
 11
300.5
 21
225.5
 31
0.0
  0
LINE
  8
0
  6
CONTINUOUS
 62
   249
 10
300.0
 20
225.0
 30
0.0
 11
299.5
 21
225.5
 31
0.0
  0
LINE
  8
0
  6
CONTINUOUS
 62
   249
 10
300.0
 20
225.0
 30
0.0
 11
299.5
 21
224.5
 31
0.0
  0
LINE
  8
0
  6
DASHED
 62
   249
 10
290.0
 20
207.689992
 30
0.0
 11
285.0
 21
207.689992
 31
0.0
  0
LINE
  8
0
  6
DASHED
 62
   249
 10
260.0
 20
122.5
 30
0.0
 11
317.5
 21
122.5
 31
0.0
  0
LINE
  8
0
  6
CONTINUOUS
 62
   249
 10
260.0
 20
127.5
 30
0.0
 11
262.5
 21
127.5
 31
0.0
  0
LINE
  8
0
  6
CONTINUOUS
 62
   249
 10
260.0
 20
132.5
 30
0.0
 11
262.5
 21
132.5
 31
0.0
  0
LINE
  8
0
  6
DASHED
 62
   249
 10
260.0
 20
142.5
 30
0.0
 11
292.5
 21
142.5
 31
0.0
  0
LINE
  8
0
  6
CONTINUOUS
 62
   249
 10
260.0
 20
147.5
 30
0.0
 11
262.5
 21
147.5
 31
0.0
  0
LINE
  8
0
  6
CONTINUOUS
 62
   249
 10
260.0
 20
152.5
 30
0.0
 11
262.5
 21
152.5
 31
0.0
  0
LINE
  8
0
  6
DASHED
 62
   249
 10
260.0
 20
162.5
 30
0.0
 11
285.0
 21
162.5
 31
0.0
  0
LINE
  8
0
  6
CONTINUOUS
 62
   249
 10
260.0
 20
167.5
 30
0.0
 11
262.5
 21
167.5
 31
0.0
  0
LINE
  8
0
  6
CONTINUOUS
 62
   249
 10
260.0
 20
172.5
 30
0.0
 11
262.5
 21
172.5
 31
0.0
  0
LINE
  8
0
  6
DASHED
 62
   249
 10
260.0
 20
182.5
 30
0.0
 11
270.0
 21
182.5
 31
0.0
  0
LINE
  8
0
  6
CONTINUOUS
 62
   249
 10
260.0
 20
187.5
 30
0.0
 11
262.5
 21
187.5
 31
0.0
  0
LINE
  8
0
  6
CONTINUOUS
 62
   249
 10
260.0
 20
192.5
 30
0.0
 11
262.5
 21
192.5
 31
0.0
  0
LINE
  8
0
  6
DASHED
 62
   249
 10
260.0
 20
202.5
 30
0.0
 11
270.0
 21
202.5
 31
0.0
  0
LINE
  8
0
  6
CONTINUOUS
 62
   249
 10
260.0
 20
207.5
 30
0.0
 11
262.5
 21
207.5
 31
0.0
  0
LINE
  8
0
  6
CONTINUOUS
 62
   249
 10
260.0
 20
212.5
 30
0.0
 11
262.5
 21
212.5
 31
0.0
  0
LINE
  8
0
  6
DASHED
 62
   249
 10
342.5
 20
200.0
 30
0.0
 11
342.5
 21
220.0
 31
0.0
  0
LINE
  8
0
  6
DASHED
 62
   249
 10
325.0
 20
200.0
 30
0.0
 11
342.5
 21
200.0
 31
0.0
  0
LINE
  8
0
  6
DASHED
 62
   249
 10
337.5
 20
225.18998
 30
0.0
 11
346.663362
 21
225.18998
 31
0.0
  0
LINE
  8
0
  6
DASHED
 62
   249
 10
337.5
 20
220.0
 30
0.0
 11
346.84682
 21
220.0
 31
0.0
  0
LINE
  8
0
  6
CONTINUOUS
 62
   249
 10
332.5
 20
220.0
 30
0.0
 11
337.5
 21
220.0
 31
0.0
  0
LINE
  8
0
  6
CONTINUOUS
 62
   249
 10
330.0
 20
212.5
 30
0.0
 11
325.0
 21
220.0
 31
0.0
  0
LINE
  8
0
  6
CONTINUOUS
 62
   249
 10
332.5
 20
212.5
 30
0.0
 11
330.0
 21
212.5
 31
0.0
  0
LINE
  8
0
  6
CONTINUOUS
 62
   249
 10
331.506031
 20
217.598556
 30
0.0
 11
332.478167
 21
217.598556
 31
0.0
  0
LINE
  8
0
  6
CONTINUOUS
 62
   249
 10
331.496128
 20
219.999996
 30
0.0
 11
332.473936
 21
219.999996
 31
0.0
  0
LINE
  8
0
  6
CONTINUOUS
 62
   249
 10
331.500897
 20
215.18998
 30
0.0
 11
332.5
 21
215.18998
 31
0.0
  0
ARC
  8
0
  6
CONTINUOUS
 62
   249
 10
330.864862
 20
216.394238
 30
0.0
 40
1.204309
 50
90.0
 51
270.0
  0
LINE
  8
0
  6
CONTINUOUS
 62
   249
 10
330.859898
 20
215.189937
 30
0.0
 11
331.509496
 21
215.189937
 31
0.0
  0
LINE
  8
0
  6
CONTINUOUS
 62
   249
 10
330.858762
 20
219.999993
 30
0.0
 11
331.502261
 21
219.999993
 31
0.0
  0
LINE
  8
0
  6
CONTINUOUS
 62
   249
 10
330.858762
 20
217.598547
 30
0.0
 11
331.50836
 21
217.598547
 31
0.0
  0
ARC
  8
0
  6
CONTINUOUS
 62
   249
 10
330.864862
 20
218.796095
 30
0.0
 40
1.204309
 50
90.0
 51
265.706237
  0
LINE
  8
0
  6
CONTINUOUS
 62
   249
 10
332.5
 20
215.18998
 30
0.0
 11
332.5
 21
212.5
 31
0.0
  0
LINE
  8
0
  6
CONTINUOUS
 62
   249
 10
317.5
 20
225.18998
 30
0.0
 11
337.5
 21
225.18998
 31
0.0
  0
LINE
  8
0
  6
DASHED
 62
   249
 10
332.5
 20
230.0
 30
0.0
 11
332.5
 21
242.5
 31
0.0
  0
LINE
  8
0
  6
DASHED
 62
   249
 10
337.5
 20
242.5
 30
0.0
 11
282.5
 21
242.5
 31
0.0
  0
LINE
  8
0
  6
DASHED
 62
   249
 10
337.5
 20
247.5
 30
0.0
 11
282.5
 21
247.5
 31
0.0
  0
LINE
  8
0
  6
DASHED
 62
   249
 10
337.5
 20
252.5
 30
0.0
 11
282.5
 21
252.5
 31
0.0
  0
LINE
  8
0
  6
DASHED
 62
   249
 10
355.0
 20
125.0
 30
0.0
 11
355.0
 21
130.0
 31
0.0
  0
LINE
  8
0
  6
CONTINUOUS
 62
   249
 10
340.0
 20
120.18998
 30
0.0
 11
361.617732
 21
120.18998
 31
0.0
  0
LINE
  8
0
  6
CONTINUOUS
 62
   249
 10
355.0
 20
110.18998
 30
0.0
 11
355.0
 21
107.5
 31
0.0
  0
ARC
  8
0
  6
CONTINUOUS
 62
   249
 10
353.364862
 20
113.796095
 30
0.0
 40
1.204309
 50
90.0
 51
265.706237
  0
LINE
  8
0
  6
CONTINUOUS
 62
   249
 10
353.358762
 20
112.598547
 30
0.0
 11
354.00836
 21
112.598547
 31
0.0
  0
LINE
  8
0
  6
CONTINUOUS
 62
   249
 10
353.358762
 20
114.999993
 30
0.0
 11
354.002261
 21
114.999993
 31
0.0
  0
LINE
  8
0
  6
CONTINUOUS
 62
   249
 10
353.359898
 20
110.189937
 30
0.0
 11
354.009496
 21
110.189937
 31
0.0
  0
ARC
  8
0
  6
CONTINUOUS
 62
   249
 10
353.364862
 20
111.394238
 30
0.0
 40
1.204309
 50
90.0
 51
270.0
  0
LINE
  8
0
  6
CONTINUOUS
 62
   249
 10
354.000897
 20
110.18998
 30
0.0
 11
355.0
 21
110.18998
 31
0.0
  0
LINE
  8
0
  6
CONTINUOUS
 62
   249
 10
353.996128
 20
114.999996
 30
0.0
 11
354.973936
 21
114.999996
 31
0.0
  0
LINE
  8
0
  6
CONTINUOUS
 62
   249
 10
354.006031
 20
112.598556
 30
0.0
 11
354.978167
 21
112.598556
 31
0.0
  0
LINE
  8
0
  6
CONTINUOUS
 62
   249
 10
355.0
 20
115.0
 30
0.0
 11
361.617732
 21
115.0
 31
0.0
  0
LINE
  8
0
  6
DASHED
 62
   249
 10
340.0
 20
125.0
 30
0.0
 11
340.0
 21
140.0
 31
0.0
  0
LINE
  8
0
  6
DASHED
 62
   249
 10
347.5
 20
125.0
 30
0.0
 11
347.5
 21
135.0
 31
0.0
  0
LINE
  8
0
  6
CONTINUOUS
 62
   249
 10
340.0
 20
110.18998
 30
0.0
 11
340.0
 21
107.5
 31
0.0
  0
LINE
  8
0
  6
CONTINUOUS
 62
   249
 10
347.5
 20
110.18998
 30
0.0
 11
347.5
 21
107.5
 31
0.0
  0
ARC
  8
0
  6
CONTINUOUS
 62
   249
 10
345.864862
 20
113.796095
 30
0.0
 40
1.204309
 50
90.0
 51
265.706237
  0
LINE
  8
0
  6
CONTINUOUS
 62
   249
 10
345.858762
 20
112.598547
 30
0.0
 11
346.50836
 21
112.598547
 31
0.0
  0
LINE
  8
0
  6
CONTINUOUS
 62
   249
 10
345.858762
 20
114.999993
 30
0.0
 11
346.502261
 21
114.999993
 31
0.0
  0
LINE
  8
0
  6
CONTINUOUS
 62
   249
 10
345.859898
 20
110.189937
 30
0.0
 11
346.509496
 21
110.189937
 31
0.0
  0
ARC
  8
0
  6
CONTINUOUS
 62
   249
 10
345.864862
 20
111.394238
 30
0.0
 40
1.204309
 50
90.0
 51
270.0
  0
LINE
  8
0
  6
CONTINUOUS
 62
   249
 10
346.500897
 20
110.18998
 30
0.0
 11
347.5
 21
110.18998
 31
0.0
  0
LINE
  8
0
  6
CONTINUOUS
 62
   249
 10
346.496128
 20
114.999996
 30
0.0
 11
347.473936
 21
114.999996
 31
0.0
  0
LINE
  8
0
  6
CONTINUOUS
 62
   249
 10
346.506031
 20
112.598556
 30
0.0
 11
347.478167
 21
112.598556
 31
0.0
  0
ARC
  8
0
  6
CONTINUOUS
 62
   249
 10
338.364862
 20
113.796095
 30
0.0
 40
1.204309
 50
90.0
 51
265.706237
  0
LINE
  8
0
  6
CONTINUOUS
 62
   249
 10
338.358762
 20
112.598547
 30
0.0
 11
339.00836
 21
112.598547
 31
0.0
  0
LINE
  8
0
  6
CONTINUOUS
 62
   249
 10
338.358762
 20
114.999993
 30
0.0
 11
339.002261
 21
114.999993
 31
0.0
  0
LINE
  8
0
  6
CONTINUOUS
 62
   249
 10
338.359898
 20
110.189937
 30
0.0
 11
339.009496
 21
110.189937
 31
0.0
  0
ARC
  8
0
  6
CONTINUOUS
 62
   249
 10
338.364862
 20
111.394238
 30
0.0
 40
1.204309
 50
90.0
 51
270.0
  0
LINE
  8
0
  6
CONTINUOUS
 62
   249
 10
339.000897
 20
110.18998
 30
0.0
 11
340.0
 21
110.18998
 31
0.0
  0
LINE
  8
0
  6
CONTINUOUS
 62
   249
 10
338.996128
 20
114.999996
 30
0.0
 11
355.0
 21
114.999996
 31
0.0
  0
LINE
  8
0
  6
CONTINUOUS
 62
   249
 10
339.006031
 20
112.598556
 30
0.0
 11
339.978167
 21
112.598556
 31
0.0
  0
LINE
  8
0
  6
DASHED
 62
   249
 10
337.5
 20
130.0
 30
0.0
 11
370.0
 21
130.0
 31
0.0
  0
LINE
  8
0
  6
DASHED
 62
   249
 10
337.5
 20
135.0
 30
0.0
 11
370.0
 21
135.0
 31
0.0
  0
LINE
  8
0
  6
DASHED
 62
   249
 10
337.5
 20
140.0
 30
0.0
 11
370.0
 21
140.0
 31
0.0
  0
TEXT
  8
0
  6
DASHED
 62
   249
 10
372.5
 20
138.975105
 30
0.0
 40
2.0
  1
L1 (R)
  7
ROMANS
  0
TEXT
  8
0
  6
DASHED
 62
   249
 10
372.5
 20
133.922594
 30
0.0
 40
2.0
  1
L2 (S)
  7
ROMANS
  0
TEXT
  8
0
  6
DASHED
 62
   249
 10
372.5
 20
128.980287
 30
0.0
 40
2.0
  1
L3 (T)
  7
ROMANS
  0
TEXT
  8
0
  6
DASHED
 62
   249
 10
277.5
 20
251.486126
 30
0.0
 40
2.0
  1
L1
  7
ROMANS
  0
TEXT
  8
0
  6
DASHED
 62
   249
 10
277.5
 20
246.543818
 30
0.0
 40
2.0
  1
L2
  7
ROMANS
  0
TEXT
  8
0
  6
DASHED
 62
   249
 10
277.5
 20
241.491307
 30
0.0
 40
2.0
  1
L3
  7
ROMANS
  0
LINE
  8
0
  6
CONTINUOUS
 62
   249
 10
265.0
 20
97.16187
 30
0.0
 11
264.0
 21
96.16187
 31
0.0
  0
LINE
  8
0
  6
CONTINUOUS
 62
   249
 10
265.0
 20
102.8468
 30
0.0
 11
265.0
 21
97.16187
 31
0.0
  0
LINE
  8
0
  6
CONTINUOUS
 62
   249
 10
265.0
 20
102.8468
 30
0.0
 11
264.0
 21
103.8468
 31
0.0
  0
LINE
  8
0
  6
CONTINUOUS
 62
   249
 10
260.0
 20
102.5
 30
0.0
 11
262.5
 21
102.5
 31
0.0
  0
LINE
  8
0
  6
CONTINUOUS
 62
   249
 10
260.0
 20
97.5
 30
0.0
 11
262.5
 21
97.5
 31
0.0
  0
LINE
  8
0
  6
CONTINUOUS
 62
   249
 10
260.0
 20
77.5
 30
0.0
 11
262.5
 21
77.5
 31
0.0
  0
LINE
  8
0
  6
CONTINUOUS
 62
   249
 10
260.0
 20
82.5
 30
0.0
 11
262.5
 21
82.5
 31
0.0
  0
LINE
  8
0
  6
CONTINUOUS
 62
   249
 10
265.0
 20
82.8468
 30
0.0
 11
264.0
 21
83.8468
 31
0.0
  0
LINE
  8
0
  6
CONTINUOUS
 62
   249
 10
265.0
 20
82.8468
 30
0.0
 11
265.0
 21
77.16187
 31
0.0
  0
LINE
  8
0
  6
CONTINUOUS
 62
   249
 10
265.0
 20
77.16187
 30
0.0
 11
264.0
 21
76.16187
 31
0.0
  0
LINE
  8
0
  6
DASHED
 62
   249
 10
260.0
 20
52.5
 30
0.0
 11
282.5
 21
52.5
 31
0.0
  0
LINE
  8
0
  6
CONTINUOUS
 62
   249
 10
260.0
 20
57.5
 30
0.0
 11
262.5
 21
57.5
 31
0.0
  0
LINE
  8
0
  6
CONTINUOUS
 62
   249
 10
260.0
 20
62.5
 30
0.0
 11
262.5
 21
62.5
 31
0.0
  0
LINE
  8
0
  6
CONTINUOUS
 62
   249
 10
265.0
 20
62.8468
 30
0.0
 11
264.0
 21
63.8468
 31
0.0
  0
LINE
  8
0
  6
CONTINUOUS
 62
   249
 10
265.0
 20
62.8468
 30
0.0
 11
265.0
 21
57.16187
 31
0.0
  0
LINE
  8
0
  6
CONTINUOUS
 62
   249
 10
265.0
 20
57.16187
 30
0.0
 11
264.0
 21
56.16187
 31
0.0
  0
LINE
  8
0
  6
DASHED
 62
   249
 10
355.0
 20
107.5
 30
0.0
 11
355.0
 21
97.5
 31
0.0
  0
LINE
  8
0
  6
DASHED
 62
   249
 10
355.0
 20
97.5
 30
0.0
 11
307.5
 21
97.5
 31
0.0
  0
LINE
  8
0
  6
DASHED
 62
   249
 10
307.5
 20
97.5
 30
0.0
 11
307.5
 21
62.5
 31
0.0
  0
LINE
  8
0
  6
DASHED
 62
   249
 10
347.5
 20
107.5
 30
0.0
 11
347.5
 21
102.5
 31
0.0
  0
LINE
  8
0
  6
DASHED
 62
   249
 10
347.5
 20
102.5
 30
0.0
 11
302.5
 21
102.5
 31
0.0
  0
LINE
  8
0
  6
DASHED
 62
   249
 10
302.5
 20
102.5
 30
0.0
 11
302.5
 21
82.5
 31
0.0
  0
LINE
  8
0
  6
DASHED
 62
   249
 10
275.0
 20
72.5
 30
0.0
 11
260.0
 21
72.5
 31
0.0
  0
LINE
  8
0
  6
DASHED
 62
   249
 10
340.0
 20
107.5
 30
0.0
 11
297.5
 21
107.5
 31
0.0
  0
LINE
  8
0
  6
DASHED
 62
   249
 10
297.5
 20
107.5
 30
0.0
 11
297.5
 21
102.5
 31
0.0
  0
LINE
  8
0
  6
DASHED
 62
   249
 10
275.0
 20
92.5
 30
0.0
 11
260.0
 21
92.5
 31
0.0
  0
LINE
  8
0
  6
DASHED
 62
   249
 10
307.5
 20
62.5
 30
0.0
 11
265.0
 21
62.5
 31
0.0
  0
LINE
  8
0
  6
DASHED
 62
   249
 10
265.0
 20
102.5
 30
0.0
 11
297.5
 21
102.5
 31
0.0
  0
LINE
  8
0
  6
DASHED
 62
   249
 10
275.0
 20
92.5
 30
0.0
 11
275.0
 21
82.5
 31
0.0
  0
LINE
  8
0
  6
DASHED
 62
   249
 10
265.0
 20
82.5
 30
0.0
 11
302.5
 21
82.5
 31
0.0
  0
LINE
  8
0
  6
DASHED
 62
   249
 10
282.5
 20
102.5
 30
0.0
 11
282.5
 21
52.5
 31
0.0
  0
TEXT
  8
0
  6
DASHED
 62
   249
 10
265.363959
 20
213.294779
 30
0.0
 40
2.0
  1
1)
  7
ROMANS
  0
TEXT
  8
0
  6
DASHED
 62
   249
 10
265.363959
 20
193.294779
 30
0.0
 40
2.0
  1
1)
  7
ROMANS
  0
TEXT
  8
0
  6
DASHED
 62
   249
 10
265.363959
 20
173.294779
 30
0.0
 40
2.0
  1
1)
  7
ROMANS
  0
TEXT
  8
0
  6
DASHED
 62
   249
 10
265.363959
 20
153.294779
 30
0.0
 40
2.0
  1
1)
  7
ROMANS
  0
TEXT
  8
0
  6
DASHED
 62
   249
 10
265.363959
 20
133.294779
 30
0.0
 40
2.0
  1
1)
  7
ROMANS
  0
TEXT
  8
0
  6
DASHED
 62
   249
 10
265.363959
 20
103.294779
 30
0.0
 40
2.0
  1
1)
  7
ROMANS
  0
TEXT
  8
0
  6
DASHED
 62
   249
 10
265.363959
 20
83.294779
 30
0.0
 40
2.0
  1
1)
  7
ROMANS
  0
TEXT
  8
0
  6
DASHED
 62
   249
 10
265.363959
 20
63.294779
 30
0.0
 40
2.0
  1
1)
  7
ROMANS
  0
TEXT
  8
0
  6
DASHED
 62
   249
 10
317.5
 20
27.5
 30
0.0
 40
2.0
  1
TERMINAL DIAGRAM / UTTAGSSCHEMA
  7
ROMANS
  0
TEXT
  8
0
  6
DASHED
 62
   249
 10
370.307098
 20
11.986662
 30
0.0
 40
2.0
  1
1/2
  7
ROMANS
  0
LINE
  8
0
  6
CONTINUOUS
 62
   249
 10
68.75
 20
172.877204
 30
0.0
 11
68.75
 21
192.165835
 31
0.0
  0
LINE
  8
0
  6
CONTINUOUS
 62
   249
 10
102.5
 20
135.0
 30
0.0
 11
102.5
 21
158.031649
 31
0.0
  0
LINE
  8
0
  6
CONTINUOUS
 62
   249
 10
102.5
 20
158.031649
 30
0.0
 11
157.5
 21
158.031649
 31
0.0
  0
LINE
  8
0
  6
CONTINUOUS
 62
   249
 10
71.25
 20
172.877204
 30
0.0
 11
71.25
 21
178.176888
 31
0.0
  0
LINE
  8
0
  6
CONTINUOUS
 62
   249
 10
71.25
 20
178.176888
 30
0.0
 11
155.0
 21
178.176888
 31
0.0
  0
TEXT
  8
0
  6
CONTINUOUS
 62
   249
 10
202.381462
 20
182.078099
 30
0.0
 40
2.0
  1
I
  7
GREEKS
  0
TEXT
  8
0
  6
CONTINUOUS
 62
   249
 10
203.218347
 20
180.469125
 30
0.0
 40
1.3
  1
L1,L3
  7
GREEKS
  0
LINE
  8
0
  6
CONTINUOUS
 62
   249
 10
208.262126
 20
184.090072
 30
0.0
 11
210.079543
 21
183.055487
 31
0.0
  0
TEXT
  8
0
  6
CONTINUOUS
 62
   249
 10
203.218347
 20
180.469125
 30
0.0
 40
1.3
  1
L1,L3
  7
GREEKS
  0
TEXT
  8
0
  6
CONTINUOUS
 62
   249
 10
200.396803
 20
182.09134
 30
0.0
 40
2.0
  1
2
  7
GREEKS
  0
TEXT
  8
0
  6
CONTINUOUS
 62
   249
 10
202.381462
 20
182.078099
 30
0.0
 40
2.0
  1
I
  7
GREEKS
  0
LINE
  8
0
  6
CONTINUOUS
 62
   249
 10
210.079543
 20
183.055487
 30
0.0
 11
208.262126
 21
182.133579
 31
0.0
  0
LINE
  8
0
  6
CONTINUOUS
 62
   249
 10
210.079543
 20
120.757326
 30
0.0
 11
208.262126
 21
119.835419
 31
0.0
  0
TEXT
  8
0
  6
CONTINUOUS
 62
   249
 10
202.381462
 20
119.779939
 30
0.0
 40
2.0
  1
I
  7
GREEKS
  0
TEXT
  8
0
  6
CONTINUOUS
 62
   249
 10
200.396803
 20
119.79318
 30
0.0
 40
2.0
  1
2
  7
GREEKS
  0
LINE
  8
0
  6
CONTINUOUS
 62
   249
 10
208.262126
 20
121.791912
 30
0.0
 11
210.079543
 21
120.757326
 31
0.0
  0
TEXT
  8
0
  6
CONTINUOUS
 62
   249
 10
202.381462
 20
119.779939
 30
0.0
 40
2.0
  1
I
  7
GREEKS
  0
TEXT
  8
0
  6
CONTINUOUS
 62
   249
 10
200.396803
 20
119.79318
 30
0.0
 40
2.0
  1
2
  7
GREEKS
  0
LINE
  8
0
  6
CONTINUOUS
 62
   249
 10
210.079543
 20
120.757326
 30
0.0
 11
208.262126
 21
119.835419
 31
0.0
  0
LINE
  8
0
  6
CONTINUOUS
 62
   249
 10
208.262126
 20
121.791912
 30
0.0
 11
210.079543
 21
120.757326
 31
0.0
  0
TEXT
  8
0
  6
CONTINUOUS
 62
   249
 10
203.142266
 20
118.104843
 30
0.0
 40
1.3
  1
L1,L2
  7
GREEKS
  0
TEXT
  8
0
  6
CONTINUOUS
 62
   249
 10
118.221328
 20
46.445356
 30
0.0
 40
2.0
  1
ARINH
 50
90.0
  7
ROMANS
  0
TEXT
  8
0
  6
CONTINUOUS
 62
   249
 10
126.286862
 20
46.445356
 30
0.0
 40
2.0
  1
CH15
 50
90.0
  7
ROMANS
  0
TEXT
  8
0
  6
CONTINUOUS
 62
   249
 10
143.238586
 20
46.445356
 30
0.0
 40
2.0
  1
CH16
 50
90.0
  7
ROMANS
  0
TEXT
  8
0
  6
CONTINUOUS
 62
   249
 10
158.470893
 20
46.445356
 30
0.0
 40
2.0
  1
CH17
 50
90.0
  7
ROMANS
  0
TEXT
  8
0
  6
CONTINUOUS
 62
   249
 10
212.560522
 20
28.10378
 30
0.0
 40
2.0
  1
1993-07-02  KM / RITU
  7
ROMANS
  0
TEXT
  8
0
  6
CONTINUOUS
 62
   249
 10
317.5
 20
24.166667
 30
0.0
 40
2.0
  1
SPAC 638 C
  7
ROMANS
  0
TEXT
  8
0
  6
CONTINUOUS
 62
   249
 10
380.0
 20
2.5
 30
0.0
 40
2.5
  1
A
  7
ROMANS
  0
TEXT
  8
0
  6
CONTINUOUS
 62
   249
 10
322.5
 20
2.5
 30
0.0
 40
2.5
  1
RS 10160-AAA
  7
ROMANS
  0
TEXT
  8
0
  6
CONTINUOUS
 62
   249
 10
65.41169
 20
226.147416
 30
0.0
 40
2.0
  1
RS 10160-AA  SPAC 638 C
  7
ROMANS
  0
TEXT
  8
0
  6
CONTINUOUS
 62
   249
 10
40.0
 20
41.084691
 30
0.0
 40
2.0
  1
DIM. 185 X 220  RS 10160-AAA
  7
ROMANS
  0
TEXT
  8
0
  6
CONTINUOUS
 62
   249
 10
302.568754
 20
186.362909
 30
0.0
 40
2.0
  1
P/Q
  7
ROMANS
  0
LINE
  8
0
  6
DASHED
 62
   249
 10
275.0
 20
72.5
 30
0.0
 11
275.0
 21
62.5
 31
0.0
  0
TEXT
  8
0
  6
DASHED
 62
   249
 10
354.531451
 20
16.135576
 30
0.0
 40
1.4
  1
LEHTI SHEET
  7
STAND
  0
LINE
  8
0
 62
   249
 10
0.577972
 20
0.580166
 30
0.0
 11
0.577972
 21
263.080166
 31
0.0
  0
LINE
  8
0
 62
   249
 10
392.577972
 20
263.080166
 30
0.0
 11
392.577972
 21
0.580166
 31
0.0
  0
LINE
  8
0
 62
   249
 10
0.577972
 20
0.580166
 30
0.0
 11
392.577972
 21
0.580166
 31
0.0
  0
TEXT
  8
0
 62
   249
 10
42.577972
 20
5.929675
 30
0.0
 40
2.5
  1
C
  7
ROMANS
  0
TEXT
  8
0
 62
   249
 10
42.577972
 20
1.537459
 30
0.0
 40
2.5
  1
B
  7
ROMANS
  0
TEXT
  8
0
 62
   249
 10
257.747879
 20
2.08395
 30
0.0
 40
3.0
  1
Power
 41
0.8
  7
ROMANS
  0
TEXT
  8
0
 62
   249
 10
273.577972
 20
7.580166
 30
0.0
 40
1.4
  1
VAST.OSASTO RESP.DEPT.
  7
ROMANS
  0
TEXT
  8
0
 62
   249
 10
210.577972
 20
32.580166
 30
0.0
 40
1.4
  1
TEKI  PREPARED
  7
ROMANS
  0
LINE
  8
0
 62
   249
 10
271.577972
 20
10.080166
 30
0.0
 11
271.577972
 21
0.580166
 31
0.0
  0
LINE
  8
0
 62
   249
 10
257.577972
 20
10.080166
 30
0.0
 11
257.577972
 21
35.580166
 31
0.0
  0
LINE
  8
0
 62
   249
 10
41.077972
 20
5.080166
 30
0.0
 11
209.577972
 21
5.080166
 31
0.0
  0
LINE
  8
0
 62
   249
 10
47.077972
 20
0.580166
 30
0.0
 11
47.077972
 21
9.580166
 31
0.0
  0
LINE
  8
0
 62
   249
 10
47.077972
 20
9.580166
 30
0.0
 11
209.577972
 21
9.580166
 31
0.0
  0
TEXT
  8
0
 62
   249
 10
28.077972
 20
2.813499
 30
0.0
 40
1.4
  1
REVISION
  7
ROMANS
  0
TEXT
  8
0
 62
   249
 10
28.077972
 20
5.080166
 30
0.0
 40
1.4
  1
MUUTOS
  7
ROMANS
  0
LINE
  8
0
 62
   249
 10
282.577972
 20
10.080166
 30
0.0
 11
282.577972
 21
18.580166
 31
0.0
  0
TEXT
  8
0
 62
   249
 10
238.077972
 20
2.080166
 30
0.0
 40
3.0
  1
Strömberg
 41
0.8
  7
ROMANS
  0
TEXT
  8
0
 62
   249
 10
230.077972
 20
2.080166
 30
0.0
 40
3.0
  1
ABB 
 41
0.8
  7
ROMANS
  0
LINE
  8
0
 62
   249
 10
223.477972
 20
2.080166
 30
0.0
 11
223.477972
 21
5.440166
 31
0.0
  0
LINE
  8
0
 62
   249
 10
223.477972
 20
9.080166
 30
0.0
 11
225.437972
 21
9.080166
 31
0.0
  0
LINE
  8
0
 62
   249
 10
225.437972
 20
9.080166
 30
0.0
 11
225.437972
 21
5.720166
 31
0.0
  0
LINE
  8
0
 62
   249
 10
225.437972
 20
5.720166
 30
0.0
 11
223.477972
 21
5.720166
 31
0.0
  0
LINE
  8
0
 62
   249
 10
223.477972
 20
5.440166
 30
0.0
 11
225.437972
 21
5.440166
 31
0.0
  0
LINE
  8
0
 62
   249
 10
225.437972
 20
5.440166
 30
0.0
 11
225.437972
 21
2.080166
 31
0.0
  0
LINE
  8
0
 62
   249
 10
225.437972
 20
2.080166
 30
0.0
 11
223.477972
 21
2.080166
 31
0.0
  0
LINE
  8
0
 62
   249
 10
223.477972
 20
5.720166
 30
0.0
 11
223.477972
 21
9.080166
 31
0.0
  0
ARC
  8
0
 62
   249
 10
226.277972
 20
7.505166
 30
0.0
 40
1.575
 50
298.455859
 51
90.052437
  0
LINE
  8
0
 62
   249
 10
225.717972
 20
9.080166
 30
0.0
 11
226.27653
 21
9.080165
 31
0.0
  0
LINE
  8
0
 62
   249
 10
225.717972
 20
9.080166
 30
0.0
 11
225.717972
 21
5.720166
 31
0.0
  0
LINE
  8
0
 62
   249
 10
225.717972
 20
5.720166
 30
0.0
 11
227.702415
 21
5.720166
 31
0.0
  0
LINE
  8
0
 62
   249
 10
227.957972
 20
5.440166
 30
0.0
 11
225.717972
 21
5.440166
 31
0.0
  0
LINE
  8
0
 62
   249
 10
225.717972
 20
5.440166
 30
0.0
 11
225.717972
 21
2.080166
 31
0.0
  0
ARC
  8
0
 62
   249
 10
226.277972
 20
4.180166
 30
0.0
 40
2.1
 50
269.937724
 51
37.056553
  0
LINE
  8
0
 62
   249
 10
225.717972
 20
2.080166
 30
0.0
 11
226.275689
 21
2.080167
 31
0.0
  0
ARC
  8
0
 62
   249
 10
226.277972
 20
4.180166
 30
0.0
 40
2.1
 50
47.28622
 51
68.787999
  0
INSERT
  8
0
 62
   249
  2
*X13
 10
215.987972
 20
2.080166
 30
0.0
 41
0.7
 42
0.7
 43
0.7
  0
INSERT
  8
0
 62
   249
  2
*X14
 10
215.987972
 20
2.080166
 30
0.0
 41
0.7
 42
0.7
 43
0.7
  0
INSERT
  8
0
 62
   249
  2
*X15
 10
215.987972
 20
2.080166
 30
0.0
 41
0.7
 42
0.7
 43
0.7
  0
INSERT
  8
0
 62
   249
  2
*X16
 10
215.987972
 20
2.080166
 30
0.0
 41
0.7
 42
0.7
 43
0.7
  0
INSERT
  8
0
 62
   249
  2
*X16
 10
210.527972
 20
2.080166
 30
0.0
 41
0.7
 42
0.7
 43
0.7
  0
INSERT
  8
0
 62
   249
  2
*X15
 10
210.527972
 20
2.080166
 30
0.0
 41
0.7
 42
0.7
 43
0.7
  0
INSERT
  8
0
 62
   249
  2
*X14
 10
210.527972
 20
2.080166
 30
0.0
 41
0.7
 42
0.7
 43
0.7
  0
INSERT
  8
0
 62
   249
  2
*X13
 10
210.527972
 20
2.080166
 30
0.0
 41
0.7
 42
0.7
 43
0.7
  0
ARC
  8
0
 62
   249
 10
220.817972
 20
4.180166
 30
0.0
 40
2.1
 50
47.28622
 51
68.787999
  0
LINE
  8
0
 62
   249
 10
220.257972
 20
2.080166
 30
0.0
 11
220.815689
 21
2.080167
 31
0.0
  0
ARC
  8
0
 62
   249
 10
220.817972
 20
4.180166
 30
0.0
 40
2.1
 50
269.937724
 51
37.056553
  0
LINE
  8
0
 62
   249
 10
220.257972
 20
5.440166
 30
0.0
 11
220.257972
 21
2.080166
 31
0.0
  0
LINE
  8
0
 62
   249
 10
222.497972
 20
5.440166
 30
0.0
 11
220.257972
 21
5.440166
 31
0.0
  0
LINE
  8
0
 62
   249
 10
220.257972
 20
5.720166
 30
0.0
 11
222.242415
 21
5.720166
 31
0.0
  0
LINE
  8
0
 62
   249
 10
220.257972
 20
9.080166
 30
0.0
 11
220.257972
 21
5.720166
 31
0.0
  0
LINE
  8
0
 62
   249
 10
220.257972
 20
9.080166
 30
0.0
 11
220.81653
 21
9.080165
 31
0.0
  0
ARC
  8
0
 62
   249
 10
220.817972
 20
7.505166
 30
0.0
 40
1.575
 50
298.455859
 51
90.052437
  0
LINE
  8
0
 62
   249
 10
218.017972
 20
5.720166
 30
0.0
 11
218.017972
 21
9.080166
 31
0.0
  0
LINE
  8
0
 62
   249
 10
219.977972
 20
2.080166
 30
0.0
 11
218.017972
 21
2.080166
 31
0.0
  0
LINE
  8
0
 62
   249
 10
219.977972
 20
5.440166
 30
0.0
 11
219.977972
 21
2.080166
 31
0.0
  0
LINE
  8
0
 62
   249
 10
218.017972
 20
5.440166
 30
0.0
 11
219.977972
 21
5.440166
 31
0.0
  0
LINE
  8
0
 62
   249
 10
219.977972
 20
5.720166
 30
0.0
 11
218.017972
 21
5.720166
 31
0.0
  0
LINE
  8
0
 62
   249
 10
219.977972
 20
9.080166
 30
0.0
 11
219.977972
 21
5.720166
 31
0.0
  0
LINE
  8
0
 62
   249
 10
218.017972
 20
9.080166
 30
0.0
 11
219.977972
 21
9.080166
 31
0.0
  0
LINE
  8
0
 62
   249
 10
218.017972
 20
2.080166
 30
0.0
 11
218.017972
 21
5.440166
 31
0.0
  0
INSERT
  8
0
 62
   249
  2
*X12
 10
210.527972
 20
2.080166
 30
0.0
 41
0.7
 42
0.7
 43
0.7
  0
INSERT
  8
0
 62
   249
  2
*X11
 10
210.527972
 20
2.080166
 30
0.0
 41
0.7
 42
0.7
 43
0.7
  0
INSERT
  8
0
 62
   249
  2
*X10
 10
210.527972
 20
2.080166
 30
0.0
 41
0.7
 42
0.7
 43
0.7
  0
INSERT
  8
0
 62
   249
  2
*X9
 10
210.527972
 20
2.080166
 30
0.0
 41
0.7
 42
0.7
 43
0.7
  0
LINE
  8
0
 62
   249
 10
211.69786
 20
5.422705
 30
0.0
 11
210.527972
 21
2.080166
 31
0.0
  0
LINE
  8
0
 62
   249
 10
213.887972
 20
5.440166
 30
0.0
 11
213.887972
 21
3.480166
 31
0.0
  0
LINE
  8
0
 62
   249
 10
214.167972
 20
5.440166
 30
0.0
 11
214.167972
 21
3.480166
 31
0.0
  0
LINE
  8
0
 62
   249
 10
214.167972
 20
5.440166
 30
0.0
 11
216.351228
 21
5.440166
 31
0.0
  0
LINE
  8
0
 62
   249
 10
214.167972
 20
5.720166
 30
0.0
 11
216.253085
 21
5.720166
 31
0.0
  0
LINE
  8
0
 62
   249
 10
216.352464
 20
5.438761
 30
0.0
 11
217.527972
 21
2.080166
 31
0.0
  0
LINE
  8
0
 62
   249
 10
211.700954
 20
5.440166
 30
0.0
 11
213.887972
 21
5.440166
 31
0.0
  0
LINE
  8
0
 62
   249
 10
211.799912
 20
5.720166
 30
0.0
 11
213.887972
 21
5.720166
 31
0.0
  0
LINE
  8
0
 62
   249
 10
213.887972
 20
9.080166
 30
0.0
 11
212.977972
 21
9.080166
 31
0.0
  0
LINE
  8
0
 62
   249
 10
214.167972
 20
3.480166
 30
0.0
 11
215.287865
 21
3.480166
 31
0.0
  0
LINE
  8
0
 62
   249
 10
214.167972
 20
9.080166
 30
0.0
 11
214.167972
 21
5.720166
 31
0.0
  0
LINE
  8
0
 62
   249
 10
213.887972
 20
9.080166
 30
0.0
 11
213.887972
 21
5.720166
 31
0.0
  0
LINE
  8
0
 62
   249
 10
215.077972
 20
9.080166
 30
0.0
 11
214.167972
 21
9.080166
 31
0.0
  0
LINE
  8
0
 62
   249
 10
215.289069
 20
3.47703
 30
0.0
 11
215.777972
 21
2.080166
 31
0.0
  0
LINE
  8
0
 62
   249
 10
215.077972
 20
9.080166
 30
0.0
 11
216.254325
 21
5.719158
 31
0.0
  0
LINE
  8
0
 62
   249
 10
212.766762
 20
3.476709
 30
0.0
 11
212.277972
 21
2.080166
 31
0.0
  0
LINE
  8
0
 62
   249
 10
212.766758
 20
3.480166
 30
0.0
 11
213.887972
 21
3.480166
 31
0.0
  0
LINE
  8
0
 62
   249
 10
212.977972
 20
9.080166
 30
0.0
 11
211.800444
 21
5.715801
 31
0.0
  0
LINE
  8
0
 62
   249
 10
215.777972
 20
2.080166
 30
0.0
 11
217.527972
 21
2.080166
 31
0.0
  0
LINE
  8
0
 62
   249
 10
210.527972
 20
2.080166
 30
0.0
 11
212.277972
 21
2.080166
 31
0.0
  0
LINE
  8
0
 62
   249
 10
370.077972
 20
10.080166
 30
0.0
 11
370.077972
 21
0.580166
 31
0.0
  0
TEXT
  8
0
 62
   249
 10
371.577972
 20
7.580166
 30
0.0
 40
1.4
  1
PAINOS  REVISION
  7
ROMANS
  0
LINE
  8
0
 62
   249
 10
350.077972
 20
10.080166
 30
0.0
 11
350.077972
 21
18.580166
 31
0.0
  0
TEXT
  8
0
 62
   249
 10
309.577972
 20
7.580166
 30
0.0
 40
1.4
  1
PIIRUSTUS NO  DRAWING NR
  7
ROMANS
  0
TEXT
  8
0
 62
   249
 10
309.577972
 20
16.080166
 30
0.0
 40
1.4
  1
KOODI  CODE
  7
ROMANS
  0
TEXT
  8
0
 62
   249
 10
309.577972
 20
33.080166
 30
0.0
 40
1.4
  1
NIMITYS  NAME
  7
ROMANS
  0
TEXT
  8
0
 62
   249
 10
259.577972
 20
16.080166
 30
0.0
 40
1.4
  1
SUHDE  SCALE
  7
ROMANS
  0
TEXT
  8
0
 62
   249
 10
259.577972
 20
24.080166
 30
0.0
 40
1.4
  1
TOLERANSSIT  TOLERANCES
  7
ROMANS
  0
TEXT
  8
0
 62
   249
 10
259.577972
 20
33.080166
 30
0.0
 40
1.4
  1
LIITTYY  CONCERNING
  7
ROMANS
  0
LINE
  8
0
 62
   249
 10
307.577972
 20
0.580166
 30
0.0
 11
307.577972
 21
35.580166
 31
0.0
  0
TEXT
  8
0
 62
   249
 10
210.320806
 20
16.046833
 30
0.0
 40
1.4
  1
HYVÄKSYI  APPROVED
  7
ROMANS
  0
TEXT
  8
0
 62
   249
 10
210.577972
 20
24.313499
 30
0.0
 40
1.4
  1
TARKASTI  CHECKED
  7
ROMANS
  0
LINE
  8
0
 62
   249
 10
209.577972
 20
35.580166
 30
0.0
 11
392.577972
 21
35.580166
 31
0.0
  0
LINE
  8
0
 62
   249
 10
209.577972
 20
27.080166
 30
0.0
 11
307.577972
 21
27.080166
 31
0.0
  0
LINE
  8
0
 62
   249
 10
209.577972
 20
10.080166
 30
0.0
 11
392.577972
 21
10.080166
 31
0.0
  0
LINE
  8
0
 62
   249
 10
209.577972
 20
18.580166
 30
0.0
 11
392.577972
 21
18.580166
 31
0.0
  0
LINE
  8
0
 62
   249
 10
392.577972
 20
0.580166
 30
0.0
 11
392.577972
 21
35.580166
 31
0.0
  0
LINE
  8
0
 62
   249
 10
209.577972
 20
0.580166
 30
0.0
 11
209.577972
 21
35.580166
 31
0.0
  0
LINE
  8
0
 62
   249
 10
209.577972
 20
0.580166
 30
0.0
 11
392.577972
 21
0.580166
 31
0.0
  0
LINE
  8
0
 62
   249
 10
18.577972
 20
0.580166
 30
0.0
 11
0.577972
 21
0.580166
 31
0.0
  0
LINE
  8
0
 62
   249
 10
0.577972
 20
263.080166
 30
0.0
 11
392.577972
 21
263.080166
 31
0.0
  0
TEXT
  8
0
  6
DASHED
 62
   249
 10
292.558067
 20
12.155526
 30
0.0
 40
3.0
  1
A3
  7
GREEKS
  0
LINE
  8
0
  6
CONTINUOUS
 62
   249
 10
173.924362
 20
131.164635
 30
0.0
 11
171.578597
 21
132.499989
 31
0.0
  0
LINE
  8
0
  6
CONTINUOUS
 62
   249
 10
171.578597
 20
132.499989
 30
0.0
 11
173.924362
 21
133.689908
 31
0.0
  0
ARC
  8
0
  6
CONTINUOUS
 62
   249
 10
60.0
 20
126.108096
 30
0.0
 40
0.5
 50
180.0
 51
0.0
  0
ARC
  8
0
  6
CONTINUOUS
 62
   249
 10
60.0
 20
126.108096
 30
0.0
 40
0.5
 50
0.0
 51
180.0
  0
ARC
  8
0
  6
CONTINUOUS
 62
   249
 10
157.5
 20
120.0
 30
0.0
 40
0.5
 50
180.0
 51
0.0
  0
ARC
  8
0
  6
CONTINUOUS
 62
   249
 10
157.5
 20
120.0
 30
0.0
 40
0.5
 50
0.0
 51
180.0
  0
ARC
  8
0
  6
CONTINUOUS
 62
   249
 10
162.5
 20
113.998058
 30
0.0
 40
0.5
 50
180.0
 51
0.0
  0
ARC
  8
0
  6
CONTINUOUS
 62
   249
 10
162.5
 20
113.998058
 30
0.0
 40
0.5
 50
0.0
 51
180.0
  0
ARC
  8
0
  6
CONTINUOUS
 62
   249
 10
155.0
 20
123.887472
 30
0.0
 40
0.5
 50
180.0
 51
0.0
  0
ARC
  8
0
  6
CONTINUOUS
 62
   249
 10
155.0
 20
123.887472
 30
0.0
 40
0.5
 50
0.0
 51
180.0
  0
LINE
  8
0
  6
CONTINUOUS
 62
   249
 10
173.924362
 20
106.164635
 30
0.0
 11
171.578597
 21
107.499989
 31
0.0
  0
LINE
  8
0
  6
CONTINUOUS
 62
   249
 10
171.578597
 20
107.499989
 30
0.0
 11
173.924362
 21
108.689908
 31
0.0
  0
LINE
  8
0
  6
CONTINUOUS
 62
   249
 10
173.924362
 20
118.664635
 30
0.0
 11
171.578597
 21
119.999989
 31
0.0
  0
LINE
  8
0
  6
CONTINUOUS
 62
   249
 10
171.578597
 20
119.999989
 30
0.0
 11
173.924362
 21
121.189908
 31
0.0
  0
LINE
  8
0
  6
CONTINUOUS
 62
   249
 10
173.924362
 20
112.662693
 30
0.0
 11
171.578597
 21
113.998046
 31
0.0
  0
LINE
  8
0
  6
CONTINUOUS
 62
   249
 10
171.578597
 20
113.998046
 30
0.0
 11
173.924362
 21
115.187966
 31
0.0
  0
LINE
  8
0
  6
CONTINUOUS
 62
   249
 10
173.924362
 20
122.552107
 30
0.0
 11
171.578597
 21
123.88746
 31
0.0
  0
LINE
  8
0
  6
CONTINUOUS
 62
   249
 10
171.578597
 20
123.88746
 30
0.0
 11
173.924362
 21
125.07738
 31
0.0
  0
ARC
  8
0
  6
CONTINUOUS
 62
   249
 10
55.0
 20
138.555194
 30
0.0
 40
0.5
 50
180.0
 51
0.0
  0
ARC
  8
0
  6
CONTINUOUS
 62
   249
 10
55.0
 20
138.555194
 30
0.0
 40
0.5
 50
0.0
 51
180.0
  0
ARC
  8
0
  6
CONTINUOUS
 62
   249
 10
72.5
 20
157.5
 30
0.0
 40
0.5
 50
180.0
 51
0.0
  0
ARC
  8
0
  6
CONTINUOUS
 62
   249
 10
72.5
 20
157.5
 30
0.0
 40
0.5
 50
0.0
 51
180.0
  0
TEXT
  8
0
  6
CONTINUOUS
 62
   249
 10
26.844763
 20
194.00558
 30
0.0
 40
2.0
  1
-
  0
TEXT
  8
0
  6
CONTINUOUS
 62
   249
 10
26.853328
 20
199.013635
 30
0.0
 40
2.0
  1
+
  0
TEXT
  8
0
  6
CONTINUOUS
 62
   249
 10
26.853328
 20
206.513635
 30
0.0
 40
2.0
  1
+
  0
ARC
  8
0
  6
CONTINUOUS
 62
   249
 10
47.5
 20
195.0
 30
0.0
 40
0.5
 50
180.0
 51
0.0
  0
ARC
  8
0
  6
CONTINUOUS
 62
   249
 10
47.5
 20
195.0
 30
0.0
 40
0.5
 50
0.0
 51
180.0
  0
TEXT
  8
0
  6
CONTINUOUS
 62
   249
 10
26.844763
 20
216.50558
 30
0.0
 40
2.0
  1
-
  0
TEXT
  8
0
  6
CONTINUOUS
 62
   249
 10
26.853328
 20
221.513635
 30
0.0
 40
2.0
  1
+
  0
ARC
  8
0
  6
CONTINUOUS
 62
   249
 10
85.0
 20
150.0
 30
0.0
 40
0.5
 50
180.0
 51
0.0
  0
ARC
  8
0
  6
CONTINUOUS
 62
   249
 10
85.0
 20
150.0
 30
0.0
 40
0.5
 50
0.0
 51
180.0
  0
ARC
  8
0
  6
CONTINUOUS
 62
   249
 10
82.5
 20
155.0
 30
0.0
 40
0.5
 50
180.0
 51
0.0
  0
ARC
  8
0
  6
CONTINUOUS
 62
   249
 10
82.5
 20
155.0
 30
0.0
 40
0.5
 50
0.0
 51
180.0
  0
ARC
  8
0
  6
CONTINUOUS
 62
   249
 10
115.0
 20
155.0
 30
0.0
 40
0.5
 50
180.0
 51
0.0
  0
ARC
  8
0
  6
CONTINUOUS
 62
   249
 10
115.0
 20
155.0
 30
0.0
 40
0.5
 50
0.0
 51
180.0
  0
ARC
  8
0
  6
CONTINUOUS
 62
   249
 10
130.0
 20
181.168365
 30
0.0
 40
0.5
 50
180.0
 51
0.0
  0
ARC
  8
0
  6
CONTINUOUS
 62
   249
 10
130.0
 20
181.168365
 30
0.0
 40
0.5
 50
0.0
 51
180.0
  0
ARC
  8
0
  6
CONTINUOUS
 62
   249
 10
127.5
 20
187.5
 30
0.0
 40
0.5
 50
180.0
 51
0.0
  0
ARC
  8
0
  6
CONTINUOUS
 62
   249
 10
127.5
 20
187.5
 30
0.0
 40
0.5
 50
0.0
 51
180.0
  0
ARC
  8
0
  6
CONTINUOUS
 62
   249
 10
125.0
 20
192.165835
 30
0.0
 40
0.5
 50
180.0
 51
0.0
  0
ARC
  8
0
  6
CONTINUOUS
 62
   249
 10
125.0
 20
192.165835
 30
0.0
 40
0.5
 50
0.0
 51
180.0
  0
ARC
  8
0
  6
CONTINUOUS
 62
   249
 10
122.5
 20
200.0
 30
0.0
 40
0.5
 50
180.0
 51
0.0
  0
ARC
  8
0
  6
CONTINUOUS
 62
   249
 10
122.5
 20
200.0
 30
0.0
 40
0.5
 50
0.0
 51
180.0
  0
ARC
  8
0
  6
CONTINUOUS
 62
   249
 10
147.5
 20
136.168039
 30
0.0
 40
0.5
 50
180.0
 51
0.0
  0
ARC
  8
0
  6
CONTINUOUS
 62
   249
 10
147.5
 20
136.168039
 30
0.0
 40
0.5
 50
0.0
 51
180.0
  0
ARC
  8
0
  6
CONTINUOUS
 62
   249
 10
160.0
 20
132.5
 30
0.0
 40
0.5
 50
180.0
 51
0.0
  0
ARC
  8
0
  6
CONTINUOUS
 62
   249
 10
160.0
 20
132.5
 30
0.0
 40
0.5
 50
0.0
 51
180.0
  0
ARC
  8
0
  6
CONTINUOUS
 62
   249
 10
140.0
 20
162.5
 30
0.0
 40
0.5
 50
180.0
 51
0.0
  0
ARC
  8
0
  6
CONTINUOUS
 62
   249
 10
140.0
 20
162.5
 30
0.0
 40
0.5
 50
0.0
 51
180.0
  0
ARC
  8
0
  6
CONTINUOUS
 62
   249
 10
142.5
 20
155.0
 30
0.0
 40
0.5
 50
180.0
 51
0.0
  0
ARC
  8
0
  6
CONTINUOUS
 62
   249
 10
142.5
 20
155.0
 30
0.0
 40
0.5
 50
0.0
 51
180.0
  0
LINE
  8
0
  6
CONTINUOUS
 62
   249
 10
184.20838
 20
150.566047
 30
0.0
 11
185.095267
 21
150.566047
 31
0.0
  0
LINE
  8
0
  6
CONTINUOUS
 62
   249
 10
183.877275
 20
151.177681
 30
0.0
 11
185.461846
 21
151.177681
 31
0.0
  0
LINE
  8
0
  6
CONTINUOUS
 62
   249
 10
184.693211
 20
151.799743
 30
0.0
 11
185.887552
 21
151.799743
 31
0.0
  0
LINE
  8
0
  6
CONTINUOUS
 62
   249
 10
183.49887
 20
151.799743
 30
0.0
 11
184.693211
 21
151.799743
 31
0.0
  0
LINE
  8
0
  6
CONTINUOUS
 62
   249
 10
184.709098
 20
153.154013
 30
0.0
 11
184.709098
 21
151.799743
 31
0.0
  0
LINE
  8
0
  6
CONTINUOUS
 62
   249
 10
173.924362
 20
150.063601
 30
0.0
 11
171.578597
 21
151.398954
 31
0.0
  0
LINE
  8
0
  6
CONTINUOUS
 62
   249
 10
171.578597
 20
151.398954
 30
0.0
 11
173.924362
 21
152.588874
 31
0.0
  0
LINE
  8
0
  6
CONTINUOUS
 62
   249
 10
173.924362
 20
134.832673
 30
0.0
 11
171.578597
 21
136.168027
 31
0.0
  0
LINE
  8
0
  6
CONTINUOUS
 62
   249
 10
171.578597
 20
136.168027
 30
0.0
 11
173.924362
 21
137.357946
 31
0.0
  0
ARC
  8
0
  6
CONTINUOUS
 62
   249
 10
170.0
 20
140.019111
 30
0.0
 40
0.5
 50
180.0
 51
0.0
  0
ARC
  8
0
  6
CONTINUOUS
 62
   249
 10
170.0
 20
140.019111
 30
0.0
 40
0.5
 50
0.0
 51
180.0
  0
LINE
  8
0
  6
CONTINUOUS
 62
   249
 10
173.924362
 20
146.164635
 30
0.0
 11
171.578597
 21
147.499989
 31
0.0
  0
LINE
  8
0
  6
CONTINUOUS
 62
   249
 10
171.578597
 20
147.499989
 30
0.0
 11
173.924362
 21
148.689908
 31
0.0
  0
LINE
  8
0
  6
CONTINUOUS
 62
   249
 10
183.992717
 20
135.701444
 30
0.0
 11
184.879604
 21
135.701444
 31
0.0
  0
LINE
  8
0
  6
CONTINUOUS
 62
   249
 10
183.661613
 20
136.313077
 30
0.0
 11
185.246184
 21
136.313077
 31
0.0
  0
LINE
  8
0
  6
CONTINUOUS
 62
   249
 10
184.477549
 20
136.935139
 30
0.0
 11
185.67189
 21
136.935139
 31
0.0
  0
LINE
  8
0
  6
CONTINUOUS
 62
   249
 10
183.283208
 20
136.935139
 30
0.0
 11
184.477549
 21
136.935139
 31
0.0
  0
LINE
  8
0
  6
CONTINUOUS
 62
   249
 10
184.493435
 20
138.289409
 30
0.0
 11
184.493435
 21
136.935139
 31
0.0
  0
LINE
  8
0
  6
CONTINUOUS
 62
   249
 10
184.20838
 20
145.637212
 30
0.0
 11
185.095267
 21
145.637212
 31
0.0
  0
LINE
  8
0
  6
CONTINUOUS
 62
   249
 10
183.877275
 20
146.248845
 30
0.0
 11
185.461846
 21
146.248845
 31
0.0
  0
LINE
  8
0
  6
CONTINUOUS
 62
   249
 10
184.693211
 20
146.870907
 30
0.0
 11
185.887552
 21
146.870907
 31
0.0
  0
LINE
  8
0
  6
CONTINUOUS
 62
   249
 10
183.49887
 20
146.870907
 30
0.0
 11
184.693211
 21
146.870907
 31
0.0
  0
LINE
  8
0
  6
CONTINUOUS
 62
   249
 10
184.709098
 20
148.225178
 30
0.0
 11
184.709098
 21
146.870907
 31
0.0
  0
LINE
  8
0
  6
CONTINUOUS
 62
   249
 10
173.924362
 20
161.164635
 30
0.0
 11
171.578597
 21
162.499989
 31
0.0
  0
LINE
  8
0
  6
CONTINUOUS
 62
   249
 10
171.578597
 20
162.499989
 30
0.0
 11
173.924362
 21
163.689908
 31
0.0
  0
ARC
  8
0
  6
CONTINUOUS
 62
   249
 10
170.0
 20
154.971652
 30
0.0
 40
0.5
 50
180.0
 51
0.0
  0
ARC
  8
0
  6
CONTINUOUS
 62
   249
 10
170.0
 20
154.971652
 30
0.0
 40
0.5
 50
0.0
 51
180.0
  0
ARC
  8
0
  6
CONTINUOUS
 62
   249
 10
167.5
 20
158.000813
 30
0.0
 40
0.5
 50
180.0
 51
0.0
  0
ARC
  8
0
  6
CONTINUOUS
 62
   249
 10
167.5
 20
158.000813
 30
0.0
 40
0.5
 50
0.0
 51
180.0
  0
LINE
  8
0
  6
CONTINUOUS
 62
   249
 10
184.280267
 20
160.441073
 30
0.0
 11
185.167154
 21
160.441073
 31
0.0
  0
LINE
  8
0
  6
CONTINUOUS
 62
   249
 10
183.949163
 20
161.052706
 30
0.0
 11
185.533734
 21
161.052706
 31
0.0
  0
LINE
  8
0
  6
CONTINUOUS
 62
   249
 10
184.765099
 20
161.674769
 30
0.0
 11
185.95944
 21
161.674769
 31
0.0
  0
LINE
  8
0
  6
CONTINUOUS
 62
   249
 10
183.570758
 20
161.674769
 30
0.0
 11
184.765099
 21
161.674769
 31
0.0
  0
LINE
  8
0
  6
CONTINUOUS
 62
   249
 10
184.780985
 20
163.029039
 30
0.0
 11
184.780985
 21
161.674769
 31
0.0
  0
LINE
  8
0
  6
CONTINUOUS
 62
   249
 10
173.924362
 20
190.831255
 30
0.0
 11
171.578597
 21
192.166609
 31
0.0
  0
LINE
  8
0
  6
CONTINUOUS
 62
   249
 10
171.578597
 20
192.166609
 30
0.0
 11
173.924362
 21
193.356528
 31
0.0
  0
LINE
  8
0
  6
CONTINUOUS
 62
   249
 10
173.924362
 20
179.833016
 30
0.0
 11
171.578597
 21
181.16837
 31
0.0
  0
LINE
  8
0
  6
CONTINUOUS
 62
   249
 10
171.578597
 20
181.16837
 30
0.0
 11
173.924362
 21
182.358289
 31
0.0
  0
LINE
  8
0
  6
CONTINUOUS
 62
   249
 10
173.924362
 20
173.664635
 30
0.0
 11
171.578597
 21
174.999989
 31
0.0
  0
LINE
  8
0
  6
CONTINUOUS
 62
   249
 10
171.578597
 20
174.999989
 30
0.0
 11
173.924362
 21
176.189908
 31
0.0
  0
LINE
  8
0
  6
CONTINUOUS
 62
   249
 10
173.924362
 20
186.164635
 30
0.0
 11
171.578597
 21
187.499989
 31
0.0
  0
LINE
  8
0
  6
CONTINUOUS
 62
   249
 10
171.578597
 20
187.499989
 30
0.0
 11
173.924362
 21
188.689908
 31
0.0
  0
LINE
  8
0
  6
CONTINUOUS
 62
   249
 10
173.924362
 20
198.664635
 30
0.0
 11
171.578597
 21
199.999989
 31
0.0
  0
LINE
  8
0
  6
CONTINUOUS
 62
   249
 10
171.578597
 20
199.999989
 30
0.0
 11
173.924362
 21
201.189908
 31
0.0
  0
ARC
  8
0
  6
CONTINUOUS
 62
   249
 10
170.0
 20
195.0
 30
0.0
 40
0.5
 50
180.0
 51
0.0
  0
ARC
  8
0
  6
CONTINUOUS
 62
   249
 10
170.0
 20
195.0
 30
0.0
 40
0.5
 50
0.0
 51
180.0
  0
LINE
  8
0
  6
CONTINUOUS
 62
   249
 10
232.38991
 20
66.166103
 30
0.0
 11
230.044144
 21
67.501457
 31
0.0
  0
LINE
  8
0
  6
CONTINUOUS
 62
   249
 10
230.044144
 20
67.501457
 30
0.0
 11
232.38991
 21
68.691376
 31
0.0
  0
LINE
  8
0
  6
CONTINUOUS
 62
   249
 10
232.38991
 20
76.166103
 30
0.0
 11
230.044144
 21
77.501457
 31
0.0
  0
LINE
  8
0
  6
CONTINUOUS
 62
   249
 10
230.044144
 20
77.501457
 30
0.0
 11
232.38991
 21
78.691376
 31
0.0
  0
LINE
  8
0
  6
CONTINUOUS
 62
   249
 10
231.989729
 20
86.164635
 30
0.0
 11
229.643963
 21
87.499989
 31
0.0
  0
LINE
  8
0
  6
CONTINUOUS
 62
   249
 10
229.643963
 20
87.499989
 30
0.0
 11
231.989729
 21
88.689908
 31
0.0
  0
LINE
  8
0
  6
CONTINUOUS
 62
   249
 10
203.72323
 20
113.092989
 30
0.0
 11
202.474557
 21
113.803811
 31
0.0
  0
LINE
  8
0
  6
CONTINUOUS
 62
   249
 10
202.474557
 20
113.803811
 30
0.0
 11
203.72323
 21
114.437216
 31
0.0
  0
LINE
  8
0
  6
CONTINUOUS
 62
   249
 10
207.347595
 20
114.527947
 30
0.0
 11
208.596268
 21
113.817126
 31
0.0
  0
LINE
  8
0
  6
CONTINUOUS
 62
   249
 10
208.596268
 20
113.817126
 30
0.0
 11
207.347595
 21
113.183721
 31
0.0
  0
ARC
  8
0
  6
CONTINUOUS
 62
   249
 10
275.0
 20
62.5
 30
0.0
 40
0.5
 50
180.0
 51
0.0
  0
ARC
  8
0
  6
CONTINUOUS
 62
   249
 10
275.0
 20
62.5
 30
0.0
 40
0.5
 50
0.0
 51
180.0
  0
ARC
  8
0
  6
CONTINUOUS
 62
   249
 10
275.0
 20
82.5
 30
0.0
 40
0.5
 50
180.0
 51
0.0
  0
ARC
  8
0
  6
CONTINUOUS
 62
   249
 10
275.0
 20
82.5
 30
0.0
 40
0.5
 50
0.0
 51
180.0
  0
ARC
  8
0
  6
CONTINUOUS
 62
   249
 10
282.5
 20
102.5
 30
0.0
 40
0.5
 50
180.0
 51
0.0
  0
ARC
  8
0
  6
CONTINUOUS
 62
   249
 10
282.5
 20
102.5
 30
0.0
 40
0.5
 50
0.0
 51
180.0
  0
LINE
  8
0
  6
CONTINUOUS
 62
   249
 10
352.285561
 20
64.126519
 30
0.0
 11
353.172448
 21
64.126519
 31
0.0
  0
LINE
  8
0
  6
CONTINUOUS
 62
   249
 10
351.954457
 20
64.738152
 30
0.0
 11
353.539028
 21
64.738152
 31
0.0
  0
LINE
  8
0
  6
CONTINUOUS
 62
   249
 10
352.770393
 20
65.360214
 30
0.0
 11
353.964734
 21
65.360214
 31
0.0
  0
LINE
  8
0
  6
CONTINUOUS
 62
   249
 10
351.576052
 20
65.360214
 30
0.0
 11
352.770393
 21
65.360214
 31
0.0
  0
LINE
  8
0
  6
CONTINUOUS
 62
   249
 10
352.786279
 20
66.714484
 30
0.0
 11
352.786279
 21
65.360214
 31
0.0
  0
INSERT
  8
0
  6
CENTER
 62
   249
  2
BLC26
 10
346.046562
 20
122.609534
 30
0.0
 41
1.006225
 42
1.006225
 43
1.006225
  0
INSERT
  8
0
  6
CENTER
 62
   249
  2
BLC26
 10
338.546562
 20
122.609534
 30
0.0
 41
1.006225
 42
1.006225
 43
1.006225
  0
LINE
  8
0
  6
CONTINUOUS
 62
   249
 10
361.509978
 20
120.18998
 30
0.0
 11
364.155635
 21
120.18998
 31
0.0
  0
LINE
  8
0
  6
CONTINUOUS
 62
   249
 10
365.937188
 20
119.586285
 30
0.0
 11
365.937188
 21
120.793675
 31
0.0
  0
LINE
  8
0
  6
CONTINUOUS
 62
   249
 10
365.049675
 20
119.153787
 30
0.0
 11
365.049675
 21
121.217163
 31
0.0
  0
LINE
  8
0
  6
CONTINUOUS
 62
   249
 10
364.155635
 20
118.658217
 30
0.0
 11
364.155635
 21
121.721743
 31
0.0
  0
LINE
  8
0
  6
CONTINUOUS
 62
   249
 10
361.509978
 20
115.0
 30
0.0
 11
364.155635
 21
115.0
 31
0.0
  0
LINE
  8
0
  6
CONTINUOUS
 62
   249
 10
365.937188
 20
114.396305
 30
0.0
 11
365.937188
 21
115.603695
 31
0.0
  0
LINE
  8
0
  6
CONTINUOUS
 62
   249
 10
365.049675
 20
113.963807
 30
0.0
 11
365.049675
 21
116.027182
 31
0.0
  0
LINE
  8
0
  6
CONTINUOUS
 62
   249
 10
364.155635
 20
113.468237
 30
0.0
 11
364.155635
 21
116.531763
 31
0.0
  0
INSERT
  8
0
  6
CENTER
 62
   249
  2
BLC26
 10
353.546562
 20
122.609534
 30
0.0
 41
1.006225
 42
1.006225
 43
1.006225
  0
ARC
  8
0
  6
CONTINUOUS
 62
   249
 10
355.0
 20
130.0
 30
0.0
 40
0.5
 50
180.0
 51
0.0
  0
ARC
  8
0
  6
CONTINUOUS
 62
   249
 10
355.0
 20
130.0
 30
0.0
 40
0.5
 50
0.0
 51
180.0
  0
LINE
  8
0
  6
CONTINUOUS
 62
   249
 10
206.613336
 20
149.932588
 30
0.0
 11
207.500223
 21
149.932588
 31
0.0
  0
LINE
  8
0
  6
CONTINUOUS
 62
   249
 10
206.282232
 20
150.544221
 30
0.0
 11
207.866803
 21
150.544221
 31
0.0
  0
LINE
  8
0
  6
CONTINUOUS
 62
   249
 10
207.098168
 20
151.166283
 30
0.0
 11
208.292509
 21
151.166283
 31
0.0
  0
LINE
  8
0
  6
CONTINUOUS
 62
   249
 10
205.903827
 20
151.166283
 30
0.0
 11
207.098168
 21
151.166283
 31
0.0
  0
LINE
  8
0
  6
CONTINUOUS
 62
   249
 10
207.114054
 20
152.520554
 30
0.0
 11
207.114054
 21
151.166283
 31
0.0
  0
LINE
  8
0
  6
CONTINUOUS
 62
   249
 10
203.72323
 20
147.490627
 30
0.0
 11
202.474557
 21
148.201449
 31
0.0
  0
LINE
  8
0
  6
CONTINUOUS
 62
   249
 10
202.474557
 20
148.201449
 30
0.0
 11
203.72323
 21
148.834854
 31
0.0
  0
LINE
  8
0
  6
CONTINUOUS
 62
   249
 10
207.347595
 20
148.925586
 30
0.0
 11
208.596268
 21
148.214764
 31
0.0
  0
LINE
  8
0
  6
CONTINUOUS
 62
   249
 10
208.596268
 20
148.214764
 30
0.0
 11
207.347595
 21
147.581359
 31
0.0
  0
ARC
  8
0
  6
CONTINUOUS
 62
   249
 10
215.0
 20
143.479447
 30
0.0
 40
0.5
 50
180.0
 51
0.0
  0
ARC
  8
0
  6
CONTINUOUS
 62
   249
 10
215.0
 20
143.479447
 30
0.0
 40
0.5
 50
0.0
 51
180.0
  0
LINE
  8
0
  6
CONTINUOUS
 62
   249
 10
206.613336
 20
154.514322
 30
0.0
 11
207.500223
 21
154.514322
 31
0.0
  0
LINE
  8
0
  6
CONTINUOUS
 62
   249
 10
206.282232
 20
155.125955
 30
0.0
 11
207.866803
 21
155.125955
 31
0.0
  0
LINE
  8
0
  6
CONTINUOUS
 62
   249
 10
207.098168
 20
155.748018
 30
0.0
 11
208.292509
 21
155.748018
 31
0.0
  0
LINE
  8
0
  6
CONTINUOUS
 62
   249
 10
205.903827
 20
155.748018
 30
0.0
 11
207.098168
 21
155.748018
 31
0.0
  0
LINE
  8
0
  6
CONTINUOUS
 62
   249
 10
207.114054
 20
157.102288
 30
0.0
 11
207.114054
 21
155.748018
 31
0.0
  0
LINE
  8
0
  6
CONTINUOUS
 62
   249
 10
231.989729
 20
136.164635
 30
0.0
 11
229.643963
 21
137.499989
 31
0.0
  0
LINE
  8
0
  6
CONTINUOUS
 62
   249
 10
229.643963
 20
137.499989
 30
0.0
 11
231.989729
 21
138.689908
 31
0.0
  0
LINE
  8
0
  6
CONTINUOUS
 62
   249
 10
231.989729
 20
166.164635
 30
0.0
 11
229.643963
 21
167.499989
 31
0.0
  0
LINE
  8
0
  6
CONTINUOUS
 62
   249
 10
229.643963
 20
167.499989
 30
0.0
 11
231.989729
 21
168.689908
 31
0.0
  0
LINE
  8
0
  6
CONTINUOUS
 62
   249
 10
203.72323
 20
176.862772
 30
0.0
 11
202.474557
 21
177.573593
 31
0.0
  0
LINE
  8
0
  6
CONTINUOUS
 62
   249
 10
202.474557
 20
177.573593
 30
0.0
 11
203.72323
 21
178.206998
 31
0.0
  0
LINE
  8
0
  6
CONTINUOUS
 62
   249
 10
207.347595
 20
178.29773
 30
0.0
 11
208.596268
 21
177.586908
 31
0.0
  0
LINE
  8
0
  6
CONTINUOUS
 62
   249
 10
208.596268
 20
177.586908
 30
0.0
 11
207.347595
 21
176.953503
 31
0.0
  0
ARC
  8
0
  6
CONTINUOUS
 62
   249
 10
217.5
 20
185.0
 30
0.0
 40
0.5
 50
180.0
 51
0.0
  0
ARC
  8
0
  6
CONTINUOUS
 62
   249
 10
217.5
 20
185.0
 30
0.0
 40
0.5
 50
0.0
 51
180.0
  0
LINE
  8
0
  6
CONTINUOUS
 62
   249
 10
231.989729
 20
186.164635
 30
0.0
 11
229.643963
 21
187.499989
 31
0.0
  0
LINE
  8
0
  6
CONTINUOUS
 62
   249
 10
229.643963
 20
187.499989
 30
0.0
 11
231.989729
 21
188.689908
 31
0.0
  0
LINE
  8
0
  6
CONTINUOUS
 62
   249
 10
231.989729
 20
196.164635
 30
0.0
 11
229.643963
 21
197.499989
 31
0.0
  0
LINE
  8
0
  6
CONTINUOUS
 62
   249
 10
229.643963
 20
197.499989
 30
0.0
 11
231.989729
 21
198.689908
 31
0.0
  0
LINE
  8
0
  6
CONTINUOUS
 62
   249
 10
231.989729
 20
206.164635
 30
0.0
 11
229.643963
 21
207.499989
 31
0.0
  0
LINE
  8
0
  6
CONTINUOUS
 62
   249
 10
229.643963
 20
207.499989
 30
0.0
 11
231.989729
 21
208.689908
 31
0.0
  0
ARC
  8
0
  6
CONTINUOUS
 62
   249
 10
282.5
 20
142.5
 30
0.0
 40
0.5
 50
180.0
 51
0.0
  0
ARC
  8
0
  6
CONTINUOUS
 62
   249
 10
282.5
 20
142.5
 30
0.0
 40
0.5
 50
0.0
 51
180.0
  0
LINE
  8
0
  6
CONTINUOUS
 62
   249
 10
282.5
 20
138.490022
 30
0.0
 11
282.5
 21
135.844365
 31
0.0
  0
LINE
  8
0
  6
CONTINUOUS
 62
   249
 10
281.896305
 20
134.062812
 30
0.0
 11
283.103695
 21
134.062812
 31
0.0
  0
LINE
  8
0
  6
CONTINUOUS
 62
   249
 10
281.463807
 20
134.950325
 30
0.0
 11
283.527182
 21
134.950325
 31
0.0
  0
LINE
  8
0
  6
CONTINUOUS
 62
   249
 10
280.968237
 20
135.844365
 30
0.0
 11
284.031763
 21
135.844365
 31
0.0
  0
ARC
  8
0
  6
CONTINUOUS
 62
   249
 10
270.0
 20
162.5
 30
0.0
 40
0.5
 50
180.0
 51
0.0
  0
ARC
  8
0
  6
CONTINUOUS
 62
   249
 10
270.0
 20
162.5
 30
0.0
 40
0.5
 50
0.0
 51
180.0
  0
ARC
  8
0
  6
CONTINUOUS
 62
   249
 10
285.0
 20
162.5
 30
0.0
 40
0.5
 50
180.0
 51
0.0
  0
ARC
  8
0
  6
CONTINUOUS
 62
   249
 10
285.0
 20
162.5
 30
0.0
 40
0.5
 50
0.0
 51
180.0
  0
LINE
  8
0
  6
CONTINUOUS
 62
   249
 10
285.0
 20
160.990022
 30
0.0
 11
285.0
 21
158.344365
 31
0.0
  0
LINE
  8
0
  6
CONTINUOUS
 62
   249
 10
284.396305
 20
156.562812
 30
0.0
 11
285.603695
 21
156.562812
 31
0.0
  0
LINE
  8
0
  6
CONTINUOUS
 62
   249
 10
283.963807
 20
157.450325
 30
0.0
 11
286.027182
 21
157.450325
 31
0.0
  0
LINE
  8
0
  6
CONTINUOUS
 62
   249
 10
283.468237
 20
158.344365
 30
0.0
 11
286.531763
 21
158.344365
 31
0.0
  0
ARC
  8
0
  6
CONTINUOUS
 62
   249
 10
285.0
 20
167.689984
 30
0.0
 40
0.5
 50
180.0
 51
0.0
  0
ARC
  8
0
  6
CONTINUOUS
 62
   249
 10
285.0
 20
167.689984
 30
0.0
 40
0.5
 50
0.0
 51
180.0
  0
LINE
  8
0
  6
CONTINUOUS
 62
   249
 10
292.5
 20
138.490022
 30
0.0
 11
292.5
 21
135.844365
 31
0.0
  0
LINE
  8
0
  6
CONTINUOUS
 62
   249
 10
291.896305
 20
134.062812
 30
0.0
 11
293.103695
 21
134.062812
 31
0.0
  0
LINE
  8
0
  6
CONTINUOUS
 62
   249
 10
291.463807
 20
134.950325
 30
0.0
 11
293.527182
 21
134.950325
 31
0.0
  0
LINE
  8
0
  6
CONTINUOUS
 62
   249
 10
290.968237
 20
135.844365
 30
0.0
 11
294.031763
 21
135.844365
 31
0.0
  0
INSERT
  8
0
  6
CENTER
 62
   249
  2
BLC26
 10
296.41053
 20
144.890461
 30
0.0
 41
1.006225
 42
1.006225
 50
180.0
 43
1.006225
  0
ARC
  8
0
  6
CONTINUOUS
 62
   249
 10
292.5
 20
160.0
 30
0.0
 40
0.5
 50
180.0
 51
0.0
  0
ARC
  8
0
  6
CONTINUOUS
 62
   249
 10
292.5
 20
160.0
 30
0.0
 40
0.5
 50
0.0
 51
180.0
  0
INSERT
  8
0
  6
CENTER
 62
   249
  2
BLC26
 10
301.410526
 20
170.080446
 30
0.0
 41
1.006225
 42
1.006225
 50
180.0
 43
1.006225
  0
ARC
  8
0
  6
CONTINUOUS
 62
   249
 10
270.0
 20
182.5
 30
0.0
 40
0.5
 50
180.0
 51
0.0
  0
ARC
  8
0
  6
CONTINUOUS
 62
   249
 10
270.0
 20
182.5
 30
0.0
 40
0.5
 50
0.0
 51
180.0
  0
ARC
  8
0
  6
CONTINUOUS
 62
   249
 10
285.0
 20
187.689984
 30
0.0
 40
0.5
 50
180.0
 51
0.0
  0
ARC
  8
0
  6
CONTINUOUS
 62
   249
 10
285.0
 20
187.689984
 30
0.0
 40
0.5
 50
0.0
 51
180.0
  0
INSERT
  8
0
  6
CENTER
 62
   249
  2
BLC26
 10
296.43164
 20
190.080445
 30
0.0
 41
1.006225
 42
1.006225
 50
180.0
 43
1.006225
  0
LINE
  8
0
  6
CONTINUOUS
 62
   249
 10
305.451992
 20
184.618962
 30
0.0
 11
305.451992
 21
175.469134
 31
0.0
  0
INSERT
  8
0
  6
CONTINUOUS
 62
   249
  2
BLC29
 10
305.584738
 20
177.829699
 30
0.0
 50
270.0
  0
INSERT
  8
0
  6
CENTER
 62
   249
  2
BLC26
 10
291.410524
 20
210.080448
 30
0.0
 41
1.006225
 42
1.006225
 50
180.0
 43
1.006225
  0
INSERT
  8
0
  6
CENTER
 62
   249
  2
BLC26
 10
316.046562
 20
227.609534
 30
0.0
 41
1.006225
 42
1.006225
 43
1.006225
  0
ARC
  8
0
  6
CONTINUOUS
 62
   249
 10
300.0
 20
242.5
 30
0.0
 40
0.5
 50
180.0
 51
0.0
  0
ARC
  8
0
  6
CONTINUOUS
 62
   249
 10
300.0
 20
242.5
 30
0.0
 40
0.5
 50
0.0
 51
180.0
  0
ARC
  8
0
  6
CONTINUOUS
 62
   249
 10
295.0
 20
247.5
 30
0.0
 40
0.5
 50
180.0
 51
0.0
  0
ARC
  8
0
  6
CONTINUOUS
 62
   249
 10
295.0
 20
247.5
 30
0.0
 40
0.5
 50
0.0
 51
180.0
  0
ARC
  8
0
  6
CONTINUOUS
 62
   249
 10
290.0
 20
252.5
 30
0.0
 40
0.5
 50
180.0
 51
0.0
  0
ARC
  8
0
  6
CONTINUOUS
 62
   249
 10
290.0
 20
252.5
 30
0.0
 40
0.5
 50
0.0
 51
180.0
  0
ARC
  8
0
  6
CONTINUOUS
 62
   249
 10
317.5
 20
252.5
 30
0.0
 40
0.5
 50
180.0
 51
0.0
  0
ARC
  8
0
  6
CONTINUOUS
 62
   249
 10
317.5
 20
252.5
 30
0.0
 40
0.5
 50
0.0
 51
180.0
  0
ARC
  8
0
  6
CONTINUOUS
 62
   249
 10
340.0
 20
140.0
 30
0.0
 40
0.5
 50
180.0
 51
0.0
  0
ARC
  8
0
  6
CONTINUOUS
 62
   249
 10
340.0
 20
140.0
 30
0.0
 40
0.5
 50
0.0
 51
180.0
  0
ARC
  8
0
  6
CONTINUOUS
 62
   249
 10
347.5
 20
135.0
 30
0.0
 40
0.5
 50
180.0
 51
0.0
  0
ARC
  8
0
  6
CONTINUOUS
 62
   249
 10
347.5
 20
135.0
 30
0.0
 40
0.5
 50
0.0
 51
180.0
  0
LINE
  8
0
  6
CONTINUOUS
 62
   249
 10
363.220143
 20
177.613722
 30
0.0
 11
361.97147
 21
178.324544
 31
0.0
  0
LINE
  8
0
  6
CONTINUOUS
 62
   249
 10
361.97147
 20
178.324544
 30
0.0
 11
363.220143
 21
178.957949
 31
0.0
  0
LINE
  8
0
  6
CONTINUOUS
 62
   249
 10
363.220143
 20
189.75005
 30
0.0
 11
361.97147
 21
190.460872
 31
0.0
  0
LINE
  8
0
  6
CONTINUOUS
 62
   249
 10
361.97147
 20
190.460872
 30
0.0
 11
363.220143
 21
191.094277
 31
0.0
  0
LINE
  8
0
  6
CONTINUOUS
 62
   249
 10
366.844508
 20
179.04868
 30
0.0
 11
368.093182
 21
178.337859
 31
0.0
  0
LINE
  8
0
  6
CONTINUOUS
 62
   249
 10
368.093182
 20
178.337859
 30
0.0
 11
366.844508
 21
177.704454
 31
0.0
  0
LINE
  8
0
  6
CONTINUOUS
 62
   249
 10
366.844508
 20
191.185008
 30
0.0
 11
368.093182
 21
190.474187
 31
0.0
  0
LINE
  8
0
  6
CONTINUOUS
 62
   249
 10
368.093182
 20
190.474187
 30
0.0
 11
366.844508
 21
189.840781
 31
0.0
  0
LINE
  8
0
  6
CONTINUOUS
 62
   249
 10
364.286581
 20
206.522253
 30
0.0
 11
365.173467
 21
206.522253
 31
0.0
  0
LINE
  8
0
  6
CONTINUOUS
 62
   249
 10
363.955476
 20
207.133886
 30
0.0
 11
365.540047
 21
207.133886
 31
0.0
  0
LINE
  8
0
  6
CONTINUOUS
 62
   249
 10
364.771412
 20
207.755948
 30
0.0
 11
365.965753
 21
207.755948
 31
0.0
  0
LINE
  8
0
  6
CONTINUOUS
 62
   249
 10
363.577071
 20
207.755948
 30
0.0
 11
364.771412
 21
207.755948
 31
0.0
  0
LINE
  8
0
  6
CONTINUOUS
 62
   249
 10
364.787299
 20
209.110219
 30
0.0
 11
364.787299
 21
207.755948
 31
0.0
  0
LINE
  8
0
  6
CONTINUOUS
 62
   249
 10
364.105614
 20
213.305092
 30
0.0
 11
365.354287
 21
212.594271
 31
0.0
  0
LINE
  8
0
  6
CONTINUOUS
 62
   249
 10
365.354287
 20
212.594271
 30
0.0
 11
364.105614
 21
211.960866
 31
0.0
  0
LINE
  8
0
  6
CONTINUOUS
 62
   249
 10
363.220143
 20
198.711811
 30
0.0
 11
361.97147
 21
199.422632
 31
0.0
  0
LINE
  8
0
  6
CONTINUOUS
 62
   249
 10
361.97147
 20
199.422632
 30
0.0
 11
363.220143
 21
200.056038
 31
0.0
  0
LINE
  8
0
  6
CONTINUOUS
 62
   249
 10
366.844508
 20
200.146769
 30
0.0
 11
368.093182
 21
199.435947
 31
0.0
  0
LINE
  8
0
  6
CONTINUOUS
 62
   249
 10
368.093182
 20
199.435947
 30
0.0
 11
366.844508
 21
198.802542
 31
0.0
  0
LINE
  8
0
  6
CONTINUOUS
 62
   249
 10
346.509978
 20
220.0
 30
0.0
 11
349.155635
 21
220.0
 31
0.0
  0
LINE
  8
0
  6
CONTINUOUS
 62
   249
 10
350.937188
 20
219.396305
 30
0.0
 11
350.937188
 21
220.603695
 31
0.0
  0
LINE
  8
0
  6
CONTINUOUS
 62
   249
 10
350.049675
 20
218.963807
 30
0.0
 11
350.049675
 21
221.027182
 31
0.0
  0
LINE
  8
0
  6
CONTINUOUS
 62
   249
 10
349.155635
 20
218.468237
 30
0.0
 11
349.155635
 21
221.531763
 31
0.0
  0
LINE
  8
0
  6
CONTINUOUS
 62
   249
 10
346.509978
 20
225.18998
 30
0.0
 11
349.155635
 21
225.18998
 31
0.0
  0
LINE
  8
0
  6
CONTINUOUS
 62
   249
 10
350.937188
 20
224.586285
 30
0.0
 11
350.937188
 21
225.793675
 31
0.0
  0
LINE
  8
0
  6
CONTINUOUS
 62
   249
 10
350.049675
 20
224.153787
 30
0.0
 11
350.049675
 21
226.217163
 31
0.0
  0
LINE
  8
0
  6
CONTINUOUS
 62
   249
 10
349.155635
 20
223.658217
 30
0.0
 11
349.155635
 21
226.721743
 31
0.0
  0
INSERT
  8
0
  6
CENTER
 62
   249
  2
BLC26
 10
323.546562
 20
227.609534
 30
0.0
 41
1.006225
 42
1.006225
 43
1.006225
  0
INSERT
  8
0
  6
CENTER
 62
   249
  2
BLC26
 10
331.046562
 20
227.609534
 30
0.0
 41
1.006225
 42
1.006225
 43
1.006225
  0
ARC
  8
0
  6
CONTINUOUS
 62
   249
 10
342.5
 20
220.0
 30
0.0
 40
0.5
 50
180.0
 51
0.0
  0
ARC
  8
0
  6
CONTINUOUS
 62
   249
 10
342.5
 20
220.0
 30
0.0
 40
0.5
 50
0.0
 51
180.0
  0
ARC
  8
0
  6
CONTINUOUS
 62
   249
 10
332.5
 20
242.5
 30
0.0
 40
0.5
 50
180.0
 51
0.0
  0
ARC
  8
0
  6
CONTINUOUS
 62
   249
 10
332.5
 20
242.5
 30
0.0
 40
0.5
 50
0.0
 51
180.0
  0
ARC
  8
0
  6
CONTINUOUS
 62
   249
 10
325.0
 20
247.5
 30
0.0
 40
0.5
 50
180.0
 51
0.0
  0
ARC
  8
0
  6
CONTINUOUS
 62
   249
 10
325.0
 20
247.5
 30
0.0
 40
0.5
 50
0.0
 51
180.0
  0
LINE
  8
0
  6
CONTINUOUS
 62
   249
 10
364.286581
 20
219.175394
 30
0.0
 11
365.173467
 21
219.175394
 31
0.0
  0
LINE
  8
0
  6
CONTINUOUS
 62
   249
 10
363.955476
 20
219.787027
 30
0.0
 11
365.540047
 21
219.787027
 31
0.0
  0
LINE
  8
0
  6
CONTINUOUS
 62
   249
 10
364.771412
 20
220.40909
 30
0.0
 11
365.965753
 21
220.40909
 31
0.0
  0
LINE
  8
0
  6
CONTINUOUS
 62
   249
 10
363.577071
 20
220.40909
 30
0.0
 11
364.771412
 21
220.40909
 31
0.0
  0
LINE
  8
0
  6
CONTINUOUS
 62
   249
 10
364.787299
 20
221.76336
 30
0.0
 11
364.787299
 21
220.40909
 31
0.0
  0
LINE
  8
0
  6
CONTINUOUS
 62
   249
 10
363.220143
 20
237.613722
 30
0.0
 11
361.97147
 21
238.324544
 31
0.0
  0
LINE
  8
0
  6
CONTINUOUS
 62
   249
 10
361.97147
 20
238.324544
 30
0.0
 11
363.220143
 21
238.957949
 31
0.0
  0
LINE
  8
0
  6
CONTINUOUS
 62
   249
 10
363.220143
 20
249.75005
 30
0.0
 11
361.97147
 21
250.460872
 31
0.0
  0
LINE
  8
0
  6
CONTINUOUS
 62
   249
 10
361.97147
 20
250.460872
 30
0.0
 11
363.220143
 21
251.094277
 31
0.0
  0
LINE
  8
0
  6
CONTINUOUS
 62
   249
 10
366.844508
 20
239.04868
 30
0.0
 11
368.093182
 21
238.337859
 31
0.0
  0
LINE
  8
0
  6
CONTINUOUS
 62
   249
 10
368.093182
 20
238.337859
 30
0.0
 11
366.844508
 21
237.704454
 31
0.0
  0
LINE
  8
0
  6
CONTINUOUS
 62
   249
 10
366.844508
 20
251.185008
 30
0.0
 11
368.093182
 21
250.474187
 31
0.0
  0
LINE
  8
0
  6
CONTINUOUS
 62
   249
 10
368.093182
 20
250.474187
 30
0.0
 11
366.844508
 21
249.840781
 31
0.0
  0
ENDSEC
  0
EOF
