  0
SECTION
  2
HEADER
  9
$ACADVER
  1
AC1009
  9
$INSBASE
 10
0.0
 20
0.0
 30
0.0
  9
$EXTMIN
 10
0.237099
 20
0.237999
 30
0.0
  9
$EXTMAX
 10
392.237099
 20
262.737999
 30
0.0
  9
$LIMMIN
 10
0.0
 20
0.0
  9
$LIMMAX
 10
12.0
 20
9.0
  9
$ORTHOMODE
 70
     1
  9
$REGENMODE
 70
     1
  9
$FILLMODE
 70
     1
  9
$QTEXTMODE
 70
     0
  9
$MIRRTEXT
 70
     1
  9
$DRAGMODE
 70
     2
  9
$LTSCALE
 40
5.0
  9
$OSMODE
 70
     0
  9
$ATTMODE
 70
     1
  9
$TEXTSIZE
 40
2.0
  9
$TRACEWID
 40
0.05
  9
$TEXTSTYLE
  7
ROMANS
  9
$CLAYER
  8
0
  9
$CELTYPE
  6
CONTINUOUS
  9
$CECOLOR
 62
   256
  9
$DIMSCALE
 40
1.0
  9
$DIMASZ
 40
0.18
  9
$DIMEXO
 40
0.0625
  9
$DIMDLI
 40
0.38
  9
$DIMRND
 40
0.0
  9
$DIMDLE
 40
0.0
  9
$DIMEXE
 40
0.18
  9
$DIMTP
 40
0.0
  9
$DIMTM
 40
0.0
  9
$DIMTXT
 40
0.18
  9
$DIMCEN
 40
0.09
  9
$DIMTSZ
 40
0.0
  9
$DIMTOL
 70
     0
  9
$DIMLIM
 70
     0
  9
$DIMTIH
 70
     1
  9
$DIMTOH
 70
     1
  9
$DIMSE1
 70
     0
  9
$DIMSE2
 70
     0
  9
$DIMTAD
 70
     0
  9
$DIMZIN
 70
     0
  9
$DIMBLK
  1

  9
$DIMASO
 70
     1
  9
$DIMSHO
 70
     1
  9
$DIMPOST
  1

  9
$DIMAPOST
  1

  9
$DIMALT
 70
     0
  9
$DIMALTD
 70
     2
  9
$DIMALTF
 40
25.4
  9
$DIMLFAC
 40
1.0
  9
$DIMTOFL
 70
     0
  9
$DIMTVP
 40
0.0
  9
$DIMTIX
 70
     0
  9
$DIMSOXD
 70
     0
  9
$DIMSAH
 70
     0
  9
$DIMBLK1
  1

  9
$DIMBLK2
  1

  9
$DIMSTYLE
  2
*UNNAMED
  9
$DIMCLRD
 70
     0
  9
$DIMCLRE
 70
     0
  9
$DIMCLRT
 70
     0
  9
$DIMTFAC
 40
1.0
  9
$DIMGAP
 40
0.09
  9
$LUNITS
 70
     2
  9
$LUPREC
 70
     4
  9
$SKETCHINC
 40
0.1
  9
$FILLETRAD
 40
0.0
  9
$AUNITS
 70
     0
  9
$AUPREC
 70
     0
  9
$MENU
  1
acad
  9
$ELEVATION
 40
0.0
  9
$PELEVATION
 40
0.0
  9
$THICKNESS
 40
0.0
  9
$LIMCHECK
 70
     0
  9
$BLIPMODE
 70
     1
  9
$CHAMFERA
 40
0.0
  9
$CHAMFERB
 40
0.0
  9
$SKPOLY
 70
     0
  9
$TDCREATE
 40
2449147.644946064
  9
$TDUPDATE
 40
2449149.571516203
  9
$TDINDWG
 40
0.0195989583
  9
$TDUSRTIMER
 40
0.0195989583
  9
$USRTIMER
 70
     1
  9
$ANGBASE
 50
0.0
  9
$ANGDIR
 70
     0
  9
$PDMODE
 70
     0
  9
$PDSIZE
 40
0.0
  9
$PLINEWID
 40
0.0
  9
$COORDS
 70
     2
  9
$SPLFRAME
 70
     0
  9
$SPLINETYPE
 70
     6
  9
$SPLINESEGS
 70
     8
  9
$ATTDIA
 70
     0
  9
$ATTREQ
 70
     1
  9
$HANDLING
 70
     0
  9
$HANDSEED
  5
0
  9
$SURFTAB1
 70
   250
  9
$SURFTAB2
 70
   250
  9
$SURFTYPE
 70
     6
  9
$SURFU
 70
     6
  9
$SURFV
 70
     6
  9
$UCSNAME
  2

  9
$UCSORG
 10
0.0
 20
0.0
 30
0.0
  9
$UCSXDIR
 10
1.0
 20
0.0
 30
0.0
  9
$UCSYDIR
 10
0.0
 20
1.0
 30
0.0
  9
$PUCSNAME
  2

  9
$PUCSORG
 10
0.0
 20
0.0
 30
0.0
  9
$PUCSXDIR
 10
1.0
 20
0.0
 30
0.0
  9
$PUCSYDIR
 10
0.0
 20
1.0
 30
0.0
  9
$USERI1
 70
     0
  9
$USERI2
 70
     0
  9
$USERI3
 70
     0
  9
$USERI4
 70
     0
  9
$USERI5
 70
     0
  9
$USERR1
 40
0.0
  9
$USERR2
 40
0.0
  9
$USERR3
 40
0.0
  9
$USERR4
 40
0.0
  9
$USERR5
 40
0.0
  9
$WORLDVIEW
 70
     1
  9
$SHADEDGE
 70
     3
  9
$SHADEDIF
 70
    70
  9
$TILEMODE
 70
     1
  9
$MAXACTVP
 70
    16
  9
$PINSBASE
 10
0.0
 20
0.0
 30
0.0
  9
$PLIMCHECK
 70
     0
  9
$PEXTMIN
 10
1.000000E+20
 20
1.000000E+20
 30
1.000000E+20
  9
$PEXTMAX
 10
-1.000000E+20
 20
-1.000000E+20
 30
-1.000000E+20
  9
$PLIMMIN
 10
0.0
 20
0.0
  9
$PLIMMAX
 10
12.0
 20
9.0
  9
$UNITMODE
 70
     0
  9
$VISRETAIN
 70
     0
  9
$PLINEGEN
 70
     0
  9
$PSLTSCALE
 70
     0
  9
$TREEDEPTH
 70
  3020
  9
$DWGCODEPAGE
  3
undefined
  0
ENDSEC
  0
SECTION
  2
TABLES
  0
TABLE
  2
VPORT
 70
     2
  0
VPORT
  2
*ACTIVE
 70
     0
 10
0.0
 20
0.0
 11
1.0
 21
1.0
 12
222.522843
 22
142.040485
 13
0.0
 23
0.0
 14
2.5
 24
2.5
 15
0.0
 25
0.0
 16
0.0
 26
0.0
 36
1.0
 17
0.0
 27
0.0
 37
0.0
 40
284.080971
 41
1.566616
 42
50.0
 43
0.0
 44
0.0
 50
0.0
 51
0.0
 71
     0
 72
   100
 73
     1
 74
     1
 75
     1
 76
     0
 77
     0
 78
     0
  0
ENDTAB
  0
TABLE
  2
LTYPE
 70
     4
  0
LTYPE
  2
CONTINUOUS
 70
    64
  3
Solid line
 72
    65
 73
     0
 40
0.0
  0
LTYPE
  2
DASHED
 70
    64
  3
__ __ __ __ __ __ __ __ __ __ __ __ __ __ __ __
 72
    65
 73
     2
 40
0.75
 49
0.5
 49
-0.25
  0
LTYPE
  2
CENTER
 70
    64
  3
____ _ ____ _ ____ _ ____ _ ____ _ ____ _ ____ 
 72
    65
 73
     4
 40
2.0
 49
1.25
 49
-0.25
 49
0.25
 49
-0.25
  0
LTYPE
  2
HIDDEN
 70
    64
  3
__ __ __ __ __ __ __ __ __ __ __ __ __ __ __ __
 72
    65
 73
     2
 40
0.375
 49
0.25
 49
-0.125
  0
ENDTAB
  0
TABLE
  2
LAYER
 70
    14
  0
LAYER
  2
0
 70
    64
 62
     7
  6
CONTINUOUS
  0
LAYER
  2
RAAMI
 70
    64
 62
    -4
  6
CONTINUOUS
  0
LAYER
  2
PAKSU
 70
    64
 62
    -3
  6
CONTINUOUS
  0
LAYER
  2
OHUT
 70
    64
 62
    -6
  6
CONTINUOUS
  0
LAYER
  2
SWEDEN
 70
    64
 62
    -7
  6
CONTINUOUS
  0
LAYER
  2
SWEDEN2
 70
    64
 62
    -5
  6
CONTINUOUS
  0
LAYER
  2
BASE
 70
    64
 62
    -7
  6
CONTINUOUS
  0
LAYER
  2
21
 70
    64
 62
    -2
  6
CONTINUOUS
  0
LAYER
  2
HEL035
 70
    64
 62
    -7
  6
CONTINUOUS
  0
LAYER
  2
MUO
 70
    64
 62
    -7
  6
CONTINUOUS
  0
LAYER
  2
1
 70
    64
 62
    -2
  6
CONTINUOUS
  0
LAYER
  2
BASE1
 70
    64
 62
    -1
  6
CONTINUOUS
  0
LAYER
  2
TEKS
 70
    64
 62
    -5
  6
CONTINUOUS
  0
LAYER
  2
DEFPOINTS
 70
    64
 62
    -7
  6
CONTINUOUS
  0
ENDTAB
  0
TABLE
  2
STYLE
 70
     3
  0
STYLE
  2
STANDARD
 70
    64
 40
0.0
 41
1.0
 50
0.0
 71
     0
 42
2.0
  3
txt
  4

  0
STYLE
  2
ROMANS
 70
    64
 40
0.0
 41
1.0
 50
0.0
 71
     0
 42
2.0
  3
romans
  4

  0
STYLE
  2
GREEKS
 70
     0
 40
0.0
 41
1.0
 50
0.0
 71
     0
 42
2.5
  3
TXT
  4

  0
ENDTAB
  0
TABLE
  2
VIEW
 70
     0
  0
ENDTAB
  0
TABLE
  2
UCS
 70
     0
  0
ENDTAB
  0
TABLE
  2
APPID
 70
     1
  0
APPID
  2
ACAD
 70
    64
  0
ENDTAB
  0
TABLE
  2
DIMSTYLE
 70
     0
  0
ENDTAB
  0
ENDSEC
  0
SECTION
  2
BLOCKS
  0
BLOCK
  8
0
  2
1
 70
    64
 10
0.0
 20
0.0
 30
0.0
  3
1
  0
ENDBLK
  8
0
  0
BLOCK
  8
0
  2
BLC16
 70
     0
 10
0.0
 20
0.0
 30
0.0
  3
BLC16
  0
LINE
  8
0
  6
CONTINUOUS
 10
0.007689
 20
38.054928
 30
0.0
 11
19.983683
 21
38.054928
 31
0.0
  0
LINE
  8
0
  6
CONTINUOUS
 10
19.983683
 20
38.054928
 30
0.0
 11
19.983683
 21
-0.003751
 31
0.0
  0
LINE
  8
0
  6
CONTINUOUS
 10
19.983683
 20
-0.003751
 30
0.0
 11
0.007689
 21
-0.003751
 31
0.0
  0
LINE
  8
0
  6
CONTINUOUS
 10
0.007689
 20
-0.003751
 30
0.0
 11
0.007689
 21
38.054928
 31
0.0
  0
LINE
  8
0
  6
CONTINUOUS
 10
14.152643
 20
36.919738
 30
0.0
 11
14.152643
 21
33.528469
 31
0.0
  0
LINE
  8
0
  6
CONTINUOUS
 10
14.152643
 20
33.528469
 30
0.0
 11
11.560435
 21
33.528469
 31
0.0
  0
LINE
  8
0
  6
CONTINUOUS
 10
11.560435
 20
33.528469
 30
0.0
 11
11.560435
 21
30.778433
 31
0.0
  0
LINE
  8
0
  6
CONTINUOUS
 10
11.560435
 20
30.778433
 30
0.0
 11
14.152643
 21
30.778433
 31
0.0
  0
LINE
  8
0
  6
CONTINUOUS
 10
14.152643
 20
30.778433
 30
0.0
 11
14.152643
 21
27.387164
 31
0.0
  0
TEXT
  8
0
  6
CONTINUOUS
 10
6.558569
 20
30.805266
 30
0.0
 40
2.5
  1
2
 11
6.558569
 21
29.971932
 31
0.0
 73
     1
  0
TEXT
  8
0
  6
CONTINUOUS
 10
6.553289
 20
23.854078
 30
0.0
 40
2.5
  1
2 I
 11
6.553289
 21
23.020744
 31
0.0
 73
     1
  0
LINE
  8
0
  6
CONTINUOUS
 10
12.942534
 20
26.359129
 30
0.0
 11
15.288299
 21
25.023775
 31
0.0
  0
LINE
  8
0
  6
CONTINUOUS
 10
15.288299
 20
25.023775
 30
0.0
 11
12.942534
 21
23.833856
 31
0.0
  0
LINE
  8
0
  6
CONTINUOUS
 10
14.169823
 20
26.359129
 30
0.0
 11
16.515589
 21
25.023775
 31
0.0
  0
LINE
  8
0
  6
CONTINUOUS
 10
16.515589
 20
25.023775
 30
0.0
 11
14.169823
 21
23.833856
 31
0.0
  0
TEXT
  8
0
  6
CONTINUOUS
 10
11.566446
 20
19.235679
 30
0.0
 40
2.5
  1
I
 11
11.566446
 21
18.402346
 31
0.0
 73
     1
  0
TEXT
  8
0
  6
CONTINUOUS
 10
13.018181
 20
18.902346
 30
0.0
 40
1.5
  1
2
 11
13.018181
 21
18.402346
 31
0.0
 73
     1
  0
LINE
  8
0
  6
CONTINUOUS
 10
10.65733
 20
12.773825
 30
0.0
 11
13.003095
 21
13.963744
 31
0.0
  0
LINE
  8
0
  6
CONTINUOUS
 10
13.003095
 20
11.438471
 30
0.0
 11
10.65733
 21
12.773825
 31
0.0
  0
LINE
  8
0
  6
CONTINUOUS
 10
6.557002
 20
16.714658
 30
0.0
 11
15.281743
 21
16.714658
 31
0.0
  0
LINE
  8
0
  6
CONTINUOUS
 10
6.557002
 20
17.523984
 30
0.0
 11
6.557002
 21
15.908791
 31
0.0
  0
LINE
  8
0
  6
CONTINUOUS
 10
15.286518
 20
17.523984
 30
0.0
 11
15.286518
 21
15.908791
 31
0.0
  0
ARC
  8
0
  6
CONTINUOUS
 10
12.684846
 20
18.508045
 30
0.0
 40
2.922744
 50
193.105513
 51
283.105513
  0
TEXT
  8
0
  6
CONTINUOUS
 10
6.557002
 20
11.567974
 30
0.0
 40
2.5
  1
2I
 11
6.557002
 21
10.734641
 31
0.0
 73
     1
  0
LINE
  8
0
  6
CONTINUOUS
 10
6.557002
 20
9.441103
 30
0.0
 11
15.281743
 21
9.441103
 31
0.0
  0
LINE
  8
0
  6
CONTINUOUS
 10
15.286518
 20
10.250429
 30
0.0
 11
15.286518
 21
8.635236
 31
0.0
  0
LINE
  8
0
  6
CONTINUOUS
 10
6.557002
 20
10.250429
 30
0.0
 11
6.557002
 21
8.635236
 31
0.0
  0
TEXT
  8
0
  6
CONTINUOUS
 10
6.557002
 20
4.778631
 30
0.0
 40
2.5
  1
I
 11
6.557002
 21
3.945298
 31
0.0
 73
     1
  0
LINE
  8
0
  6
CONTINUOUS
 10
9.509029
 20
6.822462
 30
0.0
 11
9.509029
 21
5.477736
 31
0.0
  0
LINE
  8
0
  6
CONTINUOUS
 10
8.615065
 20
5.477736
 30
0.0
 11
9.52622
 21
5.477736
 31
0.0
  0
LINE
  8
0
  6
CONTINUOUS
 10
9.509029
 20
5.477736
 30
0.0
 11
10.402992
 21
5.477736
 31
0.0
  0
LINE
  8
0
  6
CONTINUOUS
 10
8.901592
 20
5.082328
 30
0.0
 11
9.509029
 21
5.082328
 31
0.0
  0
LINE
  8
0
  6
CONTINUOUS
 10
9.509029
 20
5.082328
 30
0.0
 11
10.150849
 21
5.082328
 31
0.0
  0
LINE
  8
0
  6
CONTINUOUS
 10
9.981861
 20
4.719969
 30
0.0
 11
9.072041
 21
4.719969
 31
0.0
  0
LINE
  8
0
  6
CONTINUOUS
 10
15.286518
 20
2.797924
 30
0.0
 11
15.286518
 21
1.182731
 31
0.0
  0
LINE
  8
0
  6
CONTINUOUS
 10
6.557002
 20
1.988598
 30
0.0
 11
15.281743
 21
1.988598
 31
0.0
  0
LINE
  8
0
  6
CONTINUOUS
 10
6.557002
 20
2.797924
 30
0.0
 11
6.557002
 21
1.182731
 31
0.0
  0
ENDBLK
  8
0
  0
BLOCK
  8
0
  2
BLC27
 70
    64
 10
0.0
 20
0.0
 30
0.0
  3
BLC27
  0
INSERT
  8
SWEDEN2
  6
CENTER
  2
BLC26
 10
0.08063
 20
0.037985
 30
0.0
 41
1.006225
 42
1.006225
 43
1.006225
  0
ENDBLK
  8
0
  0
BLOCK
  8
0
  2
BLC26
 70
    64
 10
0.0
 20
0.0
 30
0.0
  3
BLC26
  0
ARC
  8
0
  6
CONTINUOUS
 10
-0.180576
 20
1.17922
 30
0.0
 40
1.196859
 50
90.0
 51
265.706237
  0
LINE
  8
0
  6
CONTINUOUS
 10
-0.186638
 20
-0.01092
 30
0.0
 11
0.458942
 21
-0.01092
 31
0.0
  0
LINE
  8
0
  6
CONTINUOUS
 10
-0.186638
 20
2.375671
 30
0.0
 11
0.45288
 21
2.375671
 31
0.0
  0
LINE
  8
0
  6
CONTINUOUS
 10
-0.185509
 20
-2.404629
 30
0.0
 11
0.460071
 21
-2.404629
 31
0.0
  0
ARC
  8
0
  6
CONTINUOUS
 10
-0.180576
 20
-1.207779
 30
0.0
 40
1.196859
 50
90.0
 51
270.0
  0
LINE
  8
0
  6
CONTINUOUS
 10
0.451525
 20
-2.404586
 30
0.0
 11
1.401805
 21
-2.404586
 31
0.0
  0
LINE
  8
0
  6
CONTINUOUS
 10
0.446785
 20
2.375674
 30
0.0
 11
1.418544
 21
2.375674
 31
0.0
  0
LINE
  8
0
  6
CONTINUOUS
 10
0.456627
 20
-0.010911
 30
0.0
 11
1.422749
 21
-0.010911
 31
0.0
  0
ENDBLK
  8
0
  0
BLOCK
  8
0
  2
BLC22
 70
     0
 10
0.0
 20
0.0
 30
0.0
  3
BLC22
  0
LINE
  8
HEL035
 10
0.0
 20
-0.00155
 30
0.0
 11
0.0
 21
9.99845
 31
0.0
  0
LINE
  8
21
 10
2.5
 20
10.0
 30
0.0
 11
5.0
 21
10.0
 31
0.0
  0
LINE
  8
HEL035
 10
0.0
 20
9.99845
 30
0.0
 11
2.5
 21
9.99845
 31
0.0
  0
LINE
  8
HEL035
 10
-2.5
 20
5.0
 30
0.0
 11
2.5
 21
5.0
 31
0.0
  0
LINE
  8
21
 10
2.5
 20
5.0
 30
0.0
 11
5.0
 21
5.0
 31
0.0
  0
LINE
  8
21
 10
5.0
 20
5.0
 30
0.0
 11
5.0
 21
7.9
 31
0.0
  0
LINE
  8
HEL035
 10
3.88095
 20
6.944425
 30
0.0
 11
4.560313
 21
6.008681
 31
0.0
  0
LINE
  8
21
 10
10.0
 20
10.0
 30
0.0
 11
4.2
 21
6.5
 31
0.0
  0
LINE
  8
HEL035
 10
2.5
 20
-0.00155
 30
0.0
 11
0.0
 21
-0.00155
 31
0.0
  0
LINE
  8
21
 10
2.5
 20
0.0
 30
0.0
 11
5.0
 21
0.0
 31
0.0
  0
ENDBLK
  8
0
  0
BLOCK
  8
0
  2
BLC18
 70
     0
 10
0.0
 20
0.0
 30
0.0
  3
BLC18
  0
LINE
  8
MUO
 10
-0.056268
 20
0.849555
 30
0.0
 11
8.307242
 21
9.215502
 31
0.0
  0
LINE
  8
MUO
 10
0.928025
 20
-0.107047
 30
0.0
 11
9.268386
 21
8.2307
 31
0.0
  0
LINE
  8
MUO
 10
-0.056268
 20
-0.107047
 30
0.0
 11
-0.056268
 21
9.215502
 31
0.0
  0
LINE
  8
MUO
 10
9.268386
 20
-0.107047
 30
0.0
 11
-0.056268
 21
-0.107047
 31
0.0
  0
LINE
  8
MUO
 10
9.268386
 20
9.215502
 30
0.0
 11
9.268386
 21
-0.107047
 31
0.0
  0
LINE
  8
MUO
 10
-0.056268
 20
9.215502
 30
0.0
 11
9.268386
 21
9.215502
 31
0.0
  0
ENDBLK
  8
0
  0
BLOCK
  8
0
  2
BLC29
 70
    64
 10
0.0
 20
0.0
 30
0.0
  3
BLC29
  0
LINE
  8
0
  6
CONTINUOUS
 10
0.004865
 20
1.206889
 30
0.0
 11
2.350631
 21
-0.128465
 31
0.0
  0
LINE
  8
0
  6
CONTINUOUS
 10
2.350631
 20
-0.128465
 30
0.0
 11
0.004865
 21
-1.318384
 31
0.0
  0
ENDBLK
  8
0
  0
BLOCK
  8
0
  2
WKU130
 70
    64
 10
190.0
 20
250.0
 30
0.0
  3
WKU130
  0
ARC
  8
21
 10
191.083333
 20
249.916667
 30
0.0
 40
1.086534
 50
32.471192
 51
175.601295
  0
ARC
  8
21
 10
192.916667
 20
251.083333
 30
0.0
 40
1.086534
 50
212.471192
 51
355.601295
  0
ENDBLK
  8
0
  0
BLOCK
  8
0
  2
*X8
 70
    65
 10
0.0
 20
0.0
 30
0.0
  3
*X
  0
LINE
  8
0
 62
     0
 10
2.284499
 20
6.52714
 30
0.0
 11
4.8
 21
9.042641
 31
0.0
  0
LINE
  8
0
 62
     0
 10
2.379686
 20
6.799104
 30
0.0
 11
4.8
 21
9.219417
 31
0.0
  0
LINE
  8
0
 62
     0
 10
2.474874
 20
7.071068
 30
0.0
 11
4.8
 21
9.396194
 31
0.0
  0
LINE
  8
0
 62
     0
 10
2.570061
 20
7.343032
 30
0.0
 11
4.8
 21
9.572971
 31
0.0
  0
LINE
  8
0
 62
     0
 10
2.665249
 20
7.614996
 30
0.0
 11
4.8
 21
9.749747
 31
0.0
  0
LINE
  8
0
 62
     0
 10
2.760436
 20
7.88696
 30
0.0
 11
4.8
 21
9.926524
 31
0.0
  0
LINE
  8
0
 62
     0
 10
2.855624
 20
8.158924
 30
0.0
 11
4.696699
 21
10.0
 31
0.0
  0
LINE
  8
0
 62
     0
 10
2.950811
 20
8.430889
 30
0.0
 11
4.519922
 21
10.0
 31
0.0
  0
LINE
  8
0
 62
     0
 10
3.045998
 20
8.702853
 30
0.0
 11
4.343146
 21
10.0
 31
0.0
  0
LINE
  8
0
 62
     0
 10
3.141186
 20
8.974817
 30
0.0
 11
4.166369
 21
10.0
 31
0.0
  0
LINE
  8
0
 62
     0
 10
3.236373
 20
9.246781
 30
0.0
 11
3.989592
 21
10.0
 31
0.0
  0
LINE
  8
0
 62
     0
 10
3.331561
 20
9.518745
 30
0.0
 11
3.812816
 21
10.0
 31
0.0
  0
LINE
  8
0
 62
     0
 10
3.426748
 20
9.790709
 30
0.0
 11
3.636039
 21
10.0
 31
0.0
  0
LINE
  8
0
 62
     0
 10
2.189311
 20
6.255175
 30
0.0
 11
4.8
 21
8.865864
 31
0.0
  0
LINE
  8
0
 62
     0
 10
2.094124
 20
5.983211
 30
0.0
 11
4.8
 21
8.689087
 31
0.0
  0
LINE
  8
0
 62
     0
 10
1.998936
 20
5.711247
 30
0.0
 11
4.8
 21
8.512311
 31
0.0
  0
LINE
  8
0
 62
     0
 10
1.903749
 20
5.439283
 30
0.0
 11
4.8
 21
8.335534
 31
0.0
  0
LINE
  8
0
 62
     0
 10
1.841243
 20
5.2
 30
0.0
 11
4.8
 21
8.158757
 31
0.0
  0
LINE
  8
0
 62
     0
 10
2.018019
 20
5.2
 30
0.0
 11
4.8
 21
7.981981
 31
0.0
  0
LINE
  8
0
 62
     0
 10
2.194796
 20
5.2
 30
0.0
 11
4.8
 21
7.805204
 31
0.0
  0
LINE
  8
0
 62
     0
 10
2.371573
 20
5.2
 30
0.0
 11
4.8
 21
7.628427
 31
0.0
  0
LINE
  8
0
 62
     0
 10
2.54835
 20
5.2
 30
0.0
 11
4.8
 21
7.45165
 31
0.0
  0
LINE
  8
0
 62
     0
 10
2.725126
 20
5.2
 30
0.0
 11
4.8
 21
7.274874
 31
0.0
  0
LINE
  8
0
 62
     0
 10
2.901903
 20
5.2
 30
0.0
 11
4.8
 21
7.098097
 31
0.0
  0
LINE
  8
0
 62
     0
 10
3.07868
 20
5.2
 30
0.0
 11
4.8
 21
6.92132
 31
0.0
  0
LINE
  8
0
 62
     0
 10
3.255456
 20
5.2
 30
0.0
 11
4.8
 21
6.744544
 31
0.0
  0
LINE
  8
0
 62
     0
 10
3.432233
 20
5.2
 30
0.0
 11
4.8
 21
6.567767
 31
0.0
  0
LINE
  8
0
 62
     0
 10
3.60901
 20
5.2
 30
0.0
 11
4.8
 21
6.39099
 31
0.0
  0
LINE
  8
0
 62
     0
 10
3.785786
 20
5.2
 30
0.0
 11
4.8
 21
6.214214
 31
0.0
  0
LINE
  8
0
 62
     0
 10
3.962563
 20
5.2
 30
0.0
 11
4.8
 21
6.037437
 31
0.0
  0
LINE
  8
0
 62
     0
 10
4.13934
 20
5.2
 30
0.0
 11
4.8
 21
5.86066
 31
0.0
  0
LINE
  8
0
 62
     0
 10
4.316117
 20
5.2
 30
0.0
 11
4.8
 21
5.683883
 31
0.0
  0
LINE
  8
0
 62
     0
 10
4.492893
 20
5.2
 30
0.0
 11
4.8
 21
5.507107
 31
0.0
  0
LINE
  8
0
 62
     0
 10
4.66967
 20
5.2
 30
0.0
 11
4.8
 21
5.33033
 31
0.0
  0
ENDBLK
  8
0
  0
BLOCK
  8
0
  2
*X9
 70
    65
 10
0.0
 20
0.0
 30
0.0
  3
*X
  0
LINE
  8
0
 62
     0
 10
5.2
 20
6.083883
 30
0.0
 11
7.178252
 21
8.062136
 31
0.0
  0
LINE
  8
0
 62
     0
 10
5.2
 20
6.26066
 30
0.0
 11
7.132421
 21
8.193082
 31
0.0
  0
LINE
  8
0
 62
     0
 10
5.2
 20
6.437437
 30
0.0
 11
7.08659
 21
8.324027
 31
0.0
  0
LINE
  8
0
 62
     0
 10
5.2
 20
6.614214
 30
0.0
 11
7.040759
 21
8.454973
 31
0.0
  0
LINE
  8
0
 62
     0
 10
5.2
 20
6.79099
 30
0.0
 11
6.994928
 21
8.585919
 31
0.0
  0
LINE
  8
0
 62
     0
 10
5.2
 20
6.967767
 30
0.0
 11
6.949097
 21
8.716864
 31
0.0
  0
LINE
  8
0
 62
     0
 10
5.2
 20
7.144544
 30
0.0
 11
6.903266
 21
8.84781
 31
0.0
  0
LINE
  8
0
 62
     0
 10
5.2
 20
7.32132
 30
0.0
 11
6.857435
 21
8.978756
 31
0.0
  0
LINE
  8
0
 62
     0
 10
5.2
 20
7.498097
 30
0.0
 11
6.811604
 21
9.109702
 31
0.0
  0
LINE
  8
0
 62
     0
 10
5.2
 20
7.674874
 30
0.0
 11
6.765773
 21
9.240647
 31
0.0
  0
LINE
  8
0
 62
     0
 10
5.2
 20
7.85165
 30
0.0
 11
6.719942
 21
9.371593
 31
0.0
  0
LINE
  8
0
 62
     0
 10
5.2
 20
8.028427
 30
0.0
 11
6.674111
 21
9.502539
 31
0.0
  0
LINE
  8
0
 62
     0
 10
5.2
 20
8.205204
 30
0.0
 11
6.62828
 21
9.633484
 31
0.0
  0
LINE
  8
0
 62
     0
 10
5.2
 20
8.381981
 30
0.0
 11
6.582449
 21
9.76443
 31
0.0
  0
LINE
  8
0
 62
     0
 10
5.2
 20
8.558757
 30
0.0
 11
6.536619
 21
9.895376
 31
0.0
  0
LINE
  8
0
 62
     0
 10
5.2
 20
8.735534
 30
0.0
 11
6.464466
 21
10.0
 31
0.0
  0
LINE
  8
0
 62
     0
 10
5.2
 20
8.912311
 30
0.0
 11
6.287689
 21
10.0
 31
0.0
  0
LINE
  8
0
 62
     0
 10
5.2
 20
9.089087
 30
0.0
 11
6.110913
 21
10.0
 31
0.0
  0
LINE
  8
0
 62
     0
 10
5.2
 20
9.265864
 30
0.0
 11
5.934136
 21
10.0
 31
0.0
  0
LINE
  8
0
 62
     0
 10
5.2
 20
9.442641
 30
0.0
 11
5.757359
 21
10.0
 31
0.0
  0
LINE
  8
0
 62
     0
 10
5.2
 20
9.619417
 30
0.0
 11
5.580583
 21
10.0
 31
0.0
  0
LINE
  8
0
 62
     0
 10
5.2
 20
9.796194
 30
0.0
 11
5.403806
 21
10.0
 31
0.0
  0
LINE
  8
0
 62
     0
 10
5.2
 20
9.972971
 30
0.0
 11
5.227029
 21
10.0
 31
0.0
  0
LINE
  8
0
 62
     0
 10
5.2
 20
5.907107
 30
0.0
 11
7.224083
 21
7.93119
 31
0.0
  0
LINE
  8
0
 62
     0
 10
5.2
 20
5.73033
 30
0.0
 11
7.269914
 21
7.800245
 31
0.0
  0
LINE
  8
0
 62
     0
 10
5.2
 20
5.553553
 30
0.0
 11
7.315745
 21
7.669299
 31
0.0
  0
LINE
  8
0
 62
     0
 10
5.2
 20
5.376777
 30
0.0
 11
7.361576
 21
7.538353
 31
0.0
  0
LINE
  8
0
 62
     0
 10
5.2
 20
5.2
 30
0.0
 11
7.407407
 21
7.407407
 31
0.0
  0
LINE
  8
0
 62
     0
 10
5.376777
 20
5.2
 30
0.0
 11
7.453238
 21
7.276462
 31
0.0
  0
LINE
  8
0
 62
     0
 10
5.553553
 20
5.2
 30
0.0
 11
7.499069
 21
7.145516
 31
0.0
  0
LINE
  8
0
 62
     0
 10
5.73033
 20
5.2
 30
0.0
 11
7.5449
 21
7.01457
 31
0.0
  0
LINE
  8
0
 62
     0
 10
5.907107
 20
5.2
 30
0.0
 11
7.590731
 21
6.883625
 31
0.0
  0
LINE
  8
0
 62
     0
 10
6.083883
 20
5.2
 30
0.0
 11
7.636562
 21
6.752679
 31
0.0
  0
LINE
  8
0
 62
     0
 10
6.26066
 20
5.2
 30
0.0
 11
7.682393
 21
6.621733
 31
0.0
  0
LINE
  8
0
 62
     0
 10
6.437437
 20
5.2
 30
0.0
 11
7.728224
 21
6.490788
 31
0.0
  0
LINE
  8
0
 62
     0
 10
6.614214
 20
5.2
 30
0.0
 11
7.774055
 21
6.359842
 31
0.0
  0
LINE
  8
0
 62
     0
 10
6.79099
 20
5.2
 30
0.0
 11
7.819886
 21
6.228896
 31
0.0
  0
LINE
  8
0
 62
     0
 10
6.967767
 20
5.2
 30
0.0
 11
7.865717
 21
6.09795
 31
0.0
  0
LINE
  8
0
 62
     0
 10
7.144544
 20
5.2
 30
0.0
 11
7.911548
 21
5.967005
 31
0.0
  0
LINE
  8
0
 62
     0
 10
7.32132
 20
5.2
 30
0.0
 11
7.957379
 21
5.836059
 31
0.0
  0
LINE
  8
0
 62
     0
 10
7.498097
 20
5.2
 30
0.0
 11
8.00321
 21
5.705113
 31
0.0
  0
LINE
  8
0
 62
     0
 10
7.674874
 20
5.2
 30
0.0
 11
8.049041
 21
5.574168
 31
0.0
  0
LINE
  8
0
 62
     0
 10
7.85165
 20
5.2
 30
0.0
 11
8.094872
 21
5.443222
 31
0.0
  0
LINE
  8
0
 62
     0
 10
8.028427
 20
5.2
 30
0.0
 11
8.140703
 21
5.312276
 31
0.0
  0
ENDBLK
  8
0
  0
BLOCK
  8
0
  2
*X10
 70
    65
 10
0.0
 20
0.0
 30
0.0
  3
*X
  0
LINE
  8
0
 62
     0
 10
0.0
 20
0.0
 30
0.0
 11
4.8
 21
4.8
 31
0.0
  0
LINE
  8
0
 62
     0
 10
0.095187
 20
0.271964
 30
0.0
 11
4.623223
 21
4.8
 31
0.0
  0
LINE
  8
0
 62
     0
 10
0.190375
 20
0.543928
 30
0.0
 11
4.446447
 21
4.8
 31
0.0
  0
LINE
  8
0
 62
     0
 10
0.285562
 20
0.815892
 30
0.0
 11
4.26967
 21
4.8
 31
0.0
  0
LINE
  8
0
 62
     0
 10
0.38075
 20
1.087857
 30
0.0
 11
4.092893
 21
4.8
 31
0.0
  0
LINE
  8
0
 62
     0
 10
0.475937
 20
1.359821
 30
0.0
 11
3.916117
 21
4.8
 31
0.0
  0
LINE
  8
0
 62
     0
 10
0.571125
 20
1.631785
 30
0.0
 11
3.73934
 21
4.8
 31
0.0
  0
LINE
  8
0
 62
     0
 10
0.666312
 20
1.903749
 30
0.0
 11
3.562563
 21
4.8
 31
0.0
  0
LINE
  8
0
 62
     0
 10
0.7615
 20
2.175713
 30
0.0
 11
3.385786
 21
4.8
 31
0.0
  0
LINE
  8
0
 62
     0
 10
0.856687
 20
2.447677
 30
0.0
 11
3.20901
 21
4.8
 31
0.0
  0
LINE
  8
0
 62
     0
 10
0.951875
 20
2.719641
 30
0.0
 11
3.032233
 21
4.8
 31
0.0
  0
LINE
  8
0
 62
     0
 10
1.047062
 20
2.991606
 30
0.0
 11
2.855456
 21
4.8
 31
0.0
  0
LINE
  8
0
 62
     0
 10
1.142249
 20
3.26357
 30
0.0
 11
2.67868
 21
4.8
 31
0.0
  0
LINE
  8
0
 62
     0
 10
1.237437
 20
3.535534
 30
0.0
 11
2.501903
 21
4.8
 31
0.0
  0
LINE
  8
0
 62
     0
 10
1.332624
 20
3.807498
 30
0.0
 11
2.325126
 21
4.8
 31
0.0
  0
LINE
  8
0
 62
     0
 10
1.427812
 20
4.079462
 30
0.0
 11
2.14835
 21
4.8
 31
0.0
  0
LINE
  8
0
 62
     0
 10
1.522999
 20
4.351426
 30
0.0
 11
1.971573
 21
4.8
 31
0.0
  0
LINE
  8
0
 62
     0
 10
1.618187
 20
4.62339
 30
0.0
 11
1.794796
 21
4.8
 31
0.0
  0
LINE
  8
0
 62
     0
 10
0.176777
 20
0.0
 30
0.0
 11
4.8
 21
4.623223
 31
0.0
  0
LINE
  8
0
 62
     0
 10
0.353553
 20
0.0
 30
0.0
 11
4.8
 21
4.446447
 31
0.0
  0
LINE
  8
0
 62
     0
 10
0.53033
 20
0.0
 30
0.0
 11
4.8
 21
4.26967
 31
0.0
  0
LINE
  8
0
 62
     0
 10
0.707107
 20
0.0
 30
0.0
 11
4.8
 21
4.092893
 31
0.0
  0
LINE
  8
0
 62
     0
 10
0.883883
 20
0.0
 30
0.0
 11
4.8
 21
3.916117
 31
0.0
  0
LINE
  8
0
 62
     0
 10
1.06066
 20
0.0
 30
0.0
 11
4.8
 21
3.73934
 31
0.0
  0
LINE
  8
0
 62
     0
 10
1.237437
 20
0.0
 30
0.0
 11
3.179842
 21
1.942405
 31
0.0
  0
LINE
  8
0
 62
     0
 10
3.237437
 20
2.0
 30
0.0
 11
4.8
 21
3.562563
 31
0.0
  0
LINE
  8
0
 62
     0
 10
1.414214
 20
0.0
 30
0.0
 11
3.084654
 21
1.670441
 31
0.0
  0
LINE
  8
0
 62
     0
 10
3.414214
 20
2.0
 30
0.0
 11
4.8
 21
3.385786
 31
0.0
  0
LINE
  8
0
 62
     0
 10
1.59099
 20
0.0
 30
0.0
 11
2.989467
 21
1.398477
 31
0.0
  0
LINE
  8
0
 62
     0
 10
3.59099
 20
2.0
 30
0.0
 11
4.8
 21
3.20901
 31
0.0
  0
LINE
  8
0
 62
     0
 10
1.767767
 20
0.0
 30
0.0
 11
2.894279
 21
1.126512
 31
0.0
  0
LINE
  8
0
 62
     0
 10
3.767767
 20
2.0
 30
0.0
 11
4.8
 21
3.032233
 31
0.0
  0
LINE
  8
0
 62
     0
 10
1.944544
 20
0.0
 30
0.0
 11
2.799092
 21
0.854548
 31
0.0
  0
LINE
  8
0
 62
     0
 10
3.944544
 20
2.0
 30
0.0
 11
4.8
 21
2.855456
 31
0.0
  0
LINE
  8
0
 62
     0
 10
2.12132
 20
0.0
 30
0.0
 11
2.703904
 21
0.582584
 31
0.0
  0
LINE
  8
0
 62
     0
 10
4.12132
 20
2.0
 30
0.0
 11
4.8
 21
2.67868
 31
0.0
  0
LINE
  8
0
 62
     0
 10
2.298097
 20
0.0
 30
0.0
 11
2.608717
 21
0.31062
 31
0.0
  0
LINE
  8
0
 62
     0
 10
4.298097
 20
2.0
 30
0.0
 11
4.8
 21
2.501903
 31
0.0
  0
LINE
  8
0
 62
     0
 10
2.474874
 20
0.0
 30
0.0
 11
2.51353
 21
0.038656
 31
0.0
  0
LINE
  8
0
 62
     0
 10
4.474874
 20
2.0
 30
0.0
 11
4.8
 21
2.325126
 31
0.0
  0
LINE
  8
0
 62
     0
 10
4.65165
 20
2.0
 30
0.0
 11
4.8
 21
2.14835
 31
0.0
  0
ENDBLK
  8
0
  0
BLOCK
  8
0
  2
*X11
 70
    65
 10
0.0
 20
0.0
 30
0.0
  3
*X
  0
LINE
  8
0
 62
     0
 10
6.884654
 20
1.75813
 30
0.0
 11
8.736506
 21
3.609982
 31
0.0
  0
LINE
  8
0
 62
     0
 10
6.838823
 20
1.889076
 30
0.0
 11
8.690675
 21
3.740928
 31
0.0
  0
LINE
  8
0
 62
     0
 10
6.772971
 20
2.0
 30
0.0
 11
8.644844
 21
3.871874
 31
0.0
  0
LINE
  8
0
 62
     0
 10
6.596194
 20
2.0
 30
0.0
 11
8.599013
 21
4.002819
 31
0.0
  0
LINE
  8
0
 62
     0
 10
6.419417
 20
2.0
 30
0.0
 11
8.553182
 21
4.133765
 31
0.0
  0
LINE
  8
0
 62
     0
 10
6.242641
 20
2.0
 30
0.0
 11
8.507351
 21
4.264711
 31
0.0
  0
LINE
  8
0
 62
     0
 10
6.065864
 20
2.0
 30
0.0
 11
8.46152
 21
4.395656
 31
0.0
  0
LINE
  8
0
 62
     0
 10
5.889087
 20
2.0
 30
0.0
 11
8.415689
 21
4.526602
 31
0.0
  0
LINE
  8
0
 62
     0
 10
5.712311
 20
2.0
 30
0.0
 11
8.369858
 21
4.657548
 31
0.0
  0
LINE
  8
0
 62
     0
 10
5.535534
 20
2.0
 30
0.0
 11
8.324027
 21
4.788493
 31
0.0
  0
LINE
  8
0
 62
     0
 10
5.358757
 20
2.0
 30
0.0
 11
8.158757
 21
4.8
 31
0.0
  0
LINE
  8
0
 62
     0
 10
5.2
 20
2.018019
 30
0.0
 11
7.981981
 21
4.8
 31
0.0
  0
LINE
  8
0
 62
     0
 10
5.2
 20
2.194796
 30
0.0
 11
7.805204
 21
4.8
 31
0.0
  0
LINE
  8
0
 62
     0
 10
5.2
 20
2.371573
 30
0.0
 11
7.628427
 21
4.8
 31
0.0
  0
LINE
  8
0
 62
     0
 10
5.2
 20
2.54835
 30
0.0
 11
7.45165
 21
4.8
 31
0.0
  0
LINE
  8
0
 62
     0
 10
5.2
 20
2.725126
 30
0.0
 11
7.274874
 21
4.8
 31
0.0
  0
LINE
  8
0
 62
     0
 10
5.2
 20
2.901903
 30
0.0
 11
7.098097
 21
4.8
 31
0.0
  0
LINE
  8
0
 62
     0
 10
5.2
 20
3.07868
 30
0.0
 11
6.92132
 21
4.8
 31
0.0
  0
LINE
  8
0
 62
     0
 10
5.2
 20
3.255456
 30
0.0
 11
6.744544
 21
4.8
 31
0.0
  0
LINE
  8
0
 62
     0
 10
5.2
 20
3.432233
 30
0.0
 11
6.567767
 21
4.8
 31
0.0
  0
LINE
  8
0
 62
     0
 10
5.2
 20
3.60901
 30
0.0
 11
6.39099
 21
4.8
 31
0.0
  0
LINE
  8
0
 62
     0
 10
5.2
 20
3.785786
 30
0.0
 11
6.214214
 21
4.8
 31
0.0
  0
LINE
  8
0
 62
     0
 10
5.2
 20
3.962563
 30
0.0
 11
6.037437
 21
4.8
 31
0.0
  0
LINE
  8
0
 62
     0
 10
5.2
 20
4.13934
 30
0.0
 11
5.86066
 21
4.8
 31
0.0
  0
LINE
  8
0
 62
     0
 10
5.2
 20
4.316117
 30
0.0
 11
5.683883
 21
4.8
 31
0.0
  0
LINE
  8
0
 62
     0
 10
5.2
 20
4.492893
 30
0.0
 11
5.507107
 21
4.8
 31
0.0
  0
LINE
  8
0
 62
     0
 10
5.2
 20
4.66967
 30
0.0
 11
5.33033
 21
4.8
 31
0.0
  0
LINE
  8
0
 62
     0
 10
6.930485
 20
1.627185
 30
0.0
 11
8.782337
 21
3.479036
 31
0.0
  0
LINE
  8
0
 62
     0
 10
6.976316
 20
1.496239
 30
0.0
 11
8.828168
 21
3.348091
 31
0.0
  0
LINE
  8
0
 62
     0
 10
7.022147
 20
1.365293
 30
0.0
 11
8.873999
 21
3.217145
 31
0.0
  0
LINE
  8
0
 62
     0
 10
7.067978
 20
1.234347
 30
0.0
 11
8.91983
 21
3.086199
 31
0.0
  0
LINE
  8
0
 62
     0
 10
7.113809
 20
1.103402
 30
0.0
 11
8.965661
 21
2.955254
 31
0.0
  0
LINE
  8
0
 62
     0
 10
7.15964
 20
0.972456
 30
0.0
 11
9.011492
 21
2.824308
 31
0.0
  0
LINE
  8
0
 62
     0
 10
7.205471
 20
0.84151
 30
0.0
 11
9.057323
 21
2.693362
 31
0.0
  0
LINE
  8
0
 62
     0
 10
7.251302
 20
0.710565
 30
0.0
 11
9.103154
 21
2.562416
 31
0.0
  0
LINE
  8
0
 62
     0
 10
7.297133
 20
0.579619
 30
0.0
 11
9.148985
 21
2.431471
 31
0.0
  0
LINE
  8
0
 62
     0
 10
7.342964
 20
0.448673
 30
0.0
 11
9.194816
 21
2.300525
 31
0.0
  0
LINE
  8
0
 62
     0
 10
7.388795
 20
0.317728
 30
0.0
 11
9.240647
 21
2.169579
 31
0.0
  0
LINE
  8
0
 62
     0
 10
7.434626
 20
0.186782
 30
0.0
 11
9.286478
 21
2.038634
 31
0.0
  0
LINE
  8
0
 62
     0
 10
7.480457
 20
0.055836
 30
0.0
 11
9.332309
 21
1.907688
 31
0.0
  0
LINE
  8
0
 62
     0
 10
7.601398
 20
0.0
 30
0.0
 11
9.37814
 21
1.776742
 31
0.0
  0
LINE
  8
0
 62
     0
 10
7.778175
 20
0.0
 30
0.0
 11
9.423971
 21
1.645797
 31
0.0
  0
LINE
  8
0
 62
     0
 10
7.954951
 20
0.0
 30
0.0
 11
9.469802
 21
1.514851
 31
0.0
  0
LINE
  8
0
 62
     0
 10
8.131728
 20
0.0
 30
0.0
 11
9.515633
 21
1.383905
 31
0.0
  0
LINE
  8
0
 62
     0
 10
8.308505
 20
0.0
 30
0.0
 11
9.561464
 21
1.252959
 31
0.0
  0
LINE
  8
0
 62
     0
 10
8.485281
 20
0.0
 30
0.0
 11
9.607295
 21
1.122014
 31
0.0
  0
LINE
  8
0
 62
     0
 10
8.662058
 20
0.0
 30
0.0
 11
9.653126
 21
0.991068
 31
0.0
  0
LINE
  8
0
 62
     0
 10
8.838835
 20
0.0
 30
0.0
 11
9.698957
 21
0.860122
 31
0.0
  0
LINE
  8
0
 62
     0
 10
9.015611
 20
0.0
 30
0.0
 11
9.744788
 21
0.729177
 31
0.0
  0
LINE
  8
0
 62
     0
 10
9.192388
 20
0.0
 30
0.0
 11
9.790619
 21
0.598231
 31
0.0
  0
LINE
  8
0
 62
     0
 10
9.369165
 20
0.0
 30
0.0
 11
9.83645
 21
0.467285
 31
0.0
  0
LINE
  8
0
 62
     0
 10
9.545942
 20
0.0
 30
0.0
 11
9.882281
 21
0.33634
 31
0.0
  0
LINE
  8
0
 62
     0
 10
9.722718
 20
0.0
 30
0.0
 11
9.928112
 21
0.205394
 31
0.0
  0
LINE
  8
0
 62
     0
 10
9.899495
 20
0.0
 30
0.0
 11
9.973943
 21
0.074448
 31
0.0
  0
ENDBLK
  8
0
  0
BLOCK
  8
0
  2
*X12
 70
    65
 10
0.0
 20
0.0
 30
0.0
  3
*X
  0
LINE
  8
0
 62
     0
 10
10.7
 20
6.280583
 30
0.0
 11
13.5
 21
9.080583
 31
0.0
  0
LINE
  8
0
 62
     0
 10
10.7
 20
6.457359
 30
0.0
 11
13.5
 21
9.257359
 31
0.0
  0
LINE
  8
0
 62
     0
 10
10.7
 20
6.634136
 30
0.0
 11
13.5
 21
9.434136
 31
0.0
  0
LINE
  8
0
 62
     0
 10
10.7
 20
6.810913
 30
0.0
 11
13.5
 21
9.610913
 31
0.0
  0
LINE
  8
0
 62
     0
 10
10.7
 20
6.987689
 30
0.0
 11
13.5
 21
9.787689
 31
0.0
  0
LINE
  8
0
 62
     0
 10
10.7
 20
7.164466
 30
0.0
 11
13.5
 21
9.964466
 31
0.0
  0
LINE
  8
0
 62
     0
 10
10.7
 20
7.341243
 30
0.0
 11
13.358757
 21
10.0
 31
0.0
  0
LINE
  8
0
 62
     0
 10
10.7
 20
7.518019
 30
0.0
 11
13.181981
 21
10.0
 31
0.0
  0
LINE
  8
0
 62
     0
 10
10.7
 20
7.694796
 30
0.0
 11
13.005204
 21
10.0
 31
0.0
  0
LINE
  8
0
 62
     0
 10
10.7
 20
7.871573
 30
0.0
 11
12.828427
 21
10.0
 31
0.0
  0
LINE
  8
0
 62
     0
 10
10.7
 20
8.04835
 30
0.0
 11
12.65165
 21
10.0
 31
0.0
  0
LINE
  8
0
 62
     0
 10
10.7
 20
8.225126
 30
0.0
 11
12.474874
 21
10.0
 31
0.0
  0
LINE
  8
0
 62
     0
 10
10.7
 20
8.401903
 30
0.0
 11
12.298097
 21
10.0
 31
0.0
  0
LINE
  8
0
 62
     0
 10
10.7
 20
8.57868
 30
0.0
 11
12.12132
 21
10.0
 31
0.0
  0
LINE
  8
0
 62
     0
 10
10.7
 20
8.755456
 30
0.0
 11
11.944544
 21
10.0
 31
0.0
  0
LINE
  8
0
 62
     0
 10
10.7
 20
8.932233
 30
0.0
 11
11.767767
 21
10.0
 31
0.0
  0
LINE
  8
0
 62
     0
 10
10.7
 20
9.10901
 30
0.0
 11
11.59099
 21
10.0
 31
0.0
  0
LINE
  8
0
 62
     0
 10
10.7
 20
9.285786
 30
0.0
 11
11.414214
 21
10.0
 31
0.0
  0
LINE
  8
0
 62
     0
 10
10.7
 20
9.462563
 30
0.0
 11
11.237437
 21
10.0
 31
0.0
  0
LINE
  8
0
 62
     0
 10
10.7
 20
9.63934
 30
0.0
 11
11.06066
 21
10.0
 31
0.0
  0
LINE
  8
0
 62
     0
 10
10.7
 20
9.816117
 30
0.0
 11
10.883883
 21
10.0
 31
0.0
  0
LINE
  8
0
 62
     0
 10
10.7
 20
9.992893
 30
0.0
 11
10.707107
 21
10.0
 31
0.0
  0
LINE
  8
0
 62
     0
 10
10.7
 20
6.103806
 30
0.0
 11
13.5
 21
8.903806
 31
0.0
  0
LINE
  8
0
 62
     0
 10
10.7
 20
5.927029
 30
0.0
 11
13.5
 21
8.727029
 31
0.0
  0
LINE
  8
0
 62
     0
 10
10.7
 20
5.750253
 30
0.0
 11
13.5
 21
8.550253
 31
0.0
  0
LINE
  8
0
 62
     0
 10
10.7
 20
5.573476
 30
0.0
 11
13.5
 21
8.373476
 31
0.0
  0
LINE
  8
0
 62
     0
 10
10.7
 20
5.396699
 30
0.0
 11
13.5
 21
8.196699
 31
0.0
  0
LINE
  8
0
 62
     0
 10
10.7
 20
5.219922
 30
0.0
 11
13.5
 21
8.019922
 31
0.0
  0
LINE
  8
0
 62
     0
 10
10.856854
 20
5.2
 30
0.0
 11
13.5
 21
7.843146
 31
0.0
  0
LINE
  8
0
 62
     0
 10
11.033631
 20
5.2
 30
0.0
 11
13.5
 21
7.666369
 31
0.0
  0
LINE
  8
0
 62
     0
 10
11.210408
 20
5.2
 30
0.0
 11
13.5
 21
7.489592
 31
0.0
  0
LINE
  8
0
 62
     0
 10
11.387184
 20
5.2
 30
0.0
 11
13.5
 21
7.312816
 31
0.0
  0
LINE
  8
0
 62
     0
 10
11.563961
 20
5.2
 30
0.0
 11
13.5
 21
7.136039
 31
0.0
  0
LINE
  8
0
 62
     0
 10
11.740738
 20
5.2
 30
0.0
 11
13.5
 21
6.959262
 31
0.0
  0
LINE
  8
0
 62
     0
 10
11.917514
 20
5.2
 30
0.0
 11
13.5
 21
6.782486
 31
0.0
  0
LINE
  8
0
 62
     0
 10
12.094291
 20
5.2
 30
0.0
 11
13.5
 21
6.605709
 31
0.0
  0
LINE
  8
0
 62
     0
 10
12.271068
 20
5.2
 30
0.0
 11
13.5
 21
6.428932
 31
0.0
  0
LINE
  8
0
 62
     0
 10
12.447845
 20
5.2
 30
0.0
 11
13.5
 21
6.252155
 31
0.0
  0
LINE
  8
0
 62
     0
 10
12.624621
 20
5.2
 30
0.0
 11
13.5
 21
6.075379
 31
0.0
  0
LINE
  8
0
 62
     0
 10
12.801398
 20
5.2
 30
0.0
 11
13.5
 21
5.898602
 31
0.0
  0
LINE
  8
0
 62
     0
 10
12.978175
 20
5.2
 30
0.0
 11
13.5
 21
5.721825
 31
0.0
  0
LINE
  8
0
 62
     0
 10
13.154951
 20
5.2
 30
0.0
 11
13.5
 21
5.545049
 31
0.0
  0
LINE
  8
0
 62
     0
 10
13.331728
 20
5.2
 30
0.0
 11
13.5
 21
5.368272
 31
0.0
  0
ENDBLK
  8
0
  0
BLOCK
  8
0
  2
*X13
 70
    65
 10
0.0
 20
0.0
 30
0.0
  3
*X
  0
LINE
  8
0
 62
     0
 10
10.7
 20
1.154058
 30
0.0
 11
13.5
 21
3.954058
 31
0.0
  0
LINE
  8
0
 62
     0
 10
10.7
 20
1.330835
 30
0.0
 11
13.5
 21
4.130835
 31
0.0
  0
LINE
  8
0
 62
     0
 10
10.7
 20
1.507612
 30
0.0
 11
13.5
 21
4.307612
 31
0.0
  0
LINE
  8
0
 62
     0
 10
10.7
 20
1.684389
 30
0.0
 11
13.5
 21
4.484389
 31
0.0
  0
LINE
  8
0
 62
     0
 10
10.7
 20
1.861165
 30
0.0
 11
13.5
 21
4.661165
 31
0.0
  0
LINE
  8
0
 62
     0
 10
10.7
 20
2.037942
 30
0.0
 11
13.462058
 21
4.8
 31
0.0
  0
LINE
  8
0
 62
     0
 10
10.7
 20
2.214719
 30
0.0
 11
13.285281
 21
4.8
 31
0.0
  0
LINE
  8
0
 62
     0
 10
10.7
 20
2.391495
 30
0.0
 11
13.108505
 21
4.8
 31
0.0
  0
LINE
  8
0
 62
     0
 10
10.7
 20
2.568272
 30
0.0
 11
12.931728
 21
4.8
 31
0.0
  0
LINE
  8
0
 62
     0
 10
10.7
 20
2.745049
 30
0.0
 11
12.754951
 21
4.8
 31
0.0
  0
LINE
  8
0
 62
     0
 10
10.7
 20
2.921825
 30
0.0
 11
12.578175
 21
4.8
 31
0.0
  0
LINE
  8
0
 62
     0
 10
10.7
 20
3.098602
 30
0.0
 11
12.401398
 21
4.8
 31
0.0
  0
LINE
  8
0
 62
     0
 10
10.7
 20
3.275379
 30
0.0
 11
12.224621
 21
4.8
 31
0.0
  0
LINE
  8
0
 62
     0
 10
10.7
 20
3.452155
 30
0.0
 11
12.047845
 21
4.8
 31
0.0
  0
LINE
  8
0
 62
     0
 10
10.7
 20
3.628932
 30
0.0
 11
11.871068
 21
4.8
 31
0.0
  0
LINE
  8
0
 62
     0
 10
10.7
 20
3.805709
 30
0.0
 11
11.694291
 21
4.8
 31
0.0
  0
LINE
  8
0
 62
     0
 10
10.7
 20
3.982486
 30
0.0
 11
11.517514
 21
4.8
 31
0.0
  0
LINE
  8
0
 62
     0
 10
10.7
 20
4.159262
 30
0.0
 11
11.340738
 21
4.8
 31
0.0
  0
LINE
  8
0
 62
     0
 10
10.7
 20
4.336039
 30
0.0
 11
11.163961
 21
4.8
 31
0.0
  0
LINE
  8
0
 62
     0
 10
10.7
 20
4.512816
 30
0.0
 11
10.987184
 21
4.8
 31
0.0
  0
LINE
  8
0
 62
     0
 10
10.7
 20
4.689592
 30
0.0
 11
10.810408
 21
4.8
 31
0.0
  0
LINE
  8
0
 62
     0
 10
10.7
 20
0.977282
 30
0.0
 11
13.5
 21
3.777282
 31
0.0
  0
LINE
  8
0
 62
     0
 10
10.7
 20
0.800505
 30
0.0
 11
13.5
 21
3.600505
 31
0.0
  0
LINE
  8
0
 62
     0
 10
10.7
 20
0.623728
 30
0.0
 11
13.5
 21
3.423728
 31
0.0
  0
LINE
  8
0
 62
     0
 10
10.7
 20
0.446952
 30
0.0
 11
13.5
 21
3.246952
 31
0.0
  0
LINE
  8
0
 62
     0
 10
10.7
 20
0.270175
 30
0.0
 11
13.5
 21
3.070175
 31
0.0
  0
LINE
  8
0
 62
     0
 10
10.7
 20
0.093398
 30
0.0
 11
13.5
 21
2.893398
 31
0.0
  0
LINE
  8
0
 62
     0
 10
10.783378
 20
0.0
 30
0.0
 11
13.5
 21
2.716622
 31
0.0
  0
LINE
  8
0
 62
     0
 10
10.960155
 20
0.0
 30
0.0
 11
13.5
 21
2.539845
 31
0.0
  0
LINE
  8
0
 62
     0
 10
11.136932
 20
0.0
 30
0.0
 11
13.5
 21
2.363068
 31
0.0
  0
LINE
  8
0
 62
     0
 10
11.313708
 20
0.0
 30
0.0
 11
13.5
 21
2.186292
 31
0.0
  0
LINE
  8
0
 62
     0
 10
11.490485
 20
0.0
 30
0.0
 11
13.5
 21
2.009515
 31
0.0
  0
LINE
  8
0
 62
     0
 10
11.667262
 20
0.0
 30
0.0
 11
13.5
 21
1.832738
 31
0.0
  0
LINE
  8
0
 62
     0
 10
11.844039
 20
0.0
 30
0.0
 11
13.5
 21
1.655961
 31
0.0
  0
LINE
  8
0
 62
     0
 10
12.020815
 20
0.0
 30
0.0
 11
13.5
 21
1.479185
 31
0.0
  0
LINE
  8
0
 62
     0
 10
12.197592
 20
0.0
 30
0.0
 11
13.5
 21
1.302408
 31
0.0
  0
LINE
  8
0
 62
     0
 10
12.374369
 20
0.0
 30
0.0
 11
13.5
 21
1.125631
 31
0.0
  0
LINE
  8
0
 62
     0
 10
12.551145
 20
0.0
 30
0.0
 11
13.5
 21
0.948855
 31
0.0
  0
LINE
  8
0
 62
     0
 10
12.727922
 20
0.0
 30
0.0
 11
13.5
 21
0.772078
 31
0.0
  0
LINE
  8
0
 62
     0
 10
12.904699
 20
0.0
 30
0.0
 11
13.5
 21
0.595301
 31
0.0
  0
LINE
  8
0
 62
     0
 10
13.081475
 20
0.0
 30
0.0
 11
13.5
 21
0.418525
 31
0.0
  0
LINE
  8
0
 62
     0
 10
13.258252
 20
0.0
 30
0.0
 11
13.5
 21
0.241748
 31
0.0
  0
LINE
  8
0
 62
     0
 10
13.435029
 20
0.0
 30
0.0
 11
13.5
 21
0.064971
 31
0.0
  0
ENDBLK
  8
0
  0
BLOCK
  8
0
  2
*X14
 70
    65
 10
0.0
 20
0.0
 30
0.0
  3
*X
  0
LINE
  8
0
 62
     0
 10
13.9
 20
6.298602
 30
0.0
 11
16.582995
 21
8.981597
 31
0.0
  0
LINE
  8
0
 62
     0
 10
13.9
 20
6.475379
 30
0.0
 11
16.510503
 21
9.085882
 31
0.0
  0
LINE
  8
0
 62
     0
 10
13.9
 20
6.652155
 30
0.0
 11
16.432927
 21
9.185083
 31
0.0
  0
LINE
  8
0
 62
     0
 10
13.9
 20
6.828932
 30
0.0
 11
16.350372
 21
9.279304
 31
0.0
  0
LINE
  8
0
 62
     0
 10
13.9
 20
7.005709
 30
0.0
 11
16.262892
 21
9.368601
 31
0.0
  0
LINE
  8
0
 62
     0
 10
13.9
 20
7.182486
 30
0.0
 11
16.170495
 21
9.452981
 31
0.0
  0
LINE
  8
0
 62
     0
 10
13.9
 20
7.359262
 30
0.0
 11
16.073145
 21
9.532407
 31
0.0
  0
LINE
  8
0
 62
     0
 10
13.9
 20
7.536039
 30
0.0
 11
15.970755
 21
9.606794
 31
0.0
  0
LINE
  8
0
 62
     0
 10
13.9
 20
7.712816
 30
0.0
 11
15.863189
 21
9.676004
 31
0.0
  0
LINE
  8
0
 62
     0
 10
13.9
 20
7.889592
 30
0.0
 11
15.75025
 21
9.739843
 31
0.0
  0
LINE
  8
0
 62
     0
 10
13.9
 20
8.066369
 30
0.0
 11
15.631675
 21
9.798044
 31
0.0
  0
LINE
  8
0
 62
     0
 10
13.9
 20
8.243146
 30
0.0
 11
15.50711
 21
9.850256
 31
0.0
  0
LINE
  8
0
 62
     0
 10
13.9
 20
8.419922
 30
0.0
 11
15.376096
 21
9.896018
 31
0.0
  0
LINE
  8
0
 62
     0
 10
13.9
 20
8.596699
 30
0.0
 11
15.238027
 21
9.934726
 31
0.0
  0
LINE
  8
0
 62
     0
 10
13.9
 20
8.773476
 30
0.0
 11
15.092096
 21
9.965572
 31
0.0
  0
LINE
  8
0
 62
     0
 10
13.9
 20
8.950253
 30
0.0
 11
14.937209
 21
9.987461
 31
0.0
  0
LINE
  8
0
 62
     0
 10
13.9
 20
9.127029
 30
0.0
 11
14.771824
 21
9.998853
 31
0.0
  0
LINE
  8
0
 62
     0
 10
13.9
 20
9.303806
 30
0.0
 11
14.596193
 21
9.999999
 31
0.0
  0
LINE
  8
0
 62
     0
 10
13.9
 20
9.480583
 30
0.0
 11
14.419417
 21
9.999999
 31
0.0
  0
LINE
  8
0
 62
     0
 10
13.9
 20
9.657359
 30
0.0
 11
14.24264
 21
10.0
 31
0.0
  0
LINE
  8
0
 62
     0
 10
13.9
 20
9.834136
 30
0.0
 11
14.065864
 21
10.0
 31
0.0
  0
LINE
  8
0
 62
     0
 10
13.9
 20
6.121825
 30
0.0
 11
16.650245
 21
8.872071
 31
0.0
  0
LINE
  8
0
 62
     0
 10
13.9
 20
5.945049
 30
0.0
 11
16.712035
 21
8.757083
 31
0.0
  0
LINE
  8
0
 62
     0
 10
13.9
 20
5.768272
 30
0.0
 11
16.768067
 21
8.636339
 31
0.0
  0
LINE
  8
0
 62
     0
 10
13.9
 20
5.591495
 30
0.0
 11
16.817955
 21
8.509451
 31
0.0
  0
LINE
  8
0
 62
     0
 10
13.9
 20
5.414719
 30
0.0
 11
16.861189
 21
8.375908
 31
0.0
  0
LINE
  8
0
 62
     0
 10
13.9
 20
5.237942
 30
0.0
 11
16.897097
 21
8.235039
 31
0.0
  0
LINE
  8
0
 62
     0
 10
14.038835
 20
5.2
 30
0.0
 11
16.924779
 21
8.085944
 31
0.0
  0
LINE
  8
0
 62
     0
 10
14.215611
 20
5.2
 30
0.0
 11
16.942997
 21
7.927385
 31
0.0
  0
LINE
  8
0
 62
     0
 10
14.392388
 20
5.2
 30
0.0
 11
16.949987
 21
7.757599
 31
0.0
  0
LINE
  8
0
 62
     0
 10
14.569165
 20
5.2
 30
0.0
 11
16.943101
 21
7.573936
 31
0.0
  0
LINE
  8
0
 62
     0
 10
14.745942
 20
5.2
 30
0.0
 11
16.918037
 21
7.372095
 31
0.0
  0
LINE
  8
0
 62
     0
 10
14.922718
 20
5.2
 30
0.0
 11
16.866909
 21
7.144191
 31
0.0
  0
LINE
  8
0
 62
     0
 10
15.099495
 20
5.2
 30
0.0
 11
16.771715
 21
6.87222
 31
0.0
  0
LINE
  8
0
 62
     0
 10
15.276272
 20
5.2
 30
0.0
 11
15.847951
 21
5.77168
 31
0.0
  0
LINE
  8
0
 62
     0
 10
15.96673
 20
5.890458
 30
0.0
 11
16.559542
 21
6.48327
 31
0.0
  0
LINE
  8
0
 62
     0
 10
15.453048
 20
5.2
 30
0.0
 11
15.970661
 21
5.717613
 31
0.0
  0
LINE
  8
0
 62
     0
 10
15.629825
 20
5.2
 30
0.0
 11
16.088934
 21
5.659109
 31
0.0
  0
LINE
  8
0
 62
     0
 10
15.806602
 20
5.2
 30
0.0
 11
16.202964
 21
5.596363
 31
0.0
  0
LINE
  8
0
 62
     0
 10
15.983378
 20
5.2
 30
0.0
 11
16.312909
 21
5.529531
 31
0.0
  0
LINE
  8
0
 62
     0
 10
16.160155
 20
5.2
 30
0.0
 11
16.418895
 21
5.45874
 31
0.0
  0
LINE
  8
0
 62
     0
 10
16.336932
 20
5.2
 30
0.0
 11
16.521021
 21
5.384089
 31
0.0
  0
LINE
  8
0
 62
     0
 10
16.513708
 20
5.2
 30
0.0
 11
16.619363
 21
5.305655
 31
0.0
  0
LINE
  8
0
 62
     0
 10
16.690485
 20
5.2
 30
0.0
 11
16.713975
 21
5.22349
 31
0.0
  0
ENDBLK
  8
0
  0
BLOCK
  8
0
  2
*X15
 70
    65
 10
0.0
 20
0.0
 30
0.0
  3
*X
  0
LINE
  8
0
 62
     0
 10
13.9
 20
0.818525
 30
0.0
 11
17.39645
 21
4.314974
 31
0.0
  0
LINE
  8
0
 62
     0
 10
13.9
 20
0.995301
 30
0.0
 11
17.336354
 21
4.431655
 31
0.0
  0
LINE
  8
0
 62
     0
 10
13.9
 20
1.172078
 30
0.0
 11
17.272078
 21
4.544156
 31
0.0
  0
LINE
  8
0
 62
     0
 10
13.9
 20
1.348855
 30
0.0
 11
17.203766
 21
4.652621
 31
0.0
  0
LINE
  8
0
 62
     0
 10
13.9
 20
1.525631
 30
0.0
 11
17.131535
 21
4.757167
 31
0.0
  0
LINE
  8
0
 62
     0
 10
13.9
 20
1.702408
 30
0.0
 11
16.997592
 21
4.8
 31
0.0
  0
LINE
  8
0
 62
     0
 10
13.9
 20
1.879185
 30
0.0
 11
16.820815
 21
4.8
 31
0.0
  0
LINE
  8
0
 62
     0
 10
13.9
 20
2.055961
 30
0.0
 11
16.644039
 21
4.8
 31
0.0
  0
LINE
  8
0
 62
     0
 10
13.9
 20
2.232738
 30
0.0
 11
16.467262
 21
4.8
 31
0.0
  0
LINE
  8
0
 62
     0
 10
13.9
 20
2.409515
 30
0.0
 11
16.290485
 21
4.8
 31
0.0
  0
LINE
  8
0
 62
     0
 10
13.9
 20
2.586292
 30
0.0
 11
16.113708
 21
4.8
 31
0.0
  0
LINE
  8
0
 62
     0
 10
13.9
 20
2.763068
 30
0.0
 11
15.936932
 21
4.8
 31
0.0
  0
LINE
  8
0
 62
     0
 10
13.9
 20
2.939845
 30
0.0
 11
15.760155
 21
4.8
 31
0.0
  0
LINE
  8
0
 62
     0
 10
13.9
 20
3.116622
 30
0.0
 11
15.583378
 21
4.8
 31
0.0
  0
LINE
  8
0
 62
     0
 10
13.9
 20
3.293398
 30
0.0
 11
15.406602
 21
4.8
 31
0.0
  0
LINE
  8
0
 62
     0
 10
13.9
 20
3.470175
 30
0.0
 11
15.229825
 21
4.8
 31
0.0
  0
LINE
  8
0
 62
     0
 10
13.9
 20
3.646952
 30
0.0
 11
15.053048
 21
4.8
 31
0.0
  0
LINE
  8
0
 62
     0
 10
13.9
 20
3.823728
 30
0.0
 11
14.876272
 21
4.8
 31
0.0
  0
LINE
  8
0
 62
     0
 10
13.9
 20
4.000505
 30
0.0
 11
14.699495
 21
4.8
 31
0.0
  0
LINE
  8
0
 62
     0
 10
13.9
 20
4.177282
 30
0.0
 11
14.522718
 21
4.8
 31
0.0
  0
LINE
  8
0
 62
     0
 10
13.9
 20
4.354058
 30
0.0
 11
14.345942
 21
4.8
 31
0.0
  0
LINE
  8
0
 62
     0
 10
13.9
 20
4.530835
 30
0.0
 11
14.169165
 21
4.8
 31
0.0
  0
LINE
  8
0
 62
     0
 10
13.9
 20
4.707612
 30
0.0
 11
13.992388
 21
4.8
 31
0.0
  0
LINE
  8
0
 62
     0
 10
13.9
 20
0.641748
 30
0.0
 11
17.452185
 21
4.193933
 31
0.0
  0
LINE
  8
0
 62
     0
 10
13.9
 20
0.464971
 30
0.0
 11
17.503339
 21
4.068311
 31
0.0
  0
LINE
  8
0
 62
     0
 10
13.9
 20
0.288194
 30
0.0
 11
17.549642
 21
3.937837
 31
0.0
  0
LINE
  8
0
 62
     0
 10
13.9
 20
0.111418
 30
0.0
 11
17.590762
 21
3.80218
 31
0.0
  0
LINE
  8
0
 62
     0
 10
13.965359
 20
0.0
 30
0.0
 11
17.62629
 21
3.660931
 31
0.0
  0
LINE
  8
0
 62
     0
 10
14.142136
 20
0.000001
 30
0.0
 11
17.655713
 21
3.513577
 31
0.0
  0
LINE
  8
0
 62
     0
 10
14.318913
 20
0.000001
 30
0.0
 11
17.678385
 21
3.359473
 31
0.0
  0
LINE
  8
0
 62
     0
 10
14.49569
 20
0.000001
 30
0.0
 11
17.693473
 21
3.197784
 31
0.0
  0
LINE
  8
0
 62
     0
 10
14.672467
 20
0.000002
 30
0.0
 11
17.699875
 21
3.027409
 31
0.0
  0
LINE
  8
0
 62
     0
 10
14.853154
 20
0.003912
 30
0.0
 11
17.696088
 21
2.846846
 31
0.0
  0
LINE
  8
0
 62
     0
 10
15.046044
 20
0.020025
 30
0.0
 11
17.679975
 21
2.653956
 31
0.0
  0
LINE
  8
0
 62
     0
 10
15.254483
 20
0.051687
 30
0.0
 11
17.648313
 21
2.445517
 31
0.0
  0
LINE
  8
0
 62
     0
 10
15.483762
 20
0.10419
 30
0.0
 11
17.59581
 21
2.216238
 31
0.0
  0
LINE
  8
0
 62
     0
 10
15.743786
 20
0.187437
 30
0.0
 11
17.512563
 21
1.956214
 31
0.0
  0
LINE
  8
0
 62
     0
 10
16.058176
 20
0.32505
 30
0.0
 11
17.37495
 21
1.641824
 31
0.0
  0
LINE
  8
0
 62
     0
 10
16.54193
 20
0.632028
 30
0.0
 11
17.067972
 21
1.15807
 31
0.0
  0
ENDBLK
  8
0
  0
BLOCK
  8
0
  2
BLC15
 70
    64
 10
0.0
 20
0.0
 30
0.0
  3
BLC15
  0
LINE
  8
0
  6
CONTINUOUS
 10
0.142084
 20
3.490022
 30
0.0
 11
0.142084
 21
0.844365
 31
0.0
  0
LINE
  8
0
  6
CONTINUOUS
 10
-0.461611
 20
-0.937188
 30
0.0
 11
0.745779
 21
-0.937188
 31
0.0
  0
LINE
  8
0
  6
CONTINUOUS
 10
-0.894108
 20
-0.049675
 30
0.0
 11
1.169267
 21
-0.049675
 31
0.0
  0
LINE
  8
0
  6
CONTINUOUS
 10
-1.389679
 20
0.844365
 30
0.0
 11
1.673848
 21
0.844365
 31
0.0
  0
ENDBLK
  8
0
  0
BLOCK
  8
0
  2
BLC55
 70
    64
 10
0.0
 20
0.0
 30
0.0
  3
BLC55
  0
INSERT
  8
SWEDEN
  6
CENTER
  2
BLC5
 10
0.087066
 20
-0.756831
 30
0.0
 41
0.6
 42
0.6
 43
0.6
  0
ENDBLK
  8
0
  0
BLOCK
  8
0
  2
BLC5
 70
    64
 10
0.0
 20
0.0
 30
0.0
  3
BLC5
  0
TEXT
  8
0
 10
-3.043704
 20
-6.645912
 30
0.0
 40
3.2
  1
PE
  0
LINE
  8
0
 10
-2.946392
 20
1.181176
 30
0.0
 11
2.135458
 21
1.181176
 31
0.0
  0
LINE
  8
0
 10
-0.48656
 20
2.238362
 30
0.0
 11
-0.48656
 21
6.930438
 31
0.0
  0
LINE
  8
0
 10
-1.973271
 20
0.065258
 30
0.0
 11
1.225411
 21
0.065258
 31
0.0
  0
LINE
  8
0
 10
2.685091
 20
2.238362
 30
0.0
 11
1.68494
 21
2.238362
 31
0.0
  0
LINE
  8
0
 10
-3.505035
 20
2.238362
 30
0.0
 11
2.649049
 21
2.238362
 31
0.0
  0
CIRCLE
  8
0
 10
-0.47755
 20
1.422632
 30
0.0
 40
3.804563
  0
ENDBLK
  8
0
  0
BLOCK
  8
0
  2
BLC43
 70
    64
 10
0.0
 20
0.0
 30
0.0
  3
BLC43
  0
TEXT
  8
SWEDEN2
  6
CONTINUOUS
 10
-0.646672
 20
-0.986365
 30
0.0
 40
2.0
  1
+
  0
ENDBLK
  8
0
  0
BLOCK
  8
0
  2
BLC42
 70
    64
 10
0.0
 20
0.0
 30
0.0
  3
BLC42
  0
TEXT
  8
SWEDEN2
  6
CONTINUOUS
 10
-0.655237
 20
-0.99442
 30
0.0
 40
2.0
  1
-
  0
ENDBLK
  8
0
  0
BLOCK
  8
0
  2
BLC44
 70
    64
 10
0.0
 20
0.0
 30
0.0
  3
BLC44
  0
LINE
  8
HEL035
 10
-2.520993
 20
1.697877
 30
0.0
 11
1.479007
 21
1.697877
 31
0.0
  0
INSERT
  8
HEL035
  2
WKU130
 10
-2.181043
 20
-0.027675
 30
0.0
 41
0.8
 42
0.8
 43
0.8
  0
ENDBLK
  8
0
  0
BLOCK
  8
0
  2
BLC25
 70
     0
 10
0.0
 20
0.0
 30
0.0
  3
BLC25
  0
TEXT
  8
0
  6
CONTINUOUS
 10
2.0
 20
30.666667
 30
0.0
 40
2.0
  1
1)
 11
2.0
 21
30.0
 31
0.0
 73
     1
  0
TEXT
  8
0
 10
6.0
 20
2.0
 30
0.0
 40
2.0
  1
7B    27     26
 11
6.0
 21
1.333333
 31
0.0
 73
     1
  0
TEXT
  8
0
 10
6.0
 20
5.333333
 30
0.0
 40
2.0
  1
5B     9      8
 11
6.0
 21
4.666667
 31
0.0
 73
     1
  0
TEXT
  8
0
 10
6.0
 20
8.666667
 30
0.0
 40
2.0
  1
3B     3      2
 11
6.0
 21
8.0
 31
0.0
 73
     1
  0
TEXT
  8
0
 10
32.0
 20
12.666667
 30
0.0
 40
2.0
  1
In=5A
 11
32.0
 21
12.0
 31
0.0
 73
     1
  0
TEXT
  8
0
 10
16.0
 20
12.666667
 30
0.0
 40
2.0
  1
In=1A 
 11
16.0
 21
12.0
 31
0.0
 73
     1
  0
TEXT
  8
0
 10
26.0
 20
18.666667
 30
0.0
 40
2.0
  1
108:
 11
26.0
 21
18.0
 31
0.0
 73
     1
  0
TEXT
  8
0
 10
6.0
 20
18.666667
 30
0.0
 40
2.0
  1
101:       
 11
6.0
 21
18.0
 31
0.0
 73
     1
  0
TEXT
  8
0
 10
6.0
 20
24.666667
 30
0.0
 40
2.0
  1
TERMINALS / UTTAG
 11
6.0
 21
24.0
 31
0.0
 73
     1
  0
LINE
  8
0
 10
0.0
 20
12.0
 30
0.0
 11
44.0
 21
12.0
 31
0.0
  0
LINE
  8
0
 10
28.0
 20
18.0
 30
0.0
 11
28.0
 21
0.0
 31
0.0
  0
LINE
  8
0
 10
14.0
 20
18.0
 30
0.0
 11
44.0
 21
18.0
 31
0.0
  0
LINE
  8
0
 10
14.0
 20
24.0
 30
0.0
 11
14.0
 21
0.0
 31
0.0
  0
LINE
  8
0
 10
0.0
 20
24.0
 30
0.0
 11
44.0
 21
24.0
 31
0.0
  0
LINE
  8
0
 10
44.0
 20
0.0
 30
0.0
 11
44.0
 21
30.0
 31
0.0
  0
LINE
  8
0
 10
0.0
 20
0.0
 30
0.0
 11
44.0
 21
0.0
 31
0.0
  0
LINE
  8
0
 10
0.0
 20
30.0
 30
0.0
 11
0.0
 21
0.0
 31
0.0
  0
LINE
  8
0
 10
44.0
 20
30.0
 30
0.0
 11
0.0
 21
30.0
 31
0.0
  0
ENDBLK
  8
0
  0
BLOCK
  8
0
  2
B67
 70
     0
 10
0.0
 20
0.0
 30
0.0
  3
B67
  0
LINE
  8
BASE
  6
CONTINUOUS
 10
-1.897097
 20
-3.556254
 30
0.0
 11
-2.963522
 21
-2.489829
 31
0.0
  0
LINE
  8
BASE
  6
CONTINUOUS
 10
-2.963522
 20
-2.489829
 30
0.0
 11
-1.897097
 21
-1.423405
 31
0.0
  0
LINE
  8
BASE
  6
CONTINUOUS
 10
-1.897097
 20
-1.423405
 30
0.0
 11
-0.830672
 21
-2.489829
 31
0.0
  0
LINE
  8
BASE
  6
CONTINUOUS
 10
-0.830672
 20
-2.489829
 30
0.0
 11
-1.897097
 21
-3.556254
 31
0.0
  0
LINE
  8
BASE
  6
DASHED
 10
0.0
 20
0.0
 30
0.0
 11
-5.000117
 21
0.0
 31
0.0
  0
TEXT
  8
BASE
  6
DASHED
 10
-8.422045
 20
-3.481615
 30
0.0
 40
2.0
  1
14B
  0
LINE
  8
BASE
  6
DASHED
 10
-12.5
 20
0.0
 30
0.0
 11
-30.0
 21
0.0
 31
0.0
  0
TEXT
  8
BASE
  6
DASHED
 10
-12.5
 20
3.402046
 30
0.0
 40
2.0
  1
101
  0
TEXT
  8
BASE
  6
DASHED
 10
-18.160336
 20
-3.602839
 30
0.0
 40
2.0
  1
14A 
  0
INSERT
  8
0
  6
CONTINUOUS
  2
B37
 10
-12.5
 20
0.0
 30
0.0
 50
90.0
  0
ENDBLK
  8
0
  0
BLOCK
  8
0
  2
B37
 70
    64
 10
0.0
 20
0.0
 30
0.0
  3
B37
  0
LINE
  8
BASE
  6
CONTINUOUS
 10
-0.006589
 20
-6.018035
 30
0.0
 11
2.434804
 21
0.662841
 31
0.0
  0
LINE
  8
BASE
  6
CONTINUOUS
 10
0.0
 20
0.0
 30
0.0
 11
2.765661
 21
0.0
 31
0.0
  0
LINE
  8
BASE
  6
CONTINUOUS
 10
2.434804
 20
0.662841
 30
0.0
 11
1.549106
 21
1.107734
 31
0.0
  0
CIRCLE
  8
BASE
  6
CONTINUOUS
 10
0.0
 20
-6.758945
 30
0.0
 40
0.740939
  0
ENDBLK
  8
0
  0
BLOCK
  8
0
  2
B204
 70
     0
 10
0.0
 20
0.0
 30
0.0
  3
B204
  0
TEXT
  8
BASE
  6
CONTINUOUS
 10
-5.818294
 20
-13.161989
 30
0.0
 40
2.0
  1
12A
  0
TEXT
  8
BASE
  6
CONTINUOUS
 10
-5.818294
 20
-3.442734
 30
0.0
 40
2.0
  1
11A
  0
LINE
  8
BASE
  6
CONTINUOUS
 10
-5.0
 20
-10.0
 30
0.0
 11
0.0
 21
-10.0
 31
0.0
  0
LINE
  8
BASE
  6
CONTINUOUS
 10
-20.0
 20
-10.017028
 30
0.0
 11
-10.0
 21
-10.017028
 31
0.0
  0
LINE
  8
BASE
  6
CONTINUOUS
 10
-10.0
 20
-10.017028
 30
0.0
 11
-10.0
 21
-7.234339
 31
0.0
  0
LINE
  8
BASE
  6
CONTINUOUS
 10
-10.897173
 20
-7.565196
 30
0.0
 11
-11.342066
 21
-8.450894
 31
0.0
  0
LINE
  8
BASE
  6
CONTINUOUS
 10
-10.897173
 20
-7.565196
 30
0.0
 11
-5.0
 21
-10.0
 31
0.0
  0
LINE
  8
BASE
  6
CONTINUOUS
 10
-10.897173
 20
2.434804
 30
0.0
 11
-5.0
 21
0.0
 31
0.0
  0
LINE
  8
BASE
  6
CONTINUOUS
 10
-10.897173
 20
2.434804
 30
0.0
 11
-11.342066
 21
1.549106
 31
0.0
  0
LINE
  8
BASE
  6
CONTINUOUS
 10
-10.0
 20
-0.017028
 30
0.0
 11
-10.0
 21
2.765661
 31
0.0
  0
LINE
  8
BASE
  6
CONTINUOUS
 10
-20.0
 20
-0.017028
 30
0.0
 11
-10.0
 21
-0.017028
 31
0.0
  0
LINE
  8
BASE
  6
CONTINUOUS
 10
-5.0
 20
0.0
 30
0.0
 11
0.0
 21
0.0
 31
0.0
  0
ENDBLK
  8
0
  0
BLOCK
  8
0
  2
B13
 70
     0
 10
0.0
 20
0.0
 30
0.0
  3
B13
  0
LINE
  8
BASE
  6
CONTINUOUS
 10
0.00793
 20
5.0
 30
0.0
 11
0.00793
 21
-5.0
 31
0.0
  0
LINE
  8
BASE
  6
CONTINUOUS
 10
0.0
 20
-11.000004
 30
0.0
 11
0.0
 21
-17.5
 31
0.0
  0
LINE
  8
BASE
  6
CONTINUOUS
 10
5.0
 20
-11.000004
 30
0.0
 11
5.0
 21
-17.5
 31
0.0
  0
LINE
  8
BASE
  6
CONTINUOUS
 10
4.982972
 20
5.0
 30
0.0
 11
4.982972
 21
-5.0
 31
0.0
  0
LINE
  8
BASE
  6
CONTINUOUS
 10
10.0
 20
-5.0
 30
0.0
 11
10.0
 21
-1.412306
 31
0.0
  0
LINE
  8
BASE
  6
CONTINUOUS
 10
10.0
 20
-0.21377
 30
0.0
 11
10.0
 21
2.28623
 31
0.0
  0
LINE
  8
BASE
  6
CONTINUOUS
 10
10.0
 20
-11.000004
 30
0.0
 11
10.0
 21
-17.5
 31
0.0
  0
LINE
  8
BASE
  6
CONTINUOUS
 10
10.0
 20
-11.000004
 30
0.0
 11
12.434804
 21
-4.337159
 31
0.0
  0
LINE
  8
BASE
  6
CONTINUOUS
 10
10.0
 20
-5.0
 30
0.0
 11
12.765661
 21
-5.0
 31
0.0
  0
LINE
  8
BASE
  6
CONTINUOUS
 10
12.434804
 20
-4.337159
 30
0.0
 11
11.549106
 21
-3.892266
 31
0.0
  0
LINE
  8
BASE
  6
CONTINUOUS
 10
5.0
 20
-5.0
 30
0.0
 11
7.765661
 21
-5.0
 31
0.0
  0
LINE
  8
BASE
  6
CONTINUOUS
 10
7.434804
 20
-4.337159
 30
0.0
 11
6.549106
 21
-3.892266
 31
0.0
  0
LINE
  8
BASE
  6
CONTINUOUS
 10
5.0
 20
-11.000004
 30
0.0
 11
7.434804
 21
-4.337159
 31
0.0
  0
LINE
  8
BASE
  6
CONTINUOUS
 10
0.0
 20
-11.000004
 30
0.0
 11
2.434804
 21
-4.337159
 31
0.0
  0
LINE
  8
BASE
  6
CONTINUOUS
 10
0.0
 20
-5.0
 30
0.0
 11
2.765661
 21
-5.0
 31
0.0
  0
ENDBLK
  8
0
  0
BLOCK
  8
0
  2
B801
 70
     0
 10
0.0
 20
0.0
 30
0.0
  3
B801
  0
LINE
  8
BASE
  6
CONTINUOUS
 10
8.257914
 20
-24.021987
 30
0.0
 11
5.912148
 21
-22.686634
 31
0.0
  0
LINE
  8
BASE
  6
CONTINUOUS
 10
5.912148
 20
-22.686634
 30
0.0
 11
8.257914
 21
-21.496715
 31
0.0
  0
TEXT
  8
BASE
  6
DASHED
 10
3.427634
 20
-24.08538
 30
0.0
 40
2.5
  1
U
  0
TEXT
  8
BASE
  6
HIDDEN
 10
0.838365
 20
-24.099722
 30
0.0
 40
2.5
  1
3
  0
LINE
  8
BASE
  6
CONTINUOUS
 10
10.068627
 20
-24.021987
 30
0.0
 11
7.722862
 21
-22.686634
 31
0.0
  0
LINE
  8
BASE
  6
CONTINUOUS
 10
7.722862
 20
-22.686634
 30
0.0
 11
10.068627
 21
-21.496715
 31
0.0
  0
LINE
  8
BASE
  6
CONTINUOUS
 10
7.722862
 20
-14.994414
 30
0.0
 11
10.068627
 21
-13.804495
 31
0.0
  0
LINE
  8
BASE
  6
CONTINUOUS
 10
10.068627
 20
-16.329768
 30
0.0
 11
7.722862
 21
-14.994414
 31
0.0
  0
TEXT
  8
BASE
  6
HIDDEN
 10
0.838365
 20
-16.407503
 30
0.0
 40
2.5
  1
3
  0
TEXT
  8
BASE
  6
DASHED
 10
3.427634
 20
-16.393161
 30
0.0
 40
2.5
  1
U
  0
TEXT
  8
BASE
  6
DASHED
 10
1.298048
 20
-3.864657
 30
0.0
 40
2.5
  1
U
  0
LINE
  8
BASE
  6
CONTINUOUS
 10
4.35057
 20
-2.567729
 30
0.0
 11
6.696336
 21
-1.37781
 31
0.0
  0
LINE
  8
BASE
  6
CONTINUOUS
 10
6.696336
 20
-3.903083
 30
0.0
 11
4.35057
 21
-2.567729
 31
0.0
  0
TEXT
  8
BASE
  6
CONTINUOUS
 10
0.906909
 20
-7.469423
 30
0.0
 40
1.5
  1
EN
  0
LINE
  8
BASE
  6
CONTINUOUS
 10
5.0
 20
-6.711406
 30
0.0
 11
7.5
 21
-6.711406
 31
0.0
  0
LINE
  8
BASE
  6
CONTINUOUS
 10
10.0
 20
-6.711406
 30
0.0
 11
12.5
 21
-6.711406
 31
0.0
  0
LINE
  8
BASE
  6
CONTINUOUS
 10
10.0
 20
-6.711406
 30
0.0
 11
7.775553
 21
-7.272049
 31
0.0
  0
TEXT
  8
BASE
  6
HIDDEN
 10
21.197479
 20
-17.134847
 30
0.0
 40
2.5
  1
3
  0
LINE
  8
BASE
  6
CONTINUOUS
 10
26.036035
 20
-15.77269
 30
0.0
 11
28.381801
 21
-14.582771
 31
0.0
  0
LINE
  8
BASE
  6
CONTINUOUS
 10
28.381801
 20
-17.108044
 30
0.0
 11
26.036035
 21
-15.77269
 31
0.0
  0
TEXT
  8
BASE
  6
DASHED
 10
23.786748
 20
-17.120505
 30
0.0
 40
2.5
  1
U
  0
LINE
  8
BASE
  6
CONTINUOUS
 10
5.912148
 20
-14.994414
 30
0.0
 11
8.257914
 21
-13.804495
 31
0.0
  0
LINE
  8
BASE
  6
CONTINUOUS
 10
8.257914
 20
-16.329768
 30
0.0
 11
5.912148
 21
-14.994414
 31
0.0
  0
LINE
  8
BASE
  6
CONTINUOUS
 10
0.0
 20
-17.5
 30
0.0
 11
20.0
 21
-17.5
 31
0.0
  0
ARC
  8
BASE
  6
HIDDEN
 10
18.152505
 20
-6.947078
 30
0.0
 40
4.998196
 50
206.402922
 51
282.21115
  0
LINE
  8
BASE
  6
CONTINUOUS
 10
19.241301
 20
-10.030344
 30
0.0
 11
19.241301
 21
-11.818475
 31
0.0
  0
LINE
  8
BASE
  6
CONTINUOUS
 10
16.287189
 20
-8.67746
 30
0.0
 11
17.187866
 21
-9.801209
 31
0.0
  0
LINE
  8
BASE
  6
CONTINUOUS
 10
13.841782
 20
-12.043225
 30
0.0
 11
16.717892
 21
-9.214667
 31
0.0
  0
LINE
  8
BASE
  6
CONTINUOUS
 10
11.457637
 20
-10.875623
 30
0.0
 11
19.245842
 21
-10.875623
 31
0.0
  0
LINE
  8
BASE
  6
CONTINUOUS
 10
11.426606
 20
-10.030344
 30
0.0
 11
11.426606
 21
-11.818475
 31
0.0
  0
LINE
  8
BASE
  6
CONTINUOUS
 10
6.696336
 20
-12.062803
 30
0.0
 11
4.35057
 21
-10.727449
 31
0.0
  0
LINE
  8
BASE
  6
CONTINUOUS
 10
4.35057
 20
-10.727449
 30
0.0
 11
6.696336
 21
-9.53753
 31
0.0
  0
TEXT
  8
BASE
  6
DASHED
 10
1.298048
 20
-12.024377
 30
0.0
 40
2.5
  1
U
  0
LINE
  8
BASE
  6
CONTINUOUS
 10
0.0
 20
-5.0
 30
0.0
 11
20.0
 21
-5.0
 31
0.0
  0
LINE
  8
BASE
  6
CONTINUOUS
 10
11.426606
 20
-21.789526
 30
0.0
 11
11.426606
 21
-23.577657
 31
0.0
  0
LINE
  8
BASE
  6
CONTINUOUS
 10
11.457637
 20
-22.634804
 30
0.0
 11
19.245842
 21
-22.634804
 31
0.0
  0
LINE
  8
BASE
  6
CONTINUOUS
 10
13.841782
 20
-23.802407
 30
0.0
 11
16.717892
 21
-20.973848
 31
0.0
  0
LINE
  8
BASE
  6
CONTINUOUS
 10
16.287189
 20
-20.436641
 30
0.0
 11
17.187866
 21
-21.56039
 31
0.0
  0
LINE
  8
BASE
  6
CONTINUOUS
 10
19.241301
 20
-21.789526
 30
0.0
 11
19.241301
 21
-23.577657
 31
0.0
  0
LINE
  8
BASE
  6
CONTINUOUS
 10
10.0
 20
-19.211406
 30
0.0
 11
12.5
 21
-19.211406
 31
0.0
  0
LINE
  8
BASE
  6
CONTINUOUS
 10
10.0
 20
-19.211406
 30
0.0
 11
7.775553
 21
-19.772049
 31
0.0
  0
LINE
  8
BASE
  6
CONTINUOUS
 10
5.0
 20
-19.211406
 30
0.0
 11
7.5
 21
-19.211406
 31
0.0
  0
TEXT
  8
BASE
  6
CONTINUOUS
 10
0.906909
 20
-19.969423
 30
0.0
 40
1.5
  1
EN
  0
LINE
  8
BASE
  6
CONTINUOUS
 10
0.0
 20
-12.5
 30
0.0
 11
20.0
 21
-12.5
 31
0.0
  0
TEXT
  8
BASE
  6
CONTINUOUS
 10
24.847994
 20
-4.758946
 30
0.0
 40
2.5
  1
U2
  0
LINE
  8
BASE
  6
CONTINUOUS
 10
20.0
 20
-15.0
 30
0.0
 11
20.0
 21
-25.0
 31
0.0
  0
LINE
  8
BASE
  6
CONTINUOUS
 10
0.0
 20
-25.0
 30
0.0
 11
20.0
 21
-25.0
 31
0.0
  0
LINE
  8
BASE
  6
CONTINUOUS
 10
0.0
 20
0.0
 30
0.0
 11
0.0
 21
-15.0
 31
0.0
  0
LINE
  8
BASE
  6
CONTINUOUS
 10
20.0
 20
-15.0
 30
0.0
 11
20.0
 21
15.0
 31
0.0
  0
LINE
  8
BASE
  6
CONTINUOUS
 10
20.0
 20
-25.0
 30
0.0
 11
30.450615
 21
-25.0
 31
0.0
  0
CIRCLE
  8
BASE
  6
CONTINUOUS
 10
-0.999907
 20
-6.715921
 30
0.0
 40
1.0
  0
CIRCLE
  8
BASE
  6
CONTINUOUS
 10
-0.999907
 20
-19.215921
 30
0.0
 40
1.0
  0
INSERT
  8
BASE
  6
CONTINUOUS
  2
BLC29
 10
-4.566684
 20
-15.128475
 30
0.0
 50
180.0
  0
INSERT
  8
BASE
  6
CONTINUOUS
  2
BLC29
 10
-4.566684
 20
-11.035599
 30
0.0
 50
180.0
  0
INSERT
  8
BASE
  6
CONTINUOUS
  2
BLC29
 10
-4.566684
 20
-22.781359
 30
0.0
 50
180.0
  0
LINE
  8
BASE
  6
CONTINUOUS
 10
-1.999907
 20
-19.216004
 30
0.0
 11
-12.5
 21
-19.216004
 31
0.0
  0
LINE
  8
BASE
  6
CONTINUOUS
 10
-1.999907
 20
-6.716004
 30
0.0
 11
-12.5
 21
-6.716004
 31
0.0
  0
INSERT
  8
BASE
  6
CONTINUOUS
  2
BLC29
 10
-4.566684
 20
-2.628477
 30
0.0
 50
180.0
  0
ENDBLK
  8
0
  0
BLOCK
  8
0
  2
B506
 70
    64
 10
0.0
 20
0.0
 30
0.0
  3
B506
  0
INSERT
  8
BASE
  6
CONTINUOUS
  2
BLC29
 10
1.994594
 20
-0.128476
 30
0.0
 50
180.0
  0
ENDBLK
  8
0
  0
ENDSEC
  0
SECTION
  2
ENTITIES
  0
INSERT
  8
0
  2
1
 10
65.405438
 20
98.713066
 30
0.0
  0
INSERT
  8
0
  2
1
 10
72.541652
 20
49.71056
 30
0.0
  0
INSERT
  8
0
  2
1
 10
85.390443
 20
73.497234
 30
0.0
  0
LINE
  8
0
  6
CENTER
 62
   249
 10
230.0
 20
185.0
 30
0.0
 11
230.0
 21
77.5
 31
0.0
  0
LINE
  8
0
  6
CENTER
 62
   249
 10
230.0
 20
77.5
 30
0.0
 11
230.0
 21
55.0
 31
0.0
  0
LINE
  8
0
  6
CONTINUOUS
 62
   249
 10
212.5
 20
70.0
 30
0.0
 11
222.5
 21
70.0
 31
0.0
  0
LINE
  8
0
  6
CONTINUOUS
 62
   249
 10
212.5
 20
70.0
 30
0.0
 11
215.0
 21
72.5
 31
0.0
  0
LINE
  8
0
  6
CONTINUOUS
 62
   249
 10
217.5
 20
70.0
 30
0.0
 11
220.0
 21
72.5
 31
0.0
  0
LINE
  8
0
  6
CONTINUOUS
 62
   249
 10
222.5
 20
70.0
 30
0.0
 11
225.0
 21
72.5
 31
0.0
  0
LINE
  8
0
  6
CONTINUOUS
 62
   249
 10
217.5
 20
70.0
 30
0.0
 11
217.5
 21
55.0
 31
0.0
  0
LINE
  8
0
  6
CONTINUOUS
 62
   249
 10
205.0
 20
72.5
 30
0.0
 11
205.0
 21
55.0
 31
0.0
  0
LINE
  8
0
  6
CONTINUOUS
 62
   249
 10
200.0
 20
72.5
 30
0.0
 11
200.0
 21
55.0
 31
0.0
  0
LINE
  8
0
  6
DASHED
 62
   249
 10
205.0
 20
55.0
 30
0.0
 11
205.0
 21
47.5
 31
0.0
  0
LINE
  8
0
  6
DASHED
 62
   249
 10
217.5
 20
55.0
 30
0.0
 11
217.5
 21
47.5
 31
0.0
  0
LINE
  8
0
  6
DASHED
 62
   249
 10
200.0
 20
55.0
 30
0.0
 11
200.0
 21
47.5
 31
0.0
  0
LINE
  8
0
  6
DASHED
 62
   249
 10
172.5
 20
55.0
 30
0.0
 11
172.5
 21
47.5
 31
0.0
  0
LINE
  8
0
  6
DASHED
 62
   249
 10
167.5
 20
55.0
 30
0.0
 11
167.5
 21
47.5
 31
0.0
  0
LINE
  8
0
  6
DASHED
 62
   249
 10
152.5
 20
55.0
 30
0.0
 11
152.5
 21
47.5
 31
0.0
  0
LINE
  8
0
  6
CONTINUOUS
 62
   249
 10
167.5
 20
140.232891
 30
0.0
 11
197.950615
 21
140.232891
 31
0.0
  0
TEXT
  8
0
  6
CONTINUOUS
 62
   249
 10
179.408766
 20
136.295815
 30
0.0
 40
2.5
  1
IRF
 11
179.408766
 21
135.462481
 31
0.0
 73
     1
  0
LINE
  8
0
  6
CONTINUOUS
 62
   249
 10
197.950615
 20
135.0
 30
0.0
 11
167.5
 21
135.0
 31
0.0
  0
LINE
  8
0
  6
CONTINUOUS
 62
   249
 10
197.950615
 20
177.209828
 30
0.0
 11
197.950615
 21
135.0
 31
0.0
  0
LINE
  8
0
  6
CONTINUOUS
 62
   249
 10
197.950615
 20
200.0
 30
0.0
 11
197.950615
 21
177.18832
 31
0.0
  0
LINE
  8
0
  6
CONTINUOUS
 62
   249
 10
167.5
 20
145.0
 30
0.0
 11
197.950615
 21
145.0
 31
0.0
  0
CIRCLE
  8
0
  6
CONTINUOUS
 62
   249
 10
166.512659
 20
137.498324
 30
0.0
 40
1.0
  0
LINE
  8
0
  6
CONTINUOUS
 62
   249
 10
167.5
 20
190.0
 30
0.0
 11
167.5
 21
175.0
 31
0.0
  0
LINE
  8
0
  6
CONTINUOUS
 62
   249
 10
167.5
 20
190.0
 30
0.0
 11
167.5
 21
195.0
 31
0.0
  0
LINE
  8
0
  6
CONTINUOUS
 62
   249
 10
167.5
 20
175.0
 30
0.0
 11
167.5
 21
135.0
 31
0.0
  0
LINE
  8
0
  6
CENTER
 62
   249
 10
37.5
 20
215.0
 30
0.0
 11
37.5
 21
55.0
 31
0.0
  0
LINE
  8
0
  6
CONTINUOUS
 62
   249
 10
65.0
 20
117.5
 30
0.0
 11
70.0
 21
117.5
 31
0.0
  0
LINE
  8
0
  6
CONTINUOUS
 62
   249
 10
65.0
 20
117.5
 30
0.0
 11
59.256076
 21
114.285297
 31
0.0
  0
TEXT
  8
0
  6
DASHED
 62
   249
 10
58.197373
 20
118.403492
 30
0.0
 40
2.0
  1
A
  7
ROMANS
  0
TEXT
  8
0
  6
DASHED
 62
   249
 10
76.643373
 20
108.774588
 30
0.0
 40
2.0
  1
B
  7
ROMANS
  0
TEXT
  8
0
  6
DASHED
 62
   249
 10
93.555109
 20
98.134364
 30
0.0
 40
2.0
  1
C
  7
ROMANS
  0
TEXT
  8
0
  6
DASHED
 62
   249
 10
110.984014
 20
88.255752
 30
0.0
 40
2.0
  1
D
  7
ROMANS
  0
TEXT
  8
0
  6
DASHED
 62
   249
 10
141.066284
 20
68.236332
 30
0.0
 40
2.0
  1
F
  7
ROMANS
  0
LINE
  8
0
  6
CENTER
 62
   249
 10
37.5
 20
55.0
 30
0.0
 11
230.0
 21
55.0
 31
0.0
  0
LINE
  8
0
  6
CENTER
 62
   249
 10
230.0
 20
207.5
 30
0.0
 11
230.0
 21
215.0
 31
0.0
  0
LINE
  8
0
  6
CENTER
 62
   249
 10
230.0
 20
215.0
 30
0.0
 11
37.5
 21
215.0
 31
0.0
  0
LINE
  8
0
  6
DASHED
 62
   249
 10
182.5
 20
55.0
 30
0.0
 11
182.5
 21
47.5
 31
0.0
  0
LINE
  8
0
  6
DASHED
 62
   249
 10
187.5
 20
55.0
 30
0.0
 11
187.5
 21
47.5
 31
0.0
  0
TEXT
  8
0
  6
DASHED
 62
   249
 10
6.869019
 20
207.5
 30
0.0
 40
2.0
  1
1)
  7
ROMANS
  0
TEXT
  8
0
  6
CONTINUOUS
 62
   249
 10
179.490407
 20
141.066424
 30
0.0
 40
2.5
  1
I/O
  0
LINE
  8
0
  6
CONTINUOUS
 62
   249
 10
167.5
 20
195.0
 30
0.0
 11
167.5
 21
200.0
 31
0.0
  0
LINE
  8
0
  6
CONTINUOUS
 62
   249
 10
167.5
 20
200.0
 30
0.0
 11
197.950615
 21
200.0
 31
0.0
  0
LINE
  8
0
  6
CONTINUOUS
 62
   249
 10
117.5
 20
130.0
 30
0.0
 11
117.5
 21
127.5
 31
0.0
  0
LINE
  8
0
  6
CONTINUOUS
 62
   249
 10
100.0
 20
130.0
 30
0.0
 11
100.0
 21
127.5
 31
0.0
  0
LINE
  8
0
  6
CONTINUOUS
 62
   249
 10
82.5
 20
130.0
 30
0.0
 11
82.5
 21
127.5
 31
0.0
  0
LINE
  8
0
  6
CONTINUOUS
 62
   249
 10
125.0
 20
87.5
 30
0.0
 11
167.50793
 21
87.5
 31
0.0
  0
LINE
  8
0
  6
CONTINUOUS
 62
   249
 10
70.0
 20
117.5
 30
0.0
 11
182.5
 21
117.5
 31
0.0
  0
LINE
  8
0
  6
CONTINUOUS
 62
   249
 10
110.0
 20
87.5
 30
0.0
 11
37.5
 21
87.5
 31
0.0
  0
LINE
  8
0
  6
CONTINUOUS
 62
   249
 10
110.0
 20
82.5
 30
0.0
 11
37.5
 21
82.5
 31
0.0
  0
LINE
  8
0
  6
CONTINUOUS
 62
   249
 10
137.5
 20
67.5
 30
0.0
 11
37.5
 21
67.5
 31
0.0
  0
LINE
  8
0
  6
CONTINUOUS
 62
   249
 10
137.5
 20
62.5
 30
0.0
 11
37.5
 21
62.5
 31
0.0
  0
LINE
  8
0
  6
CONTINUOUS
 62
   249
 10
165.51266
 20
137.495289
 30
0.0
 11
145.0
 21
137.495289
 31
0.0
  0
LINE
  8
0
  6
CONTINUOUS
 62
   249
 10
145.0
 20
137.495289
 30
0.0
 11
145.0
 21
122.5
 31
0.0
  0
LINE
  8
0
  6
DASHED
 62
   249
 10
145.0
 20
122.5
 30
0.0
 11
145.0
 21
66.100824
 31
0.0
  0
LINE
  8
0
  6
DASHED
 62
   249
 10
117.5
 20
127.5
 30
0.0
 11
117.5
 21
86.100824
 31
0.0
  0
LINE
  8
0
  6
DASHED
 62
   249
 10
100.0
 20
127.5
 30
0.0
 11
100.0
 21
96.100824
 31
0.0
  0
LINE
  8
0
  6
DASHED
 62
   249
 10
82.5
 20
127.5
 30
0.0
 11
82.5
 21
106.100824
 31
0.0
  0
LINE
  8
0
  6
DASHED
 62
   249
 10
62.5
 20
127.5
 30
0.0
 11
62.5
 21
116.100824
 31
0.0
  0
TEXT
  8
0
  6
CONTINUOUS
 62
   249
 10
53.413303
 20
140.010709
 30
0.0
 40
2.0
  1
SGR
  0
LINE
  8
0
  6
CONTINUOUS
 62
   249
 10
167.5
 20
157.5
 30
0.0
 11
167.5
 21
152.5
 31
0.0
  0
LINE
  8
0
  6
CENTER
 62
   249
 10
230.0
 20
207.5
 30
0.0
 11
230.0
 21
185.0
 31
0.0
  0
LINE
  8
0
  6
CONTINUOUS
 62
   249
 10
230.0
 20
170.0
 30
0.0
 11
230.0
 21
170.0
 31
0.0
  0
LINE
  8
0
  6
CONTINUOUS
 62
   249
 10
212.5
 20
172.797822
 30
0.0
 11
202.5
 21
172.797822
 31
0.0
  0
LINE
  8
0
  6
CONTINUOUS
 62
   249
 10
355.0
 20
225.0
 30
0.0
 11
375.0
 21
225.0
 31
0.0
  0
LINE
  8
0
  6
CONTINUOUS
 62
   249
 10
375.0
 20
225.0
 30
0.0
 11
375.0
 21
205.0
 31
0.0
  0
LINE
  8
0
  6
CONTINUOUS
 62
   249
 10
355.0
 20
205.0
 30
0.0
 11
355.0
 21
225.0
 31
0.0
  0
LINE
  8
0
  6
CONTINUOUS
 62
   249
 10
355.0
 20
205.0
 30
0.0
 11
375.0
 21
205.0
 31
0.0
  0
LINE
  8
0
  6
DASHED
 62
   249
 10
37.5
 20
200.0
 30
0.0
 11
15.0
 21
200.0
 31
0.0
  0
LINE
  8
0
  6
CONTINUOUS
 62
   249
 10
224.262992
 20
134.25712
 30
0.0
 11
225.479699
 21
135.667057
 31
0.0
  0
TEXT
  8
0
  6
CONTINUOUS
 62
   249
 10
225.236358
 20
136.570297
 30
0.0
 40
2.0
  1
9
  7
ROMANS
  0
LINE
  8
0
  6
DASHED
 62
   249
 10
37.5
 20
117.5
 30
0.0
 11
27.5
 21
117.5
 31
0.0
  0
LINE
  8
0
  6
DASHED
 62
   249
 10
37.5
 20
107.5
 30
0.0
 11
27.5
 21
107.5
 31
0.0
  0
LINE
  8
0
  6
DASHED
 62
   249
 10
37.5
 20
97.5
 30
0.0
 11
27.5
 21
97.5
 31
0.0
  0
LINE
  8
0
  6
DASHED
 62
   249
 10
37.5
 20
87.5
 30
0.0
 11
27.5
 21
87.5
 31
0.0
  0
LINE
  8
0
  6
DASHED
 62
   249
 10
37.5
 20
62.5
 30
0.0
 11
27.5
 21
62.5
 31
0.0
  0
LINE
  8
0
  6
CONTINUOUS
 62
   249
 10
25.0
 20
118.0
 30
0.0
 11
25.0
 21
107.0
 31
0.0
  0
LINE
  8
0
  6
CONTINUOUS
 62
   249
 10
25.0
 20
118.0
 30
0.0
 11
26.0
 21
119.0
 31
0.0
  0
LINE
  8
0
  6
CONTINUOUS
 62
   249
 10
25.0
 20
107.0
 30
0.0
 11
26.0
 21
106.0
 31
0.0
  0
LINE
  8
0
  6
CONTINUOUS
 62
   249
 10
25.0
 20
87.0
 30
0.0
 11
26.0
 21
86.0
 31
0.0
  0
LINE
  8
0
  6
CONTINUOUS
 62
   249
 10
25.0
 20
98.0
 30
0.0
 11
25.0
 21
87.0
 31
0.0
  0
LINE
  8
0
  6
CONTINUOUS
 62
   249
 10
25.0
 20
98.0
 30
0.0
 11
26.0
 21
99.0
 31
0.0
  0
TEXT
  8
0
  6
CONTINUOUS
 62
   249
 10
17.5
 20
92.080516
 30
0.0
 40
2.0
  1
3)
  7
ROMANS
  0
TEXT
  8
0
  6
CONTINUOUS
 62
   249
 10
17.5
 20
61.317201
 30
0.0
 40
2.0
  1
4)
  7
ROMANS
  0
LINE
  8
0
  6
CONTINUOUS
 62
   249
 10
47.5
 20
205.0
 30
0.0
 11
47.177696
 21
205.0
 31
0.0
  0
LINE
  8
0
  6
CONTINUOUS
 62
   249
 10
60.0
 20
117.5
 30
0.0
 11
55.0
 21
117.5
 31
0.0
  0
LINE
  8
0
  6
CONTINUOUS
 62
   249
 10
360.631307
 20
216.913992
 30
0.0
 11
368.419512
 21
216.913992
 31
0.0
  0
LINE
  8
0
  6
CONTINUOUS
 62
   249
 10
368.414971
 20
217.759271
 30
0.0
 11
368.414971
 21
215.971139
 31
0.0
  0
LINE
  8
0
  6
CONTINUOUS
 62
   249
 10
363.015452
 20
215.74639
 30
0.0
 11
365.891562
 21
218.574948
 31
0.0
  0
ARC
  8
0
  6
HIDDEN
 62
   249
 10
367.326175
 20
220.842536
 30
0.0
 40
4.998196
 50
206.402922
 51
282.21115
  0
LINE
  8
0
  6
CONTINUOUS
 62
   249
 10
365.460859
 20
219.112155
 30
0.0
 11
366.361536
 21
217.988406
 31
0.0
  0
LINE
  8
0
  6
CONTINUOUS
 62
   249
 10
360.600275
 20
217.759271
 30
0.0
 11
360.600275
 21
215.971139
 31
0.0
  0
LINE
  8
0
  6
CONTINUOUS
 62
   249
 10
167.5
 20
185.0
 30
0.0
 11
197.950615
 21
185.0
 31
0.0
  0
LINE
  8
0
  6
CONTINUOUS
 62
   249
 10
60.0
 20
130.0
 30
0.0
 11
70.0
 21
130.0
 31
0.0
  0
LINE
  8
0
  6
CONTINUOUS
 62
   249
 10
60.0
 20
135.0
 30
0.0
 11
60.0
 21
130.0
 31
0.0
  0
LINE
  8
0
  6
CONTINUOUS
 62
   249
 10
70.0
 20
135.0
 30
0.0
 11
70.0
 21
130.0
 31
0.0
  0
LINE
  8
0
  6
CONTINUOUS
 62
   249
 10
70.0
 20
135.0
 30
0.0
 11
60.0
 21
135.0
 31
0.0
  0
LINE
  8
0
  6
CONTINUOUS
 62
   249
 10
62.5
 20
130.0
 30
0.0
 11
62.5
 21
127.5
 31
0.0
  0
LINE
  8
0
  6
CONTINUOUS
 62
   249
 10
62.5
 20
130.0
 30
0.0
 11
62.5
 21
127.5
 31
0.0
  0
LINE
  8
0
  6
CONTINUOUS
 62
   249
 10
64.054092
 20
132.757085
 30
0.0
 11
61.771627
 21
131.599276
 31
0.0
  0
LINE
  8
0
  6
CONTINUOUS
 62
   249
 10
61.643877
 20
130.799262
 30
0.0
 11
64.027338
 21
131.987454
 31
0.0
  0
LINE
  8
0
  6
CONTINUOUS
 62
   249
 10
61.651919
 20
134.124549
 30
0.0
 11
64.054092
 21
132.757085
 31
0.0
  0
TEXT
  8
0
  6
CONTINUOUS
 62
   249
 10
66.085781
 20
131.464455
 30
0.0
 40
2.5
  1
1
 11
66.085781
 21
130.631122
 31
0.0
 73
     1
  0
LINE
  8
0
  6
CONTINUOUS
 62
   249
 10
62.5
 20
137.5
 30
0.0
 11
60.785914
 21
142.586297
 31
0.0
  0
LINE
  8
0
  6
CONTINUOUS
 62
   249
 10
62.5
 20
135.0
 30
0.0
 11
62.5
 21
137.5
 31
0.0
  0
LINE
  8
0
  6
CONTINUOUS
 62
   249
 10
67.5
 20
135.0
 30
0.0
 11
67.5
 21
137.5
 31
0.0
  0
LINE
  8
0
  6
CONTINUOUS
 62
   249
 10
67.5
 20
137.5
 30
0.0
 11
65.785914
 21
142.586297
 31
0.0
  0
LINE
  8
0
  6
CONTINUOUS
 62
   249
 10
85.0
 20
137.5
 30
0.0
 11
83.285914
 21
142.586297
 31
0.0
  0
LINE
  8
0
  6
CONTINUOUS
 62
   249
 10
85.0
 20
135.0
 30
0.0
 11
85.0
 21
137.5
 31
0.0
  0
LINE
  8
0
  6
CONTINUOUS
 62
   249
 10
80.0
 20
135.0
 30
0.0
 11
80.0
 21
137.5
 31
0.0
  0
LINE
  8
0
  6
CONTINUOUS
 62
   249
 10
80.0
 20
137.5
 30
0.0
 11
78.285914
 21
142.586297
 31
0.0
  0
TEXT
  8
0
  6
CONTINUOUS
 62
   249
 10
83.973522
 20
131.464455
 30
0.0
 40
2.5
  1
1
 11
83.973522
 21
130.631122
 31
0.0
 73
     1
  0
LINE
  8
0
  6
CONTINUOUS
 62
   249
 10
79.53966
 20
134.124549
 30
0.0
 11
81.885426
 21
132.789195
 31
0.0
  0
LINE
  8
0
  6
CONTINUOUS
 62
   249
 10
79.531619
 20
130.799262
 30
0.0
 11
81.915079
 21
131.987454
 31
0.0
  0
LINE
  8
0
  6
CONTINUOUS
 62
   249
 10
81.885426
 20
132.789195
 30
0.0
 11
79.53966
 21
131.599276
 31
0.0
  0
LINE
  8
0
  6
CONTINUOUS
 62
   249
 10
87.5
 20
135.0
 30
0.0
 11
77.5
 21
135.0
 31
0.0
  0
LINE
  8
0
  6
CONTINUOUS
 62
   249
 10
87.5
 20
135.0
 30
0.0
 11
87.5
 21
130.0
 31
0.0
  0
LINE
  8
0
  6
CONTINUOUS
 62
   249
 10
77.5
 20
135.0
 30
0.0
 11
77.5
 21
130.0
 31
0.0
  0
LINE
  8
0
  6
CONTINUOUS
 62
   249
 10
77.5
 20
130.0
 30
0.0
 11
87.5
 21
130.0
 31
0.0
  0
LINE
  8
0
  6
CONTINUOUS
 62
   249
 10
95.0
 20
130.0
 30
0.0
 11
105.0
 21
130.0
 31
0.0
  0
LINE
  8
0
  6
CONTINUOUS
 62
   249
 10
95.0
 20
135.0
 30
0.0
 11
95.0
 21
130.0
 31
0.0
  0
LINE
  8
0
  6
CONTINUOUS
 62
   249
 10
105.0
 20
135.0
 30
0.0
 11
105.0
 21
130.0
 31
0.0
  0
LINE
  8
0
  6
CONTINUOUS
 62
   249
 10
105.0
 20
135.0
 30
0.0
 11
95.0
 21
135.0
 31
0.0
  0
LINE
  8
0
  6
CONTINUOUS
 62
   249
 10
99.385426
 20
132.789195
 30
0.0
 11
97.03966
 21
131.599276
 31
0.0
  0
LINE
  8
0
  6
CONTINUOUS
 62
   249
 10
97.031619
 20
130.799262
 30
0.0
 11
99.415079
 21
131.987454
 31
0.0
  0
LINE
  8
0
  6
CONTINUOUS
 62
   249
 10
97.03966
 20
134.124549
 30
0.0
 11
99.385426
 21
132.789195
 31
0.0
  0
TEXT
  8
0
  6
CONTINUOUS
 62
   249
 10
101.473522
 20
131.464455
 30
0.0
 40
2.5
  1
1
 11
101.473522
 21
130.631122
 31
0.0
 73
     1
  0
LINE
  8
0
  6
CONTINUOUS
 62
   249
 10
97.5
 20
135.0
 30
0.0
 11
97.5
 21
175.0
 31
0.0
  0
LINE
  8
0
  6
CONTINUOUS
 62
   249
 10
115.0
 20
135.0
 30
0.0
 11
115.0
 21
162.5
 31
0.0
  0
TEXT
  8
0
  6
CONTINUOUS
 62
   249
 10
118.973522
 20
131.464455
 30
0.0
 40
2.5
  1
1
 11
118.973522
 21
130.631122
 31
0.0
 73
     1
  0
LINE
  8
0
  6
CONTINUOUS
 62
   249
 10
114.53966
 20
134.124549
 30
0.0
 11
116.885426
 21
132.789195
 31
0.0
  0
LINE
  8
0
  6
CONTINUOUS
 62
   249
 10
114.531619
 20
130.799262
 30
0.0
 11
116.915079
 21
131.987454
 31
0.0
  0
LINE
  8
0
  6
CONTINUOUS
 62
   249
 10
116.885426
 20
132.789195
 30
0.0
 11
114.53966
 21
131.599276
 31
0.0
  0
LINE
  8
0
  6
CONTINUOUS
 62
   249
 10
122.5
 20
135.0
 30
0.0
 11
112.5
 21
135.0
 31
0.0
  0
LINE
  8
0
  6
CONTINUOUS
 62
   249
 10
122.5
 20
135.0
 30
0.0
 11
122.5
 21
130.0
 31
0.0
  0
LINE
  8
0
  6
CONTINUOUS
 62
   249
 10
112.5
 20
135.0
 30
0.0
 11
112.5
 21
130.0
 31
0.0
  0
LINE
  8
0
  6
CONTINUOUS
 62
   249
 10
112.5
 20
130.0
 30
0.0
 11
122.5
 21
130.0
 31
0.0
  0
LINE
  8
0
  6
CONTINUOUS
 62
   249
 10
120.0
 20
135.0
 30
0.0
 11
120.0
 21
137.5
 31
0.0
  0
LINE
  8
0
  6
CONTINUOUS
 62
   249
 10
120.0
 20
137.5
 30
0.0
 11
118.285914
 21
142.586297
 31
0.0
  0
LINE
  8
0
  6
CONTINUOUS
 62
   249
 10
102.5
 20
137.5
 30
0.0
 11
100.785914
 21
142.586297
 31
0.0
  0
LINE
  8
0
  6
CONTINUOUS
 62
   249
 10
102.5
 20
135.0
 30
0.0
 11
102.5
 21
137.5
 31
0.0
  0
LINE
  8
0
  6
CONTINUOUS
 62
   249
 10
62.5
 20
175.0
 30
0.0
 11
62.5
 21
142.5
 31
0.0
  0
LINE
  8
0
  6
CONTINUOUS
 62
   249
 10
67.5
 20
162.5
 30
0.0
 11
67.5
 21
142.5
 31
0.0
  0
LINE
  8
0
  6
CONTINUOUS
 62
   249
 10
80.0
 20
175.0
 30
0.0
 11
80.0
 21
142.5
 31
0.0
  0
LINE
  8
0
  6
CONTINUOUS
 62
   249
 10
85.0
 20
162.5
 30
0.0
 11
85.0
 21
142.5
 31
0.0
  0
LINE
  8
0
  6
CONTINUOUS
 62
   249
 10
102.5
 20
182.5
 30
0.0
 11
102.5
 21
142.5
 31
0.0
  0
LINE
  8
0
  6
CONTINUOUS
 62
   249
 10
120.0
 20
170.0
 30
0.0
 11
120.0
 21
142.5
 31
0.0
  0
TEXT
  8
0
  6
CONTINUOUS
 62
   249
 10
63.19994
 20
140.0
 30
0.0
 40
2.0
  1
1
  7
ROMANS
  0
TEXT
  8
0
  6
CONTINUOUS
 62
   249
 10
68.19994
 20
140.0
 30
0.0
 40
2.0
  1
2
  7
ROMANS
  0
TEXT
  8
0
  6
CONTINUOUS
 62
   249
 10
80.69994
 20
140.0
 30
0.0
 40
2.0
  1
5
  7
ROMANS
  0
TEXT
  8
0
  6
CONTINUOUS
 62
   249
 10
85.69994
 20
140.0
 30
0.0
 40
2.0
  1
6
  7
ROMANS
  0
TEXT
  8
0
  6
CONTINUOUS
 62
   249
 10
103.19994
 20
140.0
 30
0.0
 40
2.0
  1
7
  7
ROMANS
  0
TEXT
  8
0
  6
CONTINUOUS
 62
   249
 10
120.69994
 20
140.0
 30
0.0
 40
2.0
  1
8
  7
ROMANS
  0
LINE
  8
0
  6
CONTINUOUS
 62
   249
 10
155.0
 20
165.783996
 30
0.0
 11
155.0
 21
202.5
 31
0.0
  0
LINE
  8
0
  6
CONTINUOUS
 62
   249
 10
80.0
 20
102.5
 30
0.0
 11
80.0
 21
105.0
 31
0.0
  0
LINE
  8
0
  6
CONTINUOUS
 62
   249
 10
80.0
 20
102.5
 30
0.0
 11
37.5
 21
102.5
 31
0.0
  0
LINE
  8
0
  6
CONTINUOUS
 62
   249
 10
85.0
 20
107.5
 30
0.0
 11
79.256076
 21
104.285297
 31
0.0
  0
LINE
  8
0
  6
CONTINUOUS
 62
   249
 10
55.0
 20
107.5
 30
0.0
 11
80.0
 21
107.5
 31
0.0
  0
LINE
  8
0
  6
CONTINUOUS
 62
   249
 10
85.0
 20
107.5
 30
0.0
 11
90.0
 21
107.5
 31
0.0
  0
LINE
  8
0
  6
CONTINUOUS
 62
   249
 10
97.5
 20
92.5
 30
0.0
 11
97.5
 21
95.0
 31
0.0
  0
LINE
  8
0
  6
CONTINUOUS
 62
   249
 10
97.5
 20
92.5
 30
0.0
 11
37.5
 21
92.5
 31
0.0
  0
LINE
  8
0
  6
CONTINUOUS
 62
   249
 10
102.5
 20
97.5
 30
0.0
 11
96.756076
 21
94.285297
 31
0.0
  0
LINE
  8
0
  6
CONTINUOUS
 62
   249
 10
37.5
 20
97.5
 30
0.0
 11
97.5
 21
97.5
 31
0.0
  0
LINE
  8
0
  6
CONTINUOUS
 62
   249
 10
102.5
 20
97.5
 30
0.0
 11
107.5
 21
97.5
 31
0.0
  0
LINE
  8
0
  6
CONTINUOUS
 62
   249
 10
115.0
 20
82.5
 30
0.0
 11
115.0
 21
85.0
 31
0.0
  0
LINE
  8
0
  6
CONTINUOUS
 62
   249
 10
115.0
 20
82.5
 30
0.0
 11
110.0
 21
82.5
 31
0.0
  0
LINE
  8
0
  6
CONTINUOUS
 62
   249
 10
120.0
 20
87.5
 30
0.0
 11
114.256076
 21
84.285297
 31
0.0
  0
LINE
  8
0
  6
CONTINUOUS
 62
   249
 10
110.0
 20
87.5
 30
0.0
 11
115.0
 21
87.5
 31
0.0
  0
LINE
  8
0
  6
CONTINUOUS
 62
   249
 10
120.0
 20
87.5
 30
0.0
 11
125.0
 21
87.5
 31
0.0
  0
LINE
  8
0
  6
CONTINUOUS
 62
   249
 10
142.5
 20
62.5
 30
0.0
 11
142.5
 21
65.0
 31
0.0
  0
LINE
  8
0
  6
CONTINUOUS
 62
   249
 10
142.5
 20
62.5
 30
0.0
 11
137.5
 21
62.5
 31
0.0
  0
LINE
  8
0
  6
CONTINUOUS
 62
   249
 10
147.5
 20
67.5
 30
0.0
 11
141.756076
 21
64.285297
 31
0.0
  0
LINE
  8
0
  6
CONTINUOUS
 62
   249
 10
137.5
 20
67.5
 30
0.0
 11
142.5
 21
67.5
 31
0.0
  0
LINE
  8
0
  6
CONTINUOUS
 62
   249
 10
147.5
 20
67.5
 30
0.0
 11
152.5
 21
67.5
 31
0.0
  0
LINE
  8
0
  6
CONTINUOUS
 62
   249
 10
167.50793
 20
97.5
 30
0.0
 11
107.5
 21
97.5
 31
0.0
  0
LINE
  8
0
  6
CONTINUOUS
 62
   249
 10
172.5
 20
107.5
 30
0.0
 11
90.0
 21
107.5
 31
0.0
  0
LINE
  8
0
  6
CONTINUOUS
 62
   249
 10
197.950615
 20
172.797822
 30
0.0
 11
202.5
 21
172.797822
 31
0.0
  0
LINE
  8
0
  6
DASHED
 62
   249
 10
245.0
 20
177.5
 30
0.0
 11
230.0
 21
177.5
 31
0.0
  0
LINE
  8
0
  6
DASHED
 62
   249
 10
230.0
 20
197.5
 30
0.0
 11
245.0
 21
197.5
 31
0.0
  0
TEXT
  8
0
  6
DASHED
 62
   249
 10
363.960136
 20
210.779952
 30
0.0
 40
2.5
  1
U
  0
LINE
  8
0
  6
CONTINUOUS
 62
   249
 10
367.022196
 20
212.149877
 30
0.0
 11
369.367961
 21
213.339796
 31
0.0
  0
LINE
  8
0
  6
CONTINUOUS
 62
   249
 10
369.367961
 20
210.814523
 30
0.0
 11
367.022196
 21
212.149877
 31
0.0
  0
LINE
  8
0
  6
CONTINUOUS
 62
   249
 10
360.600275
 20
207.918079
 30
0.0
 11
360.600275
 21
206.129948
 31
0.0
  0
LINE
  8
0
  6
CONTINUOUS
 62
   249
 10
365.460859
 20
209.270963
 30
0.0
 11
366.361536
 21
208.147214
 31
0.0
  0
LINE
  8
0
  6
CONTINUOUS
 62
   249
 10
363.015452
 20
205.905198
 30
0.0
 11
365.891562
 21
208.733756
 31
0.0
  0
LINE
  8
0
  6
CONTINUOUS
 62
   249
 10
368.414971
 20
207.918079
 30
0.0
 11
368.414971
 21
206.129948
 31
0.0
  0
LINE
  8
0
  6
CONTINUOUS
 62
   249
 10
360.631307
 20
207.0728
 30
0.0
 11
368.419512
 21
207.0728
 31
0.0
  0
TEXT
  8
0
  6
CONTINUOUS
 62
   249
 10
318.541011
 20
77.804169
 30
0.0
 40
2.0
  1
NOTE. ONLY CONTACT (A) IS CAPABLE OF
  7
ROMANS
  0
TEXT
  8
0
  6
CONTINUOUS
 62
   249
 10
319.210519
 20
74.470836
 30
0.0
 40
2.0
  1
     CONTROLLING DIRECTLY THE 
  7
ROMANS
  0
TEXT
  8
0
  6
CONTINUOUS
 62
   249
 10
319.210519
 20
71.137503
 30
0.0
 40
2.0
  1
     BREAKER TRIP COIL
  7
ROMANS
  0
TEXT
  8
0
  6
CONTINUOUS
 62
   249
 10
318.541011
 20
60.475622
 30
0.0
 40
2.0
  1
OBS.  ENDAST KONTAKT (A) ÄR DIMENSIO-
  7
ROMANS
  0
TEXT
  8
0
  6
CONTINUOUS
 62
   249
 10
319.210519
 20
57.142289
 30
0.0
 40
2.0
  1
     NERAD FÖR DIREKT ANSLUTNING TILL
  7
ROMANS
  0
TEXT
  8
0
  6
CONTINUOUS
 62
   249
 10
319.210519
 20
53.808955
 30
0.0
 40
2.0
  1
     UTLÖSNINGSKRETSEN
  7
ROMANS
  0
LINE
  8
0
 62
   249
 10
0.237099
 20
0.237999
 30
0.0
 11
0.237099
 21
262.737999
 31
0.0
  0
LINE
  8
0
 62
   249
 10
392.237099
 20
262.737999
 30
0.0
 11
392.237099
 21
0.237999
 31
0.0
  0
LINE
  8
0
 62
   249
 10
0.237099
 20
0.237999
 30
0.0
 11
392.237099
 21
0.237999
 31
0.0
  0
TEXT
  8
0
 62
   249
 10
42.237099
 20
5.598529
 30
0.0
 40
2.5
  1
C
  7
ROMANS
  0
TEXT
  8
0
 62
   249
 10
42.237099
 20
1.184272
 30
0.0
 40
2.5
  1
B
  7
ROMANS
  0
TEXT
  8
0
 62
   249
 10
257.407006
 20
1.741783
 30
0.0
 40
3.0
  1
Power
 41
0.8
  7
ROMANS
  0
TEXT
  8
0
 62
   249
 10
273.237099
 20
7.237999
 30
0.0
 40
1.4
  1
VAST.OSASTO RESP.DEPT.
  7
ROMANS
  0
TEXT
  8
0
 62
   249
 10
210.237099
 20
32.237999
 30
0.0
 40
1.4
  1
TEKI  PREPARED
  7
ROMANS
  0
LINE
  8
0
 62
   249
 10
271.237099
 20
9.737999
 30
0.0
 11
271.237099
 21
0.237999
 31
0.0
  0
LINE
  8
0
 62
   249
 10
257.237099
 20
9.737999
 30
0.0
 11
257.237099
 21
35.237999
 31
0.0
  0
LINE
  8
0
 62
   249
 10
40.737099
 20
4.737999
 30
0.0
 11
209.237099
 21
4.737999
 31
0.0
  0
LINE
  8
0
 62
   249
 10
46.737099
 20
0.237999
 30
0.0
 11
46.737099
 21
9.237999
 31
0.0
  0
LINE
  8
0
 62
   249
 10
46.737099
 20
9.237999
 30
0.0
 11
209.237099
 21
9.237999
 31
0.0
  0
TEXT
  8
0
 62
   249
 10
27.737099
 20
2.471333
 30
0.0
 40
1.4
  1
REVISION
  7
ROMANS
  0
TEXT
  8
0
 62
   249
 10
27.737099
 20
4.737999
 30
0.0
 40
1.4
  1
MUUTOS
  7
ROMANS
  0
LINE
  8
0
 62
   249
 10
282.237099
 20
9.737999
 30
0.0
 11
282.237099
 21
18.237999
 31
0.0
  0
TEXT
  8
0
 62
   249
 10
237.737099
 20
1.737999
 30
0.0
 40
3.0
  1
Strömberg
 41
0.8
  7
ROMANS
  0
TEXT
  8
0
 62
   249
 10
229.737099
 20
1.737999
 30
0.0
 40
3.0
  1
ABB 
 41
0.8
  7
ROMANS
  0
LINE
  8
0
 62
   249
 10
223.137099
 20
1.737999
 30
0.0
 11
223.137099
 21
5.097999
 31
0.0
  0
LINE
  8
0
 62
   249
 10
223.137099
 20
8.737999
 30
0.0
 11
225.097099
 21
8.737999
 31
0.0
  0
LINE
  8
0
 62
   249
 10
225.097099
 20
8.737999
 30
0.0
 11
225.097099
 21
5.377999
 31
0.0
  0
LINE
  8
0
 62
   249
 10
225.097099
 20
5.377999
 30
0.0
 11
223.137099
 21
5.377999
 31
0.0
  0
LINE
  8
0
 62
   249
 10
223.137099
 20
5.097999
 30
0.0
 11
225.097099
 21
5.097999
 31
0.0
  0
LINE
  8
0
 62
   249
 10
225.097099
 20
5.097999
 30
0.0
 11
225.097099
 21
1.737999
 31
0.0
  0
LINE
  8
0
 62
   249
 10
225.097099
 20
1.737999
 30
0.0
 11
223.137099
 21
1.737999
 31
0.0
  0
LINE
  8
0
 62
   249
 10
223.137099
 20
5.377999
 30
0.0
 11
223.137099
 21
8.737999
 31
0.0
  0
ARC
  8
0
 62
   249
 10
225.937099
 20
7.162999
 30
0.0
 40
1.575
 50
298.455859
 51
90.052437
  0
LINE
  8
0
 62
   249
 10
225.377099
 20
8.737999
 30
0.0
 11
225.935658
 21
8.737999
 31
0.0
  0
LINE
  8
0
 62
   249
 10
225.377099
 20
8.737999
 30
0.0
 11
225.377099
 21
5.377999
 31
0.0
  0
LINE
  8
0
 62
   249
 10
225.377099
 20
5.377999
 30
0.0
 11
227.361542
 21
5.377999
 31
0.0
  0
LINE
  8
0
 62
   249
 10
227.617099
 20
5.097999
 30
0.0
 11
225.377099
 21
5.097999
 31
0.0
  0
LINE
  8
0
 62
   249
 10
225.377099
 20
5.097999
 30
0.0
 11
225.377099
 21
1.737999
 31
0.0
  0
ARC
  8
0
 62
   249
 10
225.937099
 20
3.837999
 30
0.0
 40
2.1
 50
269.937724
 51
37.056553
  0
LINE
  8
0
 62
   249
 10
225.377099
 20
1.737999
 30
0.0
 11
225.934817
 21
1.738
 31
0.0
  0
ARC
  8
0
 62
   249
 10
225.937099
 20
3.837999
 30
0.0
 40
2.1
 50
47.28622
 51
68.787999
  0
ARC
  8
0
 62
   249
 10
220.477099
 20
3.837999
 30
0.0
 40
2.1
 50
47.28622
 51
68.787999
  0
LINE
  8
0
 62
   249
 10
219.917099
 20
1.737999
 30
0.0
 11
220.474817
 21
1.738
 31
0.0
  0
ARC
  8
0
 62
   249
 10
220.477099
 20
3.837999
 30
0.0
 40
2.1
 50
269.937724
 51
37.056553
  0
LINE
  8
0
 62
   249
 10
219.917099
 20
5.097999
 30
0.0
 11
219.917099
 21
1.737999
 31
0.0
  0
LINE
  8
0
 62
   249
 10
222.157099
 20
5.097999
 30
0.0
 11
219.917099
 21
5.097999
 31
0.0
  0
LINE
  8
0
 62
   249
 10
219.917099
 20
5.377999
 30
0.0
 11
221.901542
 21
5.377999
 31
0.0
  0
LINE
  8
0
 62
   249
 10
219.917099
 20
8.737999
 30
0.0
 11
219.917099
 21
5.377999
 31
0.0
  0
LINE
  8
0
 62
   249
 10
219.917099
 20
8.737999
 30
0.0
 11
220.475658
 21
8.737999
 31
0.0
  0
ARC
  8
0
 62
   249
 10
220.477099
 20
7.162999
 30
0.0
 40
1.575
 50
298.455859
 51
90.052437
  0
LINE
  8
0
 62
   249
 10
217.677099
 20
5.377999
 30
0.0
 11
217.677099
 21
8.737999
 31
0.0
  0
LINE
  8
0
 62
   249
 10
219.637099
 20
1.737999
 30
0.0
 11
217.677099
 21
1.737999
 31
0.0
  0
LINE
  8
0
 62
   249
 10
219.637099
 20
5.097999
 30
0.0
 11
219.637099
 21
1.737999
 31
0.0
  0
LINE
  8
0
 62
   249
 10
217.677099
 20
5.097999
 30
0.0
 11
219.637099
 21
5.097999
 31
0.0
  0
LINE
  8
0
 62
   249
 10
219.637099
 20
5.377999
 30
0.0
 11
217.677099
 21
5.377999
 31
0.0
  0
LINE
  8
0
 62
   249
 10
219.637099
 20
8.737999
 30
0.0
 11
219.637099
 21
5.377999
 31
0.0
  0
LINE
  8
0
 62
   249
 10
217.677099
 20
8.737999
 30
0.0
 11
219.637099
 21
8.737999
 31
0.0
  0
LINE
  8
0
 62
   249
 10
217.677099
 20
1.737999
 30
0.0
 11
217.677099
 21
5.097999
 31
0.0
  0
LINE
  8
0
 62
   249
 10
211.356988
 20
5.080538
 30
0.0
 11
210.187099
 21
1.737999
 31
0.0
  0
LINE
  8
0
 62
   249
 10
213.547099
 20
5.097999
 30
0.0
 11
213.547099
 21
3.137999
 31
0.0
  0
LINE
  8
0
 62
   249
 10
213.827099
 20
5.097999
 30
0.0
 11
213.827099
 21
3.137999
 31
0.0
  0
LINE
  8
0
 62
   249
 10
213.827099
 20
5.097999
 30
0.0
 11
216.010356
 21
5.097999
 31
0.0
  0
LINE
  8
0
 62
   249
 10
213.827099
 20
5.377999
 30
0.0
 11
215.912213
 21
5.377999
 31
0.0
  0
LINE
  8
0
 62
   249
 10
216.011591
 20
5.096594
 30
0.0
 11
217.187099
 21
1.737999
 31
0.0
  0
LINE
  8
0
 62
   249
 10
211.360082
 20
5.097999
 30
0.0
 11
213.547099
 21
5.097999
 31
0.0
  0
LINE
  8
0
 62
   249
 10
211.45904
 20
5.377999
 30
0.0
 11
213.547099
 21
5.377999
 31
0.0
  0
LINE
  8
0
 62
   249
 10
213.547099
 20
8.737999
 30
0.0
 11
212.637099
 21
8.737999
 31
0.0
  0
LINE
  8
0
 62
   249
 10
213.827099
 20
3.137999
 30
0.0
 11
214.946992
 21
3.137999
 31
0.0
  0
LINE
  8
0
 62
   249
 10
213.827099
 20
8.737999
 30
0.0
 11
213.827099
 21
5.377999
 31
0.0
  0
LINE
  8
0
 62
   249
 10
213.547099
 20
8.737999
 30
0.0
 11
213.547099
 21
5.377999
 31
0.0
  0
LINE
  8
0
 62
   249
 10
214.737099
 20
8.737999
 30
0.0
 11
213.827099
 21
8.737999
 31
0.0
  0
LINE
  8
0
 62
   249
 10
214.948197
 20
3.134863
 30
0.0
 11
215.437099
 21
1.737999
 31
0.0
  0
LINE
  8
0
 62
   249
 10
214.737099
 20
8.737999
 30
0.0
 11
215.913452
 21
5.376991
 31
0.0
  0
LINE
  8
0
 62
   249
 10
212.425889
 20
3.134542
 30
0.0
 11
211.937099
 21
1.737999
 31
0.0
  0
LINE
  8
0
 62
   249
 10
212.425886
 20
3.137999
 30
0.0
 11
213.547099
 21
3.137999
 31
0.0
  0
LINE
  8
0
 62
   249
 10
212.637099
 20
8.737999
 30
0.0
 11
211.459571
 21
5.373634
 31
0.0
  0
LINE
  8
0
 62
   249
 10
215.437099
 20
1.737999
 30
0.0
 11
217.187099
 21
1.737999
 31
0.0
  0
LINE
  8
0
 62
   249
 10
210.187099
 20
1.737999
 30
0.0
 11
211.937099
 21
1.737999
 31
0.0
  0
LINE
  8
0
 62
   249
 10
369.737099
 20
9.737999
 30
0.0
 11
369.737099
 21
0.237999
 31
0.0
  0
TEXT
  8
0
 62
   249
 10
371.237099
 20
7.237999
 30
0.0
 40
1.4
  1
PAINOS  REVISION
  7
ROMANS
  0
LINE
  8
0
 62
   249
 10
349.737099
 20
9.737999
 30
0.0
 11
349.737099
 21
18.237999
 31
0.0
  0
TEXT
  8
0
 62
   249
 10
309.237099
 20
7.237999
 30
0.0
 40
1.4
  1
PIIRUSTUS NO  DRAWING NR
  7
ROMANS
  0
TEXT
  8
0
 62
   249
 10
309.237099
 20
15.737999
 30
0.0
 40
1.4
  1
KOODI  CODE
  7
ROMANS
  0
TEXT
  8
0
 62
   249
 10
309.237099
 20
32.737999
 30
0.0
 40
1.4
  1
NIMITYS  NAME
  7
ROMANS
  0
TEXT
  8
0
 62
   249
 10
259.237099
 20
15.737999
 30
0.0
 40
1.4
  1
SUHDE  SCALE
  7
ROMANS
  0
TEXT
  8
0
 62
   249
 10
259.237099
 20
23.737999
 30
0.0
 40
1.4
  1
TOLERANSSIT  TOLERANCES
  7
ROMANS
  0
TEXT
  8
0
 62
   249
 10
259.237099
 20
32.737999
 30
0.0
 40
1.4
  1
LIITTYY  CONCERNING
  7
ROMANS
  0
LINE
  8
0
 62
   249
 10
307.237099
 20
0.237999
 30
0.0
 11
307.237099
 21
35.237999
 31
0.0
  0
TEXT
  8
0
 62
   249
 10
209.979934
 20
15.704666
 30
0.0
 40
1.4
  1
HYVÄKSYI  APPROVED
  7
ROMANS
  0
TEXT
  8
0
 62
   249
 10
210.237099
 20
23.971333
 30
0.0
 40
1.4
  1
TARKASTI  CHECKED
  7
ROMANS
  0
LINE
  8
0
 62
   249
 10
209.237099
 20
35.237999
 30
0.0
 11
392.237099
 21
35.237999
 31
0.0
  0
LINE
  8
0
 62
   249
 10
209.237099
 20
26.737999
 30
0.0
 11
307.237099
 21
26.737999
 31
0.0
  0
LINE
  8
0
 62
   249
 10
209.237099
 20
9.737999
 30
0.0
 11
392.237099
 21
9.737999
 31
0.0
  0
LINE
  8
0
 62
   249
 10
209.237099
 20
18.237999
 30
0.0
 11
392.237099
 21
18.237999
 31
0.0
  0
LINE
  8
0
 62
   249
 10
392.237099
 20
0.237999
 30
0.0
 11
392.237099
 21
35.237999
 31
0.0
  0
LINE
  8
0
 62
   249
 10
209.237099
 20
0.237999
 30
0.0
 11
209.237099
 21
35.237999
 31
0.0
  0
LINE
  8
0
 62
   249
 10
209.237099
 20
0.237999
 30
0.0
 11
392.237099
 21
0.237999
 31
0.0
  0
LINE
  8
0
 62
   249
 10
18.237099
 20
0.237999
 30
0.0
 11
0.237099
 21
0.237999
 31
0.0
  0
LINE
  8
0
 62
   249
 10
0.237099
 20
262.737999
 30
0.0
 11
392.237099
 21
262.737999
 31
0.0
  0
TEXT
  8
0
  6
CONTINUOUS
 62
   249
 10
291.152069
 20
12.309276
 30
0.0
 40
3.0
  1
A3
  0
TEXT
  8
0
  6
CONTINUOUS
 62
   249
 10
351.869321
 20
15.737914
 30
0.0
 40
1.4
  1
LEHTI SHEET
  0
TEXT
  8
0
  6
CONTINUOUS
 62
   249
 10
372.268215
 20
12.134532
 30
0.0
 40
2.0
  1
1
  7
ROMANS
  0
LINE
  8
0
  6
CONTINUOUS
 62
   249
 10
205.0
 20
75.429605
 30
0.0
 11
205.0
 21
72.5
 31
0.0
  0
LINE
  8
0
  6
CONTINUOUS
 62
   249
 10
200.0
 20
75.429605
 30
0.0
 11
200.0
 21
72.5
 31
0.0
  0
LINE
  8
0
  6
CONTINUOUS
 62
   249
 10
205.0
 20
90.0
 30
0.0
 11
205.0
 21
84.752154
 31
0.0
  0
LINE
  8
0
  6
CONTINUOUS
 62
   249
 10
200.0
 20
90.0
 30
0.0
 11
200.0
 21
84.752154
 31
0.0
  0
LINE
  8
0
 62
   249
 10
202.466311
 20
77.72844
 30
0.0
 11
206.466311
 21
77.72844
 31
0.0
  0
LINE
  8
0
 62
   249
 10
198.709901
 20
82.674464
 30
0.0
 11
202.709901
 21
82.674464
 31
0.0
  0
LINE
  8
0
 62
   249
 10
197.795103
 20
76.386207
 30
0.0
 11
206.158613
 21
84.752154
 31
0.0
  0
LINE
  8
0
 62
   249
 10
198.779395
 20
75.429605
 30
0.0
 11
207.119756
 21
83.767352
 31
0.0
  0
LINE
  8
0
 62
   249
 10
197.795103
 20
75.429605
 30
0.0
 11
197.795103
 21
84.752154
 31
0.0
  0
LINE
  8
0
 62
   249
 10
207.119756
 20
75.429605
 30
0.0
 11
197.795103
 21
75.429605
 31
0.0
  0
LINE
  8
0
 62
   249
 10
207.119756
 20
84.752154
 30
0.0
 11
207.119756
 21
75.429605
 31
0.0
  0
LINE
  8
0
 62
   249
 10
197.795103
 20
84.752154
 30
0.0
 11
207.119756
 21
84.752154
 31
0.0
  0
TEXT
  8
0
  6
CONTINUOUS
 62
   249
 10
199.366734
 20
90.55315
 30
0.0
 40
2.0
  1
+
  0
TEXT
  8
0
  6
CONTINUOUS
 62
   249
 10
204.297086
 20
90.577719
 30
0.0
 40
2.0
  1
-
  0
LINE
  8
0
  6
CONTINUOUS
 62
   249
 10
25.0
 20
205.0
 30
0.0
 11
15.0
 21
205.0
 31
0.0
  0
LINE
  8
0
  6
CONTINUOUS
 62
   249
 10
37.5
 20
205.0
 30
0.0
 11
31.000004
 21
205.0
 31
0.0
  0
TEXT
  8
0
  6
CONTINUOUS
 62
   249
 10
38.180161
 20
50.0
 30
0.0
 40
2.0
  1
DIM. 160 X 196
  7
ROMANS
  0
LINE
  8
0
  6
CONTINUOUS
 62
   249
 10
296.506031
 20
220.098556
 30
0.0
 11
297.478167
 21
220.098556
 31
0.0
  0
LINE
  8
0
  6
CONTINUOUS
 62
   249
 10
296.496128
 20
222.499996
 30
0.0
 11
297.473936
 21
222.499996
 31
0.0
  0
LINE
  8
0
  6
CONTINUOUS
 62
   249
 10
296.500897
 20
217.68998
 30
0.0
 11
297.5
 21
217.68998
 31
0.0
  0
ARC
  8
0
  6
CONTINUOUS
 62
   249
 10
295.864862
 20
218.894238
 30
0.0
 40
1.204309
 50
90.0
 51
270.0
  0
LINE
  8
0
  6
CONTINUOUS
 62
   249
 10
295.859898
 20
217.689937
 30
0.0
 11
296.509496
 21
217.689937
 31
0.0
  0
LINE
  8
0
  6
CONTINUOUS
 62
   249
 10
295.858762
 20
222.499993
 30
0.0
 11
296.502261
 21
222.499993
 31
0.0
  0
LINE
  8
0
  6
CONTINUOUS
 62
   249
 10
295.858762
 20
220.098547
 30
0.0
 11
296.50836
 21
220.098547
 31
0.0
  0
ARC
  8
0
  6
CONTINUOUS
 62
   249
 10
295.864862
 20
221.296095
 30
0.0
 40
1.204309
 50
90.0
 51
265.706237
  0
LINE
  8
0
  6
CONTINUOUS
 62
   249
 10
304.006031
 20
220.098556
 30
0.0
 11
304.978167
 21
220.098556
 31
0.0
  0
LINE
  8
0
  6
CONTINUOUS
 62
   249
 10
303.996128
 20
222.499996
 30
0.0
 11
304.973936
 21
222.499996
 31
0.0
  0
LINE
  8
0
  6
CONTINUOUS
 62
   249
 10
304.000897
 20
217.68998
 30
0.0
 11
305.0
 21
217.68998
 31
0.0
  0
ARC
  8
0
  6
CONTINUOUS
 62
   249
 10
303.364862
 20
218.894238
 30
0.0
 40
1.204309
 50
90.0
 51
270.0
  0
LINE
  8
0
  6
CONTINUOUS
 62
   249
 10
303.359898
 20
217.689937
 30
0.0
 11
304.009496
 21
217.689937
 31
0.0
  0
LINE
  8
0
  6
CONTINUOUS
 62
   249
 10
303.358762
 20
222.499993
 30
0.0
 11
304.002261
 21
222.499993
 31
0.0
  0
LINE
  8
0
  6
CONTINUOUS
 62
   249
 10
303.358762
 20
220.098547
 30
0.0
 11
304.00836
 21
220.098547
 31
0.0
  0
ARC
  8
0
  6
CONTINUOUS
 62
   249
 10
303.364862
 20
221.296095
 30
0.0
 40
1.204309
 50
90.0
 51
265.706237
  0
LINE
  8
0
  6
CONTINUOUS
 62
   249
 10
305.0
 20
217.68998
 30
0.0
 11
305.0
 21
215.0
 31
0.0
  0
LINE
  8
0
  6
CONTINUOUS
 62
   249
 10
297.5
 20
217.68998
 30
0.0
 11
297.5
 21
215.0
 31
0.0
  0
LINE
  8
0
  6
DASHED
 62
   249
 10
305.0
 20
232.5
 30
0.0
 11
305.0
 21
250.0
 31
0.0
  0
LINE
  8
0
  6
DASHED
 62
   249
 10
297.5
 20
232.5
 30
0.0
 11
297.5
 21
255.0
 31
0.0
  0
TEXT
  8
0
  6
CONTINUOUS
 62
   249
 10
270.743905
 20
253.985054
 30
0.0
 40
2.0
  1
L1(R)
  7
ROMANS
 11
270.743905
 21
253.318387
 31
0.0
 73
     1
  0
TEXT
  8
0
  6
CONTINUOUS
 62
   249
 10
270.743905
 20
248.928359
 30
0.0
 40
2.0
  1
L2(S)
  7
ROMANS
 11
270.743905
 21
248.261693
 31
0.0
 73
     1
  0
TEXT
  8
0
  6
CONTINUOUS
 62
   249
 10
270.743905
 20
244.006967
 30
0.0
 40
2.0
  1
L3(T)
  7
ROMANS
 11
270.743905
 21
243.3403
 31
0.0
 73
     1
  0
LINE
  8
0
  6
CONTINUOUS
 62
   249
 10
297.5
 20
222.5
 30
0.0
 11
317.5
 21
222.5
 31
0.0
  0
LINE
  8
0
  6
CONTINUOUS
 62
   249
 10
311.506031
 20
220.098556
 30
0.0
 11
312.478167
 21
220.098556
 31
0.0
  0
LINE
  8
0
  6
CONTINUOUS
 62
   249
 10
311.496128
 20
222.499996
 30
0.0
 11
312.473936
 21
222.499996
 31
0.0
  0
LINE
  8
0
  6
CONTINUOUS
 62
   249
 10
311.500897
 20
217.68998
 30
0.0
 11
312.5
 21
217.68998
 31
0.0
  0
ARC
  8
0
  6
CONTINUOUS
 62
   249
 10
310.864862
 20
218.894238
 30
0.0
 40
1.204309
 50
90.0
 51
270.0
  0
LINE
  8
0
  6
CONTINUOUS
 62
   249
 10
310.859898
 20
217.689937
 30
0.0
 11
311.509496
 21
217.689937
 31
0.0
  0
LINE
  8
0
  6
CONTINUOUS
 62
   249
 10
310.858762
 20
222.499993
 30
0.0
 11
311.502261
 21
222.499993
 31
0.0
  0
LINE
  8
0
  6
CONTINUOUS
 62
   249
 10
310.858762
 20
220.098547
 30
0.0
 11
311.50836
 21
220.098547
 31
0.0
  0
ARC
  8
0
  6
CONTINUOUS
 62
   249
 10
310.864862
 20
221.296095
 30
0.0
 40
1.204309
 50
90.0
 51
265.706237
  0
LINE
  8
0
  6
CONTINUOUS
 62
   249
 10
312.5
 20
217.68998
 30
0.0
 11
312.5
 21
215.0
 31
0.0
  0
LINE
  8
0
  6
CONTINUOUS
 62
   249
 10
297.5
 20
227.68998
 30
0.0
 11
317.5
 21
227.68998
 31
0.0
  0
LINE
  8
0
  6
DASHED
 62
   249
 10
312.5
 20
232.5
 30
0.0
 11
312.5
 21
245.0
 31
0.0
  0
LINE
  8
0
  6
DASHED
 62
   249
 10
348.595465
 20
245.0
 30
0.0
 11
280.0
 21
245.0
 31
0.0
  0
LINE
  8
0
  6
DASHED
 62
   249
 10
348.595465
 20
250.0
 30
0.0
 11
280.0
 21
250.0
 31
0.0
  0
LINE
  8
0
  6
DASHED
 62
   249
 10
348.595465
 20
255.0
 30
0.0
 11
280.0
 21
255.0
 31
0.0
  0
LINE
  8
0
  6
DASHED
 62
   249
 10
245.0
 20
197.5
 30
0.0
 11
250.0
 21
197.5
 31
0.0
  0
LINE
  8
0
  6
DASHED
 62
   249
 10
255.0
 20
197.5
 30
0.0
 11
260.0
 21
197.5
 31
0.0
  0
LINE
  8
0
  6
CONTINUOUS
 62
   249
 10
255.0
 20
197.5
 30
0.0
 11
249.256076
 21
194.285297
 31
0.0
  0
LINE
  8
0
  6
DASHED
 62
   249
 10
260.0
 20
197.5
 30
0.0
 11
297.5
 21
197.5
 31
0.0
  0
LINE
  8
0
  6
DASHED
 62
   249
 10
297.5
 20
197.5
 30
0.0
 11
297.5
 21
215.0
 31
0.0
  0
LINE
  8
0
  6
DASHED
 62
   249
 10
305.0
 20
177.5
 30
0.0
 11
305.0
 21
215.0
 31
0.0
  0
LINE
  8
0
  6
CONTINUOUS
 62
   249
 10
255.0
 20
177.5
 30
0.0
 11
249.256076
 21
174.285297
 31
0.0
  0
LINE
  8
0
  6
DASHED
 62
   249
 10
245.0
 20
177.5
 30
0.0
 11
250.0
 21
177.5
 31
0.0
  0
LINE
  8
0
  6
DASHED
 62
   249
 10
255.0
 20
177.5
 30
0.0
 11
260.0
 21
177.5
 31
0.0
  0
LINE
  8
0
  6
DASHED
 62
   249
 10
260.0
 20
177.5
 30
0.0
 11
305.0
 21
177.5
 31
0.0
  0
LINE
  8
0
  6
HIDDEN
 62
   249
 10
27.5
 20
206.25
 30
0.0
 11
27.5
 21
225.0
 31
0.0
  0
LINE
  8
0
  6
HIDDEN
 62
   249
 10
252.5
 20
156.100824
 30
0.0
 11
252.5
 21
225.0
 31
0.0
  0
LINE
  8
0
  6
HIDDEN
 62
   249
 10
252.5
 20
225.0
 30
0.0
 11
27.5
 21
225.0
 31
0.0
  0
LINE
  8
0
 62
   249
 10
215.0
 20
187.5
 30
0.0
 11
220.0
 21
187.5
 31
0.0
  0
LINE
  8
0
 62
   249
 10
215.0
 20
197.5
 30
0.0
 11
220.0
 21
197.5
 31
0.0
  0
LINE
  8
0
  6
CONTINUOUS
 62
   249
 10
225.0
 20
187.5
 30
0.0
 11
230.0
 21
187.5
 31
0.0
  0
LINE
  8
0
  6
CONTINUOUS
 62
   249
 10
225.0
 20
197.5
 30
0.0
 11
230.0
 21
197.5
 31
0.0
  0
LINE
  8
0
  6
CONTINUOUS
 62
   249
 10
212.5
 20
147.0
 30
0.0
 11
213.5
 21
146.0
 31
0.0
  0
LINE
  8
0
  6
CONTINUOUS
 62
   249
 10
212.5
 20
198.0
 30
0.0
 11
213.5
 21
199.0
 31
0.0
  0
LINE
  8
0
  6
CONTINUOUS
 62
   249
 10
212.5
 20
198.0
 30
0.0
 11
212.5
 21
147.0
 31
0.0
  0
LINE
  8
0
 62
   249
 10
215.0
 20
177.5
 30
0.0
 11
220.0
 21
177.5
 31
0.0
  0
LINE
  8
0
 62
   249
 10
215.0
 20
167.5
 30
0.0
 11
220.0
 21
167.5
 31
0.0
  0
LINE
  8
0
  6
CONTINUOUS
 62
   249
 10
225.0
 20
167.5
 30
0.0
 11
230.0
 21
167.5
 31
0.0
  0
LINE
  8
0
  6
CONTINUOUS
 62
   249
 10
225.0
 20
177.5
 30
0.0
 11
230.0
 21
177.5
 31
0.0
  0
TEXT
  8
0
  6
HIDDEN
 62
   249
 10
225.0
 20
194.41592
 30
0.0
 40
2.0
  1
3A
  7
ROMANS
  0
TEXT
  8
0
  6
HIDDEN
 62
   249
 10
225.0
 20
184.64669
 30
0.0
 40
2.0
  1
4A
  7
ROMANS
  0
TEXT
  8
0
  6
HIDDEN
 62
   249
 10
225.0
 20
174.332588
 30
0.0
 40
2.0
  1
5A
  7
ROMANS
  0
TEXT
  8
0
  6
HIDDEN
 62
   249
 10
225.0
 20
164.431114
 30
0.0
 40
2.0
  1
6A
  7
ROMANS
  0
LINE
  8
0
  6
CONTINUOUS
 62
   249
 10
47.5
 20
200.0
 30
0.0
 11
37.5
 21
200.0
 31
0.0
  0
LINE
  8
0
  6
CONTINUOUS
 62
   249
 10
50.298812
 20
200.0
 30
0.0
 11
45.598812
 21
200.0
 31
0.0
  0
LINE
  8
0
  6
CONTINUOUS
 62
   249
 10
40.0
 20
205.0
 30
0.0
 11
37.5
 21
205.0
 31
0.0
  0
LINE
  8
0
  6
CONTINUOUS
 62
   249
 10
47.5
 20
205.0
 30
0.0
 11
47.177696
 21
205.0
 31
0.0
  0
LINE
  8
0
  6
CONTINUOUS
 62
   249
 10
50.298812
 20
205.0
 30
0.0
 11
46.000004
 21
205.0
 31
0.0
  0
TEXT
  8
0
  6
CONTINUOUS
 62
   249
 10
38.747603
 20
197.045502
 30
0.0
 40
2.0
  1
108:11
  7
ROMANS
  0
TEXT
  8
0
  6
CONTINUOUS
 62
   249
 10
38.747603
 20
202.147954
 30
0.0
 40
2.0
  1
14A
  7
ROMANS
  0
TEXT
  8
0
  6
CONTINUOUS
 62
   249
 10
40.263872
 20
209.235843
 30
0.0
 40
2.0
  1
101
  7
ROMANS
  0
LINE
  8
0
 62
   249
 10
50.298812
 20
206.589925
 30
0.0
 11
50.298812
 21
198.4
 31
0.0
  0
LINE
  8
0
 62
   249
 10
54.504853
 20
206.59384
 30
0.0
 11
52.59105
 21
204.315018
 31
0.0
  0
LINE
  8
0
 62
   249
 10
55.996971
 20
206.59384
 30
0.0
 11
54.142636
 21
204.315018
 31
0.0
  0
LINE
  8
0
 62
   249
 10
57.721556
 20
206.589925
 30
0.0
 11
50.298812
 21
206.589925
 31
0.0
  0
LINE
  8
0
 62
   249
 10
50.298812
 20
198.4
 30
0.0
 11
57.721556
 21
198.4
 31
0.0
  0
LINE
  8
0
 62
   249
 10
57.721556
 20
198.4
 30
0.0
 11
57.721556
 21
206.589925
 31
0.0
  0
LINE
  8
0
  6
CONTINUOUS
 62
   249
 10
57.721556
 20
202.5
 30
0.0
 11
155.0
 21
202.5
 31
0.0
  0
LINE
  8
0
  6
CONTINUOUS
 62
   249
 10
45.0
 20
117.5
 30
0.0
 11
37.5
 21
117.5
 31
0.0
  0
LINE
  8
0
  6
CONTINUOUS
 62
   249
 10
55.0
 20
117.5
 30
0.0
 11
51.000004
 21
117.5
 31
0.0
  0
LINE
  8
0
  6
CONTINUOUS
 62
   249
 10
45.0
 20
107.5
 30
0.0
 11
37.5
 21
107.5
 31
0.0
  0
LINE
  8
0
  6
CONTINUOUS
 62
   249
 10
55.0
 20
107.5
 30
0.0
 11
51.000004
 21
107.5
 31
0.0
  0
LINE
  8
0
  6
CONTINUOUS
 62
   249
 10
167.50793
 20
97.5
 30
0.0
 11
167.50793
 21
65.0
 31
0.0
  0
LINE
  8
0
  6
CONTINUOUS
 62
   249
 10
167.5
 20
58.999996
 30
0.0
 11
167.5
 21
55.0
 31
0.0
  0
LINE
  8
0
  6
CONTINUOUS
 62
   249
 10
152.5
 20
55.0
 30
0.0
 11
152.5
 21
67.5
 31
0.0
  0
LINE
  8
0
  6
CONTINUOUS
 62
   249
 10
187.5
 20
58.999996
 30
0.0
 11
187.5
 21
55.0
 31
0.0
  0
LINE
  8
0
  6
CONTINUOUS
 62
   249
 10
187.5
 20
71.198536
 30
0.0
 11
187.5
 21
73.698536
 31
0.0
  0
LINE
  8
0
  6
CONTINUOUS
 62
   249
 10
187.5
 20
65.0
 30
0.0
 11
187.5
 21
70.0
 31
0.0
  0
LINE
  8
0
  6
CONTINUOUS
 62
   249
 10
172.5
 20
55.0
 30
0.0
 11
172.5
 21
107.5
 31
0.0
  0
LINE
  8
0
  6
CONTINUOUS
 62
   249
 10
182.5
 20
58.999996
 30
0.0
 11
182.5
 21
55.0
 31
0.0
  0
LINE
  8
0
  6
CONTINUOUS
 62
   249
 10
182.5
 20
65.0
 30
0.0
 11
182.5
 21
117.5
 31
0.0
  0
TEXT
  8
0
  6
HIDDEN
 62
   249
 10
155.547779
 20
55.508923
 30
0.0
 40
2.0
  1
108:72
 50
90.0
  7
ROMANS
  0
TEXT
  8
0
  6
HIDDEN
 62
   249
 10
165.637051
 20
55.508923
 30
0.0
 40
2.0
  1
101
 50
90.0
  7
ROMANS
  0
TEXT
  8
0
  6
HIDDEN
 62
   249
 10
171.436402
 20
55.508923
 30
0.0
 40
2.0
  1
2A
 50
90.0
  7
ROMANS
  0
TEXT
  8
0
  6
HIDDEN
 62
   249
 10
175.454458
 20
55.508923
 30
0.0
 40
2.0
  1
108:69
 50
90.0
  7
ROMANS
  0
TEXT
  8
0
  6
HIDDEN
 62
   249
 10
180.887611
 20
55.508923
 30
0.0
 40
2.0
  1
101
 50
90.0
  7
ROMANS
  0
TEXT
  8
0
  6
HIDDEN
 62
   249
 10
185.331718
 20
55.508923
 30
0.0
 40
2.0
  1
1A
 50
90.0
  7
ROMANS
  0
TEXT
  8
0
  6
HIDDEN
 62
   249
 10
190.796829
 20
55.508923
 30
0.0
 40
2.0
  1
18A
 50
90.0
  7
ROMANS
  0
TEXT
  8
0
  6
HIDDEN
 62
   249
 10
202.877881
 20
55.508923
 30
0.0
 40
2.0
  1
108:61
 50
90.0
  7
ROMANS
  0
TEXT
  8
0
  6
HIDDEN
 62
   249
 10
207.900199
 20
55.508923
 30
0.0
 40
2.0
  1
108:62
 50
90.0
  7
ROMANS
  0
TEXT
  8
0
  6
HIDDEN
 62
   249
 10
220.728366
 20
55.508923
 30
0.0
 40
2.0
  1
108:63
 50
90.0
  7
ROMANS
  0
TEXT
  8
0
  6
HIDDEN
 62
   249
 10
38.950091
 20
121.446785
 30
0.0
 40
2.0
  1
101
  7
ROMANS
  0
TEXT
  8
0
  6
HIDDEN
 62
   249
 10
38.950091
 20
114.39647
 30
0.0
 40
2.0
  1
17A
  7
ROMANS
  0
TEXT
  8
0
  6
HIDDEN
 62
   249
 10
38.950091
 20
104.594179
 30
0.0
 40
2.0
  1
16A
  7
ROMANS
  0
TEXT
  8
0
  6
HIDDEN
 62
   249
 10
38.950091
 20
99.508606
 30
0.0
 40
2.0
  1
108:67
  7
ROMANS
  0
TEXT
  8
0
  6
HIDDEN
 62
   249
 10
38.950091
 20
94.61038
 30
0.0
 40
2.0
  1
108:74
  7
ROMANS
  0
TEXT
  8
0
  6
HIDDEN
 62
   249
 10
38.950091
 20
89.701134
 30
0.0
 40
2.0
  1
108:73
  7
ROMANS
  0
TEXT
  8
0
  6
HIDDEN
 62
   249
 10
38.950091
 20
84.626582
 30
0.0
 40
2.0
  1
108:77
  7
ROMANS
  0
TEXT
  8
0
  6
HIDDEN
 62
   249
 10
38.950091
 20
79.541009
 30
0.0
 40
2.0
  1
108:76
  7
ROMANS
  0
TEXT
  8
0
  6
HIDDEN
 62
   249
 10
38.950091
 20
64.471638
 30
0.0
 40
2.0
  1
108:70
  7
ROMANS
  0
TEXT
  8
0
  6
HIDDEN
 62
   249
 10
38.950091
 20
59.749738
 30
0.0
 40
2.0
  1
108:71
  7
ROMANS
  0
ARC
  8
0
  6
CONTINUOUS
 62
   249
 10
232.5
 20
135.0
 30
0.0
 40
2.5
 50
90.0
 51
270.0
  0
LINE
  8
0
  6
DASHED
 62
   249
 10
235.0
 20
135.0
 30
0.0
 11
242.5
 21
135.0
 31
0.0
  0
TEXT
  8
0
  6
HIDDEN
 62
   249
 10
208.87861
 20
130.421794
 30
0.0
 40
2.0
  1
SERIAL PORT
  7
ROMANS
  0
TEXT
  8
0
  6
HIDDEN
 62
   249
 10
217.5
 20
202.942154
 30
0.0
 40
2.0
  1
101
  7
ROMANS
  0
LINE
  8
0
  6
CONTINUOUS
 62
   249
 10
225.0
 20
147.5
 30
0.0
 11
230.0
 21
147.5
 31
0.0
  0
LINE
  8
0
  6
CONTINUOUS
 62
   249
 10
225.0
 20
157.5
 30
0.0
 11
230.0
 21
157.5
 31
0.0
  0
LINE
  8
0
 62
   249
 10
215.0
 20
157.5
 30
0.0
 11
220.0
 21
157.5
 31
0.0
  0
LINE
  8
0
 62
   249
 10
215.0
 20
147.5
 30
0.0
 11
220.0
 21
147.5
 31
0.0
  0
TEXT
  8
0
  6
CONTINUOUS
 62
   249
 10
225.0
 20
154.558525
 30
0.0
 40
2.0
  1
7A
  7
ROMANS
  0
TEXT
  8
0
  6
CONTINUOUS
 62
   249
 10
225.0
 20
144.605099
 30
0.0
 40
2.0
  1
8A
  7
ROMANS
  0
LINE
  8
0
  6
CONTINUOUS
 62
   249
 10
197.950615
 20
142.5
 30
0.0
 11
205.0
 21
142.5
 31
0.0
  0
LINE
  8
0
  6
CONTINUOUS
 62
   249
 10
205.0
 20
142.5
 30
0.0
 11
205.0
 21
135.0
 31
0.0
  0
LINE
  8
0
  6
CONTINUOUS
 62
   249
 10
205.0
 20
135.0
 30
0.0
 11
230.0
 21
135.0
 31
0.0
  0
TEXT
  8
0
  6
HIDDEN
 62
   249
 10
17.521315
 20
111.491345
 30
0.0
 40
2.0
  1
2)
  7
ROMANS
  0
LINE
  8
0
  6
DASHED
 62
   249
 10
260.0
 20
157.5
 30
0.0
 11
312.5
 21
157.5
 31
0.0
  0
LINE
  8
0
  6
DASHED
 62
   249
 10
255.0
 20
157.5
 30
0.0
 11
260.0
 21
157.5
 31
0.0
  0
LINE
  8
0
  6
CONTINUOUS
 62
   249
 10
255.0
 20
157.5
 30
0.0
 11
249.256076
 21
154.285297
 31
0.0
  0
LINE
  8
0
  6
DASHED
 62
   249
 10
245.0
 20
157.5
 30
0.0
 11
250.0
 21
157.5
 31
0.0
  0
LINE
  8
0
  6
DASHED
 62
   249
 10
245.0
 20
157.5
 30
0.0
 11
230.0
 21
157.5
 31
0.0
  0
LINE
  8
0
  6
DASHED
 62
   249
 10
312.5
 20
215.0
 30
0.0
 11
312.5
 21
157.5
 31
0.0
  0
LINE
  8
0
  6
DASHED
 62
   249
 10
230.0
 20
187.5
 30
0.0
 11
240.0
 21
187.5
 31
0.0
  0
LINE
  8
0
  6
DASHED
 62
   249
 10
240.0
 20
187.5
 30
0.0
 11
240.0
 21
177.5
 31
0.0
  0
LINE
  8
0
  6
DASHED
 62
   249
 10
230.0
 20
167.5
 30
0.0
 11
240.0
 21
167.5
 31
0.0
  0
LINE
  8
0
  6
DASHED
 62
   249
 10
240.0
 20
167.5
 30
0.0
 11
240.0
 21
157.5
 31
0.0
  0
LINE
  8
0
  6
DASHED
 62
   249
 10
230.0
 20
147.5
 30
0.0
 11
245.0
 21
147.5
 31
0.0
  0
LINE
  8
0
  6
DASHED
 62
   249
 10
245.0
 20
147.5
 30
0.0
 11
245.0
 21
197.5
 31
0.0
  0
TEXT
  8
0
  6
CONTINUOUS
 62
   249
 10
361.111038
 20
221.055024
 30
0.0
 40
2.5
  1
U
  0
TEXT
  8
0
  6
CONTINUOUS
 62
   249
 10
361.156772
 20
210.78321
 30
0.0
 40
2.5
  1
3
  0
TEXT
  8
0
  6
CONTINUOUS
 62
   249
 10
212.043673
 20
27.462287
 30
0.0
 40
2.0
  1
1993-06-08  KM / RITU
  7
ROMANS
  0
TEXT
  8
0
  6
CONTINUOUS
 62
   249
 10
349.414436
 20
199.567429
 30
0.0
 40
2.0
  1
UNDER VOLTAGE RELAY
  7
ROMANS
  0
TEXT
  8
0
  6
CONTINUOUS
 62
   249
 10
349.563548
 20
194.997671
 30
0.0
 40
2.0
  1
UNDERSPÄNNINGSSKYDD
  7
ROMANS
  0
TEXT
  8
0
  6
CONTINUOUS
 62
   249
 10
75.0
 20
207.5
 30
0.0
 40
2.0
  1
RS 10137-AA SPAU 331 C
  7
ROMANS
  0
TEXT
  8
0
  6
CONTINUOUS
 62
   249
 10
38.174167
 20
46.706794
 30
0.0
 40
2.0
  1
RS 10137-AAF
  7
ROMANS
  0
TEXT
  8
0
  6
CONTINUOUS
 62
   249
 10
245.0
 20
133.953065
 30
0.0
 40
2.0
  1
5)
  7
ROMANS
  0
TEXT
  8
0
  6
CONTINUOUS
 62
   249
 10
333.526549
 20
128.430482
 30
0.0
 40
2.0
  1
1) EXTERNAL BLOCKING
  7
ROMANS
  0
TEXT
  8
0
  6
CONTINUOUS
 62
   249
 10
334.719529
 20
125.097148
 30
0.0
 40
2.0
  1
  EXTERN BLOCKERING
  7
ROMANS
  0
TEXT
  8
0
  6
CONTINUOUS
 62
   249
 10
333.787523
 20
119.263815
 30
0.0
 40
2.0
  1
2) TRIP ETC.    NOTE
  7
ROMANS
  0
TEXT
  8
0
  6
CONTINUOUS
 62
   249
 10
335.125185
 20
115.930482
 30
0.0
 40
2.0
  1
  UTLÖSNING MM.   OBS.
  7
ROMANS
  0
TEXT
  8
0
  6
CONTINUOUS
 62
   249
 10
333.787523
 20
110.097148
 30
0.0
 40
2.0
  1
3) START, ALARM ETC.
  7
ROMANS
  0
TEXT
  8
0
  6
CONTINUOUS
 62
   249
 10
335.125901
 20
106.763815
 30
0.0
 40
2.0
  1
  START, SIGNAL MM.
  7
ROMANS
  0
TEXT
  8
0
  6
CONTINUOUS
 62
   249
 10
333.787523
 20
100.930482
 30
0.0
 40
2.0
  1
4) INTERNAL RELAY FAULT
  7
ROMANS
  0
TEXT
  8
0
  6
CONTINUOUS
 62
   249
 10
335.110692
 20
97.597148
 30
0.0
 40
2.0
  1
  INTERNT RELÄFEL
  7
ROMANS
  0
TEXT
  8
0
  6
CONTINUOUS
 62
   249
 10
333.787523
 20
91.763815
 30
0.0
 40
2.0
  1
5) BUS CONNECTION MODULE
  7
ROMANS
  0
TEXT
  8
0
  6
CONTINUOUS
 62
   249
 10
335.125901
 20
88.430482
 30
0.0
 40
2.0
  1
  BUSSANSLUTNINGSMODUL
  7
ROMANS
  0
TEXT
  8
0
  6
CONTINUOUS
 62
   249
 10
315.0
 20
27.5
 30
0.0
 40
2.0
  1
TERMINAL DIAGRAM / UTTAGSSCHEMA
  7
ROMANS
  0
TEXT
  8
0
  6
CONTINUOUS
 62
   249
 10
315.0
 20
24.166667
 30
0.0
 40
2.0
  1
SPAU 331 C5 WITH TEST SWITCH
  7
ROMANS
  0
TEXT
  8
0
  6
CONTINUOUS
 62
   249
 10
315.0
 20
20.833333
 30
0.0
 40
2.0
  1
SPAU 331 C5 MED PROVDON
  7
ROMANS
  0
TEXT
  8
0
  6
CONTINUOUS
 62
   249
 10
320.0
 20
2.5
 30
0.0
 40
2.5
  1
RS 10137-AAF
  7
ROMANS
  0
TEXT
  8
0
  6
CONTINUOUS
 62
   249
 10
380.0
 20
2.5
 30
0.0
 40
2.5
  1
A
  7
ROMANS
  0
LINE
  8
0
  6
CONTINUOUS
 62
   249
 10
39.337159
 20
207.434804
 30
0.0
 11
38.892266
 21
206.549106
 31
0.0
  0
LINE
  8
0
  6
CONTINUOUS
 62
   249
 10
40.0
 20
205.0
 30
0.0
 11
40.0
 21
207.765661
 31
0.0
  0
LINE
  8
0
  6
CONTINUOUS
 62
   249
 10
46.000004
 20
205.0
 30
0.0
 11
39.337159
 21
207.434804
 31
0.0
  0
LINE
  8
0
  6
CONTINUOUS
 62
   249
 10
25.0
 20
205.0
 30
0.0
 11
25.0
 21
207.765661
 31
0.0
  0
LINE
  8
0
  6
CONTINUOUS
 62
   249
 10
31.000004
 20
205.0
 30
0.0
 11
24.337159
 21
207.434804
 31
0.0
  0
LINE
  8
0
  6
CONTINUOUS
 62
   249
 10
45.0
 20
117.5
 30
0.0
 11
45.0
 21
120.265661
 31
0.0
  0
LINE
  8
0
  6
CONTINUOUS
 62
   249
 10
51.000004
 20
117.5
 30
0.0
 11
44.337159
 21
119.934804
 31
0.0
  0
LINE
  8
0
  6
CONTINUOUS
 62
   249
 10
45.0
 20
107.5
 30
0.0
 11
45.0
 21
110.265661
 31
0.0
  0
LINE
  8
0
  6
CONTINUOUS
 62
   249
 10
51.000004
 20
107.5
 30
0.0
 11
44.337159
 21
109.934804
 31
0.0
  0
LINE
  8
0
  6
CONTINUOUS
 62
   249
 10
219.102827
 20
199.934804
 30
0.0
 11
218.657934
 21
199.049106
 31
0.0
  0
LINE
  8
0
  6
CONTINUOUS
 62
   249
 10
219.102827
 20
199.934804
 30
0.0
 11
225.0
 21
197.5
 31
0.0
  0
LINE
  8
0
  6
CONTINUOUS
 62
   249
 10
220.0
 20
197.5
 30
0.0
 11
220.0
 21
200.265661
 31
0.0
  0
LINE
  8
0
  6
CONTINUOUS
 62
   249
 10
219.102827
 20
189.934804
 30
0.0
 11
218.657934
 21
189.049106
 31
0.0
  0
LINE
  8
0
  6
CONTINUOUS
 62
   249
 10
219.102827
 20
189.934804
 30
0.0
 11
225.0
 21
187.5
 31
0.0
  0
LINE
  8
0
  6
CONTINUOUS
 62
   249
 10
220.0
 20
187.5
 30
0.0
 11
220.0
 21
190.265661
 31
0.0
  0
LINE
  8
0
  6
CONTINUOUS
 62
   249
 10
219.102827
 20
179.934804
 30
0.0
 11
218.657934
 21
179.049106
 31
0.0
  0
LINE
  8
0
  6
CONTINUOUS
 62
   249
 10
219.102827
 20
179.934804
 30
0.0
 11
225.0
 21
177.5
 31
0.0
  0
LINE
  8
0
  6
CONTINUOUS
 62
   249
 10
220.0
 20
177.5
 30
0.0
 11
220.0
 21
180.265661
 31
0.0
  0
LINE
  8
0
  6
CONTINUOUS
 62
   249
 10
219.102827
 20
169.934804
 30
0.0
 11
218.657934
 21
169.049106
 31
0.0
  0
LINE
  8
0
  6
CONTINUOUS
 62
   249
 10
219.102827
 20
169.934804
 30
0.0
 11
225.0
 21
167.5
 31
0.0
  0
LINE
  8
0
  6
CONTINUOUS
 62
   249
 10
220.0
 20
167.5
 30
0.0
 11
220.0
 21
170.265661
 31
0.0
  0
LINE
  8
0
  6
CONTINUOUS
 62
   249
 10
219.102827
 20
159.934804
 30
0.0
 11
218.657934
 21
159.049106
 31
0.0
  0
LINE
  8
0
  6
CONTINUOUS
 62
   249
 10
219.102827
 20
159.934804
 30
0.0
 11
225.0
 21
157.5
 31
0.0
  0
LINE
  8
0
  6
CONTINUOUS
 62
   249
 10
220.0
 20
157.5
 30
0.0
 11
220.0
 21
160.265661
 31
0.0
  0
LINE
  8
0
  6
CONTINUOUS
 62
   249
 10
219.102827
 20
149.934804
 30
0.0
 11
218.657934
 21
149.049106
 31
0.0
  0
LINE
  8
0
  6
CONTINUOUS
 62
   249
 10
219.102827
 20
149.934804
 30
0.0
 11
225.0
 21
147.5
 31
0.0
  0
LINE
  8
0
  6
CONTINUOUS
 62
   249
 10
220.0
 20
147.5
 30
0.0
 11
220.0
 21
150.265661
 31
0.0
  0
LINE
  8
0
  6
CONTINUOUS
 62
   249
 10
182.5
 20
65.0
 30
0.0
 11
185.265661
 21
65.0
 31
0.0
  0
LINE
  8
0
  6
CONTINUOUS
 62
   249
 10
184.934804
 20
65.662841
 30
0.0
 11
184.049106
 21
66.107734
 31
0.0
  0
LINE
  8
0
  6
CONTINUOUS
 62
   249
 10
182.5
 20
58.999996
 30
0.0
 11
184.934804
 21
65.662841
 31
0.0
  0
LINE
  8
0
  6
CONTINUOUS
 62
   249
 10
167.5
 20
58.999996
 30
0.0
 11
169.934804
 21
65.662841
 31
0.0
  0
LINE
  8
0
  6
CONTINUOUS
 62
   249
 10
167.50793
 20
65.0
 30
0.0
 11
170.265661
 21
65.0
 31
0.0
  0
LINE
  8
0
  6
CONTINUOUS
 62
   249
 10
187.5
 20
65.0
 30
0.0
 11
190.265661
 21
65.0
 31
0.0
  0
LINE
  8
0
  6
CONTINUOUS
 62
   249
 10
189.934804
 20
65.662841
 30
0.0
 11
189.049106
 21
66.107734
 31
0.0
  0
LINE
  8
0
  6
CONTINUOUS
 62
   249
 10
187.5
 20
58.999996
 30
0.0
 11
189.934804
 21
65.662841
 31
0.0
  0
LINE
  8
0
  6
CONTINUOUS
 62
   249
 10
175.757914
 20
160.978013
 30
0.0
 11
173.412148
 21
162.313366
 31
0.0
  0
LINE
  8
0
  6
CONTINUOUS
 62
   249
 10
173.412148
 20
162.313366
 30
0.0
 11
175.757914
 21
163.503285
 31
0.0
  0
TEXT
  8
0
  6
DASHED
 62
   249
 10
170.927634
 20
160.91462
 30
0.0
 40
2.5
  1
U
  0
TEXT
  8
0
  6
HIDDEN
 62
   249
 10
168.338365
 20
160.900278
 30
0.0
 40
2.5
  1
3
  0
LINE
  8
0
  6
CONTINUOUS
 62
   249
 10
177.568627
 20
160.978013
 30
0.0
 11
175.222862
 21
162.313366
 31
0.0
  0
LINE
  8
0
  6
CONTINUOUS
 62
   249
 10
175.222862
 20
162.313366
 30
0.0
 11
177.568627
 21
163.503285
 31
0.0
  0
LINE
  8
0
  6
CONTINUOUS
 62
   249
 10
175.222862
 20
170.005586
 30
0.0
 11
177.568627
 21
171.195505
 31
0.0
  0
LINE
  8
0
  6
CONTINUOUS
 62
   249
 10
177.568627
 20
168.670232
 30
0.0
 11
175.222862
 21
170.005586
 31
0.0
  0
TEXT
  8
0
  6
HIDDEN
 62
   249
 10
168.338365
 20
168.592497
 30
0.0
 40
2.5
  1
3
  0
TEXT
  8
0
  6
DASHED
 62
   249
 10
170.927634
 20
168.606839
 30
0.0
 40
2.5
  1
U
  0
TEXT
  8
0
  6
DASHED
 62
   249
 10
168.798048
 20
181.135343
 30
0.0
 40
2.5
  1
U
  0
LINE
  8
0
  6
CONTINUOUS
 62
   249
 10
171.85057
 20
182.432271
 30
0.0
 11
174.196336
 21
183.62219
 31
0.0
  0
LINE
  8
0
  6
CONTINUOUS
 62
   249
 10
174.196336
 20
181.096917
 30
0.0
 11
171.85057
 21
182.432271
 31
0.0
  0
TEXT
  8
0
  6
CONTINUOUS
 62
   249
 10
168.406909
 20
177.530577
 30
0.0
 40
1.5
  1
EN
  0
LINE
  8
0
  6
CONTINUOUS
 62
   249
 10
172.5
 20
178.288594
 30
0.0
 11
175.0
 21
178.288594
 31
0.0
  0
LINE
  8
0
  6
CONTINUOUS
 62
   249
 10
177.5
 20
178.288594
 30
0.0
 11
180.0
 21
178.288594
 31
0.0
  0
LINE
  8
0
  6
CONTINUOUS
 62
   249
 10
177.5
 20
178.288594
 30
0.0
 11
175.275553
 21
177.727951
 31
0.0
  0
TEXT
  8
0
  6
HIDDEN
 62
   249
 10
188.697479
 20
167.865153
 30
0.0
 40
2.5
  1
3
  0
LINE
  8
0
  6
CONTINUOUS
 62
   249
 10
193.536035
 20
169.22731
 30
0.0
 11
195.881801
 21
170.417229
 31
0.0
  0
LINE
  8
0
  6
CONTINUOUS
 62
   249
 10
195.881801
 20
167.891956
 30
0.0
 11
193.536035
 21
169.22731
 31
0.0
  0
TEXT
  8
0
  6
DASHED
 62
   249
 10
191.286748
 20
167.879495
 30
0.0
 40
2.5
  1
U
  0
LINE
  8
0
  6
CONTINUOUS
 62
   249
 10
173.412148
 20
170.005586
 30
0.0
 11
175.757914
 21
171.195505
 31
0.0
  0
LINE
  8
0
  6
CONTINUOUS
 62
   249
 10
175.757914
 20
168.670232
 30
0.0
 11
173.412148
 21
170.005586
 31
0.0
  0
LINE
  8
0
  6
CONTINUOUS
 62
   249
 10
167.5
 20
167.5
 30
0.0
 11
187.5
 21
167.5
 31
0.0
  0
ARC
  8
0
  6
HIDDEN
 62
   249
 10
185.652505
 20
178.052922
 30
0.0
 40
4.998196
 50
206.402922
 51
282.21115
  0
LINE
  8
0
  6
CONTINUOUS
 62
   249
 10
186.741301
 20
174.969656
 30
0.0
 11
186.741301
 21
173.181525
 31
0.0
  0
LINE
  8
0
  6
CONTINUOUS
 62
   249
 10
183.787189
 20
176.32254
 30
0.0
 11
184.687866
 21
175.198791
 31
0.0
  0
LINE
  8
0
  6
CONTINUOUS
 62
   249
 10
181.341782
 20
172.956775
 30
0.0
 11
184.217892
 21
175.785333
 31
0.0
  0
LINE
  8
0
  6
CONTINUOUS
 62
   249
 10
178.957637
 20
174.124377
 30
0.0
 11
186.745842
 21
174.124377
 31
0.0
  0
LINE
  8
0
  6
CONTINUOUS
 62
   249
 10
178.926606
 20
174.969656
 30
0.0
 11
178.926606
 21
173.181525
 31
0.0
  0
LINE
  8
0
  6
CONTINUOUS
 62
   249
 10
174.196336
 20
172.937197
 30
0.0
 11
171.85057
 21
174.272551
 31
0.0
  0
LINE
  8
0
  6
CONTINUOUS
 62
   249
 10
171.85057
 20
174.272551
 30
0.0
 11
174.196336
 21
175.46247
 31
0.0
  0
TEXT
  8
0
  6
DASHED
 62
   249
 10
168.798048
 20
172.975623
 30
0.0
 40
2.5
  1
U
  0
LINE
  8
0
  6
CONTINUOUS
 62
   249
 10
167.5
 20
180.0
 30
0.0
 11
187.5
 21
180.0
 31
0.0
  0
LINE
  8
0
  6
CONTINUOUS
 62
   249
 10
178.926606
 20
163.210474
 30
0.0
 11
178.926606
 21
161.422343
 31
0.0
  0
LINE
  8
0
  6
CONTINUOUS
 62
   249
 10
178.957637
 20
162.365196
 30
0.0
 11
186.745842
 21
162.365196
 31
0.0
  0
LINE
  8
0
  6
CONTINUOUS
 62
   249
 10
181.341782
 20
161.197593
 30
0.0
 11
184.217892
 21
164.026152
 31
0.0
  0
LINE
  8
0
  6
CONTINUOUS
 62
   249
 10
183.787189
 20
164.563359
 30
0.0
 11
184.687866
 21
163.43961
 31
0.0
  0
LINE
  8
0
  6
CONTINUOUS
 62
   249
 10
186.741301
 20
163.210474
 30
0.0
 11
186.741301
 21
161.422343
 31
0.0
  0
LINE
  8
0
  6
CONTINUOUS
 62
   249
 10
177.5
 20
165.788594
 30
0.0
 11
180.0
 21
165.788594
 31
0.0
  0
LINE
  8
0
  6
CONTINUOUS
 62
   249
 10
177.5
 20
165.788594
 30
0.0
 11
175.275553
 21
165.227951
 31
0.0
  0
LINE
  8
0
  6
CONTINUOUS
 62
   249
 10
172.5
 20
165.788594
 30
0.0
 11
175.0
 21
165.788594
 31
0.0
  0
TEXT
  8
0
  6
CONTINUOUS
 62
   249
 10
168.406909
 20
165.030577
 30
0.0
 40
1.5
  1
EN
  0
LINE
  8
0
  6
CONTINUOUS
 62
   249
 10
167.5
 20
172.5
 30
0.0
 11
187.5
 21
172.5
 31
0.0
  0
TEXT
  8
0
  6
CONTINUOUS
 62
   249
 10
192.347994
 20
180.241054
 30
0.0
 40
2.5
  1
U2
  0
LINE
  8
0
  6
CONTINUOUS
 62
   249
 10
187.5
 20
170.0
 30
0.0
 11
187.5
 21
160.0
 31
0.0
  0
LINE
  8
0
  6
CONTINUOUS
 62
   249
 10
167.5
 20
160.0
 30
0.0
 11
187.5
 21
160.0
 31
0.0
  0
LINE
  8
0
  6
CONTINUOUS
 62
   249
 10
167.5
 20
185.0
 30
0.0
 11
167.5
 21
170.0
 31
0.0
  0
LINE
  8
0
  6
CONTINUOUS
 62
   249
 10
187.5
 20
170.0
 30
0.0
 11
187.5
 21
200.0
 31
0.0
  0
LINE
  8
0
  6
CONTINUOUS
 62
   249
 10
187.5
 20
160.0
 30
0.0
 11
197.950615
 21
160.0
 31
0.0
  0
CIRCLE
  8
0
  6
CONTINUOUS
 62
   249
 10
166.500093
 20
178.284079
 30
0.0
 40
1.0
  0
CIRCLE
  8
0
  6
CONTINUOUS
 62
   249
 10
166.500093
 20
165.784079
 30
0.0
 40
1.0
  0
LINE
  8
0
  6
CONTINUOUS
 62
   249
 10
165.500093
 20
165.783996
 30
0.0
 11
155.0
 21
165.783996
 31
0.0
  0
LINE
  8
0
  6
CONTINUOUS
 62
   249
 10
165.500093
 20
178.283996
 30
0.0
 11
155.0
 21
178.283996
 31
0.0
  0
LINE
  8
0
  6
CONTINUOUS
 62
   249
 10
167.5
 20
182.5
 30
0.0
 11
102.5
 21
182.5
 31
0.0
  0
LINE
  8
0
  6
CONTINUOUS
 62
   249
 10
167.5
 20
175.0
 30
0.0
 11
62.5
 21
175.0
 31
0.0
  0
LINE
  8
0
  6
CONTINUOUS
 62
   249
 10
167.5
 20
170.0
 30
0.0
 11
120.0
 21
170.0
 31
0.0
  0
LINE
  8
0
  6
CONTINUOUS
 62
   249
 10
167.5
 20
162.5
 30
0.0
 11
67.5
 21
162.5
 31
0.0
  0
LINE
  8
0
  6
CONTINUOUS
 62
   249
 10
371.467949
 20
210.814523
 30
0.0
 11
369.122184
 21
212.149877
 31
0.0
  0
LINE
  8
0
  6
CONTINUOUS
 62
   249
 10
369.122184
 20
212.149877
 30
0.0
 11
371.467949
 21
213.339796
 31
0.0
  0
LINE
  8
0
  6
CONTINUOUS
 62
   249
 10
366.808213
 20
220.72309
 30
0.0
 11
364.462447
 21
222.058444
 31
0.0
  0
LINE
  8
0
  6
CONTINUOUS
 62
   249
 10
364.462447
 20
222.058444
 30
0.0
 11
366.808213
 21
223.248363
 31
0.0
  0
TEXT
  8
0
  6
CONTINUOUS
 62
   249
 10
151.853328
 20
41.513635
 30
0.0
 40
2.0
  1
+
  0
TEXT
  8
0
  6
CONTINUOUS
 62
   249
 10
171.853328
 20
41.513635
 30
0.0
 40
2.0
  1
+
  0
TEXT
  8
0
  6
CONTINUOUS
 62
   249
 10
166.853328
 20
41.513635
 30
0.0
 40
2.0
  1
+
  0
TEXT
  8
0
  6
CONTINUOUS
 62
   249
 10
181.853328
 20
41.513635
 30
0.0
 40
2.0
  1
+
  0
TEXT
  8
0
  6
CONTINUOUS
 62
   249
 10
186.844763
 20
41.50558
 30
0.0
 40
2.0
  1
-
  0
ARC
  8
0
  6
CONTINUOUS
 62
   249
 10
167.5
 20
87.5
 30
0.0
 40
0.5
 50
180.0
 51
0.0
  0
ARC
  8
0
  6
CONTINUOUS
 62
   249
 10
167.5
 20
87.5
 30
0.0
 40
0.5
 50
0.0
 51
180.0
  0
TEXT
  8
0
  6
CONTINUOUS
 62
   249
 10
11.356411
 20
199.00558
 30
0.0
 40
2.0
  1
-
  0
TEXT
  8
0
  6
CONTINUOUS
 62
   249
 10
11.364976
 20
204.013635
 30
0.0
 40
2.0
  1
+
  0
LINE
  8
0
 62
   249
 10
6.002721
 20
203.135937
 30
0.0
 11
10.002721
 21
203.135937
 31
0.0
  0
INSERT
  8
0
 62
   249
  2
WKU130
 10
6.34267
 20
201.410384
 30
0.0
 41
0.8
 42
0.8
 43
0.8
  0
ARC
  8
0
  6
CONTINUOUS
 62
   249
 10
85.0
 20
162.5
 30
0.0
 40
0.5
 50
180.0
 51
0.0
  0
ARC
  8
0
  6
CONTINUOUS
 62
   249
 10
85.0
 20
162.5
 30
0.0
 40
0.5
 50
0.0
 51
180.0
  0
ARC
  8
0
  6
CONTINUOUS
 62
   249
 10
115.0
 20
162.5
 30
0.0
 40
0.5
 50
180.0
 51
0.0
  0
ARC
  8
0
  6
CONTINUOUS
 62
   249
 10
115.0
 20
162.5
 30
0.0
 40
0.5
 50
0.0
 51
180.0
  0
ARC
  8
0
  6
CONTINUOUS
 62
   249
 10
80.0
 20
175.0
 30
0.0
 40
0.5
 50
180.0
 51
0.0
  0
ARC
  8
0
  6
CONTINUOUS
 62
   249
 10
80.0
 20
175.0
 30
0.0
 40
0.5
 50
0.0
 51
180.0
  0
ARC
  8
0
  6
CONTINUOUS
 62
   249
 10
97.5
 20
175.0
 30
0.0
 40
0.5
 50
180.0
 51
0.0
  0
ARC
  8
0
  6
CONTINUOUS
 62
   249
 10
97.5
 20
175.0
 30
0.0
 40
0.5
 50
0.0
 51
180.0
  0
LINE
  8
0
  6
CONTINUOUS
 62
   249
 10
162.919131
 20
136.159936
 30
0.0
 11
160.573366
 21
137.495289
 31
0.0
  0
LINE
  8
0
  6
CONTINUOUS
 62
   249
 10
160.573366
 20
137.495289
 30
0.0
 11
162.919131
 21
138.685208
 31
0.0
  0
INSERT
  8
0
  6
CONTINUOUS
 62
   249
  2
BLC29
 10
163.271964
 20
162.371524
 30
0.0
 50
180.0
  0
INSERT
  8
0
  6
CONTINUOUS
 62
   249
  2
BLC29
 10
162.829043
 20
169.871524
 30
0.0
 50
180.0
  0
LINE
  8
0
  6
CONTINUOUS
 62
   249
 10
162.92845
 20
181.164634
 30
0.0
 11
160.582685
 21
182.499988
 31
0.0
  0
LINE
  8
0
  6
CONTINUOUS
 62
   249
 10
160.582685
 20
182.499988
 30
0.0
 11
162.92845
 21
183.689907
 31
0.0
  0
ARC
  8
0
  6
CONTINUOUS
 62
   249
 10
155.0
 20
178.283996
 30
0.0
 40
0.5
 50
180.0
 51
0.0
  0
ARC
  8
0
  6
CONTINUOUS
 62
   249
 10
155.0
 20
178.283996
 30
0.0
 40
0.5
 50
0.0
 51
180.0
  0
INSERT
  8
0
  6
CONTINUOUS
 62
   249
  2
BLC29
 10
162.829043
 20
174.871524
 30
0.0
 50
180.0
  0
LINE
  8
0
 62
   249
 10
211.786248
 20
6.306997
 30
0.0
 11
213.547099
 21
8.067848
 31
0.0
  0
LINE
  8
0
 62
   249
 10
211.852879
 20
6.497372
 30
0.0
 11
213.547099
 21
8.191591
 31
0.0
  0
LINE
  8
0
 62
   249
 10
211.919511
 20
6.687747
 30
0.0
 11
213.547099
 21
8.315335
 31
0.0
  0
LINE
  8
0
 62
   249
 10
211.986142
 20
6.878122
 30
0.0
 11
213.547099
 21
8.439079
 31
0.0
  0
LINE
  8
0
 62
   249
 10
212.052773
 20
7.068497
 30
0.0
 11
213.547099
 21
8.562822
 31
0.0
  0
LINE
  8
0
 62
   249
 10
212.119404
 20
7.258871
 30
0.0
 11
213.547099
 21
8.686566
 31
0.0
  0
LINE
  8
0
 62
   249
 10
212.186036
 20
7.449246
 30
0.0
 11
213.474788
 21
8.737999
 31
0.0
  0
LINE
  8
0
 62
   249
 10
212.252667
 20
7.639621
 30
0.0
 11
213.351045
 21
8.737999
 31
0.0
  0
LINE
  8
0
 62
   249
 10
212.319298
 20
7.829996
 30
0.0
 11
213.227301
 21
8.737999
 31
0.0
  0
LINE
  8
0
 62
   249
 10
212.385929
 20
8.020371
 30
0.0
 11
213.103557
 21
8.737999
 31
0.0
  0
LINE
  8
0
 62
   249
 10
212.45256
 20
8.210746
 30
0.0
 11
212.979814
 21
8.737999
 31
0.0
  0
LINE
  8
0
 62
   249
 10
212.519192
 20
8.401121
 30
0.0
 11
212.85607
 21
8.737999
 31
0.0
  0
LINE
  8
0
 62
   249
 10
212.585823
 20
8.591496
 30
0.0
 11
212.732326
 21
8.737999
 31
0.0
  0
LINE
  8
0
 62
   249
 10
211.719617
 20
6.116622
 30
0.0
 11
213.547099
 21
7.944104
 31
0.0
  0
LINE
  8
0
 62
   249
 10
211.652986
 20
5.926247
 30
0.0
 11
213.547099
 21
7.82036
 31
0.0
  0
LINE
  8
0
 62
   249
 10
211.586355
 20
5.735872
 30
0.0
 11
213.547099
 21
7.696617
 31
0.0
  0
LINE
  8
0
 62
   249
 10
211.519723
 20
5.545497
 30
0.0
 11
213.547099
 21
7.572873
 31
0.0
  0
LINE
  8
0
 62
   249
 10
211.475969
 20
5.377999
 30
0.0
 11
213.547099
 21
7.449129
 31
0.0
  0
LINE
  8
0
 62
   249
 10
211.599713
 20
5.377999
 30
0.0
 11
213.547099
 21
7.325386
 31
0.0
  0
LINE
  8
0
 62
   249
 10
211.723456
 20
5.377999
 30
0.0
 11
213.547099
 21
7.201642
 31
0.0
  0
LINE
  8
0
 62
   249
 10
211.8472
 20
5.377999
 30
0.0
 11
213.547099
 21
7.077898
 31
0.0
  0
LINE
  8
0
 62
   249
 10
211.970944
 20
5.377999
 30
0.0
 11
213.547099
 21
6.954155
 31
0.0
  0
LINE
  8
0
 62
   249
 10
212.094687
 20
5.377999
 30
0.0
 11
213.547099
 21
6.830411
 31
0.0
  0
LINE
  8
0
 62
   249
 10
212.218431
 20
5.377999
 30
0.0
 11
213.547099
 21
6.706667
 31
0.0
  0
LINE
  8
0
 62
   249
 10
212.342175
 20
5.377999
 30
0.0
 11
213.547099
 21
6.582923
 31
0.0
  0
LINE
  8
0
 62
   249
 10
212.465919
 20
5.377999
 30
0.0
 11
213.547099
 21
6.45918
 31
0.0
  0
LINE
  8
0
 62
   249
 10
212.589662
 20
5.377999
 30
0.0
 11
213.547099
 21
6.335436
 31
0.0
  0
LINE
  8
0
 62
   249
 10
212.713406
 20
5.377999
 30
0.0
 11
213.547099
 21
6.211692
 31
0.0
  0
LINE
  8
0
 62
   249
 10
212.83715
 20
5.377999
 30
0.0
 11
213.547099
 21
6.087949
 31
0.0
  0
LINE
  8
0
 62
   249
 10
212.960893
 20
5.377999
 30
0.0
 11
213.547099
 21
5.964205
 31
0.0
  0
LINE
  8
0
 62
   249
 10
213.084637
 20
5.377999
 30
0.0
 11
213.547099
 21
5.840461
 31
0.0
  0
LINE
  8
0
 62
   249
 10
213.208381
 20
5.377999
 30
0.0
 11
213.547099
 21
5.716718
 31
0.0
  0
LINE
  8
0
 62
   249
 10
213.332124
 20
5.377999
 30
0.0
 11
213.547099
 21
5.592974
 31
0.0
  0
LINE
  8
0
 62
   249
 10
213.455868
 20
5.377999
 30
0.0
 11
213.547099
 21
5.46923
 31
0.0
  0
LINE
  8
0
 62
   249
 10
213.827099
 20
5.996718
 30
0.0
 11
215.211876
 21
7.381494
 31
0.0
  0
LINE
  8
0
 62
   249
 10
213.827099
 20
6.120461
 30
0.0
 11
215.179794
 21
7.473156
 31
0.0
  0
LINE
  8
0
 62
   249
 10
213.827099
 20
6.244205
 30
0.0
 11
215.147712
 21
7.564818
 31
0.0
  0
LINE
  8
0
 62
   249
 10
213.827099
 20
6.367949
 30
0.0
 11
215.115631
 21
7.65648
 31
0.0
  0
LINE
  8
0
 62
   249
 10
213.827099
 20
6.491692
 30
0.0
 11
215.083549
 21
7.748142
 31
0.0
  0
LINE
  8
0
 62
   249
 10
213.827099
 20
6.615436
 30
0.0
 11
215.051467
 21
7.839804
 31
0.0
  0
LINE
  8
0
 62
   249
 10
213.827099
 20
6.73918
 30
0.0
 11
215.019386
 21
7.931466
 31
0.0
  0
LINE
  8
0
 62
   249
 10
213.827099
 20
6.862923
 30
0.0
 11
214.987304
 21
8.023128
 31
0.0
  0
LINE
  8
0
 62
   249
 10
213.827099
 20
6.986667
 30
0.0
 11
214.955222
 21
8.11479
 31
0.0
  0
LINE
  8
0
 62
   249
 10
213.827099
 20
7.110411
 30
0.0
 11
214.923141
 21
8.206452
 31
0.0
  0
LINE
  8
0
 62
   249
 10
213.827099
 20
7.234155
 30
0.0
 11
214.891059
 21
8.298114
 31
0.0
  0
LINE
  8
0
 62
   249
 10
213.827099
 20
7.357898
 30
0.0
 11
214.858977
 21
8.389776
 31
0.0
  0
LINE
  8
0
 62
   249
 10
213.827099
 20
7.481642
 30
0.0
 11
214.826895
 21
8.481438
 31
0.0
  0
LINE
  8
0
 62
   249
 10
213.827099
 20
7.605386
 30
0.0
 11
214.794814
 21
8.5731
 31
0.0
  0
LINE
  8
0
 62
   249
 10
213.827099
 20
7.729129
 30
0.0
 11
214.762732
 21
8.664762
 31
0.0
  0
LINE
  8
0
 62
   249
 10
213.827099
 20
7.852873
 30
0.0
 11
214.712225
 21
8.737999
 31
0.0
  0
LINE
  8
0
 62
   249
 10
213.827099
 20
7.976617
 30
0.0
 11
214.588482
 21
8.737999
 31
0.0
  0
LINE
  8
0
 62
   249
 10
213.827099
 20
8.10036
 30
0.0
 11
214.464738
 21
8.737999
 31
0.0
  0
LINE
  8
0
 62
   249
 10
213.827099
 20
8.224104
 30
0.0
 11
214.340994
 21
8.737999
 31
0.0
  0
LINE
  8
0
 62
   249
 10
213.827099
 20
8.347848
 30
0.0
 11
214.217251
 21
8.737999
 31
0.0
  0
LINE
  8
0
 62
   249
 10
213.827099
 20
8.471591
 30
0.0
 11
214.093507
 21
8.737999
 31
0.0
  0
LINE
  8
0
 62
   249
 10
213.827099
 20
8.595335
 30
0.0
 11
213.969763
 21
8.737999
 31
0.0
  0
LINE
  8
0
 62
   249
 10
213.827099
 20
8.719079
 30
0.0
 11
213.84602
 21
8.737999
 31
0.0
  0
LINE
  8
0
 62
   249
 10
213.827099
 20
5.872974
 30
0.0
 11
215.243957
 21
7.289832
 31
0.0
  0
LINE
  8
0
 62
   249
 10
213.827099
 20
5.74923
 30
0.0
 11
215.276039
 21
7.19817
 31
0.0
  0
LINE
  8
0
 62
   249
 10
213.827099
 20
5.625487
 30
0.0
 11
215.308121
 21
7.106508
 31
0.0
  0
LINE
  8
0
 62
   249
 10
213.827099
 20
5.501743
 30
0.0
 11
215.340203
 21
7.014846
 31
0.0
  0
LINE
  8
0
 62
   249
 10
213.827099
 20
5.377999
 30
0.0
 11
215.372284
 21
6.923184
 31
0.0
  0
LINE
  8
0
 62
   249
 10
213.950843
 20
5.377999
 30
0.0
 11
215.404366
 21
6.831522
 31
0.0
  0
LINE
  8
0
 62
   249
 10
214.074586
 20
5.377999
 30
0.0
 11
215.436448
 21
6.73986
 31
0.0
  0
LINE
  8
0
 62
   249
 10
214.19833
 20
5.377999
 30
0.0
 11
215.468529
 21
6.648198
 31
0.0
  0
LINE
  8
0
 62
   249
 10
214.322074
 20
5.377999
 30
0.0
 11
215.500611
 21
6.556536
 31
0.0
  0
LINE
  8
0
 62
   249
 10
214.445818
 20
5.377999
 30
0.0
 11
215.532693
 21
6.464874
 31
0.0
  0
LINE
  8
0
 62
   249
 10
214.569561
 20
5.377999
 30
0.0
 11
215.564774
 21
6.373212
 31
0.0
  0
LINE
  8
0
 62
   249
 10
214.693305
 20
5.377999
 30
0.0
 11
215.596856
 21
6.281551
 31
0.0
  0
LINE
  8
0
 62
   249
 10
214.817049
 20
5.377999
 30
0.0
 11
215.628938
 21
6.189889
 31
0.0
  0
LINE
  8
0
 62
   249
 10
214.940792
 20
5.377999
 30
0.0
 11
215.66102
 21
6.098227
 31
0.0
  0
LINE
  8
0
 62
   249
 10
215.064536
 20
5.377999
 30
0.0
 11
215.693101
 21
6.006565
 31
0.0
  0
LINE
  8
0
 62
   249
 10
215.18828
 20
5.377999
 30
0.0
 11
215.725183
 21
5.914903
 31
0.0
  0
LINE
  8
0
 62
   249
 10
215.312023
 20
5.377999
 30
0.0
 11
215.757265
 21
5.823241
 31
0.0
  0
LINE
  8
0
 62
   249
 10
215.435767
 20
5.377999
 30
0.0
 11
215.789346
 21
5.731579
 31
0.0
  0
LINE
  8
0
 62
   249
 10
215.559511
 20
5.377999
 30
0.0
 11
215.821428
 21
5.639917
 31
0.0
  0
LINE
  8
0
 62
   249
 10
215.683254
 20
5.377999
 30
0.0
 11
215.85351
 21
5.548255
 31
0.0
  0
LINE
  8
0
 62
   249
 10
215.806998
 20
5.377999
 30
0.0
 11
215.885591
 21
5.456593
 31
0.0
  0
LINE
  8
0
 62
   249
 10
217.677099
 20
6.134407
 30
0.0
 11
219.637099
 21
8.094407
 31
0.0
  0
LINE
  8
0
 62
   249
 10
217.677099
 20
6.258151
 30
0.0
 11
219.637099
 21
8.218151
 31
0.0
  0
LINE
  8
0
 62
   249
 10
217.677099
 20
6.381894
 30
0.0
 11
219.637099
 21
8.341894
 31
0.0
  0
LINE
  8
0
 62
   249
 10
217.677099
 20
6.505638
 30
0.0
 11
219.637099
 21
8.465638
 31
0.0
  0
LINE
  8
0
 62
   249
 10
217.677099
 20
6.629382
 30
0.0
 11
219.637099
 21
8.589382
 31
0.0
  0
LINE
  8
0
 62
   249
 10
217.677099
 20
6.753126
 30
0.0
 11
219.637099
 21
8.713126
 31
0.0
  0
LINE
  8
0
 62
   249
 10
217.677099
 20
6.876869
 30
0.0
 11
219.538229
 21
8.737999
 31
0.0
  0
LINE
  8
0
 62
   249
 10
217.677099
 20
7.000613
 30
0.0
 11
219.414485
 21
8.737999
 31
0.0
  0
LINE
  8
0
 62
   249
 10
217.677099
 20
7.124357
 30
0.0
 11
219.290742
 21
8.737999
 31
0.0
  0
LINE
  8
0
 62
   249
 10
217.677099
 20
7.2481
 30
0.0
 11
219.166998
 21
8.737999
 31
0.0
  0
LINE
  8
0
 62
   249
 10
217.677099
 20
7.371844
 30
0.0
 11
219.043254
 21
8.737999
 31
0.0
  0
LINE
  8
0
 62
   249
 10
217.677099
 20
7.495588
 30
0.0
 11
218.919511
 21
8.737999
 31
0.0
  0
LINE
  8
0
 62
   249
 10
217.677099
 20
7.619331
 30
0.0
 11
218.795767
 21
8.737999
 31
0.0
  0
LINE
  8
0
 62
   249
 10
217.677099
 20
7.743075
 30
0.0
 11
218.672023
 21
8.737999
 31
0.0
  0
LINE
  8
0
 62
   249
 10
217.677099
 20
7.866819
 30
0.0
 11
218.54828
 21
8.737999
 31
0.0
  0
LINE
  8
0
 62
   249
 10
217.677099
 20
7.990562
 30
0.0
 11
218.424536
 21
8.737999
 31
0.0
  0
LINE
  8
0
 62
   249
 10
217.677099
 20
8.114306
 30
0.0
 11
218.300792
 21
8.737999
 31
0.0
  0
LINE
  8
0
 62
   249
 10
217.677099
 20
8.23805
 30
0.0
 11
218.177049
 21
8.737999
 31
0.0
  0
LINE
  8
0
 62
   249
 10
217.677099
 20
8.361793
 30
0.0
 11
218.053305
 21
8.737999
 31
0.0
  0
LINE
  8
0
 62
   249
 10
217.677099
 20
8.485537
 30
0.0
 11
217.929561
 21
8.737999
 31
0.0
  0
LINE
  8
0
 62
   249
 10
217.677099
 20
8.609281
 30
0.0
 11
217.805818
 21
8.737999
 31
0.0
  0
LINE
  8
0
 62
   249
 10
217.677099
 20
8.733025
 30
0.0
 11
217.682074
 21
8.737999
 31
0.0
  0
LINE
  8
0
 62
   249
 10
217.677099
 20
6.010663
 30
0.0
 11
219.637099
 21
7.970663
 31
0.0
  0
LINE
  8
0
 62
   249
 10
217.677099
 20
5.88692
 30
0.0
 11
219.637099
 21
7.84692
 31
0.0
  0
LINE
  8
0
 62
   249
 10
217.677099
 20
5.763176
 30
0.0
 11
219.637099
 21
7.723176
 31
0.0
  0
LINE
  8
0
 62
   249
 10
217.677099
 20
5.639432
 30
0.0
 11
219.637099
 21
7.599432
 31
0.0
  0
LINE
  8
0
 62
   249
 10
217.677099
 20
5.515689
 30
0.0
 11
219.637099
 21
7.475689
 31
0.0
  0
LINE
  8
0
 62
   249
 10
217.677099
 20
5.391945
 30
0.0
 11
219.637099
 21
7.351945
 31
0.0
  0
LINE
  8
0
 62
   249
 10
217.786897
 20
5.377999
 30
0.0
 11
219.637099
 21
7.228201
 31
0.0
  0
LINE
  8
0
 62
   249
 10
217.910641
 20
5.377999
 30
0.0
 11
219.637099
 21
7.104458
 31
0.0
  0
LINE
  8
0
 62
   249
 10
218.034384
 20
5.377999
 30
0.0
 11
219.637099
 21
6.980714
 31
0.0
  0
LINE
  8
0
 62
   249
 10
218.158128
 20
5.377999
 30
0.0
 11
219.637099
 21
6.85697
 31
0.0
  0
LINE
  8
0
 62
   249
 10
218.281872
 20
5.377999
 30
0.0
 11
219.637099
 21
6.733227
 31
0.0
  0
LINE
  8
0
 62
   249
 10
218.405615
 20
5.377999
 30
0.0
 11
219.637099
 21
6.609483
 31
0.0
  0
LINE
  8
0
 62
   249
 10
218.529359
 20
5.377999
 30
0.0
 11
219.637099
 21
6.485739
 31
0.0
  0
LINE
  8
0
 62
   249
 10
218.653103
 20
5.377999
 30
0.0
 11
219.637099
 21
6.361995
 31
0.0
  0
LINE
  8
0
 62
   249
 10
218.776847
 20
5.377999
 30
0.0
 11
219.637099
 21
6.238252
 31
0.0
  0
LINE
  8
0
 62
   249
 10
218.90059
 20
5.377999
 30
0.0
 11
219.637099
 21
6.114508
 31
0.0
  0
LINE
  8
0
 62
   249
 10
219.024334
 20
5.377999
 30
0.0
 11
219.637099
 21
5.990764
 31
0.0
  0
LINE
  8
0
 62
   249
 10
219.148078
 20
5.377999
 30
0.0
 11
219.637099
 21
5.867021
 31
0.0
  0
LINE
  8
0
 62
   249
 10
219.271821
 20
5.377999
 30
0.0
 11
219.637099
 21
5.743277
 31
0.0
  0
LINE
  8
0
 62
   249
 10
219.395565
 20
5.377999
 30
0.0
 11
219.637099
 21
5.619533
 31
0.0
  0
LINE
  8
0
 62
   249
 10
219.519309
 20
5.377999
 30
0.0
 11
219.637099
 21
5.49579
 31
0.0
  0
LINE
  8
0
 62
   249
 10
219.917099
 20
6.147021
 30
0.0
 11
221.795195
 21
8.025117
 31
0.0
  0
LINE
  8
0
 62
   249
 10
219.917099
 20
6.270764
 30
0.0
 11
221.744451
 21
8.098116
 31
0.0
  0
LINE
  8
0
 62
   249
 10
219.917099
 20
6.394508
 30
0.0
 11
221.690148
 21
8.167557
 31
0.0
  0
LINE
  8
0
 62
   249
 10
219.917099
 20
6.518252
 30
0.0
 11
221.63236
 21
8.233512
 31
0.0
  0
LINE
  8
0
 62
   249
 10
219.917099
 20
6.641995
 30
0.0
 11
221.571123
 21
8.29602
 31
0.0
  0
LINE
  8
0
 62
   249
 10
219.917099
 20
6.765739
 30
0.0
 11
221.506446
 21
8.355086
 31
0.0
  0
LINE
  8
0
 62
   249
 10
219.917099
 20
6.889483
 30
0.0
 11
221.4383
 21
8.410684
 31
0.0
  0
LINE
  8
0
 62
   249
 10
219.917099
 20
7.013227
 30
0.0
 11
221.366627
 21
8.462755
 31
0.0
  0
LINE
  8
0
 62
   249
 10
219.917099
 20
7.13697
 30
0.0
 11
221.291331
 21
8.511202
 31
0.0
  0
LINE
  8
0
 62
   249
 10
219.917099
 20
7.260714
 30
0.0
 11
221.212274
 21
8.555889
 31
0.0
  0
LINE
  8
0
 62
   249
 10
219.917099
 20
7.384458
 30
0.0
 11
221.129271
 21
8.59663
 31
0.0
  0
LINE
  8
0
 62
   249
 10
219.917099
 20
7.508201
 30
0.0
 11
221.042076
 21
8.633178
 31
0.0
  0
LINE
  8
0
 62
   249
 10
219.917099
 20
7.631945
 30
0.0
 11
220.950366
 21
8.665212
 31
0.0
  0
LINE
  8
0
 62
   249
 10
219.917099
 20
7.755689
 30
0.0
 11
220.853718
 21
8.692307
 31
0.0
  0
LINE
  8
0
 62
   249
 10
219.917099
 20
7.879432
 30
0.0
 11
220.751567
 21
8.7139
 31
0.0
  0
LINE
  8
0
 62
   249
 10
219.917099
 20
8.003176
 30
0.0
 11
220.643145
 21
8.729222
 31
0.0
  0
LINE
  8
0
 62
   249
 10
219.917099
 20
8.12692
 30
0.0
 11
220.527376
 21
8.737197
 31
0.0
  0
LINE
  8
0
 62
   249
 10
219.917099
 20
8.250663
 30
0.0
 11
220.404434
 21
8.737999
 31
0.0
  0
LINE
  8
0
 62
   249
 10
219.917099
 20
8.374407
 30
0.0
 11
220.280691
 21
8.737999
 31
0.0
  0
LINE
  8
0
 62
   249
 10
219.917099
 20
8.498151
 30
0.0
 11
220.156947
 21
8.737999
 31
0.0
  0
LINE
  8
0
 62
   249
 10
219.917099
 20
8.621894
 30
0.0
 11
220.033204
 21
8.737999
 31
0.0
  0
LINE
  8
0
 62
   249
 10
219.917099
 20
6.023277
 30
0.0
 11
221.842271
 21
7.948449
 31
0.0
  0
LINE
  8
0
 62
   249
 10
219.917099
 20
5.899533
 30
0.0
 11
221.885523
 21
7.867958
 31
0.0
  0
LINE
  8
0
 62
   249
 10
219.917099
 20
5.77579
 30
0.0
 11
221.924746
 21
7.783437
 31
0.0
  0
LINE
  8
0
 62
   249
 10
219.917099
 20
5.652046
 30
0.0
 11
221.959668
 21
7.694615
 31
0.0
  0
LINE
  8
0
 62
   249
 10
219.917099
 20
5.528302
 30
0.0
 11
221.989932
 21
7.601135
 31
0.0
  0
LINE
  8
0
 62
   249
 10
219.917099
 20
5.404559
 30
0.0
 11
222.015067
 21
7.502527
 31
0.0
  0
LINE
  8
0
 62
   249
 10
220.014283
 20
5.377999
 30
0.0
 11
222.034444
 21
7.39816
 31
0.0
  0
LINE
  8
0
 62
   249
 10
220.138027
 20
5.377999
 30
0.0
 11
222.047197
 21
7.287169
 31
0.0
  0
LINE
  8
0
 62
   249
 10
220.261771
 20
5.377999
 30
0.0
 11
222.05209
 21
7.168319
 31
0.0
  0
LINE
  8
0
 62
   249
 10
220.385514
 20
5.377999
 30
0.0
 11
222.04727
 21
7.039754
 31
0.0
  0
LINE
  8
0
 62
   249
 10
220.509258
 20
5.377999
 30
0.0
 11
222.029725
 21
6.898466
 31
0.0
  0
LINE
  8
0
 62
   249
 10
220.633002
 20
5.377999
 30
0.0
 11
221.993936
 21
6.738933
 31
0.0
  0
LINE
  8
0
 62
   249
 10
220.756746
 20
5.377999
 30
0.0
 11
221.927299
 21
6.548553
 31
0.0
  0
LINE
  8
0
 62
   249
 10
220.880489
 20
5.377999
 30
0.0
 11
221.280665
 21
5.778175
 31
0.0
  0
LINE
  8
0
 62
   249
 10
221.36381
 20
5.86132
 30
0.0
 11
221.778778
 21
6.276288
 31
0.0
  0
LINE
  8
0
 62
   249
 10
221.004233
 20
5.377999
 30
0.0
 11
221.366562
 21
5.740328
 31
0.0
  0
LINE
  8
0
 62
   249
 10
221.127977
 20
5.377999
 30
0.0
 11
221.449353
 21
5.699376
 31
0.0
  0
LINE
  8
0
 62
   249
 10
221.25172
 20
5.377999
 30
0.0
 11
221.529174
 21
5.655453
 31
0.0
  0
LINE
  8
0
 62
   249
 10
221.375464
 20
5.377999
 30
0.0
 11
221.606135
 21
5.608671
 31
0.0
  0
LINE
  8
0
 62
   249
 10
221.499208
 20
5.377999
 30
0.0
 11
221.680325
 21
5.559117
 31
0.0
  0
LINE
  8
0
 62
   249
 10
221.622951
 20
5.377999
 30
0.0
 11
221.751814
 21
5.506862
 31
0.0
  0
LINE
  8
0
 62
   249
 10
221.746695
 20
5.377999
 30
0.0
 11
221.820653
 21
5.451958
 31
0.0
  0
LINE
  8
0
 62
   249
 10
221.870439
 20
5.377999
 30
0.0
 11
221.886881
 21
5.394442
 31
0.0
  0
LINE
  8
0
 62
   249
 10
225.377099
 20
6.147021
 30
0.0
 11
227.255195
 21
8.025117
 31
0.0
  0
LINE
  8
0
 62
   249
 10
225.377099
 20
6.270764
 30
0.0
 11
227.204451
 21
8.098116
 31
0.0
  0
LINE
  8
0
 62
   249
 10
225.377099
 20
6.394508
 30
0.0
 11
227.150148
 21
8.167557
 31
0.0
  0
LINE
  8
0
 62
   249
 10
225.377099
 20
6.518252
 30
0.0
 11
227.09236
 21
8.233512
 31
0.0
  0
LINE
  8
0
 62
   249
 10
225.377099
 20
6.641995
 30
0.0
 11
227.031123
 21
8.29602
 31
0.0
  0
LINE
  8
0
 62
   249
 10
225.377099
 20
6.765739
 30
0.0
 11
226.966446
 21
8.355086
 31
0.0
  0
LINE
  8
0
 62
   249
 10
225.377099
 20
6.889483
 30
0.0
 11
226.8983
 21
8.410684
 31
0.0
  0
LINE
  8
0
 62
   249
 10
225.377099
 20
7.013227
 30
0.0
 11
226.826627
 21
8.462755
 31
0.0
  0
LINE
  8
0
 62
   249
 10
225.377099
 20
7.13697
 30
0.0
 11
226.751331
 21
8.511202
 31
0.0
  0
LINE
  8
0
 62
   249
 10
225.377099
 20
7.260714
 30
0.0
 11
226.672274
 21
8.555889
 31
0.0
  0
LINE
  8
0
 62
   249
 10
225.377099
 20
7.384458
 30
0.0
 11
226.589271
 21
8.59663
 31
0.0
  0
LINE
  8
0
 62
   249
 10
225.377099
 20
7.508201
 30
0.0
 11
226.502076
 21
8.633178
 31
0.0
  0
LINE
  8
0
 62
   249
 10
225.377099
 20
7.631945
 30
0.0
 11
226.410366
 21
8.665212
 31
0.0
  0
LINE
  8
0
 62
   249
 10
225.377099
 20
7.755689
 30
0.0
 11
226.313718
 21
8.692307
 31
0.0
  0
LINE
  8
0
 62
   249
 10
225.377099
 20
7.879432
 30
0.0
 11
226.211567
 21
8.7139
 31
0.0
  0
LINE
  8
0
 62
   249
 10
225.377099
 20
8.003176
 30
0.0
 11
226.103145
 21
8.729222
 31
0.0
  0
LINE
  8
0
 62
   249
 10
225.377099
 20
8.12692
 30
0.0
 11
225.987376
 21
8.737197
 31
0.0
  0
LINE
  8
0
 62
   249
 10
225.377099
 20
8.250663
 30
0.0
 11
225.864434
 21
8.737999
 31
0.0
  0
LINE
  8
0
 62
   249
 10
225.377099
 20
8.374407
 30
0.0
 11
225.740691
 21
8.737999
 31
0.0
  0
LINE
  8
0
 62
   249
 10
225.377099
 20
8.498151
 30
0.0
 11
225.616947
 21
8.737999
 31
0.0
  0
LINE
  8
0
 62
   249
 10
225.377099
 20
8.621894
 30
0.0
 11
225.493204
 21
8.737999
 31
0.0
  0
LINE
  8
0
 62
   249
 10
225.377099
 20
6.023277
 30
0.0
 11
227.302271
 21
7.948449
 31
0.0
  0
LINE
  8
0
 62
   249
 10
225.377099
 20
5.899533
 30
0.0
 11
227.345523
 21
7.867958
 31
0.0
  0
LINE
  8
0
 62
   249
 10
225.377099
 20
5.77579
 30
0.0
 11
227.384746
 21
7.783437
 31
0.0
  0
LINE
  8
0
 62
   249
 10
225.377099
 20
5.652046
 30
0.0
 11
227.419668
 21
7.694615
 31
0.0
  0
LINE
  8
0
 62
   249
 10
225.377099
 20
5.528302
 30
0.0
 11
227.449932
 21
7.601135
 31
0.0
  0
LINE
  8
0
 62
   249
 10
225.377099
 20
5.404559
 30
0.0
 11
227.475067
 21
7.502527
 31
0.0
  0
LINE
  8
0
 62
   249
 10
225.474283
 20
5.377999
 30
0.0
 11
227.494444
 21
7.39816
 31
0.0
  0
LINE
  8
0
 62
   249
 10
225.598027
 20
5.377999
 30
0.0
 11
227.507197
 21
7.287169
 31
0.0
  0
LINE
  8
0
 62
   249
 10
225.721771
 20
5.377999
 30
0.0
 11
227.51209
 21
7.168319
 31
0.0
  0
LINE
  8
0
 62
   249
 10
225.845514
 20
5.377999
 30
0.0
 11
227.50727
 21
7.039754
 31
0.0
  0
LINE
  8
0
 62
   249
 10
225.969258
 20
5.377999
 30
0.0
 11
227.489725
 21
6.898466
 31
0.0
  0
LINE
  8
0
 62
   249
 10
226.093002
 20
5.377999
 30
0.0
 11
227.453936
 21
6.738933
 31
0.0
  0
LINE
  8
0
 62
   249
 10
226.216746
 20
5.377999
 30
0.0
 11
227.387299
 21
6.548553
 31
0.0
  0
LINE
  8
0
 62
   249
 10
226.340489
 20
5.377999
 30
0.0
 11
226.740665
 21
5.778175
 31
0.0
  0
LINE
  8
0
 62
   249
 10
226.82381
 20
5.86132
 30
0.0
 11
227.238778
 21
6.276288
 31
0.0
  0
LINE
  8
0
 62
   249
 10
226.464233
 20
5.377999
 30
0.0
 11
226.826562
 21
5.740328
 31
0.0
  0
LINE
  8
0
 62
   249
 10
226.587977
 20
5.377999
 30
0.0
 11
226.909353
 21
5.699376
 31
0.0
  0
LINE
  8
0
 62
   249
 10
226.71172
 20
5.377999
 30
0.0
 11
226.989174
 21
5.655453
 31
0.0
  0
LINE
  8
0
 62
   249
 10
226.835464
 20
5.377999
 30
0.0
 11
227.066135
 21
5.608671
 31
0.0
  0
LINE
  8
0
 62
   249
 10
226.959208
 20
5.377999
 30
0.0
 11
227.140325
 21
5.559117
 31
0.0
  0
LINE
  8
0
 62
   249
 10
227.082951
 20
5.377999
 30
0.0
 11
227.211814
 21
5.506862
 31
0.0
  0
LINE
  8
0
 62
   249
 10
227.206695
 20
5.377999
 30
0.0
 11
227.280653
 21
5.451958
 31
0.0
  0
LINE
  8
0
 62
   249
 10
227.330439
 20
5.377999
 30
0.0
 11
227.346881
 21
5.394442
 31
0.0
  0
LINE
  8
0
 62
   249
 10
223.137099
 20
6.134407
 30
0.0
 11
225.097099
 21
8.094407
 31
0.0
  0
LINE
  8
0
 62
   249
 10
223.137099
 20
6.258151
 30
0.0
 11
225.097099
 21
8.218151
 31
0.0
  0
LINE
  8
0
 62
   249
 10
223.137099
 20
6.381894
 30
0.0
 11
225.097099
 21
8.341894
 31
0.0
  0
LINE
  8
0
 62
   249
 10
223.137099
 20
6.505638
 30
0.0
 11
225.097099
 21
8.465638
 31
0.0
  0
LINE
  8
0
 62
   249
 10
223.137099
 20
6.629382
 30
0.0
 11
225.097099
 21
8.589382
 31
0.0
  0
LINE
  8
0
 62
   249
 10
223.137099
 20
6.753126
 30
0.0
 11
225.097099
 21
8.713126
 31
0.0
  0
LINE
  8
0
 62
   249
 10
223.137099
 20
6.876869
 30
0.0
 11
224.998229
 21
8.737999
 31
0.0
  0
LINE
  8
0
 62
   249
 10
223.137099
 20
7.000613
 30
0.0
 11
224.874485
 21
8.737999
 31
0.0
  0
LINE
  8
0
 62
   249
 10
223.137099
 20
7.124357
 30
0.0
 11
224.750742
 21
8.737999
 31
0.0
  0
LINE
  8
0
 62
   249
 10
223.137099
 20
7.2481
 30
0.0
 11
224.626998
 21
8.737999
 31
0.0
  0
LINE
  8
0
 62
   249
 10
223.137099
 20
7.371844
 30
0.0
 11
224.503254
 21
8.737999
 31
0.0
  0
LINE
  8
0
 62
   249
 10
223.137099
 20
7.495588
 30
0.0
 11
224.379511
 21
8.737999
 31
0.0
  0
LINE
  8
0
 62
   249
 10
223.137099
 20
7.619331
 30
0.0
 11
224.255767
 21
8.737999
 31
0.0
  0
LINE
  8
0
 62
   249
 10
223.137099
 20
7.743075
 30
0.0
 11
224.132023
 21
8.737999
 31
0.0
  0
LINE
  8
0
 62
   249
 10
223.137099
 20
7.866819
 30
0.0
 11
224.00828
 21
8.737999
 31
0.0
  0
LINE
  8
0
 62
   249
 10
223.137099
 20
7.990562
 30
0.0
 11
223.884536
 21
8.737999
 31
0.0
  0
LINE
  8
0
 62
   249
 10
223.137099
 20
8.114306
 30
0.0
 11
223.760792
 21
8.737999
 31
0.0
  0
LINE
  8
0
 62
   249
 10
223.137099
 20
8.23805
 30
0.0
 11
223.637049
 21
8.737999
 31
0.0
  0
LINE
  8
0
 62
   249
 10
223.137099
 20
8.361793
 30
0.0
 11
223.513305
 21
8.737999
 31
0.0
  0
LINE
  8
0
 62
   249
 10
223.137099
 20
8.485537
 30
0.0
 11
223.389561
 21
8.737999
 31
0.0
  0
LINE
  8
0
 62
   249
 10
223.137099
 20
8.609281
 30
0.0
 11
223.265818
 21
8.737999
 31
0.0
  0
LINE
  8
0
 62
   249
 10
223.137099
 20
8.733025
 30
0.0
 11
223.142074
 21
8.737999
 31
0.0
  0
LINE
  8
0
 62
   249
 10
223.137099
 20
6.010663
 30
0.0
 11
225.097099
 21
7.970663
 31
0.0
  0
LINE
  8
0
 62
   249
 10
223.137099
 20
5.88692
 30
0.0
 11
225.097099
 21
7.84692
 31
0.0
  0
LINE
  8
0
 62
   249
 10
223.137099
 20
5.763176
 30
0.0
 11
225.097099
 21
7.723176
 31
0.0
  0
LINE
  8
0
 62
   249
 10
223.137099
 20
5.639432
 30
0.0
 11
225.097099
 21
7.599432
 31
0.0
  0
LINE
  8
0
 62
   249
 10
223.137099
 20
5.515689
 30
0.0
 11
225.097099
 21
7.475689
 31
0.0
  0
LINE
  8
0
 62
   249
 10
223.137099
 20
5.391945
 30
0.0
 11
225.097099
 21
7.351945
 31
0.0
  0
LINE
  8
0
 62
   249
 10
223.246897
 20
5.377999
 30
0.0
 11
225.097099
 21
7.228201
 31
0.0
  0
LINE
  8
0
 62
   249
 10
223.370641
 20
5.377999
 30
0.0
 11
225.097099
 21
7.104458
 31
0.0
  0
LINE
  8
0
 62
   249
 10
223.494384
 20
5.377999
 30
0.0
 11
225.097099
 21
6.980714
 31
0.0
  0
LINE
  8
0
 62
   249
 10
223.618128
 20
5.377999
 30
0.0
 11
225.097099
 21
6.85697
 31
0.0
  0
LINE
  8
0
 62
   249
 10
223.741872
 20
5.377999
 30
0.0
 11
225.097099
 21
6.733227
 31
0.0
  0
LINE
  8
0
 62
   249
 10
223.865615
 20
5.377999
 30
0.0
 11
225.097099
 21
6.609483
 31
0.0
  0
LINE
  8
0
 62
   249
 10
223.989359
 20
5.377999
 30
0.0
 11
225.097099
 21
6.485739
 31
0.0
  0
LINE
  8
0
 62
   249
 10
224.113103
 20
5.377999
 30
0.0
 11
225.097099
 21
6.361995
 31
0.0
  0
LINE
  8
0
 62
   249
 10
224.236847
 20
5.377999
 30
0.0
 11
225.097099
 21
6.238252
 31
0.0
  0
LINE
  8
0
 62
   249
 10
224.36059
 20
5.377999
 30
0.0
 11
225.097099
 21
6.114508
 31
0.0
  0
LINE
  8
0
 62
   249
 10
224.484334
 20
5.377999
 30
0.0
 11
225.097099
 21
5.990764
 31
0.0
  0
LINE
  8
0
 62
   249
 10
224.608078
 20
5.377999
 30
0.0
 11
225.097099
 21
5.867021
 31
0.0
  0
LINE
  8
0
 62
   249
 10
224.731821
 20
5.377999
 30
0.0
 11
225.097099
 21
5.743277
 31
0.0
  0
LINE
  8
0
 62
   249
 10
224.855565
 20
5.377999
 30
0.0
 11
225.097099
 21
5.619533
 31
0.0
  0
LINE
  8
0
 62
   249
 10
224.979309
 20
5.377999
 30
0.0
 11
225.097099
 21
5.49579
 31
0.0
  0
LINE
  8
0
 62
   249
 10
225.377099
 20
2.310966
 30
0.0
 11
227.824614
 21
4.758481
 31
0.0
  0
LINE
  8
0
 62
   249
 10
225.377099
 20
2.43471
 30
0.0
 11
227.782547
 21
4.840158
 31
0.0
  0
LINE
  8
0
 62
   249
 10
225.377099
 20
2.558454
 30
0.0
 11
227.737553
 21
4.918908
 31
0.0
  0
LINE
  8
0
 62
   249
 10
225.377099
 20
2.682197
 30
0.0
 11
227.689735
 21
4.994834
 31
0.0
  0
LINE
  8
0
 62
   249
 10
225.377099
 20
2.805941
 30
0.0
 11
227.639174
 21
5.068016
 31
0.0
  0
LINE
  8
0
 62
   249
 10
225.377099
 20
2.929685
 30
0.0
 11
227.545413
 21
5.097999
 31
0.0
  0
LINE
  8
0
 62
   249
 10
225.377099
 20
3.053429
 30
0.0
 11
227.42167
 21
5.097999
 31
0.0
  0
LINE
  8
0
 62
   249
 10
225.377099
 20
3.177172
 30
0.0
 11
227.297926
 21
5.097999
 31
0.0
  0
LINE
  8
0
 62
   249
 10
225.377099
 20
3.300916
 30
0.0
 11
227.174182
 21
5.097999
 31
0.0
  0
LINE
  8
0
 62
   249
 10
225.377099
 20
3.42466
 30
0.0
 11
227.050439
 21
5.097999
 31
0.0
  0
LINE
  8
0
 62
   249
 10
225.377099
 20
3.548403
 30
0.0
 11
226.926695
 21
5.097999
 31
0.0
  0
LINE
  8
0
 62
   249
 10
225.377099
 20
3.672147
 30
0.0
 11
226.802951
 21
5.097999
 31
0.0
  0
LINE
  8
0
 62
   249
 10
225.377099
 20
3.795891
 30
0.0
 11
226.679208
 21
5.097999
 31
0.0
  0
LINE
  8
0
 62
   249
 10
225.377099
 20
3.919634
 30
0.0
 11
226.555464
 21
5.097999
 31
0.0
  0
LINE
  8
0
 62
   249
 10
225.377099
 20
4.043378
 30
0.0
 11
226.43172
 21
5.097999
 31
0.0
  0
LINE
  8
0
 62
   249
 10
225.377099
 20
4.167122
 30
0.0
 11
226.307977
 21
5.097999
 31
0.0
  0
LINE
  8
0
 62
   249
 10
225.377099
 20
4.290865
 30
0.0
 11
226.184233
 21
5.097999
 31
0.0
  0
LINE
  8
0
 62
   249
 10
225.377099
 20
4.414609
 30
0.0
 11
226.060489
 21
5.097999
 31
0.0
  0
LINE
  8
0
 62
   249
 10
225.377099
 20
4.538353
 30
0.0
 11
225.936746
 21
5.097999
 31
0.0
  0
LINE
  8
0
 62
   249
 10
225.377099
 20
4.662096
 30
0.0
 11
225.813002
 21
5.097999
 31
0.0
  0
LINE
  8
0
 62
   249
 10
225.377099
 20
4.78584
 30
0.0
 11
225.689258
 21
5.097999
 31
0.0
  0
LINE
  8
0
 62
   249
 10
225.377099
 20
4.909584
 30
0.0
 11
225.565514
 21
5.097999
 31
0.0
  0
LINE
  8
0
 62
   249
 10
225.377099
 20
5.033328
 30
0.0
 11
225.441771
 21
5.097999
 31
0.0
  0
LINE
  8
0
 62
   249
 10
225.377099
 20
2.187223
 30
0.0
 11
227.863629
 21
4.673752
 31
0.0
  0
LINE
  8
0
 62
   249
 10
225.377099
 20
2.063479
 30
0.0
 11
227.899437
 21
4.585817
 31
0.0
  0
LINE
  8
0
 62
   249
 10
225.377099
 20
1.939735
 30
0.0
 11
227.931849
 21
4.494485
 31
0.0
  0
LINE
  8
0
 62
   249
 10
225.377099
 20
1.815992
 30
0.0
 11
227.960633
 21
4.399525
 31
0.0
  0
LINE
  8
0
 62
   249
 10
225.42285
 20
1.737999
 30
0.0
 11
227.985502
 21
4.300651
 31
0.0
  0
LINE
  8
0
 62
   249
 10
225.546594
 20
1.738
 30
0.0
 11
228.006098
 21
4.197503
 31
0.0
  0
LINE
  8
0
 62
   249
 10
225.670338
 20
1.738
 30
0.0
 11
228.021969
 21
4.08963
 31
0.0
  0
LINE
  8
0
 62
   249
 10
225.794082
 20
1.738
 30
0.0
 11
228.03253
 21
3.976448
 31
0.0
  0
LINE
  8
0
 62
   249
 10
225.917826
 20
1.738
 30
0.0
 11
228.037011
 21
3.857186
 31
0.0
  0
LINE
  8
0
 62
   249
 10
226.044307
 20
1.740738
 30
0.0
 11
228.034361
 21
3.730791
 31
0.0
  0
LINE
  8
0
 62
   249
 10
226.17933
 20
1.752016
 30
0.0
 11
228.023082
 21
3.595769
 31
0.0
  0
LINE
  8
0
 62
   249
 10
226.325237
 20
1.77418
 30
0.0
 11
228.000918
 21
3.449861
 31
0.0
  0
LINE
  8
0
 62
   249
 10
226.485733
 20
1.810932
 30
0.0
 11
227.964166
 21
3.289366
 31
0.0
  0
LINE
  8
0
 62
   249
 10
226.667749
 20
1.869205
 30
0.0
 11
227.905893
 21
3.107349
 31
0.0
  0
LINE
  8
0
 62
   249
 10
226.887822
 20
1.965534
 30
0.0
 11
227.809564
 21
2.887276
 31
0.0
  0
LINE
  8
0
 62
   249
 10
227.22645
 20
2.180419
 30
0.0
 11
227.59468
 21
2.548648
 31
0.0
  0
LINE
  8
0
 62
   249
 10
210.187099
 20
1.737999
 30
0.0
 11
213.547099
 21
5.097999
 31
0.0
  0
LINE
  8
0
 62
   249
 10
210.25373
 20
1.928374
 30
0.0
 11
213.423355
 21
5.097999
 31
0.0
  0
LINE
  8
0
 62
   249
 10
210.320362
 20
2.118749
 30
0.0
 11
213.299612
 21
5.097999
 31
0.0
  0
LINE
  8
0
 62
   249
 10
210.386993
 20
2.309124
 30
0.0
 11
213.175868
 21
5.097999
 31
0.0
  0
LINE
  8
0
 62
   249
 10
210.453624
 20
2.499499
 30
0.0
 11
213.052124
 21
5.097999
 31
0.0
  0
LINE
  8
0
 62
   249
 10
210.520255
 20
2.689874
 30
0.0
 11
212.928381
 21
5.097999
 31
0.0
  0
LINE
  8
0
 62
   249
 10
210.586886
 20
2.880249
 30
0.0
 11
212.804637
 21
5.097999
 31
0.0
  0
LINE
  8
0
 62
   249
 10
210.653518
 20
3.070624
 30
0.0
 11
212.680893
 21
5.097999
 31
0.0
  0
LINE
  8
0
 62
   249
 10
210.720149
 20
3.260998
 30
0.0
 11
212.55715
 21
5.097999
 31
0.0
  0
LINE
  8
0
 62
   249
 10
210.78678
 20
3.451373
 30
0.0
 11
212.433406
 21
5.097999
 31
0.0
  0
LINE
  8
0
 62
   249
 10
210.853411
 20
3.641748
 30
0.0
 11
212.309662
 21
5.097999
 31
0.0
  0
LINE
  8
0
 62
   249
 10
210.920042
 20
3.832123
 30
0.0
 11
212.185919
 21
5.097999
 31
0.0
  0
LINE
  8
0
 62
   249
 10
210.986674
 20
4.022498
 30
0.0
 11
212.062175
 21
5.097999
 31
0.0
  0
LINE
  8
0
 62
   249
 10
211.053305
 20
4.212873
 30
0.0
 11
211.938431
 21
5.097999
 31
0.0
  0
LINE
  8
0
 62
   249
 10
211.119936
 20
4.403248
 30
0.0
 11
211.814687
 21
5.097999
 31
0.0
  0
LINE
  8
0
 62
   249
 10
211.186567
 20
4.593623
 30
0.0
 11
211.690944
 21
5.097999
 31
0.0
  0
LINE
  8
0
 62
   249
 10
211.253199
 20
4.783998
 30
0.0
 11
211.5672
 21
5.097999
 31
0.0
  0
LINE
  8
0
 62
   249
 10
211.31983
 20
4.974373
 30
0.0
 11
211.443456
 21
5.097999
 31
0.0
  0
LINE
  8
0
 62
   249
 10
210.310843
 20
1.737999
 30
0.0
 11
213.547099
 21
4.974256
 31
0.0
  0
LINE
  8
0
 62
   249
 10
210.434586
 20
1.737999
 30
0.0
 11
213.547099
 21
4.850512
 31
0.0
  0
LINE
  8
0
 62
   249
 10
210.55833
 20
1.737999
 30
0.0
 11
213.547099
 21
4.726768
 31
0.0
  0
LINE
  8
0
 62
   249
 10
210.682074
 20
1.737999
 30
0.0
 11
213.547099
 21
4.603025
 31
0.0
  0
LINE
  8
0
 62
   249
 10
210.805818
 20
1.737999
 30
0.0
 11
213.547099
 21
4.479281
 31
0.0
  0
LINE
  8
0
 62
   249
 10
210.929561
 20
1.737999
 30
0.0
 11
213.547099
 21
4.355537
 31
0.0
  0
LINE
  8
0
 62
   249
 10
211.053305
 20
1.737999
 30
0.0
 11
212.412988
 21
3.097683
 31
0.0
  0
LINE
  8
0
 62
   249
 10
212.453305
 20
3.137999
 30
0.0
 11
213.547099
 21
4.231793
 31
0.0
  0
LINE
  8
0
 62
   249
 10
211.177049
 20
1.737999
 30
0.0
 11
212.346357
 21
2.907308
 31
0.0
  0
LINE
  8
0
 62
   249
 10
212.577049
 20
3.137999
 30
0.0
 11
213.547099
 21
4.10805
 31
0.0
  0
LINE
  8
0
 62
   249
 10
211.300792
 20
1.737999
 30
0.0
 11
212.279726
 21
2.716933
 31
0.0
  0
LINE
  8
0
 62
   249
 10
212.700792
 20
3.137999
 30
0.0
 11
213.547099
 21
3.984306
 31
0.0
  0
LINE
  8
0
 62
   249
 10
211.424536
 20
1.737999
 30
0.0
 11
212.213095
 21
2.526558
 31
0.0
  0
LINE
  8
0
 62
   249
 10
212.824536
 20
3.137999
 30
0.0
 11
213.547099
 21
3.860562
 31
0.0
  0
LINE
  8
0
 62
   249
 10
211.54828
 20
1.737999
 30
0.0
 11
212.146463
 21
2.336183
 31
0.0
  0
LINE
  8
0
 62
   249
 10
212.94828
 20
3.137999
 30
0.0
 11
213.547099
 21
3.736819
 31
0.0
  0
LINE
  8
0
 62
   249
 10
211.672023
 20
1.737999
 30
0.0
 11
212.079832
 21
2.145808
 31
0.0
  0
LINE
  8
0
 62
   249
 10
213.072023
 20
3.137999
 30
0.0
 11
213.547099
 21
3.613075
 31
0.0
  0
LINE
  8
0
 62
   249
 10
211.795767
 20
1.737999
 30
0.0
 11
212.013201
 21
1.955433
 31
0.0
  0
LINE
  8
0
 62
   249
 10
213.195767
 20
3.137999
 30
0.0
 11
213.547099
 21
3.489331
 31
0.0
  0
LINE
  8
0
 62
   249
 10
211.919511
 20
1.737999
 30
0.0
 11
211.94657
 21
1.765058
 31
0.0
  0
LINE
  8
0
 62
   249
 10
213.319511
 20
3.137999
 30
0.0
 11
213.547099
 21
3.365588
 31
0.0
  0
LINE
  8
0
 62
   249
 10
213.443254
 20
3.137999
 30
0.0
 11
213.547099
 21
3.241844
 31
0.0
  0
LINE
  8
0
 62
   249
 10
217.677099
 20
2.54584
 30
0.0
 11
219.637099
 21
4.50584
 31
0.0
  0
LINE
  8
0
 62
   249
 10
217.677099
 20
2.669584
 30
0.0
 11
219.637099
 21
4.629584
 31
0.0
  0
LINE
  8
0
 62
   249
 10
217.677099
 20
2.793328
 30
0.0
 11
219.637099
 21
4.753328
 31
0.0
  0
LINE
  8
0
 62
   249
 10
217.677099
 20
2.917071
 30
0.0
 11
219.637099
 21
4.877071
 31
0.0
  0
LINE
  8
0
 62
   249
 10
217.677099
 20
3.040815
 30
0.0
 11
219.637099
 21
5.000815
 31
0.0
  0
LINE
  8
0
 62
   249
 10
217.677099
 20
3.164559
 30
0.0
 11
219.61054
 21
5.097999
 31
0.0
  0
LINE
  8
0
 62
   249
 10
217.677099
 20
3.288302
 30
0.0
 11
219.486796
 21
5.097999
 31
0.0
  0
LINE
  8
0
 62
   249
 10
217.677099
 20
3.412046
 30
0.0
 11
219.363052
 21
5.097999
 31
0.0
  0
LINE
  8
0
 62
   249
 10
217.677099
 20
3.53579
 30
0.0
 11
219.239309
 21
5.097999
 31
0.0
  0
LINE
  8
0
 62
   249
 10
217.677099
 20
3.659533
 30
0.0
 11
219.115565
 21
5.097999
 31
0.0
  0
LINE
  8
0
 62
   249
 10
217.677099
 20
3.783277
 30
0.0
 11
218.991821
 21
5.097999
 31
0.0
  0
LINE
  8
0
 62
   249
 10
217.677099
 20
3.907021
 30
0.0
 11
218.868078
 21
5.097999
 31
0.0
  0
LINE
  8
0
 62
   249
 10
217.677099
 20
4.030764
 30
0.0
 11
218.744334
 21
5.097999
 31
0.0
  0
LINE
  8
0
 62
   249
 10
217.677099
 20
4.154508
 30
0.0
 11
218.62059
 21
5.097999
 31
0.0
  0
LINE
  8
0
 62
   249
 10
217.677099
 20
4.278252
 30
0.0
 11
218.496847
 21
5.097999
 31
0.0
  0
LINE
  8
0
 62
   249
 10
217.677099
 20
4.401995
 30
0.0
 11
218.373103
 21
5.097999
 31
0.0
  0
LINE
  8
0
 62
   249
 10
217.677099
 20
4.525739
 30
0.0
 11
218.249359
 21
5.097999
 31
0.0
  0
LINE
  8
0
 62
   249
 10
217.677099
 20
4.649483
 30
0.0
 11
218.125615
 21
5.097999
 31
0.0
  0
LINE
  8
0
 62
   249
 10
217.677099
 20
4.773227
 30
0.0
 11
218.001872
 21
5.097999
 31
0.0
  0
LINE
  8
0
 62
   249
 10
217.677099
 20
4.89697
 30
0.0
 11
217.878128
 21
5.097999
 31
0.0
  0
LINE
  8
0
 62
   249
 10
217.677099
 20
5.020714
 30
0.0
 11
217.754384
 21
5.097999
 31
0.0
  0
LINE
  8
0
 62
   249
 10
217.677099
 20
2.422096
 30
0.0
 11
219.637099
 21
4.382096
 31
0.0
  0
LINE
  8
0
 62
   249
 10
217.677099
 20
2.298353
 30
0.0
 11
219.637099
 21
4.258353
 31
0.0
  0
LINE
  8
0
 62
   249
 10
217.677099
 20
2.174609
 30
0.0
 11
219.637099
 21
4.134609
 31
0.0
  0
LINE
  8
0
 62
   249
 10
217.677099
 20
2.050865
 30
0.0
 11
219.637099
 21
4.010865
 31
0.0
  0
LINE
  8
0
 62
   249
 10
217.677099
 20
1.927122
 30
0.0
 11
219.637099
 21
3.887122
 31
0.0
  0
LINE
  8
0
 62
   249
 10
217.677099
 20
1.803378
 30
0.0
 11
219.637099
 21
3.763378
 31
0.0
  0
LINE
  8
0
 62
   249
 10
217.735464
 20
1.737999
 30
0.0
 11
219.637099
 21
3.639634
 31
0.0
  0
LINE
  8
0
 62
   249
 10
217.859208
 20
1.737999
 30
0.0
 11
219.637099
 21
3.515891
 31
0.0
  0
LINE
  8
0
 62
   249
 10
217.982951
 20
1.737999
 30
0.0
 11
219.637099
 21
3.392147
 31
0.0
  0
LINE
  8
0
 62
   249
 10
218.106695
 20
1.737999
 30
0.0
 11
219.637099
 21
3.268403
 31
0.0
  0
LINE
  8
0
 62
   249
 10
218.230439
 20
1.737999
 30
0.0
 11
219.637099
 21
3.14466
 31
0.0
  0
LINE
  8
0
 62
   249
 10
218.354182
 20
1.737999
 30
0.0
 11
219.637099
 21
3.020916
 31
0.0
  0
LINE
  8
0
 62
   249
 10
218.477926
 20
1.737999
 30
0.0
 11
219.637099
 21
2.897172
 31
0.0
  0
LINE
  8
0
 62
   249
 10
218.60167
 20
1.737999
 30
0.0
 11
219.637099
 21
2.773429
 31
0.0
  0
LINE
  8
0
 62
   249
 10
218.725413
 20
1.737999
 30
0.0
 11
219.637099
 21
2.649685
 31
0.0
  0
LINE
  8
0
 62
   249
 10
218.849157
 20
1.737999
 30
0.0
 11
219.637099
 21
2.525941
 31
0.0
  0
LINE
  8
0
 62
   249
 10
218.972901
 20
1.737999
 30
0.0
 11
219.637099
 21
2.402197
 31
0.0
  0
LINE
  8
0
 62
   249
 10
219.096645
 20
1.737999
 30
0.0
 11
219.637099
 21
2.278454
 31
0.0
  0
LINE
  8
0
 62
   249
 10
219.220388
 20
1.737999
 30
0.0
 11
219.637099
 21
2.15471
 31
0.0
  0
LINE
  8
0
 62
   249
 10
219.344132
 20
1.737999
 30
0.0
 11
219.637099
 21
2.030966
 31
0.0
  0
LINE
  8
0
 62
   249
 10
219.467876
 20
1.737999
 30
0.0
 11
219.637099
 21
1.907223
 31
0.0
  0
LINE
  8
0
 62
   249
 10
219.591619
 20
1.737999
 30
0.0
 11
219.637099
 21
1.783479
 31
0.0
  0
LINE
  8
0
 62
   249
 10
215.006357
 20
2.96869
 30
0.0
 11
216.302653
 21
4.264987
 31
0.0
  0
LINE
  8
0
 62
   249
 10
214.974275
 20
3.060352
 30
0.0
 11
216.270572
 21
4.356649
 31
0.0
  0
LINE
  8
0
 62
   249
 10
214.928179
 20
3.137999
 30
0.0
 11
216.23849
 21
4.448311
 31
0.0
  0
LINE
  8
0
 62
   249
 10
214.804435
 20
3.137999
 30
0.0
 11
216.206408
 21
4.539973
 31
0.0
  0
LINE
  8
0
 62
   249
 10
214.680691
 20
3.137999
 30
0.0
 11
216.174327
 21
4.631635
 31
0.0
  0
LINE
  8
0
 62
   249
 10
214.556948
 20
3.137999
 30
0.0
 11
216.142245
 21
4.723297
 31
0.0
  0
LINE
  8
0
 62
   249
 10
214.433204
 20
3.137999
 30
0.0
 11
216.110163
 21
4.814959
 31
0.0
  0
LINE
  8
0
 62
   249
 10
214.30946
 20
3.137999
 30
0.0
 11
216.078082
 21
4.906621
 31
0.0
  0
LINE
  8
0
 62
   249
 10
214.185717
 20
3.137999
 30
0.0
 11
216.046
 21
4.998283
 31
0.0
  0
LINE
  8
0
 62
   249
 10
214.061973
 20
3.137999
 30
0.0
 11
216.013918
 21
5.089945
 31
0.0
  0
LINE
  8
0
 62
   249
 10
213.938229
 20
3.137999
 30
0.0
 11
215.898229
 21
5.097999
 31
0.0
  0
LINE
  8
0
 62
   249
 10
213.827099
 20
3.150613
 30
0.0
 11
215.774485
 21
5.097999
 31
0.0
  0
LINE
  8
0
 62
   249
 10
213.827099
 20
3.274357
 30
0.0
 11
215.650742
 21
5.097999
 31
0.0
  0
LINE
  8
0
 62
   249
 10
213.827099
 20
3.3981
 30
0.0
 11
215.526998
 21
5.097999
 31
0.0
  0
LINE
  8
0
 62
   249
 10
213.827099
 20
3.521844
 30
0.0
 11
215.403254
 21
5.097999
 31
0.0
  0
LINE
  8
0
 62
   249
 10
213.827099
 20
3.645588
 30
0.0
 11
215.279511
 21
5.097999
 31
0.0
  0
LINE
  8
0
 62
   249
 10
213.827099
 20
3.769331
 30
0.0
 11
215.155767
 21
5.097999
 31
0.0
  0
LINE
  8
0
 62
   249
 10
213.827099
 20
3.893075
 30
0.0
 11
215.032023
 21
5.097999
 31
0.0
  0
LINE
  8
0
 62
   249
 10
213.827099
 20
4.016819
 30
0.0
 11
214.90828
 21
5.097999
 31
0.0
  0
LINE
  8
0
 62
   249
 10
213.827099
 20
4.140562
 30
0.0
 11
214.784536
 21
5.097999
 31
0.0
  0
LINE
  8
0
 62
   249
 10
213.827099
 20
4.264306
 30
0.0
 11
214.660792
 21
5.097999
 31
0.0
  0
LINE
  8
0
 62
   249
 10
213.827099
 20
4.38805
 30
0.0
 11
214.537049
 21
5.097999
 31
0.0
  0
LINE
  8
0
 62
   249
 10
213.827099
 20
4.511793
 30
0.0
 11
214.413305
 21
5.097999
 31
0.0
  0
LINE
  8
0
 62
   249
 10
213.827099
 20
4.635537
 30
0.0
 11
214.289561
 21
5.097999
 31
0.0
  0
LINE
  8
0
 62
   249
 10
213.827099
 20
4.759281
 30
0.0
 11
214.165818
 21
5.097999
 31
0.0
  0
LINE
  8
0
 62
   249
 10
213.827099
 20
4.883025
 30
0.0
 11
214.042074
 21
5.097999
 31
0.0
  0
LINE
  8
0
 62
   249
 10
213.827099
 20
5.006768
 30
0.0
 11
213.91833
 21
5.097999
 31
0.0
  0
LINE
  8
0
 62
   249
 10
215.038439
 20
2.877028
 30
0.0
 11
216.334735
 21
4.173325
 31
0.0
  0
LINE
  8
0
 62
   249
 10
215.070521
 20
2.785366
 30
0.0
 11
216.366817
 21
4.081663
 31
0.0
  0
LINE
  8
0
 62
   249
 10
215.102602
 20
2.693704
 30
0.0
 11
216.398899
 21
3.990001
 31
0.0
  0
LINE
  8
0
 62
   249
 10
215.134684
 20
2.602042
 30
0.0
 11
216.43098
 21
3.898339
 31
0.0
  0
LINE
  8
0
 62
   249
 10
215.166766
 20
2.51038
 30
0.0
 11
216.463062
 21
3.806677
 31
0.0
  0
LINE
  8
0
 62
   249
 10
215.198847
 20
2.418718
 30
0.0
 11
216.495144
 21
3.715015
 31
0.0
  0
LINE
  8
0
 62
   249
 10
215.230929
 20
2.327056
 30
0.0
 11
216.527225
 21
3.623353
 31
0.0
  0
LINE
  8
0
 62
   249
 10
215.263011
 20
2.235395
 30
0.0
 11
216.559307
 21
3.531691
 31
0.0
  0
LINE
  8
0
 62
   249
 10
215.295092
 20
2.143733
 30
0.0
 11
216.591389
 21
3.440029
 31
0.0
  0
LINE
  8
0
 62
   249
 10
215.327174
 20
2.052071
 30
0.0
 11
216.62347
 21
3.348367
 31
0.0
  0
LINE
  8
0
 62
   249
 10
215.359256
 20
1.960409
 30
0.0
 11
216.655552
 21
3.256705
 31
0.0
  0
LINE
  8
0
 62
   249
 10
215.391338
 20
1.868747
 30
0.0
 11
216.687634
 21
3.165043
 31
0.0
  0
LINE
  8
0
 62
   249
 10
215.423419
 20
1.777085
 30
0.0
 11
216.719716
 21
3.073381
 31
0.0
  0
LINE
  8
0
 62
   249
 10
215.508078
 20
1.737999
 30
0.0
 11
216.751797
 21
2.981719
 31
0.0
  0
LINE
  8
0
 62
   249
 10
215.631821
 20
1.737999
 30
0.0
 11
216.783879
 21
2.890057
 31
0.0
  0
LINE
  8
0
 62
   249
 10
215.755565
 20
1.737999
 30
0.0
 11
216.815961
 21
2.798395
 31
0.0
  0
LINE
  8
0
 62
   249
 10
215.879309
 20
1.737999
 30
0.0
 11
216.848042
 21
2.706733
 31
0.0
  0
LINE
  8
0
 62
   249
 10
216.003052
 20
1.737999
 30
0.0
 11
216.880124
 21
2.615071
 31
0.0
  0
LINE
  8
0
 62
   249
 10
216.126796
 20
1.737999
 30
0.0
 11
216.912206
 21
2.523409
 31
0.0
  0
LINE
  8
0
 62
   249
 10
216.25054
 20
1.737999
 30
0.0
 11
216.944287
 21
2.431747
 31
0.0
  0
LINE
  8
0
 62
   249
 10
216.374283
 20
1.737999
 30
0.0
 11
216.976369
 21
2.340085
 31
0.0
  0
LINE
  8
0
 62
   249
 10
216.498027
 20
1.737999
 30
0.0
 11
217.008451
 21
2.248423
 31
0.0
  0
LINE
  8
0
 62
   249
 10
216.621771
 20
1.737999
 30
0.0
 11
217.040532
 21
2.156761
 31
0.0
  0
LINE
  8
0
 62
   249
 10
216.745514
 20
1.737999
 30
0.0
 11
217.072614
 21
2.065099
 31
0.0
  0
LINE
  8
0
 62
   249
 10
216.869258
 20
1.737999
 30
0.0
 11
217.104696
 21
1.973437
 31
0.0
  0
LINE
  8
0
 62
   249
 10
216.993002
 20
1.737999
 30
0.0
 11
217.136778
 21
1.881775
 31
0.0
  0
LINE
  8
0
 62
   249
 10
217.116746
 20
1.737999
 30
0.0
 11
217.168859
 21
1.790113
 31
0.0
  0
LINE
  8
0
 62
   249
 10
219.917099
 20
2.310966
 30
0.0
 11
222.364614
 21
4.758481
 31
0.0
  0
LINE
  8
0
 62
   249
 10
219.917099
 20
2.43471
 30
0.0
 11
222.322547
 21
4.840158
 31
0.0
  0
LINE
  8
0
 62
   249
 10
219.917099
 20
2.558454
 30
0.0
 11
222.277553
 21
4.918908
 31
0.0
  0
LINE
  8
0
 62
   249
 10
219.917099
 20
2.682197
 30
0.0
 11
222.229735
 21
4.994834
 31
0.0
  0
LINE
  8
0
 62
   249
 10
219.917099
 20
2.805941
 30
0.0
 11
222.179174
 21
5.068016
 31
0.0
  0
LINE
  8
0
 62
   249
 10
219.917099
 20
2.929685
 30
0.0
 11
222.085413
 21
5.097999
 31
0.0
  0
LINE
  8
0
 62
   249
 10
219.917099
 20
3.053429
 30
0.0
 11
221.96167
 21
5.097999
 31
0.0
  0
LINE
  8
0
 62
   249
 10
219.917099
 20
3.177172
 30
0.0
 11
221.837926
 21
5.097999
 31
0.0
  0
LINE
  8
0
 62
   249
 10
219.917099
 20
3.300916
 30
0.0
 11
221.714182
 21
5.097999
 31
0.0
  0
LINE
  8
0
 62
   249
 10
219.917099
 20
3.42466
 30
0.0
 11
221.590439
 21
5.097999
 31
0.0
  0
LINE
  8
0
 62
   249
 10
219.917099
 20
3.548403
 30
0.0
 11
221.466695
 21
5.097999
 31
0.0
  0
LINE
  8
0
 62
   249
 10
219.917099
 20
3.672147
 30
0.0
 11
221.342951
 21
5.097999
 31
0.0
  0
LINE
  8
0
 62
   249
 10
219.917099
 20
3.795891
 30
0.0
 11
221.219208
 21
5.097999
 31
0.0
  0
LINE
  8
0
 62
   249
 10
219.917099
 20
3.919634
 30
0.0
 11
221.095464
 21
5.097999
 31
0.0
  0
LINE
  8
0
 62
   249
 10
219.917099
 20
4.043378
 30
0.0
 11
220.97172
 21
5.097999
 31
0.0
  0
LINE
  8
0
 62
   249
 10
219.917099
 20
4.167122
 30
0.0
 11
220.847977
 21
5.097999
 31
0.0
  0
LINE
  8
0
 62
   249
 10
219.917099
 20
4.290865
 30
0.0
 11
220.724233
 21
5.097999
 31
0.0
  0
LINE
  8
0
 62
   249
 10
219.917099
 20
4.414609
 30
0.0
 11
220.600489
 21
5.097999
 31
0.0
  0
LINE
  8
0
 62
   249
 10
219.917099
 20
4.538353
 30
0.0
 11
220.476746
 21
5.097999
 31
0.0
  0
LINE
  8
0
 62
   249
 10
219.917099
 20
4.662096
 30
0.0
 11
220.353002
 21
5.097999
 31
0.0
  0
LINE
  8
0
 62
   249
 10
219.917099
 20
4.78584
 30
0.0
 11
220.229258
 21
5.097999
 31
0.0
  0
LINE
  8
0
 62
   249
 10
219.917099
 20
4.909584
 30
0.0
 11
220.105514
 21
5.097999
 31
0.0
  0
LINE
  8
0
 62
   249
 10
219.917099
 20
5.033328
 30
0.0
 11
219.981771
 21
5.097999
 31
0.0
  0
LINE
  8
0
 62
   249
 10
219.917099
 20
2.187223
 30
0.0
 11
222.403629
 21
4.673752
 31
0.0
  0
LINE
  8
0
 62
   249
 10
219.917099
 20
2.063479
 30
0.0
 11
222.439437
 21
4.585817
 31
0.0
  0
LINE
  8
0
 62
   249
 10
219.917099
 20
1.939735
 30
0.0
 11
222.471849
 21
4.494485
 31
0.0
  0
LINE
  8
0
 62
   249
 10
219.917099
 20
1.815992
 30
0.0
 11
222.500633
 21
4.399525
 31
0.0
  0
LINE
  8
0
 62
   249
 10
219.96285
 20
1.737999
 30
0.0
 11
222.525502
 21
4.300651
 31
0.0
  0
LINE
  8
0
 62
   249
 10
220.086594
 20
1.738
 30
0.0
 11
222.546098
 21
4.197503
 31
0.0
  0
LINE
  8
0
 62
   249
 10
220.210338
 20
1.738
 30
0.0
 11
222.561969
 21
4.08963
 31
0.0
  0
LINE
  8
0
 62
   249
 10
220.334082
 20
1.738
 30
0.0
 11
222.57253
 21
3.976448
 31
0.0
  0
LINE
  8
0
 62
   249
 10
220.457826
 20
1.738
 30
0.0
 11
222.577011
 21
3.857186
 31
0.0
  0
LINE
  8
0
 62
   249
 10
220.584307
 20
1.740738
 30
0.0
 11
222.574361
 21
3.730791
 31
0.0
  0
LINE
  8
0
 62
   249
 10
220.71933
 20
1.752016
 30
0.0
 11
222.563082
 21
3.595769
 31
0.0
  0
LINE
  8
0
 62
   249
 10
220.865237
 20
1.77418
 30
0.0
 11
222.540918
 21
3.449861
 31
0.0
  0
LINE
  8
0
 62
   249
 10
221.025733
 20
1.810932
 30
0.0
 11
222.504166
 21
3.289366
 31
0.0
  0
LINE
  8
0
 62
   249
 10
221.207749
 20
1.869205
 30
0.0
 11
222.445893
 21
3.107349
 31
0.0
  0
LINE
  8
0
 62
   249
 10
221.427822
 20
1.965534
 30
0.0
 11
222.349564
 21
2.887276
 31
0.0
  0
LINE
  8
0
 62
   249
 10
221.76645
 20
2.180419
 30
0.0
 11
222.13468
 21
2.548648
 31
0.0
  0
LINE
  8
0
 62
   249
 10
223.137099
 20
2.54584
 30
0.0
 11
225.097099
 21
4.50584
 31
0.0
  0
LINE
  8
0
 62
   249
 10
223.137099
 20
2.669584
 30
0.0
 11
225.097099
 21
4.629584
 31
0.0
  0
LINE
  8
0
 62
   249
 10
223.137099
 20
2.793328
 30
0.0
 11
225.097099
 21
4.753328
 31
0.0
  0
LINE
  8
0
 62
   249
 10
223.137099
 20
2.917071
 30
0.0
 11
225.097099
 21
4.877071
 31
0.0
  0
LINE
  8
0
 62
   249
 10
223.137099
 20
3.040815
 30
0.0
 11
225.097099
 21
5.000815
 31
0.0
  0
LINE
  8
0
 62
   249
 10
223.137099
 20
3.164559
 30
0.0
 11
225.07054
 21
5.097999
 31
0.0
  0
LINE
  8
0
 62
   249
 10
223.137099
 20
3.288302
 30
0.0
 11
224.946796
 21
5.097999
 31
0.0
  0
LINE
  8
0
 62
   249
 10
223.137099
 20
3.412046
 30
0.0
 11
224.823052
 21
5.097999
 31
0.0
  0
LINE
  8
0
 62
   249
 10
223.137099
 20
3.53579
 30
0.0
 11
224.699309
 21
5.097999
 31
0.0
  0
LINE
  8
0
 62
   249
 10
223.137099
 20
3.659533
 30
0.0
 11
224.575565
 21
5.097999
 31
0.0
  0
LINE
  8
0
 62
   249
 10
223.137099
 20
3.783277
 30
0.0
 11
224.451821
 21
5.097999
 31
0.0
  0
LINE
  8
0
 62
   249
 10
223.137099
 20
3.907021
 30
0.0
 11
224.328078
 21
5.097999
 31
0.0
  0
LINE
  8
0
 62
   249
 10
223.137099
 20
4.030764
 30
0.0
 11
224.204334
 21
5.097999
 31
0.0
  0
LINE
  8
0
 62
   249
 10
223.137099
 20
4.154508
 30
0.0
 11
224.08059
 21
5.097999
 31
0.0
  0
LINE
  8
0
 62
   249
 10
223.137099
 20
4.278252
 30
0.0
 11
223.956847
 21
5.097999
 31
0.0
  0
LINE
  8
0
 62
   249
 10
223.137099
 20
4.401995
 30
0.0
 11
223.833103
 21
5.097999
 31
0.0
  0
LINE
  8
0
 62
   249
 10
223.137099
 20
4.525739
 30
0.0
 11
223.709359
 21
5.097999
 31
0.0
  0
LINE
  8
0
 62
   249
 10
223.137099
 20
4.649483
 30
0.0
 11
223.585615
 21
5.097999
 31
0.0
  0
LINE
  8
0
 62
   249
 10
223.137099
 20
4.773227
 30
0.0
 11
223.461872
 21
5.097999
 31
0.0
  0
LINE
  8
0
 62
   249
 10
223.137099
 20
4.89697
 30
0.0
 11
223.338128
 21
5.097999
 31
0.0
  0
LINE
  8
0
 62
   249
 10
223.137099
 20
5.020714
 30
0.0
 11
223.214384
 21
5.097999
 31
0.0
  0
LINE
  8
0
 62
   249
 10
223.137099
 20
2.422096
 30
0.0
 11
225.097099
 21
4.382096
 31
0.0
  0
LINE
  8
0
 62
   249
 10
223.137099
 20
2.298353
 30
0.0
 11
225.097099
 21
4.258353
 31
0.0
  0
LINE
  8
0
 62
   249
 10
223.137099
 20
2.174609
 30
0.0
 11
225.097099
 21
4.134609
 31
0.0
  0
LINE
  8
0
 62
   249
 10
223.137099
 20
2.050865
 30
0.0
 11
225.097099
 21
4.010865
 31
0.0
  0
LINE
  8
0
 62
   249
 10
223.137099
 20
1.927122
 30
0.0
 11
225.097099
 21
3.887122
 31
0.0
  0
LINE
  8
0
 62
   249
 10
223.137099
 20
1.803378
 30
0.0
 11
225.097099
 21
3.763378
 31
0.0
  0
LINE
  8
0
 62
   249
 10
223.195464
 20
1.737999
 30
0.0
 11
225.097099
 21
3.639634
 31
0.0
  0
LINE
  8
0
 62
   249
 10
223.319208
 20
1.737999
 30
0.0
 11
225.097099
 21
3.515891
 31
0.0
  0
LINE
  8
0
 62
   249
 10
223.442951
 20
1.737999
 30
0.0
 11
225.097099
 21
3.392147
 31
0.0
  0
LINE
  8
0
 62
   249
 10
223.566695
 20
1.737999
 30
0.0
 11
225.097099
 21
3.268403
 31
0.0
  0
LINE
  8
0
 62
   249
 10
223.690439
 20
1.737999
 30
0.0
 11
225.097099
 21
3.14466
 31
0.0
  0
LINE
  8
0
 62
   249
 10
223.814182
 20
1.737999
 30
0.0
 11
225.097099
 21
3.020916
 31
0.0
  0
LINE
  8
0
 62
   249
 10
223.937926
 20
1.737999
 30
0.0
 11
225.097099
 21
2.897172
 31
0.0
  0
LINE
  8
0
 62
   249
 10
224.06167
 20
1.737999
 30
0.0
 11
225.097099
 21
2.773429
 31
0.0
  0
LINE
  8
0
 62
   249
 10
224.185413
 20
1.737999
 30
0.0
 11
225.097099
 21
2.649685
 31
0.0
  0
LINE
  8
0
 62
   249
 10
224.309157
 20
1.737999
 30
0.0
 11
225.097099
 21
2.525941
 31
0.0
  0
LINE
  8
0
 62
   249
 10
224.432901
 20
1.737999
 30
0.0
 11
225.097099
 21
2.402197
 31
0.0
  0
LINE
  8
0
 62
   249
 10
224.556645
 20
1.737999
 30
0.0
 11
225.097099
 21
2.278454
 31
0.0
  0
LINE
  8
0
 62
   249
 10
224.680388
 20
1.737999
 30
0.0
 11
225.097099
 21
2.15471
 31
0.0
  0
LINE
  8
0
 62
   249
 10
224.804132
 20
1.737999
 30
0.0
 11
225.097099
 21
2.030966
 31
0.0
  0
LINE
  8
0
 62
   249
 10
224.927876
 20
1.737999
 30
0.0
 11
225.097099
 21
1.907223
 31
0.0
  0
LINE
  8
0
 62
   249
 10
225.051619
 20
1.737999
 30
0.0
 11
225.097099
 21
1.783479
 31
0.0
  0
LINE
  8
0
 62
   249
 10
199.979007
 20
40.783527
 30
0.0
 11
203.979007
 21
40.783527
 31
0.0
  0
INSERT
  8
0
 62
   249
  2
WKU130
 10
200.318957
 20
39.057974
 30
0.0
 41
0.8
 42
0.8
 43
0.8
  0
TEXT
  8
0
  6
CONTINUOUS
 62
   249
 10
199.353328
 20
41.513635
 30
0.0
 40
2.0
  1
+
  0
TEXT
  8
0
  6
CONTINUOUS
 62
   249
 10
204.344763
 20
41.50558
 30
0.0
 40
2.0
  1
-
  0
INSERT
  8
0
  6
CENTER
 62
   249
  2
BLC5
 10
217.791926
 20
43.342005
 30
0.0
 41
0.6
 42
0.6
 43
0.6
  0
ARC
  8
0
 62
   249
 10
203.672927
 20
75.936221
 30
0.0
 40
0.869227
 50
32.471192
 51
175.601295
  0
ARC
  8
0
 62
   249
 10
205.139595
 20
76.869554
 30
0.0
 40
0.869227
 50
212.471192
 51
355.601295
  0
LINE
  8
0
  6
CONTINUOUS
 62
   249
 10
210.965688
 20
171.462457
 30
0.0
 11
208.619923
 21
172.797811
 31
0.0
  0
LINE
  8
0
  6
CONTINUOUS
 62
   249
 10
208.619923
 20
172.797811
 30
0.0
 11
210.965688
 21
173.98773
 31
0.0
  0
LINE
  8
0
  6
CONTINUOUS
 62
   249
 10
216.854231
 20
136.335354
 30
0.0
 11
219.199996
 21
135.0
 31
0.0
  0
LINE
  8
0
  6
CONTINUOUS
 62
   249
 10
219.199996
 20
135.0
 30
0.0
 11
216.854231
 21
133.810081
 31
0.0
  0
LINE
  8
0
  6
CONTINUOUS
 62
   249
 10
213.977279
 20
133.664646
 30
0.0
 11
211.631514
 21
135.0
 31
0.0
  0
LINE
  8
0
  6
CONTINUOUS
 62
   249
 10
211.631514
 20
135.0
 30
0.0
 11
213.977279
 21
136.189919
 31
0.0
  0
3DFACE
  8
0
  6
CONTINUOUS
 62
   249
 10
231.634024
 20
134.44
 30
0.0
 11
231.649704
 21
134.44
 31
0.0
 12
231.649704
 22
135.56
 32
0.0
 13
231.634024
 23
135.56
 33
0.0
  0
3DFACE
  8
0
  6
CONTINUOUS
 62
   249
 10
231.649704
 20
134.44
 30
0.0
 11
231.665384
 21
134.44
 31
0.0
 12
231.665384
 22
135.56
 32
0.0
 13
231.649704
 23
135.56
 33
0.0
  0
3DFACE
  8
0
  6
CONTINUOUS
 62
   249
 10
231.665384
 20
134.44
 30
0.0
 11
231.681064
 21
134.44
 31
0.0
 12
231.681064
 22
135.56
 32
0.0
 13
231.665384
 23
135.56
 33
0.0
  0
3DFACE
  8
0
  6
CONTINUOUS
 62
   249
 10
231.681064
 20
134.44
 30
0.0
 11
231.696744
 21
134.44
 31
0.0
 12
231.696744
 22
135.56
 32
0.0
 13
231.681064
 23
135.56
 33
0.0
  0
3DFACE
  8
0
  6
CONTINUOUS
 62
   249
 10
231.696744
 20
134.44
 30
0.0
 11
231.712424
 21
134.44
 31
0.0
 12
231.712424
 22
135.56
 32
0.0
 13
231.696744
 23
135.56
 33
0.0
  0
3DFACE
  8
0
  6
CONTINUOUS
 62
   249
 10
231.712424
 20
134.44
 30
0.0
 11
231.728104
 21
134.44
 31
0.0
 12
231.728104
 22
135.56
 32
0.0
 13
231.712424
 23
135.56
 33
0.0
  0
3DFACE
  8
0
  6
CONTINUOUS
 62
   249
 10
231.728104
 20
134.44
 30
0.0
 11
231.743784
 21
134.44
 31
0.0
 12
231.743784
 22
135.56
 32
0.0
 13
231.728104
 23
135.56
 33
0.0
  0
3DFACE
  8
0
  6
CONTINUOUS
 62
   249
 10
231.743784
 20
134.44
 30
0.0
 11
231.759464
 21
134.44
 31
0.0
 12
231.759464
 22
135.56
 32
0.0
 13
231.743784
 23
135.56
 33
0.0
  0
3DFACE
  8
0
  6
CONTINUOUS
 62
   249
 10
231.759464
 20
134.44
 30
0.0
 11
231.775144
 21
134.44
 31
0.0
 12
231.775144
 22
135.56
 32
0.0
 13
231.759464
 23
135.56
 33
0.0
  0
3DFACE
  8
0
  6
CONTINUOUS
 62
   249
 10
231.775144
 20
134.44
 30
0.0
 11
231.790824
 21
134.44
 31
0.0
 12
231.790824
 22
135.56
 32
0.0
 13
231.775144
 23
135.56
 33
0.0
  0
3DFACE
  8
0
  6
CONTINUOUS
 62
   249
 10
231.790824
 20
134.44
 30
0.0
 11
231.806504
 21
134.44
 31
0.0
 12
231.806504
 22
135.56
 32
0.0
 13
231.790824
 23
135.56
 33
0.0
  0
3DFACE
  8
0
  6
CONTINUOUS
 62
   249
 10
231.806504
 20
134.44
 30
0.0
 11
231.822184
 21
134.44
 31
0.0
 12
231.822184
 22
135.56
 32
0.0
 13
231.806504
 23
135.56
 33
0.0
  0
3DFACE
  8
0
  6
CONTINUOUS
 62
   249
 10
231.822184
 20
134.44
 30
0.0
 11
231.837864
 21
134.44
 31
0.0
 12
231.837864
 22
135.56
 32
0.0
 13
231.822184
 23
135.56
 33
0.0
  0
3DFACE
  8
0
  6
CONTINUOUS
 62
   249
 10
231.837864
 20
134.44
 30
0.0
 11
231.853544
 21
134.44
 31
0.0
 12
231.853544
 22
135.56
 32
0.0
 13
231.837864
 23
135.56
 33
0.0
  0
3DFACE
  8
0
  6
CONTINUOUS
 62
   249
 10
231.853544
 20
134.44
 30
0.0
 11
231.869224
 21
134.44
 31
0.0
 12
231.869224
 22
135.56
 32
0.0
 13
231.853544
 23
135.56
 33
0.0
  0
3DFACE
  8
0
  6
CONTINUOUS
 62
   249
 10
231.869224
 20
134.44
 30
0.0
 11
231.884904
 21
134.44
 31
0.0
 12
231.884904
 22
135.56
 32
0.0
 13
231.869224
 23
135.56
 33
0.0
  0
3DFACE
  8
0
  6
CONTINUOUS
 62
   249
 10
231.884904
 20
134.44
 30
0.0
 11
231.900584
 21
134.44
 31
0.0
 12
231.900584
 22
135.56
 32
0.0
 13
231.884904
 23
135.56
 33
0.0
  0
3DFACE
  8
0
  6
CONTINUOUS
 62
   249
 10
231.900584
 20
134.44
 30
0.0
 11
231.916264
 21
134.44
 31
0.0
 12
231.916264
 22
135.56
 32
0.0
 13
231.900584
 23
135.56
 33
0.0
  0
3DFACE
  8
0
  6
CONTINUOUS
 62
   249
 10
231.916264
 20
134.44
 30
0.0
 11
231.931944
 21
134.44
 31
0.0
 12
231.931944
 22
135.56
 32
0.0
 13
231.916264
 23
135.56
 33
0.0
  0
3DFACE
  8
0
  6
CONTINUOUS
 62
   249
 10
231.931944
 20
134.44
 30
0.0
 11
231.947624
 21
134.44
 31
0.0
 12
231.947624
 22
135.56
 32
0.0
 13
231.931944
 23
135.56
 33
0.0
  0
3DFACE
  8
0
  6
CONTINUOUS
 62
   249
 10
231.947624
 20
134.44
 30
0.0
 11
231.963304
 21
134.44
 31
0.0
 12
231.963304
 22
135.56
 32
0.0
 13
231.947624
 23
135.56
 33
0.0
  0
3DFACE
  8
0
  6
CONTINUOUS
 62
   249
 10
231.963304
 20
134.44
 30
0.0
 11
231.978984
 21
134.44
 31
0.0
 12
231.978984
 22
135.56
 32
0.0
 13
231.963304
 23
135.56
 33
0.0
  0
3DFACE
  8
0
  6
CONTINUOUS
 62
   249
 10
231.978984
 20
134.44
 30
0.0
 11
231.994664
 21
134.44
 31
0.0
 12
231.994664
 22
135.56
 32
0.0
 13
231.978984
 23
135.56
 33
0.0
  0
3DFACE
  8
0
  6
CONTINUOUS
 62
   249
 10
231.994664
 20
134.44
 30
0.0
 11
232.010344
 21
134.44
 31
0.0
 12
232.010344
 22
135.56
 32
0.0
 13
231.994664
 23
135.56
 33
0.0
  0
3DFACE
  8
0
  6
CONTINUOUS
 62
   249
 10
232.010344
 20
134.44
 30
0.0
 11
232.026024
 21
134.44
 31
0.0
 12
232.026024
 22
135.56
 32
0.0
 13
232.010344
 23
135.56
 33
0.0
  0
3DFACE
  8
0
  6
CONTINUOUS
 62
   249
 10
232.026024
 20
134.44
 30
0.0
 11
232.041704
 21
134.44
 31
0.0
 12
232.041704
 22
135.56
 32
0.0
 13
232.026024
 23
135.56
 33
0.0
  0
3DFACE
  8
0
  6
CONTINUOUS
 62
   249
 10
232.041704
 20
134.44
 30
0.0
 11
232.057384
 21
134.44
 31
0.0
 12
232.057384
 22
135.56
 32
0.0
 13
232.041704
 23
135.56
 33
0.0
  0
3DFACE
  8
0
  6
CONTINUOUS
 62
   249
 10
232.057384
 20
134.44
 30
0.0
 11
232.073064
 21
134.44
 31
0.0
 12
232.073064
 22
135.56
 32
0.0
 13
232.057384
 23
135.56
 33
0.0
  0
3DFACE
  8
0
  6
CONTINUOUS
 62
   249
 10
232.073064
 20
134.44
 30
0.0
 11
232.088744
 21
134.44
 31
0.0
 12
232.088744
 22
135.56
 32
0.0
 13
232.073064
 23
135.56
 33
0.0
  0
3DFACE
  8
0
  6
CONTINUOUS
 62
   249
 10
232.088744
 20
134.44
 30
0.0
 11
232.104424
 21
134.44
 31
0.0
 12
232.104424
 22
135.56
 32
0.0
 13
232.088744
 23
135.56
 33
0.0
  0
3DFACE
  8
0
  6
CONTINUOUS
 62
   249
 10
232.104424
 20
134.44
 30
0.0
 11
232.120104
 21
134.44
 31
0.0
 12
232.120104
 22
135.56
 32
0.0
 13
232.104424
 23
135.56
 33
0.0
  0
3DFACE
  8
0
  6
CONTINUOUS
 62
   249
 10
232.120104
 20
134.44
 30
0.0
 11
232.135784
 21
134.44
 31
0.0
 12
232.135784
 22
135.56
 32
0.0
 13
232.120104
 23
135.56
 33
0.0
  0
3DFACE
  8
0
  6
CONTINUOUS
 62
   249
 10
232.135784
 20
134.44
 30
0.0
 11
232.151464
 21
134.44
 31
0.0
 12
232.151464
 22
135.56
 32
0.0
 13
232.135784
 23
135.56
 33
0.0
  0
3DFACE
  8
0
  6
CONTINUOUS
 62
   249
 10
232.151464
 20
134.44
 30
0.0
 11
232.167144
 21
134.44
 31
0.0
 12
232.167144
 22
135.56
 32
0.0
 13
232.151464
 23
135.56
 33
0.0
  0
3DFACE
  8
0
  6
CONTINUOUS
 62
   249
 10
232.167144
 20
134.44
 30
0.0
 11
232.182824
 21
134.44
 31
0.0
 12
232.182824
 22
135.56
 32
0.0
 13
232.167144
 23
135.56
 33
0.0
  0
3DFACE
  8
0
  6
CONTINUOUS
 62
   249
 10
232.182824
 20
134.44
 30
0.0
 11
232.198504
 21
134.44
 31
0.0
 12
232.198504
 22
135.56
 32
0.0
 13
232.182824
 23
135.56
 33
0.0
  0
3DFACE
  8
0
  6
CONTINUOUS
 62
   249
 10
232.198504
 20
134.44
 30
0.0
 11
232.214184
 21
134.44
 31
0.0
 12
232.214184
 22
135.56
 32
0.0
 13
232.198504
 23
135.56
 33
0.0
  0
3DFACE
  8
0
  6
CONTINUOUS
 62
   249
 10
232.214184
 20
134.44
 30
0.0
 11
232.229864
 21
134.44
 31
0.0
 12
232.229864
 22
135.56
 32
0.0
 13
232.214184
 23
135.56
 33
0.0
  0
3DFACE
  8
0
  6
CONTINUOUS
 62
   249
 10
232.229864
 20
134.44
 30
0.0
 11
232.245544
 21
134.44
 31
0.0
 12
232.245544
 22
135.56
 32
0.0
 13
232.229864
 23
135.56
 33
0.0
  0
3DFACE
  8
0
  6
CONTINUOUS
 62
   249
 10
232.245544
 20
134.44
 30
0.0
 11
232.261224
 21
134.44
 31
0.0
 12
232.261224
 22
135.56
 32
0.0
 13
232.245544
 23
135.56
 33
0.0
  0
3DFACE
  8
0
  6
CONTINUOUS
 62
   249
 10
232.261224
 20
134.44
 30
0.0
 11
232.276904
 21
134.44
 31
0.0
 12
232.276904
 22
135.56
 32
0.0
 13
232.261224
 23
135.56
 33
0.0
  0
3DFACE
  8
0
  6
CONTINUOUS
 62
   249
 10
232.276904
 20
134.44
 30
0.0
 11
232.292584
 21
134.44
 31
0.0
 12
232.292584
 22
135.56
 32
0.0
 13
232.276904
 23
135.56
 33
0.0
  0
3DFACE
  8
0
  6
CONTINUOUS
 62
   249
 10
232.292584
 20
134.44
 30
0.0
 11
232.308264
 21
134.44
 31
0.0
 12
232.308264
 22
135.56
 32
0.0
 13
232.292584
 23
135.56
 33
0.0
  0
3DFACE
  8
0
  6
CONTINUOUS
 62
   249
 10
232.308264
 20
134.44
 30
0.0
 11
232.323944
 21
134.44
 31
0.0
 12
232.323944
 22
135.56
 32
0.0
 13
232.308264
 23
135.56
 33
0.0
  0
3DFACE
  8
0
  6
CONTINUOUS
 62
   249
 10
232.323944
 20
134.44
 30
0.0
 11
232.339624
 21
134.44
 31
0.0
 12
232.339624
 22
135.56
 32
0.0
 13
232.323944
 23
135.56
 33
0.0
  0
3DFACE
  8
0
  6
CONTINUOUS
 62
   249
 10
232.339624
 20
134.44
 30
0.0
 11
232.355304
 21
134.44
 31
0.0
 12
232.355304
 22
135.56
 32
0.0
 13
232.339624
 23
135.56
 33
0.0
  0
3DFACE
  8
0
  6
CONTINUOUS
 62
   249
 10
232.355304
 20
134.44
 30
0.0
 11
232.370984
 21
134.44
 31
0.0
 12
232.370984
 22
135.56
 32
0.0
 13
232.355304
 23
135.56
 33
0.0
  0
3DFACE
  8
0
  6
CONTINUOUS
 62
   249
 10
232.370984
 20
134.44
 30
0.0
 11
232.386664
 21
134.44
 31
0.0
 12
232.386664
 22
135.56
 32
0.0
 13
232.370984
 23
135.56
 33
0.0
  0
3DFACE
  8
0
  6
CONTINUOUS
 62
   249
 10
232.386664
 20
134.44
 30
0.0
 11
232.402344
 21
134.44
 31
0.0
 12
232.402344
 22
135.56
 32
0.0
 13
232.386664
 23
135.56
 33
0.0
  0
3DFACE
  8
0
  6
CONTINUOUS
 62
   249
 10
232.402344
 20
134.44
 30
0.0
 11
232.418024
 21
134.44
 31
0.0
 12
232.418024
 22
135.56
 32
0.0
 13
232.402344
 23
135.56
 33
0.0
  0
3DFACE
  8
0
  6
CONTINUOUS
 62
   249
 10
232.418024
 20
134.44
 30
0.0
 11
232.433704
 21
134.44
 31
0.0
 12
232.433704
 22
135.56
 32
0.0
 13
232.418024
 23
135.56
 33
0.0
  0
3DFACE
  8
0
  6
CONTINUOUS
 62
   249
 10
232.433704
 20
134.44
 30
0.0
 11
232.449384
 21
134.44
 31
0.0
 12
232.449384
 22
135.56
 32
0.0
 13
232.433704
 23
135.56
 33
0.0
  0
3DFACE
  8
0
  6
CONTINUOUS
 62
   249
 10
232.449384
 20
134.44
 30
0.0
 11
232.465064
 21
134.44
 31
0.0
 12
232.465064
 22
135.56
 32
0.0
 13
232.449384
 23
135.56
 33
0.0
  0
3DFACE
  8
0
  6
CONTINUOUS
 62
   249
 10
232.465064
 20
134.44
 30
0.0
 11
232.480744
 21
134.44
 31
0.0
 12
232.480744
 22
135.56
 32
0.0
 13
232.465064
 23
135.56
 33
0.0
  0
3DFACE
  8
0
  6
CONTINUOUS
 62
   249
 10
232.480744
 20
134.44
 30
0.0
 11
232.496424
 21
134.44
 31
0.0
 12
232.496424
 22
135.56
 32
0.0
 13
232.480744
 23
135.56
 33
0.0
  0
3DFACE
  8
0
  6
CONTINUOUS
 62
   249
 10
232.496424
 20
134.44
 30
0.0
 11
232.512104
 21
134.44
 31
0.0
 12
232.512104
 22
135.56
 32
0.0
 13
232.496424
 23
135.56
 33
0.0
  0
3DFACE
  8
0
  6
CONTINUOUS
 62
   249
 10
232.512104
 20
134.44
 30
0.0
 11
232.527784
 21
134.44
 31
0.0
 12
232.527784
 22
135.56
 32
0.0
 13
232.512104
 23
135.56
 33
0.0
  0
3DFACE
  8
0
  6
CONTINUOUS
 62
   249
 10
232.527784
 20
134.44
 30
0.0
 11
232.543464
 21
134.44
 31
0.0
 12
232.543464
 22
135.56
 32
0.0
 13
232.527784
 23
135.56
 33
0.0
  0
3DFACE
  8
0
  6
CONTINUOUS
 62
   249
 10
232.543464
 20
134.44
 30
0.0
 11
232.559144
 21
134.44
 31
0.0
 12
232.559144
 22
135.56
 32
0.0
 13
232.543464
 23
135.56
 33
0.0
  0
3DFACE
  8
0
  6
CONTINUOUS
 62
   249
 10
232.559144
 20
134.44
 30
0.0
 11
232.574824
 21
134.44
 31
0.0
 12
232.574824
 22
135.56
 32
0.0
 13
232.559144
 23
135.56
 33
0.0
  0
3DFACE
  8
0
  6
CONTINUOUS
 62
   249
 10
232.574824
 20
134.44
 30
0.0
 11
232.590504
 21
134.44
 31
0.0
 12
232.590504
 22
135.56
 32
0.0
 13
232.574824
 23
135.56
 33
0.0
  0
3DFACE
  8
0
  6
CONTINUOUS
 62
   249
 10
232.590504
 20
134.44
 30
0.0
 11
232.606184
 21
134.44
 31
0.0
 12
232.606184
 22
135.56
 32
0.0
 13
232.590504
 23
135.56
 33
0.0
  0
3DFACE
  8
0
  6
CONTINUOUS
 62
   249
 10
232.606184
 20
134.44
 30
0.0
 11
232.621864
 21
134.44
 31
0.0
 12
232.621864
 22
135.56
 32
0.0
 13
232.606184
 23
135.56
 33
0.0
  0
3DFACE
  8
0
  6
CONTINUOUS
 62
   249
 10
232.621864
 20
134.44
 30
0.0
 11
232.637544
 21
134.44
 31
0.0
 12
232.637544
 22
135.56
 32
0.0
 13
232.621864
 23
135.56
 33
0.0
  0
3DFACE
  8
0
  6
CONTINUOUS
 62
   249
 10
232.637544
 20
134.44
 30
0.0
 11
232.653224
 21
134.44
 31
0.0
 12
232.653224
 22
135.56
 32
0.0
 13
232.637544
 23
135.56
 33
0.0
  0
3DFACE
  8
0
  6
CONTINUOUS
 62
   249
 10
232.653224
 20
134.44
 30
0.0
 11
232.668904
 21
134.44
 31
0.0
 12
232.668904
 22
135.56
 32
0.0
 13
232.653224
 23
135.56
 33
0.0
  0
3DFACE
  8
0
  6
CONTINUOUS
 62
   249
 10
232.668904
 20
134.44
 30
0.0
 11
232.684584
 21
134.44
 31
0.0
 12
232.684584
 22
135.56
 32
0.0
 13
232.668904
 23
135.56
 33
0.0
  0
3DFACE
  8
0
  6
CONTINUOUS
 62
   249
 10
232.684584
 20
134.44
 30
0.0
 11
232.700264
 21
134.44
 31
0.0
 12
232.700264
 22
135.56
 32
0.0
 13
232.684584
 23
135.56
 33
0.0
  0
3DFACE
  8
0
  6
CONTINUOUS
 62
   249
 10
232.700264
 20
134.44
 30
0.0
 11
232.715944
 21
134.44
 31
0.0
 12
232.715944
 22
135.56
 32
0.0
 13
232.700264
 23
135.56
 33
0.0
  0
3DFACE
  8
0
  6
CONTINUOUS
 62
   249
 10
232.715944
 20
134.44
 30
0.0
 11
232.731624
 21
134.44
 31
0.0
 12
232.731624
 22
135.56
 32
0.0
 13
232.715944
 23
135.56
 33
0.0
  0
3DFACE
  8
0
  6
CONTINUOUS
 62
   249
 10
232.731624
 20
134.44
 30
0.0
 11
232.747304
 21
134.44
 31
0.0
 12
232.747304
 22
135.56
 32
0.0
 13
232.731624
 23
135.56
 33
0.0
  0
3DFACE
  8
0
  6
CONTINUOUS
 62
   249
 10
232.747304
 20
134.44
 30
0.0
 11
232.762984
 21
134.44
 31
0.0
 12
232.762984
 22
135.56
 32
0.0
 13
232.747304
 23
135.56
 33
0.0
  0
3DFACE
  8
0
  6
CONTINUOUS
 62
   249
 10
232.762984
 20
134.44
 30
0.0
 11
232.778664
 21
134.44
 31
0.0
 12
232.778664
 22
135.56
 32
0.0
 13
232.762984
 23
135.56
 33
0.0
  0
3DFACE
  8
0
  6
CONTINUOUS
 62
   249
 10
232.778664
 20
134.44
 30
0.0
 11
232.794344
 21
134.44
 31
0.0
 12
232.794344
 22
135.56
 32
0.0
 13
232.778664
 23
135.56
 33
0.0
  0
3DFACE
  8
0
  6
CONTINUOUS
 62
   249
 10
232.794344
 20
134.44
 30
0.0
 11
232.810024
 21
134.44
 31
0.0
 12
232.810024
 22
135.56
 32
0.0
 13
232.794344
 23
135.56
 33
0.0
  0
3DFACE
  8
0
  6
CONTINUOUS
 62
   249
 10
232.810024
 20
134.44
 30
0.0
 11
232.825704
 21
134.44
 31
0.0
 12
232.825704
 22
135.56
 32
0.0
 13
232.810024
 23
135.56
 33
0.0
  0
3DFACE
  8
0
  6
CONTINUOUS
 62
   249
 10
232.825704
 20
134.44
 30
0.0
 11
232.841384
 21
134.44
 31
0.0
 12
232.841384
 22
135.56
 32
0.0
 13
232.825704
 23
135.56
 33
0.0
  0
3DFACE
  8
0
  6
CONTINUOUS
 62
   249
 10
232.841384
 20
134.44
 30
0.0
 11
232.857064
 21
134.44
 31
0.0
 12
232.857064
 22
135.56
 32
0.0
 13
232.841384
 23
135.56
 33
0.0
  0
3DFACE
  8
0
  6
CONTINUOUS
 62
   249
 10
232.857064
 20
134.44
 30
0.0
 11
232.872744
 21
134.44
 31
0.0
 12
232.872744
 22
135.56
 32
0.0
 13
232.857064
 23
135.56
 33
0.0
  0
3DFACE
  8
0
  6
CONTINUOUS
 62
   249
 10
232.872744
 20
134.44
 30
0.0
 11
232.888424
 21
134.44
 31
0.0
 12
232.888424
 22
135.56
 32
0.0
 13
232.872744
 23
135.56
 33
0.0
  0
3DFACE
  8
0
  6
CONTINUOUS
 62
   249
 10
232.888424
 20
134.44
 30
0.0
 11
232.904104
 21
134.44
 31
0.0
 12
232.904104
 22
135.56
 32
0.0
 13
232.888424
 23
135.56
 33
0.0
  0
3DFACE
  8
0
  6
CONTINUOUS
 62
   249
 10
232.904104
 20
134.44
 30
0.0
 11
232.919784
 21
134.44
 31
0.0
 12
232.919784
 22
135.56
 32
0.0
 13
232.904104
 23
135.56
 33
0.0
  0
3DFACE
  8
0
  6
CONTINUOUS
 62
   249
 10
232.919784
 20
134.44
 30
0.0
 11
232.935464
 21
134.44
 31
0.0
 12
232.935464
 22
135.56
 32
0.0
 13
232.919784
 23
135.56
 33
0.0
  0
3DFACE
  8
0
  6
CONTINUOUS
 62
   249
 10
232.935464
 20
134.44
 30
0.0
 11
232.951144
 21
134.44
 31
0.0
 12
232.951144
 22
135.56
 32
0.0
 13
232.935464
 23
135.56
 33
0.0
  0
3DFACE
  8
0
  6
CONTINUOUS
 62
   249
 10
232.951144
 20
134.44
 30
0.0
 11
232.966824
 21
134.44
 31
0.0
 12
232.966824
 22
135.56
 32
0.0
 13
232.951144
 23
135.56
 33
0.0
  0
3DFACE
  8
0
  6
CONTINUOUS
 62
   249
 10
232.966824
 20
134.44
 30
0.0
 11
232.982504
 21
134.44
 31
0.0
 12
232.982504
 22
135.56
 32
0.0
 13
232.966824
 23
135.56
 33
0.0
  0
3DFACE
  8
0
  6
CONTINUOUS
 62
   249
 10
232.982504
 20
134.44
 30
0.0
 11
232.998184
 21
134.44
 31
0.0
 12
232.998184
 22
135.56
 32
0.0
 13
232.982504
 23
135.56
 33
0.0
  0
3DFACE
  8
0
  6
CONTINUOUS
 62
   249
 10
232.998184
 20
134.44
 30
0.0
 11
233.013864
 21
134.44
 31
0.0
 12
233.013864
 22
135.56
 32
0.0
 13
232.998184
 23
135.56
 33
0.0
  0
3DFACE
  8
0
  6
CONTINUOUS
 62
   249
 10
233.013864
 20
134.44
 30
0.0
 11
233.029544
 21
134.44
 31
0.0
 12
233.029544
 22
135.56
 32
0.0
 13
233.013864
 23
135.56
 33
0.0
  0
3DFACE
  8
0
  6
CONTINUOUS
 62
   249
 10
233.029544
 20
134.44
 30
0.0
 11
233.045224
 21
134.44
 31
0.0
 12
233.045224
 22
135.56
 32
0.0
 13
233.029544
 23
135.56
 33
0.0
  0
3DFACE
  8
0
  6
CONTINUOUS
 62
   249
 10
233.045224
 20
134.44
 30
0.0
 11
233.060904
 21
134.44
 31
0.0
 12
233.060904
 22
135.56
 32
0.0
 13
233.045224
 23
135.56
 33
0.0
  0
3DFACE
  8
0
  6
CONTINUOUS
 62
   249
 10
233.060904
 20
134.44
 30
0.0
 11
233.076584
 21
134.44
 31
0.0
 12
233.076584
 22
135.56
 32
0.0
 13
233.060904
 23
135.56
 33
0.0
  0
3DFACE
  8
0
  6
CONTINUOUS
 62
   249
 10
233.076584
 20
134.44
 30
0.0
 11
233.092264
 21
134.44
 31
0.0
 12
233.092264
 22
135.56
 32
0.0
 13
233.076584
 23
135.56
 33
0.0
  0
3DFACE
  8
0
  6
CONTINUOUS
 62
   249
 10
233.092264
 20
134.44
 30
0.0
 11
233.107944
 21
134.44
 31
0.0
 12
233.107944
 22
135.56
 32
0.0
 13
233.092264
 23
135.56
 33
0.0
  0
3DFACE
  8
0
  6
CONTINUOUS
 62
   249
 10
233.107944
 20
134.44
 30
0.0
 11
233.123624
 21
134.44
 31
0.0
 12
233.123624
 22
135.56
 32
0.0
 13
233.107944
 23
135.56
 33
0.0
  0
3DFACE
  8
0
  6
CONTINUOUS
 62
   249
 10
233.123624
 20
134.44
 30
0.0
 11
233.139304
 21
134.44
 31
0.0
 12
233.139304
 22
135.56
 32
0.0
 13
233.123624
 23
135.56
 33
0.0
  0
3DFACE
  8
0
  6
CONTINUOUS
 62
   249
 10
233.139304
 20
134.44
 30
0.0
 11
233.154984
 21
134.44
 31
0.0
 12
233.154984
 22
135.56
 32
0.0
 13
233.139304
 23
135.56
 33
0.0
  0
3DFACE
  8
0
  6
CONTINUOUS
 62
   249
 10
233.154984
 20
134.44
 30
0.0
 11
233.170664
 21
134.44
 31
0.0
 12
233.170664
 22
135.56
 32
0.0
 13
233.154984
 23
135.56
 33
0.0
  0
3DFACE
  8
0
  6
CONTINUOUS
 62
   249
 10
233.170664
 20
134.44
 30
0.0
 11
233.186344
 21
134.44
 31
0.0
 12
233.186344
 22
135.56
 32
0.0
 13
233.170664
 23
135.56
 33
0.0
  0
3DFACE
  8
0
  6
CONTINUOUS
 62
   249
 10
233.186344
 20
134.44
 30
0.0
 11
233.202024
 21
134.44
 31
0.0
 12
233.202024
 22
135.56
 32
0.0
 13
233.186344
 23
135.56
 33
0.0
  0
3DFACE
  8
0
  6
CONTINUOUS
 62
   249
 10
233.202024
 20
134.44
 30
0.0
 11
233.217704
 21
134.44
 31
0.0
 12
233.217704
 22
135.56
 32
0.0
 13
233.202024
 23
135.56
 33
0.0
  0
3DFACE
  8
0
  6
CONTINUOUS
 62
   249
 10
233.217704
 20
134.44
 30
0.0
 11
233.233384
 21
134.44
 31
0.0
 12
233.233384
 22
135.56
 32
0.0
 13
233.217704
 23
135.56
 33
0.0
  0
3DFACE
  8
0
  6
CONTINUOUS
 62
   249
 10
233.233384
 20
134.44
 30
0.0
 11
233.249064
 21
134.44
 31
0.0
 12
233.249064
 22
135.56
 32
0.0
 13
233.233384
 23
135.56
 33
0.0
  0
3DFACE
  8
0
  6
CONTINUOUS
 62
   249
 10
233.249064
 20
134.44
 30
0.0
 11
233.264744
 21
134.44
 31
0.0
 12
233.264744
 22
135.56
 32
0.0
 13
233.249064
 23
135.56
 33
0.0
  0
3DFACE
  8
0
  6
CONTINUOUS
 62
   249
 10
233.264744
 20
134.44
 30
0.0
 11
233.280424
 21
134.44
 31
0.0
 12
233.280424
 22
135.56
 32
0.0
 13
233.264744
 23
135.56
 33
0.0
  0
3DFACE
  8
0
  6
CONTINUOUS
 62
   249
 10
233.280424
 20
134.44
 30
0.0
 11
233.296104
 21
134.44
 31
0.0
 12
233.296104
 22
135.56
 32
0.0
 13
233.280424
 23
135.56
 33
0.0
  0
3DFACE
  8
0
  6
CONTINUOUS
 62
   249
 10
233.296104
 20
134.44
 30
0.0
 11
233.311784
 21
134.44
 31
0.0
 12
233.311784
 22
135.56
 32
0.0
 13
233.296104
 23
135.56
 33
0.0
  0
3DFACE
  8
0
  6
CONTINUOUS
 62
   249
 10
233.311784
 20
134.44
 30
0.0
 11
233.327464
 21
134.44
 31
0.0
 12
233.327464
 22
135.56
 32
0.0
 13
233.311784
 23
135.56
 33
0.0
  0
3DFACE
  8
0
  6
CONTINUOUS
 62
   249
 10
233.327464
 20
134.44
 30
0.0
 11
233.343144
 21
134.44
 31
0.0
 12
233.343144
 22
135.56
 32
0.0
 13
233.327464
 23
135.56
 33
0.0
  0
3DFACE
  8
0
  6
CONTINUOUS
 62
   249
 10
233.343144
 20
134.44
 30
0.0
 11
233.358824
 21
134.44
 31
0.0
 12
233.358824
 22
135.56
 32
0.0
 13
233.343144
 23
135.56
 33
0.0
  0
3DFACE
  8
0
  6
CONTINUOUS
 62
   249
 10
233.358824
 20
134.44
 30
0.0
 11
233.374504
 21
134.44
 31
0.0
 12
233.374504
 22
135.56
 32
0.0
 13
233.358824
 23
135.56
 33
0.0
  0
3DFACE
  8
0
  6
CONTINUOUS
 62
   249
 10
233.374504
 20
134.44
 30
0.0
 11
233.390184
 21
134.44
 31
0.0
 12
233.390184
 22
135.56
 32
0.0
 13
233.374504
 23
135.56
 33
0.0
  0
3DFACE
  8
0
  6
CONTINUOUS
 62
   249
 10
233.390184
 20
134.44
 30
0.0
 11
233.405864
 21
134.44
 31
0.0
 12
233.405864
 22
135.56
 32
0.0
 13
233.390184
 23
135.56
 33
0.0
  0
3DFACE
  8
0
  6
CONTINUOUS
 62
   249
 10
233.405864
 20
134.44
 30
0.0
 11
233.421544
 21
134.44
 31
0.0
 12
233.421544
 22
135.56
 32
0.0
 13
233.405864
 23
135.56
 33
0.0
  0
3DFACE
  8
0
  6
CONTINUOUS
 62
   249
 10
233.421544
 20
134.44
 30
0.0
 11
233.437224
 21
134.44
 31
0.0
 12
233.437224
 22
135.56
 32
0.0
 13
233.421544
 23
135.56
 33
0.0
  0
3DFACE
  8
0
  6
CONTINUOUS
 62
   249
 10
233.437224
 20
134.44
 30
0.0
 11
233.452904
 21
134.44
 31
0.0
 12
233.452904
 22
135.56
 32
0.0
 13
233.437224
 23
135.56
 33
0.0
  0
3DFACE
  8
0
  6
CONTINUOUS
 62
   249
 10
233.452904
 20
134.44
 30
0.0
 11
233.468584
 21
134.44
 31
0.0
 12
233.468584
 22
135.56
 32
0.0
 13
233.452904
 23
135.56
 33
0.0
  0
3DFACE
  8
0
  6
CONTINUOUS
 62
   249
 10
233.468584
 20
134.44
 30
0.0
 11
233.484264
 21
134.44
 31
0.0
 12
233.484264
 22
135.56
 32
0.0
 13
233.468584
 23
135.56
 33
0.0
  0
3DFACE
  8
0
  6
CONTINUOUS
 62
   249
 10
233.484264
 20
134.44
 30
0.0
 11
233.499944
 21
134.44
 31
0.0
 12
233.499944
 22
135.56
 32
0.0
 13
233.484264
 23
135.56
 33
0.0
  0
3DFACE
  8
0
  6
CONTINUOUS
 62
   249
 10
233.499944
 20
134.44
 30
0.0
 11
233.515624
 21
134.44
 31
0.0
 12
233.515624
 22
135.56
 32
0.0
 13
233.499944
 23
135.56
 33
0.0
  0
3DFACE
  8
0
  6
CONTINUOUS
 62
   249
 10
233.515624
 20
134.44
 30
0.0
 11
233.531304
 21
134.44
 31
0.0
 12
233.531304
 22
135.56
 32
0.0
 13
233.515624
 23
135.56
 33
0.0
  0
3DFACE
  8
0
  6
CONTINUOUS
 62
   249
 10
233.531304
 20
134.44
 30
0.0
 11
233.546984
 21
134.44
 31
0.0
 12
233.546984
 22
135.56
 32
0.0
 13
233.531304
 23
135.56
 33
0.0
  0
3DFACE
  8
0
  6
CONTINUOUS
 62
   249
 10
233.546984
 20
134.44
 30
0.0
 11
233.562664
 21
134.44
 31
0.0
 12
233.562664
 22
135.56
 32
0.0
 13
233.546984
 23
135.56
 33
0.0
  0
3DFACE
  8
0
  6
CONTINUOUS
 62
   249
 10
233.562664
 20
134.44
 30
0.0
 11
233.578344
 21
134.44
 31
0.0
 12
233.578344
 22
135.56
 32
0.0
 13
233.562664
 23
135.56
 33
0.0
  0
3DFACE
  8
0
  6
CONTINUOUS
 62
   249
 10
233.578344
 20
134.44
 30
0.0
 11
233.594024
 21
134.44
 31
0.0
 12
233.594024
 22
135.56
 32
0.0
 13
233.578344
 23
135.56
 33
0.0
  0
3DFACE
  8
0
  6
CONTINUOUS
 62
   249
 10
233.594024
 20
134.44
 30
0.0
 11
233.609704
 21
134.44
 31
0.0
 12
233.609704
 22
135.56
 32
0.0
 13
233.594024
 23
135.56
 33
0.0
  0
3DFACE
  8
0
  6
CONTINUOUS
 62
   249
 10
233.609704
 20
134.44
 30
0.0
 11
233.625384
 21
134.44
 31
0.0
 12
233.625384
 22
135.56
 32
0.0
 13
233.609704
 23
135.56
 33
0.0
  0
3DFACE
  8
0
  6
CONTINUOUS
 62
   249
 10
233.625384
 20
134.44
 30
0.0
 11
233.641064
 21
134.44
 31
0.0
 12
233.641064
 22
135.56
 32
0.0
 13
233.625384
 23
135.56
 33
0.0
  0
3DFACE
  8
0
  6
CONTINUOUS
 62
   249
 10
233.641064
 20
134.44
 30
0.0
 11
233.656744
 21
134.44
 31
0.0
 12
233.656744
 22
135.56
 32
0.0
 13
233.641064
 23
135.56
 33
0.0
  0
3DFACE
  8
0
  6
CONTINUOUS
 62
   249
 10
233.656744
 20
134.44
 30
0.0
 11
233.672424
 21
134.44
 31
0.0
 12
233.672424
 22
135.56
 32
0.0
 13
233.656744
 23
135.56
 33
0.0
  0
3DFACE
  8
0
  6
CONTINUOUS
 62
   249
 10
233.672424
 20
134.44
 30
0.0
 11
233.688104
 21
134.44
 31
0.0
 12
233.688104
 22
135.56
 32
0.0
 13
233.672424
 23
135.56
 33
0.0
  0
3DFACE
  8
0
  6
CONTINUOUS
 62
   249
 10
233.688104
 20
134.44
 30
0.0
 11
233.703784
 21
134.44
 31
0.0
 12
233.703784
 22
135.56
 32
0.0
 13
233.688104
 23
135.56
 33
0.0
  0
3DFACE
  8
0
  6
CONTINUOUS
 62
   249
 10
233.703784
 20
134.44
 30
0.0
 11
233.719464
 21
134.44
 31
0.0
 12
233.719464
 22
135.56
 32
0.0
 13
233.703784
 23
135.56
 33
0.0
  0
3DFACE
  8
0
  6
CONTINUOUS
 62
   249
 10
233.719464
 20
134.44
 30
0.0
 11
233.735144
 21
134.44
 31
0.0
 12
233.735144
 22
135.56
 32
0.0
 13
233.719464
 23
135.56
 33
0.0
  0
3DFACE
  8
0
  6
CONTINUOUS
 62
   249
 10
233.735144
 20
134.44
 30
0.0
 11
233.750824
 21
134.44
 31
0.0
 12
233.750824
 22
135.56
 32
0.0
 13
233.735144
 23
135.56
 33
0.0
  0
3DFACE
  8
0
  6
CONTINUOUS
 62
   249
 10
233.750824
 20
134.44
 30
0.0
 11
233.766504
 21
134.44
 31
0.0
 12
233.766504
 22
135.56
 32
0.0
 13
233.750824
 23
135.56
 33
0.0
  0
3DFACE
  8
0
  6
CONTINUOUS
 62
   249
 10
233.766504
 20
134.44
 30
0.0
 11
233.782184
 21
134.44
 31
0.0
 12
233.782184
 22
135.56
 32
0.0
 13
233.766504
 23
135.56
 33
0.0
  0
3DFACE
  8
0
  6
CONTINUOUS
 62
   249
 10
233.782184
 20
134.44
 30
0.0
 11
233.797864
 21
134.44
 31
0.0
 12
233.797864
 22
135.56
 32
0.0
 13
233.782184
 23
135.56
 33
0.0
  0
3DFACE
  8
0
  6
CONTINUOUS
 62
   249
 10
233.797864
 20
134.44
 30
0.0
 11
233.813544
 21
134.44
 31
0.0
 12
233.813544
 22
135.56
 32
0.0
 13
233.797864
 23
135.56
 33
0.0
  0
3DFACE
  8
0
  6
CONTINUOUS
 62
   249
 10
233.813544
 20
134.44
 30
0.0
 11
233.829224
 21
134.44
 31
0.0
 12
233.829224
 22
135.56
 32
0.0
 13
233.813544
 23
135.56
 33
0.0
  0
3DFACE
  8
0
  6
CONTINUOUS
 62
   249
 10
233.829224
 20
134.44
 30
0.0
 11
233.844904
 21
134.44
 31
0.0
 12
233.844904
 22
135.56
 32
0.0
 13
233.829224
 23
135.56
 33
0.0
  0
3DFACE
  8
0
  6
CONTINUOUS
 62
   249
 10
233.844904
 20
134.44
 30
0.0
 11
233.860584
 21
134.44
 31
0.0
 12
233.860584
 22
135.56
 32
0.0
 13
233.844904
 23
135.56
 33
0.0
  0
3DFACE
  8
0
  6
CONTINUOUS
 62
   249
 10
233.860584
 20
134.44
 30
0.0
 11
233.876264
 21
134.44
 31
0.0
 12
233.876264
 22
135.56
 32
0.0
 13
233.860584
 23
135.56
 33
0.0
  0
3DFACE
  8
0
  6
CONTINUOUS
 62
   249
 10
233.876264
 20
134.44
 30
0.0
 11
233.891944
 21
134.44
 31
0.0
 12
233.891944
 22
135.56
 32
0.0
 13
233.876264
 23
135.56
 33
0.0
  0
3DFACE
  8
0
  6
CONTINUOUS
 62
   249
 10
233.891944
 20
134.44
 30
0.0
 11
233.907624
 21
134.44
 31
0.0
 12
233.907624
 22
135.56
 32
0.0
 13
233.891944
 23
135.56
 33
0.0
  0
3DFACE
  8
0
  6
CONTINUOUS
 62
   249
 10
233.907624
 20
134.44
 30
0.0
 11
233.923304
 21
134.44
 31
0.0
 12
233.923304
 22
135.56
 32
0.0
 13
233.907624
 23
135.56
 33
0.0
  0
3DFACE
  8
0
  6
CONTINUOUS
 62
   249
 10
233.923304
 20
134.44
 30
0.0
 11
233.938984
 21
134.44
 31
0.0
 12
233.938984
 22
135.56
 32
0.0
 13
233.923304
 23
135.56
 33
0.0
  0
3DFACE
  8
0
  6
CONTINUOUS
 62
   249
 10
233.938984
 20
134.44
 30
0.0
 11
233.954664
 21
134.44
 31
0.0
 12
233.954664
 22
135.56
 32
0.0
 13
233.938984
 23
135.56
 33
0.0
  0
3DFACE
  8
0
  6
CONTINUOUS
 62
   249
 10
233.954664
 20
134.44
 30
0.0
 11
233.970344
 21
134.44
 31
0.0
 12
233.970344
 22
135.56
 32
0.0
 13
233.954664
 23
135.56
 33
0.0
  0
3DFACE
  8
0
  6
CONTINUOUS
 62
   249
 10
233.970344
 20
134.44
 30
0.0
 11
233.986024
 21
134.44
 31
0.0
 12
233.986024
 22
135.56
 32
0.0
 13
233.970344
 23
135.56
 33
0.0
  0
3DFACE
  8
0
  6
CONTINUOUS
 62
   249
 10
233.986024
 20
134.44
 30
0.0
 11
234.001704
 21
134.44
 31
0.0
 12
234.001704
 22
135.56
 32
0.0
 13
233.986024
 23
135.56
 33
0.0
  0
3DFACE
  8
0
  6
CONTINUOUS
 62
   249
 10
234.001704
 20
134.44
 30
0.0
 11
234.017384
 21
134.44
 31
0.0
 12
234.017384
 22
135.56
 32
0.0
 13
234.001704
 23
135.56
 33
0.0
  0
3DFACE
  8
0
  6
CONTINUOUS
 62
   249
 10
234.017384
 20
134.44
 30
0.0
 11
234.033064
 21
134.44
 31
0.0
 12
234.033064
 22
135.56
 32
0.0
 13
234.017384
 23
135.56
 33
0.0
  0
3DFACE
  8
0
  6
CONTINUOUS
 62
   249
 10
234.033064
 20
134.44
 30
0.0
 11
234.048744
 21
134.44
 31
0.0
 12
234.048744
 22
135.56
 32
0.0
 13
234.033064
 23
135.56
 33
0.0
  0
3DFACE
  8
0
  6
CONTINUOUS
 62
   249
 10
234.048744
 20
134.44
 30
0.0
 11
234.064424
 21
134.44
 31
0.0
 12
234.064424
 22
135.56
 32
0.0
 13
234.048744
 23
135.56
 33
0.0
  0
3DFACE
  8
0
  6
CONTINUOUS
 62
   249
 10
234.064424
 20
134.44
 30
0.0
 11
234.080104
 21
134.44
 31
0.0
 12
234.080104
 22
135.56
 32
0.0
 13
234.064424
 23
135.56
 33
0.0
  0
3DFACE
  8
0
  6
CONTINUOUS
 62
   249
 10
234.080104
 20
134.44
 30
0.0
 11
234.095784
 21
134.44
 31
0.0
 12
234.095784
 22
135.56
 32
0.0
 13
234.080104
 23
135.56
 33
0.0
  0
3DFACE
  8
0
  6
CONTINUOUS
 62
   249
 10
234.095784
 20
134.44
 30
0.0
 11
234.111464
 21
134.44
 31
0.0
 12
234.111464
 22
135.56
 32
0.0
 13
234.095784
 23
135.56
 33
0.0
  0
3DFACE
  8
0
  6
CONTINUOUS
 62
   249
 10
234.111464
 20
134.44
 30
0.0
 11
234.127144
 21
134.44
 31
0.0
 12
234.127144
 22
135.56
 32
0.0
 13
234.111464
 23
135.56
 33
0.0
  0
3DFACE
  8
0
  6
CONTINUOUS
 62
   249
 10
234.127144
 20
134.44
 30
0.0
 11
234.142824
 21
134.44
 31
0.0
 12
234.142824
 22
135.56
 32
0.0
 13
234.127144
 23
135.56
 33
0.0
  0
3DFACE
  8
0
  6
CONTINUOUS
 62
   249
 10
234.142824
 20
134.44
 30
0.0
 11
234.158504
 21
134.44
 31
0.0
 12
234.158504
 22
135.56
 32
0.0
 13
234.142824
 23
135.56
 33
0.0
  0
3DFACE
  8
0
  6
CONTINUOUS
 62
   249
 10
234.158504
 20
134.44
 30
0.0
 11
234.174184
 21
134.44
 31
0.0
 12
234.174184
 22
135.56
 32
0.0
 13
234.158504
 23
135.56
 33
0.0
  0
3DFACE
  8
0
  6
CONTINUOUS
 62
   249
 10
234.174184
 20
134.44
 30
0.0
 11
234.189864
 21
134.44
 31
0.0
 12
234.189864
 22
135.56
 32
0.0
 13
234.174184
 23
135.56
 33
0.0
  0
3DFACE
  8
0
  6
CONTINUOUS
 62
   249
 10
234.189864
 20
134.44
 30
0.0
 11
234.205544
 21
134.44
 31
0.0
 12
234.205544
 22
135.56
 32
0.0
 13
234.189864
 23
135.56
 33
0.0
  0
3DFACE
  8
0
  6
CONTINUOUS
 62
   249
 10
234.205544
 20
134.44
 30
0.0
 11
234.221224
 21
134.44
 31
0.0
 12
234.221224
 22
135.56
 32
0.0
 13
234.205544
 23
135.56
 33
0.0
  0
3DFACE
  8
0
  6
CONTINUOUS
 62
   249
 10
234.221224
 20
134.44
 30
0.0
 11
234.236904
 21
134.44
 31
0.0
 12
234.236904
 22
135.56
 32
0.0
 13
234.221224
 23
135.56
 33
0.0
  0
3DFACE
  8
0
  6
CONTINUOUS
 62
   249
 10
234.236904
 20
134.44
 30
0.0
 11
234.252584
 21
134.44
 31
0.0
 12
234.252584
 22
135.56
 32
0.0
 13
234.236904
 23
135.56
 33
0.0
  0
3DFACE
  8
0
  6
CONTINUOUS
 62
   249
 10
234.252584
 20
134.44
 30
0.0
 11
234.268264
 21
134.44
 31
0.0
 12
234.268264
 22
135.56
 32
0.0
 13
234.252584
 23
135.56
 33
0.0
  0
3DFACE
  8
0
  6
CONTINUOUS
 62
   249
 10
234.268264
 20
134.44
 30
0.0
 11
234.283944
 21
134.44
 31
0.0
 12
234.283944
 22
135.56
 32
0.0
 13
234.268264
 23
135.56
 33
0.0
  0
3DFACE
  8
0
  6
CONTINUOUS
 62
   249
 10
234.283944
 20
134.44
 30
0.0
 11
234.299624
 21
134.44
 31
0.0
 12
234.299624
 22
135.56
 32
0.0
 13
234.283944
 23
135.56
 33
0.0
  0
3DFACE
  8
0
  6
CONTINUOUS
 62
   249
 10
234.299624
 20
134.44
 30
0.0
 11
234.315304
 21
134.44
 31
0.0
 12
234.315304
 22
135.56
 32
0.0
 13
234.299624
 23
135.56
 33
0.0
  0
3DFACE
  8
0
  6
CONTINUOUS
 62
   249
 10
234.315304
 20
134.44
 30
0.0
 11
234.330984
 21
134.44
 31
0.0
 12
234.330984
 22
135.56
 32
0.0
 13
234.315304
 23
135.56
 33
0.0
  0
3DFACE
  8
0
  6
CONTINUOUS
 62
   249
 10
234.330984
 20
134.44
 30
0.0
 11
234.346664
 21
134.44
 31
0.0
 12
234.346664
 22
135.56
 32
0.0
 13
234.330984
 23
135.56
 33
0.0
  0
3DFACE
  8
0
  6
CONTINUOUS
 62
   249
 10
234.346664
 20
134.44
 30
0.0
 11
234.362344
 21
134.44
 31
0.0
 12
234.362344
 22
135.56
 32
0.0
 13
234.346664
 23
135.56
 33
0.0
  0
3DFACE
  8
0
  6
CONTINUOUS
 62
   249
 10
234.362344
 20
134.44
 30
0.0
 11
234.378024
 21
134.44
 31
0.0
 12
234.378024
 22
135.56
 32
0.0
 13
234.362344
 23
135.56
 33
0.0
  0
3DFACE
  8
0
  6
CONTINUOUS
 62
   249
 10
234.378024
 20
134.44
 30
0.0
 11
234.393704
 21
134.44
 31
0.0
 12
234.393704
 22
135.56
 32
0.0
 13
234.378024
 23
135.56
 33
0.0
  0
3DFACE
  8
0
  6
CONTINUOUS
 62
   249
 10
234.393704
 20
134.44
 30
0.0
 11
234.409384
 21
134.44
 31
0.0
 12
234.409384
 22
135.56
 32
0.0
 13
234.393704
 23
135.56
 33
0.0
  0
3DFACE
  8
0
  6
CONTINUOUS
 62
   249
 10
234.409384
 20
134.44
 30
0.0
 11
234.425064
 21
134.44
 31
0.0
 12
234.425064
 22
135.56
 32
0.0
 13
234.409384
 23
135.56
 33
0.0
  0
3DFACE
  8
0
  6
CONTINUOUS
 62
   249
 10
234.425064
 20
134.44
 30
0.0
 11
234.440744
 21
134.44
 31
0.0
 12
234.440744
 22
135.56
 32
0.0
 13
234.425064
 23
135.56
 33
0.0
  0
3DFACE
  8
0
  6
CONTINUOUS
 62
   249
 10
234.440744
 20
134.44
 30
0.0
 11
234.456424
 21
134.44
 31
0.0
 12
234.456424
 22
135.56
 32
0.0
 13
234.440744
 23
135.56
 33
0.0
  0
3DFACE
  8
0
  6
CONTINUOUS
 62
   249
 10
234.456424
 20
134.44
 30
0.0
 11
234.472104
 21
134.44
 31
0.0
 12
234.472104
 22
135.56
 32
0.0
 13
234.456424
 23
135.56
 33
0.0
  0
3DFACE
  8
0
  6
CONTINUOUS
 62
   249
 10
234.472104
 20
134.44
 30
0.0
 11
234.487784
 21
134.44
 31
0.0
 12
234.487784
 22
135.56
 32
0.0
 13
234.472104
 23
135.56
 33
0.0
  0
3DFACE
  8
0
  6
CONTINUOUS
 62
   249
 10
234.487784
 20
134.44
 30
0.0
 11
234.503464
 21
134.44
 31
0.0
 12
234.503464
 22
135.56
 32
0.0
 13
234.487784
 23
135.56
 33
0.0
  0
3DFACE
  8
0
  6
CONTINUOUS
 62
   249
 10
234.503464
 20
134.44
 30
0.0
 11
234.519144
 21
134.44
 31
0.0
 12
234.519144
 22
135.56
 32
0.0
 13
234.503464
 23
135.56
 33
0.0
  0
3DFACE
  8
0
  6
CONTINUOUS
 62
   249
 10
234.519144
 20
134.44
 30
0.0
 11
234.534824
 21
134.44
 31
0.0
 12
234.534824
 22
135.56
 32
0.0
 13
234.519144
 23
135.56
 33
0.0
  0
3DFACE
  8
0
  6
CONTINUOUS
 62
   249
 10
234.534824
 20
134.44
 30
0.0
 11
234.550504
 21
134.44
 31
0.0
 12
234.550504
 22
135.56
 32
0.0
 13
234.534824
 23
135.56
 33
0.0
  0
3DFACE
  8
0
  6
CONTINUOUS
 62
   249
 10
234.550504
 20
134.44
 30
0.0
 11
234.566184
 21
134.44
 31
0.0
 12
234.566184
 22
135.56
 32
0.0
 13
234.550504
 23
135.56
 33
0.0
  0
3DFACE
  8
0
  6
CONTINUOUS
 62
   249
 10
234.566184
 20
134.44
 30
0.0
 11
234.581864
 21
134.44
 31
0.0
 12
234.581864
 22
135.56
 32
0.0
 13
234.566184
 23
135.56
 33
0.0
  0
3DFACE
  8
0
  6
CONTINUOUS
 62
   249
 10
234.581864
 20
134.44
 30
0.0
 11
234.597544
 21
134.44
 31
0.0
 12
234.597544
 22
135.56
 32
0.0
 13
234.581864
 23
135.56
 33
0.0
  0
3DFACE
  8
0
  6
CONTINUOUS
 62
   249
 10
234.597544
 20
134.44
 30
0.0
 11
234.613224
 21
134.44
 31
0.0
 12
234.613224
 22
135.56
 32
0.0
 13
234.597544
 23
135.56
 33
0.0
  0
3DFACE
  8
0
  6
CONTINUOUS
 62
   249
 10
234.613224
 20
134.44
 30
0.0
 11
234.628904
 21
134.44
 31
0.0
 12
234.628904
 22
135.56
 32
0.0
 13
234.613224
 23
135.56
 33
0.0
  0
3DFACE
  8
0
  6
CONTINUOUS
 62
   249
 10
234.628904
 20
134.44
 30
0.0
 11
234.644584
 21
134.44
 31
0.0
 12
234.644584
 22
135.56
 32
0.0
 13
234.628904
 23
135.56
 33
0.0
  0
3DFACE
  8
0
  6
CONTINUOUS
 62
   249
 10
234.644584
 20
134.44
 30
0.0
 11
234.660264
 21
134.44
 31
0.0
 12
234.660264
 22
135.56
 32
0.0
 13
234.644584
 23
135.56
 33
0.0
  0
3DFACE
  8
0
  6
CONTINUOUS
 62
   249
 10
234.660264
 20
134.44
 30
0.0
 11
234.675944
 21
134.44
 31
0.0
 12
234.675944
 22
135.56
 32
0.0
 13
234.660264
 23
135.56
 33
0.0
  0
3DFACE
  8
0
  6
CONTINUOUS
 62
   249
 10
234.675944
 20
134.44
 30
0.0
 11
234.691624
 21
134.44
 31
0.0
 12
234.691624
 22
135.56
 32
0.0
 13
234.675944
 23
135.56
 33
0.0
  0
3DFACE
  8
0
  6
CONTINUOUS
 62
   249
 10
234.691624
 20
134.44
 30
0.0
 11
234.707304
 21
134.44
 31
0.0
 12
234.707304
 22
135.56
 32
0.0
 13
234.691624
 23
135.56
 33
0.0
  0
3DFACE
  8
0
  6
CONTINUOUS
 62
   249
 10
234.707304
 20
134.44
 30
0.0
 11
234.722984
 21
134.44
 31
0.0
 12
234.722984
 22
135.56
 32
0.0
 13
234.707304
 23
135.56
 33
0.0
  0
3DFACE
  8
0
  6
CONTINUOUS
 62
   249
 10
234.722984
 20
134.44
 30
0.0
 11
234.738664
 21
134.44
 31
0.0
 12
234.738664
 22
135.56
 32
0.0
 13
234.722984
 23
135.56
 33
0.0
  0
3DFACE
  8
0
  6
CONTINUOUS
 62
   249
 10
234.738664
 20
134.44
 30
0.0
 11
234.754344
 21
134.44
 31
0.0
 12
234.754344
 22
135.56
 32
0.0
 13
234.738664
 23
135.56
 33
0.0
  0
3DFACE
  8
0
  6
CONTINUOUS
 62
   249
 10
234.754344
 20
134.44
 30
0.0
 11
234.770024
 21
134.44
 31
0.0
 12
234.770024
 22
135.56
 32
0.0
 13
234.754344
 23
135.56
 33
0.0
  0
3DFACE
  8
0
  6
CONTINUOUS
 62
   249
 10
234.770024
 20
134.44
 30
0.0
 11
234.785704
 21
134.44
 31
0.0
 12
234.785704
 22
135.56
 32
0.0
 13
234.770024
 23
135.56
 33
0.0
  0
3DFACE
  8
0
  6
CONTINUOUS
 62
   249
 10
234.785704
 20
134.44
 30
0.0
 11
234.801384
 21
134.44
 31
0.0
 12
234.801384
 22
135.56
 32
0.0
 13
234.785704
 23
135.56
 33
0.0
  0
3DFACE
  8
0
  6
CONTINUOUS
 62
   249
 10
234.801384
 20
134.44
 30
0.0
 11
234.817064
 21
134.44
 31
0.0
 12
234.817064
 22
135.56
 32
0.0
 13
234.801384
 23
135.56
 33
0.0
  0
3DFACE
  8
0
  6
CONTINUOUS
 62
   249
 10
234.817064
 20
134.44
 30
0.0
 11
234.832744
 21
134.44
 31
0.0
 12
234.832744
 22
135.56
 32
0.0
 13
234.817064
 23
135.56
 33
0.0
  0
3DFACE
  8
0
  6
CONTINUOUS
 62
   249
 10
234.832744
 20
134.44
 30
0.0
 11
234.848424
 21
134.44
 31
0.0
 12
234.848424
 22
135.56
 32
0.0
 13
234.832744
 23
135.56
 33
0.0
  0
3DFACE
  8
0
  6
CONTINUOUS
 62
   249
 10
234.848424
 20
134.44
 30
0.0
 11
234.864104
 21
134.44
 31
0.0
 12
234.864104
 22
135.56
 32
0.0
 13
234.848424
 23
135.56
 33
0.0
  0
3DFACE
  8
0
  6
CONTINUOUS
 62
   249
 10
234.864104
 20
134.44
 30
0.0
 11
234.879784
 21
134.44
 31
0.0
 12
234.879784
 22
135.56
 32
0.0
 13
234.864104
 23
135.56
 33
0.0
  0
3DFACE
  8
0
  6
CONTINUOUS
 62
   249
 10
234.879784
 20
134.44
 30
0.0
 11
234.895464
 21
134.44
 31
0.0
 12
234.895464
 22
135.56
 32
0.0
 13
234.879784
 23
135.56
 33
0.0
  0
3DFACE
  8
0
  6
CONTINUOUS
 62
   249
 10
234.895464
 20
134.44
 30
0.0
 11
234.911144
 21
134.44
 31
0.0
 12
234.911144
 22
135.56
 32
0.0
 13
234.895464
 23
135.56
 33
0.0
  0
3DFACE
  8
0
  6
CONTINUOUS
 62
   249
 10
234.911144
 20
134.44
 30
0.0
 11
234.926824
 21
134.44
 31
0.0
 12
234.926824
 22
135.56
 32
0.0
 13
234.911144
 23
135.56
 33
0.0
  0
3DFACE
  8
0
  6
CONTINUOUS
 62
   249
 10
234.926824
 20
134.44
 30
0.0
 11
234.942504
 21
134.44
 31
0.0
 12
234.942504
 22
135.56
 32
0.0
 13
234.926824
 23
135.56
 33
0.0
  0
3DFACE
  8
0
  6
CONTINUOUS
 62
   249
 10
234.942504
 20
134.44
 30
0.0
 11
234.958184
 21
134.44
 31
0.0
 12
234.958184
 22
135.56
 32
0.0
 13
234.942504
 23
135.56
 33
0.0
  0
3DFACE
  8
0
  6
CONTINUOUS
 62
   249
 10
234.958184
 20
134.44
 30
0.0
 11
234.973864
 21
134.44
 31
0.0
 12
234.973864
 22
135.56
 32
0.0
 13
234.958184
 23
135.56
 33
0.0
  0
3DFACE
  8
0
  6
CONTINUOUS
 62
   249
 10
234.973864
 20
134.44
 30
0.0
 11
234.989544
 21
134.44
 31
0.0
 12
234.989544
 22
135.56
 32
0.0
 13
234.973864
 23
135.56
 33
0.0
  0
3DFACE
  8
0
  6
CONTINUOUS
 62
   249
 10
234.989544
 20
134.44
 30
0.0
 11
235.005224
 21
134.44
 31
0.0
 12
235.005224
 22
135.56
 32
0.0
 13
234.989544
 23
135.56
 33
0.0
  0
3DFACE
  8
0
  6
CONTINUOUS
 62
   249
 10
235.005224
 20
134.44
 30
0.0
 11
235.020904
 21
134.44
 31
0.0
 12
235.020904
 22
135.56
 32
0.0
 13
235.005224
 23
135.56
 33
0.0
  0
3DFACE
  8
0
  6
CONTINUOUS
 62
   249
 10
235.020904
 20
134.44
 30
0.0
 11
235.036584
 21
134.44
 31
0.0
 12
235.036584
 22
135.56
 32
0.0
 13
235.020904
 23
135.56
 33
0.0
  0
3DFACE
  8
0
  6
CONTINUOUS
 62
   249
 10
235.036584
 20
134.44
 30
0.0
 11
235.052264
 21
134.44
 31
0.0
 12
235.052264
 22
135.56
 32
0.0
 13
235.036584
 23
135.56
 33
0.0
  0
3DFACE
  8
0
  6
CONTINUOUS
 62
   249
 10
235.052264
 20
134.44
 30
0.0
 11
235.067944
 21
134.44
 31
0.0
 12
235.067944
 22
135.56
 32
0.0
 13
235.052264
 23
135.56
 33
0.0
  0
3DFACE
  8
0
  6
CONTINUOUS
 62
   249
 10
235.067944
 20
134.44
 30
0.0
 11
235.083624
 21
134.44
 31
0.0
 12
235.083624
 22
135.56
 32
0.0
 13
235.067944
 23
135.56
 33
0.0
  0
3DFACE
  8
0
  6
CONTINUOUS
 62
   249
 10
235.083624
 20
134.44
 30
0.0
 11
235.099304
 21
134.44
 31
0.0
 12
235.099304
 22
135.56
 32
0.0
 13
235.083624
 23
135.56
 33
0.0
  0
3DFACE
  8
0
  6
CONTINUOUS
 62
   249
 10
235.099304
 20
134.44
 30
0.0
 11
235.114984
 21
134.44
 31
0.0
 12
235.114984
 22
135.56
 32
0.0
 13
235.099304
 23
135.56
 33
0.0
  0
3DFACE
  8
0
  6
CONTINUOUS
 62
   249
 10
235.114984
 20
134.44
 30
0.0
 11
235.130664
 21
134.44
 31
0.0
 12
235.130664
 22
135.56
 32
0.0
 13
235.114984
 23
135.56
 33
0.0
  0
3DFACE
  8
0
  6
CONTINUOUS
 62
   249
 10
235.130664
 20
134.44
 30
0.0
 11
235.146344
 21
134.44
 31
0.0
 12
235.146344
 22
135.56
 32
0.0
 13
235.130664
 23
135.56
 33
0.0
  0
3DFACE
  8
0
  6
CONTINUOUS
 62
   249
 10
235.146344
 20
134.44
 30
0.0
 11
235.162024
 21
134.44
 31
0.0
 12
235.162024
 22
135.56
 32
0.0
 13
235.146344
 23
135.56
 33
0.0
  0
3DFACE
  8
0
  6
CONTINUOUS
 62
   249
 10
235.162024
 20
134.44
 30
0.0
 11
235.177704
 21
134.44
 31
0.0
 12
235.177704
 22
135.56
 32
0.0
 13
235.162024
 23
135.56
 33
0.0
  0
3DFACE
  8
0
  6
CONTINUOUS
 62
   249
 10
235.177704
 20
134.44
 30
0.0
 11
235.193384
 21
134.44
 31
0.0
 12
235.193384
 22
135.56
 32
0.0
 13
235.177704
 23
135.56
 33
0.0
  0
3DFACE
  8
0
  6
CONTINUOUS
 62
   249
 10
235.193384
 20
134.44
 30
0.0
 11
235.209064
 21
134.44
 31
0.0
 12
235.209064
 22
135.56
 32
0.0
 13
235.193384
 23
135.56
 33
0.0
  0
3DFACE
  8
0
  6
CONTINUOUS
 62
   249
 10
235.209064
 20
134.44
 30
0.0
 11
235.224744
 21
134.44
 31
0.0
 12
235.224744
 22
135.56
 32
0.0
 13
235.209064
 23
135.56
 33
0.0
  0
3DFACE
  8
0
  6
CONTINUOUS
 62
   249
 10
235.224744
 20
134.44
 30
0.0
 11
235.240424
 21
134.44
 31
0.0
 12
235.240424
 22
135.56
 32
0.0
 13
235.224744
 23
135.56
 33
0.0
  0
3DFACE
  8
0
  6
CONTINUOUS
 62
   249
 10
235.240424
 20
134.44
 30
0.0
 11
235.256104
 21
134.44
 31
0.0
 12
235.256104
 22
135.56
 32
0.0
 13
235.240424
 23
135.56
 33
0.0
  0
3DFACE
  8
0
  6
CONTINUOUS
 62
   249
 10
235.256104
 20
134.44
 30
0.0
 11
235.271784
 21
134.44
 31
0.0
 12
235.271784
 22
135.56
 32
0.0
 13
235.256104
 23
135.56
 33
0.0
  0
3DFACE
  8
0
  6
CONTINUOUS
 62
   249
 10
235.271784
 20
134.44
 30
0.0
 11
235.287464
 21
134.44
 31
0.0
 12
235.287464
 22
135.56
 32
0.0
 13
235.271784
 23
135.56
 33
0.0
  0
3DFACE
  8
0
  6
CONTINUOUS
 62
   249
 10
235.287464
 20
134.44
 30
0.0
 11
235.303144
 21
134.44
 31
0.0
 12
235.303144
 22
135.56
 32
0.0
 13
235.287464
 23
135.56
 33
0.0
  0
3DFACE
  8
0
  6
CONTINUOUS
 62
   249
 10
235.303144
 20
134.44
 30
0.0
 11
235.318824
 21
134.44
 31
0.0
 12
235.318824
 22
135.56
 32
0.0
 13
235.303144
 23
135.56
 33
0.0
  0
3DFACE
  8
0
  6
CONTINUOUS
 62
   249
 10
235.318824
 20
134.44
 30
0.0
 11
235.334504
 21
134.44
 31
0.0
 12
235.334504
 22
135.56
 32
0.0
 13
235.318824
 23
135.56
 33
0.0
  0
3DFACE
  8
0
  6
CONTINUOUS
 62
   249
 10
235.334504
 20
134.44
 30
0.0
 11
235.350184
 21
134.44
 31
0.0
 12
235.350184
 22
135.56
 32
0.0
 13
235.334504
 23
135.56
 33
0.0
  0
3DFACE
  8
0
  6
CONTINUOUS
 62
   249
 10
235.350184
 20
134.44
 30
0.0
 11
235.365864
 21
134.44
 31
0.0
 12
235.365864
 22
135.56
 32
0.0
 13
235.350184
 23
135.56
 33
0.0
  0
3DFACE
  8
0
  6
CONTINUOUS
 62
   249
 10
235.365864
 20
134.44
 30
0.0
 11
235.381544
 21
134.44
 31
0.0
 12
235.381544
 22
135.56
 32
0.0
 13
235.365864
 23
135.56
 33
0.0
  0
3DFACE
  8
0
  6
CONTINUOUS
 62
   249
 10
235.381544
 20
134.44
 30
0.0
 11
235.397224
 21
134.44
 31
0.0
 12
235.397224
 22
135.56
 32
0.0
 13
235.381544
 23
135.56
 33
0.0
  0
3DFACE
  8
0
  6
CONTINUOUS
 62
   249
 10
235.397224
 20
134.44
 30
0.0
 11
235.412904
 21
134.44
 31
0.0
 12
235.412904
 22
135.56
 32
0.0
 13
235.397224
 23
135.56
 33
0.0
  0
3DFACE
  8
0
  6
CONTINUOUS
 62
   249
 10
235.412904
 20
134.44
 30
0.0
 11
235.428584
 21
134.44
 31
0.0
 12
235.428584
 22
135.56
 32
0.0
 13
235.412904
 23
135.56
 33
0.0
  0
3DFACE
  8
0
  6
CONTINUOUS
 62
   249
 10
235.428584
 20
134.44
 30
0.0
 11
235.444264
 21
134.44
 31
0.0
 12
235.444264
 22
135.56
 32
0.0
 13
235.428584
 23
135.56
 33
0.0
  0
3DFACE
  8
0
  6
CONTINUOUS
 62
   249
 10
235.444264
 20
134.44
 30
0.0
 11
235.459944
 21
134.44
 31
0.0
 12
235.459944
 22
135.56
 32
0.0
 13
235.444264
 23
135.56
 33
0.0
  0
3DFACE
  8
0
  6
CONTINUOUS
 62
   249
 10
235.459944
 20
134.44
 30
0.0
 11
235.475624
 21
134.44
 31
0.0
 12
235.475624
 22
135.56
 32
0.0
 13
235.459944
 23
135.56
 33
0.0
  0
3DFACE
  8
0
  6
CONTINUOUS
 62
   249
 10
235.475624
 20
134.44
 30
0.0
 11
235.491304
 21
134.44
 31
0.0
 12
235.491304
 22
135.56
 32
0.0
 13
235.475624
 23
135.56
 33
0.0
  0
3DFACE
  8
0
  6
CONTINUOUS
 62
   249
 10
235.491304
 20
134.44
 30
0.0
 11
235.506984
 21
134.44
 31
0.0
 12
235.506984
 22
135.56
 32
0.0
 13
235.491304
 23
135.56
 33
0.0
  0
3DFACE
  8
0
  6
CONTINUOUS
 62
   249
 10
235.506984
 20
134.44
 30
0.0
 11
235.522664
 21
134.44
 31
0.0
 12
235.522664
 22
135.56
 32
0.0
 13
235.506984
 23
135.56
 33
0.0
  0
3DFACE
  8
0
  6
CONTINUOUS
 62
   249
 10
235.522664
 20
134.44
 30
0.0
 11
235.538344
 21
134.44
 31
0.0
 12
235.538344
 22
135.56
 32
0.0
 13
235.522664
 23
135.56
 33
0.0
  0
3DFACE
  8
0
  6
CONTINUOUS
 62
   249
 10
235.538344
 20
134.44
 30
0.0
 11
235.554024
 21
134.44
 31
0.0
 12
235.554024
 22
135.56
 32
0.0
 13
235.538344
 23
135.56
 33
0.0
  0
ARC
  8
0
  6
CONTINUOUS
 62
   249
 10
240.0
 20
157.5
 30
0.0
 40
0.5
 50
180.0
 51
0.0
  0
ARC
  8
0
  6
CONTINUOUS
 62
   249
 10
240.0
 20
157.5
 30
0.0
 40
0.5
 50
0.0
 51
180.0
  0
ARC
  8
0
  6
CONTINUOUS
 62
   249
 10
240.0
 20
177.5
 30
0.0
 40
0.5
 50
180.0
 51
0.0
  0
ARC
  8
0
  6
CONTINUOUS
 62
   249
 10
240.0
 20
177.5
 30
0.0
 40
0.5
 50
0.0
 51
180.0
  0
ARC
  8
0
  6
CONTINUOUS
 62
   249
 10
245.0
 20
197.5
 30
0.0
 40
0.5
 50
180.0
 51
0.0
  0
ARC
  8
0
  6
CONTINUOUS
 62
   249
 10
245.0
 20
197.5
 30
0.0
 40
0.5
 50
0.0
 51
180.0
  0
ARC
  8
0
  6
CONTINUOUS
 62
   249
 10
297.5
 20
255.0
 30
0.0
 40
0.5
 50
180.0
 51
0.0
  0
ARC
  8
0
  6
CONTINUOUS
 62
   249
 10
297.5
 20
255.0
 30
0.0
 40
0.5
 50
0.0
 51
180.0
  0
INSERT
  8
0
  6
CENTER
 62
   249
  2
BLC26
 10
303.546562
 20
230.109534
 30
0.0
 41
1.006225
 42
1.006225
 43
1.006225
  0
INSERT
  8
0
  6
CENTER
 62
   249
  2
BLC26
 10
296.046562
 20
230.109534
 30
0.0
 41
1.006225
 42
1.006225
 43
1.006225
  0
INSERT
  8
0
  6
CENTER
 62
   249
  2
BLC26
 10
311.046562
 20
230.109534
 30
0.0
 41
1.006225
 42
1.006225
 43
1.006225
  0
ARC
  8
0
  6
CONTINUOUS
 62
   249
 10
312.5
 20
245.0
 30
0.0
 40
0.5
 50
180.0
 51
0.0
  0
ARC
  8
0
  6
CONTINUOUS
 62
   249
 10
312.5
 20
245.0
 30
0.0
 40
0.5
 50
0.0
 51
180.0
  0
ARC
  8
0
  6
CONTINUOUS
 62
   249
 10
305.0
 20
250.0
 30
0.0
 40
0.5
 50
180.0
 51
0.0
  0
ARC
  8
0
  6
CONTINUOUS
 62
   249
 10
305.0
 20
250.0
 30
0.0
 40
0.5
 50
0.0
 51
180.0
  0
LINE
  8
0
  6
CONTINUOUS
 62
   249
 10
319.009978
 20
222.5
 30
0.0
 11
321.655635
 21
222.5
 31
0.0
  0
LINE
  8
0
  6
CONTINUOUS
 62
   249
 10
323.437188
 20
221.896305
 30
0.0
 11
323.437188
 21
223.103695
 31
0.0
  0
LINE
  8
0
  6
CONTINUOUS
 62
   249
 10
322.549675
 20
221.463807
 30
0.0
 11
322.549675
 21
223.527182
 31
0.0
  0
LINE
  8
0
  6
CONTINUOUS
 62
   249
 10
321.655635
 20
220.968237
 30
0.0
 11
321.655635
 21
224.031763
 31
0.0
  0
LINE
  8
0
  6
CONTINUOUS
 62
   249
 10
319.009978
 20
227.68998
 30
0.0
 11
321.655635
 21
227.68998
 31
0.0
  0
LINE
  8
0
  6
CONTINUOUS
 62
   249
 10
323.437188
 20
227.086285
 30
0.0
 11
323.437188
 21
228.293675
 31
0.0
  0
LINE
  8
0
  6
CONTINUOUS
 62
   249
 10
322.549675
 20
226.653787
 30
0.0
 11
322.549675
 21
228.717163
 31
0.0
  0
LINE
  8
0
  6
CONTINUOUS
 62
   249
 10
321.655635
 20
226.158217
 30
0.0
 11
321.655635
 21
229.221743
 31
0.0
  0
ENDSEC
  0
EOF
