  0
SECTION
  2
HEADER
  9
$ACADVER
  1
AC1009
  9
$INSBASE
 10
0.0
 20
0.0
 30
0.0
  9
$EXTMIN
 10
-210.47424243119801
 20
448.1939164552204
 30
-0.0000610304997082
  9
$EXTMAX
 10
1093.598329398779
 20
903.48965959360055
 30
0.000091555062788
  9
$LIMMIN
 10
0.0
 20
0.0
  9
$LIMMAX
 10
420.0
 20
297.0
  9
$ORTHOMODE
 70
     0
  9
$REGENMODE
 70
     1
  9
$FILLMODE
 70
     1
  9
$QTEXTMODE
 70
     0
  9
$MIRRTEXT
 70
     1
  9
$DRAGMODE
 70
     2
  9
$LTSCALE
 40
1.0
  9
$OSMODE
 70
    47
  9
$ATTMODE
 70
     1
  9
$TEXTSIZE
 40
0.0
  9
$TRACEWID
 40
1.0
  9
$TEXTSTYLE
  7
STANDARD
  9
$CLAYER
  8
0
  9
$CELTYPE
  6
BYLAYER
  9
$CECOLOR
 62
   256
  9
$DIMSCALE
 40
1.0
  9
$DIMASZ
 40
2.5
  9
$DIMEXO
 40
0.625
  9
$DIMDLI
 40
3.75
  9
$DIMRND
 40
0.0
  9
$DIMDLE
 40
0.0
  9
$DIMEXE
 40
1.25
  9
$DIMTP
 40
0.0
  9
$DIMTM
 40
0.0
  9
$DIMTXT
 40
2.5
  9
$DIMCEN
 40
2.5
  9
$DIMTSZ
 40
0.0
  9
$DIMTOL
 70
     0
  9
$DIMLIM
 70
     0
  9
$DIMTIH
 70
     0
  9
$DIMTOH
 70
     0
  9
$DIMSE1
 70
     0
  9
$DIMSE2
 70
     0
  9
$DIMTAD
 70
     1
  9
$DIMZIN
 70
     8
  9
$DIMBLK
  1

  9
$DIMASO
 70
     1
  9
$DIMSHO
 70
     1
  9
$DIMPOST
  1

  9
$DIMAPOST
  1

  9
$DIMALT
 70
     0
  9
$DIMALTD
 70
     3
  9
$DIMALTF
 40
0.03937
  9
$DIMLFAC
 40
1.0
  9
$DIMTOFL
 70
     1
  9
$DIMTVP
 40
0.0
  9
$DIMTIX
 70
     0
  9
$DIMSOXD
 70
     0
  9
$DIMSAH
 70
     0
  9
$DIMBLK1
  1

  9
$DIMBLK2
  1

  9
$DIMSTYLE
  2
STANDARD
  9
$DIMCLRD
 70
     0
  9
$DIMCLRE
 70
     0
  9
$DIMCLRT
 70
     0
  9
$DIMTFAC
 40
1.0
  9
$DIMGAP
 40
0.625
  9
$LUNITS
 70
     2
  9
$LUPREC
 70
     4
  9
$SKETCHINC
 40
1.0
  9
$FILLETRAD
 40
2.5
  9
$AUNITS
 70
     0
  9
$AUPREC
 70
     0
  9
$MENU
  1
.
  9
$ELEVATION
 40
0.0
  9
$PELEVATION
 40
0.0
  9
$THICKNESS
 40
0.0
  9
$LIMCHECK
 70
     0
  9
$BLIPMODE
 70
     0
  9
$CHAMFERA
 40
2.5
  9
$CHAMFERB
 40
2.5
  9
$SKPOLY
 70
     0
  9
$TDCREATE
 40
2311942.6599061568
  9
$TDUPDATE
 40
2454455.392727314
  9
$TDINDWG
 40
0.0004833449
  9
$TDUSRTIMER
 40
0.0004833449
  9
$USRTIMER
 70
     1
  9
$ANGBASE
 50
0.0
  9
$ANGDIR
 70
     0
  9
$PDMODE
 70
     0
  9
$PDSIZE
 40
0.0
  9
$PLINEWID
 40
0.0
  9
$COORDS
 70
     1
  9
$SPLFRAME
 70
     0
  9
$SPLINETYPE
 70
     6
  9
$SPLINESEGS
 70
     8
  9
$ATTDIA
 70
     0
  9
$ATTREQ
 70
     1
  9
$HANDLING
 70
 22529
  9
$HANDSEED
  5
86D
  9
$SURFTAB1
 70
     6
  9
$SURFTAB2
 70
     6
  9
$SURFTYPE
 70
     6
  9
$SURFU
 70
     6
  9
$SURFV
 70
     6
  9
$UCSNAME
  2

  9
$UCSORG
 10
0.0
 20
0.0
 30
0.0
  9
$UCSXDIR
 10
1.0
 20
0.0
 30
0.0
  9
$UCSYDIR
 10
0.0
 20
1.0
 30
0.0
  9
$PUCSNAME
  2

  9
$PUCSORG
 10
0.0
 20
0.0
 30
0.0
  9
$PUCSXDIR
 10
1.0
 20
0.0
 30
0.0
  9
$PUCSYDIR
 10
0.0
 20
1.0
 30
0.0
  9
$USERI1
 70
     0
  9
$USERI2
 70
     0
  9
$USERI3
 70
     0
  9
$USERI4
 70
     0
  9
$USERI5
 70
     0
  9
$USERR1
 40
0.0
  9
$USERR2
 40
0.0
  9
$USERR3
 40
0.0
  9
$USERR4
 40
0.0
  9
$USERR5
 40
0.0
  9
$WORLDVIEW
 70
     1
  9
$SHADEDGE
 70
     3
  9
$SHADEDIF
 70
    70
  9
$TILEMODE
 70
     1
  9
$MAXACTVP
 70
    48
  9
$PLIMCHECK
 70
     0
  9
$PEXTMIN
 10
0.0
 20
0.0
 30
0.0
  9
$PEXTMAX
 10
254.40811199999999
 20
436.20001200000002
 30
2.0
  9
$PLIMMIN
 10
0.0
 20
0.0
  9
$PLIMMAX
 10
420.0
 20
297.0
  9
$UNITMODE
 70
     0
  9
$VISRETAIN
 70
     0
  9
$PLINEGEN
 70
     0
  9
$PSLTSCALE
 70
     1
  0
ENDSEC
  0
SECTION
  2
TABLES
  0
TABLE
  2
VPORT
 70
     2
  0
VPORT
  2
*ACTIVE
 70
     0
 10
0.0
 20
0.0
 11
1.0
 21
1.0
 12
441.56204348379049
 22
675.84178802441045
 13
0.0
 23
0.0
 14
1.0
 24
1.0
 15
0.0
 25
0.0
 16
0.0
 26
0.0
 36
1.0
 17
0.0
 27
0.0
 37
0.0
 40
845.22523955558563
 41
1.550724637681159
 42
50.0
 43
0.0
 44
0.0
 50
0.0
 51
0.0
 71
     0
 72
   100
 73
     1
 74
     1
 75
     0
 76
     0
 77
     0
 78
     0
  0
ENDTAB
  0
TABLE
  2
LTYPE
 70
     8
  0
LTYPE
  2
CONTINUOUS
 70
     0
  3
Solid line
 72
    65
 73
     0
 40
0.0
  0
LTYPE
  2
DASHED
 70
     0
  3
__ __ __ __ __ __ __ __ __ __ __ __ __ __ __ __
 72
    65
 73
     2
 40
15.0
 49
12.0
 49
-3.0
  0
LTYPE
  2
DASHDOT
 70
     0
  3
 __ . __ . __ . __ . __ . __ . __ . 
 72
    65
 73
     4
 40
18.5
 49
12.0
 49
-3.0
 49
0.5
 49
-3.0
  0
LTYPE
  2
DOT
 70
     0
  3
 . . . . . . . . . . . . . . . .
 72
    65
 73
     2
 40
3.5
 49
0.5
 49
-3.0
  0
LTYPE
  2
DASHSPACE
 70
     0
  3
__    __    __    __    __   
 72
    65
 73
     2
 40
30.0
 49
12.0
 49
-18.0
  0
LTYPE
  2
DASHDOT2
 70
     0
  3
__ . . __ . . __ . . __ 
 72
    65
 73
     6
 40
22.0
 49
12.0
 49
-3.0
 49
0.5
 49
-3.0
 49
0.5
 49
-3.0
  0
LTYPE
  2
PHANTOM
 70
     0
  3
____________    ____    ____   _
 72
    65
 73
     6
 40
20.0
 49
10.0
 49
-2.0
 49
2.0
 49
-2.0
 49
2.0
 49
-2.0
  0
LTYPE
  2
AXES
 70
     0
  3
________  __  ________  __  _____
 72
    65
 73
     4
 40
24.0
 49
15.0
 49
-3.0
 49
3.0
 49
-3.0
  0
ENDTAB
  0
TABLE
  2
LAYER
 70
     1
  0
LAYER
  2
0
 70
     0
 62
     7
  6
CONTINUOUS
  0
ENDTAB
  0
TABLE
  2
STYLE
 70
     2
  0
STYLE
  2
STANDARD
 70
     0
 40
0.0
 41
1.0
 50
0.0
 71
     0
 42
0.0
  3
isocp.shx
  4

  0
STYLE
  2
GDT
 70
     0
 40
0.0
 41
1.0
 50
0.0
 71
     0
 42
0.0
  3
amgdt.shx
  4

  0
ENDTAB
  0
TABLE
  2
VIEW
 70
     0
  0
ENDTAB
  0
TABLE
  2
UCS
 70
     0
  0
ENDTAB
  0
TABLE
  2
APPID
 70
     1
  0
APPID
  2
ACAD
 70
     0
  0
ENDTAB
  0
TABLE
  2
DIMSTYLE
 70
     1
  0
DIMSTYLE
  2
STANDARD
 70
     0
  3

  4

  5

  6

  7

 40
1.0
 41
2.5
 42
0.625
 43
3.75
 44
1.25
 45
0.0
 46
0.0
 47
0.0
 48
0.0
140
2.5
141
2.5
142
0.0
143
0.03937
144
1.0
145
0.0
146
1.0
147
0.625
 71
     0
 72
     0
 73
     0
 74
     0
 75
     0
 76
     0
 77
     1
 78
     8
170
     0
171
     3
172
     1
173
     0
174
     0
175
     0
176
     0
177
     0
178
     0
  0
ENDTAB
  0
ENDSEC
  0
SECTION
  2
BLOCKS
  0
BLOCK
  8
0
  2
$MODEL_SPACE
 70
     0
 10
0.0
 20
0.0
 30
0.0
  3
$MODEL_SPACE
  1

  0
ENDBLK
  5
E
  8
0
  0
BLOCK
 67
     1
  8
0
  2
$PAPER_SPACE
 70
     0
 10
0.0
 20
0.0
 30
0.0
  3
$PAPER_SPACE
  1

  0
ENDBLK
  5
10
 67
     1
  8
0
  0
BLOCK
  8
0
  2
BLOCK0
 70
     0
 10
0.0
 20
0.0
 30
0.0
  3
BLOCK0
  1

  0
LINE
  5
4C3
  8
0
 62
   212
 10
65.838242000000008
 20
197.2306209999999
 30
0.0
 11
95.588242000000008
 21
197.2306209999999
 31
0.0
  0
LINE
  5
4C4
  8
0
 62
   212
 10
99.088234000000014
 20
197.2306209999999
 30
0.0
 11
101.3752369999999
 21
197.2306209999999
 31
0.0
  0
LINE
  5
4C5
  8
0
 62
   212
 10
64.838241999999994
 20
194.43060299999991
 30
0.0
 11
64.838241999999994
 21
196.2306209999999
 31
0.0
  0
LINE
  5
4C6
  8
0
 62
   212
 10
62.338242000000001
 20
194.43060299999991
 30
0.0
 11
64.838241999999994
 21
194.43060299999991
 31
0.0
  0
LINE
  5
4C7
  8
0
 62
   212
 10
62.33823000000001
 20
190.4806209999999
 30
0.0
 11
62.33823000000001
 21
194.43060299999991
 31
0.0
  0
LINE
  5
4C8
  8
0
 62
   212
 10
64.838241999999994
 20
28.230613999999999
 30
0.0
 11
64.838241999999994
 21
29.480629
 31
0.0
  0
LINE
  5
4C9
  8
0
 62
   212
 10
65.838242000000008
 20
27.230613999999999
 30
0.0
 11
95.588242000000008
 21
27.230613999999999
 31
0.0
  0
LINE
  5
4CA
  8
0
 62
   212
 10
99.088234000000014
 20
27.230613999999999
 30
0.0
 11
130.58830299999991
 21
27.230613999999999
 31
0.0
  0
LINE
  5
4CB
  8
0
 62
   212
 10
134.088303
 20
27.230613999999999
 30
0.0
 11
163.83824199999989
 21
27.230613999999999
 31
0.0
  0
LINE
  5
4CC
  8
0
 62
   212
 10
164.83824199999989
 20
28.230613999999999
 30
0.0
 11
164.83824199999989
 21
29.480629
 31
0.0
  0
LINE
  5
4CD
  8
0
 62
   212
 10
94.838241999999994
 20
190.7306209999999
 30
0.0
 11
99.838234
 21
190.7306209999999
 31
0.0
  0
LINE
  5
4CE
  8
0
 62
   251
 10
64.838241999999994
 20
190.4806209999999
 30
0.0
 11
64.838241999999994
 21
194.43060299999991
 31
0.0
  0
CIRCLE
  5
4CF
  8
0
  6
DASHSPACE
 62
   251
 10
79.838241999999994
 20
184.73060599999999
 30
0.0
 40
5.5000010000000001
  0
ARC
  5
4D0
  8
0
 62
   212
 10
65.838242000000008
 20
196.2306209999999
 30
0.0
 40
1.0000039999999999
 50
90.000049999999987
 51
180.00048299999989
  0
CIRCLE
  5
4D1
  8
0
  6
DASHSPACE
 62
   251
 10
79.838256999999999
 20
39.730617999999993
 30
0.0
 40
5.4999969999999996
  0
CIRCLE
  5
4D2
  8
0
  6
DASHSPACE
 62
   251
 10
97.338256999999999
 20
42.730617999999993
 30
0.0
 40
4.4999979999999997
  0
CIRCLE
  5
4D3
  8
0
  6
DASHSPACE
 62
   251
 10
114.838249
 20
39.730614000000003
 30
0.0
 40
5.4999969999999996
  0
ARC
  5
4D4
  8
0
 62
   212
 10
65.838242000000008
 20
28.230613999999999
 30
0.0
 40
1.0
 50
180.00000499999999
 51
270.000001
  0
CIRCLE
  5
4D5
  8
0
  6
DASHSPACE
 62
   251
 10
132.33825699999991
 20
42.730590999999997
 30
0.0
 40
4.4999789999999988
  0
CIRCLE
  5
4D6
  8
0
  6
DASHSPACE
 62
   251
 10
149.8383179999999
 20
39.730494999999998
 30
0.0
 40
5.5001319999999989
  0
ARC
  5
4D7
  8
0
 62
   212
 10
163.838257
 20
28.230605999999991
 30
0.0
 40
0.9999900000000001
 50
269.99975499999999
 51
0.000478
  0
LINE
  5
4D8
  8
0
  6
DASHDOT
 62
   251
 10
79.838241999999994
 20
176.23060599999999
 30
0.0
 11
79.838241999999994
 21
193.23060599999991
 31
0.0
  0
LINE
  5
4D9
  8
0
  6
DASHDOT
 62
   251
 10
71.338242000000008
 20
184.73060599999999
 30
0.0
 11
88.338241999999994
 21
184.73060599999999
 31
0.0
  0
LINE
  5
4DA
  8
0
  6
DASHDOT
 62
   251
 10
97.338241999999994
 20
174.2306209999999
 30
0.0
 11
97.338241999999994
 21
199.5942379999999
 31
0.0
  0
LINE
  5
4DB
  8
0
  6
DASHDOT
 62
   251
 10
79.838256999999999
 20
31.230620999999999
 30
0.0
 11
79.838256999999999
 21
48.230618
 31
0.0
  0
LINE
  5
4DC
  8
0
  6
DASHDOT
 62
   251
 10
71.338256999999999
 20
39.730617999999993
 30
0.0
 11
88.338256999999999
 21
39.730617999999993
 31
0.0
  0
LINE
  5
4DD
  8
0
  6
DASHDOT
 62
   251
 10
97.338256999999999
 20
24.803443999999988
 30
0.0
 11
97.338256999999999
 21
50.230618
 31
0.0
  0
LINE
  5
4DE
  8
0
  6
DASHDOT
 62
   251
 10
89.838256999999999
 20
42.730617999999993
 30
0.0
 11
104.838257
 21
42.730617999999993
 31
0.0
  0
LINE
  5
4DF
  8
0
  6
DASHDOT
 62
   251
 10
106.338257
 20
39.730614000000003
 30
0.0
 11
123.338249
 21
39.730614000000003
 31
0.0
  0
LINE
  5
4E0
  8
0
  6
DASHDOT
 62
   251
 10
124.83828
 20
42.730590999999997
 30
0.0
 11
139.83824199999989
 21
42.730590999999997
 31
0.0
  0
LINE
  5
4E1
  8
0
  6
DASHDOT
 62
   251
 10
149.8383179999999
 20
31.230362
 30
0.0
 11
149.8383179999999
 21
48.230625000000003
 31
0.0
  0
LINE
  5
4E2
  8
0
  6
DASHDOT
 62
   251
 10
141.33818099999991
 20
39.730494999999998
 30
0.0
 11
158.33843999999991
 21
39.730494999999998
 31
0.0
  0
LINE
  5
4E3
  8
0
  6
DASHDOT
 62
   251
 10
149.83825699999991
 20
26.830627
 30
0.0
 11
149.83825699999991
 21
35.630614999999992
 31
0.0
  0
LINE
  5
4E4
  8
0
  6
DASHDOT
 62
   251
 10
79.838256999999999
 20
26.830611999999999
 30
0.0
 11
79.838256999999999
 21
35.630614999999992
 31
0.0
  0
LINE
  5
4E5
  8
0
 62
   212
 10
62.838272000000003
 20
162.4806209999999
 30
0.0
 11
166.838257
 21
162.4806209999999
 31
0.0
  0
LINE
  5
4E6
  8
0
 62
   212
 10
153.338257
 20
57.480640000000001
 30
0.0
 11
166.838257
 21
57.480640000000001
 31
0.0
  0
LINE
  5
4E7
  8
0
 62
   212
 10
117.28755200000001
 20
57.480640000000001
 30
0.0
 11
141.838257
 21
57.480640000000001
 31
0.0
  0
LINE
  5
4E8
  8
0
 62
   212
 10
62.838272000000003
 20
57.480640000000001
 30
0.0
 11
76.338272000000003
 21
57.480640000000001
 31
0.0
  0
LINE
  5
4E9
  8
0
 62
   212
 10
76.338272000000003
 20
57.480640000000001
 30
0.0
 11
87.838272000000003
 21
57.480640000000001
 31
0.0
  0
LINE
  5
4EA
  8
0
 62
   212
 10
141.838257
 20
57.480640000000001
 30
0.0
 11
153.338257
 21
57.480640000000001
 31
0.0
  0
LINE
  5
4EB
  8
0
  6
DASHDOT
 62
   251
 10
114.838272
 20
18.419304
 30
0.0
 11
114.838272
 21
201.67889400000001
 31
0.0
  0
ARC
  5
4EC
  8
0
 62
   212
 10
62.838272000000003
 20
57.980640000000001
 30
0.0
 40
0.5
 50
180.00000499999999
 51
270.000001
  0
ARC
  5
4ED
  8
0
 62
   212
 10
62.838272000000003
 20
161.9806209999999
 30
0.0
 40
0.5
 50
90.000003000000007
 51
180.00000499999999
  0
ARC
  5
4EE
  8
0
 62
   212
 10
166.838257
 20
161.9806209999999
 30
0.0
 40
0.5
 50
0.0
 51
90.000003000000007
  0
ARC
  5
4EF
  8
0
 62
   212
 10
166.838257
 20
57.980640000000001
 30
0.0
 40
0.5
 50
270.000001
 51
360.0
  0
LINE
  5
4F0
  8
0
 62
   212
 10
87.838272000000003
 20
57.480640000000001
 30
0.0
 11
112.388824
 21
57.480640000000001
 31
0.0
  0
LINE
  5
4F1
  8
0
 62
   212
 10
77.338272000000003
 20
57.480625000000003
 30
0.0
 11
87.338256999999999
 21
57.480625000000003
 31
0.0
  0
LINE
  5
4F2
  8
0
 62
   212
 10
142.33824199999989
 20
57.480625000000003
 30
0.0
 11
152.33824199999989
 21
57.480625000000003
 31
0.0
  0
LINE
  5
4F3
  8
0
 62
   212
 10
167.33827199999999
 20
57.980625000000003
 30
0.0
 11
167.33827199999999
 21
75.980606000000009
 31
0.0
  0
LINE
  5
4F4
  8
0
 62
   212
 10
62.338272000000003
 20
162.4806209999999
 30
0.0
 11
166.8382719999999
 21
162.4806209999999
 31
0.0
  0
LINE
  5
4F5
  8
0
 62
   212
 10
62.338272000000003
 20
57.480625000000003
 30
0.0
 11
77.338272000000003
 21
57.480625000000003
 31
0.0
  0
LINE
  5
4F6
  8
0
 62
   212
 10
87.338256999999999
 20
57.480625000000003
 30
0.0
 11
142.33824199999989
 21
57.480625000000003
 31
0.0
  0
LINE
  5
4F7
  8
0
 62
   212
 10
152.33824199999989
 20
57.480625000000003
 30
0.0
 11
167.338257
 21
57.480625000000003
 31
0.0
  0
LINE
  5
4F8
  8
0
 62
   212
 10
167.338257
 20
76.980606000000009
 30
0.0
 11
167.338257
 21
88.980598000000001
 31
0.0
  0
LINE
  5
4F9
  8
0
 62
   212
 10
167.338257
 20
57.480625000000003
 30
0.0
 11
167.338257
 21
161.9806209999999
 31
0.0
  0
LINE
  5
4FA
  8
0
 62
   212
 10
167.338257
 20
89.980598000000001
 30
0.0
 11
167.338257
 21
109.48060599999999
 31
0.0
  0
LINE
  5
4FB
  8
0
 62
   212
 10
167.338257
 20
110.48060599999999
 30
0.0
 11
167.338257
 21
122.48060599999999
 31
0.0
  0
LINE
  5
4FC
  8
0
 62
   212
 10
62.338272000000003
 20
162.4806209999999
 30
0.0
 11
62.338272000000003
 21
191.3544159999999
 31
0.0
  0
ARC
  5
4FD
  8
0
 62
   212
 10
62.838272000000003
 20
57.980625000000003
 30
0.0
 40
0.5
 50
180.00000499999999
 51
270.000001
  0
ARC
  5
4FE
  8
0
 62
   212
 10
166.8382719999999
 20
57.980625000000003
 30
0.0
 40
0.5
 50
270.000001
 51
360.0
  0
ARC
  5
4FF
  8
0
 62
   212
 10
166.8382719999999
 20
161.9806209999999
 30
0.0
 40
0.5
 50
0.0
 51
90.000003000000007
  0
ARC
  5
500
  8
0
 62
   212
 10
62.838272000000003
 20
161.9806209999999
 30
0.0
 40
0.5
 50
90.000003000000007
 51
180.00000499999999
  0
LINE
  5
501
  8
0
 62
   212
 10
95.588242000000008
 20
194.2306209999999
 30
0.0
 11
95.588242000000008
 21
197.2306209999999
 31
0.0
  0
LINE
  5
502
  8
0
 62
   212
 10
99.088234000000014
 20
194.2306209999999
 30
0.0
 11
99.088234000000014
 21
197.2306209999999
 31
0.0
  0
LINE
  5
503
  8
0
 62
   212
 10
94.838241999999994
 20
190.7306209999999
 30
0.0
 11
94.838241999999994
 21
194.2306209999999
 31
0.0
  0
LINE
  5
504
  8
0
 62
   212
 10
99.838234
 20
190.7306209999999
 30
0.0
 11
99.838234
 21
194.2306209999999
 31
0.0
  0
LINE
  5
505
  8
0
 62
   212
 10
99.088234000000014
 20
194.2306209999999
 30
0.0
 11
99.838234
 21
194.2306209999999
 31
0.0
  0
LINE
  5
506
  8
0
 62
   212
 10
94.838241999999994
 20
194.2306209999999
 30
0.0
 11
95.588242000000008
 21
194.2306209999999
 31
0.0
  0
LINE
  5
507
  8
0
 62
   212
 10
134.088303
 20
27.230613999999999
 30
0.0
 11
134.088303
 21
29.480629
 31
0.0
  0
LINE
  5
508
  8
0
 62
   212
 10
130.58830299999991
 20
27.230613999999999
 30
0.0
 11
130.58830299999991
 21
29.480629
 31
0.0
  0
LINE
  5
509
  8
0
 62
   212
 10
99.088234000000014
 20
27.230613999999999
 30
0.0
 11
99.088234000000014
 21
29.480629
 31
0.0
  0
LINE
  5
50A
  8
0
 62
   212
 10
95.588242000000008
 20
27.230613999999999
 30
0.0
 11
95.588242000000008
 21
29.480629
 31
0.0
  0
LINE
  5
50B
  8
0
  6
DASHDOT
 62
   251
 10
132.33825699999991
 20
28.230613999999999
 30
0.0
 11
132.33825699999991
 21
49.937271000000003
 31
0.0
  0
LINE
  5
50C
  8
0
  6
DASHDOT
 62
   251
 10
54.405678000000002
 20
109.980621
 30
0.0
 11
179.590057
 21
109.980621
 31
0.0
  0
CIRCLE
  5
50D
  8
0
  6
DASHSPACE
 62
   251
 10
114.83824199999989
 20
184.73060599999999
 30
0.0
 40
5.5000010000000001
  0
CIRCLE
  5
50E
  8
0
  6
DASHSPACE
 62
   251
 10
149.83824199999989
 20
184.73060599999999
 30
0.0
 40
5.5000010000000001
  0
LINE
  5
50F
  8
0
  6
DASHDOT
 62
   251
 10
149.83824199999989
 20
176.23060599999999
 30
0.0
 11
149.83824199999989
 21
193.23060599999991
 31
0.0
  0
LINE
  5
510
  8
0
  6
DASHDOT
 62
   251
 10
141.33824199999989
 20
184.73060599999999
 30
0.0
 11
158.33824199999989
 21
184.73060599999999
 31
0.0
  0
LINE
  5
511
  8
0
  6
DASHDOT
 62
   251
 10
106.33824199999989
 20
184.73060599999999
 30
0.0
 11
123.33824199999989
 21
184.73060599999999
 31
0.0
  0
LINE
  5
512
  8
0
  6
DASHDOT
 62
   251
 10
114.83824199999989
 20
176.23060599999999
 30
0.0
 11
114.83824199999989
 21
193.23060599999991
 31
0.0
  0
LINE
  5
513
  8
0
  6
DASHDOT
 62
   251
 10
106.33824199999989
 20
184.73060599999999
 30
0.0
 11
123.33824199999989
 21
184.73060599999999
 31
0.0
  0
LINE
  5
514
  8
0
 62
   212
 10
134.088303
 20
194.2306209999999
 30
0.0
 11
134.83830299999991
 21
194.2306209999999
 31
0.0
  0
LINE
  5
515
  8
0
 62
   212
 10
129.83830299999991
 20
194.2306209999999
 30
0.0
 11
130.58830299999991
 21
194.2306209999999
 31
0.0
  0
LINE
  5
516
  8
0
 62
   212
 10
129.83830299999991
 20
190.7306209999999
 30
0.0
 11
129.83830299999991
 21
194.2306209999999
 31
0.0
  0
LINE
  5
517
  8
0
 62
   212
 10
134.83830299999991
 20
190.7306209999999
 30
0.0
 11
134.83830299999991
 21
194.2306209999999
 31
0.0
  0
LINE
  5
518
  8
0
 62
   212
 10
130.58830299999991
 20
194.2306209999999
 30
0.0
 11
130.58830299999991
 21
197.2306209999999
 31
0.0
  0
LINE
  5
519
  8
0
 62
   212
 10
134.088303
 20
194.2306209999999
 30
0.0
 11
134.088303
 21
197.2306209999999
 31
0.0
  0
LINE
  5
51A
  8
0
 62
   212
 10
167.33827199999999
 20
57.480625000000003
 30
0.0
 11
167.33827199999999
 21
191.3544159999999
 31
0.0
  0
LINE
  5
51B
  8
0
  6
DASHDOT
 62
   251
 10
132.338303
 20
174.2306209999999
 30
0.0
 11
132.338303
 21
199.5942379999999
 31
0.0
  0
LINE
  5
51C
  8
0
  6
DASHDOT
 62
   251
 10
149.838303
 20
176.23060599999999
 30
0.0
 11
149.838303
 21
193.23060599999991
 31
0.0
  0
ARC
  5
51D
  8
0
 62
   212
 10
163.83830299999991
 20
196.2306209999999
 30
0.0
 40
1.0000039999999999
 50
359.99951800000002
 51
89.999955
  0
CIRCLE
  5
51E
  8
0
  6
DASHSPACE
 62
   251
 10
149.838303
 20
184.73060599999999
 30
0.0
 40
5.5000010000000001
  0
LINE
  5
51F
  8
0
 62
   251
 10
164.83830299999991
 20
190.4806209999999
 30
0.0
 11
164.83830299999991
 21
194.43060299999991
 31
0.0
  0
LINE
  5
520
  8
0
 62
   212
 10
129.83830299999991
 20
190.7306209999999
 30
0.0
 11
134.83830299999991
 21
190.7306209999999
 31
0.0
  0
LINE
  5
521
  8
0
 62
   212
 10
167.3383179999999
 20
190.4806209999999
 30
0.0
 11
167.3383179999999
 21
194.43060299999991
 31
0.0
  0
LINE
  5
522
  8
0
 62
   212
 10
164.83830299999991
 20
194.43060299999991
 30
0.0
 11
167.338303
 21
194.43060299999991
 31
0.0
  0
LINE
  5
523
  8
0
 62
   212
 10
164.83830299999991
 20
194.43060299999991
 30
0.0
 11
164.83830299999991
 21
196.2306209999999
 31
0.0
  0
LINE
  5
524
  8
0
 62
   212
 10
99.088234000000014
 20
197.2306209999999
 30
0.0
 11
130.58830299999991
 21
197.2306209999999
 31
0.0
  0
LINE
  5
525
  8
0
 62
   212
 10
134.088303
 20
197.2306209999999
 30
0.0
 11
163.83830299999991
 21
197.2306209999999
 31
0.0
  0
LINE
  5
526
  8
0
 62
   212
 10
134.088303
 20
27.230613999999999
 30
0.0
 11
163.83830299999991
 21
27.230613999999999
 31
0.0
  0
LINE
  5
527
  8
0
 62
   212
 10
99.088234000000014
 20
27.230613999999999
 30
0.0
 11
130.58830299999991
 21
27.230613999999999
 31
0.0
  0
LINE
  5
528
  8
0
 62
   212
 10
164.83830299999991
 20
28.230613999999999
 30
0.0
 11
164.83830299999991
 21
30.030616999999989
 31
0.0
  0
LINE
  5
529
  8
0
 62
   212
 10
164.83830299999991
 20
30.030616999999989
 30
0.0
 11
167.338303
 21
30.030616999999989
 31
0.0
  0
LINE
  5
52A
  8
0
 62
   212
 10
167.3383179999999
 20
30.030616999999989
 30
0.0
 11
167.3383179999999
 21
33.980606000000002
 31
0.0
  0
CIRCLE
  5
52B
  8
0
 62
   251
 10
149.838303
 20
31.230606000000002
 30
0.0
 40
1.4000049999999991
  0
ARC
  5
52C
  8
0
 62
   212
 10
163.83830299999991
 20
28.230613999999999
 30
0.0
 40
1.0000039999999999
 50
270.00005499999992
 51
0.000479
  0
LINE
  5
52D
  8
0
  6
DASHDOT
 62
   251
 10
149.838303
 20
26.830604999999991
 30
0.0
 11
149.838303
 21
35.630608000000002
 31
0.0
  0
LINE
  5
52E
  8
0
  6
DASHDOT
 62
   251
 10
145.438309
 20
31.230606000000002
 30
0.0
 11
154.23831200000001
 21
31.230606000000002
 31
0.0
  0
LINE
  5
52F
  8
0
  6
DASHDOT
 62
   251
 10
149.838303
 20
31.230620999999999
 30
0.0
 11
149.838303
 21
48.230625000000003
 31
0.0
  0
LINE
  5
530
  8
0
  6
DASHDOT
 62
   251
 10
132.338303
 20
24.866997000000001
 30
0.0
 11
132.338303
 21
50.230606000000002
 31
0.0
  0
LINE
  5
531
  8
0
 62
   212
 10
167.33827199999999
 20
33.106811999999991
 30
0.0
 11
167.33827199999999
 21
166.98060599999991
 31
0.0
  0
LINE
  5
532
  8
0
 62
   212
 10
134.088303
 20
27.230613999999999
 30
0.0
 11
134.088303
 21
30.230613999999999
 31
0.0
  0
LINE
  5
533
  8
0
 62
   212
 10
130.58830299999991
 20
27.230613999999999
 30
0.0
 11
130.58830299999991
 21
30.230613999999999
 31
0.0
  0
LINE
  5
534
  8
0
 62
   212
 10
134.83830299999991
 20
30.230613999999999
 30
0.0
 11
134.83830299999991
 21
33.730614000000003
 31
0.0
  0
LINE
  5
535
  8
0
 62
   212
 10
129.83830299999991
 20
30.230613999999999
 30
0.0
 11
129.83830299999991
 21
33.730614000000003
 31
0.0
  0
LINE
  5
536
  8
0
 62
   212
 10
129.83830299999991
 20
30.230613999999999
 30
0.0
 11
130.58830299999991
 21
30.230613999999999
 31
0.0
  0
LINE
  5
537
  8
0
 62
   212
 10
134.088303
 20
30.230613999999999
 30
0.0
 11
134.83830299999991
 21
30.230613999999999
 31
0.0
  0
LINE
  5
538
  8
0
  6
DASHDOT
 62
   251
 10
114.83824199999989
 20
31.230620999999999
 30
0.0
 11
114.83824199999989
 21
48.230625000000003
 31
0.0
  0
LINE
  5
539
  8
0
  6
DASHDOT
 62
   251
 10
149.83824199999989
 20
31.230620999999999
 30
0.0
 11
149.83824199999989
 21
48.230625000000003
 31
0.0
  0
LINE
  5
53A
  8
0
 62
   212
 10
94.838241999999994
 20
30.230613999999999
 30
0.0
 11
95.588242000000008
 21
30.230613999999999
 31
0.0
  0
LINE
  5
53B
  8
0
 62
   212
 10
99.088234000000014
 20
30.230613999999999
 30
0.0
 11
99.838234
 21
30.230613999999999
 31
0.0
  0
LINE
  5
53C
  8
0
 62
   212
 10
99.838234
 20
30.230613999999999
 30
0.0
 11
99.838234
 21
33.730614000000003
 31
0.0
  0
LINE
  5
53D
  8
0
 62
   212
 10
94.838241999999994
 20
30.230613999999999
 30
0.0
 11
94.838241999999994
 21
33.730614000000003
 31
0.0
  0
LINE
  5
53E
  8
0
 62
   212
 10
99.088234000000014
 20
27.230613999999999
 30
0.0
 11
99.088234000000014
 21
30.230613999999999
 31
0.0
  0
LINE
  5
53F
  8
0
 62
   212
 10
95.588242000000008
 20
27.230613999999999
 30
0.0
 11
95.588242000000008
 21
30.230613999999999
 31
0.0
  0
LINE
  5
540
  8
0
 62
   212
 10
62.338272000000003
 20
33.106811999999991
 30
0.0
 11
62.338272000000003
 21
57.480625000000003
 31
0.0
  0
LINE
  5
541
  8
0
  6
DASHDOT
 62
   251
 10
97.338241999999994
 20
24.866997000000001
 30
0.0
 11
97.338241999999994
 21
50.230606000000002
 31
0.0
  0
LINE
  5
542
  8
0
  6
DASHDOT
 62
   251
 10
79.838241999999994
 20
31.230620999999999
 30
0.0
 11
79.838241999999994
 21
48.230625000000003
 31
0.0
  0
LINE
  5
543
  8
0
  6
DASHDOT
 62
   251
 10
75.438231999999999
 20
31.230606000000002
 30
0.0
 11
84.238243000000011
 21
31.230606000000002
 31
0.0
  0
LINE
  5
544
  8
0
  6
DASHDOT
 62
   251
 10
79.838241999999994
 20
26.830604999999991
 30
0.0
 11
79.838241999999994
 21
35.630608000000002
 31
0.0
  0
ARC
  5
545
  8
0
 62
   212
 10
65.838242000000008
 20
28.230613999999999
 30
0.0
 40
1.0000039999999999
 50
179.999527
 51
269.99994600000002
  0
CIRCLE
  5
546
  8
0
 62
   251
 10
79.838241999999994
 20
31.230606000000002
 30
0.0
 40
1.4000049999999991
  0
LINE
  5
547
  8
0
 62
   212
 10
62.33823000000001
 20
30.030616999999989
 30
0.0
 11
62.33823000000001
 21
33.980606000000002
 31
0.0
  0
LINE
  5
548
  8
0
 62
   212
 10
62.338242000000001
 20
30.030616999999989
 30
0.0
 11
64.838241999999994
 21
30.030616999999989
 31
0.0
  0
LINE
  5
549
  8
0
 62
   212
 10
64.838241999999994
 20
28.230613999999999
 30
0.0
 11
64.838241999999994
 21
30.030616999999989
 31
0.0
  0
LINE
  5
54A
  8
0
 62
   212
 10
99.088234000000014
 20
27.230613999999999
 30
0.0
 11
101.3752369999999
 21
27.230613999999999
 31
0.0
  0
LINE
  5
54B
  8
0
 62
   212
 10
65.838242000000008
 20
27.230613999999999
 30
0.0
 11
95.588242000000008
 21
27.230613999999999
 31
0.0
  0
LINE
  5
54C
  8
0
 62
   212
 10
94.838241999999994
 20
33.730614000000003
 30
0.0
 11
99.838234
 21
33.730614000000003
 31
0.0
  0
LINE
  5
54D
  8
0
 62
   212
 10
129.83830299999991
 20
33.730614000000003
 30
0.0
 11
134.83830299999991
 21
33.730614000000003
 31
0.0
  0
LINE
  5
54E
  8
0
  6
DASHDOT
 62
   251
 10
97.338241999999994
 20
174.2306209999999
 30
0.0
 11
97.338241999999994
 21
199.5942379999999
 31
0.0
  0
LINE
  5
54F
  8
0
  6
DASHDOT
 62
   251
 10
89.838256999999999
 20
181.7306209999999
 30
0.0
 11
104.838257
 21
181.7306209999999
 31
0.0
  0
LINE
  5
550
  8
0
  6
DASHDOT
 62
   251
 10
97.338256999999999
 20
174.2306209999999
 30
0.0
 11
97.338256999999999
 21
199.657791
 31
0.0
  0
CIRCLE
  5
551
  8
0
  6
DASHSPACE
 62
   251
 10
97.338256999999999
 20
181.7306209999999
 30
0.0
 40
4.4999979999999997
  0
LINE
  5
552
  8
0
  6
DASHDOT
 62
   251
 10
132.338303
 20
174.2306209999999
 30
0.0
 11
132.338303
 21
199.5942379999999
 31
0.0
  0
LINE
  5
553
  8
0
  6
DASHDOT
 62
   251
 10
132.33825699999991
 20
174.52395599999991
 30
0.0
 11
132.33825699999991
 21
196.2306209999999
 31
0.0
  0
LINE
  5
554
  8
0
  6
DASHDOT
 62
   251
 10
124.83828
 20
181.730637
 30
0.0
 11
139.83824199999989
 21
181.730637
 31
0.0
  0
CIRCLE
  5
555
  8
0
  6
DASHSPACE
 62
   251
 10
132.33825699999991
 20
181.730637
 30
0.0
 40
4.4999789999999988
  0
LINE
  5
556
  8
0
 62
   212
 10
27.33824199999999
 20
194.43060299999991
 30
0.0
 11
29.83824199999999
 21
194.43060299999991
 31
0.0
  0
LINE
  5
557
  8
0
 62
   212
 10
27.338234
 20
190.4806209999999
 30
0.0
 11
27.338234
 21
194.43060299999991
 31
0.0
  0
LINE
  5
558
  8
0
 62
   212
 10
29.83824199999999
 20
194.43060299999991
 30
0.0
 11
29.83824199999999
 21
196.2306209999999
 31
0.0
  0
ARC
  5
559
  8
0
 62
   212
 10
30.838242000000001
 20
196.2306209999999
 30
0.0
 40
1.0000039999999999
 50
90.000049999999987
 51
180.00048299999989
  0
LINE
  5
55A
  8
0
 62
   212
 10
30.838242000000001
 20
197.2306209999999
 30
0.0
 11
60.58823799999999
 21
197.2306209999999
 31
0.0
  0
LINE
  5
55B
  8
0
 62
   212
 10
27.33824199999999
 20
30.030616999999989
 30
0.0
 11
29.83824199999999
 21
30.030616999999989
 31
0.0
  0
LINE
  5
55C
  8
0
 62
   212
 10
27.338234
 20
30.030616999999989
 30
0.0
 11
27.338234
 21
33.980606000000002
 31
0.0
  0
LINE
  5
55D
  8
0
 62
   212
 10
29.83824199999999
 20
28.230613999999999
 30
0.0
 11
29.83824199999999
 21
30.030616999999989
 31
0.0
  0
ARC
  5
55E
  8
0
 62
   212
 10
30.838242000000001
 20
28.230613999999999
 30
0.0
 40
1.0000039999999999
 50
179.999527
 51
269.99994600000002
  0
LINE
  5
55F
  8
0
 62
   212
 10
30.838242000000001
 20
27.230613999999999
 30
0.0
 11
60.58823799999999
 21
27.230613999999999
 31
0.0
  0
LINE
  5
560
  8
0
 62
   212
 10
27.338271999999989
 20
33.106811999999991
 30
0.0
 11
27.338271999999989
 21
194.43060299999991
 31
0.0
  0
ENDBLK
  5
561
  8
0
  0
BLOCK
  8
0
  2
BLOCK1
 70
     0
 10
0.0
 20
0.0
 30
0.0
  3
BLOCK1
  1

  0
TEXT
  5
563
  8
0
 62
    52
 10
111.83822600000001
 20
214.067657
 30
0.0
 40
3.0
  1
Y
 41
0.9777764444444427
 72
     5
 11
114.0382229999999
 21
214.067657
 31
0.0
  0
ENDBLK
  5
564
  8
0
  0
BLOCK
  8
0
  2
BLOCK2
 70
     0
 10
0.0
 20
0.0
 30
0.0
  3
BLOCK2
  1

  0
TEXT
  5
566
  8
0
 62
    52
 10
112.48350499999999
 20
-22.427537999999998
 30
0.0
 40
3.0
  1
Y
 41
0.9777764444444427
 72
     5
 11
114.683502
 21
-22.427537999999998
 31
0.0
  0
ENDBLK
  5
567
  8
0
  0
BLOCK
  8
0
  2
BLOCK3
 70
     0
 10
0.0
 20
0.0
 30
0.0
  3
BLOCK3
  1

  0
TEXT
  5
569
  8
0
 62
    52
 10
-9.2737440000000007
 20
105.5785679999999
 30
0.0
 40
3.0
  1
X
 41
0.9777777777777776
 72
     5
 11
-7.0737439999999996
 21
105.5785679999999
 31
0.0
  0
ENDBLK
  5
56A
  8
0
  0
BLOCK
  8
0
  2
BLOCK4
 70
     0
 10
0.0
 20
0.0
 30
0.0
  3
BLOCK4
  1

  0
TEXT
  5
56C
  8
0
 62
    52
 10
215.28996299999989
 20
106.765091
 30
0.0
 40
3.0
  1
X
 41
0.9777764444444425
 72
     5
 11
217.48995999999991
 21
106.765091
 31
0.0
  0
ENDBLK
  5
56D
  8
0
  0
BLOCK
  8
0
  2
BLOCK5
 70
     0
 10
0.0
 20
0.0
 30
0.0
  3
BLOCK5
  1

  0
TEXT
  5
56F
  8
0
 62
    52
 10
112.214912
 20
83.525657999999979
 30
0.0
 40
3.0
  1
90%%d
 50
45.000031569627403
 41
1.3847676685873569
 72
     5
 11
117.6596149999999
 21
88.97036700000001
 31
0.0
  0
ENDBLK
  5
570
  8
0
  0
BLOCK
  8
0
  2
BLOCK6
 70
     0
 10
0.0
 20
0.0
 30
0.0
  3
BLOCK6
  1

  0
TEXT
  5
572
  8
0
 62
    52
 10
205.22849999999991
 20
93.272811999999988
 30
0.0
 40
3.0
  1
105
 50
90.0
 41
1.432750959303992
 72
     5
 11
205.22849999999991
 21
100.97279399999989
 31
0.0
  0
ENDBLK
  5
573
  8
0
  0
BLOCK
  8
0
  2
BLOCK7
 70
     0
 10
0.0
 20
0.0
 30
0.0
  3
BLOCK7
  1

  0
TEXT
  5
575
  8
0
 62
    52
 10
7.3408729999999993
 20
77.746346000000003
 30
0.0
 40
3.0
  1
52,5
 50
90.0
 41
1.5090557382680749
 72
     5
 11
7.3408729999999993
 21
88.346351999999996
 31
0.0
  0
LINE
  5
576
  8
0
 62
    52
 10
56.338234
 20
57.487076000000002
 30
0.0
 11
7.3408729999999993
 21
57.487076000000002
 31
0.0
  0
POLYLINE
  5
577
  8
0
 62
    52
 66
     1
 10
0.0
 20
0.0
 30
0.0
  0
VERTEX
  5
83D
  8
0
 62
    52
 10
8.8232359999999996
 20
59.418925999999999
 30
0.0
  0
VERTEX
  5
83E
  8
0
 62
    52
 10
9.3408730000000002
 20
57.487076000000002
 30
0.0
  0
VERTEX
  5
83F
  8
0
 62
    52
 10
9.858511
 20
59.418925999999999
 30
0.0
  0
SEQEND
  5
840
  8
0
 62
    52
  0
POLYLINE
  5
57C
  8
0
 62
    52
 66
     1
 10
0.0
 20
0.0
 30
0.0
  0
VERTEX
  5
841
  8
0
 62
    52
 10
9.858511
 20
108.0487669999999
 30
0.0
  0
VERTEX
  5
842
  8
0
 62
    52
 10
9.3408730000000002
 20
109.980621
 30
0.0
  0
VERTEX
  5
843
  8
0
 62
    52
 10
8.8232359999999996
 20
108.0487669999999
 30
0.0
  0
SEQEND
  5
844
  8
0
 62
    52
  0
LINE
  5
581
  8
0
 62
    52
 10
9.3408730000000002
 20
57.487076000000002
 30
0.0
 11
9.3408730000000002
 21
109.980621
 31
0.0
  0
ENDBLK
  5
582
  8
0
  0
BLOCK
  8
0
  2
BLOCK8
 70
     0
 10
0.0
 20
0.0
 30
0.0
  3
BLOCK8
  1

  0
TEXT
  5
584
  8
0
 62
    52
 10
7.3408729999999993
 20
136.7490389999999
 30
0.0
 40
3.0
  1
11,5
 50
90.0
 41
1.819973455005838
 72
     5
 11
7.3408729999999993
 21
147.3490449999999
 31
0.0
  0
LINE
  5
585
  8
0
 62
    52
 10
59.337963000000002
 20
121.4865489999999
 30
0.0
 11
7.3408729999999993
 21
121.4865489999999
 31
0.0
  0
POLYLINE
  5
586
  8
0
 62
    52
 66
     1
 10
0.0
 20
0.0
 30
0.0
  0
VERTEX
  5
845
  8
0
 62
    52
 10
8.8232359999999996
 20
111.912476
 30
0.0
  0
VERTEX
  5
846
  8
0
 62
    52
 10
9.3408730000000002
 20
109.980621
 30
0.0
  0
VERTEX
  5
847
  8
0
 62
    52
 10
9.858511
 20
111.912476
 30
0.0
  0
SEQEND
  5
848
  8
0
 62
    52
  0
POLYLINE
  5
58B
  8
0
 62
    52
 66
     1
 10
0.0
 20
0.0
 30
0.0
  0
VERTEX
  5
849
  8
0
 62
    52
 10
9.858511
 20
119.5547029999999
 30
0.0
  0
VERTEX
  5
84A
  8
0
 62
    52
 10
9.3408730000000002
 20
121.4865489999999
 30
0.0
  0
VERTEX
  5
84B
  8
0
 62
    52
 10
8.8232359999999996
 20
119.5547029999999
 30
0.0
  0
SEQEND
  5
84C
  8
0
 62
    52
  0
LINE
  5
590
  8
0
 62
    52
 10
9.3408730000000002
 20
109.980621
 30
0.0
 11
9.3408730000000002
 21
147.3490449999999
 31
0.0
  0
ENDBLK
  5
591
  8
0
  0
BLOCK
  8
0
  2
BLOCK9
 70
     0
 10
0.0
 20
0.0
 30
0.0
  3
BLOCK9
  1

  0
TEXT
  5
593
  8
0
 62
    52
 10
71.27555799999999
 20
-7.1030550000000003
 30
0.0
 40
3.0
  1
26
 41
1.282439664748056
 72
     5
 11
76.27555799999999
 21
-7.1030550000000003
 31
0.0
  0
LINE
  5
594
  8
0
 62
    52
 10
88.83805799999999
 20
-1.714413
 30
0.0
 11
88.83805799999999
 21
-11.103054999999991
 31
0.0
  0
LINE
  5
595
  8
0
 62
    52
 10
114.838272
 20
19.579833999999991
 30
0.0
 11
114.838272
 21
-11.103054999999991
 31
0.0
  0
POLYLINE
  5
596
  8
0
 62
    52
 66
     1
 10
0.0
 20
0.0
 30
0.0
  0
VERTEX
  5
84D
  8
0
 62
    52
 10
90.769904999999994
 20
-8.5854169999999996
 30
0.0
  0
VERTEX
  5
84E
  8
0
 62
    52
 10
88.83805799999999
 20
-9.1030549999999995
 30
0.0
  0
VERTEX
  5
84F
  8
0
 62
    52
 10
90.769904999999994
 20
-9.6206929999999993
 30
0.0
  0
SEQEND
  5
850
  8
0
 62
    52
  0
POLYLINE
  5
59B
  8
0
 62
    52
 66
     1
 10
0.0
 20
0.0
 30
0.0
  0
VERTEX
  5
851
  8
0
 62
    52
 10
112.9064179999999
 20
-9.6206929999999993
 30
0.0
  0
VERTEX
  5
852
  8
0
 62
    52
 10
114.838272
 20
-9.1030549999999995
 30
0.0
  0
VERTEX
  5
853
  8
0
 62
    52
 10
112.9064179999999
 20
-8.5854169999999996
 30
0.0
  0
SEQEND
  5
854
  8
0
 62
    52
  0
LINE
  5
5A0
  8
0
 62
    52
 10
71.27555799999999
 20
-9.1030549999999995
 30
0.0
 11
114.838272
 21
-9.1030549999999995
 31
0.0
  0
ENDBLK
  5
5A1
  8
0
  0
BLOCK
  8
0
  2
BLOCK10
 70
     0
 10
0.0
 20
0.0
 30
0.0
  3
BLOCK10
  1

  0
TEXT
  5
5A3
  8
0
 62
    52
 10
132.10075399999991
 20
-7.1030550000000003
 30
0.0
 40
3.0
  1
46,5
 41
1.4472451976822509
 72
     5
 11
142.70076
 21
-7.1030550000000003
 31
0.0
  0
LINE
  5
5A4
  8
0
 62
    52
 10
114.838272
 20
19.579833999999991
 30
0.0
 11
114.838272
 21
-11.103054999999991
 31
0.0
  0
LINE
  5
5A5
  8
0
 62
    52
 10
161.33824199999989
 20
57.486984
 30
0.0
 11
161.33824199999989
 21
-11.103054999999991
 31
0.0
  0
POLYLINE
  5
5A6
  8
0
 62
    52
 66
     1
 10
0.0
 20
0.0
 30
0.0
  0
VERTEX
  5
855
  8
0
 62
    52
 10
116.77011899999999
 20
-8.5854169999999996
 30
0.0
  0
VERTEX
  5
856
  8
0
 62
    52
 10
114.838272
 20
-9.1030549999999995
 30
0.0
  0
VERTEX
  5
857
  8
0
 62
    52
 10
116.77011899999999
 20
-9.6206929999999993
 30
0.0
  0
SEQEND
  5
858
  8
0
 62
    52
  0
POLYLINE
  5
5AB
  8
0
 62
    52
 66
     1
 10
0.0
 20
0.0
 30
0.0
  0
VERTEX
  5
859
  8
0
 62
    52
 10
159.406387
 20
-9.6206929999999993
 30
0.0
  0
VERTEX
  5
85A
  8
0
 62
    52
 10
161.33824199999989
 20
-9.1030549999999995
 30
0.0
  0
VERTEX
  5
85B
  8
0
 62
    52
 10
159.406387
 20
-8.5854169999999996
 30
0.0
  0
SEQEND
  5
85C
  8
0
 62
    52
  0
LINE
  5
5B0
  8
0
 62
    52
 10
114.838272
 20
-9.1030549999999995
 30
0.0
 11
161.33824199999989
 21
-9.1030549999999995
 31
0.0
  0
ENDBLK
  5
5B1
  8
0
  0
BLOCK
  8
0
  2
BLOCK11
 70
     0
 10
0.0
 20
0.0
 30
0.0
  3
BLOCK11
  1

  0
TEXT
  5
5B3
  8
0
 62
    52
 10
104.25073999999999
 20
233.55438199999989
 30
0.0
 40
3.0
  1
105
 41
1.4513620656287269
 72
     5
 11
112.0507429999999
 21
233.55438199999989
 31
0.0
  0
LINE
  5
5B4
  8
0
 62
    52
 10
56.338234
 20
162.48710600000001
 30
0.0
 11
56.338234
 21
234.55438199999989
 31
0.0
  0
LINE
  5
5B5
  8
0
 62
    52
 10
161.33824199999989
 20
162.48710600000001
 30
0.0
 11
161.33824199999989
 21
234.55438199999989
 31
0.0
  0
POLYLINE
  5
5B6
  8
0
 62
    52
 66
     1
 10
0.0
 20
0.0
 30
0.0
  0
VERTEX
  5
85D
  8
0
 62
    52
 10
58.270083999999997
 20
233.07202099999989
 30
0.0
  0
VERTEX
  5
85E
  8
0
 62
    52
 10
56.338234
 20
232.55438199999989
 30
0.0
  0
VERTEX
  5
85F
  8
0
 62
    52
 10
58.270083999999997
 20
232.036743
 30
0.0
  0
SEQEND
  5
860
  8
0
 62
    52
  0
POLYLINE
  5
5BB
  8
0
 62
    52
 66
     1
 10
0.0
 20
0.0
 30
0.0
  0
VERTEX
  5
861
  8
0
 62
    52
 10
159.406387
 20
232.036743
 30
0.0
  0
VERTEX
  5
862
  8
0
 62
    52
 10
161.33824199999989
 20
232.55438199999989
 30
0.0
  0
VERTEX
  5
863
  8
0
 62
    52
 10
159.406387
 20
233.07202099999989
 30
0.0
  0
SEQEND
  5
864
  8
0
 62
    52
  0
LINE
  5
5C0
  8
0
 62
    52
 10
56.338234
 20
232.55438199999989
 30
0.0
 11
161.33824199999989
 21
232.55438199999989
 31
0.0
  0
ENDBLK
  5
5C1
  8
0
  0
BLOCK
  8
0
  2
BLOCK12
 70
     0
 10
0.0
 20
0.0
 30
0.0
  3
BLOCK12
  1

  0
LINE
  5
5C3
  8
0
 62
   251
 10
30.037125
 20
97.999984999999995
 30
0.0
 11
30.037125
 21
25.999984999999999
 31
0.0
  0
LINE
  5
5C4
  8
0
 62
   212
 10
27.237121999999989
 20
97.999984999999995
 30
0.0
 11
67.531342000000009
 21
97.999984999999995
 31
0.0
  0
LINE
  5
5C5
  8
0
 62
   212
 10
67.531311000000002
 20
97.999984999999995
 30
0.0
 11
197.23709099999999
 21
97.999984999999995
 31
0.0
  0
LINE
  5
5C6
  8
0
  6
DASHDOT
 62
   251
 10
16.407654000000001
 20
99.999984999999995
 30
0.0
 11
207.265411
 21
99.999984999999995
 31
0.0
  0
LINE
  5
5C7
  8
0
 62
   212
 10
186.566711
 20
99.999984999999995
 30
0.0
 11
186.737076
 21
99.999984999999995
 31
0.0
  0
LINE
  5
5C8
  8
0
 62
   251
 10
134.48710600000001
 20
29.500008000000001
 30
0.0
 11
126.237076
 21
29.499984999999992
 31
0.0
  0
LINE
  5
5C9
  8
0
 62
   251
 10
83.737105999999997
 20
33.999984999999988
 30
0.0
 11
124.237106
 21
33.999984999999988
 31
0.0
  0
LINE
  5
5CA
  8
0
 62
   251
 10
124.23716
 20
33.999953999999988
 30
0.0
 11
125.23716
 21
33.732009999999988
 31
0.0
  0
LINE
  5
5CB
  8
0
 62
   251
 10
125.23719799999991
 20
33.731971999999992
 30
0.0
 11
125.96925400000001
 21
32.999930999999997
 31
0.0
  0
LINE
  5
5CC
  8
0
 62
   251
 10
125.969131
 20
33.000038000000004
 30
0.0
 11
126.237076
 21
32.000022999999992
 31
0.0
  0
LINE
  5
5CD
  8
0
 62
   251
 10
83.737105999999997
 20
33.999984999999988
 30
0.0
 11
83.737105999999997
 21
25.999984999999999
 31
0.0
  0
LINE
  5
5CE
  8
0
 62
   251
 10
69.737091000000007
 20
27.000098999999992
 30
0.0
 11
68.737091000000007
 21
26.000022999999999
 31
0.0
  0
LINE
  5
5CF
  8
0
 62
   251
 10
80.737122000000014
 20
27.000076
 30
0.0
 11
81.737121999999999
 21
25.999984999999999
 31
0.0
  0
LINE
  5
5D0
  8
0
 62
   251
 10
80.737082999999984
 20
89.767898999999986
 30
0.0
 11
80.737114000000005
 21
27.000091999999999
 31
0.0
  0
LINE
  5
5D1
  8
0
 62
   251
 10
69.737106000000011
 20
89.767944000000014
 30
0.0
 11
69.737106000000011
 21
27.000076
 31
0.0
  0
LINE
  5
5D2
  8
0
 62
   251
 10
81.737076000000002
 20
93.499984999999995
 30
0.0
 11
80.737060999999997
 21
89.767898999999986
 31
0.0
  0
LINE
  5
5D3
  8
0
 62
   251
 10
82.674903999999984
 20
96.999984999999995
 30
0.0
 11
81.737068000000008
 21
93.499954000000002
 31
0.0
  0
LINE
  5
5D4
  8
0
 62
   251
 10
67.531342000000009
 20
97.999984999999995
 30
0.0
 11
69.737106000000011
 21
89.767944000000014
 31
0.0
  0
LINE
  5
5D5
  8
0
 62
   251
 10
85.031409999999994
 20
97.999968999999993
 30
0.0
 11
85.299355000000006
 21
96.999968999999993
 31
0.0
  0
LINE
  5
5D6
  8
0
 62
   251
 10
61.237091000000007
 20
97.999984999999995
 30
0.0
 11
61.237091000000007
 21
93.999984999999995
 31
0.0
  0
LINE
  5
5D7
  8
0
 62
   251
 10
30.037125
 20
93.999984999999995
 30
0.0
 11
61.237091000000007
 21
93.999984999999995
 31
0.0
  0
LINE
  5
5D8
  8
0
 62
   251
 10
67.79927099999999
 20
96.999984999999995
 30
0.0
 11
112.23709099999989
 21
96.999984999999995
 31
0.0
  0
LINE
  5
5D9
  8
0
 62
   251
 10
81.737106000000011
 20
93.499984999999995
 30
0.0
 11
106.737106
 21
93.499984999999995
 31
0.0
  0
LINE
  5
5DA
  8
0
 62
   251
 10
112.23709099999989
 20
97.999984999999995
 30
0.0
 11
112.23709099999989
 21
94.999984999999995
 31
0.0
  0
LINE
  5
5DB
  8
0
 62
   251
 10
112.237083
 20
94.999976999999987
 30
0.0
 11
112.0361249999999
 21
94.249968999999993
 31
0.0
  0
LINE
  5
5DC
  8
0
 62
   251
 10
112.237083
 20
94.999976999999987
 30
0.0
 11
112.0361249999999
 21
94.249968999999993
 31
0.0
  0
LINE
  5
5DD
  8
0
 62
   251
 10
112.0361179999999
 20
94.249977000000001
 30
0.0
 11
111.487076
 21
93.700943000000009
 31
0.0
  0
LINE
  5
5DE
  8
0
 62
   251
 10
111.487061
 20
93.700957999999986
 30
0.0
 11
110.737061
 21
93.499999999999986
 31
0.0
  0
LINE
  5
5DF
  8
0
 62
   251
 10
106.73709099999989
 20
93.499961999999996
 30
0.0
 11
110.737076
 21
93.499961999999996
 31
0.0
  0
LINE
  5
5E0
  8
0
 62
   251
 10
105.987083
 20
93.700935000000015
 30
0.0
 11
106.342461
 21
93.605712999999994
 31
0.0
  0
LINE
  5
5E1
  8
0
 62
   251
 10
106.34245300000001
 20
93.605712999999994
 30
0.0
 11
106.73709099999989
 21
93.499977000000015
 31
0.0
  0
LINE
  5
5E2
  8
0
 62
   251
 10
105.438011
 20
94.249984999999995
 30
0.0
 11
105.9870529999999
 21
93.700943000000009
 31
0.0
  0
LINE
  5
5E3
  8
0
 62
   251
 10
105.23706799999989
 20
94.999992000000006
 30
0.0
 11
105.43802599999999
 21
94.249992000000006
 31
0.0
  0
LINE
  5
5E4
  8
0
 62
   251
 10
105.23709100000001
 20
96.999984999999995
 30
0.0
 11
105.23709100000001
 21
94.999984999999995
 31
0.0
  0
LINE
  5
5E5
  8
0
 62
   212
 10
37.737090999999999
 20
99.999984999999995
 30
0.0
 11
37.737090999999999
 21
97.999984999999995
 31
0.0
  0
LINE
  5
5E6
  8
0
 62
   212
 10
186.737076
 20
99.999984999999995
 30
0.0
 11
186.737076
 21
97.999984999999995
 31
0.0
  0
LINE
  5
5E7
  8
0
 62
   212
 10
176.868729
 20
99.999984999999995
 30
0.0
 11
176.868729
 21
97.999984999999995
 31
0.0
  0
LINE
  5
5E8
  8
0
 62
   251
 10
70.237091000000007
 20
93.500007999999994
 30
0.0
 11
69.487091000000007
 21
90.700973999999988
 31
0.0
  0
LINE
  5
5E9
  8
0
 62
   251
 10
70.237106000000011
 20
93.500015000000005
 30
0.0
 11
80.237106000000011
 21
93.500015000000005
 31
0.0
  0
LINE
  5
5EA
  8
0
 62
   251
 10
80.237091000000007
 20
93.500015000000005
 30
0.0
 11
80.987091000000007
 21
90.700958
 31
0.0
  0
LINE
  5
5EB
  8
0
 62
   212
 10
47.521712999999991
 20
99.999984999999995
 30
0.0
 11
47.521712999999991
 21
97.999984999999995
 31
0.0
  0
LINE
  5
5EC
  8
0
 62
   212
 10
47.737090999999999
 20
99.999984999999995
 30
0.0
 11
47.737090999999999
 21
97.999984999999995
 31
0.0
  0
LINE
  5
5ED
  8
0
 62
   251
 10
105.45779399999989
 20
93.700935000000015
 30
0.0
 11
106.342468
 21
93.499968999999979
 31
0.0
  0
LINE
  5
5EE
  8
0
 62
   251
 10
106.342468
 20
93.605721000000003
 30
0.0
 11
106.342468
 21
93.499984999999995
 31
0.0
  0
LINE
  5
5EF
  8
0
 62
   251
 10
92.237082999999998
 20
93.633956999999995
 30
0.0
 11
92.336539999999985
 21
93.499984999999995
 31
0.0
  0
LINE
  5
5F0
  8
0
 62
   251
 10
92.286773999999994
 20
93.700943000000009
 30
0.0
 11
92.237044999999995
 21
93.633949000000015
 31
0.0
  0
LINE
  5
5F1
  8
0
 62
   251
 10
102.237106
 20
93.700943000000009
 30
0.0
 11
102.237106
 21
93.499984999999995
 31
0.0
  0
LINE
  5
5F2
  8
0
 62
   251
 10
96.187317000000007
 20
93.700951000000003
 30
0.0
 11
96.237044999999995
 21
93.633965000000003
 31
0.0
  0
LINE
  5
5F3
  8
0
 62
   251
 10
96.237076000000016
 20
93.633949000000015
 30
0.0
 11
96.137619000000001
 21
93.499977000000015
 31
0.0
  0
LINE
  5
5F4
  8
0
 62
   251
 10
104.56894699999989
 20
93.700951000000003
 30
0.0
 11
103.959175
 21
93.591774000000001
 31
0.0
  0
LINE
  5
5F5
  8
0
 62
   251
 10
103.9591829999999
 20
93.591774000000001
 30
0.0
 11
102.237106
 21
93.499984999999995
 31
0.0
  0
LINE
  5
5F6
  8
0
 62
   251
 10
92.389313000000001
 20
94.216308999999995
 30
0.0
 11
92.286804000000004
 21
93.700951000000003
 31
0.0
  0
LINE
  5
5F7
  8
0
 62
   251
 10
92.411827000000017
 20
94.249984999999995
 30
0.0
 11
92.389319999999998
 21
94.216308999999995
 31
0.0
  0
LINE
  5
5F8
  8
0
 62
   251
 10
96.062331999999998
 20
94.25
 30
0.0
 11
96.084839000000017
 21
94.216316000000006
 31
0.0
  0
LINE
  5
5F9
  8
0
 62
   251
 10
96.084830999999994
 20
94.216316000000006
 30
0.0
 11
96.187340000000006
 21
93.700957999999986
 31
0.0
  0
LINE
  5
5FA
  8
0
 62
   251
 10
102.237106
 20
94.249984999999995
 30
0.0
 11
102.237106
 21
93.700943000000009
 31
0.0
  0
LINE
  5
5FB
  8
0
 62
   251
 10
92.546088999999995
 20
94.999984999999995
 30
0.0
 11
92.411811999999983
 21
94.249984999999995
 31
0.0
  0
LINE
  5
5FC
  8
0
 62
   251
 10
95.928055000000001
 20
94.999992000000006
 30
0.0
 11
96.062331999999998
 21
94.249992000000006
 31
0.0
  0
LINE
  5
5FD
  8
0
 62
   251
 10
102.237106
 20
94.999984999999995
 30
0.0
 11
102.237106
 21
94.249984999999995
 31
0.0
  0
LINE
  5
5FE
  8
0
 62
   251
 10
95.928069999999977
 20
96.999984999999995
 30
0.0
 11
95.928069999999977
 21
94.999984999999995
 31
0.0
  0
LINE
  5
5FF
  8
0
 62
   251
 10
102.237106
 20
96.999984999999995
 30
0.0
 11
102.237106
 21
94.999984999999995
 31
0.0
  0
LINE
  5
600
  8
0
 62
   251
 10
92.546111999999994
 20
96.999984999999995
 30
0.0
 11
92.546111999999994
 21
94.999984999999995
 31
0.0
  0
LINE
  5
601
  8
0
 62
   212
 10
197.23710600000001
 20
97.999984999999995
 30
0.0
 11
197.23710600000001
 21
0.999985
 31
0.0
  0
LINE
  5
602
  8
0
 62
   251
 10
194.437119
 20
97.999984999999995
 30
0.0
 11
194.437119
 21
3.799987999999999
 31
0.0
  0
LINE
  5
603
  8
0
 62
   251
 10
30.037125
 20
25.999984999999999
 30
0.0
 11
30.037125
 21
3.799987999999999
 31
0.0
  0
LINE
  5
604
  8
0
 62
   212
 10
27.237121999999989
 20
25.999984999999999
 30
0.0
 11
27.237121999999989
 21
0.999985
 31
0.0
  0
LINE
  5
605
  8
0
 62
   251
 10
27.237121999999989
 20
25.999984999999999
 30
0.0
 11
69.487106000000011
 21
25.999984999999999
 31
0.0
  0
LINE
  5
606
  8
0
 62
   251
 10
80.987091000000007
 20
25.999984999999999
 30
0.0
 11
83.737167000000014
 21
25.999984999999999
 31
0.0
  0
LINE
  5
607
  8
0
 62
   251
 10
134.48710600000001
 20
25.999984999999999
 30
0.0
 11
197.23710600000001
 21
25.999984999999999
 31
0.0
  0
LINE
  5
608
  8
0
 62
   212
 10
125.1859739999999
 20
-3.5000149999999999
 30
0.0
 11
134.736786
 21
-3.5000149999999999
 31
0.0
  0
LINE
  5
609
  8
0
 62
   212
 10
74.287529000000006
 20
-3.499962
 30
0.0
 11
67.736808999999994
 21
-3.5000079999999998
 31
0.0
  0
LINE
  5
60A
  8
0
 62
   212
 10
172.98710600000001
 20
0.999985
 30
0.0
 11
197.23710600000001
 21
0.999985
 31
0.0
  0
LINE
  5
60B
  8
0
 62
   251
 10
180.98712199999991
 20
3.799987999999999
 30
0.0
 11
180.98712199999991
 21
0.999985
 31
0.0
  0
LINE
  5
60C
  8
0
 62
   212
 10
27.237121999999989
 20
0.999985
 30
0.0
 11
51.987121999999999
 21
0.999985
 31
0.0
  0
LINE
  5
60D
  8
0
 62
   251
 10
43.487121999999999
 20
3.799987999999999
 30
0.0
 11
43.487121999999999
 21
0.999985
 31
0.0
  0
LINE
  5
60E
  8
0
 62
   251
 10
30.037125
 20
3.799987999999999
 30
0.0
 11
51.987124999999999
 21
3.799987999999999
 31
0.0
  0
LINE
  5
60F
  8
0
 62
   251
 10
80.987106000000026
 20
25.999984999999999
 30
0.0
 11
80.987106000000026
 21
3.799987999999999
 31
0.0
  0
LINE
  5
610
  8
0
 62
   251
 10
69.487106000000011
 20
25.999984999999999
 30
0.0
 11
69.487106000000011
 21
3.799987999999999
 31
0.0
  0
LINE
  5
611
  8
0
 62
   212
 10
172.98710600000001
 20
3.799987999999999
 30
0.0
 11
172.98710600000001
 21
-1.500014999999999
 31
0.0
  0
LINE
  5
612
  8
0
 62
   212
 10
51.987121999999999
 20
1.4999849999999999
 30
0.0
 11
51.987121999999999
 21
0.999985
 31
0.0
  0
LINE
  5
613
  8
0
 62
   212
 10
51.987124999999999
 20
3.799987999999999
 30
0.0
 11
51.987121999999999
 21
-1.500014999999999
 31
0.0
  0
LINE
  5
614
  8
0
 62
   212
 10
57.487105999999997
 20
-3.5013279999999991
 30
0.0
 11
162.48710600000001
 21
-3.5013279999999991
 31
0.0
  0
LINE
  5
615
  8
0
 62
   212
 10
162.48710600000001
 20
-1.500014999999999
 30
0.0
 11
162.48710600000001
 21
-7.0011830000000002
 31
0.0
  0
LINE
  5
616
  8
0
 62
   212
 10
57.487105999999997
 20
-1.500014999999999
 30
0.0
 11
57.487105999999997
 21
-7.0011830000000002
 31
0.0
  0
LINE
  5
617
  8
0
 62
   251
 10
126.237076
 20
32.000022999999992
 30
0.0
 11
126.237076
 21
29.499991999999999
 31
0.0
  0
LINE
  5
618
  8
0
 62
   212
 10
162.48710600000001
 20
-1.500014999999999
 30
0.0
 11
172.98710600000001
 21
-1.500014999999999
 31
0.0
  0
LINE
  5
619
  8
0
 62
   212
 10
51.987121999999999
 20
-1.500014999999999
 30
0.0
 11
57.487105999999997
 21
-1.500014999999999
 31
0.0
  0
LINE
  5
61A
  8
0
 62
   251
 10
172.98710600000001
 20
3.799987999999999
 30
0.0
 11
194.437119
 21
3.799987999999999
 31
0.0
  0
LINE
  5
61B
  8
0
 62
   212
 10
51.987124999999999
 20
3.799987999999999
 30
0.0
 11
172.98710600000001
 21
3.799987999999999
 31
0.0
  0
LINE
  5
61C
  8
0
  6
DASHDOT
 62
   251
 10
16.407654000000001
 20
102.999985
 30
0.0
 11
207.265411
 21
102.999985
 31
0.0
  0
LINE
  5
61D
  8
0
 62
   212
 10
197.23709099999999
 20
97.999984999999995
 30
0.0
 11
197.23709099999999
 21
96.499984999999995
 31
0.0
  0
LINE
  5
61E
  8
0
  6
DASHDOT
 62
   251
 10
109.987106
 20
120.6786799999999
 30
0.0
 11
109.987106
 21
-41.206665000000001
 31
0.0
  0
LINE
  5
61F
  8
0
 62
   212
 10
27.237121999999989
 20
97.999984999999995
 30
0.0
 11
27.237121999999989
 21
96.499984999999995
 31
0.0
  0
LINE
  5
620
  8
0
 62
   212
 10
27.237106000000001
 20
80.999984999999995
 30
0.0
 11
27.237106000000001
 21
77.999984999999995
 31
0.0
  0
LINE
  5
621
  8
0
 62
   212
 10
27.237121999999989
 20
97.999984999999995
 30
0.0
 11
27.237121999999989
 21
25.999984999999999
 31
0.0
  0
LINE
  5
622
  8
0
  6
DASHDOT
 62
   251
 10
181.73710600000001
 20
118.73474899999999
 30
0.0
 11
181.73710600000001
 21
95.274437000000006
 31
0.0
  0
LINE
  5
623
  8
0
 62
   212
 10
177.73710600000001
 20
106.999985
 30
0.0
 11
185.73710600000001
 21
106.999985
 31
0.0
  0
LINE
  5
624
  8
0
 62
   212
 10
177.73710600000001
 20
106.999985
 30
0.0
 11
177.73710600000001
 21
102.999985
 31
0.0
  0
LINE
  5
625
  8
0
 62
   212
 10
185.73710600000001
 20
106.999985
 30
0.0
 11
185.73710600000001
 21
102.999985
 31
0.0
  0
LINE
  5
626
  8
0
 62
   212
 10
179.23710600000001
 20
110.999985
 30
0.0
 11
184.2371059999999
 21
110.999985
 31
0.0
  0
LINE
  5
627
  8
0
 62
   212
 10
184.2371059999999
 20
110.999985
 30
0.0
 11
184.2371059999999
 21
102.999985
 31
0.0
  0
LINE
  5
628
  8
0
 62
   212
 10
179.23710600000001
 20
110.999985
 30
0.0
 11
179.23710600000001
 21
102.999985
 31
0.0
  0
LINE
  5
629
  8
0
 62
   212
 10
46.73710599999999
 20
106.999985
 30
0.0
 11
46.73710599999999
 21
102.999985
 31
0.0
  0
LINE
  5
62A
  8
0
 62
   212
 10
45.237105999999997
 20
110.999985
 30
0.0
 11
45.237105999999997
 21
102.999985
 31
0.0
  0
LINE
  5
62B
  8
0
  6
DASHDOT
 62
   251
 10
42.737105999999997
 20
118.73474899999999
 30
0.0
 11
42.737105999999997
 21
95.274437000000006
 31
0.0
  0
LINE
  5
62C
  8
0
 62
   212
 10
40.237105999999997
 20
110.999985
 30
0.0
 11
40.237105999999997
 21
102.999985
 31
0.0
  0
LINE
  5
62D
  8
0
 62
   212
 10
38.73710599999999
 20
106.999985
 30
0.0
 11
38.73710599999999
 21
102.999985
 31
0.0
  0
LINE
  5
62E
  8
0
 62
   212
 10
38.73710599999999
 20
106.999985
 30
0.0
 11
46.73710599999999
 21
106.999985
 31
0.0
  0
LINE
  5
62F
  8
0
 62
   212
 10
40.237105999999997
 20
110.999985
 30
0.0
 11
45.237105999999997
 21
110.999985
 31
0.0
  0
CIRCLE
  5
630
  8
0
 62
   212
 10
180.45166
 20
105.6682429999999
 30
0.0
 40
0.2
  0
LINE
  5
631
  8
0
 62
   251
 10
134.48710600000001
 20
29.500008000000001
 30
0.0
 11
134.48710600000001
 21
25.999984999999999
 31
0.0
  0
ENDBLK
  5
632
  8
0
  0
BLOCK
  8
0
  2
BLOCK13
 70
     0
 10
0.0
 20
0.0
 30
0.0
  3
BLOCK13
  1

  0
TEXT
  5
634
  8
0
 62
    52
 10
106.78177599999999
 20
-157.98628199999999
 30
0.0
 40
3.0
  1
X
 50
269.99981769499811
 41
0.9777764444493921
 72
     5
 11
106.781769
 21
-160.18627900000001
 31
0.0
  0
ENDBLK
  5
635
  8
0
  0
BLOCK
  8
0
  2
BLOCK14
 70
     0
 10
0.0
 20
0.0
 30
0.0
  3
BLOCK14
  1

  0
TEXT
  5
637
  8
0
 62
    52
 10
250.10810900000001
 20
-80.492455000000007
 30
0.0
 40
3.0
  1
49,5
 50
270.0
 41
1.424721795344708
 72
     5
 11
250.10810900000001
 21
-90.942429000000004
 31
0.0
  0
ENDBLK
  5
638
  8
0
  0
BLOCK
  8
0
  2
BLOCK15
 70
     0
 10
0.0
 20
0.0
 30
0.0
  3
BLOCK15
  1

  0
TEXT
  5
63A
  8
0
 62
    52
 10
250.10810900000001
 20
-148.4766239999999
 30
0.0
 40
3.0
  1
22
 50
270.0
 41
1.2594841890680319
 72
     5
 11
250.10810900000001
 21
-153.4266199999999
 31
0.0
  0
ENDBLK
  5
63B
  8
0
  0
BLOCK
  8
0
  2
BLOCK16
 70
     0
 10
0.0
 20
0.0
 30
0.0
  3
BLOCK16
  1

  0
TEXT
  5
63D
  8
0
 62
    52
 10
28.197489000000001
 20
-76.992431999999994
 30
0.0
 40
3.0
  1
2
 50
270.0
 41
1.202067778817512
 72
     5
 11
28.197489000000001
 21
-79.192429000000004
 31
0.0
  0
ENDBLK
  5
63E
  8
0
  0
BLOCK
  8
0
  2
BLOCK17
 70
     0
 10
0.0
 20
0.0
 30
0.0
  3
BLOCK17
  1

  0
TEXT
  5
640
  8
0
 62
    52
 10
250.10810900000001
 20
65.437484999999995
 30
0.0
 40
3.0
  1
103,5
 50
270.0
 41
1.5485159649675879
 72
     5
 11
250.10810900000001
 21
52.237526000000003
 31
0.0
  0
ENDBLK
  5
641
  8
0
  0
BLOCK
  8
0
  2
BLOCK18
 70
     0
 10
0.0
 20
0.0
 30
0.0
  3
BLOCK18
  1

  0
TEXT
  5
643
  8
0
 62
    52
 10
191.26518200000001
 20
-72.238060000000004
 30
0.0
 40
3.0
  1
19
 50
270.0
 41
1.471117980109746
 72
     5
 11
191.26518200000001
 21
-77.188048999999992
 31
0.0
  0
ENDBLK
  5
644
  8
0
  0
BLOCK
  8
0
  2
BLOCK19
 70
     0
 10
0.0
 20
0.0
 30
0.0
  3
BLOCK19
  1

  0
TEXT
  5
646
  8
0
 62
    52
 10
228.32371499999999
 20
-4.0116120000000004
 30
0.0
 40
3.0
  1
17
 50
270.0
 41
1.5714253968253971
 72
     5
 11
228.32371499999999
 21
-8.9616019999999992
 31
0.0
  0
ENDBLK
  5
647
  8
0
  0
BLOCK
  8
0
  2
BLOCK20
 70
     0
 10
0.0
 20
0.0
 30
0.0
  3
BLOCK20
  1

  0
TEXT
  5
649
  8
0
 62
    52
 10
-35.02216
 20
35.936793999999999
 30
0.0
 40
3.0
  1
162,5
 50
270.00001736241001
 41
1.5485160822798401
 72
     5
 11
-35.022156000000003
 21
22.736833999999991
 31
0.0
  0
ENDBLK
  5
64A
  8
0
  0
BLOCK
  8
0
  2
BLOCK21
 70
     0
 10
0.0
 20
0.0
 30
0.0
  3
BLOCK21
  1

  0
TEXT
  5
64C
  8
0
 62
    52
 10
18.573975000000001
 20
106.961662
 30
0.0
 40
3.0
  1
X
 41
0.9777777777777773
 72
     5
 11
20.773975
 21
106.961662
 31
0.0
  0
ENDBLK
  5
64D
  8
0
  0
BLOCK
  8
0
  2
BLOCK22
 70
     0
 10
0.0
 20
0.0
 30
0.0
  3
BLOCK22
  1

  0
TEXT
  5
64F
  8
0
 62
    52
 10
204.63523900000001
 20
106.25141099999991
 30
0.0
 40
3.0
  1
X
 41
0.9777764444444551
 72
     5
 11
206.83523600000001
 21
106.25141099999991
 31
0.0
  0
ENDBLK
  5
650
  8
0
  0
BLOCK
  8
0
  2
BLOCK23
 70
     0
 10
0.0
 20
0.0
 30
0.0
  3
BLOCK23
  1

  0
TEXT
  5
652
  8
0
 62
    52
 10
117.74086
 20
11.379989999999991
 30
0.0
 40
3.0
  1
Y
 41
0.9777764444444427
 72
     5
 11
119.94085699999999
 21
11.379989999999991
 31
0.0
  0
ENDBLK
  5
653
  8
0
  0
BLOCK
  8
0
  2
BLOCK24
 70
     0
 10
0.0
 20
0.0
 30
0.0
  3
BLOCK24
  1

  0
TEXT
  5
655
  8
0
 62
    52
 10
96.337967000000006
 20
174.62785299999999
 30
0.0
 40
3.0
  1
26
 41
1.269612446733313
 72
     5
 11
101.28795599999999
 21
174.62785299999999
 31
0.0
  0
ENDBLK
  5
656
  8
0
  0
BLOCK
  8
0
  2
BLOCK25
 70
     0
 10
0.0
 20
0.0
 30
0.0
  3
BLOCK25
  1

  0
TEXT
  5
658
  8
0
 62
    52
 10
38.539169000000001
 20
102.86919399999989
 30
0.0
 40
3.0
  1
=
 50
90.0
 41
1.3333315151515119
 72
     5
 11
38.539169000000001
 21
105.0691909999999
 31
0.0
  0
ENDBLK
  5
659
  8
0
  0
BLOCK
  8
0
  2
BLOCK26
 70
     0
 10
0.0
 20
0.0
 30
0.0
  3
BLOCK26
  1

  0
TEXT
  5
65B
  8
0
 62
    52
 10
38.539169000000001
 20
127.49627700000001
 30
0.0
 40
3.0
  1
=
 50
90.0
 41
1.3333315151515031
 72
     5
 11
38.539169000000001
 21
129.6962739999999
 31
0.0
  0
ENDBLK
  5
65C
  8
0
  0
BLOCK
  8
0
  2
BLOCK27
 70
     0
 10
0.0
 20
0.0
 30
0.0
  3
BLOCK27
  1

  0
TEXT
  5
65E
  8
0
 62
    52
 10
181.89482100000001
 20
125.035957
 30
0.0
 40
3.0
  1
46
 50
90.0
 41
1.178900571964369
 72
     5
 11
181.89482100000001
 21
129.98594700000001
 31
0.0
  0
ENDBLK
  5
65F
  8
0
  0
BLOCK
  8
0
  2
BLOCK28
 70
     0
 10
0.0
 20
0.0
 30
0.0
  3
BLOCK28
  1

  0
TEXT
  5
661
  8
0
 62
    52
 10
69.843979000000004
 20
52.912979
 30
0.0
 40
3.0
  1
27
 41
1.3199970666666669
 72
     5
 11
74.793968000000007
 21
52.912979
 31
0.0
  0
ENDBLK
  5
662
  8
0
  0
BLOCK
  8
0
  2
BLOCK29
 70
     0
 10
0.0
 20
0.0
 30
0.0
  3
BLOCK29
  1

  0
TEXT
  5
664
  8
0
 62
    52
 10
83.350005999999993
 20
40.776566000000003
 30
0.0
 40
3.0
  1
54
 41
1.222219506172836
 72
     5
 11
88.299994999999996
 21
40.776566000000003
 31
0.0
  0
ENDBLK
  5
665
  8
0
  0
BLOCK
  8
0
  2
BLOCK30
 70
     0
 10
0.0
 20
0.0
 30
0.0
  3
BLOCK30
  1

  0
TEXT
  5
667
  8
0
 62
    52
 10
83.337967000000006
 20
92.680343999999991
 30
0.0
 40
3.0
  1
33
 41
1.2776591662854091
 72
     5
 11
88.287956000000008
 21
92.680343999999991
 31
0.0
  0
ENDBLK
  5
668
  8
0
  0
BLOCK
  8
0
  2
BLOCK31
 70
     0
 10
0.0
 20
0.0
 30
0.0
  3
BLOCK31
  1

  0
TEXT
  5
66A
  8
0
 62
    52
 10
101.849991
 20
163.12281799999991
 30
0.0
 40
3.0
  1
5
 41
1.2399490238209789
 72
     5
 11
104.049988
 21
163.12281799999991
 31
0.0
  0
ENDBLK
  5
66B
  8
0
  0
BLOCK
  8
0
  2
BLOCK32
 70
     0
 10
0.0
 20
0.0
 30
0.0
  3
BLOCK32
  1

  0
TEXT
  5
66D
  8
0
 62
    52
 10
106.368454
 20
26.956482000000001
 30
0.0
 40
3.0
  1
R min.200
 41
1.5075613602138671
 72
     5
 11
130.568375
 21
26.956482000000001
 31
0.0
  0
ENDBLK
  5
66E
  8
0
  0
BLOCK
  8
0
  2
BLOCK33
 70
     0
 10
0.0
 20
0.0
 30
0.0
  3
BLOCK33
  1

  0
TEXT
  5
670
  8
0
 62
    52
 10
144.18879699999991
 20
121.8894649999999
 30
0.0
 40
3.0
  1
11,5
 50
90.0
 41
1.7942124321143811
 72
     5
 11
144.18879699999991
 21
132.33943199999999
 31
0.0
  0
ENDBLK
  5
671
  8
0
  0
BLOCK
  8
0
  2
BLOCK34
 70
     0
 10
0.0
 20
0.0
 30
0.0
  3
BLOCK34
  1

  0
TEXT
  5
673
  8
0
 62
    52
 10
116.7888639999999
 20
191.41352800000001
 30
0.0
 40
3.0
  1
Y
 41
0.9777764444444553
 72
     5
 11
118.988861
 21
191.41352800000001
 31
0.0
  0
ENDBLK
  5
674
  8
0
  0
BLOCK
  8
0
  2
BLOCK35
 70
     0
 10
0.0
 20
0.0
 30
0.0
  3
BLOCK35
  1

  0
TEXT
  5
676
  8
0
 62
    52
 10
-442.15213
 20
-46.0
 30
0.0
 40
2.0
  1
N0204 2007-09-17
 50
179.9999903280877
 41
1.101769307340638
 72
     5
 11
-465.84786999999989
 21
-45.999996000000003
 31
0.0
  0
ENDBLK
  5
677
  8
0
  0
BLOCK
  8
0
  2
BLOCK36
 70
     0
 10
0.0
 20
0.0
 30
0.0
  3
BLOCK36
  1

  0
TEXT
  5
679
  8
0
 62
    52
 10
-471.0
 20
-36.0
 30
0.0
 40
4.0
  1
1SDH000637R0.115
 50
180.0
 41
1.4121732172344621
 72
     5
 11
-530.26281700000004
 21
-36.0
 31
0.0
  0
ENDBLK
  5
67A
  8
0
  0
BLOCK
  8
0
  2
BLOCK37
 70
     0
 10
0.0
 20
0.0
 30
0.0
  3
BLOCK37
  1

  0
TEXT
  5
67C
  8
0
 62
    52
 10
-498.0
 20
-46.0
 30
0.0
 40
3.0
  1
Ts3
 50
180.0
 41
1.2257674620974599
 72
     5
 11
-505.69998199999998
 21
-46.0
 31
0.0
  0
ENDBLK
  5
67D
  8
0
  0
BLOCK
  8
0
  2
BLOCK38
 70
     0
 10
0.0
 20
0.0
 30
0.0
  3
BLOCK38
  1

  0
TEXT
  5
67F
  8
0
 62
    52
 10
-482.0
 20
-58.0
 30
0.0
 40
2.0
  1
APPLICAZIONE MANIGLIA ROTANTE
 50
179.99999363517259
 41
0.8847113267813332
 72
     5
 11
-518.00775099999998
 21
-57.999995999999989
 31
0.0
  0
ENDBLK
  5
680
  8
0
  0
BLOCK
  8
0
  2
BLOCK39
 70
     0
 10
0.0
 20
0.0
 30
0.0
  3
BLOCK39
  1

  0
TEXT
  5
682
  8
0
 62
    52
 10
-479.0
 20
-55.0
 30
0.0
 40
2.0
  1
A DISTANZA REGOLABILE SERIE ISOMAX
 50
179.99999457671481
 41
0.8972206794055249
 72
     5
 11
-521.259094
 21
-54.999995999999989
 31
0.0
  0
ENDBLK
  5
683
  8
0
  0
BLOCK
  8
0
  2
BLOCK40
 70
     0
 10
0.0
 20
0.0
 30
0.0
  3
BLOCK40
  1

  0
TEXT
  5
685
  8
0
 62
    52
 10
-473.0
 20
-66.0
 30
0.0
 40
2.0
  1
ROTARY HANDLE OPERATING MECHANISM APPLICATION
 50
179.99999181664569
 41
0.8630512172573293
 72
     5
 11
-529.012024
 21
-65.999992000000006
 31
0.0
  0
ENDBLK
  5
686
  8
0
  0
BLOCK
  8
0
  2
BLOCK41
 70
     0
 10
0.0
 20
0.0
 30
0.0
  3
BLOCK41
  1

  0
TEXT
  5
688
  8
0
 62
    52
 10
-477.0
 20
-63.0
 30
0.0
 40
2.0
  1
WITH ADJUSTABLE DEPTH ON ISOMAX SERIES
 50
179.9999951506035
 41
0.8787806610873312
 72
     5
 11
-524.260132
 21
-62.999995999999989
 31
0.0
  0
ENDBLK
  5
689
  8
0
  0
BLOCK
  8
0
  2
BLOCK42
 70
     0
 10
0.0
 20
0.0
 30
0.0
  3
BLOCK42
  1

  0
TEXT
  5
68B
  8
0
 62
    52
 10
-112.62796
 20
140.7373959999999
 30
0.0
 40
3.0
  1
R min.200
 50
180.0
 41
1.5075613602138671
 72
     5
 11
-136.82788099999999
 21
140.7373959999999
 31
0.0
  0
ENDBLK
  5
68C
  8
0
  0
BLOCK
  8
0
  2
BLOCK43
 70
     0
 10
0.0
 20
0.0
 30
0.0
  3
BLOCK43
  1

  0
TEXT
  5
68E
  8
0
 62
    52
 10
-113.0
 20
133.0
 30
0.0
 40
3.0
  1
Y
 50
180.0
 41
0.9777764444444427
 72
     5
 11
-115.199997
 21
133.0
 31
0.0
  0
ENDBLK
  5
68F
  8
0
  0
BLOCK
  8
0
  2
BLOCK44
 70
     0
 10
0.0
 20
0.0
 30
0.0
  3
BLOCK44
  1

  0
TEXT
  5
691
  8
0
 62
    52
 10
-113.0
 20
20.0
 30
0.0
 40
3.0
  1
Y
 50
180.0
 41
0.9777764444444427
 72
     5
 11
-115.199997
 21
20.0
 31
0.0
  0
ENDBLK
  5
692
  8
0
  0
BLOCK
  8
0
  2
BLOCK45
 70
     0
 10
0.0
 20
0.0
 30
0.0
  3
BLOCK45
  1

  0
LINE
  5
694
  8
0
 62
   251
 10
-30.037178000000001
 20
4.9986889999999988
 30
0.0
 11
-30.037178000000001
 21
76.998688000000001
 31
0.0
  0
LINE
  5
695
  8
0
 62
   212
 10
-27.237175000000001
 20
4.9986889999999988
 30
0.0
 11
-67.531386999999995
 21
4.9986889999999988
 31
0.0
  0
LINE
  5
696
  8
0
 62
   212
 10
-67.531363999999996
 20
4.9986889999999988
 30
0.0
 11
-197.23715200000001
 21
4.9986889999999988
 31
0.0
  0
LINE
  5
697
  8
0
  6
DASHDOT
 62
   251
 10
-16.407706999999998
 20
2.9986890000000002
 30
0.0
 11
-207.26547199999999
 21
2.9986890000000002
 31
0.0
  0
LINE
  5
698
  8
0
 62
   212
 10
-186.5667719999999
 20
2.9986890000000002
 30
0.0
 11
-186.737122
 21
2.9986890000000002
 31
0.0
  0
LINE
  5
699
  8
0
 62
   251
 10
-134.48715200000001
 20
73.498665000000003
 30
0.0
 11
-126.237137
 21
73.498688000000001
 31
0.0
  0
LINE
  5
69A
  8
0
 62
   251
 10
-83.737159999999989
 20
68.998688000000001
 30
0.0
 11
-124.23716
 21
68.998688000000001
 31
0.0
  0
LINE
  5
69B
  8
0
 62
   251
 10
-124.2372129999999
 20
68.998718000000011
 30
0.0
 11
-125.2372129999999
 21
69.266662999999994
 31
0.0
  0
LINE
  5
69C
  8
0
 62
   251
 10
-125.237251
 20
69.266700999999983
 30
0.0
 11
-125.9693069999999
 21
69.99874100000001
 31
0.0
  0
LINE
  5
69D
  8
0
 62
   251
 10
-125.969193
 20
69.998633999999996
 30
0.0
 11
-126.237137
 21
70.998649999999998
 31
0.0
  0
LINE
  5
69E
  8
0
 62
   251
 10
-83.737159999999989
 20
68.998688000000001
 30
0.0
 11
-83.737159999999989
 21
76.998688000000001
 31
0.0
  0
LINE
  5
69F
  8
0
 62
   251
 10
-69.737144000000001
 20
75.998572999999993
 30
0.0
 11
-68.737144000000001
 21
76.998649999999984
 31
0.0
  0
LINE
  5
6A0
  8
0
 62
   251
 10
-80.737166999999999
 20
75.998595999999992
 30
0.0
 11
-81.737166999999985
 21
76.998688000000001
 31
0.0
  0
LINE
  5
6A1
  8
0
 62
   251
 10
-80.737137000000004
 20
13.23077399999999
 30
0.0
 11
-80.737166999999999
 21
75.998581000000001
 31
0.0
  0
LINE
  5
6A2
  8
0
 62
   251
 10
-69.737160000000003
 20
13.230726999999989
 30
0.0
 11
-69.737160000000003
 21
75.998595999999992
 31
0.0
  0
LINE
  5
6A3
  8
0
 62
   251
 10
-81.73712900000001
 20
9.498685
 30
0.0
 11
-80.737114000000005
 21
13.230769
 31
0.0
  0
LINE
  5
6A4
  8
0
 62
   251
 10
-82.674956999999992
 20
5.998683999999999
 30
0.0
 11
-81.737121999999999
 21
9.4987159999999982
 31
0.0
  0
LINE
  5
6A5
  8
0
 62
   251
 10
-67.531394999999989
 20
4.998689999999999
 30
0.0
 11
-69.737160000000003
 21
13.230729
 31
0.0
  0
LINE
  5
6A6
  8
0
 62
   251
 10
-85.031464
 20
4.9987019999999989
 30
0.0
 11
-85.299408
 21
5.9986990000000002
 31
0.0
  0
LINE
  5
6A7
  8
0
 62
   251
 10
-61.237143999999986
 20
4.9986889999999988
 30
0.0
 11
-61.237143999999986
 21
8.9986880000000014
 31
0.0
  0
LINE
  5
6A8
  8
0
 62
   251
 10
-30.037178000000001
 20
8.9986880000000014
 30
0.0
 11
-61.237143999999986
 21
8.9986880000000014
 31
0.0
  0
LINE
  5
6A9
  8
0
 62
   251
 10
-67.799323999999984
 20
5.9986889999999988
 30
0.0
 11
-112.2371439999999
 21
5.9986889999999988
 31
0.0
  0
LINE
  5
6AA
  8
0
 62
   251
 10
-81.737160000000003
 20
9.4986899999999999
 30
0.0
 11
-106.7371599999999
 21
9.4986899999999999
 31
0.0
  0
LINE
  5
6AB
  8
0
 62
   251
 10
-112.2371439999999
 20
4.9986879999999987
 30
0.0
 11
-112.2371439999999
 21
7.9986869999999994
 31
0.0
  0
LINE
  5
6AC
  8
0
 62
   251
 10
-112.2371369999999
 20
7.9986979999999992
 30
0.0
 11
-112.036179
 21
8.7486990000000002
 31
0.0
  0
LINE
  5
6AD
  8
0
 62
   251
 10
-112.2371369999999
 20
7.9986979999999992
 30
0.0
 11
-112.036179
 21
8.7486990000000002
 31
0.0
  0
LINE
  5
6AE
  8
0
 62
   251
 10
-112.036171
 20
8.7486929999999994
 30
0.0
 11
-111.487129
 21
9.2977299999999996
 31
0.0
  0
LINE
  5
6AF
  8
0
 62
   251
 10
-111.48711399999991
 20
9.2977129999999981
 30
0.0
 11
-110.73711399999991
 21
9.4986740000000012
 31
0.0
  0
LINE
  5
6B0
  8
0
 62
   251
 10
-106.737144
 20
9.4987070000000013
 30
0.0
 11
-110.737129
 21
9.4987070000000013
 31
0.0
  0
LINE
  5
6B1
  8
0
 62
   251
 10
-105.9871369999999
 20
9.2977350000000012
 30
0.0
 11
-106.34251399999989
 21
9.3929580000000001
 31
0.0
  0
LINE
  5
6B2
  8
0
 62
   251
 10
-106.3425059999999
 20
9.3929559999999999
 30
0.0
 11
-106.737144
 21
9.4986940000000004
 31
0.0
  0
LINE
  5
6B3
  8
0
 62
   251
 10
-105.4380649999999
 20
8.7486890000000006
 30
0.0
 11
-105.987106
 21
9.2977279999999993
 31
0.0
  0
LINE
  5
6B4
  8
0
 62
   251
 10
-105.2371219999999
 20
7.9986759999999988
 30
0.0
 11
-105.43808
 21
8.7486759999999997
 31
0.0
  0
LINE
  5
6B5
  8
0
 62
   251
 10
-105.2371439999999
 20
5.9986889999999988
 30
0.0
 11
-105.2371439999999
 21
7.9986879999999996
 31
0.0
  0
LINE
  5
6B6
  8
0
 62
   212
 10
-37.737144000000001
 20
2.9986890000000002
 30
0.0
 11
-37.737144000000001
 21
4.9986889999999988
 31
0.0
  0
LINE
  5
6B7
  8
0
 62
   212
 10
-186.737122
 20
2.9986890000000002
 30
0.0
 11
-186.737122
 21
4.9986889999999988
 31
0.0
  0
LINE
  5
6B8
  8
0
 62
   212
 10
-176.868774
 20
2.9986890000000002
 30
0.0
 11
-176.868774
 21
4.9986889999999988
 31
0.0
  0
LINE
  5
6B9
  8
0
 62
   251
 10
-70.237152000000009
 20
9.4986660000000001
 30
0.0
 11
-69.487152000000009
 21
12.297701999999999
 31
0.0
  0
LINE
  5
6BA
  8
0
 62
   251
 10
-70.237160000000003
 20
9.4986549999999994
 30
0.0
 11
-80.237160000000003
 21
9.4986549999999994
 31
0.0
  0
LINE
  5
6BB
  8
0
 62
   251
 10
-80.237144000000015
 20
9.4986560000000004
 30
0.0
 11
-80.987144000000001
 21
12.297715999999999
 31
0.0
  0
LINE
  5
6BC
  8
0
 62
   212
 10
-47.52176699999999
 20
2.9986890000000002
 30
0.0
 11
-47.52176699999999
 21
4.9986889999999988
 31
0.0
  0
LINE
  5
6BD
  8
0
 62
   212
 10
-47.737144000000001
 20
2.9986890000000002
 30
0.0
 11
-47.737144000000001
 21
4.9986889999999988
 31
0.0
  0
LINE
  5
6BE
  8
0
 62
   251
 10
-105.4578479999999
 20
9.2977389999999982
 30
0.0
 11
-106.342522
 21
9.4986990000000002
 31
0.0
  0
LINE
  5
6BF
  8
0
 62
   251
 10
-106.342522
 20
9.3929500000000008
 30
0.0
 11
-106.342522
 21
9.4986880000000014
 31
0.0
  0
LINE
  5
6C0
  8
0
 62
   251
 10
-92.237137000000004
 20
9.364711999999999
 30
0.0
 11
-92.336593999999977
 21
9.498683999999999
 31
0.0
  0
LINE
  5
6C1
  8
0
 62
   251
 10
-92.286827000000002
 20
9.2977319999999999
 30
0.0
 11
-92.237099000000015
 21
9.3647210000000012
 31
0.0
  0
LINE
  5
6C2
  8
0
 62
   251
 10
-102.23716
 20
9.2977279999999993
 30
0.0
 11
-102.23716
 21
9.4986880000000014
 31
0.0
  0
LINE
  5
6C3
  8
0
 62
   251
 10
-96.187370000000016
 20
9.2977220000000003
 30
0.0
 11
-96.237099000000015
 21
9.3647109999999998
 31
0.0
  0
LINE
  5
6C4
  8
0
 62
   251
 10
-96.23712900000001
 20
9.3647200000000002
 30
0.0
 11
-96.137671999999995
 21
9.4986929999999994
 31
0.0
  0
LINE
  5
6C5
  8
0
 62
   251
 10
-104.569
 20
9.2977220000000003
 30
0.0
 11
-103.95922899999999
 21
9.4068950000000005
 31
0.0
  0
LINE
  5
6C6
  8
0
 62
   251
 10
-103.959236
 20
9.4069000000000003
 30
0.0
 11
-102.23716
 21
9.4986880000000014
 31
0.0
  0
LINE
  5
6C7
  8
0
 62
   251
 10
-92.389365999999995
 20
8.7823630000000001
 30
0.0
 11
-92.286857999999995
 21
9.2977229999999995
 31
0.0
  0
LINE
  5
6C8
  8
0
 62
   251
 10
-92.411880000000011
 20
8.7486870000000003
 30
0.0
 11
-92.389374000000004
 21
8.7823659999999997
 31
0.0
  0
LINE
  5
6C9
  8
0
 62
   251
 10
-96.062386000000004
 20
8.7486719999999991
 30
0.0
 11
-96.084892000000011
 21
8.7823520000000013
 31
0.0
  0
LINE
  5
6CA
  8
0
 62
   251
 10
-96.084884999999986
 20
8.7823589999999996
 30
0.0
 11
-96.187393000000014
 21
9.2977170000000005
 31
0.0
  0
LINE
  5
6CB
  8
0
 62
   251
 10
-102.23716
 20
8.7486880000000014
 30
0.0
 11
-102.23716
 21
9.2977279999999993
 31
0.0
  0
LINE
  5
6CC
  8
0
 62
   251
 10
-92.546143000000001
 20
7.998683999999999
 30
0.0
 11
-92.411865000000006
 21
8.748683999999999
 31
0.0
  0
LINE
  5
6CD
  8
0
 62
   251
 10
-95.928107999999995
 20
7.9986819999999996
 30
0.0
 11
-96.062386000000004
 21
8.7486820000000005
 31
0.0
  0
LINE
  5
6CE
  8
0
 62
   251
 10
-102.23716
 20
7.9986879999999996
 30
0.0
 11
-102.23716
 21
8.7486880000000014
 31
0.0
  0
LINE
  5
6CF
  8
0
 62
   251
 10
-95.928122999999999
 20
5.9986889999999988
 30
0.0
 11
-95.928122999999999
 21
7.9986879999999996
 31
0.0
  0
LINE
  5
6D0
  8
0
 62
   251
 10
-102.23716
 20
5.9986889999999988
 30
0.0
 11
-102.23716
 21
7.9986879999999996
 31
0.0
  0
LINE
  5
6D1
  8
0
 62
   251
 10
-92.546165000000002
 20
5.9986889999999988
 30
0.0
 11
-92.546165000000002
 21
7.9986879999999996
 31
0.0
  0
LINE
  5
6D2
  8
0
 62
   212
 10
-197.23715200000001
 20
4.9986889999999988
 30
0.0
 11
-197.23715200000001
 21
101.998688
 31
0.0
  0
LINE
  5
6D3
  8
0
 62
   251
 10
-194.43716399999991
 20
4.9986889999999988
 30
0.0
 11
-194.43716399999991
 21
99.198684999999983
 31
0.0
  0
LINE
  5
6D4
  8
0
 62
   251
 10
-30.037178000000001
 20
76.998688000000001
 30
0.0
 11
-30.037178000000001
 21
99.198684999999983
 31
0.0
  0
LINE
  5
6D5
  8
0
 62
   212
 10
-27.237175000000001
 20
76.998688000000001
 30
0.0
 11
-27.237175000000001
 21
101.998688
 31
0.0
  0
LINE
  5
6D6
  8
0
 62
   251
 10
-27.237175000000001
 20
76.998688000000001
 30
0.0
 11
-69.487160000000003
 21
76.998688000000001
 31
0.0
  0
LINE
  5
6D7
  8
0
 62
   251
 10
-80.987144000000001
 20
76.998688000000001
 30
0.0
 11
-83.737221000000005
 21
76.998688000000001
 31
0.0
  0
LINE
  5
6D8
  8
0
 62
   251
 10
-134.48715200000001
 20
76.998688000000001
 30
0.0
 11
-197.23715200000001
 21
76.998688000000001
 31
0.0
  0
LINE
  5
6D9
  8
0
 62
   212
 10
-125.18602799999999
 20
106.4986879999999
 30
0.0
 11
-134.7368469999999
 21
106.4986879999999
 31
0.0
  0
LINE
  5
6DA
  8
0
 62
   212
 10
-74.287582
 20
106.498634
 30
0.0
 11
-67.736862000000002
 21
106.49867999999999
 31
0.0
  0
LINE
  5
6DB
  8
0
 62
   212
 10
-172.98715200000001
 20
101.998688
 30
0.0
 11
-197.23715200000001
 21
101.998688
 31
0.0
  0
LINE
  5
6DC
  8
0
 62
   251
 10
-180.98718299999999
 20
99.198684999999983
 30
0.0
 11
-180.98718299999999
 21
101.998688
 31
0.0
  0
LINE
  5
6DD
  8
0
 62
   212
 10
-27.237175000000001
 20
101.998688
 30
0.0
 11
-51.987175000000001
 21
101.998688
 31
0.0
  0
LINE
  5
6DE
  8
0
 62
   251
 10
-43.487175000000001
 20
99.198684999999983
 30
0.0
 11
-43.487175000000001
 21
101.998688
 31
0.0
  0
LINE
  5
6DF
  8
0
 62
   251
 10
-30.037178000000001
 20
99.198684999999983
 30
0.0
 11
-51.987178999999998
 21
99.198684999999983
 31
0.0
  0
LINE
  5
6E0
  8
0
 62
   251
 10
-80.987160000000003
 20
76.998688000000001
 30
0.0
 11
-80.987160000000003
 21
99.198684999999983
 31
0.0
  0
LINE
  5
6E1
  8
0
 62
   251
 10
-69.487160000000003
 20
76.998688000000001
 30
0.0
 11
-69.487160000000003
 21
99.198684999999983
 31
0.0
  0
LINE
  5
6E2
  8
0
 62
   212
 10
-172.98715200000001
 20
99.198684999999983
 30
0.0
 11
-172.98715200000001
 21
104.4986879999999
 31
0.0
  0
LINE
  5
6E3
  8
0
 62
   212
 10
-51.987175000000001
 20
101.4986879999999
 30
0.0
 11
-51.987175000000001
 21
101.998688
 31
0.0
  0
LINE
  5
6E4
  8
0
 62
   212
 10
-51.987178999999998
 20
99.198684999999983
 30
0.0
 11
-51.987175000000001
 21
104.4986879999999
 31
0.0
  0
LINE
  5
6E5
  8
0
 62
   212
 10
-57.487159999999989
 20
106.4999999999999
 30
0.0
 11
-162.48715200000001
 21
106.4999999999999
 31
0.0
  0
LINE
  5
6E6
  8
0
 62
   212
 10
-162.48715200000001
 20
104.4986879999999
 30
0.0
 11
-162.48715200000001
 21
109.999855
 31
0.0
  0
LINE
  5
6E7
  8
0
 62
   212
 10
-57.487159999999989
 20
104.4986879999999
 30
0.0
 11
-57.487159999999989
 21
109.999855
 31
0.0
  0
LINE
  5
6E8
  8
0
 62
   251
 10
-126.237137
 20
70.998649999999998
 30
0.0
 11
-126.237137
 21
73.498679999999993
 31
0.0
  0
LINE
  5
6E9
  8
0
 62
   212
 10
-162.48715200000001
 20
104.4986879999999
 30
0.0
 11
-172.98715200000001
 21
104.4986879999999
 31
0.0
  0
LINE
  5
6EA
  8
0
 62
   212
 10
-51.987175000000001
 20
104.4986879999999
 30
0.0
 11
-57.487159999999989
 21
104.4986879999999
 31
0.0
  0
LINE
  5
6EB
  8
0
 62
   251
 10
-172.98715200000001
 20
99.198684999999983
 30
0.0
 11
-194.43716399999991
 21
99.198684999999983
 31
0.0
  0
LINE
  5
6EC
  8
0
 62
   212
 10
-51.987178999999998
 20
99.198684999999983
 30
0.0
 11
-172.98715200000001
 21
99.198684999999983
 31
0.0
  0
LINE
  5
6ED
  8
0
  6
DASHDOT
 62
   251
 10
-16.407706999999998
 20
-0.001311
 30
0.0
 11
-207.26547199999999
 21
-0.001311
 31
0.0
  0
LINE
  5
6EE
  8
0
 62
   212
 10
-197.23715200000001
 20
4.9986889999999988
 30
0.0
 11
-197.23715200000001
 21
6.4986889999999988
 31
0.0
  0
LINE
  5
6EF
  8
0
  6
DASHDOT
 62
   251
 10
-109.9871599999999
 20
-17.680009999999989
 30
0.0
 11
-109.9871599999999
 21
144.2053379999999
 31
0.0
  0
LINE
  5
6F0
  8
0
 62
   212
 10
-27.237175000000001
 20
4.9986889999999988
 30
0.0
 11
-27.237175000000001
 21
6.4986889999999988
 31
0.0
  0
LINE
  5
6F1
  8
0
 62
   212
 10
-27.237159999999999
 20
21.99869
 30
0.0
 11
-27.237159999999999
 21
24.99869
 31
0.0
  0
LINE
  5
6F2
  8
0
 62
   212
 10
-27.237175000000001
 20
4.9986889999999988
 30
0.0
 11
-27.237175000000001
 21
76.998688000000001
 31
0.0
  0
LINE
  5
6F3
  8
0
  6
DASHDOT
 62
   251
 10
-181.73715200000001
 20
-15.736074
 30
0.0
 11
-181.73715200000001
 21
7.7242319999999998
 31
0.0
  0
LINE
  5
6F4
  8
0
 62
   212
 10
-177.73715200000001
 20
-4.0013110000000003
 30
0.0
 11
-185.73715200000001
 21
-4.0013110000000003
 31
0.0
  0
LINE
  5
6F5
  8
0
 62
   212
 10
-177.73715200000001
 20
-4.0013110000000003
 30
0.0
 11
-177.73715200000001
 21
-0.001311
 31
0.0
  0
LINE
  5
6F6
  8
0
 62
   212
 10
-185.73715200000001
 20
-4.0013110000000003
 30
0.0
 11
-185.73715200000001
 21
-0.001311
 31
0.0
  0
LINE
  5
6F7
  8
0
 62
   212
 10
-179.23715200000001
 20
-8.0013100000000001
 30
0.0
 11
-184.23715200000001
 21
-8.0013100000000001
 31
0.0
  0
LINE
  5
6F8
  8
0
 62
   212
 10
-184.23715200000001
 20
-8.0013100000000001
 30
0.0
 11
-184.23715200000001
 21
-0.001311
 31
0.0
  0
LINE
  5
6F9
  8
0
 62
   212
 10
-179.23715200000001
 20
-8.0013100000000001
 30
0.0
 11
-179.23715200000001
 21
-0.001311
 31
0.0
  0
LINE
  5
6FA
  8
0
 62
   212
 10
-46.737159999999989
 20
-4.0013110000000003
 30
0.0
 11
-46.737159999999989
 21
-0.001311
 31
0.0
  0
LINE
  5
6FB
  8
0
 62
   212
 10
-45.237159999999989
 20
-8.0013109999999994
 30
0.0
 11
-45.237159999999989
 21
-0.001311
 31
0.0
  0
LINE
  5
6FC
  8
0
  6
DASHDOT
 62
   251
 10
-42.737159999999989
 20
-15.736075
 30
0.0
 11
-42.737159999999989
 21
7.7242309999999987
 31
0.0
  0
LINE
  5
6FD
  8
0
 62
   212
 10
-40.237159999999989
 20
-8.0013109999999994
 30
0.0
 11
-40.237159999999989
 21
-0.001311
 31
0.0
  0
LINE
  5
6FE
  8
0
 62
   212
 10
-38.737159999999989
 20
-4.0013110000000003
 30
0.0
 11
-38.737159999999989
 21
-0.001311
 31
0.0
  0
LINE
  5
6FF
  8
0
 62
   212
 10
-38.737159999999989
 20
-4.0013110000000003
 30
0.0
 11
-46.737159999999989
 21
-4.0013110000000003
 31
0.0
  0
LINE
  5
700
  8
0
 62
   212
 10
-40.237159999999989
 20
-8.0013109999999994
 30
0.0
 11
-45.237159999999989
 21
-8.0013109999999994
 31
0.0
  0
CIRCLE
  5
701
  8
0
 62
   212
 10
-180.45172099999999
 20
-2.669575
 30
0.0
 40
0.2
  0
LINE
  5
702
  8
0
 62
   251
 10
-134.48715200000001
 20
73.498665000000003
 30
0.0
 11
-134.48715200000001
 21
76.998688000000001
 31
0.0
  0
ENDBLK
  5
703
  8
0
  0
BLOCK
  8
0
  2
BLOCK46
 70
     0
 10
0.0
 20
0.0
 30
0.0
  3
BLOCK46
  1

  0
TEXT
  5
705
  8
0
 62
    52
 10
-113.0
 20
434.0
 30
0.0
 40
3.0
  1
X
 50
89.999791652847094
 41
0.9777831111175821
 72
     5
 11
-112.99999199999991
 21
436.20001200000002
 31
0.0
  0
ENDBLK
  5
706
  8
0
  0
BLOCK
  8
0
  2
BLOCK47
 70
     0
 10
0.0
 20
0.0
 30
0.0
  3
BLOCK47
  1

  0
TEXT
  5
708
  8
0
 62
    52
 10
-250.10810900000001
 20
402.67538500000001
 30
0.0
 40
3.0
  1
22
 50
90.0
 41
1.2594803724462029
 72
     5
 11
-250.10810900000001
 21
407.62536599999999
 31
0.0
  0
ENDBLK
  5
709
  8
0
  0
BLOCK
  8
0
  2
BLOCK48
 70
     0
 10
0.0
 20
0.0
 30
0.0
  3
BLOCK48
  1

  0
TEXT
  5
70B
  8
0
 62
    52
 10
-28.197489000000001
 20
354.92980999999997
 30
0.0
 40
3.0
  1
2
 50
90.000052086788045
 41
1.2020759747458609
 72
     5
 11
-28.197490999999989
 21
357.12982199999999
 31
0.0
  0
ENDBLK
  5
70C
  8
0
  0
BLOCK
  8
0
  2
BLOCK49
 70
     0
 10
0.0
 20
0.0
 30
0.0
  3
BLOCK49
  1

  0
TEXT
  5
70E
  8
0
 62
    52
 10
-250.10810900000001
 20
37.562522999999992
 30
0.0
 40
3.0
  1
103,5
 50
90.000065109042794
 41
1.548515964968588
 72
     5
 11
-250.108124
 21
50.762481999999999
 31
0.0
  0
ENDBLK
  5
70F
  8
0
  0
BLOCK
  8
0
  2
BLOCK50
 70
     0
 10
0.0
 20
0.0
 30
0.0
  3
BLOCK50
  1

  0
TEXT
  5
711
  8
0
 62
    52
 10
-191.26518200000001
 20
350.17538500000001
 30
0.0
 40
3.0
  1
19
 50
90.0
 41
1.4711156025400649
 72
     5
 11
-191.26518200000001
 21
355.12536599999999
 31
0.0
  0
ENDBLK
  5
712
  8
0
  0
BLOCK
  8
0
  2
BLOCK51
 70
     0
 10
0.0
 20
0.0
 30
0.0
  3
BLOCK51
  1

  0
TEXT
  5
714
  8
0
 62
    52
 10
-250.10810900000001
 20
358.42977899999988
 30
0.0
 40
3.0
  1
49,5
 50
90.0
 41
1.424722886043531
 72
     5
 11
-250.10810900000001
 21
368.87976099999992
 31
0.0
  0
ENDBLK
  5
715
  8
0
  0
BLOCK
  8
0
  2
BLOCK52
 70
     0
 10
0.0
 20
0.0
 30
0.0
  3
BLOCK52
  1

  0
TEXT
  5
717
  8
0
 62
    52
 10
-215.493011
 20
110.69910400000001
 30
0.0
 40
3.0
  1
17
 50
90.0
 41
1.587301587301587
 72
     5
 11
-215.493011
 21
115.69910400000001
 31
0.0
  0
LINE
  5
718
  8
0
 62
    52
 10
-163.23066700000001
 20
106.4999999999999
 30
0.0
 11
-216.49301099999991
 21
106.4999999999999
 31
0.0
  0
LINE
  5
719
  8
0
 62
    52
 10
-127.48670199999999
 20
123.5
 30
0.0
 11
-216.49301099999991
 21
123.5
 31
0.0
  0
POLYLINE
  5
71A
  8
0
 62
    52
 66
     1
 10
0.0
 20
0.0
 30
0.0
  0
VERTEX
  5
865
  8
0
 62
    52
 10
-215.01065099999991
 20
125.431854
 30
0.0
  0
VERTEX
  5
866
  8
0
 62
    52
 10
-214.493011
 20
123.5
 30
0.0
  0
VERTEX
  5
867
  8
0
 62
    52
 10
-213.97537199999999
 20
125.431854
 30
0.0
  0
SEQEND
  5
868
  8
0
 62
    52
  0
POLYLINE
  5
71F
  8
0
 62
    52
 66
     1
 10
0.0
 20
0.0
 30
0.0
  0
VERTEX
  5
869
  8
0
 62
    52
 10
-213.97537199999999
 20
104.5681459999999
 30
0.0
  0
VERTEX
  5
86A
  8
0
 62
    52
 10
-214.493011
 20
106.4999999999999
 30
0.0
  0
VERTEX
  5
86B
  8
0
 62
    52
 10
-215.01065099999991
 20
104.5681459999999
 30
0.0
  0
SEQEND
  5
86C
  8
0
 62
    52
  0
LINE
  5
724
  8
0
 62
    52
 10
-214.493011
 20
101.5
 30
0.0
 11
-214.493011
 21
128.49999999999989
 31
0.0
  0
ENDBLK
  5
725
  8
0
  0
ENDSEC
  0
SECTION
  2
ENTITIES
  0
LINE
  5
25
  8
0
 62
     2
 10
-47.788479999999993
 20
765.85155499999985
 30
0.0
 11
-47.788479999999993
 21
777.85155499999985
 31
0.0
  0
LINE
  5
26
  8
0
 62
     2
 10
-114.094472
 20
787.85155499999985
 30
0.0
 11
-57.78848
 21
787.85155499999985
 31
0.0
  0
LINE
  5
27
  8
0
 62
     2
 10
-114.094472
 20
755.85155499999996
 30
0.0
 11
-57.78848
 21
755.85155499999996
 31
0.0
  0
LINE
  5
28
  8
0
 62
     2
 10
-121.088483
 20
767.60155499999985
 30
0.0
 11
-121.088483
 21
776.10155499999985
 31
0.0
  0
LINE
  5
29
  8
0
 62
     2
 10
-129.28847999999991
 20
771.85155499999996
 30
0.0
 11
-121.088483
 21
776.10155499999985
 31
0.0
  0
LINE
  5
2A
  8
0
 62
     2
 10
-129.28847999999991
 20
771.85155499999996
 30
0.0
 11
-121.088483
 21
767.60155499999985
 31
0.0
  0
LINE
  5
2B
  8
0
 62
     2
 10
-127.03848000000001
 20
781.10155499999985
 30
0.0
 11
-81.038480000000007
 21
781.10155499999985
 31
0.0
  0
LINE
  5
2C
  8
0
 62
     2
 10
-127.03848000000001
 20
762.60155499999985
 30
0.0
 11
-81.038480000000007
 21
762.60155499999985
 31
0.0
  0
LINE
  5
2D
  8
0
 62
     2
 10
-127.03848000000001
 20
780.10155499999985
 30
0.0
 11
-81.038480000000007
 21
780.10155499999985
 31
0.0
  0
LINE
  5
2E
  8
0
 62
     2
 10
-127.03848000000001
 20
763.60155499999985
 30
0.0
 11
-81.038480000000007
 21
763.60155499999985
 31
0.0
  0
LINE
  5
2F
  8
0
 62
     9
 10
-103.3634539999999
 20
800.85874199999989
 30
0.0
 11
-103.350255
 21
800.85201199999995
 31
0.0
  0
LINE
  5
30
  8
0
 62
     9
 10
-122.2266969999999
 20
800.85201199999995
 30
0.0
 11
-122.21348999999989
 21
800.85874199999989
 31
0.0
  0
LINE
  5
31
  8
0
 62
     9
 10
-144.28830400000001
 20
812.85201200000006
 30
0.0
 11
-41.288296999999993
 21
812.85201200000006
 31
0.0
  0
LINE
  5
32
  8
0
 62
     9
 10
-144.99541199999999
 20
812.55912000000001
 30
0.0
 11
-144.28830400000001
 21
812.85201200000006
 31
0.0
  0
LINE
  5
33
  8
0
 62
     9
 10
-145.28830400000001
 20
811.85201200000006
 30
0.0
 11
-144.99541199999999
 21
812.55912000000001
 31
0.0
  0
LINE
  5
34
  8
0
 62
     9
 10
-145.28830400000001
 20
708.85189000000003
 30
0.0
 11
-145.28830400000001
 21
811.85201200000006
 31
0.0
  0
LINE
  5
35
  8
0
 62
     9
 10
-145.28830400000001
 20
708.85189000000003
 30
0.0
 11
-144.99541199999999
 21
708.14478299999996
 31
0.0
  0
LINE
  5
36
  8
0
 62
     9
 10
-144.99541599999989
 20
708.14478299999996
 30
0.0
 11
-144.288308
 21
707.85198200000002
 31
0.0
  0
LINE
  5
37
  8
0
 62
     9
 10
-144.28830400000001
 20
707.85198200000002
 30
0.0
 11
-41.288296999999993
 21
707.85198200000002
 31
0.0
  0
LINE
  5
38
  8
0
 62
     9
 10
-41.288311999999991
 20
707.85197800000003
 30
0.0
 11
-40.581203999999993
 21
708.14477899999986
 31
0.0
  0
LINE
  5
39
  8
0
 62
     9
 10
-40.581189000000002
 20
708.14478299999996
 30
0.0
 11
-40.288297
 21
708.85189000000003
 31
0.0
  0
LINE
  5
3A
  8
0
 62
     9
 10
-40.288297
 20
708.85189000000003
 30
0.0
 11
-40.288297
 21
811.85201200000006
 31
0.0
  0
LINE
  5
3B
  8
0
 62
     9
 10
-40.581189000000002
 20
812.55912000000001
 30
0.0
 11
-40.288297
 21
811.85201200000006
 31
0.0
  0
LINE
  5
3C
  8
0
 62
     9
 10
-41.288296999999993
 20
812.85201200000006
 30
0.0
 11
-40.581189000000002
 21
812.55912000000001
 31
0.0
  0
LINE
  5
3D
  8
0
 62
     9
 10
-50.951031999999998
 20
785.10187499999995
 30
0.0
 11
-40.391843000000001
 21
785.10187499999995
 31
0.0
  0
LINE
  5
3E
  8
0
 62
     9
 10
-52.254238999999998
 20
786.10187499999995
 30
0.0
 11
-40.391843000000001
 21
786.10187499999995
 31
0.0
  0
LINE
  5
3F
  8
0
 62
     9
 10
-127.0243199999999
 20
707.95551999999986
 30
0.0
 11
-127.0243199999999
 21
749.72956799999986
 31
0.0
  0
LINE
  5
40
  8
0
 62
     9
 10
-126.0243199999999
 20
707.95551999999986
 30
0.0
 11
-126.0243199999999
 21
749.22003899999993
 31
0.0
  0
LINE
  5
41
  8
0
 62
     9
 10
-52.253399999999999
 20
757.60188300000004
 30
0.0
 11
-40.391843000000001
 21
757.60188300000004
 31
0.0
  0
LINE
  5
42
  8
0
 62
     9
 10
-50.950176999999996
 20
758.60188300000004
 30
0.0
 11
-40.391843000000001
 21
758.60188300000004
 31
0.0
  0
LINE
  5
43
  8
0
 62
     9
 10
-99.524319999999989
 20
707.95551999999986
 30
0.0
 11
-99.524319999999989
 21
749.23445900000002
 31
0.0
  0
LINE
  5
44
  8
0
 62
     9
 10
-98.524320000000003
 20
707.95551999999986
 30
0.0
 11
-98.524320000000003
 21
749.74398799999994
 31
0.0
  0
LINE
  5
45
  8
0
 62
     9
 10
-143.03845699999999
 20
800.85201199999995
 30
0.0
 11
-42.538448999999993
 21
800.85201199999995
 31
0.0
  0
LINE
  5
46
  8
0
 62
     9
 10
-143.03845699999999
 20
810.85201200000006
 30
0.0
 11
-42.538448999999993
 21
810.85201200000006
 31
0.0
  0
LINE
  5
47
  8
0
 62
     9
 10
-143.03845699999999
 20
800.85201199999995
 30
0.0
 11
-143.03845699999999
 21
810.85201200000006
 31
0.0
  0
LINE
  5
48
  8
0
 62
     9
 10
-42.538448999999993
 20
800.85201199999995
 30
0.0
 11
-42.538448999999993
 21
810.85201200000006
 31
0.0
  0
LINE
  5
49
  8
0
 62
     9
 10
-144.03830400000001
 20
709.10201199999995
 30
0.0
 11
-144.03830400000001
 21
811.60201199999995
 31
0.0
  0
LINE
  5
4A
  8
0
 62
     9
 10
-41.538297
 20
709.10201199999995
 30
0.0
 11
-41.538297
 21
757.60188300000004
 31
0.0
  0
LINE
  5
4B
  8
0
 62
     9
 10
-41.538297
 20
758.60188300000004
 30
0.0
 11
-41.538297
 21
785.10187499999995
 31
0.0
  0
LINE
  5
4C
  8
0
 62
     9
 10
-41.538297
 20
786.10187499999995
 30
0.0
 11
-41.538297
 21
811.60201199999995
 31
0.0
  0
LINE
  5
4D
  8
0
 62
     9
 10
-144.03830400000001
 20
709.10201199999995
 30
0.0
 11
-127.0243199999999
 21
709.10201199999995
 31
0.0
  0
LINE
  5
4E
  8
0
 62
     9
 10
-144.92218099999999
 20
708.21813599999996
 30
0.0
 11
-144.03829699999989
 21
709.10202000000004
 31
0.0
  0
LINE
  5
4F
  8
0
 62
     9
 10
-126.0243199999999
 20
709.10201199999995
 30
0.0
 11
-99.524319999999989
 21
709.10201199999995
 31
0.0
  0
LINE
  5
50
  8
0
 62
     9
 10
-41.538311999999991
 20
709.10201199999995
 30
0.0
 11
-40.654431000000002
 21
708.21812799999998
 31
0.0
  0
LINE
  5
51
  8
0
 62
     9
 10
-98.524320000000003
 20
709.10201199999995
 30
0.0
 11
-41.538297
 21
709.10201199999995
 31
0.0
  0
LINE
  5
52
  8
0
 62
     9
 10
-40.654431000000002
 20
708.21812799999998
 30
0.0
 11
-40.581203999999993
 21
708.14478299999996
 31
0.0
  0
LINE
  5
53
  8
0
 62
     9
 10
-144.99541599999989
 20
708.14477899999986
 30
0.0
 11
-144.92219299999999
 21
708.21812399999988
 31
0.0
  0
LINE
  5
54
  8
0
 62
     9
 10
-144.99541199999999
 20
812.55912000000001
 30
0.0
 11
-144.922189
 21
812.48589299999981
 31
0.0
  0
LINE
  5
55
  8
0
 62
     9
 10
-40.654401
 20
812.48590799999999
 30
0.0
 11
-40.58117399999999
 21
812.55913499999997
 31
0.0
  0
LINE
  5
56
  8
0
 62
     9
 10
-144.03830400000001
 20
811.60201199999995
 30
0.0
 11
-41.538297
 21
811.60201199999995
 31
0.0
  0
LINE
  5
57
  8
0
 62
     9
 10
-41.538297
 20
811.60201199999995
 30
0.0
 11
-40.654415999999991
 21
812.48589299999981
 31
0.0
  0
LINE
  5
58
  8
0
 62
     9
 10
-144.922189
 20
812.48587799999996
 30
0.0
 11
-144.03830400000001
 21
811.60199699999987
 31
0.0
  0
LINE
  5
59
  8
0
 62
     9
 10
-40.391843000000001
 20
785.10187499999995
 30
0.0
 11
-40.391843000000001
 21
786.10187499999995
 31
0.0
  0
LINE
  5
5A
  8
0
 62
     9
 10
-127.0243199999999
 20
707.95551999999986
 30
0.0
 11
-126.0243199999999
 21
707.95551999999986
 31
0.0
  0
LINE
  5
5B
  8
0
 62
     9
 10
-40.391843000000001
 20
757.60188300000004
 30
0.0
 11
-40.391843000000001
 21
758.60188300000004
 31
0.0
  0
LINE
  5
5C
  8
0
 62
     9
 10
-99.524319999999989
 20
707.95551999999986
 30
0.0
 11
-98.524320000000003
 21
707.95551999999986
 31
0.0
  0
ARC
  5
5D
  8
0
 62
     2
 10
-127.0385179999999
 20
771.85155499999996
 30
0.0
 40
8.249963000000001
 50
89.999756999999974
 51
270.000247
  0
ARC
  5
5E
  8
0
 62
     2
 10
-127.038449
 20
771.851539
 30
0.0
 40
9.2500429999999998
 50
90.000193999999993
 51
269.99975499999999
  0
ARC
  5
5F
  8
0
 62
     2
 10
-57.78849499999999
 20
777.85153899999989
 30
0.0
 40
10.00001799999999
 50
0.000082
 51
90.000003000000007
  0
ARC
  5
60
  8
0
 62
     2
 10
-57.78849499999999
 20
765.85156200000006
 30
0.0
 40
10.000011000000001
 50
270.00005499999992
 51
360.0
  0
ARC
  5
61
  8
0
 62
     2
 10
-81.038381000000001
 20
771.85155499999996
 30
0.0
 40
8.2499070000000003
 50
269.99939999999992
 51
90.000617000000005
  0
ARC
  5
62
  8
0
 62
     2
 10
-81.038556000000014
 20
771.85150099999987
 30
0.0
 40
9.2500850000000003
 50
270.00040999999999
 51
89.999510999999998
  0
ARC
  5
63
  8
0
 62
     2
 10
-112.78848000000001
 20
771.85145599999998
 30
0.0
 40
26.500095000000002
 50
227.16609500000001
 51
322.85976499999992
  0
ARC
  5
64
  8
0
 62
     2
 10
-128.0854689999999
 20
788.35138700000005
 30
0.0
 40
4.0001730000000002
 50
54.341467000000002
 51
132.83384599999991
  0
ARC
  5
65
  8
0
 62
     2
 10
-114.0944409999999
 20
807.85173799999995
 30
0.0
 40
20.000178999999999
 50
234.34146699999999
 51
270.000001
  0
ARC
  5
66
  8
0
 62
     2
 10
-128.08559099999991
 20
755.35167699999988
 30
0.0
 40
4.0001269999999991
 50
227.16621599999999
 51
305.65853299999998
  0
ARC
  5
67
  8
0
 62
     2
 10
-114.09424299999991
 20
735.85089900000003
 30
0.0
 40
20.000689999999992
 50
90.000003000000007
 51
125.658542
  0
ARC
  5
68
  8
0
 62
     2
 10
-112.78839599999991
 20
771.85161600000004
 30
0.0
 40
26.500098999999999
 50
132.83384599999991
 51
227.16621599999999
  0
ARC
  5
69
  8
0
 62
     2
 10
-112.78848000000001
 20
771.85145599999998
 30
0.0
 40
26.500095000000002
 50
37.140748999999992
 51
132.83342399999989
  0
LINE
  5
6A
  8
0
  6
DASHDOT
 62
     1
 10
-86.788265999999993
 20
670.94474000000002
 30
0.0
 11
-86.788265999999993
 21
853.5590279999999
 31
0.0
  0
LINE
  5
6B
  8
0
  6
DASHDOT
 62
     3
 10
-195.51057399999999
 20
760.34552699999995
 30
0.0
 11
-74.813847999999993
 21
760.34552699999995
 31
0.0
  0
LINE
  5
6C
  8
0
  6
DASHDOT
 62
     7
 10
-112.78848000000001
 20
649.65049299999998
 30
0.0
 11
-112.78848000000001
 21
800.35155499999985
 31
0.0
  0
LINE
  5
6D
  8
0
  6
DASHDOT
 62
     7
 10
-141.28857500000001
 20
771.85145599999998
 30
0.0
 11
-14.335354999999989
 21
771.85145599999998
 31
0.0
  0
LINE
  5
6E
  8
0
 62
     7
 10
-47.81554899999999
 20
778.02034000000003
 30
0.0
 11
-47.81554899999999
 21
778.38397999999995
 31
0.0
  0
LINE
  5
6F
  8
0
  6
DASHDOT
 62
     7
 10
-61.615079000000001
 20
760.34552699999995
 30
0.0
 11
-7.7359739999999997
 21
760.34552699999995
 31
0.0
  0
LINE
  5
70
  8
0
  6
DASHDOT
 62
     7
 10
-86.788265999999993
 20
751.19882199999995
 30
0.0
 11
-86.788265999999993
 21
847.96201299999996
 31
0.0
  0
LINE
  5
71
  8
0
 62
    52
 10
-112.78848000000001
 20
725.97911799999986
 30
0.0
 11
-105.40242499999989
 21
724.67676500000005
 31
0.0
  0
LINE
  5
72
  8
0
 62
    52
 10
-112.78848000000001
 20
725.97911799999986
 30
0.0
 11
-105.40242499999989
 21
727.28147899999988
 31
0.0
  0
LINE
  5
73
  8
0
 62
    52
 10
-66.916134999999997
 20
771.85146299999985
 30
0.0
 11
-68.218487999999994
 21
764.46540800000002
 31
0.0
  0
LINE
  5
74
  8
0
 62
    52
 10
-66.916134999999997
 20
771.85146299999985
 30
0.0
 11
-65.61376700000001
 21
764.46540800000002
 31
0.0
  0
POLYLINE
  5
75
  8
0
 62
    52
 66
     1
 10
0.0
 20
0.0
 30
0.0
  0
VERTEX
  5
76E
  8
0
 62
    52
 10
-112.78848000000001
 20
725.97911799999986
 30
0.0
  0
VERTEX
  5
76F
  8
0
 62
    52
 10
-107.25918299999999
 20
726.31359099999986
 30
0.0
  0
VERTEX
  5
770
  8
0
 62
    52
 10
-101.8105129999999
 20
727.31208800000002
 30
0.0
  0
VERTEX
  5
771
  8
0
 62
    52
 10
-96.521923999999999
 20
728.96007499999985
 30
0.0
  0
VERTEX
  5
772
  8
0
 62
    52
 10
-91.47054
 20
731.23351999999988
 30
0.0
  0
VERTEX
  5
773
  8
0
 62
    52
 10
-86.730023000000003
 20
734.09927400000004
 30
0.0
  0
VERTEX
  5
774
  8
0
 62
    52
 10
-82.369488999999987
 20
737.51552600000002
 30
0.0
  0
VERTEX
  5
775
  8
0
 62
    52
 10
-78.452542000000008
 20
741.43247999999994
 30
0.0
  0
VERTEX
  5
776
  8
0
 62
    52
 10
-75.036289999999994
 20
745.79302199999995
 30
0.0
  0
VERTEX
  5
777
  8
0
 62
    52
 10
-72.17054499999999
 20
750.53352299999995
 30
0.0
  0
VERTEX
  5
778
  8
0
 62
    52
 10
-69.897106999999991
 20
755.58490700000004
 30
0.0
  0
VERTEX
  5
779
  8
0
 62
    52
 10
-68.249111999999997
 20
760.87351200000001
 30
0.0
  0
VERTEX
  5
77A
  8
0
 62
    52
 10
-67.250606999999988
 20
766.32217400000002
 30
0.0
  0
VERTEX
  5
77B
  8
0
 62
    52
 10
-66.916150000000002
 20
771.85146299999985
 30
0.0
  0
SEQEND
  5
77C
  8
0
 62
    52
  0
LINE
  5
85
  8
0
 62
    52
 10
-112.78848000000001
 20
720.97911799999986
 30
0.0
 11
-112.78848000000001
 21
729.21984099999997
 31
0.0
  0
LINE
  5
86
  8
0
 62
    52
 10
-71.916134999999997
 20
771.85146299999985
 30
0.0
 11
-66.417127000000008
 21
771.85146299999985
 31
0.0
  0
LINE
  5
87
  8
0
 62
    52
 10
6.1019620000000003
 20
707.85198200000002
 30
0.0
 11
7.4043460000000003
 21
715.23803699999985
 31
0.0
  0
LINE
  5
88
  8
0
 62
    52
 10
6.1019620000000003
 20
707.85198200000002
 30
0.0
 11
4.7996089999999993
 21
715.23803699999985
 31
0.0
  0
LINE
  5
89
  8
0
 62
    52
 10
6.1019620000000003
 20
812.85201200000006
 30
0.0
 11
4.7996089999999993
 21
805.46594999999991
 31
0.0
  0
LINE
  5
8A
  8
0
 62
    52
 10
6.1019620000000003
 20
812.85201200000006
 30
0.0
 11
7.4043460000000003
 21
805.46594999999991
 31
0.0
  0
LINE
  5
8B
  8
0
 62
    52
 10
6.1019620000000003
 20
707.85198200000002
 30
0.0
 11
6.1019620000000003
 21
812.85201200000006
 31
0.0
  0
LINE
  5
8C
  8
0
 62
    52
 10
11.101962
 20
707.85198200000002
 30
0.0
 11
-41.288296999999993
 21
707.85198200000002
 31
0.0
  0
LINE
  5
8D
  8
0
 62
    52
 10
11.101962
 20
812.85201200000006
 30
0.0
 11
-41.288296999999993
 21
812.85199699999987
 31
0.0
  0
LINE
  5
8E
  8
0
 62
     7
 10
91.341143000000002
 20
772.09550899999999
 30
0.0
 11
90.841157999999993
 21
772.09550899999999
 31
0.0
  0
LINE
  5
8F
  8
0
 62
     7
 10
196.34114199999991
 20
812.84552399999995
 30
0.0
 11
192.84114199999991
 21
812.84552399999995
 31
0.0
  0
LINE
  5
90
  8
0
 62
     7
 10
196.34114199999991
 20
707.84555799999987
 30
0.0
 11
192.84114199999991
 21
707.84555799999987
 31
0.0
  0
LINE
  5
91
  8
0
 62
     7
 10
192.84114199999991
 20
707.84555799999987
 30
0.0
 11
192.84114199999991
 21
812.84552399999995
 31
0.0
  0
LINE
  5
92
  8
0
 62
     7
 10
192.84114199999991
 20
707.84555799999987
 30
0.0
 11
190.84114199999999
 21
707.84555799999987
 31
0.0
  0
LINE
  5
93
  8
0
 62
     7
 10
192.84114199999991
 20
812.84552399999995
 30
0.0
 11
190.84114199999999
 21
812.84552399999995
 31
0.0
  0
LINE
  5
94
  8
0
 62
     7
 10
185.541146
 20
659.59554300000002
 30
0.0
 11
185.84114199999991
 21
659.5955469999999
 31
0.0
  0
LINE
  5
95
  8
0
  6
DASHDOT
 62
     7
 10
89.341157999999979
 20
622.41284199999996
 30
0.0
 11
89.341157999999979
 21
892.41231199999993
 31
0.0
  0
LINE
  5
96
  8
0
  6
DASHDOT
 62
     7
 10
86.341157999999993
 20
622.41284199999996
 30
0.0
 11
86.341157999999993
 21
892.41231199999993
 31
0.0
  0
LINE
  5
97
  8
0
 62
     7
 10
235.34111200000001
 20
727.84538699999985
 30
0.0
 11
235.34111200000001
 21
739.84540199999992
 31
0.0
  0
LINE
  5
98
  8
0
 62
     1
 10
89.341211000000001
 20
686.33904299999995
 30
0.0
 11
89.341211000000001
 21
686.56740599999989
 31
0.0
  0
LINE
  5
99
  8
0
  6
DASHDOT
 62
     3
 10
277.95131900000001
 20
760.34552399999995
 30
0.0
 11
268.17518799999988
 21
760.34552399999995
 31
0.0
  0
LINE
  5
9A
  8
0
  6
DASHDOT
 62
     3
 10
340.58772499999992
 20
760.34552399999995
 30
0.0
 11
81.40406999999999
 21
760.34552399999995
 31
0.0
  0
LINE
  5
9B
  8
0
 62
     2
 10
274.83359000000002
 20
792.03210799999988
 30
0.0
 11
274.83359000000002
 21
798.34506599999986
 31
0.0
  0
LINE
  5
9C
  8
0
 62
     2
 10
274.83359000000002
 20
755.84511899999995
 30
0.0
 11
274.83359000000002
 21
761.84511899999995
 31
0.0
  0
LINE
  5
9D
  8
0
 62
     2
 10
308.33359000000002
 20
755.35295499999995
 30
0.0
 11
308.33359000000002
 21
788.33728399999995
 31
0.0
  0
LINE
  5
9E
  8
0
 62
     2
 10
290.33359000000002
 20
749.34511899999995
 30
0.0
 11
290.33359000000002
 21
755.84511899999995
 31
0.0
  0
LINE
  5
9F
  8
0
 62
     2
 10
290.33359000000002
 20
787.84512699999993
 30
0.0
 11
290.33359000000002
 21
794.34512699999993
 31
0.0
  0
LINE
  5
A0
  8
0
 62
     2
 10
274.83359000000002
 20
745.34511899999995
 30
0.0
 11
274.83359000000002
 21
755.84511899999995
 31
0.0
  0
LINE
  5
A1
  8
0
 62
     2
 10
274.83359000000002
 20
787.84512699999993
 30
0.0
 11
274.83359000000002
 21
798.34512699999993
 31
0.0
  0
LINE
  5
A2
  8
0
 62
     2
 10
290.33359000000002
 20
755.84511899999995
 30
0.0
 11
290.33359000000002
 21
787.84512699999993
 31
0.0
  0
LINE
  5
A3
  8
0
 62
   191
 10
234.8404669999999
 20
812.84543200000007
 30
0.0
 11
192.84111100000001
 21
812.84558499999991
 31
0.0
  0
LINE
  5
A4
  8
0
 62
   191
 10
234.83987200000001
 20
707.84555799999987
 30
0.0
 11
192.84111100000001
 21
707.84555799999987
 31
0.0
  0
LINE
  5
A5
  8
0
 62
   191
 10
192.84111100000001
 20
810.34558499999991
 30
0.0
 11
192.84111100000001
 21
812.84558499999991
 31
0.0
  0
LINE
  5
A6
  8
0
 62
   191
 10
192.84111100000001
 20
785.26619299999993
 30
0.0
 11
192.84111100000001
 21
801.59537099999989
 31
0.0
  0
LINE
  5
A7
  8
0
 62
   191
 10
192.84111100000001
 20
729.01614800000004
 30
0.0
 11
192.84111100000001
 21
783.26619299999993
 31
0.0
  0
LINE
  5
A8
  8
0
 62
   191
 10
192.84111100000001
 20
716.59562300000005
 30
0.0
 11
192.84111100000001
 21
727.01614800000004
 31
0.0
  0
LINE
  5
A9
  8
0
 62
   191
 10
192.84111100000001
 20
707.84555799999987
 30
0.0
 11
192.84111100000001
 21
711.59563099999991
 31
0.0
  0
LINE
  5
AA
  8
0
 62
   191
 10
235.34110799999999
 20
708.34972800000003
 30
0.0
 11
235.34110799999999
 21
812.34424199999989
 31
0.0
  0
LINE
  5
AB
  8
0
 62
   191
 10
192.84560300000001
 20
710.34555099999989
 30
0.0
 11
192.84111100000001
 21
710.34555099999989
 31
0.0
  0
LINE
  5
AC
  8
0
 62
   191
 10
236.344347
 20
787.45624199999997
 30
0.0
 11
236.341093
 21
793.84550899999988
 31
0.0
  0
LINE
  5
AD
  8
0
 62
   191
 10
236.343737
 20
784.34520299999986
 30
0.0
 11
236.34109699999999
 21
793.84552399999995
 31
0.0
  0
LINE
  5
AE
  8
0
 62
   191
 10
236.34283599999989
 20
784.34520299999986
 30
0.0
 11
236.34109699999999
 21
793.84552399999995
 31
0.0
  0
LINE
  5
AF
  8
0
 62
   191
 10
236.3423019999999
 20
784.34520299999986
 30
0.0
 11
236.34109699999999
 21
793.84552399999995
 31
0.0
  0
LINE
  5
B0
  8
0
 62
   191
 10
236.3419209999999
 20
784.34520299999986
 30
0.0
 11
236.34109699999999
 21
793.84552399999995
 31
0.0
  0
LINE
  5
B1
  8
0
 62
   191
 10
236.34184500000001
 20
784.34520299999986
 30
0.0
 11
236.34109699999999
 21
793.84552399999995
 31
0.0
  0
LINE
  5
B2
  8
0
 62
   191
 10
236.34161599999999
 20
784.34520299999986
 30
0.0
 11
236.34109699999999
 21
793.84552399999995
 31
0.0
  0
LINE
  5
B3
  8
0
 62
   191
 10
236.34113099999999
 20
784.34520299999986
 30
0.0
 11
236.34109699999999
 21
785.47732900000005
 31
0.0
  0
LINE
  5
B4
  8
0
 62
   191
 10
192.845516
 20
716.59562300000005
 30
0.0
 11
192.84550999999999
 21
718.95832400000006
 31
0.0
  0
LINE
  5
B5
  8
0
 62
   191
 10
192.84553099999999
 20
710.34555399999988
 30
0.0
 11
192.845528
 21
711.59562699999981
 31
0.0
  0
LINE
  5
B6
  8
0
 62
   191
 10
192.84550999999999
 20
801.59537099999989
 30
0.0
 11
192.84553600000001
 21
801.73239499999988
 31
0.0
  0
LINE
  5
B7
  8
0
 62
   191
 10
192.8454889999999
 20
801.88135099999988
 30
0.0
 11
192.84544199999991
 21
802.83794
 31
0.0
  0
LINE
  5
B8
  8
0
 62
   191
 10
192.84543400000001
 20
803.01564399999995
 30
0.0
 11
192.84539499999991
 21
804.98724700000002
 31
0.0
  0
LINE
  5
B9
  8
0
 62
   191
 10
192.8453879999999
 20
805.6143229999999
 30
0.0
 11
192.84537700000001
 21
807.34097699999995
 31
0.0
  0
LINE
  5
BA
  8
0
 62
   191
 10
192.84537700000001
 20
808.03297800000007
 30
0.0
 11
192.8453889999999
 21
809.79895399999998
 31
0.0
  0
LINE
  5
BB
  8
0
 62
   191
 10
192.845392
 20
810.06462499999998
 30
0.0
 11
192.84538499999999
 21
810.34558499999991
 31
0.0
  0
LINE
  5
BC
  8
0
 62
   191
 10
192.84550999999999
 20
801.73239499999988
 30
0.0
 11
192.8454889999999
 21
801.88135099999988
 31
0.0
  0
LINE
  5
BD
  8
0
 62
   191
 10
192.84544199999991
 20
802.83794
 30
0.0
 11
192.84543400000001
 21
803.01564399999995
 31
0.0
  0
LINE
  5
BE
  8
0
 62
   191
 10
192.84539499999991
 20
804.98724700000002
 30
0.0
 11
192.8453879999999
 21
805.6143229999999
 31
0.0
  0
LINE
  5
BF
  8
0
 62
   191
 10
192.84552599999989
 20
807.34097699999995
 30
0.0
 11
192.84552599999989
 21
808.03297800000007
 31
0.0
  0
LINE
  5
C0
  8
0
 62
   191
 10
192.8453889999999
 20
809.79895399999998
 30
0.0
 11
192.845392
 21
810.06462499999998
 31
0.0
  0
LINE
  5
C1
  8
0
 62
   191
 10
234.83987200000001
 20
707.84680900000001
 30
0.0
 11
235.19344100000001
 21
707.99324799999999
 31
0.0
  0
LINE
  5
C2
  8
0
 62
   191
 10
235.19344100000001
 20
707.99325199999987
 30
0.0
 11
235.34110799999999
 21
708.34972800000003
 31
0.0
  0
LINE
  5
C3
  8
0
 62
   191
 10
235.340799
 20
812.34497499999998
 30
0.0
 11
235.1940359999999
 21
812.69853599999999
 31
0.0
  0
LINE
  5
C4
  8
0
 62
   191
 10
235.1940359999999
 20
812.69855099999995
 30
0.0
 11
234.8404669999999
 21
812.84543200000007
 31
0.0
  0
LINE
  5
C5
  8
0
 62
     2
 10
304.33359000000002
 20
792.33728399999995
 30
0.0
 11
290.33359000000002
 21
792.33728399999995
 31
0.0
  0
LINE
  5
C6
  8
0
 62
     2
 10
304.33359000000002
 20
751.35295499999995
 30
0.0
 11
290.33359000000002
 21
751.35295499999995
 31
0.0
  0
LINE
  5
C7
  8
0
 62
     2
 10
286.33360499999998
 20
745.34511899999995
 30
0.0
 11
274.83359000000002
 21
745.34511899999995
 31
0.0
  0
LINE
  5
C8
  8
0
 62
     2
 10
286.33359000000002
 20
798.34512699999993
 30
0.0
 11
274.83359000000002
 21
798.34512699999993
 31
0.0
  0
LINE
  5
C9
  8
0
 62
   191
 10
236.34341199999989
 20
798.33876399999997
 30
0.0
 11
235.3411009999999
 21
798.33877900000005
 31
0.0
  0
LINE
  5
CA
  8
0
 62
   191
 10
235.34110499999991
 20
746.05436299999997
 30
0.0
 11
236.344404
 21
746.05438600000002
 31
0.0
  0
ARC
  5
CB
  8
0
 62
     2
 10
286.33359699999988
 20
794.34514200000001
 30
0.0
 40
3.9999839999999991
 50
359.99972700000001
 51
90.000090999999983
  0
ARC
  5
CC
  8
0
 62
     2
 10
286.33360499999998
 20
749.34510399999999
 30
0.0
 40
3.9999790000000002
 50
269.99979999999999
 51
0.000192
  0
ARC
  5
CD
  8
0
 62
     2
 10
304.33359000000002
 20
788.33728399999995
 30
0.0
 40
4.0
 50
0.000001
 51
90.0
  0
ARC
  5
CE
  8
0
 62
     2
 10
304.33359000000002
 20
755.35295499999995
 30
0.0
 40
4.0
 50
270.00000499999987
 51
0.000001
  0
LINE
  5
CF
  8
0
  6
DASHDOT
 62
     7
 10
279.64941599999997
 20
771.84511899999995
 30
0.0
 11
194.852825
 21
771.84511899999995
 31
0.0
  0
LINE
  5
D0
  8
0
 62
     7
 10
192.84114199999991
 20
707.84557000000007
 30
0.0
 11
192.84114199999991
 21
812.58908499999995
 31
0.0
  0
LINE
  5
D1
  8
0
 62
     7
 10
192.7679179999999
 20
812.76585799999998
 30
0.0
 11
192.59114199999999
 21
812.83908499999984
 31
0.0
  0
LINE
  5
D2
  8
0
 62
     7
 10
192.8411429999999
 20
812.58906899999999
 30
0.0
 11
192.76792
 21
812.76584199999991
 31
0.0
  0
LINE
  5
D3
  8
0
 62
     7
 10
192.7679179999999
 20
707.91229999999996
 30
0.0
 11
192.84114099999999
 21
708.08907699999986
 31
0.0
  0
LINE
  5
D4
  8
0
 62
     7
 10
221.96561199999999
 20
732.316914
 30
0.0
 11
223.35193399999989
 21
738.22342300000003
 31
0.0
  0
LINE
  5
D5
  8
0
 62
     7
 10
220.79717599999989
 20
731.56458699999985
 30
0.0
 11
221.5334299999999
 21
731.70462399999985
 31
0.0
  0
LINE
  5
D6
  8
0
 62
     7
 10
221.5334299999999
 20
731.70461699999998
 30
0.0
 11
221.96561199999999
 21
732.31690599999979
 31
0.0
  0
LINE
  5
D7
  8
0
 62
     7
 10
223.35193100000001
 20
738.22341500000005
 30
0.0
 11
223.23713499999999
 21
738.96431399999994
 31
0.0
  0
LINE
  5
D8
  8
0
 62
     7
 10
223.23713499999999
 20
738.96432100000004
 30
0.0
 11
222.6396269999999
 21
739.41719399999988
 31
0.0
  0
LINE
  5
D9
  8
0
 62
     7
 10
222.6396269999999
 20
739.41719399999988
 30
0.0
 11
195.7693459999999
 21
746.68930399999999
 31
0.0
  0
LINE
  5
DA
  8
0
 62
     7
 10
195.76934800000001
 20
746.6892969999999
 30
0.0
 11
195.2206139999999
 21
747.06810399999995
 31
0.0
  0
LINE
  5
DB
  8
0
 62
     7
 10
195.22061299999999
 20
747.06810399999995
 30
0.0
 11
195.03199499999991
 21
747.70765300000005
 31
0.0
  0
LINE
  5
DC
  8
0
 62
     7
 10
192.9592429999999
 20
736.18506999999988
 30
0.0
 11
193.40311899999989
 21
736.74663199999998
 31
0.0
  0
LINE
  5
DD
  8
0
 62
     7
 10
193.40311999999989
 20
736.74663199999998
 30
0.0
 11
194.10862399999991
 21
736.86764900000003
 31
0.0
  0
LINE
  5
DE
  8
0
 62
     7
 10
220.79717599999989
 20
731.56458699999985
 30
0.0
 11
194.10862399999991
 21
736.86765699999989
 31
0.0
  0
LINE
  5
DF
  8
0
 62
     7
 10
193.699454
 20
761.58385799999996
 30
0.0
 11
192.9263259999999
 21
761.76531599999987
 31
0.0
  0
LINE
  5
E0
  8
0
 62
     7
 10
220.76343199999991
 20
731.57128499999988
 30
0.0
 11
222.60701599999999
 21
739.42601400000001
 31
0.0
  0
ARC
  5
E1
  8
0
 62
     7
 10
148.098207
 20
750.20265599999993
 30
0.0
 40
47.000060999999988
 50
341.24591400000003
 51
14.013635999999989
  0
LINE
  5
E2
  8
0
  6
DASHED
 62
     2
 10
308.33359000000002
 20
710.84512299999994
 30
0.0
 11
308.33359000000002
 21
794.34512699999993
 31
0.0
  0
LINE
  5
E3
  8
0
  6
DASHED
 62
     7
 10
304.33359000000002
 20
706.84512299999994
 30
0.0
 11
294.33359000000002
 21
706.84512299999994
 31
0.0
  0
LINE
  5
E4
  8
0
  6
DASHED
 62
     7
 10
283.33359000000002
 20
739.37047999999993
 30
0.0
 11
274.83359000000002
 21
739.37047999999993
 31
0.0
  0
LINE
  5
E5
  8
0
  6
DASHED
 62
     7
 10
304.33359000000002
 20
798.34512699999993
 30
0.0
 11
286.33359000000002
 21
798.34512699999993
 31
0.0
  0
ARC
  5
E6
  8
0
  6
DASHED
 62
     7
 10
294.33359000000002
 20
710.84512299999994
 30
0.0
 40
4.0
 50
180.00000299999991
 51
270.00000499999987
  0
ARC
  5
E7
  8
0
  6
DASHED
 62
     7
 10
304.33359000000002
 20
710.84512299999994
 30
0.0
 40
4.0
 50
270.00000499999987
 51
0.000001
  0
ARC
  5
E8
  8
0
  6
DASHED
 62
     7
 10
283.33359000000002
 20
732.37047999999993
 30
0.0
 40
7.0
 50
0.000001
 51
90.0
  0
ARC
  5
E9
  8
0
  6
DASHED
 62
     7
 10
283.33359000000002
 20
735.88617299999999
 30
0.0
 40
7.0
 50
0.000001
 51
90.0
  0
ARC
  5
EA
  8
0
  6
DASHED
 62
     7
 10
304.33359000000002
 20
794.34512699999993
 30
0.0
 40
4.0
 50
0.000001
 51
90.0
  0
LINE
  5
EB
  8
0
  6
DASHED
 62
     7
 10
290.33359000000002
 20
710.84512299999994
 30
0.0
 11
290.33359000000002
 21
735.88617299999999
 31
0.0
  0
LINE
  5
EC
  8
0
  6
DASHED
 62
     7
 10
316.33359000000002
 20
744.84511899999995
 30
0.0
 11
316.33359000000002
 21
760.84511900000007
 31
0.0
  0
ARC
  5
ED
  8
0
  6
DASHED
 62
     7
 10
312.33359000000002
 20
744.84511899999995
 30
0.0
 40
4.0
 50
180.00000299999991
 51
0.000001
  0
ARC
  5
EE
  8
0
  6
DASHED
 62
     7
 10
312.33359000000002
 20
760.84511900000007
 30
0.0
 40
4.0
 50
0.000001
 51
180.00000299999991
  0
LINE
  5
EF
  8
0
  6
DASHDOT
 62
     7
 10
318.33359000000002
 20
744.84511899999995
 30
0.0
 11
306.33359000000002
 21
744.84511899999995
 31
0.0
  0
LINE
  5
F0
  8
0
  6
DASHDOT
 62
     7
 10
312.33359000000002
 20
738.84511899999995
 30
0.0
 11
312.33359000000002
 21
766.84511899999995
 31
0.0
  0
LINE
  5
F1
  8
0
  6
DASHDOT
 62
     7
 10
318.33359000000002
 20
760.84511900000007
 30
0.0
 11
306.33359000000002
 21
760.84511900000007
 31
0.0
  0
ARC
  5
F2
  8
0
  6
DASHED
 62
     7
 10
299.33359000000002
 20
779.84512699999993
 30
0.0
 40
41.299396999999999
 50
282.58693699999998
 51
307.75004899999999
  0
ARC
  5
F3
  8
0
  6
DASHED
 62
     7
 10
299.33359000000002
 20
779.84512699999993
 30
0.0
 40
44.299396999999999
 50
281.72198900000001
 51
307.180699
  0
LINE
  5
F4
  8
0
  6
DASHED
 62
     7
 10
327.704027
 20
741.71222299999999
 30
0.0
 11
308.33359000000002
 21
776.09410500000001
 31
0.0
  0
LINE
  5
F5
  8
0
  6
DASHED
 62
     2
 10
330.31776600000001
 20
743.18477999999993
 30
0.0
 11
308.33359000000002
 21
782.20593599999995
 31
0.0
  0
LINE
  5
F6
  8
0
  6
DASHED
 62
     7
 10
327.704027
 20
741.71222299999999
 30
0.0
 11
330.31776600000001
 21
743.18477999999993
 31
0.0
  0
LINE
  5
F7
  8
0
  6
DASHED
 62
     7
 10
274.83359000000002
 20
739.37047999999993
 30
0.0
 11
274.83359000000002
 21
745.34511899999995
 31
0.0
  0
LINE
  5
F8
  8
0
 62
   191
 10
236.342344
 20
746.05530199999987
 30
0.0
 11
236.34341199999989
 21
798.33876399999997
 31
0.0
  0
LINE
  5
F9
  8
0
 62
     9
 10
274.33359000000002
 20
745.34502800000007
 30
0.0
 11
274.33359000000002
 21
761.84511899999995
 31
0.0
  0
LINE
  5
FA
  8
0
 62
     9
 10
258.83359000000002
 20
762.84512699999993
 30
0.0
 11
258.83359000000002
 21
767.84512699999993
 31
0.0
  0
LINE
  5
FB
  8
0
 62
     9
 10
272.08359000000002
 20
812.84552399999995
 30
0.0
 11
258.83359000000002
 21
812.84552399999995
 31
0.0
  0
LINE
  5
FC
  8
0
 62
     9
 10
272.08359000000002
 20
707.84549299999992
 30
0.0
 11
258.83359000000002
 21
707.84549299999992
 31
0.0
  0
LINE
  5
FD
  8
0
 62
     9
 10
273.33359000000002
 20
709.09552399999995
 30
0.0
 11
273.33359000000002
 21
761.84511899999995
 31
0.0
  0
LINE
  5
FE
  8
0
 62
     9
 10
258.83359000000002
 20
707.84549299999992
 30
0.0
 11
258.83359000000002
 21
762.84512699999993
 31
0.0
  0
LINE
  5
FF
  8
0
 62
     9
 10
258.83359000000002
 20
771.84501999999998
 30
0.0
 11
258.83359000000002
 21
812.84552399999995
 31
0.0
  0
LINE
  5
100
  8
0
 62
     9
 10
258.83359000000002
 20
767.84512699999993
 30
0.0
 11
258.83359000000002
 21
771.84502799999996
 31
0.0
  0
LINE
  5
101
  8
0
 62
     9
 10
272.96747799999991
 20
708.21164699999986
 30
0.0
 11
273.333597
 21
709.09553099999994
 31
0.0
  0
LINE
  5
102
  8
0
 62
     9
 10
272.79065099999991
 20
708.13839299999995
 30
0.0
 11
272.96746999999988
 21
708.21163899999999
 31
0.0
  0
LINE
  5
103
  8
0
 62
     9
 10
272.08359000000002
 20
707.84549299999992
 30
0.0
 11
272.790415
 21
708.13829400000009
 31
0.0
  0
LINE
  5
104
  8
0
 62
     9
 10
272.96747799999991
 20
812.47940400000005
 30
0.0
 11
272.08359699999988
 21
812.84552399999995
 31
0.0
  0
LINE
  5
105
  8
0
 62
     9
 10
273.33359000000002
 20
811.59553899999992
 30
0.0
 11
272.96746999999988
 21
812.47942
 31
0.0
  0
LINE
  5
106
  8
0
 62
     4
 10
236.8410549999999
 20
757.34522600000003
 30
0.0
 11
236.841127
 21
786.34514200000001
 31
0.0
  0
LINE
  5
107
  8
0
 62
     4
 10
237.3409979999999
 20
745.34513499999991
 30
0.0
 11
237.341127
 21
798.345234
 31
0.0
  0
LINE
  5
108
  8
0
 62
     4
 10
238.84099800000001
 20
745.34514200000001
 30
0.0
 11
238.841127
 21
798.34521900000004
 31
0.0
  0
LINE
  5
109
  8
0
 62
     4
 10
250.8425499999999
 20
791.84500500000001
 30
0.0
 11
239.84111200000001
 21
791.84505100000001
 31
0.0
  0
LINE
  5
10A
  8
0
 62
     4
 10
250.84206599999999
 20
751.84501299999988
 30
0.0
 11
239.84101299999989
 21
751.84505100000001
 31
0.0
  0
LINE
  5
10B
  8
0
 62
     4
 10
251.84240899999989
 20
779.84503600000005
 30
0.0
 11
238.84240899999989
 21
779.84520299999986
 31
0.0
  0
LINE
  5
10C
  8
0
 62
     4
 10
251.84220699999989
 20
763.84503600000005
 30
0.0
 11
238.84220699999989
 21
763.84520299999986
 31
0.0
  0
LINE
  5
10D
  8
0
 62
     4
 10
238.84220699999989
 20
763.84520299999986
 30
0.0
 11
238.84240899999989
 21
779.84520299999986
 31
0.0
  0
LINE
  5
10E
  8
0
 62
     4
 10
251.84207000000001
 20
752.84500500000001
 30
0.0
 11
251.842546
 21
790.84499000000005
 31
0.0
  0
LINE
  5
10F
  8
0
 62
     9
 10
274.33359000000002
 20
745.34502800000007
 30
0.0
 11
273.33359000000002
 21
745.34502800000007
 31
0.0
  0
LINE
  5
110
  8
0
 62
     9
 10
274.33359000000002
 20
798.34501999999998
 30
0.0
 11
273.33359000000002
 21
798.34501999999998
 31
0.0
  0
LINE
  5
111
  8
0
 62
     4
 10
236.84106299999999
 20
758.59518800000001
 30
0.0
 11
236.3426
 21
758.59518800000001
 31
0.0
  0
LINE
  5
112
  8
0
 62
     4
 10
236.841127
 20
785.09518800000001
 30
0.0
 11
236.34314199999989
 21
785.09518800000001
 31
0.0
  0
LINE
  5
113
  8
0
 62
     4
 10
237.34105500000001
 20
757.34522600000003
 30
0.0
 11
236.8410549999999
 21
757.34522600000003
 31
0.0
  0
LINE
  5
114
  8
0
 62
     4
 10
237.341127
 20
786.34514200000001
 30
0.0
 11
236.841127
 21
786.34514200000001
 31
0.0
  0
LINE
  5
115
  8
0
 62
     4
 10
237.3409979999999
 20
745.34513499999991
 30
0.0
 11
238.84099800000001
 21
745.34514200000001
 31
0.0
  0
LINE
  5
116
  8
0
 62
     4
 10
238.841127
 20
798.34521900000004
 30
0.0
 11
237.341127
 21
798.345234
 31
0.0
  0
ARC
  5
117
  8
0
 62
     7
 10
250.842546
 20
790.8450049999999
 30
0.0
 40
1.0
 50
359.99926299999998
 51
90.0
  0
ARC
  5
118
  8
0
 62
     7
 10
250.84207000000001
 20
752.84501299999999
 30
0.0
 40
1.0
 50
269.99982699999998
 51
359.99926299999998
  0
ARC
  5
119
  8
0
 62
     7
 10
239.84111200000001
 20
792.84505100000001
 30
0.0
 40
1.0
 50
179.99985899999999
 51
269.99979999999999
  0
ARC
  5
11A
  8
0
 62
     7
 10
239.84101299999989
 20
750.84505100000001
 30
0.0
 40
1.0
 50
90.0
 51
179.99985899999999
  0
LINE
  5
11B
  8
0
 62
   191
 10
273.33359000000002
 20
798.33735999999999
 30
0.0
 11
273.33359000000002
 21
812.33841299999995
 31
0.0
  0
LINE
  5
11C
  8
0
 62
     7
 10
256.83359000000002
 20
696.50894200000005
 30
0.0
 11
256.83359000000002
 21
878.67842499999995
 31
0.0
  0
LINE
  5
11D
  8
0
 62
     7
 10
258.83359000000002
 20
812.83841299999983
 30
0.0
 11
258.83359000000002
 21
878.67842499999995
 31
0.0
  0
LINE
  5
11E
  8
0
 62
     5
 10
253.8335899999999
 20
758.33750499999985
 30
0.0
 11
253.8335899999999
 21
785.33751299999994
 31
0.0
  0
LINE
  5
11F
  8
0
 62
     5
 10
256.83359000000002
 20
786.83748200000002
 30
0.0
 11
255.33358200000001
 21
786.8374980000001
 31
0.0
  0
LINE
  5
120
  8
0
 62
     5
 10
256.83359000000002
 20
756.83748200000002
 30
0.0
 11
255.33361199999999
 21
756.8374980000001
 31
0.0
  0
LINE
  5
121
  8
0
 62
     5
 10
256.83359000000002
 20
785.33748199999991
 30
0.0
 11
253.8335899999999
 21
785.33751299999994
 31
0.0
  0
LINE
  5
122
  8
0
 62
     5
 10
256.83359000000002
 20
758.33748200000002
 30
0.0
 11
253.8335899999999
 21
758.33750499999985
 31
0.0
  0
LINE
  5
123
  8
0
 62
     5
 10
253.8335899999999
 20
785.33751299999994
 30
0.0
 11
255.333597
 21
786.83751299999994
 31
0.0
  0
LINE
  5
124
  8
0
 62
     5
 10
255.3335899999999
 20
756.83752100000004
 30
0.0
 11
253.8335899999999
 21
758.33752100000004
 31
0.0
  0
LINE
  5
125
  8
0
 62
     7
 10
253.8335899999999
 20
776.83752800000002
 30
0.0
 11
251.8423709999999
 21
776.83754299999987
 31
0.0
  0
LINE
  5
126
  8
0
 62
     7
 10
253.8335899999999
 20
766.83752800000002
 30
0.0
 11
251.84224499999999
 21
766.83754299999998
 31
0.0
  0
LINE
  5
127
  8
0
  6
DASHDOT
 62
     7
 10
245.3335899999999
 20
747.65910699999995
 30
0.0
 11
245.3335899999999
 21
798.33765000000005
 31
0.0
  0
LINE
  5
128
  8
0
 62
     7
 10
247.8335899999999
 20
795.84503600000005
 30
0.0
 11
247.8335899999999
 21
801.8375739999999
 31
0.0
  0
LINE
  5
129
  8
0
 62
     7
 10
242.8335899999999
 20
795.84508099999994
 30
0.0
 11
242.8335899999999
 21
801.83762000000002
 31
0.0
  0
LINE
  5
12A
  8
0
 62
     7
 10
247.8335899999999
 20
801.8375739999999
 30
0.0
 11
242.8335899999999
 21
801.83762000000002
 31
0.0
  0
LINE
  5
12B
  8
0
 62
     7
 10
247.3985879999999
 20
795.84505100000001
 30
0.0
 11
247.3985879999999
 21
801.8375739999999
 31
0.0
  0
LINE
  5
12C
  8
0
 62
     7
 10
243.26859099999999
 20
795.84508099999994
 30
0.0
 11
243.26859099999999
 21
801.83762000000002
 31
0.0
  0
LINE
  5
12D
  8
0
 62
     7
 10
247.83334500000001
 20
741.83757400000002
 30
0.0
 11
247.833437
 21
747.84498199999996
 31
0.0
  0
LINE
  5
12E
  8
0
 62
     7
 10
247.83334500000001
 20
741.83757400000002
 30
0.0
 11
242.8333299999999
 21
741.83761200000004
 31
0.0
  0
LINE
  5
12F
  8
0
 62
     7
 10
243.26834700000001
 20
741.83761200000004
 30
0.0
 11
243.26843799999989
 21
747.84501299999988
 31
0.0
  0
LINE
  5
130
  8
0
 62
     7
 10
247.39834400000001
 20
741.837582
 30
0.0
 11
247.39843599999989
 21
747.84498199999996
 31
0.0
  0
LINE
  5
131
  8
0
 62
     7
 10
242.83334500000001
 20
741.83761200000004
 30
0.0
 11
242.83343699999989
 21
747.84501999999998
 31
0.0
  0
LINE
  5
132
  8
0
 62
   132
 10
249.018595
 20
795.84503600000005
 30
0.0
 11
241.648596
 21
795.84509700000001
 31
0.0
  0
LINE
  5
133
  8
0
 62
   132
 10
240.8985879999999
 20
792.59509700000001
 30
0.0
 11
240.8985879999999
 21
795.09509700000001
 31
0.0
  0
LINE
  5
134
  8
0
 62
   132
 10
249.76859099999999
 20
792.59503600000005
 30
0.0
 11
249.76859099999999
 21
795.09503600000005
 31
0.0
  0
LINE
  5
135
  8
0
 62
   132
 10
242.39858799999999
 20
792.59509700000001
 30
0.0
 11
242.39858799999999
 21
795.09509700000001
 31
0.0
  0
LINE
  5
136
  8
0
 62
   132
 10
248.26859099999999
 20
792.59501999999986
 30
0.0
 11
248.26859099999999
 21
795.09503600000005
 31
0.0
  0
LINE
  5
137
  8
0
 62
   132
 10
249.01859099999999
 20
791.84501999999986
 30
0.0
 11
241.6485879999999
 21
791.84501999999986
 31
0.0
  0
ARC
  5
138
  8
0
 62
   132
 10
241.6485879999999
 20
792.59509700000001
 30
0.0
 40
0.75
 50
180.0051729999999
 51
0.000001
  0
ARC
  5
139
  8
0
 62
   132
 10
245.3335899999999
 20
797.96284900000001
 30
0.0
 40
6.1178160000000004
 50
241.3311589999999
 51
298.668836
  0
ARC
  5
13A
  8
0
 62
   132
 10
249.01859099999999
 20
792.59503600000005
 30
0.0
 40
0.75
 50
180.00000299999991
 51
359.99912599999988
  0
ARC
  5
13B
  8
0
 62
   132
 10
249.01859099999999
 20
795.09503600000005
 30
0.0
 40
0.75
 50
359.99956400000002
 51
180.00000299999991
  0
ARC
  5
13C
  8
0
 62
   132
 10
245.33354800000001
 20
789.72723799999994
 30
0.0
 40
6.1178160000000004
 50
61.330727000000003
 51
118.668397
  0
ARC
  5
13D
  8
0
 62
   132
 10
241.6485879999999
 20
795.09509700000001
 30
0.0
 40
0.75
 50
0.000001
 51
179.9995649999999
  0
LINE
  5
13E
  8
0
 62
   132
 10
249.01833500000001
 20
747.84496699999988
 30
0.0
 11
241.64833599999989
 21
747.84502799999996
 31
0.0
  0
ARC
  5
13F
  8
0
 62
   132
 10
245.33338399999991
 20
753.96281799999997
 30
0.0
 40
6.1178160000000004
 50
241.33072399999989
 51
298.66839900000002
  0
ARC
  5
140
  8
0
 62
   132
 10
249.01834299999999
 20
748.594967
 30
0.0
 40
0.75
 50
179.99912800000001
 51
359.99956400000002
  0
LINE
  5
141
  8
0
 62
   132
 10
248.26834299999999
 20
748.59497499999986
 30
0.0
 11
248.26838100000001
 21
751.09499000000005
 31
0.0
  0
LINE
  5
142
  8
0
 62
   132
 10
242.39833999999999
 20
748.59501299999988
 30
0.0
 11
242.39837799999989
 21
751.0950049999999
 31
0.0
  0
LINE
  5
143
  8
0
 62
   132
 10
240.89833999999991
 20
748.59503600000005
 30
0.0
 11
240.89837799999989
 21
751.09502800000007
 31
0.0
  0
LINE
  5
144
  8
0
 62
   132
 10
249.76834299999999
 20
748.59495900000002
 30
0.0
 11
249.76838100000001
 21
751.09495199999992
 31
0.0
  0
ARC
  5
145
  8
0
 62
   132
 10
249.01838099999989
 20
751.094967
 30
0.0
 40
0.75
 50
0.000001
 51
179.99912800000001
  0
LINE
  5
146
  8
0
 62
   132
 10
249.018393
 20
751.84497499999998
 30
0.0
 11
241.64838999999989
 21
751.84508899999992
 31
0.0
  0
ARC
  5
147
  8
0
 62
   132
 10
241.64837799999989
 20
751.09501999999986
 30
0.0
 40
0.75
 50
359.99912599999988
 51
179.99395799999999
  0
ARC
  5
148
  8
0
 62
   132
 10
245.33330000000001
 20
745.727215
 30
0.0
 40
6.1178160000000004
 50
61.33029100000001
 51
118.66795999999999
  0
ARC
  5
149
  8
0
 62
   132
 10
241.64833999999999
 20
748.59502799999996
 30
0.0
 40
0.75
 50
179.9995649999999
 51
359.99912599999988
  0
ARC
  5
14A
  8
0
 62
     7
 10
259.83359000000002
 20
794.84512699999993
 30
0.0
 40
5.7999999999999989
 50
184.94542799999991
 51
220.28211400000001
  0
LINE
  5
14B
  8
0
 62
     7
 10
255.03358700000001
 20
794.34512699999993
 30
0.0
 11
254.0551779999999
 21
794.34512699999993
 31
0.0
  0
LINE
  5
14C
  8
0
 62
     7
 10
255.03358700000001
 20
795.34512699999993
 30
0.0
 11
254.0551779999999
 21
795.34512699999993
 31
0.0
  0
ARC
  5
14D
  8
0
 62
     7
 10
259.83359000000002
 20
794.84512699999993
 30
0.0
 40
5.7999999999999989
 50
139.717883
 51
175.0545699999999
  0
LINE
  5
14E
  8
0
 62
     7
 10
256.83359000000002
 20
798.59512699999993
 30
0.0
 11
255.40894499999999
 21
798.59512699999993
 31
0.0
  0
LINE
  5
14F
  8
0
 62
     7
 10
256.83359000000002
 20
791.09512699999993
 30
0.0
 11
255.40894499999999
 21
791.09512699999993
 31
0.0
  0
LINE
  5
150
  8
0
 62
     7
 10
255.03358700000001
 20
794.34512699999993
 30
0.0
 11
255.03358700000001
 21
795.34512699999993
 31
0.0
  0
LINE
  5
151
  8
0
  6
DASHDOT
 62
     7
 10
270.17449399999992
 20
794.84512699999993
 30
0.0
 11
253.35865200000001
 21
794.84512699999993
 31
0.0
  0
POLYLINE
  5
152
  8
0
 62
     7
 66
     1
 10
0.0
 20
0.0
 30
0.0
  0
VERTEX
  5
77D
  8
0
 62
     7
 10
264.83813700000002
 20
878.67842499999995
 30
0.0
  0
VERTEX
  5
77E
  8
0
 62
     7
 10
254.88591199999999
 20
878.67842499999995
 30
0.0
  0
VERTEX
  5
77F
  8
0
 62
     7
 10
253.88591199999999
 20
876.67842499999983
 30
0.0
  0
VERTEX
  5
780
  8
0
 62
     7
 10
252.88591199999999
 20
880.67842499999995
 30
0.0
  0
VERTEX
  5
781
  8
0
 62
     7
 10
251.88591199999999
 20
878.67842499999995
 30
0.0
  0
SEQEND
  5
782
  8
0
 62
     7
  0
POLYLINE
  5
159
  8
0
 62
     7
 66
     1
 10
0.0
 20
0.0
 30
0.0
  0
VERTEX
  5
783
  8
0
 62
     7
 10
266.85489799999999
 20
696.50894200000005
 30
0.0
  0
VERTEX
  5
784
  8
0
 62
     7
 10
257.704409
 20
696.50894200000005
 30
0.0
  0
VERTEX
  5
785
  8
0
 62
     7
 10
256.704409
 20
694.50894200000005
 30
0.0
  0
VERTEX
  5
786
  8
0
 62
     7
 10
255.704409
 20
698.50894200000005
 30
0.0
  0
VERTEX
  5
787
  8
0
 62
     7
 10
254.70440899999991
 20
696.50894200000005
 30
0.0
  0
SEQEND
  5
788
  8
0
 62
     7
  0
LINE
  5
160
  8
0
 62
     7
 10
258.83359000000002
 20
696.50894200000005
 30
0.0
 11
258.83359000000002
 21
707.84549299999992
 31
0.0
  0
LINE
  5
161
  8
0
 62
     7
 10
277.83359000000002
 20
768.84511900000007
 30
0.0
 11
277.83359000000002
 21
774.84511899999995
 31
0.0
  0
LINE
  5
162
  8
0
 62
     7
 10
275.83359000000002
 20
776.84511900000007
 30
0.0
 11
258.83359000000002
 21
776.84511900000007
 31
0.0
  0
LINE
  5
163
  8
0
 62
     7
 10
275.83359000000002
 20
766.84511899999995
 30
0.0
 11
258.83359000000002
 21
766.84511899999995
 31
0.0
  0
LINE
  5
164
  8
0
 62
     7
 10
277.83359000000002
 20
774.84511899999995
 30
0.0
 11
275.83359000000002
 21
776.84511900000007
 31
0.0
  0
LINE
  5
165
  8
0
 62
     7
 10
275.83359000000002
 20
766.84511899999995
 30
0.0
 11
277.83359000000002
 21
768.84511900000007
 31
0.0
  0
CIRCLE
  5
166
  8
0
 62
     7
 10
271.83359000000002
 20
771.84511899999995
 30
0.0
 40
2.75
  0
LINE
  5
167
  8
0
  6
DASHDOT
 62
     7
 10
271.83359000000002
 20
768.09511899999995
 30
0.0
 11
271.83359000000002
 21
775.59511900000007
 31
0.0
  0
POLYLINE
  5
168
  8
0
 62
     7
 66
     1
 10
0.0
 20
0.0
 30
0.0
  0
VERTEX
  5
789
  8
0
 62
     7
 10
282.83359000000002
 20
781.84512699999993
 30
0.0
  0
VERTEX
  5
78A
  8
0
 62
     7
 10
266.83359000000002
 20
781.84512699999993
 30
0.0
  0
VERTEX
  5
78B
  8
0
 62
     7
 10
265.83359000000002
 20
779.84512699999993
 30
0.0
  0
VERTEX
  5
78C
  8
0
 62
     7
 10
264.83359000000002
 20
783.84512699999993
 30
0.0
  0
VERTEX
  5
78D
  8
0
 62
     7
 10
263.83359000000002
 20
781.84512699999993
 30
0.0
  0
VERTEX
  5
78E
  8
0
 62
     7
 10
258.83359000000002
 20
781.84512699999993
 30
0.0
  0
SEQEND
  5
78F
  8
0
 62
     7
  0
POLYLINE
  5
170
  8
0
 62
     7
 66
     1
 10
0.0
 20
0.0
 30
0.0
  0
VERTEX
  5
790
  8
0
 62
     7
 10
282.83359000000002
 20
761.84511899999995
 30
0.0
  0
VERTEX
  5
791
  8
0
 62
     7
 10
266.83359000000002
 20
761.84511899999995
 30
0.0
  0
VERTEX
  5
792
  8
0
 62
     7
 10
265.83359000000002
 20
759.84511899999995
 30
0.0
  0
VERTEX
  5
793
  8
0
 62
     7
 10
264.83359000000002
 20
763.84511899999995
 30
0.0
  0
VERTEX
  5
794
  8
0
 62
     7
 10
263.83359000000002
 20
761.84511899999995
 30
0.0
  0
VERTEX
  5
795
  8
0
 62
     7
 10
258.83359000000002
 20
761.84511899999995
 30
0.0
  0
SEQEND
  5
796
  8
0
 62
     7
  0
POLYLINE
  5
178
  8
0
 62
     7
 66
     1
 10
0.0
 20
0.0
 30
0.0
  0
VERTEX
  5
797
  8
0
 62
     7
 10
282.83359000000002
 20
761.84511899999995
 30
0.0
  0
VERTEX
  5
798
  8
0
 62
     7
 10
282.83359000000002
 20
777.84511900000007
 30
0.0
  0
VERTEX
  5
799
  8
0
 62
     7
 10
280.83359000000002
 20
778.84511199999986
 30
0.0
  0
VERTEX
  5
79A
  8
0
 62
     7
 10
284.83359000000002
 20
779.84511199999997
 30
0.0
  0
VERTEX
  5
79B
  8
0
 62
     7
 10
282.83359000000002
 20
780.84511199999986
 30
0.0
  0
VERTEX
  5
79C
  8
0
 62
     7
 10
282.83359000000002
 20
781.84512699999993
 30
0.0
  0
SEQEND
  5
79D
  8
0
 62
     7
  0
LINE
  5
180
  8
0
 62
     9
 10
273.33359000000002
 20
781.84512699999993
 30
0.0
 11
273.33359000000002
 21
811.59552400000007
 31
0.0
  0
LINE
  5
181
  8
0
 62
     9
 10
274.33359000000002
 20
781.84512699999993
 30
0.0
 11
274.33359000000002
 21
798.34501999999998
 31
0.0
  0
LINE
  5
182
  8
0
 62
     2
 10
274.83359000000002
 20
781.84512699999993
 30
0.0
 11
274.83359000000002
 21
787.84512699999993
 31
0.0
  0
LINE
  5
183
  8
0
 62
     7
 10
256.83359000000002
 20
752.59511899999995
 30
0.0
 11
255.40894499999999
 21
752.59511899999995
 31
0.0
  0
ARC
  5
184
  8
0
 62
     7
 10
259.83359000000002
 20
748.84511900000007
 30
0.0
 40
5.7999999999999989
 50
139.717883
 51
175.0545699999999
  0
LINE
  5
185
  8
0
 62
     7
 10
255.03358700000001
 20
749.34511899999995
 30
0.0
 11
254.0551779999999
 21
749.34511899999995
 31
0.0
  0
LINE
  5
186
  8
0
 62
     7
 10
255.03358700000001
 20
748.34511900000007
 30
0.0
 11
255.03358700000001
 21
749.34511899999995
 31
0.0
  0
LINE
  5
187
  8
0
 62
     7
 10
255.03358700000001
 20
748.34511900000007
 30
0.0
 11
254.0551779999999
 21
748.34511900000007
 31
0.0
  0
ARC
  5
188
  8
0
 62
     7
 10
259.83359000000002
 20
748.84511900000007
 30
0.0
 40
5.7999999999999989
 50
184.94542799999991
 51
220.28211400000001
  0
LINE
  5
189
  8
0
 62
     7
 10
256.83359000000002
 20
745.09511899999995
 30
0.0
 11
255.40894499999999
 21
745.09511899999995
 31
0.0
  0
LINE
  5
18A
  8
0
  6
DASHDOT
 62
     7
 10
270.17449399999992
 20
748.84511900000007
 30
0.0
 11
253.35865200000001
 21
748.84511900000007
 31
0.0
  0
LINE
  5
18B
  8
0
  6
DASHSPACE
 62
     2
 10
209.84114299999999
 20
766.84511899999995
 30
0.0
 11
209.84114299999999
 21
776.84511900000007
 31
0.0
  0
LINE
  5
18C
  8
0
  6
DASHSPACE
 62
     2
 10
251.8423709999999
 20
776.84511900000007
 30
0.0
 11
209.84114299999999
 21
776.84511900000007
 31
0.0
  0
LINE
  5
18D
  8
0
  6
DASHSPACE
 62
     2
 10
251.8423709999999
 20
766.84511899999995
 30
0.0
 11
209.84114299999999
 21
766.84511899999995
 31
0.0
  0
LINE
  5
18E
  8
0
 62
     3
 10
251.84207000000001
 20
664.27514299999984
 30
0.0
 11
251.84207000000001
 21
671.72029899999995
 31
0.0
  0
LINE
  5
18F
  8
0
 62
     3
 10
251.84207000000001
 20
628.82429100000002
 30
0.0
 11
251.84207000000001
 21
636.69828700000005
 31
0.0
  0
LINE
  5
190
  8
0
 62
     3
 10
251.84207000000001
 20
680.833168
 30
0.0
 11
251.84207000000001
 21
752.84500500000001
 31
0.0
  0
LINE
  5
191
  8
0
 62
    52
 10
308.33358199999992
 20
897.96652599999993
 30
0.0
 11
300.94752699999992
 21
899.26886400000001
 31
0.0
  0
LINE
  5
192
  8
0
 62
    52
 10
308.33358199999992
 20
897.96652599999993
 30
0.0
 11
300.94752699999992
 21
896.66415800000004
 31
0.0
  0
LINE
  5
193
  8
0
 62
    52
 10
258.833574
 20
897.96652599999993
 30
0.0
 11
266.219629
 21
896.66415800000004
 31
0.0
  0
LINE
  5
194
  8
0
 62
    52
 10
258.833574
 20
897.96652599999993
 30
0.0
 11
266.219629
 21
899.26886400000001
 31
0.0
  0
LINE
  5
195
  8
0
 62
    52
 10
258.833574
 20
897.96652599999993
 30
0.0
 11
251.4475229999999
 21
899.26886400000001
 31
0.0
  0
LINE
  5
196
  8
0
 62
    52
 10
258.833574
 20
897.96652599999993
 30
0.0
 11
251.4475229999999
 21
896.66415800000004
 31
0.0
  0
LINE
  5
197
  8
0
 62
    52
 10
192.84114600000001
 20
897.96652599999993
 30
0.0
 11
200.22720099999989
 21
896.66415800000004
 31
0.0
  0
LINE
  5
198
  8
0
 62
    52
 10
192.84114600000001
 20
897.96652599999993
 30
0.0
 11
200.22720099999989
 21
899.26886400000001
 31
0.0
  0
LINE
  5
199
  8
0
 62
    52
 10
308.33358199999992
 20
897.96652599999993
 30
0.0
 11
192.84114600000001
 21
897.96652599999993
 31
0.0
  0
LINE
  5
19A
  8
0
 62
    52
 10
308.33358199999992
 20
902.96652599999993
 30
0.0
 11
308.33358199999992
 21
794.34512699999993
 31
0.0
  0
LINE
  5
19B
  8
0
 62
    52
 10
258.833574
 20
902.96652599999993
 30
0.0
 11
258.833574
 21
878.67842499999995
 31
0.0
  0
LINE
  5
19C
  8
0
 62
    52
 10
192.84114600000001
 20
902.96652599999993
 30
0.0
 11
192.84114600000001
 21
812.58908499999995
 31
0.0
  0
LINE
  5
19D
  8
0
 62
    52
 10
330.31776600000001
 20
897.96652599999993
 30
0.0
 11
337.70381400000002
 21
896.66415800000004
 31
0.0
  0
LINE
  5
19E
  8
0
 62
    52
 10
330.31776600000001
 20
897.96652599999993
 30
0.0
 11
337.70381400000002
 21
899.26886400000001
 31
0.0
  0
LINE
  5
19F
  8
0
 62
    52
 10
308.33358199999992
 20
897.96652599999993
 30
0.0
 11
300.94752699999992
 21
899.26886400000001
 31
0.0
  0
LINE
  5
1A0
  8
0
 62
    52
 10
308.33358199999992
 20
897.96652599999993
 30
0.0
 11
300.94752699999992
 21
896.66415800000004
 31
0.0
  0
LINE
  5
1A1
  8
0
 62
    52
 10
351.56776600000001
 20
897.96652599999993
 30
0.0
 11
308.33358199999992
 21
897.96652599999993
 31
0.0
  0
LINE
  5
1A2
  8
0
 62
    52
 10
330.31776600000001
 20
902.96652599999993
 30
0.0
 11
330.31779699999998
 21
743.18477199999995
 31
0.0
  0
LINE
  5
1A3
  8
0
 62
    52
 10
308.33358199999992
 20
902.96652599999993
 30
0.0
 11
308.33358199999992
 21
782.20592099999988
 31
0.0
  0
LINE
  5
1A4
  8
0
 62
    52
 10
258.833574
 20
676.05590599999994
 30
0.0
 11
266.219629
 21
674.75355000000002
 31
0.0
  0
LINE
  5
1A5
  8
0
 62
    52
 10
258.833574
 20
676.05590599999994
 30
0.0
 11
266.219629
 21
677.35827300000005
 31
0.0
  0
LINE
  5
1A6
  8
0
 62
    52
 10
256.83360499999992
 20
676.05590599999994
 30
0.0
 11
249.4475149999999
 21
677.35827300000005
 31
0.0
  0
LINE
  5
1A7
  8
0
 62
    52
 10
256.83360499999992
 20
676.05590599999994
 30
0.0
 11
249.4475149999999
 21
674.75355000000002
 31
0.0
  0
LINE
  5
1A8
  8
0
 62
    52
 10
273.208574
 20
676.05591600000002
 30
0.0
 11
256.83360499999992
 21
676.05590599999994
 31
0.0
  0
LINE
  5
1A9
  8
0
 62
    52
 10
258.833574
 20
671.05590599999994
 30
0.0
 11
258.833574
 21
707.84549299999992
 31
0.0
  0
LINE
  5
1AA
  8
0
 62
    52
 10
256.83360499999992
 20
671.05590599999994
 30
0.0
 11
256.83356700000002
 21
696.50893799999994
 31
0.0
  0
LINE
  5
1AB
  8
0
 62
    52
 10
192.84114600000001
 20
897.96652599999993
 30
0.0
 11
185.45509100000001
 21
899.26886400000001
 31
0.0
  0
LINE
  5
1AC
  8
0
 62
    52
 10
192.84114600000001
 20
897.96652599999993
 30
0.0
 11
185.45509100000001
 21
896.66415800000004
 31
0.0
  0
LINE
  5
1AD
  8
0
 62
    52
 10
89.341166000000015
 20
897.96652599999993
 30
0.0
 11
96.727221000000014
 21
896.66415800000004
 31
0.0
  0
LINE
  5
1AE
  8
0
 62
    52
 10
89.341166000000015
 20
897.96652599999993
 30
0.0
 11
96.727221000000014
 21
899.26886400000001
 31
0.0
  0
LINE
  5
1AF
  8
0
 62
    52
 10
192.84114600000001
 20
897.96652599999993
 30
0.0
 11
89.341166000000015
 21
897.96652599999993
 31
0.0
  0
LINE
  5
1B0
  8
0
 62
    52
 10
192.84114600000001
 20
902.96652599999993
 30
0.0
 11
192.84114600000001
 21
812.58908499999995
 31
0.0
  0
LINE
  5
1B1
  8
0
 62
    52
 10
89.341166000000015
 20
902.96652599999993
 30
0.0
 11
89.341166000000015
 21
892.41229600000008
 31
0.0
  0
LINE
  5
1B2
  8
0
 62
    52
 10
277.83359000000002
 20
839.12360000000012
 30
0.0
 11
270.44753500000002
 21
840.42598299999986
 31
0.0
  0
LINE
  5
1B3
  8
0
 62
    52
 10
277.83359000000002
 20
839.12360000000012
 30
0.0
 11
270.44753500000002
 21
837.82124699999986
 31
0.0
  0
LINE
  5
1B4
  8
0
 62
    52
 10
258.833574
 20
839.12360000000012
 30
0.0
 11
266.219629
 21
837.82124699999986
 31
0.0
  0
LINE
  5
1B5
  8
0
 62
    52
 10
258.833574
 20
839.12360000000012
 30
0.0
 11
266.219629
 21
840.42598299999986
 31
0.0
  0
LINE
  5
1B6
  8
0
 62
    52
 10
277.83359000000002
 20
839.12360000000012
 30
0.0
 11
258.833574
 21
839.12360000000012
 31
0.0
  0
LINE
  5
1B7
  8
0
 62
    52
 10
277.83359000000002
 20
844.1235999999999
 30
0.0
 11
277.83359000000002
 21
774.84511899999995
 31
0.0
  0
LINE
  5
1B8
  8
0
 62
    52
 10
209.84115399999999
 20
876.18213300000002
 30
0.0
 11
217.2272089999999
 21
874.87974900000006
 31
0.0
  0
LINE
  5
1B9
  8
0
 62
    52
 10
209.84115399999999
 20
876.18213300000002
 30
0.0
 11
217.2272089999999
 21
877.48450099999991
 31
0.0
  0
LINE
  5
1BA
  8
0
 62
    52
 10
192.84114600000001
 20
876.18213300000002
 30
0.0
 11
185.45509100000001
 21
877.48450099999991
 31
0.0
  0
LINE
  5
1BB
  8
0
 62
    52
 10
192.84114600000001
 20
876.18213300000002
 30
0.0
 11
185.45509100000001
 21
874.87974900000006
 31
0.0
  0
LINE
  5
1BC
  8
0
 62
    52
 10
209.84115399999999
 20
876.18213300000002
 30
0.0
 11
192.84114600000001
 21
876.18213300000002
 31
0.0
  0
LINE
  5
1BD
  8
0
 62
    52
 10
209.84115399999999
 20
881.18213300000002
 30
0.0
 11
209.84115399999999
 21
788.33220300000005
 31
0.0
  0
LINE
  5
1BE
  8
0
 62
    52
 10
192.84114600000001
 20
881.18213300000002
 30
0.0
 11
192.84114600000001
 21
812.58906899999999
 31
0.0
  0
LINE
  5
1BF
  8
0
 62
    52
 10
251.842535
 20
612.83626600000002
 30
0.0
 11
244.45647999999991
 21
614.13862599999993
 31
0.0
  0
LINE
  5
1C0
  8
0
 62
    52
 10
251.842535
 20
612.83626600000002
 30
0.0
 11
244.45647999999991
 21
611.53390100000001
 31
0.0
  0
LINE
  5
1C1
  8
0
 62
    52
 10
89.341166000000015
 20
612.83625800000004
 30
0.0
 11
96.727221000000014
 21
611.53389700000002
 31
0.0
  0
LINE
  5
1C2
  8
0
 62
    52
 10
89.341166000000015
 20
612.83625800000004
 30
0.0
 11
96.727221000000014
 21
614.13862199999994
 31
0.0
  0
LINE
  5
1C3
  8
0
 62
    52
 10
251.842535
 20
612.83626600000002
 30
0.0
 11
89.341166000000015
 21
612.83625800000004
 31
0.0
  0
LINE
  5
1C4
  8
0
 62
    52
 10
251.842535
 20
607.83626600000002
 30
0.0
 11
251.842535
 21
622.07004400000005
 31
0.0
  0
LINE
  5
1C5
  8
0
 62
    52
 10
89.341166000000015
 20
607.83625800000004
 30
0.0
 11
89.341166000000015
 21
622.41283199999998
 31
0.0
  0
LINE
  5
1C6
  8
0
 62
    52
 10
277.83359000000002
 20
626.77538699999991
 30
0.0
 11
270.44753500000002
 21
628.07774400000005
 31
0.0
  0
LINE
  5
1C7
  8
0
 62
    52
 10
277.83359000000002
 20
626.77538699999991
 30
0.0
 11
270.44753500000002
 21
625.4730209999999
 31
0.0
  0
LINE
  5
1C8
  8
0
 62
    52
 10
209.84115399999999
 20
626.77537699999993
 30
0.0
 11
217.2272089999999
 21
625.4730209999999
 31
0.0
  0
LINE
  5
1C9
  8
0
 62
    52
 10
209.84115399999999
 20
626.77537699999993
 30
0.0
 11
217.2272089999999
 21
628.07774400000005
 31
0.0
  0
LINE
  5
1CA
  8
0
 62
    52
 10
277.83359000000002
 20
626.77538699999991
 30
0.0
 11
209.84115399999999
 21
626.77537699999993
 31
0.0
  0
LINE
  5
1CB
  8
0
 62
    52
 10
277.83359000000002
 20
621.77538700000002
 30
0.0
 11
277.83359000000002
 21
768.84513499999991
 31
0.0
  0
LINE
  5
1CC
  8
0
 62
    52
 10
209.84115399999999
 20
621.77537699999993
 30
0.0
 11
209.841116
 21
760.09864400000004
 31
0.0
  0
POINT
  5
1CD
  8
0
 62
     7
 10
992.08109999999999
 20
771.84547199999986
 30
0.0
  0
POINT
  5
1CE
  8
0
 62
     7
 10
959.08109999999999
 20
771.84547199999986
 30
0.0
  0
POINT
  5
1CF
  8
0
 62
     7
 10
1005.093124
 20
794.86492699999985
 30
0.0
  0
POINT
  5
1D0
  8
0
 62
     7
 10
1000.093123999999
 20
794.86492699999985
 30
0.0
  0
CIRCLE
  5
1D1
  8
0
 62
     9
 10
975.58109999999988
 20
771.84547199999986
 30
0.0
 40
16.5
  0
CIRCLE
  5
1D2
  8
0
 62
     9
 10
948.59310199999982
 20
794.86491099999989
 30
0.0
 40
2.5
  0
CIRCLE
  5
1D3
  8
0
 62
     9
 10
1002.593124
 20
794.86492699999985
 30
0.0
 40
2.5
  0
CIRCLE
  5
1D4
  8
0
 62
     9
 10
1002.5931399999999
 20
748.86492699999985
 30
0.0
 40
2.5
  0
CIRCLE
  5
1D5
  8
0
 62
     9
 10
948.59312399999988
 20
748.86495000000002
 30
0.0
 40
2.5
  0
LINE
  5
1D6
  8
0
  6
DASHDOT
 62
     7
 10
938.23209800000006
 20
771.84547199999986
 30
0.0
 11
1011.602569999999
 21
771.84547199999986
 31
0.0
  0
LINE
  5
1D7
  8
0
  6
DASHDOT
 62
     7
 10
975.58109999999988
 20
758.87328099999979
 30
0.0
 11
975.58109999999988
 21
795.500226
 31
0.0
  0
LINE
  5
1D8
  8
0
  6
DASHDOT
 62
     7
 10
944.96813200000008
 20
748.86495000000002
 30
0.0
 11
955.08282499999996
 21
748.86495000000002
 31
0.0
  0
LINE
  5
1D9
  8
0
  6
DASHDOT
 62
     7
 10
948.59312399999988
 20
687.59211500000004
 30
0.0
 11
948.59312399999988
 21
754.57484199999988
 31
0.0
  0
LINE
  5
1DA
  8
0
  6
DASHDOT
 62
     7
 10
994.40747799999986
 20
748.86492699999985
 30
0.0
 11
1006.2181399999999
 21
748.86492699999985
 31
0.0
  0
LINE
  5
1DB
  8
0
  6
DASHDOT
 62
     7
 10
1002.5931399999999
 20
688.36379399999987
 30
0.0
 11
1002.5931399999999
 21
758.07635199999993
 31
0.0
  0
LINE
  5
1DC
  8
0
  6
DASHDOT
 62
     7
 10
980.67078399999991
 20
794.86492699999985
 30
0.0
 11
1006.218117
 21
794.86492699999985
 31
0.0
  0
LINE
  5
1DD
  8
0
  6
DASHDOT
 62
     7
 10
1002.593124
 20
790.01501199999996
 30
0.0
 11
1002.593124
 21
800.537916
 31
0.0
  0
LINE
  5
1DE
  8
0
  6
DASHDOT
 62
     7
 10
944.96807899999976
 20
794.86491099999989
 30
0.0
 11
959.39238
 21
794.86491099999989
 31
0.0
  0
LINE
  5
1DF
  8
0
  6
DASHDOT
 62
     7
 10
948.59310199999982
 20
787.43516299999999
 30
0.0
 11
948.59310199999982
 21
800.8886849999999
 31
0.0
  0
LINE
  5
1E0
  8
0
  6
DASHDOT
 62
     7
 10
1001.581099999999
 20
693.13417600000002
 30
0.0
 11
1001.581099999999
 21
839.90636999999992
 31
0.0
  0
POLYLINE
  5
1E1
  8
0
 62
     7
 66
     1
 10
0.0
 20
0.0
 30
0.0
  0
VERTEX
  5
79E
  8
0
 62
     7
 10
938.59310199999993
 20
712.48581799999999
 30
0.0
  0
VERTEX
  5
79F
  8
0
 62
     7
 10
938.59310199999993
 20
728.48582199999998
 30
0.0
  0
VERTEX
  5
7A0
  8
0
 62
     7
 10
936.59310199999993
 20
729.48582199999998
 30
0.0
  0
VERTEX
  5
7A1
  8
0
 62
     7
 10
940.59310199999982
 20
730.48582199999987
 30
0.0
  0
VERTEX
  5
7A2
  8
0
 62
     7
 10
938.59310199999993
 20
731.48582199999987
 30
0.0
  0
VERTEX
  5
7A3
  8
0
 62
     7
 10
938.59310199999993
 20
747.48582199999987
 30
0.0
  0
VERTEX
  5
7A4
  8
0
 62
     7
 10
936.59310199999993
 20
748.48582199999987
 30
0.0
  0
VERTEX
  5
7A5
  8
0
 62
     7
 10
940.59310199999982
 20
749.48582199999998
 30
0.0
  0
VERTEX
  5
7A6
  8
0
 62
     7
 10
938.59310199999993
 20
750.48582199999998
 30
0.0
  0
VERTEX
  5
7A7
  8
0
 62
     7
 10
938.59310199999993
 20
766.48582199999998
 30
0.0
  0
VERTEX
  5
7A8
  8
0
 62
     7
 10
936.59310199999993
 20
767.48582199999987
 30
0.0
  0
VERTEX
  5
7A9
  8
0
 62
     7
 10
940.59310199999982
 20
768.48582199999987
 30
0.0
  0
VERTEX
  5
7AA
  8
0
 62
     7
 10
938.59310199999993
 20
769.48582199999998
 30
0.0
  0
VERTEX
  5
7AB
  8
0
 62
     7
 10
938.59310199999993
 20
785.48582199999987
 30
0.0
  0
VERTEX
  5
7AC
  8
0
 62
     7
 10
936.59310199999993
 20
786.48582199999998
 30
0.0
  0
VERTEX
  5
7AD
  8
0
 62
     7
 10
940.59310199999982
 20
787.48582199999998
 30
0.0
  0
VERTEX
  5
7AE
  8
0
 62
     7
 10
938.59310199999993
 20
788.48582199999987
 30
0.0
  0
VERTEX
  5
7AF
  8
0
 62
     7
 10
938.59310199999993
 20
804.86491099999989
 30
0.0
  0
SEQEND
  5
7B0
  8
0
 62
     7
  0
POLYLINE
  5
1F5
  8
0
 62
     7
 66
     1
 10
0.0
 20
0.0
 30
0.0
  0
VERTEX
  5
7B1
  8
0
 62
     7
 10
938.59310199999993
 20
712.48581799999999
 30
0.0
  0
VERTEX
  5
7B2
  8
0
 62
     7
 10
954.59310199999993
 20
712.48581799999999
 30
0.0
  0
VERTEX
  5
7B3
  8
0
 62
     7
 10
955.59310199999993
 20
714.48582199999987
 30
0.0
  0
VERTEX
  5
7B4
  8
0
 62
     7
 10
956.59310199999982
 20
710.48581799999988
 30
0.0
  0
VERTEX
  5
7B5
  8
0
 62
     7
 10
957.59310199999982
 20
712.48581799999999
 30
0.0
  0
VERTEX
  5
7B6
  8
0
 62
     7
 10
973.59310199999982
 20
712.48581799999999
 30
0.0
  0
VERTEX
  5
7B7
  8
0
 62
     7
 10
974.59310199999982
 20
714.48582199999987
 30
0.0
  0
VERTEX
  5
7B8
  8
0
 62
     7
 10
975.59310200000004
 20
710.48581799999988
 30
0.0
  0
VERTEX
  5
7B9
  8
0
 62
     7
 10
976.59310200000004
 20
712.48581799999999
 30
0.0
  0
VERTEX
  5
7BA
  8
0
 62
     7
 10
992.59310200000004
 20
712.48581799999999
 30
0.0
  0
VERTEX
  5
7BB
  8
0
 62
     7
 10
993.59310199999993
 20
714.48582199999987
 30
0.0
  0
VERTEX
  5
7BC
  8
0
 62
     7
 10
994.59310199999993
 20
710.48581799999988
 30
0.0
  0
VERTEX
  5
7BD
  8
0
 62
     7
 10
995.59310199999993
 20
712.48581799999999
 30
0.0
  0
VERTEX
  5
7BE
  8
0
 62
     7
 10
1011.593101999999
 20
712.48581799999999
 30
0.0
  0
VERTEX
  5
7BF
  8
0
 62
     7
 10
1012.593102
 20
714.48582199999987
 30
0.0
  0
VERTEX
  5
7C0
  8
0
 62
     7
 10
1013.593101999999
 20
710.48581799999988
 30
0.0
  0
VERTEX
  5
7C1
  8
0
 62
     7
 10
1014.593101999999
 20
712.48581799999999
 30
0.0
  0
VERTEX
  5
7C2
  8
0
 62
     7
 10
1030.593102
 20
712.48581799999999
 30
0.0
  0
VERTEX
  5
7C3
  8
0
 62
     7
 10
1031.593102
 20
714.48582199999987
 30
0.0
  0
VERTEX
  5
7C4
  8
0
 62
     7
 10
1032.593102
 20
710.48581799999988
 30
0.0
  0
VERTEX
  5
7C5
  8
0
 62
     7
 10
1033.5931019999989
 20
712.48581799999999
 30
0.0
  0
VERTEX
  5
7C6
  8
0
 62
     7
 10
1052.56916
 20
712.48581799999999
 30
0.0
  0
SEQEND
  5
7C7
  8
0
 62
     7
  0
POLYLINE
  5
20D
  8
0
 62
     7
 66
     1
 10
0.0
 20
0.0
 30
0.0
  0
VERTEX
  5
7C8
  8
0
 62
     7
 10
1052.56916
 20
712.48581799999999
 30
0.0
  0
VERTEX
  5
7C9
  8
0
 62
     7
 10
1052.56916
 20
728.48582199999998
 30
0.0
  0
VERTEX
  5
7CA
  8
0
 62
     7
 10
1050.56916
 20
729.48582199999998
 30
0.0
  0
VERTEX
  5
7CB
  8
0
 62
     7
 10
1054.56916
 20
730.48582199999987
 30
0.0
  0
VERTEX
  5
7CC
  8
0
 62
     7
 10
1052.56916
 20
731.48582199999987
 30
0.0
  0
VERTEX
  5
7CD
  8
0
 62
     7
 10
1052.56916
 20
747.48582199999987
 30
0.0
  0
VERTEX
  5
7CE
  8
0
 62
     7
 10
1050.56916
 20
748.48582199999987
 30
0.0
  0
VERTEX
  5
7CF
  8
0
 62
     7
 10
1054.56916
 20
749.48582199999998
 30
0.0
  0
VERTEX
  5
7D0
  8
0
 62
     7
 10
1052.56916
 20
750.48582199999998
 30
0.0
  0
VERTEX
  5
7D1
  8
0
 62
     7
 10
1052.56916
 20
766.48582199999998
 30
0.0
  0
VERTEX
  5
7D2
  8
0
 62
     7
 10
1050.56916
 20
767.48582199999987
 30
0.0
  0
VERTEX
  5
7D3
  8
0
 62
     7
 10
1054.56916
 20
768.48582199999987
 30
0.0
  0
VERTEX
  5
7D4
  8
0
 62
     7
 10
1052.56916
 20
769.48582199999998
 30
0.0
  0
VERTEX
  5
7D5
  8
0
 62
     7
 10
1052.56916
 20
785.48582199999987
 30
0.0
  0
VERTEX
  5
7D6
  8
0
 62
     7
 10
1050.56916
 20
786.48582199999998
 30
0.0
  0
VERTEX
  5
7D7
  8
0
 62
     7
 10
1054.56916
 20
787.48582199999998
 30
0.0
  0
VERTEX
  5
7D8
  8
0
 62
     7
 10
1052.56916
 20
788.48582199999987
 30
0.0
  0
VERTEX
  5
7D9
  8
0
 62
     7
 10
1052.56916
 20
804.86491099999989
 30
0.0
  0
SEQEND
  5
7DA
  8
0
 62
     7
  0
POLYLINE
  5
221
  8
0
 62
     7
 66
     1
 10
0.0
 20
0.0
 30
0.0
  0
VERTEX
  5
7DB
  8
0
 62
     7
 10
938.59310199999993
 20
804.86491099999989
 30
0.0
  0
VERTEX
  5
7DC
  8
0
 62
     7
 10
954.59310199999993
 20
804.86491099999989
 30
0.0
  0
VERTEX
  5
7DD
  8
0
 62
     7
 10
955.59310199999993
 20
806.86491100000001
 30
0.0
  0
VERTEX
  5
7DE
  8
0
 62
     7
 10
956.59310199999982
 20
802.86491099999989
 30
0.0
  0
VERTEX
  5
7DF
  8
0
 62
     7
 10
957.59310199999982
 20
804.86491099999989
 30
0.0
  0
VERTEX
  5
7E0
  8
0
 62
     7
 10
973.59310199999982
 20
804.86491099999989
 30
0.0
  0
VERTEX
  5
7E1
  8
0
 62
     7
 10
974.59310199999982
 20
806.86491100000001
 30
0.0
  0
VERTEX
  5
7E2
  8
0
 62
     7
 10
975.59310200000004
 20
802.86491099999989
 30
0.0
  0
VERTEX
  5
7E3
  8
0
 62
     7
 10
976.59310200000004
 20
804.86491099999989
 30
0.0
  0
VERTEX
  5
7E4
  8
0
 62
     7
 10
992.59310200000004
 20
804.86491099999989
 30
0.0
  0
VERTEX
  5
7E5
  8
0
 62
     7
 10
993.59310199999993
 20
806.86491100000001
 30
0.0
  0
VERTEX
  5
7E6
  8
0
 62
     7
 10
994.59310199999993
 20
802.86491099999989
 30
0.0
  0
VERTEX
  5
7E7
  8
0
 62
     7
 10
995.59310199999993
 20
804.86491099999989
 30
0.0
  0
VERTEX
  5
7E8
  8
0
 62
     7
 10
1011.593101999999
 20
804.86491099999989
 30
0.0
  0
VERTEX
  5
7E9
  8
0
 62
     7
 10
1012.593102
 20
806.86491100000001
 30
0.0
  0
VERTEX
  5
7EA
  8
0
 62
     7
 10
1013.593101999999
 20
802.86491099999989
 30
0.0
  0
VERTEX
  5
7EB
  8
0
 62
     7
 10
1014.593101999999
 20
804.86491099999989
 30
0.0
  0
VERTEX
  5
7EC
  8
0
 62
     7
 10
1030.593102
 20
804.86491099999989
 30
0.0
  0
VERTEX
  5
7ED
  8
0
 62
     7
 10
1031.593102
 20
806.86491100000001
 30
0.0
  0
VERTEX
  5
7EE
  8
0
 62
     7
 10
1032.593102
 20
802.86491099999989
 30
0.0
  0
VERTEX
  5
7EF
  8
0
 62
     7
 10
1033.5931019999989
 20
804.86491099999989
 30
0.0
  0
VERTEX
  5
7F0
  8
0
 62
     7
 10
1052.56916
 20
804.86491099999989
 30
0.0
  0
SEQEND
  5
7F1
  8
0
 62
     7
  0
LINE
  5
239
  8
0
  6
DASHDOT
 62
     1
 10
930.68338399999993
 20
760.34547199999997
 30
0.0
 11
1067.5512470000001
 21
760.34547199999997
 31
0.0
  0
LINE
  5
23A
  8
0
 62
     7
 10
1053.56916
 20
720.34547199999986
 30
0.0
 11
1053.56916
 21
730.34547199999986
 31
0.0
  0
LINE
  5
23B
  8
0
 62
     7
 10
1055.56916
 20
720.34547199999986
 30
0.0
 11
1055.56916
 21
730.34547199999986
 31
0.0
  0
LINE
  5
23C
  8
0
 62
     7
 10
1053.56916
 20
780.34547199999986
 30
0.0
 11
1055.56916
 21
780.34547199999986
 31
0.0
  0
LINE
  5
23D
  8
0
 62
     7
 10
1053.56916
 20
790.34547199999997
 30
0.0
 11
1055.56916
 21
790.34547199999997
 31
0.0
  0
LINE
  5
23E
  8
0
 62
     7
 10
1053.56916
 20
720.34547199999986
 30
0.0
 11
1055.56916
 21
720.34547199999986
 31
0.0
  0
LINE
  5
23F
  8
0
 62
     7
 10
1053.56916
 20
780.34547199999986
 30
0.0
 11
1053.56916
 21
790.34547199999997
 31
0.0
  0
LINE
  5
240
  8
0
 62
     7
 10
1055.56916
 20
780.34547199999986
 30
0.0
 11
1055.56916
 21
790.34547199999997
 31
0.0
  0
LINE
  5
241
  8
0
 62
     7
 10
1053.56916
 20
730.34547199999986
 30
0.0
 11
1055.56916
 21
730.34547199999986
 31
0.0
  0
LINE
  5
242
  8
0
  6
DASHDOT
 62
     7
 10
1054.56916
 20
667.93917799999986
 30
0.0
 11
1054.56916
 21
780.34547199999986
 31
0.0
  0
LINE
  5
243
  8
0
  6
DASHDOT
 62
     7
 10
1001.581099999999
 20
660.65349000000003
 30
0.0
 11
1001.581099999999
 21
673.42127699999992
 31
0.0
  0
LINE
  5
244
  8
0
  6
DASHDOT
 62
     7
 10
1001.581099999999
 20
679.87532199999998
 30
0.0
 11
1001.581099999999
 21
685.69799599999999
 31
0.0
  0
LINE
  5
245
  8
0
  6
DASHDOT
 62
     1
 10
912.72429800000009
 20
760.34547199999997
 30
0.0
 11
916.58269700000005
 21
760.34547199999997
 31
0.0
  0
LINE
  5
246
  8
0
  6
DASHDOT
 62
     1
 10
1074.5665049999991
 20
760.34547199999997
 30
0.0
 11
1083.546059
 21
760.34547199999997
 31
0.0
  0
LINE
  5
247
  8
0
  6
DASHDOT
 62
     7
 10
975.58109999999988
 20
733.76585099999988
 30
0.0
 11
975.58109999999988
 21
737.56116199999985
 31
0.0
  0
LINE
  5
248
  8
0
 62
    52
 10
975.58109300000001
 20
822.98676799999987
 30
0.0
 11
981.48993699999994
 21
821.94488300000012
 31
0.0
  0
LINE
  5
249
  8
0
 62
    52
 10
975.58109300000001
 20
822.98676799999987
 30
0.0
 11
981.48993699999994
 21
824.02865399999985
 31
0.0
  0
LINE
  5
24A
  8
0
 62
    52
 10
1001.581093
 20
822.98676799999987
 30
0.0
 11
995.67224899999997
 21
824.02865399999985
 31
0.0
  0
LINE
  5
24B
  8
0
 62
    52
 10
1001.581093
 20
822.98676799999987
 30
0.0
 11
995.67224899999997
 21
821.94488300000012
 31
0.0
  0
LINE
  5
24C
  8
0
 62
    52
 10
975.58109300000001
 20
822.98676799999987
 30
0.0
 11
1001.581093
 21
822.98676799999987
 31
0.0
  0
LINE
  5
24D
  8
0
 62
    52
 10
975.58109300000001
 20
826.98676799999998
 30
0.0
 11
975.58110799999986
 21
795.500226
 31
0.0
  0
LINE
  5
24E
  8
0
 62
    52
 10
927.28229499999998
 20
748.86495000000002
 30
0.0
 11
928.32418100000007
 21
754.77379400000007
 31
0.0
  0
LINE
  5
24F
  8
0
 62
    52
 10
927.28229499999998
 20
748.86495000000002
 30
0.0
 11
926.24039499999992
 21
754.77379400000007
 31
0.0
  0
LINE
  5
250
  8
0
 62
    52
 10
927.28229499999998
 20
771.84547899999995
 30
0.0
 11
926.24040999999988
 21
765.93663499999991
 31
0.0
  0
LINE
  5
251
  8
0
 62
    52
 10
927.28229499999998
 20
771.84547899999995
 30
0.0
 11
928.32418100000007
 21
765.93663499999991
 31
0.0
  0
LINE
  5
252
  8
0
 62
    52
 10
927.28229499999998
 20
771.84547899999995
 30
0.0
 11
928.32418100000007
 21
777.75433099999987
 31
0.0
  0
LINE
  5
253
  8
0
 62
    52
 10
927.28229499999998
 20
771.84547899999995
 30
0.0
 11
926.24039499999992
 21
777.75433099999987
 31
0.0
  0
LINE
  5
254
  8
0
 62
    52
 10
927.28229499999998
 20
794.86491099999989
 30
0.0
 11
926.24040999999988
 21
788.95606699999985
 31
0.0
  0
LINE
  5
255
  8
0
 62
    52
 10
927.28229499999998
 20
794.86491099999989
 30
0.0
 11
928.32418100000007
 21
788.95606699999985
 31
0.0
  0
LINE
  5
256
  8
0
 62
    52
 10
927.28229499999998
 20
748.86495000000002
 30
0.0
 11
927.28229499999998
 21
794.86491099999989
 31
0.0
  0
LINE
  5
257
  8
0
 62
    52
 10
923.28229499999986
 20
748.86495000000002
 30
0.0
 11
944.96813200000008
 21
748.86495000000002
 31
0.0
  0
LINE
  5
258
  8
0
 62
    52
 10
923.28229499999986
 20
771.84547899999995
 30
0.0
 11
938.23209399999985
 21
771.84547899999995
 31
0.0
  0
LINE
  5
259
  8
0
 62
    52
 10
923.28229499999986
 20
794.86491099999989
 30
0.0
 11
944.96808599999986
 21
794.86491099999989
 31
0.0
  0
LINE
  5
25A
  8
0
 62
    52
 10
1070.6379469999999
 20
748.86492699999985
 30
0.0
 11
1071.679848
 21
754.7737709999999
 31
0.0
  0
LINE
  5
25B
  8
0
 62
    52
 10
1070.6379469999999
 20
748.86492699999985
 30
0.0
 11
1069.596076999999
 21
754.7737709999999
 31
0.0
  0
LINE
  5
25C
  8
0
 62
    52
 10
1070.6379469999999
 20
794.86492699999985
 30
0.0
 11
1069.596076999999
 21
788.95608300000004
 31
0.0
  0
LINE
  5
25D
  8
0
 62
    52
 10
1070.6379469999999
 20
794.86492699999985
 30
0.0
 11
1071.679848
 21
788.95608300000004
 31
0.0
  0
LINE
  5
25E
  8
0
 62
    52
 10
1070.6379469999999
 20
748.86492699999985
 30
0.0
 11
1070.6379469999999
 21
794.86492699999985
 31
0.0
  0
LINE
  5
25F
  8
0
 62
    52
 10
1074.6379469999999
 20
748.86492699999985
 30
0.0
 11
1006.218147
 21
748.86491899999999
 31
0.0
  0
LINE
  5
260
  8
0
 62
    52
 10
1074.6379469999999
 20
794.86492699999985
 30
0.0
 11
1006.218147
 21
794.86492699999985
 31
0.0
  0
LINE
  5
261
  8
0
 62
    52
 10
948.59311700000001
 20
701.27189399999997
 30
0.0
 11
954.50197600000001
 21
700.22999299999992
 31
0.0
  0
LINE
  5
262
  8
0
 62
    52
 10
948.59311700000001
 20
701.27189399999997
 30
0.0
 11
954.50197600000001
 21
702.31377899999995
 31
0.0
  0
LINE
  5
263
  8
0
 62
    52
 10
975.58109300000001
 20
701.27189399999997
 30
0.0
 11
969.67224899999997
 21
702.31377899999995
 31
0.0
  0
LINE
  5
264
  8
0
 62
    52
 10
975.58109300000001
 20
701.27189399999997
 30
0.0
 11
969.67224899999997
 21
700.22999299999992
 31
0.0
  0
LINE
  5
265
  8
0
 62
    52
 10
948.59311700000001
 20
701.27189399999997
 30
0.0
 11
975.58109300000001
 21
701.27189399999997
 31
0.0
  0
LINE
  5
266
  8
0
 62
    52
 10
975.58110799999986
 20
697.27189399999997
 30
0.0
 11
975.58109300000001
 21
729.67860199999996
 31
0.0
  0
LINE
  5
267
  8
0
 62
    52
 10
948.59311700000001
 20
689.13548000000003
 30
0.0
 11
954.50197600000001
 21
688.09359500000005
 31
0.0
  0
LINE
  5
268
  8
0
 62
    52
 10
948.59311700000001
 20
689.13548000000003
 30
0.0
 11
954.50197600000001
 21
690.17736599999989
 31
0.0
  0
LINE
  5
269
  8
0
 62
    52
 10
1002.593147
 20
689.13548000000003
 30
0.0
 11
996.68430299999989
 21
690.17736599999989
 31
0.0
  0
LINE
  5
26A
  8
0
 62
    52
 10
1002.593147
 20
689.13548000000003
 30
0.0
 11
996.68430299999989
 21
688.09357999999986
 31
0.0
  0
LINE
  5
26B
  8
0
 62
    52
 10
948.59311700000001
 20
689.13548000000003
 30
0.0
 11
1002.593147
 21
689.13548000000003
 31
0.0
  0
LINE
  5
26C
  8
0
 62
    52
 10
959.0810929999999
 20
741.0392579999999
 30
0.0
 11
964.9899519999999
 21
739.99737300000004
 31
0.0
  0
LINE
  5
26D
  8
0
 62
    52
 10
959.0810929999999
 20
741.0392579999999
 30
0.0
 11
964.9899519999999
 21
742.08115099999998
 31
0.0
  0
LINE
  5
26E
  8
0
 62
    52
 10
992.08109300000001
 20
741.0392579999999
 30
0.0
 11
986.17224900000008
 21
742.08114399999999
 31
0.0
  0
LINE
  5
26F
  8
0
 62
    52
 10
992.08109300000001
 20
741.0392579999999
 30
0.0
 11
986.17224900000008
 21
739.99736499999995
 31
0.0
  0
LINE
  5
270
  8
0
 62
    52
 10
959.0810929999999
 20
741.0392579999999
 30
0.0
 11
992.08109300000001
 21
741.0392579999999
 31
0.0
  0
LINE
  5
271
  8
0
 62
    52
 10
959.08110799999986
 20
737.03925800000002
 30
0.0
 11
959.0810929999999
 21
771.84547199999986
 31
0.0
  0
LINE
  5
272
  8
0
 62
    52
 10
992.08109300000001
 20
737.03925800000002
 30
0.0
 11
992.08109300000001
 21
771.84547199999986
 31
0.0
  0
LINE
  5
273
  8
0
 62
    52
 10
1000.093117
 20
811.48173299999985
 30
0.0
 11
994.18427300000008
 21
812.52361799999994
 31
0.0
  0
LINE
  5
274
  8
0
 62
    52
 10
1000.093117
 20
811.48173299999985
 30
0.0
 11
994.18427300000008
 21
810.43984699999987
 31
0.0
  0
LINE
  5
275
  8
0
 62
    52
 10
1005.093117
 20
811.48173299999985
 30
0.0
 11
1011.0019610000001
 21
810.43984699999987
 31
0.0
  0
LINE
  5
276
  8
0
 62
    52
 10
1005.093117
 20
811.48173299999985
 30
0.0
 11
1011.0019610000001
 21
812.52361799999994
 31
0.0
  0
LINE
  5
277
  8
0
 62
    52
 10
988.59311700000001
 20
811.48173299999985
 30
0.0
 11
1005.093117
 21
811.48173299999985
 31
0.0
  0
LINE
  5
278
  8
0
 62
    52
 10
1000.093117
 20
815.48173299999996
 30
0.0
 11
1000.093117
 21
794.86492699999985
 31
0.0
  0
LINE
  5
279
  8
0
 62
    52
 10
1005.093117
 20
815.48173299999996
 30
0.0
 11
1005.093117
 21
794.86492699999985
 31
0.0
  0
LINE
  5
27A
  8
0
 62
    52
 10
975.58109300000001
 20
675.31539699999985
 30
0.0
 11
981.48993699999994
 21
674.27351099999987
 31
0.0
  0
LINE
  5
27B
  8
0
 62
    52
 10
975.58109300000001
 20
675.31539699999985
 30
0.0
 11
981.48993699999994
 21
676.35728200000005
 31
0.0
  0
LINE
  5
27C
  8
0
 62
    52
 10
1054.56916
 20
675.31539699999985
 30
0.0
 11
1048.660316
 21
676.35728200000005
 31
0.0
  0
LINE
  5
27D
  8
0
 62
    52
 10
1054.56916
 20
675.31539699999985
 30
0.0
 11
1048.660316
 21
674.27351099999987
 31
0.0
  0
LINE
  5
27E
  8
0
 62
    52
 10
975.58109300000001
 20
675.31539699999985
 30
0.0
 11
1054.56916
 21
675.31539699999985
 31
0.0
  0
LINE
  5
27F
  8
0
 62
    52
 10
975.58110799999986
 20
671.31539699999985
 30
0.0
 11
975.58109300000001
 21
685.01074000000006
 31
0.0
  0
LINE
  5
280
  8
0
 62
    52
 10
1032.931953
 20
760.34547199999997
 30
0.0
 11
1031.8900529999989
 21
754.43662800000004
 31
0.0
  0
LINE
  5
281
  8
0
 62
    52
 10
1032.931953
 20
760.34547199999997
 30
0.0
 11
1033.9738239999999
 21
754.43662800000004
 31
0.0
  0
LINE
  5
282
  8
0
 62
    52
 10
1032.931953
 20
771.84547199999986
 30
0.0
 11
1033.9738239999999
 21
777.75431600000002
 31
0.0
  0
LINE
  5
283
  8
0
 62
    52
 10
1032.931953
 20
771.84547199999986
 30
0.0
 11
1031.8900529999989
 21
777.75431600000002
 31
0.0
  0
LINE
  5
284
  8
0
 62
    52
 10
1032.931953
 20
760.34547199999997
 30
0.0
 11
1032.9319230000001
 21
794.24837999999988
 31
0.0
  0
LINE
  5
285
  8
0
 62
    52
 10
1036.931953
 20
771.84547199999986
 30
0.0
 11
1011.602577
 21
771.84547199999986
 31
0.0
  0
LINE
  5
286
  8
0
 62
   191
 10
-139.28820099999999
 20
563.94989799999996
 30
0.0
 11
-139.28820099999999
 21
554.69559500000003
 31
0.0
  0
LINE
  5
287
  8
0
 62
   191
 10
-34.288144000000003
 20
554.69560200000001
 30
0.0
 11
-34.288159
 21
563.94118099999992
 31
0.0
  0
LINE
  5
288
  8
0
 62
   191
 10
-35.538113000000003
 20
553.44560200000001
 30
0.0
 11
-138.038205
 21
553.44560200000001
 31
0.0
  0
LINE
  5
289
  8
0
 62
   191
 10
-138.03821199999999
 20
553.44560200000001
 30
0.0
 11
-138.92209299999999
 21
553.81170999999995
 31
0.0
  0
LINE
  5
28A
  8
0
 62
   191
 10
-138.92209299999999
 20
553.81171399999994
 30
0.0
 11
-139.288205
 21
554.6955989999999
 31
0.0
  0
LINE
  5
28B
  8
0
 62
   191
 10
-106.788174
 20
552.44560999999999
 30
0.0
 11
-112.7455409999999
 21
552.44560999999999
 31
0.0
  0
LINE
  5
28C
  8
0
 62
   191
 10
-139.1829919999999
 20
554.44158900000002
 30
0.0
 11
-139.28844099999989
 21
554.44157399999995
 31
0.0
  0
LINE
  5
28D
  8
0
 62
   191
 10
-86.288205000000005
 20
552.44963099999995
 30
0.0
 11
-87.572032999999976
 21
552.44943599999999
 31
0.0
  0
LINE
  5
28E
  8
0
 62
   191
 10
-87.572032999999976
 20
552.44943599999999
 30
0.0
 11
-91.324184999999986
 21
552.44886799999995
 31
0.0
  0
LINE
  5
28F
  8
0
 62
   191
 10
-91.324192999999994
 20
552.44886399999984
 30
0.0
 11
-97.177395000000004
 21
552.44797500000004
 31
0.0
  0
LINE
  5
290
  8
0
 62
   191
 10
-97.177395000000004
 20
552.44797500000004
 30
0.0
 11
-112.7455409999999
 21
552.44560999999999
 31
0.0
  0
LINE
  5
291
  8
0
 62
   191
 10
-108.788174
 20
552.44560999999999
 30
0.0
 11
-120.9365659999999
 21
552.44436600000006
 31
0.0
  0
LINE
  5
292
  8
0
 62
   191
 10
-120.93657399999989
 20
552.44507599999986
 30
0.0
 11
-128.32997599999999
 21
552.44324500000005
 31
0.0
  0
LINE
  5
293
  8
0
 62
   191
 10
-128.32997599999999
 20
552.44359599999996
 30
0.0
 11
-134.202046
 21
552.44235599999979
 31
0.0
  0
LINE
  5
294
  8
0
 62
   191
 10
-134.2020379999999
 20
552.44253499999991
 30
0.0
 11
-137.977959
 21
552.44178399999987
 31
0.0
  0
LINE
  5
295
  8
0
 62
   191
 10
-137.977959
 20
552.44184499999994
 30
0.0
 11
-139.28813600000001
 21
552.44158900000002
 31
0.0
  0
LINE
  5
296
  8
0
 62
   191
 10
-134.2020379999999
 20
552.442364
 30
0.0
 11
-134.25215600000001
 21
552.44235599999979
 31
0.0
  0
LINE
  5
297
  8
0
 62
   191
 10
-128.32996799999989
 20
552.44325599999991
 30
0.0
 11
-128.39895300000001
 21
552.44324500000005
 31
0.0
  0
LINE
  5
298
  8
0
 62
   191
 10
-108.788174
 20
552.44560999999999
 30
0.0
 11
-120.9365659999999
 21
552.44436600000006
 31
0.0
  0
LINE
  5
299
  8
0
 62
   191
 10
-107.788174
 20
552.44560999999999
 30
0.0
 11
-112.7455409999999
 21
552.44560999999999
 31
0.0
  0
LINE
  5
29A
  8
0
 62
   191
 10
-97.177387999999993
 20
552.44797500000004
 30
0.0
 11
-107.7881669999999
 21
552.44560999999999
 31
0.0
  0
LINE
  5
29B
  8
0
 62
   191
 10
-97.177387999999993
 20
552.44797500000004
 30
0.0
 11
-107.056119
 21
552.44560999999999
 31
0.0
  0
LINE
  5
29C
  8
0
 62
   191
 10
-97.177387999999993
 20
552.44797500000004
 30
0.0
 11
-106.788167
 21
552.44560999999999
 31
0.0
  0
LINE
  5
29D
  8
0
 62
   191
 10
-106.788174
 20
552.44560999999999
 30
0.0
 11
-108.788174
 21
552.44560999999999
 31
0.0
  0
LINE
  5
29E
  8
0
 62
   191
 10
-97.177387999999993
 20
552.44797500000004
 30
0.0
 11
-107.39227700000001
 21
552.44556
 31
0.0
  0
LINE
  5
29F
  8
0
 62
   191
 10
-88.788189000000003
 20
557.94559900000002
 30
0.0
 11
-90.288189000000003
 21
557.94559900000002
 31
0.0
  0
LINE
  5
2A0
  8
0
 62
   191
 10
-83.288188999999988
 20
557.94559900000002
 30
0.0
 11
-84.788189000000003
 21
557.94559900000002
 31
0.0
  0
LINE
  5
2A1
  8
0
 62
   191
 10
-84.788189000000003
 20
557.94559900000002
 30
0.0
 11
-88.788189000000003
 21
557.94559900000002
 31
0.0
  0
LINE
  5
2A2
  8
0
 62
   191
 10
-88.788189000000003
 20
557.94559900000002
 30
0.0
 11
-88.788189000000003
 21
555.94576299999994
 31
0.0
  0
LINE
  5
2A3
  8
0
 62
   191
 10
-84.788189000000003
 20
557.94559900000002
 30
0.0
 11
-84.788189000000003
 21
555.94576299999994
 31
0.0
  0
LINE
  5
2A4
  8
0
 62
   191
 10
-83.288188999999988
 20
558.94576299999994
 30
0.0
 11
-90.288189000000003
 21
558.94576299999994
 31
0.0
  0
LINE
  5
2A5
  8
0
 62
   191
 10
-83.288188999999988
 20
558.94576299999994
 30
0.0
 11
-83.288188999999988
 21
555.94576299999994
 31
0.0
  0
LINE
  5
2A6
  8
0
 62
   191
 10
-83.288188999999988
 20
555.94576299999994
 30
0.0
 11
-90.288189000000003
 21
555.94576299999994
 31
0.0
  0
LINE
  5
2A7
  8
0
 62
   191
 10
-90.288189000000003
 20
558.94576299999994
 30
0.0
 11
-90.288189000000003
 21
555.94576299999994
 31
0.0
  0
LINE
  5
2A8
  8
0
 62
   191
 10
-34.288144000000003
 20
554.69560200000001
 30
0.0
 11
-34.654232999999998
 21
553.81171799999993
 31
0.0
  0
LINE
  5
2A9
  8
0
 62
   191
 10
-34.654232999999998
 20
553.81171799999993
 30
0.0
 11
-35.538113000000003
 21
553.44560200000001
 31
0.0
  0
LINE
  5
2AA
  8
0
 62
   191
 10
-41.029277999999998
 20
563.94560599999988
 30
0.0
 11
-41.029277999999998
 21
561.94561399999986
 31
0.0
  0
LINE
  5
2AB
  8
0
 62
   191
 10
-43.788144000000003
 20
563.94560999999999
 30
0.0
 11
-43.788144000000003
 21
561.94560999999987
 31
0.0
  0
LINE
  5
2AC
  8
0
 62
   191
 10
-39.288266
 20
563.94560599999988
 30
0.0
 11
-49.288296000000003
 21
563.94561399999998
 31
0.0
  0
LINE
  5
2AD
  8
0
 62
   191
 10
-49.288266
 20
561.94560200000001
 30
0.0
 11
-49.288296000000003
 21
563.94561399999998
 31
0.0
  0
LINE
  5
2AE
  8
0
 62
   191
 10
-39.288266
 20
561.94561799999985
 30
0.0
 11
-49.288266
 21
561.94560200000001
 31
0.0
  0
LINE
  5
2AF
  8
0
 62
   191
 10
-39.288266
 20
563.94560599999988
 30
0.0
 11
-39.288266
 21
561.94561799999985
 31
0.0
  0
LINE
  5
2B0
  8
0
 62
   191
 10
-45.709743999999993
 20
561.94576299999994
 30
0.0
 11
-49.288266
 21
561.94572800000003
 31
0.0
  0
LINE
  5
2B1
  8
0
 62
     9
 10
-86.288364999999999
 20
510.46535499999999
 30
0.0
 11
-139.28836499999991
 21
510.46535499999999
 31
0.0
  0
LINE
  5
2B2
  8
0
 62
     9
 10
-145.28819300000001
 20
524.96535499999993
 30
0.0
 11
-145.28819699999991
 21
512.71535499999993
 31
0.0
  0
LINE
  5
2B3
  8
0
 62
     9
 10
-40.288189000000003
 20
524.96535499999993
 30
0.0
 11
-40.288189000000003
 21
512.71535499999993
 31
0.0
  0
LINE
  5
2B4
  8
0
 62
     9
 10
-41.538189000000003
 20
511.46535499999987
 30
0.0
 11
-144.03819699999991
 21
511.46535499999987
 31
0.0
  0
LINE
  5
2B5
  8
0
 62
     9
 10
-40.288189000000003
 20
524.96535499999993
 30
0.0
 11
-145.28819300000001
 21
524.96535499999993
 31
0.0
  0
LINE
  5
2B6
  8
0
 62
     9
 10
-144.92208099999991
 20
511.83147400000001
 30
0.0
 11
-145.28819699999991
 21
512.71535499999993
 31
0.0
  0
LINE
  5
2B7
  8
0
 62
     9
 10
-144.0381889999999
 20
511.46534699999989
 30
0.0
 11
-144.92207400000001
 21
511.83146699999998
 31
0.0
  0
LINE
  5
2B8
  8
0
 62
     9
 10
-40.654294
 20
511.83147400000001
 30
0.0
 11
-41.538173999999998
 21
511.46535499999987
 31
0.0
  0
LINE
  5
2B9
  8
0
 62
     9
 10
-40.288189000000003
 20
512.71534699999995
 30
0.0
 11
-40.654308999999998
 21
511.83146699999998
 31
0.0
  0
LINE
  5
2BA
  8
0
 62
     9
 10
-94.788189000000003
 20
515.96535499999993
 30
0.0
 11
-96.288189000000003
 21
515.96535499999993
 31
0.0
  0
LINE
  5
2BB
  8
0
 62
     9
 10
-89.288189000000017
 20
515.96535499999993
 30
0.0
 11
-90.788188999999988
 21
515.96535499999993
 31
0.0
  0
LINE
  5
2BC
  8
0
 62
     9
 10
-90.788188999999988
 20
515.96535499999993
 30
0.0
 11
-94.788189000000003
 21
515.96535499999993
 31
0.0
  0
LINE
  5
2BD
  8
0
 62
     9
 10
-89.288189000000017
 20
516.96552299999996
 30
0.0
 11
-96.288189000000003
 21
516.96552299999996
 31
0.0
  0
LINE
  5
2BE
  8
0
 62
     9
 10
-89.288189000000017
 20
516.96552299999996
 30
0.0
 11
-89.288189000000017
 21
513.96552299999996
 31
0.0
  0
LINE
  5
2BF
  8
0
 62
     9
 10
-89.288189000000017
 20
513.96552299999996
 30
0.0
 11
-96.288189000000003
 21
513.96552299999996
 31
0.0
  0
LINE
  5
2C0
  8
0
 62
     9
 10
-96.288189000000003
 20
516.96552299999996
 30
0.0
 11
-96.288189000000003
 21
513.96552299999996
 31
0.0
  0
LINE
  5
2C1
  8
0
 62
     9
 10
-94.788189000000003
 20
515.96535499999993
 30
0.0
 11
-94.788189000000003
 21
513.96552299999996
 31
0.0
  0
LINE
  5
2C2
  8
0
 62
     9
 10
-90.788188999999988
 20
515.96535499999993
 30
0.0
 11
-90.788188999999988
 21
513.96552299999996
 31
0.0
  0
LINE
  5
2C3
  8
0
 62
     4
 10
-98.288312000000005
 20
551.94563300000004
 30
0.0
 11
-127.288228
 21
551.94565999999986
 31
0.0
  0
LINE
  5
2C4
  8
0
 62
     4
 10
-86.288219999999995
 20
551.44564799999989
 30
0.0
 11
-139.2883149999999
 21
551.44570199999998
 31
0.0
  0
LINE
  5
2C5
  8
0
 62
     4
 10
-86.288228000000004
 20
549.94564800000001
 30
0.0
 11
-139.288308
 21
549.94570199999998
 31
0.0
  0
LINE
  5
2C6
  8
0
 62
     4
 10
-106.288273
 20
549.94562099999985
 30
0.0
 11
-106.288273
 21
537.944344
 31
0.0
  0
LINE
  5
2C7
  8
0
 62
     4
 10
-119.288273
 20
549.94563300000004
 30
0.0
 11
-119.288273
 21
537.944344
 31
0.0
  0
LINE
  5
2C8
  8
0
 62
     4
 10
-120.788273
 20
549.94568300000003
 30
0.0
 11
-120.788273
 21
537.944344
 31
0.0
  0
LINE
  5
2C9
  8
0
 62
     4
 10
-104.7882729999999
 20
549.94566699999984
 30
0.0
 11
-104.7882729999999
 21
537.944344
 31
0.0
  0
LINE
  5
2CA
  8
0
 62
     4
 10
-105.7882729999999
 20
536.944344
 30
0.0
 11
-119.788273
 21
536.944344
 31
0.0
  0
LINE
  5
2CB
  8
0
 62
     4
 10
-98.268253999999999
 20
549.94560599999988
 30
0.0
 11
-98.268253999999999
 21
548.94564400000002
 31
0.0
  0
LINE
  5
2CC
  8
0
 62
     4
 10
-88.268253999999999
 20
548.94564400000002
 30
0.0
 11
-98.268253999999999
 21
548.94564400000002
 31
0.0
  0
LINE
  5
2CD
  8
0
 62
     2
 10
-138.043541
 20
509.96535499999999
 30
0.0
 11
-139.28837599999989
 21
509.96535499999999
 31
0.0
  0
LINE
  5
2CE
  8
0
 62
     2
 10
-134.46045399999991
 20
509.96535499999999
 30
0.0
 11
-137.93025600000001
 21
509.96535499999999
 31
0.0
  0
LINE
  5
2CF
  8
0
 62
     2
 10
-129.61658899999989
 20
509.96535499999999
 30
0.0
 11
-134.04401799999991
 21
509.96535499999999
 31
0.0
  0
LINE
  5
2D0
  8
0
 62
     2
 10
-80.313739999999996
 20
509.96535499999999
 30
0.0
 11
-91.773114000000007
 21
509.96535499999999
 31
0.0
  0
LINE
  5
2D1
  8
0
 62
     2
 10
-51.788373
 20
476.46535499999999
 30
0.0
 11
-135.28837300000001
 21
476.46535499999999
 31
0.0
  0
LINE
  5
2D2
  8
0
 62
     2
 10
-47.788373
 20
494.46535499999987
 30
0.0
 11
-47.788373
 21
480.46535499999999
 31
0.0
  0
LINE
  5
2D3
  8
0
 62
     2
 10
-95.773114000000007
 20
494.46535499999987
 30
0.0
 11
-125.61658899999991
 21
494.46535499999987
 31
0.0
  0
LINE
  5
2D4
  8
0
 62
     2
 10
-137.93026
 20
509.96535499999999
 30
0.0
 11
-138.04354499999999
 21
509.96535499999999
 31
0.0
  0
LINE
  5
2D5
  8
0
 62
     2
 10
-134.04401799999991
 20
509.96535499999999
 30
0.0
 11
-134.46045399999991
 21
509.96535499999999
 31
0.0
  0
LINE
  5
2D6
  8
0
 62
     2
 10
-91.773114000000007
 20
509.96535499999999
 30
0.0
 11
-129.61658899999989
 21
509.96535499999999
 31
0.0
  0
LINE
  5
2D7
  8
0
 62
     2
 10
-80.313739999999996
 20
509.96535499999999
 30
0.0
 11
-80.313739999999996
 21
498.46535499999987
 31
0.0
  0
LINE
  5
2D8
  8
0
 62
     2
 10
-47.788373
 20
494.46535499999987
 30
0.0
 11
-80.409085000000005
 21
494.46535499999987
 31
0.0
  0
LINE
  5
2D9
  8
0
 62
   191
 10
-86.288205000000005
 20
552.44963099999995
 30
0.0
 11
-86.288356999999991
 21
553.445606
 31
0.0
  0
LINE
  5
2DA
  8
0
 62
   191
 10
-139.28814
 20
552.44158900000002
 30
0.0
 11
-139.28844099999989
 21
554.44157399999995
 31
0.0
  0
LINE
  5
2DB
  8
0
 62
   191
 10
-86.529774000000003
 20
553.44559900000002
 30
0.0
 11
-138.041111
 21
553.44680400000004
 31
0.0
  0
LINE
  5
2DC
  8
0
 62
   191
 10
-34.65739099999999
 20
553.81041300000004
 30
0.0
 11
-34.788189000000003
 21
553.9412269999998
 31
0.0
  0
LINE
  5
2DD
  8
0
 62
   191
 10
-138.79116899999991
 20
553.94684600000005
 30
0.0
 11
-138.9233209999999
 21
553.81469000000004
 31
0.0
  0
LINE
  5
2DE
  8
0
 62
   191
 10
-84.520222000000004
 20
558.94576299999994
 30
0.0
 11
-84.520222000000004
 21
557.945606
 31
0.0
  0
LINE
  5
2DF
  8
0
 62
   191
 10
-88.722180000000009
 20
558.94576299999994
 30
0.0
 11
-88.722180000000009
 21
557.945606
 31
0.0
  0
LINE
  5
2E0
  8
0
 62
     9
 10
-139.28836499999991
 20
511.46535499999987
 30
0.0
 11
-139.28836499999991
 21
510.46535499999999
 31
0.0
  0
LINE
  5
2E1
  8
0
 62
     9
 10
-86.288364999999999
 20
511.46535499999987
 30
0.0
 11
-86.288364999999999
 21
510.46535499999999
 31
0.0
  0
LINE
  5
2E2
  8
0
 62
     4
 10
-126.03826599999989
 20
552.44359199999997
 30
0.0
 11
-126.03826599999989
 21
551.94565599999999
 31
0.0
  0
LINE
  5
2E3
  8
0
 62
     4
 10
-99.538266000000007
 20
552.44761700000004
 30
0.0
 11
-99.538266000000007
 21
551.94562900000005
 31
0.0
  0
LINE
  5
2E4
  8
0
 62
     4
 10
-127.288228
 20
551.94565999999986
 30
0.0
 11
-127.288228
 21
551.44565999999986
 31
0.0
  0
LINE
  5
2E5
  8
0
 62
     4
 10
-98.288304000000011
 20
551.44563300000004
 30
0.0
 11
-98.288312000000005
 21
551.94563300000004
 31
0.0
  0
LINE
  5
2E6
  8
0
 62
     4
 10
-139.288308
 20
549.94570199999998
 30
0.0
 11
-139.2883149999999
 21
551.44570199999998
 31
0.0
  0
LINE
  5
2E7
  8
0
 62
     4
 10
-86.288219999999995
 20
551.44564799999989
 30
0.0
 11
-86.288228000000004
 21
549.94564800000001
 31
0.0
  0
LINE
  5
2E8
  8
0
 62
     4
 10
-88.268253999999999
 20
549.94564400000002
 30
0.0
 11
-88.268253999999999
 21
548.94564400000002
 31
0.0
  0
LINE
  5
2E9
  8
0
 62
     2
 10
-139.28837599999989
 20
498.46535499999987
 30
0.0
 11
-139.28837599999989
 21
480.46535499999999
 31
0.0
  0
LINE
  5
2EA
  8
0
 62
     2
 10
-139.28837599999989
 20
509.96535499999999
 30
0.0
 11
-139.28837599999989
 21
498.46535499999987
 31
0.0
  0
LINE
  5
2EB
  8
0
 62
     2
 10
-100.852322
 20
494.46535499999987
 30
0.0
 11
-101.1636849999999
 21
494.42101300000002
 31
0.0
  0
LINE
  5
2EC
  8
0
 62
     2
 10
-91.773114000000007
 20
509.96535499999999
 30
0.0
 11
-91.773114000000007
 21
498.46535499999987
 31
0.0
  0
LINE
  5
2ED
  8
0
 62
     2
 10
-129.61658899999989
 20
509.96535499999999
 30
0.0
 11
-129.61658899999989
 21
498.46535499999987
 31
0.0
  0
CIRCLE
  5
2EE
  8
0
 62
     4
 10
-112.78826599999999
 20
543.44562099999985
 30
0.0
 40
2.5000049999999989
  0
ARC
  5
2EF
  8
0
 62
     7
 10
-119.788273
 20
537.944344
 30
0.0
 40
1.0
 50
180.0
 51
270.00000299999988
  0
ARC
  5
2F0
  8
0
 62
     7
 10
-105.7882729999999
 20
537.944344
 30
0.0
 40
1.0
 50
270.00000299999988
 51
0.000005
  0
LINE
  5
2F1
  8
0
  6
DASHDOT
 62
     7
 10
-112.78826599999999
 20
547.94562499999995
 30
0.0
 11
-112.78826599999999
 21
471.089157
 31
0.0
  0
LINE
  5
2F2
  8
0
  6
DASHDOT
 62
     7
 10
-108.28826599999989
 20
543.44562099999985
 30
0.0
 11
-117.2882729999999
 21
543.44562099999985
 31
0.0
  0
LINE
  5
2F3
  8
0
 62
     7
 10
-107.78826599999989
 20
536.944344
 30
0.0
 11
-107.78826599999989
 21
532.96535499999993
 31
0.0
  0
LINE
  5
2F4
  8
0
 62
     7
 10
-117.78826599999989
 20
536.944344
 30
0.0
 11
-117.78826599999989
 21
532.96535499999993
 31
0.0
  0
LINE
  5
2F5
  8
0
 62
     7
 10
11.744631999999999
 20
526.96535499999993
 30
0.0
 11
-159.04371299999991
 21
526.96535499999993
 31
0.0
  0
ARC
  5
2F6
  8
0
 62
     2
 10
-125.61658899999991
 20
498.46535499999987
 30
0.0
 40
4.0
 50
180.0
 51
270.00000299999988
  0
ARC
  5
2F7
  8
0
 62
     7
 10
-95.773114000000007
 20
498.46535499999987
 30
0.0
 40
4.0
 50
270.00000299999988
 51
0.000005
  0
ARC
  5
2F8
  8
0
 62
     2
 10
-76.313739999999996
 20
498.46535499999987
 30
0.0
 40
4.0
 50
180.0
 51
270.00000299999988
  0
ARC
  5
2F9
  8
0
 62
     2
 10
-80.409085000000005
 20
498.46535499999987
 30
0.0
 40
4.0
 50
180.0
 51
270.00000299999988
  0
LINE
  5
2FA
  8
0
 62
     5
 10
-99.288265999999993
 20
532.96535499999993
 30
0.0
 11
-126.28826599999999
 21
532.96535499999993
 31
0.0
  0
LINE
  5
2FB
  8
0
 62
     5
 10
-99.288265999999993
 20
532.96535499999993
 30
0.0
 11
-99.288265999999993
 21
526.96535499999993
 31
0.0
  0
LINE
  5
2FC
  8
0
 62
     5
 10
-126.28826599999999
 20
532.96535499999993
 30
0.0
 11
-126.28826599999999
 21
526.96535499999993
 31
0.0
  0
LINE
  5
2FD
  8
0
 62
     5
 10
-97.788266000000021
 20
531.46535499999993
 30
0.0
 11
-97.788266000000021
 21
526.96535499999993
 31
0.0
  0
LINE
  5
2FE
  8
0
 62
     5
 10
-127.78826599999989
 20
531.46535499999993
 30
0.0
 11
-127.78826599999989
 21
526.96535499999993
 31
0.0
  0
LINE
  5
2FF
  8
0
 62
     5
 10
-126.28826599999999
 20
532.96535499999993
 30
0.0
 11
-127.78826599999989
 21
531.46535499999993
 31
0.0
  0
LINE
  5
300
  8
0
 62
     5
 10
-97.788266000000021
 20
531.46535499999993
 30
0.0
 11
-99.288265999999993
 21
532.96535499999993
 31
0.0
  0
ARC
  5
301
  8
0
 62
     2
 10
-135.28837300000001
 20
480.46535499999999
 30
0.0
 40
4.0000070000000001
 50
179.999955
 51
270.00007099999988
  0
ARC
  5
302
  8
0
 62
     2
 10
-51.788342
 20
480.46533199999999
 30
0.0
 40
3.9999690000000001
 50
269.99955199999988
 51
0.000374
  0
POLYLINE
  5
303
  8
0
 62
     7
 66
     1
 10
0.0
 20
0.0
 30
0.0
  0
VERTEX
  5
7F2
  8
0
 62
     7
 10
11.744631999999999
 20
534.38159599999994
 30
0.0
  0
VERTEX
  5
7F3
  8
0
 62
     7
 10
11.744631999999999
 20
521.88112599999988
 30
0.0
  0
VERTEX
  5
7F4
  8
0
 62
     7
 10
13.744631999999999
 20
520.88112599999999
 30
0.0
  0
VERTEX
  5
7F5
  8
0
 62
     7
 10
9.7446320000000011
 20
519.88112599999999
 30
0.0
  0
VERTEX
  5
7F6
  8
0
 62
     7
 10
11.744631999999999
 20
518.88112599999999
 30
0.0
  0
SEQEND
  5
7F7
  8
0
 62
     7
  0
POLYLINE
  5
30A
  8
0
 62
     7
 66
     1
 10
0.0
 20
0.0
 30
0.0
  0
VERTEX
  5
7F8
  8
0
 62
     7
 10
-34.288159
 20
563.94118099999992
 30
0.0
  0
VERTEX
  5
7F9
  8
0
 62
     7
 10
-50.288159
 20
563.94250899999986
 30
0.0
  0
VERTEX
  5
7FA
  8
0
 62
     7
 10
-51.288327000000002
 20
561.94259299999999
 30
0.0
  0
VERTEX
  5
7FB
  8
0
 62
     7
 10
-52.287990999999991
 20
565.94267500000001
 30
0.0
  0
VERTEX
  5
7FC
  8
0
 62
     7
 10
-53.288159
 20
563.94275700000003
 30
0.0
  0
VERTEX
  5
7FD
  8
0
 62
     7
 10
-69.288158999999993
 20
563.94408799999985
 30
0.0
  0
VERTEX
  5
7FE
  8
0
 62
     7
 10
-70.288326999999995
 20
561.94416799999999
 30
0.0
  0
VERTEX
  5
7FF
  8
0
 62
     7
 10
-71.287991000000005
 20
565.94425199999989
 30
0.0
  0
VERTEX
  5
800
  8
0
 62
     7
 10
-72.288158999999993
 20
563.94433600000002
 30
0.0
  0
VERTEX
  5
801
  8
0
 62
     7
 10
-88.288158999999993
 20
563.94566299999985
 30
0.0
  0
VERTEX
  5
802
  8
0
 62
     7
 10
-89.288326999999995
 20
561.94574699999987
 30
0.0
  0
VERTEX
  5
803
  8
0
 62
     7
 10
-90.287991000000005
 20
565.94582899999989
 30
0.0
  0
VERTEX
  5
804
  8
0
 62
     7
 10
-91.288158999999993
 20
563.94591100000002
 30
0.0
  0
VERTEX
  5
805
  8
0
 62
     7
 10
-107.28815899999999
 20
563.94724299999984
 30
0.0
  0
VERTEX
  5
806
  8
0
 62
     7
 10
-108.2883269999999
 20
561.9473230000001
 30
0.0
  0
VERTEX
  5
807
  8
0
 62
     7
 10
-109.28799099999991
 20
565.94740699999988
 30
0.0
  0
VERTEX
  5
808
  8
0
 62
     7
 10
-110.28815899999999
 20
563.94749100000001
 30
0.0
  0
VERTEX
  5
809
  8
0
 62
     7
 10
-126.28815899999999
 20
563.94881799999985
 30
0.0
  0
VERTEX
  5
80A
  8
0
 62
     7
 10
-127.2883269999999
 20
561.94890199999986
 30
0.0
  0
VERTEX
  5
80B
  8
0
 62
     7
 10
-128.28799100000001
 20
565.94898399999988
 30
0.0
  0
VERTEX
  5
80C
  8
0
 62
     7
 10
-129.28815900000001
 20
563.9490659999999
 30
0.0
  0
VERTEX
  5
80D
  8
0
 62
     7
 10
-139.28820099999999
 20
563.94989799999996
 30
0.0
  0
SEQEND
  5
80E
  8
0
 62
     7
  0
LINE
  5
322
  8
0
 62
     7
 10
11.744631999999999
 20
524.96535499999993
 30
0.0
 11
-159.04371299999991
 21
524.96535499999993
 31
0.0
  0
CIRCLE
  5
323
  8
0
 62
     7
 10
7.7446320000000011
 20
528.96535499999993
 30
0.0
 40
2.0
  0
LINE
  5
324
  8
0
  6
DASHDOT
 62
     7
 10
7.7446320000000011
 20
532.96535499999993
 30
0.0
 11
7.7446320000000011
 21
462.89859799999999
 31
0.0
  0
LINE
  5
325
  8
0
  6
DASHDOT
 62
     7
 10
11.744631999999999
 20
528.96535499999993
 30
0.0
 11
3.7446320000000002
 21
528.96535499999993
 31
0.0
  0
LINE
  5
326
  8
0
  6
DASHDOT
 62
     7
 10
-86.788265999999993
 20
572.41581499999995
 30
0.0
 11
-86.788265999999993
 21
472.01023900000001
 31
0.0
  0
POLYLINE
  5
327
  8
0
 62
     7
 66
     1
 10
0.0
 20
0.0
 30
0.0
  0
VERTEX
  5
80F
  8
0
 62
     7
 10
-159.04371299999991
 20
534.86605499999985
 30
0.0
  0
VERTEX
  5
810
  8
0
 62
     7
 10
-159.04371299999991
 20
519.40721900000005
 30
0.0
  0
VERTEX
  5
811
  8
0
 62
     7
 10
-157.043713
 20
518.40721900000005
 30
0.0
  0
VERTEX
  5
812
  8
0
 62
     7
 10
-161.043713
 20
517.40721900000005
 30
0.0
  0
VERTEX
  5
813
  8
0
 62
     7
 10
-159.04371299999991
 20
516.40721900000005
 30
0.0
  0
SEQEND
  5
814
  8
0
 62
     7
  0
ARC
  5
32E
  8
0
 62
     7
 10
-107.288273
 20
537.944344
 30
0.0
 40
1.0
 50
270.00000299999988
 51
0.000005
  0
ARC
  5
32F
  8
0
 62
     7
 10
-118.288273
 20
537.944344
 30
0.0
 40
1.0
 50
180.0
 51
270.00000299999988
  0
CIRCLE
  5
330
  8
0
 62
     3
 10
-112.78826599999999
 20
543.44562099999985
 30
0.0
 40
4.0
  0
LINE
  5
331
  8
0
 62
     3
 10
-112.78826599999999
 20
548.06442300000003
 30
0.0
 11
-116.78826599999989
 21
545.75502400000005
 31
0.0
  0
LINE
  5
332
  8
0
 62
     3
 10
-108.78826599999999
 20
545.75502400000005
 30
0.0
 11
-112.78826599999999
 21
548.06442300000003
 31
0.0
  0
LINE
  5
333
  8
0
 62
     3
 10
-108.78826599999999
 20
541.1362190000001
 30
0.0
 11
-112.78826599999999
 21
538.82681999999988
 31
0.0
  0
LINE
  5
334
  8
0
 62
     3
 10
-112.78826599999999
 20
538.82681999999988
 30
0.0
 11
-116.78826599999989
 21
541.1362190000001
 31
0.0
  0
LINE
  5
335
  8
0
 62
     3
 10
-116.78826599999989
 20
545.75502400000005
 30
0.0
 11
-116.78826599999989
 21
541.1362190000001
 31
0.0
  0
LINE
  5
336
  8
0
 62
     3
 10
-108.78826599999999
 20
545.75502400000005
 30
0.0
 11
-108.78826599999999
 21
541.1362190000001
 31
0.0
  0
LINE
  5
337
  8
0
  6
DASHDOT
 62
     7
 10
-112.78826599999999
 20
549.44562099999996
 30
0.0
 11
-112.78826599999999
 21
537.44562099999985
 31
0.0
  0
LINE
  5
338
  8
0
  6
DASHDOT
 62
     7
 10
-106.78826599999989
 20
543.44562099999985
 30
0.0
 11
-118.78826599999989
 21
543.44562099999985
 31
0.0
  0
CIRCLE
  5
339
  8
0
 62
     3
 10
-112.78826599999999
 20
543.44562099999985
 30
0.0
 40
2.5
  0
ARC
  5
33A
  8
0
 62
     7
 10
-112.78826599999999
 20
543.44562099999985
 30
0.0
 40
2.1000000000000001
 50
270.00000299999988
 51
180.0
  0
LINE
  5
33B
  8
0
 62
    52
 10
7.7446320000000011
 20
453.20819899999998
 30
0.0
 11
0.358585
 21
454.51055099999991
 31
0.0
  0
LINE
  5
33C
  8
0
 62
    52
 10
7.7446320000000011
 20
453.20819899999998
 30
0.0
 11
0.358585
 21
451.905846
 31
0.0
  0
LINE
  5
33D
  8
0
 62
    52
 10
-112.78826599999999
 20
453.20819899999998
 30
0.0
 11
-105.40221099999999
 21
451.905846
 31
0.0
  0
LINE
  5
33E
  8
0
 62
    52
 10
-112.78826599999999
 20
453.20819899999998
 30
0.0
 11
-105.40221099999999
 21
454.51055099999991
 31
0.0
  0
LINE
  5
33F
  8
0
 62
    52
 10
7.7446320000000011
 20
453.20819899999998
 30
0.0
 11
-112.78826599999999
 21
453.20819899999998
 31
0.0
  0
LINE
  5
340
  8
0
 62
    52
 10
7.7446320000000011
 20
448.20819899999998
 30
0.0
 11
7.7446320000000011
 21
462.89861300000001
 31
0.0
  0
LINE
  5
341
  8
0
 62
    52
 10
-112.78826599999999
 20
448.20819899999998
 30
0.0
 11
-112.78826599999999
 21
471.089157
 31
0.0
  0
LINE
  5
342
  8
0
 62
     7
 10
418.6917259999999
 20
788.59542499999998
 30
0.0
 11
418.6917259999999
 21
788.09545500000002
 31
0.0
  0
LINE
  5
343
  8
0
 62
     7
 10
418.191757
 20
772.09545500000002
 30
0.0
 11
418.69174099999998
 21
772.09545500000002
 31
0.0
  0
LINE
  5
344
  8
0
 62
     7
 10
520.19174199999998
 20
812.84546999999998
 30
0.0
 11
523.69174199999998
 21
812.84546999999998
 31
0.0
  0
LINE
  5
345
  8
0
 62
     7
 10
520.19174199999998
 20
707.845505
 30
0.0
 11
523.69174199999998
 21
707.845505
 31
0.0
  0
LINE
  5
346
  8
0
 62
     7
 10
518.19174199999986
 20
707.845505
 30
0.0
 11
518.19174199999986
 21
691.59550499999989
 31
0.0
  0
LINE
  5
347
  8
0
 62
     7
 10
520.19174199999998
 20
812.84546999999998
 30
0.0
 11
520.19174199999998
 21
707.845505
 31
0.0
  0
LINE
  5
348
  8
0
 62
     7
 10
518.19174199999986
 20
707.845505
 30
0.0
 11
520.19174199999998
 21
707.845505
 31
0.0
  0
LINE
  5
349
  8
0
 62
     7
 10
518.19174199999986
 20
812.84546999999998
 30
0.0
 11
520.19174199999998
 21
812.84546999999998
 31
0.0
  0
LINE
  5
34A
  8
0
  6
DASHDOT
 62
     7
 10
416.69175699999988
 20
892.41225799999995
 30
0.0
 11
416.69175699999988
 21
618.27868699999999
 31
0.0
  0
LINE
  5
34B
  8
0
 62
     7
 10
562.69171100000005
 20
739.84534799999994
 30
0.0
 11
562.69171100000005
 21
727.84533299999987
 31
0.0
  0
LINE
  5
34C
  8
0
  6
DASHDOT
 62
     3
 10
770.46313499999985
 20
760.34546999999998
 30
0.0
 11
780.23925800000006
 21
760.34546999999998
 31
0.0
  0
LINE
  5
34D
  8
0
  6
DASHDOT
 62
     3
 10
397.45179400000001
 20
760.34546999999998
 30
0.0
 11
843.66021699999999
 21
760.34546999999998
 31
0.0
  0
LINE
  5
34E
  8
0
 62
     2
 10
777.12152100000003
 20
798.34501299999999
 30
0.0
 11
777.12152100000003
 21
792.03205500000001
 31
0.0
  0
LINE
  5
34F
  8
0
 62
     2
 10
777.12152100000003
 20
761.84506599999986
 30
0.0
 11
777.12152100000003
 21
755.84506599999997
 31
0.0
  0
LINE
  5
350
  8
0
 62
     2
 10
810.62152100000003
 20
788.33723099999986
 30
0.0
 11
810.62152100000003
 21
755.35290099999997
 31
0.0
  0
LINE
  5
351
  8
0
 62
     2
 10
792.62152100000003
 20
755.84506599999997
 30
0.0
 11
792.62152100000003
 21
749.34506599999986
 31
0.0
  0
LINE
  5
352
  8
0
 62
     2
 10
792.62152100000003
 20
794.34507400000007
 30
0.0
 11
792.62152100000003
 21
787.84507399999995
 31
0.0
  0
LINE
  5
353
  8
0
 62
     2
 10
777.12152100000003
 20
755.84506599999997
 30
0.0
 11
777.12152100000003
 21
745.34506599999986
 31
0.0
  0
LINE
  5
354
  8
0
 62
     2
 10
777.12152100000003
 20
798.34507400000007
 30
0.0
 11
777.12152100000003
 21
787.84507399999995
 31
0.0
  0
LINE
  5
355
  8
0
 62
     2
 10
792.62152100000003
 20
787.84507399999995
 30
0.0
 11
792.62152100000003
 21
755.84506599999997
 31
0.0
  0
LINE
  5
356
  8
0
 62
   191
 10
520.19171100000005
 20
812.84553099999994
 30
0.0
 11
562.19107099999985
 21
812.84537899999998
 31
0.0
  0
LINE
  5
357
  8
0
 62
   191
 10
520.19171100000005
 20
707.845505
 30
0.0
 11
562.19047499999988
 21
707.845505
 31
0.0
  0
LINE
  5
358
  8
0
 62
   191
 10
520.19171100000005
 20
812.84553099999994
 30
0.0
 11
520.19171100000005
 21
810.34553099999994
 31
0.0
  0
LINE
  5
359
  8
0
 62
   191
 10
520.19171100000005
 20
801.59531800000002
 30
0.0
 11
520.19171100000005
 21
785.26613999999995
 31
0.0
  0
LINE
  5
35A
  8
0
 62
   191
 10
520.19171100000005
 20
783.26613999999995
 30
0.0
 11
520.19171100000005
 21
729.01609399999995
 31
0.0
  0
LINE
  5
35B
  8
0
 62
   191
 10
520.19171100000005
 20
727.01609400000007
 30
0.0
 11
520.19171100000005
 21
716.59556999999995
 31
0.0
  0
LINE
  5
35C
  8
0
 62
   191
 10
520.19171100000005
 20
711.59557699999993
 30
0.0
 11
520.19171100000005
 21
707.845505
 31
0.0
  0
LINE
  5
35D
  8
0
 62
   191
 10
562.69171100000005
 20
812.3441889999998
 30
0.0
 11
562.69171100000005
 21
696.84506999999985
 31
0.0
  0
LINE
  5
35E
  8
0
 62
   191
 10
520.19171100000005
 20
710.34549700000002
 30
0.0
 11
520.19620499999985
 21
710.34549700000002
 31
0.0
  0
LINE
  5
35F
  8
0
 62
   191
 10
563.69169599999987
 20
793.84545500000002
 30
0.0
 11
563.69494599999985
 21
787.45618799999988
 31
0.0
  0
LINE
  5
360
  8
0
 62
   191
 10
563.69169599999987
 20
793.84546999999998
 30
0.0
 11
563.69433600000002
 21
784.34514999999999
 31
0.0
  0
LINE
  5
361
  8
0
 62
   191
 10
563.69169599999987
 20
793.84546999999998
 30
0.0
 11
563.69343600000002
 21
784.34514999999999
 31
0.0
  0
LINE
  5
362
  8
0
 62
   191
 10
563.69169599999987
 20
793.84546999999998
 30
0.0
 11
563.692902
 21
784.34514999999999
 31
0.0
  0
LINE
  5
363
  8
0
 62
   191
 10
563.69169599999987
 20
793.84546999999998
 30
0.0
 11
563.69251999999994
 21
784.34514999999999
 31
0.0
  0
LINE
  5
364
  8
0
 62
   191
 10
563.69169599999987
 20
793.84546999999998
 30
0.0
 11
563.69244400000002
 21
784.34514999999999
 31
0.0
  0
LINE
  5
365
  8
0
 62
   191
 10
563.69169599999987
 20
793.84546999999998
 30
0.0
 11
563.69221500000003
 21
784.34514999999999
 31
0.0
  0
LINE
  5
366
  8
0
 62
   191
 10
563.69169599999987
 20
785.47727599999985
 30
0.0
 11
563.69172699999979
 21
784.34514999999999
 31
0.0
  0
LINE
  5
367
  8
0
 62
   191
 10
520.19610599999999
 20
718.95827099999985
 30
0.0
 11
520.19611399999985
 21
716.59556999999995
 31
0.0
  0
LINE
  5
368
  8
0
 62
   191
 10
520.19612900000004
 20
711.59557299999994
 30
0.0
 11
520.19612900000004
 21
710.34550100000001
 31
0.0
  0
LINE
  5
369
  8
0
 62
   191
 10
520.19613600000002
 20
801.73234200000002
 30
0.0
 11
520.19610599999999
 21
801.59531800000002
 31
0.0
  0
LINE
  5
36A
  8
0
 62
   191
 10
520.19603700000005
 20
802.83788700000002
 30
0.0
 11
520.19609100000002
 21
801.8812979999999
 31
0.0
  0
LINE
  5
36B
  8
0
 62
   191
 10
520.19599200000005
 20
804.98719400000004
 30
0.0
 11
520.19603700000005
 21
803.01559099999986
 31
0.0
  0
LINE
  5
36C
  8
0
 62
   191
 10
520.19597599999997
 20
807.34092300000009
 30
0.0
 11
520.19598399999995
 21
805.61426899999992
 31
0.0
  0
LINE
  5
36D
  8
0
 62
   191
 10
520.19599200000005
 20
809.798901
 30
0.0
 11
520.19597599999997
 21
808.03292499999998
 31
0.0
  0
LINE
  5
36E
  8
0
 62
   191
 10
520.19598399999995
 20
810.34553099999994
 30
0.0
 11
520.19599200000005
 21
810.064571
 31
0.0
  0
LINE
  5
36F
  8
0
 62
   191
 10
520.19609100000002
 20
801.8812979999999
 30
0.0
 11
520.19610599999999
 21
801.73234200000002
 31
0.0
  0
LINE
  5
370
  8
0
 62
   191
 10
520.19603700000005
 20
803.01559099999986
 30
0.0
 11
520.19603700000005
 21
802.83788700000002
 31
0.0
  0
LINE
  5
371
  8
0
 62
   191
 10
520.19598399999995
 20
805.61426899999992
 30
0.0
 11
520.19599200000005
 21
804.98719400000004
 31
0.0
  0
LINE
  5
372
  8
0
 62
   191
 10
520.19612900000004
 20
808.03292499999998
 30
0.0
 11
520.19612900000004
 21
807.34092300000009
 31
0.0
  0
LINE
  5
373
  8
0
 62
   191
 10
520.19599200000005
 20
810.064571
 30
0.0
 11
520.19599200000005
 21
809.798901
 31
0.0
  0
LINE
  5
374
  8
0
 62
   191
 10
562.54403699999989
 20
707.99319500000001
 30
0.0
 11
562.19047499999988
 21
707.84675599999991
 31
0.0
  0
LINE
  5
375
  8
0
 62
   191
 10
562.69171100000005
 20
708.34967400000005
 30
0.0
 11
562.54403699999989
 21
707.99319800000001
 31
0.0
  0
LINE
  5
376
  8
0
 62
   191
 10
562.54463199999998
 20
812.6984829999999
 30
0.0
 11
562.69139099999995
 21
812.344921
 31
0.0
  0
LINE
  5
377
  8
0
 62
   191
 10
562.19107099999985
 20
812.84537899999998
 30
0.0
 11
562.54463199999998
 21
812.69849800000009
 31
0.0
  0
LINE
  5
378
  8
0
 62
     2
 10
792.62152100000003
 20
792.33723099999986
 30
0.0
 11
806.62152100000014
 21
792.33723099999986
 31
0.0
  0
LINE
  5
379
  8
0
 62
     2
 10
792.62152100000003
 20
751.35290099999997
 30
0.0
 11
806.62152100000014
 21
751.35290099999997
 31
0.0
  0
LINE
  5
37A
  8
0
 62
     2
 10
777.12152100000003
 20
745.34506599999986
 30
0.0
 11
788.62155199999995
 21
745.34506599999986
 31
0.0
  0
LINE
  5
37B
  8
0
 62
     2
 10
777.12152100000003
 20
798.34507400000007
 30
0.0
 11
788.62152100000003
 21
798.34507400000007
 31
0.0
  0
LINE
  5
37C
  8
0
 62
   191
 10
562.69169599999987
 20
798.33872599999995
 30
0.0
 11
563.69401600000003
 21
798.33871099999988
 31
0.0
  0
LINE
  5
37D
  8
0
 62
   191
 10
563.69500700000003
 20
746.05433300000004
 30
0.0
 11
562.69169599999987
 21
746.05430999999987
 31
0.0
  0
ARC
  5
37E
  8
0
 62
     2
 10
788.62155199999995
 20
794.34508899999992
 30
0.0
 40
3.9999839999999991
 50
359.99972200000002
 51
90.000086999999994
  0
ARC
  5
37F
  8
0
 62
     2
 10
788.62155199999995
 20
749.34505100000001
 30
0.0
 40
3.9999790000000002
 50
269.999819
 51
360.00018699999998
  0
ARC
  5
380
  8
0
 62
     2
 10
806.62152100000014
 20
788.33723099999986
 30
0.0
 40
4.0
 50
360.00000299999988
 51
90.000005000000002
  0
ARC
  5
381
  8
0
 62
     2
 10
806.62152100000014
 20
755.35290099999997
 30
0.0
 40
4.0
 50
270.0
 51
360.00000299999988
  0
LINE
  5
382
  8
0
  6
DASHDOT
 62
     7
 10
542.24789400000009
 20
771.84506599999997
 30
0.0
 11
781.93734699999993
 21
771.84506599999997
 31
0.0
  0
LINE
  5
383
  8
0
 62
     7
 10
520.19174199999998
 20
812.58903099999986
 30
0.0
 11
520.19174199999998
 21
707.84551599999986
 31
0.0
  0
LINE
  5
384
  8
0
 62
     7
 10
519.94174199999986
 20
812.83903099999998
 30
0.0
 11
520.11851499999989
 21
812.765804
 31
0.0
  0
LINE
  5
385
  8
0
 62
     7
 10
520.11852299999998
 20
812.76578900000004
 30
0.0
 11
520.19174199999998
 21
812.58901600000002
 31
0.0
  0
LINE
  5
386
  8
0
 62
     7
 10
520.19174199999998
 20
708.08902399999999
 30
0.0
 11
520.11851499999989
 21
707.91224699999987
 31
0.0
  0
LINE
  5
387
  8
0
 62
     7
 10
550.70253000000002
 20
738.22337000000005
 30
0.0
 11
549.31620799999985
 21
732.31685999999979
 31
0.0
  0
LINE
  5
388
  8
0
 62
     7
 10
548.88403300000004
 20
731.70457099999999
 30
0.0
 11
548.14778100000001
 21
731.56453299999987
 31
0.0
  0
LINE
  5
389
  8
0
 62
     7
 10
549.31620799999985
 20
732.31685300000004
 30
0.0
 11
548.88403300000004
 21
731.70456299999989
 31
0.0
  0
LINE
  5
38A
  8
0
 62
     7
 10
550.58773799999994
 20
738.96425999999997
 30
0.0
 11
550.70253000000002
 21
738.22336199999995
 31
0.0
  0
LINE
  5
38B
  8
0
 62
     7
 10
549.99021900000002
 20
739.41714100000002
 30
0.0
 11
550.58773799999994
 21
738.96426799999995
 31
0.0
  0
LINE
  5
38C
  8
0
 62
     7
 10
523.11994200000004
 20
746.68925100000001
 30
0.0
 11
549.99021900000002
 21
739.41714100000002
 31
0.0
  0
LINE
  5
38D
  8
0
 62
     7
 10
522.57121299999994
 20
747.06804999999997
 30
0.0
 11
523.11994900000002
 21
746.68924299999992
 31
0.0
  0
LINE
  5
38E
  8
0
 62
     7
 10
522.38259100000005
 20
747.70759999999996
 30
0.0
 11
522.57121299999994
 21
747.06804999999997
 31
0.0
  0
LINE
  5
38F
  8
0
 62
     7
 10
520.75371600000005
 20
736.74657799999989
 30
0.0
 11
520.30984499999988
 21
736.18501700000002
 31
0.0
  0
LINE
  5
390
  8
0
 62
     7
 10
521.45922099999996
 20
736.86759600000005
 30
0.0
 11
520.75371600000005
 21
736.74657799999989
 31
0.0
  0
LINE
  5
391
  8
0
 62
     7
 10
521.45922099999996
 20
736.86760300000003
 30
0.0
 11
548.14778100000001
 21
731.56453299999987
 31
0.0
  0
LINE
  5
392
  8
0
 62
     7
 10
520.27692400000001
 20
761.765263
 30
0.0
 11
521.05005599999981
 21
761.58380499999987
 31
0.0
  0
LINE
  5
393
  8
0
 62
     7
 10
549.95761100000004
 20
739.42596100000003
 30
0.0
 11
548.11402899999985
 21
731.57123200000001
 31
0.0
  0
ARC
  5
394
  8
0
 62
     7
 10
475.44880699999999
 20
750.20260199999996
 30
0.0
 40
47.000060999999988
 50
341.24592200000001
 51
374.0136389999999
  0
LINE
  5
395
  8
0
  6
DASHED
 62
     2
 10
810.62152100000003
 20
794.34507400000007
 30
0.0
 11
810.62152100000003
 21
710.84506999999985
 31
0.0
  0
LINE
  5
396
  8
0
  6
DASHED
 62
     7
 10
796.62152100000003
 20
706.84506999999985
 30
0.0
 11
806.62152100000014
 21
706.84506999999985
 31
0.0
  0
LINE
  5
397
  8
0
  6
DASHED
 62
     7
 10
777.12152100000003
 20
739.37042599999995
 30
0.0
 11
785.62152100000003
 21
739.37042599999995
 31
0.0
  0
LINE
  5
398
  8
0
  6
DASHED
 62
     7
 10
788.62152100000003
 20
798.34507400000007
 30
0.0
 11
806.62152100000014
 21
798.34507400000007
 31
0.0
  0
ARC
  5
399
  8
0
  6
DASHED
 62
     7
 10
796.62152100000003
 20
710.84506999999985
 30
0.0
 40
4.0
 50
180.00000099999991
 51
270.0
  0
ARC
  5
39A
  8
0
  6
DASHED
 62
     7
 10
806.62152100000014
 20
710.84506999999985
 30
0.0
 40
4.0
 50
270.0
 51
360.00000299999988
  0
ARC
  5
39B
  8
0
  6
DASHED
 62
     7
 10
785.62152100000003
 20
732.37042599999995
 30
0.0
 40
7.0
 50
360.00000299999988
 51
90.000005000000002
  0
ARC
  5
39C
  8
0
  6
DASHED
 62
     7
 10
785.62152100000003
 20
735.88611999999989
 30
0.0
 40
7.0
 50
360.00000299999988
 51
90.000005000000002
  0
ARC
  5
39D
  8
0
  6
DASHED
 62
     7
 10
806.62152100000014
 20
794.34507400000007
 30
0.0
 40
4.0
 50
360.00000299999988
 51
90.000005000000002
  0
LINE
  5
39E
  8
0
  6
DASHED
 62
     7
 10
792.62152100000003
 20
735.88611999999989
 30
0.0
 11
792.62152100000003
 21
710.84506999999985
 31
0.0
  0
LINE
  5
39F
  8
0
  6
DASHED
 62
     7
 10
818.62152100000003
 20
760.84506599999986
 30
0.0
 11
818.62152100000003
 21
744.84506599999986
 31
0.0
  0
ARC
  5
3A0
  8
0
  6
DASHED
 62
     7
 10
814.62152100000014
 20
744.84506599999986
 30
0.0
 40
4.0
 50
180.00000099999991
 51
360.00000299999988
  0
ARC
  5
3A1
  8
0
  6
DASHED
 62
     7
 10
814.62152100000014
 20
760.84506599999986
 30
0.0
 40
4.0
 50
360.00000299999988
 51
180.00000099999991
  0
LINE
  5
3A2
  8
0
  6
DASHDOT
 62
     7
 10
808.62152100000003
 20
744.84506599999986
 30
0.0
 11
820.62152099999992
 21
744.84506599999986
 31
0.0
  0
LINE
  5
3A3
  8
0
  6
DASHDOT
 62
     7
 10
814.62152100000014
 20
766.84506599999986
 30
0.0
 11
814.62152100000014
 21
738.84506599999997
 31
0.0
  0
LINE
  5
3A4
  8
0
  6
DASHDOT
 62
     7
 10
808.62152100000003
 20
760.84506599999986
 30
0.0
 11
820.62152099999992
 21
760.84506599999986
 31
0.0
  0
ARC
  5
3A5
  8
0
  6
DASHED
 62
     7
 10
801.62152100000003
 20
779.84507399999995
 30
0.0
 40
41.299396999999999
 50
282.58694500000001
 51
307.75004899999999
  0
ARC
  5
3A6
  8
0
  6
DASHED
 62
     7
 10
801.62152100000003
 20
779.84507399999995
 30
0.0
 40
44.299396999999999
 50
281.72198700000001
 51
307.18070399999988
  0
LINE
  5
3A7
  8
0
  6
DASHED
 62
     7
 10
810.62152100000003
 20
776.09405099999992
 30
0.0
 11
829.99197399999991
 21
741.71217000000001
 31
0.0
  0
LINE
  5
3A8
  8
0
  6
DASHED
 62
     2
 10
810.62152100000003
 20
782.20588299999986
 30
0.0
 11
832.60571300000004
 21
743.18472699999995
 31
0.0
  0
LINE
  5
3A9
  8
0
  6
DASHED
 62
     7
 10
832.60571300000004
 20
743.18472699999995
 30
0.0
 11
829.99197399999991
 21
741.71217000000001
 31
0.0
  0
LINE
  5
3AA
  8
0
  6
DASHED
 62
     7
 10
777.12152100000003
 20
745.34506599999986
 30
0.0
 11
777.12152100000003
 21
739.37042599999995
 31
0.0
  0
LINE
  5
3AB
  8
0
 62
   191
 10
563.69401600000003
 20
798.33871099999988
 30
0.0
 11
563.692947
 21
746.05524800000001
 31
0.0
  0
LINE
  5
3AC
  8
0
 62
     9
 10
776.62152100000003
 20
761.84506599999986
 30
0.0
 11
776.62152100000003
 21
745.34497499999986
 31
0.0
  0
LINE
  5
3AD
  8
0
 62
     9
 10
761.12152100000003
 20
767.84507399999995
 30
0.0
 11
761.12152100000003
 21
762.84507399999995
 31
0.0
  0
LINE
  5
3AE
  8
0
 62
     9
 10
761.12152100000003
 20
812.84546999999998
 30
0.0
 11
774.37152100000003
 21
812.84546999999998
 31
0.0
  0
LINE
  5
3AF
  8
0
 62
     9
 10
761.12152100000003
 20
707.84544000000005
 30
0.0
 11
774.37152100000003
 21
707.84544000000005
 31
0.0
  0
LINE
  5
3B0
  8
0
 62
     9
 10
775.62152100000003
 20
761.84506599999986
 30
0.0
 11
775.62152100000003
 21
709.09546999999998
 31
0.0
  0
LINE
  5
3B1
  8
0
 62
     9
 10
761.12152100000003
 20
762.84507399999995
 30
0.0
 11
761.12152100000003
 21
707.84544000000005
 31
0.0
  0
LINE
  5
3B2
  8
0
 62
     9
 10
761.12152100000003
 20
812.84546999999998
 30
0.0
 11
761.12152100000003
 21
771.844967
 31
0.0
  0
LINE
  5
3B3
  8
0
 62
     9
 10
761.12152100000003
 20
771.84497499999986
 30
0.0
 11
761.12152100000003
 21
767.84507399999995
 31
0.0
  0
LINE
  5
3B4
  8
0
 62
     9
 10
775.62152100000003
 20
709.09547799999996
 30
0.0
 11
775.25540199999989
 21
708.21159399999999
 31
0.0
  0
LINE
  5
3B5
  8
0
 62
     9
 10
775.25540199999989
 20
708.21158600000001
 30
0.0
 11
775.07858299999987
 21
708.13833999999997
 31
0.0
  0
LINE
  5
3B6
  8
0
 62
     9
 10
775.07833899999991
 20
708.13824099999988
 30
0.0
 11
774.37152100000003
 21
707.84544000000005
 31
0.0
  0
LINE
  5
3B7
  8
0
 62
     9
 10
774.37152100000003
 20
812.84546999999998
 30
0.0
 11
775.25540199999989
 21
812.47935099999995
 31
0.0
  0
LINE
  5
3B8
  8
0
 62
     9
 10
775.25540199999989
 20
812.47936599999991
 30
0.0
 11
775.62152100000003
 21
811.59548600000005
 31
0.0
  0
LINE
  5
3B9
  8
0
 62
     4
 10
564.1917269999999
 20
786.34508899999992
 30
0.0
 11
564.19164999999987
 21
757.34517300000005
 31
0.0
  0
LINE
  5
3BA
  8
0
 62
     4
 10
564.6917269999999
 20
798.34518099999991
 30
0.0
 11
564.69158900000002
 21
745.34508099999994
 31
0.0
  0
LINE
  5
3BB
  8
0
 62
     4
 10
566.1917269999999
 20
798.34516500000007
 30
0.0
 11
566.19158900000002
 21
745.34508899999992
 31
0.0
  0
LINE
  5
3BC
  8
0
 62
     4
 10
567.19171100000005
 20
791.84499699999992
 30
0.0
 11
578.19314599999996
 21
791.84495199999992
 31
0.0
  0
LINE
  5
3BD
  8
0
 62
     4
 10
567.19161999999994
 20
751.84499699999981
 30
0.0
 11
578.19265700000005
 21
751.84495900000002
 31
0.0
  0
LINE
  5
3BE
  8
0
 62
     4
 10
566.19300799999985
 20
779.84514999999988
 30
0.0
 11
579.19300799999985
 21
779.84498199999996
 31
0.0
  0
LINE
  5
3BF
  8
0
 62
     4
 10
566.19280999999989
 20
763.84514999999999
 30
0.0
 11
579.19280999999989
 21
763.84498199999996
 31
0.0
  0
LINE
  5
3C0
  8
0
 62
     4
 10
566.19300799999985
 20
779.84514999999988
 30
0.0
 11
566.19280999999989
 21
763.84514999999999
 31
0.0
  0
LINE
  5
3C1
  8
0
 62
     9
 10
775.62152100000003
 20
745.34497499999986
 30
0.0
 11
776.62152100000003
 21
745.34497499999986
 31
0.0
  0
LINE
  5
3C2
  8
0
 62
     9
 10
775.62152100000003
 20
798.34496699999988
 30
0.0
 11
776.62152100000003
 21
798.34496699999988
 31
0.0
  0
LINE
  5
3C3
  8
0
 62
     4
 10
563.69319199999995
 20
758.59513499999991
 30
0.0
 11
564.19166600000005
 21
758.59513499999991
 31
0.0
  0
LINE
  5
3C4
  8
0
 62
     4
 10
563.69374100000005
 20
785.0951349999998
 30
0.0
 11
564.1917269999999
 21
785.0951349999998
 31
0.0
  0
LINE
  5
3C5
  8
0
 62
     4
 10
564.19164999999987
 20
757.34517300000005
 30
0.0
 11
564.69164999999987
 21
757.34517300000005
 31
0.0
  0
LINE
  5
3C6
  8
0
 62
     4
 10
564.1917269999999
 20
786.34508899999992
 30
0.0
 11
564.6917269999999
 21
786.34508899999992
 31
0.0
  0
LINE
  5
3C7
  8
0
 62
     4
 10
566.19158900000002
 20
745.34508899999992
 30
0.0
 11
564.69158900000002
 21
745.34508099999994
 31
0.0
  0
LINE
  5
3C8
  8
0
 62
     4
 10
564.6917269999999
 20
798.34518099999991
 30
0.0
 11
566.1917269999999
 21
798.34516500000007
 31
0.0
  0
ARC
  5
3C9
  8
0
 62
     7
 10
578.19314599999996
 20
790.84495199999992
 30
0.0
 40
1.0
 50
359.99927899999989
 51
90.000005000000002
  0
ARC
  5
3CA
  8
0
 62
     7
 10
578.19267300000001
 20
752.84495900000002
 30
0.0
 40
1.0
 50
269.999819
 51
359.99927899999989
  0
ARC
  5
3CB
  8
0
 62
     7
 10
567.19171100000005
 20
792.84499699999992
 30
0.0
 40
1.0
 50
179.999864
 51
269.99979100000002
  0
ARC
  5
3CC
  8
0
 62
     7
 10
567.19160499999998
 20
750.84499699999992
 30
0.0
 40
1.0
 50
90.000005000000002
 51
179.999864
  0
LINE
  5
3CD
  8
0
 62
   191
 10
775.62152100000003
 20
812.33835999999997
 30
0.0
 11
775.62152100000003
 21
798.3373069999999
 31
0.0
  0
LINE
  5
3CE
  8
0
 62
     7
 10
759.12152100000003
 20
878.67837100000008
 30
0.0
 11
759.12152100000003
 21
696.50888799999996
 31
0.0
  0
LINE
  5
3CF
  8
0
 62
     7
 10
761.12152100000003
 20
878.67837100000008
 30
0.0
 11
761.12152100000003
 21
812.83835999999985
 31
0.0
  0
LINE
  5
3D0
  8
0
 62
     5
 10
756.12152100000003
 20
785.33745999999985
 30
0.0
 11
756.12152100000003
 21
758.33745199999987
 31
0.0
  0
LINE
  5
3D1
  8
0
 62
     5
 10
757.62152100000003
 20
786.837444
 30
0.0
 11
759.12152100000003
 21
786.83742900000004
 31
0.0
  0
LINE
  5
3D2
  8
0
 62
     5
 10
757.62155199999995
 20
756.837444
 30
0.0
 11
759.12152100000003
 21
756.83742900000004
 31
0.0
  0
LINE
  5
3D3
  8
0
 62
     5
 10
756.12152100000003
 20
785.33745999999985
 30
0.0
 11
759.12152100000003
 21
785.33742900000004
 31
0.0
  0
LINE
  5
3D4
  8
0
 62
     5
 10
756.12152100000003
 20
758.33745199999987
 30
0.0
 11
759.12152100000003
 21
758.33742900000004
 31
0.0
  0
LINE
  5
3D5
  8
0
 62
     5
 10
757.62155199999995
 20
786.83745999999996
 30
0.0
 11
756.12152100000003
 21
785.33745999999985
 31
0.0
  0
LINE
  5
3D6
  8
0
 62
     5
 10
756.12152100000003
 20
758.33746699999995
 30
0.0
 11
757.62152100000003
 21
756.83746699999995
 31
0.0
  0
LINE
  5
3D7
  8
0
 62
     7
 10
579.19296299999985
 20
776.83882500000004
 30
0.0
 11
630.18937699999992
 21
776.83843599999989
 31
0.0
  0
LINE
  5
3D8
  8
0
 62
     7
 10
579.19284100000004
 20
766.83882500000004
 30
0.0
 11
630.18937699999992
 21
766.838436
 31
0.0
  0
LINE
  5
3D9
  8
0
  6
DASHDOT
 62
     7
 10
572.68418899999995
 20
803.29443000000003
 30
0.0
 11
572.68418899999995
 21
745.63493700000004
 31
0.0
  0
LINE
  5
3DA
  8
0
 62
     7
 10
575.18418899999995
 20
801.83886299999995
 30
0.0
 11
575.18418899999995
 21
795.84498200000007
 31
0.0
  0
LINE
  5
3DB
  8
0
 62
     7
 10
570.18418899999995
 20
801.8388940000001
 30
0.0
 11
570.18418899999995
 21
795.84502799999996
 31
0.0
  0
LINE
  5
3DC
  8
0
 62
     7
 10
575.18403599999999
 20
747.84492899999998
 30
0.0
 11
575.18397500000003
 21
744.34506599999986
 31
0.0
  0
LINE
  5
3DD
  8
0
 62
     7
 10
570.18403599999999
 20
747.84496699999988
 30
0.0
 11
570.18397500000003
 21
744.34506599999986
 31
0.0
  0
LINE
  5
3DE
  8
0
 62
   132
 10
568.99919099999988
 20
795.84504299999992
 30
0.0
 11
576.36920199999986
 21
795.84498200000007
 31
0.0
  0
LINE
  5
3DF
  8
0
 62
   132
 10
568.249191
 20
795.09504299999992
 30
0.0
 11
568.249191
 21
792.59504299999992
 31
0.0
  0
LINE
  5
3E0
  8
0
 62
   132
 10
577.11918600000001
 20
795.09498199999996
 30
0.0
 11
577.11918600000001
 21
792.59498199999996
 31
0.0
  0
LINE
  5
3E1
  8
0
 62
   132
 10
569.749191
 20
795.09504299999992
 30
0.0
 11
569.749191
 21
792.59504299999992
 31
0.0
  0
LINE
  5
3E2
  8
0
 62
   132
 10
575.61918600000001
 20
795.09498199999996
 30
0.0
 11
575.61918600000001
 21
792.594967
 31
0.0
  0
LINE
  5
3E3
  8
0
 62
   132
 10
568.99919099999988
 20
791.844967
 30
0.0
 11
576.36918600000001
 21
791.844967
 31
0.0
  0
ARC
  5
3E4
  8
0
 62
   132
 10
568.99919099999988
 20
792.59504299999992
 30
0.0
 40
0.75
 50
180.00516399999989
 51
360.00000299999988
  0
ARC
  5
3E5
  8
0
 62
   132
 10
572.68418899999995
 20
797.96279500000003
 30
0.0
 40
6.1178160000000004
 50
241.331166
 51
298.668834
  0
ARC
  5
3E6
  8
0
 62
   132
 10
576.36918600000001
 20
792.59498199999996
 30
0.0
 40
0.75
 50
180.00000099999991
 51
359.99912799999993
  0
ARC
  5
3E7
  8
0
 62
   132
 10
576.36918600000001
 20
795.09498199999996
 30
0.0
 40
0.75
 50
359.99956500000002
 51
180.00000099999991
  0
ARC
  5
3E8
  8
0
 62
   132
 10
572.68414299999995
 20
789.72718399999997
 30
0.0
 40
6.1178160000000004
 50
421.33072399999998
 51
118.66839899999999
  0
ARC
  5
3E9
  8
0
 62
   132
 10
568.99919099999988
 20
795.09504299999992
 30
0.0
 40
0.75
 50
360.00000299999988
 51
179.99956399999991
  0
LINE
  5
3EA
  8
0
 62
   132
 10
568.99893200000008
 20
747.84497499999998
 30
0.0
 11
576.36894199999995
 21
747.84491300000002
 31
0.0
  0
ARC
  5
3EB
  8
0
 62
   132
 10
572.68397500000003
 20
753.96276499999988
 30
0.0
 40
6.1178160000000004
 50
241.330727
 51
298.66839700000003
  0
ARC
  5
3EC
  8
0
 62
   132
 10
576.36894199999995
 20
748.59491300000002
 30
0.0
 40
0.75
 50
179.9991259999999
 51
359.99956500000002
  0
LINE
  5
3ED
  8
0
 62
   132
 10
575.61897299999998
 20
751.09493599999996
 30
0.0
 11
575.61894199999995
 21
748.594921
 31
0.0
  0
LINE
  5
3EE
  8
0
 62
   132
 10
569.74897799999997
 20
751.09495199999992
 30
0.0
 11
569.74894699999993
 21
748.59495900000002
 31
0.0
  0
LINE
  5
3EF
  8
0
 62
   132
 10
568.24897799999997
 20
751.09497499999986
 30
0.0
 11
568.24894699999993
 21
748.59498199999996
 31
0.0
  0
LINE
  5
3F0
  8
0
 62
   132
 10
577.1189730000001
 20
751.09489800000006
 30
0.0
 11
577.11894199999995
 21
748.59490599999992
 31
0.0
  0
ARC
  5
3F1
  8
0
 62
   132
 10
576.3689730000001
 20
751.09491300000002
 30
0.0
 40
0.75
 50
360.00000299999988
 51
179.9991259999999
  0
LINE
  5
3F2
  8
0
 62
   132
 10
568.99899299999993
 20
751.84503600000005
 30
0.0
 11
576.36898799999994
 21
751.84492099999989
 31
0.0
  0
ARC
  5
3F3
  8
0
 62
   132
 10
568.99897800000008
 20
751.094967
 30
0.0
 40
0.75
 50
359.99912799999993
 51
179.99396299999989
  0
ARC
  5
3F4
  8
0
 62
   132
 10
572.683899
 20
745.72716100000002
 30
0.0
 40
6.1178160000000004
 50
421.33028499999989
 51
118.6679629999999
  0
ARC
  5
3F5
  8
0
 62
   132
 10
568.99894699999993
 20
748.59497499999986
 30
0.0
 40
0.75
 50
179.99956399999991
 51
359.99912799999993
  0
ARC
  5
3F6
  8
0
 62
     7
 10
762.12152100000003
 20
794.84507400000007
 30
0.0
 40
5.7999999999999989
 50
184.94543999999999
 51
220.282107
  0
LINE
  5
3F7
  8
0
 62
     7
 10
756.34310900000003
 20
794.34507400000007
 30
0.0
 11
757.32153300000004
 21
794.34507400000007
 31
0.0
  0
LINE
  5
3F8
  8
0
 62
     7
 10
756.34310900000003
 20
795.34507399999995
 30
0.0
 11
757.32153300000004
 21
795.34507399999995
 31
0.0
  0
ARC
  5
3F9
  8
0
 62
     7
 10
762.12152100000003
 20
794.84507400000007
 30
0.0
 40
5.7999999999999989
 50
139.717895
 51
175.05456100000001
  0
LINE
  5
3FA
  8
0
 62
     7
 10
757.69686899999999
 20
798.59507399999995
 30
0.0
 11
759.12152100000003
 21
798.59507399999995
 31
0.0
  0
LINE
  5
3FB
  8
0
 62
     7
 10
757.69686899999999
 20
791.09507399999995
 30
0.0
 11
759.12152100000003
 21
791.09507399999995
 31
0.0
  0
LINE
  5
3FC
  8
0
 62
     7
 10
757.32153300000004
 20
795.34507399999995
 30
0.0
 11
757.32153300000004
 21
794.34507400000007
 31
0.0
  0
LINE
  5
3FD
  8
0
  6
DASHDOT
 62
     7
 10
755.64660599999991
 20
794.84507400000007
 30
0.0
 11
772.46243300000003
 21
794.84507400000007
 31
0.0
  0
POLYLINE
  5
3FE
  8
0
 62
     7
 66
     1
 10
0.0
 20
0.0
 30
0.0
  0
VERTEX
  5
815
  8
0
 62
     7
 10
754.17385899999999
 20
878.67837100000008
 30
0.0
  0
VERTEX
  5
816
  8
0
 62
     7
 10
764.12606799999992
 20
878.67837100000008
 30
0.0
  0
VERTEX
  5
817
  8
0
 62
     7
 10
765.12606799999992
 20
880.67837100000008
 30
0.0
  0
VERTEX
  5
818
  8
0
 62
     7
 10
766.1260679999998
 20
876.67837099999997
 30
0.0
  0
VERTEX
  5
819
  8
0
 62
     7
 10
767.12606799999992
 20
878.67837100000008
 30
0.0
  0
SEQEND
  5
81A
  8
0
 62
     7
  0
POLYLINE
  5
405
  8
0
 62
     7
 66
     1
 10
0.0
 20
0.0
 30
0.0
  0
VERTEX
  5
81B
  8
0
 62
     7
 10
754.17385899999999
 20
696.50888799999996
 30
0.0
  0
VERTEX
  5
81C
  8
0
 62
     7
 10
760.824524
 20
696.50888799999996
 30
0.0
  0
VERTEX
  5
81D
  8
0
 62
     7
 10
761.824524
 20
698.50888799999996
 30
0.0
  0
VERTEX
  5
81E
  8
0
 62
     7
 10
762.824524
 20
694.50888799999996
 30
0.0
  0
VERTEX
  5
81F
  8
0
 62
     7
 10
763.82452399999988
 20
696.50888799999996
 30
0.0
  0
SEQEND
  5
820
  8
0
 62
     7
  0
LINE
  5
40C
  8
0
 62
     7
 10
761.12152100000003
 20
707.84544000000005
 30
0.0
 11
761.12152100000003
 21
696.50888799999996
 31
0.0
  0
LINE
  5
40D
  8
0
 62
     7
 10
780.12152100000003
 20
774.84506599999986
 30
0.0
 11
780.12152100000003
 21
768.84506599999986
 31
0.0
  0
LINE
  5
40E
  8
0
 62
     7
 10
761.12152100000003
 20
776.84506599999997
 30
0.0
 11
778.12152100000003
 21
776.84506599999997
 31
0.0
  0
LINE
  5
40F
  8
0
 62
     7
 10
761.12152100000003
 20
766.84506599999986
 30
0.0
 11
778.12152100000003
 21
766.84506599999986
 31
0.0
  0
LINE
  5
410
  8
0
 62
     7
 10
778.12152100000003
 20
776.84506599999997
 30
0.0
 11
780.12152100000003
 21
774.84506599999986
 31
0.0
  0
LINE
  5
411
  8
0
 62
     7
 10
780.12152100000003
 20
768.84506599999986
 30
0.0
 11
778.12152100000003
 21
766.84506599999986
 31
0.0
  0
CIRCLE
  5
412
  8
0
 62
     7
 10
774.12152100000003
 20
771.84506599999997
 30
0.0
 40
2.75
  0
LINE
  5
413
  8
0
  6
DASHDOT
 62
     7
 10
774.12152100000003
 20
775.59506599999986
 30
0.0
 11
774.12152100000003
 21
768.09506599999986
 31
0.0
  0
POLYLINE
  5
414
  8
0
 62
     7
 66
     1
 10
0.0
 20
0.0
 30
0.0
  0
VERTEX
  5
821
  8
0
 62
     7
 10
761.12152100000003
 20
781.84507400000007
 30
0.0
  0
VERTEX
  5
822
  8
0
 62
     7
 10
777.12152100000003
 20
781.84507400000007
 30
0.0
  0
VERTEX
  5
823
  8
0
 62
     7
 10
778.12152100000003
 20
783.84507399999995
 30
0.0
  0
VERTEX
  5
824
  8
0
 62
     7
 10
779.12152100000003
 20
779.84507399999995
 30
0.0
  0
VERTEX
  5
825
  8
0
 62
     7
 10
780.12152100000003
 20
781.84507400000007
 30
0.0
  0
VERTEX
  5
826
  8
0
 62
     7
 10
785.12152100000003
 20
781.84507400000007
 30
0.0
  0
SEQEND
  5
827
  8
0
 62
     7
  0
POLYLINE
  5
41C
  8
0
 62
     7
 66
     1
 10
0.0
 20
0.0
 30
0.0
  0
VERTEX
  5
828
  8
0
 62
     7
 10
761.12152100000003
 20
761.84506599999986
 30
0.0
  0
VERTEX
  5
829
  8
0
 62
     7
 10
777.12152100000003
 20
761.84506599999986
 30
0.0
  0
VERTEX
  5
82A
  8
0
 62
     7
 10
778.12152100000003
 20
763.84506599999997
 30
0.0
  0
VERTEX
  5
82B
  8
0
 62
     7
 10
779.12152100000003
 20
759.84506599999997
 30
0.0
  0
VERTEX
  5
82C
  8
0
 62
     7
 10
780.12152100000003
 20
761.84506599999986
 30
0.0
  0
VERTEX
  5
82D
  8
0
 62
     7
 10
785.12152100000003
 20
761.84506599999986
 30
0.0
  0
SEQEND
  5
82E
  8
0
 62
     7
  0
POLYLINE
  5
424
  8
0
 62
     7
 66
     1
 10
0.0
 20
0.0
 30
0.0
  0
VERTEX
  5
82F
  8
0
 62
     7
 10
785.12152100000003
 20
781.84507400000007
 30
0.0
  0
VERTEX
  5
830
  8
0
 62
     7
 10
785.12152100000003
 20
765.84507400000007
 30
0.0
  0
VERTEX
  5
831
  8
0
 62
     7
 10
787.12152100000003
 20
764.84507400000007
 30
0.0
  0
VERTEX
  5
832
  8
0
 62
     7
 10
783.12152100000003
 20
763.84507399999995
 30
0.0
  0
VERTEX
  5
833
  8
0
 62
     7
 10
785.12152100000003
 20
762.84507399999995
 30
0.0
  0
VERTEX
  5
834
  8
0
 62
     7
 10
785.12152100000003
 20
761.84506599999986
 30
0.0
  0
SEQEND
  5
835
  8
0
 62
     7
  0
LINE
  5
42C
  8
0
 62
     9
 10
775.62152100000003
 20
811.59546999999986
 30
0.0
 11
775.62152100000003
 21
781.84507400000007
 31
0.0
  0
LINE
  5
42D
  8
0
 62
     9
 10
776.62152100000003
 20
798.34496699999988
 30
0.0
 11
776.62152100000003
 21
781.84507400000007
 31
0.0
  0
LINE
  5
42E
  8
0
 62
     2
 10
777.12152100000003
 20
787.84507399999995
 30
0.0
 11
777.12152100000003
 21
781.84507400000007
 31
0.0
  0
LINE
  5
42F
  8
0
 62
     7
 10
757.69686899999999
 20
752.59506599999986
 30
0.0
 11
759.12152100000003
 21
752.59506599999986
 31
0.0
  0
ARC
  5
430
  8
0
 62
     7
 10
762.12152100000003
 20
748.84506599999986
 30
0.0
 40
5.7999999999999989
 50
139.717895
 51
175.05456100000001
  0
LINE
  5
431
  8
0
 62
     7
 10
756.34310900000003
 20
749.34506599999986
 30
0.0
 11
757.32153300000004
 21
749.34506599999986
 31
0.0
  0
LINE
  5
432
  8
0
 62
     7
 10
757.32153300000004
 20
749.34506599999986
 30
0.0
 11
757.32153300000004
 21
748.34506599999986
 31
0.0
  0
LINE
  5
433
  8
0
 62
     7
 10
756.34310900000003
 20
748.34506599999986
 30
0.0
 11
757.32153300000004
 21
748.34506599999986
 31
0.0
  0
ARC
  5
434
  8
0
 62
     7
 10
762.12152100000003
 20
748.84506599999986
 30
0.0
 40
5.7999999999999989
 50
184.94543999999999
 51
220.282107
  0
LINE
  5
435
  8
0
 62
     7
 10
757.69686899999999
 20
745.09506599999997
 30
0.0
 11
759.12152100000003
 21
745.09506599999997
 31
0.0
  0
LINE
  5
436
  8
0
  6
DASHDOT
 62
     7
 10
755.64660599999991
 20
748.84506599999986
 30
0.0
 11
772.46243300000003
 21
748.84506599999986
 31
0.0
  0
LINE
  5
437
  8
0
  6
DASHSPACE
 62
     2
 10
537.19174199999986
 20
776.84506599999997
 30
0.0
 11
537.19174199999986
 21
766.84506599999986
 31
0.0
  0
LINE
  5
438
  8
0
  6
DASHSPACE
 62
     2
 10
537.19174199999986
 20
776.84506599999997
 30
0.0
 11
579.19297800000004
 21
776.84506599999997
 31
0.0
  0
LINE
  5
439
  8
0
  6
DASHSPACE
 62
     2
 10
537.19174199999986
 20
766.84506599999986
 30
0.0
 11
579.19297800000004
 21
766.84506599999986
 31
0.0
  0
LINE
  5
43A
  8
0
 62
     7
 10
570.18418899999995
 20
801.8388940000001
 30
0.0
 11
575.18418899999995
 21
801.83886299999995
 31
0.0
  0
LINE
  5
43B
  8
0
 62
     7
 10
566.69171100000005
 20
744.34506599999986
 30
0.0
 11
630.18937699999992
 21
744.34506599999986
 31
0.0
  0
LINE
  5
43C
  8
0
 62
     7
 10
566.69171100000005
 20
741.84506599999986
 30
0.0
 11
630.18937699999992
 21
741.84506599999986
 31
0.0
  0
LINE
  5
43D
  8
0
 62
     7
 10
565.19171100000005
 20
740.34506599999986
 30
0.0
 11
565.19171100000005
 21
696.84506999999985
 31
0.0
  0
LINE
  5
43E
  8
0
 62
     7
 10
562.69171100000005
 20
696.84506999999985
 30
0.0
 11
565.19171100000005
 21
696.84506999999985
 31
0.0
  0
ARC
  5
43F
  8
0
 62
     7
 10
566.69171100000005
 20
740.34506599999986
 30
0.0
 40
1.5
 50
90.000005000000002
 51
180.00000099999991
  0
ARC
  5
440
  8
0
 62
     7
 10
566.69171100000005
 20
740.34506599999986
 30
0.0
 40
4.0
 50
90.000005000000002
 51
180.00000099999991
  0
LINE
  5
441
  8
0
 62
     7
 10
686.08062699999994
 20
786.84507399999995
 30
0.0
 11
688.58062699999994
 21
786.84507399999995
 31
0.0
  0
LINE
  5
442
  8
0
 62
     7
 10
688.58062699999994
 20
786.84507399999995
 30
0.0
 11
688.58062699999994
 21
745.84506599999986
 31
0.0
  0
LINE
  5
443
  8
0
 62
     7
 10
686.08062699999994
 20
786.84507399999995
 30
0.0
 11
686.08062699999994
 21
745.84506599999986
 31
0.0
  0
ARC
  5
444
  8
0
 62
     7
 10
684.58062699999994
 20
745.84506599999986
 30
0.0
 40
4.0
 50
270.0
 51
360.00000299999988
  0
ARC
  5
445
  8
0
 62
     7
 10
684.58062699999994
 20
745.84506599999986
 30
0.0
 40
1.5
 50
270.0
 51
360.00000299999988
  0
LINE
  5
446
  8
0
  6
DASHDOT
 62
     7
 10
630.18937699999992
 20
791.00373500000001
 30
0.0
 11
630.18937699999992
 21
727.64804500000002
 31
0.0
  0
LINE
  5
447
  8
0
  6
DASHDOT
 62
     7
 10
634.4446109999999
 20
790.88552500000003
 30
0.0
 11
634.4446109999999
 21
727.64804500000002
 31
0.0
  0
LINE
  5
448
  8
0
  6
DASHDOT
 62
     7
 10
720.49487299999998
 20
794.66796499999998
 30
0.0
 11
720.49487299999998
 21
750.69722400000001
 31
0.0
  0
LINE
  5
449
  8
0
  6
DASHDOT
 62
     7
 10
724.39550799999995
 20
793.95875199999989
 30
0.0
 11
724.39550799999995
 21
750.34261700000002
 31
0.0
  0
LINE
  5
44A
  8
0
 62
     7
 10
724.39550799999995
 20
776.83771899999988
 30
0.0
 11
756.12152100000003
 21
776.83747500000004
 31
0.0
  0
LINE
  5
44B
  8
0
 62
     7
 10
724.39550799999995
 20
766.83771899999999
 30
0.0
 11
756.12152100000003
 21
766.83747500000004
 31
0.0
  0
LINE
  5
44C
  8
0
 62
     7
 10
634.4446109999999
 20
776.83840599999985
 30
0.0
 11
686.08062699999994
 21
776.83801700000004
 31
0.0
  0
LINE
  5
44D
  8
0
 62
     7
 10
634.4446109999999
 20
766.83840599999996
 30
0.0
 11
686.08062699999994
 21
766.83801700000004
 31
0.0
  0
LINE
  5
44E
  8
0
 62
     7
 10
634.4446109999999
 20
744.34506599999986
 30
0.0
 11
684.58062699999994
 21
744.34506599999986
 31
0.0
  0
LINE
  5
44F
  8
0
 62
     7
 10
634.4446109999999
 20
741.84506599999986
 30
0.0
 11
684.58062699999994
 21
741.84506599999986
 31
0.0
  0
LINE
  5
450
  8
0
 62
     7
 10
688.58062699999994
 20
776.83799399999998
 30
0.0
 11
720.49487299999998
 21
776.83774900000003
 31
0.0
  0
LINE
  5
451
  8
0
 62
     7
 10
688.58062699999994
 20
766.83799400000009
 30
0.0
 11
720.49487299999998
 21
766.83774900000003
 31
0.0
  0
LINE
  5
452
  8
0
  6
DASHDOT
 62
     7
 10
553.71339399999999
 20
729.34506599999986
 30
0.0
 11
571.916336
 21
729.34506599999986
 31
0.0
  0
POLYLINE
  5
453
  8
0
 62
     7
 66
     1
 10
0.0
 20
0.0
 30
0.0
  0
VERTEX
  5
836
  8
0
 62
     7
 10
405.05185999999998
 20
618.27868699999999
 30
0.0
  0
VERTEX
  5
837
  8
0
 62
     7
 10
421.05185999999992
 20
618.27868699999999
 30
0.0
  0
VERTEX
  5
838
  8
0
 62
     7
 10
422.05185999999998
 20
620.27868699999988
 30
0.0
  0
VERTEX
  5
839
  8
0
 62
     7
 10
423.05185999999992
 20
616.27868699999988
 30
0.0
  0
VERTEX
  5
83A
  8
0
 62
     7
 10
424.05185999999992
 20
618.27868699999999
 30
0.0
  0
VERTEX
  5
83B
  8
0
 62
     7
 10
424.18302899999998
 20
618.27868699999999
 30
0.0
  0
SEQEND
  5
83C
  8
0
 62
     7
  0
LINE
  5
45B
  8
0
 62
     4
 10
579.19314599999996
 20
790.84493599999996
 30
0.0
 11
579.19314599999996
 21
752.84495199999992
 31
0.0
  0
LINE
  5
45C
  8
0
 62
    52
 10
832.60568199999989
 20
897.96647300000006
 30
0.0
 11
839.99179100000003
 21
896.66410399999984
 31
0.0
  0
LINE
  5
45D
  8
0
 62
    52
 10
832.60568199999989
 20
897.96647300000006
 30
0.0
 11
839.99179100000003
 21
899.2688099999998
 31
0.0
  0
LINE
  5
45E
  8
0
 62
    52
 10
810.62152100000003
 20
897.96647300000006
 30
0.0
 11
803.23550399999999
 21
899.2688099999998
 31
0.0
  0
LINE
  5
45F
  8
0
 62
    52
 10
810.62152100000003
 20
897.96647300000006
 30
0.0
 11
803.23550399999999
 21
896.66410399999984
 31
0.0
  0
LINE
  5
460
  8
0
 62
    52
 10
832.60568199999989
 20
897.96647300000006
 30
0.0
 11
810.62152100000003
 21
897.96647300000006
 31
0.0
  0
LINE
  5
461
  8
0
 62
    52
 10
832.60568199999989
 20
902.96647299999995
 30
0.0
 11
832.60568199999989
 21
743.18471899999997
 31
0.0
  0
LINE
  5
462
  8
0
 62
    52
 10
810.62152100000003
 20
902.96647299999995
 30
0.0
 11
810.62158199999988
 21
782.20588299999986
 31
0.0
  0
LINE
  5
463
  8
0
 62
    52
 10
761.12155199999995
 20
676.05585299999996
 30
0.0
 11
768.50756799999988
 21
674.75349600000004
 31
0.0
  0
LINE
  5
464
  8
0
 62
    52
 10
761.12155199999995
 20
676.05585299999996
 30
0.0
 11
768.50756799999988
 21
677.35821899999996
 31
0.0
  0
LINE
  5
465
  8
0
 62
    52
 10
759.12148999999988
 20
676.05585299999996
 30
0.0
 11
751.73547399999995
 21
677.35821899999996
 31
0.0
  0
LINE
  5
466
  8
0
 62
    52
 10
759.12148999999988
 20
676.05585299999996
 30
0.0
 11
751.73547399999995
 21
674.75349600000004
 31
0.0
  0
LINE
  5
467
  8
0
 62
    52
 10
775.49655199999995
 20
676.05585299999996
 30
0.0
 11
759.12148999999988
 21
676.05585299999996
 31
0.0
  0
LINE
  5
468
  8
0
 62
    52
 10
761.12155199999995
 20
671.05585300000007
 30
0.0
 11
761.12155199999995
 21
707.84544000000005
 31
0.0
  0
LINE
  5
469
  8
0
 62
    52
 10
759.12148999999988
 20
671.05585300000007
 30
0.0
 11
759.12148999999988
 21
696.50888399999985
 31
0.0
  0
LINE
  5
46A
  8
0
 62
    52
 10
520.19175700000005
 20
897.96647300000006
 30
0.0
 11
512.80570199999988
 21
899.2688099999998
 31
0.0
  0
LINE
  5
46B
  8
0
 62
    52
 10
520.19175700000005
 20
897.96647300000006
 30
0.0
 11
512.80570199999988
 21
896.66410399999984
 31
0.0
  0
LINE
  5
46C
  8
0
 62
    52
 10
416.6917719999999
 20
897.96647300000006
 30
0.0
 11
424.0778269999999
 21
896.66410399999984
 31
0.0
  0
LINE
  5
46D
  8
0
 62
    52
 10
416.6917719999999
 20
897.96647300000006
 30
0.0
 11
424.0778269999999
 21
899.2688099999998
 31
0.0
  0
LINE
  5
46E
  8
0
 62
    52
 10
520.19175700000005
 20
897.96647300000006
 30
0.0
 11
416.6917719999999
 21
897.96647300000006
 31
0.0
  0
LINE
  5
46F
  8
0
 62
    52
 10
520.19175700000005
 20
902.96647299999995
 30
0.0
 11
520.19175700000005
 21
812.58903099999986
 31
0.0
  0
LINE
  5
470
  8
0
 62
    52
 10
416.6917719999999
 20
902.96647299999995
 30
0.0
 11
416.6917719999999
 21
892.41224299999999
 31
0.0
  0
LINE
  5
471
  8
0
 62
    52
 10
780.12148999999988
 20
839.12354699999992
 30
0.0
 11
772.73547399999995
 21
840.42593000000011
 31
0.0
  0
LINE
  5
472
  8
0
 62
    52
 10
780.12148999999988
 20
839.12354699999992
 30
0.0
 11
772.73547399999995
 21
837.82119399999988
 31
0.0
  0
LINE
  5
473
  8
0
 62
    52
 10
761.12155199999995
 20
839.12354699999992
 30
0.0
 11
768.50756799999988
 21
837.82119399999988
 31
0.0
  0
LINE
  5
474
  8
0
 62
    52
 10
761.12155199999995
 20
839.12354699999992
 30
0.0
 11
768.50756799999988
 21
840.42593000000011
 31
0.0
  0
LINE
  5
475
  8
0
 62
    52
 10
780.12148999999988
 20
839.12354699999992
 30
0.0
 11
761.12155199999995
 21
839.12354699999992
 31
0.0
  0
LINE
  5
476
  8
0
 62
    52
 10
780.12148999999988
 20
844.12354700000003
 30
0.0
 11
780.12155199999995
 21
774.84506599999986
 31
0.0
  0
LINE
  5
477
  8
0
 62
    52
 10
761.12155199999995
 20
897.96647300000006
 30
0.0
 11
768.50756799999988
 21
896.66410399999984
 31
0.0
  0
LINE
  5
478
  8
0
 62
    52
 10
761.12155199999995
 20
897.96647300000006
 30
0.0
 11
768.50756799999988
 21
899.2688099999998
 31
0.0
  0
LINE
  5
479
  8
0
 62
    52
 10
810.62152100000003
 20
897.96647300000006
 30
0.0
 11
803.23550399999999
 21
899.2688099999998
 31
0.0
  0
LINE
  5
47A
  8
0
 62
    52
 10
810.62152100000003
 20
897.96647300000006
 30
0.0
 11
803.23550399999999
 21
896.66410399999984
 31
0.0
  0
LINE
  5
47B
  8
0
 62
    52
 10
761.12155199999995
 20
897.96647300000006
 30
0.0
 11
810.62152100000003
 21
897.96647300000006
 31
0.0
  0
LINE
  5
47C
  8
0
 62
    52
 10
761.12155199999995
 20
902.96647299999995
 30
0.0
 11
761.12155199999995
 21
878.67837100000008
 31
0.0
  0
LINE
  5
47D
  8
0
 62
    52
 10
810.62152100000003
 20
902.96647299999995
 30
0.0
 11
810.62152100000003
 21
794.34507400000007
 31
0.0
  0
LINE
  5
47E
  8
0
 62
    52
 10
520.19175700000005
 20
897.96647300000006
 30
0.0
 11
527.57781199999999
 21
896.66410399999984
 31
0.0
  0
LINE
  5
47F
  8
0
 62
    52
 10
520.19175700000005
 20
897.96647300000006
 30
0.0
 11
527.57781199999999
 21
899.2688099999998
 31
0.0
  0
LINE
  5
480
  8
0
 62
    52
 10
761.12155199999995
 20
897.96647300000006
 30
0.0
 11
753.73553499999991
 21
899.26885600000014
 31
0.0
  0
LINE
  5
481
  8
0
 62
    52
 10
761.12155199999995
 20
897.96647300000006
 30
0.0
 11
753.73553499999991
 21
896.66413499999987
 31
0.0
  0
LINE
  5
482
  8
0
 62
    52
 10
520.19175700000005
 20
897.96647300000006
 30
0.0
 11
761.12155199999995
 21
897.96647300000006
 31
0.0
  0
LINE
  5
483
  8
0
 62
    52
 10
520.19175700000005
 20
902.96647299999995
 30
0.0
 11
520.19175700000005
 21
812.58903099999986
 31
0.0
  0
LINE
  5
484
  8
0
 62
    52
 10
761.12155199999995
 20
902.96647299999995
 30
0.0
 11
761.12155199999995
 21
878.67837100000008
 31
0.0
  0
LINE
  5
485
  8
0
 62
    52
 10
537.1917269999999
 20
635.32779900000003
 30
0.0
 11
544.57781999999986
 21
634.02544199999988
 31
0.0
  0
LINE
  5
486
  8
0
 62
    52
 10
537.1917269999999
 20
635.32779900000003
 30
0.0
 11
544.57781999999986
 21
636.63016500000003
 31
0.0
  0
LINE
  5
487
  8
0
 62
    52
 10
780.12155199999995
 20
635.32780799999989
 30
0.0
 11
772.73547399999995
 21
636.63017499999989
 31
0.0
  0
LINE
  5
488
  8
0
 62
    52
 10
780.12155199999995
 20
635.32780799999989
 30
0.0
 11
772.73547399999995
 21
634.02545199999997
 31
0.0
  0
LINE
  5
489
  8
0
 62
    52
 10
537.1917269999999
 20
635.32779900000003
 30
0.0
 11
780.12155199999995
 21
635.32780799999989
 31
0.0
  0
LINE
  5
48A
  8
0
 62
    52
 10
537.1917269999999
 20
630.32779900000003
 30
0.0
 11
537.1917269999999
 21
764.45301399999994
 31
0.0
  0
LINE
  5
48B
  8
0
 62
    52
 10
780.12155199999995
 20
630.327808
 30
0.0
 11
780.12155199999995
 21
768.84508099999994
 31
0.0
  0
INSERT
  5
726
  8
0
  2
BLOCK0
 10
-201.6265379999999
 20
650.36490599999979
 30
0.0
  0
INSERT
  5
727
  8
0
  2
BLOCK1
 10
-201.6265379999999
 20
650.36490599999979
 30
0.0
  0
INSERT
  5
728
  8
0
  2
BLOCK2
 10
-201.6265379999999
 20
650.36490599999979
 30
0.0
  0
INSERT
  5
729
  8
0
  2
BLOCK3
 10
-201.6265379999999
 20
650.36490599999979
 30
0.0
  0
INSERT
  5
72A
  8
0
  2
BLOCK4
 10
-201.6265379999999
 20
650.36490599999979
 30
0.0
  0
INSERT
  5
72B
  8
0
  2
BLOCK5
 10
-201.6265379999999
 20
650.36490599999979
 30
0.0
  0
INSERT
  5
72C
  8
0
  2
BLOCK6
 10
-201.6265379999999
 20
650.36490599999979
 30
0.0
  0
INSERT
  5
72D
  8
0
  2
BLOCK7
 10
-201.6265379999999
 20
650.36490599999979
 30
0.0
  0
INSERT
  5
72E
  8
0
  2
BLOCK8
 10
-201.6265379999999
 20
650.36490599999979
 30
0.0
  0
INSERT
  5
72F
  8
0
  2
BLOCK9
 10
-201.6265379999999
 20
650.36490599999979
 30
0.0
  0
INSERT
  5
730
  8
0
  2
BLOCK10
 10
-201.6265379999999
 20
650.36490599999979
 30
0.0
  0
INSERT
  5
731
  8
0
  2
BLOCK11
 10
-201.6265379999999
 20
650.36490599999979
 30
0.0
  0
INSERT
  5
732
  8
0
  2
BLOCK12
 10
189.34114299999999
 20
650.3584179999998
 30
0.0
 50
90.0
  0
INSERT
  5
733
  8
0
  2
BLOCK13
 10
189.34114299999999
 20
650.3584179999998
 30
0.0
 50
90.0
  0
INSERT
  5
734
  8
0
  2
BLOCK14
 10
189.34114299999999
 20
650.3584179999998
 30
0.0
 50
90.0
  0
INSERT
  5
735
  8
0
  2
BLOCK15
 10
189.34114299999999
 20
650.3584179999998
 30
0.0
 50
90.0
  0
INSERT
  5
736
  8
0
  2
BLOCK16
 10
189.34114299999999
 20
650.3584179999998
 30
0.0
 50
90.0
  0
INSERT
  5
737
  8
0
  2
BLOCK17
 10
189.34114299999999
 20
650.3584179999998
 30
0.0
 50
90.0
  0
INSERT
  5
738
  8
0
  2
BLOCK18
 10
189.34114299999999
 20
650.3584179999998
 30
0.0
 50
90.0
  0
INSERT
  5
739
  8
0
  2
BLOCK19
 10
189.34114299999999
 20
650.3584179999998
 30
0.0
 50
90.0
  0
INSERT
  5
73A
  8
0
  2
BLOCK20
 10
189.34114299999999
 20
650.3584179999998
 30
0.0
 50
90.0
  0
INSERT
  5
73B
  8
0
  2
BLOCK21
 10
886.74312599999996
 20
650.35891500000002
 30
0.0
  0
INSERT
  5
73C
  8
0
  2
BLOCK22
 10
886.74312599999996
 20
650.35891500000002
 30
0.0
  0
INSERT
  5
73D
  8
0
  2
BLOCK23
 10
886.74312599999996
 20
650.35891500000002
 30
0.0
  0
INSERT
  5
73E
  8
0
  2
BLOCK24
 10
886.74312599999996
 20
650.35891500000002
 30
0.0
  0
INSERT
  5
73F
  8
0
  2
BLOCK25
 10
886.74312599999996
 20
650.35891500000002
 30
0.0
  0
INSERT
  5
740
  8
0
  2
BLOCK26
 10
886.74312599999996
 20
650.35891500000002
 30
0.0
  0
INSERT
  5
741
  8
0
  2
BLOCK27
 10
886.74312599999996
 20
650.35891500000002
 30
0.0
  0
INSERT
  5
742
  8
0
  2
BLOCK28
 10
886.74312599999996
 20
650.35891500000002
 30
0.0
  0
INSERT
  5
743
  8
0
  2
BLOCK29
 10
886.74312599999996
 20
650.35891500000002
 30
0.0
  0
INSERT
  5
744
  8
0
  2
BLOCK30
 10
886.74312599999996
 20
650.35891500000002
 30
0.0
  0
INSERT
  5
745
  8
0
  2
BLOCK31
 10
886.74312599999996
 20
650.35891500000002
 30
0.0
  0
INSERT
  5
746
  8
0
  2
BLOCK32
 10
886.74312599999996
 20
650.35891500000002
 30
0.0
  0
INSERT
  5
747
  8
0
  2
BLOCK33
 10
886.74312599999996
 20
650.35891500000002
 30
0.0
  0
INSERT
  5
748
  8
0
  2
BLOCK34
 10
886.74312599999996
 20
650.35891500000002
 30
0.0
  0
INSERT
  5
749
  8
0
  2
BLOCK35
 10
-235.337006
 20
422.862616
 30
0.0
 50
180.0
  0
INSERT
  5
74A
  8
0
  2
BLOCK36
 10
-235.337006
 20
422.862616
 30
0.0
 50
180.0
  0
INSERT
  5
74B
  8
0
  2
BLOCK37
 10
-235.337006
 20
422.862616
 30
0.0
 50
180.0
  0
INSERT
  5
74C
  8
0
  2
BLOCK38
 10
-235.337006
 20
422.862616
 30
0.0
 50
180.0
  0
INSERT
  5
74D
  8
0
  2
BLOCK39
 10
-235.337006
 20
422.862616
 30
0.0
 50
180.0
  0
INSERT
  5
74E
  8
0
  2
BLOCK40
 10
-235.337006
 20
422.862616
 30
0.0
 50
180.0
  0
INSERT
  5
74F
  8
0
  2
BLOCK41
 10
-235.337006
 20
422.862616
 30
0.0
 50
180.0
  0
INSERT
  5
750
  8
0
  2
BLOCK42
 10
-201.62643099999991
 20
596.44559500000003
 30
0.0
 50
180.0
  0
INSERT
  5
751
  8
0
  2
BLOCK43
 10
-201.62643099999991
 20
596.44559500000003
 30
0.0
 50
180.0
  0
INSERT
  5
752
  8
0
  2
BLOCK44
 10
-201.62643099999991
 20
596.44559500000003
 30
0.0
 50
180.0
  0
INSERT
  5
753
  8
0
  2
BLOCK45
 10
413.69174199999992
 20
650.35836399999994
 30
0.0
 50
270.0
  0
INSERT
  5
754
  8
0
  2
BLOCK46
 10
413.69174199999992
 20
650.35836399999994
 30
0.0
 50
270.0
  0
INSERT
  5
755
  8
0
  2
BLOCK47
 10
413.69174199999992
 20
650.35836399999994
 30
0.0
 50
270.0
  0
INSERT
  5
756
  8
0
  2
BLOCK48
 10
413.69174199999992
 20
650.35836399999994
 30
0.0
 50
270.0
  0
INSERT
  5
757
  8
0
  2
BLOCK49
 10
413.69174199999992
 20
650.35836399999994
 30
0.0
 50
270.0
  0
INSERT
  5
758
  8
0
  2
BLOCK50
 10
413.69174199999992
 20
650.35836399999994
 30
0.0
 50
270.0
  0
INSERT
  5
759
  8
0
  2
BLOCK51
 10
413.69174199999992
 20
650.35836399999994
 30
0.0
 50
270.0
  0
INSERT
  5
75A
  8
0
  2
BLOCK52
 10
413.69174199999992
 20
650.35836399999994
 30
0.0
 50
270.0
  0
VIEWPORT
  5
48C
 67
     1
  8
0
 62
     0
 10
0.0
 20
0.0
 30
0.0
 40
1000.0
 41
1000.0
 68
     1
 69
     1
1001
ACAD
1000
MVIEW
1002
{
1070
    16
1010
0.0
1020
0.0
1030
0.0
1010
0.0
1020
0.0
1030
1.0
1040
0.0
1040
1000.0
1040
0.0
1040
0.0
1040
50.0
1040
0.0
1040
0.0
1070
     0
1070
   100
1070
     1
1070
     1
1070
     0
1070
     0
1070
     0
1070
     0
1040
0.0
1040
0.0
1040
0.0
1040
1.0
1040
1.0
1040
1.0
1040
1.0
1070
     0
1002
{
1002
}
1002
}
  0
ENDSEC
  0
EOF
