  0
SECTION
  2
HEADER
  9
$ACADVER
  1
AC1009
  9
$DWGCODEPAGE
  3
iso8859-1
  9
$INSBASE
 10
0.0
 20
0.0
 30
0.0
  9
$EXTMIN
 10
1.0E20
 20
1.0E20
  9
$EXTMAX
 10
-1.0E20
 20
-1.0E20
  9
$LIMMIN
 10
0.0
 20
0.0
  9
$LIMMAX
 10
12.0
 20
9.0
  9
$ORTHOMODE
 70
     0
  9
$REGENMODE
 70
     1
  9
$FILLMODE
 70
     1
  9
$QTEXTMODE
 70
     0
  9
$MIRRTEXT
 70
     1
  9
$DRAGMODE
 70
     2
  9
$LTSCALE
 40
15.0
  9
$OSMODE
 70
     0
  9
$ATTMODE
 70
     1
  9
$TEXTSIZE
 40
0.2
  9
$TRACEWID
 40
0.05
  9
$TEXTSTYLE
  7
STANDARD
  9
$CLAYER
  8
0
  9
$CELTYPE
  6
DASHED
  9
$CECOLOR
 62
   256
  9
$DIMSCALE
 40
1.0
  9
$DIMASZ
 40
0.18
  9
$DIMEXO
 40
0.0625
  9
$DIMDLI
 40
0.38
  9
$DIMRND
 40
0.0
  9
$DIMDLE
 40
0.0
  9
$DIMEXE
 40
0.18
  9
$DIMTP
 40
0.0
  9
$DIMTM
 40
0.0
  9
$DIMTXT
 40
0.18
  9
$DIMCEN
 40
0.09
  9
$DIMTSZ
 40
0.0
  9
$DIMTOL
 70
     0
  9
$DIMLIM
 70
     0
  9
$DIMTIH
 70
     1
  9
$DIMTOH
 70
     1
  9
$DIMSE1
 70
     0
  9
$DIMSE2
 70
     0
  9
$DIMTAD
 70
     0
  9
$DIMZIN
 70
     0
  9
$DIMBLK
  1

  9
$DIMASO
 70
     1
  9
$DIMSHO
 70
     1
  9
$DIMPOST
  1

  9
$DIMAPOST
  1

  9
$DIMALT
 70
     0
  9
$DIMALTD
 70
     2
  9
$DIMALTF
 40
25.4
  9
$DIMLFAC
 40
1.0
  9
$DIMTOFL
 70
     0
  9
$DIMTVP
 40
0.0
  9
$DIMTIX
 70
     0
  9
$DIMSOXD
 70
     0
  9
$DIMSAH
 70
     0
  9
$DIMBLK1
  1

  9
$DIMBLK2
  1

  9
$DIMSTYLE
  2
STANDARD
  9
$DIMCLRD
 70
     0
  9
$DIMCLRE
 70
     0
  9
$DIMCLRT
 70
     0
  9
$DIMTFAC
 40
1.0
  9
$DIMGAP
 40
0.09
  9
$LUNITS
 70
     2
  9
$LUPREC
 70
     4
  9
$AXISMODE
 70
     0
  9
$AXISUNIT
 10
0.0
 20
0.0
  9
$SKETCHINC
 40
0.1
  9
$FILLETRAD
 40
0.0
  9
$AUNITS
 70
     0
  9
$AUPREC
 70
     0
  9
$MENU
  1
acad
  9
$ELEVATION
 40
0.0
  9
$PELEVATION
 40
0.0
  9
$THICKNESS
 40
0.0
  9
$LIMCHECK
 70
     0
  9
$BLIPMODE
 70
     1
  9
$CHAMFERA
 40
0.0
  9
$CHAMFERB
 40
0.0
  9
$SKPOLY
 70
     0
  9
$TDCREATE
 40
0.000000000
  9
$TDUPDATE
 40
0.000000000
  9
$TDINDWG
 40
0.0
  9
$TDUSRTIMER
 40
0.0
  9
$USRTIMER
 70
     1
  9
$ANGBASE
 50
0.0
  9
$ANGDIR
 70
     0
  9
$PDMODE
 70
     0
  9
$PDSIZE
 40
0.0
  9
$PLINEWID
 40
0.0
  9
$COORDS
 70
     1
  9
$SPLFRAME
 70
     0
  9
$SPLINETYPE
 70
     6
  9
$SPLINESEGS
 70
     8
  9
$ATTDIA
 70
     0
  9
$ATTREQ
 70
     1
  9
$HANDLING
 70
     1
  9
$HANDSEED
  5
   765
  9
$SURFTAB1
 70
     6
  9
$SURFTAB2
 70
     6
  9
$SURFTYPE
 70
     6
  9
$SURFU
 70
     6
  9
$SURFV
 70
     6
  9
$UCSNAME
  2

  9
$UCSORG
 10
0.0
 20
0.0
 30
0.0
  9
$UCSXDIR
 10
1.0
 20
0.0
 30
0.0
  9
$UCSYDIR
 10
0.0
 20
1.0
 30
0.0
  9
$PUCSNAME
  2

  9
$PUCSORG
 10
0.0
 20
0.0
 30
0.0
  9
$PUCSXDIR
 10
1.0
 20
0.0
 30
0.0
  9
$PUCSYDIR
 10
0.0
 20
1.0
 30
0.0
  9
$USERI1
 70
     0
  9
$USERI2
 70
     0
  9
$USERI3
 70
     0
  9
$USERI4
 70
     0
  9
$USERI5
 70
     0
  9
$USERR1
 40
0.0
  9
$USERR2
 40
0.0
  9
$USERR3
 40
0.0
  9
$USERR4
 40
0.0
  9
$USERR5
 40
0.0
  9
$WORLDVIEW
 70
     1
  9
$SHADEDGE
 70
     3
  9
$SHADEDIF
 70
    70
  9
$TILEMODE
 70
     1
  9
$MAXACTVP
 70
    16
  9
$PINSBASE
 10
0.0
 20
0.0
 30
0.0
  9
$PLIMCHECK
 70
     0
  9
$PEXTMIN
 10
1.0E20
 20
1.0E20
 30
1.0E20
  9
$PEXTMAX
 10
-1.0E20
 20
-1.0E20
 30
-1.0E20
  9
$PLIMMIN
 10
0.0
 20
0.0
  9
$PLIMMAX
 10
12.0
 20
9.0
  9
$UNITMODE
 70
     0
  9
$VISRETAIN
 70
     0
  0
ENDSEC
  0
SECTION
  2
TABLES
  0
TABLE
  2
VPORT
 70
     1
  0
VPORT
  2
*ACTIVE
 70
     0
 10
0.0
 20
0.0
 11
1.0
 21
1.0
 12
6.801242
 22
4.5
 13
0.0
 23
0.0
 14
1.0
 24
1.0
 15
0.0
 25
0.0
 16
0.0
 26
0.0
 36
1.0
 17
0.0
 27
0.0
 37
0.0
 40
9.0
 41
1.511387
 42
50.0
 43
0.0
 44
0.0
 50
0.0
 51
0.0
 71
     0
 72
   100
 73
     1
 74
     1
 75
     0
 76
     0
 77
     0
 78
     0
  0
ENDTAB
  0
TABLE
  2
LTYPE
 70
    41
  0
LTYPE
  2
BYBLOCK
 70
     0
  3

 72
    65
 73
     0
 40
0.0
  0
LTYPE
  2
BYLAYER
 70
     0
  3

 72
    65
 73
     0
 40
0.0
  0
LTYPE
  2
CONTINUOUS
 70
     0
  3
Solid line
 72
    65
 73
     0
 40
0.0
  0
LTYPE
  2
BORDER
 70
    64
  3
__ __ . __ __ . __ __ . __ __ . __ __ . __ __ .
 72
    65
 73
     6
 40
1.75
 49
0.5
 49
-0.25
 49
0.5
 49
-0.25
 49
0.0
 49
-0.25
  0
LTYPE
  2
BORDER2
 70
    64
  3
__.__.__.__.__.__.__.__.__.__.__.__.__.__.__.__
 72
    65
 73
     6
 40
0.875
 49
0.25
 49
-0.125
 49
0.25
 49
-0.125
 49
0.0
 49
-0.125
  0
LTYPE
  2
BORDERX2
 70
    64
  3
____  ____  .  ____  ____  .  ____  ____  .  __
 72
    65
 73
     6
 40
3.5
 49
1.0
 49
-0.5
 49
1.0
 49
-0.5
 49
0.0
 49
-0.5
  0
LTYPE
  2
CENTER
 70
    64
  3
____ _ ____ _ ____ _ ____ _ ____ _ ____ _ ____
 72
    65
 73
     4
 40
2.0
 49
1.25
 49
-0.25
 49
0.25
 49
-0.25
  0
LTYPE
  2
CENTER2
 70
    64
  3
___ _ ___ _ ___ _ ___ _ ___ _ ___ _ ___ _ ___ _
 72
    65
 73
     4
 40
1.125
 49
0.75
 49
-0.125
 49
0.125
 49
-0.125
  0
LTYPE
  2
CENTERX2
 70
    64
  3
________  __  ________  __  ________  __  _____
 72
    65
 73
     4
 40
4.0
 49
2.5
 49
-0.5
 49
0.5
 49
-0.5
  0
LTYPE
  2
DASHDOT
 70
    64
  3
__ . __ . __ . __ . __ . __ . __ . __ . __ . __
 72
    65
 73
     4
 40
1.0
 49
0.5
 49
-0.25
 49
0.0
 49
-0.25
  0
LTYPE
  2
DASHDOT2
 70
    64
  3
_._._._._._._._._._._._._._._._._._._._._._._._
 72
    65
 73
     4
 40
0.5
 49
0.25
 49
-0.125
 49
0.0
 49
-0.125
  0
LTYPE
  2
DASHDOTX2
 70
    64
  3
____  .  ____  .  ____  .  ____  .  ____  .  __
 72
    65
 73
     4
 40
2.0
 49
1.0
 49
-0.5
 49
0.0
 49
-0.5
  0
LTYPE
  2
DASHED
 70
    64
  3
__ __ __ __ __ __ __ __ __ __ __ __ __ __ __ __
 72
    65
 73
     2
 40
0.75
 49
0.5
 49
-0.25
  0
LTYPE
  2
DASHED2
 70
    64
  3
_ _ _ _ _ _ _ _ _ _ _ _ _ _ _ _ _ _ _ _ _ _ _ _
 72
    65
 73
     2
 40
0.375
 49
0.25
 49
-0.125
  0
LTYPE
  2
DASHEDX2
 70
    64
  3
____  ____  ____  ____  ____  ____  ____  ____
 72
    65
 73
     2
 40
1.5
 49
1.0
 49
-0.5
  0
LTYPE
  2
DIVIDE
 70
    64
  3
____ . . ____ . . ____ . . ____ . . ____ . . __
 72
    65
 73
     6
 40
1.25
 49
0.5
 49
-0.25
 49
0.0
 49
-0.25
 49
0.0
 49
-0.25
  0
LTYPE
  2
DIVIDE2
 70
    64
  3
__..__..__..__..__..__..__..__..__..__..__..__.
 72
    65
 73
     6
 40
0.625
 49
0.25
 49
-0.125
 49
0.0
 49
-0.125
 49
0.0
 49
-0.125
  0
LTYPE
  2
DIVIDEX2
 70
    64
  3
________  .  .  ________  .  .  ________  .  .
 72
    65
 73
     6
 40
2.5
 49
1.0
 49
-0.5
 49
0.0
 49
-0.5
 49
0.0
 49
-0.5
  0
LTYPE
  2
DOT
 70
    64
  3
. . . . . . . . . . . . . . . . . . . . . . . .
 72
    65
 73
     2
 40
0.25
 49
0.0
 49
-0.25
  0
LTYPE
  2
DOT2
 70
    64
  3
...............................................
 72
    65
 73
     2
 40
0.125
 49
0.0
 49
-0.125
  0
LTYPE
  2
DOTX2
 70
    64
  3
.  .  .  .  .  .  .  .  .  .  .  .  .  .  .  .
 72
    65
 73
     2
 40
0.5
 49
0.0
 49
-0.5
  0
LTYPE
  2
HIDDEN
 70
    64
  3
__ __ __ __ __ __ __ __ __ __ __ __ __ __ __ __
 72
    65
 73
     2
 40
0.375
 49
0.25
 49
-0.125
  0
LTYPE
  2
HIDDEN2
 70
    64
  3
_ _ _ _ _ _ _ _ _ _ _ _ _ _ _ _ _ _ _ _ _ _ _ _
 72
    65
 73
     2
 40
0.1875
 49
0.125
 49
-0.0625
  0
LTYPE
  2
HIDDENX2
 70
    64
  3
____ ____ ____ ____ ____ ____ ____ ____ ____ __
 72
    65
 73
     2
 40
0.75
 49
0.5
 49
-0.25
  0
LTYPE
  2
PHANTOM
 70
    64
  3
______  __  __  ______  __  __  ______  __  __
 72
    65
 73
     6
 40
2.5
 49
1.25
 49
-0.25
 49
0.25
 49
-0.25
 49
0.25
 49
-0.25
  0
LTYPE
  2
PHANTOM2
 70
    64
  3
___ _ _ ___ _ _ ___ _ _ ___ _ _ ___ _ _ ___ _ _
 72
    65
 73
     6
 40
1.25
 49
0.625
 49
-0.125
 49
0.125
 49
-0.125
 49
0.125
 49
-0.125
  0
LTYPE
  2
PHANTOMX2
 70
    64
  3
____________    ____    ____    ____________
 72
    65
 73
     6
 40
5.0
 49
2.5
 49
-0.5
 49
0.5
 49
-0.5
 49
0.5
 49
-0.5
  0
LTYPE
  2
ACAD_ISO02W100
 70
    64
  3
__ __ __ __ __ __ __ __ __ __ __ __ __ __ __ __
 72
    65
 73
     2
 40
15.0
 49
12.0
 49
-3.0
  0
LTYPE
  2
ACAD_ISO03W100
 70
    64
  3
__    __    __    __    __    __    __    __
 72
    65
 73
     2
 40
30.0
 49
12.0
 49
-18.0
  0
LTYPE
  2
ACAD_ISO04W100
 70
    64
  3
____ . ____ . ____ . ____ . ____ . ____ . ____
 72
    65
 73
     4
 40
30.5
 49
24.0
 49
-3.0
 49
0.5
 49
-3.0
  0
LTYPE
  2
ACAD_ISO05W100
 70
    64
  3
____ .. ____ .. ____ .. ____ .. ____ .. ____ ..
 72
    65
 73
     6
 40
34.0
 49
24.0
 49
-3.0
 49
0.5
 49
-3.0
 49
0.5
 49
-3.0
  0
LTYPE
  2
ACAD_ISO06W100
 70
    64
  3
____ ... ____ ... ____ ... ____ ... ____ ... __
 72
    65
 73
     8
 40
37.5
 49
24.0
 49
-3.0
 49
0.5
 49
-3.0
 49
0.5
 49
-3.0
 49
0.5
 49
-3.0
  0
LTYPE
  2
ACAD_ISO07W100
 70
    64
  3
. . . . . . . . . . . . . . . . . . . . . . . .
 72
    65
 73
     2
 40
3.5
 49
0.5
 49
-3.0
  0
LTYPE
  2
ACAD_ISO08W100
 70
    64
  3
____ __ ____ __ ____ __ ____ ____ __ __ ____ __
 72
    65
 73
     4
 40
36.0
 49
24.0
 49
-3.0
 49
6.0
 49
-3.0
  0
LTYPE
  2
ACAD_ISO09W100
 70
    64
  3
____ __ __ ____ __ __ ____ __ __ ____ __ __ ___
 72
    65
 73
     6
 40
45.0
 49
24.0
 49
-3.0
 49
6.0
 49
-3.0
 49
6.0
 49
-3.0
  0
LTYPE
  2
ACAD_ISO10W100
 70
    64
  3
__ . __ . __ . __ . __ . __ . __ . __ . __ . __
 72
    65
 73
     4
 40
18.5
 49
12.0
 49
-3.0
 49
0.5
 49
-3.0
  0
LTYPE
  2
ACAD_ISO11W100
 70
    64
  3
__ __ . __ __ . __ __ . __ __ . __ __ . __ __ .
 72
    65
 73
     6
 40
33.5
 49
12.0
 49
-3.0
 49
12.0
 49
-3.0
 49
0.5
 49
-3.0
  0
LTYPE
  2
ACAD_ISO12W100
 70
    64
  3
__ . . __ . . __ . . __ . . __ . . __ . . __ .
 72
    65
 73
     6
 40
22.0
 49
12.0
 49
-3.0
 49
0.5
 49
-3.0
 49
0.5
 49
-3.0
  0
LTYPE
  2
ACAD_ISO13W100
 70
    64
  3
__ __ . . __ __ . . __ __ . . __ __ . . __ __ .
 72
    65
 73
     8
 40
37.0
 49
12.0
 49
-3.0
 49
12.0
 49
-3.0
 49
0.5
 49
-3.0
 49
0.5
 49
-3.0
  0
LTYPE
  2
ACAD_ISO14W100
 70
    64
  3
__ . . . __ . . . __ . . . __ . . . __ . . . __
 72
    65
 73
     8
 40
25.5
 49
12.0
 49
-3.0
 49
0.5
 49
-3.0
 49
0.5
 49
-3.0
 49
0.5
 49
-3.0
  0
LTYPE
  2
ACAD_ISO15W100
 70
    64
  3
__ __ . . . __ __ . . . __ __ . . . __ __ . . .
 72
    65
 73
    10
 40
40.5
 49
12.0
 49
-3.0
 49
12.0
 49
-3.0
 49
0.5
 49
-3.0
 49
0.5
 49
-3.0
 49
0.5
 49
-3.0
  0
ENDTAB
  0
TABLE
  2
STYLE
 70
     4
  0
STYLE
  2
STANDARD
 70
    64
 40
0.0
 41
1.0
 50
0.0
 71
     0
 42
0.2
  3
txt
  4

  0
STYLE
  2
TOLERANCE
 70
    64
 40
0.0
 41
1.0
 50
0.0
 71
     0
 42
0.2
  3
../igesfont/iges1003.shx
  4

  0
STYLE
  2
ROMANS
 70
    64
 40
0.0
 41
1.0
 50
0.0
 71
     0
 42
0.2
  3
romans.shx
  4

  0
STYLE
  2
ROMANC
 70
    64
 40
0.0
 41
1.0
 50
0.0
 71
     0
 42
0.2
  3
romanc.shx
  4

  0
ENDTAB
  0
TABLE
  2
DIMSTYLE
 70
     2
  0
DIMSTYLE
  2
UNNAMED
 70
     0
  3

  4

  5

  6

  7

 40
1.0
 41
0.18
 42
0.0625
 43
0.38
 44
0.18
 45
0.0
 46
0.0
 47
0.0
 48
0.0
140
0.18
141
0.09
142
0.0
143
25.4
144
1.0
145
0.0
146
1.0
147
0.09
 71
     0
 72
     0
 73
     1
 74
     1
 75
     0
 76
     0
 77
     0
 78
     0
170
     0
171
     2
172
     0
173
     0
174
     0
175
     0
176
     0
177
     0
178
     0
  0
DIMSTYLE
  2
STANDARD
 70
     0
  3

  4

  5

  6

  7

 40
1.0
 41
0.18
 42
0.0625
 43
0.38
 44
0.18
 45
0.0
 46
0.0
 47
0.0
 48
0.0
140
0.18
141
0.09
142
0.0
143
25.4
144
1.0
145
0.0
146
1.0
147
0.09
 71
     0
 72
     0
 73
     1
 74
     1
 75
     0
 76
     0
 77
     0
 78
     0
170
     0
171
     2
172
     0
173
     0
174
     0
175
     0
176
     0
177
     0
178
     0
  0
ENDTAB
  0
TABLE
  2
LAYER
 70
     1
  0
LAYER
  2
0
 70
     0
 62
     7
  6
CONTINUOUS
  0
ENDTAB
  0
ENDSEC
  0
SECTION
  2
BLOCKS
  0
BLOCK
  5
     B
  8
0
  6
CONTINUOUS
 62
     2
  2
*HATCH179
 70
    65
 10
0.0
 20
0.0
 30
0.0
  3
*HATCH179
  0
LINE
  5
     C
  8
0
  6
CONTINUOUS
 62
    52
 10
49.0999908447266
 20
55.4639472961426
 30
0.0
 11
46.0999908447266
 21
52.4639472961426
 31
0.0
  0
LINE
  5
     D
  8
0
  6
CONTINUOUS
 62
    52
 10
49.0999908447266
 20
51.2213096618652
 30
0.0
 11
46.0999908447266
 21
48.2213096618652
 31
0.0
  0
LINE
  5
     E
  8
0
  6
CONTINUOUS
 62
    52
 10
49.0999908447266
 20
46.9786720275879
 30
0.0
 11
46.0999908447266
 21
43.9786720275879
 31
0.0
  0
LINE
  5
     F
  8
0
  6
CONTINUOUS
 62
    52
 10
49.0999908447266
 20
42.7360343933105
 30
0.0
 11
46.0999908447266
 21
39.7360343933105
 31
0.0
  0
LINE
  5
    10
  8
0
  6
CONTINUOUS
 62
    52
 10
49.0999908447266
 20
38.4933967590332
 30
0.0
 11
46.0999908447266
 21
35.4933967590332
 31
0.0
  0
LINE
  5
    11
  8
0
  6
CONTINUOUS
 62
    52
 10
46.0278282165527
 20
33.2999038696289
 30
0.0
 11
44.5999908447266
 21
31.8720664978027
 31
0.0
  0
LINE
  5
    12
  8
0
  6
CONTINUOUS
 62
    52
 10
49.0999908447266
 20
32.1294250488281
 30
0.0
 11
48.7704696655273
 21
31.7999038696289
 31
0.0
  0
ENDBLK
  5
    13
  8
0
  6
CONTINUOUS
 62
     2
  0
BLOCK
  5
    14
  8
0
  6
CONTINUOUS
 62
     2
  2
*HATCH180
 70
    65
 10
0.0
 20
0.0
 30
0.0
  3
*HATCH180
  0
LINE
  5
    15
  8
0
  6
CONTINUOUS
 62
    52
 10
48.4395141601563
 20
-15.2000961303711
 30
0.0
 11
46.0999908447266
 21
-17.5396213531494
 31
0.0
  0
LINE
  5
    16
  8
0
  6
CONTINUOUS
 62
    52
 10
49.0999908447266
 20
-18.7822608947754
 30
0.0
 11
46.0999908447266
 21
-21.7822608947754
 31
0.0
  0
LINE
  5
    17
  8
0
  6
CONTINUOUS
 62
    52
 10
49.0999908447266
 20
-23.02490234375
 30
0.0
 11
46.0999908447266
 21
-26.02490234375
 31
0.0
  0
LINE
  5
    18
  8
0
  6
CONTINUOUS
 62
    52
 10
49.0999908447266
 20
-27.2675437927246
 30
0.0
 11
46.0999908447266
 21
-30.2675437927246
 31
0.0
  0
LINE
  5
    19
  8
0
  6
CONTINUOUS
 62
    52
 10
49.0999908447266
 20
-31.5101852416992
 30
0.0
 11
46.0999908447266
 21
-34.510181427002
 31
0.0
  0
LINE
  5
    1A
  8
0
  6
CONTINUOUS
 62
    52
 10
49.0999908447266
 20
-35.7528228759766
 30
0.0
 11
46.0999908447266
 21
-38.7528190612793
 31
0.0
  0
ENDBLK
  5
    1B
  8
0
  6
CONTINUOUS
 62
     2
  0
BLOCK
  5
    1C
  8
0
  6
CONTINUOUS
 62
     2
  2
*HATCH181
 70
    65
 10
0.0
 20
0.0
 30
0.0
  3
*HATCH181
  0
LINE
  5
    1D
  8
0
  6
CONTINUOUS
 62
     7
 10
-33.3453636169434
 20
154.603576660156
 30
0.0
 11
-35.3332328796387
 21
152.61572265625
 31
0.0
  0
LINE
  5
    1E
  8
0
  6
CONTINUOUS
 62
     7
 10
-32.4968376159668
 20
154.603576660156
 30
0.0
 11
-35.5495491027832
 21
151.550872802734
 31
0.0
  0
LINE
  5
    1F
  8
0
  6
CONTINUOUS
 62
     7
 10
-31.6647300720215
 20
154.587158203125
 30
0.0
 11
-35.3414573669434
 21
150.910430908203
 31
0.0
  0
LINE
  5
    20
  8
0
  6
CONTINUOUS
 62
     7
 10
-31.173267364502
 20
154.230102539063
 30
0.0
 11
-35.1333656311035
 21
150.269989013672
 31
0.0
  0
LINE
  5
    21
  8
0
  6
CONTINUOUS
 62
     7
 10
-30.6818084716797
 20
153.873031616211
 30
0.0
 11
-34.7670974731445
 21
149.787750244141
 31
0.0
  0
LINE
  5
    22
  8
0
  6
CONTINUOUS
 62
     7
 10
-30.1903457641602
 20
153.515975952148
 30
0.0
 11
-34.275634765625
 21
149.430694580078
 31
0.0
  0
LINE
  5
    23
  8
0
  6
CONTINUOUS
 62
     7
 10
-29.9805202484131
 20
152.877258300781
 30
0.0
 11
-33.7841758728027
 21
149.073608398438
 31
0.0
  0
LINE
  5
    24
  8
0
  6
CONTINUOUS
 62
     7
 10
-29.7724285125732
 20
152.23681640625
 30
0.0
 11
-33.1120071411133
 21
148.897247314453
 31
0.0
  0
LINE
  5
    25
  8
0
  6
CONTINUOUS
 62
     7
 10
-29.7126083374023
 20
151.448120117188
 30
0.0
 11
-32.2634811401367
 21
148.897247314453
 31
0.0
  0
LINE
  5
    26
  8
0
  6
CONTINUOUS
 62
     7
 10
-30.1210098266602
 20
150.191192626953
 30
0.0
 11
-30.6912631988525
 21
149.62092590332
 31
0.0
  0
ENDBLK
  5
    27
  8
0
  6
CONTINUOUS
 62
     2
  0
BLOCK
  5
    28
  8
0
  6
CONTINUOUS
 62
     2
  2
*HATCH182
 70
    65
 10
0.0
 20
0.0
 30
0.0
  3
*HATCH182
  0
LINE
  5
    29
  8
0
  6
CONTINUOUS
 62
     7
 10
50.9122161865234
 20
152.311309814453
 30
0.0
 11
48.9001770019531
 21
150.299270629883
 31
0.0
  0
LINE
  5
    2A
  8
0
  6
CONTINUOUS
 62
     7
 10
51.7607421875
 20
152.311309814453
 30
0.0
 11
48.6957130432129
 21
149.246276855469
 31
0.0
  0
LINE
  5
    2B
  8
0
  6
CONTINUOUS
 62
     7
 10
52.5859832763672
 20
152.288009643555
 30
0.0
 11
48.9038047790527
 21
148.605834960938
 31
0.0
  0
LINE
  5
    2C
  8
0
  6
CONTINUOUS
 62
     7
 10
53.0774459838867
 20
151.930953979492
 30
0.0
 11
49.1118965148926
 21
147.965393066406
 31
0.0
  0
LINE
  5
    2D
  8
0
  6
CONTINUOUS
 62
     7
 10
53.568904876709
 20
151.573883056641
 30
0.0
 11
49.4836158752441
 21
147.48860168457
 31
0.0
  0
LINE
  5
    2E
  8
0
  6
CONTINUOUS
 62
     7
 10
54.0566520690918
 20
151.213104248047
 30
0.0
 11
49.9750785827637
 21
147.131530761719
 31
0.0
  0
LINE
  5
    2F
  8
0
  6
CONTINUOUS
 62
     7
 10
54.2647438049316
 20
150.572662353516
 30
0.0
 11
50.4665412902832
 21
146.774475097656
 31
0.0
  0
LINE
  5
    30
  8
0
  6
CONTINUOUS
 62
     7
 10
54.4728355407715
 20
149.932220458984
 30
0.0
 11
51.1455726623535
 21
146.604965209961
 31
0.0
  0
LINE
  5
    31
  8
0
  6
CONTINUOUS
 62
     7
 10
54.5208015441895
 20
149.13166809082
 30
0.0
 11
51.9941024780274
 21
146.604965209961
 31
0.0
  0
LINE
  5
    32
  8
0
  6
CONTINUOUS
 62
     7
 10
54.1124000549316
 20
147.874740600586
 30
0.0
 11
53.6096687316895
 21
147.372009277344
 31
0.0
  0
ENDBLK
  5
    33
  8
0
  6
CONTINUOUS
 62
     2
  0
BLOCK
  5
    34
  8
0
  6
CONTINUOUS
 62
     3
  2
*UDIM655
 70
    65
 10
0.0
 20
0.0
 30
0.0
  3
*UDIM655
  0
TEXT
  5
    35
  8
0
  6
CONTINUOUS
 62
     3
 10
29.9783738587744
 20
2.26101469695756
 30
0.0
 40
3.00000002980232
  1
102
 50
90.0
 41
0.933333333333333
 72
     1
 11
28.4783738438683
 21
6.16101473569869
 31
0.0
 73
     2
  0
LINE
  5
    36
  8
0
  6
CONTINUOUS
 62
     3
 10
64.2776043143116
 20
-19.063985824585
 30
0.0
 11
28.9783738587695
 21
-19.063985824585
 31
0.0
  0
LINE
  5
    37
  8
0
  6
CONTINUOUS
 62
     3
 10
64.2776043143116
 20
31.936014175415
 30
0.0
 11
28.9783738587695
 21
31.936014175415
 31
0.0
  0
LINE
  5
    38
  8
0
  6
CONTINUOUS
 62
     3
 10
30.9783738587695
 20
-19.063985824585
 30
0.0
 11
30.9783738587695
 21
31.936014175415
 31
0.0
  0
LINE
  5
    39
  8
0
  6
CONTINUOUS
 62
     3
 10
30.4574294288178
 20
-16.109562547378
 30
0.0
 11
30.9783738587695
 21
-19.063985824585
 31
0.0
  0
LINE
  5
    3A
  8
0
  6
CONTINUOUS
 62
     3
 10
30.9783738587695
 20
-19.063985824585
 30
0.0
 11
31.4993182887212
 21
-16.109562547378
 31
0.0
  0
LINE
  5
    3B
  8
0
  6
CONTINUOUS
 62
     3
 10
31.4993182887212
 20
28.9815908982081
 30
0.0
 11
30.9783738587695
 21
31.936014175415
 31
0.0
  0
LINE
  5
    3C
  8
0
  6
CONTINUOUS
 62
     3
 10
30.9783738587695
 20
31.936014175415
 30
0.0
 11
30.4574294288178
 21
28.9815908982081
 31
0.0
  0
ENDBLK
  5
    3D
  8
0
  6
CONTINUOUS
 62
     3
  0
BLOCK
  5
    3E
  8
0
  6
CONTINUOUS
 62
     3
  2
*UDIM656
 70
    65
 10
0.0
 20
0.0
 30
0.0
  3
*UDIM656
  0
TEXT
  5
    3F
  8
0
  6
CONTINUOUS
 62
     3
 10
182.924435643189
 20
2.26102232635209
 30
0.0
 40
3.00000002980232
  1
124
 50
90.0
 41
0.933333333333333
 72
     1
 11
181.424435628283
 21
6.16102236509322
 31
0.0
 73
     2
  0
LINE
  5
    40
  8
0
  6
CONTINUOUS
 62
     3
 10
147.675872921944
 20
-24.5639820098877
 30
0.0
 11
185.924435643184
 21
-24.5639820098877
 31
0.0
  0
LINE
  5
    41
  8
0
  6
CONTINUOUS
 62
     3
 10
147.675872921944
 20
37.4360256195068
 30
0.0
 11
185.924435643184
 21
37.4360256195068
 31
0.0
  0
LINE
  5
    42
  8
0
  6
CONTINUOUS
 62
     3
 10
183.924435643184
 20
-24.5639820098877
 30
0.0
 11
183.924435643184
 21
37.4360256195068
 31
0.0
  0
LINE
  5
    43
  8
0
  6
CONTINUOUS
 62
     3
 10
183.403491213232
 20
-21.6095587326807
 30
0.0
 11
183.924435643184
 21
-24.5639820098877
 31
0.0
  0
LINE
  5
    44
  8
0
  6
CONTINUOUS
 62
     3
 10
183.924435643184
 20
-24.5639820098877
 30
0.0
 11
184.445380073136
 21
-21.6095587326807
 31
0.0
  0
LINE
  5
    45
  8
0
  6
CONTINUOUS
 62
     3
 10
184.445380073136
 20
34.4816023422999
 30
0.0
 11
183.924435643184
 21
37.4360256195068
 31
0.0
  0
LINE
  5
    46
  8
0
  6
CONTINUOUS
 62
     3
 10
183.924435643184
 20
37.4360256195068
 30
0.0
 11
183.403491213232
 21
34.4816023422999
 31
0.0
  0
ENDBLK
  5
    47
  8
0
  6
CONTINUOUS
 62
     3
  0
BLOCK
  5
    48
  8
0
  6
CONTINUOUS
 62
     3
  2
*UDIM657
 70
    65
 10
0.0
 20
0.0
 30
0.0
  3
*UDIM657
  0
TEXT
  5
    49
  8
0
  6
CONTINUOUS
 62
     3
 10
99.4008795370658
 20
-42.6822032928467
 30
0.0
 40
3.00000002980232
  1
40
 41
0.933333333333333
 72
     1
 11
101.900879561901
 21
-41.1822032779455
 31
0.0
 73
     2
  0
LINE
  5
    4A
  8
0
  6
CONTINUOUS
 62
     3
 10
92.1758804321289
 20
-27.9109297903315
 30
0.0
 11
92.1758804321289
 21
-45.6822032928467
 31
0.0
  0
LINE
  5
    4B
  8
0
  6
CONTINUOUS
 62
     3
 10
112.175880432129
 20
-34.4271512804013
 30
0.0
 11
112.175880432129
 21
-45.6822032928467
 31
0.0
  0
LINE
  5
    4C
  8
0
  6
CONTINUOUS
 62
     3
 10
92.1758804321289
 20
-43.6822032928467
 30
0.0
 11
112.175880432129
 21
-43.6822032928467
 31
0.0
  0
LINE
  5
    4D
  8
0
  6
CONTINUOUS
 62
     3
 10
95.1303037093359
 20
-43.161258862895
 30
0.0
 11
92.1758804321289
 21
-43.6822032928467
 31
0.0
  0
LINE
  5
    4E
  8
0
  6
CONTINUOUS
 62
     3
 10
92.1758804321289
 20
-43.6822032928467
 30
0.0
 11
95.1303037093359
 21
-44.2031477227983
 31
0.0
  0
LINE
  5
    4F
  8
0
  6
CONTINUOUS
 62
     3
 10
109.221457154922
 20
-44.2031477227983
 30
0.0
 11
112.175880432129
 21
-43.6822032928467
 31
0.0
  0
LINE
  5
    50
  8
0
  6
CONTINUOUS
 62
     3
 10
112.175880432129
 20
-43.6822032928467
 30
0.0
 11
109.221457154922
 21
-43.161258862895
 31
0.0
  0
ENDBLK
  5
    51
  8
0
  6
CONTINUOUS
 62
     3
  0
BLOCK
  5
    52
  8
0
  6
CONTINUOUS
 62
     3
  2
*UDIM658
 70
    65
 10
0.0
 20
0.0
 30
0.0
  3
*UDIM658
  0
TEXT
  5
    53
  8
0
  6
CONTINUOUS
 62
     3
 10
149.502898912629
 20
54.3748607635498
 30
0.0
 40
3.00000002980232
  1
1.5-2
 41
0.933333333333333
 72
     1
 11
156.202898979187
 21
55.874860778451
 31
0.0
 73
     2
  0
LINE
  5
    54
  8
0
  6
CONTINUOUS
 62
     3
 10
148.42586517334
 20
51.4166017498791
 30
0.0
 11
148.42586517334
 21
55.3748607635498
 31
0.0
  0
LINE
  5
    55
  8
0
  6
CONTINUOUS
 62
     3
 10
149.17586517334
 20
51.1549923310963
 30
0.0
 11
149.17586517334
 21
55.3748607635498
 31
0.0
  0
LINE
  5
    56
  8
0
  6
CONTINUOUS
 62
     3
 10
148.42586517334
 20
53.3748607635498
 30
0.0
 11
162.902899045746
 21
53.3748607635498
 31
0.0
  0
LINE
  5
    57
  8
0
  6
CONTINUOUS
 62
     3
 10
145.471441896133
 20
52.8539163335981
 30
0.0
 11
148.42586517334
 21
53.3748607635498
 31
0.0
  0
LINE
  5
    58
  8
0
  6
CONTINUOUS
 62
     3
 10
148.42586517334
 20
53.3748607635498
 30
0.0
 11
145.471441896133
 21
53.8958051935015
 31
0.0
  0
LINE
  5
    59
  8
0
  6
CONTINUOUS
 62
     3
 10
152.130288450547
 20
53.8958051935015
 30
0.0
 11
149.17586517334
 21
53.3748607635498
 31
0.0
  0
LINE
  5
    5A
  8
0
  6
CONTINUOUS
 62
     3
 10
149.17586517334
 20
53.3748607635498
 30
0.0
 11
152.130288450547
 21
52.8539163335981
 31
0.0
  0
ENDBLK
  5
    5B
  8
0
  6
CONTINUOUS
 62
     3
  0
BLOCK
  5
    5C
  8
0
  6
CONTINUOUS
 62
     3
  2
*UDIM659
 70
    65
 10
0.0
 20
0.0
 30
0.0
  3
*UDIM659
  0
TEXT
  5
    5D
  8
0
  6
CONTINUOUS
 62
     3
 10
114.149478685856
 20
70.4834384918213
 30
0.0
 40
3.00000002980232
  1
123
 41
0.933333333333333
 72
     1
 11
118.049478724599
 21
71.9834385067225
 31
0.0
 73
     2
  0
LINE
  5
    5E
  8
0
  6
CONTINUOUS
 62
     3
 10
87.1758875846861
 20
50.6807605172001
 30
0.0
 11
87.1758875846861
 21
71.4834384918213
 31
0.0
  0
LINE
  5
    5F
  8
0
  6
CONTINUOUS
 62
     3
 10
148.42586517334
 20
51.4166017498791
 30
0.0
 11
148.42586517334
 21
71.4834384918213
 31
0.0
  0
LINE
  5
    60
  8
0
  6
CONTINUOUS
 62
     3
 10
87.1758875846861
 20
69.4834384918213
 30
0.0
 11
148.42586517334
 21
69.4834384918213
 31
0.0
  0
LINE
  5
    61
  8
0
  6
CONTINUOUS
 62
     3
 10
90.1303108618931
 20
70.004382921773
 30
0.0
 11
87.1758875846861
 21
69.4834384918213
 31
0.0
  0
LINE
  5
    62
  8
0
  6
CONTINUOUS
 62
     3
 10
87.1758875846861
 20
69.4834384918213
 30
0.0
 11
90.1303108618931
 21
68.9624940618696
 31
0.0
  0
LINE
  5
    63
  8
0
  6
CONTINUOUS
 62
     3
 10
145.471441896133
 20
68.9624940618696
 30
0.0
 11
148.42586517334
 21
69.4834384918213
 31
0.0
  0
LINE
  5
    64
  8
0
  6
CONTINUOUS
 62
     3
 10
148.42586517334
 20
69.4834384918213
 30
0.0
 11
145.471441896133
 21
70.004382921773
 31
0.0
  0
ENDBLK
  5
    65
  8
0
  6
CONTINUOUS
 62
     3
  0
BLOCK
  5
    66
  8
0
  6
CONTINUOUS
 62
     3
  2
*UDIM660
 70
    65
 10
0.0
 20
0.0
 30
0.0
  3
*UDIM660
  0
TEXT
  5
    67
  8
0
  6
CONTINUOUS
 62
     3
 10
129.150875744224
 20
-50.6539897918701
 30
0.0
 40
3.00000002980232
  1
75
 41
0.933333333333333
 72
     1
 11
131.650875769059
 21
-49.153989776969
 31
0.0
 73
     2
  0
LINE
  5
    68
  8
0
  6
CONTINUOUS
 62
     3
 10
113.175879700979
 20
-26.0639820098877
 30
0.0
 11
113.175879700979
 21
-53.6539897918701
 31
0.0
  0
LINE
  5
    69
  8
0
  6
CONTINUOUS
 62
     3
 10
150.675872921944
 20
-11.8139667510986
 30
0.0
 11
150.675872921944
 21
-53.6539897918701
 31
0.0
  0
LINE
  5
    6A
  8
0
  6
CONTINUOUS
 62
     3
 10
113.175879700979
 20
-51.6539897918701
 30
0.0
 11
150.675872921944
 21
-51.6539897918701
 31
0.0
  0
LINE
  5
    6B
  8
0
  6
CONTINUOUS
 62
     3
 10
116.130302978186
 20
-51.1330453619185
 30
0.0
 11
113.175879700979
 21
-51.6539897918701
 31
0.0
  0
LINE
  5
    6C
  8
0
  6
CONTINUOUS
 62
     3
 10
113.175879700979
 20
-51.6539897918701
 30
0.0
 11
116.130302978186
 21
-52.1749342218218
 31
0.0
  0
LINE
  5
    6D
  8
0
  6
CONTINUOUS
 62
     3
 10
147.721449644737
 20
-52.1749342218218
 30
0.0
 11
150.675872921944
 21
-51.6539897918701
 31
0.0
  0
LINE
  5
    6E
  8
0
  6
CONTINUOUS
 62
     3
 10
150.675872921944
 20
-51.6539897918701
 30
0.0
 11
147.721449644737
 21
-51.1330453619185
 31
0.0
  0
ENDBLK
  5
    6F
  8
0
  6
CONTINUOUS
 62
     3
  0
BLOCK
  5
    70
  8
0
  6
CONTINUOUS
 62
     3
  2
*UDIM661
 70
    65
 10
0.0
 20
0.0
 30
0.0
  3
*UDIM661
  0
TEXT
  5
    71
  8
0
  6
CONTINUOUS
 62
     3
 10
133.650878597299
 20
-58.7486515045166
 30
0.0
 40
3.00000002980232
  1
93
 41
0.933333333333333
 72
     1
 11
136.150878622135
 21
-57.2486514896154
 31
0.0
 73
     2
  0
LINE
  5
    72
  8
0
  6
CONTINUOUS
 62
     3
 10
113.175879700979
 20
-26.0639820098877
 30
0.0
 11
113.175879700979
 21
-61.7486515045166
 31
0.0
  0
LINE
  5
    73
  8
0
  6
CONTINUOUS
 62
     3
 10
159.675879700979
 20
-8.67916242966657
 30
0.0
 11
159.675879700979
 21
-61.7486515045166
 31
0.0
  0
LINE
  5
    74
  8
0
  6
CONTINUOUS
 62
     3
 10
113.175879700979
 20
-59.7486515045166
 30
0.0
 11
159.675879700979
 21
-59.7486515045166
 31
0.0
  0
LINE
  5
    75
  8
0
  6
CONTINUOUS
 62
     3
 10
116.130302978186
 20
-59.2277070745649
 30
0.0
 11
113.175879700979
 21
-59.7486515045166
 31
0.0
  0
LINE
  5
    76
  8
0
  6
CONTINUOUS
 62
     3
 10
113.175879700979
 20
-59.7486515045166
 30
0.0
 11
116.130302978186
 21
-60.2695959344683
 31
0.0
  0
LINE
  5
    77
  8
0
  6
CONTINUOUS
 62
     3
 10
156.721456423772
 20
-60.2695959344683
 30
0.0
 11
159.675879700979
 21
-59.7486515045166
 31
0.0
  0
LINE
  5
    78
  8
0
  6
CONTINUOUS
 62
     3
 10
159.675879700979
 20
-59.7486515045166
 30
0.0
 11
156.721456423772
 21
-59.2277070745649
 31
0.0
  0
ENDBLK
  5
    79
  8
0
  6
CONTINUOUS
 62
     3
  0
BLOCK
  5
    7A
  8
0
  6
CONTINUOUS
 62
     3
  2
*UDIM662
 70
    65
 10
0.0
 20
0.0
 30
0.0
  3
*UDIM662
  0
TEXT
  5
    7B
  8
0
  6
CONTINUOUS
 62
     3
 10
95.5182082404692
 20
61.4962024688721
 30
0.0
 40
3.00000002980232
  1
10
 41
0.933333333333333
 72
     1
 11
98.0182082653045
 21
62.9962024837732
 31
0.0
 73
     2
  0
LINE
  5
    7C
  8
0
  6
CONTINUOUS
 62
     3
 10
87.1758875846861
 20
50.6807605172001
 30
0.0
 11
87.1758875846861
 21
62.4962024688721
 31
0.0
  0
LINE
  5
    7D
  8
0
  6
CONTINUOUS
 62
     3
 10
92.1758804321289
 20
48.4360218048096
 30
0.0
 11
92.1758804321289
 21
62.4962024688721
 31
0.0
  0
LINE
  5
    7E
  8
0
  6
CONTINUOUS
 62
     3
 10
87.1758875846861
 20
60.4962024688721
 30
0.0
 11
100.51820829014
 21
60.4962024688721
 31
0.0
  0
LINE
  5
    7F
  8
0
  6
CONTINUOUS
 62
     3
 10
84.2214643074792
 20
59.9752580389204
 30
0.0
 11
87.1758875846861
 21
60.4962024688721
 31
0.0
  0
LINE
  5
    80
  8
0
  6
CONTINUOUS
 62
     3
 10
87.1758875846861
 20
60.4962024688721
 30
0.0
 11
84.2214643074792
 21
61.0171468988237
 31
0.0
  0
LINE
  5
    81
  8
0
  6
CONTINUOUS
 62
     3
 10
95.1303037093359
 20
61.0171468988237
 30
0.0
 11
92.1758804321289
 21
60.4962024688721
 31
0.0
  0
LINE
  5
    82
  8
0
  6
CONTINUOUS
 62
     3
 10
92.1758804321289
 20
60.4962024688721
 30
0.0
 11
95.1303037093359
 21
59.9752580389204
 31
0.0
  0
ENDBLK
  5
    83
  8
0
  6
CONTINUOUS
 62
     3
  0
BLOCK
  5
    84
  8
0
  6
CONTINUOUS
 62
     3
  2
*UDIM663
 70
    65
 10
0.0
 20
0.0
 30
0.0
  3
*UDIM663
  0
TEXT
  5
    85
  8
0
  6
CONTINUOUS
 62
     3
 10
65.4008871664603
 20
70.4834384918213
 30
0.0
 40
3.00000002980232
  1
76
 41
0.933333333333333
 72
     1
 11
67.9008871912956
 21
71.9834385067225
 31
0.0
 73
     2
  0
LINE
  5
    86
  8
0
  6
CONTINUOUS
 62
     3
 10
49.1758875846863
 20
34.436014175415
 30
0.0
 11
49.1758875846863
 21
71.4834384918213
 31
0.0
  0
LINE
  5
    87
  8
0
  6
CONTINUOUS
 62
     3
 10
87.1758875846861
 20
50.6807605172001
 30
0.0
 11
87.1758875846861
 21
71.4834384918213
 31
0.0
  0
LINE
  5
    88
  8
0
  6
CONTINUOUS
 62
     3
 10
49.1758875846863
 20
69.4834384918213
 30
0.0
 11
87.1758875846861
 21
69.4834384918213
 31
0.0
  0
LINE
  5
    89
  8
0
  6
CONTINUOUS
 62
     3
 10
52.1303108618932
 20
70.004382921773
 30
0.0
 11
49.1758875846863
 21
69.4834384918213
 31
0.0
  0
LINE
  5
    8A
  8
0
  6
CONTINUOUS
 62
     3
 10
49.1758875846863
 20
69.4834384918213
 30
0.0
 11
52.1303108618932
 21
68.9624940618696
 31
0.0
  0
LINE
  5
    8B
  8
0
  6
CONTINUOUS
 62
     3
 10
84.2214643074792
 20
68.9624940618696
 30
0.0
 11
87.1758875846861
 21
69.4834384918213
 31
0.0
  0
LINE
  5
    8C
  8
0
  6
CONTINUOUS
 62
     3
 10
87.1758875846861
 20
69.4834384918213
 30
0.0
 11
84.2214643074792
 21
70.004382921773
 31
0.0
  0
ENDBLK
  5
    8D
  8
0
  6
CONTINUOUS
 62
     3
  0
BLOCK
  5
    8E
  8
0
  6
CONTINUOUS
 62
     3
  2
*UDIM664
 70
    65
 10
0.0
 20
0.0
 30
0.0
  3
*UDIM664
  0
TEXT
  5
    8F
  8
0
  6
CONTINUOUS
 62
     3
 10
74.4008871664603
 20
61.4962024688721
 30
0.0
 40
3.00000002980232
  1
40
 41
0.933333333333333
 72
     1
 11
76.9008871912956
 21
62.9962024837732
 31
0.0
 73
     2
  0
LINE
  5
    90
  8
0
  6
CONTINUOUS
 62
     3
 10
67.1758875846863
 20
34.485998916626
 30
0.0
 11
67.1758875846863
 21
62.4962024688721
 31
0.0
  0
LINE
  5
    91
  8
0
  6
CONTINUOUS
 62
     3
 10
87.1758875846861
 20
50.6807605172001
 30
0.0
 11
87.1758875846861
 21
62.4962024688721
 31
0.0
  0
LINE
  5
    92
  8
0
  6
CONTINUOUS
 62
     3
 10
67.1758875846863
 20
60.4962024688721
 30
0.0
 11
87.1758875846861
 21
60.4962024688721
 31
0.0
  0
LINE
  5
    93
  8
0
  6
CONTINUOUS
 62
     3
 10
70.1303108618932
 20
61.0171468988237
 30
0.0
 11
67.1758875846863
 21
60.4962024688721
 31
0.0
  0
LINE
  5
    94
  8
0
  6
CONTINUOUS
 62
     3
 10
67.1758875846863
 20
60.4962024688721
 30
0.0
 11
70.1303108618932
 21
59.9752580389204
 31
0.0
  0
LINE
  5
    95
  8
0
  6
CONTINUOUS
 62
     3
 10
84.2214643074792
 20
59.9752580389204
 30
0.0
 11
87.1758875846861
 21
60.4962024688721
 31
0.0
  0
LINE
  5
    96
  8
0
  6
CONTINUOUS
 62
     3
 10
87.1758875846861
 20
60.4962024688721
 30
0.0
 11
84.2214643074792
 21
61.0171468988237
 31
0.0
  0
ENDBLK
  5
    97
  8
0
  6
CONTINUOUS
 62
     3
  0
BLOCK
  5
    98
  8
0
  6
CONTINUOUS
 62
     3
  2
*UDIM665
 70
    65
 10
0.0
 20
0.0
 30
0.0
  3
*UDIM665
  0
TEXT
  5
    99
  8
0
  6
CONTINUOUS
 62
     3
 10
43.3396148681672
 20
-12.0889762292287
 30
0.0
 40
3.00000002980232
  1
39
 50
90.0
 41
0.933333333333333
 72
     1
 11
41.8396148532629
 21
-9.58897620439529
 31
0.0
 73
     2
  0
LINE
  5
    9A
  8
0
  6
CONTINUOUS
 62
     3
 10
63.2776043143116
 20
-19.063985824585
 30
0.0
 11
42.3396148681641
 21
-19.063985824585
 31
0.0
  0
LINE
  5
    9B
  8
0
  6
CONTINUOUS
 62
     3
 10
77.0929017966539
 20
0.436033248901392
 30
0.0
 11
42.3396148681641
 21
0.436033248901392
 31
0.0
  0
LINE
  5
    9C
  8
0
  6
CONTINUOUS
 62
     3
 10
44.3396148681641
 20
-19.063985824585
 30
0.0
 11
44.3396148681641
 21
0.436033248901392
 31
0.0
  0
LINE
  5
    9D
  8
0
  6
CONTINUOUS
 62
     3
 10
43.8186704382124
 20
-16.109562547378
 30
0.0
 11
44.3396148681641
 21
-19.063985824585
 31
0.0
  0
LINE
  5
    9E
  8
0
  6
CONTINUOUS
 62
     3
 10
44.3396148681641
 20
-19.063985824585
 30
0.0
 11
44.8605592981157
 21
-16.109562547378
 31
0.0
  0
LINE
  5
    9F
  8
0
  6
CONTINUOUS
 62
     3
 10
44.8605592981157
 20
-2.51839002830557
 30
0.0
 11
44.3396148681641
 21
0.436033248901392
 31
0.0
  0
LINE
  5
    A0
  8
0
  6
CONTINUOUS
 62
     3
 10
44.3396148681641
 20
0.436033248901392
 30
0.0
 11
43.8186704382124
 21
-2.51839002830557
 31
0.0
  0
ENDBLK
  5
    A1
  8
0
  6
CONTINUOUS
 62
     3
  0
BLOCK
  5
    A2
  8
0
  6
CONTINUOUS
 62
     3
  2
*UDIM666
 70
    65
 10
0.0
 20
0.0
 30
0.0
  3
*UDIM666
  0
TEXT
  5
    A3
  8
0
  6
CONTINUOUS
 62
     3
 10
167.518939971927
 20
-14.83897432188
 30
0.0
 40
3.00000002980232
  1
50
 50
90.0
 41
0.933333333333333
 72
     1
 11
166.018939957023
 21
-12.3389742970467
 31
0.0
 73
     2
  0
LINE
  5
    A4
  8
0
  6
CONTINUOUS
 62
     3
 10
148.675872921944
 20
-24.5639820098877
 30
0.0
 11
170.518939971924
 21
-24.5639820098877
 31
0.0
  0
LINE
  5
    A5
  8
0
  6
CONTINUOUS
 62
     3
 10
168.518939971924
 20
-24.5639820098877
 30
0.0
 11
168.518939971924
 21
0.436033248901392
 31
0.0
  0
LINE
  5
    A6
  8
0
  6
CONTINUOUS
 62
     3
 10
167.997995541972
 20
-21.6095587326807
 30
0.0
 11
168.518939971924
 21
-24.5639820098877
 31
0.0
  0
LINE
  5
    A7
  8
0
  6
CONTINUOUS
 62
     3
 10
168.518939971924
 20
-24.5639820098877
 30
0.0
 11
169.039884401876
 21
-21.6095587326807
 31
0.0
  0
LINE
  5
    A8
  8
0
  6
CONTINUOUS
 62
     3
 10
169.039884401876
 20
-2.51839002830557
 30
0.0
 11
168.518939971924
 21
0.436033248901392
 31
0.0
  0
LINE
  5
    A9
  8
0
  6
CONTINUOUS
 62
     3
 10
168.518939971924
 20
0.436033248901392
 30
0.0
 11
167.997995541972
 21
-2.51839002830557
 31
0.0
  0
ENDBLK
  5
    AA
  8
0
  6
CONTINUOUS
 62
     3
  0
BLOCK
  5
    AB
  8
0
  6
CONTINUOUS
 62
     3
  2
*UDIM667
 70
    65
 10
0.0
 20
0.0
 30
0.0
  3
*UDIM667
  0
TEXT
  5
    AC
  8
0
  6
CONTINUOUS
 62
     3
 10
97.4008833736181
 20
-50.6539897918701
 30
0.0
 40
3.00000002980232
  1
52
 41
0.933333333333333
 72
     1
 11
99.9008833984534
 21
-49.153989776969
 31
0.0
 73
     2
  0
LINE
  5
    AD
  8
0
  6
CONTINUOUS
 62
     3
 10
87.1758875846861
 20
-37.808716907581
 30
0.0
 11
87.1758875846861
 21
-53.6539897918701
 31
0.0
  0
LINE
  5
    AE
  8
0
  6
CONTINUOUS
 62
     3
 10
113.175879700979
 20
-26.0639820098877
 30
0.0
 11
113.175879700979
 21
-53.6539897918701
 31
0.0
  0
LINE
  5
    AF
  8
0
  6
CONTINUOUS
 62
     3
 10
87.1758875846861
 20
-51.6539897918701
 30
0.0
 11
113.175879700979
 21
-51.6539897918701
 31
0.0
  0
LINE
  5
    B0
  8
0
  6
CONTINUOUS
 62
     3
 10
90.1303108618931
 20
-51.1330453619185
 30
0.0
 11
87.1758875846861
 21
-51.6539897918701
 31
0.0
  0
LINE
  5
    B1
  8
0
  6
CONTINUOUS
 62
     3
 10
87.1758875846861
 20
-51.6539897918701
 30
0.0
 11
90.1303108618931
 21
-52.1749342218218
 31
0.0
  0
LINE
  5
    B2
  8
0
  6
CONTINUOUS
 62
     3
 10
110.221456423772
 20
-52.1749342218218
 30
0.0
 11
113.175879700979
 21
-51.6539897918701
 31
0.0
  0
LINE
  5
    B3
  8
0
  6
CONTINUOUS
 62
     3
 10
113.175879700979
 20
-51.6539897918701
 30
0.0
 11
110.221456423772
 21
-51.1330453619185
 31
0.0
  0
ENDBLK
  5
    B4
  8
0
  6
CONTINUOUS
 62
     3
  0
BLOCK
  5
    B5
  8
0
  6
CONTINUOUS
 62
     3
  2
*UDIM668
 70
    65
 10
0.0
 20
0.0
 30
0.0
  3
*UDIM668
  0
TEXT
  5
    B6
  8
0
  6
CONTINUOUS
 62
     3
 10
72.6657358596721
 20
54.3130359649658
 30
0.0
 40
3.00000002980232
  1
_2.5
 41
0.933333333333333
 72
     1
 11
77.9657359123229
 21
55.813035979867
 31
0.0
 73
     2
  0
LINE
  5
    B7
  8
0
  6
CONTINUOUS
 62
     3
 10
86.1758875846861
 20
50.922215924656
 30
0.0
 11
86.1758875846861
 21
55.3130359649658
 31
0.0
  0
LINE
  5
    B8
  8
0
  6
CONTINUOUS
 62
     3
 10
87.1758875846861
 20
50.6807605172001
 30
0.0
 11
87.1758875846861
 21
55.3130359649658
 31
0.0
  0
LINE
  5
    B9
  8
0
  6
CONTINUOUS
 62
     3
 10
72.6657358596721
 20
53.3130359649658
 30
0.0
 11
87.1758875846861
 21
53.3130359649658
 31
0.0
  0
LINE
  5
    BA
  8
0
  6
CONTINUOUS
 62
     3
 10
83.2214643074792
 20
52.7920915350142
 30
0.0
 11
86.1758875846861
 21
53.3130359649658
 31
0.0
  0
LINE
  5
    BB
  8
0
  6
CONTINUOUS
 62
     3
 10
86.1758875846861
 20
53.3130359649658
 30
0.0
 11
83.2214643074792
 21
53.8339803949175
 31
0.0
  0
LINE
  5
    BC
  8
0
  6
CONTINUOUS
 62
     3
 10
90.1303108618931
 20
53.8339803949175
 30
0.0
 11
87.1758875846861
 21
53.3130359649658
 31
0.0
  0
LINE
  5
    BD
  8
0
  6
CONTINUOUS
 62
     3
 10
87.1758875846861
 20
53.3130359649658
 30
0.0
 11
90.1303108618931
 21
52.7920915350142
 31
0.0
  0
ENDBLK
  5
    BE
  8
0
  6
CONTINUOUS
 62
     3
  0
BLOCK
  5
    BF
  8
0
  6
CONTINUOUS
 62
     3
  2
*UDIM669
 70
    65
 10
0.0
 20
0.0
 30
0.0
  3
*UDIM669
  0
TEXT
  5
    C0
  8
0
  6
CONTINUOUS
 62
     3
 10
77.9258687220699
 20
-134.492756604237
 30
0.0
 40
3.00000002980232
  1
26
 50
359.999999896069
 41
0.933333333333333
 72
     1
 11
80.4258687496185
 21
-132.992756593858
 31
0.0
 73
     2
  0
LINE
  5
    C1
  8
0
  6
CONTINUOUS
 62
     3
 10
86.1758651733398
 20
-109.261268615723
 30
0.0
 11
86.1758651733398
 21
-137.492756608759
 31
0.0
  0
LINE
  5
    C2
  8
0
  6
CONTINUOUS
 62
     3
 10
74.6758723258972
 20
-118.261268615723
 30
0.0
 11
74.6758723258972
 21
-137.492756608759
 31
0.0
  0
LINE
  5
    C3
  8
0
  6
CONTINUOUS
 62
     3
 10
91.1758651733398
 20
-135.492756608759
 30
0.0
 11
69.6758723258972
 21
-135.492756608759
 31
0.0
  0
LINE
  5
    C4
  8
0
  6
CONTINUOUS
 62
     3
 10
89.0736426465504
 20
-134.716299452341
 30
0.0
 11
86.1758651733398
 21
-135.492756608759
 31
0.0
  0
LINE
  5
    C5
  8
0
  6
CONTINUOUS
 62
     3
 10
86.1758651733398
 20
-135.492756608759
 30
0.0
 11
89.0736426465504
 21
-136.269213765178
 31
0.0
  0
LINE
  5
    C6
  8
0
  6
CONTINUOUS
 62
     3
 10
71.7780948526867
 20
-136.269213765178
 30
0.0
 11
74.6758723258972
 21
-135.492756608759
 31
0.0
  0
LINE
  5
    C7
  8
0
  6
CONTINUOUS
 62
     3
 10
74.6758723258972
 20
-135.492756608759
 30
0.0
 11
71.7780948526867
 21
-134.716299452341
 31
0.0
  0
ENDBLK
  5
    C8
  8
0
  6
CONTINUOUS
 62
     3
  0
BLOCK
  5
    C9
  8
0
  6
CONTINUOUS
 62
     3
  2
*UDIM670
 70
    65
 10
0.0
 20
0.0
 30
0.0
  3
*UDIM670
  0
TEXT
  5
    CA
  8
0
  6
CONTINUOUS
 62
     3
 10
66.1258686942544
 20
-142.838831289584
 30
0.0
 40
3.00000002980232
  1
65.5
 50
359.999999896069
 41
0.933333333333333
 72
     1
 11
71.4258687496185
 21
-141.33883128427
 31
0.0
 73
     2
  0
LINE
  5
    CB
  8
0
  6
CONTINUOUS
 62
     3
 10
86.1758651733398
 20
-109.261268615723
 30
0.0
 11
86.1758651733398
 21
-145.838831299172
 31
0.0
  0
LINE
  5
    CC
  8
0
  6
CONTINUOUS
 62
     3
 10
56.6758723258972
 20
-103.261268615723
 30
0.0
 11
56.6758723258972
 21
-145.838831299172
 31
0.0
  0
LINE
  5
    CD
  8
0
  6
CONTINUOUS
 62
     3
 10
86.1758651733398
 20
-143.838831299171
 30
0.0
 11
56.6758723258972
 21
-143.838831299171
 31
0.0
  0
LINE
  5
    CE
  8
0
  6
CONTINUOUS
 62
     3
 10
83.2780877001293
 20
-144.61528845559
 30
0.0
 11
86.1758651733398
 21
-143.838831299171
 31
0.0
  0
LINE
  5
    CF
  8
0
  6
CONTINUOUS
 62
     3
 10
86.1758651733398
 20
-143.838831299171
 30
0.0
 11
83.2780877001293
 21
-143.062374142753
 31
0.0
  0
LINE
  5
    D0
  8
0
  6
CONTINUOUS
 62
     3
 10
59.5736497991078
 20
-143.062374142753
 30
0.0
 11
56.6758723258972
 21
-143.838831299171
 31
0.0
  0
LINE
  5
    D1
  8
0
  6
CONTINUOUS
 62
     3
 10
56.6758723258972
 20
-143.838831299171
 30
0.0
 11
59.5736497991078
 21
-144.61528845559
 31
0.0
  0
ENDBLK
  5
    D2
  8
0
  6
CONTINUOUS
 62
     3
  0
BLOCK
  5
    D3
  8
0
  6
CONTINUOUS
 62
     7
  2
*UDIM671
 70
    65
 10
0.0
 20
0.0
 30
0.0
  3
*UDIM671
  0
TEXT
  5
    D4
  8
0
  6
CONTINUOUS
 62
     7
 10
-83.8642858235496
 20
-170.025409410589
 30
0.0
 40
3.5
  1
4
 50
359.999999896069
 41
0.933333333333334
 72
     1
 11
-82.5809524870506
 21
-168.275409412911
 31
0.0
 73
     2
  0
LINE
  5
    D5
  8
0
  6
CONTINUOUS
 62
     7
 10
-66.9873774393911
 20
-144.651143215707
 30
0.0
 11
-79.8265495840779
 21
-164.102489014907
 31
0.0
  0
CIRCLE
  5
    D6
  8
0
  6
CONTINUOUS
 62
     2
 10
-66.9873774393911
 20
-144.651143215707
 30
0.0
 40
0.499999999999998
  0
CIRCLE
  5
    D7
  8
0
  6
CONTINUOUS
 62
     7
 10
-82.5809524870506
 20
-168.275409412911
 30
0.0
 40
4.99999999999999
  0
ENDBLK
  5
    D8
  8
0
  6
CONTINUOUS
 62
     7
  0
BLOCK
  5
    D9
  8
0
  6
CONTINUOUS
 62
     7
  2
*UDIM672
 70
    65
 10
0.0
 20
0.0
 30
0.0
  3
*UDIM672
  0
TEXT
  5
    DA
  8
0
  6
CONTINUOUS
 62
     7
 10
71.4658508280897
 20
-122.461268640289
 30
0.0
 40
3.00000002980232
  1
8
 50
449.999999896069
 41
0.933333333333334
 72
     1
 11
69.965850815177
 21
-121.36126862665
 31
0.0
 73
     2
  0
TEXT
  5
    DB
  8
0
  6
CONTINUOUS
 62
     7
 10
71.4658508280897
 20
-125.661268662144
 30
0.0
 40
3.00000002980232
  1
M
 50
449.999999896069
 41
0.933333333333334
 72
     1
 11
69.965850815177
 21
-124.561268648505
 31
0.0
 73
     2
  0
LINE
  5
    DC
  8
0
  6
CONTINUOUS
 62
     7
 10
72.4658508300781
 20
-106.261268615723
 30
0.0
 11
72.4658508300781
 21
-125.661268659433
 31
0.0
  0
LINE
  5
    DD
  8
0
  6
CONTINUOUS
 62
     3
 10
71.6893936736596
 20
-108.363491142512
 30
0.0
 11
72.4658508300781
 21
-111.261268615723
 31
0.0
  0
LINE
  5
    DE
  8
0
  6
CONTINUOUS
 62
     3
 10
72.4658508300781
 20
-111.261268615723
 30
0.0
 11
73.2423079864967
 21
-108.363491142512
 31
0.0
  0
LINE
  5
    DF
  8
0
  6
CONTINUOUS
 62
     3
 10
73.2423079864967
 20
-118.159046088933
 30
0.0
 11
72.4658508300781
 21
-115.261268615723
 31
0.0
  0
LINE
  5
    E0
  8
0
  6
CONTINUOUS
 62
     3
 10
72.4658508300781
 20
-115.261268615723
 30
0.0
 11
71.6893936736596
 21
-118.159046088933
 31
0.0
  0
ENDBLK
  5
    E1
  8
0
  6
CONTINUOUS
 62
     7
  0
BLOCK
  5
    E2
  8
0
  6
CONTINUOUS
 62
     7
  2
*UDIM673
 70
    65
 10
0.0
 20
0.0
 30
0.0
  3
*UDIM673
  0
TEXT
  5
    E3
  8
0
  6
CONTINUOUS
 62
     7
 10
44.8254928543676
 20
-93.5362704671716
 30
0.0
 40
3.00000002980232
  1
30
 50
449.999999896069
 41
0.933333333333333
 72
     1
 11
43.3254928439856
 21
-91.0362704396248
 31
0.0
 73
     2
  0
TEXT
  5
    E4
  8
0
  6
CONTINUOUS
 62
     7
 10
44.8254928568983
 20
-96.7362704890266
 30
0.0
 40
3.00000002980232
  1
M
 50
449.999999896069
 41
0.933333333333334
 72
     1
 11
43.3254928439856
 21
-95.6362704753876
 31
0.0
 73
     2
  0
LINE
  5
    E5
  8
0
  6
CONTINUOUS
 62
     3
 10
84.8480872184682
 20
-83.2612686157227
 30
0.0
 11
43.8254928588867
 21
-83.2612686157227
 31
0.0
  0
LINE
  5
    E6
  8
0
  6
CONTINUOUS
 62
     3
 10
63.2775890555225
 20
-98.2612686157227
 30
0.0
 11
43.8254928588867
 21
-98.2612686157227
 31
0.0
  0
LINE
  5
    E7
  8
0
  6
CONTINUOUS
 62
     3
 10
45.8254928588867
 20
-83.2612686157227
 30
0.0
 11
45.8254928588867
 21
-98.2612686157227
 31
0.0
  0
LINE
  5
    E8
  8
0
  6
CONTINUOUS
 62
     3
 10
46.3464372888384
 20
-86.2156918929296
 30
0.0
 11
45.8254928588867
 21
-83.2612686157227
 31
0.0
  0
LINE
  5
    E9
  8
0
  6
CONTINUOUS
 62
     3
 10
45.8254928588867
 20
-83.2612686157227
 30
0.0
 11
45.304548428935
 21
-86.2156918929296
 31
0.0
  0
LINE
  5
    EA
  8
0
  6
CONTINUOUS
 62
     3
 10
45.304548428935
 20
-95.3068453385157
 30
0.0
 11
45.8254928588867
 21
-98.2612686157227
 31
0.0
  0
LINE
  5
    EB
  8
0
  6
CONTINUOUS
 62
     3
 10
45.8254928588867
 20
-98.2612686157227
 30
0.0
 11
46.3464372888384
 21
-95.3068453385157
 31
0.0
  0
ENDBLK
  5
    EC
  8
0
  6
CONTINUOUS
 62
     7
  0
BLOCK
  5
    ED
  8
0
  6
CONTINUOUS
 62
     7
  2
*UDIM674
 70
    65
 10
0.0
 20
0.0
 30
0.0
  3
*UDIM674
  0
TEXT
  5
    EE
  8
0
  6
CONTINUOUS
 62
     7
 10
44.8254928543676
 20
-108.536269513497
 30
0.0
 40
3.00000002980232
  1
30
 50
449.999999896069
 41
0.933333333333333
 72
     1
 11
43.3254928439856
 21
-106.03626948595
 31
0.0
 73
     2
  0
TEXT
  5
    EF
  8
0
  6
CONTINUOUS
 62
     7
 10
44.8254928568983
 20
-111.736269535352
 30
0.0
 40
3.00000002980232
  1
M
 50
449.999999896069
 41
0.933333333333334
 72
     1
 11
43.3254928439856
 21
-110.636269521713
 31
0.0
 73
     2
  0
LINE
  5
    F0
  8
0
  6
CONTINUOUS
 62
     3
 10
84.8480872184682
 20
-113.261268615723
 30
0.0
 11
43.8254928588867
 21
-113.261268615723
 31
0.0
  0
LINE
  5
    F1
  8
0
  6
CONTINUOUS
 62
     3
 10
45.8254928588867
 20
-98.2612686157227
 30
0.0
 11
45.8254928588867
 21
-113.261268615723
 31
0.0
  0
LINE
  5
    F2
  8
0
  6
CONTINUOUS
 62
     3
 10
46.3464372888384
 20
-101.21569189293
 30
0.0
 11
45.8254928588867
 21
-98.2612686157227
 31
0.0
  0
LINE
  5
    F3
  8
0
  6
CONTINUOUS
 62
     3
 10
45.8254928588867
 20
-98.2612686157227
 30
0.0
 11
45.304548428935
 21
-101.21569189293
 31
0.0
  0
LINE
  5
    F4
  8
0
  6
CONTINUOUS
 62
     3
 10
45.304548428935
 20
-110.306845338516
 30
0.0
 11
45.8254928588867
 21
-113.261268615723
 31
0.0
  0
LINE
  5
    F5
  8
0
  6
CONTINUOUS
 62
     3
 10
45.8254928588867
 20
-113.261268615723
 30
0.0
 11
46.3464372888384
 21
-110.306845338516
 31
0.0
  0
ENDBLK
  5
    F6
  8
0
  6
CONTINUOUS
 62
     7
  0
BLOCK
  5
    F7
  8
0
  6
CONTINUOUS
 62
     7
  2
*HATCH183
 70
    65
 10
0.0
 20
0.0
 30
0.0
  3
*HATCH183
  0
LINE
  5
    F8
  8
0
  6
CONTINUOUS
 62
    12
 10
9.41289710998535
 20
-20.6999988555908
 30
0.0
 11
8.38521766662598
 21
-20.6999988555908
 31
0.0
  0
ENDBLK
  5
    F9
  8
0
  6
CONTINUOUS
 62
     7
  0
BLOCK
  5
    FA
  8
0
  6
CONTINUOUS
 62
     3
  2
*UDIM675
 70
    65
 10
0.0
 20
0.0
 30
0.0
  3
*UDIM675
  0
TEXT
  5
    FB
  8
0
  6
CONTINUOUS
 62
     3
 10
13.8571906397831
 20
2.01102685223127
 30
0.0
 40
3.00000002980232
  1
163
 50
449.999999844103
 41
0.933333333333333
 72
     1
 11
12.357190635469
 21
5.91102689504623
 31
0.0
 73
     2
  0
LINE
  5
    FC
  8
0
  6
CONTINUOUS
 62
     3
 10
-14.0944413566697
 20
46.9360252022743
 30
0.0
 11
16.8571906503701
 21
46.9360252022743
 31
0.0
  0
LINE
  5
    FD
  8
0
  6
CONTINUOUS
 62
     3
 10
-14.0944536399923
 20
-34.5639747977257
 30
0.0
 11
16.8571906503701
 21
-34.5639747977257
 31
0.0
  0
LINE
  5
    FE
  8
0
  6
CONTINUOUS
 62
     3
 10
14.8571906503701
 20
46.9360252022743
 30
0.0
 11
14.8571906503701
 21
-34.5639747977257
 31
0.0
  0
LINE
  5
    FF
  8
0
  6
CONTINUOUS
 62
     3
 10
15.3781350803218
 20
43.9816019250674
 30
0.0
 11
14.8571906503701
 21
46.9360252022743
 31
0.0
  0
LINE
  5
   100
  8
0
  6
CONTINUOUS
 62
     3
 10
14.8571906503701
 20
46.9360252022743
 30
0.0
 11
14.3362462204185
 21
43.9816019250674
 31
0.0
  0
LINE
  5
   101
  8
0
  6
CONTINUOUS
 62
     3
 10
14.3362462204185
 20
-31.6095515205187
 30
0.0
 11
14.8571906503701
 21
-34.5639747977257
 31
0.0
  0
LINE
  5
   102
  8
0
  6
CONTINUOUS
 62
     3
 10
14.8571906503701
 20
-34.5639747977257
 30
0.0
 11
15.3781350803218
 21
-31.6095515205187
 31
0.0
  0
ENDBLK
  5
   103
  8
0
  6
CONTINUOUS
 62
     3
  0
BLOCK
  5
   104
  8
0
  6
CONTINUOUS
 62
     3
  2
*UDIM676
 70
    65
 10
0.0
 20
0.0
 30
0.0
  3
*UDIM676
  0
TEXT
  5
   105
  8
0
  6
CONTINUOUS
 62
     3
 10
-39.994485802552
 20
72.3901604010107
 30
0.0
 40
3.00000002980232
  1
103
 50
359.999999844103
 41
0.933333333333333
 72
     1
 11
-36.0944857597351
 21
73.8901604053199
 31
0.0
 73
     2
  0
LINE
  5
   106
  8
0
  6
CONTINUOUS
 62
     3
 10
-61.8444857597351
 20
24.8114505410194
 30
0.0
 11
-61.8444857597351
 21
73.3901603904187
 31
0.0
  0
LINE
  5
   107
  8
0
  6
CONTINUOUS
 62
     3
 10
-10.3444857597351
 20
24.8114505410194
 30
0.0
 11
-10.3444857597351
 21
73.3901603904187
 31
0.0
  0
LINE
  5
   108
  8
0
  6
CONTINUOUS
 62
     3
 10
-61.8444857597351
 20
71.3901603904187
 30
0.0
 11
-10.3444857597351
 21
71.3901603904187
 31
0.0
  0
LINE
  5
   109
  8
0
  6
CONTINUOUS
 62
     3
 10
-58.9467082865246
 20
72.1666175468373
 30
0.0
 11
-61.8444857597351
 21
71.3901603904187
 31
0.0
  0
LINE
  5
   10A
  8
0
  6
CONTINUOUS
 62
     3
 10
-61.8444857597351
 20
71.3901603904187
 30
0.0
 11
-58.9467082865246
 21
70.6137032340002
 31
0.0
  0
LINE
  5
   10B
  8
0
  6
CONTINUOUS
 62
     3
 10
-13.2422632329456
 20
70.6137032340002
 30
0.0
 11
-10.3444857597351
 21
71.3901603904187
 31
0.0
  0
LINE
  5
   10C
  8
0
  6
CONTINUOUS
 62
     3
 10
-10.3444857597351
 20
71.3901603904187
 30
0.0
 11
-13.2422632329456
 21
72.1666175468373
 31
0.0
  0
ENDBLK
  5
   10D
  8
0
  6
CONTINUOUS
 62
     3
  0
BLOCK
  5
   10E
  8
0
  6
CONTINUOUS
 62
     3
  2
*UDIM677
 70
    65
 10
0.0
 20
0.0
 30
0.0
  3
*UDIM677
  0
TEXT
  5
   10F
  8
0
  6
CONTINUOUS
 62
     3
 10
-38.5944324210636
 20
64.0249075879988
 30
0.0
 40
3.00000002980232
  1
90
 50
359.999999844103
 41
0.933333333333333
 72
     1
 11
-36.0944323921545
 21
65.5249075961103
 31
0.0
 73
     2
  0
LINE
  5
   110
  8
0
  6
CONTINUOUS
 62
     3
 10
-58.5944251022611
 20
47.4360251259804
 30
0.0
 11
-58.5944223519669
 21
65.0249075812091
 31
0.0
  0
LINE
  5
   111
  8
0
  6
CONTINUOUS
 62
     3
 10
-13.5944414026608
 20
47.4360251259804
 30
0.0
 11
-13.5944422115933
 21
65.0249075812091
 31
0.0
  0
LINE
  5
   112
  8
0
  6
CONTINUOUS
 62
     3
 10
-58.5944226646979
 20
63.0249075812091
 30
0.0
 11
-13.5944421196111
 21
63.0249075812091
 31
0.0
  0
LINE
  5
   113
  8
0
  6
CONTINUOUS
 62
     3
 10
-55.6966451914874
 20
63.8013647376276
 30
0.0
 11
-58.5944226646979
 21
63.0249075812091
 31
0.0
  0
LINE
  5
   114
  8
0
  6
CONTINUOUS
 62
     3
 10
-58.5944226646979
 20
63.0249075812091
 30
0.0
 11
-55.6966451914874
 21
62.2484504247906
 31
0.0
  0
LINE
  5
   115
  8
0
  6
CONTINUOUS
 62
     3
 10
-16.4922195928216
 20
62.2484504247906
 30
0.0
 11
-13.5944421196111
 21
63.0249075812091
 31
0.0
  0
LINE
  5
   116
  8
0
  6
CONTINUOUS
 62
     3
 10
-13.5944421196111
 20
63.0249075812091
 30
0.0
 11
-16.4922195928216
 21
63.8013647376276
 31
0.0
  0
ENDBLK
  5
   117
  8
0
  6
CONTINUOUS
 62
     3
  0
BLOCK
  5
   118
  8
0
  6
CONTINUOUS
 62
     3
  2
*UDIM678
 70
    65
 10
0.0
 20
0.0
 30
0.0
  3
*UDIM678
  0
TEXT
  5
   119
  8
0
  6
CONTINUOUS
 62
     3
 10
-86.6591184984068
 20
-2.06354948788777
 30
0.0
 40
3.00000002980232
  1
96
 50
449.999999844103
 41
0.933333333333333
 72
     1
 11
-88.1591185065214
 21
0.43645054101944
 31
0.0
 73
     2
  0
LINE
  5
   11A
  8
0
  6
CONTINUOUS
 62
     3
 10
-62.2194857597351
 20
24.4364505410194
 30
0.0
 11
-87.6591184916203
 21
24.4364505410194
 31
0.0
  0
LINE
  5
   11B
  8
0
  6
CONTINUOUS
 62
     3
 10
-62.2194857597351
 20
-23.5635494589806
 30
0.0
 11
-87.6591184916203
 21
-23.5635494589806
 31
0.0
  0
LINE
  5
   11C
  8
0
  6
CONTINUOUS
 62
     3
 10
-85.6591184916203
 20
24.4364505410194
 30
0.0
 11
-85.6591184916203
 21
-23.5635494589806
 31
0.0
  0
LINE
  5
   11D
  8
0
  6
CONTINUOUS
 62
     3
 10
-84.8826613352017
 20
21.5386730678089
 30
0.0
 11
-85.6591184916203
 21
24.4364505410194
 31
0.0
  0
LINE
  5
   11E
  8
0
  6
CONTINUOUS
 62
     3
 10
-85.6591184916203
 20
24.4364505410194
 30
0.0
 11
-86.4355756480388
 21
21.5386730678089
 31
0.0
  0
LINE
  5
   11F
  8
0
  6
CONTINUOUS
 62
     3
 10
-86.4355756480388
 20
-20.66577198577
 30
0.0
 11
-85.6591184916203
 21
-23.5635494589806
 31
0.0
  0
LINE
  5
   120
  8
0
  6
CONTINUOUS
 62
     3
 10
-85.6591184916203
 20
-23.5635494589806
 30
0.0
 11
-84.8826613352017
 21
-20.66577198577
 31
0.0
  0
ENDBLK
  5
   121
  8
0
  6
CONTINUOUS
 62
     3
  0
BLOCK
  5
   122
  8
0
  6
CONTINUOUS
 62
     3
  2
*UDIM679
 70
    65
 10
0.0
 20
0.0
 30
0.0
  3
*UDIM679
  0
TEXT
  5
   123
  8
0
  6
CONTINUOUS
 62
     3
 10
-79.3998150893366
 20
-2.33891066819281
 30
0.0
 40
3.00000002980232
  1
45
 50
449.999999844103
 41
0.933333333333333
 72
     1
 11
-80.8998150974512
 21
0.161089360714406
 31
0.0
 73
     2
  0
TEXT
  5
   124
  8
0
  6
CONTINUOUS
 62
     3
 10
-75.3998150671353
 20
-5.13891069600831
 30
0.0
 40
3.00000002980232
  1
=  =
 50
449.999999844103
 41
0.933333333333333
 72
     1
 11
-76.8998150676489
 21
0.161089360714406
 31
0.0
 73
     2
  0
LINE
  5
   125
  8
0
  6
CONTINUOUS
 62
     3
 10
-58.5944352149973
 20
11.6860892772649
 30
0.0
 11
-80.3998150825501
 21
11.6860892772649
 31
0.0
  0
LINE
  5
   126
  8
0
  6
CONTINUOUS
 62
     3
 10
-58.5944317817705
 20
-10.8139107227291
 30
0.0
 11
-80.3998150825501
 21
-10.8139107227291
 31
0.0
  0
LINE
  5
   127
  8
0
  6
CONTINUOUS
 62
     3
 10
-78.3998150825501
 20
11.6860892772649
 30
0.0
 11
-78.3998150825501
 21
-10.8139107227291
 31
0.0
  0
LINE
  5
   128
  8
0
  6
CONTINUOUS
 62
     3
 10
-77.8788706525984
 20
8.73166600005797
 30
0.0
 11
-78.3998150825501
 21
11.6860892772649
 31
0.0
  0
LINE
  5
   129
  8
0
  6
CONTINUOUS
 62
     3
 10
-78.3998150825501
 20
11.6860892772649
 30
0.0
 11
-78.9207595125017
 21
8.73166600005797
 31
0.0
  0
LINE
  5
   12A
  8
0
  6
CONTINUOUS
 62
     3
 10
-78.9207595125017
 20
-7.85948744552216
 30
0.0
 11
-78.3998150825501
 21
-10.8139107227291
 31
0.0
  0
LINE
  5
   12B
  8
0
  6
CONTINUOUS
 62
     3
 10
-78.3998150825501
 20
-10.8139107227291
 30
0.0
 11
-77.8788706525984
 21
-7.85948744552216
 31
0.0
  0
ENDBLK
  5
   12C
  8
0
  6
CONTINUOUS
 62
     3
  0
BLOCK
  5
   12D
  8
0
  6
CONTINUOUS
 62
     3
  2
*UDIM680
 70
    65
 10
0.0
 20
0.0
 30
0.0
  3
*UDIM680
  0
TEXT
  5
   12E
  8
0
  6
CONTINUOUS
 62
     3
 10
-0.18829727851509
 20
-19.838942139447
 30
0.0
 40
3.00000002980232
  1
70
 50
449.999999844103
 41
0.933333333333333
 72
     1
 11
-1.68829728662968
 21
-17.3389421105397
 31
0.0
 73
     2
  0
LINE
  5
   12F
  8
0
  6
CONTINUOUS
 62
     3
 10
-10.2064731272835
 20
0.436089277264934
 30
0.0
 11
2.81170272827148
 21
0.436089277264934
 31
0.0
  0
LINE
  5
   130
  8
0
  6
CONTINUOUS
 62
     3
 10
-13.0944536399923
 20
-34.5639747977257
 30
0.0
 11
2.81170272827148
 21
-34.5639747977257
 31
0.0
  0
LINE
  5
   131
  8
0
  6
CONTINUOUS
 62
     3
 10
0.811702728271484
 20
0.436089277264934
 30
0.0
 11
0.811702728271484
 21
-34.5639747977257
 31
0.0
  0
LINE
  5
   132
  8
0
  6
CONTINUOUS
 62
     3
 10
1.33264715822315
 20
-2.51833399994203
 30
0.0
 11
0.811702728271484
 21
0.436089277264934
 31
0.0
  0
LINE
  5
   133
  8
0
  6
CONTINUOUS
 62
     3
 10
0.811702728271484
 20
0.436089277264934
 30
0.0
 11
0.290758298319821
 21
-2.51833399994203
 31
0.0
  0
LINE
  5
   134
  8
0
  6
CONTINUOUS
 62
     3
 10
0.290758298319822
 20
-31.6095515205187
 30
0.0
 11
0.811702728271484
 21
-34.5639747977257
 31
0.0
  0
LINE
  5
   135
  8
0
  6
CONTINUOUS
 62
     3
 10
0.811702728271484
 20
-34.5639747977257
 30
0.0
 11
1.33264715822315
 21
-31.6095515205187
 31
0.0
  0
ENDBLK
  5
   136
  8
0
  6
CONTINUOUS
 62
     3
  0
BLOCK
  5
   137
  8
0
  6
CONTINUOUS
 62
     3
  2
*UDIM681
 70
    65
 10
0.0
 20
0.0
 30
0.0
  3
*UDIM681
  0
TEXT
  5
   138
  8
0
  6
CONTINUOUS
 62
     3
 10
37.6286080616229
 20
-137.948805100817
 30
0.0
 40
3.00000002980232
  1
144
 50
449.999999844103
 41
0.933333333333333
 72
     1
 11
36.1286080573088
 21
-134.048805058002
 31
0.0
 73
     2
  0
LINE
  5
   139
  8
0
  6
CONTINUOUS
 62
     3
 10
-24.8444557189941
 20
-97.7738037109375
 30
0.0
 11
40.6286080722099
 21
-97.7738037109375
 31
0.0
  0
LINE
  5
   13A
  8
0
  6
CONTINUOUS
 62
     3
 10
-23.5944557189941
 20
-169.773803710938
 30
0.0
 11
40.6286080722099
 21
-169.773803710938
 31
0.0
  0
LINE
  5
   13B
  8
0
  6
CONTINUOUS
 62
     3
 10
38.6286080722099
 20
-97.7738037109375
 30
0.0
 11
38.6286080722099
 21
-169.773803710938
 31
0.0
  0
LINE
  5
   13C
  8
0
  6
CONTINUOUS
 62
     3
 10
39.1495525021616
 20
-100.728226988144
 30
0.0
 11
38.6286080722099
 21
-97.7738037109375
 31
0.0
  0
LINE
  5
   13D
  8
0
  6
CONTINUOUS
 62
     3
 10
38.6286080722099
 20
-97.7738037109375
 30
0.0
 11
38.1076636422582
 21
-100.728226988144
 31
0.0
  0
LINE
  5
   13E
  8
0
  6
CONTINUOUS
 62
     3
 10
38.1076636422582
 20
-166.819380433731
 30
0.0
 11
38.6286080722099
 21
-169.773803710938
 31
0.0
  0
LINE
  5
   13F
  8
0
  6
CONTINUOUS
 62
     3
 10
38.6286080722099
 20
-169.773803710938
 30
0.0
 11
39.1495525021616
 21
-166.819380433731
 31
0.0
  0
ENDBLK
  5
   140
  8
0
  6
CONTINUOUS
 62
     3
  0
BLOCK
  5
   141
  8
0
  6
CONTINUOUS
 62
     3
  2
*UDIM682
 70
    65
 10
0.0
 20
0.0
 30
0.0
  3
*UDIM682
  0
TEXT
  5
   142
  8
0
  6
CONTINUOUS
 62
     3
 10
29.7731951528028
 20
-137.94880128612
 30
0.0
 40
3.00000002980232
  1
102
 50
449.999999844103
 41
0.933333333333333
 72
     1
 11
28.2731951484887
 21
-134.048801243305
 31
0.0
 73
     2
  0
LINE
  5
   143
  8
0
  6
CONTINUOUS
 62
     3
 10
-12.0944557189941
 20
-108.273803710938
 30
0.0
 11
32.7731951633899
 21
-108.273803710938
 31
0.0
  0
LINE
  5
   144
  8
0
  6
CONTINUOUS
 62
     3
 10
-12.0944557189941
 20
-159.273803710938
 30
0.0
 11
32.7731951633899
 21
-159.273803710938
 31
0.0
  0
LINE
  5
   145
  8
0
  6
CONTINUOUS
 62
     3
 10
30.7731951633899
 20
-108.273803710938
 30
0.0
 11
30.7731951633899
 21
-159.273803710938
 31
0.0
  0
LINE
  5
   146
  8
0
  6
CONTINUOUS
 62
     3
 10
31.2941395933415
 20
-111.228226988144
 30
0.0
 11
30.7731951633899
 21
-108.273803710938
 31
0.0
  0
LINE
  5
   147
  8
0
  6
CONTINUOUS
 62
     3
 10
30.7731951633899
 20
-108.273803710938
 30
0.0
 11
30.2522507334382
 21
-111.228226988144
 31
0.0
  0
LINE
  5
   148
  8
0
  6
CONTINUOUS
 62
     3
 10
30.2522507334382
 20
-156.319380433731
 30
0.0
 11
30.7731951633899
 21
-159.273803710938
 31
0.0
  0
LINE
  5
   149
  8
0
  6
CONTINUOUS
 62
     3
 10
30.7731951633899
 20
-159.273803710938
 30
0.0
 11
31.2941395933415
 21
-156.319380433731
 31
0.0
  0
ENDBLK
  5
   14A
  8
0
  6
CONTINUOUS
 62
     3
  0
BLOCK
  5
   14B
  8
0
  6
CONTINUOUS
 62
     3
  2
*UDIM683
 70
    65
 10
0.0
 20
0.0
 30
0.0
  3
*UDIM683
  0
TEXT
  5
   14C
  8
0
  6
CONTINUOUS
 62
     3
 10
15.00032908927
 20
-136.548803656398
 30
0.0
 40
3.00000002980232
  1
35
 50
449.999999844103
 41
0.933333333333333
 72
     1
 11
13.5003290811555
 21
-134.048803627491
 31
0.0
 73
     2
  0
LINE
  5
   14D
  8
0
  6
CONTINUOUS
 62
     3
 10
-16.0944557189941
 20
-125.023803710938
 30
0.0
 11
18.0003290960566
 21
-125.023803710938
 31
0.0
  0
LINE
  5
   14E
  8
0
  6
CONTINUOUS
 62
     3
 10
-18.5944557189941
 20
-142.523803710938
 30
0.0
 11
18.0003290960566
 21
-142.523803710938
 31
0.0
  0
LINE
  5
   14F
  8
0
  6
CONTINUOUS
 62
     3
 10
16.0003290960566
 20
-125.023803710938
 30
0.0
 11
16.0003290960566
 21
-142.523803710938
 31
0.0
  0
LINE
  5
   150
  8
0
  6
CONTINUOUS
 62
     3
 10
16.5212735260083
 20
-127.978226988144
 30
0.0
 11
16.0003290960566
 21
-125.023803710938
 31
0.0
  0
LINE
  5
   151
  8
0
  6
CONTINUOUS
 62
     3
 10
16.0003290960566
 20
-125.023803710938
 30
0.0
 11
15.479384666105
 21
-127.978226988144
 31
0.0
  0
LINE
  5
   152
  8
0
  6
CONTINUOUS
 62
     3
 10
15.479384666105
 20
-139.569380433731
 30
0.0
 11
16.0003290960566
 21
-142.523803710938
 31
0.0
  0
LINE
  5
   153
  8
0
  6
CONTINUOUS
 62
     3
 10
16.0003290960566
 20
-142.523803710938
 30
0.0
 11
16.5212735260083
 21
-139.569380433731
 31
0.0
  0
ENDBLK
  5
   154
  8
0
  6
CONTINUOUS
 62
     3
  0
BLOCK
  5
   155
  8
0
  6
CONTINUOUS
 62
     3
  2
*UDIM684
 70
    65
 10
0.0
 20
0.0
 30
0.0
  3
*UDIM684
  0
TEXT
  5
   156
  8
0
  6
CONTINUOUS
 62
     3
 10
-77.066282651789
 20
-126.798804610073
 30
0.0
 40
3.00000002980232
  1
63
 50
449.999999844103
 41
0.933333333333333
 72
     1
 11
-78.5662826599036
 21
-124.298804581165
 31
0.0
 73
     2
  0
LINE
  5
   157
  8
0
  6
CONTINUOUS
 62
     3
 10
-60.0944557189941
 20
-108.273803710938
 30
0.0
 11
-78.0662826450024
 21
-108.273803710938
 31
0.0
  0
LINE
  5
   158
  8
0
  6
CONTINUOUS
 62
     3
 10
-75.0727763745233
 20
-139.773803710938
 30
0.0
 11
-78.0662826450024
 21
-139.773803710938
 31
0.0
  0
LINE
  5
   159
  8
0
  6
CONTINUOUS
 62
     3
 10
-76.0662826450024
 20
-108.273803710938
 30
0.0
 11
-76.0662826450024
 21
-139.773803710938
 31
0.0
  0
LINE
  5
   15A
  8
0
  6
CONTINUOUS
 62
     3
 10
-75.5453382150507
 20
-111.228226988144
 30
0.0
 11
-76.0662826450024
 21
-108.273803710938
 31
0.0
  0
LINE
  5
   15B
  8
0
  6
CONTINUOUS
 62
     3
 10
-76.0662826450024
 20
-108.273803710938
 30
0.0
 11
-76.5872270749541
 21
-111.228226988144
 31
0.0
  0
LINE
  5
   15C
  8
0
  6
CONTINUOUS
 62
     3
 10
-76.5872270749541
 20
-136.819380433731
 30
0.0
 11
-76.0662826450024
 21
-139.773803710938
 31
0.0
  0
LINE
  5
   15D
  8
0
  6
CONTINUOUS
 62
     3
 10
-76.0662826450024
 20
-139.773803710938
 30
0.0
 11
-75.5453382150507
 21
-136.819380433731
 31
0.0
  0
ENDBLK
  5
   15E
  8
0
  6
CONTINUOUS
 62
     3
  0
BLOCK
  5
   15F
  8
0
  6
CONTINUOUS
 62
     3
  2
*UDIM685
 70
    65
 10
0.0
 20
0.0
 30
0.0
  3
*UDIM685
  0
TEXT
  5
   160
  8
0
  6
CONTINUOUS
 62
     3
 10
-84.8923843184119
 20
-121.548802702724
 30
0.0
 40
3.00000002980232
  1
84
 50
449.999999844103
 41
0.933333333333333
 72
     1
 11
-86.3923843265265
 21
-119.048802673817
 31
0.0
 73
     2
  0
LINE
  5
   161
  8
0
  6
CONTINUOUS
 62
     3
 10
-48.5944557189941
 20
-97.7738037109375
 30
0.0
 11
-85.8923843116253
 21
-97.7738037109375
 31
0.0
  0
LINE
  5
   162
  8
0
  6
CONTINUOUS
 62
     3
 10
-75.0727763745233
 20
-139.773803710938
 30
0.0
 11
-85.8923843116253
 21
-139.773803710938
 31
0.0
  0
LINE
  5
   163
  8
0
  6
CONTINUOUS
 62
     3
 10
-83.8923843116253
 20
-97.7738037109375
 30
0.0
 11
-83.8923843116253
 21
-139.773803710938
 31
0.0
  0
LINE
  5
   164
  8
0
  6
CONTINUOUS
 62
     3
 10
-83.3714398816737
 20
-100.728226988144
 30
0.0
 11
-83.8923843116253
 21
-97.7738037109375
 31
0.0
  0
LINE
  5
   165
  8
0
  6
CONTINUOUS
 62
     3
 10
-83.8923843116253
 20
-97.7738037109375
 30
0.0
 11
-84.413328741577
 21
-100.728226988144
 31
0.0
  0
LINE
  5
   166
  8
0
  6
CONTINUOUS
 62
     3
 10
-84.413328741577
 20
-136.819380433731
 30
0.0
 11
-83.8923843116253
 21
-139.773803710938
 31
0.0
  0
LINE
  5
   167
  8
0
  6
CONTINUOUS
 62
     3
 10
-83.8923843116253
 20
-139.773803710938
 30
0.0
 11
-83.3714398816737
 21
-136.819380433731
 31
0.0
  0
ENDBLK
  5
   168
  8
0
  6
CONTINUOUS
 62
     3
  0
BLOCK
  5
   169
  8
0
  6
CONTINUOUS
 62
     7
  2
*UDIM686
 70
    65
 10
0.0
 20
0.0
 30
0.0
  3
*UDIM686
  0
TEXT
  5
   16A
  8
0
  6
CONTINUOUS
 62
     7
 10
3.35297619056604
 20
-189.379758477593
 30
0.0
 40
3.00000002980232
  1
4.5
 50
326.934068235304
 41
0.933333333333333
 72
     1
 11
7.43975066399594
 21
-190.250548205495
 31
0.0
 73
     2
  0
TEXT
  5
   16B
  8
0
  6
CONTINUOUS
 62
     7
 10
8.0302685802236E-4
 20
-187.197343457727
 30
0.0
 40
3.00000002980232
  1
Ø
 50
326.934068235304
 41
1.2
 72
     1
 11
2.07627360275904
 21
-186.758684161717
 31
0.0
 73
     2
  0
TEXT
  5
   16C
  8
0
  6
CONTINUOUS
 62
     7
 10
-9.72049914776628
 20
-180.868339865325
 30
0.0
 40
3.00000002980232
  1
M4 o
 50
326.934068235304
 41
0.933333333333333
 72
     1
 11
-4.46046406744455
 21
-182.502974857177
 31
0.0
 73
     2
  0
LINE
  5
   16D
  8
0
  6
CONTINUOUS
 62
     7
 10
-28.594455718994
 20
-169.773803710938
 30
0.0
 11
9.34411011446234
 21
-194.473511082448
 31
0.0
  0
LINE
  5
   16E
  8
0
  6
CONTINUOUS
 62
     3
 10
-24.9043115478303
 20
-171.249741020733
 30
0.0
 11
-27.7564124352002
 21
-170.319407463205
 31
0.0
  0
LINE
  5
   16F
  8
0
  6
CONTINUOUS
 62
     3
 10
-27.7564124352002
 20
-170.319407463205
 30
0.0
 11
-25.7515874238636
 21
-172.551150430914
 31
0.0
  0
ENDBLK
  5
   170
  8
0
  6
CONTINUOUS
 62
     7
  0
BLOCK
  5
   171
  8
0
  6
CONTINUOUS
 62
     7
  2
*UDIM687
 70
    65
 10
0.0
 20
0.0
 30
0.0
  3
*UDIM687
  0
TEXT
  5
   172
  8
0
  6
CONTINUOUS
 62
     7
 10
22.3867621229366
 20
-142.015004186927
 30
0.0
 40
3.00000002980232
  1
60
 50
449.999999844103
 41
0.933333333333333
 72
     1
 11
20.8867621148221
 21
-139.51500415802
 31
0.0
 73
     2
  0
TEXT
  5
   173
  8
0
  6
CONTINUOUS
 62
     7
 10
22.3867621153357
 20
-136.015004137257
 30
0.0
 40
3.00000002980232
  1
 MAX
 50
449.999999844103
 41
0.933333333333333
 72
     1
 11
20.8867621148221
 21
-130.715004080534
 31
0.0
 73
     2
  0
LINE
  5
   174
  8
0
  6
CONTINUOUS
 62
     7
 10
-3.3323860851928
 20
-118.773803710938
 30
0.0
 11
25.3867621297232
 21
-118.773803710938
 31
0.0
  0
LINE
  5
   175
  8
0
  6
CONTINUOUS
 62
     7
 10
-3.3323860851928
 20
-148.773803710938
 30
0.0
 11
25.3867621297232
 21
-148.773803710938
 31
0.0
  0
LINE
  5
   176
  8
0
  6
CONTINUOUS
 62
     7
 10
23.3867621297232
 20
-118.773803710938
 30
0.0
 11
23.3867621297232
 21
-148.773803710938
 31
0.0
  0
LINE
  5
   177
  8
0
  6
CONTINUOUS
 62
     3
 10
24.1632192861418
 20
-121.671581184148
 30
0.0
 11
23.3867621297232
 21
-118.773803710938
 31
0.0
  0
LINE
  5
   178
  8
0
  6
CONTINUOUS
 62
     3
 10
23.3867621297232
 20
-118.773803710938
 30
0.0
 11
22.6103049733047
 21
-121.671581184148
 31
0.0
  0
LINE
  5
   179
  8
0
  6
CONTINUOUS
 62
     3
 10
22.6103049733047
 20
-145.876026237727
 30
0.0
 11
23.3867621297232
 21
-148.773803710938
 31
0.0
  0
LINE
  5
   17A
  8
0
  6
CONTINUOUS
 62
     3
 10
23.3867621297232
 20
-148.773803710938
 30
0.0
 11
24.1632192861418
 21
-145.876026237727
 31
0.0
  0
ENDBLK
  5
   17B
  8
0
  6
CONTINUOUS
 62
     7
  0
BLOCK
  5
   17C
  8
0
  6
CONTINUOUS
 62
     3
  2
*UDIM688
 70
    65
 10
0.0
 20
0.0
 30
0.0
  3
*UDIM688
  0
TEXT
  5
   17D
  8
0
  6
CONTINUOUS
 62
     3
 10
-28.2478523360265
 20
-136.823805279631
 30
0.0
 40
3.00000002980232
  1
5,5
 50
449.999999844103
 41
0.933333333333333
 72
     1
 11
-29.7478523403406
 21
-132.923805236816
 31
0.0
 73
     2
  0
LINE
  5
   17E
  8
0
  6
CONTINUOUS
 62
     3
 10
-27.2478523254395
 20
-129.023805198073
 30
0.0
 11
-27.2478523254395
 21
-142.523803710938
 31
0.0
  0
LINE
  5
   17F
  8
0
  6
CONTINUOUS
 62
     3
 10
-27.7687967553911
 20
-136.819380433731
 30
0.0
 11
-27.2478523254395
 21
-139.773803710938
 31
0.0
  0
LINE
  5
   180
  8
0
  6
CONTINUOUS
 62
     3
 10
-27.2478523254395
 20
-139.773803710938
 30
0.0
 11
-26.7269078954878
 21
-136.819380433731
 31
0.0
  0
LINE
  5
   181
  8
0
  6
CONTINUOUS
 62
     3
 10
-26.7269078954878
 20
-145.478226988144
 30
0.0
 11
-27.2478523254395
 21
-142.523803710938
 31
0.0
  0
LINE
  5
   182
  8
0
  6
CONTINUOUS
 62
     3
 10
-27.2478523254395
 20
-142.523803710938
 30
0.0
 11
-27.7687967553911
 21
-145.478226988144
 31
0.0
  0
ENDBLK
  5
   183
  8
0
  6
CONTINUOUS
 62
     3
  0
BLOCK
  5
   184
  8
0
  6
CONTINUOUS
 62
     3
  2
*UDIM689
 70
    65
 10
0.0
 20
0.0
 30
0.0
  3
*UDIM689
  0
TEXT
  5
   185
  8
0
  6
CONTINUOUS
 62
     3
 10
-7.80862724918068
 20
-82.2286728219989
 30
0.0
 40
3.00000002980232
  1
13
 50
421.013495166557
 41
0.933333333333333
 72
     1
 11
-7.90921905110628
 21
-79.3149327069123
 31
0.0
 73
     2
  0
TEXT
  5
   186
  8
0
  6
CONTINUOUS
 62
     3
 10
-9.14128707774046
 20
-84.6341908501239
 30
0.0
 40
3.00000002980232
  1
R
 50
421.013495166557
 41
0.933333333333334
 72
     1
 11
-9.92032393083576
 21
-82.945078168784
 31
0.0
 73
     2
  0
LINE
  5
   187
  8
0
  6
CONTINUOUS
 62
     3
 10
-4.51087533937903
 20
-78.3396070096983
 30
0.0
 11
-25.2135863257033
 21
-115.709041638864
 31
0.0
  0
LINE
  5
   188
  8
0
  6
CONTINUOUS
 62
     3
 10
-18.9205687329693
 20
-105.424819195658
 30
0.0
 11
-17.9445323138636
 21
-102.588033530759
 31
0.0
  0
LINE
  5
   189
  8
0
  6
CONTINUOUS
 62
     3
 10
-17.9445323138636
 20
-102.588033530759
 30
0.0
 11
-19.8319442115384
 21
-104.919916102527
 31
0.0
  0
ENDBLK
  5
   18A
  8
0
  6
CONTINUOUS
 62
     3
  0
BLOCK
  5
   18B
  8
0
  6
CONTINUOUS
 62
     3
  2
*UDIM690
 70
    65
 10
0.0
 20
0.0
 30
0.0
  3
*UDIM690
  0
TEXT
  5
   18C
  8
0
  6
CONTINUOUS
 62
     3
 10
-38.8694525613865
 20
-62.1132507256322
 30
0.0
 40
3.00000002980232
  1
60
 50
359.999999844103
 41
0.933333333333333
 72
     1
 11
-36.3694525324774
 21
-60.6132507175207
 31
0.0
 73
     2
  0
LINE
  5
   18D
  8
0
  6
CONTINUOUS
 62
     3
 10
-51.0944554050777
 20
-119.023803710938
 30
0.0
 11
-51.0944372260007
 21
-61.113250732422
 31
0.0
  0
LINE
  5
   18E
  8
0
  6
CONTINUOUS
 62
     3
 10
-21.094455349918
 20
-119.023803710938
 30
0.0
 11
-21.0944339765166
 21
-61.113250732422
 31
0.0
  0
LINE
  5
   18F
  8
0
  6
CONTINUOUS
 62
     3
 10
-51.0944378538337
 20
-63.1132507324219
 30
0.0
 11
-21.0944347146689
 21
-63.1132507324219
 31
0.0
  0
LINE
  5
   190
  8
0
  6
CONTINUOUS
 62
     3
 10
-48.1400145766267
 20
-62.5923063024702
 30
0.0
 11
-51.0944378538337
 21
-63.1132507324219
 31
0.0
  0
LINE
  5
   191
  8
0
  6
CONTINUOUS
 62
     3
 10
-51.0944378538337
 20
-63.1132507324219
 30
0.0
 11
-48.1400145766267
 21
-63.6341951623735
 31
0.0
  0
LINE
  5
   192
  8
0
  6
CONTINUOUS
 62
     3
 10
-24.0488579918758
 20
-63.6341951623735
 30
0.0
 11
-21.0944347146689
 21
-63.1132507324219
 31
0.0
  0
LINE
  5
   193
  8
0
  6
CONTINUOUS
 62
     3
 10
-21.0944347146689
 20
-63.1132507324219
 30
0.0
 11
-24.0488579918758
 21
-62.5923063024702
 31
0.0
  0
ENDBLK
  5
   194
  8
0
  6
CONTINUOUS
 62
     3
  0
BLOCK
  5
   195
  8
0
  6
CONTINUOUS
 62
     3
  2
*UDIM691
 70
    65
 10
0.0
 20
0.0
 30
0.0
  3
*UDIM691
  0
TEXT
  5
   196
  8
0
  6
CONTINUOUS
 62
     3
 10
-38.869452780538
 20
-70.9096412590794
 30
0.0
 40
3.00000002980232
  1
30
 50
359.999999844103
 41
0.933333333333333
 72
     1
 11
-36.3694527516289
 21
-69.409641250968
 31
0.0
 73
     2
  0
LINE
  5
   197
  8
0
  6
CONTINUOUS
 62
     3
 10
-43.5944554050777
 20
-91.7738037109376
 30
0.0
 11
-43.5944485415568
 21
-69.9096412658692
 31
0.0
  0
LINE
  5
   198
  8
0
  6
CONTINUOUS
 62
     3
 10
-28.5944554050777
 20
-91.7738037109376
 30
0.0
 11
-28.5944485415567
 21
-69.9096412658692
 31
0.0
  0
LINE
  5
   199
  8
0
  6
CONTINUOUS
 62
     3
 10
-43.5944491693897
 20
-71.9096412658691
 30
0.0
 11
-28.5944491693897
 21
-71.9096412658691
 31
0.0
  0
LINE
  5
   19A
  8
0
  6
CONTINUOUS
 62
     3
 10
-40.6400258921828
 20
-71.3886968359175
 30
0.0
 11
-43.5944491693897
 21
-71.9096412658691
 31
0.0
  0
LINE
  5
   19B
  8
0
  6
CONTINUOUS
 62
     3
 10
-43.5944491693897
 20
-71.9096412658691
 30
0.0
 11
-40.6400258921828
 21
-72.4305856958208
 31
0.0
  0
LINE
  5
   19C
  8
0
  6
CONTINUOUS
 62
     3
 10
-31.5488724465967
 20
-72.4305856958208
 30
0.0
 11
-28.5944491693897
 21
-71.9096412658691
 31
0.0
  0
LINE
  5
   19D
  8
0
  6
CONTINUOUS
 62
     3
 10
-28.5944491693897
 20
-71.9096412658691
 30
0.0
 11
-31.5488724465967
 21
-71.3886968359175
 31
0.0
  0
ENDBLK
  5
   19E
  8
0
  6
CONTINUOUS
 62
     3
  0
BLOCK
  5
   19F
  8
0
  6
CONTINUOUS
 62
     3
  2
*UDIM692
 70
    65
 10
0.0
 20
0.0
 30
0.0
  3
*UDIM692
  0
TEXT
  5
   1A0
  8
0
  6
CONTINUOUS
 62
     3
 10
288.386285061526
 20
-2.33896692007676
 30
0.0
 40
2.99999994039535
  1
53
 50
449.999999844103
 41
0.933333333333333
 72
     1
 11
286.886285098115
 21
0.161033034324646
 31
0.0
 73
     2
  0
LINE
  5
   1A1
  8
0
  6
CONTINUOUS
 62
     3
 10
265.434312045574
 20
16.3360338807106
 30
0.0
 11
291.386285068313
 21
16.3360338807106
 31
0.0
  0
LINE
  5
   1A2
  8
0
  6
CONTINUOUS
 62
     3
 10
265.434312045574
 20
-15.4639673829079
 30
0.0
 11
291.386285068313
 21
-15.4639673829079
 31
0.0
  0
LINE
  5
   1A3
  8
0
  6
CONTINUOUS
 62
     3
 10
289.386285068313
 20
16.3360338807106
 30
0.0
 11
289.386285068313
 21
-15.4639673829079
 31
0.0
  0
LINE
  5
   1A4
  8
0
  6
CONTINUOUS
 62
     3
 10
289.907229498265
 20
13.3816106035036
 30
0.0
 11
289.386285068313
 21
16.3360338807106
 31
0.0
  0
LINE
  5
   1A5
  8
0
  6
CONTINUOUS
 62
     3
 10
289.386285068313
 20
16.3360338807106
 30
0.0
 11
288.865340638361
 21
13.3816106035036
 31
0.0
  0
LINE
  5
   1A6
  8
0
  6
CONTINUOUS
 62
     3
 10
288.865340638361
 20
-12.5095441057009
 30
0.0
 11
289.386285068313
 21
-15.4639673829079
 31
0.0
  0
LINE
  5
   1A7
  8
0
  6
CONTINUOUS
 62
     3
 10
289.386285068313
 20
-15.4639673829079
 30
0.0
 11
289.907229498265
 21
-12.5095441057009
 31
0.0
  0
ENDBLK
  5
   1A8
  8
0
  6
CONTINUOUS
 62
     3
  0
BLOCK
  5
   1A9
  8
0
  6
CONTINUOUS
 62
     3
  2
*UDIM693
 70
    65
 10
0.0
 20
0.0
 30
0.0
  3
*UDIM693
  0
TEXT
  5
   1AA
  8
0
  6
CONTINUOUS
 62
     3
 10
191.747119537721
 20
-2.33896692007676
 30
0.0
 40
2.99999994039535
  1
64
 50
449.999999844103
 41
0.933333333333333
 72
     1
 11
190.24711957431
 21
0.161033034324646
 31
0.0
 73
     2
  0
LINE
  5
   1AB
  8
0
  6
CONTINUOUS
 62
     3
 10
208.284309774637
 20
19.6360340118408
 30
0.0
 11
190.747119544508
 21
19.6360340118408
 31
0.0
  0
LINE
  5
   1AC
  8
0
  6
CONTINUOUS
 62
     3
 10
208.284309774637
 20
-18.7639675140381
 30
0.0
 11
190.747119544508
 21
-18.7639675140381
 31
0.0
  0
LINE
  5
   1AD
  8
0
  6
CONTINUOUS
 62
     3
 10
192.747119544508
 20
19.6360340118408
 30
0.0
 11
192.747119544508
 21
-18.7639675140381
 31
0.0
  0
LINE
  5
   1AE
  8
0
  6
CONTINUOUS
 62
     3
 10
193.26806397446
 20
16.6816107346339
 30
0.0
 11
192.747119544508
 21
19.6360340118408
 31
0.0
  0
LINE
  5
   1AF
  8
0
  6
CONTINUOUS
 62
     3
 10
192.747119544508
 20
19.6360340118408
 30
0.0
 11
192.226175114556
 21
16.6816107346339
 31
0.0
  0
LINE
  5
   1B0
  8
0
  6
CONTINUOUS
 62
     3
 10
192.226175114556
 20
-15.8095442368311
 30
0.0
 11
192.747119544508
 21
-18.7639675140381
 31
0.0
  0
LINE
  5
   1B1
  8
0
  6
CONTINUOUS
 62
     3
 10
192.747119544508
 20
-18.7639675140381
 30
0.0
 11
193.26806397446
 21
-15.8095442368311
 31
0.0
  0
ENDBLK
  5
   1B2
  8
0
  6
CONTINUOUS
 62
     3
  0
BLOCK
  5
   1B3
  8
0
  6
CONTINUOUS
 62
     3
  2
*UDIM694
 70
    65
 10
0.0
 20
0.0
 30
0.0
  3
*UDIM694
  0
TEXT
  5
   1B4
  8
0
  6
CONTINUOUS
 62
     3
 10
237.995133207142
 20
-7.09066920104954
 30
0.0
 40
2.99999994039535
  1
98
 50
359.999999844103
 41
0.933333333333333
 72
     1
 11
240.495133161545
 21
-5.59066923764158
 31
0.0
 73
     2
  0
LINE
  5
   1B5
  8
0
  6
CONTINUOUS
 62
     3
 10
207.534309744835
 20
-8.09066920783926
 30
0.0
 11
266.334312081337
 21
-8.09066920783926
 31
0.0
  0
LINE
  5
   1B6
  8
0
  6
CONTINUOUS
 62
     3
 10
210.488733022042
 20
-7.56972477788759
 30
0.0
 11
207.534309744835
 21
-8.09066920783926
 31
0.0
  0
LINE
  5
   1B7
  8
0
  6
CONTINUOUS
 62
     3
 10
207.534309744835
 20
-8.09066920783926
 30
0.0
 11
210.488733022042
 21
-8.61161363779092
 31
0.0
  0
LINE
  5
   1B8
  8
0
  6
CONTINUOUS
 62
     3
 10
263.37988880413
 20
-8.61161363779092
 30
0.0
 11
266.334312081337
 21
-8.09066920783926
 31
0.0
  0
LINE
  5
   1B9
  8
0
  6
CONTINUOUS
 62
     3
 10
266.334312081337
 20
-8.09066920783926
 30
0.0
 11
263.37988880413
 21
-7.56972477788759
 31
0.0
  0
ENDBLK
  5
   1BA
  8
0
  6
CONTINUOUS
 62
     3
  0
BLOCK
  5
   1BB
  8
0
  6
CONTINUOUS
 62
     3
  2
*UDIM695
 70
    65
 10
0.0
 20
0.0
 30
0.0
  3
*UDIM695
  0
TEXT
  5
   1BC
  8
0
  6
CONTINUOUS
 62
     3
 10
254.912029364942
 20
5.47127082198844
 30
0.0
 40
2.99999994039535
  1
1,5
 50
407.397966829164
 41
0.933333333333333
 72
     1
 11
256.447837884559
 21
9.35730884255296
 31
0.0
 73
     2
  0
TEXT
  5
   1BD
  8
0
  6
CONTINUOUS
 62
     3
 10
253.05054877097
 20
3.44707003156504
 30
0.0
 40
2.99999994039535
  1
R
 50
407.397966829164
 41
0.933333333333333
 72
     1
 11
252.691031476121
 21
5.27210350446791
 31
0.0
 73
     2
  0
LINE
  5
   1BE
  8
0
  6
CONTINUOUS
 62
     3
 10
266.043523949023
 20
16.0984996335506
 30
0.0
 11
253.786621845124
 21
2.77016794449567
 31
0.0
  0
LINE
  5
   1BF
  8
0
  6
CONTINUOUS
 62
     3
 10
264.427121829148
 20
13.5711998517949
 30
0.0
 11
266.043523949023
 21
16.0984996335506
 31
0.0
  0
LINE
  5
   1C0
  8
0
  6
CONTINUOUS
 62
     3
 10
266.043523949023
 20
16.0984996335506
 30
0.0
 11
263.660215498275
 21
14.2764565965748
 31
0.0
  0
ENDBLK
  5
   1C1
  8
0
  6
CONTINUOUS
 62
     3
  0
BLOCK
  5
   1C2
  8
0
  6
CONTINUOUS
 62
     3
  2
*UDIM696
 70
    65
 10
0.0
 20
0.0
 30
0.0
  3
*UDIM696
  0
TEXT
  5
   1C3
  8
0
  6
CONTINUOUS
 62
     3
 10
215.888299205253
 20
28.6016381373656
 30
0.0
 40
2.99999994039535
  1
4
 50
404.818094863318
 41
0.933333333333333
 72
     1
 11
215.61129479281
 21
30.4410044461793
 31
0.0
 73
     2
  0
TEXT
  5
   1C4
  8
0
  6
CONTINUOUS
 62
     3
 10
213.653852397418
 20
26.3813345006956
 30
0.0
 40
2.99999994039535
  1
Ø
 50
404.818094863318
 41
0.933333333333333
 72
     1
 11
213.376847984975
 21
28.2207008095093
 31
0.0
 73
     2
  0
LINE
  5
   1C5
  8
0
  6
CONTINUOUS
 62
     3
 10
218.153723412526
 20
29.442978135626
 30
0.0
 11
207.433091942544
 21
18.7902040544807
 31
0.0
  0
LINE
  5
   1C6
  8
0
  6
CONTINUOUS
 62
     3
 10
210.864050348158
 20
22.9338446241749
 30
0.0
 11
209.13552760673
 21
20.481863969201
 31
0.0
  0
LINE
  5
   1C7
  8
0
  6
CONTINUOUS
 62
     3
 10
209.13552760673
 20
20.481863969201
 30
0.0
 11
211.598434327265
 21
22.1947826730353
 31
0.0
  0
LINE
  5
   1C8
  8
0
  6
CONTINUOUS
 62
     3
 10
205.704569201116
 20
16.3382233995068
 30
0.0
 11
207.433091942544
 21
18.7902040544807
 31
0.0
  0
LINE
  5
   1C9
  8
0
  6
CONTINUOUS
 62
     3
 10
207.433091942544
 20
18.7902040544807
 30
0.0
 11
204.97018522201
 21
17.0772853506464
 31
0.0
  0
ENDBLK
  5
   1CA
  8
0
  6
CONTINUOUS
 62
     3
  0
BLOCK
  5
   1CB
  8
0
  6
CONTINUOUS
 62
     3
  2
*UDIM697
 70
    65
 10
0.0
 20
0.0
 30
0.0
  3
*UDIM697
  0
TEXT
  5
   1CC
  8
0
  6
CONTINUOUS
 62
     3
 10
231.359310514628
 20
-37.4745578824817
 30
0.0
 40
2.99999994039535
  1
95,5
 50
359.999999844103
 41
0.933333333333333
 72
     1
 11
236.6593104134
 21
-35.9745579266783
 31
0.0
 73
     2
  0
LINE
  5
   1CD
  8
0
  6
CONTINUOUS
 62
     3
 10
208.284309774637
 20
18.6360340118408
 30
0.0
 11
208.284309774637
 21
-40.4745578968759
 31
0.0
  0
LINE
  5
   1CE
  8
0
  6
CONTINUOUS
 62
     3
 10
265.584312051535
 20
18.6360340118408
 30
0.0
 11
265.584312051535
 21
-40.4745578968759
 31
0.0
  0
LINE
  5
   1CF
  8
0
  6
CONTINUOUS
 62
     3
 10
208.284309774637
 20
-38.4745578968759
 30
0.0
 11
265.584312051535
 21
-38.4745578968759
 31
0.0
  0
LINE
  5
   1D0
  8
0
  6
CONTINUOUS
 62
     3
 10
211.238733051844
 20
-37.9536134669243
 30
0.0
 11
208.284309774637
 21
-38.4745578968759
 31
0.0
  0
LINE
  5
   1D1
  8
0
  6
CONTINUOUS
 62
     3
 10
208.284309774637
 20
-38.4745578968759
 30
0.0
 11
211.238733051844
 21
-38.9955023268276
 31
0.0
  0
LINE
  5
   1D2
  8
0
  6
CONTINUOUS
 62
     3
 10
262.629888774328
 20
-38.9955023268276
 30
0.0
 11
265.584312051535
 21
-38.4745578968759
 31
0.0
  0
LINE
  5
   1D3
  8
0
  6
CONTINUOUS
 62
     3
 10
265.584312051535
 20
-38.4745578968759
 30
0.0
 11
262.629888774328
 21
-37.9536134669243
 31
0.0
  0
ENDBLK
  5
   1D4
  8
0
  6
CONTINUOUS
 62
     3
  0
ENDSEC
  0
SECTION
  2
ENTITIES
  0
LINE
  5
   1D5
  8
0
  6
CONTINUOUS
 62
   130
 10
92.1758804321289
 20
-34.5639781951904
 30
0.0
 11
115.675880432129
 21
-34.5639781951904
 31
0.0
  0
LINE
  5
   1D6
  8
0
  6
CONTINUOUS
 62
   130
 10
92.1758875846863
 20
-4.45777581233282
 30
0.0
 11
92.1758875846863
 21
0.629355430603027
 31
0.0
  0
LINE
  5
   1D7
  8
0
  6
CONTINUOUS
 62
   130
 10
112.175880432129
 20
-34.5639781951904
 30
0.0
 11
112.175880432129
 21
-32.5639751434326
 31
0.0
  0
LINE
  5
   1D8
  8
0
  6
CONTINUOUS
 62
   130
 10
92.1758875846863
 20
0.629355430603028
 30
0.0
 11
92.4258875846863
 21
0.629355430603028
 31
0.0
  0
LINE
  5
   1D9
  8
0
  6
CONTINUOUS
 62
   130
 10
92.1758875846863
 20
-5.37064170837402
 30
0.0
 11
92.4258875846863
 21
-5.37064170837402
 31
0.0
  0
LINE
  5
   1DA
  8
0
  6
CONTINUOUS
 62
   130
 10
92.1758875846863
 20
13.8063569011139
 30
0.0
 11
92.1758875846863
 21
18.2426853179932
 31
0.0
  0
LINE
  5
   1DB
  8
0
  6
CONTINUOUS
 62
   130
 10
112.175880432129
 20
33.8703547267192
 30
0.0
 11
112.175880432129
 21
47.4360218048096
 31
0.0
  0
LINE
  5
   1DC
  8
0
  6
CONTINUOUS
 62
   130
 10
92.1758875846863
 20
12.2426881790161
 30
0.0
 11
92.4258875846863
 21
12.2426881790161
 31
0.0
  0
LINE
  5
   1DD
  8
0
  6
CONTINUOUS
 62
   130
 10
92.1758875846863
 20
18.2426853179932
 30
0.0
 11
92.4258875846863
 21
18.2426853179932
 31
0.0
  0
LINE
  5
   1DE
  8
0
  6
CONTINUOUS
 62
   130
 10
88.1758875846861
 20
37.436014175415
 30
0.0
 11
92.1758804321289
 21
37.436014175415
 31
0.0
  0
LINE
  5
   1DF
  8
0
  6
CONTINUOUS
 62
   130
 10
88.1758875846861
 20
-24.5639705657959
 30
0.0
 11
92.1758804321289
 21
-24.5639705657959
 31
0.0
  0
LINE
  5
   1E0
  8
0
  6
DASHDOT
 62
   130
 10
82.0618668048869
 20
15.2426867485046
 30
0.0
 11
95.549959002788
 21
15.2426867485046
 31
0.0
  0
LINE
  5
   1E1
  8
0
  6
DASHDOT
 62
   130
 10
83.4825470618076
 20
-2.3706431388855
 30
0.0
 11
96.1018570769729
 21
-2.3706431388855
 31
0.0
  0
LINE
  5
   1E2
  8
0
  6
CONTINUOUS
 62
   130
 10
88.1758875846861
 20
26.9598836718071
 30
0.0
 11
88.1758875846861
 21
37.4360139211019
 31
0.0
  0
LINE
  5
   1E3
  8
0
  6
CONTINUOUS
 62
   130
 10
88.1758875846861
 20
-15.5639705657959
 30
0.0
 11
88.1758875846861
 21
-13.5639703114828
 31
0.0
  0
LINE
  5
   1E4
  8
0
  6
CONTINUOUS
 62
   130
 10
112.175880432129
 20
-26.067250164668
 30
0.0
 11
112.175880432129
 21
35.486014175415
 31
0.0
  0
LINE
  5
   1E5
  8
0
  6
CONTINUOUS
 62
   130
 10
88.1758875846861
 20
26.436014175415
 30
0.0
 11
92.1758804321289
 21
26.436014175415
 31
0.0
  0
LINE
  5
   1E6
  8
0
  6
CONTINUOUS
 62
   130
 10
88.1758875846861
 20
-13.5639703114828
 30
0.0
 11
92.1758804321289
 21
-13.5639703114828
 31
0.0
  0
LINE
  5
   1E7
  8
0
  6
DASHDOT
 62
   130
 10
84.7589508832125
 20
42.4360218048096
 30
0.0
 11
114.09858153485
 21
42.4360218048096
 31
0.0
  0
LINE
  5
   1E8
  8
0
  6
DASHDOT
 62
   130
 10
84.4079283828938
 20
-29.5639781951904
 30
0.0
 11
113.045514033894
 21
-29.5639781951904
 31
0.0
  0
LINE
  5
   1E9
  8
0
  6
CONTINUOUS
 62
   130
 10
87.1758875846862
 20
45.4360218048096
 30
0.0
 11
91.4258804321289
 21
45.4360218048096
 31
0.0
  0
LINE
  5
   1EA
  8
0
  6
CONTINUOUS
 62
   130
 10
87.1758875846862
 20
39.4360218048096
 30
0.0
 11
91.4258804321289
 21
39.4360218048096
 31
0.0
  0
LINE
  5
   1EB
  8
0
  6
CONTINUOUS
 62
   130
 10
87.1758875846862
 20
-26.5639781951904
 30
0.0
 11
91.4258804321289
 21
-26.5639781951904
 31
0.0
  0
LINE
  5
   1EC
  8
0
  6
CONTINUOUS
 62
   130
 10
87.1758875846862
 20
-32.5639781951904
 30
0.0
 11
91.4258804321289
 21
-32.5639781951904
 31
0.0
  0
LINE
  5
   1ED
  8
0
  6
CONTINUOUS
 62
   130
 10
87.1758875846862
 20
39.4360218048096
 30
0.0
 11
87.1758875846862
 21
45.4360218048096
 31
0.0
  0
LINE
  5
   1EE
  8
0
  6
CONTINUOUS
 62
   130
 10
87.1758875846862
 20
-32.5639781951904
 30
0.0
 11
87.1758875846862
 21
-26.5639781951904
 31
0.0
  0
LINE
  5
   1EF
  8
0
  6
CONTINUOUS
 62
   130
 10
92.1758804321289
 20
22.436012828391
 30
0.0
 11
92.1758804321289
 21
26.436014175415
 31
0.0
  0
LINE
  5
   1F0
  8
0
  6
CONTINUOUS
 62
   130
 10
92.1758804321289
 20
-26.9109297903315
 30
0.0
 11
92.1758804321289
 21
-9.56397031148276
 31
0.0
  0
LINE
  5
   1F1
  8
0
  6
CONTINUOUS
 62
   130
 10
92.4258875846863
 20
18.2426853179932
 30
0.0
 11
92.4258875846863
 21
22.436012828391
 31
0.0
  0
LINE
  5
   1F2
  8
0
  6
CONTINUOUS
 62
   130
 10
92.1758804321289
 20
24.2789100624938
 30
0.0
 11
92.1758804321289
 21
47.4360218048096
 31
0.0
  0
ARC
  5
   1F3
  8
0
  6
CONTINUOUS
 62
   130
 10
91.4258804321289
 20
46.1860218048096
 30
0.0
 40
0.75
 50
270.0
 51
360.0
  0
ARC
  5
   1F4
  8
0
  6
CONTINUOUS
 62
   130
 10
91.4258804321289
 20
38.6860218048096
 30
0.0
 40
0.75
 50
360.0
 51
450.0
  0
LINE
  5
   1F5
  8
0
  6
CONTINUOUS
 62
   130
 10
92.1758804321289
 20
-34.5639781951904
 30
0.0
 11
92.1758804321289
 21
-24.5639705657959
 31
0.0
  0
ARC
  5
   1F6
  8
0
  6
CONTINUOUS
 62
   130
 10
91.4258804321289
 20
-25.8139781951904
 30
0.0
 40
0.75
 50
270.0
 51
360.0
  0
ARC
  5
   1F7
  8
0
  6
CONTINUOUS
 62
   130
 10
91.4258804321289
 20
-33.3139781951904
 30
0.0
 40
0.75
 50
360.0
 51
450.0
  0
LINE
  5
   1F8
  8
0
  6
CONTINUOUS
 62
   130
 10
88.1758875846861
 20
26.436014175415
 30
0.0
 11
88.1758875846861
 21
28.436014175415
 31
0.0
  0
LINE
  5
   1F9
  8
0
  6
CONTINUOUS
 62
   130
 10
88.1758875846861
 20
-24.563970820109
 30
0.0
 11
88.1758875846861
 21
-15.433011525459
 31
0.0
  0
LINE
  5
   1FA
  8
0
  6
CONTINUOUS
 62
   130
 10
112.175880432129
 20
47.4360218048096
 30
0.0
 11
113.175880432129
 21
47.4360218048096
 31
0.0
  0
LINE
  5
   1FB
  8
0
  6
CONTINUOUS
 62
   130
 10
112.175880432129
 20
-34.5639781951904
 30
0.0
 11
113.175880432129
 21
-34.5639781951904
 31
0.0
  0
LINE
  5
   1FC
  8
0
  6
DASHDOT
 62
   130
 10
111.575880432129
 20
23.886014175415
 30
0.0
 11
111.825880432129
 21
23.886014175415
 31
0.0
  0
LINE
  5
   1FD
  8
0
  6
CONTINUOUS
 62
   130
 10
92.4258875846863
 20
0.629355430603028
 30
0.0
 11
92.4258875846863
 21
12.2426881790161
 31
0.0
  0
LINE
  5
   1FE
  8
0
  6
CONTINUOUS
 62
   130
 10
92.4258875846863
 20
-9.56397031148276
 30
0.0
 11
92.4258875846863
 21
-5.37064170837402
 31
0.0
  0
LINE
  5
   1FF
  8
0
  6
DASHDOT
 62
   130
 10
86.0449790312443
 20
-19.0689110565186
 30
0.0
 11
106.036246821041
 21
-19.0689110565186
 31
0.0
  0
LINE
  5
   200
  8
0
  6
DASHDOT
 62
   130
 10
82.3696651927584
 20
31.936014175415
 30
0.0
 11
114.204484431717
 21
31.936014175415
 31
0.0
  0
LINE
  5
   201
  8
0
  6
CONTINUOUS
 62
   130
 10
112.175880432129
 20
-33.4271512804013
 30
0.0
 11
112.175880432129
 21
-24.2299561810182
 31
0.0
  0
LINE
  5
   202
  8
0
  6
CONTINUOUS
 62
   130
 10
91.1758875846863
 20
12.7926867485046
 30
0.0
 11
91.1758875846863
 21
17.6926867485046
 31
0.0
  0
LINE
  5
   203
  8
0
  6
CONTINUOUS
 62
   130
 10
90.7758875846863
 20
12.7926867485046
 30
0.0
 11
90.7758875846863
 21
17.6926867485046
 31
0.0
  0
LINE
  5
   204
  8
0
  6
CONTINUOUS
 62
   130
 10
89.2758875846863
 20
13.2926867485046
 30
0.0
 11
89.2758875846863
 21
17.1926867485046
 31
0.0
  0
LINE
  5
   205
  8
0
  6
CONTINUOUS
 62
   130
 10
87.4258804321289
 20
16.2426867485046
 30
0.0
 11
89.2758875846863
 21
16.2426867485046
 31
0.0
  0
LINE
  5
   206
  8
0
  6
CONTINUOUS
 62
   130
 10
87.4258804321289
 20
14.2426867485046
 30
0.0
 11
89.2758875846863
 21
14.2426867485046
 31
0.0
  0
LINE
  5
   207
  8
0
  6
CONTINUOUS
 62
   130
 10
92.1758875846863
 20
12.2426881790161
 30
0.0
 11
92.1758875846863
 21
14.2426867485046
 31
0.0
  0
LINE
  5
   208
  8
0
  6
CONTINUOUS
 62
   130
 10
89.2758875846863
 20
17.1926867485046
 30
0.0
 11
90.7758875846863
 21
17.1926867485046
 31
0.0
  0
LINE
  5
   209
  8
0
  6
CONTINUOUS
 62
   130
 10
89.2758875846863
 20
13.2926867485046
 30
0.0
 11
90.7758875846863
 21
13.2926867485046
 31
0.0
  0
LINE
  5
   20A
  8
0
  6
CONTINUOUS
 62
   130
 10
90.7758875846863
 20
17.6926867485046
 30
0.0
 11
91.1758875846863
 21
17.6926867485046
 31
0.0
  0
LINE
  5
   20B
  8
0
  6
CONTINUOUS
 62
   130
 10
90.7758875846863
 20
12.7926867485046
 30
0.0
 11
91.1758875846863
 21
12.7926867485046
 31
0.0
  0
LINE
  5
   20C
  8
0
  6
CONTINUOUS
 62
   130
 10
89.2758875846863
 20
16.2426867485046
 30
0.0
 11
90.7758875846863
 21
16.2426867485046
 31
0.0
  0
LINE
  5
   20D
  8
0
  6
CONTINUOUS
 62
   130
 10
89.2758875846863
 20
14.2426867485046
 30
0.0
 11
90.7758875846863
 21
14.2426867485046
 31
0.0
  0
LINE
  5
   20E
  8
0
  6
CONTINUOUS
 62
   130
 10
87.1758804321289
 20
14.4926867485046
 30
0.0
 11
87.1758804321289
 21
15.9926867485046
 31
0.0
  0
LINE
  5
   20F
  8
0
  6
CONTINUOUS
 62
   130
 10
87.1758804321289
 20
15.9926867485046
 30
0.0
 11
87.4258804321289
 21
16.2426867485046
 31
0.0
  0
LINE
  5
   210
  8
0
  6
CONTINUOUS
 62
   130
 10
87.1758804321289
 20
14.4926867485046
 30
0.0
 11
87.4258804321289
 21
14.2426867485046
 31
0.0
  0
LINE
  5
   211
  8
0
  6
CONTINUOUS
 62
   130
 10
87.4258804321289
 20
14.2426867485046
 30
0.0
 11
87.4258804321289
 21
16.2426867485046
 31
0.0
  0
LINE
  5
   212
  8
0
  6
CONTINUOUS
 62
   130
 10
89.2758875846863
 20
-3.3706431388855
 30
0.0
 11
90.7758875846863
 21
-3.3706431388855
 31
0.0
  0
LINE
  5
   213
  8
0
  6
CONTINUOUS
 62
   130
 10
89.2758875846863
 20
-1.3706431388855
 30
0.0
 11
90.7758875846863
 21
-1.3706431388855
 31
0.0
  0
LINE
  5
   214
  8
0
  6
CONTINUOUS
 62
   130
 10
89.2758875846863
 20
-4.3206431388855
 30
0.0
 11
90.7758875846863
 21
-4.3206431388855
 31
0.0
  0
LINE
  5
   215
  8
0
  6
CONTINUOUS
 62
   130
 10
89.2758875846863
 20
-0.420643138885497
 30
0.0
 11
90.7758875846863
 21
-0.420643138885497
 31
0.0
  0
LINE
  5
   216
  8
0
  6
CONTINUOUS
 62
   130
 10
87.4258804321289
 20
-3.3706431388855
 30
0.0
 11
89.2758875846863
 21
-3.3706431388855
 31
0.0
  0
LINE
  5
   217
  8
0
  6
CONTINUOUS
 62
   130
 10
87.4258804321289
 20
-1.3706431388855
 30
0.0
 11
89.2758875846863
 21
-1.3706431388855
 31
0.0
  0
LINE
  5
   218
  8
0
  6
CONTINUOUS
 62
   130
 10
91.1758875846863
 20
-4.8206431388855
 30
0.0
 11
91.1758875846863
 21
7.93568611145035E-2
 31
0.0
  0
LINE
  5
   219
  8
0
  6
CONTINUOUS
 62
   130
 10
90.7758875846863
 20
-4.8206431388855
 30
0.0
 11
90.7758875846863
 21
7.93568611145035E-2
 31
0.0
  0
LINE
  5
   21A
  8
0
  6
CONTINUOUS
 62
   130
 10
90.7758875846863
 20
-4.8206431388855
 30
0.0
 11
91.1758875846863
 21
-4.8206431388855
 31
0.0
  0
LINE
  5
   21B
  8
0
  6
CONTINUOUS
 62
   130
 10
90.7758875846863
 20
7.93568611145035E-2
 30
0.0
 11
91.1758875846863
 21
7.93568611145035E-2
 31
0.0
  0
LINE
  5
   21C
  8
0
  6
CONTINUOUS
 62
   130
 10
89.2758875846863
 20
-4.3206431388855
 30
0.0
 11
89.2758875846863
 21
-0.420643138885497
 31
0.0
  0
LINE
  5
   21D
  8
0
  6
CONTINUOUS
 62
   130
 10
87.4258804321289
 20
-3.3706431388855
 30
0.0
 11
87.4258804321289
 21
-1.3706431388855
 31
0.0
  0
LINE
  5
   21E
  8
0
  6
CONTINUOUS
 62
   130
 10
87.1758804321289
 20
-3.1206431388855
 30
0.0
 11
87.1758804321289
 21
-1.6206431388855
 31
0.0
  0
LINE
  5
   21F
  8
0
  6
CONTINUOUS
 62
   130
 10
87.4258804321289
 20
-3.3706431388855
 30
0.0
 11
87.4258804321289
 21
-1.3706431388855
 31
0.0
  0
LINE
  5
   220
  8
0
  6
CONTINUOUS
 62
   130
 10
87.4258804321289
 20
-3.3706431388855
 30
0.0
 11
87.4258804321289
 21
-1.3706431388855
 31
0.0
  0
LINE
  5
   221
  8
0
  6
CONTINUOUS
 62
   130
 10
87.1758804321289
 20
-3.1206431388855
 30
0.0
 11
87.4258804321289
 21
-3.37064313888549
 31
0.0
  0
LINE
  5
   222
  8
0
  6
CONTINUOUS
 62
   130
 10
87.1758804321289
 20
-3.1206431388855
 30
0.0
 11
87.4258804321289
 21
-3.37064313888549
 31
0.0
  0
LINE
  5
   223
  8
0
  6
CONTINUOUS
 62
   130
 10
87.1758804321289
 20
-1.62064313888549
 30
0.0
 11
87.4258804321289
 21
-1.37064313888549
 31
0.0
  0
LINE
  5
   224
  8
0
  6
CONTINUOUS
 62
   130
 10
87.4258804321289
 20
-3.1206431388855
 30
0.0
 11
89.2758875846863
 21
-3.1206431388855
 31
0.0
  0
LINE
  5
   225
  8
0
  6
CONTINUOUS
 62
   130
 10
87.4258804321289
 20
-1.6206431388855
 30
0.0
 11
89.2758875846863
 21
-1.6206431388855
 31
0.0
  0
LINE
  5
   226
  8
0
  6
CONTINUOUS
 62
   130
 10
92.1758875846863
 20
-5.37064170837402
 30
0.0
 11
92.1758875846863
 21
-3.3706431388855
 31
0.0
  0
LINE
  5
   227
  8
0
  6
CONTINUOUS
 62
   130
 10
87.4258804321289
 20
14.4926867485046
 30
0.0
 11
89.2758875846863
 21
14.4926867485046
 31
0.0
  0
LINE
  5
   228
  8
0
  6
CONTINUOUS
 62
   130
 10
87.4258804321289
 20
15.9926867485046
 30
0.0
 11
89.2758875846863
 21
15.9926867485046
 31
0.0
  0
LINE
  5
   229
  8
0
  6
DOT
 62
   130
 10
87.1758875846861
 20
21.6029459930468
 30
0.0
 11
87.1758875846861
 21
49.6807605172001
 31
0.0
  0
LINE
  5
   22A
  8
0
  6
CONTINUOUS
 62
   130
 10
86.1758875846861
 20
-35.7356396735914
 30
0.0
 11
86.1758875846861
 21
49.922215924656
 31
0.0
  0
LINE
  5
   22B
  8
0
  6
DOT
 62
   130
 10
87.1758875846861
 20
-36.808716907581
 30
0.0
 11
87.1758875846861
 21
-8.73090238342771
 31
0.0
  0
LINE
  5
   22C
  8
0
  6
DASHDOT
 62
   130
 10
150.42586517334
 20
12.1810736846924
 30
0.0
 11
150.42586517334
 21
43.4082476522768
 31
0.0
  0
LINE
  5
   22D
  8
0
  6
DASHDOT
 62
   130
 10
87.1758875846861
 20
47.0905312176589
 30
0.0
 11
87.1758875846861
 21
62.1243222242466
 31
0.0
  0
LINE
  5
   22E
  8
0
  6
CONTINUOUS
 62
   130
 10
92.1758804321289
 20
47.4360218048096
 30
0.0
 11
115.675880432129
 21
47.4360218048096
 31
0.0
  0
LINE
  5
   22F
  8
0
  6
CONTINUOUS
 62
   130
 10
113.175879700979
 20
25.6860256195068
 30
0.0
 11
114.425879700979
 21
24.4360256195068
 31
0.0
  0
LINE
  5
   230
  8
0
  6
CONTINUOUS
 62
   130
 10
112.175879700979
 20
25.6860256195068
 30
0.0
 11
112.175879700979
 21
36.4360179901123
 31
0.0
  0
LINE
  5
   231
  8
0
  6
CONTINUOUS
 62
   130
 10
150.675872921944
 20
-2.42379462331527
 30
0.0
 11
159.273690119801
 21
-5.02190859226598
 31
0.0
  0
LINE
  5
   232
  8
0
  6
CONTINUOUS
 62
   130
 10
159.273717185026
 20
-5.02191671229447
 30
0.0
 11
159.380803777035
 21
-5.08711863688184
 31
0.0
  0
LINE
  5
   233
  8
0
  6
CONTINUOUS
 62
   130
 10
159.380784719872
 20
-5.08711161576975
 30
0.0
 11
159.44275378069
 21
-5.19610449526518
 31
0.0
  0
LINE
  5
   234
  8
0
  6
CONTINUOUS
 62
   130
 10
159.442764095792
 20
-5.19611080771398
 30
0.0
 11
159.444026894009
 21
-5.32148099785665
 31
0.0
  0
LINE
  5
   235
  8
0
  6
CONTINUOUS
 62
   130
 10
159.079560692363
 20
-6.78911026819701
 30
0.0
 11
159.444022263492
 21
-5.3214768111312
 31
0.0
  0
LINE
  5
   236
  8
0
  6
CONTINUOUS
 62
   130
 10
159.016932046624
 20
-6.9023511864391
 30
0.0
 11
159.079563773955
 21
-6.78910784979238
 31
0.0
  0
LINE
  5
   237
  8
0
  6
CONTINUOUS
 62
   130
 10
158.906071885626
 20
-6.96911029137397
 30
0.0
 11
159.016935251745
 21
-6.9023551295129
 31
0.0
  0
LINE
  5
   238
  8
0
  6
CONTINUOUS
 62
   130
 10
158.776695819334
 20
-6.97149070088115
 30
0.0
 11
158.906083468671
 21
-6.96911029901801
 31
0.0
  0
LINE
  5
   239
  8
0
  6
CONTINUOUS
 62
   130
 10
150.675872921944
 20
-4.9598364448889
 30
0.0
 11
158.776683007809
 21
-6.97149015563124
 31
0.0
  0
LINE
  5
   23A
  8
0
  6
CONTINUOUS
 62
   130
 10
114.425879700979
 20
-1.91397438049317
 30
0.0
 11
114.425879700979
 21
24.4360256195068
 31
0.0
  0
LINE
  5
   23B
  8
0
  6
CONTINUOUS
 62
   130
 10
113.175879700979
 20
-3.16397438049317
 30
0.0
 11
114.425879700979
 21
-1.91397438049317
 31
0.0
  0
LINE
  5
   23C
  8
0
  6
CONTINUOUS
 62
   130
 10
112.175879700979
 20
-23.5639743804932
 30
0.0
 11
112.175879700979
 21
-3.16397438049317
 31
0.0
  0
LINE
  5
   23D
  8
0
  6
CONTINUOUS
 62
   130
 10
112.175879478455
 20
-22.0639743208303
 30
0.0
 11
112.175879478455
 21
36.4360179901123
 31
0.0
  0
LINE
  5
   23E
  8
0
  6
CONTINUOUS
 62
   130
 10
148.175865292549
 20
-15.0639743804932
 30
0.0
 11
148.175865292549
 21
-10.8139667510986
 31
0.0
  0
LINE
  5
   23F
  8
0
  6
CONTINUOUS
 62
   130
 10
148.175865130221
 20
-10.8139667510986
 30
0.0
 11
150.675872921944
 21
-10.8139667510986
 31
0.0
  0
LINE
  5
   240
  8
0
  6
CONTINUOUS
 62
   130
 10
148.175872759616
 20
11.6860332489014
 30
0.0
 11
150.675872921944
 21
11.6860332489014
 31
0.0
  0
LINE
  5
   241
  8
0
  6
CONTINUOUS
 62
   130
 10
148.175872921944
 20
11.6860332489014
 30
0.0
 11
148.175872921944
 21
27.9360256195068
 31
0.0
  0
LINE
  5
   242
  8
0
  6
CONTINUOUS
 62
   130
 10
150.675872921944
 20
-10.8139667510986
 30
0.0
 11
150.675872921944
 21
11.6860332489014
 31
0.0
  0
LINE
  5
   243
  8
0
  6
CONTINUOUS
 62
   130
 10
147.675865292549
 20
-16.3139743804932
 30
0.0
 11
147.675865292549
 21
-15.5639743804932
 31
0.0
  0
LINE
  5
   244
  8
0
  6
CONTINUOUS
 62
   130
 10
144.925865292549
 20
-16.3139743804932
 30
0.0
 11
146.925865292549
 21
-16.3139743804932
 31
0.0
  0
LINE
  5
   245
  8
0
  6
CONTINUOUS
 62
   130
 10
144.925865292549
 20
-15.5639743804932
 30
0.0
 11
147.675865292549
 21
-15.5639743804932
 31
0.0
  0
LINE
  5
   246
  8
0
  6
CONTINUOUS
 62
   130
 10
144.925865292549
 20
28.4360256195068
 30
0.0
 11
147.675872921944
 21
28.4360256195068
 31
0.0
  0
LINE
  5
   247
  8
0
  6
CONTINUOUS
 62
   130
 10
147.675865292549
 20
28.4360256195068
 30
0.0
 11
147.675865292549
 21
29.1860256195068
 31
0.0
  0
LINE
  5
   248
  8
0
  6
CONTINUOUS
 62
   130
 10
144.925865292549
 20
29.1860256195068
 30
0.0
 11
146.925865292549
 21
29.1860256195068
 31
0.0
  0
LINE
  5
   249
  8
0
  6
CONTINUOUS
 62
   130
 10
113.92587711457
 20
-2.41397696690192
 30
0.0
 11
135.925869791123
 21
-2.41397696690192
 31
0.0
  0
LINE
  5
   24A
  8
0
  6
CONTINUOUS
 62
   130
 10
144.925865292549
 20
28.4360256195068
 30
0.0
 11
144.925865292549
 21
33.9360247797354
 31
0.0
  0
LINE
  5
   24B
  8
0
  6
CONTINUOUS
 62
   130
 10
113.175879700979
 20
34.4360247797354
 30
0.0
 11
144.425865292549
 21
34.4360247797354
 31
0.0
  0
ARC
  5
   24C
  8
0
  6
CONTINUOUS
 62
   130
 10
144.425865292549
 20
33.9360247797354
 30
0.0
 40
0.5
 50
0.0
 51
90.0
  0
ARC
  5
   24D
  8
0
  6
CONTINUOUS
 62
   130
 10
147.675872921944
 20
27.9360256195068
 30
0.0
 40
0.5
 50
0.0
 51
90.0
  0
LINE
  5
   24E
  8
0
  6
CONTINUOUS
 62
   130
 10
144.925865292549
 20
-21.0639735407217
 30
0.0
 11
144.925865292549
 21
-15.5639743804932
 31
0.0
  0
ARC
  5
   24F
  8
0
  6
CONTINUOUS
 62
   130
 10
147.675865292549
 20
-15.0639743804932
 30
0.0
 40
0.5
 50
270.0
 51
360.0
  0
LINE
  5
   250
  8
0
  6
CONTINUOUS
 62
   130
 10
112.175879478455
 20
-21.5639735407217
 30
0.0
 11
144.425865292549
 21
-21.5639735407217
 31
0.0
  0
LINE
  5
   251
  8
0
  6
CONTINUOUS
 62
   130
 10
114.425879700979
 20
2.58602303309808
 30
0.0
 11
135.925869791123
 21
2.58602303309808
 31
0.0
  0
LINE
  5
   252
  8
0
  6
CONTINUOUS
 62
   130
 10
146.175872921944
 20
29.1860256195068
 30
0.0
 11
148.175872921944
 21
29.1860256195068
 31
0.0
  0
LINE
  5
   253
  8
0
  6
CONTINUOUS
 62
   130
 10
146.175872921944
 20
-16.3139743804932
 30
0.0
 11
148.175872921944
 21
-16.3139743804932
 31
0.0
  0
LINE
  5
   254
  8
0
  6
CONTINUOUS
 62
   130
 10
135.925869791123
 20
-22.5639820098877
 30
0.0
 11
135.925869791123
 21
35.4360256195068
 31
0.0
  0
LINE
  5
   255
  8
0
  6
CONTINUOUS
 62
   130
 10
116.175880432129
 20
37.9360256195068
 30
0.0
 11
116.175880432129
 21
46.9360218048096
 31
0.0
  0
ARC
  5
   256
  8
0
  6
CONTINUOUS
 62
   130
 10
115.675880432129
 20
46.9360218048096
 30
0.0
 40
0.5
 50
0.0
 51
90.0
  0
ARC
  5
   257
  8
0
  6
CONTINUOUS
 62
   130
 10
115.675880432129
 20
-34.0639781951904
 30
0.0
 40
0.5
 50
270.0
 51
360.0
  0
ARC
  5
   258
  8
0
  6
CONTINUOUS
 62
   130
 10
144.425865292549
 20
-21.0639735407217
 30
0.0
 40
0.5
 50
270.0
 51
360.0
  0
LINE
  5
   259
  8
0
  6
CONTINUOUS
 62
   130
 10
113.175879700979
 20
-25.0639820098877
 30
0.0
 11
113.175879700979
 21
37.9360256195068
 31
0.0
  0
LINE
  5
   25A
  8
0
  6
CONTINUOUS
 62
   130
 10
113.175879700979
 20
37.4360256195068
 30
0.0
 11
116.175880432129
 21
37.4360256195068
 31
0.0
  0
LINE
  5
   25B
  8
0
  6
CONTINUOUS
 62
   130
 10
113.175879700979
 20
37.4360256195068
 30
0.0
 11
147.675872921944
 21
37.4360256195068
 31
0.0
  0
LINE
  5
   25C
  8
0
  6
CONTINUOUS
 62
   130
 10
148.175872921944
 20
29.1860256195068
 30
0.0
 11
148.175872921944
 21
36.9360256195068
 31
0.0
  0
ARC
  5
   25D
  8
0
  6
CONTINUOUS
 62
   130
 10
147.675872921944
 20
36.9360256195068
 30
0.0
 40
0.5
 50
0.0
 51
90.0
  0
LINE
  5
   25E
  8
0
  6
CONTINUOUS
 62
   130
 10
113.175879700979
 20
35.4360256195068
 30
0.0
 11
146.175872921944
 21
35.4360256195068
 31
0.0
  0
LINE
  5
   25F
  8
0
  6
CONTINUOUS
 62
   130
 10
146.175872921944
 20
29.1860256195068
 30
0.0
 11
146.175872921944
 21
35.4360256195068
 31
0.0
  0
LINE
  5
   260
  8
0
  6
CONTINUOUS
 62
   130
 10
113.175879700979
 20
37.9360256195068
 30
0.0
 11
116.175880432129
 21
37.9360256195068
 31
0.0
  0
LINE
  5
   261
  8
0
  6
CONTINUOUS
 62
   130
 10
113.175879700979
 20
-24.5639820098877
 30
0.0
 11
147.675872921944
 21
-24.5639820098877
 31
0.0
  0
LINE
  5
   262
  8
0
  6
CONTINUOUS
 62
   130
 10
116.175880432129
 20
-34.0639781951904
 30
0.0
 11
116.175880432129
 21
-25.0639820098877
 31
0.0
  0
LINE
  5
   263
  8
0
  6
CONTINUOUS
 62
   130
 10
113.175879700979
 20
-25.0639820098877
 30
0.0
 11
116.175880432129
 21
-25.0639820098877
 31
0.0
  0
ARC
  5
   264
  8
0
  6
CONTINUOUS
 62
   130
 10
147.675872921944
 20
-24.0639820098877
 30
0.0
 40
0.5
 50
270.0
 51
360.0
  0
LINE
  5
   265
  8
0
  6
CONTINUOUS
 62
   130
 10
148.175872921944
 20
-24.0639820098877
 30
0.0
 11
148.175872921944
 21
-16.3139820098877
 31
0.0
  0
LINE
  5
   266
  8
0
  6
CONTINUOUS
 62
   130
 10
146.175872921944
 20
-22.5639820098877
 30
0.0
 11
146.175872921944
 21
-16.3139820098877
 31
0.0
  0
LINE
  5
   267
  8
0
  6
CONTINUOUS
 62
   130
 10
113.175879700979
 20
-22.5639820098877
 30
0.0
 11
146.175872921944
 21
-22.5639820098877
 31
0.0
  0
LINE
  5
   268
  8
0
  6
DASHDOT
 62
   130
 10
78.0929017966539
 20
0.436033248901392
 30
0.0
 11
171.408535225027
 21
0.436033248901392
 31
0.0
  0
LINE
  5
   269
  8
0
  6
DASHDOT
 62
   130
 10
139.319560853311
 20
31.4310758479898
 30
0.0
 11
146.418304491542
 21
31.431081548949
 31
0.0
  0
LINE
  5
   26A
  8
0
  6
CONTINUOUS
 62
   130
 10
62.4258875846863
 20
27.936014175415
 30
0.0
 11
62.4258875846863
 21
36.3020619384056
 31
0.0
  0
LINE
  5
   26B
  8
0
  6
CONTINUOUS
 62
   130
 10
80.4258875846863
 20
26.436014175415
 30
0.0
 11
87.6758875846863
 21
26.436014175415
 31
0.0
  0
LINE
  5
   26C
  8
0
  6
CONTINUOUS
 62
   130
 10
49.1758875846863
 20
30.436014175415
 30
0.0
 11
49.1758875846863
 21
33.436014175415
 31
0.0
  0
LINE
  5
   26D
  8
0
  6
CONTINUOUS
 62
   130
 10
49.6758875846863
 20
29.936014175415
 30
0.0
 11
52.1758875846863
 21
29.936014175415
 31
0.0
  0
LINE
  5
   26E
  8
0
  6
CONTINUOUS
 62
   130
 10
49.6758875846863
 20
33.936014175415
 30
0.0
 11
52.1758875846863
 21
33.936014175415
 31
0.0
  0
LINE
  5
   26F
  8
0
  6
CONTINUOUS
 62
   130
 10
49.1758875846863
 20
30.436014175415
 30
0.0
 11
49.6758875846863
 21
29.936014175415
 31
0.0
  0
LINE
  5
   270
  8
0
  6
CONTINUOUS
 62
   130
 10
49.1758875846863
 20
33.4360141754151
 30
0.0
 11
49.6758875846863
 21
33.9360141754151
 31
0.0
  0
LINE
  5
   271
  8
0
  6
CONTINUOUS
 62
   130
 10
52.9258875846863
 20
33.436014175415
 30
0.0
 11
56.6758875846863
 21
33.436014175415
 31
0.0
  0
LINE
  5
   272
  8
0
  6
CONTINUOUS
 62
   130
 10
49.6758875846863
 20
29.936014175415
 30
0.0
 11
49.6758875846863
 21
33.936014175415
 31
0.0
  0
LINE
  5
   273
  8
0
  6
CONTINUOUS
 62
   130
 10
80.4258875846863
 20
33.985998916626
 30
0.0
 11
80.4258875846863
 21
37.485998916626
 31
0.0
  0
LINE
  5
   274
  8
0
  6
CONTINUOUS
 62
   130
 10
80.4258875846863
 20
26.485998916626
 30
0.0
 11
80.4258875846863
 21
29.985998916626
 31
0.0
  0
LINE
  5
   275
  8
0
  6
CONTINUOUS
 62
   130
 10
59.9258875846863
 20
28.436014175415
 30
0.0
 11
59.9258875846863
 21
35.436014175415
 31
0.0
  0
LINE
  5
   276
  8
0
  6
CONTINUOUS
 62
   130
 10
57.4258875846863
 20
27.936014175415
 30
0.0
 11
57.4258875846863
 21
35.936014175415
 31
0.0
  0
LINE
  5
   277
  8
0
  6
CONTINUOUS
 62
   130
 10
57.4258875846863
 20
28.436014175415
 30
0.0
 11
62.2758875846863
 21
28.436014175415
 31
0.0
  0
LINE
  5
   278
  8
0
  6
CONTINUOUS
 62
   130
 10
57.4258875846863
 20
35.436014175415
 30
0.0
 11
62.2758875846863
 21
35.436014175415
 31
0.0
  0
LINE
  5
   279
  8
0
  6
CONTINUOUS
 62
   130
 10
56.6758875846863
 20
27.936014175415
 30
0.0
 11
56.6758875846863
 21
35.936014175415
 31
0.0
  0
LINE
  5
   27A
  8
0
  6
CONTINUOUS
 62
   130
 10
56.6758875846863
 20
27.936014175415
 30
0.0
 11
57.4258875846863
 21
27.936014175415
 31
0.0
  0
LINE
  5
   27B
  8
0
  6
CONTINUOUS
 62
   130
 10
56.6758875846863
 20
35.936014175415
 30
0.0
 11
57.4258875846863
 21
35.936014175415
 31
0.0
  0
LINE
  5
   27C
  8
0
  6
CONTINUOUS
 62
   130
 10
49.6758875846863
 20
28.436014175415
 30
0.0
 11
49.6758875846863
 21
35.436014175415
 31
0.0
  0
LINE
  5
   27D
  8
0
  6
CONTINUOUS
 62
   130
 10
52.1758875846863
 20
27.936014175415
 30
0.0
 11
52.1758875846863
 21
35.936014175415
 31
0.0
  0
LINE
  5
   27E
  8
0
  6
CONTINUOUS
 62
   130
 10
52.9258875846863
 20
27.936014175415
 30
0.0
 11
52.9258875846863
 21
35.936014175415
 31
0.0
  0
LINE
  5
   27F
  8
0
  6
CONTINUOUS
 62
   130
 10
49.6758875846863
 20
28.436014175415
 30
0.0
 11
52.1758875846863
 21
28.436014175415
 31
0.0
  0
LINE
  5
   280
  8
0
  6
CONTINUOUS
 62
   130
 10
49.6758875846863
 20
35.436014175415
 30
0.0
 11
52.1758875846863
 21
35.436014175415
 31
0.0
  0
LINE
  5
   281
  8
0
  6
CONTINUOUS
 62
   130
 10
52.1758875846863
 20
27.936014175415
 30
0.0
 11
52.9258875846863
 21
27.936014175415
 31
0.0
  0
LINE
  5
   282
  8
0
  6
CONTINUOUS
 62
   130
 10
52.1758875846863
 20
35.936014175415
 30
0.0
 11
52.9258875846863
 21
35.936014175415
 31
0.0
  0
LINE
  5
   283
  8
0
  6
CONTINUOUS
 62
   130
 10
57.4258875846863
 20
29.936014175415
 30
0.0
 11
62.2758875846863
 21
29.936014175415
 31
0.0
  0
LINE
  5
   284
  8
0
  6
CONTINUOUS
 62
   130
 10
57.4258875846863
 20
33.936014175415
 30
0.0
 11
62.2758875846863
 21
33.936014175415
 31
0.0
  0
LINE
  5
   285
  8
0
  6
CONTINUOUS
 62
   130
 10
52.9258875846863
 20
29.936014175415
 30
0.0
 11
56.6758875846863
 21
29.936014175415
 31
0.0
  0
LINE
  5
   286
  8
0
  6
CONTINUOUS
 62
   130
 10
52.9258875846863
 20
33.936014175415
 30
0.0
 11
56.6758875846863
 21
33.936014175415
 31
0.0
  0
LINE
  5
   287
  8
0
  6
CONTINUOUS
 62
   130
 10
52.9258875846863
 20
30.436014175415
 30
0.0
 11
56.6758875846863
 21
30.436014175415
 31
0.0
  0
LINE
  5
   288
  8
0
  6
CONTINUOUS
 62
   130
 10
75.4258875846863
 20
35.485998916626
 30
0.0
 11
80.4258875846863
 21
35.485998916626
 31
0.0
  0
LINE
  5
   289
  8
0
  6
CONTINUOUS
 62
   130
 10
77.9258875846863
 20
28.485998916626
 30
0.0
 11
77.9258875846863
 21
35.485998916626
 31
0.0
  0
LINE
  5
   28A
  8
0
  6
CONTINUOUS
 62
   130
 10
70.9258875846863
 20
33.485998916626
 30
0.0
 11
74.6758875846863
 21
33.485998916626
 31
0.0
  0
LINE
  5
   28B
  8
0
  6
CONTINUOUS
 62
   130
 10
74.6758875846863
 20
27.985998916626
 30
0.0
 11
74.6758875846863
 21
35.985998916626
 31
0.0
  0
LINE
  5
   28C
  8
0
  6
CONTINUOUS
 62
   130
 10
80.4258875846863
 20
29.1485386336713
 30
0.0
 11
80.4258875846863
 21
37.485998916626
 31
0.0
  0
LINE
  5
   28D
  8
0
  6
CONTINUOUS
 62
   130
 10
75.4258875846863
 20
33.985998916626
 30
0.0
 11
80.4258875846863
 21
33.985998916626
 31
0.0
  0
LINE
  5
   28E
  8
0
  6
CONTINUOUS
 62
   130
 10
75.4258875846863
 20
29.985998916626
 30
0.0
 11
80.4258875846863
 21
29.985998916626
 31
0.0
  0
LINE
  5
   28F
  8
0
  6
CONTINUOUS
 62
   130
 10
75.4258875846863
 20
27.985998916626
 30
0.0
 11
75.4258875846863
 21
35.985998916626
 31
0.0
  0
LINE
  5
   290
  8
0
  6
CONTINUOUS
 62
   130
 10
70.9258875846863
 20
33.985998916626
 30
0.0
 11
74.6758875846863
 21
33.985998916626
 31
0.0
  0
LINE
  5
   291
  8
0
  6
CONTINUOUS
 62
   130
 10
74.6758875846863
 20
35.985998916626
 30
0.0
 11
75.4258875846863
 21
35.985998916626
 31
0.0
  0
LINE
  5
   292
  8
0
  6
CONTINUOUS
 62
   130
 10
74.6758875846863
 20
27.985998916626
 30
0.0
 11
75.4258875846863
 21
27.985998916626
 31
0.0
  0
LINE
  5
   293
  8
0
  6
CONTINUOUS
 62
   130
 10
70.1758875846863
 20
35.985998916626
 30
0.0
 11
70.9258875846863
 21
35.985998916626
 31
0.0
  0
LINE
  5
   294
  8
0
  6
CONTINUOUS
 62
   130
 10
70.1758875846863
 20
27.985998916626
 30
0.0
 11
70.9258875846863
 21
27.985998916626
 31
0.0
  0
LINE
  5
   295
  8
0
  6
CONTINUOUS
 62
   130
 10
67.6758875846863
 20
35.485998916626
 30
0.0
 11
70.1758875846863
 21
35.485998916626
 31
0.0
  0
LINE
  5
   296
  8
0
  6
CONTINUOUS
 62
   130
 10
67.6758875846863
 20
33.985998916626
 30
0.0
 11
70.1758875846863
 21
33.985998916626
 31
0.0
  0
LINE
  5
   297
  8
0
  6
CONTINUOUS
 62
   130
 10
67.6758875846863
 20
29.985998916626
 30
0.0
 11
70.1758875846863
 21
29.985998916626
 31
0.0
  0
LINE
  5
   298
  8
0
  6
CONTINUOUS
 62
   130
 10
67.6758875846863
 20
28.485998916626
 30
0.0
 11
70.1758875846863
 21
28.485998916626
 31
0.0
  0
LINE
  5
   299
  8
0
  6
CONTINUOUS
 62
   130
 10
67.1758875846863
 20
33.485998916626
 30
0.0
 11
67.6758875846863
 21
33.985998916626
 31
0.0
  0
LINE
  5
   29A
  8
0
  6
CONTINUOUS
 62
   130
 10
67.1758875846863
 20
30.485998916626
 30
0.0
 11
67.1758875846863
 21
33.485998916626
 31
0.0
  0
LINE
  5
   29B
  8
0
  6
CONTINUOUS
 62
   130
 10
67.1758875846863
 20
30.485998916626
 30
0.0
 11
67.6758875846863
 21
29.9859989166259
 31
0.0
  0
LINE
  5
   29C
  8
0
  6
CONTINUOUS
 62
   130
 10
67.6758875846863
 20
35.485998916626
 30
0.0
 11
70.1758875846863
 21
35.485998916626
 31
0.0
  0
LINE
  5
   29D
  8
0
  6
CONTINUOUS
 62
   130
 10
67.6758875846863
 20
28.485998916626
 30
0.0
 11
67.6758875846863
 21
35.485998916626
 31
0.0
  0
LINE
  5
   29E
  8
0
  6
CONTINUOUS
 62
   130
 10
70.1758875846863
 20
27.985998916626
 30
0.0
 11
70.1758875846863
 21
35.985998916626
 31
0.0
  0
LINE
  5
   29F
  8
0
  6
CONTINUOUS
 62
   130
 10
70.1758875846863
 20
27.985998916626
 30
0.0
 11
70.1758875846863
 21
35.985998916626
 31
0.0
  0
LINE
  5
   2A0
  8
0
  6
CONTINUOUS
 62
   130
 10
70.9258875846863
 20
27.985998916626
 30
0.0
 11
70.9258875846863
 21
35.985998916626
 31
0.0
  0
LINE
  5
   2A1
  8
0
  6
CONTINUOUS
 62
   130
 10
74.6758875846863
 20
27.985998916626
 30
0.0
 11
74.6758875846863
 21
35.985998916626
 31
0.0
  0
LINE
  5
   2A2
  8
0
  6
CONTINUOUS
 62
   130
 10
74.6758875846863
 20
27.985998916626
 30
0.0
 11
74.6758875846863
 21
35.985998916626
 31
0.0
  0
LINE
  5
   2A3
  8
0
  6
CONTINUOUS
 62
   130
 10
70.9258875846863
 20
33.985998916626
 30
0.0
 11
74.6758875846863
 21
33.985998916626
 31
0.0
  0
LINE
  5
   2A4
  8
0
  6
CONTINUOUS
 62
   130
 10
70.9258875846863
 20
29.985998916626
 30
0.0
 11
74.6758875846863
 21
29.985998916626
 31
0.0
  0
LINE
  5
   2A5
  8
0
  6
CONTINUOUS
 62
   130
 10
70.9258875846863
 20
29.9859984079997
 30
0.0
 11
74.6758875846863
 21
29.9859984079997
 31
0.0
  0
LINE
  5
   2A6
  8
0
  6
CONTINUOUS
 62
   130
 10
70.9258875846863
 20
30.4859984079997
 30
0.0
 11
74.6758875846863
 21
30.4859984079997
 31
0.0
  0
LINE
  5
   2A7
  8
0
  6
CONTINUOUS
 62
   130
 10
62.2758875846863
 20
28.3119263086094
 30
0.0
 11
62.2758875846863
 21
36.3020619384056
 31
0.0
  0
LINE
  5
   2A8
  8
0
  6
CONTINUOUS
 62
   130
 10
62.2758875846863
 20
36.3020619384056
 30
0.0
 11
62.4258875846863
 21
36.3020619384056
 31
0.0
  0
LINE
  5
   2A9
  8
0
  6
CONTINUOUS
 62
   130
 10
61.7308968312907
 20
27.5548035208578
 30
0.0
 11
62.4258875846863
 21
28.2497942742534
 31
0.0
  0
LINE
  5
   2AA
  8
0
  6
CONTINUOUS
 62
   130
 10
61.6248308141127
 20
27.6608695380358
 30
0.0
 11
62.2758875846863
 21
28.3119263086094
 31
0.0
  0
LINE
  5
   2AB
  8
0
  6
CONTINUOUS
 62
   130
 10
61.6248308141127
 20
27.6608695380357
 30
0.0
 11
61.7308968312906
 21
27.5548035208578
 31
0.0
  0
LINE
  5
   2AC
  8
0
  6
CONTINUOUS
 62
   130
 10
79.6248308141127
 20
27.7108540249335
 30
0.0
 11
79.7308968312907
 21
27.6047880077555
 31
0.0
  0
LINE
  5
   2AD
  8
0
  6
CONTINUOUS
 62
   130
 10
79.7308968312906
 20
27.6047880077556
 30
0.0
 11
80.4258875846863
 21
28.2997787611512
 31
0.0
  0
LINE
  5
   2AE
  8
0
  6
CONTINUOUS
 62
   130
 10
79.6248308141127
 20
27.7108540249335
 30
0.0
 11
80.2758875846863
 21
28.3619107955072
 31
0.0
  0
LINE
  5
   2AF
  8
0
  6
CONTINUOUS
 62
   130
 10
80.2758875846863
 20
28.3619107955072
 30
0.0
 11
80.2758875846863
 21
36.3520464253034
 31
0.0
  0
LINE
  5
   2B0
  8
0
  6
CONTINUOUS
 62
   130
 10
80.2758875846863
 20
36.3520464253034
 30
0.0
 11
80.4258875846863
 21
36.3520464253034
 31
0.0
  0
LINE
  5
   2B1
  8
0
  6
CONTINUOUS
 62
   130
 10
87.6758875846863
 20
28.436014175415
 30
0.0
 11
88.1758875846861
 21
28.436014175415
 31
0.0
  0
LINE
  5
   2B2
  8
0
  6
CONTINUOUS
 62
   130
 10
75.4258875846863
 20
28.4859989166259
 30
0.0
 11
80.4258875846863
 21
28.4859989166259
 31
0.0
  0
LINE
  5
   2B3
  8
0
  6
CONTINUOUS
 62
   130
 10
87.6758875846863
 20
35.485998916626
 30
0.0
 11
88.1758875846861
 21
35.485998916626
 31
0.0
  0
LINE
  5
   2B4
  8
0
  6
CONTINUOUS
 62
   130
 10
87.6758875846863
 20
28.485998916626
 30
0.0
 11
88.1758875846861
 21
28.485998916626
 31
0.0
  0
LINE
  5
   2B5
  8
0
  6
CONTINUOUS
 62
   130
 10
87.6758875846863
 20
26.436014175415
 30
0.0
 11
87.6758875846863
 21
37.485998916626
 31
0.0
  0
LINE
  5
   2B6
  8
0
  6
CONTINUOUS
 62
   130
 10
80.4258875846863
 20
37.485998916626
 30
0.0
 11
87.6758875846863
 21
37.485998916626
 31
0.0
  0
LINE
  5
   2B7
  8
0
  6
CONTINUOUS
 62
   130
 10
87.6758875846863
 20
26.936014175415
 30
0.0
 11
87.6758875846863
 21
36.936014175415
 31
0.0
  0
LINE
  5
   2B8
  8
0
  6
CONTINUOUS
 62
   130
 10
87.6758875846863
 20
35.485998916626
 30
0.0
 11
88.1758875846861
 21
35.485998916626
 31
0.0
  0
LINE
  5
   2B9
  8
0
  6
DASHDOT
 62
   130
 10
64.2776043143116
 20
31.936014175415
 30
0.0
 11
92.6382091524558
 21
31.936014175415
 31
0.0
  0
LINE
  5
   2BA
  8
0
  6
DASHDOT
 62
   130
 10
64.2776043143116
 20
31.936014175415
 30
0.0
 11
93.6452486346842
 21
31.936014175415
 31
0.0
  0
LINE
  5
   2BB
  8
0
  6
CONTINUOUS
 62
   130
 10
62.4258875846863
 20
27.936014175415
 30
0.0
 11
80.4258875846863
 21
27.936014175415
 31
0.0
  0
LINE
  5
   2BC
  8
0
  6
CONTINUOUS
 62
   130
 10
62.4258875846863
 20
35.936014175415
 30
0.0
 11
80.4258875846863
 21
35.936014175415
 31
0.0
  0
LINE
  5
   2BD
  8
0
  6
CONTINUOUS
 62
   130
 10
80.4258875846863
 20
26.436014175415
 30
0.0
 11
80.4258875846863
 21
37.436014175415
 31
0.0
  0
LINE
  5
   2BE
  8
0
  6
CONTINUOUS
 62
   130
 10
62.4258875846863
 20
-23.4300335875756
 30
0.0
 11
62.4258875846863
 21
-15.063985824585
 31
0.0
  0
LINE
  5
   2BF
  8
0
  6
CONTINUOUS
 62
   130
 10
80.4258875846863
 20
-13.563985824585
 30
0.0
 11
87.6758875846863
 21
-13.563985824585
 31
0.0
  0
LINE
  5
   2C0
  8
0
  6
CONTINUOUS
 62
   130
 10
49.1758875846863
 20
-20.563985824585
 30
0.0
 11
49.1758875846863
 21
-17.563985824585
 31
0.0
  0
LINE
  5
   2C1
  8
0
  6
CONTINUOUS
 62
   130
 10
49.6758875846863
 20
-17.063985824585
 30
0.0
 11
52.1758875846863
 21
-17.063985824585
 31
0.0
  0
LINE
  5
   2C2
  8
0
  6
CONTINUOUS
 62
   130
 10
49.6758875846863
 20
-21.063985824585
 30
0.0
 11
52.1758875846863
 21
-21.063985824585
 31
0.0
  0
LINE
  5
   2C3
  8
0
  6
CONTINUOUS
 62
   130
 10
49.1758875846863
 20
-17.563985824585
 30
0.0
 11
49.6758875846863
 21
-17.063985824585
 31
0.0
  0
LINE
  5
   2C4
  8
0
  6
CONTINUOUS
 62
   130
 10
49.1758875846863
 20
-20.563985824585
 30
0.0
 11
49.6758875846863
 21
-21.063985824585
 31
0.0
  0
LINE
  5
   2C5
  8
0
  6
CONTINUOUS
 62
   130
 10
52.9258875846863
 20
-20.563985824585
 30
0.0
 11
56.6758875846863
 21
-20.563985824585
 31
0.0
  0
LINE
  5
   2C6
  8
0
  6
CONTINUOUS
 62
   130
 10
49.6758875846863
 20
-21.063985824585
 30
0.0
 11
49.6758875846863
 21
-17.063985824585
 31
0.0
  0
LINE
  5
   2C7
  8
0
  6
CONTINUOUS
 62
   130
 10
80.4258875846863
 20
-24.6139705657959
 30
0.0
 11
80.4258875846863
 21
-21.1139705657959
 31
0.0
  0
LINE
  5
   2C8
  8
0
  6
CONTINUOUS
 62
   130
 10
80.4258875846863
 20
-17.1139705657959
 30
0.0
 11
80.4258875846863
 21
-13.6139705657959
 31
0.0
  0
LINE
  5
   2C9
  8
0
  6
CONTINUOUS
 62
   130
 10
59.9258875846863
 20
-22.563985824585
 30
0.0
 11
59.9258875846863
 21
-15.563985824585
 31
0.0
  0
LINE
  5
   2CA
  8
0
  6
CONTINUOUS
 62
   130
 10
57.4258875846863
 20
-23.063985824585
 30
0.0
 11
57.4258875846863
 21
-15.063985824585
 31
0.0
  0
LINE
  5
   2CB
  8
0
  6
CONTINUOUS
 62
   130
 10
57.4258875846863
 20
-15.563985824585
 30
0.0
 11
62.2758875846863
 21
-15.563985824585
 31
0.0
  0
LINE
  5
   2CC
  8
0
  6
CONTINUOUS
 62
   130
 10
57.4258875846863
 20
-22.563985824585
 30
0.0
 11
62.2758875846863
 21
-22.563985824585
 31
0.0
  0
LINE
  5
   2CD
  8
0
  6
CONTINUOUS
 62
   130
 10
56.6758875846863
 20
-23.063985824585
 30
0.0
 11
56.6758875846863
 21
-15.063985824585
 31
0.0
  0
LINE
  5
   2CE
  8
0
  6
CONTINUOUS
 62
   130
 10
56.6758875846863
 20
-15.063985824585
 30
0.0
 11
57.4258875846863
 21
-15.063985824585
 31
0.0
  0
LINE
  5
   2CF
  8
0
  6
CONTINUOUS
 62
   130
 10
56.6758875846863
 20
-23.063985824585
 30
0.0
 11
57.4258875846863
 21
-23.063985824585
 31
0.0
  0
LINE
  5
   2D0
  8
0
  6
CONTINUOUS
 62
   130
 10
49.6758875846863
 20
-22.563985824585
 30
0.0
 11
49.6758875846863
 21
-15.563985824585
 31
0.0
  0
LINE
  5
   2D1
  8
0
  6
CONTINUOUS
 62
   130
 10
52.1758875846863
 20
-23.063985824585
 30
0.0
 11
52.1758875846863
 21
-15.063985824585
 31
0.0
  0
LINE
  5
   2D2
  8
0
  6
CONTINUOUS
 62
   130
 10
52.9258875846863
 20
-23.063985824585
 30
0.0
 11
52.9258875846863
 21
-15.063985824585
 31
0.0
  0
LINE
  5
   2D3
  8
0
  6
CONTINUOUS
 62
   130
 10
49.6758875846863
 20
-15.563985824585
 30
0.0
 11
52.1758875846863
 21
-15.563985824585
 31
0.0
  0
LINE
  5
   2D4
  8
0
  6
CONTINUOUS
 62
   130
 10
49.6758875846863
 20
-22.563985824585
 30
0.0
 11
52.1758875846863
 21
-22.563985824585
 31
0.0
  0
LINE
  5
   2D5
  8
0
  6
CONTINUOUS
 62
   130
 10
52.1758875846863
 20
-15.063985824585
 30
0.0
 11
52.9258875846863
 21
-15.063985824585
 31
0.0
  0
LINE
  5
   2D6
  8
0
  6
CONTINUOUS
 62
   130
 10
52.1758875846863
 20
-23.063985824585
 30
0.0
 11
52.9258875846863
 21
-23.063985824585
 31
0.0
  0
LINE
  5
   2D7
  8
0
  6
CONTINUOUS
 62
   130
 10
57.4258875846863
 20
-17.063985824585
 30
0.0
 11
62.2758875846863
 21
-17.063985824585
 31
0.0
  0
LINE
  5
   2D8
  8
0
  6
CONTINUOUS
 62
   130
 10
57.4258875846863
 20
-21.063985824585
 30
0.0
 11
62.2758875846863
 21
-21.063985824585
 31
0.0
  0
LINE
  5
   2D9
  8
0
  6
CONTINUOUS
 62
   130
 10
52.9258875846863
 20
-17.063985824585
 30
0.0
 11
56.6758875846863
 21
-17.063985824585
 31
0.0
  0
LINE
  5
   2DA
  8
0
  6
CONTINUOUS
 62
   130
 10
52.9258875846863
 20
-21.063985824585
 30
0.0
 11
56.6758875846863
 21
-21.063985824585
 31
0.0
  0
LINE
  5
   2DB
  8
0
  6
CONTINUOUS
 62
   130
 10
52.9258875846863
 20
-17.563985824585
 30
0.0
 11
56.6758875846863
 21
-17.563985824585
 31
0.0
  0
LINE
  5
   2DC
  8
0
  6
CONTINUOUS
 62
   130
 10
75.4258875846863
 20
-22.6139705657959
 30
0.0
 11
80.4258875846863
 21
-22.6139705657959
 31
0.0
  0
LINE
  5
   2DD
  8
0
  6
CONTINUOUS
 62
   130
 10
77.9258875846863
 20
-22.6139705657959
 30
0.0
 11
77.9258875846863
 21
-15.6139705657959
 31
0.0
  0
LINE
  5
   2DE
  8
0
  6
CONTINUOUS
 62
   130
 10
70.9258875846863
 20
-20.6139705657959
 30
0.0
 11
74.6758875846863
 21
-20.6139705657959
 31
0.0
  0
LINE
  5
   2DF
  8
0
  6
CONTINUOUS
 62
   130
 10
74.6758875846863
 20
-23.1139705657959
 30
0.0
 11
74.6758875846863
 21
-15.1139705657959
 31
0.0
  0
LINE
  5
   2E0
  8
0
  6
CONTINUOUS
 62
   130
 10
80.4258875846863
 20
-24.6139705657959
 30
0.0
 11
80.4258875846863
 21
-16.2765102828412
 31
0.0
  0
LINE
  5
   2E1
  8
0
  6
CONTINUOUS
 62
   130
 10
75.4258875846863
 20
-21.1139705657959
 30
0.0
 11
80.4258875846863
 21
-21.1139705657959
 31
0.0
  0
LINE
  5
   2E2
  8
0
  6
CONTINUOUS
 62
   130
 10
75.4258875846863
 20
-17.1139705657959
 30
0.0
 11
80.4258875846863
 21
-17.1139705657959
 31
0.0
  0
LINE
  5
   2E3
  8
0
  6
CONTINUOUS
 62
   130
 10
75.4258875846863
 20
-23.1139705657959
 30
0.0
 11
75.4258875846863
 21
-15.1139705657959
 31
0.0
  0
LINE
  5
   2E4
  8
0
  6
CONTINUOUS
 62
   130
 10
70.9258875846863
 20
-21.1139705657959
 30
0.0
 11
74.6758875846863
 21
-21.1139705657959
 31
0.0
  0
LINE
  5
   2E5
  8
0
  6
CONTINUOUS
 62
   130
 10
74.6758875846863
 20
-23.1139705657959
 30
0.0
 11
75.4258875846863
 21
-23.1139705657959
 31
0.0
  0
LINE
  5
   2E6
  8
0
  6
CONTINUOUS
 62
   130
 10
74.6758875846863
 20
-15.1139705657959
 30
0.0
 11
75.4258875846863
 21
-15.1139705657959
 31
0.0
  0
LINE
  5
   2E7
  8
0
  6
CONTINUOUS
 62
   130
 10
70.1758875846863
 20
-23.1139705657959
 30
0.0
 11
70.9258875846863
 21
-23.1139705657959
 31
0.0
  0
LINE
  5
   2E8
  8
0
  6
CONTINUOUS
 62
   130
 10
70.1758875846863
 20
-15.1139705657959
 30
0.0
 11
70.9258875846863
 21
-15.1139705657959
 31
0.0
  0
LINE
  5
   2E9
  8
0
  6
CONTINUOUS
 62
   130
 10
67.6758875846863
 20
-22.6139705657959
 30
0.0
 11
70.1758875846863
 21
-22.6139705657959
 31
0.0
  0
LINE
  5
   2EA
  8
0
  6
CONTINUOUS
 62
   130
 10
67.6758875846863
 20
-21.1139705657959
 30
0.0
 11
70.1758875846863
 21
-21.1139705657959
 31
0.0
  0
LINE
  5
   2EB
  8
0
  6
CONTINUOUS
 62
   130
 10
67.6758875846863
 20
-17.1139705657959
 30
0.0
 11
70.1758875846863
 21
-17.1139705657959
 31
0.0
  0
LINE
  5
   2EC
  8
0
  6
CONTINUOUS
 62
   130
 10
67.6758875846863
 20
-15.6139705657959
 30
0.0
 11
70.1758875846863
 21
-15.6139705657959
 31
0.0
  0
LINE
  5
   2ED
  8
0
  6
CONTINUOUS
 62
   130
 10
67.1758875846863
 20
-20.6139705657959
 30
0.0
 11
67.6758875846863
 21
-21.1139705657959
 31
0.0
  0
LINE
  5
   2EE
  8
0
  6
CONTINUOUS
 62
   130
 10
67.1758875846863
 20
-20.6139705657959
 30
0.0
 11
67.1758875846863
 21
-17.6139705657959
 31
0.0
  0
LINE
  5
   2EF
  8
0
  6
CONTINUOUS
 62
   130
 10
67.1758875846863
 20
-17.6139705657959
 30
0.0
 11
67.6758875846863
 21
-17.1139705657959
 31
0.0
  0
LINE
  5
   2F0
  8
0
  6
CONTINUOUS
 62
   130
 10
67.6758875846863
 20
-22.6139705657959
 30
0.0
 11
70.1758875846863
 21
-22.6139705657959
 31
0.0
  0
LINE
  5
   2F1
  8
0
  6
CONTINUOUS
 62
   130
 10
67.6758875846863
 20
-22.6139705657959
 30
0.0
 11
67.6758875846863
 21
-15.6139705657959
 31
0.0
  0
LINE
  5
   2F2
  8
0
  6
CONTINUOUS
 62
   130
 10
70.1758875846863
 20
-23.1139705657959
 30
0.0
 11
70.1758875846863
 21
-15.1139705657959
 31
0.0
  0
LINE
  5
   2F3
  8
0
  6
CONTINUOUS
 62
   130
 10
70.1758875846863
 20
-23.1139705657959
 30
0.0
 11
70.1758875846863
 21
-15.1139705657959
 31
0.0
  0
LINE
  5
   2F4
  8
0
  6
CONTINUOUS
 62
   130
 10
70.9258875846863
 20
-23.1139705657959
 30
0.0
 11
70.9258875846863
 21
-15.1139705657959
 31
0.0
  0
LINE
  5
   2F5
  8
0
  6
CONTINUOUS
 62
   130
 10
74.6758875846863
 20
-23.1139705657959
 30
0.0
 11
74.6758875846863
 21
-15.1139705657959
 31
0.0
  0
LINE
  5
   2F6
  8
0
  6
CONTINUOUS
 62
   130
 10
74.6758875846863
 20
-23.1139705657959
 30
0.0
 11
74.6758875846863
 21
-15.1139705657959
 31
0.0
  0
LINE
  5
   2F7
  8
0
  6
CONTINUOUS
 62
   130
 10
70.9258875846863
 20
-21.1139705657959
 30
0.0
 11
74.6758875846863
 21
-21.1139705657959
 31
0.0
  0
LINE
  5
   2F8
  8
0
  6
CONTINUOUS
 62
   130
 10
70.9258875846863
 20
-17.1139705657959
 30
0.0
 11
74.6758875846863
 21
-17.1139705657959
 31
0.0
  0
LINE
  5
   2F9
  8
0
  6
CONTINUOUS
 62
   130
 10
70.9258875846863
 20
-17.1139700571696
 30
0.0
 11
74.6758875846863
 21
-17.1139700571696
 31
0.0
  0
LINE
  5
   2FA
  8
0
  6
CONTINUOUS
 62
   130
 10
70.9258875846863
 20
-17.6139700571696
 30
0.0
 11
74.6758875846863
 21
-17.6139700571696
 31
0.0
  0
LINE
  5
   2FB
  8
0
  6
CONTINUOUS
 62
   130
 10
62.2758875846863
 20
-23.4300335875756
 30
0.0
 11
62.2758875846863
 21
-15.4398979577793
 31
0.0
  0
LINE
  5
   2FC
  8
0
  6
CONTINUOUS
 62
   130
 10
62.2758875846863
 20
-23.4300335875756
 30
0.0
 11
62.4258875846863
 21
-23.4300335875756
 31
0.0
  0
LINE
  5
   2FD
  8
0
  6
CONTINUOUS
 62
   130
 10
61.7308968312907
 20
-14.6827751700277
 30
0.0
 11
62.4258875846863
 21
-15.3777659234233
 31
0.0
  0
LINE
  5
   2FE
  8
0
  6
CONTINUOUS
 62
   130
 10
61.6248308141127
 20
-14.7888411872057
 30
0.0
 11
62.2758875846863
 21
-15.4398979577793
 31
0.0
  0
LINE
  5
   2FF
  8
0
  6
CONTINUOUS
 62
   130
 10
61.6248308141127
 20
-14.7888411872057
 30
0.0
 11
61.7308968312907
 21
-14.6827751700277
 31
0.0
  0
LINE
  5
   300
  8
0
  6
CONTINUOUS
 62
   130
 10
79.6248308141127
 20
-14.8388256741034
 30
0.0
 11
79.7308968312907
 21
-14.7327596569255
 31
0.0
  0
LINE
  5
   301
  8
0
  6
CONTINUOUS
 62
   130
 10
79.7308968312906
 20
-14.7327596569255
 30
0.0
 11
80.4258875846863
 21
-15.4277504103211
 31
0.0
  0
LINE
  5
   302
  8
0
  6
CONTINUOUS
 62
   130
 10
79.6248308141127
 20
-14.8388256741035
 30
0.0
 11
80.2758875846863
 21
-15.4898824446771
 31
0.0
  0
LINE
  5
   303
  8
0
  6
CONTINUOUS
 62
   130
 10
80.2758875846863
 20
-23.4800180744734
 30
0.0
 11
80.2758875846863
 21
-15.4898824446771
 31
0.0
  0
LINE
  5
   304
  8
0
  6
CONTINUOUS
 62
   130
 10
80.2758875846863
 20
-23.4800180744734
 30
0.0
 11
80.4258875846863
 21
-23.4800180744734
 31
0.0
  0
LINE
  5
   305
  8
0
  6
CONTINUOUS
 62
   130
 10
87.6758875846863
 20
-15.563985824585
 30
0.0
 11
88.1758875846861
 21
-15.563985824585
 31
0.0
  0
LINE
  5
   306
  8
0
  6
CONTINUOUS
 62
   130
 10
75.4258875846863
 20
-15.6139705657959
 30
0.0
 11
80.4258875846863
 21
-15.6139705657959
 31
0.0
  0
LINE
  5
   307
  8
0
  6
CONTINUOUS
 62
   130
 10
87.6758875846863
 20
-22.6139705657959
 30
0.0
 11
88.1758875846861
 21
-22.6139705657959
 31
0.0
  0
LINE
  5
   308
  8
0
  6
CONTINUOUS
 62
   130
 10
87.6758875846863
 20
-15.6139705657959
 30
0.0
 11
88.1758875846861
 21
-15.6139705657959
 31
0.0
  0
LINE
  5
   309
  8
0
  6
CONTINUOUS
 62
   130
 10
87.6758875846863
 20
-24.6139705657959
 30
0.0
 11
87.6758875846863
 21
-13.563985824585
 31
0.0
  0
LINE
  5
   30A
  8
0
  6
CONTINUOUS
 62
   130
 10
80.4258875846863
 20
-24.6139705657959
 30
0.0
 11
87.6758875846863
 21
-24.6139705657959
 31
0.0
  0
LINE
  5
   30B
  8
0
  6
CONTINUOUS
 62
   130
 10
87.6758875846863
 20
-24.063985824585
 30
0.0
 11
87.6758875846863
 21
-14.063985824585
 31
0.0
  0
LINE
  5
   30C
  8
0
  6
CONTINUOUS
 62
   130
 10
87.6758875846863
 20
-22.6139705657959
 30
0.0
 11
88.1758875846861
 21
-22.6139705657959
 31
0.0
  0
LINE
  5
   30D
  8
0
  6
DASHDOT
 62
   130
 10
64.2776043143116
 20
-19.063985824585
 30
0.0
 11
92.6382091524558
 21
-19.063985824585
 31
0.0
  0
LINE
  5
   30E
  8
0
  6
DASHDOT
 62
   130
 10
64.2776043143116
 20
-19.063985824585
 30
0.0
 11
93.6452486346842
 21
-19.063985824585
 31
0.0
  0
LINE
  5
   30F
  8
0
  6
CONTINUOUS
 62
   130
 10
62.4258875846863
 20
-15.063985824585
 30
0.0
 11
80.4258875846863
 21
-15.063985824585
 31
0.0
  0
LINE
  5
   310
  8
0
  6
CONTINUOUS
 62
   130
 10
62.4258875846863
 20
-23.063985824585
 30
0.0
 11
80.4258875846863
 21
-23.063985824585
 31
0.0
  0
LINE
  5
   311
  8
0
  6
CONTINUOUS
 62
   130
 10
80.4258875846863
 20
-24.563985824585
 30
0.0
 11
80.4258875846863
 21
-13.563985824585
 31
0.0
  0
LINE
  5
   312
  8
0
  6
CONTINUOUS
 62
   130
 10
149.17586517334
 20
11.6860332489014
 30
0.0
 11
149.17586517334
 21
12.1860332489014
 31
0.0
  0
LINE
  5
   313
  8
0
  6
CONTINUOUS
 62
   130
 10
149.17586517334
 20
-11.3139667510986
 30
0.0
 11
149.17586517334
 21
-10.8139667510986
 31
0.0
  0
LINE
  5
   314
  8
0
  6
CONTINUOUS
 62
   130
 10
87.1758875846861
 20
-37.84469171183
 30
0.0
 11
87.1758875846861
 21
49.6807605172001
 31
0.0
  0
LINE
  5
   315
  8
0
  6
CONTINUOUS
 62
   130
 10
149.17586517334
 20
12.9360332489014
 30
0.0
 11
149.17586517334
 21
24.4360332489014
 31
0.0
  0
LINE
  5
   316
  8
0
  6
DASHDOT
 62
   130
 10
149.17586517334
 20
-33.8154148882972
 30
0.0
 11
149.17586517334
 21
50.1549923310963
 31
0.0
  0
LINE
  5
   317
  8
0
  6
CONTINUOUS
 62
   130
 10
150.67586517334
 20
-23.5639667510986
 30
0.0
 11
150.67586517334
 21
-10.8139667510986
 31
0.0
  0
LINE
  5
   318
  8
0
  6
CONTINUOUS
 62
   130
 10
148.42586517334
 20
12.1860332489014
 30
0.0
 11
149.17586517334
 21
12.1860332489014
 31
0.0
  0
LINE
  5
   319
  8
0
  6
CONTINUOUS
 62
   130
 10
148.42586517334
 20
12.9360332489014
 30
0.0
 11
149.17586517334
 21
12.9360332489014
 31
0.0
  0
LINE
  5
   31A
  8
0
  6
CONTINUOUS
 62
   130
 10
148.42586517334
 20
12.1860332489014
 30
0.0
 11
148.42586517334
 21
12.9360332489014
 31
0.0
  0
LINE
  5
   31B
  8
0
  6
CONTINUOUS
 62
   130
 10
149.17586517334
 20
24.4360332489014
 30
0.0
 11
150.67586517334
 21
24.4360332489014
 31
0.0
  0
LINE
  5
   31C
  8
0
  6
CONTINUOUS
 62
   130
 10
149.17586517334
 20
-23.5639667510986
 30
0.0
 11
150.67586517334
 21
-23.5639667510986
 31
0.0
  0
LINE
  5
   31D
  8
0
  6
CONTINUOUS
 62
   130
 10
149.17586517334
 20
-23.5639667510986
 30
0.0
 11
149.17586517334
 21
-12.0639667510986
 31
0.0
  0
LINE
  5
   31E
  8
0
  6
CONTINUOUS
 62
   130
 10
148.42586517334
 20
-12.0639667510986
 30
0.0
 11
149.17586517334
 21
-12.0639667510986
 31
0.0
  0
LINE
  5
   31F
  8
0
  6
CONTINUOUS
 62
   130
 10
148.42586517334
 20
-12.0639667510986
 30
0.0
 11
148.42586517334
 21
-11.3139667510986
 31
0.0
  0
LINE
  5
   320
  8
0
  6
CONTINUOUS
 62
   130
 10
150.67586517334
 20
11.6860332489014
 30
0.0
 11
150.67586517334
 21
24.4360332489014
 31
0.0
  0
LINE
  5
   321
  8
0
  6
CONTINUOUS
 62
   130
 10
148.17586517334
 20
17.1860332489014
 30
0.0
 11
149.17586517334
 21
17.1860332489014
 31
0.0
  0
LINE
  5
   322
  8
0
  6
CONTINUOUS
 62
   130
 10
148.17586517334
 20
15.6860332489014
 30
0.0
 11
149.17586517334
 21
15.6860332489014
 31
0.0
  0
LINE
  5
   323
  8
0
  6
CONTINUOUS
 62
   130
 10
148.17586517334
 20
15.3110332489014
 30
0.0
 11
148.17586517334
 21
17.5610332489014
 31
0.0
  0
LINE
  5
   324
  8
0
  6
CONTINUOUS
 62
   130
 10
148.17586517334
 20
-16.6889667510986
 30
0.0
 11
148.17586517334
 21
-14.4389667510986
 31
0.0
  0
LINE
  5
   325
  8
0
  6
CONTINUOUS
 62
   130
 10
148.17586517334
 20
-16.3139667510986
 30
0.0
 11
149.17586517334
 21
-16.3139667510986
 31
0.0
  0
LINE
  5
   326
  8
0
  6
CONTINUOUS
 62
   130
 10
148.17586517334
 20
-14.8139667510986
 30
0.0
 11
149.17586517334
 21
-14.8139667510986
 31
0.0
  0
LINE
  5
   327
  8
0
  6
CONTINUOUS
 62
   130
 10
149.17586517334
 20
12.1860332489014
 30
0.0
 11
150.67586517334
 21
12.1860332489014
 31
0.0
  0
LINE
  5
   328
  8
0
  6
CONTINUOUS
 62
   130
 10
148.42586517334
 20
-11.3139667510986
 30
0.0
 11
150.67586517334
 21
-11.3139667510986
 31
0.0
  0
LINE
  5
   329
  8
0
  6
DASHDOT
 62
   130
 10
148.42586517334
 20
-34.0815508018459
 30
0.0
 11
148.42586517334
 21
50.4166017498791
 31
0.0
  0
INSERT
  5
   32A
  8
0
  6
CONTINUOUS
 62
     2
  2
*HATCH179
 10
126.125869750977
 20
-3.71391868591309
 30
0.0
 41
0.5
 42
0.5
 43
0.5
  0
INSERT
  5
   32B
  8
0
  6
CONTINUOUS
 62
     2
  2
*HATCH180
 10
126.125869750977
 20
-3.71391868591309
 30
0.0
 41
0.5
 42
0.5
 43
0.5
  0
LINE
  5
   32C
  8
0
  6
DASHDOT
 62
   130
 10
159.675879700979
 20
-7.67916242966657
 30
0.0
 11
159.675879700979
 21
-4.14902768731401
 31
0.0
  0
CIRCLE
  5
   32D
  8
0
  6
CONTINUOUS
 62
   130
 10
158.785638569193
 20
56.4904324362458
 30
0.0
 40
0.05
  0
CIRCLE
  5
   32E
  8
0
  6
CONTINUOUS
 62
   130
 10
158.457683699638
 20
54.6866806536943
 30
0.0
 40
0.05
  0
LINE
  5
   32F
  8
0
  6
CONTINUOUS
 62
   130
 10
147.925872921944
 20
37.1860256195068
 30
0.0
 11
149.675872921944
 21
37.1860256195068
 31
0.0
  0
LINE
  5
   330
  8
0
  6
CONTINUOUS
 62
   130
 10
147.925872921944
 20
34.6860256195068
 30
0.0
 11
149.675872921944
 21
34.6860256195068
 31
0.0
  0
LINE
  5
   331
  8
0
  6
CONTINUOUS
 62
   130
 10
149.925872921944
 20
34.9360256195068
 30
0.0
 11
149.925872921944
 21
36.9360256195068
 31
0.0
  0
CIRCLE
  5
   332
  8
0
  6
CONTINUOUS
 62
   130
 10
148.925872921944
 20
35.9360256195068
 30
0.0
 40
0.375
  0
LINE
  5
   333
  8
0
  6
CONTINUOUS
 62
   130
 10
149.675872921944
 20
37.1860256195068
 30
0.0
 11
149.925872921944
 21
36.9360256195068
 31
0.0
  0
LINE
  5
   334
  8
0
  6
CONTINUOUS
 62
   130
 10
149.675872921944
 20
34.6860256195068
 30
0.0
 11
149.925872921944
 21
34.9360256195068
 31
0.0
  0
LINE
  5
   335
  8
0
  6
CONTINUOUS
 62
   130
 10
149.675872921944
 20
34.6860256195068
 30
0.0
 11
149.675872921944
 21
37.1860256195068
 31
0.0
  0
LINE
  5
   336
  8
0
  6
CONTINUOUS
 62
   130
 10
147.925872921944
 20
-24.3139743804932
 30
0.0
 11
149.675872921944
 21
-24.3139743804932
 31
0.0
  0
LINE
  5
   337
  8
0
  6
CONTINUOUS
 62
   130
 10
149.675872921944
 20
-24.3139743804932
 30
0.0
 11
149.675872921944
 21
-21.8139743804932
 31
0.0
  0
LINE
  5
   338
  8
0
  6
CONTINUOUS
 62
   130
 10
147.925872921944
 20
-21.8139743804932
 30
0.0
 11
149.675872921944
 21
-21.8139743804932
 31
0.0
  0
LINE
  5
   339
  8
0
  6
CONTINUOUS
 62
   130
 10
149.675872921944
 20
-24.3139743804932
 30
0.0
 11
149.925872921944
 21
-24.0639743804932
 31
0.0
  0
LINE
  5
   33A
  8
0
  6
CONTINUOUS
 62
   130
 10
149.925872921944
 20
-24.0639743804932
 30
0.0
 11
149.925872921944
 21
-22.0639743804932
 31
0.0
  0
LINE
  5
   33B
  8
0
  6
CONTINUOUS
 62
   130
 10
149.675872921944
 20
-21.8139743804932
 30
0.0
 11
149.925872921944
 21
-22.0639743804932
 31
0.0
  0
CIRCLE
  5
   33C
  8
0
  6
CONTINUOUS
 62
   130
 10
148.925872921944
 20
-23.0639743804932
 30
0.0
 40
0.375
  0
CIRCLE
  5
   33D
  8
0
  6
CONTINUOUS
 62
   130
 10
109.818677023958
 20
72.161288399577
 30
0.0
 40
1.5
  0
CIRCLE
  5
   33E
  8
0
  6
CONTINUOUS
 62
   130
 10
151.939308425522
 20
71.0151487696024
 30
0.0
 40
1.5
  0
INSERT
  5
   33F
  8
0
  6
CONTINUOUS
 62
     2
  2
*HATCH181
 10
126.125869750977
 20
-3.71391868591309
 30
0.0
 41
0.5
 42
0.5
 43
0.5
  0
INSERT
  5
   340
  8
0
  6
CONTINUOUS
 62
     2
  2
*HATCH182
 10
126.125869750977
 20
-3.71391868591309
 30
0.0
 41
0.5
 42
0.5
 43
0.5
  0
INSERT
  5
   341
  8
0
  6
CONTINUOUS
 62
     3
  2
*UDIM655
 10
0.0
 20
0.0
 30
0.0
  0
INSERT
  5
   342
  8
0
  6
CONTINUOUS
 62
     3
  2
*UDIM656
 10
0.0
 20
0.0
 30
0.0
  0
TEXT
  5
   343
  8
0
  6
CONTINUOUS
 62
     2
 10
37.7183026513958
 20
-0.986050579533303
 30
0.0
 40
3.00000002980232
  1
X
 41
0.983333351877
 72
     2
 11
39.9183027288819
 21
0.513949435367858
 31
0.0
 73
     2
  0
TEXT
  5
   344
  8
0
  6
CONTINUOUS
 62
     2
 10
170.96886659207
 20
-0.986050579533303
 30
0.0
 40
3.00000002980232
  1
X
 41
0.983333351877
 11
170.96886659207
 21
0.513949435367858
 31
0.0
 73
     2
  0
TEXT
  5
   345
  8
0
  6
CONTINUOUS
 62
     2
 10
156.368057250977
 20
71.5403079539538
 30
0.0
 40
2.00000008940697
  1
127mm.CON VITI SIGILLABILI
 41
0.75
 11
156.368057250977
 21
72.5403079986572
 31
0.0
 73
     2
  0
TEXT
  5
   346
  8
0
  6
CONTINUOUS
 62
     2
 10
156.368057250977
 20
68.5403079539537
 30
0.0
 40
2.00000008940697
  1
127mm.WITH SCREWS TO SEAL
 41
0.75
 11
156.368057250977
 21
69.5403079986572
 31
0.0
 73
     2
  0
INSERT
  5
   347
  8
0
  6
CONTINUOUS
 62
     3
  2
*UDIM657
 10
0.0
 20
0.0
 30
0.0
  0
INSERT
  5
   348
  8
0
  6
CONTINUOUS
 62
     3
  2
*UDIM658
 10
0.0
 20
0.0
 30
0.0
  0
INSERT
  5
   349
  8
0
  6
CONTINUOUS
 62
     3
  2
*UDIM659
 10
0.0
 20
0.0
 30
0.0
  0
INSERT
  5
   34A
  8
0
  6
CONTINUOUS
 62
     3
  2
*UDIM660
 10
0.0
 20
0.0
 30
0.0
  0
INSERT
  5
   34B
  8
0
  6
CONTINUOUS
 62
     3
  2
*UDIM661
 10
0.0
 20
0.0
 30
0.0
  0
INSERT
  5
   34C
  8
0
  6
CONTINUOUS
 62
     3
  2
*UDIM662
 10
0.0
 20
0.0
 30
0.0
  0
INSERT
  5
   34D
  8
0
  6
CONTINUOUS
 62
     3
  2
*UDIM663
 10
0.0
 20
0.0
 30
0.0
  0
INSERT
  5
   34E
  8
0
  6
CONTINUOUS
 62
     3
  2
*UDIM664
 10
0.0
 20
0.0
 30
0.0
  0
INSERT
  5
   34F
  8
0
  6
CONTINUOUS
 62
     3
  2
*UDIM665
 10
0.0
 20
0.0
 30
0.0
  0
INSERT
  5
   350
  8
0
  6
CONTINUOUS
 62
     3
  2
*UDIM666
 10
0.0
 20
0.0
 30
0.0
  0
INSERT
  5
   351
  8
0
  6
CONTINUOUS
 62
     3
  2
*UDIM667
 10
0.0
 20
0.0
 30
0.0
  0
INSERT
  5
   352
  8
0
  6
CONTINUOUS
 62
     3
  2
*UDIM668
 10
0.0
 20
0.0
 30
0.0
  0
LINE
  5
   353
  8
0
  6
CONTINUOUS
 62
   130
 10
92.1758651733398
 20
-118.761268615723
 30
0.0
 11
88.1758723258971
 21
-118.761268615723
 31
0.0
  0
LINE
  5
   354
  8
0
  6
CONTINUOUS
 62
   130
 10
88.1758723258971
 20
-108.261268615723
 30
0.0
 11
88.1758723258971
 21
-118.76126836141
 31
0.0
  0
LINE
  5
   355
  8
0
  6
DASHDOT
 62
   130
 10
111.82586517334
 20
-102.711268615723
 30
0.0
 11
111.57586517334
 21
-102.711268615723
 31
0.0
  0
LINE
  5
   356
  8
0
  6
DASHDOT
 62
   130
 10
151.084907851592
 20
-113.261268615723
 30
0.0
 11
85.8480872184682
 21
-113.261268615723
 31
0.0
  0
LINE
  5
   357
  8
0
  6
CONTINUOUS
 62
   130
 10
88.1758723258971
 20
-93.2612686157227
 30
0.0
 11
88.1758723258971
 21
-103.261268615723
 31
0.0
  0
LINE
  5
   358
  8
0
  6
CONTINUOUS
 62
   130
 10
92.1758651733398
 20
-77.7112838745117
 30
0.0
 11
88.1758723258971
 21
-77.7112838745117
 31
0.0
  0
LINE
  5
   359
  8
0
  6
CONTINUOUS
 62
   130
 10
88.1758723258971
 20
-77.7112838745117
 30
0.0
 11
88.1758723258971
 21
-88.2112841288249
 31
0.0
  0
LINE
  5
   35A
  8
0
  6
CONTINUOUS
 62
   130
 10
150.675872921944
 20
-76.2112838745117
 30
0.0
 11
92.1758651733398
 21
-76.2112838745117
 31
0.0
  0
LINE
  5
   35B
  8
0
  6
CONTINUOUS
 62
   130
 10
150.675872921944
 20
-120.211283874512
 30
0.0
 11
92.1758651733398
 21
-120.211283874512
 31
0.0
  0
LINE
  5
   35C
  8
0
  6
CONTINUOUS
 62
   130
 10
92.1758651733398
 20
-76.2112838745117
 30
0.0
 11
92.1758651733398
 21
-120.211283874512
 31
0.0
  0
LINE
  5
   35D
  8
0
  6
CONTINUOUS
 62
   130
 10
112.17586517334
 20
-76.2112838745117
 30
0.0
 11
112.17586517334
 21
-120.211283874512
 31
0.0
  0
LINE
  5
   35E
  8
0
  6
CONTINUOUS
 62
   130
 10
112.17586517334
 20
-104.336283874512
 30
0.0
 11
92.1758651733398
 21
-104.336283874512
 31
0.0
  0
LINE
  5
   35F
  8
0
  6
CONTINUOUS
 62
   130
 10
112.17586517334
 20
-107.086283874512
 30
0.0
 11
92.1758651733398
 21
-107.086283874512
 31
0.0
  0
LINE
  5
   360
  8
0
  6
DASHDOT
 62
   130
 10
165.130193406785
 20
-98.2612686157227
 30
0.0
 11
64.2775890555225
 21
-98.2612686157227
 31
0.0
  0
LINE
  5
   361
  8
0
  6
CONTINUOUS
 62
   130
 10
112.17586517334
 20
-92.1862533569336
 30
0.0
 11
92.1758651733398
 21
-92.1862533569336
 31
0.0
  0
LINE
  5
   362
  8
0
  6
CONTINUOUS
 62
   130
 10
112.17586517334
 20
-89.4362533569336
 30
0.0
 11
92.1758651733398
 21
-89.4362533569336
 31
0.0
  0
LINE
  5
   363
  8
0
  6
CONTINUOUS
 62
   130
 10
103.425913132055
 20
-80.7612686157227
 30
0.0
 11
94.6759131320552
 21
-80.7612686157227
 31
0.0
  0
LINE
  5
   364
  8
0
  6
CONTINUOUS
 62
   130
 10
103.425913132055
 20
-85.7612686157227
 30
0.0
 11
94.6759131320552
 21
-85.7612686157227
 31
0.0
  0
LINE
  5
   365
  8
0
  6
CONTINUOUS
 62
   130
 10
103.425913132055
 20
-95.7612686157227
 30
0.0
 11
94.6759131320552
 21
-95.7612686157227
 31
0.0
  0
LINE
  5
   366
  8
0
  6
CONTINUOUS
 62
   130
 10
103.425913132055
 20
-100.761268615723
 30
0.0
 11
94.6759131320552
 21
-100.761268615723
 31
0.0
  0
LINE
  5
   367
  8
0
  6
CONTINUOUS
 62
   130
 10
103.425913132055
 20
-110.761268615723
 30
0.0
 11
94.6759131320552
 21
-110.761268615723
 31
0.0
  0
LINE
  5
   368
  8
0
  6
CONTINUOUS
 62
   130
 10
103.425913132055
 20
-115.761268615723
 30
0.0
 11
94.6759131320552
 21
-115.761268615723
 31
0.0
  0
LINE
  5
   369
  8
0
  6
CONTINUOUS
 62
   130
 10
94.6759131320552
 20
-80.7612686157227
 30
0.0
 11
94.6759131320552
 21
-85.7612686157227
 31
0.0
  0
LINE
  5
   36A
  8
0
  6
CONTINUOUS
 62
   130
 10
103.425913132055
 20
-80.7612686157227
 30
0.0
 11
103.425913132055
 21
-85.7612686157227
 31
0.0
  0
LINE
  5
   36B
  8
0
  6
CONTINUOUS
 62
   130
 10
94.6759131320552
 20
-95.7612686157227
 30
0.0
 11
94.6759131320552
 21
-100.761268615723
 31
0.0
  0
LINE
  5
   36C
  8
0
  6
CONTINUOUS
 62
   130
 10
103.425913132055
 20
-95.7612686157227
 30
0.0
 11
103.425913132055
 21
-100.761268615723
 31
0.0
  0
LINE
  5
   36D
  8
0
  6
CONTINUOUS
 62
   130
 10
94.6759131320552
 20
-110.761268615723
 30
0.0
 11
94.6759131320552
 21
-115.761268615723
 31
0.0
  0
LINE
  5
   36E
  8
0
  6
CONTINUOUS
 62
   130
 10
103.425913132055
 20
-110.761268615723
 30
0.0
 11
103.425913132055
 21
-115.761268615723
 31
0.0
  0
LINE
  5
   36F
  8
0
  6
CONTINUOUS
 62
   130
 10
107.17586517334
 20
-79.7612686157227
 30
0.0
 11
92.1758651733398
 21
-79.7612686157227
 31
0.0
  0
LINE
  5
   370
  8
0
  6
CONTINUOUS
 62
   130
 10
107.17586517334
 20
-86.7612686157227
 30
0.0
 11
92.1758651733398
 21
-86.7612686157227
 31
0.0
  0
LINE
  5
   371
  8
0
  6
CONTINUOUS
 62
   130
 10
107.17586517334
 20
-94.7612686157227
 30
0.0
 11
92.1758651733398
 21
-94.7612686157227
 31
0.0
  0
LINE
  5
   372
  8
0
  6
CONTINUOUS
 62
   130
 10
107.17586517334
 20
-101.761268615723
 30
0.0
 11
92.1758651733398
 21
-101.761268615723
 31
0.0
  0
LINE
  5
   373
  8
0
  6
CONTINUOUS
 62
   130
 10
107.17586517334
 20
-109.761268615723
 30
0.0
 11
92.1758651733398
 21
-109.761268615723
 31
0.0
  0
LINE
  5
   374
  8
0
  6
CONTINUOUS
 62
   130
 10
107.17586517334
 20
-116.761268615723
 30
0.0
 11
92.1758651733398
 21
-116.761268615723
 31
0.0
  0
LINE
  5
   375
  8
0
  6
CONTINUOUS
 62
   130
 10
107.17586517334
 20
-79.7612686157227
 30
0.0
 11
107.17586517334
 21
-86.7612686157227
 31
0.0
  0
LINE
  5
   376
  8
0
  6
CONTINUOUS
 62
   130
 10
107.17586517334
 20
-94.7612686157227
 30
0.0
 11
107.17586517334
 21
-101.761268615723
 31
0.0
  0
LINE
  5
   377
  8
0
  6
CONTINUOUS
 62
   130
 10
107.17586517334
 20
-109.761268615723
 30
0.0
 11
107.17586517334
 21
-116.761268615723
 31
0.0
  0
LINE
  5
   378
  8
0
  6
CONTINUOUS
 62
   130
 10
91.6758651733399
 20
-88.2112841288249
 30
0.0
 11
86.1758651733398
 21
-88.2112841288249
 31
0.0
  0
LINE
  5
   379
  8
0
  6
CONTINUOUS
 62
   130
 10
91.6758651733399
 20
-93.2612686157227
 30
0.0
 11
86.1758651733398
 21
-93.2612686157227
 31
0.0
  0
LINE
  5
   37A
  8
0
  6
CONTINUOUS
 62
   130
 10
91.6758651733399
 20
-103.261268615723
 30
0.0
 11
86.1758651733398
 21
-103.261268615723
 31
0.0
  0
LINE
  5
   37B
  8
0
  6
CONTINUOUS
 62
   130
 10
91.6758651733399
 20
-108.261268615723
 30
0.0
 11
86.1758651733398
 21
-108.261268615723
 31
0.0
  0
LINE
  5
   37C
  8
0
  6
CONTINUOUS
 62
   130
 10
86.1758651733398
 20
-88.2112841288249
 30
0.0
 11
86.1758651733398
 21
-93.2612686157227
 31
0.0
  0
LINE
  5
   37D
  8
0
  6
CONTINUOUS
 62
   130
 10
86.1758651733398
 20
-103.261268615723
 30
0.0
 11
86.1758651733398
 21
-108.261268615723
 31
0.0
  0
ARC
  5
   37E
  8
0
  6
CONTINUOUS
 62
   130
 10
91.6758651733399
 20
-87.7112841288249
 30
0.0
 40
0.5
 50
269.999999896069
 51
359.999999896069
  0
ARC
  5
   37F
  8
0
  6
CONTINUOUS
 62
   130
 10
91.6758651733399
 20
-93.7612686157227
 30
0.0
 40
0.5
 50
359.999999896069
 51
449.999999896069
  0
ARC
  5
   380
  8
0
  6
CONTINUOUS
 62
   130
 10
91.6758651733399
 20
-102.761268615723
 30
0.0
 40
0.5
 50
269.999999896069
 51
359.999999896069
  0
ARC
  5
   381
  8
0
  6
CONTINUOUS
 62
   130
 10
91.6758651733399
 20
-108.761268615723
 30
0.0
 40
0.5
 50
359.999999896069
 51
449.999999896069
  0
LINE
  5
   382
  8
0
  6
DASHDOT
 62
   130
 10
151.084907851592
 20
-83.2612686157227
 30
0.0
 11
85.8480872184682
 21
-83.2612686157227
 31
0.0
  0
LINE
  5
   383
  8
0
  6
DASHDOT
 62
   130
 10
115.348056209242
 20
-90.7362763722738
 30
0.0
 11
84.5873524311032
 21
-90.7362763722738
 31
0.0
  0
LINE
  5
   384
  8
0
  6
DASHDOT
 62
   130
 10
116.356971420624
 20
-105.761268615723
 30
0.0
 11
84.3855693888268
 21
-105.761268615723
 31
0.0
  0
LINE
  5
   385
  8
0
  6
CONTINUOUS
 62
   130
 10
116.175880432129
 20
-76.7112838745117
 30
0.0
 11
116.175880432129
 21
-119.711283874512
 31
0.0
  0
ARC
  5
   386
  8
0
  6
CONTINUOUS
 62
   130
 10
115.675880432129
 20
-76.7112838745117
 30
0.0
 40
0.5
 50
359.999999896069
 51
449.999999896069
  0
ARC
  5
   387
  8
0
  6
CONTINUOUS
 62
   130
 10
115.675880432129
 20
-119.711283874512
 30
0.0
 40
0.5
 50
269.999999896069
 51
359.999999896069
  0
LINE
  5
   388
  8
0
  6
CONTINUOUS
 62
   130
 10
148.175872921944
 20
-76.2112838745117
 30
0.0
 11
148.175872921944
 21
-120.211283874512
 31
0.0
  0
LINE
  5
   389
  8
0
  6
CONTINUOUS
 62
   130
 10
150.675872921944
 20
-76.2112838745117
 30
0.0
 11
150.675872921944
 21
-120.211283874512
 31
0.0
  0
LINE
  5
   38A
  8
0
  6
CONTINUOUS
 62
   130
 10
159.358856191646
 20
-95.5112686157227
 30
0.0
 11
159.358856191646
 21
-101.011268615723
 31
0.0
  0
LINE
  5
   38B
  8
0
  6
CONTINUOUS
 62
   130
 10
158.858856191646
 20
-95.0112686157227
 30
0.0
 11
150.675872921944
 21
-95.0112686157227
 31
0.0
  0
LINE
  5
   38C
  8
0
  6
CONTINUOUS
 62
   130
 10
158.858856191646
 20
-101.511268615723
 30
0.0
 11
150.675872921944
 21
-101.511268615723
 31
0.0
  0
ARC
  5
   38D
  8
0
  6
CONTINUOUS
 62
   130
 10
158.858856191646
 20
-95.5112686157227
 30
0.0
 40
0.5
 50
359.999999896069
 51
449.999999896069
  0
ARC
  5
   38E
  8
0
  6
CONTINUOUS
 62
   130
 10
158.858856191646
 20
-101.011268615723
 30
0.0
 40
0.5
 50
269.999999896069
 51
359.999999896069
  0
LINE
  5
   38F
  8
0
  6
CONTINUOUS
 62
   130
 10
135.925872921944
 20
-95.2612686157227
 30
0.0
 11
135.925872921944
 21
-97.5112686157227
 31
0.0
  0
LINE
  5
   390
  8
0
  6
CONTINUOUS
 62
   130
 10
147.175872921944
 20
-97.5112686157227
 30
0.0
 11
135.925872921944
 21
-97.5112686157227
 31
0.0
  0
LINE
  5
   391
  8
0
  6
CONTINUOUS
 62
   130
 10
147.175872921944
 20
-99.0112686157227
 30
0.0
 11
135.925872921944
 21
-99.0112686157227
 31
0.0
  0
LINE
  5
   392
  8
0
  6
CONTINUOUS
 62
   130
 10
147.175872921944
 20
-95.2612686157227
 30
0.0
 11
135.925872921944
 21
-95.2612686157227
 31
0.0
  0
LINE
  5
   393
  8
0
  6
CONTINUOUS
 62
   130
 10
147.175872921944
 20
-101.261268615723
 30
0.0
 11
135.925872921944
 21
-101.261268615723
 31
0.0
  0
LINE
  5
   394
  8
0
  6
CONTINUOUS
 62
   130
 10
147.175872921944
 20
-95.2612686157227
 30
0.0
 11
147.175872921944
 21
-97.5112686157227
 31
0.0
  0
LINE
  5
   395
  8
0
  6
CONTINUOUS
 62
   130
 10
135.925872921944
 20
-99.0112686157227
 30
0.0
 11
135.925872921944
 21
-101.261268615723
 31
0.0
  0
LINE
  5
   396
  8
0
  6
CONTINUOUS
 62
   130
 10
147.175872921944
 20
-99.0112686157227
 30
0.0
 11
147.175872921944
 21
-101.261268615723
 31
0.0
  0
LINE
  5
   397
  8
0
  6
CONTINUOUS
 62
   130
 10
147.175872921944
 20
-116.261268615723
 30
0.0
 11
135.925872921944
 21
-116.261268615723
 31
0.0
  0
LINE
  5
   398
  8
0
  6
CONTINUOUS
 62
   130
 10
147.175872921944
 20
-114.011268615723
 30
0.0
 11
135.925872921944
 21
-114.011268615723
 31
0.0
  0
LINE
  5
   399
  8
0
  6
CONTINUOUS
 62
   130
 10
147.175872921944
 20
-112.511268615723
 30
0.0
 11
135.925872921944
 21
-112.511268615723
 31
0.0
  0
LINE
  5
   39A
  8
0
  6
CONTINUOUS
 62
   130
 10
147.175872921944
 20
-110.261268615723
 30
0.0
 11
135.925872921944
 21
-110.261268615723
 31
0.0
  0
LINE
  5
   39B
  8
0
  6
CONTINUOUS
 62
   130
 10
135.925872921944
 20
-110.261268615723
 30
0.0
 11
135.925872921944
 21
-112.511268615723
 31
0.0
  0
LINE
  5
   39C
  8
0
  6
CONTINUOUS
 62
   130
 10
135.925872921944
 20
-114.011268615723
 30
0.0
 11
135.925872921944
 21
-116.261268615723
 31
0.0
  0
LINE
  5
   39D
  8
0
  6
CONTINUOUS
 62
   130
 10
147.175872921944
 20
-114.011268615723
 30
0.0
 11
147.175872921944
 21
-116.261268615723
 31
0.0
  0
LINE
  5
   39E
  8
0
  6
CONTINUOUS
 62
   130
 10
147.175872921944
 20
-110.261268615723
 30
0.0
 11
147.175872921944
 21
-112.511268615723
 31
0.0
  0
LINE
  5
   39F
  8
0
  6
CONTINUOUS
 62
   130
 10
147.175872921944
 20
-86.2612686157227
 30
0.0
 11
135.925872921944
 21
-86.2612686157227
 31
0.0
  0
LINE
  5
   3A0
  8
0
  6
CONTINUOUS
 62
   130
 10
135.925872921944
 20
-84.0112686157227
 30
0.0
 11
135.925872921944
 21
-86.2612686157227
 31
0.0
  0
LINE
  5
   3A1
  8
0
  6
CONTINUOUS
 62
   130
 10
147.175872921944
 20
-84.0112686157227
 30
0.0
 11
135.925872921944
 21
-84.0112686157227
 31
0.0
  0
LINE
  5
   3A2
  8
0
  6
CONTINUOUS
 62
   130
 10
147.175872921944
 20
-84.0112686157227
 30
0.0
 11
147.175872921944
 21
-86.2612686157227
 31
0.0
  0
LINE
  5
   3A3
  8
0
  6
CONTINUOUS
 62
   130
 10
147.175872921944
 20
-82.5112686157227
 30
0.0
 11
135.925872921944
 21
-82.5112686157227
 31
0.0
  0
LINE
  5
   3A4
  8
0
  6
CONTINUOUS
 62
   130
 10
135.925872921944
 20
-80.2612686157227
 30
0.0
 11
135.925872921944
 21
-82.5112686157227
 31
0.0
  0
LINE
  5
   3A5
  8
0
  6
CONTINUOUS
 62
   130
 10
147.175872921944
 20
-80.2612686157227
 30
0.0
 11
135.925872921944
 21
-80.2612686157227
 31
0.0
  0
LINE
  5
   3A6
  8
0
  6
CONTINUOUS
 62
   130
 10
147.175872921944
 20
-80.2612686157227
 30
0.0
 11
147.175872921944
 21
-82.5112686157227
 31
0.0
  0
LINE
  5
   3A7
  8
0
  6
CONTINUOUS
 62
   130
 10
87.6758723258972
 20
-108.261268615723
 30
0.0
 11
87.6758723258972
 21
-118.761268615723
 31
0.0
  0
LINE
  5
   3A8
  8
0
  6
CONTINUOUS
 62
   130
 10
88.1758723258971
 20
-116.761268615723
 30
0.0
 11
87.6758723258972
 21
-116.761268615723
 31
0.0
  0
LINE
  5
   3A9
  8
0
  6
CONTINUOUS
 62
   130
 10
88.1758723258971
 20
-109.761268615723
 30
0.0
 11
87.6758723258972
 21
-109.761268615723
 31
0.0
  0
LINE
  5
   3AA
  8
0
  6
CONTINUOUS
 62
   130
 10
87.6758723258972
 20
-118.761268615723
 30
0.0
 11
80.4258723258972
 21
-118.761268615723
 31
0.0
  0
LINE
  5
   3AB
  8
0
  6
CONTINUOUS
 62
   130
 10
86.1758651733398
 20
-107.761268615723
 30
0.0
 11
80.4258723258972
 21
-107.761268615723
 31
0.0
  0
LINE
  5
   3AC
  8
0
  6
CONTINUOUS
 62
   130
 10
80.4258723258972
 20
-115.261268615723
 30
0.0
 11
80.4258723258972
 21
-118.761268615723
 31
0.0
  0
LINE
  5
   3AD
  8
0
  6
CONTINUOUS
 62
   130
 10
62.4258723258972
 20
-93.895220852732
 30
0.0
 11
62.4258723258972
 21
-102.261268615723
 31
0.0
  0
LINE
  5
   3AE
  8
0
  6
CONTINUOUS
 62
   130
 10
86.1758651733398
 20
-103.761268615723
 30
0.0
 11
80.4258723258972
 21
-103.761268615723
 31
0.0
  0
LINE
  5
   3AF
  8
0
  6
CONTINUOUS
 62
   130
 10
86.1758651733398
 20
-92.7612686157227
 30
0.0
 11
80.4258723258972
 21
-92.7612686157227
 31
0.0
  0
LINE
  5
   3B0
  8
0
  6
CONTINUOUS
 62
   130
 10
49.1758723258972
 20
-96.7612686157227
 30
0.0
 11
49.1758723258972
 21
-99.7612686157227
 31
0.0
  0
LINE
  5
   3B1
  8
0
  6
CONTINUOUS
 62
   130
 10
52.1758723258972
 20
-100.261268615723
 30
0.0
 11
49.6758723258972
 21
-100.261268615723
 31
0.0
  0
LINE
  5
   3B2
  8
0
  6
CONTINUOUS
 62
   130
 10
52.1758723258972
 20
-96.2612686157227
 30
0.0
 11
49.6758723258972
 21
-96.2612686157227
 31
0.0
  0
LINE
  5
   3B3
  8
0
  6
CONTINUOUS
 62
   130
 10
80.4258723258972
 20
-107.761268615723
 30
0.0
 11
80.4258723258972
 21
-111.261268615723
 31
0.0
  0
LINE
  5
   3B4
  8
0
  6
CONTINUOUS
 62
   130
 10
49.6758723258972
 20
-100.261268615723
 30
0.0
 11
49.1758723258972
 21
-99.7612686157227
 31
0.0
  0
LINE
  5
   3B5
  8
0
  6
CONTINUOUS
 62
   130
 10
49.6758723258972
 20
-96.2612686157227
 30
0.0
 11
49.1758723258972
 21
-96.7612686157226
 31
0.0
  0
LINE
  5
   3B6
  8
0
  6
CONTINUOUS
 62
   130
 10
56.6758723258972
 20
-96.7612686157227
 30
0.0
 11
52.9258723258972
 21
-96.7612686157227
 31
0.0
  0
LINE
  5
   3B7
  8
0
  6
CONTINUOUS
 62
   130
 10
49.6758723258972
 20
-96.2612686157227
 30
0.0
 11
49.6758723258972
 21
-100.261268615723
 31
0.0
  0
LINE
  5
   3B8
  8
0
  6
CONTINUOUS
 62
   130
 10
80.4258723258972
 20
-77.7112838745117
 30
0.0
 11
80.4258723258972
 21
-81.2112838745117
 31
0.0
  0
LINE
  5
   3B9
  8
0
  6
CONTINUOUS
 62
   130
 10
80.4258723258972
 20
-85.2112838745117
 30
0.0
 11
80.4258723258972
 21
-88.7112838745117
 31
0.0
  0
LINE
  5
   3BA
  8
0
  6
CONTINUOUS
 62
   130
 10
59.9258723258972
 20
-94.7612686157227
 30
0.0
 11
59.9258723258972
 21
-101.761268615723
 31
0.0
  0
LINE
  5
   3BB
  8
0
  6
CONTINUOUS
 62
   130
 10
57.4258723258972
 20
-94.2612686157227
 30
0.0
 11
57.4258723258972
 21
-102.261268615723
 31
0.0
  0
LINE
  5
   3BC
  8
0
  6
CONTINUOUS
 62
   130
 10
62.2758723258972
 20
-101.761268615723
 30
0.0
 11
57.4258723258972
 21
-101.761268615723
 31
0.0
  0
LINE
  5
   3BD
  8
0
  6
CONTINUOUS
 62
   130
 10
62.2758723258972
 20
-94.7612686157227
 30
0.0
 11
57.4258723258972
 21
-94.7612686157227
 31
0.0
  0
LINE
  5
   3BE
  8
0
  6
CONTINUOUS
 62
   130
 10
56.6758723258972
 20
-94.2612686157227
 30
0.0
 11
56.6758723258972
 21
-102.261268615723
 31
0.0
  0
LINE
  5
   3BF
  8
0
  6
CONTINUOUS
 62
   130
 10
57.4258723258972
 20
-102.261268615723
 30
0.0
 11
56.6758723258972
 21
-102.261268615723
 31
0.0
  0
LINE
  5
   3C0
  8
0
  6
CONTINUOUS
 62
   130
 10
57.4258723258972
 20
-94.2612686157227
 30
0.0
 11
56.6758723258972
 21
-94.2612686157227
 31
0.0
  0
LINE
  5
   3C1
  8
0
  6
CONTINUOUS
 62
   130
 10
49.6758723258972
 20
-94.7612686157227
 30
0.0
 11
49.6758723258972
 21
-101.761268615723
 31
0.0
  0
LINE
  5
   3C2
  8
0
  6
CONTINUOUS
 62
   130
 10
52.1758723258972
 20
-94.2612686157227
 30
0.0
 11
52.1758723258972
 21
-102.261268615723
 31
0.0
  0
LINE
  5
   3C3
  8
0
  6
CONTINUOUS
 62
   130
 10
52.9258723258972
 20
-94.2612686157227
 30
0.0
 11
52.9258723258972
 21
-102.261268615723
 31
0.0
  0
LINE
  5
   3C4
  8
0
  6
CONTINUOUS
 62
   130
 10
52.1758723258972
 20
-101.761268615723
 30
0.0
 11
49.6758723258972
 21
-101.761268615723
 31
0.0
  0
LINE
  5
   3C5
  8
0
  6
CONTINUOUS
 62
   130
 10
52.1758723258972
 20
-94.7612686157227
 30
0.0
 11
49.6758723258972
 21
-94.7612686157227
 31
0.0
  0
LINE
  5
   3C6
  8
0
  6
CONTINUOUS
 62
   130
 10
52.9258723258972
 20
-102.261268615723
 30
0.0
 11
52.1758723258972
 21
-102.261268615723
 31
0.0
  0
LINE
  5
   3C7
  8
0
  6
CONTINUOUS
 62
   130
 10
52.9258723258972
 20
-94.2612686157227
 30
0.0
 11
52.1758723258972
 21
-94.2612686157227
 31
0.0
  0
LINE
  5
   3C8
  8
0
  6
CONTINUOUS
 62
   130
 10
62.2758723258972
 20
-100.261268615723
 30
0.0
 11
57.4258723258972
 21
-100.261268615723
 31
0.0
  0
LINE
  5
   3C9
  8
0
  6
CONTINUOUS
 62
   130
 10
62.2758723258972
 20
-96.2612686157227
 30
0.0
 11
57.4258723258972
 21
-96.2612686157227
 31
0.0
  0
LINE
  5
   3CA
  8
0
  6
CONTINUOUS
 62
   130
 10
56.6758723258972
 20
-100.261268615723
 30
0.0
 11
52.9258723258972
 21
-100.261268615723
 31
0.0
  0
LINE
  5
   3CB
  8
0
  6
CONTINUOUS
 62
   130
 10
56.6758723258972
 20
-96.2612686157227
 30
0.0
 11
52.9258723258972
 21
-96.2612686157227
 31
0.0
  0
LINE
  5
   3CC
  8
0
  6
CONTINUOUS
 62
   130
 10
56.6758723258972
 20
-99.7612686157227
 30
0.0
 11
52.9258723258972
 21
-99.7612686157227
 31
0.0
  0
LINE
  5
   3CD
  8
0
  6
CONTINUOUS
 62
   130
 10
77.9258723258972
 20
-109.761268615723
 30
0.0
 11
77.9258723258972
 21
-116.761268615723
 31
0.0
  0
LINE
  5
   3CE
  8
0
  6
CONTINUOUS
 62
   130
 10
75.4258723258972
 20
-109.261268615723
 30
0.0
 11
75.4258723258972
 21
-117.261268615723
 31
0.0
  0
LINE
  5
   3CF
  8
0
  6
CONTINUOUS
 62
   130
 10
74.6758723258972
 20
-109.261268615723
 30
0.0
 11
74.6758723258972
 21
-117.261268615723
 31
0.0
  0
LINE
  5
   3D0
  8
0
  6
CONTINUOUS
 62
   130
 10
70.9258723258972
 20
-109.261268615723
 30
0.0
 11
70.9258723258972
 21
-117.261268615723
 31
0.0
  0
LINE
  5
   3D1
  8
0
  6
CONTINUOUS
 62
   130
 10
70.1758723258972
 20
-109.261268615723
 30
0.0
 11
70.1758723258972
 21
-117.261268615723
 31
0.0
  0
LINE
  5
   3D2
  8
0
  6
CONTINUOUS
 62
   130
 10
67.6758723258972
 20
-109.761268615723
 30
0.0
 11
67.6758723258972
 21
-116.761268615723
 31
0.0
  0
LINE
  5
   3D3
  8
0
  6
CONTINUOUS
 62
   130
 10
67.1758723258972
 20
-111.761268615723
 30
0.0
 11
67.1758723258972
 21
-114.761268615723
 31
0.0
  0
LINE
  5
   3D4
  8
0
  6
CONTINUOUS
 62
   130
 10
70.1758723258972
 20
-116.761268615723
 30
0.0
 11
67.6758723258972
 21
-116.761268615723
 31
0.0
  0
LINE
  5
   3D5
  8
0
  6
CONTINUOUS
 62
   130
 10
70.1758723258972
 20
-115.261268615723
 30
0.0
 11
67.6758723258972
 21
-115.261268615723
 31
0.0
  0
LINE
  5
   3D6
  8
0
  6
CONTINUOUS
 62
   130
 10
70.1758723258972
 20
-111.261268615723
 30
0.0
 11
67.6758723258972
 21
-111.261268615723
 31
0.0
  0
LINE
  5
   3D7
  8
0
  6
CONTINUOUS
 62
   130
 10
70.1758723258972
 20
-109.761268615723
 30
0.0
 11
67.6758723258972
 21
-109.761268615723
 31
0.0
  0
LINE
  5
   3D8
  8
0
  6
CONTINUOUS
 62
   130
 10
80.2758723258972
 20
-109.761268615723
 30
0.0
 11
75.4258723258972
 21
-109.761268615723
 31
0.0
  0
LINE
  5
   3D9
  8
0
  6
CONTINUOUS
 62
   130
 10
80.2758723258972
 20
-116.761268615723
 30
0.0
 11
75.4258723258972
 21
-116.761268615723
 31
0.0
  0
LINE
  5
   3DA
  8
0
  6
CONTINUOUS
 62
   130
 10
75.4258723258972
 20
-117.261268615723
 30
0.0
 11
74.6758723258972
 21
-117.261268615723
 31
0.0
  0
LINE
  5
   3DB
  8
0
  6
CONTINUOUS
 62
   130
 10
75.4258723258972
 20
-109.261268615723
 30
0.0
 11
74.6758723258972
 21
-109.261268615723
 31
0.0
  0
LINE
  5
   3DC
  8
0
  6
CONTINUOUS
 62
   130
 10
70.9258723258972
 20
-109.261268615723
 30
0.0
 11
70.1758723258972
 21
-109.261268615723
 31
0.0
  0
LINE
  5
   3DD
  8
0
  6
CONTINUOUS
 62
   130
 10
74.6758723258972
 20
-115.261268615723
 30
0.0
 11
70.9258723258972
 21
-115.261268615723
 31
0.0
  0
LINE
  5
   3DE
  8
0
  6
CONTINUOUS
 62
   130
 10
74.6758723258972
 20
-111.261268615723
 30
0.0
 11
70.9258723258972
 21
-111.261268615723
 31
0.0
  0
LINE
  5
   3DF
  8
0
  6
CONTINUOUS
 62
   130
 10
74.6758723258972
 20
-111.761268615723
 30
0.0
 11
70.9258723258972
 21
-111.761268615723
 31
0.0
  0
LINE
  5
   3E0
  8
0
  6
CONTINUOUS
 62
   130
 10
74.6758723258972
 20
-114.761268615723
 30
0.0
 11
70.9258723258972
 21
-114.761268615723
 31
0.0
  0
LINE
  5
   3E1
  8
0
  6
CONTINUOUS
 62
   130
 10
67.6758723258972
 20
-115.261268615723
 30
0.0
 11
67.1758723258972
 21
-114.761268615723
 31
0.0
  0
LINE
  5
   3E2
  8
0
  6
CONTINUOUS
 62
   130
 10
67.1758723258972
 20
-111.761268615723
 30
0.0
 11
67.1758723258972
 21
-114.761268615723
 31
0.0
  0
LINE
  5
   3E3
  8
0
  6
CONTINUOUS
 62
   130
 10
67.6758723258972
 20
-111.261268615723
 30
0.0
 11
67.1758723258972
 21
-111.761268615723
 31
0.0
  0
LINE
  5
   3E4
  8
0
  6
CONTINUOUS
 62
   130
 10
70.9258723258972
 20
-117.261268615723
 30
0.0
 11
70.1758723258972
 21
-117.261268615723
 31
0.0
  0
LINE
  5
   3E5
  8
0
  6
CONTINUOUS
 62
   130
 10
80.4258723258972
 20
-115.261268615723
 30
0.0
 11
75.4258723258972
 21
-115.261268615723
 31
0.0
  0
LINE
  5
   3E6
  8
0
  6
CONTINUOUS
 62
   130
 10
80.4258723258972
 20
-111.261268615723
 30
0.0
 11
75.4258723258972
 21
-111.261268615723
 31
0.0
  0
LINE
  5
   3E7
  8
0
  6
CONTINUOUS
 62
   130
 10
80.4258723258972
 20
-110.423808332768
 30
0.0
 11
80.4258723258972
 21
-118.761268615723
 31
0.0
  0
LINE
  5
   3E8
  8
0
  6
CONTINUOUS
 62
   130
 10
80.4258723258972
 20
-79.7112838745117
 30
0.0
 11
75.4258723258972
 21
-79.7112838745117
 31
0.0
  0
LINE
  5
   3E9
  8
0
  6
CONTINUOUS
 62
   130
 10
77.9258723258972
 20
-79.7112838745117
 30
0.0
 11
77.9258723258972
 21
-86.7112838745117
 31
0.0
  0
LINE
  5
   3EA
  8
0
  6
CONTINUOUS
 62
   130
 10
74.6758723258972
 20
-81.7112838745117
 30
0.0
 11
70.9258723258972
 21
-81.7112838745117
 31
0.0
  0
LINE
  5
   3EB
  8
0
  6
CONTINUOUS
 62
   130
 10
74.6758723258972
 20
-79.2112838745117
 30
0.0
 11
74.6758723258972
 21
-87.2112838745117
 31
0.0
  0
LINE
  5
   3EC
  8
0
  6
CONTINUOUS
 62
   130
 10
80.4258723258972
 20
-77.7112838745117
 30
0.0
 11
80.4258723258972
 21
-86.0487441574664
 31
0.0
  0
LINE
  5
   3ED
  8
0
  6
CONTINUOUS
 62
   130
 10
80.4258723258972
 20
-81.2112838745117
 30
0.0
 11
75.4258723258972
 21
-81.2112838745117
 31
0.0
  0
LINE
  5
   3EE
  8
0
  6
CONTINUOUS
 62
   130
 10
80.4258723258972
 20
-85.2112838745117
 30
0.0
 11
75.4258723258972
 21
-85.2112838745117
 31
0.0
  0
LINE
  5
   3EF
  8
0
  6
CONTINUOUS
 62
   130
 10
75.4258723258972
 20
-79.2112838745117
 30
0.0
 11
75.4258723258972
 21
-87.2112838745117
 31
0.0
  0
LINE
  5
   3F0
  8
0
  6
CONTINUOUS
 62
   130
 10
74.6758723258972
 20
-81.2112838745117
 30
0.0
 11
70.9258723258972
 21
-81.2112838745117
 31
0.0
  0
LINE
  5
   3F1
  8
0
  6
CONTINUOUS
 62
   130
 10
75.4258723258972
 20
-79.2112838745117
 30
0.0
 11
74.6758723258972
 21
-79.2112838745117
 31
0.0
  0
LINE
  5
   3F2
  8
0
  6
CONTINUOUS
 62
   130
 10
75.4258723258972
 20
-87.2112838745117
 30
0.0
 11
74.6758723258972
 21
-87.2112838745117
 31
0.0
  0
LINE
  5
   3F3
  8
0
  6
CONTINUOUS
 62
   130
 10
70.9258723258972
 20
-79.2112838745117
 30
0.0
 11
70.1758723258972
 21
-79.2112838745117
 31
0.0
  0
LINE
  5
   3F4
  8
0
  6
CONTINUOUS
 62
   130
 10
70.9258723258972
 20
-87.2112838745117
 30
0.0
 11
70.1758723258972
 21
-87.2112838745117
 31
0.0
  0
LINE
  5
   3F5
  8
0
  6
CONTINUOUS
 62
   130
 10
70.1758723258972
 20
-79.7112838745117
 30
0.0
 11
67.6758723258972
 21
-79.7112838745117
 31
0.0
  0
LINE
  5
   3F6
  8
0
  6
CONTINUOUS
 62
   130
 10
70.1758723258972
 20
-81.2112838745117
 30
0.0
 11
67.6758723258972
 21
-81.2112838745117
 31
0.0
  0
LINE
  5
   3F7
  8
0
  6
CONTINUOUS
 62
   130
 10
70.1758723258972
 20
-85.2112838745117
 30
0.0
 11
67.6758723258972
 21
-85.2112838745117
 31
0.0
  0
LINE
  5
   3F8
  8
0
  6
CONTINUOUS
 62
   130
 10
70.1758723258972
 20
-86.7112838745117
 30
0.0
 11
67.6758723258972
 21
-86.7112838745117
 31
0.0
  0
LINE
  5
   3F9
  8
0
  6
CONTINUOUS
 62
   130
 10
67.6758723258972
 20
-81.2112838745117
 30
0.0
 11
67.1758723258972
 21
-81.7112838745117
 31
0.0
  0
LINE
  5
   3FA
  8
0
  6
CONTINUOUS
 62
   130
 10
67.1758723258972
 20
-81.7112838745117
 30
0.0
 11
67.1758723258972
 21
-84.7112838745117
 31
0.0
  0
LINE
  5
   3FB
  8
0
  6
CONTINUOUS
 62
   130
 10
67.6758723258973
 20
-85.2112838745118
 30
0.0
 11
67.1758723258973
 21
-84.7112838745118
 31
0.0
  0
LINE
  5
   3FC
  8
0
  6
CONTINUOUS
 62
   130
 10
70.1758723258972
 20
-79.7112838745117
 30
0.0
 11
67.6758723258972
 21
-79.7112838745117
 31
0.0
  0
LINE
  5
   3FD
  8
0
  6
CONTINUOUS
 62
   130
 10
67.6758723258972
 20
-79.7112838745117
 30
0.0
 11
67.6758723258972
 21
-86.7112838745117
 31
0.0
  0
LINE
  5
   3FE
  8
0
  6
CONTINUOUS
 62
   130
 10
70.1758723258972
 20
-79.2112838745117
 30
0.0
 11
70.1758723258972
 21
-87.2112838745117
 31
0.0
  0
LINE
  5
   3FF
  8
0
  6
CONTINUOUS
 62
   130
 10
70.1758723258972
 20
-79.2112838745117
 30
0.0
 11
70.1758723258972
 21
-87.2112838745117
 31
0.0
  0
LINE
  5
   400
  8
0
  6
CONTINUOUS
 62
   130
 10
70.9258723258972
 20
-79.2112838745117
 30
0.0
 11
70.9258723258972
 21
-87.2112838745117
 31
0.0
  0
LINE
  5
   401
  8
0
  6
CONTINUOUS
 62
   130
 10
74.6758723258972
 20
-79.2112838745117
 30
0.0
 11
74.6758723258972
 21
-87.2112838745117
 31
0.0
  0
LINE
  5
   402
  8
0
  6
CONTINUOUS
 62
   130
 10
74.6758723258972
 20
-79.2112838745117
 30
0.0
 11
74.6758723258972
 21
-87.2112838745117
 31
0.0
  0
LINE
  5
   403
  8
0
  6
CONTINUOUS
 62
   130
 10
74.6758723258972
 20
-81.2112838745117
 30
0.0
 11
70.9258723258972
 21
-81.2112838745117
 31
0.0
  0
LINE
  5
   404
  8
0
  6
CONTINUOUS
 62
   130
 10
74.6758723258972
 20
-85.2112838745117
 30
0.0
 11
70.9258723258972
 21
-85.2112838745117
 31
0.0
  0
LINE
  5
   405
  8
0
  6
CONTINUOUS
 62
   130
 10
74.6758723258972
 20
-85.211284383138
 30
0.0
 11
70.9258723258972
 21
-85.211284383138
 31
0.0
  0
LINE
  5
   406
  8
0
  6
CONTINUOUS
 62
   130
 10
74.6758723258972
 20
-84.711284383138
 30
0.0
 11
70.9258723258972
 21
-84.711284383138
 31
0.0
  0
LINE
  5
   407
  8
0
  6
DASHDOT
 62
   130
 10
93.6452333758951
 20
-113.261268615723
 30
0.0
 11
64.2775890555225
 21
-113.261268615723
 31
0.0
  0
LINE
  5
   408
  8
0
  6
CONTINUOUS
 62
   130
 10
62.2758723258972
 20
-93.895220852732
 30
0.0
 11
62.2758723258972
 21
-101.885356482528
 31
0.0
  0
LINE
  5
   409
  8
0
  6
CONTINUOUS
 62
   130
 10
62.4258723258972
 20
-93.895220852732
 30
0.0
 11
62.2758723258972
 21
-93.895220852732
 31
0.0
  0
LINE
  5
   40A
  8
0
  6
CONTINUOUS
 62
   130
 10
62.4258723258972
 20
-101.947488516884
 30
0.0
 11
61.7308815725016
 21
-102.64247927028
 31
0.0
  0
LINE
  5
   40B
  8
0
  6
CONTINUOUS
 62
   130
 10
62.2758723258972
 20
-101.885356482528
 30
0.0
 11
61.6248155553236
 21
-102.536413253102
 31
0.0
  0
LINE
  5
   40C
  8
0
  6
CONTINUOUS
 62
   130
 10
61.7308815725016
 20
-102.64247927028
 30
0.0
 11
61.6248155553236
 21
-102.536413253102
 31
0.0
  0
LINE
  5
   40D
  8
0
  6
CONTINUOUS
 62
   130
 10
79.7308815725016
 20
-117.64247927028
 30
0.0
 11
79.6248155553236
 21
-117.536413253102
 31
0.0
  0
LINE
  5
   40E
  8
0
  6
CONTINUOUS
 62
   130
 10
80.4258723258972
 20
-116.947488516884
 30
0.0
 11
79.7308815725016
 21
-117.64247927028
 31
0.0
  0
LINE
  5
   40F
  8
0
  6
CONTINUOUS
 62
   130
 10
80.2758723258972
 20
-116.885356482528
 30
0.0
 11
79.6248155553236
 21
-117.536413253102
 31
0.0
  0
LINE
  5
   410
  8
0
  6
CONTINUOUS
 62
   130
 10
80.2758723258972
 20
-108.895220852732
 30
0.0
 11
80.2758723258972
 21
-116.885356482528
 31
0.0
  0
LINE
  5
   411
  8
0
  6
CONTINUOUS
 62
   130
 10
80.4258723258972
 20
-108.895220852732
 30
0.0
 11
80.2758723258972
 21
-108.895220852732
 31
0.0
  0
LINE
  5
   412
  8
0
  6
CONTINUOUS
 62
   130
 10
79.7308815725016
 20
-87.5924947833822
 30
0.0
 11
79.6248155553236
 21
-87.4864287662042
 31
0.0
  0
LINE
  5
   413
  8
0
  6
CONTINUOUS
 62
   130
 10
80.4258723258972
 20
-86.8975040299865
 30
0.0
 11
79.7308815725016
 21
-87.5924947833821
 31
0.0
  0
LINE
  5
   414
  8
0
  6
CONTINUOUS
 62
   130
 10
80.2758723258972
 20
-86.8353719956305
 30
0.0
 11
79.6248155553236
 21
-87.4864287662042
 31
0.0
  0
LINE
  5
   415
  8
0
  6
CONTINUOUS
 62
   130
 10
80.2758723258972
 20
-78.8452363658343
 30
0.0
 11
80.2758723258972
 21
-86.8353719956305
 31
0.0
  0
LINE
  5
   416
  8
0
  6
CONTINUOUS
 62
   130
 10
80.4258723258972
 20
-78.8452363658343
 30
0.0
 11
80.2758723258972
 21
-78.8452363658343
 31
0.0
  0
LINE
  5
   417
  8
0
  6
CONTINUOUS
 62
   130
 10
88.1758723258971
 20
-101.761268615723
 30
0.0
 11
87.6758723258972
 21
-101.761268615723
 31
0.0
  0
LINE
  5
   418
  8
0
  6
CONTINUOUS
 62
   130
 10
80.4258723258972
 20
-86.7112838745117
 30
0.0
 11
75.4258723258972
 21
-86.7112838745117
 31
0.0
  0
LINE
  5
   419
  8
0
  6
CONTINUOUS
 62
   130
 10
88.1758723258971
 20
-79.7112838745117
 30
0.0
 11
87.6758723258972
 21
-79.7112838745117
 31
0.0
  0
LINE
  5
   41A
  8
0
  6
CONTINUOUS
 62
   130
 10
88.1758723258971
 20
-86.7112838745117
 30
0.0
 11
87.6758723258972
 21
-86.7112838745117
 31
0.0
  0
LINE
  5
   41B
  8
0
  6
CONTINUOUS
 62
   130
 10
87.6758723258972
 20
-77.7112838745117
 30
0.0
 11
87.6758723258972
 21
-88.2112841288249
 31
0.0
  0
LINE
  5
   41C
  8
0
  6
CONTINUOUS
 62
   130
 10
86.1758651733398
 20
-88.7112838745117
 30
0.0
 11
80.4258723258972
 21
-88.7112838745117
 31
0.0
  0
LINE
  5
   41D
  8
0
  6
CONTINUOUS
 62
   130
 10
87.6758723258972
 20
-77.7112838745117
 30
0.0
 11
80.4258723258972
 21
-77.7112838745117
 31
0.0
  0
LINE
  5
   41E
  8
0
  6
CONTINUOUS
 62
   130
 10
87.6758723258972
 20
-93.2612686157227
 30
0.0
 11
87.6758723258972
 21
-103.261268615723
 31
0.0
  0
LINE
  5
   41F
  8
0
  6
CONTINUOUS
 62
   130
 10
88.1758723258971
 20
-94.7112838745117
 30
0.0
 11
87.6758723258972
 21
-94.7112838745117
 31
0.0
  0
LINE
  5
   420
  8
0
  6
DASHDOT
 62
   130
 10
165.130193406785
 20
-98.2612686157227
 30
0.0
 11
64.2775890555225
 21
-98.2612686157227
 31
0.0
  0
LINE
  5
   421
  8
0
  6
DASHDOT
 62
   130
 10
93.6452333758951
 20
-83.2612686157227
 30
0.0
 11
64.2775890555225
 21
-83.2612686157227
 31
0.0
  0
LINE
  5
   422
  8
0
  6
CONTINUOUS
 62
   130
 10
80.4258723258972
 20
-102.261268615723
 30
0.0
 11
62.4258723258972
 21
-102.261268615723
 31
0.0
  0
LINE
  5
   423
  8
0
  6
CONTINUOUS
 62
   130
 10
80.4258723258972
 20
-94.2612686157227
 30
0.0
 11
62.4258723258972
 21
-94.2612686157227
 31
0.0
  0
LINE
  5
   424
  8
0
  6
CONTINUOUS
 62
   130
 10
80.4258723258972
 20
-92.7612686157227
 30
0.0
 11
80.4258723258972
 21
-103.761268615723
 31
0.0
  0
LINE
  5
   425
  8
0
  6
CONTINUOUS
 62
   130
 10
91.6758651733399
 20
-88.2112841288249
 30
0.0
 11
86.1758651733398
 21
-88.2112841288249
 31
0.0
  0
LINE
  5
   426
  8
0
  6
CONTINUOUS
 62
   130
 10
91.6758651733399
 20
-93.2612686157227
 30
0.0
 11
86.1758651733398
 21
-93.2612686157227
 31
0.0
  0
LINE
  5
   427
  8
0
  6
CONTINUOUS
 62
   130
 10
91.6758651733399
 20
-103.261268615723
 30
0.0
 11
86.1758651733398
 21
-103.261268615723
 31
0.0
  0
LINE
  5
   428
  8
0
  6
CONTINUOUS
 62
   130
 10
91.6758651733399
 20
-108.261268615723
 30
0.0
 11
86.1758651733398
 21
-108.261268615723
 31
0.0
  0
LINE
  5
   429
  8
0
  6
CONTINUOUS
 62
   130
 10
86.1758651733398
 20
-88.2112841288249
 30
0.0
 11
86.1758651733398
 21
-90.9621791440005
 31
0.0
  0
LINE
  5
   42A
  8
0
  6
CONTINUOUS
 62
   130
 10
86.1758651733398
 20
-90.9621791440005
 30
0.0
 11
86.1758651733398
 21
-93.2612686157227
 31
0.0
  0
LINE
  5
   42B
  8
0
  6
CONTINUOUS
 62
   130
 10
86.1758651733398
 20
-103.261268615723
 30
0.0
 11
86.1758651733398
 21
-108.261268615723
 31
0.0
  0
LINE
  5
   42C
  8
0
  6
CONTINUOUS
 62
   130
 10
95.6759131320552
 20
-81.2612686157227
 30
0.0
 11
95.6759131320552
 21
-85.2612686157227
 31
0.0
  0
LINE
  5
   42D
  8
0
  6
CONTINUOUS
 62
   130
 10
96.6759131320551
 20
-81.2612686157227
 30
0.0
 11
96.6759131320551
 21
-85.2612686157227
 31
0.0
  0
ARC
  5
   42E
  8
0
  6
CONTINUOUS
 62
   130
 10
96.1759131320552
 20
-85.2612686157227
 30
0.0
 40
0.500000000000002
 50
179.999999896069
 51
359.999999896069
  0
ARC
  5
   42F
  8
0
  6
CONTINUOUS
 62
   130
 10
96.1759131320552
 20
-81.2612686157227
 30
0.0
 40
0.500000000000002
 50
359.999999896069
 51
539.999999896069
  0
ARC
  5
   430
  8
0
  6
CONTINUOUS
 62
   130
 10
98.1759131320552
 20
-81.2612686157227
 30
0.0
 40
0.500000000000002
 50
359.999999896069
 51
539.999999896069
  0
ARC
  5
   431
  8
0
  6
CONTINUOUS
 62
   130
 10
98.1759131320552
 20
-81.2612686157227
 30
0.0
 40
0.500000000000002
 50
359.999999896069
 51
539.999999896069
  0
LINE
  5
   432
  8
0
  6
CONTINUOUS
 62
   130
 10
98.6759131320552
 20
-81.2612686157227
 30
0.0
 11
98.6759131320552
 21
-85.2612686157227
 31
0.0
  0
LINE
  5
   433
  8
0
  6
CONTINUOUS
 62
   130
 10
97.6759131320551
 20
-81.2612686157227
 30
0.0
 11
97.6759131320551
 21
-85.2612686157227
 31
0.0
  0
ARC
  5
   434
  8
0
  6
CONTINUOUS
 62
   130
 10
98.1759131320552
 20
-85.2612686157227
 30
0.0
 40
0.500000000000002
 50
179.999999896069
 51
359.999999896069
  0
ARC
  5
   435
  8
0
  6
CONTINUOUS
 62
   130
 10
100.175913132055
 20
-85.2612686157227
 30
0.0
 40
0.500000000000002
 50
179.999999896069
 51
359.999999896069
  0
LINE
  5
   436
  8
0
  6
CONTINUOUS
 62
   130
 10
99.6759131320552
 20
-81.2612686157227
 30
0.0
 11
99.6759131320552
 21
-85.2612686157227
 31
0.0
  0
LINE
  5
   437
  8
0
  6
CONTINUOUS
 62
   130
 10
100.675913132055
 20
-81.2612686157227
 30
0.0
 11
100.675913132055
 21
-85.2612686157227
 31
0.0
  0
ARC
  5
   438
  8
0
  6
CONTINUOUS
 62
   130
 10
100.175913132055
 20
-81.2612686157227
 30
0.0
 40
0.500000000000002
 50
359.999999896069
 51
539.999999896069
  0
LINE
  5
   439
  8
0
  6
CONTINUOUS
 62
   130
 10
100.675913132055
 20
-81.2612686157227
 30
0.0
 11
100.675913132055
 21
-85.2612686157227
 31
0.0
  0
LINE
  5
   43A
  8
0
  6
CONTINUOUS
 62
   130
 10
99.6759131320552
 20
-81.2612686157227
 30
0.0
 11
99.6759131320552
 21
-85.2612686157227
 31
0.0
  0
ARC
  5
   43B
  8
0
  6
CONTINUOUS
 62
   130
 10
100.175913132055
 20
-81.2612686157227
 30
0.0
 40
0.500000000000002
 50
359.999999896069
 51
539.999999896069
  0
ARC
  5
   43C
  8
0
  6
CONTINUOUS
 62
   130
 10
100.175913132055
 20
-85.2612686157227
 30
0.0
 40
0.500000000000002
 50
179.999999896069
 51
359.999999896069
  0
LINE
  5
   43D
  8
0
  6
CONTINUOUS
 62
   130
 10
102.675913132055
 20
-81.2612686157227
 30
0.0
 11
102.675913132055
 21
-85.2612686157227
 31
0.0
  0
ARC
  5
   43E
  8
0
  6
CONTINUOUS
 62
   130
 10
102.175913132055
 20
-81.2612686157227
 30
0.0
 40
0.500000000000002
 50
359.999999896069
 51
539.999999896069
  0
LINE
  5
   43F
  8
0
  6
CONTINUOUS
 62
   130
 10
101.675913132055
 20
-81.2612686157227
 30
0.0
 11
101.675913132055
 21
-85.2612686157227
 31
0.0
  0
ARC
  5
   440
  8
0
  6
CONTINUOUS
 62
   130
 10
102.175913132055
 20
-85.2612686157227
 30
0.0
 40
0.500000000000002
 50
179.999999896069
 51
359.999999896069
  0
LINE
  5
   441
  8
0
  6
CONTINUOUS
 62
   130
 10
95.6759131320552
 20
-96.2612686157227
 30
0.0
 11
95.6759131320552
 21
-100.261268615723
 31
0.0
  0
LINE
  5
   442
  8
0
  6
CONTINUOUS
 62
   130
 10
96.6759131320551
 20
-96.2612686157227
 30
0.0
 11
96.6759131320551
 21
-100.261268615723
 31
0.0
  0
LINE
  5
   443
  8
0
  6
CONTINUOUS
 62
   130
 10
97.6759131320551
 20
-96.2612686157227
 30
0.0
 11
97.6759131320551
 21
-100.261268615723
 31
0.0
  0
LINE
  5
   444
  8
0
  6
CONTINUOUS
 62
   130
 10
98.6759131320552
 20
-96.2612686157227
 30
0.0
 11
98.6759131320552
 21
-100.261268615723
 31
0.0
  0
LINE
  5
   445
  8
0
  6
CONTINUOUS
 62
   130
 10
99.6759131320552
 20
-96.2612686157227
 30
0.0
 11
99.6759131320552
 21
-100.261268615723
 31
0.0
  0
LINE
  5
   446
  8
0
  6
CONTINUOUS
 62
   130
 10
100.675913132055
 20
-96.2612686157227
 30
0.0
 11
100.675913132055
 21
-100.261268615723
 31
0.0
  0
LINE
  5
   447
  8
0
  6
CONTINUOUS
 62
   130
 10
101.675913132055
 20
-96.2612686157227
 30
0.0
 11
101.675913132055
 21
-100.261268615723
 31
0.0
  0
LINE
  5
   448
  8
0
  6
CONTINUOUS
 62
   130
 10
102.675913132055
 20
-96.2612686157227
 30
0.0
 11
102.675913132055
 21
-100.261268615723
 31
0.0
  0
ARC
  5
   449
  8
0
  6
CONTINUOUS
 62
   130
 10
96.1759131320552
 20
-100.261268615723
 30
0.0
 40
0.500000000000002
 50
179.999999896069
 51
359.999999896069
  0
ARC
  5
   44A
  8
0
  6
CONTINUOUS
 62
   130
 10
98.1759131320552
 20
-100.261268615723
 30
0.0
 40
0.500000000000002
 50
179.999999896069
 51
359.999999896069
  0
ARC
  5
   44B
  8
0
  6
CONTINUOUS
 62
   130
 10
100.175913132055
 20
-100.261268615723
 30
0.0
 40
0.500000000000002
 50
179.999999896069
 51
359.999999896069
  0
ARC
  5
   44C
  8
0
  6
CONTINUOUS
 62
   130
 10
102.175913132055
 20
-100.261268615723
 30
0.0
 40
0.500000000000002
 50
179.999999896069
 51
359.999999896069
  0
ARC
  5
   44D
  8
0
  6
CONTINUOUS
 62
   130
 10
96.1759131320552
 20
-96.2612686157227
 30
0.0
 40
0.500000000000002
 50
359.999999896069
 51
539.999999896069
  0
ARC
  5
   44E
  8
0
  6
CONTINUOUS
 62
   130
 10
98.1759131320552
 20
-96.2612686157227
 30
0.0
 40
0.500000000000002
 50
359.999999896069
 51
539.999999896069
  0
ARC
  5
   44F
  8
0
  6
CONTINUOUS
 62
   130
 10
100.175913132055
 20
-96.2612686157227
 30
0.0
 40
0.500000000000002
 50
359.999999896069
 51
539.999999896069
  0
ARC
  5
   450
  8
0
  6
CONTINUOUS
 62
   130
 10
102.175913132055
 20
-96.2612686157227
 30
0.0
 40
0.500000000000002
 50
359.999999896069
 51
539.999999896069
  0
LINE
  5
   451
  8
0
  6
CONTINUOUS
 62
   130
 10
96.6759131320551
 20
-111.261268615723
 30
0.0
 11
96.6759131320551
 21
-115.261268615723
 31
0.0
  0
LINE
  5
   452
  8
0
  6
CONTINUOUS
 62
   130
 10
95.6759131320552
 20
-111.261268615723
 30
0.0
 11
95.6759131320552
 21
-115.261268615723
 31
0.0
  0
LINE
  5
   453
  8
0
  6
CONTINUOUS
 62
   130
 10
97.6759131320551
 20
-111.261268615723
 30
0.0
 11
97.6759131320551
 21
-115.261268615723
 31
0.0
  0
LINE
  5
   454
  8
0
  6
CONTINUOUS
 62
   130
 10
98.6759131320552
 20
-111.261268615723
 30
0.0
 11
98.6759131320552
 21
-115.261268615723
 31
0.0
  0
LINE
  5
   455
  8
0
  6
CONTINUOUS
 62
   130
 10
100.675913132055
 20
-111.261268615723
 30
0.0
 11
100.675913132055
 21
-115.261268615723
 31
0.0
  0
LINE
  5
   456
  8
0
  6
CONTINUOUS
 62
   130
 10
101.675913132055
 20
-111.261268615723
 30
0.0
 11
101.675913132055
 21
-115.261268615723
 31
0.0
  0
LINE
  5
   457
  8
0
  6
CONTINUOUS
 62
   130
 10
102.675913132055
 20
-111.261268615723
 30
0.0
 11
102.675913132055
 21
-115.261268615723
 31
0.0
  0
ARC
  5
   458
  8
0
  6
CONTINUOUS
 62
   130
 10
102.175913132055
 20
-111.261268615723
 30
0.0
 40
0.500000000000002
 50
359.999999896069
 51
539.999999896069
  0
ARC
  5
   459
  8
0
  6
CONTINUOUS
 62
   130
 10
100.175913132055
 20
-111.261268615723
 30
0.0
 40
0.500000000000002
 50
359.999999896069
 51
539.999999896069
  0
ARC
  5
   45A
  8
0
  6
CONTINUOUS
 62
   130
 10
98.1759131320552
 20
-111.261268615723
 30
0.0
 40
0.500000000000002
 50
359.999999896069
 51
539.999999896069
  0
ARC
  5
   45B
  8
0
  6
CONTINUOUS
 62
   130
 10
96.1759131320552
 20
-111.261268615723
 30
0.0
 40
0.500000000000002
 50
359.999999896069
 51
539.999999896069
  0
ARC
  5
   45C
  8
0
  6
CONTINUOUS
 62
   130
 10
96.1759131320552
 20
-115.261268615723
 30
0.0
 40
0.500000000000002
 50
179.999999896069
 51
359.999999896069
  0
ARC
  5
   45D
  8
0
  6
CONTINUOUS
 62
   130
 10
98.1759131320552
 20
-115.261268615723
 30
0.0
 40
0.500000000000002
 50
179.999999896069
 51
359.999999896069
  0
ARC
  5
   45E
  8
0
  6
CONTINUOUS
 62
   130
 10
100.175913132055
 20
-115.261268615723
 30
0.0
 40
0.500000000000002
 50
179.999999896069
 51
359.999999896069
  0
ARC
  5
   45F
  8
0
  6
CONTINUOUS
 62
   130
 10
102.175913132055
 20
-115.261268615723
 30
0.0
 40
0.500000000000002
 50
179.999999896069
 51
359.999999896069
  0
LINE
  5
   460
  8
0
  6
CONTINUOUS
 62
   130
 10
99.6759131320552
 20
-111.261268615723
 30
0.0
 11
99.6759131320552
 21
-115.261268615723
 31
0.0
  0
TEXT
  5
   461
  8
0
  6
CONTINUOUS
 62
     2
 10
220.205822314994
 20
-177.396026779536
 30
0.0
 40
2.00000008940697
  1
   INTERR.AUTOMATICO SERIE ISOMAX
 50
359.999999896069
 41
0.75
 11
220.205822318612
 21
-175.396026690129
 31
0.0
 73
     3
  0
TEXT
  5
   462
  8
0
  6
CONTINUOUS
 62
     2
 10
220.205820305928
 20
-180.596029875426
 30
0.0
 40
2.00000008940697
  1
ESECUZ.RIMOVIBILE TRIP.TERMINALI POSTER.
 50
359.999999896069
 41
0.75
 11
220.205820309546
 21
-178.596029786019
 31
0.0
 73
     3
  0
TEXT
  5
   463
  8
0
  6
CONTINUOUS
 62
     2
 10
222.35303707985
 20
-168.863720840045
 30
0.0
 40
2.00000008940697
  1
3 POLE LOW VOLTAGE M.C.C.B SERIES ISOMAX
 50
359.999999896069
 41
0.75
 11
222.353037083468
 21
-166.863720750638
 31
0.0
 73
     3
  0
TEXT
  5
   464
  8
0
  6
CONTINUOUS
 62
     2
 10
229.853037415126
 20
-172.063720662877
 30
0.0
 40
2.00000008940697
  1
PLUG-IN VERSION REAR TERMINALS
 50
359.999999896069
 41
0.75
 11
229.853037418744
 21
-170.06372057347
 31
0.0
 73
     3
  0
INSERT
  5
   465
  8
0
  6
CONTINUOUS
 62
     3
  2
*UDIM669
 10
0.0
 20
0.0
 30
0.0
  0
INSERT
  5
   466
  8
0
  6
CONTINUOUS
 62
     3
  2
*UDIM670
 10
0.0
 20
0.0
 30
0.0
  0
TEXT
  5
   467
  8
0
  6
CONTINUOUS
 62
     2
 10
127.679623602012
 20
-168.307001149551
 30
0.0
 40
2.00000008940697
  1
3/11/92
 50
359.999999896069
 41
0.75
 72
     2
 11
137.679624050856
 21
-167.307001122936
 31
0.0
 73
     2
  0
TEXT
  5
   468
  8
0
  6
CONTINUOUS
 62
     2
 10
129.311612127402
 20
-171.57098010768
 30
0.0
 40
2.00000008940697
  1
mostosi
 50
359.999999896069
 41
0.75
 72
     2
 11
139.311612576246
 21
-170.570980081066
 31
0.0
 73
     2
  0
TEXT
  5
   469
  8
0
  6
CONTINUOUS
 62
     2
 10
137.778561589841
 20
-185.534686071528
 30
0.0
 40
2.50000005960464
  1
M3727 95-01-18
 50
359.999999896069
 41
0.649999919056892
 11
137.778561592102
 21
-184.284686041726
 31
0.0
 73
     2
  0
TEXT
  5
   46A
  8
0
  6
CONTINUOUS
 62
     2
 10
252.478552271693
 20
-187.432462993183
 30
0.0
 40
3.00000002980232
  1
S2
 50
359.999999896069
 41
0.983333351877
 72
     2
 11
257.628552436829
 21
-185.932462987597
 31
0.0
 73
     2
  0
TEXT
  5
   46B
  8
0
  6
CONTINUOUS
 62
     2
 10
227.521057094586
 20
-196.971416706612
 30
0.0
 40
5.00000011920929
  1
601855/141
 50
359.999999896069
 41
0.983333355585733
 72
     2
 11
275.437726020818
 21
-194.471416733684
 31
0.0
 73
     2
  0
TEXT
  5
   46C
  8
0
  6
CONTINUOUS
 62
     2
 10
287.93658722711
 20
-198.431125664358
 30
0.0
 40
2.50000005960464
  1
1/1
 50
359.999999896069
 41
1.01399994459152
 72
     1
 11
291.426587104797
 21
-197.181125640869
 31
0.0
 73
     2
  0
INSERT
  5
   46D
  8
0
  6
CONTINUOUS
 62
     7
  2
*UDIM671
 10
0.0
 20
0.0
 30
0.0
  0
INSERT
  5
   46E
  8
0
  6
CONTINUOUS
 62
     7
  2
*UDIM672
 10
0.0
 20
0.0
 30
0.0
  0
INSERT
  5
   46F
  8
0
  6
CONTINUOUS
 62
     7
  2
*UDIM673
 10
0.0
 20
0.0
 30
0.0
  0
INSERT
  5
   470
  8
0
  6
CONTINUOUS
 62
     7
  2
*UDIM674
 10
0.0
 20
0.0
 30
0.0
  0
LINE
  5
   471
  8
0
  6
CONTINUOUS
 62
     7
 10
-10.3444857597351
 20
23.8114505410194
 30
0.0
 11
-10.3444857597351
 21
-9.25309250995846
 31
0.0
  0
LINE
  5
   472
  8
0
  6
CONTINUOUS
 62
     7
 10
-61.2194857597351
 20
-23.5635494589806
 30
0.0
 11
-53.2630591867857
 21
-23.5635494589806
 31
0.0
  0
LINE
  5
   473
  8
0
  6
CONTINUOUS
 62
     7
 10
-61.8444857597351
 20
23.8114505410194
 30
0.0
 11
-61.8444857597351
 21
-22.9385494589806
 31
0.0
  0
LINE
  5
   474
  8
0
  6
CONTINUOUS
 62
     7
 10
-61.2194857597351
 20
24.4364505410194
 30
0.0
 11
-10.9694857597351
 21
24.4364505410194
 31
0.0
  0
LINE
  5
   475
  8
0
  6
CONTINUOUS
 62
     7
 10
-59.3444857597351
 20
-11.5635494589806
 30
0.0
 11
-53.2630591867857
 21
-11.5635494589806
 31
0.0
  0
LINE
  5
   476
  8
0
  6
CONTINUOUS
 62
     7
 10
-59.3444857597351
 20
12.4364505410194
 30
0.0
 11
-12.8444857597351
 21
12.4364505410194
 31
0.0
  0
LINE
  5
   477
  8
0
  6
CONTINUOUS
 62
     7
 10
-59.5944857597351
 20
24.4364505410194
 30
0.0
 11
-59.5944857597351
 21
-23.5635494589806
 31
0.0
  0
LINE
  5
   478
  8
0
  6
CONTINUOUS
 62
     7
 10
-59.0944857597351
 20
17.6864505410194
 30
0.0
 11
-59.0944857597351
 21
12.4364505410194
 31
0.0
  0
LINE
  5
   479
  8
0
  6
CONTINUOUS
 62
     7
 10
-59.0944857597351
 20
-11.5635494589806
 30
0.0
 11
-59.0944857597351
 21
-16.8135494589806
 31
0.0
  0
LINE
  5
   47A
  8
0
  6
CONTINUOUS
 62
     7
 10
-59.0944857597351
 20
-17.3135494589806
 30
0.0
 11
-59.0944857597351
 21
-23.5635494589806
 31
0.0
  0
LINE
  5
   47B
  8
0
  6
CONTINUOUS
 62
     7
 10
-12.5944857597351
 20
24.4364505410194
 30
0.0
 11
-12.5944857597351
 21
-9.25309250995846
 31
0.0
  0
LINE
  5
   47C
  8
0
  6
CONTINUOUS
 62
     7
 10
-13.0944857597351
 20
17.6864505410194
 30
0.0
 11
-13.0944857597351
 21
12.4364505410194
 31
0.0
  0
LINE
  5
   47D
  8
0
  6
CONTINUOUS
 62
     7
 10
-59.5944857597351
 20
18.1864505410194
 30
0.0
 11
-12.5944857597351
 21
18.1864505410194
 31
0.0
  0
LINE
  5
   47E
  8
0
  6
CONTINUOUS
 62
     7
 10
-59.0944857597351
 20
17.6864505410194
 30
0.0
 11
-13.0944857597351
 21
17.6864505410194
 31
0.0
  0
LINE
  5
   47F
  8
0
  6
CONTINUOUS
 62
     7
 10
-59.0944857597351
 20
-17.3135494589806
 30
0.0
 11
-53.2630591867857
 21
-17.3135494589806
 31
0.0
  0
LINE
  5
   480
  8
0
  6
CONTINUOUS
 62
     7
 10
-59.0944857597351
 20
-16.8135494589806
 30
0.0
 11
-53.2630591867857
 21
-16.8135494589806
 31
0.0
  0
LINE
  5
   481
  8
0
  6
CONTINUOUS
 62
     7
 10
-59.5944857597351
 20
21.6864505410194
 30
0.0
 11
-59.4444842338562
 21
21.6864505410194
 31
0.0
  0
LINE
  5
   482
  8
0
  6
CONTINUOUS
 62
     7
 10
-59.5944857597351
 20
20.9364505410194
 30
0.0
 11
-59.4444842338562
 21
20.9364505410194
 31
0.0
  0
LINE
  5
   483
  8
0
  6
CONTINUOUS
 62
     7
 10
-12.7444858551025
 20
21.6864505410194
 30
0.0
 11
-12.5944857597351
 21
21.6864505410194
 31
0.0
  0
LINE
  5
   484
  8
0
  6
CONTINUOUS
 62
     7
 10
-12.7444858551025
 20
20.9364505410194
 30
0.0
 11
-12.5944857597351
 21
20.9364505410194
 31
0.0
  0
ARC
  5
   485
  8
0
  6
CONTINUOUS
 62
     7
 10
-59.4445042051942
 20
21.3114380820422
 30
0.0
 40
0.375021724720464
 50
270.002994716444
 51
449.997011754257
  0
ARC
  5
   486
  8
0
  6
CONTINUOUS
 62
     7
 10
-12.7444784235438
 20
21.3114477859542
 30
0.0
 40
0.375007470094436
 50
450.001135501493
 51
629.998857587167
  0
ARC
  5
   487
  8
0
  6
CONTINUOUS
 62
     7
 10
-10.9694857597351
 20
23.8114505410194
 30
0.0
 40
0.625
 50
359.999999844103
 51
449.999999844103
  0
ARC
  5
   488
  8
0
  6
CONTINUOUS
 62
     7
 10
-61.2194857597351
 20
23.8114505410194
 30
0.0
 40
0.625
 50
449.999999844103
 51
539.999999844103
  0
ARC
  5
   489
  8
0
  6
CONTINUOUS
 62
     7
 10
-61.2194857597351
 20
-22.9385494589806
 30
0.0
 40
0.625
 50
539.999999844103
 51
629.999999844103
  0
LINE
  5
   48A
  8
0
  6
CONTINUOUS
 62
     7
 10
-12.8444857597351
 20
12.4364505410194
 30
0.0
 11
-12.8444857597351
 21
-9.25309250995846
 31
0.0
  0
LINE
  5
   48B
  8
0
  6
CONTINUOUS
 62
     7
 10
-59.3444857597351
 20
12.4364505410194
 30
0.0
 11
-59.3444857597351
 21
-11.5635494589806
 31
0.0
  0
LINE
  5
   48C
  8
0
  6
DASHDOT
 62
   130
 10
-64.8633991628563
 20
0.436089277264934
 30
0.0
 11
2.45992252809616
 21
0.436089277264934
 31
0.0
  0
LINE
  5
   48D
  8
0
  6
CONTINUOUS
 62
   130
 10
-30.8444262964608
 20
-4.51983612004962
 30
0.0
 11
-30.8444263536813
 21
-6.01983612004962
 31
0.0
  0
LINE
  5
   48E
  8
0
  6
CONTINUOUS
 62
   130
 10
-41.3444403188355
 20
-4.51983612004962
 30
0.0
 11
-41.344440261615
 21
-6.01983612004962
 31
0.0
  0
LINE
  5
   48F
  8
0
  6
CONTINUOUS
 62
   130
 10
-41.3444403188355
 20
-4.51983612004962
 30
0.0
 11
-39.8444403188355
 21
-4.51983612004962
 31
0.0
  0
LINE
  5
   490
  8
0
  6
CONTINUOUS
 62
   130
 10
-32.3444262964608
 20
-4.51983612004962
 30
0.0
 11
-30.8444262964608
 21
-4.51983612004962
 31
0.0
  0
LINE
  5
   491
  8
0
  6
CONTINUOUS
 62
   130
 10
-41.344440261615
 20
-6.01983612004962
 30
0.0
 11
-39.344440261615
 21
-6.01983612004962
 31
0.0
  0
LINE
  5
   492
  8
0
  6
CONTINUOUS
 62
   130
 10
-32.8444263536813
 20
-6.01983612004962
 30
0.0
 11
-30.8444263536813
 21
-6.01983612004962
 31
0.0
  0
LINE
  5
   493
  8
0
  6
CONTINUOUS
 62
   130
 10
-7.13801240921021
 20
-0.813925981521606
 30
0.0
 11
-7.13801240921021
 21
-0.813925981521606
 31
0.0
  0
LINE
  5
   494
  8
0
  6
CONTINUOUS
 62
   130
 10
-7.13801240921021
 20
-0.813925981521606
 30
0.0
 11
-7.13801240921021
 21
-0.813925981521606
 31
0.0
  0
LINE
  5
   495
  8
0
  6
CONTINUOUS
 62
   130
 10
-7.13801240921021
 20
-0.813925981521606
 30
0.0
 11
-7.13801240921021
 21
-0.813925981521606
 31
0.0
  0
LINE
  5
   496
  8
0
  6
CONTINUOUS
 62
   130
 10
-7.13801240921021
 20
-0.813925981521606
 30
0.0
 11
-7.13801240921021
 21
-0.813925981521606
 31
0.0
  0
LINE
  5
   497
  8
0
  6
CONTINUOUS
 62
   130
 10
-7.13801240921021
 20
-0.813925981521606
 30
0.0
 11
-7.13801240921021
 21
-0.813925981521606
 31
0.0
  0
LINE
  5
   498
  8
0
  6
CONTINUOUS
 62
   130
 10
-7.13801240921021
 20
-0.813925981521606
 30
0.0
 11
-7.13801240921021
 21
-0.813925981521606
 31
0.0
  0
LINE
  5
   499
  8
0
  6
CONTINUOUS
 62
   130
 10
-7.13801240921021
 20
-0.813925981521606
 30
0.0
 11
-7.13801240921021
 21
-0.813925981521606
 31
0.0
  0
LINE
  5
   49A
  8
0
  6
CONTINUOUS
 62
   130
 10
-7.13801240921021
 20
-0.813925981521606
 30
0.0
 11
-7.13801240921021
 21
-0.813925981521606
 31
0.0
  0
LINE
  5
   49B
  8
0
  6
CONTINUOUS
 62
   130
 10
-58.5944252586266
 20
46.4360251259804
 30
0.0
 11
-58.5944219017586
 21
24.4364505410194
 31
0.0
  0
LINE
  5
   49C
  8
0
  6
CONTINUOUS
 62
   130
 10
-58.5944317817705
 20
-10.8139107227291
 30
0.0
 11
-36.0944317817703
 21
-10.8139107227291
 31
0.0
  0
LINE
  5
   49D
  8
0
  6
CONTINUOUS
 62
   130
 10
-58.5944352149973
 20
11.6860892772649
 30
0.0
 11
-36.0944352149971
 21
11.6860892772649
 31
0.0
  0
LINE
  5
   49E
  8
0
  6
CONTINUOUS
 62
   130
 10
-39.8444407775121
 20
7.50409099787257
 30
0.0
 11
-32.7722180048173
 21
7.50409099787257
 31
0.0
  0
LINE
  5
   49F
  8
0
  6
CONTINUOUS
 62
   130
 10
-39.8444408130651
 20
8.43608927726493
 30
0.0
 11
-39.844440299762
 21
-5.01983612004962
 31
0.0
  0
LINE
  5
   4A0
  8
0
  6
DASHDOT
 62
   130
 10
-46.3944321632389
 20
-5.68891835212617
 30
0.0
 11
-46.3944321632389
 21
-10.9389183521262
 31
0.0
  0
LINE
  5
   4A1
  8
0
  6
CONTINUOUS
 62
   130
 10
-39.844440299762
 20
-5.01983612004962
 30
0.0
 11
-39.344440299762
 21
-5.01983612004962
 31
0.0
  0
LINE
  5
   4A2
  8
0
  6
CONTINUOUS
 62
   130
 10
-39.8444403069375
 20
-4.83173437745269
 30
0.0
 11
-39.3444403069375
 21
-4.83173437745269
 31
0.0
  0
LINE
  5
   4A3
  8
0
  6
CONTINUOUS
 62
   130
 10
-58.5944347190868
 20
8.43608927726493
 30
0.0
 11
-30.998721449054
 21
8.43608927726493
 31
0.0
  0
LINE
  5
   4A4
  8
0
  6
CONTINUOUS
 62
   130
 10
-58.5944346046459
 20
7.68608927726493
 30
0.0
 11
-39.8444407844548
 21
7.68608927726493
 31
0.0
  0
LINE
  5
   4A5
  8
0
  6
CONTINUOUS
 62
   130
 10
-58.5944322776811
 20
-7.56391072272913
 30
0.0
 11
-48.8944321632389
 21
-7.56391072272913
 31
0.0
  0
LINE
  5
   4A6
  8
0
  6
CONTINUOUS
 62
   130
 10
-58.5944323921219
 20
-6.81391072272913
 30
0.0
 11
-39.3444402313234
 21
-6.81391072272913
 31
0.0
  0
LINE
  5
   4A7
  8
0
  6
CONTINUOUS
 62
   130
 10
-43.8944321632389
 20
-7.56391072272913
 30
0.0
 11
-19.5047326757301
 21
-7.56391072272913
 31
0.0
  0
LINE
  5
   4A8
  8
0
  6
CONTINUOUS
 62
   130
 10
-39.3444403987953
 20
-2.42373859494919
 30
0.0
 11
-39.3444402383298
 21
-6.6302441930848
 31
0.0
  0
LINE
  5
   4A9
  8
0
  6
CONTINUOUS
 62
   130
 10
-7.13801240921021
 20
-0.813925981521606
 30
0.0
 11
-7.13801240921021
 21
-0.813925981521606
 31
0.0
  0
LINE
  5
   4AA
  8
0
  6
CONTINUOUS
 62
   130
 10
-7.13801240921021
 20
-0.813925981521606
 30
0.0
 11
-7.13801240921021
 21
-0.813925981521606
 31
0.0
  0
LINE
  5
   4AB
  8
0
  6
CONTINUOUS
 62
   130
 10
-7.13801240921021
 20
-0.813925981521606
 30
0.0
 11
-7.13801240921021
 21
-0.813925981521606
 31
0.0
  0
LINE
  5
   4AC
  8
0
  6
CONTINUOUS
 62
   130
 10
-7.13801240921021
 20
-0.813925981521606
 30
0.0
 11
-7.13801240921021
 21
-0.813925981521606
 31
0.0
  0
LINE
  5
   4AD
  8
0
  6
CONTINUOUS
 62
   130
 10
-7.13801240921021
 20
-0.813925981521606
 30
0.0
 11
-7.13801240921021
 21
-0.813925981521606
 31
0.0
  0
LINE
  5
   4AE
  8
0
  6
CONTINUOUS
 62
   130
 10
-7.13801240921021
 20
-0.813925981521606
 30
0.0
 11
-7.13801240921021
 21
-0.813925981521606
 31
0.0
  0
LINE
  5
   4AF
  8
0
  6
CONTINUOUS
 62
   130
 10
-7.13801240921021
 20
-0.813925981521606
 30
0.0
 11
-7.13801240921021
 21
-0.813925981521606
 31
0.0
  0
LINE
  5
   4B0
  8
0
  6
CONTINUOUS
 62
   130
 10
-58.0944378852814
 20
29.1860681357211
 30
0.0
 11
-58.0944377708405
 21
28.4360681357211
 31
0.0
  0
LINE
  5
   4B1
  8
0
  6
CONTINUOUS
 62
   130
 10
-58.0944378852814
 20
29.1860681357211
 30
0.0
 11
-36.0944482055584
 21
29.1860681357211
 31
0.0
  0
LINE
  5
   4B2
  8
0
  6
CONTINUOUS
 62
   130
 10
-58.594431056977
 20
28.4360681357211
 30
0.0
 11
-36.0944333076477
 21
28.4360681357211
 31
0.0
  0
LINE
  5
   4B3
  8
0
  6
CONTINUOUS
 62
   130
 10
-7.13801240921021
 20
-0.813925981521606
 30
0.0
 11
-7.13801240921021
 21
-0.813925981521606
 31
0.0
  0
LINE
  5
   4B4
  8
0
  6
CONTINUOUS
 62
   130
 10
-7.13801240921021
 20
-0.813925981521606
 30
0.0
 11
-7.13801240921021
 21
-0.813925981521606
 31
0.0
  0
LINE
  5
   4B5
  8
0
  6
CONTINUOUS
 62
   130
 10
-7.13801240921021
 20
-0.813925981521606
 30
0.0
 11
-7.13801240921021
 21
-0.813925981521606
 31
0.0
  0
LINE
  5
   4B6
  8
0
  6
CONTINUOUS
 62
   130
 10
-7.13801240921021
 20
-0.813925981521606
 30
0.0
 11
-7.13801240921021
 21
-0.813925981521606
 31
0.0
  0
LINE
  5
   4B7
  8
0
  6
CONTINUOUS
 62
   130
 10
-7.13801240921021
 20
-0.813925981521606
 30
0.0
 11
-7.13801240921021
 21
-0.813925981521606
 31
0.0
  0
LINE
  5
   4B8
  8
0
  6
CONTINUOUS
 62
   130
 10
-7.13801240921021
 20
-0.813925981521606
 30
0.0
 11
-7.13801240921021
 21
-0.813925981521606
 31
0.0
  0
LINE
  5
   4B9
  8
0
  6
CONTINUOUS
 62
   130
 10
-7.13801240921021
 20
-0.813925981521606
 30
0.0
 11
-7.13801240921021
 21
-0.813925981521606
 31
0.0
  0
LINE
  5
   4BA
  8
0
  6
CONTINUOUS
 62
   130
 10
-7.13801240921021
 20
-0.813925981521606
 30
0.0
 11
-7.13801240921021
 21
-0.813925981521606
 31
0.0
  0
LINE
  5
   4BB
  8
0
  6
CONTINUOUS
 62
   130
 10
-13.5944413566697
 20
46.4360251259804
 30
0.0
 11
-13.5944447135377
 21
24.4364505410194
 31
0.0
  0
LINE
  5
   4BC
  8
0
  6
CONTINUOUS
 62
   130
 10
-36.094434833526
 20
-10.8139107227291
 30
0.0
 11
-13.5944348335258
 21
-10.8139107227291
 31
0.0
  0
LINE
  5
   4BD
  8
0
  6
CONTINUOUS
 62
   130
 10
-36.0944314002992
 20
11.6860892772649
 30
0.0
 11
-13.5944314002989
 21
11.6860892772649
 31
0.0
  0
LINE
  5
   4BE
  8
0
  6
CONTINUOUS
 62
   130
 10
-32.8444258377841
 20
7.50409099787257
 30
0.0
 11
-32.3444258377842
 21
7.50409099787257
 31
0.0
  0
LINE
  5
   4BF
  8
0
  6
CONTINUOUS
 62
   130
 10
-32.3444258022312
 20
8.43608927726493
 30
0.0
 11
-32.3444263155343
 21
-5.01983612004962
 31
0.0
  0
LINE
  5
   4C0
  8
0
  6
CONTINUOUS
 62
   130
 10
-32.8444263155343
 20
-5.01983612004962
 30
0.0
 11
-32.3444263155343
 21
-5.01983612004962
 31
0.0
  0
LINE
  5
   4C1
  8
0
  6
CONTINUOUS
 62
   130
 10
-32.8444263083588
 20
-4.83173437745269
 30
0.0
 11
-32.3444263083588
 21
-4.83173437745269
 31
0.0
  0
LINE
  5
   4C2
  8
0
  6
CONTINUOUS
 62
   130
 10
-32.8444258022312
 20
8.43608927726493
 30
0.0
 11
-13.5944318962095
 21
8.43608927726493
 31
0.0
  0
LINE
  5
   4C3
  8
0
  6
CONTINUOUS
 62
   130
 10
-32.3444258308415
 20
7.68608927726493
 30
0.0
 11
-13.5944320106504
 21
7.68608927726493
 31
0.0
  0
LINE
  5
   4C4
  8
0
  6
CONTINUOUS
 62
   130
 10
-32.844426216501
 20
-2.42373859494919
 30
0.0
 11
-32.8444263769665
 21
-6.6302441930848
 31
0.0
  0
LINE
  5
   4C5
  8
0
  6
CONTINUOUS
 62
   130
 10
-7.13801240921021
 20
-0.813925981521606
 30
0.0
 11
-7.13801240921021
 21
-0.813925981521606
 31
0.0
  0
LINE
  5
   4C6
  8
0
  6
CONTINUOUS
 62
   130
 10
-7.13801240921021
 20
-0.813925981521606
 30
0.0
 11
-7.13801240921021
 21
-0.813925981521606
 31
0.0
  0
LINE
  5
   4C7
  8
0
  6
CONTINUOUS
 62
   130
 10
-7.13801240921021
 20
-0.813925981521606
 30
0.0
 11
-7.13801240921021
 21
-0.813925981521606
 31
0.0
  0
LINE
  5
   4C8
  8
0
  6
CONTINUOUS
 62
   130
 10
-7.13801240921021
 20
-0.813925981521606
 30
0.0
 11
-7.13801240921021
 21
-0.813925981521606
 31
0.0
  0
LINE
  5
   4C9
  8
0
  6
CONTINUOUS
 62
   130
 10
-7.13801240921021
 20
-0.813925981521606
 30
0.0
 11
-7.13801240921021
 21
-0.813925981521606
 31
0.0
  0
LINE
  5
   4CA
  8
0
  6
CONTINUOUS
 62
   130
 10
-14.0944288444558
 20
-15.5639166054898
 30
0.0
 11
-14.0944287300149
 21
-16.3139166054898
 31
0.0
  0
LINE
  5
   4CB
  8
0
  6
CONTINUOUS
 62
   130
 10
-14.0944287300149
 20
29.1860681357211
 30
0.0
 11
-14.0944288444558
 21
28.4360681357211
 31
0.0
  0
LINE
  5
   4CC
  8
0
  6
CONTINUOUS
 62
   130
 10
-58.5944226264926
 20
29.1860681357211
 30
0.0
 11
-13.5944439888037
 21
29.1860681357211
 31
0.0
  0
LINE
  5
   4CD
  8
0
  6
CONTINUOUS
 62
   130
 10
-36.0944333076486
 20
28.4360681357211
 30
0.0
 11
-13.5944355583193
 21
28.4360681357211
 31
0.0
  0
LINE
  5
   4CE
  8
0
  6
DASHDOT
 62
   130
 10
-52.7944321632389
 20
-8.31391835212617
 30
0.0
 11
-39.9944321632389
 21
-8.31391835212617
 31
0.0
  0
LINE
  5
   4CF
  8
0
  6
DASHDOT
 62
   130
 10
-17.1944317817688
 20
-6.52566145000066
 30
0.0
 11
-17.1944317817688
 21
-9.83555430366825
 31
0.0
  0
LINE
  5
   4D0
  8
0
  6
DASHDOT
 62
   130
 10
-18.5857607612253
 20
-8.21391824527154
 30
0.0
 11
-15.8501805011542
 21
-8.21391824527154
 31
0.0
  0
LINE
  5
   4D1
  8
0
  6
CONTINUOUS
 62
   130
 10
-17.1944317817688
 20
-5.81391824527154
 30
0.0
 11
-17.4901019193845
 21
-6.10958838288725
 31
0.0
  0
LINE
  5
   4D2
  8
0
  6
CONTINUOUS
 62
   130
 10
-17.1944317817688
 20
-5.81391824527154
 30
0.0
 11
-16.8987616441531
 21
-6.10958838288725
 31
0.0
  0
ARC
  5
   4D3
  8
0
  6
CONTINUOUS
 62
   130
 10
-17.1944317817688
 20
-8.21391824527154
 30
0.0
 40
2.125
 50
457.998020342877
 51
802.00197934533
  0
LINE
  5
   4D4
  8
0
  6
CONTINUOUS
 62
   130
 10
-18.1944317817688
 20
-7.96391824527154
 30
0.0
 11
-16.1944317817688
 21
-7.96391824527154
 31
0.0
  0
LINE
  5
   4D5
  8
0
  6
CONTINUOUS
 62
   130
 10
-18.1944317817688
 20
-8.46391824527154
 30
0.0
 11
-16.1944317817688
 21
-8.46391824527154
 31
0.0
  0
ARC
  5
   4D6
  8
0
  6
CONTINUOUS
 62
   130
 10
-17.1944317817688
 20
-8.21391824527154
 30
0.0
 40
2.4
 50
359.999999844103
 51
539.999999844103
  0
LINE
  5
   4D7
  8
0
  6
CONTINUOUS
 62
   130
 10
-19.5944317817688
 20
-8.21391824527154
 30
0.0
 11
-19.3194317817688
 21
-8.21391824527154
 31
0.0
  0
LINE
  5
   4D8
  8
0
  6
CONTINUOUS
 62
   130
 10
-15.0694317817688
 20
-8.21391824527154
 30
0.0
 11
-14.7944317817688
 21
-8.21391824527154
 31
0.0
  0
LINE
  5
   4D9
  8
0
  6
CONTINUOUS
 62
   130
 10
-15.245078315405
 20
-6.81391072272913
 30
0.0
 11
-13.5944494819634
 21
-6.81391072272913
 31
0.0
  0
LINE
  5
   4DA
  8
0
  6
CONTINUOUS
 62
   130
 10
-14.8841308878075
 20
-7.56391072272913
 30
0.0
 11
-13.5944495964043
 21
-7.56391072272913
 31
0.0
  0
INSERT
  5
   4DB
  8
0
  6
CONTINUOUS
 62
     7
  2
*HATCH183
 10
-7.13801240921021
 20
-0.813925981521606
 30
0.0
 41
0.5
 42
0.5
 50
269.999999844103
 43
0.5
  0
LINE
  5
   4DC
  8
0
  6
CONTINUOUS
 62
   130
 10
-39.3444403987953
 20
-2.42373859494919
 30
0.0
 11
-32.844426216501
 21
-2.42373859494919
 31
0.0
  0
LINE
  5
   4DD
  8
0
  6
CONTINUOUS
 62
   130
 10
-39.0944402844345
 20
-5.17163667333251
 30
0.0
 11
-33.0944263308618
 21
-5.17163667333251
 31
0.0
  0
LINE
  5
   4DE
  8
0
  6
CONTINUOUS
 62
   130
 10
-39.0944402383298
 20
-6.88024418354805
 30
0.0
 11
-33.0944263769665
 21
-6.88024418354805
 31
0.0
  0
LINE
  5
   4DF
  8
0
  6
CONTINUOUS
 62
   130
 10
-32.8444263839728
 20
-6.81391072272913
 30
0.0
 11
-19.1437852481326
 21
-6.81391072272913
 31
0.0
  0
ARC
  5
   4E0
  8
0
  6
CONTINUOUS
 62
   130
 10
-39.0944402383298
 20
-6.63024418354805
 30
0.0
 40
0.25
 50
540.000002029765
 51
629.999999844103
  0
ARC
  5
   4E1
  8
0
  6
CONTINUOUS
 62
   130
 10
-33.0944263769665
 20
-6.63024418354805
 30
0.0
 40
0.25
 50
269.999999844103
 51
359.999997658442
  0
ARC
  5
   4E2
  8
0
  6
CONTINUOUS
 62
   130
 10
-33.0944263308618
 20
-5.42163667333251
 30
0.0
 40
0.25
 50
359.999997658442
 51
449.999999844103
  0
ARC
  5
   4E3
  8
0
  6
CONTINUOUS
 62
   130
 10
-39.0944402844345
 20
-5.42163667333251
 30
0.0
 40
0.25
 50
449.999999844103
 51
540.000002029765
  0
LINE
  5
   4E4
  8
0
  6
CONTINUOUS
 62
   130
 10
-36.094434833526
 20
-10.8139107227291
 30
0.0
 11
-13.5944348335258
 21
-10.8139107227291
 31
0.0
  0
LINE
  5
   4E5
  8
0
  6
CONTINUOUS
 62
   130
 10
-36.0944314002992
 20
11.6860892772649
 30
0.0
 11
-13.5944314002989
 21
11.6860892772649
 31
0.0
  0
LINE
  5
   4E6
  8
0
  6
CONTINUOUS
 62
   130
 10
-42.978786945343
 20
6.61416269785385
 30
0.0
 11
-42.603786945343
 21
6.61416269785385
 31
0.0
  0
LINE
  5
   4E7
  8
0
  6
CONTINUOUS
 62
   130
 10
-42.978786945343
 20
4.36416269785385
 30
0.0
 11
-42.603786945343
 21
4.36416269785385
 31
0.0
  0
CIRCLE
  5
   4E8
  8
0
  6
CONTINUOUS
 62
   130
 10
-42.791286945343
 20
-2.88583730214614
 30
0.0
 40
1.125
  0
CIRCLE
  5
   4E9
  8
0
  6
CONTINUOUS
 62
   130
 10
-42.791286945343
 20
-2.88583730214614
 30
0.0
 40
0.75
  0
LINE
  5
   4EA
  8
0
  6
CONTINUOUS
 62
   130
 10
-42.978786945343
 20
6.61416269785385
 30
0.0
 11
-42.978786945343
 21
4.36416269785385
 31
0.0
  0
LINE
  5
   4EB
  8
0
  6
CONTINUOUS
 62
   130
 10
-42.603786945343
 20
6.61416269785385
 30
0.0
 11
-42.603786945343
 21
4.36416269785385
 31
0.0
  0
LINE
  5
   4EC
  8
0
  6
CONTINUOUS
 62
   130
 10
-28.7037893867493
 20
-1.92333730214615
 30
0.0
 11
-28.5912893867493
 21
-1.92333730214615
 31
0.0
  0
LINE
  5
   4ED
  8
0
  6
CONTINUOUS
 62
   130
 10
-29.0287893867493
 20
-3.84833730214615
 30
0.0
 11
-28.8287893867493
 21
-3.84833730214615
 31
0.0
  0
LINE
  5
   4EE
  8
0
  6
CONTINUOUS
 62
   130
 10
-29.3287893867493
 20
-3.07333730214613
 30
0.0
 11
-29.3287893867493
 21
-3.19833730214613
 31
0.0
  0
ARC
  5
   4EF
  8
0
  6
CONTINUOUS
 62
   130
 10
-29.9787893867493
 20
-3.07333730214615
 30
0.0
 40
0.65
 50
359.999999844103
 51
539.999999844103
  0
ARC
  5
   4F0
  8
0
  6
CONTINUOUS
 62
   130
 10
-29.9787893867493
 20
-3.19833730214615
 30
0.0
 40
0.649999999999999
 50
539.999999844103
 51
719.999999844103
  0
ARC
  5
   4F1
  8
0
  6
CONTINUOUS
 62
   130
 10
-29.9787893867493
 20
-3.07333730214615
 30
0.0
 40
0.45
 50
359.999999844103
 51
539.999999844103
  0
ARC
  5
   4F2
  8
0
  6
CONTINUOUS
 62
   130
 10
-29.9787893867493
 20
-3.19833730214615
 30
0.0
 40
0.449999999999999
 50
539.999999844103
 51
719.999999844103
  0
LINE
  5
   4F3
  8
0
  6
CONTINUOUS
 62
   130
 10
-29.5287893867493
 20
-3.07333730214614
 30
0.0
 11
-29.5287893867493
 21
-3.19833730214613
 31
0.0
  0
LINE
  5
   4F4
  8
0
  6
CONTINUOUS
 62
   130
 10
-29.2662893867493
 20
-2.52333730214614
 30
0.0
 11
-29.2662893867493
 21
-2.72333730214613
 31
0.0
  0
LINE
  5
   4F5
  8
0
  6
CONTINUOUS
 62
   130
 10
-29.2662893867493
 20
-2.72333730214615
 30
0.0
 11
-29.0287893867493
 21
-2.72333730214615
 31
0.0
  0
LINE
  5
   4F6
  8
0
  6
CONTINUOUS
 62
   130
 10
-28.5912893867493
 20
-2.52333730214614
 30
0.0
 11
-28.5912893867493
 21
-2.72333730214613
 31
0.0
  0
LINE
  5
   4F7
  8
0
  6
CONTINUOUS
 62
   130
 10
-29.2662893867493
 20
-2.52333730214615
 30
0.0
 11
-29.0287893867493
 21
-2.52333730214615
 31
0.0
  0
LINE
  5
   4F8
  8
0
  6
CONTINUOUS
 62
   130
 10
-29.0287893867493
 20
-2.72333730214613
 30
0.0
 11
-29.0287893867493
 21
-3.84833730214613
 31
0.0
  0
LINE
  5
   4F9
  8
0
  6
CONTINUOUS
 62
   130
 10
-28.8287893867493
 20
-2.72333730214613
 30
0.0
 11
-28.8287893867493
 21
-3.84833730214613
 31
0.0
  0
LINE
  5
   4FA
  8
0
  6
CONTINUOUS
 62
   130
 10
-28.8287893867493
 20
-2.72333730214615
 30
0.0
 11
-28.5912893867493
 21
-2.72333730214615
 31
0.0
  0
LINE
  5
   4FB
  8
0
  6
CONTINUOUS
 62
   130
 10
-28.8287893867493
 20
-2.52333730214615
 30
0.0
 11
-28.5912893867493
 21
-2.52333730214615
 31
0.0
  0
LINE
  5
   4FC
  8
0
  6
CONTINUOUS
 62
   130
 10
-29.0287893867493
 20
-2.24833730214613
 30
0.0
 11
-29.0287893867493
 21
-2.52333730214614
 31
0.0
  0
LINE
  5
   4FD
  8
0
  6
CONTINUOUS
 62
   130
 10
-28.8287893867493
 20
-2.24833730214613
 30
0.0
 11
-28.8287893867493
 21
-2.52333730214614
 31
0.0
  0
ARC
  5
   4FE
  8
0
  6
CONTINUOUS
 62
   130
 10
-28.7037893867493
 20
-2.24833730214615
 30
0.0
 40
0.325
 50
449.999999844103
 51
539.999999844103
  0
ARC
  5
   4FF
  8
0
  6
CONTINUOUS
 62
   130
 10
-28.7037893867493
 20
-2.24833730214615
 30
0.0
 40
0.125
 50
449.999999844103
 51
539.999999844103
  0
LINE
  5
   500
  8
0
  6
CONTINUOUS
 62
   130
 10
-28.5912893867493
 20
-1.92333730214613
 30
0.0
 11
-28.5912893867493
 21
-2.12333730214613
 31
0.0
  0
LINE
  5
   501
  8
0
  6
CONTINUOUS
 62
   130
 10
-28.7037893867493
 20
-2.12333730214615
 30
0.0
 11
-28.5912893867493
 21
-2.12333730214615
 31
0.0
  0
LINE
  5
   502
  8
0
  6
CONTINUOUS
 62
   130
 10
-28.2287893867493
 20
-3.84833730214615
 30
0.0
 11
-28.0287893867493
 21
-3.84833730214615
 31
0.0
  0
LINE
  5
   503
  8
0
  6
CONTINUOUS
 62
   130
 10
-28.4662893867493
 20
-2.52333730214614
 30
0.0
 11
-28.4662893867493
 21
-2.72333730214613
 31
0.0
  0
LINE
  5
   504
  8
0
  6
CONTINUOUS
 62
   130
 10
-28.4662893867493
 20
-2.72333730214615
 30
0.0
 11
-28.2287893867493
 21
-2.72333730214615
 31
0.0
  0
LINE
  5
   505
  8
0
  6
CONTINUOUS
 62
   130
 10
-27.7912893867493
 20
-2.52333730214614
 30
0.0
 11
-27.7912893867493
 21
-2.72333730214613
 31
0.0
  0
LINE
  5
   506
  8
0
  6
CONTINUOUS
 62
   130
 10
-28.4662893867493
 20
-2.52333730214615
 30
0.0
 11
-28.2287893867493
 21
-2.52333730214615
 31
0.0
  0
LINE
  5
   507
  8
0
  6
CONTINUOUS
 62
   130
 10
-28.2287893867493
 20
-2.72333730214613
 30
0.0
 11
-28.2287893867493
 21
-3.84833730214613
 31
0.0
  0
LINE
  5
   508
  8
0
  6
CONTINUOUS
 62
   130
 10
-28.0287893867493
 20
-2.72333730214613
 30
0.0
 11
-28.0287893867493
 21
-3.84833730214613
 31
0.0
  0
LINE
  5
   509
  8
0
  6
CONTINUOUS
 62
   130
 10
-28.0287893867493
 20
-2.72333730214615
 30
0.0
 11
-27.7912893867493
 21
-2.72333730214615
 31
0.0
  0
LINE
  5
   50A
  8
0
  6
CONTINUOUS
 62
   130
 10
-28.0287893867493
 20
-2.52333730214615
 30
0.0
 11
-27.7912893867493
 21
-2.52333730214615
 31
0.0
  0
LINE
  5
   50B
  8
0
  6
CONTINUOUS
 62
   130
 10
-28.2287893867493
 20
-2.24833730214613
 30
0.0
 11
-28.2287893867493
 21
-2.52333730214614
 31
0.0
  0
LINE
  5
   50C
  8
0
  6
CONTINUOUS
 62
   130
 10
-28.0287893867493
 20
-2.24833730214613
 30
0.0
 11
-28.0287893867493
 21
-2.52333730214614
 31
0.0
  0
ARC
  5
   50D
  8
0
  6
CONTINUOUS
 62
   130
 10
-27.9037893867493
 20
-2.24833730214615
 30
0.0
 40
0.325
 50
449.999999844103
 51
539.999999844103
  0
ARC
  5
   50E
  8
0
  6
CONTINUOUS
 62
   130
 10
-27.9037893867493
 20
-2.24833730214615
 30
0.0
 40
0.125
 50
449.999999844103
 51
539.999999844103
  0
LINE
  5
   50F
  8
0
  6
CONTINUOUS
 62
   130
 10
-27.7912893867493
 20
-1.92333730214613
 30
0.0
 11
-27.7912893867493
 21
-2.12333730214614
 31
0.0
  0
LINE
  5
   510
  8
0
  6
CONTINUOUS
 62
   130
 10
-29.1287893867493
 20
4.77666269785385
 30
0.0
 11
-28.9287893867493
 21
4.77666269785385
 31
0.0
  0
ARC
  5
   511
  8
0
  6
CONTINUOUS
 62
   130
 10
-29.9787893867493
 20
5.55166269785385
 30
0.0
 40
0.65
 50
359.999999844103
 51
539.999999844103
  0
ARC
  5
   512
  8
0
  6
CONTINUOUS
 62
   130
 10
-29.9787893867493
 20
5.55166269785385
 30
0.0
 40
0.45
 50
359.999999844103
 51
539.999999844103
  0
ARC
  5
   513
  8
0
  6
CONTINUOUS
 62
   130
 10
-29.9787893867493
 20
5.42666269785385
 30
0.0
 40
0.649999999999999
 50
539.999999844103
 51
719.999999844103
  0
ARC
  5
   514
  8
0
  6
CONTINUOUS
 62
   130
 10
-29.9787893867493
 20
5.42666269785385
 30
0.0
 40
0.449999999999999
 50
539.999999844103
 51
719.999999844103
  0
LINE
  5
   515
  8
0
  6
CONTINUOUS
 62
   130
 10
-29.1287893867493
 20
6.20166269785386
 30
0.0
 11
-29.1287893867493
 21
4.77666269785386
 31
0.0
  0
LINE
  5
   516
  8
0
  6
CONTINUOUS
 62
   130
 10
-28.9287893867493
 20
5.65166269785386
 30
0.0
 11
-28.9287893867493
 21
4.77666269785386
 31
0.0
  0
LINE
  5
   517
  8
0
  6
CONTINUOUS
 62
   130
 10
-28.2287893867493
 20
5.65166269785386
 30
0.0
 11
-28.2287893867493
 21
4.77666269785386
 31
0.0
  0
LINE
  5
   518
  8
0
  6
CONTINUOUS
 62
   130
 10
-28.0287893867493
 20
5.70166269785386
 30
0.0
 11
-28.0287893867493
 21
4.77666269785386
 31
0.0
  0
LINE
  5
   519
  8
0
  6
CONTINUOUS
 62
   130
 10
-29.1287893867493
 20
6.20166269785385
 30
0.0
 11
-28.9287893867493
 21
6.20166269785385
 31
0.0
  0
ARC
  5
   51A
  8
0
  6
CONTINUOUS
 62
   130
 10
-28.5787893867493
 20
5.65166269785384
 30
0.0
 40
0.35
 50
359.999999844103
 51
539.999999844103
  0
LINE
  5
   51B
  8
0
  6
CONTINUOUS
 62
   130
 10
-28.9287893867493
 20
6.20166269785386
 30
0.0
 11
-28.9287893867493
 21
6.00166269785386
 31
0.0
  0
ARC
  5
   51C
  8
0
  6
CONTINUOUS
 62
   130
 10
-28.5287893867493
 20
5.70166269785384
 30
0.0
 40
0.5
 50
359.999999844103
 51
503.130102198259
  0
LINE
  5
   51D
  8
0
  6
CONTINUOUS
 62
   130
 10
-28.2287893867493
 20
4.77666269785385
 30
0.0
 11
-28.0287893867493
 21
4.77666269785385
 31
0.0
  0
LINE
  5
   51E
  8
0
  6
CONTINUOUS
 62
   130
 10
-28.8946269897002
 20
11.0156439137114
 30
0.0
 11
-29.0116428367234
 21
10.9950111720583
 31
0.0
  0
LINE
  5
   51F
  8
0
  6
CONTINUOUS
 62
   130
 10
-29.0116356092788
 20
10.9950150998573
 30
0.0
 11
-29.1145370594363
 21
10.9356057282708
 31
0.0
  0
LINE
  5
   520
  8
0
  6
CONTINUOUS
 62
   130
 10
-29.114541292288
 20
10.9356013903001
 30
0.0
 11
-29.1909153547845
 21
10.8445810346991
 31
0.0
  0
LINE
  5
   521
  8
0
  6
CONTINUOUS
 62
   130
 10
-29.1909139293976
 20
10.8445815919297
 30
0.0
 11
-29.2315518971395
 21
10.7329285048086
 31
0.0
  0
LINE
  5
   522
  8
0
  6
CONTINUOUS
 62
   130
 10
-29.2315555301782
 20
10.7329287079412
 30
0.0
 11
-29.2315555301782
 21
10.614109948023
 31
0.0
  0
LINE
  5
   523
  8
0
  6
CONTINUOUS
 62
   130
 10
-29.2315522282792
 20
10.6141111586831
 30
0.0
 11
-29.1909142605373
 21
10.5024580715621
 31
0.0
  0
LINE
  5
   524
  8
0
  6
CONTINUOUS
 62
   130
 10
-29.1909160404956
 20
10.5024575949854
 30
0.0
 11
-29.1145419779991
 21
10.4114372393844
 31
0.0
  0
LINE
  5
   525
  8
0
  6
CONTINUOUS
 62
   130
 10
-29.1145353916994
 20
10.4114349391909
 30
0.0
 11
-29.0116339415418
 21
10.3520255676043
 31
0.0
  0
LINE
  5
   526
  8
0
  6
CONTINUOUS
 62
   130
 10
-29.0116420233895
 20
10.3520270314116
 30
0.0
 11
-28.8946261763663
 21
10.3313942897585
 31
0.0
  0
LINE
  5
   527
  8
0
  6
CONTINUOUS
 62
   130
 10
-28.8946262088891
 20
10.3313943890172
 30
0.0
 11
-28.7799144474145
 21
10.3313943890172
 31
0.0
  0
LINE
  5
   528
  8
0
  6
CONTINUOUS
 62
   130
 10
-28.7799083439916
 20
10.3313968221805
 30
0.0
 11
-28.7361423297487
 21
10.3171756333741
 31
0.0
  0
LINE
  5
   529
  8
0
  6
CONTINUOUS
 62
   130
 10
-28.7361428123707
 20
10.3171755187006
 30
0.0
 11
-28.7090927986755
 21
10.2799443165287
 31
0.0
  0
LINE
  5
   52A
  8
0
  6
CONTINUOUS
 62
   130
 10
-28.7090984073755
 20
10.2799419907171
 30
0.0
 11
-28.7090984073755
 21
10.2339217213231
 31
0.0
  0
LINE
  5
   52B
  8
0
  6
CONTINUOUS
 62
   130
 10
-28.7090947979566
 20
10.2339233620326
 30
0.0
 11
-28.7361448116517
 21
10.1966921598608
 31
0.0
  0
LINE
  5
   52C
  8
0
  6
CONTINUOUS
 62
   130
 10
-28.7361435610004
 20
10.1966921609123
 30
0.0
 11
-28.7799095752434
 21
10.182470972106
 31
0.0
  0
LINE
  5
   52D
  8
0
  6
CONTINUOUS
 62
   130
 10
-29.1965022770044
 20
10.182469323023
 30
0.0
 11
-28.7799144474145
 21
10.182469323023
 31
0.0
  0
LINE
  5
   52E
  8
0
  6
CONTINUOUS
 62
   130
 10
-29.1965022770044
 20
10.182469323023
 30
0.0
 11
-29.1965022770044
 21
9.90876956258596
 31
0.0
  0
LINE
  5
   52F
  8
0
  6
CONTINUOUS
 62
   130
 10
-29.1965022770044
 20
9.90876956258596
 30
0.0
 11
-28.7799144474145
 21
9.90876956258596
 31
0.0
  0
LINE
  5
   530
  8
0
  6
CONTINUOUS
 62
   130
 10
-28.6608360607973
 20
9.92976674331849
 30
0.0
 11
-28.779911829166
 21
9.90877017482589
 31
0.0
  0
LINE
  5
   531
  8
0
  6
CONTINUOUS
 62
   130
 10
-28.5561198318763
 20
9.99022521377038
 30
0.0
 11
-28.6608371013319
 21
9.92976725952935
 31
0.0
  0
LINE
  5
   532
  8
0
  6
CONTINUOUS
 62
   130
 10
-28.478391088542
 20
10.0828524566023
 30
0.0
 11
-28.5561155449355
 21
9.99022589119174
 31
0.0
  0
LINE
  5
   533
  8
0
  6
CONTINUOUS
 62
   130
 10
-28.437039741564
 20
10.1964727974121
 30
0.0
 11
-28.4783948762473
 21
10.0828494009437
 31
0.0
  0
LINE
  5
   534
  8
0
  6
CONTINUOUS
 62
   130
 10
-28.4370418277856
 20
10.3173896816808
 30
0.0
 11
-28.4370418277856
 21
10.1964740303594
 31
0.0
  0
LINE
  5
   535
  8
0
  6
CONTINUOUS
 62
   130
 10
-28.4783949711406
 20
10.4310137839674
 30
0.0
 11
-28.4370398364573
 21
10.317390387499
 31
0.0
  0
LINE
  5
   536
  8
0
  6
CONTINUOUS
 62
   130
 10
-28.5561181106779
 20
10.5236428154765
 30
0.0
 11
-28.4783936490722
 21
10.4310159983222
 31
0.0
  0
LINE
  5
   537
  8
0
  6
CONTINUOUS
 62
   130
 10
-28.6608392723529
 20
10.5840980610014
 30
0.0
 11
-28.5561220075788
 21
10.5236403478975
 31
0.0
  0
LINE
  5
   538
  8
0
  6
CONTINUOUS
 62
   130
 10
-28.7799083054906
 20
10.6050936856251
 30
0.0
 11
-28.6608325388377
 21
10.5840968791873
 31
0.0
  0
LINE
  5
   539
  8
0
  6
CONTINUOUS
 62
   130
 10
-28.8946262088891
 20
10.6050943878728
 30
0.0
 11
-28.7799144474145
 21
10.6050943878728
 31
0.0
  0
LINE
  5
   53A
  8
0
  6
CONTINUOUS
 62
   130
 10
-28.9348441608718
 20
10.6181635287428
 30
0.0
 11
-28.8946219934853
 21
10.605095568527
 31
0.0
  0
LINE
  5
   53B
  8
0
  6
CONTINUOUS
 62
   130
 10
-28.9597034744368
 20
10.6523742459131
 30
0.0
 11
-28.9348469070408
 21
10.6181616554323
 31
0.0
  0
LINE
  5
   53C
  8
0
  6
CONTINUOUS
 62
   130
 10
-28.9597049442407
 20
10.6946637180883
 30
0.0
 11
-28.9597049442407
 21
10.6523749378759
 31
0.0
  0
LINE
  5
   53D
  8
0
  6
CONTINUOUS
 62
   130
 10
-28.9348432150724
 20
10.7288751543415
 30
0.0
 11
-28.9596997824684
 21
10.6946625638607
 31
0.0
  0
LINE
  5
   53E
  8
0
  6
CONTINUOUS
 62
   130
 10
-28.8946204408386
 20
10.7419461376362
 30
0.0
 11
-28.9348426082251
 21
10.7288781774204
 31
0.0
  0
LINE
  5
   53F
  8
0
  6
CONTINUOUS
 62
   130
 10
-28.8946262088891
 20
10.7419442680913
 30
0.0
 11
-28.4720035282251
 21
10.7419442680913
 31
0.0
  0
LINE
  5
   540
  8
0
  6
CONTINUOUS
 62
   130
 10
-28.4720035282251
 20
11.0156442669469
 30
0.0
 11
-28.4720035282251
 21
10.7419442680913
 31
0.0
  0
LINE
  5
   541
  8
0
  6
CONTINUOUS
 62
   130
 10
-28.8946262088891
 20
11.0156442669469
 30
0.0
 11
-28.4720035282251
 21
11.0156442669469
 31
0.0
  0
LINE
  5
   542
  8
0
  6
CONTINUOUS
 62
   130
 10
-28.4317546573754
 20
9.90876956258596
 30
0.0
 11
-28.1467052188989
 21
9.90876956258596
 31
0.0
  0
LINE
  5
   543
  8
0
  6
CONTINUOUS
 62
   130
 10
-28.0823025289553
 20
10.1301451024996
 30
0.0
 11
-28.1467022462297
 21
9.90877035463398
 31
0.0
  0
LINE
  5
   544
  8
0
  6
CONTINUOUS
 62
   130
 10
-28.0823054996606
 20
10.1301443127233
 30
0.0
 11
-27.7749477115747
 21
10.1301443127233
 31
0.0
  0
LINE
  5
   545
  8
0
  6
CONTINUOUS
 62
   130
 10
-27.774945354382
 20
10.1301449029157
 30
0.0
 11
-27.7105456371076
 21
9.90877015505004
 31
0.0
  0
LINE
  5
   546
  8
0
  6
CONTINUOUS
 62
   130
 10
-27.7105479923364
 20
9.90876956258596
 30
0.0
 11
-27.4255023685571
 21
9.90876956258596
 31
0.0
  0
LINE
  5
   547
  8
0
  6
CONTINUOUS
 62
   130
 10
-27.7475020605279
 20
11.0156444361098
 30
0.0
 11
-27.425499565168
 21
9.9087694513406
 31
0.0
  0
LINE
  5
   548
  8
0
  6
CONTINUOUS
 62
   130
 10
-28.1097522464868
 20
11.0156442669469
 30
0.0
 11
-27.7475047794458
 21
11.0156442669469
 31
0.0
  0
LINE
  5
   549
  8
0
  6
CONTINUOUS
 62
   130
 10
-28.1097507131633
 20
11.0156400504434
 30
0.0
 11
-28.4317532085232
 21
9.90876506567414
 31
0.0
  0
LINE
  5
   54A
  8
0
  6
CONTINUOUS
 62
   130
 10
-27.9286244146442
 20
10.6584154304078
 30
0.0
 11
-27.8545696589018
 21
10.4038443447661
 31
0.0
  0
LINE
  5
   54B
  8
0
  6
CONTINUOUS
 62
   130
 10
-28.0026851383325
 20
10.4038443115789
 30
0.0
 11
-27.8545718876001
 21
10.4038443115789
 31
0.0
  0
LINE
  5
   54C
  8
0
  6
CONTINUOUS
 62
   130
 10
-27.9286221442867
 20
10.6584156796437
 30
0.0
 11
-28.0026806714445
 21
10.403844734082
 31
0.0
  0
LINE
  5
   54D
  8
0
  6
CONTINUOUS
 62
   130
 10
-26.4918171754374
 20
10.864336382162
 30
0.0
 11
-26.3939244176557
 21
10.7409197156508
 31
0.0
  0
LINE
  5
   54E
  8
0
  6
CONTINUOUS
 62
   130
 10
-26.6205082535739
 20
10.9551731265093
 30
0.0
 11
-26.4918156345588
 21
10.8643342243142
 31
0.0
  0
LINE
  5
   54F
  8
0
  6
CONTINUOUS
 62
   130
 10
-26.7695846473017
 20
11.0060727745663
 30
0.0
 11
-26.6205100941331
 21
10.9551711283619
 31
0.0
  0
LINE
  5
   550
  8
0
  6
CONTINUOUS
 62
   130
 10
-26.9269596602776
 20
11.0129144125427
 30
0.0
 11
-26.7695843203846
 21
11.0060734680565
 31
0.0
  0
LINE
  5
   551
  8
0
  6
CONTINUOUS
 62
   130
 10
-26.9269624555231
 20
11.0129146998147
 30
0.0
 11
-27.07989366878
 21
10.9751406158423
 31
0.0
  0
LINE
  5
   552
  8
0
  6
CONTINUOUS
 62
   130
 10
-27.0798912700242
 20
10.9751423846646
 30
0.0
 11
-27.2159805869611
 21
10.895813371916
 31
0.0
  0
LINE
  5
   553
  8
0
  6
CONTINUOUS
 62
   130
 10
-27.2159827098372
 20
10.8958109650023
 30
0.0
 11
-27.3242132995129
 21
10.7813538356509
 31
0.0
  0
LINE
  5
   554
  8
0
  6
CONTINUOUS
 62
   130
 10
-27.3242106698563
 20
10.7813560833919
 30
0.0
 11
-27.3958087146511
 21
10.641043652383
 31
0.0
  0
LINE
  5
   555
  8
0
  6
CONTINUOUS
 62
   130
 10
-27.3958099613201
 20
10.641041332568
 30
0.0
 11
-27.4249771366029
 21
10.4862406751074
 31
0.0
  0
LINE
  5
   556
  8
0
  6
CONTINUOUS
 62
   130
 10
-27.4249768256812
 20
10.4862416190882
 30
0.0
 11
-27.4093518331578
 21
10.3294938032839
 31
0.0
  0
LINE
  5
   557
  8
0
  6
CONTINUOUS
 62
   130
 10
-27.4093530472386
 20
10.3294941711977
 30
0.0
 11
-27.3501985440073
 21
10.1834980849996
 31
0.0
  0
LINE
  5
   558
  8
0
  6
CONTINUOUS
 62
   130
 10
-27.3501982524987
 20
10.1834993561364
 30
0.0
 11
-27.2621817397261
 21
10.0696509036409
 31
0.0
  0
LINE
  5
   559
  8
0
  6
CONTINUOUS
 62
   130
 10
-27.2621802299207
 20
10.0696482942888
 30
0.0
 11
-27.1477850891551
 21
9.98234107680554
 31
0.0
  0
LINE
  5
   55A
  8
0
  6
CONTINUOUS
 62
   130
 10
-27.1477874224425
 20
9.98234234099665
 30
0.0
 11
-27.0147498577534
 21
9.9274793659924
 31
0.0
  0
LINE
  5
   55B
  8
0
  6
CONTINUOUS
 62
   130
 10
-27.0147484367548
 20
9.92747870068885
 30
0.0
 11
-26.8720635031681
 21
9.90876951872908
 31
0.0
  0
LINE
  5
   55C
  8
0
  6
CONTINUOUS
 62
   130
 10
-26.7293765130565
 20
9.9274792353704
 30
0.0
 11
-26.8720614466433
 21
9.90877005341064
 31
0.0
  0
LINE
  5
   55D
  8
0
  6
CONTINUOUS
 62
   130
 10
-26.5963434864028
 20
9.98234175788258
 30
0.0
 11
-26.7293810510919
 21
9.92747878287832
 31
0.0
  0
LINE
  5
   55E
  8
0
  6
CONTINUOUS
 62
   130
 10
-26.4819445113237
 20
10.0696518574636
 30
0.0
 11
-26.5963396520893
 21
9.98234463998038
 31
0.0
  0
LINE
  5
   55F
  8
0
  6
CONTINUOUS
 62
   130
 10
-26.3939251315075
 20
10.1834977116038
 30
0.0
 11
-26.4819454552745
 21
10.0696492667441
 31
0.0
  0
LINE
  5
   560
  8
0
  6
CONTINUOUS
 62
   130
 10
-26.6303859754295
 20
10.3213330802128
 30
0.0
 11
-26.3939243619513
 21
10.183498550145
 31
0.0
  0
LINE
  5
   561
  8
0
  6
CONTINUOUS
 62
   130
 10
-26.6303902343793
 20
10.321330354383
 30
0.0
 11
-26.6928482768235
 21
10.2474162972579
 31
0.0
  0
LINE
  5
   562
  8
0
  6
CONTINUOUS
 62
   130
 10
-26.6928471016845
 20
10.2474183161135
 30
0.0
 11
-26.7767551990019
 21
10.1992076862751
 31
0.0
  0
LINE
  5
   563
  8
0
  6
CONTINUOUS
 62
   130
 10
-26.7767529048521
 20
10.1992073208972
 30
0.0
 11
-26.872063127863
 21
10.1824693833235
 31
0.0
  0
LINE
  5
   564
  8
0
  6
CONTINUOUS
 62
   130
 10
-26.9673780965826
 20
10.1992074279907
 30
0.0
 11
-26.8720678735717
 21
10.1824694904171
 31
0.0
  0
LINE
  5
   565
  8
0
  6
CONTINUOUS
 62
   130
 10
-27.0512844024872
 20
10.247418974534
 30
0.0
 11
-26.9673763051698
 21
10.1992083446956
 31
0.0
  0
LINE
  5
   566
  8
0
  6
CONTINUOUS
 62
   130
 10
-27.1137421257279
 20
10.3213335014271
 30
0.0
 11
-27.0512840832837
 21
10.2474194443021
 31
0.0
  0
LINE
  5
   567
  8
0
  6
CONTINUOUS
 62
   130
 10
-27.1492537801231
 20
10.4245416706332
 30
0.0
 11
-27.1137389486329
 21
10.3213328871187
 31
0.0
  0
LINE
  5
   568
  8
0
  6
CONTINUOUS
 62
   130
 10
-27.1425654584178
 20
10.5334827799055
 30
0.0
 11
-27.1492526235061
 21
10.4245395447099
 31
0.0
  0
LINE
  5
   569
  8
0
  6
CONTINUOUS
 62
   130
 10
-27.0946987916343
 20
10.6315768441432
 30
0.0
 11
-27.1425656152773
 21
10.5334849985746
 31
0.0
  0
LINE
  5
   56A
  8
0
  6
CONTINUOUS
 62
   130
 10
-27.0129382572922
 20
10.7038840252578
 30
0.0
 11
-27.0947024849068
 21
10.6315769045486
 31
0.0
  0
LINE
  5
   56B
  8
0
  6
CONTINUOUS
 62
   130
 10
-26.9097308442922
 20
10.7393973114571
 30
0.0
 11
-27.0129374788083
 21
10.7038834370061
 31
0.0
  0
LINE
  5
   56C
  8
0
  6
CONTINUOUS
 62
   130
 10
-26.9097326496226
 20
10.7393962902206
 30
0.0
 11
-26.8007886770395
 21
10.7327107931916
 31
0.0
  0
LINE
  5
   56D
  8
0
  6
CONTINUOUS
 62
   130
 10
-26.8007856798468
 20
10.7327098693652
 30
0.0
 11
-26.7026945421538
 21
10.6848423258908
 31
0.0
  0
LINE
  5
   56E
  8
0
  6
CONTINUOUS
 62
   130
 10
-26.7026932292785
 20
10.6848481537915
 30
0.0
 11
-26.6303856370905
 21
10.603086314348
 31
0.0
  0
LINE
  5
   56F
  8
0
  6
CONTINUOUS
 62
   130
 10
-26.3939225929516
 20
10.740919783081
 30
0.0
 11
-26.6303842064298
 21
10.6030852530132
 31
0.0
  0
LINE
  5
   570
  8
0
  6
CONTINUOUS
 62
   130
 10
-26.2933040348169
 20
11.0156440285283
 30
0.0
 11
-26.2933040348169
 21
9.90876956258596
 31
0.0
  0
LINE
  5
   571
  8
0
  6
CONTINUOUS
 62
   130
 10
-26.2933040348169
 20
9.90876956258596
 30
0.0
 11
-25.5688052860376
 21
9.90876956258596
 31
0.0
  0
LINE
  5
   572
  8
0
  6
CONTINUOUS
 62
   130
 10
-25.5688052860376
 20
10.182469323023
 30
0.0
 11
-25.5688052860376
 21
9.90876956258596
 31
0.0
  0
LINE
  5
   573
  8
0
  6
CONTINUOUS
 62
   130
 10
-26.0196033207055
 20
10.182469323023
 30
0.0
 11
-25.5688052860376
 21
10.182469323023
 31
0.0
  0
LINE
  5
   574
  8
0
  6
CONTINUOUS
 62
   130
 10
-26.0196033207055
 20
10.3253569153386
 30
0.0
 11
-26.0196033207055
 21
10.182469323023
 31
0.0
  0
LINE
  5
   575
  8
0
  6
CONTINUOUS
 62
   130
 10
-26.0196033207055
 20
10.3253569153386
 30
0.0
 11
-25.6291804996606
 21
10.3253569153386
 31
0.0
  0
LINE
  5
   576
  8
0
  6
CONTINUOUS
 62
   130
 10
-25.6291804996606
 20
10.5990569141942
 30
0.0
 11
-25.6291804996606
 21
10.3253569153386
 31
0.0
  0
LINE
  5
   577
  8
0
  6
CONTINUOUS
 62
   130
 10
-26.0196033207055
 20
10.5990569141942
 30
0.0
 11
-25.6291804996606
 21
10.5990569141942
 31
0.0
  0
LINE
  5
   578
  8
0
  6
CONTINUOUS
 62
   130
 10
-26.0196033207055
 20
10.7419442531902
 30
0.0
 11
-26.0196033207055
 21
10.5990569141942
 31
0.0
  0
LINE
  5
   579
  8
0
  6
CONTINUOUS
 62
   130
 10
-26.0196033207055
 20
10.7419442680913
 30
0.0
 11
-25.5688052860376
 21
10.7419442680913
 31
0.0
  0
LINE
  5
   57A
  8
0
  6
CONTINUOUS
 62
   130
 10
-25.5688052860376
 20
11.0156442669469
 30
0.0
 11
-25.5688052860376
 21
10.7419442680913
 31
0.0
  0
LINE
  5
   57B
  8
0
  6
CONTINUOUS
 62
   130
 10
-26.2933040348169
 20
11.0156442669469
 30
0.0
 11
-25.5688052860376
 21
11.0156442669469
 31
0.0
  0
LINE
  5
   57C
  8
0
  6
CONTINUOUS
 62
   130
 10
-56.2476544466736
 20
11.1180323079077
 30
0.0
 11
-56.4745831030326
 21
10.4696559911968
 31
0.0
  0
LINE
  5
   57D
  8
0
  6
CONTINUOUS
 62
   130
 10
-56.4745869636536
 20
10.4696579053998
 30
0.0
 11
-56.064781665802
 21
10.4696579053998
 31
0.0
  0
LINE
  5
   57E
  8
0
  6
CONTINUOUS
 62
   130
 10
-56.064781665802
 20
11.1180343702436
 30
0.0
 11
-56.064781665802
 21
10.4696579053998
 31
0.0
  0
LINE
  5
   57F
  8
0
  6
CONTINUOUS
 62
   130
 10
-56.2476582527161
 20
11.1180343702436
 30
0.0
 11
-56.064781665802
 21
11.1180343702436
 31
0.0
  0
LINE
  5
   580
  8
0
  6
CONTINUOUS
 62
   130
 10
-56.7131581306458
 20
9.78803611546755
 30
0.0
 11
-56.3806576728821
 21
9.78803611546755
 31
0.0
  0
LINE
  5
   581
  8
0
  6
CONTINUOUS
 62
   130
 10
-56.2875533678289
 20
10.0540351707774
 30
0.0
 11
-56.3806548656589
 21
9.78803536430776
 31
0.0
  0
LINE
  5
   582
  8
0
  6
CONTINUOUS
 62
   130
 10
-56.2875561714172
 20
10.0540359094739
 30
0.0
 11
-56.064781665802
 21
10.0540359094739
 31
0.0
  0
LINE
  5
   583
  8
0
  6
CONTINUOUS
 62
   130
 10
-56.064781665802
 20
10.4364090040326
 30
0.0
 11
-56.064781665802
 21
10.0540359094739
 31
0.0
  0
LINE
  5
   584
  8
0
  6
CONTINUOUS
 62
   130
 10
-56.486225605011
 20
10.4364090040326
 30
0.0
 11
-56.064781665802
 21
10.4364090040326
 31
0.0
  0
LINE
  5
   585
  8
0
  6
CONTINUOUS
 62
   130
 10
-56.4862229516601
 20
10.436407655236
 30
0.0
 11
-56.7131554094804
 21
9.78803490149418
 31
0.0
  0
LINE
  5
   586
  8
0
  6
CONTINUOUS
 62
   130
 10
-55.6100817171666
 20
10.4364075658751
 30
0.0
 11
-55.3831492593463
 21
9.78803481213329
 31
0.0
  0
LINE
  5
   587
  8
0
  6
CONTINUOUS
 62
   130
 10
-56.0315327644348
 20
10.4364090040326
 30
0.0
 11
-55.6100888252258
 21
10.4364090040326
 31
0.0
  0
LINE
  5
   588
  8
0
  6
CONTINUOUS
 62
   130
 10
-56.0315327644348
 20
10.4364090040326
 30
0.0
 11
-56.0315327644348
 21
10.0540359094739
 31
0.0
  0
LINE
  5
   589
  8
0
  6
CONTINUOUS
 62
   130
 10
-56.0315327644348
 20
10.0540359094739
 30
0.0
 11
-55.8087582588196
 21
10.0540359094739
 31
0.0
  0
LINE
  5
   58A
  8
0
  6
CONTINUOUS
 62
   130
 10
-55.8087524673317
 20
10.0540363294079
 30
0.0
 11
-55.7156509695018
 21
9.78803652293827
 31
0.0
  0
LINE
  5
   58B
  8
0
  6
CONTINUOUS
 62
   130
 10
-55.7156567573547
 20
9.78803611546755
 30
0.0
 11
-55.3831562995911
 21
9.78803611546755
 31
0.0
  0
LINE
  5
   58C
  8
0
  6
CONTINUOUS
 62
   130
 10
-56.0315327644348
 20
11.1180343702436
 30
0.0
 11
-55.8486561775208
 21
11.1180343702436
 31
0.0
  0
LINE
  5
   58D
  8
0
  6
CONTINUOUS
 62
   130
 10
-56.0315327644348
 20
11.1180343702436
 30
0.0
 11
-56.0315327644348
 21
10.4696579053998
 31
0.0
  0
LINE
  5
   58E
  8
0
  6
CONTINUOUS
 62
   130
 10
-56.0315327644348
 20
10.4696579053998
 30
0.0
 11
-55.621723651886
 21
10.4696579053998
 31
0.0
  0
LINE
  5
   58F
  8
0
  6
CONTINUOUS
 62
   130
 10
-55.8486523590461
 20
11.1180330548066
 30
0.0
 11
-55.6217198842805
 21
10.4696566436702
 31
0.0
  0
LINE
  5
   590
  8
0
  6
CONTINUOUS
 62
   130
 10
-55.3000302314758
 20
10.4696579053998
 30
0.0
 11
-54.9176564216614
 21
10.4696579053998
 31
0.0
  0
LINE
  5
   591
  8
0
  6
CONTINUOUS
 62
   130
 10
-54.9176564216614
 20
11.1180343702436
 30
0.0
 11
-54.9176564216614
 21
10.4696579053998
 31
0.0
  0
LINE
  5
   592
  8
0
  6
CONTINUOUS
 62
   130
 10
-55.3000302314758
 20
11.1180343702436
 30
0.0
 11
-54.9176564216614
 21
11.1180343702436
 31
0.0
  0
LINE
  5
   593
  8
0
  6
CONTINUOUS
 62
   130
 10
-55.3000302314758
 20
9.78803611546755
 30
0.0
 11
-54.9176564216614
 21
9.78803611546755
 31
0.0
  0
LINE
  5
   594
  8
0
  6
CONTINUOUS
 62
   130
 10
-54.9176564216614
 20
10.4364090040326
 30
0.0
 11
-54.9176564216614
 21
9.78803611546755
 31
0.0
  0
LINE
  5
   595
  8
0
  6
CONTINUOUS
 62
   130
 10
-55.3000302314758
 20
10.4364090040326
 30
0.0
 11
-54.9176564216614
 21
10.4364090040326
 31
0.0
  0
LINE
  5
   596
  8
0
  6
CONTINUOUS
 62
   130
 10
-54.2692837715149
 20
11.1180343702436
 30
0.0
 11
-54.2692837715149
 21
10.4696579053998
 31
0.0
  0
LINE
  5
   597
  8
0
  6
CONTINUOUS
 62
   130
 10
-54.2692837715149
 20
10.4696579053998
 30
0.0
 11
-53.8869061470032
 21
10.4696579053998
 31
0.0
  0
LINE
  5
   598
  8
0
  6
CONTINUOUS
 62
   130
 10
-53.8869061470032
 20
11.1180343702436
 30
0.0
 11
-53.8869061470032
 21
10.4696579053998
 31
0.0
  0
LINE
  5
   599
  8
0
  6
CONTINUOUS
 62
   130
 10
-54.2692837715149
 20
11.1180343702436
 30
0.0
 11
-53.8869061470032
 21
11.1180343702436
 31
0.0
  0
LINE
  5
   59A
  8
0
  6
CONTINUOUS
 62
   130
 10
-54.2692837715149
 20
9.78803611546755
 30
0.0
 11
-53.8869061470032
 21
9.78803611546755
 31
0.0
  0
LINE
  5
   59B
  8
0
  6
CONTINUOUS
 62
   130
 10
-53.8869061470032
 20
10.4364090040326
 30
0.0
 11
-53.8869061470032
 21
9.78803611546755
 31
0.0
  0
LINE
  5
   59C
  8
0
  6
CONTINUOUS
 62
   130
 10
-54.2692837715149
 20
10.4364090040326
 30
0.0
 11
-53.8869061470032
 21
10.4364090040326
 31
0.0
  0
LINE
  5
   59D
  8
0
  6
CONTINUOUS
 62
   130
 10
-54.2692837715149
 20
10.4364090040326
 30
0.0
 11
-54.2692837715149
 21
9.78803611546755
 31
0.0
  0
LINE
  5
   59E
  8
0
  6
CONTINUOUS
 62
   130
 10
-53.853657245636
 20
11.1180343702436
 30
0.0
 11
-53.7467885017395
 21
11.1180343702436
 31
0.0
  0
LINE
  5
   59F
  8
0
  6
CONTINUOUS
 62
   130
 10
-53.853657245636
 20
11.1180343702436
 30
0.0
 11
-53.853657245636
 21
10.4696579053998
 31
0.0
  0
LINE
  5
   5A0
  8
0
  6
CONTINUOUS
 62
   130
 10
-53.853657245636
 20
10.4696579053998
 30
0.0
 11
-53.4665684700012
 21
10.4696579053998
 31
0.0
  0
LINE
  5
   5A1
  8
0
  6
CONTINUOUS
 62
   130
 10
-53.5236760213074
 20
10.5127270163568
 30
0.0
 11
-53.46656999543
 21
10.4696590777589
 31
0.0
  0
LINE
  5
   5A2
  8
0
  6
CONTINUOUS
 62
   130
 10
-53.5876572632401
 20
10.5446892336967
 30
0.0
 11
-53.5236733366441
 21
10.5127258823739
 31
0.0
  0
LINE
  5
   5A3
  8
0
  6
CONTINUOUS
 62
   130
 10
-53.5114960594237
 20
10.6093540528411
 30
0.0
 11
-53.5876564832105
 21
10.5446873140635
 31
0.0
  0
LINE
  5
   5A4
  8
0
  6
CONTINUOUS
 62
   130
 10
-53.4599724908606
 20
10.6949551305084
 30
0.0
 11
-53.5114937864125
 21
10.6093533267247
 31
0.0
  0
LINE
  5
   5A5
  8
0
  6
CONTINUOUS
 62
   130
 10
-53.4384854815498
 20
10.7925239375646
 30
0.0
 11
-53.4599736686804
 21
10.6949554372536
 31
0.0
  0
LINE
  5
   5A6
  8
0
  6
CONTINUOUS
 62
   130
 10
-53.449278045079
 20
10.8918523020716
 30
0.0
 11
-53.4384862697122
 21
10.7925251937097
 31
0.0
  0
LINE
  5
   5A7
  8
0
  6
CONTINUOUS
 62
   130
 10
-53.4912233711057
 20
10.9825298602417
 30
0.0
 11
-53.4492807681135
 21
10.8918544952369
 31
0.0
  0
LINE
  5
   5A8
  8
0
  6
CONTINUOUS
 62
   130
 10
-53.5599275499326
 20
11.0550709591255
 30
0.0
 11
-53.491224845658
 21
10.9825306713705
 31
0.0
  0
LINE
  5
   5A9
  8
0
  6
CONTINUOUS
 62
   130
 10
-53.648192101875
 20
11.1018632202724
 30
0.0
 11
-53.5599238180948
 21
11.0550645103828
 31
0.0
  0
LINE
  5
   5AA
  8
0
  6
CONTINUOUS
 62
   130
 10
-53.853657245636
 20
10.4364090040326
 30
0.0
 11
-53.4340786933899
 21
10.4364090040326
 31
0.0
  0
LINE
  5
   5AB
  8
0
  6
CONTINUOUS
 62
   130
 10
-53.853657245636
 20
10.4364090040326
 30
0.0
 11
-53.853657245636
 21
9.78803611546755
 31
0.0
  0
LINE
  5
   5AC
  8
0
  6
CONTINUOUS
 62
   130
 10
-53.853657245636
 20
9.78803611546755
 30
0.0
 11
-53.7300000190735
 21
9.78803611546755
 31
0.0
  0
LINE
  5
   5AD
  8
0
  6
CONTINUOUS
 62
   130
 10
-53.619616317455
 20
9.80390905515821
 30
0.0
 11
-53.7299984094443
 21
9.78803538593834
 31
0.0
  0
LINE
  5
   5AE
  8
0
  6
CONTINUOUS
 62
   130
 10
-53.5181803038971
 20
9.85024380901516
 30
0.0
 11
-53.6196169251988
 21
9.80390930318228
 31
0.0
  0
LINE
  5
   5AF
  8
0
  6
CONTINUOUS
 62
   130
 10
-53.4339145787689
 20
9.9232837457274
 30
0.0
 11
-53.5181812491635
 21
9.85024349639431
 31
0.0
  0
LINE
  5
   5B0
  8
0
  6
CONTINUOUS
 62
   130
 10
-53.3736417014342
 20
10.0171103407283
 30
0.0
 11
-53.4339139179442
 21
9.92328404790265
 31
0.0
  0
LINE
  5
   5B1
  8
0
  6
CONTINUOUS
 62
   130
 10
-53.3422501508236
 20
10.1241168014218
 30
0.0
 11
-53.373637479066
 21
10.0171090647976
 31
0.0
  0
LINE
  5
   5B2
  8
0
  6
CONTINUOUS
 62
   130
 10
-53.342287776337
 20
10.2356357063254
 30
0.0
 11
-53.3422534440632
 21
10.1241189869444
 31
0.0
  0
LINE
  5
   5B3
  8
0
  6
CONTINUOUS
 62
   130
 10
-53.3737430394099
 20
10.3426244230956
 30
0.0
 11
-53.3422870481063
 21
10.2356364644811
 31
0.0
  0
LINE
  5
   5B4
  8
0
  6
CONTINUOUS
 62
   130
 10
-53.4340777755783
 20
10.4364076043216
 30
0.0
 11
-53.3737445242721
 21
10.342621843017
 31
0.0
  0
LINE
  5
   5B5
  8
0
  6
CONTINUOUS
 62
   130
 10
-54.8844075202942
 20
11.1180343702436
 30
0.0
 11
-54.7775349617004
 21
11.1180343702436
 31
0.0
  0
LINE
  5
   5B6
  8
0
  6
CONTINUOUS
 62
   130
 10
-54.8844075202942
 20
11.1180343702436
 30
0.0
 11
-54.8844075202942
 21
10.4696579053998
 31
0.0
  0
LINE
  5
   5B7
  8
0
  6
CONTINUOUS
 62
   130
 10
-54.8844075202942
 20
10.4696579053998
 30
0.0
 11
-54.4973187446594
 21
10.4696579053998
 31
0.0
  0
LINE
  5
   5B8
  8
0
  6
CONTINUOUS
 62
   130
 10
-54.554423815954
 20
10.5127250754796
 30
0.0
 11
-54.4973177900765
 21
10.4696571368816
 31
0.0
  0
LINE
  5
   5B9
  8
0
  6
CONTINUOUS
 62
   130
 10
-54.6184082770775
 20
10.5446893080839
 30
0.0
 11
-54.5544243504816
 21
10.5127259567611
 31
0.0
  0
LINE
  5
   5BA
  8
0
  6
CONTINUOUS
 62
   130
 10
-54.5422468990178
 20
10.6093560471373
 30
0.0
 11
-54.6184073228046
 21
10.5446893083597
 31
0.0
  0
LINE
  5
   5BB
  8
0
  6
CONTINUOUS
 62
   130
 10
-54.4907243119277
 20
10.694956269411
 30
0.0
 11
-54.5422456074795
 21
10.6093544656273
 31
0.0
  0
LINE
  5
   5BC
  8
0
  6
CONTINUOUS
 62
   130
 10
-54.4692325682794
 20
10.7925243569699
 30
0.0
 11
-54.4907245708824
 21
10.6949558509648
 31
0.0
  0
LINE
  5
   5BD
  8
0
  6
CONTINUOUS
 62
   130
 10
-54.4800240665089
 20
10.8918539520569
 30
0.0
 11
-54.4692322911421
 21
10.792526843695
 31
0.0
  0
LINE
  5
   5BE
  8
0
  6
CONTINUOUS
 62
   130
 10
-54.5219721288937
 20
10.9825268275563
 30
0.0
 11
-54.4800257147823
 21
10.8918514668688
 31
0.0
  0
LINE
  5
   5BF
  8
0
  6
CONTINUOUS
 62
   130
 10
-54.5906762801194
 20
11.0550726978578
 30
0.0
 11
-54.5219735758448
 21
10.9825324101029
 31
0.0
  0
LINE
  5
   5C0
  8
0
  6
CONTINUOUS
 62
   130
 10
-54.6789448681613
 20
11.101864426944
 30
0.0
 11
-54.590676584381
 21
11.0550657170544
 31
0.0
  0
LINE
  5
   5C1
  8
0
  6
CONTINUOUS
 62
   130
 10
-54.7775352743027
 20
11.1180346205778
 30
0.0
 11
-54.6789444026166
 21
11.1018679340788
 31
0.0
  0
LINE
  5
   5C2
  8
0
  6
CONTINUOUS
 62
   130
 10
-54.8844075202942
 20
10.4364090040326
 30
0.0
 11
-54.4648289680481
 21
10.4364090040326
 31
0.0
  0
LINE
  5
   5C3
  8
0
  6
CONTINUOUS
 62
   130
 10
-54.8844075202942
 20
10.4364090040326
 30
0.0
 11
-54.8844075202942
 21
9.78803611546755
 31
0.0
  0
LINE
  5
   5C4
  8
0
  6
CONTINUOUS
 62
   130
 10
-54.8844075202942
 20
9.78803611546755
 30
0.0
 11
-54.7607502937317
 21
9.78803611546755
 31
0.0
  0
LINE
  5
   5C5
  8
0
  6
CONTINUOUS
 62
   130
 10
-54.6503678847137
 20
9.80390660211429
 30
0.0
 11
-54.760749976703
 21
9.78803293289441
 31
0.0
  0
LINE
  5
   5C6
  8
0
  6
CONTINUOUS
 62
   130
 10
-54.5489304713291
 20
9.85024315534227
 30
0.0
 11
-54.6503670926307
 21
9.80390864950938
 31
0.0
  0
LINE
  5
   5C7
  8
0
  6
CONTINUOUS
 62
   130
 10
-54.4646645655594
 20
9.92328325854259
 30
0.0
 11
-54.548931235954
 21
9.8502430092095
 31
0.0
  0
LINE
  5
   5C8
  8
0
  6
CONTINUOUS
 62
   130
 10
-54.4043924929016
 20
10.0171104689167
 30
0.0
 11
-54.4646647094116
 21
9.92328417609099
 31
0.0
  0
LINE
  5
   5C9
  8
0
  6
CONTINUOUS
 62
   130
 10
-54.3729987320008
 20
10.1241182161788
 30
0.0
 11
-54.4043898781567
 21
10.017110468014
 31
0.0
  0
LINE
  5
   5CA
  8
0
  6
CONTINUOUS
 62
   130
 10
-54.3730392236663
 20
10.2356358221982
 30
0.0
 11
-54.3730010767123
 21
10.1241191015776
 31
0.0
  0
LINE
  5
   5CB
  8
0
  6
CONTINUOUS
 62
   130
 10
-54.4044923826057
 20
10.3426243720688
 30
0.0
 11
-54.3730363913022
 21
10.2356364134543
 31
0.0
  0
LINE
  5
   5CC
  8
0
  6
CONTINUOUS
 62
   130
 10
-54.4648270515818
 20
10.4364078593367
 30
0.0
 11
-54.4044938002755
 21
10.3426220980321
 31
0.0
  0
LINE
  5
   5CD
  8
0
  6
CONTINUOUS
 62
   130
 10
-55.3000302314758
 20
11.1180343702436
 30
0.0
 11
-55.3000302314758
 21
9.78803611546755
 31
0.0
  0
LINE
  5
   5CE
  8
0
  6
CONTINUOUS
 62
   130
 10
-58.5944195365917
 20
8.93608927726493
 30
0.0
 11
-41.5944408321386
 21
8.93608927726493
 31
0.0
  0
LINE
  5
   5CF
  8
0
  6
CONTINUOUS
 62
   130
 10
-41.3444408702856
 20
9.93608927726494
 30
0.0
 11
-41.3444408130651
 21
8.43608927726494
 31
0.0
  0
LINE
  5
   5D0
  8
0
  6
CONTINUOUS
 62
   130
 10
-30.8444257450107
 20
9.93608927726494
 30
0.0
 11
-30.8444258022312
 21
8.43608927726494
 31
0.0
  0
LINE
  5
   5D1
  8
0
  6
CONTINUOUS
 62
   130
 10
-41.3444408702856
 20
9.93608927726493
 30
0.0
 11
-30.8444257450107
 21
9.93608927726493
 31
0.0
  0
LINE
  5
   5D2
  8
0
  6
CONTINUOUS
 62
   130
 10
-30.5944257831577
 20
8.93608927726493
 30
0.0
 11
-13.5944470787046
 21
8.93608927726493
 31
0.0
  0
LINE
  5
   5D3
  8
0
  6
CONTINUOUS
 62
   130
 10
-41.5944408798223
 20
10.1860892772649
 30
0.0
 11
-30.594425735474
 21
10.1860892772649
 31
0.0
  0
LINE
  5
   5D4
  8
0
  6
CONTINUOUS
 62
   130
 10
-30.594425735474
 20
10.1860892772649
 30
0.0
 11
-30.5944258022312
 21
8.43608927726494
 31
0.0
  0
LINE
  5
   5D5
  8
0
  6
CONTINUOUS
 62
   130
 10
-41.5944408798223
 20
10.1860892772649
 30
0.0
 11
-41.5944408130651
 21
8.43608927726494
 31
0.0
  0
LINE
  5
   5D6
  8
0
  6
CONTINUOUS
 62
   130
 10
-43.8944321632389
 20
-7.18891835212616
 30
0.0
 11
-43.8944321632389
 21
-9.43891835212617
 31
0.0
  0
LINE
  5
   5D7
  8
0
  6
CONTINUOUS
 62
   130
 10
-48.8944321632389
 20
-7.18891835212616
 30
0.0
 11
-48.8944321632389
 21
-9.43891835212617
 31
0.0
  0
LINE
  5
   5D8
  8
0
  6
CONTINUOUS
 62
   130
 10
-48.8944321632389
 20
-7.18891835212616
 30
0.0
 11
-43.8944321632389
 21
-7.18891835212616
 31
0.0
  0
LINE
  5
   5D9
  8
0
  6
CONTINUOUS
 62
   130
 10
-48.8944321632389
 20
-9.43891835212617
 30
0.0
 11
-43.8944321632389
 21
-9.43891835212617
 31
0.0
  0
LINE
  5
   5DA
  8
0
  6
CONTINUOUS
 62
   130
 10
-58.0944238090494
 20
37.4360740184799
 30
0.0
 11
-14.0944428062469
 21
37.4360740184799
 31
0.0
  0
ARC
  5
   5DB
  8
0
  6
CONTINUOUS
 62
   130
 10
-14.0944428062469
 20
36.9360740184799
 30
0.0
 40
0.5
 50
359.999991101463
 51
449.999999844103
  0
ARC
  5
   5DC
  8
0
  6
CONTINUOUS
 62
   130
 10
-58.0944238090494
 20
36.9360740184799
 30
0.0
 40
0.5
 50
449.999999844103
 51
540.000008586744
  0
LINE
  5
   5DD
  8
0
  6
CONTINUOUS
 62
   130
 10
-16.1944317817688
 20
-7.96391824527154
 30
0.0
 11
-16.1944317817688
 21
-8.46391824527154
 31
0.0
  0
LINE
  5
   5DE
  8
0
  6
CONTINUOUS
 62
   130
 10
-18.1944317817688
 20
-7.96391824527154
 30
0.0
 11
-18.1944317817688
 21
-8.46391824527154
 31
0.0
  0
LINE
  5
   5DF
  8
0
  6
CONTINUOUS
 62
   130
 10
-17.1944317817688
 20
-5.81391824527154
 30
0.0
 11
-18.1944317817688
 21
-7.96391824527154
 31
0.0
  0
LINE
  5
   5E0
  8
0
  6
CONTINUOUS
 62
   130
 10
-17.1944317817688
 20
-5.81391824527154
 30
0.0
 11
-16.1944317817688
 21
-7.96391824527154
 31
0.0
  0
LINE
  5
   5E1
  8
0
  6
DASHDOT
 62
   130
 10
-36.0944411955753
 20
50.8804039576349
 30
0.0
 11
-36.0944275324266
 21
-38.6624256980856
 31
0.0
  0
LINE
  5
   5E2
  8
0
  6
CONTINUOUS
 62
   130
 10
-58.094414501182
 20
-24.563978612423
 30
0.0
 11
-14.0944521141143
 21
-24.563978612423
 31
0.0
  0
ARC
  5
   5E3
  8
0
  6
CONTINUOUS
 62
   130
 10
-14.0944521141143
 20
-24.063978612423
 30
0.0
 40
0.5
 50
269.999999844103
 51
359.999991101463
  0
ARC
  5
   5E4
  8
0
  6
CONTINUOUS
 62
   130
 10
-58.094414501182
 20
-24.063978612423
 30
0.0
 40
0.5
 50
540.000008586744
 51
629.999999844103
  0
LINE
  5
   5E5
  8
0
  6
CONTINUOUS
 62
   130
 10
-58.094412975304
 20
-34.5639747977257
 30
0.0
 11
-14.0944536399923
 21
-34.5639747977257
 31
0.0
  0
LINE
  5
   5E6
  8
0
  6
CONTINUOUS
 62
   130
 10
-58.0944252586266
 20
46.9360252022743
 30
0.0
 11
-14.0944413566697
 21
46.9360252022743
 31
0.0
  0
ARC
  5
   5E7
  8
0
  6
CONTINUOUS
 62
   130
 10
-58.0944252586266
 20
46.4360252022743
 30
0.0
 40
0.5
 50
449.999999844103
 51
540.000008586744
  0
ARC
  5
   5E8
  8
0
  6
CONTINUOUS
 62
   130
 10
-14.0944413566697
 20
46.4360252022743
 30
0.0
 40
0.5
 50
359.999991101463
 51
449.999999844103
  0
ARC
  5
   5E9
  8
0
  6
CONTINUOUS
 62
   130
 10
-14.0944536399923
 20
-34.0639747977257
 30
0.0
 40
0.5
 50
269.999999844103
 51
359.999991101463
  0
ARC
  5
   5EA
  8
0
  6
CONTINUOUS
 62
   130
 10
-58.094412975304
 20
-34.0639747977257
 30
0.0
 40
0.5
 50
540.000008586744
 51
629.999999844103
  0
LINE
  5
   5EB
  8
0
  6
CONTINUOUS
 62
   130
 10
-58.5944239616373
 20
37.9360740184799
 30
0.0
 11
-13.594442653659
 21
37.9360740184799
 31
0.0
  0
LINE
  5
   5EC
  8
0
  6
CONTINUOUS
 62
   130
 10
-58.5944143485941
 20
-25.063978612423
 30
0.0
 11
-13.5944522667022
 21
-25.063978612423
 31
0.0
  0
CIRCLE
  5
   5ED
  8
0
  6
CONTINUOUS
 62
   130
 10
-51.0944399070658
 20
42.4360252022743
 30
0.0
 40
1.75
  0
CIRCLE
  5
   5EE
  8
0
  6
CONTINUOUS
 62
   130
 10
-36.0944399070656
 20
42.4360252022743
 30
0.0
 40
1.75
  0
CIRCLE
  5
   5EF
  8
0
  6
CONTINUOUS
 62
   130
 10
-21.0944399070654
 20
42.4360252022743
 30
0.0
 40
1.75
  0
CIRCLE
  5
   5F0
  8
0
  6
CONTINUOUS
 62
   130
 10
-21.0944399070654
 20
-30.0639747977257
 30
0.0
 40
1.75
  0
CIRCLE
  5
   5F1
  8
0
  6
CONTINUOUS
 62
   130
 10
-36.0944399070656
 20
-30.0639747977257
 30
0.0
 40
1.75
  0
CIRCLE
  5
   5F2
  8
0
  6
CONTINUOUS
 62
   130
 10
-51.0944399070658
 20
-30.0639747977257
 30
0.0
 40
1.75
  0
LINE
  5
   5F3
  8
0
  6
DASHDOT
 62
   130
 10
-21.0944399070654
 20
44.6860252022743
 30
0.0
 11
-21.0944399070654
 21
40.1860252022743
 31
0.0
  0
LINE
  5
   5F4
  8
0
  6
DASHDOT
 62
   130
 10
-23.3444399070654
 20
42.4360252022743
 30
0.0
 11
-18.8444399070654
 21
42.4360252022743
 31
0.0
  0
LINE
  5
   5F5
  8
0
  6
DASHDOT
 62
   130
 10
-36.0944399070656
 20
44.6860252022743
 30
0.0
 11
-36.0944399070656
 21
40.1860252022743
 31
0.0
  0
LINE
  5
   5F6
  8
0
  6
DASHDOT
 62
   130
 10
-38.3444399070656
 20
42.4360252022743
 30
0.0
 11
-33.8444399070656
 21
42.4360252022743
 31
0.0
  0
LINE
  5
   5F7
  8
0
  6
DASHDOT
 62
   130
 10
-51.0944399070658
 20
44.6860252022743
 30
0.0
 11
-51.0944399070658
 21
40.1860252022743
 31
0.0
  0
LINE
  5
   5F8
  8
0
  6
DASHDOT
 62
   130
 10
-53.3444399070658
 20
42.4360252022743
 30
0.0
 11
-48.8444399070658
 21
42.4360252022743
 31
0.0
  0
LINE
  5
   5F9
  8
0
  6
DASHDOT
 62
   130
 10
-51.0944399070658
 20
-27.8139747977257
 30
0.0
 11
-51.0944399070658
 21
-32.3139747977257
 31
0.0
  0
LINE
  5
   5FA
  8
0
  6
DASHDOT
 62
   130
 10
-53.3444399070658
 20
-30.0639747977257
 30
0.0
 11
-48.8444399070658
 21
-30.0639747977257
 31
0.0
  0
LINE
  5
   5FB
  8
0
  6
DASHDOT
 62
   130
 10
-36.0944399070656
 20
-27.8139747977257
 30
0.0
 11
-36.0944399070656
 21
-32.3139747977257
 31
0.0
  0
LINE
  5
   5FC
  8
0
  6
DASHDOT
 62
   130
 10
-38.3444399070656
 20
-30.0639747977257
 30
0.0
 11
-33.8444399070656
 21
-30.0639747977257
 31
0.0
  0
LINE
  5
   5FD
  8
0
  6
DASHDOT
 62
   130
 10
-21.0944399070654
 20
-27.8139747977257
 30
0.0
 11
-21.0944399070654
 21
-32.3139747977257
 31
0.0
  0
LINE
  5
   5FE
  8
0
  6
DASHDOT
 62
   130
 10
-23.3444399070654
 20
-30.0639747977257
 30
0.0
 11
-18.8444399070654
 21
-30.0639747977257
 31
0.0
  0
LINE
  5
   5FF
  8
0
  6
CONTINUOUS
 62
   130
 10
-35.7694391441337
 20
37.4360740184799
 30
0.0
 11
-35.769437885283
 21
29.1860681357212
 31
0.0
  0
LINE
  5
   600
  8
0
  6
CONTINUOUS
 62
   130
 10
-36.4194391441337
 20
37.4360740184799
 30
0.0
 11
-36.419437885283
 21
29.1860681357212
 31
0.0
  0
LINE
  5
   601
  8
0
  6
CONTINUOUS
 62
   130
 10
-35.5194391441337
 20
37.4360740184799
 30
0.0
 11
-35.519437885283
 21
29.1860681357212
 31
0.0
  0
LINE
  5
   602
  8
0
  6
CONTINUOUS
 62
   130
 10
-34.8694391441337
 20
37.4360740184799
 30
0.0
 11
-34.869437885283
 21
29.1860681357212
 31
0.0
  0
LINE
  5
   603
  8
0
  6
CONTINUOUS
 62
   130
 10
-33.9694391441337
 20
37.4360740184799
 30
0.0
 11
-33.969437885283
 21
29.1860681357212
 31
0.0
  0
LINE
  5
   604
  8
0
  6
CONTINUOUS
 62
   130
 10
-34.6194391441337
 20
37.4360740184799
 30
0.0
 11
-34.619437885283
 21
29.1860681357212
 31
0.0
  0
LINE
  5
   605
  8
0
  6
CONTINUOUS
 62
   130
 10
-33.0694391441337
 20
37.4360740184799
 30
0.0
 11
-33.069437885283
 21
29.1860681357212
 31
0.0
  0
LINE
  5
   606
  8
0
  6
CONTINUOUS
 62
   130
 10
-33.7194391441337
 20
37.4360740184799
 30
0.0
 11
-33.719437885283
 21
29.1860681357212
 31
0.0
  0
LINE
  5
   607
  8
0
  6
CONTINUOUS
 62
   130
 10
-32.1694391441337
 20
37.4360740184799
 30
0.0
 11
-32.169437885283
 21
29.1860681357212
 31
0.0
  0
LINE
  5
   608
  8
0
  6
CONTINUOUS
 62
   130
 10
-32.8194391441337
 20
37.4360740184799
 30
0.0
 11
-32.819437885283
 21
29.1860681357212
 31
0.0
  0
LINE
  5
   609
  8
0
  6
CONTINUOUS
 62
   130
 10
-31.2694391441337
 20
37.4360740184799
 30
0.0
 11
-31.269437885283
 21
29.1860681357212
 31
0.0
  0
LINE
  5
   60A
  8
0
  6
CONTINUOUS
 62
   130
 10
-31.9194391441337
 20
37.4360740184799
 30
0.0
 11
-31.919437885283
 21
29.1860681357212
 31
0.0
  0
LINE
  5
   60B
  8
0
  6
CONTINUOUS
 62
   130
 10
-30.3694391441337
 20
37.4360740184799
 30
0.0
 11
-30.369437885283
 21
29.1860681357212
 31
0.0
  0
LINE
  5
   60C
  8
0
  6
CONTINUOUS
 62
   130
 10
-31.0194391441337
 20
37.4360740184799
 30
0.0
 11
-31.019437885283
 21
29.1860681357212
 31
0.0
  0
LINE
  5
   60D
  8
0
  6
CONTINUOUS
 62
   130
 10
-29.4694391441337
 20
37.4360740184799
 30
0.0
 11
-29.4694378852829
 21
29.1860681357212
 31
0.0
  0
LINE
  5
   60E
  8
0
  6
CONTINUOUS
 62
   130
 10
-30.1194391441337
 20
37.4360740184799
 30
0.0
 11
-30.119437885283
 21
29.1860681357212
 31
0.0
  0
LINE
  5
   60F
  8
0
  6
CONTINUOUS
 62
   130
 10
-29.2194391441337
 20
37.4360740184799
 30
0.0
 11
-29.2194378852829
 21
29.1860681357212
 31
0.0
  0
LINE
  5
   610
  8
0
  6
CONTINUOUS
 62
   130
 10
-28.5694391441337
 20
37.4360740184799
 30
0.0
 11
-28.5694378852829
 21
29.1860681357212
 31
0.0
  0
LINE
  5
   611
  8
0
  6
CONTINUOUS
 62
   130
 10
-28.3194391441337
 20
37.4360740184799
 30
0.0
 11
-28.3194378852829
 21
29.1860681357212
 31
0.0
  0
LINE
  5
   612
  8
0
  6
CONTINUOUS
 62
   130
 10
-27.6694391441337
 20
37.4360740184799
 30
0.0
 11
-27.6694378852829
 21
29.1860681357212
 31
0.0
  0
LINE
  5
   613
  8
0
  6
CONTINUOUS
 62
   130
 10
-27.4194391441337
 20
37.4360740184799
 30
0.0
 11
-27.4194378852829
 21
29.1860681357212
 31
0.0
  0
LINE
  5
   614
  8
0
  6
CONTINUOUS
 62
   130
 10
-26.7694391441337
 20
37.4360740184799
 30
0.0
 11
-26.7694378852829
 21
29.1860681357212
 31
0.0
  0
LINE
  5
   615
  8
0
  6
CONTINUOUS
 62
   130
 10
-26.5194391441336
 20
37.4360740184799
 30
0.0
 11
-26.5194378852829
 21
29.1860681357212
 31
0.0
  0
LINE
  5
   616
  8
0
  6
CONTINUOUS
 62
   130
 10
-25.8694391441336
 20
37.4360740184799
 30
0.0
 11
-25.8694378852829
 21
29.1860681357212
 31
0.0
  0
LINE
  5
   617
  8
0
  6
CONTINUOUS
 62
   130
 10
-25.6194391441336
 20
37.4360740184799
 30
0.0
 11
-25.6194378852829
 21
29.1860681357212
 31
0.0
  0
LINE
  5
   618
  8
0
  6
CONTINUOUS
 62
   130
 10
-24.9694391441336
 20
37.4360740184799
 30
0.0
 11
-24.9694378852829
 21
29.1860681357212
 31
0.0
  0
LINE
  5
   619
  8
0
  6
CONTINUOUS
 62
   130
 10
-24.7194391441336
 20
37.4360740184799
 30
0.0
 11
-24.7194378852829
 21
29.1860681357212
 31
0.0
  0
LINE
  5
   61A
  8
0
  6
CONTINUOUS
 62
   130
 10
-24.0694391441336
 20
37.4360740184799
 30
0.0
 11
-24.0694378852829
 21
29.1860681357212
 31
0.0
  0
LINE
  5
   61B
  8
0
  6
CONTINUOUS
 62
   130
 10
-23.8194391441336
 20
37.4360740184799
 30
0.0
 11
-23.8194378852829
 21
29.1860681357212
 31
0.0
  0
LINE
  5
   61C
  8
0
  6
CONTINUOUS
 62
   130
 10
-23.1694391441336
 20
37.4360740184799
 30
0.0
 11
-23.1694378852829
 21
29.1860681357212
 31
0.0
  0
LINE
  5
   61D
  8
0
  6
CONTINUOUS
 62
   130
 10
-22.9194391441336
 20
37.4360740184799
 30
0.0
 11
-22.9194378852829
 21
29.1860681357212
 31
0.0
  0
LINE
  5
   61E
  8
0
  6
CONTINUOUS
 62
   130
 10
-22.2694391441336
 20
37.4360740184799
 30
0.0
 11
-22.2694378852829
 21
29.1860681357212
 31
0.0
  0
LINE
  5
   61F
  8
0
  6
CONTINUOUS
 62
   130
 10
-22.0194391441336
 20
37.4360740184799
 30
0.0
 11
-22.0194378852829
 21
29.1860681357212
 31
0.0
  0
LINE
  5
   620
  8
0
  6
CONTINUOUS
 62
   130
 10
-21.3694391441336
 20
37.4360740184799
 30
0.0
 11
-21.3694378852829
 21
29.1860681357212
 31
0.0
  0
LINE
  5
   621
  8
0
  6
CONTINUOUS
 62
   130
 10
-21.1194391441336
 20
37.4360740184799
 30
0.0
 11
-21.1194378852828
 21
29.1860681357212
 31
0.0
  0
LINE
  5
   622
  8
0
  6
CONTINUOUS
 62
   130
 10
-20.4694391441336
 20
37.4360740184799
 30
0.0
 11
-20.4694378852829
 21
29.1860681357212
 31
0.0
  0
LINE
  5
   623
  8
0
  6
CONTINUOUS
 62
   130
 10
-20.2194391441336
 20
37.4360740184799
 30
0.0
 11
-20.2194378852828
 21
29.1860681357212
 31
0.0
  0
LINE
  5
   624
  8
0
  6
CONTINUOUS
 62
   130
 10
-19.5694391441336
 20
37.4360740184799
 30
0.0
 11
-19.5694378852828
 21
29.1860681357212
 31
0.0
  0
LINE
  5
   625
  8
0
  6
CONTINUOUS
 62
   130
 10
-19.3194391441336
 20
37.4360740184799
 30
0.0
 11
-19.3194378852828
 21
29.1860681357212
 31
0.0
  0
LINE
  5
   626
  8
0
  6
CONTINUOUS
 62
   130
 10
-18.6694391441336
 20
37.4360740184799
 30
0.0
 11
-18.6694378852828
 21
29.1860681357212
 31
0.0
  0
LINE
  5
   627
  8
0
  6
CONTINUOUS
 62
   130
 10
-18.4194391441335
 20
37.4360740184799
 30
0.0
 11
-18.4194378852828
 21
29.1860681357212
 31
0.0
  0
LINE
  5
   628
  8
0
  6
CONTINUOUS
 62
   130
 10
-17.7694391441336
 20
37.4360740184799
 30
0.0
 11
-17.7694378852828
 21
29.1860681357212
 31
0.0
  0
LINE
  5
   629
  8
0
  6
CONTINUOUS
 62
   130
 10
-17.5194391441335
 20
37.4360740184799
 30
0.0
 11
-17.5194378852828
 21
29.1860681357212
 31
0.0
  0
LINE
  5
   62A
  8
0
  6
CONTINUOUS
 62
   130
 10
-16.8694391441335
 20
37.4360740184799
 30
0.0
 11
-16.8694378852828
 21
29.1860681357212
 31
0.0
  0
LINE
  5
   62B
  8
0
  6
CONTINUOUS
 62
   130
 10
-16.6194391441335
 20
37.4360740184799
 30
0.0
 11
-16.6194378852828
 21
29.1860681357212
 31
0.0
  0
LINE
  5
   62C
  8
0
  6
CONTINUOUS
 62
   130
 10
-15.9694391441335
 20
37.4360740184799
 30
0.0
 11
-15.9694378852828
 21
29.1860681357212
 31
0.0
  0
LINE
  5
   62D
  8
0
  6
CONTINUOUS
 62
   130
 10
-15.7194391441335
 20
37.4360740184799
 30
0.0
 11
-15.7194378852828
 21
29.1860681357212
 31
0.0
  0
LINE
  5
   62E
  8
0
  6
CONTINUOUS
 62
   130
 10
-15.0694391441335
 20
37.4360740184799
 30
0.0
 11
-15.0694378852828
 21
29.1860681357212
 31
0.0
  0
LINE
  5
   62F
  8
0
  6
CONTINUOUS
 62
   130
 10
-14.8194391441335
 20
37.4360740184799
 30
0.0
 11
-14.8194378852828
 21
29.1860681357212
 31
0.0
  0
LINE
  5
   630
  8
0
  6
DASHDOT
 62
   130
 10
-36.0944411955753
 20
50.8804039576349
 30
0.0
 11
-36.0944275324266
 21
-38.6624256980856
 31
0.0
  0
LINE
  5
   631
  8
0
  6
CONTINUOUS
 62
   130
 10
-36.4194391441337
 20
37.4360739192978
 30
0.0
 11
-36.419437885283
 21
29.186068036539
 31
0.0
  0
LINE
  5
   632
  8
0
  6
CONTINUOUS
 62
   130
 10
-35.7694391441338
 20
37.436074117662
 30
0.0
 11
-35.769437885283
 21
29.1860682349033
 31
0.0
  0
LINE
  5
   633
  8
0
  6
CONTINUOUS
 62
   130
 10
-36.6694391441337
 20
37.4360738430039
 30
0.0
 11
-36.669437885283
 21
29.1860679602451
 31
0.0
  0
LINE
  5
   634
  8
0
  6
CONTINUOUS
 62
   130
 10
-37.3194391441337
 20
37.4360736446396
 30
0.0
 11
-37.319437885283
 21
29.1860677618809
 31
0.0
  0
LINE
  5
   635
  8
0
  6
CONTINUOUS
 62
   130
 10
-38.2194391441337
 20
37.4360733699815
 30
0.0
 11
-38.2194378852829
 21
29.1860674872227
 31
0.0
  0
LINE
  5
   636
  8
0
  6
CONTINUOUS
 62
   130
 10
-37.5694391441337
 20
37.4360735683457
 30
0.0
 11
-37.569437885283
 21
29.186067685587
 31
0.0
  0
LINE
  5
   637
  8
0
  6
CONTINUOUS
 62
   130
 10
-39.1194391441336
 20
37.4360730953233
 30
0.0
 11
-39.1194378852829
 21
29.1860672125646
 31
0.0
  0
LINE
  5
   638
  8
0
  6
CONTINUOUS
 62
   130
 10
-38.4694391441337
 20
37.4360732936876
 30
0.0
 11
-38.4694378852829
 21
29.1860674109288
 31
0.0
  0
LINE
  5
   639
  8
0
  6
CONTINUOUS
 62
   130
 10
-40.0194391441336
 20
37.4360728206652
 30
0.0
 11
-40.0194378852829
 21
29.1860669379065
 31
0.0
  0
LINE
  5
   63A
  8
0
  6
CONTINUOUS
 62
   130
 10
-39.3694391441336
 20
37.4360730190294
 30
0.0
 11
-39.3694378852829
 21
29.1860671362707
 31
0.0
  0
LINE
  5
   63B
  8
0
  6
CONTINUOUS
 62
   130
 10
-40.9194391441336
 20
37.4360725460071
 30
0.0
 11
-40.9194378852828
 21
29.1860666632483
 31
0.0
  0
LINE
  5
   63C
  8
0
  6
CONTINUOUS
 62
   130
 10
-40.2694391441336
 20
37.4360727443713
 30
0.0
 11
-40.2694378852829
 21
29.1860668616125
 31
0.0
  0
LINE
  5
   63D
  8
0
  6
CONTINUOUS
 62
   130
 10
-41.8194391441335
 20
37.4360722713489
 30
0.0
 11
-41.8194383887889
 21
32.4858443014164
 31
0.0
  0
LINE
  5
   63E
  8
0
  6
CONTINUOUS
 62
   130
 10
-41.1694391441336
 20
37.4360724697131
 30
0.0
 11
-41.1694378852828
 21
29.1860665869544
 31
0.0
  0
LINE
  5
   63F
  8
0
  6
CONTINUOUS
 62
   130
 10
-42.7194391441335
 20
37.4360719966908
 30
0.0
 11
-42.7194384984601
 21
33.2045855716798
 31
0.0
  0
LINE
  5
   640
  8
0
  6
CONTINUOUS
 62
   130
 10
-42.0694391441335
 20
37.436072195055
 30
0.0
 11
-42.0694384324161
 21
32.7717596769881
 31
0.0
  0
LINE
  5
   641
  8
0
  6
CONTINUOUS
 62
   130
 10
-42.9694391441335
 20
37.4360719203968
 30
0.0
 11
-42.9694385123219
 21
33.2954305409826
 31
0.0
  0
LINE
  5
   642
  8
0
  6
CONTINUOUS
 62
   130
 10
-43.6194391441335
 20
37.4360717220326
 30
0.0
 11
-43.6194385261313
 21
33.3859318779069
 31
0.0
  0
LINE
  5
   643
  8
0
  6
CONTINUOUS
 62
   130
 10
-43.8694391441335
 20
37.4360716457387
 30
0.0
 11
-43.8694385235199
 21
33.3688178469168
 31
0.0
  0
LINE
  5
   644
  8
0
  6
CONTINUOUS
 62
   130
 10
-44.5194391441334
 20
37.4360714473745
 30
0.0
 11
-44.5194384950382
 21
33.182160269638
 31
0.0
  0
LINE
  5
   645
  8
0
  6
CONTINUOUS
 62
   130
 10
-44.7694391441334
 20
37.4360713710805
 30
0.0
 11
-44.7694384742631
 21
33.0460085345021
 31
0.0
  0
LINE
  5
   646
  8
0
  6
CONTINUOUS
 62
   130
 10
-45.4194391441334
 20
37.4360711727163
 30
0.0
 11
-45.4194383779222
 21
32.4146286441934
 31
0.0
  0
LINE
  5
   647
  8
0
  6
CONTINUOUS
 62
   130
 10
-45.6694391441334
 20
37.4360710964224
 30
0.0
 11
-45.6694383019996
 21
31.9170616209788
 31
0.0
  0
LINE
  5
   648
  8
0
  6
CONTINUOUS
 62
   130
 10
-46.3194391441334
 20
37.4360708980582
 30
0.0
 11
-46.3194378852826
 21
29.1860650152994
 31
0.0
  0
LINE
  5
   649
  8
0
  6
CONTINUOUS
 62
   130
 10
-46.5694391441334
 20
37.4360708217642
 30
0.0
 11
-46.5694378852826
 21
29.1860649390055
 31
0.0
  0
LINE
  5
   64A
  8
0
  6
CONTINUOUS
 62
   130
 10
-47.2194391441333
 20
37.4360706234
 30
0.0
 11
-47.2194378852826
 21
29.1860647406413
 31
0.0
  0
LINE
  5
   64B
  8
0
  6
CONTINUOUS
 62
   130
 10
-47.4694391441334
 20
37.4360705471061
 30
0.0
 11
-47.4694378852826
 21
29.1860646643474
 31
0.0
  0
LINE
  5
   64C
  8
0
  6
CONTINUOUS
 62
   130
 10
-48.1194391441333
 20
37.4360703487419
 30
0.0
 11
-48.1194378852826
 21
29.1860644659831
 31
0.0
  0
LINE
  5
   64D
  8
0
  6
CONTINUOUS
 62
   130
 10
-48.3694391441333
 20
37.436070272448
 30
0.0
 11
-48.3694378852826
 21
29.1860643896892
 31
0.0
  0
LINE
  5
   64E
  8
0
  6
CONTINUOUS
 62
   130
 10
-49.0194391441333
 20
37.4360700740837
 30
0.0
 11
-49.0194378852825
 21
29.186064191325
 31
0.0
  0
LINE
  5
   64F
  8
0
  6
CONTINUOUS
 62
   130
 10
-49.2694391441333
 20
37.4360699977898
 30
0.0
 11
-49.2694378852825
 21
29.1860641150311
 31
0.0
  0
LINE
  5
   650
  8
0
  6
CONTINUOUS
 62
   130
 10
-49.9194391441333
 20
37.4360697994256
 30
0.0
 11
-49.9194378852825
 21
29.1860639166669
 31
0.0
  0
LINE
  5
   651
  8
0
  6
CONTINUOUS
 62
   130
 10
-50.1694391441332
 20
37.4360697231317
 30
0.0
 11
-50.1694378852825
 21
29.1860638403729
 31
0.0
  0
LINE
  5
   652
  8
0
  6
CONTINUOUS
 62
   130
 10
-50.8194391441332
 20
37.4360695247674
 30
0.0
 11
-50.8194378852825
 21
29.1860636420087
 31
0.0
  0
LINE
  5
   653
  8
0
  6
CONTINUOUS
 62
   130
 10
-51.0694391441332
 20
37.4360694484735
 30
0.0
 11
-51.0694378852825
 21
29.1860635657148
 31
0.0
  0
LINE
  5
   654
  8
0
  6
CONTINUOUS
 62
   130
 10
-51.7194391441332
 20
37.4360692501093
 30
0.0
 11
-51.7194378852824
 21
29.1860633673506
 31
0.0
  0
LINE
  5
   655
  8
0
  6
CONTINUOUS
 62
   130
 10
-51.9694391441332
 20
37.4360691738154
 30
0.0
 11
-51.9694378852824
 21
29.1860632910566
 31
0.0
  0
LINE
  5
   656
  8
0
  6
CONTINUOUS
 62
   130
 10
-52.6194391441331
 20
37.4360689754512
 30
0.0
 11
-52.6194378852824
 21
29.1860630926924
 31
0.0
  0
LINE
  5
   657
  8
0
  6
CONTINUOUS
 62
   130
 10
-52.8694391441332
 20
37.4360688991572
 30
0.0
 11
-52.8694378852824
 21
29.1860630163985
 31
0.0
  0
LINE
  5
   658
  8
0
  6
CONTINUOUS
 62
   130
 10
-53.5194391441331
 20
37.436068700793
 30
0.0
 11
-53.5194378852824
 21
29.1860628180343
 31
0.0
  0
LINE
  5
   659
  8
0
  6
CONTINUOUS
 62
   130
 10
-53.7694391441331
 20
37.4360686244991
 30
0.0
 11
-53.7694378852824
 21
29.1860627417403
 31
0.0
  0
LINE
  5
   65A
  8
0
  6
CONTINUOUS
 62
   130
 10
-54.4194391441331
 20
37.4360684261349
 30
0.0
 11
-54.4194378852823
 21
29.1860625433761
 31
0.0
  0
LINE
  5
   65B
  8
0
  6
CONTINUOUS
 62
   130
 10
-54.6694391441331
 20
37.4360683498409
 30
0.0
 11
-54.6694378852824
 21
29.1860624670822
 31
0.0
  0
LINE
  5
   65C
  8
0
  6
CONTINUOUS
 62
   130
 10
-55.3194391441331
 20
37.4360681514767
 30
0.0
 11
-55.3194378852823
 21
29.186062268718
 31
0.0
  0
LINE
  5
   65D
  8
0
  6
CONTINUOUS
 62
   130
 10
-55.5694391441331
 20
37.4360680751828
 30
0.0
 11
-55.5694378852823
 21
29.1860621924241
 31
0.0
  0
LINE
  5
   65E
  8
0
  6
CONTINUOUS
 62
   130
 10
-56.219439144133
 20
37.4360678768186
 30
0.0
 11
-56.2194378852823
 21
29.1860619940598
 31
0.0
  0
LINE
  5
   65F
  8
0
  6
CONTINUOUS
 62
   130
 10
-56.469439144133
 20
37.4360678005247
 30
0.0
 11
-56.4694378852823
 21
29.1860619177659
 31
0.0
  0
LINE
  5
   660
  8
0
  6
CONTINUOUS
 62
   130
 10
-57.119439144133
 20
37.4360676021604
 30
0.0
 11
-57.1194378852823
 21
29.1860617194017
 31
0.0
  0
LINE
  5
   661
  8
0
  6
CONTINUOUS
 62
   130
 10
-57.369439144133
 20
37.4360675258665
 30
0.0
 11
-57.3694378852823
 21
29.1860616431078
 31
0.0
  0
LINE
  5
   662
  8
0
  6
DASHDOT
 62
   130
 10
-36.0944275324266
 20
51.0344761026342
 30
0.0
 11
-36.0944411955753
 21
-38.5083535530863
 31
0.0
  0
LINE
  5
   663
  8
0
  6
CONTINUOUS
 62
   130
 10
-35.769437885283
 20
-16.8140177311725
 30
0.0
 11
-35.7694391441337
 21
-25.0640236139313
 31
0.0
  0
LINE
  5
   664
  8
0
  6
CONTINUOUS
 62
   130
 10
-36.419437885283
 20
-16.8140177311725
 30
0.0
 11
-36.4194391441337
 21
-25.0640236139313
 31
0.0
  0
LINE
  5
   665
  8
0
  6
CONTINUOUS
 62
   130
 10
-35.519437885283
 20
-16.8140177311725
 30
0.0
 11
-35.5194390692459
 21
-24.5732385402992
 31
0.0
  0
LINE
  5
   666
  8
0
  6
CONTINUOUS
 62
   130
 10
-34.869437885283
 20
-16.8140177311725
 30
0.0
 11
-34.8694390692459
 21
-24.5732385402992
 31
0.0
  0
LINE
  5
   667
  8
0
  6
CONTINUOUS
 62
   130
 10
-33.969437885283
 20
-16.8140177311725
 30
0.0
 11
-33.9694390692459
 21
-24.5732385402992
 31
0.0
  0
LINE
  5
   668
  8
0
  6
CONTINUOUS
 62
   130
 10
-34.619437885283
 20
-16.8140177311725
 30
0.0
 11
-34.6194390692459
 21
-24.5732385402992
 31
0.0
  0
LINE
  5
   669
  8
0
  6
CONTINUOUS
 62
   130
 10
-33.069437885283
 20
-16.8140177311725
 30
0.0
 11
-33.0694390692459
 21
-24.5732385402992
 31
0.0
  0
LINE
  5
   66A
  8
0
  6
CONTINUOUS
 62
   130
 10
-33.719437885283
 20
-16.8140177311725
 30
0.0
 11
-33.7194390692459
 21
-24.5732385402992
 31
0.0
  0
LINE
  5
   66B
  8
0
  6
CONTINUOUS
 62
   130
 10
-32.169437885283
 20
-16.8140177311725
 30
0.0
 11
-32.1694390692459
 21
-24.5732385402992
 31
0.0
  0
LINE
  5
   66C
  8
0
  6
CONTINUOUS
 62
   130
 10
-32.819437885283
 20
-16.8140177311725
 30
0.0
 11
-32.8194390692459
 21
-24.5732385402992
 31
0.0
  0
LINE
  5
   66D
  8
0
  6
CONTINUOUS
 62
   130
 10
-31.269437885283
 20
-16.8140177311725
 30
0.0
 11
-31.2694391441337
 21
-25.0640236139313
 31
0.0
  0
LINE
  5
   66E
  8
0
  6
CONTINUOUS
 62
   130
 10
-31.919437885283
 20
-16.8140177311725
 30
0.0
 11
-31.9194390692459
 21
-24.5732385402992
 31
0.0
  0
LINE
  5
   66F
  8
0
  6
CONTINUOUS
 62
   130
 10
-41.8194378852828
 20
-16.8140159840415
 30
0.0
 11
-41.819439069246
 21
-24.5732385402992
 31
0.0
  0
LINE
  5
   670
  8
0
  6
CONTINUOUS
 62
   130
 10
-31.019437885283
 20
-16.8140177311725
 30
0.0
 11
-31.0194391441337
 21
-25.0640236139313
 31
0.0
  0
LINE
  5
   671
  8
0
  6
CONTINUOUS
 62
   130
 10
-42.7194378852828
 20
-16.8140157093834
 30
0.0
 11
-42.719439069246
 21
-24.5732385402992
 31
0.0
  0
LINE
  5
   672
  8
0
  6
CONTINUOUS
 62
   130
 10
-42.0694378852828
 20
-16.8140159077476
 30
0.0
 11
-42.069439069246
 21
-24.5732385402992
 31
0.0
  0
LINE
  5
   673
  8
0
  6
CONTINUOUS
 62
   130
 10
-42.9694378852828
 20
-16.8140156330895
 30
0.0
 11
-42.969439069246
 21
-24.5732385402992
 31
0.0
  0
LINE
  5
   674
  8
0
  6
CONTINUOUS
 62
   130
 10
-43.6194378852827
 20
-16.8140154347252
 30
0.0
 11
-43.619439069246
 21
-24.5732385402992
 31
0.0
  0
LINE
  5
   675
  8
0
  6
CONTINUOUS
 62
   130
 10
-43.8694378852827
 20
-16.8140153584313
 30
0.0
 11
-43.869439069246
 21
-24.5732385402992
 31
0.0
  0
LINE
  5
   676
  8
0
  6
CONTINUOUS
 62
   130
 10
-44.5194378852827
 20
-16.8140151600671
 30
0.0
 11
-44.519439069246
 21
-24.5732385402992
 31
0.0
  0
LINE
  5
   677
  8
0
  6
CONTINUOUS
 62
   130
 10
-44.7694378852827
 20
-16.8140150837732
 30
0.0
 11
-44.769439069246
 21
-24.5732385402992
 31
0.0
  0
LINE
  5
   678
  8
0
  6
CONTINUOUS
 62
   130
 10
-45.4194378852827
 20
-16.8140148854089
 30
0.0
 11
-45.419439069246
 21
-24.5732385402992
 31
0.0
  0
LINE
  5
   679
  8
0
  6
CONTINUOUS
 62
   130
 10
-45.6694378852827
 20
-16.814014809115
 30
0.0
 11
-45.669439069246
 21
-24.5732385402992
 31
0.0
  0
LINE
  5
   67A
  8
0
  6
CONTINUOUS
 62
   130
 10
-25.8694378852829
 20
-16.8140177311725
 30
0.0
 11
-25.8694390692458
 21
-24.5732385402992
 31
0.0
  0
LINE
  5
   67B
  8
0
  6
CONTINUOUS
 62
   130
 10
-25.6194378852829
 20
-16.8140177311725
 30
0.0
 11
-25.6194390692458
 21
-24.5732385402992
 31
0.0
  0
LINE
  5
   67C
  8
0
  6
CONTINUOUS
 62
   130
 10
-24.9694378852829
 20
-16.8140177311725
 30
0.0
 11
-24.9694390692458
 21
-24.5732385402992
 31
0.0
  0
LINE
  5
   67D
  8
0
  6
CONTINUOUS
 62
   130
 10
-24.7194378852829
 20
-16.8140177311725
 30
0.0
 11
-24.7194390692458
 21
-24.5732385402992
 31
0.0
  0
LINE
  5
   67E
  8
0
  6
CONTINUOUS
 62
   130
 10
-24.0694378852829
 20
-16.8140177311725
 30
0.0
 11
-24.0694390692458
 21
-24.5732385402992
 31
0.0
  0
LINE
  5
   67F
  8
0
  6
CONTINUOUS
 62
   130
 10
-23.8194378852829
 20
-16.8140177311725
 30
0.0
 11
-23.8194390692458
 21
-24.5732385402992
 31
0.0
  0
LINE
  5
   680
  8
0
  6
CONTINUOUS
 62
   130
 10
-23.1694378852829
 20
-16.8140177311725
 30
0.0
 11
-23.1694390692458
 21
-24.5732385402992
 31
0.0
  0
LINE
  5
   681
  8
0
  6
CONTINUOUS
 62
   130
 10
-22.9194378852829
 20
-16.8140177311725
 30
0.0
 11
-22.9194390692457
 21
-24.5732385402992
 31
0.0
  0
LINE
  5
   682
  8
0
  6
CONTINUOUS
 62
   130
 10
-22.2694378852829
 20
-16.8140177311725
 30
0.0
 11
-22.2694390678328
 21
-24.563978612423
 31
0.0
  0
LINE
  5
   683
  8
0
  6
CONTINUOUS
 62
   130
 10
-22.0194378852828
 20
-16.8140177311725
 30
0.0
 11
-22.0194390678328
 21
-24.563978612423
 31
0.0
  0
LINE
  5
   684
  8
0
  6
CONTINUOUS
 62
   130
 10
-21.3694378852829
 20
-16.8140177311725
 30
0.0
 11
-21.3694386922467
 21
-22.1025369193762
 31
0.0
  0
LINE
  5
   685
  8
0
  6
CONTINUOUS
 62
   130
 10
-21.1194378852828
 20
-16.8140177311725
 30
0.0
 11
-21.1194386864109
 21
-22.0642913826285
 31
0.0
  0
LINE
  5
   686
  8
0
  6
CONTINUOUS
 62
   130
 10
-20.4694378852829
 20
-16.8140177311725
 30
0.0
 11
-20.4694387198361
 21
-22.2833467501524
 31
0.0
  0
LINE
  5
   687
  8
0
  6
CONTINUOUS
 62
   130
 10
-20.2194378852828
 20
-16.8140177311725
 30
0.0
 11
-20.2194387650772
 21
-22.5798395566222
 31
0.0
  0
LINE
  5
   688
  8
0
  6
CONTINUOUS
 62
   130
 10
-19.5694378852828
 20
-16.8140177311725
 30
0.0
 11
-19.5694390678328
 21
-24.563978612423
 31
0.0
  0
LINE
  5
   689
  8
0
  6
CONTINUOUS
 62
   130
 10
-19.3194378852828
 20
-16.8140177311725
 30
0.0
 11
-19.3194390678328
 21
-24.563978612423
 31
0.0
  0
LINE
  5
   68A
  8
0
  6
CONTINUOUS
 62
   130
 10
-18.6694378852828
 20
-16.8140177311725
 30
0.0
 11
-18.6694390678328
 21
-24.563978612423
 31
0.0
  0
LINE
  5
   68B
  8
0
  6
CONTINUOUS
 62
   130
 10
-18.4194378852828
 20
-16.8140177311725
 30
0.0
 11
-18.4194390678327
 21
-24.563978612423
 31
0.0
  0
LINE
  5
   68C
  8
0
  6
CONTINUOUS
 62
   130
 10
-17.7694378852828
 20
-16.8140177311725
 30
0.0
 11
-17.7694390678328
 21
-24.563978612423
 31
0.0
  0
LINE
  5
   68D
  8
0
  6
CONTINUOUS
 62
   130
 10
-17.5194378852828
 20
-16.8140177311725
 30
0.0
 11
-17.5194390678327
 21
-24.563978612423
 31
0.0
  0
LINE
  5
   68E
  8
0
  6
CONTINUOUS
 62
   130
 10
-16.8694378852828
 20
-16.8140177311725
 30
0.0
 11
-16.8694390678327
 21
-24.563978612423
 31
0.0
  0
LINE
  5
   68F
  8
0
  6
CONTINUOUS
 62
   130
 10
-16.6194378852828
 20
-16.8140177311725
 30
0.0
 11
-16.6194390678327
 21
-24.563978612423
 31
0.0
  0
LINE
  5
   690
  8
0
  6
CONTINUOUS
 62
   130
 10
-15.9694378852828
 20
-16.8140177311725
 30
0.0
 11
-15.9694390678327
 21
-24.563978612423
 31
0.0
  0
LINE
  5
   691
  8
0
  6
CONTINUOUS
 62
   130
 10
-15.7194378852828
 20
-16.8140177311725
 30
0.0
 11
-15.7194390678327
 21
-24.563978612423
 31
0.0
  0
LINE
  5
   692
  8
0
  6
CONTINUOUS
 62
   130
 10
-15.0694378852828
 20
-16.8140177311725
 30
0.0
 11
-15.0694390678327
 21
-24.563978612423
 31
0.0
  0
LINE
  5
   693
  8
0
  6
CONTINUOUS
 62
   130
 10
-14.8194378852828
 20
-16.8140177311725
 30
0.0
 11
-14.8194390678327
 21
-24.563978612423
 31
0.0
  0
LINE
  5
   694
  8
0
  6
DASHDOT
 62
   130
 10
-36.0944275324266
 20
51.0344761026342
 30
0.0
 11
-36.0944411955753
 21
-38.5083535530863
 31
0.0
  0
LINE
  5
   695
  8
0
  6
CONTINUOUS
 62
   130
 10
-36.419437885283
 20
-16.8140176319904
 30
0.0
 11
-36.4194390692459
 21
-24.5732385402992
 31
0.0
  0
LINE
  5
   696
  8
0
  6
CONTINUOUS
 62
   130
 10
-35.7694390692459
 20
-24.5732385402992
 30
0.0
 11
-35.7694391441338
 21
-25.0640237131134
 31
0.0
  0
LINE
  5
   697
  8
0
  6
CONTINUOUS
 62
   130
 10
-36.669437885283
 20
-16.8140175556965
 30
0.0
 11
-36.6694390692459
 21
-24.5732385402992
 31
0.0
  0
LINE
  5
   698
  8
0
  6
CONTINUOUS
 62
   130
 10
-37.319437885283
 20
-16.8140173573323
 30
0.0
 11
-37.3194390692459
 21
-24.5732385402992
 31
0.0
  0
LINE
  5
   699
  8
0
  6
CONTINUOUS
 62
   130
 10
-38.2194378852829
 20
-16.8140170826741
 30
0.0
 11
-38.2194390692459
 21
-24.5732385402992
 31
0.0
  0
LINE
  5
   69A
  8
0
  6
CONTINUOUS
 62
   130
 10
-37.569437885283
 20
-16.8140172810383
 30
0.0
 11
-37.5694390692459
 21
-24.5732385402992
 31
0.0
  0
LINE
  5
   69B
  8
0
  6
CONTINUOUS
 62
   130
 10
-39.1194378852829
 20
-16.814016808016
 30
0.0
 11
-39.1194390692459
 21
-24.5732385402992
 31
0.0
  0
LINE
  5
   69C
  8
0
  6
CONTINUOUS
 62
   130
 10
-38.4694378852829
 20
-16.8140170063802
 30
0.0
 11
-38.4694390692459
 21
-24.5732385402992
 31
0.0
  0
LINE
  5
   69D
  8
0
  6
CONTINUOUS
 62
   130
 10
-40.0194378852829
 20
-16.8140165333578
 30
0.0
 11
-40.0194390692459
 21
-24.5732385402992
 31
0.0
  0
LINE
  5
   69E
  8
0
  6
CONTINUOUS
 62
   130
 10
-39.3694378852829
 20
-16.814016731722
 30
0.0
 11
-39.3694390692459
 21
-24.5732385402992
 31
0.0
  0
LINE
  5
   69F
  8
0
  6
CONTINUOUS
 62
   130
 10
-31.269437885283
 20
-16.8140177311725
 30
0.0
 11
-31.2694390692458
 21
-24.5732385402992
 31
0.0
  0
LINE
  5
   6A0
  8
0
  6
CONTINUOUS
 62
   130
 10
-40.2694378852829
 20
-16.8140164570639
 30
0.0
 11
-40.269439069246
 21
-24.5732385402992
 31
0.0
  0
LINE
  5
   6A1
  8
0
  6
CONTINUOUS
 62
   130
 10
-30.3694383124882
 20
-19.6137505382925
 30
0.0
 11
-30.3694390692458
 21
-24.5732385402992
 31
0.0
  0
LINE
  5
   6A2
  8
0
  6
CONTINUOUS
 62
   130
 10
-31.019437885283
 20
-16.8140177311725
 30
0.0
 11
-31.0194390692459
 21
-24.5732385402992
 31
0.0
  0
LINE
  5
   6A3
  8
0
  6
CONTINUOUS
 62
   130
 10
-29.4694384221594
 20
-20.3324921543368
 30
0.0
 11
-29.4694390692458
 21
-24.5732385402992
 31
0.0
  0
LINE
  5
   6A4
  8
0
  6
CONTINUOUS
 62
   130
 10
-30.1194383561154
 20
-19.8996660209758
 30
0.0
 11
-30.1194390692458
 21
-24.5732385402992
 31
0.0
  0
LINE
  5
   6A5
  8
0
  6
CONTINUOUS
 62
   130
 10
-29.2194384360213
 20
-20.4233372104011
 30
0.0
 11
-29.2194390692459
 21
-24.5732385402992
 31
0.0
  0
LINE
  5
   6A6
  8
0
  6
CONTINUOUS
 62
   130
 10
-28.5694384498307
 20
-20.5138387691646
 30
0.0
 11
-28.5694390692458
 21
-24.5732385402992
 31
0.0
  0
LINE
  5
   6A7
  8
0
  6
CONTINUOUS
 62
   130
 10
-28.3194384472193
 20
-20.4967248232143
 30
0.0
 11
-28.3194390692458
 21
-24.5732385402992
 31
0.0
  0
LINE
  5
   6A8
  8
0
  6
CONTINUOUS
 62
   130
 10
-27.6694384187377
 20
-20.3100674700451
 30
0.0
 11
-27.6694390692458
 21
-24.5732385402992
 31
0.0
  0
LINE
  5
   6A9
  8
0
  6
CONTINUOUS
 62
   130
 10
-27.4194383979626
 20
-20.1739158240473
 30
0.0
 11
-27.4194390692458
 21
-24.5732385402992
 31
0.0
  0
LINE
  5
   6AA
  8
0
  6
CONTINUOUS
 62
   130
 10
-26.7694383016217
 20
-19.5425361972442
 30
0.0
 11
-26.7694390692458
 21
-24.5732385402992
 31
0.0
  0
LINE
  5
   6AB
  8
0
  6
CONTINUOUS
 62
   130
 10
-26.519438225699
 20
-19.0449693535694
 30
0.0
 11
-26.5194390692458
 21
-24.5732385402992
 31
0.0
  0
LINE
  5
   6AC
  8
0
  6
CONTINUOUS
 62
   130
 10
-46.3194378852826
 20
-16.8140146107508
 30
0.0
 11
-46.319439069246
 21
-24.5732385402992
 31
0.0
  0
LINE
  5
   6AD
  8
0
  6
CONTINUOUS
 62
   130
 10
-46.5694378852826
 20
-16.8140145344569
 30
0.0
 11
-46.569439069246
 21
-24.5732385402992
 31
0.0
  0
LINE
  5
   6AE
  8
0
  6
CONTINUOUS
 62
   130
 10
-47.2194378852826
 20
-16.8140143360927
 30
0.0
 11
-47.219439069246
 21
-24.5732385402992
 31
0.0
  0
LINE
  5
   6AF
  8
0
  6
CONTINUOUS
 62
   130
 10
-47.4694378852826
 20
-16.8140142597987
 30
0.0
 11
-47.469439069246
 21
-24.5732385402992
 31
0.0
  0
LINE
  5
   6B0
  8
0
  6
CONTINUOUS
 62
   130
 10
-48.1194378852826
 20
-16.8140140614345
 30
0.0
 11
-48.119439069246
 21
-24.5732385402992
 31
0.0
  0
LINE
  5
   6B1
  8
0
  6
CONTINUOUS
 62
   130
 10
-48.3694378852826
 20
-16.8140139851406
 30
0.0
 11
-48.369439069246
 21
-24.5732385402992
 31
0.0
  0
LINE
  5
   6B2
  8
0
  6
CONTINUOUS
 62
   130
 10
-49.0194378852825
 20
-16.8140137867764
 30
0.0
 11
-49.019439069246
 21
-24.5732385402992
 31
0.0
  0
LINE
  5
   6B3
  8
0
  6
CONTINUOUS
 62
   130
 10
-49.2694378852825
 20
-16.8140137104824
 30
0.0
 11
-49.2694390692461
 21
-24.5732385402992
 31
0.0
  0
LINE
  5
   6B4
  8
0
  6
CONTINUOUS
 62
   130
 10
-49.9194378852825
 20
-16.8140135121182
 30
0.0
 11
-49.9194390678331
 21
-24.563978612423
 31
0.0
  0
LINE
  5
   6B5
  8
0
  6
CONTINUOUS
 62
   130
 10
-50.1694378852825
 20
-16.8140134358243
 30
0.0
 11
-50.1694390678331
 21
-24.563978612423
 31
0.0
  0
LINE
  5
   6B6
  8
0
  6
CONTINUOUS
 62
   130
 10
-50.8194378852825
 20
-16.8140132374601
 30
0.0
 11
-50.8194386922469
 21
-22.1025364308906
 31
0.0
  0
LINE
  5
   6B7
  8
0
  6
CONTINUOUS
 62
   130
 10
-51.0694378852825
 20
-16.8140131611661
 30
0.0
 11
-51.0694386864118
 21
-22.0642955176183
 31
0.0
  0
LINE
  5
   6B8
  8
0
  6
CONTINUOUS
 62
   130
 10
-51.7194378852824
 20
-16.8140129628019
 30
0.0
 11
-51.7194387198392
 21
-22.2833655528985
 31
0.0
  0
LINE
  5
   6B9
  8
0
  6
CONTINUOUS
 62
   130
 10
-51.9694378852824
 20
-16.814012886508
 30
0.0
 11
-51.9694390678331
 21
-24.563978612423
 31
0.0
  0
LINE
  5
   6BA
  8
0
  6
CONTINUOUS
 62
   130
 10
-52.6194378852824
 20
-16.8140126881438
 30
0.0
 11
-52.6194390678331
 21
-24.563978612423
 31
0.0
  0
LINE
  5
   6BB
  8
0
  6
CONTINUOUS
 62
   130
 10
-52.8694378852824
 20
-16.8140126118499
 30
0.0
 11
-52.8694390678331
 21
-24.563978612423
 31
0.0
  0
LINE
  5
   6BC
  8
0
  6
DASHDOT
 62
   130
 10
-65.3383680008676
 20
0.436089277264934
 30
0.0
 11
-11.2064731272835
 21
0.436089277264934
 31
0.0
  0
ARC
  5
   6BD
  8
0
  6
CONTINUOUS
 62
     2
 10
-43.5944305610519
 20
31.1860740184799
 30
0.0
 40
2.2
 50
359.999999844103
 51
539.999999844103
  0
LINE
  5
   6BE
  8
0
  6
CONTINUOUS
 62
     2
 10
-41.3944305610519
 20
31.1860740184799
 30
0.0
 11
-41.3944305610519
 21
29.1860681357211
 31
0.0
  0
LINE
  5
   6BF
  8
0
  6
CONTINUOUS
 62
     2
 10
-45.7944305610519
 20
31.1860740184799
 30
0.0
 11
-45.7944305610519
 21
29.1860681357211
 31
0.0
  0
LINE
  5
   6C0
  8
0
  6
DASHDOT
 62
     2
 10
-43.5944305610519
 20
37.3860740184799
 30
0.0
 11
-43.5944305610519
 21
24.9860740184799
 31
0.0
  0
LINE
  5
   6C1
  8
0
  6
DASHDOT
 62
     2
 10
-49.7944305610519
 20
31.1860740184799
 30
0.0
 11
-37.3944305610519
 21
31.1860740184799
 31
0.0
  0
CIRCLE
  5
   6C2
  8
0
  6
CONTINUOUS
 62
     2
 10
-43.5944305610519
 20
31.1860740184799
 30
0.0
 40
1.75
  0
LINE
  5
   6C3
  8
0
  6
CONTINUOUS
 62
     2
 10
-42.5464623849569
 20
32.5875955851681
 30
0.0
 11
-44.9959521277401
 21
30.1381058423849
 31
0.0
  0
LINE
  5
   6C4
  8
0
  6
CONTINUOUS
 62
     2
 10
-42.1929089943637
 20
32.2340421945749
 30
0.0
 11
-44.6423987371468
 21
29.7845524517917
 31
0.0
  0
ARC
  5
   6C5
  8
0
  6
CONTINUOUS
 62
     2
 10
-28.5944456672661
 20
-18.3139809012385
 30
0.0
 40
2.2
 50
539.999982358823
 51
719.999982358823
  0
CIRCLE
  5
   6C6
  8
0
  6
CONTINUOUS
 62
     2
 10
-28.5944456672661
 20
-18.3139809012385
 30
0.0
 40
1.75
  0
LINE
  5
   6C7
  8
0
  6
CONTINUOUS
 62
     2
 10
-26.394445056913
 20
-16.3139756898664
 30
0.0
 11
-26.3944456672662
 21
-18.3139815726251
 31
0.0
  0
LINE
  5
   6C8
  8
0
  6
CONTINUOUS
 62
     2
 10
-27.1929237807635
 20
-17.266013152854
 30
0.0
 11
-29.6424142710714
 21
-19.7155021481123
 31
0.0
  0
LINE
  5
   6C9
  8
0
  6
CONTINUOUS
 62
     2
 10
-27.5464770634609
 20
-16.9124596543648
 30
0.0
 11
-29.9959675537687
 21
-19.3619486496231
 31
0.0
  0
LINE
  5
   6CA
  8
0
  6
CONTINUOUS
 62
     2
 10
-30.7944450569128
 20
-16.3139743470933
 30
0.0
 11
-30.794445667266
 21
-18.313980229852
 31
0.0
  0
LINE
  5
   6CB
  8
0
  6
CONTINUOUS
 62
   130
 10
-40.9194378852828
 20
-16.8140162586997
 30
0.0
 11
-40.919439069246
 21
-24.5732385402992
 31
0.0
  0
LINE
  5
   6CC
  8
0
  6
CONTINUOUS
 62
   130
 10
-41.1694378852828
 20
-16.8140161824057
 30
0.0
 11
-41.169439069246
 21
-24.5732385402992
 31
0.0
  0
CIRCLE
  5
   6CD
  8
0
  6
CONTINUOUS
 62
     2
 10
-21.0944298362593
 20
35.9360740184799
 30
0.0
 40
1.0
  0
LINE
  5
   6CE
  8
0
  6
CONTINUOUS
 62
     2
 10
-20.4812574238875
 20
36.7260231261483
 30
0.0
 11
-21.8843789439277
 21
35.3229016061081
 31
0.0
  0
LINE
  5
   6CF
  8
0
  6
CONTINUOUS
 62
     2
 10
-20.3044807285909
 20
36.5492464308517
 30
0.0
 11
-21.7076022486311
 21
35.1461249108115
 31
0.0
  0
LINE
  5
   6D0
  8
0
  6
DASHDOT
 62
     2
 10
-21.0944298362593
 20
40.9360740184799
 30
0.0
 11
-21.0944298362593
 21
30.9360740184799
 31
0.0
  0
LINE
  5
   6D1
  8
0
  6
DASHDOT
 62
     2
 10
-26.0944298362593
 20
35.9360740184799
 30
0.0
 11
-16.0944298362593
 21
35.9360740184799
 31
0.0
  0
CIRCLE
  5
   6D2
  8
0
  6
CONTINUOUS
 62
     2
 10
-51.0944298362589
 20
35.9360785961157
 30
0.0
 40
01.0
  0
LINE
  5
   6D3
  8
0
  6
CONTINUOUS
 62
     2
 10
-51.7076020075574
 20
36.7260278909094
 30
0.0
 11
-50.3044809157159
 21
35.3229059426706
 31
0.0
  0
LINE
  5
   6D4
  8
0
  6
CONTINUOUS
 62
     2
 10
-51.884378756802
 20
36.5492512495607
 30
0.0
 11
-50.4812576649605
 21
35.1461293013219
 31
0.0
  0
CIRCLE
  5
   6D5
  8
0
  6
CONTINUOUS
 62
     2
 10
-21.0944298362593
 20
-23.063978612423
 30
0.0
 40
1.0
  0
LINE
  5
   6D6
  8
0
  6
CONTINUOUS
 62
     2
 10
-21.8843789439277
 20
-22.4508062000512
 30
0.0
 11
-20.4812574238875
 21
-23.8539277200914
 31
0.0
  0
LINE
  5
   6D7
  8
0
  6
CONTINUOUS
 62
     2
 10
-21.7076022486311
 20
-22.2740295047545
 30
0.0
 11
-20.3044807285909
 21
-23.6771510247947
 31
0.0
  0
CIRCLE
  5
   6D8
  8
0
  6
CONTINUOUS
 62
     2
 10
-51.0944298362589
 20
-23.0639831900587
 30
0.0
 40
01.0
  0
LINE
  5
   6D9
  8
0
  6
CONTINUOUS
 62
     2
 10
-50.3044809157159
 20
-22.4508105366137
 30
0.0
 11
-51.7076020075574
 21
-23.8539324848525
 31
0.0
  0
LINE
  5
   6DA
  8
0
  6
CONTINUOUS
 62
     2
 10
-50.4812576649605
 20
-22.274033895265
 30
0.0
 11
-51.884378756802
 21
-23.6771558435038
 31
0.0
  0
LINE
  5
   6DB
  8
0
  6
CONTINUOUS
 62
   130
 10
-21.1194389914911
 20
-24.0636658345853
 30
0.0
 11
-21.1194390678328
 21
-24.563978612423
 31
0.0
  0
LINE
  5
   6DC
  8
0
  6
CONTINUOUS
 62
   130
 10
-21.3694389856553
 20
-24.0254202215436
 30
0.0
 11
-21.3694390678328
 21
-24.563978612423
 31
0.0
  0
LINE
  5
   6DD
  8
0
  6
CONTINUOUS
 62
   130
 10
-20.469438958066
 20
-23.8446106654256
 30
0.0
 11
-20.4694390678328
 21
-24.563978612423
 31
0.0
  0
LINE
  5
   6DE
  8
0
  6
CONTINUOUS
 62
   130
 10
-20.2194389128248
 20
-23.5481179352497
 30
0.0
 11
-20.2194390678328
 21
-24.563978612423
 31
0.0
  0
LINE
  5
   6DF
  8
0
  6
CONTINUOUS
 62
   130
 10
-51.7194389580648
 20
-23.8446006364814
 30
0.0
 11
-51.7194390678331
 21
-24.563978612423
 31
0.0
  0
LINE
  5
   6E0
  8
0
  6
CONTINUOUS
 62
   130
 10
-51.0694389914922
 20
-24.0636708701258
 30
0.0
 11
-51.0694390678331
 21
-24.563978612423
 31
0.0
  0
LINE
  5
   6E1
  8
0
  6
CONTINUOUS
 62
   130
 10
-50.8194389856571
 20
-24.0254300331475
 30
0.0
 11
-50.8194390678331
 21
-24.563978612423
 31
0.0
  0
INSERT
  5
   6E2
  8
0
  6
CONTINUOUS
 62
     3
  2
*UDIM675
 10
0.0
 20
0.0
 30
0.0
  0
TEXT
  5
   6E3
  8
0
  6
CONTINUOUS
 62
     2
 10
3.63098488481091
 20
-0.986050528463298
 30
0.0
 40
3.00000002980232
  1
X
 50
359.999999844103
 41
0.983333351877
 11
3.63098488888474
 21
0.513949486437863
 31
0.0
 73
     2
  0
LINE
  5
   6E4
  8
0
  6
CONTINUOUS
 62
   130
 10
-58.5944200707043
 20
12.4364505410194
 30
0.0
 11
-58.5944164085957
 21
-11.5635494589806
 31
0.0
  0
LINE
  5
   6E5
  8
0
  6
CONTINUOUS
 62
   130
 10
-13.594446544592
 20
12.4364505410194
 30
0.0
 11
-13.5944536399923
 21
-34.0639748740196
 31
0.0
  0
LINE
  5
   6E6
  8
0
  6
CONTINUOUS
 62
   130
 10
-53.2630591867857
 20
-11.3625399591835
 30
0.0
 11
-53.2630591867857
 21
-23.8357944415575
 31
0.0
  0
LINE
  5
   6E7
  8
0
  6
CONTINUOUS
 62
   130
 10
-13.2752727579983
 20
-9.25309250995846
 30
0.0
 11
-10.0652440309168
 21
-9.25309250995846
 31
0.0
  0
LINE
  5
   6E8
  8
0
  6
CONTINUOUS
 62
   130
 10
-53.2630591867857
 20
-15.5639727296642
 30
0.0
 11
-13.5944355583193
 21
-15.5639727296642
 31
0.0
  0
LINE
  5
   6E9
  8
0
  6
CONTINUOUS
 62
   130
 10
-53.2630591867857
 20
-16.3139727296642
 30
0.0
 11
-13.5944439888037
 21
-16.3139727296642
 31
0.0
  0
LINE
  5
   6EA
  8
0
  6
CONTINUOUS
 62
   130
 10
-53.5194389151798
 20
-23.5635494589806
 30
0.0
 11
-53.5194390678331
 21
-24.563978612423
 31
0.0
  0
LINE
  5
   6EB
  8
0
  6
CONTINUOUS
 62
   130
 10
-53.7694389151798
 20
-23.5635494589806
 30
0.0
 11
-53.7694390678331
 21
-24.563978612423
 31
0.0
  0
LINE
  5
   6EC
  8
0
  6
CONTINUOUS
 62
   130
 10
-54.4194389151798
 20
-23.5635494589806
 30
0.0
 11
-54.4194390678331
 21
-24.563978612423
 31
0.0
  0
LINE
  5
   6ED
  8
0
  6
CONTINUOUS
 62
   130
 10
-54.6694389151798
 20
-23.5635494589806
 30
0.0
 11
-54.6694390678332
 21
-24.563978612423
 31
0.0
  0
LINE
  5
   6EE
  8
0
  6
CONTINUOUS
 62
   130
 10
-55.3194389151798
 20
-23.5635494589806
 30
0.0
 11
-55.3194390678332
 21
-24.563978612423
 31
0.0
  0
LINE
  5
   6EF
  8
0
  6
CONTINUOUS
 62
   130
 10
-55.5694389151798
 20
-23.5635494589806
 30
0.0
 11
-55.5694390678332
 21
-24.563978612423
 31
0.0
  0
LINE
  5
   6F0
  8
0
  6
CONTINUOUS
 62
   130
 10
-56.2194389151798
 20
-23.5635494589806
 30
0.0
 11
-56.2194390678332
 21
-24.563978612423
 31
0.0
  0
LINE
  5
   6F1
  8
0
  6
CONTINUOUS
 62
   130
 10
-56.4694389151798
 20
-23.5635494589806
 30
0.0
 11
-56.4694390678332
 21
-24.563978612423
 31
0.0
  0
LINE
  5
   6F2
  8
0
  6
CONTINUOUS
 62
   130
 10
-57.1194389151798
 20
-23.5635494589806
 30
0.0
 11
-57.1194390678332
 21
-24.563978612423
 31
0.0
  0
LINE
  5
   6F3
  8
0
  6
CONTINUOUS
 62
   130
 10
-57.3694389151799
 20
-23.5635494589806
 30
0.0
 11
-57.3694390678332
 21
-24.563978612423
 31
0.0
  0
LINE
  5
   6F4
  8
0
  6
CONTINUOUS
 62
   130
 10
-58.5944145775414
 20
-23.5635494589806
 30
0.0
 11
-58.594412975304
 21
-34.0639748740196
 31
0.0
  0
INSERT
  5
   6F5
  8
0
  6
CONTINUOUS
 62
     3
  2
*UDIM676
 10
0.0
 20
0.0
 30
0.0
  0
INSERT
  5
   6F6
  8
0
  6
CONTINUOUS
 62
     3
  2
*UDIM677
 10
0.0
 20
0.0
 30
0.0
  0
INSERT
  5
   6F7
  8
0
  6
CONTINUOUS
 62
     3
  2
*UDIM678
 10
0.0
 20
0.0
 30
0.0
  0
TEXT
  5
   6F8
  8
0
  6
CONTINUOUS
 62
     2
 10
-67.0431478362291
 20
-0.9268527630907
 30
0.0
 40
3.00000002980232
  1
X
 50
359.999999844103
 41
0.983333351877
 72
     2
 11
-64.8431477546692
 21
0.573147245835513
 31
0.0
 73
     2
  0
TEXT
  5
   6F9
  8
0
  6
CONTINUOUS
 62
     2
 10
-35.9591005187242
 20
53.525871932115
 30
0.0
 40
3.00000002980232
  1
Y
 50
359.999999844103
 41
0.983333351877
 72
     2
 11
-33.7591004371643
 21
55.0258719410412
 31
0.0
 73
     2
  0
TEXT
  5
   6FA
  8
0
  6
CONTINUOUS
 62
     2
 10
-36.2558458190171
 20
-46.1804803017717
 30
0.0
 40
3.00000002980232
  1
Y
 50
359.999999844103
 41
0.983333351877
 72
     2
 11
-34.0558457374573
 21
-44.6804802928455
 31
0.0
 73
     2
  0
INSERT
  5
   6FB
  8
0
  6
CONTINUOUS
 62
     3
  2
*UDIM679
 10
0.0
 20
0.0
 30
0.0
  0
INSERT
  5
   6FC
  8
0
  6
CONTINUOUS
 62
     3
  2
*UDIM680
 10
0.0
 20
0.0
 30
0.0
  0
CIRCLE
  5
   6FD
  8
0
  6
CONTINUOUS
 62
   130
 10
-43.5944557189941
 20
-97.7738037109375
 30
0.0
 40
1.0
  0
CIRCLE
  5
   6FE
  8
0
  6
CONTINUOUS
 62
   130
 10
-28.5944557189941
 20
-97.7738037109375
 30
0.0
 40
1.0
  0
CIRCLE
  5
   6FF
  8
0
  6
CONTINUOUS
 62
   130
 10
-43.5944557189941
 20
-169.773803710938
 30
0.0
 40
1.0
  0
CIRCLE
  5
   700
  8
0
  6
CONTINUOUS
 62
   130
 10
-28.5944557189941
 20
-169.773803710938
 30
0.0
 40
1.0
  0
LINE
  5
   701
  8
0
  6
CONTINUOUS
 62
   130
 10
-61.3734787451331
 20
-86.9208507636771
 30
0.0
 11
-11.2326828843509
 21
-86.9208507636771
 31
0.0
  0
LINE
  5
   702
  8
0
  6
CONTINUOUS
 62
   130
 10
-61.3734787451331
 20
-183.074472409978
 30
0.0
 11
-11.2326828843509
 21
-183.074472409978
 31
0.0
  0
LINE
  5
   703
  8
0
  6
DASHDOT
 62
   130
 10
-43.5944557189941
 20
-92.7738037109375
 30
0.0
 11
-43.5944557189941
 21
-102.773803710938
 31
0.0
  0
LINE
  5
   704
  8
0
  6
DASHDOT
 62
   130
 10
-48.5944557189941
 20
-97.7738037109375
 30
0.0
 11
-38.5944557189941
 21
-97.7738037109375
 31
0.0
  0
LINE
  5
   705
  8
0
  6
DASHDOT
 62
   130
 10
-28.5944557189941
 20
-92.7738037109375
 30
0.0
 11
-28.5944557189941
 21
-102.773803710938
 31
0.0
  0
LINE
  5
   706
  8
0
  6
DASHDOT
 62
   130
 10
-34.8444557189941
 20
-97.7738037109375
 30
0.0
 11
-24.8444557189941
 21
-97.7738037109375
 31
0.0
  0
LINE
  5
   707
  8
0
  6
DASHDOT
 62
   130
 10
-43.5944557189941
 20
-163.773803710938
 30
0.0
 11
-43.5944557189941
 21
-175.773803710937
 31
0.0
  0
LINE
  5
   708
  8
0
  6
DASHDOT
 62
   130
 10
-49.5944557189941
 20
-169.773803710938
 30
0.0
 11
-37.5944557189941
 21
-169.773803710938
 31
0.0
  0
LINE
  5
   709
  8
0
  6
DASHDOT
 62
   130
 10
-28.5944557189941
 20
-164.773803710938
 30
0.0
 11
-28.5944557189941
 21
-174.773803710938
 31
0.0
  0
LINE
  5
   70A
  8
0
  6
DASHDOT
 62
   130
 10
-33.5944557189941
 20
-169.773803710938
 30
0.0
 11
-23.5944557189941
 21
-169.773803710938
 31
0.0
  0
ARC
  5
   70B
  8
0
  6
CONTINUOUS
 62
   130
 10
-51.0944557189941
 20
-108.273803710938
 30
0.0
 40
6.5
 50
449.999999844103
 51
629.999999844103
  0
ARC
  5
   70C
  8
0
  6
CONTINUOUS
 62
   130
 10
-21.0944557189941
 20
-108.273803710938
 30
0.0
 40
6.5
 50
269.999999844103
 51
449.999999844103
  0
LINE
  5
   70D
  8
0
  6
CONTINUOUS
 62
   130
 10
-51.0944557189941
 20
-101.773803710938
 30
0.0
 11
-21.0944557189941
 21
-101.773803710938
 31
0.0
  0
LINE
  5
   70E
  8
0
  6
CONTINUOUS
 62
   130
 10
-51.0944557189941
 20
-114.773803710938
 30
0.0
 11
-21.0944557189941
 21
-114.773803710938
 31
0.0
  0
LINE
  5
   70F
  8
0
  6
DASHDOT
 62
   130
 10
-51.0944557189941
 20
-96.7738037109375
 30
0.0
 11
-51.0944557189941
 21
-119.773803710938
 31
0.0
  0
LINE
  5
   710
  8
0
  6
DASHDOT
 62
   130
 10
-60.0944557189941
 20
-108.273803710938
 30
0.0
 11
-37.0944557189941
 21
-108.273803710938
 31
0.0
  0
LINE
  5
   711
  8
0
  6
DASHDOT
 62
   130
 10
-21.0944557189942
 20
-96.7738037109375
 30
0.0
 11
-21.0944557189942
 21
-119.773803710938
 31
0.0
  0
LINE
  5
   712
  8
0
  6
DASHDOT
 62
   130
 10
-35.0944557189941
 20
-108.273803710938
 30
0.0
 11
-12.0944557189941
 21
-108.273803710938
 31
0.0
  0
ARC
  5
   713
  8
0
  6
CONTINUOUS
 62
   130
 10
-21.0944557189941
 20
-159.273803710938
 30
0.0
 40
6.5
 50
269.999999844103
 51
449.999999844103
  0
ARC
  5
   714
  8
0
  6
CONTINUOUS
 62
   130
 10
-51.0944557189941
 20
-159.273803710938
 30
0.0
 40
6.5
 50
449.999999844103
 51
629.999999844103
  0
LINE
  5
   715
  8
0
  6
CONTINUOUS
 62
   130
 10
-51.0944557189941
 20
-165.773803710938
 30
0.0
 11
-21.0944557189941
 21
-165.773803710938
 31
0.0
  0
LINE
  5
   716
  8
0
  6
CONTINUOUS
 62
   130
 10
-51.0944557189941
 20
-152.773803710938
 30
0.0
 11
-21.0944557189941
 21
-152.773803710938
 31
0.0
  0
LINE
  5
   717
  8
0
  6
DASHDOT
 62
   130
 10
-51.0944557189941
 20
-147.773803710938
 30
0.0
 11
-51.0944557189941
 21
-170.773803710938
 31
0.0
  0
LINE
  5
   718
  8
0
  6
DASHDOT
 62
   130
 10
-60.0944557189941
 20
-159.273803710938
 30
0.0
 11
-37.0944557189941
 21
-159.273803710938
 31
0.0
  0
LINE
  5
   719
  8
0
  6
DASHDOT
 62
   130
 10
-21.0944557189941
 20
-147.773803710938
 30
0.0
 11
-21.0944557189941
 21
-170.773803710938
 31
0.0
  0
LINE
  5
   71A
  8
0
  6
DASHDOT
 62
   130
 10
-35.0944557189941
 20
-159.273803710938
 30
0.0
 11
-12.0944557189941
 21
-159.273803710938
 31
0.0
  0
CIRCLE
  5
   71B
  8
0
  6
CONTINUOUS
 62
   130
 10
-51.0944557189941
 20
-125.023803710938
 30
0.0
 40
1.0
  0
CIRCLE
  5
   71C
  8
0
  6
CONTINUOUS
 62
   130
 10
-21.0944557189941
 20
-125.023803710938
 30
0.0
 40
1.0
  0
CIRCLE
  5
   71D
  8
0
  6
CONTINUOUS
 62
   130
 10
-51.0944557189941
 20
-142.523803710938
 30
0.0
 40
1.0
  0
CIRCLE
  5
   71E
  8
0
  6
CONTINUOUS
 62
   130
 10
-21.0944557189941
 20
-142.523803710938
 30
0.0
 40
1.0
  0
LINE
  5
   71F
  8
0
  6
DASHDOT
 62
   130
 10
-51.0944557189941
 20
-120.023803710938
 30
0.0
 11
-51.0944557189941
 21
-130.023803710938
 31
0.0
  0
LINE
  5
   720
  8
0
  6
DASHDOT
 62
   130
 10
-56.0944557189941
 20
-125.023803710938
 30
0.0
 11
-46.0944557189941
 21
-125.023803710938
 31
0.0
  0
LINE
  5
   721
  8
0
  6
DASHDOT
 62
   130
 10
-21.0944557189941
 20
-120.023803710938
 30
0.0
 11
-21.0944557189941
 21
-130.023803710938
 31
0.0
  0
LINE
  5
   722
  8
0
  6
DASHDOT
 62
   130
 10
-26.0944557189941
 20
-125.023803710938
 30
0.0
 11
-16.0944557189941
 21
-125.023803710938
 31
0.0
  0
LINE
  5
   723
  8
0
  6
DASHDOT
 62
   130
 10
-51.0944557189941
 20
-137.523803710938
 30
0.0
 11
-51.0944557189941
 21
-147.523803710938
 31
0.0
  0
LINE
  5
   724
  8
0
  6
DASHDOT
 62
   130
 10
-56.0944557189941
 20
-142.523803710938
 30
0.0
 11
-46.0944557189941
 21
-142.523803710938
 31
0.0
  0
LINE
  5
   725
  8
0
  6
DASHDOT
 62
   130
 10
-21.0944557189941
 20
-137.523803710938
 30
0.0
 11
-21.0944557189941
 21
-147.523803710938
 31
0.0
  0
LINE
  5
   726
  8
0
  6
DASHDOT
 62
   130
 10
-28.5944557189941
 20
-142.523803710938
 30
0.0
 11
-18.5944557189941
 21
-142.523803710938
 31
0.0
  0
LINE
  5
   727
  8
0
  6
CONTINUOUS
 62
   130
 10
-61.3734787451331
 20
-86.9208507636771
 30
0.0
 11
-61.3734787451331
 21
-183.074472409978
 31
0.0
  0
LINE
  5
   728
  8
0
  6
CONTINUOUS
 62
   130
 10
-11.2326828843509
 20
-86.9208507636771
 30
0.0
 11
-11.2326828843509
 21
-183.074472409978
 31
0.0
  0
LINE
  5
   729
  8
0
  6
DASHDOT
 62
   130
 10
-36.0944557189941
 20
-80.5603564364833
 30
0.0
 11
-36.0944557189941
 21
-188.345116099406
 31
0.0
  0
LINE
  5
   72A
  8
0
  6
CONTINUOUS
 62
   130
 10
-71.3068232654042
 20
-118.773803710938
 30
0.0
 11
-4.3323860851928
 21
-118.773803710938
 31
0.0
  0
LINE
  5
   72B
  8
0
  6
CONTINUOUS
 62
   130
 10
-71.3068232654042
 20
-148.773803710938
 30
0.0
 11
-4.3323860851928
 21
-148.773803710938
 31
0.0
  0
LINE
  5
   72C
  8
0
  6
CONTINUOUS
 62
   130
 10
-4.3323860851928
 20
-118.773803710938
 30
0.0
 11
-4.3323860851928
 21
-148.773803710938
 31
0.0
  0
LINE
  5
   72D
  8
0
  6
CONTINUOUS
 62
   130
 10
-71.3068232654042
 20
-118.773803710938
 30
0.0
 11
-71.3068232654042
 21
-148.773803710938
 31
0.0
  0
LINE
  5
   72E
  8
0
  6
DASHDOT
 62
   130
 10
-75.0727763745233
 20
-139.773803710938
 30
0.0
 11
-1.87349285020527
 21
-139.773803710938
 31
0.0
  0
INSERT
  5
   72F
  8
0
  6
CONTINUOUS
 62
     3
  2
*UDIM681
 10
0.0
 20
0.0
 30
0.0
  0
INSERT
  5
   730
  8
0
  6
CONTINUOUS
 62
     3
  2
*UDIM682
 10
0.0
 20
0.0
 30
0.0
  0
INSERT
  5
   731
  8
0
  6
CONTINUOUS
 62
     3
  2
*UDIM683
 10
0.0
 20
0.0
 30
0.0
  0
INSERT
  5
   732
  8
0
  6
CONTINUOUS
 62
     3
  2
*UDIM684
 10
0.0
 20
0.0
 30
0.0
  0
INSERT
  5
   733
  8
0
  6
CONTINUOUS
 62
     3
  2
*UDIM685
 10
0.0
 20
0.0
 30
0.0
  0
TEXT
  5
   734
  8
0
  6
CONTINUOUS
 62
     2
 10
0.758483149496098
 20
-141.298966925932
 30
0.0
 40
3.00000002980232
  1
X
 50
359.999999844103
 41
0.983333351877
 11
0.758483153569927
 21
-139.798966911031
 31
0.0
 73
     2
  0
TEXT
  5
   735
  8
0
  6
CONTINUOUS
 62
     2
 10
-90.5770044493399
 20
-141.298967022097
 30
0.0
 40
3.00000002980232
  1
X
 50
359.999999844103
 41
0.983333351877
 72
     2
 11
-88.3770043677801
 21
-139.798967013171
 31
0.0
 73
     2
  0
TEXT
  5
   736
  8
0
  6
CONTINUOUS
 62
     2
 10
-35.9975464682786
 20
-80.8642159108263
 30
0.0
 40
3.00000002980232
  1
Y
 50
359.999999844103
 41
0.983333351877
 72
     2
 11
-33.7975463867188
 21
-79.3642159019001
 31
0.0
 73
     2
  0
TEXT
  5
   737
  8
0
  6
CONTINUOUS
 62
     2
 10
-36.4597695212563
 20
-189.969427633677
 30
0.0
 40
3.00000002980232
  1
Y
 50
359.999999844103
 41
0.983333351877
 72
     2
 11
-34.2597694396964
 21
-188.469427624751
 31
0.0
 73
     2
  0
INSERT
  5
   738
  8
0
  6
CONTINUOUS
 62
     7
  2
*UDIM686
 10
0.0
 20
0.0
 30
0.0
  0
INSERT
  5
   739
  8
0
  6
CONTINUOUS
 62
     7
  2
*UDIM687
 10
0.0
 20
0.0
 30
0.0
  0
INSERT
  5
   73A
  8
0
  6
CONTINUOUS
 62
     3
  2
*UDIM688
 10
0.0
 20
0.0
 30
0.0
  0
INSERT
  5
   73B
  8
0
  6
CONTINUOUS
 62
     3
  2
*UDIM689
 10
0.0
 20
0.0
 30
0.0
  0
INSERT
  5
   73C
  8
0
  6
CONTINUOUS
 62
     3
  2
*UDIM690
 10
0.0
 20
0.0
 30
0.0
  0
INSERT
  5
   73D
  8
0
  6
CONTINUOUS
 62
     3
  2
*UDIM691
 10
0.0
 20
0.0
 30
0.0
  0
LINE
  5
   73E
  8
0
  6
DASHDOT
 62
   130
 10
198.46281177294
 20
0.436033248901367
 30
0.0
 11
276.841073407959
 21
0.436033248901367
 31
0.0
  0
LINE
  5
   73F
  8
0
  6
DASHDOT
 62
   130
 10
236.934310913086
 20
28.8286093977566
 30
0.0
 11
236.934310913086
 21
-27.4565312524288
 31
0.0
  0
POINT
  5
   740
  8
0
  6
CONTINUOUS
 62
   130
 10
208.284309774637
 20
19.6360340118408
 30
0.0
  0
POINT
  5
   741
  8
0
  6
CONTINUOUS
 62
   130
 10
265.584312051535
 20
19.6360340118408
 30
0.0
  0
POINT
  5
   742
  8
0
  6
CONTINUOUS
 62
   130
 10
208.284309774637
 20
-18.7639675140381
 30
0.0
  0
CIRCLE
  5
   743
  8
0
  6
CONTINUOUS
 62
   130
 10
265.584312051535
 20
19.6360340118408
 30
0.0
 40
1.20000004768372
  0
CIRCLE
  5
   744
  8
0
  6
CONTINUOUS
 62
   130
 10
208.284309774637
 20
19.6360340118408
 30
0.0
 40
1.20000004768372
  0
CIRCLE
  5
   745
  8
0
  6
CONTINUOUS
 62
   130
 10
208.284309774637
 20
-18.7639675140381
 30
0.0
 40
1.20000004768372
  0
CIRCLE
  5
   746
  8
0
  6
CONTINUOUS
 62
   130
 10
265.584312051535
 20
-18.7639675140381
 30
0.0
 40
1.20000004768372
  0
LINE
  5
   747
  8
0
  6
CONTINUOUS
 62
   130
 10
266.334312081337
 20
15.4360338449478
 30
0.0
 11
266.334312081337
 21
-14.5639673471451
 31
0.0
  0
LINE
  5
   748
  8
0
  6
CONTINUOUS
 62
   130
 10
207.534309744835
 20
15.4360338449478
 30
0.0
 11
207.534309744835
 21
-14.5639673471451
 31
0.0
  0
LINE
  5
   749
  8
0
  6
CONTINUOUS
 62
   130
 10
208.434309780598
 20
16.3360338807106
 30
0.0
 11
265.434312045574
 21
16.3360338807106
 31
0.0
  0
LINE
  5
   74A
  8
0
  6
CONTINUOUS
 62
   130
 10
208.434309780598
 20
-15.4639673829079
 30
0.0
 11
265.434312045574
 21
-15.4639673829079
 31
0.0
  0
ARC
  5
   74B
  8
0
  6
CONTINUOUS
 62
   130
 10
265.434312045574
 20
15.4360338449478
 30
0.0
 40
0.900000035762787
 50
359.999999844103
 51
449.999999844103
  0
ARC
  5
   74C
  8
0
  6
CONTINUOUS
 62
   130
 10
265.434312045574
 20
-14.5639673471451
 30
0.0
 40
0.900000035762787
 50
269.999999844103
 51
359.999999844103
  0
ARC
  5
   74D
  8
0
  6
CONTINUOUS
 62
   130
 10
208.434309780598
 20
-14.5639673471451
 30
0.0
 40
0.900000035762787
 50
539.999999844103
 51
629.999999844103
  0
ARC
  5
   74E
  8
0
  6
CONTINUOUS
 62
   130
 10
208.434309780598
 20
15.4360338449478
 30
0.0
 40
0.900000035762787
 50
449.999999844103
 51
539.999999844103
  0
LINE
  5
   74F
  8
0
  6
CONTINUOUS
 62
   130
 10
204.774400452047
 20
24.4120928765789
 30
0.0
 11
270.52220274626
 21
24.4120928765789
 31
0.0
  0
LINE
  5
   750
  8
0
  6
CONTINUOUS
 62
   130
 10
204.774400452047
 20
-22.4286419675359
 30
0.0
 11
270.52220274626
 21
-22.4286419675359
 31
0.0
  0
LINE
  5
   751
  8
0
  6
CONTINUOUS
 62
   130
 10
204.774400452047
 20
24.4120928765789
 30
0.0
 11
204.774400452047
 21
-22.4286419675359
 31
0.0
  0
LINE
  5
   752
  8
0
  6
CONTINUOUS
 62
   130
 10
270.52220274626
 20
24.4120928765789
 30
0.0
 11
270.52220274626
 21
-22.4286419675359
 31
0.0
  0
TEXT
  5
   753
  8
0
  6
CONTINUOUS
 62
     2
 10
277.339364521235
 20
-1.04467296815399
 30
0.0
 40
2.99999994039535
  1
X
 50
359.999999844103
 41
0.983333333333333
 11
277.339364525309
 21
0.455327002043681
 31
0.0
 73
     2
  0
TEXT
  5
   754
  8
0
  6
CONTINUOUS
 62
     2
 10
195.999010632803
 20
-1.04467306431905
 30
0.0
 40
2.99999994039535
  1
X
 50
359.999999844103
 41
0.983333333333333
 72
     2
 11
198.199010593167
 21
0.455326899903677
 31
0.0
 73
     2
  0
TEXT
  5
   755
  8
0
  6
CONTINUOUS
 62
     2
 10
235.848472861068
 20
-29.5110158077568
 30
0.0
 40
2.99999994039535
  1
Y
 50
359.999999844103
 41
0.983333333333333
 72
     1
 11
236.94847284736
 21
-26.5110158703489
 31
0.0
 73
     3
  0
TEXT
  5
   756
  8
0
  6
CONTINUOUS
 62
     2
 10
235.848472729934
 20
29.0630993383208
 30
0.0
 40
2.99999994039535
  1
Y
 50
359.999999844103
 41
0.983333333333333
 72
     1
 11
236.948472708078
 21
29.0630993353333
 31
0.0
  0
INSERT
  5
   757
  8
0
  6
CONTINUOUS
 62
     3
  2
*UDIM692
 10
0.0
 20
0.0
 30
0.0
  0
INSERT
  5
   758
  8
0
  6
CONTINUOUS
 62
     3
  2
*UDIM693
 10
0.0
 20
0.0
 30
0.0
  0
INSERT
  5
   759
  8
0
  6
CONTINUOUS
 62
     3
  2
*UDIM694
 10
0.0
 20
0.0
 30
0.0
  0
LINE
  5
   75A
  8
0
  6
DASHDOT
 62
     2
 10
265.584312051535
 20
25.0360342264175
 30
0.0
 11
265.584312051535
 21
14.2360337972641
 31
0.0
  0
LINE
  5
   75B
  8
0
  6
DASHDOT
 62
     2
 10
260.184311836958
 20
19.6360340118408
 30
0.0
 11
270.984312266111
 21
19.6360340118408
 31
0.0
  0
LINE
  5
   75C
  8
0
  6
DASHDOT
 62
     2
 10
208.284309774637
 20
25.0360342264175
 30
0.0
 11
208.284309774637
 21
14.2360337972641
 31
0.0
  0
LINE
  5
   75D
  8
0
  6
DASHDOT
 62
     2
 10
202.884309560061
 20
19.6360340118408
 30
0.0
 11
213.684309989214
 21
19.6360340118408
 31
0.0
  0
LINE
  5
   75E
  8
0
  6
DASHDOT
 62
     2
 10
208.284309774637
 20
-14.5639673471451
 30
0.0
 11
208.284309774637
 21
-22.9639676809311
 31
0.0
  0
LINE
  5
   75F
  8
0
  6
DASHDOT
 62
     2
 10
204.084309607744
 20
-18.7639675140381
 30
0.0
 11
212.48430994153
 21
-18.7639675140381
 31
0.0
  0
LINE
  5
   760
  8
0
  6
DASHDOT
 62
     2
 10
265.584312051535
 20
-13.3639672994614
 30
0.0
 11
265.584312051535
 21
-24.1639677286148
 31
0.0
  0
LINE
  5
   761
  8
0
  6
DASHDOT
 62
     2
 10
260.184311836958
 20
-18.7639675140381
 30
0.0
 11
270.984312266111
 21
-18.7639675140381
 31
0.0
  0
INSERT
  5
   762
  8
0
  6
CONTINUOUS
 62
     3
  2
*UDIM695
 10
0.0
 20
0.0
 30
0.0
  0
INSERT
  5
   763
  8
0
  6
CONTINUOUS
 62
     3
  2
*UDIM696
 10
0.0
 20
0.0
 30
0.0
  0
INSERT
  5
   764
  8
0
  6
CONTINUOUS
 62
     3
  2
*UDIM697
 10
0.0
 20
0.0
 30
0.0
  0
ENDSEC
  0
EOF
