  0
SECTION
  2
HEADER
  9
$ACADVER
  1
AC1009
  9
$DWGCODEPAGE
  3
iso8859-1
  9
$INSBASE
 10
0.0
 20
0.0
 30
0.0
  9
$EXTMIN
 10
1.0E20
 20
1.0E20
  9
$EXTMAX
 10
-1.0E20
 20
-1.0E20
  9
$LIMMIN
 10
0.0
 20
0.0
  9
$LIMMAX
 10
12.0
 20
9.0
  9
$ORTHOMODE
 70
     0
  9
$REGENMODE
 70
     1
  9
$FILLMODE
 70
     1
  9
$QTEXTMODE
 70
     0
  9
$MIRRTEXT
 70
     1
  9
$DRAGMODE
 70
     2
  9
$LTSCALE
 40
15.0
  9
$OSMODE
 70
     0
  9
$ATTMODE
 70
     1
  9
$TEXTSIZE
 40
0.2
  9
$TRACEWID
 40
0.05
  9
$TEXTSTYLE
  7
STANDARD
  9
$CLAYER
  8
0
  9
$CELTYPE
  6
DASHED
  9
$CECOLOR
 62
   256
  9
$DIMSCALE
 40
1.0
  9
$DIMASZ
 40
0.18
  9
$DIMEXO
 40
0.0625
  9
$DIMDLI
 40
0.38
  9
$DIMRND
 40
0.0
  9
$DIMDLE
 40
0.0
  9
$DIMEXE
 40
0.18
  9
$DIMTP
 40
0.0
  9
$DIMTM
 40
0.0
  9
$DIMTXT
 40
0.18
  9
$DIMCEN
 40
0.09
  9
$DIMTSZ
 40
0.0
  9
$DIMTOL
 70
     0
  9
$DIMLIM
 70
     0
  9
$DIMTIH
 70
     1
  9
$DIMTOH
 70
     1
  9
$DIMSE1
 70
     0
  9
$DIMSE2
 70
     0
  9
$DIMTAD
 70
     0
  9
$DIMZIN
 70
     0
  9
$DIMBLK
  1

  9
$DIMASO
 70
     1
  9
$DIMSHO
 70
     1
  9
$DIMPOST
  1

  9
$DIMAPOST
  1

  9
$DIMALT
 70
     0
  9
$DIMALTD
 70
     2
  9
$DIMALTF
 40
25.4
  9
$DIMLFAC
 40
1.0
  9
$DIMTOFL
 70
     0
  9
$DIMTVP
 40
0.0
  9
$DIMTIX
 70
     0
  9
$DIMSOXD
 70
     0
  9
$DIMSAH
 70
     0
  9
$DIMBLK1
  1

  9
$DIMBLK2
  1

  9
$DIMSTYLE
  2
STANDARD
  9
$DIMCLRD
 70
     0
  9
$DIMCLRE
 70
     0
  9
$DIMCLRT
 70
     0
  9
$DIMTFAC
 40
1.0
  9
$DIMGAP
 40
0.09
  9
$LUNITS
 70
     2
  9
$LUPREC
 70
     4
  9
$AXISMODE
 70
     0
  9
$AXISUNIT
 10
0.0
 20
0.0
  9
$SKETCHINC
 40
0.1
  9
$FILLETRAD
 40
0.0
  9
$AUNITS
 70
     0
  9
$AUPREC
 70
     0
  9
$MENU
  1
acad
  9
$ELEVATION
 40
0.0
  9
$PELEVATION
 40
0.0
  9
$THICKNESS
 40
0.0
  9
$LIMCHECK
 70
     0
  9
$BLIPMODE
 70
     1
  9
$CHAMFERA
 40
0.0
  9
$CHAMFERB
 40
0.0
  9
$SKPOLY
 70
     0
  9
$TDCREATE
 40
0.000000000
  9
$TDUPDATE
 40
0.000000000
  9
$TDINDWG
 40
0.0
  9
$TDUSRTIMER
 40
0.0
  9
$USRTIMER
 70
     1
  9
$ANGBASE
 50
0.0
  9
$ANGDIR
 70
     0
  9
$PDMODE
 70
     0
  9
$PDSIZE
 40
0.0
  9
$PLINEWID
 40
0.0
  9
$COORDS
 70
     1
  9
$SPLFRAME
 70
     0
  9
$SPLINETYPE
 70
     6
  9
$SPLINESEGS
 70
     8
  9
$ATTDIA
 70
     0
  9
$ATTREQ
 70
     1
  9
$HANDLING
 70
     1
  9
$HANDSEED
  5
   8E9
  9
$SURFTAB1
 70
     6
  9
$SURFTAB2
 70
     6
  9
$SURFTYPE
 70
     6
  9
$SURFU
 70
     6
  9
$SURFV
 70
     6
  9
$UCSNAME
  2

  9
$UCSORG
 10
0.0
 20
0.0
 30
0.0
  9
$UCSXDIR
 10
1.0
 20
0.0
 30
0.0
  9
$UCSYDIR
 10
0.0
 20
1.0
 30
0.0
  9
$PUCSNAME
  2

  9
$PUCSORG
 10
0.0
 20
0.0
 30
0.0
  9
$PUCSXDIR
 10
1.0
 20
0.0
 30
0.0
  9
$PUCSYDIR
 10
0.0
 20
1.0
 30
0.0
  9
$USERI1
 70
     0
  9
$USERI2
 70
     0
  9
$USERI3
 70
     0
  9
$USERI4
 70
     0
  9
$USERI5
 70
     0
  9
$USERR1
 40
0.0
  9
$USERR2
 40
0.0
  9
$USERR3
 40
0.0
  9
$USERR4
 40
0.0
  9
$USERR5
 40
0.0
  9
$WORLDVIEW
 70
     1
  9
$SHADEDGE
 70
     3
  9
$SHADEDIF
 70
    70
  9
$TILEMODE
 70
     1
  9
$MAXACTVP
 70
    16
  9
$PINSBASE
 10
0.0
 20
0.0
 30
0.0
  9
$PLIMCHECK
 70
     0
  9
$PEXTMIN
 10
1.0E20
 20
1.0E20
 30
1.0E20
  9
$PEXTMAX
 10
-1.0E20
 20
-1.0E20
 30
-1.0E20
  9
$PLIMMIN
 10
0.0
 20
0.0
  9
$PLIMMAX
 10
12.0
 20
9.0
  9
$UNITMODE
 70
     0
  9
$VISRETAIN
 70
     0
  0
ENDSEC
  0
SECTION
  2
TABLES
  0
TABLE
  2
VPORT
 70
     1
  0
VPORT
  2
*ACTIVE
 70
     0
 10
0.0
 20
0.0
 11
1.0
 21
1.0
 12
6.801242
 22
4.5
 13
0.0
 23
0.0
 14
1.0
 24
1.0
 15
0.0
 25
0.0
 16
0.0
 26
0.0
 36
1.0
 17
0.0
 27
0.0
 37
0.0
 40
9.0
 41
1.511387
 42
50.0
 43
0.0
 44
0.0
 50
0.0
 51
0.0
 71
     0
 72
   100
 73
     1
 74
     1
 75
     0
 76
     0
 77
     0
 78
     0
  0
ENDTAB
  0
TABLE
  2
LTYPE
 70
    41
  0
LTYPE
  2
BYBLOCK
 70
     0
  3

 72
    65
 73
     0
 40
0.0
  0
LTYPE
  2
BYLAYER
 70
     0
  3

 72
    65
 73
     0
 40
0.0
  0
LTYPE
  2
CONTINUOUS
 70
     0
  3
Solid line
 72
    65
 73
     0
 40
0.0
  0
LTYPE
  2
BORDER
 70
    64
  3
__ __ . __ __ . __ __ . __ __ . __ __ . __ __ .
 72
    65
 73
     6
 40
1.75
 49
0.5
 49
-0.25
 49
0.5
 49
-0.25
 49
0.0
 49
-0.25
  0
LTYPE
  2
BORDER2
 70
    64
  3
__.__.__.__.__.__.__.__.__.__.__.__.__.__.__.__
 72
    65
 73
     6
 40
0.875
 49
0.25
 49
-0.125
 49
0.25
 49
-0.125
 49
0.0
 49
-0.125
  0
LTYPE
  2
BORDERX2
 70
    64
  3
____  ____  .  ____  ____  .  ____  ____  .  __
 72
    65
 73
     6
 40
3.5
 49
1.0
 49
-0.5
 49
1.0
 49
-0.5
 49
0.0
 49
-0.5
  0
LTYPE
  2
CENTER
 70
    64
  3
____ _ ____ _ ____ _ ____ _ ____ _ ____ _ ____
 72
    65
 73
     4
 40
2.0
 49
1.25
 49
-0.25
 49
0.25
 49
-0.25
  0
LTYPE
  2
CENTER2
 70
    64
  3
___ _ ___ _ ___ _ ___ _ ___ _ ___ _ ___ _ ___ _
 72
    65
 73
     4
 40
1.125
 49
0.75
 49
-0.125
 49
0.125
 49
-0.125
  0
LTYPE
  2
CENTERX2
 70
    64
  3
________  __  ________  __  ________  __  _____
 72
    65
 73
     4
 40
4.0
 49
2.5
 49
-0.5
 49
0.5
 49
-0.5
  0
LTYPE
  2
DASHDOT
 70
    64
  3
__ . __ . __ . __ . __ . __ . __ . __ . __ . __
 72
    65
 73
     4
 40
1.0
 49
0.5
 49
-0.25
 49
0.0
 49
-0.25
  0
LTYPE
  2
DASHDOT2
 70
    64
  3
_._._._._._._._._._._._._._._._._._._._._._._._
 72
    65
 73
     4
 40
0.5
 49
0.25
 49
-0.125
 49
0.0
 49
-0.125
  0
LTYPE
  2
DASHDOTX2
 70
    64
  3
____  .  ____  .  ____  .  ____  .  ____  .  __
 72
    65
 73
     4
 40
2.0
 49
1.0
 49
-0.5
 49
0.0
 49
-0.5
  0
LTYPE
  2
DASHED
 70
    64
  3
__ __ __ __ __ __ __ __ __ __ __ __ __ __ __ __
 72
    65
 73
     2
 40
0.75
 49
0.5
 49
-0.25
  0
LTYPE
  2
DASHED2
 70
    64
  3
_ _ _ _ _ _ _ _ _ _ _ _ _ _ _ _ _ _ _ _ _ _ _ _
 72
    65
 73
     2
 40
0.375
 49
0.25
 49
-0.125
  0
LTYPE
  2
DASHEDX2
 70
    64
  3
____  ____  ____  ____  ____  ____  ____  ____
 72
    65
 73
     2
 40
1.5
 49
1.0
 49
-0.5
  0
LTYPE
  2
DIVIDE
 70
    64
  3
____ . . ____ . . ____ . . ____ . . ____ . . __
 72
    65
 73
     6
 40
1.25
 49
0.5
 49
-0.25
 49
0.0
 49
-0.25
 49
0.0
 49
-0.25
  0
LTYPE
  2
DIVIDE2
 70
    64
  3
__..__..__..__..__..__..__..__..__..__..__..__.
 72
    65
 73
     6
 40
0.625
 49
0.25
 49
-0.125
 49
0.0
 49
-0.125
 49
0.0
 49
-0.125
  0
LTYPE
  2
DIVIDEX2
 70
    64
  3
________  .  .  ________  .  .  ________  .  .
 72
    65
 73
     6
 40
2.5
 49
1.0
 49
-0.5
 49
0.0
 49
-0.5
 49
0.0
 49
-0.5
  0
LTYPE
  2
DOT
 70
    64
  3
. . . . . . . . . . . . . . . . . . . . . . . .
 72
    65
 73
     2
 40
0.25
 49
0.0
 49
-0.25
  0
LTYPE
  2
DOT2
 70
    64
  3
...............................................
 72
    65
 73
     2
 40
0.125
 49
0.0
 49
-0.125
  0
LTYPE
  2
DOTX2
 70
    64
  3
.  .  .  .  .  .  .  .  .  .  .  .  .  .  .  .
 72
    65
 73
     2
 40
0.5
 49
0.0
 49
-0.5
  0
LTYPE
  2
HIDDEN
 70
    64
  3
__ __ __ __ __ __ __ __ __ __ __ __ __ __ __ __
 72
    65
 73
     2
 40
0.375
 49
0.25
 49
-0.125
  0
LTYPE
  2
HIDDEN2
 70
    64
  3
_ _ _ _ _ _ _ _ _ _ _ _ _ _ _ _ _ _ _ _ _ _ _ _
 72
    65
 73
     2
 40
0.1875
 49
0.125
 49
-0.0625
  0
LTYPE
  2
HIDDENX2
 70
    64
  3
____ ____ ____ ____ ____ ____ ____ ____ ____ __
 72
    65
 73
     2
 40
0.75
 49
0.5
 49
-0.25
  0
LTYPE
  2
PHANTOM
 70
    64
  3
______  __  __  ______  __  __  ______  __  __
 72
    65
 73
     6
 40
2.5
 49
1.25
 49
-0.25
 49
0.25
 49
-0.25
 49
0.25
 49
-0.25
  0
LTYPE
  2
PHANTOM2
 70
    64
  3
___ _ _ ___ _ _ ___ _ _ ___ _ _ ___ _ _ ___ _ _
 72
    65
 73
     6
 40
1.25
 49
0.625
 49
-0.125
 49
0.125
 49
-0.125
 49
0.125
 49
-0.125
  0
LTYPE
  2
PHANTOMX2
 70
    64
  3
____________    ____    ____    ____________
 72
    65
 73
     6
 40
5.0
 49
2.5
 49
-0.5
 49
0.5
 49
-0.5
 49
0.5
 49
-0.5
  0
LTYPE
  2
ACAD_ISO02W100
 70
    64
  3
__ __ __ __ __ __ __ __ __ __ __ __ __ __ __ __
 72
    65
 73
     2
 40
15.0
 49
12.0
 49
-3.0
  0
LTYPE
  2
ACAD_ISO03W100
 70
    64
  3
__    __    __    __    __    __    __    __
 72
    65
 73
     2
 40
30.0
 49
12.0
 49
-18.0
  0
LTYPE
  2
ACAD_ISO04W100
 70
    64
  3
____ . ____ . ____ . ____ . ____ . ____ . ____
 72
    65
 73
     4
 40
30.5
 49
24.0
 49
-3.0
 49
0.5
 49
-3.0
  0
LTYPE
  2
ACAD_ISO05W100
 70
    64
  3
____ .. ____ .. ____ .. ____ .. ____ .. ____ ..
 72
    65
 73
     6
 40
34.0
 49
24.0
 49
-3.0
 49
0.5
 49
-3.0
 49
0.5
 49
-3.0
  0
LTYPE
  2
ACAD_ISO06W100
 70
    64
  3
____ ... ____ ... ____ ... ____ ... ____ ... __
 72
    65
 73
     8
 40
37.5
 49
24.0
 49
-3.0
 49
0.5
 49
-3.0
 49
0.5
 49
-3.0
 49
0.5
 49
-3.0
  0
LTYPE
  2
ACAD_ISO07W100
 70
    64
  3
. . . . . . . . . . . . . . . . . . . . . . . .
 72
    65
 73
     2
 40
3.5
 49
0.5
 49
-3.0
  0
LTYPE
  2
ACAD_ISO08W100
 70
    64
  3
____ __ ____ __ ____ __ ____ ____ __ __ ____ __
 72
    65
 73
     4
 40
36.0
 49
24.0
 49
-3.0
 49
6.0
 49
-3.0
  0
LTYPE
  2
ACAD_ISO09W100
 70
    64
  3
____ __ __ ____ __ __ ____ __ __ ____ __ __ ___
 72
    65
 73
     6
 40
45.0
 49
24.0
 49
-3.0
 49
6.0
 49
-3.0
 49
6.0
 49
-3.0
  0
LTYPE
  2
ACAD_ISO10W100
 70
    64
  3
__ . __ . __ . __ . __ . __ . __ . __ . __ . __
 72
    65
 73
     4
 40
18.5
 49
12.0
 49
-3.0
 49
0.5
 49
-3.0
  0
LTYPE
  2
ACAD_ISO11W100
 70
    64
  3
__ __ . __ __ . __ __ . __ __ . __ __ . __ __ .
 72
    65
 73
     6
 40
33.5
 49
12.0
 49
-3.0
 49
12.0
 49
-3.0
 49
0.5
 49
-3.0
  0
LTYPE
  2
ACAD_ISO12W100
 70
    64
  3
__ . . __ . . __ . . __ . . __ . . __ . . __ .
 72
    65
 73
     6
 40
22.0
 49
12.0
 49
-3.0
 49
0.5
 49
-3.0
 49
0.5
 49
-3.0
  0
LTYPE
  2
ACAD_ISO13W100
 70
    64
  3
__ __ . . __ __ . . __ __ . . __ __ . . __ __ .
 72
    65
 73
     8
 40
37.0
 49
12.0
 49
-3.0
 49
12.0
 49
-3.0
 49
0.5
 49
-3.0
 49
0.5
 49
-3.0
  0
LTYPE
  2
ACAD_ISO14W100
 70
    64
  3
__ . . . __ . . . __ . . . __ . . . __ . . . __
 72
    65
 73
     8
 40
25.5
 49
12.0
 49
-3.0
 49
0.5
 49
-3.0
 49
0.5
 49
-3.0
 49
0.5
 49
-3.0
  0
LTYPE
  2
ACAD_ISO15W100
 70
    64
  3
__ __ . . . __ __ . . . __ __ . . . __ __ . . .
 72
    65
 73
    10
 40
40.5
 49
12.0
 49
-3.0
 49
12.0
 49
-3.0
 49
0.5
 49
-3.0
 49
0.5
 49
-3.0
 49
0.5
 49
-3.0
  0
ENDTAB
  0
TABLE
  2
STYLE
 70
     4
  0
STYLE
  2
STANDARD
 70
    64
 40
0.0
 41
1.0
 50
0.0
 71
     0
 42
0.2
  3
txt
  4

  0
STYLE
  2
TOLERANCE
 70
    64
 40
0.0
 41
1.0
 50
0.0
 71
     0
 42
0.2
  3
../igesfont/iges1003.shx
  4

  0
STYLE
  2
ROMANS
 70
    64
 40
0.0
 41
1.0
 50
0.0
 71
     0
 42
0.2
  3
romans.shx
  4

  0
STYLE
  2
ROMANC
 70
    64
 40
0.0
 41
1.0
 50
0.0
 71
     0
 42
0.2
  3
romanc.shx
  4

  0
ENDTAB
  0
TABLE
  2
DIMSTYLE
 70
     2
  0
DIMSTYLE
  2
UNNAMED
 70
     0
  3

  4

  5

  6

  7

 40
1.0
 41
0.18
 42
0.0625
 43
0.38
 44
0.18
 45
0.0
 46
0.0
 47
0.0
 48
0.0
140
0.18
141
0.09
142
0.0
143
25.4
144
1.0
145
0.0
146
1.0
147
0.09
 71
     0
 72
     0
 73
     1
 74
     1
 75
     0
 76
     0
 77
     0
 78
     0
170
     0
171
     2
172
     0
173
     0
174
     0
175
     0
176
     0
177
     0
178
     0
  0
DIMSTYLE
  2
STANDARD
 70
     0
  3

  4

  5

  6

  7

 40
1.0
 41
0.18
 42
0.0625
 43
0.38
 44
0.18
 45
0.0
 46
0.0
 47
0.0
 48
0.0
140
0.18
141
0.09
142
0.0
143
25.4
144
1.0
145
0.0
146
1.0
147
0.09
 71
     0
 72
     0
 73
     1
 74
     1
 75
     0
 76
     0
 77
     0
 78
     0
170
     0
171
     2
172
     0
173
     0
174
     0
175
     0
176
     0
177
     0
178
     0
  0
ENDTAB
  0
TABLE
  2
LAYER
 70
     2
  0
LAYER
  2
0
 70
     0
 62
     7
  6
CONTINUOUS
  0
LAYER
  2
255
 70
     0
 62
     7
  6
CONTINUOUS
  0
ENDTAB
  0
ENDSEC
  0
SECTION
  2
BLOCKS
  0
BLOCK
  5
     B
  8
0
  6
CONTINUOUS
 62
     7
  2
*UDIM375
 70
    65
 10
0.0
 20
0.0
 30
0.0
  3
*UDIM375
  0
TEXT
  5
     C
  8
0
  6
CONTINUOUS
 62
     7
 10
61.226325544517
 20
-94.3505607335515
 30
0.0
 40
3.00000002980232
  1
7
 50
402.143140429773
 41
0.933333333333334
 72
     1
 11
61.0354658233281
 21
-92.5002708547563
 31
0.0
 73
     2
  0
TEXT
  5
     D
  8
0
  6
CONTINUOUS
 62
     7
 10
58.8906924032638
 20
-96.4641637928001
 30
0.0
 40
3.00000002980232
  1
Ø
 50
402.143140429773
 41
0.933333333333334
 72
     1
 11
58.6998326820749
 21
-94.6138739140049
 31
0.0
 73
     2
  0
LINE
  5
     E
  8
0
  6
CONTINUOUS
 62
     7
 10
75.3427490788033
 20
-82.9247441200508
 30
0.0
 11
59.561677504346
 21
-97.2056346284365
 31
0.0
  0
LINE
  5
     F
  8
0
  6
CONTINUOUS
 62
     7
 10
77.1838218281368
 20
-80.5561050315315
 30
0.0
 11
75.3427490788033
 21
-82.9247441200508
 31
0.0
  0
LINE
  5
    10
  8
0
  6
CONTINUOUS
 62
     7
 10
75.3427490788033
 20
-82.9247441200508
 30
0.0
 11
77.8829137248809
 21
-81.3286352356643
 31
0.0
  0
LINE
  5
    11
  8
0
  6
CONTINUOUS
 62
     7
 10
72.2041023661991
 20
-86.4676071266716
 30
0.0
 11
74.0451751155326
 21
-84.0989680381523
 31
0.0
  0
LINE
  5
    12
  8
0
  6
CONTINUOUS
 62
     7
 10
74.0451751155326
 20
-84.0989680381523
 30
0.0
 11
71.5050104694551
 21
-85.6950769225388
 31
0.0
  0
ENDBLK
  5
    13
  8
0
  6
CONTINUOUS
 62
     7
  0
BLOCK
  5
    14
  8
0
  6
CONTINUOUS
 62
     7
  2
*UDIM376
 70
    65
 10
0.0
 20
0.0
 30
0.0
  3
*UDIM376
  0
TEXT
  5
    15
  8
0
  6
CONTINUOUS
 62
     7
 10
43.7718505753504
 20
-69.936856127877
 30
0.0
 40
3.00000002980232
  1
142
 50
449.999999844103
 41
0.933333333333333
 72
     1
 11
42.2718505710363
 21
-66.036856085062
 31
0.0
 73
     2
  0
LINE
  5
    16
  8
0
  6
CONTINUOUS
 62
     7
 10
72.068962097168
 20
-48.0118560791016
 30
0.0
 11
42.7718505859375
 21
-48.0118560791016
 31
0.0
  0
LINE
  5
    17
  8
0
  6
CONTINUOUS
 62
     7
 10
72.068962097168
 20
-83.5118560791016
 30
0.0
 11
42.7718505859375
 21
-83.5118560791016
 31
0.0
  0
LINE
  5
    18
  8
0
  6
CONTINUOUS
 62
     7
 10
44.7718505859375
 20
-48.0118560791016
 30
0.0
 11
44.7718505859375
 21
-83.5118560791016
 31
0.0
  0
LINE
  5
    19
  8
0
  6
CONTINUOUS
 62
     7
 10
45.2927950158892
 20
-50.9662793563085
 30
0.0
 11
44.7718505859375
 21
-48.0118560791016
 31
0.0
  0
LINE
  5
    1A
  8
0
  6
CONTINUOUS
 62
     7
 10
44.7718505859375
 20
-48.0118560791016
 30
0.0
 11
44.2509061559858
 21
-50.9662793563085
 31
0.0
  0
LINE
  5
    1B
  8
0
  6
CONTINUOUS
 62
     7
 10
44.2509061559858
 20
-80.5574328018946
 30
0.0
 11
44.7718505859375
 21
-83.5118560791016
 31
0.0
  0
LINE
  5
    1C
  8
0
  6
CONTINUOUS
 62
     7
 10
44.7718505859375
 20
-83.5118560791016
 30
0.0
 11
45.2927950158892
 21
-80.5574328018946
 31
0.0
  0
ENDBLK
  5
    1D
  8
0
  6
CONTINUOUS
 62
     7
  0
BLOCK
  5
    1E
  8
0
  6
CONTINUOUS
 62
     7
  2
*UDIM377
 70
    65
 10
0.0
 20
0.0
 30
0.0
  3
*UDIM377
  0
TEXT
  5
    1F
  8
0
  6
CONTINUOUS
 62
     7
 10
53.462345112704
 20
-69.936856127877
 30
0.0
 40
3.00000002980232
  1
112
 50
449.999999844103
 41
0.933333333333333
 72
     1
 11
51.9623451083899
 21
-66.036856085062
 31
0.0
 73
     2
  0
LINE
  5
    20
  8
0
  6
CONTINUOUS
 62
     7
 10
69.693962097168
 20
-51.7618560791016
 30
0.0
 11
52.462345123291
 21
-51.7618560791016
 31
0.0
  0
LINE
  5
    21
  8
0
  6
CONTINUOUS
 62
     7
 10
69.693962097168
 20
-79.7618560791016
 30
0.0
 11
52.462345123291
 21
-79.7618560791016
 31
0.0
  0
LINE
  5
    22
  8
0
  6
CONTINUOUS
 62
     7
 10
54.462345123291
 20
-51.7618560791016
 30
0.0
 11
54.462345123291
 21
-79.7618560791016
 31
0.0
  0
LINE
  5
    23
  8
0
  6
CONTINUOUS
 62
     7
 10
54.9832895532427
 20
-54.7162793563085
 30
0.0
 11
54.462345123291
 21
-51.7618560791016
 31
0.0
  0
LINE
  5
    24
  8
0
  6
CONTINUOUS
 62
     7
 10
54.462345123291
 20
-51.7618560791016
 30
0.0
 11
53.9414006933394
 21
-54.7162793563085
 31
0.0
  0
LINE
  5
    25
  8
0
  6
CONTINUOUS
 62
     7
 10
53.9414006933394
 20
-76.8074328018946
 30
0.0
 11
54.462345123291
 21
-79.7618560791016
 31
0.0
  0
LINE
  5
    26
  8
0
  6
CONTINUOUS
 62
     7
 10
54.462345123291
 20
-79.7618560791016
 30
0.0
 11
54.9832895532427
 21
-76.8074328018946
 31
0.0
  0
ENDBLK
  5
    27
  8
0
  6
CONTINUOUS
 62
     7
  0
BLOCK
  5
    28
  8
0
  6
CONTINUOUS
 62
     7
  2
*UDIM378
 70
    65
 10
0.0
 20
0.0
 30
0.0
  3
*UDIM378
  0
TEXT
  5
    29
  8
0
  6
CONTINUOUS
 62
     7
 10
80.5189620483907
 20
-26.4059486283241
 30
0.0
 40
3.00000002980232
  1
112
 50
359.999999844103
 41
0.933333333333333
 72
     1
 11
84.4189620912075
 21
-24.9059486240149
 31
0.0
 73
     2
  0
LINE
  5
    2A
  8
0
  6
CONTINUOUS
 62
     7
 10
70.693962097168
 20
-50.7618560791016
 30
0.0
 11
70.693962097168
 21
-25.405948638916
 31
0.0
  0
LINE
  5
    2B
  8
0
  6
CONTINUOUS
 62
     7
 10
98.693962097168
 20
-50.7618560791016
 30
0.0
 11
98.693962097168
 21
-25.405948638916
 31
0.0
  0
LINE
  5
    2C
  8
0
  6
CONTINUOUS
 62
     7
 10
70.693962097168
 20
-27.405948638916
 30
0.0
 11
98.693962097168
 21
-27.405948638916
 31
0.0
  0
LINE
  5
    2D
  8
0
  6
CONTINUOUS
 62
     7
 10
73.6483853743749
 20
-26.8850042089644
 30
0.0
 11
70.693962097168
 21
-27.405948638916
 31
0.0
  0
LINE
  5
    2E
  8
0
  6
CONTINUOUS
 62
     7
 10
70.693962097168
 20
-27.405948638916
 30
0.0
 11
73.6483853743749
 21
-27.9268930688677
 31
0.0
  0
LINE
  5
    2F
  8
0
  6
CONTINUOUS
 62
     7
 10
95.739538819961
 20
-27.9268930688677
 30
0.0
 11
98.693962097168
 21
-27.405948638916
 31
0.0
  0
LINE
  5
    30
  8
0
  6
CONTINUOUS
 62
     7
 10
98.693962097168
 20
-27.405948638916
 30
0.0
 11
95.739538819961
 21
-26.8850042089644
 31
0.0
  0
ENDBLK
  5
    31
  8
0
  6
CONTINUOUS
 62
     7
  0
BLOCK
  5
    32
  8
0
  6
CONTINUOUS
 62
     7
  2
*UDIM379
 70
    65
 10
0.0
 20
0.0
 30
0.0
  3
*UDIM379
  0
TEXT
  5
    33
  8
0
  6
CONTINUOUS
 62
     7
 10
81.9189620622984
 20
-34.2538852623753
 30
0.0
 40
3.00000002980232
  1
80
 50
359.999999844103
 41
0.933333333333333
 72
     1
 11
84.4189620912075
 21
-32.7538852542639
 31
0.0
 73
     2
  0
LINE
  5
    34
  8
0
  6
CONTINUOUS
 62
     7
 10
74.693962097168
 20
-45.3868560791016
 30
0.0
 11
74.693962097168
 21
-33.253885269165
 31
0.0
  0
LINE
  5
    35
  8
0
  6
CONTINUOUS
 62
     7
 10
94.693962097168
 20
-45.3868560791016
 30
0.0
 11
94.693962097168
 21
-33.253885269165
 31
0.0
  0
LINE
  5
    36
  8
0
  6
CONTINUOUS
 62
     7
 10
74.693962097168
 20
-35.253885269165
 30
0.0
 11
94.693962097168
 21
-35.253885269165
 31
0.0
  0
LINE
  5
    37
  8
0
  6
CONTINUOUS
 62
     7
 10
77.6483853743749
 20
-34.7329408392134
 30
0.0
 11
74.693962097168
 21
-35.253885269165
 31
0.0
  0
LINE
  5
    38
  8
0
  6
CONTINUOUS
 62
     7
 10
74.693962097168
 20
-35.253885269165
 30
0.0
 11
77.6483853743749
 21
-35.7748296991167
 31
0.0
  0
LINE
  5
    39
  8
0
  6
CONTINUOUS
 62
     7
 10
91.739538819961
 20
-35.7748296991167
 30
0.0
 11
94.693962097168
 21
-35.253885269165
 31
0.0
  0
LINE
  5
    3A
  8
0
  6
CONTINUOUS
 62
     7
 10
94.693962097168
 20
-35.253885269165
 30
0.0
 11
91.739538819961
 21
-34.7329408392134
 31
0.0
  0
ENDBLK
  5
    3B
  8
0
  6
CONTINUOUS
 62
     7
  0
BLOCK
  5
    3C
  8
0
  6
CONTINUOUS
 62
     7
  2
*HATCH77
 70
    65
 10
0.0
 20
0.0
 30
0.0
  3
*HATCH77
  0
LINE
  5
    3D
  8
0
  6
CONTINUOUS
 62
   210
 10
310.737091064453
 20
81.7070236206055
 30
0.0
 11
314.444152832031
 21
77.9999618530274
 31
0.0
  0
LINE
  5
    3E
  8
0
  6
CONTINUOUS
 62
   210
 10
313.686798095703
 20
82.9999618530274
 30
0.0
 11
316.737030029297
 21
79.9497146606445
 31
0.0
  0
ENDBLK
  5
    3F
  8
0
  6
CONTINUOUS
 62
     7
  0
BLOCK
  5
    40
  8
0
  6
CONTINUOUS
 62
     7
  2
*HATCH78
 70
    65
 10
0.0
 20
0.0
 30
0.0
  3
*HATCH78
  0
LINE
  5
    41
  8
0
  6
CONTINUOUS
 62
   210
 10
-10.7629547119141
 20
80.7665863037109
 30
0.0
 11
-7.99633836746216
 21
77.9999618530274
 31
0.0
  0
LINE
  5
    42
  8
0
  6
CONTINUOUS
 62
   210
 10
-8.75369358062744
 20
82.9999618530274
 30
0.0
 11
-4.76300573348999
 21
79.0092697143555
 31
0.0
  0
ENDBLK
  5
    43
  8
0
  6
CONTINUOUS
 62
     7
  0
BLOCK
  5
    44
  8
0
  6
CONTINUOUS
 62
     7
  2
*HATCH79
 70
    65
 10
0.0
 20
0.0
 30
0.0
  3
*HATCH79
  0
LINE
  5
    45
  8
0
  6
CONTINUOUS
 62
   210
 10
3.23699402809143
 20
81.6158676147461
 30
0.0
 11
6.8528938293457
 21
77.9999618530274
 31
0.0
  0
LINE
  5
    46
  8
0
  6
CONTINUOUS
 62
   210
 10
6.09554004669189
 20
82.9999618530274
 30
0.0
 11
11.095531463623
 21
77.9999618530274
 31
0.0
  0
LINE
  5
    47
  8
0
  6
CONTINUOUS
 62
   210
 10
10.3381776809692
 20
82.9999618530274
 30
0.0
 11
15.3381690979004
 21
77.9999618530274
 31
0.0
  0
LINE
  5
    48
  8
0
  6
CONTINUOUS
 62
   210
 10
14.5808153152466
 20
82.9999618530274
 30
0.0
 11
19.5808067321777
 21
77.9999618530274
 31
0.0
  0
LINE
  5
    49
  8
0
  6
CONTINUOUS
 62
   210
 10
18.8234539031982
 20
82.9999618530274
 30
0.0
 11
19.7282676696777
 21
82.0951461791992
 31
0.0
  0
ENDBLK
  5
    4A
  8
0
  6
CONTINUOUS
 62
     7
  0
BLOCK
  5
    4B
  8
0
  6
CONTINUOUS
 62
     7
  2
*HATCH80
 70
    65
 10
0.0
 20
0.0
 30
0.0
  3
*HATCH80
  0
LINE
  5
    4C
  8
0
  6
CONTINUOUS
 62
     3
 10
17.0864696502686
 20
102.999938964844
 30
0.0
 11
15.2370948791504
 21
101.150566101074
 31
0.0
  0
LINE
  5
    4D
  8
0
  6
CONTINUOUS
 62
     3
 10
18.1471290588379
 20
102.999938964844
 30
0.0
 11
14.2369937896729
 21
99.0898056030274
 31
0.0
  0
LINE
  5
    4E
  8
0
  6
CONTINUOUS
 62
     3
 10
18.2369937896729
 20
100.968482971191
 30
0.0
 11
14.2369937896729
 21
96.9684829711914
 31
0.0
  0
LINE
  5
    4F
  8
0
  6
CONTINUOUS
 62
     3
 10
18.2369937896729
 20
98.8471603393555
 30
0.0
 11
14.2369937896729
 21
94.8471603393555
 31
0.0
  0
LINE
  5
    50
  8
0
  6
CONTINUOUS
 62
     3
 10
18.2369937896729
 20
96.7258377075195
 30
0.0
 11
14.2369937896729
 21
92.7258377075195
 31
0.0
  0
LINE
  5
    51
  8
0
  6
CONTINUOUS
 62
     3
 10
18.2369937896729
 20
94.6045150756836
 30
0.0
 11
14.2369937896729
 21
90.6045150756836
 31
0.0
  0
LINE
  5
    52
  8
0
  6
CONTINUOUS
 62
     3
 10
18.2369937896729
 20
92.4831924438477
 30
0.0
 11
14.2369937896729
 21
88.4831924438477
 31
0.0
  0
LINE
  5
    53
  8
0
  6
CONTINUOUS
 62
     3
 10
18.2369937896729
 20
90.3618698120117
 30
0.0
 11
14.2369937896729
 21
86.3618698120117
 31
0.0
  0
LINE
  5
    54
  8
0
  6
CONTINUOUS
 62
     3
 10
18.2369937896729
 20
88.2405471801758
 30
0.0
 11
14.2369937896729
 21
84.2405471801758
 31
0.0
  0
LINE
  5
    55
  8
0
  6
CONTINUOUS
 62
     3
 10
18.2369937896729
 20
86.1192398071289
 30
0.0
 11
15.117714881897
 21
82.9999618530274
 31
0.0
  0
LINE
  5
    56
  8
0
  6
CONTINUOUS
 62
     3
 10
18.2369937896729
 20
83.997917175293
 30
0.0
 11
17.23903465271
 21
82.9999618530274
 31
0.0
  0
ENDBLK
  5
    57
  8
0
  6
CONTINUOUS
 62
     7
  0
BLOCK
  5
    58
  8
0
  6
CONTINUOUS
 62
     7
  2
*HATCH81
 70
    65
 10
0.0
 20
0.0
 30
0.0
  3
*HATCH81
  0
LINE
  5
    59
  8
0
  6
CONTINUOUS
 62
     3
 10
12.2390375137329
 20
77.9999618530274
 30
0.0
 11
10.2369937896729
 21
75.997917175293
 31
0.0
  0
LINE
  5
    5A
  8
0
  6
CONTINUOUS
 62
     3
 10
14.2369937896729
 20
77.8766021728516
 30
0.0
 11
10.2369937896729
 21
73.8766021728516
 31
0.0
  0
LINE
  5
    5B
  8
0
  6
CONTINUOUS
 62
     3
 10
14.2369937896729
 20
75.7552795410156
 30
0.0
 11
10.2369937896729
 21
71.7552795410156
 31
0.0
  0
LINE
  5
    5C
  8
0
  6
CONTINUOUS
 62
     3
 10
14.2369937896729
 20
73.6339569091797
 30
0.0
 11
10.2369937896729
 21
69.6339569091797
 31
0.0
  0
LINE
  5
    5D
  8
0
  6
CONTINUOUS
 62
     3
 10
14.2369937896729
 20
71.5126342773438
 30
0.0
 11
10.2369937896729
 21
67.5126342773438
 31
0.0
  0
LINE
  5
    5E
  8
0
  6
CONTINUOUS
 62
     3
 10
14.2369937896729
 20
69.3913116455078
 30
0.0
 11
10.2369937896729
 21
65.3913116455078
 31
0.0
  0
LINE
  5
    5F
  8
0
  6
CONTINUOUS
 62
     3
 10
14.2369937896729
 20
67.2699890136719
 30
0.0
 11
10.2369937896729
 21
63.2699890136719
 31
0.0
  0
LINE
  5
    60
  8
0
  6
CONTINUOUS
 62
     3
 10
14.2369937896729
 20
65.148681640625
 30
0.0
 11
10.8553380966187
 21
61.7670249938965
 31
0.0
  0
LINE
  5
    61
  8
0
  6
CONTINUOUS
 62
     3
 10
14.2369937896729
 20
63.0273590087891
 30
0.0
 11
13.7800302505493
 21
62.5703964233398
 31
0.0
  0
ENDBLK
  5
    62
  8
0
  6
CONTINUOUS
 62
     7
  0
BLOCK
  5
    63
  8
0
  6
CONTINUOUS
 62
     7
  2
*HATCH82
 70
    65
 10
0.0
 20
0.0
 30
0.0
  3
*HATCH82
  0
LINE
  5
    64
  8
0
  6
CONTINUOUS
 62
     3
 10
167.826889038086
 20
-4.00005149841309
 30
0.0
 11
165.980621337891
 21
-5.84633255004883
 31
0.0
  0
LINE
  5
    65
  8
0
  6
CONTINUOUS
 62
     3
 10
169.948211669922
 20
-4.00005149841309
 30
0.0
 11
167.948211669922
 21
-6.00005149841309
 31
0.0
  0
LINE
  5
    66
  8
0
  6
CONTINUOUS
 62
     3
 10
172.069519042969
 20
-4.00005149841309
 30
0.0
 11
170.069519042969
 21
-6.00005149841309
 31
0.0
  0
LINE
  5
    67
  8
0
  6
CONTINUOUS
 62
     3
 10
174.190826416016
 20
-4.00005149841309
 30
0.0
 11
172.190826416016
 21
-6.00005149841309
 31
0.0
  0
LINE
  5
    68
  8
0
  6
CONTINUOUS
 62
     3
 10
176.312133789062
 20
-4.00005149841309
 30
0.0
 11
174.312133789063
 21
-6.00005149841309
 31
0.0
  0
LINE
  5
    69
  8
0
  6
CONTINUOUS
 62
     3
 10
177.480621337891
 20
-4.95293474197388
 30
0.0
 11
176.433502197266
 21
-6.00005149841309
 31
0.0
  0
ENDBLK
  5
    6A
  8
0
  6
CONTINUOUS
 62
     7
  0
BLOCK
  5
    6B
  8
0
  6
CONTINUOUS
 62
     7
  2
*HATCH83
 70
    65
 10
0.0
 20
0.0
 30
0.0
  3
*HATCH83
  0
LINE
  5
    6C
  8
0
  6
CONTINUOUS
 62
     3
 10
43.7296600341797
 20
-4.00005149841309
 30
0.0
 11
42.4806251525879
 21
-5.24908351898193
 31
0.0
  0
LINE
  5
    6D
  8
0
  6
CONTINUOUS
 62
     3
 10
45.8509788513184
 20
-4.00005149841309
 30
0.0
 11
43.8509788513184
 21
-6.00005149841309
 31
0.0
  0
LINE
  5
    6E
  8
0
  6
CONTINUOUS
 62
     3
 10
47.9723014831543
 20
-4.00005149841309
 30
0.0
 11
45.9723014831543
 21
-6.00005149841309
 31
0.0
  0
LINE
  5
    6F
  8
0
  6
CONTINUOUS
 62
     3
 10
50.0936241149902
 20
-4.00005149841309
 30
0.0
 11
48.0936241149902
 21
-6.00005149841309
 31
0.0
  0
LINE
  5
    70
  8
0
  6
CONTINUOUS
 62
     3
 10
52.2149467468262
 20
-4.00005149841309
 30
0.0
 11
50.2149467468262
 21
-6.00005149841309
 31
0.0
  0
LINE
  5
    71
  8
0
  6
CONTINUOUS
 62
     3
 10
53.9806251525879
 20
-4.35568618774414
 30
0.0
 11
52.3362579345703
 21
-6.00005149841309
 31
0.0
  0
ENDBLK
  5
    72
  8
0
  6
CONTINUOUS
 62
     7
  0
BLOCK
  5
    73
  8
0
  6
CONTINUOUS
 62
     7
  2
*HATCH84
 70
    65
 10
0.0
 20
0.0
 30
0.0
  3
*HATCH84
  0
LINE
  5
    74
  8
0
  6
CONTINUOUS
 62
     3
 10
-24.1525974273682
 20
-4.00005149841309
 30
0.0
 11
-25.3908443450928
 21
-5.23830080032349
 31
0.0
  0
LINE
  5
    75
  8
0
  6
CONTINUOUS
 62
     3
 10
-22.0312747955322
 20
-4.00005149841309
 30
0.0
 11
-24.0312747955322
 21
-6.00005149841309
 31
0.0
  0
LINE
  5
    76
  8
0
  6
CONTINUOUS
 62
     3
 10
-19.9099559783936
 20
-4.00005149841309
 30
0.0
 11
-21.9099559783936
 21
-6.00005149841309
 31
0.0
  0
LINE
  5
    77
  8
0
  6
CONTINUOUS
 62
     3
 10
-17.7886371612549
 20
-4.00005149841309
 30
0.0
 11
-19.7886371612549
 21
-6.00005149841309
 31
0.0
  0
LINE
  5
    78
  8
0
  6
CONTINUOUS
 62
     3
 10
-15.6673173904419
 20
-4.00005149841309
 30
0.0
 11
-17.6673183441162
 21
-6.00005149841309
 31
0.0
  0
LINE
  5
    79
  8
0
  6
CONTINUOUS
 62
     3
 10
-13.5459966659546
 20
-4.00005149841309
 30
0.0
 11
-15.5459985733032
 21
-6.00005149841309
 31
0.0
  0
LINE
  5
    7A
  8
0
  6
CONTINUOUS
 62
     3
 10
-11.4246759414673
 20
-4.00005149841309
 30
0.0
 11
-13.4246778488159
 21
-6.00005149841309
 31
0.0
  0
LINE
  5
    7B
  8
0
  6
CONTINUOUS
 62
     3
 10
-9.30335521697998
 20
-4.00005149841309
 30
0.0
 11
-11.3033571243286
 21
-6.00005149841309
 31
0.0
  0
LINE
  5
    7C
  8
0
  6
CONTINUOUS
 62
     3
 10
-7.18203449249268
 20
-4.00005149841309
 30
0.0
 11
-9.18203639984131
 21
-6.00005149841309
 31
0.0
  0
LINE
  5
    7D
  8
0
  6
CONTINUOUS
 62
     3
 10
-5.06071376800537
 20
-4.00005149841309
 30
0.0
 11
-7.060715675354
 21
-6.00005149841309
 31
0.0
  0
LINE
  5
    7E
  8
0
  6
CONTINUOUS
 62
     3
 10
-2.93939328193665
 20
-4.00005149841309
 30
0.0
 11
-4.9393949508667
 21
-6.00005149841309
 31
0.0
  0
LINE
  5
    7F
  8
0
  6
CONTINUOUS
 62
     3
 10
-0.818073034286499
 20
-4.00005149841309
 30
0.0
 11
-2.81807422637939
 21
-6.00005149841309
 31
0.0
  0
LINE
  5
    80
  8
0
  6
CONTINUOUS
 62
     3
 10
1.30324721336365
 20
-4.00005149841309
 30
0.0
 11
-0.696753740310669
 21
-6.00005149841309
 31
0.0
  0
LINE
  5
    81
  8
0
  6
CONTINUOUS
 62
     3
 10
3.42456746101379
 20
-4.00005149841309
 30
0.0
 11
1.42456674575806
 21
-6.00005149841309
 31
0.0
  0
LINE
  5
    82
  8
0
  6
CONTINUOUS
 62
     3
 10
5.54588794708252
 20
-4.00005149841309
 30
0.0
 11
3.54588747024536
 21
-6.00005149841309
 31
0.0
  0
LINE
  5
    83
  8
0
  6
CONTINUOUS
 62
     3
 10
7.66720867156982
 20
-4.00005149841309
 30
0.0
 11
5.66720819473267
 21
-6.00005149841309
 31
0.0
  0
LINE
  5
    84
  8
0
  6
CONTINUOUS
 62
     3
 10
9.78852939605713
 20
-4.00005149841309
 30
0.0
 11
7.78852891921997
 21
-6.00005149841309
 31
0.0
  0
LINE
  5
    85
  8
0
  6
CONTINUOUS
 62
     3
 10
11.9098501205444
 20
-4.00005149841309
 30
0.0
 11
9.90984916687012
 21
-6.00005149841309
 31
0.0
  0
LINE
  5
    86
  8
0
  6
CONTINUOUS
 62
     3
 10
14.0311708450317
 20
-4.00005149841309
 30
0.0
 11
12.0311698913574
 21
-6.00005149841309
 31
0.0
  0
LINE
  5
    87
  8
0
  6
CONTINUOUS
 62
     3
 10
16.1524906158447
 20
-4.00005149841309
 30
0.0
 11
14.1524906158447
 21
-6.00005149841309
 31
0.0
  0
LINE
  5
    88
  8
0
  6
CONTINUOUS
 62
     3
 10
18.2738094329834
 20
-4.00005149841309
 30
0.0
 11
16.273811340332
 21
-6.00005149841309
 31
0.0
  0
LINE
  5
    89
  8
0
  6
CONTINUOUS
 62
     3
 10
20.3951282501221
 20
-4.00005149841309
 30
0.0
 11
18.3951301574707
 21
-6.00005149841309
 31
0.0
  0
LINE
  5
    8A
  8
0
  6
CONTINUOUS
 62
     3
 10
22.5164470672607
 20
-4.00005149841309
 30
0.0
 11
20.5164489746094
 21
-6.00005149841309
 31
0.0
  0
LINE
  5
    8B
  8
0
  6
CONTINUOUS
 62
     3
 10
24.6377658843994
 20
-4.00005149841309
 30
0.0
 11
22.637767791748
 21
-6.00005149841309
 31
0.0
  0
LINE
  5
    8C
  8
0
  6
CONTINUOUS
 62
     3
 10
26.7590847015381
 20
-4.00005149841309
 30
0.0
 11
24.7590866088867
 21
-6.00005149841309
 31
0.0
  0
LINE
  5
    8D
  8
0
  6
CONTINUOUS
 62
     3
 10
28.8804035186768
 20
-4.00005149841309
 30
0.0
 11
26.8804054260254
 21
-6.00005149841309
 31
0.0
  0
LINE
  5
    8E
  8
0
  6
CONTINUOUS
 62
     3
 10
31.0017223358154
 20
-4.00005149841309
 30
0.0
 11
29.0017242431641
 21
-6.00005149841309
 31
0.0
  0
LINE
  5
    8F
  8
0
  6
CONTINUOUS
 62
     3
 10
33.1230430603027
 20
-4.00005149841309
 30
0.0
 11
31.1230430603027
 21
-6.00005149841309
 31
0.0
  0
LINE
  5
    90
  8
0
  6
CONTINUOUS
 62
     3
 10
35.2443656921387
 20
-4.00005149841309
 30
0.0
 11
33.2443656921387
 21
-6.00005149841309
 31
0.0
  0
LINE
  5
    91
  8
0
  6
CONTINUOUS
 62
     3
 10
35.4806251525879
 20
-5.88512229919434
 30
0.0
 11
35.3656959533691
 21
-6.00005149841309
 31
0.0
  0
ENDBLK
  5
    92
  8
0
  6
CONTINUOUS
 62
     7
  0
BLOCK
  5
    93
  8
0
  6
CONTINUOUS
 62
     7
  2
146558
 70
    64
 10
0.0
 20
0.0
 30
0.0
  3
146558
  0
LINE
  5
    94
  8
0
  6
CONTINUOUS
 62
     2
 10
-52.099964209298
 20
223.237096448575
 30
0.0
 11
-35.099964209298
 21
223.237096448575
 31
0.0
  0
LINE
  5
    95
  8
0
  6
CONTINUOUS
 62
     2
 10
-52.099964209298
 20
211.237096448575
 30
0.0
 11
-35.099964209298
 21
211.237096448575
 31
0.0
  0
LINE
  5
    96
  8
0
  6
CONTINUOUS
 62
     2
 10
-53.099964209298
 20
212.237096448575
 30
0.0
 11
-53.099964209298
 21
222.237096448575
 31
0.0
  0
LINE
  5
    97
  8
0
  6
CONTINUOUS
 62
     2
 10
-34.099964209298
 20
212.237096448575
 30
0.0
 11
-34.099964209298
 21
222.237096448575
 31
0.0
  0
LINE
  5
    98
  8
0
  6
CONTINUOUS
 62
     2
 10
-53.099964209298
 20
222.237096448575
 30
0.0
 11
-52.099964209298
 21
223.237096448575
 31
0.0
  0
LINE
  5
    99
  8
0
  6
CONTINUOUS
 62
     2
 10
-53.099964209298
 20
212.237096448575
 30
0.0
 11
-52.099964209298
 21
211.237096448575
 31
0.0
  0
LINE
  5
    9A
  8
0
  6
CONTINUOUS
 62
     2
 10
-35.099964209298
 20
223.237096448575
 30
0.0
 11
-34.099964209298
 21
222.237096448575
 31
0.0
  0
LINE
  5
    9B
  8
0
  6
CONTINUOUS
 62
     2
 10
-35.099964209298
 20
211.237096448575
 30
0.0
 11
-34.099964209298
 21
212.237096448575
 31
0.0
  0
LINE
  5
    9C
  8
0
  6
CONTINUOUS
 62
     2
 10
-53.099964209298
 20
222.237096448575
 30
0.0
 11
-34.099964209298
 21
222.237096448575
 31
0.0
  0
LINE
  5
    9D
  8
0
  6
CONTINUOUS
 62
     2
 10
-53.099964209298
 20
212.237096448575
 30
0.0
 11
-34.099964209298
 21
212.237096448575
 31
0.0
  0
LINE
  5
    9E
  8
0
  6
CONTINUOUS
 62
     2
 10
-52.099964209298
 20
211.237096448575
 30
0.0
 11
-52.099964209298
 21
223.237096448575
 31
0.0
  0
LINE
  5
    9F
  8
0
  6
CONTINUOUS
 62
     2
 10
-35.099964209298
 20
211.237096448575
 30
0.0
 11
-35.099964209298
 21
223.237096448575
 31
0.0
  0
LINE
  5
    A0
  8
0
  6
CONTINUOUS
 62
    98
 10
-53.099964209298
 20
212.737096448575
 30
0.0
 11
-53.099964209298
 21
221.737096448575
 31
0.0
  0
LINE
  5
    A1
  8
0
  6
CONTINUOUS
 62
    98
 10
-58.099964209298
 20
208.737096448575
 30
0.0
 11
-58.099964209298
 21
225.737096448575
 31
0.0
  0
LINE
  5
    A2
  8
0
  6
CONTINUOUS
 62
    98
 10
-58.099964209298
 20
225.737096448575
 30
0.0
 11
-55.1884296840102
 21
225.737096448575
 31
0.0
  0
LINE
  5
    A3
  8
0
  6
CONTINUOUS
 62
    98
 10
-58.099964209298
 20
208.737096448575
 30
0.0
 11
-55.1884296840102
 21
208.737096448575
 31
0.0
  0
LINE
  5
    A4
  8
0
  6
CONTINUOUS
 62
    98
 10
-55.599964209298
 20
208.737096448575
 30
0.0
 11
-55.599964209298
 21
225.737096448575
 31
0.0
  0
LINE
  5
    A5
  8
0
  6
CONTINUOUS
 62
    98
 10
-55.1884296840102
 20
208.737096448575
 30
0.0
 11
-55.1884296840102
 21
210.237096448577
 31
0.0
  0
LINE
  5
    A6
  8
0
  6
CONTINUOUS
 62
    98
 10
-55.1884296840102
 20
221.737096448575
 30
0.0
 11
-53.099964209298
 21
221.737096448575
 31
0.0
  0
LINE
  5
    A7
  8
0
  6
CONTINUOUS
 62
    98
 10
-55.1884296840102
 20
212.737096448575
 30
0.0
 11
-53.099964209298
 21
212.737096448575
 31
0.0
  0
ARC
  5
    A8
  8
0
  6
CONTINUOUS
 62
    98
 10
-30.7911578871332
 20
217.237096448575
 30
0.0
 40
24.8088063221649
 50
169.549429087188
 51
190.450570912812
  0
LINE
  5
    A9
  8
0
  6
CONTINUOUS
 62
    98
 10
-55.1884296840102
 20
221.737096448576
 30
0.0
 11
-55.1884296840102
 21
222.237096448581
 31
0.0
  0
ARC
  5
    AA
  8
0
  6
CONTINUOUS
 62
    98
 10
-54.4384296840195
 20
211.237096448576
 30
0.0
 40
1.24999999999367
 50
126.869897645536
 51
158.314733460268
  0
ARC
  5
    AB
  8
0
  6
CONTINUOUS
 62
    98
 10
-54.4384296840122
 20
223.237096448576
 30
0.0
 40
1.24999999999803
 50
126.869897645902
 51
158.314733460726
  0
ARC
  5
    AC
  8
0
  6
CONTINUOUS
 62
    98
 10
-54.4384296840122
 20
223.237096448576
 30
0.0
 40
1.24999999999803
 50
201.685266539274
 51
233.130102354098
  0
ARC
  5
    AD
  8
0
  6
CONTINUOUS
 62
    98
 10
-54.4384296840195
 20
211.237096448576
 30
0.0
 40
1.24999999999367
 50
201.685266539732
 51
233.130102354464
  0
LINE
  5
    AE
  8
0
  6
CONTINUOUS
 62
    98
 10
-55.1884296840102
 20
224.237096448572
 30
0.0
 11
-55.1884296840102
 21
225.737096448575
 31
0.0
  0
LINE
  5
    AF
  8
0
  6
CONTINUOUS
 62
    98
 10
-55.1884296840102
 20
212.237096448575
 30
0.0
 11
-55.1884296840102
 21
212.737096448575
 31
0.0
  0
ENDBLK
  5
    B0
  8
0
  6
CONTINUOUS
 62
     7
  0
BLOCK
  5
    B1
  8
0
  6
CONTINUOUS
 62
    98
  2
*HATCH85
 70
    65
 10
0.0
 20
0.0
 30
0.0
  3
*HATCH85
  0
LINE
  5
    B2
  8
0
  6
CONTINUOUS
 62
     3
 10
-46.4132194519043
 20
227.237091064453
 30
0.0
 11
-46.4999656677246
 21
227.150360107422
 31
0.0
  0
LINE
  5
    B3
  8
0
  6
CONTINUOUS
 62
     3
 10
-45.3525581359863
 20
227.237091064453
 30
0.0
 11
-46.4999656677246
 21
226.089706420898
 31
0.0
  0
LINE
  5
    B4
  8
0
  6
CONTINUOUS
 62
     3
 10
-44.2918968200684
 20
227.237091064453
 30
0.0
 11
-46.4999656677246
 21
225.029052734375
 31
0.0
  0
LINE
  5
    B5
  8
0
  6
CONTINUOUS
 62
     3
 10
-43.2312355041504
 20
227.237091064453
 30
0.0
 11
-46.4999656677246
 21
223.968399047852
 31
0.0
  0
LINE
  5
    B6
  8
0
  6
CONTINUOUS
 62
     3
 10
-42.4999656677246
 20
226.90771484375
 30
0.0
 11
-46.170581817627
 21
223.237091064453
 31
0.0
  0
LINE
  5
    B7
  8
0
  6
CONTINUOUS
 62
     3
 10
-42.4999656677246
 20
225.847061157227
 30
0.0
 11
-45.109920501709
 21
223.237091064453
 31
0.0
  0
LINE
  5
    B8
  8
0
  6
CONTINUOUS
 62
     3
 10
-42.4999656677246
 20
224.786407470703
 30
0.0
 11
-44.049259185791
 21
223.237091064453
 31
0.0
  0
LINE
  5
    B9
  8
0
  6
CONTINUOUS
 62
     3
 10
-42.4999656677246
 20
223.72575378418
 30
0.0
 11
-42.988597869873
 21
223.237091064453
 31
0.0
  0
ENDBLK
  5
    BA
  8
0
  6
CONTINUOUS
 62
    98
  0
BLOCK
  5
    BB
  8
0
  6
CONTINUOUS
 62
    98
  2
*HATCH86
 70
    65
 10
0.0
 20
0.0
 30
0.0
  3
*HATCH86
  0
LINE
  5
    BC
  8
0
  6
CONTINUOUS
 62
     3
 10
-45.4426574707031
 20
211.237091064453
 30
0.0
 11
-46.4999656677246
 21
210.179794311523
 31
0.0
  0
LINE
  5
    BD
  8
0
  6
CONTINUOUS
 62
     3
 10
-44.3819961547852
 20
211.237091064453
 30
0.0
 11
-46.4999656677246
 21
209.119140625
 31
0.0
  0
LINE
  5
    BE
  8
0
  6
CONTINUOUS
 62
     3
 10
-43.3213348388672
 20
211.237091064453
 30
0.0
 11
-46.4999656677246
 21
208.058486938477
 31
0.0
  0
LINE
  5
    BF
  8
0
  6
CONTINUOUS
 62
     3
 10
-42.4999656677246
 20
210.997817993164
 30
0.0
 11
-46.2606773376465
 21
207.237091064453
 31
0.0
  0
LINE
  5
    C0
  8
0
  6
CONTINUOUS
 62
     3
 10
-42.4999656677246
 20
209.937164306641
 30
0.0
 11
-45.2000160217285
 21
207.237091064453
 31
0.0
  0
LINE
  5
    C1
  8
0
  6
CONTINUOUS
 62
     3
 10
-42.4999656677246
 20
208.876510620117
 30
0.0
 11
-44.1393547058105
 21
207.237091064453
 31
0.0
  0
LINE
  5
    C2
  8
0
  6
CONTINUOUS
 62
     3
 10
-42.4999656677246
 20
207.815856933594
 30
0.0
 11
-43.0786933898926
 21
207.237091064453
 31
0.0
  0
ENDBLK
  5
    C3
  8
0
  6
CONTINUOUS
 62
    98
  0
BLOCK
  5
    C4
  8
0
  6
CONTINUOUS
 62
    98
  2
*HATCH87
 70
    65
 10
0.0
 20
0.0
 30
0.0
  3
*HATCH87
  0
LINE
  5
    C5
  8
0
  6
CONTINUOUS
 62
     3
 10
-77.1723709106445
 20
227.237091064453
 30
0.0
 11
-77.9999618530274
 21
226.40950012207
 31
0.0
  0
LINE
  5
    C6
  8
0
  6
CONTINUOUS
 62
     3
 10
-76.1117095947266
 20
227.237091064453
 30
0.0
 11
-77.9999618530274
 21
225.348846435547
 31
0.0
  0
LINE
  5
    C7
  8
0
  6
CONTINUOUS
 62
     3
 10
-75.4999618530274
 20
226.788177490234
 30
0.0
 11
-77.9999618530274
 21
224.288177490234
 31
0.0
  0
LINE
  5
    C8
  8
0
  6
CONTINUOUS
 62
     3
 10
-75.4999618530274
 20
225.727523803711
 30
0.0
 11
-77.9999618530274
 21
223.227523803711
 31
0.0
  0
LINE
  5
    C9
  8
0
  6
CONTINUOUS
 62
     3
 10
-75.4999618530274
 20
224.666870117188
 30
0.0
 11
-77.9999618530274
 21
222.166870117187
 31
0.0
  0
LINE
  5
    CA
  8
0
  6
CONTINUOUS
 62
     3
 10
-75.4999618530274
 20
223.606201171875
 30
0.0
 11
-77.9775619506836
 21
221.128601074219
 31
0.0
  0
LINE
  5
    CB
  8
0
  6
CONTINUOUS
 62
     3
 10
-75.4999618530274
 20
222.545547485352
 30
0.0
 11
-77.7388229370117
 21
220.306686401367
 31
0.0
  0
LINE
  5
    CC
  8
0
  6
CONTINUOUS
 62
     3
 10
-75.4999618530274
 20
221.484878540039
 30
0.0
 11
-77.2433700561523
 21
219.741470336914
 31
0.0
  0
LINE
  5
    CD
  8
0
  6
CONTINUOUS
 62
     3
 10
-74.7982330322266
 20
221.125946044922
 30
0.0
 11
-76.5722961425781
 21
219.35188293457
 31
0.0
  0
LINE
  5
    CE
  8
0
  6
CONTINUOUS
 62
     3
 10
-73.9712905883789
 20
220.892227172852
 30
0.0
 11
-75.6322555541992
 21
219.231262207031
 31
0.0
  0
LINE
  5
    CF
  8
0
  6
CONTINUOUS
 62
     3
 10
-73.2686462402344
 20
220.534210205078
 30
0.0
 11
-74.7601089477539
 21
219.042755126953
 31
0.0
  0
LINE
  5
    D0
  8
0
  6
CONTINUOUS
 62
     3
 10
-72.7089309692383
 20
220.033264160156
 30
0.0
 11
-74.1236267089844
 21
218.618576049805
 31
0.0
  0
LINE
  5
    D1
  8
0
  6
CONTINUOUS
 62
     3
 10
-72.2063140869141
 20
219.475219726562
 30
0.0
 11
-73.6947784423828
 21
217.986770629883
 31
0.0
  0
LINE
  5
    D2
  8
0
  6
CONTINUOUS
 62
     3
 10
-76.5567779541016
 20
215.124771118164
 30
0.0
 11
-77.8308486938477
 21
213.850692749023
 31
0.0
  0
LINE
  5
    D3
  8
0
  6
CONTINUOUS
 62
     3
 10
-71.8482971191406
 20
218.772583007813
 30
0.0
 11
-73.5564498901367
 21
217.064437866211
 31
0.0
  0
LINE
  5
    D4
  8
0
  6
CONTINUOUS
 62
     3
 10
-75.3259506225586
 20
215.294921875
 30
0.0
 11
-77.9999618530274
 21
212.620910644531
 31
0.0
  0
LINE
  5
    D5
  8
0
  6
CONTINUOUS
 62
     3
 10
-71.6125106811523
 20
217.947708129883
 30
0.0
 11
-77.9999618530274
 21
211.560256958008
 31
0.0
  0
LINE
  5
    D6
  8
0
  6
CONTINUOUS
 62
     3
 10
-71.5446624755859
 20
216.954895019531
 30
0.0
 11
-75.2177734375
 21
213.281784057617
 31
0.0
  0
LINE
  5
    D7
  8
0
  6
CONTINUOUS
 62
     3
 10
-75.4999618530274
 20
212.999603271484
 30
0.0
 11
-77.9999618530274
 21
210.499603271484
 31
0.0
  0
LINE
  5
    D8
  8
0
  6
CONTINUOUS
 62
     3
 10
-71.963623046875
 20
215.475280761719
 30
0.0
 11
-73.738151550293
 21
213.700744628906
 31
0.0
  0
LINE
  5
    D9
  8
0
  6
CONTINUOUS
 62
     3
 10
-75.4999618530274
 20
211.938934326172
 30
0.0
 11
-77.9999618530274
 21
209.438934326172
 31
0.0
  0
LINE
  5
    DA
  8
0
  6
CONTINUOUS
 62
     3
 10
-75.4999618530274
 20
210.878280639648
 30
0.0
 11
-77.9999618530274
 21
208.378280639648
 31
0.0
  0
LINE
  5
    DB
  8
0
  6
CONTINUOUS
 62
     3
 10
-75.4999618530274
 20
209.817626953125
 30
0.0
 11
-77.9999618530274
 21
207.317626953125
 31
0.0
  0
LINE
  5
    DC
  8
0
  6
CONTINUOUS
 62
     3
 10
-75.4999618530274
 20
208.756958007813
 30
0.0
 11
-77.0198211669922
 21
207.237091064453
 31
0.0
  0
LINE
  5
    DD
  8
0
  6
CONTINUOUS
 62
     3
 10
-75.4999618530274
 20
207.696304321289
 30
0.0
 11
-75.9591598510742
 21
207.237091064453
 31
0.0
  0
ENDBLK
  5
    DE
  8
0
  6
CONTINUOUS
 62
    98
  0
BLOCK
  5
    DF
  8
0
  6
CONTINUOUS
 62
   218
  2
*HATCH88
 70
    65
 10
0.0
 20
0.0
 30
0.0
  3
*HATCH88
  0
LINE
  5
    E0
  8
0
  6
CONTINUOUS
 62
     3
 10
-70.4023208618164
 20
252.038360595703
 30
0.0
 11
-72.2455978393555
 21
250.195083618164
 31
0.0
  0
LINE
  5
    E1
  8
0
  6
CONTINUOUS
 62
     3
 10
-69.0759735107422
 20
252.304061889648
 30
0.0
 11
-71.8744277954102
 21
249.505599975586
 31
0.0
  0
LINE
  5
    E2
  8
0
  6
CONTINUOUS
 62
     3
 10
-68.0004959106445
 20
252.318878173828
 30
0.0
 11
-71.2877426147461
 21
249.031631469727
 31
0.0
  0
LINE
  5
    E3
  8
0
  6
CONTINUOUS
 62
     3
 10
-67.0423049926758
 20
252.216400146484
 30
0.0
 11
-70.5405578613281
 21
248.718139648438
 31
0.0
  0
LINE
  5
    E4
  8
0
  6
CONTINUOUS
 62
     3
 10
-66.1708908081055
 20
252.027160644531
 30
0.0
 11
-69.6915588378906
 21
248.506484985352
 31
0.0
  0
LINE
  5
    E5
  8
0
  6
CONTINUOUS
 62
     3
 10
-65.423713684082
 20
251.713668823242
 30
0.0
 11
-68.7577438354492
 21
248.379638671875
 31
0.0
  0
LINE
  5
    E6
  8
0
  6
CONTINUOUS
 62
     3
 10
-64.8103408813477
 20
251.266387939453
 30
0.0
 11
-67.6970825195313
 21
248.379638671875
 31
0.0
  0
LINE
  5
    E7
  8
0
  6
CONTINUOUS
 62
     3
 10
-64.3956069946289
 20
250.620452880859
 30
0.0
 11
-66.4208602905273
 21
248.595199584961
 31
0.0
  0
ENDBLK
  5
    E8
  8
0
  6
CONTINUOUS
 62
   218
  0
BLOCK
  5
    E9
  8
0
  6
CONTINUOUS
 62
     7
  2
$1CAVO
 70
    64
 10
0.0
 20
0.0
 30
0.0
  3
$1CAVO
  0
LINE
  5
    EA
  8
0
  6
CONTINUOUS
 62
   218
 10
-58.099964209298
 20
208.737096448575
 30
0.0
 11
-58.099964209298
 21
231.737096448575
 31
0.0
  0
LINE
  5
    EB
  8
0
  6
CONTINUOUS
 62
   218
 10
-70.499964209298
 20
208.737096448575
 30
0.0
 11
-70.499964209298
 21
231.737096448575
 31
0.0
  0
LINE
  5
    EC
  8
0
  6
CONTINUOUS
 62
   218
 10
-70.499964209298
 20
208.737096448575
 30
0.0
 11
-58.099964209298
 21
208.737096448575
 31
0.0
  0
LINE
  5
    ED
  8
0
  6
CONTINUOUS
 62
   218
 10
-72.299964209298
 20
231.737096448575
 30
0.0
 11
-56.299964209298
 21
231.737096448575
 31
0.0
  0
LINE
  5
    EE
  8
0
  6
DASHDOT
 62
   218
 10
-64.299964209298
 20
203.675830579354
 30
0.0
 11
-64.299964209298
 21
252.349255591
 31
0.0
  0
LINE
  5
    EF
  8
0
  6
CONTINUOUS
 62
   218
 10
-72.299964209298
 20
231.737096448575
 30
0.0
 11
-72.299964209298
 21
250.349255591
 31
0.0
  0
LINE
  5
    F0
  8
0
  6
CONTINUOUS
 62
   218
 10
-56.299964209298
 20
231.737096448575
 30
0.0
 11
-56.299964209298
 21
250.349255591
 31
0.0
  0
LINE
  5
    F1
  8
0
  6
CONTINUOUS
 62
   218
 10
-64.299964209298
 20
208.737096448575
 30
0.0
 11
-60.2444436530033
 21
231.737096448575
 31
0.0
  0
POLYLINE
  5
    F2
  8
0
  6
CONTINUOUS
 62
   218
 66
     1
 10
0.0
 20
0.0
 30
0.0
 70
     1
  0
VERTEX
  5
    F3
  8
0
  6
CONTINUOUS
 10
-72.299964209298
 20
250.34925559099
 30
0.0
 40
0.0
 41
0.0
  0
VERTEX
  5
    F4
  8
0
  6
CONTINUOUS
 10
-72.2987594840827
 20
250.300173133944
 30
0.0
 40
0.0
 41
0.0
  0
VERTEX
  5
    F5
  8
0
  6
CONTINUOUS
 10
-72.2951460341185
 20
250.251120242335
 30
0.0
 40
0.0
 41
0.0
  0
VERTEX
  5
    F6
  8
0
  6
CONTINUOUS
 10
-72.2891260360124
 20
250.20212646379
 30
0.0
 40
0.0
 41
0.0
  0
VERTEX
  5
    F7
  8
0
  6
CONTINUOUS
 10
-72.2807031159863
 20
250.153221310331
 30
0.0
 40
0.0
 41
0.0
  0
VERTEX
  5
    F8
  8
0
  6
CONTINUOUS
 10
-72.2698823476922
 20
250.104434240591
 30
0.0
 40
0.0
 41
0.0
  0
VERTEX
  5
    F9
  8
0
  6
CONTINUOUS
 10
-72.2566702491564
 20
250.055794642079
 30
0.0
 40
0.0
 41
0.0
  0
VERTEX
  5
    FA
  8
0
  6
CONTINUOUS
 10
-72.2410747788529
 20
250.007331813469
 30
0.0
 40
0.0
 41
0.0
  0
VERTEX
  5
    FB
  8
0
  6
CONTINUOUS
 10
-72.22310533091
 20
249.959074946958
 30
0.0
 40
0.0
 41
0.0
  0
VERTEX
  5
    FC
  8
0
  6
CONTINUOUS
 10
-72.202772729451
 20
249.911053110676
 30
0.0
 40
0.0
 41
0.0
  0
VERTEX
  5
    FD
  8
0
  6
CONTINUOUS
 10
-72.180089222075
 20
249.863295231183
 30
0.0
 40
0.0
 41
0.0
  0
VERTEX
  5
    FE
  8
0
  6
CONTINUOUS
 10
-72.1550684724784
 20
249.81583007604
 30
0.0
 40
0.0
 41
0.0
  0
VERTEX
  5
    FF
  8
0
  6
CONTINUOUS
 10
-72.1277255522254
 20
249.768686236481
 30
0.0
 40
0.0
 41
0.0
  0
VERTEX
  5
   100
  8
0
  6
CONTINUOUS
 10
-72.0980769316686
 20
249.721892110192
 30
0.0
 40
0.0
 41
0.0
  0
VERTEX
  5
   101
  8
0
  6
CONTINUOUS
 10
-72.0661404700284
 20
249.675475884206
 30
0.0
 40
0.0
 41
0.0
  0
VERTEX
  5
   102
  8
0
  6
CONTINUOUS
 10
-72.0319354046352
 20
249.62946551792
 30
0.0
 40
0.0
 41
0.0
  0
VERTEX
  5
   103
  8
0
  6
CONTINUOUS
 10
-71.9954823393412
 20
249.58388872626
 30
0.0
 40
0.0
 41
0.0
  0
VERTEX
  5
   104
  8
0
  6
CONTINUOUS
 10
-71.9159213817896
 20
249.49414540413
 30
0.0
 40
0.0
 41
0.0
  0
VERTEX
  5
   105
  8
0
  6
CONTINUOUS
 10
-71.8276492666891
 20
249.406462117339
 30
0.0
 40
0.0
 41
0.0
  0
VERTEX
  5
   106
  8
0
  6
CONTINUOUS
 10
-71.7308786492965
 20
249.321050102605
 30
0.0
 40
0.0
 41
0.0
  0
VERTEX
  5
   107
  8
0
  6
CONTINUOUS
 10
-71.6258426585054
 20
249.238115124952
 30
0.0
 40
0.0
 41
0.0
  0
VERTEX
  5
   108
  8
0
  6
CONTINUOUS
 10
-71.5127943352176
 20
249.157856982007
 30
0.0
 40
0.0
 41
0.0
  0
VERTEX
  5
   109
  8
0
  6
CONTINUOUS
 10
-71.3920060227458
 20
249.080469022665
 30
0.0
 40
0.0
 41
0.0
  0
VERTEX
  5
   10A
  8
0
  6
CONTINUOUS
 10
-71.2637687107145
 20
249.006137681298
 30
0.0
 40
0.0
 41
0.0
  0
VERTEX
  5
   10B
  8
0
  6
CONTINUOUS
 10
-71.1283913340406
 20
248.93504202862
 30
0.0
 40
0.0
 41
0.0
  0
VERTEX
  5
   10C
  8
0
  6
CONTINUOUS
 10
-70.9862000286824
 20
248.867353340283
 30
0.0
 40
0.0
 41
0.0
  0
VERTEX
  5
   10D
  8
0
  6
CONTINUOUS
 10
-70.8375373459487
 20
248.803234684268
 30
0.0
 40
0.0
 41
0.0
  0
VERTEX
  5
   10E
  8
0
  6
CONTINUOUS
 10
-70.6827614272637
 20
248.742840528032
 30
0.0
 40
0.0
 41
0.0
  0
VERTEX
  5
   10F
  8
0
  6
CONTINUOUS
 10
-70.5222451413722
 20
248.686316366389
 30
0.0
 40
0.0
 41
0.0
  0
VERTEX
  5
   110
  8
0
  6
CONTINUOUS
 10
-70.3563751860666
 20
248.633798370994
 30
0.0
 40
0.0
 41
0.0
  0
VERTEX
  5
   111
  8
0
  6
CONTINUOUS
 10
-70.1855511565976
 20
248.585413062298
 30
0.0
 40
0.0
 41
0.0
  0
VERTEX
  5
   112
  8
0
  6
CONTINUOUS
 10
-70.0101845830146
 20
248.541277004749
 30
0.0
 40
0.0
 41
0.0
  0
VERTEX
  5
   113
  8
0
  6
CONTINUOUS
 10
-69.8306979387537
 20
248.501496525973
 30
0.0
 40
0.0
 41
0.0
  0
VERTEX
  5
   114
  8
0
  6
CONTINUOUS
 10
-69.6475236228622
 20
248.46616746063
 30
0.0
 40
0.0
 41
0.0
  0
VERTEX
  5
   115
  8
0
  6
CONTINUOUS
 10
-69.4611029183111
 20
248.435374919532
 30
0.0
 40
0.0
 41
0.0
  0
VERTEX
  5
   116
  8
0
  6
CONTINUOUS
 10
-69.2718849289062
 20
248.409193084608
 30
0.0
 40
0.0
 41
0.0
  0
VERTEX
  5
   117
  8
0
  6
CONTINUOUS
 10
-69.0803254973576
 20
248.387685030191
 30
0.0
 40
0.0
 41
0.0
  0
VERTEX
  5
   118
  8
0
  6
CONTINUOUS
 10
-68.8868861071145
 20
248.370902571069
 30
0.0
 40
0.0
 41
0.0
  0
VERTEX
  5
   119
  8
0
  6
CONTINUOUS
 10
-68.6920327706112
 20
248.358886137654
 30
0.0
 40
0.0
 41
0.0
  0
VERTEX
  5
   11A
  8
0
  6
CONTINUOUS
 10
-68.4962349066027
 20
248.351664678589
 30
0.0
 40
0.0
 41
0.0
  0
VERTEX
  5
   11B
  8
0
  6
CONTINUOUS
 10
-68.299964209293
 20
248.349255591
 30
0.0
 40
0.0
 41
0.0
  0
VERTEX
  5
   11C
  8
0
  6
CONTINUOUS
 10
-68.1036935119833
 20
248.35166467859
 30
0.0
 40
0.0
 41
0.0
  0
VERTEX
  5
   11D
  8
0
  6
CONTINUOUS
 10
-67.9078956479748
 20
248.358886137656
 30
0.0
 40
0.0
 41
0.0
  0
VERTEX
  5
   11E
  8
0
  6
CONTINUOUS
 10
-67.7130423114716
 20
248.370902571072
 30
0.0
 40
0.0
 41
0.0
  0
VERTEX
  5
   11F
  8
0
  6
CONTINUOUS
 10
-67.5196029212286
 20
248.387685030195
 30
0.0
 40
0.0
 41
0.0
  0
VERTEX
  5
   120
  8
0
  6
CONTINUOUS
 10
-67.3280434896801
 20
248.409193084613
 30
0.0
 40
0.0
 41
0.0
  0
VERTEX
  5
   121
  8
0
  6
CONTINUOUS
 10
-67.1388255002754
 20
248.435374919538
 30
0.0
 40
0.0
 41
0.0
  0
VERTEX
  5
   122
  8
0
  6
CONTINUOUS
 10
-66.9524047957244
 20
248.466167460637
 30
0.0
 40
0.0
 41
0.0
  0
VERTEX
  5
   123
  8
0
  6
CONTINUOUS
 10
-66.769230479833
 20
248.501496525981
 30
0.0
 40
0.0
 41
0.0
  0
VERTEX
  5
   124
  8
0
  6
CONTINUOUS
 10
-66.5897438355723
 20
248.541277004757
 30
0.0
 40
0.0
 41
0.0
  0
VERTEX
  5
   125
  8
0
  6
CONTINUOUS
 10
-66.4143772619896
 20
248.585413062308
 30
0.0
 40
0.0
 41
0.0
  0
VERTEX
  5
   126
  8
0
  6
CONTINUOUS
 10
-66.2435532325208
 20
248.633798371004
 30
0.0
 40
0.0
 41
0.0
  0
VERTEX
  5
   127
  8
0
  6
CONTINUOUS
 10
-66.0776832772154
 20
248.6863163664
 30
0.0
 40
0.0
 41
0.0
  0
VERTEX
  5
   128
  8
0
  6
CONTINUOUS
 10
-65.9171669913242
 20
248.742840528044
 30
0.0
 40
0.0
 41
0.0
  0
VERTEX
  5
   129
  8
0
  6
CONTINUOUS
 10
-65.7623910726396
 20
248.803234684281
 30
0.0
 40
0.0
 41
0.0
  0
VERTEX
  5
   12A
  8
0
  6
CONTINUOUS
 10
-65.6137283899062
 20
248.867353340297
 30
0.0
 40
0.0
 41
0.0
  0
VERTEX
  5
   12B
  8
0
  6
CONTINUOUS
 10
-65.4715370845483
 20
248.935042028634
 30
0.0
 40
0.0
 41
0.0
  0
VERTEX
  5
   12C
  8
0
  6
CONTINUOUS
 10
-65.3361597078748
 20
249.006137681313
 30
0.0
 40
0.0
 41
0.0
  0
VERTEX
  5
   12D
  8
0
  6
CONTINUOUS
 10
-65.2079223958439
 20
249.08046902268
 30
0.0
 40
0.0
 41
0.0
  0
VERTEX
  5
   12E
  8
0
  6
CONTINUOUS
 10
-65.0871340833724
 20
249.157856982023
 30
0.0
 40
0.0
 41
0.0
  0
VERTEX
  5
   12F
  8
0
  6
CONTINUOUS
 10
-64.974085760085
 20
249.238115124969
 30
0.0
 40
0.0
 41
0.0
  0
VERTEX
  5
   130
  8
0
  6
CONTINUOUS
 10
-64.8690497692943
 20
249.321050102622
 30
0.0
 40
0.0
 41
0.0
  0
VERTEX
  5
   131
  8
0
  6
CONTINUOUS
 10
-64.7722791519022
 20
249.406462117357
 30
0.0
 40
0.0
 41
0.0
  0
VERTEX
  5
   132
  8
0
  6
CONTINUOUS
 10
-64.6840070368021
 20
249.494145404148
 30
0.0
 40
0.0
 41
0.0
  0
VERTEX
  5
   133
  8
0
  6
CONTINUOUS
 10
-64.604446079251
 20
249.583888726279
 30
0.0
 40
0.0
 41
0.0
  0
VERTEX
  5
   134
  8
0
  6
CONTINUOUS
 10
-64.5679930139573
 20
249.629465517939
 30
0.0
 40
0.0
 41
0.0
  0
VERTEX
  5
   135
  8
0
  6
CONTINUOUS
 10
-64.5337879485642
 20
249.675475884225
 30
0.0
 40
0.0
 41
0.0
  0
VERTEX
  5
   136
  8
0
  6
CONTINUOUS
 10
-64.5018514869243
 20
249.721892110211
 30
0.0
 40
0.0
 41
0.0
  0
VERTEX
  5
   137
  8
0
  6
CONTINUOUS
 10
-64.4722028663677
 20
249.7686862365
 30
0.0
 40
0.0
 41
0.0
  0
VERTEX
  5
   138
  8
0
  6
CONTINUOUS
 10
-64.4448599461149
 20
249.81583007606
 30
0.0
 40
0.0
 41
0.0
  0
VERTEX
  5
   139
  8
0
  6
CONTINUOUS
 10
-64.4198391965186
 20
249.863295231203
 30
0.0
 40
0.0
 41
0.0
  0
VERTEX
  5
   13A
  8
0
  6
CONTINUOUS
 10
-64.3971556891428
 20
249.911053110696
 30
0.0
 40
0.0
 41
0.0
  0
VERTEX
  5
   13B
  8
0
  6
CONTINUOUS
 10
-64.3768230876841
 20
249.959074946977
 30
0.0
 40
0.0
 41
0.0
  0
VERTEX
  5
   13C
  8
0
  6
CONTINUOUS
 10
-64.3588536397414
 20
250.007331813489
 30
0.0
 40
0.0
 41
0.0
  0
VERTEX
  5
   13D
  8
0
  6
CONTINUOUS
 10
-64.3432581694382
 20
250.055794642099
 30
0.0
 40
0.0
 41
0.0
  0
VERTEX
  5
   13E
  8
0
  6
CONTINUOUS
 10
-64.3300460709026
 20
250.104434240611
 30
0.0
 40
0.0
 41
0.0
  0
VERTEX
  5
   13F
  8
0
  6
CONTINUOUS
 10
-64.3192253026087
 20
250.153221310351
 30
0.0
 40
0.0
 41
0.0
  0
VERTEX
  5
   140
  8
0
  6
CONTINUOUS
 10
-64.3108023825829
 20
250.20212646381
 30
0.0
 40
0.0
 41
0.0
  0
VERTEX
  5
   141
  8
0
  6
CONTINUOUS
 10
-64.3047823844771
 20
250.251120242355
 30
0.0
 40
0.0
 41
0.0
  0
VERTEX
  5
   142
  8
0
  6
CONTINUOUS
 10
-64.3011689345131
 20
250.300173133964
 30
0.0
 40
0.0
 41
0.0
  0
VERTEX
  5
   143
  8
0
  6
CONTINUOUS
 10
-64.299964209298
 20
250.34925559101
 30
0.0
 40
0.0
 41
0.0
  0
VERTEX
  5
   144
  8
0
  6
CONTINUOUS
 10
-64.3011689345133
 20
250.398338048056
 30
0.0
 40
0.0
 41
0.0
  0
VERTEX
  5
   145
  8
0
  6
CONTINUOUS
 10
-64.3047823844776
 20
250.447390939665
 30
0.0
 40
0.0
 41
0.0
  0
VERTEX
  5
   146
  8
0
  6
CONTINUOUS
 10
-64.3108023825836
 20
250.496384718209
 30
0.0
 40
0.0
 41
0.0
  0
VERTEX
  5
   147
  8
0
  6
CONTINUOUS
 10
-64.3192253026097
 20
250.545289871669
 30
0.0
 40
0.0
 41
0.0
  0
VERTEX
  5
   148
  8
0
  6
CONTINUOUS
 10
-64.3300460709038
 20
250.594076941408
 30
0.0
 40
0.0
 41
0.0
  0
VERTEX
  5
   149
  8
0
  6
CONTINUOUS
 10
-64.3432581694396
 20
250.64271653992
 30
0.0
 40
0.0
 41
0.0
  0
VERTEX
  5
   14A
  8
0
  6
CONTINUOUS
 10
-64.3588536397431
 20
250.69117936853
 30
0.0
 40
0.0
 41
0.0
  0
VERTEX
  5
   14B
  8
0
  6
CONTINUOUS
 10
-64.3768230876861
 20
250.739436235042
 30
0.0
 40
0.0
 41
0.0
  0
VERTEX
  5
   14C
  8
0
  6
CONTINUOUS
 10
-64.397155689145
 20
250.787458071323
 30
0.0
 40
0.0
 41
0.0
  0
VERTEX
  5
   14D
  8
0
  6
CONTINUOUS
 10
-64.4198391965211
 20
250.835215950816
 30
0.0
 40
0.0
 41
0.0
  0
VERTEX
  5
   14E
  8
0
  6
CONTINUOUS
 10
-64.4448599461176
 20
250.882681105959
 30
0.0
 40
0.0
 41
0.0
  0
VERTEX
  5
   14F
  8
0
  6
CONTINUOUS
 10
-64.4722028663706
 20
250.929824945518
 30
0.0
 40
0.0
 41
0.0
  0
VERTEX
  5
   150
  8
0
  6
CONTINUOUS
 10
-64.5018514869274
 20
250.976619071807
 30
0.0
 40
0.0
 41
0.0
  0
VERTEX
  5
   151
  8
0
  6
CONTINUOUS
 10
-64.5337879485676
 20
251.023035297794
 30
0.0
 40
0.0
 41
0.0
  0
VERTEX
  5
   152
  8
0
  6
CONTINUOUS
 10
-64.5679930139609
 20
251.069045664079
 30
0.0
 40
0.0
 41
0.0
  0
VERTEX
  5
   153
  8
0
  6
CONTINUOUS
 10
-64.6044460792548
 20
251.114622455739
 30
0.0
 40
0.0
 41
0.0
  0
VERTEX
  5
   154
  8
0
  6
CONTINUOUS
 10
-64.6840070368064
 20
251.204365777869
 30
0.0
 40
0.0
 41
0.0
  0
VERTEX
  5
   155
  8
0
  6
CONTINUOUS
 10
-64.772279151907
 20
251.292049064661
 30
0.0
 40
0.0
 41
0.0
  0
VERTEX
  5
   156
  8
0
  6
CONTINUOUS
 10
-64.8690497692995
 20
251.377461079395
 30
0.0
 40
0.0
 41
0.0
  0
VERTEX
  5
   157
  8
0
  6
CONTINUOUS
 10
-64.9740857600906
 20
251.460396057047
 30
0.0
 40
0.0
 41
0.0
  0
VERTEX
  5
   158
  8
0
  6
CONTINUOUS
 10
-65.0871340833784
 20
251.540654199993
 30
0.0
 40
0.0
 41
0.0
  0
VERTEX
  5
   159
  8
0
  6
CONTINUOUS
 10
-65.2079223958502
 20
251.618042159335
 30
0.0
 40
0.0
 41
0.0
  0
VERTEX
  5
   15A
  8
0
  6
CONTINUOUS
 10
-65.3361597078815
 20
251.692373500701
 30
0.0
 40
0.0
 41
0.0
  0
VERTEX
  5
   15B
  8
0
  6
CONTINUOUS
 10
-65.4715370845554
 20
251.76346915338
 30
0.0
 40
0.0
 41
0.0
  0
VERTEX
  5
   15C
  8
0
  6
CONTINUOUS
 10
-65.6137283899137
 20
251.831157841716
 30
0.0
 40
0.0
 41
0.0
  0
VERTEX
  5
   15D
  8
0
  6
CONTINUOUS
 10
-65.7623910726473
 20
251.895276497732
 30
0.0
 40
0.0
 41
0.0
  0
VERTEX
  5
   15E
  8
0
  6
CONTINUOUS
 10
-65.9171669913323
 20
251.955670653967
 30
0.0
 40
0.0
 41
0.0
  0
VERTEX
  5
   15F
  8
0
  6
CONTINUOUS
 10
-66.0776832772238
 20
252.01219481561
 30
0.0
 40
0.0
 41
0.0
  0
VERTEX
  5
   160
  8
0
  6
CONTINUOUS
 10
-66.2435532325294
 20
252.064712811005
 30
0.0
 40
0.0
 41
0.0
  0
VERTEX
  5
   161
  8
0
  6
CONTINUOUS
 10
-66.4143772619985
 20
252.113098119701
 30
0.0
 40
0.0
 41
0.0
  0
VERTEX
  5
   162
  8
0
  6
CONTINUOUS
 10
-66.5897438355814
 20
252.157234177251
 30
0.0
 40
0.0
 41
0.0
  0
VERTEX
  5
   163
  8
0
  6
CONTINUOUS
 10
-66.7692304798423
 20
252.197014656026
 30
0.0
 40
0.0
 41
0.0
  0
VERTEX
  5
   164
  8
0
  6
CONTINUOUS
 10
-66.9524047957339
 20
252.232343721369
 30
0.0
 40
0.0
 41
0.0
  0
VERTEX
  5
   165
  8
0
  6
CONTINUOUS
 10
-67.138825500285
 20
252.263136262467
 30
0.0
 40
0.0
 41
0.0
  0
VERTEX
  5
   166
  8
0
  6
CONTINUOUS
 10
-67.3280434896898
 20
252.289318097391
 30
0.0
 40
0.0
 41
0.0
  0
VERTEX
  5
   167
  8
0
  6
CONTINUOUS
 10
-67.5196029212384
 20
252.310826151808
 30
0.0
 40
0.0
 41
0.0
  0
VERTEX
  5
   168
  8
0
  6
CONTINUOUS
 10
-67.7130423114815
 20
252.327608610931
 30
0.0
 40
0.0
 41
0.0
  0
VERTEX
  5
   169
  8
0
  6
CONTINUOUS
 10
-67.9078956479848
 20
252.339625044345
 30
0.0
 40
0.0
 41
0.0
  0
VERTEX
  5
   16A
  8
0
  6
CONTINUOUS
 10
-68.1036935119934
 20
252.346846503411
 30
0.0
 40
0.0
 41
0.0
  0
VERTEX
  5
   16B
  8
0
  6
CONTINUOUS
 10
-68.299964209303
 20
252.349255591
 30
0.0
 40
0.0
 41
0.0
  0
VERTEX
  5
   16C
  8
0
  6
CONTINUOUS
 10
-68.4962349066127
 20
252.34684650341
 30
0.0
 40
0.0
 41
0.0
  0
VERTEX
  5
   16D
  8
0
  6
CONTINUOUS
 10
-68.6920327706213
 20
252.339625044343
 30
0.0
 40
0.0
 41
0.0
  0
VERTEX
  5
   16E
  8
0
  6
CONTINUOUS
 10
-68.8868861071244
 20
252.327608610928
 30
0.0
 40
0.0
 41
0.0
  0
VERTEX
  5
   16F
  8
0
  6
CONTINUOUS
 10
-69.0803254973675
 20
252.310826151804
 30
0.0
 40
0.0
 41
0.0
  0
VERTEX
  5
   170
  8
0
  6
CONTINUOUS
 10
-69.2718849289159
 20
252.289318097386
 30
0.0
 40
0.0
 41
0.0
  0
VERTEX
  5
   171
  8
0
  6
CONTINUOUS
 10
-69.4611029183207
 20
252.263136262461
 30
0.0
 40
0.0
 41
0.0
  0
VERTEX
  5
   172
  8
0
  6
CONTINUOUS
 10
-69.6475236228716
 20
252.232343721362
 30
0.0
 40
0.0
 41
0.0
  0
VERTEX
  5
   173
  8
0
  6
CONTINUOUS
 10
-69.830697938763
 20
252.197014656018
 30
0.0
 40
0.0
 41
0.0
  0
VERTEX
  5
   174
  8
0
  6
CONTINUOUS
 10
-70.0101845830237
 20
252.157234177242
 30
0.0
 40
0.0
 41
0.0
  0
VERTEX
  5
   175
  8
0
  6
CONTINUOUS
 10
-70.1855511566064
 20
252.113098119692
 30
0.0
 40
0.0
 41
0.0
  0
VERTEX
  5
   176
  8
0
  6
CONTINUOUS
 10
-70.3563751860752
 20
252.064712810995
 30
0.0
 40
0.0
 41
0.0
  0
VERTEX
  5
   177
  8
0
  6
CONTINUOUS
 10
-70.5222451413806
 20
252.012194815599
 30
0.0
 40
0.0
 41
0.0
  0
VERTEX
  5
   178
  8
0
  6
CONTINUOUS
 10
-70.6827614272718
 20
251.955670653955
 30
0.0
 40
0.0
 41
0.0
  0
VERTEX
  5
   179
  8
0
  6
CONTINUOUS
 10
-70.8375373459565
 20
251.895276497719
 30
0.0
 40
0.0
 41
0.0
  0
VERTEX
  5
   17A
  8
0
  6
CONTINUOUS
 10
-70.9862000286898
 20
251.831157841703
 30
0.0
 40
0.0
 41
0.0
  0
VERTEX
  5
   17B
  8
0
  6
CONTINUOUS
 10
-71.1283913340478
 20
251.763469153366
 30
0.0
 40
0.0
 41
0.0
  0
VERTEX
  5
   17C
  8
0
  6
CONTINUOUS
 10
-71.2637687107212
 20
251.692373500686
 30
0.0
 40
0.0
 41
0.0
  0
VERTEX
  5
   17D
  8
0
  6
CONTINUOUS
 10
-71.3920060227521
 20
251.618042159319
 30
0.0
 40
0.0
 41
0.0
  0
VERTEX
  5
   17E
  8
0
  6
CONTINUOUS
 10
-71.5127943352236
 20
251.540654199976
 30
0.0
 40
0.0
 41
0.0
  0
VERTEX
  5
   17F
  8
0
  6
CONTINUOUS
 10
-71.625842658511
 20
251.460396057031
 30
0.0
 40
0.0
 41
0.0
  0
VERTEX
  5
   180
  8
0
  6
CONTINUOUS
 10
-71.7308786493017
 20
251.377461079378
 30
0.0
 40
0.0
 41
0.0
  0
VERTEX
  5
   181
  8
0
  6
CONTINUOUS
 10
-71.8276492666938
 20
251.292049064643
 30
0.0
 40
0.0
 41
0.0
  0
VERTEX
  5
   182
  8
0
  6
CONTINUOUS
 10
-71.9159213817939
 20
251.204365777851
 30
0.0
 40
0.0
 41
0.0
  0
VERTEX
  5
   183
  8
0
  6
CONTINUOUS
 10
-71.9954823393451
 20
251.114622455721
 30
0.0
 40
0.0
 41
0.0
  0
VERTEX
  5
   184
  8
0
  6
CONTINUOUS
 10
-72.0319354046388
 20
251.06904566406
 30
0.0
 40
0.0
 41
0.0
  0
VERTEX
  5
   185
  8
0
  6
CONTINUOUS
 10
-72.0661404700318
 20
251.023035297775
 30
0.0
 40
0.0
 41
0.0
  0
VERTEX
  5
   186
  8
0
  6
CONTINUOUS
 10
-72.0980769316717
 20
250.976619071788
 30
0.0
 40
0.0
 41
0.0
  0
VERTEX
  5
   187
  8
0
  6
CONTINUOUS
 10
-72.1277255522283
 20
250.929824945499
 30
0.0
 40
0.0
 41
0.0
  0
VERTEX
  5
   188
  8
0
  6
CONTINUOUS
 10
-72.1550684724811
 20
250.88268110594
 30
0.0
 40
0.0
 41
0.0
  0
VERTEX
  5
   189
  8
0
  6
CONTINUOUS
 10
-72.1800892220774
 20
250.835215950796
 30
0.0
 40
0.0
 41
0.0
  0
VERTEX
  5
   18A
  8
0
  6
CONTINUOUS
 10
-72.2027727294532
 20
250.787458071304
 30
0.0
 40
0.0
 41
0.0
  0
VERTEX
  5
   18B
  8
0
  6
CONTINUOUS
 10
-72.2231053309119
 20
250.739436235022
 30
0.0
 40
0.0
 41
0.0
  0
VERTEX
  5
   18C
  8
0
  6
CONTINUOUS
 10
-72.2410747788546
 20
250.69117936851
 30
0.0
 40
0.0
 41
0.0
  0
VERTEX
  5
   18D
  8
0
  6
CONTINUOUS
 10
-72.2566702491579
 20
250.642716539901
 30
0.0
 40
0.0
 41
0.0
  0
VERTEX
  5
   18E
  8
0
  6
CONTINUOUS
 10
-72.2698823476935
 20
250.594076941388
 30
0.0
 40
0.0
 41
0.0
  0
VERTEX
  5
   18F
  8
0
  6
CONTINUOUS
 10
-72.2807031159873
 20
250.545289871649
 30
0.0
 40
0.0
 41
0.0
  0
VERTEX
  5
   190
  8
0
  6
CONTINUOUS
 10
-72.2891260360131
 20
250.496384718189
 30
0.0
 40
0.0
 41
0.0
  0
VERTEX
  5
   191
  8
0
  6
CONTINUOUS
 10
-72.2951460341189
 20
250.447390939645
 30
0.0
 40
0.0
 41
0.0
  0
VERTEX
  5
   192
  8
0
  6
CONTINUOUS
 10
-72.298759484083
 20
250.398338048035
 30
0.0
 40
0.0
 41
0.0
  0
VERTEX
  5
   193
  8
0
  6
CONTINUOUS
 10
-72.299964209298
 20
250.34925559099
 30
0.0
 40
0.0
 41
0.0
  0
SEQEND
  5
   194
  8
0
  6
CONTINUOUS
 62
   218
  0
POLYLINE
  5
   195
  8
0
  6
CONTINUOUS
 62
   218
 66
     1
 10
0.0
 20
0.0
 30
0.0
  0
VERTEX
  5
   196
  8
0
  6
CONTINUOUS
 10
-56.299964209298
 20
250.349255591015
 30
0.0
 40
0.0
 41
0.0
  0
VERTEX
  5
   197
  8
0
  6
CONTINUOUS
 10
-56.3011689345136
 20
250.398338048061
 30
0.0
 40
0.0
 41
0.0
  0
VERTEX
  5
   198
  8
0
  6
CONTINUOUS
 10
-56.3047823844781
 20
250.44739093967
 30
0.0
 40
0.0
 41
0.0
  0
VERTEX
  5
   199
  8
0
  6
CONTINUOUS
 10
-56.3108023825844
 20
250.496384718214
 30
0.0
 40
0.0
 41
0.0
  0
VERTEX
  5
   19A
  8
0
  6
CONTINUOUS
 10
-56.3192253026107
 20
250.545289871674
 30
0.0
 40
0.0
 41
0.0
  0
VERTEX
  5
   19B
  8
0
  6
CONTINUOUS
 10
-56.3300460709051
 20
250.594076941413
 30
0.0
 40
0.0
 41
0.0
  0
VERTEX
  5
   19C
  8
0
  6
CONTINUOUS
 10
-56.3432581694412
 20
250.642716539926
 30
0.0
 40
0.0
 41
0.0
  0
VERTEX
  5
   19D
  8
0
  6
CONTINUOUS
 10
-56.3588536397449
 20
250.691179368535
 30
0.0
 40
0.0
 41
0.0
  0
VERTEX
  5
   19E
  8
0
  6
CONTINUOUS
 10
-56.3768230876882
 20
250.739436235047
 30
0.0
 40
0.0
 41
0.0
  0
VERTEX
  5
   19F
  8
0
  6
CONTINUOUS
 10
-56.3971556891474
 20
250.787458071328
 30
0.0
 40
0.0
 41
0.0
  0
VERTEX
  5
   1A0
  8
0
  6
CONTINUOUS
 10
-56.4198391965237
 20
250.835215950821
 30
0.0
 40
0.0
 41
0.0
  0
VERTEX
  5
   1A1
  8
0
  6
CONTINUOUS
 10
-56.4448599461205
 20
250.882681105964
 30
0.0
 40
0.0
 41
0.0
  0
VERTEX
  5
   1A2
  8
0
  6
CONTINUOUS
 10
-56.4722028663738
 20
250.929824945523
 30
0.0
 40
0.0
 41
0.0
  0
VERTEX
  5
   1A3
  8
0
  6
CONTINUOUS
 10
-56.5018514869309
 20
250.976619071812
 30
0.0
 40
0.0
 41
0.0
  0
VERTEX
  5
   1A4
  8
0
  6
CONTINUOUS
 10
-56.5337879485714
 20
251.023035297799
 30
0.0
 40
0.0
 41
0.0
  0
VERTEX
  5
   1A5
  8
0
  6
CONTINUOUS
 10
-56.5679930139649
 20
251.069045664084
 30
0.0
 40
0.0
 41
0.0
  0
VERTEX
  5
   1A6
  8
0
  6
CONTINUOUS
 10
-56.6044460792591
 20
251.114622455744
 30
0.0
 40
0.0
 41
0.0
  0
VERTEX
  5
   1A7
  8
0
  6
CONTINUOUS
 10
-56.6840070368113
 20
251.204365777875
 30
0.0
 40
0.0
 41
0.0
  0
VERTEX
  5
   1A8
  8
0
  6
CONTINUOUS
 10
-56.7722791519124
 20
251.292049064666
 30
0.0
 40
0.0
 41
0.0
  0
VERTEX
  5
   1A9
  8
0
  6
CONTINUOUS
 10
-56.8690497693056
 20
251.3774610794
 30
0.0
 40
0.0
 41
0.0
  0
VERTEX
  5
   1AA
  8
0
  6
CONTINUOUS
 10
-56.9740857600973
 20
251.460396057052
 30
0.0
 40
0.0
 41
0.0
  0
VERTEX
  5
   1AB
  8
0
  6
CONTINUOUS
 10
-57.0871340833856
 20
251.540654199997
 30
0.0
 40
0.0
 41
0.0
  0
VERTEX
  5
   1AC
  8
0
  6
CONTINUOUS
 10
-57.207922395858
 20
251.61804215934
 30
0.0
 40
0.0
 41
0.0
  0
VERTEX
  5
   1AD
  8
0
  6
CONTINUOUS
 10
-57.3361597078899
 20
251.692373500706
 30
0.0
 40
0.0
 41
0.0
  0
VERTEX
  5
   1AE
  8
0
  6
CONTINUOUS
 10
-57.4715370845643
 20
251.763469153384
 30
0.0
 40
0.0
 41
0.0
  0
VERTEX
  5
   1AF
  8
0
  6
CONTINUOUS
 10
-57.6137283899231
 20
251.831157841721
 30
0.0
 40
0.0
 41
0.0
  0
VERTEX
  5
   1B0
  8
0
  6
CONTINUOUS
 10
-57.7623910726573
 20
251.895276497736
 30
0.0
 40
0.0
 41
0.0
  0
VERTEX
  5
   1B1
  8
0
  6
CONTINUOUS
 10
-57.9171669913428
 20
251.955670653971
 30
0.0
 40
0.0
 41
0.0
  0
VERTEX
  5
   1B2
  8
0
  6
CONTINUOUS
 10
-58.0776832772348
 20
252.012194815614
 30
0.0
 40
0.0
 41
0.0
  0
VERTEX
  5
   1B3
  8
0
  6
CONTINUOUS
 10
-58.2435532325409
 20
252.064712811009
 30
0.0
 40
0.0
 41
0.0
  0
VERTEX
  5
   1B4
  8
0
  6
CONTINUOUS
 10
-58.4143772620104
 20
252.113098119704
 30
0.0
 40
0.0
 41
0.0
  0
VERTEX
  5
   1B5
  8
0
  6
CONTINUOUS
 10
-58.5897438355938
 20
252.157234177254
 30
0.0
 40
0.0
 41
0.0
  0
VERTEX
  5
   1B6
  8
0
  6
CONTINUOUS
 10
-58.7692304798551
 20
252.197014656029
 30
0.0
 40
0.0
 41
0.0
  0
VERTEX
  5
   1B7
  8
0
  6
CONTINUOUS
 10
-58.952404795747
 20
252.232343721371
 30
0.0
 40
0.0
 41
0.0
  0
VERTEX
  5
   1B8
  8
0
  6
CONTINUOUS
 10
-59.1388255002985
 20
252.263136262469
 30
0.0
 40
0.0
 41
0.0
  0
VERTEX
  5
   1B9
  8
0
  6
CONTINUOUS
 10
-59.3280434897037
 20
252.289318097393
 30
0.0
 40
0.0
 41
0.0
  0
VERTEX
  5
   1BA
  8
0
  6
CONTINUOUS
 10
-59.5196029212526
 20
252.31082615181
 30
0.0
 40
0.0
 41
0.0
  0
VERTEX
  5
   1BB
  8
0
  6
CONTINUOUS
 10
-59.713042311496
 20
252.327608610932
 30
0.0
 40
0.0
 41
0.0
  0
VERTEX
  5
   1BC
  8
0
  6
CONTINUOUS
 10
-59.9078956479995
 20
252.339625044346
 30
0.0
 40
0.0
 41
0.0
  0
VERTEX
  5
   1BD
  8
0
  6
CONTINUOUS
 10
-60.1036935120083
 20
252.346846503411
 30
0.0
 40
0.0
 41
0.0
  0
VERTEX
  5
   1BE
  8
0
  6
CONTINUOUS
 10
-60.2999642093181
 20
252.349255591
 30
0.0
 40
0.0
 41
0.0
  0
VERTEX
  5
   1BF
  8
0
  6
CONTINUOUS
 10
-60.4962349066279
 20
252.346846503409
 30
0.0
 40
0.0
 41
0.0
  0
VERTEX
  5
   1C0
  8
0
  6
CONTINUOUS
 10
-60.6920327706366
 20
252.339625044342
 30
0.0
 40
0.0
 41
0.0
  0
VERTEX
  5
   1C1
  8
0
  6
CONTINUOUS
 10
-60.8868861071398
 20
252.327608610927
 30
0.0
 40
0.0
 41
0.0
  0
VERTEX
  5
   1C2
  8
0
  6
CONTINUOUS
 10
-61.0803254973829
 20
252.310826151803
 30
0.0
 40
0.0
 41
0.0
  0
VERTEX
  5
   1C3
  8
0
  6
CONTINUOUS
 10
-61.2718849289313
 20
252.289318097384
 30
0.0
 40
0.0
 41
0.0
  0
VERTEX
  5
   1C4
  8
0
  6
CONTINUOUS
 10
-61.461102918336
 20
252.263136262459
 30
0.0
 40
0.0
 41
0.0
  0
VERTEX
  5
   1C5
  8
0
  6
CONTINUOUS
 10
-61.6475236228869
 20
252.23234372136
 30
0.0
 40
0.0
 41
0.0
  0
VERTEX
  5
   1C6
  8
0
  6
CONTINUOUS
 10
-61.8306979387781
 20
252.197014656015
 30
0.0
 40
0.0
 41
0.0
  0
VERTEX
  5
   1C7
  8
0
  6
CONTINUOUS
 10
-62.0101845830386
 20
252.157234177239
 30
0.0
 40
0.0
 41
0.0
  0
VERTEX
  5
   1C8
  8
0
  6
CONTINUOUS
 10
-62.1855511566211
 20
252.113098119688
 30
0.0
 40
0.0
 41
0.0
  0
VERTEX
  5
   1C9
  8
0
  6
CONTINUOUS
 10
-62.3563751860896
 20
252.064712810991
 30
0.0
 40
0.0
 41
0.0
  0
VERTEX
  5
   1CA
  8
0
  6
CONTINUOUS
 10
-62.5222451413947
 20
252.012194815594
 30
0.0
 40
0.0
 41
0.0
  0
VERTEX
  5
   1CB
  8
0
  6
CONTINUOUS
 10
-62.6827614272855
 20
251.95567065395
 30
0.0
 40
0.0
 41
0.0
  0
VERTEX
  5
   1CC
  8
0
  6
CONTINUOUS
 10
-62.8375373459698
 20
251.895276497713
 30
0.0
 40
0.0
 41
0.0
  0
VERTEX
  5
   1CD
  8
0
  6
CONTINUOUS
 10
-62.9862000287027
 20
251.831157841697
 30
0.0
 40
0.0
 41
0.0
  0
VERTEX
  5
   1CE
  8
0
  6
CONTINUOUS
 10
-63.1283913340602
 20
251.763469153359
 30
0.0
 40
0.0
 41
0.0
  0
VERTEX
  5
   1CF
  8
0
  6
CONTINUOUS
 10
-63.2637687107331
 20
251.69237350068
 30
0.0
 40
0.0
 41
0.0
  0
VERTEX
  5
   1D0
  8
0
  6
CONTINUOUS
 10
-63.3920060227635
 20
251.618042159312
 30
0.0
 40
0.0
 41
0.0
  0
VERTEX
  5
   1D1
  8
0
  6
CONTINUOUS
 10
-63.5127943352343
 20
251.540654199969
 30
0.0
 40
0.0
 41
0.0
  0
VERTEX
  5
   1D2
  8
0
  6
CONTINUOUS
 10
-63.6258426585211
 20
251.460396057023
 30
0.0
 40
0.0
 41
0.0
  0
VERTEX
  5
   1D3
  8
0
  6
CONTINUOUS
 10
-63.7308786493111
 20
251.37746107937
 30
0.0
 40
0.0
 41
0.0
  0
VERTEX
  5
   1D4
  8
0
  6
CONTINUOUS
 10
-63.8276492667025
 20
251.292049064635
 30
0.0
 40
0.0
 41
0.0
  0
VERTEX
  5
   1D5
  8
0
  6
CONTINUOUS
 10
-63.9159213818019
 20
251.204365777843
 30
0.0
 40
0.0
 41
0.0
  0
VERTEX
  5
   1D6
  8
0
  6
CONTINUOUS
 10
-63.9954823393523
 20
251.114622455712
 30
0.0
 40
0.0
 41
0.0
  0
VERTEX
  5
   1D7
  8
0
  6
CONTINUOUS
 10
-64.0319354046456
 20
251.069045664051
 30
0.0
 40
0.0
 41
0.0
  0
VERTEX
  5
   1D8
  8
0
  6
CONTINUOUS
 10
-64.0661404700382
 20
251.023035297766
 30
0.0
 40
0.0
 41
0.0
  0
VERTEX
  5
   1D9
  8
0
  6
CONTINUOUS
 10
-64.0980769316777
 20
250.976619071779
 30
0.0
 40
0.0
 41
0.0
  0
VERTEX
  5
   1DA
  8
0
  6
CONTINUOUS
 10
-64.1277255522339
 20
250.92982494549
 30
0.0
 40
0.0
 41
0.0
  0
VERTEX
  5
   1DB
  8
0
  6
CONTINUOUS
 10
-64.1550684724862
 20
250.882681105931
 30
0.0
 40
0.0
 41
0.0
  0
VERTEX
  5
   1DC
  8
0
  6
CONTINUOUS
 10
-64.1800892220821
 20
250.835215950787
 30
0.0
 40
0.0
 41
0.0
  0
VERTEX
  5
   1DD
  8
0
  6
CONTINUOUS
 10
-64.2027727294575
 20
250.787458071294
 30
0.0
 40
0.0
 41
0.0
  0
VERTEX
  5
   1DE
  8
0
  6
CONTINUOUS
 10
-64.2231053309157
 20
250.739436235013
 30
0.0
 40
0.0
 41
0.0
  0
VERTEX
  5
   1DF
  8
0
  6
CONTINUOUS
 10
-64.241074778858
 20
250.691179368501
 30
0.0
 40
0.0
 41
0.0
  0
VERTEX
  5
   1E0
  8
0
  6
CONTINUOUS
 10
-64.2566702491608
 20
250.642716539891
 30
0.0
 40
0.0
 41
0.0
  0
VERTEX
  5
   1E1
  8
0
  6
CONTINUOUS
 10
-64.2698823476959
 20
250.594076941378
 30
0.0
 40
0.0
 41
0.0
  0
VERTEX
  5
   1E2
  8
0
  6
CONTINUOUS
 10
-64.2807031159892
 20
250.545289871639
 30
0.0
 40
0.0
 41
0.0
  0
VERTEX
  5
   1E3
  8
0
  6
CONTINUOUS
 10
-64.2891260360146
 20
250.496384718179
 30
0.0
 40
0.0
 41
0.0
  0
VERTEX
  5
   1E4
  8
0
  6
CONTINUOUS
 10
-64.2951460341199
 20
250.447390939635
 30
0.0
 40
0.0
 41
0.0
  0
VERTEX
  5
   1E5
  8
0
  6
CONTINUOUS
 10
-64.2987594840834
 20
250.398338048025
 30
0.0
 40
0.0
 41
0.0
  0
VERTEX
  5
   1E6
  8
0
  6
CONTINUOUS
 10
-64.299964209298
 20
250.34925559098
 30
0.0
 40
0.0
 41
0.0
  0
SEQEND
  5
   1E7
  8
0
  6
CONTINUOUS
 62
   218
  0
INSERT
  5
   1E8
  8
0
  6
CONTINUOUS
 62
   218
  2
*HATCH88
 10
0.0
 20
0.0
 30
0.0
  0
LINE
  5
   1E9
  8
0
  6
CONTINUOUS
 62
   218
 10
-62.878366952658
 20
208.737096448576
 30
0.0
 11
-58.8228463963633
 21
231.737096448576
 31
0.0
  0
LINE
  5
   1EA
  8
0
  6
CONTINUOUS
 62
   218
 10
-61.456769696018
 20
208.737096448575
 30
0.0
 11
-58.099964209298
 21
227.774486377403
 31
0.0
  0
LINE
  5
   1EB
  8
0
  6
CONTINUOUS
 62
   218
 10
-60.035172439378
 20
208.737096448575
 30
0.0
 11
-58.099964209298
 21
219.712207701002
 31
0.0
  0
LINE
  5
   1EC
  8
0
  6
CONTINUOUS
 62
   218
 10
-58.613575182738
 20
208.737096448575
 30
0.0
 11
-58.0999642092981
 21
211.649929024601
 31
0.0
  0
LINE
  5
   1ED
  8
0
  6
CONTINUOUS
 62
   218
 10
-65.7215614659381
 20
208.737096448575
 30
0.0
 11
-61.6660409096434
 21
231.737096448576
 31
0.0
  0
LINE
  5
   1EE
  8
0
  6
CONTINUOUS
 62
   218
 10
-67.1431587225781
 20
208.737096448575
 30
0.0
 11
-63.0876381662835
 21
231.737096448575
 31
0.0
  0
LINE
  5
   1EF
  8
0
  6
CONTINUOUS
 62
   218
 10
-68.5647559792182
 20
208.737096448576
 30
0.0
 11
-64.5092354229235
 21
231.737096448576
 31
0.0
  0
LINE
  5
   1F0
  8
0
  6
CONTINUOUS
 62
   218
 10
-69.9863532358582
 20
208.737096448575
 30
0.0
 11
-65.9308326795636
 21
231.737096448575
 31
0.0
  0
LINE
  5
   1F1
  8
0
  6
CONTINUOUS
 62
   218
 10
-70.499964209298
 20
213.886542548952
 30
0.0
 11
-67.3524299362037
 21
231.737096448576
 31
0.0
  0
LINE
  5
   1F2
  8
0
  6
CONTINUOUS
 62
   218
 10
-70.4999642092981
 20
221.948821225353
 30
0.0
 11
-68.7740271928438
 21
231.737096448575
 31
0.0
  0
LINE
  5
   1F3
  8
0
  6
CONTINUOUS
 62
   218
 10
-70.499964209298
 20
230.011099901754
 30
0.0
 11
-70.1956244494838
 21
231.737096448575
 31
0.0
  0
ENDBLK
  5
   1F4
  8
0
  6
CONTINUOUS
 62
     7
  0
BLOCK
  5
   1F5
  8
0
  6
CONTINUOUS
 62
     7
  2
159488
 70
    64
 10
0.0
 20
0.0
 30
0.0
  3
159488
  0
LINE
  5
   1F6
  8
0
  6
CONTINUOUS
 62
     3
 10
-77.999964209298
 20
207.237096448575
 30
0.0
 11
-77.999964209298
 21
227.237096448575
 31
0.0
  0
LINE
  5
   1F7
  8
0
  6
DASHDOT
 62
     3
 10
-82.6696138350863
 20
217.237096448575
 30
0.0
 11
-29.4109503494068
 21
217.237096448575
 31
0.0
  0
LINE
  5
   1F8
  8
0
  6
CONTINUOUS
 62
     3
 10
-75.499964209298
 20
207.237096448575
 30
0.0
 11
-75.499964209298
 21
213.237096448575
 31
0.0
  0
LINE
  5
   1F9
  8
0
  6
CONTINUOUS
 62
     3
 10
-77.999964209298
 20
227.237096448575
 30
0.0
 11
-70.499964209298
 21
227.237096448575
 31
0.0
  0
LINE
  5
   1FA
  8
0
  6
CONTINUOUS
 62
     3
 10
-77.999964209298
 20
207.237096448575
 30
0.0
 11
-75.499964209298
 21
207.237096448575
 31
0.0
  0
LINE
  5
   1FB
  8
0
  6
CONTINUOUS
 62
     3
 10
-38.999964209298
 20
209.237096448575
 30
0.0
 11
-38.999964209298
 21
211.237096448575
 31
0.0
  0
ARC
  5
   1FC
  8
0
  6
CONTINUOUS
 62
     3
 10
-75.499964209298
 20
217.237096448575
 30
0.0
 40
4.0
 50
0.0
 51
90.0
  0
ARC
  5
   1FD
  8
0
  6
CONTINUOUS
 62
     3
 10
-40.999964209298
 20
225.237096448575
 30
0.0
 40
2.0
 50
0.0
 51
90.0
  0
ARC
  5
   1FE
  8
0
  6
CONTINUOUS
 62
     3
 10
-40.999964209298
 20
209.237096448575
 30
0.0
 40
2.0
 50
270.0
 51
360.0
  0
ARC
  5
   1FF
  8
0
  6
CONTINUOUS
 62
     3
 10
-75.499964209298
 20
217.237096448575
 30
0.0
 40
4.0
 50
270.0
 51
360.0
  0
ARC
  5
   200
  8
0
  6
CONTINUOUS
 62
     3
 10
-75.499964209298
 20
217.237096448575
 30
0.0
 40
2.0
 50
262.819244218542
 51
457.180755781458
  0
ARC
  5
   201
  8
0
  6
CONTINUOUS
 62
     3
 10
-75.999964209298
 20
221.205723415172
 30
0.0
 40
2.0
 50
180.0
 51
277.180755781458
  0
ARC
  5
   202
  8
0
  6
CONTINUOUS
 62
     3
 10
-75.999964209298
 20
213.268469481978
 30
0.0
 40
2.0
 50
82.8192442185417
 51
180.0
  0
LINE
  5
   203
  8
0
  6
CONTINUOUS
 62
     3
 10
-75.499964209298
 20
221.237096448575
 30
0.0
 11
-75.499964209298
 21
227.237096448575
 31
0.0
  0
LINE
  5
   204
  8
0
  6
CONTINUOUS
 62
     3
 10
-46.499964209298
 20
207.237096448575
 30
0.0
 11
-46.499964209298
 21
211.237096448575
 31
0.0
  0
LINE
  5
   205
  8
0
  6
CONTINUOUS
 62
     3
 10
-42.499964209298
 20
207.237096448575
 30
0.0
 11
-42.499964209298
 21
211.237096448575
 31
0.0
  0
LINE
  5
   206
  8
0
  6
CONTINUOUS
 62
     3
 10
-46.499964209298
 20
222.237096448575
 30
0.0
 11
-42.499964209298
 21
222.237096448575
 31
0.0
  0
LINE
  5
   207
  8
0
  6
CONTINUOUS
 62
     3
 10
-46.499964209298
 20
212.237096448575
 30
0.0
 11
-42.499964209298
 21
212.237096448575
 31
0.0
  0
LINE
  5
   208
  8
0
  6
CONTINUOUS
 62
     3
 10
-46.499964209298
 20
223.237096448575
 30
0.0
 11
-42.499964209298
 21
223.237096448575
 31
0.0
  0
LINE
  5
   209
  8
0
  6
CONTINUOUS
 62
     3
 10
-46.499964209298
 20
211.237096448575
 30
0.0
 11
-42.499964209298
 21
211.237096448575
 31
0.0
  0
INSERT
  5
   20A
  8
255
  6
CONTINUOUS
 62
     7
  2
146558
 10
0.0
 20
0.0
 30
0.0
  0
LINE
  5
   20B
  8
0
  6
CONTINUOUS
 62
     3
 10
-70.499964209298
 20
207.237096448575
 30
0.0
 11
-40.999964209298
 21
207.237096448575
 31
0.0
  0
INSERT
  5
   20C
  8
0
  6
CONTINUOUS
 62
    98
  2
*HATCH85
 10
0.0
 20
0.0
 30
0.0
  0
INSERT
  5
   20D
  8
0
  6
CONTINUOUS
 62
    98
  2
*HATCH86
 10
0.0
 20
0.0
 30
0.0
  0
INSERT
  5
   20E
  8
0
  6
CONTINUOUS
 62
    98
  2
*HATCH87
 10
0.0
 20
0.0
 30
0.0
  0
LINE
  5
   20F
  8
0
  6
DOT
 62
     3
 10
-70.499964209298
 20
227.237096448575
 30
0.0
 11
-58.099964209298
 21
227.237096448575
 31
0.0
  0
LINE
  5
   210
  8
0
  6
CONTINUOUS
 62
     3
 10
-58.099964209298
 20
227.237096448575
 30
0.0
 11
-40.999964209298
 21
227.237096448575
 31
0.0
  0
INSERT
  5
   211
  8
255
  6
CONTINUOUS
 62
     7
  2
$1CAVO
 10
0.0
 20
0.0
 30
0.0
  0
LINE
  5
   212
  8
0
  6
CONTINUOUS
 62
     3
 10
-46.499964209298
 20
223.237096448575
 30
0.0
 11
-46.499964209298
 21
227.237096448575
 31
0.0
  0
LINE
  5
   213
  8
0
  6
CONTINUOUS
 62
     3
 10
-42.499964209298
 20
223.237096448575
 30
0.0
 11
-42.499964209298
 21
227.237096448575
 31
0.0
  0
LINE
  5
   214
  8
0
  6
CONTINUOUS
 62
     3
 10
-38.999964209298
 20
223.237096448575
 30
0.0
 11
-38.999964209298
 21
225.237096448575
 31
0.0
  0
ENDBLK
  5
   215
  8
0
  6
CONTINUOUS
 62
     7
  0
BLOCK
  5
   216
  8
0
  6
CONTINUOUS
 62
     0
  2
*HATCH89
 70
    65
 10
0.0
 20
0.0
 30
0.0
  3
*HATCH89
  0
LINE
  5
   217
  8
0
  6
CONTINUOUS
 62
   210
 10
0.514719009399414
 20
9.0
 30
0.0
 11
0.0
 21
8.48528099060059
 31
0.0
  0
LINE
  5
   218
  8
0
  6
CONTINUOUS
 62
   210
 10
2.63603949546814
 20
9.0
 30
0.0
 11
0.0
 21
6.36396074295044
 31
0.0
  0
LINE
  5
   219
  8
0
  6
CONTINUOUS
 62
   210
 10
4.75735998153687
 20
9.0
 30
0.0
 11
0.0
 21
4.24264049530029
 31
0.0
  0
LINE
  5
   21A
  8
0
  6
CONTINUOUS
 62
   210
 10
6.87868022918701
 20
9.0
 30
0.0
 11
1.87867987155914
 21
4.0
 31
0.0
  0
LINE
  5
   21B
  8
0
  6
CONTINUOUS
 62
   210
 10
9.00000095367432
 20
9.0
 30
0.0
 11
4.00000047683716
 21
4.0
 31
0.0
  0
LINE
  5
   21C
  8
0
  6
CONTINUOUS
 62
   210
 10
11.1213216781616
 20
9.0
 30
0.0
 11
6.1213207244873
 21
4.0
 31
0.0
  0
LINE
  5
   21D
  8
0
  6
CONTINUOUS
 62
   210
 10
13.2426424026489
 20
9.0
 30
0.0
 11
8.24264144897461
 21
4.0
 31
0.0
  0
LINE
  5
   21E
  8
0
  6
CONTINUOUS
 62
   210
 10
15.0
 20
8.63603782653809
 30
0.0
 11
10.3639612197876
 21
4.0
 31
0.0
  0
LINE
  5
   21F
  8
0
  6
CONTINUOUS
 62
   210
 10
15.0
 20
6.51471757888794
 30
0.0
 11
12.4852819442749
 21
4.0
 31
0.0
  0
LINE
  5
   220
  8
0
  6
CONTINUOUS
 62
   210
 10
15.0
 20
4.39339733123779
 30
0.0
 11
14.6066026687622
 21
4.0
 31
0.0
  0
ENDBLK
  5
   221
  8
0
  6
CONTINUOUS
 62
     0
  0
BLOCK
  5
   222
  8
0
  6
CONTINUOUS
 62
     0
  2
*HATCH90
 70
    65
 10
0.0
 20
0.0
 30
0.0
  3
*HATCH90
  0
LINE
  5
   223
  8
0
  6
CONTINUOUS
 62
   210
 10
0.242640540003777
 20
-4.0
 30
0.0
 11
0.0
 21
-4.24264049530029
 31
0.0
  0
LINE
  5
   224
  8
0
  6
CONTINUOUS
 62
   210
 10
2.36396098136902
 20
-4.0
 30
0.0
 11
0.0
 21
-6.36396074295044
 31
0.0
  0
LINE
  5
   225
  8
0
  6
CONTINUOUS
 62
   210
 10
-4.13603973388672
 20
-10.5
 30
0.0
 11
-5.0
 21
-11.3639602661133
 31
0.0
  0
LINE
  5
   226
  8
0
  6
CONTINUOUS
 62
   210
 10
4.48528146743774
 20
-4.0
 30
0.0
 11
0.0
 21
-8.48528099060059
 31
0.0
  0
LINE
  5
   227
  8
0
  6
CONTINUOUS
 62
   210
 10
-2.01471948623657
 20
-10.5
 30
0.0
 11
-5.0
 21
-13.4852809906006
 31
0.0
  0
LINE
  5
   228
  8
0
  6
CONTINUOUS
 62
   210
 10
6.60660171508789
 20
-4.0
 30
0.0
 11
-2.89339900016785
 21
-13.5
 31
0.0
  0
LINE
  5
   229
  8
0
  6
CONTINUOUS
 62
   210
 10
8.7279224395752
 20
-4.0
 30
0.0
 11
-0.7720787525177
 21
-13.5
 31
0.0
  0
LINE
  5
   22A
  8
0
  6
CONTINUOUS
 62
   210
 10
10.8492431640625
 20
-4.0
 30
0.0
 11
1.34924149513245
 21
-13.5
 31
0.0
  0
LINE
  5
   22B
  8
0
  6
CONTINUOUS
 62
   210
 10
12.9705638885498
 20
-4.0
 30
0.0
 11
3.47056174278259
 21
-13.5
 31
0.0
  0
LINE
  5
   22C
  8
0
  6
CONTINUOUS
 62
   210
 10
15.0
 20
-4.09188365936279
 30
0.0
 11
5.59188270568848
 21
-13.5
 31
0.0
  0
LINE
  5
   22D
  8
0
  6
CONTINUOUS
 62
   210
 10
15.0
 20
-6.21320390701294
 30
0.0
 11
7.71320295333862
 21
-13.5
 31
0.0
  0
LINE
  5
   22E
  8
0
  6
CONTINUOUS
 62
   210
 10
15.0
 20
-8.33452415466309
 30
0.0
 11
9.83452320098877
 21
-13.5
 31
0.0
  0
LINE
  5
   22F
  8
0
  6
CONTINUOUS
 62
   210
 10
15.0
 20
-10.4558448791504
 30
0.0
 11
11.9558429718018
 21
-13.5
 31
0.0
  0
LINE
  5
   230
  8
0
  6
CONTINUOUS
 62
   210
 10
15.0
 20
-12.5771656036377
 30
0.0
 11
14.0771636962891
 21
-13.5
 31
0.0
  0
ENDBLK
  5
   231
  8
0
  6
CONTINUOUS
 62
     0
  0
BLOCK
  5
   232
  8
0
  6
CONTINUOUS
 62
     0
  2
*HATCH91
 70
    65
 10
0.0
 20
0.0
 30
0.0
  3
*HATCH91
  0
LINE
  5
   233
  8
0
  6
CONTINUOUS
 62
   210
 10
15.0
 20
-29.5477275848389
 30
0.0
 11
13.0
 21
-31.5477256774902
 31
0.0
  0
LINE
  5
   234
  8
0
  6
CONTINUOUS
 62
   210
 10
15.0
 20
-31.6690483093262
 30
0.0
 11
13.0
 21
-33.6690444946289
 31
0.0
  0
LINE
  5
   235
  8
0
  6
CONTINUOUS
 62
   210
 10
15.0
 20
-33.7903671264648
 30
0.0
 11
13.0
 21
-35.7903633117676
 31
0.0
  0
LINE
  5
   236
  8
0
  6
CONTINUOUS
 62
   210
 10
15.0
 20
-35.9116859436035
 30
0.0
 11
13.0
 21
-37.9116821289063
 31
0.0
  0
LINE
  5
   237
  8
0
  6
CONTINUOUS
 62
   210
 10
15.0
 20
-38.0330047607422
 30
0.0
 11
13.0
 21
-40.0330009460449
 31
0.0
  0
LINE
  5
   238
  8
0
  6
CONTINUOUS
 62
   210
 10
15.0
 20
-40.1543273925781
 30
0.0
 11
14.1543283462524
 21
-41.0
 31
0.0
  0
ENDBLK
  5
   239
  8
0
  6
CONTINUOUS
 62
     0
  0
BLOCK
  5
   23A
  8
0
  6
CONTINUOUS
 62
     0
  2
*HATCH92
 70
    65
 10
0.0
 20
0.0
 30
0.0
  3
*HATCH92
  0
LINE
  5
   23B
  8
0
  6
CONTINUOUS
 62
   210
 10
-4.04415702819824
 20
-29.5
 30
0.0
 11
-5.0
 21
-30.4558429718018
 31
0.0
  0
LINE
  5
   23C
  8
0
  6
CONTINUOUS
 62
   210
 10
-3.0
 20
-30.5771636962891
 30
0.0
 11
-5.0
 21
-32.5771636962891
 31
0.0
  0
LINE
  5
   23D
  8
0
  6
CONTINUOUS
 62
   210
 10
-3.0
 20
-32.6984825134277
 30
0.0
 11
-5.0
 21
-34.6984825134277
 31
0.0
  0
LINE
  5
   23E
  8
0
  6
CONTINUOUS
 62
   210
 10
-3.0
 20
-34.8198013305664
 30
0.0
 11
-5.0
 21
-36.8198013305664
 31
0.0
  0
LINE
  5
   23F
  8
0
  6
CONTINUOUS
 62
   210
 10
-3.0
 20
-36.9411201477051
 30
0.0
 11
-5.0
 21
-38.9411201477051
 31
0.0
  0
LINE
  5
   240
  8
0
  6
CONTINUOUS
 62
   210
 10
-3.0
 20
-39.062442779541
 30
0.0
 11
-4.93755578994751
 21
-41.0
 31
0.0
  0
ENDBLK
  5
   241
  8
0
  6
CONTINUOUS
 62
     0
  0
BLOCK
  5
   242
  8
0
  6
CONTINUOUS
 62
     0
  2
MORSETTO
 70
    64
 10
0.0
 20
0.0
 30
0.0
  3
MORSETTO
  0
LINE
  5
   243
  8
0
  6
CONTINUOUS
 62
     0
 10
0.0
 20
9.0
 30
0.0
 11
15.0
 21
9.0
 31
0.0
  0
LINE
  5
   244
  8
0
  6
CONTINUOUS
 62
     0
 10
15.0
 20
-41.0
 30
0.0
 11
15.0
 21
-4.0
 31
0.0
  0
LINE
  5
   245
  8
0
  6
CONTINUOUS
 62
     0
 10
-5.0
 20
-41.0
 30
0.0
 11
15.0
 21
-41.0
 31
0.0
  0
LINE
  5
   246
  8
0
  6
CONTINUOUS
 62
     0
 10
-5.0
 20
-41.0
 30
0.0
 11
-5.0
 21
-25.891847175276
 31
0.0
  0
LINE
  5
   247
  8
0
  6
CONTINUOUS
 62
     0
 10
-5.0
 20
-10.5
 30
0.0
 11
0.0
 21
-10.5
 31
0.0
  0
LINE
  5
   248
  8
0
  6
CONTINUOUS
 62
     0
 10
0.0
 20
-10.5
 30
0.0
 11
0.0
 21
-4.0
 31
0.0
  0
LINE
  5
   249
  8
0
  6
CONTINUOUS
 62
     0
 10
-5.0
 20
4.0
 30
0.0
 11
15.5
 21
4.0
 31
0.0
  0
LINE
  5
   24A
  8
0
  6
CONTINUOUS
 62
     0
 10
-5.0
 20
-4.0
 30
0.0
 11
15.5
 21
-4.0
 31
0.0
  0
LINE
  5
   24B
  8
0
  6
CONTINUOUS
 62
     0
 10
-5.0
 20
-13.5
 30
0.0
 11
15.0
 21
-13.5
 31
0.0
  0
LINE
  5
   24C
  8
0
  6
CONTINUOUS
 62
     0
 10
-5.0
 20
-29.5
 30
0.0
 11
-3.0
 21
-29.5
 31
0.0
  0
INSERT
  5
   24D
  8
0
  6
CONTINUOUS
 62
     0
  2
*HATCH89
 10
0.0
 20
0.0
 30
0.0
  0
INSERT
  5
   24E
  8
0
  6
CONTINUOUS
 62
     0
  2
*HATCH90
 10
0.0
 20
0.0
 30
0.0
  0
LINE
  5
   24F
  8
0
  6
CONTINUOUS
 62
     0
 10
-3.0
 20
-41.0
 30
0.0
 11
-3.0
 21
-26.891847175276
 31
0.0
  0
LINE
  5
   250
  8
0
  6
CONTINUOUS
 62
     0
 10
13.0
 20
-41.0
 30
0.0
 11
13.0
 21
-26.891847175276
 31
0.0
  0
LINE
  5
   251
  8
0
  6
CONTINUOUS
 62
     0
 10
-1.5
 20
-38.6
 30
0.0
 11
-1.5
 21
-26.891847175276
 31
0.0
  0
LINE
  5
   252
  8
0
  6
CONTINUOUS
 62
     0
 10
11.5
 20
-38.6
 30
0.0
 11
11.5
 21
-26.891847175276
 31
0.0
  0
LINE
  5
   253
  8
0
  6
DASHDOT
 62
     0
 10
5.0
 20
-47.3956063362547
 30
0.0
 11
5.0
 21
-25.1245433649944
 31
0.0
  0
LINE
  5
   254
  8
0
  6
CONTINUOUS
 62
     0
 10
-1.5
 20
-38.6
 30
0.0
 11
11.5
 21
-38.6
 31
0.0
  0
LINE
  5
   255
  8
0
  6
CONTINUOUS
 62
     0
 10
-8.7
 20
-6.5
 30
0.0
 11
-8.7
 21
6.5
 31
0.0
  0
LINE
  5
   256
  8
0
  6
CONTINUOUS
 62
     0
 10
-9.0
 20
-6.20000000000001
 30
0.0
 11
-9.0
 21
6.2
 31
0.0
  0
LINE
  5
   257
  8
0
  6
CONTINUOUS
 62
     0
 10
-6.0
 20
-8.0
 30
0.0
 11
-6.0
 21
8.0
 31
0.0
  0
LINE
  5
   258
  8
0
  6
CONTINUOUS
 62
     0
 10
-3.0
 20
-3.99999999999998
 30
0.0
 11
-3.0
 21
4.00000000000002
 31
0.0
  0
LINE
  5
   259
  8
0
  6
CONTINUOUS
 62
     0
 10
-8.69999999999999
 20
6.5
 30
0.0
 11
-6.0
 21
6.5
 31
0.0
  0
LINE
  5
   25A
  8
0
  6
CONTINUOUS
 62
     0
 10
-6.0
 20
8.0
 30
0.0
 11
-5.0
 21
8.0
 31
0.0
  0
LINE
  5
   25B
  8
0
  6
CONTINUOUS
 62
     0
 10
-9.0
 20
6.19999999999999
 30
0.0
 11
-8.7
 21
6.49999999999999
 31
0.0
  0
LINE
  5
   25C
  8
0
  6
CONTINUOUS
 62
     0
 10
-8.7
 20
-6.5
 30
0.0
 11
-6.0
 21
-6.5
 31
0.0
  0
LINE
  5
   25D
  8
0
  6
CONTINUOUS
 62
     0
 10
-9.0
 20
-6.2
 30
0.0
 11
-8.7
 21
-6.49999999999999
 31
0.0
  0
LINE
  5
   25E
  8
0
  6
CONTINUOUS
 62
     0
 10
-6.0
 20
-8.0
 30
0.0
 11
-5.0
 21
-8.0
 31
0.0
  0
LINE
  5
   25F
  8
0
  6
CONTINUOUS
 62
     0
 10
-3.0
 20
3.5
 30
0.0
 11
16.0
 21
3.5
 31
0.0
  0
LINE
  5
   260
  8
0
  6
CONTINUOUS
 62
     0
 10
-3.0
 20
-3.5
 30
0.0
 11
16.0
 21
-3.5
 31
0.0
  0
LINE
  5
   261
  8
0
  6
CONTINUOUS
 62
     0
 10
16.0
 20
-3.5
 30
0.0
 11
16.0
 21
3.5
 31
0.0
  0
LINE
  5
   262
  8
0
  6
CONTINUOUS
 62
     0
 10
15.5
 20
-4.0
 30
0.0
 11
15.5
 21
4.0
 31
0.0
  0
LINE
  5
   263
  8
0
  6
CONTINUOUS
 62
     0
 10
15.5
 20
4.0
 30
0.0
 11
16.0
 21
3.49999999999999
 31
0.0
  0
LINE
  5
   264
  8
0
  6
CONTINUOUS
 62
     0
 10
15.5
 20
-4.00000000000001
 30
0.0
 11
16.0
 21
-3.5
 31
0.0
  0
LINE
  5
   265
  8
0
  6
CONTINUOUS
 62
     0
 10
8.99999809265137
 20
-4.0
 30
0.0
 11
9.49999999999999
 21
-4.0
 31
0.0
  0
LINE
  5
   266
  8
0
  6
CONTINUOUS
 62
     0
 10
8.99999809265137
 20
4.0
 30
0.0
 11
9.49999999999999
 21
4.0
 31
0.0
  0
LINE
  5
   267
  8
0
  6
CONTINUOUS
 62
     0
 10
-5.0
 20
-8.0
 30
0.0
 11
-5.0
 21
8.0
 31
0.0
  0
LINE
  5
   268
  8
0
  6
CONTINUOUS
 62
     0
 10
0.0
 20
4.0
 30
0.0
 11
0.0
 21
9.0
 31
0.0
  0
LINE
  5
   269
  8
0
  6
CONTINUOUS
 62
     0
 10
15.0
 20
4.0
 30
0.0
 11
15.0
 21
9.0
 31
0.0
  0
LINE
  5
   26A
  8
0
  6
CONTINUOUS
 62
     0
 10
-3.0
 20
-37.1
 30
0.0
 11
13.0
 21
-37.1
 31
0.0
  0
LINE
  5
   26B
  8
0
  6
CONTINUOUS
 62
     0
 10
11.5
 20
-38.6
 30
0.0
 11
13.0
 21
-37.1
 31
0.0
  0
LINE
  5
   26C
  8
0
  6
CONTINUOUS
 62
     0
 10
-3.0
 20
-37.1
 30
0.0
 11
-1.5
 21
-38.6
 31
0.0
  0
ARC
  5
   26D
  8
0
  6
CONTINUOUS
 62
     0
 10
5.0
 20
-58.391847175276
 30
0.0
 40
32.5
 50
75.7499673021964
 51
104.250032697804
  0
LINE
  5
   26E
  8
0
  6
CONTINUOUS
 62
     0
 10
-3.0
 20
-26.891847175276
 30
0.0
 11
13.0
 21
-26.891847175276
 31
0.0
  0
INSERT
  5
   26F
  8
0
  6
CONTINUOUS
 62
     0
  2
*HATCH91
 10
0.0
 20
0.0
 30
0.0
  0
INSERT
  5
   270
  8
0
  6
CONTINUOUS
 62
     0
  2
*HATCH92
 10
0.0
 20
0.0
 30
0.0
  0
LINE
  5
   271
  8
0
  6
CONTINUOUS
 62
     0
 10
13.0
 20
-29.5
 30
0.0
 11
15.0
 21
-29.5
 31
0.0
  0
LINE
  5
   272
  8
0
  6
CONTINUOUS
 62
     0
 10
-5.0
 20
-13.5
 30
0.0
 11
-5.0
 21
-10.5
 31
0.0
  0
ENDBLK
  5
   273
  8
0
  6
CONTINUOUS
 62
     0
  0
BLOCK
  5
   274
  8
0
  6
CONTINUOUS
 62
    98
  2
*HATCH93
 70
    65
 10
0.0
 20
0.0
 30
0.0
  3
*HATCH93
  0
LINE
  5
   275
  8
0
  6
CONTINUOUS
 62
   210
 10
-62.5955009460449
 20
26.4999542236328
 30
0.0
 11
-64.7629089355469
 21
24.3325500488281
 31
0.0
  0
LINE
  5
   276
  8
0
  6
CONTINUOUS
 62
   210
 10
-58.3528633117676
 20
26.4999542236328
 30
0.0
 11
-60.8528633117676
 21
23.9999542236328
 31
0.0
  0
LINE
  5
   277
  8
0
  6
CONTINUOUS
 62
   210
 10
-54.1102256774902
 20
26.4999542236328
 30
0.0
 11
-56.6102256774902
 21
23.9999542236328
 31
0.0
  0
LINE
  5
   278
  8
0
  6
CONTINUOUS
 62
   210
 10
-49.8675880432129
 20
26.4999542236328
 30
0.0
 11
-52.3675880432129
 21
23.9999542236328
 31
0.0
  0
LINE
  5
   279
  8
0
  6
CONTINUOUS
 62
   210
 10
-45.6249504089355
 20
26.4999542236328
 30
0.0
 11
-48.1249504089356
 21
23.9999542236328
 31
0.0
  0
LINE
  5
   27A
  8
0
  6
CONTINUOUS
 62
   210
 10
-42.4629058837891
 20
25.4193458557129
 30
0.0
 11
-44.4629058837891
 21
23.4193458557129
 31
0.0
  0
LINE
  5
   27B
  8
0
  6
CONTINUOUS
 62
   210
 10
-42.4629058837891
 20
23.2980270385742
 30
0.0
 11
-44.4629058837891
 21
21.2980270385742
 31
0.0
  0
LINE
  5
   27C
  8
0
  6
CONTINUOUS
 62
   210
 10
-42.4629058837891
 20
21.1767063140869
 30
0.0
 11
-44.4629058837891
 21
19.1767063140869
 31
0.0
  0
LINE
  5
   27D
  8
0
  6
CONTINUOUS
 62
   210
 10
-42.4629058837891
 20
19.0553855895996
 30
0.0
 11
-44.4629058837891
 21
17.0553855895996
 31
0.0
  0
LINE
  5
   27E
  8
0
  6
CONTINUOUS
 62
   210
 10
-20.8970146179199
 20
38.4999542236328
 30
0.0
 11
-21.4629058837891
 21
37.9340629577637
 31
0.0
  0
LINE
  5
   27F
  8
0
  6
CONTINUOUS
 62
   210
 10
-55.3970336914063
 20
3.99993896484375
 30
0.0
 11
-57.8970184326172
 21
1.49995422363281
 31
0.0
  0
LINE
  5
   280
  8
0
  6
CONTINUOUS
 62
   210
 10
-42.4629058837891
 20
14.8127450942993
 30
0.0
 11
-44.4629058837891
 21
12.8127450942993
 31
0.0
  0
LINE
  5
   281
  8
0
  6
CONTINUOUS
 62
   210
 10
-19.4629058837891
 20
35.6914253234863
 30
0.0
 11
-21.4629058837891
 21
33.6914253234863
 31
0.0
  0
LINE
  5
   282
  8
0
  6
CONTINUOUS
 62
   210
 10
-51.1543922424316
 20
3.99993896484375
 30
0.0
 11
-53.6543769836426
 21
1.49995422363281
 31
0.0
  0
LINE
  5
   283
  8
0
  6
CONTINUOUS
 62
   210
 10
-42.4629058837891
 20
10.570104598999
 30
0.0
 11
-44.4629058837891
 21
8.57010459899902
 31
0.0
  0
LINE
  5
   284
  8
0
  6
CONTINUOUS
 62
   210
 10
-19.4629058837891
 20
31.4487857818604
 30
0.0
 11
-21.4629058837891
 21
29.4487838745117
 31
0.0
  0
LINE
  5
   285
  8
0
  6
CONTINUOUS
 62
   210
 10
-46.9117546081543
 20
3.99993896484375
 30
0.0
 11
-49.4117393493652
 21
1.49995422363281
 31
0.0
  0
LINE
  5
   286
  8
0
  6
CONTINUOUS
 62
   210
 10
-22.290412902832
 20
26.4999542236328
 30
0.0
 11
-23.4629058837891
 21
25.3274631500244
 31
0.0
  0
LINE
  5
   287
  8
0
  6
CONTINUOUS
 62
   210
 10
-44.7904319763184
 20
3.99993896484375
 30
0.0
 11
-47.2904167175293
 21
1.49995422363281
 31
0.0
  0
LINE
  5
   288
  8
0
  6
CONTINUOUS
 62
   210
 10
-42.4629058837891
 20
4.20614385604858
 30
0.0
 11
-45.1690940856934
 21
1.49995422363281
 31
0.0
  0
LINE
  5
   289
  8
0
  6
CONTINUOUS
 62
   210
 10
-21.4629058837891
 20
23.0848217010498
 30
0.0
 11
-23.4629058837891
 21
21.0848217010498
 31
0.0
  0
LINE
  5
   28A
  8
0
  6
CONTINUOUS
 62
   210
 10
-21.4629058837891
 20
20.9635009765625
 30
0.0
 11
-23.4629058837891
 21
18.9635009765625
 31
0.0
  0
LINE
  5
   28B
  8
0
  6
CONTINUOUS
 62
   210
 10
-21.4629058837891
 20
18.8421802520752
 30
0.0
 11
-23.4629058837891
 21
16.8421802520752
 31
0.0
  0
LINE
  5
   28C
  8
0
  6
CONTINUOUS
 62
   210
 10
-21.4629058837891
 20
16.7208595275879
 30
0.0
 11
-23.4629058837891
 21
14.7208595275879
 31
0.0
  0
LINE
  5
   28D
  8
0
  6
CONTINUOUS
 62
   210
 10
-21.4629058837891
 20
14.5995388031006
 30
0.0
 11
-23.4629058837891
 21
12.5995388031006
 31
0.0
  0
LINE
  5
   28E
  8
0
  6
CONTINUOUS
 62
   210
 10
-21.4629058837891
 20
12.4782180786133
 30
0.0
 11
-23.4629058837891
 21
10.4782180786133
 31
0.0
  0
LINE
  5
   28F
  8
0
  6
CONTINUOUS
 62
   210
 10
-21.4629058837891
 20
10.356897354126
 30
0.0
 11
-23.4629058837891
 21
8.35689735412598
 31
0.0
  0
LINE
  5
   290
  8
0
  6
CONTINUOUS
 62
   210
 10
-21.4629058837891
 20
8.23557662963867
 30
0.0
 11
-23.4629058837891
 21
6.23557710647583
 31
0.0
  0
LINE
  5
   291
  8
0
  6
CONTINUOUS
 62
   210
 10
-21.4629058837891
 20
6.11425638198853
 30
0.0
 11
-23.4629058837891
 21
4.11425685882568
 31
0.0
  0
LINE
  5
   292
  8
0
  6
CONTINUOUS
 62
   210
 10
-21.4559059143066
 20
3.99993896484375
 30
0.0
 11
-23.9558906555176
 21
1.49995422363281
 31
0.0
  0
LINE
  5
   293
  8
0
  6
CONTINUOUS
 62
   210
 10
-17.213264465332
 20
3.99993896484375
 30
0.0
 11
-19.713249206543
 21
1.49995422363281
 31
0.0
  0
LINE
  5
   294
  8
0
  6
CONTINUOUS
 62
   210
 10
-12.9706230163574
 20
3.99993896484375
 30
0.0
 11
-15.4706077575684
 21
1.49995422363281
 31
0.0
  0
LINE
  5
   295
  8
0
  6
CONTINUOUS
 62
   210
 10
-8.72798156738281
 20
3.99993896484375
 30
0.0
 11
-11.2279663085938
 21
1.49995422363281
 31
0.0
  0
LINE
  5
   296
  8
0
  6
CONTINUOUS
 62
   210
 10
-4.48534107208252
 20
3.99993896484375
 30
0.0
 11
-6.9853253364563
 21
1.49995422363281
 31
0.0
  0
LINE
  5
   297
  8
0
  6
CONTINUOUS
 62
   210
 10
-0.242700576782227
 20
3.99993896484375
 30
0.0
 11
-2.74268484115601
 21
1.49995422363281
 31
0.0
  0
LINE
  5
   298
  8
0
  6
CONTINUOUS
 62
   210
 10
3.99993991851807
 20
3.99993896484375
 30
0.0
 11
1.49995565414429
 21
1.49995422363281
 31
0.0
  0
LINE
  5
   299
  8
0
  6
CONTINUOUS
 62
   210
 10
4.23709487915039
 20
2.11577415466309
 30
0.0
 11
3.62127470970154
 21
1.49995422363281
 31
0.0
  0
ENDBLK
  5
   29A
  8
0
  6
CONTINUOUS
 62
    98
  0
BLOCK
  5
   29B
  8
0
  6
CONTINUOUS
 62
   218
  2
*HATCH94
 70
    65
 10
0.0
 20
0.0
 30
0.0
  3
*HATCH94
  0
LINE
  5
   29C
  8
0
  6
CONTINUOUS
 62
     3
 10
-17.0614395141602
 20
116.581741333008
 30
0.0
 11
-19.9502468109131
 21
113.692932128906
 31
0.0
  0
LINE
  5
   29D
  8
0
  6
CONTINUOUS
 62
     3
 10
-15.06764793396
 20
116.454208374023
 30
0.0
 11
-18.5889472961426
 21
112.932914733887
 31
0.0
  0
LINE
  5
   29E
  8
0
  6
CONTINUOUS
 62
     3
 10
-13.4720983505249
 20
115.928436279297
 30
0.0
 11
-16.7580299377441
 21
112.642509460449
 31
0.0
  0
LINE
  5
   29F
  8
0
  6
CONTINUOUS
 62
     3
 10
-12.5162143707275
 20
114.763000488281
 30
0.0
 11
-14.3529853820801
 21
112.926231384277
 31
0.0
  0
ENDBLK
  5
   2A0
  8
0
  6
CONTINUOUS
 62
   218
  0
BLOCK
  5
   2A1
  8
0
  6
CONTINUOUS
 62
     7
  2
*HATCH95
 70
    65
 10
0.0
 20
0.0
 30
0.0
  3
*HATCH95
  0
LINE
  5
   2A2
  8
0
  6
CONTINUOUS
 62
     3
 10
185.858123779297
 20
-4.00005149841309
 30
0.0
 11
184.480621337891
 21
-5.37755584716797
 31
0.0
  0
LINE
  5
   2A3
  8
0
  6
CONTINUOUS
 62
     3
 10
187.979446411133
 20
-4.00005149841309
 30
0.0
 11
185.979446411133
 21
-6.00005149841309
 31
0.0
  0
LINE
  5
   2A4
  8
0
  6
CONTINUOUS
 62
     3
 10
190.10075378418
 20
-4.00005149841309
 30
0.0
 11
188.10075378418
 21
-6.00005149841309
 31
0.0
  0
LINE
  5
   2A5
  8
0
  6
CONTINUOUS
 62
     3
 10
192.222061157227
 20
-4.00005149841309
 30
0.0
 11
190.222061157227
 21
-6.00005149841309
 31
0.0
  0
LINE
  5
   2A6
  8
0
  6
CONTINUOUS
 62
     3
 10
194.343368530273
 20
-4.00005149841309
 30
0.0
 11
192.343368530273
 21
-6.00005149841309
 31
0.0
  0
LINE
  5
   2A7
  8
0
  6
CONTINUOUS
 62
     3
 10
196.46467590332
 20
-4.00005149841309
 30
0.0
 11
194.46467590332
 21
-6.00005149841309
 31
0.0
  0
LINE
  5
   2A8
  8
0
  6
CONTINUOUS
 62
     3
 10
198.585983276367
 20
-4.00005149841309
 30
0.0
 11
196.585983276367
 21
-6.00005149841309
 31
0.0
  0
LINE
  5
   2A9
  8
0
  6
CONTINUOUS
 62
     3
 10
200.707290649414
 20
-4.00005149841309
 30
0.0
 11
198.707290649414
 21
-6.00005149841309
 31
0.0
  0
LINE
  5
   2AA
  8
0
  6
CONTINUOUS
 62
     3
 10
202.828598022461
 20
-4.00005149841309
 30
0.0
 11
200.828598022461
 21
-6.00005149841309
 31
0.0
  0
LINE
  5
   2AB
  8
0
  6
CONTINUOUS
 62
     3
 10
204.949905395508
 20
-4.00005149841309
 30
0.0
 11
202.949905395508
 21
-6.00005149841309
 31
0.0
  0
LINE
  5
   2AC
  8
0
  6
CONTINUOUS
 62
     3
 10
207.071212768555
 20
-4.00005149841309
 30
0.0
 11
205.071212768555
 21
-6.00005149841309
 31
0.0
  0
LINE
  5
   2AD
  8
0
  6
CONTINUOUS
 62
     3
 10
209.192520141602
 20
-4.00005149841309
 30
0.0
 11
207.192520141602
 21
-6.00005149841309
 31
0.0
  0
LINE
  5
   2AE
  8
0
  6
CONTINUOUS
 62
     3
 10
211.313827514648
 20
-4.00005149841309
 30
0.0
 11
209.313827514648
 21
-6.00005149841309
 31
0.0
  0
LINE
  5
   2AF
  8
0
  6
CONTINUOUS
 62
     3
 10
213.435134887695
 20
-4.00005149841309
 30
0.0
 11
211.435134887695
 21
-6.00005149841309
 31
0.0
  0
LINE
  5
   2B0
  8
0
  6
CONTINUOUS
 62
     3
 10
215.556442260742
 20
-4.00005149841309
 30
0.0
 11
213.556442260742
 21
-6.00005149841309
 31
0.0
  0
LINE
  5
   2B1
  8
0
  6
CONTINUOUS
 62
     3
 10
217.677749633789
 20
-4.00005149841309
 30
0.0
 11
215.677749633789
 21
-6.00005149841309
 31
0.0
  0
LINE
  5
   2B2
  8
0
  6
CONTINUOUS
 62
     3
 10
219.799057006836
 20
-4.00005149841309
 30
0.0
 11
217.799057006836
 21
-6.00005149841309
 31
0.0
  0
LINE
  5
   2B3
  8
0
  6
CONTINUOUS
 62
     3
 10
221.920364379883
 20
-4.00005149841309
 30
0.0
 11
219.920364379883
 21
-6.00005149841309
 31
0.0
  0
LINE
  5
   2B4
  8
0
  6
CONTINUOUS
 62
     3
 10
224.04167175293
 20
-4.00005149841309
 30
0.0
 11
222.04167175293
 21
-6.00005149841309
 31
0.0
  0
LINE
  5
   2B5
  8
0
  6
CONTINUOUS
 62
     3
 10
226.162979125977
 20
-4.00005149841309
 30
0.0
 11
224.162979125977
 21
-6.00005149841309
 31
0.0
  0
LINE
  5
   2B6
  8
0
  6
CONTINUOUS
 62
     3
 10
228.284286499023
 20
-4.00005149841309
 30
0.0
 11
226.284286499023
 21
-6.00005149841309
 31
0.0
  0
LINE
  5
   2B7
  8
0
  6
CONTINUOUS
 62
     3
 10
230.40559387207
 20
-4.00005149841309
 30
0.0
 11
228.40559387207
 21
-6.00005149841309
 31
0.0
  0
LINE
  5
   2B8
  8
0
  6
CONTINUOUS
 62
     3
 10
232.526901245117
 20
-4.00005149841309
 30
0.0
 11
230.526901245117
 21
-6.00005149841309
 31
0.0
  0
LINE
  5
   2B9
  8
0
  6
CONTINUOUS
 62
     3
 10
234.648208618164
 20
-4.00005149841309
 30
0.0
 11
232.648208618164
 21
-6.00005149841309
 31
0.0
  0
LINE
  5
   2BA
  8
0
  6
CONTINUOUS
 62
     3
 10
236.769515991211
 20
-4.00005149841309
 30
0.0
 11
234.769515991211
 21
-6.00005149841309
 31
0.0
  0
LINE
  5
   2BB
  8
0
  6
CONTINUOUS
 62
     3
 10
238.890823364258
 20
-4.00005149841309
 30
0.0
 11
236.890823364258
 21
-6.00005149841309
 31
0.0
  0
LINE
  5
   2BC
  8
0
  6
CONTINUOUS
 62
     3
 10
241.012130737305
 20
-4.00005149841309
 30
0.0
 11
239.012130737305
 21
-6.00005149841309
 31
0.0
  0
LINE
  5
   2BD
  8
0
  6
CONTINUOUS
 62
     3
 10
243.133438110352
 20
-4.00005149841309
 30
0.0
 11
241.133438110352
 21
-6.00005149841309
 31
0.0
  0
LINE
  5
   2BE
  8
0
  6
CONTINUOUS
 62
     3
 10
245.254745483398
 20
-4.00005149841309
 30
0.0
 11
243.254745483398
 21
-6.00005149841309
 31
0.0
  0
LINE
  5
   2BF
  8
0
  6
CONTINUOUS
 62
     3
 10
247.376052856445
 20
-4.00005149841309
 30
0.0
 11
245.376052856445
 21
-6.00005149841309
 31
0.0
  0
LINE
  5
   2C0
  8
0
  6
CONTINUOUS
 62
     3
 10
249.497360229492
 20
-4.00005149841309
 30
0.0
 11
247.497360229492
 21
-6.00005149841309
 31
0.0
  0
LINE
  5
   2C1
  8
0
  6
CONTINUOUS
 62
     3
 10
251.618667602539
 20
-4.00005149841309
 30
0.0
 11
249.618667602539
 21
-6.00005149841309
 31
0.0
  0
LINE
  5
   2C2
  8
0
  6
CONTINUOUS
 62
     3
 10
253.739974975586
 20
-4.00005149841309
 30
0.0
 11
251.739974975586
 21
-6.00005149841309
 31
0.0
  0
LINE
  5
   2C3
  8
0
  6
CONTINUOUS
 62
     3
 10
255.861282348633
 20
-4.00005149841309
 30
0.0
 11
253.861282348633
 21
-6.00005149841309
 31
0.0
  0
LINE
  5
   2C4
  8
0
  6
CONTINUOUS
 62
     3
 10
257.982604980469
 20
-4.00005149841309
 30
0.0
 11
255.98258972168
 21
-6.00005149841309
 31
0.0
  0
LINE
  5
   2C5
  8
0
  6
CONTINUOUS
 62
     3
 10
260.103942871094
 20
-4.00005149841309
 30
0.0
 11
258.103912353516
 21
-6.00005149841309
 31
0.0
  0
LINE
  5
   2C6
  8
0
  6
CONTINUOUS
 62
     3
 10
262.225280761719
 20
-4.00005149841309
 30
0.0
 11
260.225250244141
 21
-6.00005149841309
 31
0.0
  0
LINE
  5
   2C7
  8
0
  6
CONTINUOUS
 62
     3
 10
264.346618652344
 20
-4.00005149841309
 30
0.0
 11
262.346588134766
 21
-6.00005149841309
 31
0.0
  0
LINE
  5
   2C8
  8
0
  6
CONTINUOUS
 62
     3
 10
266.467956542969
 20
-4.00005149841309
 30
0.0
 11
264.467926025391
 21
-6.00005149841309
 31
0.0
  0
LINE
  5
   2C9
  8
0
  6
CONTINUOUS
 62
     3
 10
268.589294433594
 20
-4.00005149841309
 30
0.0
 11
266.589263916016
 21
-6.00005149841309
 31
0.0
  0
LINE
  5
   2CA
  8
0
  6
CONTINUOUS
 62
     3
 10
270.710632324219
 20
-4.00005149841309
 30
0.0
 11
268.710601806641
 21
-6.00005149841309
 31
0.0
  0
LINE
  5
   2CB
  8
0
  6
CONTINUOUS
 62
     3
 10
272.831970214844
 20
-4.00005149841309
 30
0.0
 11
270.831939697266
 21
-6.00005149841309
 31
0.0
  0
LINE
  5
   2CC
  8
0
  6
CONTINUOUS
 62
     3
 10
274.953308105469
 20
-4.00005149841309
 30
0.0
 11
272.953277587891
 21
-6.00005149841309
 31
0.0
  0
LINE
  5
   2CD
  8
0
  6
CONTINUOUS
 62
     3
 10
277.074645996094
 20
-4.00005149841309
 30
0.0
 11
275.074615478516
 21
-6.00005149841309
 31
0.0
  0
LINE
  5
   2CE
  8
0
  6
CONTINUOUS
 62
     3
 10
279.195983886719
 20
-4.00005149841309
 30
0.0
 11
277.195953369141
 21
-6.00005149841309
 31
0.0
  0
LINE
  5
   2CF
  8
0
  6
CONTINUOUS
 62
     3
 10
281.317321777344
 20
-4.00005149841309
 30
0.0
 11
279.317291259766
 21
-6.00005149841309
 31
0.0
  0
LINE
  5
   2D0
  8
0
  6
CONTINUOUS
 62
     3
 10
283.438659667969
 20
-4.00005149841309
 30
0.0
 11
281.438629150391
 21
-6.00005149841309
 31
0.0
  0
LINE
  5
   2D1
  8
0
  6
CONTINUOUS
 62
     3
 10
285.559997558594
 20
-4.00005149841309
 30
0.0
 11
283.559967041016
 21
-6.00005149841309
 31
0.0
  0
LINE
  5
   2D2
  8
0
  6
CONTINUOUS
 62
     3
 10
287.681335449219
 20
-4.00005149841309
 30
0.0
 11
285.681304931641
 21
-6.00005149841309
 31
0.0
  0
LINE
  5
   2D3
  8
0
  6
CONTINUOUS
 62
     3
 10
289.802673339844
 20
-4.00005149841309
 30
0.0
 11
287.802642822266
 21
-6.00005149841309
 31
0.0
  0
LINE
  5
   2D4
  8
0
  6
CONTINUOUS
 62
     3
 10
291.924011230469
 20
-4.00005149841309
 30
0.0
 11
289.923980712891
 21
-6.00005149841309
 31
0.0
  0
LINE
  5
   2D5
  8
0
  6
CONTINUOUS
 62
     3
 10
294.045349121094
 20
-4.00005149841309
 30
0.0
 11
292.045318603516
 21
-6.00005149841309
 31
0.0
  0
LINE
  5
   2D6
  8
0
  6
CONTINUOUS
 62
     3
 10
296.166687011719
 20
-4.00005149841309
 30
0.0
 11
294.166656494141
 21
-6.00005149841309
 31
0.0
  0
LINE
  5
   2D7
  8
0
  6
CONTINUOUS
 62
     3
 10
298.288024902344
 20
-4.00005149841309
 30
0.0
 11
296.287994384766
 21
-6.00005149841309
 31
0.0
  0
LINE
  5
   2D8
  8
0
  6
CONTINUOUS
 62
     3
 10
300.409362792969
 20
-4.00005149841309
 30
0.0
 11
298.409332275391
 21
-6.00005149841309
 31
0.0
  0
LINE
  5
   2D9
  8
0
  6
CONTINUOUS
 62
     3
 10
302.530700683594
 20
-4.00005149841309
 30
0.0
 11
300.530670166016
 21
-6.00005149841309
 31
0.0
  0
LINE
  5
   2DA
  8
0
  6
CONTINUOUS
 62
     3
 10
304.652038574219
 20
-4.00005149841309
 30
0.0
 11
302.652008056641
 21
-6.00005149841309
 31
0.0
  0
LINE
  5
   2DB
  8
0
  6
CONTINUOUS
 62
     3
 10
306.773376464844
 20
-4.00005149841309
 30
0.0
 11
304.773345947266
 21
-6.00005149841309
 31
0.0
  0
LINE
  5
   2DC
  8
0
  6
CONTINUOUS
 62
     3
 10
308.894714355469
 20
-4.00005149841309
 30
0.0
 11
306.894683837891
 21
-6.00005149841309
 31
0.0
  0
LINE
  5
   2DD
  8
0
  6
CONTINUOUS
 62
     3
 10
311.016052246094
 20
-4.00005149841309
 30
0.0
 11
309.016021728516
 21
-6.00005149841309
 31
0.0
  0
LINE
  5
   2DE
  8
0
  6
CONTINUOUS
 62
     3
 10
313.137390136719
 20
-4.00005149841309
 30
0.0
 11
311.137359619141
 21
-6.00005149841309
 31
0.0
  0
LINE
  5
   2DF
  8
0
  6
CONTINUOUS
 62
     3
 10
315.258728027344
 20
-4.00005149841309
 30
0.0
 11
313.258697509766
 21
-6.00005149841309
 31
0.0
  0
LINE
  5
   2E0
  8
0
  6
CONTINUOUS
 62
     3
 10
317.380065917969
 20
-4.00005149841309
 30
0.0
 11
315.380035400391
 21
-6.00005149841309
 31
0.0
  0
LINE
  5
   2E1
  8
0
  6
CONTINUOUS
 62
     3
 10
319.501403808594
 20
-4.00005149841309
 30
0.0
 11
317.501373291016
 21
-6.00005149841309
 31
0.0
  0
LINE
  5
   2E2
  8
0
  6
CONTINUOUS
 62
     3
 10
321.622741699219
 20
-4.00005149841309
 30
0.0
 11
319.622711181641
 21
-6.00005149841309
 31
0.0
  0
LINE
  5
   2E3
  8
0
  6
CONTINUOUS
 62
     3
 10
323.744079589844
 20
-4.00005149841309
 30
0.0
 11
321.744049072266
 21
-6.00005149841309
 31
0.0
  0
LINE
  5
   2E4
  8
0
  6
CONTINUOUS
 62
     3
 10
325.865417480469
 20
-4.00005149841309
 30
0.0
 11
323.865386962891
 21
-6.00005149841309
 31
0.0
  0
LINE
  5
   2E5
  8
0
  6
CONTINUOUS
 62
     3
 10
327.986755371094
 20
-4.00005149841309
 30
0.0
 11
325.986724853516
 21
-6.00005149841309
 31
0.0
  0
LINE
  5
   2E6
  8
0
  6
CONTINUOUS
 62
     3
 10
330.108093261719
 20
-4.00005149841309
 30
0.0
 11
328.108062744141
 21
-6.00005149841309
 31
0.0
  0
LINE
  5
   2E7
  8
0
  6
CONTINUOUS
 62
     3
 10
332.229431152344
 20
-4.00005149841309
 30
0.0
 11
330.229400634766
 21
-6.00005149841309
 31
0.0
  0
LINE
  5
   2E8
  8
0
  6
CONTINUOUS
 62
     3
 10
333.858581542969
 20
-4.49203109741211
 30
0.0
 11
332.350555419922
 21
-6.00005149841309
 31
0.0
  0
LINE
  5
   2E9
  8
0
  6
CONTINUOUS
 62
     3
 10
334.601745605469
 20
-5.87021350860596
 30
0.0
 11
334.471893310547
 21
-6.00005149841309
 31
0.0
  0
ENDBLK
  5
   2EA
  8
0
  6
CONTINUOUS
 62
     7
  0
BLOCK
  5
   2EB
  8
0
  6
CONTINUOUS
 62
     7
  2
*HATCH96
 70
    65
 10
0.0
 20
0.0
 30
0.0
  3
*HATCH96
  0
LINE
  5
   2EC
  8
0
  6
CONTINUOUS
 62
   210
 10
294.891357421875
 20
80.5821990966797
 30
0.0
 11
297.473602294922
 21
77.9999618530274
 31
0.0
  0
LINE
  5
   2ED
  8
0
  6
CONTINUOUS
 62
   210
 10
296.716247558594
 20
82.9999618530274
 30
0.0
 11
301.716247558594
 21
77.9999618530274
 31
0.0
  0
LINE
  5
   2EE
  8
0
  6
CONTINUOUS
 62
   210
 10
300.958862304688
 20
82.9999618530274
 30
0.0
 11
302.737091064453
 21
81.2217483520508
 31
0.0
  0
ENDBLK
  5
   2EF
  8
0
  6
CONTINUOUS
 62
     7
  0
BLOCK
  5
   2F0
  8
0
  6
CONTINUOUS
 62
     7
  2
*HATCH97
 70
    65
 10
0.0
 20
0.0
 30
0.0
  3
*HATCH97
  0
LINE
  5
   2F1
  8
0
  6
CONTINUOUS
 62
     3
 10
294.891357421875
 20
42.7519607543945
 30
0.0
 11
295.737091064453
 21
41.9062347412109
 31
0.0
  0
LINE
  5
   2F2
  8
0
  6
CONTINUOUS
 62
     3
 10
294.891357421875
 20
44.8732833862305
 30
0.0
 11
295.737091064453
 21
44.0275573730469
 31
0.0
  0
LINE
  5
   2F3
  8
0
  6
CONTINUOUS
 62
     3
 10
294.891357421875
 20
46.9946060180664
 30
0.0
 11
295.737091064453
 21
46.1488800048828
 31
0.0
  0
LINE
  5
   2F4
  8
0
  6
CONTINUOUS
 62
     3
 10
294.891357421875
 20
49.1159286499023
 30
0.0
 11
295.737091064453
 21
48.2702026367188
 31
0.0
  0
LINE
  5
   2F5
  8
0
  6
CONTINUOUS
 62
     3
 10
294.891357421875
 20
51.2372512817383
 30
0.0
 11
295.737091064453
 21
50.3915252685547
 31
0.0
  0
LINE
  5
   2F6
  8
0
  6
CONTINUOUS
 62
     3
 10
294.891357421875
 20
53.3585739135742
 30
0.0
 11
295.737091064453
 21
52.5128479003906
 31
0.0
  0
LINE
  5
   2F7
  8
0
  6
CONTINUOUS
 62
     3
 10
294.891357421875
 20
55.4798965454102
 30
0.0
 11
295.737091064453
 21
54.6341705322266
 31
0.0
  0
LINE
  5
   2F8
  8
0
  6
CONTINUOUS
 62
     3
 10
294.891357421875
 20
57.6012191772461
 30
0.0
 11
295.737091064453
 21
56.7554931640625
 31
0.0
  0
LINE
  5
   2F9
  8
0
  6
CONTINUOUS
 62
     3
 10
294.891357421875
 20
59.722541809082
 30
0.0
 11
295.737091064453
 21
58.8768157958984
 31
0.0
  0
LINE
  5
   2FA
  8
0
  6
CONTINUOUS
 62
     3
 10
294.891357421875
 20
61.843864440918
 30
0.0
 11
295.737091064453
 21
60.9981384277344
 31
0.0
  0
LINE
  5
   2FB
  8
0
  6
CONTINUOUS
 62
     3
 10
294.891357421875
 20
63.9651870727539
 30
0.0
 11
295.737091064453
 21
63.1194610595703
 31
0.0
  0
LINE
  5
   2FC
  8
0
  6
CONTINUOUS
 62
     3
 10
294.891357421875
 20
66.0865097045899
 30
0.0
 11
295.737091064453
 21
65.2407836914063
 31
0.0
  0
LINE
  5
   2FD
  8
0
  6
CONTINUOUS
 62
     3
 10
294.891357421875
 20
68.2078323364258
 30
0.0
 11
295.737091064453
 21
67.3621063232422
 31
0.0
  0
LINE
  5
   2FE
  8
0
  6
CONTINUOUS
 62
     3
 10
294.891357421875
 20
70.3291549682617
 30
0.0
 11
295.737091064453
 21
69.4834289550781
 31
0.0
  0
LINE
  5
   2FF
  8
0
  6
CONTINUOUS
 62
     3
 10
294.891357421875
 20
72.4504776000977
 30
0.0
 11
295.737091064453
 21
71.6047515869141
 31
0.0
  0
LINE
  5
   300
  8
0
  6
CONTINUOUS
 62
     3
 10
294.891357421875
 20
74.5718002319336
 30
0.0
 11
295.737091064453
 21
73.72607421875
 31
0.0
  0
LINE
  5
   301
  8
0
  6
CONTINUOUS
 62
     3
 10
294.891357421875
 20
76.6931228637695
 30
0.0
 11
295.737091064453
 21
75.8473968505859
 31
0.0
  0
LINE
  5
   302
  8
0
  6
CONTINUOUS
 62
     3
 10
295.705841064453
 20
77.9999618530274
 30
0.0
 11
295.737091064453
 21
77.9687042236328
 31
0.0
  0
ENDBLK
  5
   303
  8
0
  6
CONTINUOUS
 62
     7
  0
BLOCK
  5
   304
  8
0
  6
CONTINUOUS
 62
     7
  2
*UDIM380
 70
    65
 10
0.0
 20
0.0
 30
0.0
  3
*UDIM380
  0
TEXT
  5
   305
  8
0
  6
CONTINUOUS
 62
     7
 10
262.286940354695
 20
88.0715067103593
 30
0.0
 40
2.99999997871263
  1
105
 50
89.9999999480344
 41
0.933333333333333
 72
     1
 11
260.786940368871
 21
91.9715066840442
 31
0.0
 73
     2
  0
LINE
  5
   306
  8
0
  6
CONTINUOUS
 62
     7
 10
241.778817439079
 20
73.871510491078
 30
0.0
 11
265.286940358228
 21
73.871510491078
 31
0.0
  0
LINE
  5
   307
  8
0
  6
CONTINUOUS
 62
     7
 10
241.778817439079
 20
110.621499184077
 30
0.0
 11
265.286940358228
 21
110.621499184077
 31
0.0
  0
LINE
  5
   308
  8
0
  6
CONTINUOUS
 62
     7
 10
263.286940358228
 20
73.871510491078
 30
0.0
 11
263.286940358228
 21
110.621499184077
 31
0.0
  0
LINE
  5
   309
  8
0
  6
CONTINUOUS
 62
     7
 10
262.765995928276
 20
76.825933768285
 30
0.0
 11
263.286940358228
 21
73.871510491078
 31
0.0
  0
LINE
  5
   30A
  8
0
  6
CONTINUOUS
 62
     7
 10
263.286940358228
 20
73.871510491078
 30
0.0
 11
263.807884788179
 21
76.825933768285
 31
0.0
  0
LINE
  5
   30B
  8
0
  6
CONTINUOUS
 62
     7
 10
263.807884788179
 20
107.66707590687
 30
0.0
 11
263.286940358228
 21
110.621499184077
 31
0.0
  0
LINE
  5
   30C
  8
0
  6
CONTINUOUS
 62
     7
 10
263.286940358228
 20
110.621499184077
 30
0.0
 11
262.765995928276
 21
107.66707590687
 31
0.0
  0
ENDBLK
  5
   30D
  8
0
  6
CONTINUOUS
 62
     7
  0
BLOCK
  5
   30E
  8
0
  6
CONTINUOUS
 62
     7
  2
*UDIM381
 70
    65
 10
0.0
 20
0.0
 30
0.0
  3
*UDIM381
  0
TEXT
  5
   30F
  8
0
  6
CONTINUOUS
 62
     7
 10
222.78653327377
 20
6.71250845100315
 30
0.0
 40
2.99999997871263
  1
135
 50
359.999999948034
 41
0.933333333333333
 72
     1
 11
226.68653324745
 21
8.21250843684188
 31
0.0
 73
     2
  0
LINE
  5
   310
  8
0
  6
CONTINUOUS
 62
     7
 10
250.594244182715
 20
87.6590102392484
 30
0.0
 11
250.594244182715
 21
3.71250844748557
 31
0.0
  0
LINE
  5
   311
  8
0
  6
CONTINUOUS
 62
     7
 10
203.328821414709
 20
25.6359474523894
 30
0.0
 11
203.328821414709
 21
3.71250844748557
 31
0.0
  0
LINE
  5
   312
  8
0
  6
CONTINUOUS
 62
     7
 10
250.594244182715
 20
5.71250844748556
 30
0.0
 11
203.328821414709
 21
5.71250844748556
 31
0.0
  0
LINE
  5
   313
  8
0
  6
CONTINUOUS
 62
     7
 10
247.639820905508
 20
5.19156401753389
 30
0.0
 11
250.594244182715
 21
5.71250844748556
 31
0.0
  0
LINE
  5
   314
  8
0
  6
CONTINUOUS
 62
     7
 10
250.594244182715
 20
5.71250844748556
 30
0.0
 11
247.639820905508
 21
6.23345287743723
 31
0.0
  0
LINE
  5
   315
  8
0
  6
CONTINUOUS
 62
     7
 10
206.283244691916
 20
6.23345287743723
 30
0.0
 11
203.328821414709
 21
5.71250844748556
 31
0.0
  0
LINE
  5
   316
  8
0
  6
CONTINUOUS
 62
     7
 10
203.328821414709
 20
5.71250844748556
 30
0.0
 11
206.283244691916
 21
5.19156401753389
 31
0.0
  0
ENDBLK
  5
   317
  8
0
  6
CONTINUOUS
 62
     7
  0
BLOCK
  5
   318
  8
0
  6
CONTINUOUS
 62
     7
  2
*UDIM382
 70
    65
 10
0.0
 20
0.0
 30
0.0
  3
*UDIM382
  0
TEXT
  5
   319
  8
0
  6
CONTINUOUS
 62
     7
 10
244.478817077686
 20
14.8500083098969
 30
0.0
 40
2.99999997871263
  1
2
 50
359.999999948034
 41
0.933333333333333
 72
     1
 11
245.578817071233
 21
16.3500082982611
 31
0.0
 73
     2
  0
LINE
  5
   31A
  8
0
  6
CONTINUOUS
 62
     7
 10
241.478817427158
 20
44.0278717731967
 30
0.0
 11
241.478817427158
 21
11.8500083089048
 31
0.0
  0
LINE
  5
   31B
  8
0
  6
CONTINUOUS
 62
     7
 10
240.778817439079
 20
43.5982166080998
 30
0.0
 11
240.778817439079
 21
11.8500083089048
 31
0.0
  0
LINE
  5
   31C
  8
0
  6
CONTINUOUS
 62
     7
 10
246.678817063428
 20
13.8500083089048
 30
0.0
 11
240.778817439079
 21
13.8500083089048
 31
0.0
  0
LINE
  5
   31D
  8
0
  6
CONTINUOUS
 62
     7
 10
244.433240704365
 20
14.3709527388564
 30
0.0
 11
241.478817427158
 21
13.8500083089048
 31
0.0
  0
LINE
  5
   31E
  8
0
  6
CONTINUOUS
 62
     7
 10
241.478817427158
 20
13.8500083089048
 30
0.0
 11
244.433240704365
 21
13.3290638789531
 31
0.0
  0
LINE
  5
   31F
  8
0
  6
CONTINUOUS
 62
     7
 10
237.824394161872
 20
13.3290638789531
 30
0.0
 11
240.778817439079
 21
13.8500083089048
 31
0.0
  0
LINE
  5
   320
  8
0
  6
CONTINUOUS
 62
     7
 10
240.778817439079
 20
13.8500083089048
 30
0.0
 11
237.824394161872
 21
14.3709527388564
 31
0.0
  0
ENDBLK
  5
   321
  8
0
  6
CONTINUOUS
 62
     7
  0
BLOCK
  5
   322
  8
0
  6
CONTINUOUS
 62
     7
  2
*UDIM383
 70
    65
 10
0.0
 20
0.0
 30
0.0
  3
*UDIM383
  0
TEXT
  5
   323
  8
0
  6
CONTINUOUS
 62
     7
 10
217.87881756545
 20
14.8500083124223
 30
0.0
 40
2.99999997871263
  1
107
 50
359.999999948034
 41
0.933333333333333
 72
     1
 11
221.77881753913
 21
16.3500082982611
 31
0.0
 73
     2
  0
LINE
  5
   324
  8
0
  6
CONTINUOUS
 62
     7
 10
203.328821414709
 20
25.6359474523894
 30
0.0
 11
203.328821414709
 21
11.8500083089048
 31
0.0
  0
LINE
  5
   325
  8
0
  6
CONTINUOUS
 62
     7
 10
240.778817439079
 20
13.8500083089048
 30
0.0
 11
203.328821414709
 21
13.8500083089048
 31
0.0
  0
LINE
  5
   326
  8
0
  6
CONTINUOUS
 62
     7
 10
237.824394161872
 20
13.3290638789531
 30
0.0
 11
240.778817439079
 21
13.8500083089048
 31
0.0
  0
LINE
  5
   327
  8
0
  6
CONTINUOUS
 62
     7
 10
240.778817439079
 20
13.8500083089048
 30
0.0
 11
237.824394161872
 21
14.3709527388564
 31
0.0
  0
LINE
  5
   328
  8
0
  6
CONTINUOUS
 62
     7
 10
206.283244691916
 20
14.3709527388564
 30
0.0
 11
203.328821414709
 21
13.8500083089048
 31
0.0
  0
LINE
  5
   329
  8
0
  6
CONTINUOUS
 62
     7
 10
203.328821414709
 20
13.8500083089048
 30
0.0
 11
206.283244691916
 21
13.3290638789531
 31
0.0
  0
ENDBLK
  5
   32A
  8
0
  6
CONTINUOUS
 62
     7
  0
BLOCK
  5
   32B
  8
0
  6
CONTINUOUS
 62
     7
  2
*UDIM384
 70
    65
 10
0.0
 20
0.0
 30
0.0
  3
*UDIM384
  0
TEXT
  5
   32C
  8
0
  6
CONTINUOUS
 62
     7
 10
214.466317449718
 20
21.9641523283161
 30
0.0
 40
2.99999997871263
  1
103,5
 50
359.999999948034
 41
0.933333333333333
 72
     1
 11
221.166317403529
 21
23.4641523116294
 31
0.0
 73
     2
  0
LINE
  5
   32D
  8
0
  6
CONTINUOUS
 62
     7
 10
239.553815457225
 20
72.871510491078
 30
0.0
 11
239.553815457225
 21
18.9641523222731
 31
0.0
  0
LINE
  5
   32E
  8
0
  6
CONTINUOUS
 62
     7
 10
203.328821414709
 20
25.6359474523894
 30
0.0
 11
203.328821414709
 21
18.9641523222731
 31
0.0
  0
LINE
  5
   32F
  8
0
  6
CONTINUOUS
 62
     7
 10
239.553815457225
 20
20.9641523222731
 30
0.0
 11
203.328821414709
 21
20.9641523222731
 31
0.0
  0
LINE
  5
   330
  8
0
  6
CONTINUOUS
 62
     7
 10
236.599392180018
 20
20.4432078923214
 30
0.0
 11
239.553815457225
 21
20.9641523222731
 31
0.0
  0
LINE
  5
   331
  8
0
  6
CONTINUOUS
 62
     7
 10
239.553815457225
 20
20.9641523222731
 30
0.0
 11
236.599392180018
 21
21.4850967522248
 31
0.0
  0
LINE
  5
   332
  8
0
  6
CONTINUOUS
 62
     7
 10
206.283244691916
 20
21.4850967522248
 30
0.0
 11
203.328821414709
 21
20.9641523222731
 31
0.0
  0
LINE
  5
   333
  8
0
  6
CONTINUOUS
 62
     7
 10
203.328821414709
 20
20.9641523222731
 30
0.0
 11
206.283244691916
 21
20.4432078923214
 31
0.0
  0
ENDBLK
  5
   334
  8
0
  6
CONTINUOUS
 62
     7
  0
BLOCK
  5
   335
  8
0
  6
CONTINUOUS
 62
     7
  2
*UDIM385
 70
    65
 10
0.0
 20
0.0
 30
0.0
  3
*UDIM385
  0
TEXT
  5
   336
  8
0
  6
CONTINUOUS
 62
     7
 10
196.528823568631
 20
21.9641523232652
 30
0.0
 40
2.99999997871263
  1
3
 50
359.999999948034
 41
0.933333333333333
 72
     1
 11
197.628823562179
 21
23.4641523116294
 31
0.0
 73
     2
  0
TEXT
  5
   337
  8
0
  6
CONTINUOUS
 62
     7
 10
193.778823572321
 20
21.9641523232652
 30
0.0
 40
2.99999997871263
  1
_
 50
359.999999948034
 41
0.933333333333333
 72
     1
 11
194.878823565869
 21
23.4641523116294
 31
0.0
 73
     2
  0
LINE
  5
   338
  8
0
  6
CONTINUOUS
 62
     7
 10
202.27882143259
 20
25.2908279363543
 30
0.0
 11
202.27882143259
 21
18.9641523222731
 31
0.0
  0
LINE
  5
   339
  8
0
  6
CONTINUOUS
 62
     7
 10
203.328821414709
 20
20.9641523222731
 30
0.0
 11
193.778823573674
 21
20.9641523222731
 31
0.0
  0
LINE
  5
   33A
  8
0
  6
CONTINUOUS
 62
     7
 10
206.283244691916
 20
21.4850967522248
 30
0.0
 11
203.328821414709
 21
20.9641523222731
 31
0.0
  0
LINE
  5
   33B
  8
0
  6
CONTINUOUS
 62
     7
 10
203.328821414709
 20
20.9641523222731
 30
0.0
 11
206.283244691916
 21
20.4432078923214
 31
0.0
  0
LINE
  5
   33C
  8
0
  6
CONTINUOUS
 62
     7
 10
199.324398155383
 20
20.4432078923214
 30
0.0
 11
202.27882143259
 21
20.9641523222731
 31
0.0
  0
LINE
  5
   33D
  8
0
  6
CONTINUOUS
 62
     7
 10
202.27882143259
 20
20.9641523222731
 30
0.0
 11
199.324398155383
 21
21.4850967522248
 31
0.0
  0
ENDBLK
  5
   33E
  8
0
  6
CONTINUOUS
 62
     7
  0
BLOCK
  5
   33F
  8
0
  6
CONTINUOUS
 62
     7
  2
*UDIM386
 70
    65
 10
0.0
 20
0.0
 30
0.0
  3
*UDIM386
  0
TEXT
  5
   340
  8
0
  6
CONTINUOUS
 62
     7
 10
250.833191085077
 20
44.9589706931622
 30
0.0
 40
2.99999997871263
  1
11
 50
89.9999999480344
 41
0.933333333333333
 72
     1
 11
249.333191097985
 21
47.4589706767813
 31
0.0
 73
     2
  0
LINE
  5
   341
  8
0
  6
CONTINUOUS
 62
     7
 10
218.575192344641
 20
53.4839702880739
 30
0.0
 11
253.833191087341
 21
53.4839702880739
 31
0.0
  0
LINE
  5
   342
  8
0
  6
CONTINUOUS
 62
     7
 10
218.819789149019
 20
57.3339702225088
 30
0.0
 11
253.833191087341
 21
57.3339702225088
 31
0.0
  0
LINE
  5
   343
  8
0
  6
CONTINUOUS
 62
     7
 10
251.833191087341
 20
44.9589706945208
 30
0.0
 11
251.833191087341
 21
57.3339702225088
 31
0.0
  0
LINE
  5
   344
  8
0
  6
CONTINUOUS
 62
     7
 10
252.354135517293
 20
50.5295470108669
 30
0.0
 11
251.833191087341
 21
53.4839702880739
 31
0.0
  0
LINE
  5
   345
  8
0
  6
CONTINUOUS
 62
     7
 10
251.833191087341
 20
53.4839702880739
 30
0.0
 11
251.31224665739
 21
50.5295470108669
 31
0.0
  0
LINE
  5
   346
  8
0
  6
CONTINUOUS
 62
     7
 10
251.31224665739
 20
60.2883934997157
 30
0.0
 11
251.833191087341
 21
57.3339702225088
 31
0.0
  0
LINE
  5
   347
  8
0
  6
CONTINUOUS
 62
     7
 10
251.833191087341
 20
57.3339702225088
 30
0.0
 11
252.354135517293
 21
60.2883934997157
 31
0.0
  0
ENDBLK
  5
   348
  8
0
  6
CONTINUOUS
 62
     7
  0
BLOCK
  5
   349
  8
0
  6
CONTINUOUS
 62
     7
  2
*UDIM387
 70
    65
 10
0.0
 20
0.0
 30
0.0
  3
*UDIM387
  0
TEXT
  5
   34A
  8
0
  6
CONTINUOUS
 62
     7
 10
214.116320125957
 20
185.705974643569
 30
0.0
 40
2.99999997871263
  1
101,5
 50
359.999999948034
 41
0.933333333333333
 72
     1
 11
220.816320079769
 21
187.205974626883
 31
0.0
 73
     2
  0
LINE
  5
   34B
  8
0
  6
CONTINUOUS
 62
     7
 10
238.853820809704
 20
158.258986353109
 30
0.0
 11
238.853820809704
 21
186.705974637526
 31
0.0
  0
LINE
  5
   34C
  8
0
  6
CONTINUOUS
 62
     7
 10
203.328821414709
 20
172.823259784959
 30
0.0
 11
203.328821414709
 21
186.705974637526
 31
0.0
  0
LINE
  5
   34D
  8
0
  6
CONTINUOUS
 62
     7
 10
238.853820809704
 20
184.705974637526
 30
0.0
 11
203.328821414709
 21
184.705974637526
 31
0.0
  0
LINE
  5
   34E
  8
0
  6
CONTINUOUS
 62
     7
 10
235.899397532497
 20
184.185030207575
 30
0.0
 11
238.853820809704
 21
184.705974637526
 31
0.0
  0
LINE
  5
   34F
  8
0
  6
CONTINUOUS
 62
     7
 10
238.853820809704
 20
184.705974637526
 30
0.0
 11
235.899397532497
 21
185.226919067478
 31
0.0
  0
LINE
  5
   350
  8
0
  6
CONTINUOUS
 62
     7
 10
206.283244691916
 20
185.226919067478
 30
0.0
 11
203.328821414709
 21
184.705974637526
 31
0.0
  0
LINE
  5
   351
  8
0
  6
CONTINUOUS
 62
     7
 10
203.328821414709
 20
184.705974637526
 30
0.0
 11
206.283244691916
 21
184.185030207575
 31
0.0
  0
ENDBLK
  5
   352
  8
0
  6
CONTINUOUS
 62
     7
  0
BLOCK
  5
   353
  8
0
  6
CONTINUOUS
 62
     7
  2
*UDIM388
 70
    65
 10
0.0
 20
0.0
 30
0.0
  3
*UDIM388
  0
TEXT
  5
   354
  8
0
  6
CONTINUOUS
 62
     7
 10
222.475464235191
 20
178.018813519598
 30
0.0
 40
2.99999997871263
  1
18x18
 50
359.999999948034
 41
0.933333333333333
 72
     1
 11
229.175464189002
 21
179.518813502911
 31
0.0
 73
     2
  0
LINE
  5
   355
  8
0
  6
CONTINUOUS
 62
     7
 10
216.418813023801
 20
167.184004181146
 30
0.0
 11
216.418813023801
 21
179.018813513555
 31
0.0
  0
LINE
  5
   356
  8
0
  6
CONTINUOUS
 62
     7
 10
212.07881309771
 20
167.184004181146
 30
0.0
 11
212.07881309771
 21
179.018813513555
 31
0.0
  0
LINE
  5
   357
  8
0
  6
CONTINUOUS
 62
     7
 10
235.875464141461
 20
177.018813513555
 30
0.0
 11
212.07881309771
 21
177.018813513555
 31
0.0
  0
LINE
  5
   358
  8
0
  6
CONTINUOUS
 62
     7
 10
219.373236301008
 20
177.539757943507
 30
0.0
 11
216.418813023801
 21
177.018813513555
 31
0.0
  0
LINE
  5
   359
  8
0
  6
CONTINUOUS
 62
     7
 10
216.418813023801
 20
177.018813513555
 30
0.0
 11
219.373236301008
 21
176.497869083603
 31
0.0
  0
LINE
  5
   35A
  8
0
  6
CONTINUOUS
 62
     7
 10
209.124389820503
 20
176.497869083603
 30
0.0
 11
212.07881309771
 21
177.018813513555
 31
0.0
  0
LINE
  5
   35B
  8
0
  6
CONTINUOUS
 62
     7
 10
212.07881309771
 20
177.018813513555
 30
0.0
 11
209.124389820503
 21
177.539757943507
 31
0.0
  0
ENDBLK
  5
   35C
  8
0
  6
CONTINUOUS
 62
     7
  0
BLOCK
  5
   35D
  8
0
  6
CONTINUOUS
 62
     7
  2
*UDIM389
 70
    65
 10
0.0
 20
0.0
 30
0.0
  3
*UDIM389
  0
TEXT
  5
   35E
  8
0
  6
CONTINUOUS
 62
     7
 10
194.803821741241
 20
178.01881351581
 30
0.0
 40
2.99999997871263
  1
25
 50
359.999999948034
 41
0.933333333333333
 72
     1
 11
197.303821724855
 21
179.518813502911
 31
0.0
 73
     2
  0
LINE
  5
   35F
  8
0
  6
CONTINUOUS
 62
     7
 10
203.328821414709
 20
172.823259784959
 30
0.0
 11
203.328821414709
 21
179.018813513555
 31
0.0
  0
LINE
  5
   360
  8
0
  6
CONTINUOUS
 62
     7
 10
212.07881309771
 20
177.018813513555
 30
0.0
 11
194.803821742594
 21
177.018813513555
 31
0.0
  0
LINE
  5
   361
  8
0
  6
CONTINUOUS
 62
     7
 10
209.124389820503
 20
176.497869083603
 30
0.0
 11
212.07881309771
 21
177.018813513555
 31
0.0
  0
LINE
  5
   362
  8
0
  6
CONTINUOUS
 62
     7
 10
212.07881309771
 20
177.018813513555
 30
0.0
 11
209.124389820503
 21
177.539757943507
 31
0.0
  0
LINE
  5
   363
  8
0
  6
CONTINUOUS
 62
     7
 10
206.283244691916
 20
177.539757943507
 30
0.0
 11
203.328821414709
 21
177.018813513555
 31
0.0
  0
LINE
  5
   364
  8
0
  6
CONTINUOUS
 62
     7
 10
203.328821414709
 20
177.018813513555
 30
0.0
 11
206.283244691916
 21
176.497869083603
 31
0.0
  0
ENDBLK
  5
   365
  8
0
  6
CONTINUOUS
 62
     7
  0
BLOCK
  5
   366
  8
0
  6
CONTINUOUS
 62
     7
  2
*UDIM390
 70
    65
 10
0.0
 20
0.0
 30
0.0
  3
*UDIM390
  0
TEXT
  5
   367
  8
0
  6
CONTINUOUS
 62
     7
 10
250.833191085077
 20
148.734005405798
 30
0.0
 40
2.99999997871263
  1
11
 50
89.9999999480344
 41
0.933333333333333
 72
     1
 11
249.333191097985
 21
151.234005389418
 31
0.0
 73
     2
  0
LINE
  5
   368
  8
0
  6
CONTINUOUS
 62
     7
 10
226.990534078567
 20
157.259004333138
 30
0.0
 11
253.833191087341
 21
157.259004333138
 31
0.0
  0
LINE
  5
   369
  8
0
  6
CONTINUOUS
 62
     7
 10
227.459967703763
 20
161.109004267573
 30
0.0
 11
253.833191087341
 21
161.109004267573
 31
0.0
  0
LINE
  5
   36A
  8
0
  6
CONTINUOUS
 62
     7
 10
251.833191087341
 20
148.734005407157
 30
0.0
 11
251.833191087341
 21
161.109004267573
 31
0.0
  0
LINE
  5
   36B
  8
0
  6
CONTINUOUS
 62
     7
 10
252.354135517293
 20
154.304581055931
 30
0.0
 11
251.833191087341
 21
157.259004333138
 31
0.0
  0
LINE
  5
   36C
  8
0
  6
CONTINUOUS
 62
     7
 10
251.833191087341
 20
157.259004333138
 30
0.0
 11
251.31224665739
 21
154.304581055931
 31
0.0
  0
LINE
  5
   36D
  8
0
  6
CONTINUOUS
 62
     7
 10
251.31224665739
 20
164.06342754478
 30
0.0
 11
251.833191087341
 21
161.109004267573
 31
0.0
  0
LINE
  5
   36E
  8
0
  6
CONTINUOUS
 62
     7
 10
251.833191087341
 20
161.109004267573
 30
0.0
 11
252.354135517293
 21
164.06342754478
 31
0.0
  0
ENDBLK
  5
   36F
  8
0
  6
CONTINUOUS
 62
     7
  0
BLOCK
  5
   370
  8
0
  6
CONTINUOUS
 62
     7
  2
*UDIM391
 70
    65
 10
0.0
 20
0.0
 30
0.0
  3
*UDIM391
  0
TEXT
  5
   371
  8
0
  6
CONTINUOUS
 62
     7
 10
190.340152025357
 20
64.4902348132673
 30
0.0
 40
2.99999997871263
  1
110,75
 50
89.9999999480344
 41
0.933333333333333
 72
     1
 11
188.840152043337
 21
72.59023475715
 31
0.0
 73
     2
  0
LINE
  5
   372
  8
0
  6
CONTINUOUS
 62
     7
 10
206.728543100121
 20
53.4839702880739
 30
0.0
 11
189.340152032693
 21
53.4839702880739
 31
0.0
  0
LINE
  5
   373
  8
0
  6
CONTINUOUS
 62
     7
 10
196.81342548751
 20
92.2464994970015
 30
0.0
 11
189.340152032693
 21
92.2464994970015
 31
0.0
  0
LINE
  5
   374
  8
0
  6
CONTINUOUS
 62
     7
 10
191.340152032693
 20
53.4839702880739
 30
0.0
 11
191.340152032693
 21
92.2464994970015
 31
0.0
  0
LINE
  5
   375
  8
0
  6
CONTINUOUS
 62
     7
 10
190.819207602741
 20
56.4383935652808
 30
0.0
 11
191.340152032693
 21
53.4839702880739
 31
0.0
  0
LINE
  5
   376
  8
0
  6
CONTINUOUS
 62
     7
 10
191.340152032693
 20
53.4839702880739
 30
0.0
 11
191.861096462645
 21
56.4383935652808
 31
0.0
  0
LINE
  5
   377
  8
0
  6
CONTINUOUS
 62
     7
 10
191.861096462645
 20
89.2920762197945
 30
0.0
 11
191.340152032693
 21
92.2464994970015
 31
0.0
  0
LINE
  5
   378
  8
0
  6
CONTINUOUS
 62
     7
 10
191.340152032693
 20
92.2464994970015
 30
0.0
 11
190.819207602741
 21
89.2920762197945
 31
0.0
  0
ENDBLK
  5
   379
  8
0
  6
CONTINUOUS
 62
     7
  0
BLOCK
  5
   37A
  8
0
  6
CONTINUOUS
 62
     7
  2
*UDIM392
 70
    65
 10
0.0
 20
0.0
 30
0.0
  3
*UDIM392
  0
TEXT
  5
   37B
  8
0
  6
CONTINUOUS
 62
     7
 10
182.248935885242
 20
60.3186898164396
 30
0.0
 40
2.99999997871263
  1
16
 50
89.9999999480344
 41
0.933333333333333
 72
     1
 11
180.74893589815
 21
62.8186898000587
 31
0.0
 73
     2
  0
TEXT
  5
   37C
  8
0
  6
CONTINUOUS
 62
     7
 10
182.24893588651
 20
57.1686898439713
 30
0.0
 40
2.99999997871263
  1
Ø
 50
89.9999999480344
 41
0.933333333333333
 72
     1
 11
180.74893589815
 21
58.2686898375245
 31
0.0
 73
     2
  0
LINE
  5
   37D
  8
0
  6
CONTINUOUS
 62
     7
 10
209.328812459941
 20
43.1589704639075
 30
0.0
 11
181.248935887506
 21
43.1589704639075
 31
0.0
  0
LINE
  5
   37E
  8
0
  6
CONTINUOUS
 62
     7
 10
208.278812477822
 20
48.7589703685401
 30
0.0
 11
181.248935887506
 21
48.7589703685401
 31
0.0
  0
LINE
  5
   37F
  8
0
  6
CONTINUOUS
 62
     7
 10
183.248935887506
 20
43.1589704639075
 30
0.0
 11
183.248935887506
 21
65.3186897823193
 31
0.0
  0
LINE
  5
   380
  8
0
  6
CONTINUOUS
 62
     7
 10
183.769880317458
 20
40.2045471867006
 30
0.0
 11
183.248935887506
 21
43.1589704639075
 31
0.0
  0
LINE
  5
   381
  8
0
  6
CONTINUOUS
 62
     7
 10
183.248935887506
 20
43.1589704639075
 30
0.0
 11
182.727991457554
 21
40.2045471867006
 31
0.0
  0
LINE
  5
   382
  8
0
  6
CONTINUOUS
 62
     7
 10
182.727991457554
 20
51.7133936457471
 30
0.0
 11
183.248935887506
 21
48.7589703685401
 31
0.0
  0
LINE
  5
   383
  8
0
  6
CONTINUOUS
 62
     7
 10
183.248935887506
 20
48.7589703685401
 30
0.0
 11
183.769880317458
 21
51.7133936457471
 31
0.0
  0
ENDBLK
  5
   384
  8
0
  6
CONTINUOUS
 62
     7
  0
BLOCK
  5
   385
  8
0
  6
CONTINUOUS
 62
     7
  2
*UDIM393
 70
    65
 10
0.0
 20
0.0
 30
0.0
  3
*UDIM393
  0
TEXT
  5
   386
  8
0
  6
CONTINUOUS
 62
     7
 10
172.189803673661
 20
34.683969982022
 30
0.0
 40
2.99999997871263
  1
13,5
 50
89.9999999480344
 41
0.933333333333333
 72
     1
 11
170.689803689105
 21
39.9839699457729
 31
0.0
 73
     2
  0
LINE
  5
   387
  8
0
  6
CONTINUOUS
 62
     7
 10
208.278812477822
 20
48.7589703685401
 30
0.0
 11
171.189803678461
 21
48.7589703685401
 31
0.0
  0
LINE
  5
   388
  8
0
  6
CONTINUOUS
 62
     7
 10
206.728543100121
 20
53.4839702880739
 30
0.0
 11
171.189803678461
 21
53.4839702880739
 31
0.0
  0
LINE
  5
   389
  8
0
  6
CONTINUOUS
 62
     7
 10
173.189803678461
 20
34.6839699833806
 30
0.0
 11
173.189803678461
 21
53.4839702880739
 31
0.0
  0
LINE
  5
   38A
  8
0
  6
CONTINUOUS
 62
     7
 10
173.710748108413
 20
45.8045470913332
 30
0.0
 11
173.189803678461
 21
48.7589703685401
 31
0.0
  0
LINE
  5
   38B
  8
0
  6
CONTINUOUS
 62
     7
 10
173.189803678461
 20
48.7589703685401
 30
0.0
 11
172.66885924851
 21
45.8045470913332
 31
0.0
  0
LINE
  5
   38C
  8
0
  6
CONTINUOUS
 62
     7
 10
172.66885924851
 20
56.4383935652808
 30
0.0
 11
173.189803678461
 21
53.4839702880739
 31
0.0
  0
LINE
  5
   38D
  8
0
  6
CONTINUOUS
 62
     7
 10
173.189803678461
 20
53.4839702880739
 30
0.0
 11
173.710748108413
 21
56.4383935652808
 31
0.0
  0
ENDBLK
  5
   38E
  8
0
  6
CONTINUOUS
 62
     7
  0
BLOCK
  5
   38F
  8
0
  6
CONTINUOUS
 62
     7
  2
*UDIM394
 70
    65
 10
0.0
 20
0.0
 30
0.0
  3
*UDIM394
  0
TEXT
  5
   390
  8
0
  6
CONTINUOUS
 62
     7
 10
172.189803672393
 20
100.321488961857
 30
0.0
 40
2.99999997871263
  1
307,5
 50
89.9999999480344
 41
0.933333333333333
 72
     1
 11
170.689803689105
 21
107.021488915674
 31
0.0
 73
     2
  0
LINE
  5
   391
  8
0
  6
CONTINUOUS
 62
     7
 10
206.819435801221
 20
161.109004267573
 30
0.0
 11
171.189803678461
 21
161.109004267573
 31
0.0
  0
LINE
  5
   392
  8
0
  6
CONTINUOUS
 62
     7
 10
173.189803678461
 20
53.4839702880739
 30
0.0
 11
173.189803678461
 21
161.109004267573
 31
0.0
  0
LINE
  5
   393
  8
0
  6
CONTINUOUS
 62
     7
 10
172.66885924851
 20
56.4383935652808
 30
0.0
 11
173.189803678461
 21
53.4839702880739
 31
0.0
  0
LINE
  5
   394
  8
0
  6
CONTINUOUS
 62
     7
 10
173.189803678461
 20
53.4839702880739
 30
0.0
 11
173.710748108413
 21
56.4383935652808
 31
0.0
  0
LINE
  5
   395
  8
0
  6
CONTINUOUS
 62
     7
 10
173.710748108413
 20
158.154580990366
 30
0.0
 11
173.189803678461
 21
161.109004267573
 31
0.0
  0
LINE
  5
   396
  8
0
  6
CONTINUOUS
 62
     7
 10
173.189803678461
 20
161.109004267573
 30
0.0
 11
172.66885924851
 21
158.154580990366
 31
0.0
  0
ENDBLK
  5
   397
  8
0
  6
CONTINUOUS
 62
     7
  0
BLOCK
  5
   398
  8
0
  6
CONTINUOUS
 62
     0
  2
ON-OFF
 70
    64
 10
0.0
 20
0.0
 30
0.0
  3
ON-OFF
  0
LINE
  5
   399
  8
0
  6
CONTINUOUS
 62
     0
 10
5.09999999999999
 20
-29.65
 30
0.0
 11
5.54999999999999
 21
-29.65
 31
0.0
  0
LINE
  5
   39A
  8
0
  6
CONTINUOUS
 62
     0
 10
3.79999999999999
 20
-37.35
 30
0.0
 11
4.59999999999999
 21
-37.35
 31
0.0
  0
LINE
  5
   39B
  8
0
  6
CONTINUOUS
 62
     0
 10
-2.6
 20
-34.75
 30
0.0
 11
-2.6
 21
-34.25
 31
0.0
  0
LINE
  5
   39C
  8
0
  6
CONTINUOUS
 62
     0
 10
2.6
 20
-34.75
 30
0.0
 11
2.6
 21
-34.25
 31
0.0
  0
ARC
  5
   39D
  8
0
  6
CONTINUOUS
 62
     0
 10
-3.5527136788005E-15
 20
-34.25
 30
0.0
 40
2.6
 50
0.0
 51
180.0
  0
ARC
  5
   39E
  8
0
  6
CONTINUOUS
 62
     0
 10
-3.5527136788005E-15
 20
-34.75
 30
0.0
 40
2.6
 50
180.0
 51
360.0
  0
ARC
  5
   39F
  8
0
  6
CONTINUOUS
 62
     0
 10
-3.5527136788005E-15
 20
-34.25
 30
0.0
 40
1.8
 50
0.0
 51
180.0
  0
ARC
  5
   3A0
  8
0
  6
CONTINUOUS
 62
     0
 10
-3.5527136788005E-15
 20
-34.75
 30
0.0
 40
1.8
 50
180.0
 51
360.0
  0
LINE
  5
   3A1
  8
0
  6
CONTINUOUS
 62
     0
 10
-1.8
 20
-34.75
 30
0.0
 11
-1.8
 21
-34.25
 31
0.0
  0
LINE
  5
   3A2
  8
0
  6
CONTINUOUS
 62
     0
 10
1.8
 20
-34.75
 30
0.0
 11
1.8
 21
-34.25
 31
0.0
  0
LINE
  5
   3A3
  8
0
  6
CONTINUOUS
 62
     0
 10
2.84999999999999
 20
-32.85
 30
0.0
 11
2.84999999999999
 21
-32.05
 31
0.0
  0
LINE
  5
   3A4
  8
0
  6
CONTINUOUS
 62
     0
 10
2.84999999999999
 20
-32.85
 30
0.0
 11
3.79999999999999
 21
-32.85
 31
0.0
  0
LINE
  5
   3A5
  8
0
  6
CONTINUOUS
 62
     0
 10
5.54999999999999
 20
-32.85
 30
0.0
 11
5.54999999999999
 21
-32.05
 31
0.0
  0
LINE
  5
   3A6
  8
0
  6
CONTINUOUS
 62
     0
 10
2.84999999999999
 20
-32.05
 30
0.0
 11
3.79999999999999
 21
-32.05
 31
0.0
  0
LINE
  5
   3A7
  8
0
  6
CONTINUOUS
 62
     0
 10
3.79999999999999
 20
-37.35
 30
0.0
 11
3.79999999999999
 21
-32.85
 31
0.0
  0
LINE
  5
   3A8
  8
0
  6
CONTINUOUS
 62
     0
 10
4.59999999999999
 20
-37.35
 30
0.0
 11
4.59999999999999
 21
-32.85
 31
0.0
  0
LINE
  5
   3A9
  8
0
  6
CONTINUOUS
 62
     0
 10
4.59999999999999
 20
-32.85
 30
0.0
 11
5.54999999999999
 21
-32.85
 31
0.0
  0
LINE
  5
   3AA
  8
0
  6
CONTINUOUS
 62
     0
 10
4.59999999999999
 20
-32.05
 30
0.0
 11
5.54999999999999
 21
-32.05
 31
0.0
  0
LINE
  5
   3AB
  8
0
  6
CONTINUOUS
 62
     0
 10
3.79999999999999
 20
-32.05
 30
0.0
 11
3.79999999999999
 21
-30.95
 31
0.0
  0
LINE
  5
   3AC
  8
0
  6
CONTINUOUS
 62
     0
 10
4.59999999999999
 20
-32.05
 30
0.0
 11
4.59999999999999
 21
-30.95
 31
0.0
  0
ARC
  5
   3AD
  8
0
  6
CONTINUOUS
 62
     0
 10
5.09999999999999
 20
-30.95
 30
0.0
 40
1.3
 50
89.9999999999999
 51
180.0
  0
ARC
  5
   3AE
  8
0
  6
CONTINUOUS
 62
     0
 10
5.09999999999999
 20
-30.95
 30
0.0
 40
0.5
 50
89.9999999999999
 51
180.0
  0
LINE
  5
   3AF
  8
0
  6
CONTINUOUS
 62
     0
 10
5.54999999999999
 20
-30.45
 30
0.0
 11
5.54999999999999
 21
-29.65
 31
0.0
  0
LINE
  5
   3B0
  8
0
  6
CONTINUOUS
 62
     0
 10
5.09999999999999
 20
-30.45
 30
0.0
 11
5.54999999999999
 21
-30.45
 31
0.0
  0
LINE
  5
   3B1
  8
0
  6
CONTINUOUS
 62
     0
 10
8.29999999999998
 20
-29.65
 30
0.0
 11
8.74999999999999
 21
-29.65
 31
0.0
  0
LINE
  5
   3B2
  8
0
  6
CONTINUOUS
 62
     0
 10
6.99999999999999
 20
-37.35
 30
0.0
 11
7.79999999999999
 21
-37.35
 31
0.0
  0
LINE
  5
   3B3
  8
0
  6
CONTINUOUS
 62
     0
 10
6.04999999999999
 20
-32.85
 30
0.0
 11
6.04999999999999
 21
-32.05
 31
0.0
  0
LINE
  5
   3B4
  8
0
  6
CONTINUOUS
 62
     0
 10
6.04999999999999
 20
-32.85
 30
0.0
 11
6.99999999999999
 21
-32.85
 31
0.0
  0
LINE
  5
   3B5
  8
0
  6
CONTINUOUS
 62
     0
 10
8.74999999999999
 20
-32.85
 30
0.0
 11
8.74999999999999
 21
-32.05
 31
0.0
  0
LINE
  5
   3B6
  8
0
  6
CONTINUOUS
 62
     0
 10
6.04999999999999
 20
-32.05
 30
0.0
 11
6.99999999999999
 21
-32.05
 31
0.0
  0
LINE
  5
   3B7
  8
0
  6
CONTINUOUS
 62
     0
 10
6.99999999999999
 20
-37.35
 30
0.0
 11
6.99999999999999
 21
-32.85
 31
0.0
  0
LINE
  5
   3B8
  8
0
  6
CONTINUOUS
 62
     0
 10
7.79999999999999
 20
-37.35
 30
0.0
 11
7.79999999999999
 21
-32.85
 31
0.0
  0
LINE
  5
   3B9
  8
0
  6
CONTINUOUS
 62
     0
 10
7.79999999999999
 20
-32.85
 30
0.0
 11
8.74999999999999
 21
-32.85
 31
0.0
  0
LINE
  5
   3BA
  8
0
  6
CONTINUOUS
 62
     0
 10
7.79999999999999
 20
-32.05
 30
0.0
 11
8.74999999999999
 21
-32.05
 31
0.0
  0
LINE
  5
   3BB
  8
0
  6
CONTINUOUS
 62
     0
 10
6.99999999999999
 20
-32.05
 30
0.0
 11
6.99999999999999
 21
-30.95
 31
0.0
  0
LINE
  5
   3BC
  8
0
  6
CONTINUOUS
 62
     0
 10
7.79999999999999
 20
-32.05
 30
0.0
 11
7.79999999999999
 21
-30.95
 31
0.0
  0
ARC
  5
   3BD
  8
0
  6
CONTINUOUS
 62
     0
 10
8.29999999999998
 20
-30.95
 30
0.0
 40
1.3
 50
89.9999999999999
 51
180.0
  0
ARC
  5
   3BE
  8
0
  6
CONTINUOUS
 62
     0
 10
8.29999999999998
 20
-30.95
 30
0.0
 40
0.5
 50
89.9999999999999
 51
180.0
  0
LINE
  5
   3BF
  8
0
  6
CONTINUOUS
 62
     0
 10
8.74999999999999
 20
-30.45
 30
0.0
 11
8.74999999999999
 21
-29.65
 31
0.0
  0
LINE
  5
   3C0
  8
0
  6
CONTINUOUS
 62
     0
 10
8.29999999999998
 20
-30.45
 30
0.0
 11
8.74999999999999
 21
-30.45
 31
0.0
  0
LINE
  5
   3C1
  8
0
  6
CONTINUOUS
 62
     0
 10
3.4
 20
-2.85000000000002
 30
0.0
 11
4.19999999999999
 21
-2.85000000000002
 31
0.0
  0
ARC
  5
   3C2
  8
0
  6
CONTINUOUS
 62
     0
 10
-3.5527136788005E-15
 20
0.249999999999979
 30
0.0
 40
2.6
 50
0.0
 51
180.0
  0
ARC
  5
   3C3
  8
0
  6
CONTINUOUS
 62
     0
 10
-3.5527136788005E-15
 20
0.249999999999979
 30
0.0
 40
1.8
 50
0.0
 51
180.0
  0
ARC
  5
   3C4
  8
0
  6
CONTINUOUS
 62
     0
 10
-3.5527136788005E-15
 20
-0.250000000000018
 30
0.0
 40
2.6
 50
180.0
 51
360.0
  0
ARC
  5
   3C5
  8
0
  6
CONTINUOUS
 62
     0
 10
-3.5527136788005E-15
 20
-0.250000000000018
 30
0.0
 40
1.8
 50
180.0
 51
360.0
  0
LINE
  5
   3C6
  8
0
  6
CONTINUOUS
 62
     0
 10
1.8
 20
-0.250000000000018
 30
0.0
 11
1.8
 21
0.249999999999979
 31
0.0
  0
LINE
  5
   3C7
  8
0
  6
CONTINUOUS
 62
     0
 10
2.6
 20
-0.250000000000018
 30
0.0
 11
2.6
 21
0.249999999999979
 31
0.0
  0
LINE
  5
   3C8
  8
0
  6
CONTINUOUS
 62
     0
 10
-1.8
 20
-0.250000000000032
 30
0.0
 11
-1.8
 21
0.249999999999964
 31
0.0
  0
LINE
  5
   3C9
  8
0
  6
CONTINUOUS
 62
     0
 10
-2.6
 20
-0.250000000000018
 30
0.0
 11
-2.6
 21
0.249999999999979
 31
0.0
  0
LINE
  5
   3CA
  8
0
  6
CONTINUOUS
 62
     0
 10
3.4
 20
-2.85000000000002
 30
0.0
 11
3.4
 21
2.84999999999998
 31
0.0
  0
LINE
  5
   3CB
  8
0
  6
CONTINUOUS
 62
     0
 10
4.19999999999999
 20
-2.85000000000002
 30
0.0
 11
4.19999999999999
 21
0.649999999999981
 31
0.0
  0
LINE
  5
   3CC
  8
0
  6
CONTINUOUS
 62
     0
 10
6.99999999999999
 20
-2.85000000000002
 30
0.0
 11
6.99999999999999
 21
0.649999999999981
 31
0.0
  0
LINE
  5
   3CD
  8
0
  6
CONTINUOUS
 62
     0
 10
7.79999999999999
 20
-2.85000000000002
 30
0.0
 11
7.79999999999999
 21
0.84999999999998
 31
0.0
  0
LINE
  5
   3CE
  8
0
  6
CONTINUOUS
 62
     0
 10
3.4
 20
2.84999999999998
 30
0.0
 11
4.19999999999999
 21
2.84999999999998
 31
0.0
  0
ARC
  5
   3CF
  8
0
  6
CONTINUOUS
 62
     0
 10
5.59999999999999
 20
0.649999999999981
 30
0.0
 40
1.4
 50
0.0
 51
180.0
  0
LINE
  5
   3D0
  8
0
  6
CONTINUOUS
 62
     0
 10
4.19999999999999
 20
2.05
 30
0.0
 11
4.19999999999999
 21
2.84999999999998
 31
0.0
  0
ARC
  5
   3D1
  8
0
  6
CONTINUOUS
 62
     0
 10
5.79999999999999
 20
0.84999999999998
 30
0.0
 40
2.0
 50
0.0
 51
143.130102354155
  0
LINE
  5
   3D2
  8
0
  6
CONTINUOUS
 62
     0
 10
6.99999999999999
 20
-2.85000000000002
 30
0.0
 11
7.79999999999999
 21
-2.85000000000002
 31
0.0
  0
ENDBLK
  5
   3D3
  8
0
  6
CONTINUOUS
 62
     0
  0
BLOCK
  5
   3D4
  8
0
  6
CONTINUOUS
 62
     7
  2
MOSTRINA
 70
    64
 10
0.0
 20
0.0
 30
0.0
  3
MOSTRINA
  0
LINE
  5
   3D5
  8
0
  6
CONTINUOUS
 62
     3
 10
173.338256835938
 20
30.7306251525879
 30
0.0
 11
173.338256835938
 21
189.230621337891
 31
0.0
  0
LINE
  5
   3D6
  8
0
  6
CONTINUOUS
 62
     3
 10
57.5882568359375
 20
29.4806251525879
 30
0.0
 11
172.088256835938
 21
29.4806251525879
 31
0.0
  0
LINE
  5
   3D7
  8
0
  6
CONTINUOUS
 62
     3
 10
56.3382568359375
 20
30.7306251525879
 30
0.0
 11
56.3382568359375
 21
189.230621337891
 31
0.0
  0
LINE
  5
   3D8
  8
0
  6
CONTINUOUS
 62
     3
 10
57.5882568359375
 20
190.480621337891
 30
0.0
 11
172.088256835938
 21
190.480621337891
 31
0.0
  0
LINE
  5
   3D9
  8
0
  6
CONTINUOUS
 62
     3
 10
167.838256835938
 20
56.9806251525879
 30
0.0
 11
167.838256835938
 21
162.980625152588
 31
0.0
  0
LINE
  5
   3DA
  8
0
  6
CONTINUOUS
 62
     3
 10
61.8382568359375
 20
56.9806251525879
 30
0.0
 11
167.838256835938
 21
56.9806251525879
 31
0.0
  0
LINE
  5
   3DB
  8
0
  6
CONTINUOUS
 62
     3
 10
61.8382568359375
 20
56.9806251525879
 30
0.0
 11
61.8382568359375
 21
162.980625152588
 31
0.0
  0
LINE
  5
   3DC
  8
0
  6
CONTINUOUS
 62
     3
 10
61.8382568359375
 20
162.980621337891
 30
0.0
 11
167.838256835938
 21
162.980621337891
 31
0.0
  0
LINE
  5
   3DD
  8
0
  6
CONTINUOUS
 62
     3
 10
168.838256835938
 20
48.4806251525879
 30
0.0
 11
168.838256835938
 21
49.4806251525879
 31
0.0
  0
LINE
  5
   3DE
  8
0
  6
CONTINUOUS
 62
     3
 10
61.8382568359375
 20
50.4806251525879
 30
0.0
 11
167.838256835938
 21
50.4806251525879
 31
0.0
  0
LINE
  5
   3DF
  8
0
  6
CONTINUOUS
 62
     3
 10
60.8382568359375
 20
48.4806251525879
 30
0.0
 11
60.8382568359375
 21
49.4806251525879
 31
0.0
  0
LINE
  5
   3E0
  8
0
  6
CONTINUOUS
 62
     3
 10
61.8382568359375
 20
49.4806251525879
 30
0.0
 11
167.838256835938
 21
49.4806251525879
 31
0.0
  0
LINE
  5
   3E1
  8
0
  6
CONTINUOUS
 62
     3
 10
60.8382568359375
 20
29.4806251525879
 30
0.0
 11
60.8382568359375
 21
48.4806251525879
 31
0.0
  0
LINE
  5
   3E2
  8
0
  6
CONTINUOUS
 62
     3
 10
60.8382568359375
 20
49.4806213378906
 30
0.0
 11
60.8382568359375
 21
190.480621337891
 31
0.0
  0
LINE
  5
   3E3
  8
0
  6
CONTINUOUS
 62
     3
 10
61.8382568359375
 20
29.4806251525879
 30
0.0
 11
61.8382568359375
 21
49.4806251525879
 31
0.0
  0
LINE
  5
   3E4
  8
0
  6
CONTINUOUS
 62
     3
 10
61.8382568359375
 20
162.980621337891
 30
0.0
 11
61.8382568359375
 21
169.480621337891
 31
0.0
  0
LINE
  5
   3E5
  8
0
  6
CONTINUOUS
 62
     3
 10
61.8382568359375
 20
50.4806251525879
 30
0.0
 11
61.8382568359375
 21
56.9806251525879
 31
0.0
  0
LINE
  5
   3E6
  8
0
  6
CONTINUOUS
 62
     3
 10
168.838256835938
 20
29.4806251525879
 30
0.0
 11
168.838256835938
 21
48.4806251525879
 31
0.0
  0
LINE
  5
   3E7
  8
0
  6
CONTINUOUS
 62
     3
 10
168.838256835938
 20
49.4806251525879
 30
0.0
 11
168.838256835938
 21
190.480621337891
 31
0.0
  0
LINE
  5
   3E8
  8
0
  6
CONTINUOUS
 62
     3
 10
167.838256835938
 20
50.4806251525879
 30
0.0
 11
167.838256835938
 21
56.9806251525879
 31
0.0
  0
LINE
  5
   3E9
  8
0
  6
CONTINUOUS
 62
     3
 10
167.838256835938
 20
162.980621337891
 30
0.0
 11
167.838256835938
 21
169.480621337891
 31
0.0
  0
LINE
  5
   3EA
  8
0
  6
CONTINUOUS
 62
     3
 10
167.838256835938
 20
29.4806251525879
 30
0.0
 11
167.838256835938
 21
49.4806251525879
 31
0.0
  0
LINE
  5
   3EB
  8
0
  6
CONTINUOUS
 62
     3
 10
60.8382568359375
 20
170.480621337891
 30
0.0
 11
168.838256835938
 21
170.480621337891
 31
0.0
  0
LINE
  5
   3EC
  8
0
  6
CONTINUOUS
 62
     3
 10
61.8382568359375
 20
169.480621337891
 30
0.0
 11
167.838256835938
 21
169.480621337891
 31
0.0
  0
ARC
  5
   3ED
  8
0
  6
CONTINUOUS
 62
     3
 10
57.5882568359375
 20
30.7306251525879
 30
0.0
 40
1.25
 50
180.0
 51
270.0
  0
ARC
  5
   3EE
  8
0
  6
CONTINUOUS
 62
     3
 10
172.088256835938
 20
30.7306251525879
 30
0.0
 40
1.25
 50
270.0
 51
360.0
  0
ARC
  5
   3EF
  8
0
  6
CONTINUOUS
 62
     3
 10
172.088256835938
 20
189.230621337891
 30
0.0
 40
1.25
 50
0.0
 51
90.0
  0
ARC
  5
   3F0
  8
0
  6
CONTINUOUS
 62
     3
 10
57.5882568359375
 20
189.230621337891
 30
0.0
 40
1.25
 50
90.0
 51
180.0
  0
LINE
  5
   3F1
  8
0
  6
DOT
 62
     3
 10
60.3382577409677
 20
179.7306252571
 30
0.0
 11
60.8382568359375
 21
179.7306252571
 31
0.0
  0
LINE
  5
   3F2
  8
0
  6
DOT
 62
     3
 10
60.3382577409676
 20
181.2306252571
 30
0.0
 11
60.8382568359375
 21
181.2306252571
 31
0.0
  0
LINE
  5
   3F3
  8
0
  6
CONTINUOUS
 62
     3
 10
168.338257745313
 20
179.730625257273
 30
0.0
 11
168.838256835938
 21
179.730625257273
 31
0.0
  0
LINE
  5
   3F4
  8
0
  6
CONTINUOUS
 62
     3
 10
168.338257745314
 20
181.230625257273
 30
0.0
 11
168.838256835938
 21
181.230625257273
 31
0.0
  0
ARC
  5
   3F5
  8
0
  6
DOT
 62
     3
 10
60.3382577401871
 20
180.480625257147
 30
0.0
 40
0.749999999345164
 50
90.0
 51
270.0
  0
ARC
  5
   3F6
  8
0
  6
CONTINUOUS
 62
     3
 10
61.338257740822
 20
180.480625256974
 30
0.0
 40
0.750000000009701
 50
270.0
 51
450.0
  0
LINE
  5
   3F7
  8
0
  6
CONTINUOUS
 62
     3
 10
60.8382568359375
 20
181.2306252571
 30
0.0
 11
61.3382577409688
 21
181.2306252571
 31
0.0
  0
LINE
  5
   3F8
  8
0
  6
CONTINUOUS
 62
     3
 10
60.8382568359375
 20
179.7306252571
 30
0.0
 11
61.3382577409689
 21
179.7306252571
 31
0.0
  0
ARC
  5
   3F9
  8
0
  6
CONTINUOUS
 62
     3
 10
168.338257745503
 20
180.480625256952
 30
0.0
 40
0.750000000048506
 50
90.0000000038822
 51
269.999999996024
  0
ARC
  5
   3FA
  8
0
  6
DOT
 62
     3
 10
169.338257745421
 20
180.480625256965
 30
0.0
 40
0.750000000029104
 50
270.000000002449
 51
449.999999997486
  0
LINE
  5
   3FB
  8
0
  6
DOT
 62
     3
 10
168.838256835938
 20
181.230625257273
 30
0.0
 11
169.338257745315
 21
181.230625257273
 31
0.0
  0
LINE
  5
   3FC
  8
0
  6
DOT
 62
     3
 10
168.838256835938
 20
179.730625257273
 30
0.0
 11
169.338257745315
 21
179.730625257273
 31
0.0
  0
POINT
  5
   3FD
  8
0
  6
CONTINUOUS
 62
     3
 10
114.838256835938
 20
109.980621337891
 30
0.0
  0
ENDBLK
  5
   3FE
  8
0
  6
CONTINUOUS
 62
     7
  0
BLOCK
  5
   3FF
  8
0
  6
CONTINUOUS
 62
     7
  2
S3LL-FT
 70
    64
 10
0.0
 20
0.0
 30
0.0
  3
S3LL-FT
  0
LINE
  5
   400
  8
0
  6
CONTINUOUS
 62
     7
 10
49.9999706608039
 20
179.700014171851
 30
0.0
 11
52.4999706608039
 21
179.700014171851
 31
0.0
  0
LINE
  5
   401
  8
0
  6
CONTINUOUS
 62
     7
 10
49.9999706608039
 20
179.700014171851
 30
0.0
 11
49.9999706608039
 21
181.500017223609
 31
0.0
  0
LINE
  5
   402
  8
0
  6
CONTINUOUS
 62
     7
 10
-49.0000293391961
 20
182.500017223609
 30
0.0
 11
-19.2500351141653
 21
182.500017223609
 31
0.0
  0
LINE
  5
   403
  8
0
  6
CONTINUOUS
 62
     7
 10
-15.7500351141653
 20
182.500017223609
 30
0.0
 11
15.7500351141653
 21
182.500017223609
 31
0.0
  0
LINE
  5
   404
  8
0
  6
CONTINUOUS
 62
     7
 10
19.2500351141653
 20
182.500017223609
 30
0.0
 11
48.9999706608039
 21
182.500017223609
 31
0.0
  0
LINE
  5
   405
  8
0
  6
CONTINUOUS
 62
     7
 10
-50.0000293391961
 20
179.700014171851
 30
0.0
 11
-50.0000293391961
 21
181.500017223609
 31
0.0
  0
LINE
  5
   406
  8
0
  6
CONTINUOUS
 62
     7
 10
-52.5000293391961
 20
179.700014171851
 30
0.0
 11
-50.0000293391961
 21
179.700014171851
 31
0.0
  0
LINE
  5
   407
  8
0
  6
CONTINUOUS
 62
     2
 10
-52.5000405833337
 20
74.5000280004958
 30
0.0
 11
-52.5000405833337
 21
158.000017223609
 31
0.0
  0
LINE
  5
   408
  8
0
  6
CONTINUOUS
 62
     7
 10
-20.0000351141653
 20
176.000017223609
 30
0.0
 11
-15.0000351141653
 21
176.000017223609
 31
0.0
  0
LINE
  5
   409
  8
0
  6
CONTINUOUS
 62
     7
 10
49.9999706608039
 20
158.000017223609
 30
0.0
 11
49.9999706608039
 21
179.700014171851
 31
0.0
  0
LINE
  5
   40A
  8
0
  6
CONTINUOUS
 62
     7
 10
-50.0000352668679
 20
158.000017223609
 30
0.0
 11
-50.0000352668679
 21
179.700014171852
 31
0.0
  0
LINE
  5
   40B
  8
0
  6
CONTINUOUS
 62
     2
 10
52.4999706608039
 20
74.5000280004958
 30
0.0
 11
52.4999706608039
 21
158.000017223609
 31
0.0
  0
CIRCLE
  5
   40C
  8
0
  6
CONTINUOUS
 62
     7
 10
-35.0000299503757
 20
170.000008122041
 30
0.0
 40
5.50000138230246
  0
CIRCLE
  5
   40D
  8
0
  6
CONTINUOUS
 62
     7
 10
-17.5000351141653
 20
167.000021053981
 30
0.0
 40
4.49999313784714
  0
CIRCLE
  5
   40E
  8
0
  6
CONTINUOUS
 62
     7
 10
-4.41394399246752E-15
 20
170.000005909128
 30
0.0
 40
5.50003112278591
  0
ARC
  5
   40F
  8
0
  6
CONTINUOUS
 62
     7
 10
17.4999682414702
 20
74.0000210848637
 30
0.0
 40
3.75000674677794
 50
180.000125761636
 51
187.662301319562
  0
CIRCLE
  5
   410
  8
0
  6
CONTINUOUS
 62
     7
 10
17.4999740187765
 20
167.000024081251
 30
0.0
 40
4.49999974183164
  0
CIRCLE
  5
   411
  8
0
  6
CONTINUOUS
 62
     7
 10
34.9999770619273
 20
170.000049438437
 30
0.0
 40
5.49997199911823
  0
ARC
  5
   412
  8
0
  6
CONTINUOUS
 62
     7
 10
48.999976084447
 20
181.500023748848
 30
0.0
 40
0.999995204790465
 50
359.999798812773
 51
450.000230940986
  0
ARC
  5
   413
  8
0
  6
CONTINUOUS
 62
     7
 10
-49.0000267882598
 20
181.500018355939
 30
0.0
 40
1.00000399112945
 50
90.0000472705142
 51
180.000478836282
  0
LINE
  5
   414
  8
0
  6
DASHDOT
 62
     7
 10
-8.50003112278593
 20
170.000005909128
 30
0.0
 11
8.5000311227859
 21
170.000005909128
 31
0.0
  0
LINE
  5
   415
  8
0
  6
DASHDOT
 62
     7
 10
-17.5000351141653
 20
159.500027916133
 30
0.0
 11
-17.5000351141653
 21
184.863634094189
 31
0.0
  0
LINE
  5
   416
  8
0
  6
DASHDOT
 62
     7
 10
-25.0000282520124
 20
167.000021053981
 30
0.0
 11
-10.0000419763182
 21
167.000021053981
 31
0.0
  0
ARC
  5
   417
  8
0
  6
CONTINUOUS
 62
     7
 10
-17.5000393497888
 20
74.0000393824664
 30
0.0
 40
3.75002368969665
 50
352.33745142345
 51
359.999970356197
  0
LINE
  5
   418
  8
0
  6
CONTINUOUS
 62
     7
 10
-19.2500351141653
 20
179.500017223609
 30
0.0
 11
-19.2500351141653
 21
182.500017223609
 31
0.0
  0
LINE
  5
   419
  8
0
  6
CONTINUOUS
 62
     7
 10
-15.7500351141653
 20
179.500017223609
 30
0.0
 11
-15.7500351141653
 21
182.500017223609
 31
0.0
  0
LINE
  5
   41A
  8
0
  6
CONTINUOUS
 62
     7
 10
-20.0000351141653
 20
176.000017223609
 30
0.0
 11
-20.0000351141653
 21
179.500017223609
 31
0.0
  0
LINE
  5
   41B
  8
0
  6
CONTINUOUS
 62
     7
 10
-15.0000351141653
 20
176.000017223609
 30
0.0
 11
-15.0000351141653
 21
179.500017223609
 31
0.0
  0
LINE
  5
   41C
  8
0
  6
CONTINUOUS
 62
     7
 10
-15.7500351141653
 20
179.500017223609
 30
0.0
 11
-15.0000351141653
 21
179.500017223609
 31
0.0
  0
LINE
  5
   41D
  8
0
  6
CONTINUOUS
 62
     7
 10
-20.0000351141653
 20
179.500017223609
 30
0.0
 11
-19.2500351141653
 21
179.500017223609
 31
0.0
  0
LINE
  5
   41E
  8
0
  6
CONTINUOUS
 62
     7
 10
15.7500351141653
 20
179.500017223609
 30
0.0
 11
15.7500351141653
 21
182.500017223609
 31
0.0
  0
LINE
  5
   41F
  8
0
  6
CONTINUOUS
 62
     7
 10
19.2500351141653
 20
179.500017223609
 30
0.0
 11
19.2500351141653
 21
182.500017223609
 31
0.0
  0
LINE
  5
   420
  8
0
  6
CONTINUOUS
 62
     7
 10
20.0000351141653
 20
176.000017223609
 30
0.0
 11
20.0000351141653
 21
179.500017223609
 31
0.0
  0
LINE
  5
   421
  8
0
  6
CONTINUOUS
 62
     7
 10
15.0000351141653
 20
176.000017223609
 30
0.0
 11
20.0000351141653
 21
176.000017223609
 31
0.0
  0
LINE
  5
   422
  8
0
  6
CONTINUOUS
 62
     7
 10
15.0000351141653
 20
176.000017223609
 30
0.0
 11
15.0000351141653
 21
179.500017223609
 31
0.0
  0
LINE
  5
   423
  8
0
  6
CONTINUOUS
 62
     7
 10
19.2500351141653
 20
179.500017223609
 30
0.0
 11
20.0000351141653
 21
179.500017223609
 31
0.0
  0
LINE
  5
   424
  8
0
  6
CONTINUOUS
 62
     7
 10
15.0000351141653
 20
179.500017223609
 30
0.0
 11
15.7500351141653
 21
179.500017223609
 31
0.0
  0
LINE
  5
   425
  8
0
  6
DASHDOT
 62
     7
 10
17.4999740187764
 20
160.041493115924
 30
0.0
 11
17.4999740187764
 21
185.427205696153
 31
0.0
  0
LINE
  5
   426
  8
0
  6
DASHDOT
 62
     7
 10
10.7654082833
 20
167.000024081251
 30
0.0
 11
24.0843695922096
 21
167.000024081251
 31
0.0
  0
LINE
  5
   427
  8
0
  6
CONTINUOUS
 62
     2
 10
-52.5000405833337
 20
74.5000280004958
 30
0.0
 11
52.4999706608039
 21
74.5000280004958
 31
0.0
  0
LINE
  5
   428
  8
0
  6
CONTINUOUS
 62
     2
 10
-51.5000405833337
 20
73.5000280004958
 30
0.0
 11
51.4999706608039
 21
73.5000280004958
 31
0.0
  0
LINE
  5
   429
  8
0
  6
CONTINUOUS
 62
     2
 10
-52.5000405833337
 20
158.000017223609
 30
0.0
 11
52.4999706608039
 21
158.000017223609
 31
0.0
  0
LINE
  5
   42A
  8
0
  6
CONTINUOUS
 62
     2
 10
-52.5000405833337
 20
145.500017223609
 30
0.0
 11
52.4999706608039
 21
145.500017223609
 31
0.0
  0
LINE
  5
   42B
  8
0
  6
CONTINUOUS
 62
     2
 10
-52.5000405833337
 20
144.500017223609
 30
0.0
 11
52.4999706608039
 21
144.500017223609
 31
0.0
  0
LINE
  5
   42C
  8
0
  6
CONTINUOUS
 62
     7
 10
52.4999706608039
 20
158.000017223609
 30
0.0
 11
52.4999706608039
 21
179.700014171851
 31
0.0
  0
LINE
  5
   42D
  8
0
  6
CONTINUOUS
 62
     7
 10
-52.5000405833337
 20
158.000017223609
 30
0.0
 11
-52.5000405833337
 21
179.700014171852
 31
0.0
  0
LINE
  5
   42E
  8
0
  6
CONTINUOUS
 62
     7
 10
-51.5000405833337
 20
73.5000280004958
 30
0.0
 11
-51.5000405833337
 21
74.5000280004958
 31
0.0
  0
LINE
  5
   42F
  8
0
  6
CONTINUOUS
 62
     7
 10
51.4999706608039
 20
73.5000280004958
 30
0.0
 11
51.4999706608039
 21
74.5000280004958
 31
0.0
  0
POINT
  5
   430
  8
0
  6
CONTINUOUS
 62
     7
 10
2.42342751848026E-14
 20
182.500017223609
 30
0.0
  0
LINE
  5
   431
  8
0
  6
DASHDOT
 62
     7
 10
34.9999770619273
 20
161.500077439319
 30
0.0
 11
34.9999770619273
 21
178.500021437555
 31
0.0
  0
LINE
  5
   432
  8
0
  6
DASHDOT
 62
     7
 10
26.5000050628091
 20
170.000049438437
 30
0.0
 11
43.4999490610455
 21
170.000049438437
 31
0.0
  0
LINE
  5
   433
  8
0
  6
DASHDOT
 62
     7
 10
-35.0000299503757
 20
161.500006739738
 30
0.0
 11
-35.0000299503757
 21
178.500009504343
 31
0.0
  0
LINE
  5
   434
  8
0
  6
DASHDOT
 62
     7
 10
-43.5000313326782
 20
170.000008122041
 30
0.0
 11
-26.5000285680733
 21
170.000008122041
 31
0.0
  0
ENDBLK
  5
   435
  8
0
  6
CONTINUOUS
 62
     7
  0
BLOCK
  5
   436
  8
0
  6
CONTINUOUS
 62
     7
  2
*UDIM395
 70
    65
 10
0.0
 20
0.0
 30
0.0
  3
*UDIM395
  0
TEXT
  5
   437
  8
0
  6
CONTINUOUS
 62
     7
 10
80.5188970505145
 20
19.0544691478032
 30
0.0
 40
2.99999997871263
  1
117
 50
359.999999948034
 41
0.933333333333333
 72
     1
 11
84.4188970241939
 21
20.5544691336419
 31
0.0
 73
     2
  0
LINE
  5
   438
  8
0
  6
CONTINUOUS
 62
     7
 10
105.168893994575
 20
63.5089881972236
 30
0.0
 11
105.168893994575
 21
16.0544691442856
 31
0.0
  0
LINE
  5
   439
  8
0
  6
CONTINUOUS
 62
     7
 10
64.2188946919493
 20
63.5089881972236
 30
0.0
 11
64.2188946919493
 21
16.0544691442856
 31
0.0
  0
LINE
  5
   43A
  8
0
  6
CONTINUOUS
 62
     7
 10
105.168893994575
 20
18.0544691442856
 30
0.0
 11
64.2188946919493
 21
18.0544691442856
 31
0.0
  0
LINE
  5
   43B
  8
0
  6
CONTINUOUS
 62
     7
 10
102.214470717368
 20
17.5335247143339
 30
0.0
 11
105.168893994575
 21
18.0544691442856
 31
0.0
  0
LINE
  5
   43C
  8
0
  6
CONTINUOUS
 62
     7
 10
105.168893994575
 20
18.0544691442856
 30
0.0
 11
102.214470717368
 21
18.5754135742372
 31
0.0
  0
LINE
  5
   43D
  8
0
  6
CONTINUOUS
 62
     7
 10
67.1733179691563
 20
18.5754135742372
 30
0.0
 11
64.2188946919493
 21
18.0544691442856
 31
0.0
  0
LINE
  5
   43E
  8
0
  6
CONTINUOUS
 62
     7
 10
64.2188946919493
 20
18.0544691442856
 30
0.0
 11
67.1733179691563
 21
17.5335247143339
 31
0.0
  0
ENDBLK
  5
   43F
  8
0
  6
CONTINUOUS
 62
     7
  0
BLOCK
  5
   440
  8
0
  6
CONTINUOUS
 62
     7
  2
*UDIM396
 70
    65
 10
0.0
 20
0.0
 30
0.0
  3
*UDIM396
  0
TEXT
  5
   441
  8
0
  6
CONTINUOUS
 62
     7
 10
80.5188783578012
 20
180.748751977662
 30
0.0
 40
2.99999997871263
  1
105
 50
359.999999948034
 41
0.933333333333333
 72
     1
 11
84.4188783314806
 21
182.248751963501
 31
0.0
 73
     2
  0
LINE
  5
   442
  8
0
  6
CONTINUOUS
 62
     7
 10
103.068878577908
 20
165.853976074236
 30
0.0
 11
103.068878577908
 21
181.748751974144
 31
0.0
  0
LINE
  5
   443
  8
0
  6
CONTINUOUS
 62
     7
 10
66.3188752683083
 20
165.853976074237
 30
0.0
 11
66.3188752683083
 21
181.748751974144
 31
0.0
  0
LINE
  5
   444
  8
0
  6
CONTINUOUS
 62
     7
 10
103.068878577908
 20
179.748751974144
 30
0.0
 11
66.3188752683083
 21
179.748751974144
 31
0.0
  0
LINE
  5
   445
  8
0
  6
CONTINUOUS
 62
     7
 10
100.114455300701
 20
179.227807544193
 30
0.0
 11
103.068878577908
 21
179.748751974144
 31
0.0
  0
LINE
  5
   446
  8
0
  6
CONTINUOUS
 62
     7
 10
103.068878577908
 20
179.748751974144
 30
0.0
 11
100.114455300701
 21
180.269696404096
 31
0.0
  0
LINE
  5
   447
  8
0
  6
CONTINUOUS
 62
     7
 10
69.2732985455153
 20
180.269696404096
 30
0.0
 11
66.3188752683083
 21
179.748751974144
 31
0.0
  0
LINE
  5
   448
  8
0
  6
CONTINUOUS
 62
     7
 10
66.3188752683083
 20
179.748751974144
 30
0.0
 11
69.2732985455153
 21
179.227807544193
 31
0.0
  0
ENDBLK
  5
   449
  8
0
  6
CONTINUOUS
 62
     7
  0
BLOCK
  5
   44A
  8
0
  6
CONTINUOUS
 62
     7
  2
*UDIM397
 70
    65
 10
0.0
 20
0.0
 30
0.0
  3
*UDIM397
  0
TEXT
  5
   44B
  8
0
  6
CONTINUOUS
 62
     7
 10
89.2437434926056
 20
172.065754992922
 30
0.0
 40
2.99999997871263
  1
35
 50
359.999999948034
 41
0.933333333333333
 72
     1
 11
91.743743476219
 21
173.565754980024
 31
0.0
 73
     2
  0
LINE
  5
   44C
  8
0
  6
CONTINUOUS
 62
     7
 10
96.9438809226089
 20
165.433978624385
 30
0.0
 11
96.9438809226089
 21
173.065754990667
 31
0.0
  0
LINE
  5
   44D
  8
0
  6
CONTINUOUS
 62
     7
 10
84.6938891595505
 20
169.424013650965
 30
0.0
 11
84.6938891595505
 21
173.065754990667
 31
0.0
  0
LINE
  5
   44E
  8
0
  6
CONTINUOUS
 62
     7
 10
96.9438809226089
 20
171.065754990667
 30
0.0
 11
84.6938891595505
 21
171.065754990667
 31
0.0
  0
LINE
  5
   44F
  8
0
  6
CONTINUOUS
 62
     7
 10
93.9894576454019
 20
170.544810560716
 30
0.0
 11
96.9438809226089
 21
171.065754990667
 31
0.0
  0
LINE
  5
   450
  8
0
  6
CONTINUOUS
 62
     7
 10
96.9438809226089
 20
171.065754990667
 30
0.0
 11
93.9894576454019
 21
171.586699420619
 31
0.0
  0
LINE
  5
   451
  8
0
  6
CONTINUOUS
 62
     7
 10
87.6483124367575
 20
171.586699420619
 30
0.0
 11
84.6938891595505
 21
171.065754990667
 31
0.0
  0
LINE
  5
   452
  8
0
  6
CONTINUOUS
 62
     7
 10
84.6938891595505
 20
171.065754990667
 30
0.0
 11
87.6483124367575
 21
170.544810560716
 31
0.0
  0
ENDBLK
  5
   453
  8
0
  6
CONTINUOUS
 62
     7
  0
BLOCK
  5
   454
  8
0
  6
CONTINUOUS
 62
     7
  2
*UDIM398
 70
    65
 10
0.0
 20
0.0
 30
0.0
  3
*UDIM398
  0
TEXT
  5
   455
  8
0
  6
CONTINUOUS
 62
     7
 10
76.5369241992442
 20
172.065754992922
 30
0.0
 40
2.99999997871263
  1
35
 50
359.999999948034
 41
0.933333333333333
 72
     1
 11
79.0369241828576
 21
173.565754980024
 31
0.0
 73
     2
  0
LINE
  5
   456
  8
0
  6
CONTINUOUS
 62
     7
 10
72.4438788855354
 20
165.433974447761
 30
0.0
 11
72.4438788855354
 21
173.065754990667
 31
0.0
  0
LINE
  5
   457
  8
0
  6
CONTINUOUS
 62
     7
 10
84.6938891595505
 20
171.065754990667
 30
0.0
 11
72.4438788855354
 21
171.065754990667
 31
0.0
  0
LINE
  5
   458
  8
0
  6
CONTINUOUS
 62
     7
 10
81.7394658823435
 20
170.544810560716
 30
0.0
 11
84.6938891595505
 21
171.065754990667
 31
0.0
  0
LINE
  5
   459
  8
0
  6
CONTINUOUS
 62
     7
 10
84.6938891595505
 20
171.065754990667
 30
0.0
 11
81.7394658823435
 21
171.586699420619
 31
0.0
  0
LINE
  5
   45A
  8
0
  6
CONTINUOUS
 62
     7
 10
75.3983021627424
 20
171.586699420619
 30
0.0
 11
72.4438788855354
 21
171.065754990667
 31
0.0
  0
LINE
  5
   45B
  8
0
  6
CONTINUOUS
 62
     7
 10
72.4438788855354
 20
171.065754990667
 30
0.0
 11
75.3983021627424
 21
170.544810560716
 31
0.0
  0
ENDBLK
  5
   45C
  8
0
  6
CONTINUOUS
 62
     7
  0
BLOCK
  5
   45D
  8
0
  6
CONTINUOUS
 62
     7
  2
*UDIM399
 70
    65
 10
0.0
 20
0.0
 30
0.0
  3
*UDIM399
  0
TEXT
  5
   45E
  8
0
  6
CONTINUOUS
 62
     7
 10
120.770739189597
 20
88.0714868647656
 30
0.0
 40
2.99999997871263
  1
161
 50
89.9999999480344
 41
0.933333333333333
 72
     1
 11
119.270739203773
 21
91.9714868384506
 31
0.0
 73
     2
  0
LINE
  5
   45F
  8
0
  6
CONTINUOUS
 62
     7
 10
105.731394002026
 20
64.0714882046742
 30
0.0
 11
123.770739193129
 21
64.0714882046742
 31
0.0
  0
LINE
  5
   460
  8
0
  6
CONTINUOUS
 62
     7
 10
105.731394002026
 20
120.421485909895
 30
0.0
 11
123.770739193129
 21
120.421485909895
 31
0.0
  0
LINE
  5
   461
  8
0
  6
CONTINUOUS
 62
     7
 10
121.770739193129
 20
64.0714882046742
 30
0.0
 11
121.770739193129
 21
120.421485909895
 31
0.0
  0
LINE
  5
   462
  8
0
  6
CONTINUOUS
 62
     7
 10
121.249794763177
 20
67.0259114818812
 30
0.0
 11
121.770739193129
 21
64.0714882046742
 31
0.0
  0
LINE
  5
   463
  8
0
  6
CONTINUOUS
 62
     7
 10
121.770739193129
 20
64.0714882046742
 30
0.0
 11
122.291683623081
 21
67.0259114818812
 31
0.0
  0
LINE
  5
   464
  8
0
  6
CONTINUOUS
 62
     7
 10
122.291683623081
 20
117.467062632688
 30
0.0
 11
121.770739193129
 21
120.421485909895
 31
0.0
  0
LINE
  5
   465
  8
0
  6
CONTINUOUS
 62
     7
 10
121.770739193129
 20
120.421485909895
 30
0.0
 11
121.249794763177
 21
117.467062632688
 31
0.0
  0
ENDBLK
  5
   466
  8
0
  6
CONTINUOUS
 62
     7
  0
BLOCK
  5
   467
  8
0
  6
CONTINUOUS
 62
     7
  2
*UDIM400
 70
    65
 10
0.0
 20
0.0
 30
0.0
  3
*UDIM400
  0
TEXT
  5
   468
  8
0
  6
CONTINUOUS
 62
     7
 10
45.5887186625826
 20
36.3589991856567
 30
0.0
 40
2.99999997871263
  1
46
 50
89.9999999480344
 41
0.933333333333333
 72
     1
 11
44.0887186754906
 21
38.8589991692758
 31
0.0
 73
     2
  0
LINE
  5
   469
  8
0
  6
CONTINUOUS
 62
     7
 10
77.8835885321124
 20
31.0840020644713
 30
0.0
 11
44.5887186648469
 21
31.0840020644713
 31
0.0
  0
LINE
  5
   46A
  8
0
  6
CONTINUOUS
 62
     7
 10
66.5439261004697
 20
47.1840005085645
 30
0.0
 11
44.5887186648469
 21
47.1840005085645
 31
0.0
  0
LINE
  5
   46B
  8
0
  6
CONTINUOUS
 62
     7
 10
46.5887186648469
 20
31.0840020644713
 30
0.0
 11
46.5887186648469
 21
47.1840005085645
 31
0.0
  0
LINE
  5
   46C
  8
0
  6
CONTINUOUS
 62
     7
 10
46.0677742348952
 20
34.0384253416782
 30
0.0
 11
46.5887186648469
 21
31.0840020644713
 31
0.0
  0
LINE
  5
   46D
  8
0
  6
CONTINUOUS
 62
     7
 10
46.5887186648469
 20
31.0840020644713
 30
0.0
 11
47.1096630947986
 21
34.0384253416782
 31
0.0
  0
LINE
  5
   46E
  8
0
  6
CONTINUOUS
 62
     7
 10
47.1096630947986
 20
44.2295772313576
 30
0.0
 11
46.5887186648469
 21
47.1840005085645
 31
0.0
  0
LINE
  5
   46F
  8
0
  6
CONTINUOUS
 62
     7
 10
46.5887186648469
 20
47.1840005085645
 30
0.0
 11
46.0677742348952
 21
44.2295772313576
 31
0.0
  0
ENDBLK
  5
   470
  8
0
  6
CONTINUOUS
 62
     7
  0
BLOCK
  5
   471
  8
0
  6
CONTINUOUS
 62
     7
  2
*UDIM401
 70
    65
 10
0.0
 20
0.0
 30
0.0
  3
*UDIM401
  0
TEXT
  5
   472
  8
0
  6
CONTINUOUS
 62
     7
 10
45.5887186613146
 20
102.333986621878
 30
0.0
 40
2.99999997871263
  1
339
 50
89.9999999480344
 41
0.933333333333333
 72
     1
 11
44.0887186754906
 21
106.233986595563
 31
0.0
 73
     2
  0
LINE
  5
   473
  8
0
  6
CONTINUOUS
 62
     7
 10
66.5438791828948
 20
165.833977125662
 30
0.0
 11
44.5887186648469
 21
165.833977125662
 31
0.0
  0
LINE
  5
   474
  8
0
  6
CONTINUOUS
 62
     7
 10
46.5887186648469
 20
47.1840005085645
 30
0.0
 11
46.5887186648469
 21
165.833977125662
 31
0.0
  0
LINE
  5
   475
  8
0
  6
CONTINUOUS
 62
     7
 10
46.0677742348952
 20
50.1384237857715
 30
0.0
 11
46.5887186648469
 21
47.1840005085645
 31
0.0
  0
LINE
  5
   476
  8
0
  6
CONTINUOUS
 62
     7
 10
46.5887186648469
 20
47.1840005085645
 30
0.0
 11
47.1096630947986
 21
50.1384237857715
 31
0.0
  0
LINE
  5
   477
  8
0
  6
CONTINUOUS
 62
     7
 10
47.1096630947986
 20
162.879553848455
 30
0.0
 11
46.5887186648469
 21
165.833977125662
 31
0.0
  0
LINE
  5
   478
  8
0
  6
CONTINUOUS
 62
     7
 10
46.5887186648469
 20
165.833977125662
 30
0.0
 11
46.0677742348952
 21
162.879553848455
 31
0.0
  0
ENDBLK
  5
   479
  8
0
  6
CONTINUOUS
 62
     7
  0
BLOCK
  5
   47A
  8
0
  6
CONTINUOUS
 62
     7
  2
*UDIM402
 70
    65
 10
0.0
 20
0.0
 30
0.0
  3
*UDIM402
  0
TEXT
  5
   47B
  8
0
  6
CONTINUOUS
 62
     7
 10
54.0599317586386
 20
61.3402510886704
 30
0.0
 40
2.99999997871263
  1
128,75
 50
89.9999999480344
 41
0.933333333333333
 72
     1
 11
52.5599317766185
 21
69.440251032553
 31
0.0
 73
     2
  0
LINE
  5
   47C
  8
0
  6
CONTINUOUS
 62
     7
 10
66.5439261004697
 20
47.1840005085645
 30
0.0
 11
53.0599317659749
 21
47.1840005085645
 31
0.0
  0
LINE
  5
   47D
  8
0
  6
CONTINUOUS
 62
     7
 10
55.0599317659749
 20
47.1840005085645
 30
0.0
 11
55.0599317659749
 21
92.2464997411544
 31
0.0
  0
LINE
  5
   47E
  8
0
  6
CONTINUOUS
 62
     7
 10
54.5389873360232
 20
50.1384237857715
 30
0.0
 11
55.0599317659749
 21
47.1840005085645
 31
0.0
  0
LINE
  5
   47F
  8
0
  6
CONTINUOUS
 62
     7
 10
55.0599317659749
 20
47.1840005085645
 30
0.0
 11
55.5808761959265
 21
50.1384237857715
 31
0.0
  0
LINE
  5
   480
  8
0
  6
CONTINUOUS
 62
     7
 10
55.5808761959265
 20
89.2920764639474
 30
0.0
 11
55.0599317659749
 21
92.2464997411544
 31
0.0
  0
LINE
  5
   481
  8
0
  6
CONTINUOUS
 62
     7
 10
55.0599317659749
 20
92.2464997411544
 30
0.0
 11
54.5389873360232
 21
89.2920764639474
 31
0.0
  0
ENDBLK
  5
   482
  8
0
  6
CONTINUOUS
 62
     7
  0
BLOCK
  5
   483
  8
0
  6
CONTINUOUS
 62
     7
  2
*UDIM403
 70
    65
 10
0.0
 20
0.0
 30
0.0
  3
*UDIM403
  0
TEXT
  5
   484
  8
0
  6
CONTINUOUS
 62
     7
 10
138.638713822028
 20
-87.7306061682398
 30
0.0
 40
3.00000002980232
  1
108,75
 50
449.999999896069
 41
0.933333333333333
 72
     1
 11
137.138713821769
 21
-79.630606085062
 31
0.0
 73
     2
  0
LINE
  5
   485
  8
0
  6
CONTINUOUS
 62
     7
 10
146.81542008701
 20
-92.9493560791016
 30
0.0
 11
137.63871383667
 21
-92.9493560791016
 31
0.0
  0
LINE
  5
   486
  8
0
  6
CONTINUOUS
 62
     7
 10
139.63871383667
 20
-65.7618560791016
 30
0.0
 11
139.63871383667
 21
-92.9493560791016
 31
0.0
  0
LINE
  5
   487
  8
0
  6
CONTINUOUS
 62
     7
 10
140.159658266622
 20
-68.7162793563085
 30
0.0
 11
139.63871383667
 21
-65.7618560791016
 31
0.0
  0
LINE
  5
   488
  8
0
  6
CONTINUOUS
 62
     7
 10
139.63871383667
 20
-65.7618560791016
 30
0.0
 11
139.117769406718
 21
-68.7162793563085
 31
0.0
  0
LINE
  5
   489
  8
0
  6
CONTINUOUS
 62
     7
 10
139.117769406718
 20
-89.9949328018946
 30
0.0
 11
139.63871383667
 21
-92.9493560791016
 31
0.0
  0
LINE
  5
   48A
  8
0
  6
CONTINUOUS
 62
     7
 10
139.63871383667
 20
-92.9493560791016
 30
0.0
 11
140.159658266622
 21
-89.9949328018946
 31
0.0
  0
ENDBLK
  5
   48B
  8
0
  6
CONTINUOUS
 62
     7
  0
BLOCK
  5
   48C
  8
0
  6
CONTINUOUS
 62
     7
  2
*UDIM404
 70
    65
 10
0.0
 20
0.0
 30
0.0
  3
*UDIM404
  0
TEXT
  5
   48D
  8
0
  6
CONTINUOUS
 62
     7
 10
176.381364794839
 20
-44.6216087296086
 30
0.0
 40
3.00000002980232
  1
35
 50
359.999999896069
 41
0.933333333333333
 72
     1
 11
178.881364822388
 21
-43.1216087192297
 31
0.0
 73
     2
  0
LINE
  5
   48E
  8
0
  6
CONTINUOUS
 62
     7
 10
181.381364847223
 20
-45.6216087341309
 30
0.0
 11
154.945373535156
 21
-45.6216087341309
 31
0.0
  0
LINE
  5
   48F
  8
0
  6
CONTINUOUS
 62
     7
 10
166.649796812363
 20
-45.1006643041792
 30
0.0
 11
163.695373535156
 21
-45.6216087341309
 31
0.0
  0
LINE
  5
   490
  8
0
  6
CONTINUOUS
 62
     7
 10
163.695373535156
 20
-45.6216087341309
 30
0.0
 11
166.649796812363
 21
-46.1425531640825
 31
0.0
  0
LINE
  5
   491
  8
0
  6
CONTINUOUS
 62
     7
 10
151.990950257949
 20
-46.1425531640825
 30
0.0
 11
154.945373535156
 21
-45.6216087341309
 31
0.0
  0
LINE
  5
   492
  8
0
  6
CONTINUOUS
 62
     7
 10
154.945373535156
 20
-45.6216087341309
 30
0.0
 11
151.990950257949
 21
-45.1006643041792
 31
0.0
  0
ENDBLK
  5
   493
  8
0
  6
CONTINUOUS
 62
     7
  0
BLOCK
  5
   494
  8
0
  6
CONTINUOUS
 62
     7
  2
*UDIM405
 70
    65
 10
0.0
 20
0.0
 30
0.0
  3
*UDIM405
  0
TEXT
  5
   495
  8
0
  6
CONTINUOUS
 62
     7
 10
175.514724872442
 20
-20.6689703088723
 30
0.0
 40
3.00000002980232
  1
5,5
 50
338.440974983981
 41
0.933333333333333
 72
     1
 11
179.693068305587
 21
-20.7070032103351
 31
0.0
 73
     2
  0
TEXT
  5
   496
  8
0
  6
CONTINUOUS
 62
     7
 10
172.585100397126
 20
-19.5114727943108
 30
0.0
 40
3.00000002980232
  1
Ø
 50
338.440974983981
 41
0.933333333333334
 72
     1
 11
174.159333171406
 21
-18.5206190002877
 31
0.0
 73
     2
  0
TEXT
  5
   497
  8
0
  6
CONTINUOUS
 62
     7
 10
183.280554886407
 20
-23.7372574022359
 30
0.0
 40
3.00000002980232
  1
 - M5
 50
338.440974983981
 41
0.933333333333333
 72
     1
 11
190.063008978418
 21
-24.8041769991846
 31
0.0
 73
     2
  0
LINE
  5
   498
  8
0
  6
CONTINUOUS
 62
     7
 10
195.375624946331
 20
-29.5912546613766
 30
0.0
 11
163.055971370347
 21
-16.8217276530728
 31
0.0
  0
LINE
  5
   499
  8
0
  6
CONTINUOUS
 62
     7
 10
167.273932079012
 20
-17.9281165867117
 30
0.0
 11
164.334775699965
 21
-17.3269845051303
 31
0.0
  0
LINE
  5
   49A
  8
0
  6
CONTINUOUS
 62
     7
 10
164.334775699965
 20
-17.3269845051303
 30
0.0
 11
166.891080089523
 21
-18.8971143940025
 31
0.0
  0
LINE
  5
   49B
  8
0
  6
CONTINUOUS
 62
     7
 10
160.1168149913
 20
-16.2205955714914
 30
0.0
 11
163.055971370347
 21
-16.8217276530728
 31
0.0
  0
LINE
  5
   49C
  8
0
  6
CONTINUOUS
 62
     7
 10
163.055971370347
 20
-16.8217276530728
 30
0.0
 11
160.49966698079
 21
-15.2515977642006
 31
0.0
  0
ENDBLK
  5
   49D
  8
0
  6
CONTINUOUS
 62
     7
  0
BLOCK
  5
   49E
  8
0
  6
CONTINUOUS
 62
     7
  2
*UDIM406
 70
    65
 10
0.0
 20
0.0
 30
0.0
  3
*UDIM406
  0
TEXT
  5
   49F
  8
0
  6
CONTINUOUS
 62
     7
 10
129.012378680516
 20
-61.9868556755508
 30
0.0
 40
3.00000002980232
  1
303,5
 50
449.999999896069
 41
0.933333333333333
 72
     1
 11
127.512378677726
 21
-55.2868556062808
 31
0.0
 73
     2
  0
LINE
  5
   4A0
  8
0
  6
CONTINUOUS
 62
     7
 10
145.96870513272
 20
-17.0743557651851
 30
0.0
 11
128.012378692627
 21
-17.0743501283984
 31
0.0
  0
LINE
  5
   4A1
  8
0
  6
CONTINUOUS
 62
     7
 10
146.81542008701
 20
-92.9493557651851
 30
0.0
 11
128.012378692627
 21
-92.9493498626007
 31
0.0
  0
LINE
  5
   4A2
  8
0
  6
CONTINUOUS
 62
     7
 10
130.012378692627
 20
-17.0743507562314
 30
0.0
 11
130.012378692627
 21
-92.9493504904336
 31
0.0
  0
LINE
  5
   4A3
  8
0
  6
CONTINUOUS
 62
     7
 10
130.533323122579
 20
-20.0287740334383
 30
0.0
 11
130.012378692627
 21
-17.0743507562314
 31
0.0
  0
LINE
  5
   4A4
  8
0
  6
CONTINUOUS
 62
     7
 10
130.012378692627
 20
-17.0743507562314
 30
0.0
 11
129.491434262675
 21
-20.0287740334383
 31
0.0
  0
LINE
  5
   4A5
  8
0
  6
CONTINUOUS
 62
     7
 10
129.491434262675
 20
-89.9949272132266
 30
0.0
 11
130.012378692627
 21
-92.9493504904336
 31
0.0
  0
LINE
  5
   4A6
  8
0
  6
CONTINUOUS
 62
     7
 10
130.012378692627
 20
-92.9493504904336
 30
0.0
 11
130.533323122579
 21
-89.9949272132266
 31
0.0
  0
ENDBLK
  5
   4A7
  8
0
  6
CONTINUOUS
 62
     7
  0
BLOCK
  5
   4A8
  8
0
  6
CONTINUOUS
 62
     7
  2
*UDIM407
 70
    65
 10
0.0
 20
0.0
 30
0.0
  3
*UDIM407
  0
TEXT
  5
   4A9
  8
0
  6
CONTINUOUS
 62
     7
 10
261.869462896464
 20
-0.328016995964346
 30
0.0
 40
3.00000002980232
  1
15
 50
390.951601689505
 41
0.933333333333333
 72
     1
 11
263.2419972912
 21
2.24417069239495
 31
0.0
 73
     2
  0
TEXT
  5
   4AA
  8
0
  6
CONTINUOUS
 62
     7
 10
259.511057226752
 20
-1.74238006209654
 30
0.0
 40
3.00000002980232
  1
R
 50
390.951601689505
 41
0.933333333333334
 72
     1
 11
259.682948735943
 21
0.109768252108353
 31
0.0
 73
     2
  0
LINE
  5
   4AB
  8
0
  6
CONTINUOUS
 62
     7
 10
266.671787037105
 20
1.38595015106311
 30
0.0
 11
235.93394713374
 21
-17.0478867242401
 31
0.0
  0
LINE
  5
   4AC
  8
0
  6
CONTINUOUS
 62
     7
 10
246.532187372214
 20
-11.299442975591
 30
0.0
 11
248.797977908545
 21
-9.33317919738871
 31
0.0
  0
LINE
  5
   4AD
  8
0
  6
CONTINUOUS
 62
     7
 10
248.797977908545
 20
-9.33317919738871
 30
0.0
 11
245.996329516904
 21
-10.4059169517428
 31
0.0
  0
ENDBLK
  5
   4AE
  8
0
  6
CONTINUOUS
 62
     7
  0
BLOCK
  5
   4AF
  8
0
  6
CONTINUOUS
 62
     7
  2
*UDIM408
 70
    65
 10
0.0
 20
0.0
 30
0.0
  3
*UDIM408
  0
TEXT
  5
   4B0
  8
0
  6
CONTINUOUS
 62
     7
 10
248.556970568765
 20
-83.8479900314885
 30
0.0
 40
3.00000002980232
  1
35
 50
359.999999896069
 41
0.933333333333333
 72
     1
 11
251.056970596314
 21
-82.3479900211096
 31
0.0
 73
     2
  0
LINE
  5
   4B1
  8
0
  6
CONTINUOUS
 62
     7
 10
245.581970214844
 20
-93.1993560791016
 30
0.0
 11
245.581970214844
 21
-82.8479900360107
 31
0.0
  0
LINE
  5
   4B2
  8
0
  6
CONTINUOUS
 62
     7
 10
253.556970621149
 20
-84.8479900360107
 30
0.0
 11
236.831970214844
 21
-84.8479900360107
 31
0.0
  0
LINE
  5
   4B3
  8
0
  6
CONTINUOUS
 62
     7
 10
242.627546937637
 20
-85.3689344659624
 30
0.0
 11
245.581970214844
 21
-84.8479900360107
 31
0.0
  0
LINE
  5
   4B4
  8
0
  6
CONTINUOUS
 62
     7
 10
245.581970214844
 20
-84.8479900360107
 30
0.0
 11
242.627546937637
 21
-84.3270456060591
 31
0.0
  0
LINE
  5
   4B5
  8
0
  6
CONTINUOUS
 62
     7
 10
239.786393492051
 20
-84.3270456060591
 30
0.0
 11
236.831970214844
 21
-84.8479900360107
 31
0.0
  0
LINE
  5
   4B6
  8
0
  6
CONTINUOUS
 62
     7
 10
236.831970214844
 20
-84.8479900360107
 30
0.0
 11
239.786393492051
 21
-85.3689344659624
 31
0.0
  0
ENDBLK
  5
   4B7
  8
0
  6
CONTINUOUS
 62
     7
  0
BLOCK
  5
   4B8
  8
0
  6
CONTINUOUS
 62
     7
  2
*UDIM409
 70
    65
 10
0.0
 20
0.0
 30
0.0
  3
*UDIM409
  0
TEXT
  5
   4B9
  8
0
  6
CONTINUOUS
 62
     7
 10
219.556970568765
 20
-83.8479900314885
 30
0.0
 40
3.00000002980232
  1
35
 50
359.999999896069
 41
0.933333333333333
 72
     1
 11
222.056970596313
 21
-82.3479900211096
 31
0.0
 73
     2
  0
LINE
  5
   4BA
  8
0
  6
CONTINUOUS
 62
     7
 10
228.081970214844
 20
-93.1993560791016
 30
0.0
 11
228.081970214844
 21
-82.8479900360107
 31
0.0
  0
LINE
  5
   4BB
  8
0
  6
CONTINUOUS
 62
     7
 10
236.831970214844
 20
-84.8479900360107
 30
0.0
 11
219.556970571478
 21
-84.8479900360107
 31
0.0
  0
LINE
  5
   4BC
  8
0
  6
CONTINUOUS
 62
     7
 10
233.877546937637
 20
-85.3689344659624
 30
0.0
 11
236.831970214844
 21
-84.8479900360107
 31
0.0
  0
LINE
  5
   4BD
  8
0
  6
CONTINUOUS
 62
     7
 10
236.831970214844
 20
-84.8479900360107
 30
0.0
 11
233.877546937637
 21
-84.3270456060591
 31
0.0
  0
LINE
  5
   4BE
  8
0
  6
CONTINUOUS
 62
     7
 10
231.036393492051
 20
-84.3270456060591
 30
0.0
 11
228.081970214844
 21
-84.8479900360107
 31
0.0
  0
LINE
  5
   4BF
  8
0
  6
CONTINUOUS
 62
     7
 10
228.081970214844
 20
-84.8479900360107
 30
0.0
 11
231.036393492051
 21
-85.3689344659624
 31
0.0
  0
ENDBLK
  5
   4C0
  8
0
  6
CONTINUOUS
 62
     7
  0
BLOCK
  5
   4C1
  8
0
  6
CONTINUOUS
 62
     7
  2
*UDIM410
 70
    65
 10
0.0
 20
0.0
 30
0.0
  3
*UDIM410
  0
TEXT
  5
   4C2
  8
0
  6
CONTINUOUS
 62
     7
 10
211.053663246734
 20
-59.1868561265165
 30
0.0
 40
3.00000002980232
  1
350
 50
449.999999896069
 41
0.933333333333333
 72
     1
 11
209.553663238883
 21
-55.286856085062
 31
0.0
 73
     2
  0
LINE
  5
   4C3
  8
0
  6
CONTINUOUS
 62
     7
 10
222.581970214844
 20
-11.2618560791016
 30
0.0
 11
210.053663253784
 21
-11.2618560791016
 31
0.0
  0
LINE
  5
   4C4
  8
0
  6
CONTINUOUS
 62
     7
 10
222.581970214844
 20
-98.7618560791016
 30
0.0
 11
210.053663253784
 21
-98.7618560791016
 31
0.0
  0
LINE
  5
   4C5
  8
0
  6
CONTINUOUS
 62
     7
 10
212.053663253784
 20
-11.2618560791016
 30
0.0
 11
212.053663253784
 21
-98.7618560791016
 31
0.0
  0
LINE
  5
   4C6
  8
0
  6
CONTINUOUS
 62
     7
 10
212.574607683736
 20
-14.2162793563085
 30
0.0
 11
212.053663253784
 21
-11.2618560791016
 31
0.0
  0
LINE
  5
   4C7
  8
0
  6
CONTINUOUS
 62
     7
 10
212.053663253784
 20
-11.2618560791016
 30
0.0
 11
211.532718823833
 21
-14.2162793563085
 31
0.0
  0
LINE
  5
   4C8
  8
0
  6
CONTINUOUS
 62
     7
 10
211.532718823833
 20
-95.8074328018946
 30
0.0
 11
212.053663253784
 21
-98.7618560791016
 31
0.0
  0
LINE
  5
   4C9
  8
0
  6
CONTINUOUS
 62
     7
 10
212.053663253784
 20
-98.7618560791016
 30
0.0
 11
212.574607683736
 21
-95.8074328018946
 31
0.0
  0
ENDBLK
  5
   4CA
  8
0
  6
CONTINUOUS
 62
     7
  0
BLOCK
  5
   4CB
  8
0
  6
CONTINUOUS
 62
     7
  2
*UDIM411
 70
    65
 10
0.0
 20
0.0
 30
0.0
  3
*UDIM411
  0
TEXT
  5
   4CC
  8
0
  6
CONTINUOUS
 62
     7
 10
263.951221459015
 20
-86.4368561265165
 30
0.0
 40
3.00000002980232
  1
132
 50
449.999999896069
 41
0.933333333333333
 72
     1
 11
262.451221451163
 21
-82.536856085062
 31
0.0
 73
     2
  0
LINE
  5
   4CD
  8
0
  6
CONTINUOUS
 62
     7
 10
258.49626060384
 20
-65.7618560791016
 30
0.0
 11
266.951221466064
 21
-65.7618560791016
 31
0.0
  0
LINE
  5
   4CE
  8
0
  6
CONTINUOUS
 62
     7
 10
251.081970214844
 20
-98.7618560791016
 30
0.0
 11
266.951221466064
 21
-98.7618560791016
 31
0.0
  0
LINE
  5
   4CF
  8
0
  6
CONTINUOUS
 62
     7
 10
264.951221466064
 20
-65.7618560791016
 30
0.0
 11
264.951221466064
 21
-98.7618560791016
 31
0.0
  0
LINE
  5
   4D0
  8
0
  6
CONTINUOUS
 62
     7
 10
265.472165896016
 20
-68.7162793563085
 30
0.0
 11
264.951221466064
 21
-65.7618560791016
 31
0.0
  0
LINE
  5
   4D1
  8
0
  6
CONTINUOUS
 62
     7
 10
264.951221466064
 20
-65.7618560791016
 30
0.0
 11
264.430277036113
 21
-68.7162793563085
 31
0.0
  0
LINE
  5
   4D2
  8
0
  6
CONTINUOUS
 62
     7
 10
264.430277036113
 20
-95.8074328018946
 30
0.0
 11
264.951221466064
 21
-98.7618560791016
 31
0.0
  0
LINE
  5
   4D3
  8
0
  6
CONTINUOUS
 62
     7
 10
264.951221466064
 20
-98.7618560791016
 30
0.0
 11
265.472165896016
 21
-95.8074328018946
 31
0.0
  0
ENDBLK
  5
   4D4
  8
0
  6
CONTINUOUS
 62
     7
  0
ENDSEC
  0
SECTION
  2
ENTITIES
  0
LINE
  5
   4D5
  8
0
  6
CONTINUOUS
 62
     7
 10
70.693962097168
 20
-79.7618560791016
 30
0.0
 11
98.693962097168
 21
-79.7618560791016
 31
0.0
  0
LINE
  5
   4D6
  8
0
  6
CONTINUOUS
 62
     7
 10
70.693962097168
 20
-51.7618560791016
 30
0.0
 11
98.693962097168
 21
-51.7618560791016
 31
0.0
  0
LINE
  5
   4D7
  8
0
  6
CONTINUOUS
 62
     7
 10
70.693962097168
 20
-51.7618560791016
 30
0.0
 11
70.693962097168
 21
-79.7618560791016
 31
0.0
  0
LINE
  5
   4D8
  8
0
  6
CONTINUOUS
 62
     7
 10
98.693962097168
 20
-51.7618560791016
 30
0.0
 11
98.693962097168
 21
-79.7618560791016
 31
0.0
  0
LINE
  5
   4D9
  8
0
  6
DASHDOT
 62
     7
 10
84.693962097168
 20
-36.667892833126
 30
0.0
 11
84.693962097168
 21
-95.7986463569088
 31
0.0
  0
CIRCLE
  5
   4DA
  8
0
  6
CONTINUOUS
 62
     7
 10
74.693962097168
 20
-48.0118560791016
 30
0.0
 40
0.875
  0
CIRCLE
  5
   4DB
  8
0
  6
CONTINUOUS
 62
     7
 10
94.693962097168
 20
-48.0118560791016
 30
0.0
 40
0.875
  0
CIRCLE
  5
   4DC
  8
0
  6
CONTINUOUS
 62
     7
 10
94.693962097168
 20
-83.5118560791016
 30
0.0
 40
0.875
  0
CIRCLE
  5
   4DD
  8
0
  6
CONTINUOUS
 62
     7
 10
74.693962097168
 20
-83.5118560791016
 30
0.0
 40
0.875
  0
LINE
  5
   4DE
  8
0
  6
CONTINUOUS
 62
     3
 10
66.7294664277535
 20
-45.6620557818103
 30
0.0
 11
102.532835697739
 21
-45.6620557818103
 31
0.0
  0
LINE
  5
   4DF
  8
0
  6
CONTINUOUS
 62
     3
 10
66.7294664277535
 20
-86.8673369065655
 30
0.0
 11
102.532835697739
 21
-86.8673369065655
 31
0.0
  0
LINE
  5
   4E0
  8
0
  6
CONTINUOUS
 62
     3
 10
102.532835697739
 20
-45.6620557818103
 30
0.0
 11
102.532835697739
 21
-86.8673369065655
 31
0.0
  0
LINE
  5
   4E1
  8
0
  6
CONTINUOUS
 62
     3
 10
66.7294664277535
 20
-45.6620557818103
 30
0.0
 11
66.7294664277535
 21
-86.8673369065655
 31
0.0
  0
LINE
  5
   4E2
  8
0
  6
DASHDOT
 62
     7
 10
94.693962097168
 20
-46.3868560791016
 30
0.0
 11
94.693962097168
 21
-49.6368560791016
 31
0.0
  0
LINE
  5
   4E3
  8
0
  6
DASHDOT
 62
     7
 10
93.068962097168
 20
-48.0118560791016
 30
0.0
 11
96.318962097168
 21
-48.0118560791016
 31
0.0
  0
LINE
  5
   4E4
  8
0
  6
DASHDOT
 62
     7
 10
74.693962097168
 20
-46.3868560791016
 30
0.0
 11
74.693962097168
 21
-49.6368560791016
 31
0.0
  0
LINE
  5
   4E5
  8
0
  6
DASHDOT
 62
     7
 10
73.068962097168
 20
-48.0118560791016
 30
0.0
 11
76.318962097168
 21
-48.0118560791016
 31
0.0
  0
LINE
  5
   4E6
  8
0
  6
DASHDOT
 62
     7
 10
74.693962097168
 20
-81.8868560791016
 30
0.0
 11
74.693962097168
 21
-85.1368560791016
 31
0.0
  0
LINE
  5
   4E7
  8
0
  6
DASHDOT
 62
     7
 10
73.068962097168
 20
-83.5118560791016
 30
0.0
 11
76.318962097168
 21
-83.5118560791016
 31
0.0
  0
LINE
  5
   4E8
  8
0
  6
DASHDOT
 62
     7
 10
94.693962097168
 20
-81.8868560791016
 30
0.0
 11
94.693962097168
 21
-85.1368560791016
 31
0.0
  0
LINE
  5
   4E9
  8
0
  6
DASHDOT
 62
     7
 10
93.068962097168
 20
-83.5118560791016
 30
0.0
 11
96.318962097168
 21
-83.5118560791016
 31
0.0
  0
LINE
  5
   4EA
  8
0
  6
DASHDOT
 62
     7
 10
59.3281045438114
 20
-65.7618560791016
 30
0.0
 11
112.324255396539
 21
-65.7618560791016
 31
0.0
  0
INSERT
  5
   4EB
  8
0
  6
CONTINUOUS
 62
     7
  2
*UDIM375
 10
0.0
 20
0.0
 30
0.0
  0
INSERT
  5
   4EC
  8
0
  6
CONTINUOUS
 62
     7
  2
*UDIM376
 10
0.0
 20
0.0
 30
0.0
  0
INSERT
  5
   4ED
  8
0
  6
CONTINUOUS
 62
     7
  2
*UDIM377
 10
0.0
 20
0.0
 30
0.0
  0
INSERT
  5
   4EE
  8
0
  6
CONTINUOUS
 62
     7
  2
*UDIM378
 10
0.0
 20
0.0
 30
0.0
  0
INSERT
  5
   4EF
  8
0
  6
CONTINUOUS
 62
     7
  2
*UDIM379
 10
0.0
 20
0.0
 30
0.0
  0
TEXT
  5
   4F0
  8
0
  6
CONTINUOUS
 62
     7
 10
77.4439580717655
 20
-39.2239783372141
 30
0.0
 40
3.00000002980232
  1
=   =
 50
359.999999844103
 41
0.916666604744064
 72
     2
 11
90.6439573068392
 21
-39.2239783730638
 31
0.0
  0
TEXT
  5
   4F1
  8
0
  6
CONTINUOUS
 62
     7
 10
76.2276086284689
 20
-30.7036975555702
 30
0.0
 40
3.00000002980232
  1
=    =
 50
359.999999844103
 41
0.916666604744064
 72
     2
 11
92.1776077050936
 21
-30.7036975988886
 31
0.0
  0
TEXT
  5
   4F2
  8
0
  6
CONTINUOUS
 62
     7
 10
58.1352644594745
 20
-76.0257555793672
 30
0.0
 40
3.00000002980232
  1
=     =
 50
449.999999844103
 41
0.916666604744064
 72
     2
 11
58.1352645102381
 21
-57.3257566611915
 31
0.0
  0
TEXT
  5
   4F3
  8
0
  6
CONTINUOUS
 62
     7
 10
48.4221447047607
 20
-78.1176427365292
 30
0.0
 40
3.00000002980232
  1
=       =
 50
449.999999844103
 41
0.916666604744064
 72
     2
 11
48.4221447704548
 21
-53.9176441352516
 31
0.0
  0
TEXT
  5
   4F4
  8
0
  6
CONTINUOUS
 62
     7
 10
83.5021941561472
 20
-99.2067604756305
 30
0.0
 40
3.00000002980232
  1
Y
 50
359.999999844103
 41
0.916666604744064
 72
     2
 11
85.702194025017
 21
-99.2067604816054
 31
0.0
  0
TEXT
  5
   4F5
  8
0
  6
CONTINUOUS
 62
     7
 10
83.6725997824442
 20
-21.3313866352984
 30
0.0
 40
3.00000002980232
  1
Y
 50
359.999999844103
 41
0.916666604744064
 72
     2
 11
85.872599651314
 21
-21.3313866412734
 31
0.0
  0
TEXT
  5
   4F6
  8
0
  6
CONTINUOUS
 62
     7
 10
35.277401079632
 20
-67.1705005860278
 30
0.0
 40
3.00000002980232
  1
X
 50
359.999999844103
 41
0.916666604744064
 72
     2
 11
37.4774009485018
 21
-67.1705005920028
 31
0.0
  0
LINE
  5
   4F7
  8
0
  6
CONTINUOUS
 62
     7
 10
204.028810721636
 20
101.958992709297
 30
0.0
 11
204.028810721636
 21
102.133982025164
 31
0.0
  0
LINE
  5
   4F8
  8
0
  6
CONTINUOUS
 62
     7
 10
204.028810721636
 20
107.383981935757
 30
0.0
 11
204.028810721636
 21
114.383971135396
 31
0.0
  0
LINE
  5
   4F9
  8
0
  6
CONTINUOUS
 62
     7
 10
204.903821387887
 20
102.133982025164
 30
0.0
 11
204.903821387887
 21
107.383981935757
 31
0.0
  0
LINE
  5
   4FA
  8
0
  6
CONTINUOUS
 62
     7
 10
204.903821387887
 20
102.133982025164
 30
0.0
 11
204.028810721636
 21
102.133982025164
 31
0.0
  0
LINE
  5
   4FB
  8
0
  6
CONTINUOUS
 62
     7
 10
204.903821387887
 20
107.383981935757
 30
0.0
 11
204.028810721636
 21
107.383981935757
 31
0.0
  0
LINE
  5
   4FC
  8
0
  6
CONTINUOUS
 62
     7
 10
204.903821387887
 20
114.383971135396
 30
0.0
 11
204.903821387887
 21
119.633971045989
 31
0.0
  0
LINE
  5
   4FD
  8
0
  6
CONTINUOUS
 62
     7
 10
204.903821387887
 20
114.383971135396
 30
0.0
 11
204.028810721636
 21
114.383971135396
 31
0.0
  0
LINE
  5
   4FE
  8
0
  6
CONTINUOUS
 62
     7
 10
204.903821387887
 20
119.633971045989
 30
0.0
 11
204.028810721636
 21
119.633971045989
 31
0.0
  0
LINE
  5
   4FF
  8
0
  6
CONTINUOUS
 62
     7
 10
228.003804972768
 20
101.958982028144
 30
0.0
 11
228.003804972768
 21
121.208971019167
 31
0.0
  0
LINE
  5
   500
  8
0
  6
CONTINUOUS
 62
     2
 10
204.028789359169
 20
121.033971022147
 30
0.0
 11
204.028789359169
 21
128.249089307477
 31
0.0
  0
LINE
  5
   501
  8
0
  6
CONTINUOUS
 62
     7
 10
229.228810292482
 20
127.333970914859
 30
0.0
 11
228.003810313344
 21
127.333970914859
 31
0.0
  0
LINE
  5
   502
  8
0
  6
CONTINUOUS
 62
     7
 10
228.003772929063
 20
121.208967967442
 30
0.0
 11
228.003772929063
 21
127.333967863134
 31
0.0
  0
LINE
  5
   503
  8
0
  6
CONTINUOUS
 62
     7
 10
205.428810697794
 20
121.908971007246
 30
0.0
 11
204.028810721636
 21
121.908971007246
 31
0.0
  0
LINE
  5
   504
  8
0
  6
CONTINUOUS
 62
     7
 10
205.428811587762
 20
121.90896656348
 30
0.0
 11
205.42882493921
 21
127.158970917839
 31
0.0
  0
LINE
  5
   505
  8
0
  6
CONTINUOUS
 62
     7
 10
228.003804972768
 20
98.6339874253449
 30
0.0
 11
228.003804972768
 21
101.958992709297
 31
0.0
  0
LINE
  5
   506
  8
0
  6
CONTINUOUS
 62
     7
 10
204.028814291398
 20
77.2839966919703
 30
0.0
 11
204.02882497255
 21
77.3869789788345
 31
0.0
  0
LINE
  5
   507
  8
0
  6
CONTINUOUS
 62
     7
 10
204.02882140269
 20
82.7810130607303
 30
0.0
 11
204.02882140269
 21
101.958989723877
 31
0.0
  0
LINE
  5
   508
  8
0
  6
CONTINUOUS
 62
     7
 10
228.878810298443
 20
82.0089930490431
 30
0.0
 11
205.078798954486
 21
82.0089930490431
 31
0.0
  0
LINE
  5
   509
  8
0
  6
CONTINUOUS
 62
     7
 10
228.878810298443
 20
78.1589931146082
 30
0.0
 11
205.078798954486
 21
78.1589931146082
 31
0.0
  0
LINE
  5
   50A
  8
0
  6
CONTINUOUS
 62
     7
 10
206.910031321256
 20
82.008996608271
 30
0.0
 11
204.028822692419
 21
82.7810165942714
 31
0.0
  0
LINE
  5
   50B
  8
0
  6
CONTINUOUS
 62
     7
 10
204.028824307313
 20
77.3869759867301
 30
0.0
 11
206.910033002491
 21
78.15899348866
 31
0.0
  0
LINE
  5
   50C
  8
0
  6
CONTINUOUS
 62
     7
 10
229.228804951906
 20
83.0589930311617
 30
0.0
 11
226.42880499959
 21
83.0589930311617
 31
0.0
  0
LINE
  5
   50D
  8
0
  6
CONTINUOUS
 62
     7
 10
226.42880499959
 20
83.0589930311617
 30
0.0
 11
226.42880499959
 21
97.9339874372658
 31
0.0
  0
LINE
  5
   50E
  8
0
  6
CONTINUOUS
 62
     7
 10
204.378821396827
 20
80.2589930788454
 30
0.0
 11
204.378821396827
 21
82.6872301895924
 31
0.0
  0
LINE
  5
   50F
  8
0
  6
CONTINUOUS
 62
     7
 10
204.378816467077
 20
77.4807594535249
 30
0.0
 11
204.378821807649
 21
77.8089966012861
 31
0.0
  0
LINE
  5
   510
  8
0
  6
CONTINUOUS
 62
     2
 10
204.028821402788
 20
83.0589930311617
 30
0.0
 11
203.328821414709
 21
83.0589930311617
 31
0.0
  0
LINE
  5
   511
  8
0
  6
CONTINUOUS
 62
     2
 10
204.028821402788
 20
84.9839929983791
 30
0.0
 11
203.328821414709
 21
84.9839929983791
 31
0.0
  0
LINE
  5
   512
  8
0
  6
CONTINUOUS
 62
     7
 10
229.228797388407
 20
77.8090067797361
 30
0.0
 11
228.878802746352
 21
78.159001421791
 31
0.0
  0
LINE
  5
   513
  8
0
  6
CONTINUOUS
 62
     7
 10
228.878805875659
 20
82.0089935397279
 30
0.0
 11
229.228805857718
 21
82.3589935217874
 31
0.0
  0
LINE
  5
   514
  8
0
  6
CONTINUOUS
 62
     7
 10
228.003804972768
 20
97.9339874372658
 30
0.0
 11
228.003804972768
 21
98.6339874253449
 31
0.0
  0
LINE
  5
   515
  8
0
  6
CONTINUOUS
 62
     2
 10
204.728821390867
 20
70.9840039179503
 30
0.0
 11
203.328821414709
 21
70.9840039179503
 31
0.0
  0
LINE
  5
   516
  8
0
  6
CONTINUOUS
 62
     7
 10
204.028810721636
 20
75.8839931533512
 30
0.0
 11
204.028810721636
 21
77.2839931295093
 31
0.0
  0
LINE
  5
   517
  8
0
  6
CONTINUOUS
 62
     7
 10
229.228804951906
 20
72.7340038881475
 30
0.0
 11
225.728810352087
 21
72.7340038881475
 31
0.0
  0
LINE
  5
   518
  8
0
  6
CONTINUOUS
 62
     7
 10
225.728810352087
 20
70.9840039179499
 30
0.0
 11
225.728810352087
 21
72.7340038881475
 31
0.0
  0
LINE
  5
   519
  8
0
  6
CONTINUOUS
 62
     7
 10
204.028810721636
 20
71.8590105253505
 30
0.0
 11
204.028810721636
 21
75.8839931533512
 31
0.0
  0
LINE
  5
   51A
  8
0
  6
CONTINUOUS
 62
     2
 10
204.028810721636
 20
121.033971022147
 30
0.0
 11
203.853821405768
 21
121.033971022147
 31
0.0
  0
LINE
  5
   51B
  8
0
  6
CONTINUOUS
 62
     7
 10
204.028816062212
 20
96.358992804664
 30
0.0
 11
203.853821405768
 21
96.358992804664
 31
0.0
  0
LINE
  5
   51C
  8
0
  6
CONTINUOUS
 62
     7
 10
204.028821402788
 20
85.1589943305429
 30
0.0
 11
203.853821405768
 21
85.1589943305429
 31
0.0
  0
LINE
  5
   51D
  8
0
  6
CONTINUOUS
 62
     7
 10
204.378821396827
 20
82.5339933738884
 30
0.0
 11
203.853821405768
 21
82.5339933738884
 31
0.0
  0
LINE
  5
   51E
  8
0
  6
CONTINUOUS
 62
     7
 10
204.028810721636
 20
76.9339984760459
 30
0.0
 11
203.853821405768
 21
76.9339984760459
 31
0.0
  0
LINE
  5
   51F
  8
0
  6
CONTINUOUS
 62
     2
 10
203.853821405768
 20
72.1740072405036
 30
0.0
 11
203.853821405768
 21
83.0589876905856
 31
0.0
  0
LINE
  5
   520
  8
0
  6
CONTINUOUS
 62
     2
 10
203.853821405768
 20
84.983987657803
 30
0.0
 11
203.853821405768
 21
121.033965681571
 31
0.0
  0
LINE
  5
   521
  8
0
  6
CONTINUOUS
 62
     7
 10
204.378821396827
 20
114.383987157124
 30
0.0
 11
204.378821396827
 21
119.633971045989
 31
0.0
  0
LINE
  5
   522
  8
0
  6
CONTINUOUS
 62
     7
 10
204.378821396827
 20
102.134003387469
 30
0.0
 11
204.378821396827
 21
107.383997957485
 31
0.0
  0
LINE
  5
   523
  8
0
  6
CONTINUOUS
 62
     7
 10
204.378821396827
 20
77.809019823449
 30
0.0
 11
204.378821396827
 21
80.2590197817258
 31
0.0
  0
LINE
  5
   524
  8
0
  6
CONTINUOUS
 62
     2
 10
203.993818670223
 20
72.034009976049
 30
0.0
 11
203.853820810451
 21
72.1740078358207
 31
0.0
  0
LINE
  5
   525
  8
0
  6
CONTINUOUS
 62
     2
 10
204.028821402788
 20
126.63397092678
 30
0.0
 11
203.328821414709
 21
126.63397092678
 31
0.0
  0
LINE
  5
   526
  8
0
  6
CONTINUOUS
 62
     2
 10
204.028821402788
 20
130.483970861214
 30
0.0
 11
203.328821414709
 21
130.483970861214
 31
0.0
  0
LINE
  5
   527
  8
0
  6
CONTINUOUS
 62
     2
 10
204.028821402788
 20
129.543046804973
 30
0.0
 11
203.328821414709
 21
129.543046804973
 31
0.0
  0
LINE
  5
   528
  8
0
  6
CONTINUOUS
 62
     2
 10
204.028821402788
 20
128.249089307477
 30
0.0
 11
203.328821414709
 21
128.249089307477
 31
0.0
  0
LINE
  5
   529
  8
0
  6
CONTINUOUS
 62
     7
 10
228.178799629211
 20
103.008969867061
 30
0.0
 11
228.178799629211
 21
122.083985563944
 31
0.0
  0
LINE
  5
   52A
  8
0
  6
CONTINUOUS
 62
     7
 10
237.803810146451
 20
127.508982874756
 30
0.0
 11
237.803810146451
 21
127.683982871776
 31
0.0
  0
LINE
  5
   52B
  8
0
  6
CONTINUOUS
 62
     7
 10
229.228810292482
 20
127.158977540141
 30
0.0
 11
229.228810292482
 21
127.508982874756
 31
0.0
  0
LINE
  5
   52C
  8
0
  6
CONTINUOUS
 62
     7
 10
237.103810158372
 20
127.508982874756
 30
0.0
 11
236.998809092045
 21
127.508982874756
 31
0.0
  0
LINE
  5
   52D
  8
0
  6
CONTINUOUS
 62
     7
 10
229.228810292482
 20
127.158988221293
 30
0.0
 11
228.178810310364
 21
127.158988221293
 31
0.0
  0
LINE
  5
   52E
  8
0
  6
CONTINUOUS
 62
     7
 10
228.178810310364
 20
122.08398830772
 30
0.0
 11
228.178810310364
 21
127.158988221293
 31
0.0
  0
LINE
  5
   52F
  8
0
  6
CONTINUOUS
 62
     7
 10
229.228794270754
 20
73.0839944827608
 30
0.0
 11
229.228794270754
 21
75.6308084042326
 31
0.0
  0
LINE
  5
   530
  8
0
  6
CONTINUOUS
 62
     7
 10
228.178804969788
 20
98.8089833635145
 30
0.0
 11
228.178804969788
 21
103.008972610837
 31
0.0
  0
LINE
  5
   531
  8
0
  6
CONTINUOUS
 62
     7
 10
228.178804969788
 20
97.9339726972635
 30
0.0
 11
227.828804975748
 21
97.9339726972635
 31
0.0
  0
LINE
  5
   532
  8
0
  6
CONTINUOUS
 62
     7
 10
236.99879814628
 20
72.0340051818018
 30
0.0
 11
229.228794006141
 21
72.0340051818018
 31
0.0
  0
LINE
  5
   533
  8
0
  6
CONTINUOUS
 62
     7
 10
229.228794270754
 20
72.0339945006422
 30
0.0
 11
229.228794270754
 21
73.0839944827608
 31
0.0
  0
LINE
  5
   534
  8
0
  6
CONTINUOUS
 62
     7
 10
229.22879961133
 20
75.6308084042326
 30
0.0
 11
229.22879961133
 21
78.0714976214233
 31
0.0
  0
LINE
  5
   535
  8
0
  6
CONTINUOUS
 62
     7
 10
237.103794136644
 20
70.9839891779475
 30
0.0
 11
237.103794136644
 21
72.0339891600661
 31
0.0
  0
LINE
  5
   536
  8
0
  6
CONTINUOUS
 62
     7
 10
237.103794136644
 20
72.0339891600661
 30
0.0
 11
236.998798431754
 21
72.0339891600661
 31
0.0
  0
LINE
  5
   537
  8
0
  6
CONTINUOUS
 62
     7
 10
227.828804975748
 20
97.9339726972635
 30
0.0
 11
226.42880499959
 21
97.9339726972635
 31
0.0
  0
LINE
  5
   538
  8
0
  6
CONTINUOUS
 62
     7
 10
228.178804969788
 20
97.9339726972635
 30
0.0
 11
228.178804969788
 21
98.8089833635145
 31
0.0
  0
LINE
  5
   539
  8
0
  6
CONTINUOUS
 62
     7
 10
236.998796955469
 20
78.0715050789824
 30
0.0
 11
229.228798155906
 21
78.0715050789824
 31
0.0
  0
LINE
  5
   53A
  8
0
  6
CONTINUOUS
 62
     7
 10
236.998794381407
 20
82.0965050104361
 30
0.0
 11
229.228795581845
 21
82.0965050104361
 31
0.0
  0
LINE
  5
   53B
  8
0
  6
CONTINUOUS
 62
     7
 10
229.68345851015
 20
73.346500469121
 30
0.0
 11
229.753793886116
 21
73.6090004610267
 31
0.0
  0
LINE
  5
   53C
  8
0
  6
CONTINUOUS
 62
     7
 10
229.491297535942
 20
73.154333299483
 30
0.0
 11
229.68345679122
 21
73.3464979001138
 31
0.0
  0
LINE
  5
   53D
  8
0
  6
CONTINUOUS
 62
     7
 10
229.228788220865
 20
73.0840026852487
 30
0.0
 11
229.491293546386
 21
73.1543380665678
 31
0.0
  0
LINE
  5
   53E
  8
0
  6
CONTINUOUS
 62
     7
 10
229.491296470904
 20
77.2136597860059
 30
0.0
 11
229.2287964773
 21
77.2840005073771
 31
0.0
  0
LINE
  5
   53F
  8
0
  6
CONTINUOUS
 62
     7
 10
229.683455280871
 20
77.0214975891821
 30
0.0
 11
229.491296022919
 21
77.2136568471337
 31
0.0
  0
LINE
  5
   540
  8
0
  6
CONTINUOUS
 62
     7
 10
229.753790253171
 20
76.7589980802687
 30
0.0
 11
229.6834495318
 21
77.0214980738737
 31
0.0
  0
LINE
  5
   541
  8
0
  6
CONTINUOUS
 62
     7
 10
229.753791294839
 20
73.6089965516423
 30
0.0
 11
229.753796635414
 21
76.7589964979982
 31
0.0
  0
LINE
  5
   542
  8
0
  6
CONTINUOUS
 62
     7
 10
236.998798410892
 20
72.0339891600661
 30
0.0
 11
236.998798410892
 21
127.508978495282
 31
0.0
  0
LINE
  5
   543
  8
0
  6
CONTINUOUS
 62
     7
 10
236.998814432621
 20
135.103987017875
 30
0.0
 11
204.028789359169
 21
135.103987017875
 31
0.0
  0
LINE
  5
   544
  8
0
  6
CONTINUOUS
 62
     7
 10
236.998777048584
 20
127.508980462918
 30
0.0
 11
236.998777048584
 21
135.103984606037
 31
0.0
  0
LINE
  5
   545
  8
0
  6
CONTINUOUS
 62
     7
 10
229.228810292482
 20
127.508988215332
 30
0.0
 11
229.228810292482
 21
136.083986787575
 31
0.0
  0
LINE
  5
   546
  8
0
  6
CONTINUOUS
 62
     7
 10
242.70381540358
 20
73.871510491078
 30
0.0
 11
242.70381540358
 21
80.3464984179313
 31
0.0
  0
LINE
  5
   547
  8
0
  6
CONTINUOUS
 62
     7
 10
242.70381540358
 20
109.833999197488
 30
0.0
 11
242.70381540358
 21
109.921499195998
 31
0.0
  0
LINE
  5
   548
  8
0
  6
CONTINUOUS
 62
     7
 10
240.778817439079
 20
110.621499184077
 30
0.0
 11
239.553815457225
 21
110.621499184077
 31
0.0
  0
LINE
  5
   549
  8
0
  6
CONTINUOUS
 62
     7
 10
240.778817439079
 20
73.871510491078
 30
0.0
 11
239.553815457225
 21
73.871510491078
 31
0.0
  0
LINE
  5
   54A
  8
0
  6
CONTINUOUS
 62
     7
 10
237.103815498948
 20
68.1840105879355
 30
0.0
 11
237.103815498948
 21
72.0339891600661
 31
0.0
  0
LINE
  5
   54B
  8
0
  6
CONTINUOUS
 62
     7
 10
238.853815469146
 20
68.1840105879355
 30
0.0
 11
238.853815469146
 21
73.871510491078
 31
0.0
  0
LINE
  5
   54C
  8
0
  6
CONTINUOUS
 62
     7
 10
238.853815469146
 20
110.621499184077
 30
0.0
 11
238.853815469146
 21
127.508998896485
 31
0.0
  0
LINE
  5
   54D
  8
0
  6
CONTINUOUS
 62
     7
 10
238.853815469146
 20
127.508998896485
 30
0.0
 11
237.103815498948
 21
127.508998896485
 31
0.0
  0
LINE
  5
   54E
  8
0
  6
CONTINUOUS
 62
     7
 10
238.853815469146
 20
68.1840105879355
 30
0.0
 11
237.103815498948
 21
68.1840105879355
 31
0.0
  0
LINE
  5
   54F
  8
0
  6
CONTINUOUS
 62
     7
 10
239.553815457225
 20
73.871510491078
 30
0.0
 11
239.553815457225
 21
110.621499184077
 31
0.0
  0
LINE
  5
   550
  8
0
  6
CONTINUOUS
 62
     7
 10
239.553815457225
 20
73.871510491078
 30
0.0
 11
238.853815469146
 21
73.871510491078
 31
0.0
  0
LINE
  5
   551
  8
0
  6
CONTINUOUS
 62
     7
 10
239.553815457225
 20
110.621499184077
 30
0.0
 11
238.853815469146
 21
110.621499184077
 31
0.0
  0
LINE
  5
   552
  8
0
  6
CONTINUOUS
 62
     7
 10
236.998790304812
 20
82.2889836109706
 30
0.0
 11
237.10379136627
 21
82.2981694007054
 31
0.0
  0
LINE
  5
   553
  8
0
  6
CONTINUOUS
 62
     7
 10
237.103809416495
 20
77.8698047853401
 30
0.0
 11
236.9988083521
 21
77.878995915668
 31
0.0
  0
LINE
  5
   554
  8
0
  6
CONTINUOUS
 62
     7
 10
229.22879961133
 20
82.096497552879
 30
0.0
 11
229.22879961133
 21
83.0589836317354
 31
0.0
  0
LINE
  5
   555
  8
0
  6
CONTINUOUS
 62
     7
 10
236.998814098835
 20
48.1640106618451
 30
0.0
 11
220.338646981661
 21
48.1640106618451
 31
0.0
  0
LINE
  5
   556
  8
0
  6
CONTINUOUS
 62
     2
 10
204.728821390867
 20
71.8590105253505
 30
0.0
 11
203.328821414709
 21
71.8590105253505
 31
0.0
  0
LINE
  5
   557
  8
0
  6
CONTINUOUS
 62
     7
 10
236.998819773197
 20
71.8590105253505
 30
0.0
 11
230.978815603256
 21
71.8590105253505
 31
0.0
  0
LINE
  5
   558
  8
0
  6
CONTINUOUS
 62
   218
 10
237.978820824623
 20
47.1840109455633
 30
0.0
 11
237.978820824623
 21
55.584005461936
 31
0.0
  0
LINE
  5
   559
  8
0
  6
CONTINUOUS
 62
     2
 10
204.728821390867
 20
70.9840105402517
 30
0.0
 11
204.728821390867
 21
71.8590105253505
 31
0.0
  0
LINE
  5
   55A
  8
0
  6
CONTINUOUS
 62
   218
 10
236.998816902239
 20
56.9840054377807
 30
0.0
 11
237.103815498675
 21
56.984006670202
 31
0.0
  0
LINE
  5
   55B
  8
0
  6
CONTINUOUS
 62
   218
 10
237.978820824623
 20
55.584005461936
 30
0.0
 11
236.998819773197
 21
55.584005461936
 31
0.0
  0
LINE
  5
   55C
  8
0
  6
CONTINUOUS
 62
     7
 10
236.998819773197
 20
48.1640119969892
 30
0.0
 11
236.998819773197
 21
56.9840107786703
 31
0.0
  0
LINE
  5
   55D
  8
0
  6
CONTINUOUS
 62
   218
 10
236.998819773197
 20
56.9840107786703
 30
0.0
 11
236.998819773197
 21
71.8590105253505
 31
0.0
  0
LINE
  5
   55E
  8
0
  6
CONTINUOUS
 62
     7
 10
237.103815498948
 20
67.8340105938958
 30
0.0
 11
236.998819773197
 21
67.8340105938958
 31
0.0
  0
LINE
  5
   55F
  8
0
  6
CONTINUOUS
 62
   218
 10
203.328821414679
 20
59.0840054026777
 30
0.0
 11
204.028821068957
 21
59.0840107432538
 31
0.0
  0
LINE
  5
   560
  8
0
  6
CONTINUOUS
 62
   218
 10
204.028821069002
 20
49.3889703578113
 30
0.0
 11
204.028821069002
 21
59.0840054023315
 31
0.0
  0
LINE
  5
   561
  8
0
  6
CONTINUOUS
 62
   218
 10
204.028821402788
 20
55.3215054664064
 30
0.0
 11
203.328821414709
 21
55.3215054664064
 31
0.0
  0
LINE
  5
   562
  8
0
  6
CONTINUOUS
 62
     7
 10
229.22881162838
 20
71.8590105272552
 30
0.0
 11
229.228816968956
 21
72.5590105153502
 31
0.0
  0
LINE
  5
   563
  8
0
  6
CONTINUOUS
 62
     7
 10
229.228820973634
 20
72.5590105134296
 30
0.0
 11
225.728821033239
 21
72.5590105134296
 31
0.0
  0
LINE
  5
   564
  8
0
  6
CONTINUOUS
 62
     7
 10
230.978815603256
 20
71.8590105253505
 30
0.0
 11
229.228815633058
 21
71.8590105253505
 31
0.0
  0
LINE
  5
   565
  8
0
  6
CONTINUOUS
 62
   218
 10
204.028821402788
 20
52.2703485683703
 30
0.0
 11
203.328821414709
 21
52.2703485683703
 31
0.0
  0
LINE
  5
   566
  8
0
  6
CONTINUOUS
 62
   218
 10
204.028821402788
 20
53.1288945723498
 30
0.0
 11
203.328821414709
 21
53.1288945723498
 31
0.0
  0
LINE
  5
   567
  8
0
  6
CONTINUOUS
 62
   218
 10
204.028821402788
 20
55.2767834823047
 30
0.0
 11
203.328821414709
 21
55.2767834823047
 31
0.0
  0
LINE
  5
   568
  8
0
  6
CONTINUOUS
 62
     7
 10
238.853815469146
 20
68.0090105909158
 30
0.0
 11
237.103815498948
 21
68.0090105909158
 31
0.0
  0
LINE
  5
   569
  8
0
  6
CONTINUOUS
 62
     7
 10
238.853815469146
 20
55.759010799532
 30
0.0
 11
237.103815498948
 21
55.759010799532
 31
0.0
  0
LINE
  5
   56A
  8
0
  6
CONTINUOUS
 62
     7
 10
238.853815469146
 20
55.759010799532
 30
0.0
 11
238.853815469146
 21
68.0090105909158
 31
0.0
  0
LINE
  5
   56B
  8
0
  6
CONTINUOUS
 62
     7
 10
238.153815481066
 20
55.759010799532
 30
0.0
 11
238.153815481066
 21
68.0090105909158
 31
0.0
  0
LINE
  5
   56C
  8
0
  6
CONTINUOUS
 62
     7
 10
237.103815498948
 20
55.759010799532
 30
0.0
 11
237.103815498948
 21
68.0090105909158
 31
0.0
  0
ARC
  5
   56D
  8
0
  6
CONTINUOUS
 62
     7
 10
249.940083750027
 20
84.5311517967734
 30
0.0
 40
0.349999922554071
 50
348.623573369035
 51
436.688788706936
  0
ARC
  5
   56E
  8
0
  6
CONTINUOUS
 62
     7
 10
249.521223217217
 20
82.4494155434259
 30
0.0
 40
0.35000025487589
 50
260.593992196011
 51
348.623573369035
  0
LINE
  5
   56F
  8
0
  6
DASHDOT
 62
     7
 10
255.12028828985
 20
82.3931203866558
 30
0.0
 11
237.579448324451
 21
85.9224644440801
 31
0.0
  0
LINE
  5
   570
  8
0
  6
CONTINUOUS
 62
     7
 10
250.020667729297
 20
84.8717483197621
 30
0.0
 11
242.70381540358
 21
86.6028907018612
 31
0.0
  0
LINE
  5
   571
  8
0
  6
CONTINUOUS
 62
     7
 10
249.86434672279
 20
82.3803766087032
 30
0.0
 11
250.283207140594
 21
84.4621128851904
 31
0.0
  0
LINE
  5
   572
  8
0
  6
CONTINUOUS
 62
     7
 10
249.464022901176
 20
82.1041211432963
 30
0.0
 11
242.70381540358
 21
83.2239945186559
 31
0.0
  0
LINE
  5
   573
  8
0
  6
CONTINUOUS
 62
     7
 10
205.078798954486
 20
78.1589931146082
 30
0.0
 11
205.078798954486
 21
82.0089930490431
 31
0.0
  0
LINE
  5
   574
  8
0
  6
CONTINUOUS
 62
     7
 10
212.07881309771
 20
164.608986301797
 30
0.0
 11
210.328813127513
 21
164.608986301797
 31
0.0
  0
LINE
  5
   575
  8
0
  6
DASHDOT
 62
     7
 10
217.575192344641
 20
161.109004267573
 30
0.0
 11
207.728543100121
 21
161.109004267573
 31
0.0
  0
LINE
  5
   576
  8
0
  6
CONTINUOUS
 62
     7
 10
212.078812430138
 20
162.509004243731
 30
0.0
 11
210.328813127513
 21
162.509004243731
 31
0.0
  0
LINE
  5
   577
  8
0
  6
CONTINUOUS
 62
     7
 10
212.078812430138
 20
159.709004291415
 30
0.0
 11
210.328813127513
 21
159.709004291415
 31
0.0
  0
LINE
  5
   578
  8
0
  6
CONTINUOUS
 62
     7
 10
212.078812430138
 20
156.963000188699
 30
0.0
 11
212.078812430138
 21
164.608986301797
 31
0.0
  0
LINE
  5
   579
  8
0
  6
CONTINUOUS
 62
     7
 10
210.328813127513
 20
156.963000188699
 30
0.0
 11
210.328813127513
 21
159.709004291415
 31
0.0
  0
LINE
  5
   57A
  8
0
  6
CONTINUOUS
 62
     2
 10
204.028789359169
 20
129.543046804973
 30
0.0
 11
204.028789359169
 21
136.083986410598
 31
0.0
  0
INSERT
  5
   57B
  8
0
  6
CONTINUOUS
 62
     7
  2
*HATCH77
 10
239.378799438477
 20
53.7510223388672
 30
0.0
 41
0.349999994039536
 42
0.349999994039536
 50
89.9999999480344
 43
0.349999994039536
  0
LINE
  5
   57C
  8
0
  6
DASHDOT
 62
     7
 10
203.328821414709
 20
49.3889703578113
 30
0.0
 11
203.328821414709
 21
171.823259784959
 31
0.0
  0
LINE
  5
   57D
  8
0
  6
DASHDOT
 62
     7
 10
202.27882143259
 20
49.3889703578113
 30
0.0
 11
202.27882143259
 21
171.823259784959
 31
0.0
  0
LINE
  5
   57E
  8
0
  6
CONTINUOUS
 62
     7
 10
204.424223833951
 20
171.823259784959
 30
0.0
 11
200.875996783957
 21
171.823259784959
 31
0.0
  0
ARC
  5
   57F
  8
0
  6
CONTINUOUS
 62
     7
 10
223.978815722465
 20
88.6590102392484
 30
0.0
 40
26.61542846025
 50
333.082565820193
 51
379.93594827737
  0
LINE
  5
   580
  8
0
  6
CONTINUOUS
 62
     7
 10
250.594244182715
 20
88.6590102392484
 30
0.0
 11
250.594244182715
 21
103.831257641669
 31
0.0
  0
LINE
  5
   581
  8
0
  6
DASHDOT
 62
     7
 10
217.575192344641
 20
53.4839702880739
 30
0.0
 11
207.728543100121
 21
53.4839702880739
 31
0.0
  0
LINE
  5
   582
  8
0
  6
CONTINUOUS
 62
     7
 10
212.07881309771
 20
49.9839882538495
 30
0.0
 11
210.328813127513
 21
49.9839882538495
 31
0.0
  0
LINE
  5
   583
  8
0
  6
CONTINUOUS
 62
     7
 10
210.328813127513
 20
49.9839882538495
 30
0.0
 11
210.328813127513
 21
60.655915736677
 31
0.0
  0
LINE
  5
   584
  8
0
  6
CONTINUOUS
 62
     7
 10
212.078812430138
 20
54.883970264232
 30
0.0
 11
210.328813127513
 21
54.883970264232
 31
0.0
  0
LINE
  5
   585
  8
0
  6
CONTINUOUS
 62
     7
 10
212.078812430138
 20
52.0839703119157
 30
0.0
 11
210.328813127513
 21
52.0839703119157
 31
0.0
  0
LINE
  5
   586
  8
0
  6
CONTINUOUS
 62
     7
 10
212.078812430138
 20
49.9839882538495
 30
0.0
 11
212.078812430138
 21
52.0839703119157
 31
0.0
  0
LINE
  5
   587
  8
0
  6
CONTINUOUS
 62
     7
 10
217.630952154059
 20
60.655915736677
 30
0.0
 11
200.140822376873
 21
60.655915736677
 31
0.0
  0
LINE
  5
   588
  8
0
  6
CONTINUOUS
 62
     7
 10
220.906967174244
 20
46.0950279999565
 30
0.0
 11
216.76456801649
 21
61.1755268945272
 31
0.0
  0
INSERT
  5
   589
  8
0
  6
CONTINUOUS
 62
     7
  2
*HATCH78
 10
239.378799438477
 20
53.7510223388672
 30
0.0
 41
0.349999994039536
 42
0.349999994039536
 50
89.9999999480344
 43
0.349999994039536
  0
INSERT
  5
   58A
  8
0
  6
CONTINUOUS
 62
     7
  2
*HATCH79
 10
239.378799438477
 20
53.7510223388672
 30
0.0
 41
0.349999994039536
 42
0.349999994039536
 50
89.9999999480344
 43
0.349999994039536
  0
LINE
  5
   58B
  8
0
  6
CONTINUOUS
 62
     7
 10
210.328813127513
 20
58.7339701986669
 30
0.0
 11
204.028821069002
 21
58.7339701986669
 31
0.0
  0
LINE
  5
   58C
  8
0
  6
CONTINUOUS
 62
     7
 10
210.328813127513
 20
60.133970174825
 30
0.0
 11
203.328821414709
 21
60.133970174825
 31
0.0
  0
LINE
  5
   58D
  8
0
  6
CONTINUOUS
 62
     7
 10
217.819789149019
 20
57.3339702225088
 30
0.0
 11
212.078812430138
 21
57.3339702225088
 31
0.0
  0
INSERT
  5
   58E
  8
0
  6
CONTINUOUS
 62
     7
  2
*HATCH80
 10
239.378799438477
 20
53.7510223388672
 30
0.0
 41
0.349999994039536
 42
0.349999994039536
 50
89.9999999480344
 43
0.349999994039536
  0
LINE
  5
   58F
  8
0
  6
CONTINUOUS
 62
     7
 10
217.435229011941
 20
58.7339701986669
 30
0.0
 11
212.078812430138
 21
58.7339701986669
 31
0.0
  0
INSERT
  5
   590
  8
0
  6
CONTINUOUS
 62
     7
  2
*HATCH81
 10
239.378799438477
 20
53.7510223388672
 30
0.0
 41
0.349999994039536
 42
0.349999994039536
 50
89.9999999480344
 43
0.349999994039536
  0
LINE
  5
   591
  8
0
  6
CONTINUOUS
 62
     7
 10
225.728810352087
 20
70.9840039179503
 30
0.0
 11
204.728821390867
 21
70.9840039179503
 31
0.0
  0
LINE
  5
   592
  8
0
  6
CONTINUOUS
 62
     7
 10
242.70381540358
 20
96.9714981348093
 30
0.0
 11
242.70381540358
 21
110.621499184077
 31
0.0
  0
LINE
  5
   593
  8
0
  6
CONTINUOUS
 62
     7
 10
242.70381540358
 20
92.4214982122953
 30
0.0
 11
242.70381540358
 21
96.6214981407698
 31
0.0
  0
LINE
  5
   594
  8
0
  6
CONTINUOUS
 62
     7
 10
242.70381540358
 20
85.2465090156363
 30
0.0
 11
242.70381540358
 21
92.0714982182558
 31
0.0
  0
LINE
  5
   595
  8
0
  6
CONTINUOUS
 62
     7
 10
242.70381540358
 20
80.6964984119709
 30
0.0
 11
242.70381540358
 21
84.8965090215968
 31
0.0
  0
LINE
  5
   596
  8
0
  6
CONTINUOUS
 62
     1
 10
240.778817439079
 20
72.9942408145629
 30
0.0
 11
240.778817439079
 21
73.694240802642
 31
0.0
  0
LINE
  5
   597
  8
0
  6
CONTINUOUS
 62
     1
 10
241.478817427158
 20
72.9942408145629
 30
0.0
 11
240.778817439079
 21
72.9942408145629
 31
0.0
  0
LINE
  5
   598
  8
0
  6
CONTINUOUS
 62
     1
 10
240.778817439079
 20
110.794238835689
 30
0.0
 11
240.778817439079
 21
111.494238823768
 31
0.0
  0
LINE
  5
   599
  8
0
  6
CONTINUOUS
 62
     1
 10
241.478817427158
 20
111.494238823768
 30
0.0
 11
240.778817439079
 21
111.494238823768
 31
0.0
  0
LINE
  5
   59A
  8
0
  6
CONTINUOUS
 62
     1
 10
240.778817439079
 20
73.694240802642
 30
0.0
 11
240.778817439079
 21
110.794240170833
 31
0.0
  0
LINE
  5
   59B
  8
0
  6
CONTINUOUS
 62
     1
 10
239.203817465901
 20
116.246310123456
 30
0.0
 11
239.203817465901
 21
117.942167333345
 31
0.0
  0
LINE
  5
   59C
  8
0
  6
CONTINUOUS
 62
     1
 10
241.478817427158
 20
64.0714920193715
 30
0.0
 11
241.478817427158
 21
120.421489724593
 31
0.0
  0
LINE
  5
   59D
  8
0
  6
CONTINUOUS
 62
     1
 10
242.703817406296
 20
64.0714920193715
 30
0.0
 11
242.703817406296
 21
120.421489724593
 31
0.0
  0
LINE
  5
   59E
  8
0
  6
CONTINUOUS
 62
     1
 10
241.478817427158
 20
116.044238746282
 30
0.0
 11
239.553816341121
 21
116.044238746282
 31
0.0
  0
LINE
  5
   59F
  8
0
  6
CONTINUOUS
 62
     1
 10
241.478817427158
 20
118.144238710519
 30
0.0
 11
239.553818606725
 21
118.144238710519
 31
0.0
  0
LINE
  5
   5A0
  8
0
  6
CONTINUOUS
 62
     1
 10
239.553817455145
 20
116.044238746282
 30
0.0
 11
239.553817455145
 21
116.124165807909
 31
0.0
  0
LINE
  5
   5A1
  8
0
  6
CONTINUOUS
 62
     1
 10
239.553817733649
 20
116.04423794231
 30
0.0
 11
239.203817728085
 21
116.246309322018
 31
0.0
  0
LINE
  5
   5A2
  8
0
  6
CONTINUOUS
 62
     1
 10
239.553817455145
 20
116.124165807909
 30
0.0
 11
239.553817455145
 21
116.351775819902
 31
0.0
  0
LINE
  5
   5A3
  8
0
  6
CONTINUOUS
 62
     1
 10
239.553817455145
 20
116.351775819902
 30
0.0
 11
239.553817455145
 21
116.692424465224
 31
0.0
  0
LINE
  5
   5A4
  8
0
  6
CONTINUOUS
 62
     1
 10
239.553817455145
 20
116.692424465224
 30
0.0
 11
239.553817455145
 21
117.0942387284
 31
0.0
  0
LINE
  5
   5A5
  8
0
  6
CONTINUOUS
 62
     1
 10
239.553817455145
 20
117.0942387284
 30
0.0
 11
239.553817455145
 21
117.496058332153
 31
0.0
  0
LINE
  5
   5A6
  8
0
  6
CONTINUOUS
 62
     1
 10
239.553817455145
 20
117.496058332153
 30
0.0
 11
239.553817455145
 21
117.836701636899
 31
0.0
  0
LINE
  5
   5A7
  8
0
  6
CONTINUOUS
 62
     1
 10
239.553817455145
 20
117.836701636899
 30
0.0
 11
239.553817455145
 21
118.064311648892
 31
0.0
  0
LINE
  5
   5A8
  8
0
  6
CONTINUOUS
 62
     1
 10
239.553817455145
 20
118.064311648892
 30
0.0
 11
239.553817455145
 21
118.144238710519
 31
0.0
  0
LINE
  5
   5A9
  8
0
  6
CONTINUOUS
 62
     1
 10
239.203817161689
 20
117.942166499737
 30
0.0
 11
239.553817167253
 21
118.144237879444
 31
0.0
  0
LINE
  5
   5AA
  8
0
  6
CONTINUOUS
 62
     1
 10
241.478817427158
 20
68.4442408920489
 30
0.0
 11
239.553818156934
 21
68.4442408920489
 31
0.0
  0
LINE
  5
   5AB
  8
0
  6
CONTINUOUS
 62
     1
 10
241.478817427158
 20
66.3442409278117
 30
0.0
 11
239.553817466806
 21
66.3442409278117
 31
0.0
  0
LINE
  5
   5AC
  8
0
  6
CONTINUOUS
 62
     1
 10
239.553817466806
 20
68.3643138304218
 30
0.0
 11
239.553817466806
 21
68.4442408920489
 31
0.0
  0
LINE
  5
   5AD
  8
0
  6
CONTINUOUS
 62
     1
 10
239.553817466797
 20
68.1367024832848
 30
0.0
 11
239.553817466797
 21
68.3643138304218
 31
0.0
  0
LINE
  5
   5AE
  8
0
  6
CONTINUOUS
 62
     1
 10
239.553817466807
 20
67.7960591785391
 30
0.0
 11
239.553817466807
 21
68.1367024832848
 31
0.0
  0
LINE
  5
   5AF
  8
0
  6
CONTINUOUS
 62
     1
 10
239.553817466783
 20
67.3942409099303
 30
0.0
 11
239.553817466783
 21
67.7960591785391
 31
0.0
  0
LINE
  5
   5B0
  8
0
  6
CONTINUOUS
 62
     1
 10
239.553817466826
 20
66.9924239764656
 30
0.0
 11
239.553817466826
 21
67.3942409099303
 31
0.0
  0
LINE
  5
   5B1
  8
0
  6
CONTINUOUS
 62
     1
 10
239.553817466807
 20
66.6517793365758
 30
0.0
 11
239.553817466807
 21
66.9924239764656
 31
0.0
  0
LINE
  5
   5B2
  8
0
  6
CONTINUOUS
 62
     1
 10
239.553817466798
 20
66.3442409278117
 30
0.0
 11
239.553817466798
 21
66.6517793365758
 31
0.0
  0
LINE
  5
   5B3
  8
0
  6
CONTINUOUS
 62
     1
 10
239.553817466806
 20
66.3442409278117
 30
0.0
 11
239.553817466806
 21
66.4241679894388
 31
0.0
  0
LINE
  5
   5B4
  8
0
  6
CONTINUOUS
 62
     7
 10
239.203817283149
 20
68.2421676896428
 30
0.0
 11
239.553817288714
 21
68.4442403907811
 31
0.0
  0
LINE
  5
   5B5
  8
0
  6
CONTINUOUS
 62
     7
 10
239.55381761182
 20
66.344240498187
 30
0.0
 11
239.203817606255
 21
66.5463131993254
 31
0.0
  0
LINE
  5
   5B6
  8
0
  6
CONTINUOUS
 62
     7
 10
240.778817439079
 20
44.5982166080998
 30
0.0
 11
240.778817439079
 21
66.3442409278117
 31
0.0
  0
LINE
  5
   5B7
  8
0
  6
CONTINUOUS
 62
     7
 10
241.478817427158
 20
45.0278717731967
 30
0.0
 11
241.478817427158
 21
64.0714920193715
 31
0.0
  0
LINE
  5
   5B8
  8
0
  6
CONTINUOUS
 62
     7
 10
241.478817427158
 20
118.319238707539
 30
0.0
 11
241.478817427158
 21
170.886123771572
 31
0.0
  0
LINE
  5
   5B9
  8
0
  6
CONTINUOUS
 62
     7
 10
241.478817427158
 20
72.6442408205234
 30
0.0
 11
240.778817439079
 21
72.6442408205234
 31
0.0
  0
LINE
  5
   5BA
  8
0
  6
CONTINUOUS
 62
     7
 10
241.478817427158
 20
111.844238817807
 30
0.0
 11
240.778817439079
 21
111.844238817807
 31
0.0
  0
LINE
  5
   5BB
  8
0
  6
CONTINUOUS
 62
     7
 10
241.478817427158
 20
118.319238707539
 30
0.0
 11
240.778817439079
 21
118.319238707539
 31
0.0
  0
LINE
  5
   5BC
  8
0
  6
CONTINUOUS
 62
     7
 10
241.478817427158
 20
115.869238749262
 30
0.0
 11
240.778817439079
 21
115.869238749262
 31
0.0
  0
LINE
  5
   5BD
  8
0
  6
CONTINUOUS
 62
     7
 10
241.478817427158
 20
68.6192408890687
 30
0.0
 11
240.778817439079
 21
68.6192408890687
 31
0.0
  0
LINE
  5
   5BE
  8
0
  6
CONTINUOUS
 62
     7
 10
241.478817427158
 20
66.169240930792
 30
0.0
 11
240.778817439079
 21
66.169240930792
 31
0.0
  0
LINE
  5
   5BF
  8
0
  6
CONTINUOUS
 62
     7
 10
240.778817439079
 20
68.4442408920489
 30
0.0
 11
240.778817439079
 21
116.044238746282
 31
0.0
  0
LINE
  5
   5C0
  8
0
  6
CONTINUOUS
 62
     7
 10
240.778817439079
 20
118.144238710519
 30
0.0
 11
240.778817439079
 21
170.508672797608
 31
0.0
  0
LINE
  5
   5C1
  8
0
  6
CONTINUOUS
 62
     7
 10
239.94099111878
 20
170.056903703329
 30
0.0
 11
242.498897534978
 21
171.436166966965
 31
0.0
  0
LINE
  5
   5C2
  8
0
  6
CONTINUOUS
 62
     7
 10
239.614983438284
 20
43.8838633248534
 30
0.0
 11
243.251222951507
 21
46.1157620605557
 31
0.0
  0
INSERT
  5
   5C3
  8
0
  6
CONTINUOUS
 62
     7
  2
*HATCH82
 10
239.378799438477
 20
53.7510223388672
 30
0.0
 41
0.349999994039536
 42
0.349999994039536
 50
89.9999999480344
 43
0.349999994039536
  0
INSERT
  5
   5C4
  8
0
  6
CONTINUOUS
 62
     7
  2
*HATCH83
 10
239.378799438477
 20
53.7510223388672
 30
0.0
 41
0.349999994039536
 42
0.349999994039536
 50
89.9999999480344
 43
0.349999994039536
  0
INSERT
  5
   5C5
  8
0
  6
CONTINUOUS
 62
     7
  2
*HATCH84
 10
239.378799438477
 20
53.7510223388672
 30
0.0
 41
0.349999994039536
 42
0.349999994039536
 50
89.9999999480344
 43
0.349999994039536
  0
LINE
  5
   5C6
  8
0
  6
CONTINUOUS
 62
     7
 10
239.203817606255
 20
66.5463131993254
 30
0.0
 11
239.203817283149
 21
68.2421676896428
 31
0.0
  0
LINE
  5
   5C7
  8
0
  6
DASHDOT
 62
     7
 10
255.39901971438
 20
92.2464994970015
 30
0.0
 11
197.81342548751
 21
92.2464994970015
 31
0.0
  0
INSERT
  5
   5C8
  8
255
  6
CONTINUOUS
 62
     7
  2
159488
 10
236.753800150752
 20
85.0760218054056
 30
0.0
 41
0.349999994039536
 42
0.349999994039536
 50
359.999999792138
 43
0.349999994039536
  0
LINE
  5
   5C9
  8
0
  6
CONTINUOUS
 62
     7
 10
210.328813127513
 20
162.509004243731
 30
0.0
 11
210.328813127513
 21
164.608986301797
 31
0.0
  0
LINE
  5
   5CA
  8
0
  6
CONTINUOUS
 62
     7
 10
225.856380153456
 20
156.963000188699
 30
0.0
 11
230.581955084906
 21
167.389752618091
 31
0.0
  0
INSERT
  5
   5CB
  8
255
  6
CONTINUOUS
 62
     1
  2
MORSETTO
 10
212.078812430138
 20
53.4839702880739
 30
0.0
 41
0.349999994039536
 42
0.349999994039536
 50
3.50835464724173E-15
 43
0.349999994039536
  0
LINE
  5
   5CC
  8
0
  6
CONTINUOUS
 62
    98
 10
238.416315476596
 20
31.0840058791685
 30
0.0
 11
204.028821402788
 21
31.0840058791685
 31
0.0
  0
LINE
  5
   5CD
  8
0
  6
CONTINUOUS
 62
    98
 10
204.028821402788
 20
31.0840058791685
 30
0.0
 11
204.028821402788
 21
43.7889704531787
 31
0.0
  0
ARC
  5
   5CE
  8
0
  6
CONTINUOUS
 62
    98
 10
238.416315476596
 20
31.521505871718
 30
0.0
 40
0.437499992549419
 50
269.999999948034
 51
359.999999948034
  0
LINE
  5
   5CF
  8
0
  6
CONTINUOUS
 62
    98
 10
238.853815469146
 20
31.521505871718
 30
0.0
 11
238.853815469146
 21
45.4340056347895
 31
0.0
  0
LINE
  5
   5D0
  8
0
  6
CONTINUOUS
 62
    98
 10
238.853815469146
 20
45.4340056347895
 30
0.0
 11
238.853815469146
 21
55.2340054678965
 31
0.0
  0
LINE
  5
   5D1
  8
0
  6
CONTINUOUS
 62
    98
 10
238.853815469146
 20
55.2340054678965
 30
0.0
 11
238.503815475106
 21
55.2340054678965
 31
0.0
  0
LINE
  5
   5D2
  8
0
  6
CONTINUOUS
 62
    98
 10
238.503815475106
 20
55.584005461936
 30
0.0
 11
237.803818157315
 21
55.584005461936
 31
0.0
  0
LINE
  5
   5D3
  8
0
  6
CONTINUOUS
 62
    98
 10
238.503815475106
 20
55.2340054678965
 30
0.0
 11
238.503815475106
 21
55.584005461936
 31
0.0
  0
LINE
  5
   5D4
  8
0
  6
CONTINUOUS
 62
    98
 10
237.978820824623
 20
46.2390056210804
 30
0.0
 11
237.978820824623
 21
55.584005461936
 31
0.0
  0
LINE
  5
   5D5
  8
0
  6
CONTINUOUS
 62
    98
 10
237.978820824623
 20
47.3347575059679
 30
0.0
 11
237.978820824623
 21
49.2840055692244
 31
0.0
  0
LINE
  5
   5D6
  8
0
  6
CONTINUOUS
 62
    98
 10
237.978820824623
 20
38.8890057462502
 30
0.0
 11
230.103815618157
 21
38.8890057462502
 31
0.0
  0
LINE
  5
   5D7
  8
0
  6
CONTINUOUS
 62
    98
 10
237.978820824623
 20
45.5390056330014
 30
0.0
 11
230.103815618157
 21
45.5390056330014
 31
0.0
  0
LINE
  5
   5D8
  8
0
  6
CONTINUOUS
 62
    98
 10
237.978820824623
 20
38.1890057581711
 30
0.0
 11
230.978815603256
 21
38.1890057581711
 31
0.0
  0
LINE
  5
   5D9
  8
0
  6
CONTINUOUS
 62
    98
 10
237.978820824623
 20
46.2390056210804
 30
0.0
 11
230.978815603256
 21
46.2390056210804
 31
0.0
  0
LINE
  5
   5DA
  8
0
  6
CONTINUOUS
 62
     1
 10
230.978815603256
 20
46.2390056210804
 30
0.0
 11
230.978815603256
 21
46.9390056091595
 31
0.0
  0
LINE
  5
   5DB
  8
0
  6
CONTINUOUS
 62
    98
 10
230.978815603256
 20
31.0840058791685
 30
0.0
 11
230.978815603256
 21
38.1890057581711
 31
0.0
  0
LINE
  5
   5DC
  8
0
  6
CONTINUOUS
 62
    98
 10
237.978820824623
 20
31.0840058791685
 30
0.0
 11
237.978820824623
 21
38.1890057581711
 31
0.0
  0
LINE
  5
   5DD
  8
0
  6
CONTINUOUS
 62
    98
 10
237.978820824623
 20
38.8890057462502
 30
0.0
 11
237.978820824623
 21
45.5390056330014
 31
0.0
  0
LINE
  5
   5DE
  8
0
  6
CONTINUOUS
 62
    98
 10
230.103815618157
 20
31.7840058672476
 30
0.0
 11
204.028821402788
 21
31.7840058672476
 31
0.0
  0
LINE
  5
   5DF
  8
0
  6
CONTINUOUS
 62
    98
 10
230.103815618157
 20
32.4840058553267
 30
0.0
 11
204.028821402788
 21
32.4840058553267
 31
0.0
  0
LINE
  5
   5E0
  8
0
  6
CONTINUOUS
 62
    98
 10
230.103815618157
 20
33.1840058434058
 30
0.0
 11
204.028821402788
 21
33.1840058434058
 31
0.0
  0
LINE
  5
   5E1
  8
0
  6
CONTINUOUS
 62
    98
 10
230.978815603256
 20
46.9390056091595
 30
0.0
 11
217.328812340731
 21
46.9390056091595
 31
0.0
  0
LINE
  5
   5E2
  8
0
  6
CONTINUOUS
 62
    98
 10
230.103815618157
 20
46.2390056210804
 30
0.0
 11
217.328812340731
 21
46.2390056210804
 31
0.0
  0
LINE
  5
   5E3
  8
0
  6
CONTINUOUS
 62
    98
 10
230.103815618157
 20
31.0840058791685
 30
0.0
 11
230.103815618157
 21
46.2390056210804
 31
0.0
  0
LINE
  5
   5E4
  8
0
  6
CONTINUOUS
 62
     1
 10
225.903815689683
 20
46.2390056210804
 30
0.0
 11
225.903815689683
 21
46.9390056091595
 31
0.0
  0
INSERT
  5
   5E5
  8
0
  6
CONTINUOUS
 62
    98
  2
*HATCH93
 10
239.378799438477
 20
53.7510223388672
 30
0.0
 41
0.349999994039536
 42
0.349999994039536
 50
89.9999999480344
 43
0.349999994039536
  0
LINE
  5
   5E6
  8
0
  6
CONTINUOUS
 62
     7
 10
212.078812430138
 20
54.883970264232
 30
0.0
 11
212.078812430138
 21
60.655915736677
 31
0.0
  0
LINE
  5
   5E7
  8
0
  6
CONTINUOUS
 62
     7
 10
199.87342662132
 20
25.5002101199009
 30
0.0
 11
205.691398755334
 21
27.4124917974156
 31
0.0
  0
LINE
  5
   5E8
  8
0
  6
DASHDOT
 62
     7
 10
203.328821414709
 20
26.6359474523894
 30
0.0
 11
203.328821414709
 21
43.7889704531787
 31
0.0
  0
LINE
  5
   5E9
  8
0
  6
DASHDOT
 62
     7
 10
202.27882143259
 20
26.2908279363544
 30
0.0
 11
202.27882143259
 21
43.7889704531787
 31
0.0
  0
LINE
  5
   5EA
  8
0
  6
CONTINUOUS
 62
   218
 10
217.328812340731
 20
44.4189704424499
 30
0.0
 11
209.278812477822
 21
44.4189704424499
 31
0.0
  0
LINE
  5
   5EB
  8
0
  6
CONTINUOUS
 62
   218
 10
217.328812340731
 20
48.7589703685401
 30
0.0
 11
209.278812477822
 21
48.7589703685401
 31
0.0
  0
LINE
  5
   5EC
  8
0
  6
CONTINUOUS
 62
   218
 10
217.328812340731
 20
44.4189704424499
 30
0.0
 11
217.328812340731
 21
48.7589703685401
 31
0.0
  0
LINE
  5
   5ED
  8
0
  6
CONTINUOUS
 62
   218
 10
209.278812477822
 20
43.7889704531787
 30
0.0
 11
209.278812477822
 21
49.3889703578113
 31
0.0
  0
LINE
  5
   5EE
  8
0
  6
DASHDOT
 62
   218
 10
219.100255364791
 20
46.588970405495
 30
0.0
 11
202.064556900832
 21
46.588970405495
 31
0.0
  0
LINE
  5
   5EF
  8
0
  6
CONTINUOUS
 62
   218
 10
209.278812477822
 20
49.3889703578113
 30
0.0
 11
199.264556948515
 21
49.3889703578113
 31
0.0
  0
LINE
  5
   5F0
  8
0
  6
CONTINUOUS
 62
   218
 10
209.278812477822
 20
43.7889704531787
 30
0.0
 11
199.264556948515
 21
43.7889704531787
 31
0.0
  0
LINE
  5
   5F1
  8
0
  6
CONTINUOUS
 62
   218
 10
209.278812477822
 20
45.1695382349646
 30
0.0
 11
217.328812340731
 21
46.588970405495
 31
0.0
  0
POLYLINE
  5
   5F2
  8
0
  6
CONTINUOUS
 62
   218
 66
     1
 10
0.0
 20
0.0
 30
0.0
 70
     1
  0
VERTEX
  5
   5F3
  8
0
  6
CONTINUOUS
 10
199.264556948515
 20
49.3889703578113
 30
0.0
 40
0.0
 41
0.0
  0
VERTEX
  5
   5F4
  8
0
  6
CONTINUOUS
 10
199.247378088842
 20
49.3885487039932
 30
0.0
 40
0.0
 41
0.0
  0
VERTEX
  5
   5F5
  8
0
  6
CONTINUOUS
 10
199.230209577071
 20
49.3872839965272
 30
0.0
 40
0.0
 41
0.0
  0
VERTEX
  5
   5F6
  8
0
  6
CONTINUOUS
 10
199.213061754872
 20
49.3851769972261
 30
0.0
 40
0.0
 41
0.0
  0
VERTEX
  5
   5F7
  8
0
  6
CONTINUOUS
 10
199.195944951453
 20
49.3822289752672
 30
0.0
 40
0.0
 41
0.0
  0
VERTEX
  5
   5F8
  8
0
  6
CONTINUOUS
 10
199.178869477335
 20
49.3784417064288
 30
0.0
 40
0.0
 41
0.0
  0
VERTEX
  5
   5F9
  8
0
  6
CONTINUOUS
 10
199.161845618146
 20
49.37381747202
 30
0.0
 40
0.0
 41
0.0
  0
VERTEX
  5
   5FA
  8
0
  6
CONTINUOUS
 10
199.144883628421
 20
49.3683590575068
 30
0.0
 40
0.0
 41
0.0
  0
VERTEX
  5
   5FB
  8
0
  6
CONTINUOUS
 10
199.12799372543
 20
49.3620697508339
 30
0.0
 40
0.0
 41
0.0
  0
VERTEX
  5
   5FC
  8
0
  6
CONTINUOUS
 10
199.111186083017
 20
49.3549533404445
 30
0.0
 40
0.0
 41
0.0
  0
VERTEX
  5
   5FD
  8
0
  6
CONTINUOUS
 10
199.09447082548
 20
49.3470141129982
 30
0.0
 40
0.0
 41
0.0
  0
VERTEX
  5
   5FE
  8
0
  6
CONTINUOUS
 10
199.077858021462
 20
49.3382568507885
 30
0.0
 40
0.0
 41
0.0
  0
VERTEX
  5
   5FF
  8
0
  6
CONTINUOUS
 10
199.061357677898
 20
49.328686828863
 30
0.0
 40
0.0
 41
0.0
  0
VERTEX
  5
   600
  8
0
  6
CONTINUOUS
 10
199.044979733975
 20
49.3183098118449
 30
0.0
 40
0.0
 41
0.0
  0
VERTEX
  5
   601
  8
0
  6
CONTINUOUS
 10
199.028734055157
 20
49.3071320504612
 30
0.0
 40
0.0
 41
0.0
  0
VERTEX
  5
   602
  8
0
  6
CONTINUOUS
 10
199.012630427231
 20
49.2951602777775
 30
0.0
 40
0.0
 41
0.0
  0
VERTEX
  5
   603
  8
0
  6
CONTINUOUS
 10
198.996678550422
 20
49.2824017051419
 30
0.0
 40
0.0
 41
0.0
  0
VERTEX
  5
   604
  8
0
  6
CONTINUOUS
 10
198.965268388211
 20
49.2545553704732
 30
0.0
 40
0.0
 41
0.0
  0
VERTEX
  5
   605
  8
0
  6
CONTINUOUS
 10
198.934579238357
 20
49.2236601307142
 30
0.0
 40
0.0
 41
0.0
  0
VERTEX
  5
   606
  8
0
  6
CONTINUOUS
 10
198.904685033709
 20
49.1897904152037
 30
0.0
 40
0.0
 41
0.0
  0
VERTEX
  5
   607
  8
0
  6
CONTINUOUS
 10
198.875657792024
 20
49.1530278190529
 30
0.0
 40
0.0
 41
0.0
  0
VERTEX
  5
   608
  8
0
  6
CONTINUOUS
 10
198.847567442472
 20
49.1134609065761
 30
0.0
 40
0.0
 41
0.0
  0
VERTEX
  5
   609
  8
0
  6
CONTINUOUS
 10
198.820481657163
 20
49.071184997931
 30
0.0
 40
0.0
 41
0.0
  0
VERTEX
  5
   60A
  8
0
  6
CONTINUOUS
 10
198.794465688128
 20
49.0263019394844
 30
0.0
 40
0.0
 41
0.0
  0
VERTEX
  5
   60B
  8
0
  6
CONTINUOUS
 10
198.769582210114
 20
48.9789198584556
 30
0.0
 40
0.0
 41
0.0
  0
VERTEX
  5
   60C
  8
0
  6
CONTINUOUS
 10
198.7458911696
 20
48.9291529024278
 30
0.0
 40
0.0
 41
0.0
  0
VERTEX
  5
   60D
  8
0
  6
CONTINUOUS
 10
198.723449640376
 20
48.8771209643571
 30
0.0
 40
0.0
 41
0.0
  0
VERTEX
  5
   60E
  8
0
  6
CONTINUOUS
 10
198.702311686054
 20
48.82294939374
 30
0.0
 40
0.0
 41
0.0
  0
VERTEX
  5
   60F
  8
0
  6
CONTINUOUS
 10
198.682528229815
 20
48.7667686946348
 30
0.0
 40
0.0
 41
0.0
  0
VERTEX
  5
   610
  8
0
  6
CONTINUOUS
 10
198.66414693174
 20
48.7087142112665
 30
0.0
 40
0.0
 41
0.0
  0
VERTEX
  5
   611
  8
0
  6
CONTINUOUS
 10
198.647212073985
 20
48.6489258019706
 30
0.0
 40
0.0
 41
0.0
  0
VERTEX
  5
   612
  8
0
  6
CONTINUOUS
 10
198.631764454105
 20
48.5875475022618
 30
0.0
 40
0.0
 41
0.0
  0
VERTEX
  5
   613
  8
0
  6
CONTINUOUS
 10
198.617841286771
 20
48.5247271778404
 30
0.0
 40
0.0
 41
0.0
  0
VERTEX
  5
   614
  8
0
  6
CONTINUOUS
 10
198.605476114111
 20
48.4606161683702
 30
0.0
 40
0.0
 41
0.0
  0
VERTEX
  5
   615
  8
0
  6
CONTINUOUS
 10
198.59469872491
 20
48.3953689228885
 30
0.0
 40
0.0
 41
0.0
  0
VERTEX
  5
   616
  8
0
  6
CONTINUOUS
 10
198.585535082843
 20
48.3291426277246
 30
0.0
 40
0.0
 41
0.0
  0
VERTEX
  5
   617
  8
0
  6
CONTINUOUS
 10
198.578007263925
 20
48.2620968278244
 30
0.0
 40
0.0
 41
0.0
  0
VERTEX
  5
   618
  8
0
  6
CONTINUOUS
 10
198.572133403332
 20
48.1943930423923
 30
0.0
 40
0.0
 41
0.0
  0
VERTEX
  5
   619
  8
0
  6
CONTINUOUS
 10
198.567927651708
 20
48.1261943757776
 30
0.0
 40
0.0
 41
0.0
  0
VERTEX
  5
   61A
  8
0
  6
CONTINUOUS
 10
198.565400141078
 20
48.0576651245417
 30
0.0
 40
0.0
 41
0.0
  0
VERTEX
  5
   61B
  8
0
  6
CONTINUOUS
 10
198.564556960436
 20
47.9889703816531
 30
0.0
 40
0.0
 41
0.0
  0
VERTEX
  5
   61C
  8
0
  6
CONTINUOUS
 10
198.565400141078
 20
47.9202756387646
 30
0.0
 40
0.0
 41
0.0
  0
VERTEX
  5
   61D
  8
0
  6
CONTINUOUS
 10
198.567927651708
 20
47.8517463875287
 30
0.0
 40
0.0
 41
0.0
  0
VERTEX
  5
   61E
  8
0
  6
CONTINUOUS
 10
198.572133403332
 20
47.783547720914
 30
0.0
 40
0.0
 41
0.0
  0
VERTEX
  5
   61F
  8
0
  6
CONTINUOUS
 10
198.578007263925
 20
47.7158439354819
 30
0.0
 40
0.0
 41
0.0
  0
VERTEX
  5
   620
  8
0
  6
CONTINUOUS
 10
198.585535082843
 20
47.6487981355817
 30
0.0
 40
0.0
 41
0.0
  0
VERTEX
  5
   621
  8
0
  6
CONTINUOUS
 10
198.59469872491
 20
47.5825718404178
 30
0.0
 40
0.0
 41
0.0
  0
VERTEX
  5
   622
  8
0
  6
CONTINUOUS
 10
198.605476114111
 20
47.5173245949361
 30
0.0
 40
0.0
 41
0.0
  0
VERTEX
  5
   623
  8
0
  6
CONTINUOUS
 10
198.617841286771
 20
47.4532135854659
 30
0.0
 40
0.0
 41
0.0
  0
VERTEX
  5
   624
  8
0
  6
CONTINUOUS
 10
198.631764454105
 20
47.3903932610445
 30
0.0
 40
0.0
 41
0.0
  0
VERTEX
  5
   625
  8
0
  6
CONTINUOUS
 10
198.647212073985
 20
47.3290149613357
 30
0.0
 40
0.0
 41
0.0
  0
VERTEX
  5
   626
  8
0
  6
CONTINUOUS
 10
198.66414693174
 20
47.2692265520398
 30
0.0
 40
0.0
 41
0.0
  0
VERTEX
  5
   627
  8
0
  6
CONTINUOUS
 10
198.682528229815
 20
47.2111720686715
 30
0.0
 40
0.0
 41
0.0
  0
VERTEX
  5
   628
  8
0
  6
CONTINUOUS
 10
198.702311686054
 20
47.1549913695663
 30
0.0
 40
0.0
 41
0.0
  0
VERTEX
  5
   629
  8
0
  6
CONTINUOUS
 10
198.723449640376
 20
47.1008197989492
 30
0.0
 40
0.0
 41
0.0
  0
VERTEX
  5
   62A
  8
0
  6
CONTINUOUS
 10
198.7458911696
 20
47.0487878608785
 30
0.0
 40
0.0
 41
0.0
  0
VERTEX
  5
   62B
  8
0
  6
CONTINUOUS
 10
198.769582210114
 20
46.9990209048507
 30
0.0
 40
0.0
 41
0.0
  0
VERTEX
  5
   62C
  8
0
  6
CONTINUOUS
 10
198.794465688128
 20
46.9516388238219
 30
0.0
 40
0.0
 41
0.0
  0
VERTEX
  5
   62D
  8
0
  6
CONTINUOUS
 10
198.820481657163
 20
46.9067557653753
 30
0.0
 40
0.0
 41
0.0
  0
VERTEX
  5
   62E
  8
0
  6
CONTINUOUS
 10
198.847567442472
 20
46.8644798567302
 30
0.0
 40
0.0
 41
0.0
  0
VERTEX
  5
   62F
  8
0
  6
CONTINUOUS
 10
198.875657792024
 20
46.8249129442534
 30
0.0
 40
0.0
 41
0.0
  0
VERTEX
  5
   630
  8
0
  6
CONTINUOUS
 10
198.904685033709
 20
46.7881503481026
 30
0.0
 40
0.0
 41
0.0
  0
VERTEX
  5
   631
  8
0
  6
CONTINUOUS
 10
198.934579238357
 20
46.7542806325921
 30
0.0
 40
0.0
 41
0.0
  0
VERTEX
  5
   632
  8
0
  6
CONTINUOUS
 10
198.965268388211
 20
46.7233853928331
 30
0.0
 40
0.0
 41
0.0
  0
VERTEX
  5
   633
  8
0
  6
CONTINUOUS
 10
198.996678550422
 20
46.6955390581643
 30
0.0
 40
0.0
 41
0.0
  0
VERTEX
  5
   634
  8
0
  6
CONTINUOUS
 10
199.012630427231
 20
46.6827804855288
 30
0.0
 40
0.0
 41
0.0
  0
VERTEX
  5
   635
  8
0
  6
CONTINUOUS
 10
199.028734055157
 20
46.6708087128451
 30
0.0
 40
0.0
 41
0.0
  0
VERTEX
  5
   636
  8
0
  6
CONTINUOUS
 10
199.044979733975
 20
46.6596309514614
 30
0.0
 40
0.0
 41
0.0
  0
VERTEX
  5
   637
  8
0
  6
CONTINUOUS
 10
199.061357677898
 20
46.6492539344433
 30
0.0
 40
0.0
 41
0.0
  0
VERTEX
  5
   638
  8
0
  6
CONTINUOUS
 10
199.077858021462
 20
46.6396839125177
 30
0.0
 40
0.0
 41
0.0
  0
VERTEX
  5
   639
  8
0
  6
CONTINUOUS
 10
199.09447082548
 20
46.6309266503081
 30
0.0
 40
0.0
 41
0.0
  0
VERTEX
  5
   63A
  8
0
  6
CONTINUOUS
 10
199.111186083017
 20
46.6229874228618
 30
0.0
 40
0.0
 41
0.0
  0
VERTEX
  5
   63B
  8
0
  6
CONTINUOUS
 10
199.12799372543
 20
46.6158710124724
 30
0.0
 40
0.0
 41
0.0
  0
VERTEX
  5
   63C
  8
0
  6
CONTINUOUS
 10
199.144883628421
 20
46.6095817057995
 30
0.0
 40
0.0
 41
0.0
  0
VERTEX
  5
   63D
  8
0
  6
CONTINUOUS
 10
199.161845618146
 20
46.6041232912863
 30
0.0
 40
0.0
 41
0.0
  0
VERTEX
  5
   63E
  8
0
  6
CONTINUOUS
 10
199.178869477335
 20
46.5994990568775
 30
0.0
 40
0.0
 41
0.0
  0
VERTEX
  5
   63F
  8
0
  6
CONTINUOUS
 10
199.195944951453
 20
46.5957117880391
 30
0.0
 40
0.0
 41
0.0
  0
VERTEX
  5
   640
  8
0
  6
CONTINUOUS
 10
199.213061754872
 20
46.5927637660802
 30
0.0
 40
0.0
 41
0.0
  0
VERTEX
  5
   641
  8
0
  6
CONTINUOUS
 10
199.230209577071
 20
46.590656766779
 30
0.0
 40
0.0
 41
0.0
  0
VERTEX
  5
   642
  8
0
  6
CONTINUOUS
 10
199.247378088842
 20
46.5893920593131
 30
0.0
 40
0.0
 41
0.0
  0
VERTEX
  5
   643
  8
0
  6
CONTINUOUS
 10
199.264556948515
 20
46.588970405495
 30
0.0
 40
0.0
 41
0.0
  0
VERTEX
  5
   644
  8
0
  6
CONTINUOUS
 10
199.281735808189
 20
46.5893920593131
 30
0.0
 40
0.0
 41
0.0
  0
VERTEX
  5
   645
  8
0
  6
CONTINUOUS
 10
199.29890431996
 20
46.590656766779
 30
0.0
 40
0.0
 41
0.0
  0
VERTEX
  5
   646
  8
0
  6
CONTINUOUS
 10
199.316052142158
 20
46.5927637660802
 30
0.0
 40
0.0
 41
0.0
  0
VERTEX
  5
   647
  8
0
  6
CONTINUOUS
 10
199.333168945577
 20
46.5957117880391
 30
0.0
 40
0.0
 41
0.0
  0
VERTEX
  5
   648
  8
0
  6
CONTINUOUS
 10
199.350244419695
 20
46.5994990568775
 30
0.0
 40
0.0
 41
0.0
  0
VERTEX
  5
   649
  8
0
  6
CONTINUOUS
 10
199.367268278885
 20
46.6041232912863
 30
0.0
 40
0.0
 41
0.0
  0
VERTEX
  5
   64A
  8
0
  6
CONTINUOUS
 10
199.384230268609
 20
46.6095817057995
 30
0.0
 40
0.0
 41
0.0
  0
VERTEX
  5
   64B
  8
0
  6
CONTINUOUS
 10
199.401120171601
 20
46.6158710124724
 30
0.0
 40
0.0
 41
0.0
  0
VERTEX
  5
   64C
  8
0
  6
CONTINUOUS
 10
199.417927814013
 20
46.6229874228618
 30
0.0
 40
0.0
 41
0.0
  0
VERTEX
  5
   64D
  8
0
  6
CONTINUOUS
 10
199.434643071551
 20
46.6309266503081
 30
0.0
 40
0.0
 41
0.0
  0
VERTEX
  5
   64E
  8
0
  6
CONTINUOUS
 10
199.451255875568
 20
46.6396839125177
 30
0.0
 40
0.0
 41
0.0
  0
VERTEX
  5
   64F
  8
0
  6
CONTINUOUS
 10
199.467756219133
 20
46.6492539344433
 30
0.0
 40
0.0
 41
0.0
  0
VERTEX
  5
   650
  8
0
  6
CONTINUOUS
 10
199.484134163055
 20
46.6596309514614
 30
0.0
 40
0.0
 41
0.0
  0
VERTEX
  5
   651
  8
0
  6
CONTINUOUS
 10
199.500379841874
 20
46.6708087128451
 30
0.0
 40
0.0
 41
0.0
  0
VERTEX
  5
   652
  8
0
  6
CONTINUOUS
 10
199.516483469799
 20
46.6827804855288
 30
0.0
 40
0.0
 41
0.0
  0
VERTEX
  5
   653
  8
0
  6
CONTINUOUS
 10
199.532435346609
 20
46.6955390581643
 30
0.0
 40
0.0
 41
0.0
  0
VERTEX
  5
   654
  8
0
  6
CONTINUOUS
 10
199.56384550882
 20
46.7233853928331
 30
0.0
 40
0.0
 41
0.0
  0
VERTEX
  5
   655
  8
0
  6
CONTINUOUS
 10
199.594534658674
 20
46.7542806325921
 30
0.0
 40
0.0
 41
0.0
  0
VERTEX
  5
   656
  8
0
  6
CONTINUOUS
 10
199.624428863322
 20
46.7881503481026
 30
0.0
 40
0.0
 41
0.0
  0
VERTEX
  5
   657
  8
0
  6
CONTINUOUS
 10
199.653456105006
 20
46.8249129442534
 30
0.0
 40
0.0
 41
0.0
  0
VERTEX
  5
   658
  8
0
  6
CONTINUOUS
 10
199.681546454559
 20
46.8644798567302
 30
0.0
 40
0.0
 41
0.0
  0
VERTEX
  5
   659
  8
0
  6
CONTINUOUS
 10
199.708632239867
 20
46.9067557653753
 30
0.0
 40
0.0
 41
0.0
  0
VERTEX
  5
   65A
  8
0
  6
CONTINUOUS
 10
199.734648208903
 20
46.9516388238219
 30
0.0
 40
0.0
 41
0.0
  0
VERTEX
  5
   65B
  8
0
  6
CONTINUOUS
 10
199.759531686916
 20
46.9990209048507
 30
0.0
 40
0.0
 41
0.0
  0
VERTEX
  5
   65C
  8
0
  6
CONTINUOUS
 10
199.783222727431
 20
47.0487878608785
 30
0.0
 40
0.0
 41
0.0
  0
VERTEX
  5
   65D
  8
0
  6
CONTINUOUS
 10
199.805664256654
 20
47.1008197989492
 30
0.0
 40
0.0
 41
0.0
  0
VERTEX
  5
   65E
  8
0
  6
CONTINUOUS
 10
199.826802210977
 20
47.1549913695663
 30
0.0
 40
0.0
 41
0.0
  0
VERTEX
  5
   65F
  8
0
  6
CONTINUOUS
 10
199.846585667215
 20
47.2111720686715
 30
0.0
 40
0.0
 41
0.0
  0
VERTEX
  5
   660
  8
0
  6
CONTINUOUS
 10
199.864966965291
 20
47.2692265520398
 30
0.0
 40
0.0
 41
0.0
  0
VERTEX
  5
   661
  8
0
  6
CONTINUOUS
 10
199.881901823046
 20
47.3290149613357
 30
0.0
 40
0.0
 41
0.0
  0
VERTEX
  5
   662
  8
0
  6
CONTINUOUS
 10
199.897349442925
 20
47.3903932610445
 30
0.0
 40
0.0
 41
0.0
  0
VERTEX
  5
   663
  8
0
  6
CONTINUOUS
 10
199.91127261026
 20
47.4532135854659
 30
0.0
 40
0.0
 41
0.0
  0
VERTEX
  5
   664
  8
0
  6
CONTINUOUS
 10
199.923637782919
 20
47.5173245949361
 30
0.0
 40
0.0
 41
0.0
  0
VERTEX
  5
   665
  8
0
  6
CONTINUOUS
 10
199.93441517212
 20
47.5825718404178
 30
0.0
 40
0.0
 41
0.0
  0
VERTEX
  5
   666
  8
0
  6
CONTINUOUS
 10
199.943578814188
 20
47.6487981355817
 30
0.0
 40
0.0
 41
0.0
  0
VERTEX
  5
   667
  8
0
  6
CONTINUOUS
 10
199.951106633106
 20
47.7158439354819
 30
0.0
 40
0.0
 41
0.0
  0
VERTEX
  5
   668
  8
0
  6
CONTINUOUS
 10
199.956980493699
 20
47.783547720914
 30
0.0
 40
0.0
 41
0.0
  0
VERTEX
  5
   669
  8
0
  6
CONTINUOUS
 10
199.961186245322
 20
47.8517463875287
 30
0.0
 40
0.0
 41
0.0
  0
VERTEX
  5
   66A
  8
0
  6
CONTINUOUS
 10
199.963713755952
 20
47.9202756387646
 30
0.0
 40
0.0
 41
0.0
  0
VERTEX
  5
   66B
  8
0
  6
CONTINUOUS
 10
199.964556936594
 20
47.9889703816531
 30
0.0
 40
0.0
 41
0.0
  0
VERTEX
  5
   66C
  8
0
  6
CONTINUOUS
 10
199.963713755952
 20
48.0576651245417
 30
0.0
 40
0.0
 41
0.0
  0
VERTEX
  5
   66D
  8
0
  6
CONTINUOUS
 10
199.961186245322
 20
48.1261943757776
 30
0.0
 40
0.0
 41
0.0
  0
VERTEX
  5
   66E
  8
0
  6
CONTINUOUS
 10
199.956980493699
 20
48.1943930423923
 30
0.0
 40
0.0
 41
0.0
  0
VERTEX
  5
   66F
  8
0
  6
CONTINUOUS
 10
199.951106633106
 20
48.2620968278244
 30
0.0
 40
0.0
 41
0.0
  0
VERTEX
  5
   670
  8
0
  6
CONTINUOUS
 10
199.943578814188
 20
48.3291426277246
 30
0.0
 40
0.0
 41
0.0
  0
VERTEX
  5
   671
  8
0
  6
CONTINUOUS
 10
199.93441517212
 20
48.3953689228885
 30
0.0
 40
0.0
 41
0.0
  0
VERTEX
  5
   672
  8
0
  6
CONTINUOUS
 10
199.923637782919
 20
48.4606161683702
 30
0.0
 40
0.0
 41
0.0
  0
VERTEX
  5
   673
  8
0
  6
CONTINUOUS
 10
199.91127261026
 20
48.5247271778404
 30
0.0
 40
0.0
 41
0.0
  0
VERTEX
  5
   674
  8
0
  6
CONTINUOUS
 10
199.897349442925
 20
48.5875475022618
 30
0.0
 40
0.0
 41
0.0
  0
VERTEX
  5
   675
  8
0
  6
CONTINUOUS
 10
199.881901823046
 20
48.6489258019706
 30
0.0
 40
0.0
 41
0.0
  0
VERTEX
  5
   676
  8
0
  6
CONTINUOUS
 10
199.864966965291
 20
48.7087142112665
 30
0.0
 40
0.0
 41
0.0
  0
VERTEX
  5
   677
  8
0
  6
CONTINUOUS
 10
199.846585667215
 20
48.7667686946348
 30
0.0
 40
0.0
 41
0.0
  0
VERTEX
  5
   678
  8
0
  6
CONTINUOUS
 10
199.826802210977
 20
48.82294939374
 30
0.0
 40
0.0
 41
0.0
  0
VERTEX
  5
   679
  8
0
  6
CONTINUOUS
 10
199.805664256654
 20
48.8771209643571
 30
0.0
 40
0.0
 41
0.0
  0
VERTEX
  5
   67A
  8
0
  6
CONTINUOUS
 10
199.783222727431
 20
48.9291529024278
 30
0.0
 40
0.0
 41
0.0
  0
VERTEX
  5
   67B
  8
0
  6
CONTINUOUS
 10
199.759531686916
 20
48.9789198584556
 30
0.0
 40
0.0
 41
0.0
  0
VERTEX
  5
   67C
  8
0
  6
CONTINUOUS
 10
199.734648208903
 20
49.0263019394844
 30
0.0
 40
0.0
 41
0.0
  0
VERTEX
  5
   67D
  8
0
  6
CONTINUOUS
 10
199.708632239867
 20
49.071184997931
 30
0.0
 40
0.0
 41
0.0
  0
VERTEX
  5
   67E
  8
0
  6
CONTINUOUS
 10
199.681546454559
 20
49.1134609065761
 30
0.0
 40
0.0
 41
0.0
  0
VERTEX
  5
   67F
  8
0
  6
CONTINUOUS
 10
199.653456105006
 20
49.1530278190529
 30
0.0
 40
0.0
 41
0.0
  0
VERTEX
  5
   680
  8
0
  6
CONTINUOUS
 10
199.624428863322
 20
49.1897904152037
 30
0.0
 40
0.0
 41
0.0
  0
VERTEX
  5
   681
  8
0
  6
CONTINUOUS
 10
199.594534658674
 20
49.2236601307142
 30
0.0
 40
0.0
 41
0.0
  0
VERTEX
  5
   682
  8
0
  6
CONTINUOUS
 10
199.56384550882
 20
49.2545553704732
 30
0.0
 40
0.0
 41
0.0
  0
VERTEX
  5
   683
  8
0
  6
CONTINUOUS
 10
199.532435346609
 20
49.2824017051419
 30
0.0
 40
0.0
 41
0.0
  0
VERTEX
  5
   684
  8
0
  6
CONTINUOUS
 10
199.516483469799
 20
49.2951602777775
 30
0.0
 40
0.0
 41
0.0
  0
VERTEX
  5
   685
  8
0
  6
CONTINUOUS
 10
199.500379841874
 20
49.3071320504612
 30
0.0
 40
0.0
 41
0.0
  0
VERTEX
  5
   686
  8
0
  6
CONTINUOUS
 10
199.484134163055
 20
49.3183098118449
 30
0.0
 40
0.0
 41
0.0
  0
VERTEX
  5
   687
  8
0
  6
CONTINUOUS
 10
199.467756219133
 20
49.328686828863
 30
0.0
 40
0.0
 41
0.0
  0
VERTEX
  5
   688
  8
0
  6
CONTINUOUS
 10
199.451255875568
 20
49.3382568507885
 30
0.0
 40
0.0
 41
0.0
  0
VERTEX
  5
   689
  8
0
  6
CONTINUOUS
 10
199.434643071551
 20
49.3470141129982
 30
0.0
 40
0.0
 41
0.0
  0
VERTEX
  5
   68A
  8
0
  6
CONTINUOUS
 10
199.417927814013
 20
49.3549533404445
 30
0.0
 40
0.0
 41
0.0
  0
VERTEX
  5
   68B
  8
0
  6
CONTINUOUS
 10
199.401120171601
 20
49.3620697508339
 30
0.0
 40
0.0
 41
0.0
  0
VERTEX
  5
   68C
  8
0
  6
CONTINUOUS
 10
199.384230268609
 20
49.3683590575068
 30
0.0
 40
0.0
 41
0.0
  0
VERTEX
  5
   68D
  8
0
  6
CONTINUOUS
 10
199.367268278885
 20
49.37381747202
 30
0.0
 40
0.0
 41
0.0
  0
VERTEX
  5
   68E
  8
0
  6
CONTINUOUS
 10
199.350244419695
 20
49.3784417064288
 30
0.0
 40
0.0
 41
0.0
  0
VERTEX
  5
   68F
  8
0
  6
CONTINUOUS
 10
199.333168945577
 20
49.3822289752672
 30
0.0
 40
0.0
 41
0.0
  0
VERTEX
  5
   690
  8
0
  6
CONTINUOUS
 10
199.316052142158
 20
49.3851769972261
 30
0.0
 40
0.0
 41
0.0
  0
VERTEX
  5
   691
  8
0
  6
CONTINUOUS
 10
199.29890431996
 20
49.3872839965272
 30
0.0
 40
0.0
 41
0.0
  0
VERTEX
  5
   692
  8
0
  6
CONTINUOUS
 10
199.281735808189
 20
49.3885487039932
 30
0.0
 40
0.0
 41
0.0
  0
VERTEX
  5
   693
  8
0
  6
CONTINUOUS
 10
199.264556948515
 20
49.3889703578113
 30
0.0
 40
0.0
 41
0.0
  0
SEQEND
  5
   694
  8
0
  6
CONTINUOUS
 62
   218
  0
POLYLINE
  5
   695
  8
0
  6
CONTINUOUS
 62
   218
 66
     1
 10
0.0
 20
0.0
 30
0.0
  0
VERTEX
  5
   696
  8
0
  6
CONTINUOUS
 10
199.264556948515
 20
46.588970405495
 30
0.0
 40
0.0
 41
0.0
  0
VERTEX
  5
   697
  8
0
  6
CONTINUOUS
 10
199.247378088842
 20
46.5885487516769
 30
0.0
 40
0.0
 41
0.0
  0
VERTEX
  5
   698
  8
0
  6
CONTINUOUS
 10
199.230209577071
 20
46.587284044211
 30
0.0
 40
0.0
 41
0.0
  0
VERTEX
  5
   699
  8
0
  6
CONTINUOUS
 10
199.213061754872
 20
46.5851770449098
 30
0.0
 40
0.0
 41
0.0
  0
VERTEX
  5
   69A
  8
0
  6
CONTINUOUS
 10
199.195944951453
 20
46.5822290229509
 30
0.0
 40
0.0
 41
0.0
  0
VERTEX
  5
   69B
  8
0
  6
CONTINUOUS
 10
199.178869477335
 20
46.5784417541125
 30
0.0
 40
0.0
 41
0.0
  0
VERTEX
  5
   69C
  8
0
  6
CONTINUOUS
 10
199.161845618146
 20
46.5738175197037
 30
0.0
 40
0.0
 41
0.0
  0
VERTEX
  5
   69D
  8
0
  6
CONTINUOUS
 10
199.144883628421
 20
46.5683591051905
 30
0.0
 40
0.0
 41
0.0
  0
VERTEX
  5
   69E
  8
0
  6
CONTINUOUS
 10
199.12799372543
 20
46.5620697985176
 30
0.0
 40
0.0
 41
0.0
  0
VERTEX
  5
   69F
  8
0
  6
CONTINUOUS
 10
199.111186083017
 20
46.5549533881282
 30
0.0
 40
0.0
 41
0.0
  0
VERTEX
  5
   6A0
  8
0
  6
CONTINUOUS
 10
199.094470825479
 20
46.5470141606818
 30
0.0
 40
0.0
 41
0.0
  0
VERTEX
  5
   6A1
  8
0
  6
CONTINUOUS
 10
199.077858021462
 20
46.5382568984722
 30
0.0
 40
0.0
 41
0.0
  0
VERTEX
  5
   6A2
  8
0
  6
CONTINUOUS
 10
199.061357677897
 20
46.5286868765466
 30
0.0
 40
0.0
 41
0.0
  0
VERTEX
  5
   6A3
  8
0
  6
CONTINUOUS
 10
199.044979733975
 20
46.5183098595285
 30
0.0
 40
0.0
 41
0.0
  0
VERTEX
  5
   6A4
  8
0
  6
CONTINUOUS
 10
199.028734055157
 20
46.5071320981448
 30
0.0
 40
0.0
 41
0.0
  0
VERTEX
  5
   6A5
  8
0
  6
CONTINUOUS
 10
199.012630427231
 20
46.4951603254611
 30
0.0
 40
0.0
 41
0.0
  0
VERTEX
  5
   6A6
  8
0
  6
CONTINUOUS
 10
198.996678550421
 20
46.4824017528255
 30
0.0
 40
0.0
 41
0.0
  0
VERTEX
  5
   6A7
  8
0
  6
CONTINUOUS
 10
198.965268388211
 20
46.4545554181567
 30
0.0
 40
0.0
 41
0.0
  0
VERTEX
  5
   6A8
  8
0
  6
CONTINUOUS
 10
198.934579238356
 20
46.4236601783977
 30
0.0
 40
0.0
 41
0.0
  0
VERTEX
  5
   6A9
  8
0
  6
CONTINUOUS
 10
198.904685033708
 20
46.3897904628871
 30
0.0
 40
0.0
 41
0.0
  0
VERTEX
  5
   6AA
  8
0
  6
CONTINUOUS
 10
198.875657792024
 20
46.3530278667363
 30
0.0
 40
0.0
 41
0.0
  0
VERTEX
  5
   6AB
  8
0
  6
CONTINUOUS
 10
198.847567442472
 20
46.3134609542594
 30
0.0
 40
0.0
 41
0.0
  0
VERTEX
  5
   6AC
  8
0
  6
CONTINUOUS
 10
198.820481657163
 20
46.2711850456142
 30
0.0
 40
0.0
 41
0.0
  0
VERTEX
  5
   6AD
  8
0
  6
CONTINUOUS
 10
198.794465688128
 20
46.2263019871676
 30
0.0
 40
0.0
 41
0.0
  0
VERTEX
  5
   6AE
  8
0
  6
CONTINUOUS
 10
198.769582210114
 20
46.1789199061387
 30
0.0
 40
0.0
 41
0.0
  0
VERTEX
  5
   6AF
  8
0
  6
CONTINUOUS
 10
198.745891169599
 20
46.1291529501108
 30
0.0
 40
0.0
 41
0.0
  0
VERTEX
  5
   6B0
  8
0
  6
CONTINUOUS
 10
198.723449640376
 20
46.0771210120401
 30
0.0
 40
0.0
 41
0.0
  0
VERTEX
  5
   6B1
  8
0
  6
CONTINUOUS
 10
198.702311686053
 20
46.0229494414229
 30
0.0
 40
0.0
 41
0.0
  0
VERTEX
  5
   6B2
  8
0
  6
CONTINUOUS
 10
198.682528229815
 20
45.9667687423176
 30
0.0
 40
0.0
 41
0.0
  0
VERTEX
  5
   6B3
  8
0
  6
CONTINUOUS
 10
198.66414693174
 20
45.9087142589492
 30
0.0
 40
0.0
 41
0.0
  0
VERTEX
  5
   6B4
  8
0
  6
CONTINUOUS
 10
198.647212073984
 20
45.8489258496532
 30
0.0
 40
0.0
 41
0.0
  0
VERTEX
  5
   6B5
  8
0
  6
CONTINUOUS
 10
198.631764454105
 20
45.7875475499444
 30
0.0
 40
0.0
 41
0.0
  0
VERTEX
  5
   6B6
  8
0
  6
CONTINUOUS
 10
198.617841286771
 20
45.7247272255229
 30
0.0
 40
0.0
 41
0.0
  0
VERTEX
  5
   6B7
  8
0
  6
CONTINUOUS
 10
198.605476114111
 20
45.6606162160526
 30
0.0
 40
0.0
 41
0.0
  0
VERTEX
  5
   6B8
  8
0
  6
CONTINUOUS
 10
198.59469872491
 20
45.5953689705708
 30
0.0
 40
0.0
 41
0.0
  0
VERTEX
  5
   6B9
  8
0
  6
CONTINUOUS
 10
198.585535082843
 20
45.5291426754069
 30
0.0
 40
0.0
 41
0.0
  0
VERTEX
  5
   6BA
  8
0
  6
CONTINUOUS
 10
198.578007263925
 20
45.4620968755066
 30
0.0
 40
0.0
 41
0.0
  0
VERTEX
  5
   6BB
  8
0
  6
CONTINUOUS
 10
198.572133403332
 20
45.3943930900745
 30
0.0
 40
0.0
 41
0.0
  0
VERTEX
  5
   6BC
  8
0
  6
CONTINUOUS
 10
198.567927651708
 20
45.3261944234597
 30
0.0
 40
0.0
 41
0.0
  0
VERTEX
  5
   6BD
  8
0
  6
CONTINUOUS
 10
198.565400141078
 20
45.2576651722237
 30
0.0
 40
0.0
 41
0.0
  0
VERTEX
  5
   6BE
  8
0
  6
CONTINUOUS
 10
198.564556960436
 20
45.1889704293351
 30
0.0
 40
0.0
 41
0.0
  0
VERTEX
  5
   6BF
  8
0
  6
CONTINUOUS
 10
198.565400141078
 20
45.1202756864465
 30
0.0
 40
0.0
 41
0.0
  0
VERTEX
  5
   6C0
  8
0
  6
CONTINUOUS
 10
198.567927651708
 20
45.0517464352105
 30
0.0
 40
0.0
 41
0.0
  0
VERTEX
  5
   6C1
  8
0
  6
CONTINUOUS
 10
198.572133403332
 20
44.9835477685958
 30
0.0
 40
0.0
 41
0.0
  0
VERTEX
  5
   6C2
  8
0
  6
CONTINUOUS
 10
198.578007263925
 20
44.9158439831637
 30
0.0
 40
0.0
 41
0.0
  0
VERTEX
  5
   6C3
  8
0
  6
CONTINUOUS
 10
198.585535082843
 20
44.8487981832634
 30
0.0
 40
0.0
 41
0.0
  0
VERTEX
  5
   6C4
  8
0
  6
CONTINUOUS
 10
198.594698724911
 20
44.7825718880995
 30
0.0
 40
0.0
 41
0.0
  0
VERTEX
  5
   6C5
  8
0
  6
CONTINUOUS
 10
198.605476114112
 20
44.7173246426178
 30
0.0
 40
0.0
 41
0.0
  0
VERTEX
  5
   6C6
  8
0
  6
CONTINUOUS
 10
198.617841286771
 20
44.6532136331476
 30
0.0
 40
0.0
 41
0.0
  0
VERTEX
  5
   6C7
  8
0
  6
CONTINUOUS
 10
198.631764454106
 20
44.5903933087261
 30
0.0
 40
0.0
 41
0.0
  0
VERTEX
  5
   6C8
  8
0
  6
CONTINUOUS
 10
198.647212073985
 20
44.5290150090174
 30
0.0
 40
0.0
 41
0.0
  0
VERTEX
  5
   6C9
  8
0
  6
CONTINUOUS
 10
198.664146931741
 20
44.4692265997215
 30
0.0
 40
0.0
 41
0.0
  0
VERTEX
  5
   6CA
  8
0
  6
CONTINUOUS
 10
198.682528229816
 20
44.4111721163532
 30
0.0
 40
0.0
 41
0.0
  0
VERTEX
  5
   6CB
  8
0
  6
CONTINUOUS
 10
198.702311686055
 20
44.354991417248
 30
0.0
 40
0.0
 41
0.0
  0
VERTEX
  5
   6CC
  8
0
  6
CONTINUOUS
 10
198.723449640377
 20
44.3008198466309
 30
0.0
 40
0.0
 41
0.0
  0
VERTEX
  5
   6CD
  8
0
  6
CONTINUOUS
 10
198.7458911696
 20
44.2487879085603
 30
0.0
 40
0.0
 41
0.0
  0
VERTEX
  5
   6CE
  8
0
  6
CONTINUOUS
 10
198.769582210115
 20
44.1990209525326
 30
0.0
 40
0.0
 41
0.0
  0
VERTEX
  5
   6CF
  8
0
  6
CONTINUOUS
 10
198.794465688129
 20
44.1516388715038
 30
0.0
 40
0.0
 41
0.0
  0
VERTEX
  5
   6D0
  8
0
  6
CONTINUOUS
 10
198.820481657164
 20
44.1067558130573
 30
0.0
 40
0.0
 41
0.0
  0
VERTEX
  5
   6D1
  8
0
  6
CONTINUOUS
 10
198.847567442473
 20
44.0644799044123
 30
0.0
 40
0.0
 41
0.0
  0
VERTEX
  5
   6D2
  8
0
  6
CONTINUOUS
 10
198.875657792026
 20
44.0249129919355
 30
0.0
 40
0.0
 41
0.0
  0
VERTEX
  5
   6D3
  8
0
  6
CONTINUOUS
 10
198.90468503371
 20
43.9881503957848
 30
0.0
 40
0.0
 41
0.0
  0
VERTEX
  5
   6D4
  8
0
  6
CONTINUOUS
 10
198.934579238358
 20
43.9542806802744
 30
0.0
 40
0.0
 41
0.0
  0
VERTEX
  5
   6D5
  8
0
  6
CONTINUOUS
 10
198.965268388212
 20
43.9233854405155
 30
0.0
 40
0.0
 41
0.0
  0
VERTEX
  5
   6D6
  8
0
  6
CONTINUOUS
 10
198.996678550423
 20
43.8955391058469
 30
0.0
 40
0.0
 41
0.0
  0
VERTEX
  5
   6D7
  8
0
  6
CONTINUOUS
 10
199.012630427232
 20
43.8827805332114
 30
0.0
 40
0.0
 41
0.0
  0
VERTEX
  5
   6D8
  8
0
  6
CONTINUOUS
 10
199.028734055158
 20
43.8708087605277
 30
0.0
 40
0.0
 41
0.0
  0
VERTEX
  5
   6D9
  8
0
  6
CONTINUOUS
 10
199.044979733977
 20
43.8596309991441
 30
0.0
 40
0.0
 41
0.0
  0
VERTEX
  5
   6DA
  8
0
  6
CONTINUOUS
 10
199.061357677899
 20
43.8492539821261
 30
0.0
 40
0.0
 41
0.0
  0
VERTEX
  5
   6DB
  8
0
  6
CONTINUOUS
 10
199.077858021464
 20
43.8396839602006
 30
0.0
 40
0.0
 41
0.0
  0
VERTEX
  5
   6DC
  8
0
  6
CONTINUOUS
 10
199.094470825481
 20
43.8309266979911
 30
0.0
 40
0.0
 41
0.0
  0
VERTEX
  5
   6DD
  8
0
  6
CONTINUOUS
 10
199.111186083019
 20
43.8229874705448
 30
0.0
 40
0.0
 41
0.0
  0
VERTEX
  5
   6DE
  8
0
  6
CONTINUOUS
 10
199.127993725431
 20
43.8158710601554
 30
0.0
 40
0.0
 41
0.0
  0
VERTEX
  5
   6DF
  8
0
  6
CONTINUOUS
 10
199.144883628423
 20
43.8095817534826
 30
0.0
 40
0.0
 41
0.0
  0
VERTEX
  5
   6E0
  8
0
  6
CONTINUOUS
 10
199.161845618147
 20
43.8041233389695
 30
0.0
 40
0.0
 41
0.0
  0
VERTEX
  5
   6E1
  8
0
  6
CONTINUOUS
 10
199.178869477337
 20
43.7994991045608
 30
0.0
 40
0.0
 41
0.0
  0
VERTEX
  5
   6E2
  8
0
  6
CONTINUOUS
 10
199.195944951455
 20
43.7957118357225
 30
0.0
 40
0.0
 41
0.0
  0
VERTEX
  5
   6E3
  8
0
  6
CONTINUOUS
 10
199.213061754874
 20
43.7927638137637
 30
0.0
 40
0.0
 41
0.0
  0
VERTEX
  5
   6E4
  8
0
  6
CONTINUOUS
 10
199.230209577073
 20
43.7906568144626
 30
0.0
 40
0.0
 41
0.0
  0
VERTEX
  5
   6E5
  8
0
  6
CONTINUOUS
 10
199.247378088843
 20
43.7893921069968
 30
0.0
 40
0.0
 41
0.0
  0
VERTEX
  5
   6E6
  8
0
  6
CONTINUOUS
 10
199.264556948517
 20
43.7889704531787
 30
0.0
 40
0.0
 41
0.0
  0
SEQEND
  5
   6E7
  8
0
  6
CONTINUOUS
 62
   218
  0
INSERT
  5
   6E8
  8
0
  6
CONTINUOUS
 62
   218
  2
*HATCH94
 10
239.378799438477
 20
53.7510223388672
 30
0.0
 41
0.349999994039536
 42
0.349999994039536
 50
89.9999999480344
 43
0.349999994039536
  0
LINE
  5
   6E9
  8
0
  6
CONTINUOUS
 62
   218
 10
209.278812477822
 20
44.671979203614
 30
0.0
 11
217.328812340731
 21
46.0914113741444
 31
0.0
  0
LINE
  5
   6EA
  8
0
  6
CONTINUOUS
 62
   218
 10
210.665725979113
 20
44.4189704424499
 30
0.0
 11
217.328812340731
 21
45.5938523427938
 31
0.0
  0
LINE
  5
   6EB
  8
0
  6
CONTINUOUS
 62
   218
 10
213.487523467799
 20
44.4189704424499
 30
0.0
 11
217.328812340731
 21
45.0962933114431
 31
0.0
  0
LINE
  5
   6EC
  8
0
  6
CONTINUOUS
 62
   218
 10
216.309320956484
 20
44.4189704424499
 30
0.0
 11
217.328812340731
 21
44.5987342800925
 31
0.0
  0
LINE
  5
   6ED
  8
0
  6
CONTINUOUS
 62
   218
 10
209.278812477822
 20
45.6670972663153
 30
0.0
 11
217.328812340731
 21
47.0865294368456
 31
0.0
  0
LINE
  5
   6EE
  8
0
  6
CONTINUOUS
 62
   218
 10
209.278812477822
 20
46.1646562976659
 30
0.0
 11
217.328812340731
 21
47.5840884681963
 31
0.0
  0
LINE
  5
   6EF
  8
0
  6
CONTINUOUS
 62
   218
 10
209.278812477822
 20
46.6622153290166
 30
0.0
 11
217.328812340731
 21
48.0816474995469
 31
0.0
  0
LINE
  5
   6F0
  8
0
  6
CONTINUOUS
 62
   218
 10
209.278812477822
 20
47.1597743603672
 30
0.0
 11
217.328812340731
 21
48.5792065308976
 31
0.0
  0
LINE
  5
   6F1
  8
0
  6
CONTINUOUS
 62
   218
 10
209.278812477822
 20
47.6573333917179
 30
0.0
 11
215.526506236293
 21
48.7589703685401
 31
0.0
  0
LINE
  5
   6F2
  8
0
  6
CONTINUOUS
 62
   218
 10
209.278812477822
 20
48.1548924230685
 30
0.0
 11
212.704708747607
 21
48.7589703685401
 31
0.0
  0
LINE
  5
   6F3
  8
0
  6
CONTINUOUS
 62
   218
 10
209.278812477822
 20
48.6524514544192
 30
0.0
 11
209.882911258922
 21
48.7589703685401
 31
0.0
  0
LINE
  5
   6F4
  8
0
  6
CONTINUOUS
 62
     1
 10
200.878821456432
 20
159.009599635064
 30
0.0
 11
200.878821456432
 21
161.809599587381
 31
0.0
  0
LINE
  5
   6F5
  8
0
  6
CONTINUOUS
 62
     1
 10
199.478821480274
 20
159.534599626124
 30
0.0
 11
199.478821480274
 21
161.284599596321
 31
0.0
  0
LINE
  5
   6F6
  8
0
  6
CONTINUOUS
 62
     1
 10
202.27882143259
 20
161.809599587381
 30
0.0
 11
200.878821456432
 21
161.809599587381
 31
0.0
  0
LINE
  5
   6F7
  8
0
  6
CONTINUOUS
 62
     1
 10
202.27882143259
 20
159.009599635064
 30
0.0
 11
200.878821456432
 21
159.009599635064
 31
0.0
  0
LINE
  5
   6F8
  8
0
  6
CONTINUOUS
 62
     1
 10
202.27882143259
 20
161.284599596321
 30
0.0
 11
199.478821480274
 21
161.284599596321
 31
0.0
  0
LINE
  5
   6F9
  8
0
  6
CONTINUOUS
 62
     1
 10
202.27882143259
 20
159.534599626124
 30
0.0
 11
199.478821480274
 21
159.534599626124
 31
0.0
  0
LINE
  5
   6FA
  8
0
  6
CONTINUOUS
 62
     1
 10
202.27882143259
 20
55.5840001213601
 30
0.0
 11
200.878821456432
 21
55.5840001213601
 31
0.0
  0
LINE
  5
   6FB
  8
0
  6
CONTINUOUS
 62
     1
 10
202.27882143259
 20
55.0590001303008
 30
0.0
 11
199.478821480274
 21
55.0590001303008
 31
0.0
  0
LINE
  5
   6FC
  8
0
  6
DASHDOT
 62
   218
 10
205.127000909913
 20
54.184000145202
 30
0.0
 11
197.749518400158
 21
54.184000145202
 31
0.0
  0
LINE
  5
   6FD
  8
0
  6
CONTINUOUS
 62
     1
 10
202.27882143259
 20
53.3090001601031
 30
0.0
 11
199.478821480274
 21
53.3090001601031
 31
0.0
  0
LINE
  5
   6FE
  8
0
  6
CONTINUOUS
 62
     1
 10
202.27882143259
 20
52.7840001690438
 30
0.0
 11
200.878821456432
 21
52.7840001690438
 31
0.0
  0
LINE
  5
   6FF
  8
0
  6
CONTINUOUS
 62
     1
 10
200.878821456432
 20
52.7840001690438
 30
0.0
 11
200.878821456432
 21
55.5840001213601
 31
0.0
  0
LINE
  5
   700
  8
0
  6
CONTINUOUS
 62
     1
 10
199.478821480274
 20
53.3090001601031
 30
0.0
 11
199.478821480274
 21
55.0590001303008
 31
0.0
  0
LINE
  5
   701
  8
0
  6
CONTINUOUS
 62
     1
 10
242.703817406296
 20
120.421489724593
 30
0.0
 11
241.478817427158
 21
120.421489724593
 31
0.0
  0
LINE
  5
   702
  8
0
  6
CONTINUOUS
 62
     1
 10
242.703817406296
 20
64.0714920193715
 30
0.0
 11
241.478817427158
 21
64.0714920193715
 31
0.0
  0
LINE
  5
   703
  8
0
  6
CONTINUOUS
 62
     7
 10
205.428810697794
 20
127.158970917839
 30
0.0
 11
204.028810721636
 21
127.158970917839
 31
0.0
  0
LINE
  5
   704
  8
0
  6
DASHDOT
 62
     7
 10
208.655647927617
 20
160.409599611222
 30
0.0
 11
197.016364161373
 21
160.409599611222
 31
0.0
  0
LINE
  5
   705
  8
0
  6
CONTINUOUS
 62
   130
 10
229.228820973616
 20
159.953986307214
 30
0.0
 11
229.228820973616
 21
165.833986280936
 31
0.0
  0
LINE
  5
   706
  8
0
  6
CONTINUOUS
 62
   130
 10
229.228820973616
 20
135.208986802476
 30
0.0
 11
229.228820973616
 21
136.504077496358
 31
0.0
  0
LINE
  5
   707
  8
0
  6
CONTINUOUS
 62
   130
 10
204.02882140277
 20
135.208986802476
 30
0.0
 11
204.02882140277
 21
165.833986280936
 31
0.0
  0
LINE
  5
   708
  8
0
  6
CONTINUOUS
 62
   130
 10
205.428821378928
 20
153.828986411522
 30
0.0
 11
204.02882140277
 21
153.828986411522
 31
0.0
  0
LINE
  5
   709
  8
0
  6
CONTINUOUS
 62
   130
 10
205.428821378928
 20
153.828986411522
 30
0.0
 11
205.428821378928
 21
155.388000215521
 31
0.0
  0
LINE
  5
   70A
  8
0
  6
CONTINUOUS
 62
   130
 10
228.038820459824
 20
157.503986348937
 30
0.0
 11
228.003820994478
 21
157.503986348937
 31
0.0
  0
LINE
  5
   70B
  8
0
  6
CONTINUOUS
 62
   130
 10
229.228820973616
 20
159.953986307214
 30
0.0
 11
228.003820994478
 21
159.953986307214
 31
0.0
  0
LINE
  5
   70C
  8
0
  6
CONTINUOUS
 62
   130
 10
229.228820973616
 20
136.504018750021
 30
0.0
 11
228.003820994478
 21
136.504018750021
 31
0.0
  0
LINE
  5
   70D
  8
0
  6
CONTINUOUS
 62
   130
 10
228.038820459824
 20
138.954018708298
 30
0.0
 11
228.003820994478
 21
138.954018708298
 31
0.0
  0
LINE
  5
   70E
  8
0
  6
CONTINUOUS
 62
   130
 10
228.003820994478
 20
136.504018750021
 30
0.0
 11
228.003820994478
 21
159.953986307214
 31
0.0
  0
LINE
  5
   70F
  8
0
  6
CONTINUOUS
 62
   130
 10
203.328821414709
 20
158.856212949444
 30
0.0
 11
203.328821414709
 21
161.962986273001
 31
0.0
  0
LINE
  5
   710
  8
0
  6
CONTINUOUS
 62
   210
 10
236.998819773179
 20
164.74898515744
 30
0.0
 11
229.385116031102
 21
164.74898515744
 31
0.0
  0
LINE
  5
   711
  8
0
  6
CONTINUOUS
 62
   210
 10
229.228820973616
 20
136.504018750021
 30
0.0
 11
229.228820973616
 21
136.591486705075
 31
0.0
  0
LINE
  5
   712
  8
0
  6
CONTINUOUS
 62
   210
 10
229.228820973616
 20
159.866486308704
 30
0.0
 11
229.228820973616
 21
159.953986307214
 31
0.0
  0
LINE
  5
   713
  8
0
  6
CONTINUOUS
 62
   210
 10
237.978820824605
 20
157.258986353109
 30
0.0
 11
237.978820824605
 21
165.833986280936
 31
0.0
  0
LINE
  5
   714
  8
0
  6
CONTINUOUS
 62
   210
 10
237.978820824605
 20
160.041486305724
 30
0.0
 11
236.998819773179
 21
160.041486305724
 31
0.0
  0
LINE
  5
   715
  8
0
  6
CONTINUOUS
 62
   210
 10
237.103820839506
 20
139.041486663352
 30
0.0
 11
236.998819773179
 21
139.041486663352
 31
0.0
  0
LINE
  5
   716
  8
0
  6
CONTINUOUS
 62
   210
 10
237.103820839506
 20
136.416486708055
 30
0.0
 11
236.998819773179
 21
136.416486708055
 31
0.0
  0
LINE
  5
   717
  8
0
  6
CONTINUOUS
 62
   210
 10
237.103820839506
 20
135.978986715506
 30
0.0
 11
236.998819773179
 21
135.978986715506
 31
0.0
  0
LINE
  5
   718
  8
0
  6
CONTINUOUS
 62
   210
 10
236.998819773179
 20
136.083986787575
 30
0.0
 11
236.998819773179
 21
164.74898515744
 31
0.0
  0
LINE
  5
   719
  8
0
  6
CONTINUOUS
 62
   210
 10
229.228820973616
 20
136.591486705075
 30
0.0
 11
228.213820456844
 21
136.591486705075
 31
0.0
  0
LINE
  5
   71A
  8
0
  6
CONTINUOUS
 62
   210
 10
228.213821080528
 20
136.591488224258
 30
0.0
 11
228.090077260064
 21
136.642747073748
 31
0.0
  0
LINE
  5
   71B
  8
0
  6
CONTINUOUS
 62
   210
 10
228.090076281625
 20
136.642740311112
 30
0.0
 11
228.038820102613
 21
136.766481455765
 31
0.0
  0
LINE
  5
   71C
  8
0
  6
CONTINUOUS
 62
   210
 10
228.038820459824
 20
136.766486702095
 30
0.0
 11
228.038820459824
 21
138.691486669312
 31
0.0
  0
LINE
  5
   71D
  8
0
  6
CONTINUOUS
 62
   210
 10
228.038820459824
 20
157.766486344467
 30
0.0
 11
228.038820459824
 21
159.691486311684
 31
0.0
  0
LINE
  5
   71E
  8
0
  6
CONTINUOUS
 62
   210
 10
228.038817513325
 20
159.691478001818
 30
0.0
 11
228.090073692337
 21
159.81521914647
 31
0.0
  0
LINE
  5
   71F
  8
0
  6
CONTINUOUS
 62
   210
 10
228.09007854022
 20
159.815230091021
 30
0.0
 11
228.213822360685
 21
159.866488940511
 31
0.0
  0
LINE
  5
   720
  8
0
  6
CONTINUOUS
 62
   210
 10
229.228820973616
 20
159.866486308704
 30
0.0
 11
228.213820456844
 21
159.866486308704
 31
0.0
  0
LINE
  5
   721
  8
0
  6
CONTINUOUS
 62
   210
 10
228.038820459824
 20
138.691486669312
 30
0.0
 11
228.038820459824
 21
157.766486344467
 31
0.0
  0
LINE
  5
   722
  8
0
  6
CONTINUOUS
 62
     2
 10
237.103820839506
 20
127.683986856769
 30
0.0
 11
237.103820839506
 21
157.258986353109
 31
0.0
  0
LINE
  5
   723
  8
0
  6
CONTINUOUS
 62
     2
 10
238.853820809704
 20
128.033986850808
 30
0.0
 11
238.853820809704
 21
152.533986433576
 31
0.0
  0
LINE
  5
   724
  8
0
  6
CONTINUOUS
 62
     2
 10
238.853820809704
 20
152.883986427615
 30
0.0
 11
238.853820809704
 21
157.258986353109
 31
0.0
  0
LINE
  5
   725
  8
0
  6
CONTINUOUS
 62
     2
 10
237.978820824605
 20
157.258986353109
 30
0.0
 11
237.103820839506
 21
157.258986353109
 31
0.0
  0
LINE
  5
   726
  8
0
  6
CONTINUOUS
 62
     2
 10
238.503820815664
 20
127.683986856769
 30
0.0
 11
237.103820839506
 21
127.683986856769
 31
0.0
  0
LINE
  5
   727
  8
0
  6
CONTINUOUS
 62
     2
 10
238.853820809704
 20
152.883986427615
 30
0.0
 11
238.503820815664
 21
152.883986427615
 31
0.0
  0
LINE
  5
   728
  8
0
  6
CONTINUOUS
 62
     2
 10
238.853820809704
 20
152.533986433576
 30
0.0
 11
238.503820815664
 21
152.533986433576
 31
0.0
  0
LINE
  5
   729
  8
0
  6
CONTINUOUS
 62
     2
 10
238.503820815664
 20
152.533986433576
 30
0.0
 11
238.503820815664
 21
152.883986427615
 31
0.0
  0
LINE
  5
   72A
  8
0
  6
CONTINUOUS
 62
     2
 10
238.503820815664
 20
127.683986856769
 30
0.0
 11
238.503820815664
 21
128.033986850808
 31
0.0
  0
LINE
  5
   72B
  8
0
  6
CONTINUOUS
 62
     2
 10
238.503820815664
 20
128.033986850808
 30
0.0
 11
237.278820836526
 21
128.033986850808
 31
0.0
  0
LINE
  5
   72C
  8
0
  6
CONTINUOUS
 62
     2
 10
237.278820836526
 20
128.033986850808
 30
0.0
 11
237.278820836526
 21
157.258986353109
 31
0.0
  0
LINE
  5
   72D
  8
0
  6
CONTINUOUS
 62
   130
 10
204.02882140277
 20
161.962986273001
 30
0.0
 11
203.328821414709
 21
161.962986273001
 31
0.0
  0
LINE
  5
   72E
  8
0
  6
CONTINUOUS
 62
   130
 10
204.02882140277
 20
158.856212949444
 30
0.0
 11
203.328821414691
 21
158.856212949444
 31
0.0
  0
LINE
  5
   72F
  8
0
  6
CONTINUOUS
 62
   210
 10
237.978820824605
 20
157.416486350427
 30
0.0
 11
236.998819773179
 21
157.416486350427
 31
0.0
  0
LINE
  5
   730
  8
0
  6
CONTINUOUS
 62
   210
 10
237.103817392489
 20
140.045300097858
 30
0.0
 11
236.998818995373
 21
140.091485400635
 31
0.0
  0
LINE
  5
   731
  8
0
  6
CONTINUOUS
 62
   210
 10
236.998821213662
 20
156.366488028399
 30
0.0
 11
237.103822282581
 21
156.412673329374
 31
0.0
  0
LINE
  5
   732
  8
0
  6
CONTINUOUS
 62
     2
 10
238.853820809704
 20
128.033986850808
 30
0.0
 11
238.503820815664
 21
128.033986850808
 31
0.0
  0
LINE
  5
   733
  8
0
  6
CONTINUOUS
 62
     2
 10
238.853820809704
 20
157.258986353109
 30
0.0
 11
237.978820824605
 21
157.258986353109
 31
0.0
  0
LINE
  5
   734
  8
0
  6
CONTINUOUS
 62
   130
 10
229.228820973616
 20
165.833986280936
 30
0.0
 11
216.418813023801
 21
165.833986280936
 31
0.0
  0
LINE
  5
   735
  8
0
  6
CONTINUOUS
 62
   210
 10
237.978820824605
 20
165.833986280936
 30
0.0
 11
229.228820973616
 21
165.833986280936
 31
0.0
  0
LINE
  5
   736
  8
0
  6
CONTINUOUS
 62
   130
 10
237.103820839506
 20
135.208986802476
 30
0.0
 11
204.02882140277
 21
135.208986802476
 31
0.0
  0
LINE
  5
   737
  8
0
  6
CONTINUOUS
 62
   130
 10
212.07881309771
 20
165.833986280936
 30
0.0
 11
204.02882140277
 21
165.833986280936
 31
0.0
  0
INSERT
  5
   738
  8
0
  6
CONTINUOUS
 62
     7
  2
*HATCH95
 10
239.378799438477
 20
53.7510223388672
 30
0.0
 41
0.349999994039536
 42
0.349999994039536
 50
89.9999999480344
 43
0.349999994039536
  0
LINE
  5
   739
  8
0
  6
CONTINUOUS
 62
     7
 10
225.990534078567
 20
157.259004333138
 30
0.0
 11
212.078812430138
 21
157.259004333138
 31
0.0
  0
LINE
  5
   73A
  8
0
  6
CONTINUOUS
 62
     7
 10
225.856380153456
 20
156.963000188699
 30
0.0
 11
203.781925859742
 21
156.963000188699
 31
0.0
  0
INSERT
  5
   73B
  8
0
  6
CONTINUOUS
 62
     7
  2
*HATCH96
 10
239.378799438477
 20
53.7510223388672
 30
0.0
 41
0.349999994039536
 42
0.349999994039536
 50
89.9999999480344
 43
0.349999994039536
  0
INSERT
  5
   73C
  8
0
  6
CONTINUOUS
 62
     7
  2
*HATCH97
 10
239.378799438477
 20
53.7510223388672
 30
0.0
 41
0.349999994039536
 42
0.349999994039536
 50
89.9999999480344
 43
0.349999994039536
  0
LINE
  5
   73D
  8
0
  6
DASHDOT
 62
     7
 10
187.534693571937
 20
92.2464994970015
 30
0.0
 11
176.732501603761
 21
92.2464994970015
 31
0.0
  0
LINE
  5
   73E
  8
0
  6
DASHDOT
 62
     7
 10
168.000729762819
 20
92.2464994970015
 30
0.0
 11
144.505962232037
 21
92.2464994970015
 31
0.0
  0
TEXT
  5
   73F
  8
0
  6
CONTINUOUS
 62
     7
 10
267.226504812976
 20
84.6445207740518
 30
0.0
 40
2.99999997871263
  1
=    =
 50
89.9999999480344
 41
0.916666703091727
 72
     1
 11
265.726504830842
 21
92.6195210406865
 31
0.0
 73
     2
  0
INSERT
  5
   740
  8
0
  6
CONTINUOUS
 62
     7
  2
*UDIM380
 10
0.0
 20
0.0
 30
0.0
  0
INSERT
  5
   741
  8
0
  6
CONTINUOUS
 62
     7
  2
*UDIM381
 10
0.0
 20
0.0
 30
0.0
  0
INSERT
  5
   742
  8
0
  6
CONTINUOUS
 62
     7
  2
*UDIM382
 10
0.0
 20
0.0
 30
0.0
  0
INSERT
  5
   743
  8
0
  6
CONTINUOUS
 62
     7
  2
*UDIM383
 10
0.0
 20
0.0
 30
0.0
  0
INSERT
  5
   744
  8
0
  6
CONTINUOUS
 62
     7
  2
*UDIM384
 10
0.0
 20
0.0
 30
0.0
  0
INSERT
  5
   745
  8
0
  6
CONTINUOUS
 62
     7
  2
*UDIM385
 10
0.0
 20
0.0
 30
0.0
  0
INSERT
  5
   746
  8
0
  6
CONTINUOUS
 62
     7
  2
*UDIM386
 10
0.0
 20
0.0
 30
0.0
  0
INSERT
  5
   747
  8
0
  6
CONTINUOUS
 62
     7
  2
*UDIM387
 10
0.0
 20
0.0
 30
0.0
  0
INSERT
  5
   748
  8
0
  6
CONTINUOUS
 62
     7
  2
*UDIM388
 10
0.0
 20
0.0
 30
0.0
  0
INSERT
  5
   749
  8
0
  6
CONTINUOUS
 62
     7
  2
*UDIM389
 10
0.0
 20
0.0
 30
0.0
  0
INSERT
  5
   74A
  8
0
  6
CONTINUOUS
 62
     7
  2
*UDIM390
 10
0.0
 20
0.0
 30
0.0
  0
INSERT
  5
   74B
  8
0
  6
CONTINUOUS
 62
     7
  2
*UDIM391
 10
0.0
 20
0.0
 30
0.0
  0
INSERT
  5
   74C
  8
0
  6
CONTINUOUS
 62
     7
  2
*UDIM392
 10
0.0
 20
0.0
 30
0.0
  0
INSERT
  5
   74D
  8
0
  6
CONTINUOUS
 62
     7
  2
*UDIM393
 10
0.0
 20
0.0
 30
0.0
  0
INSERT
  5
   74E
  8
0
  6
CONTINUOUS
 62
     7
  2
*UDIM394
 10
0.0
 20
0.0
 30
0.0
  0
TEXT
  5
   74F
  8
0
  6
CONTINUOUS
 62
     7
 10
269.347274682601
 20
90.8367921302135
 30
0.0
 40
2.99999997871263
  1
X
 50
359.999999948034
 41
0.91666663951344
 72
     1
 11
270.44727465181
 21
92.3367921185777
 31
0.0
 73
     2
  0
LINE
  5
   750
  8
0
  6
CONTINUOUS
 62
     7
 10
75.0689259723197
 20
73.8715000540788
 30
0.0
 11
71.5689260319244
 21
73.8715000540788
 31
0.0
  0
LINE
  5
   751
  8
0
  6
CONTINUOUS
 62
     7
 10
66.3189261213313
 20
109.921488758999
 30
0.0
 11
66.3189261213313
 21
110.621488747078
 31
0.0
  0
LINE
  5
   752
  8
0
  6
CONTINUOUS
 62
     7
 10
71.5689260319244
 20
73.8715000540788
 30
0.0
 11
66.3189261213313
 21
73.8715000540788
 31
0.0
  0
LINE
  5
   753
  8
0
  6
CONTINUOUS
 62
     7
 10
84.6939151272548
 20
73.8715000540788
 30
0.0
 11
75.0689259723197
 21
73.8715000540788
 31
0.0
  0
LINE
  5
   754
  8
0
  6
CONTINUOUS
 62
    52
 10
97.8189042225852
 20
73.8715000540788
 30
0.0
 11
94.3189042821898
 21
73.8715000540788
 31
0.0
  0
LINE
  5
   755
  8
0
  6
CONTINUOUS
 62
    52
 10
103.068904133178
 20
73.8715000540788
 30
0.0
 11
97.8189042225852
 21
73.8715000540788
 31
0.0
  0
LINE
  5
   756
  8
0
  6
CONTINUOUS
 62
    52
 10
94.3189042821898
 20
73.8715000540788
 30
0.0
 11
84.6939151272548
 21
73.8715000540788
 31
0.0
  0
LINE
  5
   757
  8
0
  6
DASHDOT
 62
     7
 10
84.6939379035383
 20
29.621169265955
 30
0.0
 11
84.6939042617128
 21
156.02678726936
 31
0.0
  0
LINE
  5
   758
  8
0
  6
CONTINUOUS
 62
     3
 10
66.3189261213313
 20
48.1640004751856
 30
0.0
 11
66.3189261213313
 21
64.0714882046742
 31
0.0
  0
LINE
  5
   759
  8
0
  6
CONTINUOUS
 62
     3
 10
67.1939261064302
 20
48.1640004751856
 30
0.0
 11
66.3189261213313
 21
48.1640004751856
 31
0.0
  0
LINE
  5
   75A
  8
0
  6
CONTINUOUS
 62
     3
 10
67.1939261064302
 20
47.5340005026037
 30
0.0
 11
67.1939261064302
 21
48.1640004751856
 31
0.0
  0
LINE
  5
   75B
  8
0
  6
CONTINUOUS
 62
     3
 10
74.7119253527697
 20
47.1840005085645
 30
0.0
 11
67.5439261004697
 21
47.1840005085645
 31
0.0
  0
LINE
  5
   75C
  8
0
  6
CONTINUOUS
 62
     7
 10
67.1939261064302
 20
48.1640004751856
 30
0.0
 11
67.1939261064302
 21
55.2340003714735
 31
0.0
  0
LINE
  5
   75D
  8
0
  6
CONTINUOUS
 62
     7
 10
88.9814257353912
 20
55.584000365513
 30
0.0
 11
80.4064258814226
 21
55.584000365513
 31
0.0
  0
LINE
  5
   75E
  8
0
  6
CONTINUOUS
 62
     7
 10
100.793925534226
 20
55.584000365513
 30
0.0
 11
92.6564256728064
 21
55.584000365513
 31
0.0
  0
LINE
  5
   75F
  8
0
  6
CONTINUOUS
 62
     7
 10
98.1689255789291
 20
55.584000365513
 30
0.0
 11
98.1689255789291
 21
55.7590003625328
 31
0.0
  0
LINE
  5
   760
  8
0
  6
CONTINUOUS
 62
     7
 10
102.456425505913
 20
55.2340003714735
 30
0.0
 11
102.456425505913
 21
55.7590003625328
 31
0.0
  0
LINE
  5
   761
  8
0
  6
CONTINUOUS
 62
     7
 10
66.9314261109005
 20
55.2340003714735
 30
0.0
 11
66.9314261109005
 21
55.7590003625328
 31
0.0
  0
LINE
  5
   762
  8
0
  6
CONTINUOUS
 62
     7
 10
100.793925534226
 20
55.2340003714735
 30
0.0
 11
100.793925534226
 21
55.7590003625328
 31
0.0
  0
ARC
  5
   763
  8
0
  6
CONTINUOUS
 62
     7
 10
72.4439260641109
 20
53.4839989744321
 30
0.0
 40
1.92499852271199
 50
101.990590955936
 51
280.922300336364
  0
CIRCLE
  5
   764
  8
0
  6
CONTINUOUS
 62
     7
 10
72.4439255782154
 20
48.5839997758907
 30
0.0
 40
0.490000710339291
  0
ARC
  5
   765
  8
0
  6
CONTINUOUS
 62
     3
 10
67.5439261979303
 20
47.5340006466027
 30
0.0
 40
0.350000144503819
 50
180.000023420064
 51
269.999992853049
  0
LINE
  5
   766
  8
0
  6
DASHDOT
 62
     3
 10
72.4439260641109
 20
50.859000463641
 30
0.0
 11
72.4439260641109
 21
56.1089974852232
 31
0.0
  0
LINE
  5
   767
  8
0
  6
DASHDOT
 62
     3
 10
75.068924574902
 20
53.4839989744321
 30
0.0
 11
69.8189275533198
 21
53.4839989744321
 31
0.0
  0
LINE
  5
   768
  8
0
  6
DASHDOT
 62
     3
 10
72.4439255782154
 20
38.2857058582991
 30
0.0
 11
72.4439255782154
 21
49.774000474309
 31
0.0
  0
LINE
  5
   769
  8
0
  6
DASHDOT
 62
     3
 10
73.6339262766337
 20
48.5839997758907
 30
0.0
 11
71.253924879797
 21
48.5839997758907
 31
0.0
  0
LINE
  5
   76A
  8
0
  6
DASHDOT
 62
     3
 10
80.5814216173404
 20
73.9590060267162
 30
0.0
 11
76.5564305307337
 21
73.9590060267162
 31
0.0
  0
LINE
  5
   76B
  8
0
  6
DASHDOT
 62
     3
 10
92.8315635694501
 20
73.9588512406105
 30
0.0
 11
88.8063133339044
 21
73.9588512406105
 31
0.0
  0
LINE
  5
   76C
  8
0
  6
CONTINUOUS
 62
     3
 10
67.1939261064302
 20
47.5340005026037
 30
0.0
 11
67.1939261064302
 21
48.1640004751856
 31
0.0
  0
LINE
  5
   76D
  8
0
  6
CONTINUOUS
 62
     3
 10
103.068925495483
 20
48.1640015599901
 30
0.0
 11
103.068925495483
 21
64.0714882046742
 31
0.0
  0
LINE
  5
   76E
  8
0
  6
CONTINUOUS
 62
     7
 10
68.5939260825883
 20
55.2340003714735
 30
0.0
 11
66.9314261109005
 21
55.2340003714735
 31
0.0
  0
LINE
  5
   76F
  8
0
  6
CONTINUOUS
 62
     7
 10
80.4064258814226
 20
54.1840003893549
 30
0.0
 11
80.4064258814226
 21
55.584000365513
 31
0.0
  0
LINE
  5
   770
  8
0
  6
CONTINUOUS
 62
     7
 10
71.2189260378848
 20
55.584000365513
 30
0.0
 11
71.2189260378848
 21
55.7590003625328
 31
0.0
  0
LINE
  5
   771
  8
0
  6
CONTINUOUS
 62
     7
 10
68.5939260825883
 20
55.2340003714735
 30
0.0
 11
68.5939260825883
 21
55.7590003625328
 31
0.0
  0
ARC
  5
   772
  8
0
  6
CONTINUOUS
 62
     3
 10
67.5439261979303
 20
47.5340006466027
 30
0.0
 40
0.350000144503819
 50
180.000023420064
 51
269.999992853049
  0
LINE
  5
   773
  8
0
  6
CONTINUOUS
 62
     7
 10
76.7314259440075
 20
55.584000365513
 30
0.0
 11
68.5939260825883
 21
55.584000365513
 31
0.0
  0
LINE
  5
   774
  8
0
  6
CONTINUOUS
 62
     7
 10
102.456425505913
 20
55.2340003714735
 30
0.0
 11
100.793925534226
 21
55.2340003714735
 31
0.0
  0
LINE
  5
   775
  8
0
  6
CONTINUOUS
 62
     7
 10
103.068904133178
 20
55.7590003625328
 30
0.0
 11
66.3189261213313
 21
55.7590003625328
 31
0.0
  0
LINE
  5
   776
  8
0
  6
CONTINUOUS
 62
     7
 10
75.0689206317436
 20
73.8715000540788
 30
0.0
 11
71.5689260319244
 21
73.8715000540788
 31
0.0
  0
LINE
  5
   777
  8
0
  6
CONTINUOUS
 62
     7
 10
97.8189149037374
 20
73.8715000540788
 30
0.0
 11
94.318914963342
 21
73.8715000540788
 31
0.0
  0
LINE
  5
   778
  8
0
  6
CONTINUOUS
 62
     7
 10
103.068925495483
 20
74.0465000510985
 30
0.0
 11
103.068925495483
 21
80.3464946032341
 31
0.0
  0
LINE
  5
   779
  8
0
  6
CONTINUOUS
 62
     7
 10
66.3189261213313
 20
73.8715000540788
 30
0.0
 11
66.3189261213313
 21
80.3464946032341
 31
0.0
  0
LINE
  5
   77A
  8
0
  6
CONTINUOUS
 62
     7
 10
103.068920154906
 20
110.62149942823
 30
0.0
 11
66.3189261213411
 21
110.62149942823
 31
0.0
  0
LINE
  5
   77B
  8
0
  6
CONTINUOUS
 62
     7
 10
71.5689260319244
 20
73.8715000540788
 30
0.0
 11
66.3189261213313
 21
73.8715000540788
 31
0.0
  0
LINE
  5
   77C
  8
0
  6
CONTINUOUS
 62
     7
 10
94.318914963342
 20
73.8715000540788
 30
0.0
 11
75.0689206317436
 21
73.8715000540788
 31
0.0
  0
LINE
  5
   77D
  8
0
  6
CONTINUOUS
 62
     7
 10
102.893925498463
 20
73.8715000540788
 30
0.0
 11
97.8189149037374
 21
73.8715000540788
 31
0.0
  0
LINE
  5
   77E
  8
0
  6
CONTINUOUS
 62
     7
 10
88.4564257443319
 20
81.6589945808823
 30
0.0
 11
88.4564257443319
 21
95.6589890018877
 31
0.0
  0
LINE
  5
   77F
  8
0
  6
CONTINUOUS
 62
     7
 10
80.9314258724819
 20
81.6589945808823
 30
0.0
 11
80.9314258724819
 21
95.6589890018877
 31
0.0
  0
LINE
  5
   780
  8
0
  6
CONTINUOUS
 62
     7
 10
103.068925495483
 20
106.421488818603
 30
0.0
 11
66.3189261213313
 21
106.421488818603
 31
0.0
  0
LINE
  5
   781
  8
0
  6
CONTINUOUS
 62
     7
 10
103.068925495483
 20
109.921488758999
 30
0.0
 11
66.3189261213313
 21
109.921488758999
 31
0.0
  0
LINE
  5
   782
  8
0
  6
CONTINUOUS
 62
     7
 10
88.4564257443319
 20
95.5664261372531
 30
0.0
 11
80.9314258724819
 21
95.5664261372531
 31
0.0
  0
LINE
  5
   783
  8
0
  6
CONTINUOUS
 62
     7
 10
88.4564257443319
 20
95.6589890018877
 30
0.0
 11
80.9314258724819
 21
95.6589890018877
 31
0.0
  0
LINE
  5
   784
  8
0
  6
CONTINUOUS
 62
     7
 10
88.4564257443319
 20
81.6589945808823
 30
0.0
 11
80.9314258724819
 21
81.6589945808823
 31
0.0
  0
LINE
  5
   785
  8
0
  6
CONTINUOUS
 62
     7
 10
88.4564257443319
 20
81.7515681266691
 30
0.0
 11
80.9314258724819
 21
81.7515681266691
 31
0.0
  0
LINE
  5
   786
  8
0
  6
DASHDOT
 62
     7
 10
84.6939258084069
 20
72.7328514156942
 30
0.0
 11
84.6939258084069
 21
102.992341058845
 31
0.0
  0
LINE
  5
   787
  8
0
  6
CONTINUOUS
 62
     7
 10
103.068920154906
 20
80.6964945972736
 30
0.0
 11
103.068920154906
 21
84.8964917421146
 31
0.0
  0
LINE
  5
   788
  8
0
  6
CONTINUOUS
 62
     7
 10
103.068920154906
 20
96.971494320112
 30
0.0
 11
103.068920154906
 21
110.62149942823
 31
0.0
  0
LINE
  5
   789
  8
0
  6
CONTINUOUS
 62
     7
 10
103.068920154906
 20
85.2464917361542
 30
0.0
 11
103.068920154906
 21
92.0714944035585
 31
0.0
  0
LINE
  5
   78A
  8
0
  6
CONTINUOUS
 62
     7
 10
103.068920154906
 20
92.421494397598
 30
0.0
 11
103.068920154906
 21
96.6214943260725
 31
0.0
  0
LINE
  5
   78B
  8
0
  6
CONTINUOUS
 62
     7
 10
66.3189261213295
 20
80.6964945972736
 30
0.0
 11
66.3189261213295
 21
84.8964945257488
 31
0.0
  0
LINE
  5
   78C
  8
0
  6
CONTINUOUS
 62
     7
 10
66.3189261213233
 20
85.2464945197884
 30
0.0
 11
66.3189261213233
 21
92.0714944035585
 31
0.0
  0
LINE
  5
   78D
  8
0
  6
CONTINUOUS
 62
     7
 10
66.3189261213331
 20
92.421494397598
 30
0.0
 11
66.3189261213331
 21
96.6214943260725
 31
0.0
  0
LINE
  5
   78E
  8
0
  6
CONTINUOUS
 62
     7
 10
66.3189261213411
 20
96.971494320112
 30
0.0
 11
66.3189261213411
 21
110.62149942823
 31
0.0
  0
LINE
  5
   78F
  8
0
  6
CONTINUOUS
 62
     7
 10
80.9314230816786
 20
84.8964945257473
 30
0.0
 11
66.6689260945092
 21
84.8964945257473
 31
0.0
  0
LINE
  5
   790
  8
0
  6
CONTINUOUS
 62
     7
 10
103.068920154906
 20
84.8965052068995
 30
0.0
 11
102.718920160867
 21
84.8965052068995
 31
0.0
  0
LINE
  5
   791
  8
0
  6
CONTINUOUS
 62
     7
 10
80.9314162359978
 20
85.2464945197868
 30
0.0
 11
66.6689260945092
 21
85.2464945197868
 31
0.0
  0
LINE
  5
   792
  8
0
  6
CONTINUOUS
 62
     7
 10
103.068920154906
 20
85.246505200939
 30
0.0
 11
102.718920160867
 21
85.246505200939
 31
0.0
  0
LINE
  5
   793
  8
0
  6
CONTINUOUS
 62
     7
 10
66.6689260945092
 20
84.896494525748
 30
0.0
 11
66.6689260945092
 21
85.2464945197876
 31
0.0
  0
LINE
  5
   794
  8
0
  6
CONTINUOUS
 62
     7
 10
102.718920160867
 20
84.896494525748
 30
0.0
 11
102.718920160867
 21
85.2464945197876
 31
0.0
  0
LINE
  5
   795
  8
0
  6
CONTINUOUS
 62
     7
 10
103.068925495483
 20
80.3464946032341
 30
0.0
 11
102.718920160867
 21
80.3464946032341
 31
0.0
  0
LINE
  5
   796
  8
0
  6
CONTINUOUS
 62
     7
 10
103.068920154906
 20
80.6964945972736
 30
0.0
 11
102.718920160867
 21
80.6964945972736
 31
0.0
  0
LINE
  5
   797
  8
0
  6
CONTINUOUS
 62
     7
 10
66.6689260945092
 20
80.3464946032341
 30
0.0
 11
66.6689260945092
 21
80.6964945972736
 31
0.0
  0
LINE
  5
   798
  8
0
  6
CONTINUOUS
 62
     7
 10
102.718920160867
 20
80.3464946032341
 30
0.0
 11
102.718920160867
 21
80.6964945972736
 31
0.0
  0
LINE
  5
   799
  8
0
  6
CONTINUOUS
 62
     7
 10
103.068920154906
 20
96.6214943260725
 30
0.0
 11
102.718920160867
 21
96.6214943260725
 31
0.0
  0
LINE
  5
   79A
  8
0
  6
CONTINUOUS
 62
     7
 10
103.068920154906
 20
96.971494320112
 30
0.0
 11
102.718920160867
 21
96.971494320112
 31
0.0
  0
LINE
  5
   79B
  8
0
  6
CONTINUOUS
 62
     7
 10
66.6689260945092
 20
96.6214943260725
 30
0.0
 11
66.6689260945092
 21
96.971494320112
 31
0.0
  0
LINE
  5
   79C
  8
0
  6
CONTINUOUS
 62
     7
 10
102.718920160867
 20
96.6214943260725
 30
0.0
 11
102.718920160867
 21
96.971494320112
 31
0.0
  0
LINE
  5
   79D
  8
0
  6
CONTINUOUS
 62
     7
 10
80.9314230978858
 20
92.0714944035585
 30
0.0
 11
66.6689260945092
 21
92.0714944035585
 31
0.0
  0
LINE
  5
   79E
  8
0
  6
CONTINUOUS
 62
     7
 10
103.068920154906
 20
92.0714944035585
 30
0.0
 11
102.718920160867
 21
92.0714944035585
 31
0.0
  0
LINE
  5
   79F
  8
0
  6
CONTINUOUS
 62
     7
 10
80.9314258724819
 20
92.421494397598
 30
0.0
 11
66.6689260945092
 21
92.421494397598
 31
0.0
  0
LINE
  5
   7A0
  8
0
  6
CONTINUOUS
 62
     7
 10
103.068920154906
 20
92.421494397598
 30
0.0
 11
102.718920160867
 21
92.421494397598
 31
0.0
  0
LINE
  5
   7A1
  8
0
  6
CONTINUOUS
 62
     7
 10
66.6689260945092
 20
92.0714944035585
 30
0.0
 11
66.6689260945092
 21
92.421494397598
 31
0.0
  0
LINE
  5
   7A2
  8
0
  6
CONTINUOUS
 62
     7
 10
102.718920160867
 20
92.0714944035585
 30
0.0
 11
102.718920160867
 21
92.421494397598
 31
0.0
  0
ARC
  5
   7A3
  8
0
  6
CONTINUOUS
 62
     7
 10
102.893925498463
 20
74.0465000510985
 30
0.0
 40
0.174999997019768
 50
269.999999948034
 51
359.999999948034
  0
INSERT
  5
   7A4
  8
255
  6
CONTINUOUS
 62
     7
  2
ON-OFF
 10
91.6939222712289
 20
94.5214943618353
 30
0.0
 41
0.349999994039536
 42
0.349999994039536
 50
359.999999792137
 43
0.349999994039536
  0
LINE
  5
   7A5
  8
0
  6
CONTINUOUS
 62
     7
 10
76.8189259425174
 20
96.0964943350132
 30
0.0
 11
76.2939259514581
 21
96.0964943350132
 31
0.0
  0
LINE
  5
   7A6
  8
0
  6
CONTINUOUS
 62
     7
 10
76.8189259425174
 20
92.9464943886574
 30
0.0
 11
76.2939259514581
 21
92.9464943886574
 31
0.0
  0
CIRCLE
  5
   7A7
  8
0
  6
CONTINUOUS
 62
     7
 10
76.5564259469877
 20
82.7964945615108
 30
0.0
 40
1.57499997317791
  0
CIRCLE
  5
   7A8
  8
0
  6
CONTINUOUS
 62
     7
 10
76.5564259469877
 20
82.7964945615108
 30
0.0
 40
1.04999998211861
  0
LINE
  5
   7A9
  8
0
  6
CONTINUOUS
 62
     7
 10
76.2939259514581
 20
92.9464943886574
 30
0.0
 11
76.2939259514581
 21
96.0964943350132
 31
0.0
  0
LINE
  5
   7AA
  8
0
  6
CONTINUOUS
 62
     7
 10
76.8189259425174
 20
92.9464943886574
 30
0.0
 11
76.8189259425174
 21
96.0964943350132
 31
0.0
  0
LINE
  5
   7AB
  8
0
  6
CONTINUOUS
 62
     7
 10
79.9689258888732
 20
80.6964945972736
 30
0.0
 11
79.9689258888732
 21
84.8964995269559
 31
0.0
  0
LINE
  5
   7AC
  8
0
  6
CONTINUOUS
 62
     7
 10
89.4189257279407
 20
80.6964945972736
 30
0.0
 11
89.4189257279407
 21
84.8964967433198
 31
0.0
  0
LINE
  5
   7AD
  8
0
  6
CONTINUOUS
 62
     7
 10
89.4189257279407
 20
92.421494397598
 30
0.0
 11
89.4189257279407
 21
96.6214943260725
 31
0.0
  0
LINE
  5
   7AE
  8
0
  6
CONTINUOUS
 62
     7
 10
79.9689258888732
 20
92.421494397598
 30
0.0
 11
79.9689258888732
 21
96.6214943260725
 31
0.0
  0
LINE
  5
   7AF
  8
0
  6
DASHDOT
 62
     7
 10
84.6939016963707
 20
154.108612401974
 30
0.0
 11
84.6939016963707
 21
164.958971120776
 31
0.0
  0
LINE
  5
   7B0
  8
0
  6
DASHDOT
 62
     7
 10
84.6938891595505
 20
160.443988041007
 30
0.0
 11
84.6938891595505
 21
168.424013650965
 31
0.0
  0
LINE
  5
   7B1
  8
0
  6
CONTINUOUS
 62
     7
 10
88.4564257443319
 20
84.8717447505738
 30
0.0
 11
80.9314258724819
 21
84.8717447505738
 31
0.0
  0
LINE
  5
   7B2
  8
0
  6
CONTINUOUS
 62
     7
 10
88.4564257443319
 20
82.0994114738528
 30
0.0
 11
80.9314258724819
 21
82.0994114738528
 31
0.0
  0
LINE
  5
   7B3
  8
0
  6
CONTINUOUS
 62
     7
 10
88.4564257443319
 20
84.8717445050649
 30
0.0
 11
80.9314258724819
 21
84.8717445050649
 31
0.0
  0
LINE
  5
   7B4
  8
0
  6
CONTINUOUS
 62
     7
 10
88.4564257443319
 20
86.602886887164
 30
0.0
 11
80.9314258724819
 21
86.602886887164
 31
0.0
  0
LINE
  5
   7B5
  8
0
  6
CONTINUOUS
 62
     7
 10
66.6689260945092
 20
96.971494320112
 30
0.0
 11
66.3189261213411
 21
96.971494320112
 31
0.0
  0
LINE
  5
   7B6
  8
0
  6
CONTINUOUS
 62
     7
 10
66.6689260945092
 20
96.6214943260725
 30
0.0
 11
66.3189261213331
 21
96.6214943260725
 31
0.0
  0
LINE
  5
   7B7
  8
0
  6
CONTINUOUS
 62
     7
 10
66.6689260945092
 20
92.421494397598
 30
0.0
 11
66.3189261213331
 21
92.421494397598
 31
0.0
  0
LINE
  5
   7B8
  8
0
  6
CONTINUOUS
 62
     7
 10
66.6689260945092
 20
92.0714944035585
 30
0.0
 11
66.3189261213233
 21
92.0714944035585
 31
0.0
  0
LINE
  5
   7B9
  8
0
  6
CONTINUOUS
 62
     7
 10
66.6689260945092
 20
85.2464945197868
 30
0.0
 11
66.3189261213233
 21
85.2464945197868
 31
0.0
  0
LINE
  5
   7BA
  8
0
  6
CONTINUOUS
 62
     7
 10
66.6689260945092
 20
84.8964945257473
 30
0.0
 11
66.3189261213295
 21
84.8964945257473
 31
0.0
  0
LINE
  5
   7BB
  8
0
  6
CONTINUOUS
 62
     7
 10
66.6689260945092
 20
80.6964945972736
 30
0.0
 11
66.3189261213295
 21
80.6964945972736
 31
0.0
  0
LINE
  5
   7BC
  8
0
  6
CONTINUOUS
 62
     7
 10
66.6689260945092
 20
80.3464946032341
 30
0.0
 11
66.3189261213313
 21
80.3464946032341
 31
0.0
  0
LINE
  5
   7BD
  8
0
  6
CONTINUOUS
 62
     7
 10
102.718920160867
 20
80.6964945972736
 30
0.0
 11
66.6689260945092
 21
80.6964945972736
 31
0.0
  0
LINE
  5
   7BE
  8
0
  6
CONTINUOUS
 62
     7
 10
102.718920160867
 20
80.3464946032341
 30
0.0
 11
66.6689260945092
 21
80.3464946032341
 31
0.0
  0
LINE
  5
   7BF
  8
0
  6
CONTINUOUS
 62
     7
 10
102.718920160867
 20
85.246505200939
 30
0.0
 11
88.4564246996665
 21
85.246505200939
 31
0.0
  0
LINE
  5
   7C0
  8
0
  6
CONTINUOUS
 62
     7
 10
102.718920160867
 20
84.8965052068995
 30
0.0
 11
88.4564245714304
 21
84.8965052068995
 31
0.0
  0
LINE
  5
   7C1
  8
0
  6
CONTINUOUS
 62
     7
 10
102.718920160867
 20
92.421494397598
 30
0.0
 11
88.4564257443319
 21
92.421494397598
 31
0.0
  0
LINE
  5
   7C2
  8
0
  6
CONTINUOUS
 62
     7
 10
102.718920160867
 20
92.0714944035585
 30
0.0
 11
88.4564257443319
 21
92.0714944035585
 31
0.0
  0
LINE
  5
   7C3
  8
0
  6
CONTINUOUS
 62
     7
 10
102.718920160867
 20
96.971494320112
 30
0.0
 11
66.6689260945092
 21
96.971494320112
 31
0.0
  0
LINE
  5
   7C4
  8
0
  6
CONTINUOUS
 62
     7
 10
102.718920160867
 20
96.6214943260725
 30
0.0
 11
66.6689260945092
 21
96.6214943260725
 31
0.0
  0
LINE
  5
   7C5
  8
0
  6
DASHDOT
 62
     7
 10
115.283014658106
 20
92.2464997411544
 30
0.0
 11
54.1918088800029
 21
92.2464997411544
 31
0.0
  0
LINE
  5
   7C6
  8
0
  6
DASHDOT
 62
     7
 10
41.1723715830301
 20
92.2464997411544
 30
0.0
 11
36.4653442525861
 21
92.2464997411544
 31
0.0
  0
LINE
  5
   7C7
  8
0
  6
CONTINUOUS
 62
     1
 10
68.5939256437805
 20
39.1339667177556
 30
0.0
 11
68.5939256437805
 21
47.3939990774723
 31
0.0
  0
LINE
  5
   7C8
  8
0
  6
CONTINUOUS
 62
     1
 10
76.2939255126502
 20
39.1339667177556
 30
0.0
 11
68.5939256437805
 21
39.1339667177556
 31
0.0
  0
ARC
  5
   7C9
  8
0
  6
CONTINUOUS
 62
     1
 10
72.4439255782154
 20
45.9589666015266
 30
0.0
 40
2.79999995231628
 50
154.05474810364
 51
359.188965625771
  0
LINE
  5
   7CA
  8
0
  6
DOT
 62
     1
 10
69.6439256258991
 20
39.1339667177556
 30
0.0
 11
69.6439256258991
 21
45.9589666015266
 31
0.0
  0
LINE
  5
   7CB
  8
0
  6
DOT
 62
     1
 10
75.2439255305316
 20
39.1339667177556
 30
0.0
 11
75.2439255305316
 21
45.9589666015266
 31
0.0
  0
LINE
  5
   7CC
  8
0
  6
DOT
 62
     1
 10
74.8064255379822
 20
39.1339667177556
 30
0.0
 11
74.8064255379822
 21
44.4561047738549
 31
0.0
  0
LINE
  5
   7CD
  8
0
  6
DOT
 62
     1
 10
70.0814256184485
 20
39.1339667177556
 30
0.0
 11
70.0814256184485
 21
44.4561047738549
 31
0.0
  0
INSERT
  5
   7CE
  8
255
  6
CONTINUOUS
 62
     7
  2
MOSTRINA
 10
44.5005051351734
 20
53.7532695769867
 30
0.0
 41
0.349999994039536
 42
0.349999994039536
 50
3.50835464724173E-15
 43
0.349999994039536
  0
POINT
  5
   7CF
  8
0
  6
CONTINUOUS
 62
     7
 10
84.6938891595505
 20
165.833977125662
 30
0.0
  0
INSERT
  5
   7D0
  8
255
  6
CONTINUOUS
 62
     7
  2
S3LL-FT
 10
84.6938891595505
 20
101.958972185184
 30
0.0
 41
0.349999994039536
 42
0.349999994039536
 50
3.50835464724173E-15
 43
0.349999994039536
  0
LINE
  5
   7D1
  8
0
  6
CONTINUOUS
 62
     7
 10
103.068878577908
 20
120.421485909895
 30
0.0
 11
103.068878577908
 21
127.683981547263
 31
0.0
  0
LINE
  5
   7D2
  8
0
  6
CONTINUOUS
 62
     7
 10
66.3188752683083
 20
120.421485909895
 30
0.0
 11
66.3188752683083
 21
127.683981547263
 31
0.0
  0
LINE
  5
   7D3
  8
0
  6
CONTINUOUS
 62
     7
 10
66.6688752623478
 20
127.683981547263
 30
0.0
 11
66.3188752683083
 21
127.683981547263
 31
0.0
  0
LINE
  5
   7D4
  8
0
  6
CONTINUOUS
 62
     7
 10
103.068878577908
 20
127.683981547263
 30
0.0
 11
102.718878583868
 21
127.683981547263
 31
0.0
  0
LINE
  5
   7D5
  8
0
  6
CONTINUOUS
 62
     1
 10
102.718925659566
 20
55.5840016472388
 30
0.0
 11
72.0189042826752
 21
55.5840016472388
 31
0.0
  0
LINE
  5
   7D6
  8
0
  6
CONTINUOUS
 62
     1
 10
102.718925659566
 20
55.2340016531992
 30
0.0
 11
72.1042798508699
 21
55.2340016531992
 31
0.0
  0
LINE
  5
   7D7
  8
0
  6
CONTINUOUS
 62
     1
 10
103.068925653606
 20
31.5215020570207
 30
0.0
 11
103.068925653606
 21
55.2340016531992
 31
0.0
  0
LINE
  5
   7D8
  8
0
  6
CONTINUOUS
 62
     1
 10
102.718925659566
 20
55.2340016531992
 30
0.0
 11
102.718925659566
 21
55.5840016472388
 31
0.0
  0
LINE
  5
   7D9
  8
0
  6
CONTINUOUS
 62
     1
 10
102.631425661056
 20
31.0840020644713
 30
0.0
 11
78.8835885321124
 21
31.0840020644713
 31
0.0
  0
ARC
  5
   7DA
  8
0
  6
CONTINUOUS
 62
     1
 10
102.631425661056
 20
31.5215020570207
 30
0.0
 40
0.437499992549419
 50
269.999999948034
 51
359.999999948034
  0
LINE
  5
   7DB
  8
0
  6
CONTINUOUS
 62
     1
 10
101.808925675063
 20
31.0840020644713
 30
0.0
 11
101.808925675063
 21
55.2340016531992
 31
0.0
  0
LINE
  5
   7DC
  8
0
  6
CONTINUOUS
 62
     1
 10
100.548925696521
 20
31.0840020644713
 30
0.0
 11
100.548925696521
 21
55.2340016531992
 31
0.0
  0
LINE
  5
   7DD
  8
0
  6
CONTINUOUS
 62
     1
 10
99.2889257179786
 20
31.0840020644713
 30
0.0
 11
99.2889257179786
 21
55.2340016531992
 31
0.0
  0
LINE
  5
   7DE
  8
0
  6
CONTINUOUS
 62
     1
 10
98.0289257394363
 20
31.0840020644713
 30
0.0
 11
98.0289257394363
 21
55.2340016531992
 31
0.0
  0
LINE
  5
   7DF
  8
0
  6
CONTINUOUS
 62
     1
 10
96.768925760894
 20
31.0840020644713
 30
0.0
 11
96.768925760894
 21
55.2340016531992
 31
0.0
  0
LINE
  5
   7E0
  8
0
  6
CONTINUOUS
 62
     1
 10
95.5089257823516
 20
31.0840020644713
 30
0.0
 11
95.5089257823516
 21
55.2340016531992
 31
0.0
  0
LINE
  5
   7E1
  8
0
  6
CONTINUOUS
 62
     1
 10
94.2489258038093
 20
31.0840020644713
 30
0.0
 11
94.2489258038093
 21
55.2340016531992
 31
0.0
  0
LINE
  5
   7E2
  8
0
  6
CONTINUOUS
 62
     1
 10
92.988925825267
 20
31.0840020644713
 30
0.0
 11
92.988925825267
 21
55.2340016531992
 31
0.0
  0
LINE
  5
   7E3
  8
0
  6
CONTINUOUS
 62
     1
 10
91.7289258467247
 20
31.0840020644713
 30
0.0
 11
91.7289258467247
 21
55.2340016531992
 31
0.0
  0
LINE
  5
   7E4
  8
0
  6
CONTINUOUS
 62
     1
 10
90.4689258681823
 20
31.0840020644713
 30
0.0
 11
90.4689258681823
 21
55.2340016531992
 31
0.0
  0
LINE
  5
   7E5
  8
0
  6
CONTINUOUS
 62
     1
 10
89.20892588964
 20
31.0840020644713
 30
0.0
 11
89.20892588964
 21
55.2340016531992
 31
0.0
  0
LINE
  5
   7E6
  8
0
  6
CONTINUOUS
 62
     1
 10
87.9489259110977
 20
31.0840020644713
 30
0.0
 11
87.9489259110977
 21
55.2340016531992
 31
0.0
  0
LINE
  5
   7E7
  8
0
  6
CONTINUOUS
 62
     1
 10
86.6889259325553
 20
31.0840020644713
 30
0.0
 11
86.6889259325553
 21
55.2340016531992
 31
0.0
  0
LINE
  5
   7E8
  8
0
  6
CONTINUOUS
 62
     1
 10
85.428925954013
 20
31.0840020644713
 30
0.0
 11
85.428925954013
 21
55.2340016531992
 31
0.0
  0
LINE
  5
   7E9
  8
0
  6
CONTINUOUS
 62
     1
 10
84.1689259754707
 20
31.0840020644713
 30
0.0
 11
84.1689259754707
 21
55.2340016531992
 31
0.0
  0
LINE
  5
   7EA
  8
0
  6
CONTINUOUS
 62
     1
 10
82.9089259969284
 20
31.0840020644713
 30
0.0
 11
82.9089259969284
 21
55.2340016531992
 31
0.0
  0
LINE
  5
   7EB
  8
0
  6
CONTINUOUS
 62
     1
 10
81.648926018386
 20
31.0840020644713
 30
0.0
 11
81.648926018386
 21
55.2340016531992
 31
0.0
  0
LINE
  5
   7EC
  8
0
  6
CONTINUOUS
 62
     1
 10
80.3889260398437
 20
31.0840020644713
 30
0.0
 11
80.3889260398437
 21
55.2340016531992
 31
0.0
  0
LINE
  5
   7ED
  8
0
  6
CONTINUOUS
 62
     1
 10
79.1289260613014
 20
31.0840020644713
 30
0.0
 11
79.1289260613014
 21
55.2340016531992
 31
0.0
  0
LINE
  5
   7EE
  8
0
  6
CONTINUOUS
 62
     1
 10
77.868926082759
 20
32.6563728902028
 30
0.0
 11
77.868926082759
 21
55.2340016531992
 31
0.0
  0
LINE
  5
   7EF
  8
0
  6
CONTINUOUS
 62
     1
 10
76.6089261042167
 20
37.3578057610293
 30
0.0
 11
76.6089261042167
 21
55.2340016531992
 31
0.0
  0
LINE
  5
   7F0
  8
0
  6
CONTINUOUS
 62
     1
 10
75.3489261256744
 20
45.6143480915363
 30
0.0
 11
75.3489261256744
 21
55.2340016531992
 31
0.0
  0
LINE
  5
   7F1
  8
0
  6
CONTINUOUS
 62
     1
 10
74.0889261471321
 20
48.5738970547803
 30
0.0
 11
74.0889261471321
 21
55.2340016531992
 31
0.0
  0
LINE
  5
   7F2
  8
0
  6
CONTINUOUS
 62
     1
 10
72.8289261685897
 20
51.5440824938606
 30
0.0
 11
72.8289261685897
 21
55.2340016531992
 31
0.0
  0
LINE
  5
   7F3
  8
0
  6
CONTINUOUS
 62
     1
 10
103.068925653606
 20
55.2340016531992
 30
0.0
 11
102.718925659566
 21
55.2340016531992
 31
0.0
  0
POLYLINE
  5
   7F4
  8
0
  6
CONTINUOUS
 62
     1
 66
     1
 10
0.0
 20
0.0
 30
0.0
  0
VERTEX
  5
   7F5
  8
0
  6
CONTINUOUS
 10
78.8835885321124
 20
31.0840704974387
 30
0.0
 40
0.0
 41
0.0
  0
VERTEX
  5
   7F6
  8
0
  6
CONTINUOUS
 10
78.8039266723626
 20
31.1944268872169
 30
0.0
 40
0.0
 41
0.0
  0
VERTEX
  5
   7F7
  8
0
  6
CONTINUOUS
 10
78.7249383802937
 20
31.3054887598148
 30
0.0
 40
0.0
 41
0.0
  0
VERTEX
  5
   7F8
  8
0
  6
CONTINUOUS
 10
78.646640069185
 20
31.4172585643686
 30
0.0
 40
0.0
 41
0.0
  0
VERTEX
  5
   7F9
  8
0
  6
CONTINUOUS
 10
78.5690566766378
 20
31.5297400219857
 30
0.0
 40
0.0
 41
0.0
  0
VERTEX
  5
   7FA
  8
0
  6
CONTINUOUS
 10
78.4922234608459
 20
31.6429383937787
 30
0.0
 40
0.0
 41
0.0
  0
VERTEX
  5
   7FB
  8
0
  6
CONTINUOUS
 10
78.416187796866
 20
31.756860748899
 30
0.0
 40
0.0
 41
0.0
  0
VERTEX
  5
   7FC
  8
0
  6
CONTINUOUS
 10
78.3410109728875
 20
31.8715162325701
 30
0.0
 40
0.0
 41
0.0
  0
VERTEX
  5
   7FD
  8
0
  6
CONTINUOUS
 10
78.2667699865033
 20
31.9869163341216
 30
0.0
 40
0.0
 41
0.0
  0
VERTEX
  5
   7FE
  8
0
  6
CONTINUOUS
 10
78.1935593409802
 20
32.1030751550225
 30
0.0
 40
0.0
 41
0.0
  0
VERTEX
  5
   7FF
  8
0
  6
CONTINUOUS
 10
78.1214928415287
 20
32.2200096769149
 30
0.0
 40
0.0
 41
0.0
  0
VERTEX
  5
   800
  8
0
  6
CONTINUOUS
 10
78.0298149041001
 20
32.3730925988428
 30
0.0
 40
0.0
 41
0.0
  0
VERTEX
  5
   801
  8
0
  6
CONTINUOUS
 10
77.9848924672412
 20
32.4501535402079
 30
0.0
 40
0.0
 41
0.0
  0
VERTEX
  5
   802
  8
0
  6
CONTINUOUS
 10
77.9406439886281
 20
32.5275700543969
 30
0.0
 40
0.0
 41
0.0
  0
VERTEX
  5
   803
  8
0
  6
CONTINUOUS
 10
77.8971193023856
 20
32.6053493410778
 30
0.0
 40
0.0
 41
0.0
  0
VERTEX
  5
   804
  8
0
  6
CONTINUOUS
 10
77.8543695041152
 20
32.6834986368444
 30
0.0
 40
0.0
 41
0.0
  0
VERTEX
  5
   805
  8
0
  6
CONTINUOUS
 10
77.8124462478802
 20
32.7620250724883
 30
0.0
 40
0.0
 41
0.0
  0
VERTEX
  5
   806
  8
0
  6
CONTINUOUS
 10
77.771401043191
 20
32.8409355302702
 30
0.0
 40
0.0
 41
0.0
  0
VERTEX
  5
   807
  8
0
  6
CONTINUOUS
 10
77.7312845519899
 20
32.9202365011919
 30
0.0
 40
0.0
 41
0.0
  0
VERTEX
  5
   808
  8
0
  6
CONTINUOUS
 10
77.6921458856367
 20
32.9999339422676
 30
0.0
 40
0.0
 41
0.0
  0
VERTEX
  5
   809
  8
0
  6
CONTINUOUS
 10
77.6540319018934
 20
33.0800331337954
 30
0.0
 40
0.0
 41
0.0
  0
VERTEX
  5
   80A
  8
0
  6
CONTINUOUS
 10
77.6169865019099
 20
33.1605385366292
 30
0.0
 40
0.0
 41
0.0
  0
VERTEX
  5
   80B
  8
0
  6
CONTINUOUS
 10
77.5810499272088
 20
33.2414536494499
 30
0.0
 40
0.0
 41
0.0
  0
VERTEX
  5
   80C
  8
0
  6
CONTINUOUS
 10
77.5462580566702
 20
33.3227808660375
 30
0.0
 40
0.0
 41
0.0
  0
VERTEX
  5
   80D
  8
0
  6
CONTINUOUS
 10
77.5126417035178
 20
33.404521332542
 30
0.0
 40
0.0
 41
0.0
  0
VERTEX
  5
   80E
  8
0
  6
CONTINUOUS
 10
77.4802259123031
 20
33.4866748047558
 30
0.0
 40
0.0
 41
0.0
  0
VERTEX
  5
   80F
  8
0
  6
CONTINUOUS
 10
77.4490292558911
 20
33.5692395053845
 30
0.0
 40
0.0
 41
0.0
  0
VERTEX
  5
   810
  8
0
  6
CONTINUOUS
 10
77.4190631324454
 20
33.652211981319
 30
0.0
 40
0.0
 41
0.0
  0
VERTEX
  5
   811
  8
0
  6
CONTINUOUS
 10
77.3903310624131
 20
33.735586960907
 30
0.0
 40
0.0
 41
0.0
  0
VERTEX
  5
   812
  8
0
  6
CONTINUOUS
 10
77.3628279855103
 20
33.8193572112243
 30
0.0
 40
0.0
 41
0.0
  0
VERTEX
  5
   813
  8
0
  6
CONTINUOUS
 10
77.3280347449882
 20
33.9316762559647
 30
0.0
 40
0.0
 41
0.0
  0
VERTEX
  5
   814
  8
0
  6
CONTINUOUS
 10
77.2953403051624
 20
34.0446533840309
 30
0.0
 40
0.0
 41
0.0
  0
VERTEX
  5
   815
  8
0
  6
CONTINUOUS
 10
77.2646557865606
 20
34.1582541625365
 30
0.0
 40
0.0
 41
0.0
  0
VERTEX
  5
   816
  8
0
  6
CONTINUOUS
 10
77.2358670577709
 20
34.2724385812627
 30
0.0
 40
0.0
 41
0.0
  0
VERTEX
  5
   817
  8
0
  6
CONTINUOUS
 10
77.2088379061364
 20
34.3871618177773
 30
0.0
 40
0.0
 41
0.0
  0
VERTEX
  5
   818
  8
0
  6
CONTINUOUS
 10
77.1834132084496
 20
34.5023750025555
 30
0.0
 40
0.0
 41
0.0
  0
VERTEX
  5
   819
  8
0
  6
CONTINUOUS
 10
77.1594221016464
 20
34.6180259840998
 30
0.0
 40
0.0
 41
0.0
  0
VERTEX
  5
   81A
  8
0
  6
CONTINUOUS
 10
77.1366811535009
 20
34.7340600940595
 30
0.0
 40
0.0
 41
0.0
  0
VERTEX
  5
   81B
  8
0
  6
CONTINUOUS
 10
77.1149975333191
 20
34.8504209123512
 30
0.0
 40
0.0
 41
0.0
  0
VERTEX
  5
   81C
  8
0
  6
CONTINUOUS
 10
77.094172182634
 20
34.9670510322787
 30
0.0
 40
0.0
 41
0.0
  0
VERTEX
  5
   81D
  8
0
  6
CONTINUOUS
 10
77.0542879411845
 20
35.2008892079119
 30
0.0
 40
0.0
 41
0.0
  0
VERTEX
  5
   81E
  8
0
  6
CONTINUOUS
 10
76.9761107793237
 20
35.6693408082286
 30
0.0
 40
0.0
 41
0.0
  0
VERTEX
  5
   81F
  8
0
  6
CONTINUOUS
 10
76.9350360876844
 20
35.9031784398436
 30
0.0
 40
0.0
 41
0.0
  0
VERTEX
  5
   820
  8
0
  6
CONTINUOUS
 10
76.9135194425419
 20
36.0198649164457
 30
0.0
 40
0.0
 41
0.0
  0
VERTEX
  5
   821
  8
0
  6
CONTINUOUS
 10
76.8912255074446
 20
36.1363606904159
 30
0.0
 40
0.0
 41
0.0
  0
VERTEX
  5
   822
  8
0
  6
CONTINUOUS
 10
76.8694186799206
 20
36.2461179561782
 30
0.0
 40
0.0
 41
0.0
  0
VERTEX
  5
   823
  8
0
  6
CONTINUOUS
 10
76.8468431032494
 20
36.355680936262
 30
0.0
 40
0.0
 41
0.0
  0
VERTEX
  5
   824
  8
0
  6
CONTINUOUS
 10
76.8234977869981
 20
36.4650470735708
 30
0.0
 40
0.0
 41
0.0
  0
VERTEX
  5
   825
  8
0
  6
CONTINUOUS
 10
76.7994028915161
 20
36.574219253618
 30
0.0
 40
0.0
 41
0.0
  0
VERTEX
  5
   826
  8
0
  6
CONTINUOUS
 10
76.7491384675567
 20
36.7920173185841
 30
0.0
 40
0.0
 41
0.0
  0
VERTEX
  5
   827
  8
0
  6
CONTINUOUS
 10
76.6965562892597
 20
37.0091869373108
 30
0.0
 40
0.0
 41
0.0
  0
VERTEX
  5
   828
  8
0
  6
CONTINUOUS
 10
76.6423701271431
 20
37.2258930942977
 30
0.0
 40
0.0
 41
0.0
  0
VERTEX
  5
   829
  8
0
  6
CONTINUOUS
 10
76.532684196994
 20
37.6587391425852
 30
0.0
 40
0.0
 41
0.0
  0
VERTEX
  5
   82A
  8
0
  6
CONTINUOUS
 10
76.4790585836296
 20
37.8753223293141
 30
0.0
 40
0.0
 41
0.0
  0
VERTEX
  5
   82B
  8
0
  6
CONTINUOUS
 10
76.4274461958886
 20
38.0922947417566
 30
0.0
 40
0.0
 41
0.0
  0
VERTEX
  5
   82C
  8
0
  6
CONTINUOUS
 10
76.40264117248
 20
38.200983792468
 30
0.0
 40
0.0
 41
0.0
  0
VERTEX
  5
   82D
  8
0
  6
CONTINUOUS
 10
76.3786141182429
 20
38.309832980631
 30
0.0
 40
0.0
 41
0.0
  0
VERTEX
  5
   82E
  8
0
  6
CONTINUOUS
 10
76.3547679512082
 20
38.4220416055817
 30
0.0
 40
0.0
 41
0.0
  0
VERTEX
  5
   82F
  8
0
  6
CONTINUOUS
 10
76.33187174317
 20
38.5344463991129
 30
0.0
 40
0.0
 41
0.0
  0
VERTEX
  5
   830
  8
0
  6
CONTINUOUS
 10
76.3099647817068
 20
38.647054472146
 30
0.0
 40
0.0
 41
0.0
  0
VERTEX
  5
   831
  8
0
  6
CONTINUOUS
 10
76.2890710605204
 20
38.7598690336629
 30
0.0
 40
0.0
 41
0.0
  0
VERTEX
  5
   832
  8
0
  6
CONTINUOUS
 10
76.2692004517326
 20
38.8728897356805
 30
0.0
 40
0.0
 41
0.0
  0
VERTEX
  5
   833
  8
0
  6
CONTINUOUS
 10
76.2503498781819
 20
38.9861130182248
 30
0.0
 40
0.0
 41
0.0
  0
VERTEX
  5
   834
  8
0
  6
CONTINUOUS
 10
76.2325044857211
 20
39.0995324543063
 30
0.0
 40
0.0
 41
0.0
  0
VERTEX
  5
   835
  8
0
  6
CONTINUOUS
 10
76.2156388155136
 20
39.2131390948938
 30
0.0
 40
0.0
 41
0.0
  0
VERTEX
  5
   836
  8
0
  6
CONTINUOUS
 10
76.1997179763307
 20
39.3269218138897
 30
0.0
 40
0.0
 41
0.0
  0
VERTEX
  5
   837
  8
0
  6
CONTINUOUS
 10
76.1846988168485
 20
39.440867653104
 30
0.0
 40
0.0
 41
0.0
  0
VERTEX
  5
   838
  8
0
  6
CONTINUOUS
 10
76.1705310979449
 20
39.5549621672291
 30
0.0
 40
0.0
 41
0.0
  0
VERTEX
  5
   839
  8
0
  6
CONTINUOUS
 10
76.1571586649963
 20
39.6691897688146
 30
0.0
 40
0.0
 41
0.0
  0
VERTEX
  5
   83A
  8
0
  6
CONTINUOUS
 10
76.1325524947454
 20
39.8979782436969
 30
0.0
 40
0.0
 41
0.0
  0
VERTEX
  5
   83B
  8
0
  6
CONTINUOUS
 10
76.1103573063657
 20
40.1270986443208
 30
0.0
 40
0.0
 41
0.0
  0
VERTEX
  5
   83C
  8
0
  6
CONTINUOUS
 10
76.0900304791111
 20
40.3564203413416
 30
0.0
 40
0.0
 41
0.0
  0
VERTEX
  5
   83D
  8
0
  6
CONTINUOUS
 10
76.0710472847219
 20
40.5858275486866
 30
0.0
 40
0.0
 41
0.0
  0
VERTEX
  5
   83E
  8
0
  6
CONTINUOUS
 10
76.0393047323938
 20
40.9923057606137
 30
0.0
 40
0.0
 41
0.0
  0
VERTEX
  5
   83F
  8
0
  6
CONTINUOUS
 10
75.9767169665025
 20
41.8044647606593
 30
0.0
 40
0.0
 41
0.0
  0
VERTEX
  5
   840
  8
0
  6
CONTINUOUS
 10
75.9433243961876
 20
42.2101940729167
 30
0.0
 40
0.0
 41
0.0
  0
VERTEX
  5
   841
  8
0
  6
CONTINUOUS
 10
75.9256138608191
 20
42.4130018571525
 30
0.0
 40
0.0
 41
0.0
  0
VERTEX
  5
   842
  8
0
  6
CONTINUOUS
 10
75.9070116401774
 20
42.6157686499252
 30
0.0
 40
0.0
 41
0.0
  0
VERTEX
  5
   843
  8
0
  6
CONTINUOUS
 10
75.886533674724
 20
42.8263202293046
 30
0.0
 40
0.0
 41
0.0
  0
VERTEX
  5
   844
  8
0
  6
CONTINUOUS
 10
75.8646193987208
 20
43.0367687570359
 30
0.0
 40
0.0
 41
0.0
  0
VERTEX
  5
   845
  8
0
  6
CONTINUOUS
 10
75.8409717258837
 20
43.247057307565
 30
0.0
 40
0.0
 41
0.0
  0
VERTEX
  5
   846
  8
0
  6
CONTINUOUS
 10
75.8152686228418
 20
43.4571135289953
 30
0.0
 40
0.0
 41
0.0
  0
VERTEX
  5
   847
  8
0
  6
CONTINUOUS
 10
75.7871739664313
 20
43.6668522089478
 30
0.0
 40
0.0
 41
0.0
  0
VERTEX
  5
   848
  8
0
  6
CONTINUOUS
 10
75.7721235864586
 20
43.7715729569054
 30
0.0
 40
0.0
 41
0.0
  0
VERTEX
  5
   849
  8
0
  6
CONTINUOUS
 10
75.7563484009894
 20
43.876177840421
 30
0.0
 40
0.0
 41
0.0
  0
VERTEX
  5
   84A
  8
0
  6
CONTINUOUS
 10
75.7398072667629
 20
43.9806537335461
 30
0.0
 40
0.0
 41
0.0
  0
VERTEX
  5
   84B
  8
0
  6
CONTINUOUS
 10
75.7224601956485
 20
44.0849871876508
 30
0.0
 40
0.0
 41
0.0
  0
VERTEX
  5
   84C
  8
0
  6
CONTINUOUS
 10
75.7042686939369
 20
44.189164511607
 30
0.0
 40
0.0
 41
0.0
  0
VERTEX
  5
   84D
  8
0
  6
CONTINUOUS
 10
75.6851961016301
 20
44.2931718519713
 30
0.0
 40
0.0
 41
0.0
  0
VERTEX
  5
   84E
  8
0
  6
CONTINUOUS
 10
75.665207931732
 20
44.3969952731683
 30
0.0
 40
0.0
 41
0.0
  0
VERTEX
  5
   84F
  8
0
  6
CONTINUOUS
 10
75.6442722095388
 20
44.5006208376739
 30
0.0
 40
0.0
 41
0.0
  0
VERTEX
  5
   850
  8
0
  6
CONTINUOUS
 10
75.6223598119295
 20
44.604034686198
 30
0.0
 40
0.0
 41
0.0
  0
VERTEX
  5
   851
  8
0
  6
CONTINUOUS
 10
75.5994448066563
 20
44.7072231178682
 30
0.0
 40
0.0
 41
0.0
  0
VERTEX
  5
   852
  8
0
  6
CONTINUOUS
 10
75.5754104879985
 20
44.810569078915
 30
0.0
 40
0.0
 41
0.0
  0
VERTEX
  5
   853
  8
0
  6
CONTINUOUS
 10
75.5503244346769
 20
44.9136610376712
 30
0.0
 40
0.0
 41
0.0
  0
VERTEX
  5
   854
  8
0
  6
CONTINUOUS
 10
75.5241718352276
 20
45.0164861909105
 30
0.0
 40
0.0
 41
0.0
  0
VERTEX
  5
   855
  8
0
  6
CONTINUOUS
 10
75.4969419438567
 20
45.1190323611967
 30
0.0
 40
0.0
 41
0.0
  0
VERTEX
  5
   856
  8
0
  6
CONTINUOUS
 10
75.4686281485399
 20
45.2212881479147
 30
0.0
 40
0.0
 41
0.0
  0
VERTEX
  5
   857
  8
0
  6
CONTINUOUS
 10
75.439228039123
 20
45.3232430783014
 30
0.0
 40
0.0
 41
0.0
  0
VERTEX
  5
   858
  8
0
  6
CONTINUOUS
 10
75.408743475422
 20
45.424887758477
 30
0.0
 40
0.0
 41
0.0
  0
VERTEX
  5
   859
  8
0
  6
CONTINUOUS
 10
75.377180655323
 20
45.5262140244758
 30
0.0
 40
0.0
 41
0.0
  0
VERTEX
  5
   85A
  8
0
  6
CONTINUOUS
 10
75.3445501828826
 20
45.6272150932772
 30
0.0
 40
0.0
 41
0.0
  0
VERTEX
  5
   85B
  8
0
  6
CONTINUOUS
 10
75.310867136428
 20
45.7278857138369
 30
0.0
 40
0.0
 41
0.0
  0
VERTEX
  5
   85C
  8
0
  6
CONTINUOUS
 10
75.2761511366568
 20
45.828222318118
 30
0.0
 40
0.0
 41
0.0
  0
VERTEX
  5
   85D
  8
0
  6
CONTINUOUS
 10
75.2404264147375
 20
45.9282231721218
 30
0.0
 40
0.0
 41
0.0
  0
VERTEX
  5
   85E
  8
0
  6
CONTINUOUS
 10
75.2037218804093
 20
46.0278885269188
 30
0.0
 40
0.0
 41
0.0
  0
VERTEX
  5
   85F
  8
0
  6
CONTINUOUS
 10
75.1660711900827
 20
46.12722076968
 30
0.0
 40
0.0
 41
0.0
  0
VERTEX
  5
   860
  8
0
  6
CONTINUOUS
 10
75.1275128149391
 20
46.2262245747079
 30
0.0
 40
0.0
 41
0.0
  0
VERTEX
  5
   861
  8
0
  6
CONTINUOUS
 10
75.0880901090311
 20
46.3249070544673
 30
0.0
 40
0.0
 41
0.0
  0
VERTEX
  5
   862
  8
0
  6
CONTINUOUS
 10
75.0478513773828
 20
46.4232779106164
 30
0.0
 40
0.0
 41
0.0
  0
VERTEX
  5
   863
  8
0
  6
CONTINUOUS
 10
75.0068499440898
 20
46.521349585038
 30
0.0
 40
0.0
 41
0.0
  0
VERTEX
  5
   864
  8
0
  6
CONTINUOUS
 10
74.92279777291
 20
46.7166597635388
 30
0.0
 40
0.0
 41
0.0
  0
VERTEX
  5
   865
  8
0
  6
CONTINUOUS
 10
74.841503824589
 20
46.8997899078834
 30
0.0
 40
0.0
 41
0.0
  0
VERTEX
  5
   866
  8
0
  6
CONTINUOUS
 10
74.7586874573922
 20
47.0822296470396
 30
0.0
 40
0.0
 41
0.0
  0
VERTEX
  5
   867
  8
0
  6
CONTINUOUS
 10
74.4231184634934
 20
47.8093146940119
 30
0.0
 40
0.0
 41
0.0
  0
VERTEX
  5
   868
  8
0
  6
CONTINUOUS
 10
74.3407114829653
 20
47.9914892197379
 30
0.0
 40
0.0
 41
0.0
  0
VERTEX
  5
   869
  8
0
  6
CONTINUOUS
 10
74.2597048903876
 20
48.1741884701168
 30
0.0
 40
0.0
 41
0.0
  0
VERTEX
  5
   86A
  8
0
  6
CONTINUOUS
 10
74.1803174505653
 20
48.3575260360121
 30
0.0
 40
0.0
 41
0.0
  0
VERTEX
  5
   86B
  8
0
  6
CONTINUOUS
 10
74.1026195501875
 20
48.5415563090968
 30
0.0
 40
0.0
 41
0.0
  0
VERTEX
  5
   86C
  8
0
  6
CONTINUOUS
 10
74.0343286730876
 20
48.7070901082845
 30
0.0
 40
0.0
 41
0.0
  0
VERTEX
  5
   86D
  8
0
  6
CONTINUOUS
 10
73.9671128407596
 20
48.8731025915371
 30
0.0
 40
0.0
 41
0.0
  0
VERTEX
  5
   86E
  8
0
  6
CONTINUOUS
 10
73.7021870096999
 20
49.5394221677435
 30
0.0
 40
0.0
 41
0.0
  0
VERTEX
  5
   86F
  8
0
  6
CONTINUOUS
 10
73.6349804001083
 20
49.7058086067244
 30
0.0
 40
0.0
 41
0.0
  0
VERTEX
  5
   870
  8
0
  6
CONTINUOUS
 10
73.5666745223036
 20
49.8718298858506
 30
0.0
 40
0.0
 41
0.0
  0
VERTEX
  5
   871
  8
0
  6
CONTINUOUS
 10
73.4970406334224
 20
50.0373849980314
 30
0.0
 40
0.0
 41
0.0
  0
VERTEX
  5
   872
  8
0
  6
CONTINUOUS
 10
73.4259725164411
 20
50.2024172101103
 30
0.0
 40
0.0
 41
0.0
  0
VERTEX
  5
   873
  8
0
  6
CONTINUOUS
 10
73.3457052702449
 20
50.384466190998
 30
0.0
 40
0.0
 41
0.0
  0
VERTEX
  5
   874
  8
0
  6
CONTINUOUS
 10
73.2640501979988
 20
50.5659653170659
 30
0.0
 40
0.0
 41
0.0
  0
VERTEX
  5
   875
  8
0
  6
CONTINUOUS
 10
73.0988708767048
 20
50.9280694707546
 30
0.0
 40
0.0
 41
0.0
  0
VERTEX
  5
   876
  8
0
  6
CONTINUOUS
 10
73.0168666744914
 20
51.1091919411176
 30
0.0
 40
0.0
 41
0.0
  0
VERTEX
  5
   877
  8
0
  6
CONTINUOUS
 10
72.936406714993
 20
51.2907597435031
 30
0.0
 40
0.0
 41
0.0
  0
VERTEX
  5
   878
  8
0
  6
CONTINUOUS
 10
72.8970350446595
 20
51.3818076165544
 30
0.0
 40
0.0
 41
0.0
  0
VERTEX
  5
   879
  8
0
  6
CONTINUOUS
 10
72.8583808617532
 20
51.4730819870734
 30
0.0
 40
0.0
 41
0.0
  0
VERTEX
  5
   87A
  8
0
  6
CONTINUOUS
 10
72.8205479012505
 20
51.5646189052479
 30
0.0
 40
0.0
 41
0.0
  0
VERTEX
  5
   87B
  8
0
  6
CONTINUOUS
 10
72.7836336919518
 20
51.6564522073295
 30
0.0
 40
0.0
 41
0.0
  0
VERTEX
  5
   87C
  8
0
  6
CONTINUOUS
 10
72.7477278685924
 20
51.7486128953417
 30
0.0
 40
0.0
 41
0.0
  0
VERTEX
  5
   87D
  8
0
  6
CONTINUOUS
 10
72.7129104839534
 20
51.8411285167895
 30
0.0
 40
0.0
 41
0.0
  0
VERTEX
  5
   87E
  8
0
  6
CONTINUOUS
 10
72.6792503209724
 20
51.9340225443674
 30
0.0
 40
0.0
 41
0.0
  0
VERTEX
  5
   87F
  8
0
  6
CONTINUOUS
 10
72.6468032048546
 20
52.0273137556683
 30
0.0
 40
0.0
 41
0.0
  0
VERTEX
  5
   880
  8
0
  6
CONTINUOUS
 10
72.6186416775583
 20
52.111720477258
 30
0.0
 40
0.0
 41
0.0
  0
VERTEX
  5
   881
  8
0
  6
CONTINUOUS
 10
72.5915177918224
 20
52.1964665360513
 30
0.0
 40
0.0
 41
0.0
  0
VERTEX
  5
   882
  8
0
  6
CONTINUOUS
 10
72.56544075713
 20
52.2815541839844
 30
0.0
 40
0.0
 41
0.0
  0
VERTEX
  5
   883
  8
0
  6
CONTINUOUS
 10
72.540410459475
 20
52.366982289595
 30
0.0
 40
0.0
 41
0.0
  0
VERTEX
  5
   884
  8
0
  6
CONTINUOUS
 10
72.5164181816595
 20
52.4527466021847
 30
0.0
 40
0.0
 41
0.0
  0
VERTEX
  5
   885
  8
0
  6
CONTINUOUS
 10
72.4934473235913
 20
52.5388400159822
 30
0.0
 40
0.0
 41
0.0
  0
VERTEX
  5
   886
  8
0
  6
CONTINUOUS
 10
72.4714741225805
 20
52.6252528343067
 30
0.0
 40
0.0
 41
0.0
  0
VERTEX
  5
   887
  8
0
  6
CONTINUOUS
 10
72.4504683736367
 20
52.7119730337299
 30
0.0
 40
0.0
 41
0.0
  0
VERTEX
  5
   888
  8
0
  6
CONTINUOUS
 10
72.4303941497667
 20
52.79898652824
 30
0.0
 40
0.0
 41
0.0
  0
VERTEX
  5
   889
  8
0
  6
CONTINUOUS
 10
72.4112105222708
 20
52.8862774334039
 30
0.0
 40
0.0
 41
0.0
  0
VERTEX
  5
   88A
  8
0
  6
CONTINUOUS
 10
72.3928722810407
 20
52.9738283305306
 30
0.0
 40
0.0
 41
0.0
  0
VERTEX
  5
   88B
  8
0
  6
CONTINUOUS
 10
72.3753306548563
 20
53.0616205308337
 30
0.0
 40
0.0
 41
0.0
  0
VERTEX
  5
   88C
  8
0
  6
CONTINUOUS
 10
72.3585340316827
 20
53.1496343395951
 30
0.0
 40
0.0
 41
0.0
  0
VERTEX
  5
   88D
  8
0
  6
CONTINUOUS
 10
72.3424286789678
 20
53.2378493203271
 30
0.0
 40
0.0
 41
0.0
  0
VERTEX
  5
   88E
  8
0
  6
CONTINUOUS
 10
72.3120705739003
 20
53.4147989278852
 30
0.0
 40
0.0
 41
0.0
  0
VERTEX
  5
   88F
  8
0
  6
CONTINUOUS
 10
72.2838114401777
 20
53.592301064417
 30
0.0
 40
0.0
 41
0.0
  0
VERTEX
  5
   890
  8
0
  6
CONTINUOUS
 10
72.2572185490614
 20
53.7701924789541
 30
0.0
 40
0.0
 41
0.0
  0
VERTEX
  5
   891
  8
0
  6
CONTINUOUS
 10
72.2313696261553
 20
53.9520924586237
 30
0.0
 40
0.0
 41
0.0
  0
VERTEX
  5
   892
  8
0
  6
CONTINUOUS
 10
72.2064759282507
 20
54.1341037018109
 30
0.0
 40
0.0
 41
0.0
  0
VERTEX
  5
   893
  8
0
  6
CONTINUOUS
 10
72.0632811146477
 20
55.2232757965826
 30
0.0
 40
0.0
 41
0.0
  0
VERTEX
  5
   894
  8
0
  6
CONTINUOUS
 10
72.0144769791671
 20
55.5839414282967
 30
0.0
 40
0.0
 41
0.0
  0
SEQEND
  5
   895
  8
0
  6
CONTINUOUS
 62
     1
  0
TEXT
  5
   896
  8
0
  6
CONTINUOUS
 62
     7
 10
128.035793415403
 20
84.3511457637891
 30
0.0
 40
2.99999997871263
  1
=    =
 50
89.9999999480344
 41
0.916666703091727
 72
     1
 11
126.53579343327
 21
92.3261460304238
 31
0.0
 73
     2
  0
INSERT
  5
   897
  8
0
  6
CONTINUOUS
 62
     7
  2
*UDIM395
 10
0.0
 20
0.0
 30
0.0
  0
INSERT
  5
   898
  8
0
  6
CONTINUOUS
 62
     7
  2
*UDIM396
 10
0.0
 20
0.0
 30
0.0
  0
INSERT
  5
   899
  8
0
  6
CONTINUOUS
 62
     7
  2
*UDIM397
 10
0.0
 20
0.0
 30
0.0
  0
INSERT
  5
   89A
  8
0
  6
CONTINUOUS
 62
     7
  2
*UDIM398
 10
0.0
 20
0.0
 30
0.0
  0
INSERT
  5
   89B
  8
0
  6
CONTINUOUS
 62
     7
  2
*UDIM399
 10
0.0
 20
0.0
 30
0.0
  0
INSERT
  5
   89C
  8
0
  6
CONTINUOUS
 62
     7
  2
*UDIM400
 10
0.0
 20
0.0
 30
0.0
  0
INSERT
  5
   89D
  8
0
  6
CONTINUOUS
 62
     7
  2
*UDIM401
 10
0.0
 20
0.0
 30
0.0
  0
INSERT
  5
   89E
  8
0
  6
CONTINUOUS
 62
     7
  2
*UDIM402
 10
0.0
 20
0.0
 30
0.0
  0
TEXT
  5
   89F
  8
0
  6
CONTINUOUS
 62
     7
 10
84.5005426610476
 20
12.1246193122827
 30
0.0
 40
2.99999997871263
  1
Y
 50
359.999999948034
 41
0.91666663951344
 72
     2
 11
86.7005425967598
 21
12.1246193102985
 31
0.0
  0
TEXT
  5
   8A0
  8
0
  6
CONTINUOUS
 62
     7
 10
139.940410545778
 20
91.2136241798416
 30
0.0
 40
2.99999997871263
  1
X
 50
359.999999948034
 41
0.91666663951344
 72
     1
 11
141.040410514987
 21
92.7136241682058
 31
0.0
 73
     2
  0
TEXT
  5
   8A1
  8
0
  6
CONTINUOUS
 62
     7
 10
34.0828653514505
 20
90.518275833529
 30
0.0
 40
2.99999997871263
  1
X
 50
359.999999948034
 41
0.91666663951344
 72
     1
 11
35.1828653206595
 21
92.0182758218932
 31
0.0
 73
     2
  0
TEXT
  5
   8A2
  8
0
  6
CONTINUOUS
 62
     7
 10
83.6518494926473
 20
186.820237999669
 30
0.0
 40
2.99999997871263
  1
Y
 50
359.999999948034
 41
0.91666663951344
 72
     1
 11
84.7518494618563
 21
188.320237988033
 31
0.0
 73
     2
  0
LINE
  5
   8A3
  8
0
  6
DASHDOT
 62
     7
 10
159.320373535156
 20
-10.4055621258535
 30
0.0
 11
159.320373535156
 21
-99.9811142952152
 31
0.0
  0
LINE
  5
   8A4
  8
0
  6
DASHDOT
 62
     7
 10
171.262911128876
 20
-17.0743560791016
 30
0.0
 11
146.96870513272
 21
-17.0743560791016
 31
0.0
  0
LINE
  5
   8A5
  8
0
  6
DASHDOT
 62
     7
 10
171.762255845508
 20
-92.9493560791016
 30
0.0
 11
147.81542008701
 21
-92.9493560791016
 31
0.0
  0
LINE
  5
   8A6
  8
0
  6
CONTINUOUS
 62
     7
 10
173.070373535156
 20
-12.0743560791016
 30
0.0
 11
173.070373535156
 21
-97.9493560791016
 31
0.0
  0
LINE
  5
   8A7
  8
0
  6
CONTINUOUS
 62
     7
 10
145.570373535156
 20
-12.0743560791016
 30
0.0
 11
145.570373535156
 21
-97.9493560791016
 31
0.0
  0
LINE
  5
   8A8
  8
0
  6
CONTINUOUS
 62
     7
 10
173.070373535156
 20
-97.9493560791016
 30
0.0
 11
145.570373535156
 21
-97.9493560791016
 31
0.0
  0
LINE
  5
   8A9
  8
0
  6
CONTINUOUS
 62
     7
 10
173.070373535156
 20
-12.0743560791016
 30
0.0
 11
145.570373535156
 21
-12.0743560791016
 31
0.0
  0
CIRCLE
  5
   8AA
  8
0
  6
CONTINUOUS
 62
     7
 10
154.945373535156
 20
-17.0743560791016
 30
0.0
 40
0.6875
  0
CIRCLE
  5
   8AB
  8
0
  6
CONTINUOUS
 62
     7
 10
163.695373535156
 20
-17.0743560791016
 30
0.0
 40
0.6875
  0
CIRCLE
  5
   8AC
  8
0
  6
CONTINUOUS
 62
     7
 10
154.945373535156
 20
-92.9493560791016
 30
0.0
 40
0.6875
  0
CIRCLE
  5
   8AD
  8
0
  6
CONTINUOUS
 62
     7
 10
163.695373535156
 20
-92.9493560791016
 30
0.0
 40
0.6875
  0
LINE
  5
   8AE
  8
0
  6
DASHDOT
 62
     7
 10
154.945373535156
 20
-10.3147991198246
 30
0.0
 11
154.945373535156
 21
-96.0508799279163
 31
0.0
  0
LINE
  5
   8AF
  8
0
  6
DASHDOT
 62
     7
 10
163.695373535156
 20
-10.1332731077667
 30
0.0
 11
163.695373535156
 21
-95.7784187362556
 31
0.0
  0
LINE
  5
   8B0
  8
0
  6
DASHDOT
 62
     7
 10
179.984663924152
 20
-65.7618560791016
 30
0.0
 11
133.772814269892
 21
-65.7618560791016
 31
0.0
  0
TEXT
  5
   8B1
  8
0
  6
CONTINUOUS
 62
     1
 10
138.296893362876
 20
-193.480718893192
 30
0.0
 40
2.00000008940697
  1
M4352 96-12-17
 50
359.999999896069
 41
0.749999861419206
 72
     2
 11
158.99689045566
 21
-193.480718930637
 31
0.0
  0
TEXT
  5
   8B2
  8
0
  6
CONTINUOUS
 62
     1
 10
130.442901609519
 20
-178.463394231654
 30
0.0
 40
2.00000008940697
  1
96-11-19 BARCELLA
 50
359.999999896069
 41
0.749999861419206
 72
     2
 11
155.642898071984
 21
-178.463394277238
 31
0.0
  0
TEXT
  5
   8B3
  8
0
  6
CONTINUOUS
 62
     1
 10
231.973709102828
 20
-204.68986525788
 30
0.0
 40
4.00000017881393
  1
605032/021
 50
359.999999896069
 41
0.937499973922969
 72
     2
 11
268.723709702599
 21
-204.689865324357
 31
0.0
  0
TEXT
  5
   8B4
  8
0
  6
CONTINUOUS
 62
     1
 10
250.059402463107
 20
-195.708282493541
 30
0.0
 40
3.00000002980232
  1
S4X
 50
359.999999896069
 41
0.916666604744064
 72
     2
 11
257.759402015079
 21
-195.70828250747
 31
0.0
  0
TEXT
  5
   8B5
  8
0
  6
CONTINUOUS
 62
     1
 10
223.962477530593
 20
-177.398010250357
 30
0.0
 40
2.00000008940697
  1
3POLE LOW VOLTAGE M.C.C.B SERIES ISOMAX
 50
359.999999896069
 41
0.687499997764826
 72
     1
 11
250.637478634715
 21
-176.398010253906
 31
0.0
 73
     2
  0
TEXT
  5
   8B6
  8
0
  6
CONTINUOUS
 62
     1
 10
221.212477416599
 20
-180.398010245382
 30
0.0
 40
2.00000008940697
  1
SUPERLIMITING FIXED VERSION TERMINALS CABLE
 50
359.999999896069
 41
0.687499997764826
 72
     1
 11
250.637478634715
 21
-179.398010253906
 31
0.0
 73
     2
  0
TEXT
  5
   8B7
  8
0
  6
CONTINUOUS
 62
     1
 10
212.727376053164
 20
-185.468276960106
 30
0.0
 40
2.00000008940697
  1
INTERR.AUTOMATICO SERIE ISOMAX SUPERLIMITATORE
 50
359.999999896069
 41
0.749999861419206
 72
     1
 11
247.077371239662
 21
-184.468276977539
 31
0.0
 73
     2
  0
TEXT
  5
   8B8
  8
0
  6
CONTINUOUS
 62
     1
 10
217.227375422844
 20
-188.468276968246
 30
0.0
 40
2.00000008940697
  1
TRIPOL.ESECUZIONE FISSA TERMINALI X CAVI
 50
359.999999896069
 41
0.749999861419206
 72
     1
 11
247.077371239662
 21
-187.468276977539
 31
0.0
 73
     2
  0
INSERT
  5
   8B9
  8
0
  6
CONTINUOUS
 62
     7
  2
*UDIM403
 10
0.0
 20
0.0
 30
0.0
  0
TEXT
  5
   8BA
  8
0
  6
CONTINUOUS
 62
     7
 10
160.806048628955
 20
-49.8475036899219
 30
0.0
 40
3.00000002980232
  1
=
 50
359.999999896069
 41
0.916666604744064
 72
     2
 11
163.006048497825
 21
-49.8475036939015
 31
0.0
  0
TEXT
  5
   8BB
  8
0
  6
CONTINUOUS
 62
     7
 10
156.086372372775
 20
-49.7567405978809
 30
0.0
 40
3.00000002980232
  1
=
 50
359.999999896069
 41
0.916666604744064
 72
     2
 11
158.286372241645
 21
-49.7567406018605
 31
0.0
  0
TEXT
  5
   8BC
  8
0
  6
CONTINUOUS
 62
     7
 10
158.929929897452
 20
-9.74439517180297
 30
0.0
 40
3.00000002980232
  1
Y
 50
359.999999896069
 41
0.916666604744064
 72
     2
 11
161.129929766322
 21
-9.74439517578259
 31
0.0
  0
INSERT
  5
   8BD
  8
0
  6
CONTINUOUS
 62
     7
  2
*UDIM404
 10
0.0
 20
0.0
 30
0.0
  0
INSERT
  5
   8BE
  8
0
  6
CONTINUOUS
 62
     7
  2
*UDIM405
 10
0.0
 20
0.0
 30
0.0
  0
INSERT
  5
   8BF
  8
0
  6
CONTINUOUS
 62
     7
  2
*UDIM406
 10
0.0
 20
0.0
 30
0.0
  0
TEXT
  5
   8C0
  8
0
  6
CONTINUOUS
 62
     7
 10
118.094264981417
 20
-66.529871014751
 30
0.0
 40
3.00000002980232
  1
X
 50
359.999999896069
 41
0.916666604744064
 72
     2
 11
120.294264850287
 21
-66.5298710187306
 31
0.0
  0
TEXT
  5
   8C1
  8
0
  6
CONTINUOUS
 62
     7
 10
181.314933774142
 20
-67.8098779002796
 30
0.0
 40
3.00000002980232
  1
X
 50
359.999999896069
 41
0.916666604744064
 72
     2
 11
183.514933643012
 21
-67.8098779042592
 31
0.0
  0
TEXT
  5
   8C2
  8
0
  6
CONTINUOUS
 62
     7
 10
158.323369977145
 20
-105.564678219951
 30
0.0
 40
3.00000002980232
  1
Y
 50
359.999999896069
 41
0.916666604744064
 72
     2
 11
160.523369846015
 21
-105.564678223931
 31
0.0
  0
LINE
  5
   8C3
  8
0
  6
DASHDOT
 62
     7
 10
236.831970214844
 20
-2.05536557119322
 30
0.0
 11
236.831970214844
 21
-106.733340281105
 31
0.0
  0
LINE
  5
   8C4
  8
0
  6
DASHDOT
 62
     7
 10
248.774507808564
 20
-17.0743560791016
 30
0.0
 11
224.480301812408
 21
-17.0743560791016
 31
0.0
  0
LINE
  5
   8C5
  8
0
  6
DASHDOT
 62
     7
 10
249.273852525196
 20
-92.9493560791016
 30
0.0
 11
225.327016766697
 21
-92.9493560791016
 31
0.0
  0
CIRCLE
  5
   8C6
  8
0
  6
CONTINUOUS
 62
     7
 10
232.456970214844
 20
-17.0743560791016
 30
0.0
 40
0.6875
  0
CIRCLE
  5
   8C7
  8
0
  6
CONTINUOUS
 62
     7
 10
241.206970214844
 20
-17.0743560791016
 30
0.0
 40
0.6875
  0
CIRCLE
  5
   8C8
  8
0
  6
CONTINUOUS
 62
     7
 10
232.456970214844
 20
-92.9493560791016
 30
0.0
 40
0.6875
  0
CIRCLE
  5
   8C9
  8
0
  6
CONTINUOUS
 62
     7
 10
241.206970214844
 20
-92.9493560791016
 30
0.0
 40
0.6875
  0
LINE
  5
   8CA
  8
0
  6
DASHDOT
 62
     7
 10
232.456970214844
 20
-13.5822673368656
 30
0.0
 11
232.456970214844
 21
-96.0508799279163
 31
0.0
  0
LINE
  5
   8CB
  8
0
  6
DASHDOT
 62
     7
 10
241.206970214844
 20
-14.1268453730391
 30
0.0
 11
241.206970214844
 21
-95.7784187362556
 31
0.0
  0
LINE
  5
   8CC
  8
0
  6
DASHDOT
 62
     7
 10
257.49626060384
 20
-65.7618560791016
 30
0.0
 11
192.539629868954
 21
-65.7618560791016
 31
0.0
  0
ARC
  5
   8CD
  8
0
  6
CONTINUOUS
 62
     7
 10
228.081970214844
 20
-11.2618560791016
 30
0.0
 40
3.75
 50
449.999999896069
 51
629.999999896069
  0
ARC
  5
   8CE
  8
0
  6
CONTINUOUS
 62
     7
 10
245.581970214844
 20
-11.2618560791016
 30
0.0
 40
3.75
 50
269.999999896069
 51
449.999999896069
  0
ARC
  5
   8CF
  8
0
  6
CONTINUOUS
 62
     7
 10
245.581970214844
 20
-98.7618560791016
 30
0.0
 40
3.75
 50
269.999999896069
 51
449.999999896069
  0
ARC
  5
   8D0
  8
0
  6
CONTINUOUS
 62
     7
 10
228.081970214844
 20
-98.7618560791016
 30
0.0
 40
3.75
 50
449.999999896069
 51
629.999999896069
  0
LINE
  5
   8D1
  8
0
  6
CONTINUOUS
 62
     7
 10
245.581970214844
 20
-7.51185607910157
 30
0.0
 11
228.081970214844
 21
-7.51185607910157
 31
0.0
  0
LINE
  5
   8D2
  8
0
  6
CONTINUOUS
 62
     7
 10
245.581970214844
 20
-15.0118560791016
 30
0.0
 11
228.081970214844
 21
-15.0118560791016
 31
0.0
  0
LINE
  5
   8D3
  8
0
  6
CONTINUOUS
 62
     7
 10
245.581970214844
 20
-95.0118560791016
 30
0.0
 11
228.081970214844
 21
-95.0118560791016
 31
0.0
  0
LINE
  5
   8D4
  8
0
  6
CONTINUOUS
 62
     7
 10
245.581970214844
 20
-102.511856079102
 30
0.0
 11
228.081970214844
 21
-102.511856079102
 31
0.0
  0
LINE
  5
   8D5
  8
0
  6
CONTINUOUS
 62
     7
 10
254.331970214844
 20
-4.22146907460407
 30
0.0
 11
219.331970214844
 21
-4.22146907460407
 31
0.0
  0
LINE
  5
   8D6
  8
0
  6
CONTINUOUS
 62
     7
 10
254.331970214844
 20
-105.802237982037
 30
0.0
 11
219.331970214844
 21
-105.802237982037
 31
0.0
  0
LINE
  5
   8D7
  8
0
  6
CONTINUOUS
 62
     7
 10
219.331970214844
 20
-4.22146907460407
 30
0.0
 11
219.331970214844
 21
-105.802237982037
 31
0.0
  0
LINE
  5
   8D8
  8
0
  6
CONTINUOUS
 62
     7
 10
254.331970214844
 20
-4.22146907460407
 30
0.0
 11
254.331970214844
 21
-105.802237982037
 31
0.0
  0
LINE
  5
   8D9
  8
0
  6
DASHDOT
 62
     7
 10
245.581970214844
 20
-6.82435607910157
 30
0.0
 11
245.581970214844
 21
-15.8243560791016
 31
0.0
  0
LINE
  5
   8DA
  8
0
  6
DASHDOT
 62
     7
 10
250.081970214844
 20
-11.2618560791016
 30
0.0
 11
241.081970214844
 21
-11.2618560791016
 31
0.0
  0
LINE
  5
   8DB
  8
0
  6
DASHDOT
 62
     7
 10
228.081970214844
 20
-6.82435607910157
 30
0.0
 11
228.081970214844
 21
-15.8243560791016
 31
0.0
  0
LINE
  5
   8DC
  8
0
  6
DASHDOT
 62
     7
 10
232.581970214844
 20
-11.2618560791016
 30
0.0
 11
223.581970214844
 21
-11.2618560791016
 31
0.0
  0
LINE
  5
   8DD
  8
0
  6
DASHDOT
 62
     7
 10
228.081970214844
 20
-94.1993560791016
 30
0.0
 11
228.081970214844
 21
-103.199356079102
 31
0.0
  0
LINE
  5
   8DE
  8
0
  6
DASHDOT
 62
     7
 10
232.581970214844
 20
-98.7618560791016
 30
0.0
 11
223.581970214844
 21
-98.7618560791016
 31
0.0
  0
LINE
  5
   8DF
  8
0
  6
DASHDOT
 62
     7
 10
245.581970214844
 20
-94.1993560791016
 30
0.0
 11
245.581970214844
 21
-103.199356079102
 31
0.0
  0
LINE
  5
   8E0
  8
0
  6
DASHDOT
 62
     7
 10
250.081970214844
 20
-98.7618560791016
 30
0.0
 11
241.081970214844
 21
-98.7618560791016
 31
0.0
  0
INSERT
  5
   8E1
  8
0
  6
CONTINUOUS
 62
     7
  2
*UDIM407
 10
0.0
 20
0.0
 30
0.0
  0
INSERT
  5
   8E2
  8
0
  6
CONTINUOUS
 62
     7
  2
*UDIM408
 10
0.0
 20
0.0
 30
0.0
  0
INSERT
  5
   8E3
  8
0
  6
CONTINUOUS
 62
     7
  2
*UDIM409
 10
0.0
 20
0.0
 30
0.0
  0
INSERT
  5
   8E4
  8
0
  6
CONTINUOUS
 62
     7
  2
*UDIM410
 10
0.0
 20
0.0
 30
0.0
  0
INSERT
  5
   8E5
  8
0
  6
CONTINUOUS
 62
     7
  2
*UDIM411
 10
0.0
 20
0.0
 30
0.0
  0
TEXT
  5
   8E6
  8
0
  6
CONTINUOUS
 62
     7
 10
236.50279991355
 20
-0.745352660816646
 30
0.0
 40
3.00000002980232
  1
Y
 50
359.999999896069
 41
0.916666604744064
 72
     2
 11
238.70279978242
 21
-0.745352664796261
 31
0.0
  0
TEXT
  5
   8E7
  8
0
  6
CONTINUOUS
 62
     7
 10
266.937574383883
 20
-66.902634648479
 30
0.0
 40
3.00000002980232
  1
X
 50
359.999999896069
 41
0.916666604744064
 72
     2
 11
269.137574252753
 21
-66.9026346524586
 31
0.0
  0
TEXT
  5
   8E8
  8
0
  6
CONTINUOUS
 62
     7
 10
236.167704937129
 20
-111.939918545879
 30
0.0
 40
3.00000002980232
  1
Y
 50
359.999999896069
 41
0.916666604744064
 72
     2
 11
238.367704805999
 21
-111.939918549859
 31
0.0
  0
ENDSEC
  0
EOF
