  0
SECTION
  2
HEADER
  9
$ACADVER
  1
AC1009
  9
$INSBASE
 10
0.0
 20
0.0
 30
0.0
  9
$EXTMIN
 10
87.64449
 20
124.2776
 30
0.0
  9
$EXTMAX
 10
1986.709
 20
1347.093
 30
0.0
  9
$LIMMIN
 10
0.0
 20
0.0
  9
$LIMMAX
 10
12.0
 20
9.0
  9
$ORTHOMODE
 70
     1
  9
$REGENMODE
 70
     1
  9
$FILLMODE
 70
     1
  9
$QTEXTMODE
 70
     0
  9
$MIRRTEXT
 70
     1
  9
$DRAGMODE
 70
     2
  9
$LTSCALE
 40
20.0
  9
$OSMODE
 70
  1023
  9
$ATTMODE
 70
     1
  9
$TEXTSIZE
 40
0.2
  9
$TRACEWID
 40
0.05
  9
$TEXTSTYLE
  7
STANDARD
  9
$CLAYER
  8
0
  9
$CELTYPE
  6
CONTINUOUS
  9
$CECOLOR
 62
   256
  9
$DIMSCALE
 40
1.0
  9
$DIMASZ
 40
10.0
  9
$DIMEXO
 40
0.0625
  9
$DIMDLI
 40
0.38
  9
$DIMRND
 40
0.0
  9
$DIMDLE
 40
0.0
  9
$DIMEXE
 40
0.18
  9
$DIMTP
 40
0.0
  9
$DIMTM
 40
0.0
  9
$DIMTXT
 40
10.0
  9
$DIMCEN
 40
0.09
  9
$DIMTSZ
 40
0.0
  9
$DIMTOL
 70
     0
  9
$DIMLIM
 70
     0
  9
$DIMTIH
 70
     1
  9
$DIMTOH
 70
     1
  9
$DIMSE1
 70
     0
  9
$DIMSE2
 70
     0
  9
$DIMTAD
 70
     0
  9
$DIMZIN
 70
     0
  9
$DIMBLK
  1

  9
$DIMASO
 70
     1
  9
$DIMSHO
 70
     1
  9
$DIMPOST
  1

  9
$DIMAPOST
  1

  9
$DIMALT
 70
     0
  9
$DIMALTD
 70
     2
  9
$DIMALTF
 40
25.4
  9
$DIMLFAC
 40
1.0
  9
$DIMTOFL
 70
     0
  9
$DIMTVP
 40
0.0
  9
$DIMTIX
 70
     0
  9
$DIMSOXD
 70
     0
  9
$DIMSAH
 70
     0
  9
$DIMBLK1
  1

  9
$DIMBLK2
  1

  9
$DIMSTYLE
  2
STANDARD
  9
$DIMCLRD
 70
     1
  9
$DIMCLRE
 70
     1
  9
$DIMCLRT
 70
     1
  9
$DIMTFAC
 40
1.0
  9
$DIMGAP
 40
10.0
  9
$LUNITS
 70
     2
  9
$LUPREC
 70
     4
  9
$SKETCHINC
 40
0.1
  9
$FILLETRAD
 40
0.0
  9
$AUNITS
 70
     0
  9
$AUPREC
 70
     0
  9
$MENU
  1
acad
  9
$ELEVATION
 40
0.0
  9
$PELEVATION
 40
0.0
  9
$THICKNESS
 40
0.0
  9
$LIMCHECK
 70
     0
  9
$BLIPMODE
 70
     0
  9
$CHAMFERA
 40
0.0
  9
$CHAMFERB
 40
0.0
  9
$SKPOLY
 70
     0
  9
$TDCREATE
 40
2452058.338919
  9
$TDUPDATE
 40
2452058.358488
  9
$TDINDWG
 40
0.017772
  9
$TDUSRTIMER
 40
0.017772
  9
$USRTIMER
 70
     1
  9
$ANGBASE
 50
0.0
  9
$ANGDIR
 70
     0
  9
$PDMODE
 70
     0
  9
$PDSIZE
 40
0.0
  9
$PLINEWID
 40
0.0
  9
$COORDS
 70
     1
  9
$SPLFRAME
 70
     0
  9
$SPLINETYPE
 70
     6
  9
$SPLINESEGS
 70
     8
  9
$ATTDIA
 70
     0
  9
$ATTREQ
 70
     1
  9
$HANDLING
 70
     1
  9
$HANDSEED
  5
5EF
  9
$SURFTAB1
 70
     6
  9
$SURFTAB2
 70
     6
  9
$SURFTYPE
 70
     6
  9
$SURFU
 70
     6
  9
$SURFV
 70
     6
  9
$UCSNAME
  2

  9
$UCSORG
 10
0.0
 20
0.0
 30
0.0
  9
$UCSXDIR
 10
1.0
 20
0.0
 30
0.0
  9
$UCSYDIR
 10
0.0
 20
1.0
 30
0.0
  9
$PUCSNAME
  2

  9
$PUCSORG
 10
0.0
 20
0.0
 30
0.0
  9
$PUCSXDIR
 10
1.0
 20
0.0
 30
0.0
  9
$PUCSYDIR
 10
0.0
 20
1.0
 30
0.0
  9
$USERI1
 70
     0
  9
$USERI2
 70
     0
  9
$USERI3
 70
     0
  9
$USERI4
 70
     0
  9
$USERI5
 70
     0
  9
$USERR1
 40
0.0
  9
$USERR2
 40
0.0
  9
$USERR3
 40
0.0
  9
$USERR4
 40
0.0
  9
$USERR5
 40
0.0
  9
$WORLDVIEW
 70
     1
  9
$SHADEDGE
 70
     3
  9
$SHADEDIF
 70
    70
  9
$TILEMODE
 70
     1
  9
$MAXACTVP
 70
    48
  9
$PLIMCHECK
 70
     0
  9
$PEXTMIN
 10
1.000000E+020
 20
1.000000E+020
 30
1.000000E+020
  9
$PEXTMAX
 10
-1.000000E+020
 20
-1.000000E+020
 30
-1.000000E+020
  9
$PLIMMIN
 10
0.0
 20
0.0
  9
$PLIMMAX
 10
12.0
 20
9.0
  9
$UNITMODE
 70
     0
  9
$VISRETAIN
 70
     1
  9
$PLINEGEN
 70
     0
  9
$PSLTSCALE
 70
     1
  0
ENDSEC
  0
SECTION
  2
TABLES
  0
TABLE
  2
VPORT
 70
     2
  0
VPORT
  2
*ACTIVE
 70
     0
 10
0.0
 20
0.0
 11
1.0
 21
1.0
 12
1037.159352
 22
735.674015
 13
0.0
 23
0.0
 14
1.0
 24
1.0
 15
0.0
 25
0.0
 16
0.0
 26
0.0
 36
1.0
 17
0.0
 27
0.0
 37
0.0
 40
1230.717775
 41
1.679787
 42
50.0
 43
0.0
 44
0.0
 50
0.0
 51
0.0
 71
     0
 72
   100
 73
     1
 74
     1
 75
     0
 76
     0
 77
     0
 78
     0
  0
ENDTAB
  0
TABLE
  2
LTYPE
 70
     3
  0
LTYPE
  2
CONTINUOUS
 70
     0
  3
Solid line
 72
    65
 73
     0
 40
0.0
  0
LTYPE
  2
CENTER
 70
     0
  3
____ _ ____ _ ____ _ ____ _ ____ _ ____
 72
    65
 73
     4
 40
2.0
 49
1.25
 49
-0.25
 49
0.25
 49
-0.25
  0
LTYPE
  2
DASHED
 70
     0
  3
_ _ _ _ _ _ _ _ _ _ _ _ _ _ _ _ _ _ _ _ _
 72
    65
 73
     2
 40
0.75
 49
0.5
 49
-0.25
  0
ENDTAB
  0
TABLE
  2
LAYER
 70
     5
  0
LAYER
  2
0
 70
     0
 62
     7
  6
CONTINUOUS
  0
LAYER
  2
5
 70
     0
 62
     7
  6
CONTINUOUS
  0
LAYER
  2
6
 70
     0
 62
     5
  6
CENTER
  0
LAYER
  2
7
 70
     0
 62
     3
  6
DASHED
  0
LAYER
  2
BYLAYER
 70
     0
 62
     7
  6
CONTINUOUS
  0
ENDTAB
  0
TABLE
  2
STYLE
 70
     1
  0
STYLE
  2
STANDARD
 70
     0
 40
0.0
 41
1.0
 50
0.0
 71
     0
 42
0.2
  3
txt
  4

  0
ENDTAB
  0
TABLE
  2
VIEW
 70
     0
  0
ENDTAB
  0
TABLE
  2
UCS
 70
     0
  0
ENDTAB
  0
TABLE
  2
APPID
 70
     1
  0
APPID
  2
ACAD
 70
     0
  0
ENDTAB
  0
TABLE
  2
DIMSTYLE
 70
     1
  0
DIMSTYLE
  2
STANDARD
 70
     0
  3

  4

  5

  6

  7

 40
1.0
 41
0.18
 42
0.0625
 43
0.38
 44
0.18
 45
0.0
 46
0.0
 47
0.0
 48
0.0
140
0.18
141
0.09
142
0.0
143
25.4
144
1.0
145
0.0
146
1.0
147
0.09
 71
     0
 72
     0
 73
     1
 74
     1
 75
     0
 76
     0
 77
     0
 78
     0
170
     0
171
     2
172
     0
173
     0
174
     0
175
     0
176
     0
177
     0
178
     0
  0
ENDTAB
  0
ENDSEC
  0
SECTION
  2
BLOCKS
  0
BLOCK
  8
0
  2
$MODEL_SPACE
 70
     0
 10
0.0
 20
0.0
 30
0.0
  3
$MODEL_SPACE
  1

  0
ENDBLK
  5
1A
  8
0
  0
BLOCK
 67
     1
  8
0
  2
$PAPER_SPACE
 70
     0
 10
0.0
 20
0.0
 30
0.0
  3
$PAPER_SPACE
  1

  0
ENDBLK
  5
17
 67
     1
  8
0
  0
BLOCK
  8
0
  2
A$C05293501
 70
     0
 10
0.0
 20
0.0
 30
0.0
  3
A$C05293501
  1

  0
LINE
  5
5CB
  8
5
  6
CONTINUOUS
 10
60.4918
 20
70.750001
 30
0.0
 11
60.4918
 21
0.000001
 31
0.0
  0
LINE
  5
5CC
  8
5
  6
CENTER
 10
60.4918
 20
70.750001
 30
0.0
 11
60.4918
 21
0.000001
 31
0.0
  0
LINE
  5
5CD
  8
5
  6
CONTINUOUS
 10
50.4918
 20
70.750001
 30
0.0
 11
50.4918
 21
0.000001
 31
0.0
  0
LINE
  5
5CE
  8
5
  6
CENTER
 10
50.4918
 20
70.750001
 30
0.0
 11
50.4918
 21
0.000001
 31
0.0
  0
LINE
  5
5CF
  8
5
  6
CONTINUOUS
 10
40.4918
 20
70.750001
 30
0.0
 11
40.4918
 21
0.000001
 31
0.0
  0
LINE
  5
5D0
  8
5
  6
CENTER
 10
40.4918
 20
70.750001
 30
0.0
 11
40.4918
 21
0.000001
 31
0.0
  0
LINE
  5
5D1
  8
5
  6
CONTINUOUS
 10
30.4918
 20
70.750001
 30
0.0
 11
30.4918
 21
0.000001
 31
0.0
  0
LINE
  5
5D2
  8
5
  6
CENTER
 10
30.4918
 20
70.750001
 30
0.0
 11
30.4918
 21
0.000001
 31
0.0
  0
LINE
  5
5D3
  8
5
  6
CONTINUOUS
 10
20.4918
 20
70.750001
 30
0.0
 11
20.4918
 21
13.187001
 31
0.0
  0
LINE
  5
5D4
  8
5
  6
CENTER
 10
20.4918
 20
70.750001
 30
0.0
 11
20.4918
 21
12.818001
 31
0.0
  0
LINE
  5
5D5
  8
5
  6
CONTINUOUS
 10
10.4918
 20
70.750001
 30
0.0
 11
10.4918
 21
35.248001
 31
0.0
  0
LINE
  5
5D6
  8
5
  6
CENTER
 10
10.4918
 20
70.750001
 30
0.0
 11
10.4918
 21
35.248001
 31
0.0
  0
LINE
  5
5D7
  8
5
  6
CONTINUOUS
 10
0.7536
 20
40.776001
 30
0.0
 11
70.6364
 21
40.776001
 31
0.0
  0
LINE
  5
5D8
  8
5
  6
CONTINUOUS
 10
0.0
 20
40.776001
 30
0.0
 11
70.6364
 21
40.776001
 31
0.0
  0
LINE
  5
5D9
  8
5
  6
CONTINUOUS
 10
10.8588
 20
30.776001
 30
0.0
 11
70.6364
 21
30.776001
 31
0.0
  0
LINE
  5
5DA
  8
5
  6
CONTINUOUS
 10
6.8688
 20
30.776001
 30
0.0
 11
70.6364
 21
30.776001
 31
0.0
  0
LINE
  5
5DB
  8
5
  6
CONTINUOUS
 10
10.4918
 20
20.776001
 30
0.0
 11
70.6364
 21
20.776001
 31
0.0
  0
LINE
  5
5DC
  8
5
  6
CONTINUOUS
 10
10.4918
 20
20.776001
 30
0.0
 11
70.6364
 21
20.776001
 31
0.0
  0
LINE
  5
5DD
  8
5
  6
CONTINUOUS
 10
23.4865
 20
10.776001
 30
0.0
 11
70.6364
 21
10.776001
 31
0.0
  0
LINE
  5
5DE
  8
5
  6
CONTINUOUS
 10
22.9952
 20
10.776001
 30
0.0
 11
70.6364
 21
10.776001
 31
0.0
  0
LINE
  5
5DF
  8
5
  6
CONTINUOUS
 10
1.2561
 20
60.776001
 30
0.0
 11
70.6364
 21
60.776001
 31
0.0
  0
LINE
  5
5E0
  8
5
  6
CONTINUOUS
 10
1.2561
 20
60.776001
 30
0.0
 11
70.6364
 21
60.776001
 31
0.0
  0
LINE
  5
5E1
  8
5
  6
CONTINUOUS
 10
0.2512
 20
50.776001
 30
0.0
 11
70.6364
 21
50.776001
 31
0.0
  0
LINE
  5
5E2
  8
5
  6
CONTINUOUS
 10
0.2512
 20
50.776001
 30
0.0
 11
70.6364
 21
50.776001
 31
0.0
  0
ENDBLK
  5
5E4
  8
0
  0
BLOCK
  8
0
  2
A$C27E33DB7
 70
     0
 10
0.0
 20
0.0
 30
0.0
  3
A$C27E33DB7
  1

  0
INSERT
  5
5E6
  8
0
  6
CONTINUOUS
  2
A$C05293501
 10
0.0
 20
-0.000001
 30
0.0
  0
ENDBLK
  5
5E8
  8
0
  0
ENDSEC
  0
SECTION
  2
ENTITIES
  0
LINE
  5
25
  8
5
  6
CONTINUOUS
 10
650.4021
 20
958.5931
 30
0.0
 11
650.4021
 21
903.5931
 31
0.0
  0
LINE
  5
26
  8
5
  6
CONTINUOUS
 10
655.4021
 20
962.5931
 30
0.0
 11
663.4021
 21
962.5931
 31
0.0
  0
LINE
  5
27
  8
5
  6
CONTINUOUS
 10
663.4021
 20
962.5931
 30
0.0
 11
745.4021
 21
962.5931
 31
0.0
  0
LINE
  5
28
  8
5
  6
CONTINUOUS
 10
753.4021
 20
962.5931
 30
0.0
 11
745.4021
 21
962.5931
 31
0.0
  0
LINE
  5
29
  8
5
  6
CONTINUOUS
 10
1246.402
 20
812.3931
 30
0.0
 11
842.4021
 21
812.3931
 31
0.0
  0
LINE
  5
2A
  8
5
  6
CONTINUOUS
 10
1108.902
 20
1161.393
 30
0.0
 11
817.902
 21
1161.393
 31
0.0
  0
LINE
  5
2B
  8
5
  6
CONTINUOUS
 10
818.4021
 20
1152.093
 30
0.0
 11
818.4021
 21
1161.393
 31
0.0
  0
LINE
  5
2C
  8
5
  6
CONTINUOUS
 10
1108.402
 20
1161.393
 30
0.0
 11
1108.402
 21
1152.093
 31
0.0
  0
LINE
  5
2D
  8
5
  6
CONTINUOUS
 10
823.902
 20
1297.393
 30
0.0
 11
1102.902
 21
1297.393
 31
0.0
  0
LINE
  5
2E
  8
5
  6
CONTINUOUS
 10
1106.848
 20
1184.393
 30
0.0
 11
819.9559
 21
1184.393
 31
0.0
  0
LINE
  5
2F
  8
5
  6
CONTINUOUS
 10
819.9559
 20
1184.393
 30
0.0
 11
823.902
 21
1297.393
 31
0.0
  0
LINE
  5
30
  8
5
  6
CONTINUOUS
 10
1106.848
 20
1184.393
 30
0.0
 11
1102.902
 21
1297.393
 31
0.0
  0
LINE
  5
31
  8
5
  6
CONTINUOUS
 10
875.3941
 20
1344.393
 30
0.0
 11
1051.408
 21
1344.389
 31
0.0
  0
LINE
  5
32
  8
5
  6
CONTINUOUS
 10
929.5348
 20
1347.093
 30
0.0
 11
929.5348
 21
1344.393
 31
0.0
  0
LINE
  5
33
  8
5
  6
CONTINUOUS
 10
931.0348
 20
1344.393
 30
0.0
 11
931.0348
 21
1347.093
 31
0.0
  0
LINE
  5
34
  8
5
  6
CONTINUOUS
 10
956.0503
 20
1344.393
 30
0.0
 11
956.0503
 21
1347.093
 31
0.0
  0
LINE
  5
35
  8
5
  6
CONTINUOUS
 10
965.8921
 20
1344.393
 30
0.0
 11
965.8921
 21
1347.093
 31
0.0
  0
LINE
  5
36
  8
5
  6
CONTINUOUS
 10
967.3921
 20
1344.393
 30
0.0
 11
967.3921
 21
1347.093
 31
0.0
  0
LINE
  5
37
  8
5
  6
CONTINUOUS
 10
999.9961
 20
1344.393
 30
0.0
 11
999.9961
 21
1347.093
 31
0.0
  0
LINE
  5
38
  8
5
  6
CONTINUOUS
 10
988.6543
 20
1344.393
 30
0.0
 11
988.6543
 21
1347.093
 31
0.0
  0
LINE
  5
39
  8
5
  6
CONTINUOUS
 10
998.4961
 20
1344.393
 30
0.0
 11
998.4961
 21
1347.093
 31
0.0
  0
LINE
  5
3A
  8
5
  6
CONTINUOUS
 10
912.394
 20
1347.093
 30
0.0
 11
918.7247
 21
1347.093
 31
0.0
  0
LINE
  5
3B
  8
5
  6
CONTINUOUS
 10
918.7247
 20
1347.093
 30
0.0
 11
921.3604
 21
1347.093
 31
0.0
  0
LINE
  5
3C
  8
5
  6
CONTINUOUS
 10
921.3604
 20
1347.093
 30
0.0
 11
929.5348
 21
1347.093
 31
0.0
  0
LINE
  5
3D
  8
5
  6
CONTINUOUS
 10
931.0348
 20
1347.093
 30
0.0
 11
939.173
 21
1347.093
 31
0.0
  0
LINE
  5
3E
  8
5
  6
CONTINUOUS
 10
939.173
 20
1347.093
 30
0.0
 11
941.916
 21
1347.093
 31
0.0
  0
LINE
  5
3F
  8
5
  6
CONTINUOUS
 10
941.916
 20
1347.093
 30
0.0
 11
948.702
 21
1347.093
 31
0.0
  0
LINE
  5
40
  8
5
  6
CONTINUOUS
 10
956.0503
 20
1347.093
 30
0.0
 11
965.8921
 21
1347.093
 31
0.0
  0
LINE
  5
41
  8
5
  6
CONTINUOUS
 10
967.3921
 20
1347.093
 30
0.0
 11
970.822
 21
1347.093
 31
0.0
  0
LINE
  5
42
  8
5
  6
CONTINUOUS
 10
970.822
 20
1347.093
 30
0.0
 11
981.4134
 21
1347.093
 31
0.0
  0
LINE
  5
43
  8
5
  6
CONTINUOUS
 10
760.4021
 20
731.0931
 30
0.0
 11
760.4021
 21
1131.093
 31
0.0
  0
LINE
  5
44
  8
5
  6
CONTINUOUS
 10
755.4021
 20
1081.093
 30
0.0
 11
755.4021
 21
781.0931
 31
0.0
  0
ARC
  5
45
  8
5
  6
CONTINUOUS
 10
779.4021
 20
836.0081
 30
0.0
 40
1.5
 50
0.0
 51
231.9596
  0
ARC
  5
46
  8
5
  6
CONTINUOUS
 10
779.4021
 20
836.0081
 30
0.0
 40
1.5
 50
268.0404
 51
0.0
  0
LINE
  5
47
  8
5
  6
CONTINUOUS
 10
775.4021
 20
835.9462
 30
0.0
 11
778.4777
 21
834.8267
 31
0.0
  0
LINE
  5
48
  8
5
  6
CONTINUOUS
 10
778.4777
 20
834.8267
 30
0.0
 11
779.3508
 21
834.509
 31
0.0
  0
LINE
  5
49
  8
5
  6
CONTINUOUS
 10
779.3508
 20
834.509
 30
0.0
 11
805.4021
 21
825.0271
 31
0.0
  0
LINE
  5
4A
  8
5
  6
CONTINUOUS
 10
805.4021
 20
1037.159
 30
0.0
 11
775.4021
 21
1026.24
 31
0.0
  0
LINE
  5
4B
  8
5
  6
CONTINUOUS
 10
1083.402
 20
1124.093
 30
0.0
 11
1085.492
 21
1064.25
 31
0.0
  0
LINE
  5
4C
  8
5
  6
CONTINUOUS
 10
841.3123
 20
1064.25
 30
0.0
 11
843.4021
 21
1124.093
 31
0.0
  0
LINE
  5
4D
  8
5
  6
CONTINUOUS
 10
1251.071
 20
1089.643
 30
0.0
 11
1248.798
 21
1107.393
 31
0.0
  0
LINE
  5
4E
  8
5
  6
CONTINUOUS
 10
1248.798
 20
1107.393
 30
0.0
 11
1246.402
 21
1126.093
 31
0.0
  0
LINE
  5
4F
  8
5
  6
CONTINUOUS
 10
805.4021
 20
1064.681
 30
0.0
 11
805.4021
 21
1037.159
 31
0.0
  0
LINE
  5
50
  8
5
  6
CONTINUOUS
 10
1251.749
 20
1084.355
 30
0.0
 11
1251.071
 21
1089.643
 31
0.0
  0
LINE
  5
51
  8
5
  6
CONTINUOUS
 10
1136.902
 20
1126.093
 30
0.0
 11
1114.902
 21
1106.093
 31
0.0
  0
LINE
  5
52
  8
5
  6
CONTINUOUS
 10
1246.402
 20
1126.093
 30
0.0
 11
1136.902
 21
1126.093
 31
0.0
  0
LINE
  5
53
  8
5
  6
CONTINUOUS
 10
1114.902
 20
1106.093
 30
0.0
 11
1114.902
 21
1054.877
 31
0.0
  0
LINE
  5
54
  8
5
  6
CONTINUOUS
 10
842.4021
 20
1049.793
 30
0.0
 11
1246.402
 21
1049.793
 31
0.0
  0
LINE
  5
55
  8
5
  6
CONTINUOUS
 10
1248.798
 20
1031.093
 30
0.0
 11
1251.071
 21
1013.343
 31
0.0
  0
LINE
  5
56
  8
5
  6
CONTINUOUS
 10
1251.071
 20
1013.343
 30
0.0
 11
1251.749
 21
1008.055
 31
0.0
  0
LINE
  5
57
  8
5
  6
CONTINUOUS
 10
1246.402
 20
1049.793
 30
0.0
 11
1247.64
 21
1040.129
 31
0.0
  0
LINE
  5
58
  8
5
  6
CONTINUOUS
 10
1247.64
 20
1040.129
 30
0.0
 11
1248.798
 21
1031.093
 31
0.0
  0
LINE
  5
59
  8
5
  6
CONTINUOUS
 10
1251.071
 20
848.8431
 30
0.0
 11
1251.749
 21
854.1314
 31
0.0
  0
LINE
  5
5A
  8
5
  6
CONTINUOUS
 10
1247.64
 20
822.0572
 30
0.0
 11
1251.071
 21
848.8431
 31
0.0
  0
LINE
  5
5B
  8
5
  6
CONTINUOUS
 10
1247.64
 20
822.0572
 30
0.0
 11
1246.402
 21
812.3931
 31
0.0
  0
LINE
  5
5C
  8
5
  6
CONTINUOUS
 10
840.0065
 20
1031.093
 30
0.0
 11
837.7327
 21
1013.343
 31
0.0
  0
LINE
  5
5D
  8
5
  6
CONTINUOUS
 10
837.7327
 20
1013.343
 30
0.0
 11
837.0553
 21
1008.055
 31
0.0
  0
LINE
  5
5E
  8
5
  6
CONTINUOUS
 10
841.1641
 20
1040.129
 30
0.0
 11
840.0065
 21
1031.093
 31
0.0
  0
LINE
  5
5F
  8
5
  6
CONTINUOUS
 10
841.1641
 20
1040.129
 30
0.0
 11
842.4021
 21
1049.793
 31
0.0
  0
LINE
  5
60
  8
5
  6
CONTINUOUS
 10
842.4021
 20
812.3931
 30
0.0
 11
841.1641
 21
822.0572
 31
0.0
  0
LINE
  5
61
  8
5
  6
CONTINUOUS
 10
841.1641
 20
822.0572
 30
0.0
 11
837.7327
 21
848.8431
 31
0.0
  0
LINE
  5
62
  8
5
  6
CONTINUOUS
 10
837.7327
 20
848.8431
 30
0.0
 11
837.0553
 21
854.1314
 31
0.0
  0
LINE
  5
63
  8
5
  6
CONTINUOUS
 10
1367.902
 20
832.5934
 30
0.0
 11
1367.902
 21
1029.593
 31
0.0
  0
LINE
  5
64
  8
5
  6
CONTINUOUS
 10
1367.902
 20
832.5934
 30
0.0
 11
1367.902
 21
741.093
 31
0.0
  0
LINE
  5
65
  8
5
  6
CONTINUOUS
 10
1367.902
 20
1121.093
 30
0.0
 11
1367.902
 21
1029.593
 31
0.0
  0
LINE
  5
66
  8
5
  6
CONTINUOUS
 10
1424.402
 20
1059.093
 30
0.0
 11
1424.402
 21
803.0931
 31
0.0
  0
LINE
  5
67
  8
5
  6
CONTINUOUS
 10
1300.402
 20
738.0931
 30
0.0
 11
1254.402
 21
738.0931
 31
0.0
  0
LINE
  5
68
  8
5
  6
CONTINUOUS
 10
1300.402
 20
1124.093
 30
0.0
 11
1254.402
 21
1124.093
 31
0.0
  0
LINE
  5
69
  8
5
  6
CONTINUOUS
 10
1300.402
 20
1121.093
 30
0.0
 11
1367.902
 21
1121.093
 31
0.0
  0
LINE
  5
6A
  8
5
  6
CONTINUOUS
 10
1300.402
 20
741.093
 30
0.0
 11
1367.902
 21
741.093
 31
0.0
  0
LINE
  5
6B
  8
5
  6
CONTINUOUS
 10
1300.402
 20
831.3509
 30
0.0
 11
1300.402
 21
738.0931
 31
0.0
  0
LINE
  5
6C
  8
5
  6
CONTINUOUS
 10
1300.402
 20
1124.093
 30
0.0
 11
1300.402
 21
1030.835
 31
0.0
  0
LINE
  5
6D
  8
5
  6
CONTINUOUS
 10
1300.402
 20
831.3509
 30
0.0
 11
1300.402
 21
1030.835
 31
0.0
  0
LINE
  5
6E
  8
5
  6
CONTINUOUS
 10
1254.402
 20
1030.835
 30
0.0
 11
1254.402
 21
831.3509
 31
0.0
  0
LINE
  5
6F
  8
5
  6
CONTINUOUS
 10
1254.402
 20
1030.835
 30
0.0
 11
1254.402
 21
1124.093
 31
0.0
  0
LINE
  5
70
  8
5
  6
CONTINUOUS
 10
1254.402
 20
738.0931
 30
0.0
 11
1254.402
 21
831.3509
 31
0.0
  0
LINE
  5
71
  8
5
  6
CONTINUOUS
 10
1494.402
 20
1086.999
 30
0.0
 11
1494.402
 21
996.9989
 31
0.0
  0
LINE
  5
72
  8
5
  6
CONTINUOUS
 10
805.4021
 20
825.0271
 30
0.0
 11
805.4021
 21
797.5053
 31
0.0
  0
LINE
  5
73
  8
5
  6
CONTINUOUS
 10
1494.402
 20
1071.999
 30
0.0
 11
1511.723
 21
1081.999
 31
0.0
  0
LINE
  5
74
  8
5
  6
CONTINUOUS
 10
1494.402
 20
1056.999
 30
0.0
 11
1511.723
 21
1066.999
 31
0.0
  0
LINE
  5
75
  8
5
  6
CONTINUOUS
 10
1494.402
 20
1041.999
 30
0.0
 11
1511.723
 21
1051.999
 31
0.0
  0
LINE
  5
76
  8
5
  6
CONTINUOUS
 10
1494.402
 20
1026.999
 30
0.0
 11
1511.723
 21
1036.999
 31
0.0
  0
LINE
  5
77
  8
5
  6
CONTINUOUS
 10
1494.402
 20
1011.999
 30
0.0
 11
1511.723
 21
1021.999
 31
0.0
  0
LINE
  5
78
  8
5
  6
CONTINUOUS
 10
775.4021
 20
731.0931
 30
0.0
 11
775.4021
 21
1131.093
 31
0.0
  0
LINE
  5
79
  8
5
  6
CONTINUOUS
 10
1246.402
 20
736.0931
 30
0.0
 11
842.4021
 21
736.0931
 31
0.0
  0
LINE
  5
7A
  8
5
  6
CONTINUOUS
 10
842.4021
 20
736.0931
 30
0.0
 11
841.1641
 21
745.7572
 31
0.0
  0
LINE
  5
7B
  8
5
  6
CONTINUOUS
 10
841.1641
 20
745.7572
 30
0.0
 11
840.0065
 21
754.7931
 31
0.0
  0
LINE
  5
7C
  8
5
  6
CONTINUOUS
 10
840.0065
 20
754.7931
 30
0.0
 11
837.7327
 21
772.5431
 31
0.0
  0
LINE
  5
7D
  8
5
  6
CONTINUOUS
 10
837.7327
 20
772.5431
 30
0.0
 11
837.0553
 21
777.8314
 31
0.0
  0
LINE
  5
7E
  8
5
  6
CONTINUOUS
 10
1247.64
 20
745.7572
 30
0.0
 11
1248.798
 21
754.7931
 31
0.0
  0
LINE
  5
7F
  8
5
  6
CONTINUOUS
 10
1247.64
 20
745.7572
 30
0.0
 11
1246.402
 21
736.0931
 31
0.0
  0
LINE
  5
80
  8
5
  6
CONTINUOUS
 10
1248.798
 20
754.7931
 30
0.0
 11
1251.071
 21
772.5431
 31
0.0
  0
LINE
  5
81
  8
5
  6
CONTINUOUS
 10
1251.071
 20
772.5431
 30
0.0
 11
1251.749
 21
777.8314
 31
0.0
  0
LINE
  5
82
  8
5
  6
CONTINUOUS
 10
1249.413
 20
1102.593
 30
0.0
 11
1249.413
 21
1102.593
 31
0.0
  0
LINE
  5
83
  8
5
  6
CONTINUOUS
 10
923.4021
 20
812.3931
 30
0.0
 11
923.4021
 21
792.3696
 31
0.0
  0
LINE
  5
84
  8
5
  6
CONTINUOUS
 10
923.4021
 20
792.3696
 30
0.0
 11
915.4021
 21
785.3022
 31
0.0
  0
LINE
  5
85
  8
5
  6
CONTINUOUS
 10
915.4021
 20
785.3022
 30
0.0
 11
895.402
 21
785.3022
 31
0.0
  0
LINE
  5
86
  8
5
  6
CONTINUOUS
 10
895.402
 20
785.3022
 30
0.0
 11
887.4022
 21
792.3697
 31
0.0
  0
LINE
  5
87
  8
5
  6
CONTINUOUS
 10
887.4022
 20
792.3697
 30
0.0
 11
887.4021
 21
812.3931
 31
0.0
  0
LINE
  5
88
  8
5
  6
CONTINUOUS
 10
858.7859
 20
772.9003
 30
0.0
 11
855.6598
 21
812.3932
 31
0.0
  0
LINE
  5
89
  8
5
  6
CONTINUOUS
 10
858.7859
 20
772.9003
 30
0.0
 11
875.902
 21
758.8001
 31
0.0
  0
LINE
  5
8A
  8
5
  6
CONTINUOUS
 10
875.902
 20
758.8001
 30
0.0
 11
934.9021
 21
758.8001
 31
0.0
  0
LINE
  5
8B
  8
5
  6
CONTINUOUS
 10
934.9021
 20
758.8001
 30
0.0
 11
952.0182
 21
772.9003
 31
0.0
  0
LINE
  5
8C
  8
5
  6
CONTINUOUS
 10
952.0182
 20
772.9003
 30
0.0
 11
955.1443
 21
812.3932
 31
0.0
  0
LINE
  5
8D
  8
5
  6
CONTINUOUS
 10
854.7032
 20
787.2376
 30
0.0
 11
853.711
 21
807.3087
 31
0.0
  0
LINE
  5
8E
  8
5
  6
CONTINUOUS
 10
854.7032
 20
787.2376
 30
0.0
 11
858.7859
 21
751.0228
 31
0.0
  0
LINE
  5
91
  8
5
  6
CONTINUOUS
 10
858.7859
 20
751.0228
 30
0.0
 11
858.7859
 21
772.9003
 31
0.0
  0
LINE
  5
95
  8
5
  6
CONTINUOUS
 10
952.0182
 20
772.9003
 30
0.0
 11
952.0182
 21
751.0228
 31
0.0
  0
LINE
  5
96
  8
5
  6
CONTINUOUS
 10
956.1009
 20
787.2376
 30
0.0
 11
952.0182
 21
751.0228
 31
0.0
  0
LINE
  5
97
  8
5
  6
CONTINUOUS
 10
957.0931
 20
807.3087
 30
0.0
 11
956.1009
 21
787.2376
 31
0.0
  0
LINE
  5
98
  8
5
  6
CONTINUOUS
 10
842.402
 20
807.3087
 30
0.0
 11
853.711
 21
807.3087
 31
0.0
  0
LINE
  5
99
  8
5
  6
CONTINUOUS
 10
842.402
 20
807.3087
 30
0.0
 11
842.402
 21
756.0931
 31
0.0
  0
LINE
  5
9A
  8
5
  6
CONTINUOUS
 10
842.402
 20
756.0931
 30
0.0
 11
858.2144
 21
756.0931
 31
0.0
  0
LINE
  5
9C
  8
5
  6
CONTINUOUS
 10
952.5898
 20
756.0931
 30
0.0
 11
1246.402
 21
756.0931
 31
0.0
  0
LINE
  5
9D
  8
5
  6
CONTINUOUS
 10
1246.402
 20
756.0931
 30
0.0
 11
1246.402
 21
807.3087
 31
0.0
  0
LINE
  5
9E
  8
5
  6
CONTINUOUS
 10
957.0931
 20
807.3087
 30
0.0
 11
1246.402
 21
807.3087
 31
0.0
  0
LINE
  5
9F
  8
5
  6
CONTINUOUS
 10
887.4022
 20
807.3087
 30
0.0
 11
923.402
 21
807.3087
 31
0.0
  0
LINE
  5
A0
  8
5
  6
CONTINUOUS
 10
831.9022
 20
1102.593
 30
0.0
 11
775.4021
 21
1100.62
 31
0.0
  0
LINE
  5
A1
  8
5
  6
CONTINUOUS
 10
831.9022
 20
931.0931
 30
0.0
 11
831.9022
 21
759.5932
 31
0.0
  0
LINE
  5
AA
  8
5
  6
CONTINUOUS
 10
831.9022
 20
1102.593
 30
0.0
 11
831.9022
 21
931.0931
 31
0.0
  0
LINE
  5
AB
  8
5
  6
CONTINUOUS
 10
775.4021
 20
761.5662
 30
0.0
 11
831.9022
 21
759.5932
 31
0.0
  0
LINE
  5
AC
  8
5
  6
CONTINUOUS
 10
999.9961
 20
1347.093
 30
0.0
 11
1003.426
 21
1347.093
 31
0.0
  0
LINE
  5
AD
  8
5
  6
CONTINUOUS
 10
1003.426
 20
1347.093
 30
0.0
 11
1014.017
 21
1347.093
 31
0.0
  0
LINE
  5
AE
  8
5
  6
CONTINUOUS
 10
988.6543
 20
1347.093
 30
0.0
 11
998.4961
 21
1347.093
 31
0.0
  0
LINE
  5
AF
  8
5
  6
CONTINUOUS
 10
823.4406
 20
1314.393
 30
0.0
 11
875.3941
 21
1344.393
 31
0.0
  0
LINE
  5
B0
  8
5
  6
CONTINUOUS
 10
1051.408
 20
1344.389
 30
0.0
 11
1103.363
 21
1314.393
 31
0.0
  0
LINE
  5
B1
  8
5
  6
CONTINUOUS
 10
877.902
 20
1314.082
 30
0.0
 11
877.902
 21
1314.393
 31
0.0
  0
LINE
  5
B2
  8
5
  6
CONTINUOUS
 10
877.902
 20
1314.393
 30
0.0
 11
822.902
 21
1314.393
 31
0.0
  0
LINE
  5
B3
  8
5
  6
CONTINUOUS
 10
1048.902
 20
1314.393
 30
0.0
 11
1048.902
 21
1314.082
 31
0.0
  0
LINE
  5
B4
  8
5
  6
CONTINUOUS
 10
1103.902
 20
1314.393
 30
0.0
 11
1048.902
 21
1314.393
 31
0.0
  0
LINE
  5
B5
  8
5
  6
CONTINUOUS
 10
1108.902
 20
1161.393
 30
0.0
 11
1103.902
 21
1302.393
 31
0.0
  0
LINE
  5
B6
  8
5
  6
CONTINUOUS
 10
822.9021
 20
1302.393
 30
0.0
 11
817.902
 21
1161.393
 31
0.0
  0
LINE
  5
B7
  8
5
  6
CONTINUOUS
 10
822.902
 20
1314.393
 30
0.0
 11
822.9021
 21
1302.393
 31
0.0
  0
LINE
  5
B8
  8
5
  6
CONTINUOUS
 10
1103.902
 20
1302.393
 30
0.0
 11
1103.902
 21
1314.393
 31
0.0
  0
LINE
  5
B9
  8
5
  6
CONTINUOUS
 10
818.4021
 20
1152.093
 30
0.0
 11
846.4021
 21
1124.093
 31
0.0
  0
LINE
  5
BA
  8
5
  6
CONTINUOUS
 10
1080.402
 20
1124.093
 30
0.0
 11
1108.402
 21
1152.093
 31
0.0
  0
LINE
  5
BB
  8
5
  6
CONTINUOUS
 10
1080.402
 20
1124.093
 30
0.0
 11
1083.402
 21
1124.093
 31
0.0
  0
LINE
  5
BC
  8
5
  6
CONTINUOUS
 10
843.4021
 20
1124.093
 30
0.0
 11
846.4021
 21
1124.093
 31
0.0
  0
LINE
  5
BD
  8
5
  6
CONTINUOUS
 10
854.4106
 20
1124.093
 30
0.0
 11
857.4107
 21
1124.093
 31
0.0
  0
LINE
  5
BE
  8
5
  6
CONTINUOUS
 10
857.4107
 20
1124.093
 30
0.0
 11
1069.394
 21
1124.093
 31
0.0
  0
LINE
  5
BF
  8
5
  6
CONTINUOUS
 10
1069.394
 20
1124.093
 30
0.0
 11
1072.394
 21
1124.093
 31
0.0
  0
LINE
  5
C0
  8
5
  6
CONTINUOUS
 10
1080.402
 20
1124.093
 30
0.0
 11
1072.394
 21
1124.093
 31
0.0
  0
LINE
  5
C1
  8
5
  6
CONTINUOUS
 10
854.4106
 20
1124.093
 30
0.0
 11
846.4021
 21
1124.093
 31
0.0
  0
LINE
  5
C2
  8
5
  6
CONTINUOUS
 10
818.4021
 20
1152.093
 30
0.0
 11
1108.402
 21
1152.093
 31
0.0
  0
LINE
  5
C3
  8
5
  6
CONTINUOUS
 10
912.394
 20
1344.393
 30
0.0
 11
912.394
 21
1347.093
 31
0.0
  0
LINE
  5
C4
  8
5
  6
CONTINUOUS
 10
918.7247
 20
1344.393
 30
0.0
 11
918.7247
 21
1347.093
 31
0.0
  0
LINE
  5
C5
  8
5
  6
CONTINUOUS
 10
1071.944
 20
1051.067
 30
0.0
 11
854.8605
 21
1051.067
 31
0.0
  0
LINE
  5
C6
  8
5
  6
CONTINUOUS
 10
1071.944
 20
1051.067
 30
0.0
 11
1069.394
 21
1124.093
 31
0.0
  0
LINE
  5
C7
  8
5
  6
CONTINUOUS
 10
857.4107
 20
1124.093
 30
0.0
 11
854.8605
 21
1051.067
 31
0.0
  0
LINE
  5
C8
  8
5
  6
CONTINUOUS
 10
921.3603
 20
1344.393
 30
0.0
 11
921.3604
 21
1347.093
 31
0.0
  0
LINE
  5
C9
  8
5
  6
CONTINUOUS
 10
939.173
 20
1344.393
 30
0.0
 11
939.173
 21
1347.093
 31
0.0
  0
LINE
  5
CB
  8
5
  6
CONTINUOUS
 10
841.1641
 20
822.0572
 30
0.0
 11
842.402
 21
832.3931
 31
0.0
  0
LINE
  5
CC
  8
5
  6
CONTINUOUS
 10
1246.402
 20
832.3931
 30
0.0
 11
1247.64
 21
822.0572
 31
0.0
  0
LINE
  5
CD
  8
5
  6
CONTINUOUS
 10
842.402
 20
832.3931
 30
0.0
 11
1246.402
 21
832.3931
 31
0.0
  0
LINE
  5
CE
  8
5
  6
CONTINUOUS
 10
842.402
 20
1031.093
 30
0.0
 11
841.1641
 21
1040.129
 31
0.0
  0
LINE
  5
CF
  8
5
  6
CONTINUOUS
 10
1246.402
 20
1031.093
 30
0.0
 11
842.402
 21
1031.093
 31
0.0
  0
LINE
  5
D0
  8
5
  6
CONTINUOUS
 10
1247.64
 20
1040.129
 30
0.0
 11
1246.402
 21
1031.093
 31
0.0
  0
LINE
  5
D2
  8
5
  6
CONTINUOUS
 10
1246.402
 20
1013.343
 30
0.0
 11
1251.071
 21
1013.343
 31
0.0
  0
LINE
  5
D3
  8
5
  6
CONTINUOUS
 10
1248.798
 20
1031.093
 30
0.0
 11
1246.402
 21
1031.093
 31
0.0
  0
LINE
  5
D4
  8
5
  6
CONTINUOUS
 10
1246.402
 20
1013.343
 30
0.0
 11
1246.402
 21
1031.093
 31
0.0
  0
LINE
  5
D5
  8
5
  6
CONTINUOUS
 10
1251.071
 20
848.843
 30
0.0
 11
1246.402
 21
848.843
 31
0.0
  0
LINE
  5
D6
  8
5
  6
CONTINUOUS
 10
1246.402
 20
832.3931
 30
0.0
 11
1246.402
 21
848.843
 31
0.0
  0
LINE
  5
D7
  8
5
  6
CONTINUOUS
 10
1249.413
 20
931.0931
 30
0.0
 11
1246.402
 21
931.0931
 31
0.0
  0
LINE
  5
D8
  8
5
  6
CONTINUOUS
 10
1246.402
 20
913.843
 30
0.0
 11
1246.402
 21
931.0931
 31
0.0
  0
LINE
  5
D9
  8
5
  6
CONTINUOUS
 10
1246.402
 20
913.843
 30
0.0
 11
1249.524
 21
913.843
 31
0.0
  0
LINE
  5
DA
  8
5
  6
CONTINUOUS
 10
1249.862
 20
965.5931
 30
0.0
 11
1246.402
 21
965.5931
 31
0.0
  0
LINE
  5
DB
  8
5
  6
CONTINUOUS
 10
1246.402
 20
948.3431
 30
0.0
 11
1246.402
 21
965.5931
 31
0.0
  0
LINE
  5
DC
  8
5
  6
CONTINUOUS
 10
1246.402
 20
948.3431
 30
0.0
 11
1249.524
 21
948.3431
 31
0.0
  0
LINE
  5
DD
  8
5
  6
CONTINUOUS
 10
1251.026
 20
995.5932
 30
0.0
 11
1246.402
 21
995.5932
 31
0.0
  0
LINE
  5
DE
  8
5
  6
CONTINUOUS
 10
1246.402
 20
980.5931
 30
0.0
 11
1246.402
 21
995.5932
 31
0.0
  0
LINE
  5
DF
  8
5
  6
CONTINUOUS
 10
1246.402
 20
980.5931
 30
0.0
 11
1250.347
 21
980.5931
 31
0.0
  0
LINE
  5
E0
  8
5
  6
CONTINUOUS
 10
1249.862
 20
896.593
 30
0.0
 11
1246.402
 21
896.593
 31
0.0
  0
LINE
  5
E1
  8
5
  6
CONTINUOUS
 10
1246.402
 20
881.593
 30
0.0
 11
1246.402
 21
896.593
 31
0.0
  0
LINE
  5
E2
  8
5
  6
CONTINUOUS
 10
1246.402
 20
881.593
 30
0.0
 11
1250.347
 21
881.593
 31
0.0
  0
LINE
  5
E3
  8
5
  6
CONTINUOUS
 10
1251.026
 20
866.5931
 30
0.0
 11
1246.402
 21
866.5931
 31
0.0
  0
LINE
  5
E4
  8
5
  6
CONTINUOUS
 10
1246.402
 20
848.843
 30
0.0
 11
1246.402
 21
866.5931
 31
0.0
  0
LINE
  5
E5
  8
5
  6
CONTINUOUS
 10
1246.402
 20
896.593
 30
0.0
 11
1246.402
 21
913.843
 31
0.0
  0
LINE
  5
E6
  8
5
  6
CONTINUOUS
 10
1246.402
 20
931.0931
 30
0.0
 11
1246.402
 21
948.3431
 31
0.0
  0
LINE
  5
E7
  8
5
  6
CONTINUOUS
 10
1246.402
 20
965.5931
 30
0.0
 11
1246.402
 21
980.5931
 31
0.0
  0
LINE
  5
E8
  8
5
  6
CONTINUOUS
 10
1246.402
 20
995.5932
 30
0.0
 11
1246.402
 21
1013.343
 31
0.0
  0
LINE
  5
E9
  8
5
  6
CONTINUOUS
 10
1246.402
 20
866.5931
 30
0.0
 11
1246.402
 21
881.593
 31
0.0
  0
LINE
  5
EB
  8
5
  6
CONTINUOUS
 10
837.7327
 20
1013.343
 30
0.0
 11
842.402
 21
1013.343
 31
0.0
  0
LINE
  5
EC
  8
5
  6
CONTINUOUS
 10
842.402
 20
1031.093
 30
0.0
 11
842.402
 21
1013.343
 31
0.0
  0
LINE
  5
ED
  8
5
  6
CONTINUOUS
 10
842.402
 20
1031.093
 30
0.0
 11
840.0065
 21
1031.093
 31
0.0
  0
LINE
  5
EE
  8
5
  6
CONTINUOUS
 10
842.402
 20
848.843
 30
0.0
 11
837.7327
 21
848.843
 31
0.0
  0
LINE
  5
EF
  8
5
  6
CONTINUOUS
 10
842.402
 20
848.843
 30
0.0
 11
842.402
 21
832.3931
 31
0.0
  0
LINE
  5
F0
  8
5
  6
CONTINUOUS
 10
839.2803
 20
913.843
 30
0.0
 11
842.402
 21
913.843
 31
0.0
  0
LINE
  5
F1
  8
5
  6
CONTINUOUS
 10
842.402
 20
931.0931
 30
0.0
 11
842.402
 21
913.843
 31
0.0
  0
LINE
  5
F2
  8
5
  6
CONTINUOUS
 10
842.402
 20
931.0931
 30
0.0
 11
839.3915
 21
931.0931
 31
0.0
  0
LINE
  5
F3
  8
5
  6
CONTINUOUS
 10
839.2803
 20
948.3431
 30
0.0
 11
842.402
 21
948.3431
 31
0.0
  0
LINE
  5
F4
  8
5
  6
CONTINUOUS
 10
842.402
 20
965.5931
 30
0.0
 11
842.402
 21
948.3431
 31
0.0
  0
LINE
  5
F5
  8
5
  6
CONTINUOUS
 10
842.402
 20
965.5931
 30
0.0
 11
838.9425
 21
965.5931
 31
0.0
  0
LINE
  5
F6
  8
5
  6
CONTINUOUS
 10
838.4566
 20
980.5931
 30
0.0
 11
842.402
 21
980.5931
 31
0.0
  0
LINE
  5
F7
  8
5
  6
CONTINUOUS
 10
842.402
 20
995.5932
 30
0.0
 11
842.402
 21
980.5931
 31
0.0
  0
LINE
  5
F8
  8
5
  6
CONTINUOUS
 10
842.402
 20
995.5932
 30
0.0
 11
837.7787
 21
995.5932
 31
0.0
  0
LINE
  5
F9
  8
5
  6
CONTINUOUS
 10
838.4566
 20
881.593
 30
0.0
 11
842.402
 21
881.593
 31
0.0
  0
LINE
  5
FA
  8
5
  6
CONTINUOUS
 10
842.402
 20
896.593
 30
0.0
 11
842.402
 21
881.593
 31
0.0
  0
LINE
  5
FB
  8
5
  6
CONTINUOUS
 10
842.402
 20
896.593
 30
0.0
 11
838.9425
 21
896.593
 31
0.0
  0
LINE
  5
FC
  8
5
  6
CONTINUOUS
 10
842.402
 20
866.5931
 30
0.0
 11
842.402
 21
848.843
 31
0.0
  0
LINE
  5
FD
  8
5
  6
CONTINUOUS
 10
842.402
 20
866.5931
 30
0.0
 11
837.7787
 21
866.5931
 31
0.0
  0
LINE
  5
FE
  8
5
  6
CONTINUOUS
 10
842.402
 20
913.843
 30
0.0
 11
842.402
 21
896.593
 31
0.0
  0
LINE
  5
FF
  8
5
  6
CONTINUOUS
 10
842.402
 20
948.3431
 30
0.0
 11
842.402
 21
931.0931
 31
0.0
  0
LINE
  5
100
  8
5
  6
CONTINUOUS
 10
842.402
 20
980.5931
 30
0.0
 11
842.402
 21
965.5931
 31
0.0
  0
LINE
  5
101
  8
5
  6
CONTINUOUS
 10
842.402
 20
1013.343
 30
0.0
 11
842.402
 21
995.5932
 31
0.0
  0
LINE
  5
102
  8
5
  6
CONTINUOUS
 10
842.402
 20
881.593
 30
0.0
 11
842.402
 21
866.5931
 31
0.0
  0
LINE
  5
103
  8
5
  6
CONTINUOUS
 10
1246.402
 20
866.5931
 30
0.0
 11
842.402
 21
866.5931
 31
0.0
  0
LINE
  5
104
  8
5
  6
CONTINUOUS
 10
842.402
 20
848.843
 30
0.0
 11
1246.402
 21
848.843
 31
0.0
  0
LINE
  5
105
  8
5
  6
CONTINUOUS
 10
1246.402
 20
896.593
 30
0.0
 11
842.402
 21
896.593
 31
0.0
  0
LINE
  5
106
  8
5
  6
CONTINUOUS
 10
842.402
 20
881.593
 30
0.0
 11
1246.402
 21
881.593
 31
0.0
  0
LINE
  5
107
  8
5
  6
CONTINUOUS
 10
842.402
 20
1013.343
 30
0.0
 11
1246.402
 21
1013.343
 31
0.0
  0
LINE
  5
108
  8
5
  6
CONTINUOUS
 10
1246.402
 20
995.5932
 30
0.0
 11
842.402
 21
995.5932
 31
0.0
  0
LINE
  5
109
  8
5
  6
CONTINUOUS
 10
842.402
 20
980.5931
 30
0.0
 11
1246.402
 21
980.5931
 31
0.0
  0
LINE
  5
10A
  8
5
  6
CONTINUOUS
 10
1246.402
 20
965.5931
 30
0.0
 11
842.402
 21
965.5931
 31
0.0
  0
LINE
  5
10B
  8
5
  6
CONTINUOUS
 10
842.402
 20
948.3431
 30
0.0
 11
1246.402
 21
948.3431
 31
0.0
  0
LINE
  5
10D
  8
5
  6
CONTINUOUS
 10
842.402
 20
913.843
 30
0.0
 11
1246.402
 21
913.843
 31
0.0
  0
LINE
  5
10E
  8
5
  6
CONTINUOUS
 10
1251.071
 20
1081.583
 30
0.0
 11
1251.071
 21
1089.643
 31
0.0
  0
LINE
  5
10F
  8
5
  6
CONTINUOUS
 10
1248.798
 20
1107.393
 30
0.0
 11
1248.798
 21
1070.421
 31
0.0
  0
LINE
  5
110
  8
5
  6
CONTINUOUS
 10
1246.402
 20
1054.877
 30
0.0
 11
1246.402
 21
1126.093
 31
0.0
  0
LINE
  5
113
  8
5
  6
CONTINUOUS
 10
1154.902
 20
1103.386
 30
0.0
 11
1137.786
 21
1089.286
 31
0.0
  0
LINE
  5
114
  8
5
  6
CONTINUOUS
 10
1154.902
 20
1121.064
 30
0.0
 11
1154.902
 21
1103.386
 31
0.0
  0
LINE
  5
115
  8
5
  6
CONTINUOUS
 10
1137.786
 20
1111.163
 30
0.0
 11
1154.902
 21
1121.064
 31
0.0
  0
LINE
  5
116
  8
5
  6
CONTINUOUS
 10
1137.786
 20
1089.286
 30
0.0
 11
1137.786
 21
1111.163
 31
0.0
  0
LINE
  5
117
  8
5
  6
CONTINUOUS
 10
1213.902
 20
1121.064
 30
0.0
 11
1231.018
 21
1111.163
 31
0.0
  0
LINE
  5
118
  8
5
  6
CONTINUOUS
 10
1213.902
 20
1103.386
 30
0.0
 11
1213.902
 21
1121.064
 31
0.0
  0
LINE
  5
119
  8
5
  6
CONTINUOUS
 10
1231.018
 20
1089.286
 30
0.0
 11
1213.902
 21
1103.386
 31
0.0
  0
LINE
  5
11A
  8
5
  6
CONTINUOUS
 10
1231.018
 20
1111.163
 30
0.0
 11
1231.018
 21
1089.286
 31
0.0
  0
LINE
  5
11D
  8
5
  6
CONTINUOUS
 10
1166.402
 20
1069.817
 30
0.0
 11
1174.402
 21
1076.884
 31
0.0
  0
LINE
  5
11E
  8
5
  6
CONTINUOUS
 10
941.9159
 20
1344.393
 30
0.0
 11
941.916
 21
1347.093
 31
0.0
  0
LINE
  5
11F
  8
5
  6
CONTINUOUS
 10
948.7019
 20
1344.393
 30
0.0
 11
948.702
 21
1347.093
 31
0.0
  0
LINE
  5
120
  8
5
  6
CONTINUOUS
 10
970.822
 20
1344.393
 30
0.0
 11
970.822
 21
1347.093
 31
0.0
  0
LINE
  5
121
  8
5
  6
CONTINUOUS
 10
1194.402
 20
1076.884
 30
0.0
 11
1202.402
 21
1069.817
 31
0.0
  0
LINE
  5
122
  8
5
  6
CONTINUOUS
 10
981.4135
 20
1344.393
 30
0.0
 11
981.4134
 21
1347.093
 31
0.0
  0
LINE
  5
123
  8
5
  6
CONTINUOUS
 10
1003.426
 20
1344.393
 30
0.0
 11
1003.426
 21
1347.093
 31
0.0
  0
LINE
  5
124
  8
5
  6
CONTINUOUS
 10
1174.402
 20
1076.884
 30
0.0
 11
1194.402
 21
1076.884
 31
0.0
  0
LINE
  5
125
  8
5
  6
CONTINUOUS
 10
1213.902
 20
1103.386
 30
0.0
 11
1154.902
 21
1103.386
 31
0.0
  0
LINE
  5
126
  8
5
  6
CONTINUOUS
 10
1154.902
 20
1121.064
 30
0.0
 11
1213.902
 21
1121.064
 31
0.0
  0
LINE
  5
127
  8
5
  6
CONTINUOUS
 10
1166.402
 20
1054.877
 30
0.0
 11
1202.402
 21
1054.877
 31
0.0
  0
LINE
  5
128
  8
5
  6
CONTINUOUS
 10
1014.018
 20
1344.393
 30
0.0
 11
1014.017
 21
1347.093
 31
0.0
  0
LINE
  5
129
  8
5
  6
CONTINUOUS
 10
1048.902
 20
1314.082
 30
0.0
 11
877.902
 21
1314.082
 31
0.0
  0
LINE
  5
12A
  8
5
  6
CONTINUOUS
 10
1051.402
 20
1314.393
 30
0.0
 11
1051.408
 21
1344.389
 31
0.0
  0
LINE
  5
12B
  8
5
  6
CONTINUOUS
 10
875.3941
 20
1344.393
 30
0.0
 11
875.4019
 21
1314.393
 31
0.0
  0
LINE
  5
12C
  8
5
  6
CONTINUOUS
 10
1103.902
 20
1302.393
 30
0.0
 11
822.9021
 21
1302.393
 31
0.0
  0
LINE
  5
12D
  8
5
  6
CONTINUOUS
 10
1114.902
 20
1054.877
 30
0.0
 11
1132.711
 21
1054.877
 31
0.0
  0
LINE
  5
12E
  8
5
  6
CONTINUOUS
 10
1236.093
 20
1054.877
 30
0.0
 11
1246.402
 21
1054.877
 31
0.0
  0
LINE
  5
12F
  8
5
  6
CONTINUOUS
 10
451.5515
 20
1102.455
 30
0.0
 11
451.5515
 21
1102.455
 31
0.0
  0
LINE
  5
130
  8
5
  6
CONTINUOUS
 10
1235.101
 20
1074.948
 30
0.0
 11
1236.093
 21
1054.877
 31
0.0
  0
LINE
  5
131
  8
5
  6
CONTINUOUS
 10
1132.711
 20
1054.877
 30
0.0
 11
1133.703
 21
1074.948
 31
0.0
  0
LINE
  5
132
  8
5
  6
CONTINUOUS
 10
143.7375
 20
1102.455
 30
0.0
 11
143.7375
 21
1102.455
 31
0.0
  0
LINE
  5
133
  8
5
  6
CONTINUOUS
 10
1137.786
 20
1089.286
 30
0.0
 11
1134.66
 21
1049.793
 31
0.0
  0
LINE
  5
134
  8
5
  6
CONTINUOUS
 10
1133.703
 20
1074.948
 30
0.0
 11
1137.786
 21
1111.163
 31
0.0
  0
LINE
  5
135
  8
5
  6
CONTINUOUS
 10
1235.101
 20
1074.948
 30
0.0
 11
1231.018
 21
1111.163
 31
0.0
  0
LINE
  5
136
  8
5
  6
CONTINUOUS
 10
1231.018
 20
1089.286
 30
0.0
 11
1234.144
 21
1049.793
 31
0.0
  0
LINE
  5
137
  8
5
  6
CONTINUOUS
 10
1166.402
 20
1049.793
 30
0.0
 11
1166.402
 21
1069.817
 31
0.0
  0
LINE
  5
138
  8
5
  6
CONTINUOUS
 10
1202.402
 20
1069.817
 30
0.0
 11
1202.402
 21
1049.793
 31
0.0
  0
LINE
  5
139
  8
5
  6
CONTINUOUS
 10
1415.402
 20
803.0931
 30
0.0
 11
1367.902
 21
751.5931
 31
0.0
  0
LINE
  5
13A
  8
5
  6
CONTINUOUS
 10
1415.402
 20
1059.093
 30
0.0
 11
1367.902
 21
1110.593
 31
0.0
  0
LINE
  5
13B
  8
5
  6
CONTINUOUS
 10
1415.402
 20
1059.093
 30
0.0
 11
1415.402
 21
803.0931
 31
0.0
  0
LINE
  5
13C
  8
5
  6
CONTINUOUS
 10
1424.402
 20
803.0931
 30
0.0
 11
1415.402
 21
803.0931
 31
0.0
  0
LINE
  5
13D
  8
5
  6
CONTINUOUS
 10
1424.402
 20
1059.093
 30
0.0
 11
1415.402
 21
1059.093
 31
0.0
  0
LINE
  5
13E
  8
5
  6
CONTINUOUS
 10
1254.402
 20
831.3509
 30
0.0
 11
1300.402
 21
831.3509
 31
0.0
  0
LINE
  5
13F
  8
5
  6
CONTINUOUS
 10
1300.402
 20
1030.835
 30
0.0
 11
1254.402
 21
1030.835
 31
0.0
  0
LINE
  5
140
  8
5
  6
CONTINUOUS
 10
1367.902
 20
1029.593
 30
0.0
 11
1300.402
 21
1029.593
 31
0.0
  0
LINE
  5
141
  8
5
  6
CONTINUOUS
 10
1300.402
 20
832.5934
 30
0.0
 11
1367.902
 21
832.5934
 31
0.0
  0
LINE
  5
142
  8
5
  6
CONTINUOUS
 10
443.1445
 20
1161.393
 30
0.0
 11
152.1445
 21
1161.393
 31
0.0
  0
LINE
  5
143
  8
5
  6
CONTINUOUS
 10
837.7327
 20
772.5431
 30
0.0
 11
837.7327
 21
780.6033
 31
0.0
  0
LINE
  5
144
  8
5
  6
CONTINUOUS
 10
840.0065
 20
791.7653
 30
0.0
 11
840.0065
 21
754.7931
 31
0.0
  0
LINE
  5
145
  8
5
  6
CONTINUOUS
 10
841.1641
 20
745.7572
 30
0.0
 11
842.3765
 21
755.8793
 31
0.0
  0
LINE
  5
146
  8
5
  6
CONTINUOUS
 10
842.3765
 20
755.8793
 30
0.0
 11
842.3765
 21
807.1173
 31
0.0
  0
LINE
  5
147
  8
5
  6
CONTINUOUS
 10
842.3765
 20
755.8793
 30
0.0
 11
842.402
 21
756.0931
 31
0.0
  0
LINE
  5
148
  8
5
  6
CONTINUOUS
 10
1251.071
 20
780.6033
 30
0.0
 11
1251.071
 21
772.5431
 31
0.0
  0
LINE
  5
149
  8
5
  6
CONTINUOUS
 10
1246.428
 20
807.1173
 30
0.0
 11
1246.428
 21
755.8793
 31
0.0
  0
LINE
  5
14A
  8
5
  6
CONTINUOUS
 10
1246.428
 20
755.8793
 30
0.0
 11
1247.64
 21
745.7572
 31
0.0
  0
LINE
  5
14B
  8
5
  6
CONTINUOUS
 10
1248.798
 20
754.7931
 30
0.0
 11
1248.798
 21
791.7653
 31
0.0
  0
LINE
  5
14C
  8
5
  6
CONTINUOUS
 10
477.1229
 20
1076.884
 30
0.0
 11
477.1229
 21
1076.884
 31
0.0
  0
LINE
  5
14D
  8
5
  6
CONTINUOUS
 10
442.6445
 20
1161.393
 30
0.0
 11
442.6445
 21
1152.093
 31
0.0
  0
LINE
  5
14E
  8
5
  6
CONTINUOUS
 10
152.6445
 20
1161.393
 30
0.0
 11
152.6445
 21
1152.093
 31
0.0
  0
LINE
  5
14F
  8
5
  6
CONTINUOUS
 10
101.1445
 20
1297.393
 30
0.0
 11
156.9672
 21
1297.393
 31
0.0
  0
LINE
  5
150
  8
5
  6
CONTINUOUS
 10
152.9601
 20
1184.393
 30
0.0
 11
101.1445
 21
1184.393
 31
0.0
  0
LINE
  5
151
  8
5
  6
CONTINUOUS
 10
101.1445
 20
1184.393
 30
0.0
 11
101.1445
 21
1297.393
 31
0.0
  0
LINE
  5
152
  8
5
  6
CONTINUOUS
 10
209.6444
 20
1344.393
 30
0.0
 11
385.6525
 21
1344.393
 31
0.0
  0
LINE
  5
153
  8
5
  6
CONTINUOUS
 10
298.7657
 20
1344.393
 30
0.0
 11
298.7657
 21
1344.393
 31
0.0
  0
LINE
  5
154
  8
5
  6
CONTINUOUS
 10
298.7657
 20
1347.093
 30
0.0
 11
298.7657
 21
1347.093
 31
0.0
  0
LINE
  5
155
  8
5
  6
CONTINUOUS
 10
298.7657
 20
1344.393
 30
0.0
 11
298.7657
 21
1347.093
 31
0.0
  0
LINE
  5
156
  8
5
  6
CONTINUOUS
 10
316.5511
 20
1344.393
 30
0.0
 11
316.5511
 21
1347.093
 31
0.0
  0
LINE
  5
157
  8
5
  6
CONTINUOUS
 10
123.6023
 20
812.393
 30
0.0
 11
121.3445
 21
812.393
 31
0.0
  0
LINE
  5
158
  8
5
  6
CONTINUOUS
 10
472.6445
 20
812.393
 30
0.0
 11
471.6867
 21
812.393
 31
0.0
  0
LINE
  5
159
  8
5
  6
CONTINUOUS
 10
278.6486
 20
1344.393
 30
0.0
 11
278.6486
 21
1347.093
 31
0.0
  0
LINE
  5
15A
  8
5
  6
CONTINUOUS
 10
297.2677
 20
1344.393
 30
0.0
 11
297.2677
 21
1347.093
 31
0.0
  0
LINE
  5
15B
  8
5
  6
CONTINUOUS
 10
278.6486
 20
1347.093
 30
0.0
 11
278.6486
 21
1347.093
 31
0.0
  0
LINE
  5
15C
  8
5
  6
CONTINUOUS
 10
298.7657
 20
1347.093
 30
0.0
 11
298.7657
 21
1347.093
 31
0.0
  0
LINE
  5
15D
  8
5
  6
CONTINUOUS
 10
278.6486
 20
1347.093
 30
0.0
 11
278.6486
 21
1347.093
 31
0.0
  0
LINE
  5
15E
  8
5
  6
CONTINUOUS
 10
278.6486
 20
1347.093
 30
0.0
 11
278.6486
 21
1347.093
 31
0.0
  0
LINE
  5
15F
  8
5
  6
CONTINUOUS
 10
298.7657
 20
1347.093
 30
0.0
 11
298.7657
 21
1347.093
 31
0.0
  0
LINE
  5
160
  8
5
  6
CONTINUOUS
 10
298.7657
 20
1347.093
 30
0.0
 11
300.5923
 21
1347.093
 31
0.0
  0
LINE
  5
161
  8
5
  6
CONTINUOUS
 10
300.5923
 20
1347.093
 30
0.0
 11
309.0947
 21
1347.093
 31
0.0
  0
LINE
  5
162
  8
5
  6
CONTINUOUS
 10
309.0947
 20
1347.093
 30
0.0
 11
316.5511
 21
1347.093
 31
0.0
  0
LINE
  5
163
  8
5
  6
CONTINUOUS
 10
278.6486
 20
1347.093
 30
0.0
 11
289.2408
 21
1347.093
 31
0.0
  0
LINE
  5
164
  8
5
  6
CONTINUOUS
 10
289.2408
 20
1347.093
 30
0.0
 11
297.2677
 21
1347.093
 31
0.0
  0
LINE
  5
165
  8
5
  6
CONTINUOUS
 10
385.6525
 20
1344.393
 30
0.0
 11
437.6059
 21
1314.393
 31
0.0
  0
LINE
  5
166
  8
5
  6
CONTINUOUS
 10
157.683
 20
1314.393
 30
0.0
 11
209.6445
 21
1344.393
 31
0.0
  0
LINE
  5
167
  8
5
  6
CONTINUOUS
 10
212.1445
 20
1314.082
 30
0.0
 11
212.1445
 21
1314.393
 31
0.0
  0
LINE
  5
168
  8
5
  6
CONTINUOUS
 10
212.1445
 20
1314.393
 30
0.0
 11
157.1445
 21
1314.393
 31
0.0
  0
LINE
  5
169
  8
5
  6
CONTINUOUS
 10
383.1445
 20
1314.393
 30
0.0
 11
383.1445
 21
1314.082
 31
0.0
  0
LINE
  5
16A
  8
5
  6
CONTINUOUS
 10
438.1445
 20
1314.393
 30
0.0
 11
383.1445
 21
1314.393
 31
0.0
  0
LINE
  5
16B
  8
5
  6
CONTINUOUS
 10
152.1445
 20
1161.393
 30
0.0
 11
157.1445
 21
1302.393
 31
0.0
  0
LINE
  5
16C
  8
5
  6
CONTINUOUS
 10
1246.402
 20
756.0931
 30
0.0
 11
1246.428
 21
755.8793
 31
0.0
  0
LINE
  5
16D
  8
5
  6
CONTINUOUS
 10
952.0182
 20
751.0228
 30
0.0
 11
934.9021
 21
741.1225
 31
0.0
  0
LINE
  5
16E
  8
5
  6
CONTINUOUS
 10
934.9021
 20
741.1225
 30
0.0
 11
875.902
 21
741.1225
 31
0.0
  0
LINE
  5
16F
  8
5
  6
CONTINUOUS
 10
875.902
 20
741.1225
 30
0.0
 11
858.7859
 21
751.0228
 31
0.0
  0
LINE
  5
170
  8
5
  6
CONTINUOUS
 10
934.9021
 20
741.1225
 30
0.0
 11
934.9021
 21
758.8001
 31
0.0
  0
LINE
  5
171
  8
5
  6
CONTINUOUS
 10
875.902
 20
758.8001
 30
0.0
 11
875.902
 21
741.1225
 31
0.0
  0
LINE
  5
172
  8
5
  6
CONTINUOUS
 10
655.4024
 20
958.5931
 30
0.0
 11
650.4021
 21
958.5931
 31
0.0
  0
LINE
  5
173
  8
5
  6
CONTINUOUS
 10
755.4021
 20
958.5931
 30
0.0
 11
753.4021
 21
958.5937
 31
0.0
  0
LINE
  5
174
  8
5
  6
CONTINUOUS
 10
650.4021
 20
903.593
 30
0.0
 11
755.4021
 21
903.5931
 31
0.0
  0
LINE
  5
175
  8
5
  6
CONTINUOUS
 10
745.402
 20
957.4038
 30
0.0
 11
663.402
 21
957.4038
 31
0.0
  0
LINE
  5
176
  8
5
  6
CONTINUOUS
 10
655.402
 20
962.5931
 30
0.0
 11
655.402
 21
958.5937
 31
0.0
  0
LINE
  5
177
  8
5
  6
CONTINUOUS
 10
663.402
 20
962.5931
 30
0.0
 11
663.402
 21
957.4038
 31
0.0
  0
LINE
  5
178
  8
5
  6
CONTINUOUS
 10
745.402
 20
962.5931
 30
0.0
 11
745.402
 21
957.4038
 31
0.0
  0
LINE
  5
179
  8
5
  6
CONTINUOUS
 10
753.4021
 20
958.5937
 30
0.0
 11
753.4021
 21
962.5931
 31
0.0
  0
LINE
  5
17A
  8
5
  6
CONTINUOUS
 10
760.4021
 20
1081.093
 30
0.0
 11
755.402
 21
1081.093
 31
0.0
  0
LINE
  5
17B
  8
5
  6
CONTINUOUS
 10
755.402
 20
781.0931
 30
0.0
 11
760.4021
 21
781.0931
 31
0.0
  0
LINE
  5
17C
  8
5
  6
CONTINUOUS
 10
775.4021
 20
1131.093
 30
0.0
 11
760.4021
 21
1131.093
 31
0.0
  0
LINE
  5
17D
  8
5
  6
CONTINUOUS
 10
760.4021
 20
731.0931
 30
0.0
 11
775.4021
 21
731.0931
 31
0.0
  0
LINE
  5
17E
  8
5
  6
CONTINUOUS
 10
1114.902
 20
1102.593
 30
0.0
 11
1084.155
 21
1102.593
 31
0.0
  0
LINE
  5
17F
  8
5
  6
CONTINUOUS
 10
1254.402
 20
1102.593
 30
0.0
 11
1249.413
 21
1102.593
 31
0.0
  0
LINE
  5
180
  8
5
  6
CONTINUOUS
 10
1249.413
 20
759.5932
 30
0.0
 11
1254.402
 21
759.5932
 31
0.0
  0
LINE
  5
181
  8
5
  6
CONTINUOUS
 10
842.6511
 20
1102.593
 30
0.0
 11
831.9022
 21
1102.593
 31
0.0
  0
LINE
  5
182
  8
5
  6
CONTINUOUS
 10
831.9022
 20
759.5932
 30
0.0
 11
839.3916
 21
759.5931
 31
0.0
  0
LINE
  5
183
  8
5
  6
CONTINUOUS
 10
102.242
 20
758.8
 30
0.0
 11
110.7142
 21
772.9001
 31
0.0
  0
LINE
  5
184
  8
5
  6
CONTINUOUS
 10
433.2911
 20
1088.189
 30
0.0
 11
462.6974
 21
1111.163
 31
0.0
  0
LINE
  5
185
  8
5
  6
CONTINUOUS
 10
462.6974
 20
1111.163
 30
0.0
 11
475.3693
 21
1121.064
 31
0.0
  0
LINE
  5
186
  8
5
  6
CONTINUOUS
 10
493.047
 20
1103.386
 30
0.0
 11
484.5748
 21
1089.286
 31
0.0
  0
LINE
  5
187
  8
5
  6
CONTINUOUS
 10
484.5748
 20
1089.286
 30
0.0
 11
464.9143
 21
1056.565
 31
0.0
  0
LINE
  5
188
  8
5
  6
CONTINUOUS
 10
110.7142
 20
772.9001
 30
0.0
 11
130.3747
 21
805.6207
 31
0.0
  0
LINE
  5
189
  8
5
  6
CONTINUOUS
 10
417.6445
 20
1124.093
 30
0.0
 11
418.3775
 21
1103.102
 31
0.0
  0
LINE
  5
18A
  8
5
  6
CONTINUOUS
 10
178.9445
 20
756.093
 30
0.0
 11
178.9445
 21
757.0508
 31
0.0
  0
LINE
  5
18B
  8
5
  6
CONTINUOUS
 10
475.3693
 20
1121.064
 30
0.0
 11
493.047
 21
1103.386
 31
0.0
  0
LINE
  5
18C
  8
5
  6
CONTINUOUS
 10
416.3445
 20
757.0508
 30
0.0
 11
416.3445
 21
756.093
 31
0.0
  0
LINE
  5
18D
  8
5
  6
CONTINUOUS
 10
484.5748
 20
772.9001
 30
0.0
 11
464.9143
 21
805.6207
 31
0.0
  0
LINE
  5
18E
  8
5
  6
CONTINUOUS
 10
484.5748
 20
772.9001
 30
0.0
 11
493.047
 21
758.8
 31
0.0
  0
LINE
  5
18F
  8
5
  6
CONTINUOUS
 10
176.9115
 20
1103.102
 30
0.0
 11
177.6445
 21
1124.093
 31
0.0
  0
LINE
  5
190
  8
5
  6
CONTINUOUS
 10
397.6445
 20
1126.093
 30
0.0
 11
416.3445
 21
1126.093
 31
0.0
  0
LINE
  5
191
  8
5
  6
CONTINUOUS
 10
362.1445
 20
1126.093
 30
0.0
 11
379.8945
 21
1126.093
 31
0.0
  0
LINE
  5
192
  8
5
  6
CONTINUOUS
 10
332.1445
 20
1126.093
 30
0.0
 11
347.1445
 21
1126.093
 31
0.0
  0
LINE
  5
193
  8
5
  6
CONTINUOUS
 10
297.6445
 20
1126.093
 30
0.0
 11
314.8945
 21
1126.093
 31
0.0
  0
LINE
  5
194
  8
5
  6
CONTINUOUS
 10
263.1445
 20
1126.093
 30
0.0
 11
280.3945
 21
1126.093
 31
0.0
  0
LINE
  5
195
  8
5
  6
CONTINUOUS
 10
233.1445
 20
1126.093
 30
0.0
 11
248.1445
 21
1126.093
 31
0.0
  0
LINE
  5
196
  8
5
  6
CONTINUOUS
 10
197.6445
 20
1126.093
 30
0.0
 11
215.3945
 21
1126.093
 31
0.0
  0
LINE
  5
197
  8
5
  6
CONTINUOUS
 10
379.8945
 20
1126.093
 30
0.0
 11
397.6445
 21
1126.093
 31
0.0
  0
LINE
  5
198
  8
5
  6
CONTINUOUS
 10
347.1445
 20
1126.093
 30
0.0
 11
362.1445
 21
1126.093
 31
0.0
  0
LINE
  5
199
  8
5
  6
CONTINUOUS
 10
314.8945
 20
1126.093
 30
0.0
 11
332.1445
 21
1126.093
 31
0.0
  0
LINE
  5
19A
  8
5
  6
CONTINUOUS
 10
280.3945
 20
1126.093
 30
0.0
 11
297.6445
 21
1126.093
 31
0.0
  0
LINE
  5
19B
  8
5
  6
CONTINUOUS
 10
248.1445
 20
1126.093
 30
0.0
 11
263.1445
 21
1126.093
 31
0.0
  0
LINE
  5
19C
  8
5
  6
CONTINUOUS
 10
215.3945
 20
1126.093
 30
0.0
 11
233.1445
 21
1126.093
 31
0.0
  0
LINE
  5
19D
  8
5
  6
CONTINUOUS
 10
178.9445
 20
1126.093
 30
0.0
 11
197.6445
 21
1126.093
 31
0.0
  0
LINE
  5
19E
  8
5
  6
CONTINUOUS
 10
482.9804
 20
822.0571
 30
0.0
 11
492.6445
 21
831.093
 31
0.0
  0
LINE
  5
19F
  8
5
  6
CONTINUOUS
 10
472.6445
 20
812.393
 30
0.0
 11
482.9804
 21
822.0571
 31
0.0
  0
LINE
  5
1A0
  8
5
  6
CONTINUOUS
 10
112.3086
 20
822.0571
 30
0.0
 11
121.3445
 21
812.393
 31
0.0
  0
LINE
  5
1A1
  8
5
  6
CONTINUOUS
 10
102.6445
 20
832.393
 30
0.0
 11
112.3086
 21
822.0571
 31
0.0
  0
LINE
  5
1A2
  8
5
  6
CONTINUOUS
 10
482.9804
 20
1040.129
 30
0.0
 11
472.6445
 21
1049.793
 31
0.0
  0
LINE
  5
1A3
  8
5
  6
CONTINUOUS
 10
492.6445
 20
1031.093
 30
0.0
 11
482.9804
 21
1040.129
 31
0.0
  0
LINE
  5
1A4
  8
5
  6
CONTINUOUS
 10
112.3086
 20
1040.129
 30
0.0
 11
102.6445
 21
1031.093
 31
0.0
  0
LINE
  5
1A5
  8
5
  6
CONTINUOUS
 10
122.6445
 20
1049.793
 30
0.0
 11
112.3086
 21
1040.129
 31
0.0
  0
LINE
  5
1A6
  8
5
  6
CONTINUOUS
 10
492.6445
 20
931.093
 30
0.0
 11
492.6445
 21
913.843
 31
0.0
  0
LINE
  5
1A7
  8
5
  6
CONTINUOUS
 10
492.6445
 20
965.593
 30
0.0
 11
492.6445
 21
948.343
 31
0.0
  0
LINE
  5
1A8
  8
5
  6
CONTINUOUS
 10
492.6445
 20
995.593
 30
0.0
 11
492.6445
 21
980.593
 31
0.0
  0
LINE
  5
1A9
  8
5
  6
CONTINUOUS
 10
492.6445
 20
1031.093
 30
0.0
 11
492.6445
 21
1013.343
 31
0.0
  0
LINE
  5
1AA
  8
5
  6
CONTINUOUS
 10
492.6445
 20
896.593
 30
0.0
 11
492.6445
 21
881.593
 31
0.0
  0
LINE
  5
1AB
  8
5
  6
CONTINUOUS
 10
492.6445
 20
866.593
 30
0.0
 11
492.6445
 21
848.843
 31
0.0
  0
LINE
  5
1AC
  8
5
  6
CONTINUOUS
 10
492.6445
 20
913.843
 30
0.0
 11
492.6445
 21
896.593
 31
0.0
  0
LINE
  5
1AD
  8
5
  6
CONTINUOUS
 10
492.6445
 20
948.343
 30
0.0
 11
492.6445
 21
931.093
 31
0.0
  0
LINE
  5
1AE
  8
5
  6
CONTINUOUS
 10
492.6445
 20
980.593
 30
0.0
 11
492.6445
 21
965.593
 31
0.0
  0
LINE
  5
1AF
  8
5
  6
CONTINUOUS
 10
492.6445
 20
1013.343
 30
0.0
 11
492.6445
 21
995.593
 31
0.0
  0
LINE
  5
1B0
  8
5
  6
CONTINUOUS
 10
492.6445
 20
881.593
 30
0.0
 11
492.6445
 21
866.593
 31
0.0
  0
LINE
  5
1B1
  8
5
  6
CONTINUOUS
 10
492.6445
 20
848.843
 30
0.0
 11
492.6445
 21
831.093
 31
0.0
  0
LINE
  5
1B2
  8
5
  6
CONTINUOUS
 10
102.6445
 20
848.843
 30
0.0
 11
102.6445
 21
866.593
 31
0.0
  0
LINE
  5
1B3
  8
5
  6
CONTINUOUS
 10
102.6445
 20
881.593
 30
0.0
 11
102.6445
 21
896.593
 31
0.0
  0
LINE
  5
1B4
  8
5
  6
CONTINUOUS
 10
102.6445
 20
1013.343
 30
0.0
 11
102.6445
 21
1031.093
 31
0.0
  0
LINE
  5
1B5
  8
5
  6
CONTINUOUS
 10
102.6445
 20
980.593
 30
0.0
 11
102.6445
 21
995.593
 31
0.0
  0
LINE
  5
1B6
  8
5
  6
CONTINUOUS
 10
102.6445
 20
948.343
 30
0.0
 11
102.6445
 21
965.593
 31
0.0
  0
LINE
  5
1B7
  8
5
  6
CONTINUOUS
 10
102.6445
 20
913.843
 30
0.0
 11
102.6445
 21
931.093
 31
0.0
  0
LINE
  5
1B8
  8
5
  6
CONTINUOUS
 10
102.6445
 20
866.593
 30
0.0
 11
102.6445
 21
881.593
 31
0.0
  0
LINE
  5
1B9
  8
5
  6
CONTINUOUS
 10
102.6445
 20
832.393
 30
0.0
 11
102.6445
 21
848.843
 31
0.0
  0
LINE
  5
1BA
  8
5
  6
CONTINUOUS
 10
102.6445
 20
896.593
 30
0.0
 11
102.6445
 21
913.843
 31
0.0
  0
LINE
  5
1BB
  8
5
  6
CONTINUOUS
 10
102.6445
 20
995.593
 30
0.0
 11
102.6445
 21
1013.343
 31
0.0
  0
LINE
  5
1BC
  8
5
  6
CONTINUOUS
 10
102.6445
 20
965.593
 30
0.0
 11
102.6445
 21
980.593
 31
0.0
  0
LINE
  5
1BD
  8
5
  6
CONTINUOUS
 10
102.6445
 20
931.093
 30
0.0
 11
102.6445
 21
948.343
 31
0.0
  0
LINE
  5
1BE
  8
5
  6
CONTINUOUS
 10
416.3445
 20
1126.093
 30
0.0
 11
416.3445
 21
1105.135
 31
0.0
  0
LINE
  5
1BF
  8
5
  6
CONTINUOUS
 10
161.9979
 20
773.9975
 30
0.0
 11
132.5916
 21
751.0228
 31
0.0
  0
LINE
  5
1C0
  8
5
  6
CONTINUOUS
 10
122.6445
 20
1049.793
 30
0.0
 11
123.6023
 21
1049.793
 31
0.0
  0
LINE
  5
1C1
  8
5
  6
CONTINUOUS
 10
132.5916
 20
751.0228
 30
0.0
 11
119.9196
 21
741.1224
 31
0.0
  0
LINE
  5
1C2
  8
5
  6
CONTINUOUS
 10
119.9196
 20
741.1224
 30
0.0
 11
102.242
 21
758.8
 31
0.0
  0
LINE
  5
1C3
  8
5
  6
CONTINUOUS
 10
471.6867
 20
1049.793
 30
0.0
 11
472.6445
 21
1049.793
 31
0.0
  0
ARC
  5
1C4
  8
5
  6
CONTINUOUS
 10
297.6445
 20
931.093
 30
0.0
 40
200.0
 50
347.5253
 51
12.4047
  0
ARC
  5
1C5
  8
5
  6
CONTINUOUS
 10
297.6445
 20
931.093
 30
0.0
 40
200.0
 50
257.1614
 51
282.8386
  0
LINE
  5
1C6
  8
5
  6
CONTINUOUS
 10
102.242
 20
1103.386
 30
0.0
 11
119.9196
 21
1121.064
 31
0.0
  0
LINE
  5
1C7
  8
5
  6
CONTINUOUS
 10
438.1444
 20
1302.393
 30
0.0
 11
443.1445
 21
1161.393
 31
0.0
  0
LINE
  5
1C8
  8
5
  6
CONTINUOUS
 10
157.1445
 20
1302.393
 30
0.0
 11
157.1445
 21
1314.393
 31
0.0
  0
LINE
  5
1C9
  8
5
  6
CONTINUOUS
 10
178.9445
 20
1105.135
 30
0.0
 11
178.9445
 21
1126.093
 31
0.0
  0
LINE
  5
1CA
  8
5
  6
CONTINUOUS
 10
110.7142
 20
1089.286
 30
0.0
 11
130.3747
 21
1056.565
 31
0.0
  0
LINE
  5
1CB
  8
5
  6
CONTINUOUS
 10
438.1445
 20
1314.393
 30
0.0
 11
438.1444
 21
1302.393
 31
0.0
  0
LINE
  5
1CC
  8
5
  6
CONTINUOUS
 10
110.7142
 20
1089.286
 30
0.0
 11
102.242
 21
1103.386
 31
0.0
  0
LINE
  5
1CD
  8
5
  6
CONTINUOUS
 10
119.9196
 20
1121.064
 30
0.0
 11
132.5916
 21
1111.163
 31
0.0
  0
LINE
  5
1CE
  8
5
  6
CONTINUOUS
 10
178.9445
 20
1125.793
 30
0.0
 11
152.6445
 21
1152.093
 31
0.0
  0
LINE
  5
1CF
  8
5
  6
CONTINUOUS
 10
161.9979
 20
1088.189
 30
0.0
 11
132.5916
 21
1111.163
 31
0.0
  0
CIRCLE
  5
1D0
  8
5
  6
CONTINUOUS
 10
297.6445
 20
931.093
 30
0.0
 40
128.0
  0
LINE
  5
1D1
  8
5
  6
CONTINUOUS
 10
104.6445
 20
831.3508
 30
0.0
 11
197.9023
 21
738.093
 31
0.0
  0
LINE
  5
1D2
  8
5
  6
CONTINUOUS
 10
197.9023
 20
738.093
 30
0.0
 11
397.3867
 21
738.093
 31
0.0
  0
LINE
  5
1D3
  8
5
  6
CONTINUOUS
 10
397.3867
 20
738.093
 30
0.0
 11
490.6445
 21
831.3508
 31
0.0
  0
LINE
  5
1D4
  8
5
  6
CONTINUOUS
 10
490.6445
 20
831.3508
 30
0.0
 11
490.6445
 21
1030.835
 31
0.0
  0
LINE
  5
1D5
  8
5
  6
CONTINUOUS
 10
490.6445
 20
1030.835
 30
0.0
 11
397.3867
 21
1124.093
 31
0.0
  0
LINE
  5
1D6
  8
5
  6
CONTINUOUS
 10
397.3867
 20
1124.093
 30
0.0
 11
197.9023
 21
1124.093
 31
0.0
  0
LINE
  5
1D7
  8
5
  6
CONTINUOUS
 10
197.9023
 20
1124.093
 30
0.0
 11
104.6445
 21
1030.835
 31
0.0
  0
LINE
  5
1D8
  8
5
  6
CONTINUOUS
 10
104.6445
 20
831.3508
 30
0.0
 11
104.6445
 21
1030.835
 31
0.0
  0
LINE
  5
1D9
  8
5
  6
CONTINUOUS
 10
199.145
 20
1121.093
 30
0.0
 11
107.6445
 21
1029.593
 31
0.0
  0
LINE
  5
1DA
  8
5
  6
CONTINUOUS
 10
396.1441
 20
1121.093
 30
0.0
 11
199.145
 21
1121.093
 31
0.0
  0
LINE
  5
1DB
  8
5
  6
CONTINUOUS
 10
487.6445
 20
1029.593
 30
0.0
 11
396.1441
 21
1121.093
 31
0.0
  0
LINE
  5
1DC
  8
5
  6
CONTINUOUS
 10
487.6445
 20
832.5934
 30
0.0
 11
487.6445
 21
1029.593
 31
0.0
  0
LINE
  5
1DD
  8
5
  6
CONTINUOUS
 10
396.1441
 20
741.093
 30
0.0
 11
487.6445
 21
832.5934
 31
0.0
  0
LINE
  5
1DE
  8
5
  6
CONTINUOUS
 10
199.145
 20
741.093
 30
0.0
 11
396.1441
 21
741.093
 31
0.0
  0
LINE
  5
1DF
  8
5
  6
CONTINUOUS
 10
107.6445
 20
832.5934
 30
0.0
 11
199.145
 21
741.093
 31
0.0
  0
LINE
  5
1E0
  8
5
  6
CONTINUOUS
 10
107.6445
 20
832.5934
 30
0.0
 11
107.6445
 21
1029.593
 31
0.0
  0
LINE
  5
1E1
  8
5
  6
CONTINUOUS
 10
442.6445
 20
1152.093
 30
0.0
 11
416.3445
 21
1125.793
 31
0.0
  0
LINE
  5
1E2
  8
5
  6
CONTINUOUS
 10
416.3445
 20
1124.093
 30
0.0
 11
417.6445
 21
1124.093
 31
0.0
  0
LINE
  5
1E3
  8
5
  6
CONTINUOUS
 10
177.6445
 20
1124.093
 30
0.0
 11
178.9445
 21
1124.093
 31
0.0
  0
LINE
  5
1E4
  8
5
  6
CONTINUOUS
 10
152.6444
 20
1152.093
 30
0.0
 11
442.6445
 21
1152.093
 31
0.0
  0
LINE
  5
1E5
  8
5
  6
CONTINUOUS
 10
300.5923
 20
1344.393
 30
0.0
 11
300.5923
 21
1347.093
 31
0.0
  0
LINE
  5
1E6
  8
5
  6
CONTINUOUS
 10
309.0946
 20
1344.393
 30
0.0
 11
309.0947
 21
1347.093
 31
0.0
  0
LINE
  5
1E7
  8
5
  6
CONTINUOUS
 10
289.2408
 20
1344.393
 30
0.0
 11
289.2408
 21
1347.093
 31
0.0
  0
LINE
  5
1E8
  8
5
  6
CONTINUOUS
 10
383.1445
 20
1314.082
 30
0.0
 11
212.1444
 21
1314.082
 31
0.0
  0
LINE
  5
1E9
  8
5
  6
CONTINUOUS
 10
385.6444
 20
1314.393
 30
0.0
 11
385.6525
 21
1344.393
 31
0.0
  0
LINE
  5
1EA
  8
5
  6
CONTINUOUS
 10
209.6444
 20
1344.393
 30
0.0
 11
209.6446
 21
1314.393
 31
0.0
  0
LINE
  5
1EB
  8
5
  6
CONTINUOUS
 10
438.1444
 20
1302.393
 30
0.0
 11
157.1445
 21
1302.393
 31
0.0
  0
ARC
  5
1EC
  8
5
  6
CONTINUOUS
 10
297.6445
 20
931.093
 30
0.0
 40
200.0
 50
167.5953
 51
192.4805
  0
LINE
  5
1ED
  8
5
  6
CONTINUOUS
 10
87.64449
 20
837.508
 30
0.0
 11
87.64449
 21
836.008
 31
0.0
  0
LINE
  5
1EE
  8
5
  6
CONTINUOUS
 10
87.64449
 20
836.008
 30
0.0
 11
87.64449
 21
834.508
 31
0.0
  0
LINE
  5
1EF
  8
5
  6
CONTINUOUS
 10
397.6445
 20
736.093
 30
0.0
 11
379.8945
 21
736.093
 31
0.0
  0
LINE
  5
1F0
  8
5
  6
CONTINUOUS
 10
362.1445
 20
736.093
 30
0.0
 11
347.1445
 21
736.093
 31
0.0
  0
LINE
  5
1F1
  8
5
  6
CONTINUOUS
 10
332.1445
 20
736.093
 30
0.0
 11
314.8945
 21
736.093
 31
0.0
  0
LINE
  5
1F2
  8
5
  6
CONTINUOUS
 10
233.1445
 20
736.093
 30
0.0
 11
215.3945
 21
736.093
 31
0.0
  0
LINE
  5
1F3
  8
5
  6
CONTINUOUS
 10
263.1445
 20
736.093
 30
0.0
 11
248.1445
 21
736.093
 31
0.0
  0
LINE
  5
1F4
  8
5
  6
CONTINUOUS
 10
297.6445
 20
736.093
 30
0.0
 11
280.3945
 21
736.093
 31
0.0
  0
LINE
  5
1F5
  8
5
  6
CONTINUOUS
 10
805.4022
 20
467.8654
 30
0.0
 11
805.4021
 21
440.3437
 31
0.0
  0
LINE
  5
1F6
  8
5
  6
CONTINUOUS
 10
805.4021
 20
228.2116
 30
0.0
 11
805.4022
 21
200.6899
 31
0.0
  0
LINE
  5
1F7
  8
5
  6
CONTINUOUS
 10
1154.089
 20
139.2777
 30
0.0
 11
1106.848
 21
139.2777
 31
0.0
  0
LINE
  5
1F8
  8
5
  6
CONTINUOUS
 10
1114.902
 20
234.2777
 30
0.0
 11
1114.902
 21
252.0276
 31
0.0
  0
LINE
  5
1F9
  8
5
  6
CONTINUOUS
 10
1114.902
 20
269.7777
 30
0.0
 11
1114.902
 21
284.7777
 31
0.0
  0
LINE
  5
1FA
  8
5
  6
CONTINUOUS
 10
1114.902
 20
299.7778
 30
0.0
 11
1114.902
 21
317.0277
 31
0.0
  0
LINE
  5
1FB
  8
5
  6
CONTINUOUS
 10
1114.902
 20
334.2777
 30
0.0
 11
1114.902
 21
351.5276
 31
0.0
  0
LINE
  5
1FC
  8
5
  6
CONTINUOUS
 10
1114.902
 20
368.7777
 30
0.0
 11
1114.902
 21
383.7776
 31
0.0
  0
LINE
  5
1FD
  8
5
  6
CONTINUOUS
 10
1114.902
 20
398.7777
 30
0.0
 11
1114.902
 21
416.5277
 31
0.0
  0
LINE
  5
1FE
  8
5
  6
CONTINUOUS
 10
1114.902
 20
434.2776
 30
0.0
 11
1114.902
 21
452.9777
 31
0.0
  0
LINE
  5
1FF
  8
5
  6
CONTINUOUS
 10
1114.902
 20
215.5777
 30
0.0
 11
1114.902
 21
234.2777
 31
0.0
  0
LINE
  5
200
  8
5
  6
CONTINUOUS
 10
1114.902
 20
252.0276
 30
0.0
 11
1114.902
 21
269.7777
 31
0.0
  0
LINE
  5
201
  8
5
  6
CONTINUOUS
 10
1114.902
 20
284.7777
 30
0.0
 11
1114.902
 21
299.7778
 31
0.0
  0
LINE
  5
202
  8
5
  6
CONTINUOUS
 10
1114.902
 20
317.0277
 30
0.0
 11
1114.902
 21
334.2777
 31
0.0
  0
LINE
  5
203
  8
5
  6
CONTINUOUS
 10
1114.902
 20
351.5276
 30
0.0
 11
1114.902
 21
368.7777
 31
0.0
  0
LINE
  5
204
  8
5
  6
CONTINUOUS
 10
1114.902
 20
383.7776
 30
0.0
 11
1114.902
 21
398.7777
 31
0.0
  0
LINE
  5
205
  8
5
  6
CONTINUOUS
 10
1114.902
 20
416.5277
 30
0.0
 11
1114.902
 21
434.2776
 31
0.0
  0
LINE
  5
206
  8
5
  6
CONTINUOUS
 10
823.902
 20
137.7777
 30
0.0
 11
1102.902
 21
137.7777
 31
0.0
  0
LINE
  5
207
  8
5
  6
CONTINUOUS
 10
819.9559
 20
137.7777
 30
0.0
 11
823.902
 21
137.7777
 31
0.0
  0
LINE
  5
208
  8
5
  6
CONTINUOUS
 10
1106.848
 20
137.7777
 30
0.0
 11
1102.902
 21
137.7777
 31
0.0
  0
LINE
  5
209
  8
5
  6
CONTINUOUS
 10
925.3957
 20
353.1808
 30
0.0
 11
919.2954
 21
335.3968
 31
0.0
  0
LINE
  5
20A
  8
5
  6
CONTINUOUS
 10
919.2954
 20
335.3968
 30
0.0
 11
929.5342
 21
335.3971
 31
0.0
  0
LINE
  5
20B
  8
5
  6
CONTINUOUS
 10
379.8945
 20
736.093
 30
0.0
 11
362.1445
 21
736.093
 31
0.0
  0
LINE
  5
20C
  8
5
  6
CONTINUOUS
 10
347.1445
 20
736.093
 30
0.0
 11
332.1445
 21
736.093
 31
0.0
  0
LINE
  5
20D
  8
5
  6
CONTINUOUS
 10
314.8945
 20
736.093
 30
0.0
 11
297.6445
 21
736.093
 31
0.0
  0
LINE
  5
20E
  8
5
  6
CONTINUOUS
 10
248.1445
 20
736.093
 30
0.0
 11
233.1445
 21
736.093
 31
0.0
  0
LINE
  5
20F
  8
5
  6
CONTINUOUS
 10
215.3945
 20
736.093
 30
0.0
 11
197.6445
 21
736.093
 31
0.0
  0
LINE
  5
210
  8
5
  6
CONTINUOUS
 10
280.3945
 20
736.093
 30
0.0
 11
263.1445
 21
736.093
 31
0.0
  0
LINE
  5
211
  8
5
  6
CONTINUOUS
 10
188.6086
 20
745.7571
 30
0.0
 11
197.6445
 21
736.093
 31
0.0
  0
LINE
  5
212
  8
5
  6
CONTINUOUS
 10
179.1445
 20
755.8791
 30
0.0
 11
188.6086
 21
745.7571
 31
0.0
  0
LINE
  5
213
  8
5
  6
CONTINUOUS
 10
178.9445
 20
756.093
 30
0.0
 11
179.1445
 21
755.8791
 31
0.0
  0
LINE
  5
214
  8
5
  6
CONTINUOUS
 10
406.6804
 20
745.7571
 30
0.0
 11
416.3445
 21
756.093
 31
0.0
  0
LINE
  5
215
  8
5
  6
CONTINUOUS
 10
397.6445
 20
736.093
 30
0.0
 11
406.6804
 21
745.7571
 31
0.0
  0
LINE
  5
216
  8
5
  6
CONTINUOUS
 10
493.047
 20
758.8
 30
0.0
 11
475.3693
 21
741.1224
 31
0.0
  0
LINE
  5
217
  8
5
  6
CONTINUOUS
 10
475.3693
 20
741.1224
 30
0.0
 11
462.6974
 21
751.0228
 31
0.0
  0
LINE
  5
218
  8
5
  6
CONTINUOUS
 10
433.2911
 20
773.9975
 30
0.0
 11
462.6974
 21
751.0228
 31
0.0
  0
LINE
  5
219
  8
5
  6
CONTINUOUS
 10
110.7142
 20
772.9001
 30
0.0
 11
132.5916
 21
751.0228
 31
0.0
  0
LINE
  5
21A
  8
5
  6
CONTINUOUS
 10
179.1445
 20
756.8508
 30
0.0
 11
179.1445
 21
755.8791
 31
0.0
  0
LINE
  5
21B
  8
5
  6
CONTINUOUS
 10
188.6086
 20
745.7571
 30
0.0
 11
189.4234
 21
746.5719
 31
0.0
  0
LINE
  5
21C
  8
5
  6
CONTINUOUS
 10
406.6804
 20
745.7571
 30
0.0
 11
405.8656
 21
746.5719
 31
0.0
  0
LINE
  5
21D
  8
5
  6
CONTINUOUS
 10
462.6974
 20
751.0228
 30
0.0
 11
484.5748
 21
772.9001
 31
0.0
  0
LINE
  5
21E
  8
5
  6
CONTINUOUS
 10
102.6445
 20
837.508
 30
0.0
 11
87.64449
 21
837.508
 31
0.0
  0
LINE
  5
21F
  8
5
  6
CONTINUOUS
 10
87.64449
 20
834.508
 30
0.0
 11
102.6445
 21
834.508
 31
0.0
  0
LINE
  5
220
  8
5
  6
CONTINUOUS
 10
397.6445
 20
736.093
 30
0.0
 11
397.6445
 21
738.3508
 31
0.0
  0
LINE
  5
221
  8
5
  6
CONTINUOUS
 10
379.8945
 20
738.093
 30
0.0
 11
379.8945
 21
736.093
 31
0.0
  0
LINE
  5
222
  8
5
  6
CONTINUOUS
 10
197.6444
 20
736.093
 30
0.0
 11
197.6445
 21
738.3508
 31
0.0
  0
LINE
  5
223
  8
5
  6
CONTINUOUS
 10
215.3945
 20
736.093
 30
0.0
 11
215.3945
 21
738.093
 31
0.0
  0
LINE
  5
224
  8
5
  6
CONTINUOUS
 10
280.3945
 20
738.093
 30
0.0
 11
280.3945
 21
736.093
 31
0.0
  0
LINE
  5
225
  8
5
  6
CONTINUOUS
 10
297.6445
 20
736.093
 30
0.0
 11
297.6445
 21
738.093
 31
0.0
  0
LINE
  5
226
  8
5
  6
CONTINUOUS
 10
248.1445
 20
738.093
 30
0.0
 11
248.1445
 21
736.093
 31
0.0
  0
LINE
  5
227
  8
5
  6
CONTINUOUS
 10
263.1444
 20
736.093
 30
0.0
 11
263.1445
 21
738.093
 31
0.0
  0
LINE
  5
228
  8
5
  6
CONTINUOUS
 10
233.1445
 20
736.093
 30
0.0
 11
233.1445
 21
738.093
 31
0.0
  0
LINE
  5
229
  8
5
  6
CONTINUOUS
 10
314.8945
 20
738.093
 30
0.0
 11
314.8944
 21
736.093
 31
0.0
  0
LINE
  5
22A
  8
5
  6
CONTINUOUS
 10
332.1445
 20
736.093
 30
0.0
 11
332.1445
 21
738.093
 31
0.0
  0
LINE
  5
22B
  8
5
  6
CONTINUOUS
 10
347.1445
 20
738.093
 30
0.0
 11
347.1444
 21
736.093
 31
0.0
  0
LINE
  5
22C
  8
5
  6
CONTINUOUS
 10
362.1445
 20
736.093
 30
0.0
 11
362.1445
 21
738.093
 31
0.0
  0
LINE
  5
22D
  8
5
  6
CONTINUOUS
 10
650.4021
 20
361.7777
 30
0.0
 11
650.4021
 21
306.7777
 31
0.0
  0
LINE
  5
22E
  8
5
  6
CONTINUOUS
 10
745.4021
 20
342.2777
 30
0.0
 11
663.4021
 21
342.2777
 31
0.0
  0
LINE
  5
22F
  8
5
  6
CONTINUOUS
 10
837.7327
 20
492.8277
 30
0.0
 11
837.0553
 21
487.5394
 31
0.0
  0
LINE
  5
230
  8
5
  6
CONTINUOUS
 10
929.5342
 20
335.3971
 30
0.0
 11
929.5334
 21
353.181
 31
0.0
  0
LINE
  5
231
  8
5
  6
CONTINUOUS
 10
929.5334
 20
353.181
 30
0.0
 11
925.3957
 21
353.1808
 31
0.0
  0
LINE
  5
232
  8
5
  6
CONTINUOUS
 10
929.5343
 20
333.8972
 30
0.0
 11
929.5343
 21
333.8972
 31
0.0
  0
LINE
  5
233
  8
5
  6
CONTINUOUS
 10
484.5748
 20
1089.286
 30
0.0
 11
462.6974
 21
1111.163
 31
0.0
  0
LINE
  5
234
  8
5
  6
CONTINUOUS
 10
837.7327
 20
492.8277
 30
0.0
 11
837.7327
 21
484.7675
 31
0.0
  0
LINE
  5
235
  8
5
  6
CONTINUOUS
 10
197.6444
 20
1126.093
 30
0.0
 11
197.6445
 21
1123.835
 31
0.0
  0
LINE
  5
236
  8
5
  6
CONTINUOUS
 10
929.5348
 20
322.9623
 30
0.0
 11
929.5343
 21
333.8972
 31
0.0
  0
LINE
  5
237
  8
5
  6
CONTINUOUS
 10
215.3945
 20
1124.093
 30
0.0
 11
215.3945
 21
1126.093
 31
0.0
  0
LINE
  5
238
  8
5
  6
CONTINUOUS
 10
397.6445
 20
1126.093
 30
0.0
 11
397.6445
 21
1123.835
 31
0.0
  0
LINE
  5
239
  8
5
  6
CONTINUOUS
 10
405.8656
 20
1115.614
 30
0.0
 11
416.3445
 21
1126.093
 31
0.0
  0
LINE
  5
23A
  8
5
  6
CONTINUOUS
 10
189.4234
 20
1115.614
 30
0.0
 11
178.9445
 21
1126.093
 31
0.0
  0
LINE
  5
23B
  8
5
  6
CONTINUOUS
 10
379.8945
 20
1126.093
 30
0.0
 11
379.8945
 21
1124.093
 31
0.0
  0
LINE
  5
23C
  8
5
  6
CONTINUOUS
 10
929.5343
 20
333.8972
 30
0.0
 11
918.7808
 21
333.8967
 31
0.0
  0
LINE
  5
23D
  8
5
  6
CONTINUOUS
 10
248.1445
 20
1124.093
 30
0.0
 11
248.1445
 21
1126.093
 31
0.0
  0
LINE
  5
23E
  8
5
  6
CONTINUOUS
 10
233.1445
 20
1126.093
 30
0.0
 11
233.1445
 21
1124.093
 31
0.0
  0
LINE
  5
23F
  8
5
  6
CONTINUOUS
 10
280.3945
 20
1124.093
 30
0.0
 11
280.3945
 21
1126.093
 31
0.0
  0
LINE
  5
240
  8
5
  6
CONTINUOUS
 10
263.1445
 20
1126.093
 30
0.0
 11
263.1445
 21
1124.093
 31
0.0
  0
LINE
  5
241
  8
5
  6
CONTINUOUS
 10
314.8945
 20
1124.093
 30
0.0
 11
314.8945
 21
1126.093
 31
0.0
  0
LINE
  5
242
  8
5
  6
CONTINUOUS
 10
297.6445
 20
1126.093
 30
0.0
 11
297.6445
 21
1124.093
 31
0.0
  0
LINE
  5
243
  8
5
  6
CONTINUOUS
 10
347.1445
 20
1124.093
 30
0.0
 11
347.1445
 21
1126.093
 31
0.0
  0
LINE
  5
244
  8
5
  6
CONTINUOUS
 10
332.1445
 20
1126.093
 30
0.0
 11
332.1445
 21
1124.093
 31
0.0
  0
LINE
  5
245
  8
5
  6
CONTINUOUS
 10
362.1445
 20
1126.093
 30
0.0
 11
362.1445
 21
1124.093
 31
0.0
  0
LINE
  5
246
  8
5
  6
CONTINUOUS
 10
1597.23
 20
1076.884
 30
0.0
 11
1597.23
 21
1076.884
 31
0.0
  0
LINE
  5
247
  8
5
  6
CONTINUOUS
 10
918.7808
 20
333.8967
 30
0.0
 11
912.394
 21
315.2777
 31
0.0
  0
LINE
  5
248
  8
5
  6
CONTINUOUS
 10
490.6445
 20
1013.343
 30
0.0
 11
492.6445
 21
1013.343
 31
0.0
  0
LINE
  5
249
  8
5
  6
CONTINUOUS
 10
492.6445
 20
1031.093
 30
0.0
 11
490.3867
 21
1031.093
 31
0.0
  0
LINE
  5
24A
  8
5
  6
CONTINUOUS
 10
482.9804
 20
1040.129
 30
0.0
 11
482.1656
 21
1039.314
 31
0.0
  0
LINE
  5
24B
  8
5
  6
CONTINUOUS
 10
492.6444
 20
848.843
 30
0.0
 11
490.6445
 21
848.843
 31
0.0
  0
LINE
  5
24C
  8
5
  6
CONTINUOUS
 10
482.1656
 20
822.8719
 30
0.0
 11
482.9804
 21
822.0571
 31
0.0
  0
LINE
  5
24D
  8
5
  6
CONTINUOUS
 10
490.6445
 20
913.843
 30
0.0
 11
492.6444
 21
913.8431
 31
0.0
  0
LINE
  5
24E
  8
5
  6
CONTINUOUS
 10
492.6444
 20
931.0931
 30
0.0
 11
490.6445
 21
931.093
 31
0.0
  0
LINE
  5
24F
  8
5
  6
CONTINUOUS
 10
912.394
 20
315.2777
 30
0.0
 11
918.7247
 21
315.2779
 31
0.0
  0
LINE
  5
250
  8
5
  6
CONTINUOUS
 10
490.6445
 20
948.343
 30
0.0
 11
492.6444
 21
948.343
 31
0.0
  0
LINE
  5
251
  8
5
  6
CONTINUOUS
 10
492.6445
 20
965.593
 30
0.0
 11
490.6445
 21
965.593
 31
0.0
  0
LINE
  5
252
  8
5
  6
CONTINUOUS
 10
490.6445
 20
980.593
 30
0.0
 11
492.6445
 21
980.593
 31
0.0
  0
LINE
  5
253
  8
5
  6
CONTINUOUS
 10
492.6445
 20
995.593
 30
0.0
 11
490.6445
 21
995.593
 31
0.0
  0
LINE
  5
254
  8
5
  6
CONTINUOUS
 10
490.6445
 20
881.593
 30
0.0
 11
492.6444
 21
881.5931
 31
0.0
  0
LINE
  5
255
  8
5
  6
CONTINUOUS
 10
492.6444
 20
896.593
 30
0.0
 11
490.6445
 21
896.593
 31
0.0
  0
LINE
  5
256
  8
5
  6
CONTINUOUS
 10
492.6444
 20
866.5931
 30
0.0
 11
490.6445
 21
866.593
 31
0.0
  0
LINE
  5
257
  8
5
  6
CONTINUOUS
 10
102.6446
 20
1013.343
 30
0.0
 11
104.6445
 21
1013.343
 31
0.0
  0
LINE
  5
258
  8
5
  6
CONTINUOUS
 10
104.9023
 20
1031.093
 30
0.0
 11
102.6446
 21
1031.093
 31
0.0
  0
LINE
  5
259
  8
5
  6
CONTINUOUS
 10
112.3086
 20
1040.129
 30
0.0
 11
113.1234
 21
1039.314
 31
0.0
  0
LINE
  5
25A
  8
5
  6
CONTINUOUS
 10
104.6445
 20
848.843
 30
0.0
 11
102.6446
 21
848.843
 31
0.0
  0
LINE
  5
25B
  8
5
  6
CONTINUOUS
 10
112.3086
 20
822.0571
 30
0.0
 11
113.1234
 21
822.8719
 31
0.0
  0
LINE
  5
25C
  8
5
  6
CONTINUOUS
 10
104.6445
 20
931.093
 30
0.0
 11
102.6446
 21
931.0931
 31
0.0
  0
LINE
  5
25D
  8
5
  6
CONTINUOUS
 10
102.6446
 20
913.8431
 30
0.0
 11
104.6445
 21
913.843
 31
0.0
  0
LINE
  5
25E
  8
5
  6
CONTINUOUS
 10
104.6445
 20
965.593
 30
0.0
 11
102.6446
 21
965.593
 31
0.0
  0
LINE
  5
25F
  8
5
  6
CONTINUOUS
 10
102.6446
 20
948.343
 30
0.0
 11
104.6445
 21
948.343
 31
0.0
  0
LINE
  5
260
  8
5
  6
CONTINUOUS
 10
104.6445
 20
995.593
 30
0.0
 11
102.6446
 21
995.5931
 31
0.0
  0
LINE
  5
261
  8
5
  6
CONTINUOUS
 10
102.6446
 20
980.593
 30
0.0
 11
104.6445
 21
980.593
 31
0.0
  0
LINE
  5
262
  8
5
  6
CONTINUOUS
 10
104.6445
 20
896.593
 30
0.0
 11
102.6446
 21
896.593
 31
0.0
  0
LINE
  5
263
  8
5
  6
CONTINUOUS
 10
102.6446
 20
881.5931
 30
0.0
 11
104.6445
 21
881.593
 31
0.0
  0
LINE
  5
264
  8
5
  6
CONTINUOUS
 10
104.6445
 20
866.593
 30
0.0
 11
102.6446
 21
866.5931
 31
0.0
  0
ARC
  5
265
  8
5
  6
CONTINUOUS
 10
663.4021
 20
334.2777
 30
0.0
 40
8.0
 50
90.0
 51
270.0
  0
LINE
  5
266
  8
5
  6
CONTINUOUS
 10
663.4021
 20
326.2777
 30
0.0
 11
745.4021
 21
326.2777
 31
0.0
  0
ARC
  5
267
  8
5
  6
CONTINUOUS
 10
745.4021
 20
334.2777
 30
0.0
 40
8.0
 50
270.0
 51
90.0
  0
LINE
  5
268
  8
5
  6
CONTINUOUS
 10
760.4021
 20
334.2777
 30
0.0
 11
760.4021
 21
534.2777
 31
0.0
  0
LINE
  5
269
  8
5
  6
CONTINUOUS
 10
760.4021
 20
134.2777
 30
0.0
 11
760.4021
 21
334.2777
 31
0.0
  0
LINE
  5
26A
  8
5
  6
CONTINUOUS
 10
755.4021
 20
334.2777
 30
0.0
 11
755.4021
 21
184.2777
 31
0.0
  0
LINE
  5
26B
  8
5
  6
CONTINUOUS
 10
755.4021
 20
484.2777
 30
0.0
 11
755.4021
 21
334.2777
 31
0.0
  0
LINE
  5
26C
  8
5
  6
CONTINUOUS
 10
777.9021
 20
124.2777
 30
0.0
 11
780.9021
 21
124.2777
 31
0.0
  0
LINE
  5
26D
  8
5
  6
CONTINUOUS
 10
775.4021
 20
239.1307
 30
0.0
 11
805.4021
 21
228.2116
 31
0.0
  0
LINE
  5
26E
  8
5
  6
CONTINUOUS
 10
805.4021
 20
440.3437
 30
0.0
 11
775.4021
 21
429.4246
 31
0.0
  0
LINE
  5
26F
  8
5
  6
CONTINUOUS
 10
775.4021
 20
334.2777
 30
0.0
 11
775.4021
 21
534.2777
 31
0.0
  0
LINE
  5
270
  8
5
  6
CONTINUOUS
 10
775.4021
 20
134.2777
 30
0.0
 11
775.4021
 21
334.2777
 31
0.0
  0
LINE
  5
271
  8
5
  6
CONTINUOUS
 10
831.902
 20
505.7777
 30
0.0
 11
775.402
 21
503.8047
 31
0.0
  0
LINE
  5
272
  8
5
  6
CONTINUOUS
 10
831.902
 20
505.7777
 30
0.0
 11
831.9021
 21
479.7777
 31
0.0
  0
LINE
  5
273
  8
5
  6
CONTINUOUS
 10
775.402
 20
164.7506
 30
0.0
 11
819.9559
 21
163.1948
 31
0.0
  0
LINE
  5
274
  8
5
  6
CONTINUOUS
 10
1214.715
 20
529.2777
 30
0.0
 11
1213.902
 21
529.6802
 31
0.0
  0
LINE
  5
275
  8
5
  6
CONTINUOUS
 10
1213.902
 20
529.6802
 30
0.0
 11
1154.902
 21
529.6802
 31
0.0
  0
LINE
  5
276
  8
5
  6
CONTINUOUS
 10
1154.902
 20
529.6802
 30
0.0
 11
1154.089
 21
529.2777
 31
0.0
  0
LINE
  5
277
  8
5
  6
CONTINUOUS
 10
650.402
 20
306.7776
 30
0.0
 11
755.4021
 21
306.7777
 31
0.0
  0
LINE
  5
278
  8
5
  6
CONTINUOUS
 10
755.4021
 20
361.7777
 30
0.0
 11
650.402
 21
361.7777
 31
0.0
  0
LINE
  5
279
  8
5
  6
CONTINUOUS
 10
755.402
 20
184.2777
 30
0.0
 11
760.4021
 21
184.2777
 31
0.0
  0
LINE
  5
27A
  8
5
  6
CONTINUOUS
 10
132.5916
 20
1111.163
 30
0.0
 11
110.7142
 21
1089.286
 31
0.0
  0
LINE
  5
27B
  8
5
  6
CONTINUOUS
 10
760.4021
 20
484.2776
 30
0.0
 11
755.402
 21
484.2776
 31
0.0
  0
CIRCLE
  5
27C
  8
5
  6
CONTINUOUS
 10
297.6445
 20
931.093
 30
0.0
 40
179.5
  0
LINE
  5
27D
  8
5
  6
CONTINUOUS
 10
777.9021
 20
164.6634
 30
0.0
 11
777.9021
 21
124.2776
 31
0.0
  0
LINE
  5
27E
  8
5
  6
CONTINUOUS
 10
780.902
 20
124.2776
 30
0.0
 11
780.9021
 21
164.5586
 31
0.0
  0
LINE
  5
27F
  8
5
  6
CONTINUOUS
 10
760.4021
 20
134.2777
 30
0.0
 11
775.4021
 21
134.2777
 31
0.0
  0
LINE
  5
280
  8
5
  6
CONTINUOUS
 10
775.4021
 20
534.2777
 30
0.0
 11
760.4021
 21
534.2777
 31
0.0
  0
LINE
  5
281
  8
5
  6
CONTINUOUS
 10
1254.402
 20
505.7777
 30
0.0
 11
1249.412
 21
505.7777
 31
0.0
  0
LINE
  5
282
  8
5
  6
CONTINUOUS
 10
1249.412
 20
162.7776
 30
0.0
 11
1254.402
 21
162.7776
 31
0.0
  0
LINE
  5
283
  8
5
  6
CONTINUOUS
 10
839.3916
 20
505.7777
 30
0.0
 11
831.902
 21
505.7777
 31
0.0
  0
LINE
  5
284
  8
5
  6
CONTINUOUS
 10
1963.639
 20
772.9002
 30
0.0
 11
1939.909
 21
812.3931
 31
0.0
  0
LINE
  5
285
  8
5
  6
CONTINUOUS
 10
1963.639
 20
772.9002
 30
0.0
 11
1972.111
 21
758.8001
 31
0.0
  0
LINE
  5
287
  8
5
  6
CONTINUOUS
 10
1895.409
 20
770.1263
 30
0.0
 11
1895.409
 21
756.0931
 31
0.0
  0
LINE
  5
288
  8
5
  6
CONTINUOUS
 10
1658.009
 20
756.0931
 30
0.0
 11
1658.009
 21
770.1263
 31
0.0
  0
LINE
  5
28A
  8
5
  6
CONTINUOUS
 10
1581.306
 20
758.8001
 30
0.0
 11
1589.778
 21
772.9002
 31
0.0
  0
LINE
  5
28B
  8
5
  6
CONTINUOUS
 10
1589.778
 20
772.9002
 30
0.0
 11
1613.508
 21
812.3931
 31
0.0
  0
LINE
  5
28D
  8
5
  6
CONTINUOUS
 10
1615.742
 20
812.3931
 30
0.0
 11
1601.709
 21
812.3931
 31
0.0
  0
LINE
  5
28E
  8
5
  6
CONTINUOUS
 10
1954.434
 20
741.1224
 30
0.0
 11
1941.762
 21
751.0228
 31
0.0
  0
LINE
  5
28F
  8
5
  6
CONTINUOUS
 10
1906.282
 20
778.7424
 30
0.0
 11
1941.762
 21
751.0228
 31
0.0
  0
LINE
  5
290
  8
5
  6
CONTINUOUS
 10
1972.111
 20
758.8001
 30
0.0
 11
1954.434
 21
741.1224
 31
0.0
  0
ARC
  5
291
  8
5
  6
CONTINUOUS
 10
1776.709
 20
931.093
 30
0.0
 40
30.0
 50
105.466
 51
0.0
  0
ARC
  5
292
  8
5
  6
CONTINUOUS
 10
1776.709
 20
931.093
 30
0.0
 40
30.0
 50
0.0
 51
74.53398
  0
LINE
  5
293
  8
5
  6
CONTINUOUS
 10
1768.709
 20
962.5931
 30
0.0
 11
1784.709
 21
962.5931
 31
0.0
  0
CIRCLE
  5
294
  8
5
  6
CONTINUOUS
 10
1776.709
 20
931.093
 30
0.0
 40
27.5
  0
LINE
  5
295
  8
5
  6
CONTINUOUS
 10
1768.709
 20
962.5931
 30
0.0
 11
1768.709
 21
957.4037
 31
0.0
  0
LINE
  5
296
  8
5
  6
CONTINUOUS
 10
1784.709
 20
962.5931
 30
0.0
 11
1784.709
 21
957.4037
 31
0.0
  0
LINE
  5
297
  8
5
  6
CONTINUOUS
 10
1802.709
 20
837.5931
 30
0.0
 11
1750.709
 21
837.5931
 31
0.0
  0
LINE
  5
298
  8
5
  6
CONTINUOUS
 10
1687.112
 20
837.5931
 30
0.0
 11
1750.709
 21
837.5931
 31
0.0
  0
LINE
  5
299
  8
5
  6
CONTINUOUS
 10
1802.709
 20
837.5931
 30
0.0
 11
1866.305
 21
837.5931
 31
0.0
  0
LINE
  5
29A
  8
5
  6
CONTINUOUS
 10
1802.709
 20
878.5698
 30
0.0
 11
1802.709
 21
837.5931
 31
0.0
  0
LINE
  5
29B
  8
5
  6
CONTINUOUS
 10
1750.709
 20
878.5698
 30
0.0
 11
1750.709
 21
837.5931
 31
0.0
  0
CIRCLE
  5
29C
  8
5
  6
CONTINUOUS
 10
1776.709
 20
931.093
 30
0.0
 40
150.0
  0
LINE
  5
29D
  8
5
  6
CONTINUOUS
 10
1817.959
 20
837.5081
 30
0.0
 11
1817.959
 21
834.5081
 31
0.0
  0
LINE
  5
29E
  8
5
  6
CONTINUOUS
 10
1757.709
 20
815.1931
 30
0.0
 11
1795.709
 21
815.1931
 31
0.0
  0
LINE
  5
29F
  8
5
  6
CONTINUOUS
 10
1795.709
 20
815.1931
 30
0.0
 11
1834.475
 21
815.1931
 31
0.0
  0
LINE
  5
2A0
  8
5
  6
CONTINUOUS
 10
1718.943
 20
815.1931
 30
0.0
 11
1757.709
 21
815.1931
 31
0.0
  0
LINE
  5
2A1
  8
5
  6
CONTINUOUS
 10
1757.709
 20
802.9965
 30
0.0
 11
1757.709
 21
815.1931
 31
0.0
  0
LINE
  5
2A2
  8
5
  6
CONTINUOUS
 10
1757.709
 20
796.0931
 30
0.0
 11
1757.709
 21
802.9965
 31
0.0
  0
LINE
  5
2A3
  8
5
  6
CONTINUOUS
 10
1795.709
 20
796.0931
 30
0.0
 11
1757.709
 21
796.0931
 31
0.0
  0
LINE
  5
2A4
  8
5
  6
CONTINUOUS
 10
1795.709
 20
815.1931
 30
0.0
 11
1795.709
 21
802.9965
 31
0.0
  0
LINE
  5
2A5
  8
5
  6
CONTINUOUS
 10
1795.709
 20
802.9965
 30
0.0
 11
1795.709
 21
796.0931
 31
0.0
  0
CIRCLE
  5
2A6
  8
5
  6
CONTINUOUS
 10
1900.452
 20
807.3494
 30
0.0
 40
9.25
  0
CIRCLE
  5
2A7
  8
5
  6
CONTINUOUS
 10
1652.965
 20
807.3494
 30
0.0
 40
9.25
  0
CIRCLE
  5
2A8
  8
5
  6
CONTINUOUS
 10
1652.965
 20
1054.837
 30
0.0
 40
9.25
  0
CIRCLE
  5
2A9
  8
5
  6
CONTINUOUS
 10
1900.452
 20
1054.837
 30
0.0
 40
9.25
  0
CIRCLE
  5
2AA
  8
5
  6
CONTINUOUS
 10
1776.709
 20
931.093
 30
0.0
 40
200.0
  0
LINE
  5
2AB
  8
5
  6
CONTINUOUS
 10
1986.709
 20
834.8267
 30
0.0
 11
1986.709
 21
834.5089
 31
0.0
  0
LINE
  5
2AC
  8
5
  6
CONTINUOUS
 10
1986.709
 20
834.8267
 30
0.0
 11
1986.709
 21
837.5081
 31
0.0
  0
LINE
  5
2AD
  8
5
  6
CONTINUOUS
 10
1986.709
 20
834.5089
 30
0.0
 11
1986.709
 21
834.5089
 31
0.0
  0
LINE
  5
2AE
  8
5
  6
CONTINUOUS
 10
1694.459
 20
736.0931
 30
0.0
 11
1676.709
 21
736.0931
 31
0.0
  0
LINE
  5
2AF
  8
5
  6
CONTINUOUS
 10
1727.209
 20
736.0931
 30
0.0
 11
1712.209
 21
736.0931
 31
0.0
  0
LINE
  5
2B0
  8
5
  6
CONTINUOUS
 10
1858.959
 20
736.0931
 30
0.0
 11
1841.209
 21
736.0931
 31
0.0
  0
LINE
  5
2B1
  8
5
  6
CONTINUOUS
 10
1826.209
 20
736.0931
 30
0.0
 11
1821.15
 21
736.0931
 31
0.0
  0
LINE
  5
2B2
  8
5
  6
CONTINUOUS
 10
1712.209
 20
736.0931
 30
0.0
 11
1694.459
 21
736.0931
 31
0.0
  0
LINE
  5
2B3
  8
5
  6
CONTINUOUS
 10
1732.268
 20
736.0931
 30
0.0
 11
1727.209
 21
736.0931
 31
0.0
  0
LINE
  5
2B4
  8
5
  6
CONTINUOUS
 10
1841.209
 20
736.0931
 30
0.0
 11
1826.209
 21
736.0931
 31
0.0
  0
LINE
  5
2B5
  8
5
  6
CONTINUOUS
 10
1876.709
 20
736.0931
 30
0.0
 11
1858.959
 21
736.0931
 31
0.0
  0
LINE
  5
2B6
  8
5
  6
CONTINUOUS
 10
1895.209
 20
755.8792
 30
0.0
 11
1895.409
 21
756.0931
 31
0.0
  0
LINE
  5
2B7
  8
5
  6
CONTINUOUS
 10
1885.745
 20
745.7571
 30
0.0
 11
1895.209
 21
755.8792
 31
0.0
  0
LINE
  5
2B8
  8
5
  6
CONTINUOUS
 10
1876.709
 20
736.0931
 30
0.0
 11
1885.745
 21
745.7571
 31
0.0
  0
LINE
  5
2B9
  8
5
  6
CONTINUOUS
 10
1667.673
 20
745.7571
 30
0.0
 11
1676.709
 21
736.0931
 31
0.0
  0
LINE
  5
2BA
  8
5
  6
CONTINUOUS
 10
1658.009
 20
756.0931
 30
0.0
 11
1667.673
 21
745.7571
 31
0.0
  0
LINE
  5
2BB
  8
5
  6
CONTINUOUS
 10
1598.984
 20
741.1224
 30
0.0
 11
1581.306
 21
758.8001
 31
0.0
  0
LINE
  5
2BC
  8
5
  6
CONTINUOUS
 10
918.7247
 20
315.2779
 30
0.0
 11
921.3604
 21
322.9619
 31
0.0
  0
LINE
  5
2BD
  8
5
  6
CONTINUOUS
 10
1647.135
 20
778.7424
 30
0.0
 11
1611.656
 21
751.0228
 31
0.0
  0
LINE
  5
2BE
  8
5
  6
CONTINUOUS
 10
1611.656
 20
751.0228
 30
0.0
 11
1598.984
 21
741.1224
 31
0.0
  0
LINE
  5
2BF
  8
5
  6
CONTINUOUS
 10
1971.709
 20
834.5081
 30
0.0
 11
1971.709
 21
832.3931
 31
0.0
  0
LINE
  5
2C0
  8
5
  6
CONTINUOUS
 10
1937.442
 20
1049.793
 30
0.0
 11
1951.709
 21
1049.793
 31
0.0
  0
LINE
  5
2C6
  8
5
  6
CONTINUOUS
 10
1895.409
 20
757.0509
 30
0.0
 11
1912.355
 21
773.9975
 31
0.0
  0
LINE
  5
2C7
  8
5
  6
CONTINUOUS
 10
1641.062
 20
773.9975
 30
0.0
 11
1658.009
 21
757.0508
 31
0.0
  0
LINE
  5
2C9
  8
5
  6
CONTINUOUS
 10
1941.762
 20
751.0228
 30
0.0
 11
1963.639
 21
772.9002
 31
0.0
  0
LINE
  5
2CA
  8
5
  6
CONTINUOUS
 10
1676.709
 20
757.888
 30
0.0
 11
1676.709
 21
754.7931
 31
0.0
  0
LINE
  5
2CD
  8
5
  6
CONTINUOUS
 10
1876.709
 20
757.888
 30
0.0
 11
1876.709
 21
754.7931
 31
0.0
  0
LINE
  5
2D2
  8
5
  6
CONTINUOUS
 10
1589.778
 20
772.9002
 30
0.0
 11
1611.656
 21
751.0228
 31
0.0
  0
CIRCLE
  5
2D3
  8
5
  6
CONTINUOUS
 10
1776.709
 20
931.093
 30
0.0
 40
55.75
  0
ARC
  5
2D4
  8
5
  6
CONTINUOUS
 10
1776.709
 20
931.093
 30
0.0
 40
58.60627
 50
243.6637
 51
296.3363
  0
ARC
  5
2D5
  8
5
  6
CONTINUOUS
 10
1776.709
 20
931.093
 30
0.0
 40
121.2341
 50
309.4719
 51
309.5351
  0
ARC
  5
2D6
  8
5
  6
CONTINUOUS
 10
1776.709
 20
931.093
 30
0.0
 40
121.2341
 50
287.0594
 51
307.1856
  0
ARC
  5
2D7
  8
5
  6
CONTINUOUS
 10
1776.709
 20
931.093
 30
0.0
 40
121.2341
 50
230.4649
 51
252.9406
  0
ARC
  5
2D8
  8
5
  6
CONTINUOUS
 10
1776.709
 20
931.093
 30
0.0
 40
71.99998
 50
291.1685
 51
248.8315
  0
ARC
  5
2D9
  8
5
  6
CONTINUOUS
 10
1776.709
 20
931.093
 30
0.0
 40
72.14395
 50
55.56217
 51
124.4378
  0
ARC
  5
2DA
  8
5
  6
CONTINUOUS
 10
1776.709
 20
931.093
 30
0.0
 40
72.14394
 50
124.4378
 51
143.9068
  0
ARC
  5
2DB
  8
5
  6
CONTINUOUS
 10
1776.709
 20
931.093
 30
0.0
 40
72.14394
 50
143.9068
 51
159.3009
  0
ARC
  5
2DC
  8
5
  6
CONTINUOUS
 10
1776.709
 20
931.093
 30
0.0
 40
72.14393
 50
159.3009
 51
173.2337
  0
ARC
  5
2DD
  8
5
  6
CONTINUOUS
 10
1776.709
 20
931.093
 30
0.0
 40
72.14393
 50
173.2337
 51
186.7663
  0
ARC
  5
2DE
  8
5
  6
CONTINUOUS
 10
1776.709
 20
931.093
 30
0.0
 40
72.14392
 50
186.7663
 51
200.6991
  0
ARC
  5
2DF
  8
5
  6
CONTINUOUS
 10
1776.709
 20
931.093
 30
0.0
 40
72.14392
 50
200.6991
 51
216.0932
  0
ARC
  5
2E0
  8
5
  6
CONTINUOUS
 10
1776.709
 20
931.093
 30
0.0
 40
72.14391
 50
216.0932
 51
235.5622
  0
ARC
  5
2E1
  8
5
  6
CONTINUOUS
 10
1776.709
 20
931.093
 30
0.0
 40
72.14391
 50
235.5622
 51
248.8758
  0
ARC
  5
2E2
  8
5
  6
CONTINUOUS
 10
1776.709
 20
931.093
 30
0.0
 40
72.14391
 50
291.1242
 51
304.4379
  0
ARC
  5
2E3
  8
5
  6
CONTINUOUS
 10
1776.709
 20
931.093
 30
0.0
 40
72.14392
 50
304.4379
 51
323.9068
  0
ARC
  5
2E4
  8
5
  6
CONTINUOUS
 10
1776.709
 20
931.093
 30
0.0
 40
72.14392
 50
323.9068
 51
339.3009
  0
ARC
  5
2E5
  8
5
  6
CONTINUOUS
 10
1776.709
 20
931.093
 30
0.0
 40
72.14393
 50
339.3009
 51
353.2337
  0
ARC
  5
2E6
  8
5
  6
CONTINUOUS
 10
1776.709
 20
931.093
 30
0.0
 40
72.14393
 50
353.2337
 51
6.7663
  0
ARC
  5
2E7
  8
5
  6
CONTINUOUS
 10
1776.709
 20
931.093
 30
0.0
 40
72.14394
 50
6.766323
 51
20.69911
  0
ARC
  5
2E8
  8
5
  6
CONTINUOUS
 10
1776.709
 20
931.093
 30
0.0
 40
72.14394
 50
20.69911
 51
36.09319
  0
ARC
  5
2E9
  8
5
  6
CONTINUOUS
 10
1776.709
 20
931.093
 30
0.0
 40
72.14395
 50
36.09319
 51
55.56217
  0
LINE
  5
2EA
  8
5
  6
CONTINUOUS
 10
1248.798
 20
510.5777
 30
0.0
 11
1251.071
 21
492.8277
 31
0.0
  0
LINE
  5
2EB
  8
5
  6
CONTINUOUS
 10
1246.402
 20
529.2777
 30
0.0
 11
1247.64
 21
519.6136
 31
0.0
  0
LINE
  5
2EC
  8
5
  6
CONTINUOUS
 10
1247.64
 20
519.6136
 30
0.0
 11
1248.798
 21
510.5777
 31
0.0
  0
LINE
  5
2ED
  8
5
  6
CONTINUOUS
 10
1251.071
 20
492.8277
 30
0.0
 11
1251.749
 21
487.5394
 31
0.0
  0
LINE
  5
2EE
  8
5
  6
CONTINUOUS
 10
1248.798
 20
157.9777
 30
0.0
 11
1251.071
 21
175.7277
 31
0.0
  0
LINE
  5
2EF
  8
5
  6
CONTINUOUS
 10
1247.64
 20
148.9417
 30
0.0
 11
1248.798
 21
157.9777
 31
0.0
  0
LINE
  5
2F0
  8
5
  6
CONTINUOUS
 10
1247.64
 20
148.9417
 30
0.0
 11
1246.402
 21
139.2777
 31
0.0
  0
LINE
  5
2F1
  8
5
  6
CONTINUOUS
 10
1251.071
 20
175.7277
 30
0.0
 11
1251.749
 21
181.016
 31
0.0
  0
LINE
  5
2F2
  8
5
  6
CONTINUOUS
 10
840.0065
 20
510.5777
 30
0.0
 11
837.7327
 21
492.8277
 31
0.0
  0
LINE
  5
2F3
  8
5
  6
CONTINUOUS
 10
841.1641
 20
519.6136
 30
0.0
 11
840.0065
 21
510.5777
 31
0.0
  0
LINE
  5
2F4
  8
5
  6
CONTINUOUS
 10
841.1641
 20
519.6136
 30
0.0
 11
842.4021
 21
529.2777
 31
0.0
  0
LINE
  5
2F5
  8
5
  6
CONTINUOUS
 10
1735.91
 20
990.5931
 30
0.0
 11
1661.689
 21
990.5931
 31
0.0
  0
ARC
  5
2F6
  8
5
  6
CONTINUOUS
 10
1776.709
 20
931.093
 30
0.0
 40
129.498
 50
152.6473
 51
160.841
  0
LINE
  5
2F7
  8
5
  6
CONTINUOUS
 10
1654.383
 20
973.5931
 30
0.0
 11
1718.412
 21
973.5931
 31
0.0
  0
LINE
  5
2F8
  8
5
  6
CONTINUOUS
 10
1835.005
 20
973.5931
 30
0.0
 11
1899.034
 21
973.5931
 31
0.0
  0
ARC
  5
2F9
  8
5
  6
CONTINUOUS
 10
1776.709
 20
931.093
 30
0.0
 40
129.4981
 50
19.15898
 51
27.3527
  0
LINE
  5
2FA
  8
5
  6
CONTINUOUS
 10
1891.728
 20
990.5931
 30
0.0
 11
1817.507
 21
990.5931
 31
0.0
  0
LINE
  5
2FB
  8
5
  6
CONTINUOUS
 10
842.4021
 20
529.2777
 30
0.0
 11
875.0889
 21
529.2777
 31
0.0
  0
LINE
  5
2FC
  8
5
  6
CONTINUOUS
 10
1709.222
 20
956.5931
 30
0.0
 11
1649.746
 21
956.5931
 31
0.0
  0
LINE
  5
2FD
  8
5
  6
CONTINUOUS
 10
935.7153
 20
529.2777
 30
0.0
 11
1246.402
 21
529.2777
 31
0.0
  0
LINE
  5
2FE
  8
5
  6
CONTINUOUS
 10
1246.402
 20
139.2777
 30
0.0
 11
1214.715
 21
139.2777
 31
0.0
  0
ARC
  5
2FF
  8
5
  6
CONTINUOUS
 10
1776.709
 20
931.093
 30
0.0
 40
129.498
 50
168.6434
 51
176.2365
  0
LINE
  5
300
  8
5
  6
CONTINUOUS
 10
1647.49
 20
939.5931
 30
0.0
 11
1705.067
 21
939.5931
 31
0.0
  0
LINE
  5
301
  8
5
  6
CONTINUOUS
 10
1848.35
 20
939.5931
 30
0.0
 11
1905.927
 21
939.5931
 31
0.0
  0
ARC
  5
302
  8
5
  6
CONTINUOUS
 10
1776.709
 20
931.093
 30
0.0
 40
129.498
 50
3.7635
 51
11.35658
  0
LINE
  5
303
  8
5
  6
CONTINUOUS
 10
1251.749
 20
411.2394
 30
0.0
 11
1251.071
 21
416.5277
 31
0.0
  0
LINE
  5
304
  8
5
  6
CONTINUOUS
 10
1248.798
 20
434.2777
 30
0.0
 11
1246.402
 21
452.9777
 31
0.0
  0
LINE
  5
305
  8
5
  6
CONTINUOUS
 10
1251.071
 20
416.5277
 30
0.0
 11
1248.798
 21
434.2777
 31
0.0
  0
LINE
  5
306
  8
5
  6
CONTINUOUS
 10
1251.071
 20
252.0277
 30
0.0
 11
1248.798
 21
234.2777
 31
0.0
  0
LINE
  5
307
  8
5
  6
CONTINUOUS
 10
1248.798
 20
234.2777
 30
0.0
 11
1246.402
 21
215.5777
 31
0.0
  0
LINE
  5
308
  8
5
  6
CONTINUOUS
 10
1251.749
 20
257.316
 30
0.0
 11
1251.071
 21
252.0277
 31
0.0
  0
LINE
  5
309
  8
5
  6
CONTINUOUS
 10
1114.902
 20
452.9777
 30
0.0
 11
1136.902
 21
452.9777
 31
0.0
  0
LINE
  5
30A
  8
5
  6
CONTINUOUS
 10
1136.902
 20
452.9777
 30
0.0
 11
1246.402
 21
452.9777
 31
0.0
  0
LINE
  5
30B
  8
5
  6
CONTINUOUS
 10
1903.671
 20
956.5931
 30
0.0
 11
1844.196
 21
956.5931
 31
0.0
  0
LINE
  5
30C
  8
5
  6
CONTINUOUS
 10
1705.067
 20
922.5931
 30
0.0
 11
1647.49
 21
922.5931
 31
0.0
  0
ARC
  5
30D
  8
5
  6
CONTINUOUS
 10
1776.709
 20
931.093
 30
0.0
 40
129.498
 50
183.7635
 51
191.3566
  0
LINE
  5
30E
  8
5
  6
CONTINUOUS
 10
1649.746
 20
905.5931
 30
0.0
 11
1709.222
 21
905.5931
 31
0.0
  0
LINE
  5
30F
  8
5
  6
CONTINUOUS
 10
1844.196
 20
905.5931
 30
0.0
 11
1903.671
 21
905.5931
 31
0.0
  0
ARC
  5
310
  8
5
  6
CONTINUOUS
 10
1776.709
 20
931.093
 30
0.0
 40
129.498
 50
348.6434
 51
356.2365
  0
LINE
  5
311
  8
5
  6
CONTINUOUS
 10
1905.927
 20
922.5931
 30
0.0
 11
1848.35
 21
922.5931
 31
0.0
  0
LINE
  5
312
  8
5
  6
CONTINUOUS
 10
1718.412
 20
888.5931
 30
0.0
 11
1654.383
 21
888.5931
 31
0.0
  0
ARC
  5
313
  8
5
  6
CONTINUOUS
 10
1776.709
 20
931.093
 30
0.0
 40
129.498
 50
199.159
 51
207.3527
  0
LINE
  5
314
  8
5
  6
CONTINUOUS
 10
1661.689
 20
871.5931
 30
0.0
 11
1735.91
 21
871.5931
 31
0.0
  0
LINE
  5
315
  8
5
  6
CONTINUOUS
 10
1817.507
 20
871.5931
 30
0.0
 11
1891.728
 21
871.5931
 31
0.0
  0
ARC
  5
316
  8
5
  6
CONTINUOUS
 10
1776.709
 20
931.093
 30
0.0
 40
129.498
 50
332.6473
 51
340.841
  0
LINE
  5
317
  8
5
  6
CONTINUOUS
 10
1899.034
 20
888.5931
 30
0.0
 11
1835.005
 21
888.5931
 31
0.0
  0
ARC
  5
318
  8
5
  6
CONTINUOUS
 10
1776.709
 20
931.093
 30
0.0
 40
129.498
 50
27.3527
 51
36.20973
  0
LINE
  5
319
  8
5
  6
CONTINUOUS
 10
1246.402
 20
215.5777
 30
0.0
 11
1136.902
 21
215.5777
 31
0.0
  0
LINE
  5
31A
  8
5
  6
CONTINUOUS
 10
1136.902
 20
215.5777
 30
0.0
 11
1114.902
 21
215.5777
 31
0.0
  0
LINE
  5
31B
  8
5
  6
CONTINUOUS
 10
1367.902
 20
524.2777
 30
0.0
 11
1367.902
 21
432.7773
 31
0.0
  0
LINE
  5
31C
  8
5
  6
CONTINUOUS
 10
1367.902
 20
432.7773
 30
0.0
 11
1367.902
 21
235.7781
 31
0.0
  0
LINE
  5
31D
  8
5
  6
CONTINUOUS
 10
1367.902
 20
235.7781
 30
0.0
 11
1367.902
 21
144.2777
 31
0.0
  0
LINE
  5
31E
  8
5
  6
CONTINUOUS
 10
1424.402
 20
462.2777
 30
0.0
 11
1424.402
 21
206.2777
 31
0.0
  0
LINE
  5
31F
  8
5
  6
CONTINUOUS
 10
1300.402
 20
527.2777
 30
0.0
 11
1254.402
 21
527.2777
 31
0.0
  0
LINE
  5
320
  8
5
  6
CONTINUOUS
 10
1300.402
 20
141.2777
 30
0.0
 11
1254.402
 21
141.2777
 31
0.0
  0
LINE
  5
321
  8
5
  6
CONTINUOUS
 10
1300.402
 20
524.2777
 30
0.0
 11
1367.902
 21
524.2777
 31
0.0
  0
LINE
  5
322
  8
5
  6
CONTINUOUS
 10
1367.902
 20
144.2777
 30
0.0
 11
1300.402
 21
144.2777
 31
0.0
  0
LINE
  5
323
  8
5
  6
CONTINUOUS
 10
1300.402
 20
527.2777
 30
0.0
 11
1300.402
 21
434.0199
 31
0.0
  0
LINE
  5
324
  8
5
  6
CONTINUOUS
 10
1300.402
 20
434.0199
 30
0.0
 11
1300.402
 21
234.5355
 31
0.0
  0
LINE
  5
325
  8
5
  6
CONTINUOUS
 10
1300.402
 20
234.5355
 30
0.0
 11
1300.402
 21
141.2777
 31
0.0
  0
LINE
  5
326
  8
5
  6
CONTINUOUS
 10
1254.402
 20
141.2777
 30
0.0
 11
1254.402
 21
234.5355
 31
0.0
  0
LINE
  5
327
  8
5
  6
CONTINUOUS
 10
1254.402
 20
234.5355
 30
0.0
 11
1254.402
 21
434.0199
 31
0.0
  0
LINE
  5
328
  8
5
  6
CONTINUOUS
 10
1254.402
 20
434.0199
 30
0.0
 11
1254.402
 21
527.2777
 31
0.0
  0
LINE
  5
329
  8
5
  6
CONTINUOUS
 10
1881.195
 20
1007.593
 30
0.0
 11
1672.222
 21
1007.593
 31
0.0
  0
ARC
  5
32A
  8
5
  6
CONTINUOUS
 10
1776.709
 20
931.093
 30
0.0
 40
129.4981
 50
143.7903
 51
152.6473
  0
ARC
  5
32B
  8
5
  6
CONTINUOUS
 10
1776.709
 20
931.093
 30
0.0
 40
129.498
 50
160.841
 51
168.6434
  0
ARC
  5
32C
  8
5
  6
CONTINUOUS
 10
1776.709
 20
931.093
 30
0.0
 40
129.498
 50
11.35658
 51
19.15898
  0
ARC
  5
32D
  8
5
  6
CONTINUOUS
 10
1776.709
 20
931.093
 30
0.0
 40
129.498
 50
176.2365
 51
183.7635
  0
ARC
  5
32E
  8
5
  6
CONTINUOUS
 10
1776.709
 20
931.093
 30
0.0
 40
129.498
 50
356.2365
 51
3.7635
  0
ARC
  5
32F
  8
5
  6
CONTINUOUS
 10
1776.709
 20
931.093
 30
0.0
 40
129.498
 50
191.3566
 51
199.159
  0
ARC
  5
330
  8
5
  6
CONTINUOUS
 10
1776.709
 20
931.093
 30
0.0
 40
129.498
 50
340.841
 51
348.6434
  0
ARC
  5
331
  8
5
  6
CONTINUOUS
 10
1776.709
 20
931.093
 30
0.0
 40
129.498
 50
133.7786
 51
143.7903
  0
ARC
  5
332
  8
5
  6
CONTINUOUS
 10
1776.709
 20
931.093
 30
0.0
 40
129.498
 50
36.20973
 51
46.22142
  0
LINE
  5
333
  8
5
  6
CONTINUOUS
 10
1866.305
 20
1024.593
 30
0.0
 11
1853.209
 21
1024.593
 31
0.0
  0
LINE
  5
334
  8
5
  6
CONTINUOUS
 10
1853.209
 20
1024.593
 30
0.0
 11
1836.209
 21
1024.593
 31
0.0
  0
LINE
  5
335
  8
5
  6
CONTINUOUS
 10
1836.209
 20
1024.593
 30
0.0
 11
1819.209
 21
1024.593
 31
0.0
  0
LINE
  5
336
  8
5
  6
CONTINUOUS
 10
1819.209
 20
1024.593
 30
0.0
 11
1802.209
 21
1024.593
 31
0.0
  0
LINE
  5
337
  8
5
  6
CONTINUOUS
 10
1802.209
 20
1024.593
 30
0.0
 11
1785.209
 21
1024.593
 31
0.0
  0
LINE
  5
338
  8
5
  6
CONTINUOUS
 10
1785.209
 20
1024.593
 30
0.0
 11
1768.209
 21
1024.593
 31
0.0
  0
LINE
  5
339
  8
5
  6
CONTINUOUS
 10
1768.209
 20
1024.593
 30
0.0
 11
1751.209
 21
1024.593
 31
0.0
  0
LINE
  5
33A
  8
5
  6
CONTINUOUS
 10
1751.209
 20
1024.593
 30
0.0
 11
1734.209
 21
1024.593
 31
0.0
  0
LINE
  5
33B
  8
5
  6
CONTINUOUS
 10
1734.209
 20
1024.593
 30
0.0
 11
1717.209
 21
1024.593
 31
0.0
  0
LINE
  5
33C
  8
5
  6
CONTINUOUS
 10
1717.209
 20
1024.593
 30
0.0
 11
1700.209
 21
1024.593
 31
0.0
  0
LINE
  5
33D
  8
5
  6
CONTINUOUS
 10
1700.209
 20
1024.593
 30
0.0
 11
1687.112
 21
1024.593
 31
0.0
  0
ARC
  5
33E
  8
5
  6
CONTINUOUS
 10
1776.709
 20
931.093
 30
0.0
 40
129.498
 50
53.79028
 51
62.64731
  0
LINE
  5
33F
  8
5
  6
CONTINUOUS
 10
1836.209
 20
1046.113
 30
0.0
 11
1836.209
 21
1024.593
 31
0.0
  0
LINE
  5
340
  8
5
  6
CONTINUOUS
 10
1853.209
 20
1024.593
 30
0.0
 11
1853.209
 21
1035.58
 31
0.0
  0
ARC
  5
341
  8
5
  6
CONTINUOUS
 10
1776.709
 20
931.093
 30
0.0
 40
129.498
 50
70.84103
 51
78.64343
  0
LINE
  5
342
  8
5
  6
CONTINUOUS
 10
1802.209
 20
1058.056
 30
0.0
 11
1802.209
 21
1024.593
 31
0.0
  0
LINE
  5
343
  8
5
  6
CONTINUOUS
 10
1819.209
 20
1024.593
 30
0.0
 11
1819.209
 21
1053.418
 31
0.0
  0
ARC
  5
344
  8
5
  6
CONTINUOUS
 10
1776.709
 20
931.093
 30
0.0
 40
129.498
 50
86.23651
 51
93.76349
  0
LINE
  5
345
  8
5
  6
CONTINUOUS
 10
1768.209
 20
1060.312
 30
0.0
 11
1768.209
 21
1024.593
 31
0.0
  0
LINE
  5
346
  8
5
  6
CONTINUOUS
 10
1785.209
 20
1024.593
 30
0.0
 11
1785.209
 21
1060.312
 31
0.0
  0
ARC
  5
347
  8
5
  6
CONTINUOUS
 10
1776.709
 20
931.093
 30
0.0
 40
129.498
 50
101.3566
 51
109.159
  0
LINE
  5
348
  8
5
  6
CONTINUOUS
 10
1734.209
 20
1053.418
 30
0.0
 11
1734.209
 21
1024.593
 31
0.0
  0
LINE
  5
349
  8
5
  6
CONTINUOUS
 10
1751.209
 20
1024.593
 30
0.0
 11
1751.209
 21
1058.056
 31
0.0
  0
ARC
  5
34A
  8
5
  6
CONTINUOUS
 10
1776.709
 20
931.093
 30
0.0
 40
129.498
 50
117.3527
 51
126.2097
  0
LINE
  5
34B
  8
5
  6
CONTINUOUS
 10
1700.209
 20
1035.58
 30
0.0
 11
1700.209
 21
1024.593
 31
0.0
  0
LINE
  5
34C
  8
5
  6
CONTINUOUS
 10
1717.209
 20
1024.593
 30
0.0
 11
1717.209
 21
1046.113
 31
0.0
  0
ARC
  5
34D
  8
5
  6
CONTINUOUS
 10
1776.709
 20
931.093
 30
0.0
 40
129.498
 50
46.22142
 51
53.79028
  0
ARC
  5
34E
  8
5
  6
CONTINUOUS
 10
1776.709
 20
931.093
 30
0.0
 40
129.498
 50
62.64731
 51
70.84103
  0
ARC
  5
34F
  8
5
  6
CONTINUOUS
 10
1776.709
 20
931.093
 30
0.0
 40
129.498
 50
78.64343
 51
86.23651
  0
ARC
  5
350
  8
5
  6
CONTINUOUS
 10
1776.709
 20
931.093
 30
0.0
 40
129.498
 50
93.76349
 51
101.3566
  0
ARC
  5
351
  8
5
  6
CONTINUOUS
 10
1776.709
 20
931.093
 30
0.0
 40
129.498
 50
109.159
 51
117.3527
  0
ARC
  5
352
  8
5
  6
CONTINUOUS
 10
1776.709
 20
931.093
 30
0.0
 40
129.498
 50
126.2097
 51
133.7786
  0
LINE
  5
353
  8
5
  6
CONTINUOUS
 10
1750.709
 20
854.5931
 30
0.0
 11
1672.222
 21
854.5931
 31
0.0
  0
ARC
  5
354
  8
5
  6
CONTINUOUS
 10
1776.709
 20
931.093
 30
0.0
 40
129.498
 50
216.2097
 51
226.2214
  0
ARC
  5
355
  8
5
  6
CONTINUOUS
 10
1776.709
 20
931.093
 30
0.0
 40
129.498
 50
313.7786
 51
323.7903
  0
LINE
  5
356
  8
5
  6
CONTINUOUS
 10
1881.195
 20
854.5931
 30
0.0
 11
1802.709
 21
854.5931
 31
0.0
  0
ARC
  5
357
  8
5
  6
CONTINUOUS
 10
1776.709
 20
931.093
 30
0.0
 40
129.498
 50
207.3527
 51
216.2097
  0
ARC
  5
358
  8
5
  6
CONTINUOUS
 10
1776.709
 20
931.093
 30
0.0
 40
129.498
 50
323.7903
 51
332.6473
  0
CIRCLE
  5
359
  8
5
  6
CONTINUOUS
 10
1776.709
 20
931.093
 30
0.0
 40
140.0
  0
LINE
  5
35A
  8
5
  6
CONTINUOUS
 10
1817.959
 20
834.5081
 30
0.0
 11
1866.295
 21
834.5081
 31
0.0
  0
LINE
  5
35B
  8
5
  6
CONTINUOUS
 10
1869.424
 20
837.5081
 30
0.0
 11
1817.959
 21
837.5081
 31
0.0
  0
LINE
  5
35C
  8
5
  6
CONTINUOUS
 10
1952.016
 20
834.8267
 30
0.0
 11
1986.709
 21
834.8267
 31
0.0
  0
LINE
  5
35D
  8
5
  6
CONTINUOUS
 10
1986.709
 20
837.5081
 30
0.0
 11
1953.462
 21
837.5081
 31
0.0
  0
LINE
  5
35E
  8
5
  6
CONTINUOUS
 10
1986.709
 20
834.5089
 30
0.0
 11
1951.841
 21
834.5089
 31
0.0
  0
ARC
  5
35F
  8
5
  6
CONTINUOUS
 10
1776.709
 20
931.093
 30
0.0
 40
129.498
 50
243.5077
 51
261.5631
  0
ARC
  5
360
  8
5
  6
CONTINUOUS
 10
1776.709
 20
931.093
 30
0.0
 40
129.498
 50
278.4369
 51
296.4923
  0
LINE
  5
361
  8
5
  6
CONTINUOUS
 10
1676.709
 20
754.7931
 30
0.0
 11
1676.709
 21
736.093
 31
0.0
  0
LINE
  5
362
  8
5
  6
CONTINUOUS
 10
1694.459
 20
736.093
 30
0.0
 11
1694.459
 21
748.7885
 31
0.0
  0
LINE
  5
363
  8
5
  6
CONTINUOUS
 10
1876.709
 20
754.7931
 30
0.0
 11
1876.709
 21
736.093
 31
0.0
  0
LINE
  5
364
  8
5
  6
CONTINUOUS
 10
1858.959
 20
748.7885
 30
0.0
 11
1858.959
 21
736.093
 31
0.0
  0
LINE
  5
365
  8
5
  6
CONTINUOUS
 10
1826.209
 20
736.093
 30
0.0
 11
1826.209
 21
737.3155
 31
0.0
  0
LINE
  5
366
  8
5
  6
CONTINUOUS
 10
1841.209
 20
741.7792
 30
0.0
 11
1841.209
 21
736.093
 31
0.0
  0
LINE
  5
367
  8
5
  6
CONTINUOUS
 10
1712.209
 20
741.7792
 30
0.0
 11
1712.209
 21
736.093
 31
0.0
  0
LINE
  5
368
  8
5
  6
CONTINUOUS
 10
1727.209
 20
736.093
 30
0.0
 11
1727.209
 21
737.3155
 31
0.0
  0
LINE
  5
369
  8
5
  6
CONTINUOUS
 10
921.3604
 20
322.9619
 30
0.0
 11
929.5348
 21
322.9623
 31
0.0
  0
LINE
  5
36A
  8
5
  6
CONTINUOUS
 10
931.0342
 20
335.3973
 30
0.0
 11
941.5198
 21
335.3977
 31
0.0
  0
LINE
  5
36B
  8
5
  6
CONTINUOUS
 10
941.5198
 20
335.3977
 30
0.0
 11
935.1712
 21
353.1812
 31
0.0
  0
LINE
  5
36C
  8
5
  6
CONTINUOUS
 10
935.1712
 20
353.1812
 30
0.0
 11
931.0334
 21
353.1811
 31
0.0
  0
LINE
  5
36D
  8
5
  6
CONTINUOUS
 10
931.0334
 20
353.1811
 30
0.0
 11
931.0342
 21
335.3973
 31
0.0
  0
LINE
  5
36E
  8
5
  6
CONTINUOUS
 10
942.0552
 20
333.8977
 30
0.0
 11
931.0342
 21
333.8973
 31
0.0
  0
LINE
  5
36F
  8
5
  6
CONTINUOUS
 10
931.0342
 20
333.8973
 30
0.0
 11
931.0348
 21
322.9623
 31
0.0
  0
LINE
  5
370
  8
5
  6
CONTINUOUS
 10
931.0348
 20
322.9623
 30
0.0
 11
939.173
 21
322.9627
 31
0.0
  0
LINE
  5
371
  8
5
  6
CONTINUOUS
 10
939.173
 20
322.9627
 30
0.0
 11
941.916
 21
315.279
 31
0.0
  0
LINE
  5
372
  8
5
  6
CONTINUOUS
 10
941.916
 20
315.279
 30
0.0
 11
948.702
 21
315.2793
 31
0.0
  0
LINE
  5
373
  8
5
  6
CONTINUOUS
 10
948.702
 20
315.2793
 30
0.0
 11
942.0552
 21
333.8977
 31
0.0
  0
LINE
  5
374
  8
5
  6
CONTINUOUS
 10
965.8904
 20
353.1826
 30
0.0
 11
956.0486
 21
353.1822
 31
0.0
  0
LINE
  5
375
  8
5
  6
CONTINUOUS
 10
956.0486
 20
353.1822
 30
0.0
 11
956.0494
 21
335.3984
 31
0.0
  0
LINE
  5
376
  8
5
  6
CONTINUOUS
 10
956.0494
 20
335.3984
 30
0.0
 11
965.8912
 21
335.3989
 31
0.0
  0
LINE
  5
377
  8
5
  6
CONTINUOUS
 10
965.8912
 20
335.3989
 30
0.0
 11
965.8904
 21
353.1827
 31
0.0
  0
LINE
  5
378
  8
5
  6
CONTINUOUS
 10
965.8913
 20
333.8988
 30
0.0
 11
956.0495
 21
333.8984
 31
0.0
  0
LINE
  5
379
  8
5
  6
CONTINUOUS
 10
956.0495
 20
333.8984
 30
0.0
 11
956.0503
 21
315.2796
 31
0.0
  0
LINE
  5
37A
  8
5
  6
CONTINUOUS
 10
956.0503
 20
315.2796
 30
0.0
 11
965.8921
 21
315.28
 31
0.0
  0
LINE
  5
37B
  8
5
  6
CONTINUOUS
 10
965.8921
 20
315.28
 30
0.0
 11
965.8913
 21
333.8988
 31
0.0
  0
LINE
  5
37C
  8
5
  6
CONTINUOUS
 10
977.8034
 20
333.8994
 30
0.0
 11
967.3912
 21
333.8988
 31
0.0
  0
LINE
  5
37D
  8
5
  6
CONTINUOUS
 10
967.3912
 20
333.8988
 30
0.0
 11
967.3922
 21
315.2802
 31
0.0
  0
LINE
  5
37E
  8
5
  6
CONTINUOUS
 10
967.3922
 20
315.2802
 30
0.0
 11
970.8221
 21
315.2804
 31
0.0
  0
ARC
  5
37F
  8
5
  6
CONTINUOUS
 10
970.8216
 20
325.8721
 30
0.0
 40
10.59168
 50
270.0023
 51
0.0026
  0
ARC
  5
380
  8
5
  6
CONTINUOUS
 10
969.4034
 20
325.2964
 30
0.0
 40
12.0238
 50
2.746474
 51
45.68422
  0
LINE
  5
381
  8
5
  6
CONTINUOUS
 10
967.3912
 20
335.3989
 30
0.0
 11
975.9228
 21
335.3993
 31
0.0
  0
ARC
  5
382
  8
5
  6
CONTINUOUS
 10
969.4034
 20
325.2964
 30
0.0
 40
12.02375
 50
57.16591
 51
82.7483
  0
ARC
  5
383
  8
5
  6
CONTINUOUS
 10
968.6558
 20
346.6176
 30
0.0
 40
9.662929
 50
283.5587
 51
354.7079
  0
ARC
  5
384
  8
5
  6
CONTINUOUS
 10
970.8207
 20
345.7261
 30
0.0
 40
7.45678
 50
0.002581
 51
90.00258
  0
LINE
  5
385
  8
5
  6
CONTINUOUS
 10
970.8204
 20
353.1828
 30
0.0
 11
967.3904
 21
353.1827
 31
0.0
  0
LINE
  5
386
  8
5
  6
CONTINUOUS
 10
967.3904
 20
353.1827
 30
0.0
 11
967.3912
 21
335.3989
 31
0.0
  0
LINE
  5
387
  8
5
  6
CONTINUOUS
 10
988.6533
 20
335.3999
 30
0.0
 11
998.4953
 21
335.4003
 31
0.0
  0
LINE
  5
388
  8
5
  6
CONTINUOUS
 10
998.4953
 20
335.4003
 30
0.0
 11
998.4945
 21
353.1841
 31
0.0
  0
LINE
  5
389
  8
5
  6
CONTINUOUS
 10
998.4945
 20
353.1841
 30
0.0
 11
988.6526
 21
353.1836
 31
0.0
  0
LINE
  5
38A
  8
5
  6
CONTINUOUS
 10
988.6526
 20
353.1836
 30
0.0
 11
988.6533
 21
335.3999
 31
0.0
  0
LINE
  5
38B
  8
5
  6
CONTINUOUS
 10
999.9951
 20
335.4005
 30
0.0
 11
1008.527
 21
335.4008
 31
0.0
  0
ARC
  5
38C
  8
5
  6
CONTINUOUS
 10
1002.007
 20
325.2979
 30
0.0
 40
12.02389
 50
57.1657
 51
82.7483
  0
ARC
  5
38D
  8
5
  6
CONTINUOUS
 10
1001.26
 20
346.6191
 30
0.0
 40
9.662929
 50
283.5587
 51
354.7079
  0
ARC
  5
38E
  8
5
  6
CONTINUOUS
 10
1003.425
 20
345.7275
 30
0.0
 40
7.45678
 50
0.002581
 51
90.00258
  0
LINE
  5
38F
  8
5
  6
CONTINUOUS
 10
1003.424
 20
353.1843
 30
0.0
 11
999.9944
 21
353.1841
 31
0.0
  0
LINE
  5
390
  8
5
  6
CONTINUOUS
 10
999.9944
 20
353.1841
 30
0.0
 11
999.9951
 21
335.4005
 31
0.0
  0
LINE
  5
391
  8
5
  6
CONTINUOUS
 10
999.9953
 20
333.9004
 30
0.0
 11
999.9961
 21
315.2815
 31
0.0
  0
LINE
  5
392
  8
5
  6
CONTINUOUS
 10
999.9961
 20
315.2815
 30
0.0
 11
1003.426
 21
315.2817
 31
0.0
  0
ARC
  5
393
  8
5
  6
CONTINUOUS
 10
1003.426
 20
325.8735
 30
0.0
 40
10.59179
 50
270.0029
 51
0.0026
  0
ARC
  5
394
  8
5
  6
CONTINUOUS
 10
1002.007
 20
325.2979
 30
0.0
 40
12.0238
 50
2.746474
 51
45.68383
  0
LINE
  5
395
  8
5
  6
CONTINUOUS
 10
1010.407
 20
333.9008
 30
0.0
 11
999.9953
 21
333.9004
 31
0.0
  0
LINE
  5
396
  8
5
  6
CONTINUOUS
 10
988.6535
 20
333.8998
 30
0.0
 11
998.4953
 21
333.9002
 31
0.0
  0
LINE
  5
397
  8
5
  6
CONTINUOUS
 10
988.6535
 20
333.8998
 30
0.0
 11
988.6543
 21
315.2812
 31
0.0
  0
LINE
  5
398
  8
5
  6
CONTINUOUS
 10
988.6543
 20
315.2812
 30
0.0
 11
998.4961
 21
315.2815
 31
0.0
  0
LINE
  5
399
  8
5
  6
CONTINUOUS
 10
998.4961
 20
315.2815
 30
0.0
 11
998.4953
 21
333.9002
 31
0.0
  0
LINE
  5
39A
  8
5
  6
CONTINUOUS
 10
823.4404
 20
248.7776
 30
0.0
 11
822.902
 21
248.7776
 31
0.0
  0
LINE
  5
39B
  8
5
  6
CONTINUOUS
 10
877.902
 20
194.3161
 30
0.0
 11
877.902
 21
193.7776
 31
0.0
  0
LINE
  5
39C
  8
5
  6
CONTINUOUS
 10
822.902
 20
419.7776
 30
0.0
 11
823.4404
 21
419.7776
 31
0.0
  0
LINE
  5
39D
  8
5
  6
CONTINUOUS
 10
877.902
 20
474.7776
 30
0.0
 11
877.902
 21
474.2392
 31
0.0
  0
LINE
  5
39E
  8
5
  6
CONTINUOUS
 10
1103.902
 20
248.7776
 30
0.0
 11
1103.363
 21
248.7776
 31
0.0
  0
LINE
  5
39F
  8
5
  6
CONTINUOUS
 10
1048.902
 20
194.3161
 30
0.0
 11
1048.902
 21
193.7776
 31
0.0
  0
LINE
  5
3A0
  8
5
  6
CONTINUOUS
 10
1048.902
 20
474.7776
 30
0.0
 11
1048.902
 21
474.2392
 31
0.0
  0
LINE
  5
3A1
  8
5
  6
CONTINUOUS
 10
1103.363
 20
419.7776
 30
0.0
 11
1103.902
 21
419.7776
 31
0.0
  0
LINE
  5
3A2
  8
5
  6
CONTINUOUS
 10
877.902
 20
193.7776
 30
0.0
 11
822.902
 21
193.7776
 31
0.0
  0
LINE
  5
3A3
  8
5
  6
CONTINUOUS
 10
1103.902
 20
193.7776
 30
0.0
 11
1048.902
 21
193.7776
 31
0.0
  0
LINE
  5
3A4
  8
5
  6
CONTINUOUS
 10
1048.902
 20
193.7776
 30
0.0
 11
877.902
 21
193.7776
 31
0.0
  0
LINE
  5
3A5
  8
5
  6
CONTINUOUS
 10
822.902
 20
419.7776
 30
0.0
 11
822.902
 21
474.7776
 31
0.0
  0
LINE
  5
3A6
  8
5
  6
CONTINUOUS
 10
822.902
 20
193.7776
 30
0.0
 11
822.902
 21
248.7776
 31
0.0
  0
LINE
  5
3A7
  8
5
  6
CONTINUOUS
 10
822.902
 20
248.7776
 30
0.0
 11
822.902
 21
419.7776
 31
0.0
  0
LINE
  5
3A8
  8
5
  6
CONTINUOUS
 10
822.902
 20
474.7776
 30
0.0
 11
877.902
 21
474.7776
 31
0.0
  0
LINE
  5
3A9
  8
5
  6
CONTINUOUS
 10
877.902
 20
474.7776
 30
0.0
 11
1048.902
 21
474.7776
 31
0.0
  0
LINE
  5
3AA
  8
5
  6
CONTINUOUS
 10
1048.902
 20
474.7776
 30
0.0
 11
1103.902
 21
474.7776
 31
0.0
  0
LINE
  5
3AB
  8
5
  6
CONTINUOUS
 10
1103.902
 20
248.7776
 30
0.0
 11
1103.902
 21
193.7776
 31
0.0
  0
LINE
  5
3AC
  8
5
  6
CONTINUOUS
 10
1103.902
 20
474.7776
 30
0.0
 11
1103.902
 21
419.7776
 31
0.0
  0
LINE
  5
3AD
  8
5
  6
CONTINUOUS
 10
1103.902
 20
419.7776
 30
0.0
 11
1103.902
 21
248.7776
 31
0.0
  0
LINE
  5
3AE
  8
5
  6
CONTINUOUS
 10
887.402
 20
479.7777
 30
0.0
 11
887.4021
 21
481.8332
 31
0.0
  0
LINE
  5
3AF
  8
5
  6
CONTINUOUS
 10
887.4021
 20
481.8332
 30
0.0
 11
895.402
 21
488.1846
 31
0.0
  0
LINE
  5
3B0
  8
5
  6
CONTINUOUS
 10
895.402
 20
488.1846
 30
0.0
 11
915.4021
 21
488.1846
 31
0.0
  0
LINE
  5
3B1
  8
5
  6
CONTINUOUS
 10
915.4021
 20
488.1846
 30
0.0
 11
923.4021
 21
481.8332
 31
0.0
  0
LINE
  5
3B2
  8
5
  6
CONTINUOUS
 10
923.4021
 20
481.8332
 30
0.0
 11
923.4021
 21
479.7777
 31
0.0
  0
LINE
  5
3B3
  8
5
  6
CONTINUOUS
 10
817.902
 20
188.7776
 30
0.0
 11
817.902
 21
479.7777
 31
0.0
  0
LINE
  5
3B4
  8
5
  6
CONTINUOUS
 10
817.902
 20
479.7777
 30
0.0
 11
1108.902
 21
479.7777
 31
0.0
  0
LINE
  5
3B5
  8
5
  6
CONTINUOUS
 10
1108.902
 20
479.7777
 30
0.0
 11
1108.902
 21
188.7776
 31
0.0
  0
LINE
  5
3B6
  8
5
  6
CONTINUOUS
 10
1108.902
 20
188.7776
 30
0.0
 11
1106.848
 21
188.7777
 31
0.0
  0
LINE
  5
3B7
  8
5
  6
CONTINUOUS
 10
819.9559
 20
188.7777
 30
0.0
 11
817.902
 21
188.7776
 31
0.0
  0
LINE
  5
3B8
  8
5
  6
CONTINUOUS
 10
823.9019
 20
193.6003
 30
0.0
 11
1102.902
 21
193.6003
 31
0.0
  0
LINE
  5
3B9
  8
5
  6
CONTINUOUS
 10
823.9019
 20
137.7776
 30
0.0
 11
823.9019
 21
193.6003
 31
0.0
  0
LINE
  5
3BA
  8
5
  6
CONTINUOUS
 10
1102.902
 20
137.7776
 30
0.0
 11
1102.902
 21
193.6003
 31
0.0
  0
LINE
  5
3BB
  8
5
  6
CONTINUOUS
 10
1106.848
 20
189.5932
 30
0.0
 11
1106.848
 21
137.7776
 31
0.0
  0
LINE
  5
3BC
  8
5
  6
CONTINUOUS
 10
819.9559
 20
189.5932
 30
0.0
 11
819.9559
 21
137.7776
 31
0.0
  0
LINE
  5
3BD
  8
5
  6
CONTINUOUS
 10
819.9559
 20
189.5932
 30
0.0
 11
823.9019
 21
193.6003
 31
0.0
  0
LINE
  5
3BE
  8
5
  6
CONTINUOUS
 10
1102.902
 20
193.6003
 30
0.0
 11
1106.848
 21
189.5932
 31
0.0
  0
LINE
  5
3BF
  8
5
  6
CONTINUOUS
 10
875.394
 20
422.2777
 30
0.0
 11
875.394
 21
246.2777
 31
0.0
  0
LINE
  5
3C0
  8
5
  6
CONTINUOUS
 10
875.394
 20
246.2777
 30
0.0
 11
1051.41
 21
246.2777
 31
0.0
  0
LINE
  5
3C1
  8
5
  6
CONTINUOUS
 10
1051.41
 20
246.2777
 30
0.0
 11
1051.402
 21
422.2856
 31
0.0
  0
LINE
  5
3C2
  8
5
  6
CONTINUOUS
 10
1051.402
 20
422.2856
 30
0.0
 11
875.394
 21
422.2777
 31
0.0
  0
LINE
  5
3C3
  8
5
  6
CONTINUOUS
 10
823.4404
 20
248.7776
 30
0.0
 11
823.4405
 21
246.2777
 31
0.0
  0
LINE
  5
3C4
  8
5
  6
CONTINUOUS
 10
823.4405
 20
246.2777
 30
0.0
 11
875.394
 21
246.2777
 31
0.0
  0
LINE
  5
3C5
  8
5
  6
CONTINUOUS
 10
875.394
 20
422.2777
 30
0.0
 11
823.4405
 21
422.2775
 31
0.0
  0
LINE
  5
3C6
  8
5
  6
CONTINUOUS
 10
823.4405
 20
422.2775
 30
0.0
 11
823.4404
 21
419.7776
 31
0.0
  0
LINE
  5
3C7
  8
5
  6
CONTINUOUS
 10
877.902
 20
474.2392
 30
0.0
 11
875.402
 21
474.239
 31
0.0
  0
LINE
  5
3C8
  8
5
  6
CONTINUOUS
 10
875.402
 20
474.239
 30
0.0
 11
875.394
 21
422.2777
 31
0.0
  0
LINE
  5
3C9
  8
5
  6
CONTINUOUS
 10
1051.402
 20
422.2856
 30
0.0
 11
1051.402
 21
474.2392
 31
0.0
  0
LINE
  5
3CA
  8
5
  6
CONTINUOUS
 10
1051.402
 20
474.2392
 30
0.0
 11
1048.902
 21
474.2392
 31
0.0
  0
LINE
  5
3CB
  8
5
  6
CONTINUOUS
 10
875.402
 20
474.239
 30
0.0
 11
823.4405
 21
422.2775
 31
0.0
  0
LINE
  5
3CC
  8
5
  6
CONTINUOUS
 10
1103.363
 20
419.7776
 30
0.0
 11
1103.363
 21
422.2777
 31
0.0
  0
LINE
  5
3CD
  8
5
  6
CONTINUOUS
 10
1103.363
 20
422.2777
 30
0.0
 11
1051.402
 21
422.2856
 31
0.0
  0
LINE
  5
3CE
  8
5
  6
CONTINUOUS
 10
1051.41
 20
246.2777
 30
0.0
 11
1103.364
 21
246.2777
 31
0.0
  0
LINE
  5
3CF
  8
5
  6
CONTINUOUS
 10
1103.364
 20
246.2777
 30
0.0
 11
1103.363
 21
248.7776
 31
0.0
  0
LINE
  5
3D0
  8
5
  6
CONTINUOUS
 10
1103.363
 20
422.2777
 30
0.0
 11
1051.402
 21
474.2392
 31
0.0
  0
LINE
  5
3D1
  8
5
  6
CONTINUOUS
 10
1048.902
 20
194.3161
 30
0.0
 11
1051.402
 21
194.3161
 31
0.0
  0
LINE
  5
3D2
  8
5
  6
CONTINUOUS
 10
1051.402
 20
194.3161
 30
0.0
 11
1051.41
 21
246.2777
 31
0.0
  0
LINE
  5
3D3
  8
5
  6
CONTINUOUS
 10
875.394
 20
246.2777
 30
0.0
 11
875.402
 21
194.3161
 31
0.0
  0
LINE
  5
3D4
  8
5
  6
CONTINUOUS
 10
875.402
 20
194.3161
 30
0.0
 11
877.902
 21
194.3161
 31
0.0
  0
LINE
  5
3D5
  8
5
  6
CONTINUOUS
 10
823.4405
 20
246.2777
 30
0.0
 11
875.402
 21
194.3161
 31
0.0
  0
LINE
  5
3D6
  8
5
  6
CONTINUOUS
 10
1051.402
 20
194.3161
 30
0.0
 11
1103.364
 21
246.2777
 31
0.0
  0
LINE
  5
3D7
  8
5
  6
CONTINUOUS
 10
1108.902
 20
188.7776
 30
0.0
 11
1103.902
 21
193.7776
 31
0.0
  0
LINE
  5
3D8
  8
5
  6
CONTINUOUS
 10
822.9019
 20
193.7776
 30
0.0
 11
817.902
 21
188.7776
 31
0.0
  0
LINE
  5
3D9
  8
5
  6
CONTINUOUS
 10
1103.902
 20
474.7776
 30
0.0
 11
1108.902
 21
479.7777
 31
0.0
  0
LINE
  5
3DA
  8
5
  6
CONTINUOUS
 10
817.902
 20
479.7777
 30
0.0
 11
822.902
 21
474.7776
 31
0.0
  0
LINE
  5
3DB
  8
5
  6
CONTINUOUS
 10
1622.802
 20
1102.455
 30
0.0
 11
1622.802
 21
1102.455
 31
0.0
  0
LINE
  5
3DC
  8
5
  6
CONTINUOUS
 10
1658.009
 20
1124.093
 30
0.0
 11
1658.009
 21
1125.793
 31
0.0
  0
LINE
  5
3DD
  8
5
  6
CONTINUOUS
 10
1930.616
 20
1102.455
 30
0.0
 11
1930.616
 21
1102.455
 31
0.0
  0
LINE
  5
3DE
  8
5
  6
CONTINUOUS
 10
1895.409
 20
1125.793
 30
0.0
 11
1895.409
 21
1124.093
 31
0.0
  0
LINE
  5
3DF
  8
5
  6
CONTINUOUS
 10
1922.209
 20
1161.393
 30
0.0
 11
1631.209
 21
1161.393
 31
0.0
  0
LINE
  5
3E0
  8
5
  6
CONTINUOUS
 10
1631.709
 20
1161.393
 30
0.0
 11
1631.709
 21
1152.093
 31
0.0
  0
LINE
  5
3E1
  8
5
  6
CONTINUOUS
 10
1921.709
 20
1152.093
 30
0.0
 11
1921.709
 21
1161.393
 31
0.0
  0
LINE
  5
3E2
  8
5
  6
CONTINUOUS
 10
1973.209
 20
1297.393
 30
0.0
 11
1917.386
 21
1297.393
 31
0.0
  0
LINE
  5
3E3
  8
5
  6
CONTINUOUS
 10
1921.393
 20
1184.393
 30
0.0
 11
1973.209
 21
1184.393
 31
0.0
  0
LINE
  5
3E4
  8
5
  6
CONTINUOUS
 10
1973.209
 20
1184.393
 30
0.0
 11
1973.209
 21
1297.393
 31
0.0
  0
LINE
  5
3E5
  8
5
  6
CONTINUOUS
 10
1688.709
 20
1344.393
 30
0.0
 11
1864.709
 21
1344.393
 31
0.0
  0
LINE
  5
3E6
  8
5
  6
CONTINUOUS
 10
1775.59
 20
1344.393
 30
0.0
 11
1775.59
 21
1347.093
 31
0.0
  0
LINE
  5
3E7
  8
5
  6
CONTINUOUS
 10
1757.806
 20
1347.093
 30
0.0
 11
1757.806
 21
1344.393
 31
0.0
  0
LINE
  5
3E8
  8
5
  6
CONTINUOUS
 10
1777.09
 20
1344.393
 30
0.0
 11
1777.09
 21
1347.093
 31
0.0
  0
LINE
  5
3E9
  8
5
  6
CONTINUOUS
 10
1795.709
 20
1344.393
 30
0.0
 11
1795.709
 21
1347.093
 31
0.0
  0
LINE
  5
3EA
  8
5
  6
CONTINUOUS
 10
1777.088
 20
1344.393
 30
0.0
 11
1777.088
 21
1344.393
 31
0.0
  0
LINE
  5
3EB
  8
5
  6
CONTINUOUS
 10
1777.088
 20
1347.093
 30
0.0
 11
1777.088
 21
1347.093
 31
0.0
  0
LINE
  5
3EC
  8
5
  6
CONTINUOUS
 10
1757.806
 20
1347.093
 30
0.0
 11
1775.59
 21
1347.093
 31
0.0
  0
LINE
  5
3ED
  8
5
  6
CONTINUOUS
 10
1777.09
 20
1347.093
 30
0.0
 11
1795.709
 21
1347.093
 31
0.0
  0
LINE
  5
3EE
  8
5
  6
CONTINUOUS
 10
1757.806
 20
1347.093
 30
0.0
 11
1757.806
 21
1347.093
 31
0.0
  0
LINE
  5
3EF
  8
5
  6
CONTINUOUS
 10
1777.088
 20
1347.093
 30
0.0
 11
1777.09
 21
1347.093
 31
0.0
  0
LINE
  5
3F0
  8
5
  6
CONTINUOUS
 10
1636.747
 20
1314.393
 30
0.0
 11
1688.709
 21
1344.393
 31
0.0
  0
LINE
  5
3F1
  8
5
  6
CONTINUOUS
 10
1864.709
 20
1344.393
 30
0.0
 11
1916.67
 21
1314.393
 31
0.0
  0
LINE
  5
3F2
  8
5
  6
CONTINUOUS
 10
1862.209
 20
1314.393
 30
0.0
 11
1862.209
 21
1314.082
 31
0.0
  0
LINE
  5
3F3
  8
5
  6
CONTINUOUS
 10
953.7403
 20
479.7777
 30
0.0
 11
952.0182
 21
499.3306
 31
0.0
  0
LINE
  5
3F4
  8
5
  6
CONTINUOUS
 10
952.0182
 20
499.3306
 30
0.0
 11
934.9021
 21
512.0024
 31
0.0
  0
LINE
  5
3F5
  8
5
  6
CONTINUOUS
 10
934.9021
 20
512.0024
 30
0.0
 11
875.902
 21
512.0024
 31
0.0
  0
LINE
  5
3F6
  8
5
  6
CONTINUOUS
 10
875.902
 20
512.0024
 30
0.0
 11
858.7859
 21
499.3306
 31
0.0
  0
LINE
  5
3F7
  8
5
  6
CONTINUOUS
 10
1917.209
 20
1314.393
 30
0.0
 11
1862.209
 21
1314.393
 31
0.0
  0
LINE
  5
3F8
  8
5
  6
CONTINUOUS
 10
857.0638
 20
479.7777
 30
0.0
 11
858.7859
 21
499.3306
 31
0.0
  0
LINE
  5
3F9
  8
5
  6
CONTINUOUS
 10
1691.209
 20
1314.082
 30
0.0
 11
1691.209
 21
1314.393
 31
0.0
  0
LINE
  5
3FA
  8
5
  6
CONTINUOUS
 10
1691.209
 20
1314.393
 30
0.0
 11
1636.209
 21
1314.393
 31
0.0
  0
LINE
  5
3FB
  8
5
  6
CONTINUOUS
 10
1917.209
 20
1302.393
 30
0.0
 11
1922.209
 21
1161.393
 31
0.0
  0
LINE
  5
3FC
  8
5
  6
CONTINUOUS
 10
1631.209
 20
1161.393
 30
0.0
 11
1636.209
 21
1302.393
 31
0.0
  0
LINE
  5
3FD
  8
5
  6
CONTINUOUS
 10
1917.209
 20
1314.393
 30
0.0
 11
1917.209
 21
1302.393
 31
0.0
  0
LINE
  5
3FE
  8
5
  6
CONTINUOUS
 10
858.7859
 20
521.208
 30
0.0
 11
855.6599
 21
497.4782
 31
0.0
  0
LINE
  5
3FF
  8
5
  6
CONTINUOUS
 10
858.7859
 20
521.208
 30
0.0
 11
875.902
 21
529.6802
 31
0.0
  0
LINE
  5
400
  8
5
  6
CONTINUOUS
 10
875.902
 20
529.6802
 30
0.0
 11
934.9021
 21
529.6802
 31
0.0
  0
LINE
  5
401
  8
5
  6
CONTINUOUS
 10
934.9021
 20
529.6802
 30
0.0
 11
952.0182
 21
521.208
 31
0.0
  0
LINE
  5
402
  8
5
  6
CONTINUOUS
 10
952.0182
 20
521.208
 30
0.0
 11
955.1443
 21
497.4782
 31
0.0
  0
LINE
  5
403
  8
5
  6
CONTINUOUS
 10
1636.209
 20
1314.393
 30
0.0
 11
1636.209
 21
1302.393
 31
0.0
  0
LINE
  5
404
  8
5
  6
CONTINUOUS
 10
1921.709
 20
1152.093
 30
0.0
 11
1893.709
 21
1124.093
 31
0.0
  0
LINE
  5
405
  8
5
  6
CONTINUOUS
 10
858.7859
 20
499.3306
 30
0.0
 11
858.7859
 21
521.208
 31
0.0
  0
LINE
  5
406
  8
5
  6
CONTINUOUS
 10
1631.709
 20
1152.093
 30
0.0
 11
1659.709
 21
1124.093
 31
0.0
  0
LINE
  5
407
  8
5
  6
CONTINUOUS
 10
854.7846
 20
479.7777
 30
0.0
 11
855.6599
 21
497.4782
 31
0.0
  0
LINE
  5
408
  8
5
  6
CONTINUOUS
 10
1656.709
 20
1124.093
 30
0.0
 11
1659.709
 21
1124.093
 31
0.0
  0
LINE
  5
409
  8
5
  6
CONTINUOUS
 10
955.1443
 20
497.4782
 30
0.0
 11
956.0195
 21
479.7777
 31
0.0
  0
LINE
  5
40A
  8
5
  6
CONTINUOUS
 10
1667.717
 20
1124.093
 30
0.0
 11
1670.717
 21
1124.093
 31
0.0
  0
LINE
  5
40B
  8
5
  6
CONTINUOUS
 10
952.0182
 20
521.208
 30
0.0
 11
952.0182
 21
499.3306
 31
0.0
  0
LINE
  5
40C
  8
5
  6
CONTINUOUS
 10
1670.717
 20
1124.093
 30
0.0
 11
1724.881
 21
1124.093
 31
0.0
  0
LINE
  5
40D
  8
5
  6
CONTINUOUS
 10
1828.537
 20
1124.093
 30
0.0
 11
1882.7
 21
1124.093
 31
0.0
  0
LINE
  5
40E
  8
5
  6
CONTINUOUS
 10
1882.7
 20
1124.093
 30
0.0
 11
1885.7
 21
1124.093
 31
0.0
  0
LINE
  5
40F
  8
5
  6
CONTINUOUS
 10
1893.709
 20
1124.093
 30
0.0
 11
1896.709
 21
1124.093
 31
0.0
  0
LINE
  5
410
  8
5
  6
CONTINUOUS
 10
1893.709
 20
1124.093
 30
0.0
 11
1885.7
 21
1124.093
 31
0.0
  0
LINE
  5
411
  8
5
  6
CONTINUOUS
 10
1667.717
 20
1124.093
 30
0.0
 11
1659.709
 21
1124.093
 31
0.0
  0
LINE
  5
412
  8
5
  6
CONTINUOUS
 10
934.9021
 20
512.0024
 30
0.0
 11
934.9021
 21
529.6802
 31
0.0
  0
LINE
  5
413
  8
5
  6
CONTINUOUS
 10
875.902
 20
529.6802
 30
0.0
 11
875.902
 21
512.0024
 31
0.0
  0
LINE
  5
414
  8
5
  6
CONTINUOUS
 10
1951.841
 20
834.5089
 30
0.0
 11
1986.709
 21
834.5089
 31
0.0
  0
LINE
  5
415
  8
5
  6
CONTINUOUS
 10
1631.709
 20
1152.093
 30
0.0
 11
1921.709
 21
1152.093
 31
0.0
  0
LINE
  5
416
  8
5
  6
CONTINUOUS
 10
1864.709
 20
1314.393
 30
0.0
 11
1864.709
 21
1344.393
 31
0.0
  0
LINE
  5
417
  8
5
  6
CONTINUOUS
 10
1688.709
 20
1344.393
 30
0.0
 11
1688.709
 21
1314.393
 31
0.0
  0
LINE
  5
418
  8
5
  6
CONTINUOUS
 10
1862.209
 20
1314.082
 30
0.0
 11
1691.209
 21
1314.082
 31
0.0
  0
LINE
  5
419
  8
5
  6
CONTINUOUS
 10
1917.209
 20
1302.393
 30
0.0
 11
1636.209
 21
1302.393
 31
0.0
  0
LINE
  5
41A
  8
5
  6
CONTINUOUS
 10
963.4021
 20
1161.393
 30
0.0
 11
963.4021
 21
1152.093
 31
0.0
  0
LINE
  5
41B
  8
5
  6
CONTINUOUS
 10
1246.402
 20
234.2777
 30
0.0
 11
1248.798
 21
234.2777
 31
0.0
  0
LINE
  5
41C
  8
5
  6
CONTINUOUS
 10
1251.071
 20
252.0277
 30
0.0
 11
1246.402
 21
252.0276
 31
0.0
  0
LINE
  5
41D
  8
5
  6
CONTINUOUS
 10
1246.402
 20
234.2777
 30
0.0
 11
1246.402
 21
252.0276
 31
0.0
  0
LINE
  5
41E
  8
5
  6
CONTINUOUS
 10
1246.402
 20
434.2776
 30
0.0
 11
1248.798
 21
434.2777
 31
0.0
  0
LINE
  5
41F
  8
5
  6
CONTINUOUS
 10
1246.402
 20
434.2776
 30
0.0
 11
1246.402
 21
452.9777
 31
0.0
  0
LINE
  5
420
  8
5
  6
CONTINUOUS
 10
1246.402
 20
215.5777
 30
0.0
 11
1246.402
 21
234.2777
 31
0.0
  0
LINE
  5
421
  8
5
  6
CONTINUOUS
 10
1246.402
 20
416.5277
 30
0.0
 11
1251.071
 21
416.5277
 31
0.0
  0
LINE
  5
422
  8
5
  6
CONTINUOUS
 10
1246.402
 20
416.5277
 30
0.0
 11
1246.402
 21
434.2776
 31
0.0
  0
LINE
  5
423
  8
5
  6
CONTINUOUS
 10
1250.347
 20
284.7777
 30
0.0
 11
1246.402
 21
284.7777
 31
0.0
  0
LINE
  5
424
  8
5
  6
CONTINUOUS
 10
1246.402
 20
269.7776
 30
0.0
 11
1246.402
 21
284.7777
 31
0.0
  0
LINE
  5
425
  8
5
  6
CONTINUOUS
 10
1246.402
 20
269.7776
 30
0.0
 11
1251.025
 21
269.7776
 31
0.0
  0
LINE
  5
426
  8
5
  6
CONTINUOUS
 10
1249.524
 20
317.0277
 30
0.0
 11
1246.402
 21
317.0277
 31
0.0
  0
LINE
  5
427
  8
5
  6
CONTINUOUS
 10
1246.402
 20
299.7778
 30
0.0
 11
1246.402
 21
317.0277
 31
0.0
  0
LINE
  5
428
  8
5
  6
CONTINUOUS
 10
1246.402
 20
299.7778
 30
0.0
 11
1249.862
 21
299.7778
 31
0.0
  0
LINE
  5
429
  8
5
  6
CONTINUOUS
 10
1249.524
 20
351.5276
 30
0.0
 11
1246.402
 21
351.5276
 31
0.0
  0
LINE
  5
42A
  8
5
  6
CONTINUOUS
 10
1246.402
 20
334.2777
 30
0.0
 11
1246.402
 21
351.5276
 31
0.0
  0
LINE
  5
42B
  8
5
  6
CONTINUOUS
 10
1246.402
 20
334.2777
 30
0.0
 11
1249.412
 21
334.2777
 31
0.0
  0
LINE
  5
42C
  8
5
  6
CONTINUOUS
 10
1250.347
 20
383.7776
 30
0.0
 11
1246.402
 21
383.7776
 31
0.0
  0
LINE
  5
42D
  8
5
  6
CONTINUOUS
 10
1246.402
 20
368.7777
 30
0.0
 11
1246.402
 21
383.7776
 31
0.0
  0
LINE
  5
42E
  8
5
  6
CONTINUOUS
 10
1246.402
 20
368.7777
 30
0.0
 11
1249.862
 21
368.7777
 31
0.0
  0
LINE
  5
42F
  8
5
  6
CONTINUOUS
 10
1246.402
 20
398.7777
 30
0.0
 11
1246.402
 21
416.5277
 31
0.0
  0
LINE
  5
430
  8
5
  6
CONTINUOUS
 10
1246.402
 20
398.7777
 30
0.0
 11
1251.025
 21
398.7777
 31
0.0
  0
LINE
  5
431
  8
5
  6
CONTINUOUS
 10
1246.402
 20
252.0276
 30
0.0
 11
1246.402
 21
269.7776
 31
0.0
  0
LINE
  5
432
  8
5
  6
CONTINUOUS
 10
1246.402
 20
284.7777
 30
0.0
 11
1246.402
 21
299.7778
 31
0.0
  0
LINE
  5
433
  8
5
  6
CONTINUOUS
 10
1246.402
 20
317.0277
 30
0.0
 11
1246.402
 21
334.2777
 31
0.0
  0
LINE
  5
434
  8
5
  6
CONTINUOUS
 10
1246.402
 20
351.5276
 30
0.0
 11
1246.402
 21
368.7777
 31
0.0
  0
LINE
  5
435
  8
5
  6
CONTINUOUS
 10
1246.402
 20
383.7776
 30
0.0
 11
1246.402
 21
398.7777
 31
0.0
  0
LINE
  5
436
  8
5
  6
CONTINUOUS
 10
1114.902
 20
234.2777
 30
0.0
 11
1136.902
 21
234.2777
 31
0.0
  0
LINE
  5
437
  8
5
  6
CONTINUOUS
 10
1136.902
 20
252.0276
 30
0.0
 11
1136.902
 21
234.2777
 31
0.0
  0
LINE
  5
438
  8
5
  6
CONTINUOUS
 10
1136.902
 20
252.0276
 30
0.0
 11
1114.902
 21
252.0276
 31
0.0
  0
LINE
  5
439
  8
5
  6
CONTINUOUS
 10
1114.902
 20
269.7776
 30
0.0
 11
1136.902
 21
269.7776
 31
0.0
  0
LINE
  5
43A
  8
5
  6
CONTINUOUS
 10
1136.902
 20
284.7777
 30
0.0
 11
1136.902
 21
269.7776
 31
0.0
  0
LINE
  5
43B
  8
5
  6
CONTINUOUS
 10
1136.902
 20
284.7777
 30
0.0
 11
1114.902
 21
284.7777
 31
0.0
  0
LINE
  5
43C
  8
5
  6
CONTINUOUS
 10
1114.902
 20
299.7778
 30
0.0
 11
1136.902
 21
299.7778
 31
0.0
  0
LINE
  5
43D
  8
5
  6
CONTINUOUS
 10
1136.902
 20
317.0277
 30
0.0
 11
1136.902
 21
299.7778
 31
0.0
  0
LINE
  5
43E
  8
5
  6
CONTINUOUS
 10
1136.902
 20
317.0277
 30
0.0
 11
1114.902
 21
317.0277
 31
0.0
  0
LINE
  5
43F
  8
5
  6
CONTINUOUS
 10
1114.902
 20
334.2777
 30
0.0
 11
1136.902
 21
334.2777
 31
0.0
  0
LINE
  5
440
  8
5
  6
CONTINUOUS
 10
1136.902
 20
351.5276
 30
0.0
 11
1136.902
 21
334.2777
 31
0.0
  0
LINE
  5
441
  8
5
  6
CONTINUOUS
 10
1136.902
 20
351.5276
 30
0.0
 11
1114.902
 21
351.5276
 31
0.0
  0
LINE
  5
442
  8
5
  6
CONTINUOUS
 10
1136.902
 20
383.7776
 30
0.0
 11
1114.902
 21
383.7776
 31
0.0
  0
LINE
  5
443
  8
5
  6
CONTINUOUS
 10
1114.902
 20
368.7777
 30
0.0
 11
1136.902
 21
368.7777
 31
0.0
  0
LINE
  5
444
  8
5
  6
CONTINUOUS
 10
1136.902
 20
383.7776
 30
0.0
 11
1136.902
 21
368.7777
 31
0.0
  0
LINE
  5
445
  8
5
  6
CONTINUOUS
 10
1136.902
 20
416.5277
 30
0.0
 11
1114.902
 21
416.5277
 31
0.0
  0
LINE
  5
446
  8
5
  6
CONTINUOUS
 10
1114.902
 20
398.7777
 30
0.0
 11
1136.902
 21
398.7777
 31
0.0
  0
LINE
  5
447
  8
5
  6
CONTINUOUS
 10
1136.902
 20
416.5277
 30
0.0
 11
1136.902
 21
398.7777
 31
0.0
  0
LINE
  5
448
  8
5
  6
CONTINUOUS
 10
1114.902
 20
434.2776
 30
0.0
 11
1136.902
 21
434.2776
 31
0.0
  0
LINE
  5
449
  8
5
  6
CONTINUOUS
 10
1136.902
 20
452.9777
 30
0.0
 11
1136.902
 21
434.2776
 31
0.0
  0
LINE
  5
44A
  8
5
  6
CONTINUOUS
 10
1136.902
 20
234.2777
 30
0.0
 11
1136.902
 21
215.5777
 31
0.0
  0
LINE
  5
44B
  8
5
  6
CONTINUOUS
 10
1136.902
 20
269.7776
 30
0.0
 11
1136.902
 21
252.0276
 31
0.0
  0
LINE
  5
44C
  8
5
  6
CONTINUOUS
 10
1136.902
 20
299.7778
 30
0.0
 11
1136.902
 21
284.7777
 31
0.0
  0
LINE
  5
44D
  8
5
  6
CONTINUOUS
 10
1136.902
 20
334.2777
 30
0.0
 11
1136.902
 21
317.0277
 31
0.0
  0
LINE
  5
44E
  8
5
  6
CONTINUOUS
 10
1136.902
 20
368.7777
 30
0.0
 11
1136.902
 21
351.5276
 31
0.0
  0
LINE
  5
44F
  8
5
  6
CONTINUOUS
 10
1136.902
 20
398.7777
 30
0.0
 11
1136.902
 21
383.7776
 31
0.0
  0
LINE
  5
450
  8
5
  6
CONTINUOUS
 10
1136.902
 20
434.2776
 30
0.0
 11
1136.902
 21
416.5277
 31
0.0
  0
LINE
  5
451
  8
5
  6
CONTINUOUS
 10
1136.902
 20
434.2776
 30
0.0
 11
1246.402
 21
434.2776
 31
0.0
  0
LINE
  5
452
  8
5
  6
CONTINUOUS
 10
1136.902
 20
398.7777
 30
0.0
 11
1246.402
 21
398.7777
 31
0.0
  0
LINE
  5
453
  8
5
  6
CONTINUOUS
 10
1246.402
 20
416.5277
 30
0.0
 11
1136.902
 21
416.5277
 31
0.0
  0
LINE
  5
454
  8
5
  6
CONTINUOUS
 10
1136.902
 20
368.7777
 30
0.0
 11
1246.402
 21
368.7777
 31
0.0
  0
LINE
  5
455
  8
5
  6
CONTINUOUS
 10
1246.402
 20
383.7776
 30
0.0
 11
1136.902
 21
383.7776
 31
0.0
  0
LINE
  5
457
  8
5
  6
CONTINUOUS
 10
1246.402
 20
351.5276
 30
0.0
 11
1136.902
 21
351.5276
 31
0.0
  0
LINE
  5
458
  8
5
  6
CONTINUOUS
 10
1246.402
 20
317.0277
 30
0.0
 11
1136.902
 21
317.0277
 31
0.0
  0
LINE
  5
459
  8
5
  6
CONTINUOUS
 10
1136.902
 20
299.7778
 30
0.0
 11
1246.402
 21
299.7778
 31
0.0
  0
LINE
  5
45A
  8
5
  6
CONTINUOUS
 10
1246.402
 20
284.7777
 30
0.0
 11
1136.902
 21
284.7777
 31
0.0
  0
LINE
  5
45B
  8
5
  6
CONTINUOUS
 10
1136.902
 20
269.7776
 30
0.0
 11
1246.402
 21
269.7776
 31
0.0
  0
LINE
  5
45C
  8
5
  6
CONTINUOUS
 10
1246.402
 20
252.0276
 30
0.0
 11
1136.902
 21
252.0276
 31
0.0
  0
LINE
  5
45D
  8
5
  6
CONTINUOUS
 10
1136.902
 20
234.2777
 30
0.0
 11
1246.402
 21
234.2777
 31
0.0
  0
LINE
  5
45E
  8
5
  6
CONTINUOUS
 10
1247.64
 20
519.6136
 30
0.0
 11
1246.402
 21
509.2776
 31
0.0
  0
LINE
  5
45F
  8
5
  6
CONTINUOUS
 10
842.4021
 20
509.2776
 30
0.0
 11
841.1641
 21
519.6136
 31
0.0
  0
LINE
  5
460
  8
5
  6
CONTINUOUS
 10
1246.402
 20
509.2776
 30
0.0
 11
953.5898
 21
509.2777
 31
0.0
  0
LINE
  5
461
  8
5
  6
CONTINUOUS
 10
857.2143
 20
509.2777
 30
0.0
 11
842.4021
 21
509.2776
 31
0.0
  0
LINE
  5
462
  8
5
  6
CONTINUOUS
 10
1246.402
 20
159.2777
 30
0.0
 11
1247.64
 21
148.9417
 31
0.0
  0
LINE
  5
463
  8
5
  6
CONTINUOUS
 10
1106.848
 20
159.2777
 30
0.0
 11
1136.214
 21
159.2777
 31
0.0
  0
LINE
  5
464
  8
5
  6
CONTINUOUS
 10
1232.59
 20
159.2777
 30
0.0
 11
1246.402
 21
159.2777
 31
0.0
  0
LINE
  5
465
  8
5
  6
CONTINUOUS
 10
1134.66
 20
171.0771
 30
0.0
 11
1132.711
 21
210.4933
 31
0.0
  0
LINE
  5
466
  8
5
  6
CONTINUOUS
 10
1132.711
 20
210.4933
 30
0.0
 11
1108.902
 21
210.4933
 31
0.0
  0
LINE
  5
467
  8
5
  6
CONTINUOUS
 10
1246.402
 20
159.2777
 30
0.0
 11
1246.402
 21
210.4933
 31
0.0
  0
LINE
  5
468
  8
5
  6
CONTINUOUS
 10
1246.402
 20
210.4933
 30
0.0
 11
1236.093
 21
210.4933
 31
0.0
  0
LINE
  5
469
  8
5
  6
CONTINUOUS
 10
1236.093
 20
210.4933
 30
0.0
 11
1234.144
 21
171.0771
 31
0.0
  0
LINE
  5
46A
  8
5
  6
CONTINUOUS
 10
1202.402
 20
210.4933
 30
0.0
 11
1166.402
 21
210.4933
 31
0.0
  0
LINE
  5
46B
  8
5
  6
CONTINUOUS
 10
1108.902
 20
458.062
 30
0.0
 11
1246.402
 21
458.062
 31
0.0
  0
LINE
  5
46C
  8
5
  6
CONTINUOUS
 10
1246.402
 20
458.062
 30
0.0
 11
1246.402
 21
509.2776
 31
0.0
  0
LINE
  5
46D
  8
5
  6
CONTINUOUS
 10
842.4021
 20
509.2776
 30
0.0
 11
842.4021
 21
479.7777
 31
0.0
  0
LINE
  5
46E
  8
5
  6
CONTINUOUS
 10
1248.798
 20
194.9498
 30
0.0
 11
1248.798
 21
157.9777
 31
0.0
  0
LINE
  5
46F
  8
5
  6
CONTINUOUS
 10
1251.071
 20
175.7276
 30
0.0
 11
1251.071
 21
183.7878
 31
0.0
  0
LINE
  5
470
  8
5
  6
CONTINUOUS
 10
1251.071
 20
484.7675
 30
0.0
 11
1251.071
 21
492.8277
 31
0.0
  0
LINE
  5
471
  8
5
  6
CONTINUOUS
 10
1248.798
 20
510.5777
 30
0.0
 11
1248.798
 21
473.6055
 31
0.0
  0
LINE
  5
472
  8
5
  6
CONTINUOUS
 10
840.0065
 20
479.7777
 30
0.0
 11
840.0065
 21
510.5777
 31
0.0
  0
LINE
  5
473
  8
5
  6
CONTINUOUS
 10
1154.902
 20
138.8751
 30
0.0
 11
1137.786
 21
147.3474
 31
0.0
  0
LINE
  5
474
  8
5
  6
CONTINUOUS
 10
1154.902
 20
156.5529
 30
0.0
 11
1154.902
 21
138.8751
 31
0.0
  0
LINE
  5
475
  8
5
  6
CONTINUOUS
 10
1137.786
 20
169.2247
 30
0.0
 11
1154.902
 21
156.5529
 31
0.0
  0
LINE
  5
476
  8
5
  6
CONTINUOUS
 10
1137.786
 20
147.3474
 30
0.0
 11
1137.786
 21
169.2247
 31
0.0
  0
LINE
  5
477
  8
5
  6
CONTINUOUS
 10
1213.902
 20
156.5529
 30
0.0
 11
1231.018
 21
169.2247
 31
0.0
  0
LINE
  5
478
  8
5
  6
CONTINUOUS
 10
1213.902
 20
138.8751
 30
0.0
 11
1213.902
 21
156.5529
 31
0.0
  0
LINE
  5
479
  8
5
  6
CONTINUOUS
 10
1231.018
 20
147.3474
 30
0.0
 11
1213.902
 21
138.8751
 31
0.0
  0
LINE
  5
47A
  8
5
  6
CONTINUOUS
 10
1231.018
 20
169.2247
 30
0.0
 11
1231.018
 21
147.3474
 31
0.0
  0
LINE
  5
47B
  8
5
  6
CONTINUOUS
 10
1174.402
 20
180.3708
 30
0.0
 11
1166.402
 21
186.7221
 31
0.0
  0
LINE
  5
47C
  8
5
  6
CONTINUOUS
 10
1202.402
 20
186.7221
 30
0.0
 11
1194.402
 21
180.3708
 31
0.0
  0
LINE
  5
47D
  8
5
  6
CONTINUOUS
 10
1194.402
 20
180.3708
 30
0.0
 11
1174.402
 21
180.3708
 31
0.0
  0
LINE
  5
47E
  8
5
  6
CONTINUOUS
 10
1213.902
 20
138.8751
 30
0.0
 11
1154.902
 21
138.8751
 31
0.0
  0
LINE
  5
47F
  8
5
  6
CONTINUOUS
 10
1154.902
 20
156.5529
 30
0.0
 11
1213.902
 21
156.5529
 31
0.0
  0
LINE
  5
480
  8
5
  6
CONTINUOUS
 10
1137.786
 20
147.3474
 30
0.0
 11
1134.66
 21
171.0771
 31
0.0
  0
LINE
  5
481
  8
5
  6
CONTINUOUS
 10
1133.703
 20
215.5777
 30
0.0
 11
1137.786
 21
169.2247
 31
0.0
  0
LINE
  5
482
  8
5
  6
CONTINUOUS
 10
1235.101
 20
215.5777
 30
0.0
 11
1231.018
 21
169.2247
 31
0.0
  0
LINE
  5
483
  8
5
  6
CONTINUOUS
 10
1231.018
 20
147.3474
 30
0.0
 11
1234.144
 21
171.0771
 31
0.0
  0
LINE
  5
484
  8
5
  6
CONTINUOUS
 10
1202.402
 20
215.5777
 30
0.0
 11
1202.402
 21
186.7221
 31
0.0
  0
LINE
  5
485
  8
5
  6
CONTINUOUS
 10
1166.402
 20
186.7221
 30
0.0
 11
1166.402
 21
215.5777
 31
0.0
  0
LINE
  5
486
  8
5
  6
CONTINUOUS
 10
1415.402
 20
462.2777
 30
0.0
 11
1367.902
 21
513.7776
 31
0.0
  0
LINE
  5
487
  8
5
  6
CONTINUOUS
 10
1415.402
 20
462.2777
 30
0.0
 11
1415.402
 21
206.2777
 31
0.0
  0
LINE
  5
488
  8
5
  6
CONTINUOUS
 10
1367.902
 20
154.7777
 30
0.0
 11
1415.402
 21
206.2776
 31
0.0
  0
LINE
  5
489
  8
5
  6
CONTINUOUS
 10
1424.402
 20
462.2777
 30
0.0
 11
1415.402
 21
462.2777
 31
0.0
  0
LINE
  5
48A
  8
5
  6
CONTINUOUS
 10
1415.402
 20
206.2776
 30
0.0
 11
1424.402
 21
206.2776
 31
0.0
  0
LINE
  5
48B
  8
5
  6
CONTINUOUS
 10
1300.402
 20
434.0199
 30
0.0
 11
1254.402
 21
434.0199
 31
0.0
  0
LINE
  5
48C
  8
5
  6
CONTINUOUS
 10
1300.402
 20
234.5355
 30
0.0
 11
1254.402
 21
234.5355
 31
0.0
  0
LINE
  5
48D
  8
5
  6
CONTINUOUS
 10
1300.402
 20
235.7781
 30
0.0
 11
1367.902
 21
235.7781
 31
0.0
  0
LINE
  5
48E
  8
5
  6
CONTINUOUS
 10
1300.402
 20
432.7772
 30
0.0
 11
1367.902
 21
432.7773
 31
0.0
  0
ARC
  5
48F
  8
6
  6
CENTER
 10
1776.709
 20
931.093
 30
0.0
 40
175.0
 50
128.448342
 51
141.551658
  0
LINE
  5
490
  8
6
  6
CENTER
 10
1667.107432
 20
1040.694534
 30
0.0
 11
1642.889
 21
1064.913
 31
0.0
  0
ARC
  5
491
  8
6
  6
CENTER
 10
1776.709
 20
931.093
 30
0.0
 40
175.0
 50
38.448347
 51
51.551663
  0
LINE
  5
492
  8
6
  6
CENTER
 10
1886.3104
 20
1040.694703
 30
0.0
 11
1910.529
 21
1064.913
 31
0.0
  0
ARC
  5
493
  8
6
  6
CENTER
 10
1776.709
 20
931.093
 30
0.0
 40
175.0
 50
308.448342
 51
321.551658
  0
LINE
  5
494
  8
6
  6
CENTER
 10
1886.31045
 20
821.491347
 30
0.0
 11
1914.594898
 21
793.207253
 31
0.0
  0
ARC
  5
495
  8
6
  6
CENTER
 10
1776.709
 20
931.093
 30
0.0
 40
175.0
 50
218.448342
 51
231.551658
  0
LINE
  5
497
  8
6
  6
CENTER
 10
1776.709
 20
726.093
 30
0.0
 11
1776.709
 21
1136.093
 31
0.0
  0
LINE
  5
498
  8
6
  6
CENTER
 10
1571.709
 20
931.093
 30
0.0
 11
1981.709
 21
931.093
 31
0.0
  0
LINE
  5
499
  8
5
  6
CONTINUOUS
 10
1953.009
 20
812.3931
 30
0.0
 11
1937.675
 21
812.3931
 31
0.0
  0
LINE
  5
49B
  8
5
  6
CONTINUOUS
 10
1598.984
 20
1121.064
 30
0.0
 11
1611.656
 21
1111.163
 31
0.0
  0
LINE
  5
49C
  8
5
  6
CONTINUOUS
 10
1647.135
 20
1083.444
 30
0.0
 11
1611.656
 21
1111.163
 31
0.0
  0
LINE
  5
49D
  8
5
  6
CONTINUOUS
 10
1589.778
 20
1089.286
 30
0.0
 11
1613.508
 21
1049.793
 31
0.0
  0
LINE
  5
49E
  8
5
  6
CONTINUOUS
 10
1589.778
 20
1089.286
 30
0.0
 11
1581.306
 21
1103.386
 31
0.0
  0
LINE
  5
49F
  8
5
  6
CONTINUOUS
 10
1655.525
 20
1090.198
 30
0.0
 11
1656.709
 21
1124.093
 31
0.0
  0
LINE
  5
4A0
  8
5
  6
CONTINUOUS
 10
1581.306
 20
1103.386
 30
0.0
 11
1598.984
 21
1121.064
 31
0.0
  0
LINE
  5
4A1
  8
5
  6
CONTINUOUS
 10
1896.709
 20
1124.093
 30
0.0
 11
1897.892
 21
1090.198
 31
0.0
  0
LINE
  5
4A2
  8
5
  6
CONTINUOUS
 10
1591.373
 20
822.0571
 30
0.0
 11
1601.709
 21
812.3931
 31
0.0
  0
LINE
  5
4A3
  8
5
  6
CONTINUOUS
 10
1581.709
 20
831.0931
 30
0.0
 11
1591.373
 21
822.0571
 31
0.0
  0
LINE
  5
4A4
  8
5
  6
CONTINUOUS
 10
1962.045
 20
822.0571
 30
0.0
 11
1971.709
 21
832.3931
 31
0.0
  0
LINE
  5
4A5
  8
5
  6
CONTINUOUS
 10
1953.009
 20
812.3931
 30
0.0
 11
1962.045
 21
822.0571
 31
0.0
  0
LINE
  5
4A6
  8
5
  6
CONTINUOUS
 10
1591.373
 20
1040.129
 30
0.0
 11
1581.709
 21
1031.093
 31
0.0
  0
LINE
  5
4A7
  8
5
  6
CONTINUOUS
 10
1601.709
 20
1049.793
 30
0.0
 11
1591.373
 21
1040.129
 31
0.0
  0
LINE
  5
4A8
  8
5
  6
CONTINUOUS
 10
1962.045
 20
1040.129
 30
0.0
 11
1951.709
 21
1049.793
 31
0.0
  0
LINE
  5
4A9
  8
5
  6
CONTINUOUS
 10
1971.709
 20
1031.093
 30
0.0
 11
1962.045
 21
1040.129
 31
0.0
  0
LINE
  5
4AA
  8
5
  6
CONTINUOUS
 10
1581.709
 20
980.5931
 30
0.0
 11
1581.709
 21
995.5931
 31
0.0
  0
LINE
  5
4AB
  8
5
  6
CONTINUOUS
 10
1581.709
 20
1013.343
 30
0.0
 11
1581.709
 21
1031.093
 31
0.0
  0
LINE
  5
4AC
  8
5
  6
CONTINUOUS
 10
1581.709
 20
881.5931
 30
0.0
 11
1581.709
 21
888.1356
 31
0.0
  0
LINE
  5
4AD
  8
5
  6
CONTINUOUS
 10
1581.709
 20
848.8431
 30
0.0
 11
1581.709
 21
866.5931
 31
0.0
  0
LINE
  5
4AE
  8
5
  6
CONTINUOUS
 10
1581.709
 20
975.534
 30
0.0
 11
1581.709
 21
980.5931
 31
0.0
  0
LINE
  5
4AF
  8
5
  6
CONTINUOUS
 10
1581.709
 20
995.5931
 30
0.0
 11
1581.709
 21
1013.343
 31
0.0
  0
LINE
  5
4B0
  8
5
  6
CONTINUOUS
 10
1581.709
 20
866.5931
 30
0.0
 11
1581.709
 21
881.5931
 31
0.0
  0
LINE
  5
4B1
  8
5
  6
CONTINUOUS
 10
1581.709
 20
831.0931
 30
0.0
 11
1581.709
 21
848.8431
 31
0.0
  0
LINE
  5
4B2
  8
5
  6
CONTINUOUS
 10
1971.709
 20
866.5931
 30
0.0
 11
1971.709
 21
848.8431
 31
0.0
  0
LINE
  5
4B3
  8
5
  6
CONTINUOUS
 10
1971.709
 20
888.0571
 30
0.0
 11
1971.709
 21
881.5931
 31
0.0
  0
LINE
  5
4B4
  8
5
  6
CONTINUOUS
 10
1971.709
 20
1031.093
 30
0.0
 11
1971.709
 21
1013.343
 31
0.0
  0
LINE
  5
4B5
  8
5
  6
CONTINUOUS
 10
1971.709
 20
995.5931
 30
0.0
 11
1971.709
 21
980.5931
 31
0.0
  0
LINE
  5
4B6
  8
5
  6
CONTINUOUS
 10
1971.709
 20
881.5931
 30
0.0
 11
1971.709
 21
866.5931
 31
0.0
  0
LINE
  5
4B7
  8
5
  6
CONTINUOUS
 10
1971.709
 20
848.8431
 30
0.0
 11
1971.709
 21
837.5081
 31
0.0
  0
LINE
  5
4B8
  8
5
  6
CONTINUOUS
 10
1971.709
 20
1013.343
 30
0.0
 11
1971.709
 21
995.5931
 31
0.0
  0
LINE
  5
4B9
  8
5
  6
CONTINUOUS
 10
1971.709
 20
980.5931
 30
0.0
 11
1971.709
 21
975.534
 31
0.0
  0
LINE
  5
4BB
  8
5
  6
CONTINUOUS
 10
1601.709
 20
1049.793
 30
0.0
 11
1615.975
 21
1049.793
 31
0.0
  0
LINE
  5
4BC
  8
5
  6
CONTINUOUS
 10
1954.434
 20
1121.064
 30
0.0
 11
1972.111
 21
1103.386
 31
0.0
  0
LINE
  5
4BD
  8
5
  6
CONTINUOUS
 10
1972.111
 20
1103.386
 30
0.0
 11
1963.639
 21
1089.286
 31
0.0
  0
LINE
  5
4BE
  8
5
  6
CONTINUOUS
 10
1963.639
 20
1089.286
 30
0.0
 11
1939.909
 21
1049.793
 31
0.0
  0
LINE
  5
4BF
  8
5
  6
CONTINUOUS
 10
1906.282
 20
1083.444
 30
0.0
 11
1941.762
 21
1111.163
 31
0.0
  0
LINE
  5
4C0
  8
5
  6
CONTINUOUS
 10
1941.762
 20
1111.163
 30
0.0
 11
1954.434
 21
1121.064
 31
0.0
  0
LINE
  5
4C1
  8
5
  6
CONTINUOUS
 10
1943.978
 20
805.6207
 30
0.0
 11
1950.751
 21
812.3931
 31
0.0
  0
LINE
  5
4C2
  8
5
  6
CONTINUOUS
 10
1602.666
 20
812.3931
 30
0.0
 11
1609.439
 21
805.6208
 31
0.0
  0
LINE
  5
4C3
  8
5
  6
CONTINUOUS
 10
1655.976
 20
1103.102
 30
0.0
 11
1641.062
 21
1088.189
 31
0.0
  0
LINE
  5
4C4
  8
5
  6
CONTINUOUS
 10
1609.439
 20
1056.565
 30
0.0
 11
1602.666
 21
1049.793
 31
0.0
  0
LINE
  5
4C5
  8
5
  6
CONTINUOUS
 10
1950.751
 20
1049.793
 30
0.0
 11
1943.978
 21
1056.565
 31
0.0
  0
LINE
  5
4C6
  8
5
  6
CONTINUOUS
 10
1912.355
 20
1088.189
 30
0.0
 11
1897.442
 21
1103.102
 31
0.0
  0
LINE
  5
4C8
  8
5
  6
CONTINUOUS
 10
1611.656
 20
1111.163
 30
0.0
 11
1589.778
 21
1089.286
 31
0.0
  0
LINE
  5
4C9
  8
5
  6
CONTINUOUS
 10
1883.535
 20
1100.173
 30
0.0
 11
1882.7
 21
1124.093
 31
0.0
  0
LINE
  5
4CA
  8
5
  6
CONTINUOUS
 10
1670.717
 20
1124.093
 30
0.0
 11
1669.882
 21
1100.173
 31
0.0
  0
LINE
  5
4CB
  8
5
  6
CONTINUOUS
 10
1581.709
 20
1013.343
 30
0.0
 11
1594.404
 21
1013.343
 31
0.0
  0
LINE
  5
4CD
  8
5
  6
CONTINUOUS
 10
1600.409
 20
1031.093
 30
0.0
 11
1581.709
 21
1031.093
 31
0.0
  0
LINE
  5
4CF
  8
5
  6
CONTINUOUS
 10
1594.404
 20
848.8431
 30
0.0
 11
1581.709
 21
848.8431
 31
0.0
  0
LINE
  5
4D0
  8
5
  6
CONTINUOUS
 10
1602.38
 20
833.0646
 30
0.0
 11
1591.373
 21
822.0571
 31
0.0
  0
LINE
  5
4D1
  8
5
  6
CONTINUOUS
 10
1587.395
 20
995.5931
 30
0.0
 11
1581.709
 21
995.5931
 31
0.0
  0
LINE
  5
4D2
  8
5
  6
CONTINUOUS
 10
1581.709
 20
980.5931
 30
0.0
 11
1582.931
 21
980.5931
 31
0.0
  0
LINE
  5
4D3
  8
5
  6
CONTINUOUS
 10
1581.709
 20
881.5931
 30
0.0
 11
1582.931
 21
881.5931
 31
0.0
  0
LINE
  5
4D4
  8
5
  6
CONTINUOUS
 10
1587.395
 20
866.5931
 30
0.0
 11
1581.709
 21
866.5931
 31
0.0
  0
LINE
  5
4D5
  8
5
  6
CONTINUOUS
 10
1959.013
 20
1013.343
 30
0.0
 11
1971.709
 21
1013.343
 31
0.0
  0
LINE
  5
4D6
  8
5
  6
CONTINUOUS
 10
1971.709
 20
1031.093
 30
0.0
 11
1953.009
 21
1031.093
 31
0.0
  0
LINE
  5
4D9
  8
5
  6
CONTINUOUS
 10
1971.709
 20
848.8431
 30
0.0
 11
1959.013
 21
848.8431
 31
0.0
  0
LINE
  5
4DA
  8
5
  6
CONTINUOUS
 10
1962.045
 20
822.0571
 30
0.0
 11
1951.037
 21
833.0646
 31
0.0
  0
LINE
  5
4DB
  8
5
  6
CONTINUOUS
 10
1970.486
 20
980.5931
 30
0.0
 11
1971.709
 21
980.5931
 31
0.0
  0
LINE
  5
4DC
  8
5
  6
CONTINUOUS
 10
1971.709
 20
995.5931
 30
0.0
 11
1966.023
 21
995.5931
 31
0.0
  0
LINE
  5
4DD
  8
5
  6
CONTINUOUS
 10
1970.486
 20
881.5931
 30
0.0
 11
1971.709
 21
881.5931
 31
0.0
  0
LINE
  5
4DE
  8
5
  6
CONTINUOUS
 10
1971.709
 20
866.5931
 30
0.0
 11
1966.023
 21
866.5931
 31
0.0
  0
LINE
  5
4DF
  8
5
  6
CONTINUOUS
 10
1953.009
 20
1031.093
 30
0.0
 11
1949.914
 21
1031.093
 31
0.0
  0
LINE
  5
4E0
  8
5
  6
CONTINUOUS
 10
1603.504
 20
1031.093
 30
0.0
 11
1600.409
 21
1031.093
 31
0.0
  0
LINE
  5
4E1
  8
5
  6
CONTINUOUS
 10
1963.639
 20
1089.286
 30
0.0
 11
1941.762
 21
1111.163
 31
0.0
  0
LINE
  5
4E2
  8
6
  6
CENTER
 10
297.6445
 20
746.593
 30
0.0
 11
297.6445
 21
1115.593
 31
0.0
  0
LINE
  5
4E3
  8
6
  6
CENTER
 10
113.1445
 20
931.093
 30
0.0
 11
482.1445
 21
931.093
 31
0.0
  0
LINE
  5
4E4
  8
6
  6
CENTER
 10
1449.402
 20
931.0931
 30
0.0
 11
625.4021
 21
931.093
 31
0.0
  0
LINE
  5
4E5
  8
6
  6
CENTER
 10
625.4021
 20
334.2777
 30
0.0
 11
875.394
 21
334.2777
 31
0.0
  0
LINE
  5
4E6
  8
7
  6
DASHED
 10
760.4021
 20
467.2713
 30
0.0
 11
775.4021
 21
467.2713
 31
0.0
  0
LINE
  5
4E7
  8
7
  6
DASHED
 10
760.4021
 20
1045.587
 30
0.0
 11
775.4021
 21
1045.587
 31
0.0
  0
LINE
  5
4E8
  8
7
  6
DASHED
 10
760.4021
 20
1064.087
 30
0.0
 11
775.7497
 21
1064.087
 31
0.0
  0
LINE
  5
4E9
  8
7
  6
DASHED
 10
775.4021
 20
816.5995
 30
0.0
 11
760.4021
 21
816.5995
 31
0.0
  0
LINE
  5
4EA
  8
7
  6
DASHED
 10
775.4021
 20
798.0994
 30
0.0
 11
760.4021
 21
798.0994
 31
0.0
  0
LINE
  5
4EB
  8
7
  6
DASHED
 10
760.4021
 20
201.284
 30
0.0
 11
775.4021
 21
201.284
 31
0.0
  0
LINE
  5
4EC
  8
7
  6
DASHED
 10
760.4021
 20
448.7713
 30
0.0
 11
775.4021
 21
448.7713
 31
0.0
  0
LINE
  5
4ED
  8
7
  6
DASHED
 10
760.4021
 20
219.784
 30
0.0
 11
775.4021
 21
219.784
 31
0.0
  0
LINE
  5
4EE
  8
6
  6
CENTER
 10
747.9021
 20
1054.837
 30
0.0
 11
782.9021
 21
1054.837
 31
0.0
  0
LINE
  5
4EF
  8
6
  6
CENTER
 10
782.9021
 20
807.3495
 30
0.0
 11
747.9021
 21
807.3495
 31
0.0
  0
LINE
  5
4F0
  8
6
  6
CENTER
 10
747.9021
 20
458.0213
 30
0.0
 11
782.9021
 21
458.0213
 31
0.0
  0
LINE
  5
4F1
  8
6
  6
CENTER
 10
747.9021
 20
210.534
 30
0.0
 11
782.9021
 21
210.534
 31
0.0
  0
LINE
  5
4FE
  8
0
  6
CONTINUOUS
 10
655.4024
 20
958.5931
 30
0.0
 11
663.402
 21
957.4038
 31
0.0
  0
LINE
  5
4FF
  8
0
  6
CONTINUOUS
 10
753.4021
 20
958.5937
 30
0.0
 11
745.402
 21
957.4038
 31
0.0
  0
LINE
  5
512
  8
6
  6
CENTER
 10
1667.107382
 20
821.491516
 30
0.0
 11
1638.82313
 21
793.207225
 31
0.0
  0
LINE
  5
513
  8
6
  6
CENTER
 10
1051.406
 20
334.2777
 30
0.0
 11
1449.402
 21
334.2777
 31
0.0
  0
LINE
  5
515
  8
5
  6
CONTINUOUS
 10
988.2631
 20
1223.3824
 30
0.0
 11
998.1049
 21
1223.3827
 31
0.0
  0
LINE
  5
516
  8
5
  6
CONTINUOUS
 10
988.2623
 20
1242.001
 30
0.0
 11
998.1041
 21
1242.0014
 31
0.0
  0
LINE
  5
517
  8
5
  6
CONTINUOUS
 10
998.1033
 20
1261.2853
 30
0.0
 11
988.2614
 21
1261.2848
 31
0.0
  0
LINE
  5
518
  8
5
  6
CONTINUOUS
 10
988.2621
 20
1243.5011
 30
0.0
 11
998.1041
 21
1243.5015
 31
0.0
  0
LINE
  5
519
  8
5
  6
CONTINUOUS
 10
912.0028
 20
1223.3789
 30
0.0
 11
918.3335
 21
1223.3791
 31
0.0
  0
LINE
  5
51A
  8
5
  6
CONTINUOUS
 10
918.3896
 20
1241.9979
 30
0.0
 11
912.0028
 21
1223.3789
 31
0.0
  0
LINE
  5
51B
  8
5
  6
CONTINUOUS
 10
948.3108
 20
1223.3805
 30
0.0
 11
941.664
 21
1241.9989
 31
0.0
  0
LINE
  5
51C
  8
5
  6
CONTINUOUS
 10
930.643
 20
1241.9985
 30
0.0
 11
930.6436
 21
1231.0635
 31
0.0
  0
LINE
  5
51D
  8
5
  6
CONTINUOUS
 10
929.1436
 20
1231.0635
 30
0.0
 11
929.1431
 21
1241.9984
 31
0.0
  0
LINE
  5
51E
  8
5
  6
CONTINUOUS
 10
930.6436
 20
1231.0635
 30
0.0
 11
938.7818
 21
1231.0639
 31
0.0
  0
LINE
  5
51F
  8
5
  6
CONTINUOUS
 10
920.9692
 20
1231.0631
 30
0.0
 11
929.1436
 21
1231.0635
 31
0.0
  0
LINE
  5
520
  8
5
  6
CONTINUOUS
 10
918.3335
 20
1223.3791
 30
0.0
 11
920.9692
 21
1231.0631
 31
0.0
  0
LINE
  5
521
  8
5
  6
CONTINUOUS
 10
941.5248
 20
1223.3802
 30
0.0
 11
948.3108
 21
1223.3805
 31
0.0
  0
LINE
  5
522
  8
5
  6
CONTINUOUS
 10
938.7818
 20
1231.0639
 30
0.0
 11
941.5248
 21
1223.3802
 31
0.0
  0
LINE
  5
523
  8
5
  6
CONTINUOUS
 10
941.664
 20
1241.9989
 30
0.0
 11
930.643
 21
1241.9985
 31
0.0
  0
LINE
  5
524
  8
5
  6
CONTINUOUS
 10
941.1286
 20
1243.4989
 30
0.0
 11
934.78
 21
1261.2824
 31
0.0
  0
LINE
  5
525
  8
5
  6
CONTINUOUS
 10
930.643
 20
1243.4985
 30
0.0
 11
941.1286
 21
1243.4989
 31
0.0
  0
LINE
  5
526
  8
5
  6
CONTINUOUS
 10
930.6422
 20
1261.2823
 30
0.0
 11
930.643
 21
1243.4985
 31
0.0
  0
LINE
  5
527
  8
5
  6
CONTINUOUS
 10
934.78
 20
1261.2824
 30
0.0
 11
930.6422
 21
1261.2823
 31
0.0
  0
LINE
  5
528
  8
5
  6
CONTINUOUS
 10
929.1431
 20
1241.9984
 30
0.0
 11
918.3896
 21
1241.9979
 31
0.0
  0
LINE
  5
529
  8
5
  6
CONTINUOUS
 10
929.1431
 20
1241.9984
 30
0.0
 11
929.1431
 21
1241.9984
 31
0.0
  0
LINE
  5
52A
  8
5
  6
CONTINUOUS
 10
929.1422
 20
1261.2822
 30
0.0
 11
925.0045
 21
1261.282
 31
0.0
  0
LINE
  5
52B
  8
5
  6
CONTINUOUS
 10
929.143
 20
1243.4983
 30
0.0
 11
929.1422
 21
1261.2822
 31
0.0
  0
LINE
  5
52C
  8
5
  6
CONTINUOUS
 10
918.9042
 20
1243.498
 30
0.0
 11
929.143
 21
1243.4983
 31
0.0
  0
LINE
  5
52D
  8
5
  6
CONTINUOUS
 10
925.0045
 20
1261.282
 30
0.0
 11
918.9042
 21
1243.498
 31
0.0
  0
LINE
  5
52E
  8
5
  6
CONTINUOUS
 10
988.2623
 20
1242.001
 30
0.0
 11
988.2631
 21
1223.3824
 31
0.0
  0
ARC
  5
52F
  8
5
  6
CONTINUOUS
 10
969.0122
 20
1233.3976
 30
0.0
 40
12.0238
 50
2.746474
 51
45.68422
  0
LINE
  5
530
  8
5
  6
CONTINUOUS
 10
967.0
 20
1242.0
 30
0.0
 11
967.001
 21
1223.3814
 31
0.0
  0
LINE
  5
531
  8
5
  6
CONTINUOUS
 10
965.5009
 20
1223.3812
 30
0.0
 11
965.5001
 21
1242.0
 31
0.0
  0
LINE
  5
532
  8
5
  6
CONTINUOUS
 10
955.6583
 20
1241.9996
 30
0.0
 11
955.6591
 21
1223.3808
 31
0.0
  0
ARC
  5
533
  8
5
  6
CONTINUOUS
 10
970.4304
 20
1233.9733
 30
0.0
 40
10.59168
 50
270.0023
 51
0.0026
  0
LINE
  5
534
  8
5
  6
CONTINUOUS
 10
967.001
 20
1223.3814
 30
0.0
 11
970.4309
 21
1223.3816
 31
0.0
  0
LINE
  5
535
  8
5
  6
CONTINUOUS
 10
955.6591
 20
1223.3808
 30
0.0
 11
965.5009
 21
1223.3812
 31
0.0
  0
ARC
  5
536
  8
5
  6
CONTINUOUS
 10
970.4295
 20
1253.8273
 30
0.0
 40
7.45678
 50
0.002581
 51
90.00258
  0
ARC
  5
537
  8
5
  6
CONTINUOUS
 10
968.2646
 20
1254.7188
 30
0.0
 40
9.662929
 50
283.5587
 51
354.7079
  0
ARC
  5
538
  8
5
  6
CONTINUOUS
 10
969.0122
 20
1233.3976
 30
0.0
 40
12.02375
 50
57.16591
 51
82.7483
  0
LINE
  5
539
  8
5
  6
CONTINUOUS
 10
967.0
 20
1243.5001
 30
0.0
 11
975.5316
 21
1243.5005
 31
0.0
  0
LINE
  5
53A
  8
5
  6
CONTINUOUS
 10
977.4122
 20
1242.0006
 30
0.0
 11
967.0
 21
1242.0
 31
0.0
  0
LINE
  5
53B
  8
5
  6
CONTINUOUS
 10
966.9992
 20
1261.2839
 30
0.0
 11
967.0
 21
1243.5001
 31
0.0
  0
LINE
  5
53C
  8
5
  6
CONTINUOUS
 10
970.4292
 20
1261.284
 30
0.0
 11
966.9992
 21
1261.2839
 31
0.0
  0
LINE
  5
53D
  8
5
  6
CONTINUOUS
 10
965.5001
 20
1242.0
 30
0.0
 11
955.6583
 21
1241.9996
 31
0.0
  0
LINE
  5
53E
  8
5
  6
CONTINUOUS
 10
965.5
 20
1243.5001
 30
0.0
 11
965.4992
 21
1261.2839
 31
0.0
  0
LINE
  5
53F
  8
5
  6
CONTINUOUS
 10
955.6582
 20
1243.4996
 30
0.0
 11
965.5
 21
1243.5001
 31
0.0
  0
LINE
  5
540
  8
5
  6
CONTINUOUS
 10
955.6574
 20
1261.2834
 30
0.0
 11
955.6582
 21
1243.4996
 31
0.0
  0
LINE
  5
541
  8
5
  6
CONTINUOUS
 10
965.4992
 20
1261.2838
 30
0.0
 11
955.6574
 21
1261.2834
 31
0.0
  0
LINE
  5
542
  8
5
  6
CONTINUOUS
 10
988.2614
 20
1261.2848
 30
0.0
 11
988.2621
 21
1243.5011
 31
0.0
  0
LINE
  5
543
  8
5
  6
CONTINUOUS
 10
998.1049
 20
1223.3827
 30
0.0
 11
998.1041
 21
1242.0014
 31
0.0
  0
ARC
  5
544
  8
5
  6
CONTINUOUS
 10
1001.6158
 20
1233.3991
 30
0.0
 40
12.0238
 50
2.746474
 51
45.68383
  0
LINE
  5
545
  8
5
  6
CONTINUOUS
 10
999.6041
 20
1242.0016
 30
0.0
 11
999.6049
 21
1223.3827
 31
0.0
  0
ARC
  5
546
  8
5
  6
CONTINUOUS
 10
1003.0348
 20
1233.9747
 30
0.0
 40
10.59179
 50
270.0029
 51
0.0026
  0
LINE
  5
547
  8
5
  6
CONTINUOUS
 10
999.6049
 20
1223.3827
 30
0.0
 11
1003.0348
 21
1223.3829
 31
0.0
  0
LINE
  5
548
  8
5
  6
CONTINUOUS
 10
1010.0158
 20
1242.002
 30
0.0
 11
999.6041
 21
1242.0016
 31
0.0
  0
LINE
  5
549
  8
5
  6
CONTINUOUS
 10
999.6032
 20
1261.2853
 30
0.0
 11
999.6039
 21
1243.5017
 31
0.0
  0
LINE
  5
54A
  8
5
  6
CONTINUOUS
 10
1003.0328
 20
1261.2855
 30
0.0
 11
999.6032
 21
1261.2853
 31
0.0
  0
ARC
  5
54B
  8
5
  6
CONTINUOUS
 10
1003.0338
 20
1253.8287
 30
0.0
 40
7.45678
 50
0.002581
 51
90.00258
  0
ARC
  5
54C
  8
5
  6
CONTINUOUS
 10
1000.8688
 20
1254.7203
 30
0.0
 40
9.662929
 50
283.5587
 51
354.7079
  0
ARC
  5
54D
  8
5
  6
CONTINUOUS
 10
1001.6158
 20
1233.3991
 30
0.0
 40
12.02389
 50
57.1657
 51
82.7483
  0
LINE
  5
54E
  8
5
  6
CONTINUOUS
 10
999.6039
 20
1243.5017
 30
0.0
 11
1008.1358
 21
1243.502
 31
0.0
  0
LINE
  5
54F
  8
5
  6
CONTINUOUS
 10
998.1041
 20
1243.5015
 30
0.0
 11
998.1033
 21
1261.2853
 31
0.0
  0
LINE
  5
550
  8
5
  6
CONTINUOUS
 10
1794.2631
 20
1216.3824
 30
0.0
 11
1804.1049
 21
1216.3827
 31
0.0
  0
LINE
  5
551
  8
5
  6
CONTINUOUS
 10
1794.2623
 20
1235.001
 30
0.0
 11
1804.1041
 21
1235.0014
 31
0.0
  0
LINE
  5
552
  8
5
  6
CONTINUOUS
 10
1804.1033
 20
1254.2853
 30
0.0
 11
1794.2614
 21
1254.2848
 31
0.0
  0
LINE
  5
553
  8
5
  6
CONTINUOUS
 10
1794.2621
 20
1236.5011
 30
0.0
 11
1804.1041
 21
1236.5015
 31
0.0
  0
LINE
  5
554
  8
5
  6
CONTINUOUS
 10
1718.0028
 20
1216.3789
 30
0.0
 11
1724.3335
 21
1216.3791
 31
0.0
  0
LINE
  5
555
  8
5
  6
CONTINUOUS
 10
1724.3896
 20
1234.9979
 30
0.0
 11
1718.0028
 21
1216.3789
 31
0.0
  0
LINE
  5
556
  8
5
  6
CONTINUOUS
 10
1754.3108
 20
1216.3805
 30
0.0
 11
1747.664
 21
1234.9989
 31
0.0
  0
LINE
  5
557
  8
5
  6
CONTINUOUS
 10
1736.643
 20
1234.9985
 30
0.0
 11
1736.6436
 21
1224.0635
 31
0.0
  0
LINE
  5
558
  8
5
  6
CONTINUOUS
 10
1735.1436
 20
1224.0635
 30
0.0
 11
1735.1431
 21
1234.9984
 31
0.0
  0
LINE
  5
559
  8
5
  6
CONTINUOUS
 10
1736.6436
 20
1224.0635
 30
0.0
 11
1744.7818
 21
1224.0639
 31
0.0
  0
LINE
  5
55A
  8
5
  6
CONTINUOUS
 10
1726.9692
 20
1224.0631
 30
0.0
 11
1735.1436
 21
1224.0635
 31
0.0
  0
LINE
  5
55B
  8
5
  6
CONTINUOUS
 10
1724.3335
 20
1216.3791
 30
0.0
 11
1726.9692
 21
1224.0631
 31
0.0
  0
LINE
  5
55C
  8
5
  6
CONTINUOUS
 10
1747.5248
 20
1216.3802
 30
0.0
 11
1754.3108
 21
1216.3805
 31
0.0
  0
LINE
  5
55D
  8
5
  6
CONTINUOUS
 10
1744.7818
 20
1224.0639
 30
0.0
 11
1747.5248
 21
1216.3802
 31
0.0
  0
LINE
  5
55E
  8
5
  6
CONTINUOUS
 10
1747.664
 20
1234.9989
 30
0.0
 11
1736.643
 21
1234.9985
 31
0.0
  0
LINE
  5
55F
  8
5
  6
CONTINUOUS
 10
1747.1286
 20
1236.4989
 30
0.0
 11
1740.78
 21
1254.2824
 31
0.0
  0
LINE
  5
560
  8
5
  6
CONTINUOUS
 10
1736.643
 20
1236.4985
 30
0.0
 11
1747.1286
 21
1236.4989
 31
0.0
  0
LINE
  5
561
  8
5
  6
CONTINUOUS
 10
1736.6422
 20
1254.2823
 30
0.0
 11
1736.643
 21
1236.4985
 31
0.0
  0
LINE
  5
562
  8
5
  6
CONTINUOUS
 10
1740.78
 20
1254.2824
 30
0.0
 11
1736.6422
 21
1254.2823
 31
0.0
  0
LINE
  5
563
  8
5
  6
CONTINUOUS
 10
1735.1431
 20
1234.9984
 30
0.0
 11
1724.3896
 21
1234.9979
 31
0.0
  0
LINE
  5
564
  8
5
  6
CONTINUOUS
 10
1735.1431
 20
1234.9984
 30
0.0
 11
1735.1431
 21
1234.9984
 31
0.0
  0
LINE
  5
565
  8
5
  6
CONTINUOUS
 10
1735.1422
 20
1254.2822
 30
0.0
 11
1731.0045
 21
1254.282
 31
0.0
  0
LINE
  5
566
  8
5
  6
CONTINUOUS
 10
1735.143
 20
1236.4983
 30
0.0
 11
1735.1422
 21
1254.2822
 31
0.0
  0
LINE
  5
567
  8
5
  6
CONTINUOUS
 10
1724.9042
 20
1236.498
 30
0.0
 11
1735.143
 21
1236.4983
 31
0.0
  0
LINE
  5
568
  8
5
  6
CONTINUOUS
 10
1731.0045
 20
1254.282
 30
0.0
 11
1724.9042
 21
1236.498
 31
0.0
  0
LINE
  5
569
  8
5
  6
CONTINUOUS
 10
1794.2623
 20
1235.001
 30
0.0
 11
1794.2631
 21
1216.3824
 31
0.0
  0
ARC
  5
56A
  8
5
  6
CONTINUOUS
 10
1775.0122
 20
1226.3976
 30
0.0
 40
12.0238
 50
2.746474
 51
45.68422
  0
LINE
  5
56B
  8
5
  6
CONTINUOUS
 10
1773.0
 20
1235.0
 30
0.0
 11
1773.001
 21
1216.3814
 31
0.0
  0
LINE
  5
56C
  8
5
  6
CONTINUOUS
 10
1771.5009
 20
1216.3812
 30
0.0
 11
1771.5001
 21
1235.0
 31
0.0
  0
LINE
  5
56D
  8
5
  6
CONTINUOUS
 10
1761.6583
 20
1234.9996
 30
0.0
 11
1761.6591
 21
1216.3808
 31
0.0
  0
ARC
  5
56E
  8
5
  6
CONTINUOUS
 10
1776.4304
 20
1226.9733
 30
0.0
 40
10.59168
 50
270.0023
 51
0.0026
  0
LINE
  5
56F
  8
5
  6
CONTINUOUS
 10
1773.001
 20
1216.3814
 30
0.0
 11
1776.4309
 21
1216.3816
 31
0.0
  0
LINE
  5
570
  8
5
  6
CONTINUOUS
 10
1761.6591
 20
1216.3808
 30
0.0
 11
1771.5009
 21
1216.3812
 31
0.0
  0
ARC
  5
571
  8
5
  6
CONTINUOUS
 10
1776.4295
 20
1246.8273
 30
0.0
 40
7.45678
 50
0.002581
 51
90.00258
  0
ARC
  5
572
  8
5
  6
CONTINUOUS
 10
1774.2646
 20
1247.7188
 30
0.0
 40
9.662929
 50
283.5587
 51
354.7079
  0
ARC
  5
573
  8
5
  6
CONTINUOUS
 10
1775.0122
 20
1226.3976
 30
0.0
 40
12.02375
 50
57.16591
 51
82.7483
  0
LINE
  5
574
  8
5
  6
CONTINUOUS
 10
1773.0
 20
1236.5001
 30
0.0
 11
1781.5316
 21
1236.5005
 31
0.0
  0
LINE
  5
575
  8
5
  6
CONTINUOUS
 10
1783.4122
 20
1235.0006
 30
0.0
 11
1773.0
 21
1235.0
 31
0.0
  0
LINE
  5
576
  8
5
  6
CONTINUOUS
 10
1772.9992
 20
1254.2839
 30
0.0
 11
1773.0
 21
1236.5001
 31
0.0
  0
LINE
  5
577
  8
5
  6
CONTINUOUS
 10
1776.4292
 20
1254.284
 30
0.0
 11
1772.9992
 21
1254.2839
 31
0.0
  0
LINE
  5
578
  8
5
  6
CONTINUOUS
 10
1771.5001
 20
1235.0
 30
0.0
 11
1761.6583
 21
1234.9996
 31
0.0
  0
LINE
  5
579
  8
5
  6
CONTINUOUS
 10
1771.5
 20
1236.5001
 30
0.0
 11
1771.4992
 21
1254.2839
 31
0.0
  0
LINE
  5
57A
  8
5
  6
CONTINUOUS
 10
1761.6582
 20
1236.4996
 30
0.0
 11
1771.5
 21
1236.5001
 31
0.0
  0
LINE
  5
57B
  8
5
  6
CONTINUOUS
 10
1761.6574
 20
1254.2834
 30
0.0
 11
1761.6582
 21
1236.4996
 31
0.0
  0
LINE
  5
57C
  8
5
  6
CONTINUOUS
 10
1771.4992
 20
1254.2838
 30
0.0
 11
1761.6574
 21
1254.2834
 31
0.0
  0
LINE
  5
57D
  8
5
  6
CONTINUOUS
 10
1794.2614
 20
1254.2848
 30
0.0
 11
1794.2621
 21
1236.5011
 31
0.0
  0
LINE
  5
57E
  8
5
  6
CONTINUOUS
 10
1804.1049
 20
1216.3827
 30
0.0
 11
1804.1041
 21
1235.0014
 31
0.0
  0
ARC
  5
57F
  8
5
  6
CONTINUOUS
 10
1807.6158
 20
1226.3991
 30
0.0
 40
12.0238
 50
2.746474
 51
45.68383
  0
LINE
  5
580
  8
5
  6
CONTINUOUS
 10
1805.6041
 20
1235.0016
 30
0.0
 11
1805.6049
 21
1216.3827
 31
0.0
  0
ARC
  5
581
  8
5
  6
CONTINUOUS
 10
1809.0348
 20
1226.9747
 30
0.0
 40
10.59179
 50
270.0029
 51
0.0026
  0
LINE
  5
582
  8
5
  6
CONTINUOUS
 10
1805.6049
 20
1216.3827
 30
0.0
 11
1809.0348
 21
1216.3829
 31
0.0
  0
LINE
  5
583
  8
5
  6
CONTINUOUS
 10
1816.0158
 20
1235.002
 30
0.0
 11
1805.6041
 21
1235.0016
 31
0.0
  0
LINE
  5
584
  8
5
  6
CONTINUOUS
 10
1805.6032
 20
1254.2853
 30
0.0
 11
1805.6039
 21
1236.5017
 31
0.0
  0
LINE
  5
585
  8
5
  6
CONTINUOUS
 10
1809.0328
 20
1254.2855
 30
0.0
 11
1805.6032
 21
1254.2853
 31
0.0
  0
ARC
  5
586
  8
5
  6
CONTINUOUS
 10
1809.0338
 20
1246.8287
 30
0.0
 40
7.45678
 50
0.002581
 51
90.00258
  0
ARC
  5
587
  8
5
  6
CONTINUOUS
 10
1806.8688
 20
1247.7203
 30
0.0
 40
9.662929
 50
283.5587
 51
354.7079
  0
ARC
  5
588
  8
5
  6
CONTINUOUS
 10
1807.6158
 20
1226.3991
 30
0.0
 40
12.02389
 50
57.1657
 51
82.7483
  0
LINE
  5
589
  8
5
  6
CONTINUOUS
 10
1805.6039
 20
1236.5017
 30
0.0
 11
1814.1358
 21
1236.502
 31
0.0
  0
LINE
  5
58A
  8
5
  6
CONTINUOUS
 10
1804.1041
 20
1236.5015
 30
0.0
 11
1804.1033
 21
1254.2853
 31
0.0
  0
LINE
  5
58B
  8
5
  6
CONTINUOUS
 10
385.2631
 20
943.3824
 30
0.0
 11
395.1049
 21
943.3827
 31
0.0
  0
LINE
  5
58C
  8
5
  6
CONTINUOUS
 10
385.2623
 20
962.001
 30
0.0
 11
395.1041
 21
962.0014
 31
0.0
  0
LINE
  5
58D
  8
5
  6
CONTINUOUS
 10
395.1033
 20
981.2853
 30
0.0
 11
385.2614
 21
981.2848
 31
0.0
  0
LINE
  5
58E
  8
5
  6
CONTINUOUS
 10
385.2621
 20
963.5011
 30
0.0
 11
395.1041
 21
963.5015
 31
0.0
  0
LINE
  5
58F
  8
5
  6
CONTINUOUS
 10
309.0028
 20
943.3789
 30
0.0
 11
315.3335
 21
943.3791
 31
0.0
  0
LINE
  5
590
  8
5
  6
CONTINUOUS
 10
315.3896
 20
961.9979
 30
0.0
 11
309.0028
 21
943.3789
 31
0.0
  0
LINE
  5
591
  8
5
  6
CONTINUOUS
 10
345.3108
 20
943.3805
 30
0.0
 11
338.664
 21
961.9989
 31
0.0
  0
LINE
  5
592
  8
5
  6
CONTINUOUS
 10
327.643
 20
961.9985
 30
0.0
 11
327.6436
 21
951.0635
 31
0.0
  0
LINE
  5
593
  8
5
  6
CONTINUOUS
 10
326.1436
 20
951.0635
 30
0.0
 11
326.1431
 21
961.9984
 31
0.0
  0
LINE
  5
594
  8
5
  6
CONTINUOUS
 10
327.6436
 20
951.0635
 30
0.0
 11
335.7818
 21
951.0639
 31
0.0
  0
LINE
  5
595
  8
5
  6
CONTINUOUS
 10
317.9692
 20
951.0631
 30
0.0
 11
326.1436
 21
951.0635
 31
0.0
  0
LINE
  5
596
  8
5
  6
CONTINUOUS
 10
315.3335
 20
943.3791
 30
0.0
 11
317.9692
 21
951.0631
 31
0.0
  0
LINE
  5
597
  8
5
  6
CONTINUOUS
 10
338.5248
 20
943.3802
 30
0.0
 11
345.3108
 21
943.3805
 31
0.0
  0
LINE
  5
598
  8
5
  6
CONTINUOUS
 10
335.7818
 20
951.0639
 30
0.0
 11
338.5248
 21
943.3802
 31
0.0
  0
LINE
  5
599
  8
5
  6
CONTINUOUS
 10
338.664
 20
961.9989
 30
0.0
 11
327.643
 21
961.9985
 31
0.0
  0
LINE
  5
59A
  8
5
  6
CONTINUOUS
 10
338.1286
 20
963.4989
 30
0.0
 11
331.78
 21
981.2824
 31
0.0
  0
LINE
  5
59B
  8
5
  6
CONTINUOUS
 10
327.643
 20
963.4985
 30
0.0
 11
338.1286
 21
963.4989
 31
0.0
  0
LINE
  5
59C
  8
5
  6
CONTINUOUS
 10
327.6422
 20
981.2823
 30
0.0
 11
327.643
 21
963.4985
 31
0.0
  0
LINE
  5
59D
  8
5
  6
CONTINUOUS
 10
331.78
 20
981.2824
 30
0.0
 11
327.6422
 21
981.2823
 31
0.0
  0
LINE
  5
59E
  8
5
  6
CONTINUOUS
 10
326.1431
 20
961.9984
 30
0.0
 11
315.3896
 21
961.9979
 31
0.0
  0
LINE
  5
59F
  8
5
  6
CONTINUOUS
 10
326.1431
 20
961.9984
 30
0.0
 11
326.1431
 21
961.9984
 31
0.0
  0
LINE
  5
5A0
  8
5
  6
CONTINUOUS
 10
326.1422
 20
981.2822
 30
0.0
 11
322.0045
 21
981.282
 31
0.0
  0
LINE
  5
5A1
  8
5
  6
CONTINUOUS
 10
326.143
 20
963.4983
 30
0.0
 11
326.1422
 21
981.2822
 31
0.0
  0
LINE
  5
5A2
  8
5
  6
CONTINUOUS
 10
315.9042
 20
963.498
 30
0.0
 11
326.143
 21
963.4983
 31
0.0
  0
LINE
  5
5A3
  8
5
  6
CONTINUOUS
 10
322.0045
 20
981.282
 30
0.0
 11
315.9042
 21
963.498
 31
0.0
  0
LINE
  5
5A4
  8
5
  6
CONTINUOUS
 10
385.2623
 20
962.001
 30
0.0
 11
385.2631
 21
943.3824
 31
0.0
  0
ARC
  5
5A5
  8
5
  6
CONTINUOUS
 10
366.0122
 20
953.3976
 30
0.0
 40
12.0238
 50
2.746474
 51
45.68422
  0
LINE
  5
5A6
  8
5
  6
CONTINUOUS
 10
364.0
 20
962.0
 30
0.0
 11
364.001
 21
943.3814
 31
0.0
  0
LINE
  5
5A7
  8
5
  6
CONTINUOUS
 10
362.5009
 20
943.3812
 30
0.0
 11
362.5001
 21
962.0
 31
0.0
  0
LINE
  5
5A8
  8
5
  6
CONTINUOUS
 10
352.6583
 20
961.9996
 30
0.0
 11
352.6591
 21
943.3808
 31
0.0
  0
ARC
  5
5A9
  8
5
  6
CONTINUOUS
 10
367.4304
 20
953.9733
 30
0.0
 40
10.59168
 50
270.0023
 51
0.0026
  0
LINE
  5
5AA
  8
5
  6
CONTINUOUS
 10
364.001
 20
943.3814
 30
0.0
 11
367.4309
 21
943.3816
 31
0.0
  0
LINE
  5
5AB
  8
5
  6
CONTINUOUS
 10
352.6591
 20
943.3808
 30
0.0
 11
362.5009
 21
943.3812
 31
0.0
  0
ARC
  5
5AC
  8
5
  6
CONTINUOUS
 10
367.4295
 20
973.8273
 30
0.0
 40
7.45678
 50
0.002581
 51
90.00258
  0
ARC
  5
5AD
  8
5
  6
CONTINUOUS
 10
365.2646
 20
974.7188
 30
0.0
 40
9.662929
 50
283.5587
 51
354.7079
  0
ARC
  5
5AE
  8
5
  6
CONTINUOUS
 10
366.0122
 20
953.3976
 30
0.0
 40
12.02375
 50
57.16591
 51
82.7483
  0
LINE
  5
5AF
  8
5
  6
CONTINUOUS
 10
364.0
 20
963.5001
 30
0.0
 11
372.5316
 21
963.5005
 31
0.0
  0
LINE
  5
5B0
  8
5
  6
CONTINUOUS
 10
374.4122
 20
962.0006
 30
0.0
 11
364.0
 21
962.0
 31
0.0
  0
LINE
  5
5B1
  8
5
  6
CONTINUOUS
 10
363.9992
 20
981.2839
 30
0.0
 11
364.0
 21
963.5001
 31
0.0
  0
LINE
  5
5B2
  8
5
  6
CONTINUOUS
 10
367.4292
 20
981.284
 30
0.0
 11
363.9992
 21
981.2839
 31
0.0
  0
LINE
  5
5B3
  8
5
  6
CONTINUOUS
 10
362.5001
 20
962.0
 30
0.0
 11
352.6583
 21
961.9996
 31
0.0
  0
LINE
  5
5B4
  8
5
  6
CONTINUOUS
 10
362.5
 20
963.5001
 30
0.0
 11
362.4992
 21
981.2839
 31
0.0
  0
LINE
  5
5B5
  8
5
  6
CONTINUOUS
 10
352.6582
 20
963.4996
 30
0.0
 11
362.5
 21
963.5001
 31
0.0
  0
LINE
  5
5B6
  8
5
  6
CONTINUOUS
 10
352.6574
 20
981.2834
 30
0.0
 11
352.6582
 21
963.4996
 31
0.0
  0
LINE
  5
5B7
  8
5
  6
CONTINUOUS
 10
362.4992
 20
981.2838
 30
0.0
 11
352.6574
 21
981.2834
 31
0.0
  0
LINE
  5
5B8
  8
5
  6
CONTINUOUS
 10
385.2614
 20
981.2848
 30
0.0
 11
385.2621
 21
963.5011
 31
0.0
  0
LINE
  5
5B9
  8
5
  6
CONTINUOUS
 10
395.1049
 20
943.3827
 30
0.0
 11
395.1041
 21
962.0014
 31
0.0
  0
ARC
  5
5BA
  8
5
  6
CONTINUOUS
 10
398.6158
 20
953.3991
 30
0.0
 40
12.0238
 50
2.746474
 51
45.68383
  0
LINE
  5
5BB
  8
5
  6
CONTINUOUS
 10
396.6041
 20
962.0016
 30
0.0
 11
396.6049
 21
943.3827
 31
0.0
  0
ARC
  5
5BC
  8
5
  6
CONTINUOUS
 10
400.0348
 20
953.9747
 30
0.0
 40
10.59179
 50
270.0029
 51
0.0026
  0
LINE
  5
5BD
  8
5
  6
CONTINUOUS
 10
396.6049
 20
943.3827
 30
0.0
 11
400.0348
 21
943.3829
 31
0.0
  0
LINE
  5
5BE
  8
5
  6
CONTINUOUS
 10
407.0158
 20
962.002
 30
0.0
 11
396.6041
 21
962.0016
 31
0.0
  0
LINE
  5
5BF
  8
5
  6
CONTINUOUS
 10
396.6032
 20
981.2853
 30
0.0
 11
396.6039
 21
963.5017
 31
0.0
  0
LINE
  5
5C0
  8
5
  6
CONTINUOUS
 10
400.0328
 20
981.2855
 30
0.0
 11
396.6032
 21
981.2853
 31
0.0
  0
ARC
  5
5C1
  8
5
  6
CONTINUOUS
 10
400.0338
 20
973.8287
 30
0.0
 40
7.45678
 50
0.002581
 51
90.00258
  0
ARC
  5
5C2
  8
5
  6
CONTINUOUS
 10
397.8688
 20
974.7203
 30
0.0
 40
9.662929
 50
283.5587
 51
354.7079
  0
ARC
  5
5C3
  8
5
  6
CONTINUOUS
 10
398.6158
 20
953.3991
 30
0.0
 40
12.02389
 50
57.1657
 51
82.7483
  0
LINE
  5
5C4
  8
5
  6
CONTINUOUS
 10
396.6039
 20
963.5017
 30
0.0
 11
405.1358
 21
963.502
 31
0.0
  0
LINE
  5
5C5
  8
5
  6
CONTINUOUS
 10
395.1041
 20
963.5015
 30
0.0
 11
395.1033
 21
981.2853
 31
0.0
  0
INSERT
  5
5E9
  8
0
  6
CONTINUOUS
  2
A$C27E33DB7
 10
212.5082
 20
845.224001
 30
0.0
  0
ENDSEC
  0
EOF
