  0
SECTION
  2
HEADER
  9
$ACADVER
  1
AC1009
  9
$DWGCODEPAGE
  3
iso8859-1
  9
$INSBASE
 10
0.0
 20
0.0
 30
0.0
  9
$EXTMIN
 10
1.0E20
 20
1.0E20
  9
$EXTMAX
 10
-1.0E20
 20
-1.0E20
  9
$LIMMIN
 10
0.0
 20
0.0
  9
$LIMMAX
 10
12.0
 20
9.0
  9
$ORTHOMODE
 70
     0
  9
$REGENMODE
 70
     1
  9
$FILLMODE
 70
     1
  9
$QTEXTMODE
 70
     0
  9
$MIRRTEXT
 70
     1
  9
$DRAGMODE
 70
     2
  9
$LTSCALE
 40
15.0
  9
$OSMODE
 70
     0
  9
$ATTMODE
 70
     1
  9
$TEXTSIZE
 40
0.2
  9
$TRACEWID
 40
0.05
  9
$TEXTSTYLE
  7
STANDARD
  9
$CLAYER
  8
0
  9
$CELTYPE
  6
DASHED
  9
$CECOLOR
 62
   256
  9
$DIMSCALE
 40
1.0
  9
$DIMASZ
 40
0.18
  9
$DIMEXO
 40
0.0625
  9
$DIMDLI
 40
0.38
  9
$DIMRND
 40
0.0
  9
$DIMDLE
 40
0.0
  9
$DIMEXE
 40
0.18
  9
$DIMTP
 40
0.0
  9
$DIMTM
 40
0.0
  9
$DIMTXT
 40
0.18
  9
$DIMCEN
 40
0.09
  9
$DIMTSZ
 40
0.0
  9
$DIMTOL
 70
     0
  9
$DIMLIM
 70
     0
  9
$DIMTIH
 70
     1
  9
$DIMTOH
 70
     1
  9
$DIMSE1
 70
     0
  9
$DIMSE2
 70
     0
  9
$DIMTAD
 70
     0
  9
$DIMZIN
 70
     0
  9
$DIMBLK
  1

  9
$DIMASO
 70
     1
  9
$DIMSHO
 70
     1
  9
$DIMPOST
  1

  9
$DIMAPOST
  1

  9
$DIMALT
 70
     0
  9
$DIMALTD
 70
     2
  9
$DIMALTF
 40
25.4
  9
$DIMLFAC
 40
1.0
  9
$DIMTOFL
 70
     0
  9
$DIMTVP
 40
0.0
  9
$DIMTIX
 70
     0
  9
$DIMSOXD
 70
     0
  9
$DIMSAH
 70
     0
  9
$DIMBLK1
  1

  9
$DIMBLK2
  1

  9
$DIMSTYLE
  2
STANDARD
  9
$DIMCLRD
 70
     0
  9
$DIMCLRE
 70
     0
  9
$DIMCLRT
 70
     0
  9
$DIMTFAC
 40
1.0
  9
$DIMGAP
 40
0.09
  9
$LUNITS
 70
     2
  9
$LUPREC
 70
     4
  9
$AXISMODE
 70
     0
  9
$AXISUNIT
 10
0.0
 20
0.0
  9
$SKETCHINC
 40
0.1
  9
$FILLETRAD
 40
0.0
  9
$AUNITS
 70
     0
  9
$AUPREC
 70
     0
  9
$MENU
  1
acad
  9
$ELEVATION
 40
0.0
  9
$PELEVATION
 40
0.0
  9
$THICKNESS
 40
0.0
  9
$LIMCHECK
 70
     0
  9
$BLIPMODE
 70
     1
  9
$CHAMFERA
 40
0.0
  9
$CHAMFERB
 40
0.0
  9
$SKPOLY
 70
     0
  9
$TDCREATE
 40
0.000000000
  9
$TDUPDATE
 40
0.000000000
  9
$TDINDWG
 40
0.0
  9
$TDUSRTIMER
 40
0.0
  9
$USRTIMER
 70
     1
  9
$ANGBASE
 50
0.0
  9
$ANGDIR
 70
     0
  9
$PDMODE
 70
     0
  9
$PDSIZE
 40
0.0
  9
$PLINEWID
 40
0.0
  9
$COORDS
 70
     1
  9
$SPLFRAME
 70
     0
  9
$SPLINETYPE
 70
     6
  9
$SPLINESEGS
 70
     8
  9
$ATTDIA
 70
     0
  9
$ATTREQ
 70
     1
  9
$HANDLING
 70
     1
  9
$HANDSEED
  5
   61D
  9
$SURFTAB1
 70
     6
  9
$SURFTAB2
 70
     6
  9
$SURFTYPE
 70
     6
  9
$SURFU
 70
     6
  9
$SURFV
 70
     6
  9
$UCSNAME
  2

  9
$UCSORG
 10
0.0
 20
0.0
 30
0.0
  9
$UCSXDIR
 10
1.0
 20
0.0
 30
0.0
  9
$UCSYDIR
 10
0.0
 20
1.0
 30
0.0
  9
$PUCSNAME
  2

  9
$PUCSORG
 10
0.0
 20
0.0
 30
0.0
  9
$PUCSXDIR
 10
1.0
 20
0.0
 30
0.0
  9
$PUCSYDIR
 10
0.0
 20
1.0
 30
0.0
  9
$USERI1
 70
     0
  9
$USERI2
 70
     0
  9
$USERI3
 70
     0
  9
$USERI4
 70
     0
  9
$USERI5
 70
     0
  9
$USERR1
 40
0.0
  9
$USERR2
 40
0.0
  9
$USERR3
 40
0.0
  9
$USERR4
 40
0.0
  9
$USERR5
 40
0.0
  9
$WORLDVIEW
 70
     1
  9
$SHADEDGE
 70
     3
  9
$SHADEDIF
 70
    70
  9
$TILEMODE
 70
     1
  9
$MAXACTVP
 70
    16
  9
$PINSBASE
 10
0.0
 20
0.0
 30
0.0
  9
$PLIMCHECK
 70
     0
  9
$PEXTMIN
 10
1.0E20
 20
1.0E20
 30
1.0E20
  9
$PEXTMAX
 10
-1.0E20
 20
-1.0E20
 30
-1.0E20
  9
$PLIMMIN
 10
0.0
 20
0.0
  9
$PLIMMAX
 10
12.0
 20
9.0
  9
$UNITMODE
 70
     0
  9
$VISRETAIN
 70
     0
  0
ENDSEC
  0
SECTION
  2
TABLES
  0
TABLE
  2
VPORT
 70
     1
  0
VPORT
  2
*ACTIVE
 70
     0
 10
0.0
 20
0.0
 11
1.0
 21
1.0
 12
6.801242
 22
4.5
 13
0.0
 23
0.0
 14
1.0
 24
1.0
 15
0.0
 25
0.0
 16
0.0
 26
0.0
 36
1.0
 17
0.0
 27
0.0
 37
0.0
 40
9.0
 41
1.511387
 42
50.0
 43
0.0
 44
0.0
 50
0.0
 51
0.0
 71
     0
 72
   100
 73
     1
 74
     1
 75
     0
 76
     0
 77
     0
 78
     0
  0
ENDTAB
  0
TABLE
  2
LTYPE
 70
    41
  0
LTYPE
  2
BYBLOCK
 70
     0
  3

 72
    65
 73
     0
 40
0.0
  0
LTYPE
  2
BYLAYER
 70
     0
  3

 72
    65
 73
     0
 40
0.0
  0
LTYPE
  2
CONTINUOUS
 70
     0
  3
Solid line
 72
    65
 73
     0
 40
0.0
  0
LTYPE
  2
BORDER
 70
    64
  3
__ __ . __ __ . __ __ . __ __ . __ __ . __ __ .
 72
    65
 73
     6
 40
1.75
 49
0.5
 49
-0.25
 49
0.5
 49
-0.25
 49
0.0
 49
-0.25
  0
LTYPE
  2
BORDER2
 70
    64
  3
__.__.__.__.__.__.__.__.__.__.__.__.__.__.__.__
 72
    65
 73
     6
 40
0.875
 49
0.25
 49
-0.125
 49
0.25
 49
-0.125
 49
0.0
 49
-0.125
  0
LTYPE
  2
BORDERX2
 70
    64
  3
____  ____  .  ____  ____  .  ____  ____  .  __
 72
    65
 73
     6
 40
3.5
 49
1.0
 49
-0.5
 49
1.0
 49
-0.5
 49
0.0
 49
-0.5
  0
LTYPE
  2
CENTER
 70
    64
  3
____ _ ____ _ ____ _ ____ _ ____ _ ____ _ ____
 72
    65
 73
     4
 40
2.0
 49
1.25
 49
-0.25
 49
0.25
 49
-0.25
  0
LTYPE
  2
CENTER2
 70
    64
  3
___ _ ___ _ ___ _ ___ _ ___ _ ___ _ ___ _ ___ _
 72
    65
 73
     4
 40
1.125
 49
0.75
 49
-0.125
 49
0.125
 49
-0.125
  0
LTYPE
  2
CENTERX2
 70
    64
  3
________  __  ________  __  ________  __  _____
 72
    65
 73
     4
 40
4.0
 49
2.5
 49
-0.5
 49
0.5
 49
-0.5
  0
LTYPE
  2
DASHDOT
 70
    64
  3
__ . __ . __ . __ . __ . __ . __ . __ . __ . __
 72
    65
 73
     4
 40
1.0
 49
0.5
 49
-0.25
 49
0.0
 49
-0.25
  0
LTYPE
  2
DASHDOT2
 70
    64
  3
_._._._._._._._._._._._._._._._._._._._._._._._
 72
    65
 73
     4
 40
0.5
 49
0.25
 49
-0.125
 49
0.0
 49
-0.125
  0
LTYPE
  2
DASHDOTX2
 70
    64
  3
____  .  ____  .  ____  .  ____  .  ____  .  __
 72
    65
 73
     4
 40
2.0
 49
1.0
 49
-0.5
 49
0.0
 49
-0.5
  0
LTYPE
  2
DASHED
 70
    64
  3
__ __ __ __ __ __ __ __ __ __ __ __ __ __ __ __
 72
    65
 73
     2
 40
0.75
 49
0.5
 49
-0.25
  0
LTYPE
  2
DASHED2
 70
    64
  3
_ _ _ _ _ _ _ _ _ _ _ _ _ _ _ _ _ _ _ _ _ _ _ _
 72
    65
 73
     2
 40
0.375
 49
0.25
 49
-0.125
  0
LTYPE
  2
DASHEDX2
 70
    64
  3
____  ____  ____  ____  ____  ____  ____  ____
 72
    65
 73
     2
 40
1.5
 49
1.0
 49
-0.5
  0
LTYPE
  2
DIVIDE
 70
    64
  3
____ . . ____ . . ____ . . ____ . . ____ . . __
 72
    65
 73
     6
 40
1.25
 49
0.5
 49
-0.25
 49
0.0
 49
-0.25
 49
0.0
 49
-0.25
  0
LTYPE
  2
DIVIDE2
 70
    64
  3
__..__..__..__..__..__..__..__..__..__..__..__.
 72
    65
 73
     6
 40
0.625
 49
0.25
 49
-0.125
 49
0.0
 49
-0.125
 49
0.0
 49
-0.125
  0
LTYPE
  2
DIVIDEX2
 70
    64
  3
________  .  .  ________  .  .  ________  .  .
 72
    65
 73
     6
 40
2.5
 49
1.0
 49
-0.5
 49
0.0
 49
-0.5
 49
0.0
 49
-0.5
  0
LTYPE
  2
DOT
 70
    64
  3
. . . . . . . . . . . . . . . . . . . . . . . .
 72
    65
 73
     2
 40
0.25
 49
0.0
 49
-0.25
  0
LTYPE
  2
DOT2
 70
    64
  3
...............................................
 72
    65
 73
     2
 40
0.125
 49
0.0
 49
-0.125
  0
LTYPE
  2
DOTX2
 70
    64
  3
.  .  .  .  .  .  .  .  .  .  .  .  .  .  .  .
 72
    65
 73
     2
 40
0.5
 49
0.0
 49
-0.5
  0
LTYPE
  2
HIDDEN
 70
    64
  3
__ __ __ __ __ __ __ __ __ __ __ __ __ __ __ __
 72
    65
 73
     2
 40
0.375
 49
0.25
 49
-0.125
  0
LTYPE
  2
HIDDEN2
 70
    64
  3
_ _ _ _ _ _ _ _ _ _ _ _ _ _ _ _ _ _ _ _ _ _ _ _
 72
    65
 73
     2
 40
0.1875
 49
0.125
 49
-0.0625
  0
LTYPE
  2
HIDDENX2
 70
    64
  3
____ ____ ____ ____ ____ ____ ____ ____ ____ __
 72
    65
 73
     2
 40
0.75
 49
0.5
 49
-0.25
  0
LTYPE
  2
PHANTOM
 70
    64
  3
______  __  __  ______  __  __  ______  __  __
 72
    65
 73
     6
 40
2.5
 49
1.25
 49
-0.25
 49
0.25
 49
-0.25
 49
0.25
 49
-0.25
  0
LTYPE
  2
PHANTOM2
 70
    64
  3
___ _ _ ___ _ _ ___ _ _ ___ _ _ ___ _ _ ___ _ _
 72
    65
 73
     6
 40
1.25
 49
0.625
 49
-0.125
 49
0.125
 49
-0.125
 49
0.125
 49
-0.125
  0
LTYPE
  2
PHANTOMX2
 70
    64
  3
____________    ____    ____    ____________
 72
    65
 73
     6
 40
5.0
 49
2.5
 49
-0.5
 49
0.5
 49
-0.5
 49
0.5
 49
-0.5
  0
LTYPE
  2
ACAD_ISO02W100
 70
    64
  3
__ __ __ __ __ __ __ __ __ __ __ __ __ __ __ __
 72
    65
 73
     2
 40
15.0
 49
12.0
 49
-3.0
  0
LTYPE
  2
ACAD_ISO03W100
 70
    64
  3
__    __    __    __    __    __    __    __
 72
    65
 73
     2
 40
30.0
 49
12.0
 49
-18.0
  0
LTYPE
  2
ACAD_ISO04W100
 70
    64
  3
____ . ____ . ____ . ____ . ____ . ____ . ____
 72
    65
 73
     4
 40
30.5
 49
24.0
 49
-3.0
 49
0.5
 49
-3.0
  0
LTYPE
  2
ACAD_ISO05W100
 70
    64
  3
____ .. ____ .. ____ .. ____ .. ____ .. ____ ..
 72
    65
 73
     6
 40
34.0
 49
24.0
 49
-3.0
 49
0.5
 49
-3.0
 49
0.5
 49
-3.0
  0
LTYPE
  2
ACAD_ISO06W100
 70
    64
  3
____ ... ____ ... ____ ... ____ ... ____ ... __
 72
    65
 73
     8
 40
37.5
 49
24.0
 49
-3.0
 49
0.5
 49
-3.0
 49
0.5
 49
-3.0
 49
0.5
 49
-3.0
  0
LTYPE
  2
ACAD_ISO07W100
 70
    64
  3
. . . . . . . . . . . . . . . . . . . . . . . .
 72
    65
 73
     2
 40
3.5
 49
0.5
 49
-3.0
  0
LTYPE
  2
ACAD_ISO08W100
 70
    64
  3
____ __ ____ __ ____ __ ____ ____ __ __ ____ __
 72
    65
 73
     4
 40
36.0
 49
24.0
 49
-3.0
 49
6.0
 49
-3.0
  0
LTYPE
  2
ACAD_ISO09W100
 70
    64
  3
____ __ __ ____ __ __ ____ __ __ ____ __ __ ___
 72
    65
 73
     6
 40
45.0
 49
24.0
 49
-3.0
 49
6.0
 49
-3.0
 49
6.0
 49
-3.0
  0
LTYPE
  2
ACAD_ISO10W100
 70
    64
  3
__ . __ . __ . __ . __ . __ . __ . __ . __ . __
 72
    65
 73
     4
 40
18.5
 49
12.0
 49
-3.0
 49
0.5
 49
-3.0
  0
LTYPE
  2
ACAD_ISO11W100
 70
    64
  3
__ __ . __ __ . __ __ . __ __ . __ __ . __ __ .
 72
    65
 73
     6
 40
33.5
 49
12.0
 49
-3.0
 49
12.0
 49
-3.0
 49
0.5
 49
-3.0
  0
LTYPE
  2
ACAD_ISO12W100
 70
    64
  3
__ . . __ . . __ . . __ . . __ . . __ . . __ .
 72
    65
 73
     6
 40
22.0
 49
12.0
 49
-3.0
 49
0.5
 49
-3.0
 49
0.5
 49
-3.0
  0
LTYPE
  2
ACAD_ISO13W100
 70
    64
  3
__ __ . . __ __ . . __ __ . . __ __ . . __ __ .
 72
    65
 73
     8
 40
37.0
 49
12.0
 49
-3.0
 49
12.0
 49
-3.0
 49
0.5
 49
-3.0
 49
0.5
 49
-3.0
  0
LTYPE
  2
ACAD_ISO14W100
 70
    64
  3
__ . . . __ . . . __ . . . __ . . . __ . . . __
 72
    65
 73
     8
 40
25.5
 49
12.0
 49
-3.0
 49
0.5
 49
-3.0
 49
0.5
 49
-3.0
 49
0.5
 49
-3.0
  0
LTYPE
  2
ACAD_ISO15W100
 70
    64
  3
__ __ . . . __ __ . . . __ __ . . . __ __ . . .
 72
    65
 73
    10
 40
40.5
 49
12.0
 49
-3.0
 49
12.0
 49
-3.0
 49
0.5
 49
-3.0
 49
0.5
 49
-3.0
 49
0.5
 49
-3.0
  0
ENDTAB
  0
TABLE
  2
STYLE
 70
     4
  0
STYLE
  2
STANDARD
 70
    64
 40
0.0
 41
1.0
 50
0.0
 71
     0
 42
0.2
  3
txt
  4

  0
STYLE
  2
TOLERANCE
 70
    64
 40
0.0
 41
1.0
 50
0.0
 71
     0
 42
0.2
  3
../igesfont/iges1003.shx
  4

  0
STYLE
  2
ROMANS
 70
    64
 40
0.0
 41
1.0
 50
0.0
 71
     0
 42
0.2
  3
romans.shx
  4

  0
STYLE
  2
ROMANC
 70
    64
 40
0.0
 41
1.0
 50
0.0
 71
     0
 42
0.2
  3
romanc.shx
  4

  0
ENDTAB
  0
TABLE
  2
DIMSTYLE
 70
     2
  0
DIMSTYLE
  2
UNNAMED
 70
     0
  3

  4

  5

  6

  7

 40
1.0
 41
0.18
 42
0.0625
 43
0.38
 44
0.18
 45
0.0
 46
0.0
 47
0.0
 48
0.0
140
0.18
141
0.09
142
0.0
143
25.4
144
1.0
145
0.0
146
1.0
147
0.09
 71
     0
 72
     0
 73
     1
 74
     1
 75
     0
 76
     0
 77
     0
 78
     0
170
     0
171
     2
172
     0
173
     0
174
     0
175
     0
176
     0
177
     0
178
     0
  0
DIMSTYLE
  2
STANDARD
 70
     0
  3

  4

  5

  6

  7

 40
1.0
 41
0.18
 42
0.0625
 43
0.38
 44
0.18
 45
0.0
 46
0.0
 47
0.0
 48
0.0
140
0.18
141
0.09
142
0.0
143
25.4
144
1.0
145
0.0
146
1.0
147
0.09
 71
     0
 72
     0
 73
     1
 74
     1
 75
     0
 76
     0
 77
     0
 78
     0
170
     0
171
     2
172
     0
173
     0
174
     0
175
     0
176
     0
177
     0
178
     0
  0
ENDTAB
  0
TABLE
  2
LAYER
 70
     2
  0
LAYER
  2
0
 70
     0
 62
     7
  6
CONTINUOUS
  0
LAYER
  2
255
 70
     0
 62
     7
  6
CONTINUOUS
  0
ENDTAB
  0
ENDSEC
  0
SECTION
  2
BLOCKS
  0
BLOCK
  5
     B
  8
0
  6
CONTINUOUS
 62
     7
  2
*HATCH395
 70
    65
 10
0.0
 20
0.0
 30
0.0
  3
*HATCH395
  0
LINE
  5
     C
  8
0
  6
CONTINUOUS
 62
     3
 10
66.8203659057617
 20
38.1825370788574
 30
0.0
 11
66.0000228881836
 21
37.3621978759766
 31
0.0
  0
LINE
  5
     D
  8
0
  6
CONTINUOUS
 62
     3
 10
68.2801132202149
 20
37.5209617614746
 30
0.0
 11
66.0000228881836
 21
35.2408752441406
 31
0.0
  0
LINE
  5
     E
  8
0
  6
CONTINUOUS
 62
     3
 10
69.739860534668
 20
36.8593864440918
 30
0.0
 11
66.0000228881836
 21
33.1195526123047
 31
0.0
  0
LINE
  5
     F
  8
0
  6
CONTINUOUS
 62
     3
 10
70.0000228881836
 20
34.9982376098633
 30
0.0
 11
66.0000228881836
 21
30.9982395172119
 31
0.0
  0
LINE
  5
    10
  8
0
  6
CONTINUOUS
 62
     3
 10
70.0000228881836
 20
32.8769149780273
 30
0.0
 11
66.0000228881836
 21
28.8769207000732
 31
0.0
  0
LINE
  5
    11
  8
0
  6
CONTINUOUS
 62
     3
 10
70.0000228881836
 20
30.7555961608887
 30
0.0
 11
66.0000228881836
 21
26.7556018829346
 31
0.0
  0
LINE
  5
    12
  8
0
  6
CONTINUOUS
 62
     3
 10
70.0000228881836
 20
28.6342754364014
 30
0.0
 11
66.3657989501953
 21
25.0000514984131
 31
0.0
  0
LINE
  5
    13
  8
0
  6
CONTINUOUS
 62
     3
 10
70.0000228881836
 20
26.5129566192627
 30
0.0
 11
68.4871215820313
 21
25.0000514984131
 31
0.0
  0
ENDBLK
  5
    14
  8
0
  6
CONTINUOUS
 62
     7
  0
BLOCK
  5
    15
  8
0
  6
CONTINUOUS
 62
     7
  2
*HATCH396
 70
    65
 10
0.0
 20
0.0
 30
0.0
  3
*HATCH396
  0
LINE
  5
    16
  8
0
  6
CONTINUOUS
 62
     3
 10
74.0937271118164
 20
20.0000534057617
 30
0.0
 11
72.5000228881836
 21
18.4063549041748
 31
0.0
  0
LINE
  5
    17
  8
0
  6
CONTINUOUS
 62
     3
 10
75.4912490844727
 20
19.2762565612793
 30
0.0
 11
72.5000228881836
 21
16.2850341796875
 31
0.0
  0
LINE
  5
    18
  8
0
  6
CONTINUOUS
 62
     3
 10
75.4912490844727
 20
17.154935836792
 30
0.0
 11
72.9181976318359
 21
14.581883430481
 31
0.0
  0
LINE
  5
    19
  8
0
  6
CONTINUOUS
 62
     3
 10
75.4912490844727
 20
15.033616065979
 30
0.0
 11
73.9788513183594
 21
13.5212240219116
 31
0.0
  0
LINE
  5
    1A
  8
0
  6
CONTINUOUS
 62
     3
 10
75.4912490844727
 20
12.9122953414917
 30
0.0
 11
75.0395050048828
 21
12.4605646133423
 31
0.0
  0
ENDBLK
  5
    1B
  8
0
  6
CONTINUOUS
 62
     7
  0
BLOCK
  5
    1C
  8
0
  6
CONTINUOUS
 62
     7
  2
*HATCH397
 70
    65
 10
0.0
 20
0.0
 30
0.0
  3
*HATCH397
  0
LINE
  5
    1D
  8
0
  6
CONTINUOUS
 62
   210
 10
202.706436157227
 20
22.1534118652344
 30
0.0
 11
204.859786987305
 21
20.0000534057617
 31
0.0
  0
LINE
  5
    1E
  8
0
  6
CONTINUOUS
 62
   210
 10
204.102432250977
 20
25.0000514984131
 30
0.0
 11
208.70637512207
 21
20.3960990905762
 31
0.0
  0
LINE
  5
    1F
  8
0
  6
CONTINUOUS
 62
   210
 10
208.345077514648
 20
25.0000514984131
 30
0.0
 11
208.70637512207
 21
24.638744354248
 31
0.0
  0
ENDBLK
  5
    20
  8
0
  6
CONTINUOUS
 62
     7
  0
BLOCK
  5
    21
  8
0
  6
CONTINUOUS
 62
     7
  2
*HATCH398
 70
    65
 10
0.0
 20
0.0
 30
0.0
  3
*HATCH398
  0
LINE
  5
    22
  8
0
  6
CONTINUOUS
 62
   210
 10
178.21516418457
 20
23.3101768493652
 30
0.0
 11
181.525283813477
 21
20.0000534057617
 31
0.0
  0
LINE
  5
    23
  8
0
  6
CONTINUOUS
 62
   210
 10
180.767929077148
 20
25.0000514984131
 30
0.0
 11
185.767913818359
 21
20.0000534057617
 31
0.0
  0
LINE
  5
    24
  8
0
  6
CONTINUOUS
 62
   210
 10
185.01057434082
 20
25.0000514984131
 30
0.0
 11
190.010559082031
 21
20.0000534057617
 31
0.0
  0
LINE
  5
    25
  8
0
  6
CONTINUOUS
 62
   210
 10
189.253219604492
 20
25.0000514984131
 30
0.0
 11
194.253204345703
 21
20.0000534057617
 31
0.0
  0
LINE
  5
    26
  8
0
  6
CONTINUOUS
 62
   210
 10
193.495849609375
 20
25.0000514984131
 30
0.0
 11
194.706436157227
 21
23.7894554138184
 31
0.0
  0
ENDBLK
  5
    27
  8
0
  6
CONTINUOUS
 62
     7
  0
BLOCK
  5
    28
  8
0
  6
CONTINUOUS
 62
     7
  2
*HATCH399
 70
    65
 10
0.0
 20
0.0
 30
0.0
  3
*HATCH399
  0
LINE
  5
    29
  8
0
  6
CONTINUOUS
 62
     3
 10
181.220397949219
 20
20.0000534057617
 30
0.0
 11
179.706436157227
 21
18.4860782623291
 31
0.0
  0
LINE
  5
    2A
  8
0
  6
CONTINUOUS
 62
     3
 10
183.341705322266
 20
20.0000534057617
 30
0.0
 11
179.706436157227
 21
16.3647594451904
 31
0.0
  0
LINE
  5
    2B
  8
0
  6
CONTINUOUS
 62
     3
 10
183.706436157227
 20
18.2434387207031
 30
0.0
 11
179.706436157227
 21
14.2434377670288
 31
0.0
  0
LINE
  5
    2C
  8
0
  6
CONTINUOUS
 62
     3
 10
183.706436157227
 20
16.1221199035645
 30
0.0
 11
179.706436157227
 21
12.1221170425415
 31
0.0
  0
LINE
  5
    2D
  8
0
  6
CONTINUOUS
 62
     3
 10
183.706436157227
 20
14.0007991790772
 30
0.0
 11
179.706436157227
 21
10.0007963180542
 31
0.0
  0
LINE
  5
    2E
  8
0
  6
CONTINUOUS
 62
     3
 10
183.706436157227
 20
11.8794784545898
 30
0.0
 11
179.706436157227
 21
7.87947559356689
 31
0.0
  0
LINE
  5
    2F
  8
0
  6
CONTINUOUS
 62
     3
 10
183.706436157227
 20
9.75815773010254
 30
0.0
 11
179.706436157227
 21
5.75815486907959
 31
0.0
  0
LINE
  5
    30
  8
0
  6
CONTINUOUS
 62
     3
 10
183.706436157227
 20
7.63683700561523
 30
0.0
 11
179.706436157227
 21
3.63683438301086
 31
0.0
  0
LINE
  5
    31
  8
0
  6
CONTINUOUS
 62
     3
 10
183.706436157227
 20
5.51551628112793
 30
0.0
 11
179.706436157227
 21
1.51551413536072
 31
0.0
  0
LINE
  5
    32
  8
0
  6
CONTINUOUS
 62
     3
 10
183.706436157227
 20
3.39419555664063
 30
0.0
 11
180.312316894531
 21
7.62939453125E-5
 31
0.0
  0
LINE
  5
    33
  8
0
  6
CONTINUOUS
 62
     3
 10
182.706329345703
 20
1.33343493938446
 30
0.0
 11
181.372970581055
 21
7.62939380365424E-5
 31
0.0
  0
ENDBLK
  5
    34
  8
0
  6
CONTINUOUS
 62
     7
  0
BLOCK
  5
    35
  8
0
  6
CONTINUOUS
 62
     7
  2
$1146558
 70
    64
 10
0.0
 20
0.0
 30
0.0
  3
$1146558
  0
LINE
  5
    36
  8
0
  6
CONTINUOUS
 62
     2
 10
-52.099964209298
 20
223.237096448575
 30
0.0
 11
-35.099964209298
 21
223.237096448575
 31
0.0
  0
LINE
  5
    37
  8
0
  6
CONTINUOUS
 62
     2
 10
-52.099964209298
 20
211.237096448575
 30
0.0
 11
-35.099964209298
 21
211.237096448575
 31
0.0
  0
LINE
  5
    38
  8
0
  6
CONTINUOUS
 62
     2
 10
-53.099964209298
 20
212.237096448575
 30
0.0
 11
-53.099964209298
 21
222.237096448575
 31
0.0
  0
LINE
  5
    39
  8
0
  6
CONTINUOUS
 62
     2
 10
-34.099964209298
 20
212.237096448575
 30
0.0
 11
-34.099964209298
 21
222.237096448575
 31
0.0
  0
LINE
  5
    3A
  8
0
  6
CONTINUOUS
 62
     2
 10
-53.099964209298
 20
222.237096448575
 30
0.0
 11
-52.099964209298
 21
223.237096448575
 31
0.0
  0
LINE
  5
    3B
  8
0
  6
CONTINUOUS
 62
     2
 10
-53.099964209298
 20
212.237096448575
 30
0.0
 11
-52.099964209298
 21
211.237096448575
 31
0.0
  0
LINE
  5
    3C
  8
0
  6
CONTINUOUS
 62
     2
 10
-35.099964209298
 20
223.237096448575
 30
0.0
 11
-34.099964209298
 21
222.237096448575
 31
0.0
  0
LINE
  5
    3D
  8
0
  6
CONTINUOUS
 62
     2
 10
-35.099964209298
 20
211.237096448575
 30
0.0
 11
-34.099964209298
 21
212.237096448575
 31
0.0
  0
LINE
  5
    3E
  8
0
  6
CONTINUOUS
 62
     2
 10
-53.099964209298
 20
222.237096448575
 30
0.0
 11
-34.099964209298
 21
222.237096448575
 31
0.0
  0
LINE
  5
    3F
  8
0
  6
CONTINUOUS
 62
     2
 10
-53.099964209298
 20
212.237096448575
 30
0.0
 11
-34.099964209298
 21
212.237096448575
 31
0.0
  0
LINE
  5
    40
  8
0
  6
CONTINUOUS
 62
     2
 10
-52.099964209298
 20
211.237096448575
 30
0.0
 11
-52.099964209298
 21
223.237096448575
 31
0.0
  0
LINE
  5
    41
  8
0
  6
CONTINUOUS
 62
     2
 10
-35.099964209298
 20
211.237096448575
 30
0.0
 11
-35.099964209298
 21
223.237096448575
 31
0.0
  0
LINE
  5
    42
  8
0
  6
CONTINUOUS
 62
    98
 10
-53.099964209298
 20
212.737096448575
 30
0.0
 11
-53.099964209298
 21
221.737096448575
 31
0.0
  0
LINE
  5
    43
  8
0
  6
CONTINUOUS
 62
    98
 10
-58.099964209298
 20
208.737096448575
 30
0.0
 11
-58.099964209298
 21
225.737096448575
 31
0.0
  0
LINE
  5
    44
  8
0
  6
CONTINUOUS
 62
    98
 10
-58.099964209298
 20
225.737096448575
 30
0.0
 11
-55.1884296840102
 21
225.737096448575
 31
0.0
  0
LINE
  5
    45
  8
0
  6
CONTINUOUS
 62
    98
 10
-58.099964209298
 20
208.737096448575
 30
0.0
 11
-55.1884296840102
 21
208.737096448575
 31
0.0
  0
LINE
  5
    46
  8
0
  6
CONTINUOUS
 62
    98
 10
-55.599964209298
 20
208.737096448575
 30
0.0
 11
-55.599964209298
 21
225.737096448575
 31
0.0
  0
LINE
  5
    47
  8
0
  6
CONTINUOUS
 62
    98
 10
-55.1884296840102
 20
208.737096448575
 30
0.0
 11
-55.1884296840102
 21
210.237096448577
 31
0.0
  0
LINE
  5
    48
  8
0
  6
CONTINUOUS
 62
    98
 10
-55.1884296840102
 20
221.737096448575
 30
0.0
 11
-53.099964209298
 21
221.737096448575
 31
0.0
  0
LINE
  5
    49
  8
0
  6
CONTINUOUS
 62
    98
 10
-55.1884296840102
 20
212.737096448575
 30
0.0
 11
-53.099964209298
 21
212.737096448575
 31
0.0
  0
ARC
  5
    4A
  8
0
  6
CONTINUOUS
 62
    98
 10
-30.7911578871332
 20
217.237096448575
 30
0.0
 40
24.8088063221649
 50
169.549429087188
 51
190.450570912812
  0
LINE
  5
    4B
  8
0
  6
CONTINUOUS
 62
    98
 10
-55.1884296840102
 20
221.737096448576
 30
0.0
 11
-55.1884296840102
 21
222.237096448581
 31
0.0
  0
ARC
  5
    4C
  8
0
  6
CONTINUOUS
 62
    98
 10
-54.4384296840195
 20
211.237096448576
 30
0.0
 40
1.24999999999367
 50
126.869897645536
 51
158.314733460268
  0
ARC
  5
    4D
  8
0
  6
CONTINUOUS
 62
    98
 10
-54.4384296840122
 20
223.237096448576
 30
0.0
 40
1.24999999999803
 50
126.869897645902
 51
158.314733460726
  0
ARC
  5
    4E
  8
0
  6
CONTINUOUS
 62
    98
 10
-54.4384296840122
 20
223.237096448576
 30
0.0
 40
1.24999999999803
 50
201.685266539274
 51
233.130102354098
  0
ARC
  5
    4F
  8
0
  6
CONTINUOUS
 62
    98
 10
-54.4384296840195
 20
211.237096448576
 30
0.0
 40
1.24999999999367
 50
201.685266539732
 51
233.130102354464
  0
LINE
  5
    50
  8
0
  6
CONTINUOUS
 62
    98
 10
-55.1884296840102
 20
224.237096448572
 30
0.0
 11
-55.1884296840102
 21
225.737096448575
 31
0.0
  0
LINE
  5
    51
  8
0
  6
CONTINUOUS
 62
    98
 10
-55.1884296840102
 20
212.237096448575
 30
0.0
 11
-55.1884296840102
 21
212.737096448575
 31
0.0
  0
ENDBLK
  5
    52
  8
0
  6
CONTINUOUS
 62
     7
  0
BLOCK
  5
    53
  8
0
  6
CONTINUOUS
 62
    98
  2
*HATCH400
 70
    65
 10
0.0
 20
0.0
 30
0.0
  3
*HATCH400
  0
LINE
  5
    54
  8
0
  6
CONTINUOUS
 62
     3
 10
189.825210571289
 20
53.0000534057617
 30
0.0
 11
188.706436157227
 21
51.8812599182129
 31
0.0
  0
LINE
  5
    55
  8
0
  6
CONTINUOUS
 62
     3
 10
191.946517944336
 20
53.0000534057617
 30
0.0
 11
188.706436157227
 21
49.759937286377
 31
0.0
  0
LINE
  5
    56
  8
0
  6
CONTINUOUS
 62
     3
 10
192.706436157227
 20
51.6386184692383
 30
0.0
 11
190.067855834961
 21
49.0000534057617
 31
0.0
  0
LINE
  5
    57
  8
0
  6
CONTINUOUS
 62
     3
 10
192.706436157227
 20
49.5172958374024
 30
0.0
 11
192.189163208008
 21
49.0000534057617
 31
0.0
  0
ENDBLK
  5
    58
  8
0
  6
CONTINUOUS
 62
    98
  0
BLOCK
  5
    59
  8
0
  6
CONTINUOUS
 62
    98
  2
*HATCH401
 70
    65
 10
0.0
 20
0.0
 30
0.0
  3
*HATCH401
  0
LINE
  5
    5A
  8
0
  6
CONTINUOUS
 62
     3
 10
206.795776367188
 20
53.0000534057617
 30
0.0
 11
204.706436157227
 21
50.9106979370117
 31
0.0
  0
LINE
  5
    5B
  8
0
  6
CONTINUOUS
 62
     3
 10
208.706436157227
 20
52.7893753051758
 30
0.0
 11
204.917114257813
 21
49.0000534057617
 31
0.0
  0
LINE
  5
    5C
  8
0
  6
CONTINUOUS
 62
     3
 10
208.706436157227
 20
50.6680526733398
 30
0.0
 11
207.038421630859
 21
49.0000534057617
 31
0.0
  0
ENDBLK
  5
    5D
  8
0
  6
CONTINUOUS
 62
    98
  0
BLOCK
  5
    5E
  8
0
  6
CONTINUOUS
 62
    98
  2
*HATCH402
 70
    65
 10
0.0
 20
0.0
 30
0.0
  3
*HATCH402
  0
LINE
  5
    5F
  8
0
  6
CONTINUOUS
 62
     3
 10
190.766342163086
 20
20.0000534057617
 30
0.0
 11
188.706436157227
 21
17.9401378631592
 31
0.0
  0
LINE
  5
    60
  8
0
  6
CONTINUOUS
 62
     3
 10
192.887664794922
 20
20.0000534057617
 30
0.0
 11
190.387664794922
 21
17.5000534057617
 31
0.0
  0
LINE
  5
    61
  8
0
  6
CONTINUOUS
 62
     3
 10
193.948333740234
 20
20.0000534057617
 30
0.0
 11
191.448333740234
 21
17.5000534057617
 31
0.0
  0
LINE
  5
    62
  8
0
  6
CONTINUOUS
 62
     3
 10
199.883255004883
 20
23.8136615753174
 30
0.0
 11
197.833526611328
 21
21.7639236450195
 31
0.0
  0
LINE
  5
    63
  8
0
  6
CONTINUOUS
 62
     3
 10
200.599685668945
 20
23.4694271087647
 30
0.0
 11
199.052032470703
 21
21.921781539917
 31
0.0
  0
LINE
  5
    64
  8
0
  6
CONTINUOUS
 62
     3
 10
201.242309570313
 20
23.0513877868652
 30
0.0
 11
199.803527832031
 21
21.6126174926758
 31
0.0
  0
LINE
  5
    65
  8
0
  6
CONTINUOUS
 62
     3
 10
202.185836791992
 20
21.8736057281494
 30
0.0
 11
200.633926391602
 21
20.3216896057129
 31
0.0
  0
LINE
  5
    66
  8
0
  6
CONTINUOUS
 62
     3
 10
202.669128417969
 20
20.2355709075928
 30
0.0
 11
200.966842651367
 21
18.5332851409912
 31
0.0
  0
LINE
  5
    67
  8
0
  6
CONTINUOUS
 62
     3
 10
204.554931640625
 20
20.0000534057617
 30
0.0
 11
202.194519042969
 21
17.6396350860596
 31
0.0
  0
LINE
  5
    68
  8
0
  6
CONTINUOUS
 62
     3
 10
206.676239013672
 20
20.0000534057617
 30
0.0
 11
204.176239013672
 21
17.5000534057617
 31
0.0
  0
LINE
  5
    69
  8
0
  6
CONTINUOUS
 62
     3
 10
208.706436157227
 20
19.9089126586914
 30
0.0
 11
206.297576904297
 21
17.5000534057617
 31
0.0
  0
LINE
  5
    6A
  8
0
  6
CONTINUOUS
 62
     3
 10
208.706436157227
 20
17.7875938415527
 30
0.0
 11
208.418884277344
 21
17.5000534057617
 31
0.0
  0
ENDBLK
  5
    6B
  8
0
  6
CONTINUOUS
 62
    98
  0
BLOCK
  5
    6C
  8
0
  6
CONTINUOUS
 62
     7
  2
*HATCH403
 70
    65
 10
0.0
 20
0.0
 30
0.0
  3
*HATCH403
  0
LINE
  5
    6D
  8
0
  6
CONTINUOUS
 62
     3
 10
186.126861572266
 20
60.9689559936523
 30
0.0
 11
183.706436157227
 21
58.5485229492188
 31
0.0
  0
LINE
  5
    6E
  8
0
  6
CONTINUOUS
 62
     3
 10
187.706436157227
 20
60.4272003173828
 30
0.0
 11
183.706436157227
 21
56.4272003173828
 31
0.0
  0
LINE
  5
    6F
  8
0
  6
CONTINUOUS
 62
     3
 10
187.706436157227
 20
58.3058776855469
 30
0.0
 11
183.706436157227
 21
54.3058776855469
 31
0.0
  0
LINE
  5
    70
  8
0
  6
CONTINUOUS
 62
     3
 10
187.706436157227
 20
56.1845550537109
 30
0.0
 11
183.706436157227
 21
52.1845550537109
 31
0.0
  0
LINE
  5
    71
  8
0
  6
CONTINUOUS
 62
     3
 10
187.706436157227
 20
54.063232421875
 30
0.0
 11
183.706436157227
 21
50.063232421875
 31
0.0
  0
LINE
  5
    72
  8
0
  6
CONTINUOUS
 62
     3
 10
187.706436157227
 20
51.9419097900391
 30
0.0
 11
183.706436157227
 21
47.9419097900391
 31
0.0
  0
LINE
  5
    73
  8
0
  6
CONTINUOUS
 62
     3
 10
187.706436157227
 20
49.8205871582031
 30
0.0
 11
183.706436157227
 21
45.8205871582031
 31
0.0
  0
LINE
  5
    74
  8
0
  6
CONTINUOUS
 62
     3
 10
187.706436157227
 20
47.6992645263672
 30
0.0
 11
183.706436157227
 21
43.6992645263672
 31
0.0
  0
LINE
  5
    75
  8
0
  6
CONTINUOUS
 62
     3
 10
187.706436157227
 20
45.5779418945313
 30
0.0
 11
183.706436157227
 21
41.5779418945313
 31
0.0
  0
LINE
  5
    76
  8
0
  6
CONTINUOUS
 62
     3
 10
187.706436157227
 20
43.4566192626953
 30
0.0
 11
183.706436157227
 21
39.4566192626953
 31
0.0
  0
LINE
  5
    77
  8
0
  6
CONTINUOUS
 62
     3
 10
187.706436157227
 20
41.3352966308594
 30
0.0
 11
183.706436157227
 21
37.3352966308594
 31
0.0
  0
LINE
  5
    78
  8
0
  6
CONTINUOUS
 62
     3
 10
187.706436157227
 20
39.2139739990234
 30
0.0
 11
183.706436157227
 21
35.2139739990234
 31
0.0
  0
LINE
  5
    79
  8
0
  6
CONTINUOUS
 62
     3
 10
187.706436157227
 20
37.0926513671875
 30
0.0
 11
183.706436157227
 21
33.0926513671875
 31
0.0
  0
LINE
  5
    7A
  8
0
  6
CONTINUOUS
 62
     3
 10
187.706436157227
 20
34.9713287353516
 30
0.0
 11
183.706436157227
 21
30.9713306427002
 31
0.0
  0
LINE
  5
    7B
  8
0
  6
CONTINUOUS
 62
     3
 10
187.706436157227
 20
32.8500061035156
 30
0.0
 11
183.706436157227
 21
28.8500118255615
 31
0.0
  0
LINE
  5
    7C
  8
0
  6
CONTINUOUS
 62
     3
 10
187.706436157227
 20
30.728687286377
 30
0.0
 11
183.706436157227
 21
26.7286930084229
 31
0.0
  0
LINE
  5
    7D
  8
0
  6
CONTINUOUS
 62
     3
 10
187.706436157227
 20
28.6073970794678
 30
0.0
 11
184.099090576172
 21
25.0000514984131
 31
0.0
  0
LINE
  5
    7E
  8
0
  6
CONTINUOUS
 62
     3
 10
187.706436157227
 20
26.4860782623291
 30
0.0
 11
186.220397949219
 21
25.0000514984131
 31
0.0
  0
ENDBLK
  5
    7F
  8
0
  6
CONTINUOUS
 62
     7
  0
BLOCK
  5
    80
  8
0
  6
CONTINUOUS
 62
     7
  2
*HATCH404
 70
    65
 10
0.0
 20
0.0
 30
0.0
  3
*HATCH404
  0
LINE
  5
    81
  8
0
  6
CONTINUOUS
 62
     7
 10
-30.0000038146973
 20
-46.3675384521484
 30
0.0
 11
-27.7500038146973
 21
-48.6175384521484
 31
0.0
  0
ENDBLK
  5
    82
  8
0
  6
CONTINUOUS
 62
     7
  0
BLOCK
  5
    83
  8
0
  6
CONTINUOUS
 62
     7
  2
*HATCH405
 70
    65
 10
0.0
 20
0.0
 30
0.0
  3
*HATCH405
  0
LINE
  5
    84
  8
0
  6
CONTINUOUS
 62
     7
 10
-22.2500038146973
 20
-45.6322631835938
 30
0.0
 11
-19.7500038146973
 21
-48.1322631835938
 31
0.0
  0
ENDBLK
  5
    85
  8
0
  6
CONTINUOUS
 62
     7
  0
BLOCK
  5
    86
  8
0
  6
CONTINUOUS
 62
     7
  2
*HATCH406
 70
    65
 10
0.0
 20
0.0
 30
0.0
  3
*HATCH406
  0
LINE
  5
    87
  8
0
  6
CONTINUOUS
 62
     7
 10
-9.50000381469727
 20
-54.1396331787109
 30
0.0
 11
-7.63963317871094
 21
-56.0000076293945
 31
0.0
  0
LINE
  5
    88
  8
0
  6
CONTINUOUS
 62
     7
 10
-5.25000381469727
 20
-49.904354095459
 30
0.0
 11
-3.0
 21
-52.1543579101563
 31
0.0
  0
ENDBLK
  5
    89
  8
0
  6
CONTINUOUS
 62
     7
  0
BLOCK
  5
    8A
  8
0
  6
CONTINUOUS
 62
     7
  2
*UDIM1251
 70
    65
 10
0.0
 20
0.0
 30
0.0
  3
*UDIM1251
  0
TEXT
  5
    8B
  8
0
  6
CONTINUOUS
 62
     7
 10
-171.195207634933
 20
-98.4906397533262
 30
0.0
 40
3.5
  1
145.5
 50
449.999999896069
 41
0.933333333333333
 72
     1
 11
-172.945207620803
 21
-90.6739730834961
 31
0.0
 73
     2
  0
LINE
  5
    8C
  8
0
  6
CONTINUOUS
 62
     7
 10
-132.25
 20
-54.298957824707
 30
0.0
 11
-172.195207620803
 21
-54.298957824707
 31
0.0
  0
LINE
  5
    8D
  8
0
  6
CONTINUOUS
 62
     7
 10
-97.7499829101739
 20
-127.048988342285
 30
0.0
 11
-172.195207620803
 21
-127.048988342285
 31
0.0
  0
LINE
  5
    8E
  8
0
  6
CONTINUOUS
 62
     7
 10
-170.195207620803
 20
-54.298957824707
 30
0.0
 11
-170.195207620803
 21
-127.048988342285
 31
0.0
  0
LINE
  5
    8F
  8
0
  6
CONTINUOUS
 62
     3
 10
-169.418750464385
 20
-57.1967352979176
 30
0.0
 11
-170.195207620803
 21
-54.298957824707
 31
0.0
  0
LINE
  5
    90
  8
0
  6
CONTINUOUS
 62
     3
 10
-170.195207620803
 20
-54.298957824707
 30
0.0
 11
-170.971664777222
 21
-57.1967352979176
 31
0.0
  0
LINE
  5
    91
  8
0
  6
CONTINUOUS
 62
     3
 10
-170.971664777222
 20
-124.151210869075
 30
0.0
 11
-170.195207620803
 21
-127.048988342285
 31
0.0
  0
LINE
  5
    92
  8
0
  6
CONTINUOUS
 62
     3
 10
-170.195207620803
 20
-127.048988342285
 30
0.0
 11
-169.418750464385
 21
-124.151210869075
 31
0.0
  0
ENDBLK
  5
    93
  8
0
  6
CONTINUOUS
 62
     7
  0
BLOCK
  5
    94
  8
0
  6
CONTINUOUS
 62
     7
  2
*UDIM1252
 70
    65
 10
0.0
 20
0.0
 30
0.0
  3
*UDIM1252
  0
TEXT
  5
    95
  8
0
  6
CONTINUOUS
 62
     7
 10
-187.179646649727
 20
-110.240625739041
 30
0.0
 40
3.5
  1
192.5
 50
449.999999896069
 41
0.933333333333333
 72
     1
 11
-188.929646635597
 21
-102.423959069211
 31
0.0
 73
     2
  0
LINE
  5
    96
  8
0
  6
CONTINUOUS
 62
     7
 10
-132.25
 20
-54.298957824707
 30
0.0
 11
-188.179646635597
 21
-54.298957824707
 31
0.0
  0
LINE
  5
    97
  8
0
  6
CONTINUOUS
 62
     7
 10
1.25
 20
-150.548960313715
 30
0.0
 11
-188.179646635597
 21
-150.548960313715
 31
0.0
  0
LINE
  5
    98
  8
0
  6
CONTINUOUS
 62
     7
 10
-186.179646635597
 20
-54.298957824707
 30
0.0
 11
-186.179646635597
 21
-150.548960313715
 31
0.0
  0
LINE
  5
    99
  8
0
  6
CONTINUOUS
 62
     3
 10
-185.403189479178
 20
-57.1967352979176
 30
0.0
 11
-186.179646635597
 21
-54.298957824707
 31
0.0
  0
LINE
  5
    9A
  8
0
  6
CONTINUOUS
 62
     3
 10
-186.179646635597
 20
-54.298957824707
 30
0.0
 11
-186.956103792015
 21
-57.1967352979176
 31
0.0
  0
LINE
  5
    9B
  8
0
  6
CONTINUOUS
 62
     3
 10
-186.956103792015
 20
-147.651182840504
 30
0.0
 11
-186.179646635597
 21
-150.548960313715
 31
0.0
  0
LINE
  5
    9C
  8
0
  6
CONTINUOUS
 62
     3
 10
-186.179646635597
 20
-150.548960313715
 30
0.0
 11
-185.403189479178
 21
-147.651182840504
 31
0.0
  0
ENDBLK
  5
    9D
  8
0
  6
CONTINUOUS
 62
     7
  0
BLOCK
  5
    9E
  8
0
  6
CONTINUOUS
 62
     3
  2
*UDIM1253
 70
    65
 10
0.0
 20
0.0
 30
0.0
  3
*UDIM1253
  0
TEXT
  5
    9F
  8
0
  6
CONTINUOUS
 62
     3
 10
-162.430166296476
 20
-68.2156244945371
 30
0.0
 40
3.5
  1
44
 50
449.999999896069
 41
0.933333333333333
 72
     1
 11
-164.180166291204
 21
-65.298957824707
 31
0.0
 73
     2
  0
LINE
  5
    A0
  8
0
  6
CONTINUOUS
 62
     3
 10
-132.25
 20
-54.298957824707
 30
0.0
 11
-163.430166291204
 21
-54.298957824707
 31
0.0
  0
LINE
  5
    A1
  8
0
  6
CONTINUOUS
 62
     3
 10
-156.25
 20
-76.298957824707
 30
0.0
 11
-163.430166291204
 21
-76.298957824707
 31
0.0
  0
LINE
  5
    A2
  8
0
  6
CONTINUOUS
 62
     3
 10
-161.430166291204
 20
-54.298957824707
 30
0.0
 11
-161.430166291204
 21
-76.298957824707
 31
0.0
  0
LINE
  5
    A3
  8
0
  6
CONTINUOUS
 62
     3
 10
-160.653709134785
 20
-57.1967352979176
 30
0.0
 11
-161.430166291204
 21
-54.298957824707
 31
0.0
  0
LINE
  5
    A4
  8
0
  6
CONTINUOUS
 62
     3
 10
-161.430166291204
 20
-54.298957824707
 30
0.0
 11
-162.206623447622
 21
-57.1967352979176
 31
0.0
  0
LINE
  5
    A5
  8
0
  6
CONTINUOUS
 62
     3
 10
-162.206623447622
 20
-73.4011803514965
 30
0.0
 11
-161.430166291204
 21
-76.298957824707
 31
0.0
  0
LINE
  5
    A6
  8
0
  6
CONTINUOUS
 62
     3
 10
-161.430166291204
 20
-76.298957824707
 30
0.0
 11
-160.653709134785
 21
-73.4011803514965
 31
0.0
  0
ENDBLK
  5
    A7
  8
0
  6
CONTINUOUS
 62
     3
  0
BLOCK
  5
    A8
  8
0
  6
CONTINUOUS
 62
     3
  2
*UDIM1254
 70
    65
 10
0.0
 20
0.0
 30
0.0
  3
*UDIM1254
  0
TEXT
  5
    A9
  8
0
  6
CONTINUOUS
 62
     3
 10
-179.122169137587
 20
-102.102045763253
 30
0.0
 40
3.5
  1
178
 50
449.999999896069
 41
0.933333333333333
 72
     1
 11
-180.872169129362
 21
-97.5520457600897
 31
0.0
 73
     2
  0
LINE
  5
    AA
  8
0
  6
CONTINUOUS
 62
     3
 10
-132.25
 20
-54.298957824707
 30
0.0
 11
-180.122169129362
 21
-54.298957824707
 31
0.0
  0
LINE
  5
    AB
  8
0
  6
CONTINUOUS
 62
     3
 10
-79.2747789507486
 20
-143.296514625419
 30
0.0
 11
-180.122169129362
 21
-143.296514625419
 31
0.0
  0
LINE
  5
    AC
  8
0
  6
CONTINUOUS
 62
     3
 10
-178.122169129362
 20
-54.298957824707
 30
0.0
 11
-178.122169129362
 21
-143.296514625419
 31
0.0
  0
LINE
  5
    AD
  8
0
  6
CONTINUOUS
 62
     3
 10
-177.345711972943
 20
-57.1967352979176
 30
0.0
 11
-178.122169129362
 21
-54.298957824707
 31
0.0
  0
LINE
  5
    AE
  8
0
  6
CONTINUOUS
 62
     3
 10
-178.122169129362
 20
-54.298957824707
 30
0.0
 11
-178.89862628578
 21
-57.1967352979176
 31
0.0
  0
LINE
  5
    AF
  8
0
  6
CONTINUOUS
 62
     3
 10
-178.89862628578
 20
-140.398737152209
 30
0.0
 11
-178.122169129362
 21
-143.296514625419
 31
0.0
  0
LINE
  5
    B0
  8
0
  6
CONTINUOUS
 62
     3
 10
-178.122169129362
 20
-143.296514625419
 30
0.0
 11
-177.345711972943
 21
-140.398737152209
 31
0.0
  0
ENDBLK
  5
    B1
  8
0
  6
CONTINUOUS
 62
     3
  0
BLOCK
  5
    B2
  8
0
  6
CONTINUOUS
 62
     2
  2
*UDIM1255
 70
    65
 10
0.0
 20
0.0
 30
0.0
  3
*UDIM1255
  0
TEXT
  5
    B3
  8
0
  6
CONTINUOUS
 62
     2
 10
-59.4746374044619
 20
-10.5748406874005
 30
0.0
 40
2.499995470047
  1
COPPIA DI SERRAGGIO
 50
359.999999896069
 41
0.933333333333333
 72
     1
 11
-37.5580104481221
 21
-9.3248429920223
 31
0.0
 73
     2
  0
TEXT
  5
    B4
  8
0
  6
CONTINUOUS
 62
     2
 10
-59.474637754153
 20
-14.5748404876351
 30
0.0
 40
2.499995470047
  1
TIGHTENING TORQUE
 50
359.999999896069
 41
0.933333333333333
 72
     1
 11
-39.8913399031904
 21
-13.3248427880362
 31
0.0
 73
     2
  0
TEXT
  5
    B5
  8
0
  6
CONTINUOUS
 62
     2
 10
-59.4746381038441
 20
-18.5748393889258
 30
0.0
 40
2.499995470047
  1
3.7 Nm
 50
359.999999896069
 41
0.933333333333333
 72
     1
 11
-52.724650332456
 21
-17.3248416661125
 31
0.0
 73
     2
  0
LINE
  5
    B6
  8
0
  6
CONTINUOUS
 62
     2
 10
-59.4746383857067
 20
-20.5748388110333
 30
0.0
 11
-15.6413844775496
 21
-20.5748426430582
 31
0.0
  0
ENDBLK
  5
    B7
  8
0
  6
CONTINUOUS
 62
     2
  0
BLOCK
  5
    B8
  8
0
  6
CONTINUOUS
 62
     7
  2
*UDIM1256
 70
    65
 10
0.0
 20
0.0
 30
0.0
  3
*UDIM1256
  0
TEXT
  5
    B9
  8
0
  6
CONTINUOUS
 62
     7
 10
38.3753323518218
 20
-29.7212643172467
 30
0.0
 40
2.50000005960464
  1
COPPIA DI SERRAGGIO
 50
359.999999896069
 41
0.933333333333333
 72
     1
 11
60.2919995432837
 21
-28.4712643270898
 31
0.0
 73
     2
  0
TEXT
  5
    BA
  8
0
  6
CONTINUOUS
 62
     7
 10
38.3753319234502
 20
-34.6212643127312
 30
0.0
 40
2.50000005960464
  1
THIGHTENING TORQUE
 50
359.999999896069
 41
0.933333333333333
 72
     1
 11
59.1253324204299
 21
-33.3712643204639
 31
0.0
 73
     2
  0
TEXT
  5
    BB
  8
0
  6
CONTINUOUS
 62
     7
 10
38.3753314950786
 20
-39.5212632095045
 30
0.0
 40
2.50000005960464
  1
3.7 Nm
 50
359.999999896069
 41
0.933333333333333
 72
     1
 11
45.1253316582723
 21
-38.2712631919124
 31
0.0
 73
     2
  0
LINE
  5
    BC
  8
0
  6
CONTINUOUS
 62
     7
 10
38.3753312132158
 20
-41.5212626316109
 30
0.0
 11
82.208665591617
 21
-41.5212664636429
 31
0.0
  0
ENDBLK
  5
    BD
  8
0
  6
CONTINUOUS
 62
     7
  0
BLOCK
  5
    BE
  8
0
  6
CONTINUOUS
 62
     3
  2
*UDIM1257
 70
    65
 10
0.0
 20
0.0
 30
0.0
  3
*UDIM1257
  0
TEXT
  5
    BF
  8
0
  6
CONTINUOUS
 62
     3
 10
-170.329224825392
 20
33.3135378778003
 30
0.0
 40
3.5
  1
150
 50
90.0
 41
0.933333333333333
 72
     1
 11
-172.079224825397
 21
37.8635378777981
 31
0.0
 73
     2
  0
LINE
  5
    C0
  8
0
  6
CONTINUOUS
 62
     3
 10
-169.329224825397
 20
-1.51756721465741E-14
 30
0.0
 11
-169.329224825397
 21
75.0
 31
0.0
  0
LINE
  5
    C1
  8
0
  6
CONTINUOUS
 62
     3
 10
-170.105681981816
 20
2.89777747321052
 30
0.0
 11
-169.329224825397
 21
-1.51756721465741E-14
 31
0.0
  0
LINE
  5
    C2
  8
0
  6
CONTINUOUS
 62
     3
 10
-169.329224825397
 20
-1.51756721465741E-14
 30
0.0
 11
-168.552767668979
 21
2.89777747321052
 31
0.0
  0
LINE
  5
    C3
  8
0
  6
CONTINUOUS
 62
     3
 10
-168.552767668979
 20
72.1022225267895
 30
0.0
 11
-169.329224825397
 21
75.0
 31
0.0
  0
LINE
  5
    C4
  8
0
  6
CONTINUOUS
 62
     3
 10
-169.329224825397
 20
75.0
 30
0.0
 11
-170.105681981816
 21
72.1022225267895
 31
0.0
  0
ENDBLK
  5
    C5
  8
0
  6
CONTINUOUS
 62
     3
  0
BLOCK
  5
    C6
  8
0
  6
CONTINUOUS
 62
     3
  2
*UDIM1258
 70
    65
 10
0.0
 20
0.0
 30
0.0
  3
*UDIM1258
  0
TEXT
  5
    C7
  8
0
  6
CONTINUOUS
 62
     3
 10
-182.828100687437
 20
33.5591427207015
 30
0.0
 40
3.5
  1
159
 50
90.0
 41
0.933333333333333
 72
     1
 11
-184.578100687442
 21
38.1091427206993
 31
0.0
 73
     2
  0
LINE
  5
    C8
  8
0
  6
CONTINUOUS
 62
     3
 10
-5.0
 20
-2.25
 30
0.0
 11
-183.828100687442
 21
-2.25
 31
0.0
  0
LINE
  5
    C9
  8
0
  6
CONTINUOUS
 62
     3
 10
-137.25
 20
77.25
 30
0.0
 11
-183.828100687442
 21
77.25
 31
0.0
  0
LINE
  5
    CA
  8
0
  6
CONTINUOUS
 62
     3
 10
-181.828100687442
 20
-2.25
 30
0.0
 11
-181.828100687442
 21
77.25
 31
0.0
  0
LINE
  5
    CB
  8
0
  6
CONTINUOUS
 62
     3
 10
-182.604557843861
 20
0.647777473210535
 30
0.0
 11
-181.828100687442
 21
-2.25
 31
0.0
  0
LINE
  5
    CC
  8
0
  6
CONTINUOUS
 62
     3
 10
-181.828100687442
 20
-2.25
 30
0.0
 11
-181.051643531024
 21
0.647777473210535
 31
0.0
  0
LINE
  5
    CD
  8
0
  6
CONTINUOUS
 62
     3
 10
-181.051643531024
 20
74.3522225267895
 30
0.0
 11
-181.828100687442
 21
77.25
 31
0.0
  0
LINE
  5
    CE
  8
0
  6
CONTINUOUS
 62
     3
 10
-181.828100687442
 20
77.25
 30
0.0
 11
-182.604557843861
 21
74.3522225267895
 31
0.0
  0
ENDBLK
  5
    CF
  8
0
  6
CONTINUOUS
 62
     3
  0
BLOCK
  5
    D0
  8
0
  6
CONTINUOUS
 62
     3
  2
*UDIM1259
 70
    65
 10
0.0
 20
0.0
 30
0.0
  3
*UDIM1259
  0
TEXT
  5
    D1
  8
0
  6
CONTINUOUS
 62
     3
 10
17.5598443063924
 20
-15.3332706615219
 30
0.0
 40
3.5
  1
11.5
 41
0.933333333333333
 72
     1
 11
23.7431776397258
 21
-13.5832706615219
 31
0.0
 73
     2
  0
LINE
  5
    D2
  8
0
  6
CONTINUOUS
 62
     3
 10
4.51570648429822E-7
 20
-6.09845045372682
 30
0.0
 11
4.51570648429822E-7
 21
-18.3332706615219
 31
0.0
  0
LINE
  5
    D3
  8
0
  6
CONTINUOUS
 62
     3
 10
5.75
 20
2.5
 30
0.0
 11
5.75
 21
-18.3332706615219
 31
0.0
  0
LINE
  5
    D4
  8
0
  6
CONTINUOUS
 62
     3
 10
-4.99999954842935
 20
-16.3332706615219
 30
0.0
 11
29.9265109730591
 21
-16.3332706615219
 31
0.0
  0
LINE
  5
    D5
  8
0
  6
CONTINUOUS
 62
     3
 10
-2.89777702163989
 20
-17.1097278179404
 30
0.0
 11
4.51570648429822E-7
 21
-16.3332706615219
 31
0.0
  0
LINE
  5
    D6
  8
0
  6
CONTINUOUS
 62
     3
 10
4.51570648429822E-7
 20
-16.3332706615219
 30
0.0
 11
-2.89777702163989
 21
-15.5568135051033
 31
0.0
  0
LINE
  5
    D7
  8
0
  6
CONTINUOUS
 62
     3
 10
8.64777747321054
 20
-15.5568135051033
 30
0.0
 11
5.75
 21
-16.3332706615219
 31
0.0
  0
LINE
  5
    D8
  8
0
  6
CONTINUOUS
 62
     3
 10
5.75
 20
-16.3332706615219
 30
0.0
 11
8.64777747321054
 21
-17.1097278179404
 31
0.0
  0
ENDBLK
  5
    D9
  8
0
  6
CONTINUOUS
 62
     3
  0
BLOCK
  5
    DA
  8
0
  6
CONTINUOUS
 62
     3
  2
*UDIM1260
 70
    65
 10
0.0
 20
0.0
 30
0.0
  3
*UDIM1260
  0
TEXT
  5
    DB
  8
0
  6
CONTINUOUS
 62
     3
 10
-81.1773469924927
 20
-25.4849387253607
 30
0.0
 40
3.5
  1
322
 41
0.933333333333333
 72
     1
 11
-76.6273469924927
 21
-23.7349387253607
 31
0.0
 73
     2
  0
LINE
  5
    DC
  8
0
  6
CONTINUOUS
 62
     3
 10
-155.25
 20
2.5
 30
0.0
 11
-155.25
 21
-28.4849387253607
 31
0.0
  0
LINE
  5
    DD
  8
0
  6
CONTINUOUS
 62
     3
 10
5.75
 20
2.5
 30
0.0
 11
5.75
 21
-28.4849387253607
 31
0.0
  0
LINE
  5
    DE
  8
0
  6
CONTINUOUS
 62
     3
 10
-155.25
 20
-26.4849387253607
 30
0.0
 11
5.75
 21
-26.4849387253607
 31
0.0
  0
LINE
  5
    DF
  8
0
  6
CONTINUOUS
 62
     3
 10
-152.352222526789
 20
-25.7084815689421
 30
0.0
 11
-155.25
 21
-26.4849387253607
 31
0.0
  0
LINE
  5
    E0
  8
0
  6
CONTINUOUS
 62
     3
 10
-155.25
 20
-26.4849387253607
 30
0.0
 11
-152.352222526789
 21
-27.2613958817792
 31
0.0
  0
LINE
  5
    E1
  8
0
  6
CONTINUOUS
 62
     3
 10
2.85222252678947
 20
-27.2613958817792
 30
0.0
 11
5.75
 21
-26.4849387253607
 31
0.0
  0
LINE
  5
    E2
  8
0
  6
CONTINUOUS
 62
     3
 10
5.75
 20
-26.4849387253607
 30
0.0
 11
2.85222252678947
 21
-25.7084815689421
 31
0.0
  0
ENDBLK
  5
    E3
  8
0
  6
CONTINUOUS
 62
     3
  0
BLOCK
  5
    E4
  8
0
  6
CONTINUOUS
 62
     3
  2
*UDIM1261
 70
    65
 10
0.0
 20
0.0
 30
0.0
  3
*UDIM1261
  0
TEXT
  5
    E5
  8
0
  6
CONTINUOUS
 62
     3
 10
-67.5872106559247
 20
87.0020928852404
 30
0.0
 40
3.5
  1
250
 41
0.933333333333333
 72
     1
 11
-63.0372106559247
 21
88.7520928852404
 31
0.0
 73
     2
  0
LINE
  5
    E6
  8
0
  6
CONTINUOUS
 62
     3
 10
-125.0
 20
80.0
 30
0.0
 11
-125.0
 21
88.0020928852404
 31
0.0
  0
LINE
  5
    E7
  8
0
  6
CONTINUOUS
 62
     3
 10
-125.0
 20
86.0020928852404
 30
0.0
 11
4.51570648429822E-7
 21
86.0020928852404
 31
0.0
  0
LINE
  5
    E8
  8
0
  6
CONTINUOUS
 62
     3
 10
-122.102222526789
 20
86.7785500416589
 30
0.0
 11
-125.0
 21
86.0020928852404
 31
0.0
  0
LINE
  5
    E9
  8
0
  6
CONTINUOUS
 62
     3
 10
-125.0
 20
86.0020928852404
 30
0.0
 11
-122.102222526789
 21
85.2256357288218
 31
0.0
  0
LINE
  5
    EA
  8
0
  6
CONTINUOUS
 62
     3
 10
-2.89777702163989
 20
85.2256357288218
 30
0.0
 11
4.51570648429822E-7
 21
86.0020928852404
 31
0.0
  0
LINE
  5
    EB
  8
0
  6
CONTINUOUS
 62
     3
 10
4.51570648429822E-7
 20
86.0020928852404
 30
0.0
 11
-2.89777702163989
 21
86.7785500416589
 31
0.0
  0
ENDBLK
  5
    EC
  8
0
  6
CONTINUOUS
 62
     3
  0
BLOCK
  5
    ED
  8
0
  6
CONTINUOUS
 62
     7
  2
*UDIM1262
 70
    65
 10
0.0
 20
0.0
 30
0.0
  3
*UDIM1262
  0
TEXT
  5
    EE
  8
0
  6
CONTINUOUS
 62
     7
 10
25.690436075444
 20
34.5833333333355
 30
0.0
 40
3.5
  1
50
 50
90.0
 41
0.933333333333333
 72
     1
 11
23.9404360754403
 21
37.5
 31
0.0
 73
     2
  0
LINE
  5
    EF
  8
0
  6
CONTINUOUS
 62
     3
 10
16.4590796937702
 20
25.0
 30
0.0
 11
28.6904360754403
 21
25.0
 31
0.0
  0
LINE
  5
    F0
  8
0
  6
CONTINUOUS
 62
     3
 10
16.9955227388718
 20
50.0
 30
0.0
 11
28.6904360754403
 21
50.0
 31
0.0
  0
LINE
  5
    F1
  8
0
  6
CONTINUOUS
 62
     3
 10
26.6904360754403
 20
25.0
 30
0.0
 11
26.6904360754403
 21
50.0
 31
0.0
  0
LINE
  5
    F2
  8
0
  6
CONTINUOUS
 62
     7
 10
25.9139789190218
 20
27.8977774732105
 30
0.0
 11
26.6904360754403
 21
25.0
 31
0.0
  0
LINE
  5
    F3
  8
0
  6
CONTINUOUS
 62
     7
 10
26.6904360754403
 20
25.0
 30
0.0
 11
27.4668932318589
 21
27.8977774732105
 31
0.0
  0
LINE
  5
    F4
  8
0
  6
CONTINUOUS
 62
     3
 10
27.4668932318589
 20
47.1022225267895
 30
0.0
 11
26.6904360754403
 21
50.0
 31
0.0
  0
LINE
  5
    F5
  8
0
  6
CONTINUOUS
 62
     3
 10
26.6904360754403
 20
50.0
 30
0.0
 11
25.9139789190218
 21
47.1022225267895
 31
0.0
  0
ENDBLK
  5
    F6
  8
0
  6
CONTINUOUS
 62
     7
  0
BLOCK
  5
    F7
  8
0
  6
CONTINUOUS
 62
     7
  2
*UDIM1263
 70
    65
 10
0.0
 20
0.0
 30
0.0
  3
*UDIM1263
  0
TEXT
  5
    F8
  8
0
  6
CONTINUOUS
 62
     7
 10
25.690436075444
 20
9.58333333333552
 30
0.0
 40
3.5
  1
50
 50
90.0
 41
0.933333333333333
 72
     1
 11
23.9404360754403
 21
12.5
 31
0.0
 73
     2
  0
LINE
  5
    F9
  8
0
  6
CONTINUOUS
 62
     3
 10
19.802410750022
 20
-1.51756721465741E-14
 30
0.0
 11
28.6904360754403
 21
-1.51756721465741E-14
 31
0.0
  0
LINE
  5
    FA
  8
0
  6
CONTINUOUS
 62
     3
 10
26.6904360754403
 20
-1.51756721465741E-14
 30
0.0
 11
26.6904360754403
 21
25.0
 31
0.0
  0
LINE
  5
    FB
  8
0
  6
CONTINUOUS
 62
     3
 10
25.9139789190218
 20
2.89777747321052
 30
0.0
 11
26.6904360754403
 21
-1.51756721465741E-14
 31
0.0
  0
LINE
  5
    FC
  8
0
  6
CONTINUOUS
 62
     3
 10
26.6904360754403
 20
-1.51756721465741E-14
 30
0.0
 11
27.4668932318589
 21
2.89777747321052
 31
0.0
  0
LINE
  5
    FD
  8
0
  6
CONTINUOUS
 62
     7
 10
27.4668932318589
 20
22.1022225267895
 30
0.0
 11
26.6904360754403
 21
25.0
 31
0.0
  0
LINE
  5
    FE
  8
0
  6
CONTINUOUS
 62
     7
 10
26.6904360754403
 20
25.0
 30
0.0
 11
25.9139789190218
 21
22.1022225267895
 31
0.0
  0
ENDBLK
  5
    FF
  8
0
  6
CONTINUOUS
 62
     7
  0
ENDSEC
  0
SECTION
  2
ENTITIES
  0
LINE
  5
   100
  8
0
  6
CONTINUOUS
 62
     7
 10
132.935424804688
 20
47.25
 30
0.0
 11
141.435424804688
 21
47.25
 31
0.0
  0
LINE
  5
   101
  8
0
  6
CONTINUOUS
 62
     7
 10
132.935424804688
 20
45.25
 30
0.0
 11
141.435424804688
 21
45.25
 31
0.0
  0
LINE
  5
   102
  8
0
  6
CONTINUOUS
 62
     7
 10
132.935424804688
 20
27.75
 30
0.0
 11
141.435424804688
 21
27.75
 31
0.0
  0
LINE
  5
   103
  8
0
  6
CONTINUOUS
 62
     7
 10
132.935424804688
 20
29.75
 30
0.0
 11
141.435424804688
 21
29.75
 31
0.0
  0
LINE
  5
   104
  8
0
  6
CONTINUOUS
 62
     7
 10
131.435424804688
 20
61.2499996231223
 30
0.0
 11
131.435424804688
 21
49.25
 31
0.0
  0
LINE
  5
   105
  8
0
  6
CONTINUOUS
 62
     7
 10
131.435424804688
 20
43.25
 30
0.0
 11
131.435424804688
 21
31.75
 31
0.0
  0
LINE
  5
   106
  8
0
  6
CONTINUOUS
 62
     7
 10
131.435424804688
 20
25.75
 30
0.0
 11
131.435424804688
 21
13.75
 31
0.0
  0
LINE
  5
   107
  8
0
  6
CONTINUOUS
 62
     7
 10
132.935424804688
 20
62.25
 30
0.0
 11
141.435424804688
 21
62.25
 31
0.0
  0
LINE
  5
   108
  8
0
  6
CONTINUOUS
 62
     7
 10
141.435424804688
 20
62.25
 30
0.0
 11
141.435424804688
 21
47.25
 31
0.0
  0
LINE
  5
   109
  8
0
  6
CONTINUOUS
 62
     7
 10
132.935424804688
 20
12.75
 30
0.0
 11
141.435424804688
 21
12.75
 31
0.0
  0
LINE
  5
   10A
  8
0
  6
CONTINUOUS
 62
     7
 10
132.935424804688
 20
27.75
 30
0.0
 11
132.935424804688
 21
12.75
 31
0.0
  0
LINE
  5
   10B
  8
0
  6
CONTINUOUS
 62
     7
 10
132.935424804688
 20
45.25
 30
0.0
 11
132.935424804688
 21
29.75
 31
0.0
  0
LINE
  5
   10C
  8
0
  6
CONTINUOUS
 62
     7
 10
132.935424804688
 20
62.25
 30
0.0
 11
132.935424804688
 21
47.25
 31
0.0
  0
LINE
  5
   10D
  8
0
  6
CONTINUOUS
 62
     7
 10
141.435424804688
 20
45.25
 30
0.0
 11
141.435424804688
 21
29.75
 31
0.0
  0
LINE
  5
   10E
  8
0
  6
CONTINUOUS
 62
     7
 10
141.435424804688
 20
27.75
 30
0.0
 11
141.435424804688
 21
12.5107465745987
 31
0.0
  0
LINE
  5
   10F
  8
0
  6
CONTINUOUS
 62
     7
 10
132.935424804688
 20
59.9999998115611
 30
0.0
 11
141.435424804688
 21
59.9999998115611
 31
0.0
  0
LINE
  5
   110
  8
0
  6
CONTINUOUS
 62
     7
 10
132.935424804688
 20
49.9999998115611
 30
0.0
 11
141.435424804688
 21
49.9999998115611
 31
0.0
  0
LINE
  5
   111
  8
0
  6
CONTINUOUS
 62
     7
 10
132.935424804688
 20
42.4999998115611
 30
0.0
 11
141.435424804688
 21
42.4999998115611
 31
0.0
  0
LINE
  5
   112
  8
0
  6
CONTINUOUS
 62
     7
 10
132.935424804688
 20
32.4999998115611
 30
0.0
 11
141.435424804688
 21
32.4999998115611
 31
0.0
  0
LINE
  5
   113
  8
0
  6
CONTINUOUS
 62
     7
 10
132.935424804688
 20
24.9999998115611
 30
0.0
 11
141.435424804688
 21
24.9999998115611
 31
0.0
  0
LINE
  5
   114
  8
0
  6
CONTINUOUS
 62
     7
 10
132.935424804688
 20
14.9999998115611
 30
0.0
 11
141.435424804688
 21
14.9999998115611
 31
0.0
  0
LINE
  5
   115
  8
0
  6
CONTINUOUS
 62
     7
 10
92.1853942871094
 20
73.5
 30
0.0
 11
92.1853942871094
 21
48.5
 31
0.0
  0
LINE
  5
   116
  8
0
  6
CONTINUOUS
 62
     7
 10
70.1853942871094
 20
77.25
 30
0.0
 11
70.1853942871094
 21
-2.25
 31
0.0
  0
LINE
  5
   117
  8
0
  6
CONTINUOUS
 62
     7
 10
89.1853942871094
 20
67.25
 30
0.0
 11
89.1853942871094
 21
64.75
 31
0.0
  0
LINE
  5
   118
  8
0
  6
CONTINUOUS
 62
     7
 10
70.1853942871094
 20
3.5
 30
0.0
 11
95.6853942871094
 21
3.5
 31
0.0
  0
LINE
  5
   119
  8
0
  6
CONTINUOUS
 62
     7
 10
74.6853942871094
 20
68.5
 30
0.0
 11
91.1853942871094
 21
68.5
 31
0.0
  0
LINE
  5
   11A
  8
0
  6
CONTINUOUS
 62
     7
 10
74.6853942871094
 20
67.25
 30
0.0
 11
89.1853942871094
 21
67.25
 31
0.0
  0
LINE
  5
   11B
  8
0
  6
CONTINUOUS
 62
     7
 10
74.6853942871094
 20
64.75
 30
0.0
 11
89.1853942871094
 21
64.75
 31
0.0
  0
LINE
  5
   11C
  8
0
  6
CONTINUOUS
 62
     7
 10
74.6853942871094
 20
63.5
 30
0.0
 11
89.1853942871094
 21
63.5
 31
0.0
  0
LINE
  5
   11D
  8
0
  6
CONTINUOUS
 62
     7
 10
74.6853942871094
 20
4.75
 30
0.0
 11
89.1853942871094
 21
4.75
 31
0.0
  0
LINE
  5
   11E
  8
0
  6
CONTINUOUS
 62
     7
 10
74.6853942871094
 20
7.25
 30
0.0
 11
89.1853942871094
 21
7.25
 31
0.0
  0
LINE
  5
   11F
  8
0
  6
CONTINUOUS
 62
     7
 10
74.6853942871094
 20
8.5
 30
0.0
 11
89.1853942871094
 21
8.5
 31
0.0
  0
LINE
  5
   120
  8
0
  6
CONTINUOUS
 62
     7
 10
89.1853942871094
 20
63.5
 30
0.0
 11
89.1853942871094
 21
8.5
 31
0.0
  0
LINE
  5
   121
  8
0
  6
CONTINUOUS
 62
     7
 10
89.1853942871094
 20
7.25
 30
0.0
 11
89.1853942871094
 21
4.75
 31
0.0
  0
LINE
  5
   122
  8
0
  6
CONTINUOUS
 62
     2
 10
86.8103942871094
 20
77.25
 30
0.0
 11
86.8103942871094
 21
68.5
 31
0.0
  0
LINE
  5
   123
  8
0
  6
CONTINUOUS
 62
     7
 10
70.1853942871094
 20
77.25
 30
0.0
 11
87.5603942871094
 21
77.25
 31
0.0
  0
LINE
  5
   124
  8
0
  6
CONTINUOUS
 62
     7
 10
87.5603942871094
 20
74.5
 30
0.0
 11
91.1853942871094
 21
74.5
 31
0.0
  0
LINE
  5
   125
  8
0
  6
CONTINUOUS
 62
     7
 10
87.5603942871094
 20
73.25
 30
0.0
 11
92.1853942871094
 21
73.25
 31
0.0
  0
LINE
  5
   126
  8
0
  6
CONTINUOUS
 62
     7
 10
86.8103942871094
 20
0.5
 30
0.0
 11
86.8103942871094
 21
-1.25
 31
0.0
  0
LINE
  5
   127
  8
0
  6
CONTINUOUS
 62
     7
 10
70.1853942871094
 20
-2.25
 30
0.0
 11
85.8103942871094
 21
-2.25
 31
0.0
  0
LINE
  5
   128
  8
0
  6
CONTINUOUS
 62
     7
 10
78.6853942871094
 20
0.5
 30
0.0
 11
91.1853942871094
 21
0.5
 31
0.0
  0
LINE
  5
   129
  8
0
  6
CONTINUOUS
 62
     7
 10
78.6853942871094
 20
3.5
 30
0.0
 11
78.6853942871094
 21
0.5
 31
0.0
  0
LINE
  5
   12A
  8
0
  6
CONTINUOUS
 62
     7
 10
87.9353942871094
 20
50.5
 30
0.0
 11
87.9353942871094
 21
24.5
 31
0.0
  0
LINE
  5
   12B
  8
0
  6
CONTINUOUS
 62
     7
 10
87.9353942871094
 20
50.5
 30
0.0
 11
89.1853942871094
 21
50.5
 31
0.0
  0
LINE
  5
   12C
  8
0
  6
CONTINUOUS
 62
     7
 10
87.9353942871094
 20
24.5
 30
0.0
 11
89.1853942871094
 21
24.5
 31
0.0
  0
ARC
  5
   12D
  8
0
  6
CONTINUOUS
 62
     7
 10
51.1853942871094
 20
4.0
 30
0.0
 40
0.5
 50
539.999999844103
 51
629.499999844103
  0
LINE
  5
   12E
  8
0
  6
CONTINUOUS
 62
     7
 10
51.1810310193603
 20
3.50001903846791
 30
0.0
 11
70.1853942871095
 21
3.33417047278272
 31
0.0
  0
LINE
  5
   12F
  8
0
  6
CONTINUOUS
 62
     7
 10
51.1810310193628
 20
27.7500190384679
 30
0.0
 11
70.185394287112
 21
27.5841704727827
 31
0.0
  0
ARC
  5
   130
  8
0
  6
CONTINUOUS
 62
     7
 10
51.1853942871094
 20
28.25
 30
0.0
 40
0.5
 50
539.999999844103
 51
629.499999844103
  0
LINE
  5
   131
  8
0
  6
CONTINUOUS
 62
     7
 10
70.1853942871022
 20
47.4158295272173
 30
0.0
 11
51.1810310193534
 21
47.2499809615321
 31
0.0
  0
ARC
  5
   132
  8
0
  6
CONTINUOUS
 62
     7
 10
51.1853942871094
 20
46.75
 30
0.0
 40
0.5
 50
450.499999844103
 51
539.999999844103
  0
LINE
  5
   133
  8
0
  6
CONTINUOUS
 62
     7
 10
70.1853942871075
 20
22.4158295272173
 30
0.0
 11
51.1810310193582
 21
22.2499809615321
 31
0.0
  0
ARC
  5
   134
  8
0
  6
CONTINUOUS
 62
     7
 10
51.1853942871094
 20
21.75
 30
0.0
 40
0.5
 50
450.499999844103
 51
539.999999844103
  0
LINE
  5
   135
  8
0
  6
CONTINUOUS
 62
     7
 10
50.6853942871094
 20
21.75
 30
0.0
 11
50.6853942871094
 21
4.0
 31
0.0
  0
LINE
  5
   136
  8
0
  6
CONTINUOUS
 62
     7
 10
50.6853942871094
 20
46.75
 30
0.0
 11
50.6853942871094
 21
28.25
 31
0.0
  0
LINE
  5
   137
  8
0
  6
DASHDOT
 62
     7
 10
59.4647917889988
 20
50.0
 30
0.0
 11
75.3312431704527
 21
50.0
 31
0.0
  0
LINE
  5
   138
  8
0
  6
CONTINUOUS
 62
     7
 10
64.1853942871094
 20
50.5
 30
0.0
 11
64.1853942871094
 21
49.5
 31
0.0
  0
LINE
  5
   139
  8
0
  6
CONTINUOUS
 62
     7
 10
70.1853942871094
 20
52.25
 30
0.0
 11
72.1853942871094
 21
52.25
 31
0.0
  0
LINE
  5
   13A
  8
0
  6
CONTINUOUS
 62
     7
 10
70.1853942871094
 20
47.75
 30
0.0
 11
72.1853942871094
 21
47.75
 31
0.0
  0
LINE
  5
   13B
  8
0
  6
CONTINUOUS
 62
     7
 10
72.1853942871094
 20
52.25
 30
0.0
 11
72.1853942871094
 21
47.75
 31
0.0
  0
LINE
  5
   13C
  8
0
  6
CONTINUOUS
 62
     7
 10
70.1853942871094
 20
22.75
 30
0.0
 11
72.1853942871094
 21
22.75
 31
0.0
  0
LINE
  5
   13D
  8
0
  6
CONTINUOUS
 62
     7
 10
72.1853942871094
 20
27.25
 30
0.0
 11
72.1853942871094
 21
22.75
 31
0.0
  0
LINE
  5
   13E
  8
0
  6
DASHDOT
 62
     7
 10
59.4647917889988
 20
25.0
 30
0.0
 11
75.3312431704527
 21
25.0
 31
0.0
  0
LINE
  5
   13F
  8
0
  6
CONTINUOUS
 62
     7
 10
70.1853942871094
 20
27.25
 30
0.0
 11
72.1853942871094
 21
27.25
 31
0.0
  0
LINE
  5
   140
  8
0
  6
CONTINUOUS
 62
     7
 10
72.1853942871094
 20
76.75
 30
0.0
 11
72.1853942871094
 21
73.25
 31
0.0
  0
LINE
  5
   141
  8
0
  6
CONTINUOUS
 62
     7
 10
70.1853942871094
 20
73.25
 30
0.0
 11
72.1853942871094
 21
73.25
 31
0.0
  0
LINE
  5
   142
  8
0
  6
CONTINUOUS
 62
     7
 10
70.1853942871094
 20
76.75
 30
0.0
 11
72.1853942871094
 21
76.75
 31
0.0
  0
LINE
  5
   143
  8
0
  6
CONTINUOUS
 62
     2
 10
87.5603942871094
 20
77.25
 30
0.0
 11
87.5603942871094
 21
68.5
 31
0.0
  0
LINE
  5
   144
  8
0
  6
CONTINUOUS
 62
     7
 10
88.0603942871094
 20
73.25
 30
0.0
 11
88.0603942871094
 21
68.5
 31
0.0
  0
ARC
  5
   145
  8
0
  6
CONTINUOUS
 62
     7
 10
91.1853942871094
 20
73.5
 30
0.0
 40
1.0
 50
359.999999844103
 51
449.999999844103
  0
ARC
  5
   146
  8
0
  6
CONTINUOUS
 62
     7
 10
91.1853942871094
 20
1.5
 30
0.0
 40
1.0
 50
269.999999844103
 51
359.999999844103
  0
ARC
  5
   147
  8
0
  6
CONTINUOUS
 62
     7
 10
85.8103942871094
 20
-1.25
 30
0.0
 40
1.0
 50
269.999999844103
 51
359.999999844103
  0
ARC
  5
   148
  8
0
  6
CONTINUOUS
 62
     7
 10
91.1853942871094
 20
67.5
 30
0.0
 40
1.0
 50
359.999999844103
 51
449.999999844103
  0
LINE
  5
   149
  8
0
  6
CONTINUOUS
 62
     7
 10
70.1853942871094
 20
71.5
 30
0.0
 11
86.8103942871094
 21
71.5
 31
0.0
  0
LINE
  5
   14A
  8
0
  6
CONTINUOUS
 62
     7
 10
92.1853942871094
 20
48.5
 30
0.0
 11
95.6853942871094
 21
48.5
 31
0.0
  0
ARC
  5
   14B
  8
0
  6
CONTINUOUS
 62
     7
 10
95.6853942871094
 20
48.0
 30
0.0
 40
0.5
 50
359.999999844103
 51
449.999999844103
  0
ARC
  5
   14C
  8
0
  6
CONTINUOUS
 62
     7
 10
95.6853942871094
 20
4.0
 30
0.0
 40
0.5
 50
269.999999844103
 51
359.999999844103
  0
LINE
  5
   14D
  8
0
  6
CONTINUOUS
 62
     7
 10
92.1853942871094
 20
3.5
 30
0.0
 11
92.1853942871094
 21
1.5
 31
0.0
  0
LINE
  5
   14E
  8
0
  6
CONTINUOUS
 62
     7
 10
96.1853942871094
 20
48.0
 30
0.0
 11
96.1853942871094
 21
4.0
 31
0.0
  0
LINE
  5
   14F
  8
0
  6
CONTINUOUS
 62
     7
 10
148.435424804688
 20
63.75
 30
0.0
 11
148.435424804688
 21
11.25
 31
0.0
  0
LINE
  5
   150
  8
0
  6
CONTINUOUS
 62
     7
 10
143.935424804688
 20
63.7499996231223
 30
0.0
 11
143.935424804688
 21
11.25
 31
0.0
  0
LINE
  5
   151
  8
0
  6
CONTINUOUS
 62
     7
 10
159.263127470531
 20
42.5
 30
0.0
 11
159.263127470531
 21
32.5
 31
0.0
  0
LINE
  5
   152
  8
0
  6
CONTINUOUS
 62
     7
 10
96.1853942871094
 20
11.25
 30
0.0
 11
148.435424804688
 21
11.25
 31
0.0
  0
LINE
  5
   153
  8
0
  6
CONTINUOUS
 62
     7
 10
93.1853942871094
 20
63.75
 30
0.0
 11
148.435424804688
 21
63.75
 31
0.0
  0
LINE
  5
   154
  8
0
  6
CONTINUOUS
 62
     7
 10
148.435424804688
 20
42.5
 30
0.0
 11
159.263127470531
 21
42.5
 31
0.0
  0
LINE
  5
   155
  8
0
  6
CONTINUOUS
 62
     7
 10
148.435424804688
 20
32.5
 30
0.0
 11
159.263127470531
 21
32.5
 31
0.0
  0
LINE
  5
   156
  8
0
  6
CONTINUOUS
 62
     7
 10
142.935424804688
 20
63.7499996231223
 30
0.0
 11
142.935424804688
 21
11.25
 31
0.0
  0
LINE
  5
   157
  8
0
  6
CONTINUOUS
 62
     7
 10
102.435395511447
 20
60.75
 30
0.0
 11
119.43539555305
 21
60.75
 31
0.0
  0
LINE
  5
   158
  8
0
  6
CONTINUOUS
 62
     7
 10
93.1853942871094
 20
49.25
 30
0.0
 11
131.435424804688
 21
49.25
 31
0.0
  0
LINE
  5
   159
  8
0
  6
CONTINUOUS
 62
     7
 10
96.1853942871094
 20
43.25
 30
0.0
 11
131.435424804688
 21
43.25
 31
0.0
  0
LINE
  5
   15A
  8
0
  6
CONTINUOUS
 62
     7
 10
96.1853942871094
 20
31.75
 30
0.0
 11
131.435424804688
 21
31.75
 31
0.0
  0
LINE
  5
   15B
  8
0
  6
CONTINUOUS
 62
     7
 10
96.1853942871094
 20
25.75
 30
0.0
 11
131.435424804688
 21
25.75
 31
0.0
  0
LINE
  5
   15C
  8
0
  6
CONTINUOUS
 62
     7
 10
123.435424804688
 20
61.2499996231223
 30
0.0
 11
123.435424804688
 21
49.25
 31
0.0
  0
LINE
  5
   15D
  8
0
  6
CONTINUOUS
 62
     7
 10
96.1853942871094
 20
13.75
 30
0.0
 11
131.435424804688
 21
13.75
 31
0.0
  0
LINE
  5
   15E
  8
0
  6
CONTINUOUS
 62
     7
 10
123.435424804688
 20
43.25
 30
0.0
 11
123.435424804688
 21
31.75
 31
0.0
  0
LINE
  5
   15F
  8
0
  6
CONTINUOUS
 62
     7
 10
123.435424804688
 20
25.75
 30
0.0
 11
123.435424804688
 21
13.75
 31
0.0
  0
LINE
  5
   160
  8
0
  6
CONTINUOUS
 62
     7
 10
166.435393291345
 20
71.4999937138974
 30
0.0
 11
166.435393291345
 21
23.4999937138974
 31
0.0
  0
LINE
  5
   161
  8
0
  6
CONTINUOUS
 62
     3
 10
102.185394287109
 20
58.75
 30
0.0
 11
102.185394287109
 21
51.25
 31
0.0
  0
LINE
  5
   162
  8
0
  6
CONTINUOUS
 62
     3
 10
102.185394287109
 20
58.75
 30
0.0
 11
104.685394287109
 21
58.75
 31
0.0
  0
LINE
  5
   163
  8
0
  6
CONTINUOUS
 62
     3
 10
102.185394287109
 20
51.25
 30
0.0
 11
104.685394287109
 21
51.25
 31
0.0
  0
LINE
  5
   164
  8
0
  6
CONTINUOUS
 62
     7
 10
104.685394287109
 20
58.75
 30
0.0
 11
104.685394287109
 21
51.25
 31
0.0
  0
LINE
  5
   165
  8
0
  6
CONTINUOUS
 62
     7
 10
114.93539555305
 20
59.3749996129446
 30
0.0
 11
116.93539555305
 21
59.3749996129446
 31
0.0
  0
LINE
  5
   166
  8
0
  6
CONTINUOUS
 62
     7
 10
114.93539555305
 20
50.6249996129446
 30
0.0
 11
116.93539555305
 21
50.6249996129446
 31
0.0
  0
LINE
  5
   167
  8
0
  6
CONTINUOUS
 62
     7
 10
114.93539555305
 20
59.4999996129446
 30
0.0
 11
114.93539555305
 21
50.4999996129446
 31
0.0
  0
LINE
  5
   168
  8
0
  6
CONTINUOUS
 62
     7
 10
116.93539555305
 20
59.4999997321539
 30
0.0
 11
116.93539555305
 21
50.5000006858282
 31
0.0
  0
LINE
  5
   169
  8
0
  6
CONTINUOUS
 62
     7
 10
102.43539555305
 20
50.4999996129446
 30
0.0
 11
119.43539555305
 21
50.4999996129446
 31
0.0
  0
LINE
  5
   16A
  8
0
  6
CONTINUOUS
 62
     7
 10
102.18539555305
 20
59.2499996129446
 30
0.0
 11
102.18539555305
 21
50.7499996129446
 31
0.0
  0
LINE
  5
   16B
  8
0
  6
CONTINUOUS
 62
     7
 10
102.43539555305
 20
59.4999996129446
 30
0.0
 11
119.43539555305
 21
59.4999996129446
 31
0.0
  0
LINE
  5
   16C
  8
0
  6
CONTINUOUS
 62
     7
 10
119.43539555305
 20
60.7499996129436
 30
0.0
 11
119.43539555305
 21
59.4999996129436
 31
0.0
  0
LINE
  5
   16D
  8
0
  6
CONTINUOUS
 62
     7
 10
100.93539555305
 20
59.2499996129446
 30
0.0
 11
100.93539555305
 21
50.7499996129446
 31
0.0
  0
LINE
  5
   16E
  8
0
  6
CONTINUOUS
 62
     7
 10
119.43539555305
 20
50.4999996129446
 30
0.0
 11
119.43539555305
 21
49.2499996129446
 31
0.0
  0
ARC
  5
   16F
  8
0
  6
CONTINUOUS
 62
     7
 10
102.435395645551
 20
59.2499995156269
 30
0.0
 40
0.250000119543609
 50
450.000034238403
 51
539.999966996518
  0
ARC
  5
   170
  8
0
  6
CONTINUOUS
 62
     7
 10
102.435395511447
 20
59.2499994754086
 30
0.0
 40
1.50000012842215
 50
450.000001823921
 51
539.99999284071
  0
ARC
  5
   171
  8
0
  6
CONTINUOUS
 62
     7
 10
102.435394872581
 20
50.7499996946365
 30
0.0
 40
0.24999947102871
 50
539.99988595107
 51
630.000082816211
  0
ARC
  5
   172
  8
0
  6
CONTINUOUS
 62
     7
 10
102.435395331586
 20
50.7499990752958
 30
0.0
 40
1.4999996500699
 50
539.99995551438
 51
630.000005555155
  0
LINE
  5
   173
  8
0
  6
DASHDOT
 62
     7
 10
98.9462343735477
 20
54.9999998115611
 30
0.0
 11
123.581506498018
 21
54.9999998115611
 31
0.0
  0
LINE
  5
   174
  8
0
  6
CONTINUOUS
 62
     7
 10
109.685998059045
 20
59.1249998115611
 30
0.0
 11
110.935998059045
 21
59.1249998115611
 31
0.0
  0
LINE
  5
   175
  8
0
  6
CONTINUOUS
 62
     7
 10
109.685998059045
 20
50.8749998115611
 30
0.0
 11
110.935998059045
 21
50.8749998115611
 31
0.0
  0
ARC
  5
   176
  8
0
  6
CONTINUOUS
 62
     7
 10
102.685998059045
 20
54.9999998115611
 30
0.0
 40
8.75
 50
340.537048897788
 51
342.208409271096
  0
ARC
  5
   177
  8
0
  6
CONTINUOUS
 62
     7
 10
102.685998059045
 20
54.9999998115611
 30
0.0
 40
8.75
 50
377.791590417111
 51
379.462950790418
  0
LINE
  5
   178
  8
0
  6
CONTINUOUS
 62
     7
 10
111.255566309546
 20
57.4999998115611
 30
0.0
 11
112.185998059045
 21
57.4999998115611
 31
0.0
  0
LINE
  5
   179
  8
0
  6
CONTINUOUS
 62
     7
 10
111.255566309546
 20
52.4999998115611
 30
0.0
 11
112.185998059045
 21
52.4999998115611
 31
0.0
  0
LINE
  5
   17A
  8
0
  6
CONTINUOUS
 62
     7
 10
110.935998059045
 20
59.1249998115611
 30
0.0
 11
110.935998059045
 21
57.9154757589838
 31
0.0
  0
ARC
  5
   17B
  8
0
  6
CONTINUOUS
 62
     7
 10
111.255566309546
 20
52.2499998115611
 30
0.0
 40
0.25
 50
449.999999844103
 51
522.208409271096
  0
ARC
  5
   17C
  8
0
  6
CONTINUOUS
 62
     7
 10
111.255566309546
 20
57.7499998115611
 30
0.0
 40
0.25
 50
557.791590417111
 51
629.999999844103
  0
LINE
  5
   17D
  8
0
  6
CONTINUOUS
 62
     7
 10
110.935998059045
 20
52.0845238641385
 30
0.0
 11
110.935998059045
 21
50.8749998115611
 31
0.0
  0
LINE
  5
   17E
  8
0
  6
CONTINUOUS
 62
     7
 10
109.685998059045
 20
59.1249998115611
 30
0.0
 11
109.685998059045
 21
50.8749998115611
 31
0.0
  0
LINE
  5
   17F
  8
0
  6
CONTINUOUS
 62
     7
 10
116.93539555305
 20
57.9999998115611
 30
0.0
 11
121.185998059045
 21
57.9999998115611
 31
0.0
  0
LINE
  5
   180
  8
0
  6
CONTINUOUS
 62
     7
 10
116.93539555305
 20
51.9999998115611
 30
0.0
 11
121.185998059045
 21
51.9999998115611
 31
0.0
  0
LINE
  5
   181
  8
0
  6
CONTINUOUS
 62
     7
 10
112.185998059045
 20
57.4999998115611
 30
0.0
 11
112.185998059045
 21
52.4999998115611
 31
0.0
  0
LINE
  5
   182
  8
0
  6
CONTINUOUS
 62
     7
 10
121.685998059045
 20
57.4999998115611
 30
0.0
 11
121.685998059045
 21
52.4999998115611
 31
0.0
  0
LINE
  5
   183
  8
0
  6
CONTINUOUS
 62
     7
 10
121.185998059045
 20
57.9999998115611
 30
0.0
 11
121.185998059045
 21
51.9999998115611
 31
0.0
  0
LINE
  5
   184
  8
0
  6
CONTINUOUS
 62
     7
 10
112.685998059045
 20
57.9999998115611
 30
0.0
 11
112.685998059045
 21
51.9999998115611
 31
0.0
  0
LINE
  5
   185
  8
0
  6
CONTINUOUS
 62
     7
 10
112.685998059045
 20
57.9999998115612
 30
0.0
 11
112.185998059045
 21
57.4999998115612
 31
0.0
  0
LINE
  5
   186
  8
0
  6
CONTINUOUS
 62
     7
 10
121.685998059045
 20
52.4999998115612
 30
0.0
 11
121.185998059045
 21
51.9999998115612
 31
0.0
  0
LINE
  5
   187
  8
0
  6
CONTINUOUS
 62
     7
 10
112.185998059045
 20
52.4999998115611
 30
0.0
 11
112.685998059045
 21
51.9999998115611
 31
0.0
  0
LINE
  5
   188
  8
0
  6
CONTINUOUS
 62
     7
 10
121.185998059045
 20
57.9999998115611
 30
0.0
 11
121.685998059045
 21
57.4999998115611
 31
0.0
  0
LINE
  5
   189
  8
0
  6
CONTINUOUS
 62
     7
 10
116.93539555305
 20
57.5999998115611
 30
0.0
 11
121.185998059045
 21
57.5999998115611
 31
0.0
  0
LINE
  5
   18A
  8
0
  6
CONTINUOUS
 62
     7
 10
116.93539555305
 20
52.3999998115611
 30
0.0
 11
121.185998059045
 21
52.3999998115611
 31
0.0
  0
LINE
  5
   18B
  8
0
  6
CONTINUOUS
 62
     7
 10
112.685998059045
 20
57.9999998115611
 30
0.0
 11
114.93539555305
 21
57.9999998115611
 31
0.0
  0
LINE
  5
   18C
  8
0
  6
CONTINUOUS
 62
     7
 10
112.685998059045
 20
57.5999998115611
 30
0.0
 11
114.93539555305
 21
57.5999998115611
 31
0.0
  0
LINE
  5
   18D
  8
0
  6
CONTINUOUS
 62
     7
 10
112.685998059045
 20
52.3999998115611
 30
0.0
 11
114.93539555305
 21
52.3999998115611
 31
0.0
  0
LINE
  5
   18E
  8
0
  6
CONTINUOUS
 62
     7
 10
112.685998059045
 20
51.9999998115611
 30
0.0
 11
114.93539555305
 21
51.9999998115611
 31
0.0
  0
LINE
  5
   18F
  8
0
  6
CONTINUOUS
 62
     3
 10
102.185394287109
 20
41.25
 30
0.0
 11
102.185394287109
 21
33.75
 31
0.0
  0
LINE
  5
   190
  8
0
  6
CONTINUOUS
 62
     3
 10
102.185394287109
 20
41.25
 30
0.0
 11
104.685394287109
 21
41.25
 31
0.0
  0
LINE
  5
   191
  8
0
  6
CONTINUOUS
 62
     3
 10
102.185394287109
 20
33.75
 30
0.0
 11
104.685394287109
 21
33.75
 31
0.0
  0
LINE
  5
   192
  8
0
  6
CONTINUOUS
 62
     7
 10
104.685394287109
 20
41.25
 30
0.0
 11
104.685394287109
 21
33.75
 31
0.0
  0
LINE
  5
   193
  8
0
  6
CONTINUOUS
 62
     7
 10
114.93539555305
 20
41.8749996129446
 30
0.0
 11
116.93539555305
 21
41.8749996129446
 31
0.0
  0
LINE
  5
   194
  8
0
  6
CONTINUOUS
 62
     7
 10
114.93539555305
 20
33.1249996129446
 30
0.0
 11
116.93539555305
 21
33.1249996129446
 31
0.0
  0
LINE
  5
   195
  8
0
  6
CONTINUOUS
 62
     7
 10
114.93539555305
 20
41.9999996129446
 30
0.0
 11
114.93539555305
 21
32.9999996129446
 31
0.0
  0
LINE
  5
   196
  8
0
  6
CONTINUOUS
 62
     7
 10
116.93539555305
 20
41.9999997321539
 30
0.0
 11
116.93539555305
 21
33.0000006858282
 31
0.0
  0
LINE
  5
   197
  8
0
  6
CONTINUOUS
 62
     7
 10
102.43539555305
 20
32.9999996129446
 30
0.0
 11
119.43539555305
 21
32.9999996129446
 31
0.0
  0
LINE
  5
   198
  8
0
  6
CONTINUOUS
 62
     7
 10
102.18539555305
 20
41.7499996129446
 30
0.0
 11
102.18539555305
 21
33.2499996129446
 31
0.0
  0
LINE
  5
   199
  8
0
  6
CONTINUOUS
 62
     7
 10
102.43539555305
 20
41.9999996129446
 30
0.0
 11
119.43539555305
 21
41.9999996129446
 31
0.0
  0
LINE
  5
   19A
  8
0
  6
CONTINUOUS
 62
     7
 10
119.43539555305
 20
43.2499996129436
 30
0.0
 11
119.43539555305
 21
41.9999996129436
 31
0.0
  0
LINE
  5
   19B
  8
0
  6
CONTINUOUS
 62
     7
 10
100.93539555305
 20
41.7499996129446
 30
0.0
 11
100.93539555305
 21
33.2499996129446
 31
0.0
  0
LINE
  5
   19C
  8
0
  6
CONTINUOUS
 62
     7
 10
119.43539555305
 20
32.9999996129446
 30
0.0
 11
119.43539555305
 21
31.7499996129446
 31
0.0
  0
ARC
  5
   19D
  8
0
  6
CONTINUOUS
 62
     7
 10
102.435395645551
 20
41.7499995156269
 30
0.0
 40
0.250000119543609
 50
450.000034238403
 51
539.999966996518
  0
ARC
  5
   19E
  8
0
  6
CONTINUOUS
 62
     7
 10
102.435395511447
 20
41.7499994754086
 30
0.0
 40
1.50000012842215
 50
450.000001823921
 51
539.99999284071
  0
ARC
  5
   19F
  8
0
  6
CONTINUOUS
 62
     7
 10
102.435394872581
 20
33.2499996946365
 30
0.0
 40
0.24999947102871
 50
539.99988595107
 51
630.000082816211
  0
ARC
  5
   1A0
  8
0
  6
CONTINUOUS
 62
     7
 10
102.435395331586
 20
33.2499990752958
 30
0.0
 40
1.4999996500699
 50
539.99995551438
 51
630.000005555155
  0
LINE
  5
   1A1
  8
0
  6
DASHDOT
 62
     7
 10
44.2924046569536
 20
37.4999998115611
 30
0.0
 11
158.354042273461
 21
37.4999998115611
 31
0.0
  0
LINE
  5
   1A2
  8
0
  6
CONTINUOUS
 62
     7
 10
109.685998059045
 20
41.6249998115611
 30
0.0
 11
110.935998059045
 21
41.6249998115611
 31
0.0
  0
LINE
  5
   1A3
  8
0
  6
CONTINUOUS
 62
     7
 10
109.685998059045
 20
33.3749998115611
 30
0.0
 11
110.935998059045
 21
33.3749998115611
 31
0.0
  0
ARC
  5
   1A4
  8
0
  6
CONTINUOUS
 62
     7
 10
102.685998059045
 20
37.4999998115611
 30
0.0
 40
8.75
 50
340.537048897788
 51
342.208409271096
  0
ARC
  5
   1A5
  8
0
  6
CONTINUOUS
 62
     7
 10
102.685998059045
 20
37.4999998115611
 30
0.0
 40
8.75
 50
377.791590417111
 51
379.462950790418
  0
LINE
  5
   1A6
  8
0
  6
CONTINUOUS
 62
     7
 10
111.255566309546
 20
39.9999998115611
 30
0.0
 11
112.185998059045
 21
39.9999998115611
 31
0.0
  0
LINE
  5
   1A7
  8
0
  6
CONTINUOUS
 62
     7
 10
111.255566309546
 20
34.9999998115611
 30
0.0
 11
112.185998059045
 21
34.9999998115611
 31
0.0
  0
LINE
  5
   1A8
  8
0
  6
CONTINUOUS
 62
     7
 10
110.935998059045
 20
41.6249998115611
 30
0.0
 11
110.935998059045
 21
40.4154757589838
 31
0.0
  0
ARC
  5
   1A9
  8
0
  6
CONTINUOUS
 62
     7
 10
111.255566309546
 20
34.7499998115611
 30
0.0
 40
0.25
 50
449.999999844103
 51
522.208409271096
  0
ARC
  5
   1AA
  8
0
  6
CONTINUOUS
 62
     7
 10
111.255566309546
 20
40.2499998115611
 30
0.0
 40
0.25
 50
557.791590417111
 51
629.999999844103
  0
LINE
  5
   1AB
  8
0
  6
CONTINUOUS
 62
     7
 10
110.935998059045
 20
34.5845238641385
 30
0.0
 11
110.935998059045
 21
33.3749998115611
 31
0.0
  0
LINE
  5
   1AC
  8
0
  6
CONTINUOUS
 62
     7
 10
109.685998059045
 20
41.6249998115611
 30
0.0
 11
109.685998059045
 21
33.3749998115611
 31
0.0
  0
LINE
  5
   1AD
  8
0
  6
CONTINUOUS
 62
     7
 10
116.93539555305
 20
40.4999998115611
 30
0.0
 11
121.185998059045
 21
40.4999998115611
 31
0.0
  0
LINE
  5
   1AE
  8
0
  6
CONTINUOUS
 62
     7
 10
116.93539555305
 20
34.4999998115611
 30
0.0
 11
121.185998059045
 21
34.4999998115611
 31
0.0
  0
LINE
  5
   1AF
  8
0
  6
CONTINUOUS
 62
     7
 10
112.185998059045
 20
39.9999998115611
 30
0.0
 11
112.185998059045
 21
34.9999998115611
 31
0.0
  0
LINE
  5
   1B0
  8
0
  6
CONTINUOUS
 62
     7
 10
121.685998059045
 20
39.9999998115611
 30
0.0
 11
121.685998059045
 21
34.9999998115611
 31
0.0
  0
LINE
  5
   1B1
  8
0
  6
CONTINUOUS
 62
     7
 10
121.185998059045
 20
40.4999998115611
 30
0.0
 11
121.185998059045
 21
34.4999998115611
 31
0.0
  0
LINE
  5
   1B2
  8
0
  6
CONTINUOUS
 62
     7
 10
112.685998059045
 20
40.4999998115612
 30
0.0
 11
112.185998059045
 21
39.9999998115612
 31
0.0
  0
LINE
  5
   1B3
  8
0
  6
CONTINUOUS
 62
     7
 10
121.685998059045
 20
34.9999998115612
 30
0.0
 11
121.185998059045
 21
34.4999998115612
 31
0.0
  0
LINE
  5
   1B4
  8
0
  6
CONTINUOUS
 62
     7
 10
112.185998059045
 20
34.9999998115611
 30
0.0
 11
112.685998059045
 21
34.4999998115611
 31
0.0
  0
LINE
  5
   1B5
  8
0
  6
CONTINUOUS
 62
     7
 10
121.185998059045
 20
40.4999998115611
 30
0.0
 11
121.685998059045
 21
39.9999998115611
 31
0.0
  0
LINE
  5
   1B6
  8
0
  6
CONTINUOUS
 62
     7
 10
112.685998059045
 20
40.4999998115611
 30
0.0
 11
112.685998059045
 21
34.4999998115611
 31
0.0
  0
LINE
  5
   1B7
  8
0
  6
CONTINUOUS
 62
     7
 10
116.93539555305
 20
40.0999998115611
 30
0.0
 11
121.185998059045
 21
40.0999998115611
 31
0.0
  0
LINE
  5
   1B8
  8
0
  6
CONTINUOUS
 62
     7
 10
116.93539555305
 20
34.8999998115611
 30
0.0
 11
121.185998059045
 21
34.8999998115611
 31
0.0
  0
LINE
  5
   1B9
  8
0
  6
CONTINUOUS
 62
     7
 10
112.685998059045
 20
40.4999998115611
 30
0.0
 11
114.93539555305
 21
40.4999998115611
 31
0.0
  0
LINE
  5
   1BA
  8
0
  6
CONTINUOUS
 62
     7
 10
112.685998059045
 20
40.0999998115611
 30
0.0
 11
114.93539555305
 21
40.0999998115611
 31
0.0
  0
LINE
  5
   1BB
  8
0
  6
CONTINUOUS
 62
     7
 10
112.685998059045
 20
34.8999998115611
 30
0.0
 11
114.93539555305
 21
34.8999998115611
 31
0.0
  0
LINE
  5
   1BC
  8
0
  6
CONTINUOUS
 62
     7
 10
112.685998059045
 20
34.4999998115611
 30
0.0
 11
114.93539555305
 21
34.4999998115611
 31
0.0
  0
LINE
  5
   1BD
  8
0
  6
CONTINUOUS
 62
     3
 10
102.185394287109
 20
23.75
 30
0.0
 11
102.185394287109
 21
16.25
 31
0.0
  0
LINE
  5
   1BE
  8
0
  6
CONTINUOUS
 62
     3
 10
102.185394287109
 20
23.75
 30
0.0
 11
104.685394287109
 21
23.75
 31
0.0
  0
LINE
  5
   1BF
  8
0
  6
CONTINUOUS
 62
     3
 10
102.185394287109
 20
16.25
 30
0.0
 11
104.685394287109
 21
16.25
 31
0.0
  0
LINE
  5
   1C0
  8
0
  6
CONTINUOUS
 62
     7
 10
104.685394287109
 20
23.75
 30
0.0
 11
104.685394287109
 21
16.25
 31
0.0
  0
LINE
  5
   1C1
  8
0
  6
CONTINUOUS
 62
     7
 10
114.93539555305
 20
24.3749996129446
 30
0.0
 11
116.93539555305
 21
24.3749996129446
 31
0.0
  0
LINE
  5
   1C2
  8
0
  6
CONTINUOUS
 62
     7
 10
114.93539555305
 20
15.6249996129446
 30
0.0
 11
116.93539555305
 21
15.6249996129446
 31
0.0
  0
LINE
  5
   1C3
  8
0
  6
CONTINUOUS
 62
     7
 10
114.93539555305
 20
24.4999996129446
 30
0.0
 11
114.93539555305
 21
15.4999996129446
 31
0.0
  0
LINE
  5
   1C4
  8
0
  6
CONTINUOUS
 62
     7
 10
116.93539555305
 20
24.4999997321539
 30
0.0
 11
116.93539555305
 21
15.5000006858282
 31
0.0
  0
LINE
  5
   1C5
  8
0
  6
CONTINUOUS
 62
     7
 10
102.43539555305
 20
15.4999996129446
 30
0.0
 11
119.43539555305
 21
15.4999996129446
 31
0.0
  0
LINE
  5
   1C6
  8
0
  6
CONTINUOUS
 62
     7
 10
102.18539555305
 20
24.2499996129446
 30
0.0
 11
102.18539555305
 21
15.7499996129446
 31
0.0
  0
LINE
  5
   1C7
  8
0
  6
CONTINUOUS
 62
     7
 10
102.43539555305
 20
24.4999996129446
 30
0.0
 11
119.43539555305
 21
24.4999996129446
 31
0.0
  0
LINE
  5
   1C8
  8
0
  6
CONTINUOUS
 62
     7
 10
119.43539555305
 20
25.7499996129436
 30
0.0
 11
119.43539555305
 21
24.4999996129436
 31
0.0
  0
LINE
  5
   1C9
  8
0
  6
CONTINUOUS
 62
     7
 10
100.93539555305
 20
24.2499996129446
 30
0.0
 11
100.93539555305
 21
15.7499996129446
 31
0.0
  0
LINE
  5
   1CA
  8
0
  6
CONTINUOUS
 62
     7
 10
119.43539555305
 20
15.4999996129446
 30
0.0
 11
119.43539555305
 21
14.2499996129446
 31
0.0
  0
ARC
  5
   1CB
  8
0
  6
CONTINUOUS
 62
     7
 10
102.435395645551
 20
24.2499995156269
 30
0.0
 40
0.250000119543609
 50
450.000034238403
 51
539.999966996518
  0
ARC
  5
   1CC
  8
0
  6
CONTINUOUS
 62
     7
 10
102.435395511447
 20
24.2499994754086
 30
0.0
 40
1.50000012842215
 50
450.000001823921
 51
539.99999284071
  0
ARC
  5
   1CD
  8
0
  6
CONTINUOUS
 62
     7
 10
102.435394872581
 20
15.7499996946365
 30
0.0
 40
0.24999947102871
 50
539.99988595107
 51
630.000082816211
  0
ARC
  5
   1CE
  8
0
  6
CONTINUOUS
 62
     7
 10
102.435395331586
 20
15.7499990752958
 30
0.0
 40
1.4999996500699
 50
539.99995551438
 51
630.000005555155
  0
LINE
  5
   1CF
  8
0
  6
DASHDOT
 62
     7
 10
98.9462343735477
 20
19.9999998115611
 30
0.0
 11
123.581506498018
 21
19.9999998115611
 31
0.0
  0
LINE
  5
   1D0
  8
0
  6
CONTINUOUS
 62
     7
 10
109.685998059045
 20
24.1249998115611
 30
0.0
 11
110.935998059045
 21
24.1249998115611
 31
0.0
  0
LINE
  5
   1D1
  8
0
  6
CONTINUOUS
 62
     7
 10
109.685998059045
 20
15.8749998115611
 30
0.0
 11
110.935998059045
 21
15.8749998115611
 31
0.0
  0
ARC
  5
   1D2
  8
0
  6
CONTINUOUS
 62
     7
 10
102.685998059045
 20
19.9999998115611
 30
0.0
 40
8.75
 50
340.537048897788
 51
342.208409271096
  0
ARC
  5
   1D3
  8
0
  6
CONTINUOUS
 62
     7
 10
102.685998059045
 20
19.9999998115611
 30
0.0
 40
8.75
 50
377.791590417111
 51
379.462950790418
  0
LINE
  5
   1D4
  8
0
  6
CONTINUOUS
 62
     7
 10
111.255566309546
 20
22.4999998115611
 30
0.0
 11
112.185998059045
 21
22.4999998115611
 31
0.0
  0
LINE
  5
   1D5
  8
0
  6
CONTINUOUS
 62
     7
 10
111.255566309546
 20
17.4999998115611
 30
0.0
 11
112.185998059045
 21
17.4999998115611
 31
0.0
  0
LINE
  5
   1D6
  8
0
  6
CONTINUOUS
 62
     7
 10
110.935998059045
 20
24.1249998115611
 30
0.0
 11
110.935998059045
 21
22.9154757589838
 31
0.0
  0
ARC
  5
   1D7
  8
0
  6
CONTINUOUS
 62
     7
 10
111.255566309546
 20
17.2499998115611
 30
0.0
 40
0.25
 50
449.999999844103
 51
522.208409271096
  0
ARC
  5
   1D8
  8
0
  6
CONTINUOUS
 62
     7
 10
111.255566309546
 20
22.7499998115611
 30
0.0
 40
0.25
 50
557.791590417111
 51
629.999999844103
  0
LINE
  5
   1D9
  8
0
  6
CONTINUOUS
 62
     7
 10
110.935998059045
 20
17.0845238641385
 30
0.0
 11
110.935998059045
 21
15.8749998115611
 31
0.0
  0
LINE
  5
   1DA
  8
0
  6
CONTINUOUS
 62
     7
 10
109.685998059045
 20
24.1249998115611
 30
0.0
 11
109.685998059045
 21
15.8749998115611
 31
0.0
  0
LINE
  5
   1DB
  8
0
  6
CONTINUOUS
 62
     7
 10
116.93539555305
 20
22.9999998115611
 30
0.0
 11
121.185998059045
 21
22.9999998115611
 31
0.0
  0
LINE
  5
   1DC
  8
0
  6
CONTINUOUS
 62
     7
 10
116.93539555305
 20
16.9999998115611
 30
0.0
 11
121.185998059045
 21
16.9999998115611
 31
0.0
  0
LINE
  5
   1DD
  8
0
  6
CONTINUOUS
 62
     7
 10
112.185998059045
 20
22.4999998115611
 30
0.0
 11
112.185998059045
 21
17.4999998115611
 31
0.0
  0
LINE
  5
   1DE
  8
0
  6
CONTINUOUS
 62
     7
 10
121.685998059045
 20
22.4999998115611
 30
0.0
 11
121.685998059045
 21
17.4999998115611
 31
0.0
  0
LINE
  5
   1DF
  8
0
  6
CONTINUOUS
 62
     7
 10
121.185998059045
 20
22.9999998115611
 30
0.0
 11
121.185998059045
 21
16.9999998115611
 31
0.0
  0
LINE
  5
   1E0
  8
0
  6
CONTINUOUS
 62
     7
 10
112.685998059045
 20
22.9999998115611
 30
0.0
 11
112.685998059045
 21
16.9999998115611
 31
0.0
  0
LINE
  5
   1E1
  8
0
  6
CONTINUOUS
 62
     7
 10
112.685998059045
 20
22.9999998115612
 30
0.0
 11
112.185998059045
 21
22.4999998115612
 31
0.0
  0
LINE
  5
   1E2
  8
0
  6
CONTINUOUS
 62
     7
 10
121.685998059045
 20
17.4999998115612
 30
0.0
 11
121.185998059045
 21
16.9999998115612
 31
0.0
  0
LINE
  5
   1E3
  8
0
  6
CONTINUOUS
 62
     7
 10
112.185998059045
 20
17.4999998115611
 30
0.0
 11
112.685998059045
 21
16.9999998115611
 31
0.0
  0
LINE
  5
   1E4
  8
0
  6
CONTINUOUS
 62
     7
 10
121.185998059045
 20
22.9999998115611
 30
0.0
 11
121.685998059045
 21
22.4999998115611
 31
0.0
  0
LINE
  5
   1E5
  8
0
  6
CONTINUOUS
 62
     7
 10
116.93539555305
 20
22.5999998115611
 30
0.0
 11
121.185998059045
 21
22.5999998115611
 31
0.0
  0
LINE
  5
   1E6
  8
0
  6
CONTINUOUS
 62
     7
 10
116.93539555305
 20
17.3999998115611
 30
0.0
 11
121.185998059045
 21
17.3999998115611
 31
0.0
  0
LINE
  5
   1E7
  8
0
  6
CONTINUOUS
 62
     7
 10
112.685998059045
 20
22.9999998115611
 30
0.0
 11
114.93539555305
 21
22.9999998115611
 31
0.0
  0
LINE
  5
   1E8
  8
0
  6
CONTINUOUS
 62
     7
 10
112.685998059045
 20
22.5999998115611
 30
0.0
 11
114.93539555305
 21
22.5999998115611
 31
0.0
  0
LINE
  5
   1E9
  8
0
  6
CONTINUOUS
 62
     7
 10
112.685998059045
 20
17.3999998115611
 30
0.0
 11
114.93539555305
 21
17.3999998115611
 31
0.0
  0
LINE
  5
   1EA
  8
0
  6
CONTINUOUS
 62
     7
 10
112.685998059045
 20
16.9999998115611
 30
0.0
 11
114.93539555305
 21
16.9999998115611
 31
0.0
  0
LINE
  5
   1EB
  8
0
  6
CONTINUOUS
 62
     7
 10
102.435395481101
 20
14.2499994252259
 30
0.0
 11
119.43539555305
 21
14.2499994252259
 31
0.0
  0
LINE
  5
   1EC
  8
0
  6
CONTINUOUS
 62
     7
 10
93.1853942871094
 20
61.2499996231223
 30
0.0
 11
131.435424804688
 21
61.2499996231223
 31
0.0
  0
LINE
  5
   1ED
  8
0
  6
CONTINUOUS
 62
     7
 10
148.435424804688
 20
23.5000009466071
 30
0.0
 11
166.435392906435
 21
23.5000009466071
 31
0.0
  0
LINE
  5
   1EE
  8
0
  6
CONTINUOUS
 62
     7
 10
95.1853942871094
 20
71.5000009466071
 30
0.0
 11
166.435392906435
 21
71.5000009466071
 31
0.0
  0
LINE
  5
   1EF
  8
0
  6
CONTINUOUS
 62
     7
 10
166.435392906435
 20
71.5000009466071
 30
0.0
 11
166.435392906435
 21
23.5000009466071
 31
0.0
  0
LINE
  5
   1F0
  8
0
  6
CONTINUOUS
 62
     7
 10
161.435392906435
 20
71.5000009466071
 30
0.0
 11
161.435392906435
 21
23.5000009466071
 31
0.0
  0
LINE
  5
   1F1
  8
0
  6
CONTINUOUS
 62
     7
 10
143.935392906435
 20
66.5000009466071
 30
0.0
 11
143.935392906435
 21
63.75
 31
0.0
  0
LINE
  5
   1F2
  8
0
  6
CONTINUOUS
 62
     7
 10
144.935392906435
 20
67.5000009466071
 30
0.0
 11
159.935392906435
 21
67.5000009466071
 31
0.0
  0
LINE
  5
   1F3
  8
0
  6
CONTINUOUS
 62
     7
 10
148.435424804688
 20
27.5000009466071
 30
0.0
 11
159.935392906435
 21
27.5000009466071
 31
0.0
  0
LINE
  5
   1F4
  8
0
  6
CONTINUOUS
 62
     7
 10
163.435392906435
 20
25.0000009466071
 30
0.0
 11
164.435392906435
 21
25.0000009466071
 31
0.0
  0
LINE
  5
   1F5
  8
0
  6
CONTINUOUS
 62
     7
 10
164.935392906435
 20
38.5000009466071
 30
0.0
 11
164.935392906435
 21
25.5000009466071
 31
0.0
  0
ARC
  5
   1F6
  8
0
  6
CONTINUOUS
 62
     7
 10
163.435392906435
 20
25.5000009466071
 30
0.0
 40
0.5
 50
539.999999844103
 51
629.999999844103
  0
ARC
  5
   1F7
  8
0
  6
CONTINUOUS
 62
     7
 10
164.435392906435
 20
25.5000009466071
 30
0.0
 40
0.5
 50
269.999999844103
 51
359.999999844103
  0
LINE
  5
   1F8
  8
0
  6
CONTINUOUS
 62
     7
 10
163.435392906435
 20
70.0000009466071
 30
0.0
 11
164.435392906434
 21
70.0000009466071
 31
0.0
  0
LINE
  5
   1F9
  8
0
  6
CONTINUOUS
 62
     7
 10
163.435392906435
 20
54.5000009466071
 30
0.0
 11
164.435392906434
 21
54.5000009466071
 31
0.0
  0
LINE
  5
   1FA
  8
0
  6
CONTINUOUS
 62
     7
 10
163.435392906435
 20
39.0000009466071
 30
0.0
 11
164.435392906435
 21
39.0000009466071
 31
0.0
  0
LINE
  5
   1FB
  8
0
  6
CONTINUOUS
 62
     7
 10
163.435392906435
 20
56.0000009466071
 30
0.0
 11
164.435392906434
 21
56.0000009466071
 31
0.0
  0
LINE
  5
   1FC
  8
0
  6
CONTINUOUS
 62
     7
 10
163.435392906435
 20
40.5000009466071
 30
0.0
 11
164.435392906434
 21
40.5000009466071
 31
0.0
  0
LINE
  5
   1FD
  8
0
  6
CONTINUOUS
 62
     7
 10
164.935392906434
 20
69.5000009466071
 30
0.0
 11
164.935392906434
 21
56.5000009466071
 31
0.0
  0
LINE
  5
   1FE
  8
0
  6
CONTINUOUS
 62
     7
 10
162.935392906435
 20
69.5000009466071
 30
0.0
 11
162.935392906435
 21
56.5000009466071
 31
0.0
  0
LINE
  5
   1FF
  8
0
  6
CONTINUOUS
 62
     7
 10
162.935392906435
 20
54.0000009466071
 30
0.0
 11
162.935392906435
 21
41.0000009466071
 31
0.0
  0
LINE
  5
   200
  8
0
  6
CONTINUOUS
 62
     7
 10
164.935392906434
 20
54.0000009466071
 30
0.0
 11
164.935392906434
 21
41.0000009466071
 31
0.0
  0
LINE
  5
   201
  8
0
  6
CONTINUOUS
 62
     7
 10
162.935392906435
 20
38.5000009466071
 30
0.0
 11
162.935392906435
 21
25.5000009466071
 31
0.0
  0
ARC
  5
   202
  8
0
  6
CONTINUOUS
 62
     7
 10
164.435392906435
 20
38.5000009466071
 30
0.0
 40
0.5
 50
359.999999844103
 51
449.999999844103
  0
ARC
  5
   203
  8
0
  6
CONTINUOUS
 62
     7
 10
163.435392906435
 20
38.5000009466071
 30
0.0
 40
0.5
 50
449.999999844103
 51
539.999999844103
  0
ARC
  5
   204
  8
0
  6
CONTINUOUS
 62
     7
 10
164.435392906434
 20
41.0000009466071
 30
0.0
 40
0.5
 50
269.999999844103
 51
359.999999844103
  0
ARC
  5
   205
  8
0
  6
CONTINUOUS
 62
     7
 10
164.435392906434
 20
54.0000009466071
 30
0.0
 40
0.5
 50
359.999999844103
 51
449.999999844103
  0
ARC
  5
   206
  8
0
  6
CONTINUOUS
 62
     7
 10
163.435392906435
 20
54.0000009466071
 30
0.0
 40
0.5
 50
449.999999844103
 51
539.999999844103
  0
ARC
  5
   207
  8
0
  6
CONTINUOUS
 62
     7
 10
163.435392906435
 20
41.0000009466071
 30
0.0
 40
0.5
 50
539.999999844103
 51
629.999999844103
  0
ARC
  5
   208
  8
0
  6
CONTINUOUS
 62
     7
 10
163.435392906435
 20
56.5000009466071
 30
0.0
 40
0.5
 50
539.999999844103
 51
629.999999844103
  0
ARC
  5
   209
  8
0
  6
CONTINUOUS
 62
     7
 10
164.435392906434
 20
56.5000009466071
 30
0.0
 40
0.5
 50
269.999999844103
 51
359.999999844103
  0
ARC
  5
   20A
  8
0
  6
CONTINUOUS
 62
     7
 10
164.435392906434
 20
69.5000009466071
 30
0.0
 40
0.5
 50
359.999999844103
 51
449.999999844103
  0
ARC
  5
   20B
  8
0
  6
CONTINUOUS
 62
     7
 10
163.435392906435
 20
69.5000009466071
 30
0.0
 40
0.5
 50
449.999999844103
 51
539.999999844103
  0
LINE
  5
   20C
  8
0
  6
CONTINUOUS
 62
     7
 10
144.435392906435
 20
70.0000009466071
 30
0.0
 11
161.435392906435
 21
70.0000009466071
 31
0.0
  0
LINE
  5
   20D
  8
0
  6
CONTINUOUS
 62
     7
 10
144.435392906435
 20
69.0000009466071
 30
0.0
 11
161.435392906435
 21
69.0000009466071
 31
0.0
  0
LINE
  5
   20E
  8
0
  6
CONTINUOUS
 62
     7
 10
148.435424804688
 20
26.0000009466071
 30
0.0
 11
161.435392906435
 21
26.0000009466071
 31
0.0
  0
LINE
  5
   20F
  8
0
  6
CONTINUOUS
 62
     7
 10
148.435424804688
 20
25.0000009466071
 30
0.0
 11
161.435392906435
 21
25.0000009466071
 31
0.0
  0
LINE
  5
   210
  8
0
  6
CONTINUOUS
 62
     7
 10
142.435392906435
 20
68.5000009466071
 30
0.0
 11
142.435392906435
 21
63.75
 31
0.0
  0
LINE
  5
   211
  8
0
  6
CONTINUOUS
 62
     7
 10
126.185392906435
 20
70.0000009466071
 30
0.0
 11
140.935392906435
 21
70.0000009466071
 31
0.0
  0
LINE
  5
   212
  8
0
  6
CONTINUOUS
 62
     7
 10
124.685392906435
 20
68.5000009466071
 30
0.0
 11
124.685392906435
 21
63.75
 31
0.0
  0
LINE
  5
   213
  8
0
  6
CONTINUOUS
 62
     7
 10
123.185392906435
 20
68.5000009466071
 30
0.0
 11
123.185392906435
 21
63.75
 31
0.0
  0
ARC
  5
   214
  8
0
  6
CONTINUOUS
 62
     7
 10
140.935392906435
 20
68.5000009466071
 30
0.0
 40
1.5
 50
359.999999844103
 51
449.999999844103
  0
ARC
  5
   215
  8
0
  6
CONTINUOUS
 62
     7
 10
126.185392906435
 20
68.5000009466071
 30
0.0
 40
1.5
 50
449.999999844103
 51
539.999999844103
  0
ARC
  5
   216
  8
0
  6
CONTINUOUS
 62
     7
 10
144.935392906435
 20
66.5000009466071
 30
0.0
 40
1.0
 50
449.999999844103
 51
539.999999844103
  0
ARC
  5
   217
  8
0
  6
CONTINUOUS
 62
     7
 10
144.435392906435
 20
69.5000009466071
 30
0.0
 40
0.5
 50
449.999999844103
 51
629.999999844103
  0
ARC
  5
   218
  8
0
  6
CONTINUOUS
 62
     7
 10
159.935392906435
 20
66.0000009466071
 30
0.0
 40
1.5
 50
359.999999844103
 51
449.999999844103
  0
ARC
  5
   219
  8
0
  6
CONTINUOUS
 62
     7
 10
159.935392906435
 20
29.0000009466071
 30
0.0
 40
1.5
 50
269.999999844103
 51
359.999999844103
  0
LINE
  5
   21A
  8
0
  6
DASHDOT
 62
     7
 10
61.7659245760359
 20
75.0
 30
0.0
 11
73.673656930561
 21
75.0
 31
0.0
  0
LINE
  5
   21B
  8
0
  6
CONTINUOUS
 62
     3
 10
65.1853942871094
 20
73.5
 30
0.0
 11
70.1853942871094
 21
73.5
 31
0.0
  0
LINE
  5
   21C
  8
0
  6
CONTINUOUS
 62
     3
 10
65.1853942871094
 20
76.5
 30
0.0
 11
70.1853942871094
 21
76.5
 31
0.0
  0
LINE
  5
   21D
  8
0
  6
CONTINUOUS
 62
     3
 10
64.6853942871094
 20
76.0
 30
0.0
 11
64.6853942871094
 21
74.0
 31
0.0
  0
LINE
  5
   21E
  8
0
  6
CONTINUOUS
 62
     3
 10
65.1853942871094
 20
76.5
 30
0.0
 11
65.1853942871094
 21
73.5
 31
0.0
  0
LINE
  5
   21F
  8
0
  6
CONTINUOUS
 62
     7
 10
65.1853942871094
 20
74.0
 30
0.0
 11
70.1853942871094
 21
74.0
 31
0.0
  0
LINE
  5
   220
  8
0
  6
CONTINUOUS
 62
     7
 10
65.1853942871094
 20
76.0
 30
0.0
 11
70.1853942871094
 21
76.0
 31
0.0
  0
LINE
  5
   221
  8
0
  6
CONTINUOUS
 62
     3
 10
65.1853942871094
 20
76.5
 30
0.0
 11
64.6853942871094
 21
76.0
 31
0.0
  0
LINE
  5
   222
  8
0
  6
CONTINUOUS
 62
     3
 10
64.6853942871094
 20
74.0
 30
0.0
 11
65.1853942871094
 21
73.5
 31
0.0
  0
LINE
  5
   223
  8
0
  6
DASHDOT
 62
     7
 10
50.4494301239777
 20
0.0
 30
0.0
 11
73.673656930561
 21
0.0
 31
0.0
  0
LINE
  5
   224
  8
0
  6
CONTINUOUS
 62
     3
 10
65.1853942871094
 20
1.5
 30
0.0
 11
65.1853942871094
 21
-1.5
 31
0.0
  0
ARC
  5
   225
  8
0
  6
CONTINUOUS
 62
     7
 10
106.935392906435
 20
68.5000009466071
 30
0.0
 40
1.5
 50
449.999999844103
 51
539.999999844103
  0
LINE
  5
   226
  8
0
  6
CONTINUOUS
 62
     7
 10
106.935392906435
 20
70.0000009466071
 30
0.0
 11
121.685392906435
 21
70.0000009466071
 31
0.0
  0
ARC
  5
   227
  8
0
  6
CONTINUOUS
 62
     7
 10
121.685392906435
 20
68.5000009466071
 30
0.0
 40
1.5
 50
359.999999844103
 51
449.999999844103
  0
LINE
  5
   228
  8
0
  6
CONTINUOUS
 62
     7
 10
105.435392906435
 20
68.5000009466071
 30
0.0
 11
105.435392906435
 21
63.75
 31
0.0
  0
LINE
  5
   229
  8
0
  6
CONTINUOUS
 62
     7
 10
95.1853942871094
 20
71.5000009466071
 30
0.0
 11
93.8456483249538
 21
66.5000009466071
 31
0.0
  0
LINE
  5
   22A
  8
0
  6
CONTINUOUS
 62
     7
 10
97.4873752510462
 20
70.0000009466071
 30
0.0
 11
102.435392906435
 21
70.0000009466071
 31
0.0
  0
LINE
  5
   22B
  8
0
  6
CONTINUOUS
 62
     7
 10
103.935392906435
 20
68.5000009466071
 30
0.0
 11
103.935392906435
 21
63.75
 31
0.0
  0
LINE
  5
   22C
  8
0
  6
CONTINUOUS
 62
     7
 10
96.0384865116126
 20
68.8882295142608
 30
0.0
 11
95.2603503490881
 21
65.9841858205125
 31
0.0
  0
ARC
  5
   22D
  8
0
  6
CONTINUOUS
 62
     7
 10
102.435392906435
 20
68.5000009466071
 30
0.0
 40
1.5
 50
359.999999844103
 51
449.999999844103
  0
ARC
  5
   22E
  8
0
  6
CONTINUOUS
 62
     7
 10
97.4873752510462
 20
68.5000009466071
 30
0.0
 40
1.5
 50
449.999999844103
 51
524.999999844103
  0
LINE
  5
   22F
  8
0
  6
CONTINUOUS
 62
     7
 10
92.1853942871094
 20
66.5000009466071
 30
0.0
 11
93.8456483249538
 21
66.5000009466071
 31
0.0
  0
LINE
  5
   230
  8
0
  6
CONTINUOUS
 62
     7
 10
92.1853942871094
 20
65.0000009466071
 30
0.0
 11
93.6577816978457
 21
65.0000009466071
 31
0.0
  0
LINE
  5
   231
  8
0
  6
CONTINUOUS
 62
     7
 10
93.7603503490881
 20
64.8943219541433
 30
0.0
 11
93.7603503490881
 21
63.75
 31
0.0
  0
LINE
  5
   232
  8
0
  6
CONTINUOUS
 62
     7
 10
95.2603503490881
 20
65.9841858205125
 30
0.0
 11
95.2603503490881
 21
63.75
 31
0.0
  0
LINE
  5
   233
  8
0
  6
CONTINUOUS
 62
     7
 10
93.1853942871094
 20
63.75
 30
0.0
 11
93.1853942871094
 21
48.5
 31
0.0
  0
LINE
  5
   234
  8
0
  6
CONTINUOUS
 62
     7
 10
74.6853942871094
 20
68.5
 30
0.0
 11
74.6853942871094
 21
67.25
 31
0.0
  0
LINE
  5
   235
  8
0
  6
CONTINUOUS
 62
     7
 10
74.6853942871094
 20
64.75
 30
0.0
 11
74.6853942871094
 21
63.5
 31
0.0
  0
LINE
  5
   236
  8
0
  6
CONTINUOUS
 62
     7
 10
74.6853942871094
 20
8.5
 30
0.0
 11
74.6853942871094
 21
7.25
 31
0.0
  0
LINE
  5
   237
  8
0
  6
CONTINUOUS
 62
     7
 10
74.6853942871094
 20
4.75
 30
0.0
 11
74.6853942871094
 21
3.5
 31
0.0
  0
LINE
  5
   238
  8
0
  6
CONTINUOUS
 62
     5
 10
70.1853920257167
 20
-2.25
 30
0.0
 11
70.1853920257167
 21
-4.49999613012392
 31
0.0
  0
LINE
  5
   239
  8
0
  6
CONTINUOUS
 62
     5
 10
62.6853920257167
 20
-4.49999613012392
 30
0.0
 11
70.1853920257167
 21
-4.49999613012392
 31
0.0
  0
LINE
  5
   23A
  8
0
  6
CONTINUOUS
 62
     5
 10
62.6853920257167
 20
3.39962200094828
 30
0.0
 11
62.6853920257167
 21
-4.49999613012392
 31
0.0
  0
LINE
  5
   23B
  8
0
  6
CONTINUOUS
 62
     5
 10
65.1853920257167
 20
3.37780483147138
 30
0.0
 11
65.1853920257167
 21
-4.49999613012392
 31
0.0
  0
LINE
  5
   23C
  8
0
  6
CONTINUOUS
 62
     5
 10
65.1853920257167
 20
1.44337570667267
 30
0.0
 11
70.1853920257167
 21
1.44337570667267
 31
0.0
  0
LINE
  5
   23D
  8
0
  6
CONTINUOUS
 62
     5
 10
65.1853920257167
 20
-1.44337570667267
 30
0.0
 11
70.1853920257167
 21
-1.44337570667267
 31
0.0
  0
LINE
  5
   23E
  8
0
  6
CONTINUOUS
 62
     5
 10
64.1853920257167
 20
3.38653169926214
 30
0.0
 11
64.1853920257167
 21
-4.49999613012392
 31
0.0
  0
LINE
  5
   23F
  8
0
  6
CONTINUOUS
 62
     1
 10
53.9353920257167
 20
1.0
 30
0.0
 11
53.9353920257167
 21
-1.0
 31
0.0
  0
LINE
  5
   240
  8
0
  6
CONTINUOUS
 62
     1
 10
54.1853920257167
 20
1.25
 30
0.0
 11
62.6853920257167
 21
1.25
 31
0.0
  0
LINE
  5
   241
  8
0
  6
CONTINUOUS
 62
     1
 10
54.1853920257167
 20
-1.25
 30
0.0
 11
62.6853920257167
 21
-1.25
 31
0.0
  0
LINE
  5
   242
  8
0
  6
CONTINUOUS
 62
     1
 10
54.1853920257167
 20
1.25
 30
0.0
 11
53.9353920257167
 21
1.0
 31
0.0
  0
LINE
  5
   243
  8
0
  6
CONTINUOUS
 62
     1
 10
53.9353920257167
 20
-1.0
 30
0.0
 11
54.1853920257167
 21
-1.25
 31
0.0
  0
LINE
  5
   244
  8
0
  6
CONTINUOUS
 62
     1
 10
54.1853920257167
 20
1.25
 30
0.0
 11
54.1853920257167
 21
-1.25
 31
0.0
  0
LINE
  5
   245
  8
0
  6
CONTINUOUS
 62
     7
 10
54.1853920257167
 20
1.0
 30
0.0
 11
62.6853920257167
 21
1.0
 31
0.0
  0
LINE
  5
   246
  8
0
  6
CONTINUOUS
 62
     7
 10
54.1853920257167
 20
-1.0
 30
0.0
 11
62.6853920257167
 21
-1.0
 31
0.0
  0
LINE
  5
   247
  8
0
  6
CONTINUOUS
 62
     3
 10
65.1853942871094
 20
26.5
 30
0.0
 11
65.1853942871094
 21
23.5
 31
0.0
  0
LINE
  5
   248
  8
0
  6
CONTINUOUS
 62
     5
 10
62.6853920257167
 20
27.6496220009483
 30
0.0
 11
62.6853920257167
 21
22.3503779990517
 31
0.0
  0
LINE
  5
   249
  8
0
  6
CONTINUOUS
 62
     5
 10
65.1853920257167
 20
27.6278048314714
 30
0.0
 11
65.1853920257167
 21
22.3721951685286
 31
0.0
  0
LINE
  5
   24A
  8
0
  6
CONTINUOUS
 62
     5
 10
65.1853920257167
 20
26.4433757066727
 30
0.0
 11
70.1853920257167
 21
26.4433757066727
 31
0.0
  0
LINE
  5
   24B
  8
0
  6
CONTINUOUS
 62
     5
 10
65.1853920257167
 20
23.5566242933273
 30
0.0
 11
70.1853920257167
 21
23.5566242933273
 31
0.0
  0
LINE
  5
   24C
  8
0
  6
CONTINUOUS
 62
     5
 10
64.1853920257167
 20
27.6365316992622
 30
0.0
 11
64.1853920257167
 21
22.3634683007379
 31
0.0
  0
LINE
  5
   24D
  8
0
  6
CONTINUOUS
 62
     3
 10
65.1853942871094
 20
51.5
 30
0.0
 11
65.1853942871094
 21
48.5
 31
0.0
  0
LINE
  5
   24E
  8
0
  6
CONTINUOUS
 62
     5
 10
62.6853920257167
 20
54.5
 30
0.0
 11
62.6853920257167
 21
47.3503779990518
 31
0.0
  0
LINE
  5
   24F
  8
0
  6
CONTINUOUS
 62
     5
 10
65.1853920257167
 20
54.5
 30
0.0
 11
65.1853920257167
 21
47.3721951685287
 31
0.0
  0
LINE
  5
   250
  8
0
  6
CONTINUOUS
 62
     5
 10
65.1853920257167
 20
51.4433757066727
 30
0.0
 11
70.1853920257167
 21
51.4433757066727
 31
0.0
  0
LINE
  5
   251
  8
0
  6
CONTINUOUS
 62
     5
 10
65.1853920257167
 20
48.5566242933273
 30
0.0
 11
70.1853920257167
 21
48.5566242933273
 31
0.0
  0
LINE
  5
   252
  8
0
  6
CONTINUOUS
 62
     5
 10
64.1853920257167
 20
54.5
 30
0.0
 11
64.1853920257167
 21
47.3634683007379
 31
0.0
  0
LINE
  5
   253
  8
0
  6
CONTINUOUS
 62
     1
 10
53.9353920257167
 20
51.0
 30
0.0
 11
53.9353920257167
 21
49.0
 31
0.0
  0
LINE
  5
   254
  8
0
  6
CONTINUOUS
 62
     1
 10
54.1853920257167
 20
51.25
 30
0.0
 11
62.6853920257167
 21
51.25
 31
0.0
  0
LINE
  5
   255
  8
0
  6
CONTINUOUS
 62
     1
 10
54.1853920257167
 20
48.75
 30
0.0
 11
62.6853920257167
 21
48.75
 31
0.0
  0
LINE
  5
   256
  8
0
  6
CONTINUOUS
 62
     1
 10
54.1853920257167
 20
51.25
 30
0.0
 11
53.9353920257167
 21
51.0
 31
0.0
  0
LINE
  5
   257
  8
0
  6
CONTINUOUS
 62
     1
 10
53.9353920257167
 20
49.0
 30
0.0
 11
54.1853920257167
 21
48.75
 31
0.0
  0
LINE
  5
   258
  8
0
  6
CONTINUOUS
 62
     1
 10
54.1853920257167
 20
51.25
 30
0.0
 11
54.1853920257167
 21
48.75
 31
0.0
  0
LINE
  5
   259
  8
0
  6
CONTINUOUS
 62
     7
 10
54.1853920257167
 20
51.0
 30
0.0
 11
62.6853920257167
 21
51.0
 31
0.0
  0
LINE
  5
   25A
  8
0
  6
CONTINUOUS
 62
     7
 10
54.1853920257167
 20
49.0
 30
0.0
 11
62.6853920257167
 21
49.0
 31
0.0
  0
LINE
  5
   25B
  8
0
  6
CONTINUOUS
 62
     5
 10
62.6853920257167
 20
54.5
 30
0.0
 11
70.1853942871094
 21
54.5
 31
0.0
  0
LINE
  5
   25C
  8
0
  6
CONTINUOUS
 62
     7
 10
5.75
 20
-76.298957824707
 30
0.0
 11
-155.25
 21
-76.298957824707
 31
0.0
  0
ARC
  5
   25D
  8
0
  6
CONTINUOUS
 62
     7
 10
-98.75
 20
-35.298957824707
 30
0.0
 40
0.5
 50
449.999999896069
 51
539.499999896069
  0
ARC
  5
   25E
  8
0
  6
CONTINUOUS
 62
     7
 10
-48.75
 20
-35.298957824707
 30
0.0
 40
0.5
 50
449.999999896069
 51
539.499999896069
  0
ARC
  5
   25F
  8
0
  6
CONTINUOUS
 62
     7
 10
-26.25
 20
-35.298957824707
 30
0.0
 40
0.5
 50
360.499999896068
 51
449.999999896069
  0
LINE
  5
   260
  8
0
  6
CONTINUOUS
 62
     7
 10
5.75
 20
-54.298957824707
 30
0.0
 11
-6.25
 21
-54.298957824707
 31
0.0
  0
LINE
  5
   261
  8
0
  6
CONTINUOUS
 62
     7
 10
-6.25
 20
-62.798957824707
 30
0.0
 11
-65.5
 21
-62.798957824707
 31
0.0
  0
LINE
  5
   262
  8
0
  6
CONTINUOUS
 62
     7
 10
-7.25
 20
-62.798957824707
 30
0.0
 11
-7.25
 21
-76.298957824707
 31
0.0
  0
LINE
  5
   263
  8
0
  6
CONTINUOUS
 62
     7
 10
-26.25
 20
-34.798957824707
 30
0.0
 11
-32.0
 21
-34.798957824707
 31
0.0
  0
LINE
  5
   264
  8
0
  6
CONTINUOUS
 62
     7
 10
-49.2499809615321
 20
-35.2945945569576
 30
0.0
 11
-49.4900079034387
 21
-62.798957824706
 31
0.0
  0
LINE
  5
   265
  8
0
  6
CONTINUOUS
 62
     7
 10
-25.5099920965613
 20
-62.798957824707
 30
0.0
 11
-25.7500190384679
 21
-35.2945945569578
 31
0.0
  0
LINE
  5
   266
  8
0
  6
CONTINUOUS
 62
     7
 10
-99.2499809615321
 20
-35.2945945569578
 30
0.0
 11
-99.4900079034387
 21
-62.798957824707
 31
0.0
  0
LINE
  5
   267
  8
0
  6
CONTINUOUS
 62
     7
 10
-118.75
 20
-54.298957824707
 30
0.0
 11
-131.25
 21
-54.298957824707
 31
0.0
  0
LINE
  5
   268
  8
0
  6
CONTINUOUS
 62
     7
 10
-155.25
 20
-73.298957824707
 30
0.0
 11
-155.25
 21
-77.798957824707
 31
0.0
  0
LINE
  5
   269
  8
0
  6
CONTINUOUS
 62
     7
 10
-131.25
 20
-54.298957824707
 30
0.0
 11
-131.25
 21
-70.923957824707
 31
0.0
  0
LINE
  5
   26A
  8
0
  6
CONTINUOUS
 62
     7
 10
-131.25
 20
-59.442551364156
 30
0.0
 11
-155.25
 21
-73.298957824707
 31
0.0
  0
LINE
  5
   26B
  8
0
  6
CONTINUOUS
 62
     7
 10
-118.75
 20
-54.298957824707
 30
0.0
 11
-118.75
 21
-76.298957824707
 31
0.0
  0
LINE
  5
   26C
  8
0
  6
CONTINUOUS
 62
     2
 10
-118.75
 20
-70.923957824707
 30
0.0
 11
-137.25
 21
-70.923957824707
 31
0.0
  0
ARC
  5
   26D
  8
0
  6
CONTINUOUS
 62
     7
 10
-32.0
 20
-36.798957824707
 30
0.0
 40
2.0
 50
449.999999896069
 51
539.999999896069
  0
LINE
  5
   26E
  8
0
  6
CONTINUOUS
 62
     7
 10
-34.0
 20
-36.798957824707
 30
0.0
 11
-34.0
 21
-44.298957824707
 31
0.0
  0
ARC
  5
   26F
  8
0
  6
CONTINUOUS
 62
     7
 10
-36.0
 20
-44.298957824707
 30
0.0
 40
2.0
 50
269.999999896069
 51
359.999999896069
  0
LINE
  5
   270
  8
0
  6
CONTINUOUS
 62
     7
 10
-36.0
 20
-46.298957824707
 30
0.0
 11
-39.0
 21
-46.298957824707
 31
0.0
  0
ARC
  5
   271
  8
0
  6
CONTINUOUS
 62
     7
 10
-39.0
 20
-44.298957824707
 30
0.0
 40
2.0
 50
179.999999896069
 51
269.999999896069
  0
LINE
  5
   272
  8
0
  6
CONTINUOUS
 62
     7
 10
-41.0
 20
-36.798957824707
 30
0.0
 11
-41.0
 21
-44.298957824707
 31
0.0
  0
ARC
  5
   273
  8
0
  6
CONTINUOUS
 62
     7
 10
-43.0
 20
-36.798957824707
 30
0.0
 40
2.0
 50
359.999999896069
 51
449.999999896069
  0
ARC
  5
   274
  8
0
  6
CONTINUOUS
 62
     7
 10
-68.0
 20
-36.798957824707
 30
0.0
 40
2.0
 50
359.999999896069
 51
449.999999896069
  0
LINE
  5
   275
  8
0
  6
CONTINUOUS
 62
     7
 10
-66.0
 20
-36.798957824707
 30
0.0
 11
-66.0
 21
-44.298957824707
 31
0.0
  0
ARC
  5
   276
  8
0
  6
CONTINUOUS
 62
     7
 10
-64.0
 20
-44.298957824707
 30
0.0
 40
2.0
 50
179.999999896069
 51
269.999999896069
  0
LINE
  5
   277
  8
0
  6
CONTINUOUS
 62
     7
 10
-61.0
 20
-46.298957824707
 30
0.0
 11
-64.0
 21
-46.298957824707
 31
0.0
  0
ARC
  5
   278
  8
0
  6
CONTINUOUS
 62
     7
 10
-61.0
 20
-44.298957824707
 30
0.0
 40
2.0
 50
269.999999896069
 51
359.999999896069
  0
LINE
  5
   279
  8
0
  6
CONTINUOUS
 62
     7
 10
-59.0
 20
-36.798957824707
 30
0.0
 11
-59.0
 21
-44.298957824707
 31
0.0
  0
ARC
  5
   27A
  8
0
  6
CONTINUOUS
 62
     7
 10
-57.0
 20
-36.798957824707
 30
0.0
 40
2.0
 50
449.999999896069
 51
539.999999896069
  0
LINE
  5
   27B
  8
0
  6
CONTINUOUS
 62
     7
 10
-84.0
 20
-36.798957824707
 30
0.0
 11
-84.0
 21
-44.298957824707
 31
0.0
  0
ARC
  5
   27C
  8
0
  6
CONTINUOUS
 62
     7
 10
-86.0
 20
-44.298957824707
 30
0.0
 40
2.0
 50
269.999999896069
 51
359.999999896069
  0
LINE
  5
   27D
  8
0
  6
CONTINUOUS
 62
     7
 10
-86.0
 20
-46.298957824707
 30
0.0
 11
-89.0
 21
-46.298957824707
 31
0.0
  0
ARC
  5
   27E
  8
0
  6
CONTINUOUS
 62
     7
 10
-89.0
 20
-44.298957824707
 30
0.0
 40
2.0
 50
179.999999896069
 51
269.999999896069
  0
LINE
  5
   27F
  8
0
  6
CONTINUOUS
 62
     7
 10
-91.0
 20
-36.798957824707
 30
0.0
 11
-91.0
 21
-44.298957824707
 31
0.0
  0
ARC
  5
   280
  8
0
  6
CONTINUOUS
 62
     7
 10
-93.0
 20
-36.798957824707
 30
0.0
 40
2.0
 50
359.999999896069
 51
449.999999896069
  0
ARC
  5
   281
  8
0
  6
CONTINUOUS
 62
     7
 10
-82.0
 20
-36.798957824707
 30
0.0
 40
2.0
 50
449.999999896069
 51
539.999999896069
  0
LINE
  5
   282
  8
0
  6
CONTINUOUS
 62
     7
 10
-43.0
 20
-34.798957824707
 30
0.0
 11
-48.75
 21
-34.798957824707
 31
0.0
  0
LINE
  5
   283
  8
0
  6
CONTINUOUS
 62
     7
 10
-68.0
 20
-34.798957824707
 30
0.0
 11
-82.0
 21
-34.798957824707
 31
0.0
  0
LINE
  5
   284
  8
0
  6
CONTINUOUS
 62
     7
 10
-93.0
 20
-34.798957824707
 30
0.0
 11
-98.75
 21
-34.798957824707
 31
0.0
  0
LINE
  5
   285
  8
0
  6
CONTINUOUS
 62
     3
 10
-22.4999980163297
 20
-83.298957824707
 30
0.0
 11
-22.4999980163297
 21
-86.298957824707
 31
0.0
  0
LINE
  5
   286
  8
0
  6
CONTINUOUS
 62
     3
 10
-34.7064276728594
 20
-82.6433445956427
 30
0.0
 11
-37.399460081415
 21
-76.298957824707
 31
0.0
  0
LINE
  5
   287
  8
0
  6
DASHED
 62
     7
 10
-77.5
 20
-57.048957824707
 30
0.0
 11
-77.5
 21
-67.548957824707
 31
0.0
  0
LINE
  5
   288
  8
0
  6
DASHED
 62
     7
 10
-97.5
 20
-57.048957824707
 30
0.0
 11
-97.5
 21
-67.548957824707
 31
0.0
  0
LINE
  5
   289
  8
0
  6
DASHED
 62
     7
 10
-89.0406714207401
 20
-67.548957824707
 30
0.0
 11
-97.5
 21
-67.548957824707
 31
0.0
  0
LINE
  5
   28A
  8
0
  6
DASHED
 62
     7
 10
-82.0
 20
-65.048957824707
 30
0.0
 11
-93.0
 21
-65.048957824707
 31
0.0
  0
LINE
  5
   28B
  8
0
  6
DASHED
 62
     7
 10
-88.25
 20
-59.798957824707
 30
0.0
 11
-93.0
 21
-59.798957824707
 31
0.0
  0
LINE
  5
   28C
  8
0
  6
DASHED
 62
     7
 10
-82.0
 20
-59.798957824707
 30
0.0
 11
-82.0
 21
-65.048957824707
 31
0.0
  0
LINE
  5
   28D
  8
0
  6
DASHED
 62
     7
 10
-93.0
 20
-59.798957824707
 30
0.0
 11
-93.0
 21
-65.048957824707
 31
0.0
  0
LINE
  5
   28E
  8
0
  6
DASHED
 62
     7
 10
-86.75
 20
-49.798957824707
 30
0.0
 11
-86.75
 21
-59.798957824707
 31
0.0
  0
LINE
  5
   28F
  8
0
  6
DASHED
 62
     7
 10
-88.25
 20
-49.798957824707
 30
0.0
 11
-88.25
 21
-59.798957824707
 31
0.0
  0
ARC
  5
   290
  8
0
  6
DASHED
 62
     7
 10
-87.5
 20
-49.798957824707
 30
0.0
 40
0.75
 50
359.999999896069
 51
539.999999896069
  0
LINE
  5
   291
  8
0
  6
DASHED
 62
     7
 10
-82.0
 20
-59.798957824707
 30
0.0
 11
-86.75
 21
-59.798957824707
 31
0.0
  0
ARC
  5
   292
  8
0
  6
DASHED
 62
     7
 10
-82.75
 20
-36.048957824707
 30
0.0
 40
1.0
 50
318.590377786798
 51
449.999999896069
  0
LINE
  5
   293
  8
0
  6
DASHED
 62
     7
 10
-86.0
 20
-47.548957824707
 30
0.0
 11
-89.0
 21
-47.548957824707
 31
0.0
  0
LINE
  5
   294
  8
0
  6
CONTINUOUS
 62
     7
 10
-86.0
 20
-39.2479157055352
 30
0.0
 11
-86.0
 21
-46.298957824707
 31
0.0
  0
LINE
  5
   295
  8
0
  6
CONTINUOUS
 62
     7
 10
-89.0
 20
-39.2479157055352
 30
0.0
 11
-89.0
 21
-46.298957824707
 31
0.0
  0
ARC
  5
   296
  8
0
  6
CONTINUOUS
 62
     7
 10
-83.25
 20
-38.048957824707
 30
0.0
 40
3.0
 50
449.999999896069
 51
563.55646420517
  0
ARC
  5
   297
  8
0
  6
CONTINUOUS
 62
     7
 10
-91.75
 20
-38.048957824707
 30
0.0
 40
3.0
 50
336.443535586968
 51
449.999999896069
  0
LINE
  5
   298
  8
0
  6
CONTINUOUS
 62
     7
 10
-82.75
 20
-35.048957824707
 30
0.0
 11
-83.25
 21
-35.048957824707
 31
0.0
  0
LINE
  5
   299
  8
0
  6
DASHED
 62
     7
 10
-82.0
 20
-36.7103956524732
 30
0.0
 11
-82.0
 21
-38.548957824707
 31
0.0
  0
LINE
  5
   29A
  8
0
  6
DASHED
 62
     7
 10
-80.5
 20
-38.548957824707
 30
0.0
 11
-82.0
 21
-38.548957824707
 31
0.0
  0
LINE
  5
   29B
  8
0
  6
DASHED
 62
     7
 10
-79.8539657644027
 20
-57.048957824707
 30
0.0
 11
-80.5
 21
-38.5489578247072
 31
0.0
  0
LINE
  5
   29C
  8
0
  6
DASHED
 62
     7
 10
-77.5
 20
-57.048957824707
 30
0.0
 11
-79.8539657644027
 21
-57.048957824707
 31
0.0
  0
LINE
  5
   29D
  8
0
  6
DASHED
 62
     7
 10
-95.1460342355973
 20
-57.048957824707
 30
0.0
 11
-97.5
 21
-57.048957824707
 31
0.0
  0
LINE
  5
   29E
  8
0
  6
DASHED
 62
     7
 10
-94.5
 20
-38.5489578247068
 30
0.0
 11
-95.1460342355973
 21
-57.0489578247066
 31
0.0
  0
LINE
  5
   29F
  8
0
  6
DASHED
 62
     7
 10
-93.0
 20
-38.548957824707
 30
0.0
 11
-94.5
 21
-38.548957824707
 31
0.0
  0
LINE
  5
   2A0
  8
0
  6
DASHED
 62
     7
 10
-93.0
 20
-36.7103956524732
 30
0.0
 11
-93.0
 21
-38.548957824707
 31
0.0
  0
ARC
  5
   2A1
  8
0
  6
DASHED
 62
     7
 10
-92.25
 20
-36.048957824707
 30
0.0
 40
1.0
 50
449.999999896069
 51
581.40962200534
  0
LINE
  5
   2A2
  8
0
  6
CONTINUOUS
 62
     7
 10
-91.75
 20
-35.048957824707
 30
0.0
 11
-92.25
 21
-35.048957824707
 31
0.0
  0
LINE
  5
   2A3
  8
0
  6
DASHED
 62
     7
 10
-85.9593285792599
 20
-67.548957824707
 30
0.0
 11
-86.4886964752588
 21
-68.548957824707
 31
0.0
  0
LINE
  5
   2A4
  8
0
  6
DASHED
 62
     7
 10
-88.5113035247412
 20
-68.548957824707
 30
0.0
 11
-92.5
 21
-68.548957824707
 31
0.0
  0
LINE
  5
   2A5
  8
0
  6
DASHED
 62
     7
 10
-88.5113035247412
 20
-68.5489578247072
 30
0.0
 11
-89.0406714207401
 21
-67.5489578247072
 31
0.0
  0
LINE
  5
   2A6
  8
0
  6
DASHED
 62
     7
 10
-77.5
 20
-67.548957824707
 30
0.0
 11
-85.9593285792599
 21
-67.548957824707
 31
0.0
  0
LINE
  5
   2A7
  8
0
  6
DASHED
 62
     7
 10
-86.0
 20
-46.298957824707
 30
0.0
 11
-86.0
 21
-47.548957824707
 31
0.0
  0
LINE
  5
   2A8
  8
0
  6
DASHED
 62
     7
 10
-89.0
 20
-46.298957824707
 30
0.0
 11
-89.0
 21
-47.548957824707
 31
0.0
  0
LINE
  5
   2A9
  8
0
  6
CONTINUOUS
 62
     7
 10
-61.0
 20
-39.2479157055352
 30
0.0
 11
-61.0
 21
-46.298957824707
 31
0.0
  0
LINE
  5
   2AA
  8
0
  6
CONTINUOUS
 62
     7
 10
-64.0
 20
-39.2479157055352
 30
0.0
 11
-64.0
 21
-46.298957824707
 31
0.0
  0
ARC
  5
   2AB
  8
0
  6
CONTINUOUS
 62
     7
 10
-66.75
 20
-38.048957824707
 30
0.0
 40
3.0
 50
336.443535586968
 51
449.999999896069
  0
ARC
  5
   2AC
  8
0
  6
CONTINUOUS
 62
     7
 10
-58.25
 20
-38.048957824707
 30
0.0
 40
3.0
 50
449.999999896069
 51
563.55646420517
  0
LINE
  5
   2AD
  8
0
  6
CONTINUOUS
 62
     7
 10
-66.75
 20
-35.048957824707
 30
0.0
 11
-67.25
 21
-35.048957824707
 31
0.0
  0
LINE
  5
   2AE
  8
0
  6
CONTINUOUS
 62
     7
 10
-57.75
 20
-35.048957824707
 30
0.0
 11
-58.25
 21
-35.048957824707
 31
0.0
  0
LINE
  5
   2AF
  8
0
  6
CONTINUOUS
 62
     7
 10
-36.0
 20
-39.2479157055352
 30
0.0
 11
-36.0
 21
-46.298957824707
 31
0.0
  0
LINE
  5
   2B0
  8
0
  6
CONTINUOUS
 62
     7
 10
-39.0
 20
-39.2479157055352
 30
0.0
 11
-39.0
 21
-46.298957824707
 31
0.0
  0
ARC
  5
   2B1
  8
0
  6
CONTINUOUS
 62
     7
 10
-33.25
 20
-38.048957824707
 30
0.0
 40
3.0
 50
449.999999896069
 51
563.55646420517
  0
ARC
  5
   2B2
  8
0
  6
CONTINUOUS
 62
     7
 10
-41.75
 20
-38.048957824707
 30
0.0
 40
3.0
 50
336.443535586968
 51
449.999999896069
  0
LINE
  5
   2B3
  8
0
  6
CONTINUOUS
 62
     7
 10
-41.75
 20
-35.048957824707
 30
0.0
 11
-42.25
 21
-35.048957824707
 31
0.0
  0
LINE
  5
   2B4
  8
0
  6
CONTINUOUS
 62
     7
 10
-32.75
 20
-35.048957824707
 30
0.0
 11
-33.25
 21
-35.048957824707
 31
0.0
  0
LINE
  5
   2B5
  8
0
  6
CONTINUOUS
 62
     3
 10
-22.4999980163297
 20
-83.298957824707
 30
0.0
 11
-29.1833985521448
 21
-83.298957824707
 31
0.0
  0
LINE
  5
   2B6
  8
0
  6
CONTINUOUS
 62
     3
 10
-31.9449131125021
 20
-81.4711512101749
 30
0.0
 11
-34.1403789491991
 21
-76.298957824707
 31
0.0
  0
ARC
  5
   2B7
  8
0
  6
CONTINUOUS
 62
     3
 10
-29.1833985521448
 20
-80.298957824707
 30
0.0
 40
3.0
 50
202.999999896069
 51
269.999999896069
  0
ARC
  5
   2B8
  8
0
  6
CONTINUOUS
 62
     3
 10
-29.1833985521448
 20
-80.298957824707
 30
0.0
 40
6.0
 50
202.999999896069
 51
269.999999896069
  0
POLYLINE
  5
   2B9
  8
0
  6
DASHED
 62
     7
 66
     1
 10
0.0
 20
0.0
 30
0.0
  0
VERTEX
  5
   2BA
  8
0
  6
CONTINUOUS
 10
-55.7055005482515
 20
-71.0730633045527
 30
0.0
 40
0.0
 41
0.0
  0
VERTEX
  5
   2BB
  8
0
  6
CONTINUOUS
 10
-55.9736202694641
 20
-70.946142244301
 30
0.0
 40
0.0
 41
0.0
  0
VERTEX
  5
   2BC
  8
0
  6
CONTINUOUS
 10
-56.2404264890418
 20
-70.8160506040393
 30
0.0
 40
0.0
 41
0.0
  0
VERTEX
  5
   2BD
  8
0
  6
CONTINUOUS
 10
-56.5059192069845
 20
-70.6827883837675
 30
0.0
 40
0.0
 41
0.0
  0
VERTEX
  5
   2BE
  8
0
  6
CONTINUOUS
 10
-56.7700984232923
 20
-70.5463555834857
 30
0.0
 40
0.0
 41
0.0
  0
VERTEX
  5
   2BF
  8
0
  6
CONTINUOUS
 10
-57.0329641379651
 20
-70.4067522031939
 30
0.0
 40
0.0
 41
0.0
  0
VERTEX
  5
   2C0
  8
0
  6
CONTINUOUS
 10
-57.294516351003
 20
-70.2639782428919
 30
0.0
 40
0.0
 41
0.0
  0
VERTEX
  5
   2C1
  8
0
  6
CONTINUOUS
 10
-57.554755062406
 20
-70.11803370258
 30
0.0
 40
0.0
 41
0.0
  0
VERTEX
  5
   2C2
  8
0
  6
CONTINUOUS
 10
-57.8136802721741
 20
-69.9689185822579
 30
0.0
 40
0.0
 41
0.0
  0
VERTEX
  5
   2C3
  8
0
  6
CONTINUOUS
 10
-58.0712919803072
 20
-69.8166328819259
 30
0.0
 40
0.0
 41
0.0
  0
VERTEX
  5
   2C4
  8
0
  6
CONTINUOUS
 10
-58.3275901868053
 20
-69.6611766015837
 30
0.0
 40
0.0
 41
0.0
  0
VERTEX
  5
   2C5
  8
0
  6
CONTINUOUS
 10
-58.5825748916686
 20
-69.5025497412316
 30
0.0
 40
0.0
 41
0.0
  0
VERTEX
  5
   2C6
  8
0
  6
CONTINUOUS
 10
-58.8362460948969
 20
-69.3407523008693
 30
0.0
 40
0.0
 41
0.0
  0
VERTEX
  5
   2C7
  8
0
  6
CONTINUOUS
 10
-59.0886037964902
 20
-69.1757842804971
 30
0.0
 40
0.0
 41
0.0
  0
VERTEX
  5
   2C8
  8
0
  6
CONTINUOUS
 10
-59.3396479964487
 20
-69.0076456801147
 30
0.0
 40
0.0
 41
0.0
  0
VERTEX
  5
   2C9
  8
0
  6
CONTINUOUS
 10
-59.5893786947721
 20
-68.8363364997223
 30
0.0
 40
0.0
 41
0.0
  0
VERTEX
  5
   2CA
  8
0
  6
CONTINUOUS
 10
-59.8377958914607
 20
-68.6618567393199
 30
0.0
 40
0.0
 41
0.0
  0
VERTEX
  5
   2CB
  8
0
  6
CONTINUOUS
 10
-60.0848995865143
 20
-68.4842063989074
 30
0.0
 40
0.0
 41
0.0
  0
VERTEX
  5
   2CC
  8
0
  6
CONTINUOUS
 10
-60.330689779933
 20
-68.3033854784848
 30
0.0
 40
0.0
 41
0.0
  0
VERTEX
  5
   2CD
  8
0
  6
CONTINUOUS
 10
-60.5751664717167
 20
-68.1193939780522
 30
0.0
 40
0.0
 41
0.0
  0
VERTEX
  5
   2CE
  8
0
  6
CONTINUOUS
 10
-60.8183296618655
 20
-67.9322318976096
 30
0.0
 40
0.0
 41
0.0
  0
VERTEX
  5
   2CF
  8
0
  6
CONTINUOUS
 10
-61.0601793503794
 20
-67.7418992371569
 30
0.0
 40
0.0
 41
0.0
  0
VERTEX
  5
   2D0
  8
0
  6
CONTINUOUS
 10
-61.3007155372583
 20
-67.5483959966941
 30
0.0
 40
0.0
 41
0.0
  0
VERTEX
  5
   2D1
  8
0
  6
CONTINUOUS
 10
-61.5399382225023
 20
-67.3517221762213
 30
0.0
 40
0.0
 41
0.0
  0
VERTEX
  5
   2D2
  8
0
  6
CONTINUOUS
 10
-61.7778474061113
 20
-67.1518777757385
 30
0.0
 40
0.0
 41
0.0
  0
VERTEX
  5
   2D3
  8
0
  6
CONTINUOUS
 10
-62.0144430880854
 20
-66.9488627952455
 30
0.0
 40
0.0
 41
0.0
  0
VERTEX
  5
   2D4
  8
0
  6
CONTINUOUS
 10
-62.2497252684246
 20
-66.7426772347426
 30
0.0
 40
0.0
 41
0.0
  0
VERTEX
  5
   2D5
  8
0
  6
CONTINUOUS
 10
-62.4836939471289
 20
-66.5333210942295
 30
0.0
 40
0.0
 41
0.0
  0
VERTEX
  5
   2D6
  8
0
  6
CONTINUOUS
 10
-62.7163491241982
 20
-66.3207943737065
 30
0.0
 40
0.0
 41
0.0
  0
VERTEX
  5
   2D7
  8
0
  6
CONTINUOUS
 10
-62.9476907996325
 20
-66.1050970731734
 30
0.0
 40
0.0
 41
0.0
  0
VERTEX
  5
   2D8
  8
0
  6
CONTINUOUS
 10
-63.177718973432
 20
-65.8862291926302
 30
0.0
 40
0.0
 41
0.0
  0
VERTEX
  5
   2D9
  8
0
  6
CONTINUOUS
 10
-63.4064336455965
 20
-65.6641907320769
 30
0.0
 40
0.0
 41
0.0
  0
VERTEX
  5
   2DA
  8
0
  6
CONTINUOUS
 10
-63.633834816126
 20
-65.4389816915137
 30
0.0
 40
0.0
 41
0.0
  0
SEQEND
  5
   2DB
  8
0
  6
DASHED
 62
     7
  0
LINE
  5
   2DC
  8
0
  6
DASHED
 62
     7
 10
-63.7500000000001
 20
-68.298957824707
 30
0.0
 11
-86.3563545012591
 21
-68.298957824707
 31
0.0
  0
LINE
  5
   2DD
  8
0
  6
DASHED
 62
     7
 10
-63.75
 20
-75.798957824707
 30
0.0
 11
-92.5
 21
-75.798957824707
 31
0.0
  0
POLYLINE
  5
   2DE
  8
0
  6
DASHED
 62
     7
 66
     1
 10
0.0
 20
0.0
 30
0.0
  0
VERTEX
  5
   2DF
  8
0
  6
CONTINUOUS
 10
-89.8157141756238
 20
-76.8972521538059
 30
0.0
 40
0.0
 41
0.0
  0
VERTEX
  5
   2E0
  8
0
  6
CONTINUOUS
 10
-89.5494122280265
 20
-76.6503385628144
 30
0.0
 40
0.0
 41
0.0
  0
VERTEX
  5
   2E1
  8
0
  6
CONTINUOUS
 10
-89.2826443579878
 20
-76.4068158044901
 30
0.0
 40
0.0
 41
0.0
  0
VERTEX
  5
   2E2
  8
0
  6
CONTINUOUS
 10
-89.0154105655075
 20
-76.166683878833
 30
0.0
 40
0.0
 41
0.0
  0
VERTEX
  5
   2E3
  8
0
  6
CONTINUOUS
 10
-88.7477108505857
 20
-75.9299427858432
 30
0.0
 40
0.0
 41
0.0
  0
VERTEX
  5
   2E4
  8
0
  6
CONTINUOUS
 10
-88.4795452132224
 20
-75.6965925255206
 30
0.0
 40
0.0
 41
0.0
  0
VERTEX
  5
   2E5
  8
0
  6
CONTINUOUS
 10
-88.2109136534176
 20
-75.4666330978653
 30
0.0
 40
0.0
 41
0.0
  0
VERTEX
  5
   2E6
  8
0
  6
CONTINUOUS
 10
-87.9418161711712
 20
-75.2400645028772
 30
0.0
 40
0.0
 41
0.0
  0
VERTEX
  5
   2E7
  8
0
  6
CONTINUOUS
 10
-87.6722527664834
 20
-75.0168867405563
 30
0.0
 40
0.0
 41
0.0
  0
VERTEX
  5
   2E8
  8
0
  6
CONTINUOUS
 10
-87.402223439354
 20
-74.7970998109027
 30
0.0
 40
0.0
 41
0.0
  0
VERTEX
  5
   2E9
  8
0
  6
CONTINUOUS
 10
-87.1317281897831
 20
-74.5807037139163
 30
0.0
 40
0.0
 41
0.0
  0
VERTEX
  5
   2EA
  8
0
  6
CONTINUOUS
 10
-86.8607670177707
 20
-74.3676984495972
 30
0.0
 40
0.0
 41
0.0
  0
VERTEX
  5
   2EB
  8
0
  6
CONTINUOUS
 10
-86.5893399233167
 20
-74.1580840179452
 30
0.0
 40
0.0
 41
0.0
  0
VERTEX
  5
   2EC
  8
0
  6
CONTINUOUS
 10
-86.3174469064213
 20
-73.9518604189606
 30
0.0
 40
0.0
 41
0.0
  0
VERTEX
  5
   2ED
  8
0
  6
CONTINUOUS
 10
-86.0450879670843
 20
-73.7490276526431
 30
0.0
 40
0.0
 41
0.0
  0
VERTEX
  5
   2EE
  8
0
  6
CONTINUOUS
 10
-85.7722631053058
 20
-73.5495857189929
 30
0.0
 40
0.0
 41
0.0
  0
VERTEX
  5
   2EF
  8
0
  6
CONTINUOUS
 10
-85.4989723210858
 20
-73.3535346180099
 30
0.0
 40
0.0
 41
0.0
  0
VERTEX
  5
   2F0
  8
0
  6
CONTINUOUS
 10
-85.2252156144243
 20
-73.1608743496942
 30
0.0
 40
0.0
 41
0.0
  0
VERTEX
  5
   2F1
  8
0
  6
CONTINUOUS
 10
-84.9509929853213
 20
-72.9716049140457
 30
0.0
 40
0.0
 41
0.0
  0
VERTEX
  5
   2F2
  8
0
  6
CONTINUOUS
 10
-84.6763044337767
 20
-72.7857263110644
 30
0.0
 40
0.0
 41
0.0
  0
VERTEX
  5
   2F3
  8
0
  6
CONTINUOUS
 10
-84.4011499597907
 20
-72.6032385407504
 30
0.0
 40
0.0
 41
0.0
  0
VERTEX
  5
   2F4
  8
0
  6
CONTINUOUS
 10
-84.1255295633631
 20
-72.4241416031036
 30
0.0
 40
0.0
 41
0.0
  0
VERTEX
  5
   2F5
  8
0
  6
CONTINUOUS
 10
-83.849443244494
 20
-72.2484354981241
 30
0.0
 40
0.0
 41
0.0
  0
VERTEX
  5
   2F6
  8
0
  6
CONTINUOUS
 10
-83.5728910031833
 20
-72.0761202258117
 30
0.0
 40
0.0
 41
0.0
  0
VERTEX
  5
   2F7
  8
0
  6
CONTINUOUS
 10
-83.2958728394312
 20
-71.9071957861667
 30
0.0
 40
0.0
 41
0.0
  0
VERTEX
  5
   2F8
  8
0
  6
CONTINUOUS
 10
-83.0183887532376
 20
-71.7416621791888
 30
0.0
 40
0.0
 41
0.0
  0
VERTEX
  5
   2F9
  8
0
  6
CONTINUOUS
 10
-82.7404387446024
 20
-71.5795194048782
 30
0.0
 40
0.0
 41
0.0
  0
VERTEX
  5
   2FA
  8
0
  6
CONTINUOUS
 10
-82.4620228135257
 20
-71.4207674632348
 30
0.0
 40
0.0
 41
0.0
  0
VERTEX
  5
   2FB
  8
0
  6
CONTINUOUS
 10
-82.1831409600075
 20
-71.2654063542587
 30
0.0
 40
0.0
 41
0.0
  0
VERTEX
  5
   2FC
  8
0
  6
CONTINUOUS
 10
-81.9037931840478
 20
-71.1134360779498
 30
0.0
 40
0.0
 41
0.0
  0
VERTEX
  5
   2FD
  8
0
  6
CONTINUOUS
 10
-81.6239794856465
 20
-70.9648566343082
 30
0.0
 40
0.0
 41
0.0
  0
VERTEX
  5
   2FE
  8
0
  6
CONTINUOUS
 10
-81.3436998648038
 20
-70.8196680233337
 30
0.0
 40
0.0
 41
0.0
  0
VERTEX
  5
   2FF
  8
0
  6
CONTINUOUS
 10
-81.0629543215195
 20
-70.6778702450266
 30
0.0
 40
0.0
 41
0.0
  0
SEQEND
  5
   300
  8
0
  6
DASHED
 62
     7
  0
POLYLINE
  5
   301
  8
0
  6
DASHED
 62
     7
 66
     1
 10
0.0
 20
0.0
 30
0.0
  0
VERTEX
  5
   302
  8
0
  6
CONTINUOUS
 10
-52.4997137621429
 20
-94.1945790899976
 30
0.0
 40
0.0
 41
0.0
  0
VERTEX
  5
   303
  8
0
  6
CONTINUOUS
 10
-53.2762451244982
 20
-94.0223967285639
 30
0.0
 40
0.0
 41
0.0
  0
VERTEX
  5
   304
  8
0
  6
CONTINUOUS
 10
-54.0387816095884
 20
-93.8497607764418
 30
0.0
 40
0.0
 41
0.0
  0
VERTEX
  5
   305
  8
0
  6
CONTINUOUS
 10
-54.7873232174137
 20
-93.6766712336314
 30
0.0
 40
0.0
 41
0.0
  0
VERTEX
  5
   306
  8
0
  6
CONTINUOUS
 10
-55.5218699479741
 20
-93.5031281001327
 30
0.0
 40
0.0
 41
0.0
  0
VERTEX
  5
   307
  8
0
  6
CONTINUOUS
 10
-56.2424218012694
 20
-93.3291313759456
 30
0.0
 40
0.0
 41
0.0
  0
VERTEX
  5
   308
  8
0
  6
CONTINUOUS
 10
-56.9489787772998
 20
-93.1546810610701
 30
0.0
 40
0.0
 41
0.0
  0
VERTEX
  5
   309
  8
0
  6
CONTINUOUS
 10
-57.6415408760652
 20
-92.9797771555063
 30
0.0
 40
0.0
 41
0.0
  0
VERTEX
  5
   30A
  8
0
  6
CONTINUOUS
 10
-58.3201080975656
 20
-92.8044196592542
 30
0.0
 40
0.0
 41
0.0
  0
VERTEX
  5
   30B
  8
0
  6
CONTINUOUS
 10
-58.6541436293414
 20
-92.71657081462
 30
0.0
 40
0.0
 41
0.0
  0
VERTEX
  5
   30C
  8
0
  6
CONTINUOUS
 10
-58.984680441801
 20
-92.6286085723137
 30
0.0
 40
0.0
 41
0.0
  0
VERTEX
  5
   30D
  8
0
  6
CONTINUOUS
 10
-59.3117185349443
 20
-92.5405329323353
 30
0.0
 40
0.0
 41
0.0
  0
VERTEX
  5
   30E
  8
0
  6
CONTINUOUS
 10
-59.6352579087714
 20
-92.4523438946849
 30
0.0
 40
0.0
 41
0.0
  0
VERTEX
  5
   30F
  8
0
  6
CONTINUOUS
 10
-59.9552985632823
 20
-92.3640414593623
 30
0.0
 40
0.0
 41
0.0
  0
VERTEX
  5
   310
  8
0
  6
CONTINUOUS
 10
-60.2718404984769
 20
-92.2756256263677
 30
0.0
 40
0.0
 41
0.0
  0
VERTEX
  5
   311
  8
0
  6
CONTINUOUS
 10
-60.5848837143552
 20
-92.187096395701
 30
0.0
 40
0.0
 41
0.0
  0
VERTEX
  5
   312
  8
0
  6
CONTINUOUS
 10
-60.8944282109173
 20
-92.0984537673621
 30
0.0
 40
0.0
 41
0.0
  0
VERTEX
  5
   313
  8
0
  6
CONTINUOUS
 10
-61.2004739881632
 20
-92.0096977413512
 30
0.0
 40
0.0
 41
0.0
  0
VERTEX
  5
   314
  8
0
  6
CONTINUOUS
 10
-61.5030210460928
 20
-91.9208283176683
 30
0.0
 40
0.0
 41
0.0
  0
VERTEX
  5
   315
  8
0
  6
CONTINUOUS
 10
-61.8020693847062
 20
-91.8318454963132
 30
0.0
 40
0.0
 41
0.0
  0
VERTEX
  5
   316
  8
0
  6
CONTINUOUS
 10
-62.0976190040033
 20
-91.742749277286
 30
0.0
 40
0.0
 41
0.0
  0
VERTEX
  5
   317
  8
0
  6
CONTINUOUS
 10
-62.3896699039842
 20
-91.6535396605868
 30
0.0
 40
0.0
 41
0.0
  0
VERTEX
  5
   318
  8
0
  6
CONTINUOUS
 10
-62.6782220846488
 20
-91.5642166462155
 30
0.0
 40
0.0
 41
0.0
  0
VERTEX
  5
   319
  8
0
  6
CONTINUOUS
 10
-62.9632755459972
 20
-91.474780234172
 30
0.0
 40
0.0
 41
0.0
  0
VERTEX
  5
   31A
  8
0
  6
CONTINUOUS
 10
-63.2448302880293
 20
-91.3852304244565
 30
0.0
 40
0.0
 41
0.0
  0
SEQEND
  5
   31B
  8
0
  6
DASHED
 62
     7
  0
POLYLINE
  5
   31C
  8
0
  6
DASHED
 62
     7
 66
     1
 10
0.0
 20
0.0
 30
0.0
  0
VERTEX
  5
   31D
  8
0
  6
CONTINUOUS
 10
-69.2919054684284
 20
-56.1840082078379
 30
0.0
 40
0.0
 41
0.0
  0
VERTEX
  5
   31E
  8
0
  6
CONTINUOUS
 10
-69.3779025188422
 20
-55.9829109604888
 30
0.0
 40
0.0
 41
0.0
  0
VERTEX
  5
   31F
  8
0
  6
CONTINUOUS
 10
-69.4627602450057
 20
-55.7804178610857
 30
0.0
 40
0.0
 41
0.0
  0
VERTEX
  5
   320
  8
0
  6
CONTINUOUS
 10
-69.5464786469189
 20
-55.5765289096286
 30
0.0
 40
0.0
 41
0.0
  0
VERTEX
  5
   321
  8
0
  6
CONTINUOUS
 10
-69.6290577245819
 20
-55.3712441061175
 30
0.0
 40
0.0
 41
0.0
  0
VERTEX
  5
   322
  8
0
  6
CONTINUOUS
 10
-69.7104974779946
 20
-55.1645634505524
 30
0.0
 40
0.0
 41
0.0
  0
VERTEX
  5
   323
  8
0
  6
CONTINUOUS
 10
-69.790797907157
 20
-54.9564869429332
 30
0.0
 40
0.0
 41
0.0
  0
VERTEX
  5
   324
  8
0
  6
CONTINUOUS
 10
-69.8699590120692
 20
-54.7470145832601
 30
0.0
 40
0.0
 41
0.0
  0
VERTEX
  5
   325
  8
0
  6
CONTINUOUS
 10
-69.9479807927312
 20
-54.536146371533
 30
0.0
 40
0.0
 41
0.0
  0
VERTEX
  5
   326
  8
0
  6
CONTINUOUS
 10
-70.0248632491429
 20
-54.3238823077519
 30
0.0
 40
0.0
 41
0.0
  0
VERTEX
  5
   327
  8
0
  6
CONTINUOUS
 10
-70.1006063813043
 20
-54.1102223919167
 30
0.0
 40
0.0
 41
0.0
  0
VERTEX
  5
   328
  8
0
  6
CONTINUOUS
 10
-70.1752101892155
 20
-53.8951666240276
 30
0.0
 40
0.0
 41
0.0
  0
VERTEX
  5
   329
  8
0
  6
CONTINUOUS
 10
-70.2486746728764
 20
-53.6787150040844
 30
0.0
 40
0.0
 41
0.0
  0
VERTEX
  5
   32A
  8
0
  6
CONTINUOUS
 10
-70.320999832287
 20
-53.4608675320873
 30
0.0
 40
0.0
 41
0.0
  0
VERTEX
  5
   32B
  8
0
  6
CONTINUOUS
 10
-70.3921856674475
 20
-53.2416242080362
 30
0.0
 40
0.0
 41
0.0
  0
VERTEX
  5
   32C
  8
0
  6
CONTINUOUS
 10
-70.4622321783576
 20
-53.020985031931
 30
0.0
 40
0.0
 41
0.0
  0
VERTEX
  5
   32D
  8
0
  6
CONTINUOUS
 10
-70.5311393650175
 20
-52.7989500037719
 30
0.0
 40
0.0
 41
0.0
  0
VERTEX
  5
   32E
  8
0
  6
CONTINUOUS
 10
-70.5989072274271
 20
-52.5755191235587
 30
0.0
 40
0.0
 41
0.0
  0
VERTEX
  5
   32F
  8
0
  6
CONTINUOUS
 10
-70.6655357655865
 20
-52.3506923912915
 30
0.0
 40
0.0
 41
0.0
  0
VERTEX
  5
   330
  8
0
  6
CONTINUOUS
 10
-70.7310249794956
 20
-52.1244698069704
 30
0.0
 40
0.0
 41
0.0
  0
VERTEX
  5
   331
  8
0
  6
CONTINUOUS
 10
-70.7953748691545
 20
-51.8968513705952
 30
0.0
 40
0.0
 41
0.0
  0
VERTEX
  5
   332
  8
0
  6
CONTINUOUS
 10
-70.8585854345631
 20
-51.6678370821661
 30
0.0
 40
0.0
 41
0.0
  0
VERTEX
  5
   333
  8
0
  6
CONTINUOUS
 10
-70.9206566757214
 20
-51.4374269416829
 30
0.0
 40
0.0
 41
0.0
  0
VERTEX
  5
   334
  8
0
  6
CONTINUOUS
 10
-70.9815885926295
 20
-51.2056209491457
 30
0.0
 40
0.0
 41
0.0
  0
VERTEX
  5
   335
  8
0
  6
CONTINUOUS
 10
-71.0413811852874
 20
-50.9724191045545
 30
0.0
 40
0.0
 41
0.0
  0
VERTEX
  5
   336
  8
0
  6
CONTINUOUS
 10
-71.1000344536949
 20
-50.7378214079094
 30
0.0
 40
0.0
 41
0.0
  0
VERTEX
  5
   337
  8
0
  6
CONTINUOUS
 10
-71.1575483978523
 20
-50.5018278592102
 30
0.0
 40
0.0
 41
0.0
  0
VERTEX
  5
   338
  8
0
  6
CONTINUOUS
 10
-71.2139230177593
 20
-50.264438458457
 30
0.0
 40
0.0
 41
0.0
  0
VERTEX
  5
   339
  8
0
  6
CONTINUOUS
 10
-71.2691583134161
 20
-50.0256532056498
 30
0.0
 40
0.0
 41
0.0
  0
VERTEX
  5
   33A
  8
0
  6
CONTINUOUS
 10
-71.3232542848227
 20
-49.7854721007886
 30
0.0
 40
0.0
 41
0.0
  0
VERTEX
  5
   33B
  8
0
  6
CONTINUOUS
 10
-71.376210931979
 20
-49.5438951438734
 30
0.0
 40
0.0
 41
0.0
  0
VERTEX
  5
   33C
  8
0
  6
CONTINUOUS
 10
-71.428028254885
 20
-49.3009223349042
 30
0.0
 40
0.0
 41
0.0
  0
VERTEX
  5
   33D
  8
0
  6
CONTINUOUS
 10
-71.4787062535408
 20
-49.056553673881
 30
0.0
 40
0.0
 41
0.0
  0
SEQEND
  5
   33E
  8
0
  6
DASHED
 62
     7
  0
POLYLINE
  5
   33F
  8
0
  6
DASHED
 62
     7
 66
     1
 10
0.0
 20
0.0
 30
0.0
  0
VERTEX
  5
   340
  8
0
  6
CONTINUOUS
 10
-123.55373824943
 20
-143.383748484192
 30
0.0
 40
0.0
 41
0.0
  0
VERTEX
  5
   341
  8
0
  6
CONTINUOUS
 10
-123.702198165124
 20
-142.661167198877
 30
0.0
 40
0.0
 41
0.0
  0
VERTEX
  5
   342
  8
0
  6
CONTINUOUS
 10
-123.847073968097
 20
-141.94204727355
 30
0.0
 40
0.0
 41
0.0
  0
VERTEX
  5
   343
  8
0
  6
CONTINUOUS
 10
-123.98836565835
 20
-141.226388708211
 30
0.0
 40
0.0
 41
0.0
  0
VERTEX
  5
   344
  8
0
  6
CONTINUOUS
 10
-124.126073235883
 20
-140.514191502861
 30
0.0
 40
0.0
 41
0.0
  0
VERTEX
  5
   345
  8
0
  6
CONTINUOUS
 10
-124.260196700695
 20
-139.805455657498
 30
0.0
 40
0.0
 41
0.0
  0
VERTEX
  5
   346
  8
0
  6
CONTINUOUS
 10
-124.390736052786
 20
-139.100181172123
 30
0.0
 40
0.0
 41
0.0
  0
VERTEX
  5
   347
  8
0
  6
CONTINUOUS
 10
-124.517691292158
 20
-138.398368046736
 30
0.0
 40
0.0
 41
0.0
  0
VERTEX
  5
   348
  8
0
  6
CONTINUOUS
 10
-124.641062418808
 20
-137.700016281338
 30
0.0
 40
0.0
 41
0.0
  0
VERTEX
  5
   349
  8
0
  6
CONTINUOUS
 10
-124.760849432738
 20
-137.005125875927
 30
0.0
 40
0.0
 41
0.0
  0
VERTEX
  5
   34A
  8
0
  6
CONTINUOUS
 10
-124.877052333948
 20
-136.313696830504
 30
0.0
 40
0.0
 41
0.0
  0
VERTEX
  5
   34B
  8
0
  6
CONTINUOUS
 10
-124.989671122437
 20
-135.625729145069
 30
0.0
 40
0.0
 41
0.0
  0
VERTEX
  5
   34C
  8
0
  6
CONTINUOUS
 10
-125.098705798206
 20
-134.941222819623
 30
0.0
 40
0.0
 41
0.0
  0
VERTEX
  5
   34D
  8
0
  6
CONTINUOUS
 10
-125.204156361255
 20
-134.260177854164
 30
0.0
 40
0.0
 41
0.0
  0
VERTEX
  5
   34E
  8
0
  6
CONTINUOUS
 10
-125.306022811583
 20
-133.582594248693
 30
0.0
 40
0.0
 41
0.0
  0
VERTEX
  5
   34F
  8
0
  6
CONTINUOUS
 10
-125.40430514919
 20
-132.908472003211
 30
0.0
 40
0.0
 41
0.0
  0
VERTEX
  5
   350
  8
0
  6
CONTINUOUS
 10
-125.499003374077
 20
-132.237811117716
 30
0.0
 40
0.0
 41
0.0
  0
SEQEND
  5
   351
  8
0
  6
DASHED
 62
     7
  0
LINE
  5
   352
  8
0
  6
DASHDOT
 62
     7
 10
-70.5
 20
-56.5019745175833
 30
0.0
 11
-70.5
 21
-63.951052013168
 31
0.0
  0
LINE
  5
   353
  8
0
  6
DASHDOT
 62
     7
 10
-66.9485997011644
 20
-60.298957824707
 30
0.0
 11
-73.9981998547146
 21
-60.298957824707
 31
0.0
  0
ARC
  5
   354
  8
0
  6
CONTINUOUS
 62
     7
 10
-70.5
 20
-60.298957824707
 30
0.0
 40
2.5
 50
359.999999896069
 51
539.999999896069
  0
CIRCLE
  5
   355
  8
0
  6
CONTINUOUS
 62
     7
 10
-70.5
 20
-60.298957824707
 30
0.0
 40
1.25
  0
LINE
  5
   356
  8
0
  6
CONTINUOUS
 62
     7
 10
-75.5
 20
-62.798957824707
 30
0.0
 11
-118.75
 21
-62.798957824707
 31
0.0
  0
ARC
  5
   357
  8
0
  6
CONTINUOUS
 62
     7
 10
-65.5
 20
-60.298957824707
 30
0.0
 40
2.5
 50
179.999999896069
 51
269.999999896069
  0
ARC
  5
   358
  8
0
  6
CONTINUOUS
 62
     7
 10
-75.5
 20
-60.298957824707
 30
0.0
 40
2.5
 50
269.999999896069
 51
359.999999896069
  0
LINE
  5
   359
  8
0
  6
DASHDOT
 62
     7
 10
-125.0
 20
-43.5214268629047
 30
0.0
 11
-125.0
 21
-67.5695212809826
 31
0.0
  0
LINE
  5
   35A
  8
0
  6
CONTINUOUS
 62
     7
 10
-121.5
 20
-61.298957824707
 30
0.0
 11
-121.5
 21
-70.923957824707
 31
0.0
  0
LINE
  5
   35B
  8
0
  6
CONTINUOUS
 62
     7
 10
-128.5
 20
-61.298957824707
 30
0.0
 11
-128.5
 21
-70.923957824707
 31
0.0
  0
LINE
  5
   35C
  8
0
  6
CONTINUOUS
 62
     7
 10
-121.5
 20
-61.298957824707
 30
0.0
 11
-128.5
 21
-61.298957824707
 31
0.0
  0
LINE
  5
   35D
  8
0
  6
CONTINUOUS
 62
     3
 10
-124.0
 20
-48.798957824707
 30
0.0
 11
-126.0
 21
-48.798957824707
 31
0.0
  0
LINE
  5
   35E
  8
0
  6
CONTINUOUS
 62
     3
 10
-123.5
 20
-49.2989578247071
 30
0.0
 11
-123.5
 21
-54.298957824707
 31
0.0
  0
LINE
  5
   35F
  8
0
  6
CONTINUOUS
 62
     3
 10
-126.5
 20
-49.298957824707
 30
0.0
 11
-126.5
 21
-54.298957824707
 31
0.0
  0
LINE
  5
   360
  8
0
  6
CONTINUOUS
 62
     3
 10
-123.5
 20
-49.298957824707
 30
0.0
 11
-126.5
 21
-49.298957824707
 31
0.0
  0
LINE
  5
   361
  8
0
  6
CONTINUOUS
 62
     3
 10
-126.0
 20
-48.798957824707
 30
0.0
 11
-126.5
 21
-49.298957824707
 31
0.0
  0
LINE
  5
   362
  8
0
  6
CONTINUOUS
 62
     3
 10
-123.5
 20
-49.2989578247071
 30
0.0
 11
-124.0
 21
-48.798957824707
 31
0.0
  0
LINE
  5
   363
  8
0
  6
CONTINUOUS
 62
     7
 10
-124.0
 20
-49.298957824707
 30
0.0
 11
-124.0
 21
-54.298957824707
 31
0.0
  0
LINE
  5
   364
  8
0
  6
CONTINUOUS
 62
     7
 10
-126.0
 20
-49.2989578247071
 30
0.0
 11
-126.0
 21
-54.298957824707
 31
0.0
  0
LINE
  5
   365
  8
0
  6
CONTINUOUS
 62
     7
 10
-122.0
 20
-62.798957824707
 30
0.0
 11
-128.0
 21
-62.798957824707
 31
0.0
  0
LINE
  5
   366
  8
0
  6
CONTINUOUS
 62
     3
 10
-122.0
 20
-61.298957824707
 30
0.0
 11
-122.0
 21
-62.798957824707
 31
0.0
  0
LINE
  5
   367
  8
0
  6
CONTINUOUS
 62
     3
 10
-128.0
 20
-61.298957824707
 30
0.0
 11
-128.0
 21
-62.798957824707
 31
0.0
  0
ARC
  5
   368
  8
0
  6
CONTINUOUS
 62
     3
 10
-125.0
 20
-59.4306889498939
 30
0.0
 40
4.51056927815489
 50
228.309655764143
 51
311.690344027995
  0
LINE
  5
   369
  8
0
  6
CONTINUOUS
 62
     2
 10
-137.25
 20
-70.923957824707
 30
0.0
 11
-137.25
 21
-71.673957824707
 31
0.0
  0
LINE
  5
   36A
  8
0
  6
CONTINUOUS
 62
     2
 10
-118.75
 20
-71.673957824707
 30
0.0
 11
-137.25
 21
-71.673957824707
 31
0.0
  0
LINE
  5
   36B
  8
0
  6
CONTINUOUS
 62
     7
 10
-17.5000038146953
 20
-77.2989807128906
 30
0.0
 11
-107.504404309404
 21
-77.2989807128906
 31
0.0
  0
LINE
  5
   36C
  8
0
  6
CONTINUOUS
 62
     7
 10
-75.5000076293945
 20
-109.298973083496
 30
0.0
 11
-75.5000076293945
 21
-113.298973083496
 31
0.0
  0
LINE
  5
   36D
  8
0
  6
CONTINUOUS
 62
     7
 10
-54.2500152587891
 20
-109.298973083496
 30
0.0
 11
-75.5000076293945
 21
-109.298973083496
 31
0.0
  0
LINE
  5
   36E
  8
0
  6
CONTINUOUS
 62
     7
 10
-90.4999829101742
 20
-108.298980712891
 30
0.0
 11
-92.7499923706055
 21
-108.298980712891
 31
0.0
  0
LINE
  5
   36F
  8
0
  6
CONTINUOUS
 62
     7
 10
-30.7500190734762
 20
-113.298980712891
 30
0.0
 11
-31.2500267028708
 21
-113.298980712891
 31
0.0
  0
LINE
  5
   370
  8
0
  6
CONTINUOUS
 62
     7
 10
-30.7500190734762
 20
-124.398979187012
 30
0.0
 11
-30.7500190734762
 21
-124.548980712891
 31
0.0
  0
LINE
  5
   371
  8
0
  6
CONTINUOUS
 62
     7
 10
-31.2500114440817
 20
-111.798980712891
 30
0.0
 11
-31.2500114440817
 21
-113.298980712891
 31
0.0
  0
LINE
  5
   372
  8
0
  6
CONTINUOUS
 62
     7
 10
-31.2500114440817
 20
-111.798980712891
 30
0.0
 11
-54.2500363159356
 21
-111.798980712891
 31
0.0
  0
LINE
  5
   373
  8
0
  6
CONTINUOUS
 62
     7
 10
-86.111700134295
 20
-113.298957824707
 30
0.0
 11
-91.2499905395578
 21
-113.298957824707
 31
0.0
  0
LINE
  5
   374
  8
0
  6
CONTINUOUS
 62
     7
 10
-47.0000363159356
 20
-111.798973083496
 30
0.0
 11
-53.0000210571466
 21
-111.798973083496
 31
0.0
  0
LINE
  5
   375
  8
0
  6
CONTINUOUS
 62
     7
 10
-54.2500363159356
 20
-111.298973083496
 30
0.0
 11
-54.2500363159356
 21
-111.798973083496
 31
0.0
  0
LINE
  5
   376
  8
0
  6
CONTINUOUS
 62
     7
 10
-89.7500057983575
 20
-113.298957824707
 30
0.0
 11
-91.2500057983575
 21
-113.298957824707
 31
0.0
  0
LINE
  5
   377
  8
0
  6
CONTINUOUS
 62
     7
 10
-54.2500363159356
 20
-109.298973083496
 30
0.0
 11
-54.2500363159356
 21
-111.798965454101
 31
0.0
  0
LINE
  5
   378
  8
0
  6
CONTINUOUS
 62
     7
 10
-53.0000210571466
 20
-111.798973083496
 30
0.0
 11
-54.2500363159356
 21
-111.798973083496
 31
0.0
  0
LINE
  5
   379
  8
0
  6
CONTINUOUS
 62
     7
 10
-19.9000129699606
 20
-103.590257962823
 30
0.0
 11
-19.9000129699606
 21
-124.398986816406
 31
0.0
  0
LINE
  5
   37A
  8
0
  6
CONTINUOUS
 62
     7
 10
-19.9000164154437
 20
-124.398933410638
 30
0.0
 11
-30.7500225189593
 21
-124.398933410638
 31
0.0
  0
LINE
  5
   37B
  8
0
  6
CONTINUOUS
 62
     7
 10
-19.9000129699606
 20
-113.298980712891
 30
0.0
 11
-30.7500114440817
 21
-113.298980712891
 31
0.0
  0
LINE
  5
   37C
  8
0
  6
CONTINUOUS
 62
     7
 10
-36.124998168963
 20
-127.048988342285
 30
0.0
 11
-36.124998168963
 21
-132.548988342285
 31
0.0
  0
LINE
  5
   37D
  8
0
  6
CONTINUOUS
 62
     7
 10
-88.6249829101739
 20
-128.048988342285
 30
0.0
 11
-88.6249829101739
 21
-132.548988342285
 31
0.0
  0
LINE
  5
   37E
  8
0
  6
CONTINUOUS
 62
     7
 10
-88.6249829101739
 20
-127.048988342285
 30
0.0
 11
-96.7499829101739
 21
-127.048988342285
 31
0.0
  0
LINE
  5
   37F
  8
0
  6
CONTINUOUS
 62
     7
 10
-17.5000038146953
 20
-127.048988342285
 30
0.0
 11
-36.124998168963
 21
-127.048988342285
 31
0.0
  0
LINE
  5
   380
  8
0
  6
CONTINUOUS
 62
     7
 10
-30.7499961852927
 20
-124.548988342285
 30
0.0
 11
-30.7499961852927
 21
-127.048988342285
 31
0.0
  0
LINE
  5
   381
  8
0
  6
CONTINUOUS
 62
     7
 10
-96.7499829101739
 20
-124.398994445801
 30
0.0
 11
-96.7499829101739
 21
-127.048988342285
 31
0.0
  0
LINE
  5
   382
  8
0
  6
CONTINUOUS
 62
     7
 10
-36.124998168963
 20
-128.048988342285
 30
0.0
 11
-88.6249829101739
 21
-128.048988342285
 31
0.0
  0
LINE
  5
   383
  8
0
  6
CONTINUOUS
 62
     7
 10
-88.6249829101739
 20
-127.048988342285
 30
0.0
 11
-88.6249829101739
 21
-128.048988342285
 31
0.0
  0
LINE
  5
   384
  8
0
  6
CONTINUOUS
 62
     7
 10
-36.124998168963
 20
-127.048988342285
 30
0.0
 11
-36.124998168963
 21
-128.048988342285
 31
0.0
  0
LINE
  5
   385
  8
0
  6
CONTINUOUS
 62
     7
 10
-75.5000210571466
 20
-113.298965454102
 30
0.0
 11
-106.953158386908
 21
-113.298965454102
 31
0.0
  0
LINE
  5
   386
  8
0
  6
CONTINUOUS
 62
     7
 10
-106.953158386908
 20
-110.598747195434
 30
0.0
 11
-106.953158386908
 21
-124.398986339569
 31
0.0
  0
LINE
  5
   387
  8
0
  6
CONTINUOUS
 62
     7
 10
-96.7499829101739
 20
-124.398994445801
 30
0.0
 11
-106.953156479559
 21
-124.398994445801
 31
0.0
  0
LINE
  5
   388
  8
0
  6
CONTINUOUS
 62
     7
 10
-90.4999829101742
 20
-108.29899597168
 30
0.0
 11
-90.4999829101742
 21
-113.29899597168
 31
0.0
  0
LINE
  5
   389
  8
0
  6
CONTINUOUS
 62
     7
 10
-96.9999829101739
 20
-124.548988342285
 30
0.0
 11
-96.9999829101739
 21
-127.048988342285
 31
0.0
  0
LINE
  5
   38A
  8
0
  6
CONTINUOUS
 62
     7
 10
-88.6249829101739
 20
-127.048988342285
 30
0.0
 11
-131.25
 21
-127.048988342285
 31
0.0
  0
ARC
  5
   38B
  8
0
  6
CONTINUOUS
 62
     7
 10
-73.3969236427054
 20
-142.886514727541
 30
0.0
 40
0.499999897877905
 50
258.62357331707
 51
346.68878865497
  0
ARC
  5
   38C
  8
0
  6
CONTINUOUS
 62
     7
 10
-76.3708326267042
 20
-142.288142527623
 30
0.0
 40
0.50000037262337
 50
530.593992144045
 51
618.62357331707
  0
LINE
  5
   38D
  8
0
  6
CONTINUOUS
 62
     7
 10
-70.4372965850348
 20
-132.548988342285
 30
0.0
 11
-72.9103571730067
 21
-143.001634699888
 31
0.0
  0
LINE
  5
   38E
  8
0
  6
CONTINUOUS
 62
     7
 10
-73.495550660932
 20
-143.376691008128
 30
0.0
 11
-76.4694596779877
 21
-142.778318972504
 31
0.0
  0
LINE
  5
   38F
  8
0
  6
CONTINUOUS
 62
     7
 10
-75.2642912146743
 20
-132.548988342285
 30
0.0
 11
-76.8641103495756
 21
-142.20642778903
 31
0.0
  0
LINE
  5
   390
  8
0
  6
CONTINUOUS
 62
     7
 10
-22.5000132751188
 20
-86.2989843031269
 30
0.0
 11
-22.5000132751188
 21
-88.7989843031269
 31
0.0
  0
LINE
  5
   391
  8
0
  6
DASHDOT
 62
     7
 10
-27.4999876948741
 20
-82.5843127721646
 30
0.0
 11
-27.4999876948741
 21
-96.6509547896029
 31
0.0
  0
LINE
  5
   392
  8
0
  6
CONTINUOUS
 62
     7
 10
-32.7338281097377
 20
-95.6967592403502
 30
0.0
 11
-37.7456242245037
 21
-93.4253311766405
 31
0.0
  0
LINE
  5
   393
  8
0
  6
CONTINUOUS
 62
     7
 10
-22.5000132751188
 20
-88.7989833494526
 30
0.0
 11
-37.7456242245036
 21
-88.7989833494526
 31
0.0
  0
LINE
  5
   394
  8
0
  6
CONTINUOUS
 62
     7
 10
-29.1833985521448
 20
-86.2989843031269
 30
0.0
 11
-37.7456242245036
 21
-86.2989843031269
 31
0.0
  0
LINE
  5
   395
  8
0
  6
CONTINUOUS
 62
     7
 10
-33.0000132751188
 20
-88.7989833494526
 30
0.0
 11
-33.0000132751188
 21
-95.5761197648121
 31
0.0
  0
LINE
  5
   396
  8
0
  6
CONTINUOUS
 62
     7
 10
-35.0000132751188
 20
-88.7989833494526
 30
0.0
 11
-35.0000132751188
 21
-94.6696870162741
 31
0.0
  0
INSERT
  5
   397
  8
0
  6
CONTINUOUS
 62
     7
  2
*HATCH395
 10
0.0
 20
-76.298957824707
 30
0.0
 41
0.5
 42
0.5
 50
179.999999896069
 43
0.5
  0
LINE
  5
   398
  8
0
  6
CONTINUOUS
 62
     7
 10
-37.7456242245036
 20
-77.2989501950805
 30
0.0
 11
-37.7456242245036
 21
-93.4253311766406
 31
0.0
  0
LINE
  5
   399
  8
0
  6
CONTINUOUS
 62
     7
 10
-36.2500132751188
 20
-83.7989843031269
 30
0.0
 11
-36.2500132751188
 21
-86.2989843031269
 31
0.0
  0
LINE
  5
   39A
  8
0
  6
CONTINUOUS
 62
     7
 10
-36.2500132751188
 20
-83.7989843031267
 30
0.0
 11
-37.7456242245037
 21
-82.3033733537418
 31
0.0
  0
INSERT
  5
   39B
  8
0
  6
CONTINUOUS
 62
     7
  2
*HATCH396
 10
0.0
 20
-76.298957824707
 30
0.0
 41
0.5
 42
0.5
 50
179.999999896069
 43
0.5
  0
LINE
  5
   39C
  8
0
  6
CONTINUOUS
 62
     7
 10
-97.3532159342979
 20
-86.2989843031269
 30
0.0
 11
-97.3532159342979
 21
-88.7989833494526
 31
0.0
  0
LINE
  5
   39D
  8
0
  6
CONTINUOUS
 62
     7
 10
-101.353215934298
 20
-86.2989843031269
 30
0.0
 11
-101.353215934298
 21
-88.7989833494526
 31
0.0
  0
LINE
  5
   39E
  8
0
  6
CONTINUOUS
 62
     7
 10
-89.1075794046684
 20
-88.7989833494526
 30
0.0
 11
-104.353190354053
 21
-88.7989833494526
 31
0.0
  0
LINE
  5
   39F
  8
0
  6
CONTINUOUS
 62
     7
 10
-89.1075794046684
 20
-77.0489959716797
 30
0.0
 11
-89.1075794046684
 21
-105.69681975507
 31
0.0
  0
LINE
  5
   3A0
  8
0
  6
CONTINUOUS
 62
     7
 10
-88.3652777379553
 20
-105.49292001538
 30
0.0
 11
-131.25
 21
-117.272744981436
 31
0.0
  0
INSERT
  5
   3A1
  8
0
  6
CONTINUOUS
 62
     7
  2
*HATCH397
 10
0.0
 20
-76.298957824707
 30
0.0
 41
0.5
 42
0.5
 50
179.999999896069
 43
0.5
  0
INSERT
  5
   3A2
  8
0
  6
CONTINUOUS
 62
     7
  2
*HATCH398
 10
0.0
 20
-76.298957824707
 30
0.0
 41
0.5
 42
0.5
 50
179.999999896069
 43
0.5
  0
LINE
  5
   3A3
  8
0
  6
CONTINUOUS
 62
     7
 10
-91.8532159342979
 20
-77.2989954948425
 30
0.0
 11
-91.8532159342979
 21
-86.2989843031269
 31
0.0
  0
LINE
  5
   3A4
  8
0
  6
CONTINUOUS
 62
     7
 10
-89.8532159342979
 20
-76.2989959716797
 30
0.0
 11
-89.8532159342979
 21
-86.2989843031269
 31
0.0
  0
LINE
  5
   3A5
  8
0
  6
CONTINUOUS
 62
     7
 10
-93.8532159342979
 20
-88.7989833494526
 30
0.0
 11
-93.8532159342979
 21
-107.000378801808
 31
0.0
  0
INSERT
  5
   3A6
  8
0
  6
CONTINUOUS
 62
     7
  2
*HATCH399
 10
0.0
 20
-76.298957824707
 30
0.0
 41
0.5
 42
0.5
 50
179.999999896069
 43
0.5
  0
LINE
  5
   3A7
  8
0
  6
CONTINUOUS
 62
     7
 10
-91.8532159342979
 20
-88.7989833494525
 30
0.0
 11
-91.8532159342979
 21
-106.451007168056
 31
0.0
  0
LINE
  5
   3A8
  8
0
  6
CONTINUOUS
 62
     7
 10
-92.7499923706049
 20
-77.2989807128906
 30
0.0
 11
-92.7499923706049
 21
-108.298980712891
 31
0.0
  0
LINE
  5
   3A9
  8
0
  6
CONTINUOUS
 62
     7
 10
-36.124998168963
 20
-132.548988342285
 30
0.0
 11
-88.6249829101739
 21
-132.548988342285
 31
0.0
  0
LINE
  5
   3AA
  8
0
  6
CONTINUOUS
 62
     7
 10
-32.7338281097377
 20
-95.6967592403502
 30
0.0
 11
-32.7338281097377
 21
-97.7737627971341
 31
0.0
  0
LINE
  5
   3AB
  8
0
  6
CONTINUOUS
 62
     7
 10
-17.5000038146953
 20
-104.677981410384
 30
0.0
 11
-32.7338281097377
 21
-97.7737627971341
 31
0.0
  0
LINE
  5
   3AC
  8
0
  6
CONTINUOUS
 62
     7
 10
-108.353173264227
 20
-76.298957824707
 30
0.0
 11
-108.353173264227
 21
-110.983311425649
 31
0.0
  0
LINE
  5
   3AD
  8
0
  6
CONTINUOUS
 62
     7
 10
-114.249998168963
 20
-76.2989959716797
 30
0.0
 11
-119.249998168963
 21
-76.2989959716797
 31
0.0
  0
LINE
  5
   3AE
  8
0
  6
CONTINUOUS
 62
     7
 10
-25.9999961852927
 20
-76.2989506719177
 30
0.0
 11
-25.9999961852927
 21
-77.2989501950805
 31
0.0
  0
LINE
  5
   3AF
  8
0
  6
CONTINUOUS
 62
     7
 10
-30.9999961852927
 20
-76.2989506719177
 30
0.0
 11
-30.9999961852927
 21
-77.2989501950805
 31
0.0
  0
LINE
  5
   3B0
  8
0
  6
CONTINUOUS
 62
     1
 10
-24.7499876948741
 20
-93.2989833494526
 30
0.0
 11
-30.2499876948741
 21
-93.2989833494526
 31
0.0
  0
LINE
  5
   3B1
  8
0
  6
CONTINUOUS
 62
     1
 10
-30.7499876948741
 20
-89.2989833494526
 30
0.0
 11
-30.7499876948741
 21
-92.7989833494526
 31
0.0
  0
LINE
  5
   3B2
  8
0
  6
CONTINUOUS
 62
     1
 10
-24.2499876948741
 20
-89.2989833494526
 30
0.0
 11
-24.2499876948741
 21
-92.7989833494526
 31
0.0
  0
ARC
  5
   3B3
  8
0
  6
CONTINUOUS
 62
     7
 10
-152.75
 20
-77.798957824707
 30
0.0
 40
2.5
 50
179.999999896069
 51
269.999999896069
  0
LINE
  5
   3B4
  8
0
  6
CONTINUOUS
 62
     3
 10
-94.3532159342979
 20
-85.0489843031269
 30
0.0
 11
-104.353215934298
 21
-85.0489843031269
 31
0.0
  0
LINE
  5
   3B5
  8
0
  6
DASHDOT
 62
     3
 10
-99.3532159342979
 20
-83.9641594902327
 30
0.0
 11
-99.3532159342979
 21
-110.593491233072
 31
0.0
  0
LINE
  5
   3B6
  8
0
  6
CONTINUOUS
 62
     3
 10
-101.353215934298
 20
-86.2989843031269
 30
0.0
 11
-104.353215934298
 21
-86.2989843031269
 31
0.0
  0
LINE
  5
   3B7
  8
0
  6
CONTINUOUS
 62
     3
 10
-94.3532159342979
 20
-85.0489843031269
 30
0.0
 11
-94.3532159342979
 21
-86.2989843031269
 31
0.0
  0
LINE
  5
   3B8
  8
0
  6
CONTINUOUS
 62
     3
 10
-104.353215934298
 20
-85.0489843031269
 30
0.0
 11
-104.353215934298
 21
-103.548984303127
 31
0.0
  0
LINE
  5
   3B9
  8
0
  6
CONTINUOUS
 62
     3
 10
-102.353215934298
 20
-104.548984303127
 30
0.0
 11
-103.353215934298
 21
-104.548984303127
 31
0.0
  0
ARC
  5
   3BA
  8
0
  6
CONTINUOUS
 62
     3
 10
-99.3532159342979
 20
-86.2989843031269
 30
0.0
 40
2.0
 50
269.999999896069
 51
359.999999896069
  0
ARC
  5
   3BB
  8
0
  6
CONTINUOUS
 62
     3
 10
-95.3532159342979
 20
-103.548984303127
 30
0.0
 40
1.0
 50
269.999999896069
 51
359.999999896069
  0
ARC
  5
   3BC
  8
0
  6
CONTINUOUS
 62
     3
 10
-103.353215934298
 20
-103.548984303127
 30
0.0
 40
1.0
 50
179.999999896069
 51
269.999999896069
  0
ARC
  5
   3BD
  8
0
  6
CONTINUOUS
 62
     3
 10
-99.3532159342979
 20
-86.2989843031269
 30
0.0
 40
2.0
 50
179.999999896069
 51
269.999999896069
  0
ARC
  5
   3BE
  8
0
  6
CONTINUOUS
 62
     3
 10
-99.3532159342979
 20
-86.2989843031269
 30
0.0
 40
1.0
 50
532.819244114611
 51
727.180755677527
  0
ARC
  5
   3BF
  8
0
  6
CONTINUOUS
 62
     3
 10
-97.3689024509995
 20
-86.0489843031269
 30
0.0
 40
1.0
 50
449.999999896069
 51
547.180755677527
  0
ARC
  5
   3C0
  8
0
  6
CONTINUOUS
 62
     3
 10
-101.337529417596
 20
-86.0489843031269
 30
0.0
 40
1.0
 50
352.819244114611
 51
449.999999896069
  0
LINE
  5
   3C1
  8
0
  6
CONTINUOUS
 62
     3
 10
-89.1075794046684
 20
-86.2989843031269
 30
0.0
 11
-97.3532159342979
 21
-86.2989843031269
 31
0.0
  0
LINE
  5
   3C2
  8
0
  6
CONTINUOUS
 62
     3
 10
-102.353215934298
 20
-100.798984303127
 30
0.0
 11
-104.353215934298
 21
-100.798984303127
 31
0.0
  0
LINE
  5
   3C3
  8
0
  6
CONTINUOUS
 62
     3
 10
-102.353215934298
 20
-102.798984303127
 30
0.0
 11
-104.353215934298
 21
-102.798984303127
 31
0.0
  0
LINE
  5
   3C4
  8
0
  6
CONTINUOUS
 62
     3
 10
-96.3532159342979
 20
-102.048984303127
 30
0.0
 11
-96.3532159342979
 21
-104.048984303127
 31
0.0
  0
LINE
  5
   3C5
  8
0
  6
CONTINUOUS
 62
     3
 10
-102.353215934298
 20
-102.048984303127
 30
0.0
 11
-102.353215934298
 21
-104.048984303127
 31
0.0
  0
INSERT
  5
   3C6
  8
255
  6
CONTINUOUS
 62
     7
  2
$1146558
 10
-207.468589063321
 20
-124.048966407776
 30
0.0
 41
0.5
 42
0.5
 50
269.999999844103
 43
0.5
  0
INSERT
  5
   3C7
  8
0
  6
CONTINUOUS
 62
    98
  2
*HATCH400
 10
0.0
 20
-76.298957824707
 30
0.0
 41
0.5
 42
0.5
 50
179.999999896069
 43
0.5
  0
INSERT
  5
   3C8
  8
0
  6
CONTINUOUS
 62
    98
  2
*HATCH401
 10
0.0
 20
-76.298957824707
 30
0.0
 41
0.5
 42
0.5
 50
179.999999896069
 43
0.5
  0
INSERT
  5
   3C9
  8
0
  6
CONTINUOUS
 62
    98
  2
*HATCH402
 10
0.0
 20
-76.298957824707
 30
0.0
 41
0.5
 42
0.5
 50
179.999999896069
 43
0.5
  0
LINE
  5
   3CA
  8
0
  6
CONTINUOUS
 62
     3
 10
-94.3532159342979
 20
-88.7989833494526
 30
0.0
 11
-94.3532159342979
 21
-103.548984303127
 31
0.0
  0
LINE
  5
   3CB
  8
0
  6
CONTINUOUS
 62
     3
 10
-94.3532159342979
 20
-100.798984303127
 30
0.0
 11
-96.3532159342979
 21
-100.798984303127
 31
0.0
  0
LINE
  5
   3CC
  8
0
  6
CONTINUOUS
 62
     3
 10
-94.3532159342979
 20
-102.798984303127
 30
0.0
 11
-96.3532159342979
 21
-102.798984303127
 31
0.0
  0
LINE
  5
   3CD
  8
0
  6
CONTINUOUS
 62
     3
 10
-95.3532159342979
 20
-104.548984303127
 30
0.0
 11
-96.3532159342979
 21
-104.548984303127
 31
0.0
  0
INSERT
  5
   3CE
  8
0
  6
CONTINUOUS
 62
     7
  2
*HATCH403
 10
0.0
 20
-76.298957824707
 30
0.0
 41
0.5
 42
0.5
 50
179.999999896069
 43
0.5
  0
LINE
  5
   3CF
  8
0
  6
CONTINUOUS
 62
     7
 10
-23.4999876948741
 20
-88.7989833494526
 30
0.0
 11
-23.4999876948741
 21
-89.2989833494526
 31
0.0
  0
LINE
  5
   3D0
  8
0
  6
CONTINUOUS
 62
     7
 10
-31.4999876948741
 20
-88.7989833494526
 30
0.0
 11
-31.4999876948741
 21
-89.2989833494526
 31
0.0
  0
LINE
  5
   3D1
  8
0
  6
CONTINUOUS
 62
     7
 10
-23.4999876948741
 20
-89.2989833494526
 30
0.0
 11
-31.4999876948741
 21
-89.2989833494526
 31
0.0
  0
ARC
  5
   3D2
  8
0
  6
CONTINUOUS
 62
     1
 10
-24.7499876948741
 20
-92.7989833494526
 30
0.0
 40
0.5
 50
269.999999896069
 51
359.999999896069
  0
ARC
  5
   3D3
  8
0
  6
CONTINUOUS
 62
     1
 10
-30.2499876948741
 20
-92.7989833494526
 30
0.0
 40
0.5
 50
179.999999896069
 51
269.999999896069
  0
LINE
  5
   3D4
  8
0
  6
CONTINUOUS
 62
     7
 10
-25.9999876948741
 20
-79.2989833494526
 30
0.0
 11
-28.9999876948741
 21
-79.2989833494526
 31
0.0
  0
LINE
  5
   3D5
  8
0
  6
CONTINUOUS
 62
     7
 10
-25.4999876948741
 20
-79.7989833494526
 30
0.0
 11
-25.4999876948741
 21
-83.298957824707
 31
0.0
  0
LINE
  5
   3D6
  8
0
  6
CONTINUOUS
 62
     7
 10
-29.4999876948741
 20
-79.7989833494526
 30
0.0
 11
-29.4999876948741
 21
-83.298957824707
 31
0.0
  0
LINE
  5
   3D7
  8
0
  6
CONTINUOUS
 62
     7
 10
-25.4999876948741
 20
-79.7989833494526
 30
0.0
 11
-25.9999876948741
 21
-79.2989833494526
 31
0.0
  0
LINE
  5
   3D8
  8
0
  6
CONTINUOUS
 62
     7
 10
-28.9999876948741
 20
-79.2989833494526
 30
0.0
 11
-29.4999876948741
 21
-79.7989833494526
 31
0.0
  0
LINE
  5
   3D9
  8
0
  6
CONTINUOUS
 62
     7
 10
-25.9999876948741
 20
-79.7989833494526
 30
0.0
 11
-25.9999876948741
 21
-83.298957824707
 31
0.0
  0
LINE
  5
   3DA
  8
0
  6
CONTINUOUS
 62
     7
 10
-28.9999876948741
 20
-79.7989833494526
 30
0.0
 11
-28.9999876948741
 21
-83.298957824707
 31
0.0
  0
LINE
  5
   3DB
  8
0
  6
CONTINUOUS
 62
     7
 10
-25.4999876948741
 20
-79.7989833494526
 30
0.0
 11
-29.4999876948741
 21
-79.7989833494526
 31
0.0
  0
LINE
  5
   3DC
  8
0
  6
CONTINUOUS
 62
     7
 10
5.75
 20
-78.2720692681856
 30
0.0
 11
2.25
 21
-78.2720692681856
 31
0.0
  0
LINE
  5
   3DD
  8
0
  6
CONTINUOUS
 62
     7
 10
5.75
 20
-54.298957824707
 30
0.0
 11
5.75
 21
-145.548960313715
 31
0.0
  0
LINE
  5
   3DE
  8
0
  6
CONTINUOUS
 62
     7
 10
5.75
 20
-150.548960313715
 30
0.0
 11
2.25
 21
-150.548960313715
 31
0.0
  0
ARC
  5
   3DF
  8
0
  6
CONTINUOUS
 62
     7
 10
2.25
 20
-148.048960313715
 30
0.0
 40
2.5
 50
449.999999896069
 51
629.999999896069
  0
ARC
  5
   3E0
  8
0
  6
CONTINUOUS
 62
     7
 10
5.75
 20
-148.048960313715
 30
0.0
 40
2.5
 50
269.999999896069
 51
449.999999896069
  0
LINE
  5
   3E1
  8
0
  6
CONTINUOUS
 62
     7
 10
5.75
 20
-77.298960313715
 30
0.0
 11
2.25
 21
-77.298960313715
 31
0.0
  0
LINE
  5
   3E2
  8
0
  6
CONTINUOUS
 62
     7
 10
2.25
 20
-76.298957824707
 30
0.0
 11
2.25
 21
-145.548960313715
 31
0.0
  0
LINE
  5
   3E3
  8
0
  6
CONTINUOUS
 62
     7
 10
4.5
 20
-76.298957824707
 30
0.0
 11
4.5
 21
-77.298960313715
 31
0.0
  0
LINE
  5
   3E4
  8
0
  6
CONTINUOUS
 62
     7
 10
-50.5099920965613
 20
-62.7989578247076
 30
0.0
 11
-50.7500190384679
 21
-35.2945945569588
 31
0.0
  0
ARC
  5
   3E5
  8
0
  6
CONTINUOUS
 62
     7
 10
-51.25
 20
-35.298957824707
 30
0.0
 40
0.5
 50
360.499999896068
 51
449.999999896069
  0
LINE
  5
   3E6
  8
0
  6
CONTINUOUS
 62
     7
 10
-51.25
 20
-34.798957824707
 30
0.0
 11
-57.0
 21
-34.798957824707
 31
0.0
  0
LINE
  5
   3E7
  8
0
  6
CONTINUOUS
 62
     7
 10
-6.25
 20
-54.298957824707
 30
0.0
 11
-6.25
 21
-62.798957824707
 31
0.0
  0
LINE
  5
   3E8
  8
0
  6
CONTINUOUS
 62
     3
 10
-22.4999980163297
 20
-86.298957824707
 30
0.0
 11
-29.1833985521448
 21
-86.2989843031269
 31
0.0
  0
LINE
  5
   3E9
  8
0
  6
CONTINUOUS
 62
     3
 10
1.5
 20
-49.298957824707
 30
0.0
 11
-1.5
 21
-49.298957824707
 31
0.0
  0
LINE
  5
   3EA
  8
0
  6
CONTINUOUS
 62
     3
 10
1.0
 20
-48.798957824707
 30
0.0
 11
-1.0
 21
-48.798957824707
 31
0.0
  0
LINE
  5
   3EB
  8
0
  6
CONTINUOUS
 62
     3
 10
1.5
 20
-49.2989578247071
 30
0.0
 11
0.999999999999998
 21
-48.798957824707
 31
0.0
  0
LINE
  5
   3EC
  8
0
  6
CONTINUOUS
 62
     3
 10
-1.0
 20
-48.798957824707
 30
0.0
 11
-1.49999999999999
 21
-49.298957824707
 31
0.0
  0
LINE
  5
   3ED
  8
0
  6
DASHDOT
 62
     7
 10
0.0
 20
-43.5214268629047
 30
0.0
 11
0.0
 21
-60.4020001313859
 31
0.0
  0
LINE
  5
   3EE
  8
0
  6
CONTINUOUS
 62
     5
 10
15.0000020168875
 20
-49.2989542011833
 30
0.0
 11
15.0000020168875
 21
-54.2989542011833
 31
0.0
  0
LINE
  5
   3EF
  8
0
  6
CONTINUOUS
 62
     5
 10
-2.49999798311246
 20
-49.2989542011833
 30
0.0
 11
-2.49999798311246
 21
-54.2989542011833
 31
0.0
  0
LINE
  5
   3F0
  8
0
  6
CONTINUOUS
 62
     5
 10
15.0000020168875
 20
-54.2989542011833
 30
0.0
 11
-2.49999798311246
 21
-54.2989542011833
 31
0.0
  0
LINE
  5
   3F1
  8
0
  6
DASHDOT
 62
     7
 10
12.5000020421541
 20
-48.8676570922051
 30
0.0
 11
12.5000020421541
 21
-56.6430506556293
 31
0.0
  0
LINE
  5
   3F2
  8
0
  6
CONTINUOUS
 62
     5
 10
4.12500201688754
 20
-47.7989542011833
 30
0.0
 11
4.12500201688754
 21
-48.2989542011833
 31
0.0
  0
LINE
  5
   3F3
  8
0
  6
CONTINUOUS
 62
     5
 10
8.37500201688754
 20
-47.7989542011833
 30
0.0
 11
8.37500201688754
 21
-48.2989542011833
 31
0.0
  0
LINE
  5
   3F4
  8
0
  6
CONTINUOUS
 62
     5
 10
9.70577498186555
 20
-48.2989542011833
 30
0.0
 11
9.70577498186555
 21
-49.2989542011833
 31
0.0
  0
LINE
  5
   3F5
  8
0
  6
CONTINUOUS
 62
     5
 10
2.79422896669135
 20
-48.2989542011833
 30
0.0
 11
2.79422896669135
 21
-49.2989542011833
 31
0.0
  0
LINE
  5
   3F6
  8
0
  6
CONTINUOUS
 62
     5
 10
9.70577498186555
 20
-48.2989542011833
 30
0.0
 11
8.37500201688754
 21
-48.2989542011833
 31
0.0
  0
LINE
  5
   3F7
  8
0
  6
CONTINUOUS
 62
     5
 10
4.39295120931865
 20
-46.7989542011834
 30
0.0
 11
4.12500201688754
 21
-47.7989542011833
 31
0.0
  0
LINE
  5
   3F8
  8
0
  6
CONTINUOUS
 62
     5
 10
8.37500201688751
 20
-47.7989542011833
 30
0.0
 11
8.1070528244564
 21
-46.7989542011833
 31
0.0
  0
LINE
  5
   3F9
  8
0
  6
CONTINUOUS
 62
     5
 10
4.12500201688754
 20
-48.2989542011833
 30
0.0
 11
2.79422896669135
 21
-48.2989542011833
 31
0.0
  0
LINE
  5
   3FA
  8
0
  6
CONTINUOUS
 62
     5
 10
15.0000020168875
 20
-49.2989542011833
 30
0.0
 11
9.70577498186555
 21
-49.2989542011833
 31
0.0
  0
LINE
  5
   3FB
  8
0
  6
CONTINUOUS
 62
     5
 10
2.79422896669135
 20
-49.2989542011833
 30
0.0
 11
1.5
 21
-49.2989542011833
 31
0.0
  0
LINE
  5
   3FC
  8
0
  6
CONTINUOUS
 62
     5
 10
9.87500204215405
 20
-50.5489542011833
 30
0.0
 11
2.62500199162102
 21
-50.5489542011833
 31
0.0
  0
LINE
  5
   3FD
  8
0
  6
CONTINUOUS
 62
     5
 10
7.75000190734863
 20
-46.7989540100097
 30
0.0
 11
7.75000190734863
 21
-50.5489542011833
 31
0.0
  0
LINE
  5
   3FE
  8
0
  6
CONTINUOUS
 62
     5
 10
4.75000190734863
 20
-46.7989540100097
 30
0.0
 11
4.75000190734863
 21
-50.5489542011833
 31
0.0
  0
LINE
  5
   3FF
  8
0
  6
CONTINUOUS
 62
     1
 10
7.50000201688753
 20
-49.7489542011833
 30
0.0
 11
5.00000201688753
 21
-49.7489542011833
 31
0.0
  0
LINE
  5
   400
  8
0
  6
CONTINUOUS
 62
     1
 10
7.50000201688753
 20
-38.0489542011833
 30
0.0
 11
5.00000201688753
 21
-38.0489542011833
 31
0.0
  0
LINE
  5
   401
  8
0
  6
CONTINUOUS
 62
     1
 10
8.58021657725655
 20
-51.7989542011833
 30
0.0
 11
3.91978745651851
 21
-51.7989542011833
 31
0.0
  0
LINE
  5
   402
  8
0
  6
CONTINUOUS
 62
     1
 10
5.00000201688754
 20
-38.0489542011833
 30
0.0
 11
5.00000201688754
 21
-50.5489542011833
 31
0.0
  0
LINE
  5
   403
  8
0
  6
CONTINUOUS
 62
     1
 10
7.50000201688754
 20
-38.0489542011833
 30
0.0
 11
7.50000201688754
 21
-50.5489542011833
 31
0.0
  0
ARC
  5
   404
  8
0
  6
CONTINUOUS
 62
     1
 10
6.25000201688754
 20
-47.4489542011833
 30
0.0
 40
5.0
 50
242.309896323207
 51
268.137559096537
  0
LINE
  5
   405
  8
0
  6
CONTINUOUS
 62
     1
 10
3.92655647205343
 20
-51.8763237136806
 30
0.0
 11
3.81042565306982
 21
-50.5489542011833
 31
0.0
  0
LINE
  5
   406
  8
0
  6
CONTINUOUS
 62
     1
 10
8.68957838070525
 20
-50.5489542011833
 30
0.0
 11
8.57344756172164
 21
-51.8763237136806
 31
0.0
  0
LINE
  5
   407
  8
0
  6
CONTINUOUS
 62
     1
 10
8.68957838070525
 20
-50.5489542011833
 30
0.0
 11
3.81042565306981
 21
-50.5489542011833
 31
0.0
  0
LINE
  5
   408
  8
0
  6
CONTINUOUS
 62
     7
 10
5.24537401688753
 20
-38.0489542011833
 30
0.0
 11
5.24537401688753
 21
-49.7489542011833
 31
0.0
  0
LINE
  5
   409
  8
0
  6
CONTINUOUS
 62
     7
 10
7.25463001688754
 20
-38.0489542011833
 30
0.0
 11
7.25463001688754
 21
-49.7489542011833
 31
0.0
  0
LINE
  5
   40A
  8
0
  6
DASHED
 62
     7
 10
7.50000201688753
 20
-50.5489542011833
 30
0.0
 11
5.00000201688753
 21
-50.5489542011833
 31
0.0
  0
LINE
  5
   40B
  8
0
  6
DASHDOT
 62
     7
 10
6.25000201688754
 20
-32.6235127352336
 30
0.0
 11
6.25000201688754
 21
-54.4489542011833
 31
0.0
  0
LINE
  5
   40C
  8
0
  6
CONTINUOUS
 62
     1
 10
6.41250201688753
 20
-52.1239542011833
 30
0.0
 11
6.08750201688753
 21
-52.1239542011833
 31
0.0
  0
LINE
  5
   40D
  8
0
  6
CONTINUOUS
 62
     1
 10
6.08750201688754
 20
-52.1239542011833
 30
0.0
 11
6.08750201688754
 21
-52.4463128785248
 31
0.0
  0
LINE
  5
   40E
  8
0
  6
CONTINUOUS
 62
     1
 10
6.41250201688753
 20
-52.1239542011833
 30
0.0
 11
6.41250201688753
 21
-52.4463128785248
 31
0.0
  0
ARC
  5
   40F
  8
0
  6
CONTINUOUS
 62
     1
 10
6.25000201688754
 20
-47.4489542011833
 30
0.0
 40
5.0
 50
271.862440695601
 51
297.69010346893
  0
LINE
  5
   410
  8
0
  6
CONTINUOUS
 62
     5
 10
11.1250020421541
 20
-49.2989542011833
 30
0.0
 11
11.1250020421541
 21
-54.2989542011833
 31
0.0
  0
LINE
  5
   411
  8
0
  6
CONTINUOUS
 62
     5
 10
13.8750020421541
 20
-49.2989542011833
 30
0.0
 11
13.8750020421541
 21
-54.2989542011833
 31
0.0
  0
LINE
  5
   412
  8
0
  6
CONTINUOUS
 62
     5
 10
-1.49999999999999
 20
-49.298957824707
 30
0.0
 11
-2.49999798311246
 21
-49.2989542011833
 31
0.0
  0
INSERT
  5
   413
  8
0
  6
CONTINUOUS
 62
     7
  2
*HATCH404
 10
0.0
 20
-76.298957824707
 30
0.0
 41
0.5
 42
0.5
 50
179.999999896069
 43
0.5
  0
LINE
  5
   414
  8
0
  6
DASHED
 62
     7
 10
-92.5
 20
-68.548957824707
 30
0.0
 11
-92.5
 21
-75.798957824707
 31
0.0
  0
LINE
  5
   415
  8
0
  6
CONTINUOUS
 62
     5
 10
9.87500204215405
 20
-50.5489542011833
 30
0.0
 11
9.87500204215405
 21
-54.2989542011833
 31
0.0
  0
LINE
  5
   416
  8
0
  6
CONTINUOUS
 62
     5
 10
2.62500199162102
 20
-50.5489542011833
 30
0.0
 11
2.62500199162102
 21
-54.2989542011833
 31
0.0
  0
INSERT
  5
   417
  8
0
  6
CONTINUOUS
 62
     7
  2
*HATCH405
 10
0.0
 20
-76.298957824707
 30
0.0
 41
0.5
 42
0.5
 50
179.999999896069
 43
0.5
  0
INSERT
  5
   418
  8
0
  6
CONTINUOUS
 62
     7
  2
*HATCH406
 10
0.0
 20
-76.298957824707
 30
0.0
 41
0.5
 42
0.5
 50
179.999999896069
 43
0.5
  0
TEXT
  5
   419
  8
0
  6
CONTINUOUS
 62
     2
 10
24.0529022194185
 20
-152.134108586222
 30
0.0
 40
2.50000005960464
  1
96-08-27
 50
359.999999896069
 41
1.09999991695086
 11
24.0529022216796
 21
-150.88410855642
 31
0.0
 73
     2
  0
TEXT
  5
   41A
  8
0
  6
CONTINUOUS
 62
     2
 10
24.0529022194185
 20
-156.134108465462
 30
0.0
 40
2.50000005960464
  1
MAZZOLENI
 50
359.999999896069
 41
1.09799996061325
 11
24.0529022216796
 21
-154.884108435659
 31
0.0
 73
     2
  0
TEXT
  5
   41B
  8
0
  6
CONTINUOUS
 62
     2
 10
137.657964478159
 20
-170.936197296592
 30
0.0
 40
2.50000005960464
  1
S3 III
 50
359.999999896069
 41
1.09999991695086
 72
     1
 11
145.449630737305
 21
-169.686197280884
 31
0.0
 73
     2
  0
TEXT
  5
   41C
  8
0
  6
CONTINUOUS
 62
     2
 10
185.037633454525
 20
-173.241485618873
 30
0.0
 40
2.50000005960464
  1
1:2
 50
359.999999896069
 41
1.09999991695086
 72
     1
 11
188.704299926758
 21
-171.991485595703
 31
0.0
 73
     2
  0
INSERT
  5
   41D
  8
0
  6
CONTINUOUS
 62
     7
  2
*UDIM1251
 10
0.0
 20
0.0
 30
0.0
  0
INSERT
  5
   41E
  8
0
  6
CONTINUOUS
 62
     7
  2
*UDIM1252
 10
0.0
 20
0.0
 30
0.0
  0
LINE
  5
   41F
  8
0
  6
CONTINUOUS
 62
     7
 10
-131.25
 20
-76.298957824707
 30
0.0
 11
-131.25
 21
-127.048988342285
 31
0.0
  0
TEXT
  5
   420
  8
0
  6
CONTINUOUS
 62
     7
 10
130.938898354972
 20
-151.866537259116
 30
0.0
 40
2.499995470047
  1
ADATTATORE PER
 50
359.999999896069
 41
0.933333333333333
 72
     1
 11
147.022202547869
 21
-150.616539553186
 31
0.0
 73
     2
  0
TEXT
  5
   421
  8
0
  6
CONTINUOUS
 62
     7
 10
129.772233452592
 20
-155.866537257006
 30
0.0
 40
2.499995470047
  1
QUADRO MNS 2000
 50
359.999999896069
 41
0.933333333333333
 72
     1
 11
147.022202198178
 21
-154.616539553186
 31
0.0
 73
     2
  0
TEXT
  5
   422
  8
0
  6
CONTINUOUS
 62
     7
 10
134.438891313656
 20
-159.866537265447
 30
0.0
 40
2.499995470047
  1
ADAPTER FOR
 50
359.999999896069
 41
0.933333333333333
 72
     1
 11
147.022201848487
 21
-158.616539553186
 31
0.0
 73
     2
  0
TEXT
  5
   423
  8
0
  6
CONTINUOUS
 62
     7
 10
129.77223275321
 20
-163.866537257006
 30
0.0
 40
2.499995470047
  1
MNS SYSTEM 2000
 50
359.999999896069
 41
0.933333333333333
 72
     1
 11
147.022201498795
 21
-162.616539553186
 31
0.0
 73
     2
  0
TEXT
  5
   424
  8
0
  6
CONTINUOUS
 62
     2
 10
125.524632257623
 20
-180.402947352762
 30
0.0
 40
4.49999994039536
  1
601812/771
 50
359.999999896069
 41
1.09999994414824
 72
     1
 11
149.449630737305
 21
-178.152947425842
 31
0.0
 73
     2
  0
LINE
  5
   425
  8
0
  6
CONTINUOUS
 62
     7
 10
-17.5000038146953
 20
-77.2989501950805
 30
0.0
 11
-17.5000038146953
 21
-127.048988342285
 31
0.0
  0
INSERT
  5
   426
  8
0
  6
CONTINUOUS
 62
     3
  2
*UDIM1253
 10
0.0
 20
0.0
 30
0.0
  0
LINE
  5
   427
  8
0
  6
CONTINUOUS
 62
     7
 10
-73.3969236427054
 20
-143.296514625419
 30
0.0
 11
-78.2747789507486
 21
-143.296514625419
 31
0.0
  0
INSERT
  5
   428
  8
0
  6
CONTINUOUS
 62
     3
  2
*UDIM1254
 10
0.0
 20
0.0
 30
0.0
  0
LINE
  5
   429
  8
0
  6
DASHED
 62
     7
 10
-34.1403789491991
 20
-76.298957824707
 30
0.0
 11
-35.2793156311567
 21
-73.6157911479938
 31
0.0
  0
LINE
  5
   42A
  8
0
  6
DASHED
 62
     7
 10
-37.399460081415
 20
-76.298957824707
 30
0.0
 11
-37.919614338319
 21
-75.0735511879865
 31
0.0
  0
LINE
  5
   42B
  8
0
  6
CONTINUOUS
 62
     7
 10
-150.25
 20
-76.298957824707
 30
0.0
 11
-150.25
 21
-77.798957824707
 31
0.0
  0
LINE
  5
   42C
  8
0
  6
DASHED
 62
     7
 10
-40.2208764719501
 20
-73.5503790092096
 30
0.0
 11
-44.0542366604002
 21
-73.5503790092096
 31
0.0
  0
LINE
  5
   42D
  8
0
  6
DASHED
 62
     7
 10
-39.8818398984189
 20
-70.5694467904401
 30
0.0
 11
-45.1220162792597
 21
-70.5694467904401
 31
0.0
  0
ARC
  5
   42E
  8
0
  6
DASHED
 62
     7
 10
-39.8818398984189
 20
-75.5694467904401
 30
0.0
 40
5.0
 50
382.999999896069
 51
449.999999896069
  0
ARC
  5
   42F
  8
0
  6
DASHED
 62
     7
 10
-40.2208764719501
 20
-76.0503790092096
 30
0.0
 40
2.5
 50
382.999999896069
 51
449.999999896069
  0
INSERT
  5
   430
  8
0
  6
CONTINUOUS
 62
     2
  2
*UDIM1255
 10
0.0
 20
0.0
 30
0.0
  0
LINE
  5
   431
  8
0
  6
CONTINUOUS
 62
     7
 10
-150.25
 20
-76.298957824707
 30
0.0
 11
-150.25
 21
-80.2989578247071
 31
0.0
  0
LINE
  5
   432
  8
0
  6
CONTINUOUS
 62
     7
 10
-150.25
 20
-80.2989578247071
 30
0.0
 11
-152.75
 21
-80.2989578247071
 31
0.0
  0
INSERT
  5
   433
  8
0
  6
CONTINUOUS
 62
     7
  2
*UDIM1256
 10
0.0
 20
0.0
 30
0.0
  0
TEXT
  5
   434
  8
0
  6
CONTINUOUS
 62
     2
 10
35.5196380592623
 20
-168.819508535518
 30
0.0
 40
2.50000005960464
  1
N0006 99-04-15
 50
359.999999896069
 41
0.64999958527089
 11
35.5196380615234
 21
-167.569508505716
 31
0.0
 73
     2
  0
TEXT
  5
   435
  8
0
  6
CONTINUOUS
 62
     2
 10
24.0529022194185
 20
-164.600858587932
 30
0.0
 40
2.50000005960464
  1
GIUPPONI
 50
359.999999896069
 41
1.09799996061325
 11
24.0529022216796
 21
-163.35085855813
 31
0.0
 73
     2
  0
TEXT
  5
   436
  8
0
  6
CONTINUOUS
 62
     2
 10
24.0529022194185
 20
-160.600858586222
 30
0.0
 40
2.50000005960464
  1
99-04-15
 50
359.999999896069
 41
1.09999991695086
 11
24.0529022216796
 21
-159.35085855642
 31
0.0
 73
     2
  0
LINE
  5
   437
  8
0
  6
CONTINUOUS
 62
     7
 10
38.2871483109991
 20
-41.8899003430694
 30
0.0
 11
7.00672555036241
 21
-45.6551364161091
 31
0.0
  0
TEXT
  5
   438
  8
0
  6
CONTINUOUS
 62
     2
 10
184.57930014106
 20
-181.708282533942
 30
0.0
 40
2.50000005960464
  1
1/1
 50
359.999999896069
 41
1.09999991695086
 72
     1
 11
188.245966613293
 21
-180.458282510772
 31
0.0
 73
     2
  0
TEXT
  5
   439
  8
0
  6
CONTINUOUS
 62
     2
 10
184.57930014106
 20
-164.774704042731
 30
0.0
 40
2.50000005960464
  1
ITA
 50
359.999999896069
 41
1.09999991695086
 72
     1
 11
188.245966613293
 21
-163.524704019561
 31
0.0
 73
     2
  0
LINE
  5
   43A
  8
0
  6
DASHDOT
 62
     7
 10
0.0
 20
-3.29061265501713
 30
0.0
 11
0.0
 21
2.3020600771091
 31
0.0
  0
LINE
  5
   43B
  8
0
  6
DASHDOT
 62
     7
 10
-125.0
 20
74.0
 30
0.0
 11
-125.0
 21
76.0
 31
0.0
  0
LINE
  5
   43C
  8
0
  6
DASHDOT
 62
     7
 10
-126.0
 20
75.0
 30
0.0
 11
-124.0
 21
75.0
 31
0.0
  0
LINE
  5
   43D
  8
0
  6
CONTINUOUS
 62
     7
 10
5.75
 20
3.5
 30
0.0
 11
5.75
 21
34.75
 31
0.0
  0
LINE
  5
   43E
  8
0
  6
CONTINUOUS
 62
     7
 10
-155.25
 20
3.5
 30
0.0
 11
-155.25
 21
68.5
 31
0.0
  0
LINE
  5
   43F
  8
0
  6
CONTINUOUS
 62
     7
 10
-131.25
 20
77.25
 30
0.0
 11
-126.984313483298
 21
77.25
 31
0.0
  0
LINE
  5
   440
  8
0
  6
CONTINUOUS
 62
     7
 10
-4.0
 20
-2.25
 30
0.0
 11
-1.98431348329844
 21
-2.25
 31
0.0
  0
LINE
  5
   441
  8
0
  6
CONTINUOUS
 62
     7
 10
-7.25
 20
71.5
 30
0.0
 11
5.75
 21
71.5
 31
0.0
  0
LINE
  5
   442
  8
0
  6
CONTINUOUS
 62
     7
 10
-6.25
 20
3.5
 30
0.0
 11
5.75
 21
3.5
 31
0.0
  0
LINE
  5
   443
  8
0
  6
CONTINUOUS
 62
     7
 10
-7.25
 20
71.5
 30
0.0
 11
-7.25
 21
74.5
 31
0.0
  0
LINE
  5
   444
  8
0
  6
CONTINUOUS
 62
     7
 10
-155.25
 20
68.5
 30
0.0
 11
-117.75
 21
68.5
 31
0.0
  0
LINE
  5
   445
  8
0
  6
CONTINUOUS
 62
     7
 10
-6.25
 20
0.5
 30
0.0
 11
-6.25
 21
3.5
 31
0.0
  0
LINE
  5
   446
  8
0
  6
CONTINUOUS
 62
     7
 10
-120.25
 20
74.5
 30
0.0
 11
-7.25
 21
74.5
 31
0.0
  0
LINE
  5
   447
  8
0
  6
CONTINUOUS
 62
     7
 10
-117.75
 20
0.5
 30
0.0
 11
-4.5
 21
0.5
 31
0.0
  0
LINE
  5
   448
  8
0
  6
CONTINUOUS
 62
     7
 10
-118.75
 20
73.25
 30
0.0
 11
-118.75
 21
74.5
 31
0.0
  0
LINE
  5
   449
  8
0
  6
CONTINUOUS
 62
     7
 10
-155.25
 20
3.5
 30
0.0
 11
-117.75
 21
3.5
 31
0.0
  0
LINE
  5
   44A
  8
0
  6
CONTINUOUS
 62
     7
 10
-117.75
 20
0.5
 30
0.0
 11
-117.75
 21
3.5
 31
0.0
  0
LINE
  5
   44B
  8
0
  6
CONTINUOUS
 62
     7
 10
-148.25
 20
9.5
 30
0.0
 11
-148.25
 21
47.5
 31
0.0
  0
LINE
  5
   44C
  8
0
  6
CONTINUOUS
 62
     7
 10
-147.25
 20
8.5
 30
0.0
 11
-138.75
 21
8.5
 31
0.0
  0
LINE
  5
   44D
  8
0
  6
CONTINUOUS
 62
     7
 10
-137.75
 20
9.5
 30
0.0
 11
-137.75
 21
47.5
 31
0.0
  0
LINE
  5
   44E
  8
0
  6
CONTINUOUS
 62
     7
 10
-147.25
 20
48.5
 30
0.0
 11
-138.75
 21
48.5
 31
0.0
  0
LINE
  5
   44F
  8
0
  6
CONTINUOUS
 62
     7
 10
2.25
 20
42.5
 30
0.0
 11
5.75
 21
42.5
 31
0.0
  0
LINE
  5
   450
  8
0
  6
CONTINUOUS
 62
     7
 10
4.75
 20
42.5
 30
0.0
 11
4.75
 21
70.5
 31
0.0
  0
LINE
  5
   451
  8
0
  6
CONTINUOUS
 62
     7
 10
2.25
 20
24.0
 30
0.0
 11
2.25
 21
33.5
 31
0.0
  0
LINE
  5
   452
  8
0
  6
CONTINUOUS
 62
     7
 10
2.25
 20
70.5
 30
0.0
 11
4.75
 21
70.5
 31
0.0
  0
LINE
  5
   453
  8
0
  6
DASHED
 62
     7
 10
5.75
 20
42.5
 30
0.0
 11
5.75
 21
71.5
 31
0.0
  0
LINE
  5
   454
  8
0
  6
CONTINUOUS
 62
     7
 10
2.25
 20
34.75
 30
0.0
 11
5.75
 21
34.75
 31
0.0
  0
LINE
  5
   455
  8
0
  6
CONTINUOUS
 62
     7
 10
2.25
 20
33.5
 30
0.0
 11
5.75
 21
33.5
 31
0.0
  0
LINE
  5
   456
  8
0
  6
CONTINUOUS
 62
     7
 10
2.25
 20
33.0
 30
0.0
 11
5.75
 21
33.0
 31
0.0
  0
LINE
  5
   457
  8
0
  6
CONTINUOUS
 62
     7
 10
2.25
 20
24.0
 30
0.0
 11
5.75
 21
24.0
 31
0.0
  0
LINE
  5
   458
  8
0
  6
DASHED
 62
     7
 10
5.75
 20
33.5
 30
0.0
 11
5.75
 21
34.75
 31
0.0
  0
LINE
  5
   459
  8
0
  6
CONTINUOUS
 62
     7
 10
-131.25
 20
11.2499820366215
 30
0.0
 11
-131.25
 21
63.7500143988437
 31
0.0
  0
ARC
  5
   45A
  8
0
  6
CONTINUOUS
 62
     7
 10
-147.25
 20
9.5
 30
0.0
 40
1.0
 50
180.0
 51
270.0
  0
ARC
  5
   45B
  8
0
  6
CONTINUOUS
 62
     7
 10
-138.75
 20
9.5
 30
0.0
 40
1.0
 50
270.0
 51
360.0
  0
ARC
  5
   45C
  8
0
  6
CONTINUOUS
 62
     7
 10
-138.75
 20
47.5
 30
0.0
 40
1.0
 50
0.0
 51
90.0
  0
ARC
  5
   45D
  8
0
  6
CONTINUOUS
 62
     7
 10
-147.25
 20
47.5
 30
0.0
 40
1.0
 50
90.0
 51
180.0
  0
LINE
  5
   45E
  8
0
  6
CONTINUOUS
 62
     7
 10
-118.75
 20
73.25
 30
0.0
 11
-117.75
 21
73.25
 31
0.0
  0
LINE
  5
   45F
  8
0
  6
CONTINUOUS
 62
     2
 10
-137.25
 20
69.625
 30
0.0
 11
-137.25
 21
76.25
 31
0.0
  0
LINE
  5
   460
  8
0
  6
CONTINUOUS
 62
     2
 10
-121.394448724536
 20
73.125
 30
0.0
 11
-117.75
 21
73.125
 31
0.0
  0
LINE
  5
   461
  8
0
  6
CONTINUOUS
 62
     2
 10
-136.25
 20
68.625
 30
0.0
 11
-117.75
 21
68.625
 31
0.0
  0
LINE
  5
   462
  8
0
  6
CONTINUOUS
 62
     2
 10
-136.25
 20
77.25
 30
0.0
 11
-130.25
 21
77.25
 31
0.0
  0
ARC
  5
   463
  8
0
  6
CONTINUOUS
 62
     2
 10
-125.0
 20
75.375
 30
0.0
 40
4.25
 50
180.0
 51
328.034281249203
  0
ARC
  5
   464
  8
0
  6
CONTINUOUS
 62
     2
 10
-136.25
 20
76.25
 30
0.0
 40
1.0
 50
90.0
 51
180.0
  0
ARC
  5
   465
  8
0
  6
CONTINUOUS
 62
     2
 10
-136.25
 20
69.625
 30
0.0
 40
1.0
 50
180.0
 51
270.0
  0
LINE
  5
   466
  8
0
  6
CONTINUOUS
 62
     2
 10
-129.25
 20
75.375
 30
0.0
 11
-129.25
 21
76.25
 31
0.0
  0
ARC
  5
   467
  8
0
  6
CONTINUOUS
 62
     2
 10
-130.25
 20
76.25
 30
0.0
 40
1.0
 50
0.0
 51
90.0
  0
LINE
  5
   468
  8
0
  6
CONTINUOUS
 62
     7
 10
3.5
 20
-1.75
 30
0.0
 11
3.5
 21
3.5
 31
0.0
  0
LINE
  5
   469
  8
0
  6
CONTINUOUS
 62
     7
 10
-3.5
 20
-1.75
 30
0.0
 11
-3.5
 21
3.5
 31
0.0
  0
LINE
  5
   46A
  8
0
  6
CONTINUOUS
 62
     7
 10
1.98431348329844
 20
-2.25
 30
0.0
 11
4.0
 21
-2.25
 31
0.0
  0
LINE
  5
   46B
  8
0
  6
CONTINUOUS
 62
     7
 10
-121.5
 20
73.125
 30
0.0
 11
-121.5
 21
77.25
 31
0.0
  0
LINE
  5
   46C
  8
0
  6
CONTINUOUS
 62
     7
 10
-123.015686516702
 20
77.25
 30
0.0
 11
-120.75
 21
77.25
 31
0.0
  0
LINE
  5
   46D
  8
0
  6
CONTINUOUS
 62
     7
 10
4.5
 20
-1.75
 30
0.0
 11
4.5
 21
3.5
 31
0.0
  0
LINE
  5
   46E
  8
0
  6
CONTINUOUS
 62
     7
 10
-4.5
 20
-1.75
 30
0.0
 11
-4.5
 21
0.5
 31
0.0
  0
LINE
  5
   46F
  8
0
  6
CONTINUOUS
 62
     7
 10
-120.25
 20
74.5
 30
0.0
 11
-120.25
 21
76.75
 31
0.0
  0
ARC
  5
   470
  8
0
  6
CONTINUOUS
 62
     7
 10
-120.75
 20
76.75
 30
0.0
 40
0.5
 50
0.0
 51
90.0
  0
ARC
  5
   471
  8
0
  6
CONTINUOUS
 62
     7
 10
-4.0
 20
-1.75
 30
0.0
 40
0.5
 50
180.0
 51
270.0
  0
ARC
  5
   472
  8
0
  6
CONTINUOUS
 62
     7
 10
4.0
 20
-1.75
 30
0.0
 40
0.5
 50
270.0
 51
360.0
  0
ARC
  5
   473
  8
0
  6
CONTINUOUS
 62
     7
 10
4.0
 20
-1.75
 30
0.0
 40
0.5
 50
180.0
 51
270.0
  0
ARC
  5
   474
  8
0
  6
CONTINUOUS
 62
     7
 10
-4.0
 20
-1.75
 30
0.0
 40
0.5
 50
270.0
 51
360.0
  0
LINE
  5
   475
  8
0
  6
CONTINUOUS
 62
     7
 10
2.25
 20
34.75
 30
0.0
 11
2.25
 21
70.5
 31
0.0
  0
LINE
  5
   476
  8
0
  6
CONTINUOUS
 62
     7
 10
2.25
 20
43.5
 30
0.0
 11
4.75
 21
43.5
 31
0.0
  0
LINE
  5
   477
  8
0
  6
CONTINUOUS
 62
     7
 10
-154.0
 20
5.25
 30
0.0
 11
-154.0
 21
15.25
 31
0.0
  0
LINE
  5
   478
  8
0
  6
CONTINUOUS
 62
     7
 10
-153.5
 20
4.75
 30
0.0
 11
-152.875
 21
4.75
 31
0.0
  0
ARC
  5
   479
  8
0
  6
CONTINUOUS
 62
     7
 10
-153.5
 20
5.25
 30
0.0
 40
0.5
 50
180.0
 51
270.0
  0
LINE
  5
   47A
  8
0
  6
CONTINUOUS
 62
     7
 10
-150.25
 20
52.25
 30
0.0
 11
-150.25
 21
66.0
 31
0.0
  0
LINE
  5
   47B
  8
0
  6
CONTINUOUS
 62
     7
 10
-137.75
 20
53.5
 30
0.0
 11
-137.75
 21
66.0
 31
0.0
  0
LINE
  5
   47C
  8
0
  6
DASHED
 62
     7
 10
5.75
 20
23.5
 30
0.0
 11
5.75
 21
33.0
 31
0.0
  0
LINE
  5
   47D
  8
0
  6
CONTINUOUS
 62
     7
 10
-152.375
 20
5.25
 30
0.0
 11
-152.375
 21
15.25
 31
0.0
  0
ARC
  5
   47E
  8
0
  6
CONTINUOUS
 62
     7
 10
-152.875
 20
5.25
 30
0.0
 40
0.5
 50
270.0
 51
360.0
  0
LINE
  5
   47F
  8
0
  6
CONTINUOUS
 62
     7
 10
-150.625
 20
4.75
 30
0.0
 11
-150.25
 21
4.75
 31
0.0
  0
LINE
  5
   480
  8
0
  6
CONTINUOUS
 62
     7
 10
-151.125
 20
5.25
 30
0.0
 11
-151.125
 21
15.25
 31
0.0
  0
ARC
  5
   481
  8
0
  6
CONTINUOUS
 62
     7
 10
-150.625
 20
5.25
 30
0.0
 40
0.5
 50
180.0
 51
270.0
  0
LINE
  5
   482
  8
0
  6
CONTINUOUS
 62
     7
 10
-117.75
 20
68.5
 30
0.0
 11
-117.75
 21
73.25
 31
0.0
  0
LINE
  5
   483
  8
0
  6
DASHDOT
 62
     7
 10
-9.75
 20
45.4075
 30
0.0
 11
-9.75
 21
51.4075
 31
0.0
  0
LINE
  5
   484
  8
0
  6
DASHDOT
 62
     7
 10
-12.75
 20
48.4075
 30
0.0
 11
-6.75
 21
48.4075
 31
0.0
  0
LINE
  5
   485
  8
0
  6
DASHDOT
 62
     7
 10
-9.75
 20
25.75
 30
0.0
 11
-9.75
 21
31.75
 31
0.0
  0
LINE
  5
   486
  8
0
  6
DASHDOT
 62
     7
 10
-12.75
 20
28.75
 30
0.0
 11
-6.75
 21
28.75
 31
0.0
  0
CIRCLE
  5
   487
  8
0
  6
CONTINUOUS
 62
     7
 10
-9.75
 20
48.4075
 30
0.0
 40
1.375
  0
CIRCLE
  5
   488
  8
0
  6
CONTINUOUS
 62
     7
 10
-9.75
 20
28.75
 30
0.0
 40
1.375
  0
LINE
  5
   489
  8
0
  6
CONTINUOUS
 62
     7
 10
-57.25
 20
4.0
 30
0.0
 11
-57.25
 21
11.2500076293945
 31
0.0
  0
LINE
  5
   48A
  8
0
  6
CONTINUOUS
 62
     7
 10
-74.25
 20
3.5
 30
0.0
 11
-57.75
 21
3.5
 31
0.0
  0
LINE
  5
   48B
  8
0
  6
CONTINUOUS
 62
     7
 10
-74.75
 20
4.0
 30
0.0
 11
-74.75
 21
11.2500076293945
 31
0.0
  0
ARC
  5
   48C
  8
0
  6
CONTINUOUS
 62
     7
 10
-57.75
 20
4.0
 30
0.0
 40
0.5
 50
270.0
 51
360.0
  0
ARC
  5
   48D
  8
0
  6
CONTINUOUS
 62
     7
 10
-74.25
 20
4.0
 30
0.0
 40
0.5
 50
180.0
 51
270.0
  0
ARC
  5
   48E
  8
0
  6
CONTINUOUS
 62
     7
 10
-75.25
 20
11.0
 30
0.0
 40
0.5
 50
0.0
 51
90.0
  0
LINE
  5
   48F
  8
0
  6
CONTINUOUS
 62
     7
 10
-155.25
 20
53.5
 30
0.0
 11
-137.75
 21
53.5
 31
0.0
  0
LINE
  5
   490
  8
0
  6
CONTINUOUS
 62
     7
 10
-150.25
 20
66.0
 30
0.0
 11
-137.75
 21
66.0
 31
0.0
  0
LINE
  5
   491
  8
0
  6
CONTINUOUS
 62
     7
 10
-153.5
 20
27.875
 30
0.0
 11
-152.875
 21
27.875
 31
0.0
  0
LINE
  5
   492
  8
0
  6
CONTINUOUS
 62
     7
 10
-153.5
 20
17.0
 30
0.0
 11
-152.875
 21
17.0
 31
0.0
  0
LINE
  5
   493
  8
0
  6
CONTINUOUS
 62
     7
 10
-154.0
 20
17.5
 30
0.0
 11
-154.0
 21
27.375
 31
0.0
  0
LINE
  5
   494
  8
0
  6
CONTINUOUS
 62
     7
 10
-152.375
 20
17.5
 30
0.0
 11
-152.375
 21
27.375
 31
0.0
  0
LINE
  5
   495
  8
0
  6
CONTINUOUS
 62
     7
 10
-151.125
 20
17.5
 30
0.0
 11
-151.125
 21
27.375
 31
0.0
  0
LINE
  5
   496
  8
0
  6
CONTINUOUS
 62
     7
 10
-153.5
 20
15.75
 30
0.0
 11
-152.875
 21
15.75
 31
0.0
  0
LINE
  5
   497
  8
0
  6
CONTINUOUS
 62
     7
 10
-150.625
 20
15.75
 30
0.0
 11
-150.25
 21
15.75
 31
0.0
  0
LINE
  5
   498
  8
0
  6
CONTINUOUS
 62
     7
 10
-150.625
 20
17.0
 30
0.0
 11
-150.25
 21
17.0
 31
0.0
  0
ARC
  5
   499
  8
0
  6
CONTINUOUS
 62
     7
 10
-150.625
 20
15.25
 30
0.0
 40
0.5
 50
90.0
 51
180.0
  0
ARC
  5
   49A
  8
0
  6
CONTINUOUS
 62
     7
 10
-152.875
 20
15.25
 30
0.0
 40
0.5
 50
0.0
 51
90.0
  0
ARC
  5
   49B
  8
0
  6
CONTINUOUS
 62
     7
 10
-153.5
 20
15.25
 30
0.0
 40
0.5
 50
90.0
 51
180.0
  0
ARC
  5
   49C
  8
0
  6
CONTINUOUS
 62
     7
 10
-153.5
 20
17.5
 30
0.0
 40
0.5
 50
180.0
 51
270.0
  0
ARC
  5
   49D
  8
0
  6
CONTINUOUS
 62
     7
 10
-152.875
 20
17.5
 30
0.0
 40
0.5
 50
270.0
 51
360.0
  0
ARC
  5
   49E
  8
0
  6
CONTINUOUS
 62
     7
 10
-150.625
 20
17.5
 30
0.0
 40
0.5
 50
180.0
 51
270.0
  0
LINE
  5
   49F
  8
0
  6
CONTINUOUS
 62
     7
 10
-150.625
 20
27.875
 30
0.0
 11
-150.25
 21
27.875
 31
0.0
  0
ARC
  5
   4A0
  8
0
  6
CONTINUOUS
 62
     7
 10
-152.875
 20
27.375
 30
0.0
 40
0.5
 50
0.0
 51
90.0
  0
ARC
  5
   4A1
  8
0
  6
CONTINUOUS
 62
     7
 10
-153.5
 20
27.375
 30
0.0
 40
0.5
 50
90.0
 51
180.0
  0
ARC
  5
   4A2
  8
0
  6
CONTINUOUS
 62
     7
 10
-150.625
 20
27.375
 30
0.0
 40
0.5
 50
90.0
 51
180.0
  0
LINE
  5
   4A3
  8
0
  6
CONTINUOUS
 62
     7
 10
-154.0
 20
41.75
 30
0.0
 11
-154.0
 21
51.75
 31
0.0
  0
LINE
  5
   4A4
  8
0
  6
CONTINUOUS
 62
     7
 10
-153.5
 20
52.25
 30
0.0
 11
-152.875
 21
52.25
 31
0.0
  0
ARC
  5
   4A5
  8
0
  6
CONTINUOUS
 62
     7
 10
-153.5
 20
51.75
 30
0.0
 40
0.5
 50
90.0
 51
180.0
  0
LINE
  5
   4A6
  8
0
  6
CONTINUOUS
 62
     7
 10
-152.375
 20
41.75
 30
0.0
 11
-152.375
 21
51.75
 31
0.0
  0
ARC
  5
   4A7
  8
0
  6
CONTINUOUS
 62
     7
 10
-152.875
 20
51.75
 30
0.0
 40
0.5
 50
1.40334185970697E-14
 51
90.0
  0
LINE
  5
   4A8
  8
0
  6
CONTINUOUS
 62
     7
 10
-150.625
 20
52.25
 30
0.0
 11
-150.25
 21
52.25
 31
0.0
  0
LINE
  5
   4A9
  8
0
  6
CONTINUOUS
 62
     7
 10
-151.125
 20
41.75
 30
0.0
 11
-151.125
 21
51.75
 31
0.0
  0
ARC
  5
   4AA
  8
0
  6
CONTINUOUS
 62
     7
 10
-150.625
 20
51.75
 30
0.0
 40
0.5
 50
90.0
 51
180.0
  0
LINE
  5
   4AB
  8
0
  6
CONTINUOUS
 62
     7
 10
-153.5
 20
29.125
 30
0.0
 11
-152.875
 21
29.125
 31
0.0
  0
LINE
  5
   4AC
  8
0
  6
CONTINUOUS
 62
     7
 10
-153.5
 20
40.0
 30
0.0
 11
-152.875
 21
40.0
 31
0.0
  0
LINE
  5
   4AD
  8
0
  6
CONTINUOUS
 62
     7
 10
-154.0
 20
29.625
 30
0.0
 11
-154.0
 21
39.5
 31
0.0
  0
LINE
  5
   4AE
  8
0
  6
CONTINUOUS
 62
     7
 10
-152.375
 20
29.625
 30
0.0
 11
-152.375
 21
39.5
 31
0.0
  0
LINE
  5
   4AF
  8
0
  6
CONTINUOUS
 62
     7
 10
-151.125
 20
29.625
 30
0.0
 11
-151.125
 21
39.5
 31
0.0
  0
LINE
  5
   4B0
  8
0
  6
CONTINUOUS
 62
     7
 10
-153.5
 20
41.25
 30
0.0
 11
-152.875
 21
41.25
 31
0.0
  0
LINE
  5
   4B1
  8
0
  6
CONTINUOUS
 62
     7
 10
-150.625
 20
41.25
 30
0.0
 11
-150.25
 21
41.25
 31
0.0
  0
LINE
  5
   4B2
  8
0
  6
CONTINUOUS
 62
     7
 10
-150.625
 20
40.0
 30
0.0
 11
-150.25
 21
40.0
 31
0.0
  0
ARC
  5
   4B3
  8
0
  6
CONTINUOUS
 62
     7
 10
-150.625
 20
41.75
 30
0.0
 40
0.5
 50
180.0
 51
270.0
  0
ARC
  5
   4B4
  8
0
  6
CONTINUOUS
 62
     7
 10
-152.875
 20
41.75
 30
0.0
 40
0.5
 50
270.0
 51
360.0
  0
ARC
  5
   4B5
  8
0
  6
CONTINUOUS
 62
     7
 10
-153.5
 20
41.75
 30
0.0
 40
0.5
 50
180.0
 51
270.0
  0
ARC
  5
   4B6
  8
0
  6
CONTINUOUS
 62
     7
 10
-153.5
 20
39.5
 30
0.0
 40
0.5
 50
90.0
 51
180.0
  0
ARC
  5
   4B7
  8
0
  6
CONTINUOUS
 62
     7
 10
-152.875
 20
39.5
 30
0.0
 40
0.5
 50
1.40334185970697E-14
 51
90.0
  0
ARC
  5
   4B8
  8
0
  6
CONTINUOUS
 62
     7
 10
-150.625
 20
39.5
 30
0.0
 40
0.5
 50
90.0
 51
180.0
  0
LINE
  5
   4B9
  8
0
  6
CONTINUOUS
 62
     7
 10
-150.625
 20
29.125
 30
0.0
 11
-150.25
 21
29.125
 31
0.0
  0
ARC
  5
   4BA
  8
0
  6
CONTINUOUS
 62
     7
 10
-152.875
 20
29.625
 30
0.0
 40
0.5
 50
270.0
 51
360.0
  0
ARC
  5
   4BB
  8
0
  6
CONTINUOUS
 62
     7
 10
-153.5
 20
29.625
 30
0.0
 40
0.5
 50
180.0
 51
270.0
  0
ARC
  5
   4BC
  8
0
  6
CONTINUOUS
 62
     7
 10
-150.625
 20
29.625
 30
0.0
 40
0.5
 50
180.0
 51
270.0
  0
LINE
  5
   4BD
  8
0
  6
DASHDOT
 62
     7
 10
4.51570648429822E-7
 20
-5.09845045372682
 30
0.0
 11
4.51570648429822E-7
 21
2.28663046285733
 31
0.0
  0
ARC
  5
   4BE
  8
0
  6
CONTINUOUS
 62
     1
 10
6.25000079118334
 20
2.80653619539304E-7
 30
0.0
 40
2.5
 50
225.535362919653
 51
494.427029391511
  0
LINE
  5
   4BF
  8
0
  6
CONTINUOUS
 62
     1
 10
5.92500079118334
 20
1.32500028065362
 30
0.0
 11
6.57500079118334
 21
1.32500028065362
 31
0.0
  0
LINE
  5
   4C0
  8
0
  6
CONTINUOUS
 62
     1
 10
5.92500079118334
 20
-1.32499971934638
 30
0.0
 11
6.57500079118334
 21
-1.32499971934638
 31
0.0
  0
LINE
  5
   4C1
  8
0
  6
CONTINUOUS
 62
     1
 10
4.92500079118334
 20
-0.32499971934638
 30
0.0
 11
4.92500079118334
 21
0.32500028065362
 31
0.0
  0
LINE
  5
   4C2
  8
0
  6
CONTINUOUS
 62
     1
 10
7.57500079118334
 20
-0.32499971934638
 30
0.0
 11
7.57500079118334
 21
0.32500028065362
 31
0.0
  0
LINE
  5
   4C3
  8
0
  6
CONTINUOUS
 62
     1
 10
4.92500079118334
 20
0.32500028065362
 30
0.0
 11
5.92500079118334
 21
0.32500028065362
 31
0.0
  0
LINE
  5
   4C4
  8
0
  6
CONTINUOUS
 62
     1
 10
4.92500079118334
 20
-0.32499971934638
 30
0.0
 11
5.92500079118334
 21
-0.32499971934638
 31
0.0
  0
LINE
  5
   4C5
  8
0
  6
CONTINUOUS
 62
     1
 10
5.92500079118334
 20
-1.32499971934638
 30
0.0
 11
5.92500079118334
 21
-0.32499971934638
 31
0.0
  0
LINE
  5
   4C6
  8
0
  6
CONTINUOUS
 62
     1
 10
6.57500079118334
 20
-1.32499971934638
 30
0.0
 11
6.57500079118334
 21
-0.32499971934638
 31
0.0
  0
LINE
  5
   4C7
  8
0
  6
CONTINUOUS
 62
     1
 10
5.92500079118334
 20
0.32500028065362
 30
0.0
 11
5.92500079118334
 21
1.32500028065362
 31
0.0
  0
LINE
  5
   4C8
  8
0
  6
CONTINUOUS
 62
     1
 10
6.57500079118334
 20
0.32500028065362
 30
0.0
 11
6.57500079118334
 21
1.32500028065362
 31
0.0
  0
LINE
  5
   4C9
  8
0
  6
CONTINUOUS
 62
     1
 10
6.57500079118334
 20
0.32500028065362
 30
0.0
 11
7.57500079118334
 21
0.32500028065362
 31
0.0
  0
LINE
  5
   4CA
  8
0
  6
CONTINUOUS
 62
     1
 10
6.57500079118334
 20
-0.32499971934638
 30
0.0
 11
7.57500079118334
 21
-0.32499971934638
 31
0.0
  0
LINE
  5
   4CB
  8
0
  6
DASHDOT
 62
     7
 10
6.25000079118334
 20
-3.49999971934638
 30
0.0
 11
6.25000079118334
 21
3.50000028065362
 31
0.0
  0
CIRCLE
  5
   4CC
  8
0
  6
CONTINUOUS
 62
     3
 10
0.0
 20
0.0
 30
0.0
 40
3.0
  0
LINE
  5
   4CD
  8
0
  6
CONTINUOUS
 62
     3
 10
-0.355
 20
1.7
 30
0.0
 11
0.355
 21
1.7
 31
0.0
  0
LINE
  5
   4CE
  8
0
  6
CONTINUOUS
 62
     3
 10
-0.355
 20
-1.7
 30
0.0
 11
0.355
 21
-1.7
 31
0.0
  0
LINE
  5
   4CF
  8
0
  6
CONTINUOUS
 62
     3
 10
-1.7
 20
-0.355
 30
0.0
 11
-1.7
 21
0.355
 31
0.0
  0
LINE
  5
   4D0
  8
0
  6
CONTINUOUS
 62
     3
 10
1.7
 20
-0.355
 30
0.0
 11
1.7
 21
0.355
 31
0.0
  0
LINE
  5
   4D1
  8
0
  6
CONTINUOUS
 62
     3
 10
-1.7
 20
0.355
 30
0.0
 11
-0.355
 21
0.355
 31
0.0
  0
LINE
  5
   4D2
  8
0
  6
CONTINUOUS
 62
     3
 10
-1.7
 20
-0.355
 30
0.0
 11
-0.355
 21
-0.355
 31
0.0
  0
LINE
  5
   4D3
  8
0
  6
CONTINUOUS
 62
     3
 10
-0.355
 20
-1.7
 30
0.0
 11
-0.355
 21
-0.355
 31
0.0
  0
LINE
  5
   4D4
  8
0
  6
CONTINUOUS
 62
     3
 10
0.355
 20
-1.7
 30
0.0
 11
0.355
 21
-0.355
 31
0.0
  0
LINE
  5
   4D5
  8
0
  6
CONTINUOUS
 62
     3
 10
-0.355
 20
0.355
 30
0.0
 11
-0.355
 21
1.7
 31
0.0
  0
LINE
  5
   4D6
  8
0
  6
CONTINUOUS
 62
     3
 10
0.355
 20
0.355
 30
0.0
 11
0.355
 21
1.7
 31
0.0
  0
LINE
  5
   4D7
  8
0
  6
CONTINUOUS
 62
     3
 10
0.355
 20
0.355
 30
0.0
 11
1.7
 21
0.355
 31
0.0
  0
LINE
  5
   4D8
  8
0
  6
CONTINUOUS
 62
     3
 10
0.355
 20
-0.355
 30
0.0
 11
1.7
 21
-0.355
 31
0.0
  0
LINE
  5
   4D9
  8
0
  6
DASHDOT
 62
     7
 10
0.0
 20
-4.0
 30
0.0
 11
0.0
 21
4.0
 31
0.0
  0
CIRCLE
  5
   4DA
  8
0
  6
CONTINUOUS
 62
     3
 10
-125.0
 20
75.0
 30
0.0
 40
3.0
  0
LINE
  5
   4DB
  8
0
  6
CONTINUOUS
 62
     3
 10
-125.355
 20
76.7
 30
0.0
 11
-124.645
 21
76.7
 31
0.0
  0
LINE
  5
   4DC
  8
0
  6
CONTINUOUS
 62
     3
 10
-125.355
 20
73.3
 30
0.0
 11
-124.645
 21
73.3
 31
0.0
  0
LINE
  5
   4DD
  8
0
  6
CONTINUOUS
 62
     3
 10
-126.7
 20
74.645
 30
0.0
 11
-126.7
 21
75.355
 31
0.0
  0
LINE
  5
   4DE
  8
0
  6
CONTINUOUS
 62
     3
 10
-123.3
 20
74.645
 30
0.0
 11
-123.3
 21
75.355
 31
0.0
  0
LINE
  5
   4DF
  8
0
  6
CONTINUOUS
 62
     3
 10
-126.7
 20
75.355
 30
0.0
 11
-125.355
 21
75.355
 31
0.0
  0
LINE
  5
   4E0
  8
0
  6
CONTINUOUS
 62
     3
 10
-126.7
 20
74.645
 30
0.0
 11
-125.355
 21
74.645
 31
0.0
  0
LINE
  5
   4E1
  8
0
  6
CONTINUOUS
 62
     3
 10
-125.355
 20
73.3
 30
0.0
 11
-125.355
 21
74.645
 31
0.0
  0
LINE
  5
   4E2
  8
0
  6
CONTINUOUS
 62
     3
 10
-124.645
 20
73.3
 30
0.0
 11
-124.645
 21
74.645
 31
0.0
  0
LINE
  5
   4E3
  8
0
  6
CONTINUOUS
 62
     3
 10
-125.355
 20
75.355
 30
0.0
 11
-125.355
 21
76.7
 31
0.0
  0
LINE
  5
   4E4
  8
0
  6
CONTINUOUS
 62
     3
 10
-124.645
 20
75.355
 30
0.0
 11
-124.645
 21
76.7
 31
0.0
  0
LINE
  5
   4E5
  8
0
  6
CONTINUOUS
 62
     3
 10
-124.645
 20
75.355
 30
0.0
 11
-123.3
 21
75.355
 31
0.0
  0
LINE
  5
   4E6
  8
0
  6
CONTINUOUS
 62
     3
 10
-124.645
 20
74.645
 30
0.0
 11
-123.3
 21
74.645
 31
0.0
  0
LINE
  5
   4E7
  8
0
  6
DASHDOT
 62
     7
 10
-125.0
 20
71.0
 30
0.0
 11
-125.0
 21
79.0
 31
0.0
  0
LINE
  5
   4E8
  8
0
  6
DASHDOT
 62
     7
 10
-170.526957968216
 20
75.0
 30
0.0
 11
-121.0
 21
75.0
 31
0.0
  0
LINE
  5
   4E9
  8
0
  6
DASHDOT
 62
     7
 10
-3.8870691102182
 20
0.0
 30
0.0
 11
8.85950781161968
 21
0.0
 31
0.0
  0
LINE
  5
   4EA
  8
0
  6
CONTINUOUS
 62
     5
 10
9.75000079118334
 20
4.47446537843659
 30
0.0
 11
15.0000010372823
 21
1.44337647731935
 31
0.0
  0
LINE
  5
   4EB
  8
0
  6
CONTINUOUS
 62
     5
 10
0.186142175652112
 20
-2.99421961292813
 30
0.0
 11
2.79423044379378
 21
-4.50000000000002
 31
0.0
  0
LINE
  5
   4EC
  8
0
  6
CONTINUOUS
 62
     5
 10
9.70577059509871
 20
-4.50000000000002
 30
0.0
 11
15.0000010372823
 21
-1.44337478456622
 31
0.0
  0
LINE
  5
   4ED
  8
0
  6
CONTINUOUS
 62
     5
 10
15.0000004768372
 20
-1.4433748602961
 30
0.0
 11
15.0000004768372
 21
1.44337655304923
 31
0.0
  0
CIRCLE
  5
   4EE
  8
0
  6
CONTINUOUS
 62
     5
 10
12.5000004243367
 20
-1.44102677644467E-14
 30
0.0
 40
1.375
  0
LINE
  5
   4EF
  8
0
  6
DASHDOT
 62
     7
 10
12.5000004243367
 20
-2.24488879301616
 30
0.0
 11
12.5000004243367
 21
2.11263862977093
 31
0.0
  0
LINE
  5
   4F0
  8
0
  6
DASHDOT
 62
     7
 10
-171.071382124043
 20
-1.51756721465741E-14
 30
0.0
 11
18.802410750022
 21
-1.51756721465741E-14
 31
0.0
  0
LINE
  5
   4F1
  8
0
  6
DASHDOT
 62
     7
 10
4.51570648429822E-7
 20
-5.09844960735026
 30
0.0
 11
4.51570648429822E-7
 21
85.98159872897
 31
0.0
  0
LINE
  5
   4F2
  8
0
  6
CONTINUOUS
 62
     5
 10
8.50000047683716
 20
4.74999999999998
 30
0.0
 11
8.50000047683716
 21
20.25
 31
0.0
  0
LINE
  5
   4F3
  8
0
  6
CONTINUOUS
 62
     5
 10
5.75
 20
4.49999999999998
 30
0.0
 11
8.25000047683716
 21
4.49999999999998
 31
0.0
  0
LINE
  5
   4F4
  8
0
  6
CONTINUOUS
 62
     5
 10
2.79422751185915
 20
-4.50000000000002
 30
0.0
 11
9.70577059509871
 21
-4.50000000000002
 31
0.0
  0
LINE
  5
   4F5
  8
0
  6
CONTINUOUS
 62
     5
 10
7.12500079118334
 20
4.49999999999998
 30
0.0
 11
7.12500079118334
 21
20.5
 31
0.0
  0
ARC
  5
   4F6
  8
0
  6
CONTINUOUS
 62
     5
 10
8.25000047683716
 20
4.74999999999998
 30
0.0
 40
0.25
 50
270.0
 51
360.0
  0
LINE
  5
   4F7
  8
0
  6
CONTINUOUS
 62
     5
 10
9.75000079118334
 20
4.47446537843659
 30
0.0
 11
9.75000079118334
 21
20.5255363143165
 31
0.0
  0
CIRCLE
  5
   4F8
  8
0
  6
CONTINUOUS
 62
     5
 10
12.5000004243367
 20
-1.44102677644467E-14
 30
0.0
 40
1.625
  0
LINE
  5
   4F9
  8
0
  6
CONTINUOUS
 62
     5
 10
9.75000079118334
 20
29.4744653784366
 30
0.0
 11
15.0000010372823
 21
26.4433764773194
 31
0.0
  0
LINE
  5
   4FA
  8
0
  6
CONTINUOUS
 62
     5
 10
9.75000079118334
 20
20.5255363143165
 30
0.0
 11
15.0000010372823
 21
23.5566252154338
 31
0.0
  0
LINE
  5
   4FB
  8
0
  6
CONTINUOUS
 62
     5
 10
15.0000004768372
 20
23.5566251397039
 30
0.0
 11
15.0000004768372
 21
26.4433765530492
 31
0.0
  0
CIRCLE
  5
   4FC
  8
0
  6
CONTINUOUS
 62
     5
 10
12.5000004243367
 20
25.0
 30
0.0
 40
1.375
  0
LINE
  5
   4FD
  8
0
  6
DASHDOT
 62
     7
 10
12.5000004243367
 20
22.5900815401516
 30
0.0
 11
12.5000004243367
 21
27.1126386297709
 31
0.0
  0
LINE
  5
   4FE
  8
0
  6
DASHDOT
 62
     7
 10
9.88007202471394
 20
25.0
 30
0.0
 11
15.4590796937702
 21
25.0
 31
0.0
  0
LINE
  5
   4FF
  8
0
  6
CONTINUOUS
 62
     5
 10
5.75
 20
20.5
 30
0.0
 11
8.25000047683716
 21
20.5
 31
0.0
  0
CIRCLE
  5
   500
  8
0
  6
CONTINUOUS
 62
     5
 10
12.5000004243367
 20
25.0
 30
0.0
 40
1.625
  0
LINE
  5
   501
  8
0
  6
CONTINUOUS
 62
     5
 10
9.70577352703334
 20
54.5
 30
0.0
 11
15.0000010372823
 21
51.4433764773194
 31
0.0
  0
LINE
  5
   502
  8
0
  6
CONTINUOUS
 62
     5
 10
9.75000079118335
 20
45.5255363143166
 30
0.0
 11
15.0000010372823
 21
48.5566252154338
 31
0.0
  0
LINE
  5
   503
  8
0
  6
CONTINUOUS
 62
     5
 10
15.0000004768372
 20
48.5566251397039
 30
0.0
 11
15.0000004768372
 21
51.4433765530492
 31
0.0
  0
CIRCLE
  5
   504
  8
0
  6
CONTINUOUS
 62
     5
 10
12.5000004243367
 20
50.0
 30
0.0
 40
1.375
  0
LINE
  5
   505
  8
0
  6
DASHDOT
 62
     7
 10
12.5000004243367
 20
47.5514883482167
 30
0.0
 11
12.5000004243367
 21
52.3658477325814
 31
0.0
  0
LINE
  5
   506
  8
0
  6
DASHDOT
 62
     7
 10
9.99865417152587
 20
50.0
 30
0.0
 11
15.9955227388718
 21
50.0
 31
0.0
  0
CIRCLE
  5
   507
  8
0
  6
CONTINUOUS
 62
     5
 10
12.5000004243367
 20
50.0
 30
0.0
 40
1.625
  0
ARC
  5
   508
  8
0
  6
CONTINUOUS
 62
     5
 10
8.25000047683716
 20
20.25
 30
0.0
 40
0.25
 50
360.0
 51
450.0
  0
LINE
  5
   509
  8
0
  6
CONTINUOUS
 62
     5
 10
9.75000079118334
 20
29.4744636856834
 30
0.0
 11
9.75000079118334
 21
45.5255346215634
 31
0.0
  0
LINE
  5
   50A
  8
0
  6
CONTINUOUS
 62
     5
 10
5.75
 20
54.5
 30
0.0
 11
9.70577352703334
 21
54.5
 31
0.0
  0
ARC
  5
   50B
  8
0
  6
CONTINUOUS
 62
     5
 10
12.5000004243367
 20
-1.44102677644467E-14
 30
0.0
 40
2.625
 50
129.645574218739
 51
230.354394620329
  0
LINE
  5
   50C
  8
0
  6
CONTINUOUS
 62
     5
 10
9.37083705125208
 20
3.24999999999998
 30
0.0
 11
10.7906449938561
 21
2.43027354384546
 31
0.0
  0
LINE
  5
   50D
  8
0
  6
CONTINUOUS
 62
     5
 10
4.5
 20
3.24999999999998
 30
0.0
 11
9.37083705125208
 21
3.24999999999998
 31
0.0
  0
LINE
  5
   50E
  8
0
  6
CONTINUOUS
 62
     5
 10
9.37083411931745
 20
-3.25000000000002
 30
0.0
 11
10.790643789875
 21
-2.43027254621106
 31
0.0
  0
LINE
  5
   50F
  8
0
  6
CONTINUOUS
 62
     5
 10
3.12916691957504
 20
-3.25000000000001
 30
0.0
 11
9.37083411931745
 21
-3.25000000000001
 31
0.0
  0
LINE
  5
   510
  8
0
  6
CONTINUOUS
 62
     5
 10
1.73680622668662
 20
-2.44612022005105
 30
0.0
 11
3.12916691957504
 21
-3.25000000000001
 31
0.0
  0
ARC
  5
   511
  8
0
  6
CONTINUOUS
 62
     5
 10
10.6656449986258
 20
2.21376719014554
 30
0.0
 40
0.25
 50
309.645574218739
 51
420.000001262255
  0
ARC
  5
   512
  8
0
  6
CONTINUOUS
 62
     5
 10
10.6656437946448
 20
-2.21376619251114
 30
0.0
 40
0.25
 50
299.999998737745
 51
410.354394620329
  0
LINE
  5
   513
  8
0
  6
CONTINUOUS
 62
     5
 10
5.75
 20
28.25
 30
0.0
 11
9.37083705125208
 21
28.25
 31
0.0
  0
LINE
  5
   514
  8
0
  6
CONTINUOUS
 62
     5
 10
9.37083705125208
 20
28.25
 30
0.0
 11
10.7906449938561
 21
27.4302735438455
 31
0.0
  0
ARC
  5
   515
  8
0
  6
CONTINUOUS
 62
     5
 10
12.5000004243367
 20
25.0
 30
0.0
 40
2.625
 50
129.645574218739
 51
230.354394620329
  0
ARC
  5
   516
  8
0
  6
CONTINUOUS
 62
     5
 10
10.6656437946448
 20
22.7862338074889
 30
0.0
 40
0.25
 50
299.999998737745
 51
410.354394620329
  0
LINE
  5
   517
  8
0
  6
CONTINUOUS
 62
     5
 10
9.37083411931746
 20
21.75
 30
0.0
 11
10.790643789875
 21
22.5697274537889
 31
0.0
  0
LINE
  5
   518
  8
0
  6
CONTINUOUS
 62
     5
 10
5.75
 20
21.75
 30
0.0
 11
9.37083411931745
 21
21.75
 31
0.0
  0
ARC
  5
   519
  8
0
  6
CONTINUOUS
 62
     5
 10
10.6656449986258
 20
27.2137671901455
 30
0.0
 40
0.25
 50
309.645574218739
 51
420.000001262255
  0
ARC
  5
   51A
  8
0
  6
CONTINUOUS
 62
     5
 10
10.6656449986258
 20
52.2137671901455
 30
0.0
 40
0.25
 50
309.645574218739
 51
420.000001262255
  0
LINE
  5
   51B
  8
0
  6
CONTINUOUS
 62
     5
 10
5.75
 20
53.25
 30
0.0
 11
9.37083705125208
 21
53.25
 31
0.0
  0
LINE
  5
   51C
  8
0
  6
CONTINUOUS
 62
     5
 10
9.37083705125209
 20
53.25
 30
0.0
 11
10.7906449938561
 21
52.4302735438455
 31
0.0
  0
ARC
  5
   51D
  8
0
  6
CONTINUOUS
 62
     5
 10
12.5000004243367
 20
50.0
 30
0.0
 40
2.625
 50
129.645574218739
 51
230.354394620329
  0
LINE
  5
   51E
  8
0
  6
CONTINUOUS
 62
     5
 10
9.37083411931746
 20
46.75
 30
0.0
 11
10.790643789875
 21
47.5697274537889
 31
0.0
  0
LINE
  5
   51F
  8
0
  6
CONTINUOUS
 62
     5
 10
5.75
 20
46.75
 30
0.0
 11
9.37083411931745
 21
46.75
 31
0.0
  0
ARC
  5
   520
  8
0
  6
CONTINUOUS
 62
     5
 10
10.6656437946448
 20
47.7862338074889
 30
0.0
 40
0.25
 50
299.999998737745
 51
410.354394620329
  0
LINE
  5
   521
  8
0
  6
CONTINUOUS
 62
     7
 10
-55.6250076293945
 20
63.7500202916669
 30
0.0
 11
-17.5000038146953
 21
63.7500202916669
 31
0.0
  0
LINE
  5
   522
  8
0
  6
CONTINUOUS
 62
     7
 10
-131.25
 20
63.7500143988437
 30
0.0
 11
-90.8749923339257
 21
63.7500143988437
 31
0.0
  0
LINE
  5
   523
  8
0
  6
CONTINUOUS
 62
     7
 10
-30.8750038146953
 20
11.250014669598
 30
0.0
 11
-20.1500053405743
 21
11.250014669598
 31
0.0
  0
LINE
  5
   524
  8
0
  6
CONTINUOUS
 62
     3
 10
-131.25
 20
11.2500076293947
 30
0.0
 11
-88.3749914169312
 21
11.2500076293947
 31
0.0
  0
LINE
  5
   525
  8
0
  6
CONTINUOUS
 62
     3
 10
-90.8749918937683
 20
63.75
 30
0.0
 11
-88.3749942779541
 21
63.75
 31
0.0
  0
LINE
  5
   526
  8
0
  6
CONTINUOUS
 62
     7
 10
-91.3749923706055
 20
11.7500076293945
 30
0.0
 11
-91.3749923706055
 21
63.25
 31
0.0
  0
LINE
  5
   527
  8
0
  6
CONTINUOUS
 62
     3
 10
-36.125
 20
11.5000076293945
 30
0.0
 11
-36.125
 21
63.5
 31
0.0
  0
LINE
  5
   528
  8
0
  6
CONTINUOUS
 62
     3
 10
-88.6249923706052
 20
11.5000076293945
 30
0.0
 11
-88.6249923706052
 21
18.2500075995922
 31
0.0
  0
LINE
  5
   529
  8
0
  6
CONTINUOUS
 62
     3
 10
-88.6249923706057
 20
24.0000076293945
 30
0.0
 11
-88.6249923706057
 21
36.2753605777601
 31
0.0
  0
LINE
  5
   52A
  8
0
  6
CONTINUOUS
 62
     3
 10
-88.624992370619
 20
56.75
 30
0.0
 11
-88.624992370619
 21
63.5
 31
0.0
  0
LINE
  5
   52B
  8
0
  6
CONTINUOUS
 62
     7
 10
-90.8749918937683
 20
63.25
 30
0.0
 11
-90.8749918937683
 21
63.75
 31
0.0
  0
LINE
  5
   52C
  8
0
  6
CONTINUOUS
 62
     7
 10
-91.3749923706055
 20
63.25
 30
0.0
 11
-90.8749923706055
 21
63.25
 31
0.0
  0
LINE
  5
   52D
  8
0
  6
CONTINUOUS
 62
     7
 10
-90.8749918937683
 20
11.250007629395
 30
0.0
 11
-90.8749918937683
 21
11.750007629395
 31
0.0
  0
LINE
  5
   52E
  8
0
  6
CONTINUOUS
 62
     7
 10
-91.3749923706055
 20
11.7500076293945
 30
0.0
 11
-90.8749923706055
 21
11.7500076293945
 31
0.0
  0
LINE
  5
   52F
  8
0
  6
CONTINUOUS
 62
     7
 10
-90.8749933663529
 20
11.750007503173
 30
0.0
 11
-90.8749933663529
 21
63.2500000440158
 31
0.0
  0
LINE
  5
   530
  8
0
  6
CONTINUOUS
 62
     3
 10
-88.6249923706069
 20
51.0
 30
0.0
 11
-88.6249923706069
 21
56.75
 31
0.0
  0
LINE
  5
   531
  8
0
  6
CONTINUOUS
 62
     3
 10
-88.6249923706052
 20
18.2500076293945
 30
0.0
 11
-88.6249923706052
 21
24.0000076293945
 31
0.0
  0
LINE
  5
   532
  8
0
  6
DASHDOT
 62
     7
 10
-162.261579177301
 20
37.5
 30
0.0
 11
16.3750314299267
 21
37.5
 31
0.0
  0
ARC
  5
   533
  8
0
  6
CONTINUOUS
 62
     3
 10
-88.374992370619
 20
63.5
 30
0.0
 40
0.25
 50
90.0
 51
180.0
  0
ARC
  5
   534
  8
0
  6
CONTINUOUS
 62
     3
 10
-36.375
 20
63.5
 30
0.0
 40
0.25
 50
360.0
 51
450.0
  0
ARC
  5
   535
  8
0
  6
CONTINUOUS
 62
     3
 10
-36.375
 20
11.5000076293945
 30
0.0
 40
0.25
 50
270.0
 51
360.0
  0
ARC
  5
   536
  8
0
  6
CONTINUOUS
 62
     3
 10
-88.3749923706052
 20
11.5000076293945
 30
0.0
 40
0.25
 50
180.0
 51
270.0
  0
ARC
  5
   537
  8
0
  6
CONTINUOUS
 62
     7
 10
-89.249893501095
 20
37.5000428518339
 30
0.0
 40
1.37489930370096
 50
62.9671493417992
 51
297.032850658201
  0
LINE
  5
   538
  8
0
  6
CONTINUOUS
 62
     3
 10
-88.6249923706057
 20
38.7247251259076
 30
0.0
 11
-88.6249923706057
 21
51.0
 31
0.0
  0
LINE
  5
   539
  8
0
  6
DASHDOT
 62
     7
 10
-89.249893501095
 20
35.4930702633354
 30
0.0
 11
-89.249893501095
 21
39.3209092115208
 31
0.0
  0
LINE
  5
   53A
  8
0
  6
CONTINUOUS
 62
     7
 10
-88.625
 20
51.2500076293945
 30
0.0
 11
-88.625
 21
56.25
 31
0.0
  0
LINE
  5
   53B
  8
0
  6
CONTINUOUS
 62
     7
 10
-88.625
 20
18.7500152587891
 30
0.0
 11
-88.625
 21
23.7500152587891
 31
0.0
  0
LINE
  5
   53C
  8
0
  6
CONTINUOUS
 62
     7
 10
-88.375
 20
11.25
 30
0.0
 11
-79.3750076293945
 21
11.25
 31
0.0
  0
LINE
  5
   53D
  8
0
  6
CONTINUOUS
 62
     7
 10
-88.375
 20
63.75
 30
0.0
 11
-79.3750076293945
 21
63.75
 31
0.0
  0
LINE
  5
   53E
  8
0
  6
CONTINUOUS
 62
     7
 10
-36.125
 20
11.5
 30
0.0
 11
-36.125
 21
63.4999999999861
 31
0.0
  0
LINE
  5
   53F
  8
0
  6
CONTINUOUS
 62
     7
 10
-88.625
 20
56.25
 30
0.0
 11
-88.625
 21
63.5
 31
0.0
  0
LINE
  5
   540
  8
0
  6
CONTINUOUS
 62
     7
 10
-88.625
 20
23.7500152587891
 30
0.0
 11
-88.625
 21
51.2500076293945
 31
0.0
  0
LINE
  5
   541
  8
0
  6
CONTINUOUS
 62
     7
 10
-88.625
 20
11.5
 30
0.0
 11
-88.625
 21
18.7500152587891
 31
0.0
  0
LINE
  5
   542
  8
0
  6
CONTINUOUS
 62
     7
 10
-77.5000076293945
 20
32.125
 30
0.0
 11
-57.5000152587891
 21
32.125
 31
0.0
  0
LINE
  5
   543
  8
0
  6
CONTINUOUS
 62
     7
 10
-77.5000076293945
 20
42.875
 30
0.0
 11
-57.5000152587891
 21
42.875
 31
0.0
  0
LINE
  5
   544
  8
0
  6
CONTINUOUS
 62
     7
 10
-42.1250152587891
 20
11.25
 30
0.0
 11
-42.1250152587891
 21
63.75
 31
0.0
  0
LINE
  5
   545
  8
0
  6
CONTINUOUS
 62
     7
 10
-37.1250152587891
 20
11.25
 30
0.0
 11
-37.1250152587891
 21
63.75
 31
0.0
  0
LINE
  5
   546
  8
0
  6
CONTINUOUS
 62
     7
 10
-57.6322479248047
 20
32.125
 30
0.0
 11
-57.6322479248047
 21
42.875
 31
0.0
  0
LINE
  5
   547
  8
0
  6
CONTINUOUS
 62
     7
 10
-57.5000152587891
 20
32.125
 30
0.0
 11
-57.5000152587891
 21
42.875
 31
0.0
  0
LINE
  5
   548
  8
0
  6
CONTINUOUS
 62
     7
 10
-77.5000076293945
 20
32.125
 30
0.0
 11
-77.5000076293945
 21
42.875
 31
0.0
  0
LINE
  5
   549
  8
0
  6
CONTINUOUS
 62
     7
 10
-77.3677597045898
 20
32.125
 30
0.0
 11
-77.3677597045898
 21
42.875
 31
0.0
  0
LINE
  5
   54A
  8
0
  6
CONTINUOUS
 62
     7
 10
-78.8750076293945
 20
11.2500076293945
 30
0.0
 11
-72.8750116060138
 21
11.2500076293945
 31
0.0
  0
LINE
  5
   54B
  8
0
  6
CONTINUOUS
 62
     7
 10
-55.6250076293945
 20
11.2500076293945
 30
0.0
 11
-18.1250038146881
 21
11.2500076293945
 31
0.0
  0
LINE
  5
   54C
  8
0
  6
CONTINUOUS
 62
     7
 10
-72.3750116060138
 20
11.2500076293945
 30
0.0
 11
-62.6250076293945
 21
11.2500076293945
 31
0.0
  0
LINE
  5
   54D
  8
0
  6
CONTINUOUS
 62
     7
 10
-62.1250076293945
 20
11.2500076293945
 30
0.0
 11
-56.1250076293945
 21
11.2500076293945
 31
0.0
  0
LINE
  5
   54E
  8
0
  6
CONTINUOUS
 62
     7
 10
-78.8750076293945
 20
63.7500000000025
 30
0.0
 11
-72.8750076293935
 21
63.7500000000025
 31
0.0
  0
LINE
  5
   54F
  8
0
  6
CONTINUOUS
 62
     7
 10
-72.3750076293934
 20
63.7500000000115
 30
0.0
 11
-62.6250076293945
 21
63.7500000000115
 31
0.0
  0
LINE
  5
   550
  8
0
  6
CONTINUOUS
 62
     7
 10
-62.1250076293945
 20
63.7499999999974
 30
0.0
 11
-56.1250076293945
 21
63.7499999999974
 31
0.0
  0
LINE
  5
   551
  8
0
  6
CONTINUOUS
 62
     7
 10
-72.8749980116824
 20
42.875003986862
 30
0.0
 11
-72.8749980116824
 21
63.2500000298023
 31
0.0
  0
LINE
  5
   552
  8
0
  6
CONTINUOUS
 62
     7
 10
-72.8750019883055
 20
11.2500076293945
 30
0.0
 11
-72.8750019883055
 21
11.7500076293945
 31
0.0
  0
LINE
  5
   553
  8
0
  6
CONTINUOUS
 62
     7
 10
-72.3749980116795
 20
42.8750137664061
 30
0.0
 11
-72.3749980116795
 21
63.2500000298023
 31
0.0
  0
LINE
  5
   554
  8
0
  6
CONTINUOUS
 62
     7
 10
-72.3750019883056
 20
11.2500076293945
 30
0.0
 11
-72.3750019883056
 21
11.7500076293945
 31
0.0
  0
LINE
  5
   555
  8
0
  6
CONTINUOUS
 62
     7
 10
-72.8750076293946
 20
63.2500000298023
 30
0.0
 11
-72.3750076293945
 21
63.2500000298023
 31
0.0
  0
LINE
  5
   556
  8
0
  6
CONTINUOUS
 62
     7
 10
-72.8750076293945
 20
11.7500076293945
 30
0.0
 11
-72.3750076293945
 21
11.7500076293945
 31
0.0
  0
LINE
  5
   557
  8
0
  6
CONTINUOUS
 62
     7
 10
-79.3750076293945
 20
11.25
 30
0.0
 11
-79.3750076293945
 21
11.7500076293945
 31
0.0
  0
LINE
  5
   558
  8
0
  6
CONTINUOUS
 62
     7
 10
-78.8750076293945
 20
11.2500076293945
 30
0.0
 11
-78.8750076293945
 21
11.7500076293945
 31
0.0
  0
LINE
  5
   559
  8
0
  6
CONTINUOUS
 62
     7
 10
-79.3750076293945
 20
63.2500000298023
 30
0.0
 11
-78.8750076293945
 21
63.2500000298023
 31
0.0
  0
LINE
  5
   55A
  8
0
  6
CONTINUOUS
 62
     7
 10
-79.3750076293945
 20
11.7500076293945
 30
0.0
 11
-78.8750076293945
 21
11.7500076293945
 31
0.0
  0
LINE
  5
   55B
  8
0
  6
CONTINUOUS
 62
     7
 10
-56.1250076293945
 20
11.2500076293945
 30
0.0
 11
-56.1250076293945
 21
11.7500076293945
 31
0.0
  0
LINE
  5
   55C
  8
0
  6
CONTINUOUS
 62
     7
 10
-55.6250076293945
 20
11.2500076293945
 30
0.0
 11
-55.6250076293945
 21
11.7500076293945
 31
0.0
  0
LINE
  5
   55D
  8
0
  6
CONTINUOUS
 62
     7
 10
-56.1250076293945
 20
63.2500000298023
 30
0.0
 11
-55.6250076293945
 21
63.2500000298023
 31
0.0
  0
LINE
  5
   55E
  8
0
  6
CONTINUOUS
 62
     7
 10
-56.1250076293945
 20
11.7500076293945
 30
0.0
 11
-55.6250076293945
 21
11.7500076293945
 31
0.0
  0
LINE
  5
   55F
  8
0
  6
CONTINUOUS
 62
     7
 10
-62.6250076293945
 20
42.8750039637089
 30
0.0
 11
-62.6250076293945
 21
63.2500000298023
 31
0.0
  0
LINE
  5
   560
  8
0
  6
CONTINUOUS
 62
     7
 10
-62.6250076293945
 20
11.2500076293945
 30
0.0
 11
-62.6250076293945
 21
11.7500076293945
 31
0.0
  0
LINE
  5
   561
  8
0
  6
CONTINUOUS
 62
     7
 10
-62.1250076293945
 20
42.875
 30
0.0
 11
-62.1250076293945
 21
63.2500000298023
 31
0.0
  0
LINE
  5
   562
  8
0
  6
CONTINUOUS
 62
     7
 10
-62.1250076293945
 20
11.2500076293945
 30
0.0
 11
-62.1250076293945
 21
11.7500076293945
 31
0.0
  0
LINE
  5
   563
  8
0
  6
CONTINUOUS
 62
     7
 10
-62.6250076293945
 20
63.2500000298023
 30
0.0
 11
-62.1250076293945
 21
63.2500000298023
 31
0.0
  0
LINE
  5
   564
  8
0
  6
CONTINUOUS
 62
     7
 10
-62.6250076293945
 20
11.7500076293945
 30
0.0
 11
-62.1250076293945
 21
11.7500076293945
 31
0.0
  0
ARC
  5
   565
  8
0
  6
CONTINUOUS
 62
     7
 10
-88.375
 20
63.5
 30
0.0
 40
0.25
 50
90.0
 51
180.0
  0
ARC
  5
   566
  8
0
  6
CONTINUOUS
 62
     7
 10
-88.375
 20
11.5
 30
0.0
 40
0.25
 50
180.0
 51
270.0
  0
ARC
  5
   567
  8
0
  6
CONTINUOUS
 62
     7
 10
-36.375
 20
11.5
 30
0.0
 40
0.25
 50
270.0
 51
360.0
  0
ARC
  5
   568
  8
0
  6
CONTINUOUS
 62
     7
 10
-36.375
 20
63.4999999999861
 30
0.0
 40
0.25
 50
360.0
 51
450.0
  0
LINE
  5
   569
  8
0
  6
CONTINUOUS
 62
     7
 10
-56.8750076293945
 20
48.75
 30
0.0
 11
-56.8750076293945
 21
49.5
 31
0.0
  0
LINE
  5
   56A
  8
0
  6
CONTINUOUS
 62
     7
 10
-61.3750076293945
 20
48.75
 30
0.0
 11
-61.3750076293945
 21
49.5
 31
0.0
  0
CIRCLE
  5
   56B
  8
0
  6
CONTINUOUS
 62
     7
 10
-75.8750076293945
 20
49.125
 30
0.0
 40
2.25
  0
CIRCLE
  5
   56C
  8
0
  6
CONTINUOUS
 62
     7
 10
-75.8750076293945
 20
49.125
 30
0.0
 40
1.5
  0
LINE
  5
   56D
  8
0
  6
CONTINUOUS
 62
     7
 10
-61.3750076293945
 20
49.5
 30
0.0
 11
-56.8750076293945
 21
49.5
 31
0.0
  0
LINE
  5
   56E
  8
0
  6
CONTINUOUS
 62
     7
 10
-61.3750076293945
 20
48.75
 30
0.0
 11
-56.8750076293945
 21
48.75
 31
0.0
  0
LINE
  5
   56F
  8
0
  6
CONTINUOUS
 62
     7
 10
-78.8750076293945
 20
44.25
 30
0.0
 11
-72.8750004848118
 21
44.25
 31
0.0
  0
LINE
  5
   570
  8
0
  6
CONTINUOUS
 62
     7
 10
-78.8750076293945
 20
30.75
 30
0.0
 11
-72.8750044614349
 21
30.75
 31
0.0
  0
LINE
  5
   571
  8
0
  6
CONTINUOUS
 62
     7
 10
-62.1250076293945
 20
30.75
 30
0.0
 11
-56.1250076293945
 21
30.75
 31
0.0
  0
LINE
  5
   572
  8
0
  6
CONTINUOUS
 62
     7
 10
-62.1250076293945
 20
44.25
 30
0.0
 11
-56.1250076293945
 21
44.25
 31
0.0
  0
LINE
  5
   573
  8
0
  6
CONTINUOUS
 62
     7
 10
-73.9500076293945
 20
24.7250048828126
 30
0.0
 11
-73.9500076293945
 21
24.9500048828126
 31
0.0
  0
LINE
  5
   574
  8
0
  6
CONTINUOUS
 62
     7
 10
-77.8000076293945
 20
25.2000048828126
 30
0.0
 11
-77.8000076293945
 21
25.6000048828126
 31
0.0
  0
LINE
  5
   575
  8
0
  6
CONTINUOUS
 62
     7
 10
-76.5000076293945
 20
28.8000048828125
 30
0.0
 11
-76.2500076293945
 21
28.8000048828125
 31
0.0
  0
LINE
  5
   576
  8
0
  6
CONTINUOUS
 62
     7
 10
-76.5000076293945
 20
26.2000048828125
 30
0.0
 11
-76.2500076293945
 21
26.2000048828125
 31
0.0
  0
ARC
  5
   577
  8
0
  6
CONTINUOUS
 62
     7
 10
-76.2500076293945
 20
27.5000048828126
 30
0.0
 40
1.3
 50
270.0
 51
450.0
  0
ARC
  5
   578
  8
0
  6
CONTINUOUS
 62
     7
 10
-76.5000076293945
 20
27.5000048828126
 30
0.0
 40
1.3
 50
89.9999999999998
 51
270.0
  0
ARC
  5
   579
  8
0
  6
CONTINUOUS
 62
     7
 10
-76.2500076293945
 20
27.5000048828126
 30
0.0
 40
0.900000000000001
 50
270.0
 51
450.0
  0
ARC
  5
   57A
  8
0
  6
CONTINUOUS
 62
     7
 10
-76.5000076293945
 20
27.5000048828126
 30
0.0
 40
0.899999999999999
 50
89.9999999999998
 51
270.0
  0
LINE
  5
   57B
  8
0
  6
CONTINUOUS
 62
     7
 10
-76.5000076293945
 20
28.4000048828125
 30
0.0
 11
-76.2500076293945
 21
28.4000048828125
 31
0.0
  0
LINE
  5
   57C
  8
0
  6
CONTINUOUS
 62
     7
 10
-76.5000076293945
 20
26.6000048828125
 30
0.0
 11
-76.2500076293945
 21
26.6000048828125
 31
0.0
  0
LINE
  5
   57D
  8
0
  6
CONTINUOUS
 62
     7
 10
-75.5500076293945
 20
26.0750048828125
 30
0.0
 11
-75.1500076293945
 21
26.0750048828125
 31
0.0
  0
LINE
  5
   57E
  8
0
  6
CONTINUOUS
 62
     7
 10
-75.5500076293945
 20
25.6000048828126
 30
0.0
 11
-75.5500076293945
 21
26.0750048828126
 31
0.0
  0
LINE
  5
   57F
  8
0
  6
CONTINUOUS
 62
     7
 10
-75.5500076293945
 20
24.7250048828125
 30
0.0
 11
-75.1500076293945
 21
24.7250048828125
 31
0.0
  0
LINE
  5
   580
  8
0
  6
CONTINUOUS
 62
     7
 10
-75.1500076293945
 20
25.6000048828126
 30
0.0
 11
-75.1500076293945
 21
26.0750048828126
 31
0.0
  0
LINE
  5
   581
  8
0
  6
CONTINUOUS
 62
     7
 10
-77.8000076293945
 20
25.6000048828125
 30
0.0
 11
-75.5500076293945
 21
25.6000048828125
 31
0.0
  0
LINE
  5
   582
  8
0
  6
CONTINUOUS
 62
     7
 10
-77.8000076293945
 20
25.2000048828125
 30
0.0
 11
-75.5500076293945
 21
25.2000048828125
 31
0.0
  0
LINE
  5
   583
  8
0
  6
CONTINUOUS
 62
     7
 10
-75.5500076293945
 20
24.7250048828126
 30
0.0
 11
-75.5500076293945
 21
25.2000048828126
 31
0.0
  0
LINE
  5
   584
  8
0
  6
CONTINUOUS
 62
     7
 10
-75.1500076293945
 20
24.7250048828126
 30
0.0
 11
-75.1500076293945
 21
25.2000048828126
 31
0.0
  0
LINE
  5
   585
  8
0
  6
CONTINUOUS
 62
     7
 10
-75.1500076293945
 20
25.6000048828125
 30
0.0
 11
-74.6000076293945
 21
25.6000048828125
 31
0.0
  0
LINE
  5
   586
  8
0
  6
CONTINUOUS
 62
     7
 10
-75.1500076293945
 20
25.2000048828125
 30
0.0
 11
-74.6000076293945
 21
25.2000048828125
 31
0.0
  0
ARC
  5
   587
  8
0
  6
CONTINUOUS
 62
     7
 10
-74.6000076293945
 20
24.9500048828126
 30
0.0
 40
0.65
 50
360.0
 51
450.0
  0
ARC
  5
   588
  8
0
  6
CONTINUOUS
 62
     7
 10
-74.6000076293945
 20
24.9500048828126
 30
0.0
 40
0.25
 50
360.0
 51
450.0
  0
LINE
  5
   589
  8
0
  6
CONTINUOUS
 62
     7
 10
-74.3500076293945
 20
24.7250048828125
 30
0.0
 11
-73.9500076293945
 21
24.7250048828125
 31
0.0
  0
LINE
  5
   58A
  8
0
  6
CONTINUOUS
 62
     7
 10
-74.3500076293945
 20
24.7250048828126
 30
0.0
 11
-74.3500076293945
 21
24.9500048828126
 31
0.0
  0
LINE
  5
   58B
  8
0
  6
CONTINUOUS
 62
     7
 10
-73.9500076293945
 20
23.1250048828125
 30
0.0
 11
-73.9500076293945
 21
23.3500048828126
 31
0.0
  0
LINE
  5
   58C
  8
0
  6
CONTINUOUS
 62
     7
 10
-77.8000076293945
 20
23.6000048828126
 30
0.0
 11
-77.8000076293945
 21
24.0000048828126
 31
0.0
  0
LINE
  5
   58D
  8
0
  6
CONTINUOUS
 62
     7
 10
-75.5500076293945
 20
24.4750048828125
 30
0.0
 11
-75.1500076293945
 21
24.4750048828125
 31
0.0
  0
LINE
  5
   58E
  8
0
  6
CONTINUOUS
 62
     7
 10
-75.5500076293945
 20
24.0000048828126
 30
0.0
 11
-75.5500076293945
 21
24.4750048828126
 31
0.0
  0
LINE
  5
   58F
  8
0
  6
CONTINUOUS
 62
     7
 10
-75.5500076293945
 20
23.1250048828125
 30
0.0
 11
-75.1500076293945
 21
23.1250048828125
 31
0.0
  0
LINE
  5
   590
  8
0
  6
CONTINUOUS
 62
     7
 10
-75.1500076293945
 20
24.0000048828126
 30
0.0
 11
-75.1500076293945
 21
24.4750048828126
 31
0.0
  0
LINE
  5
   591
  8
0
  6
CONTINUOUS
 62
     7
 10
-77.8000076293945
 20
24.0000048828125
 30
0.0
 11
-75.5500076293945
 21
24.0000048828125
 31
0.0
  0
LINE
  5
   592
  8
0
  6
CONTINUOUS
 62
     7
 10
-77.8000076293945
 20
23.6000048828125
 30
0.0
 11
-75.5500076293945
 21
23.6000048828125
 31
0.0
  0
LINE
  5
   593
  8
0
  6
CONTINUOUS
 62
     7
 10
-75.5500076293945
 20
23.1250048828126
 30
0.0
 11
-75.5500076293945
 21
23.6000048828126
 31
0.0
  0
LINE
  5
   594
  8
0
  6
CONTINUOUS
 62
     7
 10
-75.1500076293945
 20
23.1250048828126
 30
0.0
 11
-75.1500076293945
 21
23.6000048828126
 31
0.0
  0
LINE
  5
   595
  8
0
  6
CONTINUOUS
 62
     7
 10
-75.1500076293945
 20
24.0000048828125
 30
0.0
 11
-74.6000076293945
 21
24.0000048828125
 31
0.0
  0
LINE
  5
   596
  8
0
  6
CONTINUOUS
 62
     7
 10
-75.1500076293945
 20
23.6000048828125
 30
0.0
 11
-74.6000076293945
 21
23.6000048828125
 31
0.0
  0
ARC
  5
   597
  8
0
  6
CONTINUOUS
 62
     7
 10
-74.6000076293945
 20
23.3500048828126
 30
0.0
 40
0.65
 50
360.0
 51
450.0
  0
ARC
  5
   598
  8
0
  6
CONTINUOUS
 62
     7
 10
-74.6000076293945
 20
23.3500048828126
 30
0.0
 40
0.25
 50
360.0
 51
450.0
  0
LINE
  5
   599
  8
0
  6
CONTINUOUS
 62
     7
 10
-74.3500076293945
 20
23.1250048828125
 30
0.0
 11
-73.9500076293945
 21
23.1250048828125
 31
0.0
  0
LINE
  5
   59A
  8
0
  6
CONTINUOUS
 62
     7
 10
-74.3500076293945
 20
23.1250048828125
 30
0.0
 11
-74.3500076293945
 21
23.3500048828126
 31
0.0
  0
LINE
  5
   59B
  8
0
  6
CONTINUOUS
 62
     7
 10
-60.5500076293945
 20
25.4000048828125
 30
0.0
 11
-60.5500076293945
 21
25.8000048828125
 31
0.0
  0
ARC
  5
   59C
  8
0
  6
CONTINUOUS
 62
     7
 10
-59.0000076293945
 20
27.5000048828125
 30
0.0
 40
1.3
 50
270.0
 51
450.0
  0
ARC
  5
   59D
  8
0
  6
CONTINUOUS
 62
     7
 10
-59.0000076293945
 20
27.5000048828125
 30
0.0
 40
0.900000000000001
 50
270.0
 51
450.0
  0
ARC
  5
   59E
  8
0
  6
CONTINUOUS
 62
     7
 10
-59.2500076293945
 20
27.5000048828125
 30
0.0
 40
1.3
 50
89.9999999999998
 51
270.0
  0
ARC
  5
   59F
  8
0
  6
CONTINUOUS
 62
     7
 10
-59.2500076293945
 20
27.5000048828125
 30
0.0
 40
0.899999999999999
 50
89.9999999999998
 51
270.0
  0
LINE
  5
   5A0
  8
0
  6
CONTINUOUS
 62
     7
 10
-59.2500076293945
 20
26.6000048828125
 30
0.0
 11
-59.0000076293945
 21
26.6000048828125
 31
0.0
  0
LINE
  5
   5A1
  8
0
  6
CONTINUOUS
 62
     7
 10
-59.2500076293945
 20
26.2000048828125
 30
0.0
 11
-59.0000076293945
 21
26.2000048828125
 31
0.0
  0
LINE
  5
   5A2
  8
0
  6
CONTINUOUS
 62
     7
 10
-59.2500076293945
 20
28.4000048828125
 30
0.0
 11
-59.0000076293945
 21
28.4000048828125
 31
0.0
  0
LINE
  5
   5A3
  8
0
  6
CONTINUOUS
 62
     7
 10
-59.2500076293945
 20
28.8000048828125
 30
0.0
 11
-59.0000076293945
 21
28.8000048828125
 31
0.0
  0
LINE
  5
   5A4
  8
0
  6
CONTINUOUS
 62
     7
 10
-60.5500076293945
 20
25.8000048828125
 30
0.0
 11
-57.7000076293945
 21
25.8000048828125
 31
0.0
  0
LINE
  5
   5A5
  8
0
  6
CONTINUOUS
 62
     7
 10
-60.5500076293945
 20
25.4000048828125
 30
0.0
 11
-58.8000076293945
 21
25.4000048828125
 31
0.0
  0
LINE
  5
   5A6
  8
0
  6
CONTINUOUS
 62
     7
 10
-60.5500076293945
 20
24.0000048828125
 30
0.0
 11
-58.8000076293945
 21
24.0000048828125
 31
0.0
  0
LINE
  5
   5A7
  8
0
  6
CONTINUOUS
 62
     7
 10
-60.5500076293945
 20
23.6000048828125
 30
0.0
 11
-58.7000076293945
 21
23.6000048828125
 31
0.0
  0
LINE
  5
   5A8
  8
0
  6
CONTINUOUS
 62
     7
 10
-57.7000076293945
 20
25.4000048828125
 30
0.0
 11
-57.7000076293945
 21
25.8000048828125
 31
0.0
  0
ARC
  5
   5A9
  8
0
  6
CONTINUOUS
 62
     7
 10
-58.8000076293945
 20
24.7000048828125
 30
0.0
 40
0.699999999999999
 50
270.0
 51
450.0
  0
LINE
  5
   5AA
  8
0
  6
CONTINUOUS
 62
     7
 10
-58.1000076293945
 20
25.4000048828125
 30
0.0
 11
-57.7000076293945
 21
25.4000048828125
 31
0.0
  0
ARC
  5
   5AB
  8
0
  6
CONTINUOUS
 62
     7
 10
-58.7000076293945
 20
24.6000048828125
 30
0.0
 40
1.0
 50
270.0
 51
413.130102354155
  0
LINE
  5
   5AC
  8
0
  6
CONTINUOUS
 62
     7
 10
-60.5500076293945
 20
23.6000048828125
 30
0.0
 11
-60.5500076293945
 21
24.0000048828125
 31
0.0
  0
LINE
  5
   5AD
  8
0
  6
CONTINUOUS
 62
     7
 10
-55.6250076293945
 20
63.2500000298023
 30
0.0
 11
-55.6250076293945
 21
63.7499999999861
 31
0.0
  0
LINE
  5
   5AE
  8
0
  6
CONTINUOUS
 62
     7
 10
-56.1250076293945
 20
63.2500000298023
 30
0.0
 11
-56.1250076293945
 21
63.7499999999974
 31
0.0
  0
LINE
  5
   5AF
  8
0
  6
CONTINUOUS
 62
     7
 10
-62.1250076293945
 20
63.2500000298023
 30
0.0
 11
-62.1250076293945
 21
63.7499999999974
 31
0.0
  0
LINE
  5
   5B0
  8
0
  6
CONTINUOUS
 62
     7
 10
-62.6250076293945
 20
63.2500000298023
 30
0.0
 11
-62.6250076293945
 21
63.7500000000115
 31
0.0
  0
LINE
  5
   5B1
  8
0
  6
CONTINUOUS
 62
     7
 10
-72.3749980116795
 20
63.2500000298023
 30
0.0
 11
-72.3749980116795
 21
63.7500000000115
 31
0.0
  0
LINE
  5
   5B2
  8
0
  6
CONTINUOUS
 62
     7
 10
-72.8749980116824
 20
63.2500000298023
 30
0.0
 11
-72.8749980116824
 21
63.7500000000026
 31
0.0
  0
LINE
  5
   5B3
  8
0
  6
CONTINUOUS
 62
     7
 10
-78.8750076293945
 20
63.2500000298023
 30
0.0
 11
-78.8750076293945
 21
63.7500000000026
 31
0.0
  0
LINE
  5
   5B4
  8
0
  6
CONTINUOUS
 62
     7
 10
-79.3750076293945
 20
63.2500000298023
 30
0.0
 11
-79.3750076293945
 21
63.75
 31
0.0
  0
LINE
  5
   5B5
  8
0
  6
CONTINUOUS
 62
     7
 10
-55.6250076293945
 20
11.7500076293945
 30
0.0
 11
-55.6250076293945
 21
63.2500000298023
 31
0.0
  0
LINE
  5
   5B6
  8
0
  6
CONTINUOUS
 62
     7
 10
-56.1250076293945
 20
11.7500076293945
 30
0.0
 11
-56.1250076293945
 21
63.2500000298023
 31
0.0
  0
LINE
  5
   5B7
  8
0
  6
CONTINUOUS
 62
     7
 10
-62.1250076293945
 20
11.7500076293945
 30
0.0
 11
-62.1250076293945
 21
32.125
 31
0.0
  0
LINE
  5
   5B8
  8
0
  6
CONTINUOUS
 62
     7
 10
-62.6250076293945
 20
11.7500076293945
 30
0.0
 11
-62.6250076293945
 21
32.125
 31
0.0
  0
LINE
  5
   5B9
  8
0
  6
CONTINUOUS
 62
     7
 10
-72.3750019883056
 20
11.7500076293945
 30
0.0
 11
-72.3750019883056
 21
32.1250014923793
 31
0.0
  0
LINE
  5
   5BA
  8
0
  6
CONTINUOUS
 62
     7
 10
-72.8750019883055
 20
11.7500076293945
 30
0.0
 11
-72.8750019883055
 21
32.1250016755737
 31
0.0
  0
LINE
  5
   5BB
  8
0
  6
CONTINUOUS
 62
     7
 10
-78.8750076293945
 20
11.7500076293945
 30
0.0
 11
-78.8750076293945
 21
63.2500000298023
 31
0.0
  0
LINE
  5
   5BC
  8
0
  6
CONTINUOUS
 62
     7
 10
-79.3750076293945
 20
11.7500076293945
 30
0.0
 11
-79.3750076293945
 21
63.2500000298023
 31
0.0
  0
LINE
  5
   5BD
  8
0
  6
CONTINUOUS
 62
     7
 10
-70.4373472746848
 20
32.125
 30
0.0
 11
-70.4373472746848
 21
42.875
 31
0.0
  0
LINE
  5
   5BE
  8
0
  6
CONTINUOUS
 62
     7
 10
-73.4955800274933
 20
32.125
 30
0.0
 11
-73.4955800274933
 21
42.875
 31
0.0
  0
LINE
  5
   5BF
  8
0
  6
CONTINUOUS
 62
     7
 10
-76.4694893405991
 20
32.125
 30
0.0
 11
-76.4694893405991
 21
42.875
 31
0.0
  0
LINE
  5
   5C0
  8
0
  6
CONTINUOUS
 62
     7
 10
-76.8708629044583
 20
32.125
 30
0.0
 11
-76.8708629044583
 21
42.875
 31
0.0
  0
LINE
  5
   5C1
  8
0
  6
CONTINUOUS
 62
     3
 10
-30.7499987037402
 20
11.2500076293945
 30
0.0
 11
-30.7499987037402
 21
63.7500202916669
 31
0.0
  0
LINE
  5
   5C2
  8
0
  6
CONTINUOUS
 62
     3
 10
-17.5000038146953
 20
11.8750089754597
 30
0.0
 11
-17.5000038146953
 21
63.7500202916669
 31
0.0
  0
LINE
  5
   5C3
  8
0
  6
CONTINUOUS
 62
     3
 10
-17.6830602002518
 20
11.4330659232658
 30
0.0
 11
-17.5000005045873
 21
11.8750062337281
 31
0.0
  0
LINE
  5
   5C4
  8
0
  6
CONTINUOUS
 62
     3
 10
-18.1249980342103
 20
11.2500077415891
 30
0.0
 11
-17.683057723748
 21
11.4330674372536
 31
0.0
  0
LINE
  5
   5C5
  8
0
  6
CONTINUOUS
 62
     3
 10
-30.2499961853008
 20
12.4250082125202
 30
0.0
 11
-17.6553306579571
 21
12.4250082125202
 31
0.0
  0
LINE
  5
   5C6
  8
0
  6
CONTINUOUS
 62
     3
 10
-30.2500038146953
 20
14.2250074495808
 30
0.0
 11
-17.6553306579571
 21
14.2250074495808
 31
0.0
  0
LINE
  5
   5C7
  8
0
  6
CONTINUOUS
 62
     3
 10
-30.2500038146953
 20
16.0250066866413
 30
0.0
 11
-17.6553306579571
 21
16.0250066866413
 31
0.0
  0
LINE
  5
   5C8
  8
0
  6
CONTINUOUS
 62
     3
 10
-30.2500038146953
 20
17.8250059237018
 30
0.0
 11
-17.6553306579571
 21
17.8250059237018
 31
0.0
  0
LINE
  5
   5C9
  8
0
  6
CONTINUOUS
 62
     3
 10
-30.2500038146953
 20
19.6250089754597
 30
0.0
 11
-17.6553306579571
 21
19.6250089754597
 31
0.0
  0
LINE
  5
   5CA
  8
0
  6
CONTINUOUS
 62
     3
 10
-30.2500038146953
 20
21.4250082125202
 30
0.0
 11
-17.6553306579571
 21
21.4250082125202
 31
0.0
  0
LINE
  5
   5CB
  8
0
  6
CONTINUOUS
 62
     3
 10
-30.2500038146953
 20
23.2250074495808
 30
0.0
 11
-17.6553306579571
 21
23.2250074495808
 31
0.0
  0
LINE
  5
   5CC
  8
0
  6
CONTINUOUS
 62
     3
 10
-30.2500038146953
 20
25.0250066866413
 30
0.0
 11
-17.6553306579571
 21
25.0250066866413
 31
0.0
  0
LINE
  5
   5CD
  8
0
  6
CONTINUOUS
 62
     3
 10
-30.2500038146953
 20
26.8250059237019
 30
0.0
 11
-17.6553306579571
 21
26.8250059237019
 31
0.0
  0
LINE
  5
   5CE
  8
0
  6
CONTINUOUS
 62
     3
 10
-30.2500038146953
 20
28.6250089754597
 30
0.0
 11
-17.6553306579571
 21
28.6250089754597
 31
0.0
  0
LINE
  5
   5CF
  8
0
  6
CONTINUOUS
 62
     3
 10
-30.2500038146953
 20
30.4250082125202
 30
0.0
 11
-17.6553306579571
 21
30.4250082125202
 31
0.0
  0
LINE
  5
   5D0
  8
0
  6
CONTINUOUS
 62
     3
 10
-30.2500038146953
 20
32.2250074495808
 30
0.0
 11
-17.6553306579571
 21
32.2250074495808
 31
0.0
  0
LINE
  5
   5D1
  8
0
  6
CONTINUOUS
 62
     3
 10
-30.2500038146953
 20
34.0250066866413
 30
0.0
 11
-17.6553306579571
 21
34.0250066866413
 31
0.0
  0
LINE
  5
   5D2
  8
0
  6
CONTINUOUS
 62
     3
 10
-30.2500038146953
 20
35.8250078310505
 30
0.0
 11
-17.6553306579571
 21
35.8250078310505
 31
0.0
  0
LINE
  5
   5D3
  8
0
  6
CONTINUOUS
 62
     3
 10
-30.2500038146953
 20
37.625007068111
 30
0.0
 11
-17.6553306579571
 21
37.625007068111
 31
0.0
  0
LINE
  5
   5D4
  8
0
  6
CONTINUOUS
 62
     3
 10
-30.2500038146953
 20
39.4250063051716
 30
0.0
 11
-17.6553306579571
 21
39.4250063051716
 31
0.0
  0
LINE
  5
   5D5
  8
0
  6
CONTINUOUS
 62
     3
 10
-30.2500038146953
 20
41.2250074495808
 30
0.0
 11
-17.6553306579571
 21
41.2250074495808
 31
0.0
  0
LINE
  5
   5D6
  8
0
  6
CONTINUOUS
 62
     3
 10
-30.2500038146953
 20
43.0250066866413
 30
0.0
 11
-17.6553306579571
 21
43.0250066866413
 31
0.0
  0
LINE
  5
   5D7
  8
0
  6
CONTINUOUS
 62
     3
 10
-30.2500038146953
 20
44.8250078310505
 30
0.0
 11
-17.5000038146953
 21
44.8250078310505
 31
0.0
  0
LINE
  5
   5D8
  8
0
  6
CONTINUOUS
 62
     3
 10
-30.2500038146953
 20
46.625007068111
 30
0.0
 11
-17.5000038146953
 21
46.625007068111
 31
0.0
  0
LINE
  5
   5D9
  8
0
  6
CONTINUOUS
 62
     3
 10
-30.2500038146953
 20
48.4250072588459
 30
0.0
 11
-17.5000038146953
 21
48.4250072588459
 31
0.0
  0
LINE
  5
   5DA
  8
0
  6
CONTINUOUS
 62
     3
 10
-30.2500038146953
 20
50.2250074495808
 30
0.0
 11
-17.5000038146953
 21
50.2250074495808
 31
0.0
  0
LINE
  5
   5DB
  8
0
  6
CONTINUOUS
 62
     3
 10
-30.2499986820106
 20
11.750001346064
 30
0.0
 11
-30.2499986820106
 21
63.7500202916669
 31
0.0
  0
LINE
  5
   5DC
  8
0
  6
CONTINUOUS
 62
     3
 10
-91.750008925649
 20
11.750001346064
 30
0.0
 11
-91.750008925649
 21
63.7500143988437
 31
0.0
  0
LINE
  5
   5DD
  8
0
  6
CONTINUOUS
 62
     3
 10
-131.25
 20
12.4250082125202
 30
0.0
 11
-92.2500114440899
 21
12.4250082125202
 31
0.0
  0
LINE
  5
   5DE
  8
0
  6
CONTINUOUS
 62
     3
 10
-131.25
 20
14.2250074495808
 30
0.0
 11
-92.2500038146954
 21
14.2250074495808
 31
0.0
  0
LINE
  5
   5DF
  8
0
  6
CONTINUOUS
 62
     3
 10
-131.25
 20
16.0250066866413
 30
0.0
 11
-92.2500038146954
 21
16.0250066866413
 31
0.0
  0
LINE
  5
   5E0
  8
0
  6
CONTINUOUS
 62
     3
 10
-131.25
 20
17.8250059237019
 30
0.0
 11
-92.2500038146953
 21
17.8250059237019
 31
0.0
  0
LINE
  5
   5E1
  8
0
  6
CONTINUOUS
 62
     3
 10
-131.25
 20
19.6250089754597
 30
0.0
 11
-92.2500038146953
 21
19.6250089754597
 31
0.0
  0
LINE
  5
   5E2
  8
0
  6
CONTINUOUS
 62
     3
 10
-131.25
 20
21.4250082125202
 30
0.0
 11
-92.2500038146953
 21
21.4250082125202
 31
0.0
  0
LINE
  5
   5E3
  8
0
  6
CONTINUOUS
 62
     3
 10
-131.25
 20
23.2250074495808
 30
0.0
 11
-92.2500038146953
 21
23.2250074495808
 31
0.0
  0
LINE
  5
   5E4
  8
0
  6
CONTINUOUS
 62
     3
 10
-131.25
 20
25.0250066866413
 30
0.0
 11
-92.2500038146953
 21
25.0250066866413
 31
0.0
  0
LINE
  5
   5E5
  8
0
  6
CONTINUOUS
 62
     3
 10
-131.25
 20
26.8250059237019
 30
0.0
 11
-92.2500038146953
 21
26.8250059237019
 31
0.0
  0
LINE
  5
   5E6
  8
0
  6
CONTINUOUS
 62
     3
 10
-131.25
 20
28.6250089754597
 30
0.0
 11
-92.2500038146953
 21
28.6250089754597
 31
0.0
  0
LINE
  5
   5E7
  8
0
  6
CONTINUOUS
 62
     3
 10
-131.25
 20
30.4250082125202
 30
0.0
 11
-92.2500038146953
 21
30.4250082125202
 31
0.0
  0
LINE
  5
   5E8
  8
0
  6
CONTINUOUS
 62
     3
 10
-131.25
 20
32.2250074495808
 30
0.0
 11
-92.2500038146953
 21
32.2250074495808
 31
0.0
  0
LINE
  5
   5E9
  8
0
  6
CONTINUOUS
 62
     3
 10
-131.25
 20
34.0250066866413
 30
0.0
 11
-92.2500038146953
 21
34.0250066866413
 31
0.0
  0
LINE
  5
   5EA
  8
0
  6
CONTINUOUS
 62
     3
 10
-131.25
 20
35.8250078310505
 30
0.0
 11
-92.2500038146953
 21
35.8250078310505
 31
0.0
  0
LINE
  5
   5EB
  8
0
  6
CONTINUOUS
 62
     3
 10
-131.25
 20
37.625007068111
 30
0.0
 11
-92.2500038146953
 21
37.625007068111
 31
0.0
  0
LINE
  5
   5EC
  8
0
  6
CONTINUOUS
 62
     3
 10
-131.25
 20
39.4250063051716
 30
0.0
 11
-92.2500038146953
 21
39.4250063051716
 31
0.0
  0
LINE
  5
   5ED
  8
0
  6
CONTINUOUS
 62
     3
 10
-131.25
 20
41.2250074495808
 30
0.0
 11
-92.2500038146953
 21
41.2250074495808
 31
0.0
  0
LINE
  5
   5EE
  8
0
  6
CONTINUOUS
 62
     3
 10
-131.25
 20
43.0250066866413
 30
0.0
 11
-92.2500038146953
 21
43.0250066866413
 31
0.0
  0
LINE
  5
   5EF
  8
0
  6
CONTINUOUS
 62
     3
 10
-131.25
 20
44.8250078310505
 30
0.0
 11
-92.2500038146953
 21
44.8250078310505
 31
0.0
  0
LINE
  5
   5F0
  8
0
  6
CONTINUOUS
 62
     3
 10
-131.25
 20
46.625007068111
 30
0.0
 11
-92.2500038146953
 21
46.625007068111
 31
0.0
  0
LINE
  5
   5F1
  8
0
  6
CONTINUOUS
 62
     3
 10
-131.25
 20
48.4250072588459
 30
0.0
 11
-92.2500038146953
 21
48.4250072588459
 31
0.0
  0
LINE
  5
   5F2
  8
0
  6
CONTINUOUS
 62
     3
 10
-131.25
 20
50.2250074495808
 30
0.0
 11
-92.2500038146953
 21
50.2250074495808
 31
0.0
  0
LINE
  5
   5F3
  8
0
  6
CONTINUOUS
 62
     3
 10
-92.2500089473786
 20
11.750001346064
 30
0.0
 11
-92.2500089473786
 21
63.7500143988437
 31
0.0
  0
LINE
  5
   5F4
  8
0
  6
CONTINUOUS
 62
     3
 10
-131.25
 20
52.0250074495808
 30
0.0
 11
-92.2500038146953
 21
52.0250074495808
 31
0.0
  0
LINE
  5
   5F5
  8
0
  6
CONTINUOUS
 62
     3
 10
-131.25
 20
53.8250074495808
 30
0.0
 11
-92.2500038146953
 21
53.8250074495808
 31
0.0
  0
LINE
  5
   5F6
  8
0
  6
CONTINUOUS
 62
     3
 10
-131.25
 20
55.6250074495808
 30
0.0
 11
-92.2500038146953
 21
55.6250074495808
 31
0.0
  0
LINE
  5
   5F7
  8
0
  6
CONTINUOUS
 62
     3
 10
-131.25
 20
57.4250074495808
 30
0.0
 11
-92.2500038146953
 21
57.4250074495808
 31
0.0
  0
LINE
  5
   5F8
  8
0
  6
CONTINUOUS
 62
     3
 10
-131.25
 20
59.2250074495808
 30
0.0
 11
-92.2500038146953
 21
59.2250074495808
 31
0.0
  0
LINE
  5
   5F9
  8
0
  6
CONTINUOUS
 62
     3
 10
-131.25
 20
61.0250074495807
 30
0.0
 11
-92.2500038146953
 21
61.0250074495807
 31
0.0
  0
LINE
  5
   5FA
  8
0
  6
CONTINUOUS
 62
     3
 10
-131.25
 20
62.8250074495807
 30
0.0
 11
-92.2500038146953
 21
62.8250074495807
 31
0.0
  0
LINE
  5
   5FB
  8
0
  6
CONTINUOUS
 62
     3
 10
-30.2500038146953
 20
52.0250074495808
 30
0.0
 11
-17.5000038146953
 21
52.0250074495808
 31
0.0
  0
LINE
  5
   5FC
  8
0
  6
CONTINUOUS
 62
     3
 10
-30.2500038146953
 20
53.8250074495808
 30
0.0
 11
-17.5000038146953
 21
53.8250074495808
 31
0.0
  0
LINE
  5
   5FD
  8
0
  6
CONTINUOUS
 62
     3
 10
-30.2500038146953
 20
55.6250074495807
 30
0.0
 11
-17.5000038146953
 21
55.6250074495807
 31
0.0
  0
LINE
  5
   5FE
  8
0
  6
CONTINUOUS
 62
     3
 10
-30.2500038146953
 20
57.4250074495807
 30
0.0
 11
-17.5000038146953
 21
57.4250074495807
 31
0.0
  0
LINE
  5
   5FF
  8
0
  6
CONTINUOUS
 62
     3
 10
-30.2500038146953
 20
59.2250074495807
 30
0.0
 11
-17.5000038146953
 21
59.2250074495807
 31
0.0
  0
LINE
  5
   600
  8
0
  6
CONTINUOUS
 62
     3
 10
-30.2500038146953
 20
61.0250074495807
 30
0.0
 11
-17.5000038146953
 21
61.0250074495807
 31
0.0
  0
LINE
  5
   601
  8
0
  6
CONTINUOUS
 62
     3
 10
-30.2500038146953
 20
62.8250074495807
 30
0.0
 11
-17.5000038146953
 21
62.8250074495807
 31
0.0
  0
LINE
  5
   602
  8
0
  6
CONTINUOUS
 62
     5
 10
8.50000047683716
 20
29.5
 30
0.0
 11
8.50000047683716
 21
45.5
 31
0.0
  0
LINE
  5
   603
  8
0
  6
CONTINUOUS
 62
     5
 10
7.12500079118334
 20
29.5
 30
0.0
 11
7.12500079118334
 21
45.5
 31
0.0
  0
LINE
  5
   604
  8
0
  6
CONTINUOUS
 62
     5
 10
5.75
 20
29.5
 30
0.0
 11
8.50000047683716
 21
29.5
 31
0.0
  0
LINE
  5
   605
  8
0
  6
CONTINUOUS
 62
     5
 10
5.75
 20
45.5
 30
0.0
 11
8.50000047683716
 21
45.5
 31
0.0
  0
LINE
  5
   606
  8
0
  6
CONTINUOUS
 62
     5
 10
5.37500079118334
 20
34.75
 30
0.0
 11
5.37500079118334
 21
42.5
 31
0.0
  0
LINE
  5
   607
  8
0
  6
CONTINUOUS
 62
     5
 10
4.00000110552953
 20
34.75
 30
0.0
 11
4.00000110552953
 21
42.5
 31
0.0
  0
LINE
  5
   608
  8
0
  6
CONTINUOUS
 62
     7
 10
5.75
 20
42.5
 30
0.0
 11
5.75
 21
71.5
 31
0.0
  0
INSERT
  5
   609
  8
0
  6
CONTINUOUS
 62
     3
  2
*UDIM1257
 10
0.0
 20
0.0
 30
0.0
  0
INSERT
  5
   60A
  8
0
  6
CONTINUOUS
 62
     3
  2
*UDIM1258
 10
0.0
 20
0.0
 30
0.0
  0
INSERT
  5
   60B
  8
0
  6
CONTINUOUS
 62
     3
  2
*UDIM1259
 10
0.0
 20
0.0
 30
0.0
  0
INSERT
  5
   60C
  8
0
  6
CONTINUOUS
 62
     3
  2
*UDIM1260
 10
0.0
 20
0.0
 30
0.0
  0
INSERT
  5
   60D
  8
0
  6
CONTINUOUS
 62
     3
  2
*UDIM1261
 10
0.0
 20
0.0
 30
0.0
  0
INSERT
  5
   60E
  8
0
  6
CONTINUOUS
 62
     7
  2
*UDIM1262
 10
0.0
 20
0.0
 30
0.0
  0
INSERT
  5
   60F
  8
0
  6
CONTINUOUS
 62
     7
  2
*UDIM1263
 10
0.0
 20
0.0
 30
0.0
  0
ARC
  5
   610
  8
0
  6
CONTINUOUS
 62
     1
 10
6.25000079118334
 20
50.0000002806536
 30
0.0
 40
2.5
 50
258.46302246069
 51
461.53697753931
  0
LINE
  5
   611
  8
0
  6
CONTINUOUS
 62
     1
 10
6.57500079118334
 20
50.3250002806536
 30
0.0
 11
7.57500079118334
 21
50.3250002806536
 31
0.0
  0
LINE
  5
   612
  8
0
  6
CONTINUOUS
 62
     1
 10
6.57500079118334
 20
49.6750002806536
 30
0.0
 11
7.57500079118334
 21
49.6750002806536
 31
0.0
  0
LINE
  5
   613
  8
0
  6
CONTINUOUS
 62
     1
 10
7.57500079118334
 20
49.6750002806536
 30
0.0
 11
7.57500079118334
 21
50.3250002806536
 31
0.0
  0
LINE
  5
   614
  8
0
  6
CONTINUOUS
 62
     1
 10
6.57500079118334
 20
50.3250002806536
 30
0.0
 11
6.57500079118334
 21
51.3250002806536
 31
0.0
  0
LINE
  5
   615
  8
0
  6
CONTINUOUS
 62
     1
 10
5.92500079118334
 20
51.3250002806536
 30
0.0
 11
6.57500079118334
 21
51.3250002806536
 31
0.0
  0
LINE
  5
   616
  8
0
  6
CONTINUOUS
 62
     1
 10
5.92500079118334
 20
48.6750002806536
 30
0.0
 11
6.57500079118334
 21
48.6750002806536
 31
0.0
  0
LINE
  5
   617
  8
0
  6
CONTINUOUS
 62
     1
 10
6.57500079118334
 20
48.6750002806536
 30
0.0
 11
6.57500079118334
 21
49.6750002806536
 31
0.0
  0
LINE
  5
   618
  8
0
  6
CONTINUOUS
 62
     7
 10
-150.25
 20
3.5
 30
0.0
 11
-150.25
 21
4.75
 31
0.0
  0
LINE
  5
   619
  8
0
  6
CONTINUOUS
 62
     7
 10
-150.25
 20
15.75
 30
0.0
 11
-150.25
 21
17.0
 31
0.0
  0
LINE
  5
   61A
  8
0
  6
CONTINUOUS
 62
     7
 10
-150.25
 20
27.875
 30
0.0
 11
-150.25
 21
29.125
 31
0.0
  0
LINE
  5
   61B
  8
0
  6
CONTINUOUS
 62
     7
 10
-150.25
 20
40.0
 30
0.0
 11
-150.25
 21
41.25
 31
0.0
  0
LINE
  5
   61C
  8
0
  6
CONTINUOUS
 62
     7
 10
-15.0054237997152
 20
-20.3122013091118
 30
0.0
 11
-0.523746595716787
 21
-1.63083771595379
 31
0.0
  0
ENDSEC
  0
EOF
