  0
SECTION
  2
HEADER
  9
$ACADVER
  1
AC1009
  9
$DWGCODEPAGE
  3
iso8859-1
  9
$INSBASE
 10
0.0
 20
0.0
 30
0.0
  9
$EXTMIN
 10
1.0E20
 20
1.0E20
  9
$EXTMAX
 10
-1.0E20
 20
-1.0E20
  9
$LIMMIN
 10
0.0
 20
0.0
  9
$LIMMAX
 10
12.0
 20
9.0
  9
$ORTHOMODE
 70
     0
  9
$REGENMODE
 70
     1
  9
$FILLMODE
 70
     1
  9
$QTEXTMODE
 70
     0
  9
$MIRRTEXT
 70
     1
  9
$DRAGMODE
 70
     2
  9
$LTSCALE
 40
15.0
  9
$OSMODE
 70
     0
  9
$ATTMODE
 70
     1
  9
$TEXTSIZE
 40
0.2
  9
$TRACEWID
 40
0.05
  9
$TEXTSTYLE
  7
STANDARD
  9
$CLAYER
  8
0
  9
$CELTYPE
  6
DASHED
  9
$CECOLOR
 62
   256
  9
$DIMSCALE
 40
1.0
  9
$DIMASZ
 40
0.18
  9
$DIMEXO
 40
0.0625
  9
$DIMDLI
 40
0.38
  9
$DIMRND
 40
0.0
  9
$DIMDLE
 40
0.0
  9
$DIMEXE
 40
0.18
  9
$DIMTP
 40
0.0
  9
$DIMTM
 40
0.0
  9
$DIMTXT
 40
0.18
  9
$DIMCEN
 40
0.09
  9
$DIMTSZ
 40
0.0
  9
$DIMTOL
 70
     0
  9
$DIMLIM
 70
     0
  9
$DIMTIH
 70
     1
  9
$DIMTOH
 70
     1
  9
$DIMSE1
 70
     0
  9
$DIMSE2
 70
     0
  9
$DIMTAD
 70
     0
  9
$DIMZIN
 70
     0
  9
$DIMBLK
  1

  9
$DIMASO
 70
     1
  9
$DIMSHO
 70
     1
  9
$DIMPOST
  1

  9
$DIMAPOST
  1

  9
$DIMALT
 70
     0
  9
$DIMALTD
 70
     2
  9
$DIMALTF
 40
25.4
  9
$DIMLFAC
 40
1.0
  9
$DIMTOFL
 70
     0
  9
$DIMTVP
 40
0.0
  9
$DIMTIX
 70
     0
  9
$DIMSOXD
 70
     0
  9
$DIMSAH
 70
     0
  9
$DIMBLK1
  1

  9
$DIMBLK2
  1

  9
$DIMSTYLE
  2
STANDARD
  9
$DIMCLRD
 70
     0
  9
$DIMCLRE
 70
     0
  9
$DIMCLRT
 70
     0
  9
$DIMTFAC
 40
1.0
  9
$DIMGAP
 40
0.09
  9
$LUNITS
 70
     2
  9
$LUPREC
 70
     4
  9
$AXISMODE
 70
     0
  9
$AXISUNIT
 10
0.0
 20
0.0
  9
$SKETCHINC
 40
0.1
  9
$FILLETRAD
 40
0.0
  9
$AUNITS
 70
     0
  9
$AUPREC
 70
     0
  9
$MENU
  1
acad
  9
$ELEVATION
 40
0.0
  9
$PELEVATION
 40
0.0
  9
$THICKNESS
 40
0.0
  9
$LIMCHECK
 70
     0
  9
$BLIPMODE
 70
     1
  9
$CHAMFERA
 40
0.0
  9
$CHAMFERB
 40
0.0
  9
$SKPOLY
 70
     0
  9
$TDCREATE
 40
0.000000000
  9
$TDUPDATE
 40
0.000000000
  9
$TDINDWG
 40
0.0
  9
$TDUSRTIMER
 40
0.0
  9
$USRTIMER
 70
     1
  9
$ANGBASE
 50
0.0
  9
$ANGDIR
 70
     0
  9
$PDMODE
 70
     0
  9
$PDSIZE
 40
0.0
  9
$PLINEWID
 40
0.0
  9
$COORDS
 70
     1
  9
$SPLFRAME
 70
     0
  9
$SPLINETYPE
 70
     6
  9
$SPLINESEGS
 70
     8
  9
$ATTDIA
 70
     0
  9
$ATTREQ
 70
     1
  9
$HANDLING
 70
     1
  9
$HANDSEED
  5
   7EA
  9
$SURFTAB1
 70
     6
  9
$SURFTAB2
 70
     6
  9
$SURFTYPE
 70
     6
  9
$SURFU
 70
     6
  9
$SURFV
 70
     6
  9
$UCSNAME
  2

  9
$UCSORG
 10
0.0
 20
0.0
 30
0.0
  9
$UCSXDIR
 10
1.0
 20
0.0
 30
0.0
  9
$UCSYDIR
 10
0.0
 20
1.0
 30
0.0
  9
$PUCSNAME
  2

  9
$PUCSORG
 10
0.0
 20
0.0
 30
0.0
  9
$PUCSXDIR
 10
1.0
 20
0.0
 30
0.0
  9
$PUCSYDIR
 10
0.0
 20
1.0
 30
0.0
  9
$USERI1
 70
     0
  9
$USERI2
 70
     0
  9
$USERI3
 70
     0
  9
$USERI4
 70
     0
  9
$USERI5
 70
     0
  9
$USERR1
 40
0.0
  9
$USERR2
 40
0.0
  9
$USERR3
 40
0.0
  9
$USERR4
 40
0.0
  9
$USERR5
 40
0.0
  9
$WORLDVIEW
 70
     1
  9
$SHADEDGE
 70
     3
  9
$SHADEDIF
 70
    70
  9
$TILEMODE
 70
     1
  9
$MAXACTVP
 70
    16
  9
$PINSBASE
 10
0.0
 20
0.0
 30
0.0
  9
$PLIMCHECK
 70
     0
  9
$PEXTMIN
 10
1.0E20
 20
1.0E20
 30
1.0E20
  9
$PEXTMAX
 10
-1.0E20
 20
-1.0E20
 30
-1.0E20
  9
$PLIMMIN
 10
0.0
 20
0.0
  9
$PLIMMAX
 10
12.0
 20
9.0
  9
$UNITMODE
 70
     0
  9
$VISRETAIN
 70
     0
  0
ENDSEC
  0
SECTION
  2
TABLES
  0
TABLE
  2
VPORT
 70
     1
  0
VPORT
  2
*ACTIVE
 70
     0
 10
0.0
 20
0.0
 11
1.0
 21
1.0
 12
6.801242
 22
4.5
 13
0.0
 23
0.0
 14
1.0
 24
1.0
 15
0.0
 25
0.0
 16
0.0
 26
0.0
 36
1.0
 17
0.0
 27
0.0
 37
0.0
 40
9.0
 41
1.511387
 42
50.0
 43
0.0
 44
0.0
 50
0.0
 51
0.0
 71
     0
 72
   100
 73
     1
 74
     1
 75
     0
 76
     0
 77
     0
 78
     0
  0
ENDTAB
  0
TABLE
  2
LTYPE
 70
    41
  0
LTYPE
  2
BYBLOCK
 70
     0
  3

 72
    65
 73
     0
 40
0.0
  0
LTYPE
  2
BYLAYER
 70
     0
  3

 72
    65
 73
     0
 40
0.0
  0
LTYPE
  2
CONTINUOUS
 70
     0
  3
Solid line
 72
    65
 73
     0
 40
0.0
  0
LTYPE
  2
BORDER
 70
    64
  3
__ __ . __ __ . __ __ . __ __ . __ __ . __ __ .
 72
    65
 73
     6
 40
1.75
 49
0.5
 49
-0.25
 49
0.5
 49
-0.25
 49
0.0
 49
-0.25
  0
LTYPE
  2
BORDER2
 70
    64
  3
__.__.__.__.__.__.__.__.__.__.__.__.__.__.__.__
 72
    65
 73
     6
 40
0.875
 49
0.25
 49
-0.125
 49
0.25
 49
-0.125
 49
0.0
 49
-0.125
  0
LTYPE
  2
BORDERX2
 70
    64
  3
____  ____  .  ____  ____  .  ____  ____  .  __
 72
    65
 73
     6
 40
3.5
 49
1.0
 49
-0.5
 49
1.0
 49
-0.5
 49
0.0
 49
-0.5
  0
LTYPE
  2
CENTER
 70
    64
  3
____ _ ____ _ ____ _ ____ _ ____ _ ____ _ ____
 72
    65
 73
     4
 40
2.0
 49
1.25
 49
-0.25
 49
0.25
 49
-0.25
  0
LTYPE
  2
CENTER2
 70
    64
  3
___ _ ___ _ ___ _ ___ _ ___ _ ___ _ ___ _ ___ _
 72
    65
 73
     4
 40
1.125
 49
0.75
 49
-0.125
 49
0.125
 49
-0.125
  0
LTYPE
  2
CENTERX2
 70
    64
  3
________  __  ________  __  ________  __  _____
 72
    65
 73
     4
 40
4.0
 49
2.5
 49
-0.5
 49
0.5
 49
-0.5
  0
LTYPE
  2
DASHDOT
 70
    64
  3
__ . __ . __ . __ . __ . __ . __ . __ . __ . __
 72
    65
 73
     4
 40
1.0
 49
0.5
 49
-0.25
 49
0.0
 49
-0.25
  0
LTYPE
  2
DASHDOT2
 70
    64
  3
_._._._._._._._._._._._._._._._._._._._._._._._
 72
    65
 73
     4
 40
0.5
 49
0.25
 49
-0.125
 49
0.0
 49
-0.125
  0
LTYPE
  2
DASHDOTX2
 70
    64
  3
____  .  ____  .  ____  .  ____  .  ____  .  __
 72
    65
 73
     4
 40
2.0
 49
1.0
 49
-0.5
 49
0.0
 49
-0.5
  0
LTYPE
  2
DASHED
 70
    64
  3
__ __ __ __ __ __ __ __ __ __ __ __ __ __ __ __
 72
    65
 73
     2
 40
0.75
 49
0.5
 49
-0.25
  0
LTYPE
  2
DASHED2
 70
    64
  3
_ _ _ _ _ _ _ _ _ _ _ _ _ _ _ _ _ _ _ _ _ _ _ _
 72
    65
 73
     2
 40
0.375
 49
0.25
 49
-0.125
  0
LTYPE
  2
DASHEDX2
 70
    64
  3
____  ____  ____  ____  ____  ____  ____  ____
 72
    65
 73
     2
 40
1.5
 49
1.0
 49
-0.5
  0
LTYPE
  2
DIVIDE
 70
    64
  3
____ . . ____ . . ____ . . ____ . . ____ . . __
 72
    65
 73
     6
 40
1.25
 49
0.5
 49
-0.25
 49
0.0
 49
-0.25
 49
0.0
 49
-0.25
  0
LTYPE
  2
DIVIDE2
 70
    64
  3
__..__..__..__..__..__..__..__..__..__..__..__.
 72
    65
 73
     6
 40
0.625
 49
0.25
 49
-0.125
 49
0.0
 49
-0.125
 49
0.0
 49
-0.125
  0
LTYPE
  2
DIVIDEX2
 70
    64
  3
________  .  .  ________  .  .  ________  .  .
 72
    65
 73
     6
 40
2.5
 49
1.0
 49
-0.5
 49
0.0
 49
-0.5
 49
0.0
 49
-0.5
  0
LTYPE
  2
DOT
 70
    64
  3
. . . . . . . . . . . . . . . . . . . . . . . .
 72
    65
 73
     2
 40
0.25
 49
0.0
 49
-0.25
  0
LTYPE
  2
DOT2
 70
    64
  3
...............................................
 72
    65
 73
     2
 40
0.125
 49
0.0
 49
-0.125
  0
LTYPE
  2
DOTX2
 70
    64
  3
.  .  .  .  .  .  .  .  .  .  .  .  .  .  .  .
 72
    65
 73
     2
 40
0.5
 49
0.0
 49
-0.5
  0
LTYPE
  2
HIDDEN
 70
    64
  3
__ __ __ __ __ __ __ __ __ __ __ __ __ __ __ __
 72
    65
 73
     2
 40
0.375
 49
0.25
 49
-0.125
  0
LTYPE
  2
HIDDEN2
 70
    64
  3
_ _ _ _ _ _ _ _ _ _ _ _ _ _ _ _ _ _ _ _ _ _ _ _
 72
    65
 73
     2
 40
0.1875
 49
0.125
 49
-0.0625
  0
LTYPE
  2
HIDDENX2
 70
    64
  3
____ ____ ____ ____ ____ ____ ____ ____ ____ __
 72
    65
 73
     2
 40
0.75
 49
0.5
 49
-0.25
  0
LTYPE
  2
PHANTOM
 70
    64
  3
______  __  __  ______  __  __  ______  __  __
 72
    65
 73
     6
 40
2.5
 49
1.25
 49
-0.25
 49
0.25
 49
-0.25
 49
0.25
 49
-0.25
  0
LTYPE
  2
PHANTOM2
 70
    64
  3
___ _ _ ___ _ _ ___ _ _ ___ _ _ ___ _ _ ___ _ _
 72
    65
 73
     6
 40
1.25
 49
0.625
 49
-0.125
 49
0.125
 49
-0.125
 49
0.125
 49
-0.125
  0
LTYPE
  2
PHANTOMX2
 70
    64
  3
____________    ____    ____    ____________
 72
    65
 73
     6
 40
5.0
 49
2.5
 49
-0.5
 49
0.5
 49
-0.5
 49
0.5
 49
-0.5
  0
LTYPE
  2
ACAD_ISO02W100
 70
    64
  3
__ __ __ __ __ __ __ __ __ __ __ __ __ __ __ __
 72
    65
 73
     2
 40
15.0
 49
12.0
 49
-3.0
  0
LTYPE
  2
ACAD_ISO03W100
 70
    64
  3
__    __    __    __    __    __    __    __
 72
    65
 73
     2
 40
30.0
 49
12.0
 49
-18.0
  0
LTYPE
  2
ACAD_ISO04W100
 70
    64
  3
____ . ____ . ____ . ____ . ____ . ____ . ____
 72
    65
 73
     4
 40
30.5
 49
24.0
 49
-3.0
 49
0.5
 49
-3.0
  0
LTYPE
  2
ACAD_ISO05W100
 70
    64
  3
____ .. ____ .. ____ .. ____ .. ____ .. ____ ..
 72
    65
 73
     6
 40
34.0
 49
24.0
 49
-3.0
 49
0.5
 49
-3.0
 49
0.5
 49
-3.0
  0
LTYPE
  2
ACAD_ISO06W100
 70
    64
  3
____ ... ____ ... ____ ... ____ ... ____ ... __
 72
    65
 73
     8
 40
37.5
 49
24.0
 49
-3.0
 49
0.5
 49
-3.0
 49
0.5
 49
-3.0
 49
0.5
 49
-3.0
  0
LTYPE
  2
ACAD_ISO07W100
 70
    64
  3
. . . . . . . . . . . . . . . . . . . . . . . .
 72
    65
 73
     2
 40
3.5
 49
0.5
 49
-3.0
  0
LTYPE
  2
ACAD_ISO08W100
 70
    64
  3
____ __ ____ __ ____ __ ____ ____ __ __ ____ __
 72
    65
 73
     4
 40
36.0
 49
24.0
 49
-3.0
 49
6.0
 49
-3.0
  0
LTYPE
  2
ACAD_ISO09W100
 70
    64
  3
____ __ __ ____ __ __ ____ __ __ ____ __ __ ___
 72
    65
 73
     6
 40
45.0
 49
24.0
 49
-3.0
 49
6.0
 49
-3.0
 49
6.0
 49
-3.0
  0
LTYPE
  2
ACAD_ISO10W100
 70
    64
  3
__ . __ . __ . __ . __ . __ . __ . __ . __ . __
 72
    65
 73
     4
 40
18.5
 49
12.0
 49
-3.0
 49
0.5
 49
-3.0
  0
LTYPE
  2
ACAD_ISO11W100
 70
    64
  3
__ __ . __ __ . __ __ . __ __ . __ __ . __ __ .
 72
    65
 73
     6
 40
33.5
 49
12.0
 49
-3.0
 49
12.0
 49
-3.0
 49
0.5
 49
-3.0
  0
LTYPE
  2
ACAD_ISO12W100
 70
    64
  3
__ . . __ . . __ . . __ . . __ . . __ . . __ .
 72
    65
 73
     6
 40
22.0
 49
12.0
 49
-3.0
 49
0.5
 49
-3.0
 49
0.5
 49
-3.0
  0
LTYPE
  2
ACAD_ISO13W100
 70
    64
  3
__ __ . . __ __ . . __ __ . . __ __ . . __ __ .
 72
    65
 73
     8
 40
37.0
 49
12.0
 49
-3.0
 49
12.0
 49
-3.0
 49
0.5
 49
-3.0
 49
0.5
 49
-3.0
  0
LTYPE
  2
ACAD_ISO14W100
 70
    64
  3
__ . . . __ . . . __ . . . __ . . . __ . . . __
 72
    65
 73
     8
 40
25.5
 49
12.0
 49
-3.0
 49
0.5
 49
-3.0
 49
0.5
 49
-3.0
 49
0.5
 49
-3.0
  0
LTYPE
  2
ACAD_ISO15W100
 70
    64
  3
__ __ . . . __ __ . . . __ __ . . . __ __ . . .
 72
    65
 73
    10
 40
40.5
 49
12.0
 49
-3.0
 49
12.0
 49
-3.0
 49
0.5
 49
-3.0
 49
0.5
 49
-3.0
 49
0.5
 49
-3.0
  0
ENDTAB
  0
TABLE
  2
STYLE
 70
     4
  0
STYLE
  2
STANDARD
 70
    64
 40
0.0
 41
1.0
 50
0.0
 71
     0
 42
0.2
  3
txt
  4

  0
STYLE
  2
TOLERANCE
 70
    64
 40
0.0
 41
1.0
 50
0.0
 71
     0
 42
0.2
  3
../igesfont/iges1003.shx
  4

  0
STYLE
  2
ROMANS
 70
    64
 40
0.0
 41
1.0
 50
0.0
 71
     0
 42
0.2
  3
romans.shx
  4

  0
STYLE
  2
ROMANC
 70
    64
 40
0.0
 41
1.0
 50
0.0
 71
     0
 42
0.2
  3
romanc.shx
  4

  0
ENDTAB
  0
TABLE
  2
DIMSTYLE
 70
     2
  0
DIMSTYLE
  2
UNNAMED
 70
     0
  3

  4

  5

  6

  7

 40
1.0
 41
0.18
 42
0.0625
 43
0.38
 44
0.18
 45
0.0
 46
0.0
 47
0.0
 48
0.0
140
0.18
141
0.09
142
0.0
143
25.4
144
1.0
145
0.0
146
1.0
147
0.09
 71
     0
 72
     0
 73
     1
 74
     1
 75
     0
 76
     0
 77
     0
 78
     0
170
     0
171
     2
172
     0
173
     0
174
     0
175
     0
176
     0
177
     0
178
     0
  0
DIMSTYLE
  2
STANDARD
 70
     0
  3

  4

  5

  6

  7

 40
1.0
 41
0.18
 42
0.0625
 43
0.38
 44
0.18
 45
0.0
 46
0.0
 47
0.0
 48
0.0
140
0.18
141
0.09
142
0.0
143
25.4
144
1.0
145
0.0
146
1.0
147
0.09
 71
     0
 72
     0
 73
     1
 74
     1
 75
     0
 76
     0
 77
     0
 78
     0
170
     0
171
     2
172
     0
173
     0
174
     0
175
     0
176
     0
177
     0
178
     0
  0
ENDTAB
  0
TABLE
  2
LAYER
 70
     2
  0
LAYER
  2
0
 70
     0
 62
     7
  6
CONTINUOUS
  0
LAYER
  2
255
 70
     0
 62
     7
  6
CONTINUOUS
  0
ENDTAB
  0
ENDSEC
  0
SECTION
  2
BLOCKS
  0
BLOCK
  5
     B
  8
0
  6
CONTINUOUS
 62
     7
  2
*UDIM416
 70
    65
 10
0.0
 20
0.0
 30
0.0
  3
*UDIM416
  0
TEXT
  5
     C
  8
0
  6
CONTINUOUS
 62
     7
 10
-286.664425979783
 20
89.6417784815153
 30
0.0
 40
2.99999994933605
  1
5,5
 50
374.159933195552
 41
0.933333333333333
 72
     1
 11
-283.249865172774
 21
92.0502580653003
 31
0.0
 73
     2
  0
TEXT
  5
     D
  8
0
  6
CONTINUOUS
 62
     7
 10
-289.330871756099
 20
88.9690476414398
 30
0.0
 40
2.99999994933605
  1
Ø
 50
374.159933195552
 41
0.933333333333333
 72
     1
 11
-288.631237539264
 21
90.692564930523
 31
0.0
 73
     2
  0
TEXT
  5
     E
  8
0
  6
CONTINUOUS
 62
     7
 10
-278.568127025598
 20
91.6844339208155
 30
0.0
 40
2.99999994933605
  1
 - M5
 50
374.159933195552
 41
0.933333333333333
 72
     1
 11
-272.438639628415
 21
94.7778757993025
 31
0.0
 73
     2
  0
LINE
  5
     F
  8
0
  6
CONTINUOUS
 62
     7
 10
-265.330634661821
 20
93.9928511168796
 30
0.0
 11
-300.791437309556
 21
85.0462692731242
 31
0.0
  0
LINE
  5
    10
  8
0
  6
CONTINUOUS
 62
     7
 10
-296.987639278219
 20
86.5432167937684
 30
0.0
 11
-299.724858972855
 21
85.315361613669
 31
0.0
  0
LINE
  5
    11
  8
0
  6
CONTINUOUS
 62
     7
 10
-299.724858972855
 20
85.315361613669
 30
0.0
 11
-296.732762634836
 21
85.5329840022552
 31
0.0
  0
LINE
  5
    12
  8
0
  6
CONTINUOUS
 62
     7
 10
-303.528657004192
 20
83.8184140930248
 30
0.0
 11
-300.791437309556
 21
85.0462692731242
 31
0.0
  0
LINE
  5
    13
  8
0
  6
CONTINUOUS
 62
     7
 10
-300.791437309556
 20
85.0462692731242
 30
0.0
 11
-303.783533647575
 21
84.828646884538
 31
0.0
  0
ENDBLK
  5
    14
  8
0
  6
CONTINUOUS
 62
     7
  0
BLOCK
  5
    15
  8
0
  6
CONTINUOUS
 62
     7
  2
*UDIM417
 70
    65
 10
0.0
 20
0.0
 30
0.0
  3
*UDIM417
  0
TEXT
  5
    16
  8
0
  6
CONTINUOUS
 62
     7
 10
-330.407110992544
 20
66.0270418188611
 30
0.0
 40
2.99999994933605
  1
105,25
 50
449.999999896069
 41
0.933333333333333
 72
     1
 11
-331.907110952571
 21
74.1270416847799
 31
0.0
 73
     2
  0
LINE
  5
    17
  8
0
  6
CONTINUOUS
 62
     7
 10
-314.639483062552
 20
85.1808154433966
 30
0.0
 11
-331.407110977902
 21
85.1808154433966
 31
0.0
  0
LINE
  5
    18
  8
0
  6
CONTINUOUS
 62
     7
 10
-329.407110977903
 20
85.1808154433966
 30
0.0
 11
-329.407110977903
 21
64.1308151297271
 31
0.0
  0
LINE
  5
    19
  8
0
  6
CONTINUOUS
 62
     7
 10
-328.886166547951
 20
82.2263921661896
 30
0.0
 11
-329.407110977903
 21
85.1808154433966
 31
0.0
  0
LINE
  5
    1A
  8
0
  6
CONTINUOUS
 62
     7
 10
-329.407110977903
 20
85.1808154433966
 30
0.0
 11
-329.928055407854
 21
82.2263921661896
 31
0.0
  0
LINE
  5
    1B
  8
0
  6
CONTINUOUS
 62
     7
 10
-329.928055407854
 20
67.0852384069341
 30
0.0
 11
-329.407110977903
 21
64.1308151297271
 31
0.0
  0
LINE
  5
    1C
  8
0
  6
CONTINUOUS
 62
     7
 10
-329.407110977903
 20
64.1308151297271
 30
0.0
 11
-328.886166547951
 21
67.0852384069341
 31
0.0
  0
ENDBLK
  5
    1D
  8
0
  6
CONTINUOUS
 62
     7
  0
BLOCK
  5
    1E
  8
0
  6
CONTINUOUS
 62
     7
  2
*UDIM418
 70
    65
 10
0.0
 20
0.0
 30
0.0
  3
*UDIM418
  0
TEXT
  5
    1F
  8
0
  6
CONTINUOUS
 62
     7
 10
-310.03314673191
 20
50.7544416290091
 30
0.0
 40
2.99999994933605
  1
70
 50
359.999999896069
 41
0.933333333333333
 72
     1
 11
-307.533146771416
 21
52.2544415991549
 31
0.0
 73
     2
  0
LINE
  5
    20
  8
0
  6
CONTINUOUS
 62
     7
 10
-300.258148141205
 20
49.7544416244869
 30
0.0
 11
-314.258148349822
 21
49.7544416244869
 31
0.0
  0
LINE
  5
    21
  8
0
  6
CONTINUOUS
 62
     7
 10
-303.212571418412
 20
49.2334971945352
 30
0.0
 11
-300.258148141205
 21
49.7544416244869
 31
0.0
  0
LINE
  5
    22
  8
0
  6
CONTINUOUS
 62
     7
 10
-300.258148141205
 20
49.7544416244869
 30
0.0
 11
-303.212571418412
 21
50.2753860544385
 31
0.0
  0
LINE
  5
    23
  8
0
  6
CONTINUOUS
 62
     7
 10
-311.303725072615
 20
50.2753860544385
 30
0.0
 11
-314.258148349822
 21
49.7544416244869
 31
0.0
  0
LINE
  5
    24
  8
0
  6
CONTINUOUS
 62
     7
 10
-314.258148349822
 20
49.7544416244869
 30
0.0
 11
-311.303725072615
 21
49.2334971945352
 31
0.0
  0
ENDBLK
  5
    25
  8
0
  6
CONTINUOUS
 62
     7
  0
BLOCK
  5
    26
  8
0
  6
CONTINUOUS
 62
     7
  2
*UDIM419
 70
    65
 10
0.0
 20
0.0
 30
0.0
  3
*UDIM419
  0
TEXT
  5
    27
  8
0
  6
CONTINUOUS
 62
     7
 10
-293.801025076483
 20
71.2615265954152
 30
0.0
 40
2.99999994933605
  1
17,5
 50
359.999999896069
 41
0.933333333333333
 72
     1
 11
-288.501025163276
 21
72.761526560496
 31
0.0
 73
     2
  0
LINE
  5
    28
  8
0
  6
CONTINUOUS
 62
     7
 10
-283.201025252782
 20
70.2615265858279
 30
0.0
 11
-303.758148193359
 21
70.2615265858279
 31
0.0
  0
LINE
  5
    29
  8
0
  6
CONTINUOUS
 62
     7
 10
-297.303724863998
 20
70.7824710157796
 30
0.0
 11
-300.258148141205
 21
70.2615265858279
 31
0.0
  0
LINE
  5
    2A
  8
0
  6
CONTINUOUS
 62
     7
 10
-300.258148141205
 20
70.2615265858279
 30
0.0
 11
-297.303724863998
 21
69.7405821558763
 31
0.0
  0
LINE
  5
    2B
  8
0
  6
CONTINUOUS
 62
     7
 10
-306.712571470566
 20
69.7405821558763
 30
0.0
 11
-303.758148193359
 21
70.2615265858279
 31
0.0
  0
LINE
  5
    2C
  8
0
  6
CONTINUOUS
 62
     7
 10
-303.758148193359
 20
70.2615265858279
 30
0.0
 11
-306.712571470566
 21
70.7824710157796
 31
0.0
  0
ENDBLK
  5
    2D
  8
0
  6
CONTINUOUS
 62
     7
  0
BLOCK
  5
    2E
  8
0
  6
CONTINUOUS
 62
     7
  2
*UDIM420
 70
    65
 10
0.0
 20
0.0
 30
0.0
  3
*UDIM420
  0
TEXT
  5
    2F
  8
0
  6
CONTINUOUS
 62
     7
 10
-339.102017730728
 20
59.6058170324546
 30
0.0
 40
2.99999994933605
  1
214
 50
449.999999896069
 41
0.933333333333333
 72
     1
 11
-340.602017698346
 21
63.5058169693029
 31
0.0
 73
     2
  0
LINE
  5
    30
  8
0
  6
CONTINUOUS
 62
     7
 10
-314.639483062552
 20
85.180815757313
 30
0.0
 11
-340.102017723678
 21
85.1808237504221
 31
0.0
  0
LINE
  5
    31
  8
0
  6
CONTINUOUS
 62
     7
 10
-313.962111089026
 20
42.3808151195433
 30
0.0
 11
-340.102017723678
 21
42.3808233252907
 31
0.0
  0
LINE
  5
    32
  8
0
  6
CONTINUOUS
 62
     7
 10
-338.102017723678
 20
85.1808231225892
 30
0.0
 11
-338.102017723678
 21
42.3808226974577
 31
0.0
  0
LINE
  5
    33
  8
0
  6
CONTINUOUS
 62
     7
 10
-337.581073293726
 20
82.2263998453822
 30
0.0
 11
-338.102017723678
 21
85.1808231225892
 31
0.0
  0
LINE
  5
    34
  8
0
  6
CONTINUOUS
 62
     7
 10
-338.102017723678
 20
85.1808231225892
 30
0.0
 11
-338.622962153629
 21
82.2263998453822
 31
0.0
  0
LINE
  5
    35
  8
0
  6
CONTINUOUS
 62
     7
 10
-338.622962153629
 20
45.3352459746647
 30
0.0
 11
-338.102017723678
 21
42.3808226974577
 31
0.0
  0
LINE
  5
    36
  8
0
  6
CONTINUOUS
 62
     7
 10
-338.102017723678
 20
42.3808226974577
 30
0.0
 11
-337.581073293726
 21
45.3352459746647
 31
0.0
  0
ENDBLK
  5
    37
  8
0
  6
CONTINUOUS
 62
     7
  0
BLOCK
  5
    38
  8
0
  6
CONTINUOUS
 62
     0
  2
ON-OFF
 70
    64
 10
0.0
 20
0.0
 30
0.0
  3
ON-OFF
  0
LINE
  5
    39
  8
0
  6
CONTINUOUS
 62
     0
 10
5.09999999999999
 20
-29.65
 30
0.0
 11
5.54999999999999
 21
-29.65
 31
0.0
  0
LINE
  5
    3A
  8
0
  6
CONTINUOUS
 62
     0
 10
3.79999999999999
 20
-37.35
 30
0.0
 11
4.59999999999999
 21
-37.35
 31
0.0
  0
LINE
  5
    3B
  8
0
  6
CONTINUOUS
 62
     0
 10
-2.6
 20
-34.75
 30
0.0
 11
-2.6
 21
-34.25
 31
0.0
  0
LINE
  5
    3C
  8
0
  6
CONTINUOUS
 62
     0
 10
2.6
 20
-34.75
 30
0.0
 11
2.6
 21
-34.25
 31
0.0
  0
ARC
  5
    3D
  8
0
  6
CONTINUOUS
 62
     0
 10
-3.5527136788005E-15
 20
-34.25
 30
0.0
 40
2.6
 50
0.0
 51
180.0
  0
ARC
  5
    3E
  8
0
  6
CONTINUOUS
 62
     0
 10
-3.5527136788005E-15
 20
-34.75
 30
0.0
 40
2.6
 50
180.0
 51
360.0
  0
ARC
  5
    3F
  8
0
  6
CONTINUOUS
 62
     0
 10
-3.5527136788005E-15
 20
-34.25
 30
0.0
 40
1.8
 50
0.0
 51
180.0
  0
ARC
  5
    40
  8
0
  6
CONTINUOUS
 62
     0
 10
-3.5527136788005E-15
 20
-34.75
 30
0.0
 40
1.8
 50
180.0
 51
360.0
  0
LINE
  5
    41
  8
0
  6
CONTINUOUS
 62
     0
 10
-1.8
 20
-34.75
 30
0.0
 11
-1.8
 21
-34.25
 31
0.0
  0
LINE
  5
    42
  8
0
  6
CONTINUOUS
 62
     0
 10
1.8
 20
-34.75
 30
0.0
 11
1.8
 21
-34.25
 31
0.0
  0
LINE
  5
    43
  8
0
  6
CONTINUOUS
 62
     0
 10
2.84999999999999
 20
-32.85
 30
0.0
 11
2.84999999999999
 21
-32.05
 31
0.0
  0
LINE
  5
    44
  8
0
  6
CONTINUOUS
 62
     0
 10
2.84999999999999
 20
-32.85
 30
0.0
 11
3.79999999999999
 21
-32.85
 31
0.0
  0
LINE
  5
    45
  8
0
  6
CONTINUOUS
 62
     0
 10
5.54999999999999
 20
-32.85
 30
0.0
 11
5.54999999999999
 21
-32.05
 31
0.0
  0
LINE
  5
    46
  8
0
  6
CONTINUOUS
 62
     0
 10
2.84999999999999
 20
-32.05
 30
0.0
 11
3.79999999999999
 21
-32.05
 31
0.0
  0
LINE
  5
    47
  8
0
  6
CONTINUOUS
 62
     0
 10
3.79999999999999
 20
-37.35
 30
0.0
 11
3.79999999999999
 21
-32.85
 31
0.0
  0
LINE
  5
    48
  8
0
  6
CONTINUOUS
 62
     0
 10
4.59999999999999
 20
-37.35
 30
0.0
 11
4.59999999999999
 21
-32.85
 31
0.0
  0
LINE
  5
    49
  8
0
  6
CONTINUOUS
 62
     0
 10
4.59999999999999
 20
-32.85
 30
0.0
 11
5.54999999999999
 21
-32.85
 31
0.0
  0
LINE
  5
    4A
  8
0
  6
CONTINUOUS
 62
     0
 10
4.59999999999999
 20
-32.05
 30
0.0
 11
5.54999999999999
 21
-32.05
 31
0.0
  0
LINE
  5
    4B
  8
0
  6
CONTINUOUS
 62
     0
 10
3.79999999999999
 20
-32.05
 30
0.0
 11
3.79999999999999
 21
-30.95
 31
0.0
  0
LINE
  5
    4C
  8
0
  6
CONTINUOUS
 62
     0
 10
4.59999999999999
 20
-32.05
 30
0.0
 11
4.59999999999999
 21
-30.95
 31
0.0
  0
ARC
  5
    4D
  8
0
  6
CONTINUOUS
 62
     0
 10
5.09999999999999
 20
-30.95
 30
0.0
 40
1.3
 50
89.9999999999999
 51
180.0
  0
ARC
  5
    4E
  8
0
  6
CONTINUOUS
 62
     0
 10
5.09999999999999
 20
-30.95
 30
0.0
 40
0.5
 50
89.9999999999999
 51
180.0
  0
LINE
  5
    4F
  8
0
  6
CONTINUOUS
 62
     0
 10
5.54999999999999
 20
-30.45
 30
0.0
 11
5.54999999999999
 21
-29.65
 31
0.0
  0
LINE
  5
    50
  8
0
  6
CONTINUOUS
 62
     0
 10
5.09999999999999
 20
-30.45
 30
0.0
 11
5.54999999999999
 21
-30.45
 31
0.0
  0
LINE
  5
    51
  8
0
  6
CONTINUOUS
 62
     0
 10
8.29999999999998
 20
-29.65
 30
0.0
 11
8.74999999999999
 21
-29.65
 31
0.0
  0
LINE
  5
    52
  8
0
  6
CONTINUOUS
 62
     0
 10
6.99999999999999
 20
-37.35
 30
0.0
 11
7.79999999999999
 21
-37.35
 31
0.0
  0
LINE
  5
    53
  8
0
  6
CONTINUOUS
 62
     0
 10
6.04999999999999
 20
-32.85
 30
0.0
 11
6.04999999999999
 21
-32.05
 31
0.0
  0
LINE
  5
    54
  8
0
  6
CONTINUOUS
 62
     0
 10
6.04999999999999
 20
-32.85
 30
0.0
 11
6.99999999999999
 21
-32.85
 31
0.0
  0
LINE
  5
    55
  8
0
  6
CONTINUOUS
 62
     0
 10
8.74999999999999
 20
-32.85
 30
0.0
 11
8.74999999999999
 21
-32.05
 31
0.0
  0
LINE
  5
    56
  8
0
  6
CONTINUOUS
 62
     0
 10
6.04999999999999
 20
-32.05
 30
0.0
 11
6.99999999999999
 21
-32.05
 31
0.0
  0
LINE
  5
    57
  8
0
  6
CONTINUOUS
 62
     0
 10
6.99999999999999
 20
-37.35
 30
0.0
 11
6.99999999999999
 21
-32.85
 31
0.0
  0
LINE
  5
    58
  8
0
  6
CONTINUOUS
 62
     0
 10
7.79999999999999
 20
-37.35
 30
0.0
 11
7.79999999999999
 21
-32.85
 31
0.0
  0
LINE
  5
    59
  8
0
  6
CONTINUOUS
 62
     0
 10
7.79999999999999
 20
-32.85
 30
0.0
 11
8.74999999999999
 21
-32.85
 31
0.0
  0
LINE
  5
    5A
  8
0
  6
CONTINUOUS
 62
     0
 10
7.79999999999999
 20
-32.05
 30
0.0
 11
8.74999999999999
 21
-32.05
 31
0.0
  0
LINE
  5
    5B
  8
0
  6
CONTINUOUS
 62
     0
 10
6.99999999999999
 20
-32.05
 30
0.0
 11
6.99999999999999
 21
-30.95
 31
0.0
  0
LINE
  5
    5C
  8
0
  6
CONTINUOUS
 62
     0
 10
7.79999999999999
 20
-32.05
 30
0.0
 11
7.79999999999999
 21
-30.95
 31
0.0
  0
ARC
  5
    5D
  8
0
  6
CONTINUOUS
 62
     0
 10
8.29999999999998
 20
-30.95
 30
0.0
 40
1.3
 50
89.9999999999999
 51
180.0
  0
ARC
  5
    5E
  8
0
  6
CONTINUOUS
 62
     0
 10
8.29999999999998
 20
-30.95
 30
0.0
 40
0.5
 50
89.9999999999999
 51
180.0
  0
LINE
  5
    5F
  8
0
  6
CONTINUOUS
 62
     0
 10
8.74999999999999
 20
-30.45
 30
0.0
 11
8.74999999999999
 21
-29.65
 31
0.0
  0
LINE
  5
    60
  8
0
  6
CONTINUOUS
 62
     0
 10
8.29999999999998
 20
-30.45
 30
0.0
 11
8.74999999999999
 21
-30.45
 31
0.0
  0
LINE
  5
    61
  8
0
  6
CONTINUOUS
 62
     0
 10
3.4
 20
-2.85000000000002
 30
0.0
 11
4.19999999999999
 21
-2.85000000000002
 31
0.0
  0
ARC
  5
    62
  8
0
  6
CONTINUOUS
 62
     0
 10
-3.5527136788005E-15
 20
0.249999999999979
 30
0.0
 40
2.6
 50
0.0
 51
180.0
  0
ARC
  5
    63
  8
0
  6
CONTINUOUS
 62
     0
 10
-3.5527136788005E-15
 20
0.249999999999979
 30
0.0
 40
1.8
 50
0.0
 51
180.0
  0
ARC
  5
    64
  8
0
  6
CONTINUOUS
 62
     0
 10
-3.5527136788005E-15
 20
-0.250000000000018
 30
0.0
 40
2.6
 50
180.0
 51
360.0
  0
ARC
  5
    65
  8
0
  6
CONTINUOUS
 62
     0
 10
-3.5527136788005E-15
 20
-0.250000000000018
 30
0.0
 40
1.8
 50
180.0
 51
360.0
  0
LINE
  5
    66
  8
0
  6
CONTINUOUS
 62
     0
 10
1.8
 20
-0.250000000000018
 30
0.0
 11
1.8
 21
0.249999999999979
 31
0.0
  0
LINE
  5
    67
  8
0
  6
CONTINUOUS
 62
     0
 10
2.6
 20
-0.250000000000018
 30
0.0
 11
2.6
 21
0.249999999999979
 31
0.0
  0
LINE
  5
    68
  8
0
  6
CONTINUOUS
 62
     0
 10
-1.8
 20
-0.250000000000032
 30
0.0
 11
-1.8
 21
0.249999999999964
 31
0.0
  0
LINE
  5
    69
  8
0
  6
CONTINUOUS
 62
     0
 10
-2.6
 20
-0.250000000000018
 30
0.0
 11
-2.6
 21
0.249999999999979
 31
0.0
  0
LINE
  5
    6A
  8
0
  6
CONTINUOUS
 62
     0
 10
3.4
 20
-2.85000000000002
 30
0.0
 11
3.4
 21
2.84999999999998
 31
0.0
  0
LINE
  5
    6B
  8
0
  6
CONTINUOUS
 62
     0
 10
4.19999999999999
 20
-2.85000000000002
 30
0.0
 11
4.19999999999999
 21
0.649999999999981
 31
0.0
  0
LINE
  5
    6C
  8
0
  6
CONTINUOUS
 62
     0
 10
6.99999999999999
 20
-2.85000000000002
 30
0.0
 11
6.99999999999999
 21
0.649999999999981
 31
0.0
  0
LINE
  5
    6D
  8
0
  6
CONTINUOUS
 62
     0
 10
7.79999999999999
 20
-2.85000000000002
 30
0.0
 11
7.79999999999999
 21
0.84999999999998
 31
0.0
  0
LINE
  5
    6E
  8
0
  6
CONTINUOUS
 62
     0
 10
3.4
 20
2.84999999999998
 30
0.0
 11
4.19999999999999
 21
2.84999999999998
 31
0.0
  0
ARC
  5
    6F
  8
0
  6
CONTINUOUS
 62
     0
 10
5.59999999999999
 20
0.649999999999981
 30
0.0
 40
1.4
 50
0.0
 51
180.0
  0
LINE
  5
    70
  8
0
  6
CONTINUOUS
 62
     0
 10
4.19999999999999
 20
2.05
 30
0.0
 11
4.19999999999999
 21
2.84999999999998
 31
0.0
  0
ARC
  5
    71
  8
0
  6
CONTINUOUS
 62
     0
 10
5.79999999999999
 20
0.84999999999998
 30
0.0
 40
2.0
 50
0.0
 51
143.130102354155
  0
LINE
  5
    72
  8
0
  6
CONTINUOUS
 62
     0
 10
6.99999999999999
 20
-2.85000000000002
 30
0.0
 11
7.79999999999999
 21
-2.85000000000002
 31
0.0
  0
ENDBLK
  5
    73
  8
0
  6
CONTINUOUS
 62
     0
  0
BLOCK
  5
    74
  8
0
  6
CONTINUOUS
 62
     7
  2
COPRITERMINALI
 70
    64
 10
0.0
 20
0.0
 30
0.0
  3
COPRITERMINALI
  0
LINE
  5
    75
  8
0
  6
CONTINUOUS
 62
     3
 10
-67.3620591556077
 20
-26.500002349857
 30
0.0
 11
51.499997307872
 21
-26.4999847412093
 31
0.0
  0
LINE
  5
    76
  8
0
  6
CONTINUOUS
 62
     3
 10
-48.204234418284
 20
-3.2146989469386E-15
 30
0.0
 11
51.2499820490807
 21
-3.2146989469386E-15
 31
0.0
  0
LINE
  5
    77
  8
0
  6
CONTINUOUS
 62
     3
 10
52.5000359267571
 20
-25.4999999999854
 30
0.0
 11
52.5000359267571
 21
-1.24999999998545
 31
0.0
  0
LINE
  5
    78
  8
0
  6
CONTINUOUS
 62
     3
 10
51.2499875325437
 20
6.62021609443286E-6
 30
0.0
 11
52.1338681534683
 21
-0.366112771113006
 31
0.0
  0
LINE
  5
    79
  8
0
  6
CONTINUOUS
 62
     3
 10
52.1338651254927
 20
-0.366107818105295
 30
0.0
 11
52.4999845168218
 21
-1.24998843902992
 31
0.0
  0
LINE
  5
    7A
  8
0
  6
CONTINUOUS
 62
     3
 10
48.3499881525963
 20
-25.5
 30
0.0
 11
48.3499881525963
 21
-0.310653686523438
 31
0.0
  0
LINE
  5
    7B
  8
0
  6
CONTINUOUS
 62
     3
 10
44.7499820490806
 20
-25.5
 30
0.0
 11
44.7499820490806
 21
-0.310653686523438
 31
0.0
  0
LINE
  5
    7C
  8
0
  6
CONTINUOUS
 62
     3
 10
41.1499835749596
 20
-25.5
 30
0.0
 11
41.1499835749596
 21
-0.310653686523438
 31
0.0
  0
LINE
  5
    7D
  8
0
  6
CONTINUOUS
 62
     3
 10
37.5499851008385
 20
-25.5
 30
0.0
 11
37.5499851008385
 21
-0.310653686523438
 31
0.0
  0
LINE
  5
    7E
  8
0
  6
CONTINUOUS
 62
     3
 10
33.9499866267174
 20
-25.5
 30
0.0
 11
33.9499866267174
 21
-0.310653686523438
 31
0.0
  0
LINE
  5
    7F
  8
0
  6
CONTINUOUS
 62
     3
 10
30.3499881525963
 20
-25.5
 30
0.0
 11
30.3499881525963
 21
-0.310653686523438
 31
0.0
  0
LINE
  5
    80
  8
0
  6
CONTINUOUS
 62
     3
 10
26.7499820490806
 20
-25.5
 30
0.0
 11
26.7499820490806
 21
-0.310653686523438
 31
0.0
  0
LINE
  5
    81
  8
0
  6
CONTINUOUS
 62
     3
 10
23.1499835749596
 20
-25.5
 30
0.0
 11
23.1499835749596
 21
-0.310653686523438
 31
0.0
  0
LINE
  5
    82
  8
0
  6
CONTINUOUS
 62
     3
 10
19.5499851008385
 20
-25.5
 30
0.0
 11
19.5499851008385
 21
-0.310653686523438
 31
0.0
  0
LINE
  5
    83
  8
0
  6
CONTINUOUS
 62
     3
 10
15.9499866267174
 20
-25.5
 30
0.0
 11
15.9499866267174
 21
-0.310653686523438
 31
0.0
  0
LINE
  5
    84
  8
0
  6
CONTINUOUS
 62
     3
 10
12.3499881525963
 20
-25.5
 30
0.0
 11
12.3499881525963
 21
-0.310653686523438
 31
0.0
  0
LINE
  5
    85
  8
0
  6
CONTINUOUS
 62
     3
 10
8.74998586377791
 20
-25.5
 30
0.0
 11
8.74998586377791
 21
-0.310653686523438
 31
0.0
  0
LINE
  5
    86
  8
0
  6
CONTINUOUS
 62
     3
 10
5.14998738965681
 20
-25.5
 30
0.0
 11
5.14998738965681
 21
-0.310653686523438
 31
0.0
  0
LINE
  5
    87
  8
0
  6
CONTINUOUS
 62
     3
 10
1.54998510083846
 20
-25.5
 30
0.0
 11
1.54998510083846
 21
-0.310653686523438
 31
0.0
  0
LINE
  5
    88
  8
0
  6
CONTINUOUS
 62
     3
 10
-2.05001337328264
 20
-25.5
 30
0.0
 11
-2.05001337328264
 21
-0.310653686523438
 31
0.0
  0
LINE
  5
    89
  8
0
  6
CONTINUOUS
 62
     3
 10
-5.650015662101
 20
-25.5
 30
0.0
 11
-5.650015662101
 21
-0.310653686523438
 31
0.0
  0
LINE
  5
    8A
  8
0
  6
CONTINUOUS
 62
     3
 10
-9.25001413622209
 20
-25.5
 30
0.0
 11
-9.25001413622209
 21
-0.310653686523438
 31
0.0
  0
LINE
  5
    8B
  8
0
  6
CONTINUOUS
 62
     3
 10
-31.0500133732826
 20
-25.5
 30
0.0
 11
-31.0500133732826
 21
-0.310653686523438
 31
0.0
  0
LINE
  5
    8C
  8
0
  6
CONTINUOUS
 62
     3
 10
-52.8500126103432
 20
-25.5
 30
0.0
 11
-52.8500126103432
 21
-10.5526452153014
 31
0.0
  0
LINE
  5
    8D
  8
0
  6
CONTINUOUS
 62
     3
 10
-56.4500148991615
 20
-25.5
 30
0.0
 11
-56.4500148991615
 21
-11.7502612748529
 31
0.0
  0
LINE
  5
    8E
  8
0
  6
CONTINUOUS
 62
     3
 10
-60.0500133732826
 20
-25.5
 30
0.0
 11
-60.0500133732826
 21
-20.2083545248035
 31
0.0
  0
LINE
  5
    8F
  8
0
  6
CONTINUOUS
 62
     3
 10
-63.6500137547524
 20
-25.5
 30
0.0
 11
-63.6500137547524
 21
-22.6912873624742
 31
0.0
  0
LINE
  5
    90
  8
0
  6
CONTINUOUS
 62
     3
 10
51.4999973078697
 20
-26.4999847412109
 30
0.0
 11
51.4999973078697
 21
-25.4999847412109
 31
0.0
  0
LINE
  5
    91
  8
0
  6
CONTINUOUS
 62
     3
 10
51.4999973323171
 20
-25.4999847240978
 30
0.0
 11
52.4999897029225
 21
-25.4999999828869
 31
0.0
  0
LINE
  5
    92
  8
0
  6
CONTINUOUS
 62
     3
 10
-67.1497200056689
 20
-25.5000021667411
 30
0.0
 11
51.499997307872
 21
-25.4999847412093
 31
0.0
  0
LINE
  5
    93
  8
0
  6
CONTINUOUS
 62
     3
 10
-27.4500148991615
 20
-25.5
 30
0.0
 11
-27.4500148991615
 21
-0.310653686523438
 31
0.0
  0
LINE
  5
    94
  8
0
  6
CONTINUOUS
 62
     3
 10
-23.8500126103432
 20
-25.5
 30
0.0
 11
-23.8500126103432
 21
-0.310653686523438
 31
0.0
  0
LINE
  5
    95
  8
0
  6
CONTINUOUS
 62
     3
 10
-20.2500141362221
 20
-25.5
 30
0.0
 11
-20.2500141362221
 21
-0.310653686523438
 31
0.0
  0
LINE
  5
    96
  8
0
  6
CONTINUOUS
 62
     3
 10
-16.6500141362221
 20
-25.5
 30
0.0
 11
-16.6500141362221
 21
-0.310653686523438
 31
0.0
  0
LINE
  5
    97
  8
0
  6
CONTINUOUS
 62
     3
 10
-13.0500141362221
 20
-25.5
 30
0.0
 11
-13.0500141362221
 21
-0.310653686523438
 31
0.0
  0
LINE
  5
    98
  8
0
  6
CONTINUOUS
 62
     3
 10
-34.6500133732826
 20
-25.5
 30
0.0
 11
-34.6500133732826
 21
-0.310653686523438
 31
0.0
  0
LINE
  5
    99
  8
0
  6
CONTINUOUS
 62
     3
 10
-38.2500133732826
 20
-25.5
 30
0.0
 11
-38.2500133732826
 21
-0.310653686523438
 31
0.0
  0
LINE
  5
    9A
  8
0
  6
CONTINUOUS
 62
     3
 10
-41.8500133732826
 20
-25.5
 30
0.0
 11
-41.8500133732826
 21
-0.310653686523438
 31
0.0
  0
LINE
  5
    9B
  8
0
  6
CONTINUOUS
 62
     3
 10
-45.4500133732826
 20
-25.5
 30
0.0
 11
-45.4500133732826
 21
-0.310653686523438
 31
0.0
  0
LINE
  5
    9C
  8
0
  6
CONTINUOUS
 62
     3
 10
-49.0500133732826
 20
-25.5
 30
0.0
 11
-49.0500133732826
 21
-6.05307151234209
 31
0.0
  0
POLYLINE
  5
    9D
  8
0
  6
CONTINUOUS
 62
     3
 66
     1
 10
0.0
 20
0.0
 30
0.0
  0
VERTEX
  5
    9E
  8
0
  6
CONTINUOUS
 10
-46.876787240646
 20
0.854569660673267
 30
0.0
 40
0.0
 41
0.0
  0
VERTEX
  5
    9F
  8
0
  6
CONTINUOUS
 10
-46.9721723301049
 20
0.814458521844115
 30
0.0
 40
0.0
 41
0.0
  0
VERTEX
  5
    A0
  8
0
  6
CONTINUOUS
 10
-47.066998293645
 20
0.772002007537208
 30
0.0
 40
0.0
 41
0.0
  0
VERTEX
  5
    A1
  8
0
  6
CONTINUOUS
 10
-47.16125591826
 20
0.727198910056833
 30
0.0
 40
0.0
 41
0.0
  0
VERTEX
  5
    A2
  8
0
  6
CONTINUOUS
 10
-47.2549212501342
 20
0.680046089394138
 30
0.0
 40
0.0
 41
0.0
  0
VERTEX
  5
    A3
  8
0
  6
CONTINUOUS
 10
-47.3479482242371
 20
0.630537507070556
 30
0.0
 40
0.0
 41
0.0
  0
VERTEX
  5
    A4
  8
0
  6
CONTINUOUS
 10
-47.4402612939189
 20
0.578663259981243
 30
0.0
 40
0.0
 41
0.0
  0
VERTEX
  5
    A5
  8
0
  6
CONTINUOUS
 10
-47.5317480605055
 20
0.524408614238501
 30
0.0
 40
0.0
 41
0.0
  0
VERTEX
  5
    A6
  8
0
  6
CONTINUOUS
 10
-47.6222519028934
 20
0.467753039015211
 30
0.0
 40
0.0
 41
0.0
  0
VERTEX
  5
    A7
  8
0
  6
CONTINUOUS
 10
-47.7115646071452
 20
0.408669240388261
 30
0.0
 40
0.0
 41
0.0
  0
VERTEX
  5
    A8
  8
0
  6
CONTINUOUS
 10
-47.7994189960847
 20
0.347122195181976
 30
0.0
 40
0.0
 41
0.0
  0
VERTEX
  5
    A9
  8
0
  6
CONTINUOUS
 10
-47.8744094036274
 20
0.291538104300929
 30
0.0
 40
0.0
 41
0.0
  0
VERTEX
  5
    AA
  8
0
  6
CONTINUOUS
 10
-47.9477851957828
 20
0.234022888600338
 30
0.0
 40
0.0
 41
0.0
  0
VERTEX
  5
    AB
  8
0
  6
CONTINUOUS
 10
-48.0192619240741
 20
0.174540805801248
 30
0.0
 40
0.0
 41
0.0
  0
VERTEX
  5
    AC
  8
0
  6
CONTINUOUS
 10
-48.0885474289283
 20
0.113057574682874
 30
0.0
 40
0.0
 41
0.0
  0
VERTEX
  5
    AD
  8
0
  6
CONTINUOUS
 10
-48.1553590975857
 20
4.95438732895123E-2
 30
0.0
 40
0.0
 41
0.0
  0
VERTEX
  5
    AE
  8
0
  6
CONTINUOUS
 10
-48.2194411220097
 20
-1.60211628625482E-2
 30
0.0
 40
0.0
 41
0.0
  0
VERTEX
  5
    AF
  8
0
  6
CONTINUOUS
 10
-48.2805817567964
 20
-8.36464425781117E-2
 30
0.0
 40
0.0
 41
0.0
  0
VERTEX
  5
    B0
  8
0
  6
CONTINUOUS
 10
-48.3386305770846
 20
-0.153325420776165
 30
0.0
 40
0.0
 41
0.0
  0
VERTEX
  5
    B1
  8
0
  6
CONTINUOUS
 10
-48.3935157364654
 20
-0.225032600282964
 30
0.0
 40
0.0
 41
0.0
  0
VERTEX
  5
    B2
  8
0
  6
CONTINUOUS
 10
-48.4452612248918
 20
-0.298720033625123
 30
0.0
 40
0.0
 41
0.0
  0
VERTEX
  5
    B3
  8
0
  6
CONTINUOUS
 10
-48.4945971743327
 20
-0.375274090034215
 30
0.0
 40
0.0
 41
0.0
  0
VERTEX
  5
    B4
  8
0
  6
CONTINUOUS
 10
-48.5411199712386
 20
-0.453677416963222
 30
0.0
 40
0.0
 41
0.0
  0
VERTEX
  5
    B5
  8
0
  6
CONTINUOUS
 10
-48.5851955010915
 20
-0.533799511234888
 30
0.0
 40
0.0
 41
0.0
  0
VERTEX
  5
    B6
  8
0
  6
CONTINUOUS
 10
-48.6272544551347
 20
-0.615490141070743
 30
0.0
 40
0.0
 41
0.0
  0
VERTEX
  5
    B7
  8
0
  6
CONTINUOUS
 10
-48.7071527912846
 20
-0.782911109456327
 30
0.0
 40
0.0
 41
0.0
  0
VERTEX
  5
    B8
  8
0
  6
CONTINUOUS
 10
-48.8604455148392
 20
-1.12908861351996
 30
0.0
 40
0.0
 41
0.0
  0
VERTEX
  5
    B9
  8
0
  6
CONTINUOUS
 10
-48.942363984087
 20
-1.32160002840039
 30
0.0
 40
0.0
 41
0.0
  0
VERTEX
  5
    BA
  8
0
  6
CONTINUOUS
 10
-48.9815702511215
 20
-1.41831744205082
 30
0.0
 40
0.0
 41
0.0
  0
VERTEX
  5
    BB
  8
0
  6
CONTINUOUS
 10
-49.0185023284674
 20
-1.5152229170637
 30
0.0
 40
0.0
 41
0.0
  0
VERTEX
  5
    BC
  8
0
  6
CONTINUOUS
 10
-49.0521693675626
 20
-1.61225337717485
 30
0.0
 40
0.0
 41
0.0
  0
VERTEX
  5
    BD
  8
0
  6
CONTINUOUS
 10
-49.0815320854607
 20
-1.70936097859737
 30
0.0
 40
0.0
 41
0.0
  0
VERTEX
  5
    BE
  8
0
  6
CONTINUOUS
 10
-49.1055701962376
 20
-1.8065079832067
 30
0.0
 40
0.0
 41
0.0
  0
VERTEX
  5
    BF
  8
0
  6
CONTINUOUS
 10
-49.1233498423979
 20
-1.90366163172566
 30
0.0
 40
0.0
 41
0.0
  0
VERTEX
  5
    C0
  8
0
  6
CONTINUOUS
 10
-49.1340910262817
 20
-2.00078901690942
 30
0.0
 40
0.0
 41
0.0
  0
VERTEX
  5
    C1
  8
0
  6
CONTINUOUS
 10
-49.1372350414708
 20
-2.09785195673061
 30
0.0
 40
0.0
 41
0.0
  0
VERTEX
  5
    C2
  8
0
  6
CONTINUOUS
 10
-49.1358232619671
 20
-2.14710524229059
 30
0.0
 40
0.0
 41
0.0
  0
VERTEX
  5
    C3
  8
0
  6
CONTINUOUS
 10
-49.1323739713713
 20
-2.1963219487161
 30
0.0
 40
0.0
 41
0.0
  0
VERTEX
  5
    C4
  8
0
  6
CONTINUOUS
 10
-49.1194594478628
 20
-2.29461102766857
 30
0.0
 40
0.0
 41
0.0
  0
VERTEX
  5
    C5
  8
0
  6
CONTINUOUS
 10
-49.0988760300133
 20
-2.39264518092583
 30
0.0
 40
0.0
 41
0.0
  0
VERTEX
  5
    C6
  8
0
  6
CONTINUOUS
 10
-49.0712752613472
 20
-2.49034743073488
 30
0.0
 40
0.0
 41
0.0
  0
VERTEX
  5
    C7
  8
0
  6
CONTINUOUS
 10
-49.0375196427265
 20
-2.58764461480102
 30
0.0
 40
0.0
 41
0.0
  0
VERTEX
  5
    C8
  8
0
  6
CONTINUOUS
 10
-48.9986266052311
 20
-2.68447416683697
 30
0.0
 40
0.0
 41
0.0
  0
VERTEX
  5
    C9
  8
0
  6
CONTINUOUS
 10
-48.9557124830401
 20
-2.78079089711194
 30
0.0
 40
0.0
 41
0.0
  0
VERTEX
  5
    CA
  8
0
  6
CONTINUOUS
 10
-48.9099364863125
 20
-2.87657377300071
 30
0.0
 40
0.0
 41
0.0
  0
VERTEX
  5
    CB
  8
0
  6
CONTINUOUS
 10
-48.7020288292589
 20
-3.29180058338533
 30
0.0
 40
0.0
 41
0.0
  0
VERTEX
  5
    CC
  8
0
  6
CONTINUOUS
 10
-48.6495225791305
 20
-3.40425499016458
 30
0.0
 40
0.0
 41
0.0
  0
VERTEX
  5
    CD
  8
0
  6
CONTINUOUS
 10
-48.6005048396674
 20
-3.51708301702234
 30
0.0
 40
0.0
 41
0.0
  0
VERTEX
  5
    CE
  8
0
  6
CONTINUOUS
 10
-48.5554864155453
 20
-3.63065813177049
 30
0.0
 40
0.0
 41
0.0
  0
VERTEX
  5
    CF
  8
0
  6
CONTINUOUS
 10
-48.5148078551671
 20
-3.74533661348495
 30
0.0
 40
0.0
 41
0.0
  0
VERTEX
  5
    D0
  8
0
  6
CONTINUOUS
 10
-48.4786891897255
 20
-3.86142713837128
 30
0.0
 40
0.0
 41
0.0
  0
VERTEX
  5
    D1
  8
0
  6
CONTINUOUS
 10
-48.4472796722663
 20
-3.97916036563029
 30
0.0
 40
0.0
 41
0.0
  0
VERTEX
  5
    D2
  8
0
  6
CONTINUOUS
 10
-48.4207075167511
 20
-4.09865852332369
 30
0.0
 40
0.0
 41
0.0
  0
VERTEX
  5
    D3
  8
0
  6
CONTINUOUS
 10
-48.3991296371198
 20
-4.21990499423965
 30
0.0
 40
0.0
 41
0.0
  0
VERTEX
  5
    D4
  8
0
  6
CONTINUOUS
 10
-48.3828459265565
 20
-4.34212376266901
 30
0.0
 40
0.0
 41
0.0
  0
VERTEX
  5
    D5
  8
0
  6
CONTINUOUS
 10
-48.3720784841544
 20
-4.4655282211303
 30
0.0
 40
0.0
 41
0.0
  0
VERTEX
  5
    D6
  8
0
  6
CONTINUOUS
 10
-48.3672532284227
 20
-4.58960084911821
 30
0.0
 40
0.0
 41
0.0
  0
VERTEX
  5
    D7
  8
0
  6
CONTINUOUS
 10
-48.3688488551705
 20
-4.71370894500943
 30
0.0
 40
0.0
 41
0.0
  0
VERTEX
  5
    D8
  8
0
  6
CONTINUOUS
 10
-48.3773603547595
 20
-4.8371449754347
 30
0.0
 40
0.0
 41
0.0
  0
VERTEX
  5
    D9
  8
0
  6
CONTINUOUS
 10
-48.3932625293561
 20
-4.95916692465084
 30
0.0
 40
0.0
 41
0.0
  0
VERTEX
  5
    DA
  8
0
  6
CONTINUOUS
 10
-48.4041189970733
 20
-5.01941623983992
 30
0.0
 40
0.0
 41
0.0
  0
VERTEX
  5
    DB
  8
0
  6
CONTINUOUS
 10
-48.4169735101835
 20
-5.07903864391286
 30
0.0
 40
0.0
 41
0.0
  0
VERTEX
  5
    DC
  8
0
  6
CONTINUOUS
 10
-48.4318634948038
 20
-5.13794965481385
 30
0.0
 40
0.0
 41
0.0
  0
VERTEX
  5
    DD
  8
0
  6
CONTINUOUS
 10
-48.4488182747742
 20
-5.19607020084598
 30
0.0
 40
0.0
 41
0.0
  0
VERTEX
  5
    DE
  8
0
  6
CONTINUOUS
 10
-48.4678579315712
 20
-5.25332788158911
 30
0.0
 40
0.0
 41
0.0
  0
VERTEX
  5
    DF
  8
0
  6
CONTINUOUS
 10
-48.4889921642223
 20
-5.30965822881773
 30
0.0
 40
0.0
 41
0.0
  0
VERTEX
  5
    E0
  8
0
  6
CONTINUOUS
 10
-48.5122191492199
 20
-5.36500596741888
 30
0.0
 40
0.0
 41
0.0
  0
VERTEX
  5
    E1
  8
0
  6
CONTINUOUS
 10
-48.5375244004356
 20
-5.41932627630998
 30
0.0
 40
0.0
 41
0.0
  0
VERTEX
  5
    E2
  8
0
  6
CONTINUOUS
 10
-48.5677587154249
 20
-5.4779122789146
 30
0.0
 40
0.0
 41
0.0
  0
VERTEX
  5
    E3
  8
0
  6
CONTINUOUS
 10
-48.6004204523439
 20
-5.53518589695186
 30
0.0
 40
0.0
 41
0.0
  0
VERTEX
  5
    E4
  8
0
  6
CONTINUOUS
 10
-48.6354318661118
 20
-5.59113801743105
 30
0.0
 40
0.0
 41
0.0
  0
VERTEX
  5
    E5
  8
0
  6
CONTINUOUS
 10
-48.6726973557968
 20
-5.64577577440599
 30
0.0
 40
0.0
 41
0.0
  0
VERTEX
  5
    E6
  8
0
  6
CONTINUOUS
 10
-48.7121055206197
 20
-5.69912113438762
 30
0.0
 40
0.0
 41
0.0
  0
VERTEX
  5
    E7
  8
0
  6
CONTINUOUS
 10
-48.7535312159572
 20
-5.75120948175672
 30
0.0
 40
0.0
 41
0.0
  0
VERTEX
  5
    E8
  8
0
  6
CONTINUOUS
 10
-48.7968376093459
 20
-5.80208820417647
 30
0.0
 40
0.0
 41
0.0
  0
VERTEX
  5
    E9
  8
0
  6
CONTINUOUS
 10
-48.8418782364854
 20
-5.8518152780052
 30
0.0
 40
0.0
 41
0.0
  0
VERTEX
  5
    EA
  8
0
  6
CONTINUOUS
 10
-48.9365405116538
 20
-5.94809084127414
 30
0.0
 40
0.0
 41
0.0
  0
VERTEX
  5
    EB
  8
0
  6
CONTINUOUS
 10
-49.0362318184611
 20
-6.04065800201248
 30
0.0
 40
0.0
 41
0.0
  0
VERTEX
  5
    EC
  8
0
  6
CONTINUOUS
 10
-49.1396434087467
 20
-6.1302174762001
 30
0.0
 40
0.0
 41
0.0
  0
VERTEX
  5
    ED
  8
0
  6
CONTINUOUS
 10
-49.2455098013047
 20
-6.21750359855253
 30
0.0
 40
0.0
 41
0.0
  0
VERTEX
  5
    EE
  8
0
  6
CONTINUOUS
 10
-49.6312746214166
 20
-6.52355755212585
 30
0.0
 40
0.0
 41
0.0
  0
VERTEX
  5
    EF
  8
0
  6
CONTINUOUS
 10
-49.7997765043331
 20
-6.65978873310561
 30
0.0
 40
0.0
 41
0.0
  0
VERTEX
  5
    F0
  8
0
  6
CONTINUOUS
 10
-49.9654295618095
 20
-6.79769668643006
 30
0.0
 40
0.0
 41
0.0
  0
VERTEX
  5
    F1
  8
0
  6
CONTINUOUS
 10
-50.1287786859521
 20
-6.93771867655301
 30
0.0
 40
0.0
 41
0.0
  0
VERTEX
  5
    F2
  8
0
  6
CONTINUOUS
 10
-50.2905247357692
 20
-7.08006343609966
 30
0.0
 40
0.0
 41
0.0
  0
VERTEX
  5
    F3
  8
0
  6
CONTINUOUS
 10
-50.4744209257413
 20
-7.24655558620616
 30
0.0
 40
0.0
 41
0.0
  0
VERTEX
  5
    F4
  8
0
  6
CONTINUOUS
 10
-50.6555677915854
 20
-7.41700050538541
 30
0.0
 40
0.0
 41
0.0
  0
VERTEX
  5
    F5
  8
0
  6
CONTINUOUS
 10
-50.832212467677
 20
-7.59205176567915
 30
0.0
 40
0.0
 41
0.0
  0
VERTEX
  5
    F6
  8
0
  6
CONTINUOUS
 10
-50.9183248965502
 20
-7.68143067467104
 30
0.0
 40
0.0
 41
0.0
  0
VERTEX
  5
    F7
  8
0
  6
CONTINUOUS
 10
-51.0028019981568
 20
-7.77203700499503
 30
0.0
 40
0.0
 41
0.0
  0
VERTEX
  5
    F8
  8
0
  6
CONTINUOUS
 10
-51.167024903436
 20
-7.95656360376644
 30
0.0
 40
0.0
 41
0.0
  0
VERTEX
  5
    F9
  8
0
  6
CONTINUOUS
 10
-51.4361655821791
 20
-8.2733871536075
 30
0.0
 40
0.0
 41
0.0
  0
VERTEX
  5
    FA
  8
0
  6
CONTINUOUS
 10
-51.5727316250447
 20
-8.43117900952498
 30
0.0
 40
0.0
 41
0.0
  0
VERTEX
  5
    FB
  8
0
  6
CONTINUOUS
 10
-51.713695709368
 20
-8.58694114170117
 30
0.0
 40
0.0
 41
0.0
  0
VERTEX
  5
    FC
  8
0
  6
CONTINUOUS
 10
-52.008949861537
 20
-8.89875184225645
 30
0.0
 40
0.0
 41
0.0
  0
VERTEX
  5
    FD
  8
0
  6
CONTINUOUS
 10
-52.0819666457296
 20
-8.97903083253852
 30
0.0
 40
0.0
 41
0.0
  0
VERTEX
  5
    FE
  8
0
  6
CONTINUOUS
 10
-52.1521085243137
 20
-9.06103296813225
 30
0.0
 40
0.0
 41
0.0
  0
VERTEX
  5
    FF
  8
0
  6
CONTINUOUS
 10
-52.2181709241192
 20
-9.14540479306699
 30
0.0
 40
0.0
 41
0.0
  0
VERTEX
  5
   100
  8
0
  6
CONTINUOUS
 10
-52.2790567687472
 20
-9.23272497901959
 30
0.0
 40
0.0
 41
0.0
  0
VERTEX
  5
   101
  8
0
  6
CONTINUOUS
 10
-52.3338845840438
 20
-9.32344385262423
 30
0.0
 40
0.0
 41
0.0
  0
VERTEX
  5
   102
  8
0
  6
CONTINUOUS
 10
-52.382096603575
 20
-9.41782292278212
 30
0.0
 40
0.0
 41
0.0
  0
VERTEX
  5
   103
  8
0
  6
CONTINUOUS
 10
-52.4235668741009
 20
-9.51587440797125
 30
0.0
 40
0.0
 41
0.0
  0
VERTEX
  5
   104
  8
0
  6
CONTINUOUS
 10
-52.4587093610502
 20
-9.61730076355612
 30
0.0
 40
0.0
 41
0.0
  0
VERTEX
  5
   105
  8
0
  6
CONTINUOUS
 10
-52.4955000691671
 20
-9.74809695400102
 30
0.0
 40
0.0
 41
0.0
  0
VERTEX
  5
   106
  8
0
  6
CONTINUOUS
 10
-52.5596582263839
 20
-10.0131261654084
 30
0.0
 40
0.0
 41
0.0
  0
VERTEX
  5
   107
  8
0
  6
CONTINUOUS
 10
-52.5772361364227
 20
-10.0779737770645
 30
0.0
 40
0.0
 41
0.0
  0
VERTEX
  5
   108
  8
0
  6
CONTINUOUS
 10
-52.5966644004176
 20
-10.1414927576059
 30
0.0
 40
0.0
 41
0.0
  0
VERTEX
  5
   109
  8
0
  6
CONTINUOUS
 10
-52.618501728714
 20
-10.2033242934322
 30
0.0
 40
0.0
 41
0.0
  0
VERTEX
  5
   10A
  8
0
  6
CONTINUOUS
 10
-52.6432357121379
 20
-10.2631429923632
 30
0.0
 40
0.0
 41
0.0
  0
VERTEX
  5
   10B
  8
0
  6
CONTINUOUS
 10
-52.6691443135657
 20
-10.3166454704866
 30
0.0
 40
0.0
 41
0.0
  0
VERTEX
  5
   10C
  8
0
  6
CONTINUOUS
 10
-52.6981210083247
 20
-10.3679886199315
 30
0.0
 40
0.0
 41
0.0
  0
VERTEX
  5
   10D
  8
0
  6
CONTINUOUS
 10
-52.7303147164829
 20
-10.417031440941
 30
0.0
 40
0.0
 41
0.0
  0
VERTEX
  5
   10E
  8
0
  6
CONTINUOUS
 10
-52.7658000219236
 20
-10.4636713000283
 30
0.0
 40
0.0
 41
0.0
  0
VERTEX
  5
   10F
  8
0
  6
CONTINUOUS
 10
-52.8045838915856
 20
-10.5078414093533
 30
0.0
 40
0.0
 41
0.0
  0
VERTEX
  5
   110
  8
0
  6
CONTINUOUS
 10
-52.8466123947047
 20
-10.5495083060998
 30
0.0
 40
0.0
 41
0.0
  0
VERTEX
  5
   111
  8
0
  6
CONTINUOUS
 10
-52.8917774220537
 20
-10.5886693318526
 30
0.0
 40
0.0
 41
0.0
  0
VERTEX
  5
   112
  8
0
  6
CONTINUOUS
 10
-52.9399234051833
 20
-10.625350111974
 30
0.0
 40
0.0
 41
0.0
  0
VERTEX
  5
   113
  8
0
  6
CONTINUOUS
 10
-52.9908540356628
 20
-10.6596020349809
 30
0.0
 40
0.0
 41
0.0
  0
VERTEX
  5
   114
  8
0
  6
CONTINUOUS
 10
-53.0443389843207
 20
-10.6914997319222
 30
0.0
 40
0.0
 41
0.0
  0
VERTEX
  5
   115
  8
0
  6
CONTINUOUS
 10
-53.1001206204854
 20
-10.7211385557551
 30
0.0
 40
0.0
 41
0.0
  0
VERTEX
  5
   116
  8
0
  6
CONTINUOUS
 10
-53.1579207312257
 20
-10.7486320607222
 30
0.0
 40
0.0
 41
0.0
  0
VERTEX
  5
   117
  8
0
  6
CONTINUOUS
 10
-53.2174472405918
 20
-10.7741094817288
 30
0.0
 40
0.0
 41
0.0
  0
VERTEX
  5
   118
  8
0
  6
CONTINUOUS
 10
-53.2784009288556
 20
-10.7977132137193
 30
0.0
 40
0.0
 41
0.0
  0
VERTEX
  5
   119
  8
0
  6
CONTINUOUS
 10
-53.4033975597173
 20
-10.8399198668889
 30
0.0
 40
0.0
 41
0.0
  0
VERTEX
  5
   11A
  8
0
  6
CONTINUOUS
 10
-53.530629321569
 20
-10.8765585968987
 30
0.0
 40
0.0
 41
0.0
  0
VERTEX
  5
   11B
  8
0
  6
CONTINUOUS
 10
-53.6581306431205
 20
-10.9089852211703
 30
0.0
 40
0.0
 41
0.0
  0
VERTEX
  5
   11C
  8
0
  6
CONTINUOUS
 10
-54.1360283944759
 20
-11.017646180962
 30
0.0
 40
0.0
 41
0.0
  0
VERTEX
  5
   11D
  8
0
  6
CONTINUOUS
 10
-54.2896405438277
 20
-11.0544657914475
 30
0.0
 40
0.0
 41
0.0
  0
VERTEX
  5
   11E
  8
0
  6
CONTINUOUS
 10
-54.5784857748733
 20
-11.1300584480822
 30
0.0
 40
0.0
 41
0.0
  0
VERTEX
  5
   11F
  8
0
  6
CONTINUOUS
 10
-54.8540094310194
 20
-11.2055160258634
 30
0.0
 40
0.0
 41
0.0
  0
VERTEX
  5
   120
  8
0
  6
CONTINUOUS
 10
-55.1343414518224
 20
-11.2780379233458
 30
0.0
 40
0.0
 41
0.0
  0
VERTEX
  5
   121
  8
0
  6
CONTINUOUS
 10
-55.5316379407962
 20
-11.372272226925
 30
0.0
 40
0.0
 41
0.0
  0
VERTEX
  5
   122
  8
0
  6
CONTINUOUS
 10
-55.7273204325452
 20
-11.4226562541322
 30
0.0
 40
0.0
 41
0.0
  0
VERTEX
  5
   123
  8
0
  6
CONTINUOUS
 10
-55.8235439610079
 20
-11.4508578562996
 30
0.0
 40
0.0
 41
0.0
  0
VERTEX
  5
   124
  8
0
  6
CONTINUOUS
 10
-55.9183784697148
 20
-11.4819290068923
 30
0.0
 40
0.0
 41
0.0
  0
VERTEX
  5
   125
  8
0
  6
CONTINUOUS
 10
-56.0116213921944
 20
-11.5164355053387
 30
0.0
 40
0.0
 41
0.0
  0
VERTEX
  5
   126
  8
0
  6
CONTINUOUS
 10
-56.1031047950331
 20
-11.5548274499774
 30
0.0
 40
0.0
 41
0.0
  0
VERTEX
  5
   127
  8
0
  6
CONTINUOUS
 10
-56.2059067970184
 20
-11.6041173400154
 30
0.0
 40
0.0
 41
0.0
  0
VERTEX
  5
   128
  8
0
  6
CONTINUOUS
 10
-56.3061126763002
 20
-11.6590648526259
 30
0.0
 40
0.0
 41
0.0
  0
VERTEX
  5
   129
  8
0
  6
CONTINUOUS
 10
-56.4036967655598
 20
-11.7195213839729
 30
0.0
 40
0.0
 41
0.0
  0
VERTEX
  5
   12A
  8
0
  6
CONTINUOUS
 10
-56.4987105525829
 20
-11.785095496122
 30
0.0
 40
0.0
 41
0.0
  0
VERTEX
  5
   12B
  8
0
  6
CONTINUOUS
 10
-56.5912759928138
 20
-11.8552057326018
 30
0.0
 40
0.0
 41
0.0
  0
VERTEX
  5
   12C
  8
0
  6
CONTINUOUS
 10
-56.6815788219087
 20
-11.9291334339649
 30
0.0
 40
0.0
 41
0.0
  0
VERTEX
  5
   12D
  8
0
  6
CONTINUOUS
 10
-56.7698618682894
 20
-12.006075553349
 30
0.0
 40
0.0
 41
0.0
  0
VERTEX
  5
   12E
  8
0
  6
CONTINUOUS
 10
-56.8564183656966
 20
-12.0851974720373
 30
0.0
 40
0.0
 41
0.0
  0
VERTEX
  5
   12F
  8
0
  6
CONTINUOUS
 10
-57.2796119009183
 20
-12.4918383998786
 30
0.0
 40
0.0
 41
0.0
  0
VERTEX
  5
   130
  8
0
  6
CONTINUOUS
 10
-57.4079466278769
 20
-12.6117155924002
 30
0.0
 40
0.0
 41
0.0
  0
VERTEX
  5
   131
  8
0
  6
CONTINUOUS
 10
-57.5385394029979
 20
-12.7297207853732
 30
0.0
 40
0.0
 41
0.0
  0
VERTEX
  5
   132
  8
0
  6
CONTINUOUS
 10
-57.8570302533775
 20
-13.0073151067949
 30
0.0
 40
0.0
 41
0.0
  0
VERTEX
  5
   133
  8
0
  6
CONTINUOUS
 10
-58.0402364310749
 20
-13.1716228200656
 30
0.0
 40
0.0
 41
0.0
  0
VERTEX
  5
   134
  8
0
  6
CONTINUOUS
 10
-58.1286691568917
 20
-13.256356918105
 30
0.0
 40
0.0
 41
0.0
  0
VERTEX
  5
   135
  8
0
  6
CONTINUOUS
 10
-58.2136408196092
 20
-13.3434626291575
 30
0.0
 40
0.0
 41
0.0
  0
VERTEX
  5
   136
  8
0
  6
CONTINUOUS
 10
-58.2941919241894
 20
-13.4333724310396
 30
0.0
 40
0.0
 41
0.0
  0
VERTEX
  5
   137
  8
0
  6
CONTINUOUS
 10
-58.3694842207708
 20
-13.5264456250909
 30
0.0
 40
0.0
 41
0.0
  0
VERTEX
  5
   138
  8
0
  6
CONTINUOUS
 10
-58.4388676618016
 20
-13.6229447632713
 30
0.0
 40
0.0
 41
0.0
  0
VERTEX
  5
   139
  8
0
  6
CONTINUOUS
 10
-58.5019473591737
 20
-13.7230120752584
 30
0.0
 40
0.0
 41
0.0
  0
VERTEX
  5
   13A
  8
0
  6
CONTINUOUS
 10
-58.5358624317258
 20
-13.7831755180109
 30
0.0
 40
0.0
 41
0.0
  0
VERTEX
  5
   13B
  8
0
  6
CONTINUOUS
 10
-58.5676330892729
 20
-13.8445360253167
 30
0.0
 40
0.0
 41
0.0
  0
VERTEX
  5
   13C
  8
0
  6
CONTINUOUS
 10
-58.5973423361025
 20
-13.9070508693606
 30
0.0
 40
0.0
 41
0.0
  0
VERTEX
  5
   13D
  8
0
  6
CONTINUOUS
 10
-58.6251087585445
 20
-13.9706617735877
 30
0.0
 40
0.0
 41
0.0
  0
VERTEX
  5
   13E
  8
0
  6
CONTINUOUS
 10
-58.675435754757
 20
-14.1008729669627
 30
0.0
 40
0.0
 41
0.0
  0
VERTEX
  5
   13F
  8
0
  6
CONTINUOUS
 10
-58.7200867461478
 20
-14.2344687620318
 30
0.0
 40
0.0
 41
0.0
  0
VERTEX
  5
   140
  8
0
  6
CONTINUOUS
 10
-58.7607876492137
 20
-14.3706281146139
 30
0.0
 40
0.0
 41
0.0
  0
VERTEX
  5
   141
  8
0
  6
CONTINUOUS
 10
-58.8769290409358
 20
-14.7858241441825
 30
0.0
 40
0.0
 41
0.0
  0
VERTEX
  5
   142
  8
0
  6
CONTINUOUS
 10
-58.9186225935464
 20
-14.9238734031226
 30
0.0
 40
0.0
 41
0.0
  0
VERTEX
  5
   143
  8
0
  6
CONTINUOUS
 10
-58.9632632368931
 20
-15.0608281206445
 30
0.0
 40
0.0
 41
0.0
  0
VERTEX
  5
   144
  8
0
  6
CONTINUOUS
 10
-59.0324608318663
 20
-15.2559322737805
 30
0.0
 40
0.0
 41
0.0
  0
VERTEX
  5
   145
  8
0
  6
CONTINUOUS
 10
-59.1746884604719
 20
-15.6410099666828
 30
0.0
 40
0.0
 41
0.0
  0
VERTEX
  5
   146
  8
0
  6
CONTINUOUS
 10
-59.2071212836522
 20
-15.7373110324778
 30
0.0
 40
0.0
 41
0.0
  0
VERTEX
  5
   147
  8
0
  6
CONTINUOUS
 10
-59.2368880125135
 20
-15.8340565302503
 30
0.0
 40
0.0
 41
0.0
  0
VERTEX
  5
   148
  8
0
  6
CONTINUOUS
 10
-59.2633942447427
 20
-15.9314346261064
 30
0.0
 40
0.0
 41
0.0
  0
VERTEX
  5
   149
  8
0
  6
CONTINUOUS
 10
-59.2861843512966
 20
-16.0295914638552
 30
0.0
 40
0.0
 41
0.0
  0
VERTEX
  5
   14A
  8
0
  6
CONTINUOUS
 10
-59.3056866962201
 20
-16.1327874726206
 30
0.0
 40
0.0
 41
0.0
  0
VERTEX
  5
   14B
  8
0
  6
CONTINUOUS
 10
-59.3207992808675
 20
-16.2369450571471
 30
0.0
 40
0.0
 41
0.0
  0
VERTEX
  5
   14C
  8
0
  6
CONTINUOUS
 10
-59.3316886577972
 20
-16.342013091211
 30
0.0
 40
0.0
 41
0.0
  0
VERTEX
  5
   14D
  8
0
  6
CONTINUOUS
 10
-59.3387087480678
 20
-16.4478833952309
 30
0.0
 40
0.0
 41
0.0
  0
VERTEX
  5
   14E
  8
0
  6
CONTINUOUS
 10
-59.3423584351225
 20
-16.5544062595768
 30
0.0
 40
0.0
 41
0.0
  0
VERTEX
  5
   14F
  8
0
  6
CONTINUOUS
 10
-59.343239158674
 20
-16.6614059678782
 30
0.0
 40
0.0
 41
0.0
  0
VERTEX
  5
   150
  8
0
  6
CONTINUOUS
 10
-59.3393578187727
 20
-16.8760961570168
 30
0.0
 40
0.0
 41
0.0
  0
VERTEX
  5
   151
  8
0
  6
CONTINUOUS
 10
-59.3271704528649
 20
-17.2665435303121
 30
0.0
 40
0.0
 41
0.0
  0
VERTEX
  5
   152
  8
0
  6
CONTINUOUS
 10
-59.3241344747255
 20
-17.4418257019242
 30
0.0
 40
0.0
 41
0.0
  0
VERTEX
  5
   153
  8
0
  6
CONTINUOUS
 10
-59.3238300644854
 20
-17.6167653196172
 30
0.0
 40
0.0
 41
0.0
  0
VERTEX
  5
   154
  8
0
  6
CONTINUOUS
 10
-59.3264889990811
 20
-17.7917622505967
 30
0.0
 40
0.0
 41
0.0
  0
VERTEX
  5
   155
  8
0
  6
CONTINUOUS
 10
-59.3323159390686
 20
-17.9671181502765
 30
0.0
 40
0.0
 41
0.0
  0
VERTEX
  5
   156
  8
0
  6
CONTINUOUS
 10
-59.3453829603276
 20
-18.1929905227059
 30
0.0
 40
0.0
 41
0.0
  0
VERTEX
  5
   157
  8
0
  6
CONTINUOUS
 10
-59.3549439116289
 20
-18.3058793285854
 30
0.0
 40
0.0
 41
0.0
  0
VERTEX
  5
   158
  8
0
  6
CONTINUOUS
 10
-59.3670565093288
 20
-18.4184782750455
 30
0.0
 40
0.0
 41
0.0
  0
VERTEX
  5
   159
  8
0
  6
CONTINUOUS
 10
-59.382167394954
 20
-18.5305471914244
 30
0.0
 40
0.0
 41
0.0
  0
VERTEX
  5
   15A
  8
0
  6
CONTINUOUS
 10
-59.4007253909322
 20
-18.6418288170663
 30
0.0
 40
0.0
 41
0.0
  0
VERTEX
  5
   15B
  8
0
  6
CONTINUOUS
 10
-59.4231522333009
 20
-18.7520655371682
 30
0.0
 40
0.0
 41
0.0
  0
VERTEX
  5
   15C
  8
0
  6
CONTINUOUS
 10
-59.4498133044163
 20
-18.861016118628
 30
0.0
 40
0.0
 41
0.0
  0
VERTEX
  5
   15D
  8
0
  6
CONTINUOUS
 10
-59.4809883656617
 20
-18.9684724458921
 30
0.0
 40
0.0
 41
0.0
  0
VERTEX
  5
   15E
  8
0
  6
CONTINUOUS
 10
-59.5168422901563
 20
-19.0742762568029
 30
0.0
 40
0.0
 41
0.0
  0
VERTEX
  5
   15F
  8
0
  6
CONTINUOUS
 10
-59.5508282768014
 20
-19.1623758082511
 30
0.0
 40
0.0
 41
0.0
  0
VERTEX
  5
   160
  8
0
  6
CONTINUOUS
 10
-59.588100928146
 20
-19.2492135707165
 30
0.0
 40
0.0
 41
0.0
  0
VERTEX
  5
   161
  8
0
  6
CONTINUOUS
 10
-59.6285106506373
 20
-19.3348107440423
 30
0.0
 40
0.0
 41
0.0
  0
VERTEX
  5
   162
  8
0
  6
CONTINUOUS
 10
-59.6718493372476
 20
-19.419215240711
 30
0.0
 40
0.0
 41
0.0
  0
VERTEX
  5
   163
  8
0
  6
CONTINUOUS
 10
-59.7178654276163
 20
-19.5024937490753
 30
0.0
 40
0.0
 41
0.0
  0
VERTEX
  5
   164
  8
0
  6
CONTINUOUS
 10
-59.766278968193
 20
-19.5847237965891
 30
0.0
 40
0.0
 41
0.0
  0
VERTEX
  5
   165
  8
0
  6
CONTINUOUS
 10
-59.816796672379
 20
-19.6659858130387
 30
0.0
 40
0.0
 41
0.0
  0
VERTEX
  5
   166
  8
0
  6
CONTINUOUS
 10
-59.8691269806699
 20
-19.7463551937734
 30
0.0
 40
0.0
 41
0.0
  0
VERTEX
  5
   167
  8
0
  6
CONTINUOUS
 10
-59.9781581678757
 20
-19.9046448366978
 30
0.0
 40
0.0
 41
0.0
  0
VERTEX
  5
   168
  8
0
  6
CONTINUOUS
 10
-60.0915082969296
 20
-20.0596236999003
 30
0.0
 40
0.0
 41
0.0
  0
VERTEX
  5
   169
  8
0
  6
CONTINUOUS
 10
-60.2083641707162
 20
-20.211240387609
 30
0.0
 40
0.0
 41
0.0
  0
VERTEX
  5
   16A
  8
0
  6
CONTINUOUS
 10
-60.3284147719052
 20
-20.3590569763764
 30
0.0
 40
0.0
 41
0.0
  0
VERTEX
  5
   16B
  8
0
  6
CONTINUOUS
 10
-60.4516229385372
 20
-20.5028026638838
 30
0.0
 40
0.0
 41
0.0
  0
VERTEX
  5
   16C
  8
0
  6
CONTINUOUS
 10
-60.5778688089108
 20
-20.6427502410487
 30
0.0
 40
0.0
 41
0.0
  0
VERTEX
  5
   16D
  8
0
  6
CONTINUOUS
 10
-60.9380960971257
 20
-21.0246334865642
 30
0.0
 40
0.0
 41
0.0
  0
VERTEX
  5
   16E
  8
0
  6
CONTINUOUS
 10
-61.0581709105919
 20
-21.1552642191847
 30
0.0
 40
0.0
 41
0.0
  0
VERTEX
  5
   16F
  8
0
  6
CONTINUOUS
 10
-61.288878430415
 20
-21.4133115971157
 30
0.0
 40
0.0
 41
0.0
  0
VERTEX
  5
   170
  8
0
  6
CONTINUOUS
 10
-61.4022141217159
 20
-21.5353075679826
 30
0.0
 40
0.0
 41
0.0
  0
VERTEX
  5
   171
  8
0
  6
CONTINUOUS
 10
-61.4603690062895
 20
-21.5939233843692
 30
0.0
 40
0.0
 41
0.0
  0
VERTEX
  5
   172
  8
0
  6
CONTINUOUS
 10
-61.5199233516786
 20
-21.6501879383873
 30
0.0
 40
0.0
 41
0.0
  0
VERTEX
  5
   173
  8
0
  6
CONTINUOUS
 10
-61.5811662776662
 20
-21.7035631153289
 30
0.0
 40
0.0
 41
0.0
  0
VERTEX
  5
   174
  8
0
  6
CONTINUOUS
 10
-61.6443521304584
 20
-21.7535776643201
 30
0.0
 40
0.0
 41
0.0
  0
VERTEX
  5
   175
  8
0
  6
CONTINUOUS
 10
-61.7096828089487
 20
-21.7998600864867
 30
0.0
 40
0.0
 41
0.0
  0
VERTEX
  5
   176
  8
0
  6
CONTINUOUS
 10
-61.7772900909812
 20
-21.8421715231191
 30
0.0
 40
0.0
 41
0.0
  0
VERTEX
  5
   177
  8
0
  6
CONTINUOUS
 10
-61.8649971123245
 20
-21.8893514512912
 30
0.0
 40
0.0
 41
0.0
  0
VERTEX
  5
   178
  8
0
  6
CONTINUOUS
 10
-61.9561914685274
 20
-21.9304900829859
 30
0.0
 40
0.0
 41
0.0
  0
VERTEX
  5
   179
  8
0
  6
CONTINUOUS
 10
-62.0505341649051
 20
-21.9662406906271
 30
0.0
 40
0.0
 41
0.0
  0
VERTEX
  5
   17A
  8
0
  6
CONTINUOUS
 10
-62.1475168247707
 20
-21.9975704040302
 30
0.0
 40
0.0
 41
0.0
  0
VERTEX
  5
   17B
  8
0
  6
CONTINUOUS
 10
-62.2465053904025
 20
-22.0256755970331
 30
0.0
 40
0.0
 41
0.0
  0
VERTEX
  5
   17C
  8
0
  6
CONTINUOUS
 10
-62.5481984494615
 20
-22.1042695716197
 30
0.0
 40
0.0
 41
0.0
  0
VERTEX
  5
   17D
  8
0
  6
CONTINUOUS
 10
-62.6478859740875
 20
-22.1330638339555
 30
0.0
 40
0.0
 41
0.0
  0
VERTEX
  5
   17E
  8
0
  6
CONTINUOUS
 10
-62.7460534341918
 20
-22.1650926375226
 30
0.0
 40
0.0
 41
0.0
  0
VERTEX
  5
   17F
  8
0
  6
CONTINUOUS
 10
-62.8380422604624
 20
-22.1994720960271
 30
0.0
 40
0.0
 41
0.0
  0
VERTEX
  5
   180
  8
0
  6
CONTINUOUS
 10
-62.9279402935778
 20
-22.2379486651124
 30
0.0
 40
0.0
 41
0.0
  0
VERTEX
  5
   181
  8
0
  6
CONTINUOUS
 10
-63.0156115600922
 20
-22.2806690824789
 30
0.0
 40
0.0
 41
0.0
  0
VERTEX
  5
   182
  8
0
  6
CONTINUOUS
 10
-63.1010386836134
 20
-22.3275523161831
 30
0.0
 40
0.0
 41
0.0
  0
VERTEX
  5
   183
  8
0
  6
CONTINUOUS
 10
-63.1843069222687
 20
-22.3783272868815
 30
0.0
 40
0.0
 41
0.0
  0
VERTEX
  5
   184
  8
0
  6
CONTINUOUS
 10
-63.2655882061707
 20
-22.4325705900748
 30
0.0
 40
0.0
 41
0.0
  0
VERTEX
  5
   185
  8
0
  6
CONTINUOUS
 10
-63.3451251748836
 20
-22.4897442183515
 30
0.0
 40
0.0
 41
0.0
  0
VERTEX
  5
   186
  8
0
  6
CONTINUOUS
 10
-63.4232152148889
 20
-22.5492332836324
 30
0.0
 40
0.0
 41
0.0
  0
VERTEX
  5
   187
  8
0
  6
CONTINUOUS
 10
-63.5764220140867
 20
-22.6725401030139
 30
0.0
 40
0.0
 41
0.0
  0
VERTEX
  5
   188
  8
0
  6
CONTINUOUS
 10
-63.8113339206481
 20
-22.8649186198633
 30
0.0
 40
0.0
 41
0.0
  0
VERTEX
  5
   189
  8
0
  6
CONTINUOUS
 10
-63.9304683194442
 20
-22.958104372728
 30
0.0
 40
0.0
 41
0.0
  0
VERTEX
  5
   18A
  8
0
  6
CONTINUOUS
 10
-64.0519279349322
 20
-23.0478603207112
 30
0.0
 40
0.0
 41
0.0
  0
VERTEX
  5
   18B
  8
0
  6
CONTINUOUS
 10
-64.1761326551218
 20
-23.1338559807333
 30
0.0
 40
0.0
 41
0.0
  0
VERTEX
  5
   18C
  8
0
  6
CONTINUOUS
 10
-64.2735498321719
 20
-23.1976656539615
 30
0.0
 40
0.0
 41
0.0
  0
VERTEX
  5
   18D
  8
0
  6
CONTINUOUS
 10
-64.3722544227116
 20
-23.2598517346376
 30
0.0
 40
0.0
 41
0.0
  0
VERTEX
  5
   18E
  8
0
  6
CONTINUOUS
 10
-64.5715916876636
 20
-23.3819012399772
 30
0.0
 40
0.0
 41
0.0
  0
VERTEX
  5
   18F
  8
0
  6
CONTINUOUS
 10
-64.7695122125136
 20
-23.5058843095658
 30
0.0
 40
0.0
 41
0.0
  0
VERTEX
  5
   190
  8
0
  6
CONTINUOUS
 10
-64.8664668704031
 20
-23.5704260530012
 30
0.0
 40
0.0
 41
0.0
  0
VERTEX
  5
   191
  8
0
  6
CONTINUOUS
 10
-64.9614733277003
 20
-23.6374192413284
 30
0.0
 40
0.0
 41
0.0
  0
VERTEX
  5
   192
  8
0
  6
CONTINUOUS
 10
-65.054285209774
 20
-23.7071701689618
 30
0.0
 40
0.0
 41
0.0
  0
VERTEX
  5
   193
  8
0
  6
CONTINUOUS
 10
-65.1448959983324
 20
-23.7796982095404
 30
0.0
 40
0.0
 41
0.0
  0
VERTEX
  5
   194
  8
0
  6
CONTINUOUS
 10
-65.2641888251843
 20
-23.8812747908382
 30
0.0
 40
0.0
 41
0.0
  0
VERTEX
  5
   195
  8
0
  6
CONTINUOUS
 10
-65.49940018567
 20
-24.0894852112582
 30
0.0
 40
0.0
 41
0.0
  0
VERTEX
  5
   196
  8
0
  6
CONTINUOUS
 10
-65.619794639565
 20
-24.1908008907433
 30
0.0
 40
0.0
 41
0.0
  0
VERTEX
  5
   197
  8
0
  6
CONTINUOUS
 10
-65.7446066393677
 20
-24.2871456750317
 30
0.0
 40
0.0
 41
0.0
  0
VERTEX
  5
   198
  8
0
  6
CONTINUOUS
 10
-65.84604246744
 20
-24.3584216148119
 30
0.0
 40
0.0
 41
0.0
  0
VERTEX
  5
   199
  8
0
  6
CONTINUOUS
 10
-65.9504811476783
 20
-24.4261189384386
 30
0.0
 40
0.0
 41
0.0
  0
VERTEX
  5
   19A
  8
0
  6
CONTINUOUS
 10
-66.057223671759
 20
-24.4909392225542
 30
0.0
 40
0.0
 41
0.0
  0
VERTEX
  5
   19B
  8
0
  6
CONTINUOUS
 10
-66.2730625710444
 20
-24.6167274749574
 30
0.0
 40
0.0
 41
0.0
  0
VERTEX
  5
   19C
  8
0
  6
CONTINUOUS
 10
-66.3793318322096
 20
-24.6806884942493
 30
0.0
 40
0.0
 41
0.0
  0
VERTEX
  5
   19D
  8
0
  6
CONTINUOUS
 10
-66.4824724089502
 20
-24.7475035104286
 30
0.0
 40
0.0
 41
0.0
  0
VERTEX
  5
   19E
  8
0
  6
CONTINUOUS
 10
-66.5810212949853
 20
-24.8186988010266
 30
0.0
 40
0.0
 41
0.0
  0
VERTEX
  5
   19F
  8
0
  6
CONTINUOUS
 10
-66.6281627838984
 20
-24.8563599822619
 30
0.0
 40
0.0
 41
0.0
  0
VERTEX
  5
   1A0
  8
0
  6
CONTINUOUS
 10
-66.6736952341597
 20
-24.8955829853369
 30
0.0
 40
0.0
 41
0.0
  0
VERTEX
  5
   1A1
  8
0
  6
CONTINUOUS
 10
-66.7175045110198
 20
-24.9364764552129
 30
0.0
 40
0.0
 41
0.0
  0
VERTEX
  5
   1A2
  8
0
  6
CONTINUOUS
 10
-66.7595015703502
 20
-24.9791194916107
 30
0.0
 40
0.0
 41
0.0
  0
VERTEX
  5
   1A3
  8
0
  6
CONTINUOUS
 10
-66.8080687210611
 20
-25.0334237968855
 30
0.0
 40
0.0
 41
0.0
  0
VERTEX
  5
   1A4
  8
0
  6
CONTINUOUS
 10
-66.853816873738
 20
-25.0903948029959
 30
0.0
 40
0.0
 41
0.0
  0
VERTEX
  5
   1A5
  8
0
  6
CONTINUOUS
 10
-66.8967584589399
 20
-25.1499727390513
 30
0.0
 40
0.0
 41
0.0
  0
VERTEX
  5
   1A6
  8
0
  6
CONTINUOUS
 10
-66.9369582415151
 20
-25.2120371572073
 30
0.0
 40
0.0
 41
0.0
  0
VERTEX
  5
   1A7
  8
0
  6
CONTINUOUS
 10
-66.9745244088504
 20
-25.2764176957828
 30
0.0
 40
0.0
 41
0.0
  0
VERTEX
  5
   1A8
  8
0
  6
CONTINUOUS
 10
-67.0095996591198
 20
-25.3429048423786
 30
0.0
 40
0.0
 41
0.0
  0
VERTEX
  5
   1A9
  8
0
  6
CONTINUOUS
 10
-67.042352289534
 20
-25.4112606969944
 30
0.0
 40
0.0
 41
0.0
  0
VERTEX
  5
   1AA
  8
0
  6
CONTINUOUS
 10
-67.0729672845889
 20
-25.4812297351467
 30
0.0
 40
0.0
 41
0.0
  0
VERTEX
  5
   1AB
  8
0
  6
CONTINUOUS
 10
-67.1016374043149
 20
-25.5525495709867
 30
0.0
 40
0.0
 41
0.0
  0
VERTEX
  5
   1AC
  8
0
  6
CONTINUOUS
 10
-67.1285542725257
 20
-25.6249617204178
 30
0.0
 40
0.0
 41
0.0
  0
VERTEX
  5
   1AD
  8
0
  6
CONTINUOUS
 10
-67.1740701678125
 20
-25.7601717168483
 30
0.0
 40
0.0
 41
0.0
  0
VERTEX
  5
   1AE
  8
0
  6
CONTINUOUS
 10
-67.2152397124185
 20
-25.8969522846526
 30
0.0
 40
0.0
 41
0.0
  0
VERTEX
  5
   1AF
  8
0
  6
CONTINUOUS
 10
-67.2528487937167
 20
-26.034249424305
 30
0.0
 40
0.0
 41
0.0
  0
VERTEX
  5
   1B0
  8
0
  6
CONTINUOUS
 10
-67.2875098618665
 20
-26.1712417430715
 30
0.0
 40
0.0
 41
0.0
  0
VERTEX
  5
   1B1
  8
0
  6
CONTINUOUS
 10
-67.3497006512032
 20
-26.4420149258769
 30
0.0
 40
0.0
 41
0.0
  0
VERTEX
  5
   1B2
  8
0
  6
CONTINUOUS
 10
-67.4040667642018
 20
-26.7062479447742
 30
0.0
 40
0.0
 41
0.0
  0
VERTEX
  5
   1B3
  8
0
  6
CONTINUOUS
 10
-67.4514753869293
 20
-26.9627777658039
 30
0.0
 40
0.0
 41
0.0
  0
SEQEND
  5
   1B4
  8
0
  6
CONTINUOUS
 62
     3
  0
ENDBLK
  5
   1B5
  8
0
  6
CONTINUOUS
 62
     7
  0
BLOCK
  5
   1B6
  8
0
  6
CONTINUOUS
 62
     5
  2
*UDIM421
 70
    65
 10
0.0
 20
0.0
 30
0.0
  3
*UDIM421
  0
TEXT
  5
   1B7
  8
0
  6
CONTINUOUS
 62
     5
 10
-569.347022035231
 20
6.28440847579484
 30
0.0
 40
3.00000002980232
  1
125,25
 50
89.9999999480344
 41
0.933333333333333
 72
     1
 11
-570.847022042796
 21
14.3844085576197
 31
0.0
 73
     2
  0
LINE
  5
   1B8
  8
0
  6
CONTINUOUS
 62
     5
 10
-558.1246669651
 20
45.9718839411061
 30
0.0
 11
-570.347022027894
 21
45.9718839411061
 31
0.0
  0
LINE
  5
   1B9
  8
0
  6
CONTINUOUS
 62
     5
 10
-568.347022027895
 20
-16.653076171875
 30
0.0
 11
-568.347022027895
 21
45.9718839411061
 31
0.0
  0
LINE
  5
   1BA
  8
0
  6
CONTINUOUS
 62
     5
 10
-568.867966457846
 20
-13.6986528946681
 30
0.0
 11
-568.347022027895
 21
-16.653076171875
 31
0.0
  0
LINE
  5
   1BB
  8
0
  6
CONTINUOUS
 62
     5
 10
-568.347022027895
 20
-16.653076171875
 30
0.0
 11
-567.826077597943
 21
-13.6986528946681
 31
0.0
  0
LINE
  5
   1BC
  8
0
  6
CONTINUOUS
 62
     5
 10
-567.826077597943
 20
43.0174606638991
 30
0.0
 11
-568.347022027895
 21
45.9718839411061
 31
0.0
  0
LINE
  5
   1BD
  8
0
  6
CONTINUOUS
 62
     5
 10
-568.347022027895
 20
45.9718839411061
 30
0.0
 11
-568.867966457846
 21
43.0174606638991
 31
0.0
  0
ENDBLK
  5
   1BE
  8
0
  6
CONTINUOUS
 62
     5
  0
BLOCK
  5
   1BF
  8
0
  6
CONTINUOUS
 62
     7
  2
*UDIM422
 70
    65
 10
0.0
 20
0.0
 30
0.0
  3
*UDIM422
  0
TEXT
  5
   1C0
  8
0
  6
CONTINUOUS
 62
     7
 10
-577.897011247357
 20
-21.703102902522
 30
0.0
 40
3.00000002980232
  1
254
 50
89.9999999480344
 41
0.933333333333333
 72
     1
 11
-579.397011258726
 21
-17.8031028624204
 31
0.0
 73
     2
  0
LINE
  5
   1C1
  8
0
  6
CONTINUOUS
 62
     7
 10
-558.124653044813
 20
-81.0280855413055
 30
0.0
 11
-578.897011243825
 21
-81.0280855413055
 31
0.0
  0
LINE
  5
   1C2
  8
0
  6
CONTINUOUS
 62
     7
 10
-558.1246669651
 20
45.9718839411061
 30
0.0
 11
-578.897011243825
 21
45.9718839411061
 31
0.0
  0
LINE
  5
   1C3
  8
0
  6
CONTINUOUS
 62
     7
 10
-576.897011243825
 20
-81.0280855413055
 30
0.0
 11
-576.897011243825
 21
45.9718839411061
 31
0.0
  0
LINE
  5
   1C4
  8
0
  6
CONTINUOUS
 62
     7
 10
-577.417955673777
 20
-78.0736622640985
 30
0.0
 11
-576.897011243825
 21
-81.0280855413055
 31
0.0
  0
LINE
  5
   1C5
  8
0
  6
CONTINUOUS
 62
     7
 10
-576.897011243825
 20
-81.0280855413055
 30
0.0
 11
-576.376066813873
 21
-78.0736622640985
 31
0.0
  0
LINE
  5
   1C6
  8
0
  6
CONTINUOUS
 62
     7
 10
-576.376066813873
 20
43.0174606638991
 30
0.0
 11
-576.897011243825
 21
45.9718839411061
 31
0.0
  0
LINE
  5
   1C7
  8
0
  6
CONTINUOUS
 62
     7
 10
-576.897011243825
 20
45.9718839411061
 30
0.0
 11
-577.417955673777
 21
43.0174606638991
 31
0.0
  0
ENDBLK
  5
   1C8
  8
0
  6
CONTINUOUS
 62
     7
  0
BLOCK
  5
   1C9
  8
0
  6
CONTINUOUS
 62
     7
  2
*UDIM423
 70
    65
 10
0.0
 20
0.0
 30
0.0
  3
*UDIM423
  0
TEXT
  5
   1CA
  8
0
  6
CONTINUOUS
 62
     7
 10
-463.408470157341
 20
76.796943724648
 30
0.0
 40
3.00000002980232
  1
155
 50
89.9999999480344
 41
0.933333333333333
 72
     1
 11
-464.90847016871
 21
80.6969437647496
 31
0.0
 73
     2
  0
LINE
  5
   1CB
  8
0
  6
CONTINUOUS
 62
     7
 10
-488.499714375785
 20
47.2219417887952
 30
0.0
 11
-460.408470153809
 21
47.2219417887952
 31
0.0
  0
LINE
  5
   1CC
  8
0
  6
CONTINUOUS
 62
     7
 10
-522.302089208001
 20
114.721951117043
 30
0.0
 11
-460.408470153809
 21
114.721951117043
 31
0.0
  0
LINE
  5
   1CD
  8
0
  6
CONTINUOUS
 62
     7
 10
-462.408470153809
 20
47.2219417887952
 30
0.0
 11
-462.408470153809
 21
114.721951117043
 31
0.0
  0
LINE
  5
   1CE
  8
0
  6
CONTINUOUS
 62
     7
 10
-462.92941458376
 20
50.1763650660022
 30
0.0
 11
-462.408470153809
 21
47.2219417887952
 31
0.0
  0
LINE
  5
   1CF
  8
0
  6
CONTINUOUS
 62
     7
 10
-462.408470153809
 20
47.2219417887952
 30
0.0
 11
-461.887525723857
 21
50.1763650660022
 31
0.0
  0
LINE
  5
   1D0
  8
0
  6
CONTINUOUS
 62
     7
 10
-461.887525723857
 20
111.767527839836
 30
0.0
 11
-462.408470153809
 21
114.721951117043
 31
0.0
  0
LINE
  5
   1D1
  8
0
  6
CONTINUOUS
 62
     7
 10
-462.408470153809
 20
114.721951117043
 30
0.0
 11
-462.92941458376
 21
111.767527839836
 31
0.0
  0
ENDBLK
  5
   1D2
  8
0
  6
CONTINUOUS
 62
     7
  0
BLOCK
  5
   1D3
  8
0
  6
CONTINUOUS
 62
     7
  2
*UDIM424
 70
    65
 10
0.0
 20
0.0
 30
0.0
  3
*UDIM424
  0
TEXT
  5
   1D4
  8
0
  6
CONTINUOUS
 62
     7
 10
-519.299694852231
 20
-113.673008999725
 30
0.0
 40
3.00000002980232
  1
117
 50
359.999999948034
 41
0.933333333333333
 72
     1
 11
-515.399694812135
 21
-112.173008988342
 31
0.0
 73
     2
  0
LINE
  5
   1D5
  8
0
  6
CONTINUOUS
 62
     7
 10
-485.874697995023
 20
-57.2780933380146
 30
0.0
 11
-485.874697995023
 21
-116.673009003243
 31
0.0
  0
LINE
  5
   1D6
  8
0
  6
CONTINUOUS
 62
     7
 10
-544.374697995023
 20
-57.2780933380146
 30
0.0
 11
-544.374697995023
 21
-116.673009003243
 31
0.0
  0
LINE
  5
   1D7
  8
0
  6
CONTINUOUS
 62
     7
 10
-485.874697995023
 20
-114.673009003243
 30
0.0
 11
-544.374697995023
 21
-114.673009003243
 31
0.0
  0
LINE
  5
   1D8
  8
0
  6
CONTINUOUS
 62
     7
 10
-488.82912127223
 20
-115.193953433195
 30
0.0
 11
-485.874697995023
 21
-114.673009003243
 31
0.0
  0
LINE
  5
   1D9
  8
0
  6
CONTINUOUS
 62
     7
 10
-485.874697995023
 20
-114.673009003243
 30
0.0
 11
-488.82912127223
 21
-114.152064573291
 31
0.0
  0
LINE
  5
   1DA
  8
0
  6
CONTINUOUS
 62
     7
 10
-541.420274717816
 20
-114.152064573291
 30
0.0
 11
-544.374697995023
 21
-114.673009003243
 31
0.0
  0
LINE
  5
   1DB
  8
0
  6
CONTINUOUS
 62
     7
 10
-544.374697995023
 20
-114.673009003243
 30
0.0
 11
-541.420274717816
 21
-115.193953433195
 31
0.0
  0
ENDBLK
  5
   1DC
  8
0
  6
CONTINUOUS
 62
     7
  0
BLOCK
  5
   1DD
  8
0
  6
CONTINUOUS
 62
     7
  2
*UDIM425
 70
    65
 10
0.0
 20
0.0
 30
0.0
  3
*UDIM425
  0
TEXT
  5
   1DE
  8
0
  6
CONTINUOUS
 62
     7
 10
-521.399120279999
 20
-121.752149094154
 30
0.0
 40
3.00000002980232
  1
140
 50
359.999999948034
 41
0.933333333333333
 72
     1
 11
-517.499120239903
 21
-120.25214908277
 31
0.0
 73
     2
  0
LINE
  5
   1DF
  8
0
  6
CONTINUOUS
 62
     7
 10
-488.874683447198
 20
32.7219009399414
 30
0.0
 11
-488.874665306871
 21
-124.752149097672
 31
0.0
  0
LINE
  5
   1E0
  8
0
  6
CONTINUOUS
 62
     7
 10
-558.874660537247
 20
32.7218856811523
 30
0.0
 11
-558.874638969155
 21
-124.752149097672
 31
0.0
  0
LINE
  5
   1E1
  8
0
  6
CONTINUOUS
 62
     7
 10
-488.874665537262
 20
-122.752149097672
 30
0.0
 11
-558.87463924308
 21
-122.752149097672
 31
0.0
  0
LINE
  5
   1E2
  8
0
  6
CONTINUOUS
 62
     7
 10
-491.829088814469
 20
-123.273093527623
 30
0.0
 11
-488.874665537262
 21
-122.752149097672
 31
0.0
  0
LINE
  5
   1E3
  8
0
  6
CONTINUOUS
 62
     7
 10
-488.874665537262
 20
-122.752149097672
 30
0.0
 11
-491.829088814469
 21
-122.23120466772
 31
0.0
  0
LINE
  5
   1E4
  8
0
  6
CONTINUOUS
 62
     7
 10
-555.920215965873
 20
-122.23120466772
 30
0.0
 11
-558.87463924308
 21
-122.752149097672
 31
0.0
  0
LINE
  5
   1E5
  8
0
  6
CONTINUOUS
 62
     7
 10
-558.87463924308
 20
-122.752149097672
 30
0.0
 11
-555.920215965873
 21
-123.273093527623
 31
0.0
  0
ENDBLK
  5
   1E6
  8
0
  6
CONTINUOUS
 62
     7
  0
BLOCK
  5
   1E7
  8
0
  6
CONTINUOUS
 62
     7
  2
*UDIM426
 70
    65
 10
0.0
 20
0.0
 30
0.0
  3
*UDIM426
  0
TEXT
  5
   1E8
  8
0
  6
CONTINUOUS
 62
     7
 10
-560.124779423095
 20
79.2218654872808
 30
0.0
 40
3.00000002980232
  1
30
 50
359.999999948034
 41
0.933333333333333
 72
     1
 11
-557.624779396907
 21
80.7218654999271
 31
0.0
 73
     2
  0
LINE
  5
   1E9
  8
0
  6
CONTINUOUS
 62
     7
 10
-565.124772784761
 20
74.2218578556348
 30
0.0
 11
-565.124778888277
 21
80.2218578556317
 31
0.0
  0
LINE
  5
   1EA
  8
0
  6
CONTINUOUS
 62
     7
 10
-550.124772784785
 20
74.221888373213
 30
0.0
 11
-550.124778888285
 21
80.2218731144208
 31
0.0
  0
LINE
  5
   1EB
  8
0
  6
CONTINUOUS
 62
     7
 10
-565.124776853772
 20
78.2218578556327
 30
0.0
 11
-550.124776853779
 21
78.2218731144218
 31
0.0
  0
LINE
  5
   1EC
  8
0
  6
CONTINUOUS
 62
     7
 10
-562.227000170416
 20
78.9983179598226
 30
0.0
 11
-565.124776853772
 21
78.2218578556327
 31
0.0
  0
LINE
  5
   1ED
  8
0
  6
CONTINUOUS
 62
     7
 10
-565.124776853772
 20
78.2218578556327
 30
0.0
 11
-562.226998590709
 21
77.4454036469863
 31
0.0
  0
LINE
  5
   1EE
  8
0
  6
CONTINUOUS
 62
     7
 10
-553.022553537135
 20
77.445413010232
 30
0.0
 11
-550.124776853779
 21
78.2218731144218
 31
0.0
  0
LINE
  5
   1EF
  8
0
  6
CONTINUOUS
 62
     7
 10
-550.124776853779
 20
78.2218731144218
 30
0.0
 11
-553.022555116841
 21
78.9983273230683
 31
0.0
  0
ENDBLK
  5
   1F0
  8
0
  6
CONTINUOUS
 62
     7
  0
BLOCK
  5
   1F1
  8
0
  6
CONTINUOUS
 62
     7
  2
*UDIM427
 70
    65
 10
0.0
 20
0.0
 30
0.0
  3
*UDIM427
  0
TEXT
  5
   1F2
  8
0
  6
CONTINUOUS
 62
     7
 10
-478.232028473241
 20
57.7219417576914
 30
0.0
 40
3.00000002980232
  1
52
 50
89.9999999480344
 41
0.933333333333333
 72
     1
 11
-479.732028485878
 21
60.2219417838852
 31
0.0
 73
     2
  0
LINE
  5
   1F3
  8
0
  6
CONTINUOUS
 62
     7
 10
-488.499714375785
 20
47.2219417887952
 30
0.0
 11
-475.232028470977
 21
47.2219417887952
 31
0.0
  0
LINE
  5
   1F4
  8
0
  6
CONTINUOUS
 62
     7
 10
-481.624771767551
 20
73.2219417789752
 30
0.0
 11
-475.232028470977
 21
73.2219417789752
 31
0.0
  0
LINE
  5
   1F5
  8
0
  6
CONTINUOUS
 62
     7
 10
-477.232028470977
 20
47.2219417887952
 30
0.0
 11
-477.232028470977
 21
73.2219417789752
 31
0.0
  0
LINE
  5
   1F6
  8
0
  6
CONTINUOUS
 62
     7
 10
-478.008485627395
 20
50.1197192620057
 30
0.0
 11
-477.232028470977
 21
47.2219417887952
 31
0.0
  0
LINE
  5
   1F7
  8
0
  6
CONTINUOUS
 62
     7
 10
-477.232028470977
 20
47.2219417887952
 30
0.0
 11
-476.455571314558
 21
50.1197192620057
 31
0.0
  0
LINE
  5
   1F8
  8
0
  6
CONTINUOUS
 62
     7
 10
-476.455571314558
 20
70.3241643057647
 30
0.0
 11
-477.232028470977
 21
73.2219417789752
 31
0.0
  0
LINE
  5
   1F9
  8
0
  6
CONTINUOUS
 62
     7
 10
-477.232028470977
 20
73.2219417789752
 30
0.0
 11
-478.008485627395
 21
70.3241643057647
 31
0.0
  0
ENDBLK
  5
   1FA
  8
0
  6
CONTINUOUS
 62
     7
  0
BLOCK
  5
   1FB
  8
0
  6
CONTINUOUS
 62
     7
  2
*UDIM428
 70
    65
 10
0.0
 20
0.0
 30
0.0
  3
*UDIM428
  0
TEXT
  5
   1FC
  8
0
  6
CONTINUOUS
 62
     7
 10
-478.232028478313
 20
6.90943137957027
 30
0.0
 40
3.00000002980232
  1
127,75
 50
89.9999999480344
 41
0.933333333333333
 72
     1
 11
-479.732028485878
 21
15.0094314613951
 31
0.0
 73
     2
  0
LINE
  5
   1FD
  8
0
  6
CONTINUOUS
 62
     7
 10
-484.441476975662
 20
-16.653076171875
 30
0.0
 11
-475.232028470977
 21
-16.653076171875
 31
0.0
  0
LINE
  5
   1FE
  8
0
  6
CONTINUOUS
 62
     7
 10
-488.499714375785
 20
47.2219417887952
 30
0.0
 11
-475.232028470977
 21
47.2219417887952
 31
0.0
  0
LINE
  5
   1FF
  8
0
  6
CONTINUOUS
 62
     7
 10
-477.232028470977
 20
-16.653076171875
 30
0.0
 11
-477.232028470977
 21
47.2219417887952
 31
0.0
  0
LINE
  5
   200
  8
0
  6
CONTINUOUS
 62
     7
 10
-477.752972900928
 20
-13.6986528946681
 30
0.0
 11
-477.232028470977
 21
-16.653076171875
 31
0.0
  0
LINE
  5
   201
  8
0
  6
CONTINUOUS
 62
     7
 10
-477.232028470977
 20
-16.653076171875
 30
0.0
 11
-476.711084041025
 21
-13.6986528946681
 31
0.0
  0
LINE
  5
   202
  8
0
  6
CONTINUOUS
 62
     7
 10
-476.711084041025
 20
44.2675185115882
 30
0.0
 11
-477.232028470977
 21
47.2219417887952
 31
0.0
  0
LINE
  5
   203
  8
0
  6
CONTINUOUS
 62
     7
 10
-477.232028470977
 20
47.2219417887952
 30
0.0
 11
-477.752972900928
 21
44.2675185115882
 31
0.0
  0
ENDBLK
  5
   204
  8
0
  6
CONTINUOUS
 62
     7
  0
BLOCK
  5
   205
  8
0
  6
CONTINUOUS
 62
     7
  2
*UDIM429
 70
    65
 10
0.0
 20
0.0
 30
0.0
  3
*UDIM429
  0
TEXT
  5
   206
  8
0
  6
CONTINUOUS
 62
     7
 10
-544.86357370751
 20
94.9946547633036
 30
0.0
 40
3.00000002980232
  1
45
 50
359.999999948034
 41
0.933333333333333
 72
     1
 11
-542.363573681321
 21
96.4946547759499
 31
0.0
 73
     2
  0
LINE
  5
   207
  8
0
  6
CONTINUOUS
 62
     7
 10
-535.124765639047
 20
70.5968956410531
 30
0.0
 11
-535.124765639047
 21
95.9946547610488
 31
0.0
  0
LINE
  5
   208
  8
0
  6
CONTINUOUS
 62
     7
 10
-557.624765413476
 20
70.5968730610037
 30
0.0
 11
-557.624765413476
 21
95.9946547610488
 31
0.0
  0
LINE
  5
   209
  8
0
  6
CONTINUOUS
 62
     7
 10
-535.124765639047
 20
93.9946547610488
 30
0.0
 11
-557.624765413476
 21
93.9946547610488
 31
0.0
  0
LINE
  5
   20A
  8
0
  6
CONTINUOUS
 62
     7
 10
-538.022543112258
 20
93.2181976046302
 30
0.0
 11
-535.124765639047
 21
93.9946547610488
 31
0.0
  0
LINE
  5
   20B
  8
0
  6
CONTINUOUS
 62
     7
 10
-535.124765639047
 20
93.9946547610488
 30
0.0
 11
-538.022543112258
 21
94.7711119174673
 31
0.0
  0
LINE
  5
   20C
  8
0
  6
CONTINUOUS
 62
     7
 10
-554.726987940265
 20
94.7711119174673
 30
0.0
 11
-557.624765413476
 21
93.9946547610488
 31
0.0
  0
LINE
  5
   20D
  8
0
  6
CONTINUOUS
 62
     7
 10
-557.624765413476
 20
93.9946547610488
 30
0.0
 11
-554.726987940265
 21
93.2181976046302
 31
0.0
  0
ENDBLK
  5
   20E
  8
0
  6
CONTINUOUS
 62
     7
  0
BLOCK
  5
   20F
  8
0
  6
CONTINUOUS
 62
     7
  2
*UDIM430
 70
    65
 10
0.0
 20
0.0
 30
0.0
  3
*UDIM430
  0
TEXT
  5
   210
  8
0
  6
CONTINUOUS
 62
     7
 10
-522.564277564958
 20
94.9946547633036
 30
0.0
 40
3.00000002980232
  1
45
 50
359.999999948034
 41
0.933333333333333
 72
     1
 11
-520.06427753877
 21
96.4946547759499
 31
0.0
 73
     2
  0
LINE
  5
   211
  8
0
  6
CONTINUOUS
 62
     7
 10
-512.624765409715
 20
70.5969187650466
 30
0.0
 11
-512.624765409715
 21
95.9946547610488
 31
0.0
  0
LINE
  5
   212
  8
0
  6
CONTINUOUS
 62
     7
 10
-512.624765409715
 20
93.9946547610488
 30
0.0
 11
-535.124765639047
 21
93.9946547610488
 31
0.0
  0
LINE
  5
   213
  8
0
  6
CONTINUOUS
 62
     7
 10
-515.522542882925
 20
93.2181976046302
 30
0.0
 11
-512.624765409715
 21
93.9946547610488
 31
0.0
  0
LINE
  5
   214
  8
0
  6
CONTINUOUS
 62
     7
 10
-512.624765409715
 20
93.9946547610488
 30
0.0
 11
-515.522542882925
 21
94.7711119174673
 31
0.0
  0
LINE
  5
   215
  8
0
  6
CONTINUOUS
 62
     7
 10
-532.226988165837
 20
94.7711119174673
 30
0.0
 11
-535.124765639047
 21
93.9946547610488
 31
0.0
  0
LINE
  5
   216
  8
0
  6
CONTINUOUS
 62
     7
 10
-535.124765639047
 20
93.9946547610488
 30
0.0
 11
-532.226988165837
 21
93.2181976046302
 31
0.0
  0
ENDBLK
  5
   217
  8
0
  6
CONTINUOUS
 62
     7
  0
BLOCK
  5
   218
  8
0
  6
CONTINUOUS
 62
     7
  2
*UDIM431
 70
    65
 10
0.0
 20
0.0
 30
0.0
  3
*UDIM431
  0
TEXT
  5
   219
  8
0
  6
CONTINUOUS
 62
     7
 10
-499.687279264186
 20
94.9946547633036
 30
0.0
 40
3.00000002980232
  1
45
 50
359.999999948034
 41
0.933333333333333
 72
     1
 11
-497.187279237998
 21
96.4946547759499
 31
0.0
 73
     2
  0
LINE
  5
   21A
  8
0
  6
CONTINUOUS
 62
     7
 10
-490.124765409726
 20
70.5969416091661
 30
0.0
 11
-490.124765409726
 21
95.9946547610488
 31
0.0
  0
LINE
  5
   21B
  8
0
  6
CONTINUOUS
 62
     7
 10
-490.124765409726
 20
93.9946547610488
 30
0.0
 11
-512.624765409715
 21
93.9946547610488
 31
0.0
  0
LINE
  5
   21C
  8
0
  6
CONTINUOUS
 62
     7
 10
-493.022542882937
 20
93.2181976046302
 30
0.0
 11
-490.124765409726
 21
93.9946547610488
 31
0.0
  0
LINE
  5
   21D
  8
0
  6
CONTINUOUS
 62
     7
 10
-490.124765409726
 20
93.9946547610488
 30
0.0
 11
-493.022542882937
 21
94.7711119174673
 31
0.0
  0
LINE
  5
   21E
  8
0
  6
CONTINUOUS
 62
     7
 10
-509.726987936504
 20
94.7711119174673
 30
0.0
 11
-512.624765409715
 21
93.9946547610488
 31
0.0
  0
LINE
  5
   21F
  8
0
  6
CONTINUOUS
 62
     7
 10
-512.624765409715
 20
93.9946547610488
 30
0.0
 11
-509.726987936504
 21
93.2181976046302
 31
0.0
  0
ENDBLK
  5
   220
  8
0
  6
CONTINUOUS
 62
     7
  0
BLOCK
  5
   221
  8
0
  6
CONTINUOUS
 62
     7
  2
*UDIM432
 70
    65
 10
0.0
 20
0.0
 30
0.0
  3
*UDIM432
  0
TEXT
  5
   222
  8
0
  6
CONTINUOUS
 62
     7
 10
-522.396470157677
 20
110.130436250424
 30
0.0
 40
3.00000002980232
  1
165
 50
359.999999948034
 41
0.933333333333333
 72
     1
 11
-518.49647011758
 21
111.630436261808
 31
0.0
 73
     2
  0
LINE
  5
   223
  8
0
  6
CONTINUOUS
 62
     7
 10
-565.124772784761
 20
74.2218578556348
 30
0.0
 11
-565.12481033006
 21
111.130388814106
 31
0.0
  0
LINE
  5
   224
  8
0
  6
CONTINUOUS
 62
     7
 10
-482.624772784804
 20
74.2219417789747
 30
0.0
 11
-482.624810330103
 21
111.130472737446
 31
0.0
  0
LINE
  5
   225
  8
0
  6
CONTINUOUS
 62
     7
 10
-565.124808295555
 20
109.130388814107
 30
0.0
 11
-482.624808295598
 21
109.130472737447
 31
0.0
  0
LINE
  5
   226
  8
0
  6
CONTINUOUS
 62
     7
 10
-562.227031612199
 20
109.906848918297
 30
0.0
 11
-565.124808295555
 21
109.130388814107
 31
0.0
  0
LINE
  5
   227
  8
0
  6
CONTINUOUS
 62
     7
 10
-565.124808295555
 20
109.130388814107
 30
0.0
 11
-562.227030032493
 21
108.35393460546
 31
0.0
  0
LINE
  5
   228
  8
0
  6
CONTINUOUS
 62
     7
 10
-485.522584978954
 20
108.354012633257
 30
0.0
 11
-482.624808295598
 21
109.130472737447
 31
0.0
  0
LINE
  5
   229
  8
0
  6
CONTINUOUS
 62
     7
 10
-482.624808295598
 20
109.130472737447
 30
0.0
 11
-485.52258655866
 21
109.906926946093
 31
0.0
  0
ENDBLK
  5
   22A
  8
0
  6
CONTINUOUS
 62
     7
  0
BLOCK
  5
   22B
  8
0
  6
CONTINUOUS
 62
     7
  2
*UDIM433
 70
    65
 10
0.0
 20
0.0
 30
0.0
  3
*UDIM433
  0
TEXT
  5
   22C
  8
0
  6
CONTINUOUS
 62
     7
 10
-519.299664356143
 20
-106.288848698366
 30
0.0
 40
3.00000002980232
  1
105
 50
359.999999948034
 41
0.933333333333333
 72
     1
 11
-515.399664316047
 21
-104.788848686982
 31
0.0
 73
     2
  0
LINE
  5
   22D
  8
0
  6
CONTINUOUS
 62
     7
 10
-488.874683562394
 20
32.7219009399414
 30
0.0
 11
-488.874683562394
 21
-109.288848701883
 31
0.0
  0
LINE
  5
   22E
  8
0
  6
CONTINUOUS
 62
     7
 10
-541.374653044802
 20
-10.9030838012695
 30
0.0
 11
-541.374653044802
 21
-109.288848701883
 31
0.0
  0
LINE
  5
   22F
  8
0
  6
CONTINUOUS
 62
     7
 10
-488.874683562394
 20
-107.288848701883
 30
0.0
 11
-541.374653044802
 21
-107.288848701883
 31
0.0
  0
LINE
  5
   230
  8
0
  6
CONTINUOUS
 62
     7
 10
-491.829106839601
 20
-107.809793131835
 30
0.0
 11
-488.874683562394
 21
-107.288848701883
 31
0.0
  0
LINE
  5
   231
  8
0
  6
CONTINUOUS
 62
     7
 10
-488.874683562394
 20
-107.288848701883
 30
0.0
 11
-491.829106839601
 21
-106.767904271932
 31
0.0
  0
LINE
  5
   232
  8
0
  6
CONTINUOUS
 62
     7
 10
-538.420229767595
 20
-106.767904271932
 30
0.0
 11
-541.374653044802
 21
-107.288848701883
 31
0.0
  0
LINE
  5
   233
  8
0
  6
CONTINUOUS
 62
     7
 10
-541.374653044802
 20
-107.288848701883
 30
0.0
 11
-538.420229767595
 21
-107.809793131835
 31
0.0
  0
ENDBLK
  5
   234
  8
0
  6
CONTINUOUS
 62
     7
  0
BLOCK
  5
   235
  8
0
  6
CONTINUOUS
 62
     7
  2
*UDIM434
 70
    65
 10
0.0
 20
0.0
 30
0.0
  3
*UDIM434
  0
TEXT
  5
   236
  8
0
  6
CONTINUOUS
 62
     7
 10
-507.574740653526
 20
-99.252178292278
 30
0.0
 40
3.00000002980232
  1
52,5
 50
359.999999948034
 41
0.933333333333333
 72
     1
 11
-502.274740599523
 21
-97.7521782821571
 31
0.0
 73
     2
  0
LINE
  5
   237
  8
0
  6
CONTINUOUS
 62
     7
 10
-488.874683903498
 20
32.7219009399415
 30
0.0
 11
-488.874729943741
 21
-102.252178297058
 31
0.0
  0
LINE
  5
   238
  8
0
  6
CONTINUOUS
 62
     7
 10
-515.124705741783
 20
37.2719087727658
 30
0.0
 11
-515.124753383368
 21
-102.252178297058
 31
0.0
  0
LINE
  5
   239
  8
0
  6
CONTINUOUS
 62
     7
 10
-488.874729261532
 20
-100.252178297058
 30
0.0
 11
-515.124752700453
 21
-100.252178297058
 31
0.0
  0
LINE
  5
   23A
  8
0
  6
CONTINUOUS
 62
     7
 10
-491.829152538739
 20
-100.77312272701
 30
0.0
 11
-488.874729261532
 21
-100.252178297058
 31
0.0
  0
LINE
  5
   23B
  8
0
  6
CONTINUOUS
 62
     7
 10
-488.874729261532
 20
-100.252178297058
 30
0.0
 11
-491.829152538739
 21
-99.7312338671066
 31
0.0
  0
LINE
  5
   23C
  8
0
  6
CONTINUOUS
 62
     7
 10
-512.170329423246
 20
-99.7312338671066
 30
0.0
 11
-515.124752700453
 21
-100.252178297058
 31
0.0
  0
LINE
  5
   23D
  8
0
  6
CONTINUOUS
 62
     7
 10
-515.124752700453
 20
-100.252178297058
 30
0.0
 11
-512.170329423246
 21
-100.77312272701
 31
0.0
  0
ENDBLK
  5
   23E
  8
0
  6
CONTINUOUS
 62
     7
  0
BLOCK
  5
   23F
  8
0
  6
CONTINUOUS
 62
     7
  2
*UDIM435
 70
    65
 10
0.0
 20
0.0
 30
0.0
  3
*UDIM435
  0
TEXT
  5
   240
  8
0
  6
CONTINUOUS
 62
     7
 10
-522.324664283894
 20
84.2493991079837
 30
0.0
 40
3.00000002980232
  1
5
 50
359.999999948034
 41
0.933333333333334
 72
     1
 11
-521.224664271613
 21
85.7493991218927
 31
0.0
 73
     2
  0
LINE
  5
   241
  8
0
  6
CONTINUOUS
 62
     7
 10
-512.624765409715
 20
70.5969187650466
 30
0.0
 11
-512.624765409715
 21
85.2493991069916
 31
0.0
  0
LINE
  5
   242
  8
0
  6
CONTINUOUS
 62
     7
 10
-515.124664260686
 20
76.3051382105651
 30
0.0
 11
-515.124664260686
 21
85.2493991069916
 31
0.0
  0
LINE
  5
   243
  8
0
  6
CONTINUOUS
 62
     7
 10
-507.624765409715
 20
83.2493991069916
 30
0.0
 11
-522.324664282541
 21
83.2493991069916
 31
0.0
  0
LINE
  5
   244
  8
0
  6
CONTINUOUS
 62
     7
 10
-509.726987936504
 20
84.0258562634101
 30
0.0
 11
-512.624765409715
 21
83.2493991069916
 31
0.0
  0
LINE
  5
   245
  8
0
  6
CONTINUOUS
 62
     7
 10
-512.624765409715
 20
83.2493991069916
 30
0.0
 11
-509.726987936504
 21
82.4729419505731
 31
0.0
  0
LINE
  5
   246
  8
0
  6
CONTINUOUS
 62
     7
 10
-518.022441733896
 20
82.4729419505731
 30
0.0
 11
-515.124664260686
 21
83.2493991069916
 31
0.0
  0
LINE
  5
   247
  8
0
  6
CONTINUOUS
 62
     7
 10
-515.124664260686
 20
83.2493991069916
 30
0.0
 11
-518.022441733896
 21
84.0258562634101
 31
0.0
  0
ENDBLK
  5
   248
  8
0
  6
CONTINUOUS
 62
     7
  0
BLOCK
  5
   249
  8
0
  6
CONTINUOUS
 62
     7
  2
*UDIM436
 70
    65
 10
0.0
 20
0.0
 30
0.0
  3
*UDIM436
  0
TEXT
  5
   24A
  8
0
  6
CONTINUOUS
 62
     7
 10
-498.658810863975
 20
88.524393294194
 30
0.0
 40
3.00000002980232
  1
65
 50
359.999999948034
 41
0.933333333333333
 72
     1
 11
-496.158810837787
 21
90.0243933068402
 31
0.0
 73
     2
  0
LINE
  5
   24B
  8
0
  6
CONTINUOUS
 62
     7
 10
-482.624761595033
 20
64.2219494083749
 30
0.0
 11
-482.624761595033
 21
89.5243932919391
 31
0.0
  0
LINE
  5
   24C
  8
0
  6
CONTINUOUS
 62
     7
 10
-515.124664260686
 20
76.3051382105651
 30
0.0
 11
-515.124664260686
 21
89.5243932919391
 31
0.0
  0
LINE
  5
   24D
  8
0
  6
CONTINUOUS
 62
     7
 10
-482.624761595033
 20
87.5243932919391
 30
0.0
 11
-515.124664260686
 21
87.5243932919391
 31
0.0
  0
LINE
  5
   24E
  8
0
  6
CONTINUOUS
 62
     7
 10
-485.522539068243
 20
86.7479361355205
 30
0.0
 11
-482.624761595033
 21
87.5243932919391
 31
0.0
  0
LINE
  5
   24F
  8
0
  6
CONTINUOUS
 62
     7
 10
-482.624761595033
 20
87.5243932919391
 30
0.0
 11
-485.522539068243
 21
88.3008504483576
 31
0.0
  0
LINE
  5
   250
  8
0
  6
CONTINUOUS
 62
     7
 10
-512.226886787475
 20
88.3008504483576
 30
0.0
 11
-515.124664260686
 21
87.5243932919391
 31
0.0
  0
LINE
  5
   251
  8
0
  6
CONTINUOUS
 62
     7
 10
-515.124664260686
 20
87.5243932919391
 30
0.0
 11
-512.226886787475
 21
86.7479361355205
 31
0.0
  0
ENDBLK
  5
   252
  8
0
  6
CONTINUOUS
 62
     7
  0
BLOCK
  5
   253
  8
0
  6
CONTINUOUS
 62
     7
  2
*UDIM437
 70
    65
 10
0.0
 20
0.0
 30
0.0
  3
*UDIM437
  0
TEXT
  5
   254
  8
0
  6
CONTINUOUS
 62
     7
 10
-471.201301578239
 20
-20.8280914767281
 30
0.0
 40
3.00000002980232
  1
161
 50
89.9999999480344
 41
0.933333333333333
 72
     1
 11
-472.701301589608
 21
-16.9280914366265
 31
0.0
 73
     2
  0
LINE
  5
   255
  8
0
  6
CONTINUOUS
 62
     7
 10
-485.499697995023
 20
-56.9030933380146
 30
0.0
 11
-468.201301574707
 21
-56.9030933380146
 31
0.0
  0
LINE
  5
   256
  8
0
  6
CONTINUOUS
 62
     7
 10
-485.499697995023
 20
23.5969047546367
 30
0.0
 11
-468.201301574707
 21
23.5969047546367
 31
0.0
  0
LINE
  5
   257
  8
0
  6
CONTINUOUS
 62
     7
 10
-470.201301574707
 20
-56.9030933380146
 30
0.0
 11
-470.201301574707
 21
23.5969047546367
 31
0.0
  0
LINE
  5
   258
  8
0
  6
CONTINUOUS
 62
     7
 10
-470.722246004659
 20
-53.9486700608077
 30
0.0
 11
-470.201301574707
 21
-56.9030933380146
 31
0.0
  0
LINE
  5
   259
  8
0
  6
CONTINUOUS
 62
     7
 10
-470.201301574707
 20
-56.9030933380146
 30
0.0
 11
-469.680357144755
 21
-53.9486700608077
 31
0.0
  0
LINE
  5
   25A
  8
0
  6
CONTINUOUS
 62
     7
 10
-469.680357144755
 20
20.6424814774298
 30
0.0
 11
-470.201301574707
 21
23.5969047546367
 31
0.0
  0
LINE
  5
   25B
  8
0
  6
CONTINUOUS
 62
     7
 10
-470.201301574707
 20
23.5969047546367
 30
0.0
 11
-470.722246004659
 21
20.6424814774298
 31
0.0
  0
ENDBLK
  5
   25C
  8
0
  6
CONTINUOUS
 62
     7
  0
BLOCK
  5
   25D
  8
0
  6
CONTINUOUS
 62
     7
  2
*UDIM438
 70
    65
 10
0.0
 20
0.0
 30
0.0
  3
*UDIM438
  0
TEXT
  5
   25E
  8
0
  6
CONTINUOUS
 62
     7
 10
-463.408470157341
 20
-21.7030685844571
 30
0.0
 40
3.00000002980232
  1
259
 50
89.9999999480344
 41
0.933333333333333
 72
     1
 11
-464.90847016871
 21
-17.8030685443555
 31
0.0
 73
     2
  0
LINE
  5
   25F
  8
0
  6
CONTINUOUS
 62
     7
 10
-490.874653044816
 20
-82.2780855413055
 30
0.0
 11
-460.408470153809
 21
-82.2780855413055
 31
0.0
  0
LINE
  5
   260
  8
0
  6
CONTINUOUS
 62
     7
 10
-488.499714375785
 20
47.2219417887952
 30
0.0
 11
-460.408470153809
 21
47.2219417887952
 31
0.0
  0
LINE
  5
   261
  8
0
  6
CONTINUOUS
 62
     7
 10
-462.408470153809
 20
-82.2780855413055
 30
0.0
 11
-462.408470153809
 21
47.2219417887952
 31
0.0
  0
LINE
  5
   262
  8
0
  6
CONTINUOUS
 62
     7
 10
-462.92941458376
 20
-79.3236622640985
 30
0.0
 11
-462.408470153809
 21
-82.2780855413055
 31
0.0
  0
LINE
  5
   263
  8
0
  6
CONTINUOUS
 62
     7
 10
-462.408470153809
 20
-82.2780855413055
 30
0.0
 11
-461.887525723857
 21
-79.3236622640985
 31
0.0
  0
LINE
  5
   264
  8
0
  6
CONTINUOUS
 62
     7
 10
-461.887525723857
 20
44.2675185115882
 30
0.0
 11
-462.408470153809
 21
47.2219417887952
 31
0.0
  0
LINE
  5
   265
  8
0
  6
CONTINUOUS
 62
     7
 10
-462.408470153809
 20
47.2219417887952
 30
0.0
 11
-462.92941458376
 21
44.2675185115882
 31
0.0
  0
ENDBLK
  5
   266
  8
0
  6
CONTINUOUS
 62
     7
  0
BLOCK
  5
   267
  8
0
  6
CONTINUOUS
 62
     7
  2
*UDIM439
 70
    65
 10
0.0
 20
0.0
 30
0.0
  3
*UDIM439
  0
TEXT
  5
   268
  8
0
  6
CONTINUOUS
 62
     7
 10
-509.149656694207
 20
-92.4007453895908
 30
0.0
 40
3.00000002980232
  1
35
 50
359.999999948034
 41
0.933333333333333
 72
     1
 11
-506.649656668019
 21
-90.9007453769445
 31
0.0
 73
     2
  0
LINE
  5
   269
  8
0
  6
CONTINUOUS
 62
     7
 10
-497.624653107819
 20
-76.7780733794385
 30
0.0
 11
-497.624661441754
 21
-95.4007453918455
 31
0.0
  0
LINE
  5
   26A
  8
0
  6
CONTINUOUS
 62
     7
 10
-515.124655785832
 20
-88.4067319936287
 30
0.0
 11
-515.124661673061
 21
-95.400745391845
 31
0.0
  0
LINE
  5
   26B
  8
0
  6
CONTINUOUS
 62
     7
 10
-497.624660546723
 20
-93.4007453918457
 30
0.0
 11
-515.124659989556
 21
-93.4007453918457
 31
0.0
  0
LINE
  5
   26C
  8
0
  6
CONTINUOUS
 62
     7
 10
-500.57908382393
 20
-93.9216898217974
 30
0.0
 11
-497.624660546723
 21
-93.4007453918457
 31
0.0
  0
LINE
  5
   26D
  8
0
  6
CONTINUOUS
 62
     7
 10
-497.624660546723
 20
-93.4007453918457
 30
0.0
 11
-500.57908382393
 21
-92.879800961894
 31
0.0
  0
LINE
  5
   26E
  8
0
  6
CONTINUOUS
 62
     7
 10
-512.170236712349
 20
-92.879800961894
 30
0.0
 11
-515.124659989556
 21
-93.4007453918457
 31
0.0
  0
LINE
  5
   26F
  8
0
  6
CONTINUOUS
 62
     7
 10
-515.124659989556
 20
-93.4007453918457
 30
0.0
 11
-512.170236712349
 21
-93.9216898217974
 31
0.0
  0
ENDBLK
  5
   270
  8
0
  6
CONTINUOUS
 62
     7
  0
BLOCK
  5
   271
  8
0
  6
CONTINUOUS
 62
     7
  2
*UDIM440
 70
    65
 10
0.0
 20
0.0
 30
0.0
  3
*UDIM440
  0
TEXT
  5
   272
  8
0
  6
CONTINUOUS
 62
     7
 10
-526.649652898372
 20
-92.4007453895908
 30
0.0
 40
3.00000002980232
  1
35
 50
359.999999948034
 41
0.933333333333333
 72
     1
 11
-524.149652872183
 21
-90.9007453769445
 31
0.0
 73
     2
  0
LINE
  5
   273
  8
0
  6
CONTINUOUS
 62
     7
 10
-532.62465361552
 20
-76.7780761466437
 30
0.0
 11
-532.624665496276
 21
-95.4007453918453
 31
0.0
  0
LINE
  5
   274
  8
0
  6
CONTINUOUS
 62
     7
 10
-515.124659989556
 20
-93.4007453918457
 30
0.0
 11
-532.624664220331
 21
-93.4007453918457
 31
0.0
  0
LINE
  5
   275
  8
0
  6
CONTINUOUS
 62
     7
 10
-518.079083266762
 20
-93.9216898217974
 30
0.0
 11
-515.124659989556
 21
-93.4007453918457
 31
0.0
  0
LINE
  5
   276
  8
0
  6
CONTINUOUS
 62
     7
 10
-515.124659989556
 20
-93.4007453918457
 30
0.0
 11
-518.079083266762
 21
-92.879800961894
 31
0.0
  0
LINE
  5
   277
  8
0
  6
CONTINUOUS
 62
     7
 10
-529.670240943124
 20
-92.879800961894
 30
0.0
 11
-532.624664220331
 21
-93.4007453918457
 31
0.0
  0
LINE
  5
   278
  8
0
  6
CONTINUOUS
 62
     7
 10
-532.624664220331
 20
-93.4007453918457
 30
0.0
 11
-529.670240943124
 21
-93.9216898217974
 31
0.0
  0
ENDBLK
  5
   279
  8
0
  6
CONTINUOUS
 62
     7
  0
BLOCK
  5
   27A
  8
0
  6
CONTINUOUS
 62
     7
  2
*UDIM441
 70
    65
 10
0.0
 20
0.0
 30
0.0
  3
*UDIM441
  0
TEXT
  5
   27B
  8
0
  6
CONTINUOUS
 62
     7
 10
-544.14964907505
 20
-92.4007453895908
 30
0.0
 40
3.00000002980232
  1
35
 50
359.999999948034
 41
0.933333333333333
 72
     1
 11
-541.649649048862
 21
-90.9007453769445
 31
0.0
 73
     2
  0
LINE
  5
   27C
  8
0
  6
CONTINUOUS
 62
     7
 10
-550.124654707447
 20
-85.7280782111825
 30
0.0
 11
-550.124664726042
 21
-95.4007453918446
 31
0.0
  0
LINE
  5
   27D
  8
0
  6
CONTINUOUS
 62
     7
 10
-532.624664220331
 20
-93.4007453918457
 30
0.0
 11
-550.124662654515
 21
-93.4007453918457
 31
0.0
  0
LINE
  5
   27E
  8
0
  6
CONTINUOUS
 62
     7
 10
-535.579087497538
 20
-93.9216898217974
 30
0.0
 11
-532.624664220331
 21
-93.4007453918457
 31
0.0
  0
LINE
  5
   27F
  8
0
  6
CONTINUOUS
 62
     7
 10
-532.624664220331
 20
-93.4007453918457
 30
0.0
 11
-535.579087497538
 21
-92.879800961894
 31
0.0
  0
LINE
  5
   280
  8
0
  6
CONTINUOUS
 62
     7
 10
-547.170239377308
 20
-92.879800961894
 30
0.0
 11
-550.124662654515
 21
-93.4007453918457
 31
0.0
  0
LINE
  5
   281
  8
0
  6
CONTINUOUS
 62
     7
 10
-550.124662654515
 20
-93.4007453918457
 30
0.0
 11
-547.170239377308
 21
-93.9216898217974
 31
0.0
  0
ENDBLK
  5
   282
  8
0
  6
CONTINUOUS
 62
     7
  0
BLOCK
  5
   283
  8
0
  6
CONTINUOUS
 62
     7
  2
MOSTRINA
 70
    64
 10
0.0
 20
0.0
 30
0.0
  3
MOSTRINA
  0
LINE
  5
   284
  8
0
  6
CONTINUOUS
 62
     3
 10
173.338256835938
 20
30.7306251525879
 30
0.0
 11
173.338256835938
 21
189.230621337891
 31
0.0
  0
LINE
  5
   285
  8
0
  6
CONTINUOUS
 62
     3
 10
57.5882568359375
 20
29.4806251525879
 30
0.0
 11
172.088256835938
 21
29.4806251525879
 31
0.0
  0
LINE
  5
   286
  8
0
  6
CONTINUOUS
 62
     3
 10
56.3382568359375
 20
30.7306251525879
 30
0.0
 11
56.3382568359375
 21
189.230621337891
 31
0.0
  0
LINE
  5
   287
  8
0
  6
CONTINUOUS
 62
     3
 10
57.5882568359375
 20
190.480621337891
 30
0.0
 11
172.088256835938
 21
190.480621337891
 31
0.0
  0
LINE
  5
   288
  8
0
  6
CONTINUOUS
 62
     3
 10
167.838256835938
 20
56.9806251525879
 30
0.0
 11
167.838256835938
 21
162.980625152588
 31
0.0
  0
LINE
  5
   289
  8
0
  6
CONTINUOUS
 62
     3
 10
61.8382568359375
 20
56.9806251525879
 30
0.0
 11
167.838256835938
 21
56.9806251525879
 31
0.0
  0
LINE
  5
   28A
  8
0
  6
CONTINUOUS
 62
     3
 10
61.8382568359375
 20
56.9806251525879
 30
0.0
 11
61.8382568359375
 21
162.980625152588
 31
0.0
  0
LINE
  5
   28B
  8
0
  6
CONTINUOUS
 62
     3
 10
61.8382568359375
 20
162.980621337891
 30
0.0
 11
167.838256835938
 21
162.980621337891
 31
0.0
  0
LINE
  5
   28C
  8
0
  6
CONTINUOUS
 62
     3
 10
168.838256835938
 20
48.4806251525879
 30
0.0
 11
168.838256835938
 21
49.4806251525879
 31
0.0
  0
LINE
  5
   28D
  8
0
  6
CONTINUOUS
 62
     3
 10
61.8382568359375
 20
50.4806251525879
 30
0.0
 11
167.838256835938
 21
50.4806251525879
 31
0.0
  0
LINE
  5
   28E
  8
0
  6
CONTINUOUS
 62
     3
 10
60.8382568359375
 20
48.4806251525879
 30
0.0
 11
60.8382568359375
 21
49.4806251525879
 31
0.0
  0
LINE
  5
   28F
  8
0
  6
CONTINUOUS
 62
     3
 10
61.8382568359375
 20
49.4806251525879
 30
0.0
 11
167.838256835938
 21
49.4806251525879
 31
0.0
  0
LINE
  5
   290
  8
0
  6
CONTINUOUS
 62
     3
 10
60.8382568359375
 20
29.4806251525879
 30
0.0
 11
60.8382568359375
 21
48.4806251525879
 31
0.0
  0
LINE
  5
   291
  8
0
  6
CONTINUOUS
 62
     3
 10
60.8382568359375
 20
49.4806213378906
 30
0.0
 11
60.8382568359375
 21
190.480621337891
 31
0.0
  0
LINE
  5
   292
  8
0
  6
CONTINUOUS
 62
     3
 10
61.8382568359375
 20
29.4806251525879
 30
0.0
 11
61.8382568359375
 21
49.4806251525879
 31
0.0
  0
LINE
  5
   293
  8
0
  6
CONTINUOUS
 62
     3
 10
61.8382568359375
 20
162.980621337891
 30
0.0
 11
61.8382568359375
 21
169.480621337891
 31
0.0
  0
LINE
  5
   294
  8
0
  6
CONTINUOUS
 62
     3
 10
61.8382568359375
 20
50.4806251525879
 30
0.0
 11
61.8382568359375
 21
56.9806251525879
 31
0.0
  0
LINE
  5
   295
  8
0
  6
CONTINUOUS
 62
     3
 10
168.838256835938
 20
29.4806251525879
 30
0.0
 11
168.838256835938
 21
48.4806251525879
 31
0.0
  0
LINE
  5
   296
  8
0
  6
CONTINUOUS
 62
     3
 10
168.838256835938
 20
49.4806251525879
 30
0.0
 11
168.838256835938
 21
190.480621337891
 31
0.0
  0
LINE
  5
   297
  8
0
  6
CONTINUOUS
 62
     3
 10
167.838256835938
 20
50.4806251525879
 30
0.0
 11
167.838256835938
 21
56.9806251525879
 31
0.0
  0
LINE
  5
   298
  8
0
  6
CONTINUOUS
 62
     3
 10
167.838256835938
 20
162.980621337891
 30
0.0
 11
167.838256835938
 21
169.480621337891
 31
0.0
  0
LINE
  5
   299
  8
0
  6
CONTINUOUS
 62
     3
 10
167.838256835938
 20
29.4806251525879
 30
0.0
 11
167.838256835938
 21
49.4806251525879
 31
0.0
  0
LINE
  5
   29A
  8
0
  6
CONTINUOUS
 62
     3
 10
60.8382568359375
 20
170.480621337891
 30
0.0
 11
168.838256835938
 21
170.480621337891
 31
0.0
  0
LINE
  5
   29B
  8
0
  6
CONTINUOUS
 62
     3
 10
61.8382568359375
 20
169.480621337891
 30
0.0
 11
167.838256835938
 21
169.480621337891
 31
0.0
  0
ARC
  5
   29C
  8
0
  6
CONTINUOUS
 62
     3
 10
57.5882568359375
 20
30.7306251525879
 30
0.0
 40
1.25
 50
180.0
 51
270.0
  0
ARC
  5
   29D
  8
0
  6
CONTINUOUS
 62
     3
 10
172.088256835938
 20
30.7306251525879
 30
0.0
 40
1.25
 50
270.0
 51
360.0
  0
ARC
  5
   29E
  8
0
  6
CONTINUOUS
 62
     3
 10
172.088256835938
 20
189.230621337891
 30
0.0
 40
1.25
 50
0.0
 51
90.0
  0
ARC
  5
   29F
  8
0
  6
CONTINUOUS
 62
     3
 10
57.5882568359375
 20
189.230621337891
 30
0.0
 40
1.25
 50
90.0
 51
180.0
  0
LINE
  5
   2A0
  8
0
  6
DOT
 62
     3
 10
60.3382577409677
 20
179.7306252571
 30
0.0
 11
60.8382568359375
 21
179.7306252571
 31
0.0
  0
LINE
  5
   2A1
  8
0
  6
DOT
 62
     3
 10
60.3382577409676
 20
181.2306252571
 30
0.0
 11
60.8382568359375
 21
181.2306252571
 31
0.0
  0
LINE
  5
   2A2
  8
0
  6
CONTINUOUS
 62
     3
 10
168.338257745313
 20
179.730625257273
 30
0.0
 11
168.838256835938
 21
179.730625257273
 31
0.0
  0
LINE
  5
   2A3
  8
0
  6
CONTINUOUS
 62
     3
 10
168.338257745314
 20
181.230625257273
 30
0.0
 11
168.838256835938
 21
181.230625257273
 31
0.0
  0
ARC
  5
   2A4
  8
0
  6
DOT
 62
     3
 10
60.3382577401871
 20
180.480625257147
 30
0.0
 40
0.749999999345164
 50
90.0
 51
270.0
  0
ARC
  5
   2A5
  8
0
  6
CONTINUOUS
 62
     3
 10
61.338257740822
 20
180.480625256974
 30
0.0
 40
0.750000000009701
 50
270.0
 51
450.0
  0
LINE
  5
   2A6
  8
0
  6
CONTINUOUS
 62
     3
 10
60.8382568359375
 20
181.2306252571
 30
0.0
 11
61.3382577409688
 21
181.2306252571
 31
0.0
  0
LINE
  5
   2A7
  8
0
  6
CONTINUOUS
 62
     3
 10
60.8382568359375
 20
179.7306252571
 30
0.0
 11
61.3382577409689
 21
179.7306252571
 31
0.0
  0
ARC
  5
   2A8
  8
0
  6
CONTINUOUS
 62
     3
 10
168.338257745503
 20
180.480625256952
 30
0.0
 40
0.750000000048506
 50
90.0000000038822
 51
269.999999996024
  0
ARC
  5
   2A9
  8
0
  6
DOT
 62
     3
 10
169.338257745421
 20
180.480625256965
 30
0.0
 40
0.750000000029104
 50
270.000000002449
 51
449.999999997486
  0
LINE
  5
   2AA
  8
0
  6
DOT
 62
     3
 10
168.838256835938
 20
181.230625257273
 30
0.0
 11
169.338257745315
 21
181.230625257273
 31
0.0
  0
LINE
  5
   2AB
  8
0
  6
DOT
 62
     3
 10
168.838256835938
 20
179.730625257273
 30
0.0
 11
169.338257745315
 21
179.730625257273
 31
0.0
  0
POINT
  5
   2AC
  8
0
  6
CONTINUOUS
 62
     3
 10
114.838256835938
 20
109.980621337891
 30
0.0
  0
ENDBLK
  5
   2AD
  8
0
  6
CONTINUOUS
 62
     7
  0
BLOCK
  5
   2AE
  8
0
  6
CONTINUOUS
 62
     7
  2
*UDIM442
 70
    65
 10
0.0
 20
0.0
 30
0.0
  3
*UDIM442
  0
TEXT
  5
   2AF
  8
0
  6
CONTINUOUS
 62
     7
 10
-250.052237892429
 20
38.0452247862955
 30
0.0
 40
3.00000002980232
  1
7
 50
407.076230773331
 41
0.933333333333334
 72
     1
 11
-250.401501375282
 21
39.8722483461571
 31
0.0
 73
     2
  0
TEXT
  5
   2B0
  8
0
  6
CONTINUOUS
 62
     7
 10
-251.92505585344
 20
36.0315085523924
 30
0.0
 40
3.00000002980232
  1
Ø
 50
407.076230773331
 41
0.933333333333334
 72
     1
 11
-252.274319336293
 21
37.858532112254
 31
0.0
 73
     2
  0
LINE
  5
   2B1
  8
0
  6
CONTINUOUS
 62
     7
 10
-240.338353261291
 20
47.0215414833689
 30
0.0
 11
-251.192795408781
 21
35.3504838486105
 31
0.0
  0
LINE
  5
   2B2
  8
0
  6
CONTINUOUS
 62
     7
 10
-238.707785018618
 20
49.53972479798
 30
0.0
 11
-240.338353261291
 21
47.0215414833689
 31
0.0
  0
LINE
  5
   2B3
  8
0
  6
CONTINUOUS
 62
     7
 10
-240.338353261291
 20
47.0215414833689
 30
0.0
 11
-237.944851023948
 21
48.8301727448026
 31
0.0
  0
LINE
  5
   2B4
  8
0
  6
CONTINUOUS
 62
     7
 10
-243.160714737242
 20
43.2219023992857
 30
0.0
 11
-241.530146494569
 21
45.7400857138968
 31
0.0
  0
LINE
  5
   2B5
  8
0
  6
CONTINUOUS
 62
     7
 10
-241.530146494569
 20
45.7400857138968
 30
0.0
 11
-243.923648731911
 21
43.931454452463
 31
0.0
  0
ENDBLK
  5
   2B6
  8
0
  6
CONTINUOUS
 62
     7
  0
BLOCK
  5
   2B7
  8
0
  6
CONTINUOUS
 62
     7
  2
*UDIM443
 70
    65
 10
0.0
 20
0.0
 30
0.0
  3
*UDIM443
  0
TEXT
  5
   2B8
  8
0
  6
CONTINUOUS
 62
     7
 10
-233.709249912799
 20
94.6669921942897
 30
0.0
 40
3.00000002980232
  1
80
 50
359.999999844103
 41
0.933333333333333
 72
     1
 11
-231.20924988389
 21
96.1669922024012
 31
0.0
 73
     2
  0
LINE
  5
   2B9
  8
0
  6
CONTINUOUS
 62
     7
 10
-240.93424987793
 20
84.5058135986328
 30
0.0
 11
-240.93424987793
 21
95.6669921875
 31
0.0
  0
LINE
  5
   2BA
  8
0
  6
CONTINUOUS
 62
     7
 10
-220.93424987793
 20
84.5058135986328
 30
0.0
 11
-220.93424987793
 21
95.6669921875
 31
0.0
  0
LINE
  5
   2BB
  8
0
  6
CONTINUOUS
 62
     7
 10
-240.93424987793
 20
93.6669921875
 30
0.0
 11
-220.93424987793
 21
93.6669921875
 31
0.0
  0
LINE
  5
   2BC
  8
0
  6
CONTINUOUS
 62
     7
 10
-237.979826600723
 20
94.1879366174517
 30
0.0
 11
-240.93424987793
 21
93.6669921875
 31
0.0
  0
LINE
  5
   2BD
  8
0
  6
CONTINUOUS
 62
     7
 10
-240.93424987793
 20
93.6669921875
 30
0.0
 11
-237.979826600723
 21
93.1460477575483
 31
0.0
  0
LINE
  5
   2BE
  8
0
  6
CONTINUOUS
 62
     7
 10
-223.888673155137
 20
93.1460477575483
 30
0.0
 11
-220.93424987793
 21
93.6669921875
 31
0.0
  0
LINE
  5
   2BF
  8
0
  6
CONTINUOUS
 62
     7
 10
-220.93424987793
 20
93.6669921875
 30
0.0
 11
-223.888673155137
 21
94.1879366174517
 31
0.0
  0
ENDBLK
  5
   2C0
  8
0
  6
CONTINUOUS
 62
     7
  0
BLOCK
  5
   2C1
  8
0
  6
CONTINUOUS
 62
     7
  2
*UDIM444
 70
    65
 10
0.0
 20
0.0
 30
0.0
  3
*UDIM444
  0
TEXT
  5
   2C2
  8
0
  6
CONTINUOUS
 62
     7
 10
-235.109249926707
 20
101.106651316744
 30
0.0
 40
3.00000002980232
  1
112
 50
359.999999844103
 41
0.933333333333333
 72
     1
 11
-231.20924988389
 21
102.606651321054
 31
0.0
 73
     2
  0
LINE
  5
   2C3
  8
0
  6
CONTINUOUS
 62
     7
 10
-244.93424987793
 20
79.1308135986328
 30
0.0
 11
-244.93424987793
 21
102.106651306152
 31
0.0
  0
LINE
  5
   2C4
  8
0
  6
CONTINUOUS
 62
     7
 10
-216.93424987793
 20
79.1308135986328
 30
0.0
 11
-216.93424987793
 21
102.106651306152
 31
0.0
  0
LINE
  5
   2C5
  8
0
  6
CONTINUOUS
 62
     7
 10
-244.93424987793
 20
100.106651306152
 30
0.0
 11
-216.93424987793
 21
100.106651306152
 31
0.0
  0
LINE
  5
   2C6
  8
0
  6
CONTINUOUS
 62
     7
 10
-241.979826600723
 20
100.627595736104
 30
0.0
 11
-244.93424987793
 21
100.106651306152
 31
0.0
  0
LINE
  5
   2C7
  8
0
  6
CONTINUOUS
 62
     7
 10
-244.93424987793
 20
100.106651306152
 30
0.0
 11
-241.979826600723
 21
99.5857068762007
 31
0.0
  0
LINE
  5
   2C8
  8
0
  6
CONTINUOUS
 62
     7
 10
-219.888673155137
 20
99.5857068762007
 30
0.0
 11
-216.93424987793
 21
100.106651306152
 31
0.0
  0
LINE
  5
   2C9
  8
0
  6
CONTINUOUS
 62
     7
 10
-216.93424987793
 20
100.106651306152
 30
0.0
 11
-219.888673155137
 21
100.627595736104
 31
0.0
  0
ENDBLK
  5
   2CA
  8
0
  6
CONTINUOUS
 62
     7
  0
BLOCK
  5
   2CB
  8
0
  6
CONTINUOUS
 62
     7
  2
*UDIM445
 70
    65
 10
0.0
 20
0.0
 30
0.0
  3
*UDIM445
  0
TEXT
  5
   2CC
  8
0
  6
CONTINUOUS
 62
     7
 10
-261.088087092496
 20
59.9558135498574
 30
0.0
 40
3.00000002980232
  1
112
 50
449.999999844103
 41
0.933333333333333
 72
     1
 11
-262.58808709681
 21
63.8558135926723
 31
0.0
 73
     2
  0
LINE
  5
   2CD
  8
0
  6
CONTINUOUS
 62
     7
 10
-245.93424987793
 20
78.1308135986328
 30
0.0
 11
-262.088087081909
 21
78.1308135986328
 31
0.0
  0
LINE
  5
   2CE
  8
0
  6
CONTINUOUS
 62
     7
 10
-245.93424987793
 20
50.1308135986328
 30
0.0
 11
-262.088087081909
 21
50.1308135986328
 31
0.0
  0
LINE
  5
   2CF
  8
0
  6
CONTINUOUS
 62
     7
 10
-260.088087081909
 20
78.1308135986328
 30
0.0
 11
-260.088087081909
 21
50.1308135986328
 31
0.0
  0
LINE
  5
   2D0
  8
0
  6
CONTINUOUS
 62
     7
 10
-259.567142651958
 20
75.1763903214259
 30
0.0
 11
-260.088087081909
 21
78.1308135986328
 31
0.0
  0
LINE
  5
   2D1
  8
0
  6
CONTINUOUS
 62
     7
 10
-260.088087081909
 20
78.1308135986328
 30
0.0
 11
-260.609031511861
 21
75.1763903214259
 31
0.0
  0
LINE
  5
   2D2
  8
0
  6
CONTINUOUS
 62
     7
 10
-260.609031511861
 20
53.0852368758398
 30
0.0
 11
-260.088087081909
 21
50.1308135986328
 31
0.0
  0
LINE
  5
   2D3
  8
0
  6
CONTINUOUS
 62
     7
 10
-260.088087081909
 20
50.1308135986328
 30
0.0
 11
-259.567142651958
 21
53.0852368758398
 31
0.0
  0
ENDBLK
  5
   2D4
  8
0
  6
CONTINUOUS
 62
     7
  0
BLOCK
  5
   2D5
  8
0
  6
CONTINUOUS
 62
     7
  2
*UDIM446
 70
    65
 10
0.0
 20
0.0
 30
0.0
  3
*UDIM446
  0
TEXT
  5
   2D6
  8
0
  6
CONTINUOUS
 62
     7
 10
-271.342350016691
 20
59.9558135498574
 30
0.0
 40
3.00000002980232
  1
142
 50
449.999999844103
 41
0.933333333333333
 72
     1
 11
-272.842350021005
 21
63.8558135926723
 31
0.0
 73
     2
  0
LINE
  5
   2D7
  8
0
  6
CONTINUOUS
 62
     7
 10
-243.55924987793
 20
81.8808135986328
 30
0.0
 11
-272.342350006104
 21
81.8808135986328
 31
0.0
  0
LINE
  5
   2D8
  8
0
  6
CONTINUOUS
 62
     7
 10
-243.55924987793
 20
46.3808135986328
 30
0.0
 11
-272.342350006104
 21
46.3808135986328
 31
0.0
  0
LINE
  5
   2D9
  8
0
  6
CONTINUOUS
 62
     7
 10
-270.342350006104
 20
81.8808135986328
 30
0.0
 11
-270.342350006104
 21
46.3808135986328
 31
0.0
  0
LINE
  5
   2DA
  8
0
  6
CONTINUOUS
 62
     7
 10
-269.821405576152
 20
78.9263903214259
 30
0.0
 11
-270.342350006104
 21
81.8808135986328
 31
0.0
  0
LINE
  5
   2DB
  8
0
  6
CONTINUOUS
 62
     7
 10
-270.342350006104
 20
81.8808135986328
 30
0.0
 11
-270.863294436055
 21
78.9263903214259
 31
0.0
  0
LINE
  5
   2DC
  8
0
  6
CONTINUOUS
 62
     7
 10
-270.863294436055
 20
49.3352368758398
 30
0.0
 11
-270.342350006104
 21
46.3808135986328
 31
0.0
  0
LINE
  5
   2DD
  8
0
  6
CONTINUOUS
 62
     7
 10
-270.342350006104
 20
46.3808135986328
 30
0.0
 11
-269.821405576152
 21
49.3352368758398
 31
0.0
  0
ENDBLK
  5
   2DE
  8
0
  6
CONTINUOUS
 62
     7
  0
BLOCK
  5
   2DF
  8
0
  6
CONTINUOUS
 62
     7
  2
*HATCH278
 70
    65
 10
0.0
 20
0.0
 30
0.0
  3
*HATCH278
  0
LINE
  5
   2E0
  8
0
  6
CONTINUOUS
 62
   210
 10
281.487091064453
 20
55.8027000427246
 30
0.0
 11
284.289825439453
 21
52.9999618530274
 31
0.0
  0
LINE
  5
   2E1
  8
0
  6
CONTINUOUS
 62
   210
 10
283.532470703125
 20
57.9999656677246
 30
0.0
 11
288.532470703125
 21
52.9999618530274
 31
0.0
  0
LINE
  5
   2E2
  8
0
  6
CONTINUOUS
 62
   210
 10
287.775085449219
 20
57.9999656677246
 30
0.0
 11
289.737091064453
 21
56.0379905700684
 31
0.0
  0
ENDBLK
  5
   2E3
  8
0
  6
CONTINUOUS
 62
     7
  0
BLOCK
  5
   2E4
  8
0
  6
CONTINUOUS
 62
     7
  2
*HATCH279
 70
    65
 10
0.0
 20
0.0
 30
0.0
  3
*HATCH279
  0
LINE
  5
   2E5
  8
0
  6
CONTINUOUS
 62
   210
 10
221.487091064453
 20
75.4976654052734
 30
0.0
 11
223.984786987305
 21
72.9999618530274
 31
0.0
  0
LINE
  5
   2E6
  8
0
  6
CONTINUOUS
 62
   210
 10
223.227432250977
 20
77.9999694824219
 30
0.0
 11
228.227432250977
 21
72.9999618530274
 31
0.0
  0
LINE
  5
   2E7
  8
0
  6
CONTINUOUS
 62
   210
 10
227.470062255859
 20
77.9999694824219
 30
0.0
 11
232.470062255859
 21
72.9999618530274
 31
0.0
  0
LINE
  5
   2E8
  8
0
  6
CONTINUOUS
 62
   210
 10
229.591384887695
 20
77.9999694824219
 30
0.0
 11
234.591384887695
 21
72.9999618530274
 31
0.0
  0
LINE
  5
   2E9
  8
0
  6
CONTINUOUS
 62
   210
 10
231.712707519531
 20
77.9999694824219
 30
0.0
 11
236.712707519531
 21
72.9999618530274
 31
0.0
  0
LINE
  5
   2EA
  8
0
  6
CONTINUOUS
 62
   210
 10
233.834014892578
 20
77.9999771118164
 30
0.0
 11
238.834030151367
 21
72.9999618530274
 31
0.0
  0
LINE
  5
   2EB
  8
0
  6
CONTINUOUS
 62
   210
 10
253.719955444336
 20
58.114013671875
 30
0.0
 11
258.834014892578
 21
52.9999618530274
 31
0.0
  0
LINE
  5
   2EC
  8
0
  6
CONTINUOUS
 62
   210
 10
255.955322265625
 20
57.9999656677246
 30
0.0
 11
260.955322265625
 21
52.9999618530274
 31
0.0
  0
LINE
  5
   2ED
  8
0
  6
CONTINUOUS
 62
   210
 10
258.076629638672
 20
57.9999656677246
 30
0.0
 11
263.076629638672
 21
52.9999618530274
 31
0.0
  0
LINE
  5
   2EE
  8
0
  6
CONTINUOUS
 62
   210
 10
260.197967529297
 20
57.9999656677246
 30
0.0
 11
265.197967529297
 21
52.9999618530274
 31
0.0
  0
LINE
  5
   2EF
  8
0
  6
CONTINUOUS
 62
   210
 10
264.440582275391
 20
57.9999656677246
 30
0.0
 11
269.440582275391
 21
52.9999618530274
 31
0.0
  0
LINE
  5
   2F0
  8
0
  6
CONTINUOUS
 62
   210
 10
268.683227539063
 20
57.9999656677246
 30
0.0
 11
272.987091064453
 21
53.6960983276367
 31
0.0
  0
LINE
  5
   2F1
  8
0
  6
CONTINUOUS
 62
   210
 10
272.925842285156
 20
57.9999656677246
 30
0.0
 11
272.987091064453
 21
57.9387435913086
 31
0.0
  0
ENDBLK
  5
   2F2
  8
0
  6
CONTINUOUS
 62
     7
  0
BLOCK
  5
   2F3
  8
0
  6
CONTINUOUS
 62
     7
  2
*HATCH280
 70
    65
 10
0.0
 20
0.0
 30
0.0
  3
*HATCH280
  0
LINE
  5
   2F4
  8
0
  6
CONTINUOUS
 62
   210
 10
207.237091064453
 20
77.0197525024414
 30
0.0
 11
211.256881713867
 21
72.9999618530274
 31
0.0
  0
LINE
  5
   2F5
  8
0
  6
CONTINUOUS
 62
   210
 10
210.499526977539
 20
77.9999618530274
 30
0.0
 11
212.987091064453
 21
75.5123825073242
 31
0.0
  0
ENDBLK
  5
   2F6
  8
0
  6
CONTINUOUS
 62
     7
  0
BLOCK
  5
   2F7
  8
0
  6
CONTINUOUS
 62
     7
  2
*HATCH281
 70
    65
 10
0.0
 20
0.0
 30
0.0
  3
*HATCH281
  0
LINE
  5
   2F8
  8
0
  6
CONTINUOUS
 62
   210
 10
199.672592163086
 20
82.9999618530274
 30
0.0
 11
196.745819091797
 21
80.0731887817383
 31
0.0
  0
LINE
  5
   2F9
  8
0
  6
CONTINUOUS
 62
   210
 10
203.915237426758
 20
82.9999618530274
 30
0.0
 11
198.915237426758
 21
77.9999618530274
 31
0.0
  0
LINE
  5
   2FA
  8
0
  6
CONTINUOUS
 62
   210
 10
208.15788269043
 20
82.9999618530274
 30
0.0
 11
203.15788269043
 21
77.9999618530274
 31
0.0
  0
LINE
  5
   2FB
  8
0
  6
CONTINUOUS
 62
   210
 10
212.400527954102
 20
82.9999618530274
 30
0.0
 11
207.400527954102
 21
77.9999618530274
 31
0.0
  0
LINE
  5
   2FC
  8
0
  6
CONTINUOUS
 62
   210
 10
213.237091064453
 20
79.5939025878906
 30
0.0
 11
212.643157958984
 21
78.9999618530273
 31
0.0
  0
ENDBLK
  5
   2FD
  8
0
  6
CONTINUOUS
 62
     7
  0
BLOCK
  5
   2FE
  8
0
  6
CONTINUOUS
 62
     7
  2
*UDIM447
 70
    65
 10
0.0
 20
0.0
 30
0.0
  3
*UDIM447
  0
TEXT
  5
   2FF
  8
0
  6
CONTINUOUS
 62
     7
 10
-413.781103749411
 20
81.1898288399971
 30
0.0
 40
3.00000002980232
  1
45
 50
359.999999948034
 41
0.933333333333333
 72
     1
 11
-411.281103723223
 21
82.6898288526434
 31
0.0
 73
     2
  0
LINE
  5
   300
  8
0
  6
CONTINUOUS
 62
     7
 10
-400.031110034337
 20
70.0969341495807
 30
0.0
 11
-400.031110034337
 21
82.1898288377423
 31
0.0
  0
LINE
  5
   301
  8
0
  6
CONTINUOUS
 62
     7
 10
-422.531097412109
 20
55.5280137207928
 30
0.0
 11
-422.531097412109
 21
82.1898288377423
 31
0.0
  0
LINE
  5
   302
  8
0
  6
CONTINUOUS
 62
     7
 10
-400.031110034337
 20
80.1898288377423
 30
0.0
 11
-422.531097412109
 21
80.1898288377423
 31
0.0
  0
LINE
  5
   303
  8
0
  6
CONTINUOUS
 62
     7
 10
-402.928887507547
 20
79.4133716813237
 30
0.0
 11
-400.031110034337
 21
80.1898288377423
 31
0.0
  0
LINE
  5
   304
  8
0
  6
CONTINUOUS
 62
     7
 10
-400.031110034337
 20
80.1898288377423
 30
0.0
 11
-402.928887507547
 21
80.9662859941608
 31
0.0
  0
LINE
  5
   305
  8
0
  6
CONTINUOUS
 62
     7
 10
-419.633319938899
 20
80.9662859941608
 30
0.0
 11
-422.531097412109
 21
80.1898288377423
 31
0.0
  0
LINE
  5
   306
  8
0
  6
CONTINUOUS
 62
     7
 10
-422.531097412109
 20
80.1898288377423
 30
0.0
 11
-419.633319938899
 21
79.4133716813237
 31
0.0
  0
ENDBLK
  5
   307
  8
0
  6
CONTINUOUS
 62
     7
  0
BLOCK
  5
   308
  8
0
  6
CONTINUOUS
 62
     7
  2
*UDIM448
 70
    65
 10
0.0
 20
0.0
 30
0.0
  3
*UDIM448
  0
TEXT
  5
   309
  8
0
  6
CONTINUOUS
 62
     7
 10
-393.308800552598
 20
81.1898288387344
 30
0.0
 40
3.00000002980232
  1
5
 50
359.999999948034
 41
0.933333333333334
 72
     1
 11
-392.208800540318
 21
82.6898288526434
 31
0.0
 73
     2
  0
LINE
  5
   30A
  8
0
  6
CONTINUOUS
 62
     7
 10
-397.531109080662
 20
70.0969341495807
 30
0.0
 11
-397.531109080662
 21
82.1898288377423
 31
0.0
  0
LINE
  5
   30B
  8
0
  6
CONTINUOUS
 62
     7
 10
-391.108800529391
 20
80.1898288377423
 30
0.0
 11
-400.031110034337
 21
80.1898288377423
 31
0.0
  0
LINE
  5
   30C
  8
0
  6
CONTINUOUS
 62
     7
 10
-394.633331607452
 20
80.9662859941608
 30
0.0
 11
-397.531109080662
 21
80.1898288377423
 31
0.0
  0
LINE
  5
   30D
  8
0
  6
CONTINUOUS
 62
     7
 10
-397.531109080662
 20
80.1898288377423
 30
0.0
 11
-394.633331607452
 21
79.4133716813237
 31
0.0
  0
LINE
  5
   30E
  8
0
  6
CONTINUOUS
 62
     7
 10
-402.928887507547
 20
79.4133716813237
 30
0.0
 11
-400.031110034337
 21
80.1898288377423
 31
0.0
  0
LINE
  5
   30F
  8
0
  6
CONTINUOUS
 62
     7
 10
-400.031110034337
 20
80.1898288377423
 30
0.0
 11
-402.928887507547
 21
80.9662859941608
 31
0.0
  0
ENDBLK
  5
   310
  8
0
  6
CONTINUOUS
 62
     7
  0
BLOCK
  5
   311
  8
0
  6
CONTINUOUS
 62
     7
  2
*UDIM449
 70
    65
 10
0.0
 20
0.0
 30
0.0
  3
*UDIM449
  0
TEXT
  5
   312
  8
0
  6
CONTINUOUS
 62
     7
 10
-437.237373354315
 20
49.4719341233868
 30
0.0
 40
3.00000002980232
  1
60
 50
89.9999999480344
 41
0.933333333333333
 72
     1
 11
-438.737373366952
 21
51.9719341495806
 31
0.0
 73
     2
  0
LINE
  5
   313
  8
0
  6
CONTINUOUS
 62
     7
 10
-417.245780611624
 20
36.9719341495806
 30
0.0
 11
-438.237373352051
 21
36.9719341495806
 31
0.0
  0
LINE
  5
   314
  8
0
  6
CONTINUOUS
 62
     7
 10
-402.031110034337
 20
66.9719341495806
 30
0.0
 11
-438.237373352051
 21
66.9719341495806
 31
0.0
  0
LINE
  5
   315
  8
0
  6
CONTINUOUS
 62
     7
 10
-436.237373352051
 20
36.9719341495806
 30
0.0
 11
-436.237373352051
 21
66.9719341495806
 31
0.0
  0
LINE
  5
   316
  8
0
  6
CONTINUOUS
 62
     7
 10
-437.013830508469
 20
39.8697116227912
 30
0.0
 11
-436.237373352051
 21
36.9719341495806
 31
0.0
  0
LINE
  5
   317
  8
0
  6
CONTINUOUS
 62
     7
 10
-436.237373352051
 20
36.9719341495806
 30
0.0
 11
-435.460916195632
 21
39.8697116227912
 31
0.0
  0
LINE
  5
   318
  8
0
  6
CONTINUOUS
 62
     7
 10
-435.460916195632
 20
64.0741566763701
 30
0.0
 11
-436.237373352051
 21
66.9719341495806
 31
0.0
  0
LINE
  5
   319
  8
0
  6
CONTINUOUS
 62
     7
 10
-436.237373352051
 20
66.9719341495806
 30
0.0
 11
-437.013830508469
 21
64.0741566763701
 31
0.0
  0
ENDBLK
  5
   31A
  8
0
  6
CONTINUOUS
 62
     7
  0
BLOCK
  5
   31B
  8
0
  6
CONTINUOUS
 62
     7
  2
*UDIM450
 70
    65
 10
0.0
 20
0.0
 30
0.0
  3
*UDIM450
  0
TEXT
  5
   31C
  8
0
  6
CONTINUOUS
 62
     7
 10
-437.237373356851
 20
76.6306924497583
 30
0.0
 40
3.00000002980232
  1
12,5
 50
89.9999999480344
 41
0.933333333333333
 72
     1
 11
-438.737373366952
 21
81.9306925037677
 31
0.0
 73
     2
  0
LINE
  5
   31D
  8
0
  6
CONTINUOUS
 62
     7
 10
-401.031110034337
 20
73.2219265201861
 30
0.0
 11
-438.237373352051
 21
73.2219265201861
 31
0.0
  0
LINE
  5
   31E
  8
0
  6
CONTINUOUS
 62
     7
 10
-436.237373352051
 20
66.9719341495806
 30
0.0
 11
-436.237373352051
 21
87.2306925564184
 31
0.0
  0
LINE
  5
   31F
  8
0
  6
CONTINUOUS
 62
     7
 10
-435.460916195632
 20
64.0741566763701
 30
0.0
 11
-436.237373352051
 21
66.9719341495806
 31
0.0
  0
LINE
  5
   320
  8
0
  6
CONTINUOUS
 62
     7
 10
-436.237373352051
 20
66.9719341495806
 30
0.0
 11
-437.013830508469
 21
64.0741566763701
 31
0.0
  0
LINE
  5
   321
  8
0
  6
CONTINUOUS
 62
     7
 10
-437.013830508469
 20
76.1197039933967
 30
0.0
 11
-436.237373352051
 21
73.2219265201861
 31
0.0
  0
LINE
  5
   322
  8
0
  6
CONTINUOUS
 62
     7
 10
-436.237373352051
 20
73.2219265201861
 30
0.0
 11
-435.460916195632
 21
76.1197039933967
 31
0.0
  0
ENDBLK
  5
   323
  8
0
  6
CONTINUOUS
 62
     7
  0
BLOCK
  5
   324
  8
0
  6
CONTINUOUS
 62
     7
  2
*UDIM451
 70
    65
 10
0.0
 20
0.0
 30
0.0
  3
*UDIM451
  0
TEXT
  5
   325
  8
0
  6
CONTINUOUS
 62
     7
 10
-400.931108658822
 20
87.9828637666124
 30
0.0
 40
3.00000002980232
  1
101
 50
359.999999948034
 41
0.933333333333333
 72
     1
 11
-397.031108618726
 21
89.482863777996
 31
0.0
 73
     2
  0
LINE
  5
   326
  8
0
  6
CONTINUOUS
 62
     7
 10
-371.781108618726
 20
86.9828637630948
 30
0.0
 11
-422.281108618726
 21
86.9828637630948
 31
0.0
  0
LINE
  5
   327
  8
0
  6
CONTINUOUS
 62
     7
 10
-374.678886091937
 20
86.2064066066763
 30
0.0
 11
-371.781108618726
 21
86.9828637630948
 31
0.0
  0
LINE
  5
   328
  8
0
  6
CONTINUOUS
 62
     7
 10
-371.781108618726
 20
86.9828637630948
 30
0.0
 11
-374.678886091937
 21
87.7593209195134
 31
0.0
  0
LINE
  5
   329
  8
0
  6
CONTINUOUS
 62
     7
 10
-419.383331145516
 20
87.7593209195134
 30
0.0
 11
-422.281108618726
 21
86.9828637630948
 31
0.0
  0
LINE
  5
   32A
  8
0
  6
CONTINUOUS
 62
     7
 10
-422.281108618726
 20
86.9828637630948
 30
0.0
 11
-419.383331145516
 21
86.2064066066763
 31
0.0
  0
ENDBLK
  5
   32B
  8
0
  6
CONTINUOUS
 62
     7
  0
BLOCK
  5
   32C
  8
0
  6
CONTINUOUS
 62
     7
  2
*HATCH282
 70
    65
 10
0.0
 20
0.0
 30
0.0
  3
*HATCH282
  0
LINE
  5
   32D
  8
0
  6
CONTINUOUS
 62
     3
 10
204.218536376953
 20
77.9999618530274
 30
0.0
 11
202.237045288086
 21
76.0184707641602
 31
0.0
  0
LINE
  5
   32E
  8
0
  6
CONTINUOUS
 62
     3
 10
206.237045288086
 20
77.8971557617188
 30
0.0
 11
202.237045288086
 21
73.8971557617188
 31
0.0
  0
LINE
  5
   32F
  8
0
  6
CONTINUOUS
 62
     3
 10
206.237045288086
 20
75.7758331298828
 30
0.0
 11
202.237045288086
 21
71.7758331298828
 31
0.0
  0
LINE
  5
   330
  8
0
  6
CONTINUOUS
 62
     3
 10
206.237045288086
 20
73.6545104980469
 30
0.0
 11
202.237045288086
 21
69.6545104980469
 31
0.0
  0
LINE
  5
   331
  8
0
  6
CONTINUOUS
 62
     3
 10
206.237045288086
 20
71.5331878662109
 30
0.0
 11
202.237045288086
 21
67.5331878662109
 31
0.0
  0
LINE
  5
   332
  8
0
  6
CONTINUOUS
 62
     3
 10
206.237045288086
 20
69.4118728637695
 30
0.0
 11
202.819671630859
 21
65.994499206543
 31
0.0
  0
LINE
  5
   333
  8
0
  6
CONTINUOUS
 62
     3
 10
206.237045288086
 20
67.2905502319336
 30
0.0
 11
204.279418945313
 21
65.3329238891602
 31
0.0
  0
LINE
  5
   334
  8
0
  6
CONTINUOUS
 62
     3
 10
206.237045288086
 20
65.1692276000977
 30
0.0
 11
205.739166259766
 21
64.6713485717773
 31
0.0
  0
ENDBLK
  5
   335
  8
0
  6
CONTINUOUS
 62
     7
  0
BLOCK
  5
   336
  8
0
  6
CONTINUOUS
 62
     7
  2
*HATCH283
 70
    65
 10
0.0
 20
0.0
 30
0.0
  3
*HATCH283
  0
LINE
  5
   337
  8
0
  6
CONTINUOUS
 62
     3
 10
197.431854248047
 20
90.3051605224609
 30
0.0
 11
196.745819091797
 21
89.6191329956055
 31
0.0
  0
LINE
  5
   338
  8
0
  6
CONTINUOUS
 62
     3
 10
198.492523193359
 20
89.2445068359375
 30
0.0
 11
196.745819091797
 21
87.4978103637695
 31
0.0
  0
LINE
  5
   339
  8
0
  6
CONTINUOUS
 62
     3
 10
199.553192138672
 20
88.1838531494141
 30
0.0
 11
196.745819091797
 21
85.3764877319336
 31
0.0
  0
LINE
  5
   33A
  8
0
  6
CONTINUOUS
 62
     3
 10
199.737045288086
 20
86.2463912963867
 30
0.0
 11
196.745819091797
 21
83.2551727294922
 31
0.0
  0
LINE
  5
   33B
  8
0
  6
CONTINUOUS
 62
     3
 10
199.737045288086
 20
84.1250762939453
 30
0.0
 11
198.611923217773
 21
82.9999618530274
 31
0.0
  0
ENDBLK
  5
   33C
  8
0
  6
CONTINUOUS
 62
     7
  0
BLOCK
  5
   33D
  8
0
  6
CONTINUOUS
 62
     7
  2
*HATCH284
 70
    65
 10
0.0
 20
0.0
 30
0.0
  3
*HATCH284
  0
LINE
  5
   33E
  8
0
  6
CONTINUOUS
 62
   210
 10
-10.7629547119141
 20
80.7665863037109
 30
0.0
 11
-7.99633836746216
 21
77.9999618530274
 31
0.0
  0
LINE
  5
   33F
  8
0
  6
CONTINUOUS
 62
   210
 10
-8.75369358062744
 20
82.9999618530274
 30
0.0
 11
-4.76300573348999
 21
79.0092697143555
 31
0.0
  0
ENDBLK
  5
   340
  8
0
  6
CONTINUOUS
 62
     7
  0
BLOCK
  5
   341
  8
0
  6
CONTINUOUS
 62
     7
  2
*HATCH285
 70
    65
 10
0.0
 20
0.0
 30
0.0
  3
*HATCH285
  0
LINE
  5
   342
  8
0
  6
CONTINUOUS
 62
   210
 10
3.23699402809143
 20
81.6158676147461
 30
0.0
 11
6.8528938293457
 21
77.9999618530274
 31
0.0
  0
LINE
  5
   343
  8
0
  6
CONTINUOUS
 62
   210
 10
6.09554004669189
 20
82.9999618530274
 30
0.0
 11
11.095531463623
 21
77.9999618530274
 31
0.0
  0
LINE
  5
   344
  8
0
  6
CONTINUOUS
 62
   210
 10
10.3381776809692
 20
82.9999618530274
 30
0.0
 11
15.3381690979004
 21
77.9999618530274
 31
0.0
  0
LINE
  5
   345
  8
0
  6
CONTINUOUS
 62
   210
 10
14.5808153152466
 20
82.9999618530274
 30
0.0
 11
19.5808067321777
 21
77.9999618530274
 31
0.0
  0
LINE
  5
   346
  8
0
  6
CONTINUOUS
 62
   210
 10
18.8234539031982
 20
82.9999618530274
 30
0.0
 11
19.7282676696777
 21
82.0951461791992
 31
0.0
  0
ENDBLK
  5
   347
  8
0
  6
CONTINUOUS
 62
     7
  0
BLOCK
  5
   348
  8
0
  6
CONTINUOUS
 62
     7
  2
*HATCH286
 70
    65
 10
0.0
 20
0.0
 30
0.0
  3
*HATCH286
  0
LINE
  5
   349
  8
0
  6
CONTINUOUS
 62
     3
 10
17.0864696502686
 20
102.999938964844
 30
0.0
 11
15.2370948791504
 21
101.150566101074
 31
0.0
  0
LINE
  5
   34A
  8
0
  6
CONTINUOUS
 62
     3
 10
18.1471290588379
 20
102.999938964844
 30
0.0
 11
14.2369937896729
 21
99.0898056030274
 31
0.0
  0
LINE
  5
   34B
  8
0
  6
CONTINUOUS
 62
     3
 10
18.2369937896729
 20
100.968482971191
 30
0.0
 11
14.2369937896729
 21
96.9684829711914
 31
0.0
  0
LINE
  5
   34C
  8
0
  6
CONTINUOUS
 62
     3
 10
18.2369937896729
 20
98.8471603393555
 30
0.0
 11
14.2369937896729
 21
94.8471603393555
 31
0.0
  0
LINE
  5
   34D
  8
0
  6
CONTINUOUS
 62
     3
 10
18.2369937896729
 20
96.7258377075195
 30
0.0
 11
14.2369937896729
 21
92.7258377075195
 31
0.0
  0
LINE
  5
   34E
  8
0
  6
CONTINUOUS
 62
     3
 10
18.2369937896729
 20
94.6045150756836
 30
0.0
 11
14.2369937896729
 21
90.6045150756836
 31
0.0
  0
LINE
  5
   34F
  8
0
  6
CONTINUOUS
 62
     3
 10
18.2369937896729
 20
92.4831924438477
 30
0.0
 11
14.2369937896729
 21
88.4831924438477
 31
0.0
  0
LINE
  5
   350
  8
0
  6
CONTINUOUS
 62
     3
 10
18.2369937896729
 20
90.3618698120117
 30
0.0
 11
14.2369937896729
 21
86.3618698120117
 31
0.0
  0
LINE
  5
   351
  8
0
  6
CONTINUOUS
 62
     3
 10
18.2369937896729
 20
88.2405471801758
 30
0.0
 11
14.2369937896729
 21
84.2405471801758
 31
0.0
  0
LINE
  5
   352
  8
0
  6
CONTINUOUS
 62
     3
 10
18.2369937896729
 20
86.1192398071289
 30
0.0
 11
15.117714881897
 21
82.9999618530274
 31
0.0
  0
LINE
  5
   353
  8
0
  6
CONTINUOUS
 62
     3
 10
18.2369937896729
 20
83.997917175293
 30
0.0
 11
17.23903465271
 21
82.9999618530274
 31
0.0
  0
ENDBLK
  5
   354
  8
0
  6
CONTINUOUS
 62
     7
  0
BLOCK
  5
   355
  8
0
  6
CONTINUOUS
 62
     7
  2
*HATCH287
 70
    65
 10
0.0
 20
0.0
 30
0.0
  3
*HATCH287
  0
LINE
  5
   356
  8
0
  6
CONTINUOUS
 62
     3
 10
12.2390375137329
 20
77.9999618530274
 30
0.0
 11
10.2369937896729
 21
75.997917175293
 31
0.0
  0
LINE
  5
   357
  8
0
  6
CONTINUOUS
 62
     3
 10
14.2369937896729
 20
77.8766021728516
 30
0.0
 11
10.2369937896729
 21
73.8766021728516
 31
0.0
  0
LINE
  5
   358
  8
0
  6
CONTINUOUS
 62
     3
 10
14.2369937896729
 20
75.7552795410156
 30
0.0
 11
10.2369937896729
 21
71.7552795410156
 31
0.0
  0
LINE
  5
   359
  8
0
  6
CONTINUOUS
 62
     3
 10
14.2369937896729
 20
73.6339569091797
 30
0.0
 11
10.2369937896729
 21
69.6339569091797
 31
0.0
  0
LINE
  5
   35A
  8
0
  6
CONTINUOUS
 62
     3
 10
14.2369937896729
 20
71.5126342773438
 30
0.0
 11
10.2369937896729
 21
67.5126342773438
 31
0.0
  0
LINE
  5
   35B
  8
0
  6
CONTINUOUS
 62
     3
 10
14.2369937896729
 20
69.3913116455078
 30
0.0
 11
10.2369937896729
 21
65.3913116455078
 31
0.0
  0
LINE
  5
   35C
  8
0
  6
CONTINUOUS
 62
     3
 10
14.2369937896729
 20
67.2699890136719
 30
0.0
 11
10.2369937896729
 21
63.2699890136719
 31
0.0
  0
LINE
  5
   35D
  8
0
  6
CONTINUOUS
 62
     3
 10
14.2369937896729
 20
65.148681640625
 30
0.0
 11
10.8553380966187
 21
61.7670249938965
 31
0.0
  0
LINE
  5
   35E
  8
0
  6
CONTINUOUS
 62
     3
 10
14.2369937896729
 20
63.0273590087891
 30
0.0
 11
13.7800302505493
 21
62.5703964233398
 31
0.0
  0
ENDBLK
  5
   35F
  8
0
  6
CONTINUOUS
 62
     7
  0
BLOCK
  5
   360
  8
0
  6
CONTINUOUS
 62
     7
  2
*HATCH288
 70
    65
 10
0.0
 20
0.0
 30
0.0
  3
*HATCH288
  0
LINE
  5
   361
  8
0
  6
CONTINUOUS
 62
     3
 10
185.858123779297
 20
-4.00005149841309
 30
0.0
 11
184.480621337891
 21
-5.37755584716797
 31
0.0
  0
LINE
  5
   362
  8
0
  6
CONTINUOUS
 62
     3
 10
187.979446411133
 20
-4.00005149841309
 30
0.0
 11
185.979446411133
 21
-6.00005149841309
 31
0.0
  0
LINE
  5
   363
  8
0
  6
CONTINUOUS
 62
     3
 10
190.10075378418
 20
-4.00005149841309
 30
0.0
 11
188.10075378418
 21
-6.00005149841309
 31
0.0
  0
LINE
  5
   364
  8
0
  6
CONTINUOUS
 62
     3
 10
192.222061157227
 20
-4.00005149841309
 30
0.0
 11
190.222061157227
 21
-6.00005149841309
 31
0.0
  0
LINE
  5
   365
  8
0
  6
CONTINUOUS
 62
     3
 10
194.343368530273
 20
-4.00005149841309
 30
0.0
 11
192.343368530273
 21
-6.00005149841309
 31
0.0
  0
LINE
  5
   366
  8
0
  6
CONTINUOUS
 62
     3
 10
196.46467590332
 20
-4.00005149841309
 30
0.0
 11
194.46467590332
 21
-6.00005149841309
 31
0.0
  0
LINE
  5
   367
  8
0
  6
CONTINUOUS
 62
     3
 10
198.585983276367
 20
-4.00005149841309
 30
0.0
 11
196.585983276367
 21
-6.00005149841309
 31
0.0
  0
LINE
  5
   368
  8
0
  6
CONTINUOUS
 62
     3
 10
200.707290649414
 20
-4.00005149841309
 30
0.0
 11
198.707290649414
 21
-6.00005149841309
 31
0.0
  0
LINE
  5
   369
  8
0
  6
CONTINUOUS
 62
     3
 10
202.828598022461
 20
-4.00005149841309
 30
0.0
 11
200.828598022461
 21
-6.00005149841309
 31
0.0
  0
LINE
  5
   36A
  8
0
  6
CONTINUOUS
 62
     3
 10
204.949905395508
 20
-4.00005149841309
 30
0.0
 11
202.949905395508
 21
-6.00005149841309
 31
0.0
  0
LINE
  5
   36B
  8
0
  6
CONTINUOUS
 62
     3
 10
207.071212768555
 20
-4.00005149841309
 30
0.0
 11
205.071212768555
 21
-6.00005149841309
 31
0.0
  0
LINE
  5
   36C
  8
0
  6
CONTINUOUS
 62
     3
 10
209.192520141602
 20
-4.00005149841309
 30
0.0
 11
207.192520141602
 21
-6.00005149841309
 31
0.0
  0
LINE
  5
   36D
  8
0
  6
CONTINUOUS
 62
     3
 10
211.313827514648
 20
-4.00005149841309
 30
0.0
 11
209.313827514648
 21
-6.00005149841309
 31
0.0
  0
LINE
  5
   36E
  8
0
  6
CONTINUOUS
 62
     3
 10
213.435134887695
 20
-4.00005149841309
 30
0.0
 11
211.435134887695
 21
-6.00005149841309
 31
0.0
  0
LINE
  5
   36F
  8
0
  6
CONTINUOUS
 62
     3
 10
215.556442260742
 20
-4.00005149841309
 30
0.0
 11
213.556442260742
 21
-6.00005149841309
 31
0.0
  0
LINE
  5
   370
  8
0
  6
CONTINUOUS
 62
     3
 10
217.677749633789
 20
-4.00005149841309
 30
0.0
 11
215.677749633789
 21
-6.00005149841309
 31
0.0
  0
LINE
  5
   371
  8
0
  6
CONTINUOUS
 62
     3
 10
219.799057006836
 20
-4.00005149841309
 30
0.0
 11
217.799057006836
 21
-6.00005149841309
 31
0.0
  0
LINE
  5
   372
  8
0
  6
CONTINUOUS
 62
     3
 10
221.920364379883
 20
-4.00005149841309
 30
0.0
 11
219.920364379883
 21
-6.00005149841309
 31
0.0
  0
LINE
  5
   373
  8
0
  6
CONTINUOUS
 62
     3
 10
224.04167175293
 20
-4.00005149841309
 30
0.0
 11
222.04167175293
 21
-6.00005149841309
 31
0.0
  0
LINE
  5
   374
  8
0
  6
CONTINUOUS
 62
     3
 10
226.162979125977
 20
-4.00005149841309
 30
0.0
 11
224.162979125977
 21
-6.00005149841309
 31
0.0
  0
LINE
  5
   375
  8
0
  6
CONTINUOUS
 62
     3
 10
228.284286499023
 20
-4.00005149841309
 30
0.0
 11
226.284286499023
 21
-6.00005149841309
 31
0.0
  0
LINE
  5
   376
  8
0
  6
CONTINUOUS
 62
     3
 10
230.40559387207
 20
-4.00005149841309
 30
0.0
 11
228.40559387207
 21
-6.00005149841309
 31
0.0
  0
LINE
  5
   377
  8
0
  6
CONTINUOUS
 62
     3
 10
232.526901245117
 20
-4.00005149841309
 30
0.0
 11
230.526901245117
 21
-6.00005149841309
 31
0.0
  0
LINE
  5
   378
  8
0
  6
CONTINUOUS
 62
     3
 10
234.648208618164
 20
-4.00005149841309
 30
0.0
 11
232.648208618164
 21
-6.00005149841309
 31
0.0
  0
LINE
  5
   379
  8
0
  6
CONTINUOUS
 62
     3
 10
236.769515991211
 20
-4.00005149841309
 30
0.0
 11
234.769515991211
 21
-6.00005149841309
 31
0.0
  0
LINE
  5
   37A
  8
0
  6
CONTINUOUS
 62
     3
 10
238.890823364258
 20
-4.00005149841309
 30
0.0
 11
236.890823364258
 21
-6.00005149841309
 31
0.0
  0
LINE
  5
   37B
  8
0
  6
CONTINUOUS
 62
     3
 10
241.012130737305
 20
-4.00005149841309
 30
0.0
 11
239.012130737305
 21
-6.00005149841309
 31
0.0
  0
LINE
  5
   37C
  8
0
  6
CONTINUOUS
 62
     3
 10
243.133438110352
 20
-4.00005149841309
 30
0.0
 11
241.133438110352
 21
-6.00005149841309
 31
0.0
  0
LINE
  5
   37D
  8
0
  6
CONTINUOUS
 62
     3
 10
245.254745483398
 20
-4.00005149841309
 30
0.0
 11
243.254745483398
 21
-6.00005149841309
 31
0.0
  0
LINE
  5
   37E
  8
0
  6
CONTINUOUS
 62
     3
 10
247.376052856445
 20
-4.00005149841309
 30
0.0
 11
245.376052856445
 21
-6.00005149841309
 31
0.0
  0
LINE
  5
   37F
  8
0
  6
CONTINUOUS
 62
     3
 10
248.910140991211
 20
-4.58765363693237
 30
0.0
 11
247.497741699219
 21
-6.00005149841309
 31
0.0
  0
LINE
  5
   380
  8
0
  6
CONTINUOUS
 62
     3
 10
249.653274536133
 20
-5.96583604812622
 30
0.0
 11
249.619049072266
 21
-6.00005149841309
 31
0.0
  0
ENDBLK
  5
   381
  8
0
  6
CONTINUOUS
 62
     7
  0
BLOCK
  5
   382
  8
0
  6
CONTINUOUS
 62
     7
  2
*HATCH289
 70
    65
 10
0.0
 20
0.0
 30
0.0
  3
*HATCH289
  0
LINE
  5
   383
  8
0
  6
CONTINUOUS
 62
     3
 10
167.826889038086
 20
-4.00005149841309
 30
0.0
 11
165.980621337891
 21
-5.84633255004883
 31
0.0
  0
LINE
  5
   384
  8
0
  6
CONTINUOUS
 62
     3
 10
169.948211669922
 20
-4.00005149841309
 30
0.0
 11
167.948211669922
 21
-6.00005149841309
 31
0.0
  0
LINE
  5
   385
  8
0
  6
CONTINUOUS
 62
     3
 10
172.069519042969
 20
-4.00005149841309
 30
0.0
 11
170.069519042969
 21
-6.00005149841309
 31
0.0
  0
LINE
  5
   386
  8
0
  6
CONTINUOUS
 62
     3
 10
174.190826416016
 20
-4.00005149841309
 30
0.0
 11
172.190826416016
 21
-6.00005149841309
 31
0.0
  0
LINE
  5
   387
  8
0
  6
CONTINUOUS
 62
     3
 10
176.312133789062
 20
-4.00005149841309
 30
0.0
 11
174.312133789063
 21
-6.00005149841309
 31
0.0
  0
LINE
  5
   388
  8
0
  6
CONTINUOUS
 62
     3
 10
177.480621337891
 20
-4.95293474197388
 30
0.0
 11
176.433502197266
 21
-6.00005149841309
 31
0.0
  0
ENDBLK
  5
   389
  8
0
  6
CONTINUOUS
 62
     7
  0
BLOCK
  5
   38A
  8
0
  6
CONTINUOUS
 62
     7
  2
*HATCH290
 70
    65
 10
0.0
 20
0.0
 30
0.0
  3
*HATCH290
  0
LINE
  5
   38B
  8
0
  6
CONTINUOUS
 62
     3
 10
43.7296600341797
 20
-4.00005149841309
 30
0.0
 11
42.4806251525879
 21
-5.24908351898193
 31
0.0
  0
LINE
  5
   38C
  8
0
  6
CONTINUOUS
 62
     3
 10
45.8509788513184
 20
-4.00005149841309
 30
0.0
 11
43.8509788513184
 21
-6.00005149841309
 31
0.0
  0
LINE
  5
   38D
  8
0
  6
CONTINUOUS
 62
     3
 10
47.9723014831543
 20
-4.00005149841309
 30
0.0
 11
45.9723014831543
 21
-6.00005149841309
 31
0.0
  0
LINE
  5
   38E
  8
0
  6
CONTINUOUS
 62
     3
 10
50.0936241149902
 20
-4.00005149841309
 30
0.0
 11
48.0936241149902
 21
-6.00005149841309
 31
0.0
  0
LINE
  5
   38F
  8
0
  6
CONTINUOUS
 62
     3
 10
52.2149467468262
 20
-4.00005149841309
 30
0.0
 11
50.2149467468262
 21
-6.00005149841309
 31
0.0
  0
LINE
  5
   390
  8
0
  6
CONTINUOUS
 62
     3
 10
53.9806251525879
 20
-4.35568618774414
 30
0.0
 11
52.3362579345703
 21
-6.00005149841309
 31
0.0
  0
ENDBLK
  5
   391
  8
0
  6
CONTINUOUS
 62
     7
  0
BLOCK
  5
   392
  8
0
  6
CONTINUOUS
 62
     7
  2
*HATCH291
 70
    65
 10
0.0
 20
0.0
 30
0.0
  3
*HATCH291
  0
LINE
  5
   393
  8
0
  6
CONTINUOUS
 62
     3
 10
-24.1525974273682
 20
-4.00005149841309
 30
0.0
 11
-25.3908443450928
 21
-5.23830080032349
 31
0.0
  0
LINE
  5
   394
  8
0
  6
CONTINUOUS
 62
     3
 10
-22.0312747955322
 20
-4.00005149841309
 30
0.0
 11
-24.0312747955322
 21
-6.00005149841309
 31
0.0
  0
LINE
  5
   395
  8
0
  6
CONTINUOUS
 62
     3
 10
-19.9099559783936
 20
-4.00005149841309
 30
0.0
 11
-21.9099559783936
 21
-6.00005149841309
 31
0.0
  0
LINE
  5
   396
  8
0
  6
CONTINUOUS
 62
     3
 10
-17.7886371612549
 20
-4.00005149841309
 30
0.0
 11
-19.7886371612549
 21
-6.00005149841309
 31
0.0
  0
LINE
  5
   397
  8
0
  6
CONTINUOUS
 62
     3
 10
-15.6673173904419
 20
-4.00005149841309
 30
0.0
 11
-17.6673183441162
 21
-6.00005149841309
 31
0.0
  0
LINE
  5
   398
  8
0
  6
CONTINUOUS
 62
     3
 10
-13.5459966659546
 20
-4.00005149841309
 30
0.0
 11
-15.5459985733032
 21
-6.00005149841309
 31
0.0
  0
LINE
  5
   399
  8
0
  6
CONTINUOUS
 62
     3
 10
-11.4246759414673
 20
-4.00005149841309
 30
0.0
 11
-13.4246778488159
 21
-6.00005149841309
 31
0.0
  0
LINE
  5
   39A
  8
0
  6
CONTINUOUS
 62
     3
 10
-9.30335521697998
 20
-4.00005149841309
 30
0.0
 11
-11.3033571243286
 21
-6.00005149841309
 31
0.0
  0
LINE
  5
   39B
  8
0
  6
CONTINUOUS
 62
     3
 10
-7.18203449249268
 20
-4.00005149841309
 30
0.0
 11
-9.18203639984131
 21
-6.00005149841309
 31
0.0
  0
LINE
  5
   39C
  8
0
  6
CONTINUOUS
 62
     3
 10
-5.06071376800537
 20
-4.00005149841309
 30
0.0
 11
-7.060715675354
 21
-6.00005149841309
 31
0.0
  0
LINE
  5
   39D
  8
0
  6
CONTINUOUS
 62
     3
 10
-2.93939328193665
 20
-4.00005149841309
 30
0.0
 11
-4.9393949508667
 21
-6.00005149841309
 31
0.0
  0
LINE
  5
   39E
  8
0
  6
CONTINUOUS
 62
     3
 10
-0.818073034286499
 20
-4.00005149841309
 30
0.0
 11
-2.81807422637939
 21
-6.00005149841309
 31
0.0
  0
LINE
  5
   39F
  8
0
  6
CONTINUOUS
 62
     3
 10
1.30324721336365
 20
-4.00005149841309
 30
0.0
 11
-0.696753740310669
 21
-6.00005149841309
 31
0.0
  0
LINE
  5
   3A0
  8
0
  6
CONTINUOUS
 62
     3
 10
3.42456746101379
 20
-4.00005149841309
 30
0.0
 11
1.42456674575806
 21
-6.00005149841309
 31
0.0
  0
LINE
  5
   3A1
  8
0
  6
CONTINUOUS
 62
     3
 10
5.54588794708252
 20
-4.00005149841309
 30
0.0
 11
3.54588747024536
 21
-6.00005149841309
 31
0.0
  0
LINE
  5
   3A2
  8
0
  6
CONTINUOUS
 62
     3
 10
7.66720867156982
 20
-4.00005149841309
 30
0.0
 11
5.66720819473267
 21
-6.00005149841309
 31
0.0
  0
LINE
  5
   3A3
  8
0
  6
CONTINUOUS
 62
     3
 10
9.78852939605713
 20
-4.00005149841309
 30
0.0
 11
7.78852891921997
 21
-6.00005149841309
 31
0.0
  0
LINE
  5
   3A4
  8
0
  6
CONTINUOUS
 62
     3
 10
11.9098501205444
 20
-4.00005149841309
 30
0.0
 11
9.90984916687012
 21
-6.00005149841309
 31
0.0
  0
LINE
  5
   3A5
  8
0
  6
CONTINUOUS
 62
     3
 10
14.0311708450317
 20
-4.00005149841309
 30
0.0
 11
12.0311698913574
 21
-6.00005149841309
 31
0.0
  0
LINE
  5
   3A6
  8
0
  6
CONTINUOUS
 62
     3
 10
16.1524906158447
 20
-4.00005149841309
 30
0.0
 11
14.1524906158447
 21
-6.00005149841309
 31
0.0
  0
LINE
  5
   3A7
  8
0
  6
CONTINUOUS
 62
     3
 10
18.2738094329834
 20
-4.00005149841309
 30
0.0
 11
16.273811340332
 21
-6.00005149841309
 31
0.0
  0
LINE
  5
   3A8
  8
0
  6
CONTINUOUS
 62
     3
 10
20.3951282501221
 20
-4.00005149841309
 30
0.0
 11
18.3951301574707
 21
-6.00005149841309
 31
0.0
  0
LINE
  5
   3A9
  8
0
  6
CONTINUOUS
 62
     3
 10
22.5164470672607
 20
-4.00005149841309
 30
0.0
 11
20.5164489746094
 21
-6.00005149841309
 31
0.0
  0
LINE
  5
   3AA
  8
0
  6
CONTINUOUS
 62
     3
 10
24.6377658843994
 20
-4.00005149841309
 30
0.0
 11
22.637767791748
 21
-6.00005149841309
 31
0.0
  0
LINE
  5
   3AB
  8
0
  6
CONTINUOUS
 62
     3
 10
26.7590847015381
 20
-4.00005149841309
 30
0.0
 11
24.7590866088867
 21
-6.00005149841309
 31
0.0
  0
LINE
  5
   3AC
  8
0
  6
CONTINUOUS
 62
     3
 10
28.8804035186768
 20
-4.00005149841309
 30
0.0
 11
26.8804054260254
 21
-6.00005149841309
 31
0.0
  0
LINE
  5
   3AD
  8
0
  6
CONTINUOUS
 62
     3
 10
31.0017223358154
 20
-4.00005149841309
 30
0.0
 11
29.0017242431641
 21
-6.00005149841309
 31
0.0
  0
LINE
  5
   3AE
  8
0
  6
CONTINUOUS
 62
     3
 10
33.1230430603027
 20
-4.00005149841309
 30
0.0
 11
31.1230430603027
 21
-6.00005149841309
 31
0.0
  0
LINE
  5
   3AF
  8
0
  6
CONTINUOUS
 62
     3
 10
35.2443656921387
 20
-4.00005149841309
 30
0.0
 11
33.2443656921387
 21
-6.00005149841309
 31
0.0
  0
LINE
  5
   3B0
  8
0
  6
CONTINUOUS
 62
     3
 10
35.4806251525879
 20
-5.88512229919434
 30
0.0
 11
35.3656959533691
 21
-6.00005149841309
 31
0.0
  0
ENDBLK
  5
   3B1
  8
0
  6
CONTINUOUS
 62
     7
  0
BLOCK
  5
   3B2
  8
0
  6
CONTINUOUS
 62
     2
  2
*HATCH292
 70
    65
 10
0.0
 20
0.0
 30
0.0
  3
*HATCH292
  0
LINE
  5
   3B3
  8
0
  6
CONTINUOUS
 62
   210
 10
225.128433227539
 20
82.9999618530274
 30
0.0
 11
221.237091064453
 21
79.1086196899414
 31
0.0
  0
LINE
  5
   3B4
  8
0
  6
CONTINUOUS
 62
   210
 10
227.237045288086
 20
80.8659286499024
 30
0.0
 11
225.371078491211
 21
78.9999618530273
 31
0.0
  0
ENDBLK
  5
   3B5
  8
0
  6
CONTINUOUS
 62
     2
  0
BLOCK
  5
   3B6
  8
0
  6
CONTINUOUS
 62
     7
  2
$1PROLUNGATI
 70
    64
 10
0.0
 20
0.0
 30
0.0
  3
$1PROLUNGATI
  0
LINE
  5
   3B7
  8
0
  6
CONTINUOUS
 62
     3
 10
-0.999999995575894
 20
20.5000305395807
 30
0.0
 11
4.42410552636829E-9
 21
20.5000457983697
 31
0.0
  0
LINE
  5
   3B8
  8
0
  6
CONTINUOUS
 62
     3
 10
1.10387083651631E-6
 20
20.500041095613
 30
0.0
 11
1.0000010696423
 21
19.5000411298415
 31
0.0
  0
LINE
  5
   3B9
  8
0
  6
CONTINUOUS
 62
     3
 10
1.0
 20
18.0000457763672
 30
0.0
 11
1.0
 21
19.5000457763672
 31
0.0
  0
LINE
  5
   3BA
  8
0
  6
CONTINUOUS
 62
     3
 10
-0.999999998894022
 20
18.000030523006
 30
0.0
 11
1.00000000110598
 21
18.0000457817951
 31
0.0
  0
LINE
  5
   3BB
  8
0
  6
CONTINUOUS
 62
     3
 10
-1.00000000000001
 20
18.0
 30
0.0
 11
0.99999999999999
 21
18.0
 31
0.0
  0
LINE
  5
   3BC
  8
0
  6
CONTINUOUS
 62
     3
 10
-0.5
 20
-8.5
 30
0.0
 11
-0.5
 21
8.5
 31
0.0
  0
LINE
  5
   3BD
  8
0
  6
CONTINUOUS
 62
     3
 10
-4.25000286102296
 20
11.5
 30
0.0
 11
-1.00000000000001
 21
11.5
 31
0.0
  0
LINE
  5
   3BE
  8
0
  6
CONTINUOUS
 62
     3
 10
-1.0
 20
11.5
 30
0.0
 11
-1.0
 21
18.0
 31
0.0
  0
LINE
  5
   3BF
  8
0
  6
CONTINUOUS
 62
     3
 10
-16.5
 20
-10.0
 30
0.0
 11
-15.0
 21
-10.0
 31
0.0
  0
LINE
  5
   3C0
  8
0
  6
CONTINUOUS
 62
     3
 10
-16.5
 20
-10.0000152587891
 30
0.0
 11
-15.0
 21
-10.0000152587891
 31
0.0
  0
LINE
  5
   3C1
  8
0
  6
CONTINUOUS
 62
     3
 10
-16.5
 20
20.5000152587891
 30
0.0
 11
-1.00000000000001
 21
20.5000152587891
 31
0.0
  0
LINE
  5
   3C2
  8
0
  6
CONTINUOUS
 62
     3
 10
-16.5
 20
-10.0
 30
0.0
 11
-16.5
 21
20.5000152587891
 31
0.0
  0
LINE
  5
   3C3
  8
0
  6
CONTINUOUS
 62
     3
 10
-1.0
 20
18.0000152587891
 30
0.0
 11
-1.0
 21
20.5000152587891
 31
0.0
  0
LINE
  5
   3C4
  8
0
  6
CONTINUOUS
 62
     3
 10
-2.00000000000001
 20
14.8000183105469
 30
0.0
 11
-1.00000000000001
 21
14.8000183105469
 31
0.0
  0
LINE
  5
   3C5
  8
0
  6
CONTINUOUS
 62
     3
 10
-2.39999850008332
 20
15.2000076486687
 30
0.0
 11
-1.99999886783133
 21
14.8000137483419
 31
0.0
  0
LINE
  5
   3C6
  8
0
  6
CONTINUOUS
 62
     3
 10
-14.9999995594845
 20
-10.0000004523688
 30
0.0
 11
-0.999999868097963
 21
18.0000157236966
 31
0.0
  0
LINE
  5
   3C7
  8
0
  6
CONTINUOUS
 62
   210
 10
0.0
 20
-6.5
 30
0.0
 11
0.0
 21
6.5
 31
0.0
  0
LINE
  5
   3C8
  8
0
  6
CONTINUOUS
 62
     3
 10
-14.2500057220459
 20
-8.5
 30
0.0
 11
-0.500000000000011
 21
-8.5
 31
0.0
  0
LINE
  5
   3C9
  8
0
  6
CONTINUOUS
 62
     3
 10
-5.75000476837159
 20
8.5
 30
0.0
 11
-0.50000000000001
 21
8.5
 31
0.0
  0
LINE
  5
   3CA
  8
0
  6
CONTINUOUS
 62
     3
 10
-16.5
 20
19.5000152587891
 30
0.0
 11
-1.00000000000001
 21
19.5000152587891
 31
0.0
  0
LINE
  5
   3CB
  8
0
  6
CONTINUOUS
 62
     3
 10
-16.5
 20
-8.99998474121094
 30
0.0
 11
-14.5
 21
-8.99998474121094
 31
0.0
  0
LINE
  5
   3CC
  8
0
  6
CONTINUOUS
 62
   210
 10
-0.500000000000011
 20
6.5
 30
0.0
 11
-1.05356783140903E-14
 21
6.5
 31
0.0
  0
LINE
  5
   3CD
  8
0
  6
CONTINUOUS
 62
   210
 10
-0.500000000000011
 20
-6.5
 30
0.0
 11
-1.13316987335361E-14
 21
-6.5
 31
0.0
  0
POINT
  5
   3CE
  8
0
  6
CONTINUOUS
 62
     7
 10
-1.0
 20
20.5000305395806
 30
0.0
  0
POINT
  5
   3CF
  8
0
  6
CONTINUOUS
 62
     7
 10
-1.0
 20
20.5000305395806
 30
0.0
  0
POINT
  5
   3D0
  8
0
  6
CONTINUOUS
 62
     7
 10
0.0
 20
0.0
 30
0.0
  0
ENDBLK
  5
   3D1
  8
0
  6
CONTINUOUS
 62
     7
  0
BLOCK
  5
   3D2
  8
0
  6
CONTINUOUS
 62
     7
  2
*UDIM452
 70
    65
 10
0.0
 20
0.0
 30
0.0
  3
*UDIM452
  0
TEXT
  5
   3D3
  8
0
  6
CONTINUOUS
 62
     7
 10
-394.797705028764
 20
-88.8765749535556
 30
0.0
 40
3.00000002980232
  1
5
 50
359.999999948034
 41
0.933333333333334
 72
     1
 11
-393.697705016484
 21
-87.3765749396466
 31
0.0
 73
     2
  0
TEXT
  5
   3D4
  8
0
  6
CONTINUOUS
 62
     7
 10
-405.947705145987
 20
-88.8765749497675
 30
0.0
 40
3.00000002980232
  1
min.
 50
359.999999948034
 41
0.933333333333333
 72
     1
 11
-400.647705091983
 21
-87.3765749396466
 31
0.0
 73
     2
  0
LINE
  5
   3D5
  8
0
  6
CONTINUOUS
 62
     7
 10
-407.531110034337
 20
-77.5280658504194
 30
0.0
 11
-407.531110034337
 21
-91.8765749545478
 31
0.0
  0
LINE
  5
   3D6
  8
0
  6
CONTINUOUS
 62
     7
 10
-410.031109080662
 20
-78.0280914306641
 30
0.0
 11
-410.031109080662
 21
-91.8765749545478
 31
0.0
  0
LINE
  5
   3D7
  8
0
  6
CONTINUOUS
 62
     7
 10
-392.597705005556
 20
-89.8765749545478
 30
0.0
 11
-410.031109080662
 21
-89.8765749545478
 31
0.0
  0
LINE
  5
   3D8
  8
0
  6
CONTINUOUS
 62
     7
 10
-404.57668675713
 20
-89.3556305245961
 30
0.0
 11
-407.531110034337
 21
-89.8765749545478
 31
0.0
  0
LINE
  5
   3D9
  8
0
  6
CONTINUOUS
 62
     7
 10
-407.531110034337
 20
-89.8765749545478
 30
0.0
 11
-404.57668675713
 21
-90.3975193844994
 31
0.0
  0
ENDBLK
  5
   3DA
  8
0
  6
CONTINUOUS
 62
     7
  0
BLOCK
  5
   3DB
  8
0
  6
CONTINUOUS
 62
     7
  2
*UDIM453
 70
    65
 10
0.0
 20
0.0
 30
0.0
  3
*UDIM453
  0
TEXT
  5
   3DC
  8
0
  6
CONTINUOUS
 62
     7
 10
-418.281108711473
 20
-88.8765749535556
 30
0.0
 40
3.00000002980232
  1
5
 50
359.999999948034
 41
0.933333333333334
 72
     1
 11
-417.181108699193
 21
-87.3765749396466
 31
0.0
 73
     2
  0
LINE
  5
   3DD
  8
0
  6
CONTINUOUS
 62
     7
 10
-412.531109080662
 20
-78.0280914306641
 30
0.0
 11
-412.531109080662
 21
-91.8765749545478
 31
0.0
  0
LINE
  5
   3DE
  8
0
  6
CONTINUOUS
 62
     7
 10
-410.031109080662
 20
-89.8765749545478
 30
0.0
 11
-418.28110871012
 21
-89.8765749545478
 31
0.0
  0
LINE
  5
   3DF
  8
0
  6
CONTINUOUS
 62
     7
 10
-415.485532357869
 20
-90.3975193844994
 30
0.0
 11
-412.531109080662
 21
-89.8765749545478
 31
0.0
  0
LINE
  5
   3E0
  8
0
  6
CONTINUOUS
 62
     7
 10
-412.531109080662
 20
-89.8765749545478
 30
0.0
 11
-415.485532357869
 21
-89.3556305245961
 31
0.0
  0
ENDBLK
  5
   3E1
  8
0
  6
CONTINUOUS
 62
     7
  0
BLOCK
  5
   3E2
  8
0
  6
CONTINUOUS
 62
     7
  2
*UDIM454
 70
    65
 10
0.0
 20
0.0
 30
0.0
  3
*UDIM454
  0
TEXT
  5
   3E3
  8
0
  6
CONTINUOUS
 62
     7
 10
-407.492345455446
 20
-100.333940966409
 30
0.0
 40
3.00000002980232
  1
101,5
 50
359.999999948034
 41
0.933333333333333
 72
     1
 11
-400.792345387535
 21
-98.8339409575514
 31
0.0
 73
     2
  0
LINE
  5
   3E4
  8
0
  6
CONTINUOUS
 62
     7
 10
-371.781105388402
 20
8.59692565916208
 30
0.0
 11
-371.781144216964
 21
-103.333940972452
 31
0.0
  0
LINE
  5
   3E5
  8
0
  6
CONTINUOUS
 62
     7
 10
-422.531098067491
 20
-91.6194172813964
 30
0.0
 11
-422.531105744976
 21
-103.333940972452
 31
0.0
  0
LINE
  5
   3E6
  8
0
  6
CONTINUOUS
 62
     7
 10
-371.781143523169
 20
-101.333940972453
 30
0.0
 11
-422.531104434213
 21
-101.333940972453
 31
0.0
  0
LINE
  5
   3E7
  8
0
  6
CONTINUOUS
 62
     7
 10
-374.735566800376
 20
-101.854885402404
 30
0.0
 11
-371.781143523169
 21
-101.333940972453
 31
0.0
  0
LINE
  5
   3E8
  8
0
  6
CONTINUOUS
 62
     7
 10
-371.781143523169
 20
-101.333940972453
 30
0.0
 11
-374.735566800376
 21
-100.812996542501
 31
0.0
  0
LINE
  5
   3E9
  8
0
  6
CONTINUOUS
 62
     7
 10
-419.576681157006
 20
-100.812996542501
 30
0.0
 11
-422.531104434213
 21
-101.333940972453
 31
0.0
  0
LINE
  5
   3EA
  8
0
  6
CONTINUOUS
 62
     7
 10
-422.531104434213
 20
-101.333940972453
 30
0.0
 11
-419.576681157006
 21
-101.854885402404
 31
0.0
  0
ENDBLK
  5
   3EB
  8
0
  6
CONTINUOUS
 62
     7
  0
BLOCK
  5
   3EC
  8
0
  6
CONTINUOUS
 62
     7
  2
*UDIM455
 70
    65
 10
0.0
 20
0.0
 30
0.0
  3
*UDIM455
  0
TEXT
  5
   3ED
  8
0
  6
CONTINUOUS
 62
     7
 10
-403.631101287607
 20
-106.168509777234
 30
0.0
 40
3.00000002980232
  1
103,5
 50
359.999999948034
 41
0.933333333333333
 72
     1
 11
-396.931101219696
 21
-104.668509768375
 31
0.0
 73
     2
  0
LINE
  5
   3EE
  8
0
  6
CONTINUOUS
 62
     7
 10
-370.781105427736
 20
-43.9030590820488
 30
0.0
 11
-370.781130635324
 21
-109.168509783276
 31
0.0
  0
LINE
  5
   3EF
  8
0
  6
CONTINUOUS
 62
     7
 10
-422.531098006849
 20
-91.6194172813965
 30
0.0
 11
-422.531108443994
 21
-109.168509783276
 31
0.0
  0
LINE
  5
   3F0
  8
0
  6
CONTINUOUS
 62
     7
 10
-370.78112986286
 20
-107.168509783277
 30
0.0
 11
-422.531107254514
 21
-107.168509783277
 31
0.0
  0
LINE
  5
   3F1
  8
0
  6
CONTINUOUS
 62
     7
 10
-373.735553140067
 20
-107.689454213228
 30
0.0
 11
-370.78112986286
 21
-107.168509783277
 31
0.0
  0
LINE
  5
   3F2
  8
0
  6
CONTINUOUS
 62
     7
 10
-370.78112986286
 20
-107.168509783277
 30
0.0
 11
-373.735553140067
 21
-106.647565353325
 31
0.0
  0
LINE
  5
   3F3
  8
0
  6
CONTINUOUS
 62
     7
 10
-419.576683977307
 20
-106.647565353325
 30
0.0
 11
-422.531107254514
 21
-107.168509783277
 31
0.0
  0
LINE
  5
   3F4
  8
0
  6
CONTINUOUS
 62
     7
 10
-422.531107254514
 20
-107.168509783277
 30
0.0
 11
-419.576683977307
 21
-107.689454213228
 31
0.0
  0
ENDBLK
  5
   3F5
  8
0
  6
CONTINUOUS
 62
     7
  0
BLOCK
  5
   3F6
  8
0
  6
CONTINUOUS
 62
     7
  2
*UDIM456
 70
    65
 10
0.0
 20
0.0
 30
0.0
  3
*UDIM456
  0
TEXT
  5
   3F7
  8
0
  6
CONTINUOUS
 62
     7
 10
-429.781097348582
 20
-106.168509782284
 30
0.0
 40
3.00000002980232
  1
3
 50
359.999999948034
 41
0.933333333333334
 72
     1
 11
-428.681097336301
 21
-104.668509768375
 31
0.0
 73
     2
  0
TEXT
  5
   3F8
  8
0
  6
CONTINUOUS
 62
     7
 10
-432.531097382358
 20
-106.168509782284
 30
0.0
 40
3.00000002980232
  1
_
 50
359.999999948034
 41
0.933333333333334
 72
     1
 11
-431.431097370077
 21
-104.668509768375
 31
0.0
 73
     2
  0
LINE
  5
   3F9
  8
0
  6
CONTINUOUS
 62
     7
 10
-424.031098006849
 20
-91.6194172813965
 30
0.0
 11
-424.031108443994
 21
-109.168509783276
 31
0.0
  0
LINE
  5
   3FA
  8
0
  6
CONTINUOUS
 62
     7
 10
-422.531107254514
 20
-107.168509783277
 30
0.0
 11
-432.531097381005
 21
-107.168509783277
 31
0.0
  0
LINE
  5
   3FB
  8
0
  6
CONTINUOUS
 62
     7
 10
-419.576683977307
 20
-106.647565353325
 30
0.0
 11
-422.531107254514
 21
-107.168509783277
 31
0.0
  0
LINE
  5
   3FC
  8
0
  6
CONTINUOUS
 62
     7
 10
-422.531107254514
 20
-107.168509783277
 30
0.0
 11
-419.576683977307
 21
-107.689454213228
 31
0.0
  0
LINE
  5
   3FD
  8
0
  6
CONTINUOUS
 62
     7
 10
-426.985530531721
 20
-107.689454213228
 30
0.0
 11
-424.031107254514
 21
-107.168509783277
 31
0.0
  0
LINE
  5
   3FE
  8
0
  6
CONTINUOUS
 62
     7
 10
-424.031107254514
 20
-107.168509783277
 30
0.0
 11
-426.985530531721
 21
-106.647565353325
 31
0.0
  0
ENDBLK
  5
   3FF
  8
0
  6
CONTINUOUS
 62
     7
  0
BLOCK
  5
   400
  8
0
  6
CONTINUOUS
 62
     7
  2
*UDIM457
 70
    65
 10
0.0
 20
0.0
 30
0.0
  3
*UDIM457
  0
TEXT
  5
   401
  8
0
  6
CONTINUOUS
 62
     7
 10
-365.031102288129
 20
-112.403777623668
 30
0.0
 40
3.00000002980232
  1
2
 50
359.999999948034
 41
0.933333333333334
 72
     1
 11
-363.931102275848
 21
-110.903777609759
 31
0.0
 73
     2
  0
LINE
  5
   402
  8
0
  6
CONTINUOUS
 62
     7
 10
-368.031102180481
 20
-85.1082579521712
 30
0.0
 11
-368.031102180481
 21
-115.40377762466
 31
0.0
  0
LINE
  5
   403
  8
0
  6
CONTINUOUS
 62
     7
 10
-369.031102180481
 20
-85.7220510556195
 30
0.0
 11
-369.031102180481
 21
-115.40377762466
 31
0.0
  0
LINE
  5
   404
  8
0
  6
CONTINUOUS
 62
     7
 10
-362.831102264921
 20
-113.40377762466
 30
0.0
 11
-369.031102180481
 21
-113.40377762466
 31
0.0
  0
LINE
  5
   405
  8
0
  6
CONTINUOUS
 62
     7
 10
-365.076678903274
 20
-112.882833194708
 30
0.0
 11
-368.031102180481
 21
-113.40377762466
 31
0.0
  0
LINE
  5
   406
  8
0
  6
CONTINUOUS
 62
     7
 10
-368.031102180481
 20
-113.40377762466
 30
0.0
 11
-365.076678903274
 21
-113.924722054611
 31
0.0
  0
LINE
  5
   407
  8
0
  6
CONTINUOUS
 62
     7
 10
-371.985525457688
 20
-113.924722054611
 30
0.0
 11
-369.031102180481
 21
-113.40377762466
 31
0.0
  0
LINE
  5
   408
  8
0
  6
CONTINUOUS
 62
     7
 10
-369.031102180481
 20
-113.40377762466
 30
0.0
 11
-371.985525457688
 21
-112.882833194708
 31
0.0
  0
ENDBLK
  5
   409
  8
0
  6
CONTINUOUS
 62
     7
  0
BLOCK
  5
   40A
  8
0
  6
CONTINUOUS
 62
     7
  2
*UDIM458
 70
    65
 10
0.0
 20
0.0
 30
0.0
  3
*UDIM458
  0
TEXT
  5
   40B
  8
0
  6
CONTINUOUS
 62
     7
 10
-399.956099365514
 20
-112.403777621142
 30
0.0
 40
3.00000002980232
  1
107
 50
359.999999948034
 41
0.933333333333333
 72
     1
 11
-396.056099325419
 21
-110.903777609759
 31
0.0
 73
     2
  0
LINE
  5
   40C
  8
0
  6
CONTINUOUS
 62
     7
 10
-422.531097412109
 20
-91.6194172813966
 30
0.0
 11
-422.531097412109
 21
-115.40377762466
 31
0.0
  0
LINE
  5
   40D
  8
0
  6
CONTINUOUS
 62
     7
 10
-369.031102180481
 20
-113.40377762466
 30
0.0
 11
-422.531097412109
 21
-113.40377762466
 31
0.0
  0
LINE
  5
   40E
  8
0
  6
CONTINUOUS
 62
     7
 10
-371.985525457688
 20
-113.924722054611
 30
0.0
 11
-369.031102180481
 21
-113.40377762466
 31
0.0
  0
LINE
  5
   40F
  8
0
  6
CONTINUOUS
 62
     7
 10
-369.031102180481
 20
-113.40377762466
 30
0.0
 11
-371.985525457688
 21
-112.882833194708
 31
0.0
  0
LINE
  5
   410
  8
0
  6
CONTINUOUS
 62
     7
 10
-419.576674134902
 20
-112.882833194708
 30
0.0
 11
-422.531097412109
 21
-113.40377762466
 31
0.0
  0
LINE
  5
   411
  8
0
  6
CONTINUOUS
 62
     7
 10
-422.531097412109
 20
-113.40377762466
 30
0.0
 11
-419.576674134902
 21
-113.924722054611
 31
0.0
  0
ENDBLK
  5
   412
  8
0
  6
CONTINUOUS
 62
     7
  0
BLOCK
  5
   413
  8
0
  6
CONTINUOUS
 62
     7
  2
*UDIM459
 70
    65
 10
0.0
 20
0.0
 30
0.0
  3
*UDIM459
  0
TEXT
  5
   414
  8
0
  6
CONTINUOUS
 62
     7
 10
-392.945084425747
 20
-118.643932036069
 30
0.0
 40
3.00000002980232
  1
135
 50
359.999999948034
 41
0.933333333333333
 72
     1
 11
-389.045084385651
 21
-117.143932024685
 31
0.0
 73
     2
  0
LINE
  5
   415
  8
0
  6
CONTINUOUS
 62
     7
 10
-355.009064181522
 20
-22.7780590820488
 30
0.0
 11
-355.009108179763
 21
-121.643932039586
 31
0.0
  0
LINE
  5
   416
  8
0
  6
CONTINUOUS
 62
     7
 10
-422.531097933694
 20
-91.6194172813965
 30
0.0
 11
-422.531113594027
 21
-121.643932039586
 31
0.0
  0
LINE
  5
   417
  8
0
  6
CONTINUOUS
 62
     7
 10
-355.009107289704
 20
-119.643932039586
 30
0.0
 11
-422.531112550857
 21
-119.643932039586
 31
0.0
  0
LINE
  5
   418
  8
0
  6
CONTINUOUS
 62
     7
 10
-357.963530566911
 20
-120.164876469538
 30
0.0
 11
-355.009107289704
 21
-119.643932039586
 31
0.0
  0
LINE
  5
   419
  8
0
  6
CONTINUOUS
 62
     7
 10
-355.009107289704
 20
-119.643932039586
 30
0.0
 11
-357.963530566911
 21
-119.122987609635
 31
0.0
  0
LINE
  5
   41A
  8
0
  6
CONTINUOUS
 62
     7
 10
-419.57668927365
 20
-119.122987609635
 30
0.0
 11
-422.531112550857
 21
-119.643932039586
 31
0.0
  0
LINE
  5
   41B
  8
0
  6
CONTINUOUS
 62
     7
 10
-422.531112550857
 20
-119.643932039586
 30
0.0
 11
-419.57668927365
 21
-120.164876469538
 31
0.0
  0
ENDBLK
  5
   41C
  8
0
  6
CONTINUOUS
 62
     7
  0
BLOCK
  5
   41D
  8
0
  6
CONTINUOUS
 62
     7
  2
*UDIM460
 70
    65
 10
0.0
 20
0.0
 30
0.0
  3
*UDIM460
  0
TEXT
  5
   41E
  8
0
  6
CONTINUOUS
 62
     7
 10
-443.954590475735
 20
-80.5531176093072
 30
0.0
 40
3.00000002980232
  1
15
 50
89.9999999480344
 41
0.933333333333333
 72
     1
 11
-445.454590488372
 21
-78.0531175831133
 31
0.0
 73
     2
  0
LINE
  5
   41F
  8
0
  6
CONTINUOUS
 62
     7
 10
-417.245780611624
 20
-72.0281170109087
 30
0.0
 11
-444.954590473471
 21
-72.0281170109087
 31
0.0
  0
LINE
  5
   420
  8
0
  6
CONTINUOUS
 62
     7
 10
-422.531097888947
 20
-64.5281170109087
 30
0.0
 11
-444.954590473471
 21
-64.5281170109087
 31
0.0
  0
LINE
  5
   421
  8
0
  6
CONTINUOUS
 62
     7
 10
-442.954590473471
 20
-80.5531176079486
 30
0.0
 11
-442.954590473471
 21
-64.5281170109087
 31
0.0
  0
LINE
  5
   422
  8
0
  6
CONTINUOUS
 62
     7
 10
-442.433646043519
 20
-74.9825402881157
 30
0.0
 11
-442.954590473471
 21
-72.0281170109087
 31
0.0
  0
LINE
  5
   423
  8
0
  6
CONTINUOUS
 62
     7
 10
-442.954590473471
 20
-72.0281170109087
 30
0.0
 11
-443.475534903422
 21
-74.9825402881157
 31
0.0
  0
LINE
  5
   424
  8
0
  6
CONTINUOUS
 62
     7
 10
-443.475534903422
 20
-61.5736937337018
 30
0.0
 11
-442.954590473471
 21
-64.5281170109087
 31
0.0
  0
LINE
  5
   425
  8
0
  6
CONTINUOUS
 62
     7
 10
-442.954590473471
 20
-64.5281170109087
 30
0.0
 11
-442.433646043519
 21
-61.5736937337018
 31
0.0
  0
ENDBLK
  5
   426
  8
0
  6
CONTINUOUS
 62
     7
  0
BLOCK
  5
   427
  8
0
  6
CONTINUOUS
 62
     7
  2
*UDIM461
 70
    65
 10
0.0
 20
0.0
 30
0.0
  3
*UDIM461
  0
TEXT
  5
   428
  8
0
  6
CONTINUOUS
 62
     7
 10
-450.375887908958
 20
-21.7030952914234
 30
0.0
 40
3.00000002980232
  1
218
 50
89.9999999480344
 41
0.933333333333333
 72
     1
 11
-451.875887920327
 21
-17.8030952513218
 31
0.0
 73
     2
  0
LINE
  5
   429
  8
0
  6
CONTINUOUS
 62
     7
 10
-417.245780611624
 20
-72.0281170109087
 30
0.0
 11
-451.375887905426
 21
-72.0281170109087
 31
0.0
  0
LINE
  5
   42A
  8
0
  6
CONTINUOUS
 62
     7
 10
-417.245780611624
 20
36.9719341495806
 30
0.0
 11
-451.375887905426
 21
36.9719341495806
 31
0.0
  0
LINE
  5
   42B
  8
0
  6
CONTINUOUS
 62
     7
 10
-449.375887905426
 20
-72.0281170109087
 30
0.0
 11
-449.375887905426
 21
36.9719341495806
 31
0.0
  0
LINE
  5
   42C
  8
0
  6
CONTINUOUS
 62
     7
 10
-449.896832335377
 20
-69.0736937337018
 30
0.0
 11
-449.375887905426
 21
-72.0281170109087
 31
0.0
  0
LINE
  5
   42D
  8
0
  6
CONTINUOUS
 62
     7
 10
-449.375887905426
 20
-72.0281170109087
 30
0.0
 11
-448.854943475474
 21
-69.0736937337018
 31
0.0
  0
LINE
  5
   42E
  8
0
  6
CONTINUOUS
 62
     7
 10
-448.854943475474
 20
34.0175108723736
 30
0.0
 11
-449.375887905426
 21
36.9719341495806
 31
0.0
  0
LINE
  5
   42F
  8
0
  6
CONTINUOUS
 62
     7
 10
-449.375887905426
 20
36.9719341495806
 30
0.0
 11
-449.896832335377
 21
34.0175108723736
 31
0.0
  0
ENDBLK
  5
   430
  8
0
  6
CONTINUOUS
 62
     7
  0
BLOCK
  5
   431
  8
0
  6
CONTINUOUS
 62
     5
  2
*UDIM462
 70
    65
 10
0.0
 20
0.0
 30
0.0
  3
*UDIM462
  0
TEXT
  5
   432
  8
0
  6
CONTINUOUS
 62
     5
 10
-437.237373359387
 20
1.78443136630678
 30
0.0
 40
3.00000002980232
  1
107,25
 50
89.9999999480344
 41
0.933333333333333
 72
     1
 11
-438.737373366952
 21
9.88443144813162
 31
0.0
 73
     2
  0
LINE
  5
   433
  8
0
  6
CONTINUOUS
 62
     5
 10
-431.410234585146
 20
-16.653074340838
 30
0.0
 11
-438.237373352051
 21
-16.653074340838
 31
0.0
  0
LINE
  5
   434
  8
0
  6
CONTINUOUS
 62
     5
 10
-417.245780611624
 20
36.9719341495806
 30
0.0
 11
-438.237373352051
 21
36.9719341495806
 31
0.0
  0
LINE
  5
   435
  8
0
  6
CONTINUOUS
 62
     5
 10
-436.237373352051
 20
-16.653074340838
 30
0.0
 11
-436.237373352051
 21
36.9719341495806
 31
0.0
  0
LINE
  5
   436
  8
0
  6
CONTINUOUS
 62
     5
 10
-436.758317782003
 20
-13.698651063631
 30
0.0
 11
-436.237373352051
 21
-16.653074340838
 31
0.0
  0
LINE
  5
   437
  8
0
  6
CONTINUOUS
 62
     5
 10
-436.237373352051
 20
-16.653074340838
 30
0.0
 11
-435.716428922099
 21
-13.698651063631
 31
0.0
  0
LINE
  5
   438
  8
0
  6
CONTINUOUS
 62
     5
 10
-435.716428922099
 20
34.0175108723736
 30
0.0
 11
-436.237373352051
 21
36.9719341495806
 31
0.0
  0
LINE
  5
   439
  8
0
  6
CONTINUOUS
 62
     5
 10
-436.237373352051
 20
36.9719341495806
 30
0.0
 11
-436.758317782003
 21
34.0175108723736
 31
0.0
  0
ENDBLK
  5
   43A
  8
0
  6
CONTINUOUS
 62
     5
  0
BLOCK
  5
   43B
  8
0
  6
CONTINUOUS
 62
     7
  2
*UDIM463
 70
    65
 10
0.0
 20
0.0
 30
0.0
  3
*UDIM463
  0
TEXT
  5
   43C
  8
0
  6
CONTINUOUS
 62
     7
 10
-437.385482789082
 20
-79.7780654812357
 30
0.0
 40
3.00000002980232
  1
8
 50
89.9999999480344
 41
0.933333333333334
 72
     1
 11
-438.885482802987
 21
-78.6780654689497
 31
0.0
 73
     2
  0
TEXT
  5
   43D
  8
0
  6
CONTINUOUS
 62
     7
 10
-437.385482789082
 20
-82.5280655150117
 30
0.0
 40
3.00000002980232
  1
M
 50
89.9999999480344
 41
0.933333333333334
 72
     1
 11
-438.885482802987
 21
-81.4280655027256
 31
0.0
 73
     2
  0
LINE
  5
   43E
  8
0
  6
CONTINUOUS
 62
     7
 10
-411.531110034336
 20
-74.0280658504194
 30
0.0
 11
-438.385482788086
 21
-74.0280658504194
 31
0.0
  0
LINE
  5
   43F
  8
0
  6
CONTINUOUS
 62
     7
 10
-411.531110034336
 20
-70.0280658504194
 30
0.0
 11
-438.385482788086
 21
-70.0280658504194
 31
0.0
  0
LINE
  5
   440
  8
0
  6
CONTINUOUS
 62
     7
 10
-436.385482788086
 20
-82.5280655136531
 30
0.0
 11
-436.385482788086
 21
-70.0280658504194
 31
0.0
  0
LINE
  5
   441
  8
0
  6
CONTINUOUS
 62
     7
 10
-435.864538358134
 20
-76.9824891276263
 30
0.0
 11
-436.385482788086
 21
-74.0280658504194
 31
0.0
  0
LINE
  5
   442
  8
0
  6
CONTINUOUS
 62
     7
 10
-436.385482788086
 20
-74.0280658504194
 30
0.0
 11
-436.906427218038
 21
-76.9824891276263
 31
0.0
  0
LINE
  5
   443
  8
0
  6
CONTINUOUS
 62
     7
 10
-436.906427218038
 20
-67.0736425732124
 30
0.0
 11
-436.385482788086
 21
-70.0280658504194
 31
0.0
  0
LINE
  5
   444
  8
0
  6
CONTINUOUS
 62
     7
 10
-436.385482788086
 20
-70.0280658504194
 30
0.0
 11
-435.864538358134
 21
-67.0736425732124
 31
0.0
  0
ENDBLK
  5
   445
  8
0
  6
CONTINUOUS
 62
     7
  0
BLOCK
  5
   446
  8
0
  6
CONTINUOUS
 62
     7
  2
*UDIM464
 70
    65
 10
0.0
 20
0.0
 30
0.0
  3
*UDIM464
  0
TEXT
  5
   447
  8
0
  6
CONTINUOUS
 62
     7
 10
-436.369703431265
 20
-94.6724090553623
 30
0.0
 40
3.00000002980232
  1
20
 50
359.999999948034
 41
0.933333333333333
 72
     1
 11
-433.869703405077
 21
-93.172409042716
 31
0.0
 73
     2
  0
LINE
  5
   448
  8
0
  6
CONTINUOUS
 62
     7
 10
-412.531109080662
 20
-78.0280914306641
 30
0.0
 11
-412.531109080662
 21
-97.6724090576172
 31
0.0
  0
LINE
  5
   449
  8
0
  6
CONTINUOUS
 62
     7
 10
-422.531097412109
 20
-91.6194172813966
 30
0.0
 11
-422.531097412109
 21
-97.6724090576172
 31
0.0
  0
LINE
  5
   44A
  8
0
  6
CONTINUOUS
 62
     7
 10
-412.531109080662
 20
-95.6724090576172
 30
0.0
 11
-436.369703429912
 21
-95.6724090576172
 31
0.0
  0
LINE
  5
   44B
  8
0
  6
CONTINUOUS
 62
     7
 10
-415.485532357869
 20
-96.1933534875689
 30
0.0
 11
-412.531109080662
 21
-95.6724090576172
 31
0.0
  0
LINE
  5
   44C
  8
0
  6
CONTINUOUS
 62
     7
 10
-412.531109080662
 20
-95.6724090576172
 30
0.0
 11
-415.485532357869
 21
-95.1514646276655
 31
0.0
  0
LINE
  5
   44D
  8
0
  6
CONTINUOUS
 62
     7
 10
-419.576674134902
 20
-95.1514646276655
 30
0.0
 11
-422.531097412109
 21
-95.6724090576172
 31
0.0
  0
LINE
  5
   44E
  8
0
  6
CONTINUOUS
 62
     7
 10
-422.531097412109
 20
-95.6724090576172
 30
0.0
 11
-419.576674134902
 21
-96.1933534875689
 31
0.0
  0
ENDBLK
  5
   44F
  8
0
  6
CONTINUOUS
 62
     7
  0
BLOCK
  5
   450
  8
0
  6
CONTINUOUS
 62
     7
  2
*UDIM465
 70
    65
 10
0.0
 20
0.0
 30
0.0
  3
*UDIM465
  0
TEXT
  5
   451
  8
0
  6
CONTINUOUS
 62
     7
 10
-363.45571136701
 20
-72.0625831547231
 30
0.0
 40
3.00000002980232
  1
11
 50
89.9999999480344
 41
0.933333333333333
 72
     1
 11
-364.955711379647
 21
-69.5625831285292
 31
0.0
 73
     2
  0
LINE
  5
   452
  8
0
  6
CONTINUOUS
 62
     7
 10
-401.179138594186
 20
-72.0281170109087
 30
0.0
 11
-360.455711364746
 21
-72.0281170109087
 31
0.0
  0
LINE
  5
   453
  8
0
  6
CONTINUOUS
 62
     7
 10
-400.829714581981
 20
-66.5281170109087
 30
0.0
 11
-360.455711364746
 21
-66.5281170109087
 31
0.0
  0
LINE
  5
   454
  8
0
  6
CONTINUOUS
 62
     7
 10
-362.455711364746
 20
-72.0625831533645
 30
0.0
 11
-362.455711364746
 21
-66.5281170109087
 31
0.0
  0
LINE
  5
   455
  8
0
  6
CONTINUOUS
 62
     7
 10
-361.934766934794
 20
-74.9825402881157
 30
0.0
 11
-362.455711364746
 21
-72.0281170109087
 31
0.0
  0
LINE
  5
   456
  8
0
  6
CONTINUOUS
 62
     7
 10
-362.455711364746
 20
-72.0281170109087
 30
0.0
 11
-362.976655794698
 21
-74.9825402881157
 31
0.0
  0
LINE
  5
   457
  8
0
  6
CONTINUOUS
 62
     7
 10
-362.976655794698
 20
-63.5736937337018
 30
0.0
 11
-362.455711364746
 21
-66.5281170109087
 31
0.0
  0
LINE
  5
   458
  8
0
  6
CONTINUOUS
 62
     7
 10
-362.455711364746
 20
-66.5281170109087
 30
0.0
 11
-361.934766934794
 21
-63.5736937337018
 31
0.0
  0
ENDBLK
  5
   459
  8
0
  6
CONTINUOUS
 62
     7
  0
BLOCK
  5
   45A
  8
0
  6
CONTINUOUS
 62
     7
  2
*UDIM466
 70
    65
 10
0.0
 20
0.0
 30
0.0
  3
*UDIM466
  0
TEXT
  5
   45B
  8
0
  6
CONTINUOUS
 62
     7
 10
-341.83510589826
 20
31.7886138643733
 30
0.0
 40
3.00000002980232
  1
11
 50
89.9999999480344
 41
0.933333333333333
 72
     1
 11
-343.335105910897
 21
34.2886138905671
 31
0.0
 73
     2
  0
LINE
  5
   45C
  8
0
  6
CONTINUOUS
 62
     7
 10
-402.253973618977
 20
31.4719085693359
 30
0.0
 11
-338.835105895996
 21
31.4719085693359
 31
0.0
  0
LINE
  5
   45D
  8
0
  6
CONTINUOUS
 62
     7
 10
-401.179138594186
 20
36.9719341495806
 30
0.0
 11
-338.835105895996
 21
36.9719341495806
 31
0.0
  0
LINE
  5
   45E
  8
0
  6
CONTINUOUS
 62
     7
 10
-340.835105895996
 20
31.4719085693359
 30
0.0
 11
-340.835105895996
 21
36.9719341495806
 31
0.0
  0
LINE
  5
   45F
  8
0
  6
CONTINUOUS
 62
     7
 10
-340.314161466044
 20
28.517485292129
 30
0.0
 11
-340.835105895996
 21
31.4719085693359
 31
0.0
  0
LINE
  5
   460
  8
0
  6
CONTINUOUS
 62
     7
 10
-340.835105895996
 20
31.4719085693359
 30
0.0
 11
-341.356050325948
 21
28.517485292129
 31
0.0
  0
LINE
  5
   461
  8
0
  6
CONTINUOUS
 62
     7
 10
-341.356050325948
 20
39.9263574267876
 30
0.0
 11
-340.835105895996
 21
36.9719341495806
 31
0.0
  0
LINE
  5
   462
  8
0
  6
CONTINUOUS
 62
     7
 10
-340.835105895996
 20
36.9719341495806
 30
0.0
 11
-340.314161466044
 21
39.9263574267876
 31
0.0
  0
ENDBLK
  5
   463
  8
0
  6
CONTINUOUS
 62
     7
  0
BLOCK
  5
   464
  8
0
  6
CONTINUOUS
 62
     7
  2
*UDIM467
 70
    65
 10
0.0
 20
0.0
 30
0.0
  3
*UDIM467
  0
TEXT
  5
   465
  8
0
  6
CONTINUOUS
 62
     7
 10
-337.841968539909
 20
-20.8280685754472
 30
0.0
 40
3.00000002980232
  1
105
 50
89.9999999480344
 41
0.933333333333333
 72
     1
 11
-339.341968551278
 21
-16.9280685353456
 31
0.0
 73
     2
  0
LINE
  5
   466
  8
0
  6
CONTINUOUS
 62
     7
 10
-368.031102180481
 20
-42.9030590820489
 30
0.0
 11
-334.841968536377
 21
-42.9030590820489
 31
0.0
  0
LINE
  5
   467
  8
0
  6
CONTINUOUS
 62
     7
 10
-368.031102180481
 20
9.59692565916203
 30
0.0
 11
-334.841968536377
 21
9.59692565916203
 31
0.0
  0
LINE
  5
   468
  8
0
  6
CONTINUOUS
 62
     7
 10
-336.841968536377
 20
-42.9030590820489
 30
0.0
 11
-336.841968536377
 21
9.59692565916203
 31
0.0
  0
LINE
  5
   469
  8
0
  6
CONTINUOUS
 62
     7
 10
-337.362912966329
 20
-39.9486358048419
 30
0.0
 11
-336.841968536377
 21
-42.9030590820489
 31
0.0
  0
LINE
  5
   46A
  8
0
  6
CONTINUOUS
 62
     7
 10
-336.841968536377
 20
-42.9030590820489
 30
0.0
 11
-336.321024106425
 21
-39.9486358048419
 31
0.0
  0
LINE
  5
   46B
  8
0
  6
CONTINUOUS
 62
     7
 10
-336.321024106425
 20
6.64250238195505
 30
0.0
 11
-336.841968536377
 21
9.59692565916203
 31
0.0
  0
LINE
  5
   46C
  8
0
  6
CONTINUOUS
 62
     7
 10
-336.841968536377
 20
9.59692565916203
 30
0.0
 11
-337.362912966329
 21
6.64250238195505
 31
0.0
  0
ENDBLK
  5
   46D
  8
0
  6
CONTINUOUS
 62
     7
  0
ENDSEC
  0
SECTION
  2
ENTITIES
  0
LINE
  5
   46E
  8
0
  6
DASHDOT
 62
     3
 10
-303.758148193359
 20
90.6325328123866
 30
0.0
 11
-303.758148193359
 21
36.7554081489109
 31
0.0
  0
LINE
  5
   46F
  8
0
  6
DASHDOT
 62
     3
 10
-294.204117976017
 20
85.1808154433966
 30
0.0
 11
-313.639483062552
 21
85.1808154433966
 31
0.0
  0
LINE
  5
   470
  8
0
  6
DASHDOT
 62
     3
 10
-293.804642196759
 20
42.3808148056269
 30
0.0
 11
-312.962111089026
 21
42.3808148056269
 31
0.0
  0
LINE
  5
   471
  8
0
  6
CONTINUOUS
 62
     7
 10
-292.758148029447
 20
90.0072567042608
 30
0.0
 11
-292.758148029447
 21
37.1027687207189
 31
0.0
  0
LINE
  5
   472
  8
0
  6
CONTINUOUS
 62
     7
 10
-291.9462113976
 20
38.3808147460222
 30
0.0
 11
-321.162319479614
 21
38.3808147460222
 31
0.0
  0
LINE
  5
   473
  8
0
  6
CONTINUOUS
 62
     7
 10
-291.268839424074
 20
89.1808155030012
 30
0.0
 11
-321.294402969047
 21
89.1808155030012
 31
0.0
  0
CIRCLE
  5
   474
  8
0
  6
CONTINUOUS
 62
     7
 10
-300.258148141205
 20
85.1808154433966
 30
0.0
 40
0.550000008195639
  0
CIRCLE
  5
   475
  8
0
  6
CONTINUOUS
 62
     7
 10
-300.258148141205
 20
42.3808148056269
 30
0.0
 40
0.550000008195639
  0
LINE
  5
   476
  8
0
  6
DASHDOT
 62
     3
 10
-300.258148141205
 20
90.6325328123866
 30
0.0
 11
-300.258148141205
 21
40.1175646461786
 31
0.0
  0
LINE
  5
   477
  8
0
  6
DASHDOT
 62
     3
 10
-314.258148349822
 20
90.6325328123866
 30
0.0
 11
-314.258148349822
 21
39.899595689602
 31
0.0
  0
CIRCLE
  5
   478
  8
0
  6
CONTINUOUS
 62
     7
 10
-314.258148349822
 20
85.1808154433966
 30
0.0
 40
0.550000008195639
  0
CIRCLE
  5
   479
  8
0
  6
CONTINUOUS
 62
     7
 10
-314.258148349822
 20
42.3808148056269
 30
0.0
 40
0.550000008195639
  0
LINE
  5
   47A
  8
0
  6
CONTINUOUS
 62
     7
 10
-319.709401095846
 20
90.6012594787769
 30
0.0
 11
-319.709401095846
 21
37.9659889395538
 31
0.0
  0
LINE
  5
   47B
  8
0
  6
DASHDOT
 62
     2
 10
-286.185962802253
 20
64.1308151297271
 30
0.0
 11
-337.523300088762
 21
64.1308151297271
 31
0.0
  0
INSERT
  5
   47C
  8
0
  6
CONTINUOUS
 62
     7
  2
*UDIM416
 10
0.0
 20
0.0
 30
0.0
  0
TEXT
  5
   47D
  8
0
  6
CONTINUOUS
 62
     7
 10
-346.839487339011
 20
62.6128725851415
 30
0.0
 40
2.99999994933605
  1
X
 50
359.999999896069
 41
0.916666607525612
 72
     2
 11
-344.639487520806
 21
62.6128725811619
 31
0.0
  0
INSERT
  5
   47E
  8
0
  6
CONTINUOUS
 62
     7
  2
*UDIM417
 10
0.0
 20
0.0
 30
0.0
  0
TEXT
  5
   47F
  8
0
  6
CONTINUOUS
 62
     7
 10
-304.538025536566
 20
89.8513966650384
 30
0.0
 40
2.99999994933605
  1
Y
 50
359.999999896069
 41
0.916666607525612
 72
     2
 11
-302.338025718361
 21
89.8513966610588
 31
0.0
  0
INSERT
  5
   480
  8
0
  6
CONTINUOUS
 62
     7
  2
*UDIM418
 10
0.0
 20
0.0
 30
0.0
  0
INSERT
  5
   481
  8
0
  6
CONTINUOUS
 62
     7
  2
*UDIM419
 10
0.0
 20
0.0
 30
0.0
  0
INSERT
  5
   482
  8
0
  6
CONTINUOUS
 62
     7
  2
*UDIM420
 10
0.0
 20
0.0
 30
0.0
  0
TEXT
  5
   483
  8
0
  6
CONTINUOUS
 62
     7
 10
-282.274546496548
 20
61.8305893627302
 30
0.0
 40
2.99999994933605
  1
X
 50
359.999999896069
 41
0.916666607525612
 72
     2
 11
-280.074546678342
 21
61.8305893587506
 31
0.0
  0
TEXT
  5
   484
  8
0
  6
CONTINUOUS
 62
     7
 10
-304.555751052196
 20
31.6885570532274
 30
0.0
 40
2.99999994933605
  1
Y
 50
359.999999896069
 41
0.916666607525612
 72
     2
 11
-302.35575123399
 21
31.6885570492478
 31
0.0
  0
LINE
  5
   485
  8
0
  6
CONTINUOUS
 62
     7
 10
-528.874653044815
 20
-42.903076171875
 30
0.0
 11
-533.874653044816
 21
-42.903076171875
 31
0.0
  0
LINE
  5
   486
  8
0
  6
CONTINUOUS
 62
     7
 10
-541.374653044815
 20
8.59690856933592
 30
0.0
 11
-541.374653044815
 21
9.59690856933592
 31
0.0
  0
LINE
  5
   487
  8
0
  6
CONTINUOUS
 62
     7
 10
-533.874653044816
 20
-42.903076171875
 30
0.0
 11
-541.374653044815
 21
-42.903076171875
 31
0.0
  0
LINE
  5
   488
  8
0
  6
CONTINUOUS
 62
     7
 10
-515.124668303605
 20
-42.903076171875
 30
0.0
 11
-528.874653044815
 21
-42.903076171875
 31
0.0
  0
LINE
  5
   489
  8
0
  6
CONTINUOUS
 62
    52
 10
-496.374683562394
 20
-42.903076171875
 30
0.0
 11
-501.374683562394
 21
-42.903076171875
 31
0.0
  0
LINE
  5
   48A
  8
0
  6
CONTINUOUS
 62
    52
 10
-488.874683562394
 20
-42.903076171875
 30
0.0
 11
-496.374683562394
 21
-42.903076171875
 31
0.0
  0
LINE
  5
   48B
  8
0
  6
CONTINUOUS
 62
    52
 10
-501.374683562394
 20
-42.903076171875
 30
0.0
 11
-515.124668303605
 21
-42.903076171875
 31
0.0
  0
LINE
  5
   48C
  8
0
  6
CONTINUOUS
 62
     7
 10
-526.499661934116
 20
33.971893310538
 30
0.0
 11
-558.87466067421
 21
33.971893310538
 31
0.0
  0
LINE
  5
   48D
  8
0
  6
CONTINUOUS
 62
     7
 10
-508.999677363511
 20
33.9718933105469
 30
0.0
 11
-521.249669734116
 21
33.9718933105469
 31
0.0
  0
LINE
  5
   48E
  8
0
  6
CONTINUOUS
 62
     7
 10
-490.124683562394
 20
33.9719009399414
 30
0.0
 11
-503.749683562394
 21
33.9719009399414
 31
0.0
  0
LINE
  5
   48F
  8
0
  6
CONTINUOUS
 62
     7
 10
-557.478211804779
 20
45.8254326055103
 30
0.0
 11
-557.12466567118
 21
45.9718788223491
 31
0.0
  0
LINE
  5
   490
  8
0
  6
CONTINUOUS
 62
     7
 10
-557.62465875673
 20
45.4718798737251
 30
0.0
 11
-557.478204921359
 21
45.8254336296916
 31
0.0
  0
LINE
  5
   491
  8
0
  6
CONTINUOUS
 62
     7
 10
-557.624659213251
 20
33.7218847072173
 30
0.0
 11
-557.62466625827
 21
44.571891784668
 31
0.0
  0
LINE
  5
   492
  8
0
  6
CONTINUOUS
 62
     7
 10
-508.99967778072
 20
33.9718929827907
 30
0.0
 11
-508.999680164906
 21
35.9718929827907
 31
0.0
  0
LINE
  5
   493
  8
0
  6
CONTINUOUS
 62
     7
 10
-488.874683562394
 20
33.7219009399414
 30
0.0
 11
-488.874683562394
 21
44.5718994140625
 31
0.0
  0
LINE
  5
   494
  8
0
  6
CONTINUOUS
 62
     7
 10
-558.87466067421
 20
33.7218856811523
 30
0.0
 11
-558.87466067421
 21
44.571891784668
 31
0.0
  0
LINE
  5
   495
  8
0
  6
CONTINUOUS
 62
     7
 10
-557.62466067421
 20
44.571891784668
 30
0.0
 11
-558.87466067421
 21
44.571891784668
 31
0.0
  0
LINE
  5
   496
  8
0
  6
CONTINUOUS
 62
     7
 10
-558.874653044816
 20
9.59689331054686
 30
0.0
 11
-558.874653044816
 21
33.7219085693359
 31
0.0
  0
LINE
  5
   497
  8
0
  6
CONTINUOUS
 62
     7
 10
-515.124668303605
 20
33.7219085693359
 30
0.0
 11
-558.87466067421
 21
33.7219085693359
 31
0.0
  0
LINE
  5
   498
  8
0
  6
CONTINUOUS
 62
     7
 10
-488.874683562394
 20
23.5969047546367
 30
0.0
 11
-488.874683562394
 21
33.7219085693359
 31
0.0
  0
LINE
  5
   499
  8
0
  6
CONTINUOUS
 62
     7
 10
-488.874683562394
 20
33.7219085693359
 30
0.0
 11
-515.124668303605
 21
33.7219085693359
 31
0.0
  0
LINE
  5
   49A
  8
0
  6
DASHDOT
 62
     7
 10
-515.124660264716
 20
-56.5667014949428
 30
0.0
 11
-515.124683825808
 21
31.9616218486646
 31
0.0
  0
LINE
  5
   49B
  8
0
  6
CONTINUOUS
 62
     3
 10
-558.874653044816
 20
-79.6280761957169
 30
0.0
 11
-558.874653044816
 21
-42.9030761718736
 31
0.0
  0
LINE
  5
   49C
  8
0
  6
CONTINUOUS
 62
     3
 10
-557.624653044815
 20
-79.6280761957169
 30
0.0
 11
-558.874653044816
 21
-79.6280761957169
 31
0.0
  0
LINE
  5
   49D
  8
0
  6
CONTINUOUS
 62
     3
 10
-524.749653044815
 20
-81.0280761718745
 30
0.0
 11
-540.499653044813
 21
-81.0280761718745
 31
0.0
  0
LINE
  5
   49E
  8
0
  6
CONTINUOUS
 62
     3
 10
-507.249653044815
 20
-81.0280761718747
 30
0.0
 11
-522.999653044815
 21
-81.0280761718747
 31
0.0
  0
LINE
  5
   49F
  8
0
  6
CONTINUOUS
 62
     3
 10
-490.624653044816
 20
-81.0280761718741
 30
0.0
 11
-505.499653044815
 21
-81.0280761718741
 31
0.0
  0
LINE
  5
   4A0
  8
0
  6
CONTINUOUS
 62
     3
 10
-490.124653044816
 20
-80.528076171875
 30
0.0
 11
-490.124653044816
 21
-79.6280761957169
 31
0.0
  0
LINE
  5
   4A1
  8
0
  6
CONTINUOUS
 62
     3
 10
-488.874653044815
 20
-79.6280761957169
 30
0.0
 11
-490.124653044816
 21
-79.6280761957169
 31
0.0
  0
LINE
  5
   4A2
  8
0
  6
CONTINUOUS
 62
     7
 10
-557.624653044815
 20
-79.6280761957169
 30
0.0
 11
-557.624653044815
 21
-69.528076171875
 31
0.0
  0
LINE
  5
   4A3
  8
0
  6
CONTINUOUS
 62
     7
 10
-508.999653044815
 20
-69.028076171875
 30
0.0
 11
-521.249653044816
 21
-69.028076171875
 31
0.0
  0
LINE
  5
   4A4
  8
0
  6
CONTINUOUS
 62
     7
 10
-508.999653044815
 20
-71.028076171875
 30
0.0
 11
-508.999653044815
 21
-69.028076171875
 31
0.0
  0
LINE
  5
   4A5
  8
0
  6
CONTINUOUS
 62
     7
 10
-503.749653044816
 20
-71.028076171875
 30
0.0
 11
-503.749653044816
 21
-69.028076171875
 31
0.0
  0
LINE
  5
   4A6
  8
0
  6
CONTINUOUS
 62
     7
 10
-492.124653044815
 20
-69.028076171875
 30
0.0
 11
-503.749653044816
 21
-69.028076171875
 31
0.0
  0
LINE
  5
   4A7
  8
0
  6
CONTINUOUS
 62
     7
 10
-490.124653044816
 20
-79.6280761957169
 30
0.0
 11
-490.124653044816
 21
-69.528076171875
 31
0.0
  0
LINE
  5
   4A8
  8
0
  6
CONTINUOUS
 62
     7
 10
-522.624653044815
 20
-74.278076171875
 30
0.0
 11
-522.624653044815
 21
-73.3363312643516
 31
0.0
  0
LINE
  5
   4A9
  8
0
  6
CONTINUOUS
 62
     7
 10
-525.124653044815
 20
-74.278076171875
 30
0.0
 11
-525.124653044815
 21
-73.336330534968
 31
0.0
  0
LINE
  5
   4AA
  8
0
  6
CONTINUOUS
 62
     7
 10
-522.624653044815
 20
-74.278076171875
 30
0.0
 11
-525.124653044815
 21
-74.278076171875
 31
0.0
  0
LINE
  5
   4AB
  8
0
  6
CONTINUOUS
 62
     7
 10
-507.624653044815
 20
-74.278076171875
 30
0.0
 11
-507.624653044815
 21
-73.2892513275146
 31
0.0
  0
LINE
  5
   4AC
  8
0
  6
CONTINUOUS
 62
     7
 10
-495.874653044816
 20
-69.028076171875
 30
0.0
 11
-495.874653044816
 21
-68.778076171875
 31
0.0
  0
LINE
  5
   4AD
  8
0
  6
CONTINUOUS
 62
     7
 10
-489.749653044816
 20
-69.528076171875
 30
0.0
 11
-489.749653044816
 21
-68.778076171875
 31
0.0
  0
LINE
  5
   4AE
  8
0
  6
CONTINUOUS
 62
     7
 10
-557.999653044816
 20
-69.528076171875
 30
0.0
 11
-557.999653044816
 21
-68.778076171875
 31
0.0
  0
LINE
  5
   4AF
  8
0
  6
CONTINUOUS
 62
     7
 10
-492.124653044815
 20
-69.528076171875
 30
0.0
 11
-492.124653044815
 21
-68.778076171875
 31
0.0
  0
LINE
  5
   4B0
  8
0
  6
CONTINUOUS
 62
     3
 10
-522.624653044815
 20
-79.528076171875
 30
0.0
 11
-522.624653044815
 21
-77.778076171875
 31
0.0
  0
LINE
  5
   4B1
  8
0
  6
CONTINUOUS
 62
     3
 10
-525.124653044815
 20
-79.5280762910843
 30
0.0
 11
-525.124653044815
 21
-77.778076171875
 31
0.0
  0
LINE
  5
   4B2
  8
0
  6
CONTINUOUS
 62
     3
 10
-522.999653044815
 20
-81.0280761718747
 30
0.0
 11
-522.999653044815
 21
-79.5280761718747
 31
0.0
  0
LINE
  5
   4B3
  8
0
  6
CONTINUOUS
 62
     3
 10
-522.624653044815
 20
-79.528076171875
 30
0.0
 11
-522.999653044815
 21
-79.528076171875
 31
0.0
  0
LINE
  5
   4B4
  8
0
  6
CONTINUOUS
 62
     3
 10
-524.749653044815
 20
-81.0280761718747
 30
0.0
 11
-524.749653044815
 21
-79.5280761718747
 31
0.0
  0
LINE
  5
   4B5
  8
0
  6
CONTINUOUS
 62
     3
 10
-524.749653044815
 20
-79.528076171875
 30
0.0
 11
-525.124653044815
 21
-79.528076171875
 31
0.0
  0
LINE
  5
   4B6
  8
0
  6
CONTINUOUS
 62
     3
 10
-505.124653044815
 20
-79.528076171875
 30
0.0
 11
-505.124653044815
 21
-77.778076171875
 31
0.0
  0
LINE
  5
   4B7
  8
0
  6
CONTINUOUS
 62
     3
 10
-507.624653044815
 20
-79.5280762910843
 30
0.0
 11
-507.624653044815
 21
-77.778076171875
 31
0.0
  0
LINE
  5
   4B8
  8
0
  6
CONTINUOUS
 62
     3
 10
-505.499653044815
 20
-81.0280761718747
 30
0.0
 11
-505.499653044815
 21
-79.5280761718747
 31
0.0
  0
LINE
  5
   4B9
  8
0
  6
CONTINUOUS
 62
     3
 10
-505.124653044815
 20
-79.528076171875
 30
0.0
 11
-505.499653044815
 21
-79.528076171875
 31
0.0
  0
LINE
  5
   4BA
  8
0
  6
CONTINUOUS
 62
     3
 10
-507.249653044815
 20
-81.0280761718747
 30
0.0
 11
-507.249653044815
 21
-79.5280761718747
 31
0.0
  0
LINE
  5
   4BB
  8
0
  6
CONTINUOUS
 62
     3
 10
-507.249653044815
 20
-79.528076171875
 30
0.0
 11
-507.624653044815
 21
-79.528076171875
 31
0.0
  0
CIRCLE
  5
   4BC
  8
0
  6
CONTINUOUS
 62
     7
 10
-532.624652977547
 20
-72.0280782102232
 30
0.0
 40
2.74999793642075
  0
CIRCLE
  5
   4BD
  8
0
  6
CONTINUOUS
 62
     7
 10
-523.87465217574
 20
-71.0280734942504
 30
0.0
 40
1.37499758123315
  0
ARC
  5
   4BE
  8
0
  6
CONTINUOUS
 62
     7
 10
-523.874652371372
 20
-71.0280674101844
 30
0.0
 40
2.62499149271879
 50
298.436973936778
 51
418.997218532549
  0
CIRCLE
  5
   4BF
  8
0
  6
CONTINUOUS
 62
     7
 10
-515.124652818925
 20
-72.0280744982814
 30
0.0
 40
2.74999836975995
  0
ARC
  5
   4C0
  8
0
  6
CONTINUOUS
 62
     7
 10
-506.374651686917
 20
-71.0280685571789
 30
0.0
 40
2.6249925524032
 50
298.436944421718
 51
418.99722864746
  0
CIRCLE
  5
   4C1
  8
0
  6
CONTINUOUS
 62
     7
 10
-497.624652660303
 20
-72.028074764097
 30
0.0
 40
2.74999861534155
  0
CIRCLE
  5
   4C2
  8
0
  6
CONTINUOUS
 62
     7
 10
-497.624653272596
 20
-79.0280749420087
 30
0.0
 40
0.699998731101407
  0
CIRCLE
  5
   4C3
  8
0
  6
CONTINUOUS
 62
     7
 10
-515.12465494408
 20
-79.0280756016168
 30
0.0
 40
0.699999655882045
  0
CIRCLE
  5
   4C4
  8
0
  6
CONTINUOUS
 62
     7
 10
-532.624653671684
 20
-79.0280771844917
 30
0.0
 40
0.700001026691361
  0
ARC
  5
   4C5
  8
0
  6
CONTINUOUS
 62
     3
 10
-490.624649878703
 20
-80.528080160614
 30
0.0
 40
0.499995810037669
 50
269.999758026082
 51
360.000419025074
  0
ARC
  5
   4C6
  8
0
  6
CONTINUOUS
 62
     3
 10
-557.124652905586
 20
-80.5280759661621
 30
0.0
 40
0.50000021494898
 50
180.000023420064
 51
269.999992853049
  0
LINE
  5
   4C7
  8
0
  6
DASHDOT
 62
     3
 10
-532.624652977547
 20
-75.7780761466439
 30
0.0
 11
-532.624652977547
 21
-68.2780802738024
 31
0.0
  0
LINE
  5
   4C8
  8
0
  6
DASHDOT
 62
     3
 10
-528.874655041127
 20
-72.0280782102232
 30
0.0
 11
-536.374650913968
 21
-72.0280782102232
 31
0.0
  0
LINE
  5
   4C9
  8
0
  6
DASHDOT
 62
     3
 10
-523.874652371372
 20
-82.6224452623081
 30
0.0
 11
-523.874652371372
 21
-59.9067647437679
 31
0.0
  0
LINE
  5
   4CA
  8
0
  6
DASHDOT
 62
     3
 10
-520.249660878653
 20
-71.0280674101844
 30
0.0
 11
-527.49964386409
 21
-71.0280674101844
 31
0.0
  0
LINE
  5
   4CB
  8
0
  6
DASHDOT
 62
     3
 10
-515.124652818925
 20
-75.7780728680414
 30
0.0
 11
-515.124652818925
 21
-40.2408881830921
 31
0.0
  0
LINE
  5
   4CC
  8
0
  6
DASHDOT
 62
     3
 10
-511.374654449165
 20
-72.0280744982814
 30
0.0
 11
-518.874651188685
 21
-72.0280744982814
 31
0.0
  0
LINE
  5
   4CD
  8
0
  6
DASHDOT
 62
     3
 10
-506.374651686917
 20
-81.245263689267
 30
0.0
 11
-506.374651686917
 21
-60.941569127288
 31
0.0
  0
LINE
  5
   4CE
  8
0
  6
DASHDOT
 62
     3
 10
-502.749659134513
 20
-71.0280685571789
 30
0.0
 11
-509.99964423932
 21
-71.0280685571789
 31
0.0
  0
LINE
  5
   4CF
  8
0
  6
DASHDOT
 62
     3
 10
-497.624652660303
 20
-75.7780733794386
 30
0.0
 11
-497.624652660303
 21
-68.2780761487555
 31
0.0
  0
LINE
  5
   4D0
  8
0
  6
DASHDOT
 62
     3
 10
-493.874654044962
 20
-72.0280747640971
 30
0.0
 11
-501.374651275645
 21
-72.0280747640971
 31
0.0
  0
LINE
  5
   4D1
  8
0
  6
DASHDOT
 62
     3
 10
-497.624653272596
 20
-80.7280736731101
 30
0.0
 11
-497.624653272596
 21
-77.3280762109073
 31
0.0
  0
LINE
  5
   4D2
  8
0
  6
DASHDOT
 62
     3
 10
-495.924654541495
 20
-79.0280749420087
 30
0.0
 11
-499.324652003698
 21
-79.0280749420087
 31
0.0
  0
LINE
  5
   4D3
  8
0
  6
DASHDOT
 62
     3
 10
-515.12465494408
 20
-87.406731993629
 30
0.0
 11
-515.12465494408
 21
-77.3280759457347
 31
0.0
  0
LINE
  5
   4D4
  8
0
  6
DASHDOT
 62
     3
 10
-513.424655288198
 20
-79.0280756016168
 30
0.0
 11
-516.824654599962
 21
-79.0280756016168
 31
0.0
  0
LINE
  5
   4D5
  8
0
  6
DASHDOT
 62
     3
 10
-532.624653671684
 20
-80.728078211183
 30
0.0
 11
-532.624653671684
 21
-77.3280761578003
 31
0.0
  0
LINE
  5
   4D6
  8
0
  6
DASHDOT
 62
     3
 10
-530.924652644993
 20
-79.0280771844917
 30
0.0
 11
-534.324654698375
 21
-79.0280771844917
 31
0.0
  0
LINE
  5
   4D7
  8
0
  6
DASHDOT
 62
     3
 10
-520.999659132104
 20
-42.7780676374069
 30
0.0
 11
-526.749646496607
 21
-42.7780676374069
 31
0.0
  0
LINE
  5
   4D8
  8
0
  6
DASHDOT
 62
     3
 10
-503.499456045349
 20
-42.7782887604188
 30
0.0
 11
-509.249813622628
 21
-42.7782887604188
 31
0.0
  0
LINE
  5
   4D9
  8
0
  6
CONTINUOUS
 62
     3
 10
-557.624653044815
 20
-80.528076171875
 30
0.0
 11
-557.624653044815
 21
-79.6280761957169
 31
0.0
  0
LINE
  5
   4DA
  8
0
  6
CONTINUOUS
 62
     3
 10
-490.124653044816
 20
-80.528076171875
 30
0.0
 11
-490.124653044816
 21
-79.6280761957169
 31
0.0
  0
LINE
  5
   4DB
  8
0
  6
CONTINUOUS
 62
     3
 10
-488.874653044815
 20
-79.6280746459961
 30
0.0
 11
-488.874653044815
 21
-56.9030933380146
 31
0.0
  0
LINE
  5
   4DC
  8
0
  6
CONTINUOUS
 62
     7
 10
-555.624653044816
 20
-69.528076171875
 30
0.0
 11
-557.999653044816
 21
-69.528076171875
 31
0.0
  0
LINE
  5
   4DD
  8
0
  6
CONTINUOUS
 62
     7
 10
-526.499653044815
 20
-71.028076171875
 30
0.0
 11
-526.499653044815
 21
-69.028076171875
 31
0.0
  0
LINE
  5
   4DE
  8
0
  6
CONTINUOUS
 62
     7
 10
-521.249653044816
 20
-71.028076171875
 30
0.0
 11
-521.249653044816
 21
-69.028076171875
 31
0.0
  0
LINE
  5
   4DF
  8
0
  6
CONTINUOUS
 62
     7
 10
-505.124653044815
 20
-74.278076171875
 30
0.0
 11
-505.124653044815
 21
-73.3363339870889
 31
0.0
  0
LINE
  5
   4E0
  8
0
  6
CONTINUOUS
 62
     7
 10
-505.124653044815
 20
-74.278076171875
 30
0.0
 11
-507.624653044815
 21
-74.278076171875
 31
0.0
  0
LINE
  5
   4E1
  8
0
  6
CONTINUOUS
 62
     7
 10
-534.374653044816
 20
-69.028076171875
 30
0.0
 11
-534.374653044816
 21
-68.778076171875
 31
0.0
  0
LINE
  5
   4E2
  8
0
  6
CONTINUOUS
 62
     7
 10
-555.624653044816
 20
-69.528076171875
 30
0.0
 11
-555.624653044816
 21
-68.778076171875
 31
0.0
  0
LINE
  5
   4E3
  8
0
  6
CONTINUOUS
 62
     3
 10
-505.124653044815
 20
-79.528076171875
 30
0.0
 11
-505.124653044815
 21
-77.778076171875
 31
0.0
  0
LINE
  5
   4E4
  8
0
  6
CONTINUOUS
 62
     3
 10
-505.499653044815
 20
-81.0280761718747
 30
0.0
 11
-505.499653044815
 21
-79.5280761718747
 31
0.0
  0
LINE
  5
   4E5
  8
0
  6
CONTINUOUS
 62
     3
 10
-505.124653044815
 20
-79.528076171875
 30
0.0
 11
-505.499653044815
 21
-79.528076171875
 31
0.0
  0
LINE
  5
   4E6
  8
0
  6
CONTINUOUS
 62
     3
 10
-507.249653044815
 20
-79.528076171875
 30
0.0
 11
-507.624653044815
 21
-79.528076171875
 31
0.0
  0
CIRCLE
  5
   4E7
  8
0
  6
CONTINUOUS
 62
     7
 10
-506.374651300317
 20
-71.028074583292
 30
0.0
 40
1.37499852437043
  0
ARC
  5
   4E8
  8
0
  6
CONTINUOUS
 62
     3
 10
-557.124652905586
 20
-80.5280759661621
 30
0.0
 40
0.50000021494898
 50
180.000023420064
 51
269.999992853049
  0
LINE
  5
   4E9
  8
0
  6
DASHDOT
 62
     3
 10
-520.249660878653
 20
-71.0280674101844
 30
0.0
 11
-527.49964386409
 21
-71.0280674101844
 31
0.0
  0
LINE
  5
   4EA
  8
0
  6
DASHDOT
 62
     3
 10
-511.374654449165
 20
-72.0280744982814
 30
0.0
 11
-518.874651188685
 21
-72.0280744982814
 31
0.0
  0
LINE
  5
   4EB
  8
0
  6
DASHDOT
 62
     3
 10
-506.374651686917
 20
-81.245263689267
 30
0.0
 11
-506.374651686917
 21
-60.1351033320769
 31
0.0
  0
LINE
  5
   4EC
  8
0
  6
DASHDOT
 62
     3
 10
-502.749659134513
 20
-71.0280685571789
 30
0.0
 11
-509.99964423932
 21
-71.0280685571789
 31
0.0
  0
LINE
  5
   4ED
  8
0
  6
CONTINUOUS
 62
     7
 10
-526.499653044815
 20
-69.028076171875
 30
0.0
 11
-538.749653044816
 21
-69.028076171875
 31
0.0
  0
LINE
  5
   4EE
  8
0
  6
CONTINUOUS
 62
     7
 10
-489.749653044816
 20
-69.528076171875
 30
0.0
 11
-492.124653044815
 21
-69.528076171875
 31
0.0
  0
LINE
  5
   4EF
  8
0
  6
CONTINUOUS
 62
     7
 10
-488.874683562394
 20
-68.778076171875
 30
0.0
 11
-558.874653044816
 21
-68.778076171875
 31
0.0
  0
ARC
  5
   4F0
  8
0
  6
CONTINUOUS
 62
     7
 10
-523.874652371372
 20
-71.0280674101844
 30
0.0
 40
2.62499149271879
 50
121.002781363519
 51
241.56299252681
  0
ARC
  5
   4F1
  8
0
  6
CONTINUOUS
 62
     7
 10
-506.374651686917
 20
-71.0280685571789
 30
0.0
 40
2.6249925524032
 50
121.002771248608
 51
241.562988062779
  0
LINE
  5
   4F2
  8
0
  6
CONTINUOUS
 62
     7
 10
-528.87466067421
 20
-42.903076171875
 30
0.0
 11
-533.874653044816
 21
-42.903076171875
 31
0.0
  0
LINE
  5
   4F3
  8
0
  6
CONTINUOUS
 62
     7
 10
-496.374668303605
 20
-42.903076171875
 30
0.0
 11
-501.374668303605
 21
-42.903076171875
 31
0.0
  0
LINE
  5
   4F4
  8
0
  6
CONTINUOUS
 62
     7
 10
-488.874653044815
 20
-42.653076171875
 30
0.0
 11
-488.874653044815
 21
-33.6530838012695
 31
0.0
  0
LINE
  5
   4F5
  8
0
  6
CONTINUOUS
 62
     7
 10
-541.374653044815
 20
-42.653076171875
 30
0.0
 11
-541.374653044815
 21
-33.6530838012695
 31
0.0
  0
LINE
  5
   4F6
  8
0
  6
CONTINUOUS
 62
     7
 10
-489.124653044815
 20
9.59692382812499
 30
0.0
 11
-541.124653044802
 21
9.59692382812499
 31
0.0
  0
LINE
  5
   4F7
  8
0
  6
CONTINUOUS
 62
     7
 10
-533.874653044816
 20
-42.903076171875
 30
0.0
 11
-541.124653044815
 21
-42.903076171875
 31
0.0
  0
LINE
  5
   4F8
  8
0
  6
CONTINUOUS
 62
     7
 10
-501.374668303605
 20
-42.903076171875
 30
0.0
 11
-528.87466067421
 21
-42.903076171875
 31
0.0
  0
LINE
  5
   4F9
  8
0
  6
CONTINUOUS
 62
     7
 10
-489.124653044815
 20
-42.903076171875
 30
0.0
 11
-496.374668303605
 21
-42.903076171875
 31
0.0
  0
LINE
  5
   4FA
  8
0
  6
CONTINUOUS
 62
     7
 10
-509.749653044815
 20
-31.7780838012695
 30
0.0
 11
-509.749653044815
 21
-11.7780914306641
 31
0.0
  0
LINE
  5
   4FB
  8
0
  6
CONTINUOUS
 62
     7
 10
-520.499653044816
 20
-31.7780838012695
 30
0.0
 11
-520.499653044816
 21
-11.7780914306641
 31
0.0
  0
LINE
  5
   4FC
  8
0
  6
CONTINUOUS
 62
     7
 10
-488.874653044815
 20
3.59690856933592
 30
0.0
 11
-541.374653044815
 21
3.59690856933592
 31
0.0
  0
LINE
  5
   4FD
  8
0
  6
CONTINUOUS
 62
     7
 10
-488.874653044815
 20
8.59690856933592
 30
0.0
 11
-541.374653044815
 21
8.59690856933592
 31
0.0
  0
LINE
  5
   4FE
  8
0
  6
CONTINUOUS
 62
     7
 10
-509.749653044815
 20
-11.9103240966797
 30
0.0
 11
-520.499653044816
 21
-11.9103240966797
 31
0.0
  0
LINE
  5
   4FF
  8
0
  6
CONTINUOUS
 62
     7
 10
-509.749653044815
 20
-11.7780914306641
 30
0.0
 11
-520.499653044816
 21
-11.7780914306641
 31
0.0
  0
LINE
  5
   500
  8
0
  6
CONTINUOUS
 62
     7
 10
-509.749653044815
 20
-31.7780838012695
 30
0.0
 11
-520.499653044816
 21
-31.7780838012695
 31
0.0
  0
LINE
  5
   501
  8
0
  6
CONTINUOUS
 62
     7
 10
-509.749653044815
 20
-31.6458358764649
 30
0.0
 11
-520.499653044816
 21
-31.6458358764649
 31
0.0
  0
LINE
  5
   502
  8
0
  6
DASHDOT
 62
     7
 10
-515.124653044816
 20
-44.5297171115544
 30
0.0
 11
-515.124653044816
 21
-1.30187402803003
 31
0.0
  0
LINE
  5
   503
  8
0
  6
CONTINUOUS
 62
     7
 10
-488.87466067421
 20
-33.1530838012695
 30
0.0
 11
-488.87466067421
 21
-27.1530877778888
 31
0.0
  0
LINE
  5
   504
  8
0
  6
CONTINUOUS
 62
     7
 10
-488.87466067421
 20
-9.90308380126953
 30
0.0
 11
-488.87466067421
 21
9.346923828125
 31
0.0
  0
LINE
  5
   505
  8
0
  6
CONTINUOUS
 62
     7
 10
-488.87466067421
 20
-26.6530877778888
 30
0.0
 11
-488.87466067421
 21
-16.9030838012695
 31
0.0
  0
LINE
  5
   506
  8
0
  6
CONTINUOUS
 62
     7
 10
-488.87466067421
 20
-16.4030838012695
 30
0.0
 11
-488.87466067421
 21
-10.4030838012695
 31
0.0
  0
LINE
  5
   507
  8
0
  6
CONTINUOUS
 62
     7
 10
-541.374653044818
 20
-33.1530838012695
 30
0.0
 11
-541.374653044818
 21
-27.1530838012684
 31
0.0
  0
LINE
  5
   508
  8
0
  6
CONTINUOUS
 62
     7
 10
-541.374653044827
 20
-26.6530838012684
 30
0.0
 11
-541.374653044827
 21
-16.9030838012695
 31
0.0
  0
LINE
  5
   509
  8
0
  6
CONTINUOUS
 62
     7
 10
-541.374653044813
 20
-16.4030838012695
 30
0.0
 11
-541.374653044813
 21
-10.4030838012695
 31
0.0
  0
LINE
  5
   50A
  8
0
  6
CONTINUOUS
 62
     7
 10
-541.374653044802
 20
-9.90308380126953
 30
0.0
 11
-541.374653044802
 21
9.346923828125
 31
0.0
  0
LINE
  5
   50B
  8
0
  6
CONTINUOUS
 62
     7
 10
-520.499657031677
 20
-27.1530838012706
 30
0.0
 11
-540.874653074618
 21
-27.1530838012706
 31
0.0
  0
LINE
  5
   50C
  8
0
  6
CONTINUOUS
 62
     7
 10
-488.87466067421
 20
-27.1530685424815
 30
0.0
 11
-489.37466067421
 21
-27.1530685424815
 31
0.0
  0
LINE
  5
   50D
  8
0
  6
CONTINUOUS
 62
     7
 10
-520.499666811222
 20
-26.6530838012706
 30
0.0
 11
-540.874653074618
 21
-26.6530838012706
 31
0.0
  0
LINE
  5
   50E
  8
0
  6
CONTINUOUS
 62
     7
 10
-488.87466067421
 20
-26.6530685424815
 30
0.0
 11
-489.37466067421
 21
-26.6530685424815
 31
0.0
  0
LINE
  5
   50F
  8
0
  6
CONTINUOUS
 62
     7
 10
-540.874653074618
 20
-27.1530838012695
 30
0.0
 11
-540.874653074618
 21
-26.6530838012695
 31
0.0
  0
LINE
  5
   510
  8
0
  6
CONTINUOUS
 62
     7
 10
-489.37466067421
 20
-27.1530838012695
 30
0.0
 11
-489.37466067421
 21
-26.6530838012695
 31
0.0
  0
LINE
  5
   511
  8
0
  6
CONTINUOUS
 62
     7
 10
-488.874653044815
 20
-33.6530838012695
 30
0.0
 11
-489.37466067421
 21
-33.6530838012695
 31
0.0
  0
LINE
  5
   512
  8
0
  6
CONTINUOUS
 62
     7
 10
-488.87466067421
 20
-33.1530838012695
 30
0.0
 11
-489.37466067421
 21
-33.1530838012695
 31
0.0
  0
LINE
  5
   513
  8
0
  6
CONTINUOUS
 62
     7
 10
-540.874653074618
 20
-33.6530838012695
 30
0.0
 11
-540.874653074618
 21
-33.1530838012695
 31
0.0
  0
LINE
  5
   514
  8
0
  6
CONTINUOUS
 62
     7
 10
-489.37466067421
 20
-33.6530838012695
 30
0.0
 11
-489.37466067421
 21
-33.1530838012695
 31
0.0
  0
LINE
  5
   515
  8
0
  6
CONTINUOUS
 62
     7
 10
-488.87466067421
 20
-10.4030838012695
 30
0.0
 11
-489.37466067421
 21
-10.4030838012695
 31
0.0
  0
LINE
  5
   516
  8
0
  6
CONTINUOUS
 62
     7
 10
-488.87466067421
 20
-9.90308380126954
 30
0.0
 11
-489.37466067421
 21
-9.90308380126954
 31
0.0
  0
LINE
  5
   517
  8
0
  6
CONTINUOUS
 62
     7
 10
-540.874653074618
 20
-10.4030838012695
 30
0.0
 11
-540.874653074618
 21
-9.90308380126953
 31
0.0
  0
LINE
  5
   518
  8
0
  6
CONTINUOUS
 62
     7
 10
-489.37466067421
 20
-10.4030838012695
 30
0.0
 11
-489.37466067421
 21
-9.90308380126953
 31
0.0
  0
LINE
  5
   519
  8
0
  6
CONTINUOUS
 62
     7
 10
-520.499657008524
 20
-16.9030838012695
 30
0.0
 11
-540.874653074618
 21
-16.9030838012695
 31
0.0
  0
LINE
  5
   51A
  8
0
  6
CONTINUOUS
 62
     7
 10
-488.87466067421
 20
-16.9030838012695
 30
0.0
 11
-489.37466067421
 21
-16.9030838012695
 31
0.0
  0
LINE
  5
   51B
  8
0
  6
CONTINUOUS
 62
     7
 10
-520.499653044816
 20
-16.4030838012695
 30
0.0
 11
-540.874653074618
 21
-16.4030838012695
 31
0.0
  0
LINE
  5
   51C
  8
0
  6
CONTINUOUS
 62
     7
 10
-488.87466067421
 20
-16.4030838012695
 30
0.0
 11
-489.37466067421
 21
-16.4030838012695
 31
0.0
  0
LINE
  5
   51D
  8
0
  6
CONTINUOUS
 62
     7
 10
-540.874653074618
 20
-16.9030838012695
 30
0.0
 11
-540.874653074618
 21
-16.4030838012695
 31
0.0
  0
LINE
  5
   51E
  8
0
  6
CONTINUOUS
 62
     7
 10
-489.37466067421
 20
-16.9030838012695
 30
0.0
 11
-489.37466067421
 21
-16.4030838012695
 31
0.0
  0
ARC
  5
   51F
  8
0
  6
CONTINUOUS
 62
     7
 10
-541.124653044815
 20
-42.653076171875
 30
0.0
 40
0.25
 50
179.999999948034
 51
269.999999948034
  0
ARC
  5
   520
  8
0
  6
CONTINUOUS
 62
     7
 10
-489.124653044815
 20
-42.653076171875
 30
0.0
 40
0.25
 50
269.999999948034
 51
359.999999948034
  0
ARC
  5
   521
  8
0
  6
CONTINUOUS
 62
     7
 10
-489.124653044815
 20
9.346923828125
 30
0.0
 40
0.25
 50
359.999999948034
 51
449.999999948034
  0
ARC
  5
   522
  8
0
  6
CONTINUOUS
 62
     7
 10
-541.124653044802
 20
9.34692382812499
 30
0.0
 40
0.25
 50
449.999999948034
 51
539.999999948034
  0
INSERT
  5
   523
  8
255
  6
CONTINUOUS
 62
     7
  2
ON-OFF
 10
-505.124657927628
 20
-13.4030838012695
 30
0.0
 41
0.5
 42
0.5
 50
359.999999792137
 43
0.5
  0
LINE
  5
   524
  8
0
  6
CONTINUOUS
 62
     7
 10
-526.374653044815
 20
-11.1530838012695
 30
0.0
 11
-527.124653044816
 21
-11.1530838012695
 31
0.0
  0
LINE
  5
   525
  8
0
  6
CONTINUOUS
 62
     7
 10
-526.374653044815
 20
-15.6530838012695
 30
0.0
 11
-527.124653044816
 21
-15.6530838012695
 31
0.0
  0
CIRCLE
  5
   526
  8
0
  6
CONTINUOUS
 62
     7
 10
-526.749653044816
 20
-30.1530838012695
 30
0.0
 40
2.25
  0
CIRCLE
  5
   527
  8
0
  6
CONTINUOUS
 62
     7
 10
-526.749653044816
 20
-30.1530838012695
 30
0.0
 40
1.5
  0
LINE
  5
   528
  8
0
  6
CONTINUOUS
 62
     7
 10
-527.124653044816
 20
-15.6530838012695
 30
0.0
 11
-527.124653044816
 21
-11.1530838012695
 31
0.0
  0
LINE
  5
   529
  8
0
  6
CONTINUOUS
 62
     7
 10
-526.374653044815
 20
-15.6530838012695
 30
0.0
 11
-526.374653044815
 21
-11.1530838012695
 31
0.0
  0
LINE
  5
   52A
  8
0
  6
CONTINUOUS
 62
     7
 10
-521.874653044816
 20
-33.1530838012695
 30
0.0
 11
-521.874653044816
 21
-27.1530766566868
 31
0.0
  0
LINE
  5
   52B
  8
0
  6
CONTINUOUS
 62
     7
 10
-508.374653044816
 20
-33.1530838012695
 30
0.0
 11
-508.374653044816
 21
-27.1530806333099
 31
0.0
  0
LINE
  5
   52C
  8
0
  6
CONTINUOUS
 62
     7
 10
-508.374653044816
 20
-16.4030838012695
 30
0.0
 11
-508.374653044816
 21
-10.4030838012695
 31
0.0
  0
LINE
  5
   52D
  8
0
  6
CONTINUOUS
 62
     7
 10
-521.874653044816
 20
-16.4030838012695
 30
0.0
 11
-521.874653044816
 21
-10.4030838012695
 31
0.0
  0
LINE
  5
   52E
  8
0
  6
DASHDOT
 62
     7
 10
-515.124687490582
 20
29.2213719914473
 30
0.0
 11
-515.124687490582
 21
44.72188471085
 31
0.0
  0
LINE
  5
   52F
  8
0
  6
DASHDOT
 62
     7
 10
-515.124705400326
 20
38.2719087727657
 30
0.0
 11
-515.124705400326
 21
49.6719455525625
 31
0.0
  0
LINE
  5
   530
  8
0
  6
CONTINUOUS
 62
     7
 10
-509.749653044815
 20
-27.1884406235491
 30
0.0
 11
-520.499653044816
 21
-27.1884406235491
 31
0.0
  0
LINE
  5
   531
  8
0
  6
CONTINUOUS
 62
     7
 10
-509.749653044815
 20
-31.1489168005971
 30
0.0
 11
-520.499653044816
 21
-31.1489168005971
 31
0.0
  0
LINE
  5
   532
  8
0
  6
CONTINUOUS
 62
     7
 10
-509.749653044815
 20
-27.1884409742762
 30
0.0
 11
-520.499653044816
 21
-27.1884409742762
 31
0.0
  0
LINE
  5
   533
  8
0
  6
CONTINUOUS
 62
     7
 10
-509.749653044815
 20
-24.7153803863044
 30
0.0
 11
-520.499653044816
 21
-24.7153803863044
 31
0.0
  0
LINE
  5
   534
  8
0
  6
CONTINUOUS
 62
     7
 10
-489.624683628938
 20
31.2219085693359
 30
0.0
 11
-540.62468362894
 21
31.2219085693359
 31
0.0
  0
LINE
  5
   535
  8
0
  6
CONTINUOUS
 62
     7
 10
-540.624681599607
 20
23.5969047546367
 30
0.0
 11
-540.62468362894
 21
31.2219085693359
 31
0.0
  0
LINE
  5
   536
  8
0
  6
CONTINUOUS
 62
     7
 10
-489.624681599605
 20
23.5969047546367
 30
0.0
 11
-489.624683628938
 21
31.2219085693359
 31
0.0
  0
LINE
  5
   537
  8
0
  6
CONTINUOUS
 62
     3
 10
-522.624653044815
 20
-77.778076171875
 30
0.0
 11
-525.124653044815
 21
-77.778076171875
 31
0.0
  0
LINE
  5
   538
  8
0
  6
CONTINUOUS
 62
     3
 10
-505.124653044815
 20
-77.778076171875
 30
0.0
 11
-507.624653044815
 21
-77.778076171875
 31
0.0
  0
LINE
  5
   539
  8
0
  6
CONTINUOUS
 62
     7
 10
-540.874653074618
 20
-9.90308380126954
 30
0.0
 11
-541.374653044802
 21
-9.90308380126954
 31
0.0
  0
LINE
  5
   53A
  8
0
  6
CONTINUOUS
 62
     7
 10
-540.874653074618
 20
-10.4030838012695
 30
0.0
 11
-541.374653044813
 21
-10.4030838012695
 31
0.0
  0
LINE
  5
   53B
  8
0
  6
CONTINUOUS
 62
     7
 10
-540.874653074618
 20
-16.4030838012695
 30
0.0
 11
-541.374653044813
 21
-16.4030838012695
 31
0.0
  0
LINE
  5
   53C
  8
0
  6
CONTINUOUS
 62
     7
 10
-540.874653074618
 20
-16.9030838012695
 30
0.0
 11
-541.374653044827
 21
-16.9030838012695
 31
0.0
  0
LINE
  5
   53D
  8
0
  6
CONTINUOUS
 62
     7
 10
-540.874653074618
 20
-26.6530838012706
 30
0.0
 11
-541.374653044827
 21
-26.6530838012706
 31
0.0
  0
LINE
  5
   53E
  8
0
  6
CONTINUOUS
 62
     7
 10
-540.874653074618
 20
-27.1530838012706
 30
0.0
 11
-541.374653044818
 21
-27.1530838012706
 31
0.0
  0
LINE
  5
   53F
  8
0
  6
CONTINUOUS
 62
     7
 10
-540.874653074618
 20
-33.1530838012695
 30
0.0
 11
-541.374653044818
 21
-33.1530838012695
 31
0.0
  0
LINE
  5
   540
  8
0
  6
CONTINUOUS
 62
     7
 10
-540.874653074618
 20
-33.6530838012695
 30
0.0
 11
-541.374653044815
 21
-33.6530838012695
 31
0.0
  0
LINE
  5
   541
  8
0
  6
CONTINUOUS
 62
     7
 10
-489.37466067421
 20
-33.1530838012695
 30
0.0
 11
-540.874653074618
 21
-33.1530838012695
 31
0.0
  0
LINE
  5
   542
  8
0
  6
CONTINUOUS
 62
     7
 10
-489.37466067421
 20
-33.6530838012695
 30
0.0
 11
-540.874653074618
 21
-33.6530838012695
 31
0.0
  0
LINE
  5
   543
  8
0
  6
CONTINUOUS
 62
     7
 10
-489.37466067421
 20
-26.6530685424815
 30
0.0
 11
-509.749654537195
 21
-26.6530685424815
 31
0.0
  0
LINE
  5
   544
  8
0
  6
CONTINUOUS
 62
     7
 10
-489.37466067421
 20
-27.1530685424815
 30
0.0
 11
-509.749654720389
 21
-27.1530685424815
 31
0.0
  0
LINE
  5
   545
  8
0
  6
CONTINUOUS
 62
     7
 10
-489.37466067421
 20
-16.4030838012695
 30
0.0
 11
-509.749653044815
 21
-16.4030838012695
 31
0.0
  0
LINE
  5
   546
  8
0
  6
CONTINUOUS
 62
     7
 10
-489.37466067421
 20
-16.9030838012695
 30
0.0
 11
-509.749653044815
 21
-16.9030838012695
 31
0.0
  0
LINE
  5
   547
  8
0
  6
CONTINUOUS
 62
     7
 10
-489.37466067421
 20
-9.90308380126954
 30
0.0
 11
-540.874653074618
 21
-9.90308380126954
 31
0.0
  0
LINE
  5
   548
  8
0
  6
CONTINUOUS
 62
     7
 10
-489.37466067421
 20
-10.4030838012695
 30
0.0
 11
-540.874653074618
 21
-10.4030838012695
 31
0.0
  0
LINE
  5
   549
  8
0
  6
CONTINUOUS
 62
     7
 10
-557.62466625827
 20
44.571891784668
 30
0.0
 11
-557.624666842645
 21
45.4718847072173
 31
0.0
  0
LINE
  5
   54A
  8
0
  6
CONTINUOUS
 62
     7
 10
-542.249653044815
 20
44.4718627929685
 30
0.0
 11
-542.249653044815
 21
45.9718627929685
 31
0.0
  0
LINE
  5
   54B
  8
0
  6
CONTINUOUS
 62
     7
 10
-540.499653044816
 20
44.4718627929685
 30
0.0
 11
-540.499653044816
 21
45.9718627929685
 31
0.0
  0
LINE
  5
   54C
  8
0
  6
CONTINUOUS
 62
     7
 10
-542.249653044815
 20
44.4718627929687
 30
0.0
 11
-542.624653044815
 21
44.4718627929687
 31
0.0
  0
LINE
  5
   54D
  8
0
  6
CONTINUOUS
 62
     7
 10
-542.624653044815
 20
42.7218627929687
 30
0.0
 11
-542.624653044815
 21
44.471862912178
 31
0.0
  0
LINE
  5
   54E
  8
0
  6
CONTINUOUS
 62
     7
 10
-541.17516902363
 20
42.7218627929687
 30
0.0
 11
-542.624653044815
 21
42.7218627929687
 31
0.0
  0
LINE
  5
   54F
  8
0
  6
CONTINUOUS
 62
     7
 10
-540.124653044816
 20
43.8085266680502
 30
0.0
 11
-540.124653044816
 21
44.4718627929687
 31
0.0
  0
LINE
  5
   550
  8
0
  6
CONTINUOUS
 62
     7
 10
-540.124653044816
 20
44.4718627929687
 30
0.0
 11
-540.499653044816
 21
44.4718627929687
 31
0.0
  0
CIRCLE
  5
   551
  8
0
  6
CONTINUOUS
 62
     7
 10
-550.124716124722
 20
36.9715446827094
 30
0.0
 40
2.75032955665546
  0
CIRCLE
  5
   552
  8
0
  6
CONTINUOUS
 62
     7
 10
-550.124664260686
 20
43.9718924303883
 30
0.0
 40
0.699999862369895
  0
CIRCLE
  5
   553
  8
0
  6
CONTINUOUS
 62
     7
 10
-550.124653671684
 20
-79.0280771844917
 30
0.0
 40
0.700001026691361
  0
CIRCLE
  5
   554
  8
0
  6
CONTINUOUS
 62
     7
 10
-550.124652977547
 20
-72.0280782102232
 30
0.0
 40
2.74999793642075
  0
LINE
  5
   555
  8
0
  6
CONTINUOUS
 62
     7
 10
-543.999653044816
 20
-71.028076171875
 30
0.0
 11
-543.999653044816
 21
-69.028076171875
 31
0.0
  0
ARC
  5
   556
  8
0
  6
CONTINUOUS
 62
     7
 10
-541.374652371372
 20
-71.0280674101844
 30
0.0
 40
2.62499149271879
 50
121.002781363519
 51
241.56299252681
  0
CIRCLE
  5
   557
  8
0
  6
CONTINUOUS
 62
     7
 10
-541.37465217574
 20
-71.0280734942504
 30
0.0
 40
1.37499758123315
  0
LINE
  5
   558
  8
0
  6
CONTINUOUS
 62
     7
 10
-540.124653044816
 20
-74.278076171875
 30
0.0
 11
-542.624653044815
 21
-74.278076171875
 31
0.0
  0
LINE
  5
   559
  8
0
  6
CONTINUOUS
 62
     7
 10
-540.124653044816
 20
-74.278076171875
 30
0.0
 11
-540.124653044816
 21
-73.3363312643516
 31
0.0
  0
LINE
  5
   55A
  8
0
  6
CONTINUOUS
 62
     7
 10
-542.624653044815
 20
-74.278076171875
 30
0.0
 11
-542.624653044815
 21
-73.336330534968
 31
0.0
  0
LINE
  5
   55B
  8
0
  6
CONTINUOUS
 62
     7
 10
-538.749653044816
 20
-71.028076171875
 30
0.0
 11
-538.749653044816
 21
-69.028076171875
 31
0.0
  0
ARC
  5
   55C
  8
0
  6
CONTINUOUS
 62
     7
 10
-541.374652371372
 20
-71.0280674101844
 30
0.0
 40
2.62499149271879
 50
298.436973936778
 51
418.997218532549
  0
LINE
  5
   55D
  8
0
  6
CONTINUOUS
 62
     7
 10
-542.249653044813
 20
45.9718839411061
 30
0.0
 11
-557.1246669651
 21
45.9718839411061
 31
0.0
  0
LINE
  5
   55E
  8
0
  6
CONTINUOUS
 62
     3
 10
-542.249653044813
 20
-81.0280855413055
 30
0.0
 11
-557.124653044813
 21
-81.0280855413055
 31
0.0
  0
LINE
  5
   55F
  8
0
  6
CONTINUOUS
 62
     3
 10
-540.124653044813
 20
-79.528085541306
 30
0.0
 11
-540.124653044813
 21
-77.778085541306
 31
0.0
  0
LINE
  5
   560
  8
0
  6
CONTINUOUS
 62
     3
 10
-542.624653044813
 20
-79.5280856605152
 30
0.0
 11
-542.624653044813
 21
-77.778085541306
 31
0.0
  0
LINE
  5
   561
  8
0
  6
CONTINUOUS
 62
     3
 10
-540.124653044813
 20
-77.778085541306
 30
0.0
 11
-542.624653044813
 21
-77.778085541306
 31
0.0
  0
LINE
  5
   562
  8
0
  6
CONTINUOUS
 62
     3
 10
-540.499653044813
 20
-81.0280855413057
 30
0.0
 11
-540.499653044813
 21
-79.5280855413057
 31
0.0
  0
LINE
  5
   563
  8
0
  6
CONTINUOUS
 62
     3
 10
-542.249653044813
 20
-81.0280855413057
 30
0.0
 11
-542.249653044813
 21
-79.5280855413057
 31
0.0
  0
LINE
  5
   564
  8
0
  6
CONTINUOUS
 62
     3
 10
-542.249653044813
 20
-79.528085541306
 30
0.0
 11
-542.624653044813
 21
-79.528085541306
 31
0.0
  0
LINE
  5
   565
  8
0
  6
CONTINUOUS
 62
     3
 10
-540.124653044813
 20
-79.528085541306
 30
0.0
 11
-540.499653044813
 21
-79.528085541306
 31
0.0
  0
LINE
  5
   566
  8
0
  6
CONTINUOUS
 62
     7
 10
-543.999653044816
 20
-69.028076171875
 30
0.0
 11
-555.624653044816
 21
-69.028076171875
 31
0.0
  0
LINE
  5
   567
  8
0
  6
CONTINUOUS
 62
     7
 10
-551.874653044815
 20
-69.028076171875
 30
0.0
 11
-551.874653044815
 21
-68.778076171875
 31
0.0
  0
LINE
  5
   568
  8
0
  6
DASHDOT
 62
     7
 10
-550.124664260686
 20
38.2718925680184
 30
0.0
 11
-550.124664260686
 21
49.6718922927582
 31
0.0
  0
LINE
  5
   569
  8
0
  6
DASHDOT
 62
     7
 10
-544.424664398316
 20
43.9718924303883
 30
0.0
 11
-555.824664123056
 21
43.9718924303883
 31
0.0
  0
LINE
  5
   56A
  8
0
  6
DASHDOT
 62
     7
 10
-550.124716124722
 20
29.221215126054
 30
0.0
 11
-550.124716124722
 21
44.7218742393649
 31
0.0
  0
LINE
  5
   56B
  8
0
  6
DASHDOT
 62
     7
 10
-542.374386568066
 20
36.9715446827094
 30
0.0
 11
-557.875045681377
 21
36.9715446827094
 31
0.0
  0
LINE
  5
   56C
  8
0
  6
DASHDOT
 62
     7
 10
-541.374670160763
 20
28.3469298443153
 30
0.0
 11
-541.374670160763
 21
43.5968914389501
 31
0.0
  0
LINE
  5
   56D
  8
0
  6
DASHDOT
 62
     7
 10
-550.124652977547
 20
-79.7780761466439
 30
0.0
 11
-550.124652977547
 21
-64.2780802738024
 31
0.0
  0
LINE
  5
   56E
  8
0
  6
DASHDOT
 62
     7
 10
-542.374655041127
 20
-72.0280782102232
 30
0.0
 11
-557.874650913968
 21
-72.0280782102232
 31
0.0
  0
LINE
  5
   56F
  8
0
  6
DASHDOT
 62
     7
 10
-541.37465217574
 20
-77.4030710754836
 30
0.0
 11
-541.37465217574
 21
-64.6530759130173
 31
0.0
  0
LINE
  5
   570
  8
0
  6
DASHDOT
 62
     7
 10
-534.999654594506
 20
-71.0280734942504
 30
0.0
 11
-547.749649756973
 21
-71.0280734942504
 31
0.0
  0
LINE
  5
   571
  8
0
  6
DASHDOT
 62
     7
 10
-550.124653671684
 20
-84.728078211183
 30
0.0
 11
-550.124653671684
 21
-73.3280761578003
 31
0.0
  0
LINE
  5
   572
  8
0
  6
DASHDOT
 62
     7
 10
-544.424652644993
 20
-79.0280771844917
 30
0.0
 11
-555.824654698375
 21
-79.0280771844917
 31
0.0
  0
LINE
  5
   573
  8
0
  6
CONTINUOUS
 62
     7
 10
-549.374676077169
 20
2.84692234216126
 30
0.0
 11
-549.374676742523
 21
5.34692234216118
 31
0.0
  0
LINE
  5
   574
  8
0
  6
CONTINUOUS
 62
     7
 10
-548.124676077169
 20
2.84693145751976
 30
0.0
 11
-549.374676077169
 21
2.84693145751976
 31
0.0
  0
LINE
  5
   575
  8
0
  6
CONTINUOUS
 62
     7
 10
-548.124676077169
 20
2.84692267483858
 30
0.0
 11
-548.124676742523
 21
5.3469226748385
 31
0.0
  0
LINE
  5
   576
  8
0
  6
CONTINUOUS
 62
     7
 10
-548.124676742523
 20
5.34693145751966
 30
0.0
 11
-549.374676742523
 21
5.34693145751966
 31
0.0
  0
LINE
  5
   577
  8
0
  6
CONTINUOUS
 62
     7
 10
-549.374663635037
 20
-43.9030776578371
 30
0.0
 11
-549.374664832675
 21
-39.4030776578372
 31
0.0
  0
LINE
  5
   578
  8
0
  6
CONTINUOUS
 62
     7
 10
-548.124663635037
 20
-43.9030685424786
 30
0.0
 11
-549.374663635037
 21
-43.9030685424786
 31
0.0
  0
LINE
  5
   579
  8
0
  6
CONTINUOUS
 62
     7
 10
-548.1246680855
 20
-43.9030776935756
 30
0.0
 11
-548.124676912533
 21
-39.4030776935778
 31
0.0
  0
LINE
  5
   57A
  8
0
  6
CONTINUOUS
 62
     7
 10
-548.12467246207
 20
-39.4030685424787
 30
0.0
 11
-549.374664832675
 21
-39.4030685424787
 31
0.0
  0
LINE
  5
   57B
  8
0
  6
CONTINUOUS
 62
     7
 10
-549.374663901177
 20
-42.9030761718732
 30
0.0
 11
-558.624663901177
 21
-42.9030761718732
 31
0.0
  0
LINE
  5
   57C
  8
0
  6
CONTINUOUS
 62
     2
 10
-558.874663901177
 20
-42.9030878155792
 30
0.0
 11
-558.874677873624
 21
9.5969121844189
 31
0.0
  0
LINE
  5
   57D
  8
0
  6
CONTINUOUS
 62
     2
 10
-558.874677873624
 20
9.5969121844189
 30
0.0
 11
-558.874684294298
 21
33.7219198138125
 31
0.0
  0
LINE
  5
   57E
  8
0
  6
DASHDOT
 62
     2
 10
-515.124659368095
 20
-59.935658736836
 30
0.0
 11
-515.124684665934
 21
35.1183100116567
 31
0.0
  0
LINE
  5
   57F
  8
0
  6
CONTINUOUS
 62
     7
 10
-548.624663635037
 20
-43.9030774582307
 30
0.0
 11
-548.624664832676
 21
-39.4030774582308
 31
0.0
  0
LINE
  5
   580
  8
0
  6
CONTINUOUS
 62
     7
 10
-548.624676077169
 20
2.84692254176765
 30
0.0
 11
-548.624676742523
 21
5.34692254176757
 31
0.0
  0
LINE
  5
   581
  8
0
  6
CONTINUOUS
 62
     7
 10
-549.649665427058
 20
-42.9030777310265
 30
0.0
 11
-549.649679399503
 21
9.59691463957708
 31
0.0
  0
LINE
  5
   582
  8
0
  6
CONTINUOUS
 62
     7
 10
-551.449664187281
 20
-42.9030782100815
 30
0.0
 11
-551.449678159726
 21
9.59691416052208
 31
0.0
  0
LINE
  5
   583
  8
0
  6
CONTINUOUS
 62
     7
 10
-553.249664378016
 20
-42.9030786891369
 30
0.0
 11
-553.249678350461
 21
9.5969136814667
 31
0.0
  0
LINE
  5
   584
  8
0
  6
CONTINUOUS
 62
     7
 10
-555.049657205494
 20
-68.778076171875
 30
0.0
 11
-555.049678064359
 21
9.59691320241143
 31
0.0
  0
LINE
  5
   585
  8
0
  6
CONTINUOUS
 62
     7
 10
-546.049666952937
 20
-42.9030767729162
 30
0.0
 11
-546.049680925382
 21
9.59691559768736
 31
0.0
  0
LINE
  5
   586
  8
0
  6
CONTINUOUS
 62
     7
 10
-547.849670004695
 20
-42.9030772519724
 30
0.0
 11
-547.84968397714
 21
9.59691511863119
 31
0.0
  0
LINE
  5
   587
  8
0
  6
CONTINUOUS
 62
     7
 10
-556.599664282648
 20
-42.9030795807121
 30
0.0
 11
-556.599678255094
 21
9.5969127898915
 31
0.0
  0
LINE
  5
   588
  8
0
  6
CONTINUOUS
 62
     7
 10
-557.749664378016
 20
-42.9030798867753
 30
0.0
 11
-557.749678350461
 21
9.59691248382835
 31
0.0
  0
LINE
  5
   589
  8
0
  6
CONTINUOUS
 62
     7
 10
-542.449661592395
 20
-68.778076171875
 30
0.0
 11
-542.449664752825
 21
-56.9030933380146
 31
0.0
  0
LINE
  5
   58A
  8
0
  6
CONTINUOUS
 62
     7
 10
-544.249664644153
 20
-68.778076171875
 30
0.0
 11
-544.249667871108
 21
-56.6531334998743
 31
0.0
  0
LINE
  5
   58B
  8
0
  6
CONTINUOUS
 62
     7
 10
-553.249657425061
 20
-69.028076171875
 30
0.0
 11
-553.249664378016
 21
-42.9030782421021
 31
0.0
  0
LINE
  5
   58C
  8
0
  6
CONTINUOUS
 62
     7
 10
-549.649658540638
 20
-68.778076171875
 30
0.0
 11
-549.649665427058
 21
-42.9030772839917
 31
0.0
  0
LINE
  5
   58D
  8
0
  6
CONTINUOUS
 62
     7
 10
-551.449657300861
 20
-68.778076171875
 30
0.0
 11
-551.449664187281
 21
-42.9030777630467
 31
0.0
  0
LINE
  5
   58E
  8
0
  6
CONTINUOUS
 62
     7
 10
-546.049660066517
 20
-68.778076171875
 30
0.0
 11
-546.049666952937
 21
-42.9030763258814
 31
0.0
  0
LINE
  5
   58F
  8
0
  6
CONTINUOUS
 62
     7
 10
-547.849663118274
 20
-68.778076171875
 30
0.0
 11
-547.849670004695
 21
-42.9030768049376
 31
0.0
  0
LINE
  5
   590
  8
0
  6
CONTINUOUS
 62
     7
 10
-556.599657396229
 20
-68.778076171875
 30
0.0
 11
-556.599664282649
 21
-42.9030791336773
 31
0.0
  0
LINE
  5
   591
  8
0
  6
CONTINUOUS
 62
     7
 10
-557.749657968434
 20
-68.778076171875
 30
0.0
 11
-557.749664854853
 21
-42.9030794802912
 31
0.0
  0
LINE
  5
   592
  8
0
  6
CONTINUOUS
 62
     7
 10
-556.599678255094
 20
9.5969127898915
 30
0.0
 11
-556.599684675766
 21
33.7219127898906
 31
0.0
  0
LINE
  5
   593
  8
0
  6
CONTINUOUS
 62
     7
 10
-557.749678350461
 20
9.59691248382835
 30
0.0
 11
-557.749684771133
 21
33.7219124838275
 31
0.0
  0
LINE
  5
   594
  8
0
  6
CONTINUOUS
 62
     7
 10
-542.449686177244
 20
23.5969047546368
 30
0.0
 11
-542.449688871933
 21
33.7219165557967
 31
0.0
  0
LINE
  5
   595
  8
0
  6
CONTINUOUS
 62
     7
 10
-544.24968916247
 20
23.3469165310863
 30
0.0
 11
-544.249691923691
 21
33.7219160767406
 31
0.0
  0
LINE
  5
   596
  8
0
  6
CONTINUOUS
 62
     7
 10
-546.049680925382
 20
9.59691559768736
 30
0.0
 11
-546.049687346054
 21
33.7219155976865
 31
0.0
  0
LINE
  5
   597
  8
0
  6
CONTINUOUS
 62
     7
 10
-547.84968397714
 20
9.59691511863119
 30
0.0
 11
-547.849690397812
 21
33.7219151186303
 31
0.0
  0
LINE
  5
   598
  8
0
  6
CONTINUOUS
 62
     7
 10
-549.649679399503
 20
9.59691463957708
 30
0.0
 11
-549.649685820175
 21
33.7219146395762
 31
0.0
  0
LINE
  5
   599
  8
0
  6
CONTINUOUS
 62
     7
 10
-551.449678159726
 20
9.59691416052208
 30
0.0
 11
-551.449684580399
 21
33.7219141605212
 31
0.0
  0
LINE
  5
   59A
  8
0
  6
CONTINUOUS
 62
     7
 10
-553.249678350461
 20
9.5969136814667
 30
0.0
 11
-553.249684771133
 21
33.7219136814658
 31
0.0
  0
LINE
  5
   59B
  8
0
  6
CONTINUOUS
 62
     7
 10
-555.049678064359
 20
9.59691320241143
 30
0.0
 11
-555.049684485031
 21
33.7219132024106
 31
0.0
  0
ARC
  5
   59C
  8
0
  6
CONTINUOUS
 62
     7
 10
-558.624677807088
 20
9.34691225095436
 30
0.0
 40
0.25
 50
90.0000151968393
 51
180.000015196839
  0
ARC
  5
   59D
  8
0
  6
CONTINUOUS
 62
     2
 10
-489.124685436486
 20
9.34693074781116
 30
0.0
 40
0.25
 50
360.000015196839
 51
450.000015196839
  0
ARC
  5
   59E
  8
0
  6
CONTINUOUS
 62
     7
 10
-558.624663967712
 20
-42.6530877490438
 30
0.0
 40
0.25
 50
180.000015196839
 51
270.000015196839
  0
LINE
  5
   59F
  8
0
  6
CONTINUOUS
 62
     7
 10
-544.374697995023
 20
9.59691225095436
 30
0.0
 11
-558.624677807088
 21
9.59691225095436
 31
0.0
  0
LINE
  5
   5A0
  8
0
  6
CONTINUOUS
 62
     7
 10
-544.374697995023
 20
-42.903076171875
 30
0.0
 11
-548.124670047066
 21
-42.903076171875
 31
0.0
  0
LINE
  5
   5A1
  8
0
  6
CONTINUOUS
 62
     7
 10
-544.374697995023
 20
-51.028076171875
 30
0.0
 11
-558.874653044816
 21
-51.028076171875
 31
0.0
  0
LINE
  5
   5A2
  8
0
  6
DASHDOT
 62
     2
 10
-485.441476975662
 20
-16.653076171875
 30
0.0
 11
-576.988602746733
 21
-16.653076171875
 31
0.0
  0
LINE
  5
   5A3
  8
0
  6
CONTINUOUS
 62
     3
 10
-491.874653044816
 20
-82.2780855413055
 30
0.0
 11
-491.874653044816
 21
-81.0280761718741
 31
0.0
  0
LINE
  5
   5A4
  8
0
  6
CONTINUOUS
 62
     3
 10
-555.874653044815
 20
-82.2780855413055
 30
0.0
 11
-555.874653044815
 21
-81.0280855413055
 31
0.0
  0
LINE
  5
   5A5
  8
0
  6
CONTINUOUS
 62
     3
 10
-491.874653044816
 20
-82.2780855413055
 30
0.0
 11
-555.874653044815
 21
-82.2780855413055
 31
0.0
  0
INSERT
  5
   5A6
  8
255
  6
CONTINUOUS
 62
     7
  2
COPRITERMINALI
 10
-515.124705400326
 20
47.2219417887952
 30
0.0
 41
0.5
 42
0.5
 50
3.50835464724173E-15
 43
0.5
  0
LINE
  5
   5A7
  8
0
  6
CONTINUOUS
 62
     7
 10
-539.658776083315
 20
45.9718627929685
 30
0.0
 11
-540.499653044816
 21
45.9718627929685
 31
0.0
  0
LINE
  5
   5A8
  8
0
  6
DASHDOT
 62
     2
 10
-515.124664260686
 20
49.0969265201861
 30
0.0
 11
-515.124664260686
 21
75.3051382105651
 31
0.0
  0
LINE
  5
   5A9
  8
0
  6
CONTINUOUS
 62
     1
 10
-544.124669828086
 20
45.9719417887952
 30
0.0
 11
-544.124669828086
 21
48.7219417887952
 31
0.0
  0
LINE
  5
   5AA
  8
0
  6
CONTINUOUS
 62
     1
 10
-542.124669828086
 20
44.5719415742185
 30
0.0
 11
-542.499669828086
 21
44.5719415742185
 31
0.0
  0
LINE
  5
   5AB
  8
0
  6
CONTINUOUS
 62
     1
 10
-542.499669828086
 20
42.9719415503766
 30
0.0
 11
-542.499669828086
 21
44.5719415742185
 31
0.0
  0
LINE
  5
   5AC
  8
0
  6
CONTINUOUS
 62
     1
 10
-540.941736944005
 20
42.9719415503766
 30
0.0
 11
-542.499669828086
 21
42.9719415503766
 31
0.0
  0
LINE
  5
   5AD
  8
0
  6
CONTINUOUS
 62
     1
 10
-540.249669828086
 20
43.6999499990102
 30
0.0
 11
-540.249669828086
 21
44.5719415742185
 31
0.0
  0
LINE
  5
   5AE
  8
0
  6
CONTINUOUS
 62
     1
 10
-540.249669828086
 20
44.5719415742185
 30
0.0
 11
-540.624669828086
 21
44.5719415742185
 31
0.0
  0
LINE
  5
   5AF
  8
0
  6
CONTINUOUS
 62
     1
 10
-540.624669828086
 20
44.5719414550092
 30
0.0
 11
-540.624669828086
 21
47.2219415503766
 31
0.0
  0
LINE
  5
   5B0
  8
0
  6
CONTINUOUS
 62
     1
 10
-542.124669828086
 20
44.5719415742185
 30
0.0
 11
-542.124669828086
 21
47.2219415503766
 31
0.0
  0
LINE
  5
   5B1
  8
0
  6
CONTINUOUS
 62
     1
 10
-542.124669828086
 20
44.0719415742185
 30
0.0
 11
-542.124669828086
 21
44.5719415742185
 31
0.0
  0
LINE
  5
   5B2
  8
0
  6
CONTINUOUS
 62
     1
 10
-540.624669828086
 20
44.0719415742185
 30
0.0
 11
-540.624669828086
 21
44.5719415742185
 31
0.0
  0
LINE
  5
   5B3
  8
0
  6
CONTINUOUS
 62
     1
 10
-542.124669828086
 20
44.0719415742185
 30
0.0
 11
-542.499669828086
 21
44.0719415742185
 31
0.0
  0
LINE
  5
   5B4
  8
0
  6
CONTINUOUS
 62
     1
 10
-540.249669828086
 20
44.0719415742185
 30
0.0
 11
-540.624669828086
 21
44.0719415742185
 31
0.0
  0
LINE
  5
   5B5
  8
0
  6
CONTINUOUS
 62
     1
 10
-539.65880157755
 20
45.9719417887952
 30
0.0
 11
-540.624669828086
 21
45.9719417887952
 31
0.0
  0
LINE
  5
   5B6
  8
0
  6
CONTINUOUS
 62
     1
 10
-542.124669828086
 20
45.9719417887952
 30
0.0
 11
-544.124669828086
 21
45.9719417887952
 31
0.0
  0
LINE
  5
   5B7
  8
0
  6
CONTINUOUS
 62
     1
 10
-524.624669828086
 20
48.7219417887952
 30
0.0
 11
-526.624669828086
 21
48.7219417887952
 31
0.0
  0
LINE
  5
   5B8
  8
0
  6
CONTINUOUS
 62
     1
 10
-521.124669828086
 20
48.7219417887952
 30
0.0
 11
-523.124669828086
 21
48.7219417887952
 31
0.0
  0
LINE
  5
   5B9
  8
0
  6
CONTINUOUS
 62
     1
 10
-521.124669828086
 20
47.2219417887952
 30
0.0
 11
-521.124669828086
 21
48.7219417887952
 31
0.0
  0
LINE
  5
   5BA
  8
0
  6
CONTINUOUS
 62
     1
 10
-526.624669828086
 20
47.2219417887952
 30
0.0
 11
-526.624669828086
 21
48.7219417887952
 31
0.0
  0
LINE
  5
   5BB
  8
0
  6
CONTINUOUS
 62
     1
 10
-521.124669828086
 20
47.7219417887952
 30
0.0
 11
-526.624669828086
 21
47.7219417887952
 31
0.0
  0
TEXT
  5
   5BC
  8
0
  6
CONTINUOUS
 62
     7
 10
-586.9350677325
 20
-17.676825440135
 30
0.0
 40
3.00000002980232
  1
X
 50
359.999999948034
 41
0.916666604744064
 72
     2
 11
-584.735067863631
 21
-17.6768254421193
 31
0.0
  0
INSERT
  5
   5BD
  8
0
  6
CONTINUOUS
 62
     5
  2
*UDIM421
 10
0.0
 20
0.0
 30
0.0
  0
INSERT
  5
   5BE
  8
0
  6
CONTINUOUS
 62
     7
  2
*UDIM422
 10
0.0
 20
0.0
 30
0.0
  0
LINE
  5
   5BF
  8
0
  6
CONTINUOUS
 62
     7
 10
-565.12476159499
 20
63.221865485035
 30
0.0
 11
-565.124771767509
 21
73.2218578556353
 31
0.0
  0
LINE
  5
   5C0
  8
0
  6
CONTINUOUS
 62
     7
 10
-550.124761594998
 20
63.2218807438241
 30
0.0
 11
-550.124771767532
 21
73.2218883732135
 31
0.0
  0
LINE
  5
   5C1
  8
0
  6
CONTINUOUS
 62
     7
 10
-545.124749540563
 20
53.2468911933422
 30
0.0
 11
-550.124761594998
 21
63.2218807438241
 31
0.0
  0
LINE
  5
   5C2
  8
0
  6
CONTINUOUS
 62
     7
 10
-545.124742140043
 20
45.9718839411061
 30
0.0
 11
-545.124749540563
 21
53.2468911933422
 31
0.0
  0
LINE
  5
   5C3
  8
0
  6
CONTINUOUS
 62
     7
 10
-555.124741186374
 20
45.9718839411061
 30
0.0
 11
-555.124748586881
 21
53.2468783284882
 31
0.0
  0
LINE
  5
   5C4
  8
0
  6
CONTINUOUS
 62
     7
 10
-555.12474858688
 20
53.2468783284882
 30
0.0
 11
-565.12476159499
 21
63.221865485035
 31
0.0
  0
CIRCLE
  5
   5C5
  8
0
  6
CONTINUOUS
 62
     7
 10
-557.624765413476
 20
66.9718731144276
 30
0.0
 40
2.12499994657612
  0
LINE
  5
   5C6
  8
0
  6
CONTINUOUS
 62
     7
 10
-565.12476159499
 20
63.221865485035
 30
0.0
 11
-565.124771767509
 21
73.2218578556353
 31
0.0
  0
LINE
  5
   5C7
  8
0
  6
CONTINUOUS
 62
     7
 10
-542.624761595002
 20
63.2218883732186
 30
0.0
 11
-542.62477176752
 21
73.2218807438189
 31
0.0
  0
LINE
  5
   5C8
  8
0
  6
CONTINUOUS
 62
     7
 10
-542.624771793106
 20
73.2218807438189
 30
0.0
 11
-527.624771793796
 21
73.221896002608
 31
0.0
  0
CIRCLE
  5
   5C9
  8
0
  6
CONTINUOUS
 62
     7
 10
-535.124765639047
 20
66.971896002611
 30
0.0
 40
2.12499963844207
  0
LINE
  5
   5CA
  8
0
  6
CONTINUOUS
 62
     7
 10
-537.624751447914
 20
53.2468977697351
 30
0.0
 11
-542.624761595002
 21
63.2218883732187
 31
0.0
  0
LINE
  5
   5CB
  8
0
  6
CONTINUOUS
 62
     7
 10
-537.624745319012
 20
47.2219417887952
 30
0.0
 11
-537.624751447914
 21
53.246897769735
 31
0.0
  0
LINE
  5
   5CC
  8
0
  6
CONTINUOUS
 62
     7
 10
-527.624745319007
 20
47.2219417887952
 30
0.0
 11
-527.624771767528
 21
73.221896002608
 31
0.0
  0
LINE
  5
   5CD
  8
0
  6
CONTINUOUS
 62
     7
 10
-520.124771794141
 20
73.2219036320025
 30
0.0
 11
-505.12477179483
 21
73.2219188907916
 31
0.0
  0
LINE
  5
   5CE
  8
0
  6
CONTINUOUS
 62
     7
 10
-505.124761595021
 20
63.2219265201913
 30
0.0
 11
-505.12477176754
 21
73.2219188907916
 31
0.0
  0
LINE
  5
   5CF
  8
0
  6
CONTINUOUS
 62
     7
 10
-510.124751447928
 20
53.2469257441817
 30
0.0
 11
-505.124761595021
 21
63.2219265201913
 31
0.0
  0
CIRCLE
  5
   5D0
  8
0
  6
CONTINUOUS
 62
     7
 10
-512.624765409715
 20
66.9719188907948
 30
0.0
 40
2.12499987425176
  0
LINE
  5
   5D1
  8
0
  6
CONTINUOUS
 62
     7
 10
-510.124745318998
 20
47.2219417887952
 30
0.0
 11
-510.124751447928
 21
53.2469257441817
 31
0.0
  0
LINE
  5
   5D2
  8
0
  6
CONTINUOUS
 62
     7
 10
-520.124745319003
 20
47.2219417887952
 30
0.0
 11
-520.124771767532
 21
73.2219036320025
 31
0.0
  0
LINE
  5
   5D3
  8
0
  6
CONTINUOUS
 62
     7
 10
-502.624749133691
 20
47.2219417887952
 30
0.0
 11
-502.624755262622
 21
53.2469257632546
 31
0.0
  0
LINE
  5
   5D4
  8
0
  6
CONTINUOUS
 62
     7
 10
-492.624745318989
 20
47.2219417887952
 30
0.0
 11
-492.624751447937
 21
53.2469435461023
 31
0.0
  0
LINE
  5
   5D5
  8
0
  6
CONTINUOUS
 62
     7
 10
-502.624755262622
 20
53.2469257632546
 30
0.0
 11
-497.624761595025
 21
63.2219341495858
 31
0.0
  0
LINE
  5
   5D6
  8
0
  6
CONTINUOUS
 62
     7
 10
-497.624761595025
 20
63.2219341495858
 30
0.0
 11
-497.624771767559
 21
73.2219417789752
 31
0.0
  0
LINE
  5
   5D7
  8
0
  6
CONTINUOUS
 62
     7
 10
-482.624771767551
 20
73.2219417789752
 30
0.0
 11
-497.624771767559
 21
73.2219417789752
 31
0.0
  0
LINE
  5
   5D8
  8
0
  6
CONTINUOUS
 62
     7
 10
-482.624761595033
 20
63.2219494083749
 30
0.0
 11
-482.624771767551
 21
73.2219417789752
 31
0.0
  0
LINE
  5
   5D9
  8
0
  6
CONTINUOUS
 62
     7
 10
-492.624751447937
 20
53.2469435461023
 30
0.0
 11
-482.624761595033
 21
63.2219494083749
 31
0.0
  0
CIRCLE
  5
   5DA
  8
0
  6
CONTINUOUS
 62
     7
 10
-490.124765409726
 20
66.9719417789784
 30
0.0
 40
2.1249998301877
  0
LINE
  5
   5DB
  8
0
  6
CONTINUOUS
 62
     7
 10
-565.124771782352
 20
73.2218578556354
 30
0.0
 11
-550.124771782713
 21
73.2218883732135
 31
0.0
  0
LINE
  5
   5DC
  8
0
  6
CONTINUOUS
 62
     1
 10
-523.302089208001
 20
114.721951117043
 30
0.0
 11
-524.447250448171
 21
114.721951117043
 31
0.0
  0
INSERT
  5
   5DD
  8
0
  6
CONTINUOUS
 62
     7
  2
*UDIM423
 10
0.0
 20
0.0
 30
0.0
  0
LINE
  5
   5DE
  8
0
  6
CONTINUOUS
 62
     1
 10
-524.624669828086
 20
48.7219417887952
 30
0.0
 11
-524.447250448171
 21
114.721951117043
 31
0.0
  0
LINE
  5
   5DF
  8
0
  6
CONTINUOUS
 62
     1
 10
-523.124669828086
 20
48.7219417887952
 30
0.0
 11
-523.302089208001
 21
114.721951117043
 31
0.0
  0
LINE
  5
   5E0
  8
0
  6
DASHDOT
 62
     7
 10
-557.624765413476
 20
64.3468731678515
 30
0.0
 11
-557.624765413476
 21
69.5968730610037
 31
0.0
  0
LINE
  5
   5E1
  8
0
  6
DASHDOT
 62
     7
 10
-554.9997654669
 20
66.9718731144276
 30
0.0
 11
-560.249765360052
 21
66.9718731144276
 31
0.0
  0
LINE
  5
   5E2
  8
0
  6
DASHDOT
 62
     7
 10
-535.124765639047
 20
64.3468963641689
 30
0.0
 11
-535.124765639047
 21
69.5968956410531
 31
0.0
  0
LINE
  5
   5E3
  8
0
  6
DASHDOT
 62
     7
 10
-532.499766000605
 20
66.971896002611
 30
0.0
 11
-537.74976527749
 21
66.971896002611
 31
0.0
  0
LINE
  5
   5E4
  8
0
  6
DASHDOT
 62
     7
 10
-512.624765409715
 20
64.3469190165431
 30
0.0
 11
-512.624765409715
 21
69.5969187650466
 31
0.0
  0
LINE
  5
   5E5
  8
0
  6
DASHDOT
 62
     7
 10
-509.999765535463
 20
66.9719188907948
 30
0.0
 11
-515.249765283967
 21
66.9719188907948
 31
0.0
  0
LINE
  5
   5E6
  8
0
  6
DASHDOT
 62
     7
 10
-490.124765409726
 20
64.3469419487907
 30
0.0
 11
-490.124765409726
 21
69.5969416091661
 31
0.0
  0
LINE
  5
   5E7
  8
0
  6
DASHDOT
 62
     7
 10
-487.499765579539
 20
66.9719417789784
 30
0.0
 11
-492.749765239914
 21
66.9719417789784
 31
0.0
  0
LINE
  5
   5E8
  8
0
  6
CONTINUOUS
 62
     1
 10
-545.817544615144
 20
114.721951117043
 30
0.0
 11
-546.995439543546
 21
114.721951117043
 31
0.0
  0
LINE
  5
   5E9
  8
0
  6
CONTINUOUS
 62
     1
 10
-503.624669828086
 20
47.2219417887952
 30
0.0
 11
-503.624669828086
 21
48.7219417887952
 31
0.0
  0
LINE
  5
   5EA
  8
0
  6
CONTINUOUS
 62
     1
 10
-507.124669828086
 20
48.7219417887952
 30
0.0
 11
-509.124669828086
 21
48.7219417887952
 31
0.0
  0
LINE
  5
   5EB
  8
0
  6
CONTINUOUS
 62
     1
 10
-503.624669828086
 20
48.7219417887952
 30
0.0
 11
-505.624669828086
 21
48.7219417887952
 31
0.0
  0
LINE
  5
   5EC
  8
0
  6
CONTINUOUS
 62
     1
 10
-509.124669828086
 20
47.2219417887952
 30
0.0
 11
-509.124669828086
 21
48.7219417887952
 31
0.0
  0
LINE
  5
   5ED
  8
0
  6
CONTINUOUS
 62
     1
 10
-503.624669828086
 20
47.2219417887952
 30
0.0
 11
-509.124669828086
 21
47.2219417887952
 31
0.0
  0
LINE
  5
   5EE
  8
0
  6
CONTINUOUS
 62
     1
 10
-503.624669828086
 20
47.7219417887952
 30
0.0
 11
-509.124669828086
 21
47.7219417887952
 31
0.0
  0
LINE
  5
   5EF
  8
0
  6
CONTINUOUS
 62
     1
 10
-505.624669828086
 20
48.7219417887952
 30
0.0
 11
-505.624669828086
 21
54.8134793181034
 31
0.0
  0
LINE
  5
   5F0
  8
0
  6
DASHDOT
 62
     7
 10
-506.374669828086
 20
45.6595507945795
 30
0.0
 11
-506.374669828086
 21
54.0807964805873
 31
0.0
  0
LINE
  5
   5F1
  8
0
  6
CONTINUOUS
 62
     1
 10
-505.624669828086
 20
54.8134793181033
 30
0.0
 11
-500.525091012046
 21
63.4827625126161
 31
0.0
  0
LINE
  5
   5F2
  8
0
  6
CONTINUOUS
 62
     1
 10
-507.124669828086
 20
55.2219417887952
 30
0.0
 11
-502.039771496243
 21
63.8662681624562
 31
0.0
  0
LINE
  5
   5F3
  8
0
  6
CONTINUOUS
 62
     1
 10
-507.124669828086
 20
48.7219417887952
 30
0.0
 11
-507.124669828086
 21
55.2219417887952
 31
0.0
  0
LINE
  5
   5F4
  8
0
  6
CONTINUOUS
 62
     1
 10
-502.039771496243
 20
63.8662681624573
 30
0.0
 11
-501.931795041027
 21
114.721951117043
 31
0.0
  0
LINE
  5
   5F5
  8
0
  6
CONTINUOUS
 62
     1
 10
-500.525091012046
 20
63.4827625126169
 30
0.0
 11
-500.753900112625
 21
114.721951117043
 31
0.0
  0
LINE
  5
   5F6
  8
0
  6
CONTINUOUS
 62
     1
 10
-544.124669828086
 20
47.2219417887952
 30
0.0
 11
-544.124669828086
 21
48.7219417887952
 31
0.0
  0
LINE
  5
   5F7
  8
0
  6
CONTINUOUS
 62
     1
 10
-538.624669828086
 20
48.7219417887952
 30
0.0
 11
-540.624669828086
 21
48.7219417887952
 31
0.0
  0
LINE
  5
   5F8
  8
0
  6
CONTINUOUS
 62
     1
 10
-542.124669828086
 20
48.7219417887952
 30
0.0
 11
-544.124669828086
 21
48.7219417887952
 31
0.0
  0
LINE
  5
   5F9
  8
0
  6
CONTINUOUS
 62
     1
 10
-538.624669828086
 20
47.2219417887952
 30
0.0
 11
-538.624669828086
 21
48.7219417887952
 31
0.0
  0
LINE
  5
   5FA
  8
0
  6
CONTINUOUS
 62
     1
 10
-538.624669828086
 20
47.2219417887952
 30
0.0
 11
-544.124669828086
 21
47.2219417887952
 31
0.0
  0
LINE
  5
   5FB
  8
0
  6
CONTINUOUS
 62
     1
 10
-538.624669828086
 20
47.7219417887952
 30
0.0
 11
-544.124669828086
 21
47.7219417887952
 31
0.0
  0
LINE
  5
   5FC
  8
0
  6
CONTINUOUS
 62
     1
 10
-542.124669828086
 20
48.7219417887952
 30
0.0
 11
-542.124669828086
 21
54.8134793181034
 31
0.0
  0
LINE
  5
   5FD
  8
0
  6
DASHDOT
 62
     7
 10
-541.374669828086
 20
45.6595507945795
 30
0.0
 11
-541.374669828086
 21
54.0807964805873
 31
0.0
  0
LINE
  5
   5FE
  8
0
  6
CONTINUOUS
 62
     1
 10
-542.124669828086
 20
54.8134793181034
 30
0.0
 11
-547.224248644126
 21
63.4827625126161
 31
0.0
  0
LINE
  5
   5FF
  8
0
  6
CONTINUOUS
 62
     1
 10
-540.624669828086
 20
55.2219417887952
 30
0.0
 11
-545.709568159929
 21
63.8662681624562
 31
0.0
  0
LINE
  5
   600
  8
0
  6
CONTINUOUS
 62
     1
 10
-540.624669828086
 20
48.7219417887952
 30
0.0
 11
-540.624669828086
 21
55.2219417887952
 31
0.0
  0
LINE
  5
   601
  8
0
  6
CONTINUOUS
 62
     1
 10
-545.709568159929
 20
63.8662681624573
 30
0.0
 11
-545.817544615144
 21
114.721951117043
 31
0.0
  0
LINE
  5
   602
  8
0
  6
CONTINUOUS
 62
     1
 10
-547.224248644126
 20
63.4827625126169
 30
0.0
 11
-546.995439543546
 21
114.721951117043
 31
0.0
  0
LINE
  5
   603
  8
0
  6
CONTINUOUS
 62
     1
 10
-500.753900112626
 20
114.721951117043
 30
0.0
 11
-501.931795041027
 21
114.721951117043
 31
0.0
  0
INSERT
  5
   604
  8
0
  6
CONTINUOUS
 62
     7
  2
*UDIM424
 10
0.0
 20
0.0
 30
0.0
  0
INSERT
  5
   605
  8
0
  6
CONTINUOUS
 62
     7
  2
*UDIM425
 10
0.0
 20
0.0
 30
0.0
  0
INSERT
  5
   606
  8
0
  6
CONTINUOUS
 62
     7
  2
*UDIM426
 10
0.0
 20
0.0
 30
0.0
  0
INSERT
  5
   607
  8
0
  6
CONTINUOUS
 62
     7
  2
*UDIM427
 10
0.0
 20
0.0
 30
0.0
  0
INSERT
  5
   608
  8
0
  6
CONTINUOUS
 62
     7
  2
*UDIM428
 10
0.0
 20
0.0
 30
0.0
  0
INSERT
  5
   609
  8
0
  6
CONTINUOUS
 62
     7
  2
*UDIM429
 10
0.0
 20
0.0
 30
0.0
  0
INSERT
  5
   60A
  8
0
  6
CONTINUOUS
 62
     7
  2
*UDIM430
 10
0.0
 20
0.0
 30
0.0
  0
INSERT
  5
   60B
  8
0
  6
CONTINUOUS
 62
     7
  2
*UDIM431
 10
0.0
 20
0.0
 30
0.0
  0
INSERT
  5
   60C
  8
0
  6
CONTINUOUS
 62
     7
  2
*UDIM432
 10
0.0
 20
0.0
 30
0.0
  0
TEXT
  5
   60D
  8
0
  6
CONTINUOUS
 62
     7
 10
-518.045876480573
 20
-87.3950520762046
 30
0.0
 40
3.00000002980232
  1
Y
 50
359.999999948034
 41
0.916666604744064
 72
     2
 11
-515.845876611703
 21
-87.3950520781889
 31
0.0
  0
TEXT
  5
   60E
  8
0
  6
CONTINUOUS
 62
     7
 10
-529.640685970942
 20
-111.351600014267
 30
0.0
 40
3.00000002980232
  1
=         =
 50
359.999999948034
 41
0.916666604744064
 72
     2
 11
-499.940687686562
 21
-111.351600041055
 31
0.0
  0
INSERT
  5
   60F
  8
0
  6
CONTINUOUS
 62
     7
  2
*UDIM433
 10
0.0
 20
0.0
 30
0.0
  0
INSERT
  5
   610
  8
0
  6
CONTINUOUS
 62
     7
  2
*UDIM434
 10
0.0
 20
0.0
 30
0.0
  0
LINE
  5
   611
  8
0
  6
CONTINUOUS
 62
     7
 10
-550.031161794969
 20
105.809330347941
 30
0.0
 11
-542.212639122941
 21
107.546779830614
 31
0.0
  0
LINE
  5
   612
  8
0
  6
CONTINUOUS
 62
     7
 10
-527.531161794981
 20
105.809353236125
 30
0.0
 11
-519.712639122953
 21
107.546802718798
 31
0.0
  0
LINE
  5
   613
  8
0
  6
CONTINUOUS
 62
     7
 10
-505.031161794993
 20
105.809376124308
 30
0.0
 11
-497.212639122965
 21
107.546825606981
 31
0.0
  0
LINE
  5
   614
  8
0
  6
CONTINUOUS
 62
     7
 10
-493.575796975203
 20
53.2219417789752
 30
0.0
 11
-501.679113637996
 21
53.2219417789752
 31
0.0
  0
LINE
  5
   615
  8
0
  6
CONTINUOUS
 62
     7
 10
-493.624907985281
 20
48.4719417789752
 30
0.0
 11
-501.531780607763
 21
48.4719417789752
 31
0.0
  0
LINE
  5
   616
  8
0
  6
CONTINUOUS
 62
     7
 10
-511.124907985281
 20
48.4719417789752
 30
0.0
 11
-519.031780607763
 21
48.4719417789752
 31
0.0
  0
LINE
  5
   617
  8
0
  6
CONTINUOUS
 62
     7
 10
-511.075796975203
 20
53.2219417789752
 30
0.0
 11
-519.179113637996
 21
53.2219417789752
 31
0.0
  0
LINE
  5
   618
  8
0
  6
CONTINUOUS
 62
     7
 10
-528.575796975203
 20
53.2219417789752
 30
0.0
 11
-536.679113637996
 21
53.2219417789752
 31
0.0
  0
LINE
  5
   619
  8
0
  6
CONTINUOUS
 62
     7
 10
-528.624907985281
 20
48.4719417789752
 30
0.0
 11
-536.531780607763
 21
48.4719417789752
 31
0.0
  0
LINE
  5
   61A
  8
0
  6
CONTINUOUS
 62
     7
 10
-546.075796975203
 20
53.2219417789752
 30
0.0
 11
-554.179113637996
 21
53.2219417789752
 31
0.0
  0
LINE
  5
   61B
  8
0
  6
CONTINUOUS
 62
     7
 10
-546.124907985281
 20
48.4719417789752
 30
0.0
 11
-554.031780607763
 21
48.4719417789752
 31
0.0
  0
INSERT
  5
   61C
  8
0
  6
CONTINUOUS
 62
     7
  2
*UDIM435
 10
0.0
 20
0.0
 30
0.0
  0
INSERT
  5
   61D
  8
0
  6
CONTINUOUS
 62
     7
  2
*UDIM436
 10
0.0
 20
0.0
 30
0.0
  0
TEXT
  5
   61E
  8
0
  6
CONTINUOUS
 62
     7
 10
-467.756492626951
 20
-28.4954665361519
 30
0.0
 40
3.00000002980232
  1
=        =
 50
89.9999999480344
 41
0.916666604744064
 72
     2
 11
-467.756492602542
 21
-1.54546809332329
 31
0.0
  0
INSERT
  5
   61F
  8
0
  6
CONTINUOUS
 62
     7
  2
*UDIM437
 10
0.0
 20
0.0
 30
0.0
  0
INSERT
  5
   620
  8
0
  6
CONTINUOUS
 62
     7
  2
*UDIM438
 10
0.0
 20
0.0
 30
0.0
  0
INSERT
  5
   621
  8
0
  6
CONTINUOUS
 62
     7
  2
*UDIM439
 10
0.0
 20
0.0
 30
0.0
  0
INSERT
  5
   622
  8
0
  6
CONTINUOUS
 62
     7
  2
*UDIM440
 10
0.0
 20
0.0
 30
0.0
  0
INSERT
  5
   623
  8
0
  6
CONTINUOUS
 62
     7
  2
*UDIM441
 10
0.0
 20
0.0
 30
0.0
  0
TEXT
  5
   624
  8
0
  6
CONTINUOUS
 62
     7
 10
-458.741058261555
 20
-18.2339169912561
 30
0.0
 40
3.00000002980232
  1
X
 50
359.999999948034
 41
0.916666604744064
 72
     1
 11
-457.641058325768
 21
-16.7339169773471
 31
0.0
 73
     2
  0
TEXT
  5
   625
  8
0
  6
CONTINUOUS
 62
     7
 10
-516.846382053059
 20
77.2981264657752
 30
0.0
 40
3.00000002980232
  1
Y
 50
359.999999948034
 41
0.916666604744064
 72
     1
 11
-515.746382117271
 21
78.7981264796842
 31
0.0
 73
     2
  0
INSERT
  5
   626
  8
255
  6
CONTINUOUS
 62
     7
  2
MOSTRINA
 10
-572.543826412992
 20
-71.6434059143086
 30
0.0
 41
0.5
 42
0.5
 50
3.50835464724173E-15
 43
0.5
  0
LINE
  5
   627
  8
0
  6
CONTINUOUS
 62
     7
 10
-244.93424987793
 20
50.1308135986328
 30
0.0
 11
-216.93424987793
 21
50.1308135986328
 31
0.0
  0
LINE
  5
   628
  8
0
  6
CONTINUOUS
 62
     7
 10
-244.93424987793
 20
78.1308135986328
 30
0.0
 11
-216.93424987793
 21
78.1308135986328
 31
0.0
  0
LINE
  5
   629
  8
0
  6
CONTINUOUS
 62
     7
 10
-244.93424987793
 20
78.1308135986328
 30
0.0
 11
-244.93424987793
 21
50.1308135986328
 31
0.0
  0
LINE
  5
   62A
  8
0
  6
CONTINUOUS
 62
     7
 10
-216.93424987793
 20
78.1308135986328
 30
0.0
 11
-216.93424987793
 21
50.1308135986328
 31
0.0
  0
CIRCLE
  5
   62B
  8
0
  6
CONTINUOUS
 62
     7
 10
-240.93424987793
 20
81.8808135986328
 30
0.0
 40
0.875
  0
CIRCLE
  5
   62C
  8
0
  6
CONTINUOUS
 62
     7
 10
-220.93424987793
 20
81.8808135986328
 30
0.0
 40
0.875
  0
CIRCLE
  5
   62D
  8
0
  6
CONTINUOUS
 62
     7
 10
-240.93424987793
 20
46.3808135986328
 30
0.0
 40
0.875
  0
CIRCLE
  5
   62E
  8
0
  6
CONTINUOUS
 62
     7
 10
-220.93424987793
 20
46.3808135986328
 30
0.0
 40
0.875
  0
LINE
  5
   62F
  8
0
  6
DASHDOT
 62
     7
 10
-240.93424987793
 20
83.5058135986328
 30
0.0
 11
-240.93424987793
 21
80.2558135986328
 31
0.0
  0
LINE
  5
   630
  8
0
  6
DASHDOT
 62
     7
 10
-242.55924987793
 20
81.8808135986328
 30
0.0
 11
-239.30924987793
 21
81.8808135986328
 31
0.0
  0
LINE
  5
   631
  8
0
  6
DASHDOT
 62
     7
 10
-220.93424987793
 20
83.5058135986328
 30
0.0
 11
-220.93424987793
 21
80.2558135986328
 31
0.0
  0
LINE
  5
   632
  8
0
  6
DASHDOT
 62
     7
 10
-222.55924987793
 20
81.8808135986328
 30
0.0
 11
-219.30924987793
 21
81.8808135986328
 31
0.0
  0
LINE
  5
   633
  8
0
  6
DASHDOT
 62
     7
 10
-220.93424987793
 20
48.0058135986328
 30
0.0
 11
-220.93424987793
 21
44.7558135986328
 31
0.0
  0
LINE
  5
   634
  8
0
  6
DASHDOT
 62
     7
 10
-222.55924987793
 20
46.3808135986328
 30
0.0
 11
-219.30924987793
 21
46.3808135986328
 31
0.0
  0
LINE
  5
   635
  8
0
  6
DASHDOT
 62
     7
 10
-240.93424987793
 20
48.0058135986328
 30
0.0
 11
-240.93424987793
 21
44.7558135986328
 31
0.0
  0
LINE
  5
   636
  8
0
  6
DASHDOT
 62
     7
 10
-242.55924987793
 20
46.3808135986328
 30
0.0
 11
-239.30924987793
 21
46.3808135986328
 31
0.0
  0
LINE
  5
   637
  8
0
  6
DASHDOT
 62
     7
 10
-230.93424987793
 20
91.5009258839699
 30
0.0
 11
-230.93424987793
 21
35.0075627538118
 31
0.0
  0
LINE
  5
   638
  8
0
  6
CONTINUOUS
 62
     7
 10
-247.754826421595
 20
84.5319992538388
 30
0.0
 11
-213.800266198288
 21
84.5319992538388
 31
0.0
  0
LINE
  5
   639
  8
0
  6
CONTINUOUS
 62
     7
 10
-247.754826421595
 20
42.9669341528935
 30
0.0
 11
-213.800266198288
 21
42.9669341528935
 31
0.0
  0
LINE
  5
   63A
  8
0
  6
CONTINUOUS
 62
     7
 10
-213.800266198288
 20
84.5319992538388
 30
0.0
 11
-213.800266198288
 21
42.9669341528935
 31
0.0
  0
LINE
  5
   63B
  8
0
  6
CONTINUOUS
 62
     7
 10
-247.754826421595
 20
84.5319992538388
 30
0.0
 11
-247.754826421595
 21
42.9669341528935
 31
0.0
  0
LINE
  5
   63C
  8
0
  6
DASHDOT
 62
     7
 10
-255.095881761707
 20
64.1308135986328
 30
0.0
 11
-206.792917043844
 21
64.1308135986328
 31
0.0
  0
INSERT
  5
   63D
  8
0
  6
CONTINUOUS
 62
     7
  2
*UDIM442
 10
0.0
 20
0.0
 30
0.0
  0
TEXT
  5
   63E
  8
0
  6
CONTINUOUS
 62
     5
 10
-267.374009069578
 20
54.2091553855986
 30
0.0
 40
3.00000002980232
  1
=     =
 50
449.999999844103
 41
0.916666604744064
 72
     2
 11
-267.374009018815
 21
72.9091543037743
 31
0.0
  0
TEXT
  5
   63F
  8
0
  6
CONTINUOUS
 62
     5
 10
-256.310202535765
 20
53.534532849893
 30
0.0
 40
3.00000002980232
  1
=     =
 50
449.999999844103
 41
0.916666604744064
 72
     2
 11
-256.310202485001
 21
72.2345317680687
 31
0.0
  0
TEXT
  5
   640
  8
0
  6
CONTINUOUS
 62
     7
 10
-237.834791871014
 20
97.3551594649099
 30
0.0
 40
3.00000002980232
  1
=   =
 50
359.999999844103
 41
0.916666604744064
 72
     2
 11
-224.63479263594
 21
97.3551594290602
 31
0.0
  0
TEXT
  5
   641
  8
0
  6
CONTINUOUS
 62
     7
 10
-237.893334122601
 20
90.7984177504324
 30
0.0
 40
3.00000002980232
  1
=   =
 50
359.999999844103
 41
0.916666604744064
 72
     2
 11
-224.693334887527
 21
90.7984177145827
 31
0.0
  0
INSERT
  5
   642
  8
0
  6
CONTINUOUS
 62
     7
  2
*UDIM443
 10
0.0
 20
0.0
 30
0.0
  0
INSERT
  5
   643
  8
0
  6
CONTINUOUS
 62
     7
  2
*UDIM444
 10
0.0
 20
0.0
 30
0.0
  0
INSERT
  5
   644
  8
0
  6
CONTINUOUS
 62
     7
  2
*UDIM445
 10
0.0
 20
0.0
 30
0.0
  0
INSERT
  5
   645
  8
0
  6
CONTINUOUS
 62
     7
  2
*UDIM446
 10
0.0
 20
0.0
 30
0.0
  0
TEXT
  5
   646
  8
0
  6
CONTINUOUS
 62
     7
 10
-232.122529874348
 20
28.1557196879438
 30
0.0
 40
3.00000002980232
  1
Y
 50
359.999999844103
 41
0.916666604744064
 72
     2
 11
-229.922530005478
 21
28.1557196819688
 31
0.0
  0
TEXT
  5
   647
  8
0
  6
CONTINUOUS
 62
     7
 10
-231.185852418445
 20
106.895175864702
 30
0.0
 40
3.00000002980232
  1
Y
 50
359.999999844103
 41
0.916666604744064
 72
     2
 11
-228.985852549576
 21
106.895175858727
 31
0.0
  0
TEXT
  5
   648
  8
0
  6
CONTINUOUS
 62
     7
 10
-204.955484281086
 20
62.2604215645841
 30
0.0
 40
3.00000002980232
  1
X
 50
359.999999844103
 41
0.916666604744064
 72
     2
 11
-202.755484412216
 21
62.2604215586091
 31
0.0
  0
TEXT
  5
   649
  8
0
  6
CONTINUOUS
 62
     1
 10
-265.271728517429
 20
-157.17106644642
 30
0.0
 40
4.00000017881393
  1
605032/371
 50
359.999999948034
 41
0.937499973922969
 72
     2
 11
-228.521727917657
 21
-157.171066479567
 31
0.0
  0
TEXT
  5
   64A
  8
0
  6
CONTINUOUS
 62
     1
 10
-276.570454905339
 20
-130.879211444238
 30
0.0
 40
2.00000008940697
  1
4POLE LOW VOLTAGE M.C.C.B SERIES ISOMAX
 50
359.999999948034
 41
0.749999861419206
 72
     1
 11
-247.470458984375
 21
-129.879211425781
 31
0.0
 73
     2
  0
TEXT
  5
   64B
  8
0
  6
CONTINUOUS
 62
     1
 10
-281.07045427502
 20
-133.879211440179
 30
0.0
 40
2.00000008940697
  1
FIXED VERS. SPREADED EXTENDED FRONT TERMINALS
 50
359.999999948034
 41
0.749999861419206
 72
     1
 11
-247.470458984375
 21
-132.879211425781
 31
0.0
 73
     2
  0
TEXT
  5
   64C
  8
0
  6
CONTINUOUS
 62
     1
 10
-272.368063272693
 20
-137.949478173959
 30
0.0
 40
2.00000008940697
  1
INTERR.AUTOMATICO SERIE ISOMAX
 50
359.999999948034
 41
0.749999861419206
 72
     1
 11
-250.01806640625
 21
-136.949478149414
 31
0.0
 73
     2
  0
TEXT
  5
   64D
  8
0
  6
CONTINUOUS
 62
     1
 10
-286.618061276682
 20
-140.949478161106
 30
0.0
 40
2.00000008940697
  1
TETRAP.ESECUZIONE FISSA TERMINALI ANT.PROL.DIVAR.
 50
359.999999948034
 41
0.749999861419206
 72
     1
 11
-250.01806640625
 21
-139.949478149414
 31
0.0
 73
     2
  0
LINE
  5
   64E
  8
0
  6
CONTINUOUS
 62
     7
 10
-408.010274157872
 20
51.0511882999713
 30
0.0
 11
-400.60849116837
 21
54.5026958683307
 31
0.0
  0
LINE
  5
   64F
  8
0
  6
CONTINUOUS
 62
     7
 10
-400.60849116837
 20
54.5026958683308
 30
0.0
 11
-400.18771861588
 21
54.8717067936237
 31
0.0
  0
LINE
  5
   650
  8
0
  6
CONTINUOUS
 62
     7
 10
-400.031110034337
 20
55.4090069034869
 30
0.0
 11
-400.031110034337
 21
58.6032360294635
 31
0.0
  0
LINE
  5
   651
  8
0
  6
CONTINUOUS
 62
     7
 10
-400.031110034337
 20
64.8469341495807
 30
0.0
 11
-400.031110034337
 21
69.0969341495807
 31
0.0
  0
LINE
  5
   652
  8
0
  6
CONTINUOUS
 62
     7
 10
-400.031110034337
 20
69.0969341495807
 30
0.0
 11
-400.031110034337
 21
73.2219265201861
 31
0.0
  0
LINE
  5
   653
  8
0
  6
CONTINUOUS
 62
     7
 10
-397.531109080662
 20
73.2219265201861
 30
0.0
 11
-400.031110034337
 21
73.2219265201861
 31
0.0
  0
LINE
  5
   654
  8
0
  6
CONTINUOUS
 62
     7
 10
-397.531109080662
 20
69.0969341495807
 30
0.0
 11
-397.531109080662
 21
73.2219265201861
 31
0.0
  0
LINE
  5
   655
  8
0
  6
CONTINUOUS
 62
     7
 10
-397.531109080662
 20
69.0969341495807
 30
0.0
 11
-400.031110034337
 21
69.0969341495807
 31
0.0
  0
LINE
  5
   656
  8
0
  6
CONTINUOUS
 62
     7
 10
-397.531109080662
 20
64.8469341495807
 30
0.0
 11
-400.031110034337
 21
64.8469341495807
 31
0.0
  0
LINE
  5
   657
  8
0
  6
CONTINUOUS
 62
     7
 10
-397.531109080662
 20
58.6032360294635
 30
0.0
 11
-397.531109080662
 21
64.8469341495807
 31
0.0
  0
LINE
  5
   658
  8
0
  6
CONTINUOUS
 62
     7
 10
-400.031110034337
 20
58.6032360294635
 30
0.0
 11
-400.031110034337
 21
64.8469341495807
 31
0.0
  0
LINE
  5
   659
  8
0
  6
CONTINUOUS
 62
     7
 10
-397.531109080662
 20
64.8469341495807
 30
0.0
 11
-397.531109080662
 21
69.0969341495807
 31
0.0
  0
LINE
  5
   65A
  8
0
  6
CONTINUOUS
 62
     7
 10
-397.531109080662
 20
55.4090069034869
 30
0.0
 11
-397.531109080662
 21
58.6032360294635
 31
0.0
  0
LINE
  5
   65B
  8
0
  6
CONTINUOUS
 62
     7
 10
-400.18771861588
 20
54.8717067936237
 30
0.0
 11
-400.031110034337
 21
55.409006903487
 31
0.0
  0
ARC
  5
   65C
  8
0
  6
CONTINUOUS
 62
     7
 10
-401.031125262753
 20
55.4090111268953
 30
0.0
 40
3.50001618209298
 50
295.000173873923
 51
359.999930808182
  0
LINE
  5
   65D
  8
0
  6
CONTINUOUS
 62
     7
 10
-406.953737433778
 20
48.7854134728391
 30
0.0
 11
-399.551945910801
 21
52.2369259098346
 31
0.0
  0
LINE
  5
   65E
  8
0
  6
CONTINUOUS
 62
     7
 10
-405.58921819776
 20
48.5161801790582
 30
0.0
 11
-407.531110034337
 21
48.5161801790582
 31
0.0
  0
LINE
  5
   65F
  8
0
  6
CONTINUOUS
 62
     7
 10
-407.531110034337
 20
39.0969341495807
 30
0.0
 11
-407.531110034337
 21
47.8791199886154
 31
0.0
  0
ARC
  5
   660
  8
0
  6
CONTINUOUS
 62
     7
 10
-406.531125796763
 20
47.8791199886154
 30
0.0
 40
0.999984237584987
 50
115.000002273657
 51
179.999999948034
  0
ARC
  5
   661
  8
0
  6
CONTINUOUS
 62
     7
 10
-406.531087220315
 20
47.879087784882
 30
0.0
 40
3.50003081044566
 50
115.000180579361
 51
179.999555486069
  0
LINE
  5
   662
  8
0
  6
CONTINUOUS
 62
     7
 10
-410.031110034337
 20
39.0969341495807
 30
0.0
 11
-410.031110034337
 21
47.8791149357135
 31
0.0
  0
LINE
  5
   663
  8
0
  6
CONTINUOUS
 62
     7
 10
-407.531110034337
 20
39.0969341495807
 30
0.0
 11
-410.031110034337
 21
39.0969341495807
 31
0.0
  0
LINE
  5
   664
  8
0
  6
CONTINUOUS
 62
     7
 10
-407.531110034337
 20
34.8469341495807
 30
0.0
 11
-410.031110034337
 21
34.8469341495807
 31
0.0
  0
LINE
  5
   665
  8
0
  6
CONTINUOUS
 62
     7
 10
-410.031110034337
 20
31.9719341495807
 30
0.0
 11
-410.031110034337
 21
34.8469341495807
 31
0.0
  0
LINE
  5
   666
  8
0
  6
CONTINUOUS
 62
     7
 10
-407.531110034337
 20
31.9719341495807
 30
0.0
 11
-410.031110034337
 21
31.9719341495807
 31
0.0
  0
LINE
  5
   667
  8
0
  6
CONTINUOUS
 62
     7
 10
-407.531110034337
 20
31.9719341495807
 30
0.0
 11
-407.531110034337
 21
34.8469341495807
 31
0.0
  0
LINE
  5
   668
  8
0
  6
CONTINUOUS
 62
     7
 10
-407.531110034337
 20
34.8469341495807
 30
0.0
 11
-407.531110034337
 21
39.0969341495807
 31
0.0
  0
LINE
  5
   669
  8
0
  6
CONTINUOUS
 62
     7
 10
-410.031110034337
 20
41.9719341495807
 30
0.0
 11
-410.531110034337
 21
41.9719341495807
 31
0.0
  0
LINE
  5
   66A
  8
0
  6
CONTINUOUS
 62
     7
 10
-410.531110034337
 20
33.9719341495807
 30
0.0
 11
-410.531110034337
 21
34.9719341495806
 31
0.0
  0
LINE
  5
   66B
  8
0
  6
CONTINUOUS
 62
     7
 10
-410.031110034337
 20
33.9719341495807
 30
0.0
 11
-410.531110034337
 21
33.9719341495807
 31
0.0
  0
LINE
  5
   66C
  8
0
  6
DASHDOT
 62
     7
 10
-406.531110034337
 20
36.9719341495806
 30
0.0
 11
-411.031110034337
 21
36.9719341495806
 31
0.0
  0
LINE
  5
   66D
  8
0
  6
DASHDOT
 62
     7
 10
-396.531109080662
 20
66.9719341495806
 30
0.0
 11
-401.031110034337
 21
66.9719341495806
 31
0.0
  0
INSERT
  5
   66E
  8
0
  6
CONTINUOUS
 62
     7
  2
*HATCH278
 10
-371.031127929688
 20
-71.646614074707
 30
0.0
 41
0.5
 42
0.5
 50
89.9999999480344
 43
0.5
  0
INSERT
  5
   66F
  8
0
  6
CONTINUOUS
 62
     7
  2
*HATCH279
 10
-371.031127929688
 20
-71.646614074707
 30
0.0
 41
0.5
 42
0.5
 50
89.9999999480344
 43
0.5
  0
INSERT
  5
   670
  8
0
  6
CONTINUOUS
 62
     7
  2
*HATCH280
 10
-371.031127929688
 20
-71.646614074707
 30
0.0
 41
0.5
 42
0.5
 50
89.9999999480344
 43
0.5
  0
INSERT
  5
   671
  8
0
  6
CONTINUOUS
 62
     7
  2
*HATCH281
 10
-371.031127929688
 20
-71.646614074707
 30
0.0
 41
0.5
 42
0.5
 50
89.9999999480344
 43
0.5
  0
INSERT
  5
   672
  8
0
  6
CONTINUOUS
 62
     7
  2
*UDIM447
 10
0.0
 20
0.0
 30
0.0
  0
INSERT
  5
   673
  8
0
  6
CONTINUOUS
 62
     7
  2
*UDIM448
 10
0.0
 20
0.0
 30
0.0
  0
INSERT
  5
   674
  8
0
  6
CONTINUOUS
 62
     7
  2
*UDIM449
 10
0.0
 20
0.0
 30
0.0
  0
INSERT
  5
   675
  8
0
  6
CONTINUOUS
 62
     7
  2
*UDIM450
 10
0.0
 20
0.0
 30
0.0
  0
INSERT
  5
   676
  8
0
  6
CONTINUOUS
 62
     7
  2
*UDIM451
 10
0.0
 20
0.0
 30
0.0
  0
TEXT
  5
   677
  8
0
  6
CONTINUOUS
 62
     1
 10
-334.458484875419
 20
-146.220890080534
 30
0.0
 40
2.00000008940697
  1
N0035 00-03-15
 50
359.999999948034
 41
0.749999861419206
 72
     1
 11
-324.108486328125
 21
-145.220890045166
 31
0.0
 73
     2
  0
TEXT
  5
   678
  8
0
  6
CONTINUOUS
 62
     1
 10
-247.186035092036
 20
-148.189483561962
 30
0.0
 40
3.00000002980232
  1
S4
 50
359.999999948034
 41
0.916666604744064
 72
     2
 11
-242.236035381615
 21
-148.189483566427
 31
0.0
  0
LINE
  5
   679
  8
0
  6
CONTINUOUS
 62
     7
 10
-421.531112670899
 20
-2.77808380126953
 30
0.0
 11
-421.531112670899
 21
-2.52809906005859
 31
0.0
  0
LINE
  5
   67A
  8
0
  6
CONTINUOUS
 62
     7
 10
-421.531112670899
 20
4.97190093994141
 30
0.0
 11
-421.531112670899
 21
14.9718856811523
 31
0.0
  0
LINE
  5
   67B
  8
0
  6
CONTINUOUS
 62
     7
 10
-420.281097412109
 20
-2.52809906005859
 30
0.0
 11
-420.281097412109
 21
4.97190093994141
 31
0.0
  0
LINE
  5
   67C
  8
0
  6
CONTINUOUS
 62
     7
 10
-420.281097412109
 20
-2.52809906005859
 30
0.0
 11
-421.531112670899
 21
-2.52809906005859
 31
0.0
  0
LINE
  5
   67D
  8
0
  6
CONTINUOUS
 62
     7
 10
-420.281097412109
 20
4.97190093994141
 30
0.0
 11
-421.531112670899
 21
4.97190093994141
 31
0.0
  0
LINE
  5
   67E
  8
0
  6
CONTINUOUS
 62
     7
 10
-420.281097412109
 20
14.9718856811523
 30
0.0
 11
-420.281097412109
 21
22.4718856811523
 31
0.0
  0
LINE
  5
   67F
  8
0
  6
CONTINUOUS
 62
     7
 10
-420.281097412109
 20
14.9718856811523
 30
0.0
 11
-421.531112670899
 21
14.9718856811523
 31
0.0
  0
LINE
  5
   680
  8
0
  6
CONTINUOUS
 62
     7
 10
-420.281097412109
 20
22.4718856811523
 30
0.0
 11
-421.531112670899
 21
22.4718856811523
 31
0.0
  0
LINE
  5
   681
  8
0
  6
CONTINUOUS
 62
     7
 10
-387.281120300293
 20
-2.77809906005859
 30
0.0
 11
-387.281120300293
 21
24.7218856811523
 31
0.0
  0
LINE
  5
   682
  8
0
  6
CONTINUOUS
 62
     2
 10
-420.781109080662
 20
45.9719085693359
 30
0.0
 11
-421.531097412109
 21
45.9719085693359
 31
0.0
  0
LINE
  5
   683
  8
0
  6
CONTINUOUS
 62
     2
 10
-421.531143188709
 20
24.4718856811523
 30
0.0
 11
-421.531143188709
 21
34.7791976928711
 31
0.0
  0
LINE
  5
   684
  8
0
  6
CONTINUOUS
 62
     7
 10
-385.531112670899
 20
33.4718856811523
 30
0.0
 11
-387.281112670898
 21
33.4718856811523
 31
0.0
  0
LINE
  5
   685
  8
0
  6
CONTINUOUS
 62
     7
 10
-387.281166077015
 20
24.7218813215456
 30
0.0
 11
-387.281166077015
 21
33.4718813215456
 31
0.0
  0
LINE
  5
   686
  8
0
  6
CONTINUOUS
 62
     7
 10
-419.531112670898
 20
25.7218856811523
 30
0.0
 11
-421.531112670899
 21
25.7218856811523
 31
0.0
  0
LINE
  5
   687
  8
0
  6
CONTINUOUS
 62
     7
 10
-419.531111399516
 20
25.721879332916
 30
0.0
 11
-419.531108845149
 21
26.7262976251209
 31
0.0
  0
LINE
  5
   688
  8
0
  6
CONTINUOUS
 62
     7
 10
-387.281120300293
 20
-7.52809143066406
 30
0.0
 11
-387.281120300293
 21
-2.77808380126953
 31
0.0
  0
LINE
  5
   689
  8
0
  6
CONTINUOUS
 62
     7
 10
-421.531107571237
 20
-38.0280787120395
 30
0.0
 11
-421.531092312449
 21
-37.8809611568709
 31
0.0
  0
LINE
  5
   68A
  8
0
  6
CONTINUOUS
 62
     7
 10
-421.531097412249
 20
-30.1751980515057
 30
0.0
 11
-421.531097412249
 21
-2.77808806615418
 31
0.0
  0
LINE
  5
   68B
  8
0
  6
CONTINUOUS
 62
     7
 10
-386.031112670898
 20
-31.2780838012695
 30
0.0
 11
-420.031129455567
 21
-31.2780838012695
 31
0.0
  0
LINE
  5
   68C
  8
0
  6
CONTINUOUS
 62
     7
 10
-386.031112670898
 20
-36.7780838012695
 30
0.0
 11
-420.031129455567
 21
-36.7780838012695
 31
0.0
  0
LINE
  5
   68D
  8
0
  6
CONTINUOUS
 62
     7
 10
-417.415083172774
 20
-31.2780787166582
 30
0.0
 11
-421.531095569778
 21
-30.1751930035897
 31
0.0
  0
LINE
  5
   68E
  8
0
  6
CONTINUOUS
 62
     7
 10
-421.531093262788
 20
-37.8809654313059
 30
0.0
 11
-417.41508077101
 21
-36.7780832669097
 31
0.0
  0
LINE
  5
   68F
  8
0
  6
CONTINUOUS
 62
     7
 10
-385.531120300293
 20
-29.7780838012695
 30
0.0
 11
-389.531120300293
 21
-29.7780838012695
 31
0.0
  0
LINE
  5
   690
  8
0
  6
CONTINUOUS
 62
     7
 10
-389.531120300293
 20
-29.7780838012695
 30
0.0
 11
-389.531120300293
 21
-8.52809143066406
 31
0.0
  0
LINE
  5
   691
  8
0
  6
CONTINUOUS
 62
     7
 10
-421.031097412109
 20
-33.7780838012695
 30
0.0
 11
-421.031097412109
 21
-30.3091735839844
 31
0.0
  0
LINE
  5
   692
  8
0
  6
CONTINUOUS
 62
     7
 10
-421.03110445461
 20
-37.7469890478888
 30
0.0
 11
-421.031096825222
 21
-37.2780788288159
 31
0.0
  0
LINE
  5
   693
  8
0
  6
CONTINUOUS
 62
     2
 10
-421.531097412109
 20
-29.7780838012695
 30
0.0
 11
-422.531097412109
 21
-29.7780838012695
 31
0.0
  0
LINE
  5
   694
  8
0
  6
CONTINUOUS
 62
     2
 10
-421.531097412109
 20
-27.0280838012695
 30
0.0
 11
-422.531097412109
 21
-27.0280838012695
 31
0.0
  0
LINE
  5
   695
  8
0
  6
CONTINUOUS
 62
     7
 10
-385.531131105292
 20
-37.2780642881729
 30
0.0
 11
-386.031123459599
 21
-36.7780719338653
 31
0.0
  0
LINE
  5
   696
  8
0
  6
CONTINUOUS
 62
     7
 10
-386.031118989161
 20
-31.2780831002912
 30
0.0
 11
-385.531119006275
 21
-30.7780831174055
 31
0.0
  0
LINE
  5
   697
  8
0
  6
CONTINUOUS
 62
     7
 10
-387.281120300293
 20
-8.52809143066406
 30
0.0
 11
-387.281120300293
 21
-7.52809143066406
 31
0.0
  0
LINE
  5
   698
  8
0
  6
CONTINUOUS
 62
     2
 10
-420.531097412109
 20
-47.0280685424799
 30
0.0
 11
-422.531097412109
 21
-47.0280685424799
 31
0.0
  0
LINE
  5
   699
  8
0
  6
CONTINUOUS
 62
     7
 10
-421.531112670899
 20
-40.0280838012695
 30
0.0
 11
-421.531112670899
 21
-38.0280838012695
 31
0.0
  0
LINE
  5
   69A
  8
0
  6
CONTINUOUS
 62
     7
 10
-385.531120300293
 20
-44.5280685424805
 30
0.0
 11
-390.531112670898
 21
-44.5280685424805
 31
0.0
  0
LINE
  5
   69B
  8
0
  6
CONTINUOUS
 62
     7
 10
-390.531112670898
 20
-47.0280685424805
 30
0.0
 11
-390.531112670898
 21
-44.5280685424805
 31
0.0
  0
LINE
  5
   69C
  8
0
  6
CONTINUOUS
 62
     7
 10
-421.531112670899
 20
-45.7780590820491
 30
0.0
 11
-421.531112670899
 21
-40.0280838012695
 31
0.0
  0
LINE
  5
   69D
  8
0
  6
CONTINUOUS
 62
     2
 10
-421.531112670899
 20
24.4718856811523
 30
0.0
 11
-421.781097412109
 21
24.4718856811523
 31
0.0
  0
LINE
  5
   69E
  8
0
  6
CONTINUOUS
 62
     7
 10
-421.531105041504
 20
-10.7780838012695
 30
0.0
 11
-421.781097412109
 21
-10.7780838012695
 31
0.0
  0
LINE
  5
   69F
  8
0
  6
CONTINUOUS
 62
     7
 10
-421.531097412109
 20
-26.7780818939209
 30
0.0
 11
-421.781097412109
 21
-26.7780818939209
 31
0.0
  0
LINE
  5
   6A0
  8
0
  6
CONTINUOUS
 62
     7
 10
-421.031097412109
 20
-30.5280833244324
 30
0.0
 11
-421.781097412109
 21
-30.5280833244324
 31
0.0
  0
LINE
  5
   6A1
  8
0
  6
CONTINUOUS
 62
     7
 10
-421.531112670899
 20
-38.528076171875
 30
0.0
 11
-421.781097412109
 21
-38.528076171875
 31
0.0
  0
LINE
  5
   6A2
  8
0
  6
CONTINUOUS
 62
     2
 10
-421.781097412109
 20
-45.3280637670242
 30
0.0
 11
-421.781097412109
 21
-29.7780914306641
 31
0.0
  0
LINE
  5
   6A3
  8
0
  6
CONTINUOUS
 62
     2
 10
-421.781097412109
 20
-27.0280914306641
 30
0.0
 11
-421.781097412109
 21
24.4718780517578
 31
0.0
  0
LINE
  5
   6A4
  8
0
  6
CONTINUOUS
 62
     7
 10
-421.031097412109
 20
14.9719085693359
 30
0.0
 11
-421.031097412109
 21
22.4718856811523
 31
0.0
  0
LINE
  5
   6A5
  8
0
  6
CONTINUOUS
 62
     7
 10
-421.031097412109
 20
-2.52806854248047
 30
0.0
 11
-421.031097412109
 21
4.971923828125
 31
0.0
  0
LINE
  5
   6A6
  8
0
  6
CONTINUOUS
 62
     7
 10
-421.031097412109
 20
-37.2780456542969
 30
0.0
 11
-421.031097412109
 21
-33.7780456542969
 31
0.0
  0
LINE
  5
   6A7
  8
0
  6
CONTINUOUS
 62
     2
 10
-421.581101316626
 20
-45.5280598625081
 30
0.0
 11
-421.781098262563
 21
-45.3280629165712
 31
0.0
  0
LINE
  5
   6A8
  8
0
  6
CONTINUOUS
 62
     2
 10
-421.531097412109
 20
32.4718856811523
 30
0.0
 11
-422.531097412109
 21
32.4718856811523
 31
0.0
  0
LINE
  5
   6A9
  8
0
  6
CONTINUOUS
 62
     2
 10
-421.531097412109
 20
37.9718856811523
 30
0.0
 11
-422.531097412109
 21
37.9718856811523
 31
0.0
  0
LINE
  5
   6AA
  8
0
  6
CONTINUOUS
 62
     2
 10
-421.531097412109
 20
36.6277084350586
 30
0.0
 11
-422.531097412109
 21
36.6277084350586
 31
0.0
  0
LINE
  5
   6AB
  8
0
  6
CONTINUOUS
 62
     2
 10
-421.531097412109
 20
34.7791976928711
 30
0.0
 11
-422.531097412109
 21
34.7791976928711
 31
0.0
  0
LINE
  5
   6AC
  8
0
  6
CONTINUOUS
 62
     7
 10
-387.031127929688
 20
-1.2781164074898
 30
0.0
 11
-387.031127929688
 21
25.9719064806938
 31
0.0
  0
LINE
  5
   6AD
  8
0
  6
CONTINUOUS
 62
     7
 10
-373.031150817877
 20
33.9719002278771
 30
0.0
 11
-373.031150817877
 21
45.9719002278771
 31
0.0
  0
LINE
  5
   6AE
  8
0
  6
CONTINUOUS
 62
     7
 10
-373.031112670899
 20
33.9719027709784
 30
0.0
 11
-373.281112670898
 21
33.9719027709784
 31
0.0
  0
LINE
  5
   6AF
  8
0
  6
CONTINUOUS
 62
     7
 10
-373.281112670898
 20
33.7219027709784
 30
0.0
 11
-373.281112670898
 21
33.9719027709784
 31
0.0
  0
LINE
  5
   6B0
  8
0
  6
CONTINUOUS
 62
     7
 10
-385.531112670899
 20
33.2218951415839
 30
0.0
 11
-385.531112670899
 21
33.7219027709784
 31
0.0
  0
LINE
  5
   6B1
  8
0
  6
CONTINUOUS
 62
     7
 10
-373.031108856207
 20
45.9719180297593
 30
0.0
 11
-385.531108856207
 21
45.9719180297593
 31
0.0
  0
LINE
  5
   6B2
  8
0
  6
CONTINUOUS
 62
     7
 10
-374.281112670898
 20
33.7219027709784
 30
0.0
 11
-374.431114196777
 21
33.7219027709784
 31
0.0
  0
LINE
  5
   6B3
  8
0
  6
CONTINUOUS
 62
     7
 10
-385.531112670899
 20
33.221910400373
 30
0.0
 11
-387.031112670898
 21
33.221910400373
 31
0.0
  0
LINE
  5
   6B4
  8
0
  6
CONTINUOUS
 62
     7
 10
-387.031112670898
 20
25.971910400373
 30
0.0
 11
-387.031112670898
 21
33.221910400373
 31
0.0
  0
LINE
  5
   6B5
  8
0
  6
CONTINUOUS
 62
     7
 10
-385.531135559082
 20
-44.0280819702325
 30
0.0
 11
-385.531135559082
 21
-40.38977630617
 31
0.0
  0
LINE
  5
   6B6
  8
0
  6
CONTINUOUS
 62
     7
 10
-387.031120300293
 20
-7.27809722902157
 30
0.0
 11
-387.031120300293
 21
-1.27811248781063
 31
0.0
  0
LINE
  5
   6B7
  8
0
  6
CONTINUOUS
 62
     7
 10
-387.031120300293
 20
-8.52811248781062
 30
0.0
 11
-387.531120300293
 21
-8.52811248781062
 31
0.0
  0
LINE
  5
   6B8
  8
0
  6
CONTINUOUS
 62
     7
 10
-374.431129833585
 20
-45.5280667114328
 30
0.0
 11
-385.531135937101
 21
-45.5280667114328
 31
0.0
  0
LINE
  5
   6B9
  8
0
  6
CONTINUOUS
 62
     7
 10
-385.531135559082
 20
-45.5280819702325
 30
0.0
 11
-385.531135559082
 21
-44.0280819702325
 31
0.0
  0
LINE
  5
   6BA
  8
0
  6
CONTINUOUS
 62
     7
 10
-385.531127929688
 20
-40.38977630617
 30
0.0
 11
-385.531127929688
 21
-36.9030773650908
 31
0.0
  0
LINE
  5
   6BB
  8
0
  6
CONTINUOUS
 62
     7
 10
-374.281135559082
 20
-47.028089599627
 30
0.0
 11
-374.281135559082
 21
-45.528089599627
 31
0.0
  0
LINE
  5
   6BC
  8
0
  6
CONTINUOUS
 62
     7
 10
-374.281135559082
 20
-45.528089599627
 30
0.0
 11
-374.431129425764
 21
-45.528089599627
 31
0.0
  0
LINE
  5
   6BD
  8
0
  6
CONTINUOUS
 62
     7
 10
-387.531120300293
 20
-8.52811248781062
 30
0.0
 11
-389.531120300293
 21
-8.52811248781062
 31
0.0
  0
LINE
  5
   6BE
  8
0
  6
CONTINUOUS
 62
     7
 10
-387.031120300293
 20
-8.52811248781062
 30
0.0
 11
-387.031120300293
 21
-7.27809722902157
 31
0.0
  0
LINE
  5
   6BF
  8
0
  6
CONTINUOUS
 62
     7
 10
-374.431131534744
 20
-36.9030667114348
 30
0.0
 11
-385.531130008865
 21
-36.9030667114348
 31
0.0
  0
LINE
  5
   6C0
  8
0
  6
CONTINUOUS
 62
     7
 10
-374.431135211974
 20
-31.1530667114362
 30
0.0
 11
-385.531133686095
 21
-31.1530667114362
 31
0.0
  0
LINE
  5
   6C1
  8
0
  6
CONTINUOUS
 62
     7
 10
-384.881615206026
 20
-43.653073411903
 30
0.0
 11
-384.781136095792
 21
-43.27807341708
 31
0.0
  0
LINE
  5
   6C2
  8
0
  6
CONTINUOUS
 62
     7
 10
-385.156130888141
 20
-43.9275979446324
 30
0.0
 11
-384.881617661641
 21
-43.6530770819134
 31
0.0
  0
LINE
  5
   6C3
  8
0
  6
CONTINUOUS
 62
     7
 10
-385.53114420178
 20
-44.0280702523925
 30
0.0
 11
-385.156136587507
 21
-43.9275911345111
 31
0.0
  0
LINE
  5
   6C4
  8
0
  6
CONTINUOUS
 62
     7
 10
-385.156132409624
 20
-38.1285600079855
 30
0.0
 11
-385.531132406874
 21
-38.0280732614582
 31
0.0
  0
LINE
  5
   6C5
  8
0
  6
CONTINUOUS
 62
     7
 10
-384.881619819282
 20
-38.4030774366946
 30
0.0
 11
-385.156133049602
 21
-38.1285642063745
 31
0.0
  0
LINE
  5
   6C6
  8
0
  6
CONTINUOUS
 62
     7
 10
-384.781141285714
 20
-38.7780767415284
 30
0.0
 11
-384.881628032241
 21
-38.403076744278
 31
0.0
  0
LINE
  5
   6C7
  8
0
  6
CONTINUOUS
 62
     7
 10
-384.781139797617
 20
-43.278079001915
 30
0.0
 11
-384.781132168223
 21
-38.778079001915
 31
0.0
  0
LINE
  5
   6C8
  8
0
  6
CONTINUOUS
 62
     7
 10
-374.431129455567
 20
-45.528089599627
 30
0.0
 11
-374.431129455567
 21
33.7218965145858
 31
0.0
  0
LINE
  5
   6C9
  8
0
  6
CONTINUOUS
 62
     7
 10
-374.431106567383
 20
44.5719088744941
 30
0.0
 11
-385.239835420967
 21
44.5719088744941
 31
0.0
  0
LINE
  5
   6CA
  8
0
  6
CONTINUOUS
 62
     7
 10
-374.431159973151
 20
33.7218993254954
 30
0.0
 11
-374.431159973151
 21
44.571905429011
 31
0.0
  0
LINE
  5
   6CB
  8
0
  6
CONTINUOUS
 62
     7
 10
-385.531112670899
 20
33.721910400373
 30
0.0
 11
-385.531112670899
 21
43.9292197165797
 31
0.0
  0
LINE
  5
   6CC
  8
0
  6
CONTINUOUS
 62
     7
 10
-366.281105041504
 20
-42.9030590820489
 30
0.0
 11
-366.281105041504
 21
-33.653076171875
 31
0.0
  0
LINE
  5
   6CD
  8
0
  6
CONTINUOUS
 62
     7
 10
-366.281105041504
 20
8.47192565916203
 30
0.0
 11
-366.281105041504
 21
8.59692565916203
 31
0.0
  0
LINE
  5
   6CE
  8
0
  6
CONTINUOUS
 62
     7
 10
-369.031102180481
 20
9.59692565916203
 30
0.0
 11
-370.781105041504
 21
9.59692565916203
 31
0.0
  0
LINE
  5
   6CF
  8
0
  6
CONTINUOUS
 62
     7
 10
-369.031102180481
 20
-42.9030590820489
 30
0.0
 11
-370.781105041504
 21
-42.9030590820489
 31
0.0
  0
LINE
  5
   6D0
  8
0
  6
CONTINUOUS
 62
     7
 10
-374.281105041504
 20
-51.0280590820489
 30
0.0
 11
-374.281105041504
 21
-45.528089599627
 31
0.0
  0
LINE
  5
   6D1
  8
0
  6
CONTINUOUS
 62
     7
 10
-371.781105041504
 20
-51.0280590820489
 30
0.0
 11
-371.781105041504
 21
-42.9030590820489
 31
0.0
  0
LINE
  5
   6D2
  8
0
  6
CONTINUOUS
 62
     7
 10
-371.781105041504
 20
9.59692565916203
 30
0.0
 11
-371.781105041504
 21
33.721925659162
 31
0.0
  0
LINE
  5
   6D3
  8
0
  6
CONTINUOUS
 62
     7
 10
-371.781105041504
 20
33.721925659162
 30
0.0
 11
-374.281105041504
 21
33.721925659162
 31
0.0
  0
LINE
  5
   6D4
  8
0
  6
CONTINUOUS
 62
     7
 10
-371.781105041504
 20
-51.0280590820489
 30
0.0
 11
-374.281105041504
 21
-51.0280590820489
 31
0.0
  0
LINE
  5
   6D5
  8
0
  6
CONTINUOUS
 62
     7
 10
-370.781105041504
 20
-42.9030590820489
 30
0.0
 11
-370.781105041504
 21
9.59692565916203
 31
0.0
  0
LINE
  5
   6D6
  8
0
  6
CONTINUOUS
 62
     7
 10
-370.781105041504
 20
-42.9030590820489
 30
0.0
 11
-371.781105041504
 21
-42.9030590820489
 31
0.0
  0
LINE
  5
   6D7
  8
0
  6
CONTINUOUS
 62
     7
 10
-370.781105041504
 20
9.59692565916203
 30
0.0
 11
-371.781105041504
 21
9.59692565916203
 31
0.0
  0
LINE
  5
   6D8
  8
0
  6
CONTINUOUS
 62
     7
 10
-374.431141035682
 20
-30.8780972774184
 30
0.0
 11
-374.281139516758
 21
-30.864974720431
 31
0.0
  0
LINE
  5
   6D9
  8
0
  6
CONTINUOUS
 62
     7
 10
-374.281113730722
 20
-37.1912099929738
 30
0.0
 11
-374.431115253841
 21
-37.1780798065674
 31
0.0
  0
LINE
  5
   6DA
  8
0
  6
CONTINUOUS
 62
     7
 10
-385.531127929688
 20
-31.1530773650894
 30
0.0
 11
-385.531127929688
 21
-29.7780972290216
 31
0.0
  0
LINE
  5
   6DB
  8
0
  6
CONTINUOUS
 62
   218
 10
-374.43110704422
 20
-79.6280594635189
 30
0.0
 11
-398.231346188355
 21
-79.6280594635189
 31
0.0
  0
LINE
  5
   6DC
  8
0
  6
CONTINUOUS
 62
     2
 10
-420.531097412109
 20
-45.7780590820491
 30
0.0
 11
-422.53109741211
 21
-45.7780590820491
 31
0.0
  0
LINE
  5
   6DD
  8
0
  6
CONTINUOUS
 62
     7
 10
-374.431098937988
 20
-45.7780590820491
 30
0.0
 11
-383.031105041504
 21
-45.7780590820491
 31
0.0
  0
LINE
  5
   6DE
  8
0
  6
CONTINUOUS
 62
   218
 10
-373.031097412109
 20
-81.0280590820491
 30
0.0
 11
-373.031097412109
 21
-69.0280667114437
 31
0.0
  0
LINE
  5
   6DF
  8
0
  6
CONTINUOUS
 62
     2
 10
-420.531097412109
 20
-47.0280590820491
 30
0.0
 11
-420.531097412109
 21
-45.7780590820491
 31
0.0
  0
LINE
  5
   6E0
  8
0
  6
CONTINUOUS
 62
   218
 10
-374.431103039357
 20
-67.0280667118914
 30
0.0
 11
-374.281105041894
 21
-67.0280649512896
 31
0.0
  0
LINE
  5
   6E1
  8
0
  6
CONTINUOUS
 62
   218
 10
-373.031097412109
 20
-69.0280667114437
 30
0.0
 11
-374.431098937988
 21
-69.0280667114437
 31
0.0
  0
LINE
  5
   6E2
  8
0
  6
CONTINUOUS
 62
   218
 10
-374.431098937988
 20
-79.6280575561702
 30
0.0
 11
-374.431098937988
 21
-67.0280590820491
 31
0.0
  0
LINE
  5
   6E3
  8
0
  6
CONTINUOUS
 62
   218
 10
-374.431098937988
 20
-67.0280590820491
 30
0.0
 11
-374.431098937988
 21
-45.7780590820491
 31
0.0
  0
LINE
  5
   6E4
  8
0
  6
CONTINUOUS
 62
     7
 10
-374.281105041504
 20
-51.5280590820491
 30
0.0
 11
-374.431098937988
 21
-51.5280590820491
 31
0.0
  0
LINE
  5
   6E5
  8
0
  6
CONTINUOUS
 62
   218
 10
-422.531097412151
 20
-64.0280667109489
 30
0.0
 11
-421.531097889011
 21
-64.0280590815544
 31
0.0
  0
LINE
  5
   6E6
  8
0
  6
CONTINUOUS
 62
   218
 10
-421.531097888947
 20
-81.0280590820489
 30
0.0
 11
-421.531097888947
 21
-64.0280667114434
 31
0.0
  0
LINE
  5
   6E7
  8
0
  6
CONTINUOUS
 62
   218
 10
-421.531097412109
 20
-69.4030667114437
 30
0.0
 11
-422.531097412109
 21
-69.4030667114437
 31
0.0
  0
LINE
  5
   6E8
  8
0
  6
CONTINUOUS
 62
     7
 10
-385.531110762473
 20
-45.7780590793282
 30
0.0
 11
-385.531103133079
 21
-44.7780590793053
 31
0.0
  0
LINE
  5
   6E9
  8
0
  6
CONTINUOUS
 62
     7
 10
-385.531097412109
 20
-44.7780590820491
 30
0.0
 11
-390.531097412109
 21
-44.7780590820491
 31
0.0
  0
LINE
  5
   6EA
  8
0
  6
CONTINUOUS
 62
     7
 10
-383.031105041504
 20
-45.7780590820491
 30
0.0
 11
-385.531105041504
 21
-45.7780590820491
 31
0.0
  0
LINE
  5
   6EB
  8
0
  6
CONTINUOUS
 62
   218
 10
-421.531097412109
 20
-73.7618623542965
 30
0.0
 11
-422.53109741211
 21
-73.7618623542965
 31
0.0
  0
LINE
  5
   6EC
  8
0
  6
CONTINUOUS
 62
   218
 10
-421.531097412109
 20
-72.5353680420101
 30
0.0
 11
-422.531097412109
 21
-72.5353680420101
 31
0.0
  0
LINE
  5
   6ED
  8
0
  6
CONTINUOUS
 62
   218
 10
-421.531097412109
 20
-69.4669552612484
 30
0.0
 11
-422.531097412109
 21
-69.4669552612484
 31
0.0
  0
LINE
  5
   6EE
  8
0
  6
CONTINUOUS
 62
     7
 10
-371.781105041504
 20
-51.2780590820489
 30
0.0
 11
-374.281105041504
 21
-51.2780590820489
 31
0.0
  0
LINE
  5
   6EF
  8
0
  6
CONTINUOUS
 62
     7
 10
-371.781105041504
 20
-68.7780590820489
 30
0.0
 11
-374.281105041504
 21
-68.7780590820489
 31
0.0
  0
LINE
  5
   6F0
  8
0
  6
CONTINUOUS
 62
     7
 10
-371.781105041504
 20
-68.7780590820489
 30
0.0
 11
-371.781105041504
 21
-51.2780590820489
 31
0.0
  0
LINE
  5
   6F1
  8
0
  6
CONTINUOUS
 62
     7
 10
-372.781105041504
 20
-68.7780590820489
 30
0.0
 11
-372.781105041504
 21
-51.2780590820489
 31
0.0
  0
LINE
  5
   6F2
  8
0
  6
CONTINUOUS
 62
     7
 10
-374.281105041504
 20
-68.7780590820489
 30
0.0
 11
-374.281105041504
 21
-51.2780590820489
 31
0.0
  0
ARC
  5
   6F3
  8
0
  6
CONTINUOUS
 62
     7
 10
-355.943578656248
 20
-27.6749998145804
 30
0.0
 40
0.499999897877905
 50
348.623573369035
 51
436.688788706936
  0
ARC
  5
   6F4
  8
0
  6
CONTINUOUS
 62
     7
 10
-356.541950856166
 20
-30.6489087985792
 30
0.0
 40
0.50000037262337
 50
260.593992196011
 51
348.623573369035
  0
LINE
  5
   6F5
  8
0
  6
DASHDOT
 62
     7
 10
-348.543286330474
 20
-30.7293304524776
 30
0.0
 11
-373.601629564928
 21
-25.6874102845794
 31
0.0
  0
LINE
  5
   6F6
  8
0
  6
CONTINUOUS
 62
     7
 10
-355.828458683901
 20
-27.1884333448817
 30
0.0
 11
-366.281105041504
 21
-24.7153727569098
 31
0.0
  0
LINE
  5
   6F7
  8
0
  6
CONTINUOUS
 62
     7
 10
-356.051774411286
 20
-30.7475358498627
 30
0.0
 11
-355.453402375661
 21
-27.773626832807
 31
0.0
  0
LINE
  5
   6F8
  8
0
  6
CONTINUOUS
 62
     7
 10
-356.623665594759
 20
-31.1421865214506
 30
0.0
 11
-366.281105041504
 21
-29.5423673865493
 31
0.0
  0
LINE
  5
   6F9
  8
0
  6
CONTINUOUS
 62
     7
 10
-420.031129455567
 20
-36.7780838012695
 30
0.0
 11
-420.031129455567
 21
-31.2780838012695
 31
0.0
  0
LINE
  5
   6FA
  8
0
  6
CONTINUOUS
 62
     7
 10
-410.531110034337
 20
41.9719085693359
 30
0.0
 11
-412.531109080662
 21
41.9719085693359
 31
0.0
  0
LINE
  5
   6FB
  8
0
  6
DASHDOT
 62
     7
 10
-402.179138594186
 20
36.9719341495806
 30
0.0
 11
-416.245780611625
 21
36.9719341495806
 31
0.0
  0
LINE
  5
   6FC
  8
0
  6
CONTINUOUS
 62
     7
 10
-410.531110034337
 20
38.9719341495806
 30
0.0
 11
-412.531109080662
 21
38.9719341495806
 31
0.0
  0
LINE
  5
   6FD
  8
0
  6
CONTINUOUS
 62
     7
 10
-410.531110034337
 20
34.9719341495806
 30
0.0
 11
-412.531109080662
 21
34.9719341495806
 31
0.0
  0
LINE
  5
   6FE
  8
0
  6
CONTINUOUS
 62
     7
 10
-405.404762207149
 20
26.726297619951
 30
0.0
 11
-403.133334143439
 21
31.738093734717
 31
0.0
  0
LINE
  5
   6FF
  8
0
  6
CONTINUOUS
 62
     7
 10
-410.031110034337
 20
26.7262976199511
 30
0.0
 11
-410.031110034337
 21
31.9719341495806
 31
0.0
  0
LINE
  5
   700
  8
0
  6
CONTINUOUS
 62
     7
 10
-412.531109080662
 20
26.7262976199511
 30
0.0
 11
-412.531109080662
 21
34.9719341495806
 31
0.0
  0
LINE
  5
   701
  8
0
  6
CONTINUOUS
 62
     2
 10
-421.531143188709
 20
36.6277084350586
 30
0.0
 11
-421.531143188709
 21
45.9719080307963
 31
0.0
  0
LINE
  5
   702
  8
0
  6
CONTINUOUS
 62
     7
 10
-403.253973618977
 20
31.4719085693359
 30
0.0
 11
-410.031110034337
 21
31.4719085693359
 31
0.0
  0
LINE
  5
   703
  8
0
  6
CONTINUOUS
 62
     7
 10
-404.160406367515
 20
29.4719085693359
 30
0.0
 11
-410.031110034337
 21
29.4719085693359
 31
0.0
  0
INSERT
  5
   704
  8
0
  6
CONTINUOUS
 62
     7
  2
*HATCH282
 10
-371.031127929688
 20
-71.646614074707
 30
0.0
 41
0.5
 42
0.5
 50
89.9999999480344
 43
0.5
  0
LINE
  5
   705
  8
0
  6
CONTINUOUS
 62
     2
 10
-385.531127929688
 20
45.9719085693359
 30
0.0
 11
-406.906109080662
 21
45.9719085693359
 31
0.0
  0
LINE
  5
   706
  8
0
  6
DASHDOT
 62
     7
 10
-422.531097412109
 20
-90.6194172813966
 30
0.0
 11
-422.531097412109
 21
54.5280137207928
 31
0.0
  0
LINE
  5
   707
  8
0
  6
DASHDOT
 62
     7
 10
-424.031097412109
 20
-90.6194172813966
 30
0.0
 11
-424.031097412109
 21
54.5280137207928
 31
0.0
  0
LINE
  5
   708
  8
0
  6
CONTINUOUS
 62
     7
 10
-420.966236786543
 20
54.5280137207928
 30
0.0
 11
-426.035132658571
 21
54.5280137207928
 31
0.0
  0
LINE
  5
   709
  8
0
  6
CONTINUOUS
 62
     7
 10
-419.155916832247
 20
-90.6194172813966
 30
0.0
 11
-428.448892597631
 21
-90.6194172813966
 31
0.0
  0
ARC
  5
   70A
  8
0
  6
CONTINUOUS
 62
     7
 10
-393.031105041504
 20
-21.7780590820489
 30
0.0
 40
38.0220413050115
 50
333.082565820193
 51
379.93594827737
  0
LINE
  5
   70B
  8
0
  6
CONTINUOUS
 62
     7
 10
-355.009063736492
 20
-21.7780590820489
 30
0.0
 11
-355.009063736492
 21
-0.103419566616637
 31
0.0
  0
LINE
  5
   70C
  8
0
  6
CONTINUOUS
 62
     7
 10
-405.404762207149
 20
26.7262976199511
 30
0.0
 11
-423.735182293224
 21
26.7262976199511
 31
0.0
  0
LINE
  5
   70D
  8
0
  6
CONTINUOUS
 62
     7
 10
-412.531109080662
 20
28.2219085693359
 30
0.0
 11
-415.031109080662
 21
28.2219085693359
 31
0.0
  0
LINE
  5
   70E
  8
0
  6
CONTINUOUS
 62
     7
 10
-416.526720030047
 20
26.726297619951
 30
0.0
 11
-415.031109080662
 21
28.2219085693359
 31
0.0
  0
INSERT
  5
   70F
  8
0
  6
CONTINUOUS
 62
     7
  2
*HATCH283
 10
-371.031127929688
 20
-71.646614074707
 30
0.0
 41
0.5
 42
0.5
 50
89.9999999480344
 43
0.5
  0
LINE
  5
   710
  8
0
  6
DASHDOT
 62
     7
 10
-402.179138594186
 20
-72.0281170109087
 30
0.0
 11
-416.245780611625
 21
-72.0281170109087
 31
0.0
  0
LINE
  5
   711
  8
0
  6
CONTINUOUS
 62
     7
 10
-410.031109080662
 20
-77.0280914306641
 30
0.0
 11
-412.531109080662
 21
-77.0280914306641
 31
0.0
  0
LINE
  5
   712
  8
0
  6
CONTINUOUS
 62
     7
 10
-412.531109080662
 20
-77.0280914306641
 30
0.0
 11
-412.531109080662
 21
-61.7824804812792
 31
0.0
  0
LINE
  5
   713
  8
0
  6
CONTINUOUS
 62
     7
 10
-410.031110034337
 20
-70.0281170109087
 30
0.0
 11
-412.531109080662
 21
-70.0281170109087
 31
0.0
  0
LINE
  5
   714
  8
0
  6
CONTINUOUS
 62
     7
 10
-410.031110034337
 20
-74.0281170109087
 30
0.0
 11
-412.531109080662
 21
-74.0281170109087
 31
0.0
  0
LINE
  5
   715
  8
0
  6
CONTINUOUS
 62
     7
 10
-410.031110034337
 20
-70.0280658504194
 30
0.0
 11
-410.031110034337
 21
-61.7824804812792
 31
0.0
  0
LINE
  5
   716
  8
0
  6
CONTINUOUS
 62
     7
 10
-402.099481722232
 20
-61.7824804812792
 30
0.0
 11
-427.085381829434
 21
-61.7824804812792
 31
0.0
  0
LINE
  5
   717
  8
0
  6
CONTINUOUS
 62
     7
 10
-397.419460185124
 20
-82.5837490308378
 30
0.0
 11
-403.337173368409
 21
-61.0401788145662
 31
0.0
  0
LINE
  5
   718
  8
0
  6
CONTINUOUS
 62
   218
 10
-373.031097888947
 20
-81.0280590820489
 30
0.0
 11
-412.031109080662
 21
-81.0280590820489
 31
0.0
  0
INSERT
  5
   719
  8
0
  6
CONTINUOUS
 62
     7
  2
*HATCH284
 10
-371.031127929688
 20
-71.646614074707
 30
0.0
 41
0.5
 42
0.5
 50
89.9999999480344
 43
0.5
  0
INSERT
  5
   71A
  8
0
  6
CONTINUOUS
 62
     7
  2
*HATCH285
 10
-371.031127929688
 20
-71.646614074707
 30
0.0
 41
0.5
 42
0.5
 50
89.9999999480344
 43
0.5
  0
LINE
  5
   71B
  8
0
  6
CONTINUOUS
 62
     7
 10
-412.531109080662
 20
-64.5281170109087
 30
0.0
 11
-421.531097888947
 21
-64.5281170109087
 31
0.0
  0
LINE
  5
   71C
  8
0
  6
CONTINUOUS
 62
     7
 10
-412.531109080662
 20
-62.5281170109087
 30
0.0
 11
-422.531097412109
 21
-62.5281170109087
 31
0.0
  0
LINE
  5
   71D
  8
0
  6
CONTINUOUS
 62
     7
 10
-401.829714581981
 20
-66.5281170109087
 30
0.0
 11
-410.031110034337
 21
-66.5281170109087
 31
0.0
  0
INSERT
  5
   71E
  8
0
  6
CONTINUOUS
 62
     7
  2
*HATCH286
 10
-371.031127929688
 20
-71.646614074707
 30
0.0
 41
0.5
 42
0.5
 50
89.9999999480344
 43
0.5
  0
LINE
  5
   71F
  8
0
  6
CONTINUOUS
 62
     7
 10
-402.379086215733
 20
-64.5281170109087
 30
0.0
 11
-410.031110034337
 21
-64.5281170109087
 31
0.0
  0
INSERT
  5
   720
  8
0
  6
CONTINUOUS
 62
     7
  2
*HATCH287
 10
-371.031127929688
 20
-71.646614074707
 30
0.0
 41
0.5
 42
0.5
 50
89.9999999480344
 43
0.5
  0
LINE
  5
   721
  8
0
  6
CONTINUOUS
 62
     7
 10
-390.531112670899
 20
-47.0280685424799
 30
0.0
 11
-420.531097412109
 21
-47.0280685424799
 31
0.0
  0
LINE
  5
   722
  8
0
  6
CONTINUOUS
 62
     7
 10
-366.281105041504
 20
-9.903076171875
 30
0.0
 11
-366.281105041504
 21
9.59692565916203
 31
0.0
  0
LINE
  5
   723
  8
0
  6
CONTINUOUS
 62
     7
 10
-366.281105041504
 20
-16.403076171875
 30
0.0
 11
-366.281105041504
 21
-10.403076171875
 31
0.0
  0
LINE
  5
   724
  8
0
  6
CONTINUOUS
 62
     7
 10
-366.281105041504
 20
-26.653060913087
 30
0.0
 11
-366.281105041504
 21
-16.903076171875
 31
0.0
  0
LINE
  5
   725
  8
0
  6
CONTINUOUS
 62
     7
 10
-366.281105041504
 20
-33.153076171875
 30
0.0
 11
-366.281105041504
 21
-27.153060913087
 31
0.0
  0
LINE
  5
   726
  8
0
  6
CONTINUOUS
 62
     1
 10
-369.031102180481
 20
-44.1563014984131
 30
0.0
 11
-369.031102180481
 21
-43.1563014984131
 31
0.0
  0
LINE
  5
   727
  8
0
  6
CONTINUOUS
 62
     1
 10
-368.031102180481
 20
-44.1563014984131
 30
0.0
 11
-369.031102180481
 21
-44.1563014984131
 31
0.0
  0
LINE
  5
   728
  8
0
  6
CONTINUOUS
 62
     1
 10
-369.031102180481
 20
9.84369659423828
 30
0.0
 11
-369.031102180481
 21
10.8436965942383
 31
0.0
  0
LINE
  5
   729
  8
0
  6
CONTINUOUS
 62
     1
 10
-368.031102180481
 20
10.8436965942383
 30
0.0
 11
-369.031102180481
 21
10.8436965942383
 31
0.0
  0
LINE
  5
   72A
  8
0
  6
CONTINUOUS
 62
     1
 10
-369.031102180481
 20
-43.1563014984131
 30
0.0
 11
-369.031102180481
 21
9.84369850158691
 31
0.0
  0
LINE
  5
   72B
  8
0
  6
CONTINUOUS
 62
     1
 10
-371.281102180481
 20
17.6323699951172
 30
0.0
 11
-371.281102180481
 21
20.0550231933594
 31
0.0
  0
LINE
  5
   72C
  8
0
  6
CONTINUOUS
 62
     1
 10
-368.031102180481
 20
-57.4063014984131
 30
0.0
 11
-368.031102180481
 21
24.0936985015869
 31
0.0
  0
LINE
  5
   72D
  8
0
  6
CONTINUOUS
 62
     1
 10
-366.281102180481
 20
-57.4063014984131
 30
0.0
 11
-368.031102180481
 21
-57.4063014984131
 31
0.0
  0
LINE
  5
   72E
  8
0
  6
CONTINUOUS
 62
     1
 10
-366.281102180481
 20
-57.4063034057617
 30
0.0
 11
-366.281102180481
 21
24.0936965942383
 31
0.0
  0
LINE
  5
   72F
  8
0
  6
CONTINUOUS
 62
     1
 10
-366.281102180481
 20
24.0936965942383
 30
0.0
 11
-366.781102180481
 21
24.0936965942383
 31
0.0
  0
LINE
  5
   730
  8
0
  6
CONTINUOUS
 62
     1
 10
-367.281102180481
 20
24.0936965942383
 30
0.0
 11
-368.031102180481
 21
24.0936965942383
 31
0.0
  0
LINE
  5
   731
  8
0
  6
CONTINUOUS
 62
     1
 10
-368.031102180481
 20
17.3436965942383
 30
0.0
 11
-370.781103778795
 21
17.3436965942383
 31
0.0
  0
LINE
  5
   732
  8
0
  6
CONTINUOUS
 62
     1
 10
-368.031102180481
 20
20.3436965942383
 30
0.0
 11
-370.781100542217
 21
20.3436965942383
 31
0.0
  0
LINE
  5
   733
  8
0
  6
CONTINUOUS
 62
     1
 10
-370.781102187331
 20
17.3436965942383
 30
0.0
 11
-370.781102187331
 21
17.457878112793
 31
0.0
  0
LINE
  5
   734
  8
0
  6
CONTINUOUS
 62
     1
 10
-370.78110178947
 20
17.3436954457075
 30
0.0
 11
-371.281101805933
 21
17.6323688502058
 31
0.0
  0
LINE
  5
   735
  8
0
  6
CONTINUOUS
 62
     1
 10
-370.781102187331
 20
17.457878112793
 30
0.0
 11
-370.781102187331
 21
17.7830352783203
 31
0.0
  0
LINE
  5
   736
  8
0
  6
CONTINUOUS
 62
     1
 10
-370.781102187331
 20
17.7830352783203
 30
0.0
 11
-370.781102187331
 21
18.2696762084961
 31
0.0
  0
LINE
  5
   737
  8
0
  6
CONTINUOUS
 62
     1
 10
-370.781102187331
 20
18.2696762084961
 30
0.0
 11
-370.781102187331
 21
18.8436965942383
 31
0.0
  0
LINE
  5
   738
  8
0
  6
CONTINUOUS
 62
     1
 10
-370.781102187331
 20
18.8436965942383
 30
0.0
 11
-370.781102187331
 21
19.417724609375
 31
0.0
  0
LINE
  5
   739
  8
0
  6
CONTINUOUS
 62
     1
 10
-370.781102187331
 20
19.417724609375
 30
0.0
 11
-370.781102187331
 21
19.9043579101563
 31
0.0
  0
LINE
  5
   73A
  8
0
  6
CONTINUOUS
 62
     1
 10
-370.781102187331
 20
19.9043579101563
 30
0.0
 11
-370.781102187331
 21
20.2295150756836
 31
0.0
  0
LINE
  5
   73B
  8
0
  6
CONTINUOUS
 62
     1
 10
-370.781102187331
 20
20.2295150756836
 30
0.0
 11
-370.781102187331
 21
20.3436965942383
 31
0.0
  0
LINE
  5
   73C
  8
0
  6
CONTINUOUS
 62
     1
 10
-371.28110261507
 20
20.0550220024904
 30
0.0
 11
-370.781102598607
 21
20.3436954069886
 31
0.0
  0
LINE
  5
   73D
  8
0
  6
CONTINUOUS
 62
     1
 10
-368.031102180481
 20
-50.6563014984131
 30
0.0
 11
-370.781101184776
 21
-50.6563014984131
 31
0.0
  0
LINE
  5
   73E
  8
0
  6
CONTINUOUS
 62
     1
 10
-368.031102180481
 20
-53.6563014984131
 30
0.0
 11
-370.781102170674
 21
-53.6563014984131
 31
0.0
  0
LINE
  5
   73F
  8
0
  6
CONTINUOUS
 62
     1
 10
-370.781102170673
 20
-50.7704830169678
 30
0.0
 11
-370.781102170673
 21
-50.6563014984131
 31
0.0
  0
LINE
  5
   740
  8
0
  6
CONTINUOUS
 62
     1
 10
-370.781102170686
 20
-51.0956420898438
 30
0.0
 11
-370.781102170686
 21
-50.7704830169678
 31
0.0
  0
LINE
  5
   741
  8
0
  6
CONTINUOUS
 62
     1
 10
-370.781102170672
 20
-51.582275390625
 30
0.0
 11
-370.781102170672
 21
-51.0956420898438
 31
0.0
  0
LINE
  5
   742
  8
0
  6
CONTINUOUS
 62
     1
 10
-370.781102170706
 20
-52.1563014984131
 30
0.0
 11
-370.781102170706
 21
-51.582275390625
 31
0.0
  0
LINE
  5
   743
  8
0
  6
CONTINUOUS
 62
     1
 10
-370.781102170645
 20
-52.7303256988526
 30
0.0
 11
-370.781102170645
 21
-52.1563014984131
 31
0.0
  0
LINE
  5
   744
  8
0
  6
CONTINUOUS
 62
     1
 10
-370.781102170672
 20
-53.2169609069824
 30
0.0
 11
-370.781102170672
 21
-52.7303256988526
 31
0.0
  0
LINE
  5
   745
  8
0
  6
CONTINUOUS
 62
     1
 10
-370.781102170685
 20
-53.6563014984131
 30
0.0
 11
-370.781102170685
 21
-53.2169609069824
 31
0.0
  0
LINE
  5
   746
  8
0
  6
CONTINUOUS
 62
     1
 10
-370.781102170674
 20
-53.6563014984131
 30
0.0
 11
-370.781102170674
 21
-53.5421199798584
 31
0.0
  0
LINE
  5
   747
  8
0
  6
CONTINUOUS
 62
     1
 10
-366.781102180481
 20
24.0936965942383
 30
0.0
 11
-367.281102180481
 21
24.0936965942383
 31
0.0
  0
LINE
  5
   748
  8
0
  6
CONTINUOUS
 62
     7
 10
-371.281102441556
 20
-50.9449775067665
 30
0.0
 11
-370.781102425091
 21
-50.6563022145099
 31
0.0
  0
LINE
  5
   749
  8
0
  6
CONTINUOUS
 62
     7
 10
-370.781101963511
 20
-53.6563021121626
 30
0.0
 11
-371.281101979976
 21
-53.3676268199061
 31
0.0
  0
LINE
  5
   74A
  8
0
  6
CONTINUOUS
 62
     7
 10
-369.031102180481
 20
-84.7220510556195
 30
0.0
 11
-369.031102180481
 21
-53.6563014984131
 31
0.0
  0
LINE
  5
   74B
  8
0
  6
CONTINUOUS
 62
     7
 10
-368.031102180481
 20
-84.1082579521712
 30
0.0
 11
-368.031102180481
 21
-57.4063014984131
 31
0.0
  0
LINE
  5
   74C
  8
0
  6
CONTINUOUS
 62
     7
 10
-368.031102180481
 20
20.5936965942383
 30
0.0
 11
-368.031102180481
 21
53.1892479645837
 31
0.0
  0
LINE
  5
   74D
  8
0
  6
CONTINUOUS
 62
     7
 10
-368.031102180481
 20
-44.6563014984131
 30
0.0
 11
-369.031102180481
 21
-44.6563014984131
 31
0.0
  0
LINE
  5
   74E
  8
0
  6
CONTINUOUS
 62
     7
 10
-368.031102180481
 20
11.3436965942383
 30
0.0
 11
-369.031102180481
 21
11.3436965942383
 31
0.0
  0
LINE
  5
   74F
  8
0
  6
CONTINUOUS
 62
     7
 10
-368.031102180481
 20
20.5936965942383
 30
0.0
 11
-369.031102180481
 21
20.5936965942383
 31
0.0
  0
LINE
  5
   750
  8
0
  6
CONTINUOUS
 62
     7
 10
-368.031102180481
 20
17.0936965942383
 30
0.0
 11
-369.031102180481
 21
17.0936965942383
 31
0.0
  0
LINE
  5
   751
  8
0
  6
CONTINUOUS
 62
     7
 10
-368.031102180481
 20
-50.4063014984131
 30
0.0
 11
-369.031102180481
 21
-50.4063014984131
 31
0.0
  0
LINE
  5
   752
  8
0
  6
CONTINUOUS
 62
     7
 10
-368.031102180481
 20
-53.9063014984131
 30
0.0
 11
-369.031102180481
 21
-53.9063014984131
 31
0.0
  0
LINE
  5
   753
  8
0
  6
CONTINUOUS
 62
     7
 10
-369.031102180481
 20
-50.6563014984131
 30
0.0
 11
-369.031102180481
 21
17.3436965942383
 31
0.0
  0
LINE
  5
   754
  8
0
  6
CONTINUOUS
 62
     7
 10
-369.031102180481
 20
20.3436965942383
 30
0.0
 11
-369.031102180481
 21
52.6500322783092
 31
0.0
  0
LINE
  5
   755
  8
0
  6
CONTINUOUS
 62
     7
 10
-370.227996944148
 20
52.0046478469201
 30
0.0
 11
-366.573844858778
 21
53.9750239713843
 31
0.0
  0
LINE
  5
   756
  8
0
  6
CONTINUOUS
 62
     7
 10
-370.693722209931
 20
-85.7425557633506
 30
0.0
 11
-365.499094245434
 21
-82.554128943763
 31
0.0
  0
INSERT
  5
   757
  8
0
  6
CONTINUOUS
 62
     7
  2
*HATCH288
 10
-371.031127929688
 20
-71.646614074707
 30
0.0
 41
0.5
 42
0.5
 50
89.9999999480344
 43
0.5
  0
INSERT
  5
   758
  8
0
  6
CONTINUOUS
 62
     7
  2
*HATCH289
 10
-371.031127929688
 20
-71.646614074707
 30
0.0
 41
0.5
 42
0.5
 50
89.9999999480344
 43
0.5
  0
INSERT
  5
   759
  8
0
  6
CONTINUOUS
 62
     7
  2
*HATCH290
 10
-371.031127929688
 20
-71.646614074707
 30
0.0
 41
0.5
 42
0.5
 50
89.9999999480344
 43
0.5
  0
INSERT
  5
   75A
  8
0
  6
CONTINUOUS
 62
     7
  2
*HATCH291
 10
-371.031127929688
 20
-71.646614074707
 30
0.0
 41
0.5
 42
0.5
 50
89.9999999480344
 43
0.5
  0
LINE
  5
   75B
  8
0
  6
CONTINUOUS
 62
     7
 10
-371.281101979976
 20
-53.3676268199061
 30
0.0
 11
-371.281102441556
 21
-50.9449775067665
 31
0.0
  0
LINE
  5
   75C
  8
0
  6
DASHDOT
 62
     7
 10
-343.137081987317
 20
-16.653074340838
 30
0.0
 11
-430.410234585146
 21
-16.653074340838
 31
0.0
  0
LINE
  5
   75D
  8
0
  6
CONTINUOUS
 62
     7
 10
-412.531109080662
 20
38.9719341495806
 30
0.0
 11
-412.531109080662
 21
41.9719085693359
 31
0.0
  0
LINE
  5
   75E
  8
0
  6
CONTINUOUS
 62
     7
 10
-391.056330586655
 20
31.738093734717
 30
0.0
 11
-403.133334143439
 21
31.738093734717
 31
0.0
  0
LINE
  5
   75F
  8
0
  6
CONTINUOUS
 62
     7
 10
-391.056330586655
 20
31.738093734717
 30
0.0
 11
-383.598048648802
 21
48.1944319459791
 31
0.0
  0
LINE
  5
   760
  8
0
  6
CONTINUOUS
 62
     2
 10
-407.531110034337
 20
39.0969341495806
 30
0.0
 11
-410.531110034337
 21
39.0969341495806
 31
0.0
  0
LINE
  5
   761
  8
0
  6
CONTINUOUS
 62
     2
 10
-407.531110034337
 20
34.8469341495806
 30
0.0
 11
-410.531110034337
 21
34.8469341495806
 31
0.0
  0
LINE
  5
   762
  8
0
  6
CONTINUOUS
 62
     1
 10
-422.281108618726
 20
47.7219496577895
 30
0.0
 11
-422.281108618726
 21
48.7219496577895
 31
0.0
  0
LINE
  5
   763
  8
0
  6
CONTINUOUS
 62
     3
 10
-413.031109078936
 20
47.2219494193709
 30
0.0
 11
-412.53110907894
 21
47.2219570487655
 31
0.0
  0
LINE
  5
   764
  8
0
  6
CONTINUOUS
 62
     3
 10
-412.031108545841
 20
46.7219547145014
 30
0.0
 11
-412.531108528727
 21
47.2219546973871
 31
0.0
  0
LINE
  5
   765
  8
0
  6
CONTINUOUS
 62
     3
 10
-412.031109080662
 20
45.9719570377642
 30
0.0
 11
-412.031109080662
 21
46.7219570377642
 31
0.0
  0
LINE
  5
   766
  8
0
  6
CONTINUOUS
 62
     3
 10
-413.031109079928
 20
45.9719494110836
 30
0.0
 11
-412.031109079944
 21
45.9719570404781
 31
0.0
  0
LINE
  5
   767
  8
0
  6
CONTINUOUS
 62
     3
 10
-412.031109080662
 20
45.9719341495806
 30
0.0
 11
-413.031109080662
 21
45.9719341495806
 31
0.0
  0
LINE
  5
   768
  8
0
  6
CONTINUOUS
 62
     3
 10
-412.781109080662
 20
32.7219341495806
 30
0.0
 11
-412.781109080662
 21
41.2219341495806
 31
0.0
  0
LINE
  5
   769
  8
0
  6
CONTINUOUS
 62
     3
 10
-413.031109080662
 20
42.7219341495806
 30
0.0
 11
-414.656110511174
 21
42.7219341495806
 31
0.0
  0
LINE
  5
   76A
  8
0
  6
CONTINUOUS
 62
     3
 10
-413.031109080662
 20
42.7219341495806
 30
0.0
 11
-413.031109080662
 21
45.9719341495806
 31
0.0
  0
LINE
  5
   76B
  8
0
  6
CONTINUOUS
 62
     3
 10
-420.031109080662
 20
31.9719341495806
 30
0.0
 11
-420.781109080662
 21
31.9719341495806
 31
0.0
  0
LINE
  5
   76C
  8
0
  6
CONTINUOUS
 62
     3
 10
-420.031109080662
 20
31.9719265201861
 30
0.0
 11
-420.781109080662
 21
31.9719265201861
 31
0.0
  0
LINE
  5
   76D
  8
0
  6
CONTINUOUS
 62
     3
 10
-413.031109080662
 20
47.2219417789752
 30
0.0
 11
-420.781109080662
 21
47.2219417789752
 31
0.0
  0
LINE
  5
   76E
  8
0
  6
CONTINUOUS
 62
     3
 10
-420.781109080662
 20
31.9719341495806
 30
0.0
 11
-420.781109080662
 21
47.2219417789752
 31
0.0
  0
LINE
  5
   76F
  8
0
  6
CONTINUOUS
 62
     3
 10
-413.031109080662
 20
45.9719417789752
 30
0.0
 11
-413.031109080662
 21
47.2219417789752
 31
0.0
  0
LINE
  5
   770
  8
0
  6
CONTINUOUS
 62
     3
 10
-413.031109080662
 20
44.3719433048541
 30
0.0
 11
-413.531109080662
 21
44.3719433048541
 31
0.0
  0
LINE
  5
   771
  8
0
  6
CONTINUOUS
 62
     3
 10
-413.531108514578
 20
44.3719410237516
 30
0.0
 11
-413.731108330704
 21
44.571937973915
 31
0.0
  0
LINE
  5
   772
  8
0
  6
CONTINUOUS
 62
     3
 10
-420.031108860405
 20
31.9719339233963
 30
0.0
 11
-413.031109014711
 21
45.9719420114289
 31
0.0
  0
LINE
  5
   773
  8
0
  6
CONTINUOUS
 62
   210
 10
-412.531109080662
 20
33.7219341495806
 30
0.0
 11
-412.531109080662
 21
40.2219341495806
 31
0.0
  0
LINE
  5
   774
  8
0
  6
CONTINUOUS
 62
     3
 10
-412.781109080662
 20
32.7219341495806
 30
0.0
 11
-419.656111941685
 21
32.7219341495806
 31
0.0
  0
LINE
  5
   775
  8
0
  6
CONTINUOUS
 62
     3
 10
-412.781109080662
 20
41.2219341495806
 30
0.0
 11
-415.406111464848
 21
41.2219341495806
 31
0.0
  0
LINE
  5
   776
  8
0
  6
CONTINUOUS
 62
     3
 10
-413.031109080662
 20
46.7219417789752
 30
0.0
 11
-420.781109080662
 21
46.7219417789752
 31
0.0
  0
LINE
  5
   777
  8
0
  6
CONTINUOUS
 62
     3
 10
-419.781109080662
 20
32.4719417789752
 30
0.0
 11
-420.781109080662
 21
32.4719417789752
 31
0.0
  0
LINE
  5
   778
  8
0
  6
CONTINUOUS
 62
   210
 10
-412.531109080662
 20
40.2219341495806
 30
0.0
 11
-412.781109080662
 21
40.2219341495806
 31
0.0
  0
LINE
  5
   779
  8
0
  6
CONTINUOUS
 62
   210
 10
-412.531109080662
 20
33.7219341495806
 30
0.0
 11
-412.781109080662
 21
33.7219341495806
 31
0.0
  0
LINE
  5
   77A
  8
0
  6
CONTINUOUS
 62
     2
 10
-372.406150817877
 20
47.2219085693359
 30
0.0
 11
-397.781150562744
 21
47.2219085693359
 31
0.0
  0
LINE
  5
   77B
  8
0
  6
CONTINUOUS
 62
     2
 10
-371.781150817877
 20
34.221925659162
 30
0.0
 11
-371.781150817877
 21
46.5969085693359
 31
0.0
  0
ARC
  5
   77C
  8
0
  6
CONTINUOUS
 62
     2
 10
-372.406150817877
 20
46.5969085693359
 30
0.0
 40
0.625
 50
359.999999948034
 51
449.999999948034
  0
LINE
  5
   77D
  8
0
  6
CONTINUOUS
 62
     2
 10
-371.781105041504
 20
34.221925659162
 30
0.0
 11
-372.281150817877
 21
34.221925659162
 31
0.0
  0
LINE
  5
   77E
  8
0
  6
CONTINUOUS
 62
     2
 10
-372.281150817877
 20
33.721925659162
 30
0.0
 11
-372.281150817877
 21
34.221925659162
 31
0.0
  0
INSERT
  5
   77F
  8
0
  6
CONTINUOUS
 62
     2
  2
*HATCH292
 10
-371.031127929688
 20
-71.646614074707
 30
0.0
 41
0.5
 42
0.5
 50
89.9999999480344
 43
0.5
  0
LINE
  5
   780
  8
0
  6
CONTINUOUS
 62
     7
 10
-407.031110034337
 20
32.4719341495806
 30
0.0
 11
-407.031110034337
 21
41.4719341495806
 31
0.0
  0
LINE
  5
   781
  8
0
  6
CONTINUOUS
 62
     7
 10
-407.031110034337
 20
41.4719341495806
 30
0.0
 11
-407.531110034337
 21
41.4719341495806
 31
0.0
  0
LINE
  5
   782
  8
0
  6
CONTINUOUS
 62
     7
 10
-407.031110034337
 20
32.4719341495806
 30
0.0
 11
-407.531110034337
 21
32.4719341495806
 31
0.0
  0
INSERT
  5
   783
  8
255
  6
CONTINUOUS
 62
     7
  2
$1PROLUNGATI
 10
-412.531109080662
 20
-72.0281170109087
 30
0.0
 41
0.5
 42
-0.5
 50
1.03931142803049E-7
 43
0.5
  0
LINE
  5
   784
  8
0
  6
CONTINUOUS
 62
     7
 10
-420.781109080662
 20
-81.0280590820489
 30
0.0
 11
-421.531097888947
 21
-81.0280590820489
 31
0.0
  0
LINE
  5
   785
  8
0
  6
CONTINUOUS
 62
     7
 10
-407.031110034337
 20
-76.5280658504194
 30
0.0
 11
-407.031110034337
 21
-67.5280658504194
 31
0.0
  0
LINE
  5
   786
  8
0
  6
CONTINUOUS
 62
     7
 10
-407.031110034337
 20
-76.5280658504194
 30
0.0
 11
-407.531110034337
 21
-76.5280658504194
 31
0.0
  0
LINE
  5
   787
  8
0
  6
CONTINUOUS
 62
     7
 10
-407.031110034337
 20
-67.5280658504194
 30
0.0
 11
-407.531110034337
 21
-67.5280658504194
 31
0.0
  0
LINE
  5
   788
  8
0
  6
CONTINUOUS
 62
     7
 10
-407.531110034337
 20
-74.0280658504194
 30
0.0
 11
-410.531110034337
 21
-74.0280658504194
 31
0.0
  0
LINE
  5
   789
  8
0
  6
CONTINUOUS
 62
     7
 10
-407.531110034337
 20
-73.6280658504194
 30
0.0
 11
-412.531109080662
 21
-73.6280658504194
 31
0.0
  0
LINE
  5
   78A
  8
0
  6
CONTINUOUS
 62
     7
 10
-407.531110034337
 20
-70.4280658504194
 30
0.0
 11
-412.531109080662
 21
-70.4280658504194
 31
0.0
  0
LINE
  5
   78B
  8
0
  6
CONTINUOUS
 62
     7
 10
-407.531110034337
 20
-70.0280658504194
 30
0.0
 11
-410.531110034337
 21
-70.0280658504194
 31
0.0
  0
LINE
  5
   78C
  8
0
  6
CONTINUOUS
 62
     7
 10
-407.531110034337
 20
-76.5280658504194
 30
0.0
 11
-407.531110034337
 21
-67.5280658504194
 31
0.0
  0
LINE
  5
   78D
  8
0
  6
CONTINUOUS
 62
     7
 10
-410.031109080662
 20
-77.0280914306641
 30
0.0
 11
-410.031109080662
 21
-74.0280658504194
 31
0.0
  0
LINE
  5
   78E
  8
0
  6
CONTINUOUS
 62
     1
 10
-406.831110034337
 20
-75.6230658504194
 30
0.0
 11
-406.831110034337
 21
-68.4330658504194
 31
0.0
  0
ARC
  5
   78F
  8
0
  6
CONTINUOUS
 62
     1
 10
-405.654277844781
 20
-74.7243158504194
 30
0.0
 40
1.37316781044413
 50
319.117607838934
 51
400.882392057134
  0
ARC
  5
   790
  8
0
  6
CONTINUOUS
 62
     1
 10
-405.654277844781
 20
-69.3318158504194
 30
0.0
 40
1.37316781044413
 50
319.117607838934
 51
400.882392057134
  0
LINE
  5
   791
  8
0
  6
CONTINUOUS
 62
     1
 10
-404.589512277605
 20
-73.8255658504194
 30
0.0
 11
-406.831110034337
 21
-73.8255658504194
 31
0.0
  0
ARC
  5
   792
  8
0
  6
CONTINUOUS
 62
     1
 10
-409.673610034337
 20
-72.0280658504194
 30
0.0
 40
5.3925
 50
340.528779313544
 51
379.471220582525
  0
LINE
  5
   793
  8
0
  6
CONTINUOUS
 62
     1
 10
-404.589512277605
 20
-70.2305658504194
 30
0.0
 11
-406.831110034337
 21
-70.2305658504194
 31
0.0
  0
LINE
  5
   794
  8
0
  6
CONTINUOUS
 62
     1
 10
-404.616087942528
 20
-75.6230658504194
 30
0.0
 11
-406.831110034337
 21
-75.6230658504194
 31
0.0
  0
LINE
  5
   795
  8
0
  6
CONTINUOUS
 62
     1
 10
-404.616087942528
 20
-68.4330658504194
 30
0.0
 11
-406.831110034337
 21
-68.4330658504194
 31
0.0
  0
LINE
  5
   796
  8
0
  6
CONTINUOUS
 62
     1
 10
-406.831110034337
 20
-75.0780658504194
 30
0.0
 11
-407.031110034337
 21
-75.0780658504194
 31
0.0
  0
LINE
  5
   797
  8
0
  6
CONTINUOUS
 62
     1
 10
-406.831110034337
 20
-68.9780658504194
 30
0.0
 11
-407.031110034337
 21
-68.9780658504194
 31
0.0
  0
LINE
  5
   798
  8
0
  6
CONTINUOUS
 62
     7
 10
-408.281110034337
 20
-70.4114596004194
 30
0.0
 11
-412.031110034337
 21
-70.4114596004194
 31
0.0
  0
LINE
  5
   799
  8
0
  6
CONTINUOUS
 62
     1
 10
-407.531110034337
 20
-70.0280658504194
 30
0.0
 11
-412.031110034337
 21
-70.0280658504194
 31
0.0
  0
LINE
  5
   79A
  8
0
  6
CONTINUOUS
 62
     1
 10
-407.531110034337
 20
-74.0280658504194
 30
0.0
 11
-412.031110034337
 21
-74.0280658504194
 31
0.0
  0
LINE
  5
   79B
  8
0
  6
CONTINUOUS
 62
     1
 10
-408.281110034337
 20
-74.0280658504194
 30
0.0
 11
-408.281110034337
 21
-70.0280658504194
 31
0.0
  0
LINE
  5
   79C
  8
0
  6
CONTINUOUS
 62
     1
 10
-404.281110034337
 20
-74.7243158504194
 30
0.0
 11
-404.281110034337
 21
-69.3318158504194
 31
0.0
  0
LINE
  5
   79D
  8
0
  6
DASHDOT
 62
     7
 10
-402.281110034337
 20
-72.0280658504194
 30
0.0
 11
-414.031110034337
 21
-72.0280658504194
 31
0.0
  0
LINE
  5
   79E
  8
0
  6
CONTINUOUS
 62
     1
 10
-406.831110034337
 20
33.3769341495806
 30
0.0
 11
-406.831110034337
 21
40.5669341495806
 31
0.0
  0
ARC
  5
   79F
  8
0
  6
CONTINUOUS
 62
     1
 10
-405.654277844781
 20
39.6681841495806
 30
0.0
 40
1.37316781044413
 50
319.117607838934
 51
400.882392057134
  0
ARC
  5
   7A0
  8
0
  6
CONTINUOUS
 62
     1
 10
-405.654277844781
 20
34.2756841495806
 30
0.0
 40
1.37316781044413
 50
319.117607838934
 51
400.882392057134
  0
LINE
  5
   7A1
  8
0
  6
CONTINUOUS
 62
     1
 10
-404.589512277605
 20
38.7694341495806
 30
0.0
 11
-406.831110034337
 21
38.7694341495806
 31
0.0
  0
ARC
  5
   7A2
  8
0
  6
CONTINUOUS
 62
     1
 10
-409.673610034337
 20
36.9719341495806
 30
0.0
 40
5.3925
 50
340.528779313544
 51
379.471220582525
  0
LINE
  5
   7A3
  8
0
  6
CONTINUOUS
 62
     1
 10
-404.589512277605
 20
35.1744341495806
 30
0.0
 11
-406.831110034337
 21
35.1744341495806
 31
0.0
  0
LINE
  5
   7A4
  8
0
  6
CONTINUOUS
 62
     1
 10
-404.616087942528
 20
40.5669341495806
 30
0.0
 11
-406.831110034337
 21
40.5669341495806
 31
0.0
  0
LINE
  5
   7A5
  8
0
  6
CONTINUOUS
 62
     1
 10
-404.616087942528
 20
33.3769341495806
 30
0.0
 11
-406.831110034337
 21
33.3769341495806
 31
0.0
  0
LINE
  5
   7A6
  8
0
  6
CONTINUOUS
 62
     1
 10
-406.831110034337
 20
40.0219341495806
 30
0.0
 11
-407.031110034337
 21
40.0219341495806
 31
0.0
  0
LINE
  5
   7A7
  8
0
  6
CONTINUOUS
 62
     1
 10
-406.831110034337
 20
33.9219341495806
 30
0.0
 11
-407.031110034337
 21
33.9219341495806
 31
0.0
  0
LINE
  5
   7A8
  8
0
  6
CONTINUOUS
 62
     7
 10
-408.781110034337
 20
38.5885403995806
 30
0.0
 11
-412.531110034337
 21
38.5885403995806
 31
0.0
  0
LINE
  5
   7A9
  8
0
  6
CONTINUOUS
 62
     7
 10
-408.781110034337
 20
35.3553278995806
 30
0.0
 11
-412.531110034337
 21
35.3553278995806
 31
0.0
  0
LINE
  5
   7AA
  8
0
  6
CONTINUOUS
 62
     1
 10
-407.531110034337
 20
34.9719341495806
 30
0.0
 11
-412.031110034337
 21
34.9719341495806
 31
0.0
  0
LINE
  5
   7AB
  8
0
  6
CONTINUOUS
 62
     1
 10
-407.531110034337
 20
38.9719341495806
 30
0.0
 11
-412.031110034337
 21
38.9719341495806
 31
0.0
  0
LINE
  5
   7AC
  8
0
  6
CONTINUOUS
 62
     1
 10
-408.781110034337
 20
34.9719341495806
 30
0.0
 11
-408.781110034337
 21
38.9719341495806
 31
0.0
  0
LINE
  5
   7AD
  8
0
  6
CONTINUOUS
 62
     1
 10
-404.281110034337
 20
34.2756841495806
 30
0.0
 11
-404.281110034337
 21
39.6681841495806
 31
0.0
  0
LINE
  5
   7AE
  8
0
  6
DASHDOT
 62
     7
 10
-402.281110034337
 20
36.9719341495806
 30
0.0
 11
-414.031110034337
 21
36.9719341495806
 31
0.0
  0
LINE
  5
   7AF
  8
0
  6
CONTINUOUS
 62
     7
 10
-410.031110034337
 20
41.9719341495806
 30
0.0
 11
-410.531110034337
 21
41.9719341495806
 31
0.0
  0
LINE
  5
   7B0
  8
0
  6
CONTINUOUS
 62
     7
 10
-410.531110034337
 20
38.9719341495806
 30
0.0
 11
-410.531110034337
 21
41.9719341495806
 31
0.0
  0
LINE
  5
   7B1
  8
0
  6
CONTINUOUS
 62
     2
 10
-410.031110034337
 20
31.9719341495806
 30
0.0
 11
-410.031110034337
 21
34.8469341495806
 31
0.0
  0
LINE
  5
   7B2
  8
0
  6
DASHDOT
 62
     7
 10
-419.96795104691
 20
35.971925659162
 30
0.0
 11
-431.343982604607
 21
35.971925659162
 31
0.0
  0
LINE
  5
   7B3
  8
0
  6
CONTINUOUS
 62
     7
 10
-424.031097412109
 20
37.971925659162
 30
0.0
 11
-426.031097412109
 21
37.971925659162
 31
0.0
  0
LINE
  5
   7B4
  8
0
  6
CONTINUOUS
 62
     7
 10
-424.031097412109
 20
33.971925659162
 30
0.0
 11
-426.031097412109
 21
33.971925659162
 31
0.0
  0
LINE
  5
   7B5
  8
0
  6
CONTINUOUS
 62
     7
 10
-426.031097412109
 20
33.971925659162
 30
0.0
 11
-426.031097412109
 21
37.971925659162
 31
0.0
  0
LINE
  5
   7B6
  8
0
  6
CONTINUOUS
 62
     7
 10
-424.031097412109
 20
37.221925659162
 30
0.0
 11
-428.031097412109
 21
37.221925659162
 31
0.0
  0
LINE
  5
   7B7
  8
0
  6
CONTINUOUS
 62
     7
 10
-424.031097412109
 20
34.721925659162
 30
0.0
 11
-428.031097412109
 21
34.721925659162
 31
0.0
  0
LINE
  5
   7B8
  8
0
  6
CONTINUOUS
 62
     7
 10
-428.031097412109
 20
34.721925659162
 30
0.0
 11
-428.031097412109
 21
37.221925659162
 31
0.0
  0
LINE
  5
   7B9
  8
0
  6
CONTINUOUS
 62
     7
 10
-424.031097412109
 20
-69.028074340838
 30
0.0
 11
-426.031097412109
 21
-69.028074340838
 31
0.0
  0
LINE
  5
   7BA
  8
0
  6
CONTINUOUS
 62
     7
 10
-424.031097412109
 20
-69.778074340838
 30
0.0
 11
-428.031097412109
 21
-69.778074340838
 31
0.0
  0
LINE
  5
   7BB
  8
0
  6
DASHDOT
 62
     7
 10
-419.96795104691
 20
-71.028074340838
 30
0.0
 11
-431.343982604607
 21
-71.028074340838
 31
0.0
  0
LINE
  5
   7BC
  8
0
  6
CONTINUOUS
 62
     7
 10
-424.031097412109
 20
-72.278074340838
 30
0.0
 11
-428.031097412109
 21
-72.278074340838
 31
0.0
  0
LINE
  5
   7BD
  8
0
  6
CONTINUOUS
 62
     7
 10
-424.031097412109
 20
-73.028074340838
 30
0.0
 11
-426.031097412109
 21
-73.028074340838
 31
0.0
  0
LINE
  5
   7BE
  8
0
  6
CONTINUOUS
 62
     7
 10
-426.031097412109
 20
-73.028074340838
 30
0.0
 11
-426.031097412109
 21
-69.028074340838
 31
0.0
  0
LINE
  5
   7BF
  8
0
  6
CONTINUOUS
 62
     7
 10
-428.031097412109
 20
-72.278074340838
 30
0.0
 11
-428.031097412109
 21
-69.778074340838
 31
0.0
  0
INSERT
  5
   7C0
  8
0
  6
CONTINUOUS
 62
     7
  2
*UDIM452
 10
0.0
 20
0.0
 30
0.0
  0
INSERT
  5
   7C1
  8
0
  6
CONTINUOUS
 62
     7
  2
*UDIM453
 10
0.0
 20
0.0
 30
0.0
  0
INSERT
  5
   7C2
  8
0
  6
CONTINUOUS
 62
     7
  2
*UDIM454
 10
0.0
 20
0.0
 30
0.0
  0
POINT
  5
   7C3
  8
0
  6
CONTINUOUS
 62
     7
 10
-410.03144322498
 20
-89.8782769330712
 30
0.0
  0
CIRCLE
  5
   7C4
  8
0
  6
CONTINUOUS
 62
     7
 10
-410.03144322498
 20
-89.8782769330712
 30
0.0
 40
0.125
  0
CIRCLE
  5
   7C5
  8
0
  6
CONTINUOUS
 62
     7
 10
-410.03144322498
 20
-89.8782769330712
 30
0.0
 40
0.175
  0
INSERT
  5
   7C6
  8
0
  6
CONTINUOUS
 62
     7
  2
*UDIM455
 10
0.0
 20
0.0
 30
0.0
  0
INSERT
  5
   7C7
  8
0
  6
CONTINUOUS
 62
     7
  2
*UDIM456
 10
0.0
 20
0.0
 30
0.0
  0
INSERT
  5
   7C8
  8
0
  6
CONTINUOUS
 62
     7
  2
*UDIM457
 10
0.0
 20
0.0
 30
0.0
  0
INSERT
  5
   7C9
  8
0
  6
CONTINUOUS
 62
     7
  2
*UDIM458
 10
0.0
 20
0.0
 30
0.0
  0
INSERT
  5
   7CA
  8
0
  6
CONTINUOUS
 62
     7
  2
*UDIM459
 10
0.0
 20
0.0
 30
0.0
  0
LINE
  5
   7CB
  8
0
  6
CONTINUOUS
 62
     1
 10
-371.781108618726
 20
47.7219496577895
 30
0.0
 11
-371.781108618726
 21
48.7219496577895
 31
0.0
  0
LINE
  5
   7CC
  8
0
  6
CONTINUOUS
 62
     1
 10
-410.031109080662
 20
48.7219496577895
 30
0.0
 11
-422.281108618726
 21
48.7219496577895
 31
0.0
  0
LINE
  5
   7CD
  8
0
  6
CONTINUOUS
 62
     1
 10
-422.281108618726
 20
47.7219496577895
 30
0.0
 11
-422.281108618726
 21
48.7219496577895
 31
0.0
  0
LINE
  5
   7CE
  8
0
  6
CONTINUOUS
 62
     1
 10
-420.781109080662
 20
47.2219496577895
 30
0.0
 11
-421.781108603825
 21
47.2219496577895
 31
0.0
  0
LINE
  5
   7CF
  8
0
  6
CONTINUOUS
 62
     1
 10
-410.031109080662
 20
47.2219496577895
 30
0.0
 11
-412.531103489129
 21
47.2219496577895
 31
0.0
  0
LINE
  5
   7D0
  8
0
  6
CONTINUOUS
 62
     1
 10
-410.031109080662
 20
44.5719494432128
 30
0.0
 11
-412.156109080662
 21
44.5719494432128
 31
0.0
  0
LINE
  5
   7D1
  8
0
  6
CONTINUOUS
 62
     1
 10
-410.031110034337
 20
42.9719494193709
 30
0.0
 11
-412.656109080662
 21
42.9719494193709
 31
0.0
  0
LINE
  5
   7D2
  8
0
  6
CONTINUOUS
 62
     1
 10
-406.906109080662
 20
42.9719494193709
 30
0.0
 11
-406.906109080662
 21
47.2219494193709
 31
0.0
  0
LINE
  5
   7D3
  8
0
  6
CONTINUOUS
 62
     1
 10
-412.656109080662
 20
42.9719494938767
 30
0.0
 11
-412.656109080662
 21
45.9719494938767
 31
0.0
  0
LINE
  5
   7D4
  8
0
  6
CONTINUOUS
 62
     1
 10
-422.281108618726
 20
48.7219496577895
 30
0.0
 11
-422.281108618726
 21
114.721958746438
 31
0.0
  0
LINE
  5
   7D5
  8
0
  6
CONTINUOUS
 62
     1
 10
-371.781108618726
 20
48.7219496577895
 30
0.0
 11
-371.781108618726
 21
114.721958746438
 31
0.0
  0
LINE
  5
   7D6
  8
0
  6
CONTINUOUS
 62
     1
 10
-406.906109485201
 20
44.0719496214151
 30
0.0
 11
-407.406109306998
 21
44.5719494432128
 31
0.0
  0
LINE
  5
   7D7
  8
0
  6
CONTINUOUS
 62
     1
 10
-412.656109305073
 20
44.0719494117653
 30
0.0
 11
-412.156109322187
 21
44.5719493946511
 31
0.0
  0
LINE
  5
   7D8
  8
0
  6
CONTINUOUS
 62
     1
 10
-372.281109251954
 20
47.2219494181897
 30
0.0
 11
-371.781109269069
 21
47.7219494010755
 31
0.0
  0
LINE
  5
   7D9
  8
0
  6
CONTINUOUS
 62
     1
 10
-421.781108614448
 20
47.2219496278396
 30
0.0
 11
-422.281108597333
 21
47.7219496107253
 31
0.0
  0
LINE
  5
   7DA
  8
0
  6
CONTINUOUS
 62
     1
 10
-406.906109080662
 20
42.9719494193709
 30
0.0
 11
-407.531110034337
 21
42.9719494193709
 31
0.0
  0
LINE
  5
   7DB
  8
0
  6
CONTINUOUS
 62
     1
 10
-371.781108618726
 20
48.7219496577895
 30
0.0
 11
-407.531109080662
 21
48.7219496577895
 31
0.0
  0
LINE
  5
   7DC
  8
0
  6
CONTINUOUS
 62
     1
 10
-372.281109012354
 20
47.2219496577895
 30
0.0
 11
-407.531109080662
 21
47.2219496577895
 31
0.0
  0
LINE
  5
   7DD
  8
0
  6
CONTINUOUS
 62
     1
 10
-371.781108618726
 20
114.721958746438
 30
0.0
 11
-422.281108618726
 21
114.721958746438
 31
0.0
  0
LINE
  5
   7DE
  8
0
  6
CONTINUOUS
 62
     1
 10
-407.406109306998
 20
44.5719494432128
 30
0.0
 11
-407.531109080662
 21
44.5719494432128
 31
0.0
  0
INSERT
  5
   7DF
  8
0
  6
CONTINUOUS
 62
     7
  2
*UDIM460
 10
0.0
 20
0.0
 30
0.0
  0
INSERT
  5
   7E0
  8
0
  6
CONTINUOUS
 62
     7
  2
*UDIM461
 10
0.0
 20
0.0
 30
0.0
  0
LINE
  5
   7E1
  8
0
  6
CONTINUOUS
 62
     7
 10
-425.022626529671
 20
101.325440439655
 30
0.0
 11
-368.873671556323
 21
103.435083256573
 31
0.0
  0
TEXT
  5
   7E2
  8
0
  6
CONTINUOUS
 62
     7
 10
-329.258862793434
 20
-18.788965513339
 30
0.0
 40
3.00000002980232
  1
X
 50
359.999999948034
 41
0.916666604744064
 72
     1
 11
-328.158862857647
 21
-17.28896549943
 31
0.0
 73
     2
  0
INSERT
  5
   7E3
  8
0
  6
CONTINUOUS
 62
     5
  2
*UDIM462
 10
0.0
 20
0.0
 30
0.0
  0
INSERT
  5
   7E4
  8
0
  6
CONTINUOUS
 62
     7
  2
*UDIM463
 10
0.0
 20
0.0
 30
0.0
  0
INSERT
  5
   7E5
  8
0
  6
CONTINUOUS
 62
     7
  2
*UDIM464
 10
0.0
 20
0.0
 30
0.0
  0
TEXT
  5
   7E6
  8
0
  6
CONTINUOUS
 62
     5
 10
-331.834491741941
 20
-30.861578291523
 30
0.0
 40
3.00000002980232
  1
=        =
 50
89.9999999480344
 41
0.916666604744064
 72
     2
 11
-331.834491717532
 21
-3.91157984869438
 31
0.0
  0
INSERT
  5
   7E7
  8
0
  6
CONTINUOUS
 62
     7
  2
*UDIM465
 10
0.0
 20
0.0
 30
0.0
  0
INSERT
  5
   7E8
  8
0
  6
CONTINUOUS
 62
     7
  2
*UDIM466
 10
0.0
 20
0.0
 30
0.0
  0
INSERT
  5
   7E9
  8
0
  6
CONTINUOUS
 62
     7
  2
*UDIM467
 10
0.0
 20
0.0
 30
0.0
  0
ENDSEC
  0
EOF
