  0
SECTION
  2
HEADER
  9
$ACADVER
  1
AC1009
  9
$INSBASE
 10
0.0
 20
0.0
 30
0.0
  9
$EXTMIN
 10
-468.39630960896551
 20
219.9354222898211
 30
-0.0015258207003583
  9
$EXTMAX
 10
255.5745582802314
 20
725.51118062586102
 30
0.0000000349246037
  9
$LIMMIN
 10
0.0
 20
0.0
  9
$LIMMAX
 10
420.0
 20
297.0
  9
$ORTHOMODE
 70
     0
  9
$REGENMODE
 70
     1
  9
$FILLMODE
 70
     1
  9
$QTEXTMODE
 70
     0
  9
$MIRRTEXT
 70
     1
  9
$DRAGMODE
 70
     2
  9
$LTSCALE
 40
1.0
  9
$OSMODE
 70
    47
  9
$ATTMODE
 70
     1
  9
$TEXTSIZE
 40
0.0
  9
$TRACEWID
 40
1.0
  9
$TEXTSTYLE
  7
STANDARD
  9
$CLAYER
  8
0
  9
$CELTYPE
  6
BYLAYER
  9
$CECOLOR
 62
   256
  9
$DIMSCALE
 40
1.0
  9
$DIMASZ
 40
2.5
  9
$DIMEXO
 40
0.625
  9
$DIMDLI
 40
3.75
  9
$DIMRND
 40
0.0
  9
$DIMDLE
 40
0.0
  9
$DIMEXE
 40
1.25
  9
$DIMTP
 40
0.0
  9
$DIMTM
 40
0.0
  9
$DIMTXT
 40
2.5
  9
$DIMCEN
 40
2.5
  9
$DIMTSZ
 40
0.0
  9
$DIMTOL
 70
     0
  9
$DIMLIM
 70
     0
  9
$DIMTIH
 70
     0
  9
$DIMTOH
 70
     0
  9
$DIMSE1
 70
     0
  9
$DIMSE2
 70
     0
  9
$DIMTAD
 70
     1
  9
$DIMZIN
 70
     8
  9
$DIMBLK
  1

  9
$DIMASO
 70
     1
  9
$DIMSHO
 70
     1
  9
$DIMPOST
  1

  9
$DIMAPOST
  1

  9
$DIMALT
 70
     0
  9
$DIMALTD
 70
     3
  9
$DIMALTF
 40
0.03937
  9
$DIMLFAC
 40
1.0
  9
$DIMTOFL
 70
     1
  9
$DIMTVP
 40
0.0
  9
$DIMTIX
 70
     0
  9
$DIMSOXD
 70
     0
  9
$DIMSAH
 70
     0
  9
$DIMBLK1
  1

  9
$DIMBLK2
  1

  9
$DIMSTYLE
  2
STANDARD
  9
$DIMCLRD
 70
     0
  9
$DIMCLRE
 70
     0
  9
$DIMCLRT
 70
     0
  9
$DIMTFAC
 40
1.0
  9
$DIMGAP
 40
0.625
  9
$LUNITS
 70
     2
  9
$LUPREC
 70
     4
  9
$SKETCHINC
 40
1.0
  9
$FILLETRAD
 40
2.5
  9
$AUNITS
 70
     0
  9
$AUPREC
 70
     0
  9
$MENU
  1
.
  9
$ELEVATION
 40
0.0
  9
$PELEVATION
 40
0.0
  9
$THICKNESS
 40
0.0
  9
$LIMCHECK
 70
     0
  9
$BLIPMODE
 70
     0
  9
$CHAMFERA
 40
2.5
  9
$CHAMFERB
 40
2.5
  9
$SKPOLY
 70
     0
  9
$TDCREATE
 40
2311947.2531350688
  9
$TDUPDATE
 40
2454455.400911157
  9
$TDINDWG
 40
0.0005108333
  9
$TDUSRTIMER
 40
0.0005108333
  9
$USRTIMER
 70
     1
  9
$ANGBASE
 50
0.0
  9
$ANGDIR
 70
     0
  9
$PDMODE
 70
     0
  9
$PDSIZE
 40
0.0
  9
$PLINEWID
 40
0.0
  9
$COORDS
 70
     1
  9
$SPLFRAME
 70
     0
  9
$SPLINETYPE
 70
     6
  9
$SPLINESEGS
 70
     8
  9
$ATTDIA
 70
     0
  9
$ATTREQ
 70
     1
  9
$HANDLING
 70
 22529
  9
$HANDSEED
  5
89F
  9
$SURFTAB1
 70
     6
  9
$SURFTAB2
 70
     6
  9
$SURFTYPE
 70
     6
  9
$SURFU
 70
     6
  9
$SURFV
 70
     6
  9
$UCSNAME
  2

  9
$UCSORG
 10
0.0
 20
0.0
 30
0.0
  9
$UCSXDIR
 10
1.0
 20
0.0
 30
0.0
  9
$UCSYDIR
 10
0.0
 20
1.0
 30
0.0
  9
$PUCSNAME
  2

  9
$PUCSORG
 10
0.0
 20
0.0
 30
0.0
  9
$PUCSXDIR
 10
1.0
 20
0.0
 30
0.0
  9
$PUCSYDIR
 10
0.0
 20
1.0
 30
0.0
  9
$USERI1
 70
     0
  9
$USERI2
 70
     0
  9
$USERI3
 70
     0
  9
$USERI4
 70
     0
  9
$USERI5
 70
     0
  9
$USERR1
 40
0.0
  9
$USERR2
 40
0.0
  9
$USERR3
 40
0.0
  9
$USERR4
 40
0.0
  9
$USERR5
 40
0.0
  9
$WORLDVIEW
 70
     1
  9
$SHADEDGE
 70
     3
  9
$SHADEDIF
 70
    70
  9
$TILEMODE
 70
     1
  9
$MAXACTVP
 70
    48
  9
$PLIMCHECK
 70
     0
  9
$PEXTMIN
 10
0.0
 20
0.0
 30
0.0
  9
$PEXTMAX
 10
376.859283
 20
176.50418099999999
 30
2.0
  9
$PLIMMIN
 10
0.0
 20
0.0
  9
$PLIMMAX
 10
420.0
 20
297.0
  9
$UNITMODE
 70
     0
  9
$VISRETAIN
 70
     0
  9
$PLINEGEN
 70
     0
  9
$PSLTSCALE
 70
     1
  0
ENDSEC
  0
SECTION
  2
TABLES
  0
TABLE
  2
VPORT
 70
     2
  0
VPORT
  2
*ACTIVE
 70
     0
 10
0.0
 20
0.0
 11
1.0
 21
1.0
 12
-106.410875664367
 22
472.7233014578411
 13
0.0
 23
0.0
 14
1.0
 24
1.0
 15
0.0
 25
0.0
 16
0.0
 26
0.0
 36
1.0
 17
0.0
 27
0.0
 37
0.0
 40
509.56714590185061
 41
1.550724637681159
 42
50.0
 43
0.0
 44
0.0
 50
0.0
 51
0.0
 71
     0
 72
   100
 73
     1
 74
     1
 75
     0
 76
     0
 77
     0
 78
     0
  0
ENDTAB
  0
TABLE
  2
LTYPE
 70
     8
  0
LTYPE
  2
CONTINUOUS
 70
     0
  3
Solid line
 72
    65
 73
     0
 40
0.0
  0
LTYPE
  2
DASHED
 70
     0
  3
__ __ __ __ __ __ __ __ __ __ __ __ __ __ __ __
 72
    65
 73
     2
 40
15.0
 49
12.0
 49
-3.0
  0
LTYPE
  2
DASHDOT
 70
     0
  3
 __ . __ . __ . __ . __ . __ . __ . 
 72
    65
 73
     4
 40
18.5
 49
12.0
 49
-3.0
 49
0.5
 49
-3.0
  0
LTYPE
  2
DOT
 70
     0
  3
 . . . . . . . . . . . . . . . .
 72
    65
 73
     2
 40
3.5
 49
0.5
 49
-3.0
  0
LTYPE
  2
DASHSPACE
 70
     0
  3
__    __    __    __    __   
 72
    65
 73
     2
 40
30.0
 49
12.0
 49
-18.0
  0
LTYPE
  2
DASHDOT2
 70
     0
  3
__ . . __ . . __ . . __ 
 72
    65
 73
     6
 40
22.0
 49
12.0
 49
-3.0
 49
0.5
 49
-3.0
 49
0.5
 49
-3.0
  0
LTYPE
  2
PHANTOM
 70
     0
  3
____________    ____    ____   _
 72
    65
 73
     6
 40
20.0
 49
10.0
 49
-2.0
 49
2.0
 49
-2.0
 49
2.0
 49
-2.0
  0
LTYPE
  2
AXES
 70
     0
  3
________  __  ________  __  _____
 72
    65
 73
     4
 40
24.0
 49
15.0
 49
-3.0
 49
3.0
 49
-3.0
  0
ENDTAB
  0
TABLE
  2
LAYER
 70
     1
  0
LAYER
  2
0
 70
     0
 62
     7
  6
CONTINUOUS
  0
ENDTAB
  0
TABLE
  2
STYLE
 70
     2
  0
STYLE
  2
STANDARD
 70
     0
 40
0.0
 41
1.0
 50
0.0
 71
     0
 42
0.0
  3
isocp.shx
  4

  0
STYLE
  2
GDT
 70
     0
 40
0.0
 41
1.0
 50
0.0
 71
     0
 42
0.0
  3
amgdt.shx
  4

  0
ENDTAB
  0
TABLE
  2
VIEW
 70
     0
  0
ENDTAB
  0
TABLE
  2
UCS
 70
     0
  0
ENDTAB
  0
TABLE
  2
APPID
 70
     1
  0
APPID
  2
ACAD
 70
     0
  0
ENDTAB
  0
TABLE
  2
DIMSTYLE
 70
     1
  0
DIMSTYLE
  2
STANDARD
 70
     0
  3

  4

  5

  6

  7

 40
1.0
 41
2.5
 42
0.625
 43
3.75
 44
1.25
 45
0.0
 46
0.0
 47
0.0
 48
0.0
140
2.5
141
2.5
142
0.0
143
0.03937
144
1.0
145
0.0
146
1.0
147
0.625
 71
     0
 72
     0
 73
     0
 74
     0
 75
     0
 76
     0
 77
     1
 78
     8
170
     0
171
     3
172
     1
173
     0
174
     0
175
     0
176
     0
177
     0
178
     0
  0
ENDTAB
  0
ENDSEC
  0
SECTION
  2
BLOCKS
  0
BLOCK
  8
0
  2
$MODEL_SPACE
 70
     0
 10
0.0
 20
0.0
 30
0.0
  3
$MODEL_SPACE
  1

  0
ENDBLK
  5
E
  8
0
  0
BLOCK
 67
     1
  8
0
  2
$PAPER_SPACE
 70
     0
 10
0.0
 20
0.0
 30
0.0
  3
$PAPER_SPACE
  1

  0
ENDBLK
  5
10
 67
     1
  8
0
  0
BLOCK
  8
0
  2
BLOCK0
 70
     0
 10
0.0
 20
0.0
 30
0.0
  3
BLOCK0
  1

  0
TEXT
  5
5A9
  8
0
 62
     1
 10
-563.20831299999986
 20
-52.75
 30
0.0
 40
2.5
  1
Ts3 IV
 50
180.0
 41
1.7065981108829611
 72
     5
 11
-578.79168700000002
 21
-52.75
 31
0.0
  0
ENDBLK
  5
5AA
  8
0
  0
BLOCK
  8
0
  2
BLOCK1
 70
     0
 10
0.0
 20
0.0
 30
0.0
  3
BLOCK1
  1

  0
TEXT
  5
5AC
  8
0
 62
     1
 10
-555.91668700000002
 20
-71.75
 30
0.0
 40
2.5
  1
ADATTATORE PER
 50
180.0
 41
1.1968999813953489
 72
     5
 11
-588.08337400000005
 21
-71.75
 31
0.0
  0
TEXT
  5
5AD
  8
0
 62
     1
 10
-554.75
 20
-67.75
 30
0.0
 40
2.5
  1
QUADRO MNS 2000
 50
180.0
 41
1.2601833543052301
 72
     5
 11
-589.25
 21
-67.75
 31
0.0
  0
TEXT
  5
5AE
  8
0
 62
     1
 10
-559.41668700000002
 20
-63.749995999999989
 30
0.0
 40
2.5
  1
ADAPTER FOR
 50
179.9999908933934
 41
1.2202030060606219
 72
     5
 11
-584.58337400000005
 21
-63.749992000000013
 31
0.0
  0
TEXT
  5
5AF
  8
0
 62
     1
 10
-554.75
 20
-59.749996000000003
 30
0.0
 40
2.5
  1
MNS SYSTEM 2000
 50
179.99999335701099
 41
1.271797104604339
 72
     5
 11
-589.25
 21
-59.749991999999999
 31
0.0
  0
ENDBLK
  5
5B0
  8
0
  0
BLOCK
  8
0
  2
BLOCK2
 70
     0
 10
0.0
 20
0.0
 30
0.0
  3
BLOCK2
  1

  0
TEXT
  5
5B2
  8
0
 62
     1
 10
-544.22405999999989
 20
-43.749996000000003
 30
0.0
 40
4.5
  1
1SDH000637R0.129
 50
180.00000372341739
 41
1.27576017751361
 72
     5
 11
-605.77587900000003
 21
-43.75
 31
0.0
  0
ENDBLK
  5
5B3
  8
0
  0
BLOCK
  8
0
  2
BLOCK3
 70
     0
 10
0.0
 20
0.0
 30
0.0
  3
BLOCK3
  1

  0
TEXT
  5
5B5
  8
0
 62
     1
 10
-503.0
 20
-58.75
 30
0.0
 40
2.5
  1
N0204 2007-09-17
 50
180.0000101972575
 41
0.8360064295107053
 72
     5
 11
-525.47497599999997
 21
-58.750004000000011
 31
0.0
  0
ENDBLK
  5
5B6
  8
0
  0
BLOCK
  8
0
  2
BLOCK4
 70
     0
 10
0.0
 20
0.0
 30
0.0
  3
BLOCK4
  1

  0
TEXT
  5
5B8
  8
0
 62
     3
 10
-339.65844700000002
 20
71.177070999999998
 30
0.0
 40
3.5
  1
150
 50
90.0
 41
1.4850470776446409
 72
     5
 11
-339.65844700000002
 21
80.277077000000006
 31
0.0
  0
POLYLINE
  5
5B9
  8
0
 62
     3
 66
     1
 10
0.0
 20
0.0
 30
0.0
  0
VERTEX
  5
847
  8
0
 62
     3
 10
-339.176086
 20
1.9318519999999999
 30
0.0
  0
VERTEX
  5
848
  8
0
 62
     3
 10
-338.65844700000002
 20
0.0
 30
0.0
  0
VERTEX
  5
849
  8
0
 62
     3
 10
-338.14080799999988
 20
1.9318519999999999
 30
0.0
  0
SEQEND
  5
84A
  8
0
 62
     3
  0
POLYLINE
  5
5BE
  8
0
 62
     3
 66
     1
 10
0.0
 20
0.0
 30
0.0
  0
VERTEX
  5
84B
  8
0
 62
     3
 10
-338.14080799999988
 20
148.0681459999999
 30
0.0
  0
VERTEX
  5
84C
  8
0
 62
     3
 10
-338.65844700000002
 20
150.0
 30
0.0
  0
VERTEX
  5
84D
  8
0
 62
     3
 10
-339.176086
 20
148.0681459999999
 30
0.0
  0
SEQEND
  5
84E
  8
0
 62
     3
  0
LINE
  5
5C3
  8
0
 62
     3
 10
-338.65844700000002
 20
0.0
 30
0.0
 11
-338.65844700000002
 21
150.0
 31
0.0
  0
ENDBLK
  5
5C4
  8
0
  0
BLOCK
  8
0
  2
BLOCK5
 70
     0
 10
0.0
 20
0.0
 30
0.0
  3
BLOCK5
  1

  0
TEXT
  5
5C6
  8
0
 62
     3
 10
-364.65618899999998
 20
71.668281999999991
 30
0.0
 40
3.5
  1
159
 50
90.0
 41
1.4273226953527141
 72
     5
 11
-364.65618899999998
 21
80.768287999999984
 31
0.0
  0
LINE
  5
5C7
  8
0
 62
     3
 10
-9.0
 20
-4.5
 30
0.0
 11
-365.65618899999998
 21
-4.5
 31
0.0
  0
LINE
  5
5C8
  8
0
 62
     3
 10
-273.49999999999989
 20
154.49999999999989
 30
0.0
 11
-365.65618899999998
 21
154.49999999999989
 31
0.0
  0
POLYLINE
  5
5C9
  8
0
 62
     3
 66
     1
 10
0.0
 20
0.0
 30
0.0
  0
VERTEX
  5
84F
  8
0
 62
     3
 10
-363.13855000000001
 20
152.5681459999999
 30
0.0
  0
VERTEX
  5
850
  8
0
 62
     3
 10
-363.65618899999998
 20
154.49999999999989
 30
0.0
  0
VERTEX
  5
851
  8
0
 62
     3
 10
-364.1738279999999
 20
152.5681459999999
 30
0.0
  0
SEQEND
  5
852
  8
0
 62
     3
  0
POLYLINE
  5
5CE
  8
0
 62
     3
 66
     1
 10
0.0
 20
0.0
 30
0.0
  0
VERTEX
  5
853
  8
0
 62
     3
 10
-364.1738279999999
 20
-2.568147999999999
 30
0.0
  0
VERTEX
  5
854
  8
0
 62
     3
 10
-363.65618899999998
 20
-4.5
 30
0.0
  0
VERTEX
  5
855
  8
0
 62
     3
 10
-363.13855000000001
 20
-2.568147999999999
 30
0.0
  0
SEQEND
  5
856
  8
0
 62
     3
  0
LINE
  5
5D3
  8
0
 62
     3
 10
-363.65618899999998
 20
-4.5
 30
0.0
 11
-363.65618899999998
 21
154.49999999999989
 31
0.0
  0
ENDBLK
  5
5D4
  8
0
  0
BLOCK
  8
0
  2
BLOCK6
 70
     0
 10
0.0
 20
0.0
 30
0.0
  3
BLOCK6
  1

  0
TEXT
  5
5D6
  8
0
 62
     3
 10
41.303019999999997
 20
-31.666541999999989
 30
0.0
 40
3.5
  1
11.5
 41
1.8680840143568109
 72
     5
 11
53.669688999999991
 21
-31.666541999999989
 31
0.0
  0
LINE
  5
5D7
  8
0
 62
     3
 10
0.000001
 20
-11.19690099999999
 30
0.0
 11
0.000001
 21
-34.666542
 31
0.0
  0
LINE
  5
5D8
  8
0
 62
     3
 10
11.5
 20
6.0
 30
0.0
 11
11.5
 21
-34.666542
 31
0.0
  0
POLYLINE
  5
5D9
  8
0
 62
     3
 66
     1
 10
0.0
 20
0.0
 30
0.0
  0
VERTEX
  5
857
  8
0
 62
     3
 10
1.9318529999999989
 20
-32.148902999999997
 30
0.0
  0
VERTEX
  5
858
  8
0
 62
     3
 10
0.000001
 20
-32.666542
 30
0.0
  0
VERTEX
  5
859
  8
0
 62
     3
 10
1.9318529999999989
 20
-33.184181000000002
 30
0.0
  0
SEQEND
  5
85A
  8
0
 62
     3
  0
POLYLINE
  5
5DE
  8
0
 62
     3
 66
     1
 10
0.0
 20
0.0
 30
0.0
  0
VERTEX
  5
85B
  8
0
 62
     3
 10
9.568149
 20
-33.184181000000002
 30
0.0
  0
VERTEX
  5
85C
  8
0
 62
     3
 10
11.5
 20
-32.666542
 30
0.0
  0
VERTEX
  5
85D
  8
0
 62
     3
 10
9.568149
 20
-32.148902999999997
 30
0.0
  0
SEQEND
  5
85E
  8
0
 62
     3
  0
LINE
  5
5E3
  8
0
 62
     3
 10
0.000001
 20
-32.666542
 30
0.0
 11
53.669688999999991
 21
-32.666542
 31
0.0
  0
ENDBLK
  5
5E4
  8
0
  0
BLOCK
  8
0
  2
BLOCK7
 70
     0
 10
0.0
 20
0.0
 30
0.0
  3
BLOCK7
  1

  0
TEXT
  5
5E6
  8
0
 62
     3
 10
-157.80470299999999
 20
-51.969878999999992
 30
0.0
 40
3.5
  1
322
 41
1.293495187450068
 72
     5
 11
-148.70469700000001
 21
-51.969878999999992
 31
0.0
  0
LINE
  5
5E7
  8
0
 62
     3
 10
-310.49999999999989
 20
6.0
 30
0.0
 11
-310.49999999999989
 21
-54.969878999999999
 31
0.0
  0
LINE
  5
5E8
  8
0
 62
     3
 10
11.5
 20
6.0
 30
0.0
 11
11.5
 21
-54.969878999999999
 31
0.0
  0
POLYLINE
  5
5E9
  8
0
 62
     3
 66
     1
 10
0.0
 20
0.0
 30
0.0
  0
VERTEX
  5
85F
  8
0
 62
     3
 10
9.568149
 20
-53.487514000000012
 30
0.0
  0
VERTEX
  5
860
  8
0
 62
     3
 10
11.5
 20
-52.969879000000013
 30
0.0
  0
VERTEX
  5
861
  8
0
 62
     3
 10
9.568149
 20
-52.452240000000003
 30
0.0
  0
SEQEND
  5
862
  8
0
 62
     3
  0
POLYLINE
  5
5EE
  8
0
 62
     3
 66
     1
 10
0.0
 20
0.0
 30
0.0
  0
VERTEX
  5
863
  8
0
 62
     3
 10
-308.5681459999999
 20
-52.452240000000003
 30
0.0
  0
VERTEX
  5
864
  8
0
 62
     3
 10
-310.49999999999989
 20
-52.969879000000013
 30
0.0
  0
VERTEX
  5
865
  8
0
 62
     3
 10
-308.5681459999999
 20
-53.487514000000012
 30
0.0
  0
SEQEND
  5
866
  8
0
 62
     3
  0
LINE
  5
5F3
  8
0
 62
     3
 10
-310.49999999999989
 20
-52.969879000000013
 30
0.0
 11
11.5
 21
-52.969879000000013
 31
0.0
  0
ENDBLK
  5
5F4
  8
0
  0
BLOCK
  8
0
  2
BLOCK8
 70
     0
 10
0.0
 20
0.0
 30
0.0
  3
BLOCK8
  1

  0
TEXT
  5
5F6
  8
0
 62
     3
 10
-130.6244199999999
 20
173.00418099999999
 30
0.0
 40
3.5
  1
250
 41
1.3327948634856539
 72
     5
 11
-121.5244219999999
 21
173.00418099999999
 31
0.0
  0
LINE
  5
5F7
  8
0
 62
     3
 10
-250.0
 20
159.0
 30
0.0
 11
-250.0
 21
174.00418099999999
 31
0.0
  0
POLYLINE
  5
5F8
  8
0
 62
     3
 66
     1
 10
0.0
 20
0.0
 30
0.0
  0
VERTEX
  5
867
  8
0
 62
     3
 10
-1.9318509999999991
 20
171.4865419999999
 30
0.0
  0
VERTEX
  5
868
  8
0
 62
     3
 10
0.000001
 20
172.00418099999999
 30
0.0
  0
VERTEX
  5
869
  8
0
 62
     3
 10
-1.9318509999999991
 20
172.52181999999999
 30
0.0
  0
SEQEND
  5
86A
  8
0
 62
     3
  0
POLYLINE
  5
5FD
  8
0
 62
     3
 66
     1
 10
0.0
 20
0.0
 30
0.0
  0
VERTEX
  5
86B
  8
0
 62
     3
 10
-248.06814600000001
 20
172.52181999999999
 30
0.0
  0
VERTEX
  5
86C
  8
0
 62
     3
 10
-250.0
 20
172.00418099999999
 30
0.0
  0
VERTEX
  5
86D
  8
0
 62
     3
 10
-248.06814600000001
 20
171.4865419999999
 30
0.0
  0
SEQEND
  5
86E
  8
0
 62
     3
  0
LINE
  5
602
  8
0
 62
     3
 10
-250.0
 20
172.00418099999999
 30
0.0
 11
0.000001
 21
172.00418099999999
 31
0.0
  0
ENDBLK
  5
603
  8
0
  0
BLOCK
  8
0
  2
BLOCK9
 70
     0
 10
0.0
 20
0.0
 30
0.0
  3
BLOCK9
  1

  0
TEXT
  5
605
  8
0
 62
     3
 10
51.380870999999992
 20
72.083336000000003
 30
0.0
 40
3.5
  1
50
 50
90.0
 41
1.3324927487746741
 72
     5
 11
51.380870999999992
 21
77.916663999999997
 31
0.0
  0
LINE
  5
606
  8
0
 62
     3
 10
31.918158999999999
 20
50.0
 30
0.0
 11
55.380870999999999
 21
50.0
 31
0.0
  0
LINE
  5
607
  8
0
 62
     3
 10
32.991046999999988
 20
100.0
 30
0.0
 11
55.380870999999999
 21
100.0
 31
0.0
  0
POLYLINE
  5
608
  8
0
 62
     3
 66
     1
 10
0.0
 20
0.0
 30
0.0
  0
VERTEX
  5
86F
  8
0
 62
     3
 10
53.898510000000002
 20
98.068145999999999
 30
0.0
  0
VERTEX
  5
870
  8
0
 62
     3
 10
53.380870999999999
 20
100.0
 30
0.0
  0
VERTEX
  5
871
  8
0
 62
     3
 10
52.863234999999989
 20
98.068145999999999
 30
0.0
  0
SEQEND
  5
872
  8
0
 62
     3
  0
POLYLINE
  5
60D
  8
0
 62
     3
 66
     1
 10
0.0
 20
0.0
 30
0.0
  0
VERTEX
  5
873
  8
0
 62
     3
 10
52.863234999999989
 20
51.93184999999999
 30
0.0
  0
VERTEX
  5
874
  8
0
 62
     3
 10
53.380870999999999
 20
50.0
 30
0.0
  0
VERTEX
  5
875
  8
0
 62
     3
 10
53.898510000000002
 20
51.93184999999999
 30
0.0
  0
SEQEND
  5
876
  8
0
 62
     3
  0
LINE
  5
612
  8
0
 62
     3
 10
53.380870999999999
 20
50.0
 30
0.0
 11
53.380870999999999
 21
100.0
 31
0.0
  0
ENDBLK
  5
613
  8
0
  0
BLOCK
  8
0
  2
BLOCK10
 70
     0
 10
0.0
 20
0.0
 30
0.0
  3
BLOCK10
  1

  0
TEXT
  5
615
  8
0
 62
     3
 10
51.380870999999992
 20
22.083334000000001
 30
0.0
 40
3.5
  1
50
 50
90.0
 41
1.3324936624848229
 72
     5
 11
51.380870999999992
 21
27.916665999999989
 31
0.0
  0
LINE
  5
616
  8
0
 62
     3
 10
38.604819999999997
 20
0.0
 30
0.0
 11
55.380870999999999
 21
0.0
 31
0.0
  0
LINE
  5
617
  8
0
 62
     3
 10
31.918158999999999
 20
50.0
 30
0.0
 11
55.380870999999999
 21
50.0
 31
0.0
  0
POLYLINE
  5
618
  8
0
 62
     3
 66
     1
 10
0.0
 20
0.0
 30
0.0
  0
VERTEX
  5
877
  8
0
 62
     3
 10
52.863234999999989
 20
1.9318519999999999
 30
0.0
  0
VERTEX
  5
878
  8
0
 62
     3
 10
53.380870999999999
 20
0.0
 30
0.0
  0
VERTEX
  5
879
  8
0
 62
     3
 10
53.898510000000002
 20
1.9318519999999999
 30
0.0
  0
SEQEND
  5
87A
  8
0
 62
     3
  0
POLYLINE
  5
61D
  8
0
 62
     3
 66
     1
 10
0.0
 20
0.0
 30
0.0
  0
VERTEX
  5
87B
  8
0
 62
     3
 10
53.898510000000002
 20
48.068150000000003
 30
0.0
  0
VERTEX
  5
87C
  8
0
 62
     3
 10
53.380870999999999
 20
50.0
 30
0.0
  0
VERTEX
  5
87D
  8
0
 62
     3
 10
52.863234999999989
 20
48.068150000000003
 30
0.0
  0
SEQEND
  5
87E
  8
0
 62
     3
  0
LINE
  5
622
  8
0
 62
     3
 10
53.380870999999999
 20
0.0
 30
0.0
 11
53.380870999999999
 21
50.0
 31
0.0
  0
ENDBLK
  5
623
  8
0
  0
BLOCK
  8
0
  2
BLOCK11
 70
     0
 10
0.0
 20
0.0
 30
0.0
  3
BLOCK11
  1

  0
LINE
  5
625
  8
0
 62
     2
 10
191.70007299999989
 20
43.400050999999991
 30
0.0
 11
191.70007299999989
 21
60.400050999999998
 31
0.0
  0
LINE
  5
626
  8
0
 62
     2
 10
203.70007299999989
 20
43.400050999999991
 30
0.0
 11
203.70007299999989
 21
60.400050999999998
 31
0.0
  0
LINE
  5
627
  8
0
 62
     2
 10
202.700073
 20
42.400050999999998
 30
0.0
 11
192.70007299999989
 21
42.400050999999998
 31
0.0
  0
LINE
  5
628
  8
0
 62
     2
 10
202.700073
 20
61.400050999999991
 30
0.0
 11
192.70007299999989
 21
61.400050999999991
 31
0.0
  0
LINE
  5
629
  8
0
 62
     2
 10
192.70007299999989
 20
42.400050999999998
 30
0.0
 11
191.70007299999989
 21
43.400050999999991
 31
0.0
  0
LINE
  5
62A
  8
0
 62
     2
 10
202.700073
 20
42.400050999999998
 30
0.0
 11
203.70007299999989
 21
43.400050999999991
 31
0.0
  0
LINE
  5
62B
  8
0
 62
     2
 10
191.70007299999989
 20
60.400050999999998
 30
0.0
 11
192.70007299999989
 21
61.400050999999991
 31
0.0
  0
LINE
  5
62C
  8
0
 62
     2
 10
203.70007299999989
 20
60.400050999999998
 30
0.0
 11
202.700073
 21
61.400050999999991
 31
0.0
  0
LINE
  5
62D
  8
0
 62
     2
 10
192.70007299999989
 20
42.400050999999998
 30
0.0
 11
192.70007299999989
 21
61.400050999999991
 31
0.0
  0
LINE
  5
62E
  8
0
 62
     2
 10
202.700073
 20
42.400050999999998
 30
0.0
 11
202.700073
 21
61.400050999999991
 31
0.0
  0
LINE
  5
62F
  8
0
 62
     2
 10
203.70007299999989
 20
43.400050999999991
 30
0.0
 11
191.70007299999989
 21
43.400050999999991
 31
0.0
  0
LINE
  5
630
  8
0
 62
     2
 10
203.70007299999989
 20
60.400050999999998
 30
0.0
 11
191.70007299999989
 21
60.400050999999998
 31
0.0
  0
LINE
  5
631
  8
0
 62
   230
 10
202.200073
 20
42.400050999999998
 30
0.0
 11
193.200073
 21
42.400050999999998
 31
0.0
  0
LINE
  5
632
  8
0
 62
   230
 10
206.200073
 20
37.400050999999991
 30
0.0
 11
189.200073
 21
37.400050999999991
 31
0.0
  0
LINE
  5
633
  8
0
 62
   230
 10
189.200073
 20
37.400050999999991
 30
0.0
 11
189.200073
 21
40.311584000000003
 31
0.0
  0
LINE
  5
634
  8
0
 62
   230
 10
206.200073
 20
37.400050999999991
 30
0.0
 11
206.200073
 21
40.311584000000003
 31
0.0
  0
LINE
  5
635
  8
0
 62
   230
 10
206.200073
 20
39.900050999999991
 30
0.0
 11
189.200073
 21
39.900050999999991
 31
0.0
  0
LINE
  5
636
  8
0
 62
   230
 10
206.200073
 20
40.311584000000003
 30
0.0
 11
204.700073
 21
40.311584000000003
 31
0.0
  0
LINE
  5
637
  8
0
 62
   230
 10
193.200073
 20
40.311584000000003
 30
0.0
 11
193.200073
 21
42.400050999999998
 31
0.0
  0
LINE
  5
638
  8
0
 62
   230
 10
202.200073
 20
40.311584000000003
 30
0.0
 11
202.200073
 21
42.400050999999998
 31
0.0
  0
ARC
  5
639
  8
0
 62
   230
 10
197.700073
 20
64.708855
 30
0.0
 40
24.808805
 50
259.54943300000002
 51
280.45057700000001
  0
LINE
  5
63A
  8
0
 62
   230
 10
193.200073
 20
40.311584000000003
 30
0.0
 11
192.70007299999989
 21
40.311584000000003
 31
0.0
  0
ARC
  5
63B
  8
0
 62
   230
 10
203.70007299999989
 20
41.061584000000003
 30
0.0
 40
1.25
 50
216.86990299999991
 51
248.314728
  0
ARC
  5
63C
  8
0
 62
   230
 10
191.70007299999989
 20
41.061584000000003
 30
0.0
 40
1.25
 50
216.86990299999991
 51
248.314728
  0
ARC
  5
63D
  8
0
 62
   230
 10
191.70007299999989
 20
41.061584000000003
 30
0.0
 40
1.25
 50
291.68526900000001
 51
323.13009199999988
  0
ARC
  5
63E
  8
0
 62
   230
 10
203.70007299999989
 20
41.061584000000003
 30
0.0
 40
1.25
 50
291.68526900000001
 51
323.13009199999988
  0
LINE
  5
63F
  8
0
 62
   230
 10
190.700073
 20
40.311584000000003
 30
0.0
 11
189.200073
 21
40.311584000000003
 31
0.0
  0
LINE
  5
640
  8
0
 62
   230
 10
202.700073
 20
40.311584000000003
 30
0.0
 11
202.200073
 21
40.311584000000003
 31
0.0
  0
ENDBLK
  5
641
  8
0
  0
BLOCK
  8
0
  2
BLOCK12
 70
     0
 10
0.0
 20
0.0
 30
0.0
  3
BLOCK12
  1

  0
TEXT
  5
643
  8
0
 62
     3
 10
341.39041099999992
 20
36.566696
 30
0.0
 40
3.5
  1
145.5
 50
270.0
 41
1.5447994082096019
 72
     5
 11
341.39041099999992
 21
20.933364999999991
 31
0.0
  0
LINE
  5
644
  8
0
 62
     7
 10
263.5
 20
-44.0
 30
0.0
 11
342.39041099999992
 21
-44.0
 31
0.0
  0
LINE
  5
645
  8
0
 62
     7
 10
194.49996899999991
 20
101.5000609999999
 30
0.0
 11
342.39041099999992
 21
101.5000609999999
 31
0.0
  0
POLYLINE
  5
646
  8
0
 62
     3
 66
     1
 10
0.0
 20
0.0
 30
0.0
  0
VERTEX
  5
87F
  8
0
 62
     3
 10
339.872772
 20
-42.068150000000003
 30
0.0
  0
VERTEX
  5
880
  8
0
 62
     3
 10
340.39041099999992
 20
-44.0
 30
0.0
  0
VERTEX
  5
881
  8
0
 62
     3
 10
340.90805099999989
 20
-42.068150000000003
 30
0.0
  0
SEQEND
  5
882
  8
0
 62
     3
  0
POLYLINE
  5
64B
  8
0
 62
     3
 66
     1
 10
0.0
 20
0.0
 30
0.0
  0
VERTEX
  5
883
  8
0
 62
     3
 10
340.90805099999989
 20
99.568207000000015
 30
0.0
  0
VERTEX
  5
884
  8
0
 62
     3
 10
340.39041099999992
 20
101.5000609999999
 30
0.0
  0
VERTEX
  5
885
  8
0
 62
     3
 10
339.872772
 20
99.568207000000015
 30
0.0
  0
SEQEND
  5
886
  8
0
 62
     3
  0
LINE
  5
650
  8
0
 62
     7
 10
340.39041099999992
 20
-44.0
 30
0.0
 11
340.39041099999992
 21
101.5000609999999
 31
0.0
  0
ENDBLK
  5
651
  8
0
  0
BLOCK
  8
0
  2
BLOCK13
 70
     0
 10
0.0
 20
0.0
 30
0.0
  3
BLOCK13
  1

  0
TEXT
  5
653
  8
0
 62
     3
 10
373.359283
 20
60.06666899999999
 30
0.0
 40
3.5
  1
192.5
 50
270.0
 41
1.598139801212888
 72
     5
 11
373.359283
 21
44.433337999999999
 31
0.0
  0
LINE
  5
654
  8
0
 62
     7
 10
263.5
 20
-44.0
 30
0.0
 11
374.359283
 21
-44.0
 31
0.0
  0
LINE
  5
655
  8
0
 62
     7
 10
-3.5
 20
148.5
 30
0.0
 11
374.359283
 21
148.5
 31
0.0
  0
POLYLINE
  5
656
  8
0
 62
     3
 66
     1
 10
0.0
 20
0.0
 30
0.0
  0
VERTEX
  5
887
  8
0
 62
     3
 10
372.87692299999992
 20
146.5681459999999
 30
0.0
  0
VERTEX
  5
888
  8
0
 62
     3
 10
372.359283
 20
148.5
 30
0.0
  0
VERTEX
  5
889
  8
0
 62
     3
 10
371.84164399999992
 20
146.5681459999999
 30
0.0
  0
SEQEND
  5
88A
  8
0
 62
     3
  0
POLYLINE
  5
65B
  8
0
 62
     3
 66
     1
 10
0.0
 20
0.0
 30
0.0
  0
VERTEX
  5
88B
  8
0
 62
     3
 10
371.84164399999992
 20
-42.068150000000003
 30
0.0
  0
VERTEX
  5
88C
  8
0
 62
     3
 10
372.359283
 20
-44.0
 30
0.0
  0
VERTEX
  5
88D
  8
0
 62
     3
 10
372.87692299999992
 20
-42.068150000000003
 30
0.0
  0
SEQEND
  5
88E
  8
0
 62
     3
  0
LINE
  5
660
  8
0
 62
     7
 10
372.359283
 20
-44.0
 30
0.0
 11
372.359283
 21
148.5
 31
0.0
  0
ENDBLK
  5
661
  8
0
  0
BLOCK
  8
0
  2
BLOCK14
 70
     0
 10
0.0
 20
0.0
 30
0.0
  3
BLOCK14
  1

  0
TEXT
  5
663
  8
0
 62
     3
 10
323.86032099999989
 20
-19.083334000000001
 30
0.0
 40
3.5
  1
44
 50
270.0
 41
1.1494250246305411
 72
     5
 11
323.86032099999989
 21
-24.916665999999999
 31
0.0
  0
LINE
  5
664
  8
0
 62
     3
 10
263.5
 20
-44.0
 30
0.0
 11
324.860321
 21
-44.0
 31
0.0
  0
LINE
  5
665
  8
0
 62
     3
 10
311.5
 20
0.0
 30
0.0
 11
324.860321
 21
0.0
 31
0.0
  0
POLYLINE
  5
666
  8
0
 62
     3
 66
     1
 10
0.0
 20
0.0
 30
0.0
  0
VERTEX
  5
88F
  8
0
 62
     3
 10
323.37795999999997
 20
-1.9318519999999999
 30
0.0
  0
VERTEX
  5
890
  8
0
 62
     3
 10
322.860321
 20
0.0
 30
0.0
  0
VERTEX
  5
891
  8
0
 62
     3
 10
322.34268199999991
 20
-1.9318519999999999
 30
0.0
  0
SEQEND
  5
892
  8
0
 62
     3
  0
POLYLINE
  5
66B
  8
0
 62
     3
 66
     1
 10
0.0
 20
0.0
 30
0.0
  0
VERTEX
  5
893
  8
0
 62
     3
 10
322.34268199999991
 20
-42.068150000000003
 30
0.0
  0
VERTEX
  5
894
  8
0
 62
     3
 10
322.860321
 20
-44.0
 30
0.0
  0
VERTEX
  5
895
  8
0
 62
     3
 10
323.37795999999997
 20
-42.068150000000003
 30
0.0
  0
SEQEND
  5
896
  8
0
 62
     3
  0
LINE
  5
670
  8
0
 62
     3
 10
322.860321
 20
-44.0
 30
0.0
 11
322.860321
 21
0.0
 31
0.0
  0
ENDBLK
  5
671
  8
0
  0
BLOCK
  8
0
  2
BLOCK15
 70
     0
 10
0.0
 20
0.0
 30
0.0
  3
BLOCK15
  1

  0
TEXT
  5
673
  8
0
 62
     3
 10
357.24432400000001
 20
47.056175000000003
 30
0.0
 40
3.5
  1
178
 50
270.0
 41
1.485713959183673
 72
     5
 11
357.24432400000001
 21
37.956176999999997
 31
0.0
  0
LINE
  5
674
  8
0
 62
     3
 10
263.5
 20
-44.0
 30
0.0
 11
358.24432399999989
 21
-44.0
 31
0.0
  0
LINE
  5
675
  8
0
 62
     3
 10
157.54956100000001
 20
133.99511699999991
 30
0.0
 11
358.24432399999989
 21
133.99511699999991
 31
0.0
  0
POLYLINE
  5
676
  8
0
 62
     3
 66
     1
 10
0.0
 20
0.0
 30
0.0
  0
VERTEX
  5
897
  8
0
 62
     3
 10
356.76196299999992
 20
132.06326299999989
 30
0.0
  0
VERTEX
  5
898
  8
0
 62
     3
 10
356.24432400000001
 20
133.99511699999991
 30
0.0
  0
VERTEX
  5
899
  8
0
 62
     3
 10
355.72671500000001
 20
132.06326299999989
 30
0.0
  0
SEQEND
  5
89A
  8
0
 62
     3
  0
POLYLINE
  5
67B
  8
0
 62
     3
 66
     1
 10
0.0
 20
0.0
 30
0.0
  0
VERTEX
  5
89B
  8
0
 62
     3
 10
355.72671500000001
 20
-42.068150000000003
 30
0.0
  0
VERTEX
  5
89C
  8
0
 62
     3
 10
356.24432400000001
 20
-44.0
 30
0.0
  0
VERTEX
  5
89D
  8
0
 62
     3
 10
356.76196299999992
 20
-42.068150000000003
 30
0.0
  0
SEQEND
  5
89E
  8
0
 62
     3
  0
LINE
  5
680
  8
0
 62
     3
 10
356.24432400000001
 20
-44.0
 30
0.0
 11
356.24432400000001
 21
133.99511699999991
 31
0.0
  0
ENDBLK
  5
681
  8
0
  0
BLOCK
  8
0
  2
BLOCK16
 70
     0
 10
0.0
 20
0.0
 30
0.0
  3
BLOCK16
  1

  0
LINE
  5
683
  8
0
 62
     7
 10
-27.75000399999999
 20
-44.37489699999999
 30
0.0
 11
-28.124893
 21
-44.000007999999987
 31
0.0
  0
LINE
  5
684
  8
0
 62
     7
 10
-27.75000399999999
 20
-48.617538000000003
 30
0.0
 11
-30.00000399999999
 21
-46.367538000000003
 31
0.0
  0
LINE
  5
685
  8
0
 62
     7
 10
-27.75000399999999
 20
-52.86018399999999
 30
0.0
 11
-30.00000399999999
 21
-50.61018
 31
0.0
  0
ENDBLK
  5
686
  8
0
  0
BLOCK
  8
0
  2
BLOCK17
 70
     0
 10
0.0
 20
0.0
 30
0.0
  3
BLOCK17
  1

  0
LINE
  5
688
  8
0
 62
     7
 10
-15.500004000000001
 20
-52.382266999999999
 30
0.0
 11
-16.382262999999998
 21
-51.500008000000001
 31
0.0
  0
LINE
  5
689
  8
0
 62
     7
 10
-19.750004000000001
 20
-48.132263000000002
 30
0.0
 11
-22.250004000000001
 21
-45.632258999999998
 31
0.0
  0
LINE
  5
68A
  8
0
 62
     7
 10
-15.500004000000001
 20
-56.624907999999998
 30
0.0
 11
-22.250004000000001
 21
-49.874901000000001
 31
0.0
  0
ENDBLK
  5
68B
  8
0
  0
BLOCK
  8
0
  2
BLOCK18
 70
     0
 10
0.0
 20
0.0
 30
0.0
  3
BLOCK18
  1

  0
LINE
  5
68D
  8
0
 62
     7
 10
-3.0
 20
-47.911712999999999
 30
0.0
 11
-5.2500039999999988
 21
-45.661704999999998
 31
0.0
  0
LINE
  5
68E
  8
0
 62
     7
 10
-3.0
 20
-52.154353999999998
 30
0.0
 11
-5.2500039999999988
 21
-49.904350000000001
 31
0.0
  0
LINE
  5
68F
  8
0
 62
     7
 10
-5.3969889999999987
 20
-54.000007999999987
 30
0.0
 11
-7.8969860000000001
 21
-51.500008000000001
 31
0.0
  0
LINE
  5
690
  8
0
 62
     7
 10
-7.6396289999999993
 20
-56.000008000000001
 30
0.0
 11
-9.5000039999999988
 21
-54.139629000000014
 31
0.0
  0
LINE
  5
691
  8
0
 62
     7
 10
-8.8822710000000011
 20
-59.000007999999987
 30
0.0
 11
-9.5000039999999988
 21
-58.382275
 31
0.0
  0
ENDBLK
  5
692
  8
0
  0
BLOCK
  8
0
  2
BLOCK19
 70
     0
 10
0.0
 20
0.0
 30
0.0
  3
BLOCK19
  1

  0
LINE
  5
694
  8
0
 62
     3
 10
66.090491999999998
 20
38.513320999999998
 30
0.0
 11
66.000022999999985
 21
38.422854999999998
 31
0.0
  0
LINE
  5
695
  8
0
 62
     3
 10
66.820366000000007
 20
38.182532999999999
 30
0.0
 11
66.000022999999985
 21
37.362194000000002
 31
0.0
  0
LINE
  5
696
  8
0
 62
     3
 10
67.550231999999994
 20
37.851745999999991
 30
0.0
 11
66.000022999999985
 21
36.301536999999989
 31
0.0
  0
LINE
  5
697
  8
0
 62
     3
 10
68.280106000000004
 20
37.520953999999989
 30
0.0
 11
66.000022999999985
 21
35.240875000000003
 31
0.0
  0
LINE
  5
698
  8
0
 62
     3
 10
69.009979000000001
 20
37.190165999999991
 30
0.0
 11
66.000022999999985
 21
34.180213999999999
 31
0.0
  0
LINE
  5
699
  8
0
 62
     3
 10
69.739844999999988
 20
36.859375
 30
0.0
 11
66.000022999999985
 21
33.119556000000003
 31
0.0
  0
LINE
  5
69A
  8
0
 62
     3
 10
70.000022999999999
 20
36.058894999999993
 30
0.0
 11
66.000022999999985
 21
32.058895
 31
0.0
  0
LINE
  5
69B
  8
0
 62
     3
 10
70.000022999999999
 20
34.998233999999997
 30
0.0
 11
66.000022999999985
 21
30.998234
 31
0.0
  0
LINE
  5
69C
  8
0
 62
     3
 10
70.000022999999999
 20
33.937571999999989
 30
0.0
 11
66.000022999999985
 21
29.937573999999991
 31
0.0
  0
LINE
  5
69D
  8
0
 62
     3
 10
70.000022999999999
 20
32.876914999999997
 30
0.0
 11
66.000022999999985
 21
28.876915
 31
0.0
  0
LINE
  5
69E
  8
0
 62
     3
 10
70.000022999999999
 20
31.81625399999999
 30
0.0
 11
66.000022999999985
 21
27.81625399999999
 31
0.0
  0
LINE
  5
69F
  8
0
 62
     3
 10
70.000022999999999
 20
30.755593999999991
 30
0.0
 11
66.000022999999985
 21
26.755593999999999
 31
0.0
  0
LINE
  5
6A0
  8
0
 62
     3
 10
70.000022999999999
 20
29.694932999999999
 30
0.0
 11
66.000022999999985
 21
25.694935000000001
 31
0.0
  0
LINE
  5
6A1
  8
0
 62
     3
 10
70.000022999999999
 20
28.634273999999991
 30
0.0
 11
66.36580699999999
 21
25.000050999999999
 31
0.0
  0
LINE
  5
6A2
  8
0
 62
     3
 10
70.000022999999999
 20
27.573613999999999
 30
0.0
 11
67.426459999999992
 21
25.000050999999999
 31
0.0
  0
LINE
  5
6A3
  8
0
 62
     3
 10
70.000022999999999
 20
26.512953
 30
0.0
 11
68.487121999999999
 21
25.000050999999999
 31
0.0
  0
LINE
  5
6A4
  8
0
 62
     3
 10
70.000022999999999
 20
25.452293000000001
 30
0.0
 11
69.547782999999995
 21
25.000050999999999
 31
0.0
  0
ENDBLK
  5
6A5
  8
0
  0
BLOCK
  8
0
  2
BLOCK20
 70
     0
 10
0.0
 20
0.0
 30
0.0
  3
BLOCK20
  1

  0
LINE
  5
6A7
  8
0
 62
     3
 10
73.033066000000005
 20
20.000053000000001
 30
0.0
 11
72.500022999999999
 21
19.467012
 31
0.0
  0
LINE
  5
6A8
  8
0
 62
     3
 10
74.093727000000001
 20
20.000053000000001
 30
0.0
 11
72.500022999999999
 21
18.406351000000001
 31
0.0
  0
LINE
  5
6A9
  8
0
 62
     3
 10
75.154387999999997
 20
20.000053000000001
 30
0.0
 11
72.500022999999999
 21
17.345692
 31
0.0
  0
LINE
  5
6AA
  8
0
 62
     3
 10
75.491248999999996
 20
19.276253000000001
 30
0.0
 11
72.500022999999999
 21
16.285032000000001
 31
0.0
  0
LINE
  5
6AB
  8
0
 62
     3
 10
75.491248999999996
 20
18.215592999999991
 30
0.0
 11
72.500022999999999
 21
15.224372000000001
 31
0.0
  0
LINE
  5
6AC
  8
0
 62
     3
 10
75.491248999999996
 20
17.154931999999999
 30
0.0
 11
72.918198000000004
 21
14.581882
 31
0.0
  0
LINE
  5
6AD
  8
0
 62
     3
 10
75.491248999999996
 20
16.094273000000001
 30
0.0
 11
73.448524000000006
 21
14.051551999999999
 31
0.0
  0
LINE
  5
6AE
  8
0
 62
     3
 10
75.491248999999996
 20
15.033612
 30
0.0
 11
73.978859
 21
13.521222
 31
0.0
  0
LINE
  5
6AF
  8
0
 62
     3
 10
75.491248999999996
 20
13.972953
 30
0.0
 11
74.509186
 21
12.990890999999991
 31
0.0
  0
LINE
  5
6B0
  8
0
 62
     3
 10
75.491248999999996
 20
12.912292000000001
 30
0.0
 11
75.039519999999996
 21
12.460561999999991
 31
0.0
  0
ENDBLK
  5
6B1
  8
0
  0
BLOCK
  8
0
  2
BLOCK21
 70
     0
 10
0.0
 20
0.0
 30
0.0
  3
BLOCK21
  1

  0
LINE
  5
6B3
  8
0
 62
     6
 10
208.70637499999989
 20
24.638760000000001
 30
0.0
 11
208.34509299999999
 21
25.000053000000001
 31
0.0
  0
LINE
  5
6B4
  8
0
 62
     6
 10
208.70637499999989
 20
22.517437000000001
 30
0.0
 11
206.22376999999989
 21
25.000050999999999
 31
0.0
  0
LINE
  5
6B5
  8
0
 62
     6
 10
208.70637499999989
 20
20.396115999999999
 30
0.0
 11
204.1024479999999
 21
25.000050999999999
 31
0.0
  0
LINE
  5
6B6
  8
0
 62
     6
 10
206.98112499999991
 20
20.000053000000001
 30
0.0
 11
202.70643599999991
 21
24.274750000000001
 31
0.0
  0
LINE
  5
6B7
  8
0
 62
     6
 10
204.859802
 20
20.000053000000001
 30
0.0
 11
202.70643599999991
 21
22.153428999999999
 31
0.0
  0
LINE
  5
6B8
  8
0
 62
     6
 10
202.73848000000001
 20
20.000053000000001
 30
0.0
 11
202.70643599999991
 21
20.032105999999999
 31
0.0
  0
ENDBLK
  5
6B9
  8
0
  0
BLOCK
  8
0
  2
BLOCK22
 70
     0
 10
0.0
 20
0.0
 30
0.0
  3
BLOCK22
  1

  0
LINE
  5
6BB
  8
0
 62
     6
 10
194.70643599999991
 20
23.789473000000001
 30
0.0
 11
193.49584999999999
 21
25.000050999999999
 31
0.0
  0
LINE
  5
6BC
  8
0
 62
     6
 10
194.70643599999991
 20
21.668151999999989
 30
0.0
 11
191.37454199999991
 21
25.000050999999999
 31
0.0
  0
LINE
  5
6BD
  8
0
 62
     6
 10
194.25320400000001
 20
20.000053000000001
 30
0.0
 11
189.25321999999991
 21
25.000050999999999
 31
0.0
  0
LINE
  5
6BE
  8
0
 62
     6
 10
192.13189700000001
 20
20.000053000000001
 30
0.0
 11
187.13189700000001
 21
25.000050999999999
 31
0.0
  0
LINE
  5
6BF
  8
0
 62
     6
 10
190.01057399999991
 20
20.000053000000001
 30
0.0
 11
185.01057399999999
 21
25.000050999999999
 31
0.0
  0
LINE
  5
6C0
  8
0
 62
     6
 10
187.88925199999991
 20
20.000053000000001
 30
0.0
 11
182.889252
 21
25.000050999999999
 31
0.0
  0
LINE
  5
6C1
  8
0
 62
     6
 10
185.76792900000001
 20
20.000053000000001
 30
0.0
 11
180.767944
 21
25.000050999999999
 31
0.0
  0
LINE
  5
6C2
  8
0
 62
     6
 10
183.64660599999999
 20
20.000053000000001
 30
0.0
 11
178.64662200000001
 21
25.000050999999999
 31
0.0
  0
LINE
  5
6C3
  8
0
 62
     6
 10
181.5252989999999
 20
20.000053000000001
 30
0.0
 11
178.2151639999999
 21
23.310192000000001
 31
0.0
  0
LINE
  5
6C4
  8
0
 62
     6
 10
179.40397599999989
 20
20.000053000000001
 30
0.0
 11
178.2151639999999
 21
21.188869
 31
0.0
  0
ENDBLK
  5
6C5
  8
0
  0
BLOCK
  8
0
  2
BLOCK23
 70
     0
 10
0.0
 20
0.0
 30
0.0
  3
BLOCK23
  1

  0
LINE
  5
6C7
  8
0
 62
     3
 10
180.15976000000001
 20
20.000053000000001
 30
0.0
 11
179.706436
 21
19.546731999999999
 31
0.0
  0
LINE
  5
6C8
  8
0
 62
     3
 10
181.22041299999989
 20
20.000053000000001
 30
0.0
 11
179.706436
 21
18.486073000000001
 31
0.0
  0
LINE
  5
6C9
  8
0
 62
     3
 10
182.28106699999989
 20
20.000053000000001
 30
0.0
 11
179.706436
 21
17.425412999999999
 31
0.0
  0
LINE
  5
6CA
  8
0
 62
     3
 10
183.341736
 20
20.000053000000001
 30
0.0
 11
179.706436
 21
16.364751999999999
 31
0.0
  0
LINE
  5
6CB
  8
0
 62
     3
 10
183.706436
 20
19.304092000000001
 30
0.0
 11
179.706436
 21
15.304092000000001
 31
0.0
  0
LINE
  5
6CC
  8
0
 62
     3
 10
183.706436
 20
18.243431000000001
 30
0.0
 11
179.706436
 21
14.243432
 31
0.0
  0
LINE
  5
6CD
  8
0
 62
     3
 10
183.706436
 20
17.182772
 30
0.0
 11
179.706436
 21
13.182772
 31
0.0
  0
LINE
  5
6CE
  8
0
 62
     3
 10
183.706436
 20
16.122111999999991
 30
0.0
 11
179.706436
 21
12.122112
 31
0.0
  0
LINE
  5
6CF
  8
0
 62
     3
 10
183.706436
 20
15.061451
 30
0.0
 11
179.706436
 21
11.061451999999999
 31
0.0
  0
LINE
  5
6D0
  8
0
 62
     3
 10
183.706436
 20
14.000792000000001
 30
0.0
 11
179.706436
 21
10.000792000000001
 31
0.0
  0
LINE
  5
6D1
  8
0
 62
     3
 10
183.706436
 20
12.94013099999999
 30
0.0
 11
179.706436
 21
8.9401309999999992
 31
0.0
  0
LINE
  5
6D2
  8
0
 62
     3
 10
183.706436
 20
11.879471000000001
 30
0.0
 11
179.706436
 21
7.8794719999999989
 31
0.0
  0
LINE
  5
6D3
  8
0
 62
     3
 10
183.706436
 20
10.818809999999999
 30
0.0
 11
179.706436
 21
6.8188110000000002
 31
0.0
  0
LINE
  5
6D4
  8
0
 62
     3
 10
183.706436
 20
9.7581509999999998
 30
0.0
 11
179.706436
 21
5.758151999999999
 31
0.0
  0
LINE
  5
6D5
  8
0
 62
     3
 10
183.706436
 20
8.6974910000000012
 30
0.0
 11
179.706436
 21
4.6974910000000003
 31
0.0
  0
LINE
  5
6D6
  8
0
 62
     3
 10
183.706436
 20
7.636830999999999
 30
0.0
 11
179.706436
 21
3.636830999999999
 31
0.0
  0
LINE
  5
6D7
  8
0
 62
     3
 10
183.706436
 20
6.5761699999999994
 30
0.0
 11
179.706436
 21
2.5761709999999991
 31
0.0
  0
LINE
  5
6D8
  8
0
 62
     3
 10
183.706436
 20
5.5155110000000001
 30
0.0
 11
179.706436
 21
1.5155110000000001
 31
0.0
  0
LINE
  5
6D9
  8
0
 62
     3
 10
183.706436
 20
4.4548500000000004
 30
0.0
 11
179.706436
 21
0.4548510000000001
 31
0.0
  0
LINE
  5
6DA
  8
0
 62
     3
 10
183.706436
 20
3.39419
 30
0.0
 11
180.31231699999989
 21
0.000076
 31
0.0
  0
LINE
  5
6DB
  8
0
 62
     3
 10
183.706436
 20
2.3335300000000001
 30
0.0
 11
183.37297100000001
 21
2.0000749999999989
 31
0.0
  0
LINE
  5
6DC
  8
0
 62
     3
 10
182.70632900000001
 20
1.333429999999999
 30
0.0
 11
181.37297100000001
 21
0.000076
 31
0.0
  0
LINE
  5
6DD
  8
0
 62
     3
 10
182.70632900000001
 20
0.27277
 30
0.0
 11
182.43363999999991
 21
0.000076
 31
0.0
  0
ENDBLK
  5
6DE
  8
0
  0
BLOCK
  8
0
  2
BLOCK24
 70
     0
 10
0.0
 20
0.0
 30
0.0
  3
BLOCK24
  1

  0
LINE
  5
6E0
  8
0
 62
     3
 10
188.7645719999999
 20
53.000053000000001
 30
0.0
 11
188.706436
 21
52.941913999999997
 31
0.0
  0
LINE
  5
6E1
  8
0
 62
     3
 10
189.82522599999999
 20
53.000053000000001
 30
0.0
 11
188.706436
 21
51.881252000000003
 31
0.0
  0
LINE
  5
6E2
  8
0
 62
     3
 10
190.885895
 20
53.000053000000001
 30
0.0
 11
188.706436
 21
50.820594999999997
 31
0.0
  0
LINE
  5
6E3
  8
0
 62
     3
 10
191.94654800000001
 20
53.000053000000001
 30
0.0
 11
188.706436
 21
49.759932999999997
 31
0.0
  0
LINE
  5
6E4
  8
0
 62
     3
 10
192.70643599999991
 20
52.699272000000001
 30
0.0
 11
189.007217
 21
49.000053000000001
 31
0.0
  0
LINE
  5
6E5
  8
0
 62
     3
 10
192.70643599999991
 20
51.638615000000001
 30
0.0
 11
190.067871
 21
49.000053000000001
 31
0.0
  0
LINE
  5
6E6
  8
0
 62
     3
 10
192.70643599999991
 20
50.577953000000001
 30
0.0
 11
191.12852499999991
 21
49.000053000000001
 31
0.0
  0
LINE
  5
6E7
  8
0
 62
     3
 10
192.70643599999991
 20
49.517291999999991
 30
0.0
 11
192.1891939999999
 21
49.000053000000001
 31
0.0
  0
ENDBLK
  5
6E8
  8
0
  0
BLOCK
  8
0
  2
BLOCK25
 70
     0
 10
0.0
 20
0.0
 30
0.0
  3
BLOCK25
  1

  0
LINE
  5
6EA
  8
0
 62
     3
 10
205.73513799999989
 20
53.000053000000001
 30
0.0
 11
204.70643599999991
 21
51.971352000000003
 31
0.0
  0
LINE
  5
6EB
  8
0
 62
     3
 10
206.79579200000001
 20
53.000053000000001
 30
0.0
 11
204.70643599999991
 21
50.910690000000002
 31
0.0
  0
LINE
  5
6EC
  8
0
 62
     3
 10
207.856461
 20
53.000053000000001
 30
0.0
 11
204.70643599999991
 21
49.850028999999999
 31
0.0
  0
LINE
  5
6ED
  8
0
 62
     3
 10
208.70643599999991
 20
52.789368000000003
 30
0.0
 11
204.91711399999991
 21
49.000053000000001
 31
0.0
  0
LINE
  5
6EE
  8
0
 62
     3
 10
208.70643599999991
 20
51.72871
 30
0.0
 11
205.97776799999991
 21
49.000053000000001
 31
0.0
  0
LINE
  5
6EF
  8
0
 62
     3
 10
208.70643599999991
 20
50.668049000000003
 30
0.0
 11
207.03843699999999
 21
49.000053000000001
 31
0.0
  0
LINE
  5
6F0
  8
0
 62
     3
 10
208.70643599999991
 20
49.607388
 30
0.0
 11
208.0990909999999
 21
49.000053000000001
 31
0.0
  0
ENDBLK
  5
6F1
  8
0
  0
BLOCK
  8
0
  2
BLOCK26
 70
     0
 10
0.0
 20
0.0
 30
0.0
  3
BLOCK26
  1

  0
LINE
  5
6F3
  8
0
 62
     3
 10
189.7056879999999
 20
20.000053000000001
 30
0.0
 11
188.706436
 21
19.000789999999991
 31
0.0
  0
LINE
  5
6F4
  8
0
 62
     3
 10
190.766357
 20
20.000053000000001
 30
0.0
 11
188.706436
 21
17.94013
 31
0.0
  0
LINE
  5
6F5
  8
0
 62
     3
 10
191.82701099999991
 20
20.000053000000001
 30
0.0
 11
189.32701099999991
 21
17.500053000000001
 31
0.0
  0
LINE
  5
6F6
  8
0
 62
     3
 10
192.88767999999999
 20
20.000053000000001
 30
0.0
 11
190.38767999999999
 21
17.500053000000001
 31
0.0
  0
LINE
  5
6F7
  8
0
 62
     3
 10
197.80566399999989
 20
23.857385999999991
 30
0.0
 11
194.84910600000001
 21
20.900815999999988
 31
0.0
  0
LINE
  5
6F8
  8
0
 62
     3
 10
193.94833399999999
 20
20.000053000000001
 30
0.0
 11
191.44833399999999
 21
17.500053000000001
 31
0.0
  0
LINE
  5
6F9
  8
0
 62
     3
 10
198.96762100000001
 20
23.95868299999999
 30
0.0
 11
192.50900299999989
 21
17.500053000000001
 31
0.0
  0
LINE
  5
6FA
  8
0
 62
     3
 10
199.8832699999999
 20
23.81366199999999
 30
0.0
 11
197.833527
 21
21.763926999999999
 31
0.0
  0
LINE
  5
6FB
  8
0
 62
     3
 10
196.953171
 20
20.883572000000001
 30
0.0
 11
193.56965600000001
 21
17.500053000000001
 31
0.0
  0
LINE
  5
6FC
  8
0
 62
     3
 10
200.59968599999999
 20
23.469425000000001
 30
0.0
 11
199.0520479999999
 21
21.921779999999991
 31
0.0
  0
LINE
  5
6FD
  8
0
 62
     3
 10
196.69227599999991
 20
19.562018999999989
 30
0.0
 11
194.63031000000001
 21
17.500053000000001
 31
0.0
  0
LINE
  5
6FE
  8
0
 62
     3
 10
201.24230999999989
 20
23.05138599999999
 30
0.0
 11
199.80354299999999
 21
21.612615999999999
 31
0.0
  0
LINE
  5
6FF
  8
0
 62
     3
 10
201.7726439999999
 20
22.521055
 30
0.0
 11
200.33161899999999
 21
21.08004
 31
0.0
  0
LINE
  5
700
  8
0
 62
     3
 10
202.18585200000001
 20
21.873602000000002
 30
0.0
 11
200.63392599999989
 21
20.321684000000001
 31
0.0
  0
LINE
  5
701
  8
0
 62
     3
 10
202.52410900000001
 20
21.151202999999999
 30
0.0
 11
200.7499389999999
 21
19.377029
 31
0.0
  0
LINE
  5
702
  8
0
 62
     3
 10
202.669128
 20
20.235565000000001
 30
0.0
 11
200.96684300000001
 21
18.533280999999992
 31
0.0
  0
LINE
  5
703
  8
0
 62
     3
 10
203.49427800000001
 20
20.000053000000001
 30
0.0
 11
201.46389799999989
 21
17.969674999999999
 31
0.0
  0
LINE
  5
704
  8
0
 62
     3
 10
204.55493200000001
 20
20.000053000000001
 30
0.0
 11
202.1945189999999
 21
17.639633
 31
0.0
  0
LINE
  5
705
  8
0
 62
     3
 10
205.615601
 20
20.000053000000001
 30
0.0
 11
203.115601
 21
17.500053000000001
 31
0.0
  0
LINE
  5
706
  8
0
 62
     3
 10
206.676254
 20
20.000053000000001
 30
0.0
 11
204.176254
 21
17.500053000000001
 31
0.0
  0
LINE
  5
707
  8
0
 62
     3
 10
207.7369229999999
 20
20.000053000000001
 30
0.0
 11
205.23692299999999
 21
17.500053000000001
 31
0.0
  0
LINE
  5
708
  8
0
 62
     3
 10
208.70643599999991
 20
19.908906999999989
 30
0.0
 11
206.2975769999999
 21
17.500053000000001
 31
0.0
  0
LINE
  5
709
  8
0
 62
     3
 10
208.70643599999991
 20
18.848245999999989
 30
0.0
 11
207.35824599999989
 21
17.500053000000001
 31
0.0
  0
LINE
  5
70A
  8
0
 62
     3
 10
208.70643599999991
 20
17.78758599999999
 30
0.0
 11
208.41890000000001
 21
17.500053000000001
 31
0.0
  0
ENDBLK
  5
70B
  8
0
  0
BLOCK
  8
0
  2
BLOCK27
 70
     0
 10
0.0
 20
0.0
 30
0.0
  3
BLOCK27
  1

  0
LINE
  5
70D
  8
0
 62
     3
 10
184.664536
 20
60.567276
 30
0.0
 11
183.706436
 21
59.609177000000003
 31
0.0
  0
LINE
  5
70E
  8
0
 62
     3
 10
186.12687700000001
 20
60.968960000000003
 30
0.0
 11
183.706436
 21
58.548515000000002
 31
0.0
  0
LINE
  5
70F
  8
0
 62
     3
 10
187.5892179999999
 20
61.370646999999991
 30
0.0
 11
183.706436
 21
57.487853999999999
 31
0.0
  0
LINE
  5
710
  8
0
 62
     3
 10
187.706436
 20
60.427197
 30
0.0
 11
183.706436
 21
56.427197
 31
0.0
  0
LINE
  5
711
  8
0
 62
     3
 10
187.706436
 20
59.366534999999999
 30
0.0
 11
183.706436
 21
55.366534999999992
 31
0.0
  0
LINE
  5
712
  8
0
 62
     3
 10
187.706436
 20
58.305873999999989
 30
0.0
 11
183.706436
 21
54.305874000000003
 31
0.0
  0
LINE
  5
713
  8
0
 62
     3
 10
187.706436
 20
57.245213
 30
0.0
 11
183.706436
 21
53.245215999999999
 31
0.0
  0
LINE
  5
714
  8
0
 62
     3
 10
187.706436
 20
56.184555000000003
 30
0.0
 11
183.706436
 21
52.184555000000003
 31
0.0
  0
LINE
  5
715
  8
0
 62
     3
 10
187.706436
 20
55.123893999999993
 30
0.0
 11
183.706436
 21
51.123894
 31
0.0
  0
LINE
  5
716
  8
0
 62
     3
 10
187.706436
 20
54.063231999999992
 30
0.0
 11
183.706436
 21
50.063235999999989
 31
0.0
  0
LINE
  5
717
  8
0
 62
     3
 10
187.706436
 20
53.002575
 30
0.0
 11
183.706436
 21
49.002575
 31
0.0
  0
LINE
  5
718
  8
0
 62
     3
 10
187.706436
 20
51.941914000000011
 30
0.0
 11
183.706436
 21
47.941913999999997
 31
0.0
  0
LINE
  5
719
  8
0
 62
     3
 10
187.706436
 20
50.881252000000003
 30
0.0
 11
183.706436
 21
46.881256
 31
0.0
  0
LINE
  5
71A
  8
0
 62
     3
 10
187.706436
 20
49.820594999999997
 30
0.0
 11
183.706436
 21
45.820594999999997
 31
0.0
  0
LINE
  5
71B
  8
0
 62
     3
 10
187.706436
 20
48.759933000000011
 30
0.0
 11
183.706436
 21
44.759932999999997
 31
0.0
  0
LINE
  5
71C
  8
0
 62
     3
 10
187.706436
 20
47.699272000000001
 30
0.0
 11
183.706436
 21
43.699272000000001
 31
0.0
  0
LINE
  5
71D
  8
0
 62
     3
 10
187.706436
 20
46.638615000000001
 30
0.0
 11
183.706436
 21
42.638614999999987
 31
0.0
  0
LINE
  5
71E
  8
0
 62
     3
 10
187.706436
 20
45.577953000000001
 30
0.0
 11
183.706436
 21
41.577953000000001
 31
0.0
  0
LINE
  5
71F
  8
0
 62
     3
 10
187.706436
 20
44.517291999999991
 30
0.0
 11
183.706436
 21
40.517291999999991
 31
0.0
  0
LINE
  5
720
  8
0
 62
     3
 10
187.706436
 20
43.456634999999991
 30
0.0
 11
183.706436
 21
39.456634999999999
 31
0.0
  0
LINE
  5
721
  8
0
 62
     3
 10
187.706436
 20
42.395972999999991
 30
0.0
 11
183.706436
 21
38.395972999999991
 31
0.0
  0
LINE
  5
722
  8
0
 62
     3
 10
187.706436
 20
41.335312000000002
 30
0.0
 11
183.706436
 21
37.335312000000002
 31
0.0
  0
LINE
  5
723
  8
0
 62
     3
 10
187.706436
 20
40.274653999999991
 30
0.0
 11
183.706436
 21
36.274653999999998
 31
0.0
  0
LINE
  5
724
  8
0
 62
     3
 10
187.706436
 20
39.213993000000002
 30
0.0
 11
183.706436
 21
35.213993000000002
 31
0.0
  0
LINE
  5
725
  8
0
 62
     3
 10
187.706436
 20
38.153331999999992
 30
0.0
 11
183.706436
 21
34.153331999999999
 31
0.0
  0
LINE
  5
726
  8
0
 62
     3
 10
187.706436
 20
37.092674000000002
 30
0.0
 11
183.706436
 21
33.092674000000002
 31
0.0
  0
LINE
  5
727
  8
0
 62
     3
 10
187.706436
 20
36.032012999999999
 30
0.0
 11
183.706436
 21
32.032012999999992
 31
0.0
  0
LINE
  5
728
  8
0
 62
     3
 10
187.706436
 20
34.971352000000003
 30
0.0
 11
183.706436
 21
30.971353999999991
 31
0.0
  0
LINE
  5
729
  8
0
 62
     3
 10
187.706436
 20
33.910690000000002
 30
0.0
 11
183.706436
 21
29.910692000000001
 31
0.0
  0
LINE
  5
72A
  8
0
 62
     3
 10
187.706436
 20
32.850033000000003
 30
0.0
 11
183.706436
 21
28.850033
 31
0.0
  0
LINE
  5
72B
  8
0
 62
     3
 10
187.706436
 20
31.789370999999999
 30
0.0
 11
183.706436
 21
27.789372999999991
 31
0.0
  0
LINE
  5
72C
  8
0
 62
     3
 10
187.706436
 20
30.728711999999991
 30
0.0
 11
183.706436
 21
26.728711999999991
 31
0.0
  0
LINE
  5
72D
  8
0
 62
     3
 10
187.706436
 20
29.668053
 30
0.0
 11
183.706436
 21
25.668053
 31
0.0
  0
LINE
  5
72E
  8
0
 62
     3
 10
187.706436
 20
28.607390999999989
 30
0.0
 11
184.09909099999999
 21
25.000050999999999
 31
0.0
  0
LINE
  5
72F
  8
0
 62
     3
 10
187.706436
 20
27.546731999999999
 30
0.0
 11
185.1597439999999
 21
25.000050999999999
 31
0.0
  0
LINE
  5
730
  8
0
 62
     3
 10
187.706436
 20
26.486070999999999
 30
0.0
 11
186.22041299999989
 21
25.000050999999999
 31
0.0
  0
LINE
  5
731
  8
0
 62
     3
 10
187.706436
 20
25.42541099999999
 30
0.0
 11
187.28106699999989
 21
25.000050999999999
 31
0.0
  0
ENDBLK
  5
732
  8
0
  0
ENDSEC
  0
SECTION
  2
ENTITIES
  0
LINE
  5
25
  8
0
 62
     7
 10
-392.14310799999993
 20
556.15025300000002
 30
0.0
 11
-392.14310799999993
 21
558.65025300000002
 31
0.0
  0
LINE
  5
26
  8
0
 62
     7
 10
-392.14310799999993
 20
580.65025300000002
 30
0.0
 11
-392.14310799999993
 21
583.15025300000002
 31
0.0
  0
LINE
  5
27
  8
0
 62
     7
 10
-392.14310799999993
 20
604.90025300000002
 30
0.0
 11
-392.14310799999993
 21
607.40025300000002
 31
0.0
  0
LINE
  5
28
  8
0
 62
     7
 10
-392.14310799999993
 20
629.15025300000002
 30
0.0
 11
-392.14310799999993
 21
631.65025300000002
 31
0.0
  0
LINE
  5
29
  8
0
 62
     7
 10
-392.14310799999993
 20
653.65025299999991
 30
0.0
 11
-392.14310799999993
 21
656.75875099999996
 31
0.0
  0
LINE
  5
2A
  8
0
 62
     7
 10
-80.143107999999998
 20
556.15025300000002
 30
0.0
 11
-80.143107999999998
 21
618.65025300000002
 31
0.0
  0
LINE
  5
2B
  8
0
 62
     7
 10
-402.14310799999998
 20
556.15025300000002
 30
0.0
 11
-402.14310799999998
 21
686.15025300000002
 31
0.0
  0
LINE
  5
2C
  8
0
 62
     7
 10
-99.643107999999984
 20
544.65025300000002
 30
0.0
 11
-95.611734999999996
 21
544.65025300000002
 31
0.0
  0
LINE
  5
2D
  8
0
 62
     2
 10
-364.14310799999993
 20
703.65025299999991
 30
0.0
 11
-352.14310799999993
 21
703.65025299999991
 31
0.0
  0
LINE
  5
2E
  8
0
  6
DASHDOT
 62
     7
 10
-91.643106999999986
 20
538.95335199999988
 30
0.0
 11
-91.643106999999986
 21
553.72351399999991
 31
0.0
  0
LINE
  5
2F
  8
0
  6
DASHDOT
 62
     7
 10
-341.64310799999993
 20
691.15025299999991
 30
0.0
 11
-341.64310799999993
 21
707.15025300000002
 31
0.0
  0
LINE
  5
30
  8
0
  6
DASHDOT
 62
     7
 10
-432.69703199999998
 20
699.15025299999991
 30
0.0
 11
-333.64310799999998
 21
699.15025299999991
 31
0.0
  0
LINE
  5
31
  8
0
  6
DASHDOT
 62
     7
 10
-433.78586899999999
 20
549.15025299999991
 30
0.0
 11
-54.038288000000001
 21
549.15025299999991
 31
0.0
  0
LINE
  5
32
  8
0
  6
DASHDOT
 62
     7
 10
-91.643106999999986
 20
538.95335399999999
 30
0.0
 11
-91.643106999999986
 21
721.11344899999995
 31
0.0
  0
LINE
  5
33
  8
0
  6
DASHDOT
 62
     7
 10
-71.882964999999984
 20
599.15025299999991
 30
0.0
 11
-60.724947999999998
 21
599.15025299999991
 31
0.0
  0
LINE
  5
34
  8
0
  6
DASHDOT
 62
     7
 10
-71.645798999999997
 20
649.15025299999991
 30
0.0
 11
-59.652062999999998
 21
649.15025299999991
 31
0.0
  0
LINE
  5
35
  8
0
 62
     7
 10
-344.14307700000001
 20
694.15025300000002
 30
0.0
 11
-126.64311499999999
 21
694.15025300000002
 31
0.0
  0
LINE
  5
36
  8
0
 62
     7
 10
-274.39306199999987
 20
554.15021400000001
 30
0.0
 11
-274.39306199999987
 21
693.15020800000002
 31
0.0
  0
LINE
  5
37
  8
0
 62
     3
 10
-163.89307699999989
 20
554.65022899999985
 30
0.0
 11
-163.89307699999989
 21
658.650215
 31
0.0
  0
LINE
  5
38
  8
0
 62
     3
 10
-268.89306199999987
 20
554.65022899999985
 30
0.0
 11
-268.89306199999987
 21
568.15022899999997
 31
0.0
  0
LINE
  5
39
  8
0
 62
     3
 10
-268.89306199999987
 20
579.65022899999985
 30
0.0
 11
-268.89306199999987
 21
604.20093499999984
 31
0.0
  0
LINE
  5
3A
  8
0
 62
     3
 10
-268.89306199999987
 20
645.150215
 30
0.0
 11
-268.89306199999987
 21
658.650215
 31
0.0
  0
LINE
  5
3B
  8
0
 62
     7
 10
-274.39306199999987
 20
693.15020800000002
 30
0.0
 11
-273.39306199999987
 21
693.15020800000002
 31
0.0
  0
LINE
  5
3C
  8
0
 62
     7
 10
-273.39306199999987
 20
554.15021400000001
 30
0.0
 11
-273.39306199999987
 21
694.15025300000002
 31
0.0
  0
LINE
  5
3D
  8
0
 62
     3
 10
-268.89306199999987
 20
633.650215
 30
0.0
 11
-268.89306199999987
 21
645.150215
 31
0.0
  0
LINE
  5
3E
  8
0
 62
     3
 10
-268.89306199999987
 20
568.15022899999997
 30
0.0
 11
-268.89306199999987
 21
579.65022899999985
 31
0.0
  0
LINE
  5
3F
  8
0
  6
DASHDOT
 62
     7
 10
-287.01426299999991
 20
606.65021499999989
 30
0.0
 11
-183.71898999999999
 21
606.65021499999989
 31
0.0
  0
ARC
  5
40
  8
0
 62
     3
 10
-268.39306199999987
 20
658.650215
 30
0.0
 40
0.5
 50
90.000003000000007
 51
180.00000499999999
  0
ARC
  5
41
  8
0
 62
     3
 10
-164.39307700000001
 20
658.650215
 30
0.0
 40
0.5
 50
0.0
 51
90.000003000000007
  0
ARC
  5
42
  8
0
 62
     3
 10
-164.39307700000001
 20
554.65022899999985
 30
0.0
 40
0.5
 50
270.000001
 51
360.0
  0
ARC
  5
43
  8
0
 62
     3
 10
-268.39306199999987
 20
554.65022899999985
 30
0.0
 40
0.5
 50
180.00000499999999
 51
270.000001
  0
LINE
  5
44
  8
0
 62
     3
 10
-268.89306199999987
 20
609.09966299999985
 30
0.0
 11
-268.89306199999987
 21
633.650215
 31
0.0
  0
LINE
  5
45
  8
0
 62
     7
 10
-268.89307700000001
 20
634.15022999999997
 30
0.0
 11
-268.89307700000001
 21
644.15021499999989
 31
0.0
  0
LINE
  5
46
  8
0
 62
     7
 10
-268.89307700000001
 20
569.15024400000004
 30
0.0
 11
-268.89307700000001
 21
579.15024400000004
 31
0.0
  0
LINE
  5
47
  8
0
 62
     7
 10
-268.39307699999989
 20
554.15021400000001
 30
0.0
 11
-250.39309299999999
 21
554.15021400000001
 31
0.0
  0
LINE
  5
48
  8
0
 62
     7
 10
-268.39307699999989
 20
659.150215
 30
0.0
 11
-250.39309299999999
 21
659.150215
 31
0.0
  0
LINE
  5
49
  8
0
 62
     7
 10
-163.89307699999989
 20
554.65021400000001
 30
0.0
 11
-163.89307699999989
 21
658.650215
 31
0.0
  0
LINE
  5
4A
  8
0
 62
     7
 10
-268.89307700000001
 20
644.15021499999989
 30
0.0
 11
-268.89307700000001
 21
658.650215
 31
0.0
  0
LINE
  5
4B
  8
0
 62
     7
 10
-268.89307700000001
 20
579.15024400000004
 30
0.0
 11
-268.89307700000001
 21
634.15022999999997
 31
0.0
  0
LINE
  5
4C
  8
0
 62
     7
 10
-268.89307700000001
 20
554.65021400000001
 30
0.0
 11
-268.89307700000001
 21
569.15024400000004
 31
0.0
  0
LINE
  5
4D
  8
0
 62
     7
 10
-246.64309299999999
 20
595.90021499999989
 30
0.0
 11
-206.64310800000001
 21
595.90021499999989
 31
0.0
  0
LINE
  5
4E
  8
0
 62
     7
 10
-246.64309299999999
 20
617.40021499999989
 30
0.0
 11
-206.64310800000001
 21
617.40021499999989
 31
0.0
  0
LINE
  5
4F
  8
0
 62
     7
 10
-175.89310800000001
 20
554.15021400000001
 30
0.0
 11
-175.89310800000001
 21
659.150215
 31
0.0
  0
LINE
  5
50
  8
0
 62
     7
 10
-165.89310800000001
 20
554.15021400000001
 30
0.0
 11
-165.89310800000001
 21
659.150215
 31
0.0
  0
LINE
  5
51
  8
0
 62
     7
 10
-206.9075729999999
 20
595.90021499999989
 30
0.0
 11
-206.9075729999999
 21
617.40021499999989
 31
0.0
  0
LINE
  5
52
  8
0
 62
     7
 10
-206.64310800000001
 20
595.90021499999989
 30
0.0
 11
-206.64310800000001
 21
617.40021499999989
 31
0.0
  0
LINE
  5
53
  8
0
 62
     7
 10
-246.64309299999999
 20
595.90021499999989
 30
0.0
 11
-246.64309299999999
 21
617.40021499999989
 31
0.0
  0
LINE
  5
54
  8
0
 62
     7
 10
-246.3785969999999
 20
595.90021499999989
 30
0.0
 11
-246.3785969999999
 21
617.40021499999989
 31
0.0
  0
LINE
  5
55
  8
0
 62
     7
 10
-249.39309299999999
 20
554.15022899999985
 30
0.0
 11
-237.39309299999999
 21
554.15022899999985
 31
0.0
  0
LINE
  5
56
  8
0
 62
     7
 10
-202.89309299999999
 20
554.15022899999985
 30
0.0
 11
-164.39307700000001
 21
554.15022899999985
 31
0.0
  0
LINE
  5
57
  8
0
 62
     7
 10
-236.39309299999999
 20
554.15022899999985
 30
0.0
 11
-216.89309299999999
 21
554.15022899999985
 31
0.0
  0
LINE
  5
58
  8
0
 62
     7
 10
-215.89309299999999
 20
554.15022899999985
 30
0.0
 11
-203.89309299999991
 21
554.15022899999985
 31
0.0
  0
LINE
  5
59
  8
0
 62
     7
 10
-249.39309299999999
 20
659.150215
 30
0.0
 11
-237.39309299999999
 21
659.150215
 31
0.0
  0
LINE
  5
5A
  8
0
 62
     7
 10
-236.39309299999999
 20
659.150215
 30
0.0
 11
-216.89309299999999
 21
659.150215
 31
0.0
  0
LINE
  5
5B
  8
0
 62
     7
 10
-215.89309299999999
 20
659.150215
 30
0.0
 11
-203.89309299999991
 21
659.150215
 31
0.0
  0
LINE
  5
5C
  8
0
 62
     7
 10
-253.91330999999991
 20
659.150215
 30
0.0
 11
-164.39307700000001
 21
659.150215
 31
0.0
  0
ARC
  5
5D
  8
0
 62
     7
 10
-268.39307699999989
 20
658.650215
 30
0.0
 40
0.5
 50
90.000003000000007
 51
180.00000499999999
  0
ARC
  5
5E
  8
0
 62
     7
 10
-268.39307699999989
 20
554.65021400000001
 30
0.0
 40
0.5
 50
180.00000499999999
 51
270.000001
  0
ARC
  5
5F
  8
0
 62
     7
 10
-164.39307700000001
 20
554.65021400000001
 30
0.0
 40
0.5
 50
270.000001
 51
360.0
  0
ARC
  5
60
  8
0
 62
     7
 10
-164.39307700000001
 20
658.650215
 30
0.0
 40
0.5
 50
0.0
 51
90.000003000000007
  0
LINE
  5
61
  8
0
 62
     7
 10
-205.39309299999991
 20
629.150215
 30
0.0
 11
-205.39309299999991
 21
630.650215
 31
0.0
  0
LINE
  5
62
  8
0
 62
     7
 10
-214.39309299999999
 20
629.150215
 30
0.0
 11
-214.39309299999999
 21
630.650215
 31
0.0
  0
CIRCLE
  5
63
  8
0
 62
     7
 10
-243.39309299999999
 20
629.90021499999989
 30
0.0
 40
4.5
  0
CIRCLE
  5
64
  8
0
 62
     7
 10
-243.39309299999999
 20
629.90021499999989
 30
0.0
 40
3.0
  0
LINE
  5
65
  8
0
 62
     7
 10
-214.39309299999999
 20
630.650215
 30
0.0
 11
-205.39309299999991
 21
630.650215
 31
0.0
  0
LINE
  5
66
  8
0
 62
     7
 10
-214.39309299999999
 20
629.150215
 30
0.0
 11
-205.39309299999991
 21
629.150215
 31
0.0
  0
LINE
  5
67
  8
0
 62
     7
 10
-239.5430859999999
 20
581.10022400000003
 30
0.0
 11
-239.5430859999999
 21
581.55022399999996
 31
0.0
  0
LINE
  5
68
  8
0
 62
     7
 10
-247.2430829999999
 20
582.05022399999996
 30
0.0
 11
-247.2430829999999
 21
582.85022400000003
 31
0.0
  0
LINE
  5
69
  8
0
 62
     7
 10
-244.64309299999999
 20
589.25022499999989
 30
0.0
 11
-244.14309299999999
 21
589.25022499999989
 31
0.0
  0
LINE
  5
6A
  8
0
 62
     7
 10
-244.64309299999999
 20
584.05022400000007
 30
0.0
 11
-244.14309299999999
 21
584.05022400000007
 31
0.0
  0
ARC
  5
6B
  8
0
 62
     7
 10
-244.14309299999999
 20
586.65022299999998
 30
0.0
 40
2.6000000000000001
 50
270.000001
 51
90.000003000000007
  0
ARC
  5
6C
  8
0
 62
     7
 10
-244.64309299999999
 20
586.65022299999998
 30
0.0
 40
2.6000000000000001
 50
90.000003000000007
 51
270.000001
  0
ARC
  5
6D
  8
0
 62
     7
 10
-244.14309299999999
 20
586.65022299999998
 30
0.0
 40
1.8
 50
270.000001
 51
90.000003000000007
  0
ARC
  5
6E
  8
0
 62
     7
 10
-244.64309299999999
 20
586.65022299999998
 30
0.0
 40
1.8
 50
90.000003000000007
 51
270.000001
  0
LINE
  5
6F
  8
0
 62
     7
 10
-244.64309299999999
 20
588.45022199999994
 30
0.0
 11
-244.14309299999999
 21
588.45022199999994
 31
0.0
  0
LINE
  5
70
  8
0
 62
     7
 10
-244.64309299999999
 20
584.85022400000003
 30
0.0
 11
-244.14309299999999
 21
584.85022400000003
 31
0.0
  0
LINE
  5
71
  8
0
 62
     7
 10
-242.74308300000001
 20
583.80022399999996
 30
0.0
 11
-241.943096
 21
583.80022399999996
 31
0.0
  0
LINE
  5
72
  8
0
 62
     7
 10
-242.74308300000001
 20
582.85022400000003
 30
0.0
 11
-242.74308300000001
 21
583.80022399999996
 31
0.0
  0
LINE
  5
73
  8
0
 62
     7
 10
-242.74308300000001
 20
581.10022400000003
 30
0.0
 11
-241.943096
 21
581.10022400000003
 31
0.0
  0
LINE
  5
74
  8
0
 62
     7
 10
-241.943096
 20
582.85022400000003
 30
0.0
 11
-241.943096
 21
583.80022399999996
 31
0.0
  0
LINE
  5
75
  8
0
 62
     7
 10
-247.2430829999999
 20
582.85022400000003
 30
0.0
 11
-242.74308300000001
 21
582.85022400000003
 31
0.0
  0
LINE
  5
76
  8
0
 62
     7
 10
-247.2430829999999
 20
582.05022399999996
 30
0.0
 11
-242.74308300000001
 21
582.05022399999996
 31
0.0
  0
LINE
  5
77
  8
0
 62
     7
 10
-242.74308300000001
 20
581.10022400000003
 30
0.0
 11
-242.74308300000001
 21
582.05022399999996
 31
0.0
  0
LINE
  5
78
  8
0
 62
     7
 10
-241.943096
 20
581.10022400000003
 30
0.0
 11
-241.943096
 21
582.05022399999996
 31
0.0
  0
LINE
  5
79
  8
0
 62
     7
 10
-241.943096
 20
582.85022400000003
 30
0.0
 11
-240.84308899999999
 21
582.85022400000003
 31
0.0
  0
LINE
  5
7A
  8
0
 62
     7
 10
-241.943096
 20
582.05022399999996
 30
0.0
 11
-240.84308899999999
 21
582.05022399999996
 31
0.0
  0
ARC
  5
7B
  8
0
 62
     7
 10
-240.84308899999999
 20
581.55022399999996
 30
0.0
 40
1.3
 50
0.00001
 51
90.000003000000007
  0
ARC
  5
7C
  8
0
 62
     7
 10
-240.84308899999999
 20
581.55022399999996
 30
0.0
 40
0.5
 50
0.0
 51
90.000003000000007
  0
LINE
  5
7D
  8
0
 62
     7
 10
-240.34308899999999
 20
581.10022400000003
 30
0.0
 11
-239.5430859999999
 21
581.10022400000003
 31
0.0
  0
LINE
  5
7E
  8
0
 62
     7
 10
-240.34308899999999
 20
581.10022400000003
 30
0.0
 11
-240.34308899999999
 21
581.55022399999996
 31
0.0
  0
LINE
  5
7F
  8
0
 62
     7
 10
-239.5430859999999
 20
577.9002230000001
 30
0.0
 11
-239.5430859999999
 21
578.35022400000003
 31
0.0
  0
LINE
  5
80
  8
0
 62
     7
 10
-247.2430829999999
 20
578.85022400000003
 30
0.0
 11
-247.2430829999999
 21
579.65022299999998
 31
0.0
  0
LINE
  5
81
  8
0
 62
     7
 10
-242.74308300000001
 20
580.60022400000003
 30
0.0
 11
-241.943096
 21
580.60022400000003
 31
0.0
  0
LINE
  5
82
  8
0
 62
     7
 10
-242.74308300000001
 20
579.65022299999998
 30
0.0
 11
-242.74308300000001
 21
580.60022400000003
 31
0.0
  0
LINE
  5
83
  8
0
 62
     7
 10
-242.74308300000001
 20
577.9002230000001
 30
0.0
 11
-241.943096
 21
577.9002230000001
 31
0.0
  0
LINE
  5
84
  8
0
 62
     7
 10
-241.943096
 20
579.65022299999998
 30
0.0
 11
-241.943096
 21
580.60022400000003
 31
0.0
  0
LINE
  5
85
  8
0
 62
     7
 10
-247.2430829999999
 20
579.65022299999998
 30
0.0
 11
-242.74308300000001
 21
579.65022299999998
 31
0.0
  0
LINE
  5
86
  8
0
 62
     7
 10
-247.2430829999999
 20
578.85022400000003
 30
0.0
 11
-242.74308300000001
 21
578.85022400000003
 31
0.0
  0
LINE
  5
87
  8
0
 62
     7
 10
-242.74308300000001
 20
577.9002230000001
 30
0.0
 11
-242.74308300000001
 21
578.85022400000003
 31
0.0
  0
LINE
  5
88
  8
0
 62
     7
 10
-241.943096
 20
577.9002230000001
 30
0.0
 11
-241.943096
 21
578.85022400000003
 31
0.0
  0
LINE
  5
89
  8
0
 62
     7
 10
-241.943096
 20
579.65022299999998
 30
0.0
 11
-240.84308899999999
 21
579.65022299999998
 31
0.0
  0
LINE
  5
8A
  8
0
 62
     7
 10
-241.943096
 20
578.85022400000003
 30
0.0
 11
-240.84308899999999
 21
578.85022400000003
 31
0.0
  0
ARC
  5
8B
  8
0
 62
     7
 10
-240.84308899999999
 20
578.35022400000003
 30
0.0
 40
1.3
 50
0.00001
 51
90.000003000000007
  0
ARC
  5
8C
  8
0
 62
     7
 10
-240.84308899999999
 20
578.35022400000003
 30
0.0
 40
0.5
 50
0.00001
 51
90.000003000000007
  0
LINE
  5
8D
  8
0
 62
     7
 10
-240.34308899999999
 20
577.9002230000001
 30
0.0
 11
-239.5430859999999
 21
577.9002230000001
 31
0.0
  0
LINE
  5
8E
  8
0
 62
     7
 10
-240.34308899999999
 20
577.9002230000001
 30
0.0
 11
-240.34308899999999
 21
578.35022400000003
 31
0.0
  0
LINE
  5
8F
  8
0
 62
     7
 10
-212.74309099999999
 20
582.45022199999994
 30
0.0
 11
-212.74309099999999
 21
583.250225
 31
0.0
  0
ARC
  5
90
  8
0
 62
     7
 10
-209.64309299999991
 20
586.65022299999998
 30
0.0
 40
2.6000000000000001
 50
270.000001
 51
90.000003000000007
  0
ARC
  5
91
  8
0
 62
     7
 10
-209.64309299999991
 20
586.65022299999998
 30
0.0
 40
1.8
 50
270.000001
 51
90.000003000000007
  0
ARC
  5
92
  8
0
 62
     7
 10
-210.14309299999999
 20
586.65022299999998
 30
0.0
 40
2.6000000000000001
 50
90.000003000000007
 51
270.000001
  0
ARC
  5
93
  8
0
 62
     7
 10
-210.14309299999999
 20
586.65022299999998
 30
0.0
 40
1.8
 50
90.000003000000007
 51
270.000001
  0
LINE
  5
94
  8
0
 62
     7
 10
-210.14309299999999
 20
584.85022400000003
 30
0.0
 11
-209.64309299999991
 21
584.85022400000003
 31
0.0
  0
LINE
  5
95
  8
0
 62
     7
 10
-210.14309299999999
 20
584.05022400000007
 30
0.0
 11
-209.64309299999991
 21
584.05022400000007
 31
0.0
  0
LINE
  5
96
  8
0
 62
     7
 10
-210.14309299999999
 20
588.45022199999994
 30
0.0
 11
-209.64309299999991
 21
588.45022199999994
 31
0.0
  0
LINE
  5
97
  8
0
 62
     7
 10
-210.14309299999999
 20
589.25022499999989
 30
0.0
 11
-209.64309299999991
 21
589.25022499999989
 31
0.0
  0
LINE
  5
98
  8
0
 62
     7
 10
-212.74309099999999
 20
583.250225
 30
0.0
 11
-207.04308599999999
 21
583.250225
 31
0.0
  0
LINE
  5
99
  8
0
 62
     7
 10
-212.74309099999999
 20
582.45022199999994
 30
0.0
 11
-209.24309099999999
 21
582.45022199999994
 31
0.0
  0
LINE
  5
9A
  8
0
 62
     7
 10
-212.74309099999999
 20
579.65022299999998
 30
0.0
 11
-209.24309099999999
 21
579.65022299999998
 31
0.0
  0
LINE
  5
9B
  8
0
 62
     7
 10
-212.74309099999999
 20
578.85022400000003
 30
0.0
 11
-209.04308599999999
 21
578.85022400000003
 31
0.0
  0
LINE
  5
9C
  8
0
 62
     7
 10
-207.04308599999999
 20
582.45022199999994
 30
0.0
 11
-207.04308599999999
 21
583.250225
 31
0.0
  0
ARC
  5
9D
  8
0
 62
     7
 10
-209.24309099999999
 20
581.05022399999996
 30
0.0
 40
1.399999999999999
 50
270.000001
 51
90.000003000000007
  0
LINE
  5
9E
  8
0
 62
     7
 10
-207.84308899999991
 20
582.45022199999994
 30
0.0
 11
-207.04308599999999
 21
582.45022199999994
 31
0.0
  0
ARC
  5
9F
  8
0
 62
     7
 10
-209.04308599999999
 20
580.85022400000003
 30
0.0
 40
2.0
 50
270.000001
 51
53.130102000000001
  0
LINE
  5
A0
  8
0
 62
     7
 10
-212.74309099999999
 20
578.85022400000003
 30
0.0
 11
-212.74309099999999
 21
579.65022299999998
 31
0.0
  0
LINE
  5
A1
  8
0
 62
     7
 10
-232.51777200000001
 20
595.90021499999989
 30
0.0
 11
-232.51777200000001
 21
617.40021499999989
 31
0.0
  0
LINE
  5
A2
  8
0
 62
     7
 10
-238.63422700000001
 20
595.90021499999989
 30
0.0
 11
-238.63422700000001
 21
617.40021499999989
 31
0.0
  0
LINE
  5
A3
  8
0
 62
     7
 10
-244.58205699999991
 20
595.90021499999989
 30
0.0
 11
-244.58205699999991
 21
617.40021499999989
 31
0.0
  0
LINE
  5
A4
  8
0
 62
     7
 10
-245.38480699999991
 20
595.90021499999989
 30
0.0
 11
-245.38480699999991
 21
617.40021499999989
 31
0.0
  0
LINE
  5
A5
  8
0
 62
     7
 10
-345.14307699999989
 20
666.35021200000006
 30
0.0
 11
-126.64311499999999
 21
666.35021200000006
 31
0.0
  0
LINE
  5
A6
  8
0
 62
     7
 10
-345.14307699999989
 20
669.95021099999997
 30
0.0
 11
-126.64311499999999
 21
669.95021099999997
 31
0.0
  0
LINE
  5
A7
  8
0
 62
     7
 10
-345.14307699999989
 20
673.55021699999998
 30
0.0
 11
-126.64311499999999
 21
673.55021699999998
 31
0.0
  0
LINE
  5
A8
  8
0
 62
     7
 10
-345.14307699999989
 20
677.15021499999989
 30
0.0
 11
-126.64311499999999
 21
677.15021499999989
 31
0.0
  0
LINE
  5
A9
  8
0
 62
     7
 10
-345.14307699999989
 20
680.75021399999991
 30
0.0
 11
-126.64311499999999
 21
680.75021399999991
 31
0.0
  0
LINE
  5
AA
  8
0
 62
     7
 10
-345.14307699999989
 20
684.35022000000004
 30
0.0
 11
-126.64311499999999
 21
684.35022000000004
 31
0.0
  0
LINE
  5
AB
  8
0
 62
     7
 10
-345.14307699999989
 20
687.95021099999997
 30
0.0
 11
-126.64311499999999
 21
687.95021099999997
 31
0.0
  0
LINE
  5
AC
  8
0
 62
     7
 10
-345.14307699999989
 20
691.55021699999986
 30
0.0
 11
-126.64311499999999
 21
691.55021699999986
 31
0.0
  0
LINE
  5
AD
  8
0
 62
     7
 10
-163.89307699999989
 20
665.15021499999989
 30
0.0
 11
-163.89307699999989
 21
694.15025300000002
 31
0.0
  0
LINE
  5
AE
  8
0
 62
     7
 10
-268.89307700000001
 20
659.150215
 30
0.0
 11
-268.89307700000001
 21
694.15025300000002
 31
0.0
  0
LINE
  5
AF
  8
0
 62
     7
 10
-153.393081
 20
554.15021400000001
 30
0.0
 11
-153.393081
 21
694.15025300000002
 31
0.0
  0
LINE
  5
B0
  8
0
 62
     7
 10
-345.14307699999989
 20
555.40021400000001
 30
0.0
 11
-345.14307699999989
 21
693.15025300000002
 31
0.0
  0
ARC
  5
B1
  8
0
 62
     1
 10
-343.89307700000001
 20
555.40021400000001
 30
0.0
 40
1.25
 50
180.00000499999999
 51
270.000001
  0
LINE
  5
B2
  8
0
 62
     1
 10
-345.14307699999989
 20
557.75021399999991
 30
0.0
 11
-274.39306199999987
 21
557.75021399999991
 31
0.0
  0
LINE
  5
B3
  8
0
 62
     1
 10
-345.14307699999989
 20
561.35021399999994
 30
0.0
 11
-274.39306199999987
 21
561.35021399999994
 31
0.0
  0
LINE
  5
B4
  8
0
 62
     1
 10
-345.14307699999989
 20
564.95021299999996
 30
0.0
 11
-274.39306199999987
 21
564.95021299999996
 31
0.0
  0
LINE
  5
B5
  8
0
 62
     1
 10
-345.14307699999989
 20
568.55021500000009
 30
0.0
 11
-274.39306199999987
 21
568.55021500000009
 31
0.0
  0
LINE
  5
B6
  8
0
 62
     1
 10
-345.14307699999989
 20
572.15021300000001
 30
0.0
 11
-274.39306199999987
 21
572.15021300000001
 31
0.0
  0
LINE
  5
B7
  8
0
 62
     1
 10
-345.14307699999989
 20
575.7502139999998
 30
0.0
 11
-274.39306199999987
 21
575.7502139999998
 31
0.0
  0
LINE
  5
B8
  8
0
 62
     1
 10
-345.14307699999989
 20
579.35021399999994
 30
0.0
 11
-274.39306199999987
 21
579.35021399999994
 31
0.0
  0
LINE
  5
B9
  8
0
 62
     1
 10
-345.14307699999989
 20
582.95021399999985
 30
0.0
 11
-274.39306199999987
 21
582.95021399999985
 31
0.0
  0
LINE
  5
BA
  8
0
 62
     1
 10
-345.14307699999989
 20
586.55021299999999
 30
0.0
 11
-274.39306199999987
 21
586.55021299999999
 31
0.0
  0
LINE
  5
BB
  8
0
 62
     1
 10
-345.14307699999989
 20
590.15021499999989
 30
0.0
 11
-274.39306199999987
 21
590.15021499999989
 31
0.0
  0
LINE
  5
BC
  8
0
 62
     1
 10
-345.14307699999989
 20
593.75021399999991
 30
0.0
 11
-274.39306199999987
 21
593.75021399999991
 31
0.0
  0
LINE
  5
BD
  8
0
 62
     1
 10
-345.14307699999989
 20
597.35021200000006
 30
0.0
 11
-274.39306199999987
 21
597.35021200000006
 31
0.0
  0
LINE
  5
BE
  8
0
 62
     1
 10
-345.14307699999989
 20
600.95021399999985
 30
0.0
 11
-274.39306199999987
 21
600.95021399999985
 31
0.0
  0
LINE
  5
BF
  8
0
 62
     1
 10
-345.14307699999989
 20
604.55021299999999
 30
0.0
 11
-274.39306199999987
 21
604.55021299999999
 31
0.0
  0
LINE
  5
C0
  8
0
 62
     1
 10
-345.14307699999989
 20
608.150215
 30
0.0
 11
-274.39306199999987
 21
608.150215
 31
0.0
  0
LINE
  5
C1
  8
0
 62
     1
 10
-345.14307699999989
 20
611.75021399999991
 30
0.0
 11
-274.39306199999987
 21
611.75021399999991
 31
0.0
  0
LINE
  5
C2
  8
0
 62
     1
 10
-345.14307699999989
 20
615.35021200000006
 30
0.0
 11
-274.39306199999987
 21
615.35021200000006
 31
0.0
  0
LINE
  5
C3
  8
0
 62
     1
 10
-345.14307699999989
 20
618.95021100000008
 30
0.0
 11
-274.39306199999987
 21
618.95021100000008
 31
0.0
  0
LINE
  5
C4
  8
0
 62
     1
 10
-345.14307699999989
 20
622.55021699999986
 30
0.0
 11
-274.39306199999987
 21
622.55021699999986
 31
0.0
  0
LINE
  5
C5
  8
0
 62
     1
 10
-345.14307699999989
 20
626.150215
 30
0.0
 11
-274.39306199999987
 21
626.150215
 31
0.0
  0
LINE
  5
C6
  8
0
 62
     1
 10
-345.14307699999989
 20
629.7502139999998
 30
0.0
 11
-274.39306199999987
 21
629.7502139999998
 31
0.0
  0
LINE
  5
C7
  8
0
 62
     1
 10
-345.14307699999989
 20
633.35021200000006
 30
0.0
 11
-274.39306199999987
 21
633.35021200000006
 31
0.0
  0
LINE
  5
C8
  8
0
 62
     1
 10
-345.14307699999989
 20
636.95021099999997
 30
0.0
 11
-274.39306199999987
 21
636.95021099999997
 31
0.0
  0
LINE
  5
C9
  8
0
 62
     1
 10
-345.14307699999989
 20
640.55021699999998
 30
0.0
 11
-274.39306199999987
 21
640.55021699999998
 31
0.0
  0
LINE
  5
CA
  8
0
 62
     1
 10
-345.14307699999989
 20
644.15021499999989
 30
0.0
 11
-274.39306199999987
 21
644.15021499999989
 31
0.0
  0
LINE
  5
CB
  8
0
 62
     1
 10
-345.14307699999989
 20
647.75021399999991
 30
0.0
 11
-274.39306199999987
 21
647.75021399999991
 31
0.0
  0
LINE
  5
CC
  8
0
 62
     1
 10
-345.14307699999989
 20
651.35021200000006
 30
0.0
 11
-274.39306199999987
 21
651.35021200000006
 31
0.0
  0
LINE
  5
CD
  8
0
 62
     1
 10
-345.14307699999989
 20
654.95021099999997
 30
0.0
 11
-274.39306199999987
 21
654.95021099999997
 31
0.0
  0
LINE
  5
CE
  8
0
 62
     7
 10
-343.89307700000001
 20
554.15021400000001
 30
0.0
 11
-126.64311499999999
 21
554.15021400000001
 31
0.0
  0
LINE
  5
CF
  8
0
  6
DASHDOT
 62
     7
 10
-341.64310799999993
 20
697.15025300000002
 30
0.0
 11
-341.64310799999993
 21
701.15025300000002
 31
0.0
  0
LINE
  5
D0
  8
0
  6
DASHDOT
 62
     7
 10
-343.64310799999993
 20
699.15025299999991
 30
0.0
 11
-339.64310799999993
 21
699.15025299999991
 31
0.0
  0
LINE
  5
D1
  8
0
 62
     7
 10
-80.143107999999998
 20
556.15025300000002
 30
0.0
 11
-80.143107999999998
 21
596.15025300000002
 31
0.0
  0
LINE
  5
D2
  8
0
 62
     7
 10
-354.14310799999993
 20
703.65025299999991
 30
0.0
 11
-345.61173600000001
 21
703.65025299999991
 31
0.0
  0
LINE
  5
D3
  8
0
 62
     7
 10
-99.643107999999984
 20
544.65025300000002
 30
0.0
 11
-95.611734999999996
 21
544.65025300000002
 31
0.0
  0
LINE
  5
D4
  8
0
 62
     7
 10
-106.143108
 20
692.15025300000002
 30
0.0
 11
-80.143107999999998
 21
692.15025300000002
 31
0.0
  0
LINE
  5
D5
  8
0
 62
     7
 10
-104.1431079999999
 20
556.15025300000002
 30
0.0
 11
-80.143107999999998
 21
556.15025300000002
 31
0.0
  0
LINE
  5
D6
  8
0
 62
     7
 10
-106.143108
 20
692.15025300000002
 30
0.0
 11
-106.143108
 21
698.15025300000002
 31
0.0
  0
LINE
  5
D7
  8
0
 62
     7
 10
-402.14310799999998
 20
686.15025300000002
 30
0.0
 11
-345.14307699999989
 21
686.15025300000002
 31
0.0
  0
LINE
  5
D8
  8
0
 62
     7
 10
-104.1431079999999
 20
550.15025300000002
 30
0.0
 11
-104.1431079999999
 21
556.15025300000002
 31
0.0
  0
LINE
  5
D9
  8
0
 62
     7
 10
-332.14310799999993
 20
698.15025300000002
 30
0.0
 11
-106.143108
 21
698.15025300000002
 31
0.0
  0
LINE
  5
DA
  8
0
 62
     7
 10
-327.14310799999993
 20
550.15025300000002
 30
0.0
 11
-100.643108
 21
550.15025300000002
 31
0.0
  0
LINE
  5
DB
  8
0
 62
     7
 10
-329.14310799999993
 20
695.65025300000002
 30
0.0
 11
-329.14310799999993
 21
698.15025300000002
 31
0.0
  0
LINE
  5
DC
  8
0
 62
     7
 10
-402.14310799999998
 20
556.15025300000002
 30
0.0
 11
-345.14307699999989
 21
556.15025300000002
 31
0.0
  0
LINE
  5
DD
  8
0
 62
     7
 10
-327.14310799999993
 20
550.15025300000002
 30
0.0
 11
-327.14310799999993
 21
554.15021400000001
 31
0.0
  0
LINE
  5
DE
  8
0
 62
     7
 10
-388.14310799999998
 20
568.15025300000002
 30
0.0
 11
-388.14310799999998
 21
644.15025300000002
 31
0.0
  0
LINE
  5
DF
  8
0
 62
     7
 10
-386.14310799999998
 20
566.15025299999991
 30
0.0
 11
-369.14310799999998
 21
566.15025299999991
 31
0.0
  0
LINE
  5
E0
  8
0
 62
     7
 10
-367.14310799999998
 20
568.15025300000002
 30
0.0
 11
-367.14310799999998
 21
644.15025300000002
 31
0.0
  0
LINE
  5
E1
  8
0
 62
     7
 10
-386.14310799999998
 20
646.15025300000002
 30
0.0
 11
-369.14310799999998
 21
646.15025300000002
 31
0.0
  0
LINE
  5
E2
  8
0
 62
     7
 10
-87.143107999999984
 20
634.15025300000002
 30
0.0
 11
-80.143107999999998
 21
634.15025300000002
 31
0.0
  0
LINE
  5
E3
  8
0
 62
     7
 10
-82.143107999999984
 20
634.15025300000002
 30
0.0
 11
-82.143107999999984
 21
689.15025300000002
 31
0.0
  0
LINE
  5
E4
  8
0
 62
     7
 10
-87.143107999999984
 20
597.15025300000002
 30
0.0
 11
-87.143107999999984
 21
615.15025300000002
 31
0.0
  0
LINE
  5
E5
  8
0
 62
     7
 10
-86.143107999999998
 20
690.15025300000002
 30
0.0
 11
-83.143107999999984
 21
690.15025300000002
 31
0.0
  0
LINE
  5
E6
  8
0
 62
     7
 10
-80.143107999999998
 20
634.15025300000002
 30
0.0
 11
-80.143107999999998
 21
692.15025300000002
 31
0.0
  0
LINE
  5
E7
  8
0
 62
     7
 10
-87.143107999999984
 20
618.65025300000002
 30
0.0
 11
-80.143107999999998
 21
618.65025300000002
 31
0.0
  0
LINE
  5
E8
  8
0
 62
     7
 10
-86.143107999999998
 20
616.15025299999991
 30
0.0
 11
-80.143107999999998
 21
616.15025299999991
 31
0.0
  0
LINE
  5
E9
  8
0
 62
     7
 10
-87.143107999999984
 20
615.15025300000002
 30
0.0
 11
-80.143107999999998
 21
615.15025300000002
 31
0.0
  0
LINE
  5
EA
  8
0
 62
     7
 10
-87.143107999999984
 20
597.15025300000002
 30
0.0
 11
-80.143107999999998
 21
597.15025300000002
 31
0.0
  0
LINE
  5
EB
  8
0
  6
DASHED
 62
     7
 10
-80.143107999999998
 20
616.15025299999991
 30
0.0
 11
-80.143107999999998
 21
618.65025300000002
 31
0.0
  0
LINE
  5
EC
  8
0
  6
DASHDOT
 62
     7
 10
-274.64307699999989
 20
657.15025300000002
 30
0.0
 11
-274.64307699999989
 21
661.15025300000002
 31
0.0
  0
LINE
  5
ED
  8
0
  6
DASHDOT
 62
     7
 10
-276.64307699999989
 20
659.15025300000002
 30
0.0
 11
-272.64307699999989
 21
659.15025300000002
 31
0.0
  0
LINE
  5
EE
  8
0
  6
DASHDOT
 62
     7
 10
-111.143108
 20
587.15025299999991
 30
0.0
 11
-111.143108
 21
591.15025299999991
 31
0.0
  0
LINE
  5
EF
  8
0
  6
DASHDOT
 62
     7
 10
-113.143108
 20
589.15025300000002
 30
0.0
 11
-109.143108
 21
589.15025300000002
 31
0.0
  0
CIRCLE
  5
F0
  8
0
 62
     7
 10
-111.143108
 20
589.15025300000002
 30
0.0
 40
2.75
  0
ARC
  5
F1
  8
0
 62
     7
 10
-386.14310799999998
 20
568.15025300000002
 30
0.0
 40
2.0
 50
180.00000499999999
 51
270.000001
  0
ARC
  5
F2
  8
0
 62
     7
 10
-369.14310799999998
 20
568.15025300000002
 30
0.0
 40
2.0
 50
270.000001
 51
360.0
  0
ARC
  5
F3
  8
0
 62
     7
 10
-369.14310799999998
 20
644.15025300000002
 30
0.0
 40
2.0
 50
0.0
 51
90.000003000000007
  0
ARC
  5
F4
  8
0
 62
     7
 10
-386.14310799999998
 20
644.15025300000002
 30
0.0
 40
2.0
 50
90.000003000000007
 51
180.00000499999999
  0
LINE
  5
F5
  8
0
 62
     7
 10
-314.64307700000001
 20
552.65025300000002
 30
0.0
 11
-199.5572919999999
 21
552.65025300000002
 31
0.0
  0
LINE
  5
F6
  8
0
 62
     7
 10
-126.64311499999999
 20
560.15025300000002
 30
0.0
 11
-122.143108
 21
560.15025300000002
 31
0.0
  0
LINE
  5
F7
  8
0
 62
     7
 10
-122.143108
 20
560.15025300000002
 30
0.0
 11
-122.143108
 21
654.15025300000002
 31
0.0
  0
LINE
  5
F8
  8
0
 62
     7
 10
-126.64311499999999
 20
656.65025300000002
 30
0.0
 11
-89.643107999999984
 21
656.65025300000002
 31
0.0
  0
LINE
  5
F9
  8
0
 62
     7
 10
-126.64311499999999
 20
689.65025300000002
 30
0.0
 11
-89.643107999999984
 21
689.65025300000002
 31
0.0
  0
LINE
  5
FA
  8
0
 62
     7
 10
-329.14310799999993
 20
695.65025300000002
 30
0.0
 11
-327.14310799999993
 21
695.65025300000002
 31
0.0
  0
LINE
  5
FB
  8
0
 62
     7
 10
-126.643108
 20
656.65025300000002
 30
0.0
 11
-126.643108
 21
666.15025299999991
 31
0.0
  0
LINE
  5
FC
  8
0
 62
     2
 10
-366.14310799999993
 20
688.40025300000002
 30
0.0
 11
-366.14310799999993
 21
701.65025300000002
 31
0.0
  0
LINE
  5
FD
  8
0
 62
     2
 10
-334.43200200000001
 20
695.40025300000002
 30
0.0
 11
-327.14310799999993
 21
695.40025300000002
 31
0.0
  0
LINE
  5
FE
  8
0
 62
     2
 10
-364.14310799999993
 20
686.40025300000002
 30
0.0
 11
-345.14307699999989
 21
686.40025300000002
 31
0.0
  0
LINE
  5
FF
  8
0
 62
     2
 10
-364.14310799999993
 20
703.65025299999991
 30
0.0
 11
-352.14310799999993
 21
703.65025299999991
 31
0.0
  0
ARC
  5
100
  8
0
 62
     2
 10
-341.64310799999993
 20
699.90025300000002
 30
0.0
 40
8.5
 50
180.00000499999999
 51
245.68444600000001
  0
ARC
  5
101
  8
0
 62
     2
 10
-364.14310799999993
 20
701.65025300000002
 30
0.0
 40
2.0
 50
90.000003000000007
 51
180.00000499999999
  0
ARC
  5
102
  8
0
 62
     2
 10
-364.14310799999993
 20
688.40025300000002
 30
0.0
 40
2.0
 50
180.00000499999999
 51
270.000001
  0
LINE
  5
103
  8
0
 62
     2
 10
-350.14310799999993
 20
699.90025300000002
 30
0.0
 11
-350.14310799999993
 21
701.65025300000002
 31
0.0
  0
ARC
  5
104
  8
0
 62
     2
 10
-352.14310799999993
 20
701.65025300000002
 30
0.0
 40
2.0
 50
0.0
 51
90.000003000000007
  0
LINE
  5
105
  8
0
 62
     7
 10
-84.643107999999984
 20
545.65025300000002
 30
0.0
 11
-84.643107999999984
 21
556.15025300000002
 31
0.0
  0
LINE
  5
106
  8
0
 62
     7
 10
-98.643107999999998
 20
545.65025300000002
 30
0.0
 11
-98.643107999999998
 21
556.15025300000002
 31
0.0
  0
LINE
  5
107
  8
0
 62
     7
 10
-87.674481000000014
 20
544.65025300000002
 30
0.0
 11
-83.643107999999998
 21
544.65025300000002
 31
0.0
  0
LINE
  5
108
  8
0
 62
     7
 10
-334.64310799999993
 20
695.40025300000002
 30
0.0
 11
-334.64310799999993
 21
703.65025299999991
 31
0.0
  0
LINE
  5
109
  8
0
 62
     7
 10
-337.6744799999999
 20
703.65025299999991
 30
0.0
 11
-333.14310799999993
 21
703.65025299999991
 31
0.0
  0
ARC
  5
10A
  8
0
 62
     7
 10
-86.143107999999998
 20
689.15025300000002
 30
0.0
 40
1.0
 50
90.000003000000007
 51
180.00000499999999
  0
ARC
  5
10B
  8
0
 62
     7
 10
-83.143107999999984
 20
689.15025300000002
 30
0.0
 40
1.0
 50
0.0
 51
90.000003000000007
  0
ARC
  5
10C
  8
0
 62
     7
 10
-199.5572919999999
 20
553.65025299999991
 30
0.0
 40
1.0
 50
270.000001
 51
45.0
  0
ARC
  5
10D
  8
0
 62
     7
 10
-314.64307700000001
 20
553.65025299999991
 30
0.0
 40
1.0
 50
180.00000499999999
 51
270.000001
  0
LINE
  5
10E
  8
0
 62
     7
 10
-82.643107999999998
 20
545.65025300000002
 30
0.0
 11
-82.643107999999998
 21
556.15025300000002
 31
0.0
  0
LINE
  5
10F
  8
0
 62
     7
 10
-100.643108
 20
545.65025300000002
 30
0.0
 11
-100.643108
 21
550.15025300000002
 31
0.0
  0
LINE
  5
110
  8
0
 62
     7
 10
-332.14310799999993
 20
698.15025300000002
 30
0.0
 11
-332.14310799999993
 21
702.65025300000002
 31
0.0
  0
ARC
  5
111
  8
0
 62
     7
 10
-333.14310799999993
 20
702.65025300000002
 30
0.0
 40
1.0
 50
0.0
 51
90.000003000000007
  0
ARC
  5
112
  8
0
 62
     7
 10
-99.643107999999984
 20
545.65025300000002
 30
0.0
 40
1.0
 50
180.00000499999999
 51
270.000001
  0
ARC
  5
113
  8
0
 62
     7
 10
-83.643107999999998
 20
545.65025300000002
 30
0.0
 40
1.0
 50
270.000001
 51
0.00001
  0
ARC
  5
114
  8
0
 62
     7
 10
-83.643107999999998
 20
545.65025300000002
 30
0.0
 40
1.0
 50
180.00000499999999
 51
270.000001
  0
ARC
  5
115
  8
0
 62
     7
 10
-99.643107999999984
 20
545.65025300000002
 30
0.0
 40
1.0
 50
270.000001
 51
0.00001
  0
ARC
  5
116
  8
0
 62
     7
 10
-86.143107999999998
 20
615.15025300000002
 30
0.0
 40
1.0
 50
90.000003000000007
 51
180.00000499999999
  0
LINE
  5
117
  8
0
 62
     7
 10
-87.143107999999984
 20
617.64051100000006
 30
0.0
 11
-87.143107999999984
 21
689.15025300000002
 31
0.0
  0
LINE
  5
118
  8
0
 62
     7
 10
-87.143107999999984
 20
636.15025300000002
 30
0.0
 11
-82.143107999999984
 21
636.15025300000002
 31
0.0
  0
LINE
  5
119
  8
0
 62
     7
 10
-399.64310799999993
 20
559.65025300000002
 30
0.0
 11
-399.64310799999993
 21
579.65025300000002
 31
0.0
  0
LINE
  5
11A
  8
0
 62
     7
 10
-398.64310799999998
 20
558.65025300000002
 30
0.0
 11
-397.39310799999993
 21
558.65025300000002
 31
0.0
  0
ARC
  5
11B
  8
0
 62
     7
 10
-398.64310799999998
 20
559.65025300000002
 30
0.0
 40
1.0
 50
180.00000499999999
 51
270.000001
  0
LINE
  5
11C
  8
0
 62
     7
 10
-392.14310799999993
 20
656.15025300000002
 30
0.0
 11
-392.14310799999993
 21
681.15025300000002
 31
0.0
  0
LINE
  5
11D
  8
0
 62
     7
 10
-367.14310799999998
 20
656.15025300000002
 30
0.0
 11
-367.14310799999998
 21
681.15025300000002
 31
0.0
  0
LINE
  5
11E
  8
0
 62
     7
 10
-91.143107999999998
 20
692.15025300000002
 30
0.0
 11
-80.143107999999998
 21
692.15025300000002
 31
0.0
  0
ARC
  5
11F
  8
0
 62
     7
 10
-91.143107999999998
 20
691.65025300000002
 30
0.0
 40
0.5
 50
90.000003000000007
 51
180.00000499999999
  0
LINE
  5
120
  8
0
 62
     7
 10
-396.39310799999998
 20
559.65025300000002
 30
0.0
 11
-396.39310799999998
 21
579.65025300000002
 31
0.0
  0
ARC
  5
121
  8
0
 62
     7
 10
-397.39310799999993
 20
559.65025300000002
 30
0.0
 40
1.0
 50
270.000001
 51
360.0
  0
LINE
  5
122
  8
0
 62
     7
 10
-392.89310799999993
 20
558.65025300000002
 30
0.0
 11
-392.14310799999993
 21
558.65025300000002
 31
0.0
  0
LINE
  5
123
  8
0
 62
     7
 10
-393.89310799999998
 20
559.65025300000002
 30
0.0
 11
-393.89310799999998
 21
579.65025300000002
 31
0.0
  0
ARC
  5
124
  8
0
 62
     7
 10
-392.89310799999993
 20
559.65025300000002
 30
0.0
 40
1.0
 50
180.00000499999999
 51
270.000001
  0
LINE
  5
125
  8
0
 62
     7
 10
-327.14310799999993
 20
694.15025300000002
 30
0.0
 11
-327.14310799999993
 21
695.65025300000002
 31
0.0
  0
LINE
  5
126
  8
0
 62
     7
 10
-402.14310799999998
 20
656.15025300000002
 30
0.0
 11
-367.14310799999998
 21
656.15025300000002
 31
0.0
  0
LINE
  5
127
  8
0
 62
     7
 10
-392.14310799999993
 20
681.15025300000002
 30
0.0
 11
-367.14310799999998
 21
681.15025300000002
 31
0.0
  0
LINE
  5
128
  8
0
 62
     7
 10
-398.64310799999998
 20
604.90025300000002
 30
0.0
 11
-397.39310799999993
 21
604.90025300000002
 31
0.0
  0
LINE
  5
129
  8
0
 62
     7
 10
-398.64310799999998
 20
583.15025300000002
 30
0.0
 11
-397.39310799999993
 21
583.15025300000002
 31
0.0
  0
LINE
  5
12A
  8
0
 62
     7
 10
-398.64310799999998
 20
580.65025300000002
 30
0.0
 11
-397.39310799999993
 21
580.65025300000002
 31
0.0
  0
LINE
  5
12B
  8
0
 62
     7
 10
-392.89310799999993
 20
580.65025300000002
 30
0.0
 11
-392.14310799999993
 21
580.65025300000002
 31
0.0
  0
LINE
  5
12C
  8
0
 62
     7
 10
-392.89310799999993
 20
583.15025300000002
 30
0.0
 11
-392.14310799999993
 21
583.15025300000002
 31
0.0
  0
LINE
  5
12D
  8
0
 62
     7
 10
-392.89310799999993
 20
604.90025300000002
 30
0.0
 11
-392.14310799999993
 21
604.90025300000002
 31
0.0
  0
LINE
  5
12E
  8
0
 62
     7
 10
-393.89310799999998
 20
584.15025300000002
 30
0.0
 11
-393.89310799999998
 21
603.90025300000002
 31
0.0
  0
LINE
  5
12F
  8
0
 62
     7
 10
-396.39310799999998
 20
584.15025300000002
 30
0.0
 11
-396.39310799999998
 21
603.90025300000002
 31
0.0
  0
LINE
  5
130
  8
0
 62
     7
 10
-399.64310799999993
 20
584.15025300000002
 30
0.0
 11
-399.64310799999993
 21
603.90025300000002
 31
0.0
  0
ARC
  5
131
  8
0
 62
     7
 10
-392.89310799999993
 20
579.65025300000002
 30
0.0
 40
1.0
 50
90.000003000000007
 51
180.00000499999999
  0
ARC
  5
132
  8
0
 62
     7
 10
-397.39310799999993
 20
579.65025300000002
 30
0.0
 40
1.0
 50
0.0
 51
90.000003000000007
  0
ARC
  5
133
  8
0
 62
     7
 10
-398.64310799999998
 20
579.65025300000002
 30
0.0
 40
1.0
 50
90.000003000000007
 51
180.00000499999999
  0
ARC
  5
134
  8
0
 62
     7
 10
-397.39310799999993
 20
584.15025300000002
 30
0.0
 40
1.0
 50
270.000001
 51
360.0
  0
ARC
  5
135
  8
0
 62
     7
 10
-398.64310799999998
 20
584.15025300000002
 30
0.0
 40
1.0
 50
180.00000499999999
 51
270.000001
  0
ARC
  5
136
  8
0
 62
     7
 10
-392.89310799999993
 20
584.15025300000002
 30
0.0
 40
1.0
 50
180.00000499999999
 51
270.000001
  0
ARC
  5
137
  8
0
 62
     7
 10
-398.64310799999998
 20
603.90025300000002
 30
0.0
 40
1.0
 50
90.000003000000007
 51
180.00000499999999
  0
ARC
  5
138
  8
0
 62
     7
 10
-397.39310799999993
 20
603.90025300000002
 30
0.0
 40
1.0
 50
0.0
 51
90.000003000000007
  0
ARC
  5
139
  8
0
 62
     7
 10
-392.89310799999993
 20
603.90025300000002
 30
0.0
 40
1.0
 50
90.000003000000007
 51
180.00000499999999
  0
LINE
  5
13A
  8
0
 62
     7
 10
-399.64310799999993
 20
632.65025299999991
 30
0.0
 11
-399.64310799999993
 21
652.65025300000002
 31
0.0
  0
LINE
  5
13B
  8
0
 62
     7
 10
-398.64310799999998
 20
653.65025299999991
 30
0.0
 11
-397.39310799999993
 21
653.65025299999991
 31
0.0
  0
ARC
  5
13C
  8
0
 62
     7
 10
-398.64310799999998
 20
652.65025300000002
 30
0.0
 40
1.0
 50
90.000003000000007
 51
180.00000499999999
  0
LINE
  5
13D
  8
0
 62
     7
 10
-396.39310799999998
 20
632.65025299999991
 30
0.0
 11
-396.39310799999998
 21
652.65025300000002
 31
0.0
  0
ARC
  5
13E
  8
0
 62
     7
 10
-397.39310799999993
 20
652.65025300000002
 30
0.0
 40
1.0
 50
0.0
 51
90.000003000000007
  0
LINE
  5
13F
  8
0
 62
     7
 10
-392.89310799999993
 20
653.65025299999991
 30
0.0
 11
-392.14310799999993
 21
653.65025299999991
 31
0.0
  0
LINE
  5
140
  8
0
 62
     7
 10
-393.89310799999998
 20
632.65025299999991
 30
0.0
 11
-393.89310799999998
 21
652.65025300000002
 31
0.0
  0
ARC
  5
141
  8
0
 62
     7
 10
-392.89310799999993
 20
652.65025300000002
 30
0.0
 40
1.0
 50
90.000003000000007
 51
180.00000499999999
  0
LINE
  5
142
  8
0
 62
     7
 10
-398.64310799999998
 20
607.40025300000002
 30
0.0
 11
-397.39310799999993
 21
607.40025300000002
 31
0.0
  0
LINE
  5
143
  8
0
 62
     7
 10
-398.64310799999998
 20
629.15025300000002
 30
0.0
 11
-397.39310799999993
 21
629.15025300000002
 31
0.0
  0
LINE
  5
144
  8
0
 62
     7
 10
-398.64310799999998
 20
631.65025300000002
 30
0.0
 11
-397.39310799999993
 21
631.65025300000002
 31
0.0
  0
LINE
  5
145
  8
0
 62
     7
 10
-392.89310799999993
 20
631.65025300000002
 30
0.0
 11
-392.14310799999993
 21
631.65025300000002
 31
0.0
  0
LINE
  5
146
  8
0
 62
     7
 10
-392.89310799999993
 20
629.15025300000002
 30
0.0
 11
-392.14310799999993
 21
629.15025300000002
 31
0.0
  0
LINE
  5
147
  8
0
 62
     7
 10
-392.89310799999993
 20
607.40025300000002
 30
0.0
 11
-392.14310799999993
 21
607.40025300000002
 31
0.0
  0
LINE
  5
148
  8
0
 62
     7
 10
-393.89310799999998
 20
608.40025300000002
 30
0.0
 11
-393.89310799999998
 21
628.15025300000002
 31
0.0
  0
LINE
  5
149
  8
0
 62
     7
 10
-396.39310799999998
 20
608.40025300000002
 30
0.0
 11
-396.39310799999998
 21
628.15025300000002
 31
0.0
  0
LINE
  5
14A
  8
0
 62
     7
 10
-399.64310799999993
 20
608.40025300000002
 30
0.0
 11
-399.64310799999993
 21
628.15025300000002
 31
0.0
  0
ARC
  5
14B
  8
0
 62
     7
 10
-392.89310799999993
 20
632.65025299999991
 30
0.0
 40
1.0
 50
180.00000499999999
 51
270.000001
  0
ARC
  5
14C
  8
0
 62
     7
 10
-397.39310799999993
 20
632.65025299999991
 30
0.0
 40
1.0
 50
270.000001
 51
360.0
  0
ARC
  5
14D
  8
0
 62
     7
 10
-398.64310799999998
 20
632.65025299999991
 30
0.0
 40
1.0
 50
180.00000499999999
 51
270.000001
  0
ARC
  5
14E
  8
0
 62
     7
 10
-397.39310799999993
 20
628.15025300000002
 30
0.0
 40
1.0
 50
0.0
 51
90.000003000000007
  0
ARC
  5
14F
  8
0
 62
     7
 10
-398.64310799999998
 20
628.15025300000002
 30
0.0
 40
1.0
 50
90.000003000000007
 51
180.00000499999999
  0
ARC
  5
150
  8
0
 62
     7
 10
-392.89310799999993
 20
628.15025300000002
 30
0.0
 40
1.0
 50
90.000003000000007
 51
180.00000499999999
  0
ARC
  5
151
  8
0
 62
     7
 10
-398.64310799999998
 20
608.40025300000002
 30
0.0
 40
1.0
 50
180.00000499999999
 51
270.000001
  0
ARC
  5
152
  8
0
 62
     7
 10
-397.39310799999993
 20
608.40025300000002
 30
0.0
 40
1.0
 50
270.000001
 51
360.0
  0
ARC
  5
153
  8
0
 62
     7
 10
-392.89310799999993
 20
608.40025300000002
 30
0.0
 40
1.0
 50
180.00000499999999
 51
270.000001
  0
ARC
  5
154
  8
0
 62
     1
 10
-79.143106000000003
 20
549.1502539999999
 30
0.0
 40
5.0
 50
225.53535999999991
 51
134.427029
  0
LINE
  5
155
  8
0
 62
     1
 10
-79.793106000000009
 20
551.800254
 30
0.0
 11
-78.493106000000012
 21
551.800254
 31
0.0
  0
LINE
  5
156
  8
0
 62
     1
 10
-79.793106000000009
 20
546.50025400000004
 30
0.0
 11
-78.493106000000012
 21
546.50025400000004
 31
0.0
  0
LINE
  5
157
  8
0
 62
     1
 10
-81.793105999999995
 20
548.50025400000004
 30
0.0
 11
-81.793105999999995
 21
549.80025399999988
 31
0.0
  0
LINE
  5
158
  8
0
 62
     1
 10
-76.493106000000012
 20
548.50025400000004
 30
0.0
 11
-76.493106000000012
 21
549.80025399999988
 31
0.0
  0
LINE
  5
159
  8
0
 62
     1
 10
-81.793105999999995
 20
549.80025399999988
 30
0.0
 11
-79.793106000000009
 21
549.80025399999988
 31
0.0
  0
LINE
  5
15A
  8
0
 62
     1
 10
-81.793105999999995
 20
548.50025400000004
 30
0.0
 11
-79.793106000000009
 21
548.50025400000004
 31
0.0
  0
LINE
  5
15B
  8
0
 62
     1
 10
-79.793106000000009
 20
546.50025400000004
 30
0.0
 11
-79.793106000000009
 21
548.50025400000004
 31
0.0
  0
LINE
  5
15C
  8
0
 62
     1
 10
-78.493106000000012
 20
546.50025400000004
 30
0.0
 11
-78.493106000000012
 21
548.50025400000004
 31
0.0
  0
LINE
  5
15D
  8
0
 62
     1
 10
-79.793106000000009
 20
549.80025399999988
 30
0.0
 11
-79.793106000000009
 21
551.800254
 31
0.0
  0
LINE
  5
15E
  8
0
 62
     1
 10
-78.493106000000012
 20
549.80025399999988
 30
0.0
 11
-78.493106000000012
 21
551.800254
 31
0.0
  0
LINE
  5
15F
  8
0
 62
     1
 10
-78.493106000000012
 20
549.80025399999988
 30
0.0
 11
-76.493106000000012
 21
549.80025399999988
 31
0.0
  0
LINE
  5
160
  8
0
 62
     1
 10
-78.493106000000012
 20
548.50025400000004
 30
0.0
 11
-76.493106000000012
 21
548.50025400000004
 31
0.0
  0
LINE
  5
161
  8
0
  6
DASHDOT
 62
     7
 10
-79.143106000000003
 20
541.30811900000003
 30
0.0
 11
-79.143106000000003
 21
556.83012799999995
 31
0.0
  0
LINE
  5
162
  8
0
  6
DASHDOT
 62
     7
 10
-66.643107999999984
 20
541.62774799999988
 30
0.0
 11
-66.643107999999984
 21
556.83012799999995
 31
0.0
  0
CIRCLE
  5
163
  8
0
 62
     3
 10
-91.643107999999998
 20
549.15025299999991
 30
0.0
 40
6.0
  0
LINE
  5
164
  8
0
 62
     3
 10
-92.353107999999978
 20
552.55025299999988
 30
0.0
 11
-90.93310799999999
 21
552.55025299999988
 31
0.0
  0
LINE
  5
165
  8
0
 62
     3
 10
-92.353107999999978
 20
545.75025300000004
 30
0.0
 11
-90.93310799999999
 21
545.75025300000004
 31
0.0
  0
LINE
  5
166
  8
0
 62
     3
 10
-95.043107999999975
 20
548.44025299999987
 30
0.0
 11
-95.043107999999975
 21
549.86025299999994
 31
0.0
  0
LINE
  5
167
  8
0
 62
     3
 10
-88.243107999999992
 20
548.44025299999987
 30
0.0
 11
-88.243107999999992
 21
549.86025299999994
 31
0.0
  0
LINE
  5
168
  8
0
 62
     3
 10
-95.043107999999975
 20
549.86025299999994
 30
0.0
 11
-92.353107999999978
 21
549.86025299999994
 31
0.0
  0
LINE
  5
169
  8
0
 62
     3
 10
-95.043107999999975
 20
548.44025299999987
 30
0.0
 11
-92.353107999999978
 21
548.44025299999987
 31
0.0
  0
LINE
  5
16A
  8
0
 62
     3
 10
-92.353107999999978
 20
545.75025300000004
 30
0.0
 11
-92.353107999999978
 21
548.44025299999987
 31
0.0
  0
LINE
  5
16B
  8
0
 62
     3
 10
-90.93310799999999
 20
545.75025300000004
 30
0.0
 11
-90.93310799999999
 21
548.44025299999987
 31
0.0
  0
LINE
  5
16C
  8
0
 62
     3
 10
-92.353107999999978
 20
549.86025299999994
 30
0.0
 11
-92.353107999999978
 21
552.55025299999988
 31
0.0
  0
LINE
  5
16D
  8
0
 62
     3
 10
-90.93310799999999
 20
549.86025299999994
 30
0.0
 11
-90.93310799999999
 21
552.55025299999988
 31
0.0
  0
LINE
  5
16E
  8
0
 62
     3
 10
-90.93310799999999
 20
549.86025299999994
 30
0.0
 11
-88.243107999999992
 21
549.86025299999994
 31
0.0
  0
LINE
  5
16F
  8
0
 62
     3
 10
-90.93310799999999
 20
548.44025299999987
 30
0.0
 11
-88.243107999999992
 21
548.44025299999987
 31
0.0
  0
ARC
  5
170
  8
0
 62
     3
 10
-341.64310799999993
 20
699.15025299999991
 30
0.0
 40
6.0
 50
303.55732199999989
 51
236.44267899999991
  0
LINE
  5
171
  8
0
 62
     3
 10
-342.353115
 20
702.55024700000001
 30
0.0
 11
-340.93310099999991
 21
702.55024700000001
 31
0.0
  0
LINE
  5
172
  8
0
 62
     3
 10
-342.353115
 20
695.75025900000003
 30
0.0
 11
-340.93310099999991
 21
695.75025900000003
 31
0.0
  0
LINE
  5
173
  8
0
 62
     3
 10
-345.04310199999992
 20
698.440247
 30
0.0
 11
-345.04310199999992
 21
699.86025999999993
 31
0.0
  0
LINE
  5
174
  8
0
 62
     3
 10
-338.24311399999999
 20
698.440247
 30
0.0
 11
-338.24311399999999
 21
699.86025999999993
 31
0.0
  0
LINE
  5
175
  8
0
 62
     3
 10
-345.04310199999992
 20
699.86025999999993
 30
0.0
 11
-342.353115
 21
699.86025999999993
 31
0.0
  0
LINE
  5
176
  8
0
 62
     3
 10
-345.04310199999992
 20
698.440247
 30
0.0
 11
-342.353115
 21
698.440247
 31
0.0
  0
LINE
  5
177
  8
0
 62
     3
 10
-342.353115
 20
695.75025900000003
 30
0.0
 11
-342.353115
 21
698.440247
 31
0.0
  0
LINE
  5
178
  8
0
 62
     3
 10
-340.93310099999991
 20
695.75025900000003
 30
0.0
 11
-340.93310099999991
 21
698.440247
 31
0.0
  0
LINE
  5
179
  8
0
 62
     3
 10
-342.353115
 20
699.86025999999993
 30
0.0
 11
-342.353115
 21
702.55024700000001
 31
0.0
  0
LINE
  5
17A
  8
0
 62
     3
 10
-340.93310099999991
 20
699.86025999999993
 30
0.0
 11
-340.93310099999991
 21
702.55024700000001
 31
0.0
  0
LINE
  5
17B
  8
0
 62
     3
 10
-340.93310099999991
 20
699.86025999999993
 30
0.0
 11
-338.24311399999999
 21
699.86025999999993
 31
0.0
  0
LINE
  5
17C
  8
0
 62
     3
 10
-340.93310099999991
 20
698.440247
 30
0.0
 11
-338.24311399999999
 21
698.440247
 31
0.0
  0
LINE
  5
17D
  8
0
  6
DASHDOT
 62
     7
 10
-349.64310799999993
 20
699.15025299999991
 30
0.0
 11
-333.64310799999998
 21
699.15025299999991
 31
0.0
  0
LINE
  5
17E
  8
0
 62
     3
 10
-126.643108
 20
666.15025299999991
 30
0.0
 11
-126.643108
 21
669.15025300000002
 31
0.0
  0
LINE
  5
17F
  8
0
 62
   150
 10
-72.143106000000003
 20
558.09918400000004
 30
0.0
 11
-61.643106000000003
 21
552.03700599999991
 31
0.0
  0
LINE
  5
180
  8
0
 62
   150
 10
-91.270822999999993
 20
543.16181399999994
 30
0.0
 11
-86.054647000000003
 21
540.15025300000002
 31
0.0
  0
LINE
  5
181
  8
0
 62
   150
 10
-72.231566999999998
 20
540.15025300000002
 30
0.0
 11
-61.643106000000003
 21
546.26350400000001
 31
0.0
  0
LINE
  5
182
  8
0
 62
   150
 10
-61.643107999999991
 20
546.26350400000001
 30
0.0
 11
-61.643107999999991
 21
552.03700599999991
 31
0.0
  0
CIRCLE
  5
183
  8
0
 62
   150
 10
-66.643107999999984
 20
549.15025299999991
 30
0.0
 40
2.75
  0
LINE
  5
184
  8
0
  6
DASHDOT
 62
   150
 10
-66.643107999999984
 20
537.00463599999989
 30
0.0
 11
-66.643107999999984
 21
553.37553099999991
 31
0.0
  0
LINE
  5
185
  8
0
 62
   150
 10
-74.643107999999984
 20
558.65025300000002
 30
0.0
 11
-74.643107999999984
 21
589.65025300000002
 31
0.0
  0
LINE
  5
186
  8
0
 62
   150
 10
-80.143107999999998
 20
558.15025300000002
 30
0.0
 11
-75.143107999999998
 21
558.15025300000002
 31
0.0
  0
LINE
  5
187
  8
0
 62
   150
 10
-86.054653000000002
 20
540.15025300000002
 30
0.0
 11
-72.231566999999998
 21
540.15025300000002
 31
0.0
  0
LINE
  5
188
  8
0
 62
   150
 10
-77.393106000000003
 20
558.15025300000002
 30
0.0
 11
-77.393106000000003
 21
590.15025300000002
 31
0.0
  0
ARC
  5
189
  8
0
 62
   150
 10
-75.143107999999998
 20
558.65025300000002
 30
0.0
 40
0.5
 50
270.000001
 51
360.0
  0
LINE
  5
18A
  8
0
 62
   150
 10
-72.143106000000003
 20
558.09918400000004
 30
0.0
 11
-72.143106000000003
 21
590.201324
 31
0.0
  0
CIRCLE
  5
18B
  8
0
 62
   150
 10
-66.643107999999984
 20
549.15025299999991
 30
0.0
 40
3.25
  0
LINE
  5
18C
  8
0
 62
   150
 10
-72.143106000000003
 20
608.09918600000003
 30
0.0
 11
-61.643106000000003
 21
602.03700599999991
 31
0.0
  0
LINE
  5
18D
  8
0
 62
   150
 10
-72.143106000000003
 20
590.201324
 30
0.0
 11
-61.643106000000003
 21
596.26350400000001
 31
0.0
  0
LINE
  5
18E
  8
0
 62
   150
 10
-61.643107999999991
 20
596.26350400000001
 30
0.0
 11
-61.643107999999991
 21
602.03700599999991
 31
0.0
  0
CIRCLE
  5
18F
  8
0
 62
   150
 10
-66.643107999999984
 20
599.15025299999991
 30
0.0
 40
2.75
  0
LINE
  5
190
  8
0
  6
DASHDOT
 62
   150
 10
-66.643107999999984
 20
594.33041800000001
 30
0.0
 11
-66.643107999999984
 21
603.37553000000003
 31
0.0
  0
LINE
  5
191
  8
0
 62
   150
 10
-80.143107999999998
 20
590.15025300000002
 30
0.0
 11
-75.143107999999998
 21
590.15025300000002
 31
0.0
  0
CIRCLE
  5
192
  8
0
 62
   150
 10
-66.643107999999984
 20
599.15025299999991
 30
0.0
 40
3.25
  0
LINE
  5
193
  8
0
 62
   150
 10
-72.231560999999999
 20
658.15025300000002
 30
0.0
 11
-61.643106000000003
 21
652.03700300000003
 31
0.0
  0
LINE
  5
194
  8
0
 62
   150
 10
-72.143106000000003
 20
640.201324
 30
0.0
 11
-61.643106000000003
 21
646.26350400000001
 31
0.0
  0
LINE
  5
195
  8
0
 62
   150
 10
-61.643107999999991
 20
646.26350400000001
 30
0.0
 11
-61.643107999999991
 21
652.03701000000001
 31
0.0
  0
CIRCLE
  5
196
  8
0
 62
   150
 10
-66.643107999999984
 20
649.15025299999991
 30
0.0
 40
2.75
  0
LINE
  5
197
  8
0
  6
DASHDOT
 62
   150
 10
-66.643107999999984
 20
644.25322699999992
 30
0.0
 11
-66.643107999999984
 21
653.88194999999985
 31
0.0
  0
CIRCLE
  5
198
  8
0
 62
   150
 10
-66.643107999999984
 20
649.15025299999991
 30
0.0
 40
3.25
  0
ARC
  5
199
  8
0
 62
   150
 10
-75.143107999999998
 20
589.65025300000002
 30
0.0
 40
0.5
 50
0.0
 51
90.000003000000007
  0
LINE
  5
19A
  8
0
 62
   150
 10
-72.143106000000003
 20
608.09918200000004
 30
0.0
 11
-72.143106000000003
 21
640.201324
 31
0.0
  0
LINE
  5
19B
  8
0
 62
   150
 10
-80.143107999999998
 20
658.15025300000002
 30
0.0
 11
-72.231560999999999
 21
658.15025300000002
 31
0.0
  0
ARC
  5
19C
  8
0
 62
   150
 10
-66.643107999999984
 20
549.15025299999991
 30
0.0
 40
5.25
 50
129.64556899999991
 51
230.35438599999989
  0
LINE
  5
19D
  8
0
 62
   150
 10
-72.901432999999997
 20
555.65025300000002
 30
0.0
 11
-70.061819
 21
554.01080000000002
 31
0.0
  0
LINE
  5
19E
  8
0
 62
   150
 10
-82.643107999999998
 20
555.65025300000002
 30
0.0
 11
-72.901432999999997
 21
555.65025300000002
 31
0.0
  0
LINE
  5
19F
  8
0
 62
   150
 10
-72.901438999999996
 20
542.65025300000002
 30
0.0
 11
-70.061819999999983
 21
544.28970800000002
 31
0.0
  0
LINE
  5
1A0
  8
0
 62
   150
 10
-85.384773999999993
 20
542.65025300000002
 30
0.0
 11
-72.901438999999996
 21
542.65025300000002
 31
0.0
  0
LINE
  5
1A1
  8
0
 62
   150
 10
-88.169494999999984
 20
544.25801300000001
 30
0.0
 11
-85.384773999999993
 21
542.65025300000002
 31
0.0
  0
ARC
  5
1A2
  8
0
 62
   150
 10
-70.311818999999986
 20
553.57778799999994
 30
0.0
 40
0.5
 50
309.64558799999992
 51
60.000002999999992
  0
ARC
  5
1A3
  8
0
 62
   150
 10
-70.311819999999997
 20
544.72272099999998
 30
0.0
 40
0.5
 50
299.99999400000002
 51
50.354394999999997
  0
LINE
  5
1A4
  8
0
 62
   150
 10
-80.143107999999998
 20
605.65025300000002
 30
0.0
 11
-72.901432999999997
 21
605.65025300000002
 31
0.0
  0
LINE
  5
1A5
  8
0
 62
   150
 10
-80.143107999999998
 20
655.65025300000002
 30
0.0
 11
-72.901432999999997
 21
655.65025300000002
 31
0.0
  0
LINE
  5
1A6
  8
0
 62
   150
 10
-72.901432999999997
 20
605.65025300000002
 30
0.0
 11
-70.061819
 21
604.01079900000002
 31
0.0
  0
LINE
  5
1A7
  8
0
 62
   150
 10
-72.901432999999997
 20
655.65025300000002
 30
0.0
 11
-70.061819
 21
654.0108029999999
 31
0.0
  0
ARC
  5
1A8
  8
0
 62
   150
 10
-66.643107999999984
 20
599.15025299999991
 30
0.0
 40
5.25
 50
129.64556899999991
 51
230.35438599999989
  0
ARC
  5
1A9
  8
0
 62
   150
 10
-66.643107999999984
 20
649.15025299999991
 30
0.0
 40
5.25
 50
129.64556899999991
 51
230.35438599999989
  0
ARC
  5
1AA
  8
0
 62
   150
 10
-70.311818999999986
 20
603.57778899999994
 30
0.0
 40
0.5
 50
309.64558799999992
 51
60.000002999999992
  0
ARC
  5
1AB
  8
0
 62
   150
 10
-70.311818999999986
 20
653.57778899999994
 30
0.0
 40
0.5
 50
309.64558799999992
 51
60.000002999999992
  0
ARC
  5
1AC
  8
0
 62
   150
 10
-70.311819999999997
 20
594.72272099999998
 30
0.0
 40
0.5
 50
299.99999400000002
 51
50.354394999999997
  0
ARC
  5
1AD
  8
0
 62
   150
 10
-70.311819999999997
 20
644.72271699999988
 30
0.0
 40
0.5
 50
299.99999400000002
 51
50.354394999999997
  0
LINE
  5
1AE
  8
0
 62
   150
 10
-72.901438999999996
 20
592.65025300000002
 30
0.0
 11
-70.061819999999983
 21
594.28970699999991
 31
0.0
  0
LINE
  5
1AF
  8
0
 62
   150
 10
-72.901438999999996
 20
642.65025300000002
 30
0.0
 11
-70.061819999999983
 21
644.28971100000001
 31
0.0
  0
LINE
  5
1B0
  8
0
 62
   150
 10
-80.143107999999998
 20
592.65025300000002
 30
0.0
 11
-72.901438999999996
 21
592.65025300000002
 31
0.0
  0
LINE
  5
1B1
  8
0
 62
   150
 10
-80.143107999999998
 20
642.65025300000002
 30
0.0
 11
-72.901438999999996
 21
642.65025300000002
 31
0.0
  0
ARC
  5
1B2
  8
0
 62
     7
 10
-344.14307700000001
 20
693.15025300000002
 30
0.0
 40
1.0
 50
90.000003000000007
 51
180.00000499999999
  0
LINE
  5
1B3
  8
0
 62
     7
 10
-345.14307699999989
 20
662.7502139999998
 30
0.0
 11
-126.64311499999999
 21
662.7502139999998
 31
0.0
  0
LINE
  5
1B4
  8
0
 62
     7
 10
-345.14307699999989
 20
659.150215
 30
0.0
 11
-274.39306199999987
 21
659.150215
 31
0.0
  0
ARC
  5
1B5
  8
0
 62
     2
 10
-341.64310799999993
 20
699.90025300000002
 30
0.0
 40
8.5
 50
317.43156499999998
 51
328.034288
  0
LINE
  5
1B6
  8
0
 62
     7
 10
-126.64311499999999
 20
554.15021400000001
 30
0.0
 11
-126.64311499999999
 21
694.15025300000002
 31
0.0
  0
LINE
  5
1B7
  8
0
 62
     7
 10
-126.64311499999999
 20
654.15025300000002
 30
0.0
 11
-122.143108
 21
654.15025300000002
 31
0.0
  0
LINE
  5
1B8
  8
0
 62
     7
 10
-153.393081
 20
659.150215
 30
0.0
 11
-126.64311499999999
 21
659.150215
 31
0.0
  0
LINE
  5
1B9
  8
0
 62
     7
 10
-153.393081
 20
655.55021699999986
 30
0.0
 11
-126.64311499999999
 21
655.55021699999986
 31
0.0
  0
LINE
  5
1BA
  8
0
 62
     7
 10
-153.393081
 20
651.95021100000008
 30
0.0
 11
-126.64311499999999
 21
651.95021100000008
 31
0.0
  0
LINE
  5
1BB
  8
0
 62
     7
 10
-153.393081
 20
648.35021200000006
 30
0.0
 11
-126.64311499999999
 21
648.35021200000006
 31
0.0
  0
LINE
  5
1BC
  8
0
 62
     7
 10
-153.393081
 20
644.75021399999991
 30
0.0
 11
-126.64311499999999
 21
644.75021399999991
 31
0.0
  0
LINE
  5
1BD
  8
0
 62
     7
 10
-153.393081
 20
641.150215
 30
0.0
 11
-126.64311499999999
 21
641.150215
 31
0.0
  0
LINE
  5
1BE
  8
0
 62
     7
 10
-153.393081
 20
637.55021699999986
 30
0.0
 11
-126.64311499999999
 21
637.55021699999986
 31
0.0
  0
LINE
  5
1BF
  8
0
 62
     7
 10
-153.393081
 20
633.95021099999997
 30
0.0
 11
-126.64311499999999
 21
633.95021099999997
 31
0.0
  0
LINE
  5
1C0
  8
0
 62
     7
 10
-153.393081
 20
630.35021200000006
 30
0.0
 11
-126.64311499999999
 21
630.35021200000006
 31
0.0
  0
LINE
  5
1C1
  8
0
 62
     7
 10
-153.393081
 20
626.75021399999991
 30
0.0
 11
-126.64311499999999
 21
626.75021399999991
 31
0.0
  0
LINE
  5
1C2
  8
0
 62
     7
 10
-153.393081
 20
623.15021499999989
 30
0.0
 11
-126.64311499999999
 21
623.15021499999989
 31
0.0
  0
LINE
  5
1C3
  8
0
 62
     7
 10
-153.393081
 20
619.55021699999998
 30
0.0
 11
-126.64311499999999
 21
619.55021699999998
 31
0.0
  0
LINE
  5
1C4
  8
0
 62
     7
 10
-153.393081
 20
615.95021099999997
 30
0.0
 11
-126.64311499999999
 21
615.95021099999997
 31
0.0
  0
LINE
  5
1C5
  8
0
 62
     7
 10
-153.393081
 20
612.35021200000006
 30
0.0
 11
-126.64311499999999
 21
612.35021200000006
 31
0.0
  0
LINE
  5
1C6
  8
0
 62
     7
 10
-153.393081
 20
608.7502139999998
 30
0.0
 11
-126.64311499999999
 21
608.7502139999998
 31
0.0
  0
LINE
  5
1C7
  8
0
 62
     7
 10
-153.393081
 20
605.150215
 30
0.0
 11
-126.64311499999999
 21
605.150215
 31
0.0
  0
LINE
  5
1C8
  8
0
 62
     7
 10
-153.393081
 20
601.55021299999987
 30
0.0
 11
-126.64311499999999
 21
601.55021299999987
 31
0.0
  0
LINE
  5
1C9
  8
0
 62
     7
 10
-153.393081
 20
597.95021399999996
 30
0.0
 11
-126.64311499999999
 21
597.95021399999996
 31
0.0
  0
LINE
  5
1CA
  8
0
 62
     7
 10
-153.393081
 20
594.35021200000006
 30
0.0
 11
-126.64311499999999
 21
594.35021200000006
 31
0.0
  0
LINE
  5
1CB
  8
0
 62
     7
 10
-153.393081
 20
590.75021399999991
 30
0.0
 11
-126.64311499999999
 21
590.75021399999991
 31
0.0
  0
LINE
  5
1CC
  8
0
 62
     7
 10
-153.393081
 20
587.150215
 30
0.0
 11
-126.64311499999999
 21
587.150215
 31
0.0
  0
LINE
  5
1CD
  8
0
 62
     7
 10
-153.393081
 20
583.55021299999999
 30
0.0
 11
-126.64311499999999
 21
583.55021299999999
 31
0.0
  0
LINE
  5
1CE
  8
0
 62
     7
 10
-153.393081
 20
579.95021399999985
 30
0.0
 11
-126.64311499999999
 21
579.95021399999985
 31
0.0
  0
LINE
  5
1CF
  8
0
 62
     7
 10
-153.393081
 20
576.35021399999994
 30
0.0
 11
-126.64311499999999
 21
576.35021399999994
 31
0.0
  0
LINE
  5
1D0
  8
0
 62
     7
 10
-153.393081
 20
572.75021399999991
 30
0.0
 11
-126.64311499999999
 21
572.75021399999991
 31
0.0
  0
LINE
  5
1D1
  8
0
 62
     7
 10
-153.393081
 20
569.15021299999989
 30
0.0
 11
-126.64311499999999
 21
569.15021299999989
 31
0.0
  0
LINE
  5
1D2
  8
0
 62
     7
 10
-153.393081
 20
565.55021500000009
 30
0.0
 11
-126.64311499999999
 21
565.55021500000009
 31
0.0
  0
LINE
  5
1D3
  8
0
 62
     7
 10
-153.393081
 20
561.95021299999985
 30
0.0
 11
-126.64311499999999
 21
561.95021299999985
 31
0.0
  0
LINE
  5
1D4
  8
0
 62
     7
 10
-153.393081
 20
558.35021399999994
 30
0.0
 11
-126.64311499999999
 21
558.35021399999994
 31
0.0
  0
LINE
  5
1D5
  8
0
 62
     7
 10
-89.643107999999984
 20
656.65025300000002
 30
0.0
 11
-89.643107999999984
 21
689.65025300000002
 31
0.0
  0
LINE
  5
1D6
  8
0
 62
   150
 10
-74.643107999999984
 20
608.15025300000002
 30
0.0
 11
-74.643107999999984
 21
640.15025300000002
 31
0.0
  0
LINE
  5
1D7
  8
0
 62
   150
 10
-77.393106000000003
 20
608.15025300000002
 30
0.0
 11
-77.393106000000003
 21
640.15025300000002
 31
0.0
  0
LINE
  5
1D8
  8
0
 62
   150
 10
-80.143107999999998
 20
608.15025300000002
 30
0.0
 11
-74.643107999999984
 21
608.15025300000002
 31
0.0
  0
LINE
  5
1D9
  8
0
 62
   150
 10
-80.143107999999998
 20
640.15025300000002
 30
0.0
 11
-74.643107999999984
 21
640.15025300000002
 31
0.0
  0
ARC
  5
1DA
  8
0
 62
     1
 10
-79.143106000000003
 20
649.15025299999991
 30
0.0
 40
5.0
 50
258.46301899999992
 51
101.536978
  0
LINE
  5
1DB
  8
0
 62
     1
 10
-78.493106000000012
 20
648.50025199999993
 30
0.0
 11
-76.493106000000012
 21
648.50025199999993
 31
0.0
  0
LINE
  5
1DC
  8
0
 62
     1
 10
-76.493106000000012
 20
648.50025199999993
 30
0.0
 11
-76.493106000000012
 21
649.80025499999988
 31
0.0
  0
LINE
  5
1DD
  8
0
 62
     1
 10
-78.493106000000012
 20
649.80025499999988
 30
0.0
 11
-76.493106000000012
 21
649.80025499999988
 31
0.0
  0
LINE
  5
1DE
  8
0
 62
     1
 10
-78.493106000000012
 20
649.80025499999988
 30
0.0
 11
-78.493106000000012
 21
651.80025499999999
 31
0.0
  0
LINE
  5
1DF
  8
0
 62
     1
 10
-79.793106000000009
 20
651.80025499999999
 30
0.0
 11
-78.493106000000012
 21
651.80025499999999
 31
0.0
  0
LINE
  5
1E0
  8
0
 62
     1
 10
-79.793106000000009
 20
646.50025199999993
 30
0.0
 11
-78.493106000000012
 21
646.50025199999993
 31
0.0
  0
LINE
  5
1E1
  8
0
 62
   150
 10
-80.893106000000003
 20
618.65025300000002
 30
0.0
 11
-80.893106000000003
 21
634.15025300000002
 31
0.0
  0
LINE
  5
1E2
  8
0
 62
   150
 10
-83.643106000000003
 20
618.65025300000002
 30
0.0
 11
-83.643106000000003
 21
634.15025300000002
 31
0.0
  0
LINE
  5
1E3
  8
0
 62
     7
 10
-78.493106000000012
 20
646.50025199999993
 30
0.0
 11
-78.493106000000012
 21
648.50025199999993
 31
0.0
  0
LINE
  5
1E4
  8
0
 62
     7
 10
107.026945
 20
696.15025300000002
 30
0.0
 11
107.026945
 21
646.15025300000002
 31
0.0
  0
LINE
  5
1E5
  8
0
 62
     7
 10
63.026944999999998
 20
703.65025299999991
 30
0.0
 11
63.026944999999998
 21
544.65025300000002
 31
0.0
  0
LINE
  5
1E6
  8
0
 62
     7
 10
101.026945
 20
683.65025300000002
 30
0.0
 11
101.026945
 21
678.65025299999991
 31
0.0
  0
LINE
  5
1E7
  8
0
 62
     7
 10
63.026944999999998
 20
556.15025300000002
 30
0.0
 11
114.0269449999999
 21
556.15025300000002
 31
0.0
  0
LINE
  5
1E8
  8
0
 62
     7
 10
72.026944999999984
 20
686.15025300000002
 30
0.0
 11
105.026945
 21
686.15025300000002
 31
0.0
  0
LINE
  5
1E9
  8
0
 62
     7
 10
72.026944999999984
 20
683.65025300000002
 30
0.0
 11
101.026945
 21
683.65025300000002
 31
0.0
  0
LINE
  5
1EA
  8
0
 62
     7
 10
72.026944999999984
 20
678.65025299999991
 30
0.0
 11
101.026945
 21
678.65025299999991
 31
0.0
  0
LINE
  5
1EB
  8
0
 62
     7
 10
72.026944999999984
 20
676.15025300000002
 30
0.0
 11
101.026945
 21
676.15025300000002
 31
0.0
  0
LINE
  5
1EC
  8
0
 62
     7
 10
72.026944999999984
 20
558.65025300000002
 30
0.0
 11
101.026945
 21
558.65025300000002
 31
0.0
  0
LINE
  5
1ED
  8
0
 62
     7
 10
72.026944999999984
 20
563.65025300000002
 30
0.0
 11
101.026945
 21
563.65025300000002
 31
0.0
  0
LINE
  5
1EE
  8
0
 62
     7
 10
72.026944999999984
 20
566.15025299999991
 30
0.0
 11
101.026945
 21
566.15025299999991
 31
0.0
  0
LINE
  5
1EF
  8
0
 62
     7
 10
101.026945
 20
676.15025300000002
 30
0.0
 11
101.026945
 21
566.15025299999991
 31
0.0
  0
LINE
  5
1F0
  8
0
 62
     7
 10
101.026945
 20
563.65025300000002
 30
0.0
 11
101.026945
 21
558.65025300000002
 31
0.0
  0
LINE
  5
1F1
  8
0
 62
     2
 10
96.276944999999998
 20
703.65025299999991
 30
0.0
 11
96.276944999999998
 21
686.15025300000002
 31
0.0
  0
LINE
  5
1F2
  8
0
 62
     7
 10
63.026944999999998
 20
703.65025299999991
 30
0.0
 11
97.776944999999998
 21
703.65025299999991
 31
0.0
  0
LINE
  5
1F3
  8
0
 62
     7
 10
97.776944999999998
 20
698.15025300000002
 30
0.0
 11
105.026945
 21
698.15025300000002
 31
0.0
  0
LINE
  5
1F4
  8
0
 62
     7
 10
97.776944999999998
 20
695.65025300000002
 30
0.0
 11
107.026945
 21
695.65025300000002
 31
0.0
  0
LINE
  5
1F5
  8
0
 62
     7
 10
96.276944999999998
 20
550.15025300000002
 30
0.0
 11
96.276944999999998
 21
546.65025300000002
 31
0.0
  0
LINE
  5
1F6
  8
0
 62
     7
 10
63.026944999999998
 20
544.65025300000002
 30
0.0
 11
94.276944999999984
 21
544.65025300000002
 31
0.0
  0
LINE
  5
1F7
  8
0
 62
     7
 10
80.026944999999998
 20
550.15025300000002
 30
0.0
 11
105.026945
 21
550.15025300000002
 31
0.0
  0
LINE
  5
1F8
  8
0
 62
     7
 10
80.026944999999998
 20
556.15025300000002
 30
0.0
 11
80.026944999999998
 21
550.15025300000002
 31
0.0
  0
LINE
  5
1F9
  8
0
 62
     7
 10
98.526944999999998
 20
650.15025300000002
 30
0.0
 11
98.526944999999998
 21
598.15025300000002
 31
0.0
  0
LINE
  5
1FA
  8
0
 62
     7
 10
98.526944999999998
 20
650.15025300000002
 30
0.0
 11
101.026945
 21
650.15025300000002
 31
0.0
  0
LINE
  5
1FB
  8
0
 62
     7
 10
98.526944999999998
 20
598.15025300000002
 30
0.0
 11
101.026945
 21
598.15025300000002
 31
0.0
  0
LINE
  5
1FC
  8
0
 62
     3
 10
127.026945
 20
684.15025300000002
 30
0.0
 11
127.026945
 21
669.15025300000002
 31
0.0
  0
LINE
  5
1FD
  8
0
 62
     7
 10
127.026945
 20
684.15025300000002
 30
0.0
 11
132.0269449999999
 21
684.15025300000002
 31
0.0
  0
LINE
  5
1FE
  8
0
 62
     7
 10
127.026945
 20
669.15025300000002
 30
0.0
 11
132.0269449999999
 21
669.15025300000002
 31
0.0
  0
ARC
  5
1FF
  8
0
 62
     7
 10
25.026945000000001
 20
557.15025300000002
 30
0.0
 40
1.0
 50
180.00000099999991
 51
269.50001299999991
  0
LINE
  5
200
  8
0
 62
     7
 10
25.018217
 20
556.15029100000004
 30
0.0
 11
63.026944999999998
 21
555.81859399999996
 31
0.0
  0
LINE
  5
201
  8
0
 62
     7
 10
25.018217
 20
604.65029100000004
 30
0.0
 11
63.026944999999998
 21
604.31859599999996
 31
0.0
  0
ARC
  5
202
  8
0
 62
     7
 10
25.026945000000001
 20
605.65025300000002
 30
0.0
 40
1.0
 50
180.00000099999991
 51
269.50001299999991
  0
LINE
  5
203
  8
0
 62
     7
 10
25.018217
 20
654.65029100000004
 30
0.0
 11
63.026944999999998
 21
654.31859599999996
 31
0.0
  0
ARC
  5
204
  8
0
 62
     7
 10
25.026945000000001
 20
655.65025300000002
 30
0.0
 40
1.0
 50
180.00000099999991
 51
269.50001299999991
  0
ARC
  5
205
  8
0
 62
     7
 10
25.026945000000001
 20
691.15025299999991
 30
0.0
 40
1.0
 50
90.500001999999995
 51
180.00000099999991
  0
LINE
  5
206
  8
0
 62
     7
 10
63.026944999999998
 20
643.98191100000008
 30
0.0
 11
25.018217
 21
643.65021499999989
 31
0.0
  0
ARC
  5
207
  8
0
 62
     7
 10
25.026945000000001
 20
642.65025300000002
 30
0.0
 40
1.0
 50
90.500001999999995
 51
180.00000099999991
  0
LINE
  5
208
  8
0
 62
     7
 10
63.026944999999998
 20
593.98191100000008
 30
0.0
 11
25.018217
 21
593.65021499999989
 31
0.0
  0
ARC
  5
209
  8
0
 62
     7
 10
25.026945000000001
 20
592.65025300000002
 30
0.0
 40
1.0
 50
90.500001999999995
 51
180.00000099999991
  0
LINE
  5
20A
  8
0
 62
     7
 10
24.026945000000001
 20
592.65025300000002
 30
0.0
 11
24.026945000000001
 21
557.15025300000002
 31
0.0
  0
LINE
  5
20B
  8
0
 62
     7
 10
24.026945000000001
 20
642.65025300000002
 30
0.0
 11
24.026945000000001
 21
605.65025300000002
 31
0.0
  0
LINE
  5
20C
  8
0
 62
     7
 10
24.026945000000001
 20
691.15025299999991
 30
0.0
 11
24.026945000000001
 21
655.65025300000002
 31
0.0
  0
LINE
  5
20D
  8
0
  6
DASHDOT
 62
     7
 10
41.585737000000002
 20
649.15025299999991
 30
0.0
 11
73.318643999999992
 21
649.15025299999991
 31
0.0
  0
LINE
  5
20E
  8
0
 62
     7
 10
51.026944999999998
 20
650.15025300000002
 30
0.0
 11
51.026944999999998
 21
648.15025300000002
 31
0.0
  0
LINE
  5
20F
  8
0
 62
     7
 10
63.026944999999998
 20
653.65025299999991
 30
0.0
 11
67.026944999999984
 21
653.65025299999991
 31
0.0
  0
LINE
  5
210
  8
0
 62
     7
 10
63.026944999999998
 20
644.65025300000002
 30
0.0
 11
67.026944999999984
 21
644.65025300000002
 31
0.0
  0
LINE
  5
211
  8
0
 62
     7
 10
67.026944999999984
 20
653.65025299999991
 30
0.0
 11
67.026944999999984
 21
644.65025300000002
 31
0.0
  0
LINE
  5
212
  8
0
 62
     7
 10
63.026944999999998
 20
594.65025300000002
 30
0.0
 11
67.026944999999984
 21
594.65025300000002
 31
0.0
  0
LINE
  5
213
  8
0
 62
     7
 10
67.026944999999984
 20
603.65025299999991
 30
0.0
 11
67.026944999999984
 21
594.65025300000002
 31
0.0
  0
LINE
  5
214
  8
0
 62
     7
 10
63.026944999999998
 20
603.65025299999991
 30
0.0
 11
67.026944999999984
 21
603.65025299999991
 31
0.0
  0
LINE
  5
215
  8
0
 62
     7
 10
67.026944999999984
 20
702.65025300000002
 30
0.0
 11
67.026944999999984
 21
695.65025300000002
 31
0.0
  0
LINE
  5
216
  8
0
 62
     7
 10
63.026944999999998
 20
695.65025300000002
 30
0.0
 11
67.026944999999984
 21
695.65025300000002
 31
0.0
  0
LINE
  5
217
  8
0
 62
     7
 10
63.026944999999998
 20
702.65025300000002
 30
0.0
 11
67.026944999999984
 21
702.65025300000002
 31
0.0
  0
LINE
  5
218
  8
0
 62
     2
 10
97.776944999999998
 20
703.65025299999991
 30
0.0
 11
97.776944999999998
 21
686.15025300000002
 31
0.0
  0
LINE
  5
219
  8
0
 62
     7
 10
98.776944999999998
 20
695.65025300000002
 30
0.0
 11
98.776944999999998
 21
686.15025300000002
 31
0.0
  0
ARC
  5
21A
  8
0
 62
     7
 10
105.026945
 20
696.15025300000002
 30
0.0
 40
2.0
 50
360.00000299999988
 51
90.000005000000002
  0
ARC
  5
21B
  8
0
 62
     7
 10
105.026945
 20
552.15025300000002
 30
0.0
 40
2.0
 50
270.0
 51
360.00000299999988
  0
ARC
  5
21C
  8
0
 62
     7
 10
94.276944999999984
 20
546.65025300000002
 30
0.0
 40
2.0
 50
270.0
 51
360.00000299999988
  0
ARC
  5
21D
  8
0
 62
     7
 10
105.026945
 20
684.15025300000002
 30
0.0
 40
2.0
 50
360.00000299999988
 51
90.000005000000002
  0
LINE
  5
21E
  8
0
 62
     7
 10
25.026945000000001
 20
692.15025300000002
 30
0.0
 11
96.276944999999998
 21
692.15025300000002
 31
0.0
  0
LINE
  5
21F
  8
0
 62
     7
 10
107.026945
 20
646.15025300000002
 30
0.0
 11
114.0269449999999
 21
646.15025300000002
 31
0.0
  0
ARC
  5
220
  8
0
 62
     7
 10
114.0269449999999
 20
645.15025299999991
 30
0.0
 40
1.0
 50
360.00000299999988
 51
90.000005000000002
  0
ARC
  5
221
  8
0
 62
     7
 10
114.0269449999999
 20
557.15025300000002
 30
0.0
 40
1.0
 50
270.0
 51
360.00000299999988
  0
LINE
  5
222
  8
0
 62
     7
 10
114.526945
 20
643.65025300000002
 30
0.0
 11
114.526945
 21
624.15025299999991
 31
0.0
  0
LINE
  5
223
  8
0
 62
     7
 10
107.026945
 20
556.15025300000002
 30
0.0
 11
107.026945
 21
552.15025300000002
 31
0.0
  0
LINE
  5
224
  8
0
 62
     7
 10
114.526945
 20
643.65025300000002
 30
0.0
 11
115.0269449999999
 21
643.65025300000002
 31
0.0
  0
LINE
  5
225
  8
0
 62
     7
 10
114.526945
 20
624.15025299999991
 30
0.0
 11
115.0269449999999
 21
624.15025299999991
 31
0.0
  0
LINE
  5
226
  8
0
 62
     7
 10
114.526945
 20
621.65025300000002
 30
0.0
 11
115.0269449999999
 21
621.65025300000002
 31
0.0
  0
LINE
  5
227
  8
0
 62
     7
 10
114.526945
 20
602.40025300000002
 30
0.0
 11
115.0269449999999
 21
602.40025300000002
 31
0.0
  0
LINE
  5
228
  8
0
 62
     7
 10
114.526945
 20
599.90025300000002
 30
0.0
 11
115.0269449999999
 21
599.90025300000002
 31
0.0
  0
LINE
  5
229
  8
0
 62
     7
 10
114.526945
 20
580.65025300000002
 30
0.0
 11
115.0269449999999
 21
580.65025300000002
 31
0.0
  0
LINE
  5
22A
  8
0
 62
     7
 10
114.526945
 20
578.15025300000002
 30
0.0
 11
115.0269449999999
 21
578.15025300000002
 31
0.0
  0
LINE
  5
22B
  8
0
 62
     7
 10
114.526945
 20
558.65025300000002
 30
0.0
 11
115.0269449999999
 21
558.65025300000002
 31
0.0
  0
LINE
  5
22C
  8
0
 62
     7
 10
114.526945
 20
578.15025300000002
 30
0.0
 11
114.526945
 21
558.65025300000002
 31
0.0
  0
LINE
  5
22D
  8
0
 62
     7
 10
114.526945
 20
599.90025300000002
 30
0.0
 11
114.526945
 21
580.65025300000002
 31
0.0
  0
LINE
  5
22E
  8
0
 62
     7
 10
114.526945
 20
621.65025300000002
 30
0.0
 11
114.526945
 21
602.40025300000002
 31
0.0
  0
LINE
  5
22F
  8
0
 62
     7
 10
115.0269449999999
 20
645.15025299999991
 30
0.0
 11
115.0269449999999
 21
557.15025300000002
 31
0.0
  0
LINE
  5
230
  8
0
 62
     7
 10
219.52700599999989
 20
659.15025300000002
 30
0.0
 11
219.52700599999989
 21
554.15025300000002
 31
0.0
  0
LINE
  5
231
  8
0
 62
     7
 10
210.527006
 20
694.15025300000002
 30
0.0
 11
210.527006
 21
554.15025300000002
 31
0.0
  0
LINE
  5
232
  8
0
 62
     7
 10
241.18241699999999
 20
616.65025300000002
 30
0.0
 11
241.18241699999999
 21
596.65025300000002
 31
0.0
  0
LINE
  5
233
  8
0
 62
     7
 10
109.026945
 20
694.15025300000002
 30
0.0
 11
210.527006
 21
694.15025300000002
 31
0.0
  0
LINE
  5
234
  8
0
 62
     7
 10
109.026945
 20
554.15025300000002
 30
0.0
 11
219.52700599999989
 21
554.15025300000002
 31
0.0
  0
LINE
  5
235
  8
0
 62
     7
 10
210.527006
 20
659.15025300000002
 30
0.0
 11
219.52700599999989
 21
659.15025300000002
 31
0.0
  0
LINE
  5
236
  8
0
 62
     7
 10
219.52700599999989
 20
616.65025300000002
 30
0.0
 11
241.18241699999999
 21
616.65025300000002
 31
0.0
  0
LINE
  5
237
  8
0
 62
     7
 10
219.52700599999989
 20
596.65025300000002
 30
0.0
 11
241.18241699999999
 21
596.65025300000002
 31
0.0
  0
LINE
  5
238
  8
0
 62
     7
 10
208.527006
 20
694.15025300000002
 30
0.0
 11
208.527006
 21
554.15025300000002
 31
0.0
  0
LINE
  5
239
  8
0
 62
     7
 10
115.0269449999999
 20
626.15025300000002
 30
0.0
 11
208.527006
 21
626.15025300000002
 31
0.0
  0
LINE
  5
23A
  8
0
 62
     7
 10
115.0269449999999
 20
622.15025300000002
 30
0.0
 11
208.527006
 21
622.15025300000002
 31
0.0
  0
LINE
  5
23B
  8
0
 62
     7
 10
115.0269449999999
 20
587.15025299999991
 30
0.0
 11
208.527006
 21
587.15025299999991
 31
0.0
  0
LINE
  5
23C
  8
0
 62
     7
 10
115.0269449999999
 20
591.15025299999991
 30
0.0
 11
208.527006
 21
591.15025299999991
 31
0.0
  0
LINE
  5
23D
  8
0
 62
     7
 10
109.026945
 20
661.15025300000002
 30
0.0
 11
208.527006
 21
661.15025300000002
 31
0.0
  0
LINE
  5
23E
  8
0
 62
     7
 10
109.026945
 20
657.15025300000002
 30
0.0
 11
208.527006
 21
657.15025300000002
 31
0.0
  0
LINE
  5
23F
  8
0
 62
     7
 10
109.026945
 20
665.15025300000002
 30
0.0
 11
198.52700599999989
 21
665.15025300000002
 31
0.0
  0
LINE
  5
240
  8
0
 62
     7
 10
109.026945
 20
653.15025300000002
 30
0.0
 11
198.52700599999989
 21
653.15025300000002
 31
0.0
  0
LINE
  5
241
  8
0
 62
     7
 10
115.0269449999999
 20
630.15025300000002
 30
0.0
 11
198.52700599999989
 21
630.15025300000002
 31
0.0
  0
LINE
  5
242
  8
0
 62
     7
 10
115.0269449999999
 20
618.15025300000002
 30
0.0
 11
198.52700599999989
 21
618.15025300000002
 31
0.0
  0
LINE
  5
243
  8
0
 62
     7
 10
115.0269449999999
 20
595.15025299999991
 30
0.0
 11
198.52700599999989
 21
595.15025299999991
 31
0.0
  0
LINE
  5
244
  8
0
 62
     7
 10
115.0269449999999
 20
583.15025300000002
 30
0.0
 11
198.52700599999989
 21
583.15025300000002
 31
0.0
  0
LINE
  5
245
  8
0
 62
     7
 10
169.527006
 20
653.15025300000002
 30
0.0
 11
169.527006
 21
630.15025300000002
 31
0.0
  0
LINE
  5
246
  8
0
 62
     7
 10
109.026945
 20
689.15025300000002
 30
0.0
 11
198.52700599999989
 21
689.15025300000002
 31
0.0
  0
LINE
  5
247
  8
0
 62
     7
 10
115.0269449999999
 20
559.15025300000002
 30
0.0
 11
198.52700599999989
 21
559.15025300000002
 31
0.0
  0
LINE
  5
248
  8
0
 62
     7
 10
169.527006
 20
689.15025300000002
 30
0.0
 11
169.527006
 21
665.15025300000002
 31
0.0
  0
LINE
  5
249
  8
0
 62
     7
 10
169.527006
 20
618.15025300000002
 30
0.0
 11
169.527006
 21
595.15025299999991
 31
0.0
  0
LINE
  5
24A
  8
0
 62
     7
 10
169.527006
 20
583.15025300000002
 30
0.0
 11
169.527006
 21
559.15025300000002
 31
0.0
  0
LINE
  5
24B
  8
0
 62
     7
 10
198.52700599999989
 20
689.15025300000002
 30
0.0
 11
198.52700599999989
 21
665.15025300000002
 31
0.0
  0
LINE
  5
24C
  8
0
 62
     7
 10
198.52700599999989
 20
653.15025300000002
 30
0.0
 11
198.52700599999989
 21
630.15025300000002
 31
0.0
  0
LINE
  5
24D
  8
0
 62
     7
 10
198.52700599999989
 20
618.15025300000002
 30
0.0
 11
198.52700599999989
 21
595.15025299999991
 31
0.0
  0
LINE
  5
24E
  8
0
 62
     7
 10
198.52700599999989
 20
583.15025300000002
 30
0.0
 11
198.52700599999989
 21
559.15025300000002
 31
0.0
  0
LINE
  5
24F
  8
0
 62
     7
 10
210.527006
 20
692.15023799999994
 30
0.0
 11
255.52694500000001
 21
692.15023799999994
 31
0.0
  0
LINE
  5
250
  8
0
 62
     7
 10
255.52694500000001
 20
692.15023799999994
 30
0.0
 11
255.52694500000001
 21
596.15024200000005
 31
0.0
  0
LINE
  5
251
  8
0
 62
     7
 10
245.52694500000001
 20
692.15023799999994
 30
0.0
 11
245.52694500000001
 21
596.15024200000005
 31
0.0
  0
LINE
  5
252
  8
0
 62
     7
 10
241.18241699999999
 20
604.15024200000005
 30
0.0
 11
242.52694500000001
 21
604.15024200000005
 31
0.0
  0
LINE
  5
253
  8
0
 62
     7
 10
212.52694500000001
 20
684.15023799999994
 30
0.0
 11
242.52694500000001
 21
684.15023799999994
 31
0.0
  0
LINE
  5
254
  8
0
 62
     7
 10
249.52694500000001
 20
689.15023799999994
 30
0.0
 11
251.52694500000001
 21
689.15023799999994
 31
0.0
  0
LINE
  5
255
  8
0
 62
     7
 10
252.52694500000001
 20
688.15023799999994
 30
0.0
 11
252.52694500000001
 21
662.15023799999994
 31
0.0
  0
ARC
  5
256
  8
0
 62
     7
 10
249.52694500000001
 20
688.15023799999994
 30
0.0
 40
1.0
 50
90.000005000000002
 51
180.00000099999991
  0
ARC
  5
257
  8
0
 62
     7
 10
251.52694500000001
 20
688.15023799999994
 30
0.0
 40
1.0
 50
360.00000299999988
 51
90.000005000000002
  0
LINE
  5
258
  8
0
 62
     7
 10
249.52694500000001
 20
599.15024200000005
 30
0.0
 11
251.52694500000001
 21
599.15024200000005
 31
0.0
  0
LINE
  5
259
  8
0
 62
     7
 10
249.52694500000001
 20
630.15023799999994
 30
0.0
 11
251.52694500000001
 21
630.15023799999994
 31
0.0
  0
LINE
  5
25A
  8
0
 62
     7
 10
249.52694500000001
 20
661.15023799999994
 30
0.0
 11
251.52694500000001
 21
661.15023799999994
 31
0.0
  0
LINE
  5
25B
  8
0
 62
     7
 10
249.52694500000001
 20
627.15023799999994
 30
0.0
 11
251.52694500000001
 21
627.15023799999994
 31
0.0
  0
LINE
  5
25C
  8
0
 62
     7
 10
249.52694500000001
 20
658.15023799999994
 30
0.0
 11
251.52694500000001
 21
658.15023799999994
 31
0.0
  0
LINE
  5
25D
  8
0
 62
     7
 10
252.52694500000001
 20
626.15023799999994
 30
0.0
 11
252.52694500000001
 21
600.15024200000005
 31
0.0
  0
LINE
  5
25E
  8
0
 62
     7
 10
248.52694500000001
 20
626.15023799999994
 30
0.0
 11
248.52694500000001
 21
600.15024200000005
 31
0.0
  0
LINE
  5
25F
  8
0
 62
     7
 10
248.52694500000001
 20
657.15023799999994
 30
0.0
 11
248.52694500000001
 21
631.15023799999994
 31
0.0
  0
LINE
  5
260
  8
0
 62
     7
 10
252.52694500000001
 20
657.15023799999994
 30
0.0
 11
252.52694500000001
 21
631.15023799999994
 31
0.0
  0
LINE
  5
261
  8
0
 62
     7
 10
248.52694500000001
 20
688.15023799999994
 30
0.0
 11
248.52694500000001
 21
662.15023799999994
 31
0.0
  0
ARC
  5
262
  8
0
 62
     7
 10
251.52694500000001
 20
662.15023799999994
 30
0.0
 40
1.0
 50
270.0
 51
360.00000299999988
  0
ARC
  5
263
  8
0
 62
     7
 10
249.52694500000001
 20
662.15023799999994
 30
0.0
 40
1.0
 50
180.00000099999991
 51
270.0
  0
ARC
  5
264
  8
0
 62
     7
 10
251.52694500000001
 20
657.15023799999994
 30
0.0
 40
1.0
 50
360.00000299999988
 51
90.000005000000002
  0
ARC
  5
265
  8
0
 62
     7
 10
251.52694500000001
 20
631.15023799999994
 30
0.0
 40
1.0
 50
270.0
 51
360.00000299999988
  0
ARC
  5
266
  8
0
 62
     7
 10
249.52694500000001
 20
631.15023799999994
 30
0.0
 40
1.0
 50
180.00000099999991
 51
270.0
  0
ARC
  5
267
  8
0
 62
     7
 10
249.52694500000001
 20
657.15023799999994
 30
0.0
 40
1.0
 50
90.000005000000002
 51
180.00000099999991
  0
ARC
  5
268
  8
0
 62
     7
 10
249.52694500000001
 20
626.15023799999994
 30
0.0
 40
1.0
 50
90.000005000000002
 51
180.00000099999991
  0
ARC
  5
269
  8
0
 62
     7
 10
251.52694500000001
 20
626.15023799999994
 30
0.0
 40
1.0
 50
360.00000299999988
 51
90.000005000000002
  0
ARC
  5
26A
  8
0
 62
     7
 10
251.52694500000001
 20
600.15024200000005
 30
0.0
 40
1.0
 50
270.0
 51
360.00000299999988
  0
ARC
  5
26B
  8
0
 62
     7
 10
249.52694500000001
 20
600.15024200000005
 30
0.0
 40
1.0
 50
180.00000099999991
 51
270.0
  0
LINE
  5
26C
  8
0
 62
     7
 10
241.18241699999999
 20
599.15024200000005
 30
0.0
 11
245.52694500000001
 21
599.15024200000005
 31
0.0
  0
LINE
  5
26D
  8
0
 62
     7
 10
241.18241699999999
 20
601.15024200000005
 30
0.0
 11
245.52694500000001
 21
601.15024200000005
 31
0.0
  0
LINE
  5
26E
  8
0
 62
     7
 10
211.5269449999999
 20
687.15023799999994
 30
0.0
 11
245.52694500000001
 21
687.15023799999994
 31
0.0
  0
LINE
  5
26F
  8
0
 62
     7
 10
211.5269449999999
 20
689.15023799999994
 30
0.0
 11
245.52694500000001
 21
689.15023799999994
 31
0.0
  0
ARC
  5
270
  8
0
 62
     7
 10
212.52694500000001
 20
682.15023799999994
 30
0.0
 40
2.0
 50
90.000005000000002
 51
180.00000099999991
  0
ARC
  5
271
  8
0
 62
     7
 10
211.5269449999999
 20
688.15023799999994
 30
0.0
 40
1.0
 50
90.000005000000002
 51
270.0
  0
ARC
  5
272
  8
0
 62
     7
 10
242.52694500000001
 20
607.15024200000005
 30
0.0
 40
3.0
 50
270.0
 51
360.00000299999988
  0
ARC
  5
273
  8
0
 62
     7
 10
242.52694500000001
 20
681.15023799999994
 30
0.0
 40
3.0
 50
360.00000299999988
 51
90.000005000000002
  0
LINE
  5
274
  8
0
 62
     7
 10
219.52700599999989
 20
596.15024200000005
 30
0.0
 11
255.52694500000001
 21
596.15024200000005
 31
0.0
  0
LINE
  5
275
  8
0
 62
     7
 10
132.0269449999999
 20
684.15025300000002
 30
0.0
 11
132.0269449999999
 21
669.15025300000002
 31
0.0
  0
LINE
  5
276
  8
0
 62
     7
 10
152.526949
 20
685.40025300000002
 30
0.0
 11
156.526949
 21
685.40025300000002
 31
0.0
  0
LINE
  5
277
  8
0
 62
     7
 10
152.526949
 20
667.90025299999991
 30
0.0
 11
156.526949
 21
667.90025299999991
 31
0.0
  0
LINE
  5
278
  8
0
 62
     7
 10
152.526949
 20
685.65025300000002
 30
0.0
 11
152.526949
 21
667.65025300000002
 31
0.0
  0
LINE
  5
279
  8
0
 62
     7
 10
156.526949
 20
685.65025300000002
 30
0.0
 11
156.526949
 21
667.65025300000002
 31
0.0
  0
LINE
  5
27A
  8
0
 62
     7
 10
127.52694700000001
 20
667.65025300000002
 30
0.0
 11
161.526949
 21
667.65025300000002
 31
0.0
  0
LINE
  5
27B
  8
0
 62
     7
 10
127.02694699999989
 20
685.15025300000002
 30
0.0
 11
127.02694699999989
 21
668.15025300000002
 31
0.0
  0
LINE
  5
27C
  8
0
 62
     7
 10
127.52694700000001
 20
685.65025300000002
 30
0.0
 11
161.526949
 21
685.65025300000002
 31
0.0
  0
LINE
  5
27D
  8
0
 62
     7
 10
161.526949
 20
688.15025300000002
 30
0.0
 11
161.526949
 21
685.65025300000002
 31
0.0
  0
LINE
  5
27E
  8
0
 62
     7
 10
127.52694700000001
 20
688.15025300000002
 30
0.0
 11
161.526949
 21
688.15025300000002
 31
0.0
  0
LINE
  5
27F
  8
0
 62
     7
 10
124.52694699999989
 20
685.15025300000002
 30
0.0
 11
124.52694699999989
 21
668.15025300000002
 31
0.0
  0
LINE
  5
280
  8
0
 62
     7
 10
161.526949
 20
667.65025300000002
 30
0.0
 11
161.526949
 21
665.15025300000002
 31
0.0
  0
ARC
  5
281
  8
0
 62
     7
 10
127.52694700000001
 20
685.15025300000002
 30
0.0
 40
0.5
 50
90.000032000000004
 51
179.99997300000001
  0
ARC
  5
282
  8
0
 62
     7
 10
127.52694700000001
 20
685.15025300000002
 30
0.0
 40
3.0
 50
90.000005000000002
 51
180.00000099999991
  0
ARC
  5
283
  8
0
 62
     7
 10
127.52694700000001
 20
668.15025300000002
 30
0.0
 40
0.499999
 50
179.99989099999999
 51
270.00008300000002
  0
ARC
  5
284
  8
0
 62
     7
 10
127.52694700000001
 20
668.15025300000002
 30
0.0
 40
2.9999989999999999
 50
179.99994599999991
 51
270.0
  0
LINE
  5
285
  8
0
  6
DASHDOT
 62
     7
 10
120.548625
 20
676.65025300000002
 30
0.0
 11
169.8191699999999
 21
676.65025300000002
 31
0.0
  0
LINE
  5
286
  8
0
 62
     7
 10
142.02815399999989
 20
684.90025299999991
 30
0.0
 11
144.528154
 21
684.90025299999991
 31
0.0
  0
LINE
  5
287
  8
0
 62
     7
 10
142.02815399999989
 20
668.40025300000002
 30
0.0
 11
144.528154
 21
668.40025300000002
 31
0.0
  0
ARC
  5
288
  8
0
 62
     7
 10
128.02815200000001
 20
676.65025300000002
 30
0.0
 40
17.5
 50
340.53705000000002
 51
342.20841100000001
  0
ARC
  5
289
  8
0
 62
     7
 10
128.02815200000001
 20
676.65025300000002
 30
0.0
 40
17.5
 50
377.79159399999998
 51
379.46294799999998
  0
LINE
  5
28A
  8
0
 62
     7
 10
145.1672879999999
 20
681.65025300000002
 30
0.0
 11
147.028154
 21
681.65025300000002
 31
0.0
  0
LINE
  5
28B
  8
0
 62
     7
 10
145.1672879999999
 20
671.65025300000002
 30
0.0
 11
147.028154
 21
671.65025300000002
 31
0.0
  0
LINE
  5
28C
  8
0
 62
     7
 10
144.528154
 20
684.90025299999991
 30
0.0
 11
144.528154
 21
682.48120099999994
 31
0.0
  0
ARC
  5
28D
  8
0
 62
     7
 10
145.1672879999999
 20
671.15025300000002
 30
0.0
 40
0.5
 50
90.000005000000002
 51
162.20839499999991
  0
ARC
  5
28E
  8
0
 62
     7
 10
145.1672879999999
 20
682.15025300000002
 30
0.0
 40
0.5
 50
197.79157799999999
 51
270.0
  0
LINE
  5
28F
  8
0
 62
     7
 10
144.528154
 20
670.81929799999989
 30
0.0
 11
144.528154
 21
668.40025300000002
 31
0.0
  0
LINE
  5
290
  8
0
 62
     7
 10
142.02815399999989
 20
684.90025299999991
 30
0.0
 11
142.02815399999989
 21
668.40025300000002
 31
0.0
  0
LINE
  5
291
  8
0
 62
     7
 10
156.526949
 20
682.65025299999991
 30
0.0
 11
165.02815399999989
 21
682.65025299999991
 31
0.0
  0
LINE
  5
292
  8
0
 62
     7
 10
156.526949
 20
670.65025300000002
 30
0.0
 11
165.02815399999989
 21
670.65025300000002
 31
0.0
  0
LINE
  5
293
  8
0
 62
     7
 10
147.028154
 20
681.65025300000002
 30
0.0
 11
147.028154
 21
671.65025300000002
 31
0.0
  0
LINE
  5
294
  8
0
 62
     7
 10
166.02815399999989
 20
681.65025300000002
 30
0.0
 11
166.02815399999989
 21
671.65025300000002
 31
0.0
  0
LINE
  5
295
  8
0
 62
     7
 10
165.02815399999989
 20
682.65025299999991
 30
0.0
 11
165.02815399999989
 21
670.65025300000002
 31
0.0
  0
LINE
  5
296
  8
0
 62
     7
 10
148.028154
 20
682.65025299999991
 30
0.0
 11
147.028154
 21
681.65025300000002
 31
0.0
  0
LINE
  5
297
  8
0
 62
     7
 10
166.02815399999989
 20
671.65025300000002
 30
0.0
 11
165.02815399999989
 21
670.65025300000002
 31
0.0
  0
LINE
  5
298
  8
0
 62
     7
 10
147.028154
 20
671.65025300000002
 30
0.0
 11
148.028154
 21
670.65025300000002
 31
0.0
  0
LINE
  5
299
  8
0
 62
     7
 10
165.02815399999989
 20
682.65025299999991
 30
0.0
 11
166.02815399999989
 21
681.65025300000002
 31
0.0
  0
LINE
  5
29A
  8
0
 62
     7
 10
148.028154
 20
682.65025299999991
 30
0.0
 11
148.028154
 21
670.65025300000002
 31
0.0
  0
LINE
  5
29B
  8
0
 62
     7
 10
156.526949
 20
681.85024999999996
 30
0.0
 11
165.02815399999989
 21
681.85024999999996
 31
0.0
  0
LINE
  5
29C
  8
0
 62
     7
 10
156.526949
 20
671.45025599999985
 30
0.0
 11
165.02815399999989
 21
671.45025599999985
 31
0.0
  0
LINE
  5
29D
  8
0
 62
     7
 10
148.028154
 20
682.65025299999991
 30
0.0
 11
152.526949
 21
682.65025299999991
 31
0.0
  0
LINE
  5
29E
  8
0
 62
     7
 10
148.028154
 20
681.85024999999996
 30
0.0
 11
152.526949
 21
681.85024999999996
 31
0.0
  0
LINE
  5
29F
  8
0
 62
     7
 10
148.028154
 20
671.45025599999985
 30
0.0
 11
152.526949
 21
671.45025599999985
 31
0.0
  0
LINE
  5
2A0
  8
0
 62
     7
 10
148.028154
 20
670.65025300000002
 30
0.0
 11
152.526949
 21
670.65025300000002
 31
0.0
  0
LINE
  5
2A1
  8
0
 62
     3
 10
127.026945
 20
649.15025299999991
 30
0.0
 11
127.026945
 21
634.15025300000002
 31
0.0
  0
LINE
  5
2A2
  8
0
 62
     7
 10
127.026945
 20
649.15025299999991
 30
0.0
 11
132.0269449999999
 21
649.15025299999991
 31
0.0
  0
LINE
  5
2A3
  8
0
 62
     7
 10
127.026945
 20
634.15025300000002
 30
0.0
 11
132.0269449999999
 21
634.15025300000002
 31
0.0
  0
LINE
  5
2A4
  8
0
 62
     7
 10
132.0269449999999
 20
649.15025299999991
 30
0.0
 11
132.0269449999999
 21
634.15025300000002
 31
0.0
  0
LINE
  5
2A5
  8
0
 62
     7
 10
152.526949
 20
650.40025300000002
 30
0.0
 11
156.526949
 21
650.40025300000002
 31
0.0
  0
LINE
  5
2A6
  8
0
 62
     7
 10
152.526949
 20
632.90025300000002
 30
0.0
 11
156.526949
 21
632.90025300000002
 31
0.0
  0
LINE
  5
2A7
  8
0
 62
     7
 10
152.526949
 20
650.65025300000002
 30
0.0
 11
152.526949
 21
632.65025299999991
 31
0.0
  0
LINE
  5
2A8
  8
0
 62
     7
 10
156.526949
 20
650.65025300000002
 30
0.0
 11
156.526949
 21
632.65025299999991
 31
0.0
  0
LINE
  5
2A9
  8
0
 62
     7
 10
127.52694700000001
 20
632.65025299999991
 30
0.0
 11
161.526949
 21
632.65025299999991
 31
0.0
  0
LINE
  5
2AA
  8
0
 62
     7
 10
127.02694699999989
 20
650.15025300000002
 30
0.0
 11
127.02694699999989
 21
633.15025300000002
 31
0.0
  0
LINE
  5
2AB
  8
0
 62
     7
 10
127.52694700000001
 20
650.65025300000002
 30
0.0
 11
161.526949
 21
650.65025300000002
 31
0.0
  0
LINE
  5
2AC
  8
0
 62
     7
 10
161.526949
 20
653.15025300000002
 30
0.0
 11
161.526949
 21
650.65025300000002
 31
0.0
  0
LINE
  5
2AD
  8
0
 62
     7
 10
124.52694699999989
 20
650.15025300000002
 30
0.0
 11
124.52694699999989
 21
633.15025300000002
 31
0.0
  0
LINE
  5
2AE
  8
0
 62
     7
 10
161.526949
 20
632.65025299999991
 30
0.0
 11
161.526949
 21
630.15025300000002
 31
0.0
  0
ARC
  5
2AF
  8
0
 62
     7
 10
127.52694700000001
 20
650.15025300000002
 30
0.0
 40
0.5
 50
90.000032000000004
 51
179.99997300000001
  0
ARC
  5
2B0
  8
0
 62
     7
 10
127.52694700000001
 20
650.15025300000002
 30
0.0
 40
3.0
 50
90.000005000000002
 51
180.00000099999991
  0
ARC
  5
2B1
  8
0
 62
     7
 10
127.52694700000001
 20
633.15025300000002
 30
0.0
 40
0.499999
 50
179.99989099999999
 51
270.00008300000002
  0
ARC
  5
2B2
  8
0
 62
     7
 10
127.52694700000001
 20
633.15025300000002
 30
0.0
 40
2.9999989999999999
 50
179.99994599999991
 51
270.0
  0
LINE
  5
2B3
  8
0
  6
DASHDOT
 62
     7
 10
120.548625
 20
641.65025300000002
 30
0.0
 11
169.8191699999999
 21
641.65025300000002
 31
0.0
  0
LINE
  5
2B4
  8
0
 62
     7
 10
142.02815399999989
 20
649.90025300000002
 30
0.0
 11
144.528154
 21
649.90025300000002
 31
0.0
  0
LINE
  5
2B5
  8
0
 62
     7
 10
142.02815399999989
 20
633.40025300000002
 30
0.0
 11
144.528154
 21
633.40025300000002
 31
0.0
  0
ARC
  5
2B6
  8
0
 62
     7
 10
128.02815200000001
 20
641.65025300000002
 30
0.0
 40
17.5
 50
340.53705000000002
 51
342.20841100000001
  0
ARC
  5
2B7
  8
0
 62
     7
 10
128.02815200000001
 20
641.65025300000002
 30
0.0
 40
17.5
 50
377.79159399999998
 51
379.46294799999998
  0
LINE
  5
2B8
  8
0
 62
     7
 10
145.1672879999999
 20
646.65025300000002
 30
0.0
 11
147.028154
 21
646.65025300000002
 31
0.0
  0
LINE
  5
2B9
  8
0
 62
     7
 10
145.1672879999999
 20
636.65025299999991
 30
0.0
 11
147.028154
 21
636.65025299999991
 31
0.0
  0
LINE
  5
2BA
  8
0
 62
     7
 10
144.528154
 20
649.90025300000002
 30
0.0
 11
144.528154
 21
647.48120099999994
 31
0.0
  0
ARC
  5
2BB
  8
0
 62
     7
 10
145.1672879999999
 20
636.15025300000002
 30
0.0
 40
0.5
 50
90.000005000000002
 51
162.20839499999991
  0
ARC
  5
2BC
  8
0
 62
     7
 10
145.1672879999999
 20
647.15025300000002
 30
0.0
 40
0.5
 50
197.79157799999999
 51
270.0
  0
LINE
  5
2BD
  8
0
 62
     7
 10
144.528154
 20
635.819298
 30
0.0
 11
144.528154
 21
633.40025300000002
 31
0.0
  0
LINE
  5
2BE
  8
0
 62
     7
 10
142.02815399999989
 20
649.90025300000002
 30
0.0
 11
142.02815399999989
 21
633.40025300000002
 31
0.0
  0
LINE
  5
2BF
  8
0
 62
     7
 10
156.526949
 20
647.65025300000002
 30
0.0
 11
165.02815399999989
 21
647.65025300000002
 31
0.0
  0
LINE
  5
2C0
  8
0
 62
     7
 10
156.526949
 20
635.65025300000002
 30
0.0
 11
165.02815399999989
 21
635.65025300000002
 31
0.0
  0
LINE
  5
2C1
  8
0
 62
     7
 10
147.028154
 20
646.65025300000002
 30
0.0
 11
147.028154
 21
636.65025299999991
 31
0.0
  0
LINE
  5
2C2
  8
0
 62
     7
 10
166.02815399999989
 20
646.65025300000002
 30
0.0
 11
166.02815399999989
 21
636.65025299999991
 31
0.0
  0
LINE
  5
2C3
  8
0
 62
     7
 10
165.02815399999989
 20
647.65025300000002
 30
0.0
 11
165.02815399999989
 21
635.65025300000002
 31
0.0
  0
LINE
  5
2C4
  8
0
 62
     7
 10
148.028154
 20
647.65025300000002
 30
0.0
 11
148.028154
 21
635.65025300000002
 31
0.0
  0
LINE
  5
2C5
  8
0
 62
     7
 10
148.028154
 20
647.65025300000002
 30
0.0
 11
147.028154
 21
646.65025300000002
 31
0.0
  0
LINE
  5
2C6
  8
0
 62
     7
 10
166.02815399999989
 20
636.65025299999991
 30
0.0
 11
165.02815399999989
 21
635.65025300000002
 31
0.0
  0
LINE
  5
2C7
  8
0
 62
     7
 10
147.028154
 20
636.65025299999991
 30
0.0
 11
148.028154
 21
635.65025300000002
 31
0.0
  0
LINE
  5
2C8
  8
0
 62
     7
 10
165.02815399999989
 20
647.65025300000002
 30
0.0
 11
166.02815399999989
 21
646.65025300000002
 31
0.0
  0
LINE
  5
2C9
  8
0
 62
     7
 10
156.526949
 20
646.85024999999985
 30
0.0
 11
165.02815399999989
 21
646.85024999999985
 31
0.0
  0
LINE
  5
2CA
  8
0
 62
     7
 10
156.526949
 20
636.45025599999997
 30
0.0
 11
165.02815399999989
 21
636.45025599999997
 31
0.0
  0
LINE
  5
2CB
  8
0
 62
     7
 10
148.028154
 20
647.65025300000002
 30
0.0
 11
152.526949
 21
647.65025300000002
 31
0.0
  0
LINE
  5
2CC
  8
0
 62
     7
 10
148.028154
 20
646.85024999999985
 30
0.0
 11
152.526949
 21
646.85024999999985
 31
0.0
  0
LINE
  5
2CD
  8
0
 62
     7
 10
148.028154
 20
636.45025599999997
 30
0.0
 11
152.526949
 21
636.45025599999997
 31
0.0
  0
LINE
  5
2CE
  8
0
 62
     7
 10
148.028154
 20
635.65025300000002
 30
0.0
 11
152.526949
 21
635.65025300000002
 31
0.0
  0
LINE
  5
2CF
  8
0
 62
     3
 10
127.026945
 20
614.15025300000002
 30
0.0
 11
127.026945
 21
599.15025299999991
 31
0.0
  0
LINE
  5
2D0
  8
0
 62
     7
 10
127.026945
 20
614.15025300000002
 30
0.0
 11
132.0269449999999
 21
614.15025300000002
 31
0.0
  0
LINE
  5
2D1
  8
0
 62
     7
 10
127.026945
 20
599.15025299999991
 30
0.0
 11
132.0269449999999
 21
599.15025299999991
 31
0.0
  0
LINE
  5
2D2
  8
0
 62
     7
 10
132.0269449999999
 20
614.15025300000002
 30
0.0
 11
132.0269449999999
 21
599.15025299999991
 31
0.0
  0
LINE
  5
2D3
  8
0
 62
     7
 10
152.526949
 20
615.40025300000002
 30
0.0
 11
156.526949
 21
615.40025300000002
 31
0.0
  0
LINE
  5
2D4
  8
0
 62
     7
 10
152.526949
 20
597.90025300000002
 30
0.0
 11
156.526949
 21
597.90025300000002
 31
0.0
  0
LINE
  5
2D5
  8
0
 62
     7
 10
152.526949
 20
615.65025300000002
 30
0.0
 11
152.526949
 21
597.65025300000002
 31
0.0
  0
LINE
  5
2D6
  8
0
 62
     7
 10
156.526949
 20
615.65025300000002
 30
0.0
 11
156.526949
 21
597.65025300000002
 31
0.0
  0
LINE
  5
2D7
  8
0
 62
     7
 10
127.52694700000001
 20
597.65025300000002
 30
0.0
 11
161.526949
 21
597.65025300000002
 31
0.0
  0
LINE
  5
2D8
  8
0
 62
     7
 10
127.02694699999989
 20
615.15025300000002
 30
0.0
 11
127.02694699999989
 21
598.15025300000002
 31
0.0
  0
LINE
  5
2D9
  8
0
 62
     7
 10
127.52694700000001
 20
615.65025300000002
 30
0.0
 11
161.526949
 21
615.65025300000002
 31
0.0
  0
LINE
  5
2DA
  8
0
 62
     7
 10
161.526949
 20
618.15025300000002
 30
0.0
 11
161.526949
 21
615.65025300000002
 31
0.0
  0
LINE
  5
2DB
  8
0
 62
     7
 10
124.52694699999989
 20
615.15025300000002
 30
0.0
 11
124.52694699999989
 21
598.15025300000002
 31
0.0
  0
LINE
  5
2DC
  8
0
 62
     7
 10
161.526949
 20
597.65025300000002
 30
0.0
 11
161.526949
 21
595.15025299999991
 31
0.0
  0
ARC
  5
2DD
  8
0
 62
     7
 10
127.52694700000001
 20
615.15025300000002
 30
0.0
 40
0.5
 50
90.000032000000004
 51
179.99997300000001
  0
ARC
  5
2DE
  8
0
 62
     7
 10
127.52694700000001
 20
615.15025300000002
 30
0.0
 40
3.0
 50
90.000005000000002
 51
180.00000099999991
  0
ARC
  5
2DF
  8
0
 62
     7
 10
127.52694700000001
 20
598.15025300000002
 30
0.0
 40
0.499999
 50
179.99989099999999
 51
270.00008300000002
  0
ARC
  5
2E0
  8
0
 62
     7
 10
127.52694700000001
 20
598.15025300000002
 30
0.0
 40
2.9999989999999999
 50
179.99994599999991
 51
270.0
  0
LINE
  5
2E1
  8
0
  6
DASHDOT
 62
     7
 10
120.548625
 20
606.65025300000002
 30
0.0
 11
169.8191699999999
 21
606.65025300000002
 31
0.0
  0
LINE
  5
2E2
  8
0
 62
     7
 10
142.02815399999989
 20
614.90025300000002
 30
0.0
 11
144.528154
 21
614.90025300000002
 31
0.0
  0
LINE
  5
2E3
  8
0
 62
     7
 10
142.02815399999989
 20
598.40025300000002
 30
0.0
 11
144.528154
 21
598.40025300000002
 31
0.0
  0
ARC
  5
2E4
  8
0
 62
     7
 10
128.02815200000001
 20
606.65025300000002
 30
0.0
 40
17.5
 50
340.53705000000002
 51
342.20841100000001
  0
ARC
  5
2E5
  8
0
 62
     7
 10
128.02815200000001
 20
606.65025300000002
 30
0.0
 40
17.5
 50
377.79159399999998
 51
379.46294799999998
  0
LINE
  5
2E6
  8
0
 62
     7
 10
145.1672879999999
 20
611.65025299999991
 30
0.0
 11
147.028154
 21
611.65025299999991
 31
0.0
  0
LINE
  5
2E7
  8
0
 62
     7
 10
145.1672879999999
 20
601.65025300000002
 30
0.0
 11
147.028154
 21
601.65025300000002
 31
0.0
  0
LINE
  5
2E8
  8
0
 62
     7
 10
144.528154
 20
614.90025300000002
 30
0.0
 11
144.528154
 21
612.48120499999993
 31
0.0
  0
ARC
  5
2E9
  8
0
 62
     7
 10
145.1672879999999
 20
601.15025300000002
 30
0.0
 40
0.5
 50
90.000005000000002
 51
162.20839499999991
  0
ARC
  5
2EA
  8
0
 62
     7
 10
145.1672879999999
 20
612.15025300000002
 30
0.0
 40
0.5
 50
197.79157799999999
 51
270.0
  0
LINE
  5
2EB
  8
0
 62
     7
 10
144.528154
 20
600.81930199999999
 30
0.0
 11
144.528154
 21
598.40025300000002
 31
0.0
  0
LINE
  5
2EC
  8
0
 62
     7
 10
142.02815399999989
 20
614.90025300000002
 30
0.0
 11
142.02815399999989
 21
598.40025300000002
 31
0.0
  0
LINE
  5
2ED
  8
0
 62
     7
 10
156.526949
 20
612.65025300000002
 30
0.0
 11
165.02815399999989
 21
612.65025300000002
 31
0.0
  0
LINE
  5
2EE
  8
0
 62
     7
 10
156.526949
 20
600.65025300000002
 30
0.0
 11
165.02815399999989
 21
600.65025300000002
 31
0.0
  0
LINE
  5
2EF
  8
0
 62
     7
 10
147.028154
 20
611.65025299999991
 30
0.0
 11
147.028154
 21
601.65025300000002
 31
0.0
  0
LINE
  5
2F0
  8
0
 62
     7
 10
166.02815399999989
 20
611.65025299999991
 30
0.0
 11
166.02815399999989
 21
601.65025300000002
 31
0.0
  0
LINE
  5
2F1
  8
0
 62
     7
 10
165.02815399999989
 20
612.65025300000002
 30
0.0
 11
165.02815399999989
 21
600.65025300000002
 31
0.0
  0
LINE
  5
2F2
  8
0
 62
     7
 10
148.028154
 20
612.65025300000002
 30
0.0
 11
147.028154
 21
611.65025299999991
 31
0.0
  0
LINE
  5
2F3
  8
0
 62
     7
 10
166.02815399999989
 20
601.65025300000002
 30
0.0
 11
165.02815399999989
 21
600.65025300000002
 31
0.0
  0
LINE
  5
2F4
  8
0
 62
     7
 10
147.028154
 20
601.65025300000002
 30
0.0
 11
148.028154
 21
600.65025300000002
 31
0.0
  0
LINE
  5
2F5
  8
0
 62
     7
 10
165.02815399999989
 20
612.65025300000002
 30
0.0
 11
166.02815399999989
 21
611.65025299999991
 31
0.0
  0
LINE
  5
2F6
  8
0
 62
     7
 10
148.028154
 20
612.65025300000002
 30
0.0
 11
148.028154
 21
600.65025300000002
 31
0.0
  0
LINE
  5
2F7
  8
0
 62
     7
 10
156.526949
 20
611.85025399999995
 30
0.0
 11
165.02815399999989
 21
611.85025399999995
 31
0.0
  0
LINE
  5
2F8
  8
0
 62
     7
 10
156.526949
 20
601.45025299999986
 30
0.0
 11
165.02815399999989
 21
601.45025299999986
 31
0.0
  0
LINE
  5
2F9
  8
0
 62
     7
 10
148.028154
 20
612.65025300000002
 30
0.0
 11
152.526949
 21
612.65025300000002
 31
0.0
  0
LINE
  5
2FA
  8
0
 62
     7
 10
148.028154
 20
611.85025399999995
 30
0.0
 11
152.526949
 21
611.85025399999995
 31
0.0
  0
LINE
  5
2FB
  8
0
 62
     7
 10
148.028154
 20
601.45025299999986
 30
0.0
 11
152.526949
 21
601.45025299999986
 31
0.0
  0
LINE
  5
2FC
  8
0
 62
     7
 10
148.028154
 20
600.65025300000002
 30
0.0
 11
152.526949
 21
600.65025300000002
 31
0.0
  0
LINE
  5
2FD
  8
0
 62
     3
 10
127.026945
 20
579.15025300000002
 30
0.0
 11
127.026945
 21
564.15025300000002
 31
0.0
  0
LINE
  5
2FE
  8
0
 62
     7
 10
127.026945
 20
579.15025300000002
 30
0.0
 11
132.0269449999999
 21
579.15025300000002
 31
0.0
  0
LINE
  5
2FF
  8
0
 62
     7
 10
127.026945
 20
564.15025300000002
 30
0.0
 11
132.0269449999999
 21
564.15025300000002
 31
0.0
  0
LINE
  5
300
  8
0
 62
     7
 10
132.0269449999999
 20
579.15025300000002
 30
0.0
 11
132.0269449999999
 21
564.15025300000002
 31
0.0
  0
LINE
  5
301
  8
0
 62
     7
 10
152.526949
 20
580.40025299999991
 30
0.0
 11
156.526949
 21
580.40025299999991
 31
0.0
  0
LINE
  5
302
  8
0
 62
     7
 10
152.526949
 20
562.90025199999991
 30
0.0
 11
156.526949
 21
562.90025199999991
 31
0.0
  0
LINE
  5
303
  8
0
 62
     7
 10
152.526949
 20
580.65025300000002
 30
0.0
 11
152.526949
 21
562.6502519999998
 31
0.0
  0
LINE
  5
304
  8
0
 62
     7
 10
156.526949
 20
580.65025300000002
 30
0.0
 11
156.526949
 21
562.65025400000002
 31
0.0
  0
LINE
  5
305
  8
0
 62
     7
 10
127.52694700000001
 20
562.6502519999998
 30
0.0
 11
161.526949
 21
562.6502519999998
 31
0.0
  0
LINE
  5
306
  8
0
 62
     7
 10
127.02694699999989
 20
580.15025300000002
 30
0.0
 11
127.02694699999989
 21
563.1502519999998
 31
0.0
  0
LINE
  5
307
  8
0
 62
     7
 10
127.52694700000001
 20
580.65025300000002
 30
0.0
 11
161.526949
 21
580.65025300000002
 31
0.0
  0
LINE
  5
308
  8
0
 62
     7
 10
161.526949
 20
583.15025300000002
 30
0.0
 11
161.526949
 21
580.65025300000002
 31
0.0
  0
LINE
  5
309
  8
0
 62
     7
 10
124.52694699999989
 20
580.15025300000002
 30
0.0
 11
124.52694699999989
 21
563.1502519999998
 31
0.0
  0
LINE
  5
30A
  8
0
 62
     7
 10
161.526949
 20
562.6502519999998
 30
0.0
 11
161.526949
 21
560.15025199999991
 31
0.0
  0
ARC
  5
30B
  8
0
 62
     7
 10
127.52694700000001
 20
580.15025100000003
 30
0.0
 40
0.5
 50
90.000032000000004
 51
179.99997300000001
  0
ARC
  5
30C
  8
0
 62
     7
 10
127.52694700000001
 20
580.15025100000003
 30
0.0
 40
3.0
 50
90.000005000000002
 51
180.00000099999991
  0
ARC
  5
30D
  8
0
 62
     7
 10
127.52694700000001
 20
563.1502519999998
 30
0.0
 40
0.499999
 50
179.99989099999999
 51
270.00008300000002
  0
ARC
  5
30E
  8
0
 62
     7
 10
127.52694700000001
 20
563.15025100000003
 30
0.0
 40
2.9999989999999999
 50
179.99994599999991
 51
270.0
  0
LINE
  5
30F
  8
0
  6
DASHDOT
 62
     7
 10
120.548625
 20
571.65025300000002
 30
0.0
 11
169.8191699999999
 21
571.65025300000002
 31
0.0
  0
LINE
  5
310
  8
0
 62
     7
 10
142.02815399999989
 20
579.90025300000002
 30
0.0
 11
144.528154
 21
579.90025300000002
 31
0.0
  0
LINE
  5
311
  8
0
 62
     7
 10
142.02815399999989
 20
563.40025300000002
 30
0.0
 11
144.528154
 21
563.40025300000002
 31
0.0
  0
ARC
  5
312
  8
0
 62
     7
 10
128.02815200000001
 20
571.65025300000002
 30
0.0
 40
17.5
 50
340.53705000000002
 51
342.20841100000001
  0
ARC
  5
313
  8
0
 62
     7
 10
128.02815200000001
 20
571.65025300000002
 30
0.0
 40
17.5
 50
377.79159399999998
 51
379.46294799999998
  0
LINE
  5
314
  8
0
 62
     7
 10
145.1672879999999
 20
576.65025300000002
 30
0.0
 11
147.028154
 21
576.65025300000002
 31
0.0
  0
LINE
  5
315
  8
0
 62
     7
 10
145.1672879999999
 20
566.65025300000002
 30
0.0
 11
147.028154
 21
566.65025300000002
 31
0.0
  0
LINE
  5
316
  8
0
 62
     7
 10
144.528154
 20
579.90025300000002
 30
0.0
 11
144.528154
 21
577.48120499999993
 31
0.0
  0
ARC
  5
317
  8
0
 62
     7
 10
145.1672879999999
 20
566.15025299999991
 30
0.0
 40
0.5
 50
90.000005000000002
 51
162.20839499999991
  0
ARC
  5
318
  8
0
 62
     7
 10
145.1672879999999
 20
577.15025300000002
 30
0.0
 40
0.5
 50
197.79157799999999
 51
270.0
  0
LINE
  5
319
  8
0
 62
     7
 10
144.528154
 20
565.81930199999988
 30
0.0
 11
144.528154
 21
563.40025300000002
 31
0.0
  0
LINE
  5
31A
  8
0
 62
     7
 10
142.02815399999989
 20
579.90025300000002
 30
0.0
 11
142.02815399999989
 21
563.40025300000002
 31
0.0
  0
LINE
  5
31B
  8
0
 62
     7
 10
156.526949
 20
577.65025300000002
 30
0.0
 11
165.02815399999989
 21
577.65025300000002
 31
0.0
  0
LINE
  5
31C
  8
0
 62
     7
 10
156.526949
 20
565.65025300000002
 30
0.0
 11
165.02815399999989
 21
565.65025300000002
 31
0.0
  0
LINE
  5
31D
  8
0
 62
     7
 10
147.028154
 20
576.65025300000002
 30
0.0
 11
147.028154
 21
566.65025300000002
 31
0.0
  0
LINE
  5
31E
  8
0
 62
     7
 10
166.02815399999989
 20
576.65025300000002
 30
0.0
 11
166.02815399999989
 21
566.65025300000002
 31
0.0
  0
LINE
  5
31F
  8
0
 62
     7
 10
165.02815399999989
 20
577.65025300000002
 30
0.0
 11
165.02815399999989
 21
565.65025300000002
 31
0.0
  0
LINE
  5
320
  8
0
 62
     7
 10
148.028154
 20
577.65025300000002
 30
0.0
 11
148.028154
 21
565.65025300000002
 31
0.0
  0
LINE
  5
321
  8
0
 62
     7
 10
148.028154
 20
577.65025300000002
 30
0.0
 11
147.028154
 21
576.65025300000002
 31
0.0
  0
LINE
  5
322
  8
0
 62
     7
 10
166.02815399999989
 20
566.65025300000002
 30
0.0
 11
165.02815399999989
 21
565.65025300000002
 31
0.0
  0
LINE
  5
323
  8
0
 62
     7
 10
147.028154
 20
566.65025300000002
 30
0.0
 11
148.028154
 21
565.65025300000002
 31
0.0
  0
LINE
  5
324
  8
0
 62
     7
 10
165.02815399999989
 20
577.65025300000002
 30
0.0
 11
166.02815399999989
 21
576.65025300000002
 31
0.0
  0
LINE
  5
325
  8
0
 62
     7
 10
156.526949
 20
576.85025199999995
 30
0.0
 11
165.02815399999989
 21
576.85025199999995
 31
0.0
  0
LINE
  5
326
  8
0
 62
     7
 10
156.526949
 20
566.45025299999998
 30
0.0
 11
165.02815399999989
 21
566.45025299999998
 31
0.0
  0
LINE
  5
327
  8
0
 62
     7
 10
148.028154
 20
577.65025300000002
 30
0.0
 11
152.526949
 21
577.65025300000002
 31
0.0
  0
LINE
  5
328
  8
0
 62
     7
 10
148.028154
 20
576.85025199999995
 30
0.0
 11
152.526949
 21
576.85025199999995
 31
0.0
  0
LINE
  5
329
  8
0
 62
     7
 10
148.028154
 20
566.45025299999998
 30
0.0
 11
152.526949
 21
566.45025299999998
 31
0.0
  0
LINE
  5
32A
  8
0
 62
     7
 10
148.028154
 20
565.65025300000002
 30
0.0
 11
152.526949
 21
565.65025300000002
 31
0.0
  0
LINE
  5
32B
  8
0
 62
     7
 10
127.52694700000001
 20
560.15025199999991
 30
0.0
 11
161.526949
 21
560.15025199999991
 31
0.0
  0
LINE
  5
32C
  8
0
  6
DASHDOT
 62
     7
 10
46.18800499999999
 20
699.15025299999991
 30
0.0
 11
70.003468999999996
 21
699.15025299999991
 31
0.0
  0
LINE
  5
32D
  8
0
 62
     7
 10
53.026944999999998
 20
696.15025300000002
 30
0.0
 11
63.026944999999998
 21
696.15025300000002
 31
0.0
  0
LINE
  5
32E
  8
0
 62
     7
 10
53.026944999999998
 20
702.15025300000002
 30
0.0
 11
63.026944999999998
 21
702.15025300000002
 31
0.0
  0
LINE
  5
32F
  8
0
 62
     7
 10
52.026944999999991
 20
701.15025300000002
 30
0.0
 11
52.026944999999991
 21
697.15025300000002
 31
0.0
  0
LINE
  5
330
  8
0
 62
     7
 10
53.026944999999998
 20
702.15025300000002
 30
0.0
 11
53.026944999999998
 21
696.15025300000002
 31
0.0
  0
LINE
  5
331
  8
0
 62
     7
 10
53.026944999999998
 20
697.15025300000002
 30
0.0
 11
63.026944999999998
 21
697.15025300000002
 31
0.0
  0
LINE
  5
332
  8
0
 62
     7
 10
53.026944999999998
 20
701.15025300000002
 30
0.0
 11
63.026944999999998
 21
701.15025300000002
 31
0.0
  0
LINE
  5
333
  8
0
 62
     7
 10
53.026944999999998
 20
702.15025300000002
 30
0.0
 11
52.026944999999991
 21
701.15025300000002
 31
0.0
  0
LINE
  5
334
  8
0
 62
     7
 10
52.026944999999991
 20
697.15025300000002
 30
0.0
 11
53.026944999999998
 21
696.15025300000002
 31
0.0
  0
LINE
  5
335
  8
0
  6
DASHDOT
 62
     7
 10
46.18800499999999
 20
549.15025299999991
 30
0.0
 11
70.003468999999996
 21
549.15025299999991
 31
0.0
  0
LINE
  5
336
  8
0
 62
     7
 10
53.026944999999998
 20
552.15025300000002
 30
0.0
 11
53.026944999999998
 21
546.15025300000002
 31
0.0
  0
LINE
  5
337
  8
0
 62
     7
 10
109.026945
 20
694.15025300000002
 30
0.0
 11
109.026945
 21
646.15025300000002
 31
0.0
  0
LINE
  5
338
  8
0
 62
     7
 10
109.026945
 20
556.15025300000002
 30
0.0
 11
109.026945
 21
554.15025300000002
 31
0.0
  0
LINE
  5
339
  8
0
 62
     7
 10
72.026944999999984
 20
686.15025300000002
 30
0.0
 11
72.026944999999984
 21
683.65025300000002
 31
0.0
  0
LINE
  5
33A
  8
0
 62
     7
 10
72.026944999999984
 20
678.65025299999991
 30
0.0
 11
72.026944999999984
 21
676.15025300000002
 31
0.0
  0
LINE
  5
33B
  8
0
 62
     7
 10
72.026944999999984
 20
566.15025299999991
 30
0.0
 11
72.026944999999984
 21
563.65025300000002
 31
0.0
  0
LINE
  5
33C
  8
0
 62
     7
 10
72.026944999999984
 20
558.65025300000002
 30
0.0
 11
72.026944999999984
 21
556.15025300000002
 31
0.0
  0
LINE
  5
33D
  8
0
 62
   150
 10
53.026941000000001
 20
604.40586500000006
 30
0.0
 11
53.026941000000001
 21
593.89464199999986
 31
0.0
  0
LINE
  5
33E
  8
0
 62
   150
 10
53.026941000000001
 20
654.40586099999996
 30
0.0
 11
53.026941000000001
 21
643.89464599999985
 31
0.0
  0
LINE
  5
33F
  8
0
 62
   150
 10
48.026941000000001
 20
604.44949699999995
 30
0.0
 11
48.026941000000001
 21
593.85100899999998
 31
0.0
  0
LINE
  5
340
  8
0
 62
   150
 10
48.026941000000001
 20
654.44950099999994
 30
0.0
 11
48.026941000000001
 21
643.85100599999987
 31
0.0
  0
LINE
  5
341
  8
0
 62
   150
 10
53.026941000000001
 20
596.26350000000002
 30
0.0
 11
63.026941000000001
 21
596.26350000000002
 31
0.0
  0
LINE
  5
342
  8
0
 62
   150
 10
53.026941000000001
 20
646.26350400000001
 30
0.0
 11
63.026941000000001
 21
646.26350400000001
 31
0.0
  0
LINE
  5
343
  8
0
 62
   150
 10
53.026941000000001
 20
602.03700599999991
 30
0.0
 11
63.026941000000001
 21
602.03700599999991
 31
0.0
  0
LINE
  5
344
  8
0
 62
   150
 10
53.026941000000001
 20
652.03700300000003
 30
0.0
 11
63.026941000000001
 21
652.03700300000003
 31
0.0
  0
LINE
  5
345
  8
0
 62
     1
 10
31.026937
 20
651.65025300000002
 30
0.0
 11
48.026941000000001
 21
651.65025300000002
 31
0.0
  0
LINE
  5
346
  8
0
 62
     7
 10
31.026937
 20
651.15025300000002
 30
0.0
 11
48.026941000000001
 21
651.15025300000002
 31
0.0
  0
LINE
  5
347
  8
0
 62
     7
 10
31.026937
 20
647.15025300000002
 30
0.0
 11
48.026941000000001
 21
647.15025300000002
 31
0.0
  0
LINE
  5
348
  8
0
 62
     1
 10
31.026937
 20
646.65025300000002
 30
0.0
 11
48.026941000000001
 21
646.65025300000002
 31
0.0
  0
LINE
  5
349
  8
0
 62
     1
 10
31.026937
 20
651.65025300000002
 30
0.0
 11
31.026937
 21
646.65025300000002
 31
0.0
  0
LINE
  5
34A
  8
0
 62
     1
 10
31.026937
 20
651.65025300000002
 30
0.0
 11
30.526937
 21
651.15025300000002
 31
0.0
  0
LINE
  5
34B
  8
0
 62
     1
 10
30.526937
 20
647.15025300000002
 30
0.0
 11
31.026937
 21
646.65025300000002
 31
0.0
  0
LINE
  5
34C
  8
0
 62
     1
 10
30.526937
 20
651.15025300000002
 30
0.0
 11
30.526937
 21
647.15025300000002
 31
0.0
  0
LINE
  5
34D
  8
0
 62
   150
 10
51.026941000000001
 20
604.423317
 30
0.0
 11
51.026941000000001
 21
593.87719000000004
 31
0.0
  0
LINE
  5
34E
  8
0
 62
   150
 10
51.026941000000001
 20
654.423317
 30
0.0
 11
51.026941000000001
 21
643.87719000000004
 31
0.0
  0
LINE
  5
34F
  8
0
 62
   150
 10
63.026941000000001
 20
544.65025300000002
 30
0.0
 11
63.026941000000001
 21
540.150261
 31
0.0
  0
LINE
  5
350
  8
0
 62
   150
 10
48.026941000000001
 20
540.150261
 30
0.0
 11
63.026941000000001
 21
540.150261
 31
0.0
  0
LINE
  5
351
  8
0
 62
   150
 10
48.026941000000001
 20
555.94949699999995
 30
0.0
 11
48.026941000000001
 21
540.150261
 31
0.0
  0
LINE
  5
352
  8
0
 62
   150
 10
53.026941000000001
 20
555.90586299999995
 30
0.0
 11
53.026941000000001
 21
540.150261
 31
0.0
  0
LINE
  5
353
  8
0
 62
   150
 10
53.026941000000001
 20
552.03700500000002
 30
0.0
 11
63.026941000000001
 21
552.03700500000002
 31
0.0
  0
LINE
  5
354
  8
0
 62
   150
 10
53.026941000000001
 20
546.2635019999999
 30
0.0
 11
63.026941000000001
 21
546.2635019999999
 31
0.0
  0
LINE
  5
355
  8
0
 62
   150
 10
51.026941000000001
 20
555.92331599999989
 30
0.0
 11
51.026941000000001
 21
540.150261
 31
0.0
  0
LINE
  5
356
  8
0
 62
     1
 10
30.526937
 20
551.15025300000002
 30
0.0
 11
30.526937
 21
547.15025300000002
 31
0.0
  0
LINE
  5
357
  8
0
 62
     1
 10
31.026937
 20
551.65025300000002
 30
0.0
 11
48.026941000000001
 21
551.65025300000002
 31
0.0
  0
LINE
  5
358
  8
0
 62
     1
 10
31.026937
 20
546.65025300000002
 30
0.0
 11
48.026941000000001
 21
546.65025300000002
 31
0.0
  0
LINE
  5
359
  8
0
 62
     1
 10
31.026937
 20
551.65025300000002
 30
0.0
 11
30.526937
 21
551.15025300000002
 31
0.0
  0
LINE
  5
35A
  8
0
 62
     1
 10
30.526937
 20
547.15025300000002
 30
0.0
 11
31.026937
 21
546.65025300000002
 31
0.0
  0
LINE
  5
35B
  8
0
 62
     1
 10
31.026937
 20
551.65025300000002
 30
0.0
 11
31.026937
 21
546.65025300000002
 31
0.0
  0
LINE
  5
35C
  8
0
 62
     7
 10
31.026937
 20
551.15025300000002
 30
0.0
 11
48.026941000000001
 21
551.15025300000002
 31
0.0
  0
LINE
  5
35D
  8
0
 62
     7
 10
31.026937
 20
547.15025300000002
 30
0.0
 11
48.026941000000001
 21
547.15025300000002
 31
0.0
  0
LINE
  5
35E
  8
0
 62
     7
 10
-80.143107999999998
 20
368.47097000000002
 30
0.0
 11
-402.14310799999998
 21
368.47097000000002
 31
0.0
  0
LINE
  5
35F
  8
0
 62
     7
 10
-329.14310799999993
 20
412.47097000000002
 30
0.0
 11
-354.14310799999993
 21
412.47097000000002
 31
0.0
  0
LINE
  5
360
  8
0
 62
     7
 10
-268.89307700000001
 20
266.97090900000001
 30
0.0
 11
-285.14307699999989
 21
266.97090900000001
 31
0.0
  0
LINE
  5
361
  8
0
 62
     7
 10
-80.143107999999998
 20
219.97096999999999
 30
0.0
 11
-87.143107999999984
 21
219.97096999999999
 31
0.0
  0
LINE
  5
362
  8
0
 62
     7
 10
-238.43696199999999
 20
234.47585299999989
 30
0.0
 11
-248.192668
 21
234.47585299999989
 31
0.0
  0
ARC
  5
363
  8
0
 62
     7
 10
-289.14310799999993
 20
450.47097000000002
 30
0.0
 40
1.0
 50
90.000000999999983
 51
179.500013
  0
ARC
  5
364
  8
0
 62
     7
 10
-244.14310800000001
 20
450.47097000000002
 30
0.0
 40
1.0
 50
0.5000020000000001
 51
90.000000999999983
  0
ARC
  5
365
  8
0
 62
     7
 10
-239.14310800000001
 20
450.47097000000002
 30
0.0
 40
1.0
 50
90.000000999999983
 51
179.500013
  0
ARC
  5
366
  8
0
 62
     7
 10
-139.14310800000001
 20
450.47097000000002
 30
0.0
 40
1.0
 50
90.000000999999983
 51
179.500013
  0
ARC
  5
367
  8
0
 62
     7
 10
-144.14310800000001
 20
450.47097000000002
 30
0.0
 40
1.0
 50
0.5000020000000001
 51
90.000000999999983
  0
ARC
  5
368
  8
0
 62
     7
 10
-94.143107999999998
 20
450.47097000000002
 30
0.0
 40
1.0
 50
0.5000020000000001
 51
90.000000999999983
  0
LINE
  5
369
  8
0
 62
     7
 10
-94.143107999999998
 20
451.47097000000002
 30
0.0
 11
-105.643108
 21
451.47097000000002
 31
0.0
  0
LINE
  5
36A
  8
0
 62
     7
 10
-80.143107999999998
 20
412.47097000000002
 30
0.0
 11
-92.811448999999996
 21
412.47097000000002
 31
0.0
  0
LINE
  5
36B
  8
0
 62
     7
 10
-92.811448999999996
 20
412.47097000000002
 30
0.0
 11
-93.143146000000016
 21
450.47969799999998
 31
0.0
  0
LINE
  5
36C
  8
0
 62
     7
 10
-106.143108
 20
395.47097000000002
 30
0.0
 11
-222.64310800000001
 21
395.47097000000002
 31
0.0
  0
LINE
  5
36D
  8
0
 62
     7
 10
-106.143108
 20
395.47097000000002
 30
0.0
 11
-106.143108
 21
368.47097000000002
 31
0.0
  0
LINE
  5
36E
  8
0
 62
     7
 10
-144.14310800000001
 20
451.47097000000002
 30
0.0
 11
-155.64310800000001
 21
451.47097000000002
 31
0.0
  0
LINE
  5
36F
  8
0
 62
     7
 10
-244.14310800000001
 20
451.47097000000002
 30
0.0
 11
-255.64310800000001
 21
451.47097000000002
 31
0.0
  0
LINE
  5
370
  8
0
 62
     7
 10
-140.14306999999991
 20
450.47969799999998
 30
0.0
 11
-140.62312299999991
 21
395.47097000000002
 31
0.0
  0
LINE
  5
371
  8
0
 62
     7
 10
-142.66309299999989
 20
395.47097000000002
 30
0.0
 11
-143.14314599999989
 21
450.47969799999998
 31
0.0
  0
LINE
  5
372
  8
0
 62
     7
 10
-240.14307700000001
 20
450.47969799999998
 30
0.0
 11
-240.61939599999991
 21
395.89881899999989
 31
0.0
  0
LINE
  5
373
  8
0
 62
     7
 10
-290.14307700000001
 20
450.47969799999998
 30
0.0
 11
-290.62311899999992
 21
395.47097000000002
 31
0.0
  0
LINE
  5
374
  8
0
 62
     7
 10
-242.66309699999999
 20
395.47097000000002
 30
0.0
 11
-243.14313799999991
 21
450.47969799999998
 31
0.0
  0
LINE
  5
375
  8
0
 62
     7
 10
-402.14310799999998
 20
374.47097000000002
 30
0.0
 11
-402.14310799999998
 21
365.47097000000002
 31
0.0
  0
LINE
  5
376
  8
0
 62
     7
 10
-354.14310799999993
 20
412.47097000000002
 30
0.0
 11
-354.14310799999993
 21
379.22097000000002
 31
0.0
  0
LINE
  5
377
  8
0
 62
     7
 10
-354.14310799999993
 20
402.18378399999989
 30
0.0
 11
-402.14310799999998
 21
374.47097000000002
 31
0.0
  0
LINE
  5
378
  8
0
 62
     7
 10
-329.14310799999993
 20
412.47097000000002
 30
0.0
 11
-329.14310799999993
 21
368.47097000000002
 31
0.0
  0
LINE
  5
379
  8
0
 62
     2
 10
-329.14310799999993
 20
379.22097000000002
 30
0.0
 11
-366.14310799999993
 21
379.22097000000002
 31
0.0
  0
LINE
  5
37A
  8
0
 62
     7
 10
-113.643108
 20
428.47097000000002
 30
0.0
 11
-119.643108
 21
428.47097000000002
 31
0.0
  0
LINE
  5
37B
  8
0
 62
     7
 10
-109.643108
 20
447.47097000000002
 30
0.0
 11
-109.643108
 21
432.47097000000002
 31
0.0
  0
LINE
  5
37C
  8
0
 62
     7
 10
-123.643108
 20
447.47097000000002
 30
0.0
 11
-123.643108
 21
432.47097000000002
 31
0.0
  0
LINE
  5
37D
  8
0
 62
     7
 10
-127.643108
 20
451.47097000000002
 30
0.0
 11
-139.14310800000001
 21
451.47097000000002
 31
0.0
  0
ARC
  5
37E
  8
0
 62
     7
 10
-113.643108
 20
432.47097000000002
 30
0.0
 40
4.0
 50
270.00000299999988
 51
0.000005
  0
ARC
  5
37F
  8
0
 62
     7
 10
-119.643108
 20
432.47097000000002
 30
0.0
 40
4.0
 50
180.0
 51
270.00000299999988
  0
ARC
  5
380
  8
0
 62
     7
 10
-127.643108
 20
447.47097000000002
 30
0.0
 40
4.0
 50
0.000005
 51
90.000000999999983
  0
ARC
  5
381
  8
0
 62
     7
 10
-105.643108
 20
447.47097000000002
 30
0.0
 40
4.0
 50
90.000000999999983
 51
180.0
  0
ARC
  5
382
  8
0
 62
     7
 10
-155.64310800000001
 20
447.47097000000002
 30
0.0
 40
4.0
 50
90.000000999999983
 51
180.0
  0
LINE
  5
383
  8
0
 62
     7
 10
-159.64310800000001
 20
447.47097000000002
 30
0.0
 11
-159.64310800000001
 21
432.47097000000002
 31
0.0
  0
ARC
  5
384
  8
0
 62
     7
 10
-163.64310800000001
 20
432.47097000000002
 30
0.0
 40
4.0
 50
270.00000299999988
 51
0.000005
  0
LINE
  5
385
  8
0
 62
     7
 10
-163.64310800000001
 20
428.47097000000002
 30
0.0
 11
-169.64310800000001
 21
428.47097000000002
 31
0.0
  0
ARC
  5
386
  8
0
 62
     7
 10
-169.64310800000001
 20
432.47097000000002
 30
0.0
 40
4.0
 50
180.0
 51
270.00000299999988
  0
LINE
  5
387
  8
0
 62
     7
 10
-173.64310800000001
 20
447.47097000000002
 30
0.0
 11
-173.64310800000001
 21
432.47097000000002
 31
0.0
  0
ARC
  5
388
  8
0
 62
     7
 10
-177.64310800000001
 20
447.47097000000002
 30
0.0
 40
4.0
 50
0.000005
 51
90.000000999999983
  0
ARC
  5
389
  8
0
 62
     7
 10
-227.64310800000001
 20
447.47097000000002
 30
0.0
 40
4.0
 50
0.000005
 51
90.000000999999983
  0
LINE
  5
38A
  8
0
 62
     7
 10
-223.64310800000001
 20
447.47097000000002
 30
0.0
 11
-223.64310800000001
 21
432.47097000000002
 31
0.0
  0
ARC
  5
38B
  8
0
 62
     7
 10
-219.6431079999999
 20
432.47097000000002
 30
0.0
 40
4.0
 50
180.0
 51
270.00000299999988
  0
LINE
  5
38C
  8
0
 62
     7
 10
-213.64310800000001
 20
428.47097000000002
 30
0.0
 11
-219.6431079999999
 21
428.47097000000002
 31
0.0
  0
ARC
  5
38D
  8
0
 62
     7
 10
-213.64310800000001
 20
432.47097000000002
 30
0.0
 40
4.0
 50
270.00000299999988
 51
0.000005
  0
LINE
  5
38E
  8
0
 62
     7
 10
-209.64310800000001
 20
447.47097000000002
 30
0.0
 11
-209.64310800000001
 21
432.47097000000002
 31
0.0
  0
ARC
  5
38F
  8
0
 62
     7
 10
-205.64310800000001
 20
447.47097000000002
 30
0.0
 40
4.0
 50
90.000000999999983
 51
180.0
  0
LINE
  5
390
  8
0
 62
     7
 10
-259.64310799999993
 20
447.47097000000002
 30
0.0
 11
-259.64310799999993
 21
432.47097000000002
 31
0.0
  0
ARC
  5
391
  8
0
 62
     7
 10
-263.64310799999993
 20
432.47097000000002
 30
0.0
 40
4.0
 50
270.00000299999988
 51
0.000005
  0
LINE
  5
392
  8
0
 62
     7
 10
-263.64310799999993
 20
428.47097000000002
 30
0.0
 11
-269.64310799999993
 21
428.47097000000002
 31
0.0
  0
ARC
  5
393
  8
0
 62
     7
 10
-269.64310799999993
 20
432.47097000000002
 30
0.0
 40
4.0
 50
180.0
 51
270.00000299999988
  0
LINE
  5
394
  8
0
 62
     7
 10
-273.64310799999998
 20
447.47097000000002
 30
0.0
 11
-273.64310799999998
 21
432.47097000000002
 31
0.0
  0
ARC
  5
395
  8
0
 62
     7
 10
-277.64310799999998
 20
447.47097000000002
 30
0.0
 40
4.0
 50
0.000005
 51
90.000000999999983
  0
ARC
  5
396
  8
0
 62
     7
 10
-255.64310800000001
 20
447.47097000000002
 30
0.0
 40
4.0
 50
90.000000999999983
 51
180.0
  0
LINE
  5
397
  8
0
 62
     7
 10
-177.64310800000001
 20
451.47097000000002
 30
0.0
 11
-205.64310800000001
 21
451.47097000000002
 31
0.0
  0
LINE
  5
398
  8
0
 62
     7
 10
-227.64310800000001
 20
451.47097000000002
 30
0.0
 11
-239.14310800000001
 21
451.47097000000002
 31
0.0
  0
LINE
  5
399
  8
0
 62
     7
 10
-277.64310799999998
 20
451.47097000000002
 30
0.0
 11
-289.14310799999993
 21
451.47097000000002
 31
0.0
  0
LINE
  5
39A
  8
0
  6
DASHED
 62
     7
 10
-246.6431079999999
 20
406.97097000000002
 30
0.0
 11
-246.6431079999999
 21
385.97097000000002
 31
0.0
  0
LINE
  5
39B
  8
0
  6
DASHED
 62
     7
 10
-286.64310799999993
 20
406.97097000000002
 30
0.0
 11
-286.64310799999993
 21
385.97097000000002
 31
0.0
  0
LINE
  5
39C
  8
0
  6
DASHED
 62
     7
 10
-276.64310799999993
 20
385.97097000000002
 30
0.0
 11
-286.64310799999993
 21
385.97097000000002
 31
0.0
  0
LINE
  5
39D
  8
0
  6
DASHED
 62
     7
 10
-255.64310800000001
 20
390.97097000000002
 30
0.0
 11
-277.64310799999998
 21
390.97097000000002
 31
0.0
  0
LINE
  5
39E
  8
0
  6
DASHED
 62
     7
 10
-268.14310799999993
 20
401.47097000000002
 30
0.0
 11
-277.64310799999998
 21
401.47097000000002
 31
0.0
  0
LINE
  5
39F
  8
0
  6
DASHED
 62
     7
 10
-255.64310800000001
 20
401.47097000000002
 30
0.0
 11
-255.64310800000001
 21
390.97097000000002
 31
0.0
  0
LINE
  5
3A0
  8
0
  6
DASHED
 62
     7
 10
-277.64310799999998
 20
401.47097000000002
 30
0.0
 11
-277.64310799999998
 21
390.97097000000002
 31
0.0
  0
LINE
  5
3A1
  8
0
  6
DASHED
 62
     7
 10
-265.14310799999998
 20
421.47097000000002
 30
0.0
 11
-265.14310799999998
 21
401.47097000000002
 31
0.0
  0
LINE
  5
3A2
  8
0
  6
DASHED
 62
     7
 10
-268.14310799999993
 20
421.47097000000002
 30
0.0
 11
-268.14310799999993
 21
401.47097000000002
 31
0.0
  0
ARC
  5
3A3
  8
0
  6
DASHED
 62
     7
 10
-266.64310799999993
 20
421.47097000000002
 30
0.0
 40
1.5
 50
0.000005
 51
180.0
  0
LINE
  5
3A4
  8
0
  6
DASHED
 62
     7
 10
-255.64310800000001
 20
401.47097000000002
 30
0.0
 11
-265.14310799999998
 21
401.47097000000002
 31
0.0
  0
ARC
  5
3A5
  8
0
  6
DASHED
 62
     7
 10
-257.14310799999993
 20
448.97097000000002
 30
0.0
 40
2.0
 50
318.590371
 51
90.000000999999983
  0
LINE
  5
3A6
  8
0
  6
DASHED
 62
     7
 10
-263.64310799999993
 20
425.97097000000002
 30
0.0
 11
-269.64310799999993
 21
425.97097000000002
 31
0.0
  0
LINE
  5
3A7
  8
0
 62
     7
 10
-263.64310799999993
 20
442.57305100000002
 30
0.0
 11
-263.64310799999993
 21
428.47097000000002
 31
0.0
  0
LINE
  5
3A8
  8
0
 62
     7
 10
-269.64310799999993
 20
442.57305100000002
 30
0.0
 11
-269.64310799999993
 21
428.47097000000002
 31
0.0
  0
ARC
  5
3A9
  8
0
 62
     7
 10
-258.14310799999993
 20
444.97097000000002
 30
0.0
 40
6.0
 50
90.000000999999983
 51
203.55646200000001
  0
ARC
  5
3AA
  8
0
 62
     7
 10
-275.14310799999993
 20
444.97097000000002
 30
0.0
 40
6.0
 50
336.44353000000001
 51
90.000000999999983
  0
LINE
  5
3AB
  8
0
 62
     7
 10
-257.14310799999993
 20
450.97097000000002
 30
0.0
 11
-258.14310799999993
 21
450.97097000000002
 31
0.0
  0
LINE
  5
3AC
  8
0
  6
DASHED
 62
     7
 10
-255.64310800000001
 20
447.64809400000001
 30
0.0
 11
-255.64310800000001
 21
443.97097000000002
 31
0.0
  0
LINE
  5
3AD
  8
0
  6
DASHED
 62
     7
 10
-252.64310800000001
 20
443.97097000000002
 30
0.0
 11
-255.64310800000001
 21
443.97097000000002
 31
0.0
  0
LINE
  5
3AE
  8
0
  6
DASHED
 62
     7
 10
-251.3510389999999
 20
406.97097000000002
 30
0.0
 11
-252.64310800000001
 21
443.97097000000002
 31
0.0
  0
LINE
  5
3AF
  8
0
  6
DASHED
 62
     7
 10
-246.6431079999999
 20
406.97097000000002
 30
0.0
 11
-251.3510389999999
 21
406.97097000000002
 31
0.0
  0
LINE
  5
3B0
  8
0
  6
DASHED
 62
     7
 10
-281.9351759999999
 20
406.97097000000002
 30
0.0
 11
-286.64310799999993
 21
406.97097000000002
 31
0.0
  0
LINE
  5
3B1
  8
0
  6
DASHED
 62
     7
 10
-280.64310799999993
 20
443.97097000000002
 30
0.0
 11
-281.9351759999999
 21
406.97097000000002
 31
0.0
  0
LINE
  5
3B2
  8
0
  6
DASHED
 62
     7
 10
-277.64310799999998
 20
443.97097000000002
 30
0.0
 11
-280.64310799999993
 21
443.97097000000002
 31
0.0
  0
LINE
  5
3B3
  8
0
  6
DASHED
 62
     7
 10
-277.64310799999998
 20
447.64809400000001
 30
0.0
 11
-277.64310799999998
 21
443.97097000000002
 31
0.0
  0
ARC
  5
3B4
  8
0
  6
DASHED
 62
     7
 10
-276.14310799999993
 20
448.97097000000002
 30
0.0
 40
2.0
 50
90.000000999999983
 51
221.40962400000001
  0
LINE
  5
3B5
  8
0
 62
     7
 10
-275.14310799999993
 20
450.97097000000002
 30
0.0
 11
-276.14310799999993
 21
450.97097000000002
 31
0.0
  0
LINE
  5
3B6
  8
0
  6
DASHED
 62
     7
 10
-246.6431079999999
 20
385.97097000000002
 30
0.0
 11
-256.64310799999998
 21
385.97097000000002
 31
0.0
  0
LINE
  5
3B7
  8
0
  6
DASHED
 62
     7
 10
-263.64310799999993
 20
428.47097000000002
 30
0.0
 11
-263.64310799999993
 21
425.97097000000002
 31
0.0
  0
LINE
  5
3B8
  8
0
  6
DASHED
 62
     7
 10
-269.64310799999993
 20
428.47097000000002
 30
0.0
 11
-269.64310799999993
 21
425.97097000000002
 31
0.0
  0
LINE
  5
3B9
  8
0
 62
     7
 10
-213.64310800000001
 20
442.57305100000002
 30
0.0
 11
-213.64310800000001
 21
428.47097000000002
 31
0.0
  0
LINE
  5
3BA
  8
0
 62
     7
 10
-219.6431079999999
 20
442.57305100000002
 30
0.0
 11
-219.6431079999999
 21
428.47097000000002
 31
0.0
  0
ARC
  5
3BB
  8
0
 62
     7
 10
-225.14310800000001
 20
444.97097000000002
 30
0.0
 40
6.0
 50
336.44353000000001
 51
90.000000999999983
  0
ARC
  5
3BC
  8
0
 62
     7
 10
-208.14310800000001
 20
444.97097000000002
 30
0.0
 40
6.0
 50
90.000000999999983
 51
203.55646200000001
  0
LINE
  5
3BD
  8
0
 62
     7
 10
-225.14310800000001
 20
450.97097000000002
 30
0.0
 11
-226.14310800000001
 21
450.97097000000002
 31
0.0
  0
LINE
  5
3BE
  8
0
 62
     7
 10
-207.1431079999999
 20
450.97097000000002
 30
0.0
 11
-208.14310800000001
 21
450.97097000000002
 31
0.0
  0
LINE
  5
3BF
  8
0
 62
     7
 10
-163.64310800000001
 20
442.57305100000002
 30
0.0
 11
-163.64310800000001
 21
428.47097000000002
 31
0.0
  0
LINE
  5
3C0
  8
0
 62
     7
 10
-169.64310800000001
 20
442.57305100000002
 30
0.0
 11
-169.64310800000001
 21
428.47097000000002
 31
0.0
  0
ARC
  5
3C1
  8
0
 62
     7
 10
-158.14310800000001
 20
444.97097000000002
 30
0.0
 40
6.0
 50
90.000000999999983
 51
203.55646200000001
  0
ARC
  5
3C2
  8
0
 62
     7
 10
-175.14310800000001
 20
444.97097000000002
 30
0.0
 40
6.0
 50
336.44353000000001
 51
90.000000999999983
  0
LINE
  5
3C3
  8
0
 62
     7
 10
-175.14310800000001
 20
450.97097000000002
 30
0.0
 11
-176.14310800000001
 21
450.97097000000002
 31
0.0
  0
LINE
  5
3C4
  8
0
 62
     7
 10
-157.14310800000001
 20
450.97097000000002
 30
0.0
 11
-158.14310800000001
 21
450.97097000000002
 31
0.0
  0
LINE
  5
3C5
  8
0
 62
     7
 10
-113.643108
 20
442.57305100000002
 30
0.0
 11
-113.643108
 21
428.47097000000002
 31
0.0
  0
LINE
  5
3C6
  8
0
 62
     7
 10
-119.643108
 20
442.57305100000002
 30
0.0
 11
-119.643108
 21
428.47097000000002
 31
0.0
  0
ARC
  5
3C7
  8
0
 62
     7
 10
-125.143108
 20
444.97097000000002
 30
0.0
 40
6.0
 50
336.44353000000001
 51
90.000000999999983
  0
ARC
  5
3C8
  8
0
 62
     7
 10
-108.143108
 20
444.97097000000002
 30
0.0
 40
6.0
 50
90.000000999999983
 51
203.55646200000001
  0
LINE
  5
3C9
  8
0
 62
     7
 10
-125.143108
 20
450.97097000000002
 30
0.0
 11
-126.143108
 21
450.97097000000002
 31
0.0
  0
LINE
  5
3CA
  8
0
 62
     7
 10
-107.143108
 20
450.97097000000002
 30
0.0
 11
-108.143108
 21
450.97097000000002
 31
0.0
  0
LINE
  5
3CB
  8
0
  6
DASHED
 62
     7
 10
-171.91343999999989
 20
379.970956
 30
0.0
 11
-195.80859699999991
 21
379.970956
 31
0.0
  0
LINE
  5
3CC
  8
0
  6
DASHED
 62
     7
 10
-171.91343999999989
 20
373.970956
 30
0.0
 11
-195.80859699999991
 21
373.970956
 31
0.0
  0
ARC
  5
3CD
  8
0
  6
DASHED
 62
     7
 10
-171.91343999999989
 20
367.970956
 30
0.0
 40
12.0
 50
22.999998000000001
 51
90.000000999999983
  0
ARC
  5
3CE
  8
0
  6
DASHED
 62
     7
 10
-171.91343999999989
 20
367.970956
 30
0.0
 40
6.0
 50
22.999998000000001
 51
90.000000999999983
  0
POLYLINE
  5
3CF
  8
0
  6
DASHED
 62
     7
 66
     1
 10
0.0
 20
0.0
 30
0.0
  0
VERTEX
  5
762
  8
0
  6
DASHED
 62
     7
 10
-195.80859699999991
 20
373.970956
 30
0.0
  0
VERTEX
  5
763
  8
0
  6
DASHED
 62
     7
 10
-196.17097799999991
 20
373.96857899999992
 30
0.0
  0
VERTEX
  5
764
  8
0
  6
DASHED
 62
     7
 10
-196.53252699999999
 20
373.96821599999998
 30
0.0
  0
VERTEX
  5
765
  8
0
  6
DASHED
 62
     7
 10
-196.89240599999991
 20
373.96985999999998
 30
0.0
  0
VERTEX
  5
766
  8
0
  6
DASHED
 62
     7
 10
-197.25145299999991
 20
373.97350799999992
 30
0.0
  0
VERTEX
  5
767
  8
0
  6
DASHED
 62
     7
 10
-197.60885899999991
 20
373.97914400000002
 30
0.0
  0
VERTEX
  5
768
  8
0
  6
DASHED
 62
     7
 10
-197.96544199999991
 20
373.98677500000002
 30
0.0
  0
VERTEX
  5
769
  8
0
  6
DASHED
 62
     7
 10
-198.32040699999999
 20
373.99637799999999
 30
0.0
  0
VERTEX
  5
76A
  8
0
  6
DASHED
 62
     7
 10
-198.67455599999991
 20
374.00796700000001
 30
0.0
  0
VERTEX
  5
76B
  8
0
  6
DASHED
 62
     7
 10
-199.02712600000001
 20
374.02150999999998
 30
0.0
  0
VERTEX
  5
76C
  8
0
  6
DASHED
 62
     7
 10
-199.378871
 20
374.0370299999999
 30
0.0
  0
VERTEX
  5
76D
  8
0
  6
DASHED
 62
     7
 10
-199.7290679999999
 20
374.05448999999987
 30
0.0
  0
VERTEX
  5
76E
  8
0
  6
DASHED
 62
     7
 10
-200.07844900000001
 20
374.07391799999988
 30
0.0
  0
VERTEX
  5
76F
  8
0
  6
DASHED
 62
     7
 10
-200.4263029999999
 20
374.09527099999991
 30
0.0
  0
VERTEX
  5
770
  8
0
  6
DASHED
 62
     7
 10
-200.773349
 20
374.11858499999988
 30
0.0
  0
VERTEX
  5
771
  8
0
  6
DASHED
 62
     7
 10
-201.11890699999989
 20
374.14380799999998
 30
0.0
  0
VERTEX
  5
772
  8
0
  6
DASHED
 62
     7
 10
-201.463649
 20
374.17098499999997
 30
0.0
  0
VERTEX
  5
773
  8
0
  6
DASHED
 62
     7
 10
-201.80692599999989
 20
374.20005800000001
 30
0.0
  0
VERTEX
  5
774
  8
0
  6
DASHED
 62
     7
 10
-202.14940200000001
 20
374.23107700000003
 30
0.0
  0
VERTEX
  5
775
  8
0
  6
DASHED
 62
     7
 10
-202.49044399999991
 20
374.26398
 30
0.0
  0
VERTEX
  5
776
  8
0
  6
DASHED
 62
     7
 10
-202.83068399999999
 20
374.29882199999997
 30
0.0
  0
VERTEX
  5
777
  8
0
  6
DASHED
 62
     7
 10
-203.169521
 20
374.33553599999988
 30
0.0
  0
VERTEX
  5
778
  8
0
  6
DASHED
 62
     7
 10
-203.50755599999999
 20
374.37418100000002
 30
0.0
  0
VERTEX
  5
779
  8
0
  6
DASHED
 62
     7
 10
-203.844211
 20
374.41468900000001
 30
0.0
  0
VERTEX
  5
77A
  8
0
  6
DASHED
 62
     7
 10
-204.18007199999991
 20
374.45712099999992
 30
0.0
  0
VERTEX
  5
77B
  8
0
  6
DASHED
 62
     7
 10
-204.51458299999999
 20
374.50140499999992
 30
0.0
  0
VERTEX
  5
77C
  8
0
  6
DASHED
 62
     7
 10
-204.848308
 20
374.54760800000003
 30
0.0
  0
VERTEX
  5
77D
  8
0
  6
DASHED
 62
     7
 10
-205.18070499999999
 20
374.59565299999991
 30
0.0
  0
VERTEX
  5
77E
  8
0
  6
DASHED
 62
     7
 10
-205.51231699999991
 20
374.64561099999997
 30
0.0
  0
VERTEX
  5
77F
  8
0
  6
DASHED
 62
     7
 10
-205.84263899999999
 20
374.69740299999989
 30
0.0
  0
VERTEX
  5
780
  8
0
  6
DASHED
 62
     7
 10
-206.172168
 20
374.751102
 30
0.0
  0
VERTEX
  5
781
  8
0
  6
DASHED
 62
     7
 10
-206.50043799999989
 20
374.80662799999988
 30
0.0
  0
VERTEX
  5
782
  8
0
  6
DASHED
 62
     7
 10
-206.8279149999999
 20
374.86405600000001
 30
0.0
  0
VERTEX
  5
783
  8
0
  6
DASHED
 62
     7
 10
-207.15416300000001
 20
374.92330299999992
 30
0.0
  0
VERTEX
  5
784
  8
0
  6
DASHED
 62
     7
 10
-207.47962499999991
 20
374.98444699999999
 30
0.0
  0
VERTEX
  5
785
  8
0
  6
DASHED
 62
     7
 10
-207.80389
 20
375.04740600000002
 30
0.0
  0
VERTEX
  5
786
  8
0
  6
DASHED
 62
     7
 10
-208.12736100000001
 20
375.112256
 30
0.0
  0
VERTEX
  5
787
  8
0
  6
DASHED
 62
     7
 10
-208.449657
 20
375.17891600000002
 30
0.0
  0
VERTEX
  5
788
  8
0
  6
DASHED
 62
     7
 10
-208.77117499999989
 20
375.24746199999998
 30
0.0
  0
VERTEX
  5
789
  8
0
  6
DASHED
 62
     7
 10
-209.09154100000001
 20
375.317814
 30
0.0
  0
VERTEX
  5
78A
  8
0
  6
DASHED
 62
     7
 10
-209.41112799999991
 20
375.39004899999998
 30
0.0
  0
VERTEX
  5
78B
  8
0
  6
DASHED
 62
     7
 10
-209.72959499999999
 20
375.46408700000001
 30
0.0
  0
VERTEX
  5
78C
  8
0
  6
DASHED
 62
     7
 10
-210.04728299999999
 20
375.54000400000001
 30
0.0
  0
VERTEX
  5
78D
  8
0
  6
DASHED
 62
     7
 10
-210.36387199999999
 20
375.61772100000002
 30
0.0
  0
VERTEX
  5
78E
  8
0
  6
DASHED
 62
     7
 10
-210.67969099999999
 20
375.69731200000001
 30
0.0
  0
VERTEX
  5
78F
  8
0
  6
DASHED
 62
     7
 10
-210.9944339999999
 20
375.778704
 30
0.0
  0
VERTEX
  5
790
  8
0
  6
DASHED
 62
     7
 10
-211.308414
 20
375.86196599999988
 30
0.0
  0
VERTEX
  5
791
  8
0
  6
DASHED
 62
     7
 10
-211.62134099999989
 20
375.94702699999999
 30
0.0
  0
VERTEX
  5
792
  8
0
  6
DASHED
 62
     7
 10
-211.93349799999999
 20
376.03395699999987
 30
0.0
  0
VERTEX
  5
793
  8
0
  6
DASHED
 62
     7
 10
-212.24464
 20
376.12268599999987
 30
0.0
  0
VERTEX
  5
794
  8
0
  6
DASHED
 62
     7
 10
-212.55501099999989
 20
376.21328099999999
 30
0.0
  0
VERTEX
  5
795
  8
0
  6
DASHED
 62
     7
 10
-212.86439799999999
 20
376.30567600000001
 30
0.0
  0
VERTEX
  5
796
  8
0
  6
DASHED
 62
     7
 10
-213.1730069999999
 20
376.39993399999992
 30
0.0
  0
VERTEX
  5
797
  8
0
  6
DASHED
 62
     7
 10
-213.4806549999999
 20
376.49599499999999
 30
0.0
  0
VERTEX
  5
798
  8
0
  6
DASHED
 62
     7
 10
-213.78753199999991
 20
376.59391699999992
 30
0.0
  0
VERTEX
  5
799
  8
0
  6
DASHED
 62
     7
 10
-214.09347099999991
 20
376.693645
 30
0.0
  0
VERTEX
  5
79A
  8
0
  6
DASHED
 62
     7
 10
-214.398639
 20
376.795231
 30
0.0
  0
VERTEX
  5
79B
  8
0
  6
DASHED
 62
     7
 10
-215.00638900000001
 20
377.00388099999992
 30
0.0
  0
VERTEX
  5
79C
  8
0
  6
DASHED
 62
     7
 10
-215.59686600000001
 20
377.21478699999989
 30
0.0
  0
SEQEND
  5
79D
  8
0
  6
DASHED
 62
     7
  0
LINE
  5
40C
  8
0
  6
DASHED
 62
     7
 10
-235.80872699999989
 20
384.47097000000002
 30
0.0
 11
-256.64310799999998
 21
384.47097000000002
 31
0.0
  0
POLYLINE
  5
40D
  8
0
  6
DASHED
 62
     7
 66
     1
 10
0.0
 20
0.0
 30
0.0
  0
VERTEX
  5
79E
  8
0
  6
DASHED
 62
     7
 10
-235.80858900000001
 20
384.470956
 30
0.0
  0
VERTEX
  5
79F
  8
0
  6
DASHED
 62
     7
 10
-235.098186
 20
384.33036900000002
 30
0.0
  0
VERTEX
  5
7A0
  8
0
  6
DASHED
 62
     7
 10
-234.385097
 20
384.18048399999992
 30
0.0
  0
VERTEX
  5
7A1
  8
0
  6
DASHED
 62
     7
 10
-233.66926099999989
 20
384.02123499999988
 30
0.0
  0
VERTEX
  5
7A2
  8
0
  6
DASHED
 62
     7
 10
-232.95061799999999
 20
383.85255100000001
 30
0.0
  0
VERTEX
  5
7A3
  8
0
  6
DASHED
 62
     7
 10
-232.22912199999999
 20
383.67436400000003
 30
0.0
  0
VERTEX
  5
7A4
  8
0
  6
DASHED
 62
     7
 10
-231.50471099999999
 20
383.48659800000001
 30
0.0
  0
VERTEX
  5
7A5
  8
0
  6
DASHED
 62
     7
 10
-230.77730899999989
 20
383.28917599999988
 30
0.0
  0
VERTEX
  5
7A6
  8
0
  6
DASHED
 62
     7
 10
-230.04690099999999
 20
383.08202
 30
0.0
  0
VERTEX
  5
7A7
  8
0
  6
DASHED
 62
     7
 10
-229.31338099999999
 20
382.865049
 30
0.0
  0
VERTEX
  5
7A8
  8
0
  6
DASHED
 62
     7
 10
-228.57673199999999
 20
382.63817999999998
 30
0.0
  0
VERTEX
  5
7A9
  8
0
  6
DASHED
 62
     7
 10
-227.836894
 20
382.40132499999999
 30
0.0
  0
VERTEX
  5
7AA
  8
0
  6
DASHED
 62
     7
 10
-227.09379100000001
 20
382.15439700000002
 30
0.0
  0
VERTEX
  5
7AB
  8
0
  6
DASHED
 62
     7
 10
-226.34737699999999
 20
381.89730600000001
 30
0.0
  0
VERTEX
  5
7AC
  8
0
  6
DASHED
 62
     7
 10
-225.59760600000001
 20
381.62995899999987
 30
0.0
  0
VERTEX
  5
7AD
  8
0
  6
DASHED
 62
     7
 10
-224.84441699999991
 20
381.352261
 30
0.0
  0
VERTEX
  5
7AE
  8
0
  6
DASHED
 62
     7
 10
-224.08776399999999
 20
381.06411400000002
 30
0.0
  0
VERTEX
  5
7AF
  8
0
  6
DASHED
 62
     7
 10
-223.32757100000001
 20
380.76541800000001
 30
0.0
  0
VERTEX
  5
7B0
  8
0
  6
DASHED
 62
     7
 10
-222.56380799999991
 20
380.456073
 30
0.0
  0
VERTEX
  5
7B1
  8
0
  6
DASHED
 62
     7
 10
-221.7963979999999
 20
380.13597399999998
 30
0.0
  0
VERTEX
  5
7B2
  8
0
  6
DASHED
 62
     7
 10
-221.02530999999999
 20
379.80501700000002
 30
0.0
  0
VERTEX
  5
7B3
  8
0
  6
DASHED
 62
     7
 10
-220.25048399999989
 20
379.46309100000002
 30
0.0
  0
VERTEX
  5
7B4
  8
0
  6
DASHED
 62
     7
 10
-219.47186599999989
 20
379.11008799999991
 30
0.0
  0
VERTEX
  5
7B5
  8
0
  6
DASHED
 62
     7
 10
-218.68940299999991
 20
378.74589500000002
 30
0.0
  0
VERTEX
  5
7B6
  8
0
  6
DASHED
 62
     7
 10
-217.903041
 20
378.37039900000002
 30
0.0
  0
VERTEX
  5
7B7
  8
0
  6
DASHED
 62
     7
 10
-217.11272799999989
 20
377.98348199999998
 30
0.0
  0
VERTEX
  5
7B8
  8
0
  6
DASHED
 62
     7
 10
-216.31841600000001
 20
377.58502799999991
 30
0.0
  0
VERTEX
  5
7B9
  8
0
  6
DASHED
 62
     7
 10
-215.59686600000001
 20
377.21478699999989
 30
0.0
  0
SEQEND
  5
7BA
  8
0
  6
DASHED
 62
     7
  0
POLYLINE
  5
42B
  8
0
  6
DASHED
 62
     7
 66
     1
 10
0.0
 20
0.0
 30
0.0
  0
VERTEX
  5
7BB
  8
0
  6
DASHED
 62
     7
 10
-235.80858900000001
 20
369.470956
 30
0.0
  0
VERTEX
  5
7BC
  8
0
  6
DASHED
 62
     7
 10
-234.732112
 20
369.88957499999992
 30
0.0
  0
VERTEX
  5
7BD
  8
0
  6
DASHED
 62
     7
 10
-233.61703099999991
 20
370.31361499999991
 30
0.0
  0
VERTEX
  5
7BE
  8
0
  6
DASHED
 62
     7
 10
-232.46247399999999
 20
370.74311499999999
 30
0.0
  0
VERTEX
  5
7BF
  8
0
  6
DASHED
 62
     7
 10
-231.26749699999999
 20
371.17811699999999
 30
0.0
  0
VERTEX
  5
7C0
  8
0
  6
DASHED
 62
     7
 10
-230.03120000000001
 20
371.61865899999992
 30
0.0
  0
VERTEX
  5
7C1
  8
0
  6
DASHED
 62
     7
 10
-228.75262000000001
 20
372.06478299999998
 30
0.0
  0
VERTEX
  5
7C2
  8
0
  6
DASHED
 62
     7
 10
-227.43082799999999
 20
372.516527
 30
0.0
  0
VERTEX
  5
7C3
  8
0
  6
DASHED
 62
     7
 10
-226.06486100000001
 20
372.97393199999999
 30
0.0
  0
VERTEX
  5
7C4
  8
0
  6
DASHED
 62
     7
 10
-224.65375800000001
 20
373.43703599999992
 30
0.0
  0
VERTEX
  5
7C5
  8
0
  6
DASHED
 62
     7
 10
-223.19651400000001
 20
373.90587900000003
 30
0.0
  0
VERTEX
  5
7C6
  8
0
  6
DASHED
 62
     7
 10
-221.6921649999999
 20
374.38050199999992
 30
0.0
  0
VERTEX
  5
7C7
  8
0
  6
DASHED
 62
     7
 10
-220.13969
 20
374.86094199999991
 30
0.0
  0
VERTEX
  5
7C8
  8
0
  6
DASHED
 62
     7
 10
-218.53808900000001
 20
375.34724
 30
0.0
  0
VERTEX
  5
7C9
  8
0
  6
DASHED
 62
     7
 10
-216.88633300000001
 20
375.83943599999998
 30
0.0
  0
VERTEX
  5
7CA
  8
0
  6
DASHED
 62
     7
 10
-215.183391
 20
376.33756799999998
 30
0.0
  0
VERTEX
  5
7CB
  8
0
  6
DASHED
 62
     7
 10
-214.72729799999991
 20
376.469447
 30
0.0
  0
SEQEND
  5
7CC
  8
0
  6
DASHED
 62
     7
  0
POLYLINE
  5
43E
  8
0
  6
DASHED
 62
     7
 66
     1
 10
0.0
 20
0.0
 30
0.0
  0
VERTEX
  5
7CD
  8
0
  6
DASHED
 62
     7
 10
-195.80859699999991
 20
379.970956
 30
0.0
  0
VERTEX
  5
7CE
  8
0
  6
DASHED
 62
     7
 10
-196.2470659999999
 20
379.9590189999999
 30
0.0
  0
VERTEX
  5
7CF
  8
0
  6
DASHED
 62
     7
 10
-196.68385599999999
 20
379.94913100000002
 30
0.0
  0
VERTEX
  5
7D0
  8
0
  6
DASHED
 62
     7
 10
-197.11727500000001
 20
379.94132000000002
 30
0.0
  0
VERTEX
  5
7D1
  8
0
  6
DASHED
 62
     7
 10
-197.54902999999999
 20
379.93554499999999
 30
0.0
  0
VERTEX
  5
7D2
  8
0
  6
DASHED
 62
     7
 10
-197.97744299999991
 20
379.93181299999992
 30
0.0
  0
VERTEX
  5
7D3
  8
0
  6
DASHED
 62
     7
 10
-198.40421599999991
 20
379.93009999999992
 30
0.0
  0
VERTEX
  5
7D4
  8
0
  6
DASHED
 62
     7
 10
-198.8276929999999
 20
379.9304009999999
 30
0.0
  0
VERTEX
  5
7D5
  8
0
  6
DASHED
 62
     7
 10
-199.2495449999999
 20
379.932704
 30
0.0
  0
VERTEX
  5
7D6
  8
0
  6
DASHED
 62
     7
 10
-199.66813999999991
 20
379.93698999999992
 30
0.0
  0
VERTEX
  5
7D7
  8
0
  6
DASHED
 62
     7
 10
-200.08511699999991
 20
379.943262
 30
0.0
  0
VERTEX
  5
7D8
  8
0
  6
DASHED
 62
     7
 10
-200.49888899999991
 20
379.95148799999993
 30
0.0
  0
VERTEX
  5
7D9
  8
0
  6
DASHED
 62
     7
 10
-200.91105200000001
 20
379.96168399999999
 30
0.0
  0
VERTEX
  5
7DA
  8
0
  6
DASHED
 62
     7
 10
-201.32004900000001
 20
379.97380399999997
 30
0.0
  0
VERTEX
  5
7DB
  8
0
  6
DASHED
 62
     7
 10
-201.72745800000001
 20
379.98788100000002
 30
0.0
  0
VERTEX
  5
7DC
  8
0
  6
DASHED
 62
     7
 10
-202.1317479999999
 20
380.003851
 30
0.0
  0
VERTEX
  5
7DD
  8
0
  6
DASHED
 62
     7
 10
-202.53444999999999
 20
380.02176500000002
 30
0.0
  0
VERTEX
  5
7DE
  8
0
  6
DASHED
 62
     7
 10
-202.934078
 20
380.04154299999999
 30
0.0
  0
VERTEX
  5
7DF
  8
0
  6
DASHED
 62
     7
 10
-203.33214099999989
 20
380.06324999999993
 30
0.0
  0
VERTEX
  5
7E0
  8
0
  6
DASHED
 62
     7
 10
-203.72716799999989
 20
380.08679399999988
 30
0.0
  0
VERTEX
  5
7E1
  8
0
  6
DASHED
 62
     7
 10
-204.120632
 20
380.1122529999999
 30
0.0
  0
VERTEX
  5
7E2
  8
0
  6
DASHED
 62
     7
 10
-204.511112
 20
380.139523
 30
0.0
  0
VERTEX
  5
7E3
  8
0
  6
DASHED
 62
     7
 10
-204.9000429999999
 20
380.16869300000002
 30
0.0
  0
VERTEX
  5
7E4
  8
0
  6
DASHED
 62
     7
 10
-205.28602199999989
 20
380.19964700000003
 30
0.0
  0
VERTEX
  5
7E5
  8
0
  6
DASHED
 62
     7
 10
-205.670467
 20
380.23248899999987
 30
0.0
  0
VERTEX
  5
7E6
  8
0
  6
DASHED
 62
     7
 10
-206.05201299999999
 20
380.26708999999988
 30
0.0
  0
VERTEX
  5
7E7
  8
0
  6
DASHED
 62
     7
 10
-206.43203299999999
 20
380.30356399999999
 30
0.0
  0
VERTEX
  5
7E8
  8
0
  6
DASHED
 62
     7
 10
-206.809192
 20
380.34177299999988
 30
0.0
  0
VERTEX
  5
7E9
  8
0
  6
DASHED
 62
     7
 10
-207.1848249999999
 20
380.38184200000001
 30
0.0
  0
VERTEX
  5
7EA
  8
0
  6
DASHED
 62
     7
 10
-207.55765099999991
 20
380.42362099999991
 30
0.0
  0
VERTEX
  5
7EB
  8
0
  6
DASHED
 62
     7
 10
-207.928966
 20
380.46724899999998
 30
0.0
  0
VERTEX
  5
7EC
  8
0
  6
DASHED
 62
     7
 10
-208.29751099999999
 20
380.51256399999988
 30
0.0
  0
VERTEX
  5
7ED
  8
0
  6
DASHED
 62
     7
 10
-208.66455400000001
 20
380.55971299999987
 30
0.0
  0
VERTEX
  5
7EE
  8
0
  6
DASHED
 62
     7
 10
-209.028873
 20
380.60852799999992
 30
0.0
  0
VERTEX
  5
7EF
  8
0
  6
DASHED
 62
     7
 10
-209.391696
 20
380.65916399999998
 30
0.0
  0
VERTEX
  5
7F0
  8
0
  6
DASHED
 62
     7
 10
-209.75183399999989
 20
380.71144600000002
 30
0.0
  0
VERTEX
  5
7F1
  8
0
  6
DASHED
 62
     7
 10
-210.11049199999999
 20
380.765536
 30
0.0
  0
VERTEX
  5
7F2
  8
0
  6
DASHED
 62
     7
 10
-210.46650299999999
 20
380.8212509999999
 30
0.0
  0
VERTEX
  5
7F3
  8
0
  6
DASHED
 62
     7
 10
-210.82104100000001
 20
380.87876199999999
 30
0.0
  0
VERTEX
  5
7F4
  8
0
  6
DASHED
 62
     7
 10
-211.172977
 20
380.9378779999999
 30
0.0
  0
VERTEX
  5
7F5
  8
0
  6
DASHED
 62
     7
 10
-211.523448
 20
380.99877900000001
 30
0.0
  0
VERTEX
  5
7F6
  8
0
  6
DASHED
 62
     7
 10
-211.87135599999991
 20
381.06126399999999
 30
0.0
  0
VERTEX
  5
7F7
  8
0
  6
DASHED
 62
     7
 10
-212.21782200000001
 20
381.12552499999993
 30
0.0
  0
VERTEX
  5
7F8
  8
0
  6
DASHED
 62
     7
 10
-212.561756
 20
381.191351
 30
0.0
  0
VERTEX
  5
7F9
  8
0
  6
DASHED
 62
     7
 10
-212.904247
 20
381.25894099999999
 30
0.0
  0
VERTEX
  5
7FA
  8
0
  6
DASHED
 62
     7
 10
-213.39472499999991
 20
381.35932999999989
 30
0.0
  0
SEQEND
  5
7FB
  8
0
  6
DASHED
 62
     7
  0
POLYLINE
  5
46E
  8
0
  6
DASHED
 62
     7
 66
     1
 10
0.0
 20
0.0
 30
0.0
  0
VERTEX
  5
7FC
  8
0
  6
DASHED
 62
     7
 10
-235.80858900000001
 20
384.470956
 30
0.0
  0
VERTEX
  5
7FD
  8
0
  6
DASHED
 62
     7
 10
-234.173091
 20
384.29708199999999
 30
0.0
  0
VERTEX
  5
7FE
  8
0
  6
DASHED
 62
     7
 10
-232.5212049999999
 20
384.11234899999999
 30
0.0
  0
VERTEX
  5
7FF
  8
0
  6
DASHED
 62
     7
 10
-230.85280899999989
 20
383.91664399999991
 30
0.0
  0
VERTEX
  5
800
  8
0
  6
DASHED
 62
     7
 10
-229.16778099999999
 20
383.709858
 30
0.0
  0
VERTEX
  5
801
  8
0
  6
DASHED
 62
     7
 10
-227.46595300000001
 20
383.49187699999987
 30
0.0
  0
VERTEX
  5
802
  8
0
  6
DASHED
 62
     7
 10
-225.7472029999999
 20
383.26258499999989
 30
0.0
  0
VERTEX
  5
803
  8
0
  6
DASHED
 62
     7
 10
-224.011394
 20
383.02186999999998
 30
0.0
  0
VERTEX
  5
804
  8
0
  6
DASHED
 62
     7
 10
-222.25837300000001
 20
382.76961399999999
 30
0.0
  0
VERTEX
  5
805
  8
0
  6
DASHED
 62
     7
 10
-220.48801700000001
 20
382.50570199999999
 30
0.0
  0
VERTEX
  5
806
  8
0
  6
DASHED
 62
     7
 10
-218.70016799999999
 20
382.23001499999992
 30
0.0
  0
VERTEX
  5
807
  8
0
  6
DASHED
 62
     7
 10
-216.89469500000001
 20
381.94243599999987
 30
0.0
  0
VERTEX
  5
808
  8
0
  6
DASHED
 62
     7
 10
-215.07145299999999
 20
381.64284500000002
 30
0.0
  0
VERTEX
  5
809
  8
0
  6
DASHED
 62
     7
 10
-213.39472499999991
 20
381.35932999999989
 30
0.0
  0
SEQEND
  5
80A
  8
0
  6
DASHED
 62
     7
  0
LINE
  5
47E
  8
0
  6
DASHDOT
 62
     7
 10
-232.64310800000001
 20
408.06493799999993
 30
0.0
 11
-232.64310800000001
 21
393.1667819999999
 31
0.0
  0
LINE
  5
47F
  8
0
  6
DASHDOT
 62
     7
 10
-225.54030899999989
 20
400.47097000000002
 30
0.0
 11
-239.63950700000001
 21
400.47097000000002
 31
0.0
  0
ARC
  5
480
  8
0
 62
     7
 10
-232.64310800000001
 20
400.47097000000002
 30
0.0
 40
5.0
 50
0.000005
 51
180.0
  0
CIRCLE
  5
481
  8
0
 62
     7
 10
-232.64310800000001
 20
400.47097000000002
 30
0.0
 40
2.5
  0
LINE
  5
482
  8
0
 62
     7
 10
-242.6431079999999
 20
395.47097000000002
 30
0.0
 11
-329.14310799999993
 21
395.47097000000002
 31
0.0
  0
ARC
  5
483
  8
0
 62
     7
 10
-222.64310800000001
 20
400.47097000000002
 30
0.0
 40
5.0
 50
180.0
 51
270.00000299999988
  0
ARC
  5
484
  8
0
 62
     7
 10
-242.6431079999999
 20
400.47097000000002
 30
0.0
 40
5.0
 50
270.00000299999988
 51
0.000005
  0
LINE
  5
485
  8
0
  6
DASHDOT
 62
     7
 10
-341.64310799999993
 20
434.02603099999988
 30
0.0
 11
-341.64310799999993
 21
371.59597400000001
 31
0.0
  0
LINE
  5
486
  8
0
 62
     7
 10
-334.64310799999993
 20
398.47097000000002
 30
0.0
 11
-334.64310799999993
 21
379.22097000000002
 31
0.0
  0
LINE
  5
487
  8
0
 62
     7
 10
-348.64310799999998
 20
398.47097000000002
 30
0.0
 11
-348.64310799999998
 21
379.22097000000002
 31
0.0
  0
LINE
  5
488
  8
0
 62
     7
 10
-334.64310799999993
 20
398.47097000000002
 30
0.0
 11
-348.64310799999998
 21
398.47097000000002
 31
0.0
  0
LINE
  5
489
  8
0
 62
     7
 10
-339.64310799999993
 20
423.47097000000002
 30
0.0
 11
-343.64310799999993
 21
423.47097000000002
 31
0.0
  0
LINE
  5
48A
  8
0
 62
     7
 10
-338.64310799999993
 20
422.47097000000002
 30
0.0
 11
-338.64310799999993
 21
412.47097000000002
 31
0.0
  0
LINE
  5
48B
  8
0
 62
     7
 10
-344.64310799999993
 20
422.47097000000002
 30
0.0
 11
-344.64310799999993
 21
412.47097000000002
 31
0.0
  0
LINE
  5
48C
  8
0
 62
     7
 10
-338.64310799999993
 20
422.47097000000002
 30
0.0
 11
-344.64310799999993
 21
422.47097000000002
 31
0.0
  0
LINE
  5
48D
  8
0
 62
     7
 10
-343.64310799999993
 20
423.47097000000002
 30
0.0
 11
-344.64310799999993
 21
422.47097000000002
 31
0.0
  0
LINE
  5
48E
  8
0
 62
     7
 10
-338.64310799999993
 20
422.47097000000002
 30
0.0
 11
-339.64310799999993
 21
423.47097000000002
 31
0.0
  0
LINE
  5
48F
  8
0
 62
     7
 10
-339.64310799999993
 20
422.47097000000002
 30
0.0
 11
-339.64310799999993
 21
412.47097000000002
 31
0.0
  0
LINE
  5
490
  8
0
 62
     7
 10
-343.64310799999993
 20
422.47097000000002
 30
0.0
 11
-343.64310799999993
 21
412.47097000000002
 31
0.0
  0
LINE
  5
491
  8
0
 62
     7
 10
-335.64310799999998
 20
395.47097000000002
 30
0.0
 11
-347.64310799999993
 21
395.47097000000002
 31
0.0
  0
LINE
  5
492
  8
0
 62
     7
 10
-335.64310799999998
 20
398.47097000000002
 30
0.0
 11
-335.64310799999998
 21
395.47097000000002
 31
0.0
  0
LINE
  5
493
  8
0
 62
     7
 10
-347.64310799999993
 20
398.47097000000002
 30
0.0
 11
-347.64310799999993
 21
395.47097000000002
 31
0.0
  0
ARC
  5
494
  8
0
 62
     7
 10
-341.64310799999993
 20
402.20750800000002
 30
0.0
 40
9.0211380000000005
 50
228.30965699999999
 51
311.69034799999991
  0
LINE
  5
495
  8
0
 62
     2
 10
-366.14310799999993
 20
379.22097000000002
 30
0.0
 11
-366.14310799999993
 21
377.72097000000002
 31
0.0
  0
LINE
  5
496
  8
0
 62
     2
 10
-329.14310799999993
 20
377.72097000000002
 30
0.0
 11
-366.14310799999993
 21
377.72097000000002
 31
0.0
  0
LINE
  5
497
  8
0
 62
     7
 10
-320.14310799999993
 20
368.47089399999999
 30
0.0
 11
-330.14310799999993
 21
368.47089399999999
 31
0.0
  0
LINE
  5
498
  8
0
 62
     7
 10
-106.14310399999989
 20
368.47098399999999
 30
0.0
 11
-116.14310399999999
 21
368.47098399999999
 31
0.0
  0
LINE
  5
499
  8
0
  6
DASHED
 62
     7
 10
-83.643107999999998
 20
409.97096599999998
 30
0.0
 11
-86.143107999999998
 21
409.97096599999998
 31
0.0
  0
LINE
  5
49A
  8
0
  6
DASHED
 62
     7
 10
-82.643107999999998
 20
399.97096399999998
 30
0.0
 11
-87.143107999999984
 21
399.97096399999998
 31
0.0
  0
LINE
  5
49B
  8
0
  6
DASHED
 62
     7
 10
-82.643107999999998
 20
391.97096399999998
 30
0.0
 11
-87.143107999999984
 21
391.97096399999998
 31
0.0
  0
LINE
  5
49C
  8
0
 62
     7
 10
-80.143107999999998
 20
364.52474699999999
 30
0.0
 11
-87.143107999999984
 21
364.52474699999999
 31
0.0
  0
LINE
  5
49D
  8
0
  6
DASHED
 62
     7
 10
-82.643107999999998
 20
408.97096599999998
 30
0.0
 11
-82.643107999999998
 21
368.47097000000002
 31
0.0
  0
LINE
  5
49E
  8
0
 62
     7
 10
-80.143107999999998
 20
412.47097000000002
 30
0.0
 11
-80.143107999999998
 21
229.97096999999999
 31
0.0
  0
LINE
  5
49F
  8
0
  6
DASHED
 62
     7
 10
-87.143107999999984
 20
408.97096599999998
 30
0.0
 11
-87.143107999999984
 21
368.47097000000002
 31
0.0
  0
ARC
  5
4A0
  8
0
 62
     7
 10
-87.143107999999984
 20
224.97096999999999
 30
0.0
 40
5.0
 50
90.000000999999983
 51
270.00000299999988
  0
ARC
  5
4A1
  8
0
 62
     7
 10
-80.143107999999998
 20
224.97096999999999
 30
0.0
 40
5.0
 50
270.00000299999988
 51
90.000000999999983
  0
ARC
  5
4A2
  8
0
  6
DASHED
 62
     7
 10
-86.143107999999998
 20
408.97096599999998
 30
0.0
 40
1.0
 50
90.000000999999983
 51
180.0
  0
ARC
  5
4A3
  8
0
  6
DASHED
 62
     7
 10
-83.643107999999998
 20
408.97096599999998
 30
0.0
 40
1.0
 50
0.000005
 51
90.000000999999983
  0
LINE
  5
4A4
  8
0
 62
     7
 10
-80.143107999999998
 20
366.47096499999992
 30
0.0
 11
-87.143107999999984
 21
366.47096499999992
 31
0.0
  0
LINE
  5
4A5
  8
0
 62
     7
 10
-87.143107999999984
 20
368.47097000000002
 30
0.0
 11
-87.143107999999984
 21
229.97096999999999
 31
0.0
  0
LINE
  5
4A6
  8
0
 62
     7
 10
-82.643107999999998
 20
368.47097000000002
 30
0.0
 11
-82.643107999999998
 21
366.47096499999992
 31
0.0
  0
LINE
  5
4A7
  8
0
  6
DASHDOT
 62
     7
 10
-91.643107999999998
 20
434.02603099999988
 30
0.0
 11
-91.643107999999998
 21
408.59173599999991
 31
0.0
  0
LINE
  5
4A8
  8
0
 62
     7
 10
-89.643107999999984
 20
423.47097000000002
 30
0.0
 11
-92.907443999999984
 21
423.47097000000002
 31
0.0
  0
LINE
  5
4A9
  8
0
 62
     7
 10
-88.643107999999998
 20
422.47097000000002
 30
0.0
 11
-88.643107999999998
 21
412.47097000000002
 31
0.0
  0
LINE
  5
4AA
  8
0
 62
     7
 10
-88.643107999999998
 20
422.47097000000002
 30
0.0
 11
-92.898717000000005
 21
422.47097000000002
 31
0.0
  0
LINE
  5
4AB
  8
0
 62
     7
 10
-88.643107999999998
 20
422.47097000000002
 30
0.0
 11
-89.643107999999984
 21
423.47097000000002
 31
0.0
  0
LINE
  5
4AC
  8
0
 62
     7
 10
-89.643107999999984
 20
422.47097000000002
 30
0.0
 11
-89.643107999999984
 21
412.47097000000002
 31
0.0
  0
LINE
  5
4AD
  8
0
 62
     3
 10
-88.643107999999998
 20
422.47097000000002
 30
0.0
 11
-88.643107999999998
 21
412.47097000000002
 31
0.0
  0
LINE
  5
4AE
  8
0
 62
     3
 10
-88.643107999999998
 20
422.47097000000002
 30
0.0
 11
-92.898717000000005
 21
422.47097000000002
 31
0.0
  0
LINE
  5
4AF
  8
0
 62
     3
 10
-89.643107999999984
 20
423.47097000000002
 30
0.0
 11
-92.907443999999984
 21
423.47097000000002
 31
0.0
  0
LINE
  5
4B0
  8
0
 62
     3
 10
-88.643107999999998
 20
422.47097000000002
 30
0.0
 11
-89.643107999999984
 21
423.47097000000002
 31
0.0
  0
LINE
  5
4B1
  8
0
  6
DASHDOT
 62
     7
 10
-91.643107999999998
 20
434.02603099999988
 30
0.0
 11
-91.643107999999998
 21
400.26488499999988
 31
0.0
  0
LINE
  5
4B2
  8
0
 62
   150
 10
-61.643104000000001
 20
422.470978
 30
0.0
 11
-61.643104000000001
 21
412.47097799999989
 31
0.0
  0
LINE
  5
4B3
  8
0
 62
   150
 10
-61.643104000000001
 20
412.47097799999989
 30
0.0
 11
-92.811448999999996
 21
412.47097799999989
 31
0.0
  0
LINE
  5
4B4
  8
0
  6
DASHDOT
 62
     7
 10
-66.643104000000008
 20
423.33357199999989
 30
0.0
 11
-66.643104000000008
 21
407.78278399999999
 31
0.0
  0
LINE
  5
4B5
  8
0
 62
   150
 10
-83.393103999999994
 20
425.47097799999989
 30
0.0
 11
-83.393103999999994
 21
424.47097799999989
 31
0.0
  0
LINE
  5
4B6
  8
0
 62
   150
 10
-74.893103999999994
 20
425.47097799999989
 30
0.0
 11
-74.893103999999994
 21
424.47097799999989
 31
0.0
  0
LINE
  5
4B7
  8
0
 62
   150
 10
-72.231556999999995
 20
424.47097799999989
 30
0.0
 11
-72.231556999999995
 21
422.470978
 31
0.0
  0
LINE
  5
4B8
  8
0
 62
   150
 10
-86.054649999999995
 20
424.47097799999989
 30
0.0
 11
-86.054649999999995
 21
422.470978
 31
0.0
  0
LINE
  5
4B9
  8
0
 62
   150
 10
-72.231556999999995
 20
424.47097799999989
 30
0.0
 11
-74.893103999999994
 21
424.47097799999989
 31
0.0
  0
LINE
  5
4BA
  8
0
 62
   150
 10
-82.857206000000005
 20
427.470978
 30
0.0
 11
-83.393103999999994
 21
425.47097799999989
 31
0.0
  0
LINE
  5
4BB
  8
0
 62
   150
 10
-74.893103999999994
 20
425.47097799999989
 30
0.0
 11
-75.429001999999997
 21
427.470978
 31
0.0
  0
LINE
  5
4BC
  8
0
 62
   150
 10
-83.393103999999994
 20
424.47097799999989
 30
0.0
 11
-86.054649999999995
 21
424.47097799999989
 31
0.0
  0
LINE
  5
4BD
  8
0
 62
   150
 10
-61.643104000000001
 20
422.470978
 30
0.0
 11
-72.231556999999995
 21
422.470978
 31
0.0
  0
LINE
  5
4BE
  8
0
 62
   150
 10
-86.054649999999995
 20
422.470978
 30
0.0
 11
-88.643107999999998
 21
422.470978
 31
0.0
  0
LINE
  5
4C0
  8
0
 62
   150
 10
-71.893103999999994
 20
419.970978
 30
0.0
 11
-86.393104000000008
 21
419.970978
 31
0.0
  0
LINE
  5
4C1
  8
0
 62
   150
 10
-76.143103999999994
 20
427.470978
 30
0.0
 11
-76.143103999999994
 21
419.970978
 31
0.0
  0
LINE
  5
4C2
  8
0
 62
   150
 10
-82.143103999999994
 20
427.470978
 30
0.0
 11
-82.143103999999994
 21
419.970978
 31
0.0
  0
LINE
  5
4C3
  8
0
 62
     1
 10
-76.643104000000008
 20
421.57097599999997
 30
0.0
 11
-81.643104000000008
 21
421.57097599999997
 31
0.0
  0
LINE
  5
4C4
  8
0
 62
     1
 10
-76.643104000000008
 20
444.970978
 30
0.0
 11
-81.643104000000008
 21
444.970978
 31
0.0
  0
LINE
  5
4C5
  8
0
 62
     1
 10
-74.482675
 20
417.47097799999989
 30
0.0
 11
-83.803533000000016
 21
417.47097799999989
 31
0.0
  0
LINE
  5
4C6
  8
0
 62
     1
 10
-81.643104000000008
 20
444.970978
 30
0.0
 11
-81.643104000000008
 21
419.970978
 31
0.0
  0
LINE
  5
4C7
  8
0
 62
     1
 10
-76.643104000000008
 20
444.970978
 30
0.0
 11
-76.643104000000008
 21
419.970978
 31
0.0
  0
ARC
  5
4C8
  8
0
 62
     1
 10
-79.143104000000008
 20
426.17097899999999
 30
0.0
 40
10.0
 50
242.30989700000001
 51
268.13755999999989
  0
LINE
  5
4C9
  8
0
 62
     1
 10
-83.78999499999999
 20
417.31623799999988
 30
0.0
 11
-84.022255999999985
 21
419.970978
 31
0.0
  0
LINE
  5
4CA
  8
0
 62
     1
 10
-74.263952000000003
 20
419.970978
 30
0.0
 11
-74.496212999999997
 21
417.31623799999988
 31
0.0
  0
LINE
  5
4CB
  8
0
 62
     1
 10
-74.263952000000003
 20
419.970978
 30
0.0
 11
-84.022255999999985
 21
419.970978
 31
0.0
  0
LINE
  5
4CC
  8
0
 62
     7
 10
-81.152359000000004
 20
444.970978
 30
0.0
 11
-81.152359000000004
 21
421.57097599999997
 31
0.0
  0
LINE
  5
4CD
  8
0
 62
     7
 10
-77.133848
 20
444.970978
 30
0.0
 11
-77.133848
 21
421.57097599999997
 31
0.0
  0
LINE
  5
4CE
  8
0
  6
DASHED
 62
     7
 10
-76.643104000000008
 20
419.970978
 30
0.0
 11
-81.643104000000008
 21
419.970978
 31
0.0
  0
LINE
  5
4CF
  8
0
  6
DASHDOT
 62
     7
 10
-79.143104000000008
 20
455.8218609999999
 30
0.0
 11
-79.143104000000008
 21
412.17097899999987
 31
0.0
  0
LINE
  5
4D0
  8
0
 62
     1
 10
-78.818104000000005
 20
416.82097599999992
 30
0.0
 11
-79.468103999999997
 21
416.82097599999992
 31
0.0
  0
LINE
  5
4D1
  8
0
 62
     1
 10
-79.468103999999997
 20
416.82097599999992
 30
0.0
 11
-79.468103999999997
 21
416.17626200000001
 31
0.0
  0
LINE
  5
4D2
  8
0
 62
     1
 10
-78.818104000000005
 20
416.82097599999992
 30
0.0
 11
-78.818104000000005
 21
416.17626200000001
 31
0.0
  0
ARC
  5
4D3
  8
0
 62
     1
 10
-79.143104000000008
 20
426.17097899999999
 30
0.0
 40
10.0
 50
271.862438
 51
297.69010200000008
  0
LINE
  5
4D4
  8
0
 62
   150
 10
-69.393103999999994
 20
422.470978
 30
0.0
 11
-69.393103999999994
 21
412.47097799999989
 31
0.0
  0
LINE
  5
4D5
  8
0
 62
   150
 10
-63.893104000000001
 20
422.470978
 30
0.0
 11
-63.893104000000001
 21
412.47097799999989
 31
0.0
  0
LINE
  5
4D6
  8
0
 62
     7
 10
-89.643107999999984
 20
422.47097000000002
 30
0.0
 11
-89.643107999999984
 21
414.03010599999988
 31
0.0
  0
LINE
  5
4D7
  8
0
  6
DASHED
 62
     7
 10
-256.64310799999998
 20
385.97097000000002
 30
0.0
 11
-256.64310799999998
 21
369.97097000000002
 31
0.0
  0
LINE
  5
4D8
  8
0
  6
DASHED
 62
     7
 10
-276.64310799999993
 20
385.97097000000002
 30
0.0
 11
-276.64310799999993
 21
369.47097000000002
 31
0.0
  0
LINE
  5
4D9
  8
0
 62
   150
 10
-71.893103999999994
 20
419.970978
 30
0.0
 11
-71.893103999999994
 21
412.47097799999989
 31
0.0
  0
LINE
  5
4DA
  8
0
 62
   150
 10
-86.393104000000008
 20
419.970978
 30
0.0
 11
-86.393104000000008
 21
412.47097799999989
 31
0.0
  0
LINE
  5
4DB
  8
0
 62
     3
 10
-136.64310399999991
 20
354.47097000000002
 30
0.0
 11
-136.64310399999991
 21
348.47097000000002
 31
0.0
  0
LINE
  5
4DC
  8
0
 62
     3
 10
-161.0559649999999
 20
355.782197
 30
0.0
 11
-166.44202699999991
 21
368.47097000000002
 31
0.0
  0
LINE
  5
4DD
  8
0
 62
     3
 10
-136.64310399999991
 20
354.47097000000002
 30
0.0
 11
-150.009906
 21
354.47097000000002
 31
0.0
  0
LINE
  5
4DE
  8
0
 62
     3
 10
-155.53293599999989
 20
358.12658299999993
 30
0.0
 11
-159.92386200000001
 21
368.47097000000002
 31
0.0
  0
ARC
  5
4DF
  8
0
 62
     3
 10
-150.009906
 20
360.47097000000002
 30
0.0
 40
6.0
 50
203.0
 51
270.00000299999988
  0
ARC
  5
4E0
  8
0
 62
     3
 10
-150.009906
 20
360.47097000000002
 30
0.0
 40
12.0
 50
203.0
 51
270.00000299999988
  0
LINE
  5
4E1
  8
0
  6
DASHED
 62
     7
 10
-235.80855899999989
 20
369.47097000000002
 30
0.0
 11
-276.64310799999993
 21
369.47097000000002
 31
0.0
  0
LINE
  5
4E2
  8
0
 62
     7
 10
-126.64311499999999
 20
366.47092400000002
 30
0.0
 11
-306.65191199999998
 21
366.47092400000002
 31
0.0
  0
LINE
  5
4E3
  8
0
 62
     7
 10
-242.64312299999989
 20
302.47093999999993
 30
0.0
 11
-242.64312299999989
 21
294.47093999999993
 31
0.0
  0
LINE
  5
4E4
  8
0
 62
     7
 10
-200.14313799999999
 20
302.47093999999993
 30
0.0
 11
-242.64312299999989
 21
302.47093999999993
 31
0.0
  0
LINE
  5
4E5
  8
0
 62
     7
 10
-272.64307699999989
 20
304.47092400000002
 30
0.0
 11
-277.14309300000002
 21
304.47092400000002
 31
0.0
  0
LINE
  5
4E6
  8
0
 62
     7
 10
-153.143146
 20
294.47092400000002
 30
0.0
 11
-154.14316099999999
 21
294.47092400000002
 31
0.0
  0
LINE
  5
4E7
  8
0
 62
     7
 10
-153.143146
 20
272.27092699999997
 30
0.0
 11
-153.143146
 21
271.97092400000002
 31
0.0
  0
LINE
  5
4E8
  8
0
 62
     7
 10
-154.14313100000001
 20
297.47092400000002
 30
0.0
 11
-154.14313100000001
 21
294.47092400000002
 31
0.0
  0
LINE
  5
4E9
  8
0
 62
     7
 10
-154.14313100000001
 20
297.47092400000002
 30
0.0
 11
-200.14318399999999
 21
297.47092400000002
 31
0.0
  0
LINE
  5
4EA
  8
0
 62
     7
 10
-263.866512
 20
294.47097000000002
 30
0.0
 11
-274.14309300000002
 21
294.47097000000002
 31
0.0
  0
LINE
  5
4EB
  8
0
 62
     7
 10
-185.64318399999999
 20
297.47093999999998
 30
0.0
 11
-197.64315400000001
 21
297.47093999999998
 31
0.0
  0
LINE
  5
4EC
  8
0
 62
     7
 10
-200.14318399999999
 20
298.47093999999993
 30
0.0
 11
-200.14318399999999
 21
297.47093999999998
 31
0.0
  0
LINE
  5
4ED
  8
0
 62
     7
 10
-271.143123
 20
294.47097000000002
 30
0.0
 11
-274.14312299999989
 21
294.47097000000002
 31
0.0
  0
LINE
  5
4EE
  8
0
 62
     7
 10
-200.14318399999999
 20
302.47093999999993
 30
0.0
 11
-200.14318399999999
 21
297.470955
 31
0.0
  0
LINE
  5
4EF
  8
0
 62
     7
 10
-197.64315400000001
 20
297.47093999999998
 30
0.0
 11
-200.14318399999999
 21
297.47093999999998
 31
0.0
  0
LINE
  5
4F0
  8
0
 62
     7
 10
-131.44313399999999
 20
313.88837099999989
 30
0.0
 11
-131.44313399999999
 21
272.27091200000001
 31
0.0
  0
LINE
  5
4F1
  8
0
 62
     7
 10
-131.443141
 20
272.27101899999991
 30
0.0
 11
-153.1431539999999
 21
272.27101899999991
 31
0.0
  0
LINE
  5
4F2
  8
0
 62
     7
 10
-131.44313399999999
 20
294.47092400000002
 30
0.0
 11
-153.14313100000001
 21
294.47092400000002
 31
0.0
  0
LINE
  5
4F3
  8
0
 62
     7
 10
-163.89310800000001
 20
266.97090900000001
 30
0.0
 11
-163.89310800000001
 21
255.97090899999989
 31
0.0
  0
LINE
  5
4F4
  8
0
 62
     7
 10
-268.89307700000001
 20
264.97090899999989
 30
0.0
 11
-268.89307700000001
 21
255.97090899999989
 31
0.0
  0
LINE
  5
4F5
  8
0
 62
     7
 10
-268.89307700000001
 20
266.97090900000001
 30
0.0
 11
-285.14307699999989
 21
266.97090900000001
 31
0.0
  0
LINE
  5
4F6
  8
0
 62
     7
 10
-126.64311499999999
 20
266.97090900000001
 30
0.0
 11
-163.89310800000001
 21
266.97090900000001
 31
0.0
  0
LINE
  5
4F7
  8
0
 62
     7
 10
-153.14309999999989
 20
271.97090900000001
 30
0.0
 11
-153.14309999999989
 21
266.97090900000001
 31
0.0
  0
LINE
  5
4F8
  8
0
 62
     7
 10
-285.14307699999989
 20
272.27089699999999
 30
0.0
 11
-285.14307699999989
 21
266.97090900000001
 31
0.0
  0
LINE
  5
4F9
  8
0
 62
     7
 10
-163.89310800000001
 20
264.97090899999989
 30
0.0
 11
-268.89307700000001
 21
264.97090899999989
 31
0.0
  0
LINE
  5
4FA
  8
0
 62
     7
 10
-268.89307700000001
 20
266.97090900000001
 30
0.0
 11
-268.89307700000001
 21
264.97090899999989
 31
0.0
  0
LINE
  5
4FB
  8
0
 62
     7
 10
-163.89310800000001
 20
266.97090900000001
 30
0.0
 11
-163.89310800000001
 21
264.97090899999989
 31
0.0
  0
LINE
  5
4FC
  8
0
 62
     7
 10
-242.64315400000001
 20
294.470955
 30
0.0
 11
-305.549419
 21
294.470955
 31
0.0
  0
LINE
  5
4FD
  8
0
 62
     7
 10
-305.549419
 20
299.87139100000002
 30
0.0
 11
-305.549419
 21
272.27091200000001
 31
0.0
  0
LINE
  5
4FE
  8
0
 62
     7
 10
-285.14307699999989
 20
272.27089699999999
 30
0.0
 11
-305.549419
 21
272.27089699999999
 31
0.0
  0
LINE
  5
4FF
  8
0
 62
     7
 10
-272.64307699999989
 20
304.47089399999999
 30
0.0
 11
-272.64307699999989
 21
294.47089399999987
 31
0.0
  0
LINE
  5
500
  8
0
 62
     7
 10
-285.64307700000001
 20
271.97090900000001
 30
0.0
 11
-285.64307700000001
 21
266.97090900000001
 31
0.0
  0
LINE
  5
501
  8
0
 62
     7
 10
-268.89307700000001
 20
266.97090900000001
 30
0.0
 11
-354.14310799999993
 21
266.97090900000001
 31
0.0
  0
ARC
  5
502
  8
0
 62
     7
 10
-238.43696199999999
 20
235.29586
 30
0.0
 40
1.0
 50
258.62357099999991
 51
346.68878499999988
  0
ARC
  5
503
  8
0
 62
     7
 10
-244.38477700000001
 20
236.49260699999999
 30
0.0
 40
1.000000999999999
 50
170.5939919999999
 51
258.62357099999991
  0
LINE
  5
504
  8
0
 62
     7
 10
-232.51769599999989
 20
255.97090899999989
 30
0.0
 11
-237.46381700000001
 21
235.06562
 31
0.0
  0
LINE
  5
505
  8
0
 62
     7
 10
-238.63421199999999
 20
234.31549799999991
 30
0.0
 11
-244.58202700000001
 21
235.51224500000001
 31
0.0
  0
LINE
  5
506
  8
0
 62
     7
 10
-242.1716879999999
 20
255.97090899999989
 30
0.0
 11
-245.37133399999991
 21
236.6560289999999
 31
0.0
  0
LINE
  5
507
  8
0
 62
     7
 10
-136.643135
 20
348.47091699999987
 30
0.0
 11
-136.643135
 21
343.47091699999999
 31
0.0
  0
LINE
  5
508
  8
0
  6
DASHDOT
 62
     7
 10
-146.64308500000001
 20
355.90025999999989
 30
0.0
 11
-146.64308500000001
 21
327.766975
 31
0.0
  0
POLYLINE
  5
509
  8
0
 62
     7
 66
     1
 10
0.0
 20
0.0
 30
0.0
  0
VERTEX
  5
80B
  8
0
 62
     7
 10
-157.1107669999999
 20
329.67536499999989
 30
0.0
  0
VERTEX
  5
80C
  8
0
 62
     7
 10
-164.40189699999991
 20
332.97982400000001
 30
0.0
  0
VERTEX
  5
80D
  8
0
 62
     7
 10
-166.138317
 20
331.57097999999991
 30
0.0
  0
VERTEX
  5
80E
  8
0
 62
     7
 10
-165.39793700000001
 20
335.62706800000001
 30
0.0
  0
VERTEX
  5
80F
  8
0
 62
     7
 10
-167.13435699999991
 20
334.21822400000002
 30
0.0
  0
SEQEND
  5
810
  8
0
 62
     7
  0
LINE
  5
510
  8
0
 62
     7
 10
-136.643135
 20
343.47091899999992
 30
0.0
 11
-167.13435699999991
 21
343.47091899999992
 31
0.0
  0
LINE
  5
511
  8
0
 62
     7
 10
-150.009906
 20
348.47091699999987
 30
0.0
 11
-167.13435699999991
 21
348.47091699999987
 31
0.0
  0
LINE
  5
512
  8
0
 62
     7
 10
-157.64313100000001
 20
343.47091899999992
 30
0.0
 11
-157.64313100000001
 21
329.91664500000002
 31
0.0
  0
LINE
  5
513
  8
0
 62
     7
 10
-161.64313100000001
 20
343.47091899999992
 30
0.0
 11
-161.64313100000001
 21
331.72951099999989
 31
0.0
  0
POLYLINE
  5
514
  8
0
 62
     7
 66
     1
 10
0.0
 20
0.0
 30
0.0
  0
VERTEX
  5
811
  8
0
 62
     7
 10
-167.13435699999991
 20
366.47098499999993
 30
0.0
  0
VERTEX
  5
812
  8
0
 62
     7
 10
-167.13435699999991
 20
350.47098499999993
 30
0.0
  0
VERTEX
  5
813
  8
0
 62
     7
 10
-165.13435699999991
 20
349.47098499999998
 30
0.0
  0
VERTEX
  5
814
  8
0
 62
     7
 10
-169.13435699999991
 20
348.47098499999993
 30
0.0
  0
VERTEX
  5
815
  8
0
 62
     7
 10
-167.13435699999991
 20
347.47098499999993
 30
0.0
  0
VERTEX
  5
816
  8
0
 62
     7
 10
-167.13435699999991
 20
334.21822400000002
 30
0.0
  0
SEQEND
  5
817
  8
0
 62
     7
  0
LINE
  5
51C
  8
0
 62
     7
 10
-164.14313100000001
 20
353.47091699999987
 30
0.0
 11
-164.14313100000001
 21
348.47091699999987
 31
0.0
  0
LINE
  5
51D
  8
0
 62
     7
 10
-164.14313100000001
 20
353.47091699999987
 30
0.0
 11
-167.13435699999991
 21
356.46213899999998
 31
0.0
  0
LINE
  5
51E
  8
0
 62
     7
 10
-286.34954399999992
 20
348.47091699999987
 30
0.0
 11
-286.34954399999992
 21
343.47091899999992
 31
0.0
  0
LINE
  5
51F
  8
0
 62
     7
 10
-294.34954399999992
 20
348.47091699999987
 30
0.0
 11
-294.34954399999992
 21
343.47091899999992
 31
0.0
  0
LINE
  5
520
  8
0
 62
     7
 10
-269.858272
 20
343.47091899999992
 30
0.0
 11
-300.34948300000002
 21
343.47091899999992
 31
0.0
  0
POLYLINE
  5
521
  8
0
 62
     7
 66
     1
 10
0.0
 20
0.0
 30
0.0
  0
VERTEX
  5
818
  8
0
 62
     7
 10
-269.858272
 20
366.97089399999999
 30
0.0
  0
VERTEX
  5
819
  8
0
 62
     7
 10
-269.858272
 20
350.97089399999987
 30
0.0
  0
VERTEX
  5
81A
  8
0
 62
     7
 10
-267.858272
 20
349.97089399999999
 30
0.0
  0
VERTEX
  5
81B
  8
0
 62
     7
 10
-271.858272
 20
348.97089399999987
 30
0.0
  0
VERTEX
  5
81C
  8
0
 62
     7
 10
-269.858272
 20
347.97089399999999
 30
0.0
  0
VERTEX
  5
81D
  8
0
 62
     7
 10
-269.858272
 20
331.97089399999987
 30
0.0
  0
VERTEX
  5
81E
  8
0
 62
     7
 10
-267.858272
 20
330.97089399999999
 30
0.0
  0
VERTEX
  5
81F
  8
0
 62
     7
 10
-271.858272
 20
329.97089399999987
 30
0.0
  0
VERTEX
  5
820
  8
0
 62
     7
 10
-269.858272
 20
328.97089399999999
 30
0.0
  0
VERTEX
  5
821
  8
0
 62
     7
 10
-269.858272
 20
312.97089399999987
 30
0.0
  0
VERTEX
  5
822
  8
0
 62
     7
 10
-267.858272
 20
311.97089399999987
 30
0.0
  0
VERTEX
  5
823
  8
0
 62
     7
 10
-271.858272
 20
310.97089399999987
 30
0.0
  0
VERTEX
  5
824
  8
0
 62
     7
 10
-269.858272
 20
309.97089399999987
 30
0.0
  0
VERTEX
  5
825
  8
0
 62
     7
 10
-269.858272
 20
309.67524700000001
 30
0.0
  0
SEQEND
  5
826
  8
0
 62
     7
  0
POLYLINE
  5
531
  8
0
 62
     7
 66
     1
 10
0.0
 20
0.0
 30
0.0
  0
VERTEX
  5
827
  8
0
 62
     7
 10
-268.3736679999999
 20
310.08304600000002
 30
0.0
  0
VERTEX
  5
828
  8
0
 62
     7
 10
-283.80219599999992
 20
305.84504700000002
 30
0.0
  0
VERTEX
  5
829
  8
0
 62
     7
 10
-284.23671999999988
 20
303.65161099999989
 30
0.0
  0
VERTEX
  5
82A
  8
0
 62
     7
 10
-286.26050900000001
 20
307.24386600000003
 30
0.0
  0
VERTEX
  5
82B
  8
0
 62
     7
 10
-286.69504899999998
 20
305.05042300000002
 30
0.0
  0
VERTEX
  5
82C
  8
0
 62
     7
 10
-302.123561
 20
300.81243099999989
 30
0.0
  0
VERTEX
  5
82D
  8
0
 62
     7
 10
-302.55810099999991
 20
298.61898799999989
 30
0.0
  0
VERTEX
  5
82E
  8
0
 62
     7
 10
-304.58187400000003
 20
302.21124300000002
 30
0.0
  0
VERTEX
  5
82F
  8
0
 62
     7
 10
-305.016414
 20
300.01779900000002
 30
0.0
  0
VERTEX
  5
830
  8
0
 62
     7
 10
-320.44494199999991
 20
295.77980799999989
 30
0.0
  0
VERTEX
  5
831
  8
0
 62
     7
 10
-320.87946599999998
 20
293.58636499999989
 30
0.0
  0
VERTEX
  5
832
  8
0
 62
     7
 10
-322.90325499999989
 20
297.17861899999991
 30
0.0
  0
VERTEX
  5
833
  8
0
 62
     7
 10
-323.33779500000003
 20
294.985184
 30
0.0
  0
VERTEX
  5
834
  8
0
 62
     7
 10
-338.76630699999993
 20
290.74718499999989
 30
0.0
  0
VERTEX
  5
835
  8
0
 62
     7
 10
-339.20084700000001
 20
288.55374099999989
 30
0.0
  0
VERTEX
  5
836
  8
0
 62
     7
 10
-341.22462000000002
 20
292.14600399999989
 30
0.0
  0
VERTEX
  5
837
  8
0
 62
     7
 10
-341.65915999999987
 20
289.95256000000001
 30
0.0
  0
VERTEX
  5
838
  8
0
 62
     7
 10
-354.14310799999993
 20
286.52339899999998
 30
0.0
  0
SEQEND
  5
839
  8
0
 62
     7
  0
LINE
  5
545
  8
0
 62
     7
 10
-275.34954399999998
 20
366.47089499999998
 30
0.0
 11
-275.34954399999998
 21
348.47091699999987
 31
0.0
  0
LINE
  5
546
  8
0
 62
     7
 10
-271.34954399999992
 20
368.47089399999999
 30
0.0
 11
-271.34954399999992
 21
348.47091699999987
 31
0.0
  0
LINE
  5
547
  8
0
 62
     7
 10
-279.34954399999998
 20
343.47091899999992
 30
0.0
 11
-279.34954399999998
 21
307.068127
 31
0.0
  0
LINE
  5
548
  8
0
 62
     7
 10
-275.34954399999998
 20
343.47091899999992
 30
0.0
 11
-275.34954399999998
 21
308.16687000000002
 31
0.0
  0
LINE
  5
549
  8
0
 62
     7
 10
-277.14309300000002
 20
366.47092400000002
 30
0.0
 11
-277.14309300000002
 21
304.47092400000002
 31
0.0
  0
LINE
  5
54A
  8
0
 62
     7
 10
-163.89310800000001
 20
255.97090899999989
 30
0.0
 11
-268.89307700000001
 21
255.97090899999989
 31
0.0
  0
POLYLINE
  5
54B
  8
0
 62
     7
 66
     1
 10
0.0
 20
0.0
 30
0.0
  0
VERTEX
  5
83A
  8
0
 62
     7
 10
-157.1107669999999
 20
329.67536499999989
 30
0.0
  0
VERTEX
  5
83B
  8
0
 62
     7
 10
-157.1107669999999
 20
328.52135800000002
 30
0.0
  0
VERTEX
  5
83C
  8
0
 62
     7
 10
-155.1107669999999
 20
327.52135800000002
 30
0.0
  0
VERTEX
  5
83D
  8
0
 62
     7
 10
-159.1107669999999
 20
326.52135800000002
 30
0.0
  0
VERTEX
  5
83E
  8
0
 62
     7
 10
-157.1107669999999
 20
325.52135800000002
 30
0.0
  0
SEQEND
  5
83F
  8
0
 62
     7
  0
POLYLINE
  5
552
  8
0
 62
     7
 66
     1
 10
0.0
 20
0.0
 30
0.0
  0
VERTEX
  5
840
  8
0
 62
     7
 10
-126.64311499999999
 20
311.71292099999988
 30
0.0
  0
VERTEX
  5
841
  8
0
 62
     7
 10
-141.21626599999991
 20
318.31771099999992
 30
0.0
  0
VERTEX
  5
842
  8
0
 62
     7
 10
-142.9526899999999
 20
316.90886699999987
 30
0.0
  0
VERTEX
  5
843
  8
0
 62
     7
 10
-142.21231
 20
320.96495399999998
 30
0.0
  0
VERTEX
  5
844
  8
0
 62
     7
 10
-143.948734
 20
319.55610999999988
 30
0.0
  0
VERTEX
  5
845
  8
0
 62
     7
 10
-157.1107669999999
 20
325.52135800000002
 30
0.0
  0
SEQEND
  5
846
  8
0
 62
     7
  0
LINE
  5
55A
  8
0
 62
     7
 10
-308.34945199999993
 20
368.47097000000002
 30
0.0
 11
-308.34945199999993
 21
299.10226399999999
 31
0.0
  0
LINE
  5
55B
  8
0
 62
     7
 10
-320.14310799999993
 20
368.47089399999999
 30
0.0
 11
-330.14310799999993
 21
368.47089399999999
 31
0.0
  0
LINE
  5
55C
  8
0
 62
     7
 10
-143.64309999999989
 20
368.47098399999999
 30
0.0
 11
-143.64309999999989
 21
366.47098499999993
 31
0.0
  0
LINE
  5
55D
  8
0
 62
     7
 10
-153.6431
 20
368.47098399999999
 30
0.0
 11
-153.6431
 21
366.47098499999993
 31
0.0
  0
LINE
  5
55E
  8
0
 62
     1
 10
-141.14308500000001
 20
334.47092099999992
 30
0.0
 11
-152.14308500000001
 21
334.47092099999992
 31
0.0
  0
LINE
  5
55F
  8
0
 62
     1
 10
-153.14308500000001
 20
342.47091899999992
 30
0.0
 11
-153.14308500000001
 21
335.47092099999992
 31
0.0
  0
LINE
  5
560
  8
0
 62
     1
 10
-140.14308500000001
 20
342.47091899999992
 30
0.0
 11
-140.14308500000001
 21
335.47092099999992
 31
0.0
  0
ARC
  5
561
  8
0
 62
     7
 10
-397.14310799999993
 20
365.47097000000002
 30
0.0
 40
5.0
 50
180.0
 51
270.00000299999988
  0
LINE
  5
562
  8
0
 62
     3
 10
-280.34954399999992
 20
350.97091699999987
 30
0.0
 11
-300.34954399999998
 21
350.97091699999987
 31
0.0
  0
LINE
  5
563
  8
0
  6
DASHDOT
 62
     3
 10
-290.34954399999998
 20
353.14056699999992
 30
0.0
 11
-290.34954399999998
 21
299.8819049999999
 31
0.0
  0
LINE
  5
564
  8
0
 62
     3
 10
-294.34954399999992
 20
348.47091699999987
 30
0.0
 11
-300.34954399999998
 21
348.47091699999987
 31
0.0
  0
LINE
  5
565
  8
0
 62
     3
 10
-280.34954399999992
 20
350.97091699999987
 30
0.0
 11
-280.34954399999992
 21
348.47091699999987
 31
0.0
  0
LINE
  5
566
  8
0
 62
     3
 10
-300.34954399999998
 20
350.97091699999987
 30
0.0
 11
-300.34954399999998
 21
313.97091699999987
 31
0.0
  0
LINE
  5
567
  8
0
 62
     3
 10
-296.34954399999992
 20
311.97091699999999
 30
0.0
 11
-298.34954399999998
 21
311.97091699999999
 31
0.0
  0
ARC
  5
568
  8
0
 62
     3
 10
-290.34954399999998
 20
348.47091699999987
 30
0.0
 40
4.0
 50
270.00000299999988
 51
0.000005
  0
ARC
  5
569
  8
0
 62
     3
 10
-282.34954399999992
 20
313.97091699999987
 30
0.0
 40
2.0
 50
270.00000299999988
 51
0.000005
  0
ARC
  5
56A
  8
0
 62
     3
 10
-298.34954399999998
 20
313.97091699999987
 30
0.0
 40
2.0
 50
180.0
 51
270.00000299999988
  0
ARC
  5
56B
  8
0
 62
     3
 10
-290.34954399999998
 20
348.47091699999987
 30
0.0
 40
4.0
 50
180.0
 51
270.00000299999988
  0
ARC
  5
56C
  8
0
 62
     3
 10
-290.34954399999998
 20
348.47091699999987
 30
0.0
 40
2.0
 50
172.81924100000001
 51
7.1807599999999994
  0
ARC
  5
56D
  8
0
 62
     3
 10
-286.38091600000001
 20
348.97091699999987
 30
0.0
 40
2.0
 50
90.000000999999983
 51
187.18075499999989
  0
ARC
  5
56E
  8
0
 62
     3
 10
-294.318172
 20
348.97091699999987
 30
0.0
 40
2.0
 50
352.81924900000001
 51
90.000000999999983
  0
LINE
  5
56F
  8
0
 62
     3
 10
-269.858272
 20
348.47091699999987
 30
0.0
 11
-286.34954399999992
 21
348.47091699999987
 31
0.0
  0
LINE
  5
570
  8
0
 62
     3
 10
-296.34954399999992
 20
319.47091699999987
 30
0.0
 11
-300.34954399999998
 21
319.47091699999987
 31
0.0
  0
LINE
  5
571
  8
0
 62
     3
 10
-296.34954399999992
 20
315.47091699999987
 30
0.0
 11
-300.34954399999998
 21
315.47091699999987
 31
0.0
  0
LINE
  5
572
  8
0
 62
     3
 10
-284.34954399999992
 20
316.97091699999987
 30
0.0
 11
-284.34954399999992
 21
312.97091699999987
 31
0.0
  0
LINE
  5
573
  8
0
 62
     3
 10
-296.34954399999992
 20
316.97091699999987
 30
0.0
 11
-296.34954399999992
 21
312.97091699999987
 31
0.0
  0
LINE
  5
574
  8
0
 62
     3
 10
-280.34954399999992
 20
343.47091899999992
 30
0.0
 11
-280.34954399999992
 21
313.97091699999987
 31
0.0
  0
LINE
  5
575
  8
0
 62
     3
 10
-280.34954399999992
 20
319.47091699999987
 30
0.0
 11
-284.34954399999992
 21
319.47091699999987
 31
0.0
  0
LINE
  5
576
  8
0
 62
     3
 10
-280.34954399999992
 20
315.47091699999987
 30
0.0
 11
-284.34954399999992
 21
315.47091699999987
 31
0.0
  0
LINE
  5
577
  8
0
 62
     3
 10
-282.34954399999992
 20
311.97091699999999
 30
0.0
 11
-284.34954399999992
 21
311.97091699999999
 31
0.0
  0
LINE
  5
578
  8
0
 62
     7
 10
-138.64308500000001
 20
343.47091899999992
 30
0.0
 11
-138.64308500000001
 21
342.47091899999992
 31
0.0
  0
LINE
  5
579
  8
0
 62
     7
 10
-154.64308500000001
 20
343.47091899999992
 30
0.0
 11
-154.64308500000001
 21
342.47091899999992
 31
0.0
  0
LINE
  5
57A
  8
0
 62
     7
 10
-138.64308500000001
 20
342.47091899999992
 30
0.0
 11
-154.64308500000001
 21
342.47091899999992
 31
0.0
  0
ARC
  5
57B
  8
0
 62
     1
 10
-141.14308500000001
 20
335.47092099999992
 30
0.0
 40
1.0
 50
270.00000299999988
 51
0.000005
  0
ARC
  5
57C
  8
0
 62
     1
 10
-152.14308500000001
 20
335.47092099999992
 30
0.0
 40
1.0
 50
180.0
 51
270.00000299999988
  0
LINE
  5
57D
  8
0
 62
     7
 10
-143.64308500000001
 20
362.47091899999992
 30
0.0
 11
-149.64308500000001
 21
362.47091899999992
 31
0.0
  0
LINE
  5
57E
  8
0
 62
     7
 10
-142.64308500000001
 20
361.47091899999992
 30
0.0
 11
-142.64308500000001
 21
354.47097000000002
 31
0.0
  0
LINE
  5
57F
  8
0
 62
     7
 10
-150.64308500000001
 20
361.47091899999992
 30
0.0
 11
-150.64308500000001
 21
354.47097000000002
 31
0.0
  0
LINE
  5
580
  8
0
 62
     7
 10
-142.64308500000001
 20
361.47091899999992
 30
0.0
 11
-143.64308500000001
 21
362.47091899999992
 31
0.0
  0
LINE
  5
581
  8
0
 62
     7
 10
-149.64308500000001
 20
362.47091899999992
 30
0.0
 11
-150.64308500000001
 21
361.47091899999992
 31
0.0
  0
LINE
  5
582
  8
0
 62
     7
 10
-143.64308500000001
 20
361.47091899999992
 30
0.0
 11
-143.64308500000001
 21
354.47097000000002
 31
0.0
  0
LINE
  5
583
  8
0
 62
     7
 10
-149.64308500000001
 20
361.47091899999992
 30
0.0
 11
-149.64308500000001
 21
354.47097000000002
 31
0.0
  0
LINE
  5
584
  8
0
 62
     7
 10
-142.64308500000001
 20
361.47091899999992
 30
0.0
 11
-150.64308500000001
 21
361.47091899999992
 31
0.0
  0
LINE
  5
585
  8
0
 62
     3
 10
-136.64310399999991
 20
348.47097000000002
 30
0.0
 11
-150.009906
 21
348.47091699999987
 31
0.0
  0
LINE
  5
586
  8
0
 62
     7
 10
-354.14310799999993
 20
368.47097000000002
 30
0.0
 11
-354.14310799999993
 21
266.97090900000001
 31
0.0
  0
LINE
  5
587
  8
0
 62
     7
 10
-126.64311499999999
 20
366.47098499999993
 30
0.0
 11
-126.64311499999999
 21
266.97090900000001
 31
0.0
  0
LINE
  5
588
  8
0
 62
     7
 10
-392.14310799999993
 20
368.47097000000002
 30
0.0
 11
-392.14310799999993
 21
365.47097000000002
 31
0.0
  0
LINE
  5
589
  8
0
 62
     7
 10
-392.14310799999993
 20
368.47097000000002
 30
0.0
 11
-392.14310799999993
 21
360.47097000000002
 31
0.0
  0
LINE
  5
58A
  8
0
 62
     7
 10
-392.14310799999993
 20
360.47097000000002
 30
0.0
 11
-397.14310799999993
 21
360.47097000000002
 31
0.0
  0
INSERT
  5
733
  8
0
  2
BLOCK0
 10
-398.76493799999992
 20
386.30354299999999
 30
0.0
 50
180.0
  0
INSERT
  5
734
  8
0
  2
BLOCK1
 10
-398.76493799999992
 20
386.30354299999999
 30
0.0
 50
180.0
  0
INSERT
  5
735
  8
0
  2
BLOCK2
 10
-398.76493799999992
 20
386.30354299999999
 30
0.0
 50
180.0
  0
INSERT
  5
736
  8
0
  2
BLOCK3
 10
-398.76493799999992
 20
386.30354299999999
 30
0.0
 50
180.0
  0
INSERT
  5
737
  8
0
  2
BLOCK4
 10
-91.643107999999998
 20
549.15025299999991
 30
0.0
  0
INSERT
  5
738
  8
0
  2
BLOCK5
 10
-91.643107999999998
 20
549.15025299999991
 30
0.0
  0
INSERT
  5
739
  8
0
  2
BLOCK6
 10
-91.643107999999998
 20
549.15025299999991
 30
0.0
  0
INSERT
  5
73A
  8
0
  2
BLOCK7
 10
-91.643107999999998
 20
549.15025299999991
 30
0.0
  0
INSERT
  5
73B
  8
0
  2
BLOCK8
 10
-91.643107999999998
 20
549.15025299999991
 30
0.0
  0
INSERT
  5
73C
  8
0
  2
BLOCK9
 10
-91.643107999999998
 20
549.15025299999991
 30
0.0
  0
INSERT
  5
73D
  8
0
  2
BLOCK10
 10
-91.643107999999998
 20
549.15025299999991
 30
0.0
  0
INSERT
  5
73E
  8
0
  2
BLOCK11
 10
-91.643107999999998
 20
368.47097000000002
 30
0.0
 50
180.0
  0
INSERT
  5
73F
  8
0
  2
BLOCK12
 10
-91.643107999999998
 20
368.47097000000002
 30
0.0
 50
180.0
  0
INSERT
  5
740
  8
0
  2
BLOCK13
 10
-91.643107999999998
 20
368.47097000000002
 30
0.0
 50
180.0
  0
INSERT
  5
741
  8
0
  2
BLOCK14
 10
-91.643107999999998
 20
368.47097000000002
 30
0.0
 50
180.0
  0
INSERT
  5
742
  8
0
  2
BLOCK15
 10
-91.643107999999998
 20
368.47097000000002
 30
0.0
 50
180.0
  0
INSERT
  5
743
  8
0
  2
BLOCK16
 10
-91.643107999999998
 20
368.47097000000002
 30
0.0
 50
180.0
  0
INSERT
  5
744
  8
0
  2
BLOCK17
 10
-91.643107999999998
 20
368.47097000000002
 30
0.0
 50
180.0
  0
INSERT
  5
745
  8
0
  2
BLOCK18
 10
-91.643107999999998
 20
368.47097000000002
 30
0.0
 50
180.0
  0
INSERT
  5
746
  8
0
  2
BLOCK19
 10
-91.643107999999998
 20
368.47097000000002
 30
0.0
 50
180.0
  0
INSERT
  5
747
  8
0
  2
BLOCK20
 10
-91.643107999999998
 20
368.47097000000002
 30
0.0
 50
180.0
  0
INSERT
  5
748
  8
0
  2
BLOCK21
 10
-91.643107999999998
 20
368.47097000000002
 30
0.0
 50
180.0
  0
INSERT
  5
749
  8
0
  2
BLOCK22
 10
-91.643107999999998
 20
368.47097000000002
 30
0.0
 50
180.0
  0
INSERT
  5
74A
  8
0
  2
BLOCK23
 10
-91.643107999999998
 20
368.47097000000002
 30
0.0
 50
180.0
  0
INSERT
  5
74B
  8
0
  2
BLOCK24
 10
-91.643107999999998
 20
368.47097000000002
 30
0.0
 50
180.0
  0
INSERT
  5
74C
  8
0
  2
BLOCK25
 10
-91.643107999999998
 20
368.47097000000002
 30
0.0
 50
180.0
  0
INSERT
  5
74D
  8
0
  2
BLOCK26
 10
-91.643107999999998
 20
368.47097000000002
 30
0.0
 50
180.0
  0
INSERT
  5
74E
  8
0
  2
BLOCK27
 10
-91.643107999999998
 20
368.47097000000002
 30
0.0
 50
180.0
  0
VIEWPORT
  5
58B
 67
     1
  8
0
 62
     0
 10
0.0
 20
0.0
 30
0.0
 40
1000.0
 41
1000.0
 68
     1
 69
     1
1001
ACAD
1000
MVIEW
1002
{
1070
    16
1010
0.0
1020
0.0
1030
0.0
1010
0.0
1020
0.0
1030
1.0
1040
0.0
1040
1000.0
1040
0.0
1040
0.0
1040
50.0
1040
0.0
1040
0.0
1070
     0
1070
   100
1070
     1
1070
     1
1070
     0
1070
     0
1070
     0
1070
     0
1040
0.0
1040
0.0
1040
0.0
1040
1.0
1040
1.0
1040
1.0
1040
1.0
1070
     0
1002
{
1002
}
1002
}
  0
ENDSEC
  0
EOF
