  0
SECTION
  2
HEADER
  9
$ACADVER
  1
AC1015
  9
$ACADMAINTVER
 70
     6
  9
$DWGCODEPAGE
  3
ANSI_1252
  9
$INSBASE
 10
0.0
 20
0.0
 30
0.0
  9
$EXTMIN
 10
-4.622439483680745
 20
0.0
 30
0.0
  9
$EXTMAX
 10
392.0
 20
262.5
 30
0.0
  9
$LIMMIN
 10
0.0
 20
0.0
  9
$LIMMAX
 10
420.0
 20
297.0
  9
$ORTHOMODE
 70
     0
  9
$REGENMODE
 70
     1
  9
$FILLMODE
 70
     1
  9
$QTEXTMODE
 70
     0
  9
$MIRRTEXT
 70
     1
  9
$LTSCALE
 40
4.0
  9
$ATTMODE
 70
     1
  9
$TEXTSIZE
 40
2.5
  9
$TRACEWID
 40
1.0
  9
$TEXTSTYLE
  7
T25
  9
$CLAYER
  8
TEXT25
  9
$CELTYPE
  6
ByLayer
  9
$CECOLOR
 62
   256
  9
$CELTSCALE
 40
1.0
  9
$DISPSILH
 70
     0
  9
$DIMSCALE
 40
1.0
  9
$DIMASZ
 40
2.5
  9
$DIMEXO
 40
0.625
  9
$DIMDLI
 40
3.75
  9
$DIMRND
 40
0.0
  9
$DIMDLE
 40
0.0
  9
$DIMEXE
 40
1.25
  9
$DIMTP
 40
0.0
  9
$DIMTM
 40
0.0
  9
$DIMTXT
 40
2.5
  9
$DIMCEN
 40
2.5
  9
$DIMTSZ
 40
0.0
  9
$DIMTOL
 70
     0
  9
$DIMLIM
 70
     0
  9
$DIMTIH
 70
     0
  9
$DIMTOH
 70
     0
  9
$DIMSE1
 70
     0
  9
$DIMSE2
 70
     0
  9
$DIMTAD
 70
     1
  9
$DIMZIN
 70
     8
  9
$DIMBLK
  1

  9
$DIMASO
 70
     1
  9
$DIMSHO
 70
     1
  9
$DIMPOST
  1

  9
$DIMAPOST
  1

  9
$DIMALT
 70
     0
  9
$DIMALTD
 70
     3
  9
$DIMALTF
 40
0.03937007874016
  9
$DIMLFAC
 40
1.0
  9
$DIMTOFL
 70
     1
  9
$DIMTVP
 40
0.0
  9
$DIMTIX
 70
     0
  9
$DIMSOXD
 70
     0
  9
$DIMSAH
 70
     0
  9
$DIMBLK1
  1

  9
$DIMBLK2
  1

  9
$DIMSTYLE
  2
ISO-25
  9
$DIMCLRD
 70
     0
  9
$DIMCLRE
 70
     0
  9
$DIMCLRT
 70
     0
  9
$DIMTFAC
 40
1.0
  9
$DIMGAP
 40
0.625
  9
$DIMJUST
 70
     0
  9
$DIMSD1
 70
     0
  9
$DIMSD2
 70
     0
  9
$DIMTOLJ
 70
     0
  9
$DIMTZIN
 70
     8
  9
$DIMALTZ
 70
     0
  9
$DIMALTTZ
 70
     0
  9
$DIMUPT
 70
     0
  9
$DIMDEC
 70
     2
  9
$DIMTDEC
 70
     2
  9
$DIMALTU
 70
     2
  9
$DIMALTTD
 70
     3
  9
$DIMTXSTY
  7
Standard
  9
$DIMAUNIT
 70
     0
  9
$DIMADEC
 70
     0
  9
$DIMALTRND
 40
0.0
  9
$DIMAZIN
 70
     0
  9
$DIMDSEP
 70
    44
  9
$DIMATFIT
 70
     3
  9
$DIMFRAC
 70
     0
  9
$DIMLDRBLK
  1

  9
$DIMLUNIT
 70
     2
  9
$DIMLWD
 70
    -2
  9
$DIMLWE
 70
    -2
  9
$DIMTMOVE
 70
     0
  9
$LUNITS
 70
     2
  9
$LUPREC
 70
     4
  9
$SKETCHINC
 40
1.0
  9
$FILLETRAD
 40
0.5
  9
$AUNITS
 70
     0
  9
$AUPREC
 70
     0
  9
$MENU
  1
.
  9
$ELEVATION
 40
0.0
  9
$PELEVATION
 40
0.0
  9
$THICKNESS
 40
0.0
  9
$LIMCHECK
 70
     0
  9
$CHAMFERA
 40
10.0
  9
$CHAMFERB
 40
10.0
  9
$CHAMFERC
 40
20.0
  9
$CHAMFERD
 40
0.0
  9
$SKPOLY
 70
     0
  9
$TDCREATE
 40
2451507.447628368
  9
$TDUCREATE
 40
2451507.364295034
  9
$TDUPDATE
 40
2452985.627312777
  9
$TDUUPDATE
 40
2452985.543979444
  9
$TDINDWG
 40
1.2979158565
  9
$TDUSRTIMER
 40
1.2979157407
  9
$USRTIMER
 70
     1
  9
$ANGBASE
 50
0.0
  9
$ANGDIR
 70
     0
  9
$PDMODE
 70
     0
  9
$PDSIZE
 40
0.0
  9
$PLINEWID
 40
0.0
  9
$SPLFRAME
 70
     0
  9
$SPLINETYPE
 70
     6
  9
$SPLINESEGS
 70
     8
  9
$HANDSEED
  5
A98
  9
$SURFTAB1
 70
     6
  9
$SURFTAB2
 70
     6
  9
$SURFTYPE
 70
     6
  9
$SURFU
 70
     6
  9
$SURFV
 70
     6
  9
$UCSBASE
  2

  9
$UCSNAME
  2

  9
$UCSORG
 10
0.0
 20
0.0
 30
0.0
  9
$UCSXDIR
 10
1.0
 20
0.0
 30
0.0
  9
$UCSYDIR
 10
0.0
 20
1.0
 30
0.0
  9
$UCSORTHOREF
  2

  9
$UCSORTHOVIEW
 70
     0
  9
$UCSORGTOP
 10
0.0
 20
0.0
 30
0.0
  9
$UCSORGBOTTOM
 10
0.0
 20
0.0
 30
0.0
  9
$UCSORGLEFT
 10
0.0
 20
0.0
 30
0.0
  9
$UCSORGRIGHT
 10
0.0
 20
0.0
 30
0.0
  9
$UCSORGFRONT
 10
0.0
 20
0.0
 30
0.0
  9
$UCSORGBACK
 10
0.0
 20
0.0
 30
0.0
  9
$PUCSBASE
  2

  9
$PUCSNAME
  2

  9
$PUCSORG
 10
0.0
 20
0.0
 30
0.0
  9
$PUCSXDIR
 10
1.0
 20
0.0
 30
0.0
  9
$PUCSYDIR
 10
0.0
 20
1.0
 30
0.0
  9
$PUCSORTHOREF
  2

  9
$PUCSORTHOVIEW
 70
     0
  9
$PUCSORGTOP
 10
0.0
 20
0.0
 30
0.0
  9
$PUCSORGBOTTOM
 10
0.0
 20
0.0
 30
0.0
  9
$PUCSORGLEFT
 10
0.0
 20
0.0
 30
0.0
  9
$PUCSORGRIGHT
 10
0.0
 20
0.0
 30
0.0
  9
$PUCSORGFRONT
 10
0.0
 20
0.0
 30
0.0
  9
$PUCSORGBACK
 10
0.0
 20
0.0
 30
0.0
  9
$USERI1
 70
     0
  9
$USERI2
 70
     0
  9
$USERI3
 70
     0
  9
$USERI4
 70
     0
  9
$USERI5
 70
     0
  9
$USERR1
 40
0.0
  9
$USERR2
 40
0.0
  9
$USERR3
 40
0.0
  9
$USERR4
 40
0.0
  9
$USERR5
 40
0.0
  9
$WORLDVIEW
 70
     1
  9
$SHADEDGE
 70
     3
  9
$SHADEDIF
 70
    70
  9
$TILEMODE
 70
     1
  9
$MAXACTVP
 70
    64
  9
$PINSBASE
 10
0.0
 20
0.0
 30
0.0
  9
$PLIMCHECK
 70
     0
  9
$PEXTMIN
 10
1.000000000000000E+20
 20
1.000000000000000E+20
 30
1.000000000000000E+20
  9
$PEXTMAX
 10
-1.000000000000000E+20
 20
-1.000000000000000E+20
 30
-1.000000000000000E+20
  9
$PLIMMIN
 10
0.0
 20
0.0
  9
$PLIMMAX
 10
420.0
 20
297.0
  9
$UNITMODE
 70
     0
  9
$VISRETAIN
 70
     1
  9
$PLINEGEN
 70
     0
  9
$PSLTSCALE
 70
     1
  9
$TREEDEPTH
 70
  3020
  9
$CMLSTYLE
  2
Standard
  9
$CMLJUST
 70
     0
  9
$CMLSCALE
 40
20.0
  9
$PROXYGRAPHICS
 70
     1
  9
$MEASUREMENT
 70
     1
  9
$CELWEIGHT
370
    -1
  9
$ENDCAPS
280
     0
  9
$JOINSTYLE
280
     0
  9
$LWDISPLAY
290
     0
  9
$INSUNITS
 70
     4
  9
$HYPERLINKBASE
  1

  9
$STYLESHEET
  1
HP5Si.ctb
  9
$XEDIT
290
     1
  9
$CEPSNTYPE
380
     0
  9
$PSTYLEMODE
290
     1
  9
$FINGERPRINTGUID
  2
{16D15905-A24A-11D3-B118-0008C7CA2EDA}
  9
$VERSIONGUID
  2
{AA124709-77D2-44C0-9B8A-90A99C8DBCFD}
  9
$EXTNAMES
290
     1
  9
$PSVPSCALE
 40
0.0
  9
$OLESTARTUP
290
     0
  0
ENDSEC
  0
SECTION
  2
CLASSES
  0
CLASS
  1
ACDBDICTIONARYWDFLT
  2
AcDbDictionaryWithDefault
  3
AutoCAD 2000
 90
        0
280
     0
281
     0
  0
CLASS
  1
ACDBPLACEHOLDER
  2
AcDbPlaceHolder
  3
AutoCAD 2000
 90
        0
280
     0
281
     0
  0
CLASS
  1
LAYOUT
  2
AcDbLayout
  3
AutoCAD 2000
 90
        0
280
     0
281
     0
  0
CLASS
  1
DICTIONARYVAR
  2
AcDbDictionaryVar
  3
AutoCAD 2000
 90
        0
280
     0
281
     0
  0
CLASS
  1
ACME_DOCUMENT
  2
AcMeDbDoc
  3
AcMeServices
 90
        0
280
     0
281
     0
  0
CLASS
  1
AMGSETTINGSOBJ
  2
AmgSettingsObj
  3
"AcadM|Product Description: AutoCAD Mechanical 2000|Company: Autodesk"
 90
        0
280
     0
281
     0
  0
CLASS
  1
ACMESCOPE
  2
AcMeScope
  3
AcMeServices
 90
        0
280
     0
281
     0
  0
CLASS
  1
ACMECOMMANDHISTORY
  2
AcMeCommandHistory
  3
AcMeServices
 90
        0
280
     0
281
     0
  0
CLASS
  1
ACIMSYSVARMAN
  2
AcImSysVarManager
  3
AcMeServices
 90
        0
280
     0
281
     0
  0
CLASS
  1
ACIMREALSYSVAR
  2
AcImRealSysVar
  3
AcMeServices
 90
        0
280
     0
281
     0
  0
CLASS
  1
ACIMINTSYSVAR
  2
AcImIntSysVar
  3
AcMeServices
 90
        0
280
     0
281
     0
  0
CLASS
  1
ACMEDRAWINGMAN
  2
AcMeDrawingMan
  3
AcMeServices
 90
        0
280
     0
281
     0
  0
CLASS
  1
ACMEVIEW
  2
AcMeView
  3
AcMeServices
 90
        0
280
     0
281
     0
  0
CLASS
  1
ACDBENTITYCACHE
  2
AcMeEntityCache
  3
AcMeServices
 90
        0
280
     0
281
     0
  0
CLASS
  1
GSMANAGER
  2
AcMeGSManager
  3
AcMeServices
 90
        0
280
     0
281
     0
  0
CLASS
  1
AmdtInternalReactor
  2
AmdtInternalReactor
  3
AcMeServices
 90
        0
280
     0
281
     0
  0
CLASS
  1
ACMESTATEMGR
  2
AcMeStateMgr
  3
AcMeServices
 90
        0
280
     0
281
     0
  0
CLASS
  1
ACGREFMASTER
  2
AcGrefMaster
  3
AcAttribServices
 90
        0
280
     0
281
     0
  0
CLASS
  1
AM_DRAWING_MGR
  2
AcDmDwgMgr
  3
AcMechDwgViewMgmt
 90
        0
280
     0
281
     0
  0
CLASS
  1
AM_DWG_DOCUMENT
  2
AcDmDwgDocument
  3
AcMechDwgViewMgmt
 90
        0
280
     0
281
     0
  0
CLASS
  1
AM_DWG_SHEET
  2
AcDmSheet
  3
AcMechDwgViewMgmt
 90
        0
280
     0
281
     0
  0
CLASS
  1
AM_VIEWDIMPARMAP
  2
AcDmViewDimParMap
  3
AcMechDwgViewMgmt
 90
        0
280
     0
281
     0
  0
CLASS
  1
AM_DWGMGR_NAME
  2
AcDmDwgMgrName
  3
AcMechDwgViewMgmt
 90
        0
280
     0
281
     0
  0
CLASS
  1
ACME_DATABASE
  2
AcMeDbDatabase
  3
AcMeServices
 90
        0
280
     0
281
     0
  0
CLASS
  1
ACRFINSADJUSTERMGR
  2
AcRfInsAdjusterMgr
  3
AcMeServices
 90
        0
280
     0
281
     0
  0
CLASS
  1
ACGREFMASTER
  2
AcGrefacadMaster
  3
AcGrefServices
 90
        0
280
     0
281
     0
  0
CLASS
  1
AMDTMENUSTATEMGR
  2
AmdtMenuStateMgr
  3
McadcomServices
 90
        0
280
     0
281
     0
  0
CLASS
  1
AMDTMCOMMENUSTATE
  2
AmdtMcomMenuState
  3
McadcomServices
 90
        0
280
     0
281
     0
  0
CLASS
  1
ASAPP
  2
AcAsAppObject
  3
AutoSurfServices
 90
        0
280
     0
281
     0
  0
CLASS
  1
IM_STATIC_MAN
  2
AcImStaticVarManager
  3
AcMeServices
 90
        0
280
     0
281
     0
  0
CLASS
  1
ACIMSTRSYSVAR
  2
AcImStrSysVar
  3
AcMeServices
 90
        0
280
     0
281
     0
  0
CLASS
  1
ACIMDBLSTATICVAR
  2
AcImDblStaticVar
  3
AcMeServices
 90
        0
280
     0
281
     0
  0
CLASS
  1
ACIMSTRSTATICVAR
  2
AcImStrStaticVar
  3
AcMeServices
 90
        0
280
     0
281
     0
  0
CLASS
  1
ACIMINTSTATICVAR
  2
AcImIntStaticVar
  3
AcMeServices
 90
        0
280
     0
281
     0
  0
CLASS
  1
ACADGREFMODULE
  2
AcAdGrefModule
  3
AdGrefServices
 90
        0
280
     0
281
     0
  0
CLASS
  1
AMIMASTER
  2
AmiMaster
  3
AmiServices
 90
        0
280
     0
281
     0
  0
CLASS
  1
ACASGREFMASTER
  2
AcAsGrefMaster
  3
AutoSurfResolverServices
 90
        0
280
     0
281
     0
  0
CLASS
  1
MAPIAMMOUDLE
  2
MApiAmModule
  3
MApiAmServices
 90
        0
280
     0
281
     0
  0
CLASS
  1
AMDTDMMENUSTATE
  2
AmdtDmMenuState
  3
AcMechDwgViewMgmt
 90
        0
280
     0
281
     0
  0
CLASS
  1
AMDTADMENUSTATE
  2
AmdtAdMenuState
  3
DesignerServices
 90
        0
280
     0
281
     0
  0
CLASS
  1
ADAPPL
  2
AcAdAppl
  3
DesignerServices
 90
        0
280
     0
281
     0
  0
CLASS
  1
DEPMGR
  2
AcAdDepMgr
  3
DesignerServices
 90
        0
280
     0
281
     0
  0
CLASS
  1
PARAMMGR
  2
AcAdParamMgr
  3
DesignerServices
 90
        0
280
     0
281
     0
  0
CLASS
  1
PARAMSCOPE
  2
AcAdParamScope
  3
DesignerServices
 90
        0
280
     0
281
     0
  0
CLASS
  1
NAMEDAPPL
  2
AcAdNamedAppl
  3
DesignerServices
 90
        0
280
     0
281
     0
  0
CLASS
  1
ADHNTMPLT
  2
AdHoleNoteTemplateMgr
  3
DesignerServices
 90
        0
280
     0
281
     0
  0
CLASS
  1
AM_HNTEMPLATE_MGR_NAME
  2
AdHoleNoteTemplateMgrName
  3
DesignerServices
 90
        0
280
     0
281
     0
  0
CLASS
  1
AMDTAMMENUSTATE
  2
AmdtAmMenuState
  3
DesignerAssemblies
 90
        0
280
     0
281
     0
  0
CLASS
  1
ACAMPROJECT
  2
AcAmProject
  3
DesignerAssemblies
 90
        0
280
     0
281
     0
  0
CLASS
  1
ACAMGRCOMPDEF
  2
AcAmGrCompDef
  3
DesignerAssemblies
 90
        0
280
     0
281
     0
  0
CLASS
  1
ACCMCONTEXT
  2
AcCmContext
  3
DesignerAssemblies
 90
        0
280
     0
281
     0
  0
CLASS
  1
ACAMCOMPDEF
  2
AcAmCompDef
  3
DesignerAssemblies
 90
        0
280
     0
281
     0
  0
CLASS
  1
ACAMCOMPDEFMGR
  2
AcAmCompDefMgr
  3
DesignerAssemblies
 90
        0
280
     0
281
     0
  0
CLASS
  1
AMCONTEXTMGR
  2
AcAmContextMgr
  3
DesignerAssemblies
 90
        0
280
     0
281
     0
  0
CLASS
  1
ACAMCONTEXTMODELER
  2
AcAmContextModeler
  3
DesignerAssemblies
 90
        0
280
     0
281
     0
  0
CLASS
  1
MAPIADMODULE
  2
MApiAdModule
  3
MApiAdServices
 90
        0
280
     0
281
     0
  0
CLASS
  1
ACMDATADICTIONARY
  2
AcmDataDictionary
  3
"AcmSymBB|Product Description: AutoCAD Mechanical 2000|Company: Autodesk"
 90
        0
280
     0
281
     0
  0
CLASS
  1
ACMDATAENTRYBLOCK
  2
AcmDataEntryBlock
  3
"AcmSymBB|Product Description: AutoCAD Mechanical 2000|Company: Autodesk"
 90
        0
280
     0
281
     0
  0
CLASS
  1
AMDTBROWSERDBTAB
  2
AmdtBrowserDbTab
  3
McadcomServices
 90
        0
280
     0
281
     0
  0
CLASS
  1
CBROWSERAPPOBJECT
  2
CBrowserAppObject
  3
McadcomServices
 90
        0
280
     0
281
     0
  0
CLASS
  1
DM_PLACEHOLDER
  2
AcDmSelsetPlaceholder
  3
AcMechDwgViewMgmt
 90
        0
280
     0
281
     0
  0
CLASS
  1
CATALOGSTATE
  2
AcAmCatalogState
  3
DesignerAssemblies
 90
        0
280
     0
281
     0
  0
CLASS
  1
ACAMGRCOMPDEFSET
  2
AcAmGrCompDefSet
  3
DesignerAssemblies
 90
        0
280
     0
281
     0
  0
CLASS
  1
AMGOBJPROPCFG
  2
AmgObjPropCfg
  3
"AmgLay|Product Description: AutoCAD Mechanical 2000|Company: Autodesk"
 90
        1
280
     0
281
     0
  0
CLASS
  1
LAYER_INDEX
  2
AcDbLayerIndex
  3
AutoCAD 2000
 90
        0
280
     0
281
     0
  0
CLASS
  1
IDBUFFER
  2
AcDbIdBuffer
  3
AutoCAD 2000
 90
        0
280
     0
281
     0
  0
ENDSEC
  0
SECTION
  2
TABLES
  0
TABLE
  2
VPORT
  5
8
330
0
100
AcDbSymbolTable
 70
     3
  0
VPORT
  5
A76
330
8
100
AcDbSymbolTableRecord
100
AcDbViewportTableRecord
  2
*Active
 70
     0
 10
0.0
 20
0.0
 11
1.0
 21
1.0
 12
223.3115155541527
 22
183.6085335288269
 13
0.0
 23
0.0
 14
0.5
 24
0.5
 15
10.0
 25
10.0
 16
0.0
 26
0.0
 36
1.0
 17
0.0
 27
0.0
 37
0.0
 40
496.0365280633974
 41
1.26002971768202
 42
50.0
 43
0.0
 44
0.0
 50
0.0
 51
0.0
 71
     0
 72
   100
 73
     1
 74
     1
 75
     0
 76
     0
 77
     0
 78
     0
281
     0
 65
     1
110
0.0
120
0.0
130
0.0
111
1.0
121
0.0
131
0.0
112
0.0
122
1.0
132
0.0
 79
     0
146
0.0
  0
ENDTAB
  0
TABLE
  2
LTYPE
  5
5
330
0
100
AcDbSymbolTable
 70
    16
  0
LTYPE
  5
14
330
5
100
AcDbSymbolTableRecord
100
AcDbLinetypeTableRecord
  2
ByBlock
 70
     0
  3

 72
    65
 73
     0
 40
0.0
  0
LTYPE
  5
15
330
5
100
AcDbSymbolTableRecord
100
AcDbLinetypeTableRecord
  2
ByLayer
 70
     0
  3

 72
    65
 73
     0
 40
0.0
  0
LTYPE
  5
16
330
5
100
AcDbSymbolTableRecord
100
AcDbLinetypeTableRecord
  2
Continuous
 70
     0
  3
Solid line
 72
    65
 73
     0
 40
0.0
  0
LTYPE
  5
1BB
330
5
100
AcDbSymbolTableRecord
100
AcDbLinetypeTableRecord
  2
DASHED
 70
     0
  3
__ __ __ __ __ __ __ __ __ __ __ __ __ __ __ __
 72
    65
 73
     2
 40
0.75
 49
0.5
 74
     0
 49
-0.25
 74
     0
  0
LTYPE
  5
1BC
330
5
100
AcDbSymbolTableRecord
100
AcDbLinetypeTableRecord
  2
CENTER
 70
     0
  3
____ _ ____ _ ____ _ ____ _ ____ _ ____ _ ____ 
 72
    65
 73
     4
 40
2.0
 49
1.25
 74
     0
 49
-0.25
 74
     0
 49
0.25
 74
     0
 49
-0.25
 74
     0
  0
LTYPE
  5
1BD
330
5
100
AcDbSymbolTableRecord
100
AcDbLinetypeTableRecord
  2
DASHDOT
 70
     0
  3
__ . __ . __ . __ . __ . __ . __ . __ . __ . __
 72
    65
 73
     4
 40
1.0
 49
0.5
 74
     0
 49
-0.25
 74
     0
 49
0.0
 74
     0
 49
-0.25
 74
     0
  0
LTYPE
  5
1BE
330
5
100
AcDbSymbolTableRecord
100
AcDbLinetypeTableRecord
  2
DOT
 70
     0
  3
. . . . . . . . . . . . . . . . . . . . . . . .
 72
    65
 73
     2
 40
0.25
 49
0.0
 74
     0
 49
-0.25
 74
     0
  0
LTYPE
  5
1BF
330
5
100
AcDbSymbolTableRecord
100
AcDbLinetypeTableRecord
  2
HIDDEN
 70
     0
  3
__ __ __ __ __ __ __ __ __ __ __ __ __ __ __ __
 72
    65
 73
     2
 40
0.375
 49
0.25
 74
     0
 49
-0.125
 74
     0
  0
LTYPE
  5
1C0
330
5
100
AcDbSymbolTableRecord
100
AcDbLinetypeTableRecord
  2
PHANTOM2
 70
     0
  3
___ _ _ ___ _ _ ___ _ _ ___ _ _ ___ _ _ ___ _ _
 72
    65
 73
     6
 40
1.25
 49
0.625
 74
     0
 49
-0.125
 74
     0
 49
0.125
 74
     0
 49
-0.125
 74
     0
 49
0.125
 74
     0
 49
-0.125
 74
     0
  0
LTYPE
  5
1C1
330
5
100
AcDbSymbolTableRecord
100
AcDbLinetypeTableRecord
  2
ASULTYPE
 70
     0
  3
Solid line
 72
    65
 73
     2
 40
3.0
 49
2.5
 74
     0
 49
0.5
 74
     0
  0
LTYPE
  5
1C2
330
5
100
AcDbSymbolTableRecord
100
AcDbLinetypeTableRecord
  2
ASVLTYPE
 70
     0
  3
__ __ __ __ __ __ __ __ __ __ __ __ __ __ __ __ __ __ __ __ __
 72
    65
 73
     2
 40
0.75
 49
0.5
 74
     0
 49
-0.25
 74
     0
  0
LTYPE
  5
1C3
330
5
100
AcDbSymbolTableRecord
100
AcDbLinetypeTableRecord
  2
GEN3
 70
     0
  3
-- -- -- -- -- -- -- -- -- -- -- -- -- -- --
 72
    65
 73
     2
 40
6.25
 49
4.75
 74
     0
 49
-1.5
 74
     0
  0
LTYPE
  5
1C4
330
5
100
AcDbSymbolTableRecord
100
AcDbLinetypeTableRecord
  2
GEN7
 70
     0
  3
____ . ____ . ____ . ____ . ____ . ____ . ____
 72
    65
 73
     4
 40
13.75
 49
9.75
 74
     0
 49
-1.5
 74
     0
 49
1.0
 74
     0
 49
-1.5
 74
     0
  0
LTYPE
  5
A51
330
5
100
AcDbSymbolTableRecord
100
AcDbLinetypeTableRecord
  2
gen3a
 70
     0
  3
 - - - - -
 72
    65
 73
     2
 40
3.125
 49
2.25
 74
     0
 49
-0.875
 74
     0
  0
LTYPE
  5
A52
330
5
100
AcDbSymbolTableRecord
100
AcDbLinetypeTableRecord
  2
gen7a
 70
     0
  3
__ . __ . __
 72
    65
 73
     4
 40
6.875
 49
4.75
 74
     0
 49
-0.875
 74
     0
 49
0.375
 74
     0
 49
-0.875
 74
     0
  0
LTYPE
  5
A53
330
5
100
AcDbSymbolTableRecord
100
AcDbLinetypeTableRecord
  2
gen4a
 70
     0
  3
_____ . . _____ . . _____ . . ____ .. ____
 72
    65
 73
     6
 40
16.25
 49
9.75
 74
     0
 49
-1.5
 74
     0
 49
1.0
 74
     0
 49
-1.5
 74
     0
 49
1.0
 74
     0
 49
-1.5
 74
     0
  0
LTYPE
  5
A56
330
5
100
AcDbSymbolTableRecord
100
AcDbLinetypeTableRecord
  2
genzigzag
 70
     0
  3
/\/-/\/-/\/-/\/-/\/-/\/
 72
    65
 73
     2
 40
12.0001
 49
0.0001
 74
     4
 75
   135
340
A55
 46
2.0
 50
0.0
 44
0.0
 45
0.0
 49
-12.0
 74
     0
  0
LTYPE
  5
A57
330
5
100
AcDbSymbolTableRecord
100
AcDbLinetypeTableRecord
  2
AM_ISO02W050
 70
     0
  3
__ __ __ __ __ __ __ __ __ __ __ __ __ __ __
 72
    65
 73
     2
 40
7.5
 49
6.0
 74
     0
 49
-1.5
 74
     0
  0
ENDTAB
  0
TABLE
  2
LAYER
  5
2
330
0
100
AcDbSymbolTable
 70
    25
  0
LAYER
  5
10
330
2
100
AcDbSymbolTableRecord
100
AcDbLayerTableRecord
  2
0
 70
     0
 62
     7
  6
Continuous
370
    -3
390
F
  0
LAYER
  5
1C5
330
2
100
AcDbSymbolTableRecord
100
AcDbLayerTableRecord
  2
PAKSU
 70
     0
 62
     3
  6
Continuous
370
    -3
390
F
  0
LAYER
  5
1C6
330
2
100
AcDbSymbolTableRecord
100
AcDbLayerTableRecord
  2
RAAMI
 70
     0
 62
     4
  6
Continuous
370
    -3
390
F
  0
LAYER
  5
1C7
330
2
100
AcDbSymbolTableRecord
100
AcDbLayerTableRecord
  2
OHUT
 70
     0
 62
     6
  6
Continuous
370
    -3
390
F
  0
LAYER
  5
1C8
330
2
100
AcDbSymbolTableRecord
100
AcDbLayerTableRecord
  2
KESKI
 70
     0
 62
     2
  6
Continuous
370
    -3
390
F
  0
LAYER
  5
1C9
330
2
100
AcDbSymbolTableRecord
100
AcDbLayerTableRecord
  2
KATKO
 70
     0
 62
    13
  6
CENTER
370
    -3
390
F
  0
LAYER
  5
1CA
330
2
100
AcDbSymbolTableRecord
100
AcDbLayerTableRecord
  2
KATKO07
 70
     0
 62
     1
  6
DASHED
370
    -3
390
F
  0
LAYER
  5
1CB
330
2
100
AcDbSymbolTableRecord
100
AcDbLayerTableRecord
  2
PISTKATK
 70
     0
 62
     7
  6
DASHDOT
370
    -3
390
F
  0
LAYER
  5
1CC
330
2
100
AcDbSymbolTableRecord
100
AcDbLayerTableRecord
  2
MITTA
 70
     4
 62
     1
  6
Continuous
370
    -3
390
F
  0
LAYER
  5
1CD
330
2
100
AcDbSymbolTableRecord
100
AcDbLayerTableRecord
  2
APU
 70
     0
 62
     1
  6
DOT
370
    -3
390
F
  0
LAYER
  5
1CE
330
2
100
AcDbSymbolTableRecord
100
AcDbLayerTableRecord
  2
TEXT25
 70
     0
 62
     1
  6
Continuous
370
    -3
390
F
  0
LAYER
  5
1CF
330
2
100
AcDbSymbolTableRecord
100
AcDbLayerTableRecord
  2
TEXT35
 70
     0
 62
     5
  6
Continuous
370
    -3
390
F
  0
LAYER
  5
1D0
330
2
100
AcDbSymbolTableRecord
100
AcDbLayerTableRecord
  2
TEXT5
 70
     0
 62
    14
  6
Continuous
370
    -3
390
F
  0
LAYER
  5
1D1
330
2
100
AcDbSymbolTableRecord
100
AcDbLayerTableRecord
  2
TEXT7
 70
     0
 62
     3
  6
Continuous
370
    -3
390
F
  0
LAYER
  5
1D2
330
2
100
AcDbSymbolTableRecord
100
AcDbLayerTableRecord
  2
TEXT
 70
     0
 62
     1
  6
Continuous
370
    -3
390
F
  0
LAYER
  5
1D3
330
2
100
AcDbSymbolTableRecord
100
AcDbLayerTableRecord
  2
AM_TR
 70
     0
 62
     7
  6
Continuous
370
    -3
390
F
  0
LAYER
  5
1D4
330
2
100
AcDbSymbolTableRecord
100
AcDbLayerTableRecord
  2
AM_BM
 70
     0
 62
     7
  6
Continuous
370
    -3
390
F
  0
LAYER
  5
1D5
330
2
100
AcDbSymbolTableRecord
100
AcDbLayerTableRecord
  2
AM_BL
 70
     0
 62
     7
  6
Continuous
370
    -3
390
F
  0
LAYER
  5
1D6
330
2
100
AcDbSymbolTableRecord
100
AcDbLayerTableRecord
  2
AM_VIEWS
 70
     0
 62
    -7
  6
Continuous
370
    -3
390
F
  0
LAYER
  5
1D7
330
2
100
AcDbSymbolTableRecord
100
AcDbLayerTableRecord
  2
AM_PARDIM
 70
     0
 62
     3
  6
Continuous
370
    -3
390
F
  0
LAYER
  5
1D8
330
2
100
AcDbSymbolTableRecord
100
AcDbLayerTableRecord
  2
AM_REFDIM
 70
     0
 62
     4
  6
Continuous
370
    -3
390
F
  0
LAYER
  5
1D9
330
2
100
AcDbSymbolTableRecord
100
AcDbLayerTableRecord
  2
AM_VIS
 70
     0
 62
     7
  6
Continuous
370
    -3
390
F
  0
LAYER
  5
1DA
330
2
100
AcDbSymbolTableRecord
100
AcDbLayerTableRecord
  2
AM_HID
 70
     0
 62
     6
  6
GEN3
370
    -3
390
F
  0
LAYER
  5
97B
330
2
100
AcDbSymbolTableRecord
100
AcDbLayerTableRecord
  2
MUOTOVIIVA
 70
     0
 62
     3
  6
Continuous
370
    -3
390
F
  0
LAYER
  5
97C
330
2
100
AcDbSymbolTableRecord
100
AcDbLayerTableRecord
  2
OHUTVIIVA
 70
     0
 62
     6
  6
Continuous
370
     0
390
F
  0
ENDTAB
  0
TABLE
  2
STYLE
  5
3
330
0
100
AcDbSymbolTable
 70
     8
  0
STYLE
  5
11
330
3
100
AcDbSymbolTableRecord
100
AcDbTextStyleTableRecord
  2
Standard
 70
     0
 40
0.0
 41
1.0
 50
0.0
 71
     0
 42
2.0
  3
txt
  4

  0
STYLE
  5
1DB
330
3
100
AcDbSymbolTableRecord
100
AcDbTextStyleTableRecord
  2
ROMANS
 70
     0
 40
0.0
 41
1.0
 50
0.0
 71
     0
 42
2.5
  3
romans
  4

  0
STYLE
  5
1DC
330
3
100
AcDbSymbolTableRecord
100
AcDbTextStyleTableRecord
  2
T7
 70
     0
 40
7.0
 41
0.9
 50
0.0
 71
     0
 42
0.2
  3
ROMANS
  4

  0
STYLE
  5
1DD
330
3
100
AcDbSymbolTableRecord
100
AcDbTextStyleTableRecord
  2
T5
 70
     0
 40
5.0
 41
0.9
 50
0.0
 71
     0
 42
0.2
  3
ROMANS
  4

  0
STYLE
  5
1DE
330
3
100
AcDbSymbolTableRecord
100
AcDbTextStyleTableRecord
  2
T35
 70
     0
 40
3.5
 41
0.9
 50
0.0
 71
     0
 42
0.2
  3
ROMANS
  4

  0
STYLE
  5
1DF
330
3
100
AcDbSymbolTableRecord
100
AcDbTextStyleTableRecord
  2
T25
 70
     0
 40
2.5
 41
0.9
 50
0.0
 71
     0
 42
2.5
  3
norm.shx
  4

  0
STYLE
  5
374
330
3
100
AcDbSymbolTableRecord
100
AcDbTextStyleTableRecord
  2
ACANSGDT
 70
     0
 40
0.0
 41
1.0
 50
0.0
 71
     0
 42
1.0
  3
amgdt.shx
  4

  0
STYLE
  5
A55
330
3
100
AcDbSymbolTableRecord
100
AcDbTextStyleTableRecord
  2

 70
     1
 40
0.0
 41
1.0
 50
0.0
 71
     0
 42
2.5
  3
genltshp.shx
  4

  0
ENDTAB
  0
TABLE
  2
VIEW
  5
6
330
0
100
AcDbSymbolTable
 70
     0
  0
ENDTAB
  0
TABLE
  2
UCS
  5
7
330
0
100
AcDbSymbolTable
 70
     0
  0
ENDTAB
  0
TABLE
  2
APPID
  5
9
330
0
100
AcDbSymbolTable
 70
    20
  0
APPID
  5
12
330
9
100
AcDbSymbolTableRecord
100
AcDbRegAppTableRecord
  2
ACAD
 70
     0
  0
APPID
  5
1E1
330
9
100
AcDbSymbolTableRecord
100
AcDbRegAppTableRecord
  2
GENIUS_GENCFG_13
 70
     0
1001
GENIUS_GEVCFG0_13
1000
GEV
1001
GENIUS_GENCFG0_13
1000
GEN@INFO_POS@XLATE
1001
GENIUS_GENCFG1_13
1000
GEN@LAYER@DEFS
1001
GENIUS_GENCFG2_13
1000
GEN@LAYER@ENTSORT
1001
GENIUS_GENCFG3_13
1000
GEN@OSWIZ
1001
GENIUS_GENCFG4_13
1000
GEN
1001
GENIUS_GE3CFG0_13
1000
GE3
1001
GENIUS_GENCFG5_13
1000
GEN@INFO_POS
  0
APPID
  5
1E2
330
9
100
AcDbSymbolTableRecord
100
AcDbRegAppTableRecord
  2
GENIUS_GEVCFG0_13
 70
     0
1001
GENIUS_GENCFG_13
1071
919852330
1000
404
1000
GEV
1070
     1
1000
GenCfgObject
1000
VED
1070
     0
1002
{
1002
}
  0
APPID
  5
1E3
330
9
100
AcDbSymbolTableRecord
100
AcDbRegAppTableRecord
  2
GENIUS_GENCFG0_13
 70
     0
1001
GENIUS_GENCFG_13
1071
919852330
1000
405
1000
GEN@INFO_POS@XLATE
1070
     7
1000
GenCfgObject
1000
GenCfgShort
1000
GenCfgReal
1000
GenCfgBool
1000
GenCfgString
1000
GenCfgDim
1000
GenCfgAttrInf
1000
INFOPOINTS
1070
     0
1002
{
1000
GENINF14
1070
     0
1002
{
1000
2GENINF
1070
     4
1000
2
1002
{
1002
}
1000
3GENINF
1070
     4
1000
3
1002
{
1002
}
1000
4GENINF
1070
     4
1000
4
1002
{
1002
}
1000
5GENINF
1070
     4
1000
5
1002
{
1002
}
1000
6GENINF
1070
     4
1000
6
1002
{
1002
}
1000
7GENINF
1070
     4
1000
7
1002
{
1002
}
1000
8GENINF
1070
     4
1000
8
1002
{
1002
}
1000
9GENINF
1070
     4
1000
9
1002
{
1002
}
1000
10GENINF
1070
     4
1000
10
1002
{
1002
}
1000
11GENINF
1070
     4
1000
11
1002
{
1002
}
1000
12GENINF
1070
     4
1000
12
1002
{
1002
}
1000
13GENINF
1070
     4
1000
13
1002
{
1002
}
1000
14GENINF
1070
     4
1000
14
1002
{
1002
}
1000
15GENINF
1070
     4
1000
15
1002
{
1002
}
1000
16GENINF
1070
     4
1000
16
1002
{
1002
}
1000
17GENINF
1070
     4
1000
17
1002
{
1002
}
1000
18GENINF
1070
     4
1000
18
1002
{
1002
}
1000
19GENINF
1070
     4
1000
19
1002
{
1002
}
1000
20GENINF
1070
     4
1000
20
1002
{
1002
}
1000
21GENINF
1070
     4
1000
21
1002
{
1002
}
1000
22GENINF
1070
     4
1000
22
1002
{
1002
}
1000
23GENINF
1070
     4
1000
23
1002
{
1002
}
1000
24GENINF
1070
     4
1000
24
1002
{
1002
}
1000
25GENINF
1070
     4
1000
25
1002
{
1002
}
1000
26GENINF
1070
     4
1000
26
1002
{
1002
}
1000
27GENINF
1070
     4
1000
27
1002
{
1002
}
1000
0GENINF
1070
     4
1000
0
1002
{
1002
}
1002
}
1000
GENINF13
1070
     0
1002
{
1000
2GENINF
1070
     4
1000
2
1002
{
1002
}
1000
3GENINF
1070
     4
1000
3
1002
{
1002
}
1000
4GENINF
1070
     4
1000
4
1002
{
1002
}
1000
5GENINF
1070
     4
1000
5
1002
{
1002
}
1000
6GENINF
1070
     4
1000
6
1002
{
1002
}
1000
7GENINF
1070
     4
1000
7
1002
{
1002
}
1000
8GENINF
1070
     4
1000
8
1002
{
1002
}
1000
9GENINF
1070
     4
1000
9
1002
{
1002
}
1000
10GENINF
1070
     4
1000
10
1002
{
1002
}
1000
11GENINF
1070
     4
1000
11
1002
{
1002
}
1000
12GENINF
1070
     4
1000
12
1002
{
1002
}
1000
13GENINF
1070
     4
1000
13
1002
{
1002
}
1000
14GENINF
1070
     4
1000
14
1002
{
1002
}
1000
15GENINF
1070
     4
1000
15
1002
{
1002
}
1000
16GENINF
1070
     4
1000
16
1002
{
1002
}
1000
17GENINF
1070
     4
1000
17
1002
{
1002
}
1000
18GENINF
1070
     4
1000
18
1002
{
1002
}
1000
19GENINF
1070
     4
1000
19
1002
{
1002
}
1000
20GENINF
1070
     4
1000
20
1002
{
1002
}
1000
21GENINF
1070
     4
1000
21
1002
{
1002
}
1000
22GENINF
1070
     4
1000
22
1002
{
1002
}
1000
23GENINF
1070
     4
1000
23
1002
{
1002
}
1000
24GENINF
1070
     4
1000
24
1002
{
1002
}
1000
0GENINF
1070
     4
1000
0
1002
{
1002
}
1002
}
1000
GENINFO
1070
     0
1002
{
1000
3GENINF
1070
     4
1000
3
1002
{
1002
}
1000
4GENINF
1070
     4
1000
4
1002
{
1002
}
1000
5GENINF
1070
     4
1000
5
1002
{
1002
}
1000
6GENINF
1070
     4
1000
6
1002
{
1002
}
1000
7GENINF
1070
     4
1000
7
1002
{
1002
}
1000
8GENINF
1070
     4
1000
8
1002
{
1002
}
1000
9GENINF
1070
     4
1000
9
1002
{
1002
}
1000
10GENINF
1070
     4
1000
10
1002
{
1002
}
1000
11GENINF
1070
     4
1000
11
1002
{
1002
}
1000
12GENINF
1070
     4
1000
12
1002
{
1002
}
1000
13GENINF
1070
     4
1000
13
1002
{
1002
}
1000
14GENINF
1070
     4
1000
14
1002
{
1002
}
1000
15GENINF
1070
     4
1000
15
1002
{
1002
}
1000
16GENINF
1070
     4
1000
16
1002
{
1002
}
1000
17GENINF
1070
     4
1000
17
1002
{
1002
}
1000
18GENINF
1070
     4
1000
18
1002
{
1002
}
1000
19GENINF
1070
     4
1000
19
1002
{
1002
}
1000
20GENINF
1070
     4
1000
20
1002
{
1002
}
1000
21GENINF
1070
     4
1000
21
1002
{
1002
}
1000
22GENINF
1070
     4
1000
22
1002
{
1002
}
1002
}
1000
DININFO
1070
     0
1002
{
1000
ST-NAME1
1070
     4
1000
5
1002
{
1002
}
1000
ST-NAME2
1070
     4
1000
6
1002
{
1002
}
1000
ST-NORM1
1070
     4
1000
7
1002
{
1002
}
1000
ST-NORM2
1070
     4
1000
8
1002
{
1002
}
1000
ST-MAT1
1070
     4
1000
9
1002
{
1002
}
1000
ST-MAT2
1070
     4
1000
10
1002
{
1002
}
1002
}
1002
}
1000
POS_NUMBERS
1070
     0
1002
{
1000
GENPOS14
1070
     0
1002
{
1000
1GENPOS
1070
     4
1000
1
1002
{
1002
}
1000
2GENPOS
1070
     4
1000
2
1002
{
1002
}
1000
3GENPOS
1070
     4
1000
3
1002
{
1002
}
1000
4GENPOS
1070
     4
1000
4
1002
{
1002
}
1000
5GENPOS
1070
     4
1000
5
1002
{
1002
}
1000
6GENPOS
1070
     4
1000
6
1002
{
1002
}
1000
7GENPOS
1070
     4
1000
7
1002
{
1002
}
1000
8GENPOS
1070
     4
1000
8
1002
{
1002
}
1000
9GENPOS
1070
     4
1000
9
1002
{
1002
}
1000
10GENPOS
1070
     4
1000
10
1002
{
1002
}
1000
11GENPOS
1070
     4
1000
11
1002
{
1002
}
1000
12GENPOS
1070
     4
1000
12
1002
{
1002
}
1000
13GENPOS
1070
     4
1000
13
1002
{
1002
}
1000
14GENPOS
1070
     4
1000
14
1002
{
1002
}
1000
15GENPOS
1070
     4
1000
15
1002
{
1002
}
1000
16GENPOS
1070
     4
1000
16
1002
{
1002
}
1000
17GENPOS
1070
     4
1000
17
1002
{
1002
}
1000
18GENPOS
1070
     4
1000
18
1002
{
1002
}
1000
19GENPOS
1070
     4
1000
19
1002
{
1002
}
1000
20GENPOS
1070
     4
1000
20
1002
{
1002
}
1000
21GENPOS
1070
     4
1000
21
1002
{
1002
}
1000
22GENPOS
1070
     4
1000
22
1002
{
1002
}
1000
23GENPOS
1070
     4
1000
23
1002
{
1002
}
1000
24GENPOS
1070
     4
1000
24
1002
{
1002
}
1000
25GENPOS
1070
     4
1000
25
1002
{
1002
}
1000
26GENPOS
1070
     4
1000
26
1002
{
1002
}
1000
27GENPOS
1070
     4
1000
27
1002
{
1002
}
1000
0GENPOS
1070
     4
1000
0
1002
{
1002
}
1002
}
1000
GENPOS13
1070
     0
1002
{
1000
1GENPOS
1070
     4
1000
1
1002
{
1002
}
1000
2GENPOS
1070
     4
1000
2
1002
{
1002
}
1000
3GENPOS
1070
     4
1000
3
1002
{
1002
}
1000
4GENPOS
1070
     4
1000
4
1002
{
1002
}
1000
5GENPOS
1070
     4
1000
5
1002
{
1002
}
1000
6GENPOS
1070
     4
1000
6
1002
{
1002
}
1000
7GENPOS
1070
     4
1000
7
1002
{
1002
}
1000
8GENPOS
1070
     4
1000
8
1002
{
1002
}
1000
9GENPOS
1070
     4
1000
9
1002
{
1002
}
1000
10GENPOS
1070
     4
1000
10
1002
{
1002
}
1000
11GENPOS
1070
     4
1000
11
1002
{
1002
}
1000
12GENPOS
1070
     4
1000
12
1002
{
1002
}
1000
13GENPOS
1070
     4
1000
13
1002
{
1002
}
1000
14GENPOS
1070
     4
1000
14
1002
{
1002
}
1000
15GENPOS
1070
     4
1000
15
1002
{
1002
}
1000
16GENPOS
1070
     4
1000
16
1002
{
1002
}
1000
17GENPOS
1070
     4
1000
17
1002
{
1002
}
1000
18GENPOS
1070
     4
1000
18
1002
{
1002
}
1000
19GENPOS
1070
     4
1000
19
1002
{
1002
}
1000
20GENPOS
1070
     4
1000
20
1002
{
1002
}
1000
21GENPOS
1070
     4
1000
21
1002
{
1002
}
1000
22GENPOS
1070
     4
1000
22
1002
{
1002
}
1000
23GENPOS
1070
     4
1000
23
1002
{
1002
}
1000
24GENPOS
1070
     4
1000
24
1002
{
1002
}
1000
0GENPOS
1070
     4
1000
0
1002
{
1002
}
1002
}
1000
GENPOS
1070
     0
1002
{
1000
1GENPOS
1070
     4
1000
1
1002
{
1002
}
1000
2GENPOS
1070
     4
1000
2
1002
{
1002
}
1000
3GENPOS
1070
     4
1000
3
1002
{
1002
}
1000
4GENPOS
1070
     4
1000
4
1002
{
1002
}
1000
5GENPOS
1070
     4
1000
5
1002
{
1002
}
1000
6GENPOS
1070
     4
1000
6
1002
{
1002
}
1000
7GENPOS
1070
     4
1000
7
1002
{
1002
}
1000
8GENPOS
1070
     4
1000
8
1002
{
1002
}
1000
9GENPOS
1070
     4
1000
9
1002
{
1002
}
1000
10GENPOS
1070
     4
1000
10
1002
{
1002
}
1000
11GENPOS
1070
     4
1000
11
1002
{
1002
}
1000
12GENPOS
1070
     4
1000
12
1002
{
1002
}
1000
13GENPOS
1070
     4
1000
13
1002
{
1002
}
1000
14GENPOS
1070
     4
1000
14
1002
{
1002
}
1000
15GENPOS
1070
     4
1000
15
1002
{
1002
}
1000
16GENPOS
1070
     4
1000
16
1002
{
1002
}
1000
17GENPOS
1070
     4
1000
17
1002
{
1002
}
1000
18GENPOS
1070
     4
1000
18
1002
{
1002
}
1000
19GENPOS
1070
     4
1000
19
1002
{
1002
}
1000
20GENPOS
1070
     4
1000
20
1002
{
1002
}
1000
21GENPOS
1070
     4
1000
21
1002
{
1002
}
1000
22GENPOS
1070
     4
1000
22
1002
{
1002
}
1000
23GENPOS
1070
     4
1000
23
1002
{
1002
}
1002
}
1000
DIN985
1070
     0
1002
{
1000
POSITION
1070
     4
1000
1
1002
{
1002
}
1000
MENGE
1070
     4
1000
2
1002
{
1002
}
1000
BLATT
1070
     4
1000
3
1002
{
1002
}
1000
BENENN
1070
     4
1000
5
1002
{
1002
}
1000
BENENN2
1070
     4
1000
6
1002
{
1002
}
1000
NORM
1070
     4
1000
7
1002
{
1002
}
1000
NORM2
1070
     4
1000
8
1002
{
1002
}
1000
WERKSTOFF
1070
     4
1000
9
1002
{
1002
}
1000
WERKSTOFF2
1070
     4
1000
10
1002
{
1002
}
1002
}
1000
DIN986
1070
     0
1002
{
1000
POSITION
1070
     4
1000
1
1002
{
1002
}
1000
MENGE
1070
     4
1000
2
1002
{
1002
}
1000
BLATT
1070
     4
1000
3
1002
{
1002
}
1000
BENENN
1070
     4
1000
5
1002
{
1002
}
1000
BENENN2
1070
     4
1000
6
1002
{
1002
}
1000
NORM
1070
     4
1000
7
1002
{
1002
}
1000
NORM2
1070
     4
1000
8
1002
{
1002
}
1000
WERKSTOFF
1070
     4
1000
9
1002
{
1002
}
1000
WERKSTOFF2
1070
     4
1000
10
1002
{
1002
}
1002
}
1000
DIN987
1070
     0
1002
{
1000
POSITION
1070
     4
1000
1
1002
{
1002
}
1000
MENGE
1070
     4
1000
2
1002
{
1002
}
1000
BLATT
1070
     4
1000
3
1002
{
1002
}
1000
BENENN
1070
     4
1000
5
1002
{
1002
}
1000
BENENN2
1070
     4
1000
6
1002
{
1002
}
1000
NORM
1070
     4
1000
7
1002
{
1002
}
1000
NORM2
1070
     4
1000
8
1002
{
1002
}
1000
WERKSTOFF
1070
     4
1000
9
1002
{
1002
}
1000
WERKSTOFF2
1070
     4
1000
10
1002
{
1002
}
1002
}
1002
}
  0
APPID
  5
1E4
330
9
100
AcDbSymbolTableRecord
100
AcDbRegAppTableRecord
  2
GENIUS_GENCFG1_13
 70
     0
1001
GENIUS_GENCFG_13
1071
919852330
1000
406
1000
GEN@LAYER@DEFS
1070
     9
1000
GenCfgObject
1000
GenCfgShort
1000
GenCfgReal
1000
GenCfgBool
1000
GenCfgString
1000
GenCfgDim
1000
GenCfgAttrInf
1000
GenCfgLaySection
1000
GenCfgLayer
1000
Basic
1070
     0
1002
{
1000
0
1070
     8
1000
0
1002
{
1000
Color
1070
     1
1070
     7
1002
{
1002
}
1000
LType
1070
     4
1000
CONTINUOUS
1002
{
1002
}
1000
Base
1070
     3
1070
     0
1002
{
1002
}
1002
}
1000
1
1070
     8
1000
1
1002
{
1000
Color
1070
     1
1070
    14
1002
{
1002
}
1000
LType
1070
     4
1000
CONTINUOUS
1002
{
1002
}
1000
Base
1070
     3
1070
     0
1002
{
1002
}
1002
}
1000
2
1070
     8
1000
2
1002
{
1000
Color
1070
     1
1070
     5
1002
{
1002
}
1000
LType
1070
     4
1000
CONTINUOUS
1002
{
1002
}
1000
Base
1070
     3
1070
     0
1002
{
1002
}
1002
}
1000
3
1070
     8
1000
3
1002
{
1000
Color
1070
     1
1070
     6
1002
{
1002
}
1000
LType
1070
     4
1000
GEN3
1002
{
1002
}
1000
Base
1070
     3
1070
     0
1002
{
1002
}
1002
}
1000
4
1070
     8
1000
4
1002
{
1000
Color
1070
     1
1070
     3
1002
{
1002
}
1000
LType
1070
     4
1000
CONTINUOUS
1002
{
1002
}
1000
Base
1070
     3
1070
     0
1002
{
1002
}
1002
}
1000
5
1070
     8
1000
5
1002
{
1000
Color
1070
     1
1070
     3
1002
{
1002
}
1000
LType
1070
     4
1000
CONTINUOUS
1002
{
1002
}
1000
Base
1070
     3
1070
     0
1002
{
1002
}
1002
}
1000
6
1070
     8
1000
6
1002
{
1000
Color
1070
     1
1070
     2
1002
{
1002
}
1000
LType
1070
     4
1000
CONTINUOUS
1002
{
1002
}
1000
Base
1070
     3
1070
     0
1002
{
1002
}
1002
}
1000
7
1070
     8
1000
7
1002
{
1000
Color
1070
     1
1070
     4
1002
{
1002
}
1000
LType
1070
     4
1000
GEN7
1002
{
1002
}
1000
Base
1070
     3
1070
     0
1002
{
1002
}
1002
}
1000
8
1070
     8
1000
8
1002
{
1000
Color
1070
     1
1070
     1
1002
{
1002
}
1000
LType
1070
     4
1000
CONTINUOUS
1002
{
1002
}
1000
Base
1070
     3
1070
     0
1002
{
1002
}
1002
}
1000
3A
1070
     8
1000
3A
1002
{
1000
Color
1070
     1
1070
     6
1002
{
1002
}
1000
LType
1070
     4
1000
GEN3A
1002
{
1002
}
1000
Base
1070
     3
1070
     0
1002
{
1002
}
1002
}
1000
7A
1070
     8
1000
7A
1002
{
1000
Color
1070
     1
1070
     4
1002
{
1002
}
1000
LType
1070
     4
1000
GEN7A
1002
{
1002
}
1000
Base
1070
     3
1070
     0
1002
{
1002
}
1002
}
1000
2A
1070
     8
1000
2A
1002
{
1000
Color
1070
     1
1070
     7
1002
{
1002
}
1000
LType
1070
     4
1000
GEN7
1002
{
1002
}
1000
Base
1070
     3
1070
     0
1002
{
1002
}
1002
}
1000
4A
1070
     8
1000
4A
1002
{
1000
Color
1070
     1
1070
     3
1002
{
1002
}
1000
LType
1070
     4
1000
GEN4A
1002
{
1002
}
1000
Base
1070
     3
1070
     0
1002
{
1002
}
1002
}
1000
9
1070
     8
1000
9
1002
{
1000
Color
1070
     1
1070
   253
1002
{
1002
}
1000
LType
1070
     4
1000
CONTINUOUS
1002
{
1002
}
1000
Base
1070
     3
1070
     0
1002
{
1002
}
1002
}
1000
IP
1070
     8
1000
IP
1002
{
1000
Color
1070
     1
1070
     7
1002
{
1002
}
1000
LType
1070
     4
1000
CONTINUOUS
1002
{
1002
}
1000
Base
1070
     3
1070
     0
1002
{
1002
}
1002
}
1002
}
1000
Standard
1070
     0
1002
{
1000
0N
1070
     8
1000
0N
1002
{
1000
Color
1070
     1
1070
     7
1002
{
1002
}
1000
LType
1070
     4
1000
CONTINUOUS
1002
{
1002
}
1000
Base
1070
     3
1070
     0
1002
{
1002
}
1002
}
1000
1N
1070
     8
1000
1N
1002
{
1000
Color
1070
     1
1070
    14
1002
{
1002
}
1000
LType
1070
     4
1000
CONTINUOUS
1002
{
1002
}
1000
Base
1070
     3
1070
     0
1002
{
1002
}
1002
}
1000
2N
1070
     8
1000
2N
1002
{
1000
Color
1070
     1
1070
     5
1002
{
1002
}
1000
LType
1070
     4
1000
CONTINUOUS
1002
{
1002
}
1000
Base
1070
     3
1070
     0
1002
{
1002
}
1002
}
1000
3N
1070
     8
1000
3N
1002
{
1000
Color
1070
     1
1070
     6
1002
{
1002
}
1000
LType
1070
     4
1000
GEN3
1002
{
1002
}
1000
Base
1070
     3
1070
     0
1002
{
1002
}
1002
}
1000
4N
1070
     8
1000
4N
1002
{
1000
Color
1070
     1
1070
     3
1002
{
1002
}
1000
LType
1070
     4
1000
CONTINUOUS
1002
{
1002
}
1000
Base
1070
     3
1070
     0
1002
{
1002
}
1002
}
1000
5N
1070
     8
1000
5N
1002
{
1000
Color
1070
     1
1070
     3
1002
{
1002
}
1000
LType
1070
     4
1000
CONTINUOUS
1002
{
1002
}
1000
Base
1070
     3
1070
     0
1002
{
1002
}
1002
}
1000
6N
1070
     8
1000
6N
1002
{
1000
Color
1070
     1
1070
     2
1002
{
1002
}
1000
LType
1070
     4
1000
CONTINUOUS
1002
{
1002
}
1000
Base
1070
     3
1070
     0
1002
{
1002
}
1002
}
1000
7N
1070
     8
1000
7N
1002
{
1000
Color
1070
     1
1070
     4
1002
{
1002
}
1000
LType
1070
     4
1000
GEN7
1002
{
1002
}
1000
Base
1070
     3
1070
     0
1002
{
1002
}
1002
}
1000
8N
1070
     8
1000
8N
1002
{
1000
Color
1070
     1
1070
     1
1002
{
1002
}
1000
LType
1070
     4
1000
CONTINUOUS
1002
{
1002
}
1000
Base
1070
     3
1070
     0
1002
{
1002
}
1002
}
1000
3AN
1070
     8
1000
3AN
1002
{
1000
Color
1070
     1
1070
     6
1002
{
1002
}
1000
LType
1070
     4
1000
GEN3A
1002
{
1002
}
1000
Base
1070
     3
1070
     0
1002
{
1002
}
1002
}
1000
7AN
1070
     8
1000
7AN
1002
{
1000
Color
1070
     1
1070
     4
1002
{
1002
}
1000
LType
1070
     4
1000
GEN7A
1002
{
1002
}
1000
Base
1070
     3
1070
     0
1002
{
1002
}
1002
}
1000
2AN
1070
     8
1000
2AN
1002
{
1000
Color
1070
     1
1070
     7
1002
{
1002
}
1000
LType
1070
     4
1000
GEN7
1002
{
1002
}
1000
Base
1070
     3
1070
     0
1002
{
1002
}
1002
}
1000
4AN
1070
     8
1000
4AN
1002
{
1000
Color
1070
     1
1070
     3
1002
{
1002
}
1000
LType
1070
     4
1000
GEN4A
1002
{
1002
}
1000
Base
1070
     3
1070
     0
1002
{
1002
}
1002
}
1000
9N
1070
     8
1000
9N
1002
{
1000
Color
1070
     1
1070
   253
1002
{
1002
}
1000
LType
1070
     4
1000
CONTINUOUS
1002
{
1002
}
1000
Base
1070
     3
1070
     0
1002
{
1002
}
1002
}
1000
IPN
1070
     8
1000
IPN
1002
{
1000
Color
1070
     1
1070
     7
1002
{
1002
}
1000
LType
1070
     4
1000
CONTINUOUS
1002
{
1002
}
1000
Base
1070
     3
1070
     0
1002
{
1002
}
1002
}
1002
}
1000
Extra
1070
     0
1002
{
1000
Klin
1070
     8
1000
KLIN
1002
{
1000
Color
1070
     1
1070
     1
1002
{
1002
}
1000
LType
1070
     4
1000
GEN3
1002
{
1002
}
1000
Base
1070
     3
1070
     1
1002
{
1002
}
1002
}
1000
Info
1070
     8
1000
INFO
1002
{
1000
Color
1070
     1
1070
     4
1002
{
1002
}
1000
LType
1070
     4
1000
CONTINUOUS
1002
{
1002
}
1000
Base
1070
     3
1070
     1
1002
{
1002
}
1002
}
1000
Rahm2
1070
     8
1000
RAHM2
1002
{
1000
Color
1070
     1
1070
     1
1002
{
1002
}
1000
LType
1070
     4
1000
CONTINUOUS
1002
{
1002
}
1000
Base
1070
     3
1070
     1
1002
{
1002
}
1002
}
1000
Rahm3
1070
     8
1000
RAHM3
1002
{
1000
Color
1070
     1
1070
     2
1002
{
1002
}
1000
LType
1070
     4
1000
CONTINUOUS
1002
{
1002
}
1000
Base
1070
     3
1070
     1
1002
{
1002
}
1002
}
1000
Rahm5
1070
     8
1000
RAHM5
1002
{
1000
Color
1070
     1
1070
     7
1002
{
1002
}
1000
LType
1070
     4
1000
CONTINUOUS
1002
{
1002
}
1000
Base
1070
     3
1070
     1
1002
{
1002
}
1002
}
1000
View
1070
     8
1000
VIEW
1002
{
1000
Color
1070
     1
1070
     1
1002
{
1002
}
1000
LType
1070
     4
1000
CONTINUOUS
1002
{
1002
}
1000
Base
1070
     3
1070
     1
1002
{
1002
}
1002
}
1000
Behind
1070
     8
1000
BEHIND
1002
{
1000
Color
1070
     1
1070
   253
1002
{
1002
}
1000
LType
1070
     4
1000
CONTINUOUS
1002
{
1002
}
1000
Base
1070
     3
1070
     1
1002
{
1002
}
1002
}
1002
}
  0
APPID
  5
1E5
330
9
100
AcDbSymbolTableRecord
100
AcDbRegAppTableRecord
  2
GENIUS_GENCFG2_13
 70
     0
1001
GENIUS_GENCFG_13
1071
919852330
1000
407
1000
GEN@LAYER@ENTSORT
1070
    10
1000
GenCfgObject
1000
GenCfgShort
1000
GenCfgReal
1000
GenCfgBool
1000
GenCfgString
1000
GenCfgDim
1000
GenCfgAttrInf
1000
GenCfgLaySection
1000
GenCfgLayer
1000
GenCfgEntSort
1000
ADDL
1070
     9
1000
5
1002
{
1000
Class
1070
     4
1000
SYM
1002
{
1002
}
1000
Color
1070
     1
1070
     1
1002
{
1002
}
1000
LType
1070
     4
1000
BYLAYER
1002
{
1002
}
1002
}
1000
ALTR
1070
     9
1000
4
1002
{
1000
Class
1070
     4
1000

1002
{
1002
}
1000
Color
1070
     1
1070
     7
1002
{
1002
}
1000
LType
1070
     4
1000
GEN3A
1002
{
1002
}
1002
}
1000
BELI
1070
     9
1000
4
1002
{
1000
Class
1070
     4
1000

1002
{
1002
}
1000
Color
1070
     1
1070
   256
1002
{
1002
}
1000
LType
1070
     4
1000
BYLAYER
1002
{
1002
}
1002
}
1000
BHNV
1070
     9
1000
9
1002
{
1000
Class
1070
     4
1000
INV
1002
{
1002
}
1000
Color
1070
     1
1070
   256
1002
{
1002
}
1000
LType
1070
     4
1000
BYLAYER
1002
{
1002
}
1002
}
1000
BHNVS
1070
     9
1000
BEHIND
1002
{
1000
Class
1070
     4
1000
INV
1002
{
1002
}
1000
Color
1070
     1
1070
   256
1002
{
1002
}
1000
LType
1070
     4
1000
BYLAYER
1002
{
1002
}
1002
}
1000
BLID
1070
     9
1000
4A
1002
{
1000
Class
1070
     4
1000

1002
{
1002
}
1000
Color
1070
     1
1070
   256
1002
{
1002
}
1000
LType
1070
     4
1000
BYLAYER
1002
{
1002
}
1002
}
1000
BOAP
1070
     9
1000
4A
1002
{
1000
Class
1070
     4
1000

1002
{
1002
}
1000
Color
1070
     1
1070
   256
1002
{
1002
}
1000
LType
1070
     4
1000
BYLAYER
1002
{
1002
}
1002
}
1000
BOR2
1070
     9
1000
RAHM2
1002
{
1000
Class
1070
     4
1000
SPZ,SYM
1002
{
1002
}
1000
Color
1070
     1
1070
   256
1002
{
1002
}
1000
LType
1070
     4
1000
BYLAYER
1002
{
1002
}
1002
}
1000
BOR3
1070
     9
1000
RAHM3
1002
{
1000
Class
1070
     4
1000
SPZ,SYM
1002
{
1002
}
1000
Color
1070
     1
1070
   256
1002
{
1002
}
1000
LType
1070
     4
1000
BYLAYER
1002
{
1002
}
1002
}
1000
BOR5
1070
     9
1000
RAHM5
1002
{
1000
Class
1070
     4
1000
SPZ,SYM
1002
{
1002
}
1000
Color
1070
     1
1070
   256
1002
{
1002
}
1000
LType
1070
     4
1000
BYLAYER
1002
{
1002
}
1002
}
1000
BOR7
1070
     9
1000
RAHM5
1002
{
1000
Class
1070
     4
1000
SPZ,SYM
1002
{
1002
}
1000
Color
1070
     1
1070
     7
1002
{
1002
}
1000
LType
1070
     4
1000
CONTINUOUS
1002
{
1002
}
1002
}
1000
BPAP
1070
     9
1000
e
1002
{
1000
Class
1070
     4
1000

1002
{
1002
}
1000
Color
1070
     1
1070
   256
1002
{
1002
}
1000
LType
1070
     4
1000
BYLAYER
1002
{
1002
}
1002
}
1000
BPEX
1070
     9
1000
4A
1002
{
1000
Class
1070
     4
1000

1002
{
1002
}
1000
Color
1070
     1
1070
   256
1002
{
1002
}
1000
LType
1070
     4
1000
BYLAYER
1002
{
1002
}
1002
}
1000
BTDI
1070
     9
1000
5
1002
{
1000
Class
1070
     4
1000
DIM,SYM
1002
{
1002
}
1000
Color
1070
     1
1070
   256
1002
{
1002
}
1000
LType
1070
     4
1000
BYLAYER
1002
{
1002
}
1002
}
1000
CAL2
1070
     9
1000
4
1002
{
1000
Class
1070
     4
1000
SYM
1002
{
1002
}
1000
Color
1070
     1
1070
   256
1002
{
1002
}
1000
LType
1070
     4
1000
BYLAYER
1002
{
1002
}
1002
}
1000
CAL3
1070
     9
1000
4
1002
{
1000
Class
1070
     4
1000
SYM
1002
{
1002
}
1000
Color
1070
     1
1070
     2
1002
{
1002
}
1000
LType
1070
     4
1000
BYLAYER
1002
{
1002
}
1002
}
1000
CAL5
1070
     9
1000
4
1002
{
1000
Class
1070
     4
1000
SYM
1002
{
1002
}
1000
Color
1070
     1
1070
     7
1002
{
1002
}
1000
LType
1070
     4
1000
BYLAYER
1002
{
1002
}
1002
}
1000
CAL7
1070
     9
1000
4
1002
{
1000
Class
1070
     4
1000
SYM
1002
{
1002
}
1000
Color
1070
     1
1070
     5
1002
{
1002
}
1000
LType
1070
     4
1000
BYLAYER
1002
{
1002
}
1002
}
1000
CENN
1070
     9
1000
7A
1002
{
1000
Class
1070
     4
1000
CEN
1002
{
1002
}
1000
Color
1070
     1
1070
   256
1002
{
1002
}
1000
LType
1070
     4
1000
BYLAYER
1002
{
1002
}
1002
}
1000
CENW
1070
     9
1000
7
1002
{
1000
Class
1070
     4
1000
CEN
1002
{
1002
}
1000
Color
1070
     1
1070
   256
1002
{
1002
}
1000
LType
1070
     4
1000
BYLAYER
1002
{
1002
}
1002
}
1000
CLIN
1070
     9
1000
KLIN
1002
{
1000
Class
1070
     4
1000
SPZ
1002
{
1002
}
1000
Color
1070
     1
1070
   256
1002
{
1002
}
1000
LType
1070
     4
1000
BYLAYER
1002
{
1002
}
1002
}
1000
CON1
1070
     9
1000
0
1002
{
1000
Class
1070
     4
1000
CON,BGD
1002
{
1002
}
1000
Color
1070
     1
1070
   256
1002
{
1002
}
1000
LType
1070
     4
1000
BYLAYER
1002
{
1002
}
1002
}
1000
CON2
1070
     9
1000
1
1002
{
1000
Class
1070
     4
1000
CON,BGD
1002
{
1002
}
1000
Color
1070
     1
1070
   256
1002
{
1002
}
1000
LType
1070
     4
1000
BYLAYER
1002
{
1002
}
1002
}
1000
CON3
1070
     9
1000
2
1002
{
1000
Class
1070
     4
1000
CON,BGD
1002
{
1002
}
1000
Color
1070
     1
1070
   256
1002
{
1002
}
1000
LType
1070
     4
1000
BYLAYER
1002
{
1002
}
1002
}
1000
CON4
1070
     9
1000
2
1002
{
1000
Class
1070
     4
1000
CON,BGD
1002
{
1002
}
1000
Color
1070
     1
1070
   256
1002
{
1002
}
1000
LType
1070
     4
1000
BYLAYER
1002
{
1002
}
1002
}
1000
DERP
1070
     9
1000
4
1002
{
1000
Class
1070
     4
1000

1002
{
1002
}
1000
Color
1070
     1
1070
   256
1002
{
1002
}
1000
LType
1070
     4
1000
BYLAYER
1002
{
1002
}
1002
}
1000
DETA
1070
     9
1000
4
1002
{
1000
Class
1070
     4
1000

1002
{
1002
}
1000
Color
1070
     1
1070
   256
1002
{
1002
}
1000
LType
1070
     4
1000
BYLAYER
1002
{
1002
}
1002
}
1000
DIAG
1070
     9
1000
5
1002
{
1000
Class
1070
     4
1000
SYM
1002
{
1002
}
1000
Color
1070
     1
1070
   256
1002
{
1002
}
1000
LType
1070
     4
1000
BYLAYER
1002
{
1002
}
1002
}
1000
DILI
1070
     9
1000
5
1002
{
1000
Class
1070
     4
1000
DIM,SYM
1002
{
1002
}
1000
Color
1070
     1
1070
   256
1002
{
1002
}
1000
LType
1070
     4
1000
BYLAYER
1002
{
1002
}
1002
}
1000
DITO2
1070
     9
1000
5
1002
{
1000
Class
1070
     4
1000
DIM,SYM
1002
{
1002
}
1000
Color
1070
     1
1070
     3
1002
{
1002
}
1000
LType
1070
     4
1000
BYLAYER
1002
{
1002
}
1002
}
1000
DITO3
1070
     9
1000
5
1002
{
1000
Class
1070
     4
1000
DIM,SYM
1002
{
1002
}
1000
Color
1070
     1
1070
     2
1002
{
1002
}
1000
LType
1070
     4
1000
BYLAYER
1002
{
1002
}
1002
}
1000
DITX
1070
     9
1000
5
1002
{
1000
Class
1070
     4
1000
DIM,SYM
1002
{
1002
}
1000
Color
1070
     1
1070
     1
1002
{
1002
}
1000
LType
1070
     4
1000
CONTINUOUS
1002
{
1002
}
1002
}
1000
DIXL
1070
     9
1000
5
1002
{
1000
Class
1070
     4
1000
DIM,SYM
1002
{
1002
}
1000
Color
1070
     1
1070
   256
1002
{
1002
}
1000
LType
1070
     4
1000
BYLAYER
1002
{
1002
}
1002
}
1000
EXMP
1070
     9
1000
4A
1002
{
1000
Class
1070
     4
1000

1002
{
1002
}
1000
Color
1070
     1
1070
   256
1002
{
1002
}
1000
LType
1070
     4
1000
BYLAYER
1002
{
1002
}
1002
}
1000
FEMN
1070
     9
1000
8
1002
{
1000
Class
1070
     4
1000

1002
{
1002
}
1000
Color
1070
     1
1070
   256
1002
{
1002
}
1000
LType
1070
     4
1000
BYLAYER
1002
{
1002
}
1002
}
1000
FEMPN
1070
     9
1000
8
1002
{
1000
Class
1070
     4
1000
SYM
1002
{
1002
}
1000
Color
1070
     1
1070
     3
1002
{
1002
}
1000
LType
1070
     4
1000
BYLAYER
1002
{
1002
}
1002
}
1000
FEMSP
1070
     9
1000
4A
1002
{
1000
Class
1070
     4
1000

1002
{
1002
}
1000
Color
1070
     1
1070
   256
1002
{
1002
}
1000
LType
1070
     4
1000
CONTINUOUS
1002
{
1002
}
1002
}
1000
FEMST
1070
     9
1000
4A
1002
{
1000
Class
1070
     4
1000
SYM
1002
{
1002
}
1000
Color
1070
     1
1070
     3
1002
{
1002
}
1000
LType
1070
     4
1000
BYLAYER
1002
{
1002
}
1002
}
1000
FEMVN
1070
     9
1000
2
1002
{
1000
Class
1070
     4
1000
CON
1002
{
1002
}
1000
Color
1070
     1
1070
   256
1002
{
1002
}
1000
LType
1070
     4
1000
BYLAYER
1002
{
1002
}
1002
}
1000
FEMVT
1070
     9
1000
2
1002
{
1000
Class
1070
     4
1000
SYM
1002
{
1002
}
1000
Color
1070
     1
1070
     3
1002
{
1002
}
1000
LType
1070
     4
1000
BYLAYER
1002
{
1002
}
1002
}
1000
FLAT
1070
     9
1000
0
1002
{
1000
Class
1070
     4
1000

1002
{
1002
}
1000
Color
1070
     1
1070
   256
1002
{
1002
}
1000
LType
1070
     4
1000
BYLAYER
1002
{
1002
}
1002
}
1000
FRAR
1070
     9
1000
4A
1002
{
1000
Class
1070
     4
1000

1002
{
1002
}
1000
Color
1070
     1
1070
   256
1002
{
1002
}
1000
LType
1070
     4
1000
BYLAYER
1002
{
1002
}
1002
}
1000
GRLI
1070
     9
1000
5
1002
{
1000
Class
1070
     4
1000
SYM
1002
{
1002
}
1000
Color
1070
     1
1070
   256
1002
{
1002
}
1000
LType
1070
     4
1000
BYLAYER
1002
{
1002
}
1002
}
1000
GVLI
1070
     9
1000
4A
1002
{
1000
Class
1070
     4
1000

1002
{
1002
}
1000
Color
1070
     1
1070
   256
1002
{
1002
}
1000
LType
1070
     4
1000
BYLAYER
1002
{
1002
}
1002
}
1000
HATC
1070
     9
1000
8
1002
{
1000
Class
1070
     4
1000
HTC,BGD
1002
{
1002
}
1000
Color
1070
     1
1070
   256
1002
{
1002
}
1000
LType
1070
     4
1000
BYLAYER
1002
{
1002
}
1002
}
1000
HIDN
1070
     9
1000
3A
1002
{
1000
Class
1070
     4
1000
HID,BGD
1002
{
1002
}
1000
Color
1070
     1
1070
   256
1002
{
1002
}
1000
LType
1070
     4
1000
BYLAYER
1002
{
1002
}
1002
}
1000
HIDW
1070
     9
1000
3
1002
{
1000
Class
1070
     4
1000
HID,BGD
1002
{
1002
}
1000
Color
1070
     1
1070
   256
1002
{
1002
}
1000
LType
1070
     4
1000
BYLAYER
1002
{
1002
}
1002
}
1000
HLIN
1070
     9
1000
4
1002
{
1000
Class
1070
     4
1000
BGD
1002
{
1002
}
1000
Color
1070
     1
1070
   256
1002
{
1002
}
1000
LType
1070
     4
1000
BYLAYER
1002
{
1002
}
1002
}
1000
HOCN
1070
     9
1000
7A
1002
{
1000
Class
1070
     4
1000
CEN
1002
{
1002
}
1000
Color
1070
     1
1070
   256
1002
{
1002
}
1000
LType
1070
     4
1000
BYLAYER
1002
{
1002
}
1002
}
1000
HOCW
1070
     9
1000
7
1002
{
1000
Class
1070
     4
1000
CEN
1002
{
1002
}
1000
Color
1070
     1
1070
   256
1002
{
1002
}
1000
LType
1070
     4
1000
BYLAYER
1002
{
1002
}
1002
}
1000
INFO
1070
     9
1000
INFO
1002
{
1000
Class
1070
     4
1000
SPZ,SYM
1002
{
1002
}
1000
Color
1070
     1
1070
   256
1002
{
1002
}
1000
LType
1070
     4
1000
BYLAYER
1002
{
1002
}
1002
}
1000
LADI
1070
     9
1000
4
1002
{
1000
Class
1070
     4
1000
BGD
1002
{
1002
}
1000
Color
1070
     1
1070
   256
1002
{
1002
}
1000
LType
1070
     4
1000
BYLAYER
1002
{
1002
}
1002
}
1000
LEAD
1070
     9
1000
5
1002
{
1000
Class
1070
     4
1000
SYM
1002
{
1002
}
1000
Color
1070
     1
1070
   256
1002
{
1002
}
1000
LType
1070
     4
1000
BYLAYER
1002
{
1002
}
1002
}
1000
N_ADDL
1070
     9
1000
5N
1002
{
1000
Class
1070
     4
1000
SYM
1002
{
1002
}
1000
Color
1070
     1
1070
     1
1002
{
1002
}
1000
LType
1070
     4
1000
BYLAYER
1002
{
1002
}
1002
}
1000
N_BHNV
1070
     9
1000
9N
1002
{
1000
Class
1070
     4
1000
INV
1002
{
1002
}
1000
Color
1070
     1
1070
   256
1002
{
1002
}
1000
LType
1070
     4
1000
BYLAYER
1002
{
1002
}
1002
}
1000
N_CON1
1070
     9
1000
0N
1002
{
1000
Class
1070
     4
1000
CON,BGD
1002
{
1002
}
1000
Color
1070
     1
1070
   256
1002
{
1002
}
1000
LType
1070
     4
1000
BYLAYER
1002
{
1002
}
1002
}
1000
N_CON2
1070
     9
1000
1N
1002
{
1000
Class
1070
     4
1000
CON,BGD
1002
{
1002
}
1000
Color
1070
     1
1070
   256
1002
{
1002
}
1000
LType
1070
     4
1000
BYLAYER
1002
{
1002
}
1002
}
1000
N_CON3
1070
     9
1000
2N
1002
{
1000
Class
1070
     4
1000
CON,BGD
1002
{
1002
}
1000
Color
1070
     1
1070
   256
1002
{
1002
}
1000
LType
1070
     4
1000
BYLAYER
1002
{
1002
}
1002
}
1000
N_CON4
1070
     9
1000
2N
1002
{
1000
Class
1070
     4
1000
CON,BGD
1002
{
1002
}
1000
Color
1070
     1
1070
   256
1002
{
1002
}
1000
LType
1070
     4
1000
BYLAYER
1002
{
1002
}
1002
}
1000
N_CENN
1070
     9
1000
7AN
1002
{
1000
Class
1070
     4
1000
CEN
1002
{
1002
}
1000
Color
1070
     1
1070
   256
1002
{
1002
}
1000
LType
1070
     4
1000
BYLAYER
1002
{
1002
}
1002
}
1000
N_CENW
1070
     9
1000
7N
1002
{
1000
Class
1070
     4
1000
CEN
1002
{
1002
}
1000
Color
1070
     1
1070
   256
1002
{
1002
}
1000
LType
1070
     4
1000
BYLAYER
1002
{
1002
}
1002
}
1000
N_DILI
1070
     9
1000
5N
1002
{
1000
Class
1070
     4
1000
DIM,SYM
1002
{
1002
}
1000
Color
1070
     1
1070
   256
1002
{
1002
}
1000
LType
1070
     4
1000
BYLAYER
1002
{
1002
}
1002
}
1000
N_DITX
1070
     9
1000
5N
1002
{
1000
Class
1070
     4
1000
DIM,SYM
1002
{
1002
}
1000
Color
1070
     1
1070
     2
1002
{
1002
}
1000
LType
1070
     4
1000
CONTINUOUS
1002
{
1002
}
1002
}
1000
N_DIXL
1070
     9
1000
5N
1002
{
1000
Class
1070
     4
1000
DIM,SYM
1002
{
1002
}
1000
Color
1070
     1
1070
   256
1002
{
1002
}
1000
LType
1070
     4
1000
BYLAYER
1002
{
1002
}
1002
}
1000
N_HATC
1070
     9
1000
8N
1002
{
1000
Class
1070
     4
1000
HTC,BGD
1002
{
1002
}
1000
Color
1070
     1
1070
   256
1002
{
1002
}
1000
LType
1070
     4
1000
BYLAYER
1002
{
1002
}
1002
}
1000
N_HIDN
1070
     9
1000
3AN
1002
{
1000
Class
1070
     4
1000
HID,BGD
1002
{
1002
}
1000
Color
1070
     1
1070
   256
1002
{
1002
}
1000
LType
1070
     4
1000
BYLAYER
1002
{
1002
}
1002
}
1000
N_HIDW
1070
     9
1000
3N
1002
{
1000
Class
1070
     4
1000
HID,BGD
1002
{
1002
}
1000
Color
1070
     1
1070
   256
1002
{
1002
}
1000
LType
1070
     4
1000
BYLAYER
1002
{
1002
}
1002
}
1000
N_NGIP
1070
     9
1000
IPN
1002
{
1000
Class
1070
     4
1000

1002
{
1002
}
1000
Color
1070
     1
1070
   256
1002
{
1002
}
1000
LType
1070
     4
1000
BYLAYER
1002
{
1002
}
1002
}
1000
N_PHAN
1070
     9
1000
4AN
1002
{
1000
Class
1070
     4
1000

1002
{
1002
}
1000
Color
1070
     1
1070
   256
1002
{
1002
}
1000
LType
1070
     4
1000
BYLAYER
1002
{
1002
}
1002
}
1000
N_POSL
1070
     9
1000
5N
1002
{
1000
Class
1070
     4
1000
SYM
1002
{
1002
}
1000
Color
1070
     1
1070
   256
1002
{
1002
}
1000
LType
1070
     4
1000
BYLAYER
1002
{
1002
}
1002
}
1000
N_TCON
1070
     9
1000
0N
1002
{
1000
Class
1070
     4
1000
CON,BGD
1002
{
1002
}
1000
Color
1070
     1
1070
   256
1002
{
1002
}
1000
LType
1070
     4
1000
BYLAYER
1002
{
1002
}
1002
}
1000
N_THLI
1070
     9
1000
4N
1002
{
1000
Class
1070
     4
1000
BGD
1002
{
1002
}
1000
Color
1070
     1
1070
   256
1002
{
1002
}
1000
LType
1070
     4
1000
BYLAYER
1002
{
1002
}
1002
}
1000
N_TLEN
1070
     9
1000
0N
1002
{
1000
Class
1070
     4
1000
CON,BGD
1002
{
1002
}
1000
Color
1070
     1
1070
   256
1002
{
1002
}
1000
LType
1070
     4
1000
BYLAYER
1002
{
1002
}
1002
}
1000
N_TXT3
1070
     9
1000
6N
1002
{
1000
Class
1070
     4
1000
SYM
1002
{
1002
}
1000
Color
1070
     1
1070
   256
1002
{
1002
}
1000
LType
1070
     4
1000
BYLAYER
1002
{
1002
}
1002
}
1000
N_VPLI
1070
     9
1000
2AN
1002
{
1000
Class
1070
     4
1000

1002
{
1002
}
1000
Color
1070
     1
1070
   256
1002
{
1002
}
1000
LType
1070
     4
1000
BYLAYER
1002
{
1002
}
1002
}
1000
NGIP
1070
     9
1000
IP
1002
{
1000
Class
1070
     4
1000

1002
{
1002
}
1000
Color
1070
     1
1070
   256
1002
{
1002
}
1000
LType
1070
     4
1000
BYLAYER
1002
{
1002
}
1002
}
1000
PAL2
1070
     9
1000
RAHM2
1002
{
1000
Class
1070
     4
1000
SPZ,SYM
1002
{
1002
}
1000
Color
1070
     1
1070
   256
1002
{
1002
}
1000
LType
1070
     4
1000
BYLAYER
1002
{
1002
}
1002
}
1000
PAL3
1070
     9
1000
RAHM3
1002
{
1000
Class
1070
     4
1000
SPZ,SYM
1002
{
1002
}
1000
Color
1070
     1
1070
   256
1002
{
1002
}
1000
LType
1070
     4
1000
BYLAYER
1002
{
1002
}
1002
}
1000
PAL5
1070
     9
1000
RAHM5
1002
{
1000
Class
1070
     4
1000
SPZ,SYM
1002
{
1002
}
1000
Color
1070
     1
1070
   256
1002
{
1002
}
1000
LType
1070
     4
1000
BYLAYER
1002
{
1002
}
1002
}
1000
PAL7
1070
     9
1000
RAHM5
1002
{
1000
Class
1070
     4
1000
SPZ,SYM
1002
{
1002
}
1000
Color
1070
     1
1070
     7
1002
{
1002
}
1000
LType
1070
     4
1000
CONTINUOUS
1002
{
1002
}
1002
}
1000
PHAN
1070
     9
1000
4A
1002
{
1000
Class
1070
     4
1000

1002
{
1002
}
1000
Color
1070
     1
1070
   256
1002
{
1002
}
1000
LType
1070
     4
1000
BYLAYER
1002
{
1002
}
1002
}
1000
POSL
1070
     9
1000
5
1002
{
1000
Class
1070
     4
1000
SYM
1002
{
1002
}
1000
Color
1070
     1
1070
   256
1002
{
1002
}
1000
LType
1070
     4
1000
BYLAYER
1002
{
1002
}
1002
}
1000
POSN
1070
     9
1000
6
1002
{
1000
Class
1070
     4
1000
SYM
1002
{
1002
}
1000
Color
1070
     1
1070
     7
1002
{
1002
}
1000
LType
1070
     4
1000
BYLAYER
1002
{
1002
}
1002
}
1000
POSREF
1070
     9
1000
6
1002
{
1000
Class
1070
     4
1000
SYM
1002
{
1002
}
1000
Color
1070
     1
1070
     5
1002
{
1002
}
1000
LType
1070
     4
1000
BYLAYER
1002
{
1002
}
1002
}
1000
POSX
1070
     9
1000
5
1002
{
1000
Class
1070
     4
1000
SYM
1002
{
1002
}
1000
Color
1070
     1
1070
     2
1002
{
1002
}
1000
LType
1070
     4
1000
CONTINUOUS
1002
{
1002
}
1002
}
1000
PSEC
1070
     9
1000
4A
1002
{
1000
Class
1070
     4
1000

1002
{
1002
}
1000
Color
1070
     1
1070
   256
1002
{
1002
}
1000
LType
1070
     4
1000
BYLAYER
1002
{
1002
}
1002
}
1000
RCGN
1070
     9
1000
7A
1002
{
1000
Class
1070
     4
1000
CEN
1002
{
1002
}
1000
Color
1070
     1
1070
   256
1002
{
1002
}
1000
LType
1070
     4
1000
BYLAYER
1002
{
1002
}
1002
}
1000
RCGW
1070
     9
1000
7
1002
{
1000
Class
1070
     4
1000
CEN
1002
{
1002
}
1000
Color
1070
     1
1070
   256
1002
{
1002
}
1000
LType
1070
     4
1000
BYLAYER
1002
{
1002
}
1002
}
1000
RFDI
1070
     9
1000
4
1002
{
1000
Class
1070
     4
1000
BGD
1002
{
1002
}
1000
Color
1070
     1
1070
   256
1002
{
1002
}
1000
LType
1070
     4
1000
BYLAYER
1002
{
1002
}
1002
}
1000
RQTR
1070
     9
1000
4
1002
{
1000
Class
1070
     4
1000

1002
{
1002
}
1000
Color
1070
     1
1070
     7
1002
{
1002
}
1000
LType
1070
     4
1000
GEN7A
1002
{
1002
}
1002
}
1000
RSBO
1070
     9
1000
4
1002
{
1000
Class
1070
     4
1000
BGD
1002
{
1002
}
1000
Color
1070
     1
1070
   256
1002
{
1002
}
1000
LType
1070
     4
1000
BYLAYER
1002
{
1002
}
1002
}
1000
SBRK
1070
     9
1000
4
1002
{
1000
Class
1070
     4
1000
BGD
1002
{
1002
}
1000
Color
1070
     1
1070
   256
1002
{
1002
}
1000
LType
1070
     4
1000
BYLAYER
1002
{
1002
}
1002
}
1000
SCEN
1070
     9
1000
7
1002
{
1000
Class
1070
     4
1000

1002
{
1002
}
1000
Color
1070
     1
1070
   256
1002
{
1002
}
1000
LType
1070
     4
1000
CONTINUOUS
1002
{
1002
}
1002
}
1000
SECT
1070
     9
1000
4
1002
{
1000
Class
1070
     4
1000
BGD
1002
{
1002
}
1000
Color
1070
     1
1070
   256
1002
{
1002
}
1000
LType
1070
     4
1000
BYLAYER
1002
{
1002
}
1002
}
1000
SELN
1070
     9
1000
7A
1002
{
1000
Class
1070
     4
1000

1002
{
1002
}
1000
Color
1070
     1
1070
   256
1002
{
1002
}
1000
LType
1070
     4
1000
BYLAYER
1002
{
1002
}
1002
}
1000
SELW
1070
     9
1000
7
1002
{
1000
Class
1070
     4
1000

1002
{
1002
}
1000
Color
1070
     1
1070
   256
1002
{
1002
}
1000
LType
1070
     4
1000
BYLAYER
1002
{
1002
}
1002
}
1000
SSYS
1070
     9
1000
0
1002
{
1000
Class
1070
     4
1000

1002
{
1002
}
1000
Color
1070
     1
1070
   256
1002
{
1002
}
1000
LType
1070
     4
1000
BYLAYER
1002
{
1002
}
1002
}
1000
STLI
1070
     9
1000
4
1002
{
1000
Class
1070
     4
1000

1002
{
1002
}
1000
Color
1070
     1
1070
     7
1002
{
1002
}
1000
LType
1070
     4
1000
GEN3A
1002
{
1002
}
1002
}
1000
SYB1
1070
     9
1000
5
1002
{
1000
Class
1070
     4
1000
SYM
1002
{
1002
}
1000
Color
1070
     1
1070
   256
1002
{
1002
}
1000
LType
1070
     4
1000
BYLAYER
1002
{
1002
}
1002
}
1000
SYB2
1070
     9
1000
5
1002
{
1000
Class
1070
     4
1000
SYM
1002
{
1002
}
1000
Color
1070
     1
1070
   256
1002
{
1002
}
1000
LType
1070
     4
1000
BYLAYER
1002
{
1002
}
1002
}
1000
SYB3
1070
     9
1000
6
1002
{
1000
Class
1070
     4
1000
SYM
1002
{
1002
}
1000
Color
1070
     1
1070
   256
1002
{
1002
}
1000
LType
1070
     4
1000
CONTINUOUS
1002
{
1002
}
1002
}
1000
SYB5
1070
     9
1000
5
1002
{
1000
Class
1070
     4
1000
SYM
1002
{
1002
}
1000
Color
1070
     1
1070
     7
1002
{
1002
}
1000
LType
1070
     4
1000
BYLAYER
1002
{
1002
}
1002
}
1000
SYMN
1070
     9
1000
7A
1002
{
1000
Class
1070
     4
1000
CEN
1002
{
1002
}
1000
Color
1070
     1
1070
   256
1002
{
1002
}
1000
LType
1070
     4
1000
BYLAYER
1002
{
1002
}
1002
}
1000
SYMW
1070
     9
1000
7
1002
{
1000
Class
1070
     4
1000
CEN
1002
{
1002
}
1000
Color
1070
     1
1070
   256
1002
{
1002
}
1000
LType
1070
     4
1000
BYLAYER
1002
{
1002
}
1002
}
1000
TCON
1070
     9
1000
0
1002
{
1000
Class
1070
     4
1000
CON,BGD
1002
{
1002
}
1000
Color
1070
     1
1070
   256
1002
{
1002
}
1000
LType
1070
     4
1000
BYLAYER
1002
{
1002
}
1002
}
1000
THLI
1070
     9
1000
4
1002
{
1000
Class
1070
     4
1000
BGD
1002
{
1002
}
1000
Color
1070
     1
1070
   256
1002
{
1002
}
1000
LType
1070
     4
1000
BYLAYER
1002
{
1002
}
1002
}
1000
TIT2
1070
     9
1000
RAHM2
1002
{
1000
Class
1070
     4
1000
SPZ,SYM
1002
{
1002
}
1000
Color
1070
     1
1070
   256
1002
{
1002
}
1000
LType
1070
     4
1000
BYLAYER
1002
{
1002
}
1002
}
1000
TIT3
1070
     9
1000
RAHM3
1002
{
1000
Class
1070
     4
1000
SPZ,SYM
1002
{
1002
}
1000
Color
1070
     1
1070
   256
1002
{
1002
}
1000
LType
1070
     4
1000
BYLAYER
1002
{
1002
}
1002
}
1000
TIT5
1070
     9
1000
RAHM5
1002
{
1000
Class
1070
     4
1000
SPZ,SYM
1002
{
1002
}
1000
Color
1070
     1
1070
   256
1002
{
1002
}
1000
LType
1070
     4
1000
BYLAYER
1002
{
1002
}
1002
}
1000
TIT7
1070
     9
1000
RAHM5
1002
{
1000
Class
1070
     4
1000
SPZ,SYM
1002
{
1002
}
1000
Color
1070
     1
1070
     7
1002
{
1002
}
1000
LType
1070
     4
1000
CONTINUOUS
1002
{
1002
}
1002
}
1000
TLEN
1070
     9
1000
0
1002
{
1000
Class
1070
     4
1000
CON,BGD
1002
{
1002
}
1000
Color
1070
     1
1070
   256
1002
{
1002
}
1000
LType
1070
     4
1000
BYLAYER
1002
{
1002
}
1002
}
1000
TRKN
1070
     9
1000
7A
1002
{
1000
Class
1070
     4
1000

1002
{
1002
}
1000
Color
1070
     1
1070
   256
1002
{
1002
}
1000
LType
1070
     4
1000
BYLAYER
1002
{
1002
}
1002
}
1000
TRKW
1070
     9
1000
7
1002
{
1000
Class
1070
     4
1000

1002
{
1002
}
1000
Color
1070
     1
1070
   256
1002
{
1002
}
1000
LType
1070
     4
1000
BYLAYER
1002
{
1002
}
1002
}
1000
TRLI
1070
     9
1000
4
1002
{
1000
Class
1070
     4
1000
BGD
1002
{
1002
}
1000
Color
1070
     1
1070
   256
1002
{
1002
}
1000
LType
1070
     4
1000
BYLAYER
1002
{
1002
}
1002
}
1000
TXT1
1070
     9
1000
6
1002
{
1000
Class
1070
     4
1000
SYM
1002
{
1002
}
1000
Color
1070
     1
1070
     2
1002
{
1002
}
1000
LType
1070
     4
1000
BYLAYER
1002
{
1002
}
1002
}
1000
TXT2
1070
     9
1000
6
1002
{
1000
Class
1070
     4
1000
SYM
1002
{
1002
}
1000
Color
1070
     1
1070
     2
1002
{
1002
}
1000
LType
1070
     4
1000
BYLAYER
1002
{
1002
}
1002
}
1000
TXT3
1070
     9
1000
6
1002
{
1000
Class
1070
     4
1000
SYM
1002
{
1002
}
1000
Color
1070
     1
1070
   256
1002
{
1002
}
1000
LType
1070
     4
1000
BYLAYER
1002
{
1002
}
1002
}
1000
TXT5
1070
     9
1000
6
1002
{
1000
Class
1070
     4
1000
SYM
1002
{
1002
}
1000
Color
1070
     1
1070
     7
1002
{
1002
}
1000
LType
1070
     4
1000
BYLAYER
1002
{
1002
}
1002
}
1000
TXT7
1070
     9
1000
6
1002
{
1000
Class
1070
     4
1000
SYM
1002
{
1002
}
1000
Color
1070
     1
1070
     7
1002
{
1002
}
1000
LType
1070
     4
1000
BYLAYER
1002
{
1002
}
1002
}
1000
VIEW
1070
     9
1000
VIEW
1002
{
1000
Class
1070
     4
1000
SPZ
1002
{
1002
}
1000
Color
1070
     1
1070
   256
1002
{
1002
}
1000
LType
1070
     4
1000
BYLAYER
1002
{
1002
}
1002
}
1000
VPLI
1070
     9
1000
2A
1002
{
1000
Class
1070
     4
1000

1002
{
1002
}
1000
Color
1070
     1
1070
   256
1002
{
1002
}
1000
LType
1070
     4
1000
BYLAYER
1002
{
1002
}
1002
}
1000
ZIZA
1070
     9
1000
4
1002
{
1000
Class
1070
     4
1000
BGD
1002
{
1002
}
1000
Color
1070
     1
1070
   256
1002
{
1002
}
1000
LType
1070
     4
1000
GENZIGZAG
1002
{
1002
}
1002
}
  0
APPID
  5
1E6
330
9
100
AcDbSymbolTableRecord
100
AcDbRegAppTableRecord
  2
GENIUS_GENCFG3_13
 70
     0
1001
GENIUS_GENCFG_13
1071
919852330
1000
408
1000
GEN@OSWIZ
1070
    12
1000
GenCfgObject
1000
GenCfgShort
1000
GenCfgReal
1000
GenCfgBool
1000
GenCfgString
1000
GenCfgDim
1000
GenCfgAttrInf
1000
GenCfgLaySection
1000
GenCfgLayer
1000
GenCfgEntSort
1000
GenCfgLType
1000
GenCfgFilter
1000
Filter
1070
     0
1002
{
1000
HATCH
1070
    11
1002
{
1000
EntityType
1070
     4
1000
LINE
1002
{
1002
}
1000
Layer
1070
     4
1000
8,8N,*-8,*-8N
1002
{
1002
}
1000
Linetype
1070
     4
1000
*
1002
{
1002
}
1000
Color
1070
     4
1000
*
1002
{
1002
}
1000
ApplyInDims
1070
     3
1070
     1
1002
{
1002
}
1002
}
1000
SYMBOLS
1070
    11
1002
{
1000
EntityType
1070
     4
1000
*
1002
{
1002
}
1000
Layer
1070
     4
1000
[5-6],[5-6]N,*-[5-6],*-[5-6]N
1002
{
1002
}
1000
Linetype
1070
     4
1000
*
1002
{
1002
}
1000
Color
1070
     4
1000
*
1002
{
1002
}
1000
ApplyInDims
1070
     3
1070
     1
1002
{
1002
}
1002
}
1000
FEM
1070
    11
1002
{
1000
EntityType
1070
     4
1000
*
1002
{
1002
}
1000
Layer
1070
     4
1000
4A,4AN,*-4A,*-4AN
1002
{
1002
}
1000
Linetype
1070
     4
1000
*
1002
{
1002
}
1000
Color
1070
     4
1000
*
1002
{
1002
}
1000
ApplyInDims
1070
     3
1070
     1
1002
{
1002
}
1002
}
1002
}
  0
APPID
  5
1E7
330
9
100
AcDbSymbolTableRecord
100
AcDbRegAppTableRecord
  2
GENIUS_GENCFG4_13
 70
     0
1001
GENIUS_GENCFG_13
1071
919852469
1000
409
1000
GEN
1070
     8
1000
GenCfgObject
1000
GenCfgShort
1000
GenCfgReal
1000
GenCfgBool
1000
GenCfgString
1000
GenCfgDim
1000
GenCfgLaySection
1000
GenCfgLType
1000
Balloon
1070
     0
1002
{
1000
GenIF
1070
     1
1070
     0
1002
{
1002
}
1000
GenPosInc
1070
     1
1070
     1
1002
{
1002
}
1000
GenPosBlk
1070
     1
1070
     8
1002
{
1002
}
1000
GenPosVar
1070
     1
1070
     0
1002
{
1002
}
1000
GenZiCir
1070
     2
1040
1.5
1002
{
1002
}
1000
MaxCharForCenteredText
1070
     1
1070
    30
1002
{
1002
}
1000
Snap
1070
     0
1002
{
1000
ActivationRadius
1070
     2
1040
1.0
1002
{
1002
}
1000
M
1070
     0
1002
{
1000
SnapStepX
1070
     2
1040
20.0
1002
{
1002
}
1000
SnapStepY
1070
     2
1040
10.0
1002
{
1002
}
1002
}
1000
I
1070
     0
1002
{
1000
SnapStepX
1070
     2
1040
1.0
1002
{
1002
}
1000
SnapStepY
1070
     2
1040
0.5
1002
{
1002
}
1002
}
1002
}
1002
}
1000
Centerline
1070
     0
1002
{
1000
ScaleNot
1070
     3
1070
     0
1002
{
1002
}
1000
M
1070
     0
1002
{
1000
GenCenAng
1070
     4
1000
45|90|135
1002
{
1002
}
1000
GenCenDia
1070
     2
1040
10.0
1002
{
1002
}
1000
GenCenDias
1070
     4
1000
10|20|30
1002
{
1002
}
1000
GenCenDist
1070
     2
1040
3.0
1002
{
1002
}
1000
GenCenLen
1070
     2
1040
10.0
1002
{
1002
}
1000
GenCenOff
1070
     2
1040
10.0
1002
{
1002
}
1002
}
1000
I
1070
     0
1002
{
1000
GenCenAng
1070
     4
1000
45|90|135
1002
{
1002
}
1000
GenCenDia
1070
     2
1040
0.5
1002
{
1002
}
1000
GenCenDias
1070
     4
1000
0.5|1.0|1.5
1002
{
1002
}
1000
GenCenDist
1070
     2
1040
0.125
1002
{
1002
}
1000
GenCenLen
1070
     2
1040
0.5
1002
{
1002
}
1000
GenCenOff
1070
     2
1040
0.5
1002
{
1002
}
1002
}
1002
}
1000
CLine
1070
     0
1002
{
1000
CAngArray
1070
     4
1000
30|45|60
1002
{
1002
}
1000
Typ
1070
     4
1000
XLINE
1002
{
1002
}
1000
M
1070
     0
1002
{
1000
CLinArray
1070
     4
1000
10|20|30
1002
{
1002
}
1002
}
1000
I
1070
     0
1002
{
1000
CLinArray
1070
     4
1000
0.125|0.25|0.5
1002
{
1002
}
1002
}
1002
}
1000
Detail
1070
     0
1002
{
1002
}
1000
Dimension
1070
     5
1002
{
1000
DIMALT
1070
     1
1070
     0
1002
{
1002
}
1000
DIMALTD
1070
     1
1070
     2
1002
{
1002
}
1000
DIMALTTD
1070
     1
1070
     4
1002
{
1002
}
1000
DIMALTTZ
1070
     1
1070
     0
1002
{
1002
}
1000
DIMALTU
1070
     1
1070
     2
1002
{
1002
}
1000
DIMALTZ
1070
     1
1070
     0
1002
{
1002
}
1000
DIMAUNIT
1070
     1
1070
     0
1002
{
1002
}
1000
DIMBLK
1070
     4
1000

1002
{
1002
}
1000
DIMBLK1
1070
     4
1000

1002
{
1002
}
1000
DIMBLK2
1070
     4
1000

1002
{
1002
}
1000
DIMCLRD
1070
     1
1070
   256
1002
{
1002
}
1000
DIMCLRE
1070
     1
1070
   256
1002
{
1002
}
1000
DIMCLRT
1070
     1
1070
     1
1002
{
1002
}
1000
DIMDLE
1070
     2
1040
0.0
1002
{
1002
}
1000
DIMFIT
1070
     1
1070
     3
1002
{
1002
}
1000
DIMJUST
1070
     1
1070
     0
1002
{
1002
}
1000
DIMLFAC
1070
     2
1040
1.0
1002
{
1002
}
1000
DIMLIM
1070
     1
1070
     0
1002
{
1002
}
1000
DIMPOST
1070
     4
1000

1002
{
1002
}
1000
DIMRND
1070
     2
1040
0.0
1002
{
1002
}
1000
DIMSAH
1070
     1
1070
     0
1002
{
1002
}
1000
DIMSCALE
1070
     2
1040
1.0
1002
{
1002
}
1000
DIMSD1
1070
     1
1070
     0
1002
{
1002
}
1000
DIMSD2
1070
     1
1070
     0
1002
{
1002
}
1000
DIMSE1
1070
     1
1070
     0
1002
{
1002
}
1000
DIMSE2
1070
     1
1070
     0
1002
{
1002
}
1000
DIMSOXD
1070
     1
1070
     0
1002
{
1002
}
1000
DIMTAD
1070
     1
1070
     2
1002
{
1002
}
1000
DIMTFAC
1070
     2
1040
0.71
1002
{
1002
}
1000
DIMTIH
1070
     1
1070
     0
1002
{
1002
}
1000
DIMTIX
1070
     1
1070
     0
1002
{
1002
}
1000
DIMTM
1070
     2
1040
0.1
1002
{
1002
}
1000
DIMTOFL
1070
     1
1070
     0
1002
{
1002
}
1000
DIMTOH
1070
     1
1070
     0
1002
{
1002
}
1000
DIMTOL
1070
     1
1070
     0
1002
{
1002
}
1000
DIMTOLJ
1070
     1
1070
     1
1002
{
1002
}
1000
DIMTP
1070
     2
1040
0.1
1002
{
1002
}
1000
DIMTSZ
1070
     2
1040
0.0
1002
{
1002
}
1000
DIMTVP
1070
     2
1040
0.0
1002
{
1002
}
1000
DIMTXSTY
1070
     4
1000
STANDARD
1002
{
1002
}
1000
DIMTZIN
1070
     1
1070
     0
1002
{
1002
}
1000
DIMUNIT
1070
     1
1070
     2
1002
{
1002
}
1000
DIMUPT
1070
     1
1070
     0
1002
{
1002
}
1000
M
1070
     0
1002
{
1000
DIMALTF
1070
     2
1040
0.0393701
1002
{
1002
}
1000
DIMAPOST
1070
     4
1000
<>
1002
{
1002
}
1000
DIMASZ
1070
     2
1040
2.5
1002
{
1002
}
1000
DIMCEN
1070
     2
1040
0.0
1002
{
1002
}
1000
DIMDEC
1070
     1
1070
     2
1002
{
1002
}
1000
DIMDLI
1070
     2
1040
0.0
1002
{
1002
}
1000
DIMEXE
1070
     2
1040
1.0
1002
{
1002
}
1000
DIMEXO
1070
     2
1040
1.0
1002
{
1002
}
1000
DIMGAP
1070
     2
1040
1.5
1002
{
1002
}
1000
DIMTDEC
1070
     1
1070
     3
1002
{
1002
}
1000
DIMTXT
1070
     2
1040
3.5
1002
{
1002
}
1000
DIMZIN
1070
     1
1070
     8
1002
{
1002
}
1002
}
1000
I
1070
     0
1002
{
1000
DIMALTF
1070
     2
1040
25.4
1002
{
1002
}
1000
DIMAPOST
1070
     4
1000
mm
1002
{
1002
}
1000
DIMASZ
1070
     2
1040
0.1
1002
{
1002
}
1000
DIMCEN
1070
     2
1040
0.0
1002
{
1002
}
1000
DIMDEC
1070
     1
1070
     4
1002
{
1002
}
1000
DIMDLI
1070
     2
1040
0.5
1002
{
1002
}
1000
DIMEXE
1070
     2
1040
0.1
1002
{
1002
}
1000
DIMEXO
1070
     2
1040
0.05
1002
{
1002
}
1000
DIMGAP
1070
     2
1040
0.06
1002
{
1002
}
1000
DIMTDEC
1070
     1
1070
     4
1002
{
1002
}
1000
DIMTXT
1070
     2
1040
0.12
1002
{
1002
}
1000
DIMZIN
1070
     1
1070
     7
1002
{
1002
}
1002
}
1000
GEN-ISO
1070
     5
1002
{
1000
NAME
1070
     4
1000
GEN-ISO
1002
{
1002
}
1000
DIMTAD
1070
     1
1070
     1
1002
{
1002
}
1000
DIMTOLJ
1070
     1
1070
     0
1002
{
1002
}
1000
DIMTOFL
1070
     1
1070
     1
1002
{
1002
}
1000
M
1070
     0
1002
{
1002
}
1000
I
1070
     0
1002
{
1002
}
1000
DIMPOST
1070
     4
1000
<>
1002
{
1002
}
1002
}
1000
GEN-ISO-POS
1070
     5
1002
{
1000
NAME
1070
     4
1000
GEN-ISO-POS
1002
{
1002
}
1000
DIMTOLJ
1070
     1
1070
     0
1002
{
1002
}
1000
DIMTXSTY
1070
     4
1000
STANDARD
1002
{
1002
}
1000
M
1070
     0
1002
{
1000
DIMASZ
1070
     2
1040
2.5
1002
{
1002
}
1000
DIMGAP
1070
     2
1040
1.5
1002
{
1002
}
1000
DIMTXT
1070
     2
1040
5.0
1002
{
1002
}
1002
}
1000
I
1070
     0
1002
{
1000
DIMASZ
1070
     2
1040
0.1
1002
{
1002
}
1000
DIMGAP
1070
     2
1040
0.06
1002
{
1002
}
1000
DIMTXT
1070
     2
1040
0.2
1002
{
1002
}
1002
}
1002
}
1000
GEN-ISO-CIR
1070
     5
1002
{
1000
NAME
1070
     4
1000
GEN-ISO$3
1002
{
1002
}
1000
DIMFIT
1070
     1
1070
     0
1002
{
1002
}
1000
DIMTAD
1070
     1
1070
     1
1002
{
1002
}
1000
DIMTIH
1070
     1
1070
     0
1002
{
1002
}
1000
DIMTIX
1070
     1
1070
     0
1002
{
1002
}
1000
DIMTOH
1070
     1
1070
     1
1002
{
1002
}
1000
DIMTOLJ
1070
     1
1070
     0
1002
{
1002
}
1000
DIMTOFL
1070
     1
1070
     0
1002
{
1002
}
1000
DIMUPT
1070
     1
1070
     1
1002
{
1002
}
1000
M
1070
     0
1002
{
1002
}
1000
I
1070
     0
1002
{
1002
}
1002
}
1000
GEN-ISO-RAD
1070
     5
1002
{
1000
NAME
1070
     4
1000
GEN-ISO$4
1002
{
1002
}
1000
DIMFIT
1070
     1
1070
     0
1002
{
1002
}
1000
DIMTAD
1070
     1
1070
     1
1002
{
1002
}
1000
DIMTIH
1070
     1
1070
     0
1002
{
1002
}
1000
DIMTIX
1070
     1
1070
     0
1002
{
1002
}
1000
DIMTOH
1070
     1
1070
     1
1002
{
1002
}
1000
DIMTOLJ
1070
     1
1070
     0
1002
{
1002
}
1000
DIMTOFL
1070
     1
1070
     0
1002
{
1002
}
1000
DIMUPT
1070
     1
1070
     1
1002
{
1002
}
1000
M
1070
     0
1002
{
1002
}
1000
I
1070
     0
1002
{
1002
}
1002
}
1000
GEN-ISO-ORD
1070
     5
1002
{
1000
NAME
1070
     4
1000
GEN-ISO$6
1002
{
1002
}
1000
DIMTOLJ
1070
     1
1070
     0
1002
{
1002
}
1000
M
1070
     0
1002
{
1002
}
1000
I
1070
     0
1002
{
1002
}
1002
}
1000
GEN-ISO-AXE-F
1070
     5
1002
{
1000
NAME
1070
     4
1000
GEN-ISO-AXE-F
1002
{
1002
}
1000
DIMSE1
1070
     1
1070
     1
1002
{
1002
}
1000
DIMSE2
1070
     1
1070
     1
1002
{
1002
}
1000
DIMTAD
1070
     1
1070
     1
1002
{
1002
}
1000
DIMTOLJ
1070
     1
1070
     0
1002
{
1002
}
1000
DIMTOFL
1070
     1
1070
     1
1002
{
1002
}
1000
M
1070
     0
1002
{
1002
}
1000
I
1070
     0
1002
{
1002
}
1002
}
1000
GEN-ISO-AXE-H
1070
     5
1002
{
1000
DIMBLK1
1070
     4
1000
GENAXEH
1002
{
1002
}
1000
DIMLFAC
1070
     2
1040
2.0
1002
{
1002
}
1000
DIMSAH
1070
     1
1070
     1
1002
{
1002
}
1000
DIMSE1
1070
     1
1070
     1
1002
{
1002
}
1000
DIMSE2
1070
     1
1070
     1
1002
{
1002
}
1000
DIMTAD
1070
     1
1070
     1
1002
{
1002
}
1000
DIMTOLJ
1070
     1
1070
     0
1002
{
1002
}
1000
DIMTOFL
1070
     1
1070
     1
1002
{
1002
}
1000
M
1070
     0
1002
{
1002
}
1000
I
1070
     0
1002
{
1002
}
1002
}
1000
GEN-ANSI
1070
     5
1002
{
1000
NAME
1070
     4
1000
GEN-ANSI
1002
{
1002
}
1000
DIMTIH
1070
     1
1070
     1
1002
{
1002
}
1000
DIMTOH
1070
     1
1070
     1
1002
{
1002
}
1000
DIMTAD
1070
     1
1070
     0
1002
{
1002
}
1000
DIMTOLJ
1070
     1
1070
     1
1002
{
1002
}
1000
M
1070
     0
1002
{
1002
}
1000
I
1070
     0
1002
{
1002
}
1002
}
1000
GEN-ANSI-POS
1070
     5
1002
{
1000
NAME
1070
     4
1000
GEN-ANSI-POS
1002
{
1002
}
1000
DIMTOLJ
1070
     1
1070
     1
1002
{
1002
}
1000
DIMTXSTY
1070
     4
1000
STANDARD
1002
{
1002
}
1000
M
1070
     0
1002
{
1000
DIMASZ
1070
     2
1040
2.5
1002
{
1002
}
1000
DIMGAP
1070
     2
1040
1.5
1002
{
1002
}
1000
DIMTXT
1070
     2
1040
5.0
1002
{
1002
}
1002
}
1000
I
1070
     0
1002
{
1000
DIMASZ
1070
     2
1040
0.1
1002
{
1002
}
1000
DIMGAP
1070
     2
1040
0.06
1002
{
1002
}
1000
DIMTXT
1070
     2
1040
0.2
1002
{
1002
}
1002
}
1002
}
1000
GEN-ANSI-CIR
1070
     5
1002
{
1000
NAME
1070
     4
1000
GEN-ANSI$3
1002
{
1002
}
1000
DIMFIT
1070
     1
1070
     0
1002
{
1002
}
1000
DIMTAD
1070
     1
1070
     0
1002
{
1002
}
1000
DIMTIH
1070
     1
1070
     1
1002
{
1002
}
1000
DIMTIX
1070
     1
1070
     0
1002
{
1002
}
1000
DIMTOFL
1070
     1
1070
     0
1002
{
1002
}
1000
DIMTOH
1070
     1
1070
     1
1002
{
1002
}
1000
DIMTOLJ
1070
     1
1070
     1
1002
{
1002
}
1000
DIMUPT
1070
     1
1070
     1
1002
{
1002
}
1000
M
1070
     0
1002
{
1002
}
1000
I
1070
     0
1002
{
1002
}
1002
}
1000
GEN-ANSI-RAD
1070
     5
1002
{
1000
NAME
1070
     4
1000
GEN-ANSI$4
1002
{
1002
}
1000
DIMFIT
1070
     1
1070
     0
1002
{
1002
}
1000
DIMTAD
1070
     1
1070
     0
1002
{
1002
}
1000
DIMTIH
1070
     1
1070
     1
1002
{
1002
}
1000
DIMTIX
1070
     1
1070
     0
1002
{
1002
}
1000
DIMTOFL
1070
     1
1070
     0
1002
{
1002
}
1000
DIMTOH
1070
     1
1070
     1
1002
{
1002
}
1000
DIMTOLJ
1070
     1
1070
     1
1002
{
1002
}
1000
DIMUPT
1070
     1
1070
     1
1002
{
1002
}
1000
M
1070
     0
1002
{
1002
}
1000
I
1070
     0
1002
{
1002
}
1002
}
1000
GEN-ANSI-ORD
1070
     5
1002
{
1000
NAME
1070
     4
1000
GEN-ANSI$6
1002
{
1002
}
1000
DIMTAD
1070
     1
1070
     0
1002
{
1002
}
1000
DIMTIH
1070
     1
1070
     1
1002
{
1002
}
1000
DIMTOH
1070
     1
1070
     1
1002
{
1002
}
1000
DIMTOLJ
1070
     1
1070
     1
1002
{
1002
}
1000
M
1070
     0
1002
{
1002
}
1000
I
1070
     0
1002
{
1002
}
1002
}
1000
GEN-ANSI-AXE-F
1070
     5
1002
{
1000
NAME
1070
     4
1000
GEN-ANSI-AXE-F
1002
{
1002
}
1000
DIMBLK1
1070
     4
1000
GENAXEH
1002
{
1002
}
1000
DIMSAH
1070
     1
1070
     1
1002
{
1002
}
1000
DIMSE1
1070
     1
1070
     1
1002
{
1002
}
1000
DIMSE2
1070
     1
1070
     1
1002
{
1002
}
1000
DIMTAD
1070
     1
1070
     0
1002
{
1002
}
1000
DIMTIH
1070
     1
1070
     1
1002
{
1002
}
1000
DIMTOH
1070
     1
1070
     1
1002
{
1002
}
1000
DIMTOLJ
1070
     1
1070
     1
1002
{
1002
}
1000
M
1070
     0
1002
{
1002
}
1000
I
1070
     0
1002
{
1002
}
1002
}
1000
GEN-ANSI-AXE-H
1070
     5
1002
{
1000
NAME
1070
     4
1000
GEN-ANSI-AXE-H
1002
{
1002
}
1000
DIMBLK1
1070
     4
1000
GENAXEH
1002
{
1002
}
1000
DIMLFAC
1070
     2
1040
2.0
1002
{
1002
}
1000
DIMSAH
1070
     1
1070
     1
1002
{
1002
}
1000
DIMSE1
1070
     1
1070
     1
1002
{
1002
}
1000
DIMSE2
1070
     1
1070
     1
1002
{
1002
}
1000
DIMTAD
1070
     1
1070
     0
1002
{
1002
}
1000
DIMTOFL
1070
     1
1070
     1
1002
{
1002
}
1000
DIMTOLJ
1070
     1
1070
     1
1002
{
1002
}
1000
M
1070
     0
1002
{
1002
}
1000
I
1070
     0
1002
{
1002
}
1002
}
1000
DIMAPOST
1070
     4
1000

1002
{
1002
}
1002
}
1000
DimSet
1070
     0
1002
{
1000
ChainSum
1070
     3
1070
     0
1002
{
1002
}
1000
DimDclTyp0
1070
     4
1000
dim11
1002
{
1002
}
1000
HorBra
1070
     3
1070
     0
1002
{
1002
}
1000
StrDia
1070
     4
1000
%%c<>
1002
{
1002
}
1000
StrRad
1070
     4
1000
R<>
1002
{
1002
}
1000
TextMinus
1070
     4
1000
<>
1002
{
1002
}
1000
TextPlus
1070
     4
1000
<>
1002
{
1002
}
1000
M
1070
     0
1002
{
1000
DimdliFirst
1070
     2
1040
12.0
1002
{
1002
}
1000
PointMakeDist
1070
     2
1040
10.0
1002
{
1002
}
1002
}
1000
I
1070
     0
1002
{
1000
DimdliFirst
1070
     2
1040
0.5
1002
{
1002
}
1000
PointMakeDist
1070
     2
1040
0.5
1002
{
1002
}
1002
}
1002
}
1000
Drawing
1070
     0
1002
{
1000
ChamferDimMode
1070
     1
1070
     2
1002
{
1002
}
1000
Gen_Fiso
1070
    -3
1040
1.0
1002
{
1002
}
1000
GenDimStil
1070
     4
1000
ISO
1002
{
1002
}
1000
GenDwgUScale
1070
     2
1040
1.0
1002
{
1002
}
1000
GenInch
1070
     4
1000
M
1002
{
1002
}
1000
GenPlotScale
1070
     4
1000
1:1
1002
{
1002
}
1000
Revisi
1070
     4
1000
0
1002
{
1002
}
1000
Version
1070
    -5
1000
14.01/May 26 1998
1002
{
1002
}
1000
Platform
1070
    -5
1000
WINNT
1002
{
1002
}
1002
}
1000
DwgVar
1070
     0
1002
{
1000
M
1070
     0
1002
{
1002
}
1000
I
1070
     0
1002
{
1002
}
1002
}
1000
Hatch
1070
     0
1002
{
1000
GenHtcFlag
1070
     3
1070
     0
1002
{
1002
}
1002
}
1000
Info_Pos
1070
     0
1002
{
1000
>
1002
}
1000
Layer
1070
     6
1002
{
1000
Defs
1070
     0
1002
{
1000
>
1002
}
1000
EntSort
1070
     0
1002
{
1000
>
1002
}
1000
Match
1070
     0
1002
{
1002
}
1000
Settings
1070
     0
1002
{
1000
FocGrNC
1070
     3
1070
     0
1002
{
1002
}
1000
FocGrLo
1070
     3
1070
     0
1002
{
1002
}
1000
FocLoNC
1070
     3
1070
     0
1002
{
1002
}
1000
FocusCol
1070
     1
1070
   253
1002
{
1002
}
1000
GenStdLG
1070
     4
1000

1002
{
1002
}
1000
LayMatch
1070
     3
1070
     0
1002
{
1002
}
1000
LgOff
1070
     3
1070
     0
1002
{
1002
}
1000
CurLG
1070
    -5
1000

1002
{
1002
}
1002
}
1002
}
1000
LType
1070
     0
1002
{
1000
GEN3
1070
     7
1000
genius.lin
1002
{
1002
}
1000
GEN7
1070
     7
1000
genius.lin
1002
{
1002
}
1000
GEN4A
1070
     7
1000
genius.lin
1002
{
1002
}
1000
GEN3A
1070
     7
1000
genius.lin
1002
{
1002
}
1000
GEN7A
1070
     7
1000
genius.lin
1002
{
1002
}
1000
GENZIGZAG
1070
     7
1000
genius.lin
1002
{
1002
}
1002
}
1000
Objecter
1070
     0
1002
{
1000
CreateGroups
1070
     3
1070
     0
1002
{
1002
}
1000
LaySwitch
1070
     3
1070
     1
1002
{
1002
}
1000
LastObj
1070
    -5
1000
0
1002
{
1002
}
1000
TimeStamp
1070
    -5
1000
19990224.12320750
1002
{
1002
}
1002
}
1000
OSWiz
1070
     0
1002
{
1000
>
1002
}
1000
PaList
1070
     0
1002
{
1000
AutoUpdatePartList
1070
     1
1070
     0
1002
{
1002
}
1000
ReadInfoPoint
1070
     3
1070
     0
1002
{
1002
}
1000
ReadPosNr
1070
     3
1070
     1
1002
{
1002
}
1000
RevStr
1070
     4
1000
0
1002
{
1002
}
1002
}
1000
Paper
1070
     0
1002
{
1002
}
1000
PartDB
1070
     0
1002
{
1000
GenDbOwner
1070
     4
1000

1002
{
1002
}
1002
}
1000
System
1070
     0
1002
{
1000
Menu
1070
     4
1000
GEV
1002
{
1002
}
1002
}
1000
Title
1070
     0
1002
{
1000
MakeView
1070
     1
1070
     2
1002
{
1002
}
1002
}
1000
Tools
1070
     0
1002
{
1000
Trans
1070
     0
1002
{
1000
Drawingtranslation
1070
    -4
1070
     1
1002
{
1002
}
1000
upreserve
1070
     3
1070
     0
1002
{
1002
}
1000
originally_on
1070
    -4
1070
     0
1002
{
1002
}
1000
sourcelang
1070
    -5
1000
GB
1002
{
1002
}
1002
}
1002
}
  0
APPID
  5
1E8
330
9
100
AcDbSymbolTableRecord
100
AcDbRegAppTableRecord
  2
MCAD_NO_VIS
 70
     0
  0
APPID
  5
1E9
330
9
100
AcDbSymbolTableRecord
100
AcDbRegAppTableRecord
  2
AD_DRAW
 70
     0
  0
APPID
  5
1EA
330
9
100
AcDbSymbolTableRecord
100
AcDbRegAppTableRecord
  2
DESIGNERASSEMBLIES
 70
     0
  0
APPID
  5
1EB
330
9
100
AcDbSymbolTableRecord
100
AcDbRegAppTableRecord
  2
ASURF_PCURVE_APPNAME
 70
     0
  0
APPID
  5
1EC
330
9
100
AcDbSymbolTableRecord
100
AcDbRegAppTableRecord
  2
GENIUS_GE3CFG0_13
 70
     0
1001
GENIUS_GENCFG_13
1071
919852330
1000
4CB
1000
GE3
1070
     2
1000
GenCfgObject
1000
GenCfgShort
1000
Dimension
1070
     0
1002
{
1000
RefDimEnhance
1070
     1
1070
     1
1002
{
1002
}
1000
RefDim
1070
     0
1002
{
1000
DIMCLRD
1070
     1
1070
     4
1002
{
1002
}
1002
}
1002
}
1000
Drawing
1070
     0
1002
{
1000
MSpace3D
1070
     1
1070
     1
1002
{
1002
}
1000
UpdateList
1070
     1
1070
     1
1002
{
1002
}
1002
}
1000
Shaft
1070
     0
1002
{
1002
}
1000
View
1070
     0
1002
{
1002
}
  0
APPID
  5
1ED
330
9
100
AcDbSymbolTableRecord
100
AcDbRegAppTableRecord
  2
GENIUS_GENCFG5_13
 70
     0
1001
GENIUS_GENCFG_13
1071
919852330
1000
4CC
1000
GEN@INFO_POS
1070
     7
1000
GenCfgObject
1000
GenCfgShort
1000
GenCfgReal
1000
GenCfgBool
1000
GenCfgString
1000
GenCfgDim
1000
GenCfgAttrInf
1000
DescrText
1070
     4
1000
5,6,7,8
1002
{
1002
}
1000
DescrText2
1070
     4
1000
26
1002
{
1002
}
1000
VisibleAttr1
1070
     4
1000
1
1002
{
1002
}
1000
VisibleAttr2
1070
     4
1000
26
1002
{
1002
}
1000
UpdateBlock
1070
     3
1070
     1
1002
{
1002
}
1000
Attrib
1070
     0
1002
{
1000
0
1070
     6
1002
{
1000
Prompt
1070
     4
1000
(genmsg gendwg 103)
1002
{
1002
}
1000
Value
1070
     4
1000

1002
{
1002
}
1000
EditFlag
1070
     1
1070
     0
1002
{
1002
}
1000
PosInDDATTE
1070
     1
1070
    27
1002
{
1002
}
1000
FieldLen
1070
     1
1070
    -1
1002
{
1002
}
1002
}
1000
1
1070
     6
1002
{
1000
Prompt
1070
     4
1000
(genmsg gendwg 31)
1002
{
1002
}
1000
Value
1070
     4
1000
1
1002
{
1002
}
1000
EditFlag
1070
     1
1070
     1
1002
{
1002
}
1000
PosInDDATTE
1070
     1
1070
     1
1002
{
1002
}
1000
FieldLen
1070
     1
1070
    -1
1002
{
1002
}
1002
}
1000
2
1070
     6
1002
{
1000
Prompt
1070
     4
1000
(genmsg gendwg 32)
1002
{
1002
}
1000
Value
1070
     4
1000
1
1002
{
1002
}
1000
EditFlag
1070
     1
1070
     1
1002
{
1002
}
1000
PosInDDATTE
1070
     1
1070
     2
1002
{
1002
}
1000
FieldLen
1070
     1
1070
    -1
1002
{
1002
}
1002
}
1000
3
1070
     6
1002
{
1000
Prompt
1070
     4
1000
(genmsg gendwg 33)
1002
{
1002
}
1000
Value
1070
     4
1000

1002
{
1002
}
1000
EditFlag
1070
     1
1070
     1
1002
{
1002
}
1000
PosInDDATTE
1070
     1
1070
     3
1002
{
1002
}
1000
FieldLen
1070
     1
1070
    -1
1002
{
1002
}
1002
}
1000
4
1070
     6
1002
{
1000
Prompt
1070
     4
1000
(genmsg gendwg 34)
1002
{
1002
}
1000
Value
1070
     4
1000

1002
{
1002
}
1000
EditFlag
1070
     1
1070
     1
1002
{
1002
}
1000
PosInDDATTE
1070
     1
1070
     4
1002
{
1002
}
1000
FieldLen
1070
     1
1070
    -1
1002
{
1002
}
1002
}
1000
5
1070
     6
1002
{
1000
Prompt
1070
     4
1000
(genmsg gendwg 35)
1002
{
1002
}
1000
Value
1070
     4
1000

1002
{
1002
}
1000
EditFlag
1070
     1
1070
     1
1002
{
1002
}
1000
PosInDDATTE
1070
     1
1070
     5
1002
{
1002
}
1000
FieldLen
1070
     1
1070
    -1
1002
{
1002
}
1002
}
1000
6
1070
     6
1002
{
1000
Prompt
1070
     4
1000
(genmsg gendwg 36)
1002
{
1002
}
1000
Value
1070
     4
1000

1002
{
1002
}
1000
EditFlag
1070
     1
1070
     1
1002
{
1002
}
1000
PosInDDATTE
1070
     1
1070
     6
1002
{
1002
}
1000
FieldLen
1070
     1
1070
    -1
1002
{
1002
}
1002
}
1000
7
1070
     6
1002
{
1000
Prompt
1070
     4
1000
(genmsg gendwg 37)
1002
{
1002
}
1000
Value
1070
     4
1000

1002
{
1002
}
1000
EditFlag
1070
     1
1070
     1
1002
{
1002
}
1000
PosInDDATTE
1070
     1
1070
     7
1002
{
1002
}
1000
FieldLen
1070
     1
1070
    -1
1002
{
1002
}
1002
}
1000
8
1070
     6
1002
{
1000
Prompt
1070
     4
1000
(genmsg gendwg 38)
1002
{
1002
}
1000
Value
1070
     4
1000

1002
{
1002
}
1000
EditFlag
1070
     1
1070
     1
1002
{
1002
}
1000
PosInDDATTE
1070
     1
1070
     8
1002
{
1002
}
1000
FieldLen
1070
     1
1070
    -1
1002
{
1002
}
1002
}
1000
9
1070
     6
1002
{
1000
Prompt
1070
     4
1000
(genmsg gendwg 39)
1002
{
1002
}
1000
Value
1070
     4
1000

1002
{
1002
}
1000
EditFlag
1070
     1
1070
     1
1002
{
1002
}
1000
PosInDDATTE
1070
     1
1070
     9
1002
{
1002
}
1000
FieldLen
1070
     1
1070
    -1
1002
{
1002
}
1002
}
1000
10
1070
     6
1002
{
1000
Prompt
1070
     4
1000
(genmsg gendwg 40)
1002
{
1002
}
1000
Value
1070
     4
1000

1002
{
1002
}
1000
EditFlag
1070
     1
1070
     1
1002
{
1002
}
1000
PosInDDATTE
1070
     1
1070
    10
1002
{
1002
}
1000
FieldLen
1070
     1
1070
    -1
1002
{
1002
}
1002
}
1000
11
1070
     6
1002
{
1000
Prompt
1070
     4
1000
(genmsg gendwg 41)
1002
{
1002
}
1000
Value
1070
     4
1000

1002
{
1002
}
1000
EditFlag
1070
     1
1070
     1
1002
{
1002
}
1000
PosInDDATTE
1070
     1
1070
    11
1002
{
1002
}
1000
FieldLen
1070
     1
1070
    -1
1002
{
1002
}
1002
}
1000
12
1070
     6
1002
{
1000
Prompt
1070
     4
1000
(genmsg gendwg 42)
1002
{
1002
}
1000
Value
1070
     4
1000

1002
{
1002
}
1000
EditFlag
1070
     1
1070
     1
1002
{
1002
}
1000
PosInDDATTE
1070
     1
1070
    12
1002
{
1002
}
1000
FieldLen
1070
     1
1070
    -1
1002
{
1002
}
1002
}
1000
13
1070
     6
1002
{
1000
Prompt
1070
     4
1000
(genmsg gendwg 43)
1002
{
1002
}
1000
Value
1070
     4
1000

1002
{
1002
}
1000
EditFlag
1070
     1
1070
     1
1002
{
1002
}
1000
PosInDDATTE
1070
     1
1070
    13
1002
{
1002
}
1000
FieldLen
1070
     1
1070
    -1
1002
{
1002
}
1002
}
1000
14
1070
     6
1002
{
1000
Prompt
1070
     4
1000
(genmsg gendwg 44)
1002
{
1002
}
1000
Value
1070
     4
1000

1002
{
1002
}
1000
EditFlag
1070
     1
1070
     1
1002
{
1002
}
1000
PosInDDATTE
1070
     1
1070
    14
1002
{
1002
}
1000
FieldLen
1070
     1
1070
    -1
1002
{
1002
}
1002
}
1000
15
1070
     6
1002
{
1000
Prompt
1070
     4
1000
(genmsg gendwg 45)
1002
{
1002
}
1000
Value
1070
     4
1000

1002
{
1002
}
1000
EditFlag
1070
     1
1070
     1
1002
{
1002
}
1000
PosInDDATTE
1070
     1
1070
    15
1002
{
1002
}
1000
FieldLen
1070
     1
1070
    -1
1002
{
1002
}
1002
}
1000
16
1070
     6
1002
{
1000
Prompt
1070
     4
1000
(genmsg gendwg 46)
1002
{
1002
}
1000
Value
1070
     4
1000

1002
{
1002
}
1000
EditFlag
1070
     1
1070
     1
1002
{
1002
}
1000
PosInDDATTE
1070
     1
1070
    16
1002
{
1002
}
1000
FieldLen
1070
     1
1070
    -1
1002
{
1002
}
1002
}
1000
17
1070
     6
1002
{
1000
Prompt
1070
     4
1000
(genmsg gendwg 47)
1002
{
1002
}
1000
Value
1070
     4
1000

1002
{
1002
}
1000
EditFlag
1070
     1
1070
     1
1002
{
1002
}
1000
PosInDDATTE
1070
     1
1070
    17
1002
{
1002
}
1000
FieldLen
1070
     1
1070
    -1
1002
{
1002
}
1002
}
1000
18
1070
     6
1002
{
1000
Prompt
1070
     4
1000
(genmsg gendwg 48)
1002
{
1002
}
1000
Value
1070
     4
1000

1002
{
1002
}
1000
EditFlag
1070
     1
1070
     1
1002
{
1002
}
1000
PosInDDATTE
1070
     1
1070
    18
1002
{
1002
}
1000
FieldLen
1070
     1
1070
    -1
1002
{
1002
}
1002
}
1000
19
1070
     6
1002
{
1000
Prompt
1070
     4
1000
(genmsg gendwg 99)
1002
{
1002
}
1000
Value
1070
     4
1000

1002
{
1002
}
1000
EditFlag
1070
     1
1070
     1
1002
{
1002
}
1000
PosInDDATTE
1070
     1
1070
    19
1002
{
1002
}
1000
FieldLen
1070
     1
1070
    -1
1002
{
1002
}
1002
}
1000
20
1070
     6
1002
{
1000
Prompt
1070
     4
1000
(genmsg gendwg 100)
1002
{
1002
}
1000
Value
1070
     4
1000

1002
{
1002
}
1000
EditFlag
1070
     1
1070
     1
1002
{
1002
}
1000
PosInDDATTE
1070
     1
1070
    20
1002
{
1002
}
1000
FieldLen
1070
     1
1070
    -1
1002
{
1002
}
1002
}
1000
21
1070
     6
1002
{
1000
Prompt
1070
     4
1000
(genmsg gendwg 101)
1002
{
1002
}
1000
Value
1070
     4
1000

1002
{
1002
}
1000
EditFlag
1070
     1
1070
     1
1002
{
1002
}
1000
PosInDDATTE
1070
     1
1070
    21
1002
{
1002
}
1000
FieldLen
1070
     1
1070
    -1
1002
{
1002
}
1002
}
1000
22
1070
     6
1002
{
1000
Prompt
1070
     4
1000
(genmsg gendwg 102)
1002
{
1002
}
1000
Value
1070
     4
1000

1002
{
1002
}
1000
EditFlag
1070
     1
1070
     1
1002
{
1002
}
1000
PosInDDATTE
1070
     1
1070
    22
1002
{
1002
}
1000
FieldLen
1070
     1
1070
    -1
1002
{
1002
}
1002
}
1000
23
1070
     6
1002
{
1000
Prompt
1070
     4
1000
(genmsg gendwg 30)
1002
{
1002
}
1000
Value
1070
     4
1000

1002
{
1002
}
1000
EditFlag
1070
     1
1070
     1
1002
{
1002
}
1000
PosInDDATTE
1070
     1
1070
    23
1002
{
1002
}
1000
FieldLen
1070
     1
1070
    -1
1002
{
1002
}
1002
}
1000
24
1070
     6
1002
{
1000
Prompt
1070
     4
1000
(genmsg gendwg 104)
1002
{
1002
}
1000
Value
1070
     4
1000

1002
{
1002
}
1000
EditFlag
1070
     1
1070
     1
1002
{
1002
}
1000
PosInDDATTE
1070
     1
1070
    24
1002
{
1002
}
1000
FieldLen
1070
     1
1070
    -1
1002
{
1002
}
1002
}
1000
25
1070
     6
1002
{
1000
Prompt
1070
     4
1000
(genmsg gendwg 105)
1002
{
1002
}
1000
Value
1070
     4
1000

1002
{
1002
}
1000
EditFlag
1070
     1
1070
     1
1002
{
1002
}
1000
PosInDDATTE
1070
     1
1070
    25
1002
{
1002
}
1000
FieldLen
1070
     1
1070
    -1
1002
{
1002
}
1002
}
1000
26
1070
     6
1002
{
1000
Prompt
1070
     4
1000
(genmsg gendwg 106)
1002
{
1002
}
1000
Value
1070
     4
1000

1002
{
1002
}
1000
EditFlag
1070
     1
1070
     1
1002
{
1002
}
1000
PosInDDATTE
1070
     1
1070
    26
1002
{
1002
}
1000
FieldLen
1070
     1
1070
    -1
1002
{
1002
}
1002
}
1000
27
1070
     6
1002
{
1000
Prompt
1070
     4
1000
(genmsg gendwg 109)
1002
{
1002
}
1000
Value
1070
     4
1000

1002
{
1002
}
1000
EditFlag
1070
     1
1070
     2
1002
{
1002
}
1000
PosInDDATTE
1070
     1
1070
    27
1002
{
1002
}
1000
FieldLen
1070
     1
1070
    -1
1002
{
1002
}
1002
}
1002
}
1000
Xlate
1070
     0
1002
{
1000
>
1002
}
  0
APPID
  5
99B
330
9
100
AcDbSymbolTableRecord
100
AcDbRegAppTableRecord
  2
GENIUS_GENDIM_13
 70
     0
  0
APPID
  5
99C
330
9
100
AcDbSymbolTableRecord
100
AcDbRegAppTableRecord
  2
GENIUS_GENDTOL_13
 70
     0
  0
APPID
  5
99D
330
9
100
AcDbSymbolTableRecord
100
AcDbRegAppTableRecord
  2
GENIUS_GE3DTOL_13
 70
     0
  0
APPID
  5
9A0
330
9
100
AcDbSymbolTableRecord
100
AcDbRegAppTableRecord
  2
ACAD_TEMP_GRAPHIC
 70
     0
  0
APPID
  5
9D4
330
9
100
AcDbSymbolTableRecord
100
AcDbRegAppTableRecord
  2
ACATTRIBSERVICES
 70
     0
  0
APPID
  5
A43
330
9
100
AcDbSymbolTableRecord
100
AcDbRegAppTableRecord
  2
ACADM_DIM_EDIT
 70
     0
  0
ENDTAB
  0
TABLE
  2
DIMSTYLE
  5
A
330
0
100
AcDbSymbolTable
 70
     9
100
AcDbDimStyleTable
 71
     0
  0
DIMSTYLE
105
27
330
A
100
AcDbSymbolTableRecord
100
AcDbDimStyleTableRecord
  2
ISO-25
 70
     0
 41
2.5
 42
0.625
 43
3.75
 44
1.25
 73
     0
 74
     0
 77
     1
 78
     8
140
2.5
141
2.5
143
0.03937007874016
147
0.625
171
     3
172
     1
271
     2
272
     2
274
     3
278
    44
283
     0
284
     8
340
11
  0
DIMSTYLE
105
1E0
330
A
100
AcDbSymbolTableRecord
100
AcDbDimStyleTableRecord
  2
STANDARD
 70
     0
340
11
  0
DIMSTYLE
105
A49
330
A
100
AcDbSymbolTableRecord
100
AcDbDimStyleTableRecord
  2
GEN-ISO
 70
     0
  3
<>
 41
2.5
 42
1.0
 43
0.0
 44
1.0
 47
0.1
 48
0.1
 73
     0
 74
     0
 77
     1
 78
     8
140
3.5
141
0.0
143
0.0393701
146
0.71
147
1.5
172
     1
176
   256
177
   256
178
     1
271
     2
272
     3
274
     4
283
     0
340
11
  0
DIMSTYLE
105
A4A
330
A
100
AcDbSymbolTableRecord
100
AcDbDimStyleTableRecord
  2
GEN-ISO$3
 70
     0
 41
2.5
 42
1.0
 43
0.0
 44
1.0
 47
0.1
 48
0.1
 73
     0
 77
     1
 78
     8
140
3.5
141
0.0
143
0.0393701
146
0.71
147
1.5
176
   256
177
   256
178
     1
271
     2
272
     3
274
     4
283
     0
288
     1
289
     0
340
11
  0
DIMSTYLE
105
A4B
330
A
100
AcDbSymbolTableRecord
100
AcDbDimStyleTableRecord
  2
GEN-ISO$4
 70
     0
 41
2.5
 42
1.0
 43
0.0
 44
1.0
 47
0.1
 48
0.1
 73
     0
 77
     1
 78
     8
140
3.5
141
0.0
143
0.0393701
146
0.71
147
1.5
176
   256
177
   256
178
     1
271
     2
272
     3
274
     4
283
     0
288
     1
289
     0
340
11
  0
DIMSTYLE
105
A4C
330
A
100
AcDbSymbolTableRecord
100
AcDbDimStyleTableRecord
  2
GEN-ISO$6
 70
     0
 41
2.5
 42
1.0
 43
0.0
 44
1.0
 47
0.1
 48
0.1
 73
     0
 74
     0
 77
     2
 78
     8
140
3.5
141
0.0
143
0.0393701
146
0.71
147
1.5
176
   256
177
   256
178
     1
271
     2
272
     3
274
     4
283
     0
340
11
  0
DIMSTYLE
105
A4D
330
A
100
AcDbSymbolTableRecord
100
AcDbDimStyleTableRecord
  2
GEN-ISO-POS
 70
     0
 41
2.5
 42
1.0
 43
0.0
 44
1.0
 47
0.1
 48
0.1
 73
     0
 74
     0
 77
     2
 78
     8
140
5.0
141
0.0
143
0.0393701
146
0.71
147
1.5
176
   256
177
   256
178
     1
271
     2
272
     3
274
     4
283
     0
340
11
  0
DIMSTYLE
105
A4E
330
A
100
AcDbSymbolTableRecord
100
AcDbDimStyleTableRecord
  2
GEN-ISO-AXE-F
 70
     0
 41
2.5
 42
1.0
 43
0.0
 44
1.0
 47
0.1
 48
0.1
 73
     0
 74
     0
 75
     1
 76
     1
 77
     1
 78
     8
140
3.5
141
0.0
143
0.0393701
146
0.71
147
1.5
172
     1
176
   256
177
   256
178
     1
271
     2
272
     3
274
     4
283
     0
340
11
  0
DIMSTYLE
105
A4F
330
A
100
AcDbSymbolTableRecord
100
AcDbDimStyleTableRecord
  2
GEN-ISO-AXE-H
 70
     0
 41
2.5
 42
1.0
 43
0.0
 44
1.0
 47
0.1
 48
0.1
 73
     0
 74
     0
 75
     1
 76
     1
 77
     1
 78
     8
140
3.5
141
0.0
143
0.0393701
144
2.0
146
0.71
147
1.5
172
     1
173
     1
176
   256
177
   256
178
     1
271
     2
272
     3
274
     4
283
     0
340
11
  0
ENDTAB
  0
TABLE
  2
BLOCK_RECORD
  5
1
330
0
100
AcDbSymbolTable
 70
    20
  0
BLOCK_RECORD
  5
1F
102
{ACAD_XDICTIONARY
360
A59
102
}
330
1
100
AcDbSymbolTableRecord
100
AcDbBlockTableRecord
  2
*Model_Space
340
22
  0
BLOCK_RECORD
  5
1B
330
1
100
AcDbSymbolTableRecord
100
AcDbBlockTableRecord
  2
*Paper_Space
340
1E
  0
BLOCK_RECORD
  5
23
330
1
100
AcDbSymbolTableRecord
100
AcDbBlockTableRecord
  2
*Paper_Space0
340
26
  0
BLOCK_RECORD
  5
2B
330
1
100
AcDbSymbolTableRecord
100
AcDbBlockTableRecord
  2
LOGO
340
0
102
{BLKREFS
331
212
331
95E
102
}
  0
BLOCK_RECORD
  5
70
330
1
100
AcDbSymbolTableRecord
100
AcDbBlockTableRecord
  2
*X2
340
0
102
{BLKREFS
331
51
102
}
  0
BLOCK_RECORD
  5
90
330
1
100
AcDbSymbolTableRecord
100
AcDbBlockTableRecord
  2
*X3
340
0
102
{BLKREFS
331
52
102
}
  0
BLOCK_RECORD
  5
B8
330
1
100
AcDbSymbolTableRecord
100
AcDbBlockTableRecord
  2
*X4
340
0
102
{BLKREFS
331
53
102
}
  0
BLOCK_RECORD
  5
DD
330
1
100
AcDbSymbolTableRecord
100
AcDbBlockTableRecord
  2
*X5
340
0
102
{BLKREFS
331
54
102
}
  0
BLOCK_RECORD
  5
10E
330
1
100
AcDbSymbolTableRecord
100
AcDbBlockTableRecord
  2
*X6
340
0
102
{BLKREFS
331
55
331
5C
102
}
  0
BLOCK_RECORD
  5
136
330
1
100
AcDbSymbolTableRecord
100
AcDbBlockTableRecord
  2
*X7
340
0
102
{BLKREFS
331
56
331
5B
102
}
  0
BLOCK_RECORD
  5
15D
330
1
100
AcDbSymbolTableRecord
100
AcDbBlockTableRecord
  2
*X8
340
0
102
{BLKREFS
331
57
331
5A
102
}
  0
BLOCK_RECORD
  5
185
330
1
100
AcDbSymbolTableRecord
100
AcDbBlockTableRecord
  2
*X9
340
0
102
{BLKREFS
331
58
331
59
102
}
  0
BLOCK_RECORD
  5
1A9
330
1
100
AcDbSymbolTableRecord
100
AcDbBlockTableRecord
  2
A$C4
340
0
  0
BLOCK_RECORD
  5
1EE
330
1
100
AcDbSymbolTableRecord
100
AcDbBlockTableRecord
  2
ABB3T
340
0
  0
BLOCK_RECORD
  5
361
330
1
100
AcDbSymbolTableRecord
100
AcDbBlockTableRecord
  2
INPUT
340
0
310
2800000020000000200000000100080000000000000400000000000000000000000000000000000000000000000080000080000000808000800000008000800080800000C0C0C000C0DCC000F0CAA6000020400000206000002080000020A0000020C0000020E00000400000004020000040400000406000004080000040A0
310
000040C0000040E00000600000006020000060400000606000006080000060A0000060C0000060E00000800000008020000080400000806000008080000080A0000080C0000080E00000A0000000A0200000A0400000A0600000A0800000A0A00000A0C00000A0E00000C0000000C0200000C0400000C0600000C0800000C0
310
A00000C0C00000C0E00000E0000000E0200000E0400000E0600000E0800000E0A00000E0C00000E0E00040000000400020004000400040006000400080004000A0004000C0004000E00040200000402020004020400040206000402080004020A0004020C0004020E000404000004040200040404000404060004040800040
310
40A0004040C0004040E00040600000406020004060400040606000406080004060A0004060C0004060E00040800000408020004080400040806000408080004080A0004080C0004080E00040A0000040A0200040A0400040A0600040A0800040A0A00040A0C00040A0E00040C0000040C0200040C0400040C0600040C08000
310
40C0A00040C0C00040C0E00040E0000040E0200040E0400040E0600040E0800040E0A00040E0C00040E0E00080000000800020008000400080006000800080008000A0008000C0008000E00080200000802020008020400080206000802080008020A0008020C0008020E00080400000804020008040400080406000804080
310
008040A0008040C0008040E00080600000806020008060400080606000806080008060A0008060C0008060E00080800000808020008080400080806000808080008080A0008080C0008080E00080A0000080A0200080A0400080A0600080A0800080A0A00080A0C00080A0E00080C0000080C0200080C0400080C0600080C0
310
800080C0A00080C0C00080C0E00080E0000080E0200080E0400080E0600080E0800080E0A00080E0C00080E0E000C0000000C0002000C0004000C0006000C0008000C000A000C000C000C000E000C0200000C0202000C0204000C0206000C0208000C020A000C020C000C020E000C0400000C0402000C0404000C0406000C0
310
408000C040A000C040C000C040E000C0600000C0602000C0604000C0606000C0608000C060A000C060C000C060E000C0800000C0802000C0804000C0806000C0808000C080A000C080C000C080E000C0A00000C0A02000C0A04000C0A06000C0A08000C0A0A000C0A0C000C0A0E000C0C00000C0C02000C0C04000C0C06000
310
C0C08000C0C0A000F0FBFF00A4A0A000808080000000FF0000FF000000FFFF00FF000000FF00FF00FFFF0000FFFFFF0000000000000000000000000000000000000000000000000000000000000000000000000000000000000000000000000000000000000000000000000000000000000000000000000000000000000000
310
000000000000000000000000000000000000000000000000000000000000000000000000000000000000000000000000000000000000000000000000000000000000000000000000000000000000000000000000000000000000000000000000000000000000000000000000000000000000FBFBFBFBFBFBFBFBFBFBFBFBFB
310
FBFBFBFBFBFBFB000000000000000000000000FBFB0000000000000000000000000000000000FB000000000000000000000000FB00FB000000000000000000000000FBFB0000FB000000000000000000000000FB0000FB000000000000000000FB00FBFB0000FB000000000000000000000000FB000000FB00000000000000
310
00FBFB00000000FB000000000000000000000000FB00000000FB00000000000000FB0000000000FB000000000000000000000000FB0000000000FB000000000000FB0000000000FB000000000000000000000000FB000000FB0000FB0000000000FB0000000000FB000000000000000000000000FB000000FB000000FB0000
310
0000FBFB00000000FB000000FB0000000000000000FB000000FB00000000FB0000000000FB000000FB000000FBFBFB000000000000FB000000FB000000FBFBFB0000000000FB0000FBFBFBFBFBFBFBFBFBFBFB0000FB00FBFBFBFBFBFBFBFB00FB00000000000000FB000000FBFB00000000000000FB0000FBFBFB00FB0000
310
FBFBFB000000000000FB000000000000000000000000FB0000FBFBFB00000000FBFB00FB0000000000FB000000000000000000000000FB00FB00FB00FB0000FB00000000FB00000000FB000000000000000000000000FB00FB00FB00FB0000000000000000FB000000FB000000000000000000000000FBFBFBFBFBFBFBFB00
310
00000000000000FB0000FB000000000000000000000000FB000000FB000000000000000000000000FB00FB000000000000000000000000FB000000FB00000000000000000000000000FBFB000000000000000000000000FBFBFBFBFBFBFBFBFBFBFBFBFBFBFBFBFBFBFBFB0000000000000000000000000000000000000000
310
00000000000000000000000000000000000000000000000000000000000000000000000000000000000000000000000000000000000000000000000000000000000000000000000000000000000000000000000000000000000000000000000000000000000000000000000000000000000000000000000000000000000000
310
0000000000000000000000000000000000000000000000000000000000000000000000000000000000000000000000000000000000000000
102
{BLKREFS
331
457
331
458
331
459
331
45A
331
471
331
472
331
473
331
474
331
475
331
476
331
477
331
478
331
479
331
47A
331
47B
102
}
1001
ACAD
1000
DesignCenter Data
1002
{
1070
     1
1070
     4
1002
}
  0
BLOCK_RECORD
  5
454
330
1
100
AcDbSymbolTableRecord
100
AcDbBlockTableRecord
  2
A$C70B5174C
340
0
  0
BLOCK_RECORD
  5
4C5
330
1
100
AcDbSymbolTableRecord
100
AcDbBlockTableRecord
  2
REL2
340
0
310
2800000020000000200000000100080000000000000400000000000000000000000000000000000000000000000080000080000000808000800000008000800080800000C0C0C000C0DCC000F0CAA6000020400000206000002080000020A0000020C0000020E00000400000004020000040400000406000004080000040A0
310
000040C0000040E00000600000006020000060400000606000006080000060A0000060C0000060E00000800000008020000080400000806000008080000080A0000080C0000080E00000A0000000A0200000A0400000A0600000A0800000A0A00000A0C00000A0E00000C0000000C0200000C0400000C0600000C0800000C0
310
A00000C0C00000C0E00000E0000000E0200000E0400000E0600000E0800000E0A00000E0C00000E0E00040000000400020004000400040006000400080004000A0004000C0004000E00040200000402020004020400040206000402080004020A0004020C0004020E000404000004040200040404000404060004040800040
310
40A0004040C0004040E00040600000406020004060400040606000406080004060A0004060C0004060E00040800000408020004080400040806000408080004080A0004080C0004080E00040A0000040A0200040A0400040A0600040A0800040A0A00040A0C00040A0E00040C0000040C0200040C0400040C0600040C08000
310
40C0A00040C0C00040C0E00040E0000040E0200040E0400040E0600040E0800040E0A00040E0C00040E0E00080000000800020008000400080006000800080008000A0008000C0008000E00080200000802020008020400080206000802080008020A0008020C0008020E00080400000804020008040400080406000804080
310
008040A0008040C0008040E00080600000806020008060400080606000806080008060A0008060C0008060E00080800000808020008080400080806000808080008080A0008080C0008080E00080A0000080A0200080A0400080A0600080A0800080A0A00080A0C00080A0E00080C0000080C0200080C0400080C0600080C0
310
800080C0A00080C0C00080C0E00080E0000080E0200080E0400080E0600080E0800080E0A00080E0C00080E0E000C0000000C0002000C0004000C0006000C0008000C000A000C000C000C000E000C0200000C0202000C0204000C0206000C0208000C020A000C020C000C020E000C0400000C0402000C0404000C0406000C0
310
408000C040A000C040C000C040E000C0600000C0602000C0604000C0606000C0608000C060A000C060C000C060E000C0800000C0802000C0804000C0806000C0808000C080A000C080C000C080E000C0A00000C0A02000C0A04000C0A06000C0A08000C0A0A000C0A0C000C0A0E000C0C00000C0C02000C0C04000C0C06000
310
C0C08000C0C0A000F0FBFF00A4A0A000808080000000FF0000FF000000FFFF00FF000000FF00FF00FFFF0000FFFFFF0000000000000000000000000000000000000000000000000000000000000000000000000000000000000000000000000000000000000000000000000000000000000000000000000000000000000000
310
00000000000000000000000000000000000000000000000000000000000000000000000000000000000000000000000000000000000000000000000000000000000000000000000000000000000000000000000000000000000000000000000000000000000000000000000000000000000000000000000000000000000000
310
0000000000000000000000000000000000000000000000000000000000000000000000000000000000000000000000000000000000000000000000000000000000000000000000000000000000000000000000000000000000000000000000000000000000FBFBFBFBFBFBFBFBFBFBFBFB0000000000000000000000000000
310
000000000000FB0000000000000000000000000000FB00000000000000000000000000000000FB00000000000000000000000000FBFBFBFBFBFBFBFB00000000000000000000FB0000FBFBFBFBFBFBFBFBFB000000FB0000000000FB00000000000000000000FB0000FB0000000000000000000000000000000000FB000000
310
00000000000000FB0000FB0000000000000000000000000000000000FB00000000000000000000FB0000FB0000FBFBFBFBFBFB000000000000FBFBFBFBFBFB0000000000000000FB0000FB0000FB0000000000000000000000FBFB000000FB0000000000000000FB0000FB0000FB0000000000000000000000FB00FBFB00FB
310
FBFBFBFBFBFBFBFBFBFBFBFBFBFBFBFB00000000000000000000FB000000FBFB00000000000000000000FBFB00000000FB000000000000000000FBFBFBFBFBFB0000000000000000FB0000FB0000FB0000000000000000000000000000FB00000000000000000000FBFBFBFB0000FBFBFBFBFBFB000000000000000000FB00
310
00000000000000000000000000000000000000000000000000000000000000000000000000000000000000000000000000000000000000000000000000000000000000000000000000000000000000000000000000000000000000000000000000000000000000000000000000000000000000000000000000000000000000
310
00000000000000000000000000000000000000000000000000000000000000000000000000000000000000000000000000000000000000000000000000000000000000000000000000000000000000000000000000000000000000000000000000000000000000000000000000000000000000000000000000000000000000
310
0000000000000000000000000000000000000000000000000000000000000000000000000000000000000000000000000000000000000000
102
{BLKREFS
331
60C
331
62D
331
62E
102
}
1001
ACAD
1000
DesignCenter Data
1002
{
1070
     1
1070
     4
1002
}
  0
BLOCK_RECORD
  5
4DC
330
1
100
AcDbSymbolTableRecord
100
AcDbBlockTableRecord
  2
RELV
340
0
310
2800000020000000200000000100080000000000000400000000000000000000000000000000000000000000000080000080000000808000800000008000800080800000C0C0C000C0DCC000F0CAA6000020400000206000002080000020A0000020C0000020E00000400000004020000040400000406000004080000040A0
310
000040C0000040E00000600000006020000060400000606000006080000060A0000060C0000060E00000800000008020000080400000806000008080000080A0000080C0000080E00000A0000000A0200000A0400000A0600000A0800000A0A00000A0C00000A0E00000C0000000C0200000C0400000C0600000C0800000C0
310
A00000C0C00000C0E00000E0000000E0200000E0400000E0600000E0800000E0A00000E0C00000E0E00040000000400020004000400040006000400080004000A0004000C0004000E00040200000402020004020400040206000402080004020A0004020C0004020E000404000004040200040404000404060004040800040
310
40A0004040C0004040E00040600000406020004060400040606000406080004060A0004060C0004060E00040800000408020004080400040806000408080004080A0004080C0004080E00040A0000040A0200040A0400040A0600040A0800040A0A00040A0C00040A0E00040C0000040C0200040C0400040C0600040C08000
310
40C0A00040C0C00040C0E00040E0000040E0200040E0400040E0600040E0800040E0A00040E0C00040E0E00080000000800020008000400080006000800080008000A0008000C0008000E00080200000802020008020400080206000802080008020A0008020C0008020E00080400000804020008040400080406000804080
310
008040A0008040C0008040E00080600000806020008060400080606000806080008060A0008060C0008060E00080800000808020008080400080806000808080008080A0008080C0008080E00080A0000080A0200080A0400080A0600080A0800080A0A00080A0C00080A0E00080C0000080C0200080C0400080C0600080C0
310
800080C0A00080C0C00080C0E00080E0000080E0200080E0400080E0600080E0800080E0A00080E0C00080E0E000C0000000C0002000C0004000C0006000C0008000C000A000C000C000C000E000C0200000C0202000C0204000C0206000C0208000C020A000C020C000C020E000C0400000C0402000C0404000C0406000C0
310
408000C040A000C040C000C040E000C0600000C0602000C0604000C0606000C0608000C060A000C060C000C060E000C0800000C0802000C0804000C0806000C0808000C080A000C080C000C080E000C0A00000C0A02000C0A04000C0A06000C0A08000C0A0A000C0A0C000C0A0E000C0C00000C0C02000C0C04000C0C06000
310
C0C08000C0C0A000F0FBFF00A4A0A000808080000000FF0000FF000000FFFF00FF000000FF00FF00FFFF0000FFFFFF0000000000000000000000000000000000000000000000000000000000000000000000000000000000000000000000000000000000000000000000000000000000000000000000000000000000000000
310
00000000000000000000000000000000000000000000000000000000000000000000000000000000000000000000000000000000000000000000000000000000000000000000000000000000000000000000000000000000000000000000000000000000000000000000000000000000000000000000000000000000000000
310
00000000000000000000000000000000000000000000000000000000000000000000000000000000000000000000000000000000FB00000000000000000000000000000000FBFBFBFBFBFBFBFBFBFBFBFB0000FBFBFBFBFBFBFBFB00000000000000000000FB0000000000000000000000000000FB0000000000FB00000000
310
000000000000FB0000000000000000000000000000000000000000FB00000000000000000000FB0000000000000000000000000000000000000000FB00000000000000000000FB0000000000000000000000000000000000000000FB00000000000000000000FB0000000000000000000000000000000000FBFBFBFBFBFB00
310
00000000000000FB0000000000000000000000000000000000FBFBFB0000FBFBFBFBFBFBFBFBFBFBFB00000000000000000000000000000000FB0000FBFBFB000000000000000000FB00000000000000000000000000000000FBFBFBFBFBFB0000000000000000FBFBFB000000000000000000000000000000000000FB0000
310
0000000000000000FB00FB000000000000000000000000000000000000FB00000000000000000000FB00FB0000000000000000000000000000000000000000000000000000000000FB00FBFBFBFBFBFBFBFBFBFB0000000000000000000000000000000000000000FB00000000000000000000000000000000000000000000
310
000000000000000000FB00000000000000000000000000000000000000000000000000000000000000FBFBFBFBFBFBFBFBFBFBFBFB0000000000000000000000000000000000000000000000000000000000000000000000000000000000000000000000000000000000000000000000000000000000000000000000000000
310
00000000000000000000000000000000000000000000000000000000000000000000000000000000000000000000000000000000000000000000000000000000000000000000000000000000000000000000000000000000000000000000000000000000000000000000000000000000000000000000000000000000000000
310
0000000000000000000000000000000000000000000000000000000000000000000000000000000000000000000000000000000000000000
102
{BLKREFS
331
625
102
}
1001
ACAD
1000
DesignCenter Data
1002
{
1070
     1
1070
     4
1002
}
  0
BLOCK_RECORD
  5
609
330
1
100
AcDbSymbolTableRecord
100
AcDbBlockTableRecord
  2
A$C17F82921
340
0
  0
BLOCK_RECORD
  5
71C
330
1
100
AcDbSymbolTableRecord
100
AcDbBlockTableRecord
  2
A$C7D113369
340
0
  0
BLOCK_RECORD
  5
975
330
1
100
AcDbSymbolTableRecord
100
AcDbBlockTableRecord
  2
COPYRIGHT
340
0
102
{BLKREFS
331
982
102
}
  0
ENDTAB
  0
ENDSEC
  0
SECTION
  2
BLOCKS
  0
BLOCK
  5
20
330
1F
100
AcDbEntity
  8
0
100
AcDbBlockBegin
  2
*Model_Space
 70
     0
 10
0.0
 20
0.0
 30
0.0
  3
*Model_Space
  1

  0
ENDBLK
  5
21
330
1F
100
AcDbEntity
  8
0
100
AcDbBlockEnd
  0
BLOCK
  5
1C
330
1B
100
AcDbEntity
 67
     1
  8
0
100
AcDbBlockBegin
  2
*Paper_Space
 70
     0
 10
0.0
 20
0.0
 30
0.0
  3
*Paper_Space
  1

  0
ENDBLK
  5
1D
330
1B
100
AcDbEntity
 67
     1
  8
0
100
AcDbBlockEnd
  0
BLOCK
  5
24
330
23
100
AcDbEntity
  8
0
100
AcDbBlockBegin
  2
*Paper_Space0
 70
     0
 10
0.0
 20
0.0
 30
0.0
  3
*Paper_Space0
  1

  0
ENDBLK
  5
25
330
23
100
AcDbEntity
  8
0
100
AcDbBlockEnd
  0
BLOCK
  5
6E
330
2B
100
AcDbEntity
  8
0
100
AcDbBlockBegin
  2
LOGO
 70
     0
 10
0.0
 20
0.0
 30
0.0
  3
LOGO
  1

  0
LINE
  5
2C
330
2B
100
AcDbEntity
  8
RAAMI
100
AcDbLine
 10
0.9499999999999992
 20
10.5
 30
0.0
 11
2.699999999999999
 21
10.5
 31
0.0
  0
LINE
  5
2D
330
2B
100
AcDbEntity
  8
RAAMI
100
AcDbLine
 10
6.199999999999999
 20
10.5
 30
0.0
 11
7.949999999999999
 21
10.5
 31
0.0
  0
LINE
  5
2E
330
2B
100
AcDbEntity
  8
RAAMI
100
AcDbLine
 10
3.399999999999998
 20
17.5
 30
0.0
 11
2.250249999999998
 21
14.21499999999999
 31
0.0
  0
LINE
  5
2F
330
2B
100
AcDbEntity
  8
RAAMI
100
AcDbLine
 10
3.188786698097196
 20
11.9
 30
0.0
 11
4.235000000000002
 21
11.9
 31
0.0
  0
LINE
  5
30
330
2B
100
AcDbEntity
  8
RAAMI
100
AcDbLine
 10
3.18878989496271
 20
11.8965425570363
 30
0.0
 11
2.699999999999999
 21
10.5
 31
0.0
  0
LINE
  5
31
330
2B
100
AcDbEntity
  8
RAAMI
100
AcDbLine
 10
5.5
 20
17.5
 30
0.0
 11
6.64975
 21
14.21499999999999
 31
0.0
  0
LINE
  5
32
330
2B
100
AcDbEntity
  8
RAAMI
100
AcDbLine
 10
5.711097703285556
 20
11.8968637048984
 30
0.0
 11
6.199999999999999
 21
10.5
 31
0.0
  0
LINE
  5
33
330
2B
100
AcDbEntity
  8
RAAMI
100
AcDbLine
 10
5.5
 20
17.5
 30
0.0
 11
4.665
 21
17.5
 31
0.0
  0
LINE
  5
34
330
2B
100
AcDbEntity
  8
RAAMI
100
AcDbLine
 10
4.235000000000002
 20
17.5
 30
0.0
 11
4.235000000000002
 21
14.21499999999999
 31
0.0
  0
LINE
  5
35
330
2B
100
AcDbEntity
  8
RAAMI
100
AcDbLine
 10
4.665
 20
17.5
 30
0.0
 11
4.665
 21
14.21499999999999
 31
0.0
  0
LINE
  5
36
330
2B
100
AcDbEntity
  8
RAAMI
100
AcDbLine
 10
4.665
 20
11.9
 30
0.0
 11
5.709893393426749
 21
11.9
 31
0.0
  0
LINE
  5
37
330
2B
100
AcDbEntity
  8
RAAMI
100
AcDbLine
 10
4.235000000000002
 20
17.5
 30
0.0
 11
3.399999999999998
 21
17.5
 31
0.0
  0
LINE
  5
38
330
2B
100
AcDbEntity
  8
RAAMI
100
AcDbLine
 10
2.250249999999998
 20
14.21499999999999
 30
0.0
 11
4.235000000000002
 21
14.21499999999999
 31
0.0
  0
LINE
  5
39
330
2B
100
AcDbEntity
  8
RAAMI
100
AcDbLine
 10
2.09975
 20
13.785
 30
0.0
 11
4.235000000000002
 21
13.785
 31
0.0
  0
LINE
  5
3A
330
2B
100
AcDbEntity
  8
RAAMI
100
AcDbLine
 10
6.800249999999999
 20
13.785
 30
0.0
 11
7.949999999999999
 21
10.5
 31
0.0
  0
LINE
  5
3B
330
2B
100
AcDbEntity
  8
RAAMI
100
AcDbLine
 10
4.665
 20
14.21499999999999
 30
0.0
 11
6.64975
 21
14.21499999999999
 31
0.0
  0
LINE
  5
3C
330
2B
100
AcDbEntity
  8
RAAMI
100
AcDbLine
 10
4.665
 20
13.785
 30
0.0
 11
6.800249999999999
 21
13.785
 31
0.0
  0
LINE
  5
3D
330
2B
100
AcDbEntity
  8
RAAMI
100
AcDbLine
 10
4.665
 20
13.785
 30
0.0
 11
4.665
 21
11.9
 31
0.0
  0
LINE
  5
3E
330
2B
100
AcDbEntity
  8
RAAMI
100
AcDbLine
 10
4.235000000000002
 20
13.785
 30
0.0
 11
4.235000000000002
 21
11.9
 31
0.0
  0
LINE
  5
3F
330
2B
100
AcDbEntity
  8
RAAMI
100
AcDbLine
 10
2.09975
 20
13.785
 30
0.0
 11
0.9499999999999992
 21
10.5
 31
0.0
  0
LINE
  5
40
330
2B
100
AcDbEntity
  8
RAAMI
100
AcDbLine
 10
8.440000000000001
 20
10.5
 30
0.0
 11
8.440000000000001
 21
13.785
 31
0.0
  0
LINE
  5
41
330
2B
100
AcDbEntity
  8
RAAMI
100
AcDbLine
 10
8.440000000000001
 20
17.5
 30
0.0
 11
10.32499999999999
 21
17.5
 31
0.0
  0
LINE
  5
42
330
2B
100
AcDbEntity
  8
RAAMI
100
AcDbLine
 10
10.32499999999999
 20
17.5
 30
0.0
 11
10.32499999999999
 21
14.21499999999999
 31
0.0
  0
LINE
  5
43
330
2B
100
AcDbEntity
  8
RAAMI
100
AcDbLine
 10
10.32499999999999
 20
14.21499999999999
 30
0.0
 11
8.440000000000001
 21
14.21499999999999
 31
0.0
  0
LINE
  5
44
330
2B
100
AcDbEntity
  8
RAAMI
100
AcDbLine
 10
8.440000000000001
 20
13.785
 30
0.0
 11
10.32499999999999
 21
13.785
 31
0.0
  0
LINE
  5
45
330
2B
100
AcDbEntity
  8
RAAMI
100
AcDbLine
 10
10.32499999999999
 20
13.785
 30
0.0
 11
10.32499999999999
 21
10.5
 31
0.0
  0
LINE
  5
46
330
2B
100
AcDbEntity
  8
RAAMI
100
AcDbLine
 10
10.32499999999999
 20
10.5
 30
0.0
 11
8.440000000000001
 21
10.5
 31
0.0
  0
LINE
  5
47
330
2B
100
AcDbEntity
  8
RAAMI
100
AcDbLine
 10
8.440000000000001
 20
14.21499999999999
 30
0.0
 11
8.440000000000001
 21
17.5
 31
0.0
  0
ARC
  5
48
330
2B
100
AcDbEntity
  8
RAAMI
100
AcDbCircle
 10
11.24
 20
15.925
 30
0.0
 40
1.574999999999998
100
AcDbArc
 50
298.4558593394117
 51
90.0524369955635
  0
LINE
  5
49
330
2B
100
AcDbEntity
  8
RAAMI
100
AcDbLine
 10
10.75499999999999
 20
17.49999934039966
 30
0.0
 11
11.23855856300088
 21
17.49999934039966
 31
0.0
  0
LINE
  5
4A
330
2B
100
AcDbEntity
  8
RAAMI
100
AcDbLine
 10
10.75499999999999
 20
17.5
 30
0.0
 11
10.75499999999999
 21
14.21499999999999
 31
0.0
  0
LINE
  5
4B
330
2B
100
AcDbEntity
  8
RAAMI
100
AcDbLine
 10
10.75499999999999
 20
14.21499999999999
 30
0.0
 11
12.5823021269446
 21
14.21499999999999
 31
0.0
  0
LINE
  5
4C
330
2B
100
AcDbEntity
  8
RAAMI
100
AcDbLine
 10
12.97371710495109
 20
13.785
 30
0.0
 11
10.75499999999999
 21
13.785
 31
0.0
  0
LINE
  5
4D
330
2B
100
AcDbEntity
  8
RAAMI
100
AcDbLine
 10
10.75499999999999
 20
13.785
 30
0.0
 11
10.75499999999999
 21
10.5
 31
0.0
  0
ARC
  5
4E
330
2B
100
AcDbEntity
  8
RAAMI
100
AcDbCircle
 10
11.24
 20
12.6
 30
0.0
 40
2.099999999999998
100
AcDbArc
 50
269.9377244294032
 51
34.35270472657853
  0
LINE
  5
4F
330
2B
100
AcDbEntity
  8
RAAMI
100
AcDbLine
 10
10.75499999999999
 20
10.50000124045045
 30
0.0
 11
11.23771748157343
 21
10.50000124045045
 31
0.0
  0
ARC
  5
50
330
2B
100
AcDbEntity
  8
RAAMI
100
AcDbCircle
 10
11.24
 20
12.6
 30
0.0
 40
2.099999999999998
100
AcDbArc
 50
50.26844274022763
 51
68.78799932186918
  0
INSERT
  5
51
330
2B
100
AcDbEntity
  8
RAAMI
100
AcDbBlockReference
  2
*X2
 10
0.0
 20
0.0
 30
0.0
  0
INSERT
  5
52
330
2B
100
AcDbEntity
  8
RAAMI
100
AcDbBlockReference
  2
*X3
 10
0.0
 20
0.0
 30
0.0
  0
INSERT
  5
53
330
2B
100
AcDbEntity
  8
RAAMI
100
AcDbBlockReference
  2
*X4
 10
0.0
 20
0.0
 30
0.0
  0
INSERT
  5
54
330
2B
100
AcDbEntity
  8
RAAMI
100
AcDbBlockReference
  2
*X5
 10
0.0
 20
0.0
 30
0.0
  0
INSERT
  5
55
330
2B
100
AcDbEntity
  8
RAAMI
100
AcDbBlockReference
  2
*X6
 10
0.0
 20
0.0
 30
0.0
  0
INSERT
  5
56
330
2B
100
AcDbEntity
  8
RAAMI
100
AcDbBlockReference
  2
*X7
 10
0.0
 20
0.0
 30
0.0
  0
INSERT
  5
57
330
2B
100
AcDbEntity
  8
RAAMI
100
AcDbBlockReference
  2
*X8
 10
0.0
 20
0.0
 30
0.0
  0
INSERT
  5
58
330
2B
100
AcDbEntity
  8
RAAMI
100
AcDbBlockReference
  2
*X9
 10
0.0
 20
0.0
 30
0.0
  0
INSERT
  5
59
330
2B
100
AcDbEntity
  8
RAAMI
100
AcDbBlockReference
  2
*X9
 10
5.459999999999997
 20
0.0
 30
0.0
  0
INSERT
  5
5A
330
2B
100
AcDbEntity
  8
RAAMI
100
AcDbBlockReference
  2
*X8
 10
5.459999999999997
 20
0.0
 30
0.0
  0
INSERT
  5
5B
330
2B
100
AcDbEntity
  8
RAAMI
100
AcDbBlockReference
  2
*X7
 10
5.459999999999997
 20
0.0
 30
0.0
  0
INSERT
  5
5C
330
2B
100
AcDbEntity
  8
RAAMI
100
AcDbBlockReference
  2
*X6
 10
5.459999999999997
 20
0.0
 30
0.0
  0
ARC
  5
5D
330
2B
100
AcDbEntity
  8
RAAMI
100
AcDbCircle
 10
16.69999999999999
 20
12.6
 30
0.0
 40
2.099999999999998
100
AcDbArc
 50
50.26844274022763
 51
68.78799932186918
  0
LINE
  5
5E
330
2B
100
AcDbEntity
  8
RAAMI
100
AcDbLine
 10
16.21499999999999
 20
10.50000124045045
 30
0.0
 11
16.69771748157342
 21
10.50000124045045
 31
0.0
  0
ARC
  5
5F
330
2B
100
AcDbEntity
  8
RAAMI
100
AcDbCircle
 10
16.69999999999999
 20
12.6
 30
0.0
 40
2.099999999999998
100
AcDbArc
 50
269.9377244294032
 51
34.35270472657853
  0
LINE
  5
60
330
2B
100
AcDbEntity
  8
RAAMI
100
AcDbLine
 10
16.21499999999999
 20
13.785
 30
0.0
 11
16.21499999999999
 21
10.5
 31
0.0
  0
LINE
  5
61
330
2B
100
AcDbEntity
  8
RAAMI
100
AcDbLine
 10
18.43371710495109
 20
13.785
 30
0.0
 11
16.21499999999999
 21
13.785
 31
0.0
  0
LINE
  5
62
330
2B
100
AcDbEntity
  8
RAAMI
100
AcDbLine
 10
16.21499999999999
 20
14.21499999999999
 30
0.0
 11
18.04230212694459
 21
14.21499999999999
 31
0.0
  0
LINE
  5
63
330
2B
100
AcDbEntity
  8
RAAMI
100
AcDbLine
 10
16.21499999999999
 20
17.5
 30
0.0
 11
16.21499999999999
 21
14.21499999999999
 31
0.0
  0
LINE
  5
64
330
2B
100
AcDbEntity
  8
RAAMI
100
AcDbLine
 10
16.21499999999999
 20
17.49999934039966
 30
0.0
 11
16.69855856300087
 21
17.49999934039966
 31
0.0
  0
ARC
  5
65
330
2B
100
AcDbEntity
  8
RAAMI
100
AcDbCircle
 10
16.69999999999999
 20
15.925
 30
0.0
 40
1.574999999999998
100
AcDbArc
 50
298.4558593394117
 51
90.0524369955635
  0
LINE
  5
66
330
2B
100
AcDbEntity
  8
RAAMI
100
AcDbLine
 10
13.89999999999999
 20
14.21499999999999
 30
0.0
 11
13.89999999999999
 21
17.5
 31
0.0
  0
LINE
  5
67
330
2B
100
AcDbEntity
  8
RAAMI
100
AcDbLine
 10
15.78499999999999
 20
10.5
 30
0.0
 11
13.89999999999999
 21
10.5
 31
0.0
  0
LINE
  5
68
330
2B
100
AcDbEntity
  8
RAAMI
100
AcDbLine
 10
15.78499999999999
 20
13.785
 30
0.0
 11
15.78499999999999
 21
10.5
 31
0.0
  0
LINE
  5
69
330
2B
100
AcDbEntity
  8
RAAMI
100
AcDbLine
 10
13.89999999999999
 20
13.785
 30
0.0
 11
15.78499999999999
 21
13.785
 31
0.0
  0
LINE
  5
6A
330
2B
100
AcDbEntity
  8
RAAMI
100
AcDbLine
 10
15.78499999999999
 20
14.21499999999999
 30
0.0
 11
13.89999999999999
 21
14.21499999999999
 31
0.0
  0
LINE
  5
6B
330
2B
100
AcDbEntity
  8
RAAMI
100
AcDbLine
 10
15.78499999999999
 20
17.5
 30
0.0
 11
15.78499999999999
 21
14.21499999999999
 31
0.0
  0
LINE
  5
6C
330
2B
100
AcDbEntity
  8
RAAMI
100
AcDbLine
 10
13.89999999999999
 20
17.5
 30
0.0
 11
15.78499999999999
 21
17.5
 31
0.0
  0
LINE
  5
6D
330
2B
100
AcDbEntity
  8
RAAMI
100
AcDbLine
 10
13.89999999999999
 20
10.5
 30
0.0
 11
13.89999999999999
 21
13.785
 31
0.0
  0
ENDBLK
  5
6F
330
2B
100
AcDbEntity
  8
0
100
AcDbBlockEnd
  0
BLOCK
  5
8E
330
70
100
AcDbEntity
  8
0
100
AcDbBlockBegin
  2
*X2
 70
     1
 10
0.0
 20
0.0
 30
0.0
  3
*X2
  1

  0
LINE
  5
71
330
70
100
AcDbEntity
  8
0
 62
     0
100
AcDbLine
 10
2.585038841218752
 20
15.17153954633929
 30
0.0
 11
4.235000000000002
 21
16.82150070512054
 31
0.0
  0
LINE
  5
72
330
70
100
AcDbEntity
  8
0
 62
     0
100
AcDbLine
 10
2.661188802269611
 20
15.38911086362746
 30
0.0
 11
4.235000000000002
 21
16.96292206135785
 31
0.0
  0
LINE
  5
73
330
70
100
AcDbEntity
  8
0
 62
     0
100
AcDbLine
 10
2.737338763320471
 20
15.60668218091563
 30
0.0
 11
4.235000000000002
 21
17.10434341759516
 31
0.0
  0
LINE
  5
74
330
70
100
AcDbEntity
  8
0
 62
     0
100
AcDbLine
 10
2.81348872437133
 20
15.8242534982038
 30
0.0
 11
4.235000000000002
 21
17.24576477383247
 31
0.0
  0
LINE
  5
75
330
70
100
AcDbEntity
  8
0
 62
     0
100
AcDbLine
 10
2.889638685422188
 20
16.04182481549197
 30
0.0
 11
4.235000000000002
 21
17.38718613006978
 31
0.0
  0
LINE
  5
76
330
70
100
AcDbEntity
  8
0
 62
     0
100
AcDbLine
 10
2.965788646473047
 20
16.25939613278013
 30
0.0
 11
4.206392513692907
 21
17.5
 31
0.0
  0
LINE
  5
77
330
70
100
AcDbEntity
  8
0
 62
     0
100
AcDbLine
 10
3.041938607523906
 20
16.4769674500683
 30
0.0
 11
4.064971157455597
 21
17.5
 31
0.0
  0
LINE
  5
78
330
70
100
AcDbEntity
  8
0
 62
     0
100
AcDbLine
 10
3.118088568574766
 20
16.69453876735648
 30
0.0
 11
3.923549801218286
 21
17.5
 31
0.0
  0
LINE
  5
79
330
70
100
AcDbEntity
  8
0
 62
     0
100
AcDbLine
 10
3.194238529625625
 20
16.91211008464464
 30
0.0
 11
3.782128444980977
 21
17.5
 31
0.0
  0
LINE
  5
7A
330
70
100
AcDbEntity
  8
0
 62
     0
100
AcDbLine
 10
3.270388490676483
 20
17.12968140193281
 30
0.0
 11
3.640707088743668
 21
17.5
 31
0.0
  0
LINE
  5
7B
330
70
100
AcDbEntity
  8
0
 62
     0
100
AcDbLine
 10
3.346538451727341
 20
17.34725271922098
 30
0.0
 11
3.499285732506359
 21
17.5
 31
0.0
  0
LINE
  5
7C
330
70
100
AcDbEntity
  8
0
 62
     0
100
AcDbLine
 10
2.508888880167894
 20
14.95396822905113
 30
0.0
 11
4.235000000000002
 21
16.68007934888324
 31
0.0
  0
LINE
  5
7D
330
70
100
AcDbEntity
  8
0
 62
     0
100
AcDbLine
 10
2.432738919117035
 20
14.73639691176296
 30
0.0
 11
4.235000000000002
 21
16.53865799264593
 31
0.0
  0
LINE
  5
7E
330
70
100
AcDbEntity
  8
0
 62
     0
100
AcDbLine
 10
2.356588958066176
 20
14.51882559447479
 30
0.0
 11
4.235000000000002
 21
16.39723663640862
 31
0.0
  0
LINE
  5
7F
330
70
100
AcDbEntity
  8
0
 62
     0
100
AcDbLine
 10
2.280438997015318
 20
14.30125427718662
 30
0.0
 11
4.235000000000002
 21
16.25581528017131
 31
0.0
  0
LINE
  5
80
330
70
100
AcDbEntity
  8
0
 62
     0
100
AcDbLine
 10
2.335606076066001
 20
14.21499999999999
 30
0.0
 11
4.235000000000002
 21
16.114393923934
 31
0.0
  0
LINE
  5
81
330
70
100
AcDbEntity
  8
0
 62
     0
100
AcDbLine
 10
2.47702743230331
 20
14.21499999999999
 30
0.0
 11
4.235000000000002
 21
15.97297256769669
 31
0.0
  0
LINE
  5
82
330
70
100
AcDbEntity
  8
0
 62
     0
100
AcDbLine
 10
2.618448788540619
 20
14.21499999999999
 30
0.0
 11
4.235000000000002
 21
15.83155121145938
 31
0.0
  0
LINE
  5
83
330
70
100
AcDbEntity
  8
0
 62
     0
100
AcDbLine
 10
2.759870144777928
 20
14.21499999999999
 30
0.0
 11
4.235000000000002
 21
15.69012985522207
 31
0.0
  0
LINE
  5
84
330
70
100
AcDbEntity
  8
0
 62
     0
100
AcDbLine
 10
2.901291501015239
 20
14.21499999999999
 30
0.0
 11
4.235000000000002
 21
15.54870849898476
 31
0.0
  0
LINE
  5
85
330
70
100
AcDbEntity
  8
0
 62
     0
100
AcDbLine
 10
3.042712857252547
 20
14.21499999999999
 30
0.0
 11
4.235000000000002
 21
15.40728714274745
 31
0.0
  0
LINE
  5
86
330
70
100
AcDbEntity
  8
0
 62
     0
100
AcDbLine
 10
3.184134213489858
 20
14.21499999999999
 30
0.0
 11
4.235000000000002
 21
15.26586578651014
 31
0.0
  0
LINE
  5
87
330
70
100
AcDbEntity
  8
0
 62
     0
100
AcDbLine
 10
3.325555569727167
 20
14.21499999999999
 30
0.0
 11
4.235000000000002
 21
15.12444443027283
 31
0.0
  0
LINE
  5
88
330
70
100
AcDbEntity
  8
0
 62
     0
100
AcDbLine
 10
3.466976925964476
 20
14.21499999999999
 30
0.0
 11
4.235000000000002
 21
14.98302307403552
 31
0.0
  0
LINE
  5
89
330
70
100
AcDbEntity
  8
0
 62
     0
100
AcDbLine
 10
3.608398282201786
 20
14.21499999999999
 30
0.0
 11
4.235000000000002
 21
14.84160171779821
 31
0.0
  0
LINE
  5
8A
330
70
100
AcDbEntity
  8
0
 62
     0
100
AcDbLine
 10
3.749819638439095
 20
14.21499999999999
 30
0.0
 11
4.235000000000002
 21
14.7001803615609
 31
0.0
  0
LINE
  5
8B
330
70
100
AcDbEntity
  8
0
 62
     0
100
AcDbLine
 10
3.891240994676405
 20
14.21499999999999
 30
0.0
 11
4.235000000000002
 21
14.55875900532359
 31
0.0
  0
LINE
  5
8C
330
70
100
AcDbEntity
  8
0
 62
     0
100
AcDbLine
 10
4.032662350913715
 20
14.21499999999999
 30
0.0
 11
4.235000000000002
 21
14.41733764908628
 31
0.0
  0
LINE
  5
8D
330
70
100
AcDbEntity
  8
0
 62
     0
100
AcDbLine
 10
4.174083707151023
 20
14.21499999999999
 30
0.0
 11
4.235000000000002
 21
14.27591629284898
 31
0.0
  0
ENDBLK
  5
8F
330
70
100
AcDbEntity
  8
0
100
AcDbBlockEnd
  0
BLOCK
  5
B6
330
90
100
AcDbEntity
  8
0
100
AcDbBlockBegin
  2
*X3
 70
     1
 10
0.0
 20
0.0
 30
0.0
  3
*X3
  1

  0
LINE
  5
91
330
90
100
AcDbEntity
  8
0
 62
     0
100
AcDbLine
 10
4.665
 20
14.84733764908628
 30
0.0
 11
5.971245794681333
 21
16.15358344376762
 31
0.0
  0
LINE
  5
92
330
90
100
AcDbEntity
  8
0
 62
     0
100
AcDbLine
 10
4.665
 20
14.98875900532359
 30
0.0
 11
5.934580998619808
 21
16.2583400039434
 31
0.0
  0
LINE
  5
93
330
90
100
AcDbEntity
  8
0
 62
     0
100
AcDbLine
 10
4.665
 20
15.1301803615609
 30
0.0
 11
5.897916202558284
 21
16.36309656411919
 31
0.0
  0
LINE
  5
94
330
90
100
AcDbEntity
  8
0
 62
     0
100
AcDbLine
 10
4.665
 20
15.27160171779821
 30
0.0
 11
5.861251406496759
 21
16.46785312429497
 31
0.0
  0
LINE
  5
95
330
90
100
AcDbEntity
  8
0
 62
     0
100
AcDbLine
 10
4.665
 20
15.41302307403552
 30
0.0
 11
5.824586610435234
 21
16.57260968447076
 31
0.0
  0
LINE
  5
96
330
90
100
AcDbEntity
  8
0
 62
     0
100
AcDbLine
 10
4.665
 20
15.55444443027283
 30
0.0
 11
5.787921814373709
 21
16.67736624464654
 31
0.0
  0
LINE
  5
97
330
90
100
AcDbEntity
  8
0
 62
     0
100
AcDbLine
 10
4.665
 20
15.69586578651014
 30
0.0
 11
5.751257018312185
 21
16.78212280482232
 31
0.0
  0
LINE
  5
98
330
90
100
AcDbEntity
  8
0
 62
     0
100
AcDbLine
 10
4.665
 20
15.83728714274745
 30
0.0
 11
5.71459222225066
 21
16.88687936499811
 31
0.0
  0
LINE
  5
99
330
90
100
AcDbEntity
  8
0
 62
     0
100
AcDbLine
 10
4.665
 20
15.97870849898476
 30
0.0
 11
5.677927426189135
 21
16.99163592517389
 31
0.0
  0
LINE
  5
9A
330
90
100
AcDbEntity
  8
0
 62
     0
100
AcDbLine
 10
4.665
 20
16.12012985522207
 30
0.0
 11
5.64126263012761
 21
17.09639248534968
 31
0.0
  0
LINE
  5
9B
330
90
100
AcDbEntity
  8
0
 62
     0
100
AcDbLine
 10
4.665
 20
16.26155121145938
 30
0.0
 11
5.604597834066086
 21
17.20114904552546
 31
0.0
  0
LINE
  5
9C
330
90
100
AcDbEntity
  8
0
 62
     0
100
AcDbLine
 10
4.665
 20
16.40297256769668
 30
0.0
 11
5.567933038004562
 21
17.30590560570125
 31
0.0
  0
LINE
  5
9D
330
90
100
AcDbEntity
  8
0
 62
     0
100
AcDbLine
 10
4.665
 20
16.54439392393399
 30
0.0
 11
5.531268241943037
 21
17.41066216587703
 31
0.0
  0
LINE
  5
9E
330
90
100
AcDbEntity
  8
0
 62
     0
100
AcDbLine
 10
4.665
 20
16.68581528017131
 30
0.0
 11
5.47918471982869
 21
17.5
 31
0.0
  0
LINE
  5
9F
330
90
100
AcDbEntity
  8
0
 62
     0
100
AcDbLine
 10
4.665
 20
16.82723663640862
 30
0.0
 11
5.337763363591381
 21
17.5
 31
0.0
  0
LINE
  5
A0
330
90
100
AcDbEntity
  8
0
 62
     0
100
AcDbLine
 10
4.665
 20
16.96865799264593
 30
0.0
 11
5.196342007354072
 21
17.5
 31
0.0
  0
LINE
  5
A1
330
90
100
AcDbEntity
  8
0
 62
     0
100
AcDbLine
 10
4.665
 20
17.11007934888324
 30
0.0
 11
5.054920651116764
 21
17.5
 31
0.0
  0
LINE
  5
A2
330
90
100
AcDbEntity
  8
0
 62
     0
100
AcDbLine
 10
4.665
 20
17.25150070512054
 30
0.0
 11
4.913499294879454
 21
17.5
 31
0.0
  0
LINE
  5
A3
330
90
100
AcDbEntity
  8
0
 62
     0
100
AcDbLine
 10
4.665
 20
17.39292206135785
 30
0.0
 11
4.772077938642145
 21
17.5
 31
0.0
  0
LINE
  5
A4
330
90
100
AcDbEntity
  8
0
 62
     0
100
AcDbLine
 10
4.665
 20
14.70591629284897
 30
0.0
 11
6.007910590742858
 21
16.04882688359183
 31
0.0
  0
LINE
  5
A5
330
90
100
AcDbEntity
  8
0
 62
     0
100
AcDbLine
 10
4.665
 20
14.56449493661166
 30
0.0
 11
6.044575386804383
 21
15.94407032341604
 31
0.0
  0
LINE
  5
A6
330
90
100
AcDbEntity
  8
0
 62
     0
100
AcDbLine
 10
4.665
 20
14.42307358037435
 30
0.0
 11
6.081240182865907
 21
15.83931376324026
 31
0.0
  0
LINE
  5
A7
330
90
100
AcDbEntity
  8
0
 62
     0
100
AcDbLine
 10
4.665
 20
14.28165222413704
 30
0.0
 11
6.117904978927431
 21
15.73455720306447
 31
0.0
  0
LINE
  5
A8
330
90
100
AcDbEntity
  8
0
 62
     0
100
AcDbLine
 10
4.739769132100263
 20
14.21499999999999
 30
0.0
 11
6.154569774988956
 21
15.62980064288869
 31
0.0
  0
LINE
  5
A9
330
90
100
AcDbEntity
  8
0
 62
     0
100
AcDbLine
 10
4.881190488337572
 20
14.21499999999999
 30
0.0
 11
6.191234571050481
 21
15.52504408271291
 31
0.0
  0
LINE
  5
AA
330
90
100
AcDbEntity
  8
0
 62
     0
100
AcDbLine
 10
5.022611844574882
 20
14.21499999999999
 30
0.0
 11
6.227899367112006
 21
15.42028752253712
 31
0.0
  0
LINE
  5
AB
330
90
100
AcDbEntity
  8
0
 62
     0
100
AcDbLine
 10
5.164033200812191
 20
14.21499999999999
 30
0.0
 11
6.26456416317353
 21
15.31553096236134
 31
0.0
  0
LINE
  5
AC
330
90
100
AcDbEntity
  8
0
 62
     0
100
AcDbLine
 10
5.305454557049501
 20
14.21499999999999
 30
0.0
 11
6.301228959235055
 21
15.21077440218555
 31
0.0
  0
LINE
  5
AD
330
90
100
AcDbEntity
  8
0
 62
     0
100
AcDbLine
 10
5.44687591328681
 20
14.21499999999999
 30
0.0
 11
6.33789375529658
 21
15.10601784200977
 31
0.0
  0
LINE
  5
AE
330
90
100
AcDbEntity
  8
0
 62
     0
100
AcDbLine
 10
5.58829726952412
 20
14.21499999999999
 30
0.0
 11
6.374558551358104
 21
15.00126128183398
 31
0.0
  0
LINE
  5
AF
330
90
100
AcDbEntity
  8
0
 62
     0
100
AcDbLine
 10
5.72971862576143
 20
14.21499999999999
 30
0.0
 11
6.411223347419629
 21
14.8965047216582
 31
0.0
  0
LINE
  5
B0
330
90
100
AcDbEntity
  8
0
 62
     0
100
AcDbLine
 10
5.871139981998739
 20
14.21499999999999
 30
0.0
 11
6.447888143481153
 21
14.79174816148241
 31
0.0
  0
LINE
  5
B1
330
90
100
AcDbEntity
  8
0
 62
     0
100
AcDbLine
 10
6.012561338236047
 20
14.21499999999999
 30
0.0
 11
6.484552939542679
 21
14.68699160130663
 31
0.0
  0
LINE
  5
B2
330
90
100
AcDbEntity
  8
0
 62
     0
100
AcDbLine
 10
6.153982694473358
 20
14.21499999999999
 30
0.0
 11
6.521217735604203
 21
14.58223504113084
 31
0.0
  0
LINE
  5
B3
330
90
100
AcDbEntity
  8
0
 62
     0
100
AcDbLine
 10
6.295404050710667
 20
14.21499999999999
 30
0.0
 11
6.557882531665728
 21
14.47747848095506
 31
0.0
  0
LINE
  5
B4
330
90
100
AcDbEntity
  8
0
 62
     0
100
AcDbLine
 10
6.436825406947978
 20
14.21499999999999
 30
0.0
 11
6.594547327727252
 21
14.37272192077927
 31
0.0
  0
LINE
  5
B5
330
90
100
AcDbEntity
  8
0
 62
     0
100
AcDbLine
 10
6.578246763185286
 20
14.21499999999999
 30
0.0
 11
6.631212123788778
 21
14.26796536060349
 31
0.0
  0
ENDBLK
  5
B7
330
90
100
AcDbEntity
  8
0
100
AcDbBlockEnd
  0
BLOCK
  5
DB
330
B8
100
AcDbEntity
  8
0
100
AcDbBlockBegin
  2
*X4
 70
     1
 10
0.0
 20
0.0
 30
0.0
  3
*X4
  1

  0
LINE
  5
B9
330
B8
100
AcDbEntity
  8
0
 62
     0
100
AcDbLine
 10
1.024769132100263
 20
10.5
 30
0.0
 11
4.235000000000002
 21
13.71023086789974
 31
0.0
  0
LINE
  5
BA
330
B8
100
AcDbEntity
  8
0
 62
     0
100
AcDbLine
 10
0.9858896591507162
 20
10.60254188328776
 30
0.0
 11
4.168347775862955
 21
13.785
 31
0.0
  0
LINE
  5
BB
330
B8
100
AcDbEntity
  8
0
 62
     0
100
AcDbLine
 10
1.062039620201575
 20
10.82011320057593
 30
0.0
 11
4.026926419625644
 21
13.785
 31
0.0
  0
LINE
  5
BC
330
B8
100
AcDbEntity
  8
0
 62
     0
100
AcDbLine
 10
1.138189581252434
 20
11.0376845178641
 30
0.0
 11
3.885505063388335
 21
13.785
 31
0.0
  0
LINE
  5
BD
330
B8
100
AcDbEntity
  8
0
 62
     0
100
AcDbLine
 10
1.214339542303294
 20
11.25525583515226
 30
0.0
 11
3.744083707151025
 21
13.785
 31
0.0
  0
LINE
  5
BE
330
B8
100
AcDbEntity
  8
0
 62
     0
100
AcDbLine
 10
1.290489503354153
 20
11.47282715244043
 30
0.0
 11
3.602662350913716
 21
13.785
 31
0.0
  0
LINE
  5
BF
330
B8
100
AcDbEntity
  8
0
 62
     0
100
AcDbLine
 10
1.366639464405011
 20
11.6903984697286
 30
0.0
 11
3.461240994676407
 21
13.785
 31
0.0
  0
LINE
  5
C0
330
B8
100
AcDbEntity
  8
0
 62
     0
100
AcDbLine
 10
1.442789425455871
 20
11.90796978701677
 30
0.0
 11
3.319819638439096
 21
13.785
 31
0.0
  0
LINE
  5
C1
330
B8
100
AcDbEntity
  8
0
 62
     0
100
AcDbLine
 10
1.51893938650673
 20
12.12554110430494
 30
0.0
 11
3.178398282201788
 21
13.785
 31
0.0
  0
LINE
  5
C2
330
B8
100
AcDbEntity
  8
0
 62
     0
100
AcDbLine
 10
1.595089347557589
 20
12.34311242159311
 30
0.0
 11
3.036976925964477
 21
13.785
 31
0.0
  0
LINE
  5
C3
330
B8
100
AcDbEntity
  8
0
 62
     0
100
AcDbLine
 10
1.671239308608448
 20
12.56068373888128
 30
0.0
 11
2.895555569727168
 21
13.785
 31
0.0
  0
LINE
  5
C4
330
B8
100
AcDbEntity
  8
0
 62
     0
100
AcDbLine
 10
1.747389269659307
 20
12.77825505616944
 30
0.0
 11
2.754134213489859
 21
13.785
 31
0.0
  0
LINE
  5
C5
330
B8
100
AcDbEntity
  8
0
 62
     0
100
AcDbLine
 10
1.823539230710166
 20
12.99582637345761
 30
0.0
 11
2.612712857252549
 21
13.785
 31
0.0
  0
LINE
  5
C6
330
B8
100
AcDbEntity
  8
0
 62
     0
100
AcDbLine
 10
1.899689191761025
 20
13.21339769074578
 30
0.0
 11
2.47129150101524
 21
13.785
 31
0.0
  0
LINE
  5
C7
330
B8
100
AcDbEntity
  8
0
 62
     0
100
AcDbLine
 10
1.975839152811885
 20
13.43096900803395
 30
0.0
 11
2.32987014477793
 21
13.785
 31
0.0
  0
LINE
  5
C8
330
B8
100
AcDbEntity
  8
0
 62
     0
100
AcDbLine
 10
2.051989113862743
 20
13.64854032532212
 30
0.0
 11
2.188448788540621
 21
13.785
 31
0.0
  0
LINE
  5
C9
330
B8
100
AcDbEntity
  8
0
 62
     0
100
AcDbLine
 10
1.166190488337572
 20
10.5
 30
0.0
 11
4.235000000000002
 21
13.56880951166243
 31
0.0
  0
LINE
  5
CA
330
B8
100
AcDbEntity
  8
0
 62
     0
100
AcDbLine
 10
1.307611844574882
 20
10.5
 30
0.0
 11
4.235000000000002
 21
13.42738815542512
 31
0.0
  0
LINE
  5
CB
330
B8
100
AcDbEntity
  8
0
 62
     0
100
AcDbLine
 10
1.449033200812191
 20
10.5
 30
0.0
 11
4.235000000000002
 21
13.28596679918781
 31
0.0
  0
LINE
  5
CC
330
B8
100
AcDbEntity
  8
0
 62
     0
100
AcDbLine
 10
1.590454557049502
 20
10.5
 30
0.0
 11
4.235000000000002
 21
13.1445454429505
 31
0.0
  0
LINE
  5
CD
330
B8
100
AcDbEntity
  8
0
 62
     0
100
AcDbLine
 10
1.731875913286811
 20
10.5
 30
0.0
 11
4.235000000000002
 21
13.00312408671319
 31
0.0
  0
LINE
  5
CE
330
B8
100
AcDbEntity
  8
0
 62
     0
100
AcDbLine
 10
1.87329726952412
 20
10.5
 30
0.0
 11
3.145147624102399
 21
11.77185035457827
 31
0.0
  0
LINE
  5
CF
330
B8
100
AcDbEntity
  8
0
 62
     0
100
AcDbLine
 10
3.27329726952412
 20
11.9
 30
0.0
 11
4.235000000000002
 21
12.86170273047588
 31
0.0
  0
LINE
  5
D0
330
B8
100
AcDbEntity
  8
0
 62
     0
100
AcDbLine
 10
2.01471862576143
 20
10.5
 30
0.0
 11
3.068997663051539
 21
11.5542790372901
 31
0.0
  0
LINE
  5
D1
330
B8
100
AcDbEntity
  8
0
 62
     0
100
AcDbLine
 10
3.41471862576143
 20
11.9
 30
0.0
 11
4.235000000000002
 21
12.72028137423857
 31
0.0
  0
LINE
  5
D2
330
B8
100
AcDbEntity
  8
0
 62
     0
100
AcDbLine
 10
2.156139981998739
 20
10.5
 30
0.0
 11
2.99284770200068
 21
11.33670772000194
 31
0.0
  0
LINE
  5
D3
330
B8
100
AcDbEntity
  8
0
 62
     0
100
AcDbLine
 10
3.556139981998739
 20
11.9
 30
0.0
 11
4.235000000000002
 21
12.57886001800126
 31
0.0
  0
LINE
  5
D4
330
B8
100
AcDbEntity
  8
0
 62
     0
100
AcDbLine
 10
2.297561338236048
 20
10.5
 30
0.0
 11
2.91669774094982
 21
11.11913640271377
 31
0.0
  0
LINE
  5
D5
330
B8
100
AcDbEntity
  8
0
 62
     0
100
AcDbLine
 10
3.697561338236048
 20
11.9
 30
0.0
 11
4.235000000000002
 21
12.43743866176395
 31
0.0
  0
LINE
  5
D6
330
B8
100
AcDbEntity
  8
0
 62
     0
100
AcDbLine
 10
2.438982694473358
 20
10.5
 30
0.0
 11
2.84054777989896
 21
10.9015650854256
 31
0.0
  0
LINE
  5
D7
330
B8
100
AcDbEntity
  8
0
 62
     0
100
AcDbLine
 10
3.838982694473358
 20
11.9
 30
0.0
 11
4.235000000000002
 21
12.29601730552664
 31
0.0
  0
LINE
  5
D8
330
B8
100
AcDbEntity
  8
0
 62
     0
100
AcDbLine
 10
2.580404050710667
 20
10.5
 30
0.0
 11
2.764397818848101
 21
10.68399376813743
 31
0.0
  0
LINE
  5
D9
330
B8
100
AcDbEntity
  8
0
 62
     0
100
AcDbLine
 10
3.980404050710667
 20
11.9
 30
0.0
 11
4.235000000000002
 21
12.15459594928933
 31
0.0
  0
LINE
  5
DA
330
B8
100
AcDbEntity
  8
0
 62
     0
100
AcDbLine
 10
4.121825406947977
 20
11.9
 30
0.0
 11
4.235000000000002
 21
12.01317459305202
 31
0.0
  0
ENDBLK
  5
DC
330
B8
100
AcDbEntity
  8
0
100
AcDbBlockEnd
  0
BLOCK
  5
10C
330
DD
100
AcDbEntity
  8
0
100
AcDbBlockBegin
  2
*X5
 70
     1
 10
0.0
 20
0.0
 30
0.0
  3
*X5
  1

  0
LINE
  5
DE
330
DD
100
AcDbEntity
  8
0
 62
     0
100
AcDbLine
 10
5.811558176292301
 20
11.60983378202199
 30
0.0
 11
7.107854472588599
 21
12.90613007831828
 31
0.0
  0
LINE
  5
DF
330
DD
100
AcDbEntity
  8
0
 62
     0
100
AcDbLine
 10
5.774893380230777
 20
11.71459034219777
 30
0.0
 11
7.071189676527073
 21
13.01088663849407
 31
0.0
  0
LINE
  5
E0
330
DD
100
AcDbEntity
  8
0
 62
     0
100
AcDbLine
 10
5.738228584169251
 20
11.81934690237356
 30
0.0
 11
7.034524880465549
 21
13.11564319866985
 31
0.0
  0
LINE
  5
E1
330
DD
100
AcDbEntity
  8
0
 62
     0
100
AcDbLine
 10
5.677460325558382
 20
11.9
 30
0.0
 11
6.997860084404024
 21
13.22039975884564
 31
0.0
  0
LINE
  5
E2
330
DD
100
AcDbEntity
  8
0
 62
     0
100
AcDbLine
 10
5.536038969321073
 20
11.9
 30
0.0
 11
6.9611952883425
 21
13.32515631902142
 31
0.0
  0
LINE
  5
E3
330
DD
100
AcDbEntity
  8
0
 62
     0
100
AcDbLine
 10
5.394617613083763
 20
11.9
 30
0.0
 11
6.924530492280974
 21
13.42991287919721
 31
0.0
  0
LINE
  5
E4
330
DD
100
AcDbEntity
  8
0
 62
     0
100
AcDbLine
 10
5.253196256846454
 20
11.9
 30
0.0
 11
6.88786569621945
 21
13.53466943937299
 31
0.0
  0
LINE
  5
E5
330
DD
100
AcDbEntity
  8
0
 62
     0
100
AcDbLine
 10
5.111774900609144
 20
11.9
 30
0.0
 11
6.851200900157925
 21
13.63942599954878
 31
0.0
  0
LINE
  5
E6
330
DD
100
AcDbEntity
  8
0
 62
     0
100
AcDbLine
 10
4.970353544371834
 20
11.9
 30
0.0
 11
6.814536104096401
 21
13.74418255972456
 31
0.0
  0
LINE
  5
E7
330
DD
100
AcDbEntity
  8
0
 62
     0
100
AcDbLine
 10
4.828932188134526
 20
11.9
 30
0.0
 11
6.713932188134525
 21
13.785
 31
0.0
  0
LINE
  5
E8
330
DD
100
AcDbEntity
  8
0
 62
     0
100
AcDbLine
 10
4.687510831897216
 20
11.9
 30
0.0
 11
6.572510831897214
 21
13.785
 31
0.0
  0
LINE
  5
E9
330
DD
100
AcDbEntity
  8
0
 62
     0
100
AcDbLine
 10
4.665
 20
12.01891052434009
 30
0.0
 11
6.431089475659906
 21
13.785
 31
0.0
  0
LINE
  5
EA
330
DD
100
AcDbEntity
  8
0
 62
     0
100
AcDbLine
 10
4.665
 20
12.1603318805774
 30
0.0
 11
6.289668119422596
 21
13.785
 31
0.0
  0
LINE
  5
EB
330
DD
100
AcDbEntity
  8
0
 62
     0
100
AcDbLine
 10
4.665
 20
12.30175323681471
 30
0.0
 11
6.148246763185286
 21
13.785
 31
0.0
  0
LINE
  5
EC
330
DD
100
AcDbEntity
  8
0
 62
     0
100
AcDbLine
 10
4.665
 20
12.44317459305202
 30
0.0
 11
6.006825406947977
 21
13.785
 31
0.0
  0
LINE
  5
ED
330
DD
100
AcDbEntity
  8
0
 62
     0
100
AcDbLine
 10
4.665
 20
12.58459594928933
 30
0.0
 11
5.865404050710667
 21
13.785
 31
0.0
  0
LINE
  5
EE
330
DD
100
AcDbEntity
  8
0
 62
     0
100
AcDbLine
 10
4.665
 20
12.72601730552664
 30
0.0
 11
5.723982694473358
 21
13.785
 31
0.0
  0
LINE
  5
EF
330
DD
100
AcDbEntity
  8
0
 62
     0
100
AcDbLine
 10
4.665
 20
12.86743866176395
 30
0.0
 11
5.582561338236048
 21
13.785
 31
0.0
  0
LINE
  5
F0
330
DD
100
AcDbEntity
  8
0
 62
     0
100
AcDbLine
 10
4.665
 20
13.00886001800126
 30
0.0
 11
5.441139981998738
 21
13.785
 31
0.0
  0
LINE
  5
F1
330
DD
100
AcDbEntity
  8
0
 62
     0
100
AcDbLine
 10
4.665
 20
13.15028137423857
 30
0.0
 11
5.299718625761429
 21
13.785
 31
0.0
  0
LINE
  5
F2
330
DD
100
AcDbEntity
  8
0
 62
     0
100
AcDbLine
 10
4.665
 20
13.29170273047588
 30
0.0
 11
5.158297269524119
 21
13.785
 31
0.0
  0
LINE
  5
F3
330
DD
100
AcDbEntity
  8
0
 62
     0
100
AcDbLine
 10
4.665
 20
13.43312408671319
 30
0.0
 11
5.01687591328681
 21
13.785
 31
0.0
  0
LINE
  5
F4
330
DD
100
AcDbEntity
  8
0
 62
     0
100
AcDbLine
 10
4.665
 20
13.57454544295049
 30
0.0
 11
4.875454557049502
 21
13.785
 31
0.0
  0
LINE
  5
F5
330
DD
100
AcDbEntity
  8
0
 62
     0
100
AcDbLine
 10
4.665
 20
13.71596679918781
 30
0.0
 11
4.734033200812191
 21
13.785
 31
0.0
  0
LINE
  5
F6
330
DD
100
AcDbEntity
  8
0
 62
     0
100
AcDbLine
 10
5.848222972353826
 20
11.5050772218462
 30
0.0
 11
7.144519268650123
 21
12.8013735181425
 31
0.0
  0
LINE
  5
F7
330
DD
100
AcDbEntity
  8
0
 62
     0
100
AcDbLine
 10
5.88488776841535
 20
11.40032066167042
 30
0.0
 11
7.181184064711648
 21
12.69661695796671
 31
0.0
  0
LINE
  5
F8
330
DD
100
AcDbEntity
  8
0
 62
     0
100
AcDbLine
 10
5.921552564476876
 20
11.29556410149463
 30
0.0
 11
7.217848860773172
 21
12.59186039779093
 31
0.0
  0
LINE
  5
F9
330
DD
100
AcDbEntity
  8
0
 62
     0
100
AcDbLine
 10
5.9582173605384
 20
11.19080754131885
 30
0.0
 11
7.254513656834697
 21
12.48710383761514
 31
0.0
  0
LINE
  5
FA
330
DD
100
AcDbEntity
  8
0
 62
     0
100
AcDbLine
 10
5.994882156599925
 20
11.08605098114306
 30
0.0
 11
7.291178452896222
 21
12.38234727743936
 31
0.0
  0
LINE
  5
FB
330
DD
100
AcDbEntity
  8
0
 62
     0
100
AcDbLine
 10
6.031546952661449
 20
10.98129442096728
 30
0.0
 11
7.327843248957746
 21
12.27759071726358
 31
0.0
  0
LINE
  5
FC
330
DD
100
AcDbEntity
  8
0
 62
     0
100
AcDbLine
 10
6.068211748722974
 20
10.87653786079149
 30
0.0
 11
7.364508045019271
 21
12.17283415708779
 31
0.0
  0
LINE
  5
FD
330
DD
100
AcDbEntity
  8
0
 62
     0
100
AcDbLine
 10
6.104876544784499
 20
10.77178130061571
 30
0.0
 11
7.401172841080795
 21
12.06807759691201
 31
0.0
  0
LINE
  5
FE
330
DD
100
AcDbEntity
  8
0
 62
     0
100
AcDbLine
 10
6.141541340846024
 20
10.66702474043992
 30
0.0
 11
7.437837637142321
 21
11.96332103673622
 31
0.0
  0
LINE
  5
FF
330
DD
100
AcDbEntity
  8
0
 62
     0
100
AcDbLine
 10
6.178206136907548
 20
10.56226818026414
 30
0.0
 11
7.474502433203845
 21
11.85856447656044
 31
0.0
  0
LINE
  5
100
330
DD
100
AcDbEntity
  8
0
 62
     0
100
AcDbLine
 10
6.257359312880715
 20
10.5
 30
0.0
 11
7.51116722926537
 21
11.75380791638465
 31
0.0
  0
LINE
  5
101
330
DD
100
AcDbEntity
  8
0
 62
     0
100
AcDbLine
 10
6.398780669118024
 20
10.5
 30
0.0
 11
7.547832025326894
 21
11.64905135620887
 31
0.0
  0
LINE
  5
102
330
DD
100
AcDbEntity
  8
0
 62
     0
100
AcDbLine
 10
6.540202025355334
 20
10.5
 30
0.0
 11
7.584496821388419
 21
11.54429479603308
 31
0.0
  0
LINE
  5
103
330
DD
100
AcDbEntity
  8
0
 62
     0
100
AcDbLine
 10
6.681623381592643
 20
10.5
 30
0.0
 11
7.621161617449944
 21
11.4395382358573
 31
0.0
  0
LINE
  5
104
330
DD
100
AcDbEntity
  8
0
 62
     0
100
AcDbLine
 10
6.823044737829953
 20
10.5
 30
0.0
 11
7.657826413511468
 21
11.33478167568151
 31
0.0
  0
LINE
  5
105
330
DD
100
AcDbEntity
  8
0
 62
     0
100
AcDbLine
 10
6.964466094067263
 20
10.5
 30
0.0
 11
7.694491209572993
 21
11.23002511550573
 31
0.0
  0
LINE
  5
106
330
DD
100
AcDbEntity
  8
0
 62
     0
100
AcDbLine
 10
7.105887450304572
 20
10.5
 30
0.0
 11
7.731156005634518
 21
11.12526855532994
 31
0.0
  0
LINE
  5
107
330
DD
100
AcDbEntity
  8
0
 62
     0
100
AcDbLine
 10
7.247308806541881
 20
10.5
 30
0.0
 11
7.767820801696043
 21
11.02051199515416
 31
0.0
  0
LINE
  5
108
330
DD
100
AcDbEntity
  8
0
 62
     0
100
AcDbLine
 10
7.388730162779191
 20
10.5
 30
0.0
 11
7.804485597757567
 21
10.91575543497837
 31
0.0
  0
LINE
  5
109
330
DD
100
AcDbEntity
  8
0
 62
     0
100
AcDbLine
 10
7.5301515190165
 20
10.5
 30
0.0
 11
7.841150393819092
 21
10.81099887480259
 31
0.0
  0
LINE
  5
10A
330
DD
100
AcDbEntity
  8
0
 62
     0
100
AcDbLine
 10
7.671572875253811
 20
10.5
 30
0.0
 11
7.877815189880617
 21
10.7062423146268
 31
0.0
  0
LINE
  5
10B
330
DD
100
AcDbEntity
  8
0
 62
     0
100
AcDbLine
 10
7.81299423149112
 20
10.5
 30
0.0
 11
7.914479985942141
 21
10.60148575445102
 31
0.0
  0
ENDBLK
  5
10D
330
DD
100
AcDbEntity
  8
0
100
AcDbBlockEnd
  0
BLOCK
  5
134
330
10E
100
AcDbEntity
  8
0
100
AcDbBlockBegin
  2
*X6
 70
     1
 10
0.0
 20
0.0
 30
0.0
  3
*X6
  1

  0
LINE
  5
10F
330
10E
100
AcDbEntity
  8
0
 62
     0
100
AcDbLine
 10
8.440000000000001
 20
14.80396103067892
 30
0.0
 11
10.325
 21
16.68896103067893
 31
0.0
  0
LINE
  5
110
330
10E
100
AcDbEntity
  8
0
 62
     0
100
AcDbLine
 10
8.440000000000001
 20
14.94538238691624
 30
0.0
 11
10.325
 21
16.83038238691623
 31
0.0
  0
LINE
  5
111
330
10E
100
AcDbEntity
  8
0
 62
     0
100
AcDbLine
 10
8.440000000000001
 20
15.08680374315354
 30
0.0
 11
10.325
 21
16.97180374315354
 31
0.0
  0
LINE
  5
112
330
10E
100
AcDbEntity
  8
0
 62
     0
100
AcDbLine
 10
8.440000000000001
 20
15.22822509939086
 30
0.0
 11
10.325
 21
17.11322509939085
 31
0.0
  0
LINE
  5
113
330
10E
100
AcDbEntity
  8
0
 62
     0
100
AcDbLine
 10
8.440000000000001
 20
15.36964645562816
 30
0.0
 11
10.325
 21
17.25464645562816
 31
0.0
  0
LINE
  5
114
330
10E
100
AcDbEntity
  8
0
 62
     0
100
AcDbLine
 10
8.440000000000001
 20
15.51106781186547
 30
0.0
 11
10.325
 21
17.39606781186547
 31
0.0
  0
LINE
  5
115
330
10E
100
AcDbEntity
  8
0
 62
     0
100
AcDbLine
 10
8.440000000000001
 20
15.65248916810278
 30
0.0
 11
10.28751083189721
 21
17.5
 31
0.0
  0
LINE
  5
116
330
10E
100
AcDbEntity
  8
0
 62
     0
100
AcDbLine
 10
8.440000000000001
 20
15.79391052434009
 30
0.0
 11
10.1460894756599
 21
17.5
 31
0.0
  0
LINE
  5
117
330
10E
100
AcDbEntity
  8
0
 62
     0
100
AcDbLine
 10
8.440000000000001
 20
15.9353318805774
 30
0.0
 11
10.00466811942259
 21
17.5
 31
0.0
  0
LINE
  5
118
330
10E
100
AcDbEntity
  8
0
 62
     0
100
AcDbLine
 10
8.440000000000001
 20
16.07675323681471
 30
0.0
 11
9.863246763185287
 21
17.5
 31
0.0
  0
LINE
  5
119
330
10E
100
AcDbEntity
  8
0
 62
     0
100
AcDbLine
 10
8.440000000000001
 20
16.21817459305202
 30
0.0
 11
9.72182540694798
 21
17.5
 31
0.0
  0
LINE
  5
11A
330
10E
100
AcDbEntity
  8
0
 62
     0
100
AcDbLine
 10
8.440000000000001
 20
16.35959594928933
 30
0.0
 11
9.580404050710669
 21
17.5
 31
0.0
  0
LINE
  5
11B
330
10E
100
AcDbEntity
  8
0
 62
     0
100
AcDbLine
 10
8.440000000000001
 20
16.50101730552664
 30
0.0
 11
9.438982694473359
 21
17.5
 31
0.0
  0
LINE
  5
11C
330
10E
100
AcDbEntity
  8
0
 62
     0
100
AcDbLine
 10
8.440000000000001
 20
16.64243866176395
 30
0.0
 11
9.297561338236048
 21
17.5
 31
0.0
  0
LINE
  5
11D
330
10E
100
AcDbEntity
  8
0
 62
     0
100
AcDbLine
 10
8.440000000000001
 20
16.78386001800126
 30
0.0
 11
9.156139981998741
 21
17.5
 31
0.0
  0
LINE
  5
11E
330
10E
100
AcDbEntity
  8
0
 62
     0
100
AcDbLine
 10
8.440000000000001
 20
16.92528137423857
 30
0.0
 11
9.014718625761432
 21
17.5
 31
0.0
  0
LINE
  5
11F
330
10E
100
AcDbEntity
  8
0
 62
     0
100
AcDbLine
 10
8.440000000000001
 20
17.06670273047588
 30
0.0
 11
8.873297269524121
 21
17.5
 31
0.0
  0
LINE
  5
120
330
10E
100
AcDbEntity
  8
0
 62
     0
100
AcDbLine
 10
8.440000000000001
 20
17.20812408671319
 30
0.0
 11
8.731875913286812
 21
17.5
 31
0.0
  0
LINE
  5
121
330
10E
100
AcDbEntity
  8
0
 62
     0
100
AcDbLine
 10
8.440000000000001
 20
17.3495454429505
 30
0.0
 11
8.590454557049502
 21
17.5
 31
0.0
  0
LINE
  5
122
330
10E
100
AcDbEntity
  8
0
 62
     0
100
AcDbLine
 10
8.440000000000001
 20
17.49096679918781
 30
0.0
 11
8.449033200812193
 21
17.5
 31
0.0
  0
LINE
  5
123
330
10E
100
AcDbEntity
  8
0
 62
     0
100
AcDbLine
 10
8.440000000000001
 20
14.66253967444162
 30
0.0
 11
10.325
 21
16.54753967444162
 31
0.0
  0
LINE
  5
124
330
10E
100
AcDbEntity
  8
0
 62
     0
100
AcDbLine
 10
8.440000000000001
 20
14.52111831820431
 30
0.0
 11
10.325
 21
16.40611831820431
 31
0.0
  0
LINE
  5
125
330
10E
100
AcDbEntity
  8
0
 62
     0
100
AcDbLine
 10
8.440000000000001
 20
14.379696961967
 30
0.0
 11
10.325
 21
16.264696961967
 31
0.0
  0
LINE
  5
126
330
10E
100
AcDbEntity
  8
0
 62
     0
100
AcDbLine
 10
8.440000000000001
 20
14.23827560572969
 30
0.0
 11
10.325
 21
16.12327560572969
 31
0.0
  0
LINE
  5
127
330
10E
100
AcDbEntity
  8
0
 62
     0
100
AcDbLine
 10
8.55814575050762
 20
14.21499999999999
 30
0.0
 11
10.325
 21
15.98185424949238
 31
0.0
  0
LINE
  5
128
330
10E
100
AcDbEntity
  8
0
 62
     0
100
AcDbLine
 10
8.699567106744929
 20
14.21499999999999
 30
0.0
 11
10.325
 21
15.84043289325507
 31
0.0
  0
LINE
  5
129
330
10E
100
AcDbEntity
  8
0
 62
     0
100
AcDbLine
 10
8.840988462982238
 20
14.21499999999999
 30
0.0
 11
10.325
 21
15.69901153701776
 31
0.0
  0
LINE
  5
12A
330
10E
100
AcDbEntity
  8
0
 62
     0
100
AcDbLine
 10
8.982409819219547
 20
14.21499999999999
 30
0.0
 11
10.325
 21
15.55759018078045
 31
0.0
  0
LINE
  5
12B
330
10E
100
AcDbEntity
  8
0
 62
     0
100
AcDbLine
 10
9.123831175456857
 20
14.21499999999999
 30
0.0
 11
10.325
 21
15.41616882454314
 31
0.0
  0
LINE
  5
12C
330
10E
100
AcDbEntity
  8
0
 62
     0
100
AcDbLine
 10
9.265252531694168
 20
14.21499999999999
 30
0.0
 11
10.325
 21
15.27474746830583
 31
0.0
  0
LINE
  5
12D
330
10E
100
AcDbEntity
  8
0
 62
     0
100
AcDbLine
 10
9.406673887931477
 20
14.21499999999999
 30
0.0
 11
10.325
 21
15.13332611206852
 31
0.0
  0
LINE
  5
12E
330
10E
100
AcDbEntity
  8
0
 62
     0
100
AcDbLine
 10
9.548095244168786
 20
14.21499999999999
 30
0.0
 11
10.325
 21
14.99190475583121
 31
0.0
  0
LINE
  5
12F
330
10E
100
AcDbEntity
  8
0
 62
     0
100
AcDbLine
 10
9.689516600406095
 20
14.21499999999999
 30
0.0
 11
10.325
 21
14.8504833995939
 31
0.0
  0
LINE
  5
130
330
10E
100
AcDbEntity
  8
0
 62
     0
100
AcDbLine
 10
9.830937956643404
 20
14.21499999999999
 30
0.0
 11
10.325
 21
14.70906204335659
 31
0.0
  0
LINE
  5
131
330
10E
100
AcDbEntity
  8
0
 62
     0
100
AcDbLine
 10
9.972359312880714
 20
14.21499999999999
 30
0.0
 11
10.325
 21
14.56764068711928
 31
0.0
  0
LINE
  5
132
330
10E
100
AcDbEntity
  8
0
 62
     0
100
AcDbLine
 10
10.11378066911802
 20
14.21499999999999
 30
0.0
 11
10.325
 21
14.42621933088197
 31
0.0
  0
LINE
  5
133
330
10E
100
AcDbEntity
  8
0
 62
     0
100
AcDbLine
 10
10.25520202535533
 20
14.21499999999999
 30
0.0
 11
10.325
 21
14.28479797464467
 31
0.0
  0
ENDBLK
  5
135
330
10E
100
AcDbEntity
  8
0
100
AcDbBlockEnd
  0
BLOCK
  5
15B
330
136
100
AcDbEntity
  8
0
100
AcDbBlockBegin
  2
*X7
 70
     1
 10
0.0
 20
0.0
 30
0.0
  3
*X7
  1

  0
LINE
  5
137
330
136
100
AcDbEntity
  8
0
 62
     0
100
AcDbLine
 10
8.440000000000001
 20
11.12700576850888
 30
0.0
 11
10.325
 21
13.01200576850888
 31
0.0
  0
LINE
  5
138
330
136
100
AcDbEntity
  8
0
 62
     0
100
AcDbLine
 10
8.440000000000001
 20
11.26842712474619
 30
0.0
 11
10.325
 21
13.15342712474619
 31
0.0
  0
LINE
  5
139
330
136
100
AcDbEntity
  8
0
 62
     0
100
AcDbLine
 10
8.440000000000001
 20
11.4098484809835
 30
0.0
 11
10.325
 21
13.2948484809835
 31
0.0
  0
LINE
  5
13A
330
136
100
AcDbEntity
  8
0
 62
     0
100
AcDbLine
 10
8.440000000000001
 20
11.55126983722081
 30
0.0
 11
10.325
 21
13.43626983722081
 31
0.0
  0
LINE
  5
13B
330
136
100
AcDbEntity
  8
0
 62
     0
100
AcDbLine
 10
8.440000000000001
 20
11.69269119345812
 30
0.0
 11
10.325
 21
13.57769119345812
 31
0.0
  0
LINE
  5
13C
330
136
100
AcDbEntity
  8
0
 62
     0
100
AcDbLine
 10
8.440000000000001
 20
11.83411254969543
 30
0.0
 11
10.325
 21
13.71911254969543
 31
0.0
  0
LINE
  5
13D
330
136
100
AcDbEntity
  8
0
 62
     0
100
AcDbLine
 10
8.440000000000001
 20
11.97553390593274
 30
0.0
 11
10.24946609406726
 21
13.785
 31
0.0
  0
LINE
  5
13E
330
136
100
AcDbEntity
  8
0
 62
     0
100
AcDbLine
 10
8.440000000000001
 20
12.11695526217004
 30
0.0
 11
10.10804473782995
 21
13.785
 31
0.0
  0
LINE
  5
13F
330
136
100
AcDbEntity
  8
0
 62
     0
100
AcDbLine
 10
8.440000000000001
 20
12.25837661840736
 30
0.0
 11
9.966623381592642
 21
13.785
 31
0.0
  0
LINE
  5
140
330
136
100
AcDbEntity
  8
0
 62
     0
100
AcDbLine
 10
8.440000000000001
 20
12.39979797464466
 30
0.0
 11
9.825202025355332
 21
13.785
 31
0.0
  0
LINE
  5
141
330
136
100
AcDbEntity
  8
0
 62
     0
100
AcDbLine
 10
8.440000000000001
 20
12.54121933088197
 30
0.0
 11
9.683780669118023
 21
13.785
 31
0.0
  0
LINE
  5
142
330
136
100
AcDbEntity
  8
0
 62
     0
100
AcDbLine
 10
8.440000000000001
 20
12.68264068711928
 30
0.0
 11
9.542359312880714
 21
13.785
 31
0.0
  0
LINE
  5
143
330
136
100
AcDbEntity
  8
0
 62
     0
100
AcDbLine
 10
8.440000000000001
 20
12.82406204335659
 30
0.0
 11
9.400937956643405
 21
13.785
 31
0.0
  0
LINE
  5
144
330
136
100
AcDbEntity
  8
0
 62
     0
100
AcDbLine
 10
8.440000000000001
 20
12.9654833995939
 30
0.0
 11
9.259516600406096
 21
13.785
 31
0.0
  0
LINE
  5
145
330
136
100
AcDbEntity
  8
0
 62
     0
100
AcDbLine
 10
8.440000000000001
 20
13.10690475583121
 30
0.0
 11
9.118095244168785
 21
13.785
 31
0.0
  0
LINE
  5
146
330
136
100
AcDbEntity
  8
0
 62
     0
100
AcDbLine
 10
8.440000000000001
 20
13.24832611206852
 30
0.0
 11
8.976673887931477
 21
13.785
 31
0.0
  0
LINE
  5
147
330
136
100
AcDbEntity
  8
0
 62
     0
100
AcDbLine
 10
8.440000000000001
 20
13.38974746830583
 30
0.0
 11
8.835252531694166
 21
13.785
 31
0.0
  0
LINE
  5
148
330
136
100
AcDbEntity
  8
0
 62
     0
100
AcDbLine
 10
8.440000000000001
 20
13.53116882454314
 30
0.0
 11
8.693831175456857
 21
13.785
 31
0.0
  0
LINE
  5
149
330
136
100
AcDbEntity
  8
0
 62
     0
100
AcDbLine
 10
8.440000000000001
 20
13.67259018078045
 30
0.0
 11
8.552409819219548
 21
13.785
 31
0.0
  0
LINE
  5
14A
330
136
100
AcDbEntity
  8
0
 62
     0
100
AcDbLine
 10
8.440000000000001
 20
10.98558441227157
 30
0.0
 11
10.325
 21
12.87058441227157
 31
0.0
  0
LINE
  5
14B
330
136
100
AcDbEntity
  8
0
 62
     0
100
AcDbLine
 10
8.440000000000001
 20
10.84416305603426
 30
0.0
 11
10.325
 21
12.72916305603426
 31
0.0
  0
LINE
  5
14C
330
136
100
AcDbEntity
  8
0
 62
     0
100
AcDbLine
 10
8.440000000000001
 20
10.70274169979695
 30
0.0
 11
10.325
 21
12.58774169979695
 31
0.0
  0
LINE
  5
14D
330
136
100
AcDbEntity
  8
0
 62
     0
100
AcDbLine
 10
8.440000000000001
 20
10.56132034355964
 30
0.0
 11
10.325
 21
12.44632034355964
 31
0.0
  0
LINE
  5
14E
330
136
100
AcDbEntity
  8
0
 62
     0
100
AcDbLine
 10
8.520101012677667
 20
10.5
 30
0.0
 11
10.325
 21
12.30489898732233
 31
0.0
  0
LINE
  5
14F
330
136
100
AcDbEntity
  8
0
 62
     0
100
AcDbLine
 10
8.661522368914976
 20
10.5
 30
0.0
 11
10.325
 21
12.16347763108502
 31
0.0
  0
LINE
  5
150
330
136
100
AcDbEntity
  8
0
 62
     0
100
AcDbLine
 10
8.802943725152285
 20
10.5
 30
0.0
 11
10.325
 21
12.02205627484771
 31
0.0
  0
LINE
  5
151
330
136
100
AcDbEntity
  8
0
 62
     0
100
AcDbLine
 10
8.944365081389594
 20
10.5
 30
0.0
 11
10.325
 21
11.8806349186104
 31
0.0
  0
LINE
  5
152
330
136
100
AcDbEntity
  8
0
 62
     0
100
AcDbLine
 10
9.085786437626904
 20
10.5
 30
0.0
 11
10.325
 21
11.73921356237309
 31
0.0
  0
LINE
  5
153
330
136
100
AcDbEntity
  8
0
 62
     0
100
AcDbLine
 10
9.227207793864213
 20
10.5
 30
0.0
 11
10.325
 21
11.59779220613578
 31
0.0
  0
LINE
  5
154
330
136
100
AcDbEntity
  8
0
 62
     0
100
AcDbLine
 10
9.368629150101524
 20
10.5
 30
0.0
 11
10.325
 21
11.45637084989847
 31
0.0
  0
LINE
  5
155
330
136
100
AcDbEntity
  8
0
 62
     0
100
AcDbLine
 10
9.510050506338833
 20
10.5
 30
0.0
 11
10.325
 21
11.31494949366116
 31
0.0
  0
LINE
  5
156
330
136
100
AcDbEntity
  8
0
 62
     0
100
AcDbLine
 10
9.651471862576142
 20
10.5
 30
0.0
 11
10.325
 21
11.17352813742385
 31
0.0
  0
LINE
  5
157
330
136
100
AcDbEntity
  8
0
 62
     0
100
AcDbLine
 10
9.792893218813452
 20
10.5
 30
0.0
 11
10.325
 21
11.03210678118655
 31
0.0
  0
LINE
  5
158
330
136
100
AcDbEntity
  8
0
 62
     0
100
AcDbLine
 10
9.934314575050761
 20
10.5
 30
0.0
 11
10.325
 21
10.89068542494924
 31
0.0
  0
LINE
  5
159
330
136
100
AcDbEntity
  8
0
 62
     0
100
AcDbLine
 10
10.07573593128807
 20
10.5
 30
0.0
 11
10.325
 21
10.74926406871193
 31
0.0
  0
LINE
  5
15A
330
136
100
AcDbEntity
  8
0
 62
     0
100
AcDbLine
 10
10.21715728752538
 20
10.5
 30
0.0
 11
10.325
 21
10.60784271247461
 31
0.0
  0
ENDBLK
  5
15C
330
136
100
AcDbEntity
  8
0
100
AcDbBlockEnd
  0
BLOCK
  5
183
330
15D
100
AcDbEntity
  8
0
100
AcDbBlockBegin
  2
*X8
 70
     1
 10
0.0
 20
0.0
 30
0.0
  3
*X8
  1

  0
LINE
  5
15E
330
15D
100
AcDbEntity
  8
0
 62
     0
100
AcDbLine
 10
10.75499999999999
 20
14.85621933088197
 30
0.0
 11
12.60665195119362
 21
16.70787128207559
 31
0.0
  0
LINE
  5
15F
330
15D
100
AcDbEntity
  8
0
 62
     0
100
AcDbLine
 10
10.75499999999999
 20
14.99764068711928
 30
0.0
 11
12.55268873087672
 21
16.795329417996
 31
0.0
  0
LINE
  5
160
330
15D
100
AcDbEntity
  8
0
 62
     0
100
AcDbLine
 10
10.75499999999999
 20
15.13906204335659
 30
0.0
 11
12.49395055341158
 21
16.87801259676817
 31
0.0
  0
LINE
  5
161
330
15D
100
AcDbEntity
  8
0
 62
     0
100
AcDbLine
 10
10.75499999999999
 20
15.2804833995939
 30
0.0
 11
12.43059182218045
 21
16.95607522177436
 31
0.0
  0
LINE
  5
162
330
15D
100
AcDbEntity
  8
0
 62
     0
100
AcDbLine
 10
10.75499999999999
 20
15.42190475583121
 30
0.0
 11
12.36270405049246
 21
17.02960880632368
 31
0.0
  0
LINE
  5
163
330
15D
100
AcDbEntity
  8
0
 62
     0
100
AcDbLine
 10
10.75499999999999
 20
15.56332611206852
 30
0.0
 11
12.29032173141587
 21
17.09864784348439
 31
0.0
  0
LINE
  5
164
330
15D
100
AcDbEntity
  8
0
 62
     0
100
AcDbLine
 10
10.75499999999999
 20
15.70474746830583
 30
0.0
 11
12.21342448184601
 21
17.16317195015184
 31
0.0
  0
LINE
  5
165
330
15D
100
AcDbEntity
  8
0
 62
     0
100
AcDbLine
 10
10.75499999999999
 20
15.84616882454314
 30
0.0
 11
12.13193578000449
 21
17.22310460454764
 31
0.0
  0
LINE
  5
166
330
15D
100
AcDbEntity
  8
0
 62
     0
100
AcDbLine
 10
10.75499999999999
 20
15.98759018078045
 30
0.0
 11
12.04571810938003
 21
17.27830829016048
 31
0.0
  0
LINE
  5
167
330
15D
100
AcDbEntity
  8
0
 62
     0
100
AcDbLine
 10
10.75499999999999
 20
16.12901153701776
 30
0.0
 11
11.95456376436614
 21
17.3285753013839
 31
0.0
  0
LINE
  5
168
330
15D
100
AcDbEntity
  8
0
 62
     0
100
AcDbLine
 10
10.75499999999999
 20
16.27043289325507
 30
0.0
 11
11.85817979995458
 21
17.37361269320965
 31
0.0
  0
LINE
  5
169
330
15D
100
AcDbEntity
  8
0
 62
     0
100
AcDbLine
 10
10.75499999999999
 20
16.41185424949237
 30
0.0
 11
11.75616435283253
 21
17.41301860232491
 31
0.0
  0
LINE
  5
16A
330
15D
100
AcDbEntity
  8
0
 62
     0
100
AcDbLine
 10
10.75499999999999
 20
16.55327560572969
 30
0.0
 11
11.64796929664345
 21
17.44624490237314
 31
0.0
  0
LINE
  5
16B
330
15D
100
AcDbEntity
  8
0
 62
     0
100
AcDbLine
 10
10.75499999999999
 20
16.69469696196699
 30
0.0
 11
11.53283975161226
 21
17.47253671357926
 31
0.0
  0
LINE
  5
16C
330
15D
100
AcDbEntity
  8
0
 62
     0
100
AcDbLine
 10
10.75499999999999
 20
16.83611831820431
 30
0.0
 11
11.40971149630951
 21
17.49082981451382
 31
0.0
  0
LINE
  5
16D
330
15D
100
AcDbEntity
  8
0
 62
     0
100
AcDbLine
 10
10.75499999999999
 20
16.97753967444161
 30
0.0
 11
11.2770250730259
 21
17.49956474746751
 31
0.0
  0
LINE
  5
16E
330
15D
100
AcDbEntity
  8
0
 62
     0
100
AcDbLine
 10
10.75499999999999
 20
17.11896103067893
 30
0.0
 11
11.13603830972073
 21
17.49999934039966
 31
0.0
  0
LINE
  5
16F
330
15D
100
AcDbEntity
  8
0
 62
     0
100
AcDbLine
 10
10.75499999999999
 20
17.26038238691623
 30
0.0
 11
10.99461695348342
 21
17.49999934039966
 31
0.0
  0
LINE
  5
170
330
15D
100
AcDbEntity
  8
0
 62
     0
100
AcDbLine
 10
10.75499999999999
 20
17.40180374315354
 30
0.0
 11
10.85319559724611
 21
17.49999934039966
 31
0.0
  0
LINE
  5
171
330
15D
100
AcDbEntity
  8
0
 62
     0
100
AcDbLine
 10
10.75499999999999
 20
14.71479797464466
 30
0.0
 11
12.65561241128887
 21
16.61541038593354
 31
0.0
  0
LINE
  5
172
330
15D
100
AcDbEntity
  8
0
 62
     0
100
AcDbLine
 10
10.75499999999999
 20
14.57337661840735
 30
0.0
 11
12.69925198078363
 21
16.51762859919098
 31
0.0
  0
LINE
  5
173
330
15D
100
AcDbEntity
  8
0
 62
     0
100
AcDbLine
 10
10.75499999999999
 20
14.43195526217004
 30
0.0
 11
12.73713563115315
 21
16.41409089332319
 31
0.0
  0
LINE
  5
174
330
15D
100
AcDbEntity
  8
0
 62
     0
100
AcDbLine
 10
10.75499999999999
 20
14.29053390593273
 30
0.0
 11
12.76866932616733
 21
16.30420323210007
 31
0.0
  0
LINE
  5
175
330
15D
100
AcDbEntity
  8
0
 62
     0
100
AcDbLine
 10
10.82088745030457
 20
14.215
 30
0.0
 11
12.79303113012304
 21
16.18714367981846
 31
0.0
  0
LINE
  5
176
330
15D
100
AcDbEntity
  8
0
 62
     0
100
AcDbLine
 10
10.96230880654188
 20
14.215
 30
0.0
 11
12.80905262151017
 21
16.06174381496829
 31
0.0
  0
LINE
  5
177
330
15D
100
AcDbEntity
  8
0
 62
     0
100
AcDbLine
 10
11.10373016277919
 20
14.215
 30
0.0
 11
12.81499948851172
 21
15.92626932573253
 31
0.0
  0
LINE
  5
178
330
15D
100
AcDbEntity
  8
0
 62
     0
100
AcDbLine
 10
11.2451515190165
 20
14.215
 30
0.0
 11
12.80812225109332
 21
15.77797073207682
 31
0.0
  0
LINE
  5
179
330
15D
100
AcDbEntity
  8
0
 62
     0
100
AcDbLine
 10
11.38657287525381
 20
14.215
 30
0.0
 11
12.78358863144548
 21
15.61201575619167
 31
0.0
  0
LINE
  5
17A
330
15D
100
AcDbEntity
  8
0
 62
     0
100
AcDbLine
 10
11.52799423149111
 20
14.215
 30
0.0
 11
12.73125442928398
 21
15.41826019779286
 31
0.0
  0
LINE
  5
17B
330
15D
100
AcDbEntity
  8
0
 62
     0
100
AcDbLine
 10
11.66941558772843
 20
14.215
 30
0.0
 11
11.99980823635216
 21
14.54539264862373
 31
0.0
  0
LINE
  5
17C
330
15D
100
AcDbEntity
  8
0
 62
     0
100
AcDbLine
 10
12.00867663314944
 20
14.55426104542102
 30
0.0
 11
12.61960735137626
 21
15.16519176364783
 31
0.0
  0
LINE
  5
17D
330
15D
100
AcDbEntity
  8
0
 62
     0
100
AcDbLine
 10
11.81083694396573
 20
14.215
 30
0.0
 11
12.1080374877881
 21
14.51220054382236
 31
0.0
  0
LINE
  5
17E
330
15D
100
AcDbEntity
  8
0
 62
     0
100
AcDbLine
 10
11.95225830020304
 20
14.215
 30
0.0
 11
12.20328965915022
 21
14.46603135894718
 31
0.0
  0
LINE
  5
17F
330
15D
100
AcDbEntity
  8
0
 62
     0
100
AcDbLine
 10
12.09367965644035
 20
14.215
 30
0.0
 11
12.29464391921294
 21
14.41596426277258
 31
0.0
  0
LINE
  5
180
330
15D
100
AcDbEntity
  8
0
 62
     0
100
AcDbLine
 10
12.23510101267766
 20
14.215
 30
0.0
 11
12.38226650658783
 21
14.36216549391016
 31
0.0
  0
LINE
  5
181
330
15D
100
AcDbEntity
  8
0
 62
     0
100
AcDbLine
 10
12.37652236891497
 20
14.215
 30
0.0
 11
12.46628661553598
 21
14.30476424662101
 31
0.0
  0
LINE
  5
182
330
15D
100
AcDbEntity
  8
0
 62
     0
100
AcDbLine
 10
12.51794372515228
 20
14.215
 30
0.0
 11
12.54680174666866
 21
14.24385802151638
 31
0.0
  0
ENDBLK
  5
184
330
15D
100
AcDbEntity
  8
0
100
AcDbBlockEnd
  0
BLOCK
  5
1A7
330
185
100
AcDbEntity
  8
0
100
AcDbBlockBegin
  2
*X9
 70
     1
 10
0.0
 20
0.0
 30
0.0
  3
*X9
  1

  0
LINE
  5
186
330
185
100
AcDbEntity
  8
0
 62
     0
100
AcDbLine
 10
10.75499999999999
 20
10.89642135623731
 30
0.0
 11
13.20345567881146
 21
13.34487703504876
 31
0.0
  0
LINE
  5
187
330
185
100
AcDbEntity
  8
0
 62
     0
100
AcDbLine
 10
10.75499999999999
 20
11.03784271247461
 30
0.0
 11
13.16238970184929
 21
13.4452324143239
 31
0.0
  0
LINE
  5
188
330
185
100
AcDbEntity
  8
0
 62
     0
100
AcDbLine
 10
10.75499999999999
 20
11.17926406871192
 30
0.0
 11
13.11715841360858
 21
13.54142248232051
 31
0.0
  0
LINE
  5
189
330
185
100
AcDbEntity
  8
0
 62
     0
100
AcDbLine
 10
10.75499999999999
 20
11.32068542494923
 30
0.0
 11
13.06798435218605
 21
13.63366977713529
 31
0.0
  0
LINE
  5
18A
330
185
100
AcDbEntity
  8
0
 62
     0
100
AcDbLine
 10
10.75499999999999
 20
11.46210678118654
 30
0.0
 11
13.01504338256579
 21
13.72215016375234
 31
0.0
  0
LINE
  5
18B
330
185
100
AcDbEntity
  8
0
 62
     0
100
AcDbLine
 10
10.75499999999999
 20
11.60352813742385
 30
0.0
 11
12.93647186257614
 21
13.785
 31
0.0
  0
LINE
  5
18C
330
185
100
AcDbEntity
  8
0
 62
     0
100
AcDbLine
 10
10.75499999999999
 20
11.74494949366116
 30
0.0
 11
12.79505050633883
 21
13.785
 31
0.0
  0
LINE
  5
18D
330
185
100
AcDbEntity
  8
0
 62
     0
100
AcDbLine
 10
10.75499999999999
 20
11.88637084989847
 30
0.0
 11
12.65362915010152
 21
13.785
 31
0.0
  0
LINE
  5
18E
330
185
100
AcDbEntity
  8
0
 62
     0
100
AcDbLine
 10
10.75499999999999
 20
12.02779220613578
 30
0.0
 11
12.51220779386421
 21
13.785
 31
0.0
  0
LINE
  5
18F
330
185
100
AcDbEntity
  8
0
 62
     0
100
AcDbLine
 10
10.75499999999999
 20
12.16921356237309
 30
0.0
 11
12.3707864376269
 21
13.785
 31
0.0
  0
LINE
  5
190
330
185
100
AcDbEntity
  8
0
 62
     0
100
AcDbLine
 10
10.75499999999999
 20
12.3106349186104
 30
0.0
 11
12.22936508138959
 21
13.785
 31
0.0
  0
LINE
  5
191
330
185
100
AcDbEntity
  8
0
 62
     0
100
AcDbLine
 10
10.75499999999999
 20
12.45205627484771
 30
0.0
 11
12.08794372515228
 21
13.785
 31
0.0
  0
LINE
  5
192
330
185
100
AcDbEntity
  8
0
 62
     0
100
AcDbLine
 10
10.75499999999999
 20
12.59347763108502
 30
0.0
 11
11.94652236891497
 21
13.785
 31
0.0
  0
LINE
  5
193
330
185
100
AcDbEntity
  8
0
 62
     0
100
AcDbLine
 10
10.75499999999999
 20
12.73489898732233
 30
0.0
 11
11.80510101267766
 21
13.785
 31
0.0
  0
LINE
  5
194
330
185
100
AcDbEntity
  8
0
 62
     0
100
AcDbLine
 10
10.75499999999999
 20
12.87632034355964
 30
0.0
 11
11.66367965644035
 21
13.785
 31
0.0
  0
LINE
  5
195
330
185
100
AcDbEntity
  8
0
 62
     0
100
AcDbLine
 10
10.75499999999999
 20
13.01774169979695
 30
0.0
 11
11.52225830020304
 21
13.785
 31
0.0
  0
LINE
  5
196
330
185
100
AcDbEntity
  8
0
 62
     0
100
AcDbLine
 10
10.75499999999999
 20
13.15916305603426
 30
0.0
 11
11.38083694396573
 21
13.785
 31
0.0
  0
LINE
  5
197
330
185
100
AcDbEntity
  8
0
 62
     0
100
AcDbLine
 10
10.75499999999999
 20
13.30058441227157
 30
0.0
 11
11.23941558772842
 21
13.785
 31
0.0
  0
LINE
  5
198
330
185
100
AcDbEntity
  8
0
 62
     0
100
AcDbLine
 10
10.75499999999999
 20
13.44200576850888
 30
0.0
 11
11.09799423149111
 21
13.785
 31
0.0
  0
LINE
  5
199
330
185
100
AcDbEntity
  8
0
 62
     0
100
AcDbLine
 10
10.75499999999999
 20
13.58342712474619
 30
0.0
 11
10.95657287525381
 21
13.785
 31
0.0
  0
LINE
  5
19A
330
185
100
AcDbEntity
  8
0
 62
     0
100
AcDbLine
 10
10.75499999999999
 20
13.7248484809835
 30
0.0
 11
10.8151515190165
 21
13.785
 31
0.0
  0
LINE
  5
19B
330
185
100
AcDbEntity
  8
0
 62
     0
100
AcDbLine
 10
10.75499999999999
 20
10.75499999999999
 30
0.0
 11
13.24007575540194
 21
13.24007575540194
 31
0.0
  0
LINE
  5
19C
330
185
100
AcDbEntity
  8
0
 62
     0
100
AcDbLine
 10
10.75499999999999
 20
10.61357864376269
 30
0.0
 11
13.2718950823941
 21
13.13047372615679
 31
0.0
  0
LINE
  5
19D
330
185
100
AcDbEntity
  8
0
 62
     0
100
AcDbLine
 10
10.78284395292507
 20
10.50000124045045
 30
0.0
 11
13.29846094958801
 21
13.01561823711339
 31
0.0
  0
LINE
  5
19E
330
185
100
AcDbEntity
  8
0
 62
     0
100
AcDbLine
 10
10.92426530916238
 20
10.50000124045045
 30
0.0
 11
13.3191873967026
 21
12.89492332799067
 31
0.0
  0
LINE
  5
19F
330
185
100
AcDbEntity
  8
0
 62
     0
100
AcDbLine
 10
11.06568666539969
 20
10.50000124045045
 30
0.0
 11
13.33330010266432
 21
12.76761467771509
 31
0.0
  0
LINE
  5
1A0
330
185
100
AcDbEntity
  8
0
 62
     0
100
AcDbLine
 10
11.207108021637
 20
10.50000124045045
 30
0.0
 11
13.33974633222867
 21
12.63263955104213
 31
0.0
  0
LINE
  5
1A1
330
185
100
AcDbEntity
  8
0
 62
     0
100
AcDbLine
 10
11.35148974060317
 20
10.50296160317931
 30
0.0
 11
13.33703839682068
 21
12.48851025939682
 31
0.0
  0
LINE
  5
1A2
330
185
100
AcDbEntity
  8
0
 62
     0
100
AcDbLine
 10
11.50699107720297
 20
10.5170415835418
 30
0.0
 11
13.32295841645819
 21
12.33300892279702
 31
0.0
  0
LINE
  5
1A3
330
185
100
AcDbEntity
  8
0
 62
     0
100
AcDbLine
 10
11.67743557368476
 20
10.54606472378628
 30
0.0
 11
13.29393527621371
 21
12.16256442631523
 31
0.0
  0
LINE
  5
1A4
330
185
100
AcDbEntity
  8
0
 62
     0
100
AcDbLine
 10
11.86929982173049
 20
10.59650761559471
 30
0.0
 11
13.24349238440528
 21
11.9707001782695
 31
0.0
  0
LINE
  5
1A5
330
185
100
AcDbEntity
  8
0
 62
     0
100
AcDbLine
 10
12.0970739731583
 20
10.6828604107852
 30
0.0
 11
13.15713958921479
 21
11.74292602684169
 31
0.0
  0
LINE
  5
1A6
330
185
100
AcDbEntity
  8
0
 62
     0
100
AcDbLine
 10
12.41538471448807
 20
10.85974979587767
 30
0.0
 11
12.98025020412232
 21
11.42461528551192
 31
0.0
  0
ENDBLK
  5
1A8
330
185
100
AcDbEntity
  8
0
100
AcDbBlockEnd
  0
BLOCK
  5
1B6
330
1A9
100
AcDbEntity
  8
0
100
AcDbBlockBegin
  2
A$C4
 70
     0
 10
0.0
 20
0.0
 30
0.0
  3
A$C4
  1

  0
TEXT
  5
1AA
330
1A9
100
AcDbEntity
  8
RAAMI
100
AcDbText
 10
-0.2441931095487746
 20
5.267359427125477
 30
0.0
 40
1.399999999999999
  1
PROJ
  7
ROMANS
100
AcDbText
  0
LINE
  5
1AB
330
1A9
100
AcDbEntity
  8
PISTKATK
  6
DASHDOT
100
AcDbLine
 10
17.71800043355263
 20
3.178515524645927
 30
0.0
 11
14.37542435577205
 21
3.178515524645927
 31
0.0
  0
CIRCLE
  5
1AC
330
1A9
100
AcDbEntity
  8
RAAMI
100
AcDbCircle
 10
17.71800043355263
 20
3.178515524645927
 30
0.0
 40
2.343653787115606
  0
LINE
  5
1AD
330
1A9
100
AcDbEntity
  8
PISTKATK
  6
DASHDOT
100
AcDbLine
 10
13.45279153821954
 20
3.183237031131845
 30
0.0
 11
6.216116927576166
 21
3.183237031131845
 31
0.0
  0
LINE
  5
1AE
330
1A9
100
AcDbEntity
  8
RAAMI
100
AcDbLine
 10
7.299073560640977
 20
2.028902184086533
 30
0.0
 11
12.30956819013314
 21
0.8745673370412134
 31
0.0
  0
LINE
  5
1AF
330
1A9
100
AcDbEntity
  8
RAAMI
100
AcDbLine
 10
12.30956819013314
 20
5.491906725222481
 30
0.0
 11
7.299073560640977
 21
4.222138393472636
 31
0.0
  0
LINE
  5
1B0
330
1A9
100
AcDbEntity
  8
RAAMI
100
AcDbLine
 10
7.299073560640977
 20
4.222138393472636
 30
0.0
 11
7.299073560640977
 21
2.028902184086533
 31
0.0
  0
LINE
  5
1B1
330
1A9
100
AcDbEntity
  8
RAAMI
100
AcDbLine
 10
12.30956819013314
 20
0.8745673370412134
 30
0.0
 11
12.30956819013314
 21
5.491906725222481
 31
0.0
  0
LINE
  5
1B2
330
1A9
100
AcDbEntity
  8
PISTKATK
  6
DASHDOT
100
AcDbLine
 10
17.71800043355263
 20
3.178515524645927
 30
0.0
 11
17.71800043355263
 21
0.021462716470495
 31
0.0
  0
LINE
  5
1B3
330
1A9
100
AcDbEntity
  8
PISTKATK
  6
DASHDOT
100
AcDbLine
 10
17.71800043355263
 20
3.178515524645927
 30
0.0
 11
17.71800043355263
 21
6.33556833282136
 31
0.0
  0
LINE
  5
1B4
330
1A9
100
AcDbEntity
  8
PISTKATK
  6
DASHDOT
100
AcDbLine
 10
17.71800043355263
 20
3.178515524645927
 30
0.0
 11
21.0605765113332
 21
3.178515524645927
 31
0.0
  0
CIRCLE
  5
1B5
330
1A9
100
AcDbEntity
  8
RAAMI
100
AcDbCircle
 10
17.71800043355263
 20
3.178515524645927
 30
0.0
 40
1.114664538372245
  0
ENDBLK
  5
1B7
330
1A9
100
AcDbEntity
  8
0
100
AcDbBlockEnd
  0
BLOCK
  5
220
330
1EE
100
AcDbEntity
  8
0
100
AcDbBlockBegin
  2
ABB3T
 70
     0
 10
0.0
 20
0.0
 30
0.0
  3
ABB3T
  1

  0
LINE
  5
1EF
330
1EE
100
AcDbEntity
  8
PAKSU
100
AcDbLine
 10
0.0
 20
0.0
 30
0.0
 11
0.0
 21
262.5
 31
0.0
  0
LINE
  5
1F0
330
1EE
100
AcDbEntity
  8
PAKSU
100
AcDbLine
 10
392.0
 20
262.5
 30
0.0
 11
392.0
 21
0.0
 31
0.0
  0
LINE
  5
1F1
330
1EE
100
AcDbEntity
  8
PAKSU
100
AcDbLine
 10
0.0
 20
0.0
 30
0.0
 11
392.0
 21
0.0
 31
0.0
  0
TEXT
  5
1F2
330
1EE
100
AcDbEntity
  8
RAAMI
100
AcDbText
 10
42.0
 20
0.9523809523809525
 30
0.0
 40
2.5
  1
B
  7
ROMANS
100
AcDbText
  0
TEXT
  5
1F3
330
1EE
100
AcDbEntity
  8
RAAMI
100
AcDbText
 10
42.0
 20
5.354421058643247
 30
0.0
 40
2.5
  1
C
  7
ROMANS
100
AcDbText
  0
TEXT
  5
1F4
330
1EE
100
AcDbEntity
  8
RAAMI
100
AcDbText
 10
229.5533819379557
 20
1.520147635064914
 30
0.0
 40
2.43
  1
ABB Substation Automation Oy
 41
0.8
  7
ROMANS
100
AcDbText
  0
TEXT
  5
1F5
330
1EE
100
AcDbEntity
  8
RAAMI
100
AcDbText
 10
283.9742533365683
 20
7.0
 30
0.0
 40
1.399999999999999
  1
OSASTO DEPT.
  7
ROMANS
100
AcDbText
  0
TEXT
  5
1F6
330
1EE
100
AcDbEntity
  8
RAAMI
100
AcDbText
 10
210.0
 20
32.0
 30
0.0
 40
1.399999999999999
  1
TEKI  PREPARED
  7
ROMANS
100
AcDbText
  0
LINE
  5
1F7
330
1EE
100
AcDbEntity
  8
OHUT
100
AcDbLine
 10
281.9742533365683
 20
9.5
 30
0.0
 11
281.9742533365683
 21
0.0
 31
0.0
  0
LINE
  5
1F8
330
1EE
100
AcDbEntity
  8
OHUT
100
AcDbLine
 10
257.0
 20
9.5
 30
0.0
 11
257.0
 21
35.0
 31
0.0
  0
LINE
  5
1F9
330
1EE
100
AcDbEntity
  8
OHUT
100
AcDbLine
 10
40.49999999999999
 20
4.5
 30
0.0
 11
209.0
 21
4.5
 31
0.0
  0
LINE
  5
1FA
330
1EE
100
AcDbEntity
  8
OHUT
100
AcDbLine
 10
46.5
 20
0.0
 30
0.0
 11
46.5
 21
9.0
 31
0.0
  0
LINE
  5
1FB
330
1EE
100
AcDbEntity
  8
OHUT
100
AcDbLine
 10
46.5
 20
9.0
 30
0.0
 11
209.0
 21
9.0
 31
0.0
  0
TEXT
  5
1FC
330
1EE
100
AcDbEntity
  8
RAAMI
100
AcDbText
 10
27.5
 20
2.233333333333334
 30
0.0
 40
1.399999999999999
  1
REVISION
  7
ROMANS
100
AcDbText
  0
TEXT
  5
1FD
330
1EE
100
AcDbEntity
  8
RAAMI
100
AcDbText
 10
27.5
 20
4.5
 30
0.0
 40
1.399999999999999
  1
MUUTOS
  7
ROMANS
100
AcDbText
  0
LINE
  5
1FE
330
1EE
100
AcDbEntity
  8
OHUT
100
AcDbLine
 10
282.0
 20
9.5
 30
0.0
 11
282.0
 21
18.0
 31
0.0
  0
LINE
  5
1FF
330
1EE
100
AcDbEntity
  8
RAAMI
100
AcDbLine
 10
209.9499999999999
 20
1.5
 30
0.0
 11
211.6999999999999
 21
1.5
 31
0.0
  0
LINE
  5
200
330
1EE
100
AcDbEntity
  8
OHUT
100
AcDbLine
 10
369.5
 20
18.0
 30
0.0
 11
369.5
 21
0.0
 31
0.0
  0
TEXT
  5
201
330
1EE
100
AcDbEntity
  8
RAAMI
100
AcDbText
 10
371.0
 20
7.0
 30
0.0
 40
1.399999999999999
  1
PAINOS  REVISION
  7
ROMANS
100
AcDbText
  0
TEXT
  5
202
330
1EE
100
AcDbEntity
  8
RAAMI
100
AcDbText
 10
309.0
 20
32.5
 30
0.0
 40
1.399999999999999
  1
NIMITYS  NAME
  7
ROMANS
100
AcDbText
  0
TEXT
  5
203
330
1EE
100
AcDbEntity
  8
RAAMI
100
AcDbText
 10
259.0
 20
15.5
 30
0.0
 40
1.399999999999999
  1
SUHDE  SCALE
  7
ROMANS
100
AcDbText
  0
TEXT
  5
204
330
1EE
100
AcDbEntity
  8
RAAMI
100
AcDbText
 10
259.0
 20
23.5
 30
0.0
 40
1.399999999999999
  1
TOLERANSSIT  TOLERANCES
  7
ROMANS
100
AcDbText
  0
TEXT
  5
205
330
1EE
100
AcDbEntity
  8
RAAMI
100
AcDbText
 10
259.0
 20
32.5
 30
0.0
 40
1.399999999999999
  1
LIITTYY  CONCERNING
  7
ROMANS
100
AcDbText
  0
LINE
  5
206
330
1EE
100
AcDbEntity
  8
OHUT
100
AcDbLine
 10
307.0
 20
0.0
 30
0.0
 11
307.0
 21
35.0
 31
0.0
  0
TEXT
  5
207
330
1EE
100
AcDbEntity
  8
RAAMI
100
AcDbText
 10
209.7428347258663
 20
15.46666666666666
 30
0.0
 40
1.399999999999999
  1
HYVÄKSYI  APPROVED
  7
ROMANS
100
AcDbText
  0
TEXT
  5
208
330
1EE
100
AcDbEntity
  8
RAAMI
100
AcDbText
 10
210.0
 20
23.73333333333333
 30
0.0
 40
1.399999999999999
  1
TARKASTI  CHECKED
  7
ROMANS
100
AcDbText
  0
LINE
  5
209
330
1EE
100
AcDbEntity
  8
PAKSU
100
AcDbLine
 10
209.0
 20
35.0
 30
0.0
 11
392.0
 21
35.0
 31
0.0
  0
LINE
  5
20A
330
1EE
100
AcDbEntity
  8
OHUT
100
AcDbLine
 10
209.0
 20
26.5
 30
0.0
 11
307.0
 21
26.5
 31
0.0
  0
LINE
  5
20B
330
1EE
100
AcDbEntity
  8
OHUT
100
AcDbLine
 10
209.0
 20
9.5
 30
0.0
 11
392.0
 21
9.5
 31
0.0
  0
LINE
  5
20C
330
1EE
100
AcDbEntity
  8
OHUT
100
AcDbLine
 10
209.0
 20
18.0
 30
0.0
 11
392.0
 21
18.0
 31
0.0
  0
LINE
  5
20D
330
1EE
100
AcDbEntity
  8
PAKSU
100
AcDbLine
 10
392.0
 20
0.0
 30
0.0
 11
392.0
 21
35.0
 31
0.0
  0
LINE
  5
20E
330
1EE
100
AcDbEntity
  8
PAKSU
100
AcDbLine
 10
209.0
 20
0.0
 30
0.0
 11
209.0
 21
35.0
 31
0.0
  0
LINE
  5
20F
330
1EE
100
AcDbEntity
  8
PAKSU
100
AcDbLine
 10
209.0
 20
0.0
 30
0.0
 11
392.0
 21
0.0
 31
0.0
  0
LINE
  5
210
330
1EE
100
AcDbEntity
  8
PAKSU
100
AcDbLine
 10
0.0
 20
262.5
 30
0.0
 11
392.0
 21
262.5
 31
0.0
  0
TEXT
  5
211
330
1EE
100
AcDbEntity
  8
RAAMI
100
AcDbText
 10
309.0
 20
7.0
 30
0.0
 40
1.399999999999999
  1
PIIRUSTUS NO  DRAWING NO
  7
ROMANS
100
AcDbText
  0
INSERT
  5
212
330
1EE
100
AcDbEntity
  8
RAAMI
100
AcDbBlockReference
  2
LOGO
 10
209.0
 20
-9.0
 30
0.0
  0
TEXT
  5
213
330
1EE
100
AcDbEntity
  8
RAAMI
100
AcDbText
 10
283.5548252099439
 20
15.50096600065329
 30
0.0
 40
1.399999999999999
  1
PROJ
  7
ROMANS
100
AcDbText
  0
LINE
  5
214
330
1EE
100
AcDbEntity
  8
RAAMI
  6
DASHDOT
100
AcDbLine
 10
301.5170187530453
 20
13.41212209817375
 30
0.0
 11
298.1744426752647
 21
13.41212209817375
 31
0.0
  0
CIRCLE
  5
215
330
1EE
100
AcDbEntity
  8
RAAMI
100
AcDbCircle
 10
301.5170187530453
 20
13.41212209817375
 30
0.0
 40
2.343653787115606
  0
LINE
  5
216
330
1EE
100
AcDbEntity
  8
RAAMI
  6
DASHDOT
100
AcDbLine
 10
297.2518098577122
 20
13.41684360465966
 30
0.0
 11
290.0151352470688
 21
13.41684360465966
 31
0.0
  0
LINE
  5
217
330
1EE
100
AcDbEntity
  8
RAAMI
100
AcDbLine
 10
291.0980918801336
 20
12.26250875761435
 30
0.0
 11
296.1085865096258
 21
11.10817391056903
 31
0.0
  0
LINE
  5
218
330
1EE
100
AcDbEntity
  8
RAAMI
100
AcDbLine
 10
296.1085865096258
 20
15.7255132987503
 30
0.0
 11
291.0980918801336
 21
14.45574496700046
 31
0.0
  0
LINE
  5
219
330
1EE
100
AcDbEntity
  8
RAAMI
100
AcDbLine
 10
291.0980918801336
 20
14.45574496700046
 30
0.0
 11
291.0980918801336
 21
12.26250875761435
 31
0.0
  0
LINE
  5
21A
330
1EE
100
AcDbEntity
  8
RAAMI
100
AcDbLine
 10
296.1085865096258
 20
11.10817391056903
 30
0.0
 11
296.1085865096258
 21
15.7255132987503
 31
0.0
  0
LINE
  5
21B
330
1EE
100
AcDbEntity
  8
RAAMI
  6
DASHDOT
100
AcDbLine
 10
301.5170187530453
 20
13.41212209817375
 30
0.0
 11
301.5170187530453
 21
10.25506928999831
 31
0.0
  0
LINE
  5
21C
330
1EE
100
AcDbEntity
  8
RAAMI
  6
DASHDOT
100
AcDbLine
 10
301.5170187530453
 20
13.41212209817375
 30
0.0
 11
301.5170187530453
 21
16.56917490634918
 31
0.0
  0
LINE
  5
21D
330
1EE
100
AcDbEntity
  8
RAAMI
  6
DASHDOT
100
AcDbLine
 10
301.5170187530453
 20
13.41212209817375
 30
0.0
 11
304.8595948308259
 21
13.41212209817375
 31
0.0
  0
CIRCLE
  5
21E
330
1EE
100
AcDbEntity
  8
RAAMI
100
AcDbCircle
 10
301.5170187530453
 20
13.41212209817375
 30
0.0
 40
1.114664538372245
  0
TEXT
  5
21F
330
1EE
100
AcDbEntity
  8
RAAMI
100
AcDbText
 10
371.0
 20
15.05846792701606
 30
0.0
 40
1.399999999999999
  1
LEHTI   SHEET
  7
ROMANS
100
AcDbText
  0
ENDBLK
  5
221
330
1EE
100
AcDbEntity
  8
0
100
AcDbBlockEnd
  0
BLOCK
  5
372
330
361
100
AcDbEntity
  8
0
100
AcDbBlockBegin
  2
INPUT
 70
     0
 10
0.0
 20
0.0
 30
0.0
  3
INPUT
  1

  0
LINE
  5
362
330
361
100
AcDbEntity
  8
KESKI
100
AcDbLine
 10
0.0
 20
0.0
 30
0.0
 11
7.5
 21
7.5
 31
0.0
  0
LWPOLYLINE
  5
363
330
361
100
AcDbEntity
  8
KESKI
100
AcDbPolyline
 90
        4
 70
     1
 43
0.0
 10
0.0
 20
7.5
 10
7.5
 20
7.5
 10
7.5
 20
0.0
 10
0.0
 20
0.0
  0
LINE
  5
364
330
361
100
AcDbEntity
  8
KESKI
100
AcDbLine
 10
5.0
 20
3.25
 30
0.0
 11
5.0
 21
1.25
 31
0.0
  0
LINE
  5
365
330
361
100
AcDbEntity
  8
KESKI
100
AcDbLine
 10
5.0
 20
1.797891128666691
 30
0.0
 11
6.155449358842815
 21
0.642441769823904
 31
0.0
  0
LWPOLYLINE
  5
366
330
361
100
AcDbEntity
  8
KESKI
100
AcDbPolyline
 90
        3
 70
     1
 43
0.0
 10
6.155449358842815
 20
0.642441769823904
 10
6.043377424821812
 20
1.060699921692787
 10
5.737191206973932
 20
0.7545137038449071
  0
LINE
  5
367
330
361
100
AcDbEntity
  8
KESKI
100
AcDbLine
 10
2.616116523516836
 20
4.883883476483163
 30
0.0
 11
3.5
 21
4.0
 31
0.0
  0
LWPOLYLINE
  5
368
330
361
100
AcDbEntity
  8
KESKI
100
AcDbPolyline
 90
        3
 70
     1
 43
0.0
 10
3.5
 20
4.0
 10
3.387928065978996
 20
4.418258151868883
 10
3.081741848131116
 20
4.112071934021003
  0
LINE
  5
369
330
361
100
AcDbEntity
  8
KESKI
100
AcDbLine
 10
1.5
 20
7.25
 30
0.0
 11
1.5
 21
2.75
 31
0.0
  0
LWPOLYLINE
  5
36A
330
361
100
AcDbEntity
  8
KESKI
100
AcDbPolyline
 90
        3
 70
     1
 43
0.0
 10
1.5
 20
4.25
 10
2.665922381636093
 20
6.269436802675443
 10
0.3340776183639065
 20
6.269436802675443
  0
LINE
  5
36B
330
361
100
AcDbEntity
  8
KESKI
100
AcDbLine
 10
0.4902815986622784
 20
4.25
 30
0.0
 11
2.509718401337721
 21
4.25
 31
0.0
  0
LINE
  5
36C
330
361
100
AcDbEntity
  8
KESKI
100
AcDbLine
 10
5.0
 20
2.70210887133328
 30
0.0
 11
6.155449358842815
 21
3.857558230176096
 31
0.0
  0
LINE
  5
36D
330
361
100
AcDbEntity
  8
KESKI
100
AcDbLine
 10
3.366116523516836
 20
5.633883476483163
 30
0.0
 11
4.25
 21
4.75
 31
0.0
  0
LWPOLYLINE
  5
36E
330
361
100
AcDbEntity
  8
KESKI
100
AcDbPolyline
 90
        3
 70
     1
 43
0.0
 10
4.25
 20
4.75
 10
4.137928065978996
 20
5.168258151868883
 10
3.831741848131116
 20
4.862071934021003
  0
LINE
  5
36F
330
361
100
AcDbEntity
  8
KESKI
100
AcDbLine
 10
7.5
 20
3.75
 30
0.0
 11
11.25
 21
3.75
 31
0.0
  0
HATCH
  5
370
330
361
100
AcDbEntity
  8
KESKI
100
AcDbHatch
 10
0.0
 20
0.0
 30
0.0
210
0.0
220
0.0
230
1.0
  2
SOLID
 70
     1
 71
     1
 91
        1
 92
        1
 93
        3
 72
     1
 10
10.25
 20
3.75
 11
9.03125
 21
4.453645640574848
 72
     1
 10
9.03125
 20
4.453645640574848
 11
9.03125
 21
3.046354359425151
 72
     1
 10
9.03125
 20
3.046354359425151
 11
10.25
 21
3.75
 97
        1
330
371
 75
     0
 76
     1
 98
        1
 10
-71.5
 20
-276.25
  0
LWPOLYLINE
  5
371
102
{ACAD_REACTORS
330
370
102
}
330
361
100
AcDbEntity
  8
KESKI
100
AcDbPolyline
 90
        3
 70
     1
 43
0.0
 10
10.25
 20
3.75
 10
9.03125
 20
4.453645640574848
 10
9.03125
 20
3.046354359425151
  0
ENDBLK
  5
373
330
361
100
AcDbEntity
  8
0
100
AcDbBlockEnd
  0
BLOCK
  5
4C2
330
454
100
AcDbEntity
  8
0
100
AcDbBlockBegin
  2
A$C70B5174C
 70
     0
 10
0.0
 20
0.0
 30
0.0
  3
A$C70B5174C
  1

  0
LINE
  5
455
330
454
100
AcDbEntity
  8
KESKI
100
AcDbLine
 10
0.0000009062659956
 20
10.00000060420074
 30
0.0
 11
0.0000009062659956
 21
104.2500006042007
 31
0.0
  0
LINE
  5
456
330
454
100
AcDbEntity
  8
KESKI
100
AcDbLine
 10
5.500000906265995
 20
104.2500006042007
 30
0.0
 11
5.500000906265995
 21
10.00000060420074
 31
0.0
  0
INSERT
  5
457
330
454
100
AcDbEntity
  8
KESKI
100
AcDbBlockReference
  2
INPUT
 10
16.00000090626599
 20
27.00000060420075
 30
0.0
  0
INSERT
  5
458
330
454
100
AcDbEntity
  8
KESKI
100
AcDbBlockReference
  2
INPUT
 10
16.00000090626599
 20
0.0000006042007499
 30
0.0
  0
INSERT
  5
459
330
454
100
AcDbEntity
  8
KESKI
100
AcDbBlockReference
  2
INPUT
 10
16.00000090626599
 20
10.00000060420074
 30
0.0
  0
INSERT
  5
45A
330
454
100
AcDbEntity
  8
KESKI
100
AcDbBlockReference
  2
INPUT
 10
16.00000090626599
 20
18.50000060420074
 30
0.0
  0
LINE
  5
45B
330
454
100
AcDbEntity
  8
KESKI
100
AcDbLine
 10
0.0000009062659956
 20
7.000000604200749
 30
0.0
 11
5.500000906265995
 21
7.000000604200749
 31
0.0
  0
TEXT
  5
45C
330
454
100
AcDbEntity
  8
KESKI
100
AcDbText
 10
0.2500009062659956
 20
7.250000604200749
 30
0.0
 40
1.5
  1
X5.2
  7
ROMANS
100
AcDbText
  0
LINE
  5
45D
330
454
100
AcDbEntity
  8
KESKI
100
AcDbLine
 10
0.0000009062659956
 20
9.250000604200749
 30
0.0
 11
5.500000906265995
 21
9.250000604200749
 31
0.0
  0
LINE
  5
45E
330
454
100
AcDbEntity
  8
KESKI
100
AcDbLine
 10
5.500000906265995
 20
0.0000006042007499
 30
0.0
 11
0.0000009062659956
 21
0.0000006042007499
 31
0.0
  0
TEXT
  5
45F
330
454
100
AcDbEntity
  8
KESKI
100
AcDbText
 10
1.250000906265995
 20
11.71428631848664
 30
0.0
 40
1.5
  1
18
  7
ACANSGDT
100
AcDbText
  0
TEXT
  5
460
330
454
100
AcDbEntity
  8
KESKI
100
AcDbText
 10
1.250000906265995
 20
14.64285774705808
 30
0.0
 40
1.5
  1
17
  7
ACANSGDT
100
AcDbText
  0
TEXT
  5
461
330
454
100
AcDbEntity
  8
KESKI
100
AcDbText
 10
1.250000906265995
 20
20.07142917562953
 30
0.0
 40
1.5
  1
16
  7
ACANSGDT
100
AcDbText
  0
TEXT
  5
462
330
454
100
AcDbEntity
  8
KESKI
100
AcDbText
 10
1.250000906265995
 20
23.25000060420092
 30
0.0
 40
1.5
  1
15
  7
ACANSGDT
100
AcDbText
  0
LINE
  5
463
330
454
100
AcDbEntity
  8
KESKI
100
AcDbLine
 10
5.500000906265995
 20
10.00000060420074
 30
0.0
 11
0.0000009062659956
 21
10.00000060420074
 31
0.0
  0
LINE
  5
464
330
454
100
AcDbEntity
  8
KESKI
100
AcDbLine
 10
0.0000009062659956
 20
0.0000006042007499
 30
0.0
 11
0.0000009062659956
 21
9.250000604200749
 31
0.0
  0
TEXT
  5
465
330
454
100
AcDbEntity
  8
KESKI
100
AcDbText
 10
2.000000906265995
 20
1.571429175629305
 30
0.0
 40
1.5
  1
2
  7
ACANSGDT
100
AcDbText
  0
TEXT
  5
466
330
454
100
AcDbEntity
  8
KESKI
100
AcDbText
 10
2.000000906265995
 20
4.750000604200749
 30
0.0
 40
1.5
  1
1
  7
ACANSGDT
100
AcDbText
  0
LINE
  5
467
330
454
100
AcDbEntity
  8
KESKI
100
AcDbLine
 10
5.500000906265995
 20
9.250000604200749
 30
0.0
 11
5.500000906265995
 21
0.0000006042007499
 31
0.0
  0
LINE
  5
468
330
454
100
AcDbEntity
  8
KESKI
100
AcDbLine
 10
16.00000090626599
 20
2.250000604200749
 30
0.0
 11
5.500000906265995
 21
2.250000604200749
 31
0.0
  0
LINE
  5
469
330
454
100
AcDbEntity
  8
KESKI
100
AcDbLine
 10
16.00000090626599
 20
5.500000604200749
 30
0.0
 11
5.500000906265995
 21
5.500000604200749
 31
0.0
  0
LINE
  5
46A
330
454
100
AcDbEntity
  8
KESKI
100
AcDbLine
 10
16.00000090626599
 20
12.25000060420075
 30
0.0
 11
5.500000906265995
 21
12.25000060420075
 31
0.0
  0
LINE
  5
46B
330
454
100
AcDbEntity
  8
KESKI
100
AcDbLine
 10
16.00000090626599
 20
20.75000060420074
 30
0.0
 11
5.500000906265995
 21
20.75000060420074
 31
0.0
  0
LINE
  5
46C
330
454
100
AcDbEntity
  8
KESKI
100
AcDbLine
 10
16.00000090626599
 20
15.50000060420074
 30
0.0
 11
5.500000906265995
 21
15.50000060420074
 31
0.0
  0
LINE
  5
46D
330
454
100
AcDbEntity
  8
KESKI
100
AcDbLine
 10
16.00000090626599
 20
24.00000060420075
 30
0.0
 11
5.500000906265995
 21
24.00000060420075
 31
0.0
  0
TEXT
  5
46E
330
454
100
AcDbEntity
  8
KESKI
100
AcDbText
 10
28.75000090626599
 20
3.000000604200749
 30
0.0
 40
1.5
  1
BIO1_5_BI12
  7
ACANSGDT
100
AcDbText
  0
TEXT
  5
46F
330
454
100
AcDbEntity
  8
KESKI
100
AcDbText
 10
28.75000090626599
 20
13.00000060420074
 30
0.0
 40
1.5
  1
BIO1_5_BI11
  7
ACANSGDT
100
AcDbText
  0
TEXT
  5
470
330
454
100
AcDbEntity
  8
KESKI
100
AcDbText
 10
28.75000090626599
 20
21.50000060420075
 30
0.0
 40
1.5
  1
BIO1_5_BI10
  7
ACANSGDT
100
AcDbText
  0
INSERT
  5
471
330
454
100
AcDbEntity
  8
KESKI
100
AcDbBlockReference
  2
INPUT
 10
16.00000090626599
 20
35.50000060420074
 30
0.0
  0
INSERT
  5
472
330
454
100
AcDbEntity
  8
KESKI
100
AcDbBlockReference
  2
INPUT
 10
16.00000090626599
 20
44.00000060420075
 30
0.0
  0
INSERT
  5
473
330
454
100
AcDbEntity
  8
KESKI
100
AcDbBlockReference
  2
INPUT
 10
16.00000090626599
 20
52.50000060420075
 30
0.0
  0
INSERT
  5
474
330
454
100
AcDbEntity
  8
KESKI
100
AcDbBlockReference
  2
INPUT
 10
16.00000090626599
 20
61.00000060420075
 30
0.0
  0
INSERT
  5
475
330
454
100
AcDbEntity
  8
KESKI
100
AcDbBlockReference
  2
INPUT
 10
16.00000090626599
 20
69.50000060420075
 30
0.0
  0
INSERT
  5
476
330
454
100
AcDbEntity
  8
KESKI
100
AcDbBlockReference
  2
INPUT
 10
16.00000090626599
 20
86.50000060420074
 30
0.0
  0
INSERT
  5
477
330
454
100
AcDbEntity
  8
KESKI
100
AcDbBlockReference
  2
INPUT
 10
16.00000090626599
 20
95.00000060420076
 30
0.0
  0
INSERT
  5
478
330
454
100
AcDbEntity
  8
KESKI
100
AcDbBlockReference
  2
INPUT
 10
16.00000090626599
 20
78.00000060420074
 30
0.0
  0
INSERT
  5
479
330
454
100
AcDbEntity
  8
KESKI
100
AcDbBlockReference
  2
INPUT
 10
16.00000090626599
 20
108.5000006042007
 30
0.0
  0
INSERT
  5
47A
330
454
100
AcDbEntity
  8
KESKI
100
AcDbBlockReference
  2
INPUT
 10
16.00000090626599
 20
117.0000006042007
 30
0.0
  0
INSERT
  5
47B
330
454
100
AcDbEntity
  8
KESKI
100
AcDbBlockReference
  2
INPUT
 10
16.00000090626599
 20
125.5000006042007
 30
0.0
  0
TEXT
  5
47C
330
454
100
AcDbEntity
  8
KESKI
100
AcDbText
 10
2.000000906265995
 20
118.8214291756293
 30
0.0
 40
1.5
  1
5
  7
ROMANS
100
AcDbText
  0
LWPOLYLINE
  5
47D
330
454
100
AcDbEntity
  8
KESKI
100
AcDbPolyline
 90
        4
 70
     1
 43
0.0
 10
5.500000906265995
 20
134.2500006042007
 10
0.0000009062659956
 20
134.2500006042007
 10
0.0000009062659956
 20
108.5000006042007
 10
5.500000906265995
 20
108.5000006042007
  0
LINE
  5
47E
330
454
100
AcDbEntity
  8
KESKI
100
AcDbLine
 10
12.00000090626599
 20
71.75000060420074
 30
0.0
 11
12.00000090626599
 21
80.25000060420074
 31
0.0
  0
TEXT
  5
47F
330
454
100
AcDbEntity
  8
KESKI
100
AcDbText
 10
1.250000906265995
 20
28.6785720327723
 30
0.0
 40
1.5
  1
14
  7
ACANSGDT
100
AcDbText
  0
TEXT
  5
480
330
454
100
AcDbEntity
  8
KESKI
100
AcDbText
 10
1.250000906265995
 20
31.60714346134375
 30
0.0
 40
1.5
  1
13
  7
ACANSGDT
100
AcDbText
  0
TEXT
  5
481
330
454
100
AcDbEntity
  8
KESKI
100
AcDbText
 10
1.250000906265995
 20
40.28571488991519
 30
0.0
 40
1.5
  1
12
  7
ACANSGDT
100
AcDbText
  0
TEXT
  5
482
330
454
100
AcDbEntity
  8
KESKI
100
AcDbText
 10
1.250000906265995
 20
48.89285774705797
 30
0.0
 40
1.5
  1
10
  7
ACANSGDT
100
AcDbText
  0
TEXT
  5
483
330
454
100
AcDbEntity
  8
KESKI
100
AcDbText
 10
1.250000906265995
 20
45.46428631848658
 30
0.0
 40
1.5
  1
11
  7
ACANSGDT
100
AcDbText
  0
TEXT
  5
484
330
454
100
AcDbEntity
  8
KESKI
100
AcDbText
 10
2.250000906265995
 20
62.25000060420086
 30
0.0
 40
1.5
  1
8
  7
ACANSGDT
100
AcDbText
  0
TEXT
  5
485
330
454
100
AcDbEntity
  8
KESKI
100
AcDbText
 10
2.250000906265995
 20
57.07142917562942
 30
0.0
 40
1.5
  1
9
  7
ACANSGDT
100
AcDbText
  0
TEXT
  5
486
330
454
100
AcDbEntity
  8
KESKI
100
AcDbText
 10
2.250000906265995
 20
65.67857203277225
 30
0.0
 40
1.5
  1
7
  7
ACANSGDT
100
AcDbText
  0
LWPOLYLINE
  5
487
330
454
100
AcDbEntity
  8
KESKI
100
AcDbPolyline
 90
        2
 70
     1
 43
0.5
 10
11.75000090626599
 20
46.25000060420075
 42
1.0
 10
12.25000090626599
 20
46.25000060420075
 42
1.0
  0
LINE
  5
488
330
454
100
AcDbEntity
  8
KESKI
100
AcDbLine
 10
16.00000090626599
 20
29.25000060420074
 30
0.0
 11
5.500000906265995
 21
29.25000060420074
 31
0.0
  0
LINE
  5
489
330
454
100
AcDbEntity
  8
KESKI
100
AcDbLine
 10
16.00000090626599
 20
46.25000060420075
 30
0.0
 11
5.500000906265995
 21
46.25000060420075
 31
0.0
  0
LINE
  5
48A
330
454
100
AcDbEntity
  8
KESKI
100
AcDbLine
 10
16.00000090626599
 20
32.50000060420075
 30
0.0
 11
5.500000906265995
 21
32.50000060420075
 31
0.0
  0
LINE
  5
48B
330
454
100
AcDbEntity
  8
KESKI
100
AcDbLine
 10
16.00000090626599
 20
41.00000060420074
 30
0.0
 11
5.500000906265995
 21
41.00000060420074
 31
0.0
  0
LINE
  5
48C
330
454
100
AcDbEntity
  8
KESKI
100
AcDbLine
 10
16.00000090626599
 20
49.50000060420075
 30
0.0
 11
5.500000906265995
 21
49.50000060420075
 31
0.0
  0
LINE
  5
48D
330
454
100
AcDbEntity
  8
KESKI
100
AcDbLine
 10
12.00000090626599
 20
37.75000060420075
 30
0.0
 11
12.00000090626599
 21
46.25000060420075
 31
0.0
  0
LINE
  5
48E
330
454
100
AcDbEntity
  8
KESKI
100
AcDbLine
 10
16.00000090626599
 20
37.75000060420075
 30
0.0
 11
12.00000090626599
 21
37.75000060420075
 31
0.0
  0
LWPOLYLINE
  5
48F
330
454
100
AcDbEntity
  8
KESKI
100
AcDbPolyline
 90
        2
 70
     1
 43
0.5
 10
11.75000090626599
 20
63.25000060420075
 42
1.0
 10
12.25000090626599
 20
63.25000060420075
 42
1.0
  0
LINE
  5
490
330
454
100
AcDbEntity
  8
KESKI
100
AcDbLine
 10
16.00000090626599
 20
63.25000060420075
 30
0.0
 11
5.500000906265995
 21
63.25000060420075
 31
0.0
  0
LINE
  5
491
330
454
100
AcDbEntity
  8
KESKI
100
AcDbLine
 10
16.00000090626599
 20
58.00000060420074
 30
0.0
 11
5.500000906265995
 21
58.00000060420074
 31
0.0
  0
LINE
  5
492
330
454
100
AcDbEntity
  8
KESKI
100
AcDbLine
 10
16.00000090626599
 20
66.50000060420075
 30
0.0
 11
5.500000906265995
 21
66.50000060420075
 31
0.0
  0
LINE
  5
493
330
454
100
AcDbEntity
  8
KESKI
100
AcDbLine
 10
12.00000090626599
 20
54.75000060420075
 30
0.0
 11
12.00000090626599
 21
63.25000060420075
 31
0.0
  0
LINE
  5
494
330
454
100
AcDbEntity
  8
KESKI
100
AcDbLine
 10
16.00000090626599
 20
54.75000060420075
 30
0.0
 11
12.00000090626599
 21
54.75000060420075
 31
0.0
  0
LINE
  5
495
330
454
100
AcDbEntity
  8
KESKI
100
AcDbLine
 10
16.00000090626599
 20
71.75000060420074
 30
0.0
 11
12.00000090626599
 21
71.75000060420074
 31
0.0
  0
TEXT
  5
496
330
454
100
AcDbEntity
  8
KESKI
100
AcDbText
 10
0.2500009062659956
 20
102.2500006042007
 30
0.0
 40
1.5
  1
X5.1
  7
ROMANS
100
AcDbText
  0
LINE
  5
497
330
454
100
AcDbEntity
  8
KESKI
100
AcDbLine
 10
0.0000009062659956
 20
102.0000006042007
 30
0.0
 11
5.500000906265995
 21
102.0000006042007
 31
0.0
  0
LINE
  5
498
330
454
100
AcDbEntity
  8
KESKI
100
AcDbLine
 10
0.0000009062659956
 20
104.2500006042007
 30
0.0
 11
5.500000906265995
 21
104.2500006042007
 31
0.0
  0
TEXT
  5
499
330
454
100
AcDbEntity
  8
KESKI
100
AcDbText
 10
2.250000906265995
 20
96.3214291756293
 30
0.0
 40
1.5
  1
2
  7
ACANSGDT
100
AcDbText
  0
TEXT
  5
49A
330
454
100
AcDbEntity
  8
KESKI
100
AcDbText
 10
2.250000906265995
 20
74.10714346134364
 30
0.0
 40
1.5
  1
6
  7
ACANSGDT
100
AcDbText
  0
TEXT
  5
49B
330
454
100
AcDbEntity
  8
KESKI
100
AcDbText
 10
2.250000906265995
 20
79.28571488991508
 30
0.0
 40
1.5
  1
5
  7
ACANSGDT
100
AcDbText
  0
TEXT
  5
49C
330
454
100
AcDbEntity
  8
KESKI
100
AcDbText
 10
2.250000906265995
 20
82.71428631848653
 30
0.0
 40
1.5
  1
4
  7
ACANSGDT
100
AcDbText
  0
TEXT
  5
49D
330
454
100
AcDbEntity
  8
KESKI
100
AcDbText
 10
2.250000906265995
 20
91.14285774705791
 30
0.0
 40
1.5
  1
3
  7
ACANSGDT
100
AcDbText
  0
TEXT
  5
49E
330
454
100
AcDbEntity
  8
KESKI
100
AcDbText
 10
2.250000906265995
 20
99.75000060420075
 30
0.0
 40
1.5
  1
1
  7
ACANSGDT
100
AcDbText
  0
TEXT
  5
49F
330
454
100
AcDbEntity
  8
KESKI
100
AcDbText
 10
2.250000906265995
 20
110.0714291756293
 30
0.0
 40
1.5
  1
7
  7
ROMANS
100
AcDbText
  0
TEXT
  5
4A0
330
454
100
AcDbEntity
  8
KESKI
100
AcDbText
 10
2.250000906265995
 20
112.5000006042007
 30
0.0
 40
1.5
  1
6
  7
ROMANS
100
AcDbText
  0
LWPOLYLINE
  5
4A1
330
454
100
AcDbEntity
  8
KESKI
100
AcDbPolyline
 90
        2
 70
     1
 43
0.5
 10
11.75000090626599
 20
97.25000060420075
 42
1.0
 10
12.25000090626599
 20
97.25000060420075
 42
1.0
  0
LINE
  5
4A2
330
454
100
AcDbEntity
  8
KESKI
100
AcDbLine
 10
12.00000090626599
 20
88.75000060420076
 30
0.0
 11
12.00000090626599
 21
97.25000060420075
 31
0.0
  0
LWPOLYLINE
  5
4A3
330
454
100
AcDbEntity
  8
KESKI
100
AcDbPolyline
 90
        2
 70
     1
 43
0.5
 10
11.75000090626599
 20
80.25000060420074
 42
1.0
 10
12.25000090626599
 20
80.25000060420074
 42
1.0
  0
LINE
  5
4A4
330
454
100
AcDbEntity
  8
KESKI
100
AcDbLine
 10
16.00000090626599
 20
80.25000060420074
 30
0.0
 11
5.500000906265995
 21
80.25000060420074
 31
0.0
  0
LINE
  5
4A5
330
454
100
AcDbEntity
  8
KESKI
100
AcDbLine
 10
16.00000090626599
 20
75.00000060420075
 30
0.0
 11
5.500000906265995
 21
75.00000060420075
 31
0.0
  0
LINE
  5
4A6
330
454
100
AcDbEntity
  8
KESKI
100
AcDbLine
 10
16.00000090626599
 20
83.50000060420075
 30
0.0
 11
5.500000906265995
 21
83.50000060420075
 31
0.0
  0
LINE
  5
4A7
330
454
100
AcDbEntity
  8
KESKI
100
AcDbLine
 10
16.00000090626599
 20
92.00000060420075
 30
0.0
 11
5.500000906265995
 21
92.00000060420075
 31
0.0
  0
LINE
  5
4A8
330
454
100
AcDbEntity
  8
KESKI
100
AcDbLine
 10
16.00000090626599
 20
88.75000060420076
 30
0.0
 11
12.00000090626599
 21
88.75000060420076
 31
0.0
  0
LINE
  5
4A9
330
454
100
AcDbEntity
  8
KESKI
100
AcDbLine
 10
16.00000090626599
 20
97.25000060420075
 30
0.0
 11
5.500000906265995
 21
97.25000060420075
 31
0.0
  0
LINE
  5
4AA
330
454
100
AcDbEntity
  8
KESKI
100
AcDbLine
 10
16.00000090626599
 20
100.5000006042007
 30
0.0
 11
5.500000906265995
 21
100.5000006042007
 31
0.0
  0
LINE
  5
4AB
330
454
100
AcDbEntity
  8
KESKI
100
AcDbLine
 10
16.00000090626599
 20
113.5000006042007
 30
0.0
 11
5.500000906265995
 21
113.5000006042007
 31
0.0
  0
LINE
  5
4AC
330
454
100
AcDbEntity
  8
KESKI
100
AcDbLine
 10
16.00000090626599
 20
110.7500006042007
 30
0.0
 11
5.500000906265995
 21
110.7500006042007
 31
0.0
  0
LINE
  5
4AD
330
454
100
AcDbEntity
  8
KESKI
100
AcDbLine
 10
16.00000090626599
 20
119.2500006042007
 30
0.0
 11
5.500000906265995
 21
119.2500006042007
 31
0.0
  0
TEXT
  5
4AE
330
454
100
AcDbEntity
  8
KESKI
100
AcDbText
 10
0.2500009062659956
 20
132.2500006042007
 30
0.0
 40
1.5
  1
X4.2
  7
ROMANS
100
AcDbText
  0
LINE
  5
4AF
330
454
100
AcDbEntity
  8
KESKI
100
AcDbLine
 10
0.0000009062659956
 20
132.0000006042007
 30
0.0
 11
5.500000906265995
 21
132.0000006042007
 31
0.0
  0
TEXT
  5
4B0
330
454
100
AcDbEntity
  8
KESKI
100
AcDbText
 10
2.000000906265995
 20
121.2500006042007
 30
0.0
 40
1.5
  1
4
  7
ROMANS
100
AcDbText
  0
TEXT
  5
4B1
330
454
100
AcDbEntity
  8
KESKI
100
AcDbText
 10
2.000000906265995
 20
127.3214291756292
 30
0.0
 40
1.5
  1
2
  7
ROMANS
100
AcDbText
  0
TEXT
  5
4B2
330
454
100
AcDbEntity
  8
KESKI
100
AcDbText
 10
2.000000906265995
 20
129.7500006042007
 30
0.0
 40
1.5
  1
1
  7
ROMANS
100
AcDbText
  0
LINE
  5
4B3
330
454
100
AcDbEntity
  8
KESKI
100
AcDbLine
 10
16.00000090626599
 20
122.0000006042007
 30
0.0
 11
5.500000906265995
 21
122.0000006042007
 31
0.0
  0
LINE
  5
4B4
330
454
100
AcDbEntity
  8
KESKI
100
AcDbLine
 10
16.00000090626599
 20
127.7500006042007
 30
0.0
 11
5.500000906265995
 21
127.7500006042007
 31
0.0
  0
LINE
  5
4B5
330
454
100
AcDbEntity
  8
KESKI
100
AcDbLine
 10
16.00000090626599
 20
130.5000006042007
 30
0.0
 11
5.500000906265995
 21
130.5000006042007
 31
0.0
  0
TEXT
  5
4B6
330
454
100
AcDbEntity
  8
KESKI
100
AcDbText
 10
28.75000090626599
 20
120.0000006042007
 30
0.0
 40
1.5
  1
PS1_4_BI2
  7
ACANSGDT
100
AcDbText
  0
TEXT
  5
4B7
330
454
100
AcDbEntity
  8
KESKI
100
AcDbText
 10
28.75000090626599
 20
72.50000060420075
 30
0.0
 40
1.5
  1
BIO1_5_BI4
  7
ACANSGDT
100
AcDbText
  0
TEXT
  5
4B8
330
454
100
AcDbEntity
  8
KESKI
100
AcDbText
 10
28.75000090626599
 20
30.00000060420075
 30
0.0
 40
1.5
  1
BIO1_5_BI9
  7
ACANSGDT
100
AcDbText
  0
TEXT
  5
4B9
330
454
100
AcDbEntity
  8
KESKI
100
AcDbText
 10
28.75000090626599
 20
38.50000060420075
 30
0.0
 40
1.5
  1
BIO1_5_BI8
  7
ACANSGDT
100
AcDbText
  0
TEXT
  5
4BA
330
454
100
AcDbEntity
  8
KESKI
100
AcDbText
 10
28.75000090626599
 20
47.00000060420075
 30
0.0
 40
1.5
  1
BIO1_5_BI7
  7
ACANSGDT
100
AcDbText
  0
TEXT
  5
4BB
330
454
100
AcDbEntity
  8
KESKI
100
AcDbText
 10
28.75000090626599
 20
55.50000060420074
 30
0.0
 40
1.5
  1
BIO1_5_BI6
  7
ACANSGDT
100
AcDbText
  0
TEXT
  5
4BC
330
454
100
AcDbEntity
  8
KESKI
100
AcDbText
 10
28.75000090626599
 20
64.00000060420075
 30
0.0
 40
1.5
  1
BIO1_5_BI5
  7
ACANSGDT
100
AcDbText
  0
TEXT
  5
4BD
330
454
100
AcDbEntity
  8
KESKI
100
AcDbText
 10
28.75000090626599
 20
81.00000060420075
 30
0.0
 40
1.5
  1
BIO1_5_BI3
  7
ACANSGDT
100
AcDbText
  0
TEXT
  5
4BE
330
454
100
AcDbEntity
  8
KESKI
100
AcDbText
 10
28.75000090626599
 20
89.50000060420075
 30
0.0
 40
1.5
  1
BIO1_5_BI2
  7
ACANSGDT
100
AcDbText
  0
TEXT
  5
4BF
330
454
100
AcDbEntity
  8
KESKI
100
AcDbText
 10
28.75000090626599
 20
98.00000060420074
 30
0.0
 40
1.5
  1
BIO1_5_BI1
  7
ACANSGDT
100
AcDbText
  0
TEXT
  5
4C0
330
454
100
AcDbEntity
  8
KESKI
100
AcDbText
 10
28.75000090626599
 20
111.5000006042007
 30
0.0
 40
1.5
  1
PS1_4_BI3
  7
ACANSGDT
100
AcDbText
  0
TEXT
  5
4C1
330
454
100
AcDbEntity
  8
KESKI
100
AcDbText
 10
28.75000090626599
 20
128.0000006042007
 30
0.0
 40
1.5
  1
PS1_4_BI1
  7
ACANSGDT
100
AcDbText
  0
ENDBLK
  5
4C3
330
454
100
AcDbEntity
  8
0
100
AcDbBlockEnd
  0
BLOCK
  5
4DA
330
4C5
100
AcDbEntity
  8
0
100
AcDbBlockBegin
  2
REL2
 70
     0
 10
0.0
 20
0.0
 30
0.0
  3
REL2
  1

  0
LINE
  5
4C6
330
4C5
100
AcDbEntity
  8
KESKI
100
AcDbLine
 10
2.75
 20
-4.25
 30
0.0
 11
-3.25
 21
-4.25
 31
0.0
  0
LINE
  5
4C7
330
4C5
100
AcDbEntity
  8
KESKI
100
AcDbLine
 10
0.0
 20
0.0
 30
0.0
 11
5.5
 21
3.75
 31
0.0
  0
LWPOLYLINE
  5
4C8
330
4C5
100
AcDbEntity
  8
KESKI
100
AcDbPolyline
 90
        4
 70
     1
 43
0.0
 10
0.0
 20
3.75
 10
5.5
 20
3.75
 10
5.5
 20
0.0
 10
0.0
 20
0.0
  0
HATCH
  5
4C9
330
4C5
100
AcDbEntity
  8
KESKI
100
AcDbHatch
 10
0.0
 20
0.0
 30
0.0
210
0.0
220
0.0
230
1.0
  2
SOLID
 70
     1
 71
     1
 91
        1
 92
        1
 93
        3
 72
     1
 10
-1.25
 20
-4.25
 11
-2.46875
 21
-3.546354359425151
 72
     1
 10
-2.46875
 20
-3.546354359425151
 11
-2.46875
 21
-4.953645640574848
 72
     1
 10
-2.46875
 20
-4.953645640574848
 11
-1.25
 21
-4.25
 97
        1
330
4CA
 75
     0
 76
     1
 98
        1
 10
-83.0
 20
-284.25
  0
LWPOLYLINE
  5
4CA
102
{ACAD_REACTORS
330
4C9
102
}
330
4C5
100
AcDbEntity
  8
KESKI
100
AcDbPolyline
 90
        3
 70
     1
 43
0.0
 10
-1.25
 20
-4.25
 10
-2.46875
 20
-3.546354359425151
 10
-2.46875
 20
-4.953645640574848
  0
LINE
  5
4CB
330
4C5
100
AcDbEntity
  8
KESKI
100
AcDbLine
 10
13.75
 20
-7.25
 30
0.0
 11
13.75
 21
0.25
 31
0.0
  0
LINE
  5
4CC
330
4C5
100
AcDbEntity
  8
KESKI
100
AcDbLine
 10
17.25
 20
5.0
 30
0.0
 11
17.25
 21
-4.25
 31
0.0
  0
LINE
  5
4CD
330
4C5
100
AcDbEntity
  8
KESKI
100
AcDbLine
 10
2.75
 20
0.0
 30
0.0
 11
2.75
 21
-4.25
 31
0.0
  0
LINE
  5
4CE
330
4C5
100
AcDbEntity
  8
KESKI
100
AcDbLine
 10
24.25
 20
-7.25
 30
0.0
 11
13.75
 21
-7.25
 31
0.0
  0
LINE
  5
4CF
330
4C5
100
AcDbEntity
  8
KESKI
100
AcDbLine
 10
24.25
 20
-4.25
 30
0.0
 11
17.25
 21
-4.25
 31
0.0
  0
LINE
  5
4D0
330
4C5
100
AcDbEntity
  8
KESKI
100
AcDbLine
 10
13.75
 20
5.0
 30
0.0
 11
17.25
 21
5.0
 31
0.0
  0
LINE
  5
4D1
330
4C5
100
AcDbEntity
  8
KATKO07
100
AcDbLine
 10
5.5
 20
1.875
 30
0.0
 11
21.125
 21
1.875
 31
0.0
  0
LINE
  5
4D2
330
4C5
100
AcDbEntity
  8
KESKI
100
AcDbLine
 10
2.75
 20
3.75
 30
0.0
 11
2.75
 21
5.75
 31
0.0
  0
LINE
  5
4D3
330
4C5
100
AcDbEntity
  8
KESKI
100
AcDbLine
 10
13.75
 20
0.25
 30
0.0
 11
15.5
 21
3.0
 31
0.0
  0
LINE
  5
4D4
330
4C5
100
AcDbEntity
  8
KESKI
100
AcDbLine
 10
13.75
 20
3.5
 30
0.0
 11
13.75
 21
5.0
 31
0.0
  0
LINE
  5
4D5
330
4C5
100
AcDbEntity
  8
KESKI
100
AcDbLine
 10
24.25
 20
5.0
 30
0.0
 11
20.24999999999999
 21
5.0
 31
0.0
  0
LINE
  5
4D6
330
4C5
100
AcDbEntity
  8
KESKI
100
AcDbLine
 10
20.24999999999999
 20
0.25
 30
0.0
 11
22.0
 21
3.0
 31
0.0
  0
LINE
  5
4D7
330
4C5
100
AcDbEntity
  8
KESKI
100
AcDbLine
 10
24.25
 20
-1.25
 30
0.0
 11
20.24999999999999
 21
-1.25
 31
0.0
  0
LINE
  5
4D8
330
4C5
100
AcDbEntity
  8
KESKI
100
AcDbLine
 10
20.24999999999999
 20
-1.25
 30
0.0
 11
20.24999999999999
 21
0.25
 31
0.0
  0
LINE
  5
4D9
330
4C5
100
AcDbEntity
  8
KESKI
100
AcDbLine
 10
20.24999999999999
 20
5.0
 30
0.0
 11
20.24999999999999
 21
3.5
 31
0.0
  0
ENDBLK
  5
4DB
330
4C5
100
AcDbEntity
  8
0
100
AcDbBlockEnd
  0
BLOCK
  5
4ED
330
4DC
100
AcDbEntity
  8
0
100
AcDbBlockBegin
  2
RELV
 70
     0
 10
0.0
 20
0.0
 30
0.0
  3
RELV
  1

  0
LWPOLYLINE
  5
4DD
330
4DC
100
AcDbEntity
  8
KESKI
100
AcDbPolyline
 90
        4
 70
     1
 43
0.0
 10
-24.25
 20
-5.25
 10
-18.75
 20
-5.25
 10
-18.75
 20
-9.0
 10
-24.25
 20
-9.0
  0
LINE
  5
4DE
330
4DC
100
AcDbEntity
  8
KESKI
100
AcDbLine
 10
-24.25
 20
-9.0
 30
0.0
 11
-18.75
 21
-5.25
 31
0.0
  0
LINE
  5
4DF
330
4DC
100
AcDbEntity
  8
KESKI
100
AcDbLine
 10
-21.49999999999999
 20
-13.25
 30
0.0
 11
-27.5
 21
-13.25
 31
0.0
  0
HATCH
  5
4E0
330
4DC
100
AcDbEntity
  8
KESKI
100
AcDbHatch
 10
0.0
 20
0.0
 30
0.0
210
0.0
220
0.0
230
1.0
  2
SOLID
 70
     1
 71
     1
 91
        1
 92
        1
 93
        3
 72
     1
 10
-25.5
 20
-13.25
 11
-26.71875
 21
-12.54635435942515
 72
     1
 10
-26.71875
 20
-12.54635435942515
 11
-26.71875
 21
-13.95364564057484
 72
     1
 10
-26.71875
 20
-13.95364564057484
 11
-25.5
 21
-13.25
 97
        1
330
4E1
 75
     0
 76
     1
 98
        1
 10
-107.25
 20
-293.25
  0
LWPOLYLINE
  5
4E1
102
{ACAD_REACTORS
330
4E0
102
}
330
4DC
100
AcDbEntity
  8
KESKI
100
AcDbPolyline
 90
        3
 70
     1
 43
0.0
 10
-25.5
 20
-13.25
 10
-26.71875
 20
-12.54635435942515
 10
-26.71875
 20
-13.95364564057484
  0
LINE
  5
4E2
330
4DC
100
AcDbEntity
  8
KESKI
100
AcDbLine
 10
-8.0
 20
-3.0
 30
0.0
 11
0.0
 21
-3.0
 31
0.0
  0
LINE
  5
4E3
330
4DC
100
AcDbEntity
  8
KESKI
100
AcDbLine
 10
-10.5
 20
0.0
 30
0.0
 11
0.0
 21
0.0
 31
0.0
  0
LINE
  5
4E4
330
4DC
100
AcDbEntity
  8
KESKI
100
AcDbLine
 10
-10.5
 20
-14.22868063520036
 30
0.0
 11
0.0
 21
-14.22868063520036
 31
0.0
  0
LINE
  5
4E5
330
4DC
100
AcDbEntity
  8
KATKO07
100
AcDbLine
 10
-18.75
 20
-7.125
 30
0.0
 11
-9.552083333333314
 21
-7.124999999999943
 31
0.0
  0
LINE
  5
4E6
330
4DC
100
AcDbEntity
  8
KESKI
100
AcDbLine
 10
-21.49999999999999
 20
-9.0
 30
0.0
 11
-21.49999999999999
 21
-13.25
 31
0.0
  0
LINE
  5
4E7
330
4DC
100
AcDbEntity
  8
KESKI
100
AcDbLine
 10
-21.49999999999999
 20
-5.25
 30
0.0
 11
-21.49999999999999
 21
-3.25
 31
0.0
  0
LINE
  5
4E8
330
4DC
100
AcDbEntity
  8
KESKI
100
AcDbLine
 10
-10.5
 20
-14.22868063520036
 30
0.0
 11
-10.5
 21
-8.75
 31
0.0
  0
LINE
  5
4E9
330
4DC
100
AcDbEntity
  8
KESKI
100
AcDbLine
 10
-9.0
 20
-6.0
 30
0.0
 11
-8.0
 21
-6.0
 31
0.0
  0
LINE
  5
4EA
330
4DC
100
AcDbEntity
  8
KESKI
100
AcDbLine
 10
-10.5
 20
-8.75
 30
0.0
 11
-8.515900833423529
 21
-5.747673904695602
 31
0.0
  0
LINE
  5
4EB
330
4DC
100
AcDbEntity
  8
KESKI
100
AcDbLine
 10
-8.0
 20
-6.0
 30
0.0
 11
-8.0
 21
-3.0
 31
0.0
  0
LINE
  5
4EC
330
4DC
100
AcDbEntity
  8
KESKI
100
AcDbLine
 10
-10.5
 20
-6.0
 30
0.0
 11
-10.5
 21
0.0
 31
0.0
  0
ENDBLK
  5
4EE
330
4DC
100
AcDbEntity
  8
0
100
AcDbBlockEnd
  0
BLOCK
  5
695
330
609
100
AcDbEntity
  8
0
100
AcDbBlockBegin
  2
A$C17F82921
 70
     0
 10
0.0
 20
0.0
 30
0.0
  3
A$C17F82921
  1

  0
LINE
  5
60A
330
609
100
AcDbEntity
  8
KESKI
100
AcDbLine
 10
50.46428635587744
 20
65.75000040182567
 30
0.0
 11
50.46428635587744
 21
135.5000004018256
 31
0.0
  0
LINE
  5
60B
330
609
100
AcDbEntity
  8
KESKI
100
AcDbLine
 10
44.96428635587744
 20
135.5000004018256
 30
0.0
 11
44.96428635587744
 21
65.75000040182567
 31
0.0
  0
INSERT
  5
60C
330
609
100
AcDbEntity
  8
KATKO07
100
AcDbBlockReference
  2
REL2
 10
20.71428635587744
 20
108.5000004018256
 30
0.0
  0
TEXT
  5
60D
330
609
100
AcDbEntity
  8
KESKI
100
AcDbText
 10
46.21428635587744
 20
68.41188135975409
 30
0.0
 40
1.5
  1
18
  7
ACANSGDT
100
AcDbText
  0
TEXT
  5
60E
330
609
100
AcDbEntity
  8
KESKI
100
AcDbText
 10
46.21428635587744
 20
71.41188135975409
 30
0.0
 40
1.5
  1
17
  7
ACANSGDT
100
AcDbText
  0
TEXT
  5
60F
330
609
100
AcDbEntity
  8
KESKI
100
AcDbText
 10
46.21428635587744
 20
74.66188135975409
 30
0.0
 40
1.5
  1
16
  7
ACANSGDT
100
AcDbText
  0
TEXT
  5
610
330
609
100
AcDbEntity
  8
KESKI
100
AcDbText
 10
46.21428635587744
 20
80.91188135975409
 30
0.0
 40
1.5
  1
15
  7
ACANSGDT
100
AcDbText
  0
TEXT
  5
611
330
609
100
AcDbEntity
  8
KESKI
100
AcDbText
 10
46.21428635587744
 20
85.1618813597541
 30
0.0
 40
1.5
  1
13
  7
ACANSGDT
100
AcDbText
  0
TEXT
  5
612
330
609
100
AcDbEntity
  8
KESKI
100
AcDbText
 10
46.21428635587744
 20
88.41188135975409
 30
0.0
 40
1.5
  1
12
  7
ACANSGDT
100
AcDbText
  0
TEXT
  5
613
330
609
100
AcDbEntity
  8
KESKI
100
AcDbText
 10
46.21428635587744
 20
91.4118813597541
 30
0.0
 40
1.5
  1
11
  7
ACANSGDT
100
AcDbText
  0
TEXT
  5
614
330
609
100
AcDbEntity
  8
KESKI
100
AcDbText
 10
46.21428635587744
 20
97.41188135975409
 30
0.0
 40
1.5
  1
10
  7
ACANSGDT
100
AcDbText
  0
TEXT
  5
615
330
609
100
AcDbEntity
  8
KESKI
100
AcDbText
 10
46.71428635587744
 20
100.411881359754
 30
0.0
 40
1.5
  1
9
  7
ACANSGDT
100
AcDbText
  0
LINE
  5
616
330
609
100
AcDbEntity
  8
KESKI
100
AcDbLine
 10
44.96428635587744
 20
65.75000040182567
 30
0.0
 11
50.46428635587744
 21
65.75000040182567
 31
0.0
  0
TEXT
  5
617
330
609
100
AcDbEntity
  8
KESKI
100
AcDbText
 10
46.21428635587744
 20
2.16188135975409
 30
0.0
 40
1.5
  1
18
  7
ACANSGDT
100
AcDbText
  0
TEXT
  5
618
330
609
100
AcDbEntity
  8
KESKI
100
AcDbText
 10
46.21428635587744
 20
13.16188135975409
 30
0.0
 40
1.5
  1
17
  7
ACANSGDT
100
AcDbText
  0
TEXT
  5
619
330
609
100
AcDbEntity
  8
KESKI
100
AcDbText
 10
46.21428635587744
 20
16.16188135975409
 30
0.0
 40
1.5
  1
16
  7
ACANSGDT
100
AcDbText
  0
TEXT
  5
61A
330
609
100
AcDbEntity
  8
KESKI
100
AcDbText
 10
46.21428635587744
 20
19.16188135975409
 30
0.0
 40
1.5
  1
15
  7
ACANSGDT
100
AcDbText
  0
TEXT
  5
61B
330
609
100
AcDbEntity
  8
KESKI
100
AcDbText
 10
46.21428635587744
 20
22.16188135975408
 30
0.0
 40
1.5
  1
14
  7
ACANSGDT
100
AcDbText
  0
TEXT
  5
61C
330
609
100
AcDbEntity
  8
KESKI
100
AcDbText
 10
46.21428635587744
 20
25.16188135975409
 30
0.0
 40
1.5
  1
13
  7
ACANSGDT
100
AcDbText
  0
TEXT
  5
61D
330
609
100
AcDbEntity
  8
KESKI
100
AcDbText
 10
46.21428635587744
 20
31.41188135975409
 30
0.0
 40
1.5
  1
12
  7
ACANSGDT
100
AcDbText
  0
TEXT
  5
61E
330
609
100
AcDbEntity
  8
KESKI
100
AcDbText
 10
46.21428635587744
 20
34.41188135975409
 30
0.0
 40
1.5
  1
11
  7
ACANSGDT
100
AcDbText
  0
TEXT
  5
61F
330
609
100
AcDbEntity
  8
KESKI
100
AcDbText
 10
46.21428635587744
 20
37.41188135975409
 30
0.0
 40
1.5
  1
10
  7
ACANSGDT
100
AcDbText
  0
LINE
  5
620
330
609
100
AcDbEntity
  8
KESKI
100
AcDbLine
 10
44.96428635587744
 20
0.0000004018256732
 30
0.0
 11
50.46428635587744
 21
0.0000004018256732
 31
0.0
  0
LINE
  5
621
330
609
100
AcDbEntity
  8
KESKI
100
AcDbLine
 10
44.96428635587744
 20
49.25000040182567
 30
0.0
 11
50.46428635587744
 21
49.25000040182567
 31
0.0
  0
LINE
  5
622
330
609
100
AcDbEntity
  8
KESKI
100
AcDbLine
 10
44.96428635587744
 20
51.50000040182567
 30
0.0
 11
50.46428635587744
 21
51.50000040182567
 31
0.0
  0
TEXT
  5
623
330
609
100
AcDbEntity
  8
KESKI
100
AcDbText
 10
45.21428635587745
 20
49.50000040182567
 30
0.0
 40
1.5
  1
X4.2
  7
ROMANS
100
AcDbText
  0
LINE
  5
624
330
609
100
AcDbEntity
  8
KESKI
100
AcDbLine
 10
44.96428635587744
 20
51.50000040182567
 30
0.0
 11
44.96428635587744
 21
0.0000004018256732
 31
0.0
  0
INSERT
  5
625
330
609
100
AcDbEntity
  8
KESKI
100
AcDbBlockReference
  2
RELV
 10
44.96428635587744
 20
16.75000040182567
 30
0.0
  0
TEXT
  5
626
330
609
100
AcDbEntity
  8
KESKI
100
AcDbText
 10
-0.2857136441225521
 20
3.000000401825673
 30
0.0
 40
1.5
  1
PS1_4_SO1
  7
ACANSGDT
100
AcDbText
  0
TEXT
  5
627
330
609
100
AcDbEntity
  8
KESKI
100
AcDbText
 10
-0.2857136441225521
 20
72.75000040182567
 30
0.0
 40
1.5
  1
PS1_4_HSPO2
  7
ACANSGDT
100
AcDbText
  0
TEXT
  5
628
330
609
100
AcDbEntity
  8
KESKI
100
AcDbText
 10
-0.2857136441225521
 20
89.25000040182567
 30
0.0
 40
1.5
  1
PS1_4_HSPO1
  7
ACANSGDT
100
AcDbText
  0
TEXT
  5
629
330
609
100
AcDbEntity
  8
KESKI
100
AcDbText
 10
-0.2857136441225521
 20
22.25000040182567
 30
0.0
 40
1.5
  1
PS1_4_HSPO5
  7
ACANSGDT
100
AcDbText
  0
TEXT
  5
62A
330
609
100
AcDbEntity
  8
KESKI
100
AcDbText
 10
-0.2857136441225521
 20
37.25000040182567
 30
0.0
 40
1.5
  1
PS1_4_HSPO4
  7
ACANSGDT
100
AcDbText
  0
TEXT
  5
62B
330
609
100
AcDbEntity
  8
KESKI
100
AcDbText
 10
-0.2857136441225521
 20
69.25000040182567
 30
0.0
 40
1.5
  1
PS1_4_TCS2
  7
ACANSGDT
100
AcDbText
  0
TEXT
  5
62C
330
609
100
AcDbEntity
  8
KESKI
100
AcDbText
 10
-0.2857136441225521
 20
86.00000040182568
 30
0.0
 40
1.5
  1
PS1_4_TCS1
  7
ACANSGDT
100
AcDbText
  0
INSERT
  5
62D
330
609
100
AcDbEntity
  8
KATKO07
100
AcDbBlockReference
  2
REL2
 10
20.71428635587744
 20
42.25000040182567
 30
0.0
  0
INSERT
  5
62E
330
609
100
AcDbEntity
  8
KATKO07
100
AcDbBlockReference
  2
REL2
 10
20.71428635587744
 20
27.00000040182567
 30
0.0
  0
LINE
  5
62F
330
609
100
AcDbEntity
  8
KATKO07
100
AcDbLine
 10
26.21428635587744
 20
95.12500040182567
 30
0.0
 11
38.99837726496838
 21
95.12500040182567
 31
0.0
  0
LINE
  5
630
330
609
100
AcDbEntity
  8
KESKI
100
AcDbLine
 10
44.96428635587744
 20
86.00000040182568
 30
0.0
 11
26.21428635587744
 21
86.00000040182568
 31
0.0
  0
LINE
  5
631
330
609
100
AcDbEntity
  8
KESKI
100
AcDbLine
 10
31.46428635587744
 20
98.25000040182567
 30
0.0
 11
28.46428635587745
 21
98.25000040182567
 31
0.0
  0
LINE
  5
632
330
609
100
AcDbEntity
  8
KESKI
100
AcDbLine
 10
31.46428635587744
 20
81.62500040182568
 30
0.0
 11
28.46428635587745
 21
81.62500040182568
 31
0.0
  0
LINE
  5
633
330
609
100
AcDbEntity
  8
KATKO07
100
AcDbLine
 10
26.21428635587744
 20
78.50000040182568
 30
0.0
 11
38.99837726496838
 21
78.50000040182568
 31
0.0
  0
LINE
  5
634
330
609
100
AcDbEntity
  8
KESKI
100
AcDbLine
 10
44.96428635587744
 20
69.37500040182567
 30
0.0
 11
26.21428635587744
 21
69.37500040182567
 31
0.0
  0
LINE
  5
635
330
609
100
AcDbEntity
  8
KESKI
100
AcDbLine
 10
28.46428635587745
 20
81.62500040182568
 30
0.0
 11
28.46428635587745
 21
71.00000040182568
 31
0.0
  0
LWPOLYLINE
  5
636
330
609
100
AcDbEntity
  8
KESKI
100
AcDbPolyline
 90
        4
 70
     1
 43
0.0
 10
20.71428635587744
 20
80.37500040182568
 10
26.21428635587744
 20
80.37500040182568
 10
26.21428635587744
 20
76.62500040182568
 10
20.71428635587744
 20
76.62500040182568
  0
LINE
  5
637
330
609
100
AcDbEntity
  8
KESKI
100
AcDbLine
 10
20.71428635587744
 20
76.62500040182568
 30
0.0
 11
26.21428635587744
 21
80.37500040182568
 31
0.0
  0
LWPOLYLINE
  5
638
330
609
100
AcDbEntity
  8
KESKI
100
AcDbPolyline
 90
        5
 70
     0
 43
0.0
 10
20.71428635587744
 20
71.75000040182567
 10
26.21428635587744
 20
71.75000040182567
 10
26.21428635587744
 20
68.50000040182568
 10
20.71428635587744
 20
68.50000040182568
 10
20.71428635587744
 20
71.75000040182567
  0
TEXT
  5
639
330
609
100
AcDbEntity
  8
KESKI
100
AcDbText
 10
20.96428635587745
 20
69.37500040182567
 30
0.0
 40
1.5
  1
TCS2
 41
0.9
  7
T25
100
AcDbText
  0
LINE
  5
63A
330
609
100
AcDbEntity
  8
KESKI
100
AcDbLine
 10
23.46428635587745
 20
73.25000040182567
 30
0.0
 11
17.46428635587744
 21
73.25000040182567
 31
0.0
  0
HATCH
  5
63B
330
609
100
AcDbEntity
  8
KESKI
100
AcDbHatch
 10
0.0
 20
0.0
 30
0.0
210
0.0
220
0.0
230
1.0
  2
SOLID
 70
     1
 71
     1
 91
        1
 92
        1
 93
        3
 72
     1
 10
17.46428635587744
 20
70.12500040182567
 11
18.68303635587744
 21
70.82864604240052
 72
     1
 10
18.68303635587744
 20
70.82864604240052
 11
18.68303635587744
 21
69.42135476125082
 72
     1
 10
18.68303635587744
 20
69.42135476125082
 11
17.46428635587744
 21
70.12500040182567
 97
        1
330
63C
 75
     0
 76
     1
 98
        1
 10
99.21428635587744
 20
-209.8749995981743
  0
LWPOLYLINE
  5
63C
102
{ACAD_REACTORS
330
63B
102
}
330
609
100
AcDbEntity
  8
KESKI
100
AcDbPolyline
 90
        3
 70
     1
 43
0.0
 10
17.46428635587744
 20
70.12500040182567
 10
18.68303635587744
 20
70.82864604240052
 10
18.68303635587744
 20
69.42135476125082
  0
LINE
  5
63D
330
609
100
AcDbEntity
  8
KESKI
100
AcDbLine
 10
20.71428635587744
 20
70.12500040182567
 30
0.0
 11
17.46428635587744
 21
70.12500040182567
 31
0.0
  0
LWPOLYLINE
  5
63E
102
{ACAD_REACTORS
330
63F
102
}
330
609
100
AcDbEntity
  8
KESKI
100
AcDbPolyline
 90
        3
 70
     1
 43
0.0
 10
19.46428635587744
 20
73.25000040182567
 10
18.24553635587744
 20
73.95364604240052
 10
18.24553635587744
 20
72.54635476125082
  0
HATCH
  5
63F
330
609
100
AcDbEntity
  8
KESKI
100
AcDbHatch
 10
0.0
 20
0.0
 30
0.0
210
0.0
220
0.0
230
1.0
  2
SOLID
 70
     1
 71
     1
 91
        1
 92
        1
 93
        3
 72
     1
 10
19.46428635587744
 20
73.25000040182567
 11
18.24553635587744
 21
73.95364604240052
 72
     1
 10
18.24553635587744
 20
73.95364604240052
 11
18.24553635587744
 21
72.54635476125082
 72
     1
 10
18.24553635587744
 20
72.54635476125082
 11
19.46428635587744
 21
73.25000040182567
 97
        1
330
63E
 75
     0
 76
     1
 98
        1
 10
-62.28571364412255
 20
-206.7499995981743
  0
LINE
  5
640
330
609
100
AcDbEntity
  8
KESKI
100
AcDbLine
 10
28.46428635587745
 20
71.00000040182568
 30
0.0
 11
26.21428635587744
 21
71.00000040182568
 31
0.0
  0
LINE
  5
641
330
609
100
AcDbEntity
  8
KESKI
100
AcDbLine
 10
23.46428635587745
 20
76.62500040182568
 30
0.0
 11
23.46428635587745
 21
73.25000040182567
 31
0.0
  0
LWPOLYLINE
  5
642
330
609
100
AcDbEntity
  8
KESKI
100
AcDbPolyline
 90
        5
 70
     0
 43
0.0
 10
20.71428635587744
 20
88.37500040182566
 10
26.21428635587744
 20
88.37500040182566
 10
26.21428635587744
 20
85.12500040182567
 10
20.71428635587744
 20
85.12500040182567
 10
20.71428635587744
 20
88.37500040182566
  0
TEXT
  5
643
330
609
100
AcDbEntity
  8
KESKI
100
AcDbText
 10
20.96428635587745
 20
86.00000040182568
 30
0.0
 40
1.5
  1
TCS1
 41
0.9
  7
T25
100
AcDbText
  0
LINE
  5
644
330
609
100
AcDbEntity
  8
KESKI
100
AcDbLine
 10
23.46428635587745
 20
89.87500040182567
 30
0.0
 11
17.46428635587744
 21
89.87500040182567
 31
0.0
  0
LINE
  5
645
330
609
100
AcDbEntity
  8
KESKI
100
AcDbLine
 10
20.71428635587744
 20
93.25000040182567
 30
0.0
 11
26.21428635587744
 21
97.00000040182567
 31
0.0
  0
LWPOLYLINE
  5
646
330
609
100
AcDbEntity
  8
KESKI
100
AcDbPolyline
 90
        4
 70
     1
 43
0.0
 10
20.71428635587744
 20
97.00000040182567
 10
26.21428635587744
 20
97.00000040182567
 10
26.21428635587744
 20
93.25000040182567
 10
20.71428635587744
 20
93.25000040182567
  0
LWPOLYLINE
  5
647
102
{ACAD_REACTORS
330
648
102
}
330
609
100
AcDbEntity
  8
KESKI
100
AcDbPolyline
 90
        3
 70
     1
 43
0.0
 10
19.46428635587744
 20
89.87500040182567
 10
18.24553635587744
 20
90.57864604240052
 10
18.24553635587744
 20
89.17135476125082
  0
HATCH
  5
648
330
609
100
AcDbEntity
  8
KESKI
100
AcDbHatch
 10
0.0
 20
0.0
 30
0.0
210
0.0
220
0.0
230
1.0
  2
SOLID
 70
     1
 71
     1
 91
        1
 92
        1
 93
        3
 72
     1
 10
19.46428635587744
 20
89.87500040182567
 11
18.24553635587744
 21
90.57864604240052
 72
     1
 10
18.24553635587744
 20
90.57864604240052
 11
18.24553635587744
 21
89.17135476125082
 72
     1
 10
18.24553635587744
 20
89.17135476125082
 11
19.46428635587744
 21
89.87500040182567
 97
        1
330
647
 75
     0
 76
     1
 98
        1
 10
-62.28571364412255
 20
-190.1249995981743
  0
LINE
  5
649
330
609
100
AcDbEntity
  8
KESKI
100
AcDbLine
 10
20.71428635587744
 20
86.75000040182567
 30
0.0
 11
17.46428635587744
 21
86.75000040182567
 31
0.0
  0
LWPOLYLINE
  5
64A
102
{ACAD_REACTORS
330
64B
102
}
330
609
100
AcDbEntity
  8
KESKI
100
AcDbPolyline
 90
        3
 70
     1
 43
0.0
 10
17.46428635587744
 20
86.75000040182567
 10
18.68303635587744
 20
87.45364604240052
 10
18.68303635587744
 20
86.04635476125082
  0
HATCH
  5
64B
330
609
100
AcDbEntity
  8
KESKI
100
AcDbHatch
 10
0.0
 20
0.0
 30
0.0
210
0.0
220
0.0
230
1.0
  2
SOLID
 70
     1
 71
     1
 91
        1
 92
        1
 93
        3
 72
     1
 10
17.46428635587744
 20
86.75000040182567
 11
18.68303635587744
 21
87.45364604240052
 72
     1
 10
18.68303635587744
 20
87.45364604240052
 11
18.68303635587744
 21
86.04635476125082
 72
     1
 10
18.68303635587744
 20
86.04635476125082
 11
17.46428635587744
 21
86.75000040182567
 97
        1
330
64A
 75
     0
 76
     1
 98
        1
 10
99.21428635587744
 20
-193.2499995981743
  0
LINE
  5
64C
330
609
100
AcDbEntity
  8
KESKI
100
AcDbLine
 10
23.46428635587745
 20
93.25000040182567
 30
0.0
 11
23.46428635587745
 21
89.87500040182567
 31
0.0
  0
LINE
  5
64D
330
609
100
AcDbEntity
  8
KESKI
100
AcDbLine
 10
28.46428635587745
 20
98.25000040182567
 30
0.0
 11
28.46428635587745
 21
87.62500040182567
 31
0.0
  0
LINE
  5
64E
330
609
100
AcDbEntity
  8
KESKI
100
AcDbLine
 10
28.46428635587745
 20
87.62500040182567
 30
0.0
 11
26.21428635587744
 21
87.62500040182567
 31
0.0
  0
LINE
  5
64F
330
609
100
AcDbEntity
  8
KESKI
100
AcDbLine
 10
23.46428635587745
 20
80.37500040182568
 30
0.0
 11
23.46428635587745
 21
82.37500040182567
 31
0.0
  0
LINE
  5
650
330
609
100
AcDbEntity
  8
KESKI
100
AcDbLine
 10
23.46428635587745
 20
97.00000040182567
 30
0.0
 11
23.46428635587745
 21
99.00000040182568
 31
0.0
  0
LWPOLYLINE
  5
651
330
609
100
AcDbEntity
  8
KESKI
100
AcDbPolyline
 90
        4
 70
     1
 43
0.0
 10
41.46428635587745
 20
80.50000040182567
 10
43.21428635587745
 20
80.50000040182567
 10
43.21428635587745
 20
76.75000040182567
 10
41.46428635587745
 20
76.75000040182567
  0
LINE
  5
652
330
609
100
AcDbEntity
  8
KESKI
100
AcDbLine
 10
37.96428635587744
 20
76.87500040182567
 30
0.0
 11
39.71428635587745
 21
79.62500040182567
 31
0.0
  0
LINE
  5
653
330
609
100
AcDbEntity
  8
KESKI
100
AcDbLine
 10
31.46428635587744
 20
76.87500040182567
 30
0.0
 11
33.21428635587745
 21
79.62500040182567
 31
0.0
  0
LINE
  5
654
330
609
100
AcDbEntity
  8
KESKI
100
AcDbLine
 10
34.96428635587744
 20
81.62500040182568
 30
0.0
 11
34.96428635587744
 21
72.37500040182567
 31
0.0
  0
LINE
  5
655
330
609
100
AcDbEntity
  8
KESKI
100
AcDbLine
 10
44.96428635587744
 20
75.37500040182568
 30
0.0
 11
37.96428635587744
 21
75.37500040182568
 31
0.0
  0
LINE
  5
656
330
609
100
AcDbEntity
  8
KESKI
100
AcDbLine
 10
44.96428635587744
 20
72.37500040182567
 30
0.0
 11
34.96428635587744
 21
72.37500040182567
 31
0.0
  0
LWPOLYLINE
  5
657
330
609
100
AcDbEntity
  8
KESKI
100
AcDbPolyline
 90
        2
 70
     1
 43
0.5
 10
31.21428635587744
 20
69.37500040182567
 42
1.0
 10
31.71428635587744
 20
69.37500040182567
 42
1.0
  0
LINE
  5
658
330
609
100
AcDbEntity
  8
KESKI
100
AcDbLine
 10
31.46428635587744
 20
69.37500040182567
 30
0.0
 11
31.46428635587744
 21
76.87500040182567
 31
0.0
  0
LINE
  5
659
330
609
100
AcDbEntity
  8
KESKI
100
AcDbLine
 10
37.96428635587744
 20
75.37500040182568
 30
0.0
 11
37.96428635587744
 21
76.87500040182567
 31
0.0
  0
LWPOLYLINE
  5
65A
330
609
100
AcDbEntity
  8
KESKI
100
AcDbPolyline
 90
        2
 70
     1
 43
0.5
 10
42.08928635587745
 20
75.25000040182567
 42
1.0
 10
42.58928635587745
 20
75.25000040182567
 42
1.0
  0
LINE
  5
65B
330
609
100
AcDbEntity
  8
KESKI
100
AcDbLine
 10
42.33928635587744
 20
76.75000040182567
 30
0.0
 11
42.33928635587744
 21
75.25000040182567
 31
0.0
  0
LINE
  5
65C
330
609
100
AcDbEntity
  8
KESKI
100
AcDbLine
 10
44.96428635587744
 20
98.25000040182567
 30
0.0
 11
37.96428635587744
 21
98.25000040182567
 31
0.0
  0
LINE
  5
65D
330
609
100
AcDbEntity
  8
KESKI
100
AcDbLine
 10
44.96428635587744
 20
92.00000040182567
 30
0.0
 11
37.96428635587744
 21
92.00000040182567
 31
0.0
  0
LINE
  5
65E
330
609
100
AcDbEntity
  8
KESKI
100
AcDbLine
 10
44.96428635587744
 20
89.00000040182566
 30
0.0
 11
34.96428635587744
 21
89.00000040182566
 31
0.0
  0
LINE
  5
65F
330
609
100
AcDbEntity
  8
KESKI
100
AcDbLine
 10
37.96428635587744
 20
93.50000040182568
 30
0.0
 11
39.71428635587745
 21
96.25000040182568
 31
0.0
  0
LINE
  5
660
330
609
100
AcDbEntity
  8
KESKI
100
AcDbLine
 10
44.96428635587744
 20
81.62500040182568
 30
0.0
 11
37.96428635587744
 21
81.62500040182568
 31
0.0
  0
LINE
  5
661
330
609
100
AcDbEntity
  8
KESKI
100
AcDbLine
 10
31.46428635587744
 20
86.00000040182568
 30
0.0
 11
31.46428635587744
 21
93.50000040182568
 31
0.0
  0
LINE
  5
662
330
609
100
AcDbEntity
  8
KESKI
100
AcDbLine
 10
34.96428635587744
 20
98.25000040182567
 30
0.0
 11
34.96428635587744
 21
89.00000040182566
 31
0.0
  0
LINE
  5
663
330
609
100
AcDbEntity
  8
KESKI
100
AcDbLine
 10
31.46428635587744
 20
81.62500040182568
 30
0.0
 11
34.96428635587744
 21
81.62500040182568
 31
0.0
  0
LWPOLYLINE
  5
664
330
609
100
AcDbEntity
  8
KESKI
100
AcDbPolyline
 90
        2
 70
     1
 43
0.5
 10
31.21428635587744
 20
86.00000040182568
 42
1.0
 10
31.71428635587744
 20
86.00000040182568
 42
1.0
  0
LWPOLYLINE
  5
665
330
609
100
AcDbEntity
  8
KESKI
100
AcDbPolyline
 90
        2
 70
     1
 43
0.5
 10
31.21428635587744
 20
81.62500040182568
 42
1.0
 10
31.71428635587744
 20
81.62500040182568
 42
1.0
  0
LINE
  5
666
330
609
100
AcDbEntity
  8
KESKI
100
AcDbLine
 10
31.46428635587744
 20
80.12500040182567
 30
0.0
 11
31.46428635587744
 21
81.62500040182568
 31
0.0
  0
LINE
  5
667
330
609
100
AcDbEntity
  8
KESKI
100
AcDbLine
 10
37.96428635587744
 20
81.62500040182568
 30
0.0
 11
37.96428635587744
 21
80.12500040182567
 31
0.0
  0
LINE
  5
668
330
609
100
AcDbEntity
  8
KESKI
100
AcDbLine
 10
31.46428635587744
 20
98.25000040182567
 30
0.0
 11
34.96428635587744
 21
98.25000040182567
 31
0.0
  0
LINE
  5
669
330
609
100
AcDbEntity
  8
KESKI
100
AcDbLine
 10
31.46428635587744
 20
96.75000040182567
 30
0.0
 11
31.46428635587744
 21
98.25000040182567
 31
0.0
  0
LWPOLYLINE
  5
66A
330
609
100
AcDbEntity
  8
KESKI
100
AcDbPolyline
 90
        2
 70
     1
 43
0.5
 10
31.21428635587744
 20
98.25000040182567
 42
1.0
 10
31.71428635587744
 20
98.25000040182567
 42
1.0
  0
LINE
  5
66B
330
609
100
AcDbEntity
  8
KESKI
100
AcDbLine
 10
31.46428635587744
 20
93.50000040182568
 30
0.0
 11
33.21428635587745
 21
96.25000040182568
 31
0.0
  0
LINE
  5
66C
330
609
100
AcDbEntity
  8
KESKI
100
AcDbLine
 10
37.96428635587744
 20
98.25000040182567
 30
0.0
 11
37.96428635587744
 21
96.75000040182567
 31
0.0
  0
LINE
  5
66D
330
609
100
AcDbEntity
  8
KESKI
100
AcDbLine
 10
37.96428635587744
 20
92.00000040182567
 30
0.0
 11
37.96428635587744
 21
93.50000040182568
 31
0.0
  0
LWPOLYLINE
  5
66E
330
609
100
AcDbEntity
  8
KESKI
100
AcDbPolyline
 90
        2
 70
     1
 43
0.5
 10
42.08928635587745
 20
81.62500040182568
 42
1.0
 10
42.58928635587745
 20
81.62500040182568
 42
1.0
  0
LINE
  5
66F
330
609
100
AcDbEntity
  8
KESKI
100
AcDbLine
 10
42.33928635587744
 20
80.50000040182567
 30
0.0
 11
42.33928635587744
 21
81.75000040182567
 31
0.0
  0
LWPOLYLINE
  5
670
330
609
100
AcDbEntity
  8
KESKI
100
AcDbPolyline
 90
        4
 70
     1
 43
0.0
 10
41.46428635587745
 20
97.12500040182568
 10
43.21428635587745
 20
97.12500040182568
 10
43.21428635587745
 20
93.37500040182566
 10
41.46428635587745
 20
93.37500040182566
  0
LINE
  5
671
330
609
100
AcDbEntity
  8
KESKI
100
AcDbLine
 10
42.33928635587744
 20
97.12500040182568
 30
0.0
 11
42.33928635587744
 21
98.37500040182568
 31
0.0
  0
LWPOLYLINE
  5
672
330
609
100
AcDbEntity
  8
KESKI
100
AcDbPolyline
 90
        2
 70
     1
 43
0.5
 10
42.08928635587745
 20
98.25000040182567
 42
1.0
 10
42.58928635587745
 20
98.25000040182567
 42
1.0
  0
LINE
  5
673
330
609
100
AcDbEntity
  8
KESKI
100
AcDbLine
 10
42.33928635587744
 20
93.37500040182566
 30
0.0
 11
42.33928635587744
 21
91.87500040182568
 31
0.0
  0
LWPOLYLINE
  5
674
330
609
100
AcDbEntity
  8
KESKI
100
AcDbPolyline
 90
        2
 70
     1
 43
0.5
 10
42.08928635587745
 20
91.87500040182568
 42
1.0
 10
42.58928635587745
 20
91.87500040182568
 42
1.0
  0
LINE
  5
675
330
609
100
AcDbEntity
  8
KESKI
100
AcDbLine
 10
50.46428635587744
 20
0.0000004018256732
 30
0.0
 11
50.46428635587744
 21
51.50000040182567
 31
0.0
  0
TEXT
  5
676
330
609
100
AcDbEntity
  8
KESKI
100
AcDbText
 10
47.21428635587744
 20
40.41188135975409
 30
0.0
 40
1.5
  1
9
  7
ACANSGDT
100
AcDbText
  0
TEXT
  5
677
330
609
100
AcDbEntity
  8
KESKI
100
AcDbText
 10
47.21428635587744
 20
46.41188135975409
 30
0.0
 40
1.5
  1
8
  7
ACANSGDT
100
AcDbText
  0
TEXT
  5
678
330
609
100
AcDbEntity
  8
KESKI
100
AcDbText
 10
46.71428635587744
 20
103.411881359754
 30
0.0
 40
1.5
  1
8
  7
ACANSGDT
100
AcDbText
  0
TEXT
  5
679
330
609
100
AcDbEntity
  8
KESKI
100
AcDbText
 10
46.71428635587744
 20
106.661881359754
 30
0.0
 40
1.5
  1
7
  7
ACANSGDT
100
AcDbText
  0
TEXT
  5
67A
330
609
100
AcDbEntity
  8
KESKI
100
AcDbText
 10
46.71428635587744
 20
112.6618813597541
 30
0.0
 40
1.5
  1
6
  7
ACANSGDT
100
AcDbText
  0
TEXT
  5
67B
330
609
100
AcDbEntity
  8
KESKI
100
AcDbText
 10
46.71428635587744
 20
116.161881359754
 30
0.0
 40
1.5
  1
5
  7
ACANSGDT
100
AcDbText
  0
TEXT
  5
67C
330
609
100
AcDbEntity
  8
KESKI
100
AcDbText
 10
46.71428635587744
 20
127.411881359754
 30
0.0
 40
1.5
  1
4
  7
ACANSGDT
100
AcDbText
  0
TEXT
  5
67D
330
609
100
AcDbEntity
  8
KESKI
100
AcDbText
 10
46.71428635587744
 20
130.4118813597541
 30
0.0
 40
1.5
  1
3
  7
ACANSGDT
100
AcDbText
  0
LINE
  5
67E
330
609
100
AcDbEntity
  8
KESKI
100
AcDbLine
 10
44.96428635587744
 20
135.5000004018256
 30
0.0
 11
50.46428635587744
 21
135.5000004018256
 31
0.0
  0
LINE
  5
67F
330
609
100
AcDbEntity
  8
KESKI
100
AcDbLine
 10
44.96428635587744
 20
133.2500004018256
 30
0.0
 11
50.46428635587744
 21
133.2500004018256
 31
0.0
  0
TEXT
  5
680
330
609
100
AcDbEntity
  8
KESKI
100
AcDbText
 10
45.21428635587745
 20
133.5000004018256
 30
0.0
 40
1.5
  1
X4.1
  7
ROMANS
100
AcDbText
  0
TEXT
  5
681
330
609
100
AcDbEntity
  8
KESKI
100
AcDbText
 10
-0.2857136441225521
 20
103.7500004018256
 30
0.0
 40
1.5
  1
PS1_4_HSPO3
  7
ACANSGDT
100
AcDbText
  0
LWPOLYLINE
  5
682
330
609
100
AcDbEntity
  8
KESKI
100
AcDbPolyline
 90
        4
 70
     1
 43
0.0
 10
12.46428635587744
 20
131.5000004018256
 10
17.46428635587744
 20
131.5000004018256
 10
17.46428635587744
 20
128.5000004018256
 10
12.46428635587744
 20
128.5000004018256
  0
TEXT
  5
683
330
609
100
AcDbEntity
  8
KESKI
100
AcDbText
 10
13.46428635587744
 20
129.2500004018256
 30
0.0
 40
1.5
  1
IRF
 41
0.9
  7
T25
100
AcDbText
  0
LINE
  5
684
330
609
100
AcDbEntity
  8
KATKO07
100
AcDbLine
 10
26.21428635587744
 20
124.1250004018256
 30
0.0
 11
35.41220302254413
 21
124.1250004018257
 31
0.0
  0
LINE
  5
685
330
609
100
AcDbEntity
  8
KESKI
100
AcDbLine
 10
20.71428635587744
 20
122.2500004018256
 30
0.0
 11
26.21428635587744
 21
126.0000004018256
 31
0.0
  0
LWPOLYLINE
  5
686
330
609
100
AcDbEntity
  8
KESKI
100
AcDbPolyline
 90
        4
 70
     1
 43
0.0
 10
20.71428635587744
 20
126.0000004018256
 10
26.21428635587744
 20
126.0000004018256
 10
26.21428635587744
 20
122.2500004018256
 10
20.71428635587744
 20
122.2500004018256
  0
LINE
  5
687
330
609
100
AcDbEntity
  8
KESKI
100
AcDbLine
 10
23.46428635587745
 20
122.2500004018256
 30
0.0
 11
23.46428635587745
 21
120.2500004018256
 31
0.0
  0
LINE
  5
688
330
609
100
AcDbEntity
  8
KESKI
100
AcDbLine
 10
23.46428635587745
 20
130.0000004018256
 30
0.0
 11
17.46428635587744
 21
130.0000004018256
 31
0.0
  0
HATCH
  5
689
330
609
100
AcDbEntity
  8
KESKI
100
AcDbHatch
 10
0.0
 20
0.0
 30
0.0
210
0.0
220
0.0
230
1.0
  2
SOLID
 70
     1
 71
     1
 91
        1
 92
        1
 93
        3
 72
     1
 10
19.46428635587744
 20
130.0000004018256
 11
18.24553635587744
 21
129.2963547612508
 72
     1
 10
18.24553635587744
 20
129.2963547612508
 11
18.24553635587744
 21
130.7036460424005
 72
     1
 10
18.24553635587744
 20
130.7036460424005
 11
19.46428635587744
 21
130.0000004018256
 97
        1
330
68A
 75
     0
 76
     1
 98
        1
 10
-62.28571364412255
 20
410.0000004018256
  0
LWPOLYLINE
  5
68A
102
{ACAD_REACTORS
330
689
102
}
330
609
100
AcDbEntity
  8
KESKI
100
AcDbPolyline
 90
        3
 70
     1
 43
0.0
 10
19.46428635587744
 20
130.0000004018256
 10
18.24553635587744
 20
129.2963547612508
 10
18.24553635587744
 20
130.7036460424005
  0
LINE
  5
68B
330
609
100
AcDbEntity
  8
KESKI
100
AcDbLine
 10
23.46428635587745
 20
125.7500004018256
 30
0.0
 11
23.46428635587745
 21
130.0000004018256
 31
0.0
  0
LINE
  5
68C
330
609
100
AcDbEntity
  8
KESKI
100
AcDbLine
 10
23.46428635587745
 20
126.0000004018256
 30
0.0
 11
23.46428635587745
 21
128.0000004018256
 31
0.0
  0
LINE
  5
68D
330
609
100
AcDbEntity
  8
KESKI
100
AcDbLine
 10
34.46428635587745
 20
125.2500004018256
 30
0.0
 11
34.46428635587745
 21
131.2500004018256
 31
0.0
  0
LINE
  5
68E
330
609
100
AcDbEntity
  8
KESKI
100
AcDbLine
 10
36.96428635587745
 20
125.2500004018256
 30
0.0
 11
36.96428635587745
 21
128.2500004018256
 31
0.0
  0
LINE
  5
68F
330
609
100
AcDbEntity
  8
KESKI
100
AcDbLine
 10
34.46428635587745
 20
122.5000004018256
 30
0.0
 11
36.44838552245392
 21
125.50232649713
 31
0.0
  0
LINE
  5
690
330
609
100
AcDbEntity
  8
KESKI
100
AcDbLine
 10
34.46428635587745
 20
117.0213197666253
 30
0.0
 11
44.96428635587744
 21
117.0213197666253
 31
0.0
  0
LINE
  5
691
330
609
100
AcDbEntity
  8
KESKI
100
AcDbLine
 10
34.46428635587745
 20
117.0213197666253
 30
0.0
 11
34.46428635587745
 21
122.5000004018256
 31
0.0
  0
LINE
  5
692
330
609
100
AcDbEntity
  8
KESKI
100
AcDbLine
 10
35.96428635587745
 20
125.2500004018256
 30
0.0
 11
36.96428635587745
 21
125.2500004018256
 31
0.0
  0
LINE
  5
693
330
609
100
AcDbEntity
  8
KESKI
100
AcDbLine
 10
34.46428635587745
 20
131.2500004018256
 30
0.0
 11
44.96428635587744
 21
131.2500004018256
 31
0.0
  0
LINE
  5
694
330
609
100
AcDbEntity
  8
KESKI
100
AcDbLine
 10
36.96428635587745
 20
128.2500004018256
 30
0.0
 11
44.96428635587744
 21
128.2500004018256
 31
0.0
  0
ENDBLK
  5
696
330
609
100
AcDbEntity
  8
0
100
AcDbBlockEnd
  0
BLOCK
  5
72A
330
71C
100
AcDbEntity
  8
0
100
AcDbBlockBegin
  2
A$C7D113369
 70
     0
 10
0.0
 20
0.0
 30
0.0
  3
A$C7D113369
  1

  0
LINE
  5
71D
330
71C
100
AcDbEntity
  8
TEXT25
100
AcDbLine
 10
0.0000001428525138
 20
15.99999987354033
 30
0.0
 11
74.00000014285251
 21
15.99999987354033
 31
0.0
  0
TEXT
  5
71E
330
71C
100
AcDbEntity
  8
TEXT25
100
AcDbText
 10
43.00000014285251
 20
10.99999987354033
 30
0.0
 40
2.5
  1
BINARY INPUT RANGE
 41
0.9
  7
T25
100
AcDbText
  0
LINE
  5
71F
330
71C
100
AcDbEntity
  8
TEXT25
100
AcDbLine
 10
0.0000001428525138
 20
-0.0000001264596676
 30
0.0
 11
74.00000014285251
 21
-0.0000001264596676
 31
0.0
  0
LINE
  5
720
330
71C
100
AcDbEntity
  8
TEXT25
100
AcDbLine
 10
0.0000001428525138
 20
4.999999873540332
 30
0.0
 11
74.00000014285251
 21
4.999999873540332
 31
0.0
  0
LINE
  5
721
330
71C
100
AcDbEntity
  8
TEXT25
100
AcDbLine
 10
0.0000001428525138
 20
9.999999873540332
 30
0.0
 11
74.00000014285251
 21
9.999999873540332
 31
0.0
  0
TEXT
  5
722
330
71C
100
AcDbEntity
  8
TEXT25
100
AcDbText
 10
1.000000142852513
 20
0.4047617783022588
 30
0.0
 40
2.5
  1
110-220VDC or 110-240VAC
 41
0.9
  7
T25
100
AcDbText
  0
TEXT
  5
723
330
71C
100
AcDbEntity
  8
TEXT25
100
AcDbText
 10
1.500000142852513
 20
10.99999987354033
 30
0.0
 40
2.5
  1
AUX. VOLTAGE
 41
0.9
  7
T25
100
AcDbText
  0
TEXT
  5
724
330
71C
100
AcDbEntity
  8
TEXT25
100
AcDbText
 10
1.000000142852513
 20
5.404761778302258
 30
0.0
 40
2.5
  1
24-60VDC
 41
0.9
  7
T25
100
AcDbText
  0
LINE
  5
725
330
71C
100
AcDbEntity
  8
TEXT25
100
AcDbLine
 10
40.50000014285251
 20
-0.0000001264596676
 30
0.0
 11
40.50000014285251
 21
15.99999987354033
 31
0.0
  0
TEXT
  5
726
330
71C
100
AcDbEntity
  8
TEXT25
100
AcDbText
 10
43.00000014285251
 20
0.4047617783022588
 30
0.0
 40
2.5
  1
75-265VDC
 41
0.9
  7
T25
100
AcDbText
  0
TEXT
  5
727
330
71C
100
AcDbEntity
  8
TEXT25
100
AcDbText
 10
43.00000014285251
 20
5.404761778302258
 30
0.0
 40
2.5
  1
18-265VDC
 41
0.9
  7
T25
100
AcDbText
  0
LINE
  5
728
330
71C
100
AcDbEntity
  8
TEXT25
100
AcDbLine
 10
74.00000014285251
 20
-0.0000001264596676
 30
0.0
 11
74.00000014285251
 21
15.99999987354033
 31
0.0
  0
LINE
  5
729
330
71C
100
AcDbEntity
  8
TEXT25
100
AcDbLine
 10
0.0000001428525138
 20
-0.0000001264596676
 30
0.0
 11
0.0000001428525138
 21
15.99999987354033
 31
0.0
  0
ENDBLK
  5
72B
330
71C
100
AcDbEntity
  8
0
100
AcDbBlockEnd
  0
BLOCK
  5
979
330
975
100
AcDbEntity
  8
0
100
AcDbBlockBegin
  2
COPYRIGHT
 70
     0
 10
0.0
 20
0.0
 30
0.0
  3
COPYRIGHT
  1

  0
MTEXT
  5
976
330
975
100
AcDbEntity
  8
OHUTVIIVA
100
AcDbMText
 10
-7.069100515778472
 20
0.2480355719440013
 30
0.0
 40
1.5
 41
709.4787
 71
     1
 72
     5
  1
We reserve all rights in this document and in the information contained therein. Reproduction, use or disclosure to third parties without express authority is strictly forbidden.   ABB Oy.
  7
ROMANS
 11
0.0000000000000001
 21
1.0
 31
0.0
 73
     1
 44
1.0
  0
TEXT
  5
977
330
975
100
AcDbEntity
  8
OHUTVIIVA
100
AcDbText
 10
-5.528396371740242
 20
211.2153781608921
 30
0.0
 40
1.5
  1
C
 50
90.0
  7
ROMANS
100
AcDbText
  0
CIRCLE
  5
978
330
975
100
AcDbEntity
  8
OHUTVIIVA
100
AcDbCircle
 10
-6.306905249304691
 20
212.0403355111974
 30
0.0
 40
1.359729291186732
  0
ENDBLK
  5
97A
330
975
100
AcDbEntity
  8
0
100
AcDbBlockEnd
  0
ENDSEC
  0
SECTION
  2
ENTITIES
  0
LINE
  5
6FC
330
1F
100
AcDbEntity
  8
PISTKATK
100
AcDbLine
 10
255.4749283546717
 20
51.5
 30
0.0
 11
255.4749283546717
 21
243.7883716289935
 31
0.0
  0
LINE
  5
6FD
330
1F
100
AcDbEntity
  8
PISTKATK
100
AcDbLine
 10
255.4749283546717
 20
243.7883716289935
 30
0.0
 11
143.4749283546717
 21
243.7883716289935
 31
0.0
  0
TEXT
  5
730
330
1F
100
AcDbEntity
  8
MITTA
100
AcDbText
 10
184.8805002623673
 20
217.2982645258348
 30
0.0
 40
2.5
  1
PS2_4_HSPO3
 41
0.9
  7
T25
100
AcDbText
  0
TEXT
  5
731
330
1F
100
AcDbEntity
  8
MITTA
100
AcDbText
 10
186.0207054324464
 20
199.9265203107814
 30
0.0
 40
2.5
  1
PS2_4_HSPO1
 41
0.9
  7
T25
100
AcDbText
  0
TEXT
  5
732
330
1F
100
AcDbEntity
  8
MITTA
100
AcDbText
 10
186.020706483428
 20
181.332047819467
 30
0.0
 40
2.5
  1
PS2_4_HSPO2
 41
0.9
  7
T25
100
AcDbText
  0
TEXT
  5
733
330
1F
100
AcDbEntity
  8
MITTA
100
AcDbText
 10
186.020706483428
 20
195.0828428229522
 30
0.0
 40
2.5
  1
PS2_4_TCS1
 41
0.9
  7
T25
100
AcDbText
  0
TEXT
  5
734
330
1F
100
AcDbEntity
  8
MITTA
100
AcDbText
 10
186.020706483428
 20
176.3290827116455
 30
0.0
 40
2.5
  1
PS2_4_TCS2
 41
0.9
  7
T25
100
AcDbText
  0
TEXT
  5
735
330
1F
100
AcDbEntity
  8
MITTA
100
AcDbText
 10
185.020706483428
 20
151.2095092293707
 30
0.0
 40
2.5
  1
PS2_4_HSPO4
 41
0.9
  7
T25
100
AcDbText
  0
TEXT
  5
736
330
1F
100
AcDbEntity
  8
MITTA
100
AcDbText
 10
185.0601672156831
 20
131.8295131938506
 30
0.0
 40
2.5
  1
PS2_4_HSPO5
 41
0.9
  7
T25
100
AcDbText
  0
TEXT
  5
738
330
1F
100
AcDbEntity
  8
MITTA
100
AcDbText
 10
144.6744136103955
 20
162.4425895052437
 30
0.0
 40
2.5
  1
1
 41
0.9
  7
T25
100
AcDbText
  0
TEXT
  5
739
330
1F
100
AcDbEntity
  8
MITTA
100
AcDbText
 10
144.6744136103955
 20
155.1817677500992
 30
0.0
 40
2.5
  1
2
 41
0.9
  7
T25
100
AcDbText
  0
TEXT
  5
73A
330
1F
100
AcDbEntity
  8
MITTA
100
AcDbText
 10
144.1144589390451
 20
151.1920361137766
 30
0.0
 40
2.5
  1
4
 41
0.9
  7
T25
100
AcDbText
  0
TEXT
  5
73B
330
1F
100
AcDbEntity
  8
MITTA
100
AcDbText
 10
144.1144589390451
 20
147.0925992077663
 30
0.0
 40
2.5
  1
3
 41
0.9
  7
T25
100
AcDbText
  0
TEXT
  5
73C
330
1F
100
AcDbEntity
  8
MITTA
100
AcDbText
 10
144.1144589390451
 20
143.2563715648717
 30
0.0
 40
2.5
  1
5
 41
0.9
  7
T25
100
AcDbText
  0
TEXT
  5
73D
330
1F
100
AcDbEntity
  8
MITTA
100
AcDbText
 10
144.1144589390451
 20
136.2848299975481
 30
0.0
 40
2.5
  1
6
 41
0.9
  7
T25
100
AcDbText
  0
TEXT
  5
73E
330
1F
100
AcDbEntity
  8
MITTA
100
AcDbText
 10
144.1144589390451
 20
132.7681608147254
 30
0.0
 40
2.5
  1
8
 41
0.9
  7
T25
100
AcDbText
  0
TEXT
  5
73F
330
1F
100
AcDbEntity
  8
MITTA
100
AcDbText
 10
144.1144589390451
 20
128.559018010585
 30
0.0
 40
2.5
  1
7
 41
0.9
  7
T25
100
AcDbText
  0
TEXT
  5
743
330
1F
100
AcDbEntity
  8
MITTA
100
AcDbText
 10
144.6000329835924
 20
166.1409579193072
 30
0.0
 40
2.5
  1
X4.2
 41
0.9
  7
T25
100
AcDbText
  0
LWPOLYLINE
  5
745
330
1F
100
AcDbEntity
  8
MITTA
100
AcDbPolyline
 90
        3
 70
     0
 43
0.0
 10
143.4749283546717
 20
163.0
 10
158.4999999999999
 20
163.0
 10
158.4999999999999
 20
161.0
  0
LWPOLYLINE
  5
746
330
1F
100
AcDbEntity
  8
MITTA
100
AcDbPolyline
 90
        4
 70
     0
 43
0.0
 10
143.4749283546717
 20
156.0
 10
158.4999999999999
 20
156.0
 10
158.4999999999999
 20
157.5
 10
156.0
 20
161.0
  0
LWPOLYLINE
  5
747
330
1F
100
AcDbEntity
  8
MITTA
100
AcDbPolyline
 90
        5
 70
     0
 43
0.0
 10
143.4749283546717
 20
152.0
 10
162.5
 20
152.0
 10
162.5
 20
163.0
 10
166.5
 20
163.0
 10
166.5
 20
161.0
  0
LWPOLYLINE
  5
748
330
1F
100
AcDbEntity
  8
MITTA
100
AcDbPolyline
 90
        4
 70
     0
 43
0.0
 10
143.4749283546717
 20
148.0
 10
166.5
 20
148.0
 10
166.5
 20
157.5
 10
164.0
 20
161.0
  0
LWPOLYLINE
  5
749
330
1F
100
AcDbEntity
  8
MITTA
100
AcDbPolyline
 90
        5
 70
     0
 43
0.0
 10
172.0
 20
157.0
 10
172.0
 20
162.0
 10
179.0
 20
162.0
 10
179.0
 20
157.0
 10
172.0
 20
157.0
  0
LWPOLYLINE
  5
74A
330
1F
100
AcDbEntity
  8
MITTA
100
AcDbPolyline
 90
        2
 70
     0
 43
0.0
 10
172.0
 20
157.0
 10
179.0
 20
162.0
  0
LINE
  5
74B
330
1F
100
AcDbEntity
  8
MITTA
100
AcDbLine
 10
172.0
 20
159.4999999999999
 30
0.0
 11
157.5
 21
159.4999999999999
 31
0.0
  0
LWPOLYLINE
  5
74D
330
1F
100
AcDbEntity
  8
MITTA
100
AcDbPolyline
 90
        3
 70
     0
 43
0.0
 10
175.5
 20
157.0
 10
175.5
 20
152.0
 10
183.4999999999999
 20
152.0
  0
LWPOLYLINE
  5
752
330
1F
100
AcDbEntity
  8
MITTA
100
AcDbPolyline
 90
        4
 70
     0
 43
0.0
 10
180.0
 20
152.0
 10
182.5
 20
153.5
 10
182.5
 20
150.5
 10
180.0
 20
152.0
  0
HATCH
  5
753
330
1F
100
AcDbEntity
  8
MITTA
100
AcDbHatch
 10
0.0
 20
0.0
 30
0.0
210
0.0
220
0.0
230
1.0
  2
SOLID
 70
     1
 71
     0
 91
        1
 92
        1
 93
        3
 72
     1
 10
180.0
 20
152.0
 11
182.5
 21
153.5
 72
     1
 10
182.5
 20
153.5
 11
182.5
 21
150.5
 72
     1
 10
182.5
 20
150.5
 11
180.0
 21
152.0
 97
        0
 75
     0
 76
     1
 98
        1
 10
-62.0
 20
38.5
  0
LWPOLYLINE
  5
754
330
1F
100
AcDbEntity
  8
MITTA
100
AcDbPolyline
 90
        5
 70
     0
 43
0.0
 10
143.4749283546717
 20
133.0
 10
162.5
 20
133.0
 10
162.5
 20
144.0
 10
166.5
 20
144.0
 10
166.5
 20
142.0
  0
LWPOLYLINE
  5
755
330
1F
100
AcDbEntity
  8
MITTA
100
AcDbPolyline
 90
        4
 70
     0
 43
0.0
 10
143.4749283546717
 20
129.0
 10
166.5
 20
129.0
 10
166.5
 20
138.5
 10
164.0
 20
142.0
  0
LINE
  5
756
330
1F
100
AcDbEntity
  8
MITTA
100
AcDbLine
 10
172.0
 20
140.5
 30
0.0
 11
157.5
 21
140.5
 31
0.0
  0
LWPOLYLINE
  5
757
330
1F
100
AcDbEntity
  8
MITTA
100
AcDbPolyline
 90
        3
 70
     0
 43
0.0
 10
143.4749283546717
 20
144.0
 10
158.4999999999999
 20
144.0
 10
158.4999999999999
 20
142.0
  0
LWPOLYLINE
  5
758
330
1F
100
AcDbEntity
  8
MITTA
100
AcDbPolyline
 90
        4
 70
     0
 43
0.0
 10
143.4749283546717
 20
137.0
 10
158.4999999999999
 20
137.0
 10
158.4999999999999
 20
138.5
 10
156.0
 20
142.0
  0
HATCH
  5
759
330
1F
100
AcDbEntity
  8
MITTA
100
AcDbHatch
 10
0.0
 20
0.0
 30
0.0
210
0.0
220
0.0
230
1.0
  2
SOLID
 70
     1
 71
     0
 91
        1
 92
        1
 93
        3
 72
     1
 10
180.0
 20
133.0
 11
182.5
 21
134.4999999999999
 72
     1
 10
182.5
 20
134.4999999999999
 11
182.5
 21
131.4999999999999
 72
     1
 10
182.5
 20
131.4999999999999
 11
180.0
 21
133.0
 97
        0
 75
     0
 76
     1
 98
        1
 10
-62.0
 20
19.5
  0
LWPOLYLINE
  5
75A
330
1F
100
AcDbEntity
  8
MITTA
100
AcDbPolyline
 90
        4
 70
     0
 43
0.0
 10
180.0
 20
133.0
 10
182.5
 20
134.4999999999999
 10
182.5
 20
131.4999999999999
 10
180.0
 20
133.0
  0
LWPOLYLINE
  5
75B
330
1F
100
AcDbEntity
  8
MITTA
100
AcDbPolyline
 90
        3
 70
     0
 43
0.0
 10
175.5
 20
138.0
 10
175.5
 20
133.0
 10
183.4999999999999
 20
133.0
  0
LWPOLYLINE
  5
75C
330
1F
100
AcDbEntity
  8
MITTA
100
AcDbPolyline
 90
        2
 70
     0
 43
0.0
 10
172.0
 20
138.0
 10
179.0
 20
143.0
  0
LWPOLYLINE
  5
75D
330
1F
100
AcDbEntity
  8
MITTA
100
AcDbPolyline
 90
        5
 70
     0
 43
0.0
 10
172.0
 20
138.0
 10
172.0
 20
143.0
 10
179.0
 20
143.0
 10
179.0
 20
138.0
 10
172.0
 20
138.0
  0
LWPOLYLINE
  5
773
330
1F
100
AcDbEntity
  8
MITTA
100
AcDbPolyline
 90
        5
 70
     0
 43
0.0
 10
143.4749283546717
 20
218.5
 10
162.5
 20
218.5
 10
162.5
 20
229.4999999999999
 10
166.5
 20
229.4999999999999
 10
166.5
 20
227.4999999999999
  0
LWPOLYLINE
  5
774
330
1F
100
AcDbEntity
  8
MITTA
100
AcDbPolyline
 90
        4
 70
     0
 43
0.0
 10
143.4749283546717
 20
214.5
 10
166.5
 20
214.5
 10
166.5
 20
224.0
 10
164.0
 20
227.4999999999999
  0
LINE
  5
775
330
1F
100
AcDbEntity
  8
MITTA
100
AcDbLine
 10
172.0
 20
226.0
 30
0.0
 11
157.5
 21
226.0
 31
0.0
  0
LWPOLYLINE
  5
776
330
1F
100
AcDbEntity
  8
MITTA
100
AcDbPolyline
 90
        3
 70
     0
 43
0.0
 10
143.4749283546717
 20
229.4999999999999
 10
158.4999999999999
 20
229.4999999999999
 10
158.4999999999999
 20
227.4999999999999
  0
LWPOLYLINE
  5
777
330
1F
100
AcDbEntity
  8
MITTA
100
AcDbPolyline
 90
        4
 70
     0
 43
0.0
 10
143.4749283546717
 20
222.5
 10
158.4999999999999
 20
222.5
 10
158.4999999999999
 20
224.0
 10
156.0
 20
227.4999999999999
  0
HATCH
  5
778
330
1F
100
AcDbEntity
  8
MITTA
100
AcDbHatch
 10
0.0
 20
0.0
 30
0.0
210
0.0
220
0.0
230
1.0
  2
SOLID
 70
     1
 71
     0
 91
        1
 92
        1
 93
        3
 72
     1
 10
180.0
 20
218.5
 11
182.5
 21
220.0
 72
     1
 10
182.5
 20
220.0
 11
182.5
 21
217.0
 72
     1
 10
182.5
 20
217.0
 11
180.0
 21
218.5
 97
        0
 75
     0
 76
     1
 98
        1
 10
-62.0
 20
105.0
  0
LWPOLYLINE
  5
779
330
1F
100
AcDbEntity
  8
MITTA
100
AcDbPolyline
 90
        4
 70
     0
 43
0.0
 10
180.0
 20
218.5
 10
182.5
 20
220.0
 10
182.5
 20
217.0
 10
180.0
 20
218.5
  0
LWPOLYLINE
  5
77A
330
1F
100
AcDbEntity
  8
MITTA
100
AcDbPolyline
 90
        3
 70
     0
 43
0.0
 10
175.5
 20
223.4999999999999
 10
175.5
 20
218.5
 10
183.4999999999999
 20
218.5
  0
LWPOLYLINE
  5
77B
330
1F
100
AcDbEntity
  8
MITTA
100
AcDbPolyline
 90
        2
 70
     0
 43
0.0
 10
172.0
 20
223.4999999999999
 10
179.0
 20
228.5
  0
LWPOLYLINE
  5
77C
330
1F
100
AcDbEntity
  8
MITTA
100
AcDbPolyline
 90
        5
 70
     0
 43
0.0
 10
172.0
 20
223.4999999999999
 10
172.0
 20
228.5
 10
179.0
 20
228.5
 10
179.0
 20
223.4999999999999
 10
172.0
 20
223.4999999999999
  0
LINE
  5
78F
330
1F
100
AcDbEntity
  8
MITTA
100
AcDbLine
 10
173.0
 20
207.0
 30
0.0
 11
157.5
 21
207.0
 31
0.0
  0
HATCH
  5
792
330
1F
100
AcDbEntity
  8
MITTA
100
AcDbHatch
 10
0.0
 20
0.0
 30
0.0
210
0.0
220
0.0
230
1.0
  2
SOLID
 70
     1
 71
     0
 91
        1
 92
        1
 93
        3
 72
     1
 10
181.0
 20
201.0
 11
183.4999999999999
 21
202.4999999999999
 72
     1
 10
183.4999999999999
 20
202.4999999999999
 11
183.4999999999999
 21
199.5
 72
     1
 10
183.4999999999999
 20
199.5
 11
181.0
 21
201.0
 97
        0
 75
     0
 76
     1
 98
        1
 10
-61.0
 20
87.5
  0
LWPOLYLINE
  5
793
330
1F
100
AcDbEntity
  8
MITTA
100
AcDbPolyline
 90
        4
 70
     0
 43
0.0
 10
181.0
 20
201.0
 10
183.4999999999999
 20
202.4999999999999
 10
183.4999999999999
 20
199.5
 10
181.0
 20
201.0
  0
LWPOLYLINE
  5
795
330
1F
100
AcDbEntity
  8
MITTA
100
AcDbPolyline
 90
        2
 70
     0
 43
0.0
 10
173.0
 20
204.4999999999999
 10
180.0
 20
209.5
  0
LWPOLYLINE
  5
796
330
1F
100
AcDbEntity
  8
MITTA
100
AcDbPolyline
 90
        5
 70
     0
 43
0.0
 10
173.0
 20
204.4999999999999
 10
173.0
 20
209.5
 10
180.0
 20
209.5
 10
180.0
 20
204.4999999999999
 10
173.0
 20
204.4999999999999
  0
LWPOLYLINE
  5
797
330
1F
100
AcDbEntity
  8
MITTA
100
AcDbPolyline
 90
        5
 70
     0
 43
0.0
 10
150.5
 20
205.0
 10
152.5
 20
205.0
 10
152.5
 20
209.0
 10
150.5
 20
209.0
 10
150.5
 20
205.0
  0
LWPOLYLINE
  5
798
330
1F
100
AcDbEntity
  8
MITTA
100
AcDbPolyline
 90
        2
 70
     0
 43
0.0
 10
151.5
 20
209.0
 10
151.5
 20
210.4999999999999
  0
LWPOLYLINE
  5
799
330
1F
100
AcDbEntity
  8
MITTA
100
AcDbPolyline
 90
        2
 70
     0
 43
0.0
 10
151.5
 20
205.0
 10
151.5
 20
203.5
  0
LWPOLYLINE
  5
79C
330
1F
100
AcDbEntity
  8
MITTA
100
AcDbPolyline
 90
        3
 70
     0
 43
0.0
 10
143.4749283546717
 20
210.4999999999999
 10
158.4999999999999
 20
210.4999999999999
 10
158.4999999999999
 20
208.4999999999999
  0
LWPOLYLINE
  5
79D
330
1F
100
AcDbEntity
  8
MITTA
100
AcDbPolyline
 90
        4
 70
     0
 43
0.0
 10
143.4749283546717
 20
203.5
 10
158.4999999999999
 20
203.5
 10
158.4999999999999
 20
205.0
 10
156.4999999999999
 20
208.4999999999999
  0
LWPOLYLINE
  5
79E
330
1F
100
AcDbEntity
  8
MITTA
100
AcDbPolyline
 90
        5
 70
     0
 43
0.0
 10
143.4749283546717
 20
199.5
 10
162.5
 20
199.5
 10
162.5
 20
210.4999999999999
 10
166.5
 20
210.4999999999999
 10
166.5
 20
208.4999999999999
  0
LWPOLYLINE
  5
79F
330
1F
100
AcDbEntity
  8
MITTA
100
AcDbPolyline
 90
        4
 70
     0
 43
0.0
 10
143.4749283546717
 20
195.5
 10
166.5
 20
195.5
 10
166.5
 20
205.0
 10
164.5
 20
208.4999999999999
  0
LWPOLYLINE
  5
7A0
330
1F
100
AcDbEntity
  8
MITTA
100
AcDbPolyline
 90
        2
 70
     1
 43
0.5
 10
151.25
 20
210.4999999999999
 42
1.0
 10
151.75
 20
210.4999999999999
 42
1.0
  0
LWPOLYLINE
  5
7A1
330
1F
100
AcDbEntity
  8
MITTA
100
AcDbPolyline
 90
        2
 70
     1
 43
0.5
 10
151.25
 20
203.5
 42
1.0
 10
151.75
 20
203.5
 42
1.0
  0
LWPOLYLINE
  5
7A2
330
1F
100
AcDbEntity
  8
MITTA
100
AcDbPolyline
 90
        2
 70
     1
 43
0.5
 10
166.25
 20
195.5
 42
1.0
 10
166.7499999999999
 20
195.5
 42
1.0
  0
LWPOLYLINE
  5
7A3
330
1F
100
AcDbEntity
  8
MITTA
100
AcDbPolyline
 90
        2
 70
     1
 43
0.5
 10
166.25
 20
210.4999999999999
 42
1.0
 10
166.7499999999999
 20
210.4999999999999
 42
1.0
  0
LWPOLYLINE
  5
7A4
330
1F
100
AcDbEntity
  8
MITTA
100
AcDbPolyline
 90
        5
 70
     0
 43
0.0
 10
173.0
 20
194.0
 10
173.0
 20
199.0
 10
180.0
 20
199.0
 10
180.0
 20
194.0
 10
173.0
 20
194.0
  0
LWPOLYLINE
  5
7A5
330
1F
100
AcDbEntity
  8
MITTA
100
AcDbPolyline
 90
        3
 70
     0
 43
0.0
 10
176.5
 20
204.4999999999999
 10
176.5
 20
201.0
 10
185.0
 20
201.0
  0
LWPOLYLINE
  5
7A6
330
1F
100
AcDbEntity
  8
MITTA
100
AcDbPolyline
 90
        4
 70
     0
 43
0.0
 10
166.5
 20
210.4999999999999
 10
170.5
 20
210.4999999999999
 10
170.5
 20
197.5
 10
173.0
 20
197.5
  0
LINE
  5
7A7
330
1F
100
AcDbEntity
  8
MITTA
100
AcDbLine
 10
166.5
 20
195.5
 30
0.0
 11
173.0
 21
195.5
 31
0.0
  0
LINE
  5
7A8
330
1F
100
AcDbEntity
  8
MITTA
100
AcDbLine
 10
180.0
 20
196.5
 30
0.0
 11
185.0
 21
196.5
 31
0.0
  0
HATCH
  5
7A9
330
1F
100
AcDbEntity
  8
MITTA
100
AcDbHatch
 10
0.0
 20
0.0
 30
0.0
210
0.0
220
0.0
230
1.0
  2
SOLID
 70
     1
 71
     0
 91
        1
 92
        1
 93
        3
 72
     1
 10
185.0
 20
196.5
 11
182.5
 21
198.0
 72
     1
 10
182.5
 20
198.0
 11
182.5
 21
195.0
 72
     1
 10
182.5
 20
195.0
 11
185.0
 21
196.5
 97
        0
 75
     0
 76
     1
 98
        1
 10
427.0
 20
83.0
  0
LWPOLYLINE
  5
7AA
330
1F
100
AcDbEntity
  8
MITTA
100
AcDbPolyline
 90
        4
 70
     0
 43
0.0
 10
185.0
 20
196.5
 10
182.5
 20
198.0
 10
182.5
 20
195.0
 10
185.0
 20
196.5
  0
LWPOLYLINE
  5
7AB
330
1F
100
AcDbEntity
  8
MITTA
100
AcDbPolyline
 90
        5
 70
     0
 43
0.0
 10
173.0
 20
175.0
 10
173.0
 20
180.0
 10
180.0
 20
180.0
 10
180.0
 20
175.0
 10
173.0
 20
175.0
  0
LWPOLYLINE
  5
7AC
330
1F
100
AcDbEntity
  8
MITTA
100
AcDbPolyline
 90
        4
 70
     0
 43
0.0
 10
143.4749283546717
 20
176.5
 10
166.5
 20
176.5
 10
166.5
 20
186.0
 10
164.5
 20
189.4999999999999
  0
LWPOLYLINE
  5
7AD
330
1F
100
AcDbEntity
  8
MITTA
100
AcDbPolyline
 90
        5
 70
     0
 43
0.0
 10
143.4749283546717
 20
180.4999999999999
 10
162.5
 20
180.4999999999999
 10
162.5
 20
191.5
 10
166.5
 20
191.5
 10
166.5
 20
189.4999999999999
  0
LINE
  5
7AE
330
1F
100
AcDbEntity
  8
MITTA
100
AcDbLine
 10
173.0
 20
188.0
 30
0.0
 11
157.5
 21
188.0
 31
0.0
  0
LWPOLYLINE
  5
7AF
330
1F
100
AcDbEntity
  8
MITTA
100
AcDbPolyline
 90
        4
 70
     0
 43
0.0
 10
143.4749283546717
 20
184.4999999999999
 10
158.4999999999999
 20
184.4999999999999
 10
158.4999999999999
 20
186.0
 10
156.4999999999999
 20
189.4999999999999
  0
LWPOLYLINE
  5
7B0
330
1F
100
AcDbEntity
  8
MITTA
100
AcDbPolyline
 90
        5
 70
     0
 43
0.0
 10
150.5
 20
186.0
 10
152.5
 20
186.0
 10
152.5
 20
190.0
 10
150.5
 20
190.0
 10
150.5
 20
186.0
  0
LWPOLYLINE
  5
7B1
330
1F
100
AcDbEntity
  8
MITTA
100
AcDbPolyline
 90
        2
 70
     1
 43
0.5
 10
151.25
 20
184.4999999999999
 42
1.0
 10
151.75
 20
184.4999999999999
 42
1.0
  0
LWPOLYLINE
  5
7B2
330
1F
100
AcDbEntity
  8
MITTA
100
AcDbPolyline
 90
        2
 70
     0
 43
0.0
 10
151.5
 20
186.0
 10
151.5
 20
184.4999999999999
  0
LWPOLYLINE
  5
7B3
330
1F
100
AcDbEntity
  8
MITTA
100
AcDbPolyline
 90
        2
 70
     1
 43
0.5
 10
151.25
 20
191.5
 42
1.0
 10
151.75
 20
191.5
 42
1.0
  0
LWPOLYLINE
  5
7B4
330
1F
100
AcDbEntity
  8
MITTA
100
AcDbPolyline
 90
        3
 70
     0
 43
0.0
 10
143.4749283546717
 20
191.5
 10
158.4999999999999
 20
191.5
 10
158.4999999999999
 20
189.4999999999999
  0
LWPOLYLINE
  5
7B5
330
1F
100
AcDbEntity
  8
MITTA
100
AcDbPolyline
 90
        2
 70
     0
 43
0.0
 10
151.5
 20
190.0
 10
151.5
 20
191.5
  0
LWPOLYLINE
  5
7B6
330
1F
100
AcDbEntity
  8
MITTA
100
AcDbPolyline
 90
        5
 70
     0
 43
0.0
 10
173.0
 20
185.5
 10
173.0
 20
190.5
 10
180.0
 20
190.5
 10
180.0
 20
185.5
 10
173.0
 20
185.5
  0
LWPOLYLINE
  5
7B7
330
1F
100
AcDbEntity
  8
MITTA
100
AcDbPolyline
 90
        2
 70
     0
 43
0.0
 10
173.0
 20
185.5
 10
180.0
 20
190.5
  0
LWPOLYLINE
  5
7B8
330
1F
100
AcDbEntity
  8
MITTA
100
AcDbPolyline
 90
        3
 70
     0
 43
0.0
 10
176.5
 20
185.5
 10
176.5
 20
182.0
 10
185.0
 20
182.0
  0
LWPOLYLINE
  5
7B9
330
1F
100
AcDbEntity
  8
MITTA
100
AcDbPolyline
 90
        4
 70
     0
 43
0.0
 10
166.5
 20
191.5
 10
170.5
 20
191.5
 10
170.5
 20
178.5
 10
173.0
 20
178.5
  0
LINE
  5
7BA
330
1F
100
AcDbEntity
  8
MITTA
100
AcDbLine
 10
166.5
 20
176.5
 30
0.0
 11
173.0
 21
176.5
 31
0.0
  0
LWPOLYLINE
  5
7BB
330
1F
100
AcDbEntity
  8
MITTA
100
AcDbPolyline
 90
        2
 70
     1
 43
0.5
 10
166.25
 20
176.5
 42
1.0
 10
166.7499999999999
 20
176.5
 42
1.0
  0
LWPOLYLINE
  5
7BC
330
1F
100
AcDbEntity
  8
MITTA
100
AcDbPolyline
 90
        2
 70
     1
 43
0.5
 10
166.25
 20
191.5
 42
1.0
 10
166.7499999999999
 20
191.5
 42
1.0
  0
HATCH
  5
7BD
330
1F
100
AcDbEntity
  8
MITTA
100
AcDbHatch
 10
0.0
 20
0.0
 30
0.0
210
0.0
220
0.0
230
1.0
  2
SOLID
 70
     1
 71
     0
 91
        1
 92
        1
 93
        3
 72
     1
 10
185.0
 20
177.5
 11
182.5
 21
179.0
 72
     1
 10
182.5
 20
179.0
 11
182.5
 21
176.0
 72
     1
 10
182.5
 20
176.0
 11
185.0
 21
177.5
 97
        0
 75
     0
 76
     1
 98
        1
 10
427.0
 20
64.0
  0
LWPOLYLINE
  5
7BE
330
1F
100
AcDbEntity
  8
MITTA
100
AcDbPolyline
 90
        4
 70
     0
 43
0.0
 10
185.0
 20
177.5
 10
182.5
 20
179.0
 10
182.5
 20
176.0
 10
185.0
 20
177.5
  0
LINE
  5
7BF
330
1F
100
AcDbEntity
  8
MITTA
100
AcDbLine
 10
180.0
 20
177.5
 30
0.0
 11
185.0
 21
177.5
 31
0.0
  0
HATCH
  5
7C0
330
1F
100
AcDbEntity
  8
MITTA
100
AcDbHatch
 10
0.0
 20
0.0
 30
0.0
210
0.0
220
0.0
230
1.0
  2
SOLID
 70
     1
 71
     0
 91
        1
 92
        1
 93
        3
 72
     1
 10
181.0
 20
182.0
 11
183.4999999999999
 21
183.4999999999999
 72
     1
 10
183.4999999999999
 20
183.4999999999999
 11
183.4999999999999
 21
180.4999999999999
 72
     1
 10
183.4999999999999
 20
180.4999999999999
 11
181.0
 21
182.0
 97
        0
 75
     0
 76
     1
 98
        1
 10
-61.0
 20
68.5
  0
LWPOLYLINE
  5
7C1
330
1F
100
AcDbEntity
  8
MITTA
100
AcDbPolyline
 90
        4
 70
     0
 43
0.0
 10
181.0
 20
182.0
 10
183.4999999999999
 20
183.4999999999999
 10
183.4999999999999
 20
180.4999999999999
 10
181.0
 20
182.0
  0
TEXT
  5
7C4
330
1F
100
AcDbEntity
  8
MITTA
100
AcDbText
 10
145.1744136103955
 20
213.1817677500992
 30
0.0
 40
2.5
  1
8
 41
0.9
  7
T25
100
AcDbText
  0
TEXT
  5
7C5
330
1F
100
AcDbEntity
  8
MITTA
100
AcDbText
 10
144.6144589390451
 20
190.559018010585
 30
0.0
 40
2.5
  1
15
 41
0.9
  7
T25
100
AcDbText
  0
TEXT
  5
7C6
330
1F
100
AcDbEntity
  8
MITTA
100
AcDbText
 10
144.6144589390451
 20
183.7109259343901
 30
0.0
 40
2.5
  1
16
 41
0.9
  7
T25
100
AcDbText
  0
TEXT
  5
7C7
330
1F
100
AcDbEntity
  8
MITTA
100
AcDbText
 10
144.6144589390451
 20
179.4720219929409
 30
0.0
 40
2.5
  1
18
 41
0.9
  7
T25
100
AcDbText
  0
TEXT
  5
7C8
330
1F
100
AcDbEntity
  8
MITTA
100
AcDbText
 10
144.6144589390451
 20
175.6064025017163
 30
0.0
 40
2.5
  1
17
 41
0.9
  7
T25
100
AcDbText
  0
TEXT
  5
7C9
330
1F
100
AcDbEntity
  8
MITTA
100
AcDbText
 10
144.6144589390451
 20
209.6920361137766
 30
0.0
 40
2.5
  1
10
 41
0.9
  7
T25
100
AcDbText
  0
TEXT
  5
7CA
330
1F
100
AcDbEntity
  8
MITTA
100
AcDbText
 10
144.6144589390451
 20
198.7563715648717
 30
0.0
 40
2.5
  1
13
 41
0.9
  7
T25
100
AcDbText
  0
TEXT
  5
7CB
330
1F
100
AcDbEntity
  8
MITTA
100
AcDbText
 10
144.6144589390451
 20
194.7848299975481
 30
0.0
 40
2.5
  1
12
 41
0.9
  7
T25
100
AcDbText
  0
TEXT
  5
7CD
330
1F
100
AcDbEntity
  8
MITTA
100
AcDbText
 10
144.6144589390451
 20
202.5925992077663
 30
0.0
 40
2.5
  1
11
 41
0.9
  7
T25
100
AcDbText
  0
TEXT
  5
7CE
330
1F
100
AcDbEntity
  8
MITTA
100
AcDbText
 10
145.1744136103955
 20
217.4425895052437
 30
0.0
 40
2.5
  1
9
 41
0.9
  7
T25
100
AcDbText
  0
TEXT
  5
7CF
330
1F
100
AcDbEntity
  8
MITTA
100
AcDbText
 10
145.1744136103955
 20
221.4425895052437
 30
0.0
 40
2.5
  1
7
 41
0.9
  7
T25
100
AcDbText
  0
TEXT
  5
7D0
330
1F
100
AcDbEntity
  8
MITTA
100
AcDbText
 10
145.1744136103955
 20
228.4425895052437
 30
0.0
 40
2.5
  1
6
 41
0.9
  7
T25
100
AcDbText
  0
TEXT
  5
7D4
330
1F
100
AcDbEntity
  8
MITTA
100
AcDbText
 10
144.6000329835924
 20
232.1409579193072
 30
0.0
 40
2.5
  1
X4.1
 41
0.9
  7
T25
100
AcDbText
  0
TEXT
  5
7E2
330
1F
100
AcDbEntity
  8
MITTA
100
AcDbText
 10
173.5
 20
194.0
 30
0.0
 40
2.5
  1
TCS1
 41
0.9
  7
T25
100
AcDbText
  0
TEXT
  5
7E5
330
1F
100
AcDbEntity
  8
MITTA
100
AcDbText
 10
173.0
 20
175.0
 30
0.0
 40
2.5
  1
TCS2
 41
0.9
  7
T25
100
AcDbText
  0
LINE
  5
823
330
1F
100
AcDbEntity
  8
PISTKATK
100
AcDbLine
 10
143.4749283546717
 20
51.5
 30
0.0
 11
143.4749283546717
 21
243.7883716289935
 31
0.0
  0
LINE
  5
824
330
1F
100
AcDbEntity
  8
PISTKATK
100
AcDbLine
 10
255.5
 20
51.28837162899353
 30
0.0
 11
143.4749283546717
 21
51.28837162899353
 31
0.0
  0
LINE
  5
82D
330
1F
100
AcDbEntity
  8
KATKO07
100
AcDbLine
 10
143.5
 20
229.4999999999999
 30
0.0
 11
103.4999999999999
 21
229.4999999999999
 31
0.0
  0
LINE
  5
82E
330
1F
100
AcDbEntity
  8
KATKO07
100
AcDbLine
 10
143.5
 20
222.5
 30
0.0
 11
103.4999999999999
 21
222.5
 31
0.0
  0
LINE
  5
82F
330
1F
100
AcDbEntity
  8
KATKO07
100
AcDbLine
 10
143.5
 20
218.5
 30
0.0
 11
103.4999999999999
 21
218.5
 31
0.0
  0
LINE
  5
830
330
1F
100
AcDbEntity
  8
KATKO07
100
AcDbLine
 10
143.5
 20
214.5
 30
0.0
 11
103.4999999999999
 21
214.5
 31
0.0
  0
LINE
  5
831
330
1F
100
AcDbEntity
  8
KATKO07
100
AcDbLine
 10
143.5
 20
210.4999999999999
 30
0.0
 11
103.4999999999999
 21
210.4999999999999
 31
0.0
  0
LINE
  5
832
330
1F
100
AcDbEntity
  8
KATKO07
100
AcDbLine
 10
143.5
 20
203.5
 30
0.0
 11
103.4999999999999
 21
203.5
 31
0.0
  0
LINE
  5
833
330
1F
100
AcDbEntity
  8
KATKO07
100
AcDbLine
 10
143.5
 20
199.5
 30
0.0
 11
103.4999999999999
 21
199.5
 31
0.0
  0
LINE
  5
834
330
1F
100
AcDbEntity
  8
KATKO07
100
AcDbLine
 10
143.5
 20
195.5
 30
0.0
 11
103.4999999999999
 21
195.5
 31
0.0
  0
LINE
  5
835
330
1F
100
AcDbEntity
  8
KATKO07
100
AcDbLine
 10
143.5
 20
191.5
 30
0.0
 11
103.4999999999999
 21
191.5
 31
0.0
  0
LINE
  5
836
330
1F
100
AcDbEntity
  8
KATKO07
100
AcDbLine
 10
143.5
 20
184.4999999999999
 30
0.0
 11
103.4999999999999
 21
184.4999999999999
 31
0.0
  0
LINE
  5
837
330
1F
100
AcDbEntity
  8
KATKO07
100
AcDbLine
 10
143.5
 20
180.4999999999999
 30
0.0
 11
103.4999999999999
 21
180.4999999999999
 31
0.0
  0
LINE
  5
838
330
1F
100
AcDbEntity
  8
KATKO07
100
AcDbLine
 10
143.5
 20
176.5
 30
0.0
 11
103.4999999999999
 21
176.5
 31
0.0
  0
LINE
  5
839
330
1F
100
AcDbEntity
  8
KATKO07
100
AcDbLine
 10
143.5
 20
163.0
 30
0.0
 11
103.4999999999999
 21
163.0
 31
0.0
  0
LINE
  5
83A
330
1F
100
AcDbEntity
  8
KATKO07
100
AcDbLine
 10
143.5
 20
156.0
 30
0.0
 11
103.4999999999999
 21
156.0
 31
0.0
  0
LINE
  5
83B
330
1F
100
AcDbEntity
  8
KATKO07
100
AcDbLine
 10
143.5
 20
152.0
 30
0.0
 11
103.4999999999999
 21
152.0
 31
0.0
  0
LINE
  5
83C
330
1F
100
AcDbEntity
  8
KATKO07
100
AcDbLine
 10
143.5
 20
148.0
 30
0.0
 11
103.4999999999999
 21
148.0
 31
0.0
  0
LINE
  5
83D
330
1F
100
AcDbEntity
  8
KATKO07
100
AcDbLine
 10
143.5
 20
144.0
 30
0.0
 11
103.4999999999999
 21
144.0
 31
0.0
  0
LINE
  5
83E
330
1F
100
AcDbEntity
  8
KATKO07
100
AcDbLine
 10
143.5
 20
137.0
 30
0.0
 11
103.4999999999999
 21
137.0
 31
0.0
  0
LINE
  5
83F
330
1F
100
AcDbEntity
  8
KATKO07
100
AcDbLine
 10
143.5
 20
133.0
 30
0.0
 11
103.4999999999999
 21
133.0
 31
0.0
  0
LINE
  5
840
330
1F
100
AcDbEntity
  8
KATKO07
100
AcDbLine
 10
143.5
 20
129.0
 30
0.0
 11
103.4999999999999
 21
129.0
 31
0.0
  0
TEXT
  5
846
330
1F
100
AcDbEntity
  8
TEXT25
100
AcDbText
 10
143.5
 20
246.4999999999999
 30
0.0
 40
2.5
  1
PS2 , POWER SUPPLY MODULE 2,  BINARY OUT
 41
0.9
  7
T25
100
AcDbText
  0
LWPOLYLINE
  5
849
330
1F
100
AcDbEntity
  8
MITTA
100
AcDbPolyline
 90
        5
 70
     0
 43
0.0
 10
143.4749283546717
 20
114.0
 10
162.5
 20
114.0
 10
162.5
 20
125.0
 10
166.5
 20
125.0
 10
166.5
 20
123.0
  0
LWPOLYLINE
  5
84A
330
1F
100
AcDbEntity
  8
MITTA
100
AcDbPolyline
 90
        4
 70
     0
 43
0.0
 10
143.4749283546717
 20
110.0
 10
166.5
 20
110.0
 10
166.5
 20
119.5
 10
164.0
 20
123.0
  0
LWPOLYLINE
  5
84B
330
1F
100
AcDbEntity
  8
MITTA
100
AcDbPolyline
 90
        4
 70
     0
 43
0.0
 10
143.4749283546717
 20
118.0
 10
158.4999999999999
 20
118.0
 10
158.4999999999999
 20
119.5
 10
156.0
 20
123.0
  0
LWPOLYLINE
  5
84C
330
1F
100
AcDbEntity
  8
MITTA
100
AcDbPolyline
 90
        3
 70
     0
 43
0.0
 10
143.4749283546717
 20
125.0
 10
158.4999999999999
 20
125.0
 10
158.4999999999999
 20
123.0
  0
LWPOLYLINE
  5
84D
330
1F
100
AcDbEntity
  8
MITTA
100
AcDbPolyline
 90
        3
 70
     0
 43
0.0
 10
175.5
 20
119.0
 10
175.5
 20
114.0
 10
183.4999999999999
 20
114.0
  0
LWPOLYLINE
  5
84E
330
1F
100
AcDbEntity
  8
MITTA
100
AcDbPolyline
 90
        2
 70
     0
 43
0.0
 10
172.0
 20
119.0
 10
179.0
 20
124.0
  0
LWPOLYLINE
  5
84F
330
1F
100
AcDbEntity
  8
MITTA
100
AcDbPolyline
 90
        5
 70
     0
 43
0.0
 10
172.0
 20
119.0
 10
172.0
 20
124.0
 10
179.0
 20
124.0
 10
179.0
 20
119.0
 10
172.0
 20
119.0
  0
LINE
  5
850
330
1F
100
AcDbEntity
  8
MITTA
100
AcDbLine
 10
172.0
 20
121.5
 30
0.0
 11
157.5
 21
121.5
 31
0.0
  0
TEXT
  5
851
330
1F
100
AcDbEntity
  8
MITTA
100
AcDbText
 10
144.1144589390451
 20
109.559018010585
 30
0.0
 40
2.5
  1
11
 41
0.9
  7
T25
100
AcDbText
  0
TEXT
  5
852
330
1F
100
AcDbEntity
  8
MITTA
100
AcDbText
 10
144.1144589390451
 20
113.7681608147254
 30
0.0
 40
2.5
  1
12
 41
0.9
  7
T25
100
AcDbText
  0
TEXT
  5
853
330
1F
100
AcDbEntity
  8
MITTA
100
AcDbText
 10
144.1144589390451
 20
117.2848299975481
 30
0.0
 40
2.5
  1
10
 41
0.9
  7
T25
100
AcDbText
  0
TEXT
  5
854
330
1F
100
AcDbEntity
  8
MITTA
100
AcDbText
 10
144.1144589390451
 20
124.2563715648717
 30
0.0
 40
2.5
  1
9
 41
0.9
  7
T25
100
AcDbText
  0
TEXT
  5
855
330
1F
100
AcDbEntity
  8
MITTA
100
AcDbText
 10
185.0601672156831
 20
112.8295131938506
 30
0.0
 40
2.5
  1
PS2_4_HSPO6
 41
0.9
  7
T25
100
AcDbText
  0
HATCH
  5
856
330
1F
100
AcDbEntity
  8
MITTA
100
AcDbHatch
 10
0.0
 20
0.0
 30
0.0
210
0.0
220
0.0
230
1.0
  2
SOLID
 70
     1
 71
     0
 91
        1
 92
        1
 93
        3
 72
     1
 10
180.0
 20
114.0
 11
182.5
 21
115.5
 72
     1
 10
182.5
 20
115.5
 11
182.5
 21
112.5
 72
     1
 10
182.5
 20
112.5
 11
180.0
 21
114.0
 97
        0
 75
     0
 76
     1
 98
        1
 10
-62.0
 20
0.5
  0
LWPOLYLINE
  5
857
330
1F
100
AcDbEntity
  8
MITTA
100
AcDbPolyline
 90
        4
 70
     0
 43
0.0
 10
180.0
 20
114.0
 10
182.5
 20
115.5
 10
182.5
 20
112.5
 10
180.0
 20
114.0
  0
LINE
  5
858
330
1F
100
AcDbEntity
  8
KATKO07
100
AcDbLine
 10
143.5
 20
110.0
 30
0.0
 11
103.4999999999999
 21
110.0
 31
0.0
  0
LINE
  5
859
330
1F
100
AcDbEntity
  8
KATKO07
100
AcDbLine
 10
143.5
 20
114.0
 30
0.0
 11
103.4999999999999
 21
114.0
 31
0.0
  0
LINE
  5
85A
330
1F
100
AcDbEntity
  8
KATKO07
100
AcDbLine
 10
143.5
 20
118.0
 30
0.0
 11
103.4999999999999
 21
118.0
 31
0.0
  0
LINE
  5
85B
330
1F
100
AcDbEntity
  8
KATKO07
100
AcDbLine
 10
143.5
 20
125.0
 30
0.0
 11
103.4999999999999
 21
125.0
 31
0.0
  0
LWPOLYLINE
  5
85C
330
1F
100
AcDbEntity
  8
MITTA
100
AcDbPolyline
 90
        3
 70
     0
 43
0.0
 10
143.4749283546717
 20
106.0
 10
158.4999999999999
 20
106.0
 10
158.4999999999999
 20
104.0
  0
LWPOLYLINE
  5
85D
330
1F
100
AcDbEntity
  8
MITTA
100
AcDbPolyline
 90
        4
 70
     0
 43
0.0
 10
143.4749283546717
 20
99.0
 10
158.4999999999999
 20
99.0
 10
158.4999999999999
 20
100.5
 10
156.0
 20
104.0
  0
LWPOLYLINE
  5
85E
330
1F
100
AcDbEntity
  8
MITTA
100
AcDbPolyline
 90
        4
 70
     0
 43
0.0
 10
143.4749283546717
 20
91.0
 10
166.5
 20
91.0
 10
166.5
 20
100.5
 10
164.0
 20
104.0
  0
LWPOLYLINE
  5
85F
330
1F
100
AcDbEntity
  8
MITTA
100
AcDbPolyline
 90
        5
 70
     0
 43
0.0
 10
143.4749283546717
 20
95.0
 10
162.5
 20
95.0
 10
162.5
 20
106.0
 10
166.5
 20
106.0
 10
166.5
 20
104.0
  0
LWPOLYLINE
  5
860
330
1F
100
AcDbEntity
  8
MITTA
100
AcDbPolyline
 90
        5
 70
     0
 43
0.0
 10
172.0
 20
100.0
 10
172.0
 20
105.0
 10
179.0
 20
105.0
 10
179.0
 20
100.0
 10
172.0
 20
100.0
  0
LWPOLYLINE
  5
861
330
1F
100
AcDbEntity
  8
MITTA
100
AcDbPolyline
 90
        2
 70
     0
 43
0.0
 10
172.0
 20
100.0
 10
179.0
 20
105.0
  0
LWPOLYLINE
  5
862
330
1F
100
AcDbEntity
  8
MITTA
100
AcDbPolyline
 90
        3
 70
     0
 43
0.0
 10
175.5
 20
100.0
 10
175.5
 20
95.0
 10
183.4999999999999
 20
95.0
  0
LINE
  5
863
330
1F
100
AcDbEntity
  8
MITTA
100
AcDbLine
 10
172.0
 20
102.4999999999999
 30
0.0
 11
157.5
 21
102.4999999999999
 31
0.0
  0
TEXT
  5
864
330
1F
100
AcDbEntity
  8
MITTA
100
AcDbText
 10
144.1144589390451
 20
90.55901801058501
 30
0.0
 40
2.5
  1
15
 41
0.9
  7
T25
100
AcDbText
  0
TEXT
  5
865
330
1F
100
AcDbEntity
  8
MITTA
100
AcDbText
 10
144.1144589390451
 20
98.28482999754811
 30
0.0
 40
2.5
  1
14
 41
0.9
  7
T25
100
AcDbText
  0
TEXT
  5
866
330
1F
100
AcDbEntity
  8
MITTA
100
AcDbText
 10
144.1144589390451
 20
94.76816081472543
 30
0.0
 40
2.5
  1
16
 41
0.9
  7
T25
100
AcDbText
  0
TEXT
  5
867
330
1F
100
AcDbEntity
  8
MITTA
100
AcDbText
 10
144.1144589390451
 20
105.2563715648717
 30
0.0
 40
2.5
  1
13
 41
0.9
  7
T25
100
AcDbText
  0
TEXT
  5
868
330
1F
100
AcDbEntity
  8
MITTA
100
AcDbText
 10
185.0601672156831
 20
93.82951319385062
 30
0.0
 40
2.5
  1
PS2_4_HSPO7
 41
0.9
  7
T25
100
AcDbText
  0
LWPOLYLINE
  5
869
330
1F
100
AcDbEntity
  8
MITTA
100
AcDbPolyline
 90
        4
 70
     0
 43
0.0
 10
180.0
 20
95.0
 10
182.5
 20
96.5
 10
182.5
 20
93.49999999999999
 10
180.0
 20
95.0
  0
HATCH
  5
86A
330
1F
100
AcDbEntity
  8
MITTA
100
AcDbHatch
 10
0.0
 20
0.0
 30
0.0
210
0.0
220
0.0
230
1.0
  2
SOLID
 70
     1
 71
     0
 91
        1
 92
        1
 93
        3
 72
     1
 10
180.0
 20
95.0
 11
182.5
 21
96.5
 72
     1
 10
182.5
 20
96.5
 11
182.5
 21
93.49999999999999
 72
     1
 10
182.5
 20
93.49999999999999
 11
180.0
 21
95.0
 97
        0
 75
     0
 76
     1
 98
        1
 10
-62.0
 20
-18.5
  0
LINE
  5
86B
330
1F
100
AcDbEntity
  8
KATKO07
100
AcDbLine
 10
143.5
 20
106.0
 30
0.0
 11
103.4999999999999
 21
106.0
 31
0.0
  0
LINE
  5
86C
330
1F
100
AcDbEntity
  8
KATKO07
100
AcDbLine
 10
143.5
 20
99.0
 30
0.0
 11
103.4999999999999
 21
99.0
 31
0.0
  0
LINE
  5
86D
330
1F
100
AcDbEntity
  8
KATKO07
100
AcDbLine
 10
143.5
 20
95.0
 30
0.0
 11
103.4999999999999
 21
95.0
 31
0.0
  0
LINE
  5
86E
330
1F
100
AcDbEntity
  8
KATKO07
100
AcDbLine
 10
143.5
 20
91.0
 30
0.0
 11
103.4999999999999
 21
91.0
 31
0.0
  0
LWPOLYLINE
  5
870
330
1F
100
AcDbEntity
  8
MITTA
100
AcDbPolyline
 90
        4
 70
     0
 43
0.0
 10
143.4749283546717
 20
72.0
 10
166.5
 20
72.0
 10
166.5
 20
81.5
 10
164.0
 20
85.0
  0
LWPOLYLINE
  5
871
330
1F
100
AcDbEntity
  8
MITTA
100
AcDbPolyline
 90
        4
 70
     0
 43
0.0
 10
143.4749283546717
 20
80.0
 10
158.4999999999999
 20
80.0
 10
158.4999999999999
 20
81.5
 10
156.0
 20
85.0
  0
LWPOLYLINE
  5
873
330
1F
100
AcDbEntity
  8
MITTA
100
AcDbPolyline
 90
        2
 70
     0
 43
0.0
 10
172.0
 20
81.0
 10
179.0
 20
86.0
  0
LWPOLYLINE
  5
874
330
1F
100
AcDbEntity
  8
MITTA
100
AcDbPolyline
 90
        5
 70
     0
 43
0.0
 10
172.0
 20
81.0
 10
172.0
 20
86.0
 10
179.0
 20
86.0
 10
179.0
 20
81.0
 10
172.0
 20
81.0
  0
LWPOLYLINE
  5
875
330
1F
100
AcDbEntity
  8
MITTA
100
AcDbPolyline
 90
        3
 70
     0
 43
0.0
 10
175.5
 20
81.0
 10
175.5
 20
76.0
 10
183.4999999999999
 20
76.0
  0
HATCH
  5
876
330
1F
100
AcDbEntity
  8
MITTA
100
AcDbHatch
 10
0.0
 20
0.0
 30
0.0
210
0.0
220
0.0
230
1.0
  2
SOLID
 70
     1
 71
     0
 91
        1
 92
        1
 93
        3
 72
     1
 10
180.0
 20
76.0
 11
182.5
 21
77.5
 72
     1
 10
182.5
 20
77.5
 11
182.5
 21
74.5
 72
     1
 10
182.5
 20
74.5
 11
180.0
 21
76.0
 97
        0
 75
     0
 76
     1
 98
        1
 10
-62.0
 20
-37.5
  0
LWPOLYLINE
  5
877
330
1F
100
AcDbEntity
  8
MITTA
100
AcDbPolyline
 90
        4
 70
     0
 43
0.0
 10
180.0
 20
76.0
 10
182.5
 20
77.5
 10
182.5
 20
74.5
 10
180.0
 20
76.0
  0
LINE
  5
878
330
1F
100
AcDbEntity
  8
MITTA
100
AcDbLine
 10
172.0
 20
83.49999999999999
 30
0.0
 11
157.5
 21
83.49999999999999
 31
0.0
  0
TEXT
  5
879
330
1F
100
AcDbEntity
  8
MITTA
100
AcDbText
 10
185.0601672156831
 20
74.82951319385063
 30
0.0
 40
2.5
  1
PS2_4_HSPO8
 41
0.9
  7
T25
100
AcDbText
  0
LINE
  5
87A
330
1F
100
AcDbEntity
  8
KATKO07
100
AcDbLine
 10
143.5
 20
72.0
 30
0.0
 11
103.4999999999999
 21
72.0
 31
0.0
  0
LINE
  5
87C
330
1F
100
AcDbEntity
  8
KATKO07
100
AcDbLine
 10
143.5
 20
80.0
 30
0.0
 11
103.4999999999999
 21
80.0
 31
0.0
  0
TEXT
  5
87F
330
1F
100
AcDbEntity
  8
MITTA
100
AcDbText
 10
144.1144589390451
 20
71.55901801058502
 30
0.0
 40
2.5
  1
18
 41
0.9
  7
T25
100
AcDbText
  0
TEXT
  5
880
330
1F
100
AcDbEntity
  8
MITTA
100
AcDbText
 10
144.1144589390451
 20
79.28482999754812
 30
0.0
 40
2.5
  1
17
 41
0.9
  7
T25
100
AcDbText
  0
LWPOLYLINE
  5
882
330
1F
100
AcDbEntity
  8
MITTA
100
AcDbPolyline
 90
        4
 70
     0
 43
0.0
 10
166.5
 20
85.0
 10
166.5
 20
87.0
 10
158.4999999999999
 20
87.0
 10
158.4999999999999
 20
85.0
  0
LINE
  5
897
330
1F
100
AcDbEntity
  8
TEXT25
100
AcDbLine
 10
293.5000002476419
 20
229.5000002615852
 30
0.0
 11
352.0000002476419
 21
229.5000002615852
 31
0.0
  0
LINE
  5
898
330
1F
100
AcDbEntity
  8
TEXT25
100
AcDbLine
 10
293.5000002476419
 20
234.5000002615852
 30
0.0
 11
352.0000002476419
 21
234.5000002615852
 31
0.0
  0
LINE
  5
899
330
1F
100
AcDbEntity
  8
TEXT25
100
AcDbLine
 10
293.5000002476419
 20
244.5000002615852
 30
0.0
 11
352.0000002476419
 21
244.5000002615852
 31
0.0
  0
LINE
  5
89A
330
1F
100
AcDbEntity
  8
TEXT25
100
AcDbLine
 10
309.500000247642
 20
239.5000002615852
 30
0.0
 11
352.0000002476419
 21
239.5000002615852
 31
0.0
  0
TEXT
  5
89B
330
1F
100
AcDbEntity
  8
TEXT25
100
AcDbText
 10
324.7621087934442
 20
240.4767320257161
 30
0.0
 40
2.5
  1
POSITION
 41
0.9
  7
T25
100
AcDbText
  0
TEXT
  5
89C
330
1F
100
AcDbEntity
  8
TEXT25
100
AcDbText
 10
325.7621087934442
 20
230.9767320257161
 30
0.0
 40
2.5
  1
X4.1 and X4.2
 41
0.9
  7
T25
100
AcDbText
  0
TEXT
  5
89D
330
1F
100
AcDbEntity
  8
TEXT25
100
AcDbText
 10
294.2621087934442
 20
235.4767320257161
 30
0.0
 40
2.5
  1
MODULE
 41
0.9
  7
T25
100
AcDbText
  0
LINE
  5
89E
330
1F
100
AcDbEntity
  8
TEXT25
100
AcDbLine
 10
293.5000002476419
 20
229.5000002615852
 30
0.0
 11
293.5000002476419
 21
244.5000002615852
 31
0.0
  0
TEXT
  5
89F
330
1F
100
AcDbEntity
  8
TEXT25
100
AcDbText
 10
310.7621087934442
 20
235.4767320257161
 30
0.0
 40
2.5
  1
FRONT
 41
0.9
  7
T25
100
AcDbText
  0
TEXT
  5
8A0
330
1F
100
AcDbEntity
  8
TEXT25
100
AcDbText
 10
314.2621087934442
 20
230.9767320257161
 30
0.0
 40
2.5
  1
S4
 41
0.9
  7
T25
100
AcDbText
  0
LINE
  5
8A1
330
1F
100
AcDbEntity
  8
TEXT25
100
AcDbLine
 10
309.500000247642
 20
229.5000002615852
 30
0.0
 11
309.500000247642
 21
244.5000002615852
 31
0.0
  0
TEXT
  5
8A2
330
1F
100
AcDbEntity
  8
TEXT25
100
AcDbText
 10
297.2621087934442
 20
230.9291129780971
 30
0.0
 40
2.5
  1
PS2
 41
0.9
  7
T25
100
AcDbText
  0
LINE
  5
8A3
330
1F
100
AcDbEntity
  8
TEXT25
100
AcDbLine
 10
324.000000247642
 20
229.5000002615852
 30
0.0
 11
324.000000247642
 21
239.5000002615852
 31
0.0
  0
TEXT
  5
8A4
330
1F
100
AcDbEntity
  8
TEXT25
100
AcDbText
 10
335.7621087934442
 20
235.4767320257161
 30
0.0
 40
2.5
  1
REAR
 41
0.9
  7
T25
100
AcDbText
  0
LINE
  5
8A5
330
1F
100
AcDbEntity
  8
TEXT25
100
AcDbLine
 10
352.0000002476419
 20
229.5000002615852
 30
0.0
 11
352.0000002476419
 21
244.5000002615852
 31
0.0
  0
TEXT
  5
8CD
330
1F
100
AcDbEntity
  8
TEXT25
100
AcDbText
 10
210.6624997588507
 20
27.74999972324758
 30
0.0
 40
2.5
  1
13-06-2000  S.Bjorklund
 41
0.9
  7
T25
100
AcDbText
  0
TEXT
  5
8CE
330
1F
100
AcDbEntity
  8
TEXT25
100
AcDbText
 10
286.1624997588508
 20
1.249999723247583
 30
0.0
 40
3.5
  1
RSG
 41
0.9
  7
T25
100
AcDbText
  0
TEXT
  5
8CF
330
1F
100
AcDbEntity
  8
TEXT25
100
AcDbText
 10
309.6624997588508
 20
1.249999723247583
 30
0.0
 40
4.0
  1
1MRS010244-AAA
  7
T25
100
AcDbText
  0
TEXT
  5
8D0
330
1F
100
AcDbEntity
  8
TEXT25
100
AcDbText
 10
377.6624997588508
 20
1.249999723247583
 30
0.0
 40
4.0
  1
B
  7
T25
100
AcDbText
  0
TEXT
  5
8D1
330
1F
100
AcDbEntity
  8
TEXT25
100
AcDbText
 10
373.6624997588508
 20
10.74999972324758
 30
0.0
 40
2.5
  1
9 / 13
 41
0.9
  7
T25
100
AcDbText
  0
TEXT
  5
8D2
330
1F
100
AcDbEntity
  8
TEXT25
100
AcDbText
 10
309.1624997588508
 20
28.24999972324758
 30
0.0
 40
3.0
  1
TERMINAL DIAGRAM
 41
0.8
  7
T25
100
AcDbText
  0
TEXT
  5
8D3
330
1F
100
AcDbEntity
  8
TEXT25
100
AcDbText
 10
309.1624997588508
 20
23.74999972324758
 30
0.0
 40
3.0
  1
FEEDER TERMINAL
 41
0.8
  7
T25
100
AcDbText
  0
TEXT
  5
8D4
330
1F
100
AcDbEntity
  8
TEXT25
100
AcDbText
 10
309.1624997588508
 20
19.24999972324758
 30
0.0
 40
3.0
  1
REF 545 , PS2-MODULE , BINARY  OUT
 41
0.8
  7
T25
100
AcDbText
  0
TEXT
  5
91C
330
1F
100
AcDbEntity
  8
TEXT25
100
AcDbText
 10
211.1624996838912
 20
18.12500013943133
 30
0.0
 40
2.5
  1
A Fagerroos
 41
0.9
  7
T25
100
AcDbText
  0
TEXT
  5
91D
330
1F
100
AcDbEntity
  8
TEXT25
100
AcDbText
 10
211.1624996838912
 20
9.625000139431335
 30
0.0
 40
2.5
  1
K.Latva-Rasku
 41
0.9
  7
T25
100
AcDbText
  0
LINE
  5
93B
330
1F
100
AcDbEntity
  8
PAKSU
100
AcDbLine
 10
0.0
 20
0.0
 30
0.0
 11
0.0
 21
262.5
 31
0.0
  0
LINE
  5
93C
330
1F
100
AcDbEntity
  8
PAKSU
100
AcDbLine
 10
392.0
 20
262.5
 30
0.0
 11
392.0
 21
0.0
 31
0.0
  0
LINE
  5
93D
330
1F
100
AcDbEntity
  8
PAKSU
100
AcDbLine
 10
0.0
 20
0.0
 30
0.0
 11
392.0
 21
0.0
 31
0.0
  0
TEXT
  5
93E
330
1F
100
AcDbEntity
  8
RAAMI
100
AcDbText
 10
42.0
 20
0.9523809523809525
 30
0.0
 40
2.5
  1
B
  7
ROMANS
100
AcDbText
  0
TEXT
  5
93F
330
1F
100
AcDbEntity
  8
RAAMI
100
AcDbText
 10
42.0
 20
5.354421058643247
 30
0.0
 40
2.5
  1
C
  7
ROMANS
100
AcDbText
  0
TEXT
  5
941
330
1F
100
AcDbEntity
  8
RAAMI
100
AcDbText
 10
283.9742533365683
 20
7.0
 30
0.0
 40
1.399999999999999
  1
OSASTO DEPT.
  7
ROMANS
100
AcDbText
  0
TEXT
  5
942
330
1F
100
AcDbEntity
  8
RAAMI
100
AcDbText
 10
210.0
 20
32.0
 30
0.0
 40
1.399999999999999
  1
TEKI  PREPARED
  7
ROMANS
100
AcDbText
  0
LINE
  5
943
330
1F
100
AcDbEntity
  8
OHUT
100
AcDbLine
 10
281.9742533365683
 20
9.5
 30
0.0
 11
281.9742533365683
 21
0.0
 31
0.0
  0
LINE
  5
944
330
1F
100
AcDbEntity
  8
OHUT
100
AcDbLine
 10
257.0
 20
9.5
 30
0.0
 11
257.0
 21
35.0
 31
0.0
  0
LINE
  5
945
330
1F
100
AcDbEntity
  8
OHUT
100
AcDbLine
 10
40.49999999999999
 20
4.5
 30
0.0
 11
209.0
 21
4.5
 31
0.0
  0
LINE
  5
946
330
1F
100
AcDbEntity
  8
OHUT
100
AcDbLine
 10
46.5
 20
0.0
 30
0.0
 11
46.5
 21
9.0
 31
0.0
  0
LINE
  5
947
330
1F
100
AcDbEntity
  8
OHUT
100
AcDbLine
 10
46.5
 20
9.0
 30
0.0
 11
209.0
 21
9.0
 31
0.0
  0
TEXT
  5
948
330
1F
100
AcDbEntity
  8
RAAMI
100
AcDbText
 10
27.5
 20
2.233333333333334
 30
0.0
 40
1.399999999999999
  1
REVISION
  7
ROMANS
100
AcDbText
  0
TEXT
  5
949
330
1F
100
AcDbEntity
  8
RAAMI
100
AcDbText
 10
27.5
 20
4.5
 30
0.0
 40
1.399999999999999
  1
MUUTOS
  7
ROMANS
100
AcDbText
  0
LINE
  5
94A
330
1F
100
AcDbEntity
  8
OHUT
100
AcDbLine
 10
282.0
 20
9.5
 30
0.0
 11
282.0
 21
18.0
 31
0.0
  0
LINE
  5
94B
330
1F
100
AcDbEntity
  8
RAAMI
100
AcDbLine
 10
209.9499999999999
 20
1.5
 30
0.0
 11
211.6999999999999
 21
1.5
 31
0.0
  0
LINE
  5
94C
330
1F
100
AcDbEntity
  8
OHUT
100
AcDbLine
 10
369.5
 20
18.0
 30
0.0
 11
369.5
 21
0.0
 31
0.0
  0
TEXT
  5
94D
330
1F
100
AcDbEntity
  8
RAAMI
100
AcDbText
 10
371.0
 20
7.0
 30
0.0
 40
1.399999999999999
  1
PAINOS  REVISION
  7
ROMANS
100
AcDbText
  0
TEXT
  5
94E
330
1F
100
AcDbEntity
  8
RAAMI
100
AcDbText
 10
309.0
 20
32.5
 30
0.0
 40
1.399999999999999
  1
NIMITYS  NAME
  7
ROMANS
100
AcDbText
  0
TEXT
  5
94F
330
1F
100
AcDbEntity
  8
RAAMI
100
AcDbText
 10
259.0
 20
15.5
 30
0.0
 40
1.399999999999999
  1
SUHDE  SCALE
  7
ROMANS
100
AcDbText
  0
TEXT
  5
950
330
1F
100
AcDbEntity
  8
RAAMI
100
AcDbText
 10
259.0
 20
23.5
 30
0.0
 40
1.399999999999999
  1
TOLERANSSIT  TOLERANCES
  7
ROMANS
100
AcDbText
  0
TEXT
  5
951
330
1F
100
AcDbEntity
  8
RAAMI
100
AcDbText
 10
259.0
 20
32.5
 30
0.0
 40
1.399999999999999
  1
LIITTYY  CONCERNING
  7
ROMANS
100
AcDbText
  0
LINE
  5
952
330
1F
100
AcDbEntity
  8
OHUT
100
AcDbLine
 10
307.0
 20
0.0
 30
0.0
 11
307.0
 21
35.0
 31
0.0
  0
TEXT
  5
953
330
1F
100
AcDbEntity
  8
RAAMI
100
AcDbText
 10
209.7428347258663
 20
15.46666666666666
 30
0.0
 40
1.399999999999999
  1
HYVÄKSYI  APPROVED
  7
ROMANS
100
AcDbText
  0
TEXT
  5
954
330
1F
100
AcDbEntity
  8
RAAMI
100
AcDbText
 10
210.0
 20
23.73333333333333
 30
0.0
 40
1.399999999999999
  1
TARKASTI  CHECKED
  7
ROMANS
100
AcDbText
  0
LINE
  5
955
330
1F
100
AcDbEntity
  8
PAKSU
100
AcDbLine
 10
209.0
 20
35.0
 30
0.0
 11
392.0
 21
35.0
 31
0.0
  0
LINE
  5
956
330
1F
100
AcDbEntity
  8
OHUT
100
AcDbLine
 10
209.0
 20
26.5
 30
0.0
 11
307.0
 21
26.5
 31
0.0
  0
LINE
  5
957
330
1F
100
AcDbEntity
  8
OHUT
100
AcDbLine
 10
209.0
 20
9.5
 30
0.0
 11
392.0
 21
9.5
 31
0.0
  0
LINE
  5
958
330
1F
100
AcDbEntity
  8
OHUT
100
AcDbLine
 10
209.0
 20
18.0
 30
0.0
 11
392.0
 21
18.0
 31
0.0
  0
LINE
  5
959
330
1F
100
AcDbEntity
  8
PAKSU
100
AcDbLine
 10
392.0
 20
0.0
 30
0.0
 11
392.0
 21
35.0
 31
0.0
  0
LINE
  5
95A
330
1F
100
AcDbEntity
  8
PAKSU
100
AcDbLine
 10
209.0
 20
0.0
 30
0.0
 11
209.0
 21
35.0
 31
0.0
  0
LINE
  5
95B
330
1F
100
AcDbEntity
  8
PAKSU
100
AcDbLine
 10
209.0
 20
0.0
 30
0.0
 11
392.0
 21
0.0
 31
0.0
  0
LINE
  5
95C
330
1F
100
AcDbEntity
  8
PAKSU
100
AcDbLine
 10
0.0
 20
262.5
 30
0.0
 11
392.0
 21
262.5
 31
0.0
  0
TEXT
  5
95D
330
1F
100
AcDbEntity
  8
RAAMI
100
AcDbText
 10
309.0
 20
7.0
 30
0.0
 40
1.399999999999999
  1
PIIRUSTUS NO  DRAWING NO
  7
ROMANS
100
AcDbText
  0
INSERT
  5
95E
330
1F
100
AcDbEntity
  8
RAAMI
100
AcDbBlockReference
  2
LOGO
 10
209.0
 20
-9.0
 30
0.0
  0
TEXT
  5
95F
330
1F
100
AcDbEntity
  8
RAAMI
100
AcDbText
 10
283.5548252099439
 20
15.50096600065329
 30
0.0
 40
1.399999999999999
  1
PROJ
  7
ROMANS
100
AcDbText
  0
LINE
  5
960
330
1F
100
AcDbEntity
  8
RAAMI
  6
DASHDOT
100
AcDbLine
 10
301.5170187530453
 20
13.41212209817375
 30
0.0
 11
298.1744426752647
 21
13.41212209817375
 31
0.0
  0
CIRCLE
  5
961
330
1F
100
AcDbEntity
  8
RAAMI
100
AcDbCircle
 10
301.5170187530453
 20
13.41212209817375
 30
0.0
 40
2.343653787115606
  0
LINE
  5
962
330
1F
100
AcDbEntity
  8
RAAMI
  6
DASHDOT
100
AcDbLine
 10
297.2518098577122
 20
13.41684360465966
 30
0.0
 11
290.0151352470688
 21
13.41684360465966
 31
0.0
  0
LINE
  5
963
330
1F
100
AcDbEntity
  8
RAAMI
100
AcDbLine
 10
291.0980918801336
 20
12.26250875761435
 30
0.0
 11
296.1085865096258
 21
11.10817391056903
 31
0.0
  0
LINE
  5
964
330
1F
100
AcDbEntity
  8
RAAMI
100
AcDbLine
 10
296.1085865096258
 20
15.7255132987503
 30
0.0
 11
291.0980918801336
 21
14.45574496700046
 31
0.0
  0
LINE
  5
965
330
1F
100
AcDbEntity
  8
RAAMI
100
AcDbLine
 10
291.0980918801336
 20
14.45574496700046
 30
0.0
 11
291.0980918801336
 21
12.26250875761435
 31
0.0
  0
LINE
  5
966
330
1F
100
AcDbEntity
  8
RAAMI
100
AcDbLine
 10
296.1085865096258
 20
11.10817391056903
 30
0.0
 11
296.1085865096258
 21
15.7255132987503
 31
0.0
  0
LINE
  5
967
330
1F
100
AcDbEntity
  8
RAAMI
  6
DASHDOT
100
AcDbLine
 10
301.5170187530453
 20
13.41212209817375
 30
0.0
 11
301.5170187530453
 21
10.25506928999831
 31
0.0
  0
LINE
  5
968
330
1F
100
AcDbEntity
  8
RAAMI
  6
DASHDOT
100
AcDbLine
 10
301.5170187530453
 20
13.41212209817375
 30
0.0
 11
301.5170187530453
 21
16.56917490634918
 31
0.0
  0
LINE
  5
969
330
1F
100
AcDbEntity
  8
RAAMI
  6
DASHDOT
100
AcDbLine
 10
301.5170187530453
 20
13.41212209817375
 30
0.0
 11
304.8595948308259
 21
13.41212209817375
 31
0.0
  0
CIRCLE
  5
96A
330
1F
100
AcDbEntity
  8
RAAMI
100
AcDbCircle
 10
301.5170187530453
 20
13.41212209817375
 30
0.0
 40
1.114664538372245
  0
TEXT
  5
96B
330
1F
100
AcDbEntity
  8
RAAMI
100
AcDbText
 10
371.0
 20
15.05846792701606
 30
0.0
 40
1.399999999999999
  1
LEHTI   SHEET
  7
ROMANS
100
AcDbText
  0
TEXT
  5
972
330
1F
100
AcDbEntity
  8
RAAMI
100
AcDbText
 10
230.8662550415859
 20
5.345923254020476
 30
0.0
 40
2.43
  1
ABB Oy
 41
0.8
  7
ROMANS
100
AcDbText
  0
MTEXT
  5
973
330
1F
100
AcDbEntity
  8
RAAMI
100
AcDbMText
 10
230.912662535329
 20
3.823131127911096
 30
0.0
 40
2.5
 41
0.0
 71
     1
 72
     1
  1
Substation Automation 
  7
T25
 73
     1
 44
1.0
  0
INSERT
  5
982
330
1F
100
AcDbEntity
  8
MUOTOVIIVA
100
AcDbBlockReference
  2
COPYRIGHT
 10
3.044195056810679
 20
0.0661443428397206
 30
0.0
  0
TEXT
  5
98F
330
1F
100
AcDbEntity
  8
TEXT25
100
AcDbText
 10
48.81718835862057
 20
1.328798250009185
 30
0.0
 40
2.0
  1
Added binary treshold voltage 155-265 VDC (sheet 1) and IEC communication ( sheet 3)  21.11.03 *SV
 41
0.9
  7
T25
100
AcDbText
  0
ENDSEC
  0
SECTION
  2
OBJECTS
  0
DICTIONARY
  5
C
330
0
100
AcDbDictionary
281
     1
  3
ACAD_GROUP
350
D
  3
ACAD_LAYOUT
350
1A
  3
ACAD_MLINESTYLE
350
17
  3
ACAD_PLOTSETTINGS
350
19
  3
ACAD_PLOTSTYLENAME
350
E
  3
ACDBHEADERROUNDTRIPXREC
350
A77
  3
AcDbVariableDictionary
350
926
  3
AcmDictionary
350
A3C
  3
AMG
350
998
  3
DWGPROPS
350
A3F
  0
DICTIONARY
  5
A59
330
1F
100
AcDbDictionary
280
     1
281
     1
  3
ACAD_INDEX
360
A5A
  0
DICTIONARY
  5
D
102
{ACAD_REACTORS
330
C
102
}
330
C
100
AcDbDictionary
281
     1
  0
DICTIONARY
  5
1A
102
{ACAD_REACTORS
330
C
102
}
330
C
100
AcDbDictionary
281
     1
  3
Layout1
350
1E
  3
Layout2
350
26
  3
Model
350
22
  0
DICTIONARY
  5
17
102
{ACAD_REACTORS
330
C
102
}
330
C
100
AcDbDictionary
281
     1
  3
Standard
350
18
  0
DICTIONARY
  5
19
102
{ACAD_REACTORS
330
C
102
}
330
C
100
AcDbDictionary
281
     1
  0
ACDBDICTIONARYWDFLT
  5
E
102
{ACAD_REACTORS
330
C
102
}
330
C
100
AcDbDictionary
281
     1
  3
Normal
350
F
100
AcDbDictionaryWithDefault
340
F
  0
DICTIONARY
  5
A77
102
{ACAD_REACTORS
330
C
102
}
330
C
100
AcDbDictionary
281
     1
  3
CEPSNTYPE
350
A81
  3
DIMSTYLEDATA
350
A85
  3
FINGERPRINTGUID
350
A82
  3
HYPERLINKBASE
350
A7A
  3
INSUNITS
350
A80
  3
LAYOUTDICT
350
A7C
  3
LWETCUNION
350
A7F
  3
PLOTSETDICT
350
A7D
  3
PLOTSTYLNAMDICT
350
A7E
  3
PSVPSCALE
350
A84
  3
PUCSBASE
350
A88
  3
PUCSORGBACK
350
A8E
  3
PUCSORGBOTTOM
350
A8A
  3
PUCSORGFRONT
350
A8D
  3
PUCSORGLEFT
350
A8B
  3
PUCSORGRIGHT
350
A8C
  3
PUCSORGTOP
350
A89
  3
PUCSORTHOREF
350
A86
  3
PUCSORTHOVIEW
350
A87
  3
STYLESHEET
350
A7B
  3
TSTACKALIGN
350
A78
  3
TSTACKSIZE
350
A79
  3
UCSBASE
350
A91
  3
UCSORGBACK
350
A97
  3
UCSORGBOTTOM
350
A93
  3
UCSORGFRONT
350
A96
  3
UCSORGLEFT
350
A94
  3
UCSORGRIGHT
350
A95
  3
UCSORGTOP
350
A92
  3
UCSORTHOREF
350
A8F
  3
UCSORTHOVIEW
350
A90
  3
VERSIONGUID
350
A83
  0
DICTIONARY
  5
926
102
{ACAD_REACTORS
330
C
102
}
330
C
100
AcDbDictionary
281
     1
  3
DIMASSOC
350
927
  3
INDEXCTL
350
A75
  0
DICTIONARY
  5
A3C
102
{ACAD_REACTORS
330
C
102
}
330
C
100
AcDbDictionary
281
     1
  0
DICTIONARY
  5
998
102
{ACAD_REACTORS
330
C
102
}
330
C
100
AcDbDictionary
281
     1
  3
AcMgSettings
350
999
  0
XRECORD
  5
A3F
102
{ACAD_REACTORS
330
C
102
}
330
C
100
AcDbXrecord
280
     1
  1
DWGPROPS COOKIE
  2

  3

  4

  6

  7

  8

  9

300
AmdtFileType=84
301
=
302
=
303
=
304
=
305
=
306
=
307
=
308
=
309
=
 40
1.296943854166666
 41
2451507.447628368
 42
2452983.614809143
  1

 90
        1
  0
DICTIONARY
  5
A5A
102
{ACAD_REACTORS
330
A59
102
}
330
A59
100
AcDbDictionary
281
     1
  3
*A1
350
A5B
  0
LAYOUT
  5
1E
102
{ACAD_REACTORS
330
1A
102
}
330
1A
100
AcDbPlotSettings
  1

  2
\\FISUB-VA-S003\FISUB-VA-P0028
  4

  6

 40
0.0
 41
0.0
 42
0.0
 43
0.0
 44
0.0
 45
0.0
 46
0.0
 47
0.0
 48
0.0
 49
0.0
140
0.0
141
0.0
142
1.0
143
1.0
 70
   688
 72
     0
 73
     0
 74
     5
  7
HP5Si.ctb
 75
    16
147
1.0
148
0.0
149
0.0
100
AcDbLayout
  1
Layout1
 70
     1
 71
     1
 10
0.0
 20
0.0
 11
420.0
 21
297.0
 12
0.0
 22
0.0
 32
0.0
 14
1.000000000000000E+20
 24
1.000000000000000E+20
 34
1.000000000000000E+20
 15
-1.000000000000000E+20
 25
-1.000000000000000E+20
 35
-1.000000000000000E+20
146
0.0
 13
0.0
 23
0.0
 33
0.0
 16
1.0
 26
0.0
 36
0.0
 17
0.0
 27
1.0
 37
0.0
 76
     0
330
1B
  0
LAYOUT
  5
26
102
{ACAD_REACTORS
330
1A
102
}
330
1A
100
AcDbPlotSettings
  1

  2
\\FISUB-VA-S003\FISUB-VA-P0028
  4

  6

 40
0.0
 41
0.0
 42
0.0
 43
0.0
 44
0.0
 45
0.0
 46
0.0
 47
0.0
 48
0.0
 49
0.0
140
0.0
141
0.0
142
1.0
143
1.0
 70
   688
 72
     0
 73
     0
 74
     5
  7
HP5Si.ctb
 75
    16
147
1.0
148
0.0
149
0.0
100
AcDbLayout
  1
Layout2
 70
     1
 71
     2
 10
0.0
 20
0.0
 11
12.0
 21
9.0
 12
0.0
 22
0.0
 32
0.0
 14
0.0
 24
0.0
 34
0.0
 15
0.0
 25
0.0
 35
0.0
146
0.0
 13
0.0
 23
0.0
 33
0.0
 16
1.0
 26
0.0
 36
0.0
 17
0.0
 27
1.0
 37
0.0
 76
     0
330
23
  0
LAYOUT
  5
22
102
{ACAD_REACTORS
330
1A
102
}
330
1A
100
AcDbPlotSettings
  1

  2
\\FIVAA-S-IGS2002\FIVAA-P-250
  4
A4
  6

 40
5.873749732971191
 41
5.408092021942138
 42
5.577407836914062
 43
5.069427490234375
 44
209.9733276367187
 45
296.9683227539062
 46
4.25
 47
0.0
 48
-5.952532841710308
 49
-2.088128955501701
140
394.0277296463771
141
263.2211325477673
142
1.0
143
1.396136483133804
 70
 11956
 72
     1
 73
     1
 74
     4
  7
HP5Si.ctb
 75
     0
147
0.7162623511960476
148
5.952532841710308
149
2.088128955501701
100
AcDbLayout
  1
Model
 70
     1
 71
     0
 10
0.0
 20
0.0
 11
12.0
 21
9.0
 12
0.0
 22
0.0
 32
0.0
 14
0.0
 24
0.0
 34
0.0
 15
0.0
 25
0.0
 35
0.0
146
0.0
 13
0.0
 23
0.0
 33
0.0
 16
1.0
 26
0.0
 36
0.0
 17
0.0
 27
1.0
 37
0.0
 76
     0
330
1F
  0
MLINESTYLE
  5
18
102
{ACAD_REACTORS
330
17
102
}
330
17
100
AcDbMlineStyle
  2
STANDARD
 70
     0
  3

 62
   256
 51
90.0
 52
90.0
 71
     2
 49
0.5
 62
   256
  6
BYLAYER
 49
-0.5
 62
   256
  6
BYLAYER
  0
ACDBPLACEHOLDER
  5
F
102
{ACAD_REACTORS
330
E
102
}
330
E
  0
XRECORD
  5
A81
102
{ACAD_REACTORS
330
A77
102
}
330
A77
100
AcDbXrecord
280
     1
 90
        0
  0
XRECORD
  5
A85
102
{ACAD_REACTORS
330
A77
102
}
330
A77
100
AcDbXrecord
280
     1
1000
DSTYLE
1002
{
1070
   278
 70
    44
1002
}
  0
XRECORD
  5
A82
102
{ACAD_REACTORS
330
A77
102
}
330
A77
100
AcDbXrecord
280
     1
  1
{16D15905-A24A-11D3-B118-0008C7CA2EDA}
  0
XRECORD
  5
A7A
102
{ACAD_REACTORS
330
A77
102
}
330
A77
100
AcDbXrecord
280
     1
  1

  0
XRECORD
  5
A80
102
{ACAD_REACTORS
330
A77
102
}
330
A77
100
AcDbXrecord
280
     1
 90
        4
  0
XRECORD
  5
A7C
102
{ACAD_REACTORS
330
A77
102
}
330
A77
100
AcDbXrecord
280
     1
340
1A
  0
XRECORD
  5
A7F
102
{ACAD_REACTORS
330
A77
102
}
330
A77
100
AcDbXrecord
280
     1
 90
    10781
  0
XRECORD
  5
A7D
102
{ACAD_REACTORS
330
A77
102
}
330
A77
100
AcDbXrecord
280
     1
340
19
  0
XRECORD
  5
A7E
102
{ACAD_REACTORS
330
A77
102
}
330
A77
100
AcDbXrecord
280
     1
340
E
  0
XRECORD
  5
A84
102
{ACAD_REACTORS
330
A77
102
}
330
A77
100
AcDbXrecord
280
     1
 40
0.0
  0
XRECORD
  5
A88
102
{ACAD_REACTORS
330
A77
102
}
330
A77
100
AcDbXrecord
280
     1
340
0
  0
XRECORD
  5
A8E
102
{ACAD_REACTORS
330
A77
102
}
330
A77
100
AcDbXrecord
280
     1
 10
0.0
 20
0.0
 30
0.0
  0
XRECORD
  5
A8A
102
{ACAD_REACTORS
330
A77
102
}
330
A77
100
AcDbXrecord
280
     1
 10
0.0
 20
0.0
 30
0.0
  0
XRECORD
  5
A8D
102
{ACAD_REACTORS
330
A77
102
}
330
A77
100
AcDbXrecord
280
     1
 10
0.0
 20
0.0
 30
0.0
  0
XRECORD
  5
A8B
102
{ACAD_REACTORS
330
A77
102
}
330
A77
100
AcDbXrecord
280
     1
 10
0.0
 20
0.0
 30
0.0
  0
XRECORD
  5
A8C
102
{ACAD_REACTORS
330
A77
102
}
330
A77
100
AcDbXrecord
280
     1
 10
0.0
 20
0.0
 30
0.0
  0
XRECORD
  5
A89
102
{ACAD_REACTORS
330
A77
102
}
330
A77
100
AcDbXrecord
280
     1
 10
0.0
 20
0.0
 30
0.0
  0
XRECORD
  5
A86
102
{ACAD_REACTORS
330
A77
102
}
330
A77
100
AcDbXrecord
280
     1
340
0
  0
XRECORD
  5
A87
102
{ACAD_REACTORS
330
A77
102
}
330
A77
100
AcDbXrecord
280
     1
 70
     0
  0
XRECORD
  5
A7B
102
{ACAD_REACTORS
330
A77
102
}
330
A77
100
AcDbXrecord
280
     1
  1
HP5Si.ctb
  0
XRECORD
  5
A78
102
{ACAD_REACTORS
330
A77
102
}
330
A77
100
AcDbXrecord
280
     1
 90
        1
  0
XRECORD
  5
A79
102
{ACAD_REACTORS
330
A77
102
}
330
A77
100
AcDbXrecord
280
     1
 90
       70
  0
XRECORD
  5
A91
102
{ACAD_REACTORS
330
A77
102
}
330
A77
100
AcDbXrecord
280
     1
340
0
  0
XRECORD
  5
A97
102
{ACAD_REACTORS
330
A77
102
}
330
A77
100
AcDbXrecord
280
     1
 10
0.0
 20
0.0
 30
0.0
  0
XRECORD
  5
A93
102
{ACAD_REACTORS
330
A77
102
}
330
A77
100
AcDbXrecord
280
     1
 10
0.0
 20
0.0
 30
0.0
  0
XRECORD
  5
A96
102
{ACAD_REACTORS
330
A77
102
}
330
A77
100
AcDbXrecord
280
     1
 10
0.0
 20
0.0
 30
0.0
  0
XRECORD
  5
A94
102
{ACAD_REACTORS
330
A77
102
}
330
A77
100
AcDbXrecord
280
     1
 10
0.0
 20
0.0
 30
0.0
  0
XRECORD
  5
A95
102
{ACAD_REACTORS
330
A77
102
}
330
A77
100
AcDbXrecord
280
     1
 10
0.0
 20
0.0
 30
0.0
  0
XRECORD
  5
A92
102
{ACAD_REACTORS
330
A77
102
}
330
A77
100
AcDbXrecord
280
     1
 10
0.0
 20
0.0
 30
0.0
  0
XRECORD
  5
A8F
102
{ACAD_REACTORS
330
A77
102
}
330
A77
100
AcDbXrecord
280
     1
340
0
  0
XRECORD
  5
A90
102
{ACAD_REACTORS
330
A77
102
}
330
A77
100
AcDbXrecord
280
     1
 70
     0
  0
XRECORD
  5
A83
102
{ACAD_REACTORS
330
A77
102
}
330
A77
100
AcDbXrecord
280
     1
  1
{AA124709-77D2-44C0-9B8A-90A99C8DBCFD}
  0
DICTIONARYVAR
  5
927
102
{ACAD_REACTORS
330
926
102
}
330
926
100
DictionaryVariables
280
     0
  1
1
  0
DICTIONARYVAR
  5
A75
102
{ACAD_REACTORS
330
926
102
}
330
926
100
DictionaryVariables
280
     0
  1
1
  0
DICTIONARY
  5
999
102
{ACAD_REACTORS
330
998
102
}
330
998
100
AcDbDictionary
281
     1
  3
Dimension
350
A48
  3
DWGSETTINGS
350
99A
  3
TRANSSETTINGS
350
99E
  0
LAYER_INDEX
  5
A5B
102
{ACAD_REACTORS
330
A5A
102
}
330
A5A
100
AcDbIndex
 40
2452985.627312777
100
AcDbLayerIndex
  8
0
360
A5C
 90
        0
  8
PAKSU
360
A5D
 90
        8
  8
RAAMI
360
A5E
 90
       31
  8
OHUT
360
A5F
 90
       11
  8
KESKI
360
A60
 90
        0
  8
KATKO
360
A61
 90
        0
  8
KATKO07
360
A62
 90
       30
  8
PISTKATK
360
A63
 90
        4
  8
MITTA
360
A64
 90
      149
  8
APU
360
A65
 90
        0
  8
TEXT25
360
A66
 90
       27
  8
TEXT35
360
A67
 90
        0
  8
TEXT5
360
A68
 90
        0
  8
TEXT7
360
A69
 90
        0
  8
TEXT
360
A6A
 90
        0
  8
AM_TR
360
A6B
 90
        0
  8
AM_BM
360
A6C
 90
        0
  8
AM_BL
360
A6D
 90
        0
  8
AM_VIEWS
360
A6E
 90
        0
  8
AM_PARDIM
360
A6F
 90
        0
  8
AM_REFDIM
360
A70
 90
        0
  8
AM_VIS
360
A71
 90
        0
  8
AM_HID
360
A72
 90
        0
  8
MUOTOVIIVA
360
A73
 90
        1
  8
OHUTVIIVA
360
A74
 90
        0
  0
IDBUFFER
  5
A5C
330
0
100
AcDbIdBuffer
  0
IDBUFFER
  5
A5D
330
0
100
AcDbIdBuffer
330
93B
330
93C
330
93D
330
955
330
959
330
95A
330
95B
330
95C
  0
IDBUFFER
  5
A5E
330
0
100
AcDbIdBuffer
330
95F
330
960
330
961
330
962
330
963
330
964
330
965
330
966
330
967
330
968
330
969
330
96A
330
96B
330
972
330
973
330
93E
330
93F
330
941
330
942
330
948
330
949
330
94B
330
94D
330
94E
330
94F
330
950
330
951
330
953
330
954
330
95D
330
95E
  0
IDBUFFER
  5
A5F
330
0
100
AcDbIdBuffer
330
943
330
944
330
945
330
946
330
947
330
94A
330
94C
330
952
330
956
330
957
330
958
  0
IDBUFFER
  5
A60
330
0
100
AcDbIdBuffer
  0
IDBUFFER
  5
A61
330
0
100
AcDbIdBuffer
  0
IDBUFFER
  5
A62
330
0
100
AcDbIdBuffer
330
83D
330
83E
330
83F
330
840
330
858
330
859
330
85A
330
85B
330
86B
330
86C
330
86D
330
86E
330
87A
330
87C
330
82D
330
82E
330
82F
330
830
330
831
330
832
330
833
330
834
330
835
330
836
330
837
330
838
330
839
330
83A
330
83B
330
83C
  0
IDBUFFER
  5
A63
330
0
100
AcDbIdBuffer
330
6FC
330
6FD
330
823
330
824
  0
IDBUFFER
  5
A64
330
0
100
AcDbIdBuffer
330
84E
330
84F
330
850
330
851
330
852
330
853
330
854
330
855
330
856
330
857
330
85C
330
85D
330
85E
330
85F
330
860
330
861
330
862
330
863
330
864
330
865
330
866
330
867
330
868
330
869
330
86A
330
870
330
871
330
873
330
874
330
875
330
876
330
877
330
878
330
879
330
87F
330
880
330
882
330
730
330
731
330
732
330
733
330
734
330
735
330
736
330
738
330
739
330
73A
330
73B
330
73C
330
73D
330
73E
330
73F
330
743
330
745
330
746
330
747
330
748
330
749
330
74A
330
74B
330
74D
330
752
330
753
330
754
330
755
330
756
330
757
330
758
330
759
330
75A
330
75B
330
75C
330
75D
330
773
330
774
330
775
330
776
330
777
330
778
330
779
330
77A
330
77B
330
77C
330
78F
330
792
330
793
330
795
330
796
330
797
330
798
330
799
330
79C
330
79D
330
79E
330
79F
330
7A0
330
7A1
330
7A2
330
7A3
330
7A4
330
7A5
330
7A6
330
7A7
330
7A8
330
7A9
330
7AA
330
7AB
330
7AC
330
7AD
330
7AE
330
7AF
330
7B0
330
7B1
330
7B2
330
7B3
330
7B4
330
7B5
330
7B6
330
7B7
330
7B8
330
7B9
330
7BA
330
7BB
330
7BC
330
7BD
330
7BE
330
7BF
330
7C0
330
7C1
330
7C4
330
7C5
330
7C6
330
7C7
330
7C8
330
7C9
330
7CA
330
7CB
330
7CD
330
7CE
330
7CF
330
7D0
330
7D4
330
7E2
330
7E5
330
849
330
84A
330
84B
330
84C
330
84D
  0
IDBUFFER
  5
A65
330
0
100
AcDbIdBuffer
  0
IDBUFFER
  5
A66
330
0
100
AcDbIdBuffer
330
8CD
330
8CE
330
8CF
330
8D0
330
8D1
330
8D2
330
8D3
330
8D4
330
91C
330
91D
330
98F
330
846
330
897
330
898
330
899
330
89A
330
89B
330
89C
330
89D
330
89E
330
89F
330
8A0
330
8A1
330
8A2
330
8A3
330
8A4
330
8A5
  0
IDBUFFER
  5
A67
330
0
100
AcDbIdBuffer
  0
IDBUFFER
  5
A68
330
0
100
AcDbIdBuffer
  0
IDBUFFER
  5
A69
330
0
100
AcDbIdBuffer
  0
IDBUFFER
  5
A6A
330
0
100
AcDbIdBuffer
  0
IDBUFFER
  5
A6B
330
0
100
AcDbIdBuffer
  0
IDBUFFER
  5
A6C
330
0
100
AcDbIdBuffer
  0
IDBUFFER
  5
A6D
330
0
100
AcDbIdBuffer
  0
IDBUFFER
  5
A6E
330
0
100
AcDbIdBuffer
  0
IDBUFFER
  5
A6F
330
0
100
AcDbIdBuffer
  0
IDBUFFER
  5
A70
330
0
100
AcDbIdBuffer
  0
IDBUFFER
  5
A71
330
0
100
AcDbIdBuffer
  0
IDBUFFER
  5
A72
330
0
100
AcDbIdBuffer
  0
IDBUFFER
  5
A73
330
0
100
AcDbIdBuffer
330
982
  0
IDBUFFER
  5
A74
330
0
100
AcDbIdBuffer
  0
ENDSEC
  0
EOF
