  0
SECTION
  2
HEADER
  9
$ACADVER
  1
AC1009
  9
$INSBASE
 10
0.0
 20
0.0
 30
0.0
  9
$EXTMIN
 10
0.237099
 20
0.237999
 30
0.0
  9
$EXTMAX
 10
392.237099
 20
262.737999
 30
0.0
  9
$LIMMIN
 10
0.0
 20
0.0
  9
$LIMMAX
 10
12.0
 20
9.0
  9
$ORTHOMODE
 70
     1
  9
$REGENMODE
 70
     1
  9
$FILLMODE
 70
     1
  9
$QTEXTMODE
 70
     0
  9
$MIRRTEXT
 70
     1
  9
$DRAGMODE
 70
     2
  9
$LTSCALE
 40
5.0
  9
$OSMODE
 70
     0
  9
$ATTMODE
 70
     1
  9
$TEXTSIZE
 40
2.0
  9
$TRACEWID
 40
0.05
  9
$TEXTSTYLE
  7
ROMANS
  9
$CLAYER
  8
0
  9
$CELTYPE
  6
HIDDEN
  9
$CECOLOR
 62
   256
  9
$DIMSCALE
 40
1.0
  9
$DIMASZ
 40
0.18
  9
$DIMEXO
 40
0.0625
  9
$DIMDLI
 40
0.38
  9
$DIMRND
 40
0.0
  9
$DIMDLE
 40
0.0
  9
$DIMEXE
 40
0.18
  9
$DIMTP
 40
0.0
  9
$DIMTM
 40
0.0
  9
$DIMTXT
 40
0.18
  9
$DIMCEN
 40
0.09
  9
$DIMTSZ
 40
0.0
  9
$DIMTOL
 70
     0
  9
$DIMLIM
 70
     0
  9
$DIMTIH
 70
     1
  9
$DIMTOH
 70
     1
  9
$DIMSE1
 70
     0
  9
$DIMSE2
 70
     0
  9
$DIMTAD
 70
     0
  9
$DIMZIN
 70
     0
  9
$DIMBLK
  1

  9
$DIMASO
 70
     1
  9
$DIMSHO
 70
     1
  9
$DIMPOST
  1

  9
$DIMAPOST
  1

  9
$DIMALT
 70
     0
  9
$DIMALTD
 70
     2
  9
$DIMALTF
 40
25.4
  9
$DIMLFAC
 40
1.0
  9
$DIMTOFL
 70
     0
  9
$DIMTVP
 40
0.0
  9
$DIMTIX
 70
     0
  9
$DIMSOXD
 70
     0
  9
$DIMSAH
 70
     0
  9
$DIMBLK1
  1

  9
$DIMBLK2
  1

  9
$DIMSTYLE
  2
*UNNAMED
  9
$DIMCLRD
 70
     0
  9
$DIMCLRE
 70
     0
  9
$DIMCLRT
 70
     0
  9
$DIMTFAC
 40
1.0
  9
$DIMGAP
 40
0.09
  9
$LUNITS
 70
     2
  9
$LUPREC
 70
     4
  9
$SKETCHINC
 40
0.1
  9
$FILLETRAD
 40
2.0
  9
$AUNITS
 70
     0
  9
$AUPREC
 70
     0
  9
$MENU
  1
acad
  9
$ELEVATION
 40
0.0
  9
$PELEVATION
 40
0.0
  9
$THICKNESS
 40
0.0
  9
$LIMCHECK
 70
     0
  9
$BLIPMODE
 70
     1
  9
$CHAMFERA
 40
0.0
  9
$CHAMFERB
 40
0.0
  9
$SKPOLY
 70
     0
  9
$TDCREATE
 40
2449525.431615162
  9
$TDUPDATE
 40
2449660.405319560
  9
$TDINDWG
 40
0.0273655093
  9
$TDUSRTIMER
 40
0.0273655093
  9
$USRTIMER
 70
     1
  9
$ANGBASE
 50
0.0
  9
$ANGDIR
 70
     0
  9
$PDMODE
 70
     0
  9
$PDSIZE
 40
0.0
  9
$PLINEWID
 40
0.0
  9
$COORDS
 70
     2
  9
$SPLFRAME
 70
     0
  9
$SPLINETYPE
 70
     6
  9
$SPLINESEGS
 70
     8
  9
$ATTDIA
 70
     0
  9
$ATTREQ
 70
     1
  9
$HANDLING
 70
     0
  9
$HANDSEED
  5
0
  9
$SURFTAB1
 70
   250
  9
$SURFTAB2
 70
   250
  9
$SURFTYPE
 70
     6
  9
$SURFU
 70
     6
  9
$SURFV
 70
     6
  9
$UCSNAME
  2

  9
$UCSORG
 10
0.0
 20
0.0
 30
0.0
  9
$UCSXDIR
 10
1.0
 20
0.0
 30
0.0
  9
$UCSYDIR
 10
0.0
 20
1.0
 30
0.0
  9
$PUCSNAME
  2

  9
$PUCSORG
 10
0.0
 20
0.0
 30
0.0
  9
$PUCSXDIR
 10
1.0
 20
0.0
 30
0.0
  9
$PUCSYDIR
 10
0.0
 20
1.0
 30
0.0
  9
$USERI1
 70
     0
  9
$USERI2
 70
     0
  9
$USERI3
 70
     0
  9
$USERI4
 70
     0
  9
$USERI5
 70
     0
  9
$USERR1
 40
0.0
  9
$USERR2
 40
0.0
  9
$USERR3
 40
0.0
  9
$USERR4
 40
0.0
  9
$USERR5
 40
0.0
  9
$WORLDVIEW
 70
     1
  9
$SHADEDGE
 70
     3
  9
$SHADEDIF
 70
    70
  9
$TILEMODE
 70
     1
  9
$MAXACTVP
 70
    16
  9
$PINSBASE
 10
0.0
 20
0.0
 30
0.0
  9
$PLIMCHECK
 70
     0
  9
$PEXTMIN
 10
1.000000E+20
 20
1.000000E+20
 30
1.000000E+20
  9
$PEXTMAX
 10
-1.000000E+20
 20
-1.000000E+20
 30
-1.000000E+20
  9
$PLIMMIN
 10
0.0
 20
0.0
  9
$PLIMMAX
 10
12.0
 20
9.0
  9
$UNITMODE
 70
     0
  9
$VISRETAIN
 70
     0
  9
$PLINEGEN
 70
     0
  9
$PSLTSCALE
 70
     0
  9
$TREEDEPTH
 70
  3020
  9
$DWGCODEPAGE
  3
undefined
  0
ENDSEC
  0
SECTION
  2
TABLES
  0
TABLE
  2
VPORT
 70
     2
  0
VPORT
  2
*ACTIVE
 70
     0
 10
0.0
 20
0.0
 11
1.0
 21
1.0
 12
222.522843
 22
142.040485
 13
0.0
 23
0.0
 14
2.5
 24
2.5
 15
0.0
 25
0.0
 16
0.0
 26
0.0
 36
1.0
 17
0.0
 27
0.0
 37
0.0
 40
284.080971
 41
1.566616
 42
50.0
 43
0.0
 44
0.0
 50
0.0
 51
0.0
 71
     0
 72
   100
 73
     1
 74
     1
 75
     1
 76
     0
 77
     0
 78
     0
  0
ENDTAB
  0
TABLE
  2
LTYPE
 70
     7
  0
LTYPE
  2
CONTINUOUS
 70
    64
  3
Solid line
 72
    65
 73
     0
 40
0.0
  0
LTYPE
  2
DASHED
 70
    64
  3
__ __ __ __ __ __ __ __ __ __ __ __ __ __ __ __
 72
    65
 73
     2
 40
0.75
 49
0.5
 49
-0.25
  0
LTYPE
  2
CENTER
 70
    64
  3
____ _ ____ _ ____ _ ____ _ ____ _ ____ _ ____ 
 72
    65
 73
     4
 40
2.0
 49
1.25
 49
-0.25
 49
0.25
 49
-0.25
  0
LTYPE
  2
HIDDEN
 70
    64
  3
__ __ __ __ __ __ __ __ __ __ __ __ __ __ __ __
 72
    65
 73
     2
 40
0.375
 49
0.25
 49
-0.125
  0
LTYPE
  2
DOT
 70
     0
  3
. . . . . . . . . . . . . . . . . . . . . . . .
 72
    65
 73
     2
 40
0.25
 49
0.0
 49
-0.25
  0
LTYPE
  2
DASHDOT
 70
     0
  3
__ . __ . __ . __ . __ . __ . __ . __ . __ . __
 72
    65
 73
     4
 40
1.0
 49
0.5
 49
-0.25
 49
0.0
 49
-0.25
  0
LTYPE
  2
PHANTOM
 70
     0
  3
______  __  __  ______  __  __  ______  __  __ 
 72
    65
 73
     6
 40
2.5
 49
1.25
 49
-0.25
 49
0.25
 49
-0.25
 49
0.25
 49
-0.25
  0
ENDTAB
  0
TABLE
  2
LAYER
 70
    13
  0
LAYER
  2
0
 70
    64
 62
     7
  6
CONTINUOUS
  0
LAYER
  2
RAAMI
 70
    64
 62
    -4
  6
CONTINUOUS
  0
LAYER
  2
PAKSU
 70
    64
 62
    -3
  6
CONTINUOUS
  0
LAYER
  2
OHUT
 70
    64
 62
    -6
  6
CONTINUOUS
  0
LAYER
  2
SWEDEN
 70
    64
 62
    -7
  6
CONTINUOUS
  0
LAYER
  2
SWEDEN2
 70
    64
 62
    -5
  6
CONTINUOUS
  0
LAYER
  2
BASE
 70
    64
 62
    -7
  6
CONTINUOUS
  0
LAYER
  2
21
 70
    64
 62
    -2
  6
CONTINUOUS
  0
LAYER
  2
HEL035
 70
    64
 62
    -7
  6
CONTINUOUS
  0
LAYER
  2
MUO
 70
    64
 62
    -7
  6
CONTINUOUS
  0
LAYER
  2
1
 70
    64
 62
    -2
  6
CONTINUOUS
  0
LAYER
  2
BASE1
 70
    64
 62
    -5
  6
CONTINUOUS
  0
LAYER
  2
TEKS
 70
    64
 62
    -5
  6
CONTINUOUS
  0
ENDTAB
  0
TABLE
  2
STYLE
 70
     4
  0
STYLE
  2
STANDARD
 70
    64
 40
0.0
 41
1.0
 50
0.0
 71
     0
 42
2.5
  3
txt
  4

  0
STYLE
  2
ROMANS
 70
    64
 40
0.0
 41
1.0
 50
0.0
 71
     0
 42
2.0
  3
romans
  4

  0
STYLE
  2
GREEKC
 70
    64
 40
0.0
 41
1.0
 50
0.0
 71
     0
 42
1.5
  3
GREEKC
  4

  0
STYLE
  2
GREEKS
 70
    64
 40
0.0
 41
1.0
 50
0.0
 71
     0
 42
2.0
  3
TXT
  4

  0
ENDTAB
  0
TABLE
  2
VIEW
 70
     0
  0
ENDTAB
  0
TABLE
  2
UCS
 70
     0
  0
ENDTAB
  0
TABLE
  2
APPID
 70
     1
  0
APPID
  2
ACAD
 70
    64
  0
ENDTAB
  0
TABLE
  2
DIMSTYLE
 70
     0
  0
ENDTAB
  0
ENDSEC
  0
SECTION
  2
BLOCKS
  0
BLOCK
  8
0
  2
1
 70
    64
 10
0.0
 20
0.0
 30
0.0
  3
1
  0
ENDBLK
  8
0
  0
BLOCK
  8
0
  2
BLC27
 70
    64
 10
0.0
 20
0.0
 30
0.0
  3
BLC27
  0
INSERT
  8
SWEDEN2
  6
CENTER
  2
BLC26
 10
0.08063
 20
0.037985
 30
0.0
 41
1.006225
 42
1.006225
 43
1.006225
  0
ENDBLK
  8
0
  0
BLOCK
  8
0
  2
BLC26
 70
    64
 10
0.0
 20
0.0
 30
0.0
  3
BLC26
  0
ARC
  8
0
  6
CONTINUOUS
 10
-0.180576
 20
1.17922
 30
0.0
 40
1.196859
 50
90.0
 51
265.706237
  0
LINE
  8
0
  6
CONTINUOUS
 10
-0.186638
 20
-0.01092
 30
0.0
 11
0.458942
 21
-0.01092
 31
0.0
  0
LINE
  8
0
  6
CONTINUOUS
 10
-0.186638
 20
2.375671
 30
0.0
 11
0.45288
 21
2.375671
 31
0.0
  0
LINE
  8
0
  6
CONTINUOUS
 10
-0.185509
 20
-2.404629
 30
0.0
 11
0.460071
 21
-2.404629
 31
0.0
  0
ARC
  8
0
  6
CONTINUOUS
 10
-0.180576
 20
-1.207779
 30
0.0
 40
1.196859
 50
90.0
 51
270.0
  0
LINE
  8
0
  6
CONTINUOUS
 10
0.451525
 20
-2.404586
 30
0.0
 11
1.401805
 21
-2.404586
 31
0.0
  0
LINE
  8
0
  6
CONTINUOUS
 10
0.446785
 20
2.375674
 30
0.0
 11
1.418544
 21
2.375674
 31
0.0
  0
LINE
  8
0
  6
CONTINUOUS
 10
0.456627
 20
-0.010911
 30
0.0
 11
1.422749
 21
-0.010911
 31
0.0
  0
ENDBLK
  8
0
  0
BLOCK
  8
0
  2
BLC29
 70
    64
 10
0.0
 20
0.0
 30
0.0
  3
BLC29
  0
LINE
  8
0
  6
CONTINUOUS
 10
0.004865
 20
1.206889
 30
0.0
 11
2.350631
 21
-0.128465
 31
0.0
  0
LINE
  8
0
  6
CONTINUOUS
 10
2.350631
 20
-0.128465
 30
0.0
 11
0.004865
 21
-1.318384
 31
0.0
  0
ENDBLK
  8
0
  0
BLOCK
  8
0
  2
WKU130
 70
    64
 10
190.0
 20
250.0
 30
0.0
  3
WKU130
  0
ARC
  8
21
 10
191.083333
 20
249.916667
 30
0.0
 40
1.086534
 50
32.471192
 51
175.601295
  0
ARC
  8
21
 10
192.916667
 20
251.083333
 30
0.0
 40
1.086534
 50
212.471192
 51
355.601295
  0
ENDBLK
  8
0
  0
BLOCK
  8
0
  2
*X5
 70
    65
 10
0.0
 20
0.0
 30
0.0
  3
*X
  0
LINE
  8
0
 62
     0
 10
2.284499
 20
6.52714
 30
0.0
 11
4.8
 21
9.042641
 31
0.0
  0
LINE
  8
0
 62
     0
 10
2.379686
 20
6.799104
 30
0.0
 11
4.8
 21
9.219417
 31
0.0
  0
LINE
  8
0
 62
     0
 10
2.474874
 20
7.071068
 30
0.0
 11
4.8
 21
9.396194
 31
0.0
  0
LINE
  8
0
 62
     0
 10
2.570061
 20
7.343032
 30
0.0
 11
4.8
 21
9.572971
 31
0.0
  0
LINE
  8
0
 62
     0
 10
2.665249
 20
7.614996
 30
0.0
 11
4.8
 21
9.749747
 31
0.0
  0
LINE
  8
0
 62
     0
 10
2.760436
 20
7.88696
 30
0.0
 11
4.8
 21
9.926524
 31
0.0
  0
LINE
  8
0
 62
     0
 10
2.855624
 20
8.158924
 30
0.0
 11
4.696699
 21
10.0
 31
0.0
  0
LINE
  8
0
 62
     0
 10
2.950811
 20
8.430889
 30
0.0
 11
4.519922
 21
10.0
 31
0.0
  0
LINE
  8
0
 62
     0
 10
3.045998
 20
8.702853
 30
0.0
 11
4.343146
 21
10.0
 31
0.0
  0
LINE
  8
0
 62
     0
 10
3.141186
 20
8.974817
 30
0.0
 11
4.166369
 21
10.0
 31
0.0
  0
LINE
  8
0
 62
     0
 10
3.236373
 20
9.246781
 30
0.0
 11
3.989592
 21
10.0
 31
0.0
  0
LINE
  8
0
 62
     0
 10
3.331561
 20
9.518745
 30
0.0
 11
3.812816
 21
10.0
 31
0.0
  0
LINE
  8
0
 62
     0
 10
3.426748
 20
9.790709
 30
0.0
 11
3.636039
 21
10.0
 31
0.0
  0
LINE
  8
0
 62
     0
 10
2.189311
 20
6.255175
 30
0.0
 11
4.8
 21
8.865864
 31
0.0
  0
LINE
  8
0
 62
     0
 10
2.094124
 20
5.983211
 30
0.0
 11
4.8
 21
8.689087
 31
0.0
  0
LINE
  8
0
 62
     0
 10
1.998936
 20
5.711247
 30
0.0
 11
4.8
 21
8.512311
 31
0.0
  0
LINE
  8
0
 62
     0
 10
1.903749
 20
5.439283
 30
0.0
 11
4.8
 21
8.335534
 31
0.0
  0
LINE
  8
0
 62
     0
 10
1.841243
 20
5.2
 30
0.0
 11
4.8
 21
8.158757
 31
0.0
  0
LINE
  8
0
 62
     0
 10
2.018019
 20
5.2
 30
0.0
 11
4.8
 21
7.981981
 31
0.0
  0
LINE
  8
0
 62
     0
 10
2.194796
 20
5.2
 30
0.0
 11
4.8
 21
7.805204
 31
0.0
  0
LINE
  8
0
 62
     0
 10
2.371573
 20
5.2
 30
0.0
 11
4.8
 21
7.628427
 31
0.0
  0
LINE
  8
0
 62
     0
 10
2.54835
 20
5.2
 30
0.0
 11
4.8
 21
7.45165
 31
0.0
  0
LINE
  8
0
 62
     0
 10
2.725126
 20
5.2
 30
0.0
 11
4.8
 21
7.274874
 31
0.0
  0
LINE
  8
0
 62
     0
 10
2.901903
 20
5.2
 30
0.0
 11
4.8
 21
7.098097
 31
0.0
  0
LINE
  8
0
 62
     0
 10
3.07868
 20
5.2
 30
0.0
 11
4.8
 21
6.92132
 31
0.0
  0
LINE
  8
0
 62
     0
 10
3.255456
 20
5.2
 30
0.0
 11
4.8
 21
6.744544
 31
0.0
  0
LINE
  8
0
 62
     0
 10
3.432233
 20
5.2
 30
0.0
 11
4.8
 21
6.567767
 31
0.0
  0
LINE
  8
0
 62
     0
 10
3.60901
 20
5.2
 30
0.0
 11
4.8
 21
6.39099
 31
0.0
  0
LINE
  8
0
 62
     0
 10
3.785786
 20
5.2
 30
0.0
 11
4.8
 21
6.214214
 31
0.0
  0
LINE
  8
0
 62
     0
 10
3.962563
 20
5.2
 30
0.0
 11
4.8
 21
6.037437
 31
0.0
  0
LINE
  8
0
 62
     0
 10
4.13934
 20
5.2
 30
0.0
 11
4.8
 21
5.86066
 31
0.0
  0
LINE
  8
0
 62
     0
 10
4.316117
 20
5.2
 30
0.0
 11
4.8
 21
5.683883
 31
0.0
  0
LINE
  8
0
 62
     0
 10
4.492893
 20
5.2
 30
0.0
 11
4.8
 21
5.507107
 31
0.0
  0
LINE
  8
0
 62
     0
 10
4.66967
 20
5.2
 30
0.0
 11
4.8
 21
5.33033
 31
0.0
  0
ENDBLK
  8
0
  0
BLOCK
  8
0
  2
*X6
 70
    65
 10
0.0
 20
0.0
 30
0.0
  3
*X
  0
LINE
  8
0
 62
     0
 10
5.2
 20
6.083883
 30
0.0
 11
7.178252
 21
8.062136
 31
0.0
  0
LINE
  8
0
 62
     0
 10
5.2
 20
6.26066
 30
0.0
 11
7.132421
 21
8.193082
 31
0.0
  0
LINE
  8
0
 62
     0
 10
5.2
 20
6.437437
 30
0.0
 11
7.08659
 21
8.324027
 31
0.0
  0
LINE
  8
0
 62
     0
 10
5.2
 20
6.614214
 30
0.0
 11
7.040759
 21
8.454973
 31
0.0
  0
LINE
  8
0
 62
     0
 10
5.2
 20
6.79099
 30
0.0
 11
6.994928
 21
8.585919
 31
0.0
  0
LINE
  8
0
 62
     0
 10
5.2
 20
6.967767
 30
0.0
 11
6.949097
 21
8.716864
 31
0.0
  0
LINE
  8
0
 62
     0
 10
5.2
 20
7.144544
 30
0.0
 11
6.903266
 21
8.84781
 31
0.0
  0
LINE
  8
0
 62
     0
 10
5.2
 20
7.32132
 30
0.0
 11
6.857435
 21
8.978756
 31
0.0
  0
LINE
  8
0
 62
     0
 10
5.2
 20
7.498097
 30
0.0
 11
6.811604
 21
9.109702
 31
0.0
  0
LINE
  8
0
 62
     0
 10
5.2
 20
7.674874
 30
0.0
 11
6.765773
 21
9.240647
 31
0.0
  0
LINE
  8
0
 62
     0
 10
5.2
 20
7.85165
 30
0.0
 11
6.719942
 21
9.371593
 31
0.0
  0
LINE
  8
0
 62
     0
 10
5.2
 20
8.028427
 30
0.0
 11
6.674111
 21
9.502539
 31
0.0
  0
LINE
  8
0
 62
     0
 10
5.2
 20
8.205204
 30
0.0
 11
6.62828
 21
9.633484
 31
0.0
  0
LINE
  8
0
 62
     0
 10
5.2
 20
8.381981
 30
0.0
 11
6.582449
 21
9.76443
 31
0.0
  0
LINE
  8
0
 62
     0
 10
5.2
 20
8.558757
 30
0.0
 11
6.536619
 21
9.895376
 31
0.0
  0
LINE
  8
0
 62
     0
 10
5.2
 20
8.735534
 30
0.0
 11
6.464466
 21
10.0
 31
0.0
  0
LINE
  8
0
 62
     0
 10
5.2
 20
8.912311
 30
0.0
 11
6.287689
 21
10.0
 31
0.0
  0
LINE
  8
0
 62
     0
 10
5.2
 20
9.089087
 30
0.0
 11
6.110913
 21
10.0
 31
0.0
  0
LINE
  8
0
 62
     0
 10
5.2
 20
9.265864
 30
0.0
 11
5.934136
 21
10.0
 31
0.0
  0
LINE
  8
0
 62
     0
 10
5.2
 20
9.442641
 30
0.0
 11
5.757359
 21
10.0
 31
0.0
  0
LINE
  8
0
 62
     0
 10
5.2
 20
9.619417
 30
0.0
 11
5.580583
 21
10.0
 31
0.0
  0
LINE
  8
0
 62
     0
 10
5.2
 20
9.796194
 30
0.0
 11
5.403806
 21
10.0
 31
0.0
  0
LINE
  8
0
 62
     0
 10
5.2
 20
9.972971
 30
0.0
 11
5.227029
 21
10.0
 31
0.0
  0
LINE
  8
0
 62
     0
 10
5.2
 20
5.907107
 30
0.0
 11
7.224083
 21
7.93119
 31
0.0
  0
LINE
  8
0
 62
     0
 10
5.2
 20
5.73033
 30
0.0
 11
7.269914
 21
7.800245
 31
0.0
  0
LINE
  8
0
 62
     0
 10
5.2
 20
5.553553
 30
0.0
 11
7.315745
 21
7.669299
 31
0.0
  0
LINE
  8
0
 62
     0
 10
5.2
 20
5.376777
 30
0.0
 11
7.361576
 21
7.538353
 31
0.0
  0
LINE
  8
0
 62
     0
 10
5.2
 20
5.2
 30
0.0
 11
7.407407
 21
7.407407
 31
0.0
  0
LINE
  8
0
 62
     0
 10
5.376777
 20
5.2
 30
0.0
 11
7.453238
 21
7.276462
 31
0.0
  0
LINE
  8
0
 62
     0
 10
5.553553
 20
5.2
 30
0.0
 11
7.499069
 21
7.145516
 31
0.0
  0
LINE
  8
0
 62
     0
 10
5.73033
 20
5.2
 30
0.0
 11
7.5449
 21
7.01457
 31
0.0
  0
LINE
  8
0
 62
     0
 10
5.907107
 20
5.2
 30
0.0
 11
7.590731
 21
6.883625
 31
0.0
  0
LINE
  8
0
 62
     0
 10
6.083883
 20
5.2
 30
0.0
 11
7.636562
 21
6.752679
 31
0.0
  0
LINE
  8
0
 62
     0
 10
6.26066
 20
5.2
 30
0.0
 11
7.682393
 21
6.621733
 31
0.0
  0
LINE
  8
0
 62
     0
 10
6.437437
 20
5.2
 30
0.0
 11
7.728224
 21
6.490788
 31
0.0
  0
LINE
  8
0
 62
     0
 10
6.614214
 20
5.2
 30
0.0
 11
7.774055
 21
6.359842
 31
0.0
  0
LINE
  8
0
 62
     0
 10
6.79099
 20
5.2
 30
0.0
 11
7.819886
 21
6.228896
 31
0.0
  0
LINE
  8
0
 62
     0
 10
6.967767
 20
5.2
 30
0.0
 11
7.865717
 21
6.09795
 31
0.0
  0
LINE
  8
0
 62
     0
 10
7.144544
 20
5.2
 30
0.0
 11
7.911548
 21
5.967005
 31
0.0
  0
LINE
  8
0
 62
     0
 10
7.32132
 20
5.2
 30
0.0
 11
7.957379
 21
5.836059
 31
0.0
  0
LINE
  8
0
 62
     0
 10
7.498097
 20
5.2
 30
0.0
 11
8.00321
 21
5.705113
 31
0.0
  0
LINE
  8
0
 62
     0
 10
7.674874
 20
5.2
 30
0.0
 11
8.049041
 21
5.574168
 31
0.0
  0
LINE
  8
0
 62
     0
 10
7.85165
 20
5.2
 30
0.0
 11
8.094872
 21
5.443222
 31
0.0
  0
LINE
  8
0
 62
     0
 10
8.028427
 20
5.2
 30
0.0
 11
8.140703
 21
5.312276
 31
0.0
  0
ENDBLK
  8
0
  0
BLOCK
  8
0
  2
*X7
 70
    65
 10
0.0
 20
0.0
 30
0.0
  3
*X
  0
LINE
  8
0
 62
     0
 10
0.0
 20
0.0
 30
0.0
 11
4.8
 21
4.8
 31
0.0
  0
LINE
  8
0
 62
     0
 10
0.095187
 20
0.271964
 30
0.0
 11
4.623223
 21
4.8
 31
0.0
  0
LINE
  8
0
 62
     0
 10
0.190375
 20
0.543928
 30
0.0
 11
4.446447
 21
4.8
 31
0.0
  0
LINE
  8
0
 62
     0
 10
0.285562
 20
0.815892
 30
0.0
 11
4.26967
 21
4.8
 31
0.0
  0
LINE
  8
0
 62
     0
 10
0.38075
 20
1.087857
 30
0.0
 11
4.092893
 21
4.8
 31
0.0
  0
LINE
  8
0
 62
     0
 10
0.475937
 20
1.359821
 30
0.0
 11
3.916117
 21
4.8
 31
0.0
  0
LINE
  8
0
 62
     0
 10
0.571125
 20
1.631785
 30
0.0
 11
3.73934
 21
4.8
 31
0.0
  0
LINE
  8
0
 62
     0
 10
0.666312
 20
1.903749
 30
0.0
 11
3.562563
 21
4.8
 31
0.0
  0
LINE
  8
0
 62
     0
 10
0.7615
 20
2.175713
 30
0.0
 11
3.385786
 21
4.8
 31
0.0
  0
LINE
  8
0
 62
     0
 10
0.856687
 20
2.447677
 30
0.0
 11
3.20901
 21
4.8
 31
0.0
  0
LINE
  8
0
 62
     0
 10
0.951875
 20
2.719641
 30
0.0
 11
3.032233
 21
4.8
 31
0.0
  0
LINE
  8
0
 62
     0
 10
1.047062
 20
2.991606
 30
0.0
 11
2.855456
 21
4.8
 31
0.0
  0
LINE
  8
0
 62
     0
 10
1.142249
 20
3.26357
 30
0.0
 11
2.67868
 21
4.8
 31
0.0
  0
LINE
  8
0
 62
     0
 10
1.237437
 20
3.535534
 30
0.0
 11
2.501903
 21
4.8
 31
0.0
  0
LINE
  8
0
 62
     0
 10
1.332624
 20
3.807498
 30
0.0
 11
2.325126
 21
4.8
 31
0.0
  0
LINE
  8
0
 62
     0
 10
1.427812
 20
4.079462
 30
0.0
 11
2.14835
 21
4.8
 31
0.0
  0
LINE
  8
0
 62
     0
 10
1.522999
 20
4.351426
 30
0.0
 11
1.971573
 21
4.8
 31
0.0
  0
LINE
  8
0
 62
     0
 10
1.618187
 20
4.62339
 30
0.0
 11
1.794796
 21
4.8
 31
0.0
  0
LINE
  8
0
 62
     0
 10
0.176777
 20
0.0
 30
0.0
 11
4.8
 21
4.623223
 31
0.0
  0
LINE
  8
0
 62
     0
 10
0.353553
 20
0.0
 30
0.0
 11
4.8
 21
4.446447
 31
0.0
  0
LINE
  8
0
 62
     0
 10
0.53033
 20
0.0
 30
0.0
 11
4.8
 21
4.26967
 31
0.0
  0
LINE
  8
0
 62
     0
 10
0.707107
 20
0.0
 30
0.0
 11
4.8
 21
4.092893
 31
0.0
  0
LINE
  8
0
 62
     0
 10
0.883883
 20
0.0
 30
0.0
 11
4.8
 21
3.916117
 31
0.0
  0
LINE
  8
0
 62
     0
 10
1.06066
 20
0.0
 30
0.0
 11
4.8
 21
3.73934
 31
0.0
  0
LINE
  8
0
 62
     0
 10
1.237437
 20
0.0
 30
0.0
 11
3.179842
 21
1.942405
 31
0.0
  0
LINE
  8
0
 62
     0
 10
3.237437
 20
2.0
 30
0.0
 11
4.8
 21
3.562563
 31
0.0
  0
LINE
  8
0
 62
     0
 10
1.414214
 20
0.0
 30
0.0
 11
3.084654
 21
1.670441
 31
0.0
  0
LINE
  8
0
 62
     0
 10
3.414214
 20
2.0
 30
0.0
 11
4.8
 21
3.385786
 31
0.0
  0
LINE
  8
0
 62
     0
 10
1.59099
 20
0.0
 30
0.0
 11
2.989467
 21
1.398477
 31
0.0
  0
LINE
  8
0
 62
     0
 10
3.59099
 20
2.0
 30
0.0
 11
4.8
 21
3.20901
 31
0.0
  0
LINE
  8
0
 62
     0
 10
1.767767
 20
0.0
 30
0.0
 11
2.894279
 21
1.126512
 31
0.0
  0
LINE
  8
0
 62
     0
 10
3.767767
 20
2.0
 30
0.0
 11
4.8
 21
3.032233
 31
0.0
  0
LINE
  8
0
 62
     0
 10
1.944544
 20
0.0
 30
0.0
 11
2.799092
 21
0.854548
 31
0.0
  0
LINE
  8
0
 62
     0
 10
3.944544
 20
2.0
 30
0.0
 11
4.8
 21
2.855456
 31
0.0
  0
LINE
  8
0
 62
     0
 10
2.12132
 20
0.0
 30
0.0
 11
2.703904
 21
0.582584
 31
0.0
  0
LINE
  8
0
 62
     0
 10
4.12132
 20
2.0
 30
0.0
 11
4.8
 21
2.67868
 31
0.0
  0
LINE
  8
0
 62
     0
 10
2.298097
 20
0.0
 30
0.0
 11
2.608717
 21
0.31062
 31
0.0
  0
LINE
  8
0
 62
     0
 10
4.298097
 20
2.0
 30
0.0
 11
4.8
 21
2.501903
 31
0.0
  0
LINE
  8
0
 62
     0
 10
2.474874
 20
0.0
 30
0.0
 11
2.51353
 21
0.038656
 31
0.0
  0
LINE
  8
0
 62
     0
 10
4.474874
 20
2.0
 30
0.0
 11
4.8
 21
2.325126
 31
0.0
  0
LINE
  8
0
 62
     0
 10
4.65165
 20
2.0
 30
0.0
 11
4.8
 21
2.14835
 31
0.0
  0
ENDBLK
  8
0
  0
BLOCK
  8
0
  2
*X8
 70
    65
 10
0.0
 20
0.0
 30
0.0
  3
*X
  0
LINE
  8
0
 62
     0
 10
6.884654
 20
1.75813
 30
0.0
 11
8.736506
 21
3.609982
 31
0.0
  0
LINE
  8
0
 62
     0
 10
6.838823
 20
1.889076
 30
0.0
 11
8.690675
 21
3.740928
 31
0.0
  0
LINE
  8
0
 62
     0
 10
6.772971
 20
2.0
 30
0.0
 11
8.644844
 21
3.871874
 31
0.0
  0
LINE
  8
0
 62
     0
 10
6.596194
 20
2.0
 30
0.0
 11
8.599013
 21
4.002819
 31
0.0
  0
LINE
  8
0
 62
     0
 10
6.419417
 20
2.0
 30
0.0
 11
8.553182
 21
4.133765
 31
0.0
  0
LINE
  8
0
 62
     0
 10
6.242641
 20
2.0
 30
0.0
 11
8.507351
 21
4.264711
 31
0.0
  0
LINE
  8
0
 62
     0
 10
6.065864
 20
2.0
 30
0.0
 11
8.46152
 21
4.395656
 31
0.0
  0
LINE
  8
0
 62
     0
 10
5.889087
 20
2.0
 30
0.0
 11
8.415689
 21
4.526602
 31
0.0
  0
LINE
  8
0
 62
     0
 10
5.712311
 20
2.0
 30
0.0
 11
8.369858
 21
4.657548
 31
0.0
  0
LINE
  8
0
 62
     0
 10
5.535534
 20
2.0
 30
0.0
 11
8.324027
 21
4.788493
 31
0.0
  0
LINE
  8
0
 62
     0
 10
5.358757
 20
2.0
 30
0.0
 11
8.158757
 21
4.8
 31
0.0
  0
LINE
  8
0
 62
     0
 10
5.2
 20
2.018019
 30
0.0
 11
7.981981
 21
4.8
 31
0.0
  0
LINE
  8
0
 62
     0
 10
5.2
 20
2.194796
 30
0.0
 11
7.805204
 21
4.8
 31
0.0
  0
LINE
  8
0
 62
     0
 10
5.2
 20
2.371573
 30
0.0
 11
7.628427
 21
4.8
 31
0.0
  0
LINE
  8
0
 62
     0
 10
5.2
 20
2.54835
 30
0.0
 11
7.45165
 21
4.8
 31
0.0
  0
LINE
  8
0
 62
     0
 10
5.2
 20
2.725126
 30
0.0
 11
7.274874
 21
4.8
 31
0.0
  0
LINE
  8
0
 62
     0
 10
5.2
 20
2.901903
 30
0.0
 11
7.098097
 21
4.8
 31
0.0
  0
LINE
  8
0
 62
     0
 10
5.2
 20
3.07868
 30
0.0
 11
6.92132
 21
4.8
 31
0.0
  0
LINE
  8
0
 62
     0
 10
5.2
 20
3.255456
 30
0.0
 11
6.744544
 21
4.8
 31
0.0
  0
LINE
  8
0
 62
     0
 10
5.2
 20
3.432233
 30
0.0
 11
6.567767
 21
4.8
 31
0.0
  0
LINE
  8
0
 62
     0
 10
5.2
 20
3.60901
 30
0.0
 11
6.39099
 21
4.8
 31
0.0
  0
LINE
  8
0
 62
     0
 10
5.2
 20
3.785786
 30
0.0
 11
6.214214
 21
4.8
 31
0.0
  0
LINE
  8
0
 62
     0
 10
5.2
 20
3.962563
 30
0.0
 11
6.037437
 21
4.8
 31
0.0
  0
LINE
  8
0
 62
     0
 10
5.2
 20
4.13934
 30
0.0
 11
5.86066
 21
4.8
 31
0.0
  0
LINE
  8
0
 62
     0
 10
5.2
 20
4.316117
 30
0.0
 11
5.683883
 21
4.8
 31
0.0
  0
LINE
  8
0
 62
     0
 10
5.2
 20
4.492893
 30
0.0
 11
5.507107
 21
4.8
 31
0.0
  0
LINE
  8
0
 62
     0
 10
5.2
 20
4.66967
 30
0.0
 11
5.33033
 21
4.8
 31
0.0
  0
LINE
  8
0
 62
     0
 10
6.930485
 20
1.627185
 30
0.0
 11
8.782337
 21
3.479036
 31
0.0
  0
LINE
  8
0
 62
     0
 10
6.976316
 20
1.496239
 30
0.0
 11
8.828168
 21
3.348091
 31
0.0
  0
LINE
  8
0
 62
     0
 10
7.022147
 20
1.365293
 30
0.0
 11
8.873999
 21
3.217145
 31
0.0
  0
LINE
  8
0
 62
     0
 10
7.067978
 20
1.234347
 30
0.0
 11
8.91983
 21
3.086199
 31
0.0
  0
LINE
  8
0
 62
     0
 10
7.113809
 20
1.103402
 30
0.0
 11
8.965661
 21
2.955254
 31
0.0
  0
LINE
  8
0
 62
     0
 10
7.15964
 20
0.972456
 30
0.0
 11
9.011492
 21
2.824308
 31
0.0
  0
LINE
  8
0
 62
     0
 10
7.205471
 20
0.84151
 30
0.0
 11
9.057323
 21
2.693362
 31
0.0
  0
LINE
  8
0
 62
     0
 10
7.251302
 20
0.710565
 30
0.0
 11
9.103154
 21
2.562416
 31
0.0
  0
LINE
  8
0
 62
     0
 10
7.297133
 20
0.579619
 30
0.0
 11
9.148985
 21
2.431471
 31
0.0
  0
LINE
  8
0
 62
     0
 10
7.342964
 20
0.448673
 30
0.0
 11
9.194816
 21
2.300525
 31
0.0
  0
LINE
  8
0
 62
     0
 10
7.388795
 20
0.317728
 30
0.0
 11
9.240647
 21
2.169579
 31
0.0
  0
LINE
  8
0
 62
     0
 10
7.434626
 20
0.186782
 30
0.0
 11
9.286478
 21
2.038634
 31
0.0
  0
LINE
  8
0
 62
     0
 10
7.480457
 20
0.055836
 30
0.0
 11
9.332309
 21
1.907688
 31
0.0
  0
LINE
  8
0
 62
     0
 10
7.601398
 20
0.0
 30
0.0
 11
9.37814
 21
1.776742
 31
0.0
  0
LINE
  8
0
 62
     0
 10
7.778175
 20
0.0
 30
0.0
 11
9.423971
 21
1.645797
 31
0.0
  0
LINE
  8
0
 62
     0
 10
7.954951
 20
0.0
 30
0.0
 11
9.469802
 21
1.514851
 31
0.0
  0
LINE
  8
0
 62
     0
 10
8.131728
 20
0.0
 30
0.0
 11
9.515633
 21
1.383905
 31
0.0
  0
LINE
  8
0
 62
     0
 10
8.308505
 20
0.0
 30
0.0
 11
9.561464
 21
1.252959
 31
0.0
  0
LINE
  8
0
 62
     0
 10
8.485281
 20
0.0
 30
0.0
 11
9.607295
 21
1.122014
 31
0.0
  0
LINE
  8
0
 62
     0
 10
8.662058
 20
0.0
 30
0.0
 11
9.653126
 21
0.991068
 31
0.0
  0
LINE
  8
0
 62
     0
 10
8.838835
 20
0.0
 30
0.0
 11
9.698957
 21
0.860122
 31
0.0
  0
LINE
  8
0
 62
     0
 10
9.015611
 20
0.0
 30
0.0
 11
9.744788
 21
0.729177
 31
0.0
  0
LINE
  8
0
 62
     0
 10
9.192388
 20
0.0
 30
0.0
 11
9.790619
 21
0.598231
 31
0.0
  0
LINE
  8
0
 62
     0
 10
9.369165
 20
0.0
 30
0.0
 11
9.83645
 21
0.467285
 31
0.0
  0
LINE
  8
0
 62
     0
 10
9.545942
 20
0.0
 30
0.0
 11
9.882281
 21
0.33634
 31
0.0
  0
LINE
  8
0
 62
     0
 10
9.722718
 20
0.0
 30
0.0
 11
9.928112
 21
0.205394
 31
0.0
  0
LINE
  8
0
 62
     0
 10
9.899495
 20
0.0
 30
0.0
 11
9.973943
 21
0.074448
 31
0.0
  0
ENDBLK
  8
0
  0
BLOCK
  8
0
  2
*X9
 70
    65
 10
0.0
 20
0.0
 30
0.0
  3
*X
  0
LINE
  8
0
 62
     0
 10
10.7
 20
6.280583
 30
0.0
 11
13.5
 21
9.080583
 31
0.0
  0
LINE
  8
0
 62
     0
 10
10.7
 20
6.457359
 30
0.0
 11
13.5
 21
9.257359
 31
0.0
  0
LINE
  8
0
 62
     0
 10
10.7
 20
6.634136
 30
0.0
 11
13.5
 21
9.434136
 31
0.0
  0
LINE
  8
0
 62
     0
 10
10.7
 20
6.810913
 30
0.0
 11
13.5
 21
9.610913
 31
0.0
  0
LINE
  8
0
 62
     0
 10
10.7
 20
6.987689
 30
0.0
 11
13.5
 21
9.787689
 31
0.0
  0
LINE
  8
0
 62
     0
 10
10.7
 20
7.164466
 30
0.0
 11
13.5
 21
9.964466
 31
0.0
  0
LINE
  8
0
 62
     0
 10
10.7
 20
7.341243
 30
0.0
 11
13.358757
 21
10.0
 31
0.0
  0
LINE
  8
0
 62
     0
 10
10.7
 20
7.518019
 30
0.0
 11
13.181981
 21
10.0
 31
0.0
  0
LINE
  8
0
 62
     0
 10
10.7
 20
7.694796
 30
0.0
 11
13.005204
 21
10.0
 31
0.0
  0
LINE
  8
0
 62
     0
 10
10.7
 20
7.871573
 30
0.0
 11
12.828427
 21
10.0
 31
0.0
  0
LINE
  8
0
 62
     0
 10
10.7
 20
8.04835
 30
0.0
 11
12.65165
 21
10.0
 31
0.0
  0
LINE
  8
0
 62
     0
 10
10.7
 20
8.225126
 30
0.0
 11
12.474874
 21
10.0
 31
0.0
  0
LINE
  8
0
 62
     0
 10
10.7
 20
8.401903
 30
0.0
 11
12.298097
 21
10.0
 31
0.0
  0
LINE
  8
0
 62
     0
 10
10.7
 20
8.57868
 30
0.0
 11
12.12132
 21
10.0
 31
0.0
  0
LINE
  8
0
 62
     0
 10
10.7
 20
8.755456
 30
0.0
 11
11.944544
 21
10.0
 31
0.0
  0
LINE
  8
0
 62
     0
 10
10.7
 20
8.932233
 30
0.0
 11
11.767767
 21
10.0
 31
0.0
  0
LINE
  8
0
 62
     0
 10
10.7
 20
9.10901
 30
0.0
 11
11.59099
 21
10.0
 31
0.0
  0
LINE
  8
0
 62
     0
 10
10.7
 20
9.285786
 30
0.0
 11
11.414214
 21
10.0
 31
0.0
  0
LINE
  8
0
 62
     0
 10
10.7
 20
9.462563
 30
0.0
 11
11.237437
 21
10.0
 31
0.0
  0
LINE
  8
0
 62
     0
 10
10.7
 20
9.63934
 30
0.0
 11
11.06066
 21
10.0
 31
0.0
  0
LINE
  8
0
 62
     0
 10
10.7
 20
9.816117
 30
0.0
 11
10.883883
 21
10.0
 31
0.0
  0
LINE
  8
0
 62
     0
 10
10.7
 20
9.992893
 30
0.0
 11
10.707107
 21
10.0
 31
0.0
  0
LINE
  8
0
 62
     0
 10
10.7
 20
6.103806
 30
0.0
 11
13.5
 21
8.903806
 31
0.0
  0
LINE
  8
0
 62
     0
 10
10.7
 20
5.927029
 30
0.0
 11
13.5
 21
8.727029
 31
0.0
  0
LINE
  8
0
 62
     0
 10
10.7
 20
5.750253
 30
0.0
 11
13.5
 21
8.550253
 31
0.0
  0
LINE
  8
0
 62
     0
 10
10.7
 20
5.573476
 30
0.0
 11
13.5
 21
8.373476
 31
0.0
  0
LINE
  8
0
 62
     0
 10
10.7
 20
5.396699
 30
0.0
 11
13.5
 21
8.196699
 31
0.0
  0
LINE
  8
0
 62
     0
 10
10.7
 20
5.219922
 30
0.0
 11
13.5
 21
8.019922
 31
0.0
  0
LINE
  8
0
 62
     0
 10
10.856854
 20
5.2
 30
0.0
 11
13.5
 21
7.843146
 31
0.0
  0
LINE
  8
0
 62
     0
 10
11.033631
 20
5.2
 30
0.0
 11
13.5
 21
7.666369
 31
0.0
  0
LINE
  8
0
 62
     0
 10
11.210408
 20
5.2
 30
0.0
 11
13.5
 21
7.489592
 31
0.0
  0
LINE
  8
0
 62
     0
 10
11.387184
 20
5.2
 30
0.0
 11
13.5
 21
7.312816
 31
0.0
  0
LINE
  8
0
 62
     0
 10
11.563961
 20
5.2
 30
0.0
 11
13.5
 21
7.136039
 31
0.0
  0
LINE
  8
0
 62
     0
 10
11.740738
 20
5.2
 30
0.0
 11
13.5
 21
6.959262
 31
0.0
  0
LINE
  8
0
 62
     0
 10
11.917514
 20
5.2
 30
0.0
 11
13.5
 21
6.782486
 31
0.0
  0
LINE
  8
0
 62
     0
 10
12.094291
 20
5.2
 30
0.0
 11
13.5
 21
6.605709
 31
0.0
  0
LINE
  8
0
 62
     0
 10
12.271068
 20
5.2
 30
0.0
 11
13.5
 21
6.428932
 31
0.0
  0
LINE
  8
0
 62
     0
 10
12.447845
 20
5.2
 30
0.0
 11
13.5
 21
6.252155
 31
0.0
  0
LINE
  8
0
 62
     0
 10
12.624621
 20
5.2
 30
0.0
 11
13.5
 21
6.075379
 31
0.0
  0
LINE
  8
0
 62
     0
 10
12.801398
 20
5.2
 30
0.0
 11
13.5
 21
5.898602
 31
0.0
  0
LINE
  8
0
 62
     0
 10
12.978175
 20
5.2
 30
0.0
 11
13.5
 21
5.721825
 31
0.0
  0
LINE
  8
0
 62
     0
 10
13.154951
 20
5.2
 30
0.0
 11
13.5
 21
5.545049
 31
0.0
  0
LINE
  8
0
 62
     0
 10
13.331728
 20
5.2
 30
0.0
 11
13.5
 21
5.368272
 31
0.0
  0
ENDBLK
  8
0
  0
BLOCK
  8
0
  2
*X10
 70
    65
 10
0.0
 20
0.0
 30
0.0
  3
*X
  0
LINE
  8
0
 62
     0
 10
10.7
 20
1.154058
 30
0.0
 11
13.5
 21
3.954058
 31
0.0
  0
LINE
  8
0
 62
     0
 10
10.7
 20
1.330835
 30
0.0
 11
13.5
 21
4.130835
 31
0.0
  0
LINE
  8
0
 62
     0
 10
10.7
 20
1.507612
 30
0.0
 11
13.5
 21
4.307612
 31
0.0
  0
LINE
  8
0
 62
     0
 10
10.7
 20
1.684389
 30
0.0
 11
13.5
 21
4.484389
 31
0.0
  0
LINE
  8
0
 62
     0
 10
10.7
 20
1.861165
 30
0.0
 11
13.5
 21
4.661165
 31
0.0
  0
LINE
  8
0
 62
     0
 10
10.7
 20
2.037942
 30
0.0
 11
13.462058
 21
4.8
 31
0.0
  0
LINE
  8
0
 62
     0
 10
10.7
 20
2.214719
 30
0.0
 11
13.285281
 21
4.8
 31
0.0
  0
LINE
  8
0
 62
     0
 10
10.7
 20
2.391495
 30
0.0
 11
13.108505
 21
4.8
 31
0.0
  0
LINE
  8
0
 62
     0
 10
10.7
 20
2.568272
 30
0.0
 11
12.931728
 21
4.8
 31
0.0
  0
LINE
  8
0
 62
     0
 10
10.7
 20
2.745049
 30
0.0
 11
12.754951
 21
4.8
 31
0.0
  0
LINE
  8
0
 62
     0
 10
10.7
 20
2.921825
 30
0.0
 11
12.578175
 21
4.8
 31
0.0
  0
LINE
  8
0
 62
     0
 10
10.7
 20
3.098602
 30
0.0
 11
12.401398
 21
4.8
 31
0.0
  0
LINE
  8
0
 62
     0
 10
10.7
 20
3.275379
 30
0.0
 11
12.224621
 21
4.8
 31
0.0
  0
LINE
  8
0
 62
     0
 10
10.7
 20
3.452155
 30
0.0
 11
12.047845
 21
4.8
 31
0.0
  0
LINE
  8
0
 62
     0
 10
10.7
 20
3.628932
 30
0.0
 11
11.871068
 21
4.8
 31
0.0
  0
LINE
  8
0
 62
     0
 10
10.7
 20
3.805709
 30
0.0
 11
11.694291
 21
4.8
 31
0.0
  0
LINE
  8
0
 62
     0
 10
10.7
 20
3.982486
 30
0.0
 11
11.517514
 21
4.8
 31
0.0
  0
LINE
  8
0
 62
     0
 10
10.7
 20
4.159262
 30
0.0
 11
11.340738
 21
4.8
 31
0.0
  0
LINE
  8
0
 62
     0
 10
10.7
 20
4.336039
 30
0.0
 11
11.163961
 21
4.8
 31
0.0
  0
LINE
  8
0
 62
     0
 10
10.7
 20
4.512816
 30
0.0
 11
10.987184
 21
4.8
 31
0.0
  0
LINE
  8
0
 62
     0
 10
10.7
 20
4.689592
 30
0.0
 11
10.810408
 21
4.8
 31
0.0
  0
LINE
  8
0
 62
     0
 10
10.7
 20
0.977282
 30
0.0
 11
13.5
 21
3.777282
 31
0.0
  0
LINE
  8
0
 62
     0
 10
10.7
 20
0.800505
 30
0.0
 11
13.5
 21
3.600505
 31
0.0
  0
LINE
  8
0
 62
     0
 10
10.7
 20
0.623728
 30
0.0
 11
13.5
 21
3.423728
 31
0.0
  0
LINE
  8
0
 62
     0
 10
10.7
 20
0.446952
 30
0.0
 11
13.5
 21
3.246952
 31
0.0
  0
LINE
  8
0
 62
     0
 10
10.7
 20
0.270175
 30
0.0
 11
13.5
 21
3.070175
 31
0.0
  0
LINE
  8
0
 62
     0
 10
10.7
 20
0.093398
 30
0.0
 11
13.5
 21
2.893398
 31
0.0
  0
LINE
  8
0
 62
     0
 10
10.783378
 20
0.0
 30
0.0
 11
13.5
 21
2.716622
 31
0.0
  0
LINE
  8
0
 62
     0
 10
10.960155
 20
0.0
 30
0.0
 11
13.5
 21
2.539845
 31
0.0
  0
LINE
  8
0
 62
     0
 10
11.136932
 20
0.0
 30
0.0
 11
13.5
 21
2.363068
 31
0.0
  0
LINE
  8
0
 62
     0
 10
11.313708
 20
0.0
 30
0.0
 11
13.5
 21
2.186292
 31
0.0
  0
LINE
  8
0
 62
     0
 10
11.490485
 20
0.0
 30
0.0
 11
13.5
 21
2.009515
 31
0.0
  0
LINE
  8
0
 62
     0
 10
11.667262
 20
0.0
 30
0.0
 11
13.5
 21
1.832738
 31
0.0
  0
LINE
  8
0
 62
     0
 10
11.844039
 20
0.0
 30
0.0
 11
13.5
 21
1.655961
 31
0.0
  0
LINE
  8
0
 62
     0
 10
12.020815
 20
0.0
 30
0.0
 11
13.5
 21
1.479185
 31
0.0
  0
LINE
  8
0
 62
     0
 10
12.197592
 20
0.0
 30
0.0
 11
13.5
 21
1.302408
 31
0.0
  0
LINE
  8
0
 62
     0
 10
12.374369
 20
0.0
 30
0.0
 11
13.5
 21
1.125631
 31
0.0
  0
LINE
  8
0
 62
     0
 10
12.551145
 20
0.0
 30
0.0
 11
13.5
 21
0.948855
 31
0.0
  0
LINE
  8
0
 62
     0
 10
12.727922
 20
0.0
 30
0.0
 11
13.5
 21
0.772078
 31
0.0
  0
LINE
  8
0
 62
     0
 10
12.904699
 20
0.0
 30
0.0
 11
13.5
 21
0.595301
 31
0.0
  0
LINE
  8
0
 62
     0
 10
13.081475
 20
0.0
 30
0.0
 11
13.5
 21
0.418525
 31
0.0
  0
LINE
  8
0
 62
     0
 10
13.258252
 20
0.0
 30
0.0
 11
13.5
 21
0.241748
 31
0.0
  0
LINE
  8
0
 62
     0
 10
13.435029
 20
0.0
 30
0.0
 11
13.5
 21
0.064971
 31
0.0
  0
ENDBLK
  8
0
  0
BLOCK
  8
0
  2
*X11
 70
    65
 10
0.0
 20
0.0
 30
0.0
  3
*X
  0
LINE
  8
0
 62
     0
 10
13.9
 20
6.298602
 30
0.0
 11
16.582995
 21
8.981597
 31
0.0
  0
LINE
  8
0
 62
     0
 10
13.9
 20
6.475379
 30
0.0
 11
16.510503
 21
9.085882
 31
0.0
  0
LINE
  8
0
 62
     0
 10
13.9
 20
6.652155
 30
0.0
 11
16.432927
 21
9.185083
 31
0.0
  0
LINE
  8
0
 62
     0
 10
13.9
 20
6.828932
 30
0.0
 11
16.350372
 21
9.279304
 31
0.0
  0
LINE
  8
0
 62
     0
 10
13.9
 20
7.005709
 30
0.0
 11
16.262892
 21
9.368601
 31
0.0
  0
LINE
  8
0
 62
     0
 10
13.9
 20
7.182486
 30
0.0
 11
16.170495
 21
9.452981
 31
0.0
  0
LINE
  8
0
 62
     0
 10
13.9
 20
7.359262
 30
0.0
 11
16.073145
 21
9.532407
 31
0.0
  0
LINE
  8
0
 62
     0
 10
13.9
 20
7.536039
 30
0.0
 11
15.970755
 21
9.606794
 31
0.0
  0
LINE
  8
0
 62
     0
 10
13.9
 20
7.712816
 30
0.0
 11
15.863189
 21
9.676004
 31
0.0
  0
LINE
  8
0
 62
     0
 10
13.9
 20
7.889592
 30
0.0
 11
15.75025
 21
9.739843
 31
0.0
  0
LINE
  8
0
 62
     0
 10
13.9
 20
8.066369
 30
0.0
 11
15.631675
 21
9.798044
 31
0.0
  0
LINE
  8
0
 62
     0
 10
13.9
 20
8.243146
 30
0.0
 11
15.50711
 21
9.850256
 31
0.0
  0
LINE
  8
0
 62
     0
 10
13.9
 20
8.419922
 30
0.0
 11
15.376096
 21
9.896018
 31
0.0
  0
LINE
  8
0
 62
     0
 10
13.9
 20
8.596699
 30
0.0
 11
15.238027
 21
9.934726
 31
0.0
  0
LINE
  8
0
 62
     0
 10
13.9
 20
8.773476
 30
0.0
 11
15.092096
 21
9.965572
 31
0.0
  0
LINE
  8
0
 62
     0
 10
13.9
 20
8.950253
 30
0.0
 11
14.937209
 21
9.987461
 31
0.0
  0
LINE
  8
0
 62
     0
 10
13.9
 20
9.127029
 30
0.0
 11
14.771824
 21
9.998853
 31
0.0
  0
LINE
  8
0
 62
     0
 10
13.9
 20
9.303806
 30
0.0
 11
14.596193
 21
9.999999
 31
0.0
  0
LINE
  8
0
 62
     0
 10
13.9
 20
9.480583
 30
0.0
 11
14.419417
 21
9.999999
 31
0.0
  0
LINE
  8
0
 62
     0
 10
13.9
 20
9.657359
 30
0.0
 11
14.24264
 21
10.0
 31
0.0
  0
LINE
  8
0
 62
     0
 10
13.9
 20
9.834136
 30
0.0
 11
14.065864
 21
10.0
 31
0.0
  0
LINE
  8
0
 62
     0
 10
13.9
 20
6.121825
 30
0.0
 11
16.650245
 21
8.872071
 31
0.0
  0
LINE
  8
0
 62
     0
 10
13.9
 20
5.945049
 30
0.0
 11
16.712035
 21
8.757083
 31
0.0
  0
LINE
  8
0
 62
     0
 10
13.9
 20
5.768272
 30
0.0
 11
16.768067
 21
8.636339
 31
0.0
  0
LINE
  8
0
 62
     0
 10
13.9
 20
5.591495
 30
0.0
 11
16.817955
 21
8.509451
 31
0.0
  0
LINE
  8
0
 62
     0
 10
13.9
 20
5.414719
 30
0.0
 11
16.861189
 21
8.375908
 31
0.0
  0
LINE
  8
0
 62
     0
 10
13.9
 20
5.237942
 30
0.0
 11
16.897097
 21
8.235039
 31
0.0
  0
LINE
  8
0
 62
     0
 10
14.038835
 20
5.2
 30
0.0
 11
16.924779
 21
8.085944
 31
0.0
  0
LINE
  8
0
 62
     0
 10
14.215611
 20
5.2
 30
0.0
 11
16.942997
 21
7.927385
 31
0.0
  0
LINE
  8
0
 62
     0
 10
14.392388
 20
5.2
 30
0.0
 11
16.949987
 21
7.757599
 31
0.0
  0
LINE
  8
0
 62
     0
 10
14.569165
 20
5.2
 30
0.0
 11
16.943101
 21
7.573936
 31
0.0
  0
LINE
  8
0
 62
     0
 10
14.745942
 20
5.2
 30
0.0
 11
16.918037
 21
7.372095
 31
0.0
  0
LINE
  8
0
 62
     0
 10
14.922718
 20
5.2
 30
0.0
 11
16.866909
 21
7.144191
 31
0.0
  0
LINE
  8
0
 62
     0
 10
15.099495
 20
5.2
 30
0.0
 11
16.771715
 21
6.87222
 31
0.0
  0
LINE
  8
0
 62
     0
 10
15.276272
 20
5.2
 30
0.0
 11
15.847951
 21
5.77168
 31
0.0
  0
LINE
  8
0
 62
     0
 10
15.96673
 20
5.890458
 30
0.0
 11
16.559542
 21
6.48327
 31
0.0
  0
LINE
  8
0
 62
     0
 10
15.453048
 20
5.2
 30
0.0
 11
15.970661
 21
5.717613
 31
0.0
  0
LINE
  8
0
 62
     0
 10
15.629825
 20
5.2
 30
0.0
 11
16.088934
 21
5.659109
 31
0.0
  0
LINE
  8
0
 62
     0
 10
15.806602
 20
5.2
 30
0.0
 11
16.202964
 21
5.596363
 31
0.0
  0
LINE
  8
0
 62
     0
 10
15.983378
 20
5.2
 30
0.0
 11
16.312909
 21
5.529531
 31
0.0
  0
LINE
  8
0
 62
     0
 10
16.160155
 20
5.2
 30
0.0
 11
16.418895
 21
5.45874
 31
0.0
  0
LINE
  8
0
 62
     0
 10
16.336932
 20
5.2
 30
0.0
 11
16.521021
 21
5.384089
 31
0.0
  0
LINE
  8
0
 62
     0
 10
16.513708
 20
5.2
 30
0.0
 11
16.619363
 21
5.305655
 31
0.0
  0
LINE
  8
0
 62
     0
 10
16.690485
 20
5.2
 30
0.0
 11
16.713975
 21
5.22349
 31
0.0
  0
ENDBLK
  8
0
  0
BLOCK
  8
0
  2
*X12
 70
    65
 10
0.0
 20
0.0
 30
0.0
  3
*X
  0
LINE
  8
0
 62
     0
 10
13.9
 20
0.818525
 30
0.0
 11
17.39645
 21
4.314974
 31
0.0
  0
LINE
  8
0
 62
     0
 10
13.9
 20
0.995301
 30
0.0
 11
17.336354
 21
4.431655
 31
0.0
  0
LINE
  8
0
 62
     0
 10
13.9
 20
1.172078
 30
0.0
 11
17.272078
 21
4.544156
 31
0.0
  0
LINE
  8
0
 62
     0
 10
13.9
 20
1.348855
 30
0.0
 11
17.203766
 21
4.652621
 31
0.0
  0
LINE
  8
0
 62
     0
 10
13.9
 20
1.525631
 30
0.0
 11
17.131535
 21
4.757167
 31
0.0
  0
LINE
  8
0
 62
     0
 10
13.9
 20
1.702408
 30
0.0
 11
16.997592
 21
4.8
 31
0.0
  0
LINE
  8
0
 62
     0
 10
13.9
 20
1.879185
 30
0.0
 11
16.820815
 21
4.8
 31
0.0
  0
LINE
  8
0
 62
     0
 10
13.9
 20
2.055961
 30
0.0
 11
16.644039
 21
4.8
 31
0.0
  0
LINE
  8
0
 62
     0
 10
13.9
 20
2.232738
 30
0.0
 11
16.467262
 21
4.8
 31
0.0
  0
LINE
  8
0
 62
     0
 10
13.9
 20
2.409515
 30
0.0
 11
16.290485
 21
4.8
 31
0.0
  0
LINE
  8
0
 62
     0
 10
13.9
 20
2.586292
 30
0.0
 11
16.113708
 21
4.8
 31
0.0
  0
LINE
  8
0
 62
     0
 10
13.9
 20
2.763068
 30
0.0
 11
15.936932
 21
4.8
 31
0.0
  0
LINE
  8
0
 62
     0
 10
13.9
 20
2.939845
 30
0.0
 11
15.760155
 21
4.8
 31
0.0
  0
LINE
  8
0
 62
     0
 10
13.9
 20
3.116622
 30
0.0
 11
15.583378
 21
4.8
 31
0.0
  0
LINE
  8
0
 62
     0
 10
13.9
 20
3.293398
 30
0.0
 11
15.406602
 21
4.8
 31
0.0
  0
LINE
  8
0
 62
     0
 10
13.9
 20
3.470175
 30
0.0
 11
15.229825
 21
4.8
 31
0.0
  0
LINE
  8
0
 62
     0
 10
13.9
 20
3.646952
 30
0.0
 11
15.053048
 21
4.8
 31
0.0
  0
LINE
  8
0
 62
     0
 10
13.9
 20
3.823728
 30
0.0
 11
14.876272
 21
4.8
 31
0.0
  0
LINE
  8
0
 62
     0
 10
13.9
 20
4.000505
 30
0.0
 11
14.699495
 21
4.8
 31
0.0
  0
LINE
  8
0
 62
     0
 10
13.9
 20
4.177282
 30
0.0
 11
14.522718
 21
4.8
 31
0.0
  0
LINE
  8
0
 62
     0
 10
13.9
 20
4.354058
 30
0.0
 11
14.345942
 21
4.8
 31
0.0
  0
LINE
  8
0
 62
     0
 10
13.9
 20
4.530835
 30
0.0
 11
14.169165
 21
4.8
 31
0.0
  0
LINE
  8
0
 62
     0
 10
13.9
 20
4.707612
 30
0.0
 11
13.992388
 21
4.8
 31
0.0
  0
LINE
  8
0
 62
     0
 10
13.9
 20
0.641748
 30
0.0
 11
17.452185
 21
4.193933
 31
0.0
  0
LINE
  8
0
 62
     0
 10
13.9
 20
0.464971
 30
0.0
 11
17.503339
 21
4.068311
 31
0.0
  0
LINE
  8
0
 62
     0
 10
13.9
 20
0.288194
 30
0.0
 11
17.549642
 21
3.937837
 31
0.0
  0
LINE
  8
0
 62
     0
 10
13.9
 20
0.111418
 30
0.0
 11
17.590762
 21
3.80218
 31
0.0
  0
LINE
  8
0
 62
     0
 10
13.965359
 20
0.0
 30
0.0
 11
17.62629
 21
3.660931
 31
0.0
  0
LINE
  8
0
 62
     0
 10
14.142136
 20
0.000001
 30
0.0
 11
17.655713
 21
3.513577
 31
0.0
  0
LINE
  8
0
 62
     0
 10
14.318913
 20
0.000001
 30
0.0
 11
17.678385
 21
3.359473
 31
0.0
  0
LINE
  8
0
 62
     0
 10
14.49569
 20
0.000001
 30
0.0
 11
17.693473
 21
3.197784
 31
0.0
  0
LINE
  8
0
 62
     0
 10
14.672467
 20
0.000002
 30
0.0
 11
17.699875
 21
3.027409
 31
0.0
  0
LINE
  8
0
 62
     0
 10
14.853154
 20
0.003912
 30
0.0
 11
17.696088
 21
2.846846
 31
0.0
  0
LINE
  8
0
 62
     0
 10
15.046044
 20
0.020025
 30
0.0
 11
17.679975
 21
2.653956
 31
0.0
  0
LINE
  8
0
 62
     0
 10
15.254483
 20
0.051687
 30
0.0
 11
17.648313
 21
2.445517
 31
0.0
  0
LINE
  8
0
 62
     0
 10
15.483762
 20
0.10419
 30
0.0
 11
17.59581
 21
2.216238
 31
0.0
  0
LINE
  8
0
 62
     0
 10
15.743786
 20
0.187437
 30
0.0
 11
17.512563
 21
1.956214
 31
0.0
  0
LINE
  8
0
 62
     0
 10
16.058176
 20
0.32505
 30
0.0
 11
17.37495
 21
1.641824
 31
0.0
  0
LINE
  8
0
 62
     0
 10
16.54193
 20
0.632028
 30
0.0
 11
17.067972
 21
1.15807
 31
0.0
  0
ENDBLK
  8
0
  0
BLOCK
  8
0
  2
BLC15
 70
    64
 10
0.0
 20
0.0
 30
0.0
  3
BLC15
  0
LINE
  8
0
  6
CONTINUOUS
 10
0.142084
 20
3.490022
 30
0.0
 11
0.142084
 21
0.844365
 31
0.0
  0
LINE
  8
0
  6
CONTINUOUS
 10
-0.461611
 20
-0.937188
 30
0.0
 11
0.745779
 21
-0.937188
 31
0.0
  0
LINE
  8
0
  6
CONTINUOUS
 10
-0.894108
 20
-0.049675
 30
0.0
 11
1.169267
 21
-0.049675
 31
0.0
  0
LINE
  8
0
  6
CONTINUOUS
 10
-1.389679
 20
0.844365
 30
0.0
 11
1.673848
 21
0.844365
 31
0.0
  0
ENDBLK
  8
0
  0
BLOCK
  8
0
  2
BLC55
 70
    64
 10
0.0
 20
0.0
 30
0.0
  3
BLC55
  0
INSERT
  8
SWEDEN
  6
CENTER
  2
BLC5
 10
0.087066
 20
-0.756831
 30
0.0
 41
0.6
 42
0.6
 43
0.6
  0
ENDBLK
  8
0
  0
BLOCK
  8
0
  2
BLC5
 70
    64
 10
0.0
 20
0.0
 30
0.0
  3
BLC5
  0
TEXT
  8
0
 10
-3.043704
 20
-6.645912
 30
0.0
 40
3.2
  1
PE
  0
LINE
  8
0
 10
-2.946392
 20
1.181176
 30
0.0
 11
2.135458
 21
1.181176
 31
0.0
  0
LINE
  8
0
 10
-0.48656
 20
2.238362
 30
0.0
 11
-0.48656
 21
6.930438
 31
0.0
  0
LINE
  8
0
 10
-1.973271
 20
0.065258
 30
0.0
 11
1.225411
 21
0.065258
 31
0.0
  0
LINE
  8
0
 10
2.685091
 20
2.238362
 30
0.0
 11
1.68494
 21
2.238362
 31
0.0
  0
LINE
  8
0
 10
-3.505035
 20
2.238362
 30
0.0
 11
2.649049
 21
2.238362
 31
0.0
  0
CIRCLE
  8
0
 10
-0.47755
 20
1.422632
 30
0.0
 40
3.804563
  0
ENDBLK
  8
0
  0
BLOCK
  8
0
  2
BLC43
 70
    64
 10
0.0
 20
0.0
 30
0.0
  3
BLC43
  0
TEXT
  8
SWEDEN2
  6
CONTINUOUS
 10
-0.646672
 20
-0.986365
 30
0.0
 40
2.0
  1
+
  0
ENDBLK
  8
0
  0
BLOCK
  8
0
  2
BLC42
 70
    64
 10
0.0
 20
0.0
 30
0.0
  3
BLC42
  0
TEXT
  8
SWEDEN2
  6
CONTINUOUS
 10
-0.655237
 20
-0.99442
 30
0.0
 40
2.0
  1
-
  0
ENDBLK
  8
0
  0
BLOCK
  8
0
  2
BLC44
 70
    64
 10
0.0
 20
0.0
 30
0.0
  3
BLC44
  0
LINE
  8
HEL035
 10
-2.520993
 20
1.697877
 30
0.0
 11
1.479007
 21
1.697877
 31
0.0
  0
INSERT
  8
HEL035
  2
WKU130
 10
-2.181043
 20
-0.027675
 30
0.0
 41
0.8
 42
0.8
 43
0.8
  0
ENDBLK
  8
0
  0
BLOCK
  8
0
  2
B39
 70
    64
 10
0.0
 20
0.0
 30
0.0
  3
B39
  0
LINE
  8
0
 10
-10.0
 20
2.5
 30
0.0
 11
-11.519867
 21
2.5
 31
0.0
  0
ARC
  8
0
 10
-9.934151
 20
3.75
 30
0.0
 40
1.251733
 50
266.984476
 51
93.015524
  0
LINE
  8
0
 10
-10.0
 20
5.0
 30
0.0
 11
-11.519867
 21
5.0
 31
0.0
  0
LINE
  8
0
 10
-10.0
 20
7.5
 30
0.0
 11
-11.519867
 21
7.5
 31
0.0
  0
ARC
  8
0
 10
-9.934151
 20
6.25
 30
0.0
 40
1.251733
 50
266.984476
 51
93.015524
  0
LINE
  8
0
 10
-5.0
 20
0.0
 30
0.0
 11
-2.5
 21
0.0
 31
0.0
  0
ARC
  8
0
 10
-5.065849
 20
1.25
 30
0.0
 40
1.251733
 50
86.984476
 51
273.015524
  0
ARC
  8
0
 10
-5.065849
 20
3.75
 30
0.0
 40
1.251733
 50
86.984476
 51
273.015524
  0
LINE
  8
0
 10
-5.0
 20
2.5
 30
0.0
 11
-2.5
 21
2.5
 31
0.0
  0
LINE
  8
0
 10
-5.0
 20
5.0
 30
0.0
 11
-2.5
 21
5.0
 31
0.0
  0
LINE
  8
0
 10
-2.5
 20
5.0
 30
0.0
 11
0.0
 21
5.0
 31
0.0
  0
LINE
  8
0
 10
-2.5
 20
0.0
 30
0.0
 11
0.0
 21
0.0
 31
0.0
  0
LINE
  8
0
 10
-2.5
 20
5.0
 30
0.0
 11
0.0
 21
5.0
 31
0.0
  0
LINE
  8
0
 10
-2.5
 20
10.0
 30
0.0
 11
0.0
 21
10.0
 31
0.0
  0
LINE
  8
0
 10
-5.0
 20
10.0
 30
0.0
 11
-2.5
 21
10.0
 31
0.0
  0
LINE
  8
0
 10
-5.0
 20
7.5
 30
0.0
 11
-2.5
 21
7.5
 31
0.0
  0
ARC
  8
0
 10
-5.065849
 20
8.75
 30
0.0
 40
1.251733
 50
86.984476
 51
273.015524
  0
ARC
  8
0
 10
-5.065849
 20
6.25
 30
0.0
 40
1.251733
 50
86.984476
 51
273.015524
  0
LINE
  8
0
 10
-5.0
 20
5.0
 30
0.0
 11
-2.5
 21
5.0
 31
0.0
  0
ENDBLK
  8
0
  0
BLOCK
  8
0
  2
B155
 70
    64
 10
0.0
 20
0.0
 30
0.0
  3
B155
  0
LINE
  8
0
  6
CONTINUOUS
 10
0.0
 20
0.0
 30
0.0
 11
0.0
 21
-1.35427
 31
0.0
  0
LINE
  8
0
  6
CONTINUOUS
 10
-1.210228
 20
-1.35427
 30
0.0
 11
-0.015887
 21
-1.35427
 31
0.0
  0
LINE
  8
0
  6
CONTINUOUS
 10
-0.015887
 20
-1.35427
 30
0.0
 11
1.178454
 21
-1.35427
 31
0.0
  0
LINE
  8
0
  6
CONTINUOUS
 10
-0.831823
 20
-1.976333
 30
0.0
 11
0.752749
 21
-1.976333
 31
0.0
  0
LINE
  8
0
  6
CONTINUOUS
 10
-0.500718
 20
-2.587966
 30
0.0
 11
0.386169
 21
-2.587966
 31
0.0
  0
ENDBLK
  8
0
  0
ENDSEC
  0
SECTION
  2
ENTITIES
  0
INSERT
  8
0
  2
1
 10
65.405438
 20
98.713066
 30
0.0
  0
INSERT
  8
0
  2
1
 10
72.541652
 20
49.71056
 30
0.0
  0
INSERT
  8
0
  2
1
 10
85.390443
 20
73.497234
 30
0.0
  0
LINE
  8
0
  6
CENTER
 62
   249
 10
260.0
 20
230.0
 30
0.0
 11
260.0
 21
87.5
 31
0.0
  0
LINE
  8
0
  6
CENTER
 62
   249
 10
260.0
 20
87.5
 30
0.0
 11
260.0
 21
57.5
 31
0.0
  0
LINE
  8
0
  6
CONTINUOUS
 62
   249
 10
167.5
 20
85.0
 30
0.0
 11
167.5
 21
78.249065
 31
0.0
  0
LINE
  8
0
  6
CONTINUOUS
 62
   249
 10
235.0
 20
70.0
 30
0.0
 11
245.0
 21
70.0
 31
0.0
  0
LINE
  8
0
  6
CONTINUOUS
 62
   249
 10
235.0
 20
70.0
 30
0.0
 11
237.5
 21
72.5
 31
0.0
  0
LINE
  8
0
  6
CONTINUOUS
 62
   249
 10
240.0
 20
70.0
 30
0.0
 11
242.5
 21
72.5
 31
0.0
  0
LINE
  8
0
  6
CONTINUOUS
 62
   249
 10
245.0
 20
70.0
 30
0.0
 11
247.5
 21
72.5
 31
0.0
  0
LINE
  8
0
  6
CONTINUOUS
 62
   249
 10
240.0
 20
70.0
 30
0.0
 11
240.0
 21
57.5
 31
0.0
  0
LINE
  8
0
  6
CONTINUOUS
 62
   249
 10
225.0
 20
75.0
 30
0.0
 11
225.0
 21
57.5
 31
0.0
  0
LINE
  8
0
  6
CONTINUOUS
 62
   249
 10
220.0
 20
75.0
 30
0.0
 11
220.0
 21
57.5
 31
0.0
  0
LINE
  8
0
  6
DASHED
 62
   249
 10
225.0
 20
57.5
 30
0.0
 11
225.0
 21
50.0
 31
0.0
  0
LINE
  8
0
  6
DASHED
 62
   249
 10
240.0
 20
57.5
 30
0.0
 11
240.0
 21
50.0
 31
0.0
  0
LINE
  8
0
  6
DASHED
 62
   249
 10
220.0
 20
57.5
 30
0.0
 11
220.0
 21
50.0
 31
0.0
  0
LINE
  8
0
  6
DASHED
 62
   249
 10
167.5
 20
57.5
 30
0.0
 11
167.5
 21
50.0
 31
0.0
  0
LINE
  8
0
  6
DASHED
 62
   249
 10
162.5
 20
57.5
 30
0.0
 11
162.5
 21
50.0
 31
0.0
  0
LINE
  8
0
  6
DASHED
 62
   249
 10
157.5
 20
57.5
 30
0.0
 11
157.5
 21
50.0
 31
0.0
  0
LINE
  8
0
  6
CONTINUOUS
 62
   249
 10
177.5
 20
137.732891
 30
0.0
 11
207.950615
 21
137.732891
 31
0.0
  0
TEXT
  8
0
  6
CONTINUOUS
 62
   249
 10
189.408766
 20
133.795815
 30
0.0
 40
2.5
  1
IRF
 11
189.408766
 21
132.962481
 31
0.0
 73
     1
  0
LINE
  8
0
  6
CONTINUOUS
 62
   249
 10
207.950615
 20
132.5
 30
0.0
 11
177.5
 21
132.5
 31
0.0
  0
LINE
  8
0
  6
CONTINUOUS
 62
   249
 10
207.950615
 20
212.5
 30
0.0
 11
207.950615
 21
132.5
 31
0.0
  0
LINE
  8
0
  6
CONTINUOUS
 62
   249
 10
162.5
 20
85.0
 30
0.0
 11
162.5
 21
57.5
 31
0.0
  0
LINE
  8
0
  6
CONTINUOUS
 62
   249
 10
177.5
 20
145.0
 30
0.0
 11
207.950615
 21
145.0
 31
0.0
  0
TEXT
  8
0
  6
CONTINUOUS
 62
   249
 10
181.230324
 20
139.807235
 30
0.0
 40
2.5
  1
SERIAL I/O
  0
CIRCLE
  8
0
  6
CONTINUOUS
 62
   249
 10
176.512659
 20
134.998324
 30
0.0
 40
1.0
  0
LINE
  8
0
  6
CONTINUOUS
 62
   249
 10
177.5
 20
212.5
 30
0.0
 11
207.950615
 21
212.5
 31
0.0
  0
LINE
  8
0
  6
CONTINUOUS
 62
   249
 10
197.5
 20
145.0
 30
0.0
 11
197.5
 21
212.5
 31
0.0
  0
LINE
  8
0
  6
CONTINUOUS
 62
   249
 10
177.5
 20
212.5
 30
0.0
 11
177.5
 21
132.5
 31
0.0
  0
LINE
  8
0
  6
CENTER
 62
   249
 10
42.5
 20
230.0
 30
0.0
 11
42.5
 21
57.5
 31
0.0
  0
LINE
  8
0
  6
CENTER
 62
   249
 10
42.5
 20
57.5
 30
0.0
 11
260.0
 21
57.5
 31
0.0
  0
LINE
  8
0
  6
CONTINUOUS
 62
   249
 10
150.0
 20
67.5
 30
0.0
 11
152.5
 21
67.5
 31
0.0
  0
LINE
  8
0
  6
CONTINUOUS
 62
   249
 10
152.5
 20
67.5
 30
0.0
 11
152.5
 21
57.5
 31
0.0
  0
LINE
  8
0
  6
CONTINUOUS
 62
   249
 10
157.5
 20
75.0
 30
0.0
 11
157.5
 21
57.5
 31
0.0
  0
LINE
  8
0
  6
CONTINUOUS
 62
   249
 10
240.0
 20
175.0
 30
0.0
 11
241.0
 21
174.0
 31
0.0
  0
LINE
  8
0
  6
CONTINUOUS
 62
   249
 10
240.0
 20
217.5
 30
0.0
 11
241.0
 21
218.5
 31
0.0
  0
LINE
  8
0
  6
CONTINUOUS
 62
   249
 10
240.0
 20
217.5
 30
0.0
 11
240.0
 21
192.5
 31
0.0
  0
LINE
  8
0
  6
CONTINUOUS
 62
   249
 10
220.0
 20
141.434542
 30
0.0
 11
207.950615
 21
141.434542
 31
0.0
  0
LINE
  8
0
  6
CONTINUOUS
 62
   249
 10
240.0
 20
192.5
 30
0.0
 11
240.0
 21
175.0
 31
0.0
  0
LINE
  8
0
  6
CENTER
 62
   249
 10
260.0
 20
230.0
 30
0.0
 11
42.5
 21
230.0
 31
0.0
  0
LINE
  8
0
  6
CONTINUOUS
 62
   249
 10
251.338166
 20
78.592819
 30
0.0
 11
253.257416
 21
81.280896
 31
0.0
  0
TEXT
  8
0
  6
CONTINUOUS
 62
   249
 10
254.637977
 20
81.707347
 30
0.0
 40
2.0
  1
9
  7
ROMANS
  0
TEXT
  8
0
  6
CONTINUOUS
 62
   249
 10
236.696317
 20
76.142085
 30
0.0
 40
2.0
  1
SERIAL PORT
  7
ROMANS
  0
ARC
  8
0
  6
CONTINUOUS
 62
   249
 10
262.5
 20
80.0
 30
0.0
 40
2.5
 50
90.0
 51
270.0
  0
LINE
  8
0
  6
CONTINUOUS
 62
   249
 10
261.819436
 20
80.49
 30
0.0
 11
261.819436
 21
79.51
 31
0.0
  0
LINE
  8
0
  6
CONTINUOUS
 62
   249
 10
261.819436
 20
79.51
 30
0.0
 11
265.249436
 21
79.51
 31
0.0
  0
LINE
  8
0
  6
CONTINUOUS
 62
   249
 10
265.249436
 20
79.51
 30
0.0
 11
265.249436
 21
80.49
 31
0.0
  0
LINE
  8
0
  6
CONTINUOUS
 62
   249
 10
265.249436
 20
80.49
 30
0.0
 11
261.819436
 21
80.49
 31
0.0
  0
LINE
  8
0
  6
DASHED
 62
   249
 10
42.5
 20
115.0
 30
0.0
 11
37.5
 21
115.0
 31
0.0
  0
LINE
  8
0
  6
DASHED
 62
   249
 10
42.5
 20
105.0
 30
0.0
 11
37.5
 21
105.0
 31
0.0
  0
LINE
  8
0
  6
DASHED
 62
   249
 10
42.5
 20
95.0
 30
0.0
 11
37.5
 21
95.0
 31
0.0
  0
LINE
  8
0
  6
DASHED
 62
   249
 10
42.5
 20
90.0
 30
0.0
 11
37.5
 21
90.0
 31
0.0
  0
LINE
  8
0
  6
DASHED
 62
   249
 10
42.5
 20
62.5
 30
0.0
 11
37.5
 21
62.5
 31
0.0
  0
LINE
  8
0
  6
CONTINUOUS
 62
   249
 10
35.0
 20
99.999655
 30
0.0
 11
36.0
 21
98.999655
 31
0.0
  0
TEXT
  8
0
  6
CONTINUOUS
 62
   249
 10
27.5
 20
61.500038
 30
0.0
 40
2.0
  1
4)
  7
ROMANS
  0
LINE
  8
0
  6
CONTINUOUS
 62
   249
 10
177.5
 20
167.5
 30
0.0
 11
207.950615
 21
167.5
 31
0.0
  0
LINE
  8
0
  6
CONTINUOUS
 62
   249
 10
380.0
 20
255.200267
 30
0.0
 11
362.5
 21
255.200267
 31
0.0
  0
TEXT
  8
0
 62
   249
 10
370.837049
 20
75.114703
 30
0.0
 40
2.0
  1
In=5A
  7
ROMANS
 11
370.837049
 21
74.448036
 31
0.0
 73
     1
  0
TEXT
  8
0
 62
   249
 10
354.837049
 20
75.114703
 30
0.0
 40
2.0
  1
In=1A 
  7
ROMANS
 11
354.837049
 21
74.448036
 31
0.0
 73
     1
  0
TEXT
  8
0
 62
   249
 10
344.837049
 20
80.380309
 30
0.0
 40
2.0
  1
TERMINALS / UTTAG
  7
ROMANS
 11
344.837049
 21
79.713642
 31
0.0
 73
     1
  0
LINE
  8
0
 62
   249
 10
352.837049
 20
74.448036
 30
0.0
 11
382.837049
 21
74.448036
 31
0.0
  0
LINE
  8
0
 62
   249
 10
366.837049
 20
78.524389
 30
0.0
 11
366.837049
 21
37.211897
 31
0.0
  0
LINE
  8
0
 62
   249
 10
352.837049
 20
78.524389
 30
0.0
 11
352.837049
 21
37.211897
 31
0.0
  0
LINE
  8
0
 62
   249
 10
338.837049
 20
78.524389
 30
0.0
 11
382.837049
 21
78.524389
 31
0.0
  0
LINE
  8
0
 62
   249
 10
382.837049
 20
37.211897
 30
0.0
 11
382.837049
 21
84.524389
 31
0.0
  0
LINE
  8
0
 62
   249
 10
338.837049
 20
84.524389
 30
0.0
 11
338.837049
 21
37.211897
 31
0.0
  0
LINE
  8
0
 62
   249
 10
382.837049
 20
84.524389
 30
0.0
 11
338.837049
 21
84.524389
 31
0.0
  0
LINE
  8
0
  6
CONTINUOUS
 62
   249
 10
338.837049
 20
37.211897
 30
0.0
 11
382.837049
 21
37.211897
 31
0.0
  0
LINE
  8
0
  6
CONTINUOUS
 62
   249
 10
172.5
 20
95.0
 30
0.0
 11
172.5
 21
57.5
 31
0.0
  0
LINE
  8
0
  6
CONTINUOUS
 62
   249
 10
167.5
 20
90.0
 30
0.0
 11
167.5
 21
57.5
 31
0.0
  0
TEXT
  8
0
  6
CONTINUOUS
 62
   249
 10
155.445572
 20
57.877099
 30
0.0
 40
2.0
  1
18
 50
90.0
  7
ROMANS
  0
TEXT
  8
0
  6
CONTINUOUS
 62
   249
 10
160.568127
 20
57.877099
 30
0.0
 40
2.0
  1
15
 50
90.0
  7
ROMANS
  0
TEXT
  8
0
  6
CONTINUOUS
 62
   249
 10
165.523885
 20
57.877099
 30
0.0
 40
2.0
  1
13
 50
90.0
  7
ROMANS
  0
TEXT
  8
0
  6
CONTINUOUS
 62
   249
 10
175.428239
 20
58.561614
 30
0.0
 40
2.0
  1
8
 50
90.0
  7
ROMANS
  0
TEXT
  8
0
  6
CONTINUOUS
 62
   249
 10
170.587502
 20
57.877099
 30
0.0
 40
2.0
  1
10
 50
90.0
  7
ROMANS
  0
TEXT
  8
0
  6
CONTINUOUS
 62
   249
 10
223.138441
 20
58.708915
 30
0.0
 40
2.0
  1
1
 50
90.0
  7
ROMANS
  0
TEXT
  8
0
  6
CONTINUOUS
 62
   249
 10
228.191192
 20
58.708915
 30
0.0
 40
2.0
  1
2
 50
90.0
  7
ROMANS
  0
LINE
  8
0
  6
CONTINUOUS
 62
   249
 10
232.5
 20
80.0
 30
0.0
 11
260.0
 21
80.0
 31
0.0
  0
LINE
  8
0
  6
CONTINUOUS
 62
   249
 10
225.0
 20
77.929605
 30
0.0
 11
225.0
 21
75.0
 31
0.0
  0
LINE
  8
0
  6
CONTINUOUS
 62
   249
 10
220.0
 20
77.929605
 30
0.0
 11
220.0
 21
75.0
 31
0.0
  0
LINE
  8
0
  6
CONTINUOUS
 62
   249
 10
225.0
 20
92.5
 30
0.0
 11
225.0
 21
87.252154
 31
0.0
  0
LINE
  8
0
  6
CONTINUOUS
 62
   249
 10
220.0
 20
92.5
 30
0.0
 11
220.0
 21
87.252154
 31
0.0
  0
LINE
  8
0
 62
   249
 10
222.466311
 20
80.22844
 30
0.0
 11
226.466311
 21
80.22844
 31
0.0
  0
LINE
  8
0
 62
   249
 10
218.709901
 20
85.174464
 30
0.0
 11
222.709901
 21
85.174464
 31
0.0
  0
LINE
  8
0
 62
   249
 10
217.795103
 20
78.886207
 30
0.0
 11
226.158613
 21
87.252154
 31
0.0
  0
LINE
  8
0
 62
   249
 10
218.779395
 20
77.929605
 30
0.0
 11
227.119756
 21
86.267352
 31
0.0
  0
LINE
  8
0
 62
   249
 10
217.795103
 20
77.929605
 30
0.0
 11
217.795103
 21
87.252154
 31
0.0
  0
LINE
  8
0
 62
   249
 10
227.119756
 20
77.929605
 30
0.0
 11
217.795103
 21
77.929605
 31
0.0
  0
LINE
  8
0
 62
   249
 10
227.119756
 20
87.252154
 30
0.0
 11
227.119756
 21
77.929605
 31
0.0
  0
LINE
  8
0
 62
   249
 10
217.795103
 20
87.252154
 30
0.0
 11
227.119756
 21
87.252154
 31
0.0
  0
TEXT
  8
0
  6
CONTINUOUS
 62
   249
 10
219.366734
 20
93.05315
 30
0.0
 40
2.0
  1
+
  0
TEXT
  8
0
  6
CONTINUOUS
 62
   249
 10
224.297086
 20
93.077719
 30
0.0
 40
2.0
  1
-
  0
LINE
  8
0
  6
CONTINUOUS
 62
   249
 10
266.0
 20
184.0
 30
0.0
 11
265.0
 21
185.0
 31
0.0
  0
LINE
  8
0
  6
CONTINUOUS
 62
   249
 10
266.0
 20
184.0
 30
0.0
 11
266.0
 21
177.0
 31
0.0
  0
LINE
  8
0
  6
CONTINUOUS
 62
   249
 10
266.0
 20
177.0
 30
0.0
 11
265.0
 21
176.0
 31
0.0
  0
LINE
  8
0
  6
CONTINUOUS
 62
   249
 10
270.0
 20
202.5
 30
0.0
 11
266.0
 21
202.5
 31
0.0
  0
LINE
  8
0
  6
CONTINUOUS
 62
   249
 10
270.0
 20
182.5
 30
0.0
 11
266.0
 21
182.5
 31
0.0
  0
LINE
  8
0
  6
CONTINUOUS
 62
   249
 10
266.0
 20
197.0
 30
0.0
 11
265.0
 21
196.0
 31
0.0
  0
LINE
  8
0
  6
CONTINUOUS
 62
   249
 10
266.0
 20
204.0
 30
0.0
 11
266.0
 21
197.0
 31
0.0
  0
LINE
  8
0
  6
CONTINUOUS
 62
   249
 10
266.0
 20
204.0
 30
0.0
 11
265.0
 21
205.0
 31
0.0
  0
LINE
  8
0
  6
CONTINUOUS
 62
   249
 10
266.0
 20
221.5
 30
0.0
 11
265.0
 21
222.5
 31
0.0
  0
LINE
  8
0
  6
CONTINUOUS
 62
   249
 10
266.0
 20
214.5
 30
0.0
 11
265.0
 21
213.5
 31
0.0
  0
LINE
  8
0
  6
CONTINUOUS
 62
   249
 10
266.0
 20
221.5
 30
0.0
 11
266.0
 21
214.5
 31
0.0
  0
LINE
  8
0
  6
CONTINUOUS
 62
   249
 10
270.0
 20
220.0
 30
0.0
 11
266.0
 21
220.0
 31
0.0
  0
LINE
  8
0
  6
CONTINUOUS
 62
   249
 10
260.0
 20
177.5
 30
0.0
 11
264.266471
 21
177.5
 31
0.0
  0
LINE
  8
0
  6
CONTINUOUS
 62
   249
 10
260.0
 20
182.5
 30
0.0
 11
264.266471
 21
182.5
 31
0.0
  0
LINE
  8
0
  6
CONTINUOUS
 62
   249
 10
260.0
 20
197.5
 30
0.0
 11
264.266471
 21
197.5
 31
0.0
  0
LINE
  8
0
  6
CONTINUOUS
 62
   249
 10
260.0
 20
202.5
 30
0.0
 11
264.266471
 21
202.5
 31
0.0
  0
LINE
  8
0
  6
CONTINUOUS
 62
   249
 10
260.0
 20
215.0
 30
0.0
 11
264.266471
 21
215.0
 31
0.0
  0
LINE
  8
0
  6
CONTINUOUS
 62
   249
 10
260.0
 20
220.0
 30
0.0
 11
264.266471
 21
220.0
 31
0.0
  0
TEXT
  8
0
  6
CONTINUOUS
 62
   249
 10
344.279773
 20
66.016535
 30
0.0
 40
2.0
  1
L2     
  7
ROMANS
  0
TEXT
  8
0
  6
CONTINUOUS
 62
   249
 10
344.279773
 20
62.683202
 30
0.0
 40
2.0
  1
L3
  7
ROMANS
  0
TEXT
  8
0
  6
CONTINUOUS
 62
   249
 10
356.939551
 20
65.988655
 30
0.0
 40
2.0
  1
4-6     
  7
ROMANS
  0
TEXT
  8
0
  6
CONTINUOUS
 62
   249
 10
356.939551
 20
62.655322
 30
0.0
 40
2.0
  1
7-9
  7
ROMANS
  0
TEXT
  8
0
  6
CONTINUOUS
 62
   249
 10
372.323007
 20
65.988655
 30
0.0
 40
2.0
  1
4-5
  7
ROMANS
  0
TEXT
  8
0
  6
CONTINUOUS
 62
   249
 10
372.323007
 20
62.655322
 30
0.0
 40
2.0
  1
7-8
  7
ROMANS
  0
LINE
  8
0
  6
CONTINUOUS
 62
   249
 10
140.0
 20
62.5
 30
0.0
 11
140.0
 21
65.0
 31
0.0
  0
LINE
  8
0
  6
CONTINUOUS
 62
   249
 10
145.0
 20
67.5
 30
0.0
 11
139.256076
 21
64.285297
 31
0.0
  0
LINE
  8
0
  6
CONTINUOUS
 62
   249
 10
145.0
 20
67.5
 30
0.0
 11
150.0
 21
67.5
 31
0.0
  0
TEXT
  8
0
  6
CONTINUOUS
 62
   249
 10
42.5
 20
51.453065
 30
0.0
 40
2.0
  1
DIM. 172 X 217
  7
ROMANS
  0
LINE
  8
0
  6
DASHED
 62
   249
 10
310.0
 20
215.189992
 30
0.0
 11
310.0
 21
170.0
 31
0.0
  0
LINE
  8
0
  6
DASHED
 62
   249
 10
280.0
 20
210.0
 30
0.0
 11
280.0
 21
172.5
 31
0.0
  0
LINE
  8
0
  6
DASHED
 62
   249
 10
325.006921
 20
177.689984
 30
0.0
 11
310.0
 21
177.689984
 31
0.0
  0
LINE
  8
0
  6
DASHED
 62
   249
 10
320.069797
 20
197.689984
 30
0.0
 11
310.0
 21
197.689984
 31
0.0
  0
LINE
  8
0
  6
DASHED
 62
   249
 10
315.0
 20
192.5
 30
0.0
 11
315.0
 21
167.5
 31
0.0
  0
LINE
  8
0
  6
DASHED
 62
   249
 10
320.0
 20
192.5
 30
0.0
 11
320.0
 21
167.5
 31
0.0
  0
LINE
  8
0
  6
DASHED
 62
   249
 10
325.0
 20
192.5
 30
0.0
 11
325.0
 21
167.5
 31
0.0
  0
LINE
  8
0
  6
DASHED
 62
   249
 10
315.0
 20
235.0
 30
0.0
 11
315.0
 21
192.5
 31
0.0
  0
LINE
  8
0
  6
DASHED
 62
   249
 10
320.0
 20
235.0
 30
0.0
 11
320.0
 21
192.5
 31
0.0
  0
LINE
  8
0
  6
DASHED
 62
   249
 10
325.0
 20
235.0
 30
0.0
 11
325.0
 21
192.5
 31
0.0
  0
LINE
  8
0
  6
DASHED
 62
   249
 10
315.0
 20
215.189992
 30
0.0
 11
310.0
 21
215.189992
 31
0.0
  0
LINE
  8
0
  6
DASHED
 62
   249
 10
260.0
 20
172.5
 30
0.0
 11
310.0
 21
172.5
 31
0.0
  0
LINE
  8
0
  6
DASHED
 62
   249
 10
270.0
 20
182.5
 30
0.0
 11
325.0
 21
182.5
 31
0.0
  0
LINE
  8
0
  6
DASHED
 62
   249
 10
260.0
 20
192.5
 30
0.0
 11
280.0
 21
192.5
 31
0.0
  0
LINE
  8
0
  6
DASHED
 62
   249
 10
270.0
 20
202.5
 30
0.0
 11
320.0
 21
202.5
 31
0.0
  0
LINE
  8
0
  6
DASHED
 62
   249
 10
260.0
 20
210.0
 30
0.0
 11
280.0
 21
210.0
 31
0.0
  0
LINE
  8
0
  6
DASHED
 62
   249
 10
270.0
 20
220.0
 30
0.0
 11
315.0
 21
220.0
 31
0.0
  0
LINE
  8
0
  6
CONTINUOUS
 62
   249
 10
177.5
 20
190.0
 30
0.0
 11
207.950615
 21
190.0
 31
0.0
  0
TEXT
  8
0
  6
CONTINUOUS
 62
   249
 10
201.62812
 20
208.041623
 30
0.0
 40
2.5
  1
U1
  7
ROMANS
  0
TEXT
  8
0
  6
CONTINUOUS
 62
   249
 10
201.62812
 20
186.36521
 30
0.0
 40
2.5
  1
U2
  7
ROMANS
  0
TEXT
  8
0
  6
CONTINUOUS
 62
   249
 10
201.62812
 20
160.954516
 30
0.0
 40
2.5
  1
U3
  7
ROMANS
  0
TEXT
  8
0
  6
CONTINUOUS
 62
   249
 10
198.98251
 20
179.129689
 30
0.0
 40
2.0
  1
3I/3I
  7
GREEKS
  0
TEXT
  8
0
  6
CONTINUOUS
 62
   249
 10
201.304856
 20
154.47383
 30
0.0
 40
2.5
  1
3I
  7
GREEKS
  0
LINE
  8
0
  6
CONTINUOUS
 62
   249
 10
42.5
 20
85.0
 30
0.0
 11
125.0
 21
85.0
 31
0.0
  0
LINE
  8
0
  6
CONTINUOUS
 62
   249
 10
130.0
 20
85.0
 30
0.0
 11
124.256076
 21
81.785297
 31
0.0
  0
LINE
  8
0
  6
CONTINUOUS
 62
   249
 10
125.0
 20
80.0
 30
0.0
 11
125.0
 21
82.5
 31
0.0
  0
LINE
  8
0
  6
CONTINUOUS
 62
   249
 10
125.0
 20
80.0
 30
0.0
 11
42.5
 21
80.0
 31
0.0
  0
TEXT
  8
0
  6
CONTINUOUS
 62
   249
 10
43.306147
 20
131.636967
 30
0.0
 40
2.0
  1
X1
  7
ROMANS
  0
LINE
  8
0
  6
CONTINUOUS
 62
   249
 10
175.51266
 20
135.0
 30
0.0
 11
142.5
 21
135.0
 31
0.0
  0
LINE
  8
0
  6
CONTINUOUS
 62
   249
 10
325.0
 20
155.0
 30
0.0
 11
295.0
 21
155.0
 31
0.0
  0
LINE
  8
0
  6
CONTINUOUS
 62
   249
 10
325.0
 20
166.776482
 30
0.0
 11
325.0
 21
165.819554
 31
0.0
  0
ARC
  8
0
  6
CONTINUOUS
 62
   249
 10
325.0
 20
164.754469
 30
0.0
 40
1.065085
 50
270.0
 51
90.0
  0
ARC
  8
0
  6
CONTINUOUS
 62
   249
 10
325.0
 20
162.6243
 30
0.0
 40
1.065085
 50
270.0
 51
90.0
  0
ARC
  8
0
  6
CONTINUOUS
 62
   249
 10
325.0
 20
160.49413
 30
0.0
 40
1.065085
 50
270.0
 51
90.0
  0
ARC
  8
0
  6
CONTINUOUS
 62
   249
 10
325.0
 20
158.363961
 30
0.0
 40
1.065085
 50
270.0
 51
90.0
  0
LINE
  8
0
  6
CONTINUOUS
 62
   249
 10
325.0
 20
157.298876
 30
0.0
 11
325.0
 21
155.0
 31
0.0
  0
LINE
  8
0
  6
CONTINUOUS
 62
   249
 10
320.0
 20
166.776482
 30
0.0
 11
320.0
 21
165.819554
 31
0.0
  0
ARC
  8
0
  6
CONTINUOUS
 62
   249
 10
320.0
 20
164.754469
 30
0.0
 40
1.065085
 50
270.0
 51
90.0
  0
ARC
  8
0
  6
CONTINUOUS
 62
   249
 10
320.0
 20
162.6243
 30
0.0
 40
1.065085
 50
270.0
 51
90.0
  0
ARC
  8
0
  6
CONTINUOUS
 62
   249
 10
320.0
 20
160.49413
 30
0.0
 40
1.065085
 50
270.0
 51
90.0
  0
ARC
  8
0
  6
CONTINUOUS
 62
   249
 10
320.0
 20
158.363961
 30
0.0
 40
1.065085
 50
270.0
 51
90.0
  0
LINE
  8
0
  6
CONTINUOUS
 62
   249
 10
320.0
 20
157.298876
 30
0.0
 11
320.0
 21
155.0
 31
0.0
  0
LINE
  8
0
  6
CONTINUOUS
 62
   249
 10
315.0
 20
166.776482
 30
0.0
 11
315.0
 21
165.819554
 31
0.0
  0
ARC
  8
0
  6
CONTINUOUS
 62
   249
 10
315.0
 20
164.754469
 30
0.0
 40
1.065085
 50
270.0
 51
90.0
  0
ARC
  8
0
  6
CONTINUOUS
 62
   249
 10
315.0
 20
162.6243
 30
0.0
 40
1.065085
 50
270.0
 51
90.0
  0
ARC
  8
0
  6
CONTINUOUS
 62
   249
 10
315.0
 20
160.49413
 30
0.0
 40
1.065085
 50
270.0
 51
90.0
  0
ARC
  8
0
  6
CONTINUOUS
 62
   249
 10
315.0
 20
158.363961
 30
0.0
 40
1.065085
 50
270.0
 51
90.0
  0
LINE
  8
0
  6
CONTINUOUS
 62
   249
 10
315.0
 20
157.298876
 30
0.0
 11
315.0
 21
155.0
 31
0.0
  0
ARC
  8
0
  6
CONTINUOUS
 62
   249
 10
325.0
 20
136.587479
 30
0.0
 40
1.065085
 50
270.0
 51
90.0
  0
ARC
  8
0
  6
CONTINUOUS
 62
   249
 10
325.0
 20
138.717648
 30
0.0
 40
1.065085
 50
270.0
 51
90.0
  0
ARC
  8
0
  6
CONTINUOUS
 62
   249
 10
325.0
 20
140.847818
 30
0.0
 40
1.065085
 50
270.0
 51
90.0
  0
ARC
  8
0
  6
CONTINUOUS
 62
   249
 10
325.0
 20
142.977987
 30
0.0
 40
1.065085
 50
270.0
 51
90.0
  0
LINE
  8
0
  6
CONTINUOUS
 62
   249
 10
325.0
 20
145.0
 30
0.0
 11
325.0
 21
144.043072
 31
0.0
  0
LINE
  8
0
  6
CONTINUOUS
 62
   249
 10
325.0
 20
135.522394
 30
0.0
 11
325.0
 21
132.5
 31
0.0
  0
LINE
  8
0
  6
CONTINUOUS
 62
   249
 10
320.0
 20
135.522394
 30
0.0
 11
320.0
 21
132.5
 31
0.0
  0
LINE
  8
0
  6
CONTINUOUS
 62
   249
 10
320.0
 20
147.5
 30
0.0
 11
320.0
 21
144.043072
 31
0.0
  0
ARC
  8
0
  6
CONTINUOUS
 62
   249
 10
320.0
 20
142.977987
 30
0.0
 40
1.065085
 50
270.0
 51
90.0
  0
ARC
  8
0
  6
CONTINUOUS
 62
   249
 10
320.0
 20
140.847818
 30
0.0
 40
1.065085
 50
270.0
 51
90.0
  0
ARC
  8
0
  6
CONTINUOUS
 62
   249
 10
320.0
 20
138.717648
 30
0.0
 40
1.065085
 50
270.0
 51
90.0
  0
ARC
  8
0
  6
CONTINUOUS
 62
   249
 10
320.0
 20
136.587479
 30
0.0
 40
1.065085
 50
270.0
 51
90.0
  0
ARC
  8
0
  6
CONTINUOUS
 62
   249
 10
315.0
 20
136.587479
 30
0.0
 40
1.065085
 50
270.0
 51
90.0
  0
ARC
  8
0
  6
CONTINUOUS
 62
   249
 10
315.0
 20
138.717648
 30
0.0
 40
1.065085
 50
270.0
 51
90.0
  0
ARC
  8
0
  6
CONTINUOUS
 62
   249
 10
315.0
 20
140.847818
 30
0.0
 40
1.065085
 50
270.0
 51
90.0
  0
ARC
  8
0
  6
CONTINUOUS
 62
   249
 10
315.0
 20
142.977987
 30
0.0
 40
1.065085
 50
270.0
 51
90.0
  0
LINE
  8
0
  6
CONTINUOUS
 62
   249
 10
315.0
 20
135.522394
 30
0.0
 11
315.0
 21
132.5
 31
0.0
  0
LINE
  8
0
  6
CONTINUOUS
 62
   249
 10
325.0
 20
145.0
 30
0.0
 11
325.0
 21
147.5
 31
0.0
  0
LINE
  8
0
  6
DASHED
 62
   249
 10
325.0
 20
132.5
 30
0.0
 11
325.0
 21
82.5
 31
0.0
  0
LINE
  8
0
  6
DASHED
 62
   249
 10
320.0
 20
132.5
 30
0.0
 11
320.0
 21
82.5
 31
0.0
  0
LINE
  8
0
  6
DASHED
 62
   249
 10
315.0
 20
132.5
 30
0.0
 11
315.0
 21
82.5
 31
0.0
  0
LINE
  8
0
  6
DASHED
 62
   249
 10
315.0
 20
127.689992
 30
0.0
 11
302.5
 21
127.689992
 31
0.0
  0
LINE
  8
0
  6
DASHED
 62
   249
 10
320.069797
 20
112.689984
 30
0.0
 11
302.5
 21
112.689984
 31
0.0
  0
LINE
  8
0
  6
DASHED
 62
   249
 10
325.006921
 20
95.189984
 30
0.0
 11
302.5
 21
95.189984
 31
0.0
  0
LINE
  8
0
  6
CONTINUOUS
 62
   249
 10
232.5
 20
115.0
 30
0.0
 11
240.0
 21
115.0
 31
0.0
  0
LINE
  8
0
  6
CONTINUOUS
 62
   249
 10
240.0
 20
112.5
 30
0.0
 11
240.0
 21
92.5
 31
0.0
  0
LINE
  8
0
  6
CONTINUOUS
 62
   249
 10
240.0
 20
135.0
 30
0.0
 11
240.0
 21
112.5
 31
0.0
  0
LINE
  8
0
  6
CONTINUOUS
 62
   249
 10
240.0
 20
135.0
 30
0.0
 11
241.0
 21
136.0
 31
0.0
  0
LINE
  8
0
  6
CONTINUOUS
 62
   249
 10
240.0
 20
92.5
 30
0.0
 11
241.0
 21
91.5
 31
0.0
  0
LINE
  8
0
  6
CONTINUOUS
 62
   249
 10
255.0
 20
220.0
 30
0.0
 11
260.0
 21
220.0
 31
0.0
  0
LINE
  8
0
  6
CONTINUOUS
 62
   249
 10
255.0
 20
215.0
 30
0.0
 11
260.0
 21
215.0
 31
0.0
  0
LINE
  8
0
  6
CONTINUOUS
 62
   249
 10
255.0
 20
210.0
 30
0.0
 11
260.0
 21
210.0
 31
0.0
  0
LINE
  8
0
  6
CONTINUOUS
 62
   249
 10
255.0
 20
202.5
 30
0.0
 11
260.0
 21
202.5
 31
0.0
  0
LINE
  8
0
  6
CONTINUOUS
 62
   249
 10
255.0
 20
197.5
 30
0.0
 11
260.0
 21
197.5
 31
0.0
  0
LINE
  8
0
  6
CONTINUOUS
 62
   249
 10
255.0
 20
182.5
 30
0.0
 11
260.0
 21
182.5
 31
0.0
  0
LINE
  8
0
  6
CONTINUOUS
 62
   249
 10
255.0
 20
177.5
 30
0.0
 11
260.0
 21
177.5
 31
0.0
  0
LINE
  8
0
  6
CONTINUOUS
 62
   249
 10
255.0
 20
172.5
 30
0.0
 11
260.0
 21
172.5
 31
0.0
  0
LINE
  8
0
  6
CONTINUOUS
 62
   249
 10
255.0
 20
192.5
 30
0.0
 11
260.0
 21
192.5
 31
0.0
  0
LINE
  8
0
  6
CONTINUOUS
 62
   249
 10
255.0
 20
137.5
 30
0.0
 11
260.0
 21
137.5
 31
0.0
  0
LINE
  8
0
  6
CONTINUOUS
 62
   249
 10
255.0
 20
132.5
 30
0.0
 11
260.0
 21
132.5
 31
0.0
  0
LINE
  8
0
  6
CONTINUOUS
 62
   249
 10
255.0
 20
127.5
 30
0.0
 11
260.0
 21
127.5
 31
0.0
  0
LINE
  8
0
  6
CONTINUOUS
 62
   249
 10
255.0
 20
117.5
 30
0.0
 11
260.0
 21
117.5
 31
0.0
  0
LINE
  8
0
  6
CONTINUOUS
 62
   249
 10
255.0
 20
112.5
 30
0.0
 11
260.0
 21
112.5
 31
0.0
  0
LINE
  8
0
  6
CONTINUOUS
 62
   249
 10
255.0
 20
107.5
 30
0.0
 11
260.0
 21
107.5
 31
0.0
  0
LINE
  8
0
  6
CONTINUOUS
 62
   249
 10
255.0
 20
100.0
 30
0.0
 11
260.0
 21
100.0
 31
0.0
  0
LINE
  8
0
  6
CONTINUOUS
 62
   249
 10
255.0
 20
95.0
 30
0.0
 11
260.0
 21
95.0
 31
0.0
  0
LINE
  8
0
  6
CONTINUOUS
 62
   249
 10
255.0
 20
90.0
 30
0.0
 11
260.0
 21
90.0
 31
0.0
  0
TEXT
  8
0
  6
CONTINUOUS
 62
   249
 10
52.5
 20
225.0
 30
0.0
 40
2.0
  1
1MRS 10209-AA SPAD 346 C
  7
ROMANS
  0
TEXT
  8
0
  6
CONTINUOUS
 62
   249
 10
256.659655
 20
216.628984
 30
0.0
 40
2.0
  1
3
  7
ROMANS
  0
TEXT
  8
0
  6
CONTINUOUS
 62
   249
 10
256.659655
 20
211.818921
 30
0.0
 40
2.0
  1
2
  7
ROMANS
  0
TEXT
  8
0
  6
CONTINUOUS
 62
   249
 10
257.024841
 20
206.854573
 30
0.0
 40
2.0
  1
1
  7
ROMANS
  0
TEXT
  8
0
  6
CONTINUOUS
 62
   249
 10
256.659655
 20
199.211958
 30
0.0
 40
2.0
  1
6
  7
ROMANS
  0
TEXT
  8
0
  6
CONTINUOUS
 62
   249
 10
256.659655
 20
194.23659
 30
0.0
 40
2.0
  1
5
  7
ROMANS
  0
TEXT
  8
0
  6
CONTINUOUS
 62
   249
 10
256.659655
 20
189.128977
 30
0.0
 40
2.0
  1
4
  7
ROMANS
  0
TEXT
  8
0
  6
CONTINUOUS
 62
   249
 10
256.579058
 20
179.260563
 30
0.0
 40
2.0
  1
9
  7
ROMANS
  0
TEXT
  8
0
  6
CONTINUOUS
 62
   249
 10
256.579058
 20
174.296215
 30
0.0
 40
2.0
  1
8
  7
ROMANS
  0
TEXT
  8
0
  6
CONTINUOUS
 62
   249
 10
256.579058
 20
169.034316
 30
0.0
 40
2.0
  1
7
  7
ROMANS
  0
TEXT
  8
0
  6
CONTINUOUS
 62
   249
 10
255.611243
 20
134.168399
 30
0.0
 40
2.0
  1
15
  7
ROMANS
  0
TEXT
  8
0
  6
CONTINUOUS
 62
   249
 10
255.611243
 20
128.807317
 30
0.0
 40
2.0
  1
14
  7
ROMANS
  0
TEXT
  8
0
  6
CONTINUOUS
 62
   249
 10
255.611243
 20
124.140519
 30
0.0
 40
2.0
  1
13
  7
ROMANS
  0
TEXT
  8
0
  6
CONTINUOUS
 62
   249
 10
255.611243
 20
114.156158
 30
0.0
 40
2.0
  1
18
  7
ROMANS
  0
TEXT
  8
0
  6
CONTINUOUS
 62
   249
 10
255.611243
 20
109.059565
 30
0.0
 40
2.0
  1
17
  7
ROMANS
  0
TEXT
  8
0
  6
CONTINUOUS
 62
   249
 10
255.503505
 20
103.808687
 30
0.0
 40
2.0
  1
16
  7
ROMANS
  0
TEXT
  8
0
  6
CONTINUOUS
 62
   249
 10
255.503505
 20
96.806763
 30
0.0
 40
2.0
  1
21
  7
ROMANS
  0
TEXT
  8
0
  6
CONTINUOUS
 62
   249
 10
255.606408
 20
91.743231
 30
0.0
 40
2.0
  1
20
  7
ROMANS
  0
TEXT
  8
0
  6
CONTINUOUS
 62
   249
 10
255.503505
 20
86.712761
 30
0.0
 40
2.0
  1
19
  7
ROMANS
  0
LINE
  8
0
  6
CONTINUOUS
 62
   249
 10
232.5
 20
180.0
 30
0.0
 11
232.5
 21
115.0
 31
0.0
  0
LINE
  8
0
  6
CONTINUOUS
 62
   249
 10
207.950615
 20
160.0
 30
0.0
 11
235.0
 21
160.0
 31
0.0
  0
LINE
  8
0
  6
CONTINUOUS
 62
   249
 10
235.0
 20
160.0
 30
0.0
 11
235.0
 21
187.5
 31
0.0
  0
LINE
  8
0
  6
CONTINUOUS
 62
   249
 10
207.950615
 20
180.0
 30
0.0
 11
232.5
 21
180.0
 31
0.0
  0
LINE
  8
0
  6
CONTINUOUS
 62
   249
 10
207.950615
 20
185.0
 30
0.0
 11
235.0
 21
185.0
 31
0.0
  0
LINE
  8
0
  6
CONTINUOUS
 62
   249
 10
220.0
 20
141.434542
 30
0.0
 11
220.0
 21
107.5
 31
0.0
  0
LINE
  8
0
  6
CONTINUOUS
 62
   249
 10
220.0
 20
107.5
 30
0.0
 11
232.5
 21
107.5
 31
0.0
  0
LINE
  8
0
  6
CONTINUOUS
 62
   249
 10
232.5
 20
107.5
 30
0.0
 11
232.5
 21
80.0
 31
0.0
  0
LINE
  8
0
  6
DASHED
 62
   249
 10
260.0
 20
127.5
 30
0.0
 11
277.5
 21
127.5
 31
0.0
  0
LINE
  8
0
  6
DASHED
 62
   249
 10
260.0
 20
107.5
 30
0.0
 11
277.5
 21
107.5
 31
0.0
  0
LINE
  8
0
  6
DASHED
 62
   249
 10
277.5
 20
127.5
 30
0.0
 11
277.5
 21
90.0
 31
0.0
  0
LINE
  8
0
  6
CONTINUOUS
 62
   249
 10
260.0
 20
137.5
 30
0.0
 11
264.266471
 21
137.5
 31
0.0
  0
LINE
  8
0
  6
CONTINUOUS
 62
   249
 10
260.0
 20
132.5
 30
0.0
 11
264.266471
 21
132.5
 31
0.0
  0
LINE
  8
0
  6
CONTINUOUS
 62
   249
 10
260.0
 20
117.5
 30
0.0
 11
264.266471
 21
117.5
 31
0.0
  0
LINE
  8
0
  6
CONTINUOUS
 62
   249
 10
260.0
 20
112.5
 30
0.0
 11
264.266471
 21
112.5
 31
0.0
  0
LINE
  8
0
  6
CONTINUOUS
 62
   249
 10
260.0
 20
100.0
 30
0.0
 11
264.266471
 21
100.0
 31
0.0
  0
LINE
  8
0
  6
CONTINUOUS
 62
   249
 10
260.0
 20
95.0
 30
0.0
 11
264.266471
 21
95.0
 31
0.0
  0
LINE
  8
0
  6
CONTINUOUS
 62
   249
 10
270.0
 20
137.5
 30
0.0
 11
266.0
 21
137.5
 31
0.0
  0
LINE
  8
0
  6
CONTINUOUS
 62
   249
 10
266.0
 20
139.0
 30
0.0
 11
266.0
 21
132.0
 31
0.0
  0
LINE
  8
0
  6
CONTINUOUS
 62
   249
 10
266.0
 20
132.0
 30
0.0
 11
265.0
 21
131.0
 31
0.0
  0
LINE
  8
0
  6
CONTINUOUS
 62
   249
 10
266.0
 20
139.0
 30
0.0
 11
265.0
 21
140.0
 31
0.0
  0
LINE
  8
0
  6
CONTINUOUS
 62
   249
 10
266.0
 20
119.0
 30
0.0
 11
265.0
 21
120.0
 31
0.0
  0
LINE
  8
0
  6
CONTINUOUS
 62
   249
 10
266.0
 20
119.0
 30
0.0
 11
266.0
 21
112.0
 31
0.0
  0
LINE
  8
0
  6
CONTINUOUS
 62
   249
 10
266.0
 20
112.0
 30
0.0
 11
265.0
 21
111.0
 31
0.0
  0
LINE
  8
0
  6
CONTINUOUS
 62
   249
 10
270.0
 20
100.0
 30
0.0
 11
266.0
 21
100.0
 31
0.0
  0
LINE
  8
0
  6
CONTINUOUS
 62
   249
 10
270.0
 20
117.5
 30
0.0
 11
266.0
 21
117.5
 31
0.0
  0
LINE
  8
0
  6
CONTINUOUS
 62
   249
 10
266.0
 20
94.5
 30
0.0
 11
265.0
 21
93.5
 31
0.0
  0
LINE
  8
0
  6
CONTINUOUS
 62
   249
 10
266.0
 20
101.5
 30
0.0
 11
266.0
 21
94.5
 31
0.0
  0
LINE
  8
0
  6
CONTINUOUS
 62
   249
 10
266.0
 20
101.5
 30
0.0
 11
265.0
 21
102.5
 31
0.0
  0
LINE
  8
0
  6
DASHED
 62
   249
 10
315.0
 20
132.5
 30
0.0
 11
310.0
 21
132.5
 31
0.0
  0
LINE
  8
0
  6
DASHED
 62
   249
 10
302.5
 20
127.689992
 30
0.0
 11
302.5
 21
137.5
 31
0.0
  0
LINE
  8
0
  6
DASHED
 62
   249
 10
302.5
 20
137.5
 30
0.0
 11
270.0
 21
137.5
 31
0.0
  0
LINE
  8
0
  6
DASHED
 62
   249
 10
320.0
 20
117.5
 30
0.0
 11
310.0
 21
117.5
 31
0.0
  0
LINE
  8
0
  6
DASHED
 62
   249
 10
297.5
 20
117.5
 30
0.0
 11
270.0
 21
117.5
 31
0.0
  0
LINE
  8
0
  6
DASHED
 62
   249
 10
325.0
 20
100.0
 30
0.0
 11
310.0
 21
100.0
 31
0.0
  0
LINE
  8
0
  6
DASHED
 62
   249
 10
282.5
 20
100.0
 30
0.0
 11
270.0
 21
100.0
 31
0.0
  0
LINE
  8
0
  6
DASHED
 62
   249
 10
310.0
 20
132.5
 30
0.0
 11
310.0
 21
90.0
 31
0.0
  0
LINE
  8
0
  6
DASHED
 62
   249
 10
260.0
 20
90.0
 30
0.0
 11
310.0
 21
90.0
 31
0.0
  0
TEXT
  8
0
  6
DASHED
 62
   249
 10
266.817887
 20
221.099106
 30
0.0
 40
2.0
  1
6)
  7
ROMANS
  0
TEXT
  8
0
  6
DASHED
 62
   249
 10
266.817887
 20
203.599106
 30
0.0
 40
2.0
  1
6)
  7
ROMANS
  0
TEXT
  8
0
  6
DASHED
 62
   249
 10
266.817887
 20
183.599106
 30
0.0
 40
2.0
  1
6)
  7
ROMANS
  0
TEXT
  8
0
  6
DASHED
 62
   249
 10
266.817887
 20
138.599106
 30
0.0
 40
2.0
  1
6)
  7
ROMANS
  0
TEXT
  8
0
  6
DASHED
 62
   249
 10
266.817887
 20
118.599106
 30
0.0
 40
2.0
  1
6)
  7
ROMANS
  0
TEXT
  8
0
  6
DASHED
 62
   249
 10
266.817887
 20
101.099106
 30
0.0
 40
2.0
  1
6)
  7
ROMANS
  0
LINE
  8
0
  6
DASHED
 62
   249
 10
265.0
 20
80.0
 30
0.0
 11
282.5
 21
80.0
 31
0.0
  0
TEXT
  8
0
  6
DASHED
 62
   249
 10
285.232804
 20
78.986126
 30
0.0
 40
2.0
  1
5)
  7
ROMANS
  0
TEXT
  8
0
  6
DASHED
 62
   249
 10
313.082774
 20
237.5
 30
0.0
 40
2.0
  1
(R)
  7
GREEKS
  0
TEXT
  8
0
  6
DASHED
 62
   249
 10
317.996041
 20
237.5
 30
0.0
 40
2.0
  1
(S)
  7
GREEKS
  0
TEXT
  8
0
  6
DASHED
 62
   249
 10
323.01582
 20
237.5
 30
0.0
 40
2.0
  1
(T)
  7
GREEKS
  0
TEXT
  8
0
  6
DASHED
 62
   249
 10
313.737065
 20
242.5
 30
0.0
 40
2.0
  1
L1
  7
GREEKS
  0
TEXT
  8
0
  6
DASHED
 62
   249
 10
318.341447
 20
242.5
 30
0.0
 40
2.0
  1
L2
  7
GREEKS
  0
TEXT
  8
0
  6
DASHED
 62
   249
 10
323.417528
 20
242.5
 30
0.0
 40
2.0
  1
L3
  7
GREEKS
  0
TEXT
  8
0
  6
DASHED
 62
   249
 10
355.009126
 20
209.681676
 30
0.0
 40
2.0
  1
DIFFERENTIAL RELAY
  7
ROMANS
  0
TEXT
  8
0
  6
DASHED
 62
   249
 10
355.009126
 20
205.662233
 30
0.0
 40
2.0
  1
DIFFERENTIALRELÄ
  7
ROMANS
  0
LINE
  8
0
  6
CONTINUOUS
 62
   249
 10
35.0
 20
130.0
 30
0.0
 11
36.0
 21
131.0
 31
0.0
  0
LINE
  8
0
  6
CONTINUOUS
 62
   249
 10
35.0
 20
130.0
 30
0.0
 11
35.0
 21
99.999655
 31
0.0
  0
TEXT
  8
0
  6
DASHED
 62
   249
 10
28.03868
 20
113.112804
 30
0.0
 40
2.0
  1
2)
  7
ROMANS
  0
TEXT
  8
0
  6
DASHED
 62
   249
 10
42.498888
 20
48.116187
 30
0.0
 40
2.0
  1
1MRS 10209-AAE
  7
ROMANS
  0
LINE
  8
0
  6
DASHED
 62
   249
 10
172.5
 20
57.5
 30
0.0
 11
172.5
 21
50.0
 31
0.0
  0
LINE
  8
0
  6
DASHED
 62
   249
 10
177.5
 20
57.5
 30
0.0
 11
177.5
 21
50.0
 31
0.0
  0
TEXT
  8
0
  6
CONTINUOUS
 62
   249
 10
344.279773
 20
40.062529
 30
0.0
 40
2.0
  1
L3'
  7
ROMANS
  0
TEXT
  8
0
  6
CONTINUOUS
 62
   249
 10
344.279773
 20
43.395863
 30
0.0
 40
2.0
  1
L2'
  7
ROMANS
  0
TEXT
  8
0
  6
DASHED
 62
   249
 10
344.294989
 20
46.691262
 30
0.0
 40
2.0
  1
L1'
  7
ROMANS
  0
TEXT
  8
0
  6
DASHED
 62
   249
 10
355.93529
 20
46.603099
 30
0.0
 40
2.0
  1
13-15
  7
ROMANS
  0
TEXT
  8
0
  6
DASHED
 62
   249
 10
370.390565
 20
46.603099
 30
0.0
 40
2.0
  1
13-14
  7
ROMANS
  0
TEXT
  8
0
  6
DASHED
 62
   249
 10
355.93529
 20
43.396171
 30
0.0
 40
2.0
  1
16-18
  7
ROMANS
  0
TEXT
  8
0
  6
DASHED
 62
   249
 10
370.344917
 20
43.407191
 30
0.0
 40
2.0
  1
16-17
  7
ROMANS
  0
TEXT
  8
0
  6
DASHED
 62
   249
 10
355.950506
 20
40.090059
 30
0.0
 40
2.0
  1
19-21
  7
ROMANS
  0
TEXT
  8
0
  6
DASHED
 62
   249
 10
370.344917
 20
40.090059
 30
0.0
 40
2.0
  1
19-20
  7
ROMANS
  0
TEXT
  8
0
  6
DASHED
 62
   249
 10
333.434499
 20
109.145631
 30
0.0
 40
2.0
  1
3) ALARM ETC.
  7
ROMANS
  0
TEXT
  8
0
  6
DASHED
 62
   249
 10
338.458519
 20
105.812297
 30
0.0
 40
2.0
  1
SIGNAL MM.
  7
ROMANS
  0
TEXT
  8
0
  6
DASHED
 62
   249
 10
333.434499
 20
99.978964
 30
0.0
 40
2.0
  1
4) INTERNAL RELAY FAULT, IRF
  7
ROMANS
  0
TEXT
  8
0
  6
DASHED
 62
   249
 10
338.664197
 20
96.645631
 30
0.0
 40
2.0
  1
INTERNT RELÄFEL, IRF
  7
ROMANS
  0
TEXT
  8
0
  6
DASHED
 62
   249
 10
333.434499
 20
90.812297
 30
0.0
 40
2.0
  1
5) BUS CONNECTION MODULE
  7
ROMANS
  0
TEXT
  8
0
  6
DASHED
 62
   249
 10
333.4855
 20
83.6898
 30
0.0
 40
2.0
  1
6)
  7
ROMANS
  0
TEXT
  8
0
  6
DASHED
 62
   249
 10
210.704658
 20
27.85902
 30
0.0
 40
2.0
  1
94-11-03 KM / AD-ELECT.
  7
ROMANS
  0
TEXT
  8
0
  6
DASHED
 62
   249
 10
317.5
 20
27.5
 30
0.0
 40
2.0
  1
TERMINAL DIAGRAM / UTTAGSSCHEMA
  7
ROMANS
  0
TEXT
  8
0
  6
DASHED
 62
   249
 10
317.5
 20
24.166667
 30
0.0
 40
2.0
  1
SPAD 346 C4
  7
ROMANS
  0
LINE
  8
0
 62
   249
 10
0.237099
 20
0.237999
 30
0.0
 11
0.237099
 21
262.737999
 31
0.0
  0
LINE
  8
0
 62
   249
 10
392.237099
 20
262.737999
 30
0.0
 11
392.237099
 21
0.237999
 31
0.0
  0
LINE
  8
0
 62
   249
 10
0.237099
 20
0.237999
 30
0.0
 11
392.237099
 21
0.237999
 31
0.0
  0
TEXT
  8
0
 62
   249
 10
42.237099
 20
5.587508
 30
0.0
 40
2.5
  1
C
  7
ROMANS
  0
TEXT
  8
0
 62
   249
 10
42.237099
 20
1.195292
 30
0.0
 40
2.5
  1
B
  7
ROMANS
  0
TEXT
  8
0
 62
   249
 10
257.407006
 20
1.741783
 30
0.0
 40
3.0
  1
Power
 41
0.8
  7
ROMANS
  0
TEXT
  8
0
 62
   249
 10
273.237099
 20
7.237999
 30
0.0
 40
1.4
  1
VAST.OSASTO RESP.DEPT.
  7
ROMANS
  0
TEXT
  8
0
 62
   249
 10
210.237099
 20
32.237999
 30
0.0
 40
1.4
  1
TEKI  PREPARED
  7
ROMANS
  0
LINE
  8
0
 62
   249
 10
271.237099
 20
9.737999
 30
0.0
 11
271.237099
 21
0.237999
 31
0.0
  0
LINE
  8
0
 62
   249
 10
257.237099
 20
9.737999
 30
0.0
 11
257.237099
 21
35.237999
 31
0.0
  0
LINE
  8
0
 62
   249
 10
40.737099
 20
4.737999
 30
0.0
 11
209.237099
 21
4.737999
 31
0.0
  0
LINE
  8
0
 62
   249
 10
46.737099
 20
0.237999
 30
0.0
 11
46.737099
 21
9.237999
 31
0.0
  0
LINE
  8
0
 62
   249
 10
46.737099
 20
9.237999
 30
0.0
 11
209.237099
 21
9.237999
 31
0.0
  0
TEXT
  8
0
 62
   249
 10
27.737099
 20
2.471333
 30
0.0
 40
1.4
  1
REVISION
  7
ROMANS
  0
TEXT
  8
0
 62
   249
 10
27.737099
 20
4.737999
 30
0.0
 40
1.4
  1
MUUTOS
  7
ROMANS
  0
LINE
  8
0
 62
   249
 10
282.237099
 20
9.737999
 30
0.0
 11
282.237099
 21
18.237999
 31
0.0
  0
TEXT
  8
0
 62
   249
 10
237.737099
 20
1.737999
 30
0.0
 40
3.0
  1
Strömberg
 41
0.8
  7
ROMANS
  0
TEXT
  8
0
 62
   249
 10
229.737099
 20
1.737999
 30
0.0
 40
3.0
  1
ABB 
 41
0.8
  7
ROMANS
  0
LINE
  8
0
 62
   249
 10
223.137099
 20
1.737999
 30
0.0
 11
223.137099
 21
5.097999
 31
0.0
  0
LINE
  8
0
 62
   249
 10
223.137099
 20
8.737999
 30
0.0
 11
225.097099
 21
8.737999
 31
0.0
  0
LINE
  8
0
 62
   249
 10
225.097099
 20
8.737999
 30
0.0
 11
225.097099
 21
5.377999
 31
0.0
  0
LINE
  8
0
 62
   249
 10
225.097099
 20
5.377999
 30
0.0
 11
223.137099
 21
5.377999
 31
0.0
  0
LINE
  8
0
 62
   249
 10
223.137099
 20
5.097999
 30
0.0
 11
225.097099
 21
5.097999
 31
0.0
  0
LINE
  8
0
 62
   249
 10
225.097099
 20
5.097999
 30
0.0
 11
225.097099
 21
1.737999
 31
0.0
  0
LINE
  8
0
 62
   249
 10
225.097099
 20
1.737999
 30
0.0
 11
223.137099
 21
1.737999
 31
0.0
  0
LINE
  8
0
 62
   249
 10
223.137099
 20
5.377999
 30
0.0
 11
223.137099
 21
8.737999
 31
0.0
  0
ARC
  8
0
 62
   249
 10
225.937099
 20
7.162999
 30
0.0
 40
1.575
 50
298.455859
 51
90.052437
  0
LINE
  8
0
 62
   249
 10
225.377099
 20
8.737999
 30
0.0
 11
225.935658
 21
8.737999
 31
0.0
  0
LINE
  8
0
 62
   249
 10
225.377099
 20
8.737999
 30
0.0
 11
225.377099
 21
5.377999
 31
0.0
  0
LINE
  8
0
 62
   249
 10
225.377099
 20
5.377999
 30
0.0
 11
227.361542
 21
5.377999
 31
0.0
  0
LINE
  8
0
 62
   249
 10
227.617099
 20
5.097999
 30
0.0
 11
225.377099
 21
5.097999
 31
0.0
  0
LINE
  8
0
 62
   249
 10
225.377099
 20
5.097999
 30
0.0
 11
225.377099
 21
1.737999
 31
0.0
  0
ARC
  8
0
 62
   249
 10
225.937099
 20
3.837999
 30
0.0
 40
2.1
 50
269.937724
 51
37.056553
  0
LINE
  8
0
 62
   249
 10
225.377099
 20
1.737999
 30
0.0
 11
225.934817
 21
1.738
 31
0.0
  0
ARC
  8
0
 62
   249
 10
225.937099
 20
3.837999
 30
0.0
 40
2.1
 50
47.28622
 51
68.787999
  0
ARC
  8
0
 62
   249
 10
220.477099
 20
3.837999
 30
0.0
 40
2.1
 50
47.28622
 51
68.787999
  0
LINE
  8
0
 62
   249
 10
219.917099
 20
1.737999
 30
0.0
 11
220.474817
 21
1.738
 31
0.0
  0
ARC
  8
0
 62
   249
 10
220.477099
 20
3.837999
 30
0.0
 40
2.1
 50
269.937724
 51
37.056553
  0
LINE
  8
0
 62
   249
 10
219.917099
 20
5.097999
 30
0.0
 11
219.917099
 21
1.737999
 31
0.0
  0
LINE
  8
0
 62
   249
 10
222.157099
 20
5.097999
 30
0.0
 11
219.917099
 21
5.097999
 31
0.0
  0
LINE
  8
0
 62
   249
 10
219.917099
 20
5.377999
 30
0.0
 11
221.901542
 21
5.377999
 31
0.0
  0
LINE
  8
0
 62
   249
 10
219.917099
 20
8.737999
 30
0.0
 11
219.917099
 21
5.377999
 31
0.0
  0
LINE
  8
0
 62
   249
 10
219.917099
 20
8.737999
 30
0.0
 11
220.475658
 21
8.737999
 31
0.0
  0
ARC
  8
0
 62
   249
 10
220.477099
 20
7.162999
 30
0.0
 40
1.575
 50
298.455859
 51
90.052437
  0
LINE
  8
0
 62
   249
 10
217.677099
 20
5.377999
 30
0.0
 11
217.677099
 21
8.737999
 31
0.0
  0
LINE
  8
0
 62
   249
 10
219.637099
 20
1.737999
 30
0.0
 11
217.677099
 21
1.737999
 31
0.0
  0
LINE
  8
0
 62
   249
 10
219.637099
 20
5.097999
 30
0.0
 11
219.637099
 21
1.737999
 31
0.0
  0
LINE
  8
0
 62
   249
 10
217.677099
 20
5.097999
 30
0.0
 11
219.637099
 21
5.097999
 31
0.0
  0
LINE
  8
0
 62
   249
 10
219.637099
 20
5.377999
 30
0.0
 11
217.677099
 21
5.377999
 31
0.0
  0
LINE
  8
0
 62
   249
 10
219.637099
 20
8.737999
 30
0.0
 11
219.637099
 21
5.377999
 31
0.0
  0
LINE
  8
0
 62
   249
 10
217.677099
 20
8.737999
 30
0.0
 11
219.637099
 21
8.737999
 31
0.0
  0
LINE
  8
0
 62
   249
 10
217.677099
 20
1.737999
 30
0.0
 11
217.677099
 21
5.097999
 31
0.0
  0
LINE
  8
0
 62
   249
 10
211.356988
 20
5.080538
 30
0.0
 11
210.187099
 21
1.737999
 31
0.0
  0
LINE
  8
0
 62
   249
 10
213.547099
 20
5.097999
 30
0.0
 11
213.547099
 21
3.137999
 31
0.0
  0
LINE
  8
0
 62
   249
 10
213.827099
 20
5.097999
 30
0.0
 11
213.827099
 21
3.137999
 31
0.0
  0
LINE
  8
0
 62
   249
 10
213.827099
 20
5.097999
 30
0.0
 11
216.010356
 21
5.097999
 31
0.0
  0
LINE
  8
0
 62
   249
 10
213.827099
 20
5.377999
 30
0.0
 11
215.912213
 21
5.377999
 31
0.0
  0
LINE
  8
0
 62
   249
 10
216.011591
 20
5.096594
 30
0.0
 11
217.187099
 21
1.737999
 31
0.0
  0
LINE
  8
0
 62
   249
 10
211.360082
 20
5.097999
 30
0.0
 11
213.547099
 21
5.097999
 31
0.0
  0
LINE
  8
0
 62
   249
 10
211.45904
 20
5.377999
 30
0.0
 11
213.547099
 21
5.377999
 31
0.0
  0
LINE
  8
0
 62
   249
 10
213.547099
 20
8.737999
 30
0.0
 11
212.637099
 21
8.737999
 31
0.0
  0
LINE
  8
0
 62
   249
 10
213.827099
 20
3.137999
 30
0.0
 11
214.946992
 21
3.137999
 31
0.0
  0
LINE
  8
0
 62
   249
 10
213.827099
 20
8.737999
 30
0.0
 11
213.827099
 21
5.377999
 31
0.0
  0
LINE
  8
0
 62
   249
 10
213.547099
 20
8.737999
 30
0.0
 11
213.547099
 21
5.377999
 31
0.0
  0
LINE
  8
0
 62
   249
 10
214.737099
 20
8.737999
 30
0.0
 11
213.827099
 21
8.737999
 31
0.0
  0
LINE
  8
0
 62
   249
 10
214.948197
 20
3.134863
 30
0.0
 11
215.437099
 21
1.737999
 31
0.0
  0
LINE
  8
0
 62
   249
 10
214.737099
 20
8.737999
 30
0.0
 11
215.913452
 21
5.376991
 31
0.0
  0
LINE
  8
0
 62
   249
 10
212.425889
 20
3.134542
 30
0.0
 11
211.937099
 21
1.737999
 31
0.0
  0
LINE
  8
0
 62
   249
 10
212.425886
 20
3.137999
 30
0.0
 11
213.547099
 21
3.137999
 31
0.0
  0
LINE
  8
0
 62
   249
 10
212.637099
 20
8.737999
 30
0.0
 11
211.459571
 21
5.373634
 31
0.0
  0
LINE
  8
0
 62
   249
 10
215.437099
 20
1.737999
 30
0.0
 11
217.187099
 21
1.737999
 31
0.0
  0
LINE
  8
0
 62
   249
 10
210.187099
 20
1.737999
 30
0.0
 11
211.937099
 21
1.737999
 31
0.0
  0
LINE
  8
0
 62
   249
 10
369.737099
 20
9.737999
 30
0.0
 11
369.737099
 21
0.237999
 31
0.0
  0
TEXT
  8
0
 62
   249
 10
371.237099
 20
7.237999
 30
0.0
 40
1.4
  1
PAINOS  REVISION
  7
ROMANS
  0
LINE
  8
0
 62
   249
 10
349.737099
 20
9.737999
 30
0.0
 11
349.737099
 21
18.237999
 31
0.0
  0
TEXT
  8
0
 62
   249
 10
309.237099
 20
7.237999
 30
0.0
 40
1.4
  1
PIIRUSTUS NO  DRAWING NR
  7
ROMANS
  0
TEXT
  8
0
 62
   249
 10
309.237099
 20
15.737999
 30
0.0
 40
1.4
  1
KOODI  CODE
  7
ROMANS
  0
TEXT
  8
0
 62
   249
 10
309.237099
 20
32.737999
 30
0.0
 40
1.4
  1
NIMITYS  NAME
  7
ROMANS
  0
TEXT
  8
0
 62
   249
 10
259.237099
 20
15.737999
 30
0.0
 40
1.4
  1
SUHDE  SCALE
  7
ROMANS
  0
TEXT
  8
0
 62
   249
 10
259.237099
 20
23.737999
 30
0.0
 40
1.4
  1
TOLERANSSIT  TOLERANCES
  7
ROMANS
  0
TEXT
  8
0
 62
   249
 10
259.237099
 20
32.737999
 30
0.0
 40
1.4
  1
LIITTYY  CONCERNING
  7
ROMANS
  0
LINE
  8
0
 62
   249
 10
307.237099
 20
0.237999
 30
0.0
 11
307.237099
 21
35.237999
 31
0.0
  0
TEXT
  8
0
 62
   249
 10
209.979934
 20
15.704666
 30
0.0
 40
1.4
  1
HYVÄKSYI  APPROVED
  7
ROMANS
  0
TEXT
  8
0
 62
   249
 10
210.237099
 20
23.971333
 30
0.0
 40
1.4
  1
TARKASTI  CHECKED
  7
ROMANS
  0
LINE
  8
0
 62
   249
 10
209.237099
 20
35.237999
 30
0.0
 11
392.237099
 21
35.237999
 31
0.0
  0
LINE
  8
0
 62
   249
 10
209.237099
 20
26.737999
 30
0.0
 11
307.237099
 21
26.737999
 31
0.0
  0
LINE
  8
0
 62
   249
 10
209.237099
 20
9.737999
 30
0.0
 11
392.237099
 21
9.737999
 31
0.0
  0
LINE
  8
0
 62
   249
 10
209.237099
 20
18.237999
 30
0.0
 11
392.237099
 21
18.237999
 31
0.0
  0
LINE
  8
0
 62
   249
 10
392.237099
 20
0.237999
 30
0.0
 11
392.237099
 21
35.237999
 31
0.0
  0
LINE
  8
0
 62
   249
 10
209.237099
 20
0.237999
 30
0.0
 11
209.237099
 21
35.237999
 31
0.0
  0
LINE
  8
0
 62
   249
 10
209.237099
 20
0.237999
 30
0.0
 11
392.237099
 21
0.237999
 31
0.0
  0
LINE
  8
0
 62
   249
 10
18.237099
 20
0.237999
 30
0.0
 11
0.237099
 21
0.237999
 31
0.0
  0
LINE
  8
0
 62
   249
 10
0.237099
 20
262.737999
 30
0.0
 11
392.237099
 21
262.737999
 31
0.0
  0
TEXT
  8
0
  6
DASHED
 62
   249
 10
351.818577
 20
15.69253
 30
0.0
 40
1.4
  1
LEHTI SHEET
  7
GREEKS
  0
TEXT
  8
0
  6
DASHED
 62
   249
 10
372.740686
 20
12.507642
 30
0.0
 40
2.0
  1
1
  7
ROMANS
  0
TEXT
  8
0
  6
DASHED
 62
   249
 10
322.5
 20
2.5
 30
0.0
 40
2.5
  1
1MRS10209-AAE
  7
ROMANS
  0
TEXT
  8
0
  6
DASHED
 62
   249
 10
292.217194
 20
11.813359
 30
0.0
 40
3.0
  1
A3
  7
GREEKS
  0
TEXT
  8
0
  6
CONTINUOUS
 62
   249
 10
380.0
 20
2.5
 30
0.0
 40
2.5
  1
A
  7
ROMANS
  0
TEXT
  8
0
  6
CONTINUOUS
 62
   249
 10
344.279773
 20
69.344444
 30
0.0
 40
2.0
  1
L1
  7
ROMANS
  0
TEXT
  8
0
  6
CONTINUOUS
 62
   249
 10
356.939551
 20
69.316564
 30
0.0
 40
2.0
  1
1-3
  7
ROMANS
  0
TEXT
  8
0
  6
CONTINUOUS
 62
   249
 10
372.323007
 20
69.316564
 30
0.0
 40
2.0
  1
1-2
  7
ROMANS
  0
TEXT
  8
0
  6
DASHED
 62
   249
 10
266.817887
 20
168.599106
 30
0.0
 40
2.0
  1
6)
  7
ROMANS
  0
LINE
  8
0
  6
CONTINUOUS
 62
   249
 10
266.0
 20
169.0
 30
0.0
 11
265.0
 21
170.0
 31
0.0
  0
LINE
  8
0
  6
CONTINUOUS
 62
   249
 10
266.0
 20
162.0
 30
0.0
 11
265.0
 21
161.0
 31
0.0
  0
LINE
  8
0
  6
CONTINUOUS
 62
   249
 10
266.0
 20
169.0
 30
0.0
 11
266.0
 21
162.0
 31
0.0
  0
LINE
  8
0
  6
CONTINUOUS
 62
   249
 10
270.0
 20
167.5
 30
0.0
 11
266.0
 21
167.5
 31
0.0
  0
LINE
  8
0
  6
CONTINUOUS
 62
   249
 10
260.0
 20
162.5
 30
0.0
 11
264.266471
 21
162.5
 31
0.0
  0
LINE
  8
0
  6
CONTINUOUS
 62
   249
 10
260.0
 20
167.5
 30
0.0
 11
264.266471
 21
167.5
 31
0.0
  0
TEXT
  8
0
  6
CONTINUOUS
 62
   249
 10
255.611243
 20
158.980717
 30
0.0
 40
2.0
  1
26
  7
ROMANS
  0
TEXT
  8
0
  6
CONTINUOUS
 62
   249
 10
255.611243
 20
164.341799
 30
0.0
 40
2.0
  1
27
  7
ROMANS
  0
LINE
  8
0
  6
CONTINUOUS
 62
   249
 10
255.0
 20
157.5
 30
0.0
 11
260.0
 21
157.5
 31
0.0
  0
LINE
  8
0
  6
CONTINUOUS
 62
   249
 10
255.0
 20
162.5
 30
0.0
 11
260.0
 21
162.5
 31
0.0
  0
LINE
  8
0
  6
CONTINUOUS
 62
   249
 10
255.0
 20
167.5
 30
0.0
 11
260.0
 21
167.5
 31
0.0
  0
LINE
  8
0
  6
DASHED
 62
   249
 10
260.0
 20
157.5
 30
0.0
 11
280.0
 21
157.5
 31
0.0
  0
LINE
  8
0
  6
DASHED
 62
   249
 10
260.0
 20
142.5
 30
0.0
 11
304.069697
 21
142.5
 31
0.0
  0
LINE
  8
0
  6
CONTINUOUS
 62
   249
 10
255.0
 20
152.5
 30
0.0
 11
260.0
 21
152.5
 31
0.0
  0
LINE
  8
0
  6
CONTINUOUS
 62
   249
 10
255.0
 20
147.5
 30
0.0
 11
260.0
 21
147.5
 31
0.0
  0
LINE
  8
0
  6
CONTINUOUS
 62
   249
 10
255.0
 20
142.5
 30
0.0
 11
260.0
 21
142.5
 31
0.0
  0
TEXT
  8
0
  6
CONTINUOUS
 62
   249
 10
255.611243
 20
149.341799
 30
0.0
 40
2.0
  1
39
  7
ROMANS
  0
TEXT
  8
0
  6
CONTINUOUS
 62
   249
 10
255.611243
 20
143.980717
 30
0.0
 40
2.0
  1
38
  7
ROMANS
  0
LINE
  8
0
  6
CONTINUOUS
 62
   249
 10
260.0
 20
152.5
 30
0.0
 11
264.266471
 21
152.5
 31
0.0
  0
LINE
  8
0
  6
CONTINUOUS
 62
   249
 10
260.0
 20
147.5
 30
0.0
 11
264.266471
 21
147.5
 31
0.0
  0
LINE
  8
0
  6
CONTINUOUS
 62
   249
 10
270.0
 20
152.5
 30
0.0
 11
266.0
 21
152.5
 31
0.0
  0
LINE
  8
0
  6
CONTINUOUS
 62
   249
 10
266.0
 20
154.0
 30
0.0
 11
266.0
 21
147.0
 31
0.0
  0
LINE
  8
0
  6
CONTINUOUS
 62
   249
 10
266.0
 20
147.0
 30
0.0
 11
265.0
 21
146.0
 31
0.0
  0
LINE
  8
0
  6
CONTINUOUS
 62
   249
 10
266.0
 20
154.0
 30
0.0
 11
265.0
 21
155.0
 31
0.0
  0
TEXT
  8
0
  6
DASHED
 62
   249
 10
266.817887
 20
153.599106
 30
0.0
 40
2.0
  1
6)
  7
ROMANS
  0
LINE
  8
0
  6
DASHED
 62
   249
 10
304.069697
 20
160.0
 30
0.0
 11
280.0
 21
160.0
 31
0.0
  0
LINE
  8
0
  6
DASHED
 62
   249
 10
280.0
 20
157.5
 30
0.0
 11
280.0
 21
160.0
 31
0.0
  0
LINE
  8
0
  6
DASHED
 62
   249
 10
295.192464
 20
167.5
 30
0.0
 11
270.0
 21
167.5
 31
0.0
  0
LINE
  8
0
  6
DASHED
 62
   249
 10
300.0
 20
155.0
 30
0.0
 11
300.0
 21
160.0
 31
0.0
  0
LINE
  8
0
  6
CONTINUOUS
 62
   249
 10
325.0
 20
147.5
 30
0.0
 11
309.507805
 21
147.5
 31
0.0
  0
LINE
  8
0
  6
CONTINUOUS
 62
   249
 10
315.0
 20
147.5
 30
0.0
 11
315.0
 21
144.043072
 31
0.0
  0
INSERT
  8
0
  6
CONTINUOUS
 62
   249
  2
BLC27
 10
297.618431
 20
149.004385
 30
0.0
 41
-1.0
 50
90.0
  0
LINE
  8
0
  6
DASHED
 62
   249
 10
295.189984
 20
145.0
 30
0.0
 11
295.189984
 21
147.5
 31
0.0
  0
LINE
  8
0
  6
DASHED
 62
   249
 10
270.0
 20
152.5
 30
0.0
 11
280.0
 21
152.5
 31
0.0
  0
LINE
  8
0
  6
DASHED
 62
   249
 10
280.0
 20
152.5
 30
0.0
 11
280.0
 21
145.0
 31
0.0
  0
LINE
  8
0
  6
DASHED
 62
   249
 10
280.0
 20
145.0
 30
0.0
 11
295.189984
 21
145.0
 31
0.0
  0
LINE
  8
0
  6
DASHED
 62
   249
 10
300.0
 20
142.5
 30
0.0
 11
300.0
 21
147.5
 31
0.0
  0
LINE
  8
0
  6
CONTINUOUS
 62
   249
 10
305.0
 20
148.419373
 30
0.0
 11
305.0
 21
146.580627
 31
0.0
  0
LINE
  8
0
  6
CONTINUOUS
 62
   249
 10
305.0
 20
146.580627
 30
0.0
 11
309.507805
 21
146.580627
 31
0.0
  0
LINE
  8
0
  6
CONTINUOUS
 62
   249
 10
309.507805
 20
146.580627
 30
0.0
 11
309.507805
 21
148.419373
 31
0.0
  0
LINE
  8
0
  6
CONTINUOUS
 62
   249
 10
309.507805
 20
148.419373
 30
0.0
 11
305.0
 21
148.419373
 31
0.0
  0
LINE
  8
0
  6
CONTINUOUS
 62
   249
 10
305.0
 20
147.5
 30
0.0
 11
295.0
 21
147.5
 31
0.0
  0
LINE
  8
0
  6
CONTINUOUS
 62
   249
 10
235.0
 20
197.5
 30
0.0
 11
235.0
 21
187.5
 31
0.0
  0
TEXT
  8
0
  6
CONTINUOUS
 62
   249
 10
255.611243
 20
139.313919
 30
0.0
 40
2.0
  1
37
  7
ROMANS
  0
TEXT
  8
0
  6
CONTINUOUS
 62
   249
 10
255.611243
 20
154.313919
 30
0.0
 40
2.0
  1
25
  7
ROMANS
  0
LINE
  8
0
  6
CONTINUOUS
 62
   249
 10
242.5
 20
162.5
 30
0.0
 11
222.5
 21
162.5
 31
0.0
  0
LINE
  8
0
  6
CONTINUOUS
 62
   249
 10
235.0
 20
197.5
 30
0.0
 11
240.0
 21
197.5
 31
0.0
  0
LINE
  8
0
  6
CONTINUOUS
 62
   249
 10
242.5
 20
147.5
 30
0.0
 11
227.5
 21
147.5
 31
0.0
  0
LINE
  8
0
  6
CONTINUOUS
 62
   249
 10
227.5
 20
147.5
 30
0.0
 11
227.5
 21
182.5
 31
0.0
  0
LINE
  8
0
  6
CONTINUOUS
 62
   249
 10
227.5
 20
182.5
 30
0.0
 11
207.950615
 21
182.5
 31
0.0
  0
TEXT
  8
0
  6
HIDDEN
 62
   249
 10
186.596384
 20
179.007622
 30
0.0
 40
2.5
  1
I
  7
GREEKS
  0
TEXT
  8
0
  6
HIDDEN
 62
   249
 10
184.009751
 20
179.002089
 30
0.0
 40
2.339483
  1
D
  7
GREEKC
  0
TEXT
  8
0
  6
CONTINUOUS
 62
   249
 10
187.964229
 20
178.477041
 30
0.0
 40
1.5
  1
01
  7
ROMANS
  0
TEXT
  8
0
  6
CONTINUOUS
 62
   249
 10
187.964229
 20
172.659477
 30
0.0
 40
1.5
  1
02
  7
ROMANS
  0
TEXT
  8
0
  6
HIDDEN
 62
   249
 10
184.009751
 20
173.184524
 30
0.0
 40
2.339483
  1
D
  7
GREEKC
  0
TEXT
  8
0
  6
HIDDEN
 62
   249
 10
186.596384
 20
173.190057
 30
0.0
 40
2.5
  1
I
  7
GREEKS
  0
LINE
  8
0
  6
CONTINUOUS
 62
   249
 10
137.5
 20
75.0
 30
0.0
 11
131.756076
 21
71.785297
 31
0.0
  0
LINE
  8
0
  6
CONTINUOUS
 62
   249
 10
137.5
 20
75.0
 30
0.0
 11
157.5
 21
75.0
 31
0.0
  0
LINE
  8
0
  6
CONTINUOUS
 62
   249
 10
122.5
 20
90.0
 30
0.0
 11
167.5
 21
90.0
 31
0.0
  0
LINE
  8
0
  6
CONTINUOUS
 62
   249
 10
122.5
 20
90.0
 30
0.0
 11
116.756076
 21
86.785297
 31
0.0
  0
LINE
  8
0
  6
CONTINUOUS
 62
   249
 10
115.0
 20
95.0
 30
0.0
 11
109.256076
 21
91.785297
 31
0.0
  0
LINE
  8
0
  6
CONTINUOUS
 62
   249
 10
115.0
 20
95.0
 30
0.0
 11
172.5
 21
95.0
 31
0.0
  0
LINE
  8
0
  6
CONTINUOUS
 62
   249
 10
100.0
 20
105.0
 30
0.0
 11
182.5
 21
105.0
 31
0.0
  0
LINE
  8
0
  6
CONTINUOUS
 62
   249
 10
100.0
 20
105.0
 30
0.0
 11
94.256076
 21
101.785297
 31
0.0
  0
LINE
  8
0
  6
CONTINUOUS
 62
   249
 10
107.5
 20
100.0
 30
0.0
 11
177.5
 21
100.0
 31
0.0
  0
LINE
  8
0
  6
CONTINUOUS
 62
   249
 10
107.5
 20
100.0
 30
0.0
 11
101.756076
 21
96.785297
 31
0.0
  0
LINE
  8
0
  6
CONTINUOUS
 62
   249
 10
92.5
 20
115.0
 30
0.0
 11
86.756076
 21
111.785297
 31
0.0
  0
LINE
  8
0
  6
CONTINUOUS
 62
   249
 10
92.5
 20
115.0
 30
0.0
 11
192.5
 21
115.0
 31
0.0
  0
LINE
  8
0
  6
CONTINUOUS
 62
   249
 10
92.5
 20
120.0
 30
0.0
 11
197.5
 21
120.0
 31
0.0
  0
LINE
  8
0
  6
CONTINUOUS
 62
   249
 10
92.5
 20
120.0
 30
0.0
 11
86.756076
 21
116.785297
 31
0.0
  0
LINE
  8
0
  6
CONTINUOUS
 62
   249
 10
85.0
 20
130.0
 30
0.0
 11
79.256076
 21
126.785297
 31
0.0
  0
LINE
  8
0
  6
CONTINUOUS
 62
   249
 10
85.0
 20
130.0
 30
0.0
 11
207.5
 21
130.0
 31
0.0
  0
LINE
  8
0
  6
CONTINUOUS
 62
   249
 10
85.0
 20
125.0
 30
0.0
 11
202.5
 21
125.0
 31
0.0
  0
LINE
  8
0
  6
CONTINUOUS
 62
   249
 10
85.0
 20
125.0
 30
0.0
 11
79.256076
 21
121.785297
 31
0.0
  0
LINE
  8
0
  6
CONTINUOUS
 62
   249
 10
140.0
 20
62.5
 30
0.0
 11
42.5
 21
62.5
 31
0.0
  0
LINE
  8
0
  6
CONTINUOUS
 62
   249
 10
42.5
 20
67.5
 30
0.0
 11
90.0
 21
67.5
 31
0.0
  0
LINE
  8
0
  6
CONTINUOUS
 62
   249
 10
140.0
 20
67.5
 30
0.0
 11
90.0
 21
67.5
 31
0.0
  0
LINE
  8
0
  6
CONTINUOUS
 62
   249
 10
202.5
 20
125.0
 30
0.0
 11
202.5
 21
57.5
 31
0.0
  0
LINE
  8
0
  6
CONTINUOUS
 62
   249
 10
197.5
 20
120.0
 30
0.0
 11
197.5
 21
57.5
 31
0.0
  0
LINE
  8
0
  6
CONTINUOUS
 62
   249
 10
192.5
 20
115.0
 30
0.0
 11
192.5
 21
57.5
 31
0.0
  0
LINE
  8
0
  6
CONTINUOUS
 62
   249
 10
182.5
 20
105.0
 30
0.0
 11
182.5
 21
57.5
 31
0.0
  0
LINE
  8
0
  6
CONTINUOUS
 62
   249
 10
177.5
 20
100.0
 30
0.0
 11
177.5
 21
57.5
 31
0.0
  0
LINE
  8
0
  6
CONTINUOUS
 62
   249
 10
207.5
 20
130.0
 30
0.0
 11
207.5
 21
57.5
 31
0.0
  0
LINE
  8
0
  6
CONTINUOUS
 62
   249
 10
222.5
 20
162.5
 30
0.0
 11
222.5
 21
177.5
 31
0.0
  0
LINE
  8
0
  6
CONTINUOUS
 62
   249
 10
222.5
 20
177.5
 30
0.0
 11
207.950615
 21
177.5
 31
0.0
  0
LINE
  8
0
  6
CONTINUOUS
 62
   249
 10
207.950615
 20
155.0
 30
0.0
 11
227.5
 21
155.0
 31
0.0
  0
LINE
  8
0
  6
CONTINUOUS
 62
   249
 10
207.950615
 20
175.0
 30
0.0
 11
215.0
 21
175.0
 31
0.0
  0
LINE
  8
0
  6
CONTINUOUS
 62
   249
 10
207.950615
 20
150.0
 30
0.0
 11
215.0
 21
150.0
 31
0.0
  0
LINE
  8
0
  6
CONTINUOUS
 62
   249
 10
215.0
 20
150.0
 30
0.0
 11
215.0
 21
220.0
 31
0.0
  0
LINE
  8
0
  6
CONTINUOUS
 62
   249
 10
130.0
 20
85.0
 30
0.0
 11
162.5
 21
85.0
 31
0.0
  0
LINE
  8
0
  6
CONTINUOUS
 62
   249
 10
132.5
 20
75.0
 30
0.0
 11
42.5
 21
75.0
 31
0.0
  0
LINE
  8
0
  6
CONTINUOUS
 62
   249
 10
117.5
 20
90.0
 30
0.0
 11
42.5
 21
90.0
 31
0.0
  0
LINE
  8
0
  6
CONTINUOUS
 62
   249
 10
110.0
 20
95.0
 30
0.0
 11
42.5
 21
95.0
 31
0.0
  0
LINE
  8
0
  6
CONTINUOUS
 62
   249
 10
102.5
 20
100.0
 30
0.0
 11
42.5
 21
100.0
 31
0.0
  0
LINE
  8
0
  6
CONTINUOUS
 62
   249
 10
95.0
 20
105.0
 30
0.0
 11
42.5
 21
105.0
 31
0.0
  0
LINE
  8
0
  6
CONTINUOUS
 62
   249
 10
87.5
 20
115.0
 30
0.0
 11
42.5
 21
115.0
 31
0.0
  0
LINE
  8
0
  6
CONTINUOUS
 62
   249
 10
87.5
 20
120.0
 30
0.0
 11
42.5
 21
120.0
 31
0.0
  0
LINE
  8
0
  6
CONTINUOUS
 62
   249
 10
80.0
 20
125.0
 30
0.0
 11
42.5
 21
125.0
 31
0.0
  0
LINE
  8
0
  6
CONTINUOUS
 62
   249
 10
80.0
 20
130.0
 30
0.0
 11
42.5
 21
130.0
 31
0.0
  0
LINE
  8
0
  6
CONTINUOUS
 62
   249
 10
177.5
 20
187.5
 30
0.0
 11
82.5
 21
187.5
 31
0.0
  0
LINE
  8
0
  6
CONTINUOUS
 62
   249
 10
177.5
 20
185.0
 30
0.0
 11
90.0
 21
185.0
 31
0.0
  0
LINE
  8
0
  6
CONTINUOUS
 62
   249
 10
177.5
 20
180.0
 30
0.0
 11
105.0
 21
180.0
 31
0.0
  0
LINE
  8
0
  6
CONTINUOUS
 62
   249
 10
177.5
 20
182.5
 30
0.0
 11
97.5
 21
182.5
 31
0.0
  0
LINE
  8
0
  6
CONTINUOUS
 62
   249
 10
177.5
 20
177.5
 30
0.0
 11
112.5
 21
177.5
 31
0.0
  0
LINE
  8
0
  6
CONTINUOUS
 62
   249
 10
177.5
 20
175.0
 30
0.0
 11
120.0
 21
175.0
 31
0.0
  0
LINE
  8
0
  6
CONTINUOUS
 62
   249
 10
177.5
 20
172.5
 30
0.0
 11
127.5
 21
172.5
 31
0.0
  0
LINE
  8
0
  6
CONTINUOUS
 62
   249
 10
177.5
 20
170.0
 30
0.0
 11
135.0
 21
170.0
 31
0.0
  0
LINE
  8
0
  6
DASHED
 62
   249
 10
82.5
 20
123.600824
 30
0.0
 11
82.5
 21
132.5
 31
0.0
  0
LINE
  8
0
  6
DASHED
 62
   249
 10
90.0
 20
113.600824
 30
0.0
 11
90.0
 21
132.5
 31
0.0
  0
LINE
  8
0
  6
DASHED
 62
   249
 10
97.5
 20
103.600824
 30
0.0
 11
97.5
 21
132.5
 31
0.0
  0
LINE
  8
0
  6
DASHED
 62
   249
 10
105.0
 20
98.600824
 30
0.0
 11
105.0
 21
132.5
 31
0.0
  0
LINE
  8
0
  6
DASHED
 62
   249
 10
112.5
 20
93.600824
 30
0.0
 11
112.5
 21
132.5
 31
0.0
  0
LINE
  8
0
  6
DASHED
 62
   249
 10
120.0
 20
88.600824
 30
0.0
 11
120.0
 21
132.5
 31
0.0
  0
LINE
  8
0
  6
DASHED
 62
   249
 10
127.5
 20
83.600824
 30
0.0
 11
127.5
 21
132.5
 31
0.0
  0
LINE
  8
0
  6
DASHED
 62
   249
 10
135.0
 20
73.600824
 30
0.0
 11
135.0
 21
132.5
 31
0.0
  0
LINE
  8
0
  6
DASHED
 62
   249
 10
142.5
 20
66.100824
 30
0.0
 11
142.5
 21
132.5
 31
0.0
  0
LINE
  8
0
  6
CONTINUOUS
 62
   249
 10
97.5
 20
132.5
 30
0.0
 11
97.5
 21
182.5
 31
0.0
  0
LINE
  8
0
  6
CONTINUOUS
 62
   249
 10
120.0
 20
132.5
 30
0.0
 11
120.0
 21
175.0
 31
0.0
  0
LINE
  8
0
  6
CONTINUOUS
 62
   249
 10
112.5
 20
132.5
 30
0.0
 11
112.5
 21
177.5
 31
0.0
  0
LINE
  8
0
  6
CONTINUOUS
 62
   249
 10
105.0
 20
132.5
 30
0.0
 11
105.0
 21
180.0
 31
0.0
  0
LINE
  8
0
  6
CONTINUOUS
 62
   249
 10
142.5
 20
132.5
 30
0.0
 11
142.5
 21
135.0
 31
0.0
  0
LINE
  8
0
  6
CONTINUOUS
 62
   249
 10
135.0
 20
132.5
 30
0.0
 11
135.0
 21
170.0
 31
0.0
  0
LINE
  8
0
  6
CONTINUOUS
 62
   249
 10
127.5
 20
132.5
 30
0.0
 11
127.5
 21
172.5
 31
0.0
  0
LINE
  8
0
  6
CONTINUOUS
 62
   249
 10
82.5
 20
132.5
 30
0.0
 11
82.5
 21
187.5
 31
0.0
  0
LINE
  8
0
  6
CONTINUOUS
 62
   249
 10
90.0
 20
132.5
 30
0.0
 11
90.0
 21
185.0
 31
0.0
  0
LINE
  8
0
  6
CONTINUOUS
 62
   249
 10
57.877948
 20
148.933648
 30
0.0
 11
50.754927
 21
148.933648
 31
0.0
  0
LINE
  8
0
  6
CONTINUOUS
 62
   249
 10
57.877948
 20
146.028148
 30
0.0
 11
57.877948
 21
148.933648
 31
0.0
  0
LINE
  8
0
  6
CONTINUOUS
 62
   249
 10
50.754927
 20
146.028148
 30
0.0
 11
57.877948
 21
146.028148
 31
0.0
  0
LINE
  8
0
  6
CONTINUOUS
 62
   249
 10
50.754927
 20
148.933648
 30
0.0
 11
50.754927
 21
146.028148
 31
0.0
  0
LINE
  8
0
  6
DASHED
 62
   249
 10
57.877948
 20
147.480898
 30
0.0
 11
66.388485
 21
147.480898
 31
0.0
  0
LINE
  8
0
  6
CONTINUOUS
 62
   249
 10
54.316438
 20
148.933648
 30
0.0
 11
54.316438
 21
150.0
 31
0.0
  0
LINE
  8
0
  6
CONTINUOUS
 62
   249
 10
54.316438
 20
150.0
 30
0.0
 11
42.5
 21
150.0
 31
0.0
  0
LINE
  8
0
  6
CONTINUOUS
 62
   249
 10
54.316438
 20
146.028148
 30
0.0
 11
54.316438
 21
145.0
 31
0.0
  0
LINE
  8
0
  6
CONTINUOUS
 62
   249
 10
54.316438
 20
145.0
 30
0.0
 11
42.5
 21
145.0
 31
0.0
  0
LINE
  8
0
  6
CONTINUOUS
 62
   249
 10
65.0
 20
145.0
 30
0.0
 11
68.214703
 21
150.743924
 31
0.0
  0
LINE
  8
0
  6
CONTINUOUS
 62
   249
 10
65.0
 20
145.0
 30
0.0
 11
65.0
 21
142.5
 31
0.0
  0
LINE
  8
0
  6
CONTINUOUS
 62
   249
 10
65.0
 20
150.0
 30
0.0
 11
65.0
 21
152.5
 31
0.0
  0
LINE
  8
0
  6
CONTINUOUS
 62
   249
 10
65.0
 20
152.5
 30
0.0
 11
75.0
 21
152.5
 31
0.0
  0
LINE
  8
0
  6
CONTINUOUS
 62
   249
 10
72.5
 20
182.5
 30
0.0
 11
72.5
 21
220.0
 31
0.0
  0
LINE
  8
0
  6
CONTINUOUS
 62
   249
 10
75.0
 20
217.5
 30
0.0
 11
217.5
 21
217.5
 31
0.0
  0
LINE
  8
0
  6
CONTINUOUS
 62
   249
 10
65.0
 20
165.0
 30
0.0
 11
65.0
 21
167.5
 31
0.0
  0
LINE
  8
0
  6
CONTINUOUS
 62
   249
 10
65.0
 20
160.0
 30
0.0
 11
65.0
 21
157.5
 31
0.0
  0
LINE
  8
0
  6
CONTINUOUS
 62
   249
 10
65.0
 20
160.0
 30
0.0
 11
68.214703
 21
165.743924
 31
0.0
  0
LINE
  8
0
  6
CONTINUOUS
 62
   249
 10
54.316438
 20
160.0
 30
0.0
 11
42.5
 21
160.0
 31
0.0
  0
LINE
  8
0
  6
CONTINUOUS
 62
   249
 10
54.316438
 20
161.028148
 30
0.0
 11
54.316438
 21
160.0
 31
0.0
  0
LINE
  8
0
  6
CONTINUOUS
 62
   249
 10
54.316438
 20
165.0
 30
0.0
 11
42.5
 21
165.0
 31
0.0
  0
LINE
  8
0
  6
CONTINUOUS
 62
   249
 10
54.316438
 20
163.933648
 30
0.0
 11
54.316438
 21
165.0
 31
0.0
  0
LINE
  8
0
  6
DASHED
 62
   249
 10
57.877948
 20
162.480898
 30
0.0
 11
66.388485
 21
162.480898
 31
0.0
  0
LINE
  8
0
  6
CONTINUOUS
 62
   249
 10
50.754927
 20
163.933648
 30
0.0
 11
50.754927
 21
161.028148
 31
0.0
  0
LINE
  8
0
  6
CONTINUOUS
 62
   249
 10
50.754927
 20
161.028148
 30
0.0
 11
57.877948
 21
161.028148
 31
0.0
  0
LINE
  8
0
  6
CONTINUOUS
 62
   249
 10
57.877948
 20
161.028148
 30
0.0
 11
57.877948
 21
163.933648
 31
0.0
  0
LINE
  8
0
  6
CONTINUOUS
 62
   249
 10
57.877948
 20
163.933648
 30
0.0
 11
50.754927
 21
163.933648
 31
0.0
  0
LINE
  8
0
  6
CONTINUOUS
 62
   249
 10
65.0
 20
167.5
 30
0.0
 11
75.0
 21
167.5
 31
0.0
  0
LINE
  8
0
  6
CONTINUOUS
 62
   249
 10
65.0
 20
182.5
 30
0.0
 11
72.5
 21
182.5
 31
0.0
  0
LINE
  8
0
  6
CONTINUOUS
 62
   249
 10
57.877948
 20
178.933648
 30
0.0
 11
50.754927
 21
178.933648
 31
0.0
  0
LINE
  8
0
  6
CONTINUOUS
 62
   249
 10
57.877948
 20
176.028148
 30
0.0
 11
57.877948
 21
178.933648
 31
0.0
  0
LINE
  8
0
  6
CONTINUOUS
 62
   249
 10
50.754927
 20
176.028148
 30
0.0
 11
57.877948
 21
176.028148
 31
0.0
  0
LINE
  8
0
  6
CONTINUOUS
 62
   249
 10
50.754927
 20
178.933648
 30
0.0
 11
50.754927
 21
176.028148
 31
0.0
  0
LINE
  8
0
  6
DASHED
 62
   249
 10
57.877948
 20
177.480898
 30
0.0
 11
66.388485
 21
177.480898
 31
0.0
  0
LINE
  8
0
  6
CONTINUOUS
 62
   249
 10
54.316438
 20
178.933648
 30
0.0
 11
54.316438
 21
180.0
 31
0.0
  0
LINE
  8
0
  6
CONTINUOUS
 62
   249
 10
54.316438
 20
180.0
 30
0.0
 11
42.5
 21
180.0
 31
0.0
  0
LINE
  8
0
  6
CONTINUOUS
 62
   249
 10
54.316438
 20
176.028148
 30
0.0
 11
54.316438
 21
175.0
 31
0.0
  0
LINE
  8
0
  6
CONTINUOUS
 62
   249
 10
54.316438
 20
175.0
 30
0.0
 11
42.5
 21
175.0
 31
0.0
  0
LINE
  8
0
  6
CONTINUOUS
 62
   249
 10
65.0
 20
175.0
 30
0.0
 11
68.214703
 21
180.743924
 31
0.0
  0
LINE
  8
0
  6
CONTINUOUS
 62
   249
 10
65.0
 20
175.0
 30
0.0
 11
65.0
 21
172.5
 31
0.0
  0
LINE
  8
0
  6
CONTINUOUS
 62
   249
 10
65.0
 20
180.0
 30
0.0
 11
65.0
 21
182.5
 31
0.0
  0
LINE
  8
0
  6
CONTINUOUS
 62
   249
 10
65.0
 20
195.0
 30
0.0
 11
65.0
 21
197.5
 31
0.0
  0
LINE
  8
0
  6
CONTINUOUS
 62
   249
 10
65.0
 20
190.0
 30
0.0
 11
65.0
 21
187.5
 31
0.0
  0
LINE
  8
0
  6
CONTINUOUS
 62
   249
 10
65.0
 20
190.0
 30
0.0
 11
68.214703
 21
195.743924
 31
0.0
  0
LINE
  8
0
  6
CONTINUOUS
 62
   249
 10
54.316438
 20
190.0
 30
0.0
 11
42.5
 21
190.0
 31
0.0
  0
LINE
  8
0
  6
CONTINUOUS
 62
   249
 10
54.316438
 20
191.028148
 30
0.0
 11
54.316438
 21
190.0
 31
0.0
  0
LINE
  8
0
  6
CONTINUOUS
 62
   249
 10
54.316438
 20
195.0
 30
0.0
 11
42.5
 21
195.0
 31
0.0
  0
LINE
  8
0
  6
CONTINUOUS
 62
   249
 10
54.316438
 20
193.933648
 30
0.0
 11
54.316438
 21
195.0
 31
0.0
  0
LINE
  8
0
  6
DASHED
 62
   249
 10
57.877948
 20
192.480898
 30
0.0
 11
66.388485
 21
192.480898
 31
0.0
  0
LINE
  8
0
  6
CONTINUOUS
 62
   249
 10
50.754927
 20
193.933648
 30
0.0
 11
50.754927
 21
191.028148
 31
0.0
  0
LINE
  8
0
  6
CONTINUOUS
 62
   249
 10
50.754927
 20
191.028148
 30
0.0
 11
57.877948
 21
191.028148
 31
0.0
  0
LINE
  8
0
  6
CONTINUOUS
 62
   249
 10
57.877948
 20
191.028148
 30
0.0
 11
57.877948
 21
193.933648
 31
0.0
  0
LINE
  8
0
  6
CONTINUOUS
 62
   249
 10
57.877948
 20
193.933648
 30
0.0
 11
50.754927
 21
193.933648
 31
0.0
  0
LINE
  8
0
  6
CONTINUOUS
 62
   249
 10
65.0
 20
197.5
 30
0.0
 11
72.5
 21
197.5
 31
0.0
  0
LINE
  8
0
  6
CONTINUOUS
 62
   249
 10
65.0
 20
212.5
 30
0.0
 11
72.5
 21
212.5
 31
0.0
  0
LINE
  8
0
  6
CONTINUOUS
 62
   249
 10
57.877948
 20
208.933648
 30
0.0
 11
50.754927
 21
208.933648
 31
0.0
  0
LINE
  8
0
  6
CONTINUOUS
 62
   249
 10
57.877948
 20
206.028148
 30
0.0
 11
57.877948
 21
208.933648
 31
0.0
  0
LINE
  8
0
  6
CONTINUOUS
 62
   249
 10
50.754927
 20
206.028148
 30
0.0
 11
57.877948
 21
206.028148
 31
0.0
  0
LINE
  8
0
  6
CONTINUOUS
 62
   249
 10
50.754927
 20
208.933648
 30
0.0
 11
50.754927
 21
206.028148
 31
0.0
  0
LINE
  8
0
  6
DASHED
 62
   249
 10
57.877948
 20
207.480898
 30
0.0
 11
66.388485
 21
207.480898
 31
0.0
  0
LINE
  8
0
  6
CONTINUOUS
 62
   249
 10
54.316438
 20
208.933648
 30
0.0
 11
54.316438
 21
210.0
 31
0.0
  0
LINE
  8
0
  6
CONTINUOUS
 62
   249
 10
54.316438
 20
210.0
 30
0.0
 11
42.5
 21
210.0
 31
0.0
  0
LINE
  8
0
  6
CONTINUOUS
 62
   249
 10
54.316438
 20
206.028148
 30
0.0
 11
54.316438
 21
205.0
 31
0.0
  0
LINE
  8
0
  6
CONTINUOUS
 62
   249
 10
54.316438
 20
205.0
 30
0.0
 11
42.5
 21
205.0
 31
0.0
  0
LINE
  8
0
  6
CONTINUOUS
 62
   249
 10
65.0
 20
205.0
 30
0.0
 11
68.214703
 21
210.743924
 31
0.0
  0
LINE
  8
0
  6
CONTINUOUS
 62
   249
 10
65.0
 20
205.0
 30
0.0
 11
65.0
 21
202.5
 31
0.0
  0
LINE
  8
0
  6
CONTINUOUS
 62
   249
 10
65.0
 20
210.0
 30
0.0
 11
65.0
 21
212.5
 31
0.0
  0
LINE
  8
0
  6
HIDDEN
 62
   249
 10
260.0
 20
85.0
 30
0.0
 11
255.0
 21
85.0
 31
0.0
  0
LINE
  8
0
  6
HIDDEN
 62
   249
 10
255.0
 20
85.0
 30
0.0
 11
255.0
 21
225.0
 31
0.0
  0
LINE
  8
0
  6
HIDDEN
 62
   249
 10
260.0
 20
225.0
 30
0.0
 11
255.0
 21
225.0
 31
0.0
  0
TEXT
  8
0
  6
CONTINUOUS
 62
   249
 10
255.821449
 20
221.742446
 30
0.0
 40
2.0
  1
X0
  7
ROMANS
  0
LINE
  8
0
  6
HIDDEN
 62
   249
 10
147.5
 20
57.5
 30
0.0
 11
147.5
 21
62.5
 31
0.0
  0
LINE
  8
0
  6
HIDDEN
 62
   249
 10
147.5
 20
62.5
 30
0.0
 11
186.471129
 21
62.5
 31
0.0
  0
LINE
  8
0
  6
HIDDEN
 62
   249
 10
186.471129
 20
62.5
 30
0.0
 11
186.471129
 21
57.5
 31
0.0
  0
TEXT
  8
0
  6
CONTINUOUS
 62
   249
 10
151.007068
 20
57.877099
 30
0.0
 40
2.0
  1
X2
 50
90.0
  7
ROMANS
  0
TEXT
  8
0
  6
CONTINUOUS
 62
   249
 10
180.840325
 20
58.561614
 30
0.0
 40
2.0
  1
6
 50
90.0
  7
ROMANS
  0
TEXT
  8
0
  6
CONTINUOUS
 62
   249
 10
185.681062
 20
58.561614
 30
0.0
 40
2.0
  1
4
 50
90.0
  7
ROMANS
  0
LINE
  8
0
  6
HIDDEN
 62
   249
 10
187.5
 20
57.5
 30
0.0
 11
187.5
 21
62.5
 31
0.0
  0
LINE
  8
0
  6
HIDDEN
 62
   249
 10
187.5
 20
62.5
 30
0.0
 11
212.5
 21
62.5
 31
0.0
  0
TEXT
  8
0
  6
CONTINUOUS
 62
   249
 10
190.638441
 20
57.877099
 30
0.0
 40
2.0
  1
X1
 50
90.0
  7
ROMANS
  0
TEXT
  8
0
  6
CONTINUOUS
 62
   249
 10
195.638441
 20
57.877099
 30
0.0
 40
2.0
  1
16
 50
90.0
  7
ROMANS
  0
TEXT
  8
0
  6
CONTINUOUS
 62
   249
 10
200.638441
 20
57.877099
 30
0.0
 40
2.0
  1
18
 50
90.0
  7
ROMANS
  0
LINE
  8
0
  6
HIDDEN
 62
   249
 10
212.5
 20
57.5
 30
0.0
 11
212.5
 21
62.5
 31
0.0
  0
LINE
  8
0
  6
HIDDEN
 62
   249
 10
215.0
 20
57.5
 30
0.0
 11
215.0
 21
62.5
 31
0.0
  0
LINE
  8
0
  6
HIDDEN
 62
   249
 10
215.0
 20
62.5
 30
0.0
 11
230.0
 21
62.5
 31
0.0
  0
LINE
  8
0
  6
HIDDEN
 62
   249
 10
230.0
 20
62.5
 30
0.0
 11
230.0
 21
57.5
 31
0.0
  0
TEXT
  8
0
  6
CONTINUOUS
 62
   249
 10
205.59138
 20
57.877099
 30
0.0
 40
2.0
  1
12
 50
90.0
  7
ROMANS
  0
TEXT
  8
0
  6
CONTINUOUS
 62
   249
 10
210.891264
 20
57.877099
 30
0.0
 40
2.0
  1
14
 50
90.0
  7
ROMANS
  0
TEXT
  8
0
  6
CONTINUOUS
 62
   249
 10
218.138441
 20
57.877099
 30
0.0
 40
2.0
  1
X2
 50
90.0
  7
ROMANS
  0
LINE
  8
0
  6
HIDDEN
 62
   249
 10
42.5
 20
135.0
 30
0.0
 11
47.5
 21
135.0
 31
0.0
  0
LINE
  8
0
  6
HIDDEN
 62
   249
 10
47.5
 20
135.0
 30
0.0
 11
47.5
 21
111.195736
 31
0.0
  0
LINE
  8
0
  6
HIDDEN
 62
   249
 10
47.5
 20
111.195736
 30
0.0
 11
42.5
 21
111.195736
 31
0.0
  0
TEXT
  8
0
  6
CONTINUOUS
 62
   249
 10
43.007057
 20
126.932006
 30
0.0
 40
2.0
  1
13
  7
ROMANS
  0
TEXT
  8
0
  6
CONTINUOUS
 62
   249
 10
43.007057
 20
121.932006
 30
0.0
 40
2.0
  1
11
  7
ROMANS
  0
TEXT
  8
0
  6
CONTINUOUS
 62
   249
 10
43.007057
 20
116.932006
 30
0.0
 40
2.0
  1
17
  7
ROMANS
  0
TEXT
  8
0
  6
CONTINUOUS
 62
   249
 10
43.007057
 20
111.932006
 30
0.0
 40
2.0
  1
15
  7
ROMANS
  0
LINE
  8
0
  6
HIDDEN
 62
   249
 10
42.5
 20
110.0
 30
0.0
 11
47.5
 21
110.0
 31
0.0
  0
LINE
  8
0
  6
HIDDEN
 62
   249
 10
47.5
 20
110.0
 30
0.0
 11
47.5
 21
58.717083
 31
0.0
  0
LINE
  8
0
  6
HIDDEN
 62
   249
 10
47.5
 20
58.717083
 30
0.0
 11
42.5
 21
58.717083
 31
0.0
  0
TEXT
  8
0
  6
CONTINUOUS
 62
   249
 10
43.976696
 20
86.932006
 30
0.0
 40
2.0
  1
9
  7
ROMANS
  0
TEXT
  8
0
  6
CONTINUOUS
 62
   249
 10
43.976696
 20
91.932006
 30
0.0
 40
2.0
  1
7
  7
ROMANS
  0
TEXT
  8
0
  6
CONTINUOUS
 62
   249
 10
43.976696
 20
96.932006
 30
0.0
 40
2.0
  1
5
  7
ROMANS
  0
TEXT
  8
0
  6
CONTINUOUS
 62
   249
 10
43.976696
 20
101.932006
 30
0.0
 40
2.0
  1
3
  7
ROMANS
  0
TEXT
  8
0
  6
CONTINUOUS
 62
   249
 10
43.306147
 20
106.636967
 30
0.0
 40
2.0
  1
X2
  7
ROMANS
  0
TEXT
  8
0
  6
CONTINUOUS
 62
   249
 10
43.007057
 20
64.124627
 30
0.0
 40
2.0
  1
16
  7
ROMANS
  0
TEXT
  8
0
  6
CONTINUOUS
 62
   249
 10
43.007057
 20
71.446487
 30
0.0
 40
2.0
  1
14
  7
ROMANS
  0
TEXT
  8
0
  6
CONTINUOUS
 62
   249
 10
43.007057
 20
76.932006
 30
0.0
 40
2.0
  1
11
  7
ROMANS
  0
TEXT
  8
0
  6
CONTINUOUS
 62
   249
 10
43.007057
 20
81.932006
 30
0.0
 40
2.0
  1
12
  7
ROMANS
  0
TEXT
  8
0
  6
CONTINUOUS
 62
   249
 10
43.007057
 20
59.505995
 30
0.0
 40
2.0
  1
17
  7
ROMANS
  0
LINE
  8
0
  6
HIDDEN
 62
   249
 10
42.5
 20
215.0
 30
0.0
 11
47.5
 21
215.0
 31
0.0
  0
LINE
  8
0
  6
HIDDEN
 62
   249
 10
47.5
 20
215.0
 30
0.0
 11
47.5
 21
140.0
 31
0.0
  0
LINE
  8
0
  6
HIDDEN
 62
   249
 10
47.5
 20
140.0
 30
0.0
 11
42.5
 21
140.0
 31
0.0
  0
TEXT
  8
0
  6
CONTINUOUS
 62
   249
 10
43.306147
 20
211.636967
 30
0.0
 40
2.0
  1
X1
  7
ROMANS
  0
TEXT
  8
0
  6
CONTINUOUS
 62
   249
 10
43.976696
 20
201.932006
 30
0.0
 40
2.0
  1
2
  7
ROMANS
  0
TEXT
  8
0
  6
CONTINUOUS
 62
   249
 10
43.976696
 20
206.932006
 30
0.0
 40
2.0
  1
1
  7
ROMANS
  0
TEXT
  8
0
  6
CONTINUOUS
 62
   249
 10
43.976696
 20
186.932006
 30
0.0
 40
2.0
  1
4
  7
ROMANS
  0
TEXT
  8
0
  6
CONTINUOUS
 62
   249
 10
43.976696
 20
191.932006
 30
0.0
 40
2.0
  1
3
  7
ROMANS
  0
TEXT
  8
0
  6
CONTINUOUS
 62
   249
 10
43.976696
 20
171.932006
 30
0.0
 40
2.0
  1
6
  7
ROMANS
  0
TEXT
  8
0
  6
CONTINUOUS
 62
   249
 10
43.976696
 20
176.932006
 30
0.0
 40
2.0
  1
5
  7
ROMANS
  0
TEXT
  8
0
  6
CONTINUOUS
 62
   249
 10
43.976696
 20
156.932006
 30
0.0
 40
2.0
  1
8
  7
ROMANS
  0
TEXT
  8
0
  6
CONTINUOUS
 62
   249
 10
43.976696
 20
161.932006
 30
0.0
 40
2.0
  1
7
  7
ROMANS
  0
TEXT
  8
0
  6
CONTINUOUS
 62
   249
 10
43.976696
 20
146.932006
 30
0.0
 40
2.0
  1
9
  7
ROMANS
  0
TEXT
  8
0
  6
CONTINUOUS
 62
   249
 10
43.007057
 20
141.932006
 30
0.0
 40
2.0
  1
10
  7
ROMANS
  0
TEXT
  8
0
  6
HIDDEN
 62
   249
 10
65.414748
 20
213.693637
 30
0.0
 40
2.0
  1
BS1
  7
ROMANS
  0
TEXT
  8
0
  6
HIDDEN
 62
   249
 10
65.414748
 20
198.693637
 30
0.0
 40
2.0
  1
BS2
  7
ROMANS
  0
TEXT
  8
0
  6
HIDDEN
 62
   249
 10
65.414748
 20
168.693637
 30
0.0
 40
2.0
  1
BS4
  7
ROMANS
  0
TEXT
  8
0
  6
HIDDEN
 62
   249
 10
65.414748
 20
183.693637
 30
0.0
 40
2.0
  1
BS3
  7
ROMANS
  0
TEXT
  8
0
  6
HIDDEN
 62
   249
 10
65.414748
 20
153.693637
 30
0.0
 40
2.0
  1
BS5
  7
ROMANS
  0
TEXT
  8
0
  6
HIDDEN
 62
   249
 10
80.885843
 20
135.0
 30
0.0
 40
2.0
  1
TS4
 50
90.0
  7
ROMANS
  0
TEXT
  8
0
  6
HIDDEN
 62
   249
 10
88.804544
 20
135.0
 30
0.0
 40
2.0
  1
TS3
 50
90.0
  7
ROMANS
  0
TEXT
  8
0
  6
HIDDEN
 62
   249
 10
96.220468
 20
135.0
 30
0.0
 40
2.0
  1
TS2
 50
90.0
  7
ROMANS
  0
TEXT
  8
0
  6
HIDDEN
 62
   249
 10
103.602905
 20
135.0
 30
0.0
 40
2.0
  1
TS1
 50
90.0
  7
ROMANS
  0
TEXT
  8
0
  6
HIDDEN
 62
   249
 10
110.885843
 20
135.0
 30
0.0
 40
2.0
  1
SS4
 50
90.0
  7
ROMANS
  0
TEXT
  8
0
  6
HIDDEN
 62
   249
 10
118.804544
 20
135.0
 30
0.0
 40
2.0
  1
SS3
 50
90.0
  7
ROMANS
  0
TEXT
  8
0
  6
HIDDEN
 62
   249
 10
126.220468
 20
135.0
 30
0.0
 40
2.0
  1
SS2
 50
90.0
  7
ROMANS
  0
TEXT
  8
0
  6
HIDDEN
 62
   249
 10
133.602905
 20
135.0
 30
0.0
 40
2.0
  1
SS1
 50
90.0
  7
ROMANS
  0
TEXT
  8
0
  6
DASHED
 62
   249
 10
28.03868
 20
176.519183
 30
0.0
 40
2.0
  1
1)
  7
ROMANS
  0
LINE
  8
0
  6
CONTINUOUS
 62
   249
 10
35.0
 20
144.999655
 30
0.0
 11
36.0
 21
143.999655
 31
0.0
  0
LINE
  8
0
  6
CONTINUOUS
 62
   249
 10
35.0
 20
210.0
 30
0.0
 11
36.0
 21
211.0
 31
0.0
  0
LINE
  8
0
  6
CONTINUOUS
 62
   249
 10
35.0
 20
210.0
 30
0.0
 11
35.0
 21
144.999655
 31
0.0
  0
LINE
  8
0
  6
DASHED
 62
   249
 10
42.5
 20
210.0
 30
0.0
 11
37.5
 21
210.0
 31
0.0
  0
LINE
  8
0
  6
DASHED
 62
   249
 10
42.5
 20
205.0
 30
0.0
 11
37.5
 21
205.0
 31
0.0
  0
LINE
  8
0
  6
DASHED
 62
   249
 10
42.5
 20
190.0
 30
0.0
 11
37.5
 21
190.0
 31
0.0
  0
LINE
  8
0
  6
DASHED
 62
   249
 10
42.5
 20
195.0
 30
0.0
 11
37.5
 21
195.0
 31
0.0
  0
LINE
  8
0
  6
DASHED
 62
   249
 10
42.5
 20
160.0
 30
0.0
 11
37.5
 21
160.0
 31
0.0
  0
LINE
  8
0
  6
DASHED
 62
   249
 10
42.5
 20
165.0
 30
0.0
 11
37.5
 21
165.0
 31
0.0
  0
LINE
  8
0
  6
DASHED
 62
   249
 10
42.5
 20
175.0
 30
0.0
 11
37.5
 21
175.0
 31
0.0
  0
LINE
  8
0
  6
DASHED
 62
   249
 10
42.5
 20
180.0
 30
0.0
 11
37.5
 21
180.0
 31
0.0
  0
LINE
  8
0
  6
DASHED
 62
   249
 10
42.5
 20
145.0
 30
0.0
 11
37.5
 21
145.0
 31
0.0
  0
LINE
  8
0
  6
DASHED
 62
   249
 10
42.5
 20
150.0
 30
0.0
 11
37.5
 21
150.0
 31
0.0
  0
LINE
  8
0
  6
DASHED
 62
   249
 10
42.5
 20
120.0
 30
0.0
 11
37.5
 21
120.0
 31
0.0
  0
LINE
  8
0
  6
DASHED
 62
   249
 10
42.5
 20
125.0
 30
0.0
 11
37.5
 21
125.0
 31
0.0
  0
LINE
  8
0
  6
DASHED
 62
   249
 10
42.5
 20
130.0
 30
0.0
 11
37.5
 21
130.0
 31
0.0
  0
LINE
  8
0
  6
DASHED
 62
   249
 10
42.5
 20
100.0
 30
0.0
 11
37.5
 21
100.0
 31
0.0
  0
LINE
  8
0
  6
DASHED
 62
   249
 10
42.5
 20
80.0
 30
0.0
 11
37.5
 21
80.0
 31
0.0
  0
LINE
  8
0
  6
DASHED
 62
   249
 10
42.5
 20
85.0
 30
0.0
 11
37.5
 21
85.0
 31
0.0
  0
LINE
  8
0
  6
DASHED
 62
   249
 10
42.5
 20
75.0
 30
0.0
 11
37.5
 21
75.0
 31
0.0
  0
LINE
  8
0
  6
CONTINUOUS
 62
   249
 10
35.0
 20
95.0
 30
0.0
 11
36.0
 21
96.0
 31
0.0
  0
LINE
  8
0
  6
CONTINUOUS
 62
   249
 10
35.0
 20
95.0
 30
0.0
 11
35.0
 21
74.999655
 31
0.0
  0
LINE
  8
0
  6
CONTINUOUS
 62
   249
 10
35.0
 20
74.999655
 30
0.0
 11
36.0
 21
73.999655
 31
0.0
  0
TEXT
  8
0
  6
DASHED
 62
   249
 10
28.03868
 20
84.019183
 30
0.0
 40
2.0
  1
3)
  7
ROMANS
  0
LINE
  8
0
  6
DASHED
 62
   249
 10
152.5
 20
57.5
 30
0.0
 11
152.5
 21
50.0
 31
0.0
  0
LINE
  8
0
  6
DASHED
 62
   249
 10
182.5
 20
57.5
 30
0.0
 11
182.5
 21
50.0
 31
0.0
  0
LINE
  8
0
  6
DASHED
 62
   249
 10
207.5
 20
57.5
 30
0.0
 11
207.5
 21
50.0
 31
0.0
  0
LINE
  8
0
  6
DASHED
 62
   249
 10
202.5
 20
57.5
 30
0.0
 11
202.5
 21
50.0
 31
0.0
  0
LINE
  8
0
  6
DASHED
 62
   249
 10
197.5
 20
57.5
 30
0.0
 11
197.5
 21
50.0
 31
0.0
  0
LINE
  8
0
  6
DASHED
 62
   249
 10
192.5
 20
57.5
 30
0.0
 11
192.5
 21
50.0
 31
0.0
  0
TEXT
  8
0
  6
DASHED
 62
   249
 10
334.773514
 20
115.812297
 30
0.0
 40
2.0
  1
  UTLÖSNING
  7
ROMANS
  0
TEXT
  8
0
  6
DASHED
 62
   249
 10
333.434499
 20
119.145631
 30
0.0
 40
2.0
  1
2) TRIP
  7
ROMANS
  0
TEXT
  8
0
  6
DASHED
 62
   249
 10
339.174255
 20
125.812297
 30
0.0
 40
2.0
  1
KONTROLLINGÅNGAR
  7
ROMANS
  0
TEXT
  8
0
  6
DASHED
 62
   249
 10
333.434499
 20
129.145631
 30
0.0
 40
2.0
  1
1) CONTROL INPUTS
  7
ROMANS
  0
TEXT
  8
0
  6
DASHED
 62
   249
 10
334.665
 20
87.340526
 30
0.0
 40
2.0
  1
  BUSSANSLUTNINGSMODUL
  7
ROMANS
  0
TEXT
  8
0
  6
HIDDEN
 62
   249
 10
369.606363
 20
237.569948
 30
0.0
 40
2.5
  1
I
  7
GREEKS
  0
TEXT
  8
0
  6
HIDDEN
 62
   249
 10
367.019729
 20
237.564414
 30
0.0
 40
2.339483
  1
D
  7
GREEKC
  0
TEXT
  8
0
  6
CONTINUOUS
 62
   249
 10
370.974207
 20
237.039367
 30
0.0
 40
1.5
  1
02
  7
ROMANS
  0
TEXT
  8
0
  6
CONTINUOUS
 62
   249
 10
370.974207
 20
242.572535
 30
0.0
 40
1.5
  1
01
  7
ROMANS
  0
TEXT
  8
0
  6
HIDDEN
 62
   249
 10
367.019729
 20
243.097582
 30
0.0
 40
2.339483
  1
D
  7
GREEKC
  0
TEXT
  8
0
  6
HIDDEN
 62
   249
 10
369.606363
 20
243.103115
 30
0.0
 40
2.5
  1
I
  7
GREEKS
  0
LINE
  8
0
  6
CONTINUOUS
 62
   249
 10
380.0
 20
235.200267
 30
0.0
 11
362.5
 21
235.200267
 31
0.0
  0
LINE
  8
0
  6
CONTINUOUS
 62
   249
 10
362.5
 20
215.200267
 30
0.0
 11
362.5
 21
255.200267
 31
0.0
  0
LINE
  8
0
  6
CONTINUOUS
 62
   249
 10
380.0
 20
255.200267
 30
0.0
 11
380.0
 21
215.200267
 31
0.0
  0
TEXT
  8
0
  6
HIDDEN
 62
   249
 10
372.237005
 20
250.083691
 30
0.0
 40
2.339483
  1
D
  7
GREEKC
  0
TEXT
  8
0
  6
CONTINUOUS
 62
   249
 10
367.850889
 20
250.047154
 30
0.0
 40
2.5
  1
Y
  7
GREEKS
  0
TEXT
  8
0
  6
CONTINUOUS
 62
   249
 10
370.178949
 20
250.047154
 30
0.0
 40
2.5
  1
/
  7
GREEKS
  0
LINE
  8
0
  6
CONTINUOUS
 62
   249
 10
380.0
 20
215.200267
 30
0.0
 11
362.5
 21
215.200267
 31
0.0
  0
TEXT
  8
0
  6
HIDDEN
 62
   249
 10
344.796099
 20
52.441177
 30
0.0
 40
2.0
  1
I
  7
GREEKS
  0
TEXT
  8
0
  6
CONTINUOUS
 62
   249
 10
346.163944
 20
51.910596
 30
0.0
 40
1.5
  1
02
  7
ROMANS
  0
TEXT
  8
0
  6
CONTINUOUS
 62
   249
 10
346.163944
 20
56.530117
 30
0.0
 40
1.5
  1
01
  7
ROMANS
  0
TEXT
  8
0
  6
HIDDEN
 62
   249
 10
344.796099
 20
57.060697
 30
0.0
 40
2.0
  1
I
  7
GREEKS
  0
TEXT
  8
0
  6
DASHED
 62
   249
 10
355.93529
 20
57.066661
 30
0.0
 40
2.0
  1
25-27
  7
ROMANS
  0
TEXT
  8
0
  6
DASHED
 62
   249
 10
370.390565
 20
57.066661
 30
0.0
 40
2.0
  1
25-26
  7
ROMANS
  0
TEXT
  8
0
  6
DASHED
 62
   249
 10
355.93529
 20
52.41941
 30
0.0
 40
2.0
  1
37-39
  7
ROMANS
  0
TEXT
  8
0
  6
DASHED
 62
   249
 10
370.390565
 20
52.41941
 30
0.0
 40
2.0
  1
37-38
  7
ROMANS
  0
LINE
  8
0
  6
DASHED
 62
   249
 10
42.5
 20
67.5
 30
0.0
 11
37.5
 21
67.5
 31
0.0
  0
LINE
  8
0
  6
CONTINUOUS
 62
   249
 10
177.5
 20
147.5
 30
0.0
 11
135.0
 21
147.5
 31
0.0
  0
LINE
  8
0
  6
CONTINUOUS
 62
   249
 10
177.5
 20
150.0
 30
0.0
 11
127.5
 21
150.0
 31
0.0
  0
LINE
  8
0
  6
CONTINUOUS
 62
   249
 10
177.5
 20
152.5
 30
0.0
 11
120.0
 21
152.5
 31
0.0
  0
LINE
  8
0
  6
CONTINUOUS
 62
   249
 10
177.5
 20
155.0
 30
0.0
 11
112.5
 21
155.0
 31
0.0
  0
LINE
  8
0
  6
CONTINUOUS
 62
   249
 10
177.5
 20
157.5
 30
0.0
 11
105.0
 21
157.5
 31
0.0
  0
LINE
  8
0
  6
CONTINUOUS
 62
   249
 10
177.5
 20
160.0
 30
0.0
 11
97.5
 21
160.0
 31
0.0
  0
LINE
  8
0
  6
CONTINUOUS
 62
   249
 10
177.5
 20
162.5
 30
0.0
 11
90.0
 21
162.5
 31
0.0
  0
LINE
  8
0
  6
CONTINUOUS
 62
   249
 10
177.5
 20
165.0
 30
0.0
 11
82.5
 21
165.0
 31
0.0
  0
TEXT
  8
0
  6
CONTINUOUS
 62
   249
 10
201.304856
 20
147.797936
 30
0.0
 40
2.5
  1
I
  7
GREEKS
  0
TEXT
  8
0
  6
CONTINUOUS
 62
   249
 10
198.98251
 20
173.208084
 30
0.0
 40
2.5
  1
2I
  7
GREEKS
  0
TEXT
  8
0
  6
HIDDEN
 62
   249
 10
184.465572
 20
160.765958
 30
0.0
 40
2.5
  1
3I
  7
GREEKS
  0
TEXT
  8
0
  6
CONTINUOUS
 62
   249
 10
185.263908
 20
154.46516
 30
0.0
 40
2.5
  1
I
  7
GREEKS
  0
TEXT
  8
0
  6
HIDDEN
 62
   249
 10
184.009751
 20
147.651397
 30
0.0
 40
2.339483
  1
D
  7
GREEKC
  0
TEXT
  8
0
  6
HIDDEN
 62
   249
 10
186.596384
 20
147.65693
 30
0.0
 40
2.5
  1
I
  7
GREEKS
  0
TEXT
  8
0
  6
HIDDEN
 62
   249
 10
367.869303
 20
229.080387
 30
0.0
 40
2.5
  1
3I
  7
GREEKS
  0
TEXT
  8
0
  6
HIDDEN
 62
   249
 10
368.443764
 20
223.295203
 30
0.0
 40
2.5
  1
I
  7
GREEKS
  0
TEXT
  8
0
  6
HIDDEN
 62
   249
 10
367.019729
 20
217.494579
 30
0.0
 40
2.339483
  1
D
  7
GREEKC
  0
TEXT
  8
0
  6
HIDDEN
 62
   249
 10
369.606363
 20
217.500112
 30
0.0
 40
2.5
  1
I
  7
GREEKS
  0
LINE
  8
0
  6
CONTINUOUS
 62
   249
 10
75.0
 20
152.5
 30
0.0
 11
75.0
 21
217.5
 31
0.0
  0
LINE
  8
0
  6
CONTINUOUS
 62
   249
 10
72.5
 20
220.0
 30
0.0
 11
215.0
 21
220.0
 31
0.0
  0
LINE
  8
0
  6
CONTINUOUS
 62
   249
 10
217.5
 20
172.5
 30
0.0
 11
217.5
 21
217.5
 31
0.0
  0
LINE
  8
0
  6
CONTINUOUS
 62
   249
 10
207.950615
 20
172.5
 30
0.0
 11
217.5
 21
172.5
 31
0.0
  0
LINE
  8
0
  6
DASHED
 62
   249
 10
295.192464
 20
155.0
 30
0.0
 11
295.192464
 21
167.5
 31
0.0
  0
LINE
  8
0
  6
CONTINUOUS
 62
   249
 10
304.069697
 20
160.0
 30
0.0
 11
304.069697
 21
158.480665
 31
0.0
  0
LINE
  8
0
  6
CONTINUOUS
 62
   249
 10
303.466002
 20
156.699112
 30
0.0
 11
304.673392
 21
156.699112
 31
0.0
  0
LINE
  8
0
  6
CONTINUOUS
 62
   249
 10
303.033504
 20
157.586625
 30
0.0
 11
305.09688
 21
157.586625
 31
0.0
  0
LINE
  8
0
  6
CONTINUOUS
 62
   249
 10
302.537934
 20
158.480665
 30
0.0
 11
305.60146
 21
158.480665
 31
0.0
  0
LINE
  8
0
  6
CONTINUOUS
 62
   249
 10
304.069697
 20
142.5
 30
0.0
 11
304.069697
 21
140.980665
 31
0.0
  0
LINE
  8
0
  6
CONTINUOUS
 62
   249
 10
302.537934
 20
140.980665
 30
0.0
 11
305.60146
 21
140.980665
 31
0.0
  0
LINE
  8
0
  6
CONTINUOUS
 62
   249
 10
303.033504
 20
140.086625
 30
0.0
 11
305.09688
 21
140.086625
 31
0.0
  0
LINE
  8
0
  6
CONTINUOUS
 62
   249
 10
303.466002
 20
139.199112
 30
0.0
 11
304.673392
 21
139.199112
 31
0.0
  0
LINE
  8
0
  6
DASHED
 62
   249
 10
302.5
 20
112.689984
 30
0.0
 11
302.5
 21
117.5
 31
0.0
  0
LINE
  8
0
  6
DASHED
 62
   249
 10
302.5
 20
95.189984
 30
0.0
 11
302.5
 21
100.0
 31
0.0
  0
LINE
  8
0
  6
DASHED
 62
   249
 10
302.5
 20
100.0
 30
0.0
 11
282.5
 21
100.0
 31
0.0
  0
LINE
  8
0
  6
DASHED
 62
   249
 10
302.5
 20
117.5
 30
0.0
 11
297.5
 21
117.5
 31
0.0
  0
ARC
  8
0
  6
CONTINUOUS
 62
   249
 10
72.5
 20
197.5
 30
0.0
 40
0.5
 50
180.0
 51
0.0
  0
ARC
  8
0
  6
CONTINUOUS
 62
   249
 10
72.5
 20
197.5
 30
0.0
 40
0.5
 50
0.0
 51
180.0
  0
ARC
  8
0
  6
CONTINUOUS
 62
   249
 10
72.5
 20
212.5
 30
0.0
 40
0.5
 50
180.0
 51
0.0
  0
ARC
  8
0
  6
CONTINUOUS
 62
   249
 10
72.5
 20
212.5
 30
0.0
 40
0.5
 50
0.0
 51
180.0
  0
ARC
  8
0
  6
HIDDEN
 62
   249
 10
135.0
 20
147.5
 30
0.0
 40
0.5
 50
180.0
 51
0.0
  0
ARC
  8
0
  6
HIDDEN
 62
   249
 10
135.0
 20
147.5
 30
0.0
 40
0.5
 50
0.0
 51
180.0
  0
ARC
  8
0
  6
CONTINUOUS
 62
   249
 10
75.0
 20
167.5
 30
0.0
 40
0.5
 50
180.0
 51
0.0
  0
ARC
  8
0
  6
CONTINUOUS
 62
   249
 10
75.0
 20
167.5
 30
0.0
 40
0.5
 50
0.0
 51
180.0
  0
ARC
  8
0
  6
HIDDEN
 62
   249
 10
90.0
 20
162.5
 30
0.0
 40
0.5
 50
180.0
 51
0.0
  0
ARC
  8
0
  6
HIDDEN
 62
   249
 10
90.0
 20
162.5
 30
0.0
 40
0.5
 50
0.0
 51
180.0
  0
ARC
  8
0
  6
HIDDEN
 62
   249
 10
97.5
 20
160.0
 30
0.0
 40
0.5
 50
180.0
 51
0.0
  0
ARC
  8
0
  6
HIDDEN
 62
   249
 10
97.5
 20
160.0
 30
0.0
 40
0.5
 50
0.0
 51
180.0
  0
ARC
  8
0
  6
HIDDEN
 62
   249
 10
120.0
 20
152.5
 30
0.0
 40
0.5
 50
180.0
 51
0.0
  0
ARC
  8
0
  6
HIDDEN
 62
   249
 10
120.0
 20
152.5
 30
0.0
 40
0.5
 50
0.0
 51
180.0
  0
ARC
  8
0
  6
HIDDEN
 62
   249
 10
127.5
 20
150.0
 30
0.0
 40
0.5
 50
180.0
 51
0.0
  0
ARC
  8
0
  6
HIDDEN
 62
   249
 10
127.5
 20
150.0
 30
0.0
 40
0.5
 50
0.0
 51
180.0
  0
ARC
  8
0
  6
HIDDEN
 62
   249
 10
112.5
 20
155.0
 30
0.0
 40
0.5
 50
180.0
 51
0.0
  0
ARC
  8
0
  6
HIDDEN
 62
   249
 10
112.5
 20
155.0
 30
0.0
 40
0.5
 50
0.0
 51
180.0
  0
ARC
  8
0
  6
HIDDEN
 62
   249
 10
105.0
 20
157.5
 30
0.0
 40
0.5
 50
180.0
 51
0.0
  0
ARC
  8
0
  6
HIDDEN
 62
   249
 10
105.0
 20
157.5
 30
0.0
 40
0.5
 50
0.0
 51
180.0
  0
LINE
  8
0
  6
CONTINUOUS
 62
   249
 10
171.44017
 20
133.664649
 30
0.0
 11
169.094404
 21
135.000003
 31
0.0
  0
LINE
  8
0
  6
CONTINUOUS
 62
   249
 10
169.094404
 20
135.000003
 30
0.0
 11
171.44017
 21
136.189922
 31
0.0
  0
LINE
  8
0
  6
CONTINUOUS
 62
   249
 10
189.118279
 20
149.377534
 30
0.0
 11
190.72448
 21
148.463186
 31
0.0
  0
LINE
  8
0
  6
CONTINUOUS
 62
   249
 10
190.72448
 20
148.463186
 30
0.0
 11
189.118279
 21
147.64842
 31
0.0
  0
LINE
  8
0
  6
CONTINUOUS
 62
   249
 10
189.106308
 20
162.486562
 30
0.0
 11
190.712509
 21
161.572214
 31
0.0
  0
LINE
  8
0
  6
CONTINUOUS
 62
   249
 10
190.712509
 20
161.572214
 30
0.0
 11
189.106308
 21
160.757449
 31
0.0
  0
LINE
  8
0
  6
CONTINUOUS
 62
   249
 10
188.822312
 20
155.960158
 30
0.0
 11
188.822312
 21
154.605888
 31
0.0
  0
LINE
  8
0
  6
CONTINUOUS
 62
   249
 10
187.612085
 20
154.605888
 30
0.0
 11
188.806426
 21
154.605888
 31
0.0
  0
LINE
  8
0
  6
CONTINUOUS
 62
   249
 10
188.806426
 20
154.605888
 30
0.0
 11
190.000767
 21
154.605888
 31
0.0
  0
LINE
  8
0
  6
CONTINUOUS
 62
   249
 10
187.99049
 20
153.983825
 30
0.0
 11
189.575061
 21
153.983825
 31
0.0
  0
LINE
  8
0
  6
CONTINUOUS
 62
   249
 10
188.321594
 20
153.372192
 30
0.0
 11
189.208481
 21
153.372192
 31
0.0
  0
LINE
  8
0
  6
CONTINUOUS
 62
   249
 10
191.237121
 20
174.910662
 30
0.0
 11
192.843322
 21
173.996313
 31
0.0
  0
LINE
  8
0
  6
CONTINUOUS
 62
   249
 10
192.843322
 20
173.996313
 30
0.0
 11
191.237121
 21
173.181548
 31
0.0
  0
LINE
  8
0
  6
CONTINUOUS
 62
   249
 10
191.237121
 20
180.728226
 30
0.0
 11
192.843322
 21
179.813878
 31
0.0
  0
LINE
  8
0
  6
CONTINUOUS
 62
   249
 10
192.843322
 20
179.813878
 30
0.0
 11
191.237121
 21
178.999113
 31
0.0
  0
LINE
  8
0
 62
   249
 10
245.0
 20
130.0
 30
0.0
 11
243.480133
 21
130.0
 31
0.0
  0
ARC
  8
0
 62
   249
 10
245.065849
 20
131.25
 30
0.0
 40
1.251733
 50
266.984476
 51
93.015524
  0
LINE
  8
0
 62
   249
 10
245.0
 20
132.5
 30
0.0
 11
243.480133
 21
132.5
 31
0.0
  0
LINE
  8
0
 62
   249
 10
245.0
 20
135.0
 30
0.0
 11
243.480133
 21
135.0
 31
0.0
  0
ARC
  8
0
 62
   249
 10
245.065849
 20
133.75
 30
0.0
 40
1.251733
 50
266.984476
 51
93.015524
  0
LINE
  8
0
 62
   249
 10
250.0
 20
127.5
 30
0.0
 11
252.5
 21
127.5
 31
0.0
  0
ARC
  8
0
 62
   249
 10
249.934151
 20
128.75
 30
0.0
 40
1.251733
 50
86.984476
 51
273.015524
  0
ARC
  8
0
 62
   249
 10
249.934151
 20
131.25
 30
0.0
 40
1.251733
 50
86.984476
 51
273.015524
  0
LINE
  8
0
 62
   249
 10
250.0
 20
130.0
 30
0.0
 11
252.5
 21
130.0
 31
0.0
  0
LINE
  8
0
 62
   249
 10
250.0
 20
132.5
 30
0.0
 11
252.5
 21
132.5
 31
0.0
  0
LINE
  8
0
 62
   249
 10
252.5
 20
132.5
 30
0.0
 11
255.0
 21
132.5
 31
0.0
  0
LINE
  8
0
 62
   249
 10
252.5
 20
127.5
 30
0.0
 11
255.0
 21
127.5
 31
0.0
  0
LINE
  8
0
 62
   249
 10
252.5
 20
132.5
 30
0.0
 11
255.0
 21
132.5
 31
0.0
  0
LINE
  8
0
 62
   249
 10
252.5
 20
137.5
 30
0.0
 11
255.0
 21
137.5
 31
0.0
  0
LINE
  8
0
 62
   249
 10
250.0
 20
137.5
 30
0.0
 11
252.5
 21
137.5
 31
0.0
  0
LINE
  8
0
 62
   249
 10
250.0
 20
135.0
 30
0.0
 11
252.5
 21
135.0
 31
0.0
  0
ARC
  8
0
 62
   249
 10
249.934151
 20
136.25
 30
0.0
 40
1.251733
 50
86.984476
 51
273.015524
  0
ARC
  8
0
 62
   249
 10
249.934151
 20
133.75
 30
0.0
 40
1.251733
 50
86.984476
 51
273.015524
  0
LINE
  8
0
 62
   249
 10
250.0
 20
132.5
 30
0.0
 11
252.5
 21
132.5
 31
0.0
  0
INSERT
  8
0
  6
CENTER
 62
   249
  2
BLC26
 10
316.410524
 20
130.080448
 30
0.0
 41
1.006225
 42
1.006225
 50
180.0
 43
1.006225
  0
INSERT
  8
0
  6
CENTER
 62
   249
  2
BLC5
 10
240.291926
 20
45.842005
 30
0.0
 41
0.6
 42
0.6
 43
0.6
  0
LINE
  8
0
 62
   249
 10
211.786248
 20
6.306997
 30
0.0
 11
213.547099
 21
8.067848
 31
0.0
  0
LINE
  8
0
 62
   249
 10
211.852879
 20
6.497372
 30
0.0
 11
213.547099
 21
8.191591
 31
0.0
  0
LINE
  8
0
 62
   249
 10
211.919511
 20
6.687747
 30
0.0
 11
213.547099
 21
8.315335
 31
0.0
  0
LINE
  8
0
 62
   249
 10
211.986142
 20
6.878122
 30
0.0
 11
213.547099
 21
8.439079
 31
0.0
  0
LINE
  8
0
 62
   249
 10
212.052773
 20
7.068497
 30
0.0
 11
213.547099
 21
8.562822
 31
0.0
  0
LINE
  8
0
 62
   249
 10
212.119404
 20
7.258871
 30
0.0
 11
213.547099
 21
8.686566
 31
0.0
  0
LINE
  8
0
 62
   249
 10
212.186036
 20
7.449246
 30
0.0
 11
213.474788
 21
8.737999
 31
0.0
  0
LINE
  8
0
 62
   249
 10
212.252667
 20
7.639621
 30
0.0
 11
213.351045
 21
8.737999
 31
0.0
  0
LINE
  8
0
 62
   249
 10
212.319298
 20
7.829996
 30
0.0
 11
213.227301
 21
8.737999
 31
0.0
  0
LINE
  8
0
 62
   249
 10
212.385929
 20
8.020371
 30
0.0
 11
213.103557
 21
8.737999
 31
0.0
  0
LINE
  8
0
 62
   249
 10
212.45256
 20
8.210746
 30
0.0
 11
212.979814
 21
8.737999
 31
0.0
  0
LINE
  8
0
 62
   249
 10
212.519192
 20
8.401121
 30
0.0
 11
212.85607
 21
8.737999
 31
0.0
  0
LINE
  8
0
 62
   249
 10
212.585823
 20
8.591496
 30
0.0
 11
212.732326
 21
8.737999
 31
0.0
  0
LINE
  8
0
 62
   249
 10
211.719617
 20
6.116622
 30
0.0
 11
213.547099
 21
7.944104
 31
0.0
  0
LINE
  8
0
 62
   249
 10
211.652986
 20
5.926247
 30
0.0
 11
213.547099
 21
7.82036
 31
0.0
  0
LINE
  8
0
 62
   249
 10
211.586355
 20
5.735872
 30
0.0
 11
213.547099
 21
7.696617
 31
0.0
  0
LINE
  8
0
 62
   249
 10
211.519723
 20
5.545497
 30
0.0
 11
213.547099
 21
7.572873
 31
0.0
  0
LINE
  8
0
 62
   249
 10
211.475969
 20
5.377999
 30
0.0
 11
213.547099
 21
7.449129
 31
0.0
  0
LINE
  8
0
 62
   249
 10
211.599713
 20
5.377999
 30
0.0
 11
213.547099
 21
7.325386
 31
0.0
  0
LINE
  8
0
 62
   249
 10
211.723456
 20
5.377999
 30
0.0
 11
213.547099
 21
7.201642
 31
0.0
  0
LINE
  8
0
 62
   249
 10
211.8472
 20
5.377999
 30
0.0
 11
213.547099
 21
7.077898
 31
0.0
  0
LINE
  8
0
 62
   249
 10
211.970944
 20
5.377999
 30
0.0
 11
213.547099
 21
6.954155
 31
0.0
  0
LINE
  8
0
 62
   249
 10
212.094687
 20
5.377999
 30
0.0
 11
213.547099
 21
6.830411
 31
0.0
  0
LINE
  8
0
 62
   249
 10
212.218431
 20
5.377999
 30
0.0
 11
213.547099
 21
6.706667
 31
0.0
  0
LINE
  8
0
 62
   249
 10
212.342175
 20
5.377999
 30
0.0
 11
213.547099
 21
6.582923
 31
0.0
  0
LINE
  8
0
 62
   249
 10
212.465919
 20
5.377999
 30
0.0
 11
213.547099
 21
6.45918
 31
0.0
  0
LINE
  8
0
 62
   249
 10
212.589662
 20
5.377999
 30
0.0
 11
213.547099
 21
6.335436
 31
0.0
  0
LINE
  8
0
 62
   249
 10
212.713406
 20
5.377999
 30
0.0
 11
213.547099
 21
6.211692
 31
0.0
  0
LINE
  8
0
 62
   249
 10
212.83715
 20
5.377999
 30
0.0
 11
213.547099
 21
6.087949
 31
0.0
  0
LINE
  8
0
 62
   249
 10
212.960893
 20
5.377999
 30
0.0
 11
213.547099
 21
5.964205
 31
0.0
  0
LINE
  8
0
 62
   249
 10
213.084637
 20
5.377999
 30
0.0
 11
213.547099
 21
5.840461
 31
0.0
  0
LINE
  8
0
 62
   249
 10
213.208381
 20
5.377999
 30
0.0
 11
213.547099
 21
5.716718
 31
0.0
  0
LINE
  8
0
 62
   249
 10
213.332124
 20
5.377999
 30
0.0
 11
213.547099
 21
5.592974
 31
0.0
  0
LINE
  8
0
 62
   249
 10
213.455868
 20
5.377999
 30
0.0
 11
213.547099
 21
5.46923
 31
0.0
  0
LINE
  8
0
 62
   249
 10
213.827099
 20
5.996718
 30
0.0
 11
215.211876
 21
7.381494
 31
0.0
  0
LINE
  8
0
 62
   249
 10
213.827099
 20
6.120461
 30
0.0
 11
215.179794
 21
7.473156
 31
0.0
  0
LINE
  8
0
 62
   249
 10
213.827099
 20
6.244205
 30
0.0
 11
215.147712
 21
7.564818
 31
0.0
  0
LINE
  8
0
 62
   249
 10
213.827099
 20
6.367949
 30
0.0
 11
215.115631
 21
7.65648
 31
0.0
  0
LINE
  8
0
 62
   249
 10
213.827099
 20
6.491692
 30
0.0
 11
215.083549
 21
7.748142
 31
0.0
  0
LINE
  8
0
 62
   249
 10
213.827099
 20
6.615436
 30
0.0
 11
215.051467
 21
7.839804
 31
0.0
  0
LINE
  8
0
 62
   249
 10
213.827099
 20
6.73918
 30
0.0
 11
215.019386
 21
7.931466
 31
0.0
  0
LINE
  8
0
 62
   249
 10
213.827099
 20
6.862923
 30
0.0
 11
214.987304
 21
8.023128
 31
0.0
  0
LINE
  8
0
 62
   249
 10
213.827099
 20
6.986667
 30
0.0
 11
214.955222
 21
8.11479
 31
0.0
  0
LINE
  8
0
 62
   249
 10
213.827099
 20
7.110411
 30
0.0
 11
214.923141
 21
8.206452
 31
0.0
  0
LINE
  8
0
 62
   249
 10
213.827099
 20
7.234155
 30
0.0
 11
214.891059
 21
8.298114
 31
0.0
  0
LINE
  8
0
 62
   249
 10
213.827099
 20
7.357898
 30
0.0
 11
214.858977
 21
8.389776
 31
0.0
  0
LINE
  8
0
 62
   249
 10
213.827099
 20
7.481642
 30
0.0
 11
214.826895
 21
8.481438
 31
0.0
  0
LINE
  8
0
 62
   249
 10
213.827099
 20
7.605386
 30
0.0
 11
214.794814
 21
8.5731
 31
0.0
  0
LINE
  8
0
 62
   249
 10
213.827099
 20
7.729129
 30
0.0
 11
214.762732
 21
8.664762
 31
0.0
  0
LINE
  8
0
 62
   249
 10
213.827099
 20
7.852873
 30
0.0
 11
214.712225
 21
8.737999
 31
0.0
  0
LINE
  8
0
 62
   249
 10
213.827099
 20
7.976617
 30
0.0
 11
214.588482
 21
8.737999
 31
0.0
  0
LINE
  8
0
 62
   249
 10
213.827099
 20
8.10036
 30
0.0
 11
214.464738
 21
8.737999
 31
0.0
  0
LINE
  8
0
 62
   249
 10
213.827099
 20
8.224104
 30
0.0
 11
214.340994
 21
8.737999
 31
0.0
  0
LINE
  8
0
 62
   249
 10
213.827099
 20
8.347848
 30
0.0
 11
214.217251
 21
8.737999
 31
0.0
  0
LINE
  8
0
 62
   249
 10
213.827099
 20
8.471591
 30
0.0
 11
214.093507
 21
8.737999
 31
0.0
  0
LINE
  8
0
 62
   249
 10
213.827099
 20
8.595335
 30
0.0
 11
213.969763
 21
8.737999
 31
0.0
  0
LINE
  8
0
 62
   249
 10
213.827099
 20
8.719079
 30
0.0
 11
213.84602
 21
8.737999
 31
0.0
  0
LINE
  8
0
 62
   249
 10
213.827099
 20
5.872974
 30
0.0
 11
215.243957
 21
7.289832
 31
0.0
  0
LINE
  8
0
 62
   249
 10
213.827099
 20
5.74923
 30
0.0
 11
215.276039
 21
7.19817
 31
0.0
  0
LINE
  8
0
 62
   249
 10
213.827099
 20
5.625487
 30
0.0
 11
215.308121
 21
7.106508
 31
0.0
  0
LINE
  8
0
 62
   249
 10
213.827099
 20
5.501743
 30
0.0
 11
215.340203
 21
7.014846
 31
0.0
  0
LINE
  8
0
 62
   249
 10
213.827099
 20
5.377999
 30
0.0
 11
215.372284
 21
6.923184
 31
0.0
  0
LINE
  8
0
 62
   249
 10
213.950843
 20
5.377999
 30
0.0
 11
215.404366
 21
6.831522
 31
0.0
  0
LINE
  8
0
 62
   249
 10
214.074586
 20
5.377999
 30
0.0
 11
215.436448
 21
6.73986
 31
0.0
  0
LINE
  8
0
 62
   249
 10
214.19833
 20
5.377999
 30
0.0
 11
215.468529
 21
6.648198
 31
0.0
  0
LINE
  8
0
 62
   249
 10
214.322074
 20
5.377999
 30
0.0
 11
215.500611
 21
6.556536
 31
0.0
  0
LINE
  8
0
 62
   249
 10
214.445818
 20
5.377999
 30
0.0
 11
215.532693
 21
6.464874
 31
0.0
  0
LINE
  8
0
 62
   249
 10
214.569561
 20
5.377999
 30
0.0
 11
215.564774
 21
6.373212
 31
0.0
  0
LINE
  8
0
 62
   249
 10
214.693305
 20
5.377999
 30
0.0
 11
215.596856
 21
6.281551
 31
0.0
  0
LINE
  8
0
 62
   249
 10
214.817049
 20
5.377999
 30
0.0
 11
215.628938
 21
6.189889
 31
0.0
  0
LINE
  8
0
 62
   249
 10
214.940792
 20
5.377999
 30
0.0
 11
215.66102
 21
6.098227
 31
0.0
  0
LINE
  8
0
 62
   249
 10
215.064536
 20
5.377999
 30
0.0
 11
215.693101
 21
6.006565
 31
0.0
  0
LINE
  8
0
 62
   249
 10
215.18828
 20
5.377999
 30
0.0
 11
215.725183
 21
5.914903
 31
0.0
  0
LINE
  8
0
 62
   249
 10
215.312023
 20
5.377999
 30
0.0
 11
215.757265
 21
5.823241
 31
0.0
  0
LINE
  8
0
 62
   249
 10
215.435767
 20
5.377999
 30
0.0
 11
215.789346
 21
5.731579
 31
0.0
  0
LINE
  8
0
 62
   249
 10
215.559511
 20
5.377999
 30
0.0
 11
215.821428
 21
5.639917
 31
0.0
  0
LINE
  8
0
 62
   249
 10
215.683254
 20
5.377999
 30
0.0
 11
215.85351
 21
5.548255
 31
0.0
  0
LINE
  8
0
 62
   249
 10
215.806998
 20
5.377999
 30
0.0
 11
215.885591
 21
5.456593
 31
0.0
  0
LINE
  8
0
 62
   249
 10
217.677099
 20
6.134407
 30
0.0
 11
219.637099
 21
8.094407
 31
0.0
  0
LINE
  8
0
 62
   249
 10
217.677099
 20
6.258151
 30
0.0
 11
219.637099
 21
8.218151
 31
0.0
  0
LINE
  8
0
 62
   249
 10
217.677099
 20
6.381894
 30
0.0
 11
219.637099
 21
8.341894
 31
0.0
  0
LINE
  8
0
 62
   249
 10
217.677099
 20
6.505638
 30
0.0
 11
219.637099
 21
8.465638
 31
0.0
  0
LINE
  8
0
 62
   249
 10
217.677099
 20
6.629382
 30
0.0
 11
219.637099
 21
8.589382
 31
0.0
  0
LINE
  8
0
 62
   249
 10
217.677099
 20
6.753126
 30
0.0
 11
219.637099
 21
8.713126
 31
0.0
  0
LINE
  8
0
 62
   249
 10
217.677099
 20
6.876869
 30
0.0
 11
219.538229
 21
8.737999
 31
0.0
  0
LINE
  8
0
 62
   249
 10
217.677099
 20
7.000613
 30
0.0
 11
219.414485
 21
8.737999
 31
0.0
  0
LINE
  8
0
 62
   249
 10
217.677099
 20
7.124357
 30
0.0
 11
219.290742
 21
8.737999
 31
0.0
  0
LINE
  8
0
 62
   249
 10
217.677099
 20
7.2481
 30
0.0
 11
219.166998
 21
8.737999
 31
0.0
  0
LINE
  8
0
 62
   249
 10
217.677099
 20
7.371844
 30
0.0
 11
219.043254
 21
8.737999
 31
0.0
  0
LINE
  8
0
 62
   249
 10
217.677099
 20
7.495588
 30
0.0
 11
218.919511
 21
8.737999
 31
0.0
  0
LINE
  8
0
 62
   249
 10
217.677099
 20
7.619331
 30
0.0
 11
218.795767
 21
8.737999
 31
0.0
  0
LINE
  8
0
 62
   249
 10
217.677099
 20
7.743075
 30
0.0
 11
218.672023
 21
8.737999
 31
0.0
  0
LINE
  8
0
 62
   249
 10
217.677099
 20
7.866819
 30
0.0
 11
218.54828
 21
8.737999
 31
0.0
  0
LINE
  8
0
 62
   249
 10
217.677099
 20
7.990562
 30
0.0
 11
218.424536
 21
8.737999
 31
0.0
  0
LINE
  8
0
 62
   249
 10
217.677099
 20
8.114306
 30
0.0
 11
218.300792
 21
8.737999
 31
0.0
  0
LINE
  8
0
 62
   249
 10
217.677099
 20
8.23805
 30
0.0
 11
218.177049
 21
8.737999
 31
0.0
  0
LINE
  8
0
 62
   249
 10
217.677099
 20
8.361793
 30
0.0
 11
218.053305
 21
8.737999
 31
0.0
  0
LINE
  8
0
 62
   249
 10
217.677099
 20
8.485537
 30
0.0
 11
217.929561
 21
8.737999
 31
0.0
  0
LINE
  8
0
 62
   249
 10
217.677099
 20
8.609281
 30
0.0
 11
217.805818
 21
8.737999
 31
0.0
  0
LINE
  8
0
 62
   249
 10
217.677099
 20
8.733025
 30
0.0
 11
217.682074
 21
8.737999
 31
0.0
  0
LINE
  8
0
 62
   249
 10
217.677099
 20
6.010663
 30
0.0
 11
219.637099
 21
7.970663
 31
0.0
  0
LINE
  8
0
 62
   249
 10
217.677099
 20
5.88692
 30
0.0
 11
219.637099
 21
7.84692
 31
0.0
  0
LINE
  8
0
 62
   249
 10
217.677099
 20
5.763176
 30
0.0
 11
219.637099
 21
7.723176
 31
0.0
  0
LINE
  8
0
 62
   249
 10
217.677099
 20
5.639432
 30
0.0
 11
219.637099
 21
7.599432
 31
0.0
  0
LINE
  8
0
 62
   249
 10
217.677099
 20
5.515689
 30
0.0
 11
219.637099
 21
7.475689
 31
0.0
  0
LINE
  8
0
 62
   249
 10
217.677099
 20
5.391945
 30
0.0
 11
219.637099
 21
7.351945
 31
0.0
  0
LINE
  8
0
 62
   249
 10
217.786897
 20
5.377999
 30
0.0
 11
219.637099
 21
7.228201
 31
0.0
  0
LINE
  8
0
 62
   249
 10
217.910641
 20
5.377999
 30
0.0
 11
219.637099
 21
7.104458
 31
0.0
  0
LINE
  8
0
 62
   249
 10
218.034384
 20
5.377999
 30
0.0
 11
219.637099
 21
6.980714
 31
0.0
  0
LINE
  8
0
 62
   249
 10
218.158128
 20
5.377999
 30
0.0
 11
219.637099
 21
6.85697
 31
0.0
  0
LINE
  8
0
 62
   249
 10
218.281872
 20
5.377999
 30
0.0
 11
219.637099
 21
6.733227
 31
0.0
  0
LINE
  8
0
 62
   249
 10
218.405615
 20
5.377999
 30
0.0
 11
219.637099
 21
6.609483
 31
0.0
  0
LINE
  8
0
 62
   249
 10
218.529359
 20
5.377999
 30
0.0
 11
219.637099
 21
6.485739
 31
0.0
  0
LINE
  8
0
 62
   249
 10
218.653103
 20
5.377999
 30
0.0
 11
219.637099
 21
6.361995
 31
0.0
  0
LINE
  8
0
 62
   249
 10
218.776847
 20
5.377999
 30
0.0
 11
219.637099
 21
6.238252
 31
0.0
  0
LINE
  8
0
 62
   249
 10
218.90059
 20
5.377999
 30
0.0
 11
219.637099
 21
6.114508
 31
0.0
  0
LINE
  8
0
 62
   249
 10
219.024334
 20
5.377999
 30
0.0
 11
219.637099
 21
5.990764
 31
0.0
  0
LINE
  8
0
 62
   249
 10
219.148078
 20
5.377999
 30
0.0
 11
219.637099
 21
5.867021
 31
0.0
  0
LINE
  8
0
 62
   249
 10
219.271821
 20
5.377999
 30
0.0
 11
219.637099
 21
5.743277
 31
0.0
  0
LINE
  8
0
 62
   249
 10
219.395565
 20
5.377999
 30
0.0
 11
219.637099
 21
5.619533
 31
0.0
  0
LINE
  8
0
 62
   249
 10
219.519309
 20
5.377999
 30
0.0
 11
219.637099
 21
5.49579
 31
0.0
  0
LINE
  8
0
 62
   249
 10
219.917099
 20
6.147021
 30
0.0
 11
221.795195
 21
8.025117
 31
0.0
  0
LINE
  8
0
 62
   249
 10
219.917099
 20
6.270764
 30
0.0
 11
221.744451
 21
8.098116
 31
0.0
  0
LINE
  8
0
 62
   249
 10
219.917099
 20
6.394508
 30
0.0
 11
221.690148
 21
8.167557
 31
0.0
  0
LINE
  8
0
 62
   249
 10
219.917099
 20
6.518252
 30
0.0
 11
221.63236
 21
8.233512
 31
0.0
  0
LINE
  8
0
 62
   249
 10
219.917099
 20
6.641995
 30
0.0
 11
221.571123
 21
8.29602
 31
0.0
  0
LINE
  8
0
 62
   249
 10
219.917099
 20
6.765739
 30
0.0
 11
221.506446
 21
8.355086
 31
0.0
  0
LINE
  8
0
 62
   249
 10
219.917099
 20
6.889483
 30
0.0
 11
221.4383
 21
8.410684
 31
0.0
  0
LINE
  8
0
 62
   249
 10
219.917099
 20
7.013227
 30
0.0
 11
221.366627
 21
8.462755
 31
0.0
  0
LINE
  8
0
 62
   249
 10
219.917099
 20
7.13697
 30
0.0
 11
221.291331
 21
8.511202
 31
0.0
  0
LINE
  8
0
 62
   249
 10
219.917099
 20
7.260714
 30
0.0
 11
221.212274
 21
8.555889
 31
0.0
  0
LINE
  8
0
 62
   249
 10
219.917099
 20
7.384458
 30
0.0
 11
221.129271
 21
8.59663
 31
0.0
  0
LINE
  8
0
 62
   249
 10
219.917099
 20
7.508201
 30
0.0
 11
221.042076
 21
8.633178
 31
0.0
  0
LINE
  8
0
 62
   249
 10
219.917099
 20
7.631945
 30
0.0
 11
220.950366
 21
8.665212
 31
0.0
  0
LINE
  8
0
 62
   249
 10
219.917099
 20
7.755689
 30
0.0
 11
220.853718
 21
8.692307
 31
0.0
  0
LINE
  8
0
 62
   249
 10
219.917099
 20
7.879432
 30
0.0
 11
220.751567
 21
8.7139
 31
0.0
  0
LINE
  8
0
 62
   249
 10
219.917099
 20
8.003176
 30
0.0
 11
220.643145
 21
8.729222
 31
0.0
  0
LINE
  8
0
 62
   249
 10
219.917099
 20
8.12692
 30
0.0
 11
220.527376
 21
8.737197
 31
0.0
  0
LINE
  8
0
 62
   249
 10
219.917099
 20
8.250663
 30
0.0
 11
220.404434
 21
8.737999
 31
0.0
  0
LINE
  8
0
 62
   249
 10
219.917099
 20
8.374407
 30
0.0
 11
220.280691
 21
8.737999
 31
0.0
  0
LINE
  8
0
 62
   249
 10
219.917099
 20
8.498151
 30
0.0
 11
220.156947
 21
8.737999
 31
0.0
  0
LINE
  8
0
 62
   249
 10
219.917099
 20
8.621894
 30
0.0
 11
220.033204
 21
8.737999
 31
0.0
  0
LINE
  8
0
 62
   249
 10
219.917099
 20
6.023277
 30
0.0
 11
221.842271
 21
7.948449
 31
0.0
  0
LINE
  8
0
 62
   249
 10
219.917099
 20
5.899533
 30
0.0
 11
221.885523
 21
7.867958
 31
0.0
  0
LINE
  8
0
 62
   249
 10
219.917099
 20
5.77579
 30
0.0
 11
221.924746
 21
7.783437
 31
0.0
  0
LINE
  8
0
 62
   249
 10
219.917099
 20
5.652046
 30
0.0
 11
221.959668
 21
7.694615
 31
0.0
  0
LINE
  8
0
 62
   249
 10
219.917099
 20
5.528302
 30
0.0
 11
221.989932
 21
7.601135
 31
0.0
  0
LINE
  8
0
 62
   249
 10
219.917099
 20
5.404559
 30
0.0
 11
222.015067
 21
7.502527
 31
0.0
  0
LINE
  8
0
 62
   249
 10
220.014283
 20
5.377999
 30
0.0
 11
222.034444
 21
7.39816
 31
0.0
  0
LINE
  8
0
 62
   249
 10
220.138027
 20
5.377999
 30
0.0
 11
222.047197
 21
7.287169
 31
0.0
  0
LINE
  8
0
 62
   249
 10
220.261771
 20
5.377999
 30
0.0
 11
222.05209
 21
7.168319
 31
0.0
  0
LINE
  8
0
 62
   249
 10
220.385514
 20
5.377999
 30
0.0
 11
222.04727
 21
7.039754
 31
0.0
  0
LINE
  8
0
 62
   249
 10
220.509258
 20
5.377999
 30
0.0
 11
222.029725
 21
6.898466
 31
0.0
  0
LINE
  8
0
 62
   249
 10
220.633002
 20
5.377999
 30
0.0
 11
221.993936
 21
6.738933
 31
0.0
  0
LINE
  8
0
 62
   249
 10
220.756746
 20
5.377999
 30
0.0
 11
221.927299
 21
6.548553
 31
0.0
  0
LINE
  8
0
 62
   249
 10
220.880489
 20
5.377999
 30
0.0
 11
221.280665
 21
5.778175
 31
0.0
  0
LINE
  8
0
 62
   249
 10
221.36381
 20
5.86132
 30
0.0
 11
221.778778
 21
6.276288
 31
0.0
  0
LINE
  8
0
 62
   249
 10
221.004233
 20
5.377999
 30
0.0
 11
221.366562
 21
5.740328
 31
0.0
  0
LINE
  8
0
 62
   249
 10
221.127977
 20
5.377999
 30
0.0
 11
221.449353
 21
5.699376
 31
0.0
  0
LINE
  8
0
 62
   249
 10
221.25172
 20
5.377999
 30
0.0
 11
221.529174
 21
5.655453
 31
0.0
  0
LINE
  8
0
 62
   249
 10
221.375464
 20
5.377999
 30
0.0
 11
221.606135
 21
5.608671
 31
0.0
  0
LINE
  8
0
 62
   249
 10
221.499208
 20
5.377999
 30
0.0
 11
221.680325
 21
5.559117
 31
0.0
  0
LINE
  8
0
 62
   249
 10
221.622951
 20
5.377999
 30
0.0
 11
221.751814
 21
5.506862
 31
0.0
  0
LINE
  8
0
 62
   249
 10
221.746695
 20
5.377999
 30
0.0
 11
221.820653
 21
5.451958
 31
0.0
  0
LINE
  8
0
 62
   249
 10
221.870439
 20
5.377999
 30
0.0
 11
221.886881
 21
5.394442
 31
0.0
  0
LINE
  8
0
 62
   249
 10
225.377099
 20
6.147021
 30
0.0
 11
227.255195
 21
8.025117
 31
0.0
  0
LINE
  8
0
 62
   249
 10
225.377099
 20
6.270764
 30
0.0
 11
227.204451
 21
8.098116
 31
0.0
  0
LINE
  8
0
 62
   249
 10
225.377099
 20
6.394508
 30
0.0
 11
227.150148
 21
8.167557
 31
0.0
  0
LINE
  8
0
 62
   249
 10
225.377099
 20
6.518252
 30
0.0
 11
227.09236
 21
8.233512
 31
0.0
  0
LINE
  8
0
 62
   249
 10
225.377099
 20
6.641995
 30
0.0
 11
227.031123
 21
8.29602
 31
0.0
  0
LINE
  8
0
 62
   249
 10
225.377099
 20
6.765739
 30
0.0
 11
226.966446
 21
8.355086
 31
0.0
  0
LINE
  8
0
 62
   249
 10
225.377099
 20
6.889483
 30
0.0
 11
226.8983
 21
8.410684
 31
0.0
  0
LINE
  8
0
 62
   249
 10
225.377099
 20
7.013227
 30
0.0
 11
226.826627
 21
8.462755
 31
0.0
  0
LINE
  8
0
 62
   249
 10
225.377099
 20
7.13697
 30
0.0
 11
226.751331
 21
8.511202
 31
0.0
  0
LINE
  8
0
 62
   249
 10
225.377099
 20
7.260714
 30
0.0
 11
226.672274
 21
8.555889
 31
0.0
  0
LINE
  8
0
 62
   249
 10
225.377099
 20
7.384458
 30
0.0
 11
226.589271
 21
8.59663
 31
0.0
  0
LINE
  8
0
 62
   249
 10
225.377099
 20
7.508201
 30
0.0
 11
226.502076
 21
8.633178
 31
0.0
  0
LINE
  8
0
 62
   249
 10
225.377099
 20
7.631945
 30
0.0
 11
226.410366
 21
8.665212
 31
0.0
  0
LINE
  8
0
 62
   249
 10
225.377099
 20
7.755689
 30
0.0
 11
226.313718
 21
8.692307
 31
0.0
  0
LINE
  8
0
 62
   249
 10
225.377099
 20
7.879432
 30
0.0
 11
226.211567
 21
8.7139
 31
0.0
  0
LINE
  8
0
 62
   249
 10
225.377099
 20
8.003176
 30
0.0
 11
226.103145
 21
8.729222
 31
0.0
  0
LINE
  8
0
 62
   249
 10
225.377099
 20
8.12692
 30
0.0
 11
225.987376
 21
8.737197
 31
0.0
  0
LINE
  8
0
 62
   249
 10
225.377099
 20
8.250663
 30
0.0
 11
225.864434
 21
8.737999
 31
0.0
  0
LINE
  8
0
 62
   249
 10
225.377099
 20
8.374407
 30
0.0
 11
225.740691
 21
8.737999
 31
0.0
  0
LINE
  8
0
 62
   249
 10
225.377099
 20
8.498151
 30
0.0
 11
225.616947
 21
8.737999
 31
0.0
  0
LINE
  8
0
 62
   249
 10
225.377099
 20
8.621894
 30
0.0
 11
225.493204
 21
8.737999
 31
0.0
  0
LINE
  8
0
 62
   249
 10
225.377099
 20
6.023277
 30
0.0
 11
227.302271
 21
7.948449
 31
0.0
  0
LINE
  8
0
 62
   249
 10
225.377099
 20
5.899533
 30
0.0
 11
227.345523
 21
7.867958
 31
0.0
  0
LINE
  8
0
 62
   249
 10
225.377099
 20
5.77579
 30
0.0
 11
227.384746
 21
7.783437
 31
0.0
  0
LINE
  8
0
 62
   249
 10
225.377099
 20
5.652046
 30
0.0
 11
227.419668
 21
7.694615
 31
0.0
  0
LINE
  8
0
 62
   249
 10
225.377099
 20
5.528302
 30
0.0
 11
227.449932
 21
7.601135
 31
0.0
  0
LINE
  8
0
 62
   249
 10
225.377099
 20
5.404559
 30
0.0
 11
227.475067
 21
7.502527
 31
0.0
  0
LINE
  8
0
 62
   249
 10
225.474283
 20
5.377999
 30
0.0
 11
227.494444
 21
7.39816
 31
0.0
  0
LINE
  8
0
 62
   249
 10
225.598027
 20
5.377999
 30
0.0
 11
227.507197
 21
7.287169
 31
0.0
  0
LINE
  8
0
 62
   249
 10
225.721771
 20
5.377999
 30
0.0
 11
227.51209
 21
7.168319
 31
0.0
  0
LINE
  8
0
 62
   249
 10
225.845514
 20
5.377999
 30
0.0
 11
227.50727
 21
7.039754
 31
0.0
  0
LINE
  8
0
 62
   249
 10
225.969258
 20
5.377999
 30
0.0
 11
227.489725
 21
6.898466
 31
0.0
  0
LINE
  8
0
 62
   249
 10
226.093002
 20
5.377999
 30
0.0
 11
227.453936
 21
6.738933
 31
0.0
  0
LINE
  8
0
 62
   249
 10
226.216746
 20
5.377999
 30
0.0
 11
227.387299
 21
6.548553
 31
0.0
  0
LINE
  8
0
 62
   249
 10
226.340489
 20
5.377999
 30
0.0
 11
226.740665
 21
5.778175
 31
0.0
  0
LINE
  8
0
 62
   249
 10
226.82381
 20
5.86132
 30
0.0
 11
227.238778
 21
6.276288
 31
0.0
  0
LINE
  8
0
 62
   249
 10
226.464233
 20
5.377999
 30
0.0
 11
226.826562
 21
5.740328
 31
0.0
  0
LINE
  8
0
 62
   249
 10
226.587977
 20
5.377999
 30
0.0
 11
226.909353
 21
5.699376
 31
0.0
  0
LINE
  8
0
 62
   249
 10
226.71172
 20
5.377999
 30
0.0
 11
226.989174
 21
5.655453
 31
0.0
  0
LINE
  8
0
 62
   249
 10
226.835464
 20
5.377999
 30
0.0
 11
227.066135
 21
5.608671
 31
0.0
  0
LINE
  8
0
 62
   249
 10
226.959208
 20
5.377999
 30
0.0
 11
227.140325
 21
5.559117
 31
0.0
  0
LINE
  8
0
 62
   249
 10
227.082951
 20
5.377999
 30
0.0
 11
227.211814
 21
5.506862
 31
0.0
  0
LINE
  8
0
 62
   249
 10
227.206695
 20
5.377999
 30
0.0
 11
227.280653
 21
5.451958
 31
0.0
  0
LINE
  8
0
 62
   249
 10
227.330439
 20
5.377999
 30
0.0
 11
227.346881
 21
5.394442
 31
0.0
  0
LINE
  8
0
 62
   249
 10
223.137099
 20
6.134407
 30
0.0
 11
225.097099
 21
8.094407
 31
0.0
  0
LINE
  8
0
 62
   249
 10
223.137099
 20
6.258151
 30
0.0
 11
225.097099
 21
8.218151
 31
0.0
  0
LINE
  8
0
 62
   249
 10
223.137099
 20
6.381894
 30
0.0
 11
225.097099
 21
8.341894
 31
0.0
  0
LINE
  8
0
 62
   249
 10
223.137099
 20
6.505638
 30
0.0
 11
225.097099
 21
8.465638
 31
0.0
  0
LINE
  8
0
 62
   249
 10
223.137099
 20
6.629382
 30
0.0
 11
225.097099
 21
8.589382
 31
0.0
  0
LINE
  8
0
 62
   249
 10
223.137099
 20
6.753126
 30
0.0
 11
225.097099
 21
8.713126
 31
0.0
  0
LINE
  8
0
 62
   249
 10
223.137099
 20
6.876869
 30
0.0
 11
224.998229
 21
8.737999
 31
0.0
  0
LINE
  8
0
 62
   249
 10
223.137099
 20
7.000613
 30
0.0
 11
224.874485
 21
8.737999
 31
0.0
  0
LINE
  8
0
 62
   249
 10
223.137099
 20
7.124357
 30
0.0
 11
224.750742
 21
8.737999
 31
0.0
  0
LINE
  8
0
 62
   249
 10
223.137099
 20
7.2481
 30
0.0
 11
224.626998
 21
8.737999
 31
0.0
  0
LINE
  8
0
 62
   249
 10
223.137099
 20
7.371844
 30
0.0
 11
224.503254
 21
8.737999
 31
0.0
  0
LINE
  8
0
 62
   249
 10
223.137099
 20
7.495588
 30
0.0
 11
224.379511
 21
8.737999
 31
0.0
  0
LINE
  8
0
 62
   249
 10
223.137099
 20
7.619331
 30
0.0
 11
224.255767
 21
8.737999
 31
0.0
  0
LINE
  8
0
 62
   249
 10
223.137099
 20
7.743075
 30
0.0
 11
224.132023
 21
8.737999
 31
0.0
  0
LINE
  8
0
 62
   249
 10
223.137099
 20
7.866819
 30
0.0
 11
224.00828
 21
8.737999
 31
0.0
  0
LINE
  8
0
 62
   249
 10
223.137099
 20
7.990562
 30
0.0
 11
223.884536
 21
8.737999
 31
0.0
  0
LINE
  8
0
 62
   249
 10
223.137099
 20
8.114306
 30
0.0
 11
223.760792
 21
8.737999
 31
0.0
  0
LINE
  8
0
 62
   249
 10
223.137099
 20
8.23805
 30
0.0
 11
223.637049
 21
8.737999
 31
0.0
  0
LINE
  8
0
 62
   249
 10
223.137099
 20
8.361793
 30
0.0
 11
223.513305
 21
8.737999
 31
0.0
  0
LINE
  8
0
 62
   249
 10
223.137099
 20
8.485537
 30
0.0
 11
223.389561
 21
8.737999
 31
0.0
  0
LINE
  8
0
 62
   249
 10
223.137099
 20
8.609281
 30
0.0
 11
223.265818
 21
8.737999
 31
0.0
  0
LINE
  8
0
 62
   249
 10
223.137099
 20
8.733025
 30
0.0
 11
223.142074
 21
8.737999
 31
0.0
  0
LINE
  8
0
 62
   249
 10
223.137099
 20
6.010663
 30
0.0
 11
225.097099
 21
7.970663
 31
0.0
  0
LINE
  8
0
 62
   249
 10
223.137099
 20
5.88692
 30
0.0
 11
225.097099
 21
7.84692
 31
0.0
  0
LINE
  8
0
 62
   249
 10
223.137099
 20
5.763176
 30
0.0
 11
225.097099
 21
7.723176
 31
0.0
  0
LINE
  8
0
 62
   249
 10
223.137099
 20
5.639432
 30
0.0
 11
225.097099
 21
7.599432
 31
0.0
  0
LINE
  8
0
 62
   249
 10
223.137099
 20
5.515689
 30
0.0
 11
225.097099
 21
7.475689
 31
0.0
  0
LINE
  8
0
 62
   249
 10
223.137099
 20
5.391945
 30
0.0
 11
225.097099
 21
7.351945
 31
0.0
  0
LINE
  8
0
 62
   249
 10
223.246897
 20
5.377999
 30
0.0
 11
225.097099
 21
7.228201
 31
0.0
  0
LINE
  8
0
 62
   249
 10
223.370641
 20
5.377999
 30
0.0
 11
225.097099
 21
7.104458
 31
0.0
  0
LINE
  8
0
 62
   249
 10
223.494384
 20
5.377999
 30
0.0
 11
225.097099
 21
6.980714
 31
0.0
  0
LINE
  8
0
 62
   249
 10
223.618128
 20
5.377999
 30
0.0
 11
225.097099
 21
6.85697
 31
0.0
  0
LINE
  8
0
 62
   249
 10
223.741872
 20
5.377999
 30
0.0
 11
225.097099
 21
6.733227
 31
0.0
  0
LINE
  8
0
 62
   249
 10
223.865615
 20
5.377999
 30
0.0
 11
225.097099
 21
6.609483
 31
0.0
  0
LINE
  8
0
 62
   249
 10
223.989359
 20
5.377999
 30
0.0
 11
225.097099
 21
6.485739
 31
0.0
  0
LINE
  8
0
 62
   249
 10
224.113103
 20
5.377999
 30
0.0
 11
225.097099
 21
6.361995
 31
0.0
  0
LINE
  8
0
 62
   249
 10
224.236847
 20
5.377999
 30
0.0
 11
225.097099
 21
6.238252
 31
0.0
  0
LINE
  8
0
 62
   249
 10
224.36059
 20
5.377999
 30
0.0
 11
225.097099
 21
6.114508
 31
0.0
  0
LINE
  8
0
 62
   249
 10
224.484334
 20
5.377999
 30
0.0
 11
225.097099
 21
5.990764
 31
0.0
  0
LINE
  8
0
 62
   249
 10
224.608078
 20
5.377999
 30
0.0
 11
225.097099
 21
5.867021
 31
0.0
  0
LINE
  8
0
 62
   249
 10
224.731821
 20
5.377999
 30
0.0
 11
225.097099
 21
5.743277
 31
0.0
  0
LINE
  8
0
 62
   249
 10
224.855565
 20
5.377999
 30
0.0
 11
225.097099
 21
5.619533
 31
0.0
  0
LINE
  8
0
 62
   249
 10
224.979309
 20
5.377999
 30
0.0
 11
225.097099
 21
5.49579
 31
0.0
  0
LINE
  8
0
 62
   249
 10
225.377099
 20
2.310966
 30
0.0
 11
227.824614
 21
4.758481
 31
0.0
  0
LINE
  8
0
 62
   249
 10
225.377099
 20
2.43471
 30
0.0
 11
227.782547
 21
4.840158
 31
0.0
  0
LINE
  8
0
 62
   249
 10
225.377099
 20
2.558454
 30
0.0
 11
227.737553
 21
4.918908
 31
0.0
  0
LINE
  8
0
 62
   249
 10
225.377099
 20
2.682197
 30
0.0
 11
227.689735
 21
4.994834
 31
0.0
  0
LINE
  8
0
 62
   249
 10
225.377099
 20
2.805941
 30
0.0
 11
227.639174
 21
5.068016
 31
0.0
  0
LINE
  8
0
 62
   249
 10
225.377099
 20
2.929685
 30
0.0
 11
227.545413
 21
5.097999
 31
0.0
  0
LINE
  8
0
 62
   249
 10
225.377099
 20
3.053429
 30
0.0
 11
227.42167
 21
5.097999
 31
0.0
  0
LINE
  8
0
 62
   249
 10
225.377099
 20
3.177172
 30
0.0
 11
227.297926
 21
5.097999
 31
0.0
  0
LINE
  8
0
 62
   249
 10
225.377099
 20
3.300916
 30
0.0
 11
227.174182
 21
5.097999
 31
0.0
  0
LINE
  8
0
 62
   249
 10
225.377099
 20
3.42466
 30
0.0
 11
227.050439
 21
5.097999
 31
0.0
  0
LINE
  8
0
 62
   249
 10
225.377099
 20
3.548403
 30
0.0
 11
226.926695
 21
5.097999
 31
0.0
  0
LINE
  8
0
 62
   249
 10
225.377099
 20
3.672147
 30
0.0
 11
226.802951
 21
5.097999
 31
0.0
  0
LINE
  8
0
 62
   249
 10
225.377099
 20
3.795891
 30
0.0
 11
226.679208
 21
5.097999
 31
0.0
  0
LINE
  8
0
 62
   249
 10
225.377099
 20
3.919634
 30
0.0
 11
226.555464
 21
5.097999
 31
0.0
  0
LINE
  8
0
 62
   249
 10
225.377099
 20
4.043378
 30
0.0
 11
226.43172
 21
5.097999
 31
0.0
  0
LINE
  8
0
 62
   249
 10
225.377099
 20
4.167122
 30
0.0
 11
226.307977
 21
5.097999
 31
0.0
  0
LINE
  8
0
 62
   249
 10
225.377099
 20
4.290865
 30
0.0
 11
226.184233
 21
5.097999
 31
0.0
  0
LINE
  8
0
 62
   249
 10
225.377099
 20
4.414609
 30
0.0
 11
226.060489
 21
5.097999
 31
0.0
  0
LINE
  8
0
 62
   249
 10
225.377099
 20
4.538353
 30
0.0
 11
225.936746
 21
5.097999
 31
0.0
  0
LINE
  8
0
 62
   249
 10
225.377099
 20
4.662096
 30
0.0
 11
225.813002
 21
5.097999
 31
0.0
  0
LINE
  8
0
 62
   249
 10
225.377099
 20
4.78584
 30
0.0
 11
225.689258
 21
5.097999
 31
0.0
  0
LINE
  8
0
 62
   249
 10
225.377099
 20
4.909584
 30
0.0
 11
225.565514
 21
5.097999
 31
0.0
  0
LINE
  8
0
 62
   249
 10
225.377099
 20
5.033328
 30
0.0
 11
225.441771
 21
5.097999
 31
0.0
  0
LINE
  8
0
 62
   249
 10
225.377099
 20
2.187223
 30
0.0
 11
227.863629
 21
4.673752
 31
0.0
  0
LINE
  8
0
 62
   249
 10
225.377099
 20
2.063479
 30
0.0
 11
227.899437
 21
4.585817
 31
0.0
  0
LINE
  8
0
 62
   249
 10
225.377099
 20
1.939735
 30
0.0
 11
227.931849
 21
4.494485
 31
0.0
  0
LINE
  8
0
 62
   249
 10
225.377099
 20
1.815992
 30
0.0
 11
227.960633
 21
4.399525
 31
0.0
  0
LINE
  8
0
 62
   249
 10
225.42285
 20
1.737999
 30
0.0
 11
227.985502
 21
4.300651
 31
0.0
  0
LINE
  8
0
 62
   249
 10
225.546594
 20
1.738
 30
0.0
 11
228.006098
 21
4.197503
 31
0.0
  0
LINE
  8
0
 62
   249
 10
225.670338
 20
1.738
 30
0.0
 11
228.021969
 21
4.08963
 31
0.0
  0
LINE
  8
0
 62
   249
 10
225.794082
 20
1.738
 30
0.0
 11
228.03253
 21
3.976448
 31
0.0
  0
LINE
  8
0
 62
   249
 10
225.917826
 20
1.738
 30
0.0
 11
228.037011
 21
3.857186
 31
0.0
  0
LINE
  8
0
 62
   249
 10
226.044307
 20
1.740738
 30
0.0
 11
228.034361
 21
3.730791
 31
0.0
  0
LINE
  8
0
 62
   249
 10
226.17933
 20
1.752016
 30
0.0
 11
228.023082
 21
3.595769
 31
0.0
  0
LINE
  8
0
 62
   249
 10
226.325237
 20
1.77418
 30
0.0
 11
228.000918
 21
3.449861
 31
0.0
  0
LINE
  8
0
 62
   249
 10
226.485733
 20
1.810932
 30
0.0
 11
227.964166
 21
3.289366
 31
0.0
  0
LINE
  8
0
 62
   249
 10
226.667749
 20
1.869205
 30
0.0
 11
227.905893
 21
3.107349
 31
0.0
  0
LINE
  8
0
 62
   249
 10
226.887822
 20
1.965534
 30
0.0
 11
227.809564
 21
2.887276
 31
0.0
  0
LINE
  8
0
 62
   249
 10
227.22645
 20
2.180419
 30
0.0
 11
227.59468
 21
2.548648
 31
0.0
  0
LINE
  8
0
 62
   249
 10
210.187099
 20
1.737999
 30
0.0
 11
213.547099
 21
5.097999
 31
0.0
  0
LINE
  8
0
 62
   249
 10
210.25373
 20
1.928374
 30
0.0
 11
213.423355
 21
5.097999
 31
0.0
  0
LINE
  8
0
 62
   249
 10
210.320362
 20
2.118749
 30
0.0
 11
213.299612
 21
5.097999
 31
0.0
  0
LINE
  8
0
 62
   249
 10
210.386993
 20
2.309124
 30
0.0
 11
213.175868
 21
5.097999
 31
0.0
  0
LINE
  8
0
 62
   249
 10
210.453624
 20
2.499499
 30
0.0
 11
213.052124
 21
5.097999
 31
0.0
  0
LINE
  8
0
 62
   249
 10
210.520255
 20
2.689874
 30
0.0
 11
212.928381
 21
5.097999
 31
0.0
  0
LINE
  8
0
 62
   249
 10
210.586886
 20
2.880249
 30
0.0
 11
212.804637
 21
5.097999
 31
0.0
  0
LINE
  8
0
 62
   249
 10
210.653518
 20
3.070624
 30
0.0
 11
212.680893
 21
5.097999
 31
0.0
  0
LINE
  8
0
 62
   249
 10
210.720149
 20
3.260998
 30
0.0
 11
212.55715
 21
5.097999
 31
0.0
  0
LINE
  8
0
 62
   249
 10
210.78678
 20
3.451373
 30
0.0
 11
212.433406
 21
5.097999
 31
0.0
  0
LINE
  8
0
 62
   249
 10
210.853411
 20
3.641748
 30
0.0
 11
212.309662
 21
5.097999
 31
0.0
  0
LINE
  8
0
 62
   249
 10
210.920042
 20
3.832123
 30
0.0
 11
212.185919
 21
5.097999
 31
0.0
  0
LINE
  8
0
 62
   249
 10
210.986674
 20
4.022498
 30
0.0
 11
212.062175
 21
5.097999
 31
0.0
  0
LINE
  8
0
 62
   249
 10
211.053305
 20
4.212873
 30
0.0
 11
211.938431
 21
5.097999
 31
0.0
  0
LINE
  8
0
 62
   249
 10
211.119936
 20
4.403248
 30
0.0
 11
211.814687
 21
5.097999
 31
0.0
  0
LINE
  8
0
 62
   249
 10
211.186567
 20
4.593623
 30
0.0
 11
211.690944
 21
5.097999
 31
0.0
  0
LINE
  8
0
 62
   249
 10
211.253199
 20
4.783998
 30
0.0
 11
211.5672
 21
5.097999
 31
0.0
  0
LINE
  8
0
 62
   249
 10
211.31983
 20
4.974373
 30
0.0
 11
211.443456
 21
5.097999
 31
0.0
  0
LINE
  8
0
 62
   249
 10
210.310843
 20
1.737999
 30
0.0
 11
213.547099
 21
4.974256
 31
0.0
  0
LINE
  8
0
 62
   249
 10
210.434586
 20
1.737999
 30
0.0
 11
213.547099
 21
4.850512
 31
0.0
  0
LINE
  8
0
 62
   249
 10
210.55833
 20
1.737999
 30
0.0
 11
213.547099
 21
4.726768
 31
0.0
  0
LINE
  8
0
 62
   249
 10
210.682074
 20
1.737999
 30
0.0
 11
213.547099
 21
4.603025
 31
0.0
  0
LINE
  8
0
 62
   249
 10
210.805818
 20
1.737999
 30
0.0
 11
213.547099
 21
4.479281
 31
0.0
  0
LINE
  8
0
 62
   249
 10
210.929561
 20
1.737999
 30
0.0
 11
213.547099
 21
4.355537
 31
0.0
  0
LINE
  8
0
 62
   249
 10
211.053305
 20
1.737999
 30
0.0
 11
212.412988
 21
3.097683
 31
0.0
  0
LINE
  8
0
 62
   249
 10
212.453305
 20
3.137999
 30
0.0
 11
213.547099
 21
4.231793
 31
0.0
  0
LINE
  8
0
 62
   249
 10
211.177049
 20
1.737999
 30
0.0
 11
212.346357
 21
2.907308
 31
0.0
  0
LINE
  8
0
 62
   249
 10
212.577049
 20
3.137999
 30
0.0
 11
213.547099
 21
4.10805
 31
0.0
  0
LINE
  8
0
 62
   249
 10
211.300792
 20
1.737999
 30
0.0
 11
212.279726
 21
2.716933
 31
0.0
  0
LINE
  8
0
 62
   249
 10
212.700792
 20
3.137999
 30
0.0
 11
213.547099
 21
3.984306
 31
0.0
  0
LINE
  8
0
 62
   249
 10
211.424536
 20
1.737999
 30
0.0
 11
212.213095
 21
2.526558
 31
0.0
  0
LINE
  8
0
 62
   249
 10
212.824536
 20
3.137999
 30
0.0
 11
213.547099
 21
3.860562
 31
0.0
  0
LINE
  8
0
 62
   249
 10
211.54828
 20
1.737999
 30
0.0
 11
212.146463
 21
2.336183
 31
0.0
  0
LINE
  8
0
 62
   249
 10
212.94828
 20
3.137999
 30
0.0
 11
213.547099
 21
3.736819
 31
0.0
  0
LINE
  8
0
 62
   249
 10
211.672023
 20
1.737999
 30
0.0
 11
212.079832
 21
2.145808
 31
0.0
  0
LINE
  8
0
 62
   249
 10
213.072023
 20
3.137999
 30
0.0
 11
213.547099
 21
3.613075
 31
0.0
  0
LINE
  8
0
 62
   249
 10
211.795767
 20
1.737999
 30
0.0
 11
212.013201
 21
1.955433
 31
0.0
  0
LINE
  8
0
 62
   249
 10
213.195767
 20
3.137999
 30
0.0
 11
213.547099
 21
3.489331
 31
0.0
  0
LINE
  8
0
 62
   249
 10
211.919511
 20
1.737999
 30
0.0
 11
211.94657
 21
1.765058
 31
0.0
  0
LINE
  8
0
 62
   249
 10
213.319511
 20
3.137999
 30
0.0
 11
213.547099
 21
3.365588
 31
0.0
  0
LINE
  8
0
 62
   249
 10
213.443254
 20
3.137999
 30
0.0
 11
213.547099
 21
3.241844
 31
0.0
  0
LINE
  8
0
 62
   249
 10
217.677099
 20
2.54584
 30
0.0
 11
219.637099
 21
4.50584
 31
0.0
  0
LINE
  8
0
 62
   249
 10
217.677099
 20
2.669584
 30
0.0
 11
219.637099
 21
4.629584
 31
0.0
  0
LINE
  8
0
 62
   249
 10
217.677099
 20
2.793328
 30
0.0
 11
219.637099
 21
4.753328
 31
0.0
  0
LINE
  8
0
 62
   249
 10
217.677099
 20
2.917071
 30
0.0
 11
219.637099
 21
4.877071
 31
0.0
  0
LINE
  8
0
 62
   249
 10
217.677099
 20
3.040815
 30
0.0
 11
219.637099
 21
5.000815
 31
0.0
  0
LINE
  8
0
 62
   249
 10
217.677099
 20
3.164559
 30
0.0
 11
219.61054
 21
5.097999
 31
0.0
  0
LINE
  8
0
 62
   249
 10
217.677099
 20
3.288302
 30
0.0
 11
219.486796
 21
5.097999
 31
0.0
  0
LINE
  8
0
 62
   249
 10
217.677099
 20
3.412046
 30
0.0
 11
219.363052
 21
5.097999
 31
0.0
  0
LINE
  8
0
 62
   249
 10
217.677099
 20
3.53579
 30
0.0
 11
219.239309
 21
5.097999
 31
0.0
  0
LINE
  8
0
 62
   249
 10
217.677099
 20
3.659533
 30
0.0
 11
219.115565
 21
5.097999
 31
0.0
  0
LINE
  8
0
 62
   249
 10
217.677099
 20
3.783277
 30
0.0
 11
218.991821
 21
5.097999
 31
0.0
  0
LINE
  8
0
 62
   249
 10
217.677099
 20
3.907021
 30
0.0
 11
218.868078
 21
5.097999
 31
0.0
  0
LINE
  8
0
 62
   249
 10
217.677099
 20
4.030764
 30
0.0
 11
218.744334
 21
5.097999
 31
0.0
  0
LINE
  8
0
 62
   249
 10
217.677099
 20
4.154508
 30
0.0
 11
218.62059
 21
5.097999
 31
0.0
  0
LINE
  8
0
 62
   249
 10
217.677099
 20
4.278252
 30
0.0
 11
218.496847
 21
5.097999
 31
0.0
  0
LINE
  8
0
 62
   249
 10
217.677099
 20
4.401995
 30
0.0
 11
218.373103
 21
5.097999
 31
0.0
  0
LINE
  8
0
 62
   249
 10
217.677099
 20
4.525739
 30
0.0
 11
218.249359
 21
5.097999
 31
0.0
  0
LINE
  8
0
 62
   249
 10
217.677099
 20
4.649483
 30
0.0
 11
218.125615
 21
5.097999
 31
0.0
  0
LINE
  8
0
 62
   249
 10
217.677099
 20
4.773227
 30
0.0
 11
218.001872
 21
5.097999
 31
0.0
  0
LINE
  8
0
 62
   249
 10
217.677099
 20
4.89697
 30
0.0
 11
217.878128
 21
5.097999
 31
0.0
  0
LINE
  8
0
 62
   249
 10
217.677099
 20
5.020714
 30
0.0
 11
217.754384
 21
5.097999
 31
0.0
  0
LINE
  8
0
 62
   249
 10
217.677099
 20
2.422096
 30
0.0
 11
219.637099
 21
4.382096
 31
0.0
  0
LINE
  8
0
 62
   249
 10
217.677099
 20
2.298353
 30
0.0
 11
219.637099
 21
4.258353
 31
0.0
  0
LINE
  8
0
 62
   249
 10
217.677099
 20
2.174609
 30
0.0
 11
219.637099
 21
4.134609
 31
0.0
  0
LINE
  8
0
 62
   249
 10
217.677099
 20
2.050865
 30
0.0
 11
219.637099
 21
4.010865
 31
0.0
  0
LINE
  8
0
 62
   249
 10
217.677099
 20
1.927122
 30
0.0
 11
219.637099
 21
3.887122
 31
0.0
  0
LINE
  8
0
 62
   249
 10
217.677099
 20
1.803378
 30
0.0
 11
219.637099
 21
3.763378
 31
0.0
  0
LINE
  8
0
 62
   249
 10
217.735464
 20
1.737999
 30
0.0
 11
219.637099
 21
3.639634
 31
0.0
  0
LINE
  8
0
 62
   249
 10
217.859208
 20
1.737999
 30
0.0
 11
219.637099
 21
3.515891
 31
0.0
  0
LINE
  8
0
 62
   249
 10
217.982951
 20
1.737999
 30
0.0
 11
219.637099
 21
3.392147
 31
0.0
  0
LINE
  8
0
 62
   249
 10
218.106695
 20
1.737999
 30
0.0
 11
219.637099
 21
3.268403
 31
0.0
  0
LINE
  8
0
 62
   249
 10
218.230439
 20
1.737999
 30
0.0
 11
219.637099
 21
3.14466
 31
0.0
  0
LINE
  8
0
 62
   249
 10
218.354182
 20
1.737999
 30
0.0
 11
219.637099
 21
3.020916
 31
0.0
  0
LINE
  8
0
 62
   249
 10
218.477926
 20
1.737999
 30
0.0
 11
219.637099
 21
2.897172
 31
0.0
  0
LINE
  8
0
 62
   249
 10
218.60167
 20
1.737999
 30
0.0
 11
219.637099
 21
2.773429
 31
0.0
  0
LINE
  8
0
 62
   249
 10
218.725413
 20
1.737999
 30
0.0
 11
219.637099
 21
2.649685
 31
0.0
  0
LINE
  8
0
 62
   249
 10
218.849157
 20
1.737999
 30
0.0
 11
219.637099
 21
2.525941
 31
0.0
  0
LINE
  8
0
 62
   249
 10
218.972901
 20
1.737999
 30
0.0
 11
219.637099
 21
2.402197
 31
0.0
  0
LINE
  8
0
 62
   249
 10
219.096645
 20
1.737999
 30
0.0
 11
219.637099
 21
2.278454
 31
0.0
  0
LINE
  8
0
 62
   249
 10
219.220388
 20
1.737999
 30
0.0
 11
219.637099
 21
2.15471
 31
0.0
  0
LINE
  8
0
 62
   249
 10
219.344132
 20
1.737999
 30
0.0
 11
219.637099
 21
2.030966
 31
0.0
  0
LINE
  8
0
 62
   249
 10
219.467876
 20
1.737999
 30
0.0
 11
219.637099
 21
1.907223
 31
0.0
  0
LINE
  8
0
 62
   249
 10
219.591619
 20
1.737999
 30
0.0
 11
219.637099
 21
1.783479
 31
0.0
  0
LINE
  8
0
 62
   249
 10
215.006357
 20
2.96869
 30
0.0
 11
216.302653
 21
4.264987
 31
0.0
  0
LINE
  8
0
 62
   249
 10
214.974275
 20
3.060352
 30
0.0
 11
216.270572
 21
4.356649
 31
0.0
  0
LINE
  8
0
 62
   249
 10
214.928179
 20
3.137999
 30
0.0
 11
216.23849
 21
4.448311
 31
0.0
  0
LINE
  8
0
 62
   249
 10
214.804435
 20
3.137999
 30
0.0
 11
216.206408
 21
4.539973
 31
0.0
  0
LINE
  8
0
 62
   249
 10
214.680691
 20
3.137999
 30
0.0
 11
216.174327
 21
4.631635
 31
0.0
  0
LINE
  8
0
 62
   249
 10
214.556948
 20
3.137999
 30
0.0
 11
216.142245
 21
4.723297
 31
0.0
  0
LINE
  8
0
 62
   249
 10
214.433204
 20
3.137999
 30
0.0
 11
216.110163
 21
4.814959
 31
0.0
  0
LINE
  8
0
 62
   249
 10
214.30946
 20
3.137999
 30
0.0
 11
216.078082
 21
4.906621
 31
0.0
  0
LINE
  8
0
 62
   249
 10
214.185717
 20
3.137999
 30
0.0
 11
216.046
 21
4.998283
 31
0.0
  0
LINE
  8
0
 62
   249
 10
214.061973
 20
3.137999
 30
0.0
 11
216.013918
 21
5.089945
 31
0.0
  0
LINE
  8
0
 62
   249
 10
213.938229
 20
3.137999
 30
0.0
 11
215.898229
 21
5.097999
 31
0.0
  0
LINE
  8
0
 62
   249
 10
213.827099
 20
3.150613
 30
0.0
 11
215.774485
 21
5.097999
 31
0.0
  0
LINE
  8
0
 62
   249
 10
213.827099
 20
3.274357
 30
0.0
 11
215.650742
 21
5.097999
 31
0.0
  0
LINE
  8
0
 62
   249
 10
213.827099
 20
3.3981
 30
0.0
 11
215.526998
 21
5.097999
 31
0.0
  0
LINE
  8
0
 62
   249
 10
213.827099
 20
3.521844
 30
0.0
 11
215.403254
 21
5.097999
 31
0.0
  0
LINE
  8
0
 62
   249
 10
213.827099
 20
3.645588
 30
0.0
 11
215.279511
 21
5.097999
 31
0.0
  0
LINE
  8
0
 62
   249
 10
213.827099
 20
3.769331
 30
0.0
 11
215.155767
 21
5.097999
 31
0.0
  0
LINE
  8
0
 62
   249
 10
213.827099
 20
3.893075
 30
0.0
 11
215.032023
 21
5.097999
 31
0.0
  0
LINE
  8
0
 62
   249
 10
213.827099
 20
4.016819
 30
0.0
 11
214.90828
 21
5.097999
 31
0.0
  0
LINE
  8
0
 62
   249
 10
213.827099
 20
4.140562
 30
0.0
 11
214.784536
 21
5.097999
 31
0.0
  0
LINE
  8
0
 62
   249
 10
213.827099
 20
4.264306
 30
0.0
 11
214.660792
 21
5.097999
 31
0.0
  0
LINE
  8
0
 62
   249
 10
213.827099
 20
4.38805
 30
0.0
 11
214.537049
 21
5.097999
 31
0.0
  0
LINE
  8
0
 62
   249
 10
213.827099
 20
4.511793
 30
0.0
 11
214.413305
 21
5.097999
 31
0.0
  0
LINE
  8
0
 62
   249
 10
213.827099
 20
4.635537
 30
0.0
 11
214.289561
 21
5.097999
 31
0.0
  0
LINE
  8
0
 62
   249
 10
213.827099
 20
4.759281
 30
0.0
 11
214.165818
 21
5.097999
 31
0.0
  0
LINE
  8
0
 62
   249
 10
213.827099
 20
4.883025
 30
0.0
 11
214.042074
 21
5.097999
 31
0.0
  0
LINE
  8
0
 62
   249
 10
213.827099
 20
5.006768
 30
0.0
 11
213.91833
 21
5.097999
 31
0.0
  0
LINE
  8
0
 62
   249
 10
215.038439
 20
2.877028
 30
0.0
 11
216.334735
 21
4.173325
 31
0.0
  0
LINE
  8
0
 62
   249
 10
215.070521
 20
2.785366
 30
0.0
 11
216.366817
 21
4.081663
 31
0.0
  0
LINE
  8
0
 62
   249
 10
215.102602
 20
2.693704
 30
0.0
 11
216.398899
 21
3.990001
 31
0.0
  0
LINE
  8
0
 62
   249
 10
215.134684
 20
2.602042
 30
0.0
 11
216.43098
 21
3.898339
 31
0.0
  0
LINE
  8
0
 62
   249
 10
215.166766
 20
2.51038
 30
0.0
 11
216.463062
 21
3.806677
 31
0.0
  0
LINE
  8
0
 62
   249
 10
215.198847
 20
2.418718
 30
0.0
 11
216.495144
 21
3.715015
 31
0.0
  0
LINE
  8
0
 62
   249
 10
215.230929
 20
2.327056
 30
0.0
 11
216.527225
 21
3.623353
 31
0.0
  0
LINE
  8
0
 62
   249
 10
215.263011
 20
2.235395
 30
0.0
 11
216.559307
 21
3.531691
 31
0.0
  0
LINE
  8
0
 62
   249
 10
215.295092
 20
2.143733
 30
0.0
 11
216.591389
 21
3.440029
 31
0.0
  0
LINE
  8
0
 62
   249
 10
215.327174
 20
2.052071
 30
0.0
 11
216.62347
 21
3.348367
 31
0.0
  0
LINE
  8
0
 62
   249
 10
215.359256
 20
1.960409
 30
0.0
 11
216.655552
 21
3.256705
 31
0.0
  0
LINE
  8
0
 62
   249
 10
215.391338
 20
1.868747
 30
0.0
 11
216.687634
 21
3.165043
 31
0.0
  0
LINE
  8
0
 62
   249
 10
215.423419
 20
1.777085
 30
0.0
 11
216.719716
 21
3.073381
 31
0.0
  0
LINE
  8
0
 62
   249
 10
215.508078
 20
1.737999
 30
0.0
 11
216.751797
 21
2.981719
 31
0.0
  0
LINE
  8
0
 62
   249
 10
215.631821
 20
1.737999
 30
0.0
 11
216.783879
 21
2.890057
 31
0.0
  0
LINE
  8
0
 62
   249
 10
215.755565
 20
1.737999
 30
0.0
 11
216.815961
 21
2.798395
 31
0.0
  0
LINE
  8
0
 62
   249
 10
215.879309
 20
1.737999
 30
0.0
 11
216.848042
 21
2.706733
 31
0.0
  0
LINE
  8
0
 62
   249
 10
216.003052
 20
1.737999
 30
0.0
 11
216.880124
 21
2.615071
 31
0.0
  0
LINE
  8
0
 62
   249
 10
216.126796
 20
1.737999
 30
0.0
 11
216.912206
 21
2.523409
 31
0.0
  0
LINE
  8
0
 62
   249
 10
216.25054
 20
1.737999
 30
0.0
 11
216.944287
 21
2.431747
 31
0.0
  0
LINE
  8
0
 62
   249
 10
216.374283
 20
1.737999
 30
0.0
 11
216.976369
 21
2.340085
 31
0.0
  0
LINE
  8
0
 62
   249
 10
216.498027
 20
1.737999
 30
0.0
 11
217.008451
 21
2.248423
 31
0.0
  0
LINE
  8
0
 62
   249
 10
216.621771
 20
1.737999
 30
0.0
 11
217.040532
 21
2.156761
 31
0.0
  0
LINE
  8
0
 62
   249
 10
216.745514
 20
1.737999
 30
0.0
 11
217.072614
 21
2.065099
 31
0.0
  0
LINE
  8
0
 62
   249
 10
216.869258
 20
1.737999
 30
0.0
 11
217.104696
 21
1.973437
 31
0.0
  0
LINE
  8
0
 62
   249
 10
216.993002
 20
1.737999
 30
0.0
 11
217.136778
 21
1.881775
 31
0.0
  0
LINE
  8
0
 62
   249
 10
217.116746
 20
1.737999
 30
0.0
 11
217.168859
 21
1.790113
 31
0.0
  0
LINE
  8
0
 62
   249
 10
219.917099
 20
2.310966
 30
0.0
 11
222.364614
 21
4.758481
 31
0.0
  0
LINE
  8
0
 62
   249
 10
219.917099
 20
2.43471
 30
0.0
 11
222.322547
 21
4.840158
 31
0.0
  0
LINE
  8
0
 62
   249
 10
219.917099
 20
2.558454
 30
0.0
 11
222.277553
 21
4.918908
 31
0.0
  0
LINE
  8
0
 62
   249
 10
219.917099
 20
2.682197
 30
0.0
 11
222.229735
 21
4.994834
 31
0.0
  0
LINE
  8
0
 62
   249
 10
219.917099
 20
2.805941
 30
0.0
 11
222.179174
 21
5.068016
 31
0.0
  0
LINE
  8
0
 62
   249
 10
219.917099
 20
2.929685
 30
0.0
 11
222.085413
 21
5.097999
 31
0.0
  0
LINE
  8
0
 62
   249
 10
219.917099
 20
3.053429
 30
0.0
 11
221.96167
 21
5.097999
 31
0.0
  0
LINE
  8
0
 62
   249
 10
219.917099
 20
3.177172
 30
0.0
 11
221.837926
 21
5.097999
 31
0.0
  0
LINE
  8
0
 62
   249
 10
219.917099
 20
3.300916
 30
0.0
 11
221.714182
 21
5.097999
 31
0.0
  0
LINE
  8
0
 62
   249
 10
219.917099
 20
3.42466
 30
0.0
 11
221.590439
 21
5.097999
 31
0.0
  0
LINE
  8
0
 62
   249
 10
219.917099
 20
3.548403
 30
0.0
 11
221.466695
 21
5.097999
 31
0.0
  0
LINE
  8
0
 62
   249
 10
219.917099
 20
3.672147
 30
0.0
 11
221.342951
 21
5.097999
 31
0.0
  0
LINE
  8
0
 62
   249
 10
219.917099
 20
3.795891
 30
0.0
 11
221.219208
 21
5.097999
 31
0.0
  0
LINE
  8
0
 62
   249
 10
219.917099
 20
3.919634
 30
0.0
 11
221.095464
 21
5.097999
 31
0.0
  0
LINE
  8
0
 62
   249
 10
219.917099
 20
4.043378
 30
0.0
 11
220.97172
 21
5.097999
 31
0.0
  0
LINE
  8
0
 62
   249
 10
219.917099
 20
4.167122
 30
0.0
 11
220.847977
 21
5.097999
 31
0.0
  0
LINE
  8
0
 62
   249
 10
219.917099
 20
4.290865
 30
0.0
 11
220.724233
 21
5.097999
 31
0.0
  0
LINE
  8
0
 62
   249
 10
219.917099
 20
4.414609
 30
0.0
 11
220.600489
 21
5.097999
 31
0.0
  0
LINE
  8
0
 62
   249
 10
219.917099
 20
4.538353
 30
0.0
 11
220.476746
 21
5.097999
 31
0.0
  0
LINE
  8
0
 62
   249
 10
219.917099
 20
4.662096
 30
0.0
 11
220.353002
 21
5.097999
 31
0.0
  0
LINE
  8
0
 62
   249
 10
219.917099
 20
4.78584
 30
0.0
 11
220.229258
 21
5.097999
 31
0.0
  0
LINE
  8
0
 62
   249
 10
219.917099
 20
4.909584
 30
0.0
 11
220.105514
 21
5.097999
 31
0.0
  0
LINE
  8
0
 62
   249
 10
219.917099
 20
5.033328
 30
0.0
 11
219.981771
 21
5.097999
 31
0.0
  0
LINE
  8
0
 62
   249
 10
219.917099
 20
2.187223
 30
0.0
 11
222.403629
 21
4.673752
 31
0.0
  0
LINE
  8
0
 62
   249
 10
219.917099
 20
2.063479
 30
0.0
 11
222.439437
 21
4.585817
 31
0.0
  0
LINE
  8
0
 62
   249
 10
219.917099
 20
1.939735
 30
0.0
 11
222.471849
 21
4.494485
 31
0.0
  0
LINE
  8
0
 62
   249
 10
219.917099
 20
1.815992
 30
0.0
 11
222.500633
 21
4.399525
 31
0.0
  0
LINE
  8
0
 62
   249
 10
219.96285
 20
1.737999
 30
0.0
 11
222.525502
 21
4.300651
 31
0.0
  0
LINE
  8
0
 62
   249
 10
220.086594
 20
1.738
 30
0.0
 11
222.546098
 21
4.197503
 31
0.0
  0
LINE
  8
0
 62
   249
 10
220.210338
 20
1.738
 30
0.0
 11
222.561969
 21
4.08963
 31
0.0
  0
LINE
  8
0
 62
   249
 10
220.334082
 20
1.738
 30
0.0
 11
222.57253
 21
3.976448
 31
0.0
  0
LINE
  8
0
 62
   249
 10
220.457826
 20
1.738
 30
0.0
 11
222.577011
 21
3.857186
 31
0.0
  0
LINE
  8
0
 62
   249
 10
220.584307
 20
1.740738
 30
0.0
 11
222.574361
 21
3.730791
 31
0.0
  0
LINE
  8
0
 62
   249
 10
220.71933
 20
1.752016
 30
0.0
 11
222.563082
 21
3.595769
 31
0.0
  0
LINE
  8
0
 62
   249
 10
220.865237
 20
1.77418
 30
0.0
 11
222.540918
 21
3.449861
 31
0.0
  0
LINE
  8
0
 62
   249
 10
221.025733
 20
1.810932
 30
0.0
 11
222.504166
 21
3.289366
 31
0.0
  0
LINE
  8
0
 62
   249
 10
221.207749
 20
1.869205
 30
0.0
 11
222.445893
 21
3.107349
 31
0.0
  0
LINE
  8
0
 62
   249
 10
221.427822
 20
1.965534
 30
0.0
 11
222.349564
 21
2.887276
 31
0.0
  0
LINE
  8
0
 62
   249
 10
221.76645
 20
2.180419
 30
0.0
 11
222.13468
 21
2.548648
 31
0.0
  0
LINE
  8
0
 62
   249
 10
223.137099
 20
2.54584
 30
0.0
 11
225.097099
 21
4.50584
 31
0.0
  0
LINE
  8
0
 62
   249
 10
223.137099
 20
2.669584
 30
0.0
 11
225.097099
 21
4.629584
 31
0.0
  0
LINE
  8
0
 62
   249
 10
223.137099
 20
2.793328
 30
0.0
 11
225.097099
 21
4.753328
 31
0.0
  0
LINE
  8
0
 62
   249
 10
223.137099
 20
2.917071
 30
0.0
 11
225.097099
 21
4.877071
 31
0.0
  0
LINE
  8
0
 62
   249
 10
223.137099
 20
3.040815
 30
0.0
 11
225.097099
 21
5.000815
 31
0.0
  0
LINE
  8
0
 62
   249
 10
223.137099
 20
3.164559
 30
0.0
 11
225.07054
 21
5.097999
 31
0.0
  0
LINE
  8
0
 62
   249
 10
223.137099
 20
3.288302
 30
0.0
 11
224.946796
 21
5.097999
 31
0.0
  0
LINE
  8
0
 62
   249
 10
223.137099
 20
3.412046
 30
0.0
 11
224.823052
 21
5.097999
 31
0.0
  0
LINE
  8
0
 62
   249
 10
223.137099
 20
3.53579
 30
0.0
 11
224.699309
 21
5.097999
 31
0.0
  0
LINE
  8
0
 62
   249
 10
223.137099
 20
3.659533
 30
0.0
 11
224.575565
 21
5.097999
 31
0.0
  0
LINE
  8
0
 62
   249
 10
223.137099
 20
3.783277
 30
0.0
 11
224.451821
 21
5.097999
 31
0.0
  0
LINE
  8
0
 62
   249
 10
223.137099
 20
3.907021
 30
0.0
 11
224.328078
 21
5.097999
 31
0.0
  0
LINE
  8
0
 62
   249
 10
223.137099
 20
4.030764
 30
0.0
 11
224.204334
 21
5.097999
 31
0.0
  0
LINE
  8
0
 62
   249
 10
223.137099
 20
4.154508
 30
0.0
 11
224.08059
 21
5.097999
 31
0.0
  0
LINE
  8
0
 62
   249
 10
223.137099
 20
4.278252
 30
0.0
 11
223.956847
 21
5.097999
 31
0.0
  0
LINE
  8
0
 62
   249
 10
223.137099
 20
4.401995
 30
0.0
 11
223.833103
 21
5.097999
 31
0.0
  0
LINE
  8
0
 62
   249
 10
223.137099
 20
4.525739
 30
0.0
 11
223.709359
 21
5.097999
 31
0.0
  0
LINE
  8
0
 62
   249
 10
223.137099
 20
4.649483
 30
0.0
 11
223.585615
 21
5.097999
 31
0.0
  0
LINE
  8
0
 62
   249
 10
223.137099
 20
4.773227
 30
0.0
 11
223.461872
 21
5.097999
 31
0.0
  0
LINE
  8
0
 62
   249
 10
223.137099
 20
4.89697
 30
0.0
 11
223.338128
 21
5.097999
 31
0.0
  0
LINE
  8
0
 62
   249
 10
223.137099
 20
5.020714
 30
0.0
 11
223.214384
 21
5.097999
 31
0.0
  0
LINE
  8
0
 62
   249
 10
223.137099
 20
2.422096
 30
0.0
 11
225.097099
 21
4.382096
 31
0.0
  0
LINE
  8
0
 62
   249
 10
223.137099
 20
2.298353
 30
0.0
 11
225.097099
 21
4.258353
 31
0.0
  0
LINE
  8
0
 62
   249
 10
223.137099
 20
2.174609
 30
0.0
 11
225.097099
 21
4.134609
 31
0.0
  0
LINE
  8
0
 62
   249
 10
223.137099
 20
2.050865
 30
0.0
 11
225.097099
 21
4.010865
 31
0.0
  0
LINE
  8
0
 62
   249
 10
223.137099
 20
1.927122
 30
0.0
 11
225.097099
 21
3.887122
 31
0.0
  0
LINE
  8
0
 62
   249
 10
223.137099
 20
1.803378
 30
0.0
 11
225.097099
 21
3.763378
 31
0.0
  0
LINE
  8
0
 62
   249
 10
223.195464
 20
1.737999
 30
0.0
 11
225.097099
 21
3.639634
 31
0.0
  0
LINE
  8
0
 62
   249
 10
223.319208
 20
1.737999
 30
0.0
 11
225.097099
 21
3.515891
 31
0.0
  0
LINE
  8
0
 62
   249
 10
223.442951
 20
1.737999
 30
0.0
 11
225.097099
 21
3.392147
 31
0.0
  0
LINE
  8
0
 62
   249
 10
223.566695
 20
1.737999
 30
0.0
 11
225.097099
 21
3.268403
 31
0.0
  0
LINE
  8
0
 62
   249
 10
223.690439
 20
1.737999
 30
0.0
 11
225.097099
 21
3.14466
 31
0.0
  0
LINE
  8
0
 62
   249
 10
223.814182
 20
1.737999
 30
0.0
 11
225.097099
 21
3.020916
 31
0.0
  0
LINE
  8
0
 62
   249
 10
223.937926
 20
1.737999
 30
0.0
 11
225.097099
 21
2.897172
 31
0.0
  0
LINE
  8
0
 62
   249
 10
224.06167
 20
1.737999
 30
0.0
 11
225.097099
 21
2.773429
 31
0.0
  0
LINE
  8
0
 62
   249
 10
224.185413
 20
1.737999
 30
0.0
 11
225.097099
 21
2.649685
 31
0.0
  0
LINE
  8
0
 62
   249
 10
224.309157
 20
1.737999
 30
0.0
 11
225.097099
 21
2.525941
 31
0.0
  0
LINE
  8
0
 62
   249
 10
224.432901
 20
1.737999
 30
0.0
 11
225.097099
 21
2.402197
 31
0.0
  0
LINE
  8
0
 62
   249
 10
224.556645
 20
1.737999
 30
0.0
 11
225.097099
 21
2.278454
 31
0.0
  0
LINE
  8
0
 62
   249
 10
224.680388
 20
1.737999
 30
0.0
 11
225.097099
 21
2.15471
 31
0.0
  0
LINE
  8
0
 62
   249
 10
224.804132
 20
1.737999
 30
0.0
 11
225.097099
 21
2.030966
 31
0.0
  0
LINE
  8
0
 62
   249
 10
224.927876
 20
1.737999
 30
0.0
 11
225.097099
 21
1.907223
 31
0.0
  0
LINE
  8
0
 62
   249
 10
225.051619
 20
1.737999
 30
0.0
 11
225.097099
 21
1.783479
 31
0.0
  0
LINE
  8
0
 62
   249
 10
220.831108
 20
45.783527
 30
0.0
 11
224.831108
 21
45.783527
 31
0.0
  0
INSERT
  8
0
 62
   249
  2
WKU130
 10
221.171057
 20
44.057974
 30
0.0
 41
0.8
 42
0.8
 43
0.8
  0
TEXT
  8
0
  6
CONTINUOUS
 62
   249
 10
219.353328
 20
46.513635
 30
0.0
 40
2.0
  1
+
  0
TEXT
  8
0
  6
CONTINUOUS
 62
   249
 10
224.344763
 20
46.50558
 30
0.0
 40
2.0
  1
-
  0
LINE
  8
0
 62
   249
 10
245.0
 20
92.5
 30
0.0
 11
243.480133
 21
92.5
 31
0.0
  0
ARC
  8
0
 62
   249
 10
245.065849
 20
93.75
 30
0.0
 40
1.251733
 50
266.984476
 51
93.015524
  0
LINE
  8
0
 62
   249
 10
245.0
 20
95.0
 30
0.0
 11
243.480133
 21
95.0
 31
0.0
  0
LINE
  8
0
 62
   249
 10
245.0
 20
97.5
 30
0.0
 11
243.480133
 21
97.5
 31
0.0
  0
ARC
  8
0
 62
   249
 10
245.065849
 20
96.25
 30
0.0
 40
1.251733
 50
266.984476
 51
93.015524
  0
LINE
  8
0
 62
   249
 10
250.0
 20
90.0
 30
0.0
 11
252.5
 21
90.0
 31
0.0
  0
ARC
  8
0
 62
   249
 10
249.934151
 20
91.25
 30
0.0
 40
1.251733
 50
86.984476
 51
273.015524
  0
ARC
  8
0
 62
   249
 10
249.934151
 20
93.75
 30
0.0
 40
1.251733
 50
86.984476
 51
273.015524
  0
LINE
  8
0
 62
   249
 10
250.0
 20
92.5
 30
0.0
 11
252.5
 21
92.5
 31
0.0
  0
LINE
  8
0
 62
   249
 10
250.0
 20
95.0
 30
0.0
 11
252.5
 21
95.0
 31
0.0
  0
LINE
  8
0
 62
   249
 10
252.5
 20
95.0
 30
0.0
 11
255.0
 21
95.0
 31
0.0
  0
LINE
  8
0
 62
   249
 10
252.5
 20
90.0
 30
0.0
 11
255.0
 21
90.0
 31
0.0
  0
LINE
  8
0
 62
   249
 10
252.5
 20
95.0
 30
0.0
 11
255.0
 21
95.0
 31
0.0
  0
LINE
  8
0
 62
   249
 10
252.5
 20
100.0
 30
0.0
 11
255.0
 21
100.0
 31
0.0
  0
LINE
  8
0
 62
   249
 10
250.0
 20
100.0
 30
0.0
 11
252.5
 21
100.0
 31
0.0
  0
LINE
  8
0
 62
   249
 10
250.0
 20
97.5
 30
0.0
 11
252.5
 21
97.5
 31
0.0
  0
ARC
  8
0
 62
   249
 10
249.934151
 20
98.75
 30
0.0
 40
1.251733
 50
86.984476
 51
273.015524
  0
ARC
  8
0
 62
   249
 10
249.934151
 20
96.25
 30
0.0
 40
1.251733
 50
86.984476
 51
273.015524
  0
LINE
  8
0
 62
   249
 10
250.0
 20
95.0
 30
0.0
 11
252.5
 21
95.0
 31
0.0
  0
ARC
  8
0
 62
   249
 10
223.672927
 20
78.436221
 30
0.0
 40
0.869227
 50
32.471192
 51
175.601295
  0
ARC
  8
0
 62
   249
 10
225.139595
 20
79.369554
 30
0.0
 40
0.869227
 50
212.471192
 51
355.601295
  0
LINE
  8
0
  6
CONTINUOUS
 62
   249
 10
221.335351
 20
115.188535
 30
0.0
 11
219.999997
 21
112.84277
 31
0.0
  0
LINE
  8
0
  6
CONTINUOUS
 62
   249
 10
219.999997
 20
112.84277
 30
0.0
 11
218.810078
 21
115.188535
 31
0.0
  0
LINE
  8
0
  6
CONTINUOUS
 62
   249
 10
218.664649
 20
118.203765
 30
0.0
 11
220.000003
 21
120.549531
 31
0.0
  0
LINE
  8
0
  6
CONTINUOUS
 62
   249
 10
220.000003
 20
120.549531
 30
0.0
 11
221.189922
 21
118.203765
 31
0.0
  0
LINE
  8
0
 62
   249
 10
245.0
 20
110.0
 30
0.0
 11
243.480133
 21
110.0
 31
0.0
  0
ARC
  8
0
 62
   249
 10
245.065849
 20
111.25
 30
0.0
 40
1.251733
 50
266.984476
 51
93.015524
  0
LINE
  8
0
 62
   249
 10
245.0
 20
112.5
 30
0.0
 11
243.480133
 21
112.5
 31
0.0
  0
LINE
  8
0
 62
   249
 10
245.0
 20
115.0
 30
0.0
 11
243.480133
 21
115.0
 31
0.0
  0
ARC
  8
0
 62
   249
 10
245.065849
 20
113.75
 30
0.0
 40
1.251733
 50
266.984476
 51
93.015524
  0
LINE
  8
0
 62
   249
 10
250.0
 20
107.5
 30
0.0
 11
252.5
 21
107.5
 31
0.0
  0
ARC
  8
0
 62
   249
 10
249.934151
 20
108.75
 30
0.0
 40
1.251733
 50
86.984476
 51
273.015524
  0
ARC
  8
0
 62
   249
 10
249.934151
 20
111.25
 30
0.0
 40
1.251733
 50
86.984476
 51
273.015524
  0
LINE
  8
0
 62
   249
 10
250.0
 20
110.0
 30
0.0
 11
252.5
 21
110.0
 31
0.0
  0
LINE
  8
0
 62
   249
 10
250.0
 20
112.5
 30
0.0
 11
252.5
 21
112.5
 31
0.0
  0
LINE
  8
0
 62
   249
 10
252.5
 20
112.5
 30
0.0
 11
255.0
 21
112.5
 31
0.0
  0
LINE
  8
0
 62
   249
 10
252.5
 20
107.5
 30
0.0
 11
255.0
 21
107.5
 31
0.0
  0
LINE
  8
0
 62
   249
 10
252.5
 20
112.5
 30
0.0
 11
255.0
 21
112.5
 31
0.0
  0
LINE
  8
0
 62
   249
 10
252.5
 20
117.5
 30
0.0
 11
255.0
 21
117.5
 31
0.0
  0
LINE
  8
0
 62
   249
 10
250.0
 20
117.5
 30
0.0
 11
252.5
 21
117.5
 31
0.0
  0
LINE
  8
0
 62
   249
 10
250.0
 20
115.0
 30
0.0
 11
252.5
 21
115.0
 31
0.0
  0
ARC
  8
0
 62
   249
 10
249.934151
 20
116.25
 30
0.0
 40
1.251733
 50
86.984476
 51
273.015524
  0
ARC
  8
0
 62
   249
 10
249.934151
 20
113.75
 30
0.0
 40
1.251733
 50
86.984476
 51
273.015524
  0
LINE
  8
0
 62
   249
 10
250.0
 20
112.5
 30
0.0
 11
252.5
 21
112.5
 31
0.0
  0
LINE
  8
0
  6
CONTINUOUS
 62
   249
 10
237.817487
 20
113.664635
 30
0.0
 11
235.471721
 21
114.999989
 31
0.0
  0
LINE
  8
0
  6
CONTINUOUS
 62
   249
 10
235.471721
 20
114.999989
 30
0.0
 11
237.817487
 21
116.189908
 31
0.0
  0
ARC
  8
0
  6
CONTINUOUS
 62
   249
 10
310.0
 20
90.0
 30
0.0
 40
0.5
 50
180.0
 51
0.0
  0
ARC
  8
0
  6
CONTINUOUS
 62
   249
 10
310.0
 20
90.0
 30
0.0
 40
0.5
 50
0.0
 51
180.0
  0
ARC
  8
0
  6
CONTINUOUS
 62
   249
 10
277.5
 20
90.0
 30
0.0
 40
0.5
 50
180.0
 51
0.0
  0
ARC
  8
0
  6
CONTINUOUS
 62
   249
 10
277.5
 20
90.0
 30
0.0
 40
0.5
 50
0.0
 51
180.0
  0
3DFACE
  8
0
  6
CONTINUOUS
 62
   249
 10
261.819436
 20
79.51
 30
0.0
 11
261.833156
 21
79.51
 31
0.0
 12
261.833156
 22
80.49
 32
0.0
 13
261.819436
 23
80.49
 33
0.0
  0
3DFACE
  8
0
  6
CONTINUOUS
 62
   249
 10
261.833156
 20
79.51
 30
0.0
 11
261.846876
 21
79.51
 31
0.0
 12
261.846876
 22
80.49
 32
0.0
 13
261.833156
 23
80.49
 33
0.0
  0
3DFACE
  8
0
  6
CONTINUOUS
 62
   249
 10
261.846876
 20
79.51
 30
0.0
 11
261.860596
 21
79.51
 31
0.0
 12
261.860596
 22
80.49
 32
0.0
 13
261.846876
 23
80.49
 33
0.0
  0
3DFACE
  8
0
  6
CONTINUOUS
 62
   249
 10
261.860596
 20
79.51
 30
0.0
 11
261.874316
 21
79.51
 31
0.0
 12
261.874316
 22
80.49
 32
0.0
 13
261.860596
 23
80.49
 33
0.0
  0
3DFACE
  8
0
  6
CONTINUOUS
 62
   249
 10
261.874316
 20
79.51
 30
0.0
 11
261.888036
 21
79.51
 31
0.0
 12
261.888036
 22
80.49
 32
0.0
 13
261.874316
 23
80.49
 33
0.0
  0
3DFACE
  8
0
  6
CONTINUOUS
 62
   249
 10
261.888036
 20
79.51
 30
0.0
 11
261.901756
 21
79.51
 31
0.0
 12
261.901756
 22
80.49
 32
0.0
 13
261.888036
 23
80.49
 33
0.0
  0
3DFACE
  8
0
  6
CONTINUOUS
 62
   249
 10
261.901756
 20
79.51
 30
0.0
 11
261.915476
 21
79.51
 31
0.0
 12
261.915476
 22
80.49
 32
0.0
 13
261.901756
 23
80.49
 33
0.0
  0
3DFACE
  8
0
  6
CONTINUOUS
 62
   249
 10
261.915476
 20
79.51
 30
0.0
 11
261.929196
 21
79.51
 31
0.0
 12
261.929196
 22
80.49
 32
0.0
 13
261.915476
 23
80.49
 33
0.0
  0
3DFACE
  8
0
  6
CONTINUOUS
 62
   249
 10
261.929196
 20
79.51
 30
0.0
 11
261.942916
 21
79.51
 31
0.0
 12
261.942916
 22
80.49
 32
0.0
 13
261.929196
 23
80.49
 33
0.0
  0
3DFACE
  8
0
  6
CONTINUOUS
 62
   249
 10
261.942916
 20
79.51
 30
0.0
 11
261.956636
 21
79.51
 31
0.0
 12
261.956636
 22
80.49
 32
0.0
 13
261.942916
 23
80.49
 33
0.0
  0
3DFACE
  8
0
  6
CONTINUOUS
 62
   249
 10
261.956636
 20
79.51
 30
0.0
 11
261.970356
 21
79.51
 31
0.0
 12
261.970356
 22
80.49
 32
0.0
 13
261.956636
 23
80.49
 33
0.0
  0
3DFACE
  8
0
  6
CONTINUOUS
 62
   249
 10
261.970356
 20
79.51
 30
0.0
 11
261.984076
 21
79.51
 31
0.0
 12
261.984076
 22
80.49
 32
0.0
 13
261.970356
 23
80.49
 33
0.0
  0
3DFACE
  8
0
  6
CONTINUOUS
 62
   249
 10
261.984076
 20
79.51
 30
0.0
 11
261.997796
 21
79.51
 31
0.0
 12
261.997796
 22
80.49
 32
0.0
 13
261.984076
 23
80.49
 33
0.0
  0
3DFACE
  8
0
  6
CONTINUOUS
 62
   249
 10
261.997796
 20
79.51
 30
0.0
 11
262.011516
 21
79.51
 31
0.0
 12
262.011516
 22
80.49
 32
0.0
 13
261.997796
 23
80.49
 33
0.0
  0
3DFACE
  8
0
  6
CONTINUOUS
 62
   249
 10
262.011516
 20
79.51
 30
0.0
 11
262.025236
 21
79.51
 31
0.0
 12
262.025236
 22
80.49
 32
0.0
 13
262.011516
 23
80.49
 33
0.0
  0
3DFACE
  8
0
  6
CONTINUOUS
 62
   249
 10
262.025236
 20
79.51
 30
0.0
 11
262.038956
 21
79.51
 31
0.0
 12
262.038956
 22
80.49
 32
0.0
 13
262.025236
 23
80.49
 33
0.0
  0
3DFACE
  8
0
  6
CONTINUOUS
 62
   249
 10
262.038956
 20
79.51
 30
0.0
 11
262.052676
 21
79.51
 31
0.0
 12
262.052676
 22
80.49
 32
0.0
 13
262.038956
 23
80.49
 33
0.0
  0
3DFACE
  8
0
  6
CONTINUOUS
 62
   249
 10
262.052676
 20
79.51
 30
0.0
 11
262.066396
 21
79.51
 31
0.0
 12
262.066396
 22
80.49
 32
0.0
 13
262.052676
 23
80.49
 33
0.0
  0
3DFACE
  8
0
  6
CONTINUOUS
 62
   249
 10
262.066396
 20
79.51
 30
0.0
 11
262.080116
 21
79.51
 31
0.0
 12
262.080116
 22
80.49
 32
0.0
 13
262.066396
 23
80.49
 33
0.0
  0
3DFACE
  8
0
  6
CONTINUOUS
 62
   249
 10
262.080116
 20
79.51
 30
0.0
 11
262.093836
 21
79.51
 31
0.0
 12
262.093836
 22
80.49
 32
0.0
 13
262.080116
 23
80.49
 33
0.0
  0
3DFACE
  8
0
  6
CONTINUOUS
 62
   249
 10
262.093836
 20
79.51
 30
0.0
 11
262.107556
 21
79.51
 31
0.0
 12
262.107556
 22
80.49
 32
0.0
 13
262.093836
 23
80.49
 33
0.0
  0
3DFACE
  8
0
  6
CONTINUOUS
 62
   249
 10
262.107556
 20
79.51
 30
0.0
 11
262.121276
 21
79.51
 31
0.0
 12
262.121276
 22
80.49
 32
0.0
 13
262.107556
 23
80.49
 33
0.0
  0
3DFACE
  8
0
  6
CONTINUOUS
 62
   249
 10
262.121276
 20
79.51
 30
0.0
 11
262.134996
 21
79.51
 31
0.0
 12
262.134996
 22
80.49
 32
0.0
 13
262.121276
 23
80.49
 33
0.0
  0
3DFACE
  8
0
  6
CONTINUOUS
 62
   249
 10
262.134996
 20
79.51
 30
0.0
 11
262.148716
 21
79.51
 31
0.0
 12
262.148716
 22
80.49
 32
0.0
 13
262.134996
 23
80.49
 33
0.0
  0
3DFACE
  8
0
  6
CONTINUOUS
 62
   249
 10
262.148716
 20
79.51
 30
0.0
 11
262.162436
 21
79.51
 31
0.0
 12
262.162436
 22
80.49
 32
0.0
 13
262.148716
 23
80.49
 33
0.0
  0
3DFACE
  8
0
  6
CONTINUOUS
 62
   249
 10
262.162436
 20
79.51
 30
0.0
 11
262.176156
 21
79.51
 31
0.0
 12
262.176156
 22
80.49
 32
0.0
 13
262.162436
 23
80.49
 33
0.0
  0
3DFACE
  8
0
  6
CONTINUOUS
 62
   249
 10
262.176156
 20
79.51
 30
0.0
 11
262.189876
 21
79.51
 31
0.0
 12
262.189876
 22
80.49
 32
0.0
 13
262.176156
 23
80.49
 33
0.0
  0
3DFACE
  8
0
  6
CONTINUOUS
 62
   249
 10
262.189876
 20
79.51
 30
0.0
 11
262.203596
 21
79.51
 31
0.0
 12
262.203596
 22
80.49
 32
0.0
 13
262.189876
 23
80.49
 33
0.0
  0
3DFACE
  8
0
  6
CONTINUOUS
 62
   249
 10
262.203596
 20
79.51
 30
0.0
 11
262.217316
 21
79.51
 31
0.0
 12
262.217316
 22
80.49
 32
0.0
 13
262.203596
 23
80.49
 33
0.0
  0
3DFACE
  8
0
  6
CONTINUOUS
 62
   249
 10
262.217316
 20
79.51
 30
0.0
 11
262.231036
 21
79.51
 31
0.0
 12
262.231036
 22
80.49
 32
0.0
 13
262.217316
 23
80.49
 33
0.0
  0
3DFACE
  8
0
  6
CONTINUOUS
 62
   249
 10
262.231036
 20
79.51
 30
0.0
 11
262.244756
 21
79.51
 31
0.0
 12
262.244756
 22
80.49
 32
0.0
 13
262.231036
 23
80.49
 33
0.0
  0
3DFACE
  8
0
  6
CONTINUOUS
 62
   249
 10
262.244756
 20
79.51
 30
0.0
 11
262.258476
 21
79.51
 31
0.0
 12
262.258476
 22
80.49
 32
0.0
 13
262.244756
 23
80.49
 33
0.0
  0
3DFACE
  8
0
  6
CONTINUOUS
 62
   249
 10
262.258476
 20
79.51
 30
0.0
 11
262.272196
 21
79.51
 31
0.0
 12
262.272196
 22
80.49
 32
0.0
 13
262.258476
 23
80.49
 33
0.0
  0
3DFACE
  8
0
  6
CONTINUOUS
 62
   249
 10
262.272196
 20
79.51
 30
0.0
 11
262.285916
 21
79.51
 31
0.0
 12
262.285916
 22
80.49
 32
0.0
 13
262.272196
 23
80.49
 33
0.0
  0
3DFACE
  8
0
  6
CONTINUOUS
 62
   249
 10
262.285916
 20
79.51
 30
0.0
 11
262.299636
 21
79.51
 31
0.0
 12
262.299636
 22
80.49
 32
0.0
 13
262.285916
 23
80.49
 33
0.0
  0
3DFACE
  8
0
  6
CONTINUOUS
 62
   249
 10
262.299636
 20
79.51
 30
0.0
 11
262.313356
 21
79.51
 31
0.0
 12
262.313356
 22
80.49
 32
0.0
 13
262.299636
 23
80.49
 33
0.0
  0
3DFACE
  8
0
  6
CONTINUOUS
 62
   249
 10
262.313356
 20
79.51
 30
0.0
 11
262.327076
 21
79.51
 31
0.0
 12
262.327076
 22
80.49
 32
0.0
 13
262.313356
 23
80.49
 33
0.0
  0
3DFACE
  8
0
  6
CONTINUOUS
 62
   249
 10
262.327076
 20
79.51
 30
0.0
 11
262.340796
 21
79.51
 31
0.0
 12
262.340796
 22
80.49
 32
0.0
 13
262.327076
 23
80.49
 33
0.0
  0
3DFACE
  8
0
  6
CONTINUOUS
 62
   249
 10
262.340796
 20
79.51
 30
0.0
 11
262.354516
 21
79.51
 31
0.0
 12
262.354516
 22
80.49
 32
0.0
 13
262.340796
 23
80.49
 33
0.0
  0
3DFACE
  8
0
  6
CONTINUOUS
 62
   249
 10
262.354516
 20
79.51
 30
0.0
 11
262.368236
 21
79.51
 31
0.0
 12
262.368236
 22
80.49
 32
0.0
 13
262.354516
 23
80.49
 33
0.0
  0
3DFACE
  8
0
  6
CONTINUOUS
 62
   249
 10
262.368236
 20
79.51
 30
0.0
 11
262.381956
 21
79.51
 31
0.0
 12
262.381956
 22
80.49
 32
0.0
 13
262.368236
 23
80.49
 33
0.0
  0
3DFACE
  8
0
  6
CONTINUOUS
 62
   249
 10
262.381956
 20
79.51
 30
0.0
 11
262.395676
 21
79.51
 31
0.0
 12
262.395676
 22
80.49
 32
0.0
 13
262.381956
 23
80.49
 33
0.0
  0
3DFACE
  8
0
  6
CONTINUOUS
 62
   249
 10
262.395676
 20
79.51
 30
0.0
 11
262.409396
 21
79.51
 31
0.0
 12
262.409396
 22
80.49
 32
0.0
 13
262.395676
 23
80.49
 33
0.0
  0
3DFACE
  8
0
  6
CONTINUOUS
 62
   249
 10
262.409396
 20
79.51
 30
0.0
 11
262.423116
 21
79.51
 31
0.0
 12
262.423116
 22
80.49
 32
0.0
 13
262.409396
 23
80.49
 33
0.0
  0
3DFACE
  8
0
  6
CONTINUOUS
 62
   249
 10
262.423116
 20
79.51
 30
0.0
 11
262.436836
 21
79.51
 31
0.0
 12
262.436836
 22
80.49
 32
0.0
 13
262.423116
 23
80.49
 33
0.0
  0
3DFACE
  8
0
  6
CONTINUOUS
 62
   249
 10
262.436836
 20
79.51
 30
0.0
 11
262.450556
 21
79.51
 31
0.0
 12
262.450556
 22
80.49
 32
0.0
 13
262.436836
 23
80.49
 33
0.0
  0
3DFACE
  8
0
  6
CONTINUOUS
 62
   249
 10
262.450556
 20
79.51
 30
0.0
 11
262.464276
 21
79.51
 31
0.0
 12
262.464276
 22
80.49
 32
0.0
 13
262.450556
 23
80.49
 33
0.0
  0
3DFACE
  8
0
  6
CONTINUOUS
 62
   249
 10
262.464276
 20
79.51
 30
0.0
 11
262.477996
 21
79.51
 31
0.0
 12
262.477996
 22
80.49
 32
0.0
 13
262.464276
 23
80.49
 33
0.0
  0
3DFACE
  8
0
  6
CONTINUOUS
 62
   249
 10
262.477996
 20
79.51
 30
0.0
 11
262.491716
 21
79.51
 31
0.0
 12
262.491716
 22
80.49
 32
0.0
 13
262.477996
 23
80.49
 33
0.0
  0
3DFACE
  8
0
  6
CONTINUOUS
 62
   249
 10
262.491716
 20
79.51
 30
0.0
 11
262.505436
 21
79.51
 31
0.0
 12
262.505436
 22
80.49
 32
0.0
 13
262.491716
 23
80.49
 33
0.0
  0
3DFACE
  8
0
  6
CONTINUOUS
 62
   249
 10
262.505436
 20
79.51
 30
0.0
 11
262.519156
 21
79.51
 31
0.0
 12
262.519156
 22
80.49
 32
0.0
 13
262.505436
 23
80.49
 33
0.0
  0
3DFACE
  8
0
  6
CONTINUOUS
 62
   249
 10
262.519156
 20
79.51
 30
0.0
 11
262.532876
 21
79.51
 31
0.0
 12
262.532876
 22
80.49
 32
0.0
 13
262.519156
 23
80.49
 33
0.0
  0
3DFACE
  8
0
  6
CONTINUOUS
 62
   249
 10
262.532876
 20
79.51
 30
0.0
 11
262.546596
 21
79.51
 31
0.0
 12
262.546596
 22
80.49
 32
0.0
 13
262.532876
 23
80.49
 33
0.0
  0
3DFACE
  8
0
  6
CONTINUOUS
 62
   249
 10
262.546596
 20
79.51
 30
0.0
 11
262.560316
 21
79.51
 31
0.0
 12
262.560316
 22
80.49
 32
0.0
 13
262.546596
 23
80.49
 33
0.0
  0
3DFACE
  8
0
  6
CONTINUOUS
 62
   249
 10
262.560316
 20
79.51
 30
0.0
 11
262.574036
 21
79.51
 31
0.0
 12
262.574036
 22
80.49
 32
0.0
 13
262.560316
 23
80.49
 33
0.0
  0
3DFACE
  8
0
  6
CONTINUOUS
 62
   249
 10
262.574036
 20
79.51
 30
0.0
 11
262.587756
 21
79.51
 31
0.0
 12
262.587756
 22
80.49
 32
0.0
 13
262.574036
 23
80.49
 33
0.0
  0
3DFACE
  8
0
  6
CONTINUOUS
 62
   249
 10
262.587756
 20
79.51
 30
0.0
 11
262.601476
 21
79.51
 31
0.0
 12
262.601476
 22
80.49
 32
0.0
 13
262.587756
 23
80.49
 33
0.0
  0
3DFACE
  8
0
  6
CONTINUOUS
 62
   249
 10
262.601476
 20
79.51
 30
0.0
 11
262.615196
 21
79.51
 31
0.0
 12
262.615196
 22
80.49
 32
0.0
 13
262.601476
 23
80.49
 33
0.0
  0
3DFACE
  8
0
  6
CONTINUOUS
 62
   249
 10
262.615196
 20
79.51
 30
0.0
 11
262.628916
 21
79.51
 31
0.0
 12
262.628916
 22
80.49
 32
0.0
 13
262.615196
 23
80.49
 33
0.0
  0
3DFACE
  8
0
  6
CONTINUOUS
 62
   249
 10
262.628916
 20
79.51
 30
0.0
 11
262.642636
 21
79.51
 31
0.0
 12
262.642636
 22
80.49
 32
0.0
 13
262.628916
 23
80.49
 33
0.0
  0
3DFACE
  8
0
  6
CONTINUOUS
 62
   249
 10
262.642636
 20
79.51
 30
0.0
 11
262.656356
 21
79.51
 31
0.0
 12
262.656356
 22
80.49
 32
0.0
 13
262.642636
 23
80.49
 33
0.0
  0
3DFACE
  8
0
  6
CONTINUOUS
 62
   249
 10
262.656356
 20
79.51
 30
0.0
 11
262.670076
 21
79.51
 31
0.0
 12
262.670076
 22
80.49
 32
0.0
 13
262.656356
 23
80.49
 33
0.0
  0
3DFACE
  8
0
  6
CONTINUOUS
 62
   249
 10
262.670076
 20
79.51
 30
0.0
 11
262.683796
 21
79.51
 31
0.0
 12
262.683796
 22
80.49
 32
0.0
 13
262.670076
 23
80.49
 33
0.0
  0
3DFACE
  8
0
  6
CONTINUOUS
 62
   249
 10
262.683796
 20
79.51
 30
0.0
 11
262.697516
 21
79.51
 31
0.0
 12
262.697516
 22
80.49
 32
0.0
 13
262.683796
 23
80.49
 33
0.0
  0
3DFACE
  8
0
  6
CONTINUOUS
 62
   249
 10
262.697516
 20
79.51
 30
0.0
 11
262.711236
 21
79.51
 31
0.0
 12
262.711236
 22
80.49
 32
0.0
 13
262.697516
 23
80.49
 33
0.0
  0
3DFACE
  8
0
  6
CONTINUOUS
 62
   249
 10
262.711236
 20
79.51
 30
0.0
 11
262.724956
 21
79.51
 31
0.0
 12
262.724956
 22
80.49
 32
0.0
 13
262.711236
 23
80.49
 33
0.0
  0
3DFACE
  8
0
  6
CONTINUOUS
 62
   249
 10
262.724956
 20
79.51
 30
0.0
 11
262.738676
 21
79.51
 31
0.0
 12
262.738676
 22
80.49
 32
0.0
 13
262.724956
 23
80.49
 33
0.0
  0
3DFACE
  8
0
  6
CONTINUOUS
 62
   249
 10
262.738676
 20
79.51
 30
0.0
 11
262.752396
 21
79.51
 31
0.0
 12
262.752396
 22
80.49
 32
0.0
 13
262.738676
 23
80.49
 33
0.0
  0
3DFACE
  8
0
  6
CONTINUOUS
 62
   249
 10
262.752396
 20
79.51
 30
0.0
 11
262.766116
 21
79.51
 31
0.0
 12
262.766116
 22
80.49
 32
0.0
 13
262.752396
 23
80.49
 33
0.0
  0
3DFACE
  8
0
  6
CONTINUOUS
 62
   249
 10
262.766116
 20
79.51
 30
0.0
 11
262.779836
 21
79.51
 31
0.0
 12
262.779836
 22
80.49
 32
0.0
 13
262.766116
 23
80.49
 33
0.0
  0
3DFACE
  8
0
  6
CONTINUOUS
 62
   249
 10
262.779836
 20
79.51
 30
0.0
 11
262.793556
 21
79.51
 31
0.0
 12
262.793556
 22
80.49
 32
0.0
 13
262.779836
 23
80.49
 33
0.0
  0
3DFACE
  8
0
  6
CONTINUOUS
 62
   249
 10
262.793556
 20
79.51
 30
0.0
 11
262.807276
 21
79.51
 31
0.0
 12
262.807276
 22
80.49
 32
0.0
 13
262.793556
 23
80.49
 33
0.0
  0
3DFACE
  8
0
  6
CONTINUOUS
 62
   249
 10
262.807276
 20
79.51
 30
0.0
 11
262.820996
 21
79.51
 31
0.0
 12
262.820996
 22
80.49
 32
0.0
 13
262.807276
 23
80.49
 33
0.0
  0
3DFACE
  8
0
  6
CONTINUOUS
 62
   249
 10
262.820996
 20
79.51
 30
0.0
 11
262.834716
 21
79.51
 31
0.0
 12
262.834716
 22
80.49
 32
0.0
 13
262.820996
 23
80.49
 33
0.0
  0
3DFACE
  8
0
  6
CONTINUOUS
 62
   249
 10
262.834716
 20
79.51
 30
0.0
 11
262.848436
 21
79.51
 31
0.0
 12
262.848436
 22
80.49
 32
0.0
 13
262.834716
 23
80.49
 33
0.0
  0
3DFACE
  8
0
  6
CONTINUOUS
 62
   249
 10
262.848436
 20
79.51
 30
0.0
 11
262.862156
 21
79.51
 31
0.0
 12
262.862156
 22
80.49
 32
0.0
 13
262.848436
 23
80.49
 33
0.0
  0
3DFACE
  8
0
  6
CONTINUOUS
 62
   249
 10
262.862156
 20
79.51
 30
0.0
 11
262.875876
 21
79.51
 31
0.0
 12
262.875876
 22
80.49
 32
0.0
 13
262.862156
 23
80.49
 33
0.0
  0
3DFACE
  8
0
  6
CONTINUOUS
 62
   249
 10
262.875876
 20
79.51
 30
0.0
 11
262.889596
 21
79.51
 31
0.0
 12
262.889596
 22
80.49
 32
0.0
 13
262.875876
 23
80.49
 33
0.0
  0
3DFACE
  8
0
  6
CONTINUOUS
 62
   249
 10
262.889596
 20
79.51
 30
0.0
 11
262.903316
 21
79.51
 31
0.0
 12
262.903316
 22
80.49
 32
0.0
 13
262.889596
 23
80.49
 33
0.0
  0
3DFACE
  8
0
  6
CONTINUOUS
 62
   249
 10
262.903316
 20
79.51
 30
0.0
 11
262.917036
 21
79.51
 31
0.0
 12
262.917036
 22
80.49
 32
0.0
 13
262.903316
 23
80.49
 33
0.0
  0
3DFACE
  8
0
  6
CONTINUOUS
 62
   249
 10
262.917036
 20
79.51
 30
0.0
 11
262.930756
 21
79.51
 31
0.0
 12
262.930756
 22
80.49
 32
0.0
 13
262.917036
 23
80.49
 33
0.0
  0
3DFACE
  8
0
  6
CONTINUOUS
 62
   249
 10
262.930756
 20
79.51
 30
0.0
 11
262.944476
 21
79.51
 31
0.0
 12
262.944476
 22
80.49
 32
0.0
 13
262.930756
 23
80.49
 33
0.0
  0
3DFACE
  8
0
  6
CONTINUOUS
 62
   249
 10
262.944476
 20
79.51
 30
0.0
 11
262.958196
 21
79.51
 31
0.0
 12
262.958196
 22
80.49
 32
0.0
 13
262.944476
 23
80.49
 33
0.0
  0
3DFACE
  8
0
  6
CONTINUOUS
 62
   249
 10
262.958196
 20
79.51
 30
0.0
 11
262.971916
 21
79.51
 31
0.0
 12
262.971916
 22
80.49
 32
0.0
 13
262.958196
 23
80.49
 33
0.0
  0
3DFACE
  8
0
  6
CONTINUOUS
 62
   249
 10
262.971916
 20
79.51
 30
0.0
 11
262.985636
 21
79.51
 31
0.0
 12
262.985636
 22
80.49
 32
0.0
 13
262.971916
 23
80.49
 33
0.0
  0
3DFACE
  8
0
  6
CONTINUOUS
 62
   249
 10
262.985636
 20
79.51
 30
0.0
 11
262.999356
 21
79.51
 31
0.0
 12
262.999356
 22
80.49
 32
0.0
 13
262.985636
 23
80.49
 33
0.0
  0
3DFACE
  8
0
  6
CONTINUOUS
 62
   249
 10
262.999356
 20
79.51
 30
0.0
 11
263.013076
 21
79.51
 31
0.0
 12
263.013076
 22
80.49
 32
0.0
 13
262.999356
 23
80.49
 33
0.0
  0
3DFACE
  8
0
  6
CONTINUOUS
 62
   249
 10
263.013076
 20
79.51
 30
0.0
 11
263.026796
 21
79.51
 31
0.0
 12
263.026796
 22
80.49
 32
0.0
 13
263.013076
 23
80.49
 33
0.0
  0
3DFACE
  8
0
  6
CONTINUOUS
 62
   249
 10
263.026796
 20
79.51
 30
0.0
 11
263.040516
 21
79.51
 31
0.0
 12
263.040516
 22
80.49
 32
0.0
 13
263.026796
 23
80.49
 33
0.0
  0
3DFACE
  8
0
  6
CONTINUOUS
 62
   249
 10
263.040516
 20
79.51
 30
0.0
 11
263.054236
 21
79.51
 31
0.0
 12
263.054236
 22
80.49
 32
0.0
 13
263.040516
 23
80.49
 33
0.0
  0
3DFACE
  8
0
  6
CONTINUOUS
 62
   249
 10
263.054236
 20
79.51
 30
0.0
 11
263.067956
 21
79.51
 31
0.0
 12
263.067956
 22
80.49
 32
0.0
 13
263.054236
 23
80.49
 33
0.0
  0
3DFACE
  8
0
  6
CONTINUOUS
 62
   249
 10
263.067956
 20
79.51
 30
0.0
 11
263.081676
 21
79.51
 31
0.0
 12
263.081676
 22
80.49
 32
0.0
 13
263.067956
 23
80.49
 33
0.0
  0
3DFACE
  8
0
  6
CONTINUOUS
 62
   249
 10
263.081676
 20
79.51
 30
0.0
 11
263.095396
 21
79.51
 31
0.0
 12
263.095396
 22
80.49
 32
0.0
 13
263.081676
 23
80.49
 33
0.0
  0
3DFACE
  8
0
  6
CONTINUOUS
 62
   249
 10
263.095396
 20
79.51
 30
0.0
 11
263.109116
 21
79.51
 31
0.0
 12
263.109116
 22
80.49
 32
0.0
 13
263.095396
 23
80.49
 33
0.0
  0
3DFACE
  8
0
  6
CONTINUOUS
 62
   249
 10
263.109116
 20
79.51
 30
0.0
 11
263.122836
 21
79.51
 31
0.0
 12
263.122836
 22
80.49
 32
0.0
 13
263.109116
 23
80.49
 33
0.0
  0
3DFACE
  8
0
  6
CONTINUOUS
 62
   249
 10
263.122836
 20
79.51
 30
0.0
 11
263.136556
 21
79.51
 31
0.0
 12
263.136556
 22
80.49
 32
0.0
 13
263.122836
 23
80.49
 33
0.0
  0
3DFACE
  8
0
  6
CONTINUOUS
 62
   249
 10
263.136556
 20
79.51
 30
0.0
 11
263.150276
 21
79.51
 31
0.0
 12
263.150276
 22
80.49
 32
0.0
 13
263.136556
 23
80.49
 33
0.0
  0
3DFACE
  8
0
  6
CONTINUOUS
 62
   249
 10
263.150276
 20
79.51
 30
0.0
 11
263.163996
 21
79.51
 31
0.0
 12
263.163996
 22
80.49
 32
0.0
 13
263.150276
 23
80.49
 33
0.0
  0
3DFACE
  8
0
  6
CONTINUOUS
 62
   249
 10
263.163996
 20
79.51
 30
0.0
 11
263.177716
 21
79.51
 31
0.0
 12
263.177716
 22
80.49
 32
0.0
 13
263.163996
 23
80.49
 33
0.0
  0
3DFACE
  8
0
  6
CONTINUOUS
 62
   249
 10
263.177716
 20
79.51
 30
0.0
 11
263.191436
 21
79.51
 31
0.0
 12
263.191436
 22
80.49
 32
0.0
 13
263.177716
 23
80.49
 33
0.0
  0
3DFACE
  8
0
  6
CONTINUOUS
 62
   249
 10
263.191436
 20
79.51
 30
0.0
 11
263.205156
 21
79.51
 31
0.0
 12
263.205156
 22
80.49
 32
0.0
 13
263.191436
 23
80.49
 33
0.0
  0
3DFACE
  8
0
  6
CONTINUOUS
 62
   249
 10
263.205156
 20
79.51
 30
0.0
 11
263.218876
 21
79.51
 31
0.0
 12
263.218876
 22
80.49
 32
0.0
 13
263.205156
 23
80.49
 33
0.0
  0
3DFACE
  8
0
  6
CONTINUOUS
 62
   249
 10
263.218876
 20
79.51
 30
0.0
 11
263.232596
 21
79.51
 31
0.0
 12
263.232596
 22
80.49
 32
0.0
 13
263.218876
 23
80.49
 33
0.0
  0
3DFACE
  8
0
  6
CONTINUOUS
 62
   249
 10
263.232596
 20
79.51
 30
0.0
 11
263.246316
 21
79.51
 31
0.0
 12
263.246316
 22
80.49
 32
0.0
 13
263.232596
 23
80.49
 33
0.0
  0
3DFACE
  8
0
  6
CONTINUOUS
 62
   249
 10
263.246316
 20
79.51
 30
0.0
 11
263.260036
 21
79.51
 31
0.0
 12
263.260036
 22
80.49
 32
0.0
 13
263.246316
 23
80.49
 33
0.0
  0
3DFACE
  8
0
  6
CONTINUOUS
 62
   249
 10
263.260036
 20
79.51
 30
0.0
 11
263.273756
 21
79.51
 31
0.0
 12
263.273756
 22
80.49
 32
0.0
 13
263.260036
 23
80.49
 33
0.0
  0
3DFACE
  8
0
  6
CONTINUOUS
 62
   249
 10
263.273756
 20
79.51
 30
0.0
 11
263.287476
 21
79.51
 31
0.0
 12
263.287476
 22
80.49
 32
0.0
 13
263.273756
 23
80.49
 33
0.0
  0
3DFACE
  8
0
  6
CONTINUOUS
 62
   249
 10
263.287476
 20
79.51
 30
0.0
 11
263.301196
 21
79.51
 31
0.0
 12
263.301196
 22
80.49
 32
0.0
 13
263.287476
 23
80.49
 33
0.0
  0
3DFACE
  8
0
  6
CONTINUOUS
 62
   249
 10
263.301196
 20
79.51
 30
0.0
 11
263.314916
 21
79.51
 31
0.0
 12
263.314916
 22
80.49
 32
0.0
 13
263.301196
 23
80.49
 33
0.0
  0
3DFACE
  8
0
  6
CONTINUOUS
 62
   249
 10
263.314916
 20
79.51
 30
0.0
 11
263.328636
 21
79.51
 31
0.0
 12
263.328636
 22
80.49
 32
0.0
 13
263.314916
 23
80.49
 33
0.0
  0
3DFACE
  8
0
  6
CONTINUOUS
 62
   249
 10
263.328636
 20
79.51
 30
0.0
 11
263.342356
 21
79.51
 31
0.0
 12
263.342356
 22
80.49
 32
0.0
 13
263.328636
 23
80.49
 33
0.0
  0
3DFACE
  8
0
  6
CONTINUOUS
 62
   249
 10
263.342356
 20
79.51
 30
0.0
 11
263.356076
 21
79.51
 31
0.0
 12
263.356076
 22
80.49
 32
0.0
 13
263.342356
 23
80.49
 33
0.0
  0
3DFACE
  8
0
  6
CONTINUOUS
 62
   249
 10
263.356076
 20
79.51
 30
0.0
 11
263.369796
 21
79.51
 31
0.0
 12
263.369796
 22
80.49
 32
0.0
 13
263.356076
 23
80.49
 33
0.0
  0
3DFACE
  8
0
  6
CONTINUOUS
 62
   249
 10
263.369796
 20
79.51
 30
0.0
 11
263.383516
 21
79.51
 31
0.0
 12
263.383516
 22
80.49
 32
0.0
 13
263.369796
 23
80.49
 33
0.0
  0
3DFACE
  8
0
  6
CONTINUOUS
 62
   249
 10
263.383516
 20
79.51
 30
0.0
 11
263.397236
 21
79.51
 31
0.0
 12
263.397236
 22
80.49
 32
0.0
 13
263.383516
 23
80.49
 33
0.0
  0
3DFACE
  8
0
  6
CONTINUOUS
 62
   249
 10
263.397236
 20
79.51
 30
0.0
 11
263.410956
 21
79.51
 31
0.0
 12
263.410956
 22
80.49
 32
0.0
 13
263.397236
 23
80.49
 33
0.0
  0
3DFACE
  8
0
  6
CONTINUOUS
 62
   249
 10
263.410956
 20
79.51
 30
0.0
 11
263.424676
 21
79.51
 31
0.0
 12
263.424676
 22
80.49
 32
0.0
 13
263.410956
 23
80.49
 33
0.0
  0
3DFACE
  8
0
  6
CONTINUOUS
 62
   249
 10
263.424676
 20
79.51
 30
0.0
 11
263.438396
 21
79.51
 31
0.0
 12
263.438396
 22
80.49
 32
0.0
 13
263.424676
 23
80.49
 33
0.0
  0
3DFACE
  8
0
  6
CONTINUOUS
 62
   249
 10
263.438396
 20
79.51
 30
0.0
 11
263.452116
 21
79.51
 31
0.0
 12
263.452116
 22
80.49
 32
0.0
 13
263.438396
 23
80.49
 33
0.0
  0
3DFACE
  8
0
  6
CONTINUOUS
 62
   249
 10
263.452116
 20
79.51
 30
0.0
 11
263.465836
 21
79.51
 31
0.0
 12
263.465836
 22
80.49
 32
0.0
 13
263.452116
 23
80.49
 33
0.0
  0
3DFACE
  8
0
  6
CONTINUOUS
 62
   249
 10
263.465836
 20
79.51
 30
0.0
 11
263.479556
 21
79.51
 31
0.0
 12
263.479556
 22
80.49
 32
0.0
 13
263.465836
 23
80.49
 33
0.0
  0
3DFACE
  8
0
  6
CONTINUOUS
 62
   249
 10
263.479556
 20
79.51
 30
0.0
 11
263.493276
 21
79.51
 31
0.0
 12
263.493276
 22
80.49
 32
0.0
 13
263.479556
 23
80.49
 33
0.0
  0
3DFACE
  8
0
  6
CONTINUOUS
 62
   249
 10
263.493276
 20
79.51
 30
0.0
 11
263.506996
 21
79.51
 31
0.0
 12
263.506996
 22
80.49
 32
0.0
 13
263.493276
 23
80.49
 33
0.0
  0
3DFACE
  8
0
  6
CONTINUOUS
 62
   249
 10
263.506996
 20
79.51
 30
0.0
 11
263.520716
 21
79.51
 31
0.0
 12
263.520716
 22
80.49
 32
0.0
 13
263.506996
 23
80.49
 33
0.0
  0
3DFACE
  8
0
  6
CONTINUOUS
 62
   249
 10
263.520716
 20
79.51
 30
0.0
 11
263.534436
 21
79.51
 31
0.0
 12
263.534436
 22
80.49
 32
0.0
 13
263.520716
 23
80.49
 33
0.0
  0
3DFACE
  8
0
  6
CONTINUOUS
 62
   249
 10
263.534436
 20
79.51
 30
0.0
 11
263.548156
 21
79.51
 31
0.0
 12
263.548156
 22
80.49
 32
0.0
 13
263.534436
 23
80.49
 33
0.0
  0
3DFACE
  8
0
  6
CONTINUOUS
 62
   249
 10
263.548156
 20
79.51
 30
0.0
 11
263.561876
 21
79.51
 31
0.0
 12
263.561876
 22
80.49
 32
0.0
 13
263.548156
 23
80.49
 33
0.0
  0
3DFACE
  8
0
  6
CONTINUOUS
 62
   249
 10
263.561876
 20
79.51
 30
0.0
 11
263.575596
 21
79.51
 31
0.0
 12
263.575596
 22
80.49
 32
0.0
 13
263.561876
 23
80.49
 33
0.0
  0
3DFACE
  8
0
  6
CONTINUOUS
 62
   249
 10
263.575596
 20
79.51
 30
0.0
 11
263.589316
 21
79.51
 31
0.0
 12
263.589316
 22
80.49
 32
0.0
 13
263.575596
 23
80.49
 33
0.0
  0
3DFACE
  8
0
  6
CONTINUOUS
 62
   249
 10
263.589316
 20
79.51
 30
0.0
 11
263.603036
 21
79.51
 31
0.0
 12
263.603036
 22
80.49
 32
0.0
 13
263.589316
 23
80.49
 33
0.0
  0
3DFACE
  8
0
  6
CONTINUOUS
 62
   249
 10
263.603036
 20
79.51
 30
0.0
 11
263.616756
 21
79.51
 31
0.0
 12
263.616756
 22
80.49
 32
0.0
 13
263.603036
 23
80.49
 33
0.0
  0
3DFACE
  8
0
  6
CONTINUOUS
 62
   249
 10
263.616756
 20
79.51
 30
0.0
 11
263.630476
 21
79.51
 31
0.0
 12
263.630476
 22
80.49
 32
0.0
 13
263.616756
 23
80.49
 33
0.0
  0
3DFACE
  8
0
  6
CONTINUOUS
 62
   249
 10
263.630476
 20
79.51
 30
0.0
 11
263.644196
 21
79.51
 31
0.0
 12
263.644196
 22
80.49
 32
0.0
 13
263.630476
 23
80.49
 33
0.0
  0
3DFACE
  8
0
  6
CONTINUOUS
 62
   249
 10
263.644196
 20
79.51
 30
0.0
 11
263.657916
 21
79.51
 31
0.0
 12
263.657916
 22
80.49
 32
0.0
 13
263.644196
 23
80.49
 33
0.0
  0
3DFACE
  8
0
  6
CONTINUOUS
 62
   249
 10
263.657916
 20
79.51
 30
0.0
 11
263.671636
 21
79.51
 31
0.0
 12
263.671636
 22
80.49
 32
0.0
 13
263.657916
 23
80.49
 33
0.0
  0
3DFACE
  8
0
  6
CONTINUOUS
 62
   249
 10
263.671636
 20
79.51
 30
0.0
 11
263.685356
 21
79.51
 31
0.0
 12
263.685356
 22
80.49
 32
0.0
 13
263.671636
 23
80.49
 33
0.0
  0
3DFACE
  8
0
  6
CONTINUOUS
 62
   249
 10
263.685356
 20
79.51
 30
0.0
 11
263.699076
 21
79.51
 31
0.0
 12
263.699076
 22
80.49
 32
0.0
 13
263.685356
 23
80.49
 33
0.0
  0
3DFACE
  8
0
  6
CONTINUOUS
 62
   249
 10
263.699076
 20
79.51
 30
0.0
 11
263.712796
 21
79.51
 31
0.0
 12
263.712796
 22
80.49
 32
0.0
 13
263.699076
 23
80.49
 33
0.0
  0
3DFACE
  8
0
  6
CONTINUOUS
 62
   249
 10
263.712796
 20
79.51
 30
0.0
 11
263.726516
 21
79.51
 31
0.0
 12
263.726516
 22
80.49
 32
0.0
 13
263.712796
 23
80.49
 33
0.0
  0
3DFACE
  8
0
  6
CONTINUOUS
 62
   249
 10
263.726516
 20
79.51
 30
0.0
 11
263.740236
 21
79.51
 31
0.0
 12
263.740236
 22
80.49
 32
0.0
 13
263.726516
 23
80.49
 33
0.0
  0
3DFACE
  8
0
  6
CONTINUOUS
 62
   249
 10
263.740236
 20
79.51
 30
0.0
 11
263.753956
 21
79.51
 31
0.0
 12
263.753956
 22
80.49
 32
0.0
 13
263.740236
 23
80.49
 33
0.0
  0
3DFACE
  8
0
  6
CONTINUOUS
 62
   249
 10
263.753956
 20
79.51
 30
0.0
 11
263.767676
 21
79.51
 31
0.0
 12
263.767676
 22
80.49
 32
0.0
 13
263.753956
 23
80.49
 33
0.0
  0
3DFACE
  8
0
  6
CONTINUOUS
 62
   249
 10
263.767676
 20
79.51
 30
0.0
 11
263.781396
 21
79.51
 31
0.0
 12
263.781396
 22
80.49
 32
0.0
 13
263.767676
 23
80.49
 33
0.0
  0
3DFACE
  8
0
  6
CONTINUOUS
 62
   249
 10
263.781396
 20
79.51
 30
0.0
 11
263.795116
 21
79.51
 31
0.0
 12
263.795116
 22
80.49
 32
0.0
 13
263.781396
 23
80.49
 33
0.0
  0
3DFACE
  8
0
  6
CONTINUOUS
 62
   249
 10
263.795116
 20
79.51
 30
0.0
 11
263.808836
 21
79.51
 31
0.0
 12
263.808836
 22
80.49
 32
0.0
 13
263.795116
 23
80.49
 33
0.0
  0
3DFACE
  8
0
  6
CONTINUOUS
 62
   249
 10
263.808836
 20
79.51
 30
0.0
 11
263.822556
 21
79.51
 31
0.0
 12
263.822556
 22
80.49
 32
0.0
 13
263.808836
 23
80.49
 33
0.0
  0
3DFACE
  8
0
  6
CONTINUOUS
 62
   249
 10
263.822556
 20
79.51
 30
0.0
 11
263.836276
 21
79.51
 31
0.0
 12
263.836276
 22
80.49
 32
0.0
 13
263.822556
 23
80.49
 33
0.0
  0
3DFACE
  8
0
  6
CONTINUOUS
 62
   249
 10
263.836276
 20
79.51
 30
0.0
 11
263.849996
 21
79.51
 31
0.0
 12
263.849996
 22
80.49
 32
0.0
 13
263.836276
 23
80.49
 33
0.0
  0
3DFACE
  8
0
  6
CONTINUOUS
 62
   249
 10
263.849996
 20
79.51
 30
0.0
 11
263.863716
 21
79.51
 31
0.0
 12
263.863716
 22
80.49
 32
0.0
 13
263.849996
 23
80.49
 33
0.0
  0
3DFACE
  8
0
  6
CONTINUOUS
 62
   249
 10
263.863716
 20
79.51
 30
0.0
 11
263.877436
 21
79.51
 31
0.0
 12
263.877436
 22
80.49
 32
0.0
 13
263.863716
 23
80.49
 33
0.0
  0
3DFACE
  8
0
  6
CONTINUOUS
 62
   249
 10
263.877436
 20
79.51
 30
0.0
 11
263.891156
 21
79.51
 31
0.0
 12
263.891156
 22
80.49
 32
0.0
 13
263.877436
 23
80.49
 33
0.0
  0
3DFACE
  8
0
  6
CONTINUOUS
 62
   249
 10
263.891156
 20
79.51
 30
0.0
 11
263.904876
 21
79.51
 31
0.0
 12
263.904876
 22
80.49
 32
0.0
 13
263.891156
 23
80.49
 33
0.0
  0
3DFACE
  8
0
  6
CONTINUOUS
 62
   249
 10
263.904876
 20
79.51
 30
0.0
 11
263.918596
 21
79.51
 31
0.0
 12
263.918596
 22
80.49
 32
0.0
 13
263.904876
 23
80.49
 33
0.0
  0
3DFACE
  8
0
  6
CONTINUOUS
 62
   249
 10
263.918596
 20
79.51
 30
0.0
 11
263.932316
 21
79.51
 31
0.0
 12
263.932316
 22
80.49
 32
0.0
 13
263.918596
 23
80.49
 33
0.0
  0
3DFACE
  8
0
  6
CONTINUOUS
 62
   249
 10
263.932316
 20
79.51
 30
0.0
 11
263.946036
 21
79.51
 31
0.0
 12
263.946036
 22
80.49
 32
0.0
 13
263.932316
 23
80.49
 33
0.0
  0
3DFACE
  8
0
  6
CONTINUOUS
 62
   249
 10
263.946036
 20
79.51
 30
0.0
 11
263.959756
 21
79.51
 31
0.0
 12
263.959756
 22
80.49
 32
0.0
 13
263.946036
 23
80.49
 33
0.0
  0
3DFACE
  8
0
  6
CONTINUOUS
 62
   249
 10
263.959756
 20
79.51
 30
0.0
 11
263.973476
 21
79.51
 31
0.0
 12
263.973476
 22
80.49
 32
0.0
 13
263.959756
 23
80.49
 33
0.0
  0
3DFACE
  8
0
  6
CONTINUOUS
 62
   249
 10
263.973476
 20
79.51
 30
0.0
 11
263.987196
 21
79.51
 31
0.0
 12
263.987196
 22
80.49
 32
0.0
 13
263.973476
 23
80.49
 33
0.0
  0
3DFACE
  8
0
  6
CONTINUOUS
 62
   249
 10
263.987196
 20
79.51
 30
0.0
 11
264.000916
 21
79.51
 31
0.0
 12
264.000916
 22
80.49
 32
0.0
 13
263.987196
 23
80.49
 33
0.0
  0
3DFACE
  8
0
  6
CONTINUOUS
 62
   249
 10
264.000916
 20
79.51
 30
0.0
 11
264.014636
 21
79.51
 31
0.0
 12
264.014636
 22
80.49
 32
0.0
 13
264.000916
 23
80.49
 33
0.0
  0
3DFACE
  8
0
  6
CONTINUOUS
 62
   249
 10
264.014636
 20
79.51
 30
0.0
 11
264.028356
 21
79.51
 31
0.0
 12
264.028356
 22
80.49
 32
0.0
 13
264.014636
 23
80.49
 33
0.0
  0
3DFACE
  8
0
  6
CONTINUOUS
 62
   249
 10
264.028356
 20
79.51
 30
0.0
 11
264.042076
 21
79.51
 31
0.0
 12
264.042076
 22
80.49
 32
0.0
 13
264.028356
 23
80.49
 33
0.0
  0
3DFACE
  8
0
  6
CONTINUOUS
 62
   249
 10
264.042076
 20
79.51
 30
0.0
 11
264.055796
 21
79.51
 31
0.0
 12
264.055796
 22
80.49
 32
0.0
 13
264.042076
 23
80.49
 33
0.0
  0
3DFACE
  8
0
  6
CONTINUOUS
 62
   249
 10
264.055796
 20
79.51
 30
0.0
 11
264.069516
 21
79.51
 31
0.0
 12
264.069516
 22
80.49
 32
0.0
 13
264.055796
 23
80.49
 33
0.0
  0
3DFACE
  8
0
  6
CONTINUOUS
 62
   249
 10
264.069516
 20
79.51
 30
0.0
 11
264.083236
 21
79.51
 31
0.0
 12
264.083236
 22
80.49
 32
0.0
 13
264.069516
 23
80.49
 33
0.0
  0
3DFACE
  8
0
  6
CONTINUOUS
 62
   249
 10
264.083236
 20
79.51
 30
0.0
 11
264.096956
 21
79.51
 31
0.0
 12
264.096956
 22
80.49
 32
0.0
 13
264.083236
 23
80.49
 33
0.0
  0
3DFACE
  8
0
  6
CONTINUOUS
 62
   249
 10
264.096956
 20
79.51
 30
0.0
 11
264.110676
 21
79.51
 31
0.0
 12
264.110676
 22
80.49
 32
0.0
 13
264.096956
 23
80.49
 33
0.0
  0
3DFACE
  8
0
  6
CONTINUOUS
 62
   249
 10
264.110676
 20
79.51
 30
0.0
 11
264.124396
 21
79.51
 31
0.0
 12
264.124396
 22
80.49
 32
0.0
 13
264.110676
 23
80.49
 33
0.0
  0
3DFACE
  8
0
  6
CONTINUOUS
 62
   249
 10
264.124396
 20
79.51
 30
0.0
 11
264.138116
 21
79.51
 31
0.0
 12
264.138116
 22
80.49
 32
0.0
 13
264.124396
 23
80.49
 33
0.0
  0
3DFACE
  8
0
  6
CONTINUOUS
 62
   249
 10
264.138116
 20
79.51
 30
0.0
 11
264.151836
 21
79.51
 31
0.0
 12
264.151836
 22
80.49
 32
0.0
 13
264.138116
 23
80.49
 33
0.0
  0
3DFACE
  8
0
  6
CONTINUOUS
 62
   249
 10
264.151836
 20
79.51
 30
0.0
 11
264.165556
 21
79.51
 31
0.0
 12
264.165556
 22
80.49
 32
0.0
 13
264.151836
 23
80.49
 33
0.0
  0
3DFACE
  8
0
  6
CONTINUOUS
 62
   249
 10
264.165556
 20
79.51
 30
0.0
 11
264.179276
 21
79.51
 31
0.0
 12
264.179276
 22
80.49
 32
0.0
 13
264.165556
 23
80.49
 33
0.0
  0
3DFACE
  8
0
  6
CONTINUOUS
 62
   249
 10
264.179276
 20
79.51
 30
0.0
 11
264.192996
 21
79.51
 31
0.0
 12
264.192996
 22
80.49
 32
0.0
 13
264.179276
 23
80.49
 33
0.0
  0
3DFACE
  8
0
  6
CONTINUOUS
 62
   249
 10
264.192996
 20
79.51
 30
0.0
 11
264.206716
 21
79.51
 31
0.0
 12
264.206716
 22
80.49
 32
0.0
 13
264.192996
 23
80.49
 33
0.0
  0
3DFACE
  8
0
  6
CONTINUOUS
 62
   249
 10
264.206716
 20
79.51
 30
0.0
 11
264.220436
 21
79.51
 31
0.0
 12
264.220436
 22
80.49
 32
0.0
 13
264.206716
 23
80.49
 33
0.0
  0
3DFACE
  8
0
  6
CONTINUOUS
 62
   249
 10
264.220436
 20
79.51
 30
0.0
 11
264.234156
 21
79.51
 31
0.0
 12
264.234156
 22
80.49
 32
0.0
 13
264.220436
 23
80.49
 33
0.0
  0
3DFACE
  8
0
  6
CONTINUOUS
 62
   249
 10
264.234156
 20
79.51
 30
0.0
 11
264.247876
 21
79.51
 31
0.0
 12
264.247876
 22
80.49
 32
0.0
 13
264.234156
 23
80.49
 33
0.0
  0
3DFACE
  8
0
  6
CONTINUOUS
 62
   249
 10
264.247876
 20
79.51
 30
0.0
 11
264.261596
 21
79.51
 31
0.0
 12
264.261596
 22
80.49
 32
0.0
 13
264.247876
 23
80.49
 33
0.0
  0
3DFACE
  8
0
  6
CONTINUOUS
 62
   249
 10
264.261596
 20
79.51
 30
0.0
 11
264.275316
 21
79.51
 31
0.0
 12
264.275316
 22
80.49
 32
0.0
 13
264.261596
 23
80.49
 33
0.0
  0
3DFACE
  8
0
  6
CONTINUOUS
 62
   249
 10
264.275316
 20
79.51
 30
0.0
 11
264.289036
 21
79.51
 31
0.0
 12
264.289036
 22
80.49
 32
0.0
 13
264.275316
 23
80.49
 33
0.0
  0
3DFACE
  8
0
  6
CONTINUOUS
 62
   249
 10
264.289036
 20
79.51
 30
0.0
 11
264.302756
 21
79.51
 31
0.0
 12
264.302756
 22
80.49
 32
0.0
 13
264.289036
 23
80.49
 33
0.0
  0
3DFACE
  8
0
  6
CONTINUOUS
 62
   249
 10
264.302756
 20
79.51
 30
0.0
 11
264.316476
 21
79.51
 31
0.0
 12
264.316476
 22
80.49
 32
0.0
 13
264.302756
 23
80.49
 33
0.0
  0
3DFACE
  8
0
  6
CONTINUOUS
 62
   249
 10
264.316476
 20
79.51
 30
0.0
 11
264.330196
 21
79.51
 31
0.0
 12
264.330196
 22
80.49
 32
0.0
 13
264.316476
 23
80.49
 33
0.0
  0
3DFACE
  8
0
  6
CONTINUOUS
 62
   249
 10
264.330196
 20
79.51
 30
0.0
 11
264.343916
 21
79.51
 31
0.0
 12
264.343916
 22
80.49
 32
0.0
 13
264.330196
 23
80.49
 33
0.0
  0
3DFACE
  8
0
  6
CONTINUOUS
 62
   249
 10
264.343916
 20
79.51
 30
0.0
 11
264.357636
 21
79.51
 31
0.0
 12
264.357636
 22
80.49
 32
0.0
 13
264.343916
 23
80.49
 33
0.0
  0
3DFACE
  8
0
  6
CONTINUOUS
 62
   249
 10
264.357636
 20
79.51
 30
0.0
 11
264.371356
 21
79.51
 31
0.0
 12
264.371356
 22
80.49
 32
0.0
 13
264.357636
 23
80.49
 33
0.0
  0
3DFACE
  8
0
  6
CONTINUOUS
 62
   249
 10
264.371356
 20
79.51
 30
0.0
 11
264.385076
 21
79.51
 31
0.0
 12
264.385076
 22
80.49
 32
0.0
 13
264.371356
 23
80.49
 33
0.0
  0
3DFACE
  8
0
  6
CONTINUOUS
 62
   249
 10
264.385076
 20
79.51
 30
0.0
 11
264.398796
 21
79.51
 31
0.0
 12
264.398796
 22
80.49
 32
0.0
 13
264.385076
 23
80.49
 33
0.0
  0
3DFACE
  8
0
  6
CONTINUOUS
 62
   249
 10
264.398796
 20
79.51
 30
0.0
 11
264.412516
 21
79.51
 31
0.0
 12
264.412516
 22
80.49
 32
0.0
 13
264.398796
 23
80.49
 33
0.0
  0
3DFACE
  8
0
  6
CONTINUOUS
 62
   249
 10
264.412516
 20
79.51
 30
0.0
 11
264.426236
 21
79.51
 31
0.0
 12
264.426236
 22
80.49
 32
0.0
 13
264.412516
 23
80.49
 33
0.0
  0
3DFACE
  8
0
  6
CONTINUOUS
 62
   249
 10
264.426236
 20
79.51
 30
0.0
 11
264.439956
 21
79.51
 31
0.0
 12
264.439956
 22
80.49
 32
0.0
 13
264.426236
 23
80.49
 33
0.0
  0
3DFACE
  8
0
  6
CONTINUOUS
 62
   249
 10
264.439956
 20
79.51
 30
0.0
 11
264.453676
 21
79.51
 31
0.0
 12
264.453676
 22
80.49
 32
0.0
 13
264.439956
 23
80.49
 33
0.0
  0
3DFACE
  8
0
  6
CONTINUOUS
 62
   249
 10
264.453676
 20
79.51
 30
0.0
 11
264.467396
 21
79.51
 31
0.0
 12
264.467396
 22
80.49
 32
0.0
 13
264.453676
 23
80.49
 33
0.0
  0
3DFACE
  8
0
  6
CONTINUOUS
 62
   249
 10
264.467396
 20
79.51
 30
0.0
 11
264.481116
 21
79.51
 31
0.0
 12
264.481116
 22
80.49
 32
0.0
 13
264.467396
 23
80.49
 33
0.0
  0
3DFACE
  8
0
  6
CONTINUOUS
 62
   249
 10
264.481116
 20
79.51
 30
0.0
 11
264.494836
 21
79.51
 31
0.0
 12
264.494836
 22
80.49
 32
0.0
 13
264.481116
 23
80.49
 33
0.0
  0
3DFACE
  8
0
  6
CONTINUOUS
 62
   249
 10
264.494836
 20
79.51
 30
0.0
 11
264.508556
 21
79.51
 31
0.0
 12
264.508556
 22
80.49
 32
0.0
 13
264.494836
 23
80.49
 33
0.0
  0
3DFACE
  8
0
  6
CONTINUOUS
 62
   249
 10
264.508556
 20
79.51
 30
0.0
 11
264.522276
 21
79.51
 31
0.0
 12
264.522276
 22
80.49
 32
0.0
 13
264.508556
 23
80.49
 33
0.0
  0
3DFACE
  8
0
  6
CONTINUOUS
 62
   249
 10
264.522276
 20
79.51
 30
0.0
 11
264.535996
 21
79.51
 31
0.0
 12
264.535996
 22
80.49
 32
0.0
 13
264.522276
 23
80.49
 33
0.0
  0
3DFACE
  8
0
  6
CONTINUOUS
 62
   249
 10
264.535996
 20
79.51
 30
0.0
 11
264.549716
 21
79.51
 31
0.0
 12
264.549716
 22
80.49
 32
0.0
 13
264.535996
 23
80.49
 33
0.0
  0
3DFACE
  8
0
  6
CONTINUOUS
 62
   249
 10
264.549716
 20
79.51
 30
0.0
 11
264.563436
 21
79.51
 31
0.0
 12
264.563436
 22
80.49
 32
0.0
 13
264.549716
 23
80.49
 33
0.0
  0
3DFACE
  8
0
  6
CONTINUOUS
 62
   249
 10
264.563436
 20
79.51
 30
0.0
 11
264.577156
 21
79.51
 31
0.0
 12
264.577156
 22
80.49
 32
0.0
 13
264.563436
 23
80.49
 33
0.0
  0
3DFACE
  8
0
  6
CONTINUOUS
 62
   249
 10
264.577156
 20
79.51
 30
0.0
 11
264.590876
 21
79.51
 31
0.0
 12
264.590876
 22
80.49
 32
0.0
 13
264.577156
 23
80.49
 33
0.0
  0
3DFACE
  8
0
  6
CONTINUOUS
 62
   249
 10
264.590876
 20
79.51
 30
0.0
 11
264.604596
 21
79.51
 31
0.0
 12
264.604596
 22
80.49
 32
0.0
 13
264.590876
 23
80.49
 33
0.0
  0
3DFACE
  8
0
  6
CONTINUOUS
 62
   249
 10
264.604596
 20
79.51
 30
0.0
 11
264.618316
 21
79.51
 31
0.0
 12
264.618316
 22
80.49
 32
0.0
 13
264.604596
 23
80.49
 33
0.0
  0
3DFACE
  8
0
  6
CONTINUOUS
 62
   249
 10
264.618316
 20
79.51
 30
0.0
 11
264.632036
 21
79.51
 31
0.0
 12
264.632036
 22
80.49
 32
0.0
 13
264.618316
 23
80.49
 33
0.0
  0
3DFACE
  8
0
  6
CONTINUOUS
 62
   249
 10
264.632036
 20
79.51
 30
0.0
 11
264.645756
 21
79.51
 31
0.0
 12
264.645756
 22
80.49
 32
0.0
 13
264.632036
 23
80.49
 33
0.0
  0
3DFACE
  8
0
  6
CONTINUOUS
 62
   249
 10
264.645756
 20
79.51
 30
0.0
 11
264.659476
 21
79.51
 31
0.0
 12
264.659476
 22
80.49
 32
0.0
 13
264.645756
 23
80.49
 33
0.0
  0
3DFACE
  8
0
  6
CONTINUOUS
 62
   249
 10
264.659476
 20
79.51
 30
0.0
 11
264.673196
 21
79.51
 31
0.0
 12
264.673196
 22
80.49
 32
0.0
 13
264.659476
 23
80.49
 33
0.0
  0
3DFACE
  8
0
  6
CONTINUOUS
 62
   249
 10
264.673196
 20
79.51
 30
0.0
 11
264.686916
 21
79.51
 31
0.0
 12
264.686916
 22
80.49
 32
0.0
 13
264.673196
 23
80.49
 33
0.0
  0
3DFACE
  8
0
  6
CONTINUOUS
 62
   249
 10
264.686916
 20
79.51
 30
0.0
 11
264.700636
 21
79.51
 31
0.0
 12
264.700636
 22
80.49
 32
0.0
 13
264.686916
 23
80.49
 33
0.0
  0
3DFACE
  8
0
  6
CONTINUOUS
 62
   249
 10
264.700636
 20
79.51
 30
0.0
 11
264.714356
 21
79.51
 31
0.0
 12
264.714356
 22
80.49
 32
0.0
 13
264.700636
 23
80.49
 33
0.0
  0
3DFACE
  8
0
  6
CONTINUOUS
 62
   249
 10
264.714356
 20
79.51
 30
0.0
 11
264.728076
 21
79.51
 31
0.0
 12
264.728076
 22
80.49
 32
0.0
 13
264.714356
 23
80.49
 33
0.0
  0
3DFACE
  8
0
  6
CONTINUOUS
 62
   249
 10
264.728076
 20
79.51
 30
0.0
 11
264.741796
 21
79.51
 31
0.0
 12
264.741796
 22
80.49
 32
0.0
 13
264.728076
 23
80.49
 33
0.0
  0
3DFACE
  8
0
  6
CONTINUOUS
 62
   249
 10
264.741796
 20
79.51
 30
0.0
 11
264.755516
 21
79.51
 31
0.0
 12
264.755516
 22
80.49
 32
0.0
 13
264.741796
 23
80.49
 33
0.0
  0
3DFACE
  8
0
  6
CONTINUOUS
 62
   249
 10
264.755516
 20
79.51
 30
0.0
 11
264.769236
 21
79.51
 31
0.0
 12
264.769236
 22
80.49
 32
0.0
 13
264.755516
 23
80.49
 33
0.0
  0
3DFACE
  8
0
  6
CONTINUOUS
 62
   249
 10
264.769236
 20
79.51
 30
0.0
 11
264.782956
 21
79.51
 31
0.0
 12
264.782956
 22
80.49
 32
0.0
 13
264.769236
 23
80.49
 33
0.0
  0
3DFACE
  8
0
  6
CONTINUOUS
 62
   249
 10
264.782956
 20
79.51
 30
0.0
 11
264.796676
 21
79.51
 31
0.0
 12
264.796676
 22
80.49
 32
0.0
 13
264.782956
 23
80.49
 33
0.0
  0
3DFACE
  8
0
  6
CONTINUOUS
 62
   249
 10
264.796676
 20
79.51
 30
0.0
 11
264.810396
 21
79.51
 31
0.0
 12
264.810396
 22
80.49
 32
0.0
 13
264.796676
 23
80.49
 33
0.0
  0
3DFACE
  8
0
  6
CONTINUOUS
 62
   249
 10
264.810396
 20
79.51
 30
0.0
 11
264.824116
 21
79.51
 31
0.0
 12
264.824116
 22
80.49
 32
0.0
 13
264.810396
 23
80.49
 33
0.0
  0
3DFACE
  8
0
  6
CONTINUOUS
 62
   249
 10
264.824116
 20
79.51
 30
0.0
 11
264.837836
 21
79.51
 31
0.0
 12
264.837836
 22
80.49
 32
0.0
 13
264.824116
 23
80.49
 33
0.0
  0
3DFACE
  8
0
  6
CONTINUOUS
 62
   249
 10
264.837836
 20
79.51
 30
0.0
 11
264.851556
 21
79.51
 31
0.0
 12
264.851556
 22
80.49
 32
0.0
 13
264.837836
 23
80.49
 33
0.0
  0
3DFACE
  8
0
  6
CONTINUOUS
 62
   249
 10
264.851556
 20
79.51
 30
0.0
 11
264.865276
 21
79.51
 31
0.0
 12
264.865276
 22
80.49
 32
0.0
 13
264.851556
 23
80.49
 33
0.0
  0
3DFACE
  8
0
  6
CONTINUOUS
 62
   249
 10
264.865276
 20
79.51
 30
0.0
 11
264.878996
 21
79.51
 31
0.0
 12
264.878996
 22
80.49
 32
0.0
 13
264.865276
 23
80.49
 33
0.0
  0
3DFACE
  8
0
  6
CONTINUOUS
 62
   249
 10
264.878996
 20
79.51
 30
0.0
 11
264.892716
 21
79.51
 31
0.0
 12
264.892716
 22
80.49
 32
0.0
 13
264.878996
 23
80.49
 33
0.0
  0
3DFACE
  8
0
  6
CONTINUOUS
 62
   249
 10
264.892716
 20
79.51
 30
0.0
 11
264.906436
 21
79.51
 31
0.0
 12
264.906436
 22
80.49
 32
0.0
 13
264.892716
 23
80.49
 33
0.0
  0
3DFACE
  8
0
  6
CONTINUOUS
 62
   249
 10
264.906436
 20
79.51
 30
0.0
 11
264.920156
 21
79.51
 31
0.0
 12
264.920156
 22
80.49
 32
0.0
 13
264.906436
 23
80.49
 33
0.0
  0
3DFACE
  8
0
  6
CONTINUOUS
 62
   249
 10
264.920156
 20
79.51
 30
0.0
 11
264.933876
 21
79.51
 31
0.0
 12
264.933876
 22
80.49
 32
0.0
 13
264.920156
 23
80.49
 33
0.0
  0
3DFACE
  8
0
  6
CONTINUOUS
 62
   249
 10
264.933876
 20
79.51
 30
0.0
 11
264.947596
 21
79.51
 31
0.0
 12
264.947596
 22
80.49
 32
0.0
 13
264.933876
 23
80.49
 33
0.0
  0
3DFACE
  8
0
  6
CONTINUOUS
 62
   249
 10
264.947596
 20
79.51
 30
0.0
 11
264.961316
 21
79.51
 31
0.0
 12
264.961316
 22
80.49
 32
0.0
 13
264.947596
 23
80.49
 33
0.0
  0
3DFACE
  8
0
  6
CONTINUOUS
 62
   249
 10
264.961316
 20
79.51
 30
0.0
 11
264.975036
 21
79.51
 31
0.0
 12
264.975036
 22
80.49
 32
0.0
 13
264.961316
 23
80.49
 33
0.0
  0
3DFACE
  8
0
  6
CONTINUOUS
 62
   249
 10
264.975036
 20
79.51
 30
0.0
 11
264.988756
 21
79.51
 31
0.0
 12
264.988756
 22
80.49
 32
0.0
 13
264.975036
 23
80.49
 33
0.0
  0
3DFACE
  8
0
  6
CONTINUOUS
 62
   249
 10
264.988756
 20
79.51
 30
0.0
 11
265.002476
 21
79.51
 31
0.0
 12
265.002476
 22
80.49
 32
0.0
 13
264.988756
 23
80.49
 33
0.0
  0
3DFACE
  8
0
  6
CONTINUOUS
 62
   249
 10
265.002476
 20
79.51
 30
0.0
 11
265.016196
 21
79.51
 31
0.0
 12
265.016196
 22
80.49
 32
0.0
 13
265.002476
 23
80.49
 33
0.0
  0
3DFACE
  8
0
  6
CONTINUOUS
 62
   249
 10
265.016196
 20
79.51
 30
0.0
 11
265.029916
 21
79.51
 31
0.0
 12
265.029916
 22
80.49
 32
0.0
 13
265.016196
 23
80.49
 33
0.0
  0
3DFACE
  8
0
  6
CONTINUOUS
 62
   249
 10
265.029916
 20
79.51
 30
0.0
 11
265.043636
 21
79.51
 31
0.0
 12
265.043636
 22
80.49
 32
0.0
 13
265.029916
 23
80.49
 33
0.0
  0
3DFACE
  8
0
  6
CONTINUOUS
 62
   249
 10
265.043636
 20
79.51
 30
0.0
 11
265.057356
 21
79.51
 31
0.0
 12
265.057356
 22
80.49
 32
0.0
 13
265.043636
 23
80.49
 33
0.0
  0
3DFACE
  8
0
  6
CONTINUOUS
 62
   249
 10
265.057356
 20
79.51
 30
0.0
 11
265.071076
 21
79.51
 31
0.0
 12
265.071076
 22
80.49
 32
0.0
 13
265.057356
 23
80.49
 33
0.0
  0
3DFACE
  8
0
  6
CONTINUOUS
 62
   249
 10
265.071076
 20
79.51
 30
0.0
 11
265.084796
 21
79.51
 31
0.0
 12
265.084796
 22
80.49
 32
0.0
 13
265.071076
 23
80.49
 33
0.0
  0
3DFACE
  8
0
  6
CONTINUOUS
 62
   249
 10
265.084796
 20
79.51
 30
0.0
 11
265.098516
 21
79.51
 31
0.0
 12
265.098516
 22
80.49
 32
0.0
 13
265.084796
 23
80.49
 33
0.0
  0
3DFACE
  8
0
  6
CONTINUOUS
 62
   249
 10
265.098516
 20
79.51
 30
0.0
 11
265.112236
 21
79.51
 31
0.0
 12
265.112236
 22
80.49
 32
0.0
 13
265.098516
 23
80.49
 33
0.0
  0
3DFACE
  8
0
  6
CONTINUOUS
 62
   249
 10
265.112236
 20
79.51
 30
0.0
 11
265.125956
 21
79.51
 31
0.0
 12
265.125956
 22
80.49
 32
0.0
 13
265.112236
 23
80.49
 33
0.0
  0
3DFACE
  8
0
  6
CONTINUOUS
 62
   249
 10
265.125956
 20
79.51
 30
0.0
 11
265.139676
 21
79.51
 31
0.0
 12
265.139676
 22
80.49
 32
0.0
 13
265.125956
 23
80.49
 33
0.0
  0
3DFACE
  8
0
  6
CONTINUOUS
 62
   249
 10
265.139676
 20
79.51
 30
0.0
 11
265.153396
 21
79.51
 31
0.0
 12
265.153396
 22
80.49
 32
0.0
 13
265.139676
 23
80.49
 33
0.0
  0
3DFACE
  8
0
  6
CONTINUOUS
 62
   249
 10
265.153396
 20
79.51
 30
0.0
 11
265.167116
 21
79.51
 31
0.0
 12
265.167116
 22
80.49
 32
0.0
 13
265.153396
 23
80.49
 33
0.0
  0
3DFACE
  8
0
  6
CONTINUOUS
 62
   249
 10
265.167116
 20
79.51
 30
0.0
 11
265.180836
 21
79.51
 31
0.0
 12
265.180836
 22
80.49
 32
0.0
 13
265.167116
 23
80.49
 33
0.0
  0
3DFACE
  8
0
  6
CONTINUOUS
 62
   249
 10
265.180836
 20
79.51
 30
0.0
 11
265.194556
 21
79.51
 31
0.0
 12
265.194556
 22
80.49
 32
0.0
 13
265.180836
 23
80.49
 33
0.0
  0
3DFACE
  8
0
  6
CONTINUOUS
 62
   249
 10
265.194556
 20
79.51
 30
0.0
 11
265.208276
 21
79.51
 31
0.0
 12
265.208276
 22
80.49
 32
0.0
 13
265.194556
 23
80.49
 33
0.0
  0
3DFACE
  8
0
  6
CONTINUOUS
 62
   249
 10
265.208276
 20
79.51
 30
0.0
 11
265.221996
 21
79.51
 31
0.0
 12
265.221996
 22
80.49
 32
0.0
 13
265.208276
 23
80.49
 33
0.0
  0
3DFACE
  8
0
  6
CONTINUOUS
 62
   249
 10
265.221996
 20
79.51
 30
0.0
 11
265.235716
 21
79.51
 31
0.0
 12
265.235716
 22
80.49
 32
0.0
 13
265.221996
 23
80.49
 33
0.0
  0
3DFACE
  8
0
  6
CONTINUOUS
 62
   249
 10
265.235716
 20
79.51
 30
0.0
 11
265.249436
 21
79.51
 31
0.0
 12
265.249436
 22
80.49
 32
0.0
 13
265.235716
 23
80.49
 33
0.0
  0
LINE
  8
0
  6
CONTINUOUS
 62
   249
 10
309.999997
 20
89.294996
 30
0.0
 11
309.999997
 21
86.649339
 31
0.0
  0
LINE
  8
0
  6
CONTINUOUS
 62
   249
 10
309.396302
 20
84.867785
 30
0.0
 11
310.603692
 21
84.867785
 31
0.0
  0
LINE
  8
0
  6
CONTINUOUS
 62
   249
 10
308.963805
 20
85.755299
 30
0.0
 11
311.02718
 21
85.755299
 31
0.0
  0
LINE
  8
0
  6
CONTINUOUS
 62
   249
 10
308.468234
 20
86.649339
 30
0.0
 11
311.53176
 21
86.649339
 31
0.0
  0
ARC
  8
0
  6
CONTINUOUS
 62
   249
 10
277.5
 20
107.5
 30
0.0
 40
0.5
 50
180.0
 51
0.0
  0
ARC
  8
0
  6
CONTINUOUS
 62
   249
 10
277.5
 20
107.5
 30
0.0
 40
0.5
 50
0.0
 51
180.0
  0
ARC
  8
0
  6
CONTINUOUS
 62
   249
 10
310.0
 20
100.189984
 30
0.0
 40
0.5
 50
180.0
 51
0.0
  0
ARC
  8
0
  6
CONTINUOUS
 62
   249
 10
310.0
 20
100.189984
 30
0.0
 40
0.5
 50
0.0
 51
180.0
  0
ARC
  8
0
  6
CONTINUOUS
 62
   249
 10
310.0
 20
117.689984
 30
0.0
 40
0.5
 50
180.0
 51
0.0
  0
ARC
  8
0
  6
CONTINUOUS
 62
   249
 10
310.0
 20
117.689984
 30
0.0
 40
0.5
 50
0.0
 51
180.0
  0
INSERT
  8
0
  6
CENTER
 62
   249
  2
BLC26
 10
326.410526
 20
97.580446
 30
0.0
 41
1.006225
 42
1.006225
 50
180.0
 43
1.006225
  0
INSERT
  8
0
  6
CENTER
 62
   249
  2
BLC26
 10
321.410528
 20
115.080445
 30
0.0
 41
1.006225
 42
1.006225
 50
180.0
 43
1.006225
  0
LINE
  8
0
 62
   249
 10
245.0
 20
212.5
 30
0.0
 11
243.480133
 21
212.5
 31
0.0
  0
ARC
  8
0
 62
   249
 10
245.065849
 20
213.75
 30
0.0
 40
1.251733
 50
266.984476
 51
93.015524
  0
LINE
  8
0
 62
   249
 10
245.0
 20
215.0
 30
0.0
 11
243.480133
 21
215.0
 31
0.0
  0
LINE
  8
0
 62
   249
 10
245.0
 20
217.5
 30
0.0
 11
243.480133
 21
217.5
 31
0.0
  0
ARC
  8
0
 62
   249
 10
245.065849
 20
216.25
 30
0.0
 40
1.251733
 50
266.984476
 51
93.015524
  0
LINE
  8
0
 62
   249
 10
250.0
 20
210.0
 30
0.0
 11
252.5
 21
210.0
 31
0.0
  0
ARC
  8
0
 62
   249
 10
249.934151
 20
211.25
 30
0.0
 40
1.251733
 50
86.984476
 51
273.015524
  0
ARC
  8
0
 62
   249
 10
249.934151
 20
213.75
 30
0.0
 40
1.251733
 50
86.984476
 51
273.015524
  0
LINE
  8
0
 62
   249
 10
250.0
 20
212.5
 30
0.0
 11
252.5
 21
212.5
 31
0.0
  0
LINE
  8
0
 62
   249
 10
250.0
 20
215.0
 30
0.0
 11
252.5
 21
215.0
 31
0.0
  0
LINE
  8
0
 62
   249
 10
252.5
 20
215.0
 30
0.0
 11
255.0
 21
215.0
 31
0.0
  0
LINE
  8
0
 62
   249
 10
252.5
 20
210.0
 30
0.0
 11
255.0
 21
210.0
 31
0.0
  0
LINE
  8
0
 62
   249
 10
252.5
 20
215.0
 30
0.0
 11
255.0
 21
215.0
 31
0.0
  0
LINE
  8
0
 62
   249
 10
252.5
 20
220.0
 30
0.0
 11
255.0
 21
220.0
 31
0.0
  0
LINE
  8
0
 62
   249
 10
250.0
 20
220.0
 30
0.0
 11
252.5
 21
220.0
 31
0.0
  0
LINE
  8
0
 62
   249
 10
250.0
 20
217.5
 30
0.0
 11
252.5
 21
217.5
 31
0.0
  0
ARC
  8
0
 62
   249
 10
249.934151
 20
218.75
 30
0.0
 40
1.251733
 50
86.984476
 51
273.015524
  0
ARC
  8
0
 62
   249
 10
249.934151
 20
216.25
 30
0.0
 40
1.251733
 50
86.984476
 51
273.015524
  0
LINE
  8
0
 62
   249
 10
250.0
 20
215.0
 30
0.0
 11
252.5
 21
215.0
 31
0.0
  0
LINE
  8
0
  6
CONTINUOUS
 62
   249
 10
211.586534
 20
171.164635
 30
0.0
 11
209.240769
 21
172.499989
 31
0.0
  0
LINE
  8
0
  6
CONTINUOUS
 62
   249
 10
209.240769
 20
172.499989
 30
0.0
 11
211.586534
 21
173.689908
 31
0.0
  0
LINE
  8
0
  6
CONTINUOUS
 62
   249
 10
204.863261
 20
174.487932
 30
0.0
 11
204.863261
 21
173.133661
 31
0.0
  0
LINE
  8
0
  6
CONTINUOUS
 62
   249
 10
203.653033
 20
173.133661
 30
0.0
 11
204.847374
 21
173.133661
 31
0.0
  0
LINE
  8
0
  6
CONTINUOUS
 62
   249
 10
204.847374
 20
173.133661
 30
0.0
 11
206.041715
 21
173.133661
 31
0.0
  0
LINE
  8
0
  6
CONTINUOUS
 62
   249
 10
204.031438
 20
172.511599
 30
0.0
 11
205.616009
 21
172.511599
 31
0.0
  0
LINE
  8
0
  6
CONTINUOUS
 62
   249
 10
204.362542
 20
171.899966
 30
0.0
 11
205.249429
 21
171.899966
 31
0.0
  0
ARC
  8
0
  6
HIDDEN
 62
   249
 10
227.5
 20
155.0
 30
0.0
 40
0.5
 50
180.0
 51
0.0
  0
ARC
  8
0
  6
HIDDEN
 62
   249
 10
227.5
 20
155.0
 30
0.0
 40
0.5
 50
0.0
 51
180.0
  0
LINE
  8
0
  6
CONTINUOUS
 62
   249
 10
211.586534
 20
148.664635
 30
0.0
 11
209.240769
 21
149.999989
 31
0.0
  0
LINE
  8
0
  6
CONTINUOUS
 62
   249
 10
209.240769
 20
149.999989
 30
0.0
 11
211.586534
 21
151.189908
 31
0.0
  0
LINE
  8
0
  6
CONTINUOUS
 62
   249
 10
204.863261
 20
149.292934
 30
0.0
 11
204.863261
 21
147.938664
 31
0.0
  0
LINE
  8
0
  6
CONTINUOUS
 62
   249
 10
203.653033
 20
147.938664
 30
0.0
 11
204.847374
 21
147.938664
 31
0.0
  0
LINE
  8
0
  6
CONTINUOUS
 62
   249
 10
204.847374
 20
147.938664
 30
0.0
 11
206.041715
 21
147.938664
 31
0.0
  0
LINE
  8
0
  6
CONTINUOUS
 62
   249
 10
204.031438
 20
147.316601
 30
0.0
 11
205.616009
 21
147.316601
 31
0.0
  0
LINE
  8
0
  6
CONTINUOUS
 62
   249
 10
204.362542
 20
146.704968
 30
0.0
 11
205.249429
 21
146.704968
 31
0.0
  0
LINE
  8
0
 62
   249
 10
245.0
 20
145.0
 30
0.0
 11
243.480133
 21
145.0
 31
0.0
  0
ARC
  8
0
 62
   249
 10
245.065849
 20
146.25
 30
0.0
 40
1.251733
 50
266.984476
 51
93.015524
  0
LINE
  8
0
 62
   249
 10
245.0
 20
147.5
 30
0.0
 11
243.480133
 21
147.5
 31
0.0
  0
LINE
  8
0
 62
   249
 10
245.0
 20
150.0
 30
0.0
 11
243.480133
 21
150.0
 31
0.0
  0
ARC
  8
0
 62
   249
 10
245.065849
 20
148.75
 30
0.0
 40
1.251733
 50
266.984476
 51
93.015524
  0
LINE
  8
0
 62
   249
 10
250.0
 20
142.5
 30
0.0
 11
252.5
 21
142.5
 31
0.0
  0
ARC
  8
0
 62
   249
 10
249.934151
 20
143.75
 30
0.0
 40
1.251733
 50
86.984476
 51
273.015524
  0
ARC
  8
0
 62
   249
 10
249.934151
 20
146.25
 30
0.0
 40
1.251733
 50
86.984476
 51
273.015524
  0
LINE
  8
0
 62
   249
 10
250.0
 20
145.0
 30
0.0
 11
252.5
 21
145.0
 31
0.0
  0
LINE
  8
0
 62
   249
 10
250.0
 20
147.5
 30
0.0
 11
252.5
 21
147.5
 31
0.0
  0
LINE
  8
0
 62
   249
 10
252.5
 20
147.5
 30
0.0
 11
255.0
 21
147.5
 31
0.0
  0
LINE
  8
0
 62
   249
 10
252.5
 20
142.5
 30
0.0
 11
255.0
 21
142.5
 31
0.0
  0
LINE
  8
0
 62
   249
 10
252.5
 20
147.5
 30
0.0
 11
255.0
 21
147.5
 31
0.0
  0
LINE
  8
0
 62
   249
 10
252.5
 20
152.5
 30
0.0
 11
255.0
 21
152.5
 31
0.0
  0
LINE
  8
0
 62
   249
 10
250.0
 20
152.5
 30
0.0
 11
252.5
 21
152.5
 31
0.0
  0
LINE
  8
0
 62
   249
 10
250.0
 20
150.0
 30
0.0
 11
252.5
 21
150.0
 31
0.0
  0
ARC
  8
0
 62
   249
 10
249.934151
 20
151.25
 30
0.0
 40
1.251733
 50
86.984476
 51
273.015524
  0
ARC
  8
0
 62
   249
 10
249.934151
 20
148.75
 30
0.0
 40
1.251733
 50
86.984476
 51
273.015524
  0
LINE
  8
0
 62
   249
 10
250.0
 20
147.5
 30
0.0
 11
252.5
 21
147.5
 31
0.0
  0
LINE
  8
0
  6
CONTINUOUS
 62
   249
 10
239.933855
 20
146.164635
 30
0.0
 11
237.588089
 21
147.499989
 31
0.0
  0
LINE
  8
0
  6
CONTINUOUS
 62
   249
 10
237.588089
 20
147.499989
 30
0.0
 11
239.933855
 21
148.689908
 31
0.0
  0
LINE
  8
0
  6
CONTINUOUS
 62
   249
 10
239.933855
 20
161.164635
 30
0.0
 11
237.588089
 21
162.499989
 31
0.0
  0
LINE
  8
0
  6
CONTINUOUS
 62
   249
 10
237.588089
 20
162.499989
 30
0.0
 11
239.933855
 21
163.689908
 31
0.0
  0
LINE
  8
0
 62
   249
 10
245.0
 20
160.0
 30
0.0
 11
243.480133
 21
160.0
 31
0.0
  0
ARC
  8
0
 62
   249
 10
245.065849
 20
161.25
 30
0.0
 40
1.251733
 50
266.984476
 51
93.015524
  0
LINE
  8
0
 62
   249
 10
245.0
 20
162.5
 30
0.0
 11
243.480133
 21
162.5
 31
0.0
  0
LINE
  8
0
 62
   249
 10
245.0
 20
165.0
 30
0.0
 11
243.480133
 21
165.0
 31
0.0
  0
ARC
  8
0
 62
   249
 10
245.065849
 20
163.75
 30
0.0
 40
1.251733
 50
266.984476
 51
93.015524
  0
LINE
  8
0
 62
   249
 10
250.0
 20
157.5
 30
0.0
 11
252.5
 21
157.5
 31
0.0
  0
ARC
  8
0
 62
   249
 10
249.934151
 20
158.75
 30
0.0
 40
1.251733
 50
86.984476
 51
273.015524
  0
ARC
  8
0
 62
   249
 10
249.934151
 20
161.25
 30
0.0
 40
1.251733
 50
86.984476
 51
273.015524
  0
LINE
  8
0
 62
   249
 10
250.0
 20
160.0
 30
0.0
 11
252.5
 21
160.0
 31
0.0
  0
LINE
  8
0
 62
   249
 10
250.0
 20
162.5
 30
0.0
 11
252.5
 21
162.5
 31
0.0
  0
LINE
  8
0
 62
   249
 10
252.5
 20
162.5
 30
0.0
 11
255.0
 21
162.5
 31
0.0
  0
LINE
  8
0
 62
   249
 10
252.5
 20
157.5
 30
0.0
 11
255.0
 21
157.5
 31
0.0
  0
LINE
  8
0
 62
   249
 10
252.5
 20
162.5
 30
0.0
 11
255.0
 21
162.5
 31
0.0
  0
LINE
  8
0
 62
   249
 10
252.5
 20
167.5
 30
0.0
 11
255.0
 21
167.5
 31
0.0
  0
LINE
  8
0
 62
   249
 10
250.0
 20
167.5
 30
0.0
 11
252.5
 21
167.5
 31
0.0
  0
LINE
  8
0
 62
   249
 10
250.0
 20
165.0
 30
0.0
 11
252.5
 21
165.0
 31
0.0
  0
ARC
  8
0
 62
   249
 10
249.934151
 20
166.25
 30
0.0
 40
1.251733
 50
86.984476
 51
273.015524
  0
ARC
  8
0
 62
   249
 10
249.934151
 20
163.75
 30
0.0
 40
1.251733
 50
86.984476
 51
273.015524
  0
LINE
  8
0
 62
   249
 10
250.0
 20
162.5
 30
0.0
 11
252.5
 21
162.5
 31
0.0
  0
LINE
  8
0
  6
CONTINUOUS
 62
   249
 10
211.586534
 20
173.664635
 30
0.0
 11
209.240769
 21
174.999989
 31
0.0
  0
LINE
  8
0
  6
CONTINUOUS
 62
   249
 10
209.240769
 20
174.999989
 30
0.0
 11
211.586534
 21
176.189908
 31
0.0
  0
ARC
  8
0
  6
CONTINUOUS
 62
   249
 10
215.0
 20
175.0
 30
0.0
 40
0.5
 50
180.0
 51
0.0
  0
ARC
  8
0
  6
CONTINUOUS
 62
   249
 10
215.0
 20
175.0
 30
0.0
 40
0.5
 50
0.0
 51
180.0
  0
LINE
  8
0
 62
   249
 10
245.0
 20
195.0
 30
0.0
 11
243.480133
 21
195.0
 31
0.0
  0
ARC
  8
0
 62
   249
 10
245.065849
 20
196.25
 30
0.0
 40
1.251733
 50
266.984476
 51
93.015524
  0
LINE
  8
0
 62
   249
 10
245.0
 20
197.5
 30
0.0
 11
243.480133
 21
197.5
 31
0.0
  0
LINE
  8
0
 62
   249
 10
245.0
 20
200.0
 30
0.0
 11
243.480133
 21
200.0
 31
0.0
  0
ARC
  8
0
 62
   249
 10
245.065849
 20
198.75
 30
0.0
 40
1.251733
 50
266.984476
 51
93.015524
  0
LINE
  8
0
 62
   249
 10
250.0
 20
192.5
 30
0.0
 11
252.5
 21
192.5
 31
0.0
  0
ARC
  8
0
 62
   249
 10
249.934151
 20
193.75
 30
0.0
 40
1.251733
 50
86.984476
 51
273.015524
  0
ARC
  8
0
 62
   249
 10
249.934151
 20
196.25
 30
0.0
 40
1.251733
 50
86.984476
 51
273.015524
  0
LINE
  8
0
 62
   249
 10
250.0
 20
195.0
 30
0.0
 11
252.5
 21
195.0
 31
0.0
  0
LINE
  8
0
 62
   249
 10
250.0
 20
197.5
 30
0.0
 11
252.5
 21
197.5
 31
0.0
  0
LINE
  8
0
 62
   249
 10
252.5
 20
197.5
 30
0.0
 11
255.0
 21
197.5
 31
0.0
  0
LINE
  8
0
 62
   249
 10
252.5
 20
192.5
 30
0.0
 11
255.0
 21
192.5
 31
0.0
  0
LINE
  8
0
 62
   249
 10
252.5
 20
197.5
 30
0.0
 11
255.0
 21
197.5
 31
0.0
  0
LINE
  8
0
 62
   249
 10
252.5
 20
202.5
 30
0.0
 11
255.0
 21
202.5
 31
0.0
  0
LINE
  8
0
 62
   249
 10
250.0
 20
202.5
 30
0.0
 11
252.5
 21
202.5
 31
0.0
  0
LINE
  8
0
 62
   249
 10
250.0
 20
200.0
 30
0.0
 11
252.5
 21
200.0
 31
0.0
  0
ARC
  8
0
 62
   249
 10
249.934151
 20
201.25
 30
0.0
 40
1.251733
 50
86.984476
 51
273.015524
  0
ARC
  8
0
 62
   249
 10
249.934151
 20
198.75
 30
0.0
 40
1.251733
 50
86.984476
 51
273.015524
  0
LINE
  8
0
 62
   249
 10
250.0
 20
197.5
 30
0.0
 11
252.5
 21
197.5
 31
0.0
  0
ARC
  8
0
  6
CONTINUOUS
 62
   249
 10
235.0
 20
185.0
 30
0.0
 40
0.5
 50
180.0
 51
0.0
  0
ARC
  8
0
  6
CONTINUOUS
 62
   249
 10
235.0
 20
185.0
 30
0.0
 40
0.5
 50
0.0
 51
180.0
  0
LINE
  8
0
 62
   249
 10
245.0
 20
175.0
 30
0.0
 11
243.480133
 21
175.0
 31
0.0
  0
ARC
  8
0
 62
   249
 10
245.065849
 20
176.25
 30
0.0
 40
1.251733
 50
266.984476
 51
93.015524
  0
LINE
  8
0
 62
   249
 10
245.0
 20
177.5
 30
0.0
 11
243.480133
 21
177.5
 31
0.0
  0
LINE
  8
0
 62
   249
 10
245.0
 20
180.0
 30
0.0
 11
243.480133
 21
180.0
 31
0.0
  0
ARC
  8
0
 62
   249
 10
245.065849
 20
178.75
 30
0.0
 40
1.251733
 50
266.984476
 51
93.015524
  0
LINE
  8
0
 62
   249
 10
250.0
 20
172.5
 30
0.0
 11
252.5
 21
172.5
 31
0.0
  0
ARC
  8
0
 62
   249
 10
249.934151
 20
173.75
 30
0.0
 40
1.251733
 50
86.984476
 51
273.015524
  0
ARC
  8
0
 62
   249
 10
249.934151
 20
176.25
 30
0.0
 40
1.251733
 50
86.984476
 51
273.015524
  0
LINE
  8
0
 62
   249
 10
250.0
 20
175.0
 30
0.0
 11
252.5
 21
175.0
 31
0.0
  0
LINE
  8
0
 62
   249
 10
250.0
 20
177.5
 30
0.0
 11
252.5
 21
177.5
 31
0.0
  0
LINE
  8
0
 62
   249
 10
252.5
 20
177.5
 30
0.0
 11
255.0
 21
177.5
 31
0.0
  0
LINE
  8
0
 62
   249
 10
252.5
 20
172.5
 30
0.0
 11
255.0
 21
172.5
 31
0.0
  0
LINE
  8
0
 62
   249
 10
252.5
 20
177.5
 30
0.0
 11
255.0
 21
177.5
 31
0.0
  0
LINE
  8
0
 62
   249
 10
252.5
 20
182.5
 30
0.0
 11
255.0
 21
182.5
 31
0.0
  0
LINE
  8
0
 62
   249
 10
250.0
 20
182.5
 30
0.0
 11
252.5
 21
182.5
 31
0.0
  0
LINE
  8
0
 62
   249
 10
250.0
 20
180.0
 30
0.0
 11
252.5
 21
180.0
 31
0.0
  0
ARC
  8
0
 62
   249
 10
249.934151
 20
181.25
 30
0.0
 40
1.251733
 50
86.984476
 51
273.015524
  0
ARC
  8
0
 62
   249
 10
249.934151
 20
178.75
 30
0.0
 40
1.251733
 50
86.984476
 51
273.015524
  0
LINE
  8
0
 62
   249
 10
250.0
 20
177.5
 30
0.0
 11
252.5
 21
177.5
 31
0.0
  0
LINE
  8
0
  6
CONTINUOUS
 62
   249
 10
238.583758
 20
196.164635
 30
0.0
 11
236.237993
 21
197.499989
 31
0.0
  0
LINE
  8
0
  6
CONTINUOUS
 62
   249
 10
236.237993
 20
197.499989
 30
0.0
 11
238.583758
 21
198.689908
 31
0.0
  0
ARC
  8
0
  6
CONTINUOUS
 62
   249
 10
310.0
 20
172.5
 30
0.0
 40
0.5
 50
180.0
 51
0.0
  0
ARC
  8
0
  6
CONTINUOUS
 62
   249
 10
310.0
 20
172.5
 30
0.0
 40
0.5
 50
0.0
 51
180.0
  0
ARC
  8
0
  6
CONTINUOUS
 62
   249
 10
280.0
 20
172.5
 30
0.0
 40
0.5
 50
180.0
 51
0.0
  0
ARC
  8
0
  6
CONTINUOUS
 62
   249
 10
280.0
 20
172.5
 30
0.0
 40
0.5
 50
0.0
 51
180.0
  0
LINE
  8
0
  6
CONTINUOUS
 62
   249
 10
295.575363
 20
147.500003
 30
0.0
 11
292.929705
 21
147.500003
 31
0.0
  0
LINE
  8
0
  6
CONTINUOUS
 62
   249
 10
291.148152
 20
148.103698
 30
0.0
 11
291.148152
 21
146.896308
 31
0.0
  0
LINE
  8
0
  6
CONTINUOUS
 62
   249
 10
292.035666
 20
148.536195
 30
0.0
 11
292.035666
 21
146.47282
 31
0.0
  0
LINE
  8
0
  6
CONTINUOUS
 62
   249
 10
292.929705
 20
149.031766
 30
0.0
 11
292.929705
 21
145.96824
 31
0.0
  0
ARC
  8
0
  6
CONTINUOUS
 62
   249
 10
300.0
 20
142.5
 30
0.0
 40
0.5
 50
180.0
 51
0.0
  0
ARC
  8
0
  6
CONTINUOUS
 62
   249
 10
300.0
 20
142.5
 30
0.0
 40
0.5
 50
0.0
 51
180.0
  0
ARC
  8
0
  6
CONTINUOUS
 62
   249
 10
315.0
 20
147.5
 30
0.0
 40
0.5
 50
180.0
 51
0.0
  0
ARC
  8
0
  6
CONTINUOUS
 62
   249
 10
315.0
 20
147.5
 30
0.0
 40
0.5
 50
0.0
 51
180.0
  0
INSERT
  8
0
  6
CENTER
 62
   249
  2
BLC26
 10
297.580446
 20
153.589474
 30
0.0
 41
1.006225
 42
1.006225
 50
90.0
 43
1.006225
  0
LINE
  8
0
  6
CONTINUOUS
 62
   249
 10
295.575363
 20
155.000003
 30
0.0
 11
292.929705
 21
155.000003
 31
0.0
  0
LINE
  8
0
  6
CONTINUOUS
 62
   249
 10
291.148152
 20
155.603698
 30
0.0
 11
291.148152
 21
154.396308
 31
0.0
  0
LINE
  8
0
  6
CONTINUOUS
 62
   249
 10
292.035666
 20
156.036195
 30
0.0
 11
292.035666
 21
153.97282
 31
0.0
  0
LINE
  8
0
  6
CONTINUOUS
 62
   249
 10
292.929705
 20
156.531766
 30
0.0
 11
292.929705
 21
153.46824
 31
0.0
  0
ARC
  8
0
  6
CONTINUOUS
 62
   249
 10
300.0
 20
160.0
 30
0.0
 40
0.5
 50
180.0
 51
0.0
  0
ARC
  8
0
  6
CONTINUOUS
 62
   249
 10
300.0
 20
160.0
 30
0.0
 40
0.5
 50
0.0
 51
180.0
  0
ARC
  8
0
  6
CONTINUOUS
 62
   249
 10
315.0
 20
155.0
 30
0.0
 40
0.5
 50
180.0
 51
0.0
  0
ARC
  8
0
  6
CONTINUOUS
 62
   249
 10
315.0
 20
155.0
 30
0.0
 40
0.5
 50
0.0
 51
180.0
  0
LINE
  8
0
  6
CONTINUOUS
 62
   249
 10
309.999997
 20
170.01011
 30
0.0
 11
309.999997
 21
167.364453
 31
0.0
  0
LINE
  8
0
  6
CONTINUOUS
 62
   249
 10
309.396302
 20
165.5829
 30
0.0
 11
310.603692
 21
165.5829
 31
0.0
  0
LINE
  8
0
  6
CONTINUOUS
 62
   249
 10
308.963805
 20
166.470413
 30
0.0
 11
311.02718
 21
166.470413
 31
0.0
  0
LINE
  8
0
  6
CONTINUOUS
 62
   249
 10
308.468234
 20
167.364453
 30
0.0
 11
311.53176
 21
167.364453
 31
0.0
  0
ARC
  8
0
  6
CONTINUOUS
 62
   249
 10
280.0
 20
192.5
 30
0.0
 40
0.5
 50
180.0
 51
0.0
  0
ARC
  8
0
  6
CONTINUOUS
 62
   249
 10
280.0
 20
192.5
 30
0.0
 40
0.5
 50
0.0
 51
180.0
  0
ARC
  8
0
  6
CONTINUOUS
 62
   249
 10
310.0
 20
177.689984
 30
0.0
 40
0.5
 50
180.0
 51
0.0
  0
ARC
  8
0
  6
CONTINUOUS
 62
   249
 10
310.0
 20
177.689984
 30
0.0
 40
0.5
 50
0.0
 51
180.0
  0
ARC
  8
0
  6
CONTINUOUS
 62
   249
 10
310.0
 20
197.689984
 30
0.0
 40
0.5
 50
180.0
 51
0.0
  0
ARC
  8
0
  6
CONTINUOUS
 62
   249
 10
310.0
 20
197.689984
 30
0.0
 40
0.5
 50
0.0
 51
180.0
  0
INSERT
  8
0
  6
CENTER
 62
   249
  2
BLC26
 10
316.410524
 20
217.580448
 30
0.0
 41
1.006225
 42
1.006225
 50
180.0
 43
1.006225
  0
ARC
  8
0
  6
CONTINUOUS
 62
   249
 10
320.0
 20
147.5
 30
0.0
 40
0.5
 50
180.0
 51
0.0
  0
ARC
  8
0
  6
CONTINUOUS
 62
   249
 10
320.0
 20
147.5
 30
0.0
 40
0.5
 50
0.0
 51
180.0
  0
ARC
  8
0
  6
CONTINUOUS
 62
   249
 10
320.0
 20
155.0
 30
0.0
 40
0.5
 50
180.0
 51
0.0
  0
ARC
  8
0
  6
CONTINUOUS
 62
   249
 10
320.0
 20
155.0
 30
0.0
 40
0.5
 50
0.0
 51
180.0
  0
INSERT
  8
0
  6
CENTER
 62
   249
  2
BLC26
 10
326.410526
 20
180.080446
 30
0.0
 41
1.006225
 42
1.006225
 50
180.0
 43
1.006225
  0
INSERT
  8
0
  6
CENTER
 62
   249
  2
BLC26
 10
321.410528
 20
200.080445
 30
0.0
 41
1.006225
 42
1.006225
 50
180.0
 43
1.006225
  0
LINE
  8
0
  6
CONTINUOUS
 62
   249
 10
371.865187
 20
224.868209
 30
0.0
 11
371.865187
 21
223.513939
 31
0.0
  0
LINE
  8
0
  6
CONTINUOUS
 62
   249
 10
370.654959
 20
223.513939
 30
0.0
 11
371.8493
 21
223.513939
 31
0.0
  0
LINE
  8
0
  6
CONTINUOUS
 62
   249
 10
371.8493
 20
223.513939
 30
0.0
 11
373.043641
 21
223.513939
 31
0.0
  0
LINE
  8
0
  6
CONTINUOUS
 62
   249
 10
371.033365
 20
222.891877
 30
0.0
 11
372.617936
 21
222.891877
 31
0.0
  0
LINE
  8
0
  6
CONTINUOUS
 62
   249
 10
371.364469
 20
222.280244
 30
0.0
 11
372.251356
 21
222.280244
 31
0.0
  0
LINE
  8
0
  6
CONTINUOUS
 62
   249
 10
372.701527
 20
219.220716
 30
0.0
 11
374.307728
 21
218.306368
 31
0.0
  0
LINE
  8
0
  6
CONTINUOUS
 62
   249
 10
374.307728
 20
218.306368
 30
0.0
 11
372.701527
 21
217.491602
 31
0.0
  0
LINE
  8
0
  6
CONTINUOUS
 62
   249
 10
372.51004
 20
230.800992
 30
0.0
 11
374.116241
 21
229.886643
 31
0.0
  0
LINE
  8
0
  6
CONTINUOUS
 62
   249
 10
374.116241
 20
229.886643
 30
0.0
 11
372.51004
 21
229.071878
 31
0.0
  0
LINE
  8
0
  6
CONTINUOUS
 62
   249
 10
374.247099
 20
244.82372
 30
0.0
 11
375.8533
 21
243.909371
 31
0.0
  0
LINE
  8
0
  6
CONTINUOUS
 62
   249
 10
375.8533
 20
243.909371
 30
0.0
 11
374.247099
 21
243.094606
 31
0.0
  0
LINE
  8
0
  6
CONTINUOUS
 62
   249
 10
374.247099
 20
239.290552
 30
0.0
 11
375.8533
 21
238.376204
 31
0.0
  0
LINE
  8
0
  6
CONTINUOUS
 62
   249
 10
375.8533
 20
238.376204
 30
0.0
 11
374.247099
 21
237.561438
 31
0.0
  0
ENDSEC
  0
EOF
