  0
SECTION
  2
HEADER
  9
$ACADVER
  1
AC1009
  9
$INSBASE
 10
0.0
 20
0.0
 30
0.0
  9
$EXTMIN
 10
104.088709
 20
128.1066
 30
0.0
  9
$EXTMAX
 10
2403.554
 20
1655.333
 30
0.0
  9
$LIMMIN
 10
0.0
 20
0.0
  9
$LIMMAX
 10
12.0
 20
9.0
  9
$ORTHOMODE
 70
     0
  9
$REGENMODE
 70
     1
  9
$FILLMODE
 70
     1
  9
$QTEXTMODE
 70
     0
  9
$MIRRTEXT
 70
     1
  9
$DRAGMODE
 70
     2
  9
$LTSCALE
 40
20.0
  9
$OSMODE
 70
  1023
  9
$ATTMODE
 70
     1
  9
$TEXTSIZE
 40
0.2
  9
$TRACEWID
 40
0.05
  9
$TEXTSTYLE
  7
STANDARD
  9
$CLAYER
  8
0
  9
$CELTYPE
  6
CONTINUOUS
  9
$CECOLOR
 62
   256
  9
$DIMSCALE
 40
1.0
  9
$DIMASZ
 40
10.0
  9
$DIMEXO
 40
0.0625
  9
$DIMDLI
 40
0.38
  9
$DIMRND
 40
0.0
  9
$DIMDLE
 40
0.0
  9
$DIMEXE
 40
0.18
  9
$DIMTP
 40
0.0
  9
$DIMTM
 40
0.0
  9
$DIMTXT
 40
10.0
  9
$DIMCEN
 40
0.09
  9
$DIMTSZ
 40
0.0
  9
$DIMTOL
 70
     0
  9
$DIMLIM
 70
     0
  9
$DIMTIH
 70
     1
  9
$DIMTOH
 70
     1
  9
$DIMSE1
 70
     0
  9
$DIMSE2
 70
     0
  9
$DIMTAD
 70
     0
  9
$DIMZIN
 70
     0
  9
$DIMBLK
  1

  9
$DIMASO
 70
     1
  9
$DIMSHO
 70
     1
  9
$DIMPOST
  1

  9
$DIMAPOST
  1

  9
$DIMALT
 70
     0
  9
$DIMALTD
 70
     2
  9
$DIMALTF
 40
25.4
  9
$DIMLFAC
 40
1.0
  9
$DIMTOFL
 70
     0
  9
$DIMTVP
 40
0.0
  9
$DIMTIX
 70
     0
  9
$DIMSOXD
 70
     0
  9
$DIMSAH
 70
     0
  9
$DIMBLK1
  1

  9
$DIMBLK2
  1

  9
$DIMSTYLE
  2
STANDARD
  9
$DIMCLRD
 70
     1
  9
$DIMCLRE
 70
     1
  9
$DIMCLRT
 70
     1
  9
$DIMTFAC
 40
1.0
  9
$DIMGAP
 40
10.0
  9
$LUNITS
 70
     2
  9
$LUPREC
 70
     4
  9
$SKETCHINC
 40
0.1
  9
$FILLETRAD
 40
0.0
  9
$AUNITS
 70
     0
  9
$AUPREC
 70
     0
  9
$MENU
  1
acad
  9
$ELEVATION
 40
0.0
  9
$PELEVATION
 40
0.0
  9
$THICKNESS
 40
0.0
  9
$LIMCHECK
 70
     0
  9
$BLIPMODE
 70
     0
  9
$CHAMFERA
 40
0.0
  9
$CHAMFERB
 40
0.0
  9
$SKPOLY
 70
     0
  9
$TDCREATE
 40
2452054.595668
  9
$TDUPDATE
 40
2452058.387111
  9
$TDINDWG
 40
0.013678
  9
$TDUSRTIMER
 40
0.013678
  9
$USRTIMER
 70
     1
  9
$ANGBASE
 50
0.0
  9
$ANGDIR
 70
     0
  9
$PDMODE
 70
     0
  9
$PDSIZE
 40
0.0
  9
$PLINEWID
 40
0.0
  9
$COORDS
 70
     1
  9
$SPLFRAME
 70
     0
  9
$SPLINETYPE
 70
     6
  9
$SPLINESEGS
 70
     8
  9
$ATTDIA
 70
     0
  9
$ATTREQ
 70
     1
  9
$HANDLING
 70
     1
  9
$HANDSEED
  5
625
  9
$SURFTAB1
 70
     6
  9
$SURFTAB2
 70
     6
  9
$SURFTYPE
 70
     6
  9
$SURFU
 70
     6
  9
$SURFV
 70
     6
  9
$UCSNAME
  2

  9
$UCSORG
 10
0.0
 20
0.0
 30
0.0
  9
$UCSXDIR
 10
1.0
 20
0.0
 30
0.0
  9
$UCSYDIR
 10
0.0
 20
1.0
 30
0.0
  9
$PUCSNAME
  2

  9
$PUCSORG
 10
0.0
 20
0.0
 30
0.0
  9
$PUCSXDIR
 10
1.0
 20
0.0
 30
0.0
  9
$PUCSYDIR
 10
0.0
 20
1.0
 30
0.0
  9
$USERI1
 70
     0
  9
$USERI2
 70
     0
  9
$USERI3
 70
     0
  9
$USERI4
 70
     0
  9
$USERI5
 70
     0
  9
$USERR1
 40
0.0
  9
$USERR2
 40
0.0
  9
$USERR3
 40
0.0
  9
$USERR4
 40
0.0
  9
$USERR5
 40
0.0
  9
$WORLDVIEW
 70
     1
  9
$SHADEDGE
 70
     3
  9
$SHADEDIF
 70
    70
  9
$TILEMODE
 70
     1
  9
$MAXACTVP
 70
    48
  9
$PLIMCHECK
 70
     0
  9
$PEXTMIN
 10
1.000000E+020
 20
1.000000E+020
 30
1.000000E+020
  9
$PEXTMAX
 10
-1.000000E+020
 20
-1.000000E+020
 30
-1.000000E+020
  9
$PLIMMIN
 10
0.0
 20
0.0
  9
$PLIMMAX
 10
12.0
 20
9.0
  9
$UNITMODE
 70
     0
  9
$VISRETAIN
 70
     1
  9
$PLINEGEN
 70
     0
  9
$PSLTSCALE
 70
     1
  0
ENDSEC
  0
SECTION
  2
TABLES
  0
TABLE
  2
VPORT
 70
     2
  0
VPORT
  2
*ACTIVE
 70
     0
 10
0.0
 20
0.0
 11
1.0
 21
1.0
 12
1253.802541
 22
927.469297
 13
0.0
 23
0.0
 14
1.0
 24
1.0
 15
0.0
 25
0.0
 16
0.0
 26
0.0
 36
1.0
 17
0.0
 27
0.0
 37
0.0
 40
1609.220664
 41
1.679787
 42
50.0
 43
0.0
 44
0.0
 50
0.0
 51
0.0
 71
     0
 72
   100
 73
     1
 74
     1
 75
     0
 76
     0
 77
     0
 78
     0
  0
ENDTAB
  0
TABLE
  2
LTYPE
 70
     3
  0
LTYPE
  2
CONTINUOUS
 70
     0
  3
Solid line
 72
    65
 73
     0
 40
0.0
  0
LTYPE
  2
CENTER
 70
     0
  3
____ _ ____ _ ____ _ ____ _ ____ _ ____
 72
    65
 73
     4
 40
2.0
 49
1.25
 49
-0.25
 49
0.25
 49
-0.25
  0
LTYPE
  2
DASHED
 70
     0
  3
_ _ _ _ _ _ _ _ _ _ _ _ _ _ _ _ _ _ _ _ _
 72
    65
 73
     2
 40
0.75
 49
0.5
 49
-0.25
  0
ENDTAB
  0
TABLE
  2
LAYER
 70
     5
  0
LAYER
  2
0
 70
     0
 62
     7
  6
CONTINUOUS
  0
LAYER
  2
5
 70
     0
 62
     7
  6
CONTINUOUS
  0
LAYER
  2
6
 70
     0
 62
     5
  6
CENTER
  0
LAYER
  2
7
 70
     0
 62
     3
  6
DASHED
  0
LAYER
  2
BYLAYER
 70
     0
 62
     7
  6
CONTINUOUS
  0
ENDTAB
  0
TABLE
  2
STYLE
 70
     1
  0
STYLE
  2
STANDARD
 70
     0
 40
0.0
 41
1.0
 50
0.0
 71
     0
 42
0.2
  3
txt
  4

  0
ENDTAB
  0
TABLE
  2
VIEW
 70
     0
  0
ENDTAB
  0
TABLE
  2
UCS
 70
     0
  0
ENDTAB
  0
TABLE
  2
APPID
 70
     1
  0
APPID
  2
ACAD
 70
     0
  0
ENDTAB
  0
TABLE
  2
DIMSTYLE
 70
     1
  0
DIMSTYLE
  2
STANDARD
 70
     0
  3

  4

  5

  6

  7

 40
1.0
 41
0.18
 42
0.0625
 43
0.38
 44
0.18
 45
0.0
 46
0.0
 47
0.0
 48
0.0
140
0.18
141
0.09
142
0.0
143
25.4
144
1.0
145
0.0
146
1.0
147
0.09
 71
     0
 72
     0
 73
     1
 74
     1
 75
     0
 76
     0
 77
     0
 78
     0
170
     0
171
     2
172
     0
173
     0
174
     0
175
     0
176
     0
177
     0
178
     0
  0
ENDTAB
  0
ENDSEC
  0
SECTION
  2
BLOCKS
  0
BLOCK
  8
0
  2
$MODEL_SPACE
 70
     0
 10
0.0
 20
0.0
 30
0.0
  3
$MODEL_SPACE
  1

  0
ENDBLK
  5
1A
  8
0
  0
BLOCK
 67
     1
  8
0
  2
$PAPER_SPACE
 70
     0
 10
0.0
 20
0.0
 30
0.0
  3
$PAPER_SPACE
  1

  0
ENDBLK
  5
17
 67
     1
  8
0
  0
BLOCK
  8
0
  2
A$C05293501
 70
     0
 10
0.0
 20
0.0
 30
0.0
  3
A$C05293501
  1

  0
LINE
  5
600
  8
5
  6
CONTINUOUS
 10
60.4918
 20
70.750001
 30
0.0
 11
60.4918
 21
0.000001
 31
0.0
  0
LINE
  5
601
  8
5
  6
CENTER
 10
60.4918
 20
70.750001
 30
0.0
 11
60.4918
 21
0.000001
 31
0.0
  0
LINE
  5
602
  8
5
  6
CONTINUOUS
 10
50.4918
 20
70.750001
 30
0.0
 11
50.4918
 21
0.000001
 31
0.0
  0
LINE
  5
603
  8
5
  6
CENTER
 10
50.4918
 20
70.750001
 30
0.0
 11
50.4918
 21
0.000001
 31
0.0
  0
LINE
  5
604
  8
5
  6
CONTINUOUS
 10
40.4918
 20
70.750001
 30
0.0
 11
40.4918
 21
0.000001
 31
0.0
  0
LINE
  5
605
  8
5
  6
CENTER
 10
40.4918
 20
70.750001
 30
0.0
 11
40.4918
 21
0.000001
 31
0.0
  0
LINE
  5
606
  8
5
  6
CONTINUOUS
 10
30.4918
 20
70.750001
 30
0.0
 11
30.4918
 21
0.000001
 31
0.0
  0
LINE
  5
607
  8
5
  6
CENTER
 10
30.4918
 20
70.750001
 30
0.0
 11
30.4918
 21
0.000001
 31
0.0
  0
LINE
  5
608
  8
5
  6
CONTINUOUS
 10
20.4918
 20
70.750001
 30
0.0
 11
20.4918
 21
13.187001
 31
0.0
  0
LINE
  5
609
  8
5
  6
CENTER
 10
20.4918
 20
70.750001
 30
0.0
 11
20.4918
 21
12.818001
 31
0.0
  0
LINE
  5
60A
  8
5
  6
CONTINUOUS
 10
10.4918
 20
70.750001
 30
0.0
 11
10.4918
 21
35.248001
 31
0.0
  0
LINE
  5
60B
  8
5
  6
CENTER
 10
10.4918
 20
70.750001
 30
0.0
 11
10.4918
 21
35.248001
 31
0.0
  0
LINE
  5
60C
  8
5
  6
CONTINUOUS
 10
0.7536
 20
40.776001
 30
0.0
 11
70.6364
 21
40.776001
 31
0.0
  0
LINE
  5
60D
  8
5
  6
CONTINUOUS
 10
0.0
 20
40.776001
 30
0.0
 11
70.6364
 21
40.776001
 31
0.0
  0
LINE
  5
60E
  8
5
  6
CONTINUOUS
 10
10.8588
 20
30.776001
 30
0.0
 11
70.6364
 21
30.776001
 31
0.0
  0
LINE
  5
60F
  8
5
  6
CONTINUOUS
 10
6.8688
 20
30.776001
 30
0.0
 11
70.6364
 21
30.776001
 31
0.0
  0
LINE
  5
610
  8
5
  6
CONTINUOUS
 10
10.4918
 20
20.776001
 30
0.0
 11
70.6364
 21
20.776001
 31
0.0
  0
LINE
  5
611
  8
5
  6
CONTINUOUS
 10
10.4918
 20
20.776001
 30
0.0
 11
70.6364
 21
20.776001
 31
0.0
  0
LINE
  5
612
  8
5
  6
CONTINUOUS
 10
23.4865
 20
10.776001
 30
0.0
 11
70.6364
 21
10.776001
 31
0.0
  0
LINE
  5
613
  8
5
  6
CONTINUOUS
 10
22.9952
 20
10.776001
 30
0.0
 11
70.6364
 21
10.776001
 31
0.0
  0
LINE
  5
614
  8
5
  6
CONTINUOUS
 10
1.2561
 20
60.776001
 30
0.0
 11
70.6364
 21
60.776001
 31
0.0
  0
LINE
  5
615
  8
5
  6
CONTINUOUS
 10
1.2561
 20
60.776001
 30
0.0
 11
70.6364
 21
60.776001
 31
0.0
  0
LINE
  5
616
  8
5
  6
CONTINUOUS
 10
0.2512
 20
50.776001
 30
0.0
 11
70.6364
 21
50.776001
 31
0.0
  0
LINE
  5
617
  8
5
  6
CONTINUOUS
 10
0.2512
 20
50.776001
 30
0.0
 11
70.6364
 21
50.776001
 31
0.0
  0
ENDBLK
  5
619
  8
0
  0
BLOCK
  8
0
  2
A$C27E33DB7
 70
     0
 10
0.0
 20
0.0
 30
0.0
  3
A$C27E33DB7
  1

  0
INSERT
  5
61B
  8
0
  6
CONTINUOUS
  2
A$C05293501
 10
0.0
 20
-0.000001
 30
0.0
  0
ENDBLK
  5
61D
  8
0
  0
ENDSEC
  0
SECTION
  2
ENTITIES
  0
LINE
  5
25
  8
5
  6
CONTINUOUS
 10
1404.059
 20
1072.626
 30
0.0
 11
968.0591
 21
1072.626
 31
0.0
  0
LINE
  5
26
  8
5
  6
CONTINUOUS
 10
1404.072
 20
1462.127
 30
0.0
 11
1406.278
 21
1444.901
 31
0.0
  0
LINE
  5
27
  8
5
  6
CONTINUOUS
 10
1408.504
 20
1427.526
 30
0.0
 11
1406.278
 21
1444.901
 31
0.0
  0
LINE
  5
28
  8
5
  6
CONTINUOUS
 10
1404.059
 20
1462.226
 30
0.0
 11
1404.072
 21
1462.127
 31
0.0
  0
LINE
  5
29
  8
5
  6
CONTINUOUS
 10
1410.04
 20
1415.539
 30
0.0
 11
1408.504
 21
1427.526
 31
0.0
  0
LINE
  5
2A
  8
5
  6
CONTINUOUS
 10
1257.579
 20
1444.877
 30
0.0
 11
1278.936
 21
1462.127
 31
0.0
  0
LINE
  5
2B
  8
5
  6
CONTINUOUS
 10
1278.936
 20
1462.127
 30
0.0
 11
1279.059
 21
1462.226
 31
0.0
  0
LINE
  5
2C
  8
5
  6
CONTINUOUS
 10
1412.636
 20
986.7262
 30
0.0
 11
1412.059
 21
982.2262
 31
0.0
  0
LINE
  5
2D
  8
5
  6
CONTINUOUS
 10
1253.059
 20
1441.226
 30
0.0
 11
1257.579
 21
1444.877
 31
0.0
  0
LINE
  5
2E
  8
5
  6
CONTINUOUS
 10
1279.059
 20
1462.226
 30
0.0
 11
1404.059
 21
1462.226
 31
0.0
  0
LINE
  5
2F
  8
5
  6
CONTINUOUS
 10
1406.275
 20
1090.026
 30
0.0
 11
1406.282
 21
1089.976
 31
0.0
  0
LINE
  5
30
  8
5
  6
CONTINUOUS
 10
954.0591
 20
1222.226
 30
0.0
 11
954.0591
 21
1003.226
 31
0.0
  0
LINE
  5
31
  8
5
  6
CONTINUOUS
 10
954.0591
 20
1441.226
 30
0.0
 11
954.0591
 21
1222.226
 31
0.0
  0
LINE
  5
32
  8
5
  6
CONTINUOUS
 10
896.5591
 20
1497.226
 30
0.0
 11
896.5591
 21
947.2262
 31
0.0
  0
LINE
  5
33
  8
5
  6
CONTINUOUS
 10
878.5591
 20
1497.226
 30
0.0
 11
878.5591
 21
947.2262
 31
0.0
  0
CIRCLE
  5
34
  8
5
  6
CONTINUOUS
 10
902.5591
 20
1114.226
 30
0.0
 40
1.5
  0
LINE
  5
35
  8
5
  6
CONTINUOUS
 10
873.5591
 20
1447.226
 30
0.0
 11
873.5591
 21
997.2262
 31
0.0
  0
LINE
  5
36
  8
5
  6
CONTINUOUS
 10
1412.059
 20
982.2262
 30
0.0
 11
982.0591
 21
982.2262
 31
0.0
  0
LINE
  5
37
  8
5
  6
CONTINUOUS
 10
979.843
 20
999.5256
 30
0.0
 11
979.8366
 21
999.5756
 31
0.0
  0
LINE
  5
38
  8
5
  6
CONTINUOUS
 10
979.8366
 20
999.5756
 30
0.0
 11
979.8301
 21
999.6262
 31
0.0
  0
LINE
  5
39
  8
5
  6
CONTINUOUS
 10
982.0591
 20
982.2262
 30
0.0
 11
979.843
 21
999.5256
 31
0.0
  0
LINE
  5
3A
  8
5
  6
CONTINUOUS
 10
979.8301
 20
999.6262
 30
0.0
 11
977.5883
 21
1017.126
 31
0.0
  0
LINE
  5
3B
  8
5
  6
CONTINUOUS
 10
977.5883
 20
1017.126
 30
0.0
 11
976.0784
 21
1028.913
 31
0.0
  0
LINE
  5
3C
  8
5
  6
CONTINUOUS
 10
1406.282
 20
1354.477
 30
0.0
 11
1406.275
 21
1354.426
 31
0.0
  0
LINE
  5
3D
  8
5
  6
CONTINUOUS
 10
757.5591
 20
1258.726
 30
0.0
 11
748.5591
 21
1258.726
 31
0.0
  0
LINE
  5
3E
  8
5
  6
CONTINUOUS
 10
1062.559
 20
1072.626
 30
0.0
 11
1062.559
 21
1052.502
 31
0.0
  0
LINE
  5
3F
  8
5
  6
CONTINUOUS
 10
1062.559
 20
1052.502
 30
0.0
 11
1054.559
 21
1045.435
 31
0.0
  0
LINE
  5
40
  8
5
  6
CONTINUOUS
 10
965.8366
 20
1089.976
 30
0.0
 11
965.8432
 21
1090.026
 31
0.0
  0
LINE
  5
41
  8
5
  6
CONTINUOUS
 10
965.843
 20
1354.426
 30
0.0
 11
965.8366
 21
1354.477
 31
0.0
  0
LINE
  5
42
  8
5
  6
CONTINUOUS
 10
1054.559
 20
1045.435
 30
0.0
 11
1034.559
 21
1045.435
 31
0.0
  0
LINE
  5
43
  8
5
  6
CONTINUOUS
 10
1034.559
 20
1045.435
 30
0.0
 11
1026.559
 21
1052.502
 31
0.0
  0
LINE
  5
44
  8
5
  6
CONTINUOUS
 10
1026.559
 20
1052.502
 30
0.0
 11
1026.559
 21
1072.626
 31
0.0
  0
LINE
  5
45
  8
5
  6
CONTINUOUS
 10
997.943
 20
1033.033
 30
0.0
 11
994.8091
 21
1072.626
 31
0.0
  0
LINE
  5
46
  8
5
  6
CONTINUOUS
 10
997.943
 20
1033.033
 30
0.0
 11
1015.059
 21
1018.933
 31
0.0
  0
LINE
  5
47
  8
5
  6
CONTINUOUS
 10
1015.059
 20
1018.933
 30
0.0
 11
1074.059
 21
1018.933
 31
0.0
  0
LINE
  5
48
  8
5
  6
CONTINUOUS
 10
1074.059
 20
1018.933
 30
0.0
 11
1091.175
 21
1033.033
 31
0.0
  0
LINE
  5
49
  8
5
  6
CONTINUOUS
 10
1091.175
 20
1033.033
 30
0.0
 11
1094.309
 21
1072.626
 31
0.0
  0
LINE
  5
4A
  8
5
  6
CONTINUOUS
 10
994.4036
 20
1041.716
 30
0.0
 11
993.3864
 21
1062.286
 31
0.0
  0
LINE
  5
4B
  8
5
  6
CONTINUOUS
 10
994.4036
 20
1041.716
 30
0.0
 11
997.943
 21
1010.955
 31
0.0
  0
LINE
  5
4C
  8
5
  6
CONTINUOUS
 10
997.943
 20
1010.955
 30
0.0
 11
997.943
 21
1033.033
 31
0.0
  0
LINE
  5
4D
  8
5
  6
CONTINUOUS
 10
1091.175
 20
1033.033
 30
0.0
 11
1091.175
 21
1010.955
 31
0.0
  0
LINE
  5
4E
  8
5
  6
CONTINUOUS
 10
1253.059
 20
1427.726
 30
0.0
 11
1253.059
 21
1382.166
 31
0.0
  0
LINE
  5
4F
  8
5
  6
CONTINUOUS
 10
1253.059
 20
1427.726
 30
0.0
 11
1253.059
 21
1441.226
 31
0.0
  0
LINE
  5
50
  8
5
  6
CONTINUOUS
 10
968.0591
 20
1371.826
 30
0.0
 11
1404.059
 21
1371.826
 31
0.0
  0
LINE
  5
51
  8
5
  6
CONTINUOUS
 10
1094.715
 20
1041.716
 30
0.0
 11
1091.175
 21
1010.955
 31
0.0
  0
LINE
  5
52
  8
5
  6
CONTINUOUS
 10
1406.288
 20
1354.426
 30
0.0
 11
1408.53
 21
1336.926
 31
0.0
  0
LINE
  5
53
  8
5
  6
CONTINUOUS
 10
1408.53
 20
1336.926
 30
0.0
 11
1410.04
 21
1325.139
 31
0.0
  0
LINE
  5
54
  8
5
  6
CONTINUOUS
 10
1404.059
 20
1371.826
 30
0.0
 11
1406.282
 21
1354.477
 31
0.0
  0
LINE
  5
55
  8
5
  6
CONTINUOUS
 10
1408.53
 20
1107.526
 30
0.0
 11
1410.04
 21
1119.313
 31
0.0
  0
LINE
  5
56
  8
5
  6
CONTINUOUS
 10
1406.282
 20
1089.976
 30
0.0
 11
1404.059
 21
1072.626
 31
0.0
  0
LINE
  5
57
  8
5
  6
CONTINUOUS
 10
1406.288
 20
1090.026
 30
0.0
 11
1408.53
 21
1107.526
 31
0.0
  0
LINE
  5
58
  8
5
  6
CONTINUOUS
 10
965.8301
 20
1354.426
 30
0.0
 11
963.5883
 21
1336.926
 31
0.0
  0
LINE
  5
59
  8
5
  6
CONTINUOUS
 10
1703.559
 20
1425.519
 30
0.0
 11
1703.559
 21
1305.519
 31
0.0
  0
LINE
  5
5A
  8
5
  6
CONTINUOUS
 10
963.5883
 20
1336.926
 30
0.0
 11
962.0784
 21
1325.139
 31
0.0
  0
LINE
  5
5B
  8
5
  6
CONTINUOUS
 10
965.8366
 20
1354.477
 30
0.0
 11
968.0591
 21
1371.826
 31
0.0
  0
LINE
  5
5C
  8
5
  6
CONTINUOUS
 10
977.3737
 20
1412.643
 30
0.0
 11
979.3845
 21
1470.226
 31
0.0
  0
LINE
  5
5D
  8
5
  6
CONTINUOUS
 10
963.5883
 20
1107.526
 30
0.0
 11
962.0784
 21
1119.313
 31
0.0
  0
LINE
  5
5E
  8
5
  6
CONTINUOUS
 10
968.0591
 20
1072.626
 30
0.0
 11
965.8366
 21
1089.976
 31
0.0
  0
LINE
  5
5F
  8
5
  6
CONTINUOUS
 10
965.8301
 20
1090.026
 30
0.0
 11
963.5883
 21
1107.526
 31
0.0
  0
LINE
  5
60
  8
5
  6
CONTINUOUS
 10
1540.559
 20
1101.173
 30
0.0
 11
1540.559
 21
1343.28
 31
0.0
  0
LINE
  5
61
  8
5
  6
CONTINUOUS
 10
1540.559
 20
1101.173
 30
0.0
 11
1540.559
 21
989.7262
 31
0.0
  0
LINE
  5
62
  8
5
  6
CONTINUOUS
 10
1540.559
 20
1454.726
 30
0.0
 11
1540.559
 21
1343.28
 31
0.0
  0
LINE
  5
63
  8
5
  6
CONTINUOUS
 10
1613.559
 20
1362.226
 30
0.0
 11
1613.559
 21
1082.226
 31
0.0
  0
LINE
  5
64
  8
5
  6
CONTINUOUS
 10
1472.059
 20
1457.726
 30
0.0
 11
1411.559
 21
1457.726
 31
0.0
  0
LINE
  5
65
  8
5
  6
CONTINUOUS
 10
1472.059
 20
1454.726
 30
0.0
 11
1540.559
 21
1454.726
 31
0.0
  0
LINE
  5
66
  8
5
  6
CONTINUOUS
 10
1472.059
 20
989.7262
 30
0.0
 11
1540.559
 21
989.7262
 31
0.0
  0
LINE
  5
67
  8
5
  6
CONTINUOUS
 10
1472.059
 20
1099.93
 30
0.0
 11
1472.059
 21
986.7262
 31
0.0
  0
LINE
  5
68
  8
5
  6
CONTINUOUS
 10
1472.059
 20
1457.726
 30
0.0
 11
1472.059
 21
1344.522
 31
0.0
  0
LINE
  5
69
  8
5
  6
CONTINUOUS
 10
1472.059
 20
1099.93
 30
0.0
 11
1472.059
 21
1344.522
 31
0.0
  0
LINE
  5
6A
  8
5
  6
CONTINUOUS
 10
1411.559
 20
1344.522
 30
0.0
 11
1411.559
 21
1099.93
 31
0.0
  0
LINE
  5
6B
  8
5
  6
CONTINUOUS
 10
1411.559
 20
1344.522
 30
0.0
 11
1411.559
 21
1457.726
 31
0.0
  0
LINE
  5
6C
  8
5
  6
CONTINUOUS
 10
1404.072
 20
1462.127
 30
0.0
 11
1278.936
 21
1462.127
 31
0.0
  0
LINE
  5
6D
  8
5
  6
CONTINUOUS
 10
1257.579
 20
1444.877
 30
0.0
 11
1406.275
 21
1444.877
 31
0.0
  0
LINE
  5
6E
  8
5
  6
CONTINUOUS
 10
1406.278
 20
1444.901
 30
0.0
 11
1406.275
 21
1444.877
 31
0.0
  0
LINE
  5
6F
  8
5
  6
CONTINUOUS
 10
1404.059
 20
1427.726
 30
0.0
 11
1383.839
 21
1427.726
 31
0.0
  0
LINE
  5
70
  8
5
  6
CONTINUOUS
 10
1289.279
 20
1427.726
 30
0.0
 11
1253.059
 21
1427.726
 31
0.0
  0
LINE
  5
71
  8
5
  6
CONTINUOUS
 10
1406.275
 20
1444.877
 30
0.0
 11
1404.059
 21
1427.726
 31
0.0
  0
LINE
  5
72
  8
5
  6
CONTINUOUS
 10
1406.275
 20
1090.026
 30
0.0
 11
965.8431
 21
1090.026
 31
0.0
  0
LINE
  5
73
  8
5
  6
CONTINUOUS
 10
1404.059
 20
1107.126
 30
0.0
 11
1406.275
 21
1090.026
 31
0.0
  0
LINE
  5
74
  8
5
  6
CONTINUOUS
 10
968.0592
 20
1107.126
 30
0.0
 11
1404.059
 21
1107.126
 31
0.0
  0
LINE
  5
75
  8
5
  6
CONTINUOUS
 10
965.8432
 20
1090.026
 30
0.0
 11
968.0592
 21
1107.126
 31
0.0
  0
LINE
  5
76
  8
5
  6
CONTINUOUS
 10
1406.275
 20
1354.426
 30
0.0
 11
965.843
 21
1354.426
 31
0.0
  0
LINE
  5
77
  8
5
  6
CONTINUOUS
 10
968.0592
 20
1336.926
 30
0.0
 11
965.843
 21
1354.426
 31
0.0
  0
LINE
  5
78
  8
5
  6
CONTINUOUS
 10
1404.059
 20
1336.926
 30
0.0
 11
968.0592
 21
1336.926
 31
0.0
  0
LINE
  5
79
  8
5
  6
CONTINUOUS
 10
1406.275
 20
1354.426
 30
0.0
 11
1404.059
 21
1336.926
 31
0.0
  0
LINE
  5
7A
  8
5
  6
CONTINUOUS
 10
1404.059
 20
1336.926
 30
0.0
 11
1408.53
 21
1336.926
 31
0.0
  0
LINE
  5
7B
  8
5
  6
CONTINUOUS
 10
1703.559
 20
1405.519
 30
0.0
 11
1720.88
 21
1415.519
 31
0.0
  0
LINE
  5
7C
  8
5
  6
CONTINUOUS
 10
1408.53
 20
1107.526
 30
0.0
 11
1404.059
 21
1107.526
 31
0.0
  0
LINE
  5
7D
  8
5
  6
CONTINUOUS
 10
1404.059
 20
1107.126
 30
0.0
 11
1404.059
 21
1107.526
 31
0.0
  0
LINE
  5
7E
  8
5
  6
CONTINUOUS
 10
1406.749
 20
1222.226
 30
0.0
 11
1404.059
 21
1222.226
 31
0.0
  0
LINE
  5
7F
  8
5
  6
CONTINUOUS
 10
1404.059
 20
1204.926
 30
0.0
 11
1404.059
 21
1222.226
 31
0.0
  0
LINE
  5
80
  8
5
  6
CONTINUOUS
 10
1404.059
 20
1204.926
 30
0.0
 11
1406.837
 21
1204.926
 31
0.0
  0
LINE
  5
81
  8
5
  6
CONTINUOUS
 10
1407.1
 20
1256.726
 30
0.0
 11
1404.059
 21
1256.726
 31
0.0
  0
LINE
  5
82
  8
5
  6
CONTINUOUS
 10
1472.059
 20
986.7262
 30
0.0
 11
1411.559
 21
986.7262
 31
0.0
  0
LINE
  5
83
  8
5
  6
CONTINUOUS
 10
1703.559
 20
1385.519
 30
0.0
 11
1720.88
 21
1395.519
 31
0.0
  0
LINE
  5
84
  8
5
  6
CONTINUOUS
 10
1404.059
 20
1239.526
 30
0.0
 11
1404.059
 21
1256.726
 31
0.0
  0
LINE
  5
85
  8
5
  6
CONTINUOUS
 10
1404.059
 20
1239.526
 30
0.0
 11
1406.837
 21
1239.526
 31
0.0
  0
LINE
  5
86
  8
5
  6
CONTINUOUS
 10
1407.99
 20
1286.626
 30
0.0
 11
1404.059
 21
1286.626
 31
0.0
  0
LINE
  5
87
  8
5
  6
CONTINUOUS
 10
1404.059
 20
1271.726
 30
0.0
 11
1404.059
 21
1286.626
 31
0.0
  0
LINE
  5
88
  8
5
  6
CONTINUOUS
 10
1404.059
 20
1271.726
 30
0.0
 11
1407.475
 21
1271.726
 31
0.0
  0
LINE
  5
89
  8
5
  6
CONTINUOUS
 10
1409.613
 20
1318.626
 30
0.0
 11
1404.059
 21
1318.626
 31
0.0
  0
LINE
  5
8A
  8
5
  6
CONTINUOUS
 10
1404.059
 20
1301.626
 30
0.0
 11
1404.059
 21
1318.626
 31
0.0
  0
LINE
  5
8B
  8
5
  6
CONTINUOUS
 10
1404.059
 20
1301.626
 30
0.0
 11
1408.658
 21
1301.626
 31
0.0
  0
LINE
  5
8C
  8
5
  6
CONTINUOUS
 10
1703.559
 20
1365.519
 30
0.0
 11
1720.88
 21
1375.519
 31
0.0
  0
LINE
  5
8D
  8
5
  6
CONTINUOUS
 10
1411.559
 20
986.7262
 30
0.0
 11
1411.559
 21
1099.93
 31
0.0
  0
LINE
  5
8E
  8
5
  6
CONTINUOUS
 10
1703.559
 20
1345.519
 30
0.0
 11
1720.88
 21
1355.519
 31
0.0
  0
LINE
  5
8F
  8
5
  6
CONTINUOUS
 10
1703.559
 20
1325.519
 30
0.0
 11
1720.88
 21
1335.519
 31
0.0
  0
LINE
  5
90
  8
5
  6
CONTINUOUS
 10
1407.1
 20
1187.726
 30
0.0
 11
1404.059
 21
1187.726
 31
0.0
  0
LINE
  5
91
  8
5
  6
CONTINUOUS
 10
1404.059
 20
1172.826
 30
0.0
 11
1404.059
 21
1187.726
 31
0.0
  0
LINE
  5
92
  8
5
  6
CONTINUOUS
 10
1404.059
 20
1172.826
 30
0.0
 11
1407.472
 21
1172.826
 31
0.0
  0
LINE
  5
93
  8
5
  6
CONTINUOUS
 10
1407.99
 20
1157.826
 30
0.0
 11
1404.059
 21
1157.826
 31
0.0
  0
LINE
  5
94
  8
5
  6
CONTINUOUS
 10
1404.059
 20
1142.826
 30
0.0
 11
1404.059
 21
1157.826
 31
0.0
  0
LINE
  5
95
  8
5
  6
CONTINUOUS
 10
1404.059
 20
1142.826
 30
0.0
 11
1408.658
 21
1142.826
 31
0.0
  0
LINE
  5
96
  8
5
  6
CONTINUOUS
 10
1409.613
 20
1125.826
 30
0.0
 11
1404.059
 21
1125.826
 31
0.0
  0
LINE
  5
97
  8
5
  6
CONTINUOUS
 10
1404.059
 20
1107.526
 30
0.0
 11
1404.059
 21
1125.826
 31
0.0
  0
LINE
  5
98
  8
5
  6
CONTINUOUS
 10
1404.059
 20
1187.726
 30
0.0
 11
1404.059
 21
1204.926
 31
0.0
  0
LINE
  5
99
  8
5
  6
CONTINUOUS
 10
1404.059
 20
1222.226
 30
0.0
 11
1404.059
 21
1239.526
 31
0.0
  0
LINE
  5
9A
  8
5
  6
CONTINUOUS
 10
1404.059
 20
1256.726
 30
0.0
 11
1404.059
 21
1271.726
 31
0.0
  0
LINE
  5
9B
  8
5
  6
CONTINUOUS
 10
1404.059
 20
1286.626
 30
0.0
 11
1404.059
 21
1301.626
 31
0.0
  0
LINE
  5
9C
  8
5
  6
CONTINUOUS
 10
1404.059
 20
1318.626
 30
0.0
 11
1404.059
 21
1336.926
 31
0.0
  0
LINE
  5
9D
  8
5
  6
CONTINUOUS
 10
1404.059
 20
1157.826
 30
0.0
 11
1404.059
 21
1172.826
 31
0.0
  0
LINE
  5
9E
  8
5
  6
CONTINUOUS
 10
859.5591
 20
1258.726
 30
0.0
 11
757.5591
 21
1258.726
 31
0.0
  0
LINE
  5
9F
  8
5
  6
CONTINUOUS
 10
868.5591
 20
1258.726
 30
0.0
 11
859.5591
 21
1258.726
 31
0.0
  0
LINE
  5
A0
  8
5
  6
CONTINUOUS
 10
738.5591
 20
1189.726
 30
0.0
 11
738.5591
 21
1254.726
 31
0.0
  0
LINE
  5
A1
  8
5
  6
CONTINUOUS
 10
748.5594
 20
1254.726
 30
0.0
 11
738.5592
 21
1254.726
 31
0.0
  0
LINE
  5
A2
  8
5
  6
CONTINUOUS
 10
1404.059
 20
1125.826
 30
0.0
 11
1404.059
 21
1142.826
 31
0.0
  0
LINE
  5
A3
  8
5
  6
CONTINUOUS
 10
963.5883
 20
1336.926
 30
0.0
 11
968.0592
 21
1336.926
 31
0.0
  0
LINE
  5
A4
  8
5
  6
CONTINUOUS
 10
968.0592
 20
1107.526
 30
0.0
 11
963.5883
 21
1107.526
 31
0.0
  0
LINE
  5
A5
  8
5
  6
CONTINUOUS
 10
968.0592
 20
1107.526
 30
0.0
 11
968.0592
 21
1107.126
 31
0.0
  0
LINE
  5
A6
  8
5
  6
CONTINUOUS
 10
965.2814
 20
1204.926
 30
0.0
 11
968.0592
 21
1204.926
 31
0.0
  0
LINE
  5
A7
  8
5
  6
CONTINUOUS
 10
968.0592
 20
1222.226
 30
0.0
 11
968.0592
 21
1204.926
 31
0.0
  0
LINE
  5
A8
  8
5
  6
CONTINUOUS
 10
968.0592
 20
1222.226
 30
0.0
 11
965.3691
 21
1222.226
 31
0.0
  0
LINE
  5
A9
  8
5
  6
CONTINUOUS
 10
873.5591
 20
1254.726
 30
0.0
 11
868.5591
 21
1254.726
 31
0.0
  0
LINE
  5
AA
  8
5
  6
CONTINUOUS
 10
965.2814
 20
1239.526
 30
0.0
 11
968.0592
 21
1239.526
 31
0.0
  0
LINE
  5
AB
  8
5
  6
CONTINUOUS
 10
968.0592
 20
1256.726
 30
0.0
 11
968.0592
 21
1239.526
 31
0.0
  0
LINE
  5
AC
  8
5
  6
CONTINUOUS
 10
968.0592
 20
1256.726
 30
0.0
 11
965.0187
 21
1256.726
 31
0.0
  0
LINE
  5
AD
  8
5
  6
CONTINUOUS
 10
964.643
 20
1271.726
 30
0.0
 11
968.0592
 21
1271.726
 31
0.0
  0
LINE
  5
AE
  8
5
  6
CONTINUOUS
 10
968.0592
 20
1286.626
 30
0.0
 11
968.0592
 21
1271.726
 31
0.0
  0
LINE
  5
AF
  8
5
  6
CONTINUOUS
 10
968.0592
 20
1286.626
 30
0.0
 11
964.1287
 21
1286.626
 31
0.0
  0
LINE
  5
B0
  8
5
  6
CONTINUOUS
 10
963.4601
 20
1301.626
 30
0.0
 11
968.0592
 21
1301.626
 31
0.0
  0
LINE
  5
B1
  8
5
  6
CONTINUOUS
 10
968.0592
 20
1318.626
 30
0.0
 11
968.0592
 21
1301.626
 31
0.0
  0
LINE
  5
B2
  8
5
  6
CONTINUOUS
 10
968.0592
 20
1318.626
 30
0.0
 11
962.5048
 21
1318.626
 31
0.0
  0
LINE
  5
B3
  8
5
  6
CONTINUOUS
 10
964.6459
 20
1172.826
 30
0.0
 11
968.0592
 21
1172.826
 31
0.0
  0
LINE
  5
B4
  8
5
  6
CONTINUOUS
 10
968.0592
 20
1187.726
 30
0.0
 11
968.0592
 21
1172.826
 31
0.0
  0
LINE
  5
B5
  8
5
  6
CONTINUOUS
 10
968.0592
 20
1187.726
 30
0.0
 11
965.0187
 21
1187.726
 31
0.0
  0
LINE
  5
B6
  8
5
  6
CONTINUOUS
 10
738.5592
 20
1189.726
 30
0.0
 11
873.5591
 21
1189.726
 31
0.0
  0
LINE
  5
B7
  8
5
  6
CONTINUOUS
 10
757.5591
 20
1253.455
 30
0.0
 11
859.5591
 21
1253.455
 31
0.0
  0
LINE
  5
B8
  8
5
  6
CONTINUOUS
 10
868.5591
 20
1254.726
 30
0.0
 11
868.5591
 21
1258.726
 31
0.0
  0
LINE
  5
B9
  8
5
  6
CONTINUOUS
 10
748.5591
 20
1258.726
 30
0.0
 11
748.5591
 21
1254.727
 31
0.0
  0
LINE
  5
BA
  8
5
  6
CONTINUOUS
 10
1095.732
 20
1062.286
 30
0.0
 11
1094.715
 21
1041.716
 31
0.0
  0
LINE
  5
BB
  8
5
  6
CONTINUOUS
 10
1095.732
 20
1062.286
 30
0.0
 11
1411.559
 21
1062.286
 31
0.0
  0
LINE
  5
BC
  8
5
  6
CONTINUOUS
 10
1026.559
 20
1062.286
 30
0.0
 11
1062.559
 21
1062.286
 31
0.0
  0
LINE
  5
BD
  8
5
  6
CONTINUOUS
 10
982.0592
 20
1062.286
 30
0.0
 11
993.3864
 21
1062.286
 31
0.0
  0
LINE
  5
BE
  8
5
  6
CONTINUOUS
 10
982.0592
 20
1062.286
 30
0.0
 11
982.0592
 21
1016.726
 31
0.0
  0
LINE
  5
BF
  8
5
  6
CONTINUOUS
 10
982.0592
 20
1016.726
 30
0.0
 11
997.279
 21
1016.726
 31
0.0
  0
LINE
  5
C0
  8
5
  6
CONTINUOUS
 10
1091.839
 20
1016.726
 30
0.0
 11
1411.559
 21
1016.726
 31
0.0
  0
LINE
  5
C1
  8
5
  6
CONTINUOUS
 10
896.5592
 20
1005.723
 30
0.0
 11
954.0591
 21
1003.715
 31
0.0
  0
LINE
  5
C2
  8
5
  6
CONTINUOUS
 10
954.0591
 20
1440.737
 30
0.0
 11
896.5592
 21
1438.729
 31
0.0
  0
LINE
  5
C3
  8
5
  6
CONTINUOUS
 10
977.5883
 20
1017.126
 30
0.0
 11
977.5883
 21
1035.665
 31
0.0
  0
LINE
  5
C4
  8
5
  6
CONTINUOUS
 10
1219.734
 20
1470.226
 30
0.0
 11
1221.745
 21
1412.643
 31
0.0
  0
LINE
  5
C5
  8
5
  6
CONTINUOUS
 10
979.83
 20
1047.629
 30
0.0
 11
979.83
 21
999.6262
 31
0.0
  0
LINE
  5
C6
  8
5
  6
CONTINUOUS
 10
979.8366
 20
999.5756
 30
0.0
 11
982.0592
 21
1016.726
 31
0.0
  0
LINE
  5
C7
  8
5
  6
CONTINUOUS
 10
979.843
 20
999.5256
 30
0.0
 11
1411.559
 21
999.5255
 31
0.0
  0
LINE
  5
C8
  8
5
  6
CONTINUOUS
 10
1091.175
 20
1010.955
 30
0.0
 11
1074.059
 21
1001.255
 31
0.0
  0
LINE
  5
C9
  8
5
  6
CONTINUOUS
 10
1074.059
 20
1001.255
 30
0.0
 11
1015.059
 21
1001.255
 31
0.0
  0
LINE
  5
CA
  8
5
  6
CONTINUOUS
 10
1015.059
 20
1001.255
 30
0.0
 11
997.943
 21
1010.955
 31
0.0
  0
LINE
  5
CB
  8
5
  6
CONTINUOUS
 10
1074.059
 20
1001.255
 30
0.0
 11
1074.059
 21
1018.933
 31
0.0
  0
LINE
  5
CC
  8
5
  6
CONTINUOUS
 10
1015.059
 20
1018.933
 30
0.0
 11
1015.059
 21
1001.255
 31
0.0
  0
LINE
  5
CD
  8
5
  6
CONTINUOUS
 10
878.559
 20
1447.226
 30
0.0
 11
873.5591
 21
1447.226
 31
0.0
  0
LINE
  5
CE
  8
5
  6
CONTINUOUS
 10
738.5592
 20
370.6067
 30
0.0
 11
738.5592
 21
435.6067
 31
0.0
  0
LINE
  5
CF
  8
5
  6
CONTINUOUS
 10
963.4601
 20
1142.826
 30
0.0
 11
968.0592
 21
1142.826
 31
0.0
  0
LINE
  5
D0
  8
5
  6
CONTINUOUS
 10
873.559
 20
997.2263
 30
0.0
 11
878.559
 21
997.2263
 31
0.0
  0
LINE
  5
D1
  8
5
  6
CONTINUOUS
 10
896.5591
 20
1497.226
 30
0.0
 11
878.5591
 21
1497.226
 31
0.0
  0
LINE
  5
D2
  8
5
  6
CONTINUOUS
 10
878.559
 20
947.2262
 30
0.0
 11
896.5592
 21
947.2262
 31
0.0
  0
ARC
  5
D3
  8
5
  6
CONTINUOUS
 10
859.5592
 20
403.1067
 30
0.0
 40
9.0
 50
270.0
 51
90.0
  0
LINE
  5
D4
  8
5
  6
CONTINUOUS
 10
859.5593
 20
394.1066
 30
0.0
 11
757.5591
 21
394.1066
 31
0.0
  0
ARC
  5
D5
  8
5
  6
CONTINUOUS
 10
757.5592
 20
403.1067
 30
0.0
 40
9.0
 50
90.0
 51
270.0
  0
LINE
  5
D6
  8
5
  6
CONTINUOUS
 10
968.0592
 20
1157.826
 30
0.0
 11
968.0592
 21
1142.826
 31
0.0
  0
LINE
  5
D7
  8
5
  6
CONTINUOUS
 10
757.5591
 20
412.1066
 30
0.0
 11
859.5592
 21
412.1067
 31
0.0
  0
LINE
  5
D8
  8
5
  6
CONTINUOUS
 10
968.0592
 20
1157.826
 30
0.0
 11
964.1287
 21
1157.826
 31
0.0
  0
LINE
  5
D9
  8
5
  6
CONTINUOUS
 10
968.0592
 20
1125.826
 30
0.0
 11
968.0592
 21
1107.526
 31
0.0
  0
LINE
  5
DA
  8
5
  6
CONTINUOUS
 10
968.0592
 20
1125.826
 30
0.0
 11
962.5048
 21
1125.826
 31
0.0
  0
LINE
  5
DB
  8
5
  6
CONTINUOUS
 10
738.5592
 20
370.6067
 30
0.0
 11
873.5592
 21
370.6067
 31
0.0
  0
LINE
  5
DC
  8
5
  6
CONTINUOUS
 10
873.5592
 20
435.6067
 30
0.0
 11
738.5592
 21
435.6067
 31
0.0
  0
LINE
  5
DD
  8
5
  6
CONTINUOUS
 10
2102.234
 20
1258.833
 30
0.0
 11
2084.234
 21
1258.833
 31
0.0
  0
LINE
  5
DE
  8
5
  6
CONTINUOUS
 10
968.0592
 20
1204.926
 30
0.0
 11
968.0592
 21
1187.726
 31
0.0
  0
CIRCLE
  5
DF
  8
5
  6
CONTINUOUS
 10
2093.234
 20
1222.333
 30
0.0
 40
32.5
  0
LINE
  5
E0
  8
5
  6
CONTINUOUS
 10
968.0592
 20
1239.526
 30
0.0
 11
968.0592
 21
1222.226
 31
0.0
  0
LINE
  5
E1
  8
5
  6
CONTINUOUS
 10
968.0592
 20
1271.726
 30
0.0
 11
968.0592
 21
1256.726
 31
0.0
  0
LINE
  5
E2
  8
5
  6
CONTINUOUS
 10
968.0592
 20
1301.626
 30
0.0
 11
968.0592
 21
1286.626
 31
0.0
  0
LINE
  5
E3
  8
5
  6
CONTINUOUS
 10
968.0592
 20
1336.926
 30
0.0
 11
968.0592
 21
1318.626
 31
0.0
  0
LINE
  5
E4
  8
5
  6
CONTINUOUS
 10
968.0592
 20
1172.826
 30
0.0
 11
968.0592
 21
1157.826
 31
0.0
  0
LINE
  5
E5
  8
5
  6
CONTINUOUS
 10
968.0592
 20
1142.826
 30
0.0
 11
968.0592
 21
1125.826
 31
0.0
  0
LINE
  5
E6
  8
5
  6
CONTINUOUS
 10
1404.059
 20
1125.826
 30
0.0
 11
968.0592
 21
1125.826
 31
0.0
  0
LINE
  5
E7
  8
5
  6
CONTINUOUS
 10
968.0592
 20
1107.526
 30
0.0
 11
1404.059
 21
1107.526
 31
0.0
  0
LINE
  5
E8
  8
5
  6
CONTINUOUS
 10
1404.059
 20
1157.826
 30
0.0
 11
968.0592
 21
1157.826
 31
0.0
  0
LINE
  5
E9
  8
5
  6
CONTINUOUS
 10
968.0592
 20
1142.826
 30
0.0
 11
1404.059
 21
1142.826
 31
0.0
  0
LINE
  5
EA
  8
5
  6
CONTINUOUS
 10
1404.059
 20
1187.726
 30
0.0
 11
968.0592
 21
1187.726
 31
0.0
  0
LINE
  5
EB
  8
5
  6
CONTINUOUS
 10
968.0592
 20
1172.826
 30
0.0
 11
1404.059
 21
1172.826
 31
0.0
  0
LINE
  5
EC
  8
5
  6
CONTINUOUS
 10
1404.059
 20
1318.626
 30
0.0
 11
968.0592
 21
1318.626
 31
0.0
  0
LINE
  5
ED
  8
5
  6
CONTINUOUS
 10
968.0592
 20
1301.626
 30
0.0
 11
1404.059
 21
1301.626
 31
0.0
  0
LINE
  5
EE
  8
5
  6
CONTINUOUS
 10
1404.059
 20
1286.626
 30
0.0
 11
968.0592
 21
1286.626
 31
0.0
  0
LINE
  5
EF
  8
5
  6
CONTINUOUS
 10
968.0592
 20
1271.726
 30
0.0
 11
1404.059
 21
1271.726
 31
0.0
  0
ARC
  5
F0
  8
5
  6
CONTINUOUS
 10
2093.234
 20
1222.333
 30
0.0
 40
37.49997
 50
0.000002
 51
103.2617
  0
ARC
  5
F1
  8
5
  6
CONTINUOUS
 10
2093.234
 20
1222.333
 30
0.0
 40
37.50001
 50
103.8865
 51
0.0
  0
LINE
  5
F2
  8
5
  6
CONTINUOUS
 10
1406.288
 20
1090.026
 30
0.0
 11
1406.282
 21
1089.976
 31
0.0
  0
LINE
  5
F3
  8
5
  6
CONTINUOUS
 10
1404.059
 20
1256.726
 30
0.0
 11
968.0592
 21
1256.726
 31
0.0
  0
LINE
  5
F4
  8
5
  6
CONTINUOUS
 10
1406.282
 20
1354.477
 30
0.0
 11
1406.288
 21
1354.426
 31
0.0
  0
LINE
  5
F5
  8
5
  6
CONTINUOUS
 10
965.8301
 20
1090.026
 30
0.0
 11
965.8366
 21
1089.976
 31
0.0
  0
LINE
  5
F6
  8
5
  6
CONTINUOUS
 10
965.8366
 20
1354.477
 30
0.0
 11
965.8301
 21
1354.426
 31
0.0
  0
LINE
  5
F7
  8
5
  6
CONTINUOUS
 10
968.0592
 20
1239.526
 30
0.0
 11
1404.059
 21
1239.526
 31
0.0
  0
LINE
  5
F8
  8
5
  6
CONTINUOUS
 10
978.0591
 20
1470.226
 30
0.0
 11
978.0591
 21
1506.526
 31
0.0
  0
LINE
  5
F9
  8
5
  6
CONTINUOUS
 10
1221.059
 20
1506.526
 30
0.0
 11
1221.059
 21
1470.226
 31
0.0
  0
LINE
  5
FB
  8
5
  6
CONTINUOUS
 10
968.0592
 20
1204.926
 30
0.0
 11
1404.059
 21
1204.926
 31
0.0
  0
LINE
  5
FC
  8
5
  6
CONTINUOUS
 10
1408.504
 20
1408.664
 30
0.0
 11
1408.504
 21
1427.526
 31
0.0
  0
LINE
  5
FD
  8
5
  6
CONTINUOUS
 10
1406.275
 20
1444.877
 30
0.0
 11
1406.275
 21
1396.748
 31
0.0
  0
LINE
  5
FE
  8
5
  6
CONTINUOUS
 10
1223.559
 20
1506.526
 30
0.0
 11
975.5591
 21
1506.526
 31
0.0
  0
LINE
  5
FF
  8
5
  6
CONTINUOUS
 10
985.5591
 20
1532.026
 30
0.0
 11
1213.559
 21
1532.026
 31
0.0
  0
LINE
  5
100
  8
5
  6
CONTINUOUS
 10
985.5591
 20
1555.026
 30
0.0
 11
944.5591
 21
1555.026
 31
0.0
  0
LINE
  5
101
  8
5
  6
CONTINUOUS
 10
1254.559
 20
1555.026
 30
0.0
 11
1213.559
 21
1555.026
 31
0.0
  0
LINE
  5
102
  8
5
  6
CONTINUOUS
 10
1404.059
 20
1382.166
 30
0.0
 11
1404.059
 21
1427.726
 31
0.0
  0
LINE
  5
103
  8
5
  6
CONTINUOUS
 10
951.5591
 20
1530.526
 30
0.0
 11
975.5591
 21
1506.526
 31
0.0
  0
LINE
  5
104
  8
5
  6
CONTINUOUS
 10
1307.059
 20
1425.519
 30
0.0
 11
1289.943
 21
1411.419
 31
0.0
  0
LINE
  5
105
  8
5
  6
CONTINUOUS
 10
1247.559
 20
1530.526
 30
0.0
 11
1223.559
 21
1506.526
 31
0.0
  0
LINE
  5
106
  8
5
  6
CONTINUOUS
 10
1247.559
 20
1530.526
 30
0.0
 11
1247.559
 21
1555.026
 31
0.0
  0
LINE
  5
107
  8
5
  6
CONTINUOUS
 10
951.5591
 20
1530.526
 30
0.0
 11
951.5591
 21
1555.026
 31
0.0
  0
LINE
  5
108
  8
5
  6
CONTINUOUS
 10
989.5592
 20
1651.026
 30
0.0
 11
1209.559
 21
1651.026
 31
0.0
  0
LINE
  5
109
  8
5
  6
CONTINUOUS
 10
1058.554
 20
1655.226
 30
0.0
 11
1058.554
 21
1651.026
 31
0.0
  0
LINE
  5
10A
  8
5
  6
CONTINUOUS
 10
1060.654
 20
1651.026
 30
0.0
 11
1060.654
 21
1655.226
 31
0.0
  0
LINE
  5
10B
  8
5
  6
CONTINUOUS
 10
1095.675
 20
1651.026
 30
0.0
 11
1095.675
 21
1655.226
 31
0.0
  0
LINE
  5
10C
  8
5
  6
CONTINUOUS
 10
1109.454
 20
1651.026
 30
0.0
 11
1109.454
 21
1655.226
 31
0.0
  0
LINE
  5
10D
  8
5
  6
CONTINUOUS
 10
1307.059
 20
1443.197
 30
0.0
 11
1307.059
 21
1425.519
 31
0.0
  0
LINE
  5
10E
  8
5
  6
CONTINUOUS
 10
1111.554
 20
1651.026
 30
0.0
 11
1111.554
 21
1655.226
 31
0.0
  0
LINE
  5
10F
  8
5
  6
CONTINUOUS
 10
1157.199
 20
1651.026
 30
0.0
 11
1157.199
 21
1655.226
 31
0.0
  0
LINE
  5
110
  8
5
  6
CONTINUOUS
 10
1141.321
 20
1651.026
 30
0.0
 11
1141.321
 21
1655.226
 31
0.0
  0
LINE
  5
111
  8
5
  6
CONTINUOUS
 10
1155.099
 20
1651.026
 30
0.0
 11
1155.099
 21
1655.226
 31
0.0
  0
LINE
  5
112
  8
5
  6
CONTINUOUS
 10
1034.556
 20
1655.226
 30
0.0
 11
1043.419
 21
1655.226
 31
0.0
  0
LINE
  5
113
  8
5
  6
CONTINUOUS
 10
1043.419
 20
1655.226
 30
0.0
 11
1047.109
 21
1655.226
 31
0.0
  0
LINE
  5
114
  8
5
  6
CONTINUOUS
 10
1047.109
 20
1655.226
 30
0.0
 11
1058.554
 21
1655.226
 31
0.0
  0
LINE
  5
115
  8
5
  6
CONTINUOUS
 10
1060.654
 20
1655.226
 30
0.0
 11
1072.047
 21
1655.226
 31
0.0
  0
LINE
  5
116
  8
5
  6
CONTINUOUS
 10
1072.047
 20
1655.226
 30
0.0
 11
1075.887
 21
1655.226
 31
0.0
  0
LINE
  5
117
  8
5
  6
CONTINUOUS
 10
1075.887
 20
1655.226
 30
0.0
 11
1085.387
 21
1655.226
 31
0.0
  0
LINE
  5
118
  8
5
  6
CONTINUOUS
 10
1095.675
 20
1655.226
 30
0.0
 11
1109.454
 21
1655.226
 31
0.0
  0
LINE
  5
119
  8
5
  6
CONTINUOUS
 10
1111.554
 20
1655.226
 30
0.0
 11
1116.355
 21
1655.226
 31
0.0
  0
LINE
  5
11A
  8
5
  6
CONTINUOUS
 10
993.393
 20
1470.226
 30
0.0
 11
991.0722
 21
1403.764
 31
0.0
  0
LINE
  5
11B
  8
5
  6
CONTINUOUS
 10
1116.355
 20
1655.226
 30
0.0
 11
1131.184
 21
1655.226
 31
0.0
  0
LINE
  5
11C
  8
5
  6
CONTINUOUS
 10
1157.199
 20
1655.226
 30
0.0
 11
1162.001
 21
1655.226
 31
0.0
  0
LINE
  5
11D
  8
5
  6
CONTINUOUS
 10
1162.001
 20
1655.226
 30
0.0
 11
1176.829
 21
1655.226
 31
0.0
  0
LINE
  5
11E
  8
5
  6
CONTINUOUS
 10
1289.943
 20
1433.497
 30
0.0
 11
1307.059
 21
1443.197
 31
0.0
  0
LINE
  5
11F
  8
5
  6
CONTINUOUS
 10
1141.321
 20
1655.226
 30
0.0
 11
1155.099
 21
1655.226
 31
0.0
  0
LINE
  5
120
  8
5
  6
CONTINUOUS
 10
1289.943
 20
1411.419
 30
0.0
 11
1289.943
 21
1433.497
 31
0.0
  0
LINE
  5
121
  8
5
  6
CONTINUOUS
 10
1366.059
 20
1443.197
 30
0.0
 11
1383.175
 21
1433.497
 31
0.0
  0
LINE
  5
122
  8
5
  6
CONTINUOUS
 10
1366.059
 20
1425.519
 30
0.0
 11
1366.059
 21
1443.197
 31
0.0
  0
LINE
  5
123
  8
5
  6
CONTINUOUS
 10
1383.175
 20
1411.419
 30
0.0
 11
1366.059
 21
1425.519
 31
0.0
  0
LINE
  5
124
  8
5
  6
CONTINUOUS
 10
1259.059
 20
1577.026
 30
0.0
 11
1259.059
 21
1600.026
 31
0.0
  0
LINE
  5
125
  8
5
  6
CONTINUOUS
 10
1383.175
 20
1433.497
 30
0.0
 11
1383.175
 21
1411.419
 31
0.0
  0
LINE
  5
126
  8
5
  6
CONTINUOUS
 10
1318.559
 20
1391.95
 30
0.0
 11
1326.559
 21
1399.017
 31
0.0
  0
LINE
  5
127
  8
5
  6
CONTINUOUS
 10
940.0591
 20
1600.026
 30
0.0
 11
940.0591
 21
1577.026
 31
0.0
  0
LINE
  5
128
  8
5
  6
CONTINUOUS
 10
1209.559
 20
1651.026
 30
0.0
 11
1259.059
 21
1600.026
 31
0.0
  0
LINE
  5
129
  8
5
  6
CONTINUOUS
 10
940.0591
 20
1600.026
 30
0.0
 11
989.5592
 21
1651.026
 31
0.0
  0
LINE
  5
12A
  8
5
  6
CONTINUOUS
 10
1259.059
 20
1600.026
 30
0.0
 11
1213.059
 21
1600.026
 31
0.0
  0
LINE
  5
12B
  8
5
  6
CONTINUOUS
 10
1346.559
 20
1399.017
 30
0.0
 11
1354.559
 21
1391.95
 31
0.0
  0
LINE
  5
12C
  8
5
  6
CONTINUOUS
 10
1326.559
 20
1399.017
 30
0.0
 11
1346.559
 21
1399.017
 31
0.0
  0
LINE
  5
12D
  8
5
  6
CONTINUOUS
 10
1366.059
 20
1425.519
 30
0.0
 11
1307.059
 21
1425.519
 31
0.0
  0
LINE
  5
12E
  8
5
  6
CONTINUOUS
 10
1307.059
 20
1443.197
 30
0.0
 11
1366.059
 21
1443.197
 31
0.0
  0
LINE
  5
12F
  8
5
  6
CONTINUOUS
 10
1318.559
 20
1382.166
 30
0.0
 11
1354.559
 21
1382.166
 31
0.0
  0
LINE
  5
130
  8
5
  6
CONTINUOUS
 10
1253.059
 20
1382.166
 30
0.0
 11
1285.387
 21
1382.166
 31
0.0
  0
LINE
  5
131
  8
5
  6
CONTINUOUS
 10
1208.046
 20
1403.764
 30
0.0
 11
991.0722
 21
1403.764
 31
0.0
  0
LINE
  5
132
  8
5
  6
CONTINUOUS
 10
1387.732
 20
1382.166
 30
0.0
 11
1404.059
 21
1382.166
 31
0.0
  0
LINE
  5
133
  8
5
  6
CONTINUOUS
 10
1386.715
 20
1402.736
 30
0.0
 11
1387.732
 21
1382.166
 31
0.0
  0
LINE
  5
134
  8
5
  6
CONTINUOUS
 10
1285.387
 20
1382.166
 30
0.0
 11
1286.404
 21
1402.736
 31
0.0
  0
LINE
  5
135
  8
5
  6
CONTINUOUS
 10
1289.943
 20
1411.419
 30
0.0
 11
1286.809
 21
1371.826
 31
0.0
  0
LINE
  5
136
  8
5
  6
CONTINUOUS
 10
1286.404
 20
1402.736
 30
0.0
 11
1289.943
 21
1433.497
 31
0.0
  0
LINE
  5
137
  8
5
  6
CONTINUOUS
 10
1386.715
 20
1402.736
 30
0.0
 11
1383.175
 21
1433.497
 31
0.0
  0
LINE
  5
138
  8
5
  6
CONTINUOUS
 10
1383.175
 20
1411.419
 30
0.0
 11
1386.309
 21
1371.826
 31
0.0
  0
LINE
  5
139
  8
5
  6
CONTINUOUS
 10
1318.559
 20
1371.826
 30
0.0
 11
1318.559
 21
1391.95
 31
0.0
  0
LINE
  5
13A
  8
5
  6
CONTINUOUS
 10
1354.559
 20
1391.95
 30
0.0
 11
1354.559
 21
1371.826
 31
0.0
  0
LINE
  5
13B
  8
5
  6
CONTINUOUS
 10
1604.559
 20
1082.226
 30
0.0
 11
1540.559
 21
998.7263
 31
0.0
  0
LINE
  5
13C
  8
5
  6
CONTINUOUS
 10
1604.559
 20
1362.226
 30
0.0
 11
1540.559
 21
1445.726
 31
0.0
  0
LINE
  5
13D
  8
5
  6
CONTINUOUS
 10
1604.559
 20
1362.226
 30
0.0
 11
1604.559
 21
1082.226
 31
0.0
  0
LINE
  5
13E
  8
5
  6
CONTINUOUS
 10
1613.559
 20
1082.226
 30
0.0
 11
1604.559
 21
1082.226
 31
0.0
  0
LINE
  5
13F
  8
5
  6
CONTINUOUS
 10
1613.559
 20
1362.226
 30
0.0
 11
1604.559
 21
1362.226
 31
0.0
  0
LINE
  5
140
  8
5
  6
CONTINUOUS
 10
1411.559
 20
1099.93
 30
0.0
 11
1472.059
 21
1099.93
 31
0.0
  0
LINE
  5
141
  8
5
  6
CONTINUOUS
 10
1472.059
 20
1344.522
 30
0.0
 11
1411.559
 21
1344.522
 31
0.0
  0
LINE
  5
142
  8
5
  6
CONTINUOUS
 10
1540.559
 20
1343.28
 30
0.0
 11
1472.059
 21
1343.28
 31
0.0
  0
LINE
  5
143
  8
5
  6
CONTINUOUS
 10
1472.059
 20
1101.173
 30
0.0
 11
1540.559
 21
1101.173
 31
0.0
  0
LINE
  5
144
  8
5
  6
CONTINUOUS
 10
986.0591
 20
1600.026
 30
0.0
 11
940.0591
 21
1600.026
 31
0.0
  0
LINE
  5
145
  8
5
  6
CONTINUOUS
 10
986.0591
 20
1631.526
 30
0.0
 11
1213.059
 21
1631.526
 31
0.0
  0
LINE
  5
147
  8
5
  6
CONTINUOUS
 10
985.5591
 20
1580.026
 30
0.0
 11
985.5591
 21
1532.026
 31
0.0
  0
LINE
  5
148
  8
6
  6
CENTER
 10
2093.234
 20
942.3327
 30
0.0
 11
2093.234
 21
1502.333
 31
0.0
  0
LINE
  5
149
  8
6
  6
CENTER
 10
1813.234
 20
1222.333
 30
0.0
 11
2373.234
 21
1222.333
 31
0.0
  0
LINE
  5
14A
  8
5
  6
CONTINUOUS
 10
1213.559
 20
1532.026
 30
0.0
 11
1213.559
 21
1580.026
 31
0.0
  0
LINE
  5
14B
  8
5
  6
CONTINUOUS
 10
1254.559
 20
1555.026
 30
0.0
 11
1254.559
 21
1577.026
 31
0.0
  0
LINE
  5
14C
  8
5
  6
CONTINUOUS
 10
944.5591
 20
1555.026
 30
0.0
 11
944.5591
 21
1577.026
 31
0.0
  0
LINE
  5
14D
  8
5
  6
CONTINUOUS
 10
986.0591
 20
1631.526
 30
0.0
 11
986.0591
 21
1580.026
 31
0.0
  0
LINE
  5
14E
  8
5
  6
CONTINUOUS
 10
1213.059
 20
1580.026
 30
0.0
 11
1213.059
 21
1631.526
 31
0.0
  0
LINE
  5
14F
  8
5
  6
CONTINUOUS
 10
940.0591
 20
1577.026
 30
0.0
 11
985.5591
 21
1577.026
 31
0.0
  0
LINE
  5
150
  8
5
  6
CONTINUOUS
 10
1213.559
 20
1577.026
 30
0.0
 11
1259.059
 21
1577.026
 31
0.0
  0
LINE
  5
151
  8
5
  6
CONTINUOUS
 10
1221.059
 20
1470.226
 30
0.0
 11
1206.059
 21
1470.226
 31
0.0
  0
LINE
  5
152
  8
5
  6
CONTINUOUS
 10
993.0591
 20
1470.226
 30
0.0
 11
1206.059
 21
1470.226
 31
0.0
  0
LINE
  5
153
  8
5
  6
CONTINUOUS
 10
993.0591
 20
1470.226
 30
0.0
 11
978.0591
 21
1470.226
 31
0.0
  0
LINE
  5
154
  8
5
  6
CONTINUOUS
 10
993.0592
 20
1506.526
 30
0.0
 11
993.0591
 21
1470.226
 31
0.0
  0
LINE
  5
155
  8
5
  6
CONTINUOUS
 10
1206.059
 20
1470.226
 30
0.0
 11
1206.059
 21
1506.526
 31
0.0
  0
LINE
  5
156
  8
5
  6
CONTINUOUS
 10
951.5591
 20
1530.526
 30
0.0
 11
1247.559
 21
1530.526
 31
0.0
  0
LINE
  5
157
  8
5
  6
CONTINUOUS
 10
1034.556
 20
1651.026
 30
0.0
 11
1034.556
 21
1655.226
 31
0.0
  0
LINE
  5
158
  8
7
  6
DASHED
 10
2344.234
 20
1112.833
 30
0.0
 11
2344.234
 21
1115.833
 31
0.0
  0
LINE
  5
159
  8
5
  6
CONTINUOUS
 10
2386.234
 20
1477.983
 30
0.0
 11
2386.234
 21
1597.983
 31
0.0
  0
LINE
  5
15A
  8
7
  6
DASHED
 10
2255.62
 20
1112.833
 30
0.0
 11
2344.234
 21
1112.833
 31
0.0
  0
LINE
  5
15B
  8
7
  6
DASHED
 10
2257.603
 20
1115.833
 30
0.0
 11
2344.234
 21
1115.833
 31
0.0
  0
LINE
  5
15C
  8
5
  6
CONTINUOUS
 10
1043.419
 20
1651.026
 30
0.0
 11
1043.419
 21
1655.226
 31
0.0
  0
LINE
  5
15D
  8
5
  6
CONTINUOUS
 10
1047.109
 20
1651.026
 30
0.0
 11
1047.109
 21
1655.226
 31
0.0
  0
LINE
  5
15E
  8
5
  6
CONTINUOUS
 10
1072.047
 20
1651.026
 30
0.0
 11
1072.047
 21
1655.226
 31
0.0
  0
LINE
  5
15F
  8
5
  6
CONTINUOUS
 10
1075.887
 20
1651.026
 30
0.0
 11
1075.887
 21
1655.226
 31
0.0
  0
LINE
  5
160
  8
5
  6
CONTINUOUS
 10
1085.387
 20
1651.026
 30
0.0
 11
1085.387
 21
1655.226
 31
0.0
  0
LINE
  5
161
  8
5
  6
CONTINUOUS
 10
2386.234
 20
1577.983
 30
0.0
 11
2403.554
 21
1587.983
 31
0.0
  0
LINE
  5
162
  8
5
  6
CONTINUOUS
 10
2386.234
 20
1558.327
 30
0.0
 11
2403.554
 21
1568.327
 31
0.0
  0
LINE
  5
163
  8
5
  6
CONTINUOUS
 10
2386.234
 20
1538.327
 30
0.0
 11
2403.554
 21
1548.327
 31
0.0
  0
LINE
  5
164
  8
5
  6
CONTINUOUS
 10
2386.234
 20
1518.327
 30
0.0
 11
2403.554
 21
1528.327
 31
0.0
  0
LINE
  5
165
  8
5
  6
CONTINUOUS
 10
2386.234
 20
1498.327
 30
0.0
 11
2403.554
 21
1508.327
 31
0.0
  0
LINE
  5
166
  8
6
  6
CENTER
 10
378.9286
 20
993.8327
 30
0.0
 11
378.9286
 21
1450.833
 31
0.0
  0
LINE
  5
167
  8
6
  6
CENTER
 10
150.4286
 20
1222.333
 30
0.0
 11
607.4286
 21
1222.333
 31
0.0
  0
LINE
  5
168
  8
6
  6
CENTER
 10
1638.559
 20
403.1061
 30
0.0
 11
1209.559
 21
403.106378
 31
0.0
  0
LINE
  5
169
  8
5
  6
CONTINUOUS
 10
1116.355
 20
1651.026
 30
0.0
 11
1116.355
 21
1655.226
 31
0.0
  0
LINE
  5
16A
  8
5
  6
CONTINUOUS
 10
1131.184
 20
1651.026
 30
0.0
 11
1131.184
 21
1655.226
 31
0.0
  0
LINE
  5
16B
  8
5
  6
CONTINUOUS
 10
1162.001
 20
1651.026
 30
0.0
 11
1162.001
 21
1655.226
 31
0.0
  0
LINE
  5
16C
  8
5
  6
CONTINUOUS
 10
1176.829
 20
1651.026
 30
0.0
 11
1176.829
 21
1655.226
 31
0.0
  0
LINE
  5
16D
  8
5
  6
CONTINUOUS
 10
1209.559
 20
1631.526
 30
0.0
 11
1209.559
 21
1651.026
 31
0.0
  0
LINE
  5
16E
  8
5
  6
CONTINUOUS
 10
989.5592
 20
1651.026
 30
0.0
 11
989.5592
 21
1631.526
 31
0.0
  0
LINE
  5
16F
  8
5
  6
CONTINUOUS
 10
173.8819
 20
1045.542
 30
0.0
 11
173.8819
 21
1045.542
 31
0.0
  0
LINE
  5
170
  8
5
  6
CONTINUOUS
 10
583.9753
 20
1045.542
 30
0.0
 11
583.9753
 21
1045.542
 31
0.0
  0
LINE
  5
171
  8
5
  6
CONTINUOUS
 10
583.9753
 20
1399.124
 30
0.0
 11
583.9753
 21
1399.124
 31
0.0
  0
LINE
  5
172
  8
5
  6
CONTINUOUS
 10
199.8299
 20
1425.072
 30
0.0
 11
199.8299
 21
1425.072
 31
0.0
  0
LINE
  5
173
  8
5
  6
CONTINUOUS
 10
257.4287
 20
1470.333
 30
0.0
 11
257.4287
 21
1506.633
 31
0.0
  0
LINE
  5
174
  8
5
  6
CONTINUOUS
 10
173.8819
 20
1399.124
 30
0.0
 11
173.8819
 21
1399.124
 31
0.0
  0
LINE
  5
175
  8
5
  6
CONTINUOUS
 10
859.5591
 20
1258.726
 30
0.0
 11
859.5591
 21
1253.455
 31
0.0
  0
LINE
  5
176
  8
5
  6
CONTINUOUS
 10
757.5591
 20
1258.726
 30
0.0
 11
757.5591
 21
1253.455
 31
0.0
  0
LINE
  5
177
  8
5
  6
CONTINUOUS
 10
500.4287
 20
1506.633
 30
0.0
 11
500.4287
 21
1470.333
 31
0.0
  0
LINE
  5
178
  8
5
  6
CONTINUOUS
 10
954.0591
 20
1003.226
 30
0.0
 11
979.369
 21
1003.226
 31
0.0
  0
LINE
  5
179
  8
5
  6
CONTINUOUS
 10
978.3699
 20
1441.226
 30
0.0
 11
954.0591
 21
1441.226
 31
0.0
  0
LINE
  5
17A
  8
5
  6
CONTINUOUS
 10
1253.059
 20
1441.226
 30
0.0
 11
1220.748
 21
1441.226
 31
0.0
  0
LINE
  5
17B
  8
5
  6
CONTINUOUS
 10
502.9286
 20
1506.633
 30
0.0
 11
254.9286
 21
1506.633
 31
0.0
  0
LINE
  5
17C
  8
5
  6
CONTINUOUS
 10
1411.559
 20
1441.226
 30
0.0
 11
1406.749
 21
1441.226
 31
0.0
  0
LINE
  5
17D
  8
5
  6
CONTINUOUS
 10
157.9577
 20
1019.04
 30
0.0
 11
166.4299
 21
1033.14
 31
0.0
  0
LINE
  5
17E
  8
5
  6
CONTINUOUS
 10
1208.046
 20
1403.764
 30
0.0
 11
1205.725
 21
1470.226
 31
0.0
  0
LINE
  5
17F
  8
5
  6
CONTINUOUS
 10
166.4299
 20
1033.14
 30
0.0
 11
182.9056
 21
1060.56
 31
0.0
  0
LINE
  5
180
  8
5
  6
CONTINUOUS
 10
230.9286
 20
1532.133
 30
0.0
 11
186.4286
 21
1532.133
 31
0.0
  0
LINE
  5
181
  8
5
  6
CONTINUOUS
 10
230.9286
 20
1530.633
 30
0.0
 11
230.9286
 21
1555.133
 31
0.0
  0
LINE
  5
182
  8
5
  6
CONTINUOUS
 10
533.9286
 20
1555.133
 30
0.0
 11
221.4286
 21
1555.133
 31
0.0
  0
LINE
  5
183
  8
5
  6
CONTINUOUS
 10
186.4286
 20
1532.133
 30
0.0
 11
186.4286
 21
1580.133
 31
0.0
  0
LINE
  5
184
  8
5
  6
CONTINUOUS
 10
230.9286
 20
1530.633
 30
0.0
 11
254.9286
 21
1506.633
 31
0.0
  0
LINE
  5
185
  8
5
  6
CONTINUOUS
 10
526.9286
 20
1530.633
 30
0.0
 11
502.9286
 21
1506.633
 31
0.0
  0
LINE
  5
186
  8
5
  6
CONTINUOUS
 10
526.9286
 20
1555.133
 30
0.0
 11
526.9286
 21
1530.633
 31
0.0
  0
LINE
  5
187
  8
5
  6
CONTINUOUS
 10
265.9285
 20
1651.133
 30
0.0
 11
488.9322
 21
1651.129
 31
0.0
  0
LINE
  5
188
  8
5
  6
CONTINUOUS
 10
379.0919
 20
1651.133
 30
0.0
 11
379.0919
 21
1655.333
 31
0.0
  0
LINE
  5
189
  8
5
  6
CONTINUOUS
 10
403.989
 20
1651.133
 30
0.0
 11
403.989
 21
1655.333
 31
0.0
  0
LINE
  5
18A
  8
5
  6
CONTINUOUS
 10
350.9254
 20
1651.133
 30
0.0
 11
350.9254
 21
1655.333
 31
0.0
  0
LINE
  5
18B
  8
5
  6
CONTINUOUS
 10
376.9921
 20
1651.133
 30
0.0
 11
376.9921
 21
1655.333
 31
0.0
  0
LINE
  5
18C
  8
5
  6
CONTINUOUS
 10
350.9254
 20
1655.333
 30
0.0
 11
350.9254
 21
1655.333
 31
0.0
  0
LINE
  5
18D
  8
5
  6
CONTINUOUS
 10
379.0919
 20
1655.333
 30
0.0
 11
379.0919
 21
1655.333
 31
0.0
  0
LINE
  5
18E
  8
5
  6
CONTINUOUS
 10
350.9254
 20
1655.333
 30
0.0
 11
350.9254
 21
1655.333
 31
0.0
  0
LINE
  5
18F
  8
5
  6
CONTINUOUS
 10
379.0919
 20
1655.333
 30
0.0
 11
379.0919
 21
1655.333
 31
0.0
  0
LINE
  5
190
  8
5
  6
CONTINUOUS
 10
379.0919
 20
1655.333
 30
0.0
 11
381.6467
 21
1655.333
 31
0.0
  0
LINE
  5
191
  8
5
  6
CONTINUOUS
 10
381.6467
 20
1655.333
 30
0.0
 11
393.5499
 21
1655.333
 31
0.0
  0
LINE
  5
192
  8
5
  6
CONTINUOUS
 10
393.5499
 20
1655.333
 30
0.0
 11
403.989
 21
1655.333
 31
0.0
  0
LINE
  5
193
  8
5
  6
CONTINUOUS
 10
350.9254
 20
1655.333
 30
0.0
 11
365.7544
 21
1655.333
 31
0.0
  0
LINE
  5
194
  8
5
  6
CONTINUOUS
 10
365.7544
 20
1655.333
 30
0.0
 11
376.9921
 21
1655.333
 31
0.0
  0
LINE
  5
195
  8
5
  6
CONTINUOUS
 10
538.4286
 20
1600.133
 30
0.0
 11
538.4286
 21
1577.133
 31
0.0
  0
LINE
  5
196
  8
5
  6
CONTINUOUS
 10
538.4286
 20
1600.133
 30
0.0
 11
488.9287
 21
1600.133
 31
0.0
  0
LINE
  5
197
  8
5
  6
CONTINUOUS
 10
488.9322
 20
1651.129
 30
0.0
 11
538.4286
 21
1600.133
 31
0.0
  0
LINE
  5
198
  8
5
  6
CONTINUOUS
 10
265.9286
 20
1600.133
 30
0.0
 11
216.4286
 21
1600.133
 31
0.0
  0
LINE
  5
199
  8
5
  6
CONTINUOUS
 10
246.9997
 20
1631.633
 30
0.0
 11
265.9285
 21
1651.133
 31
0.0
  0
LINE
  5
19A
  8
5
  6
CONTINUOUS
 10
187.4286
 20
1631.633
 30
0.0
 11
250.4975
 21
1631.633
 31
0.0
  0
LINE
  5
19B
  8
5
  6
CONTINUOUS
 10
186.4286
 20
1580.133
 30
0.0
 11
216.4286
 21
1580.133
 31
0.0
  0
LINE
  5
19C
  8
5
  6
CONTINUOUS
 10
221.4286
 20
1555.133
 30
0.0
 11
221.4286
 21
1577.133
 31
0.0
  0
LINE
  5
19D
  8
5
  6
CONTINUOUS
 10
533.9286
 20
1577.133
 30
0.0
 11
533.9286
 21
1555.133
 31
0.0
  0
LINE
  5
19E
  8
5
  6
CONTINUOUS
 10
187.4286
 20
1580.133
 30
0.0
 11
187.4286
 21
1631.633
 31
0.0
  0
LINE
  5
19F
  8
5
  6
CONTINUOUS
 10
216.4286
 20
1577.133
 30
0.0
 11
216.4286
 21
1600.133
 31
0.0
  0
LINE
  5
1A0
  8
5
  6
CONTINUOUS
 10
538.4286
 20
1577.133
 30
0.0
 11
216.4286
 21
1577.133
 31
0.0
  0
LINE
  5
1A1
  8
5
  6
CONTINUOUS
 10
500.4287
 20
1470.333
 30
0.0
 11
485.4287
 21
1470.333
 31
0.0
  0
LINE
  5
1A2
  8
5
  6
CONTINUOUS
 10
485.4287
 20
1470.333
 30
0.0
 11
272.4287
 21
1470.333
 31
0.0
  0
LINE
  5
1A3
  8
5
  6
CONTINUOUS
 10
272.4287
 20
1470.333
 30
0.0
 11
257.4287
 21
1470.333
 31
0.0
  0
LINE
  5
1A4
  8
5
  6
CONTINUOUS
 10
272.4286
 20
1506.633
 30
0.0
 11
272.4287
 21
1470.333
 31
0.0
  0
LINE
  5
1A5
  8
5
  6
CONTINUOUS
 10
485.4287
 20
1470.333
 30
0.0
 11
485.4286
 21
1506.633
 31
0.0
  0
LINE
  5
1A6
  8
5
  6
CONTINUOUS
 10
230.9286
 20
1530.633
 30
0.0
 11
526.9286
 21
1530.633
 31
0.0
  0
LINE
  5
1A7
  8
5
  6
CONTINUOUS
 10
381.6467
 20
1651.133
 30
0.0
 11
381.6467
 21
1655.333
 31
0.0
  0
LINE
  5
1A8
  8
5
  6
CONTINUOUS
 10
393.5499
 20
1651.133
 30
0.0
 11
393.5499
 21
1655.333
 31
0.0
  0
LINE
  5
1A9
  8
5
  6
CONTINUOUS
 10
403.989
 20
1651.133
 30
0.0
 11
403.989
 21
1651.133
 31
0.0
  0
LINE
  5
1AA
  8
5
  6
CONTINUOUS
 10
259.6765
 20
986.8327
 30
0.0
 11
264.2286
 21
982.3327
 31
0.0
  0
LINE
  5
1AB
  8
5
  6
CONTINUOUS
 10
493.6286
 20
982.3327
 30
0.0
 11
498.1808
 21
986.8327
 31
0.0
  0
LINE
  5
1AC
  8
5
  6
CONTINUOUS
 10
591.4273
 20
1033.14
 30
0.0
 11
574.9516
 21
1060.56
 31
0.0
  0
LINE
  5
1AD
  8
5
  6
CONTINUOUS
 10
591.4273
 20
1033.14
 30
0.0
 11
599.8995
 21
1019.04
 31
0.0
  0
LINE
  5
1AE
  8
5
  6
CONTINUOUS
 10
403.989
 20
1655.333
 30
0.0
 11
403.989
 21
1655.333
 31
0.0
  0
LINE
  5
1AF
  8
5
  6
CONTINUOUS
 10
213.5402
 20
1029.925
 30
0.0
 11
188.5077
 21
1011.062
 31
0.0
  0
LINE
  5
1B0
  8
5
  6
CONTINUOUS
 10
188.5077
 20
1011.062
 30
0.0
 11
175.6354
 21
1001.362
 31
0.0
  0
LINE
  5
1B1
  8
5
  6
CONTINUOUS
 10
175.6354
 20
1001.362
 30
0.0
 11
157.9577
 21
1019.04
 31
0.0
  0
LINE
  5
1B2
  8
5
  6
CONTINUOUS
 10
365.7544
 20
1651.133
 30
0.0
 11
365.7544
 21
1655.333
 31
0.0
  0
LINE
  5
1B3
  8
5
  6
CONTINUOUS
 10
488.9287
 20
1600.133
 30
0.0
 11
265.9286
 21
1600.133
 31
0.0
  0
ARC
  5
1B4
  8
5
  6
CONTINUOUS
 10
147.9587
 20
1318.004
 30
0.0
 40
9.25
 50
167.4823
 51
192.5177
  0
ARC
  5
1B5
  8
5
  6
CONTINUOUS
 10
147.9587
 20
1126.662
 30
0.0
 40
9.25
 50
167.4823
 51
192.5177
  0
ARC
  5
1B6
  8
5
  6
CONTINUOUS
 10
283.2578
 20
991.3628
 30
0.0
 40
9.25
 50
257.4822
 51
282.5178
  0
ARC
  5
1B7
  8
5
  6
CONTINUOUS
 10
474.5995
 20
991.3628
 30
0.0
 40
9.25
 50
257.4822
 51
282.5178
  0
ARC
  5
1B8
  8
5
  6
CONTINUOUS
 10
609.8985
 20
1126.662
 30
0.0
 40
9.25
 50
347.4822
 51
12.5178
  0
ARC
  5
1B9
  8
5
  6
CONTINUOUS
 10
609.8985
 20
1318.004
 30
0.0
 40
9.25
 50
347.4822
 51
12.5178
  0
LINE
  5
1BA
  8
5
  6
CONTINUOUS
 10
127.9286
 20
1115.833
 30
0.0
 11
127.9286
 21
1112.833
 31
0.0
  0
ARC
  5
1BB
  8
5
  6
CONTINUOUS
 10
378.9286
 20
1222.333
 30
0.0
 40
275.0
 50
115.9179
 51
131.6479
  0
ARC
  5
1BC
  8
5
  6
CONTINUOUS
 10
378.9286
 20
1222.333
 30
0.0
 40
275.0
 50
138.9399
 51
221.0601
  0
ARC
  5
1BD
  8
5
  6
CONTINUOUS
 10
378.9286
 20
1222.333
 30
0.0
 40
275.0
 50
228.3521
 51
311.6479
  0
ARC
  5
1BE
  8
5
  6
CONTINUOUS
 10
378.9286
 20
1222.333
 30
0.0
 40
275.0
 50
318.9399
 51
41.0601
  0
ARC
  5
1BF
  8
5
  6
CONTINUOUS
 10
378.9286
 20
1222.333
 30
0.0
 40
275.0
 50
48.35208
 51
64.08214
  0
LINE
  5
1C0
  8
5
  6
CONTINUOUS
 10
282.5286
 20
982.3327
 30
0.0
 11
264.2286
 21
982.3327
 31
0.0
  0
LINE
  5
1C1
  8
5
  6
CONTINUOUS
 10
475.3286
 20
982.3327
 30
0.0
 11
458.3286
 21
982.3327
 31
0.0
  0
LINE
  5
1C2
  8
5
  6
CONTINUOUS
 10
443.3286
 20
982.3327
 30
0.0
 11
428.3286
 21
982.3327
 31
0.0
  0
LINE
  5
1C3
  8
5
  6
CONTINUOUS
 10
413.4286
 20
982.3327
 30
0.0
 11
396.2286
 21
982.3327
 31
0.0
  0
LINE
  5
1C4
  8
5
  6
CONTINUOUS
 10
314.5286
 20
982.3327
 30
0.0
 11
299.5286
 21
982.3327
 31
0.0
  0
LINE
  5
1C5
  8
5
  6
CONTINUOUS
 10
344.4286
 20
982.3327
 30
0.0
 11
329.5286
 21
982.3327
 31
0.0
  0
LINE
  5
1C6
  8
5
  6
CONTINUOUS
 10
378.9286
 20
982.3327
 30
0.0
 11
361.6286
 21
982.3327
 31
0.0
  0
LINE
  5
1C7
  8
5
  6
CONTINUOUS
 10
299.5286
 20
982.3327
 30
0.0
 11
282.5286
 21
982.3327
 31
0.0
  0
LINE
  5
1C8
  8
5
  6
CONTINUOUS
 10
493.6286
 20
982.3327
 30
0.0
 11
475.3286
 21
982.3327
 31
0.0
  0
LINE
  5
1C9
  8
5
  6
CONTINUOUS
 10
458.3286
 20
982.3327
 30
0.0
 11
443.3286
 21
982.3327
 31
0.0
  0
LINE
  5
1CA
  8
5
  6
CONTINUOUS
 10
428.3286
 20
982.3327
 30
0.0
 11
413.4286
 21
982.3327
 31
0.0
  0
LINE
  5
1CB
  8
5
  6
CONTINUOUS
 10
396.2286
 20
982.3327
 30
0.0
 11
378.9286
 21
982.3327
 31
0.0
  0
LINE
  5
1CC
  8
5
  6
CONTINUOUS
 10
329.5286
 20
982.3327
 30
0.0
 11
314.5286
 21
982.3327
 31
0.0
  0
LINE
  5
1CD
  8
5
  6
CONTINUOUS
 10
361.6286
 20
982.3327
 30
0.0
 11
344.4286
 21
982.3327
 31
0.0
  0
LINE
  5
1CE
  8
5
  6
CONTINUOUS
 10
488.9287
 20
1600.133
 30
0.0
 11
488.9322
 21
1651.129
 31
0.0
  0
LINE
  5
1CF
  8
5
  6
CONTINUOUS
 10
265.9285
 20
1651.133
 30
0.0
 11
265.9286
 21
1600.133
 31
0.0
  0
LINE
  5
1D0
  8
5
  6
CONTINUOUS
 10
250.4975
 20
1631.633
 30
0.0
 11
219.9286
 21
1600.133
 31
0.0
  0
LINE
  5
1D1
  8
5
  6
CONTINUOUS
 10
985.5592
 20
210.6066
 30
0.0
 11
1213.559
 21
210.6066
 31
0.0
  0
LINE
  5
1D2
  8
5
  6
CONTINUOUS
 10
1052.759
 20
428.1633
 30
0.0
 11
1044.218
 21
403.2658
 31
0.0
  0
LINE
  5
1D3
  8
5
  6
CONTINUOUS
 10
1044.218
 20
403.2658
 30
0.0
 11
1058.553
 21
403.2663
 31
0.0
  0
LINE
  5
1D4
  8
5
  6
CONTINUOUS
 10
1058.553
 20
403.2663
 30
0.0
 11
1058.552
 21
428.1635
 31
0.0
  0
LINE
  5
1D5
  8
5
  6
CONTINUOUS
 10
1058.552
 20
428.1635
 30
0.0
 11
1052.759
 21
428.1633
 31
0.0
  0
LINE
  5
1D6
  8
5
  6
CONTINUOUS
 10
1058.554
 20
385.8574
 30
0.0
 11
1058.553
 21
401.1663
 31
0.0
  0
LINE
  5
1D7
  8
5
  6
CONTINUOUS
 10
599.8995
 20
1019.04
 30
0.0
 11
582.2218
 21
1001.362
 31
0.0
  0
LINE
  5
1D8
  8
5
  6
CONTINUOUS
 10
582.2218
 20
1001.362
 30
0.0
 11
569.3495
 21
1011.062
 31
0.0
  0
LINE
  5
1D9
  8
5
  6
CONTINUOUS
 10
544.3171
 20
1029.925
 30
0.0
 11
569.3495
 21
1011.062
 31
0.0
  0
LINE
  5
1DA
  8
5
  6
CONTINUOUS
 10
1058.553
 20
401.1663
 30
0.0
 11
1043.498
 21
401.1658
 31
0.0
  0
LINE
  5
1DB
  8
5
  6
CONTINUOUS
 10
1043.498
 20
401.1658
 30
0.0
 11
1034.556
 21
375.0992
 31
0.0
  0
LINE
  5
1DC
  8
5
  6
CONTINUOUS
 10
166.4299
 20
1033.14
 30
0.0
 11
188.5077
 21
1011.062
 31
0.0
  0
LINE
  5
1DD
  8
5
  6
CONTINUOUS
 10
361.6287
 20
986.8327
 30
0.0
 11
361.6287
 21
982.3328
 31
0.0
  0
LINE
  5
1DE
  8
5
  6
CONTINUOUS
 10
378.9286
 20
982.3328
 30
0.0
 11
378.9286
 21
986.8327
 31
0.0
  0
LINE
  5
1DF
  8
5
  6
CONTINUOUS
 10
329.5287
 20
986.8327
 30
0.0
 11
329.5287
 21
982.3328
 31
0.0
  0
LINE
  5
1E0
  8
5
  6
CONTINUOUS
 10
1034.556
 20
375.0992
 30
0.0
 11
1043.419
 21
375.0995
 31
0.0
  0
LINE
  5
1E1
  8
5
  6
CONTINUOUS
 10
344.4287
 20
982.3328
 30
0.0
 11
344.4287
 21
986.8327
 31
0.0
  0
LINE
  5
1E2
  8
5
  6
CONTINUOUS
 10
299.5287
 20
986.8327
 30
0.0
 11
299.5287
 21
982.3328
 31
0.0
  0
LINE
  5
1E3
  8
5
  6
CONTINUOUS
 10
314.5286
 20
982.3328
 30
0.0
 11
314.5286
 21
986.8327
 31
0.0
  0
LINE
  5
1E4
  8
5
  6
CONTINUOUS
 10
396.2287
 20
986.8327
 30
0.0
 11
396.2287
 21
982.3328
 31
0.0
  0
LINE
  5
1E5
  8
5
  6
CONTINUOUS
 10
413.4287
 20
982.3328
 30
0.0
 11
413.4287
 21
986.8327
 31
0.0
  0
LINE
  5
1E6
  8
5
  6
CONTINUOUS
 10
428.3287
 20
986.8327
 30
0.0
 11
428.3287
 21
982.3328
 31
0.0
  0
LINE
  5
1E7
  8
5
  6
CONTINUOUS
 10
443.3286
 20
982.3328
 30
0.0
 11
443.3286
 21
986.8327
 31
0.0
  0
LINE
  5
1E8
  8
5
  6
CONTINUOUS
 10
458.3287
 20
986.8327
 30
0.0
 11
458.3287
 21
982.3328
 31
0.0
  0
LINE
  5
1E9
  8
5
  6
CONTINUOUS
 10
475.3287
 20
982.3328
 30
0.0
 11
475.3287
 21
986.8327
 31
0.0
  0
LINE
  5
1EA
  8
5
  6
CONTINUOUS
 10
264.2286
 20
986.8327
 30
0.0
 11
264.2286
 21
982.3328
 31
0.0
  0
LINE
  5
1EB
  8
5
  6
CONTINUOUS
 10
1043.419
 20
375.0995
 30
0.0
 11
1047.109
 21
385.857
 31
0.0
  0
LINE
  5
1EC
  8
5
  6
CONTINUOUS
 10
1047.109
 20
385.857
 30
0.0
 11
1058.554
 21
385.8574
 31
0.0
  0
LINE
  5
1ED
  8
5
  6
CONTINUOUS
 10
1060.653
 20
403.2663
 30
0.0
 11
1075.333
 21
403.2669
 31
0.0
  0
LINE
  5
1EE
  8
5
  6
CONTINUOUS
 10
1075.333
 20
403.2669
 30
0.0
 11
1066.445
 21
428.1638
 31
0.0
  0
LINE
  5
1EF
  8
5
  6
CONTINUOUS
 10
1066.445
 20
428.1638
 30
0.0
 11
1060.652
 21
428.1636
 31
0.0
  0
LINE
  5
1F0
  8
5
  6
CONTINUOUS
 10
1060.652
 20
428.1636
 30
0.0
 11
1060.653
 21
403.2663
 31
0.0
  0
LINE
  5
1F1
  8
5
  6
CONTINUOUS
 10
1076.082
 20
401.1669
 30
0.0
 11
1060.653
 21
401.1663
 31
0.0
  0
LINE
  5
1F2
  8
5
  6
CONTINUOUS
 10
1060.653
 20
401.1663
 30
0.0
 11
1060.654
 21
385.8574
 31
0.0
  0
LINE
  5
1F3
  8
5
  6
CONTINUOUS
 10
1060.654
 20
385.8574
 30
0.0
 11
1072.047
 21
385.8579
 31
0.0
  0
LINE
  5
1F4
  8
5
  6
CONTINUOUS
 10
1072.047
 20
385.8579
 30
0.0
 11
1075.887
 21
375.1006
 31
0.0
  0
LINE
  5
1F5
  8
5
  6
CONTINUOUS
 10
282.5286
 20
982.3328
 30
0.0
 11
282.5286
 21
986.8327
 31
0.0
  0
LINE
  5
1F6
  8
5
  6
CONTINUOUS
 10
1075.887
 20
375.1006
 30
0.0
 11
1085.387
 21
375.1009
 31
0.0
  0
LINE
  5
1F7
  8
5
  6
CONTINUOUS
 10
493.6286
 20
986.8327
 30
0.0
 11
493.6286
 21
982.3328
 31
0.0
  0
LINE
  5
1F8
  8
5
  6
CONTINUOUS
 10
569.3495
 20
1011.062
 30
0.0
 11
591.4273
 21
1033.14
 31
0.0
  0
LINE
  5
1F9
  8
5
  6
CONTINUOUS
 10
127.9287
 20
1112.833
 30
0.0
 11
138.9286
 21
1112.833
 31
0.0
  0
LINE
  5
1FA
  8
5
  6
CONTINUOUS
 10
138.9286
 20
1115.833
 30
0.0
 11
127.9287
 21
1115.833
 31
0.0
  0
LINE
  5
1FB
  8
5
  6
CONTINUOUS
 10
1085.387
 20
375.1009
 30
0.0
 11
1076.082
 21
401.1669
 31
0.0
  0
LINE
  5
1FC
  8
5
  6
CONTINUOUS
 10
954.0592
 20
622.1067
 30
0.0
 11
954.0592
 21
562.6068
 31
0.0
  0
LINE
  5
1FD
  8
5
  6
CONTINUOUS
 10
954.0592
 20
240.6066
 30
0.0
 11
954.0592
 21
184.1067
 31
0.0
  0
LINE
  5
1FE
  8
5
  6
CONTINUOUS
 10
896.5592
 20
403.1067
 30
0.0
 11
896.5592
 21
128.1067
 31
0.0
  0
LINE
  5
1FF
  8
5
  6
CONTINUOUS
 10
1109.452
 20
428.1653
 30
0.0
 11
1095.673
 21
428.1648
 31
0.0
  0
LINE
  5
200
  8
5
  6
CONTINUOUS
 10
1095.673
 20
428.1648
 30
0.0
 11
1095.674
 21
403.2675
 31
0.0
  0
LINE
  5
201
  8
5
  6
CONTINUOUS
 10
1095.674
 20
403.2676
 30
0.0
 11
1109.453
 21
403.268
 31
0.0
  0
LINE
  5
202
  8
5
  6
CONTINUOUS
 10
1109.453
 20
403.268
 30
0.0
 11
1109.452
 21
428.1653
 31
0.0
  0
LINE
  5
203
  8
5
  6
CONTINUOUS
 10
1109.453
 20
401.168
 30
0.0
 11
1095.674
 21
401.1676
 31
0.0
  0
LINE
  5
204
  8
5
  6
CONTINUOUS
 10
1095.674
 20
401.1676
 30
0.0
 11
1095.675
 21
375.1012
 31
0.0
  0
LINE
  5
205
  8
5
  6
CONTINUOUS
 10
1095.675
 20
375.1012
 30
0.0
 11
1109.454
 21
375.1018
 31
0.0
  0
LINE
  5
206
  8
5
  6
CONTINUOUS
 10
1109.454
 20
375.1018
 30
0.0
 11
1109.453
 21
401.168
 31
0.0
  0
LINE
  5
207
  8
5
  6
CONTINUOUS
 10
1126.13
 20
401.1685
 30
0.0
 11
1111.553
 21
401.168
 31
0.0
  0
LINE
  5
208
  8
5
  6
CONTINUOUS
 10
896.5592
 20
678.1067
 30
0.0
 11
896.5592
 21
403.1067
 31
0.0
  0
LINE
  5
209
  8
5
  6
CONTINUOUS
 10
878.5592
 20
403.1067
 30
0.0
 11
878.5592
 21
128.1067
 31
0.0
  0
LINE
  5
20A
  8
5
  6
CONTINUOUS
 10
878.5592
 20
678.1067
 30
0.0
 11
878.5592
 21
403.1067
 31
0.0
  0
LINE
  5
20B
  8
5
  6
CONTINUOUS
 10
902.5592
 20
152.1067
 30
0.0
 11
904.0592
 21
152.1067
 31
0.0
  0
LINE
  5
20C
  8
5
  6
CONTINUOUS
 10
901.0592
 20
152.1067
 30
0.0
 11
902.5592
 21
152.1067
 31
0.0
  0
LINE
  5
20D
  8
5
  6
CONTINUOUS
 10
873.5592
 20
403.1067
 30
0.0
 11
873.5592
 21
178.1067
 31
0.0
  0
LINE
  5
20E
  8
5
  6
CONTINUOUS
 10
873.5592
 20
628.1067
 30
0.0
 11
873.5592
 21
403.1067
 31
0.0
  0
LINE
  5
20F
  8
5
  6
CONTINUOUS
 10
544.3171
 20
1414.74
 30
0.0
 11
569.3495
 21
1433.604
 31
0.0
  0
LINE
  5
210
  8
5
  6
CONTINUOUS
 10
569.3495
 20
1433.604
 30
0.0
 11
582.2218
 21
1443.304
 31
0.0
  0
LINE
  5
211
  8
5
  6
CONTINUOUS
 10
599.8995
 20
1425.626
 30
0.0
 11
591.4273
 21
1411.526
 31
0.0
  0
LINE
  5
212
  8
5
  6
CONTINUOUS
 10
591.4273
 20
1411.526
 30
0.0
 11
574.9516
 21
1384.106
 31
0.0
  0
LINE
  5
213
  8
5
  6
CONTINUOUS
 10
582.2218
 20
1443.304
 30
0.0
 11
599.8995
 21
1425.626
 31
0.0
  0
LINE
  5
214
  8
5
  6
CONTINUOUS
 10
498.2677
 20
1457.833
 30
0.0
 11
493.7286
 21
1462.333
 31
0.0
  0
LINE
  5
215
  8
5
  6
CONTINUOUS
 10
264.0286
 20
1462.234
 30
0.0
 11
259.5895
 21
1457.833
 31
0.0
  0
LINE
  5
216
  8
5
  6
CONTINUOUS
 10
264.1286
 20
1462.333
 30
0.0
 11
264.0286
 21
1462.234
 31
0.0
  0
LINE
  5
217
  8
5
  6
CONTINUOUS
 10
475.2286
 20
1462.333
 30
0.0
 11
493.5286
 21
1462.333
 31
0.0
  0
LINE
  5
218
  8
5
  6
CONTINUOUS
 10
443.2286
 20
1462.333
 30
0.0
 11
458.2286
 21
1462.333
 31
0.0
  0
LINE
  5
219
  8
5
  6
CONTINUOUS
 10
413.3286
 20
1462.333
 30
0.0
 11
428.2286
 21
1462.333
 31
0.0
  0
LINE
  5
21A
  8
5
  6
CONTINUOUS
 10
378.8286
 20
1462.333
 30
0.0
 11
396.1286
 21
1462.333
 31
0.0
  0
LINE
  5
21B
  8
5
  6
CONTINUOUS
 10
344.3286
 20
1462.333
 30
0.0
 11
361.5286
 21
1462.333
 31
0.0
  0
LINE
  5
21C
  8
5
  6
CONTINUOUS
 10
314.4286
 20
1462.333
 30
0.0
 11
329.4286
 21
1462.333
 31
0.0
  0
LINE
  5
21D
  8
5
  6
CONTINUOUS
 10
282.4286
 20
1462.333
 30
0.0
 11
299.4286
 21
1462.333
 31
0.0
  0
LINE
  5
21E
  8
5
  6
CONTINUOUS
 10
493.5286
 20
1462.333
 30
0.0
 11
493.7286
 21
1462.333
 31
0.0
  0
LINE
  5
21F
  8
5
  6
CONTINUOUS
 10
458.2286
 20
1462.333
 30
0.0
 11
475.2286
 21
1462.333
 31
0.0
  0
LINE
  5
220
  8
5
  6
CONTINUOUS
 10
428.2286
 20
1462.333
 30
0.0
 11
443.2286
 21
1462.333
 31
0.0
  0
LINE
  5
221
  8
5
  6
CONTINUOUS
 10
396.1286
 20
1462.333
 30
0.0
 11
413.3286
 21
1462.333
 31
0.0
  0
LINE
  5
222
  8
5
  6
CONTINUOUS
 10
361.5286
 20
1462.333
 30
0.0
 11
378.8286
 21
1462.333
 31
0.0
  0
LINE
  5
223
  8
5
  6
CONTINUOUS
 10
329.4286
 20
1462.333
 30
0.0
 11
344.3286
 21
1462.333
 31
0.0
  0
LINE
  5
224
  8
5
  6
CONTINUOUS
 10
299.4286
 20
1462.333
 30
0.0
 11
314.4286
 21
1462.333
 31
0.0
  0
LINE
  5
225
  8
5
  6
CONTINUOUS
 10
264.1286
 20
1462.333
 30
0.0
 11
282.4286
 21
1462.333
 31
0.0
  0
LINE
  5
226
  8
5
  6
CONTINUOUS
 10
614.4286
 20
1103.081
 30
0.0
 11
618.9286
 21
1107.633
 31
0.0
  0
LINE
  5
227
  8
5
  6
CONTINUOUS
 10
618.9286
 20
1337.033
 30
0.0
 11
614.4286
 21
1341.585
 31
0.0
  0
LINE
  5
228
  8
5
  6
CONTINUOUS
 10
138.9286
 20
1107.233
 30
0.0
 11
143.4286
 21
1102.784
 31
0.0
  0
LINE
  5
229
  8
5
  6
CONTINUOUS
 10
143.4286
 20
1341.585
 30
0.0
 11
138.9286
 21
1337.033
 31
0.0
  0
LINE
  5
22A
  8
5
  6
CONTINUOUS
 10
618.9286
 20
1222.333
 30
0.0
 11
618.9286
 21
1205.033
 31
0.0
  0
LINE
  5
22B
  8
5
  6
CONTINUOUS
 10
954.0592
 20
621.6179
 30
0.0
 11
896.5593
 21
619.6099
 31
0.0
  0
LINE
  5
22C
  8
5
  6
CONTINUOUS
 10
896.5593
 20
186.6035
 30
0.0
 11
954.0592
 21
184.5956
 31
0.0
  0
LINE
  5
22D
  8
5
  6
CONTINUOUS
 10
901.0592
 20
186.4464
 30
0.0
 11
901.0592
 21
152.1067
 31
0.0
  0
LINE
  5
22E
  8
5
  6
CONTINUOUS
 10
904.0591
 20
152.1067
 30
0.0
 11
904.0592
 21
186.3416
 31
0.0
  0
LINE
  5
22F
  8
5
  6
CONTINUOUS
 10
618.9286
 20
1256.833
 30
0.0
 11
618.9286
 21
1239.633
 31
0.0
  0
LINE
  5
230
  8
5
  6
CONTINUOUS
 10
873.5592
 20
178.1067
 30
0.0
 11
878.5593
 21
178.1067
 31
0.0
  0
LINE
  5
231
  8
5
  6
CONTINUOUS
 10
878.5593
 20
628.1066
 30
0.0
 11
873.5592
 21
628.1067
 31
0.0
  0
LINE
  5
232
  8
5
  6
CONTINUOUS
 10
618.9286
 20
1286.733
 30
0.0
 11
618.9286
 21
1271.833
 31
0.0
  0
LINE
  5
233
  8
5
  6
CONTINUOUS
 10
878.5593
 20
128.1066
 30
0.0
 11
896.5593
 21
128.1066
 31
0.0
  0
LINE
  5
234
  8
5
  6
CONTINUOUS
 10
618.9286
 20
1318.733
 30
0.0
 11
618.9286
 21
1301.733
 31
0.0
  0
LINE
  5
235
  8
5
  6
CONTINUOUS
 10
618.9286
 20
1187.833
 30
0.0
 11
618.9286
 21
1172.933
 31
0.0
  0
LINE
  5
236
  8
5
  6
CONTINUOUS
 10
896.5592
 20
678.1067
 30
0.0
 11
878.5592
 21
678.1067
 31
0.0
  0
LINE
  5
237
  8
5
  6
CONTINUOUS
 10
618.9286
 20
1157.933
 30
0.0
 11
618.9286
 21
1142.933
 31
0.0
  0
LINE
  5
238
  8
5
  6
CONTINUOUS
 10
618.9286
 20
1125.933
 30
0.0
 11
618.9286
 21
1107.633
 31
0.0
  0
LINE
  5
239
  8
5
  6
CONTINUOUS
 10
618.9286
 20
1205.033
 30
0.0
 11
618.9286
 21
1187.833
 31
0.0
  0
LINE
  5
23A
  8
5
  6
CONTINUOUS
 10
618.9286
 20
1239.633
 30
0.0
 11
618.9286
 21
1222.333
 31
0.0
  0
LINE
  5
23B
  8
5
  6
CONTINUOUS
 10
618.9286
 20
1271.833
 30
0.0
 11
618.9286
 21
1256.833
 31
0.0
  0
LINE
  5
23C
  8
5
  6
CONTINUOUS
 10
618.9286
 20
1301.733
 30
0.0
 11
618.9286
 21
1286.733
 31
0.0
  0
LINE
  5
23D
  8
5
  6
CONTINUOUS
 10
618.9286
 20
1337.033
 30
0.0
 11
618.9286
 21
1318.733
 31
0.0
  0
LINE
  5
23E
  8
5
  6
CONTINUOUS
 10
618.9286
 20
1172.933
 30
0.0
 11
618.9286
 21
1157.933
 31
0.0
  0
LINE
  5
23F
  8
5
  6
CONTINUOUS
 10
618.9286
 20
1142.933
 30
0.0
 11
618.9286
 21
1125.933
 31
0.0
  0
LINE
  5
240
  8
5
  6
CONTINUOUS
 10
138.9286
 20
1107.633
 30
0.0
 11
138.9286
 21
1125.933
 31
0.0
  0
LINE
  5
241
  8
5
  6
CONTINUOUS
 10
138.9286
 20
1142.933
 30
0.0
 11
138.9286
 21
1157.933
 31
0.0
  0
LINE
  5
242
  8
5
  6
CONTINUOUS
 10
138.9286
 20
1172.933
 30
0.0
 11
138.9286
 21
1187.833
 31
0.0
  0
LINE
  5
243
  8
5
  6
CONTINUOUS
 10
138.9286
 20
1301.733
 30
0.0
 11
138.9286
 21
1318.733
 31
0.0
  0
LINE
  5
244
  8
5
  6
CONTINUOUS
 10
138.9286
 20
1271.833
 30
0.0
 11
138.9286
 21
1286.733
 31
0.0
  0
LINE
  5
245
  8
5
  6
CONTINUOUS
 10
138.9286
 20
1239.633
 30
0.0
 11
138.9286
 21
1256.833
 31
0.0
  0
LINE
  5
246
  8
5
  6
CONTINUOUS
 10
138.9286
 20
1205.033
 30
0.0
 11
138.9286
 21
1222.333
 31
0.0
  0
LINE
  5
247
  8
5
  6
CONTINUOUS
 10
138.9286
 20
1125.933
 30
0.0
 11
138.9286
 21
1142.933
 31
0.0
  0
LINE
  5
248
  8
5
  6
CONTINUOUS
 10
138.9286
 20
1107.233
 30
0.0
 11
138.9286
 21
1107.633
 31
0.0
  0
LINE
  5
249
  8
5
  6
CONTINUOUS
 10
1411.559
 20
622.1067
 30
0.0
 11
1406.749
 21
622.1067
 31
0.0
  0
LINE
  5
24A
  8
5
  6
CONTINUOUS
 10
965.369
 20
622.1067
 30
0.0
 11
954.0592
 21
622.1067
 31
0.0
  0
LINE
  5
24B
  8
5
  6
CONTINUOUS
 10
954.0592
 20
184.1067
 30
0.0
 11
965.3691
 21
184.1067
 31
0.0
  0
LINE
  5
24C
  8
5
  6
CONTINUOUS
 10
2305.732
 20
1033.14
 30
0.0
 11
2300.589
 21
1041.699
 31
0.0
  0
LINE
  5
24D
  8
5
  6
CONTINUOUS
 10
2305.732
 20
1033.14
 30
0.0
 11
2314.205
 21
1019.04
 31
0.0
  0
LINE
  5
24E
  8
5
  6
CONTINUOUS
 10
1872.263
 20
1019.04
 30
0.0
 11
1880.735
 21
1033.14
 31
0.0
  0
LINE
  5
24F
  8
5
  6
CONTINUOUS
 10
1880.735
 20
1033.14
 30
0.0
 11
1885.878
 21
1041.699
 31
0.0
  0
LINE
  5
250
  8
5
  6
CONTINUOUS
 10
2296.527
 20
1001.362
 30
0.0
 11
2283.655
 21
1011.062
 31
0.0
  0
LINE
  5
251
  8
5
  6
CONTINUOUS
 10
2275.985
 20
1016.841
 30
0.0
 11
2283.655
 21
1011.062
 31
0.0
  0
LINE
  5
252
  8
5
  6
CONTINUOUS
 10
2314.205
 20
1019.04
 30
0.0
 11
2296.527
 21
1001.362
 31
0.0
  0
CIRCLE
  5
253
  8
5
  6
CONTINUOUS
 10
2324.204
 20
1318.004
 30
0.0
 40
9.25
  0
CIRCLE
  5
254
  8
5
  6
CONTINUOUS
 10
2324.204
 20
1126.662
 30
0.0
 40
9.25
  0
CIRCLE
  5
255
  8
5
  6
CONTINUOUS
 10
2188.905
 20
991.3628
 30
0.0
 40
9.25
  0
CIRCLE
  5
256
  8
5
  6
CONTINUOUS
 10
1997.563
 20
991.3628
 30
0.0
 40
9.25
  0
CIRCLE
  5
257
  8
5
  6
CONTINUOUS
 10
1862.264
 20
1126.662
 30
0.0
 40
9.25
  0
CIRCLE
  5
258
  8
5
  6
CONTINUOUS
 10
1862.264
 20
1318.004
 30
0.0
 40
9.25
  0
CIRCLE
  5
259
  8
5
  6
CONTINUOUS
 10
1997.563
 20
1453.303
 30
0.0
 40
9.25
  0
CIRCLE
  5
25A
  8
5
  6
CONTINUOUS
 10
2188.905
 20
1453.303
 30
0.0
 40
9.25
  0
LINE
  5
25B
  8
5
  6
CONTINUOUS
 10
2124.234
 20
1115.833
 30
0.0
 11
2124.234
 21
1112.833
 31
0.0
  0
CIRCLE
  5
25C
  8
5
  6
CONTINUOUS
 10
2093.234
 20
1222.333
 30
0.0
 40
225.0
  0
LINE
  5
25D
  8
5
  6
CONTINUOUS
 10
1111.553
 20
401.168
 30
0.0
 11
1111.554
 21
375.1018
 31
0.0
  0
LINE
  5
25E
  8
5
  6
CONTINUOUS
 10
1111.554
 20
375.1018
 30
0.0
 11
1116.356
 21
375.102
 31
0.0
  0
ARC
  5
25F
  8
5
  6
CONTINUOUS
 10
1116.355
 20
389.9304
 30
0.0
 40
14.82843
 50
270.002
 51
0.0019
  0
ARC
  5
260
  8
5
  6
CONTINUOUS
 10
1114.37
 20
389.1245
 30
0.0
 40
16.83332
 50
2.745839
 51
45.68278
  0
CIRCLE
  5
261
  8
5
  6
CONTINUOUS
 10
2093.234
 20
1222.333
 30
0.0
 40
275.0
  0
LINE
  5
262
  8
5
  6
CONTINUOUS
 10
2067.234
 20
1156.574
 30
0.0
 11
2067.234
 21
1128.833
 31
0.0
  0
LINE
  5
263
  8
5
  6
CONTINUOUS
 10
2119.234
 20
1156.574
 30
0.0
 11
2119.234
 21
1128.833
 31
0.0
  0
LINE
  5
264
  8
5
  6
CONTINUOUS
 10
2119.234
 20
1128.833
 30
0.0
 11
2067.234
 21
1128.833
 31
0.0
  0
LINE
  5
265
  8
5
  6
CONTINUOUS
 10
1918.643
 20
1128.833
 30
0.0
 11
2067.234
 21
1128.833
 31
0.0
  0
LINE
  5
266
  8
5
  6
CONTINUOUS
 10
138.9286
 20
1157.933
 30
0.0
 11
138.9286
 21
1172.933
 31
0.0
  0
LINE
  5
267
  8
5
  6
CONTINUOUS
 10
138.9286
 20
1187.833
 30
0.0
 11
138.9286
 21
1205.033
 31
0.0
  0
LINE
  5
268
  8
5
  6
CONTINUOUS
 10
138.9286
 20
1318.733
 30
0.0
 11
138.9286
 21
1337.033
 31
0.0
  0
LINE
  5
269
  8
5
  6
CONTINUOUS
 10
138.9286
 20
1286.733
 30
0.0
 11
138.9286
 21
1301.733
 31
0.0
  0
LINE
  5
26A
  8
5
  6
CONTINUOUS
 10
138.9286
 20
1256.833
 30
0.0
 11
138.9286
 21
1271.833
 31
0.0
  0
LINE
  5
26B
  8
5
  6
CONTINUOUS
 10
138.9286
 20
1222.333
 30
0.0
 11
138.9286
 21
1239.633
 31
0.0
  0
LINE
  5
26C
  8
5
  6
CONTINUOUS
 10
2119.234
 20
1128.833
 30
0.0
 11
2267.824
 21
1128.833
 31
0.0
  0
LINE
  5
26D
  8
5
  6
CONTINUOUS
 10
2074.234
 20
1106.833
 30
0.0
 11
2112.234
 21
1106.833
 31
0.0
  0
LINE
  5
26E
  8
5
  6
CONTINUOUS
 10
2112.234
 20
1106.833
 30
0.0
 11
2129.234
 21
1106.833
 31
0.0
  0
LINE
  5
26F
  8
5
  6
CONTINUOUS
 10
2129.234
 20
1106.833
 30
0.0
 11
2146.234
 21
1106.833
 31
0.0
  0
LINE
  5
270
  8
5
  6
CONTINUOUS
 10
2146.234
 20
1106.833
 30
0.0
 11
2163.234
 21
1106.833
 31
0.0
  0
LINE
  5
271
  8
5
  6
CONTINUOUS
 10
2163.234
 20
1106.833
 30
0.0
 11
2180.234
 21
1106.833
 31
0.0
  0
LINE
  5
272
  8
5
  6
CONTINUOUS
 10
2180.234
 20
1106.833
 30
0.0
 11
2254.118
 21
1106.833
 31
0.0
  0
LINE
  5
273
  8
5
  6
CONTINUOUS
 10
1932.349
 20
1106.833
 30
0.0
 11
2006.234
 21
1106.833
 31
0.0
  0
LINE
  5
274
  8
5
  6
CONTINUOUS
 10
2006.234
 20
1106.833
 30
0.0
 11
2023.234
 21
1106.833
 31
0.0
  0
LINE
  5
275
  8
5
  6
CONTINUOUS
 10
2023.234
 20
1106.833
 30
0.0
 11
2040.234
 21
1106.833
 31
0.0
  0
LINE
  5
276
  8
5
  6
CONTINUOUS
 10
2040.234
 20
1106.833
 30
0.0
 11
2057.234
 21
1106.833
 31
0.0
  0
LINE
  5
277
  8
5
  6
CONTINUOUS
 10
2057.234
 20
1106.833
 30
0.0
 11
2074.234
 21
1106.833
 31
0.0
  0
LINE
  5
278
  8
5
  6
CONTINUOUS
 10
2074.234
 20
1017.333
 30
0.0
 11
2074.234
 21
1025.196
 31
0.0
  0
LINE
  5
279
  8
5
  6
CONTINUOUS
 10
2074.234
 20
1025.196
 30
0.0
 11
2074.234
 21
1106.833
 31
0.0
  0
LINE
  5
27A
  8
5
  6
CONTINUOUS
 10
1111.553
 20
403.268
 30
0.0
 11
1123.497
 21
403.2685
 31
0.0
  0
LINE
  5
27B
  8
5
  6
CONTINUOUS
 10
258.3175
 20
1457.833
 30
0.0
 11
258.754
 21
1470.333
 31
0.0
  0
LINE
  5
27C
  8
5
  6
CONTINUOUS
 10
2112.234
 20
1017.333
 30
0.0
 11
2093.234
 21
1017.334
 31
0.0
  0
LINE
  5
27D
  8
5
  6
CONTINUOUS
 10
499.1032
 20
1470.333
 30
0.0
 11
499.5397
 21
1457.833
 31
0.0
  0
LINE
  5
27E
  8
5
  6
CONTINUOUS
 10
2093.234
 20
1017.334
 30
0.0
 11
2074.234
 21
1017.333
 31
0.0
  0
LINE
  5
27F
  8
5
  6
CONTINUOUS
 10
2112.234
 20
1025.196
 30
0.0
 11
2112.234
 21
1017.333
 31
0.0
  0
ARC
  5
280
  8
5
  6
CONTINUOUS
 10
1114.37
 20
389.1245
 30
0.0
 40
16.83329
 50
57.16499
 51
82.74766
  0
ARC
  5
281
  8
5
  6
CONTINUOUS
 10
1113.323
 20
418.9743
 30
0.0
 40
13.5281
 50
283.5581
 51
354.7072
  0
ARC
  5
282
  8
5
  6
CONTINUOUS
 10
1116.354
 20
417.726
 30
0.0
 40
10.43949
 50
0.001947
 51
90.00195
  0
LINE
  5
283
  8
5
  6
CONTINUOUS
 10
1116.354
 20
428.1655
 30
0.0
 11
1111.552
 21
428.1654
 31
0.0
  0
LINE
  5
284
  8
5
  6
CONTINUOUS
 10
2112.234
 20
1106.833
 30
0.0
 11
2112.234
 21
1025.196
 31
0.0
  0
LINE
  5
285
  8
5
  6
CONTINUOUS
 10
157.9577
 20
1425.626
 30
0.0
 11
175.6354
 21
1443.304
 31
0.0
  0
LINE
  5
286
  8
5
  6
CONTINUOUS
 10
2102.234
 20
1258.833
 30
0.0
 11
2102.234
 21
1253.562
 31
0.0
  0
LINE
  5
287
  8
5
  6
CONTINUOUS
 10
2084.234
 20
1258.833
 30
0.0
 11
2084.234
 21
1253.562
 31
0.0
  0
LINE
  5
28C
  8
5
  6
CONTINUOUS
 10
1889.94
 20
1001.362
 30
0.0
 11
1872.263
 21
1019.04
 31
0.0
  0
LINE
  5
28D
  8
5
  6
CONTINUOUS
 10
1910.482
 20
1016.841
 30
0.0
 11
1902.813
 21
1011.062
 31
0.0
  0
LINE
  5
28E
  8
5
  6
CONTINUOUS
 10
1902.813
 20
1011.062
 30
0.0
 11
1889.94
 21
1001.362
 31
0.0
  0
LINE
  5
28F
  8
5
  6
CONTINUOUS
 10
1111.552
 20
428.1654
 30
0.0
 11
1111.553
 21
403.268
 31
0.0
  0
LINE
  5
290
  8
5
  6
CONTINUOUS
 10
1141.32
 20
403.2691
 30
0.0
 11
1155.098
 21
403.2696
 31
0.0
  0
LINE
  5
291
  8
5
  6
CONTINUOUS
 10
1155.098
 20
403.2696
 30
0.0
 11
1155.097
 21
428.1668
 31
0.0
  0
LINE
  5
292
  8
5
  6
CONTINUOUS
 10
1155.097
 20
428.1668
 30
0.0
 11
1141.319
 21
428.1664
 31
0.0
  0
LINE
  5
293
  8
5
  6
CONTINUOUS
 10
2283.655
 20
1011.062
 30
0.0
 11
2305.732
 21
1033.14
 31
0.0
  0
LINE
  5
294
  8
5
  6
CONTINUOUS
 10
1880.735
 20
1033.14
 30
0.0
 11
1902.813
 21
1011.062
 31
0.0
  0
LINE
  5
295
  8
5
  6
CONTINUOUS
 10
2124.234
 20
1112.833
 30
0.0
 11
2255.62
 21
1112.833
 31
0.0
  0
LINE
  5
296
  8
5
  6
CONTINUOUS
 10
2124.234
 20
1115.833
 30
0.0
 11
2257.603
 21
1115.833
 31
0.0
  0
ARC
  5
297
  8
5
  6
CONTINUOUS
 10
2093.234
 20
1222.333
 30
0.0
 40
76.16056
 50
128.6254
 51
146.0802
  0
LINE
  5
298
  8
5
  6
CONTINUOUS
 10
2045.692
 20
1281.833
 30
0.0
 11
1904.332
 21
1281.833
 31
0.0
  0
ARC
  5
299
  8
5
  6
CONTINUOUS
 10
2093.234
 20
1222.333
 30
0.0
 40
198.0506
 50
162.5167
 51
167.6084
  0
LINE
  5
29A
  8
5
  6
CONTINUOUS
 10
1899.797
 20
1264.833
 30
0.0
 11
2030.034
 21
1264.833
 31
0.0
  0
ARC
  5
29B
  8
5
  6
CONTINUOUS
 10
2093.234
 20
1222.333
 30
0.0
 40
76.16056
 50
33.91978
 51
51.37464
  0
LINE
  5
29C
  8
5
  6
CONTINUOUS
 10
2156.433
 20
1264.833
 30
0.0
 11
2286.67
 21
1264.833
 31
0.0
  0
ARC
  5
29D
  8
5
  6
CONTINUOUS
 10
2093.234
 20
1222.333
 30
0.0
 40
198.0506
 50
12.39157
 51
17.48333
  0
LINE
  5
29E
  8
5
  6
CONTINUOUS
 10
2282.135
 20
1281.833
 30
0.0
 11
2140.775
 21
1281.833
 31
0.0
  0
ARC
  5
29F
  8
5
  6
CONTINUOUS
 10
2093.234
 20
1222.333
 30
0.0
 40
76.16056
 50
160.4385
 51
173.5921
  0
LINE
  5
2A0
  8
5
  6
CONTINUOUS
 10
2021.469
 20
1247.833
 30
0.0
 11
1896.832
 21
1247.833
 31
0.0
  0
ARC
  5
2A1
  8
5
  6
CONTINUOUS
 10
2093.234
 20
1222.333
 30
0.0
 40
198.0506
 50
172.6023
 51
177.5402
  0
LINE
  5
2A2
  8
5
  6
CONTINUOUS
 10
1895.366
 20
1230.833
 30
0.0
 11
2017.549
 21
1230.833
 31
0.0
  0
LINE
  5
2A3
  8
5
  6
CONTINUOUS
 10
1141.319
 20
428.1664
 30
0.0
 11
1141.32
 21
403.2691
 31
0.0
  0
LINE
  5
2A4
  8
5
  6
CONTINUOUS
 10
1157.198
 20
403.2696
 30
0.0
 11
1169.143
 21
403.27
 31
0.0
  0
ARC
  5
2A5
  8
5
  6
CONTINUOUS
 10
1160.015
 20
389.1261
 30
0.0
 40
16.83336
 50
57.16459
 51
82.74766
  0
ARC
  5
2A6
  8
5
  6
CONTINUOUS
 10
1158.969
 20
418.9758
 30
0.0
 40
13.5281
 50
283.5581
 51
354.7072
  0
ARC
  5
2A7
  8
5
  6
CONTINUOUS
 10
1162.0
 20
417.7276
 30
0.0
 40
10.43949
 50
0.001947
 51
90.00195
  0
LINE
  5
2A8
  8
5
  6
CONTINUOUS
 10
1161.999
 20
428.1671
 30
0.0
 11
1157.197
 21
428.1669
 31
0.0
  0
LINE
  5
2A9
  8
5
  6
CONTINUOUS
 10
1157.197
 20
428.1669
 30
0.0
 11
1157.198
 21
403.2696
 31
0.0
  0
LINE
  5
2AA
  8
5
  6
CONTINUOUS
 10
1157.198
 20
401.1696
 30
0.0
 11
1157.199
 21
375.1033
 31
0.0
  0
LINE
  5
2AB
  8
5
  6
CONTINUOUS
 10
1157.199
 20
375.1033
 30
0.0
 11
1162.001
 21
375.1036
 31
0.0
  0
ARC
  5
2AC
  8
5
  6
CONTINUOUS
 10
1162.001
 20
389.932
 30
0.0
 40
14.82844
 50
270.0017
 51
0.0019
  0
ARC
  5
2AD
  8
5
  6
CONTINUOUS
 10
1160.015
 20
389.1261
 30
0.0
 40
16.83332
 50
2.745839
 51
45.68319
  0
LINE
  5
2AE
  8
5
  6
CONTINUOUS
 10
1171.775
 20
401.1701
 30
0.0
 11
1157.198
 21
401.1696
 31
0.0
  0
LINE
  5
2AF
  8
5
  6
CONTINUOUS
 10
1141.32
 20
401.1691
 30
0.0
 11
1155.098
 21
401.1696
 31
0.0
  0
LINE
  5
2B0
  8
5
  6
CONTINUOUS
 10
1141.32
 20
401.1691
 30
0.0
 11
1141.321
 21
375.1029
 31
0.0
  0
LINE
  5
2B1
  8
5
  6
CONTINUOUS
 10
1141.321
 20
375.1029
 30
0.0
 11
1155.099
 21
375.1033
 31
0.0
  0
LINE
  5
2B2
  8
5
  6
CONTINUOUS
 10
1155.099
 20
375.1033
 30
0.0
 11
1155.098
 21
401.1696
 31
0.0
  0
LINE
  5
2B3
  8
5
  6
CONTINUOUS
 10
1259.059
 20
290.1066
 30
0.0
 11
1259.059
 21
240.6066
 31
0.0
  0
LINE
  5
2B4
  8
5
  6
CONTINUOUS
 10
1259.059
 20
562.6066
 30
0.0
 11
1259.059
 21
513.1066
 31
0.0
  0
LINE
  5
2B5
  8
5
  6
CONTINUOUS
 10
1259.059
 20
513.1066
 30
0.0
 11
1259.059
 21
290.1066
 31
0.0
  0
LINE
  5
2B6
  8
5
  6
CONTINUOUS
 10
940.0592
 20
562.6066
 30
0.0
 11
989.5592
 21
562.6066
 31
0.0
  0
LINE
  5
2B7
  8
5
  6
CONTINUOUS
 10
989.5592
 20
562.6066
 30
0.0
 11
1209.559
 21
562.6066
 31
0.0
  0
LINE
  5
2B8
  8
5
  6
CONTINUOUS
 10
1209.559
 20
562.6066
 30
0.0
 11
1259.059
 21
562.6066
 31
0.0
  0
LINE
  5
2B9
  8
5
  6
CONTINUOUS
 10
940.0592
 20
513.1066
 30
0.0
 11
940.0592
 21
562.6066
 31
0.0
  0
LINE
  5
2BA
  8
5
  6
CONTINUOUS
 10
940.0592
 20
240.6066
 30
0.0
 11
940.0592
 21
290.1066
 31
0.0
  0
LINE
  5
2BB
  8
5
  6
CONTINUOUS
 10
940.0592
 20
290.1066
 30
0.0
 11
940.0592
 21
513.1066
 31
0.0
  0
LINE
  5
2BC
  8
5
  6
CONTINUOUS
 10
985.5592
 20
240.6066
 30
0.0
 11
985.5592
 21
210.6066
 31
0.0
  0
LINE
  5
2BD
  8
5
  6
CONTINUOUS
 10
1213.559
 20
210.6066
 30
0.0
 11
1213.559
 21
240.6066
 31
0.0
  0
LINE
  5
2BE
  8
5
  6
CONTINUOUS
 10
986.0592
 20
211.6066
 30
0.0
 11
1213.059
 21
211.6066
 31
0.0
  0
LINE
  5
2BF
  8
5
  6
CONTINUOUS
 10
986.0592
 20
240.6066
 30
0.0
 11
940.0592
 21
240.6066
 31
0.0
  0
LINE
  5
2C0
  8
5
  6
CONTINUOUS
 10
1259.059
 20
240.6066
 30
0.0
 11
1213.059
 21
240.6066
 31
0.0
  0
LINE
  5
2C1
  8
5
  6
CONTINUOUS
 10
986.0592
 20
274.6756
 30
0.0
 11
986.0592
 21
211.6066
 31
0.0
  0
LINE
  5
2C2
  8
5
  6
CONTINUOUS
 10
1213.059
 20
211.6066
 30
0.0
 11
1213.059
 21
274.6756
 31
0.0
  0
LINE
  5
2C3
  8
5
  6
CONTINUOUS
 10
989.5593
 20
290.0991
 30
0.0
 11
1209.559
 21
290.0991
 31
0.0
  0
LINE
  5
2C4
  8
5
  6
CONTINUOUS
 10
1209.559
 20
290.0991
 30
0.0
 11
1209.559
 21
513.1142
 31
0.0
  0
LINE
  5
2C5
  8
5
  6
CONTINUOUS
 10
1209.559
 20
513.1142
 30
0.0
 11
989.5518
 21
513.1067
 31
0.0
  0
LINE
  5
2C6
  8
5
  6
CONTINUOUS
 10
989.5518
 20
513.1067
 30
0.0
 11
989.5593
 21
290.0991
 31
0.0
  0
LINE
  5
2C7
  8
5
  6
CONTINUOUS
 10
1259.059
 20
513.1066
 30
0.0
 11
1209.559
 21
562.6066
 31
0.0
  0
LINE
  5
2C8
  8
5
  6
CONTINUOUS
 10
989.5592
 20
562.6066
 30
0.0
 11
940.0592
 21
513.1066
 31
0.0
  0
LINE
  5
2C9
  8
5
  6
CONTINUOUS
 10
1209.559
 20
513.1142
 30
0.0
 11
1209.559
 21
562.6066
 31
0.0
  0
LINE
  5
2CA
  8
5
  6
CONTINUOUS
 10
1259.059
 20
513.1066
 30
0.0
 11
1209.559
 21
513.1142
 31
0.0
  0
LINE
  5
2CB
  8
5
  6
CONTINUOUS
 10
1209.559
 20
290.0991
 30
0.0
 11
1259.059
 21
290.1066
 31
0.0
  0
LINE
  5
2CC
  8
5
  6
CONTINUOUS
 10
989.5518
 20
513.1067
 30
0.0
 11
940.0592
 21
513.1066
 31
0.0
  0
LINE
  5
2CD
  8
5
  6
CONTINUOUS
 10
989.5592
 20
562.6066
 30
0.0
 11
989.5518
 21
513.1067
 31
0.0
  0
LINE
  5
2CE
  8
5
  6
CONTINUOUS
 10
940.0592
 20
290.1066
 30
0.0
 11
989.5593
 21
290.0991
 31
0.0
  0
LINE
  5
2CF
  8
5
  6
CONTINUOUS
 10
1213.059
 20
244.1065
 30
0.0
 11
1259.059
 21
290.1066
 31
0.0
  0
LINE
  5
2D0
  8
5
  6
CONTINUOUS
 10
940.0592
 20
290.1066
 30
0.0
 11
986.0593
 21
244.1065
 31
0.0
  0
LINE
  5
2D1
  8
5
  6
CONTINUOUS
 10
1209.559
 20
271.178
 30
0.0
 11
1209.559
 21
290.0991
 31
0.0
  0
LINE
  5
2D2
  8
5
  6
CONTINUOUS
 10
1209.559
 20
271.178
 30
0.0
 11
1213.059
 21
274.6756
 31
0.0
  0
LINE
  5
2D3
  8
5
  6
CONTINUOUS
 10
986.0592
 20
274.6756
 30
0.0
 11
989.5593
 21
271.178
 31
0.0
  0
LINE
  5
2D4
  8
5
  6
CONTINUOUS
 10
989.5593
 20
290.0991
 30
0.0
 11
989.5593
 21
271.178
 31
0.0
  0
LINE
  5
2D5
  8
5
  6
CONTINUOUS
 10
989.5593
 20
271.178
 30
0.0
 11
1209.559
 21
271.178
 31
0.0
  0
LINE
  5
2D6
  8
5
  6
CONTINUOUS
 10
2214.734
 20
1506.633
 30
0.0
 11
2214.734
 21
1470.333
 31
0.0
  0
LINE
  5
2D7
  8
5
  6
CONTINUOUS
 10
1971.734
 20
1470.333
 30
0.0
 11
1971.734
 21
1506.633
 31
0.0
  0
LINE
  5
2D8
  8
5
  6
CONTINUOUS
 10
2217.234
 20
1506.633
 30
0.0
 11
1969.234
 21
1506.633
 31
0.0
  0
LINE
  5
2D9
  8
5
  6
CONTINUOUS
 10
2241.234
 20
1532.133
 30
0.0
 11
2285.734
 21
1532.133
 31
0.0
  0
LINE
  5
2DA
  8
5
  6
CONTINUOUS
 10
2241.234
 20
1530.633
 30
0.0
 11
2241.234
 21
1555.133
 31
0.0
  0
LINE
  5
2DB
  8
5
  6
CONTINUOUS
 10
2250.734
 20
1555.133
 30
0.0
 11
1938.234
 21
1555.133
 31
0.0
  0
LINE
  5
2DC
  8
5
  6
CONTINUOUS
 10
2285.734
 20
1580.133
 30
0.0
 11
2285.734
 21
1532.133
 31
0.0
  0
LINE
  5
2DD
  8
5
  6
CONTINUOUS
 10
2241.234
 20
1530.633
 30
0.0
 11
2217.234
 21
1506.633
 31
0.0
  0
LINE
  5
2DE
  8
5
  6
CONTINUOUS
 10
1969.234
 20
1506.633
 30
0.0
 11
1945.234
 21
1530.633
 31
0.0
  0
LINE
  5
2DF
  8
5
  6
CONTINUOUS
 10
1945.234
 20
1530.633
 30
0.0
 11
1945.234
 21
1555.133
 31
0.0
  0
LINE
  5
2E0
  8
5
  6
CONTINUOUS
 10
1983.234
 20
1651.133
 30
0.0
 11
2206.241
 21
1651.133
 31
0.0
  0
LINE
  5
2E1
  8
5
  6
CONTINUOUS
 10
2093.075
 20
1651.133
 30
0.0
 11
2093.075
 21
1655.333
 31
0.0
  0
LINE
  5
2E2
  8
5
  6
CONTINUOUS
 10
2068.177
 20
1655.333
 30
0.0
 11
2068.177
 21
1651.133
 31
0.0
  0
LINE
  5
2E3
  8
5
  6
CONTINUOUS
 10
2095.175
 20
1651.133
 30
0.0
 11
2095.175
 21
1655.333
 31
0.0
  0
LINE
  5
2E4
  8
5
  6
CONTINUOUS
 10
2121.241
 20
1651.133
 30
0.0
 11
2121.241
 21
1655.333
 31
0.0
  0
LINE
  5
2E5
  8
5
  6
CONTINUOUS
 10
2068.177
 20
1655.333
 30
0.0
 11
2093.075
 21
1655.333
 31
0.0
  0
LINE
  5
2E6
  8
5
  6
CONTINUOUS
 10
2095.175
 20
1655.333
 30
0.0
 11
2121.241
 21
1655.333
 31
0.0
  0
LINE
  5
2E7
  8
5
  6
CONTINUOUS
 10
2068.177
 20
1655.333
 30
0.0
 11
2068.177
 21
1655.333
 31
0.0
  0
LINE
  5
2E8
  8
5
  6
CONTINUOUS
 10
2095.175
 20
1655.333
 30
0.0
 11
2095.175
 21
1655.333
 31
0.0
  0
LINE
  5
2E9
  8
5
  6
CONTINUOUS
 10
1933.734
 20
1600.133
 30
0.0
 11
1933.734
 21
1577.133
 31
0.0
  0
LINE
  5
2EA
  8
5
  6
CONTINUOUS
 10
1983.234
 20
1600.133
 30
0.0
 11
1933.734
 21
1600.133
 31
0.0
  0
LINE
  5
2EB
  8
5
  6
CONTINUOUS
 10
1933.734
 20
1600.133
 30
0.0
 11
1983.234
 21
1651.133
 31
0.0
  0
LINE
  5
2EC
  8
5
  6
CONTINUOUS
 10
166.4299
 20
1411.526
 30
0.0
 11
182.9056
 21
1384.106
 31
0.0
  0
LINE
  5
2ED
  8
5
  6
CONTINUOUS
 10
166.4299
 20
1411.526
 30
0.0
 11
157.9577
 21
1425.626
 31
0.0
  0
LINE
  5
2EE
  8
5
  6
CONTINUOUS
 10
175.6354
 20
1443.304
 30
0.0
 11
188.5077
 21
1433.604
 31
0.0
  0
LINE
  5
2EF
  8
5
  6
CONTINUOUS
 10
2255.734
 20
1600.133
 30
0.0
 11
2206.234
 21
1600.133
 31
0.0
  0
LINE
  5
2F0
  8
5
  6
CONTINUOUS
 10
2206.241
 20
1651.133
 30
0.0
 11
2225.163
 21
1631.633
 31
0.0
  0
LINE
  5
2F1
  8
5
  6
CONTINUOUS
 10
2221.665
 20
1631.633
 30
0.0
 11
2284.734
 21
1631.633
 31
0.0
  0
LINE
  5
2F2
  8
5
  6
CONTINUOUS
 10
2255.734
 20
1580.133
 30
0.0
 11
2285.734
 21
1580.133
 31
0.0
  0
LINE
  5
2F3
  8
5
  6
CONTINUOUS
 10
2250.734
 20
1555.133
 30
0.0
 11
2250.734
 21
1577.133
 31
0.0
  0
LINE
  5
2F4
  8
5
  6
CONTINUOUS
 10
1938.234
 20
1555.133
 30
0.0
 11
1938.234
 21
1577.133
 31
0.0
  0
LINE
  5
2F5
  8
5
  6
CONTINUOUS
 10
2284.734
 20
1631.633
 30
0.0
 11
2284.734
 21
1580.133
 31
0.0
  0
LINE
  5
2F6
  8
5
  6
CONTINUOUS
 10
2255.734
 20
1600.133
 30
0.0
 11
2255.734
 21
1577.133
 31
0.0
  0
LINE
  5
2F7
  8
5
  6
CONTINUOUS
 10
2255.734
 20
1577.133
 30
0.0
 11
1933.734
 21
1577.133
 31
0.0
  0
LINE
  5
2F8
  8
5
  6
CONTINUOUS
 10
2214.734
 20
1470.333
 30
0.0
 11
2211.635
 21
1470.333
 31
0.0
  0
LINE
  5
2F9
  8
5
  6
CONTINUOUS
 10
1974.833
 20
1470.333
 30
0.0
 11
1971.734
 21
1470.333
 31
0.0
  0
LINE
  5
2FA
  8
5
  6
CONTINUOUS
 10
1986.734
 20
1506.633
 30
0.0
 11
1986.734
 21
1475.873
 31
0.0
  0
LINE
  5
2FB
  8
5
  6
CONTINUOUS
 10
2199.734
 20
1475.873
 30
0.0
 11
2199.734
 21
1506.633
 31
0.0
  0
LINE
  5
2FC
  8
5
  6
CONTINUOUS
 10
1945.234
 20
1530.633
 30
0.0
 11
2241.234
 21
1530.633
 31
0.0
  0
LINE
  5
2FD
  8
5
  6
CONTINUOUS
 10
2206.234
 20
1600.133
 30
0.0
 11
1983.234
 21
1600.133
 31
0.0
  0
LINE
  5
2FE
  8
5
  6
CONTINUOUS
 10
213.5402
 20
1414.74
 30
0.0
 11
188.5077
 21
1433.604
 31
0.0
  0
LINE
  5
2FF
  8
5
  6
CONTINUOUS
 10
1983.234
 20
1651.133
 30
0.0
 11
1983.234
 21
1600.133
 31
0.0
  0
LINE
  5
300
  8
5
  6
CONTINUOUS
 10
2206.234
 20
1600.133
 30
0.0
 11
2206.241
 21
1651.133
 31
0.0
  0
LINE
  5
301
  8
5
  6
CONTINUOUS
 10
2252.234
 20
1600.133
 30
0.0
 11
2221.665
 21
1631.633
 31
0.0
  0
CIRCLE
  5
302
  8
5
  6
CONTINUOUS
 10
378.9286
 20
1222.333
 30
0.0
 40
140.0
  0
LINE
  5
303
  8
5
  6
CONTINUOUS
 10
143.4286
 20
1100.037
 30
0.0
 11
256.6326
 21
986.8327
 31
0.0
  0
LINE
  5
304
  8
5
  6
CONTINUOUS
 10
256.6326
 20
986.8327
 30
0.0
 11
501.2246
 21
986.8327
 31
0.0
  0
LINE
  5
305
  8
5
  6
CONTINUOUS
 10
501.2246
 20
986.8327
 30
0.0
 11
614.4286
 21
1100.037
 31
0.0
  0
LINE
  5
306
  8
5
  6
CONTINUOUS
 10
614.4286
 20
1100.037
 30
0.0
 11
614.4286
 21
1344.629
 31
0.0
  0
LINE
  5
307
  8
5
  6
CONTINUOUS
 10
614.4286
 20
1344.629
 30
0.0
 11
501.2246
 21
1457.833
 31
0.0
  0
LINE
  5
308
  8
5
  6
CONTINUOUS
 10
501.2246
 20
1457.833
 30
0.0
 11
256.6326
 21
1457.833
 31
0.0
  0
LINE
  5
309
  8
5
  6
CONTINUOUS
 10
256.6326
 20
1457.833
 30
0.0
 11
143.4286
 21
1344.629
 31
0.0
  0
LINE
  5
30A
  8
5
  6
CONTINUOUS
 10
143.4286
 20
1100.037
 30
0.0
 11
143.4286
 21
1344.629
 31
0.0
  0
LINE
  5
30B
  8
5
  6
CONTINUOUS
 10
257.8753
 20
1454.833
 30
0.0
 11
146.4287
 21
1343.386
 31
0.0
  0
LINE
  5
30C
  8
5
  6
CONTINUOUS
 10
499.9821
 20
1454.833
 30
0.0
 11
257.8753
 21
1454.833
 31
0.0
  0
LINE
  5
30D
  8
5
  6
CONTINUOUS
 10
611.4287
 20
1343.386
 30
0.0
 11
499.9821
 21
1454.833
 31
0.0
  0
LINE
  5
30E
  8
5
  6
CONTINUOUS
 10
611.4287
 20
1101.279
 30
0.0
 11
611.4287
 21
1343.386
 31
0.0
  0
LINE
  5
30F
  8
5
  6
CONTINUOUS
 10
499.9821
 20
989.8327
 30
0.0
 11
611.4287
 21
1101.279
 31
0.0
  0
LINE
  5
310
  8
5
  6
CONTINUOUS
 10
257.8753
 20
989.8327
 30
0.0
 11
499.9821
 21
989.8327
 31
0.0
  0
LINE
  5
311
  8
5
  6
CONTINUOUS
 10
146.4287
 20
1101.279
 30
0.0
 11
257.8753
 21
989.8327
 31
0.0
  0
LINE
  5
312
  8
5
  6
CONTINUOUS
 10
146.4287
 20
1101.279
 30
0.0
 11
146.4287
 21
1343.386
 31
0.0
  0
LINE
  5
313
  8
5
  6
CONTINUOUS
 10
591.4273
 20
1411.526
 30
0.0
 11
569.3495
 21
1433.604
 31
0.0
  0
LINE
  5
314
  8
5
  6
CONTINUOUS
 10
264.0286
 20
1457.833
 30
0.0
 11
264.0286
 21
1462.234
 31
0.0
  0
LINE
  5
315
  8
5
  6
CONTINUOUS
 10
493.5286
 20
1462.333
 30
0.0
 11
493.5286
 21
1457.833
 31
0.0
  0
LINE
  5
316
  8
5
  6
CONTINUOUS
 10
299.4286
 20
1457.833
 30
0.0
 11
299.4286
 21
1462.333
 31
0.0
  0
LINE
  5
317
  8
5
  6
CONTINUOUS
 10
282.4286
 20
1462.333
 30
0.0
 11
282.4286
 21
1457.833
 31
0.0
  0
LINE
  5
318
  8
5
  6
CONTINUOUS
 10
329.4286
 20
1457.833
 30
0.0
 11
329.4286
 21
1462.333
 31
0.0
  0
LINE
  5
319
  8
5
  6
CONTINUOUS
 10
314.4287
 20
1462.333
 30
0.0
 11
314.4286
 21
1457.833
 31
0.0
  0
LINE
  5
31A
  8
5
  6
CONTINUOUS
 10
361.5286
 20
1457.833
 30
0.0
 11
361.5286
 21
1462.333
 31
0.0
  0
LINE
  5
31B
  8
5
  6
CONTINUOUS
 10
344.3286
 20
1462.333
 30
0.0
 11
344.3286
 21
1457.833
 31
0.0
  0
LINE
  5
31C
  8
5
  6
CONTINUOUS
 10
396.1286
 20
1457.833
 30
0.0
 11
396.1286
 21
1462.333
 31
0.0
  0
LINE
  5
31D
  8
5
  6
CONTINUOUS
 10
378.8287
 20
1462.333
 30
0.0
 11
378.8286
 21
1457.833
 31
0.0
  0
LINE
  5
31E
  8
5
  6
CONTINUOUS
 10
428.2286
 20
1457.833
 30
0.0
 11
428.2286
 21
1462.333
 31
0.0
  0
ARC
  5
31F
  8
5
  6
CONTINUOUS
 10
2093.234
 20
1222.333
 30
0.0
 40
76.16056
 50
6.407922
 51
19.56153
  0
LINE
  5
320
  8
5
  6
CONTINUOUS
 10
2168.919
 20
1230.833
 30
0.0
 11
2291.102
 21
1230.833
 31
0.0
  0
ARC
  5
321
  8
5
  6
CONTINUOUS
 10
2093.234
 20
1222.333
 30
0.0
 40
198.0506
 50
2.459795
 51
7.397655
  0
LINE
  5
322
  8
5
  6
CONTINUOUS
 10
2289.636
 20
1247.833
 30
0.0
 11
2164.998
 21
1247.833
 31
0.0
  0
ARC
  5
323
  8
5
  6
CONTINUOUS
 10
2093.234
 20
1222.333
 30
0.0
 40
76.16056
 50
186.4079
 51
199.5615
  0
LINE
  5
324
  8
5
  6
CONTINUOUS
 10
2017.549
 20
1213.833
 30
0.0
 11
1895.366
 21
1213.833
 31
0.0
  0
ARC
  5
325
  8
5
  6
CONTINUOUS
 10
2093.234
 20
1222.333
 30
0.0
 40
198.0505
 50
182.4598
 51
187.3977
  0
LINE
  5
326
  8
5
  6
CONTINUOUS
 10
1896.832
 20
1196.833
 30
0.0
 11
2021.469
 21
1196.833
 31
0.0
  0
ARC
  5
327
  8
5
  6
CONTINUOUS
 10
2093.234
 20
1222.333
 30
0.0
 40
76.16056
 50
340.4385
 51
353.5921
  0
LINE
  5
328
  8
5
  6
CONTINUOUS
 10
413.3286
 20
1462.333
 30
0.0
 11
413.3286
 21
1457.833
 31
0.0
  0
LINE
  5
329
  8
5
  6
CONTINUOUS
 10
2164.998
 20
1196.833
 30
0.0
 11
2289.636
 21
1196.833
 31
0.0
  0
ARC
  5
32A
  8
5
  6
CONTINUOUS
 10
2093.234
 20
1222.333
 30
0.0
 40
198.0506
 50
352.6023
 51
357.5402
  0
LINE
  5
32B
  8
5
  6
CONTINUOUS
 10
2291.102
 20
1213.833
 30
0.0
 11
2168.919
 21
1213.833
 31
0.0
  0
LINE
  5
32C
  8
5
  6
CONTINUOUS
 10
458.2286
 20
1457.833
 30
0.0
 11
458.2286
 21
1462.333
 31
0.0
  0
ARC
  5
32D
  8
5
  6
CONTINUOUS
 10
2093.234
 20
1222.333
 30
0.0
 40
76.16056
 50
213.9198
 51
231.3746
  0
LINE
  5
32E
  8
5
  6
CONTINUOUS
 10
2030.034
 20
1179.833
 30
0.0
 11
1899.797
 21
1179.833
 31
0.0
  0
ARC
  5
32F
  8
5
  6
CONTINUOUS
 10
2093.234
 20
1222.333
 30
0.0
 40
198.0506
 50
192.3916
 51
197.4833
  0
LINE
  5
330
  8
5
  6
CONTINUOUS
 10
443.2286
 20
1462.333
 30
0.0
 11
443.2286
 21
1457.833
 31
0.0
  0
LINE
  5
331
  8
5
  6
CONTINUOUS
 10
475.2286
 20
1462.333
 30
0.0
 11
475.2286
 21
1457.833
 31
0.0
  0
LINE
  5
332
  8
5
  6
CONTINUOUS
 10
1904.332
 20
1162.833
 30
0.0
 11
2045.692
 21
1162.833
 31
0.0
  0
ARC
  5
333
  8
5
  6
CONTINUOUS
 10
2093.234
 20
1222.333
 30
0.0
 40
76.16056
 50
308.6254
 51
326.0802
  0
LINE
  5
334
  8
5
  6
CONTINUOUS
 10
614.4286
 20
1337.033
 30
0.0
 11
618.9286
 21
1337.033
 31
0.0
  0
LINE
  5
335
  8
5
  6
CONTINUOUS
 10
618.9285
 20
1107.633
 30
0.0
 11
614.4286
 21
1107.633
 31
0.0
  0
LINE
  5
336
  8
5
  6
CONTINUOUS
 10
2140.775
 20
1162.833
 30
0.0
 11
2282.135
 21
1162.833
 31
0.0
  0
ARC
  5
337
  8
5
  6
CONTINUOUS
 10
2093.234
 20
1222.333
 30
0.0
 40
198.0506
 50
342.5167
 51
347.6084
  0
LINE
  5
338
  8
5
  6
CONTINUOUS
 10
614.4286
 20
1205.033
 30
0.0
 11
618.9285
 21
1205.033
 31
0.0
  0
LINE
  5
339
  8
5
  6
CONTINUOUS
 10
618.9286
 20
1222.333
 30
0.0
 11
614.4286
 21
1222.333
 31
0.0
  0
LINE
  5
33A
  8
5
  6
CONTINUOUS
 10
2286.67
 20
1179.833
 30
0.0
 11
2156.433
 21
1179.833
 31
0.0
  0
ARC
  5
33B
  8
5
  6
CONTINUOUS
 10
2093.234
 20
1222.333
 30
0.0
 40
76.16056
 50
51.37464
 51
128.6254
  0
LINE
  5
33C
  8
5
  6
CONTINUOUS
 10
614.4286
 20
1239.633
 30
0.0
 11
618.9286
 21
1239.633
 31
0.0
  0
LINE
  5
33D
  8
5
  6
CONTINUOUS
 10
618.9286
 20
1256.833
 30
0.0
 11
614.4286
 21
1256.833
 31
0.0
  0
ARC
  5
33E
  8
5
  6
CONTINUOUS
 10
2093.234
 20
1222.333
 30
0.0
 40
198.0506
 50
17.48333
 51
22.7223
  0
LINE
  5
33F
  8
5
  6
CONTINUOUS
 10
2275.913
 20
1298.833
 30
0.0
 11
1910.554
 21
1298.833
 31
0.0
  0
LINE
  5
340
  8
5
  6
CONTINUOUS
 10
614.4286
 20
1271.833
 30
0.0
 11
618.9286
 21
1271.833
 31
0.0
  0
LINE
  5
341
  8
5
  6
CONTINUOUS
 10
618.9286
 20
1286.733
 30
0.0
 11
614.4286
 21
1286.733
 31
0.0
  0
ARC
  5
342
  8
5
  6
CONTINUOUS
 10
2093.234
 20
1222.333
 30
0.0
 40
198.0506
 50
157.2777
 51
162.5167
  0
ARC
  5
343
  8
5
  6
CONTINUOUS
 10
2093.234
 20
1222.333
 30
0.0
 40
76.16056
 50
146.0802
 51
160.4385
  0
LINE
  5
344
  8
5
  6
CONTINUOUS
 10
614.4286
 20
1301.733
 30
0.0
 11
618.9286
 21
1301.733
 31
0.0
  0
LINE
  5
345
  8
5
  6
CONTINUOUS
 10
618.9286
 20
1318.733
 30
0.0
 11
614.4286
 21
1318.733
 31
0.0
  0
ARC
  5
346
  8
5
  6
CONTINUOUS
 10
2093.234
 20
1222.333
 30
0.0
 40
198.0506
 50
167.6084
 51
172.6024
  0
ARC
  5
347
  8
5
  6
CONTINUOUS
 10
2093.234
 20
1222.333
 30
0.0
 40
76.16056
 50
19.56153
 51
33.91978
  0
LINE
  5
348
  8
5
  6
CONTINUOUS
 10
614.4286
 20
1172.933
 30
0.0
 11
618.9285
 21
1172.933
 31
0.0
  0
ARC
  5
349
  8
5
  6
CONTINUOUS
 10
2093.234
 20
1222.333
 30
0.0
 40
198.0506
 50
7.397655
 51
12.39158
  0
ARC
  5
34A
  8
5
  6
CONTINUOUS
 10
2093.234
 20
1222.333
 30
0.0
 40
76.16056
 50
173.5921
 51
186.4079
  0
ARC
  5
34B
  8
5
  6
CONTINUOUS
 10
2093.234
 20
1222.333
 30
0.0
 40
198.0506
 50
177.5402
 51
182.4598
  0
LINE
  5
34C
  8
5
  6
CONTINUOUS
 10
618.9285
 20
1187.833
 30
0.0
 11
614.4286
 21
1187.833
 31
0.0
  0
ARC
  5
34D
  8
5
  6
CONTINUOUS
 10
2093.234
 20
1222.333
 30
0.0
 40
76.16056
 50
353.5921
 51
6.4079
  0
ARC
  5
34E
  8
5
  6
CONTINUOUS
 10
2093.234
 20
1222.333
 30
0.0
 40
198.0506
 50
357.5402
 51
2.4598
  0
ARC
  5
34F
  8
5
  6
CONTINUOUS
 10
2093.234
 20
1222.333
 30
0.0
 40
76.16056
 50
199.5615
 51
213.9198
  0
ARC
  5
350
  8
5
  6
CONTINUOUS
 10
2093.234
 20
1222.333
 30
0.0
 40
198.0506
 50
187.3977
 51
192.3916
  0
ARC
  5
351
  8
5
  6
CONTINUOUS
 10
2093.234
 20
1222.333
 30
0.0
 40
76.16056
 50
326.0802
 51
340.4385
  0
ARC
  5
352
  8
5
  6
CONTINUOUS
 10
2093.234
 20
1222.333
 30
0.0
 40
198.0506
 50
347.6084
 51
352.6023
  0
LINE
  5
353
  8
5
  6
CONTINUOUS
 10
614.4286
 20
1142.933
 30
0.0
 11
618.9285
 21
1142.933
 31
0.0
  0
ARC
  5
354
  8
5
  6
CONTINUOUS
 10
2093.234
 20
1222.333
 30
0.0
 40
198.0506
 50
151.8292
 51
157.2777
  0
ARC
  5
355
  8
5
  6
CONTINUOUS
 10
2093.234
 20
1222.333
 30
0.0
 40
198.0506
 50
22.7223
 51
28.17081
  0
LINE
  5
356
  8
5
  6
CONTINUOUS
 10
618.9285
 20
1157.933
 30
0.0
 11
614.4286
 21
1157.933
 31
0.0
  0
LINE
  5
357
  8
5
  6
CONTINUOUS
 10
618.9285
 20
1125.933
 30
0.0
 11
614.4286
 21
1125.933
 31
0.0
  0
LINE
  5
358
  8
5
  6
CONTINUOUS
 10
2267.824
 20
1315.833
 30
0.0
 11
2205.734
 21
1315.833
 31
0.0
  0
LINE
  5
359
  8
5
  6
CONTINUOUS
 10
2205.734
 20
1315.833
 30
0.0
 11
2188.734
 21
1315.833
 31
0.0
  0
LINE
  5
35A
  8
5
  6
CONTINUOUS
 10
138.9287
 20
1337.033
 30
0.0
 11
143.4286
 21
1337.033
 31
0.0
  0
LINE
  5
35B
  8
5
  6
CONTINUOUS
 10
143.4286
 20
1107.633
 30
0.0
 11
138.9287
 21
1107.633
 31
0.0
  0
LINE
  5
35C
  8
5
  6
CONTINUOUS
 10
2188.734
 20
1315.833
 30
0.0
 11
2171.734
 21
1315.833
 31
0.0
  0
LINE
  5
35D
  8
5
  6
CONTINUOUS
 10
2171.734
 20
1315.833
 30
0.0
 11
2154.734
 21
1315.833
 31
0.0
  0
LINE
  5
35E
  8
5
  6
CONTINUOUS
 10
143.4286
 20
1222.333
 30
0.0
 11
138.9287
 21
1222.333
 31
0.0
  0
LINE
  5
35F
  8
5
  6
CONTINUOUS
 10
138.9287
 20
1205.033
 30
0.0
 11
143.4286
 21
1205.033
 31
0.0
  0
LINE
  5
360
  8
5
  6
CONTINUOUS
 10
2154.734
 20
1315.833
 30
0.0
 11
2137.734
 21
1315.833
 31
0.0
  0
LINE
  5
361
  8
5
  6
CONTINUOUS
 10
2137.734
 20
1315.833
 30
0.0
 11
2120.734
 21
1315.833
 31
0.0
  0
LINE
  5
362
  8
5
  6
CONTINUOUS
 10
143.4286
 20
1256.833
 30
0.0
 11
138.9287
 21
1256.833
 31
0.0
  0
LINE
  5
363
  8
5
  6
CONTINUOUS
 10
138.9287
 20
1239.633
 30
0.0
 11
143.4286
 21
1239.633
 31
0.0
  0
LINE
  5
364
  8
5
  6
CONTINUOUS
 10
2120.734
 20
1315.833
 30
0.0
 11
2103.734
 21
1315.833
 31
0.0
  0
LINE
  5
365
  8
5
  6
CONTINUOUS
 10
2103.734
 20
1315.833
 30
0.0
 11
2082.734
 21
1315.833
 31
0.0
  0
LINE
  5
366
  8
5
  6
CONTINUOUS
 10
143.4286
 20
1286.733
 30
0.0
 11
138.9287
 21
1286.733
 31
0.0
  0
LINE
  5
367
  8
5
  6
CONTINUOUS
 10
138.9287
 20
1271.833
 30
0.0
 11
143.4286
 21
1271.833
 31
0.0
  0
LINE
  5
368
  8
5
  6
CONTINUOUS
 10
2082.734
 20
1315.833
 30
0.0
 11
2065.734
 21
1315.833
 31
0.0
  0
LINE
  5
369
  8
5
  6
CONTINUOUS
 10
2065.734
 20
1315.833
 30
0.0
 11
2048.734
 21
1315.833
 31
0.0
  0
LINE
  5
36A
  8
5
  6
CONTINUOUS
 10
143.4286
 20
1318.733
 30
0.0
 11
138.9287
 21
1318.733
 31
0.0
  0
LINE
  5
36B
  8
5
  6
CONTINUOUS
 10
138.9287
 20
1301.733
 30
0.0
 11
143.4286
 21
1301.733
 31
0.0
  0
LINE
  5
36C
  8
5
  6
CONTINUOUS
 10
2048.734
 20
1315.833
 30
0.0
 11
2031.734
 21
1315.833
 31
0.0
  0
LINE
  5
36D
  8
5
  6
CONTINUOUS
 10
143.4286
 20
1187.833
 30
0.0
 11
138.9287
 21
1187.833
 31
0.0
  0
LINE
  5
36E
  8
5
  6
CONTINUOUS
 10
138.9287
 20
1172.933
 30
0.0
 11
143.4286
 21
1172.933
 31
0.0
  0
LINE
  5
36F
  8
5
  6
CONTINUOUS
 10
143.4286
 20
1157.933
 30
0.0
 11
138.9287
 21
1157.933
 31
0.0
  0
LINE
  5
370
  8
5
  6
CONTINUOUS
 10
138.9287
 20
1142.933
 30
0.0
 11
143.4286
 21
1142.933
 31
0.0
  0
LINE
  5
371
  8
5
  6
CONTINUOUS
 10
143.4286
 20
1125.933
 30
0.0
 11
138.9287
 21
1125.933
 31
0.0
  0
LINE
  5
372
  8
5
  6
CONTINUOUS
 10
188.5077
 20
1433.604
 30
0.0
 11
166.4299
 21
1411.526
 31
0.0
  0
CIRCLE
  5
373
  8
5
  6
CONTINUOUS
 10
378.9286
 20
1222.333
 30
0.0
 40
223.5
  0
LINE
  5
374
  8
5
  6
CONTINUOUS
 10
2031.734
 20
1315.833
 30
0.0
 11
2014.734
 21
1315.833
 31
0.0
  0
LINE
  5
375
  8
5
  6
CONTINUOUS
 10
2014.734
 20
1315.833
 30
0.0
 11
1997.734
 21
1315.833
 31
0.0
  0
LINE
  5
376
  8
5
  6
CONTINUOUS
 10
1997.734
 20
1315.833
 30
0.0
 11
1980.734
 21
1315.833
 31
0.0
  0
LINE
  5
377
  8
5
  6
CONTINUOUS
 10
1980.734
 20
1315.833
 30
0.0
 11
1918.643
 21
1315.833
 31
0.0
  0
ARC
  5
378
  8
5
  6
CONTINUOUS
 10
2093.234
 20
1222.333
 30
0.0
 40
198.0506
 50
55.38656
 51
61.17081
  0
LINE
  5
379
  8
5
  6
CONTINUOUS
 10
2188.734
 20
1395.837
 30
0.0
 11
2188.734
 21
1315.833
 31
0.0
  0
LINE
  5
37A
  8
5
  6
CONTINUOUS
 10
2205.734
 20
1315.833
 30
0.0
 11
2205.734
 21
1385.329
 31
0.0
  0
ARC
  5
37B
  8
5
  6
CONTINUOUS
 10
2093.234
 20
1222.333
 30
0.0
 40
198.0506
 50
66.64896
 51
71.90902
  0
LINE
  5
37C
  8
5
  6
CONTINUOUS
 10
2154.734
 20
1410.593
 30
0.0
 11
2154.734
 21
1315.833
 31
0.0
  0
LINE
  5
37D
  8
5
  6
CONTINUOUS
 10
2171.734
 20
1315.833
 30
0.0
 11
2171.734
 21
1404.162
 31
0.0
  0
ARC
  5
37E
  8
5
  6
CONTINUOUS
 10
2093.234
 20
1222.333
 30
0.0
 40
198.0506
 50
77.01534
 51
82.01849
  0
LINE
  5
37F
  8
5
  6
CONTINUOUS
 10
2120.734
 20
1418.465
 30
0.0
 11
2120.734
 21
1315.833
 31
0.0
  0
LINE
  5
380
  8
5
  6
CONTINUOUS
 10
2137.734
 20
1315.833
 30
0.0
 11
2137.734
 21
1415.319
 31
0.0
  0
ARC
  5
381
  8
5
  6
CONTINUOUS
 10
2093.234
 20
1222.333
 30
0.0
 40
198.0506
 50
86.96094
 51
93.03906
  0
LINE
  5
382
  8
5
  6
CONTINUOUS
 10
272.7625
 20
1470.333
 30
0.0
 11
272.4832
 21
1462.333
 31
0.0
  0
LINE
  5
383
  8
5
  6
CONTINUOUS
 10
485.3741
 20
1462.333
 30
0.0
 11
485.0947
 21
1470.333
 31
0.0
  0
LINE
  5
384
  8
5
  6
CONTINUOUS
 10
2082.734
 20
1420.105
 30
0.0
 11
2082.734
 21
1315.833
 31
0.0
  0
LINE
  5
385
  8
5
  6
CONTINUOUS
 10
2103.734
 20
1315.833
 30
0.0
 11
2103.734
 21
1420.105
 31
0.0
  0
ARC
  5
386
  8
5
  6
CONTINUOUS
 10
2093.234
 20
1222.333
 30
0.0
 40
198.0506
 50
97.98151
 51
102.9847
  0
LINE
  5
387
  8
5
  6
CONTINUOUS
 10
2048.734
 20
1415.319
 30
0.0
 11
2048.734
 21
1315.833
 31
0.0
  0
LINE
  5
388
  8
5
  6
CONTINUOUS
 10
2065.734
 20
1315.833
 30
0.0
 11
2065.734
 21
1418.465
 31
0.0
  0
ARC
  5
389
  8
5
  6
CONTINUOUS
 10
2093.234
 20
1222.333
 30
0.0
 40
198.0506
 50
108.091
 51
113.351
  0
LINE
  5
38A
  8
5
  6
CONTINUOUS
 10
2014.734
 20
1404.162
 30
0.0
 11
2014.734
 21
1315.833
 31
0.0
  0
LINE
  5
38B
  8
5
  6
CONTINUOUS
 10
2031.734
 20
1315.833
 30
0.0
 11
2031.734
 21
1410.593
 31
0.0
  0
ARC
  5
38C
  8
5
  6
CONTINUOUS
 10
2093.234
 20
1222.333
 30
0.0
 40
198.0506
 50
118.8292
 51
124.6134
  0
LINE
  5
38D
  8
5
  6
CONTINUOUS
 10
1980.734
 20
1385.329
 30
0.0
 11
1980.734
 21
1315.833
 31
0.0
  0
LINE
  5
38E
  8
5
  6
CONTINUOUS
 10
1997.734
 20
1315.833
 30
0.0
 11
1997.734
 21
1395.837
 31
0.0
  0
ARC
  5
38F
  8
5
  6
CONTINUOUS
 10
2093.234
 20
1222.333
 30
0.0
 40
198.0506
 50
61.17081
 51
66.64896
  0
ARC
  5
390
  8
5
  6
CONTINUOUS
 10
2093.234
 20
1222.333
 30
0.0
 40
198.0506
 50
28.17081
 51
55.38656
  0
ARC
  5
391
  8
5
  6
CONTINUOUS
 10
2093.234
 20
1222.333
 30
0.0
 40
198.0506
 50
71.90902
 51
77.01534
  0
ARC
  5
392
  8
5
  6
CONTINUOUS
 10
2093.234
 20
1222.333
 30
0.0
 40
198.0506
 50
82.01849
 51
86.96094
  0
ARC
  5
393
  8
5
  6
CONTINUOUS
 10
2093.234
 20
1222.333
 30
0.0
 40
198.0506
 50
93.03906
 51
97.98151
  0
ARC
  5
394
  8
5
  6
CONTINUOUS
 10
2093.234
 20
1222.333
 30
0.0
 40
198.0506
 50
102.9847
 51
108.091
  0
ARC
  5
395
  8
5
  6
CONTINUOUS
 10
2093.234
 20
1222.333
 30
0.0
 40
198.0506
 50
113.351
 51
118.8292
  0
ARC
  5
396
  8
5
  6
CONTINUOUS
 10
2093.234
 20
1222.333
 30
0.0
 40
198.0506
 50
124.6134
 51
151.8292
  0
LINE
  5
397
  8
5
  6
CONTINUOUS
 10
2067.234
 20
1145.833
 30
0.0
 11
1910.554
 21
1145.833
 31
0.0
  0
ARC
  5
398
  8
5
  6
CONTINUOUS
 10
2093.234
 20
1222.333
 30
0.0
 40
198.0506
 50
202.7223
 51
208.1708
  0
ARC
  5
399
  8
5
  6
CONTINUOUS
 10
2093.234
 20
1222.333
 30
0.0
 40
198.0506
 50
331.8292
 51
337.2777
  0
LINE
  5
39A
  8
5
  6
CONTINUOUS
 10
2275.913
 20
1145.833
 30
0.0
 11
2119.234
 21
1145.833
 31
0.0
  0
ARC
  5
39B
  8
5
  6
CONTINUOUS
 10
2093.234
 20
1222.333
 30
0.0
 40
76.16056
 50
231.3746
 51
250.0388
  0
ARC
  5
39C
  8
5
  6
CONTINUOUS
 10
2093.234
 20
1222.333
 30
0.0
 40
198.0506
 50
197.4833
 51
202.7223
  0
ARC
  5
39D
  8
5
  6
CONTINUOUS
 10
2093.234
 20
1222.333
 30
0.0
 40
198.0506
 50
337.2777
 51
342.5167
  0
ARC
  5
39E
  8
5
  6
CONTINUOUS
 10
2093.234
 20
1222.333
 30
0.0
 40
76.16056
 50
289.9612
 51
308.6254
  0
ARC
  5
39F
  8
5
  6
CONTINUOUS
 10
2093.234
 20
1222.333
 30
0.0
 40
198.0506
 50
254.478
 51
259.527
  0
LINE
  5
3A0
  8
5
  6
CONTINUOUS
 10
2057.234
 20
1027.582
 30
0.0
 11
2057.234
 21
1106.833
 31
0.0
  0
LINE
  5
3A1
  8
5
  6
CONTINUOUS
 10
2040.234
 20
1106.833
 30
0.0
 11
2040.234
 21
1031.506
 31
0.0
  0
ARC
  5
3A2
  8
5
  6
CONTINUOUS
 10
2093.234
 20
1222.333
 30
0.0
 40
198.0506
 50
243.9419
 51
249.3018
  0
LINE
  5
3A3
  8
5
  6
CONTINUOUS
 10
2023.234
 20
1037.065
 30
0.0
 11
2023.234
 21
1106.833
 31
0.0
  0
LINE
  5
3A4
  8
5
  6
CONTINUOUS
 10
2006.234
 20
1106.833
 30
0.0
 11
2006.234
 21
1044.414
 31
0.0
  0
ARC
  5
3A5
  8
5
  6
CONTINUOUS
 10
2093.234
 20
1222.333
 30
0.0
 40
198.0506
 50
280.473
 51
285.522
  0
LINE
  5
3A6
  8
5
  6
CONTINUOUS
 10
963.5884
 20
198.0067
 30
0.0
 11
962.0785
 21
209.7937
 31
0.0
  0
LINE
  5
3A7
  8
5
  6
CONTINUOUS
 10
1259.059
 20
552.7066
 30
0.0
 11
1404.059
 21
552.7067
 31
0.0
  0
LINE
  5
3A8
  8
5
  6
CONTINUOUS
 10
2146.234
 20
1031.506
 30
0.0
 11
2146.234
 21
1106.833
 31
0.0
  0
LINE
  5
3A9
  8
5
  6
CONTINUOUS
 10
2129.234
 20
1106.833
 30
0.0
 11
2129.234
 21
1027.581
 31
0.0
  0
ARC
  5
3AA
  8
5
  6
CONTINUOUS
 10
2093.234
 20
1222.333
 30
0.0
 40
198.0506
 50
290.6982
 51
296.0581
  0
LINE
  5
3AB
  8
5
  6
CONTINUOUS
 10
2180.234
 20
1044.414
 30
0.0
 11
2180.234
 21
1106.833
 31
0.0
  0
LINE
  5
3AC
  8
5
  6
CONTINUOUS
 10
2163.234
 20
1106.833
 30
0.0
 11
2163.234
 21
1037.065
 31
0.0
  0
ARC
  5
3AD
  8
5
  6
CONTINUOUS
 10
2093.234
 20
1222.333
 30
0.0
 40
198.0506
 50
249.3018
 51
254.478
  0
ARC
  5
3AE
  8
5
  6
CONTINUOUS
 10
2093.234
 20
1222.333
 30
0.0
 40
198.0506
 50
215.6748
 51
243.9419
  0
ARC
  5
3AF
  8
5
  6
CONTINUOUS
 10
2093.234
 20
1222.333
 30
0.0
 40
198.0506
 50
285.522
 51
290.6982
  0
ARC
  5
3B0
  8
5
  6
CONTINUOUS
 10
2093.234
 20
1222.333
 30
0.0
 40
198.0506
 50
296.0581
 51
324.3252
  0
ARC
  5
3B1
  8
5
  6
CONTINUOUS
 10
2093.234
 20
1222.333
 30
0.0
 40
198.0506
 50
259.527
 51
264.4949
  0
ARC
  5
3B2
  8
5
  6
CONTINUOUS
 10
2093.234
 20
1222.333
 30
0.0
 40
198.0506
 50
275.5051
 51
280.473
  0
CIRCLE
  5
3B3
  8
5
  6
CONTINUOUS
 10
2093.234
 20
1222.333
 30
0.0
 40
210.0
  0
ARC
  5
3B4
  8
5
  6
CONTINUOUS
 10
2093.234
 20
1222.333
 30
0.0
 40
185.7597
 50
325.0178
 51
329.7789
  0
ARC
  5
3B5
  8
5
  6
CONTINUOUS
 10
2093.234
 20
1222.333
 30
0.0
 40
185.7597
 50
321.5544
 51
323.8805
  0
ARC
  5
3B6
  8
5
  6
CONTINUOUS
 10
2093.234
 20
1222.333
 30
0.0
 40
185.7597
 50
210.2211
 51
218.4456
  0
ARC
  5
3B7
  8
5
  6
CONTINUOUS
 10
2093.234
 20
1222.333
 30
0.0
 40
76.0
 50
290.0052
 51
249.9948
  0
ARC
  5
3B8
  8
5
  6
CONTINUOUS
 10
2093.234
 20
1222.333
 30
0.0
 40
70.71259
 50
248.427
 51
291.573
  0
CIRCLE
  5
3B9
  8
5
  6
CONTINUOUS
 10
2093.234
 20
1222.333
 30
0.0
 40
65.0
  0
LINE
  5
3BB
  8
5
  6
CONTINUOUS
 10
1404.059
 20
253.5067
 30
0.0
 11
1259.059
 21
253.5067
 31
0.0
  0
LINE
  5
3BD
  8
5
  6
CONTINUOUS
 10
1410.04
 20
506.0197
 30
0.0
 11
1408.543
 21
517.7067
 31
0.0
  0
LINE
  5
3BE
  8
5
  6
CONTINUOUS
 10
1404.072
 20
552.6067
 30
0.0
 11
1406.279
 21
535.382
 31
0.0
  0
LINE
  5
3BF
  8
5
  6
CONTINUOUS
 10
1406.301
 20
535.2067
 30
0.0
 11
1406.279
 21
535.382
 31
0.0
  0
LINE
  5
3C0
  8
5
  6
CONTINUOUS
 10
1408.543
 20
517.7067
 30
0.0
 11
1406.301
 21
535.2067
 31
0.0
  0
LINE
  5
3C1
  8
5
  6
CONTINUOUS
 10
1404.059
 20
552.7067
 30
0.0
 11
1404.072
 21
552.6067
 31
0.0
  0
LINE
  5
3C2
  8
5
  6
CONTINUOUS
 10
1406.288
 20
625.7067
 30
0.0
 11
1408.53
 21
608.2067
 31
0.0
  0
LINE
  5
3C3
  8
5
  6
CONTINUOUS
 10
1404.059
 20
643.1067
 30
0.0
 11
1406.275
 21
625.8072
 31
0.0
  0
LINE
  5
3C4
  8
5
  6
CONTINUOUS
 10
1406.275
 20
625.8072
 30
0.0
 11
1406.282
 21
625.7572
 31
0.0
  0
LINE
  5
3C5
  8
5
  6
CONTINUOUS
 10
1079.856
 20
562.6066
 30
0.0
 11
1077.175
 21
593.5276
 31
0.0
  0
LINE
  5
3C6
  8
5
  6
CONTINUOUS
 10
1406.282
 20
625.7572
 30
0.0
 11
1406.288
 21
625.7067
 31
0.0
  0
LINE
  5
3C7
  8
5
  6
CONTINUOUS
 10
1408.53
 20
608.2067
 30
0.0
 11
1410.04
 21
596.4197
 31
0.0
  0
LINE
  5
3C8
  8
5
  6
CONTINUOUS
 10
1406.275
 20
180.4061
 30
0.0
 11
1404.059
 21
163.1067
 31
0.0
  0
LINE
  5
3C9
  8
5
  6
CONTINUOUS
 10
1406.288
 20
180.5067
 30
0.0
 11
1408.53
 21
198.0067
 31
0.0
  0
LINE
  5
3CA
  8
5
  6
CONTINUOUS
 10
981.2621
 20
562.6066
 30
0.0
 11
983.9432
 21
593.5276
 31
0.0
  0
LINE
  5
3CB
  8
5
  6
CONTINUOUS
 10
1406.282
 20
180.4561
 30
0.0
 11
1406.288
 21
180.5067
 31
0.0
  0
LINE
  5
3CC
  8
5
  6
CONTINUOUS
 10
1406.282
 20
180.4561
 30
0.0
 11
1406.275
 21
180.4061
 31
0.0
  0
LINE
  5
3CD
  8
5
  6
CONTINUOUS
 10
1012.559
 20
562.6068
 30
0.0
 11
1012.559
 21
575.7535
 31
0.0
  0
LINE
  5
3CE
  8
5
  6
CONTINUOUS
 10
1408.53
 20
198.0067
 30
0.0
 11
1410.04
 21
209.7937
 31
0.0
  0
LINE
  5
3CF
  8
5
  6
CONTINUOUS
 10
965.8431
 20
625.8072
 30
0.0
 11
968.0592
 21
643.1067
 31
0.0
  0
LINE
  5
3D0
  8
5
  6
CONTINUOUS
 10
965.8302
 20
625.7067
 30
0.0
 11
963.5884
 21
608.2067
 31
0.0
  0
LINE
  5
3D1
  8
5
  6
CONTINUOUS
 10
1048.559
 20
575.7535
 30
0.0
 11
1048.559
 21
562.6068
 31
0.0
  0
LINE
  5
3D2
  8
5
  6
CONTINUOUS
 10
965.8367
 20
625.7572
 30
0.0
 11
965.8302
 21
625.7067
 31
0.0
  0
LINE
  5
3D3
  8
5
  6
CONTINUOUS
 10
965.8367
 20
625.7572
 30
0.0
 11
965.8431
 21
625.8072
 31
0.0
  0
LINE
  5
3D4
  8
5
  6
CONTINUOUS
 10
963.5884
 20
608.2067
 30
0.0
 11
962.0785
 21
596.4197
 31
0.0
  0
LINE
  5
3D5
  8
5
  6
CONTINUOUS
 10
965.8302
 20
180.5067
 30
0.0
 11
963.5884
 21
198.0067
 31
0.0
  0
LINE
  5
3D6
  8
5
  6
CONTINUOUS
 10
968.0592
 20
163.1067
 30
0.0
 11
965.8431
 21
180.4061
 31
0.0
  0
LINE
  5
3D7
  8
5
  6
CONTINUOUS
 10
965.8431
 20
180.4061
 30
0.0
 11
965.8367
 21
180.4561
 31
0.0
  0
LINE
  5
3D8
  8
5
  6
CONTINUOUS
 10
965.8367
 20
180.4561
 30
0.0
 11
965.8302
 21
180.5067
 31
0.0
  0
LINE
  5
3D9
  8
5
  6
CONTINUOUS
 10
968.0592
 20
643.1067
 30
0.0
 11
1404.059
 21
643.1067
 31
0.0
  0
LINE
  5
3DA
  8
5
  6
CONTINUOUS
 10
1404.059
 20
163.1067
 30
0.0
 11
968.0592
 21
163.1067
 31
0.0
  0
LINE
  5
3DB
  8
5
  6
CONTINUOUS
 10
1408.504
 20
288.2067
 30
0.0
 11
1406.279
 21
270.8313
 31
0.0
  0
LINE
  5
3DC
  8
5
  6
CONTINUOUS
 10
1406.279
 20
270.8313
 30
0.0
 11
1406.275
 21
270.8067
 31
0.0
  0
LINE
  5
3DD
  8
5
  6
CONTINUOUS
 10
1410.04
 20
300.1937
 30
0.0
 11
1408.504
 21
288.2067
 31
0.0
  0
LINE
  5
3DE
  8
5
  6
CONTINUOUS
 10
1406.275
 20
270.8067
 30
0.0
 11
1404.059
 21
253.5067
 31
0.0
  0
LINE
  5
3DF
  8
5
  6
CONTINUOUS
 10
1540.559
 20
635.6067
 30
0.0
 11
1540.559
 21
524.1601
 31
0.0
  0
LINE
  5
3E0
  8
5
  6
CONTINUOUS
 10
1540.559
 20
524.1601
 30
0.0
 11
1540.559
 21
282.0533
 31
0.0
  0
LINE
  5
3E1
  8
5
  6
CONTINUOUS
 10
1540.559
 20
282.0533
 30
0.0
 11
1540.559
 21
170.6067
 31
0.0
  0
LINE
  5
3E2
  8
5
  6
CONTINUOUS
 10
1613.559
 20
543.1067
 30
0.0
 11
1613.559
 21
263.1067
 31
0.0
  0
LINE
  5
3E3
  8
5
  6
CONTINUOUS
 10
1472.059
 20
638.6067
 30
0.0
 11
1411.559
 21
638.6067
 31
0.0
  0
LINE
  5
3E4
  8
5
  6
CONTINUOUS
 10
1472.059
 20
167.6067
 30
0.0
 11
1411.559
 21
167.6067
 31
0.0
  0
LINE
  5
3E5
  8
5
  6
CONTINUOUS
 10
1472.059
 20
635.6067
 30
0.0
 11
1540.559
 21
635.6067
 31
0.0
  0
LINE
  5
3E6
  8
5
  6
CONTINUOUS
 10
1540.559
 20
170.6067
 30
0.0
 11
1472.059
 21
170.6067
 31
0.0
  0
LINE
  5
3E7
  8
5
  6
CONTINUOUS
 10
1472.059
 20
638.6067
 30
0.0
 11
1472.059
 21
525.4027
 31
0.0
  0
LINE
  5
3E8
  8
5
  6
CONTINUOUS
 10
1472.059
 20
525.4027
 30
0.0
 11
1472.059
 21
280.8106
 31
0.0
  0
LINE
  5
3E9
  8
5
  6
CONTINUOUS
 10
1472.059
 20
280.8106
 30
0.0
 11
1472.059
 21
167.6067
 31
0.0
  0
LINE
  5
3EA
  8
5
  6
CONTINUOUS
 10
1411.559
 20
167.6067
 30
0.0
 11
1411.559
 21
280.8106
 31
0.0
  0
LINE
  5
3EB
  8
5
  6
CONTINUOUS
 10
1411.559
 20
280.8106
 30
0.0
 11
1411.559
 21
525.4027
 31
0.0
  0
LINE
  5
3EC
  8
5
  6
CONTINUOUS
 10
1411.559
 20
525.4027
 30
0.0
 11
1411.559
 21
638.6067
 31
0.0
  0
LINE
  5
3ED
  8
5
  6
CONTINUOUS
 10
1077.175
 20
593.5276
 30
0.0
 11
1060.059
 21
606.3998
 31
0.0
  0
LINE
  5
3EE
  8
5
  6
CONTINUOUS
 10
1060.059
 20
606.3998
 30
0.0
 11
1001.059
 21
606.3998
 31
0.0
  0
LINE
  5
3EF
  8
5
  6
CONTINUOUS
 10
1001.059
 20
606.3998
 30
0.0
 11
983.9432
 21
593.5276
 31
0.0
  0
LINE
  5
3F0
  8
5
  6
CONTINUOUS
 10
1012.559
 20
575.7535
 30
0.0
 11
1020.559
 21
582.2054
 31
0.0
  0
LINE
  5
3F1
  8
5
  6
CONTINUOUS
 10
1020.559
 20
582.2054
 30
0.0
 11
1040.559
 21
582.2054
 31
0.0
  0
LINE
  5
3F2
  8
5
  6
CONTINUOUS
 10
1040.559
 20
582.2054
 30
0.0
 11
1048.559
 21
575.7535
 31
0.0
  0
LINE
  5
3F3
  8
5
  6
CONTINUOUS
 10
1259.059
 20
535.2067
 30
0.0
 11
1406.256
 21
535.2066
 31
0.0
  0
LINE
  5
3F4
  8
5
  6
CONTINUOUS
 10
983.9432
 20
615.6052
 30
0.0
 11
980.8092
 21
591.8154
 31
0.0
  0
LINE
  5
3F5
  8
5
  6
CONTINUOUS
 10
1404.072
 20
552.6067
 30
0.0
 11
1259.059
 21
552.6067
 31
0.0
  0
LINE
  5
3F6
  8
5
  6
CONTINUOUS
 10
983.9432
 20
615.6052
 30
0.0
 11
1001.059
 21
624.0775
 31
0.0
  0
LINE
  5
3F7
  8
5
  6
CONTINUOUS
 10
1001.059
 20
624.0775
 30
0.0
 11
1060.059
 21
624.0775
 31
0.0
  0
LINE
  5
3F8
  8
5
  6
CONTINUOUS
 10
1060.059
 20
624.0775
 30
0.0
 11
1077.175
 21
615.6052
 31
0.0
  0
LINE
  5
3F9
  8
5
  6
CONTINUOUS
 10
1279.059
 20
517.9068
 30
0.0
 11
1259.059
 21
534.201
 31
0.0
  0
LINE
  5
3FA
  8
5
  6
CONTINUOUS
 10
1077.175
 20
615.6052
 30
0.0
 11
1080.309
 21
591.8154
 31
0.0
  0
LINE
  5
3FB
  8
5
  6
CONTINUOUS
 10
983.9432
 20
593.5276
 30
0.0
 11
983.9432
 21
615.6052
 31
0.0
  0
LINE
  5
3FC
  8
5
  6
CONTINUOUS
 10
979.3865
 20
563.0467
 30
0.0
 11
980.8092
 21
591.8154
 31
0.0
  0
LINE
  5
3FD
  8
5
  6
CONTINUOUS
 10
1259.059
 20
272.0124
 30
0.0
 11
1278.937
 21
288.2067
 31
0.0
  0
LINE
  5
3FE
  8
5
  6
CONTINUOUS
 10
1259.059
 20
270.8067
 30
0.0
 11
1406.275
 21
270.8067
 31
0.0
  0
LINE
  5
3FF
  8
5
  6
CONTINUOUS
 10
1080.309
 20
591.8154
 30
0.0
 11
1081.732
 21
563.0467
 31
0.0
  0
LINE
  5
400
  8
5
  6
CONTINUOUS
 10
1077.175
 20
615.6052
 30
0.0
 11
1077.175
 21
593.5276
 31
0.0
  0
LINE
  5
401
  8
5
  6
CONTINUOUS
 10
1060.059
 20
606.3998
 30
0.0
 11
1060.059
 21
624.0775
 31
0.0
  0
LINE
  5
402
  8
5
  6
CONTINUOUS
 10
1001.059
 20
624.0775
 30
0.0
 11
1001.059
 21
606.3998
 31
0.0
  0
LINE
  5
403
  8
5
  6
CONTINUOUS
 10
1406.279
 20
535.382
 30
0.0
 11
1406.256
 21
535.2066
 31
0.0
  0
LINE
  5
404
  8
5
  6
CONTINUOUS
 10
1404.059
 20
517.9068
 30
0.0
 11
1279.059
 21
517.9068
 31
0.0
  0
LINE
  5
405
  8
5
  6
CONTINUOUS
 10
1406.256
 20
535.2066
 30
0.0
 11
1404.059
 21
517.9068
 31
0.0
  0
LINE
  5
406
  8
5
  6
CONTINUOUS
 10
1404.072
 20
288.2067
 30
0.0
 11
1278.937
 21
288.2067
 31
0.0
  0
LINE
  5
407
  8
5
  6
CONTINUOUS
 10
1404.072
 20
288.2067
 30
0.0
 11
1406.279
 21
270.8313
 31
0.0
  0
LINE
  5
408
  8
5
  6
CONTINUOUS
 10
1404.059
 20
288.3067
 30
0.0
 11
1404.072
 21
288.2067
 31
0.0
  0
LINE
  5
409
  8
5
  6
CONTINUOUS
 10
1279.059
 20
288.3067
 30
0.0
 11
1404.059
 21
288.3067
 31
0.0
  0
LINE
  5
40A
  8
5
  6
CONTINUOUS
 10
1278.937
 20
288.2067
 30
0.0
 11
1279.059
 21
288.3067
 31
0.0
  0
LINE
  5
40B
  8
5
  6
CONTINUOUS
 10
1406.256
 20
535.2066
 30
0.0
 11
1406.301
 21
535.2067
 31
0.0
  0
LINE
  5
40C
  8
5
  6
CONTINUOUS
 10
1408.504
 20
288.2067
 30
0.0
 11
1404.072
 21
288.2067
 31
0.0
  0
LINE
  5
40D
  8
5
  6
CONTINUOUS
 10
1404.059
 20
517.7066
 30
0.0
 11
1408.543
 21
517.7067
 31
0.0
  0
LINE
  5
40E
  8
5
  6
CONTINUOUS
 10
1404.059
 20
517.7066
 30
0.0
 11
1404.059
 21
517.9068
 31
0.0
  0
LINE
  5
40F
  8
5
  6
CONTINUOUS
 10
1408.663
 20
323.6066
 30
0.0
 11
1404.059
 21
323.6066
 31
0.0
  0
LINE
  5
410
  8
5
  6
CONTINUOUS
 10
1404.059
 20
306.6067
 30
0.0
 11
1404.059
 21
323.6066
 31
0.0
  0
LINE
  5
411
  8
5
  6
CONTINUOUS
 10
1404.059
 20
306.6067
 30
0.0
 11
1409.62
 21
306.6067
 31
0.0
  0
LINE
  5
412
  8
5
  6
CONTINUOUS
 10
1407.475
 20
353.6066
 30
0.0
 11
1404.059
 21
353.6066
 31
0.0
  0
LINE
  5
413
  8
5
  6
CONTINUOUS
 10
1404.059
 20
338.6067
 30
0.0
 11
1404.059
 21
353.6066
 31
0.0
  0
LINE
  5
414
  8
5
  6
CONTINUOUS
 10
1404.059
 20
338.6067
 30
0.0
 11
1407.994
 21
338.6067
 31
0.0
  0
LINE
  5
415
  8
5
  6
CONTINUOUS
 10
1406.838
 20
385.7066
 30
0.0
 11
1404.059
 21
385.7066
 31
0.0
  0
LINE
  5
416
  8
5
  6
CONTINUOUS
 10
1404.059
 20
368.5067
 30
0.0
 11
1404.059
 21
385.7066
 31
0.0
  0
LINE
  5
417
  8
5
  6
CONTINUOUS
 10
1404.059
 20
368.5067
 30
0.0
 11
1407.102
 21
368.5067
 31
0.0
  0
LINE
  5
418
  8
5
  6
CONTINUOUS
 10
1406.836
 20
420.3067
 30
0.0
 11
1404.059
 21
420.3067
 31
0.0
  0
LINE
  5
419
  8
5
  6
CONTINUOUS
 10
1404.059
 20
403.0066
 30
0.0
 11
1404.059
 21
420.3067
 31
0.0
  0
LINE
  5
41A
  8
5
  6
CONTINUOUS
 10
1404.059
 20
403.0066
 30
0.0
 11
1406.749
 21
403.0066
 31
0.0
  0
LINE
  5
41B
  8
5
  6
CONTINUOUS
 10
1407.47
 20
452.4067
 30
0.0
 11
1404.059
 21
452.4067
 31
0.0
  0
LINE
  5
41C
  8
5
  6
CONTINUOUS
 10
1404.059
 20
437.5066
 30
0.0
 11
1404.059
 21
452.4067
 31
0.0
  0
LINE
  5
41D
  8
5
  6
CONTINUOUS
 10
1404.059
 20
437.5066
 30
0.0
 11
1407.098
 21
437.5066
 31
0.0
  0
LINE
  5
41E
  8
5
  6
CONTINUOUS
 10
1408.653
 20
482.4067
 30
0.0
 11
1404.059
 21
482.4067
 31
0.0
  0
LINE
  5
41F
  8
5
  6
CONTINUOUS
 10
1404.059
 20
467.4066
 30
0.0
 11
1404.059
 21
482.4067
 31
0.0
  0
LINE
  5
420
  8
5
  6
CONTINUOUS
 10
1404.059
 20
467.4066
 30
0.0
 11
1407.986
 21
467.4066
 31
0.0
  0
LINE
  5
421
  8
5
  6
CONTINUOUS
 10
1404.059
 20
499.4066
 30
0.0
 11
1404.059
 21
517.7066
 31
0.0
  0
LINE
  5
422
  8
5
  6
CONTINUOUS
 10
1404.059
 20
499.4066
 30
0.0
 11
1409.607
 21
499.4066
 31
0.0
  0
LINE
  5
423
  8
5
  6
CONTINUOUS
 10
1404.059
 20
288.3067
 30
0.0
 11
1404.059
 21
306.6067
 31
0.0
  0
LINE
  5
424
  8
5
  6
CONTINUOUS
 10
1404.059
 20
323.6066
 30
0.0
 11
1404.059
 21
338.6067
 31
0.0
  0
LINE
  5
425
  8
5
  6
CONTINUOUS
 10
1259.059
 20
306.6067
 30
0.0
 11
1279.059
 21
306.6067
 31
0.0
  0
LINE
  5
426
  8
5
  6
CONTINUOUS
 10
1404.059
 20
353.6066
 30
0.0
 11
1404.059
 21
368.5067
 31
0.0
  0
LINE
  5
427
  8
5
  6
CONTINUOUS
 10
1279.059
 20
323.6066
 30
0.0
 11
1259.059
 21
323.6067
 31
0.0
  0
LINE
  5
428
  8
5
  6
CONTINUOUS
 10
1404.059
 20
385.7066
 30
0.0
 11
1404.059
 21
403.0066
 31
0.0
  0
LINE
  5
429
  8
5
  6
CONTINUOUS
 10
1404.059
 20
420.3067
 30
0.0
 11
1404.059
 21
437.5066
 31
0.0
  0
LINE
  5
42A
  8
5
  6
CONTINUOUS
 10
1259.059
 20
338.6067
 30
0.0
 11
1279.059
 21
338.6067
 31
0.0
  0
LINE
  5
42B
  8
5
  6
CONTINUOUS
 10
1404.059
 20
452.4067
 30
0.0
 11
1404.059
 21
467.4066
 31
0.0
  0
LINE
  5
42C
  8
5
  6
CONTINUOUS
 10
1279.059
 20
353.6066
 30
0.0
 11
1259.059
 21
353.6067
 31
0.0
  0
LINE
  5
42D
  8
5
  6
CONTINUOUS
 10
1404.059
 20
482.4067
 30
0.0
 11
1404.059
 21
499.4066
 31
0.0
  0
LINE
  5
42E
  8
5
  6
CONTINUOUS
 10
1279.059
 20
323.6066
 30
0.0
 11
1279.059
 21
306.6067
 31
0.0
  0
LINE
  5
42F
  8
5
  6
CONTINUOUS
 10
1259.059
 20
368.5067
 30
0.0
 11
1279.059
 21
368.5067
 31
0.0
  0
LINE
  5
430
  8
5
  6
CONTINUOUS
 10
1279.059
 20
353.6066
 30
0.0
 11
1279.059
 21
338.6067
 31
0.0
  0
LINE
  5
431
  8
5
  6
CONTINUOUS
 10
1279.059
 20
385.7066
 30
0.0
 11
1259.059
 21
385.7067
 31
0.0
  0
LINE
  5
432
  8
5
  6
CONTINUOUS
 10
1279.059
 20
385.7066
 30
0.0
 11
1279.059
 21
368.5067
 31
0.0
  0
LINE
  5
433
  8
5
  6
CONTINUOUS
 10
1279.059
 20
452.4067
 30
0.0
 11
1259.059
 21
452.4067
 31
0.0
  0
LINE
  5
434
  8
5
  6
CONTINUOUS
 10
1279.059
 20
452.4067
 30
0.0
 11
1279.059
 21
437.5066
 31
0.0
  0
LINE
  5
435
  8
5
  6
CONTINUOUS
 10
1279.059
 20
482.4067
 30
0.0
 11
1279.059
 21
467.4066
 31
0.0
  0
LINE
  5
436
  8
5
  6
CONTINUOUS
 10
1259.059
 20
437.5067
 30
0.0
 11
1279.059
 21
437.5066
 31
0.0
  0
LINE
  5
437
  8
5
  6
CONTINUOUS
 10
1279.059
 20
517.7066
 30
0.0
 11
1279.059
 21
499.4066
 31
0.0
  0
LINE
  5
438
  8
5
  6
CONTINUOUS
 10
1279.059
 20
482.4067
 30
0.0
 11
1259.059
 21
482.4067
 31
0.0
  0
LINE
  5
439
  8
5
  6
CONTINUOUS
 10
1279.059
 20
306.6067
 30
0.0
 11
1279.059
 21
288.3067
 31
0.0
  0
LINE
  5
43A
  8
5
  6
CONTINUOUS
 10
1279.059
 20
338.6067
 30
0.0
 11
1279.059
 21
323.6066
 31
0.0
  0
LINE
  5
43B
  8
5
  6
CONTINUOUS
 10
1259.059
 20
467.4067
 30
0.0
 11
1279.059
 21
467.4066
 31
0.0
  0
LINE
  5
43C
  8
5
  6
CONTINUOUS
 10
1279.059
 20
368.5067
 30
0.0
 11
1279.059
 21
353.6066
 31
0.0
  0
LINE
  5
43D
  8
5
  6
CONTINUOUS
 10
1279.059
 20
517.7066
 30
0.0
 11
1259.059
 21
517.7067
 31
0.0
  0
LINE
  5
43E
  8
5
  6
CONTINUOUS
 10
1279.059
 20
403.0066
 30
0.0
 11
1279.059
 21
385.7066
 31
0.0
  0
LINE
  5
43F
  8
5
  6
CONTINUOUS
 10
1279.059
 20
437.5066
 30
0.0
 11
1279.059
 21
420.3067
 31
0.0
  0
LINE
  5
440
  8
5
  6
CONTINUOUS
 10
1259.059
 20
499.4067
 30
0.0
 11
1279.059
 21
499.4066
 31
0.0
  0
LINE
  5
441
  8
5
  6
CONTINUOUS
 10
1279.059
 20
467.4066
 30
0.0
 11
1279.059
 21
452.4067
 31
0.0
  0
LINE
  5
442
  8
5
  6
CONTINUOUS
 10
1279.059
 20
499.4066
 30
0.0
 11
1279.059
 21
482.4067
 31
0.0
  0
LINE
  5
443
  8
5
  6
CONTINUOUS
 10
1279.059
 20
517.9068
 30
0.0
 11
1279.059
 21
517.7066
 31
0.0
  0
LINE
  5
444
  8
5
  6
CONTINUOUS
 10
1278.937
 20
288.2067
 30
0.0
 11
1259.059
 21
288.2067
 31
0.0
  0
LINE
  5
445
  8
5
  6
CONTINUOUS
 10
1279.059
 20
420.3067
 30
0.0
 11
1279.059
 21
403.0066
 31
0.0
  0
LINE
  5
446
  8
5
  6
CONTINUOUS
 10
1404.059
 20
517.7066
 30
0.0
 11
1279.059
 21
517.7066
 31
0.0
  0
LINE
  5
447
  8
5
  6
CONTINUOUS
 10
1279.059
 20
499.4066
 30
0.0
 11
1404.059
 21
499.4066
 31
0.0
  0
LINE
  5
448
  8
5
  6
CONTINUOUS
 10
1279.059
 20
467.4066
 30
0.0
 11
1404.059
 21
467.4066
 31
0.0
  0
LINE
  5
449
  8
5
  6
CONTINUOUS
 10
1404.059
 20
482.4067
 30
0.0
 11
1279.059
 21
482.4067
 31
0.0
  0
LINE
  5
44A
  8
5
  6
CONTINUOUS
 10
1279.059
 20
437.5066
 30
0.0
 11
1404.059
 21
437.5066
 31
0.0
  0
LINE
  5
44B
  8
5
  6
CONTINUOUS
 10
1404.059
 20
452.4067
 30
0.0
 11
1279.059
 21
452.4067
 31
0.0
  0
LINE
  5
44C
  8
5
  6
CONTINUOUS
 10
1279.059
 20
403.0066
 30
0.0
 11
1259.059
 21
403.0067
 31
0.0
  0
LINE
  5
44D
  8
5
  6
CONTINUOUS
 10
1279.059
 20
403.0066
 30
0.0
 11
1404.059
 21
403.0066
 31
0.0
  0
LINE
  5
44E
  8
5
  6
CONTINUOUS
 10
1404.059
 20
420.3067
 30
0.0
 11
1279.059
 21
420.3067
 31
0.0
  0
LINE
  5
44F
  8
5
  6
CONTINUOUS
 10
1259.059
 20
420.3067
 30
0.0
 11
1279.059
 21
420.3067
 31
0.0
  0
LINE
  5
450
  8
5
  6
CONTINUOUS
 10
1404.059
 20
385.7066
 30
0.0
 11
1279.059
 21
385.7066
 31
0.0
  0
LINE
  5
451
  8
5
  6
CONTINUOUS
 10
1279.059
 20
368.5067
 30
0.0
 11
1404.059
 21
368.5067
 31
0.0
  0
LINE
  5
452
  8
5
  6
CONTINUOUS
 10
1404.059
 20
353.6066
 30
0.0
 11
1279.059
 21
353.6066
 31
0.0
  0
LINE
  5
453
  8
5
  6
CONTINUOUS
 10
1279.059
 20
338.6067
 30
0.0
 11
1404.059
 21
338.6067
 31
0.0
  0
LINE
  5
454
  8
5
  6
CONTINUOUS
 10
1404.059
 20
323.6066
 30
0.0
 11
1279.059
 21
323.6066
 31
0.0
  0
LINE
  5
455
  8
5
  6
CONTINUOUS
 10
1279.059
 20
306.6067
 30
0.0
 11
1404.059
 21
306.6067
 31
0.0
  0
LINE
  5
456
  8
5
  6
CONTINUOUS
 10
965.8431
 20
625.8072
 30
0.0
 11
1406.275
 21
625.8072
 31
0.0
  0
LINE
  5
457
  8
5
  6
CONTINUOUS
 10
968.0592
 20
608.6066
 30
0.0
 11
965.8367
 21
625.7572
 31
0.0
  0
LINE
  5
458
  8
5
  6
CONTINUOUS
 10
1404.059
 20
608.6066
 30
0.0
 11
1078.097
 21
608.6067
 31
0.0
  0
LINE
  5
459
  8
5
  6
CONTINUOUS
 10
983.0211
 20
608.6067
 30
0.0
 11
968.0592
 21
608.6066
 31
0.0
  0
LINE
  5
45A
  8
5
  6
CONTINUOUS
 10
1406.282
 20
625.7572
 30
0.0
 11
1404.059
 21
608.6066
 31
0.0
  0
LINE
  5
45B
  8
5
  6
CONTINUOUS
 10
1406.275
 20
180.4061
 30
0.0
 11
965.8431
 21
180.4061
 31
0.0
  0
LINE
  5
45C
  8
5
  6
CONTINUOUS
 10
1404.059
 20
197.6067
 30
0.0
 11
1406.282
 21
180.4561
 31
0.0
  0
LINE
  5
45D
  8
5
  6
CONTINUOUS
 10
968.0592
 20
197.6067
 30
0.0
 11
1289.021
 21
197.6067
 31
0.0
  0
LINE
  5
45E
  8
5
  6
CONTINUOUS
 10
1384.097
 20
197.6067
 30
0.0
 11
1404.059
 21
197.6067
 31
0.0
  0
LINE
  5
45F
  8
5
  6
CONTINUOUS
 10
965.8367
 20
180.4561
 30
0.0
 11
968.0592
 21
197.6067
 31
0.0
  0
LINE
  5
460
  8
5
  6
CONTINUOUS
 10
1286.809
 20
214.3979
 30
0.0
 11
1285.387
 21
243.1665
 31
0.0
  0
LINE
  5
461
  8
5
  6
CONTINUOUS
 10
1404.059
 20
197.6067
 30
0.0
 11
1404.059
 21
243.1665
 31
0.0
  0
LINE
  5
462
  8
5
  6
CONTINUOUS
 10
1404.059
 20
243.1665
 30
0.0
 11
1387.732
 21
243.1665
 31
0.0
  0
LINE
  5
463
  8
5
  6
CONTINUOUS
 10
1387.732
 20
243.1665
 30
0.0
 11
1386.309
 21
214.3979
 31
0.0
  0
LINE
  5
464
  8
5
  6
CONTINUOUS
 10
1354.559
 20
243.1665
 30
0.0
 11
1318.559
 21
243.1665
 31
0.0
  0
LINE
  5
465
  8
5
  6
CONTINUOUS
 10
1081.732
 20
563.0467
 30
0.0
 11
1404.059
 21
563.0467
 31
0.0
  0
LINE
  5
466
  8
5
  6
CONTINUOUS
 10
1404.059
 20
563.0467
 30
0.0
 11
1404.059
 21
608.6066
 31
0.0
  0
LINE
  5
467
  8
5
  6
CONTINUOUS
 10
968.0592
 20
608.6066
 30
0.0
 11
968.0592
 21
563.0467
 31
0.0
  0
LINE
  5
468
  8
5
  6
CONTINUOUS
 10
968.0592
 20
563.0467
 30
0.0
 11
979.3865
 21
563.0467
 31
0.0
  0
LINE
  5
469
  8
5
  6
CONTINUOUS
 10
1012.559
 20
563.0467
 30
0.0
 11
1048.559
 21
563.0467
 31
0.0
  0
LINE
  5
46A
  8
5
  6
CONTINUOUS
 10
1406.288
 20
228.5095
 30
0.0
 11
1406.288
 21
180.5067
 31
0.0
  0
LINE
  5
46B
  8
5
  6
CONTINUOUS
 10
1408.53
 20
198.0068
 30
0.0
 11
1408.53
 21
216.5459
 31
0.0
  0
LINE
  5
46C
  8
5
  6
CONTINUOUS
 10
1408.53
 20
589.6674
 30
0.0
 11
1408.53
 21
608.2067
 31
0.0
  0
LINE
  5
46D
  8
5
  6
CONTINUOUS
 10
1406.288
 20
625.7067
 30
0.0
 11
1406.288
 21
577.7038
 31
0.0
  0
LINE
  5
46E
  8
5
  6
CONTINUOUS
 10
965.8302
 20
577.7038
 30
0.0
 11
965.8302
 21
625.7067
 31
0.0
  0
LINE
  5
46F
  8
5
  6
CONTINUOUS
 10
963.5884
 20
608.2067
 30
0.0
 11
963.5884
 21
589.6674
 31
0.0
  0
LINE
  5
470
  8
5
  6
CONTINUOUS
 10
1307.059
 20
182.1358
 30
0.0
 11
1289.943
 21
190.608
 31
0.0
  0
LINE
  5
471
  8
5
  6
CONTINUOUS
 10
1307.059
 20
199.8135
 30
0.0
 11
1307.059
 21
182.1358
 31
0.0
  0
LINE
  5
472
  8
5
  6
CONTINUOUS
 10
1289.943
 20
212.6858
 30
0.0
 11
1307.059
 21
199.8135
 31
0.0
  0
LINE
  5
473
  8
5
  6
CONTINUOUS
 10
1285.387
 20
243.1665
 30
0.0
 11
1259.059
 21
243.1666
 31
0.0
  0
LINE
  5
474
  8
5
  6
CONTINUOUS
 10
1289.943
 20
190.608
 30
0.0
 11
1289.943
 21
212.6858
 31
0.0
  0
LINE
  5
475
  8
5
  6
CONTINUOUS
 10
1366.059
 20
199.8135
 30
0.0
 11
1383.175
 21
212.6858
 31
0.0
  0
LINE
  5
476
  8
5
  6
CONTINUOUS
 10
968.0592
 20
240.6066
 30
0.0
 11
968.0592
 21
197.6067
 31
0.0
  0
LINE
  5
477
  8
5
  6
CONTINUOUS
 10
1366.059
 20
182.1358
 30
0.0
 11
1366.059
 21
199.8135
 31
0.0
  0
LINE
  5
478
  8
5
  6
CONTINUOUS
 10
1383.175
 20
190.608
 30
0.0
 11
1366.059
 21
182.1358
 31
0.0
  0
LINE
  5
479
  8
5
  6
CONTINUOUS
 10
1383.175
 20
212.6858
 30
0.0
 11
1383.175
 21
190.608
 31
0.0
  0
LINE
  5
47A
  8
5
  6
CONTINUOUS
 10
1326.559
 20
224.008
 30
0.0
 11
1318.559
 21
230.46
 31
0.0
  0
LINE
  5
47B
  8
5
  6
CONTINUOUS
 10
1354.559
 20
230.46
 30
0.0
 11
1346.559
 21
224.008
 31
0.0
  0
LINE
  5
47C
  8
5
  6
CONTINUOUS
 10
1346.559
 20
224.008
 30
0.0
 11
1326.559
 21
224.008
 31
0.0
  0
LINE
  5
47D
  8
5
  6
CONTINUOUS
 10
1366.059
 20
182.1358
 30
0.0
 11
1307.059
 21
182.1358
 31
0.0
  0
LINE
  5
47E
  8
5
  6
CONTINUOUS
 10
1307.059
 20
199.8135
 30
0.0
 11
1366.059
 21
199.8135
 31
0.0
  0
LINE
  5
47F
  8
5
  6
CONTINUOUS
 10
1289.943
 20
190.608
 30
0.0
 11
1286.809
 21
214.3979
 31
0.0
  0
LINE
  5
480
  8
5
  6
CONTINUOUS
 10
1286.404
 20
253.5067
 30
0.0
 11
1289.943
 21
212.6858
 31
0.0
  0
LINE
  5
481
  8
5
  6
CONTINUOUS
 10
1386.715
 20
253.5067
 30
0.0
 11
1383.175
 21
212.6858
 31
0.0
  0
LINE
  5
482
  8
5
  6
CONTINUOUS
 10
1383.175
 20
190.608
 30
0.0
 11
1386.309
 21
214.3979
 31
0.0
  0
LINE
  5
483
  8
5
  6
CONTINUOUS
 10
1354.559
 20
253.5067
 30
0.0
 11
1354.559
 21
230.46
 31
0.0
  0
LINE
  5
484
  8
5
  6
CONTINUOUS
 10
1318.559
 20
230.46
 30
0.0
 11
1318.559
 21
253.5067
 31
0.0
  0
LINE
  5
485
  8
5
  6
CONTINUOUS
 10
1604.559
 20
543.1067
 30
0.0
 11
1540.559
 21
626.6066
 31
0.0
  0
LINE
  5
486
  8
5
  6
CONTINUOUS
 10
963.5884
 20
216.5459
 30
0.0
 11
963.5884
 21
198.0068
 31
0.0
  0
LINE
  5
487
  8
5
  6
CONTINUOUS
 10
965.8302
 20
180.5067
 30
0.0
 11
965.8302
 21
228.5095
 31
0.0
  0
LINE
  5
488
  8
5
  6
CONTINUOUS
 10
1604.559
 20
543.1067
 30
0.0
 11
1604.559
 21
263.1067
 31
0.0
  0
LINE
  5
489
  8
5
  6
CONTINUOUS
 10
1540.559
 20
179.6066
 30
0.0
 11
1604.559
 21
263.1067
 31
0.0
  0
LINE
  5
48A
  8
5
  6
CONTINUOUS
 10
1613.559
 20
543.1067
 30
0.0
 11
1604.559
 21
543.1067
 31
0.0
  0
LINE
  5
48B
  8
5
  6
CONTINUOUS
 10
1604.559
 20
263.1067
 30
0.0
 11
1613.559
 21
263.1067
 31
0.0
  0
LINE
  5
48C
  8
5
  6
CONTINUOUS
 10
1472.059
 20
525.4027
 30
0.0
 11
1411.559
 21
525.4027
 31
0.0
  0
LINE
  5
48D
  8
5
  6
CONTINUOUS
 10
1472.059
 20
280.8106
 30
0.0
 11
1411.559
 21
280.8106
 31
0.0
  0
LINE
  5
48E
  8
5
  6
CONTINUOUS
 10
1472.059
 20
282.0534
 30
0.0
 11
1540.559
 21
282.0533
 31
0.0
  0
LINE
  5
48F
  8
5
  6
CONTINUOUS
 10
1472.059
 20
524.1601
 30
0.0
 11
1540.559
 21
524.1601
 31
0.0
  0
LINE
  5
490
  8
5
  6
CONTINUOUS
 10
1880.735
 20
1411.526
 30
0.0
 11
1885.878
 21
1402.967
 31
0.0
  0
LINE
  5
491
  8
5
  6
CONTINUOUS
 10
1406.749
 20
184.1067
 30
0.0
 11
1411.559
 21
184.1067
 31
0.0
  0
LINE
  5
496
  8
5
  6
CONTINUOUS
 10
2305.732
 20
1411.526
 30
0.0
 11
2300.589
 21
1402.967
 31
0.0
  0
LINE
  5
497
  8
5
  6
CONTINUOUS
 10
1889.94
 20
1443.304
 30
0.0
 11
1902.813
 21
1433.604
 31
0.0
  0
LINE
  5
498
  8
5
  6
CONTINUOUS
 10
1880.735
 20
1411.526
 30
0.0
 11
1872.263
 21
1425.626
 31
0.0
  0
LINE
  5
499
  8
5
  6
CONTINUOUS
 10
1872.263
 20
1425.626
 30
0.0
 11
1889.94
 21
1443.304
 31
0.0
  0
LINE
  5
49A
  8
5
  6
CONTINUOUS
 10
2296.527
 20
1443.304
 30
0.0
 11
2314.205
 21
1425.626
 31
0.0
  0
LINE
  5
49B
  8
5
  6
CONTINUOUS
 10
2314.205
 20
1425.626
 30
0.0
 11
2305.732
 21
1411.526
 31
0.0
  0
LINE
  5
49C
  8
5
  6
CONTINUOUS
 10
2283.655
 20
1433.604
 30
0.0
 11
2296.527
 21
1443.304
 31
0.0
  0
LINE
  5
49D
  8
5
  6
CONTINUOUS
 10
1902.813
 20
1433.604
 30
0.0
 11
1880.735
 21
1411.526
 31
0.0
  0
LINE
  5
49E
  8
5
  6
CONTINUOUS
 10
2305.732
 20
1411.526
 30
0.0
 11
2283.655
 21
1433.604
 31
0.0
  0
LINE
  5
49F
  8
5
  6
CONTINUOUS
 10
2213.408
 20
1470.333
 30
0.0
 11
2213.431
 21
1469.674
 31
0.0
  0
LINE
  5
4B7
  8
7
  6
DASHED
 10
896.5591
 20
1462.446
 30
0.0
 11
878.5591
 21
1462.446
 31
0.0
  0
LINE
  5
4B8
  8
7
  6
DASHED
 10
896.5591
 20
1443.935
 30
0.0
 11
878.5591
 21
1443.946
 31
0.0
  0
LINE
  5
4B9
  8
7
  6
DASHED
 10
896.5591
 20
1000.506
 30
0.0
 11
878.5591
 21
1000.506
 31
0.0
  0
LINE
  5
4BA
  8
7
  6
DASHED
 10
896.5591
 20
982.0063
 30
0.0
 11
878.5591
 21
982.0063
 31
0.0
  0
LINE
  5
4BB
  8
7
  6
DASHED
 10
896.5592
 20
643.3264
 30
0.0
 11
878.5592
 21
643.3264
 31
0.0
  0
LINE
  5
4BC
  8
7
  6
DASHED
 10
896.5592
 20
624.8266
 30
0.0
 11
878.5592
 21
624.8266
 31
0.0
  0
LINE
  5
4BD
  8
7
  6
DASHED
 10
896.5592
 20
489.5276
 30
0.0
 11
878.5592
 21
489.5276
 31
0.0
  0
LINE
  5
4BE
  8
7
  6
DASHED
 10
896.5592
 20
508.0275
 30
0.0
 11
878.5592
 21
508.0275
 31
0.0
  0
LINE
  5
4BF
  8
7
  6
DASHED
 10
896.5592
 20
316.6859
 30
0.0
 11
878.5592
 21
316.6859
 31
0.0
  0
LINE
  5
4C0
  8
7
  6
DASHED
 10
896.5592
 20
298.1857
 30
0.0
 11
878.5592
 21
298.1857
 31
0.0
  0
LINE
  5
4C1
  8
7
  6
DASHED
 10
896.5592
 20
181.3867
 30
0.0
 11
878.5592
 21
181.3867
 31
0.0
  0
LINE
  5
4C2
  8
7
  6
DASHED
 10
896.5592
 20
162.8868
 30
0.0
 11
878.5592
 21
162.8868
 31
0.0
  0
LINE
  5
4C3
  8
7
  6
DASHED
 10
896.5591
 20
1117.305
 30
0.0
 11
878.5591
 21
1117.305
 31
0.0
  0
LINE
  5
4C4
  8
7
  6
DASHED
 10
896.5591
 20
1135.805
 30
0.0
 11
878.5591
 21
1135.805
 31
0.0
  0
LINE
  5
4C5
  8
7
  6
DASHED
 10
896.5591
 20
1327.147
 30
0.0
 11
878.5591
 21
1327.147
 31
0.0
  0
LINE
  5
4C6
  8
7
  6
DASHED
 10
896.5591
 20
1308.647
 30
0.0
 11
878.5591
 21
1308.647
 31
0.0
  0
LINE
  5
4C7
  8
6
  6
CENTER
 10
904.0591
 20
1126.555
 30
0.0
 11
866.0591
 21
1126.555
 31
0.0
  0
LINE
  5
4C8
  8
6
  6
CENTER
 10
904.0591
 20
991.2564
 30
0.0
 11
866.0591
 21
991.2564
 31
0.0
  0
LINE
  5
4C9
  8
6
  6
CENTER
 10
904.0591
 20
1317.897
 30
0.0
 11
866.0591
 21
1317.897
 31
0.0
  0
LINE
  5
4CA
  8
6
  6
CENTER
 10
904.0591
 20
1453.18
 30
0.0
 11
866.0591
 21
1453.204
 31
0.0
  0
LINE
  5
4CB
  8
6
  6
CENTER
 10
904.0592
 20
172.1368
 30
0.0
 11
866.0592
 21
172.1368
 31
0.0
  0
LINE
  5
4CC
  8
6
  6
CENTER
 10
904.0592
 20
307.4357
 30
0.0
 11
866.0592
 21
307.4357
 31
0.0
  0
LINE
  5
4CD
  8
6
  6
CENTER
 10
904.0592
 20
498.7776
 30
0.0
 11
866.0592
 21
498.7776
 31
0.0
  0
LINE
  5
4CE
  8
6
  6
CENTER
 10
904.0592
 20
634.0766
 30
0.0
 11
866.0592
 21
634.0766
 31
0.0
  0
ARC
  5
4CF
  8
6
  6
CENTER
 10
2093.234
 20
1222.333
 30
0.0
 40
250.0
 50
18.08247
 51
26.72072
  0
LINE
  5
4D0
  8
6
  6
CENTER
 10
2308.498
 20
1311.498
 30
0.0
 11
2337.369
 21
1323.457
 31
0.0
  0
ARC
  5
4D1
  8
6
  6
CENTER
 10
2093.234
 20
1222.333
 30
0.0
 40
250.0
 50
332.1428
 51
342.1568
  0
LINE
  5
4D2
  8
6
  6
CENTER
 10
2308.498
 20
1133.167
 30
0.0
 11
2337.369
 21
1121.209
 31
0.0
  0
ARC
  5
4D3
  8
6
  6
CENTER
 10
2093.234
 20
1222.333
 30
0.0
 40
250.0
 50
287.8131
 51
296.6789
  0
LINE
  5
4D4
  8
6
  6
CENTER
 10
2182.399
 20
1007.069
 30
0.0
 11
2194.358
 21
978.1975
 31
0.0
  0
ARC
  5
4D5
  8
6
  6
CENTER
 10
2093.234
 20
1222.333
 30
0.0
 40
250.0
 50
241.9338
 51
252.2748
  0
LINE
  5
4D6
  8
6
  6
CENTER
 10
2004.068
 20
1007.069
 30
0.0
 11
1992.11
 21
978.1975
 31
0.0
  0
ARC
  5
4D7
  8
6
  6
CENTER
 10
2093.234
 20
1222.333
 30
0.0
 40
250.0
 50
197.0444
 51
207.5812
  0
LINE
  5
4D8
  8
6
  6
CENTER
 10
1877.97
 20
1133.167
 30
0.0
 11
1849.099
 21
1121.209
 31
0.0
  0
ARC
  5
4D9
  8
6
  6
CENTER
 10
2093.234
 20
1222.333
 30
0.0
 40
250.0
 50
153.0924
 51
162.2464
  0
LINE
  5
4DA
  8
6
  6
CENTER
 10
1877.97
 20
1311.498
 30
0.0
 11
1849.099
 21
1323.457
 31
0.0
  0
ARC
  5
4DB
  8
6
  6
CENTER
 10
2093.234
 20
1222.333
 30
0.0
 40
250.0
 50
107.7805
 51
117.2171
  0
LINE
  5
4DC
  8
6
  6
CENTER
 10
2004.068
 20
1437.597
 30
0.0
 11
1992.11
 21
1466.468
 31
0.0
  0
ARC
  5
4DD
  8
6
  6
CENTER
 10
2093.234
 20
1222.333
 30
0.0
 40
250.0
 50
62.77481
 51
71.76192
  0
LINE
  5
4DE
  8
6
  6
CENTER
 10
2182.399
 20
1437.597
 30
0.0
 11
2194.358
 21
1466.468
 31
0.0
  0
LINE
  5
4DF
  8
5
  6
CONTINUOUS
 10
1910.482
 20
1427.824
 30
0.0
 11
1902.813
 21
1433.604
 31
0.0
  0
LINE
  5
4E4
  8
5
  6
CONTINUOUS
 10
2275.985
 20
1427.824
 30
0.0
 11
2283.655
 21
1433.604
 31
0.0
  0
LINE
  5
4E5
  8
5
  6
CONTINUOUS
 10
1973.036
 20
1469.674
 30
0.0
 11
1973.059
 21
1470.333
 31
0.0
  0
ARC
  5
4E8
  8
5
  6
CENTER
 10
2093.234
 20
1222.333
 30
0.0
 40
250.0
 50
22.35838
 51
22.68099
  0
LINE
  5
4E9
  8
6
  6
CENTER
 10
713.5591
 20
1222.226
 30
0.0
 11
1638.559
 21
1222.226
 31
0.0
  0
LINE
  5
50D
  8
0
  6
CONTINUOUS
 10
748.5591
 20
1254.727
 30
0.0
 11
757.5591
 21
1253.455
 31
0.0
  0
LINE
  5
50E
  8
0
  6
CONTINUOUS
 10
868.5591
 20
1254.726
 30
0.0
 11
859.5591
 21
1253.455
 31
0.0
  0
LINE
  5
50F
  8
6
  6
CENTER
 10
989.555499
 20
403.106521
 30
0.0
 11
713.5592
 21
403.1067
 31
0.0
  0
LINE
  5
54A
  8
5
  6
CONTINUOUS
 10
416.10879
 20
1237.590911
 30
0.0
 11
418.79679
 21
1230.060801
 31
0.0
  0
LINE
  5
54B
  8
5
  6
CONTINUOUS
 10
396.06919
 20
1230.060031
 30
0.0
 11
398.65219
 21
1237.590281
 31
0.0
  0
LINE
  5
54C
  8
5
  6
CONTINUOUS
 10
396.12449
 20
1248.306441
 30
0.0
 11
389.86509
 21
1230.059821
 31
0.0
  0
LINE
  5
54D
  8
5
  6
CONTINUOUS
 10
425.44679
 20
1230.061011
 30
0.0
 11
418.93329
 21
1248.307211
 31
0.0
  0
LINE
  5
54E
  8
5
  6
CONTINUOUS
 10
432.64769
 20
1248.307701
 30
0.0
 11
432.64839
 21
1230.061221
 31
0.0
  0
ARC
  5
54F
  8
5
  6
CONTINUOUS
 10
447.12439
 20
1240.441661
 30
0.0
 40
10.379901
 50
270.002
 51
0.0019
  0
LINE
  5
550
  8
5
  6
CONTINUOUS
 10
443.76299
 20
1248.307981
 30
0.0
 11
443.76369
 21
1230.061641
 31
0.0
  0
LINE
  5
551
  8
5
  6
CONTINUOUS
 10
442.29369
 20
1230.061641
 30
0.0
 11
442.29299
 21
1248.307981
 31
0.0
  0
LINE
  5
552
  8
5
  6
CONTINUOUS
 10
464.59989
 20
1248.308751
 30
0.0
 11
464.60059
 21
1230.062411
 31
0.0
  0
LINE
  5
553
  8
5
  6
CONTINUOUS
 10
474.24519
 20
1230.062691
 30
0.0
 11
474.24449
 21
1248.309101
 31
0.0
  0
LINE
  5
554
  8
5
  6
CONTINUOUS
 10
475.71449
 20
1248.309101
 30
0.0
 11
475.71519
 21
1230.062691
 31
0.0
  0
ARC
  5
555
  8
5
  6
CONTINUOUS
 10
479.07659
 20
1240.442781
 30
0.0
 40
10.379908
 50
270.0017
 51
0.0019
  0
LINE
  5
556
  8
5
  6
CONTINUOUS
 10
389.86509
 20
1230.059821
 30
0.0
 11
396.06919
 21
1230.060031
 31
0.0
  0
LINE
  5
557
  8
5
  6
CONTINUOUS
 10
418.79679
 20
1230.060801
 30
0.0
 11
425.44679
 21
1230.061011
 31
0.0
  0
LINE
  5
558
  8
5
  6
CONTINUOUS
 10
443.76369
 20
1230.061641
 30
0.0
 11
447.12509
 21
1230.061781
 31
0.0
  0
LINE
  5
559
  8
5
  6
CONTINUOUS
 10
432.64839
 20
1230.061221
 30
0.0
 11
442.29369
 21
1230.061641
 31
0.0
  0
LINE
  5
55A
  8
5
  6
CONTINUOUS
 10
475.71519
 20
1230.062691
 30
0.0
 11
479.07659
 21
1230.062901
 31
0.0
  0
LINE
  5
55B
  8
5
  6
CONTINUOUS
 10
464.60059
 20
1230.062411
 30
0.0
 11
474.24519
 21
1230.062691
 31
0.0
  0
LINE
  5
55C
  8
5
  6
CONTINUOUS
 10
412.18739
 20
1267.205041
 30
0.0
 11
408.13229
 21
1267.204901
 31
0.0
  0
LINE
  5
55D
  8
5
  6
CONTINUOUS
 10
418.93329
 20
1248.307211
 30
0.0
 11
408.13299
 21
1248.306791
 31
0.0
  0
LINE
  5
55E
  8
5
  6
CONTINUOUS
 10
408.13299
 20
1249.776791
 30
0.0
 11
418.40899
 21
1249.777211
 31
0.0
  0
LINE
  5
55F
  8
5
  6
CONTINUOUS
 10
408.13369
 20
1237.590561
 30
0.0
 11
416.10879
 21
1237.590911
 31
0.0
  0
LINE
  5
560
  8
5
  6
CONTINUOUS
 10
406.66229
 20
1267.204831
 30
0.0
 11
402.60719
 21
1267.204691
 31
0.0
  0
LINE
  5
561
  8
5
  6
CONTINUOUS
 10
406.66299
 20
1248.306791
 30
0.0
 11
396.12449
 21
1248.306441
 31
0.0
  0
LINE
  5
562
  8
5
  6
CONTINUOUS
 10
396.62849
 20
1249.776441
 30
0.0
 11
406.66299
 21
1249.776791
 31
0.0
  0
LINE
  5
563
  8
5
  6
CONTINUOUS
 10
408.13229
 20
1267.204901
 30
0.0
 11
408.13299
 21
1249.776791
 31
0.0
  0
LINE
  5
564
  8
5
  6
CONTINUOUS
 10
406.66299
 20
1249.776791
 30
0.0
 11
406.66229
 21
1267.204831
 31
0.0
  0
LINE
  5
565
  8
5
  6
CONTINUOUS
 10
402.60719
 20
1267.204691
 30
0.0
 11
396.62849
 21
1249.776441
 31
0.0
  0
LINE
  5
566
  8
5
  6
CONTINUOUS
 10
398.65219
 20
1237.590281
 30
0.0
 11
406.66369
 21
1237.590561
 31
0.0
  0
LINE
  5
567
  8
5
  6
CONTINUOUS
 10
408.13299
 20
1248.306791
 30
0.0
 11
408.13369
 21
1237.590561
 31
0.0
  0
LINE
  5
568
  8
5
  6
CONTINUOUS
 10
406.66369
 20
1237.590561
 30
0.0
 11
406.66299
 21
1248.306791
 31
0.0
  0
ARC
  5
569
  8
5
  6
CONTINUOUS
 10
445.00199
 20
1260.772391
 30
0.0
 40
9.46967
 50
283.5581
 51
354.7072
  0
ARC
  5
56A
  8
5
  6
CONTINUOUS
 10
445.73489
 20
1239.877531
 30
0.0
 40
11.783324
 50
2.745839
 51
45.68278
  0
ARC
  5
56B
  8
5
  6
CONTINUOUS
 10
447.12369
 20
1259.898581
 30
0.0
 40
7.307643
 50
0.001947
 51
90.00195
  0
LINE
  5
56C
  8
5
  6
CONTINUOUS
 10
418.40899
 20
1249.777211
 30
0.0
 11
412.18739
 21
1267.205041
 31
0.0
  0
LINE
  5
56D
  8
5
  6
CONTINUOUS
 10
447.12369
 20
1267.206231
 30
0.0
 11
443.76229
 21
1267.206161
 31
0.0
  0
LINE
  5
56E
  8
5
  6
CONTINUOUS
 10
442.29229
 20
1267.206091
 30
0.0
 11
432.64699
 21
1267.205741
 31
0.0
  0
ARC
  5
56F
  8
5
  6
CONTINUOUS
 10
445.73489
 20
1239.877531
 30
0.0
 40
11.783303
 50
57.16499
 51
82.74766
  0
LINE
  5
570
  8
5
  6
CONTINUOUS
 10
443.76299
 20
1249.777981
 30
0.0
 11
452.12379
 21
1249.778331
 31
0.0
  0
LINE
  5
571
  8
5
  6
CONTINUOUS
 10
453.96689
 20
1248.308331
 30
0.0
 11
443.76299
 21
1248.307981
 31
0.0
  0
LINE
  5
572
  8
5
  6
CONTINUOUS
 10
442.29299
 20
1248.307981
 30
0.0
 11
432.64769
 21
1248.307701
 31
0.0
  0
LINE
  5
573
  8
5
  6
CONTINUOUS
 10
432.64769
 20
1249.777701
 30
0.0
 11
442.29299
 21
1249.777981
 31
0.0
  0
LINE
  5
574
  8
5
  6
CONTINUOUS
 10
432.64699
 20
1267.205741
 30
0.0
 11
432.64769
 21
1249.777631
 31
0.0
  0
LINE
  5
575
  8
5
  6
CONTINUOUS
 10
443.76229
 20
1267.206161
 30
0.0
 11
443.76299
 21
1249.777981
 31
0.0
  0
LINE
  5
576
  8
5
  6
CONTINUOUS
 10
442.29299
 20
1249.777981
 30
0.0
 11
442.29229
 21
1267.206091
 31
0.0
  0
ARC
  5
577
  8
5
  6
CONTINUOUS
 10
479.07589
 20
1259.899701
 30
0.0
 40
7.307643
 50
0.001947
 51
90.00195
  0
LINE
  5
578
  8
5
  6
CONTINUOUS
 10
479.07519
 20
1267.207351
 30
0.0
 11
475.71379
 21
1267.207211
 31
0.0
  0
LINE
  5
579
  8
5
  6
CONTINUOUS
 10
485.91839
 20
1248.309451
 30
0.0
 11
475.71449
 21
1248.309101
 31
0.0
  0
LINE
  5
57A
  8
5
  6
CONTINUOUS
 10
475.71449
 20
1249.779101
 30
0.0
 11
484.07599
 21
1249.779381
 31
0.0
  0
LINE
  5
57B
  8
5
  6
CONTINUOUS
 10
474.24379
 20
1267.207141
 30
0.0
 11
464.59919
 21
1267.206861
 31
0.0
  0
LINE
  5
57C
  8
5
  6
CONTINUOUS
 10
464.59989
 20
1248.308751
 30
0.0
 11
474.24449
 21
1248.309101
 31
0.0
  0
LINE
  5
57D
  8
5
  6
CONTINUOUS
 10
464.59989
 20
1249.778751
 30
0.0
 11
474.24449
 21
1249.779101
 31
0.0
  0
LINE
  5
57E
  8
5
  6
CONTINUOUS
 10
464.59919
 20
1267.206861
 30
0.0
 11
464.59989
 21
1249.778751
 31
0.0
  0
LINE
  5
57F
  8
5
  6
CONTINUOUS
 10
475.71379
 20
1267.207211
 30
0.0
 11
475.71449
 21
1249.779101
 31
0.0
  0
LINE
  5
580
  8
5
  6
CONTINUOUS
 10
474.24449
 20
1249.779101
 30
0.0
 11
474.24379
 21
1267.207141
 31
0.0
  0
ARC
  5
581
  8
5
  6
CONTINUOUS
 10
477.68639
 20
1239.878651
 30
0.0
 40
11.783352
 50
57.16459
 51
82.74766
  0
ARC
  5
582
  8
5
  6
CONTINUOUS
 10
476.95419
 20
1260.773441
 30
0.0
 40
9.46967
 50
283.5581
 51
354.7072
  0
ARC
  5
583
  8
5
  6
CONTINUOUS
 10
477.68639
 20
1239.878651
 30
0.0
 40
11.783324
 50
2.745839
 51
45.68319
  0
LINE
  5
584
  8
5
  6
CONTINUOUS
 10
2073.993613
 20
1614.671929
 30
0.0
 11
2076.681613
 21
1607.141819
 31
0.0
  0
LINE
  5
585
  8
5
  6
CONTINUOUS
 10
2053.954013
 20
1607.141049
 30
0.0
 11
2056.537013
 21
1614.671299
 31
0.0
  0
LINE
  5
586
  8
5
  6
CONTINUOUS
 10
2054.009313
 20
1625.387459
 30
0.0
 11
2047.749913
 21
1607.140839
 31
0.0
  0
LINE
  5
587
  8
5
  6
CONTINUOUS
 10
2083.331613
 20
1607.142029
 30
0.0
 11
2076.818113
 21
1625.388229
 31
0.0
  0
LINE
  5
588
  8
5
  6
CONTINUOUS
 10
2090.532513
 20
1625.388719
 30
0.0
 11
2090.533213
 21
1607.142239
 31
0.0
  0
ARC
  5
589
  8
5
  6
CONTINUOUS
 10
2105.009213
 20
1617.522679
 30
0.0
 40
10.379901
 50
270.002
 51
0.0019
  0
LINE
  5
58A
  8
5
  6
CONTINUOUS
 10
2101.647813
 20
1625.388999
 30
0.0
 11
2101.648513
 21
1607.142659
 31
0.0
  0
LINE
  5
58B
  8
5
  6
CONTINUOUS
 10
2100.178513
 20
1607.142659
 30
0.0
 11
2100.177813
 21
1625.388999
 31
0.0
  0
LINE
  5
58C
  8
5
  6
CONTINUOUS
 10
2122.484713
 20
1625.389769
 30
0.0
 11
2122.485413
 21
1607.143429
 31
0.0
  0
LINE
  5
58D
  8
5
  6
CONTINUOUS
 10
2132.130013
 20
1607.143709
 30
0.0
 11
2132.129313
 21
1625.390119
 31
0.0
  0
LINE
  5
58E
  8
5
  6
CONTINUOUS
 10
2133.599313
 20
1625.390119
 30
0.0
 11
2133.600013
 21
1607.143709
 31
0.0
  0
ARC
  5
58F
  8
5
  6
CONTINUOUS
 10
2136.961413
 20
1617.523799
 30
0.0
 40
10.379908
 50
270.0017
 51
0.0019
  0
LINE
  5
590
  8
5
  6
CONTINUOUS
 10
2047.749913
 20
1607.140839
 30
0.0
 11
2053.954013
 21
1607.141049
 31
0.0
  0
LINE
  5
591
  8
5
  6
CONTINUOUS
 10
2076.681613
 20
1607.141819
 30
0.0
 11
2083.331613
 21
1607.142029
 31
0.0
  0
LINE
  5
592
  8
5
  6
CONTINUOUS
 10
2101.648513
 20
1607.142659
 30
0.0
 11
2105.009913
 21
1607.142799
 31
0.0
  0
LINE
  5
593
  8
5
  6
CONTINUOUS
 10
2090.533213
 20
1607.142239
 30
0.0
 11
2100.178513
 21
1607.142659
 31
0.0
  0
LINE
  5
594
  8
5
  6
CONTINUOUS
 10
2133.600013
 20
1607.143709
 30
0.0
 11
2136.961413
 21
1607.143919
 31
0.0
  0
LINE
  5
595
  8
5
  6
CONTINUOUS
 10
2122.485413
 20
1607.143429
 30
0.0
 11
2132.130013
 21
1607.143709
 31
0.0
  0
LINE
  5
596
  8
5
  6
CONTINUOUS
 10
2070.072213
 20
1644.286059
 30
0.0
 11
2066.017113
 21
1644.285919
 31
0.0
  0
LINE
  5
597
  8
5
  6
CONTINUOUS
 10
2076.818113
 20
1625.388229
 30
0.0
 11
2066.017813
 21
1625.387809
 31
0.0
  0
LINE
  5
598
  8
5
  6
CONTINUOUS
 10
2066.017813
 20
1626.857809
 30
0.0
 11
2076.293813
 21
1626.858229
 31
0.0
  0
LINE
  5
599
  8
5
  6
CONTINUOUS
 10
2066.018513
 20
1614.671579
 30
0.0
 11
2073.993613
 21
1614.671929
 31
0.0
  0
LINE
  5
59A
  8
5
  6
CONTINUOUS
 10
2064.547113
 20
1644.285849
 30
0.0
 11
2060.492013
 21
1644.285709
 31
0.0
  0
LINE
  5
59B
  8
5
  6
CONTINUOUS
 10
2064.547813
 20
1625.387809
 30
0.0
 11
2054.009313
 21
1625.387459
 31
0.0
  0
LINE
  5
59C
  8
5
  6
CONTINUOUS
 10
2054.513313
 20
1626.857459
 30
0.0
 11
2064.547813
 21
1626.857809
 31
0.0
  0
LINE
  5
59D
  8
5
  6
CONTINUOUS
 10
2066.017113
 20
1644.285919
 30
0.0
 11
2066.017813
 21
1626.857809
 31
0.0
  0
LINE
  5
59E
  8
5
  6
CONTINUOUS
 10
2064.547813
 20
1626.857809
 30
0.0
 11
2064.547113
 21
1644.285849
 31
0.0
  0
LINE
  5
59F
  8
5
  6
CONTINUOUS
 10
2060.492013
 20
1644.285709
 30
0.0
 11
2054.513313
 21
1626.857459
 31
0.0
  0
LINE
  5
5A0
  8
5
  6
CONTINUOUS
 10
2056.537013
 20
1614.671299
 30
0.0
 11
2064.548513
 21
1614.671579
 31
0.0
  0
LINE
  5
5A1
  8
5
  6
CONTINUOUS
 10
2066.017813
 20
1625.387809
 30
0.0
 11
2066.018513
 21
1614.671579
 31
0.0
  0
LINE
  5
5A2
  8
5
  6
CONTINUOUS
 10
2064.548513
 20
1614.671579
 30
0.0
 11
2064.547813
 21
1625.387809
 31
0.0
  0
ARC
  5
5A3
  8
5
  6
CONTINUOUS
 10
2102.886813
 20
1637.853409
 30
0.0
 40
9.46967
 50
283.5581
 51
354.7072
  0
ARC
  5
5A4
  8
5
  6
CONTINUOUS
 10
2103.619713
 20
1616.958549
 30
0.0
 40
11.783324
 50
2.745839
 51
45.68278
  0
ARC
  5
5A5
  8
5
  6
CONTINUOUS
 10
2105.008513
 20
1636.979599
 30
0.0
 40
7.307643
 50
0.001947
 51
90.00195
  0
LINE
  5
5A6
  8
5
  6
CONTINUOUS
 10
2076.293813
 20
1626.858229
 30
0.0
 11
2070.072213
 21
1644.286059
 31
0.0
  0
LINE
  5
5A7
  8
5
  6
CONTINUOUS
 10
2105.008513
 20
1644.287249
 30
0.0
 11
2101.647113
 21
1644.287179
 31
0.0
  0
LINE
  5
5A8
  8
5
  6
CONTINUOUS
 10
2100.177113
 20
1644.287109
 30
0.0
 11
2090.531813
 21
1644.286759
 31
0.0
  0
ARC
  5
5A9
  8
5
  6
CONTINUOUS
 10
2103.619713
 20
1616.958549
 30
0.0
 40
11.783303
 50
57.16499
 51
82.74766
  0
LINE
  5
5AA
  8
5
  6
CONTINUOUS
 10
2101.647813
 20
1626.858999
 30
0.0
 11
2110.008613
 21
1626.859349
 31
0.0
  0
LINE
  5
5AB
  8
5
  6
CONTINUOUS
 10
2111.851713
 20
1625.389349
 30
0.0
 11
2101.647813
 21
1625.388999
 31
0.0
  0
LINE
  5
5AC
  8
5
  6
CONTINUOUS
 10
2100.177813
 20
1625.388999
 30
0.0
 11
2090.532513
 21
1625.388719
 31
0.0
  0
LINE
  5
5AD
  8
5
  6
CONTINUOUS
 10
2090.532513
 20
1626.858719
 30
0.0
 11
2100.177813
 21
1626.858999
 31
0.0
  0
LINE
  5
5AE
  8
5
  6
CONTINUOUS
 10
2090.531813
 20
1644.286759
 30
0.0
 11
2090.532513
 21
1626.858649
 31
0.0
  0
LINE
  5
5AF
  8
5
  6
CONTINUOUS
 10
2101.647113
 20
1644.287179
 30
0.0
 11
2101.647813
 21
1626.858999
 31
0.0
  0
LINE
  5
5B0
  8
5
  6
CONTINUOUS
 10
2100.177813
 20
1626.858999
 30
0.0
 11
2100.177113
 21
1644.287109
 31
0.0
  0
ARC
  5
5B1
  8
5
  6
CONTINUOUS
 10
2136.960713
 20
1636.980719
 30
0.0
 40
7.307643
 50
0.001947
 51
90.00195
  0
LINE
  5
5B2
  8
5
  6
CONTINUOUS
 10
2136.960013
 20
1644.288369
 30
0.0
 11
2133.598613
 21
1644.288229
 31
0.0
  0
LINE
  5
5B3
  8
5
  6
CONTINUOUS
 10
2143.803213
 20
1625.390469
 30
0.0
 11
2133.599313
 21
1625.390119
 31
0.0
  0
LINE
  5
5B4
  8
5
  6
CONTINUOUS
 10
2133.599313
 20
1626.860119
 30
0.0
 11
2141.960813
 21
1626.860399
 31
0.0
  0
LINE
  5
5B5
  8
5
  6
CONTINUOUS
 10
2132.128613
 20
1644.288159
 30
0.0
 11
2122.484013
 21
1644.287879
 31
0.0
  0
LINE
  5
5B6
  8
5
  6
CONTINUOUS
 10
2122.484713
 20
1625.389769
 30
0.0
 11
2132.129313
 21
1625.390119
 31
0.0
  0
LINE
  5
5B7
  8
5
  6
CONTINUOUS
 10
2122.484713
 20
1626.859769
 30
0.0
 11
2132.129313
 21
1626.860119
 31
0.0
  0
LINE
  5
5B8
  8
5
  6
CONTINUOUS
 10
2122.484013
 20
1644.287879
 30
0.0
 11
2122.484713
 21
1626.859769
 31
0.0
  0
LINE
  5
5B9
  8
5
  6
CONTINUOUS
 10
2133.598613
 20
1644.288229
 30
0.0
 11
2133.599313
 21
1626.860119
 31
0.0
  0
LINE
  5
5BA
  8
5
  6
CONTINUOUS
 10
2132.129313
 20
1626.860119
 30
0.0
 11
2132.128613
 21
1644.288159
 31
0.0
  0
ARC
  5
5BB
  8
5
  6
CONTINUOUS
 10
2135.571213
 20
1616.959669
 30
0.0
 40
11.783352
 50
57.16459
 51
82.74766
  0
ARC
  5
5BC
  8
5
  6
CONTINUOUS
 10
2134.839013
 20
1637.854459
 30
0.0
 40
9.46967
 50
283.5581
 51
354.7072
  0
ARC
  5
5BD
  8
5
  6
CONTINUOUS
 10
2135.571213
 20
1616.959669
 30
0.0
 40
11.783324
 50
2.745839
 51
45.68319
  0
LINE
  5
5BE
  8
5
  6
CONTINUOUS
 10
1086.80366
 20
1561.008543
 30
0.0
 11
1100.58266
 21
1561.009143
 31
0.0
  0
LINE
  5
5BF
  8
5
  6
CONTINUOUS
 10
1100.58166
 20
1587.075343
 30
0.0
 11
1086.80266
 21
1587.074943
 31
0.0
  0
LINE
  5
5C0
  8
5
  6
CONTINUOUS
 10
1086.80266
 20
1589.174943
 30
0.0
 11
1100.58166
 21
1589.175343
 31
0.0
  0
LINE
  5
5C1
  8
5
  6
CONTINUOUS
 10
1100.58066
 20
1614.072643
 30
0.0
 11
1086.80166
 21
1614.072143
 31
0.0
  0
LINE
  5
5C2
  8
5
  6
CONTINUOUS
 10
1051.78266
 20
1571.764743
 30
0.0
 11
1063.17566
 21
1571.765243
 31
0.0
  0
LINE
  5
5C3
  8
5
  6
CONTINUOUS
 10
1067.21066
 20
1587.074243
 30
0.0
 11
1051.78166
 21
1587.073643
 31
0.0
  0
LINE
  5
5C4
  8
5
  6
CONTINUOUS
 10
1057.57366
 20
1614.071143
 30
0.0
 11
1051.78066
 21
1614.070943
 31
0.0
  0
LINE
  5
5C5
  8
5
  6
CONTINUOUS
 10
1051.78166
 20
1589.173643
 30
0.0
 11
1066.46166
 21
1589.174243
 31
0.0
  0
LINE
  5
5C6
  8
5
  6
CONTINUOUS
 10
1051.78066
 20
1614.070943
 30
0.0
 11
1051.78166
 21
1589.173643
 31
0.0
  0
LINE
  5
5C7
  8
5
  6
CONTINUOUS
 10
1049.68166
 20
1589.173643
 30
0.0
 11
1049.68066
 21
1614.070843
 31
0.0
  0
LINE
  5
5C8
  8
5
  6
CONTINUOUS
 10
1043.88766
 20
1614.070643
 30
0.0
 11
1035.34666
 21
1589.173143
 31
0.0
  0
LINE
  5
5C9
  8
5
  6
CONTINUOUS
 10
1025.68466
 20
1561.006543
 30
0.0
 11
1034.54766
 21
1561.006843
 31
0.0
  0
LINE
  5
5CA
  8
5
  6
CONTINUOUS
 10
1034.62666
 20
1587.073143
 30
0.0
 11
1025.68466
 21
1561.006543
 31
0.0
  0
LINE
  5
5CB
  8
5
  6
CONTINUOUS
 10
1051.78166
 20
1587.073643
 30
0.0
 11
1051.78266
 21
1571.764743
 31
0.0
  0
LINE
  5
5CC
  8
5
  6
CONTINUOUS
 10
1038.23766
 20
1571.764343
 30
0.0
 11
1049.68266
 21
1571.764743
 31
0.0
  0
LINE
  5
5CD
  8
5
  6
CONTINUOUS
 10
1034.54766
 20
1561.006843
 30
0.0
 11
1038.23766
 21
1571.764343
 31
0.0
  0
LINE
  5
5CE
  8
5
  6
CONTINUOUS
 10
1049.68166
 20
1587.073643
 30
0.0
 11
1034.62666
 21
1587.073143
 31
0.0
  0
LINE
  5
5CF
  8
5
  6
CONTINUOUS
 10
1049.68266
 20
1571.764743
 30
0.0
 11
1049.68166
 21
1587.073643
 31
0.0
  0
LINE
  5
5D0
  8
5
  6
CONTINUOUS
 10
1035.34666
 20
1589.173143
 30
0.0
 11
1049.68166
 21
1589.173643
 31
0.0
  0
LINE
  5
5D1
  8
5
  6
CONTINUOUS
 10
1049.68066
 20
1614.070843
 30
0.0
 11
1043.88766
 21
1614.070643
 31
0.0
  0
LINE
  5
5D2
  8
5
  6
CONTINUOUS
 10
1086.80166
 20
1614.072143
 30
0.0
 11
1086.80266
 21
1589.174843
 31
0.0
  0
LINE
  5
5D3
  8
5
  6
CONTINUOUS
 10
1066.46166
 20
1589.174243
 30
0.0
 11
1057.57366
 21
1614.071143
 31
0.0
  0
LINE
  5
5D4
  8
5
  6
CONTINUOUS
 10
1076.51566
 20
1561.008243
 30
0.0
 11
1067.21066
 21
1587.074243
 31
0.0
  0
LINE
  5
5D5
  8
5
  6
CONTINUOUS
 10
1067.01566
 20
1561.007943
 30
0.0
 11
1076.51566
 21
1561.008243
 31
0.0
  0
LINE
  5
5D6
  8
5
  6
CONTINUOUS
 10
1063.17566
 20
1571.765243
 30
0.0
 11
1067.01566
 21
1561.007943
 31
0.0
  0
LINE
  5
5D7
  8
5
  6
CONTINUOUS
 10
1086.80266
 20
1587.074943
 30
0.0
 11
1086.80366
 21
1561.008543
 31
0.0
  0
ARC
  5
5D8
  8
5
  6
CONTINUOUS
 10
1153.12966
 20
1575.839343
 30
0.0
 40
14.82844
 50
270.0017
 51
0.0019
  0
ARC
  5
5D9
  8
5
  6
CONTINUOUS
 10
1107.48366
 20
1575.837743
 30
0.0
 40
14.82843
 50
270.002
 51
0.0019
  0
LINE
  5
5DA
  8
5
  6
CONTINUOUS
 10
1132.44966
 20
1561.010243
 30
0.0
 11
1146.22766
 21
1561.010643
 31
0.0
  0
LINE
  5
5DB
  8
5
  6
CONTINUOUS
 10
1132.44866
 20
1587.076443
 30
0.0
 11
1146.22666
 21
1587.076943
 31
0.0
  0
LINE
  5
5DC
  8
5
  6
CONTINUOUS
 10
1146.22566
 20
1614.074143
 30
0.0
 11
1132.44766
 21
1614.073743
 31
0.0
  0
LINE
  5
5DD
  8
5
  6
CONTINUOUS
 10
1132.44866
 20
1589.176443
 30
0.0
 11
1146.22666
 21
1589.176943
 31
0.0
  0
LINE
  5
5DE
  8
5
  6
CONTINUOUS
 10
1132.44766
 20
1614.073743
 30
0.0
 11
1132.44866
 21
1589.176443
 31
0.0
  0
LINE
  5
5DF
  8
5
  6
CONTINUOUS
 10
1102.68066
 20
1614.072743
 30
0.0
 11
1102.68166
 21
1589.175343
 31
0.0
  0
ARC
  5
5E0
  8
5
  6
CONTINUOUS
 10
1104.45166
 20
1604.881643
 30
0.0
 40
13.5281
 50
283.5581
 51
354.7072
  0
LINE
  5
5E1
  8
5
  6
CONTINUOUS
 10
1100.58166
 20
1589.175343
 30
0.0
 11
1100.58066
 21
1614.072643
 31
0.0
  0
ARC
  5
5E2
  8
5
  6
CONTINUOUS
 10
1105.49866
 20
1575.031843
 30
0.0
 40
16.83332
 50
2.745839
 51
45.68278
  0
ARC
  5
5E3
  8
5
  6
CONTINUOUS
 10
1105.49866
 20
1575.031843
 30
0.0
 40
16.83329
 50
57.16499
 51
82.74766
  0
LINE
  5
5E4
  8
5
  6
CONTINUOUS
 10
1102.68166
 20
1589.175343
 30
0.0
 11
1114.62566
 21
1589.175843
 31
0.0
  0
LINE
  5
5E5
  8
5
  6
CONTINUOUS
 10
1102.68266
 20
1561.009143
 30
0.0
 11
1107.48466
 21
1561.009343
 31
0.0
  0
LINE
  5
5E6
  8
5
  6
CONTINUOUS
 10
1102.68166
 20
1587.075343
 30
0.0
 11
1102.68266
 21
1561.009143
 31
0.0
  0
LINE
  5
5E7
  8
5
  6
CONTINUOUS
 10
1117.25866
 20
1587.075843
 30
0.0
 11
1102.68166
 21
1587.075343
 31
0.0
  0
LINE
  5
5E8
  8
5
  6
CONTINUOUS
 10
1100.58266
 20
1561.009143
 30
0.0
 11
1100.58166
 21
1587.075343
 31
0.0
  0
LINE
  5
5E9
  8
5
  6
CONTINUOUS
 10
1132.44866
 20
1587.076443
 30
0.0
 11
1132.44966
 21
1561.010243
 31
0.0
  0
LINE
  5
5EA
  8
5
  6
CONTINUOUS
 10
1107.48266
 20
1614.072843
 30
0.0
 11
1102.68066
 21
1614.072743
 31
0.0
  0
ARC
  5
5EB
  8
5
  6
CONTINUOUS
 10
1107.48266
 20
1603.633343
 30
0.0
 40
10.43949
 50
0.001947
 51
90.00195
  0
LINE
  5
5EC
  8
5
  6
CONTINUOUS
 10
1148.32566
 20
1614.074243
 30
0.0
 11
1148.32666
 21
1589.176943
 31
0.0
  0
ARC
  5
5ED
  8
5
  6
CONTINUOUS
 10
1150.09766
 20
1604.883143
 30
0.0
 40
13.5281
 50
283.5581
 51
354.7072
  0
LINE
  5
5EE
  8
5
  6
CONTINUOUS
 10
1146.22666
 20
1589.176943
 30
0.0
 11
1146.22566
 21
1614.074143
 31
0.0
  0
LINE
  5
5EF
  8
5
  6
CONTINUOUS
 10
1146.22766
 20
1561.010643
 30
0.0
 11
1146.22666
 21
1587.076943
 31
0.0
  0
LINE
  5
5F0
  8
5
  6
CONTINUOUS
 10
1162.90366
 20
1587.077443
 30
0.0
 11
1148.32666
 21
1587.076943
 31
0.0
  0
ARC
  5
5F1
  8
5
  6
CONTINUOUS
 10
1151.14366
 20
1575.033443
 30
0.0
 40
16.83332
 50
2.745839
 51
45.68319
  0
LINE
  5
5F2
  8
5
  6
CONTINUOUS
 10
1148.32766
 20
1561.010643
 30
0.0
 11
1153.12966
 21
1561.010943
 31
0.0
  0
LINE
  5
5F3
  8
5
  6
CONTINUOUS
 10
1148.32666
 20
1587.076943
 30
0.0
 11
1148.32766
 21
1561.010643
 31
0.0
  0
ARC
  5
5F4
  8
5
  6
CONTINUOUS
 10
1151.14366
 20
1575.033443
 30
0.0
 40
16.83336
 50
57.16459
 51
82.74766
  0
LINE
  5
5F5
  8
5
  6
CONTINUOUS
 10
1148.32666
 20
1589.176943
 30
0.0
 11
1160.27166
 21
1589.177343
 31
0.0
  0
LINE
  5
5F6
  8
5
  6
CONTINUOUS
 10
1153.12766
 20
1614.074443
 30
0.0
 11
1148.32566
 21
1614.074243
 31
0.0
  0
ARC
  5
5F7
  8
5
  6
CONTINUOUS
 10
1153.12866
 20
1603.634943
 30
0.0
 40
10.43949
 50
0.001947
 51
90.00195
  0
INSERT
  5
61E
  8
0
  6
CONTINUOUS
  2
A$C27E33DB7
 10
292.666434
 20
1136.602017
 30
0.0
  0
ENDSEC
  0
EOF
