  0
SECTION
  2
HEADER
  9
$ACADVER
  1
AC1009
  9
$DWGCODEPAGE
  3
iso8859-1
  9
$INSBASE
 10
0.0
 20
0.0
 30
0.0
  9
$EXTMIN
 10
1.0E20
 20
1.0E20
  9
$EXTMAX
 10
-1.0E20
 20
-1.0E20
  9
$LIMMIN
 10
0.0
 20
0.0
  9
$LIMMAX
 10
12.0
 20
9.0
  9
$ORTHOMODE
 70
     0
  9
$REGENMODE
 70
     1
  9
$FILLMODE
 70
     1
  9
$QTEXTMODE
 70
     0
  9
$MIRRTEXT
 70
     1
  9
$DRAGMODE
 70
     2
  9
$LTSCALE
 40
15.0
  9
$OSMODE
 70
     0
  9
$ATTMODE
 70
     1
  9
$TEXTSIZE
 40
0.2
  9
$TRACEWID
 40
0.05
  9
$TEXTSTYLE
  7
STANDARD
  9
$CLAYER
  8
0
  9
$CELTYPE
  6
DASHED
  9
$CECOLOR
 62
   256
  9
$DIMSCALE
 40
1.0
  9
$DIMASZ
 40
0.18
  9
$DIMEXO
 40
0.0625
  9
$DIMDLI
 40
0.38
  9
$DIMRND
 40
0.0
  9
$DIMDLE
 40
0.0
  9
$DIMEXE
 40
0.18
  9
$DIMTP
 40
0.0
  9
$DIMTM
 40
0.0
  9
$DIMTXT
 40
0.18
  9
$DIMCEN
 40
0.09
  9
$DIMTSZ
 40
0.0
  9
$DIMTOL
 70
     0
  9
$DIMLIM
 70
     0
  9
$DIMTIH
 70
     1
  9
$DIMTOH
 70
     1
  9
$DIMSE1
 70
     0
  9
$DIMSE2
 70
     0
  9
$DIMTAD
 70
     0
  9
$DIMZIN
 70
     0
  9
$DIMBLK
  1

  9
$DIMASO
 70
     1
  9
$DIMSHO
 70
     1
  9
$DIMPOST
  1

  9
$DIMAPOST
  1

  9
$DIMALT
 70
     0
  9
$DIMALTD
 70
     2
  9
$DIMALTF
 40
25.4
  9
$DIMLFAC
 40
1.0
  9
$DIMTOFL
 70
     0
  9
$DIMTVP
 40
0.0
  9
$DIMTIX
 70
     0
  9
$DIMSOXD
 70
     0
  9
$DIMSAH
 70
     0
  9
$DIMBLK1
  1

  9
$DIMBLK2
  1

  9
$DIMSTYLE
  2
STANDARD
  9
$DIMCLRD
 70
     0
  9
$DIMCLRE
 70
     0
  9
$DIMCLRT
 70
     0
  9
$DIMTFAC
 40
1.0
  9
$DIMGAP
 40
0.09
  9
$LUNITS
 70
     2
  9
$LUPREC
 70
     4
  9
$AXISMODE
 70
     0
  9
$AXISUNIT
 10
0.0
 20
0.0
  9
$SKETCHINC
 40
0.1
  9
$FILLETRAD
 40
0.0
  9
$AUNITS
 70
     0
  9
$AUPREC
 70
     0
  9
$MENU
  1
acad
  9
$ELEVATION
 40
0.0
  9
$PELEVATION
 40
0.0
  9
$THICKNESS
 40
0.0
  9
$LIMCHECK
 70
     0
  9
$BLIPMODE
 70
     1
  9
$CHAMFERA
 40
0.0
  9
$CHAMFERB
 40
0.0
  9
$SKPOLY
 70
     0
  9
$TDCREATE
 40
0.000000000
  9
$TDUPDATE
 40
0.000000000
  9
$TDINDWG
 40
0.0
  9
$TDUSRTIMER
 40
0.0
  9
$USRTIMER
 70
     1
  9
$ANGBASE
 50
0.0
  9
$ANGDIR
 70
     0
  9
$PDMODE
 70
     0
  9
$PDSIZE
 40
0.0
  9
$PLINEWID
 40
0.0
  9
$COORDS
 70
     1
  9
$SPLFRAME
 70
     0
  9
$SPLINETYPE
 70
     6
  9
$SPLINESEGS
 70
     8
  9
$ATTDIA
 70
     0
  9
$ATTREQ
 70
     1
  9
$HANDLING
 70
     1
  9
$HANDSEED
  5
   78F
  9
$SURFTAB1
 70
     6
  9
$SURFTAB2
 70
     6
  9
$SURFTYPE
 70
     6
  9
$SURFU
 70
     6
  9
$SURFV
 70
     6
  9
$UCSNAME
  2

  9
$UCSORG
 10
0.0
 20
0.0
 30
0.0
  9
$UCSXDIR
 10
1.0
 20
0.0
 30
0.0
  9
$UCSYDIR
 10
0.0
 20
1.0
 30
0.0
  9
$PUCSNAME
  2

  9
$PUCSORG
 10
0.0
 20
0.0
 30
0.0
  9
$PUCSXDIR
 10
1.0
 20
0.0
 30
0.0
  9
$PUCSYDIR
 10
0.0
 20
1.0
 30
0.0
  9
$USERI1
 70
     0
  9
$USERI2
 70
     0
  9
$USERI3
 70
     0
  9
$USERI4
 70
     0
  9
$USERI5
 70
     0
  9
$USERR1
 40
0.0
  9
$USERR2
 40
0.0
  9
$USERR3
 40
0.0
  9
$USERR4
 40
0.0
  9
$USERR5
 40
0.0
  9
$WORLDVIEW
 70
     1
  9
$SHADEDGE
 70
     3
  9
$SHADEDIF
 70
    70
  9
$TILEMODE
 70
     1
  9
$MAXACTVP
 70
    16
  9
$PINSBASE
 10
0.0
 20
0.0
 30
0.0
  9
$PLIMCHECK
 70
     0
  9
$PEXTMIN
 10
1.0E20
 20
1.0E20
 30
1.0E20
  9
$PEXTMAX
 10
-1.0E20
 20
-1.0E20
 30
-1.0E20
  9
$PLIMMIN
 10
0.0
 20
0.0
  9
$PLIMMAX
 10
12.0
 20
9.0
  9
$UNITMODE
 70
     0
  9
$VISRETAIN
 70
     0
  0
ENDSEC
  0
SECTION
  2
TABLES
  0
TABLE
  2
VPORT
 70
     1
  0
VPORT
  2
*ACTIVE
 70
     0
 10
0.0
 20
0.0
 11
1.0
 21
1.0
 12
6.801242
 22
4.5
 13
0.0
 23
0.0
 14
1.0
 24
1.0
 15
0.0
 25
0.0
 16
0.0
 26
0.0
 36
1.0
 17
0.0
 27
0.0
 37
0.0
 40
9.0
 41
1.511387
 42
50.0
 43
0.0
 44
0.0
 50
0.0
 51
0.0
 71
     0
 72
   100
 73
     1
 74
     1
 75
     0
 76
     0
 77
     0
 78
     0
  0
ENDTAB
  0
TABLE
  2
LTYPE
 70
    41
  0
LTYPE
  2
BYBLOCK
 70
     0
  3

 72
    65
 73
     0
 40
0.0
  0
LTYPE
  2
BYLAYER
 70
     0
  3

 72
    65
 73
     0
 40
0.0
  0
LTYPE
  2
CONTINUOUS
 70
     0
  3
Solid line
 72
    65
 73
     0
 40
0.0
  0
LTYPE
  2
BORDER
 70
    64
  3
__ __ . __ __ . __ __ . __ __ . __ __ . __ __ .
 72
    65
 73
     6
 40
1.75
 49
0.5
 49
-0.25
 49
0.5
 49
-0.25
 49
0.0
 49
-0.25
  0
LTYPE
  2
BORDER2
 70
    64
  3
__.__.__.__.__.__.__.__.__.__.__.__.__.__.__.__
 72
    65
 73
     6
 40
0.875
 49
0.25
 49
-0.125
 49
0.25
 49
-0.125
 49
0.0
 49
-0.125
  0
LTYPE
  2
BORDERX2
 70
    64
  3
____  ____  .  ____  ____  .  ____  ____  .  __
 72
    65
 73
     6
 40
3.5
 49
1.0
 49
-0.5
 49
1.0
 49
-0.5
 49
0.0
 49
-0.5
  0
LTYPE
  2
CENTER
 70
    64
  3
____ _ ____ _ ____ _ ____ _ ____ _ ____ _ ____
 72
    65
 73
     4
 40
2.0
 49
1.25
 49
-0.25
 49
0.25
 49
-0.25
  0
LTYPE
  2
CENTER2
 70
    64
  3
___ _ ___ _ ___ _ ___ _ ___ _ ___ _ ___ _ ___ _
 72
    65
 73
     4
 40
1.125
 49
0.75
 49
-0.125
 49
0.125
 49
-0.125
  0
LTYPE
  2
CENTERX2
 70
    64
  3
________  __  ________  __  ________  __  _____
 72
    65
 73
     4
 40
4.0
 49
2.5
 49
-0.5
 49
0.5
 49
-0.5
  0
LTYPE
  2
DASHDOT
 70
    64
  3
__ . __ . __ . __ . __ . __ . __ . __ . __ . __
 72
    65
 73
     4
 40
1.0
 49
0.5
 49
-0.25
 49
0.0
 49
-0.25
  0
LTYPE
  2
DASHDOT2
 70
    64
  3
_._._._._._._._._._._._._._._._._._._._._._._._
 72
    65
 73
     4
 40
0.5
 49
0.25
 49
-0.125
 49
0.0
 49
-0.125
  0
LTYPE
  2
DASHDOTX2
 70
    64
  3
____  .  ____  .  ____  .  ____  .  ____  .  __
 72
    65
 73
     4
 40
2.0
 49
1.0
 49
-0.5
 49
0.0
 49
-0.5
  0
LTYPE
  2
DASHED
 70
    64
  3
__ __ __ __ __ __ __ __ __ __ __ __ __ __ __ __
 72
    65
 73
     2
 40
0.75
 49
0.5
 49
-0.25
  0
LTYPE
  2
DASHED2
 70
    64
  3
_ _ _ _ _ _ _ _ _ _ _ _ _ _ _ _ _ _ _ _ _ _ _ _
 72
    65
 73
     2
 40
0.375
 49
0.25
 49
-0.125
  0
LTYPE
  2
DASHEDX2
 70
    64
  3
____  ____  ____  ____  ____  ____  ____  ____
 72
    65
 73
     2
 40
1.5
 49
1.0
 49
-0.5
  0
LTYPE
  2
DIVIDE
 70
    64
  3
____ . . ____ . . ____ . . ____ . . ____ . . __
 72
    65
 73
     6
 40
1.25
 49
0.5
 49
-0.25
 49
0.0
 49
-0.25
 49
0.0
 49
-0.25
  0
LTYPE
  2
DIVIDE2
 70
    64
  3
__..__..__..__..__..__..__..__..__..__..__..__.
 72
    65
 73
     6
 40
0.625
 49
0.25
 49
-0.125
 49
0.0
 49
-0.125
 49
0.0
 49
-0.125
  0
LTYPE
  2
DIVIDEX2
 70
    64
  3
________  .  .  ________  .  .  ________  .  .
 72
    65
 73
     6
 40
2.5
 49
1.0
 49
-0.5
 49
0.0
 49
-0.5
 49
0.0
 49
-0.5
  0
LTYPE
  2
DOT
 70
    64
  3
. . . . . . . . . . . . . . . . . . . . . . . .
 72
    65
 73
     2
 40
0.25
 49
0.0
 49
-0.25
  0
LTYPE
  2
DOT2
 70
    64
  3
...............................................
 72
    65
 73
     2
 40
0.125
 49
0.0
 49
-0.125
  0
LTYPE
  2
DOTX2
 70
    64
  3
.  .  .  .  .  .  .  .  .  .  .  .  .  .  .  .
 72
    65
 73
     2
 40
0.5
 49
0.0
 49
-0.5
  0
LTYPE
  2
HIDDEN
 70
    64
  3
__ __ __ __ __ __ __ __ __ __ __ __ __ __ __ __
 72
    65
 73
     2
 40
0.375
 49
0.25
 49
-0.125
  0
LTYPE
  2
HIDDEN2
 70
    64
  3
_ _ _ _ _ _ _ _ _ _ _ _ _ _ _ _ _ _ _ _ _ _ _ _
 72
    65
 73
     2
 40
0.1875
 49
0.125
 49
-0.0625
  0
LTYPE
  2
HIDDENX2
 70
    64
  3
____ ____ ____ ____ ____ ____ ____ ____ ____ __
 72
    65
 73
     2
 40
0.75
 49
0.5
 49
-0.25
  0
LTYPE
  2
PHANTOM
 70
    64
  3
______  __  __  ______  __  __  ______  __  __
 72
    65
 73
     6
 40
2.5
 49
1.25
 49
-0.25
 49
0.25
 49
-0.25
 49
0.25
 49
-0.25
  0
LTYPE
  2
PHANTOM2
 70
    64
  3
___ _ _ ___ _ _ ___ _ _ ___ _ _ ___ _ _ ___ _ _
 72
    65
 73
     6
 40
1.25
 49
0.625
 49
-0.125
 49
0.125
 49
-0.125
 49
0.125
 49
-0.125
  0
LTYPE
  2
PHANTOMX2
 70
    64
  3
____________    ____    ____    ____________
 72
    65
 73
     6
 40
5.0
 49
2.5
 49
-0.5
 49
0.5
 49
-0.5
 49
0.5
 49
-0.5
  0
LTYPE
  2
ACAD_ISO02W100
 70
    64
  3
__ __ __ __ __ __ __ __ __ __ __ __ __ __ __ __
 72
    65
 73
     2
 40
15.0
 49
12.0
 49
-3.0
  0
LTYPE
  2
ACAD_ISO03W100
 70
    64
  3
__    __    __    __    __    __    __    __
 72
    65
 73
     2
 40
30.0
 49
12.0
 49
-18.0
  0
LTYPE
  2
ACAD_ISO04W100
 70
    64
  3
____ . ____ . ____ . ____ . ____ . ____ . ____
 72
    65
 73
     4
 40
30.5
 49
24.0
 49
-3.0
 49
0.5
 49
-3.0
  0
LTYPE
  2
ACAD_ISO05W100
 70
    64
  3
____ .. ____ .. ____ .. ____ .. ____ .. ____ ..
 72
    65
 73
     6
 40
34.0
 49
24.0
 49
-3.0
 49
0.5
 49
-3.0
 49
0.5
 49
-3.0
  0
LTYPE
  2
ACAD_ISO06W100
 70
    64
  3
____ ... ____ ... ____ ... ____ ... ____ ... __
 72
    65
 73
     8
 40
37.5
 49
24.0
 49
-3.0
 49
0.5
 49
-3.0
 49
0.5
 49
-3.0
 49
0.5
 49
-3.0
  0
LTYPE
  2
ACAD_ISO07W100
 70
    64
  3
. . . . . . . . . . . . . . . . . . . . . . . .
 72
    65
 73
     2
 40
3.5
 49
0.5
 49
-3.0
  0
LTYPE
  2
ACAD_ISO08W100
 70
    64
  3
____ __ ____ __ ____ __ ____ ____ __ __ ____ __
 72
    65
 73
     4
 40
36.0
 49
24.0
 49
-3.0
 49
6.0
 49
-3.0
  0
LTYPE
  2
ACAD_ISO09W100
 70
    64
  3
____ __ __ ____ __ __ ____ __ __ ____ __ __ ___
 72
    65
 73
     6
 40
45.0
 49
24.0
 49
-3.0
 49
6.0
 49
-3.0
 49
6.0
 49
-3.0
  0
LTYPE
  2
ACAD_ISO10W100
 70
    64
  3
__ . __ . __ . __ . __ . __ . __ . __ . __ . __
 72
    65
 73
     4
 40
18.5
 49
12.0
 49
-3.0
 49
0.5
 49
-3.0
  0
LTYPE
  2
ACAD_ISO11W100
 70
    64
  3
__ __ . __ __ . __ __ . __ __ . __ __ . __ __ .
 72
    65
 73
     6
 40
33.5
 49
12.0
 49
-3.0
 49
12.0
 49
-3.0
 49
0.5
 49
-3.0
  0
LTYPE
  2
ACAD_ISO12W100
 70
    64
  3
__ . . __ . . __ . . __ . . __ . . __ . . __ .
 72
    65
 73
     6
 40
22.0
 49
12.0
 49
-3.0
 49
0.5
 49
-3.0
 49
0.5
 49
-3.0
  0
LTYPE
  2
ACAD_ISO13W100
 70
    64
  3
__ __ . . __ __ . . __ __ . . __ __ . . __ __ .
 72
    65
 73
     8
 40
37.0
 49
12.0
 49
-3.0
 49
12.0
 49
-3.0
 49
0.5
 49
-3.0
 49
0.5
 49
-3.0
  0
LTYPE
  2
ACAD_ISO14W100
 70
    64
  3
__ . . . __ . . . __ . . . __ . . . __ . . . __
 72
    65
 73
     8
 40
25.5
 49
12.0
 49
-3.0
 49
0.5
 49
-3.0
 49
0.5
 49
-3.0
 49
0.5
 49
-3.0
  0
LTYPE
  2
ACAD_ISO15W100
 70
    64
  3
__ __ . . . __ __ . . . __ __ . . . __ __ . . .
 72
    65
 73
    10
 40
40.5
 49
12.0
 49
-3.0
 49
12.0
 49
-3.0
 49
0.5
 49
-3.0
 49
0.5
 49
-3.0
 49
0.5
 49
-3.0
  0
ENDTAB
  0
TABLE
  2
STYLE
 70
     4
  0
STYLE
  2
STANDARD
 70
    64
 40
0.0
 41
1.0
 50
0.0
 71
     0
 42
0.2
  3
txt
  4

  0
STYLE
  2
TOLERANCE
 70
    64
 40
0.0
 41
1.0
 50
0.0
 71
     0
 42
0.2
  3
../igesfont/iges1003.shx
  4

  0
STYLE
  2
ROMANS
 70
    64
 40
0.0
 41
1.0
 50
0.0
 71
     0
 42
0.2
  3
romans.shx
  4

  0
STYLE
  2
ROMANC
 70
    64
 40
0.0
 41
1.0
 50
0.0
 71
     0
 42
0.2
  3
romanc.shx
  4

  0
ENDTAB
  0
TABLE
  2
DIMSTYLE
 70
     2
  0
DIMSTYLE
  2
UNNAMED
 70
     0
  3

  4

  5

  6

  7

 40
1.0
 41
0.18
 42
0.0625
 43
0.38
 44
0.18
 45
0.0
 46
0.0
 47
0.0
 48
0.0
140
0.18
141
0.09
142
0.0
143
25.4
144
1.0
145
0.0
146
1.0
147
0.09
 71
     0
 72
     0
 73
     1
 74
     1
 75
     0
 76
     0
 77
     0
 78
     0
170
     0
171
     2
172
     0
173
     0
174
     0
175
     0
176
     0
177
     0
178
     0
  0
DIMSTYLE
  2
STANDARD
 70
     0
  3

  4

  5

  6

  7

 40
1.0
 41
0.18
 42
0.0625
 43
0.38
 44
0.18
 45
0.0
 46
0.0
 47
0.0
 48
0.0
140
0.18
141
0.09
142
0.0
143
25.4
144
1.0
145
0.0
146
1.0
147
0.09
 71
     0
 72
     0
 73
     1
 74
     1
 75
     0
 76
     0
 77
     0
 78
     0
170
     0
171
     2
172
     0
173
     0
174
     0
175
     0
176
     0
177
     0
178
     0
  0
ENDTAB
  0
TABLE
  2
LAYER
 70
     2
  0
LAYER
  2
0
 70
     0
 62
     7
  6
CONTINUOUS
  0
LAYER
  2
255
 70
     0
 62
     7
  6
CONTINUOUS
  0
ENDTAB
  0
ENDSEC
  0
SECTION
  2
BLOCKS
  0
BLOCK
  5
     B
  8
0
  6
CONTINUOUS
 62
     7
  2
*UDIM439
 70
    65
 10
0.0
 20
0.0
 30
0.0
  3
*UDIM439
  0
TEXT
  5
     C
  8
0
  6
CONTINUOUS
 62
     7
 10
-685.956689846706
 20
-124.560823134313
 30
0.0
 40
3.00000002980232
  1
65,75
 50
449.999999896069
 41
0.933333333333333
 72
     1
 11
-687.456689849496
 21
-117.860823065043
 31
0.0
 73
     2
  0
LINE
  5
     D
  8
0
  6
CONTINUOUS
 62
     7
 10
-679.199310563744
 20
-109.941253662109
 30
0.0
 11
-686.956689834595
 21
-109.941253662109
 31
0.0
  0
LINE
  5
     E
  8
0
  6
CONTINUOUS
 62
     7
 10
-684.956689834595
 20
-109.941253662109
 30
0.0
 11
-684.956689834595
 21
-126.378753662109
 31
0.0
  0
LINE
  5
     F
  8
0
  6
CONTINUOUS
 62
     7
 10
-684.435745404643
 20
-112.895676939316
 30
0.0
 11
-684.956689834595
 21
-109.941253662109
 31
0.0
  0
LINE
  5
    10
  8
0
  6
CONTINUOUS
 62
     7
 10
-684.956689834595
 20
-109.941253662109
 30
0.0
 11
-685.477634264546
 21
-112.895676939316
 31
0.0
  0
LINE
  5
    11
  8
0
  6
CONTINUOUS
 62
     7
 10
-685.477634264546
 20
-123.424330384902
 30
0.0
 11
-684.956689834595
 21
-126.378753662109
 31
0.0
  0
LINE
  5
    12
  8
0
  6
CONTINUOUS
 62
     7
 10
-684.956689834595
 20
-126.378753662109
 30
0.0
 11
-684.435745404643
 21
-123.424330384902
 31
0.0
  0
ENDBLK
  5
    13
  8
0
  6
CONTINUOUS
 62
     7
  0
BLOCK
  5
    14
  8
0
  6
CONTINUOUS
 62
     7
  2
*UDIM440
 70
    65
 10
0.0
 20
0.0
 30
0.0
  3
*UDIM440
  0
TEXT
  5
    15
  8
0
  6
CONTINUOUS
 62
     7
 10
-696.432229678645
 20
-157.568224264619
 30
0.0
 40
3.00000002980232
  1
5
 50
395.275203288638
 41
0.933333333333334
 72
     1
 11
-696.40045985505
 21
-155.708388049504
 31
0.0
 73
     2
  0
TEXT
  5
    16
  8
0
  6
CONTINUOUS
 62
     7
 10
-699.003850627621
 20
-159.387363005168
 30
0.0
 40
3.00000002980232
  1
Ø
 50
395.275203288638
 41
0.933333333333334
 72
     1
 11
-698.972080804027
 21
-157.527526790053
 31
0.0
 73
     2
  0
TEXT
  5
    17
  8
0
  6
CONTINUOUS
 62
     7
 10
-694.187163756162
 20
-155.980087246136
 30
0.0
 40
3.00000002980232
  1
 (M4)
 50
395.275203288638
 41
0.933333333333333
 72
     1
 11
-689.583623319761
 21
-150.886226589717
 31
0.0
 73
     2
  0
LINE
  5
    18
  8
0
  6
CONTINUOUS
 62
     7
 10
-674.573253843578
 20
-143.330313436948
 30
0.0
 11
-698.426346264
 21
-160.203750605501
 31
0.0
  0
LINE
  5
    19
  8
0
  6
CONTINUOUS
 62
     7
 10
-672.462146993851
 20
-141.198828539269
 30
0.0
 11
-674.573253843578
 21
-143.330313436948
 31
0.0
  0
LINE
  5
    1A
  8
0
  6
CONTINUOUS
 62
     7
 10
-674.573253843578
 20
-143.330313436948
 30
0.0
 11
-671.860451634353
 21
-142.049413685359
 31
0.0
  0
LINE
  5
    1B
  8
0
  6
CONTINUOUS
 62
     7
 10
-677.704845193649
 20
-146.18367878495
 30
0.0
 11
-675.593738343922
 21
-144.052193887271
 31
0.0
  0
LINE
  5
    1C
  8
0
  6
CONTINUOUS
 62
     7
 10
-675.593738343922
 20
-144.052193887271
 30
0.0
 11
-678.306540553147
 21
-145.33309363886
 31
0.0
  0
ENDBLK
  5
    1D
  8
0
  6
CONTINUOUS
 62
     7
  0
BLOCK
  5
    1E
  8
0
  6
CONTINUOUS
 62
     7
  2
*UDIM441
 70
    65
 10
0.0
 20
0.0
 30
0.0
  3
*UDIM441
  0
TEXT
  5
    1F
  8
0
  6
CONTINUOUS
 62
     7
 10
-667.608498034608
 20
-101.681087489374
 30
0.0
 40
3.00000002980232
  1
82
 50
359.999999896069
 41
0.933333333333333
 72
     1
 11
-665.108498007059
 21
-100.181087478995
 31
0.0
 73
     2
  0
LINE
  5
    20
  8
0
  6
CONTINUOUS
 62
     7
 10
-654.58349609375
 20
-104.39633013072
 30
0.0
 11
-654.58349609375
 21
-100.681087493897
 31
0.0
  0
LINE
  5
    21
  8
0
  6
CONTINUOUS
 62
     7
 10
-675.08349609375
 20
-104.39633013072
 30
0.0
 11
-675.08349609375
 21
-100.681087493897
 31
0.0
  0
LINE
  5
    22
  8
0
  6
CONTINUOUS
 62
     7
 10
-654.58349609375
 20
-102.681087493896
 30
0.0
 11
-675.08349609375
 21
-102.681087493896
 31
0.0
  0
LINE
  5
    23
  8
0
  6
CONTINUOUS
 62
     7
 10
-657.537919370957
 20
-103.202031923848
 30
0.0
 11
-654.58349609375
 21
-102.681087493896
 31
0.0
  0
LINE
  5
    24
  8
0
  6
CONTINUOUS
 62
     7
 10
-654.58349609375
 20
-102.681087493896
 30
0.0
 11
-657.537919370957
 21
-102.160143063945
 31
0.0
  0
LINE
  5
    25
  8
0
  6
CONTINUOUS
 62
     7
 10
-672.129072816543
 20
-102.160143063945
 30
0.0
 11
-675.08349609375
 21
-102.681087493896
 31
0.0
  0
LINE
  5
    26
  8
0
  6
CONTINUOUS
 62
     7
 10
-675.08349609375
 20
-102.681087493896
 30
0.0
 11
-672.129072816543
 21
-103.202031923848
 31
0.0
  0
ENDBLK
  5
    27
  8
0
  6
CONTINUOUS
 62
     7
  0
BLOCK
  5
    28
  8
0
  6
CONTINUOUS
 62
     7
  2
*UDIM442
 70
    65
 10
0.0
 20
0.0
 30
0.0
  3
*UDIM442
  0
TEXT
  5
    29
  8
0
  6
CONTINUOUS
 62
     7
 10
-694.947715766327
 20
-130.991255135044
 30
0.0
 40
3.00000002980232
  1
135
 50
449.999999896069
 41
0.933333333333333
 72
     1
 11
-696.447715774179
 21
-127.09125509359
 31
0.0
 73
     2
  0
LINE
  5
    2A
  8
0
  6
CONTINUOUS
 62
     7
 10
-679.199310563744
 20
-109.941253348193
 30
0.0
 11
-695.947715759277
 21
-109.941248090593
 31
0.0
  0
LINE
  5
    2B
  8
0
  6
CONTINUOUS
 62
     7
 10
-679.335072705278
 20
-143.691253348193
 30
0.0
 11
-695.947715759277
 21
-143.691248133211
 31
0.0
  0
LINE
  5
    2C
  8
0
  6
CONTINUOUS
 62
     7
 10
-693.947715759277
 20
-109.941248718426
 30
0.0
 11
-693.947715759277
 21
-143.691248761044
 31
0.0
  0
LINE
  5
    2D
  8
0
  6
CONTINUOUS
 62
     7
 10
-693.426771329326
 20
-112.895671995633
 30
0.0
 11
-693.947715759277
 21
-109.941248718426
 31
0.0
  0
LINE
  5
    2E
  8
0
  6
CONTINUOUS
 62
     7
 10
-693.947715759277
 20
-109.941248718426
 30
0.0
 11
-694.468660189229
 21
-112.895671995633
 31
0.0
  0
LINE
  5
    2F
  8
0
  6
CONTINUOUS
 62
     7
 10
-694.468660189229
 20
-140.736825483837
 30
0.0
 11
-693.947715759277
 21
-143.691248761044
 31
0.0
  0
LINE
  5
    30
  8
0
  6
CONTINUOUS
 62
     7
 10
-693.947715759277
 20
-143.691248761044
 30
0.0
 11
-693.426771329326
 21
-140.736825483837
 31
0.0
  0
ENDBLK
  5
    31
  8
0
  6
CONTINUOUS
 62
     7
  0
BLOCK
  5
    32
  8
0
  6
CONTINUOUS
 62
     7
  2
*HATCH115
 70
    65
 10
0.0
 20
0.0
 30
0.0
  3
*HATCH115
  0
LINE
  5
    33
  8
0
  6
CONTINUOUS
 62
    52
 10
-48.547779083252
 20
-4.00005149841309
 30
0.0
 11
-50.547779083252
 21
-6.00005149841309
 31
0.0
  0
LINE
  5
    34
  8
0
  6
CONTINUOUS
 62
    52
 10
-44.3051414489746
 20
-4.00005149841309
 30
0.0
 11
-46.3051414489746
 21
-6.00005149841309
 31
0.0
  0
LINE
  5
    35
  8
0
  6
CONTINUOUS
 62
    52
 10
-40.0625038146973
 20
-4.00005149841309
 30
0.0
 11
-42.0625038146973
 21
-6.00005149841309
 31
0.0
  0
LINE
  5
    36
  8
0
  6
CONTINUOUS
 62
    52
 10
-35.8198661804199
 20
-4.00005149841309
 30
0.0
 11
-37.8198661804199
 21
-6.00005149841309
 31
0.0
  0
LINE
  5
    37
  8
0
  6
CONTINUOUS
 62
    52
 10
-31.5772266387939
 20
-4.00005149841309
 30
0.0
 11
-33.5772285461426
 21
-6.00005149841309
 31
0.0
  0
LINE
  5
    38
  8
0
  6
CONTINUOUS
 62
    52
 10
-27.3345851898193
 20
-4.00005149841309
 30
0.0
 11
-29.334587097168
 21
-6.00005149841309
 31
0.0
  0
LINE
  5
    39
  8
0
  6
CONTINUOUS
 62
    52
 10
-23.0919437408447
 20
-4.00005149841309
 30
0.0
 11
-25.0919456481934
 21
-6.00005149841309
 31
0.0
  0
LINE
  5
    3A
  8
0
  6
CONTINUOUS
 62
    52
 10
-18.8493022918701
 20
-4.00005149841309
 30
0.0
 11
-20.8493041992188
 21
-6.00005149841309
 31
0.0
  0
LINE
  5
    3B
  8
0
  6
CONTINUOUS
 62
    52
 10
-14.6066608428955
 20
-4.00005149841309
 30
0.0
 11
-16.6066627502441
 21
-6.00005149841309
 31
0.0
  0
LINE
  5
    3C
  8
0
  6
CONTINUOUS
 62
    52
 10
-10.3640193939209
 20
-4.00005149841309
 30
0.0
 11
-12.3640213012695
 21
-6.00005149841309
 31
0.0
  0
LINE
  5
    3D
  8
0
  6
CONTINUOUS
 62
    52
 10
-6.12137794494629
 20
-4.00005149841309
 30
0.0
 11
-8.12137985229492
 21
-6.00005149841309
 31
0.0
  0
LINE
  5
    3E
  8
0
  6
CONTINUOUS
 62
    52
 10
-1.87873673439026
 20
-4.00005149841309
 30
0.0
 11
-3.87873864173889
 21
-6.00005149841309
 31
0.0
  0
LINE
  5
    3F
  8
0
  6
CONTINUOUS
 62
    52
 10
2.36390423774719
 20
-4.00005149841309
 30
0.0
 11
0.36390233039856
 21
-6.00005149841309
 31
0.0
  0
LINE
  5
    40
  8
0
  6
CONTINUOUS
 62
    52
 10
6.60654544830322
 20
-4.00005149841309
 30
0.0
 11
4.60654354095459
 21
-6.00005149841309
 31
0.0
  0
LINE
  5
    41
  8
0
  6
CONTINUOUS
 62
    52
 10
10.8491868972778
 20
-4.00005149841309
 30
0.0
 11
8.8491849899292
 21
-6.00005149841309
 31
0.0
  0
LINE
  5
    42
  8
0
  6
CONTINUOUS
 62
    52
 10
15.0918283462524
 20
-4.00005149841309
 30
0.0
 11
13.0918264389038
 21
-6.00005149841309
 31
0.0
  0
LINE
  5
    43
  8
0
  6
CONTINUOUS
 62
    52
 10
19.3344688415527
 20
-4.00005149841309
 30
0.0
 11
17.3344669342041
 21
-6.00005149841309
 31
0.0
  0
LINE
  5
    44
  8
0
  6
CONTINUOUS
 62
    52
 10
23.5771102905273
 20
-4.00005149841309
 30
0.0
 11
21.5771083831787
 21
-6.00005149841309
 31
0.0
  0
LINE
  5
    45
  8
0
  6
CONTINUOUS
 62
    52
 10
27.819751739502
 20
-4.00005149841309
 30
0.0
 11
25.8197498321533
 21
-6.00005149841309
 31
0.0
  0
LINE
  5
    46
  8
0
  6
CONTINUOUS
 62
    52
 10
32.0623931884766
 20
-4.00005149841309
 30
0.0
 11
30.0623912811279
 21
-6.00005149841309
 31
0.0
  0
LINE
  5
    47
  8
0
  6
CONTINUOUS
 62
    52
 10
35.4806251525879
 20
-4.82446241378784
 30
0.0
 11
34.3050346374512
 21
-6.00005149841309
 31
0.0
  0
ENDBLK
  5
    48
  8
0
  6
CONTINUOUS
 62
     7
  0
BLOCK
  5
    49
  8
0
  6
CONTINUOUS
 62
     7
  2
*HATCH116
 70
    65
 10
0.0
 20
0.0
 30
0.0
  3
*HATCH116
  0
LINE
  5
    4A
  8
0
  6
CONTINUOUS
 62
    52
 10
44.7903175354004
 20
-4.00005149841309
 30
0.0
 11
42.7903175354004
 21
-6.00005149841309
 31
0.0
  0
LINE
  5
    4B
  8
0
  6
CONTINUOUS
 62
    52
 10
49.0329551696777
 20
-4.00005149841309
 30
0.0
 11
47.0329551696777
 21
-6.00005149841309
 31
0.0
  0
LINE
  5
    4C
  8
0
  6
CONTINUOUS
 62
    52
 10
53.2755928039551
 20
-4.00005149841309
 30
0.0
 11
51.2755928039551
 21
-6.00005149841309
 31
0.0
  0
ENDBLK
  5
    4D
  8
0
  6
CONTINUOUS
 62
     7
  0
BLOCK
  5
    4E
  8
0
  6
CONTINUOUS
 62
     7
  2
*HATCH117
 70
    65
 10
0.0
 20
0.0
 30
0.0
  3
*HATCH117
  0
LINE
  5
    4F
  8
0
  6
CONTINUOUS
 62
    52
 10
169.948226928711
 20
-4.00005149841309
 30
0.0
 11
167.948226928711
 21
-6.00005149841309
 31
0.0
  0
LINE
  5
    50
  8
0
  6
CONTINUOUS
 62
    52
 10
174.190872192383
 20
-4.00005149841309
 30
0.0
 11
172.190872192383
 21
-6.00005149841309
 31
0.0
  0
LINE
  5
    51
  8
0
  6
CONTINUOUS
 62
    52
 10
177.480621337891
 20
-4.95293474197388
 30
0.0
 11
176.433502197266
 21
-6.00005149841309
 31
0.0
  0
ENDBLK
  5
    52
  8
0
  6
CONTINUOUS
 62
     7
  0
BLOCK
  5
    53
  8
0
  6
CONTINUOUS
 62
     7
  2
*HATCH118
 70
    65
 10
0.0
 20
0.0
 30
0.0
  3
*HATCH118
  0
LINE
  5
    54
  8
0
  6
CONTINUOUS
 62
    52
 10
186.918792724609
 20
-4.00005149841309
 30
0.0
 11
184.918792724609
 21
-6.00005149841309
 31
0.0
  0
LINE
  5
    55
  8
0
  6
CONTINUOUS
 62
    52
 10
191.161437988281
 20
-4.00005149841309
 30
0.0
 11
189.161437988281
 21
-6.00005149841309
 31
0.0
  0
LINE
  5
    56
  8
0
  6
CONTINUOUS
 62
    52
 10
195.404083251953
 20
-4.00005149841309
 30
0.0
 11
193.404083251953
 21
-6.00005149841309
 31
0.0
  0
LINE
  5
    57
  8
0
  6
CONTINUOUS
 62
    52
 10
199.646728515625
 20
-4.00005149841309
 30
0.0
 11
197.646728515625
 21
-6.00005149841309
 31
0.0
  0
LINE
  5
    58
  8
0
  6
CONTINUOUS
 62
    52
 10
203.889373779297
 20
-4.00005149841309
 30
0.0
 11
201.889373779297
 21
-6.00005149841309
 31
0.0
  0
LINE
  5
    59
  8
0
  6
CONTINUOUS
 62
    52
 10
208.132019042969
 20
-4.00005149841309
 30
0.0
 11
206.132019042969
 21
-6.00005149841309
 31
0.0
  0
LINE
  5
    5A
  8
0
  6
CONTINUOUS
 62
    52
 10
212.374664306641
 20
-4.00005149841309
 30
0.0
 11
210.374664306641
 21
-6.00005149841309
 31
0.0
  0
LINE
  5
    5B
  8
0
  6
CONTINUOUS
 62
    52
 10
216.617309570313
 20
-4.00005149841309
 30
0.0
 11
214.617309570313
 21
-6.00005149841309
 31
0.0
  0
LINE
  5
    5C
  8
0
  6
CONTINUOUS
 62
    52
 10
220.859954833984
 20
-4.00005149841309
 30
0.0
 11
218.859954833984
 21
-6.00005149841309
 31
0.0
  0
LINE
  5
    5D
  8
0
  6
CONTINUOUS
 62
    52
 10
225.102600097656
 20
-4.00005149841309
 30
0.0
 11
223.102600097656
 21
-6.00005149841309
 31
0.0
  0
LINE
  5
    5E
  8
0
  6
CONTINUOUS
 62
    52
 10
229.345245361328
 20
-4.00005149841309
 30
0.0
 11
227.345245361328
 21
-6.00005149841309
 31
0.0
  0
LINE
  5
    5F
  8
0
  6
CONTINUOUS
 62
    52
 10
233.587890625
 20
-4.00005149841309
 30
0.0
 11
231.587890625
 21
-6.00005149841309
 31
0.0
  0
LINE
  5
    60
  8
0
  6
CONTINUOUS
 62
    52
 10
235.840072631836
 20
-5.99046421051025
 30
0.0
 11
235.830474853516
 21
-6.00005149841309
 31
0.0
  0
ENDBLK
  5
    61
  8
0
  6
CONTINUOUS
 62
     7
  0
BLOCK
  5
    62
  8
0
  6
CONTINUOUS
 62
     7
  2
*HATCH119
 70
    65
 10
0.0
 20
0.0
 30
0.0
  3
*HATCH119
  0
LINE
  5
    63
  8
0
  6
CONTINUOUS
 62
     3
 10
244.536529541016
 20
121.499938964844
 30
0.0
 11
243.303741455078
 21
120.267150878906
 31
0.0
  0
LINE
  5
    64
  8
0
  6
CONTINUOUS
 62
     3
 10
246.63703918457
 20
121.479133605957
 30
0.0
 11
243.303741455078
 21
118.145835876465
 31
0.0
  0
LINE
  5
    65
  8
0
  6
CONTINUOUS
 62
     3
 10
246.63703918457
 20
119.357810974121
 30
0.0
 11
243.779174804688
 21
116.499938964844
 31
0.0
  0
LINE
  5
    66
  8
0
  6
CONTINUOUS
 62
     3
 10
246.63703918457
 20
117.236488342285
 30
0.0
 11
245.900482177734
 21
116.499938964844
 31
0.0
  0
ENDBLK
  5
    67
  8
0
  6
CONTINUOUS
 62
     7
  0
BLOCK
  5
    68
  8
0
  6
CONTINUOUS
 62
     7
  2
*HATCH120
 70
    65
 10
0.0
 20
0.0
 30
0.0
  3
*HATCH120
  0
LINE
  5
    69
  8
0
  6
CONTINUOUS
 62
     3
 10
256.203796386719
 20
121.499938964844
 30
0.0
 11
254.837051391602
 21
120.133186340332
 31
0.0
  0
LINE
  5
    6A
  8
0
  6
CONTINUOUS
 62
     3
 10
258.325134277344
 20
121.499938964844
 30
0.0
 11
254.837051391602
 21
118.011863708496
 31
0.0
  0
LINE
  5
    6B
  8
0
  6
CONTINUOUS
 62
     3
 10
260.446441650391
 20
121.499938964844
 30
0.0
 11
255.446441650391
 21
116.499938964844
 31
0.0
  0
LINE
  5
    6C
  8
0
  6
CONTINUOUS
 62
     3
 10
260.737030029297
 20
119.669227600098
 30
0.0
 11
257.567779541016
 21
116.499938964844
 31
0.0
  0
LINE
  5
    6D
  8
0
  6
CONTINUOUS
 62
     3
 10
260.737030029297
 20
117.547904968262
 30
0.0
 11
259.689117431641
 21
116.499938964844
 31
0.0
  0
ENDBLK
  5
    6E
  8
0
  6
CONTINUOUS
 62
     7
  0
BLOCK
  5
    6F
  8
0
  6
CONTINUOUS
 62
     7
  2
*HATCH121
 70
    65
 10
0.0
 20
0.0
 30
0.0
  3
*HATCH121
  0
LINE
  5
    70
  8
0
  6
CONTINUOUS
 62
    92
 10
245.109725952148
 20
123.999938964844
 30
0.0
 11
251.517639160156
 21
117.592010498047
 31
0.0
  0
LINE
  5
    71
  8
0
  6
CONTINUOUS
 62
    92
 10
253.78532409668
 20
123.809623718262
 30
0.0
 11
256.095001220703
 21
121.499938964844
 31
0.0
  0
ENDBLK
  5
    72
  8
0
  6
CONTINUOUS
 62
     7
  0
BLOCK
  5
    73
  8
0
  6
CONTINUOUS
 62
     7
  2
*HATCH122
 70
    65
 10
0.0
 20
0.0
 30
0.0
  3
*HATCH122
  0
LINE
  5
    74
  8
0
  6
CONTINUOUS
 62
    92
 10
257.083648681641
 20
103.540702819824
 30
0.0
 11
259.237060546875
 21
101.387313842773
 31
0.0
  0
ENDBLK
  5
    75
  8
0
  6
CONTINUOUS
 62
     7
  0
BLOCK
  5
    76
  8
0
  6
CONTINUOUS
 62
     7
  2
*HATCH123
 70
    65
 10
0.0
 20
0.0
 30
0.0
  3
*HATCH123
  0
LINE
  5
    77
  8
0
  6
CONTINUOUS
 62
    92
 10
244.356185913086
 20
103.540267944336
 30
0.0
 11
247.737045288086
 21
100.159400939941
 31
0.0
  0
ENDBLK
  5
    78
  8
0
  6
CONTINUOUS
 62
     7
  0
BLOCK
  5
    79
  8
0
  6
CONTINUOUS
 62
     7
  2
*HATCH124
 70
    65
 10
0.0
 20
0.0
 30
0.0
  3
*HATCH124
  0
LINE
  5
    7A
  8
0
  6
CONTINUOUS
 62
    92
 10
260.381774902344
 20
95.9999389648438
 30
0.0
 11
260.737030029297
 21
95.6446685791016
 31
0.0
  0
ENDBLK
  5
    7B
  8
0
  6
CONTINUOUS
 62
     7
  0
BLOCK
  5
    7C
  8
0
  6
CONTINUOUS
 62
     7
  2
*HATCH125
 70
    65
 10
0.0
 20
0.0
 30
0.0
  3
*HATCH125
  0
LINE
  5
    7D
  8
0
  6
CONTINUOUS
 62
    92
 10
243.411224365234
 20
95.9999389648438
 30
0.0
 11
244.737045288086
 21
94.6741180419922
 31
0.0
  0
ENDBLK
  5
    7E
  8
0
  6
CONTINUOUS
 62
     7
  0
BLOCK
  5
    7F
  8
0
  6
CONTINUOUS
 62
     7
  2
*HATCH126
 70
    65
 10
0.0
 20
0.0
 30
0.0
  3
*HATCH126
  0
LINE
  5
    80
  8
0
  6
CONTINUOUS
 62
    92
 10
248.737045288086
 20
100.244606018066
 30
0.0
 11
247.737045288086
 21
99.2446060180664
 31
0.0
  0
LINE
  5
    81
  8
0
  6
CONTINUOUS
 62
    92
 10
253.737045288086
 20
101.001968383789
 30
0.0
 11
252.737045288086
 21
100.001968383789
 31
0.0
  0
LINE
  5
    82
  8
0
  6
CONTINUOUS
 62
    92
 10
255.907348632813
 20
98.9296340942383
 30
0.0
 11
253.717636108398
 21
96.7399215698242
 31
0.0
  0
ENDBLK
  5
    83
  8
0
  6
CONTINUOUS
 62
     7
  0
BLOCK
  5
    84
  8
0
  6
CONTINUOUS
 62
     7
  2
*HATCH127
 70
    65
 10
0.0
 20
0.0
 30
0.0
  3
*HATCH127
  0
LINE
  5
    85
  8
0
  6
CONTINUOUS
 62
    92
 10
237.236923217773
 20
109.95768737793
 30
0.0
 11
235.236923217773
 21
107.95768737793
 31
0.0
  0
LINE
  5
    86
  8
0
  6
CONTINUOUS
 62
    92
 10
239.736953735352
 20
103.972442626953
 30
0.0
 11
238.236953735352
 21
102.472442626953
 31
0.0
  0
LINE
  5
    87
  8
0
  6
CONTINUOUS
 62
    92
 10
239.736953735352
 20
95.4871673583984
 30
0.0
 11
238.236953735352
 21
93.9871673583984
 31
0.0
  0
LINE
  5
    88
  8
0
  6
CONTINUOUS
 62
    92
 10
239.736953735352
 20
87.0018920898437
 30
0.0
 11
238.236953735352
 21
85.5018920898438
 31
0.0
  0
LINE
  5
    89
  8
0
  6
CONTINUOUS
 62
    92
 10
240.236968994141
 20
79.0166244506836
 30
0.0
 11
238.23698425293
 21
77.0166244506836
 31
0.0
  0
LINE
  5
    8A
  8
0
  6
CONTINUOUS
 62
    92
 10
245.205657958984
 20
75.5000152587891
 30
0.0
 11
242.705657958984
 21
73.0000152587891
 31
0.0
  0
LINE
  5
    8B
  8
0
  6
CONTINUOUS
 62
    92
 10
253.690948486328
 20
75.5000152587891
 30
0.0
 11
251.190948486328
 21
73.0000152587891
 31
0.0
  0
LINE
  5
    8C
  8
0
  6
CONTINUOUS
 62
    92
 10
262.176239013672
 20
75.5000152587891
 30
0.0
 11
259.676239013672
 21
73.0000152587891
 31
0.0
  0
LINE
  5
    8D
  8
0
  6
CONTINUOUS
 62
    92
 10
273.661468505859
 20
78.4999771118164
 30
0.0
 11
273.236968994141
 21
78.0754928588867
 31
0.0
  0
LINE
  5
    8E
  8
0
  6
CONTINUOUS
 62
    92
 10
275.236968994141
 20
75.8328552246094
 30
0.0
 11
272.404144287109
 21
73.0000152587891
 31
0.0
  0
ENDBLK
  5
    8F
  8
0
  6
CONTINUOUS
 62
     7
  0
BLOCK
  5
    90
  8
0
  6
CONTINUOUS
 62
     7
  2
*HATCH128
 70
    65
 10
0.0
 20
0.0
 30
0.0
  3
*HATCH128
  0
LINE
  5
    91
  8
0
  6
CONTINUOUS
 62
     3
 10
-28.0531425476074
 20
121.499938964844
 30
0.0
 11
-30.1628894805908
 21
119.390190124512
 31
0.0
  0
LINE
  5
    92
  8
0
  6
CONTINUOUS
 62
     3
 10
-26.8295917510986
 20
120.602172851563
 30
0.0
 11
-30.1628894805908
 21
117.268867492676
 31
0.0
  0
LINE
  5
    93
  8
0
  6
CONTINUOUS
 62
     3
 10
-26.8295917510986
 20
118.480850219727
 30
0.0
 11
-28.8105030059814
 21
116.499938964844
 31
0.0
  0
ENDBLK
  5
    94
  8
0
  6
CONTINUOUS
 62
     7
  0
BLOCK
  5
    95
  8
0
  6
CONTINUOUS
 62
     7
  2
*HATCH129
 70
    65
 10
0.0
 20
0.0
 30
0.0
  3
*HATCH129
  0
LINE
  5
    96
  8
0
  6
CONTINUOUS
 62
     3
 10
-42.9023818969727
 20
121.499938964844
 30
0.0
 11
-44.2628898620606
 21
120.139434814453
 31
0.0
  0
LINE
  5
    97
  8
0
  6
CONTINUOUS
 62
     3
 10
-40.7810592651367
 20
121.499938964844
 30
0.0
 11
-44.2628898620606
 21
118.018112182617
 31
0.0
  0
LINE
  5
    98
  8
0
  6
CONTINUOUS
 62
     3
 10
-38.6597442626953
 20
121.499938964844
 30
0.0
 11
-43.6597442626953
 21
116.499938964844
 31
0.0
  0
LINE
  5
    99
  8
0
  6
CONTINUOUS
 62
     3
 10
-38.3628883361816
 20
119.675468444824
 30
0.0
 11
-41.5384216308594
 21
116.499938964844
 31
0.0
  0
LINE
  5
    9A
  8
0
  6
CONTINUOUS
 62
     3
 10
-38.3628883361816
 20
117.554145812988
 30
0.0
 11
-39.4170989990234
 21
116.499938964844
 31
0.0
  0
ENDBLK
  5
    9B
  8
0
  6
CONTINUOUS
 62
     7
  0
BLOCK
  5
    9C
  8
0
  6
CONTINUOUS
 62
     7
  2
*HATCH130
 70
    65
 10
0.0
 20
0.0
 30
0.0
  3
*HATCH130
  0
LINE
  5
    9D
  8
0
  6
CONTINUOUS
 62
    92
 10
-39.1470146179199
 20
123.999931335449
 30
0.0
 11
-32.9374198913574
 21
117.790328979492
 31
0.0
  0
LINE
  5
    9E
  8
0
  6
CONTINUOUS
 62
    92
 10
-30.595573425293
 20
123.93376159668
 30
0.0
 11
-28.161750793457
 21
121.499938964844
 31
0.0
  0
ENDBLK
  5
    9F
  8
0
  6
CONTINUOUS
 62
     7
  0
BLOCK
  5
    A0
  8
0
  6
CONTINUOUS
 62
     7
  2
*HATCH131
 70
    65
 10
0.0
 20
0.0
 30
0.0
  3
*HATCH131
  0
LINE
  5
    A1
  8
0
  6
CONTINUOUS
 62
    92
 10
-39.9010009765625
 20
103.540702819824
 30
0.0
 11
-37.2628898620605
 21
100.902587890625
 31
0.0
  0
ENDBLK
  5
    A2
  8
0
  6
CONTINUOUS
 62
     7
  0
BLOCK
  5
    A3
  8
0
  6
CONTINUOUS
 62
     7
  2
*HATCH132
 70
    65
 10
0.0
 20
0.0
 30
0.0
  3
*HATCH132
  0
LINE
  5
    A4
  8
0
  6
CONTINUOUS
 62
    92
 10
-30.8019390106201
 20
102.926918029785
 30
0.0
 11
-28.8024368286133
 21
100.927406311035
 31
0.0
  0
ENDBLK
  5
    A5
  8
0
  6
CONTINUOUS
 62
     7
  0
BLOCK
  5
    A6
  8
0
  6
CONTINUOUS
 62
     7
  2
*HATCH133
 70
    65
 10
0.0
 20
0.0
 30
0.0
  3
*HATCH133
  0
LINE
  5
    A7
  8
0
  6
CONTINUOUS
 62
    92
 10
-40.8455238342285
 20
95.9999389648438
 30
0.0
 11
-40.0542068481445
 21
95.2086181640625
 31
0.0
  0
ENDBLK
  5
    A8
  8
0
  6
CONTINUOUS
 62
     7
  0
BLOCK
  5
    A9
  8
0
  6
CONTINUOUS
 62
     7
  2
*HATCH134
 70
    65
 10
0.0
 20
0.0
 30
0.0
  3
*HATCH134
  0
ENDBLK
  5
    AA
  8
0
  6
CONTINUOUS
 62
     7
  0
BLOCK
  5
    AB
  8
0
  6
CONTINUOUS
 62
     7
  2
*HATCH135
 70
    65
 10
0.0
 20
0.0
 30
0.0
  3
*HATCH135
  0
LINE
  5
    AC
  8
0
  6
CONTINUOUS
 62
    92
 10
-36.2628898620605
 20
99.5016098022461
 30
0.0
 11
-39.0245742797852
 21
96.7399215698242
 31
0.0
  0
LINE
  5
    AD
  8
0
  6
CONTINUOUS
 62
    92
 10
-32.63916015625
 20
98.882698059082
 30
0.0
 11
-34.7819328308105
 21
96.7399215698242
 31
0.0
  0
ENDBLK
  5
    AE
  8
0
  6
CONTINUOUS
 62
     7
  0
BLOCK
  5
    AF
  8
0
  6
CONTINUOUS
 62
     7
  2
*HATCH136
 70
    65
 10
0.0
 20
0.0
 30
0.0
  3
*HATCH136
  0
LINE
  5
    B0
  8
0
  6
CONTINUOUS
 62
    92
 10
-18.7627716064453
 20
112.759086608887
 30
0.0
 11
-20.7627696990967
 21
110.759086608887
 31
0.0
  0
LINE
  5
    B1
  8
0
  6
CONTINUOUS
 62
    92
 10
-18.7627658843994
 20
108.516448974609
 30
0.0
 11
-20.7627639770508
 21
106.516456604004
 31
0.0
  0
LINE
  5
    B2
  8
0
  6
CONTINUOUS
 62
    92
 10
-51.7792053222656
 20
75.5000152587891
 30
0.0
 11
-54.2792053222656
 21
73.0000152587891
 31
0.0
  0
LINE
  5
    B3
  8
0
  6
CONTINUOUS
 62
    92
 10
-21.7628059387207
 20
101.273773193359
 30
0.0
 11
-23.2628078460693
 21
99.7737655639649
 31
0.0
  0
LINE
  5
    B4
  8
0
  6
CONTINUOUS
 62
    92
 10
-21.762809753418
 20
97.0311279296875
 30
0.0
 11
-23.2628116607666
 21
95.5311279296875
 31
0.0
  0
LINE
  5
    B5
  8
0
  6
CONTINUOUS
 62
    92
 10
-21.7628135681152
 20
92.7884826660156
 30
0.0
 11
-23.2628154754639
 21
91.2884826660156
 31
0.0
  0
LINE
  5
    B6
  8
0
  6
CONTINUOUS
 62
    92
 10
-21.7628173828125
 20
88.5458374023438
 30
0.0
 11
-23.2628192901611
 21
87.0458374023437
 31
0.0
  0
LINE
  5
    B7
  8
0
  6
CONTINUOUS
 62
    92
 10
-21.7628211975098
 20
84.3031921386719
 30
0.0
 11
-23.7628211975098
 21
82.3031921386719
 31
0.0
  0
LINE
  5
    B8
  8
0
  6
CONTINUOUS
 62
    92
 10
-21.762825012207
 20
80.060546875
 30
0.0
 11
-23.762825012207
 21
78.060546875
 31
0.0
  0
LINE
  5
    B9
  8
0
  6
CONTINUOUS
 62
    92
 10
-21.7628269195557
 20
75.8179092407227
 30
0.0
 11
-24.5807189941406
 21
73.0000152587891
 31
0.0
  0
ENDBLK
  5
    BA
  8
0
  6
CONTINUOUS
 62
     7
  0
BLOCK
  5
    BB
  8
0
  6
CONTINUOUS
 62
   218
  2
*HATCH137
 70
    65
 10
0.0
 20
0.0
 30
0.0
  3
*HATCH137
  0
LINE
  5
    BC
  8
0
  6
CONTINUOUS
 62
     3
 10
-65.3717575073242
 20
118.122451782227
 30
0.0
 11
-67.6989440917969
 21
115.795265197754
 31
0.0
  0
LINE
  5
    BD
  8
0
  6
CONTINUOUS
 62
     3
 10
-64.4178466796875
 20
116.955039978027
 30
0.0
 11
-67.8327865600586
 21
113.540100097656
 31
0.0
  0
LINE
  5
    BE
  8
0
  6
CONTINUOUS
 62
     3
 10
-63.9595680236816
 20
115.291999816895
 30
0.0
 11
-67.4133758544922
 21
111.838195800781
 31
0.0
  0
LINE
  5
    BF
  8
0
  6
CONTINUOUS
 62
     3
 10
-63.9900932312012
 20
113.140151977539
 30
0.0
 11
-66.5730056762695
 21
110.557243347168
 31
0.0
  0
ENDBLK
  5
    C0
  8
0
  6
CONTINUOUS
 62
   218
  0
BLOCK
  5
    C1
  8
0
  6
CONTINUOUS
 62
   218
  2
*HATCH138
 70
    65
 10
0.0
 20
0.0
 30
0.0
  3
*HATCH138
  0
LINE
  5
    C2
  8
0
  6
CONTINUOUS
 62
     3
 10
283.259948730469
 20
117.796943664551
 30
0.0
 11
280.379577636719
 21
114.91658782959
 31
0.0
  0
LINE
  5
    C3
  8
0
  6
CONTINUOUS
 62
     3
 10
284.023040771484
 20
116.43871307373
 30
0.0
 11
280.504302978516
 21
112.919990539551
 31
0.0
  0
LINE
  5
    C4
  8
0
  6
CONTINUOUS
 62
     3
 10
284.318817138672
 20
114.613174438477
 30
0.0
 11
281.027496337891
 21
111.32186126709
 31
0.0
  0
LINE
  5
    C5
  8
0
  6
CONTINUOUS
 62
     3
 10
284.048248291016
 20
112.221298217773
 30
0.0
 11
282.184844970703
 21
110.357894897461
 31
0.0
  0
ENDBLK
  5
    C6
  8
0
  6
CONTINUOUS
 62
   218
  0
BLOCK
  5
    C7
  8
0
  6
CONTINUOUS
 62
     7
  2
*UDIM443
 70
    65
 10
0.0
 20
0.0
 30
0.0
  3
*UDIM443
  0
TEXT
  5
    C8
  8
0
  6
CONTINUOUS
 62
     7
 10
-614.1976815448
 20
0.229531619660179
 30
0.0
 40
3.00000008819055
  1
285
 50
89.9999999480344
 41
0.933333333333333
 72
     1
 11
-615.697681585362
 21
4.12953173566646
 31
0.0
 73
     2
  0
LINE
  5
    C9
  8
0
  6
CONTINUOUS
 62
     7
 10
-578.964045836031
 20
-65.420470450048
 30
0.0
 11
-615.197681541267
 21
-65.420470450048
 31
0.0
  0
LINE
  5
    CA
  8
0
  6
CONTINUOUS
 62
     7
 10
-574.850653916714
 20
74.2295322679237
 30
0.0
 11
-615.197681541267
 21
74.2295322679237
 31
0.0
  0
LINE
  5
    CB
  8
0
  6
CONTINUOUS
 62
     7
 10
-613.197681541267
 20
-65.420470450048
 30
0.0
 11
-613.197681541267
 21
74.2295322679237
 31
0.0
  0
LINE
  5
    CC
  8
0
  6
CONTINUOUS
 62
     7
 10
-613.718625971219
 20
-62.4660471728411
 30
0.0
 11
-613.197681541267
 21
-65.420470450048
 31
0.0
  0
LINE
  5
    CD
  8
0
  6
CONTINUOUS
 62
     7
 10
-613.197681541267
 20
-65.420470450048
 30
0.0
 11
-612.676737111316
 21
-62.4660471728411
 31
0.0
  0
LINE
  5
    CE
  8
0
  6
CONTINUOUS
 62
     7
 10
-612.676737111316
 20
71.2751089907168
 30
0.0
 11
-613.197681541267
 21
74.2295322679237
 31
0.0
  0
LINE
  5
    CF
  8
0
  6
CONTINUOUS
 62
     7
 10
-613.197681541267
 20
74.2295322679237
 30
0.0
 11
-613.718625971219
 21
71.2751089907168
 31
0.0
  0
ENDBLK
  5
    D0
  8
0
  6
CONTINUOUS
 62
     7
  0
BLOCK
  5
    D1
  8
0
  6
CONTINUOUS
 62
     7
  2
*UDIM444
 70
    65
 10
0.0
 20
0.0
 30
0.0
  3
*UDIM444
  0
TEXT
  5
    D2
  8
0
  6
CONTINUOUS
 62
     7
 10
-604.444209526499
 20
31.3707904996334
 30
0.0
 40
3.00000008819055
  1
140,75
 50
89.9999999480344
 41
0.933333333333333
 72
     1
 11
-605.944209563258
 21
39.4707907391065
 31
0.0
 73
     2
  0
LINE
  5
    D3
  8
0
  6
CONTINUOUS
 62
     7
 10
-595.710307334942
 20
5.26204767365708
 30
0.0
 11
-605.444209519163
 21
5.26204767365708
 31
0.0
  0
LINE
  5
    D4
  8
0
  6
CONTINUOUS
 62
     7
 10
-574.850653916714
 20
74.2295322679237
 30
0.0
 11
-605.444209519163
 21
74.2295322679237
 31
0.0
  0
LINE
  5
    D5
  8
0
  6
CONTINUOUS
 62
     7
 10
-603.444209519163
 20
5.26204767365708
 30
0.0
 11
-603.444209519163
 21
74.2295322679237
 31
0.0
  0
LINE
  5
    D6
  8
0
  6
CONTINUOUS
 62
     7
 10
-603.965153949114
 20
8.21647095086404
 30
0.0
 11
-603.444209519163
 21
5.26204767365708
 31
0.0
  0
LINE
  5
    D7
  8
0
  6
CONTINUOUS
 62
     7
 10
-603.444209519163
 20
5.26204767365708
 30
0.0
 11
-602.923265089211
 21
8.21647095086404
 31
0.0
  0
LINE
  5
    D8
  8
0
  6
CONTINUOUS
 62
     7
 10
-602.923265089211
 20
71.2751089907168
 30
0.0
 11
-603.444209519163
 21
74.2295322679237
 31
0.0
  0
LINE
  5
    D9
  8
0
  6
CONTINUOUS
 62
     7
 10
-603.444209519163
 20
74.2295322679237
 30
0.0
 11
-603.965153949114
 21
71.2751089907168
 31
0.0
  0
ENDBLK
  5
    DA
  8
0
  6
CONTINUOUS
 62
     7
  0
BLOCK
  5
    DB
  8
0
  6
CONTINUOUS
 62
     7
  2
*UDIM445
 70
    65
 10
0.0
 20
0.0
 30
0.0
  3
*UDIM445
  0
TEXT
  5
    DC
  8
0
  6
CONTINUOUS
 62
     7
 10
-574.069204215193
 20
-99.6694984598016
 30
0.0
 40
3.00000008819055
  1
79,5
 50
359.999999948034
 41
0.933333333333333
 72
     1
 11
-568.769204058037
 21
-98.1694984204866
 31
0.0
 73
     2
  0
LINE
  5
    DD
  8
0
  6
CONTINUOUS
 62
     7
 10
-549.016712274548
 20
-77.8129089619466
 30
0.0
 11
-549.016712274548
 21
-102.669498464582
 31
0.0
  0
LINE
  5
    DE
  8
0
  6
CONTINUOUS
 62
     7
 10
-587.971698079109
 20
-88.4956892406205
 30
0.0
 11
-587.971698079109
 21
-102.669498464582
 31
0.0
  0
LINE
  5
    DF
  8
0
  6
CONTINUOUS
 62
     7
 10
-549.016712274548
 20
-100.669498464582
 30
0.0
 11
-587.971698079109
 21
-100.669498464582
 31
0.0
  0
LINE
  5
    E0
  8
0
  6
CONTINUOUS
 62
     7
 10
-551.971135551755
 20
-101.190442894534
 30
0.0
 11
-549.016712274548
 21
-100.669498464582
 31
0.0
  0
LINE
  5
    E1
  8
0
  6
CONTINUOUS
 62
     7
 10
-549.016712274548
 20
-100.669498464582
 30
0.0
 11
-551.971135551755
 21
-100.14855403463
 31
0.0
  0
LINE
  5
    E2
  8
0
  6
CONTINUOUS
 62
     7
 10
-585.017274801902
 20
-100.14855403463
 30
0.0
 11
-587.971698079109
 21
-100.669498464582
 31
0.0
  0
LINE
  5
    E3
  8
0
  6
CONTINUOUS
 62
     7
 10
-587.971698079109
 20
-100.669498464582
 30
0.0
 11
-585.017274801902
 21
-101.190442894534
 31
0.0
  0
ENDBLK
  5
    E4
  8
0
  6
CONTINUOUS
 62
     7
  0
BLOCK
  5
    E5
  8
0
  6
CONTINUOUS
 62
     7
  2
*UDIM446
 70
    65
 10
0.0
 20
0.0
 30
0.0
  3
*UDIM446
  0
TEXT
  5
    E6
  8
0
  6
CONTINUOUS
 62
     7
 10
-563.639335452682
 20
-91.7176228460099
 30
0.0
 40
3.00000008819055
  1
18x18
 50
359.999999948034
 41
0.933333333333333
 72
     1
 11
-556.93933525437
 21
-90.2176228079577
 31
0.0
 73
     2
  0
LINE
  5
    E7
  8
0
  6
CONTINUOUS
 62
     7
 10
-564.25567518711
 20
-72.7904388723822
 30
0.0
 11
-564.25567518711
 21
-94.717622852053
 31
0.0
  0
LINE
  5
    E8
  8
0
  6
CONTINUOUS
 62
     7
 10
-570.331675305366
 20
-72.7904388723822
 30
0.0
 11
-570.331675305366
 21
-94.717622852053
 31
0.0
  0
LINE
  5
    E9
  8
0
  6
CONTINUOUS
 62
     7
 10
-550.239335057411
 20
-92.717622852053
 30
0.0
 11
-570.331675305366
 21
-92.717622852053
 31
0.0
  0
LINE
  5
    EA
  8
0
  6
CONTINUOUS
 62
     7
 10
-567.210098464317
 20
-93.2385672820046
 30
0.0
 11
-564.25567518711
 21
-92.717622852053
 31
0.0
  0
LINE
  5
    EB
  8
0
  6
CONTINUOUS
 62
     7
 10
-564.25567518711
 20
-92.717622852053
 30
0.0
 11
-567.210098464317
 21
-92.1966784221013
 31
0.0
  0
LINE
  5
    EC
  8
0
  6
CONTINUOUS
 62
     7
 10
-567.377252028159
 20
-92.1966784221013
 30
0.0
 11
-570.331675305366
 21
-92.717622852053
 31
0.0
  0
LINE
  5
    ED
  8
0
  6
CONTINUOUS
 62
     7
 10
-570.331675305366
 20
-92.717622852053
 30
0.0
 11
-567.377252028159
 21
-93.2385672820046
 31
0.0
  0
ENDBLK
  5
    EE
  8
0
  6
CONTINUOUS
 62
     7
  0
BLOCK
  5
    EF
  8
0
  6
CONTINUOUS
 62
     7
  2
*UDIM447
 70
    65
 10
0.0
 20
0.0
 30
0.0
  3
*UDIM447
  0
TEXT
  5
    F0
  8
0
  6
CONTINUOUS
 62
     7
 10
-581.926689941614
 20
-91.7176228497981
 30
0.0
 40
3.00000008819055
  1
36
 50
359.999999948034
 41
0.933333333333333
 72
     1
 11
-579.426689866769
 21
-90.2176228079577
 31
0.0
 73
     2
  0
LINE
  5
    F1
  8
0
  6
CONTINUOUS
 62
     7
 10
-587.971698079109
 20
-88.4956892406205
 30
0.0
 11
-587.971698079109
 21
-94.717622852053
 31
0.0
  0
LINE
  5
    F2
  8
0
  6
CONTINUOUS
 62
     7
 10
-570.331675305366
 20
-92.717622852053
 30
0.0
 11
-587.971698079109
 21
-92.717622852053
 31
0.0
  0
LINE
  5
    F3
  8
0
  6
CONTINUOUS
 62
     7
 10
-573.286098582573
 20
-93.2385672820046
 30
0.0
 11
-570.331675305366
 21
-92.717622852053
 31
0.0
  0
LINE
  5
    F4
  8
0
  6
CONTINUOUS
 62
     7
 10
-570.331675305366
 20
-92.717622852053
 30
0.0
 11
-573.286098582573
 21
-92.1966784221013
 31
0.0
  0
LINE
  5
    F5
  8
0
  6
CONTINUOUS
 62
     7
 10
-585.017274801902
 20
-92.1966784221013
 30
0.0
 11
-587.971698079109
 21
-92.717622852053
 31
0.0
  0
LINE
  5
    F6
  8
0
  6
CONTINUOUS
 62
     7
 10
-587.971698079109
 20
-92.717622852053
 30
0.0
 11
-585.017274801902
 21
-93.2385672820046
 31
0.0
  0
ENDBLK
  5
    F7
  8
0
  6
CONTINUOUS
 62
     7
  0
BLOCK
  5
    F8
  8
0
  6
CONTINUOUS
 62
     7
  2
*UDIM448
 70
    65
 10
0.0
 20
0.0
 30
0.0
  3
*UDIM448
  0
TEXT
  5
    F9
  8
0
  6
CONTINUOUS
 62
     7
 10
-595.19169905207
 20
-91.7176228510608
 30
0.0
 40
3.00000008819055
  1
3
 50
359.999999948034
 41
0.933333333333333
 72
     1
 11
-594.091699018381
 21
-90.2176228079577
 31
0.0
 73
     2
  0
TEXT
  5
    FA
  8
0
  6
CONTINUOUS
 62
     7
 10
-597.941699128664
 20
-91.7176228510608
 30
0.0
 40
3.00000008819055
  1
_
 50
359.999999948034
 41
0.933333333333333
 72
     1
 11
-596.841699094975
 21
-90.2176228079577
 31
0.0
 73
     2
  0
LINE
  5
    FB
  8
0
  6
CONTINUOUS
 62
     7
 10
-589.441698107719
 20
-88.4108815466622
 30
0.0
 11
-589.441698107719
 21
-94.717622852053
 31
0.0
  0
LINE
  5
    FC
  8
0
  6
CONTINUOUS
 62
     7
 10
-587.971698079109
 20
-92.717622852053
 30
0.0
 11
-597.941699127312
 21
-92.717622852053
 31
0.0
  0
LINE
  5
    FD
  8
0
  6
CONTINUOUS
 62
     7
 10
-585.017274801902
 20
-92.1966784221013
 30
0.0
 11
-587.971698079109
 21
-92.717622852053
 31
0.0
  0
LINE
  5
    FE
  8
0
  6
CONTINUOUS
 62
     7
 10
-587.971698079109
 20
-92.717622852053
 30
0.0
 11
-585.017274801902
 21
-93.2385672820046
 31
0.0
  0
LINE
  5
    FF
  8
0
  6
CONTINUOUS
 62
     7
 10
-592.396121384926
 20
-93.2385672820046
 30
0.0
 11
-589.441698107719
 21
-92.717622852053
 31
0.0
  0
LINE
  5
   100
  8
0
  6
CONTINUOUS
 62
     7
 10
-589.441698107719
 20
-92.717622852053
 30
0.0
 11
-592.396121384926
 21
-92.1966784221013
 31
0.0
  0
ENDBLK
  5
   101
  8
0
  6
CONTINUOUS
 62
     7
  0
BLOCK
  5
   102
  8
0
  6
CONTINUOUS
 62
     7
  2
*UDIM449
 70
    65
 10
0.0
 20
0.0
 30
0.0
  3
*UDIM449
  0
TEXT
  5
   103
  8
0
  6
CONTINUOUS
 62
     7
 10
-507.306679317143
 20
-114.641389090067
 30
0.0
 40
3.00000008819055
  1
2
 50
359.999999948034
 41
0.933333333333333
 72
     1
 11
-506.206679283453
 21
-113.141389046964
 31
0.0
 73
     2
  0
LINE
  5
   104
  8
0
  6
CONTINUOUS
 62
     7
 10
-510.306678810119
 20
-74.5166995031189
 30
0.0
 11
-510.306678810119
 21
-117.641389091059
 31
0.0
  0
LINE
  5
   105
  8
0
  6
CONTINUOUS
 62
     7
 10
-511.286678829193
 20
-75.2461253027976
 30
0.0
 11
-511.286678829193
 21
-117.641389091059
 31
0.0
  0
LINE
  5
   106
  8
0
  6
CONTINUOUS
 62
     7
 10
-505.106679251116
 20
-115.641389091059
 30
0.0
 11
-511.286678829193
 21
-115.641389091059
 31
0.0
  0
LINE
  5
   107
  8
0
  6
CONTINUOUS
 62
     7
 10
-507.352255532912
 20
-115.120444661107
 30
0.0
 11
-510.306678810119
 21
-115.641389091059
 31
0.0
  0
LINE
  5
   108
  8
0
  6
CONTINUOUS
 62
     7
 10
-510.306678810119
 20
-115.641389091059
 30
0.0
 11
-507.352255532912
 21
-116.162333521011
 31
0.0
  0
LINE
  5
   109
  8
0
  6
CONTINUOUS
 62
     7
 10
-514.2411021064
 20
-116.162333521011
 30
0.0
 11
-511.286678829193
 21
-115.641389091059
 31
0.0
  0
LINE
  5
   10A
  8
0
  6
CONTINUOUS
 62
     7
 10
-511.286678829193
 20
-115.641389091059
 30
0.0
 11
-514.2411021064
 21
-115.120444661107
 31
0.0
  0
ENDBLK
  5
   10B
  8
0
  6
CONTINUOUS
 62
     7
  0
BLOCK
  5
   10C
  8
0
  6
CONTINUOUS
 62
     7
  2
*UDIM450
 70
    65
 10
0.0
 20
0.0
 30
0.0
  3
*UDIM450
  0
TEXT
  5
   10D
  8
0
  6
CONTINUOUS
 62
     7
 10
-556.604188672716
 20
-114.641389085016
 30
0.0
 40
3.00000008819055
  1
156,5
 50
359.999999948034
 41
0.933333333333333
 72
     1
 11
-549.904188474404
 21
-113.141389046964
 31
0.0
 73
     2
  0
LINE
  5
   10E
  8
0
  6
CONTINUOUS
 62
     7
 10
-587.971698079109
 20
-88.4956892406205
 30
0.0
 11
-587.971698079109
 21
-117.641389091059
 31
0.0
  0
LINE
  5
   10F
  8
0
  6
CONTINUOUS
 62
     7
 10
-511.286678829193
 20
-115.641389091059
 30
0.0
 11
-587.971698079109
 21
-115.641389091059
 31
0.0
  0
LINE
  5
   110
  8
0
  6
CONTINUOUS
 62
     7
 10
-514.2411021064
 20
-116.162333521011
 30
0.0
 11
-511.286678829193
 21
-115.641389091059
 31
0.0
  0
LINE
  5
   111
  8
0
  6
CONTINUOUS
 62
     7
 10
-511.286678829193
 20
-115.641389091059
 30
0.0
 11
-514.2411021064
 21
-115.120444661107
 31
0.0
  0
LINE
  5
   112
  8
0
  6
CONTINUOUS
 62
     7
 10
-585.017274801902
 20
-115.120444661107
 30
0.0
 11
-587.971698079109
 21
-115.641389091059
 31
0.0
  0
LINE
  5
   113
  8
0
  6
CONTINUOUS
 62
     7
 10
-587.971698079109
 20
-115.641389091059
 30
0.0
 11
-585.017274801902
 21
-116.162333521011
 31
0.0
  0
ENDBLK
  5
   114
  8
0
  6
CONTINUOUS
 62
     7
  0
BLOCK
  5
   115
  8
0
  6
CONTINUOUS
 62
     7
  2
*UDIM451
 70
    65
 10
0.0
 20
0.0
 30
0.0
  3
*UDIM451
  0
TEXT
  5
   116
  8
0
  6
CONTINUOUS
 62
     7
 10
-549.733388290703
 20
-123.028145687454
 30
0.0
 40
3.00000008819055
  1
184,5
 50
359.999999948034
 41
0.933333333333333
 72
     1
 11
-543.033388092391
 21
-121.528145649402
 31
0.0
 73
     2
  0
LINE
  5
   117
  8
0
  6
CONTINUOUS
 62
     7
 10
-497.545081254209
 20
-0.760437470480909
 30
0.0
 11
-497.545127299411
 21
-126.028145693497
 31
0.0
  0
LINE
  5
   118
  8
0
  6
CONTINUOUS
 62
     7
 10
-587.971698866921
 20
-88.4956892406202
 30
0.0
 11
-587.971728435445
 21
-126.028145693497
 31
0.0
  0
LINE
  5
   119
  8
0
  6
CONTINUOUS
 62
     7
 10
-497.545126564262
 20
-124.028145693497
 30
0.0
 11
-587.971726859821
 21
-124.028145693497
 31
0.0
  0
LINE
  5
   11A
  8
0
  6
CONTINUOUS
 62
     7
 10
-500.499549841469
 20
-124.549090123449
 30
0.0
 11
-497.545126564262
 21
-124.028145693497
 31
0.0
  0
LINE
  5
   11B
  8
0
  6
CONTINUOUS
 62
     7
 10
-497.545126564262
 20
-124.028145693497
 30
0.0
 11
-500.499549841469
 21
-123.507201263546
 31
0.0
  0
LINE
  5
   11C
  8
0
  6
CONTINUOUS
 62
     7
 10
-585.017303582614
 20
-123.507201263546
 30
0.0
 11
-587.971726859821
 21
-124.028145693497
 31
0.0
  0
LINE
  5
   11D
  8
0
  6
CONTINUOUS
 62
     7
 10
-587.971726859821
 20
-124.028145693497
 30
0.0
 11
-585.017303582614
 21
-124.549090123449
 31
0.0
  0
ENDBLK
  5
   11E
  8
0
  6
CONTINUOUS
 62
     7
  0
BLOCK
  5
   11F
  8
0
  6
CONTINUOUS
 62
     7
  2
*UDIM452
 70
    65
 10
0.0
 20
0.0
 30
0.0
  3
*UDIM452
  0
TEXT
  5
   120
  8
0
  6
CONTINUOUS
 62
     7
 10
-554.661685404334
 20
-106.565278853454
 30
0.0
 40
3.00000008819055
  1
153
 50
359.999999948034
 41
0.933333333333333
 72
     1
 11
-550.761685288333
 21
-105.065278812876
 31
0.0
 73
     2
  0
LINE
  5
   121
  8
0
  6
CONTINUOUS
 62
     7
 10
-513.00168198029
 20
-21.4629378734083
 30
0.0
 11
-513.001709637067
 21
-109.565278856971
 31
0.0
  0
LINE
  5
   122
  8
0
  6
CONTINUOUS
 62
     7
 10
-587.971699255653
 20
-88.4956892406198
 30
0.0
 11
-587.971724044943
 21
-109.56527885697
 31
0.0
  0
LINE
  5
   123
  8
0
  6
CONTINUOUS
 62
     7
 10
-513.001709009234
 20
-107.565278856971
 30
0.0
 11
-587.971721691856
 21
-107.565278856971
 31
0.0
  0
LINE
  5
   124
  8
0
  6
CONTINUOUS
 62
     7
 10
-515.956132286441
 20
-108.086223286923
 30
0.0
 11
-513.001709009234
 21
-107.565278856971
 31
0.0
  0
LINE
  5
   125
  8
0
  6
CONTINUOUS
 62
     7
 10
-513.001709009234
 20
-107.565278856971
 30
0.0
 11
-515.956132286441
 21
-107.04433442702
 31
0.0
  0
LINE
  5
   126
  8
0
  6
CONTINUOUS
 62
     7
 10
-585.017298414649
 20
-107.04433442702
 30
0.0
 11
-587.971721691856
 21
-107.565278856971
 31
0.0
  0
LINE
  5
   127
  8
0
  6
CONTINUOUS
 62
     7
 10
-587.971721691856
 20
-107.565278856971
 30
0.0
 11
-585.017298414649
 21
-108.086223286923
 31
0.0
  0
ENDBLK
  5
   128
  8
0
  6
CONTINUOUS
 62
     7
  0
BLOCK
  5
   129
  8
0
  6
CONTINUOUS
 62
     7
  2
*UDIM453
 70
    65
 10
0.0
 20
0.0
 30
0.0
  3
*UDIM453
  0
TEXT
  5
   12A
  8
0
  6
CONTINUOUS
 62
     7
 10
-486.007150676142
 20
1.08705407960333
 30
0.0
 40
3.00000008819055
  1
105
 50
89.9999999480344
 41
0.933333333333333
 72
     1
 11
-487.507150716705
 21
4.98705419560961
 31
0.0
 73
     2
  0
LINE
  5
   12B
  8
0
  6
CONTINUOUS
 62
     7
 10
-510.286678829193
 20
-20.4629378734084
 30
0.0
 11
-483.00715067261
 21
-20.4629378734084
 31
0.0
  0
LINE
  5
   12C
  8
0
  6
CONTINUOUS
 62
     7
 10
-510.286678829193
 20
30.9870481743361
 30
0.0
 11
-483.00715067261
 21
30.9870481743361
 31
0.0
  0
LINE
  5
   12D
  8
0
  6
CONTINUOUS
 62
     7
 10
-485.00715067261
 20
-20.4629378734084
 30
0.0
 11
-485.00715067261
 21
30.9870481743361
 31
0.0
  0
LINE
  5
   12E
  8
0
  6
CONTINUOUS
 62
     7
 10
-485.528095102562
 20
-17.5085145962014
 30
0.0
 11
-485.00715067261
 21
-20.4629378734084
 31
0.0
  0
LINE
  5
   12F
  8
0
  6
CONTINUOUS
 62
     7
 10
-485.00715067261
 20
-20.4629378734084
 30
0.0
 11
-484.486206242658
 21
-17.5085145962014
 31
0.0
  0
LINE
  5
   130
  8
0
  6
CONTINUOUS
 62
     7
 10
-484.486206242658
 20
28.0326248971291
 30
0.0
 11
-485.00715067261
 21
30.9870481743361
 31
0.0
  0
LINE
  5
   131
  8
0
  6
CONTINUOUS
 62
     7
 10
-485.00715067261
 20
30.9870481743361
 30
0.0
 11
-485.528095102562
 21
28.0326248971291
 31
0.0
  0
ENDBLK
  5
   132
  8
0
  6
CONTINUOUS
 62
     7
  0
BLOCK
  5
   133
  8
0
  6
CONTINUOUS
 62
     7
  2
*UDIM454
 70
    65
 10
0.0
 20
0.0
 30
0.0
  3
*UDIM454
  0
TEXT
  5
   134
  8
0
  6
CONTINUOUS
 62
     7
 10
-669.008500373672
 20
100.05923368243
 30
0.0
 40
3.00000008819055
  1
117
 50
359.999999948034
 41
0.933333333333333
 72
     1
 11
-665.108500257671
 21
101.559233723008
 31
0.0
 73
     2
  0
LINE
  5
   135
  8
0
  6
CONTINUOUS
 62
     7
 10
-636.168503651572
 20
45.0945306705174
 30
0.0
 11
-636.168503651572
 21
101.059233678912
 31
0.0
  0
LINE
  5
   136
  8
0
  6
CONTINUOUS
 62
     7
 10
-693.498504767371
 20
45.0945306705175
 30
0.0
 11
-693.498504767371
 21
101.059233678912
 31
0.0
  0
LINE
  5
   137
  8
0
  6
CONTINUOUS
 62
     7
 10
-636.168503651572
 20
99.0592336789123
 30
0.0
 11
-693.498504767371
 21
99.0592336789123
 31
0.0
  0
LINE
  5
   138
  8
0
  6
CONTINUOUS
 62
     7
 10
-639.122926928779
 20
98.5382892489606
 30
0.0
 11
-636.168503651572
 21
99.0592336789123
 31
0.0
  0
LINE
  5
   139
  8
0
  6
CONTINUOUS
 62
     7
 10
-636.168503651572
 20
99.0592336789123
 30
0.0
 11
-639.122926928779
 21
99.580178108864
 31
0.0
  0
LINE
  5
   13A
  8
0
  6
CONTINUOUS
 62
     7
 10
-690.544081490164
 20
99.580178108864
 30
0.0
 11
-693.498504767371
 21
99.0592336789123
 31
0.0
  0
LINE
  5
   13B
  8
0
  6
CONTINUOUS
 62
     7
 10
-693.498504767371
 20
99.0592336789123
 30
0.0
 11
-690.544081490164
 21
98.5382892489606
 31
0.0
  0
ENDBLK
  5
   13C
  8
0
  6
CONTINUOUS
 62
     7
  0
BLOCK
  5
   13D
  8
0
  6
CONTINUOUS
 62
     7
  2
*UDIM455
 70
    65
 10
0.0
 20
0.0
 30
0.0
  3
*UDIM455
  0
TEXT
  5
   13E
  8
0
  6
CONTINUOUS
 62
     7
 10
-630.269792985469
 20
1.08703156005374
 30
0.0
 40
3.00000008819055
  1
161
 50
89.9999999480344
 41
0.933333333333333
 72
     1
 11
-631.769793026032
 21
4.98703167606002
 31
0.0
 73
     2
  0
LINE
  5
   13F
  8
0
  6
CONTINUOUS
 62
     7
 10
-635.781003663493
 20
-34.1829689837756
 30
0.0
 11
-627.269792981937
 21
-34.1829689837756
 31
0.0
  0
LINE
  5
   140
  8
0
  6
CONTINUOUS
 62
     7
 10
-635.781003663493
 20
44.7070306824384
 30
0.0
 11
-627.269792981937
 21
44.7070306824384
 31
0.0
  0
LINE
  5
   141
  8
0
  6
CONTINUOUS
 62
     7
 10
-629.269792981937
 20
-34.1829689837756
 30
0.0
 11
-629.269792981937
 21
44.7070306824384
 31
0.0
  0
LINE
  5
   142
  8
0
  6
CONTINUOUS
 62
     7
 10
-629.790737411889
 20
-31.2285457065686
 30
0.0
 11
-629.269792981937
 21
-34.1829689837756
 31
0.0
  0
LINE
  5
   143
  8
0
  6
CONTINUOUS
 62
     7
 10
-629.269792981937
 20
-34.1829689837756
 30
0.0
 11
-628.748848551985
 21
-31.2285457065686
 31
0.0
  0
LINE
  5
   144
  8
0
  6
CONTINUOUS
 62
     7
 10
-628.748848551985
 20
41.7526074052314
 30
0.0
 11
-629.269792981937
 21
44.7070306824384
 31
0.0
  0
LINE
  5
   145
  8
0
  6
CONTINUOUS
 62
     7
 10
-629.269792981937
 20
44.7070306824384
 30
0.0
 11
-629.790737411889
 21
41.7526074052314
 31
0.0
  0
ENDBLK
  5
   146
  8
0
  6
CONTINUOUS
 62
     7
  0
BLOCK
  5
   147
  8
0
  6
CONTINUOUS
 62
     7
  2
*UDIM456
 70
    65
 10
0.0
 20
0.0
 30
0.0
  3
*UDIM456
  0
TEXT
  5
   148
  8
0
  6
CONTINUOUS
 62
     7
 10
-722.404033247063
 20
0.22952032815617
 30
0.0
 40
3.00000008819055
  1
334
 50
89.9999999480344
 41
0.933333333333333
 72
     1
 11
-723.904033287626
 21
4.12952044416245
 31
0.0
 73
     2
  0
LINE
  5
   149
  8
0
  6
CONTINUOUS
 62
     7
 10
-690.94600800698
 20
-77.4254520679749
 30
0.0
 11
-723.40403324353
 21
-77.4254520679749
 31
0.0
  0
LINE
  5
   14A
  8
0
  6
CONTINUOUS
 62
     7
 10
-690.94600800698
 20
86.2344913028426
 30
0.0
 11
-723.40403324353
 21
86.2344913028426
 31
0.0
  0
LINE
  5
   14B
  8
0
  6
CONTINUOUS
 62
     7
 10
-721.40403324353
 20
-77.4254520679749
 30
0.0
 11
-721.40403324353
 21
86.2344913028426
 31
0.0
  0
LINE
  5
   14C
  8
0
  6
CONTINUOUS
 62
     7
 10
-721.924977673482
 20
-74.4710287907679
 30
0.0
 11
-721.40403324353
 21
-77.4254520679749
 31
0.0
  0
LINE
  5
   14D
  8
0
  6
CONTINUOUS
 62
     7
 10
-721.40403324353
 20
-77.4254520679749
 30
0.0
 11
-720.883088813579
 21
-74.4710287907679
 31
0.0
  0
LINE
  5
   14E
  8
0
  6
CONTINUOUS
 62
     7
 10
-720.883088813579
 20
83.2800680256356
 30
0.0
 11
-721.40403324353
 21
86.2344913028426
 31
0.0
  0
LINE
  5
   14F
  8
0
  6
CONTINUOUS
 62
     7
 10
-721.40403324353
 20
86.2344913028426
 30
0.0
 11
-721.924977673482
 21
83.2800680256356
 31
0.0
  0
ENDBLK
  5
   150
  8
0
  6
CONTINUOUS
 62
     7
  0
BLOCK
  5
   151
  8
0
  6
CONTINUOUS
 62
     7
  2
*UDIM457
 70
    65
 10
0.0
 20
0.0
 30
0.0
  3
*UDIM457
  0
TEXT
  5
   152
  8
0
  6
CONTINUOUS
 62
     7
 10
-714.700907904248
 20
37.373271856334
 30
0.0
 40
3.00000008819055
  1
165,25
 50
89.9999999480344
 41
0.933333333333333
 72
     1
 11
-716.200907941006
 21
45.473272095807
 31
0.0
 73
     2
  0
LINE
  5
   153
  8
0
  6
CONTINUOUS
 62
     7
 10
-700.415884889512
 20
5.26204954135027
 30
0.0
 11
-715.700907896911
 21
5.26204954135027
 31
0.0
  0
LINE
  5
   154
  8
0
  6
CONTINUOUS
 62
     7
 10
-690.94600800698
 20
86.2344913028426
 30
0.0
 11
-715.700907896911
 21
86.2344913028426
 31
0.0
  0
LINE
  5
   155
  8
0
  6
CONTINUOUS
 62
     7
 10
-713.700907896911
 20
5.26204954135027
 30
0.0
 11
-713.700907896911
 21
86.2344913028426
 31
0.0
  0
LINE
  5
   156
  8
0
  6
CONTINUOUS
 62
     7
 10
-714.221852326863
 20
8.21647281855723
 30
0.0
 11
-713.700907896911
 21
5.26204954135027
 31
0.0
  0
LINE
  5
   157
  8
0
  6
CONTINUOUS
 62
     7
 10
-713.700907896911
 20
5.26204954135027
 30
0.0
 11
-713.17996346696
 21
8.21647281855723
 31
0.0
  0
LINE
  5
   158
  8
0
  6
CONTINUOUS
 62
     7
 10
-713.17996346696
 20
83.2800680256356
 30
0.0
 11
-713.700907896911
 21
86.2344913028426
 31
0.0
  0
LINE
  5
   159
  8
0
  6
CONTINUOUS
 62
     7
 10
-713.700907896911
 20
86.2344913028426
 30
0.0
 11
-714.221852326863
 21
83.2800680256356
 31
0.0
  0
ENDBLK
  5
   15A
  8
0
  6
CONTINUOUS
 62
     7
  0
BLOCK
  5
   15B
  8
0
  6
CONTINUOUS
 62
     7
  2
*UDIM458
 70
    65
 10
0.0
 20
0.0
 30
0.0
  3
*UDIM458
  0
TEXT
  5
   15C
  8
0
  6
CONTINUOUS
 62
     7
 10
-698.551695448903
 20
28.1857716775201
 30
0.0
 40
3.00000008819055
  1
127,75
 50
89.9999999480344
 41
0.933333333333333
 72
     1
 11
-700.051695485661
 21
36.2857719169931
 31
0.0
 73
     2
  0
LINE
  5
   15D
  8
0
  6
CONTINUOUS
 62
     7
 10
-690.946005210059
 20
67.8594909452147
 30
0.0
 11
-699.551695441566
 21
67.8594909452147
 31
0.0
  0
LINE
  5
   15E
  8
0
  6
CONTINUOUS
 62
     7
 10
-697.551695441566
 20
5.26204954135027
 30
0.0
 11
-697.551695441566
 21
67.8594909452147
 31
0.0
  0
LINE
  5
   15F
  8
0
  6
CONTINUOUS
 62
     7
 10
-698.072639871518
 20
8.21647281855723
 30
0.0
 11
-697.551695441566
 21
5.26204954135027
 31
0.0
  0
LINE
  5
   160
  8
0
  6
CONTINUOUS
 62
     7
 10
-697.551695441566
 20
5.26204954135027
 30
0.0
 11
-697.030751011614
 21
8.21647281855723
 31
0.0
  0
LINE
  5
   161
  8
0
  6
CONTINUOUS
 62
     7
 10
-697.030751011614
 20
64.9050676680077
 30
0.0
 11
-697.551695441566
 21
67.8594909452147
 31
0.0
  0
LINE
  5
   162
  8
0
  6
CONTINUOUS
 62
     7
 10
-697.551695441566
 20
67.8594909452147
 30
0.0
 11
-698.072639871518
 21
64.9050676680077
 31
0.0
  0
ENDBLK
  5
   163
  8
0
  6
CONTINUOUS
 62
     7
  0
BLOCK
  5
   164
  8
0
  6
CONTINUOUS
 62
     7
  2
*UDIM459
 70
    65
 10
0.0
 20
0.0
 30
0.0
  3
*UDIM459
  0
TEXT
  5
   165
  8
0
  6
CONTINUOUS
 62
     7
 10
-659.033522896726
 20
-85.4258152474838
 30
0.0
 40
3.00000008819055
  1
35
 50
359.999999948034
 41
0.933333333333333
 72
     1
 11
-656.533522821881
 21
-83.9258152056434
 31
0.0
 73
     2
  0
LINE
  5
   166
  8
0
  6
CONTINUOUS
 62
     7
 10
-647.683511694596
 20
-69.4095055827929
 30
0.0
 11
-647.683519644899
 21
-88.4258152497385
 31
0.0
  0
LINE
  5
   167
  8
0
  6
CONTINUOUS
 62
     7
 10
-664.833513079749
 20
-69.4094919652657
 30
0.0
 11
-664.833521030049
 21
-88.4258152497385
 31
0.0
  0
LINE
  5
   168
  8
0
  6
CONTINUOUS
 62
     7
 10
-647.683518808743
 20
-86.4258152497387
 30
0.0
 11
-664.833520193893
 21
-86.4258152497387
 31
0.0
  0
LINE
  5
   169
  8
0
  6
CONTINUOUS
 62
     7
 10
-650.63794208595
 20
-86.9467596796903
 30
0.0
 11
-647.683518808743
 21
-86.4258152497387
 31
0.0
  0
LINE
  5
   16A
  8
0
  6
CONTINUOUS
 62
     7
 10
-647.683518808743
 20
-86.4258152497387
 30
0.0
 11
-650.63794208595
 21
-85.904870819787
 31
0.0
  0
LINE
  5
   16B
  8
0
  6
CONTINUOUS
 62
     7
 10
-661.879096916687
 20
-85.904870819787
 30
0.0
 11
-664.833520193893
 21
-86.4258152497387
 31
0.0
  0
LINE
  5
   16C
  8
0
  6
CONTINUOUS
 62
     7
 10
-664.833520193893
 20
-86.4258152497387
 30
0.0
 11
-661.879096916687
 21
-86.9467596796903
 31
0.0
  0
ENDBLK
  5
   16D
  8
0
  6
CONTINUOUS
 62
     7
  0
BLOCK
  5
   16E
  8
0
  6
CONTINUOUS
 62
     7
  2
*UDIM460
 70
    65
 10
0.0
 20
0.0
 30
0.0
  3
*UDIM460
  0
TEXT
  5
   16F
  8
0
  6
CONTINUOUS
 62
     7
 10
-676.18351948319
 20
-85.4258152474838
 30
0.0
 40
3.00000008819055
  1
35
 50
359.999999948034
 41
0.933333333333333
 72
     1
 11
-673.683519408345
 21
-83.9258152056434
 31
0.0
 73
     2
  0
LINE
  5
   170
  8
0
  6
CONTINUOUS
 62
     7
 10
-681.983506946317
 20
-69.4094556480497
 30
0.0
 11
-681.983517534624
 21
-88.4258152497384
 31
0.0
  0
LINE
  5
   171
  8
0
  6
CONTINUOUS
 62
     7
 10
-664.833520193893
 20
-86.4258152497387
 30
0.0
 11
-681.983516421025
 21
-86.4258152497387
 31
0.0
  0
LINE
  5
   172
  8
0
  6
CONTINUOUS
 62
     7
 10
-667.7879434711
 20
-86.9467596796903
 30
0.0
 11
-664.833520193893
 21
-86.4258152497387
 31
0.0
  0
LINE
  5
   173
  8
0
  6
CONTINUOUS
 62
     7
 10
-664.833520193893
 20
-86.4258152497387
 30
0.0
 11
-667.7879434711
 21
-85.904870819787
 31
0.0
  0
LINE
  5
   174
  8
0
  6
CONTINUOUS
 62
     7
 10
-679.029093143818
 20
-85.904870819787
 30
0.0
 11
-681.983516421025
 21
-86.4258152497387
 31
0.0
  0
LINE
  5
   175
  8
0
  6
CONTINUOUS
 62
     7
 10
-681.983516421025
 20
-86.4258152497387
 30
0.0
 11
-679.029093143818
 21
-86.9467596796903
 31
0.0
  0
ENDBLK
  5
   176
  8
0
  6
CONTINUOUS
 62
     7
  0
BLOCK
  5
   177
  8
0
  6
CONTINUOUS
 62
     7
  2
*UDIM461
 70
    65
 10
0.0
 20
0.0
 30
0.0
  3
*UDIM461
  0
TEXT
  5
   178
  8
0
  6
CONTINUOUS
 62
     7
 10
-706.093191563556
 20
-5.03630882487222
 30
0.0
 40
3.00000008819055
  1
259
 50
89.9999999480344
 41
0.933333333333333
 72
     1
 11
-707.593191604119
 21
-1.13630870886594
 31
0.0
 73
     2
  0
LINE
  5
   179
  8
0
  6
CONTINUOUS
 62
     7
 10
-690.946005210059
 20
-59.050451710347
 30
0.0
 11
-707.093191560024
 21
-59.050451710347
 31
0.0
  0
LINE
  5
   17A
  8
0
  6
CONTINUOUS
 62
     7
 10
-690.946005210059
 20
67.8594909452147
 30
0.0
 11
-707.093191560024
 21
67.8594909452147
 31
0.0
  0
LINE
  5
   17B
  8
0
  6
CONTINUOUS
 62
     7
 10
-705.093191560024
 20
-59.050451710347
 30
0.0
 11
-705.093191560024
 21
67.8594909452147
 31
0.0
  0
LINE
  5
   17C
  8
0
  6
CONTINUOUS
 62
     7
 10
-705.614135989976
 20
-56.0960284331401
 30
0.0
 11
-705.093191560024
 21
-59.050451710347
 31
0.0
  0
LINE
  5
   17D
  8
0
  6
CONTINUOUS
 62
     7
 10
-705.093191560024
 20
-59.050451710347
 30
0.0
 11
-704.572247130072
 21
-56.0960284331401
 31
0.0
  0
LINE
  5
   17E
  8
0
  6
CONTINUOUS
 62
     7
 10
-704.572247130072
 20
64.9050676680077
 30
0.0
 11
-705.093191560024
 21
67.8594909452147
 31
0.0
  0
LINE
  5
   17F
  8
0
  6
CONTINUOUS
 62
     7
 10
-705.093191560024
 20
67.8594909452147
 30
0.0
 11
-705.614135989976
 21
64.9050676680077
 31
0.0
  0
ENDBLK
  5
   180
  8
0
  6
CONTINUOUS
 62
     7
  0
BLOCK
  5
   181
  8
0
  6
CONTINUOUS
 62
     7
  2
*UDIM462
 70
    65
 10
0.0
 20
0.0
 30
0.0
  3
*UDIM462
  0
TEXT
  5
   182
  8
0
  6
CONTINUOUS
 62
     7
 10
-669.008477940681
 20
92.3317295647463
 30
0.0
 40
3.00000008819055
  1
105
 50
359.999999948034
 41
0.933333333333333
 72
     1
 11
-665.108477824681
 21
93.831729605324
 31
0.0
 73
     2
  0
LINE
  5
   183
  8
0
  6
CONTINUOUS
 62
     7
 10
-639.108489250898
 20
55.6295355485635
 30
0.0
 11
-639.108477415559
 21
93.3317295612286
 31
0.0
  0
LINE
  5
   184
  8
0
  6
CONTINUOUS
 62
     7
 10
-690.558460260161
 20
55.6295355485635
 30
0.0
 11
-690.558445225115
 21
93.3317295612286
 31
0.0
  0
LINE
  5
   185
  8
0
  6
CONTINUOUS
 62
     7
 10
-639.108478043391
 20
91.3317295612287
 30
0.0
 11
-690.558446022684
 21
91.3317295612287
 31
0.0
  0
LINE
  5
   186
  8
0
  6
CONTINUOUS
 62
     7
 10
-642.062901320598
 20
90.8107851312771
 30
0.0
 11
-639.108478043391
 21
91.3317295612287
 31
0.0
  0
LINE
  5
   187
  8
0
  6
CONTINUOUS
 62
     7
 10
-639.108478043391
 20
91.3317295612287
 30
0.0
 11
-642.062901320598
 21
91.8526739911804
 31
0.0
  0
LINE
  5
   188
  8
0
  6
CONTINUOUS
 62
     7
 10
-687.604022745477
 20
91.8526739911804
 30
0.0
 11
-690.558446022684
 21
91.3317295612287
 31
0.0
  0
LINE
  5
   189
  8
0
  6
CONTINUOUS
 62
     7
 10
-690.558446022684
 20
91.3317295612287
 30
0.0
 11
-687.604022745477
 21
90.8107851312771
 31
0.0
  0
ENDBLK
  5
   18A
  8
0
  6
CONTINUOUS
 62
     7
  0
BLOCK
  5
   18B
  8
0
  6
CONTINUOUS
 62
     7
  2
MOSTRINA
 70
    64
 10
0.0
 20
0.0
 30
0.0
  3
MOSTRINA
  0
LINE
  5
   18C
  8
0
  6
CONTINUOUS
 62
     3
 10
173.338256835938
 20
30.7306251525879
 30
0.0
 11
173.338256835938
 21
189.230621337891
 31
0.0
  0
LINE
  5
   18D
  8
0
  6
CONTINUOUS
 62
     3
 10
57.5882568359375
 20
29.4806251525879
 30
0.0
 11
172.088256835938
 21
29.4806251525879
 31
0.0
  0
LINE
  5
   18E
  8
0
  6
CONTINUOUS
 62
     3
 10
56.3382568359375
 20
30.7306251525879
 30
0.0
 11
56.3382568359375
 21
189.230621337891
 31
0.0
  0
LINE
  5
   18F
  8
0
  6
CONTINUOUS
 62
     3
 10
57.5882568359375
 20
190.480621337891
 30
0.0
 11
172.088256835938
 21
190.480621337891
 31
0.0
  0
LINE
  5
   190
  8
0
  6
CONTINUOUS
 62
     3
 10
167.838256835938
 20
56.9806251525879
 30
0.0
 11
167.838256835938
 21
162.980625152588
 31
0.0
  0
LINE
  5
   191
  8
0
  6
CONTINUOUS
 62
     3
 10
61.8382568359375
 20
56.9806251525879
 30
0.0
 11
167.838256835938
 21
56.9806251525879
 31
0.0
  0
LINE
  5
   192
  8
0
  6
CONTINUOUS
 62
     3
 10
61.8382568359375
 20
56.9806251525879
 30
0.0
 11
61.8382568359375
 21
162.980625152588
 31
0.0
  0
LINE
  5
   193
  8
0
  6
CONTINUOUS
 62
     3
 10
61.8382568359375
 20
162.980621337891
 30
0.0
 11
167.838256835938
 21
162.980621337891
 31
0.0
  0
LINE
  5
   194
  8
0
  6
CONTINUOUS
 62
     3
 10
168.838256835938
 20
48.4806251525879
 30
0.0
 11
168.838256835938
 21
49.4806251525879
 31
0.0
  0
LINE
  5
   195
  8
0
  6
CONTINUOUS
 62
     3
 10
61.8382568359375
 20
50.4806251525879
 30
0.0
 11
167.838256835938
 21
50.4806251525879
 31
0.0
  0
LINE
  5
   196
  8
0
  6
CONTINUOUS
 62
     3
 10
60.8382568359375
 20
48.4806251525879
 30
0.0
 11
60.8382568359375
 21
49.4806251525879
 31
0.0
  0
LINE
  5
   197
  8
0
  6
CONTINUOUS
 62
     3
 10
61.8382568359375
 20
49.4806251525879
 30
0.0
 11
167.838256835938
 21
49.4806251525879
 31
0.0
  0
LINE
  5
   198
  8
0
  6
CONTINUOUS
 62
     3
 10
60.8382568359375
 20
29.4806251525879
 30
0.0
 11
60.8382568359375
 21
48.4806251525879
 31
0.0
  0
LINE
  5
   199
  8
0
  6
CONTINUOUS
 62
     3
 10
60.8382568359375
 20
49.4806213378906
 30
0.0
 11
60.8382568359375
 21
190.480621337891
 31
0.0
  0
LINE
  5
   19A
  8
0
  6
CONTINUOUS
 62
     3
 10
61.8382568359375
 20
29.4806251525879
 30
0.0
 11
61.8382568359375
 21
49.4806251525879
 31
0.0
  0
LINE
  5
   19B
  8
0
  6
CONTINUOUS
 62
     3
 10
61.8382568359375
 20
162.980621337891
 30
0.0
 11
61.8382568359375
 21
169.480621337891
 31
0.0
  0
LINE
  5
   19C
  8
0
  6
CONTINUOUS
 62
     3
 10
61.8382568359375
 20
50.4806251525879
 30
0.0
 11
61.8382568359375
 21
56.9806251525879
 31
0.0
  0
LINE
  5
   19D
  8
0
  6
CONTINUOUS
 62
     3
 10
168.838256835938
 20
29.4806251525879
 30
0.0
 11
168.838256835938
 21
48.4806251525879
 31
0.0
  0
LINE
  5
   19E
  8
0
  6
CONTINUOUS
 62
     3
 10
168.838256835938
 20
49.4806251525879
 30
0.0
 11
168.838256835938
 21
190.480621337891
 31
0.0
  0
LINE
  5
   19F
  8
0
  6
CONTINUOUS
 62
     3
 10
167.838256835938
 20
50.4806251525879
 30
0.0
 11
167.838256835938
 21
56.9806251525879
 31
0.0
  0
LINE
  5
   1A0
  8
0
  6
CONTINUOUS
 62
     3
 10
167.838256835938
 20
162.980621337891
 30
0.0
 11
167.838256835938
 21
169.480621337891
 31
0.0
  0
LINE
  5
   1A1
  8
0
  6
CONTINUOUS
 62
     3
 10
167.838256835938
 20
29.4806251525879
 30
0.0
 11
167.838256835938
 21
49.4806251525879
 31
0.0
  0
LINE
  5
   1A2
  8
0
  6
CONTINUOUS
 62
     3
 10
60.8382568359375
 20
170.480621337891
 30
0.0
 11
168.838256835938
 21
170.480621337891
 31
0.0
  0
LINE
  5
   1A3
  8
0
  6
CONTINUOUS
 62
     3
 10
61.8382568359375
 20
169.480621337891
 30
0.0
 11
167.838256835938
 21
169.480621337891
 31
0.0
  0
ARC
  5
   1A4
  8
0
  6
CONTINUOUS
 62
     3
 10
57.5882568359375
 20
30.7306251525879
 30
0.0
 40
1.25
 50
180.0
 51
270.0
  0
ARC
  5
   1A5
  8
0
  6
CONTINUOUS
 62
     3
 10
172.088256835938
 20
30.7306251525879
 30
0.0
 40
1.25
 50
270.0
 51
360.0
  0
ARC
  5
   1A6
  8
0
  6
CONTINUOUS
 62
     3
 10
172.088256835938
 20
189.230621337891
 30
0.0
 40
1.25
 50
0.0
 51
90.0
  0
ARC
  5
   1A7
  8
0
  6
CONTINUOUS
 62
     3
 10
57.5882568359375
 20
189.230621337891
 30
0.0
 40
1.25
 50
90.0
 51
180.0
  0
LINE
  5
   1A8
  8
0
  6
DOT
 62
     3
 10
60.3382577409677
 20
179.7306252571
 30
0.0
 11
60.8382568359375
 21
179.7306252571
 31
0.0
  0
LINE
  5
   1A9
  8
0
  6
DOT
 62
     3
 10
60.3382577409676
 20
181.2306252571
 30
0.0
 11
60.8382568359375
 21
181.2306252571
 31
0.0
  0
LINE
  5
   1AA
  8
0
  6
CONTINUOUS
 62
     3
 10
168.338257745313
 20
179.730625257273
 30
0.0
 11
168.838256835938
 21
179.730625257273
 31
0.0
  0
LINE
  5
   1AB
  8
0
  6
CONTINUOUS
 62
     3
 10
168.338257745314
 20
181.230625257273
 30
0.0
 11
168.838256835938
 21
181.230625257273
 31
0.0
  0
ARC
  5
   1AC
  8
0
  6
DOT
 62
     3
 10
60.3382577401871
 20
180.480625257147
 30
0.0
 40
0.749999999345164
 50
90.0
 51
270.0
  0
ARC
  5
   1AD
  8
0
  6
CONTINUOUS
 62
     3
 10
61.338257740822
 20
180.480625256974
 30
0.0
 40
0.750000000009701
 50
270.0
 51
450.0
  0
LINE
  5
   1AE
  8
0
  6
CONTINUOUS
 62
     3
 10
60.8382568359375
 20
181.2306252571
 30
0.0
 11
61.3382577409688
 21
181.2306252571
 31
0.0
  0
LINE
  5
   1AF
  8
0
  6
CONTINUOUS
 62
     3
 10
60.8382568359375
 20
179.7306252571
 30
0.0
 11
61.3382577409689
 21
179.7306252571
 31
0.0
  0
ARC
  5
   1B0
  8
0
  6
CONTINUOUS
 62
     3
 10
168.338257745503
 20
180.480625256952
 30
0.0
 40
0.750000000048506
 50
90.0000000038822
 51
269.999999996024
  0
ARC
  5
   1B1
  8
0
  6
DOT
 62
     3
 10
169.338257745421
 20
180.480625256965
 30
0.0
 40
0.750000000029104
 50
270.000000002449
 51
449.999999997486
  0
LINE
  5
   1B2
  8
0
  6
DOT
 62
     3
 10
168.838256835938
 20
181.230625257273
 30
0.0
 11
169.338257745315
 21
181.230625257273
 31
0.0
  0
LINE
  5
   1B3
  8
0
  6
DOT
 62
     3
 10
168.838256835938
 20
179.730625257273
 30
0.0
 11
169.338257745315
 21
179.730625257273
 31
0.0
  0
ENDBLK
  5
   1B4
  8
0
  6
CONTINUOUS
 62
     7
  0
BLOCK
  5
   1B5
  8
0
  6
CONTINUOUS
 62
     7
  2
*UDIM463
 70
    65
 10
0.0
 20
0.0
 30
0.0
  3
*UDIM463
  0
TEXT
  5
   1B6
  8
0
  6
CONTINUOUS
 62
     7
 10
-428.198443236465
 20
19.4486640661228
 30
0.0
 40
3.00000002980232
  1
7
 50
404.893139787217
 41
0.933333333333334
 72
     1
 11
-428.477856586003
 21
21.2876660369876
 31
0.0
 73
     2
  0
TEXT
  5
   1B7
  8
0
  6
CONTINUOUS
 62
     7
 10
-430.42997993674
 20
17.2254357787191
 30
0.0
 40
3.00000002980232
  1
Ø
 50
404.893139787217
 41
0.933333333333334
 72
     1
 11
-430.709393286277
 21
19.0644377495838
 31
0.0
 73
     2
  0
LINE
  5
   1B8
  8
0
  6
CONTINUOUS
 62
     7
 10
-413.72604544437
 20
32.4555951800189
 30
0.0
 11
-429.724193176067
 21
16.5170114324183
 31
0.0
  0
LINE
  5
   1B9
  8
0
  6
CONTINUOUS
 62
     7
 10
-412.000735742383
 20
34.9098377173874
 30
0.0
 11
-413.72604544437
 21
32.4555951800189
 31
0.0
  0
LINE
  5
   1BA
  8
0
  6
CONTINUOUS
 62
     7
 10
-413.72604544437
 20
32.4555951800189
 30
0.0
 11
-411.265384384172
 21
34.1717382821019
 31
0.0
  0
LINE
  5
   1BB
  8
0
  6
CONTINUOUS
 62
     7
 10
-416.691097753711
 20
28.7662258202103
 30
0.0
 11
-414.965788051724
 21
31.2204683575787
 31
0.0
  0
LINE
  5
   1BC
  8
0
  6
CONTINUOUS
 62
     7
 10
-414.965788051724
 20
31.2204683575787
 30
0.0
 11
-417.426449111922
 21
29.5043252554957
 31
0.0
  0
ENDBLK
  5
   1BD
  8
0
  6
CONTINUOUS
 62
     7
  0
BLOCK
  5
   1BE
  8
0
  6
CONTINUOUS
 62
     7
  2
*UDIM464
 70
    65
 10
0.0
 20
0.0
 30
0.0
  3
*UDIM464
  0
TEXT
  5
   1BF
  8
0
  6
CONTINUOUS
 62
     7
 10
-407.120916782916
 20
80.1242103644557
 30
0.0
 40
3.00000002980232
  1
80
 50
359.999999844103
 41
0.933333333333333
 72
     1
 11
-404.620916754007
 21
81.6242103725672
 31
0.0
 73
     2
  0
LINE
  5
   1C0
  8
0
  6
CONTINUOUS
 62
     7
 10
-414.345916748047
 20
69.9630317687988
 30
0.0
 11
-414.345916748047
 21
81.124210357666
 31
0.0
  0
LINE
  5
   1C1
  8
0
  6
CONTINUOUS
 62
     7
 10
-394.345916748047
 20
69.9630317687988
 30
0.0
 11
-394.345916748047
 21
81.124210357666
 31
0.0
  0
LINE
  5
   1C2
  8
0
  6
CONTINUOUS
 62
     7
 10
-414.345916748047
 20
79.124210357666
 30
0.0
 11
-394.345916748047
 21
79.124210357666
 31
0.0
  0
LINE
  5
   1C3
  8
0
  6
CONTINUOUS
 62
     7
 10
-411.39149347084
 20
79.6451547876177
 30
0.0
 11
-414.345916748047
 21
79.124210357666
 31
0.0
  0
LINE
  5
   1C4
  8
0
  6
CONTINUOUS
 62
     7
 10
-414.345916748047
 20
79.124210357666
 30
0.0
 11
-411.39149347084
 21
78.6032659277144
 31
0.0
  0
LINE
  5
   1C5
  8
0
  6
CONTINUOUS
 62
     7
 10
-397.300340025254
 20
78.6032659277144
 30
0.0
 11
-394.345916748047
 21
79.124210357666
 31
0.0
  0
LINE
  5
   1C6
  8
0
  6
CONTINUOUS
 62
     7
 10
-394.345916748047
 20
79.124210357666
 30
0.0
 11
-397.300340025254
 21
79.6451547876177
 31
0.0
  0
ENDBLK
  5
   1C7
  8
0
  6
CONTINUOUS
 62
     7
  0
BLOCK
  5
   1C8
  8
0
  6
CONTINUOUS
 62
     7
  2
*UDIM465
 70
    65
 10
0.0
 20
0.0
 30
0.0
  3
*UDIM465
  0
TEXT
  5
   1C9
  8
0
  6
CONTINUOUS
 62
     7
 10
-408.520916796824
 20
86.5638694869103
 30
0.0
 40
3.00000002980232
  1
112
 50
359.999999844103
 41
0.933333333333333
 72
     1
 11
-404.620916754007
 21
88.0638694912195
 31
0.0
 73
     2
  0
LINE
  5
   1CA
  8
0
  6
CONTINUOUS
 62
     7
 10
-418.345916748047
 20
64.5880317687988
 30
0.0
 11
-418.345916748047
 21
87.5638694763184
 31
0.0
  0
LINE
  5
   1CB
  8
0
  6
CONTINUOUS
 62
     7
 10
-390.345916748047
 20
64.5880317687988
 30
0.0
 11
-390.345916748047
 21
87.5638694763184
 31
0.0
  0
LINE
  5
   1CC
  8
0
  6
CONTINUOUS
 62
     7
 10
-418.345916748047
 20
85.5638694763184
 30
0.0
 11
-390.345916748047
 21
85.5638694763184
 31
0.0
  0
LINE
  5
   1CD
  8
0
  6
CONTINUOUS
 62
     7
 10
-415.39149347084
 20
86.08481390627
 30
0.0
 11
-418.345916748047
 21
85.5638694763184
 31
0.0
  0
LINE
  5
   1CE
  8
0
  6
CONTINUOUS
 62
     7
 10
-418.345916748047
 20
85.5638694763184
 30
0.0
 11
-415.39149347084
 21
85.0429250463667
 31
0.0
  0
LINE
  5
   1CF
  8
0
  6
CONTINUOUS
 62
     7
 10
-393.300340025254
 20
85.0429250463667
 30
0.0
 11
-390.345916748047
 21
85.5638694763184
 31
0.0
  0
LINE
  5
   1D0
  8
0
  6
CONTINUOUS
 62
     7
 10
-390.345916748047
 20
85.5638694763184
 30
0.0
 11
-393.300340025254
 21
86.08481390627
 31
0.0
  0
ENDBLK
  5
   1D1
  8
0
  6
CONTINUOUS
 62
     7
  0
BLOCK
  5
   1D2
  8
0
  6
CONTINUOUS
 62
     7
  2
*UDIM466
 70
    65
 10
0.0
 20
0.0
 30
0.0
  3
*UDIM466
  0
TEXT
  5
   1D3
  8
0
  6
CONTINUOUS
 62
     7
 10
-430.753292094327
 20
45.4130317200234
 30
0.0
 40
3.00000002980232
  1
112
 50
449.999999844103
 41
0.933333333333333
 72
     1
 11
-432.253292098641
 21
49.3130317628384
 31
0.0
 73
     2
  0
LINE
  5
   1D4
  8
0
  6
CONTINUOUS
 62
     7
 10
-419.345916748047
 20
63.5880317687988
 30
0.0
 11
-431.75329208374
 21
63.5880317687988
 31
0.0
  0
LINE
  5
   1D5
  8
0
  6
CONTINUOUS
 62
     7
 10
-419.345916748047
 20
35.5880317687988
 30
0.0
 11
-431.75329208374
 21
35.5880317687988
 31
0.0
  0
LINE
  5
   1D6
  8
0
  6
CONTINUOUS
 62
     7
 10
-429.75329208374
 20
63.5880317687988
 30
0.0
 11
-429.75329208374
 21
35.5880317687988
 31
0.0
  0
LINE
  5
   1D7
  8
0
  6
CONTINUOUS
 62
     7
 10
-429.232347653789
 20
60.6336084915919
 30
0.0
 11
-429.75329208374
 21
63.5880317687988
 31
0.0
  0
LINE
  5
   1D8
  8
0
  6
CONTINUOUS
 62
     7
 10
-429.75329208374
 20
63.5880317687988
 30
0.0
 11
-430.274236513692
 21
60.6336084915919
 31
0.0
  0
LINE
  5
   1D9
  8
0
  6
CONTINUOUS
 62
     7
 10
-430.274236513692
 20
38.5424550460058
 30
0.0
 11
-429.75329208374
 21
35.5880317687988
 31
0.0
  0
LINE
  5
   1DA
  8
0
  6
CONTINUOUS
 62
     7
 10
-429.75329208374
 20
35.5880317687988
 30
0.0
 11
-429.232347653789
 21
38.5424550460058
 31
0.0
  0
ENDBLK
  5
   1DB
  8
0
  6
CONTINUOUS
 62
     7
  0
BLOCK
  5
   1DC
  8
0
  6
CONTINUOUS
 62
     7
  2
*UDIM467
 70
    65
 10
0.0
 20
0.0
 30
0.0
  3
*UDIM467
  0
TEXT
  5
   1DD
  8
0
  6
CONTINUOUS
 62
     7
 10
-440.251029978849
 20
45.4130317200234
 30
0.0
 40
3.00000002980232
  1
142
 50
449.999999844103
 41
0.933333333333333
 72
     1
 11
-441.751029983163
 21
49.3130317628384
 31
0.0
 73
     2
  0
LINE
  5
   1DE
  8
0
  6
CONTINUOUS
 62
     7
 10
-416.970916748047
 20
67.3380317687988
 30
0.0
 11
-441.251029968262
 21
67.3380317687988
 31
0.0
  0
LINE
  5
   1DF
  8
0
  6
CONTINUOUS
 62
     7
 10
-416.970916748047
 20
31.8380317687988
 30
0.0
 11
-441.251029968262
 21
31.8380317687988
 31
0.0
  0
LINE
  5
   1E0
  8
0
  6
CONTINUOUS
 62
     7
 10
-439.251029968262
 20
67.3380317687988
 30
0.0
 11
-439.251029968262
 21
31.8380317687988
 31
0.0
  0
LINE
  5
   1E1
  8
0
  6
CONTINUOUS
 62
     7
 10
-438.73008553831
 20
64.3836084915919
 30
0.0
 11
-439.251029968262
 21
67.3380317687988
 31
0.0
  0
LINE
  5
   1E2
  8
0
  6
CONTINUOUS
 62
     7
 10
-439.251029968262
 20
67.3380317687988
 30
0.0
 11
-439.771974398213
 21
64.3836084915919
 31
0.0
  0
LINE
  5
   1E3
  8
0
  6
CONTINUOUS
 62
     7
 10
-439.771974398213
 20
34.7924550460058
 30
0.0
 11
-439.251029968262
 21
31.8380317687988
 31
0.0
  0
LINE
  5
   1E4
  8
0
  6
CONTINUOUS
 62
     7
 10
-439.251029968262
 20
31.8380317687988
 30
0.0
 11
-438.73008553831
 21
34.7924550460058
 31
0.0
  0
ENDBLK
  5
   1E5
  8
0
  6
CONTINUOUS
 62
     7
  0
ENDSEC
  0
SECTION
  2
ENTITIES
  0
LINE
  5
   1E6
  8
0
  6
DASHDOT
 62
     3
 10
-664.83349609375
 20
-93.251607052418
 30
0.0
 11
-664.83349609375
 21
-154.879432588261
 31
0.0
  0
LINE
  5
   1E7
  8
0
  6
CONTINUOUS
 62
     7
 10
-651.08349609375
 20
-95.1161229791203
 30
0.0
 11
-651.08349609375
 21
-152.705091802065
 31
0.0
  0
LINE
  5
   1E8
  8
0
  6
CONTINUOUS
 62
     7
 10
-678.58349609375
 20
-94.6812548218812
 30
0.0
 11
-678.58349609375
 21
-152.705091802065
 31
0.0
  0
LINE
  5
   1E9
  8
0
  6
DASHDOT
 62
     3
 10
-675.08349609375
 20
-105.39633013072
 30
0.0
 11
-675.08349609375
 21
-148.025642572567
 31
0.0
  0
LINE
  5
   1EA
  8
0
  6
DASHDOT
 62
     3
 10
-654.58349609375
 20
-105.39633013072
 30
0.0
 11
-654.58349609375
 21
-148.43292899717
 31
0.0
  0
LINE
  5
   1EB
  8
0
  6
DASHDOT
 62
     3
 10
-651.861455106043
 20
-109.941253662109
 30
0.0
 11
-678.199310563744
 21
-109.941253662109
 31
0.0
  0
LINE
  5
   1EC
  8
0
  6
DASHDOT
 62
     3
 10
-651.997217247577
 20
-143.691253662109
 30
0.0
 11
-678.335072705278
 21
-143.691253662109
 31
0.0
  0
CIRCLE
  5
   1ED
  8
0
  6
CONTINUOUS
 62
     7
 10
-675.08349609375
 20
-109.941253662109
 30
0.0
 40
0.625
  0
CIRCLE
  5
   1EE
  8
0
  6
CONTINUOUS
 62
     7
 10
-654.58349609375
 20
-109.941253662109
 30
0.0
 40
0.625
  0
CIRCLE
  5
   1EF
  8
0
  6
CONTINUOUS
 62
     7
 10
-654.58349609375
 20
-143.691253662109
 30
0.0
 40
0.625
  0
CIRCLE
  5
   1F0
  8
0
  6
CONTINUOUS
 62
     7
 10
-675.08349609375
 20
-143.691253662109
 30
0.0
 40
0.625
  0
LINE
  5
   1F1
  8
0
  6
DASHDOT
 62
     3
 10
-644.712177985186
 20
-126.378753662109
 30
0.0
 11
-688.251562823987
 21
-126.378753662109
 31
0.0
  0
LINE
  5
   1F2
  8
0
  6
CONTINUOUS
 62
     7
 10
-647.862882840687
 20
-150.53075101587
 30
0.0
 11
-681.844723127797
 21
-150.53075101587
 31
0.0
  0
LINE
  5
   1F3
  8
0
  6
CONTINUOUS
 62
     7
 10
-647.614386750836
 20
-96.6070995182257
 30
0.0
 11
-684.081187936455
 21
-96.6070995182257
 31
0.0
  0
INSERT
  5
   1F4
  8
0
  6
CONTINUOUS
 62
     7
  2
*UDIM439
 10
0.0
 20
0.0
 30
0.0
  0
TEXT
  5
   1F5
  8
0
  6
CONTINUOUS
 62
     7
 10
-671.003913882108
 20
-107.038711565715
 30
0.0
 40
3.00000002980232
  1
=   =
 50
359.999999896069
 41
0.916666604744064
 72
     2
 11
-657.803914647034
 21
-107.038711589593
 31
0.0
  0
INSERT
  5
   1F6
  8
0
  6
CONTINUOUS
 62
     7
  2
*UDIM440
 10
0.0
 20
0.0
 30
0.0
  0
INSERT
  5
   1F7
  8
0
  6
CONTINUOUS
 62
     7
  2
*UDIM441
 10
0.0
 20
0.0
 30
0.0
  0
INSERT
  5
   1F8
  8
0
  6
CONTINUOUS
 62
     7
  2
*UDIM442
 10
0.0
 20
0.0
 30
0.0
  0
TEXT
  5
   1F9
  8
0
  6
CONTINUOUS
 62
     7
 10
-665.332138612603
 20
-91.0880345455823
 30
0.0
 40
3.00000002980232
  1
Y
 50
359.999999896069
 41
0.916666604744064
 72
     2
 11
-663.132138743733
 21
-91.0880345495619
 31
0.0
  0
TEXT
  5
   1FA
  8
0
  6
CONTINUOUS
 62
     7
 10
-702.803718569608
 20
-128.253090409435
 30
0.0
 40
3.00000002980232
  1
X
 50
359.999999896069
 41
0.916666604744064
 72
     2
 11
-700.603718700738
 21
-128.253090413414
 31
0.0
  0
TEXT
  5
   1FB
  8
0
  6
CONTINUOUS
 62
     7
 10
-642.838935854764
 20
-128.426775483287
 30
0.0
 40
3.00000002980232
  1
X
 50
359.999999896069
 41
0.916666604744064
 72
     2
 11
-640.638935985895
 21
-128.426775487267
 31
0.0
  0
TEXT
  5
   1FC
  8
0
  6
CONTINUOUS
 62
     7
 10
-666.003097417684
 20
-159.308284787334
 30
0.0
 40
3.00000002980232
  1
Y
 50
359.999999896069
 41
0.916666604744064
 72
     2
 11
-663.803097548814
 21
-159.308284791314
 31
0.0
  0
LINE
  5
   1FD
  8
0
  6
CONTINUOUS
 62
     7
 10
-562.73669011116
 20
18.8595386670786
 30
0.0
 11
-562.73669011116
 21
19.1045237182334
 31
0.0
  0
LINE
  5
   1FE
  8
0
  6
CONTINUOUS
 62
     7
 10
-562.73669011116
 20
26.4545238612845
 30
0.0
 11
-562.73669011116
 21
36.2545090984058
 31
0.0
  0
LINE
  5
   1FF
  8
0
  6
CONTINUOUS
 62
     7
 10
-561.511675133705
 20
19.1045237182334
 30
0.0
 11
-561.511675133705
 21
26.4545238612845
 31
0.0
  0
LINE
  5
   200
  8
0
  6
CONTINUOUS
 62
     7
 10
-561.511675133705
 20
19.1045237182334
 30
0.0
 11
-562.73669011116
 21
19.1045237182334
 31
0.0
  0
LINE
  5
   201
  8
0
  6
CONTINUOUS
 62
     7
 10
-561.511675133705
 20
26.4545238612845
 30
0.0
 11
-562.73669011116
 21
26.4545238612845
 31
0.0
  0
LINE
  5
   202
  8
0
  6
CONTINUOUS
 62
     7
 10
-561.511675133705
 20
36.2545090984058
 30
0.0
 11
-561.511675133705
 21
43.604509241457
 31
0.0
  0
LINE
  5
   203
  8
0
  6
CONTINUOUS
 62
     7
 10
-561.511675133705
 20
36.2545090984058
 30
0.0
 11
-562.73669011116
 21
36.2545090984058
 31
0.0
  0
LINE
  5
   204
  8
0
  6
CONTINUOUS
 62
     7
 10
-561.511675133705
 20
43.604509241457
 30
0.0
 11
-562.73669011116
 21
43.604509241457
 31
0.0
  0
LINE
  5
   205
  8
0
  6
CONTINUOUS
 62
     7
 10
-529.1716969347
 20
18.859523713465
 30
0.0
 11
-529.1716969347
 21
45.8095092843723
 31
0.0
  0
LINE
  5
   206
  8
0
  6
CONTINUOUS
 62
     2
 10
-562.736720018615
 20
45.5645092796039
 30
0.0
 11
-562.736720018615
 21
55.6656752476847
 31
0.0
  0
LINE
  5
   207
  8
0
  6
CONTINUOUS
 62
     7
 10
-527.456689424515
 20
54.3845094512653
 30
0.0
 11
-529.171689457893
 21
54.3845094512653
 31
0.0
  0
LINE
  5
   208
  8
0
  6
CONTINUOUS
 62
     7
 10
-529.171741795889
 20
45.8095050119576
 30
0.0
 11
-529.171741795889
 21
54.3845051788506
 31
0.0
  0
LINE
  5
   209
  8
0
  6
CONTINUOUS
 62
     7
 10
-560.776690073013
 20
46.7895093034458
 30
0.0
 11
-562.73669011116
 21
46.7895093034458
 31
0.0
  0
LINE
  5
   20A
  8
0
  6
CONTINUOUS
 62
     7
 10
-560.776688827058
 20
46.7895030821741
 30
0.0
 11
-560.776641847726
 21
65.2625323924563
 31
0.0
  0
LINE
  5
   20B
  8
0
  6
CONTINUOUS
 62
     7
 10
-529.1716969347
 20
14.2045310996728
 30
0.0
 11
-529.1716969347
 21
18.8595386670786
 31
0.0
  0
LINE
  5
   20C
  8
0
  6
CONTINUOUS
 62
     7
 10
-562.736685113492
 20
-15.6854570178163
 30
0.0
 11
-562.736670159879
 21
-15.541281810945
 31
0.0
  0
LINE
  5
   20D
  8
0
  6
CONTINUOUS
 62
     7
 10
-562.736675157683
 20
-7.98963382071136
 30
0.0
 11
-562.736675157683
 21
18.8595344874916
 31
0.0
  0
LINE
  5
   20E
  8
0
  6
CONTINUOUS
 62
     7
 10
-527.946689434051
 20
-9.07046187651576
 30
0.0
 11
-561.266706531525
 21
-9.07046187651576
 31
0.0
  0
LINE
  5
   20F
  8
0
  6
CONTINUOUS
 62
     7
 10
-527.946689434051
 20
-14.4604619814199
 30
0.0
 11
-561.266706531525
 21
-14.4604619814199
 31
0.0
  0
LINE
  5
   210
  8
0
  6
CONTINUOUS
 62
     7
 10
-558.702981124491
 20
-9.07045689359652
 30
0.0
 11
-562.736673352062
 21
-7.98962887375359
 31
0.0
  0
LINE
  5
   211
  8
0
  6
CONTINUOUS
 62
     7
 10
-562.736671091211
 20
-15.5412859998914
 30
0.0
 11
-558.702978770762
 21
-14.4604614577473
 31
0.0
  0
LINE
  5
   212
  8
0
  6
CONTINUOUS
 62
     7
 10
-527.456696901321
 20
-7.60046184790554
 30
0.0
 11
-531.376696977615
 21
-7.60046184790554
 31
0.0
  0
LINE
  5
   213
  8
0
  6
CONTINUOUS
 62
     7
 10
-531.376696977615
 20
-7.60046184790554
 30
0.0
 11
-531.376696977615
 21
13.2245310805993
 31
0.0
  0
LINE
  5
   214
  8
0
  6
CONTINUOUS
 62
     7
 10
-562.24667514801
 20
-11.5204619241995
 30
0.0
 11
-562.24667514801
 21
-8.12092984509582
 31
0.0
  0
LINE
  5
   215
  8
0
  6
CONTINUOUS
 62
     7
 10
-562.24668204966
 20
-15.4099891415873
 30
0.0
 11
-562.246674572859
 21
-14.950457117952
 31
0.0
  0
LINE
  5
   216
  8
0
  6
CONTINUOUS
 62
     2
 10
-562.736675157547
 20
-7.60046184790554
 30
0.0
 11
-563.71667517662
 21
-7.60046184790554
 31
0.0
  0
LINE
  5
   217
  8
0
  6
CONTINUOUS
 62
     2
 10
-562.736675157547
 20
-4.90546179545345
 30
0.0
 11
-563.71667517662
 21
-4.90546179545345
 31
0.0
  0
LINE
  5
   218
  8
0
  6
CONTINUOUS
 62
     7
 10
-527.45670749022
 20
-14.9504428681216
 30
0.0
 11
-527.946700006978
 21
-14.4604503513636
 31
0.0
  0
LINE
  5
   219
  8
0
  6
CONTINUOUS
 62
     7
 10
-527.946695625949
 20
-9.070461189557
 30
0.0
 11
-527.456695633184
 21
-8.58046119679227
 31
0.0
  0
LINE
  5
   21A
  8
0
  6
CONTINUOUS
 62
     7
 10
-529.1716969347
 20
13.2245310805993
 30
0.0
 11
-529.1716969347
 21
14.2045310996728
 31
0.0
  0
LINE
  5
   21B
  8
0
  6
CONTINUOUS
 62
     2
 10
-561.756675138473
 20
-24.505447223309
 30
0.0
 11
-563.71667517662
 21
-24.505447223309
 31
0.0
  0
LINE
  5
   21C
  8
0
  6
CONTINUOUS
 62
     7
 10
-562.73669011116
 20
-17.6454620434088
 30
0.0
 11
-562.73669011116
 21
-15.6854620052618
 31
0.0
  0
LINE
  5
   21D
  8
0
  6
CONTINUOUS
 62
     7
 10
-527.456696901321
 20
-22.0554471756259
 30
0.0
 11
-532.356689519882
 21
-22.0554471756259
 31
0.0
  0
LINE
  5
   21E
  8
0
  6
CONTINUOUS
 62
     7
 10
-532.356689519882
 20
-24.5054472233096
 30
0.0
 11
-532.356689519882
 21
-22.0554471756259
 31
0.0
  0
LINE
  5
   21F
  8
0
  6
CONTINUOUS
 62
     7
 10
-562.73669011116
 20
-23.2804379282449
 30
0.0
 11
-562.73669011116
 21
-17.6454620434088
 31
0.0
  0
LINE
  5
   220
  8
0
  6
CONTINUOUS
 62
     2
 10
-562.73669011116
 20
45.564509279604
 30
0.0
 11
-562.981675162315
 21
45.564509279604
 31
0.0
  0
LINE
  5
   221
  8
0
  6
CONTINUOUS
 62
     7
 10
-562.736682634353
 20
11.0195385144907
 30
0.0
 11
-562.981675162315
 21
11.0195385144907
 31
0.0
  0
LINE
  5
   222
  8
0
  6
CONTINUOUS
 62
     7
 10
-562.736675157547
 20
-4.66045992148338
 30
0.0
 11
-562.981675162315
 21
-4.66045992148338
 31
0.0
  0
LINE
  5
   223
  8
0
  6
CONTINUOUS
 62
     7
 10
-562.24667514801
 20
-8.33546139491023
 30
0.0
 11
-562.981675162315
 21
-8.33546139491023
 31
0.0
  0
LINE
  5
   224
  8
0
  6
CONTINUOUS
 62
     7
 10
-562.73669011116
 20
-16.1754545379918
 30
0.0
 11
-562.981675162315
 21
-16.1754545379918
 31
0.0
  0
LINE
  5
   225
  8
0
  6
CONTINUOUS
 62
     2
 10
-562.981675162315
 20
-22.8394425109375
 30
0.0
 11
-562.981675162315
 21
-7.60046932471232
 31
0.0
  0
LINE
  5
   226
  8
0
  6
CONTINUOUS
 62
     2
 10
-562.981675162315
 20
-4.90546927226023
 30
0.0
 11
-562.981675162315
 21
45.5645018027972
 31
0.0
  0
LINE
  5
   227
  8
0
  6
CONTINUOUS
 62
     7
 10
-562.24667514801
 20
36.2545315288262
 30
0.0
 11
-562.24667514801
 21
43.604509241457
 31
0.0
  0
LINE
  5
   228
  8
0
  6
CONTINUOUS
 62
     7
 10
-562.24667514801
 20
19.1045536254605
 30
0.0
 11
-562.24667514801
 21
26.4545462917049
 31
0.0
  0
LINE
  5
   229
  8
0
  6
CONTINUOUS
 62
     7
 10
-562.24667514801
 20
-14.9504246069228
 30
0.0
 11
-562.24667514801
 21
-11.5204245401656
 31
0.0
  0
LINE
  5
   22A
  8
0
  6
CONTINUOUS
 62
     2
 10
-562.785678984926
 20
-23.0354386883263
 30
0.0
 11
-562.981675995759
 21
-22.8394416774935
 31
0.0
  0
LINE
  5
   22B
  8
0
  6
CONTINUOUS
 62
     2
 10
-562.736675157547
 20
53.4045094321919
 30
0.0
 11
-563.71667517662
 21
53.4045094321919
 31
0.0
  0
LINE
  5
   22C
  8
0
  6
CONTINUOUS
 62
     2
 10
-562.736675157547
 20
58.794509537096
 30
0.0
 11
-563.71667517662
 21
58.794509537096
 31
0.0
  0
LINE
  5
   22D
  8
0
  6
CONTINUOUS
 62
     2
 10
-562.736675157547
 20
57.477215810286
 30
0.0
 11
-563.71667517662
 21
57.477215810286
 31
0.0
  0
LINE
  5
   22E
  8
0
  6
CONTINUOUS
 62
     2
 10
-562.736675157547
 20
55.6656752476847
 30
0.0
 11
-563.71667517662
 21
55.6656752476847
 31
0.0
  0
LINE
  5
   22F
  8
0
  6
CONTINUOUS
 62
     7
 10
-528.926704406739
 20
20.3295067415923
 30
0.0
 11
-528.926704406739
 21
47.0345296917652
 31
0.0
  0
LINE
  5
   230
  8
0
  6
CONTINUOUS
 62
     7
 10
-527.456689424515
 20
54.1395187177201
 30
0.0
 11
-527.456689424515
 21
54.6295262040636
 31
0.0
  0
LINE
  5
   231
  8
0
  6
CONTINUOUS
 62
     7
 10
-516.431689209938
 20
54.6295262040636
 30
0.0
 11
-516.57869070816
 21
54.6295262040636
 31
0.0
  0
LINE
  5
   232
  8
0
  6
CONTINUOUS
 62
     7
 10
-527.456689424515
 20
54.1395336713336
 30
0.0
 11
-528.926689453125
 21
54.1395336713336
 31
0.0
  0
LINE
  5
   233
  8
0
  6
CONTINUOUS
 62
     7
 10
-528.926689453125
 20
47.0345335330509
 30
0.0
 11
-528.926689453125
 21
54.1395336713336
 31
0.0
  0
LINE
  5
   234
  8
0
  6
CONTINUOUS
 62
     7
 10
-527.456711854935
 20
-21.5654603252864
 30
0.0
 11
-527.456711854935
 21
-17.99992070511
 31
0.0
  0
LINE
  5
   235
  8
0
  6
CONTINUOUS
 62
     7
 10
-528.926696929932
 20
14.4495254220507
 30
0.0
 11
-528.926696929932
 21
20.329510582878
 31
0.0
  0
LINE
  5
   236
  8
0
  6
CONTINUOUS
 62
     7
 10
-528.926696929932
 20
13.2245104445952
 30
0.0
 11
-529.416696939468
 21
13.2245104445952
 31
0.0
  0
LINE
  5
   237
  8
0
  6
CONTINUOUS
 62
     7
 10
-516.578706032232
 20
-23.0354454002726
 30
0.0
 11
-527.456712225393
 21
-23.0354454002726
 31
0.0
  0
LINE
  5
   238
  8
0
  6
CONTINUOUS
 62
     7
 10
-527.456711854935
 20
-23.0354603538966
 30
0.0
 11
-527.456711854935
 21
-21.5654603252864
 31
0.0
  0
LINE
  5
   239
  8
0
  6
CONTINUOUS
 62
     7
 10
-527.456704378128
 20
-17.99992070511
 30
0.0
 11
-527.456704378128
 21
-14.5829556763488
 31
0.0
  0
LINE
  5
   23A
  8
0
  6
CONTINUOUS
 62
     7
 10
-516.431711640358
 20
-24.5054678593136
 30
0.0
 11
-516.431711640358
 21
-23.0354678307034
 31
0.0
  0
LINE
  5
   23B
  8
0
  6
CONTINUOUS
 62
     7
 10
-516.431711640358
 20
-23.0354678307034
 30
0.0
 11
-516.578705632568
 21
-23.0354678307034
 31
0.0
  0
LINE
  5
   23C
  8
0
  6
CONTINUOUS
 62
     7
 10
-529.416696939468
 20
13.2245104445952
 30
0.0
 11
-531.376696977615
 21
13.2245104445952
 31
0.0
  0
LINE
  5
   23D
  8
0
  6
CONTINUOUS
 62
     7
 10
-528.926696929932
 20
13.2245104445952
 30
0.0
 11
-528.926696929932
 21
14.4495254220507
 31
0.0
  0
LINE
  5
   23E
  8
0
  6
CONTINUOUS
 62
     7
 10
-516.578707699368
 20
-14.5829452357658
 30
0.0
 11
-527.456706415722
 21
-14.5829452357658
 31
0.0
  0
LINE
  5
   23F
  8
0
  6
CONTINUOUS
 62
     7
 10
-516.578711303054
 20
-8.9479451260946
 30
0.0
 11
-527.456710019408
 21
-8.9479451260946
 31
0.0
  0
LINE
  5
   240
  8
0
  6
CONTINUOUS
 62
     7
 10
-526.820181896551
 20
-21.1979519309707
 30
0.0
 11
-526.721712366606
 21
-20.8304519288917
 31
0.0
  0
LINE
  5
   241
  8
0
  6
CONTINUOUS
 62
     7
 10
-527.08920727026
 20
-21.4669859782817
 30
0.0
 11
-526.820184303054
 21
-21.197955527581
 31
0.0
  0
LINE
  5
   242
  8
0
  6
CONTINUOUS
 62
     7
 10
-527.456720324779
 20
-21.565448841803
 30
0.0
 11
-527.089212855639
 21
-21.4669793043627
 31
0.0
  0
LINE
  5
   243
  8
0
  6
CONTINUOUS
 62
     7
 10
-527.089208761313
 20
-15.7839286897599
 30
0.0
 11
-527.456708765771
 21
-15.6854516762465
 31
0.0
  0
LINE
  5
   244
  8
0
  6
CONTINUOUS
 62
     7
 10
-526.820186417542
 20
-16.0529557751308
 30
0.0
 11
-527.089209388492
 21
-15.7839328041812
 31
0.0
  0
LINE
  5
   245
  8
0
  6
CONTINUOUS
 62
     7
 10
-526.721717452729
 20
-16.4204551010205
 30
0.0
 11
-526.820194466242
 21
-16.0529550965625
 31
0.0
  0
LINE
  5
   246
  8
0
  6
CONTINUOUS
 62
     7
 10
-526.721715994394
 20
-20.83045740203
 30
0.0
 11
-526.721708517588
 21
-16.4204573161994
 31
0.0
  0
LINE
  5
   247
  8
0
  6
CONTINUOUS
 62
     7
 10
-516.578705661775
 20
-23.0354678307034
 30
0.0
 11
-516.578705661775
 21
54.6295200727987
 31
0.0
  0
LINE
  5
   248
  8
0
  6
CONTINUOUS
 62
     2
 10
-516.578683231353
 20
65.2625323924564
 30
0.0
 11
-562.736720018615
 21
65.2625323924564
 31
0.0
  0
LINE
  5
   249
  8
0
  6
CONTINUOUS
 62
     2
 10
-516.578735569007
 20
54.6295228274902
 30
0.0
 11
-516.578735569007
 21
65.2625290158829
 31
0.0
  0
LINE
  5
   24A
  8
0
  6
CONTINUOUS
 62
     7
 10
-527.456689424515
 20
54.6295336808704
 30
0.0
 11
-527.456689424515
 21
65.2625323924564
 31
0.0
  0
LINE
  5
   24B
  8
0
  6
CONTINUOUS
 62
     7
 10
-508.591681580543
 20
29.8845481528784
 30
0.0
 11
-508.591681580543
 21
30.0070481552626
 31
0.0
  0
LINE
  5
   24C
  8
0
  6
CONTINUOUS
 62
     7
 10
-511.286678829193
 20
30.9870481743361
 30
0.0
 11
-513.001681666374
 21
30.9870481743361
 31
0.0
  0
LINE
  5
   24D
  8
0
  6
CONTINUOUS
 62
     7
 10
-511.286678829193
 20
-20.4629378734084
 30
0.0
 11
-513.001681666374
 21
-20.4629378734084
 31
0.0
  0
LINE
  5
   24E
  8
0
  6
CONTINUOUS
 62
     7
 10
-516.431681733131
 20
-28.4254380283804
 30
0.0
 11
-516.431681733131
 21
-23.0354678307034
 31
0.0
  0
LINE
  5
   24F
  8
0
  6
CONTINUOUS
 62
     7
 10
-513.981681685447
 20
-28.4254380283804
 30
0.0
 11
-513.981681685447
 21
-20.4629378734084
 31
0.0
  0
LINE
  5
   250
  8
0
  6
CONTINUOUS
 62
     7
 10
-513.981681685447
 20
30.9870481743361
 30
0.0
 11
-513.981681685447
 21
54.629548634484
 31
0.0
  0
LINE
  5
   251
  8
0
  6
CONTINUOUS
 62
     7
 10
-513.981681685447
 20
54.629548634484
 30
0.0
 11
-516.431681733131
 21
54.629548634484
 31
0.0
  0
LINE
  5
   252
  8
0
  6
CONTINUOUS
 62
     7
 10
-513.981681685447
 20
-28.4254380283804
 30
0.0
 11
-516.431681733131
 21
-28.4254380283804
 31
0.0
  0
LINE
  5
   253
  8
0
  6
CONTINUOUS
 62
     7
 10
-513.001681666374
 20
-20.4629378734084
 30
0.0
 11
-513.001681666374
 21
30.9870481743361
 31
0.0
  0
LINE
  5
   254
  8
0
  6
CONTINUOUS
 62
     7
 10
-513.001681666374
 20
-20.4629378734084
 30
0.0
 11
-513.981681685447
 21
-20.4629378734084
 31
0.0
  0
LINE
  5
   255
  8
0
  6
CONTINUOUS
 62
     7
 10
-513.001681666374
 20
30.9870481743361
 30
0.0
 11
-513.981681685447
 21
30.9870481743361
 31
0.0
  0
LINE
  5
   256
  8
0
  6
CONTINUOUS
 62
     7
 10
-516.578717010287
 20
-8.67847507551251
 30
0.0
 11
-516.431715518881
 21
-8.66561496941457
 31
0.0
  0
LINE
  5
   257
  8
0
  6
CONTINUOUS
 62
     7
 10
-516.431690248565
 20
-14.8653256571699
 30
0.0
 11
-516.578691744082
 21
-14.8524580742412
 31
0.0
  0
LINE
  5
   258
  8
0
  6
CONTINUOUS
 62
     7
 10
-527.456704378128
 20
-8.94795556667492
 30
0.0
 11
-527.456704378128
 21
-7.60047500710278
 31
0.0
  0
LINE
  5
   259
  8
0
  6
CONTINUOUS
 62
   218
 10
-516.578683698654
 20
-56.4534389477227
 30
0.0
 11
-562.736675624847
 21
-56.4534389477227
 31
0.0
  0
LINE
  5
   25A
  8
0
  6
CONTINUOUS
 62
     2
 10
-561.756675138473
 20
-23.2804379282449
 30
0.0
 11
-563.71667517662
 21
-23.2804379282449
 31
0.0
  0
LINE
  5
   25B
  8
0
  6
CONTINUOUS
 62
     7
 10
-516.578675754547
 20
-23.2804379282449
 30
0.0
 11
-525.006681900024
 21
-23.2804379282449
 31
0.0
  0
LINE
  5
   25C
  8
0
  6
CONTINUOUS
 62
     2
 10
-561.756675138473
 20
-24.5054379520867
 30
0.0
 11
-561.756675138473
 21
-23.2804379282449
 31
0.0
  0
LINE
  5
   25D
  8
0
  6
CONTINUOUS
 62
   218
 10
-516.578679773888
 20
-44.105445810802
 30
0.0
 11
-516.431681733513
 21
-44.1054440854122
 31
0.0
  0
LINE
  5
   25E
  8
0
  6
CONTINUOUS
 62
   218
 10
-514.471681694984
 20
-46.0654458485102
 30
0.0
 11
-516.578675754547
 21
-46.0654458485102
 31
0.0
  0
LINE
  5
   25F
  8
0
  6
CONTINUOUS
 62
   218
 10
-516.578675754547
 20
-56.453437078521
 30
0.0
 11
-516.578675754547
 21
-44.1054383335565
 31
0.0
  0
LINE
  5
   260
  8
0
  6
CONTINUOUS
 62
   218
 10
-516.578675754547
 20
-44.1054383335565
 30
0.0
 11
-516.578675754547
 21
-23.2804379282449
 31
0.0
  0
LINE
  5
   261
  8
0
  6
CONTINUOUS
 62
     7
 10
-516.431681733131
 20
-28.9154380379174
 30
0.0
 11
-516.578675754547
 21
-28.9154380379174
 31
0.0
  0
LINE
  5
   262
  8
0
  6
CONTINUOUS
 62
   218
 10
-563.716675176661
 20
-41.1654457526579
 30
0.0
 11
-562.73667562491
 21
-41.1654382758511
 31
0.0
  0
LINE
  5
   263
  8
0
  6
CONTINUOUS
 62
   218
 10
-562.736675624847
 20
-59.0504386244269
 30
0.0
 11
-562.736675624847
 21
-41.1654457531425
 31
0.0
  0
LINE
  5
   264
  8
0
  6
CONTINUOUS
 62
   218
 10
-562.736675157547
 20
-46.4329458556628
 30
0.0
 11
-563.71667517662
 21
-46.4329458556628
 31
0.0
  0
LINE
  5
   265
  8
0
  6
CONTINUOUS
 62
     7
 10
-527.456687554258
 20
-23.2804379255783
 30
0.0
 11
-527.456680077451
 21
-22.3004379064825
 31
0.0
  0
LINE
  5
   266
  8
0
  6
CONTINUOUS
 62
     7
 10
-527.456674470901
 20
-22.3004379091714
 30
0.0
 11
-532.356674566268
 21
-22.3004379091714
 31
0.0
  0
LINE
  5
   267
  8
0
  6
CONTINUOUS
 62
     7
 10
-525.006681900024
 20
-23.2804379282449
 30
0.0
 11
-527.456681947708
 21
-23.2804379282449
 31
0.0
  0
LINE
  5
   268
  8
0
  6
CONTINUOUS
 62
   218
 10
-562.736675157547
 20
-50.7045656687959
 30
0.0
 11
-563.71667517662
 21
-50.7045656687959
 31
0.0
  0
LINE
  5
   269
  8
0
  6
CONTINUOUS
 62
   218
 10
-562.736675157547
 20
-49.5026012193618
 30
0.0
 11
-563.71667517662
 21
-49.5026012193618
 31
0.0
  0
LINE
  5
   26A
  8
0
  6
CONTINUOUS
 62
     7
 10
-513.981681685447
 20
-28.6704380331488
 30
0.0
 11
-516.431681733131
 21
-28.6704380331488
 31
0.0
  0
LINE
  5
   26B
  8
0
  6
CONTINUOUS
 62
     7
 10
-513.981681685447
 20
-45.8204383669348
 30
0.0
 11
-516.431681733131
 21
-45.8204383669348
 31
0.0
  0
LINE
  5
   26C
  8
0
  6
CONTINUOUS
 62
     7
 10
-513.981681685447
 20
-45.8204383669348
 30
0.0
 11
-513.981681685447
 21
-28.6704380331488
 31
0.0
  0
LINE
  5
   26D
  8
0
  6
CONTINUOUS
 62
     7
 10
-514.961681704521
 20
-45.8204383669348
 30
0.0
 11
-514.961681704521
 21
-28.6704380331488
 31
0.0
  0
LINE
  5
   26E
  8
0
  6
CONTINUOUS
 62
     7
 10
-516.431681733131
 20
-45.8204383669348
 30
0.0
 11
-516.431681733131
 21
-28.6704380331488
 31
0.0
  0
ARC
  5
   26F
  8
0
  6
CONTINUOUS
 62
     7
 10
-498.460905525819
 20
-5.53943950083702
 30
0.0
 40
0.489999909457089
 50
348.623573369035
 51
436.688788706936
  0
ARC
  5
   270
  8
0
  6
CONTINUOUS
 62
     7
 10
-499.047310293152
 20
-8.45387036187871
 30
0.0
 40
0.490000374707653
 50
260.593992196011
 51
348.623573369035
  0
LINE
  5
   271
  8
0
  6
DASHDOT
 62
     7
 10
-491.208618905411
 20
-8.53268358423304
 30
0.0
 11
-515.765795753126
 21
-3.59160172352578
 31
0.0
  0
LINE
  5
   272
  8
0
  6
CONTINUOUS
 62
     7
 10
-498.348087950724
 20
-5.06260435125177
 30
0.0
 11
-508.591681580543
 21
-2.63900492786948
 31
0.0
  0
LINE
  5
   273
  8
0
  6
CONTINUOUS
 62
     7
 10
-498.56693736782
 20
-8.5505248740177
 30
0.0
 11
-497.980532761495
 21
-5.63609398058031
 31
0.0
  0
LINE
  5
   274
  8
0
  6
CONTINUOUS
 62
     7
 10
-499.127390738532
 20
-8.93728253970119
 30
0.0
 11
-508.591681580543
 21
-7.36945975698379
 31
0.0
  0
LINE
  5
   275
  8
0
  6
CONTINUOUS
 62
     7
 10
-561.266706531525
 20
-14.4604619814199
 30
0.0
 11
-561.266706531525
 21
-9.07046187651576
 31
0.0
  0
LINE
  5
   276
  8
0
  6
CONTINUOUS
 62
     2
 10
-562.736720018615
 20
57.477215810286
 30
0.0
 11
-562.736720018615
 21
67.8595321439461
 31
0.0
  0
ARC
  5
   277
  8
0
  6
CONTINUOUS
 62
     7
 10
-534.806682090759
 20
0.239562529519041
 30
0.0
 40
37.2616012041241
 50
333.082565820193
 51
379.93594827737
  0
LINE
  5
   278
  8
0
  6
CONTINUOUS
 62
     7
 10
-497.545080886635
 20
0.239562529519027
 30
0.0
 11
-497.545080886635
 21
21.4807096680536
 31
0.0
  0
LINE
  5
   279
  8
0
  6
CONTINUOUS
 62
     7
 10
-532.356689519882
 20
-24.505447223309
 30
0.0
 11
-561.756675138473
 21
-24.505447223309
 31
0.0
  0
LINE
  5
   27A
  8
0
  6
CONTINUOUS
 62
     7
 10
-563.71667517662
 20
53.4045094321919
 30
0.0
 11
-563.71667517662
 21
58.794509537096
 31
0.0
  0
LINE
  5
   27B
  8
0
  6
CONTINUOUS
 62
     7
 10
-563.71667517662
 20
-7.60046184790554
 30
0.0
 11
-563.71667517662
 21
-4.90546179545345
 31
0.0
  0
LINE
  5
   27C
  8
0
  6
CONTINUOUS
 62
     7
 10
-563.716675176619
 20
-24.5054472233067
 30
0.0
 11
-563.716675176619
 21
-23.2804379282426
 31
0.0
  0
LINE
  5
   27D
  8
0
  6
CONTINUOUS
 62
     7
 10
-563.71667517668
 20
-41.1654457527854
 30
0.0
 11
-563.71667517668
 21
-24.5054472234342
 31
0.0
  0
LINE
  5
   27E
  8
0
  6
CONTINUOUS
 62
     7
 10
-563.71667517662
 20
-50.7045656687966
 30
0.0
 11
-563.71667517662
 21
-46.4329458556634
 31
0.0
  0
LINE
  5
   27F
  8
0
  6
CONTINUOUS
 62
     7
 10
-587.236698064804
 20
51.6895318292336
 30
0.0
 11
-587.236698064804
 21
63.9395320676522
 31
0.0
  0
LINE
  5
   280
  8
0
  6
CONTINUOUS
 62
     7
 10
-587.236698064804
 20
-55.1304623056692
 30
0.0
 11
-587.236698064804
 21
-42.8804695440574
 31
0.0
  0
LINE
  5
   281
  8
0
  6
CONTINUOUS
 62
     7
 10
-581.846694168371
 20
-57.825483639195
 30
0.0
 11
-563.716671385091
 21
-57.8254761623885
 31
0.0
  0
LINE
  5
   282
  8
0
  6
CONTINUOUS
 62
     7
 10
-563.71667517662
 20
-49.0054776073739
 30
0.0
 11
-563.71667517662
 21
-37.735469911222
 31
0.0
  0
LINE
  5
   283
  8
0
  6
CONTINUOUS
 62
     7
 10
-563.71667517662
 20
-57.8254777790353
 30
0.0
 11
-563.71667517662
 21
-56.4534538265507
 31
0.0
  0
LINE
  5
   284
  8
0
  6
CONTINUOUS
 62
     7
 10
-563.71667517662
 20
65.2625455516536
 30
0.0
 11
-563.71667517662
 21
66.6345321201043
 31
0.0
  0
LINE
  5
   285
  8
0
  6
CONTINUOUS
 62
     7
 10
-563.71667517662
 20
46.5445317290978
 30
0.0
 11
-563.71667517662
 21
57.8145469020565
 31
0.0
  0
LINE
  5
   286
  8
0
  6
CONTINUOUS
 62
     7
 10
-563.71667517662
 20
14.2045310996728
 30
0.0
 11
-563.71667517662
 21
46.5445317290978
 31
0.0
  0
LINE
  5
   287
  8
0
  6
CONTINUOUS
 62
     7
 10
-563.71667517662
 20
-5.39546180499019
 30
0.0
 11
-563.71667517662
 21
14.2045310996728
 31
0.0
  0
LINE
  5
   288
  8
0
  6
CONTINUOUS
 62
     7
 10
-563.71667517662
 20
-37.7354624344152
 30
0.0
 11
-563.71667517662
 21
-5.39546180499019
 31
0.0
  0
LINE
  5
   289
  8
0
  6
CONTINUOUS
 62
     7
 10
-581.8466979599
 20
22.0445312522606
 30
0.0
 11
-581.8466979599
 21
33.8045314811425
 31
0.0
  0
LINE
  5
   28A
  8
0
  6
CONTINUOUS
 62
     7
 10
-581.8466979599
 20
65.2625231212332
 30
0.0
 11
-581.8466979599
 21
66.6345321201043
 31
0.0
  0
LINE
  5
   28B
  8
0
  6
CONTINUOUS
 62
     7
 10
-581.8466979599
 20
22.0445312522606
 30
0.0
 11
-585.031698021889
 21
22.0445312522606
 31
0.0
  0
LINE
  5
   28C
  8
0
  6
CONTINUOUS
 62
     7
 10
-585.03170547409
 20
-13.2354916052014
 30
0.0
 11
-585.031705162557
 21
-11.765491836195
 31
0.0
  0
LINE
  5
   28D
  8
0
  6
CONTINUOUS
 62
     7
 10
-581.8466979599
 20
-57.8254852558421
 30
0.0
 11
-581.8466979599
 21
-56.4534645744604
 31
0.0
  0
LINE
  5
   28E
  8
0
  6
CONTINUOUS
 62
     7
 10
-581.8466979599
 20
-49.0054925609875
 30
0.0
 11
-581.8466979599
 21
-42.880462534551
 31
0.0
  0
LINE
  5
   28F
  8
0
  6
CONTINUOUS
 62
     7
 10
-587.971698079109
 20
33.8045314811425
 30
0.0
 11
-587.971698079109
 21
41.1545316241936
 31
0.0
  0
LINE
  5
   290
  8
0
  6
CONTINUOUS
 62
     7
 10
-587.971698079109
 20
-32.3454398990907
 30
0.0
 11
-587.971698079109
 21
-24.9954397560396
 31
0.0
  0
LINE
  5
   291
  8
0
  6
CONTINUOUS
 62
     7
 10
-581.846705436707
 20
-16.6654919315624
 30
0.0
 11
-585.031705498695
 21
-16.6654919315624
 31
0.0
  0
LINE
  5
   292
  8
0
  6
CONTINUOUS
 62
     7
 10
-585.031705498695
 20
-16.6654919315624
 30
0.0
 11
-585.031705498695
 21
-13.2354918648052
 31
0.0
  0
LINE
  5
   293
  8
0
  6
CONTINUOUS
 62
     7
 10
-585.031698021889
 20
-11.765491836195
 30
0.0
 11
-586.991698060036
 21
-11.765491836195
 31
0.0
  0
LINE
  5
   294
  8
0
  6
CONTINUOUS
 62
     7
 10
-585.031698021889
 20
-8.33549924624458
 30
0.0
 11
-586.991698060036
 21
-8.33549924624458
 31
0.0
  0
LINE
  5
   295
  8
0
  6
CONTINUOUS
 62
     7
 10
-564.206653505739
 20
-9.07048096442129
 30
0.0
 11
-585.031698771891
 21
-9.07047348761542
 31
0.0
  0
LINE
  5
   296
  8
0
  6
CONTINUOUS
 62
     7
 10
-564.206655809464
 20
-9.07048192785928
 30
0.0
 11
-563.716670768629
 21
-8.58047445917269
 31
0.0
  0
LINE
  5
   297
  8
0
  6
CONTINUOUS
 62
     7
 10
-564.206660232543
 20
-14.4604619814199
 30
0.0
 11
-585.031705498695
 21
-14.4604619814199
 31
0.0
  0
LINE
  5
   298
  8
0
  6
CONTINUOUS
 62
     7
 10
-563.716666508929
 20
-14.9504762553925
 30
0.0
 11
-564.206651549764
 21
-14.4604687867059
 31
0.0
  0
LINE
  5
   299
  8
0
  6
CONTINUOUS
 62
     7
 10
-563.71667517662
 20
65.2625380748468
 30
0.0
 11
-581.8466979599
 21
65.2625380748468
 31
0.0
  0
LINE
  5
   29A
  8
0
  6
CONTINUOUS
 62
     7
 10
-563.71667517662
 20
57.8145319484429
 30
0.0
 11
-563.71667517662
 21
65.2625380748468
 31
0.0
  0
LINE
  5
   29B
  8
0
  6
CONTINUOUS
 62
     7
 10
-581.8466979599
 20
57.8145394252497
 30
0.0
 11
-581.8466979599
 21
63.9395320676522
 31
0.0
  0
LINE
  5
   29C
  8
0
  6
CONTINUOUS
 62
     7
 10
-563.71667517662
 20
-56.4534627052587
 30
0.0
 11
-581.8466979599
 21
-56.4534627052587
 31
0.0
  0
LINE
  5
   29D
  8
0
  6
CONTINUOUS
 62
     7
 10
-563.71667517662
 20
-56.4534627052587
 30
0.0
 11
-563.71667517662
 21
-49.0054850841807
 31
0.0
  0
LINE
  5
   29E
  8
0
  6
CONTINUOUS
 62
     7
 10
-581.8466979599
 20
-56.4534627052587
 30
0.0
 11
-581.8466979599
 21
-55.1304623056692
 31
0.0
  0
LINE
  5
   29F
  8
0
  6
CONTINUOUS
 62
     3
 10
-586.991698060036
 20
-24.5054771305368
 30
0.0
 11
-587.726698074341
 21
-24.5054771305368
 31
0.0
  0
LINE
  5
   2A0
  8
0
  6
CONTINUOUS
 62
     3
 10
-586.991698060036
 20
-32.8354772926614
 30
0.0
 11
-587.726698074341
 21
-32.8354772926614
 31
0.0
  0
LINE
  5
   2A1
  8
0
  6
CONTINUOUS
 62
     3
 10
-586.991698060036
 20
-38.2254773975656
 30
0.0
 11
-587.726698074341
 21
-38.2254773975656
 31
0.0
  0
LINE
  5
   2A2
  8
0
  6
CONTINUOUS
 62
     3
 10
-586.991698060036
 20
47.0345242618278
 30
0.0
 11
-587.726698074341
 21
47.0345242618278
 31
0.0
  0
LINE
  5
   2A3
  8
0
  6
CONTINUOUS
 62
     3
 10
-586.991698060036
 20
41.6445241569236
 30
0.0
 11
-587.726698074341
 21
41.6445241569236
 31
0.0
  0
LINE
  5
   2A4
  8
0
  6
CONTINUOUS
 62
     3
 10
-586.991698060036
 20
33.314523994799
 30
0.0
 11
-587.726698074341
 21
33.314523994799
 31
0.0
  0
LINE
  5
   2A5
  8
0
  6
CONTINUOUS
 62
     3
 10
-586.991698060036
 20
41.1545316241936
 30
0.0
 11
-586.991698060036
 21
47.0345242618278
 31
0.0
  0
LINE
  5
   2A6
  8
0
  6
CONTINUOUS
 62
     3
 10
-586.991698060036
 20
-24.9954023720056
 30
0.0
 11
-586.991698060036
 21
33.8045464347561
 31
0.0
  0
LINE
  5
   2A7
  8
0
  6
CONTINUOUS
 62
     3
 10
-586.991698060036
 20
-38.2254773975656
 30
0.0
 11
-586.991698060036
 21
-32.3454025150568
 31
0.0
  0
LINE
  5
   2A8
  8
0
  6
CONTINUOUS
 62
     3
 10
-587.726698074341
 20
-38.2254773975656
 30
0.0
 11
-587.726698074341
 21
-32.3454473758975
 31
0.0
  0
LINE
  5
   2A9
  8
0
  6
CONTINUOUS
 62
     3
 10
-587.726698074341
 20
-24.9954547096531
 30
0.0
 11
-587.726698074341
 21
33.804479143495
 31
0.0
  0
LINE
  5
   2AA
  8
0
  6
CONTINUOUS
 62
     3
 10
-587.726698074341
 20
41.1544942401597
 30
0.0
 11
-587.726698074341
 21
47.0345242618278
 31
0.0
  0
LINE
  5
   2AB
  8
0
  6
CONTINUOUS
 62
     3
 10
-587.726698074341
 20
51.4445019172381
 30
0.0
 11
-587.726698074341
 21
64.1845021651934
 31
0.0
  0
LINE
  5
   2AC
  8
0
  6
CONTINUOUS
 62
     3
 10
-583.80669052124
 20
63.9395320676522
 30
0.0
 11
-583.80669052124
 21
64.6745021747302
 31
0.0
  0
LINE
  5
   2AD
  8
0
  6
CONTINUOUS
 62
     3
 10
-583.80669052124
 20
50.9545019077013
 30
0.0
 11
-583.80669052124
 21
51.6895467828472
 31
0.0
  0
LINE
  5
   2AE
  8
0
  6
CONTINUOUS
 62
     3
 10
-570.331675305366
 20
-60.5204703546806
 30
0.0
 11
-572.78167535305
 21
-60.5204703546806
 31
0.0
  0
LINE
  5
   2AF
  8
0
  6
CONTINUOUS
 62
     3
 10
-570.331675305366
 20
-70.3204705454154
 30
0.0
 11
-572.78167535305
 21
-70.3204705454154
 31
0.0
  0
LINE
  5
   2B0
  8
0
  6
CONTINUOUS
 62
     3
 10
-570.331675305366
 20
-70.3204705454154
 30
0.0
 11
-570.331675305366
 21
-57.8254628254217
 31
0.0
  0
LINE
  5
   2B1
  8
0
  6
CONTINUOUS
 62
     3
 10
-572.78167535305
 20
-70.3204705454154
 30
0.0
 11
-572.78167535305
 21
-57.8254703022285
 31
0.0
  0
LINE
  5
   2B2
  8
0
  6
CONTINUOUS
 62
     7
 10
-581.8466979599
 20
63.9395320676522
 30
0.0
 11
-583.80669052124
 21
63.9395320676522
 31
0.0
  0
LINE
  5
   2B3
  8
0
  6
CONTINUOUS
 62
     7
 10
-581.8466979599
 20
51.6895318292336
 30
0.0
 11
-582.336675539016
 21
51.6895318292336
 31
0.0
  0
LINE
  5
   2B4
  8
0
  6
CONTINUOUS
 62
     7
 10
-582.336675539016
 20
51.6895318292336
 30
0.0
 11
-583.80669052124
 21
51.6895318292336
 31
0.0
  0
LINE
  5
   2B5
  8
0
  6
CONTINUOUS
 62
     7
 10
-581.8466979599
 20
-55.1304623056692
 30
0.0
 11
-583.80669052124
 21
-55.1304623056692
 31
0.0
  0
LINE
  5
   2B6
  8
0
  6
CONTINUOUS
 62
     7
 10
-582.336675539016
 20
-42.880462534551
 30
0.0
 11
-583.80669052124
 21
-42.880462534551
 31
0.0
  0
LINE
  5
   2B7
  8
0
  6
CONTINUOUS
 62
     7
 10
-581.8466979599
 20
-42.880462534551
 30
0.0
 11
-582.336675539016
 21
-42.880462534551
 31
0.0
  0
LINE
  5
   2B8
  8
0
  6
CONTINUOUS
 62
     7
 10
-581.8466979599
 20
41.1545316241936
 30
0.0
 11
-587.971698079109
 21
41.1545316241936
 31
0.0
  0
LINE
  5
   2B9
  8
0
  6
CONTINUOUS
 62
     7
 10
-581.8466979599
 20
33.8045314811425
 30
0.0
 11
-587.971698079109
 21
33.8045314811425
 31
0.0
  0
LINE
  5
   2BA
  8
0
  6
CONTINUOUS
 62
     7
 10
-581.8466979599
 20
-24.9954397560396
 30
0.0
 11
-587.971698079109
 21
-24.9954397560396
 31
0.0
  0
LINE
  5
   2BB
  8
0
  6
CONTINUOUS
 62
     7
 10
-581.8466979599
 20
-32.3454398990907
 30
0.0
 11
-587.971698079109
 21
-32.3454398990907
 31
0.0
  0
LINE
  5
   2BC
  8
0
  6
CONTINUOUS
 62
     3
 10
-587.726643914392
 20
64.1844688498233
 30
0.0
 11
-587.236643921627
 21
64.674468842588
 31
0.0
  0
LINE
  5
   2BD
  8
0
  6
CONTINUOUS
 62
     3
 10
-587.236732460906
 20
50.9545449411072
 30
0.0
 11
-587.726732453671
 21
51.4445449338719
 31
0.0
  0
LINE
  5
   2BE
  8
0
  6
CONTINUOUS
 62
     3
 10
-583.80669052124
 20
64.6745021747302
 30
0.0
 11
-587.236698064804
 21
64.6745021747302
 31
0.0
  0
LINE
  5
   2BF
  8
0
  6
CONTINUOUS
 62
     3
 10
-583.80669052124
 20
50.9545019077013
 30
0.0
 11
-587.236698064804
 21
50.9545019077013
 31
0.0
  0
LINE
  5
   2C0
  8
0
  6
CONTINUOUS
 62
     7
 10
-583.80669052124
 20
-55.8654403568544
 30
0.0
 11
-583.80669052124
 21
-55.1304702497764
 31
0.0
  0
LINE
  5
   2C1
  8
0
  6
CONTINUOUS
 62
     3
 10
-583.80669052124
 20
-55.8654403568544
 30
0.0
 11
-587.236698064804
 21
-55.8654403568544
 31
0.0
  0
LINE
  5
   2C2
  8
0
  6
CONTINUOUS
 62
     3
 10
-587.236643921627
 20
-55.8654070247123
 30
0.0
 11
-587.726643914392
 21
-55.3754070319475
 31
0.0
  0
LINE
  5
   2C3
  8
0
  6
CONTINUOUS
 62
     3
 10
-587.726698074341
 20
-55.3754403473176
 30
0.0
 11
-587.726698074341
 21
-42.6354400993623
 31
0.0
  0
LINE
  5
   2C4
  8
0
  6
CONTINUOUS
 62
     3
 10
-587.726732453671
 20
-42.6354831159961
 30
0.0
 11
-587.236732460906
 21
-42.1454831232314
 31
0.0
  0
LINE
  5
   2C5
  8
0
  6
CONTINUOUS
 62
     3
 10
-583.80669052124
 20
-42.1454400898256
 30
0.0
 11
-587.236698064804
 21
-42.1454400898256
 31
0.0
  0
LINE
  5
   2C6
  8
0
  6
CONTINUOUS
 62
     3
 10
-583.80669052124
 20
-42.8804849649714
 30
0.0
 11
-583.80669052124
 21
-42.1454400898256
 31
0.0
  0
LINE
  5
   2C7
  8
0
  6
DASHDOT
 62
     7
 10
-587.971698079109
 20
-24.9954397560396
 30
0.0
 11
-587.971698079109
 21
33.8045314811425
 31
0.0
  0
LINE
  5
   2C8
  8
0
  6
DASHDOT
 62
     7
 10
-587.971698079109
 20
-87.4956892406205
 30
0.0
 11
-587.971698079109
 21
-32.3454398990907
 31
0.0
  0
LINE
  5
   2C9
  8
0
  6
DASHDOT
 62
     7
 10
-587.971698079109
 20
41.1545316241936
 30
0.0
 11
-587.971698079109
 21
89.2577320155031
 31
0.0
  0
LINE
  5
   2CA
  8
0
  6
DASHDOT
 62
     7
 10
-589.441698107719
 20
-87.4108815466622
 30
0.0
 11
-589.441698107719
 21
88.7918261143198
 31
0.0
  0
LINE
  5
   2CB
  8
0
  6
CONTINUOUS
 62
     7
 10
-583.80669052124
 20
63.9395320676522
 30
0.0
 11
-587.236698064804
 21
63.9395320676522
 31
0.0
  0
LINE
  5
   2CC
  8
0
  6
CONTINUOUS
 62
     7
 10
-581.8466979599
 20
63.9395320676522
 30
0.0
 11
-581.8466979599
 21
65.2625380748468
 31
0.0
  0
LINE
  5
   2CD
  8
0
  6
CONTINUOUS
 62
     7
 10
-581.8466979599
 20
51.6895318292336
 30
0.0
 11
-581.8466979599
 21
57.8145020412158
 31
0.0
  0
LINE
  5
   2CE
  8
0
  6
CONTINUOUS
 62
     7
 10
-583.80669052124
 20
51.6895318292336
 30
0.0
 11
-587.236698064804
 21
51.6895318292336
 31
0.0
  0
LINE
  5
   2CF
  8
0
  6
CONTINUOUS
 62
     7
 10
-581.8466979599
 20
41.1545316241936
 30
0.0
 11
-581.8466979599
 21
51.6895318292336
 31
0.0
  0
LINE
  5
   2D0
  8
0
  6
CONTINUOUS
 62
     7
 10
-581.8466979599
 20
33.8045314811425
 30
0.0
 11
-581.8466979599
 21
41.1545316241936
 31
0.0
  0
LINE
  5
   2D1
  8
0
  6
CONTINUOUS
 62
     7
 10
-585.031704435647
 20
-8.33549924624458
 30
0.0
 11
-585.031697997285
 21
22.0445240350577
 31
0.0
  0
LINE
  5
   2D2
  8
0
  6
CONTINUOUS
 62
     7
 10
-585.031705162557
 20
-11.765491836195
 30
0.0
 11
-585.031704435647
 21
-8.33549924624458
 31
0.0
  0
LINE
  5
   2D3
  8
0
  6
CONTINUOUS
 62
     7
 10
-581.8466979599
 20
-16.6654919315624
 30
0.0
 11
-581.8466979599
 21
-14.9504769445703
 31
0.0
  0
LINE
  5
   2D4
  8
0
  6
CONTINUOUS
 62
     7
 10
-581.8466979599
 20
-24.9954397560396
 30
0.0
 11
-581.8466979599
 21
-16.6654919315624
 31
0.0
  0
LINE
  5
   2D5
  8
0
  6
CONTINUOUS
 62
     7
 10
-581.8466979599
 20
-32.3454398990907
 30
0.0
 11
-581.8466979599
 21
-24.9954397560396
 31
0.0
  0
LINE
  5
   2D6
  8
0
  6
CONTINUOUS
 62
     7
 10
-581.8466979599
 20
-42.880462534551
 30
0.0
 11
-581.8466979599
 21
-32.3454398990907
 31
0.0
  0
LINE
  5
   2D7
  8
0
  6
CONTINUOUS
 62
     7
 10
-583.80669052124
 20
-42.880462534551
 30
0.0
 11
-587.236698064804
 21
-42.880462534551
 31
0.0
  0
LINE
  5
   2D8
  8
0
  6
CONTINUOUS
 62
     7
 10
-583.80669052124
 20
-55.1304623056692
 30
0.0
 11
-587.236698064804
 21
-55.1304623056692
 31
0.0
  0
LINE
  5
   2D9
  8
0
  6
CONTINUOUS
 62
     7
 10
-581.8466979599
 20
-55.1304623056692
 30
0.0
 11
-581.8466979599
 21
-49.0054850841807
 31
0.0
  0
LINE
  5
   2DA
  8
0
  6
DASHDOT
 62
     7
 10
-579.186255297565
 20
37.479531552668
 30
0.0
 11
-596.486316264014
 21
37.479531552668
 31
0.0
  0
LINE
  5
   2DB
  8
0
  6
DASHDOT
 62
     7
 10
-578.08081247723
 20
-28.6704697347923
 30
0.0
 11
-596.175696151701
 21
-28.6704697347923
 31
0.0
  0
LINE
  5
   2DC
  8
0
  6
DASHDOT
 62
     7
 10
-565.870167381068
 20
-65.420470450048
 30
0.0
 11
-577.964045836031
 21
-65.420470450048
 31
0.0
  0
LINE
  5
   2DD
  8
0
  6
CONTINUOUS
 62
     1
 10
-511.286678829193
 20
-21.691115465349
 30
0.0
 11
-511.286678829193
 21
-20.7111154462755
 31
0.0
  0
LINE
  5
   2DE
  8
0
  6
CONTINUOUS
 62
     1
 10
-510.306678810119
 20
-21.691115465349
 30
0.0
 11
-511.286678829193
 21
-21.691115465349
 31
0.0
  0
LINE
  5
   2DF
  8
0
  6
CONTINUOUS
 62
     1
 10
-511.286678829193
 20
31.2288836954176
 30
0.0
 11
-511.286678829193
 21
32.2088837144911
 31
0.0
  0
LINE
  5
   2E0
  8
0
  6
CONTINUOUS
 62
     1
 10
-510.306678810119
 20
32.2088837144911
 30
0.0
 11
-511.286678829193
 21
32.2088837144911
 31
0.0
  0
LINE
  5
   2E1
  8
0
  6
CONTINUOUS
 62
     1
 10
-511.286678829193
 20
-20.7111154462755
 30
0.0
 11
-511.286678829193
 21
31.2288855646193
 31
0.0
  0
LINE
  5
   2E2
  8
0
  6
CONTINUOUS
 62
     1
 10
-513.491678784489
 20
38.8617837768361
 30
0.0
 11
-513.491678784489
 21
41.2359839573219
 31
0.0
  0
LINE
  5
   2E3
  8
0
  6
CONTINUOUS
 62
     1
 10
-513.491678784489
 20
-30.718213838978
 30
0.0
 11
-513.491678784489
 21
-28.3440173968957
 31
0.0
  0
LINE
  5
   2E4
  8
0
  6
CONTINUOUS
 62
     1
 10
-510.306678810119
 20
-34.6761157180727
 30
0.0
 11
-510.306678810119
 21
45.1938858364165
 31
0.0
  0
LINE
  5
   2E5
  8
0
  6
CONTINUOUS
 62
     1
 10
-508.591678776741
 20
-34.6761157180727
 30
0.0
 11
-510.306678810119
 21
-34.6761157180727
 31
0.0
  0
LINE
  5
   2E6
  8
0
  6
CONTINUOUS
 62
     1
 10
-508.591678776741
 20
-34.6761175872743
 30
0.0
 11
-508.591678776741
 21
45.1938839672148
 31
0.0
  0
LINE
  5
   2E7
  8
0
  6
CONTINUOUS
 62
     1
 10
-508.591678776741
 20
45.1938839672148
 30
0.0
 11
-509.081678786277
 21
45.1938839672148
 31
0.0
  0
LINE
  5
   2E8
  8
0
  6
CONTINUOUS
 62
     1
 10
-509.571678795814
 20
45.1938839672148
 30
0.0
 11
-510.306678810119
 21
45.1938839672148
 31
0.0
  0
LINE
  5
   2E9
  8
0
  6
CONTINUOUS
 62
     1
 10
-510.306678810119
 20
38.5788838384688
 30
0.0
 11
-513.001678781666
 21
38.5788838384688
 31
0.0
  0
LINE
  5
   2EA
  8
0
  6
CONTINUOUS
 62
     1
 10
-510.306678810119
 20
41.5188838956892
 30
0.0
 11
-513.001677169454
 21
41.5188838956892
 31
0.0
  0
LINE
  5
   2EB
  8
0
  6
CONTINUOUS
 62
     1
 10
-513.001678781666
 20
38.5788838384688
 30
0.0
 11
-513.001678781666
 21
38.6907817288302
 31
0.0
  0
LINE
  5
   2EC
  8
0
  6
CONTINUOUS
 62
     1
 10
-513.001678391761
 20
38.5788827129086
 30
0.0
 11
-513.491678417432
 21
38.8617826548229
 31
0.0
  0
LINE
  5
   2ED
  8
0
  6
CONTINUOUS
 62
     1
 10
-513.001678781666
 20
38.5788838384688
 30
0.0
 11
-513.001678781666
 21
39.0094357572489
 31
0.0
  0
LINE
  5
   2EE
  8
0
  6
CONTINUOUS
 62
     1
 10
-513.001678781666
 20
39.0094357572489
 30
0.0
 11
-513.001678781666
 21
39.4863438781031
 31
0.0
  0
LINE
  5
   2EF
  8
0
  6
CONTINUOUS
 62
     1
 10
-513.001678781666
 20
39.4863438781031
 30
0.0
 11
-513.001678781666
 21
40.048883867079
 31
0.0
  0
LINE
  5
   2F0
  8
0
  6
CONTINUOUS
 62
     1
 10
-513.001678781666
 20
40.048883867079
 30
0.0
 11
-513.001678781666
 21
40.6114313328617
 31
0.0
  0
LINE
  5
   2F1
  8
0
  6
CONTINUOUS
 62
     1
 10
-513.001678781666
 20
40.6114313328617
 30
0.0
 11
-513.001678781666
 21
41.0883319769091
 31
0.0
  0
LINE
  5
   2F2
  8
0
  6
CONTINUOUS
 62
     1
 10
-513.001678781666
 20
41.0883319769091
 30
0.0
 11
-513.001678781666
 21
41.4069860053278
 31
0.0
  0
LINE
  5
   2F3
  8
0
  6
CONTINUOUS
 62
     1
 10
-513.001678781666
 20
41.4069860053278
 30
0.0
 11
-513.001678781666
 21
41.5188838956892
 31
0.0
  0
LINE
  5
   2F4
  8
0
  6
CONTINUOUS
 62
     1
 10
-513.491679210386
 20
41.2359827902702
 30
0.0
 11
-513.001679184716
 21
41.5188827321845
 31
0.0
  0
LINE
  5
   2F5
  8
0
  6
CONTINUOUS
 62
     1
 10
-510.306678810119
 20
-28.0611155893266
 30
0.0
 11
-513.001677799161
 21
-28.0611155893266
 31
0.0
  0
LINE
  5
   2F6
  8
0
  6
CONTINUOUS
 62
     1
 10
-510.306678810119
 20
-31.0011156465471
 30
0.0
 11
-513.001679604106
 21
-31.0011156465471
 31
0.0
  0
LINE
  5
   2F7
  8
0
  6
CONTINUOUS
 62
     1
 10
-513.491679040342
 20
-28.344018083019
 30
0.0
 11
-513.00167901467
 21
-28.0611162911016
 31
0.0
  0
LINE
  5
   2F8
  8
0
  6
CONTINUOUS
 62
     1
 10
-513.001678765341
 20
-28.1730134796881
 30
0.0
 11
-513.001678765341
 21
-28.0611155893266
 31
0.0
  0
LINE
  5
   2F9
  8
0
  6
CONTINUOUS
 62
     1
 10
-513.001678765353
 20
-28.4916693773084
 30
0.0
 11
-513.001678765353
 21
-28.1730134796881
 31
0.0
  0
LINE
  5
   2FA
  8
0
  6
CONTINUOUS
 62
     1
 10
-513.001678765339
 20
-28.9685700213559
 30
0.0
 11
-513.001678765339
 21
-28.4916693773084
 31
0.0
  0
LINE
  5
   2FB
  8
0
  6
CONTINUOUS
 62
     1
 10
-513.001678765373
 20
-29.5311156179369
 30
0.0
 11
-513.001678765373
 21
-28.9685700213559
 31
0.0
  0
LINE
  5
   2FC
  8
0
  6
CONTINUOUS
 62
     1
 10
-513.001678765313
 20
-30.0936593453162
 30
0.0
 11
-513.001678765313
 21
-29.5311156179369
 31
0.0
  0
LINE
  5
   2FD
  8
0
  6
CONTINUOUS
 62
     1
 10
-513.00167876534
 20
-30.5705618585653
 30
0.0
 11
-513.00167876534
 21
-30.0936593453162
 31
0.0
  0
LINE
  5
   2FE
  8
0
  6
CONTINUOUS
 62
     1
 10
-513.001678765352
 20
-30.8892177561857
 30
0.0
 11
-513.001678765352
 21
-30.5705618585653
 31
0.0
  0
LINE
  5
   2FF
  8
0
  6
CONTINUOUS
 62
     1
 10
-513.001678562322
 20
-31.0011162480216
 30
0.0
 11
-513.491678587994
 21
-30.7182144561042
 31
0.0
  0
LINE
  5
   300
  8
0
  6
CONTINUOUS
 62
     1
 10
-513.001678765341
 20
-31.0011156465471
 30
0.0
 11
-513.001678765341
 21
-30.8892177561857
 31
0.0
  0
LINE
  5
   301
  8
0
  6
CONTINUOUS
 62
     1
 10
-509.081678786277
 20
45.1938839672148
 30
0.0
 11
-509.571678795814
 21
45.1938839672148
 31
0.0
  0
LINE
  5
   302
  8
0
  6
CONTINUOUS
 62
     7
 10
-511.286678829193
 20
32.2088837144911
 30
0.0
 11
-511.286678829193
 21
38.5788838384688
 31
0.0
  0
LINE
  5
   303
  8
0
  6
CONTINUOUS
 62
     7
 10
-510.306678810119
 20
45.1938858364165
 30
0.0
 11
-510.306678810119
 21
66.934153982546
 31
0.0
  0
LINE
  5
   304
  8
0
  6
CONTINUOUS
 62
     7
 10
-510.306678810119
 20
-73.5166995031189
 30
0.0
 11
-510.306678810119
 21
-34.6761157180727
 31
0.0
  0
LINE
  5
   305
  8
0
  6
CONTINUOUS
 62
     7
 10
-511.286678829193
 20
-74.2461253027976
 30
0.0
 11
-511.286678829193
 21
-31.0011156465471
 31
0.0
  0
LINE
  5
   306
  8
0
  6
CONTINUOUS
 62
     7
 10
-514.164533808499
 20
-76.3881473729854
 30
0.0
 11
-507.833052036914
 21
-71.675549347981
 31
0.0
  0
LINE
  5
   307
  8
0
  6
CONTINUOUS
 62
     7
 10
-511.286678829193
 20
41.5188838956892
 30
0.0
 11
-511.286678829193
 21
66.0699307099119
 31
0.0
  0
LINE
  5
   308
  8
0
  6
CONTINUOUS
 62
     7
 10
-511.286678829193
 20
-28.0611155893266
 30
0.0
 11
-511.286678829193
 21
-21.691115465349
 31
0.0
  0
LINE
  5
   309
  8
0
  6
CONTINUOUS
 62
     7
 10
-510.306678810119
 20
-27.8161155845582
 30
0.0
 11
-511.286678829193
 21
-27.8161155845582
 31
0.0
  0
LINE
  5
   30A
  8
0
  6
CONTINUOUS
 62
     7
 10
-510.306678810119
 20
-31.2461156513154
 30
0.0
 11
-511.286678829193
 21
-31.2461156513154
 31
0.0
  0
LINE
  5
   30B
  8
0
  6
CONTINUOUS
 62
     7
 10
-510.306678810119
 20
-22.1811154748857
 30
0.0
 11
-511.286678829193
 21
-22.1811154748857
 31
0.0
  0
LINE
  5
   30C
  8
0
  6
CONTINUOUS
 62
     7
 10
-510.306678810119
 20
32.6988837240278
 30
0.0
 11
-511.286678829193
 21
32.6988837240278
 31
0.0
  0
LINE
  5
   30D
  8
0
  6
CONTINUOUS
 62
     7
 10
-510.306678810119
 20
38.3338838337004
 30
0.0
 11
-511.286678829193
 21
38.3338838337004
 31
0.0
  0
LINE
  5
   30E
  8
0
  6
CONTINUOUS
 62
     7
 10
-510.306678810119
 20
41.7638839004576
 30
0.0
 11
-511.286678829193
 21
41.7638839004576
 31
0.0
  0
INSERT
  5
   30F
  8
0
  6
CONTINUOUS
 62
     7
  2
*HATCH115
 10
-513.246704101563
 20
-48.6316223144531
 30
0.0
 41
0.490000009536743
 42
0.490000009536743
 50
89.9999999480344
 43
0.490000009536743
  0
INSERT
  5
   310
  8
0
  6
CONTINUOUS
 62
     7
  2
*HATCH116
 10
-513.246704101563
 20
-48.6316223144531
 30
0.0
 41
0.490000009536743
 42
0.490000009536743
 50
89.9999999480344
 43
0.490000009536743
  0
INSERT
  5
   311
  8
0
  6
CONTINUOUS
 62
     7
  2
*HATCH117
 10
-513.246704101563
 20
-48.6316223144531
 30
0.0
 41
0.490000009536743
 42
0.490000009536743
 50
89.9999999480344
 43
0.490000009536743
  0
INSERT
  5
   312
  8
0
  6
CONTINUOUS
 62
     7
  2
*HATCH118
 10
-513.246704101563
 20
-48.6316223144531
 30
0.0
 41
0.490000009536743
 42
0.490000009536743
 50
89.9999999480344
 43
0.490000009536743
  0
LINE
  5
   313
  8
0
  6
DASHDOT
 62
     7
 10
-492.714226376667
 20
5.26204767365708
 30
0.0
 11
-594.710307334942
 21
5.26204767365708
 31
0.0
  0
LINE
  5
   314
  8
0
  6
CONTINUOUS
 62
     7
 10
-514.471681694984
 20
67.8595321439461
 30
0.0
 11
-562.736720018615
 21
67.8595321439461
 31
0.0
  0
LINE
  5
   315
  8
0
  6
CONTINUOUS
 62
     7
 10
-514.471681694984
 20
-59.0504386244269
 30
0.0
 11
-562.736675624847
 21
-59.0504386244269
 31
0.0
  0
LINE
  5
   316
  8
0
  6
CONTINUOUS
 62
     7
 10
-513.981681685447
 20
-58.5604386148901
 30
0.0
 11
-513.981681685447
 21
-46.555445858047
 31
0.0
  0
LINE
  5
   317
  8
0
  6
CONTINUOUS
 62
     7
 10
-513.981681685447
 20
55.1195486440207
 30
0.0
 11
-513.981681685447
 21
67.3695321344094
 31
0.0
  0
ARC
  5
   318
  8
0
  6
CONTINUOUS
 62
     7
 10
-514.471681694984
 20
67.3695321344094
 30
0.0
 40
0.490000009536743
 50
359.999999948034
 51
449.999999948034
  0
ARC
  5
   319
  8
0
  6
CONTINUOUS
 62
     7
 10
-514.471681694984
 20
-58.5604386148901
 30
0.0
 40
0.490000009536743
 50
269.999999948034
 51
359.999999948034
  0
LINE
  5
   31A
  8
0
  6
CONTINUOUS
 62
     7
 10
-513.981681685447
 20
-46.555445858047
 30
0.0
 11
-514.471681694984
 21
-46.555445858047
 31
0.0
  0
LINE
  5
   31B
  8
0
  6
CONTINUOUS
 62
     7
 10
-514.471681694984
 20
-46.555445858047
 30
0.0
 11
-514.471681694984
 21
-46.0654458485102
 31
0.0
  0
LINE
  5
   31C
  8
0
  6
CONTINUOUS
 62
     7
 10
-514.471681694984
 20
54.629548634484
 30
0.0
 11
-514.471681694984
 21
55.1195486440207
 31
0.0
  0
LINE
  5
   31D
  8
0
  6
CONTINUOUS
 62
     7
 10
-513.981681685447
 20
55.1195486440207
 30
0.0
 11
-514.471681694984
 21
55.1195486440207
 31
0.0
  0
LINE
  5
   31E
  8
0
  6
CONTINUOUS
 62
     7
 10
-593.513648726036
 20
87.5012507500496
 30
0.0
 11
-584.391931579052
 21
90.3923131752137
 31
0.0
  0
LINE
  5
   31F
  8
0
  6
CONTINUOUS
 62
   130
 10
-563.71671256065
 20
66.6345321200713
 30
0.0
 11
-581.846712913509
 21
66.6345321200713
 31
0.0
  0
ARC
  5
   320
  8
0
  6
CONTINUOUS
 62
     5
 10
-572.78167535305
 20
74.2295322679237
 30
0.0
 40
1.96000003814697
 50
269.999999948034
 51
449.999999948035
  0
LINE
  5
   321
  8
0
  6
CONTINUOUS
 62
     5
 10
-574.006675376892
 20
69.3295321725563
 30
0.0
 11
-574.006675376892
 21
79.1295323632912
 31
0.0
  0
LINE
  5
   322
  8
0
  6
CONTINUOUS
 62
     5
 10
-572.78167535305
 20
79.1295323632912
 30
0.0
 11
-574.006675376892
 21
79.1295323632912
 31
0.0
  0
LINE
  5
   323
  8
0
  6
CONTINUOUS
 62
     5
 10
-556.856675043106
 20
79.1295323632912
 30
0.0
 11
-564.25567518711
 21
79.1295323632912
 31
0.0
  0
LINE
  5
   324
  8
0
  6
CONTINUOUS
 62
     5
 10
-572.78167535305
 20
69.3295321725563
 30
0.0
 11
-574.006675376892
 21
69.3295321725563
 31
0.0
  0
LINE
  5
   325
  8
0
  6
CONTINUOUS
 62
     5
 10
-556.856675043106
 20
69.3295321725563
 30
0.0
 11
-564.25567518711
 21
69.3295321725563
 31
0.0
  0
ARC
  5
   326
  8
0
  6
CONTINUOUS
 62
     5
 10
-572.78167535305
 20
74.2295322679237
 30
0.0
 40
0.735000014305108
 50
269.999999948034
 51
449.999999948034
  0
ARC
  5
   327
  8
0
  6
CONTINUOUS
 62
     5
 10
-572.78167535305
 20
76.1895323060707
 30
0.0
 40
1.22500002384186
 50
179.999999948034
 51
269.999999948035
  0
ARC
  5
   328
  8
0
  6
CONTINUOUS
 62
     5
 10
-572.78167535305
 20
72.2695322297768
 30
0.0
 40
1.22500002384186
 50
449.999999948034
 51
539.999999948034
  0
LINE
  5
   329
  8
0
  6
CONTINUOUS
 62
     5
 10
-555.876675024032
 20
70.3095321916298
 30
0.0
 11
-555.876675024032
 21
71.2895322107032
 31
0.0
  0
ARC
  5
   32A
  8
0
  6
CONTINUOUS
 62
     5
 10
-556.856675043106
 20
78.1495323442177
 30
0.0
 40
0.980000019073486
 50
359.999999948034
 51
449.999999948034
  0
ARC
  5
   32B
  8
0
  6
CONTINUOUS
 62
     5
 10
-556.856675043106
 20
70.3095321916298
 30
0.0
 40
0.980000019073486
 50
269.999999948034
 51
359.999999948034
  0
LINE
  5
   32C
  8
0
  6
CONTINUOUS
 62
     5
 10
-560.286675109863
 20
69.3295321725563
 30
0.0
 11
-560.286675109863
 21
71.2895322107032
 31
0.0
  0
LINE
  5
   32D
  8
0
  6
CONTINUOUS
 62
     5
 10
-558.326675071716
 20
69.3295321725563
 30
0.0
 11
-558.326675071716
 21
71.2895322107032
 31
0.0
  0
LINE
  5
   32E
  8
0
  6
CONTINUOUS
 62
     1
 10
-562.540675153732
 20
78.3945323489861
 30
0.0
 11
-564.25567518711
 21
78.3945323489861
 31
0.0
  0
LINE
  5
   32F
  8
0
  6
CONTINUOUS
 62
     1
 10
-562.540675153732
 20
70.0645321868614
 30
0.0
 11
-564.25567518711
 21
70.0645321868614
 31
0.0
  0
LINE
  5
   330
  8
0
  6
CONTINUOUS
 62
     1
 10
-563.765675177574
 20
70.0645321868614
 30
0.0
 11
-563.765675177574
 21
70.7995322011672
 31
0.0
  0
LINE
  5
   331
  8
0
  6
CONTINUOUS
 62
     1
 10
-562.540675153732
 20
70.0645321868614
 30
0.0
 11
-562.540675153732
 21
70.7995322011672
 31
0.0
  0
ARC
  5
   332
  8
0
  6
CONTINUOUS
 62
     1
 10
-563.398175170421
 20
77.1695323251442
 30
0.0
 40
0.61250001192094
 50
126.869897593878
 51
233.13010230219
  0
LINE
  5
   333
  8
0
  6
CONTINUOUS
 62
     1
 10
-563.765675177574
 20
77.6595323346809
 30
0.0
 11
-563.765675177574
 21
78.3945323489861
 31
0.0
  0
ARC
  5
   334
  8
0
  6
CONTINUOUS
 62
     1
 10
-563.398175170421
 20
71.2895322107033
 30
0.0
 40
0.61250001192094
 50
126.869897593878
 51
233.13010230219
  0
LINE
  5
   335
  8
0
  6
CONTINUOUS
 62
     1
 10
-563.765675177574
 20
71.7795322202394
 30
0.0
 11
-563.765675177574
 21
76.6795323156074
 31
0.0
  0
ARC
  5
   336
  8
0
  6
CONTINUOUS
 62
     1
 10
-562.173175146579
 20
77.1695323251442
 30
0.0
 40
0.61250001192094
 50
126.869897593878
 51
233.13010230219
  0
ARC
  5
   337
  8
0
  6
CONTINUOUS
 62
     1
 10
-562.173175146579
 20
71.2895322107033
 30
0.0
 40
0.61250001192094
 50
126.869897593878
 51
233.13010230219
  0
LINE
  5
   338
  8
0
  6
CONTINUOUS
 62
     1
 10
-562.540675153732
 20
77.6595323346809
 30
0.0
 11
-562.540675153732
 21
78.3945323489861
 31
0.0
  0
LINE
  5
   339
  8
0
  6
CONTINUOUS
 62
     1
 10
-562.540675153732
 20
71.7795322202394
 30
0.0
 11
-562.540675153732
 21
72.0245322250084
 31
0.0
  0
LINE
  5
   33A
  8
0
  6
CONTINUOUS
 62
     1
 10
-561.805675139427
 20
75.699532296534
 30
0.0
 11
-563.275675168037
 21
75.699532296534
 31
0.0
  0
LINE
  5
   33B
  8
0
  6
CONTINUOUS
 62
     1
 10
-561.805675139427
 20
72.7595322393135
 30
0.0
 11
-563.275675168037
 21
72.7595322393135
 31
0.0
  0
LINE
  5
   33C
  8
0
  6
CONTINUOUS
 62
     1
 10
-561.805675139427
 20
76.4345323108391
 30
0.0
 11
-562.540675153732
 21
76.4345323108391
 31
0.0
  0
LINE
  5
   33D
  8
0
  6
CONTINUOUS
 62
     1
 10
-561.805675139427
 20
72.0245322250084
 30
0.0
 11
-562.540675153732
 21
72.0245322250084
 31
0.0
  0
LINE
  5
   33E
  8
0
  6
CONTINUOUS
 62
     1
 10
-562.540675153732
 20
76.4345323108391
 30
0.0
 11
-562.540675153732
 21
76.6795323156074
 31
0.0
  0
ARC
  5
   33F
  8
0
  6
CONTINUOUS
 62
     1
 10
-563.275675168037
 20
76.1895323060707
 30
0.0
 40
0.490000009536743
 50
179.999999948034
 51
269.999999948034
  0
ARC
  5
   340
  8
0
  6
CONTINUOUS
 62
     1
 10
-563.275675168037
 20
72.2695322297768
 30
0.0
 40
0.490000009536743
 50
89.9999999480344
 51
179.999999948034
  0
LINE
  5
   341
  8
0
  6
CONTINUOUS
 62
     2
 10
-561.805675139427
 20
75.2095322869972
 30
0.0
 11
-563.520675172805
 21
75.2095322869972
 31
0.0
  0
LINE
  5
   342
  8
0
  6
CONTINUOUS
 62
     2
 10
-561.805675139427
 20
73.2495322488503
 30
0.0
 11
-563.520675172805
 21
73.2495322488503
 31
0.0
  0
LINE
  5
   343
  8
0
  6
CONTINUOUS
 62
     2
 10
-561.805675139427
 20
73.2495322488502
 30
0.0
 11
-561.239871864609
 21
74.2295322679237
 31
0.0
  0
LINE
  5
   344
  8
0
  6
CONTINUOUS
 62
     2
 10
-561.239871864609
 20
74.2295322679237
 30
0.0
 11
-561.805675139427
 21
75.2095322869972
 31
0.0
  0
LINE
  5
   345
  8
0
  6
CONTINUOUS
 62
     2
 10
-561.805675139427
 20
73.2495322488503
 30
0.0
 11
-561.805675139427
 21
75.2095322869972
 31
0.0
  0
LINE
  5
   346
  8
0
  6
CONTINUOUS
 62
     2
 10
-561.805675139427
 20
76.4345323108391
 30
0.0
 11
-561.805675139427
 21
76.6795323156074
 31
0.0
  0
LINE
  5
   347
  8
0
  6
CONTINUOUS
 62
     1
 10
-561.805675139427
 20
72.0245322250084
 30
0.0
 11
-561.805675139427
 21
72.7595322393135
 31
0.0
  0
LINE
  5
   348
  8
0
  6
CONTINUOUS
 62
     1
 10
-561.805675139427
 20
75.699532296534
 30
0.0
 11
-561.805675139427
 21
76.4345323108391
 31
0.0
  0
LINE
  5
   349
  8
0
  6
CONTINUOUS
 62
     2
 10
-552.495674958229
 20
71.77953222024
 30
0.0
 11
-552.495674958229
 21
76.6795323156074
 31
0.0
  0
LINE
  5
   34A
  8
0
  6
CONTINUOUS
 62
     2
 10
-552.985674967765
 20
77.1695323251441
 30
0.0
 11
-561.31567512989
 21
77.1695323251441
 31
0.0
  0
LINE
  5
   34B
  8
0
  6
CONTINUOUS
 62
     2
 10
-552.985674967765
 20
71.2895322107032
 30
0.0
 11
-561.31567512989
 21
71.2895322107032
 31
0.0
  0
LINE
  5
   34C
  8
0
  6
CONTINUOUS
 62
     5
 10
-560.286675109863
 20
77.1695323251441
 30
0.0
 11
-560.286675109863
 21
79.1295323632912
 31
0.0
  0
LINE
  5
   34D
  8
0
  6
CONTINUOUS
 62
     5
 10
-558.326675071716
 20
77.1695323251441
 30
0.0
 11
-558.326675071716
 21
79.1295323632912
 31
0.0
  0
LINE
  5
   34E
  8
0
  6
CONTINUOUS
 62
     5
 10
-555.876675024032
 20
77.1695323251441
 30
0.0
 11
-555.876675024032
 21
78.1495323442177
 31
0.0
  0
LINE
  5
   34F
  8
0
  6
CONTINUOUS
 62
     2
 10
-552.495674958229
 20
76.6795323156074
 30
0.0
 11
-552.985674967765
 21
77.1695323251441
 31
0.0
  0
LINE
  5
   350
  8
0
  6
CONTINUOUS
 62
     2
 10
-552.985674967765
 20
71.2895322107032
 30
0.0
 11
-552.495674958229
 21
71.77953222024
 31
0.0
  0
LINE
  5
   351
  8
0
  6
CONTINUOUS
 62
     2
 10
-561.31567512989
 20
71.2895322107032
 30
0.0
 11
-561.805675139427
 21
71.77953222024
 31
0.0
  0
LINE
  5
   352
  8
0
  6
CONTINUOUS
 62
     2
 10
-561.805675139427
 20
76.6795323156074
 30
0.0
 11
-561.31567512989
 21
77.1695323251442
 31
0.0
  0
LINE
  5
   353
  8
0
  6
CONTINUOUS
 62
     2
 10
-552.985674967765
 20
71.2895322107032
 30
0.0
 11
-552.985674967765
 21
77.1695323251441
 31
0.0
  0
LINE
  5
   354
  8
0
  6
CONTINUOUS
 62
     7
 10
-552.618174960613
 20
76.8020323179916
 30
0.0
 11
-561.683175137042
 21
76.8020323179916
 31
0.0
  0
LINE
  5
   355
  8
0
  6
CONTINUOUS
 62
     7
 10
-552.618174960611
 20
71.6570322178575
 30
0.0
 11
-561.683175137038
 21
71.6570322178575
 31
0.0
  0
LINE
  5
   356
  8
0
  6
CONTINUOUS
 62
     2
 10
-561.805675139427
 20
71.77953222024
 30
0.0
 11
-561.805675139427
 21
72.0245322250084
 31
0.0
  0
ARC
  5
   357
  8
0
  6
CONTINUOUS
 62
     2
 10
-563.520675172805
 20
75.4545322917656
 30
0.0
 40
0.245000004768372
 50
179.999999948034
 51
269.999999948034
  0
ARC
  5
   358
  8
0
  6
CONTINUOUS
 62
     2
 10
-563.520675172805
 20
73.0045322440819
 30
0.0
 40
0.245000004768372
 50
89.9999999480344
 51
179.999999948034
  0
LINE
  5
   359
  8
0
  6
CONTINUOUS
 62
     7
 10
-560.649267966126
 20
71.0457286066543
 30
0.0
 11
-560.649267966126
 21
77.5358340634868
 31
0.0
  0
LINE
  5
   35A
  8
0
  6
CONTINUOUS
 62
     7
 10
-559.796675100326
 20
77.1695323251441
 30
0.0
 11
-560.286675109863
 21
77.1695323251441
 31
0.0
  0
LINE
  5
   35B
  8
0
  6
CONTINUOUS
 62
     7
 10
-559.796675100326
 20
71.2895322107032
 30
0.0
 11
-560.286675109863
 21
71.2895322107032
 31
0.0
  0
LINE
  5
   35C
  8
0
  6
CONTINUOUS
 62
     3
 10
-570.331675305366
 20
66.6344850365533
 30
0.0
 11
-570.331675305366
 21
69.3295321725563
 31
0.0
  0
LINE
  5
   35D
  8
0
  6
DASHDOT
 62
     7
 10
-544.683375778796
 20
74.2295322679237
 30
0.0
 11
-573.850653916714
 21
74.2295322679237
 31
0.0
  0
LINE
  5
   35E
  8
0
  6
CONTINUOUS
 62
     3
 10
-570.331675305366
 20
69.3295321725563
 30
0.0
 11
-572.78167535305
 21
69.3295321725563
 31
0.0
  0
LINE
  5
   35F
  8
0
  6
CONTINUOUS
 62
     3
 10
-570.331675305366
 20
79.1295323632912
 30
0.0
 11
-572.78167535305
 21
79.1295323632912
 31
0.0
  0
LINE
  5
   360
  8
0
  6
CONTINUOUS
 62
     3
 10
-570.331675305366
 20
76.2385323070244
 30
0.0
 11
-572.78167535305
 21
76.2385323070244
 31
0.0
  0
LINE
  5
   361
  8
0
  6
CONTINUOUS
 62
     3
 10
-570.331675305366
 20
72.2205322288231
 30
0.0
 11
-572.78167535305
 21
72.2205322288231
 31
0.0
  0
LINE
  5
   362
  8
0
  6
CONTINUOUS
 62
     3
 10
-572.78167535305
 20
76.1895323060707
 30
0.0
 11
-572.78167535305
 21
79.1295323632912
 31
0.0
  0
LINE
  5
   363
  8
0
  6
CONTINUOUS
 62
     7
 10
-569.584135389911
 20
70.5872157862529
 30
0.0
 11
-573.608238158851
 21
70.5872157862529
 31
0.0
  0
INSERT
  5
   364
  8
0
  6
CONTINUOUS
 62
     7
  2
*HATCH119
 10
-513.246704101563
 20
-48.6316223144531
 30
0.0
 41
0.490000009536743
 42
0.490000009536743
 50
89.9999999480344
 43
0.490000009536743
  0
INSERT
  5
   365
  8
0
  6
CONTINUOUS
 62
     7
  2
*HATCH120
 10
-513.246704101563
 20
-48.6316223144531
 30
0.0
 41
0.490000009536743
 42
0.490000009536743
 50
89.9999999480344
 43
0.490000009536743
  0
LINE
  5
   366
  8
0
  6
CONTINUOUS
 62
     3
 10
-572.78167535305
 20
66.6344830157973
 30
0.0
 11
-572.78167535305
 21
72.2695322297768
 31
0.0
  0
LINE
  5
   367
  8
0
  6
CONTINUOUS
 62
     7
 10
-574.916174288529
 20
65.7311895801236
 30
0.0
 11
-574.916174288529
 21
86.7529872647903
 31
0.0
  0
INSERT
  5
   368
  8
0
  6
CONTINUOUS
 62
     7
  2
*HATCH121
 10
-513.246704101563
 20
-48.6316223144531
 30
0.0
 41
0.490000009536743
 42
0.490000009536743
 50
89.9999999480344
 43
0.490000009536743
  0
INSERT
  5
   369
  8
0
  6
CONTINUOUS
 62
     7
  2
*HATCH122
 10
-513.246704101563
 20
-48.6316223144531
 30
0.0
 41
0.490000009536743
 42
0.490000009536743
 50
89.9999999480344
 43
0.490000009536743
  0
INSERT
  5
   36A
  8
0
  6
CONTINUOUS
 62
     7
  2
*HATCH123
 10
-513.246704101563
 20
-48.6316223144531
 30
0.0
 41
0.490000009536743
 42
0.490000009536743
 50
89.9999999480344
 43
0.490000009536743
  0
INSERT
  5
   36B
  8
0
  6
CONTINUOUS
 62
     7
  2
*HATCH124
 10
-513.246704101563
 20
-48.6316223144531
 30
0.0
 41
0.490000009536743
 42
0.490000009536743
 50
89.9999999480344
 43
0.490000009536743
  0
INSERT
  5
   36C
  8
0
  6
CONTINUOUS
 62
     7
  2
*HATCH125
 10
-513.246704101563
 20
-48.6316223144531
 30
0.0
 41
0.490000009536743
 42
0.490000009536743
 50
89.9999999480344
 43
0.490000009536743
  0
INSERT
  5
   36D
  8
0
  6
CONTINUOUS
 62
     7
  2
*HATCH126
 10
-513.246704101563
 20
-48.6316223144531
 30
0.0
 41
0.490000009536743
 42
0.490000009536743
 50
89.9999999480344
 43
0.490000009536743
  0
LINE
  5
   36E
  8
0
  6
CONTINUOUS
 62
   130
 10
-549.016712274548
 20
68.7170021524425
 30
0.0
 11
-549.016712274548
 21
85.6220024814658
 31
0.0
  0
LINE
  5
   36F
  8
0
  6
CONTINUOUS
 62
   130
 10
-550.241712298389
 20
69.0845016544061
 30
0.0
 11
-550.241712298389
 21
85.2545019691242
 31
0.0
  0
LINE
  5
   370
  8
0
  6
CONTINUOUS
 62
   130
 10
-549.629211781279
 20
68.1045321486811
 30
0.0
 11
-563.71671256065
 21
68.1045321486811
 31
0.0
  0
LINE
  5
   371
  8
0
  6
CONTINUOUS
 62
   130
 10
-550.241712298389
 20
69.0845321677542
 30
0.0
 11
-564.696712579723
 21
69.0845321677542
 31
0.0
  0
LINE
  5
   372
  8
0
  6
CONTINUOUS
 62
   130
 10
-563.71671256065
 20
66.6344675477771
 30
0.0
 11
-563.71671256065
 21
68.1044905211744
 31
0.0
  0
LINE
  5
   373
  8
0
  6
CONTINUOUS
 62
   130
 10
-564.696712579723
 20
67.6144689262706
 30
0.0
 11
-564.696712579723
 21
69.0844897319458
 31
0.0
  0
LINE
  5
   374
  8
0
  6
CONTINUOUS
 62
   130
 10
-564.696712568478
 20
67.6144689262706
 30
0.0
 11
-570.086675294317
 21
67.6144764030233
 31
0.0
  0
LINE
  5
   375
  8
0
  6
CONTINUOUS
 62
   130
 10
-549.629212791658
 20
86.2345325015344
 30
0.0
 11
-563.373675169944
 21
86.2345325015344
 31
0.0
  0
ARC
  5
   376
  8
0
  6
CONTINUOUS
 62
   130
 10
-549.629212286468
 20
85.6220024814658
 30
0.0
 40
0.612500011920929
 50
359.999999948034
 51
450.000047205499
  0
LINE
  5
   377
  8
0
  6
CONTINUOUS
 62
   130
 10
-550.241712298389
 20
85.2545324824613
 30
0.0
 11
-563.373675169944
 21
85.2545324824613
 31
0.0
  0
LINE
  5
   378
  8
0
  6
CONTINUOUS
 62
   130
 10
-550.731694823147
 20
84.2745324633881
 30
0.0
 11
-563.373675169944
 21
84.2745324633881
 31
0.0
  0
LINE
  5
   379
  8
0
  6
CONTINUOUS
 62
   130
 10
-551.711694842221
 20
85.2544961089462
 30
0.0
 11
-551.711694842221
 21
86.23449612802
 31
0.0
  0
LINE
  5
   37A
  8
0
  6
CONTINUOUS
 62
   130
 10
-550.241712298389
 20
83.2945324443149
 30
0.0
 11
-563.373675169944
 21
83.2945324443149
 31
0.0
  0
LINE
  5
   37B
  8
0
  6
CONTINUOUS
 62
   130
 10
-550.731694823147
 20
84.2744968981748
 30
0.0
 11
-550.731694823147
 21
85.2544969172486
 31
0.0
  0
LINE
  5
   37C
  8
0
  6
CONTINUOUS
 62
   130
 10
-587.236705541611
 20
68.104471121923
 30
0.0
 11
-587.236705541611
 21
86.2344714747887
 31
0.0
  0
LINE
  5
   37D
  8
0
  6
CONTINUOUS
 62
   130
 10
-570.086675300598
 20
66.6344852386289
 30
0.0
 11
-570.086675300598
 21
67.6144764030233
 31
0.0
  0
ARC
  5
   37E
  8
0
  6
CONTINUOUS
 62
   130
 10
-549.629212286468
 20
68.7170021524425
 30
0.0
 40
0.612500011920929
 50
270.000047205499
 51
359.999999948034
  0
LINE
  5
   37F
  8
0
  6
CONTINUOUS
 62
   130
 10
-554.896712388988
 20
68.8394978102013
 30
0.0
 11
-554.896712388988
 21
69.0844978149698
 31
0.0
  0
LINE
  5
   380
  8
0
  6
CONTINUOUS
 62
   130
 10
-554.896712388988
 20
68.8395321629859
 30
0.0
 11
-564.696712579723
 21
68.8395321629859
 31
0.0
  0
LINE
  5
   381
  8
0
  6
CONTINUOUS
 62
     1
 10
-563.765675177574
 20
77.6595323346809
 30
0.0
 11
-564.25567518711
 21
77.6595323346809
 31
0.0
  0
LINE
  5
   382
  8
0
  6
CONTINUOUS
 62
     1
 10
-563.765675177574
 20
76.6795323156074
 30
0.0
 11
-564.25567518711
 21
76.6795323156074
 31
0.0
  0
LINE
  5
   383
  8
0
  6
CONTINUOUS
 62
     1
 10
-563.765675177574
 20
71.7795322202394
 30
0.0
 11
-564.25567518711
 21
71.7795322202394
 31
0.0
  0
LINE
  5
   384
  8
0
  6
CONTINUOUS
 62
     1
 10
-563.765675177574
 20
70.7995322011665
 30
0.0
 11
-564.25567518711
 21
70.7995322011665
 31
0.0
  0
INSERT
  5
   385
  8
0
  6
CONTINUOUS
 62
     7
  2
*HATCH127
 10
-513.246704101563
 20
-48.6316223144531
 30
0.0
 41
0.490000009536743
 42
0.490000009536743
 50
89.9999999480344
 43
0.490000009536743
  0
LINE
  5
   386
  8
0
  6
CONTINUOUS
 62
   130
 10
-581.846712913509
 20
66.6344755389693
 30
0.0
 11
-587.236705541611
 21
68.104471121923
 31
0.0
  0
LINE
  5
   387
  8
0
  6
CONTINUOUS
 62
     7
 10
-581.846712913509
 20
67.6144755580431
 30
0.0
 11
-581.846712913509
 21
68.10447556758
 31
0.0
  0
LINE
  5
   388
  8
0
  6
CONTINUOUS
 62
     7
 10
-574.916174288529
 20
68.1045321486811
 30
0.0
 11
-581.846712913509
 21
68.1045321486811
 31
0.0
  0
LINE
  5
   389
  8
0
  6
CONTINUOUS
 62
     7
 10
-574.916173884378
 20
67.6145321391445
 30
0.0
 11
-581.846712509358
 21
67.6145321391445
 31
0.0
  0
LINE
  5
   38A
  8
0
  6
CONTINUOUS
 62
   130
 10
-571.213675322532
 20
86.2345325015344
 30
0.0
 11
-587.236705541611
 21
86.2345325015344
 31
0.0
  0
LINE
  5
   38B
  8
0
  6
CONTINUOUS
 62
   130
 10
-571.213675322532
 20
85.2545324824613
 30
0.0
 11
-574.916174288529
 21
85.2545324824613
 31
0.0
  0
LINE
  5
   38C
  8
0
  6
CONTINUOUS
 62
   130
 10
-571.213675322532
 20
84.2745324633881
 30
0.0
 11
-574.916174288529
 21
84.2745324633881
 31
0.0
  0
LINE
  5
   38D
  8
0
  6
CONTINUOUS
 62
   130
 10
-571.213675322532
 20
83.2945324443149
 30
0.0
 11
-574.916174288529
 21
83.2945324443149
 31
0.0
  0
LINE
  5
   38E
  8
0
  6
CONTINUOUS
 62
     7
 10
-583.12307601677
 20
-87.7754174365247
 30
0.0
 11
-595.813465325193
 21
-87.043279591808
 31
0.0
  0
LINE
  5
   38F
  8
0
  6
CONTINUOUS
 62
   130
 10
-563.71671256065
 20
-57.8254386005521
 30
0.0
 11
-581.846712913509
 21
-57.8254386005521
 31
0.0
  0
ARC
  5
   390
  8
0
  6
CONTINUOUS
 62
     5
 10
-572.78167535305
 20
-65.4204387484045
 30
0.0
 40
1.96000003814697
 50
269.999999948034
 51
449.999999948035
  0
LINE
  5
   391
  8
0
  6
CONTINUOUS
 62
     5
 10
-574.006675376892
 20
-70.3204388437719
 30
0.0
 11
-574.006675376892
 21
-60.5204386530371
 31
0.0
  0
LINE
  5
   392
  8
0
  6
CONTINUOUS
 62
     5
 10
-572.78167535305
 20
-70.3204388437719
 30
0.0
 11
-574.006675376892
 21
-70.3204388437719
 31
0.0
  0
LINE
  5
   393
  8
0
  6
CONTINUOUS
 62
     5
 10
-556.856675043106
 20
-70.3204388437719
 30
0.0
 11
-564.25567518711
 21
-70.3204388437719
 31
0.0
  0
LINE
  5
   394
  8
0
  6
CONTINUOUS
 62
     5
 10
-572.78167535305
 20
-60.5204386530371
 30
0.0
 11
-574.006675376892
 21
-60.5204386530371
 31
0.0
  0
LINE
  5
   395
  8
0
  6
CONTINUOUS
 62
     5
 10
-556.856675043106
 20
-60.5204386530371
 30
0.0
 11
-564.25567518711
 21
-60.5204386530371
 31
0.0
  0
ARC
  5
   396
  8
0
  6
CONTINUOUS
 62
     5
 10
-572.78167535305
 20
-65.4204387484045
 30
0.0
 40
0.735000014305108
 50
269.999999948034
 51
449.999999948034
  0
ARC
  5
   397
  8
0
  6
CONTINUOUS
 62
     5
 10
-572.78167535305
 20
-67.3804387865514
 30
0.0
 40
1.22500002384186
 50
449.999999948034
 51
539.999999948034
  0
ARC
  5
   398
  8
0
  6
CONTINUOUS
 62
     5
 10
-572.78167535305
 20
-63.4604387102575
 30
0.0
 40
1.22500002384186
 50
179.999999948034
 51
269.999999948035
  0
LINE
  5
   399
  8
0
  6
CONTINUOUS
 62
     5
 10
-555.876675024032
 20
-62.480438691184
 30
0.0
 11
-555.876675024032
 21
-61.5004386721105
 31
0.0
  0
ARC
  5
   39A
  8
0
  6
CONTINUOUS
 62
     5
 10
-556.856675043106
 20
-69.3404388246984
 30
0.0
 40
0.980000019073486
 50
269.999999948034
 51
359.999999948034
  0
ARC
  5
   39B
  8
0
  6
CONTINUOUS
 62
     5
 10
-556.856675043106
 20
-61.5004386721105
 30
0.0
 40
0.980000019073486
 50
359.999999948034
 51
449.999999948034
  0
LINE
  5
   39C
  8
0
  6
CONTINUOUS
 62
     5
 10
-560.286675109863
 20
-62.9704387007207
 30
0.0
 11
-560.286675109863
 21
-60.5204386530371
 31
0.0
  0
LINE
  5
   39D
  8
0
  6
CONTINUOUS
 62
     5
 10
-558.326675071716
 20
-62.480438691184
 30
0.0
 11
-558.326675071716
 21
-60.5204386530371
 31
0.0
  0
LINE
  5
   39E
  8
0
  6
CONTINUOUS
 62
     1
 10
-562.540675153732
 20
-69.5854388294668
 30
0.0
 11
-564.25567518711
 21
-69.5854388294668
 31
0.0
  0
LINE
  5
   39F
  8
0
  6
CONTINUOUS
 62
     1
 10
-562.540675153732
 20
-61.2554386673422
 30
0.0
 11
-564.25567518711
 21
-61.2554386673422
 31
0.0
  0
LINE
  5
   3A0
  8
0
  6
CONTINUOUS
 62
     1
 10
-563.765675177574
 20
-61.9904386816479
 30
0.0
 11
-563.765675177574
 21
-61.2554386673422
 31
0.0
  0
LINE
  5
   3A1
  8
0
  6
CONTINUOUS
 62
     1
 10
-562.540675153732
 20
-61.9904386816479
 30
0.0
 11
-562.540675153732
 21
-61.2554386673422
 31
0.0
  0
ARC
  5
   3A2
  8
0
  6
CONTINUOUS
 62
     1
 10
-563.398175170421
 20
-68.3604388056249
 30
0.0
 40
0.61250001192094
 50
126.869897593878
 51
233.13010230219
  0
LINE
  5
   3A3
  8
0
  6
CONTINUOUS
 62
     1
 10
-563.765675177574
 20
-69.5854388294668
 30
0.0
 11
-563.765675177574
 21
-68.8504388151617
 31
0.0
  0
ARC
  5
   3A4
  8
0
  6
CONTINUOUS
 62
     1
 10
-563.398175170421
 20
-62.480438691184
 30
0.0
 40
0.61250001192094
 50
126.869897593878
 51
233.13010230219
  0
LINE
  5
   3A5
  8
0
  6
CONTINUOUS
 62
     1
 10
-563.765675177574
 20
-67.8704387960882
 30
0.0
 11
-563.765675177574
 21
-62.9704387007201
 31
0.0
  0
ARC
  5
   3A6
  8
0
  6
CONTINUOUS
 62
     1
 10
-562.173175146579
 20
-68.3604388056249
 30
0.0
 40
0.61250001192094
 50
126.869897593878
 51
233.13010230219
  0
ARC
  5
   3A7
  8
0
  6
CONTINUOUS
 62
     1
 10
-562.173175146579
 20
-62.480438691184
 30
0.0
 40
0.61250001192094
 50
126.869897593878
 51
233.13010230219
  0
LINE
  5
   3A8
  8
0
  6
CONTINUOUS
 62
     1
 10
-562.540675153732
 20
-69.5854388294668
 30
0.0
 11
-562.540675153732
 21
-68.8504388151617
 31
0.0
  0
LINE
  5
   3A9
  8
0
  6
CONTINUOUS
 62
     1
 10
-562.540675153732
 20
-63.2154387054891
 30
0.0
 11
-562.540675153732
 21
-62.9704387007201
 31
0.0
  0
LINE
  5
   3AA
  8
0
  6
CONTINUOUS
 62
     1
 10
-561.805675139427
 20
-66.8904387770147
 30
0.0
 11
-563.275675168037
 21
-66.8904387770147
 31
0.0
  0
LINE
  5
   3AB
  8
0
  6
CONTINUOUS
 62
     1
 10
-561.805675139427
 20
-63.9504387197942
 30
0.0
 11
-563.275675168037
 21
-63.9504387197942
 31
0.0
  0
LINE
  5
   3AC
  8
0
  6
CONTINUOUS
 62
     1
 10
-561.805675139427
 20
-67.6254387913198
 30
0.0
 11
-562.540675153732
 21
-67.6254387913198
 31
0.0
  0
LINE
  5
   3AD
  8
0
  6
CONTINUOUS
 62
     1
 10
-561.805675139427
 20
-63.2154387054891
 30
0.0
 11
-562.540675153732
 21
-63.2154387054891
 31
0.0
  0
LINE
  5
   3AE
  8
0
  6
CONTINUOUS
 62
     1
 10
-562.540675153732
 20
-67.8704387960882
 30
0.0
 11
-562.540675153732
 21
-67.6254387913198
 31
0.0
  0
ARC
  5
   3AF
  8
0
  6
CONTINUOUS
 62
     1
 10
-563.275675168037
 20
-67.3804387865514
 30
0.0
 40
0.490000009536743
 50
89.9999999480344
 51
179.999999948034
  0
ARC
  5
   3B0
  8
0
  6
CONTINUOUS
 62
     1
 10
-563.275675168037
 20
-63.4604387102575
 30
0.0
 40
0.490000009536743
 50
179.999999948034
 51
269.999999948034
  0
LINE
  5
   3B1
  8
0
  6
CONTINUOUS
 62
     2
 10
-561.805675139427
 20
-66.400438767478
 30
0.0
 11
-563.520675172805
 21
-66.400438767478
 31
0.0
  0
LINE
  5
   3B2
  8
0
  6
CONTINUOUS
 62
     2
 10
-561.805675139427
 20
-64.440438729331
 30
0.0
 11
-563.520675172805
 21
-64.440438729331
 31
0.0
  0
LINE
  5
   3B3
  8
0
  6
CONTINUOUS
 62
     2
 10
-561.239871864609
 20
-65.4204387484044
 30
0.0
 11
-561.805675139427
 21
-64.440438729331
 31
0.0
  0
LINE
  5
   3B4
  8
0
  6
CONTINUOUS
 62
     2
 10
-561.805675139427
 20
-66.4004387674779
 30
0.0
 11
-561.239871864609
 21
-65.4204387484045
 31
0.0
  0
LINE
  5
   3B5
  8
0
  6
CONTINUOUS
 62
     2
 10
-561.805675139427
 20
-66.400438767478
 30
0.0
 11
-561.805675139427
 21
-64.440438729331
 31
0.0
  0
LINE
  5
   3B6
  8
0
  6
CONTINUOUS
 62
     2
 10
-561.805675139427
 20
-67.8704387960881
 30
0.0
 11
-561.805675139427
 21
-67.6254387913198
 31
0.0
  0
LINE
  5
   3B7
  8
0
  6
CONTINUOUS
 62
     1
 10
-561.805675139427
 20
-63.9504387197942
 30
0.0
 11
-561.805675139427
 21
-63.2154387054891
 31
0.0
  0
LINE
  5
   3B8
  8
0
  6
CONTINUOUS
 62
     1
 10
-561.805675139427
 20
-67.6254387913198
 30
0.0
 11
-561.805675139427
 21
-66.8904387770147
 31
0.0
  0
LINE
  5
   3B9
  8
0
  6
CONTINUOUS
 62
     2
 10
-552.495674958229
 20
-67.8704387960881
 30
0.0
 11
-552.495674958229
 21
-62.9704387007207
 31
0.0
  0
LINE
  5
   3BA
  8
0
  6
CONTINUOUS
 62
     2
 10
-552.985674967765
 20
-68.3604388056249
 30
0.0
 11
-561.31567512989
 21
-68.3604388056249
 31
0.0
  0
LINE
  5
   3BB
  8
0
  6
CONTINUOUS
 62
     2
 10
-552.985674967765
 20
-62.480438691184
 30
0.0
 11
-561.31567512989
 21
-62.480438691184
 31
0.0
  0
LINE
  5
   3BC
  8
0
  6
CONTINUOUS
 62
     5
 10
-560.286675109863
 20
-70.3204388437719
 30
0.0
 11
-560.286675109863
 21
-68.3604388056249
 31
0.0
  0
LINE
  5
   3BD
  8
0
  6
CONTINUOUS
 62
     5
 10
-558.326675071716
 20
-70.3204388437719
 30
0.0
 11
-558.326675071716
 21
-68.3604388056249
 31
0.0
  0
LINE
  5
   3BE
  8
0
  6
CONTINUOUS
 62
     5
 10
-555.876675024032
 20
-69.3404388246984
 30
0.0
 11
-555.876675024032
 21
-68.3604388056249
 31
0.0
  0
LINE
  5
   3BF
  8
0
  6
CONTINUOUS
 62
     2
 10
-552.985674967765
 20
-68.3604388056248
 30
0.0
 11
-552.495674958229
 21
-67.8704387960881
 31
0.0
  0
LINE
  5
   3C0
  8
0
  6
CONTINUOUS
 62
     2
 10
-552.495674958229
 20
-62.9704387007207
 30
0.0
 11
-552.985674967765
 21
-62.4804386911839
 31
0.0
  0
LINE
  5
   3C1
  8
0
  6
CONTINUOUS
 62
     2
 10
-561.805675139427
 20
-62.9704387007207
 30
0.0
 11
-561.31567512989
 21
-62.480438691184
 31
0.0
  0
LINE
  5
   3C2
  8
0
  6
CONTINUOUS
 62
     2
 10
-561.31567512989
 20
-68.3604388056249
 30
0.0
 11
-561.805675139427
 21
-67.8704387960881
 31
0.0
  0
LINE
  5
   3C3
  8
0
  6
CONTINUOUS
 62
     2
 10
-552.985674967765
 20
-68.3604388056249
 30
0.0
 11
-552.985674967765
 21
-62.480438691184
 31
0.0
  0
LINE
  5
   3C4
  8
0
  6
CONTINUOUS
 62
     7
 10
-552.618174960613
 20
-67.9929387984723
 30
0.0
 11
-561.683175137042
 21
-67.9929387984723
 31
0.0
  0
LINE
  5
   3C5
  8
0
  6
CONTINUOUS
 62
     7
 10
-552.618174960611
 20
-62.8479386983383
 30
0.0
 11
-561.683175137038
 21
-62.8479386983383
 31
0.0
  0
LINE
  5
   3C6
  8
0
  6
CONTINUOUS
 62
     2
 10
-561.805675139427
 20
-63.2154387054891
 30
0.0
 11
-561.805675139427
 21
-62.9704387007207
 31
0.0
  0
ARC
  5
   3C7
  8
0
  6
CONTINUOUS
 62
     2
 10
-563.520675172805
 20
-66.6454387722463
 30
0.0
 40
0.245000004768372
 50
89.9999999480344
 51
179.999999948034
  0
ARC
  5
   3C8
  8
0
  6
CONTINUOUS
 62
     2
 10
-563.520675172805
 20
-64.1954387245626
 30
0.0
 40
0.245000004768372
 50
179.999999948034
 51
269.999999948034
  0
LINE
  5
   3C9
  8
0
  6
CONTINUOUS
 62
     5
 10
-560.286675109863
 20
-68.3604388056249
 30
0.0
 11
-560.286675109863
 21
-67.8704387960881
 31
0.0
  0
LINE
  5
   3CA
  8
0
  6
CONTINUOUS
 62
     7
 10
-560.649267966126
 20
-68.7267405439676
 30
0.0
 11
-560.649267966126
 21
-62.236635087135
 31
0.0
  0
LINE
  5
   3CB
  8
0
  6
CONTINUOUS
 62
     7
 10
-559.796675100326
 20
-68.3604388056249
 30
0.0
 11
-560.286675109863
 21
-68.3604388056249
 31
0.0
  0
LINE
  5
   3CC
  8
0
  6
CONTINUOUS
 62
     7
 10
-559.796675100326
 20
-62.480438691184
 30
0.0
 11
-560.286675109863
 21
-62.480438691184
 31
0.0
  0
LINE
  5
   3CD
  8
0
  6
CONTINUOUS
 62
     3
 10
-570.331675305366
 20
-60.520438653037
 30
0.0
 11
-570.331675305366
 21
-57.825391517034
 31
0.0
  0
LINE
  5
   3CE
  8
0
  6
DASHDOT
 62
     7
 10
-544.683375778796
 20
-65.4204387484045
 30
0.0
 11
-573.850653916714
 21
-65.4204387484045
 31
0.0
  0
LINE
  5
   3CF
  8
0
  6
CONTINUOUS
 62
     3
 10
-570.331675305366
 20
-60.520438653037
 30
0.0
 11
-572.78167535305
 21
-60.520438653037
 31
0.0
  0
LINE
  5
   3D0
  8
0
  6
CONTINUOUS
 62
     3
 10
-570.331675305366
 20
-70.3204388437719
 30
0.0
 11
-572.78167535305
 21
-70.3204388437719
 31
0.0
  0
LINE
  5
   3D1
  8
0
  6
CONTINUOUS
 62
     3
 10
-570.331675305366
 20
-67.4294387875051
 30
0.0
 11
-572.78167535305
 21
-67.4294387875051
 31
0.0
  0
LINE
  5
   3D2
  8
0
  6
CONTINUOUS
 62
     3
 10
-570.331675305366
 20
-63.4114387093038
 30
0.0
 11
-572.78167535305
 21
-63.4114387093038
 31
0.0
  0
LINE
  5
   3D3
  8
0
  6
CONTINUOUS
 62
     3
 10
-572.78167535305
 20
-70.3204388437719
 30
0.0
 11
-572.78167535305
 21
-67.3804387865515
 31
0.0
  0
LINE
  5
   3D4
  8
0
  6
CONTINUOUS
 62
     7
 10
-569.584135389911
 20
-61.7781222667336
 30
0.0
 11
-573.608238158851
 21
-61.7781222667336
 31
0.0
  0
INSERT
  5
   3D5
  8
0
  6
CONTINUOUS
 62
     7
  2
*HATCH128
 10
-513.246704101563
 20
-48.6316223144531
 30
0.0
 41
0.490000009536743
 42
0.490000009536743
 50
89.9999999480344
 43
0.490000009536743
  0
INSERT
  5
   3D6
  8
0
  6
CONTINUOUS
 62
     7
  2
*HATCH129
 10
-513.246704101563
 20
-48.6316223144531
 30
0.0
 41
0.490000009536743
 42
0.490000009536743
 50
89.9999999480344
 43
0.490000009536743
  0
LINE
  5
   3D7
  8
0
  6
CONTINUOUS
 62
     3
 10
-572.78167535305
 20
-63.4604387102575
 30
0.0
 11
-572.78167535305
 21
-57.825389496278
 31
0.0
  0
LINE
  5
   3D8
  8
0
  6
CONTINUOUS
 62
     7
 10
-574.916174288529
 20
-77.943893745271
 30
0.0
 11
-574.916174288529
 21
-56.9220960606044
 31
0.0
  0
INSERT
  5
   3D9
  8
0
  6
CONTINUOUS
 62
     7
  2
*HATCH130
 10
-513.246704101563
 20
-48.6316223144531
 30
0.0
 41
0.490000009536743
 42
0.490000009536743
 50
89.9999999480344
 43
0.490000009536743
  0
INSERT
  5
   3DA
  8
0
  6
CONTINUOUS
 62
     7
  2
*HATCH131
 10
-513.246704101563
 20
-48.6316223144531
 30
0.0
 41
0.490000009536743
 42
0.490000009536743
 50
89.9999999480344
 43
0.490000009536743
  0
INSERT
  5
   3DB
  8
0
  6
CONTINUOUS
 62
     7
  2
*HATCH132
 10
-513.246704101563
 20
-48.6316223144531
 30
0.0
 41
0.490000009536743
 42
0.490000009536743
 50
89.9999999480344
 43
0.490000009536743
  0
INSERT
  5
   3DC
  8
0
  6
CONTINUOUS
 62
     7
  2
*HATCH133
 10
-513.246704101563
 20
-48.6316223144531
 30
0.0
 41
0.490000009536743
 42
0.490000009536743
 50
89.9999999480344
 43
0.490000009536743
  0
INSERT
  5
   3DD
  8
0
  6
CONTINUOUS
 62
     7
  2
*HATCH134
 10
-513.246704101563
 20
-48.6316223144531
 30
0.0
 41
0.490000009536743
 42
0.490000009536743
 50
89.9999999480344
 43
0.490000009536743
  0
INSERT
  5
   3DE
  8
0
  6
CONTINUOUS
 62
     7
  2
*HATCH135
 10
-513.246704101563
 20
-48.6316223144531
 30
0.0
 41
0.490000009536743
 42
0.490000009536743
 50
89.9999999480344
 43
0.490000009536743
  0
LINE
  5
   3DF
  8
0
  6
CONTINUOUS
 62
   130
 10
-549.016712274548
 20
-76.8129089619466
 30
0.0
 11
-549.016712274548
 21
-59.9079086329232
 31
0.0
  0
LINE
  5
   3E0
  8
0
  6
CONTINUOUS
 62
   130
 10
-550.241712298389
 20
-76.4454084496049
 30
0.0
 11
-550.241712298389
 21
-60.2754081348869
 31
0.0
  0
LINE
  5
   3E1
  8
0
  6
CONTINUOUS
 62
   130
 10
-549.629211781279
 20
-59.2954386291618
 30
0.0
 11
-563.71671256065
 21
-59.2954386291618
 31
0.0
  0
LINE
  5
   3E2
  8
0
  6
CONTINUOUS
 62
   130
 10
-550.241712298389
 20
-60.275438648235
 30
0.0
 11
-564.696712579723
 21
-60.275438648235
 31
0.0
  0
LINE
  5
   3E3
  8
0
  6
CONTINUOUS
 62
   130
 10
-563.71671256065
 20
-59.2953970016551
 30
0.0
 11
-563.71671256065
 21
-57.8253740282579
 31
0.0
  0
LINE
  5
   3E4
  8
0
  6
CONTINUOUS
 62
   130
 10
-564.696712579723
 20
-60.2753962124265
 30
0.0
 11
-564.696712579723
 21
-58.8053754067513
 31
0.0
  0
LINE
  5
   3E5
  8
0
  6
CONTINUOUS
 62
   130
 10
-570.08667530496
 20
-58.805382883504
 30
0.0
 11
-564.696712578169
 21
-58.8053754067513
 31
0.0
  0
LINE
  5
   3E6
  8
0
  6
CONTINUOUS
 62
   130
 10
-549.629212791658
 20
-77.4254389820152
 30
0.0
 11
-563.373675169944
 21
-77.4254389820152
 31
0.0
  0
ARC
  5
   3E7
  8
0
  6
CONTINUOUS
 62
   130
 10
-549.629212286469
 20
-76.8129089619466
 30
0.0
 40
0.612500011920929
 50
269.99995269057
 51
359.999999948034
  0
LINE
  5
   3E8
  8
0
  6
CONTINUOUS
 62
   130
 10
-550.241712298389
 20
-76.445438962942
 30
0.0
 11
-563.373675169944
 21
-76.445438962942
 31
0.0
  0
LINE
  5
   3E9
  8
0
  6
CONTINUOUS
 62
   130
 10
-550.731694823147
 20
-75.4654389438688
 30
0.0
 11
-563.373675169944
 21
-75.4654389438688
 31
0.0
  0
LINE
  5
   3EA
  8
0
  6
CONTINUOUS
 62
   130
 10
-551.711694842221
 20
-77.4254026085008
 30
0.0
 11
-551.711694842221
 21
-76.4454025894269
 31
0.0
  0
LINE
  5
   3EB
  8
0
  6
CONTINUOUS
 62
   130
 10
-550.241712298389
 20
-74.4854389247957
 30
0.0
 11
-563.373675169944
 21
-74.4854389247957
 31
0.0
  0
LINE
  5
   3EC
  8
0
  6
CONTINUOUS
 62
   130
 10
-550.731694823147
 20
-76.4454033977293
 30
0.0
 11
-550.731694823147
 21
-75.4654033786555
 31
0.0
  0
LINE
  5
   3ED
  8
0
  6
CONTINUOUS
 62
   130
 10
-587.236705541611
 20
-77.4253779552694
 30
0.0
 11
-587.236705541611
 21
-59.2953776024037
 31
0.0
  0
LINE
  5
   3EE
  8
0
  6
CONTINUOUS
 62
   130
 10
-570.086675300598
 20
-58.805382883504
 30
0.0
 11
-570.086675300598
 21
-57.8253917191096
 31
0.0
  0
ARC
  5
   3EF
  8
0
  6
CONTINUOUS
 62
   130
 10
-549.629212286468
 20
-59.9079086329232
 30
0.0
 40
0.612500011920929
 50
359.999999948034
 51
449.99995269057
  0
LINE
  5
   3F0
  8
0
  6
CONTINUOUS
 62
   130
 10
-554.896712388988
 20
-60.2754042954505
 30
0.0
 11
-554.896712388988
 21
-60.030404290682
 31
0.0
  0
LINE
  5
   3F1
  8
0
  6
CONTINUOUS
 62
   130
 10
-554.896712388988
 20
-60.0304386434666
 30
0.0
 11
-564.696712579723
 21
-60.0304386434666
 31
0.0
  0
LINE
  5
   3F2
  8
0
  6
CONTINUOUS
 62
     1
 10
-564.25567518711
 20
-69.5854388294668
 30
0.0
 11
-564.25567518711
 21
-61.2554386673422
 31
0.0
  0
LINE
  5
   3F3
  8
0
  6
CONTINUOUS
 62
     1
 10
-563.765675177574
 20
-68.8504388151617
 30
0.0
 11
-564.25567518711
 21
-68.8504388151617
 31
0.0
  0
LINE
  5
   3F4
  8
0
  6
CONTINUOUS
 62
     1
 10
-563.765675177574
 20
-67.8704387960882
 30
0.0
 11
-564.25567518711
 21
-67.8704387960882
 31
0.0
  0
LINE
  5
   3F5
  8
0
  6
CONTINUOUS
 62
     1
 10
-563.765675177574
 20
-62.9704387007201
 30
0.0
 11
-564.25567518711
 21
-62.9704387007201
 31
0.0
  0
LINE
  5
   3F6
  8
0
  6
CONTINUOUS
 62
     1
 10
-563.765675177574
 20
-61.9904386816473
 30
0.0
 11
-564.25567518711
 21
-61.9904386816473
 31
0.0
  0
INSERT
  5
   3F7
  8
0
  6
CONTINUOUS
 62
     7
  2
*HATCH136
 10
-513.246704101563
 20
-48.6316223144531
 30
0.0
 41
0.490000009536743
 42
0.490000009536743
 50
89.9999999480344
 43
0.490000009536743
  0
LINE
  5
   3F8
  8
0
  6
CONTINUOUS
 62
   130
 10
-587.236705541611
 20
-59.2953776024037
 30
0.0
 11
-581.846712913509
 21
-57.82538201945
 31
0.0
  0
LINE
  5
   3F9
  8
0
  6
CONTINUOUS
 62
     7
 10
-581.846712913509
 20
-59.2953820480607
 30
0.0
 11
-581.846712913509
 21
-58.8053820385238
 31
0.0
  0
LINE
  5
   3FA
  8
0
  6
CONTINUOUS
 62
     7
 10
-574.916174288529
 20
-59.2954386291618
 30
0.0
 11
-581.846712913509
 21
-59.2954386291618
 31
0.0
  0
LINE
  5
   3FB
  8
0
  6
CONTINUOUS
 62
     7
 10
-574.916173884378
 20
-58.8054386196253
 30
0.0
 11
-581.846712509358
 21
-58.8054386196253
 31
0.0
  0
LINE
  5
   3FC
  8
0
  6
CONTINUOUS
 62
   130
 10
-571.213675322532
 20
-74.4854389247957
 30
0.0
 11
-574.916174288529
 21
-74.4854389247957
 31
0.0
  0
LINE
  5
   3FD
  8
0
  6
CONTINUOUS
 62
   130
 10
-571.213675322532
 20
-75.4654389438688
 30
0.0
 11
-574.916174288529
 21
-75.4654389438688
 31
0.0
  0
LINE
  5
   3FE
  8
0
  6
CONTINUOUS
 62
   130
 10
-571.213675322532
 20
-76.445438962942
 30
0.0
 11
-574.916174288529
 21
-76.445438962942
 31
0.0
  0
LINE
  5
   3FF
  8
0
  6
CONTINUOUS
 62
   130
 10
-571.213675322532
 20
-77.4254389820152
 30
0.0
 11
-587.236705541611
 21
-77.4254389820152
 31
0.0
  0
LINE
  5
   400
  8
0
  6
CONTINUOUS
 62
   218
 10
-564.25567518711
 20
-71.7904388723822
 30
0.0
 11
-564.25567518711
 21
-60.5204386530371
 31
0.0
  0
LINE
  5
   401
  8
0
  6
CONTINUOUS
 62
   218
 10
-570.331675305366
 20
-71.7904388723822
 30
0.0
 11
-570.331675305366
 21
-60.5204386530371
 31
0.0
  0
LINE
  5
   402
  8
0
  6
CONTINUOUS
 62
   218
 10
-564.25567518711
 20
-60.5204386530371
 30
0.0
 11
-570.331675305366
 21
-60.5204386530371
 31
0.0
  0
LINE
  5
   403
  8
0
  6
CONTINUOUS
 62
   218
 10
-563.373675169944
 20
-71.7904388723822
 30
0.0
 11
-571.213675322532
 21
-71.7904388723822
 31
0.0
  0
LINE
  5
   404
  8
0
  6
DASHDOT
 62
   218
 10
-567.293675246238
 20
-81.890397048743
 30
0.0
 11
-567.293675246238
 21
-58.0404183288507
 31
0.0
  0
LINE
  5
   405
  8
0
  6
CONTINUOUS
 62
   218
 10
-571.213675322532
 20
-80.9103970296695
 30
0.0
 11
-571.213675322532
 21
-71.7904388723822
 31
0.0
  0
LINE
  5
   406
  8
0
  6
CONTINUOUS
 62
   218
 10
-563.373675169944
 20
-80.9103970296695
 30
0.0
 11
-563.373675169944
 21
-71.7904388723822
 31
0.0
  0
LINE
  5
   407
  8
0
  6
CONTINUOUS
 62
   218
 10
-565.306470134977
 20
-71.7904388723822
 30
0.0
 11
-567.293675246238
 21
-60.5204386530371
 31
0.0
  0
POLYLINE
  5
   408
  8
0
  6
CONTINUOUS
 62
   218
 66
     1
 10
0.0
 20
0.0
 30
0.0
 70
     1
  0
VERTEX
  5
   409
  8
0
  6
CONTINUOUS
 10
-571.213675322532
 20
-80.9103970296719
 30
0.0
 40
0.0
 41
0.0
  0
VERTEX
  5
   40A
  8
0
  6
CONTINUOUS
 10
-571.213085007165
 20
-80.9344474340925
 30
0.0
 40
0.0
 41
0.0
  0
VERTEX
  5
   40B
  8
0
  6
CONTINUOUS
 10
-571.211314416648
 20
-80.9584833514487
 30
0.0
 40
0.0
 41
0.0
  0
VERTEX
  5
   40C
  8
0
  6
CONTINUOUS
 10
-571.208364617519
 20
-80.9824903034027
 30
0.0
 40
0.0
 41
0.0
  0
VERTEX
  5
   40D
  8
0
  6
CONTINUOUS
 10
-571.204237386626
 20
-81.0064538290644
 30
0.0
 40
0.0
 41
0.0
  0
VERTEX
  5
   40E
  8
0
  6
CONTINUOUS
 10
-571.198935210059
 20
-81.0303594937019
 30
0.0
 40
0.0
 41
0.0
  0
VERTEX
  5
   40F
  8
0
  6
CONTINUOUS
 10
-571.19246128165
 20
-81.0541928974368
 30
0.0
 40
0.0
 41
0.0
  0
VERTEX
  5
   410
  8
0
  6
CONTINUOUS
 10
-571.184819501053
 20
-81.0779396839178
 30
0.0
 40
0.0
 41
0.0
  0
VERTEX
  5
   411
  8
0
  6
CONTINUOUS
 10
-571.176014471389
 20
-81.1015855489687
 30
0.0
 40
0.0
 41
0.0
  0
VERTEX
  5
   412
  8
0
  6
CONTINUOUS
 10
-571.166051496481
 20
-81.1251162492046
 30
0.0
 40
0.0
 41
0.0
  0
VERTEX
  5
   413
  8
0
  6
CONTINUOUS
 10
-571.15493657765
 20
-81.1485176106115
 30
0.0
 40
0.0
 41
0.0
  0
VERTEX
  5
   414
  8
0
  6
CONTINUOUS
 10
-571.142676410109
 20
-81.1717755370844
 30
0.0
 40
0.0
 41
0.0
  0
VERTEX
  5
   415
  8
0
  6
CONTINUOUS
 10
-571.129278378924
 20
-81.1948760189179
 30
0.0
 40
0.0
 41
0.0
  0
VERTEX
  5
   416
  8
0
  6
CONTINUOUS
 10
-571.114750554569
 20
-81.2178051412457
 30
0.0
 40
0.0
 41
0.0
  0
VERTEX
  5
   417
  8
0
  6
CONTINUOUS
 10
-571.099101688061
 20
-81.2405490924218
 30
0.0
 40
0.0
 41
0.0
  0
VERTEX
  5
   418
  8
0
  6
CONTINUOUS
 10
-571.082341205692
 20
-81.2630941723405
 30
0.0
 40
0.0
 41
0.0
  0
VERTEX
  5
   419
  8
0
  6
CONTINUOUS
 10
-571.06447920335
 20
-81.2854268006886
 30
0.0
 40
0.0
 41
0.0
  0
VERTEX
  5
   41A
  8
0
  6
CONTINUOUS
 10
-571.025494333391
 20
-81.3294010293883
 30
0.0
 40
0.0
 41
0.0
  0
VERTEX
  5
   41B
  8
0
  6
CONTINUOUS
 10
-570.98224099615
 20
-81.3723658407523
 30
0.0
 40
0.0
 41
0.0
  0
VERTEX
  5
   41C
  8
0
  6
CONTINUOUS
 10
-570.934823392705
 20
-81.4142177287867
 30
0.0
 40
0.0
 41
0.0
  0
VERTEX
  5
   41D
  8
0
  6
CONTINUOUS
 10
-570.883355756215
 20
-81.4548558686274
 30
0.0
 40
0.0
 41
0.0
  0
VERTEX
  5
   41E
  8
0
  6
CONTINUOUS
 10
-570.827962076726
 20
-81.4941823594361
 30
0.0
 40
0.0
 41
0.0
  0
VERTEX
  5
   41F
  8
0
  6
CONTINUOUS
 10
-570.768775802463
 20
-81.5321024602518
 30
0.0
 40
0.0
 41
0.0
  0
VERTEX
  5
   420
  8
0
  6
CONTINUOUS
 10
-570.705939518345
 20
-81.5685248182303
 30
0.0
 40
0.0
 41
0.0
  0
VERTEX
  5
   421
  8
0
  6
CONTINUOUS
 10
-570.639604602484
 20
-81.603361688721
 30
0.0
 40
0.0
 41
0.0
  0
VERTEX
  5
   422
  8
0
  6
CONTINUOUS
 10
-570.569930861502
 20
-81.6365291466515
 30
0.0
 40
0.0
 41
0.0
  0
VERTEX
  5
   423
  8
0
  6
CONTINUOUS
 10
-570.497086145545
 20
-81.6679472887105
 30
0.0
 40
0.0
 41
0.0
  0
VERTEX
  5
   424
  8
0
  6
CONTINUOUS
 10
-570.421245943913
 20
-81.6975404258419
 30
0.0
 40
0.0
 41
0.0
  0
VERTEX
  5
   425
  8
0
  6
CONTINUOUS
 10
-570.342592962296
 20
-81.7252372655864
 30
0.0
 40
0.0
 41
0.0
  0
VERTEX
  5
   426
  8
0
  6
CONTINUOUS
 10
-570.261316682614
 20
-81.7509710838309
 30
0.0
 40
0.0
 41
0.0
  0
VERTEX
  5
   427
  8
0
  6
CONTINUOUS
 10
-570.177612906545
 20
-81.7746798855533
 30
0.0
 40
0.0
 41
0.0
  0
VERTEX
  5
   428
  8
0
  6
CONTINUOUS
 10
-570.091683283817
 20
-81.7963065541737
 30
0.0
 40
0.0
 41
0.0
  0
VERTEX
  5
   429
  8
0
  6
CONTINUOUS
 10
-570.003734826418
 20
-81.8157989891531
 30
0.0
 40
0.0
 41
0.0
  0
VERTEX
  5
   42A
  8
0
  6
CONTINUOUS
 10
-569.913979409884
 20
-81.8331102315082
 30
0.0
 40
0.0
 41
0.0
  0
VERTEX
  5
   42B
  8
0
  6
CONTINUOUS
 10
-569.822633262876
 20
-81.8481985769399
 30
0.0
 40
0.0
 41
0.0
  0
VERTEX
  5
   42C
  8
0
  6
CONTINUOUS
 10
-569.729916446263
 20
-81.8610276763026
 30
0.0
 40
0.0
 41
0.0
  0
VERTEX
  5
   42D
  8
0
  6
CONTINUOUS
 10
-569.636052322978
 20
-81.8715666231721
 30
0.0
 40
0.0
 41
0.0
  0
VERTEX
  5
   42E
  8
0
  6
CONTINUOUS
 10
-569.541267019914
 20
-81.8797900283024
 30
0.0
 40
0.0
 41
0.0
  0
VERTEX
  5
   42F
  8
0
  6
CONTINUOUS
 10
-569.445788883169
 20
-81.8856780807901
 30
0.0
 40
0.0
 41
0.0
  0
VERTEX
  5
   430
  8
0
  6
CONTINUOUS
 10
-569.349847927937
 20
-81.8892165958012
 30
0.0
 40
0.0
 41
0.0
  0
VERTEX
  5
   431
  8
0
  6
CONTINUOUS
 10
-569.253675284384
 20
-81.890397048743
 30
0.0
 40
0.0
 41
0.0
  0
VERTEX
  5
   432
  8
0
  6
CONTINUOUS
 10
-569.15750264083
 20
-81.8892165958009
 30
0.0
 40
0.0
 41
0.0
  0
VERTEX
  5
   433
  8
0
  6
CONTINUOUS
 10
-569.061561685599
 20
-81.8856780807896
 30
0.0
 40
0.0
 41
0.0
  0
VERTEX
  5
   434
  8
0
  6
CONTINUOUS
 10
-568.966083548854
 20
-81.8797900283016
 30
0.0
 40
0.0
 41
0.0
  0
VERTEX
  5
   435
  8
0
  6
CONTINUOUS
 10
-568.87129824579
 20
-81.8715666231711
 30
0.0
 40
0.0
 41
0.0
  0
VERTEX
  5
   436
  8
0
  6
CONTINUOUS
 10
-568.777434122505
 20
-81.8610276763014
 30
0.0
 40
0.0
 41
0.0
  0
VERTEX
  5
   437
  8
0
  6
CONTINUOUS
 10
-568.684717305892
 20
-81.8481985769385
 30
0.0
 40
0.0
 41
0.0
  0
VERTEX
  5
   438
  8
0
  6
CONTINUOUS
 10
-568.593371158884
 20
-81.8331102315065
 30
0.0
 40
0.0
 41
0.0
  0
VERTEX
  5
   439
  8
0
  6
CONTINUOUS
 10
-568.50361574235
 20
-81.8157989891512
 30
0.0
 40
0.0
 41
0.0
  0
VERTEX
  5
   43A
  8
0
  6
CONTINUOUS
 10
-568.415667284951
 20
-81.7963065541716
 30
0.0
 40
0.0
 41
0.0
  0
VERTEX
  5
   43B
  8
0
  6
CONTINUOUS
 10
-568.329737662223
 20
-81.774679885551
 30
0.0
 40
0.0
 41
0.0
  0
VERTEX
  5
   43C
  8
0
  6
CONTINUOUS
 10
-568.246033886154
 20
-81.7509710838283
 30
0.0
 40
0.0
 41
0.0
  0
VERTEX
  5
   43D
  8
0
  6
CONTINUOUS
 10
-568.164757606472
 20
-81.7252372655836
 30
0.0
 40
0.0
 41
0.0
  0
VERTEX
  5
   43E
  8
0
  6
CONTINUOUS
 10
-568.086104624855
 20
-81.697540425839
 30
0.0
 40
0.0
 41
0.0
  0
VERTEX
  5
   43F
  8
0
  6
CONTINUOUS
 10
-568.010264423223
 20
-81.6679472887074
 30
0.0
 40
0.0
 41
0.0
  0
VERTEX
  5
   440
  8
0
  6
CONTINUOUS
 10
-567.937419707266
 20
-81.6365291466482
 30
0.0
 40
0.0
 41
0.0
  0
VERTEX
  5
   441
  8
0
  6
CONTINUOUS
 10
-567.867745966285
 20
-81.6033616887175
 30
0.0
 40
0.0
 41
0.0
  0
VERTEX
  5
   442
  8
0
  6
CONTINUOUS
 10
-567.801411050424
 20
-81.5685248182267
 30
0.0
 40
0.0
 41
0.0
  0
VERTEX
  5
   443
  8
0
  6
CONTINUOUS
 10
-567.738574766306
 20
-81.532102460248
 30
0.0
 40
0.0
 41
0.0
  0
VERTEX
  5
   444
  8
0
  6
CONTINUOUS
 10
-567.679388492042
 20
-81.4941823594321
 30
0.0
 40
0.0
 41
0.0
  0
VERTEX
  5
   445
  8
0
  6
CONTINUOUS
 10
-567.623994812553
 20
-81.4548558686233
 30
0.0
 40
0.0
 41
0.0
  0
VERTEX
  5
   446
  8
0
  6
CONTINUOUS
 10
-567.572527176064
 20
-81.4142177287824
 30
0.0
 40
0.0
 41
0.0
  0
VERTEX
  5
   447
  8
0
  6
CONTINUOUS
 10
-567.525109572619
 20
-81.372365840748
 30
0.0
 40
0.0
 41
0.0
  0
VERTEX
  5
   448
  8
0
  6
CONTINUOUS
 10
-567.481856235378
 20
-81.3294010293839
 30
0.0
 40
0.0
 41
0.0
  0
VERTEX
  5
   449
  8
0
  6
CONTINUOUS
 10
-567.442871365419
 20
-81.2854268006841
 30
0.0
 40
0.0
 41
0.0
  0
VERTEX
  5
   44A
  8
0
  6
CONTINUOUS
 10
-567.425009363078
 20
-81.2630941723359
 30
0.0
 40
0.0
 41
0.0
  0
VERTEX
  5
   44B
  8
0
  6
CONTINUOUS
 10
-567.408248880709
 20
-81.2405490924172
 30
0.0
 40
0.0
 41
0.0
  0
VERTEX
  5
   44C
  8
0
  6
CONTINUOUS
 10
-567.392600014201
 20
-81.217805141241
 30
0.0
 40
0.0
 41
0.0
  0
VERTEX
  5
   44D
  8
0
  6
CONTINUOUS
 10
-567.378072189845
 20
-81.1948760189132
 30
0.0
 40
0.0
 41
0.0
  0
VERTEX
  5
   44E
  8
0
  6
CONTINUOUS
 10
-567.364674158661
 20
-81.1717755370796
 30
0.0
 40
0.0
 41
0.0
  0
VERTEX
  5
   44F
  8
0
  6
CONTINUOUS
 10
-567.35241399112
 20
-81.1485176106068
 30
0.0
 40
0.0
 41
0.0
  0
VERTEX
  5
   450
  8
0
  6
CONTINUOUS
 10
-567.341299072289
 20
-81.1251162491998
 30
0.0
 40
0.0
 41
0.0
  0
VERTEX
  5
   451
  8
0
  6
CONTINUOUS
 10
-567.331336097381
 20
-81.1015855489639
 30
0.0
 40
0.0
 41
0.0
  0
VERTEX
  5
   452
  8
0
  6
CONTINUOUS
 10
-567.322531067717
 20
-81.077939683913
 30
0.0
 40
0.0
 41
0.0
  0
VERTEX
  5
   453
  8
0
  6
CONTINUOUS
 10
-567.31488928712
 20
-81.0541928974319
 30
0.0
 40
0.0
 41
0.0
  0
VERTEX
  5
   454
  8
0
  6
CONTINUOUS
 10
-567.308415358711
 20
-81.030359493697
 30
0.0
 40
0.0
 41
0.0
  0
VERTEX
  5
   455
  8
0
  6
CONTINUOUS
 10
-567.303113182144
 20
-81.0064538290595
 30
0.0
 40
0.0
 41
0.0
  0
VERTEX
  5
   456
  8
0
  6
CONTINUOUS
 10
-567.298985951251
 20
-80.9824903033978
 30
0.0
 40
0.0
 41
0.0
  0
VERTEX
  5
   457
  8
0
  6
CONTINUOUS
 10
-567.296036152122
 20
-80.9584833514438
 30
0.0
 40
0.0
 41
0.0
  0
VERTEX
  5
   458
  8
0
  6
CONTINUOUS
 10
-567.294265561605
 20
-80.9344474340875
 30
0.0
 40
0.0
 41
0.0
  0
VERTEX
  5
   459
  8
0
  6
CONTINUOUS
 10
-567.293675246238
 20
-80.910397029667
 30
0.0
 40
0.0
 41
0.0
  0
VERTEX
  5
   45A
  8
0
  6
CONTINUOUS
 10
-567.294265561605
 20
-80.8863466252465
 30
0.0
 40
0.0
 41
0.0
  0
VERTEX
  5
   45B
  8
0
  6
CONTINUOUS
 10
-567.296036152122
 20
-80.8623107078902
 30
0.0
 40
0.0
 41
0.0
  0
VERTEX
  5
   45C
  8
0
  6
CONTINUOUS
 10
-567.298985951251
 20
-80.8383037559362
 30
0.0
 40
0.0
 41
0.0
  0
VERTEX
  5
   45D
  8
0
  6
CONTINUOUS
 10
-567.303113182145
 20
-80.8143402302745
 30
0.0
 40
0.0
 41
0.0
  0
VERTEX
  5
   45E
  8
0
  6
CONTINUOUS
 10
-567.308415358712
 20
-80.790434565637
 30
0.0
 40
0.0
 41
0.0
  0
VERTEX
  5
   45F
  8
0
  6
CONTINUOUS
 10
-567.31488928712
 20
-80.7666011619021
 30
0.0
 40
0.0
 41
0.0
  0
VERTEX
  5
   460
  8
0
  6
CONTINUOUS
 10
-567.322531067718
 20
-80.7428543754211
 30
0.0
 40
0.0
 41
0.0
  0
VERTEX
  5
   461
  8
0
  6
CONTINUOUS
 10
-567.331336097381
 20
-80.7192085103702
 30
0.0
 40
0.0
 41
0.0
  0
VERTEX
  5
   462
  8
0
  6
CONTINUOUS
 10
-567.34129907229
 20
-80.6956778101343
 30
0.0
 40
0.0
 41
0.0
  0
VERTEX
  5
   463
  8
0
  6
CONTINUOUS
 10
-567.35241399112
 20
-80.6722764487274
 30
0.0
 40
0.0
 41
0.0
  0
VERTEX
  5
   464
  8
0
  6
CONTINUOUS
 10
-567.364674158661
 20
-80.6490185222546
 30
0.0
 40
0.0
 41
0.0
  0
VERTEX
  5
   465
  8
0
  6
CONTINUOUS
 10
-567.378072189846
 20
-80.625918040421
 30
0.0
 40
0.0
 41
0.0
  0
VERTEX
  5
   466
  8
0
  6
CONTINUOUS
 10
-567.392600014202
 20
-80.6029889180932
 30
0.0
 40
0.0
 41
0.0
  0
VERTEX
  5
   467
  8
0
  6
CONTINUOUS
 10
-567.40824888071
 20
-80.5802449669171
 30
0.0
 40
0.0
 41
0.0
  0
VERTEX
  5
   468
  8
0
  6
CONTINUOUS
 10
-567.425009363079
 20
-80.5576998869984
 30
0.0
 40
0.0
 41
0.0
  0
VERTEX
  5
   469
  8
0
  6
CONTINUOUS
 10
-567.44287136542
 20
-80.5353672586503
 30
0.0
 40
0.0
 41
0.0
  0
VERTEX
  5
   46A
  8
0
  6
CONTINUOUS
 10
-567.481856235379
 20
-80.4913930299506
 30
0.0
 40
0.0
 41
0.0
  0
VERTEX
  5
   46B
  8
0
  6
CONTINUOUS
 10
-567.52510957262
 20
-80.4484282185866
 30
0.0
 40
0.0
 41
0.0
  0
VERTEX
  5
   46C
  8
0
  6
CONTINUOUS
 10
-567.572527176065
 20
-80.4065763305523
 30
0.0
 40
0.0
 41
0.0
  0
VERTEX
  5
   46D
  8
0
  6
CONTINUOUS
 10
-567.623994812555
 20
-80.3659381907116
 30
0.0
 40
0.0
 41
0.0
  0
VERTEX
  5
   46E
  8
0
  6
CONTINUOUS
 10
-567.679388492044
 20
-80.3266116999028
 30
0.0
 40
0.0
 41
0.0
  0
VERTEX
  5
   46F
  8
0
  6
CONTINUOUS
 10
-567.738574766307
 20
-80.2886915990871
 30
0.0
 40
0.0
 41
0.0
  0
VERTEX
  5
   470
  8
0
  6
CONTINUOUS
 10
-567.801411050425
 20
-80.2522692411086
 30
0.0
 40
0.0
 41
0.0
  0
VERTEX
  5
   471
  8
0
  6
CONTINUOUS
 10
-567.867745966286
 20
-80.2174323706179
 30
0.0
 40
0.0
 41
0.0
  0
VERTEX
  5
   472
  8
0
  6
CONTINUOUS
 10
-567.937419707268
 20
-80.1842649126874
 30
0.0
 40
0.0
 41
0.0
  0
VERTEX
  5
   473
  8
0
  6
CONTINUOUS
 10
-568.010264423225
 20
-80.1528467706284
 30
0.0
 40
0.0
 41
0.0
  0
VERTEX
  5
   474
  8
0
  6
CONTINUOUS
 10
-568.086104624857
 20
-80.123253633497
 30
0.0
 40
0.0
 41
0.0
  0
VERTEX
  5
   475
  8
0
  6
CONTINUOUS
 10
-568.164757606474
 20
-80.0955567937526
 30
0.0
 40
0.0
 41
0.0
  0
VERTEX
  5
   476
  8
0
  6
CONTINUOUS
 10
-568.246033886156
 20
-80.069822975508
 30
0.0
 40
0.0
 41
0.0
  0
VERTEX
  5
   477
  8
0
  6
CONTINUOUS
 10
-568.329737662225
 20
-80.0461141737856
 30
0.0
 40
0.0
 41
0.0
  0
VERTEX
  5
   478
  8
0
  6
CONTINUOUS
 10
-568.415667284953
 20
-80.0244875051652
 30
0.0
 40
0.0
 41
0.0
  0
VERTEX
  5
   479
  8
0
  6
CONTINUOUS
 10
-568.503615742353
 20
-80.0049950701859
 30
0.0
 40
0.0
 41
0.0
  0
VERTEX
  5
   47A
  8
0
  6
CONTINUOUS
 10
-568.593371158886
 20
-79.9876838278308
 30
0.0
 40
0.0
 41
0.0
  0
VERTEX
  5
   47B
  8
0
  6
CONTINUOUS
 10
-568.684717305894
 20
-79.972595482399
 30
0.0
 40
0.0
 41
0.0
  0
VERTEX
  5
   47C
  8
0
  6
CONTINUOUS
 10
-568.777434122507
 20
-79.9597663830363
 30
0.0
 40
0.0
 41
0.0
  0
VERTEX
  5
   47D
  8
0
  6
CONTINUOUS
 10
-568.871298245793
 20
-79.9492274361668
 30
0.0
 40
0.0
 41
0.0
  0
VERTEX
  5
   47E
  8
0
  6
CONTINUOUS
 10
-568.966083548857
 20
-79.9410040310366
 30
0.0
 40
0.0
 41
0.0
  0
VERTEX
  5
   47F
  8
0
  6
CONTINUOUS
 10
-569.061561685601
 20
-79.9351159785488
 30
0.0
 40
0.0
 41
0.0
  0
VERTEX
  5
   480
  8
0
  6
CONTINUOUS
 10
-569.157502640833
 20
-79.9315774635378
 30
0.0
 40
0.0
 41
0.0
  0
VERTEX
  5
   481
  8
0
  6
CONTINUOUS
 10
-569.253675284386
 20
-79.930397010596
 30
0.0
 40
0.0
 41
0.0
  0
VERTEX
  5
   482
  8
0
  6
CONTINUOUS
 10
-569.34984792794
 20
-79.931577463538
 30
0.0
 40
0.0
 41
0.0
  0
VERTEX
  5
   483
  8
0
  6
CONTINUOUS
 10
-569.445788883171
 20
-79.9351159785493
 30
0.0
 40
0.0
 41
0.0
  0
VERTEX
  5
   484
  8
0
  6
CONTINUOUS
 10
-569.541267019916
 20
-79.9410040310373
 30
0.0
 40
0.0
 41
0.0
  0
VERTEX
  5
   485
  8
0
  6
CONTINUOUS
 10
-569.63605232298
 20
-79.9492274361678
 30
0.0
 40
0.0
 41
0.0
  0
VERTEX
  5
   486
  8
0
  6
CONTINUOUS
 10
-569.729916446266
 20
-79.9597663830375
 30
0.0
 40
0.0
 41
0.0
  0
VERTEX
  5
   487
  8
0
  6
CONTINUOUS
 10
-569.822633262879
 20
-79.9725954824004
 30
0.0
 40
0.0
 41
0.0
  0
VERTEX
  5
   488
  8
0
  6
CONTINUOUS
 10
-569.913979409886
 20
-79.9876838278324
 30
0.0
 40
0.0
 41
0.0
  0
VERTEX
  5
   489
  8
0
  6
CONTINUOUS
 10
-570.00373482642
 20
-80.0049950701877
 30
0.0
 40
0.0
 41
0.0
  0
VERTEX
  5
   48A
  8
0
  6
CONTINUOUS
 10
-570.09168328382
 20
-80.0244875051673
 30
0.0
 40
0.0
 41
0.0
  0
VERTEX
  5
   48B
  8
0
  6
CONTINUOUS
 10
-570.177612906548
 20
-80.0461141737879
 30
0.0
 40
0.0
 41
0.0
  0
VERTEX
  5
   48C
  8
0
  6
CONTINUOUS
 10
-570.261316682616
 20
-80.0698229755106
 30
0.0
 40
0.0
 41
0.0
  0
VERTEX
  5
   48D
  8
0
  6
CONTINUOUS
 10
-570.342592962298
 20
-80.0955567937553
 30
0.0
 40
0.0
 41
0.0
  0
VERTEX
  5
   48E
  8
0
  6
CONTINUOUS
 10
-570.421245943916
 20
-80.1232536334999
 30
0.0
 40
0.0
 41
0.0
  0
VERTEX
  5
   48F
  8
0
  6
CONTINUOUS
 10
-570.497086145547
 20
-80.1528467706315
 30
0.0
 40
0.0
 41
0.0
  0
VERTEX
  5
   490
  8
0
  6
CONTINUOUS
 10
-570.569930861504
 20
-80.1842649126907
 30
0.0
 40
0.0
 41
0.0
  0
VERTEX
  5
   491
  8
0
  6
CONTINUOUS
 10
-570.639604602486
 20
-80.2174323706214
 30
0.0
 40
0.0
 41
0.0
  0
VERTEX
  5
   492
  8
0
  6
CONTINUOUS
 10
-570.705939518347
 20
-80.2522692411122
 30
0.0
 40
0.0
 41
0.0
  0
VERTEX
  5
   493
  8
0
  6
CONTINUOUS
 10
-570.768775802465
 20
-80.2886915990909
 30
0.0
 40
0.0
 41
0.0
  0
VERTEX
  5
   494
  8
0
  6
CONTINUOUS
 10
-570.827962076728
 20
-80.3266116999068
 30
0.0
 40
0.0
 41
0.0
  0
VERTEX
  5
   495
  8
0
  6
CONTINUOUS
 10
-570.883355756217
 20
-80.3659381907156
 30
0.0
 40
0.0
 41
0.0
  0
VERTEX
  5
   496
  8
0
  6
CONTINUOUS
 10
-570.934823392706
 20
-80.4065763305565
 30
0.0
 40
0.0
 41
0.0
  0
VERTEX
  5
   497
  8
0
  6
CONTINUOUS
 10
-570.982240996151
 20
-80.448428218591
 30
0.0
 40
0.0
 41
0.0
  0
VERTEX
  5
   498
  8
0
  6
CONTINUOUS
 10
-571.025494333392
 20
-80.491393029955
 30
0.0
 40
0.0
 41
0.0
  0
VERTEX
  5
   499
  8
0
  6
CONTINUOUS
 10
-571.064479203351
 20
-80.5353672586548
 30
0.0
 40
0.0
 41
0.0
  0
VERTEX
  5
   49A
  8
0
  6
CONTINUOUS
 10
-571.082341205693
 20
-80.557699887003
 30
0.0
 40
0.0
 41
0.0
  0
VERTEX
  5
   49B
  8
0
  6
CONTINUOUS
 10
-571.099101688061
 20
-80.5802449669218
 30
0.0
 40
0.0
 41
0.0
  0
VERTEX
  5
   49C
  8
0
  6
CONTINUOUS
 10
-571.11475055457
 20
-80.6029889180979
 30
0.0
 40
0.0
 41
0.0
  0
VERTEX
  5
   49D
  8
0
  6
CONTINUOUS
 10
-571.129278378925
 20
-80.6259180404257
 30
0.0
 40
0.0
 41
0.0
  0
VERTEX
  5
   49E
  8
0
  6
CONTINUOUS
 10
-571.14267641011
 20
-80.6490185222593
 30
0.0
 40
0.0
 41
0.0
  0
VERTEX
  5
   49F
  8
0
  6
CONTINUOUS
 10
-571.154936577651
 20
-80.6722764487322
 30
0.0
 40
0.0
 41
0.0
  0
VERTEX
  5
   4A0
  8
0
  6
CONTINUOUS
 10
-571.166051496481
 20
-80.6956778101391
 30
0.0
 40
0.0
 41
0.0
  0
VERTEX
  5
   4A1
  8
0
  6
CONTINUOUS
 10
-571.17601447139
 20
-80.719208510375
 30
0.0
 40
0.0
 41
0.0
  0
VERTEX
  5
   4A2
  8
0
  6
CONTINUOUS
 10
-571.184819501053
 20
-80.742854375426
 30
0.0
 40
0.0
 41
0.0
  0
VERTEX
  5
   4A3
  8
0
  6
CONTINUOUS
 10
-571.19246128165
 20
-80.766601161907
 30
0.0
 40
0.0
 41
0.0
  0
VERTEX
  5
   4A4
  8
0
  6
CONTINUOUS
 10
-571.198935210059
 20
-80.7904345656419
 30
0.0
 40
0.0
 41
0.0
  0
VERTEX
  5
   4A5
  8
0
  6
CONTINUOUS
 10
-571.204237386626
 20
-80.8143402302794
 30
0.0
 40
0.0
 41
0.0
  0
VERTEX
  5
   4A6
  8
0
  6
CONTINUOUS
 10
-571.208364617519
 20
-80.8383037559411
 30
0.0
 40
0.0
 41
0.0
  0
VERTEX
  5
   4A7
  8
0
  6
CONTINUOUS
 10
-571.211314416648
 20
-80.8623107078951
 30
0.0
 40
0.0
 41
0.0
  0
VERTEX
  5
   4A8
  8
0
  6
CONTINUOUS
 10
-571.213085007165
 20
-80.8863466252514
 30
0.0
 40
0.0
 41
0.0
  0
VERTEX
  5
   4A9
  8
0
  6
CONTINUOUS
 10
-571.213675322532
 20
-80.9103970296719
 30
0.0
 40
0.0
 41
0.0
  0
SEQEND
  5
   4AA
  8
0
  6
CONTINUOUS
 62
   218
  0
POLYLINE
  5
   4AB
  8
0
  6
CONTINUOUS
 62
   218
 66
     1
 10
0.0
 20
0.0
 30
0.0
  0
VERTEX
  5
   4AC
  8
0
  6
CONTINUOUS
 10
-567.293675246238
 20
-80.9103970296719
 30
0.0
 40
0.0
 41
0.0
  0
VERTEX
  5
   4AD
  8
0
  6
CONTINUOUS
 10
-567.293084930871
 20
-80.9344474340925
 30
0.0
 40
0.0
 41
0.0
  0
VERTEX
  5
   4AE
  8
0
  6
CONTINUOUS
 10
-567.291314340354
 20
-80.9584833514487
 30
0.0
 40
0.0
 41
0.0
  0
VERTEX
  5
   4AF
  8
0
  6
CONTINUOUS
 10
-567.288364541225
 20
-80.9824903034028
 30
0.0
 40
0.0
 41
0.0
  0
VERTEX
  5
   4B0
  8
0
  6
CONTINUOUS
 10
-567.284237310332
 20
-81.0064538290645
 30
0.0
 40
0.0
 41
0.0
  0
VERTEX
  5
   4B1
  8
0
  6
CONTINUOUS
 10
-567.278935133765
 20
-81.030359493702
 30
0.0
 40
0.0
 41
0.0
  0
VERTEX
  5
   4B2
  8
0
  6
CONTINUOUS
 10
-567.272461205356
 20
-81.0541928974369
 30
0.0
 40
0.0
 41
0.0
  0
VERTEX
  5
   4B3
  8
0
  6
CONTINUOUS
 10
-567.264819424759
 20
-81.0779396839179
 30
0.0
 40
0.0
 41
0.0
  0
VERTEX
  5
   4B4
  8
0
  6
CONTINUOUS
 10
-567.256014395095
 20
-81.1015855489689
 30
0.0
 40
0.0
 41
0.0
  0
VERTEX
  5
   4B5
  8
0
  6
CONTINUOUS
 10
-567.246051420187
 20
-81.1251162492048
 30
0.0
 40
0.0
 41
0.0
  0
VERTEX
  5
   4B6
  8
0
  6
CONTINUOUS
 10
-567.234936501356
 20
-81.1485176106117
 30
0.0
 40
0.0
 41
0.0
  0
VERTEX
  5
   4B7
  8
0
  6
CONTINUOUS
 10
-567.222676333815
 20
-81.1717755370846
 30
0.0
 40
0.0
 41
0.0
  0
VERTEX
  5
   4B8
  8
0
  6
CONTINUOUS
 10
-567.20927830263
 20
-81.1948760189182
 30
0.0
 40
0.0
 41
0.0
  0
VERTEX
  5
   4B9
  8
0
  6
CONTINUOUS
 10
-567.194750478275
 20
-81.2178051412459
 30
0.0
 40
0.0
 41
0.0
  0
VERTEX
  5
   4BA
  8
0
  6
CONTINUOUS
 10
-567.179101611766
 20
-81.2405490924221
 30
0.0
 40
0.0
 41
0.0
  0
VERTEX
  5
   4BB
  8
0
  6
CONTINUOUS
 10
-567.162341129398
 20
-81.2630941723408
 30
0.0
 40
0.0
 41
0.0
  0
VERTEX
  5
   4BC
  8
0
  6
CONTINUOUS
 10
-567.144479127056
 20
-81.2854268006889
 30
0.0
 40
0.0
 41
0.0
  0
VERTEX
  5
   4BD
  8
0
  6
CONTINUOUS
 10
-567.105494257097
 20
-81.3294010293886
 30
0.0
 40
0.0
 41
0.0
  0
VERTEX
  5
   4BE
  8
0
  6
CONTINUOUS
 10
-567.062240919856
 20
-81.3723658407526
 30
0.0
 40
0.0
 41
0.0
  0
VERTEX
  5
   4BF
  8
0
  6
CONTINUOUS
 10
-567.014823316411
 20
-81.414217728787
 30
0.0
 40
0.0
 41
0.0
  0
VERTEX
  5
   4C0
  8
0
  6
CONTINUOUS
 10
-566.963355679921
 20
-81.4548558686278
 30
0.0
 40
0.0
 41
0.0
  0
VERTEX
  5
   4C1
  8
0
  6
CONTINUOUS
 10
-566.907962000432
 20
-81.4941823594365
 30
0.0
 40
0.0
 41
0.0
  0
VERTEX
  5
   4C2
  8
0
  6
CONTINUOUS
 10
-566.848775726169
 20
-81.5321024602522
 30
0.0
 40
0.0
 41
0.0
  0
VERTEX
  5
   4C3
  8
0
  6
CONTINUOUS
 10
-566.78593944205
 20
-81.5685248182308
 30
0.0
 40
0.0
 41
0.0
  0
VERTEX
  5
   4C4
  8
0
  6
CONTINUOUS
 10
-566.719604526189
 20
-81.6033616887215
 30
0.0
 40
0.0
 41
0.0
  0
VERTEX
  5
   4C5
  8
0
  6
CONTINUOUS
 10
-566.649930785207
 20
-81.6365291466519
 30
0.0
 40
0.0
 41
0.0
  0
VERTEX
  5
   4C6
  8
0
  6
CONTINUOUS
 10
-566.57708606925
 20
-81.6679472887109
 30
0.0
 40
0.0
 41
0.0
  0
VERTEX
  5
   4C7
  8
0
  6
CONTINUOUS
 10
-566.501245867618
 20
-81.6975404258424
 30
0.0
 40
0.0
 41
0.0
  0
VERTEX
  5
   4C8
  8
0
  6
CONTINUOUS
 10
-566.422592886001
 20
-81.7252372655868
 30
0.0
 40
0.0
 41
0.0
  0
VERTEX
  5
   4C9
  8
0
  6
CONTINUOUS
 10
-566.341316606319
 20
-81.7509710838313
 30
0.0
 40
0.0
 41
0.0
  0
VERTEX
  5
   4CA
  8
0
  6
CONTINUOUS
 10
-566.25761283025
 20
-81.7746798855537
 30
0.0
 40
0.0
 41
0.0
  0
VERTEX
  5
   4CB
  8
0
  6
CONTINUOUS
 10
-566.171683207522
 20
-81.7963065541741
 30
0.0
 40
0.0
 41
0.0
  0
VERTEX
  5
   4CC
  8
0
  6
CONTINUOUS
 10
-566.083734750122
 20
-81.8157989891534
 30
0.0
 40
0.0
 41
0.0
  0
VERTEX
  5
   4CD
  8
0
  6
CONTINUOUS
 10
-565.993979333588
 20
-81.8331102315085
 30
0.0
 40
0.0
 41
0.0
  0
VERTEX
  5
   4CE
  8
0
  6
CONTINUOUS
 10
-565.90263318658
 20
-81.8481985769402
 30
0.0
 40
0.0
 41
0.0
  0
VERTEX
  5
   4CF
  8
0
  6
CONTINUOUS
 10
-565.809916369967
 20
-81.8610276763029
 30
0.0
 40
0.0
 41
0.0
  0
VERTEX
  5
   4D0
  8
0
  6
CONTINUOUS
 10
-565.716052246682
 20
-81.8715666231723
 30
0.0
 40
0.0
 41
0.0
  0
VERTEX
  5
   4D1
  8
0
  6
CONTINUOUS
 10
-565.621266943618
 20
-81.8797900283025
 30
0.0
 40
0.0
 41
0.0
  0
VERTEX
  5
   4D2
  8
0
  6
CONTINUOUS
 10
-565.525788806873
 20
-81.8856780807902
 30
0.0
 40
0.0
 41
0.0
  0
VERTEX
  5
   4D3
  8
0
  6
CONTINUOUS
 10
-565.429847851641
 20
-81.8892165958012
 30
0.0
 40
0.0
 41
0.0
  0
VERTEX
  5
   4D4
  8
0
  6
CONTINUOUS
 10
-565.333675208088
 20
-81.890397048743
 30
0.0
 40
0.0
 41
0.0
  0
VERTEX
  5
   4D5
  8
0
  6
CONTINUOUS
 10
-565.237502564534
 20
-81.8892165958009
 30
0.0
 40
0.0
 41
0.0
  0
VERTEX
  5
   4D6
  8
0
  6
CONTINUOUS
 10
-565.141561609302
 20
-81.8856780807895
 30
0.0
 40
0.0
 41
0.0
  0
VERTEX
  5
   4D7
  8
0
  6
CONTINUOUS
 10
-565.046083472558
 20
-81.8797900283014
 30
0.0
 40
0.0
 41
0.0
  0
VERTEX
  5
   4D8
  8
0
  6
CONTINUOUS
 10
-564.951298169494
 20
-81.8715666231709
 30
0.0
 40
0.0
 41
0.0
  0
VERTEX
  5
   4D9
  8
0
  6
CONTINUOUS
 10
-564.857434046208
 20
-81.8610276763011
 30
0.0
 40
0.0
 41
0.0
  0
VERTEX
  5
   4DA
  8
0
  6
CONTINUOUS
 10
-564.764717229595
 20
-81.8481985769381
 30
0.0
 40
0.0
 41
0.0
  0
VERTEX
  5
   4DB
  8
0
  6
CONTINUOUS
 10
-564.673371082587
 20
-81.833110231506
 30
0.0
 40
0.0
 41
0.0
  0
VERTEX
  5
   4DC
  8
0
  6
CONTINUOUS
 10
-564.583615666054
 20
-81.8157989891506
 30
0.0
 40
0.0
 41
0.0
  0
VERTEX
  5
   4DD
  8
0
  6
CONTINUOUS
 10
-564.495667208654
 20
-81.7963065541709
 30
0.0
 40
0.0
 41
0.0
  0
VERTEX
  5
   4DE
  8
0
  6
CONTINUOUS
 10
-564.409737585926
 20
-81.7746798855502
 30
0.0
 40
0.0
 41
0.0
  0
VERTEX
  5
   4DF
  8
0
  6
CONTINUOUS
 10
-564.326033809857
 20
-81.7509710838275
 30
0.0
 40
0.0
 41
0.0
  0
VERTEX
  5
   4E0
  8
0
  6
CONTINUOUS
 10
-564.244757530176
 20
-81.7252372655827
 30
0.0
 40
0.0
 41
0.0
  0
VERTEX
  5
   4E1
  8
0
  6
CONTINUOUS
 10
-564.166104548558
 20
-81.697540425838
 30
0.0
 40
0.0
 41
0.0
  0
VERTEX
  5
   4E2
  8
0
  6
CONTINUOUS
 10
-564.090264346927
 20
-81.6679472887063
 30
0.0
 40
0.0
 41
0.0
  0
VERTEX
  5
   4E3
  8
0
  6
CONTINUOUS
 10
-564.01741963097
 20
-81.636529146647
 30
0.0
 40
0.0
 41
0.0
  0
VERTEX
  5
   4E4
  8
0
  6
CONTINUOUS
 10
-563.947745889988
 20
-81.6033616887162
 30
0.0
 40
0.0
 41
0.0
  0
VERTEX
  5
   4E5
  8
0
  6
CONTINUOUS
 10
-563.881410974127
 20
-81.5685248182253
 30
0.0
 40
0.0
 41
0.0
  0
VERTEX
  5
   4E6
  8
0
  6
CONTINUOUS
 10
-563.818574690009
 20
-81.5321024602465
 30
0.0
 40
0.0
 41
0.0
  0
VERTEX
  5
   4E7
  8
0
  6
CONTINUOUS
 10
-563.759388415746
 20
-81.4941823594306
 30
0.0
 40
0.0
 41
0.0
  0
VERTEX
  5
   4E8
  8
0
  6
CONTINUOUS
 10
-563.703994736257
 20
-81.4548558686216
 30
0.0
 40
0.0
 41
0.0
  0
VERTEX
  5
   4E9
  8
0
  6
CONTINUOUS
 10
-563.652527099768
 20
-81.4142177287807
 30
0.0
 40
0.0
 41
0.0
  0
VERTEX
  5
   4EA
  8
0
  6
CONTINUOUS
 10
-563.605109496323
 20
-81.3723658407461
 30
0.0
 40
0.0
 41
0.0
  0
VERTEX
  5
   4EB
  8
0
  6
CONTINUOUS
 10
-563.561856159083
 20
-81.329401029382
 30
0.0
 40
0.0
 41
0.0
  0
VERTEX
  5
   4EC
  8
0
  6
CONTINUOUS
 10
-563.522871289124
 20
-81.2854268006821
 30
0.0
 40
0.0
 41
0.0
  0
VERTEX
  5
   4ED
  8
0
  6
CONTINUOUS
 10
-563.505009286782
 20
-81.2630941723339
 30
0.0
 40
0.0
 41
0.0
  0
VERTEX
  5
   4EE
  8
0
  6
CONTINUOUS
 10
-563.488248804414
 20
-81.2405490924151
 30
0.0
 40
0.0
 41
0.0
  0
VERTEX
  5
   4EF
  8
0
  6
CONTINUOUS
 10
-563.472599937905
 20
-81.2178051412389
 30
0.0
 40
0.0
 41
0.0
  0
VERTEX
  5
   4F0
  8
0
  6
CONTINUOUS
 10
-563.45807211355
 20
-81.1948760189111
 30
0.0
 40
0.0
 41
0.0
  0
VERTEX
  5
   4F1
  8
0
  6
CONTINUOUS
 10
-563.444674082366
 20
-81.1717755370775
 30
0.0
 40
0.0
 41
0.0
  0
VERTEX
  5
   4F2
  8
0
  6
CONTINUOUS
 10
-563.432413914825
 20
-81.1485176106046
 30
0.0
 40
0.0
 41
0.0
  0
VERTEX
  5
   4F3
  8
0
  6
CONTINUOUS
 10
-563.421298995994
 20
-81.1251162491976
 30
0.0
 40
0.0
 41
0.0
  0
VERTEX
  5
   4F4
  8
0
  6
CONTINUOUS
 10
-563.411336021086
 20
-81.1015855489616
 30
0.0
 40
0.0
 41
0.0
  0
VERTEX
  5
   4F5
  8
0
  6
CONTINUOUS
 10
-563.402530991423
 20
-81.0779396839107
 30
0.0
 40
0.0
 41
0.0
  0
VERTEX
  5
   4F6
  8
0
  6
CONTINUOUS
 10
-563.394889210825
 20
-81.0541928974296
 30
0.0
 40
0.0
 41
0.0
  0
VERTEX
  5
   4F7
  8
0
  6
CONTINUOUS
 10
-563.388415282417
 20
-81.0303594936947
 30
0.0
 40
0.0
 41
0.0
  0
VERTEX
  5
   4F8
  8
0
  6
CONTINUOUS
 10
-563.38311310585
 20
-81.0064538290571
 30
0.0
 40
0.0
 41
0.0
  0
VERTEX
  5
   4F9
  8
0
  6
CONTINUOUS
 10
-563.378985874957
 20
-80.9824903033954
 30
0.0
 40
0.0
 41
0.0
  0
VERTEX
  5
   4FA
  8
0
  6
CONTINUOUS
 10
-563.376036075828
 20
-80.9584833514413
 30
0.0
 40
0.0
 41
0.0
  0
VERTEX
  5
   4FB
  8
0
  6
CONTINUOUS
 10
-563.374265485311
 20
-80.9344474340851
 30
0.0
 40
0.0
 41
0.0
  0
VERTEX
  5
   4FC
  8
0
  6
CONTINUOUS
 10
-563.373675169944
 20
-80.9103970296645
 30
0.0
 40
0.0
 41
0.0
  0
SEQEND
  5
   4FD
  8
0
  6
CONTINUOUS
 62
   218
  0
INSERT
  5
   4FE
  8
0
  6
CONTINUOUS
 62
   218
  2
*HATCH137
 10
-513.246704101563
 20
-48.6316223144531
 30
0.0
 41
0.490000009536743
 42
0.490000009536743
 50
89.9999999480344
 43
0.490000009536743
  0
LINE
  5
   4FF
  8
0
  6
CONTINUOUS
 62
   218
 10
-564.609887465666
 20
-71.7904388723822
 30
0.0
 11
-566.597092576927
 21
-60.5204386530372
 31
0.0
  0
LINE
  5
   500
  8
0
  6
CONTINUOUS
 62
   218
 10
-564.25567518711
 20
-69.8487598997175
 30
0.0
 11
-565.900509907616
 21
-60.5204386530371
 31
0.0
  0
LINE
  5
   501
  8
0
  6
CONTINUOUS
 62
   218
 10
-564.25567518711
 20
-65.8982432713931
 30
0.0
 11
-565.203927238305
 21
-60.5204386530372
 31
0.0
  0
LINE
  5
   502
  8
0
  6
CONTINUOUS
 62
   218
 10
-564.25567518711
 20
-61.9477266430688
 30
0.0
 11
-564.507344568994
 21
-60.5204386530371
 31
0.0
  0
LINE
  5
   503
  8
0
  6
CONTINUOUS
 62
   218
 10
-566.003052804288
 20
-71.7904388723822
 30
0.0
 11
-567.990257915549
 21
-60.5204386530371
 31
0.0
  0
LINE
  5
   504
  8
0
  6
CONTINUOUS
 62
   218
 10
-566.699635473599
 20
-71.7904388723822
 30
0.0
 11
-568.68684058486
 21
-60.5204386530371
 31
0.0
  0
LINE
  5
   505
  8
0
  6
CONTINUOUS
 62
   218
 10
-567.396218142911
 20
-71.7904388723822
 30
0.0
 11
-569.383423254171
 21
-60.5204386530372
 31
0.0
  0
LINE
  5
   506
  8
0
  6
CONTINUOUS
 62
   218
 10
-568.092800812221
 20
-71.7904388723822
 30
0.0
 11
-570.080005923482
 21
-60.5204386530371
 31
0.0
  0
LINE
  5
   507
  8
0
  6
CONTINUOUS
 62
   218
 10
-568.789383481533
 20
-71.7904388723822
 30
0.0
 11
-570.331675305366
 21
-63.0436672913303
 31
0.0
  0
LINE
  5
   508
  8
0
  6
CONTINUOUS
 62
   218
 10
-569.485966150844
 20
-71.7904388723822
 30
0.0
 11
-570.331675305366
 21
-66.9941839196548
 31
0.0
  0
LINE
  5
   509
  8
0
  6
CONTINUOUS
 62
   218
 10
-570.182548820155
 20
-71.7904388723821
 30
0.0
 11
-570.331675305366
 21
-70.9447005479793
 31
0.0
  0
LINE
  5
   50A
  8
0
  6
CONTINUOUS
 62
   218
 10
-564.25567518711
 20
69.3295321725563
 30
0.0
 11
-564.25567518711
 21
80.5995323919014
 31
0.0
  0
LINE
  5
   50B
  8
0
  6
CONTINUOUS
 62
   218
 10
-570.331675305366
 20
69.3295321725563
 30
0.0
 11
-570.331675305366
 21
80.5995323919014
 31
0.0
  0
LINE
  5
   50C
  8
0
  6
CONTINUOUS
 62
   218
 10
-564.25567518711
 20
69.3295321725563
 30
0.0
 11
-570.331675305366
 21
69.3295321725563
 31
0.0
  0
LINE
  5
   50D
  8
0
  6
CONTINUOUS
 62
   218
 10
-563.373675169944
 20
80.5995323919014
 30
0.0
 11
-571.213675322532
 21
80.5995323919014
 31
0.0
  0
LINE
  5
   50E
  8
0
  6
DASHDOT
 62
   218
 10
-567.293675246238
 20
66.84951184837
 30
0.0
 11
-567.293675246238
 21
90.6994905682622
 31
0.0
  0
LINE
  5
   50F
  8
0
  6
CONTINUOUS
 62
   218
 10
-571.213675322532
 20
80.5995323919014
 30
0.0
 11
-571.213675322532
 21
89.7194905491887
 31
0.0
  0
LINE
  5
   510
  8
0
  6
CONTINUOUS
 62
   218
 10
-563.373675169944
 20
80.5995323919014
 30
0.0
 11
-563.373675169944
 21
89.7194905491887
 31
0.0
  0
LINE
  5
   511
  8
0
  6
CONTINUOUS
 62
   218
 10
-567.293675246238
 20
69.3295321725563
 30
0.0
 11
-565.306470134977
 21
80.5995323919015
 31
0.0
  0
POLYLINE
  5
   512
  8
0
  6
CONTINUOUS
 62
   218
 66
     1
 10
0.0
 20
0.0
 30
0.0
 70
     1
  0
VERTEX
  5
   513
  8
0
  6
CONTINUOUS
 10
-571.213675322532
 20
89.7194905491863
 30
0.0
 40
0.0
 41
0.0
  0
VERTEX
  5
   514
  8
0
  6
CONTINUOUS
 10
-571.213085007165
 20
89.6954401447657
 30
0.0
 40
0.0
 41
0.0
  0
VERTEX
  5
   515
  8
0
  6
CONTINUOUS
 10
-571.211314416648
 20
89.6714042274095
 30
0.0
 40
0.0
 41
0.0
  0
VERTEX
  5
   516
  8
0
  6
CONTINUOUS
 10
-571.208364617519
 20
89.6473972754555
 30
0.0
 40
0.0
 41
0.0
  0
VERTEX
  5
   517
  8
0
  6
CONTINUOUS
 10
-571.204237386626
 20
89.6234337497938
 30
0.0
 40
0.0
 41
0.0
  0
VERTEX
  5
   518
  8
0
  6
CONTINUOUS
 10
-571.198935210059
 20
89.5995280851563
 30
0.0
 40
0.0
 41
0.0
  0
VERTEX
  5
   519
  8
0
  6
CONTINUOUS
 10
-571.19246128165
 20
89.5756946814214
 30
0.0
 40
0.0
 41
0.0
  0
VERTEX
  5
   51A
  8
0
  6
CONTINUOUS
 10
-571.184819501053
 20
89.5519478949404
 30
0.0
 40
0.0
 41
0.0
  0
VERTEX
  5
   51B
  8
0
  6
CONTINUOUS
 10
-571.176014471389
 20
89.5283020298895
 30
0.0
 40
0.0
 41
0.0
  0
VERTEX
  5
   51C
  8
0
  6
CONTINUOUS
 10
-571.166051496481
 20
89.5047713296536
 30
0.0
 40
0.0
 41
0.0
  0
VERTEX
  5
   51D
  8
0
  6
CONTINUOUS
 10
-571.15493657765
 20
89.4813699682466
 30
0.0
 40
0.0
 41
0.0
  0
VERTEX
  5
   51E
  8
0
  6
CONTINUOUS
 10
-571.142676410109
 20
89.4581120417738
 30
0.0
 40
0.0
 41
0.0
  0
VERTEX
  5
   51F
  8
0
  6
CONTINUOUS
 10
-571.129278378924
 20
89.4350115599403
 30
0.0
 40
0.0
 41
0.0
  0
VERTEX
  5
   520
  8
0
  6
CONTINUOUS
 10
-571.114750554569
 20
89.4120824376125
 30
0.0
 40
0.0
 41
0.0
  0
VERTEX
  5
   521
  8
0
  6
CONTINUOUS
 10
-571.099101688061
 20
89.3893384864364
 30
0.0
 40
0.0
 41
0.0
  0
VERTEX
  5
   522
  8
0
  6
CONTINUOUS
 10
-571.082341205692
 20
89.3667934065177
 30
0.0
 40
0.0
 41
0.0
  0
VERTEX
  5
   523
  8
0
  6
CONTINUOUS
 10
-571.06447920335
 20
89.3444607781696
 30
0.0
 40
0.0
 41
0.0
  0
VERTEX
  5
   524
  8
0
  6
CONTINUOUS
 10
-571.025494333391
 20
89.3004865494699
 30
0.0
 40
0.0
 41
0.0
  0
VERTEX
  5
   525
  8
0
  6
CONTINUOUS
 10
-570.98224099615
 20
89.2575217381059
 30
0.0
 40
0.0
 41
0.0
  0
VERTEX
  5
   526
  8
0
  6
CONTINUOUS
 10
-570.934823392705
 20
89.2156698500715
 30
0.0
 40
0.0
 41
0.0
  0
VERTEX
  5
   527
  8
0
  6
CONTINUOUS
 10
-570.883355756215
 20
89.1750317102308
 30
0.0
 40
0.0
 41
0.0
  0
VERTEX
  5
   528
  8
0
  6
CONTINUOUS
 10
-570.827962076726
 20
89.1357052194221
 30
0.0
 40
0.0
 41
0.0
  0
VERTEX
  5
   529
  8
0
  6
CONTINUOUS
 10
-570.768775802463
 20
89.0977851186064
 30
0.0
 40
0.0
 41
0.0
  0
VERTEX
  5
   52A
  8
0
  6
CONTINUOUS
 10
-570.705939518345
 20
89.0613627606279
 30
0.0
 40
0.0
 41
0.0
  0
VERTEX
  5
   52B
  8
0
  6
CONTINUOUS
 10
-570.639604602484
 20
89.0265258901372
 30
0.0
 40
0.0
 41
0.0
  0
VERTEX
  5
   52C
  8
0
  6
CONTINUOUS
 10
-570.569930861502
 20
88.9933584322067
 30
0.0
 40
0.0
 41
0.0
  0
VERTEX
  5
   52D
  8
0
  6
CONTINUOUS
 10
-570.497086145545
 20
88.9619402901477
 30
0.0
 40
0.0
 41
0.0
  0
VERTEX
  5
   52E
  8
0
  6
CONTINUOUS
 10
-570.421245943913
 20
88.9323471530163
 30
0.0
 40
0.0
 41
0.0
  0
VERTEX
  5
   52F
  8
0
  6
CONTINUOUS
 10
-570.342592962296
 20
88.9046503132719
 30
0.0
 40
0.0
 41
0.0
  0
VERTEX
  5
   530
  8
0
  6
CONTINUOUS
 10
-570.261316682614
 20
88.8789164950273
 30
0.0
 40
0.0
 41
0.0
  0
VERTEX
  5
   531
  8
0
  6
CONTINUOUS
 10
-570.177612906545
 20
88.8552076933049
 30
0.0
 40
0.0
 41
0.0
  0
VERTEX
  5
   532
  8
0
  6
CONTINUOUS
 10
-570.091683283817
 20
88.8335810246845
 30
0.0
 40
0.0
 41
0.0
  0
VERTEX
  5
   533
  8
0
  6
CONTINUOUS
 10
-570.003734826418
 20
88.8140885897051
 30
0.0
 40
0.0
 41
0.0
  0
VERTEX
  5
   534
  8
0
  6
CONTINUOUS
 10
-569.913979409884
 20
88.79677734735
 30
0.0
 40
0.0
 41
0.0
  0
VERTEX
  5
   535
  8
0
  6
CONTINUOUS
 10
-569.822633262876
 20
88.7816890019182
 30
0.0
 40
0.0
 41
0.0
  0
VERTEX
  5
   536
  8
0
  6
CONTINUOUS
 10
-569.729916446263
 20
88.7688599025556
 30
0.0
 40
0.0
 41
0.0
  0
VERTEX
  5
   537
  8
0
  6
CONTINUOUS
 10
-569.636052322978
 20
88.7583209556861
 30
0.0
 40
0.0
 41
0.0
  0
VERTEX
  5
   538
  8
0
  6
CONTINUOUS
 10
-569.541267019914
 20
88.7500975505558
 30
0.0
 40
0.0
 41
0.0
  0
VERTEX
  5
   539
  8
0
  6
CONTINUOUS
 10
-569.445788883169
 20
88.7442094980681
 30
0.0
 40
0.0
 41
0.0
  0
VERTEX
  5
   53A
  8
0
  6
CONTINUOUS
 10
-569.349847927937
 20
88.740670983057
 30
0.0
 40
0.0
 41
0.0
  0
VERTEX
  5
   53B
  8
0
  6
CONTINUOUS
 10
-569.253675284384
 20
88.7394905301152
 30
0.0
 40
0.0
 41
0.0
  0
VERTEX
  5
   53C
  8
0
  6
CONTINUOUS
 10
-569.15750264083
 20
88.7406709830573
 30
0.0
 40
0.0
 41
0.0
  0
VERTEX
  5
   53D
  8
0
  6
CONTINUOUS
 10
-569.061561685599
 20
88.7442094980686
 30
0.0
 40
0.0
 41
0.0
  0
VERTEX
  5
   53E
  8
0
  6
CONTINUOUS
 10
-568.966083548854
 20
88.7500975505566
 30
0.0
 40
0.0
 41
0.0
  0
VERTEX
  5
   53F
  8
0
  6
CONTINUOUS
 10
-568.87129824579
 20
88.7583209556871
 30
0.0
 40
0.0
 41
0.0
  0
VERTEX
  5
   540
  8
0
  6
CONTINUOUS
 10
-568.777434122505
 20
88.7688599025568
 30
0.0
 40
0.0
 41
0.0
  0
VERTEX
  5
   541
  8
0
  6
CONTINUOUS
 10
-568.684717305892
 20
88.7816890019197
 30
0.0
 40
0.0
 41
0.0
  0
VERTEX
  5
   542
  8
0
  6
CONTINUOUS
 10
-568.593371158884
 20
88.7967773473517
 30
0.0
 40
0.0
 41
0.0
  0
VERTEX
  5
   543
  8
0
  6
CONTINUOUS
 10
-568.50361574235
 20
88.814088589707
 30
0.0
 40
0.0
 41
0.0
  0
VERTEX
  5
   544
  8
0
  6
CONTINUOUS
 10
-568.415667284951
 20
88.8335810246866
 30
0.0
 40
0.0
 41
0.0
  0
VERTEX
  5
   545
  8
0
  6
CONTINUOUS
 10
-568.329737662223
 20
88.8552076933072
 30
0.0
 40
0.0
 41
0.0
  0
VERTEX
  5
   546
  8
0
  6
CONTINUOUS
 10
-568.246033886154
 20
88.8789164950298
 30
0.0
 40
0.0
 41
0.0
  0
VERTEX
  5
   547
  8
0
  6
CONTINUOUS
 10
-568.164757606472
 20
88.9046503132746
 30
0.0
 40
0.0
 41
0.0
  0
VERTEX
  5
   548
  8
0
  6
CONTINUOUS
 10
-568.086104624855
 20
88.9323471530192
 30
0.0
 40
0.0
 41
0.0
  0
VERTEX
  5
   549
  8
0
  6
CONTINUOUS
 10
-568.010264423223
 20
88.9619402901508
 30
0.0
 40
0.0
 41
0.0
  0
VERTEX
  5
   54A
  8
0
  6
CONTINUOUS
 10
-567.937419707266
 20
88.99335843221
 30
0.0
 40
0.0
 41
0.0
  0
VERTEX
  5
   54B
  8
0
  6
CONTINUOUS
 10
-567.867745966285
 20
89.0265258901407
 30
0.0
 40
0.0
 41
0.0
  0
VERTEX
  5
   54C
  8
0
  6
CONTINUOUS
 10
-567.801411050424
 20
89.0613627606315
 30
0.0
 40
0.0
 41
0.0
  0
VERTEX
  5
   54D
  8
0
  6
CONTINUOUS
 10
-567.738574766305
 20
89.0977851186102
 30
0.0
 40
0.0
 41
0.0
  0
VERTEX
  5
   54E
  8
0
  6
CONTINUOUS
 10
-567.679388492042
 20
89.1357052194261
 30
0.0
 40
0.0
 41
0.0
  0
VERTEX
  5
   54F
  8
0
  6
CONTINUOUS
 10
-567.623994812553
 20
89.1750317102349
 30
0.0
 40
0.0
 41
0.0
  0
VERTEX
  5
   550
  8
0
  6
CONTINUOUS
 10
-567.572527176064
 20
89.2156698500758
 30
0.0
 40
0.0
 41
0.0
  0
VERTEX
  5
   551
  8
0
  6
CONTINUOUS
 10
-567.525109572619
 20
89.2575217381103
 30
0.0
 40
0.0
 41
0.0
  0
VERTEX
  5
   552
  8
0
  6
CONTINUOUS
 10
-567.481856235378
 20
89.3004865494743
 30
0.0
 40
0.0
 41
0.0
  0
VERTEX
  5
   553
  8
0
  6
CONTINUOUS
 10
-567.442871365419
 20
89.3444607781741
 30
0.0
 40
0.0
 41
0.0
  0
VERTEX
  5
   554
  8
0
  6
CONTINUOUS
 10
-567.425009363078
 20
89.3667934065223
 30
0.0
 40
0.0
 41
0.0
  0
VERTEX
  5
   555
  8
0
  6
CONTINUOUS
 10
-567.408248880709
 20
89.389338486441
 30
0.0
 40
0.0
 41
0.0
  0
VERTEX
  5
   556
  8
0
  6
CONTINUOUS
 10
-567.392600014201
 20
89.4120824376172
 30
0.0
 40
0.0
 41
0.0
  0
VERTEX
  5
   557
  8
0
  6
CONTINUOUS
 10
-567.378072189845
 20
89.435011559945
 30
0.0
 40
0.0
 41
0.0
  0
VERTEX
  5
   558
  8
0
  6
CONTINUOUS
 10
-567.364674158661
 20
89.4581120417786
 30
0.0
 40
0.0
 41
0.0
  0
VERTEX
  5
   559
  8
0
  6
CONTINUOUS
 10
-567.35241399112
 20
89.4813699682514
 30
0.0
 40
0.0
 41
0.0
  0
VERTEX
  5
   55A
  8
0
  6
CONTINUOUS
 10
-567.341299072289
 20
89.5047713296584
 30
0.0
 40
0.0
 41
0.0
  0
VERTEX
  5
   55B
  8
0
  6
CONTINUOUS
 10
-567.331336097381
 20
89.5283020298943
 30
0.0
 40
0.0
 41
0.0
  0
VERTEX
  5
   55C
  8
0
  6
CONTINUOUS
 10
-567.322531067717
 20
89.5519478949452
 30
0.0
 40
0.0
 41
0.0
  0
VERTEX
  5
   55D
  8
0
  6
CONTINUOUS
 10
-567.31488928712
 20
89.5756946814262
 30
0.0
 40
0.0
 41
0.0
  0
VERTEX
  5
   55E
  8
0
  6
CONTINUOUS
 10
-567.308415358711
 20
89.5995280851611
 30
0.0
 40
0.0
 41
0.0
  0
VERTEX
  5
   55F
  8
0
  6
CONTINUOUS
 10
-567.303113182144
 20
89.6234337497987
 30
0.0
 40
0.0
 41
0.0
  0
VERTEX
  5
   560
  8
0
  6
CONTINUOUS
 10
-567.298985951251
 20
89.6473972754604
 30
0.0
 40
0.0
 41
0.0
  0
VERTEX
  5
   561
  8
0
  6
CONTINUOUS
 10
-567.296036152122
 20
89.6714042274144
 30
0.0
 40
0.0
 41
0.0
  0
VERTEX
  5
   562
  8
0
  6
CONTINUOUS
 10
-567.294265561605
 20
89.6954401447706
 30
0.0
 40
0.0
 41
0.0
  0
VERTEX
  5
   563
  8
0
  6
CONTINUOUS
 10
-567.293675246238
 20
89.7194905491912
 30
0.0
 40
0.0
 41
0.0
  0
VERTEX
  5
   564
  8
0
  6
CONTINUOUS
 10
-567.294265561605
 20
89.7435409536117
 30
0.0
 40
0.0
 41
0.0
  0
VERTEX
  5
   565
  8
0
  6
CONTINUOUS
 10
-567.296036152122
 20
89.767576870968
 30
0.0
 40
0.0
 41
0.0
  0
VERTEX
  5
   566
  8
0
  6
CONTINUOUS
 10
-567.298985951251
 20
89.791583822922
 30
0.0
 40
0.0
 41
0.0
  0
VERTEX
  5
   567
  8
0
  6
CONTINUOUS
 10
-567.303113182145
 20
89.8155473485837
 30
0.0
 40
0.0
 41
0.0
  0
VERTEX
  5
   568
  8
0
  6
CONTINUOUS
 10
-567.308415358712
 20
89.8394530132212
 30
0.0
 40
0.0
 41
0.0
  0
VERTEX
  5
   569
  8
0
  6
CONTINUOUS
 10
-567.31488928712
 20
89.8632864169561
 30
0.0
 40
0.0
 41
0.0
  0
VERTEX
  5
   56A
  8
0
  6
CONTINUOUS
 10
-567.322531067718
 20
89.8870332034371
 30
0.0
 40
0.0
 41
0.0
  0
VERTEX
  5
   56B
  8
0
  6
CONTINUOUS
 10
-567.331336097381
 20
89.910679068488
 30
0.0
 40
0.0
 41
0.0
  0
VERTEX
  5
   56C
  8
0
  6
CONTINUOUS
 10
-567.34129907229
 20
89.9342097687239
 30
0.0
 40
0.0
 41
0.0
  0
VERTEX
  5
   56D
  8
0
  6
CONTINUOUS
 10
-567.35241399112
 20
89.9576111301308
 30
0.0
 40
0.0
 41
0.0
  0
VERTEX
  5
   56E
  8
0
  6
CONTINUOUS
 10
-567.364674158661
 20
89.9808690566036
 30
0.0
 40
0.0
 41
0.0
  0
VERTEX
  5
   56F
  8
0
  6
CONTINUOUS
 10
-567.378072189846
 20
90.0039695384372
 30
0.0
 40
0.0
 41
0.0
  0
VERTEX
  5
   570
  8
0
  6
CONTINUOUS
 10
-567.392600014202
 20
90.026898660765
 30
0.0
 40
0.0
 41
0.0
  0
VERTEX
  5
   571
  8
0
  6
CONTINUOUS
 10
-567.40824888071
 20
90.0496426119411
 30
0.0
 40
0.0
 41
0.0
  0
VERTEX
  5
   572
  8
0
  6
CONTINUOUS
 10
-567.425009363079
 20
90.0721876918598
 30
0.0
 40
0.0
 41
0.0
  0
VERTEX
  5
   573
  8
0
  6
CONTINUOUS
 10
-567.44287136542
 20
90.0945203202079
 30
0.0
 40
0.0
 41
0.0
  0
VERTEX
  5
   574
  8
0
  6
CONTINUOUS
 10
-567.481856235379
 20
90.1384945489076
 30
0.0
 40
0.0
 41
0.0
  0
VERTEX
  5
   575
  8
0
  6
CONTINUOUS
 10
-567.52510957262
 20
90.1814593602716
 30
0.0
 40
0.0
 41
0.0
  0
VERTEX
  5
   576
  8
0
  6
CONTINUOUS
 10
-567.572527176065
 20
90.2233112483059
 30
0.0
 40
0.0
 41
0.0
  0
VERTEX
  5
   577
  8
0
  6
CONTINUOUS
 10
-567.623994812555
 20
90.2639493881466
 30
0.0
 40
0.0
 41
0.0
  0
VERTEX
  5
   578
  8
0
  6
CONTINUOUS
 10
-567.679388492044
 20
90.3032758789553
 30
0.0
 40
0.0
 41
0.0
  0
VERTEX
  5
   579
  8
0
  6
CONTINUOUS
 10
-567.738574766307
 20
90.3411959797711
 30
0.0
 40
0.0
 41
0.0
  0
VERTEX
  5
   57A
  8
0
  6
CONTINUOUS
 10
-567.801411050425
 20
90.3776183377496
 30
0.0
 40
0.0
 41
0.0
  0
VERTEX
  5
   57B
  8
0
  6
CONTINUOUS
 10
-567.867745966286
 20
90.4124552082403
 30
0.0
 40
0.0
 41
0.0
  0
VERTEX
  5
   57C
  8
0
  6
CONTINUOUS
 10
-567.937419707268
 20
90.4456226661708
 30
0.0
 40
0.0
 41
0.0
  0
VERTEX
  5
   57D
  8
0
  6
CONTINUOUS
 10
-568.010264423225
 20
90.4770408082298
 30
0.0
 40
0.0
 41
0.0
  0
VERTEX
  5
   57E
  8
0
  6
CONTINUOUS
 10
-568.086104624857
 20
90.5066339453612
 30
0.0
 40
0.0
 41
0.0
  0
VERTEX
  5
   57F
  8
0
  6
CONTINUOUS
 10
-568.164757606474
 20
90.5343307851056
 30
0.0
 40
0.0
 41
0.0
  0
VERTEX
  5
   580
  8
0
  6
CONTINUOUS
 10
-568.246033886156
 20
90.5600646033501
 30
0.0
 40
0.0
 41
0.0
  0
VERTEX
  5
   581
  8
0
  6
CONTINUOUS
 10
-568.329737662225
 20
90.5837734050726
 30
0.0
 40
0.0
 41
0.0
  0
VERTEX
  5
   582
  8
0
  6
CONTINUOUS
 10
-568.415667284953
 20
90.605400073693
 30
0.0
 40
0.0
 41
0.0
  0
VERTEX
  5
   583
  8
0
  6
CONTINUOUS
 10
-568.503615742353
 20
90.6248925086723
 30
0.0
 40
0.0
 41
0.0
  0
VERTEX
  5
   584
  8
0
  6
CONTINUOUS
 10
-568.593371158886
 20
90.6422037510274
 30
0.0
 40
0.0
 41
0.0
  0
VERTEX
  5
   585
  8
0
  6
CONTINUOUS
 10
-568.684717305894
 20
90.6572920964592
 30
0.0
 40
0.0
 41
0.0
  0
VERTEX
  5
   586
  8
0
  6
CONTINUOUS
 10
-568.777434122507
 20
90.6701211958219
 30
0.0
 40
0.0
 41
0.0
  0
VERTEX
  5
   587
  8
0
  6
CONTINUOUS
 10
-568.871298245793
 20
90.6806601426914
 30
0.0
 40
0.0
 41
0.0
  0
VERTEX
  5
   588
  8
0
  6
CONTINUOUS
 10
-568.966083548857
 20
90.6888835478216
 30
0.0
 40
0.0
 41
0.0
  0
VERTEX
  5
   589
  8
0
  6
CONTINUOUS
 10
-569.061561685601
 20
90.6947716003094
 30
0.0
 40
0.0
 41
0.0
  0
VERTEX
  5
   58A
  8
0
  6
CONTINUOUS
 10
-569.157502640833
 20
90.6983101153204
 30
0.0
 40
0.0
 41
0.0
  0
VERTEX
  5
   58B
  8
0
  6
CONTINUOUS
 10
-569.253675284386
 20
90.6994905682622
 30
0.0
 40
0.0
 41
0.0
  0
VERTEX
  5
   58C
  8
0
  6
CONTINUOUS
 10
-569.34984792794
 20
90.6983101153202
 30
0.0
 40
0.0
 41
0.0
  0
VERTEX
  5
   58D
  8
0
  6
CONTINUOUS
 10
-569.445788883171
 20
90.6947716003089
 30
0.0
 40
0.0
 41
0.0
  0
VERTEX
  5
   58E
  8
0
  6
CONTINUOUS
 10
-569.541267019916
 20
90.6888835478209
 30
0.0
 40
0.0
 41
0.0
  0
VERTEX
  5
   58F
  8
0
  6
CONTINUOUS
 10
-569.63605232298
 20
90.6806601426904
 30
0.0
 40
0.0
 41
0.0
  0
VERTEX
  5
   590
  8
0
  6
CONTINUOUS
 10
-569.729916446266
 20
90.6701211958207
 30
0.0
 40
0.0
 41
0.0
  0
VERTEX
  5
   591
  8
0
  6
CONTINUOUS
 10
-569.822633262879
 20
90.6572920964578
 30
0.0
 40
0.0
 41
0.0
  0
VERTEX
  5
   592
  8
0
  6
CONTINUOUS
 10
-569.913979409886
 20
90.6422037510258
 30
0.0
 40
0.0
 41
0.0
  0
VERTEX
  5
   593
  8
0
  6
CONTINUOUS
 10
-570.00373482642
 20
90.6248925086704
 30
0.0
 40
0.0
 41
0.0
  0
VERTEX
  5
   594
  8
0
  6
CONTINUOUS
 10
-570.09168328382
 20
90.6054000736909
 30
0.0
 40
0.0
 41
0.0
  0
VERTEX
  5
   595
  8
0
  6
CONTINUOUS
 10
-570.177612906548
 20
90.5837734050703
 30
0.0
 40
0.0
 41
0.0
  0
VERTEX
  5
   596
  8
0
  6
CONTINUOUS
 10
-570.261316682616
 20
90.5600646033476
 30
0.0
 40
0.0
 41
0.0
  0
VERTEX
  5
   597
  8
0
  6
CONTINUOUS
 10
-570.342592962298
 20
90.5343307851029
 30
0.0
 40
0.0
 41
0.0
  0
VERTEX
  5
   598
  8
0
  6
CONTINUOUS
 10
-570.421245943916
 20
90.5066339453583
 30
0.0
 40
0.0
 41
0.0
  0
VERTEX
  5
   599
  8
0
  6
CONTINUOUS
 10
-570.497086145547
 20
90.4770408082266
 30
0.0
 40
0.0
 41
0.0
  0
VERTEX
  5
   59A
  8
0
  6
CONTINUOUS
 10
-570.569930861504
 20
90.4456226661675
 30
0.0
 40
0.0
 41
0.0
  0
VERTEX
  5
   59B
  8
0
  6
CONTINUOUS
 10
-570.639604602486
 20
90.4124552082368
 30
0.0
 40
0.0
 41
0.0
  0
VERTEX
  5
   59C
  8
0
  6
CONTINUOUS
 10
-570.705939518347
 20
90.377618337746
 30
0.0
 40
0.0
 41
0.0
  0
VERTEX
  5
   59D
  8
0
  6
CONTINUOUS
 10
-570.768775802465
 20
90.3411959797673
 30
0.0
 40
0.0
 41
0.0
  0
VERTEX
  5
   59E
  8
0
  6
CONTINUOUS
 10
-570.827962076728
 20
90.3032758789514
 30
0.0
 40
0.0
 41
0.0
  0
VERTEX
  5
   59F
  8
0
  6
CONTINUOUS
 10
-570.883355756217
 20
90.2639493881425
 30
0.0
 40
0.0
 41
0.0
  0
VERTEX
  5
   5A0
  8
0
  6
CONTINUOUS
 10
-570.934823392706
 20
90.2233112483017
 30
0.0
 40
0.0
 41
0.0
  0
VERTEX
  5
   5A1
  8
0
  6
CONTINUOUS
 10
-570.982240996151
 20
90.1814593602672
 30
0.0
 40
0.0
 41
0.0
  0
VERTEX
  5
   5A2
  8
0
  6
CONTINUOUS
 10
-571.025494333392
 20
90.1384945489031
 30
0.0
 40
0.0
 41
0.0
  0
VERTEX
  5
   5A3
  8
0
  6
CONTINUOUS
 10
-571.064479203351
 20
90.0945203202033
 30
0.0
 40
0.0
 41
0.0
  0
VERTEX
  5
   5A4
  8
0
  6
CONTINUOUS
 10
-571.082341205693
 20
90.0721876918552
 30
0.0
 40
0.0
 41
0.0
  0
VERTEX
  5
   5A5
  8
0
  6
CONTINUOUS
 10
-571.099101688061
 20
90.0496426119365
 30
0.0
 40
0.0
 41
0.0
  0
VERTEX
  5
   5A6
  8
0
  6
CONTINUOUS
 10
-571.11475055457
 20
90.0268986607603
 30
0.0
 40
0.0
 41
0.0
  0
VERTEX
  5
   5A7
  8
0
  6
CONTINUOUS
 10
-571.129278378925
 20
90.0039695384325
 30
0.0
 40
0.0
 41
0.0
  0
VERTEX
  5
   5A8
  8
0
  6
CONTINUOUS
 10
-571.14267641011
 20
89.9808690565989
 30
0.0
 40
0.0
 41
0.0
  0
VERTEX
  5
   5A9
  8
0
  6
CONTINUOUS
 10
-571.154936577651
 20
89.957611130126
 30
0.0
 40
0.0
 41
0.0
  0
VERTEX
  5
   5AA
  8
0
  6
CONTINUOUS
 10
-571.166051496481
 20
89.9342097687191
 30
0.0
 40
0.0
 41
0.0
  0
VERTEX
  5
   5AB
  8
0
  6
CONTINUOUS
 10
-571.17601447139
 20
89.9106790684832
 30
0.0
 40
0.0
 41
0.0
  0
VERTEX
  5
   5AC
  8
0
  6
CONTINUOUS
 10
-571.184819501053
 20
89.8870332034322
 30
0.0
 40
0.0
 41
0.0
  0
VERTEX
  5
   5AD
  8
0
  6
CONTINUOUS
 10
-571.19246128165
 20
89.8632864169512
 30
0.0
 40
0.0
 41
0.0
  0
VERTEX
  5
   5AE
  8
0
  6
CONTINUOUS
 10
-571.198935210059
 20
89.8394530132163
 30
0.0
 40
0.0
 41
0.0
  0
VERTEX
  5
   5AF
  8
0
  6
CONTINUOUS
 10
-571.204237386626
 20
89.8155473485788
 30
0.0
 40
0.0
 41
0.0
  0
VERTEX
  5
   5B0
  8
0
  6
CONTINUOUS
 10
-571.208364617519
 20
89.7915838229171
 30
0.0
 40
0.0
 41
0.0
  0
VERTEX
  5
   5B1
  8
0
  6
CONTINUOUS
 10
-571.211314416648
 20
89.767576870963
 30
0.0
 40
0.0
 41
0.0
  0
VERTEX
  5
   5B2
  8
0
  6
CONTINUOUS
 10
-571.213085007165
 20
89.7435409536068
 30
0.0
 40
0.0
 41
0.0
  0
VERTEX
  5
   5B3
  8
0
  6
CONTINUOUS
 10
-571.213675322532
 20
89.7194905491863
 30
0.0
 40
0.0
 41
0.0
  0
SEQEND
  5
   5B4
  8
0
  6
CONTINUOUS
 62
   218
  0
POLYLINE
  5
   5B5
  8
0
  6
CONTINUOUS
 62
   218
 66
     1
 10
0.0
 20
0.0
 30
0.0
  0
VERTEX
  5
   5B6
  8
0
  6
CONTINUOUS
 10
-563.373675169944
 20
89.7194905491937
 30
0.0
 40
0.0
 41
0.0
  0
VERTEX
  5
   5B7
  8
0
  6
CONTINUOUS
 10
-563.374265485311
 20
89.7435409536142
 30
0.0
 40
0.0
 41
0.0
  0
VERTEX
  5
   5B8
  8
0
  6
CONTINUOUS
 10
-563.376036075828
 20
89.7675768709704
 30
0.0
 40
0.0
 41
0.0
  0
VERTEX
  5
   5B9
  8
0
  6
CONTINUOUS
 10
-563.378985874958
 20
89.7915838229245
 30
0.0
 40
0.0
 41
0.0
  0
VERTEX
  5
   5BA
  8
0
  6
CONTINUOUS
 10
-563.383113105851
 20
89.8155473485862
 30
0.0
 40
0.0
 41
0.0
  0
VERTEX
  5
   5BB
  8
0
  6
CONTINUOUS
 10
-563.388415282418
 20
89.8394530132237
 30
0.0
 40
0.0
 41
0.0
  0
VERTEX
  5
   5BC
  8
0
  6
CONTINUOUS
 10
-563.394889210827
 20
89.8632864169586
 30
0.0
 40
0.0
 41
0.0
  0
VERTEX
  5
   5BD
  8
0
  6
CONTINUOUS
 10
-563.402530991425
 20
89.8870332034396
 30
0.0
 40
0.0
 41
0.0
  0
VERTEX
  5
   5BE
  8
0
  6
CONTINUOUS
 10
-563.411336021088
 20
89.9106790684906
 30
0.0
 40
0.0
 41
0.0
  0
VERTEX
  5
   5BF
  8
0
  6
CONTINUOUS
 10
-563.421298995997
 20
89.9342097687265
 30
0.0
 40
0.0
 41
0.0
  0
VERTEX
  5
   5C0
  8
0
  6
CONTINUOUS
 10
-563.432413914828
 20
89.9576111301334
 30
0.0
 40
0.0
 41
0.0
  0
VERTEX
  5
   5C1
  8
0
  6
CONTINUOUS
 10
-563.444674082369
 20
89.9808690566062
 30
0.0
 40
0.0
 41
0.0
  0
VERTEX
  5
   5C2
  8
0
  6
CONTINUOUS
 10
-563.458072113554
 20
90.0039695384398
 30
0.0
 40
0.0
 41
0.0
  0
VERTEX
  5
   5C3
  8
0
  6
CONTINUOUS
 10
-563.472599937909
 20
90.0268986607676
 30
0.0
 40
0.0
 41
0.0
  0
VERTEX
  5
   5C4
  8
0
  6
CONTINUOUS
 10
-563.488248804418
 20
90.0496426119437
 30
0.0
 40
0.0
 41
0.0
  0
VERTEX
  5
   5C5
  8
0
  6
CONTINUOUS
 10
-563.505009286787
 20
90.0721876918623
 30
0.0
 40
0.0
 41
0.0
  0
VERTEX
  5
   5C6
  8
0
  6
CONTINUOUS
 10
-563.522871289128
 20
90.0945203202104
 30
0.0
 40
0.0
 41
0.0
  0
VERTEX
  5
   5C7
  8
0
  6
CONTINUOUS
 10
-563.561856159088
 20
90.1384945489101
 30
0.0
 40
0.0
 41
0.0
  0
VERTEX
  5
   5C8
  8
0
  6
CONTINUOUS
 10
-563.605109496329
 20
90.1814593602741
 30
0.0
 40
0.0
 41
0.0
  0
VERTEX
  5
   5C9
  8
0
  6
CONTINUOUS
 10
-563.652527099775
 20
90.2233112483084
 30
0.0
 40
0.0
 41
0.0
  0
VERTEX
  5
   5CA
  8
0
  6
CONTINUOUS
 10
-563.703994736264
 20
90.2639493881491
 30
0.0
 40
0.0
 41
0.0
  0
VERTEX
  5
   5CB
  8
0
  6
CONTINUOUS
 10
-563.759388415753
 20
90.3032758789577
 30
0.0
 40
0.0
 41
0.0
  0
VERTEX
  5
   5CC
  8
0
  6
CONTINUOUS
 10
-563.818574690017
 20
90.3411959797734
 30
0.0
 40
0.0
 41
0.0
  0
VERTEX
  5
   5CD
  8
0
  6
CONTINUOUS
 10
-563.881410974135
 20
90.3776183377518
 30
0.0
 40
0.0
 41
0.0
  0
VERTEX
  5
   5CE
  8
0
  6
CONTINUOUS
 10
-563.947745889997
 20
90.4124552082425
 30
0.0
 40
0.0
 41
0.0
  0
VERTEX
  5
   5CF
  8
0
  6
CONTINUOUS
 10
-564.017419630979
 20
90.4456226661729
 30
0.0
 40
0.0
 41
0.0
  0
VERTEX
  5
   5D0
  8
0
  6
CONTINUOUS
 10
-564.090264346936
 20
90.4770408082318
 30
0.0
 40
0.0
 41
0.0
  0
VERTEX
  5
   5D1
  8
0
  6
CONTINUOUS
 10
-564.166104548568
 20
90.5066339453631
 30
0.0
 40
0.0
 41
0.0
  0
VERTEX
  5
   5D2
  8
0
  6
CONTINUOUS
 10
-564.244757530186
 20
90.5343307851074
 30
0.0
 40
0.0
 41
0.0
  0
VERTEX
  5
   5D3
  8
0
  6
CONTINUOUS
 10
-564.326033809868
 20
90.5600646033518
 30
0.0
 40
0.0
 41
0.0
  0
VERTEX
  5
   5D4
  8
0
  6
CONTINUOUS
 10
-564.409737585937
 20
90.5837734050741
 30
0.0
 40
0.0
 41
0.0
  0
VERTEX
  5
   5D5
  8
0
  6
CONTINUOUS
 10
-564.495667208665
 20
90.6054000736944
 30
0.0
 40
0.0
 41
0.0
  0
VERTEX
  5
   5D6
  8
0
  6
CONTINUOUS
 10
-564.583615666065
 20
90.6248925086736
 30
0.0
 40
0.0
 41
0.0
  0
VERTEX
  5
   5D7
  8
0
  6
CONTINUOUS
 10
-564.673371082599
 20
90.6422037510286
 30
0.0
 40
0.0
 41
0.0
  0
VERTEX
  5
   5D8
  8
0
  6
CONTINUOUS
 10
-564.764717229607
 20
90.6572920964602
 30
0.0
 40
0.0
 41
0.0
  0
VERTEX
  5
   5D9
  8
0
  6
CONTINUOUS
 10
-564.85743404622
 20
90.6701211958227
 30
0.0
 40
0.0
 41
0.0
  0
VERTEX
  5
   5DA
  8
0
  6
CONTINUOUS
 10
-564.951298169506
 20
90.6806601426921
 30
0.0
 40
0.0
 41
0.0
  0
VERTEX
  5
   5DB
  8
0
  6
CONTINUOUS
 10
-565.04608347257
 20
90.6888835478222
 30
0.0
 40
0.0
 41
0.0
  0
VERTEX
  5
   5DC
  8
0
  6
CONTINUOUS
 10
-565.141561609315
 20
90.6947716003097
 30
0.0
 40
0.0
 41
0.0
  0
VERTEX
  5
   5DD
  8
0
  6
CONTINUOUS
 10
-565.237502564546
 20
90.6983101153206
 30
0.0
 40
0.0
 41
0.0
  0
VERTEX
  5
   5DE
  8
0
  6
CONTINUOUS
 10
-565.3336752081
 20
90.6994905682622
 30
0.0
 40
0.0
 41
0.0
  0
VERTEX
  5
   5DF
  8
0
  6
CONTINUOUS
 10
-565.429847851653
 20
90.69831011532
 30
0.0
 40
0.0
 41
0.0
  0
VERTEX
  5
   5E0
  8
0
  6
CONTINUOUS
 10
-565.525788806885
 20
90.6947716003085
 30
0.0
 40
0.0
 41
0.0
  0
VERTEX
  5
   5E1
  8
0
  6
CONTINUOUS
 10
-565.62126694363
 20
90.6888835478203
 30
0.0
 40
0.0
 41
0.0
  0
VERTEX
  5
   5E2
  8
0
  6
CONTINUOUS
 10
-565.716052246694
 20
90.6806601426896
 30
0.0
 40
0.0
 41
0.0
  0
VERTEX
  5
   5E3
  8
0
  6
CONTINUOUS
 10
-565.809916369979
 20
90.6701211958197
 30
0.0
 40
0.0
 41
0.0
  0
VERTEX
  5
   5E4
  8
0
  6
CONTINUOUS
 10
-565.902633186592
 20
90.6572920964566
 30
0.0
 40
0.0
 41
0.0
  0
VERTEX
  5
   5E5
  8
0
  6
CONTINUOUS
 10
-565.9939793336
 20
90.6422037510245
 30
0.0
 40
0.0
 41
0.0
  0
VERTEX
  5
   5E6
  8
0
  6
CONTINUOUS
 10
-566.083734750134
 20
90.6248925086689
 30
0.0
 40
0.0
 41
0.0
  0
VERTEX
  5
   5E7
  8
0
  6
CONTINUOUS
 10
-566.171683207533
 20
90.6054000736892
 30
0.0
 40
0.0
 41
0.0
  0
VERTEX
  5
   5E8
  8
0
  6
CONTINUOUS
 10
-566.257612830261
 20
90.5837734050684
 30
0.0
 40
0.0
 41
0.0
  0
VERTEX
  5
   5E9
  8
0
  6
CONTINUOUS
 10
-566.341316606329
 20
90.5600646033455
 30
0.0
 40
0.0
 41
0.0
  0
VERTEX
  5
   5EA
  8
0
  6
CONTINUOUS
 10
-566.422592886011
 20
90.5343307851006
 30
0.0
 40
0.0
 41
0.0
  0
VERTEX
  5
   5EB
  8
0
  6
CONTINUOUS
 10
-566.501245867628
 20
90.5066339453558
 30
0.0
 40
0.0
 41
0.0
  0
VERTEX
  5
   5EC
  8
0
  6
CONTINUOUS
 10
-566.57708606926
 20
90.477040808224
 30
0.0
 40
0.0
 41
0.0
  0
VERTEX
  5
   5ED
  8
0
  6
CONTINUOUS
 10
-566.649930785217
 20
90.4456226661646
 30
0.0
 40
0.0
 41
0.0
  0
VERTEX
  5
   5EE
  8
0
  6
CONTINUOUS
 10
-566.719604526198
 20
90.4124552082338
 30
0.0
 40
0.0
 41
0.0
  0
VERTEX
  5
   5EF
  8
0
  6
CONTINUOUS
 10
-566.785939442059
 20
90.3776183377427
 30
0.0
 40
0.0
 41
0.0
  0
VERTEX
  5
   5F0
  8
0
  6
CONTINUOUS
 10
-566.848775726177
 20
90.3411959797639
 30
0.0
 40
0.0
 41
0.0
  0
VERTEX
  5
   5F1
  8
0
  6
CONTINUOUS
 10
-566.907962000439
 20
90.3032758789479
 30
0.0
 40
0.0
 41
0.0
  0
VERTEX
  5
   5F2
  8
0
  6
CONTINUOUS
 10
-566.963355679928
 20
90.2639493881388
 30
0.0
 40
0.0
 41
0.0
  0
VERTEX
  5
   5F3
  8
0
  6
CONTINUOUS
 10
-567.014823316417
 20
90.2233112482978
 30
0.0
 40
0.0
 41
0.0
  0
VERTEX
  5
   5F4
  8
0
  6
CONTINUOUS
 10
-567.062240919861
 20
90.1814593602632
 30
0.0
 40
0.0
 41
0.0
  0
VERTEX
  5
   5F5
  8
0
  6
CONTINUOUS
 10
-567.105494257102
 20
90.138494548899
 30
0.0
 40
0.0
 41
0.0
  0
VERTEX
  5
   5F6
  8
0
  6
CONTINUOUS
 10
-567.144479127061
 20
90.0945203201991
 30
0.0
 40
0.0
 41
0.0
  0
VERTEX
  5
   5F7
  8
0
  6
CONTINUOUS
 10
-567.162341129402
 20
90.0721876918509
 30
0.0
 40
0.0
 41
0.0
  0
VERTEX
  5
   5F8
  8
0
  6
CONTINUOUS
 10
-567.179101611771
 20
90.0496426119321
 30
0.0
 40
0.0
 41
0.0
  0
VERTEX
  5
   5F9
  8
0
  6
CONTINUOUS
 10
-567.194750478279
 20
90.0268986607559
 30
0.0
 40
0.0
 41
0.0
  0
VERTEX
  5
   5FA
  8
0
  6
CONTINUOUS
 10
-567.209278302634
 20
90.003969538428
 30
0.0
 40
0.0
 41
0.0
  0
VERTEX
  5
   5FB
  8
0
  6
CONTINUOUS
 10
-567.222676333818
 20
89.9808690565943
 30
0.0
 40
0.0
 41
0.0
  0
VERTEX
  5
   5FC
  8
0
  6
CONTINUOUS
 10
-567.234936501359
 20
89.9576111301214
 30
0.0
 40
0.0
 41
0.0
  0
VERTEX
  5
   5FD
  8
0
  6
CONTINUOUS
 10
-567.246051420189
 20
89.9342097687144
 30
0.0
 40
0.0
 41
0.0
  0
VERTEX
  5
   5FE
  8
0
  6
CONTINUOUS
 10
-567.256014395098
 20
89.9106790684785
 30
0.0
 40
0.0
 41
0.0
  0
VERTEX
  5
   5FF
  8
0
  6
CONTINUOUS
 10
-567.264819424761
 20
89.8870332034275
 30
0.0
 40
0.0
 41
0.0
  0
VERTEX
  5
   600
  8
0
  6
CONTINUOUS
 10
-567.272461205358
 20
89.8632864169464
 30
0.0
 40
0.0
 41
0.0
  0
VERTEX
  5
   601
  8
0
  6
CONTINUOUS
 10
-567.278935133766
 20
89.8394530132115
 30
0.0
 40
0.0
 41
0.0
  0
VERTEX
  5
   602
  8
0
  6
CONTINUOUS
 10
-567.284237310333
 20
89.815547348574
 30
0.0
 40
0.0
 41
0.0
  0
VERTEX
  5
   603
  8
0
  6
CONTINUOUS
 10
-567.288364541226
 20
89.7915838229122
 30
0.0
 40
0.0
 41
0.0
  0
VERTEX
  5
   604
  8
0
  6
CONTINUOUS
 10
-567.291314340355
 20
89.7675768709582
 30
0.0
 40
0.0
 41
0.0
  0
VERTEX
  5
   605
  8
0
  6
CONTINUOUS
 10
-567.293084930872
 20
89.7435409536019
 30
0.0
 40
0.0
 41
0.0
  0
VERTEX
  5
   606
  8
0
  6
CONTINUOUS
 10
-567.293675246238
 20
89.7194905491813
 30
0.0
 40
0.0
 41
0.0
  0
SEQEND
  5
   607
  8
0
  6
CONTINUOUS
 62
   218
  0
INSERT
  5
   608
  8
0
  6
CONTINUOUS
 62
   218
  2
*HATCH138
 10
-513.246704101563
 20
-48.6316223144531
 30
0.0
 41
0.490000009536743
 42
0.490000009536743
 50
89.9999999480344
 43
0.490000009536743
  0
LINE
  5
   609
  8
0
  6
CONTINUOUS
 62
   218
 10
-566.597092576927
 20
69.3295321725564
 30
0.0
 11
-564.609887465666
 21
80.5995323919015
 31
0.0
  0
LINE
  5
   60A
  8
0
  6
CONTINUOUS
 62
   218
 10
-565.900509907616
 20
69.3295321725564
 30
0.0
 11
-564.25567518711
 21
78.6578534192368
 31
0.0
  0
LINE
  5
   60B
  8
0
  6
CONTINUOUS
 62
   218
 10
-565.203927238305
 20
69.3295321725564
 30
0.0
 11
-564.25567518711
 21
74.7073367909124
 31
0.0
  0
LINE
  5
   60C
  8
0
  6
CONTINUOUS
 62
   218
 10
-564.507344568994
 20
69.3295321725564
 30
0.0
 11
-564.25567518711
 21
70.756820162588
 31
0.0
  0
LINE
  5
   60D
  8
0
  6
CONTINUOUS
 62
   218
 10
-567.990257915549
 20
69.3295321725564
 30
0.0
 11
-566.003052804288
 21
80.5995323919015
 31
0.0
  0
LINE
  5
   60E
  8
0
  6
CONTINUOUS
 62
   218
 10
-568.68684058486
 20
69.3295321725564
 30
0.0
 11
-566.699635473599
 21
80.5995323919015
 31
0.0
  0
LINE
  5
   60F
  8
0
  6
CONTINUOUS
 62
   218
 10
-569.383423254171
 20
69.3295321725564
 30
0.0
 11
-567.396218142911
 21
80.5995323919015
 31
0.0
  0
LINE
  5
   610
  8
0
  6
CONTINUOUS
 62
   218
 10
-570.080005923482
 20
69.3295321725564
 30
0.0
 11
-568.092800812221
 21
80.5995323919015
 31
0.0
  0
LINE
  5
   611
  8
0
  6
CONTINUOUS
 62
   218
 10
-570.331675305366
 20
71.8527608108496
 30
0.0
 11
-568.789383481533
 21
80.5995323919015
 31
0.0
  0
LINE
  5
   612
  8
0
  6
CONTINUOUS
 62
   218
 10
-570.331675305366
 20
75.8032774391741
 30
0.0
 11
-569.485966150844
 21
80.5995323919015
 31
0.0
  0
LINE
  5
   613
  8
0
  6
CONTINUOUS
 62
   218
 10
-570.331675305366
 20
79.7537940674986
 30
0.0
 11
-570.182548820155
 21
80.5995323919014
 31
0.0
  0
LINE
  5
   614
  8
0
  6
CONTINUOUS
 62
     7
 10
-591.009698138237
 20
35.5685315154747
 30
0.0
 11
-591.009698138237
 21
39.3905315898613
 31
0.0
  0
LINE
  5
   615
  8
0
  6
CONTINUOUS
 62
     7
 10
-592.577698168754
 20
36.4995315335945
 30
0.0
 11
-592.577698168754
 21
38.4595315717415
 31
0.0
  0
LINE
  5
   616
  8
0
  6
CONTINUOUS
 62
     7
 10
-589.441698107719
 20
39.3905315898613
 30
0.0
 11
-591.009698138237
 21
39.3905315898613
 31
0.0
  0
LINE
  5
   617
  8
0
  6
CONTINUOUS
 62
     7
 10
-589.441698107719
 20
35.5685315154747
 30
0.0
 11
-591.009698138237
 21
35.5685315154747
 31
0.0
  0
LINE
  5
   618
  8
0
  6
CONTINUOUS
 62
     7
 10
-589.441698107719
 20
38.4595315717415
 30
0.0
 11
-592.577698168754
 21
38.4595315717415
 31
0.0
  0
LINE
  5
   619
  8
0
  6
CONTINUOUS
 62
     7
 10
-589.441698107719
 20
36.4995315335945
 30
0.0
 11
-592.577698168754
 21
36.4995315335945
 31
0.0
  0
LINE
  5
   61A
  8
0
  6
CONTINUOUS
 62
     7
 10
-589.441698107719
 20
-26.759469697599
 30
0.0
 11
-591.009698138237
 21
-26.759469697599
 31
0.0
  0
LINE
  5
   61B
  8
0
  6
CONTINUOUS
 62
     7
 10
-589.441698107719
 20
-27.6904697157188
 30
0.0
 11
-592.577698168754
 21
-27.6904697157188
 31
0.0
  0
LINE
  5
   61C
  8
0
  6
CONTINUOUS
 62
     7
 10
-589.441698107719
 20
-29.6504697538658
 30
0.0
 11
-592.577698168754
 21
-29.6504697538658
 31
0.0
  0
LINE
  5
   61D
  8
0
  6
CONTINUOUS
 62
     7
 10
-589.441698107719
 20
-30.5814697719856
 30
0.0
 11
-591.009698138237
 21
-30.5814697719856
 31
0.0
  0
LINE
  5
   61E
  8
0
  6
CONTINUOUS
 62
     7
 10
-591.009698138237
 20
-30.5814697719856
 30
0.0
 11
-591.009698138237
 21
-26.759469697599
 31
0.0
  0
LINE
  5
   61F
  8
0
  6
CONTINUOUS
 62
     7
 10
-592.577698168754
 20
-29.6504697538658
 30
0.0
 11
-592.577698168754
 21
-27.6904697157188
 31
0.0
  0
INSERT
  5
   620
  8
0
  6
CONTINUOUS
 62
     7
  2
*UDIM443
 10
0.0
 20
0.0
 30
0.0
  0
INSERT
  5
   621
  8
0
  6
CONTINUOUS
 62
     7
  2
*UDIM444
 10
0.0
 20
0.0
 30
0.0
  0
INSERT
  5
   622
  8
0
  6
CONTINUOUS
 62
     7
  2
*UDIM445
 10
0.0
 20
0.0
 30
0.0
  0
INSERT
  5
   623
  8
0
  6
CONTINUOUS
 62
     7
  2
*UDIM446
 10
0.0
 20
0.0
 30
0.0
  0
INSERT
  5
   624
  8
0
  6
CONTINUOUS
 62
     7
  2
*UDIM447
 10
0.0
 20
0.0
 30
0.0
  0
INSERT
  5
   625
  8
0
  6
CONTINUOUS
 62
     7
  2
*UDIM448
 10
0.0
 20
0.0
 30
0.0
  0
TEXT
  5
   626
  8
0
  6
CONTINUOUS
 62
     7
 10
-481.833648084952
 20
-13.3470887994799
 30
0.0
 40
3.00000008819055
  1
=          =
 50
89.9999999480344
 41
0.916666610307164
 72
     2
 11
-481.833648055561
 21
19.1029101582883
 31
0.0
  0
INSERT
  5
   627
  8
0
  6
CONTINUOUS
 62
     7
  2
*UDIM449
 10
0.0
 20
0.0
 30
0.0
  0
INSERT
  5
   628
  8
0
  6
CONTINUOUS
 62
     7
  2
*UDIM450
 10
0.0
 20
0.0
 30
0.0
  0
INSERT
  5
   629
  8
0
  6
CONTINUOUS
 62
     7
  2
*UDIM451
 10
0.0
 20
0.0
 30
0.0
  0
INSERT
  5
   62A
  8
0
  6
CONTINUOUS
 62
     7
  2
*UDIM452
 10
0.0
 20
0.0
 30
0.0
  0
INSERT
  5
   62B
  8
0
  6
CONTINUOUS
 62
     7
  2
*UDIM453
 10
0.0
 20
0.0
 30
0.0
  0
TEXT
  5
   62C
  8
0
  6
CONTINUOUS
 62
     7
 10
-480.035147278803
 20
3.94771068575306
 30
0.0
 40
3.00000008819055
  1
X
 50
359.999999948034
 41
0.916666610307164
 72
     1
 11
-478.935147313262
 21
5.44771072885619
 31
0.0
 73
     2
  0
LINE
  5
   62D
  8
0
  6
CONTINUOUS
 62
     7
 10
-678.308460420527
 20
-20.4629509593287
 30
0.0
 11
-683.208460515894
 21
-20.4629509593287
 31
0.0
  0
LINE
  5
   62E
  8
0
  6
CONTINUOUS
 62
     7
 10
-690.558460658946
 20
30.0070350693422
 30
0.0
 11
-690.558460658946
 21
30.9870350884157
 31
0.0
  0
LINE
  5
   62F
  8
0
  6
CONTINUOUS
 62
     7
 10
-664.83347511188
 20
-20.4629509593287
 30
0.0
 11
-678.308460420527
 21
-20.4629509593287
 31
0.0
  0
LINE
  5
   630
  8
0
  6
CONTINUOUS
 62
    52
 10
-646.458489707866
 20
-20.4629509593287
 30
0.0
 11
-651.358489803233
 21
-20.4629509593287
 31
0.0
  0
LINE
  5
   631
  8
0
  6
CONTINUOUS
 62
    52
 10
-651.358489803233
 20
-20.4629509593287
 30
0.0
 11
-664.83347511188
 21
-20.4629509593287
 31
0.0
  0
LINE
  5
   632
  8
0
  6
CONTINUOUS
 62
     7
 10
-690.558460658946
 20
44.7070306824384
 30
0.0
 11
-690.558460658946
 21
54.6295355485636
 31
0.0
  0
LINE
  5
   633
  8
0
  6
CONTINUOUS
 62
     7
 10
-639.108489564815
 20
44.7070306824384
 30
0.0
 11
-639.108489564815
 21
54.6295355485636
 31
0.0
  0
LINE
  5
   634
  8
0
  6
DASHDOT
 62
     3
 10
-670.590966235866
 20
-20.3404425931657
 30
0.0
 11
-676.225953962751
 21
-20.3404425931657
 31
0.0
  0
LINE
  5
   635
  8
0
  6
DASHDOT
 62
     3
 10
-653.440766877057
 20
-20.3406592937215
 30
0.0
 11
-659.07611741247
 21
-20.3406592937215
 31
0.0
  0
LINE
  5
   636
  8
0
  6
CONTINUOUS
 62
     7
 10
-678.308467897334
 20
-20.4629509593287
 30
0.0
 11
-683.208460515894
 21
-20.4629509593287
 31
0.0
  0
LINE
  5
   637
  8
0
  6
CONTINUOUS
 62
     7
 10
-646.458474754252
 20
-20.4629509593287
 30
0.0
 11
-651.35847484962
 21
-20.4629509593287
 31
0.0
  0
LINE
  5
   638
  8
0
  6
CONTINUOUS
 62
     7
 10
-639.108459657588
 20
-20.2179509545604
 30
0.0
 11
-639.108459657588
 21
-11.3979582597058
 31
0.0
  0
LINE
  5
   639
  8
0
  6
CONTINUOUS
 62
     7
 10
-690.558460658946
 20
-20.2179509545604
 30
0.0
 11
-690.558460658946
 21
-11.3979582597058
 31
0.0
  0
LINE
  5
   63A
  8
0
  6
CONTINUOUS
 62
     7
 10
-639.353459662356
 20
30.9870500420293
 30
0.0
 11
-690.313460654164
 21
30.9870500420293
 31
0.0
  0
LINE
  5
   63B
  8
0
  6
CONTINUOUS
 62
     7
 10
-683.208460515894
 20
-20.4629509593287
 30
0.0
 11
-690.313460654177
 21
-20.4629509593287
 31
0.0
  0
LINE
  5
   63C
  8
0
  6
CONTINUOUS
 62
     7
 10
-651.35847484962
 20
-20.4629509593287
 30
0.0
 11
-678.308467897334
 21
-20.4629509593287
 31
0.0
  0
LINE
  5
   63D
  8
0
  6
CONTINUOUS
 62
     7
 10
-639.353459662356
 20
-20.4629509593287
 30
0.0
 11
-646.458474754252
 21
-20.4629509593287
 31
0.0
  0
LINE
  5
   63E
  8
0
  6
CONTINUOUS
 62
     7
 10
-659.565960055747
 20
-9.56045822394299
 30
0.0
 11
-659.565960055747
 21
10.03953468072
 31
0.0
  0
LINE
  5
   63F
  8
0
  6
CONTINUOUS
 62
     7
 10
-670.100960260787
 20
-9.56045822394299
 30
0.0
 11
-670.100960260787
 21
10.03953468072
 31
0.0
  0
LINE
  5
   640
  8
0
  6
CONTINUOUS
 62
     7
 10
-639.108459657588
 20
25.1070349739748
 30
0.0
 11
-690.558460658946
 21
25.1070349739748
 31
0.0
  0
LINE
  5
   641
  8
0
  6
CONTINUOUS
 62
     7
 10
-639.108459657588
 20
30.0070350693422
 30
0.0
 11
-690.558460658946
 21
30.0070350693422
 31
0.0
  0
LINE
  5
   642
  8
0
  6
CONTINUOUS
 62
     7
 10
-659.565960055747
 20
9.9099466655025
 30
0.0
 11
-670.100960260787
 21
9.9099466655025
 31
0.0
  0
LINE
  5
   643
  8
0
  6
CONTINUOUS
 62
     7
 10
-659.565960055747
 20
10.0395346807199
 30
0.0
 11
-670.100960260787
 21
10.0395346807199
 31
0.0
  0
LINE
  5
   644
  8
0
  6
CONTINUOUS
 62
     7
 10
-659.565960055747
 20
-9.56045822394299
 30
0.0
 11
-670.100960260787
 21
-9.56045822394299
 31
0.0
  0
LINE
  5
   645
  8
0
  6
CONTINUOUS
 62
     7
 10
-659.565960055747
 20
-9.43085525511197
 30
0.0
 11
-670.100960260787
 21
-9.43085525511197
 31
0.0
  0
LINE
  5
   646
  8
0
  6
CONTINUOUS
 62
     7
 10
-639.108467134394
 20
-10.907958250169
 30
0.0
 11
-639.108467134394
 21
-5.02796203281506
 31
0.0
  0
LINE
  5
   647
  8
0
  6
CONTINUOUS
 62
     7
 10
-639.108467134394
 20
11.8770421932895
 30
0.0
 11
-639.108467134394
 21
30.7420500372609
 31
0.0
  0
LINE
  5
   648
  8
0
  6
CONTINUOUS
 62
     7
 10
-639.108467134394
 20
-4.53796202327829
 30
0.0
 11
-639.108467134394
 21
5.01704205977512
 31
0.0
  0
LINE
  5
   649
  8
0
  6
CONTINUOUS
 62
     7
 10
-639.108467134394
 20
5.50704206931186
 30
0.0
 11
-639.108467134394
 21
11.3870421837528
 31
0.0
  0
LINE
  5
   64A
  8
0
  6
CONTINUOUS
 62
     7
 10
-690.558460658948
 20
-10.907958250169
 30
0.0
 11
-690.558460658948
 21
-5.02795813572705
 31
0.0
  0
LINE
  5
   64B
  8
0
  6
CONTINUOUS
 62
     7
 10
-690.558460658957
 20
-4.53795812619028
 30
0.0
 11
-690.558460658957
 21
5.01704205977512
 31
0.0
  0
LINE
  5
   64C
  8
0
  6
CONTINUOUS
 62
     7
 10
-690.558460658943
 20
5.50704206931186
 30
0.0
 11
-690.558460658943
 21
11.3870421837528
 31
0.0
  0
LINE
  5
   64D
  8
0
  6
CONTINUOUS
 62
     7
 10
-690.558460658932
 20
11.8770421932895
 30
0.0
 11
-690.558460658932
 21
30.7420500372609
 31
0.0
  0
LINE
  5
   64E
  8
0
  6
CONTINUOUS
 62
     7
 10
-670.100964167911
 20
-5.02795813572912
 30
0.0
 11
-690.068460678615
 21
-5.02795813572912
 31
0.0
  0
LINE
  5
   64F
  8
0
  6
CONTINUOUS
 62
     7
 10
-639.108467134394
 20
-5.02794318211555
 30
0.0
 11
-639.598467143931
 21
-5.02794318211555
 31
0.0
  0
LINE
  5
   650
  8
0
  6
CONTINUOUS
 62
     7
 10
-670.100973751865
 20
-4.53795812619241
 30
0.0
 11
-690.068460678615
 21
-4.53795812619241
 31
0.0
  0
LINE
  5
   651
  8
0
  6
CONTINUOUS
 62
     7
 10
-639.108467134394
 20
-4.53794317257884
 30
0.0
 11
-639.598467143931
 21
-4.53794317257884
 31
0.0
  0
LINE
  5
   652
  8
0
  6
CONTINUOUS
 62
     7
 10
-690.068460678615
 20
-5.02795813572811
 30
0.0
 11
-690.068460678615
 21
-4.53795812619137
 31
0.0
  0
LINE
  5
   653
  8
0
  6
CONTINUOUS
 62
     7
 10
-639.598467143931
 20
-5.02795813572811
 30
0.0
 11
-639.598467143931
 21
-4.53795812619137
 31
0.0
  0
LINE
  5
   654
  8
0
  6
CONTINUOUS
 62
     7
 10
-639.108459657588
 20
-11.3979582597058
 30
0.0
 11
-639.598467143931
 21
-11.3979582597058
 31
0.0
  0
LINE
  5
   655
  8
0
  6
CONTINUOUS
 62
     7
 10
-639.108467134394
 20
-10.907958250169
 30
0.0
 11
-639.598467143931
 21
-10.907958250169
 31
0.0
  0
LINE
  5
   656
  8
0
  6
CONTINUOUS
 62
     7
 10
-690.068460678615
 20
-11.3979582597058
 30
0.0
 11
-690.068460678615
 21
-10.907958250169
 31
0.0
  0
LINE
  5
   657
  8
0
  6
CONTINUOUS
 62
     7
 10
-639.598467143931
 20
-11.3979582597058
 30
0.0
 11
-639.598467143931
 21
-10.907958250169
 31
0.0
  0
LINE
  5
   658
  8
0
  6
CONTINUOUS
 62
     7
 10
-639.108467134394
 20
11.3870421837528
 30
0.0
 11
-639.598467143931
 21
11.3870421837528
 31
0.0
  0
LINE
  5
   659
  8
0
  6
CONTINUOUS
 62
     7
 10
-639.108467134394
 20
11.8770421932895
 30
0.0
 11
-639.598467143931
 21
11.8770421932895
 31
0.0
  0
LINE
  5
   65A
  8
0
  6
CONTINUOUS
 62
     7
 10
-690.068460678615
 20
11.3870421837528
 30
0.0
 11
-690.068460678615
 21
11.8770421932895
 31
0.0
  0
LINE
  5
   65B
  8
0
  6
CONTINUOUS
 62
     7
 10
-639.598467143931
 20
11.3870421837528
 30
0.0
 11
-639.598467143931
 21
11.8770421932895
 31
0.0
  0
LINE
  5
   65C
  8
0
  6
CONTINUOUS
 62
     7
 10
-670.100964145221
 20
5.01704205977511
 30
0.0
 11
-690.068460678615
 21
5.01704205977511
 31
0.0
  0
LINE
  5
   65D
  8
0
  6
CONTINUOUS
 62
     7
 10
-639.108467134394
 20
5.01704205977511
 30
0.0
 11
-639.598467143931
 21
5.01704205977511
 31
0.0
  0
LINE
  5
   65E
  8
0
  6
CONTINUOUS
 62
     7
 10
-670.100960260787
 20
5.50704206931186
 30
0.0
 11
-690.068460678615
 21
5.50704206931186
 31
0.0
  0
LINE
  5
   65F
  8
0
  6
CONTINUOUS
 62
     7
 10
-639.108467134394
 20
5.50704206931186
 30
0.0
 11
-639.598467143931
 21
5.50704206931186
 31
0.0
  0
LINE
  5
   660
  8
0
  6
CONTINUOUS
 62
     7
 10
-690.068460678615
 20
5.01704205977512
 30
0.0
 11
-690.068460678615
 21
5.50704206931186
 31
0.0
  0
LINE
  5
   661
  8
0
  6
CONTINUOUS
 62
     7
 10
-639.598467143931
 20
5.01704205977512
 30
0.0
 11
-639.598467143931
 21
5.50704206931186
 31
0.0
  0
ARC
  5
   662
  8
0
  6
CONTINUOUS
 62
     7
 10
-690.313460654177
 20
-20.2179509545604
 30
0.0
 40
0.245000004768372
 50
179.999999948034
 51
269.999999948034
  0
ARC
  5
   663
  8
0
  6
CONTINUOUS
 62
     7
 10
-639.353459662356
 20
-20.2179509545604
 30
0.0
 40
0.245000004768372
 50
269.999999948034
 51
359.999999948034
  0
ARC
  5
   664
  8
0
  6
CONTINUOUS
 62
     7
 10
-639.353459662356
 20
30.7420500372609
 30
0.0
 40
0.245000004768372
 50
359.999999948034
 51
449.999999948034
  0
ARC
  5
   665
  8
0
  6
CONTINUOUS
 62
     7
 10
-690.313460654164
 20
30.7420500372609
 30
0.0
 40
0.245000004768372
 50
449.999999948034
 51
539.999999948034
  0
LINE
  5
   666
  8
0
  6
CONTINUOUS
 62
     7
 10
-675.858460372843
 20
10.6520421694477
 30
0.0
 11
-676.593460387148
 21
10.6520421694477
 31
0.0
  0
LINE
  5
   667
  8
0
  6
CONTINUOUS
 62
     7
 10
-675.858460372843
 20
6.24204208361697
 30
0.0
 11
-676.593460387148
 21
6.24204208361697
 31
0.0
  0
CIRCLE
  5
   668
  8
0
  6
CONTINUOUS
 62
     7
 10
-676.225960379996
 20
-7.96795819294856
 30
0.0
 40
2.20500004291534
  0
CIRCLE
  5
   669
  8
0
  6
CONTINUOUS
 62
     7
 10
-676.225960379996
 20
-7.96795819294856
 30
0.0
 40
1.47000002861023
  0
LINE
  5
   66A
  8
0
  6
CONTINUOUS
 62
     7
 10
-676.593460387148
 20
6.24204208361698
 30
0.0
 11
-676.593460387148
 21
10.6520421694477
 31
0.0
  0
LINE
  5
   66B
  8
0
  6
CONTINUOUS
 62
     7
 10
-675.858460372843
 20
6.24204208361698
 30
0.0
 11
-675.858460372843
 21
10.6520421694477
 31
0.0
  0
LINE
  5
   66C
  8
0
  6
CONTINUOUS
 62
     7
 10
-671.448460287013
 20
-10.907958250169
 30
0.0
 11
-671.448460287013
 21
-5.02795113403687
 31
0.0
  0
LINE
  5
   66D
  8
0
  6
CONTINUOUS
 62
     7
 10
-658.218460029521
 20
-10.907958250169
 30
0.0
 11
-658.218460029521
 21
-5.02795503112762
 31
0.0
  0
LINE
  5
   66E
  8
0
  6
CONTINUOUS
 62
     7
 10
-658.218460029521
 20
5.50704206931186
 30
0.0
 11
-658.218460029521
 21
11.3870421837528
 31
0.0
  0
LINE
  5
   66F
  8
0
  6
CONTINUOUS
 62
     7
 10
-671.448460287013
 20
5.50704206931186
 30
0.0
 11
-671.448460287013
 21
11.3870421837528
 31
0.0
  0
LINE
  5
   670
  8
0
  6
CONTINUOUS
 62
     7
 10
-659.565960055747
 20
-5.06260782223652
 30
0.0
 11
-670.100960260787
 21
-5.06260782223652
 31
0.0
  0
LINE
  5
   671
  8
0
  6
CONTINUOUS
 62
     7
 10
-659.565960055747
 20
-8.94387455128362
 30
0.0
 11
-670.100960260787
 21
-8.94387455128362
 31
0.0
  0
LINE
  5
   672
  8
0
  6
CONTINUOUS
 62
     7
 10
-659.565960055747
 20
-5.06260816594906
 30
0.0
 11
-670.100960260787
 21
-5.06260816594906
 31
0.0
  0
LINE
  5
   673
  8
0
  6
CONTINUOUS
 62
     7
 10
-659.565960055747
 20
-2.63900874256677
 30
0.0
 11
-670.100960260787
 21
-2.63900874256677
 31
0.0
  0
LINE
  5
   674
  8
0
  6
CONTINUOUS
 62
     7
 10
-689.823488628337
 20
44.7070306824384
 30
0.0
 11
-689.823490617083
 21
52.1795355008798
 31
0.0
  0
LINE
  5
   675
  8
0
  6
CONTINUOUS
 62
     7
 10
-639.843487655587
 20
44.7070306824384
 30
0.0
 11
-639.843489644333
 21
52.1795355008798
 31
0.0
  0
LINE
  5
   676
  8
0
  6
CONTINUOUS
 62
     7
 10
-690.068460678615
 20
11.8770421932895
 30
0.0
 11
-690.558460658932
 21
11.8770421932895
 31
0.0
  0
LINE
  5
   677
  8
0
  6
CONTINUOUS
 62
     7
 10
-690.068460678615
 20
11.3870421837528
 30
0.0
 11
-690.558460658943
 21
11.3870421837528
 31
0.0
  0
LINE
  5
   678
  8
0
  6
CONTINUOUS
 62
     7
 10
-690.068460678615
 20
5.50704206931186
 30
0.0
 11
-690.558460658943
 21
5.50704206931186
 31
0.0
  0
LINE
  5
   679
  8
0
  6
CONTINUOUS
 62
     7
 10
-690.068460678615
 20
5.01704205977511
 30
0.0
 11
-690.558460658957
 21
5.01704205977511
 31
0.0
  0
LINE
  5
   67A
  8
0
  6
CONTINUOUS
 62
     7
 10
-690.068460678615
 20
-4.53795812619241
 30
0.0
 11
-690.558460658957
 21
-4.53795812619241
 31
0.0
  0
LINE
  5
   67B
  8
0
  6
CONTINUOUS
 62
     7
 10
-690.068460678615
 20
-5.02795813572912
 30
0.0
 11
-690.558460658948
 21
-5.02795813572912
 31
0.0
  0
LINE
  5
   67C
  8
0
  6
CONTINUOUS
 62
     7
 10
-690.068460678615
 20
-10.907958250169
 30
0.0
 11
-690.558460658948
 21
-10.907958250169
 31
0.0
  0
LINE
  5
   67D
  8
0
  6
CONTINUOUS
 62
     7
 10
-690.068460678615
 20
-11.3979582597058
 30
0.0
 11
-690.558460658946
 21
-11.3979582597058
 31
0.0
  0
LINE
  5
   67E
  8
0
  6
CONTINUOUS
 62
     7
 10
-639.598467143931
 20
-10.907958250169
 30
0.0
 11
-690.068460678615
 21
-10.907958250169
 31
0.0
  0
LINE
  5
   67F
  8
0
  6
CONTINUOUS
 62
     7
 10
-639.598467143931
 20
-11.3979582597058
 30
0.0
 11
-690.068460678615
 21
-11.3979582597058
 31
0.0
  0
LINE
  5
   680
  8
0
  6
CONTINUOUS
 62
     7
 10
-639.598467143931
 20
-4.53794317257884
 30
0.0
 11
-659.565961518278
 21
-4.53794317257884
 31
0.0
  0
LINE
  5
   681
  8
0
  6
CONTINUOUS
 62
     7
 10
-639.598467143931
 20
-5.02794318211555
 30
0.0
 11
-659.565961697809
 21
-5.02794318211555
 31
0.0
  0
LINE
  5
   682
  8
0
  6
CONTINUOUS
 62
     7
 10
-639.598467143931
 20
5.50704206931186
 30
0.0
 11
-659.565960055747
 21
5.50704206931186
 31
0.0
  0
LINE
  5
   683
  8
0
  6
CONTINUOUS
 62
     7
 10
-639.598467143931
 20
5.01704205977511
 30
0.0
 11
-659.565960055747
 21
5.01704205977511
 31
0.0
  0
LINE
  5
   684
  8
0
  6
CONTINUOUS
 62
     7
 10
-639.598467143931
 20
11.8770421932895
 30
0.0
 11
-690.068460678615
 21
11.8770421932895
 31
0.0
  0
LINE
  5
   685
  8
0
  6
CONTINUOUS
 62
     7
 10
-639.598467143931
 20
11.3870421837528
 30
0.0
 11
-690.068460678615
 21
11.3870421837528
 31
0.0
  0
LINE
  5
   686
  8
0
  6
DASHDOT
 62
     7
 10
-681.983506389517
 20
-68.4094556480499
 30
0.0
 11
-681.983506389517
 21
-62.4314768232991
 31
0.0
  0
LINE
  5
   687
  8
0
  6
DASHDOT
 62
     7
 10
-664.833512661671
 20
-68.4094919652658
 30
0.0
 11
-664.833512661671
 21
-62.4314625922784
 31
0.0
  0
LINE
  5
   688
  8
0
  6
DASHDOT
 62
     7
 10
-647.683511276518
 20
-68.409505582793
 30
0.0
 11
-647.683511276518
 21
-62.4314560740409
 31
0.0
  0
LINE
  5
   689
  8
0
  6
CONTINUOUS
 62
     7
 10
-639.843489644333
 20
52.1795355008798
 30
0.0
 11
-689.823490617083
 21
52.1795355008798
 31
0.0
  0
LINE
  5
   68A
  8
0
  6
CONTINUOUS
 62
     7
 10
-690.558507908131
 20
-45.3304867247148
 30
0.0
 11
-690.558476751076
 21
-34.1829689837756
 31
0.0
  0
LINE
  5
   68B
  8
0
  6
CONTINUOUS
 62
     7
 10
-639.108511697429
 20
-45.330458920125
 30
0.0
 11
-639.108497102754
 21
-34.1829689837756
 31
0.0
  0
LINE
  5
   68C
  8
0
  6
DASHDOT
 62
   130
 10
-664.833512661671
 20
-61.0945327208774
 30
0.0
 11
-664.833512661671
 21
87.5590068509599
 31
0.0
  0
LINE
  5
   68D
  8
0
  6
CONTINUOUS
 62
     7
 10
-639.598511706965
 20
53.6495000801885
 30
0.0
 11
-690.068505212443
 21
53.6495000801885
 31
0.0
  0
LINE
  5
   68E
  8
0
  6
CONTINUOUS
 62
     3
 10
-639.72101170935
 20
67.8594909452147
 30
0.0
 11
-689.946005210059
 21
67.8594909452147
 31
0.0
  0
LINE
  5
   68F
  8
0
  6
CONTINUOUS
 62
     3
 10
-639.108511697429
 20
54.1394981549927
 30
0.0
 11
-639.108511697429
 21
85.6219912909216
 31
0.0
  0
LINE
  5
   690
  8
0
  6
CONTINUOUS
 62
     3
 10
-690.558508018901
 20
54.1395014260963
 30
0.0
 11
-690.558508018901
 21
85.6219912909216
 31
0.0
  0
LINE
  5
   691
  8
0
  6
CONTINUOUS
 62
     3
 10
-688.770007243293
 20
54.1395018933961
 30
0.0
 11
-688.770007243293
 21
67.8594909452147
 31
0.0
  0
LINE
  5
   692
  8
0
  6
CONTINUOUS
 62
     3
 10
-687.00600702204
 20
54.1395014260957
 30
0.0
 11
-687.00600702204
 21
67.8594909452147
 31
0.0
  0
LINE
  5
   693
  8
0
  6
CONTINUOUS
 62
     3
 10
-685.242007268088
 20
54.1395014260957
 30
0.0
 11
-685.242007268088
 21
67.8594909452147
 31
0.0
  0
LINE
  5
   694
  8
0
  6
CONTINUOUS
 62
     3
 10
-683.478007046836
 20
54.1395014260957
 30
0.0
 11
-683.478007046836
 21
67.8594909452147
 31
0.0
  0
LINE
  5
   695
  8
0
  6
CONTINUOUS
 62
     3
 10
-681.714011031287
 20
54.1395009587953
 30
0.0
 11
-681.714011031287
 21
67.8594909452147
 31
0.0
  0
LINE
  5
   696
  8
0
  6
CONTINUOUS
 62
     3
 10
-679.950008006232
 20
54.1395009587953
 30
0.0
 11
-679.950008006232
 21
67.8594909452147
 31
0.0
  0
LINE
  5
   697
  8
0
  6
CONTINUOUS
 62
     3
 10
-678.186012457984
 20
54.1395009587953
 30
0.0
 11
-678.186012457984
 21
67.8594909452147
 31
0.0
  0
LINE
  5
   698
  8
0
  6
CONTINUOUS
 62
     3
 10
-676.422009432929
 20
54.1395009587953
 30
0.0
 11
-676.422009432929
 21
67.8594909452147
 31
0.0
  0
LINE
  5
   699
  8
0
  6
CONTINUOUS
 62
     3
 10
-674.658013884681
 20
54.1395004914948
 30
0.0
 11
-674.658013884681
 21
67.8594909452147
 31
0.0
  0
LINE
  5
   69A
  8
0
  6
CONTINUOUS
 62
     3
 10
-672.894010859626
 20
54.1395004914948
 30
0.0
 11
-672.894010859626
 21
67.8594909452147
 31
0.0
  0
LINE
  5
   69B
  8
0
  6
CONTINUOUS
 62
     3
 10
-671.130007834571
 20
54.1395004914949
 30
0.0
 11
-671.130007834571
 21
67.8594909452147
 31
0.0
  0
LINE
  5
   69C
  8
0
  6
CONTINUOUS
 62
     3
 10
-669.366012286323
 20
54.1395000241944
 30
0.0
 11
-669.366012286323
 21
67.8594909452147
 31
0.0
  0
LINE
  5
   69D
  8
0
  6
CONTINUOUS
 62
     3
 10
-667.602009261268
 20
54.1395000241944
 30
0.0
 11
-667.602009261268
 21
67.8594909452147
 31
0.0
  0
LINE
  5
   69E
  8
0
  6
CONTINUOUS
 62
     3
 10
-665.838013713019
 20
54.1395000241944
 30
0.0
 11
-665.838013713019
 21
67.8594909452147
 31
0.0
  0
LINE
  5
   69F
  8
0
  6
CONTINUOUS
 62
     3
 10
-664.074010687964
 20
54.1395000241944
 30
0.0
 11
-664.074010687964
 21
67.8594909452147
 31
0.0
  0
LINE
  5
   6A0
  8
0
  6
CONTINUOUS
 62
     3
 10
-662.310007662909
 20
54.139499556894
 30
0.0
 11
-662.310007662909
 21
67.8594909452147
 31
0.0
  0
LINE
  5
   6A1
  8
0
  6
CONTINUOUS
 62
     3
 10
-660.546012114661
 20
54.139499556894
 30
0.0
 11
-660.546012114661
 21
67.8594909452147
 31
0.0
  0
LINE
  5
   6A2
  8
0
  6
CONTINUOUS
 62
     3
 10
-658.782009089606
 20
54.139499556894
 30
0.0
 11
-658.782009089606
 21
67.8594909452147
 31
0.0
  0
LINE
  5
   6A3
  8
0
  6
CONTINUOUS
 62
     3
 10
-657.018013541358
 20
54.1394990895936
 30
0.0
 11
-657.018013541358
 21
67.8594909452147
 31
0.0
  0
LINE
  5
   6A4
  8
0
  6
CONTINUOUS
 62
     3
 10
-655.254010516303
 20
54.1394990895936
 30
0.0
 11
-655.254010516303
 21
67.8594909452147
 31
0.0
  0
LINE
  5
   6A5
  8
0
  6
CONTINUOUS
 62
     3
 10
-653.490007491248
 20
54.1394990895936
 30
0.0
 11
-653.490007491248
 21
67.8594909452147
 31
0.0
  0
LINE
  5
   6A6
  8
0
  6
CONTINUOUS
 62
     3
 10
-651.726011943
 20
54.1394990895936
 30
0.0
 11
-651.726011943
 21
67.8594909452147
 31
0.0
  0
LINE
  5
   6A7
  8
0
  6
CONTINUOUS
 62
     3
 10
-649.962008917945
 20
54.1394986222932
 30
0.0
 11
-649.962008917945
 21
67.8594909452147
 31
0.0
  0
LINE
  5
   6A8
  8
0
  6
CONTINUOUS
 62
     3
 10
-648.198013369697
 20
54.1394986222932
 30
0.0
 11
-648.198013369697
 21
67.8594909452147
 31
0.0
  0
LINE
  5
   6A9
  8
0
  6
CONTINUOUS
 62
     3
 10
-646.434010344642
 20
54.1394986222932
 30
0.0
 11
-646.434010344642
 21
67.8594909452147
 31
0.0
  0
LINE
  5
   6AA
  8
0
  6
CONTINUOUS
 62
     3
 10
-644.670007319587
 20
54.1394981549927
 30
0.0
 11
-644.670007319587
 21
67.8594909452147
 31
0.0
  0
LINE
  5
   6AB
  8
0
  6
CONTINUOUS
 62
     3
 10
-642.906011771338
 20
54.1394981549927
 30
0.0
 11
-642.906011771338
 21
67.8594909452147
 31
0.0
  0
LINE
  5
   6AC
  8
0
  6
CONTINUOUS
 62
     3
 10
-641.142008746283
 20
54.1394981549927
 30
0.0
 11
-641.142008746283
 21
67.8594909452147
 31
0.0
  0
LINE
  5
   6AD
  8
0
  6
CONTINUOUS
 62
     7
 10
-690.06851222195
 20
53.6495019956575
 30
0.0
 11
-690.06851222195
 21
54.1395019175754
 31
0.0
  0
LINE
  5
   6AE
  8
0
  6
CONTINUOUS
 62
     3
 10
-690.068512250329
 20
54.1395259595825
 30
0.0
 11
-690.558507908131
 21
54.1395259595825
 31
0.0
  0
LINE
  5
   6AF
  8
0
  6
CONTINUOUS
 62
     3
 10
-639.159256340216
 20
54.1395000043415
 30
0.0
 11
-690.06851224438
 21
54.1395000043415
 31
0.0
  0
LINE
  5
   6B0
  8
0
  6
CONTINUOUS
 62
     7
 10
-639.598511706965
 20
53.6494981647216
 30
0.0
 11
-639.598511706965
 21
54.1394981742584
 31
0.0
  0
LINE
  5
   6B1
  8
0
  6
CONTINUOUS
 62
     3
 10
-639.108511697429
 20
54.1394981549927
 30
0.0
 11
-639.287910199455
 21
54.1394981549927
 31
0.0
  0
ARC
  5
   6B2
  8
0
  6
CONTINUOUS
 62
     3
 10
-639.721019840436
 20
67.2469861586776
 30
0.0
 40
0.612499403190359
 50
360.000027285161
 51
450.00046185832
  0
ARC
  5
   6B3
  8
0
  6
CONTINUOUS
 62
     3
 10
-689.946021713402
 20
67.2470014830628
 30
0.0
 40
0.612483973257488
 50
449.998225807986
 51
540.001187191324
  0
LINE
  5
   6B4
  8
0
  6
CONTINUOUS
 62
     7
 10
-639.598511706965
 20
-44.8404608453208
 30
0.0
 11
-690.068505212443
 21
-44.8404608453208
 31
0.0
  0
LINE
  5
   6B5
  8
0
  6
CONTINUOUS
 62
     3
 10
-639.72101170935
 20
-59.050451710347
 30
0.0
 11
-689.946005210059
 21
-59.050451710347
 31
0.0
  0
LINE
  5
   6B6
  8
0
  6
CONTINUOUS
 62
     3
 10
-639.108511697429
 20
-76.8129520560539
 30
0.0
 11
-639.108511697429
 21
-45.330458920125
 31
0.0
  0
LINE
  5
   6B7
  8
0
  6
CONTINUOUS
 62
     3
 10
-690.558508018901
 20
-76.8129520560539
 30
0.0
 11
-690.558508018901
 21
-45.3304621912286
 31
0.0
  0
LINE
  5
   6B8
  8
0
  6
CONTINUOUS
 62
     3
 10
-688.770007243293
 20
-59.050451710347
 30
0.0
 11
-688.770007243293
 21
-45.3304626585284
 31
0.0
  0
LINE
  5
   6B9
  8
0
  6
CONTINUOUS
 62
     3
 10
-687.00600702204
 20
-59.050451710347
 30
0.0
 11
-687.00600702204
 21
-45.330462191228
 31
0.0
  0
LINE
  5
   6BA
  8
0
  6
CONTINUOUS
 62
     3
 10
-685.242007268088
 20
-59.050451710347
 30
0.0
 11
-685.242007268088
 21
-45.330462191228
 31
0.0
  0
LINE
  5
   6BB
  8
0
  6
CONTINUOUS
 62
     3
 10
-683.478007046836
 20
-59.050451710347
 30
0.0
 11
-683.478007046836
 21
-45.330462191228
 31
0.0
  0
LINE
  5
   6BC
  8
0
  6
CONTINUOUS
 62
     3
 10
-681.714011031287
 20
-59.050451710347
 30
0.0
 11
-681.714011031287
 21
-45.3304617239275
 31
0.0
  0
LINE
  5
   6BD
  8
0
  6
CONTINUOUS
 62
     3
 10
-679.950008006232
 20
-59.050451710347
 30
0.0
 11
-679.950008006232
 21
-45.3304617239275
 31
0.0
  0
LINE
  5
   6BE
  8
0
  6
CONTINUOUS
 62
     3
 10
-678.186012457984
 20
-59.050451710347
 30
0.0
 11
-678.186012457984
 21
-45.3304617239275
 31
0.0
  0
LINE
  5
   6BF
  8
0
  6
CONTINUOUS
 62
     3
 10
-676.422009432929
 20
-59.050451710347
 30
0.0
 11
-676.422009432929
 21
-45.3304617239275
 31
0.0
  0
LINE
  5
   6C0
  8
0
  6
CONTINUOUS
 62
     3
 10
-674.658013884681
 20
-59.050451710347
 30
0.0
 11
-674.658013884681
 21
-45.3304612566271
 31
0.0
  0
LINE
  5
   6C1
  8
0
  6
CONTINUOUS
 62
     3
 10
-672.894010859626
 20
-59.050451710347
 30
0.0
 11
-672.894010859626
 21
-45.3304612566271
 31
0.0
  0
LINE
  5
   6C2
  8
0
  6
CONTINUOUS
 62
     3
 10
-671.130007834571
 20
-59.050451710347
 30
0.0
 11
-671.130007834571
 21
-45.3304612566271
 31
0.0
  0
LINE
  5
   6C3
  8
0
  6
CONTINUOUS
 62
     3
 10
-669.366012286322
 20
-59.050451710347
 30
0.0
 11
-669.366012286322
 21
-45.3304607893267
 31
0.0
  0
LINE
  5
   6C4
  8
0
  6
CONTINUOUS
 62
     3
 10
-667.602009261267
 20
-59.050451710347
 30
0.0
 11
-667.602009261267
 21
-45.3304607893267
 31
0.0
  0
LINE
  5
   6C5
  8
0
  6
CONTINUOUS
 62
     3
 10
-665.838013713019
 20
-59.050451710347
 30
0.0
 11
-665.838013713019
 21
-45.3304607893267
 31
0.0
  0
LINE
  5
   6C6
  8
0
  6
CONTINUOUS
 62
     3
 10
-664.074010687964
 20
-59.050451710347
 30
0.0
 11
-664.074010687964
 21
-45.3304607893267
 31
0.0
  0
LINE
  5
   6C7
  8
0
  6
CONTINUOUS
 62
     3
 10
-662.310007662909
 20
-59.050451710347
 30
0.0
 11
-662.310007662909
 21
-45.3304603220263
 31
0.0
  0
LINE
  5
   6C8
  8
0
  6
CONTINUOUS
 62
     3
 10
-660.546012114661
 20
-59.050451710347
 30
0.0
 11
-660.546012114661
 21
-45.3304603220263
 31
0.0
  0
LINE
  5
   6C9
  8
0
  6
CONTINUOUS
 62
     3
 10
-658.782009089606
 20
-59.050451710347
 30
0.0
 11
-658.782009089606
 21
-45.3304603220263
 31
0.0
  0
LINE
  5
   6CA
  8
0
  6
CONTINUOUS
 62
     3
 10
-657.018013541358
 20
-59.050451710347
 30
0.0
 11
-657.018013541358
 21
-45.3304598547259
 31
0.0
  0
LINE
  5
   6CB
  8
0
  6
CONTINUOUS
 62
     3
 10
-655.254010516303
 20
-59.050451710347
 30
0.0
 11
-655.254010516303
 21
-45.3304598547259
 31
0.0
  0
LINE
  5
   6CC
  8
0
  6
CONTINUOUS
 62
     3
 10
-653.490007491248
 20
-59.050451710347
 30
0.0
 11
-653.490007491248
 21
-45.3304598547259
 31
0.0
  0
LINE
  5
   6CD
  8
0
  6
CONTINUOUS
 62
     3
 10
-651.726011943
 20
-59.050451710347
 30
0.0
 11
-651.726011943
 21
-45.3304598547259
 31
0.0
  0
LINE
  5
   6CE
  8
0
  6
CONTINUOUS
 62
     3
 10
-649.962008917945
 20
-59.050451710347
 30
0.0
 11
-649.962008917945
 21
-45.3304593874254
 31
0.0
  0
LINE
  5
   6CF
  8
0
  6
CONTINUOUS
 62
     3
 10
-648.198013369696
 20
-59.050451710347
 30
0.0
 11
-648.198013369696
 21
-45.3304593874254
 31
0.0
  0
LINE
  5
   6D0
  8
0
  6
CONTINUOUS
 62
     3
 10
-646.434010344641
 20
-59.050451710347
 30
0.0
 11
-646.434010344641
 21
-45.3304593874254
 31
0.0
  0
LINE
  5
   6D1
  8
0
  6
CONTINUOUS
 62
     3
 10
-644.670007319587
 20
-59.050451710347
 30
0.0
 11
-644.670007319587
 21
-45.330458920125
 31
0.0
  0
LINE
  5
   6D2
  8
0
  6
CONTINUOUS
 62
     3
 10
-642.906011771338
 20
-59.050451710347
 30
0.0
 11
-642.906011771338
 21
-45.330458920125
 31
0.0
  0
LINE
  5
   6D3
  8
0
  6
CONTINUOUS
 62
     3
 10
-641.142008746283
 20
-59.050451710347
 30
0.0
 11
-641.142008746283
 21
-45.330458920125
 31
0.0
  0
LINE
  5
   6D4
  8
0
  6
CONTINUOUS
 62
     7
 10
-690.068512221949
 20
-45.3304626827077
 30
0.0
 11
-690.068512221949
 21
-44.8404627607898
 31
0.0
  0
LINE
  5
   6D5
  8
0
  6
CONTINUOUS
 62
     3
 10
-690.068512250329
 20
-45.3304867247148
 30
0.0
 11
-690.558507908131
 21
-45.3304867247148
 31
0.0
  0
LINE
  5
   6D6
  8
0
  6
CONTINUOUS
 62
     3
 10
-639.159256340216
 20
-45.3304607694739
 30
0.0
 11
-690.06851224438
 21
-45.3304607694739
 31
0.0
  0
LINE
  5
   6D7
  8
0
  6
CONTINUOUS
 62
     7
 10
-639.598511706965
 20
-45.3304589393907
 30
0.0
 11
-639.598511706965
 21
-44.8404589298539
 31
0.0
  0
LINE
  5
   6D8
  8
0
  6
CONTINUOUS
 62
     3
 10
-639.108511697429
 20
-45.330458920125
 30
0.0
 11
-639.287910199455
 21
-45.330458920125
 31
0.0
  0
ARC
  5
   6D9
  8
0
  6
CONTINUOUS
 62
     3
 10
-639.721019840436
 20
-58.43794692381
 30
0.0
 40
0.612499403190359
 50
269.999538037749
 51
359.999972610908
  0
ARC
  5
   6DA
  8
0
  6
CONTINUOUS
 62
     3
 10
-689.946021713402
 20
-58.4379622481951
 30
0.0
 40
0.612483973257488
 50
179.998812704745
 51
270.001774088083
  0
LINE
  5
   6DB
  8
0
  6
DASHDOT
 62
   130
 10
-634.977476371515
 20
5.26204954135027
 30
0.0
 11
-699.415884889511
 21
5.26204954135027
 31
0.0
  0
LINE
  5
   6DC
  8
0
  6
CONTINUOUS
 62
     7
 10
-639.72101170935
 20
86.2344913028426
 30
0.0
 11
-689.94600800698
 21
86.2344913028426
 31
0.0
  0
LINE
  5
   6DD
  8
0
  6
CONTINUOUS
 62
     7
 10
-639.108511697429
 20
68.1044909499831
 30
0.0
 11
-690.558508018901
 21
68.1044909499831
 31
0.0
  0
ARC
  5
   6DE
  8
0
  6
CONTINUOUS
 62
     7
 10
-689.94600800698
 20
85.6219912909216
 30
0.0
 40
0.612500011920929
 50
89.9999999480344
 51
179.999999948034
  0
ARC
  5
   6DF
  8
0
  6
CONTINUOUS
 62
     7
 10
-639.72101170935
 20
85.6219912909216
 30
0.0
 40
0.612500011920929
 50
359.999999948034
 51
449.999999948034
  0
LINE
  5
   6E0
  8
0
  6
CONTINUOUS
 62
     7
 10
-639.72101170935
 20
-77.4254520679749
 30
0.0
 11
-689.94600800698
 21
-77.4254520679749
 31
0.0
  0
LINE
  5
   6E1
  8
0
  6
CONTINUOUS
 62
     7
 10
-639.108529980874
 20
-59.2954517151154
 30
0.0
 11
-690.558546939887
 21
-59.2954517151154
 31
0.0
  0
ARC
  5
   6E2
  8
0
  6
CONTINUOUS
 62
     7
 10
-639.72101170935
 20
-76.8129520560539
 30
0.0
 40
0.612500011920929
 50
269.999999948034
 51
359.999999948034
  0
ARC
  5
   6E3
  8
0
  6
CONTINUOUS
 62
     7
 10
-689.94600800698
 20
-76.8129520560539
 30
0.0
 40
0.612500011920929
 50
179.999999948034
 51
269.999999948034
  0
LINE
  5
   6E4
  8
0
  6
CONTINUOUS
 62
     3
 10
-688.770007243293
 20
68.1044909499831
 30
0.0
 11
-688.770007243293
 21
86.2344913028426
 31
0.0
  0
LINE
  5
   6E5
  8
0
  6
CONTINUOUS
 62
     3
 10
-687.00600702204
 20
68.1044909499831
 30
0.0
 11
-687.00600702204
 21
86.2344913028426
 31
0.0
  0
LINE
  5
   6E6
  8
0
  6
CONTINUOUS
 62
     3
 10
-685.242007268088
 20
68.1044909499831
 30
0.0
 11
-685.242007268088
 21
86.2344913028426
 31
0.0
  0
LINE
  5
   6E7
  8
0
  6
CONTINUOUS
 62
     3
 10
-683.478007046836
 20
68.1044909499831
 30
0.0
 11
-683.478007046836
 21
86.2344913028426
 31
0.0
  0
LINE
  5
   6E8
  8
0
  6
CONTINUOUS
 62
     3
 10
-681.714011031287
 20
68.1044909499831
 30
0.0
 11
-681.714011031287
 21
86.2344913028426
 31
0.0
  0
LINE
  5
   6E9
  8
0
  6
CONTINUOUS
 62
     3
 10
-679.950008006232
 20
68.1044909499831
 30
0.0
 11
-679.950008006232
 21
86.2344913028426
 31
0.0
  0
LINE
  5
   6EA
  8
0
  6
CONTINUOUS
 62
     3
 10
-678.186012457984
 20
68.1044909499831
 30
0.0
 11
-678.186012457984
 21
86.2344913028426
 31
0.0
  0
LINE
  5
   6EB
  8
0
  6
CONTINUOUS
 62
     3
 10
-676.422009432929
 20
68.1044909499831
 30
0.0
 11
-676.422009432929
 21
86.2344913028426
 31
0.0
  0
LINE
  5
   6EC
  8
0
  6
CONTINUOUS
 62
     3
 10
-674.658013884681
 20
68.1044909499831
 30
0.0
 11
-674.658013884681
 21
86.2344913028426
 31
0.0
  0
LINE
  5
   6ED
  8
0
  6
CONTINUOUS
 62
     3
 10
-672.894010859626
 20
68.1044909499831
 30
0.0
 11
-672.894010859626
 21
86.2344913028426
 31
0.0
  0
LINE
  5
   6EE
  8
0
  6
CONTINUOUS
 62
     3
 10
-671.130007834571
 20
68.1044909499831
 30
0.0
 11
-671.130007834571
 21
86.2344913028426
 31
0.0
  0
LINE
  5
   6EF
  8
0
  6
CONTINUOUS
 62
     3
 10
-669.366012286323
 20
68.1044909499831
 30
0.0
 11
-669.366012286323
 21
86.2344913028426
 31
0.0
  0
LINE
  5
   6F0
  8
0
  6
CONTINUOUS
 62
     3
 10
-667.602009261268
 20
68.1044909499831
 30
0.0
 11
-667.602009261268
 21
86.2344913028426
 31
0.0
  0
LINE
  5
   6F1
  8
0
  6
CONTINUOUS
 62
     3
 10
-665.838013713019
 20
68.1044909499831
 30
0.0
 11
-665.838013713019
 21
86.2344913028426
 31
0.0
  0
LINE
  5
   6F2
  8
0
  6
CONTINUOUS
 62
     3
 10
-664.074010687964
 20
68.1044909499831
 30
0.0
 11
-664.074010687964
 21
86.2344913028426
 31
0.0
  0
LINE
  5
   6F3
  8
0
  6
CONTINUOUS
 62
     3
 10
-662.310007662909
 20
68.1044909499831
 30
0.0
 11
-662.310007662909
 21
86.2344913028426
 31
0.0
  0
LINE
  5
   6F4
  8
0
  6
CONTINUOUS
 62
     3
 10
-660.546012114661
 20
68.1044909499831
 30
0.0
 11
-660.546012114661
 21
86.2344913028426
 31
0.0
  0
LINE
  5
   6F5
  8
0
  6
CONTINUOUS
 62
     3
 10
-658.782009089606
 20
68.1044909499831
 30
0.0
 11
-658.782009089606
 21
86.2344913028426
 31
0.0
  0
LINE
  5
   6F6
  8
0
  6
CONTINUOUS
 62
     3
 10
-657.018013541358
 20
68.1044909499831
 30
0.0
 11
-657.018013541358
 21
86.2344913028426
 31
0.0
  0
LINE
  5
   6F7
  8
0
  6
CONTINUOUS
 62
     3
 10
-655.254010516303
 20
68.1044909499831
 30
0.0
 11
-655.254010516303
 21
86.2344913028426
 31
0.0
  0
LINE
  5
   6F8
  8
0
  6
CONTINUOUS
 62
     3
 10
-653.490007491248
 20
68.1044909499831
 30
0.0
 11
-653.490007491248
 21
86.2344913028426
 31
0.0
  0
LINE
  5
   6F9
  8
0
  6
CONTINUOUS
 62
     3
 10
-651.726011943
 20
68.1044909499831
 30
0.0
 11
-651.726011943
 21
86.2344913028426
 31
0.0
  0
LINE
  5
   6FA
  8
0
  6
CONTINUOUS
 62
     3
 10
-649.962008917945
 20
68.1044909499831
 30
0.0
 11
-649.962008917945
 21
86.2344913028426
 31
0.0
  0
LINE
  5
   6FB
  8
0
  6
CONTINUOUS
 62
     3
 10
-648.198013369697
 20
68.1044909499831
 30
0.0
 11
-648.198013369697
 21
86.2344913028426
 31
0.0
  0
LINE
  5
   6FC
  8
0
  6
CONTINUOUS
 62
     3
 10
-646.434010344642
 20
68.1044909499831
 30
0.0
 11
-646.434010344642
 21
86.2344913028426
 31
0.0
  0
LINE
  5
   6FD
  8
0
  6
CONTINUOUS
 62
     3
 10
-644.670007319587
 20
68.1044909499831
 30
0.0
 11
-644.670007319587
 21
86.2344913028426
 31
0.0
  0
LINE
  5
   6FE
  8
0
  6
CONTINUOUS
 62
     3
 10
-642.906011771338
 20
68.1044909499831
 30
0.0
 11
-642.906011771338
 21
86.2344913028426
 31
0.0
  0
LINE
  5
   6FF
  8
0
  6
CONTINUOUS
 62
     3
 10
-641.142008746283
 20
68.1044909499831
 30
0.0
 11
-641.142008746283
 21
86.2344913028426
 31
0.0
  0
LINE
  5
   700
  8
0
  6
CONTINUOUS
 62
     3
 10
-688.770007243293
 20
-77.4254520679749
 30
0.0
 11
-688.770007243293
 21
-59.2954517151154
 31
0.0
  0
LINE
  5
   701
  8
0
  6
CONTINUOUS
 62
     3
 10
-687.00600702204
 20
-77.4254520679749
 30
0.0
 11
-687.00600702204
 21
-59.2954517151154
 31
0.0
  0
LINE
  5
   702
  8
0
  6
CONTINUOUS
 62
     3
 10
-685.242007268088
 20
-77.4254520679749
 30
0.0
 11
-685.242007268088
 21
-59.2954517151154
 31
0.0
  0
LINE
  5
   703
  8
0
  6
CONTINUOUS
 62
     3
 10
-683.478007046836
 20
-77.4254520679749
 30
0.0
 11
-683.478007046836
 21
-59.2954517151154
 31
0.0
  0
LINE
  5
   704
  8
0
  6
CONTINUOUS
 62
     3
 10
-681.714011031287
 20
-77.4254520679749
 30
0.0
 11
-681.714011031287
 21
-59.2954517151154
 31
0.0
  0
LINE
  5
   705
  8
0
  6
CONTINUOUS
 62
     3
 10
-679.950008006232
 20
-77.4254520679749
 30
0.0
 11
-679.950008006232
 21
-59.2954517151154
 31
0.0
  0
LINE
  5
   706
  8
0
  6
CONTINUOUS
 62
     3
 10
-678.186012457984
 20
-77.4254520679749
 30
0.0
 11
-678.186012457984
 21
-59.2954517151154
 31
0.0
  0
LINE
  5
   707
  8
0
  6
CONTINUOUS
 62
     3
 10
-676.422009432929
 20
-77.4254520679749
 30
0.0
 11
-676.422009432929
 21
-59.2954517151154
 31
0.0
  0
LINE
  5
   708
  8
0
  6
CONTINUOUS
 62
     3
 10
-674.658013884681
 20
-77.4254520679749
 30
0.0
 11
-674.658013884681
 21
-59.2954517151154
 31
0.0
  0
LINE
  5
   709
  8
0
  6
CONTINUOUS
 62
     3
 10
-672.894010859626
 20
-77.4254520679749
 30
0.0
 11
-672.894010859626
 21
-59.2954517151154
 31
0.0
  0
LINE
  5
   70A
  8
0
  6
CONTINUOUS
 62
     3
 10
-671.130007834571
 20
-77.4254520679749
 30
0.0
 11
-671.130007834571
 21
-59.2954517151154
 31
0.0
  0
LINE
  5
   70B
  8
0
  6
CONTINUOUS
 62
     3
 10
-669.366012286323
 20
-77.4254520679749
 30
0.0
 11
-669.366012286323
 21
-59.2954517151154
 31
0.0
  0
LINE
  5
   70C
  8
0
  6
CONTINUOUS
 62
     3
 10
-667.602009261268
 20
-77.4254520679749
 30
0.0
 11
-667.602009261268
 21
-59.2954517151154
 31
0.0
  0
LINE
  5
   70D
  8
0
  6
CONTINUOUS
 62
     3
 10
-665.838013713019
 20
-77.4254520679749
 30
0.0
 11
-665.838013713019
 21
-59.2954517151154
 31
0.0
  0
LINE
  5
   70E
  8
0
  6
CONTINUOUS
 62
     3
 10
-664.074010687964
 20
-77.4254520679749
 30
0.0
 11
-664.074010687964
 21
-59.2954517151154
 31
0.0
  0
LINE
  5
   70F
  8
0
  6
CONTINUOUS
 62
     3
 10
-662.310007662909
 20
-77.4254520679749
 30
0.0
 11
-662.310007662909
 21
-59.2954517151154
 31
0.0
  0
LINE
  5
   710
  8
0
  6
CONTINUOUS
 62
     3
 10
-660.546012114661
 20
-77.4254520679749
 30
0.0
 11
-660.546012114661
 21
-59.2954517151154
 31
0.0
  0
LINE
  5
   711
  8
0
  6
CONTINUOUS
 62
     3
 10
-658.782009089606
 20
-77.4254520679749
 30
0.0
 11
-658.782009089606
 21
-59.2954517151154
 31
0.0
  0
LINE
  5
   712
  8
0
  6
CONTINUOUS
 62
     3
 10
-657.018013541358
 20
-77.4254520679749
 30
0.0
 11
-657.018013541358
 21
-59.2954517151154
 31
0.0
  0
LINE
  5
   713
  8
0
  6
CONTINUOUS
 62
     3
 10
-655.254010516303
 20
-77.4254520679749
 30
0.0
 11
-655.254010516303
 21
-59.2954517151154
 31
0.0
  0
LINE
  5
   714
  8
0
  6
CONTINUOUS
 62
     3
 10
-653.490007491248
 20
-77.4254520679749
 30
0.0
 11
-653.490007491248
 21
-59.2954517151154
 31
0.0
  0
LINE
  5
   715
  8
0
  6
CONTINUOUS
 62
     3
 10
-651.726011943
 20
-77.4254520679749
 30
0.0
 11
-651.726011943
 21
-59.2954517151154
 31
0.0
  0
LINE
  5
   716
  8
0
  6
CONTINUOUS
 62
     3
 10
-649.962008917945
 20
-77.4254520679749
 30
0.0
 11
-649.962008917945
 21
-59.2954517151154
 31
0.0
  0
LINE
  5
   717
  8
0
  6
CONTINUOUS
 62
     3
 10
-648.198013369697
 20
-77.4254520679749
 30
0.0
 11
-648.198013369697
 21
-59.2954517151154
 31
0.0
  0
LINE
  5
   718
  8
0
  6
CONTINUOUS
 62
     3
 10
-646.434010344642
 20
-77.4254520679749
 30
0.0
 11
-646.434010344642
 21
-59.2954517151154
 31
0.0
  0
LINE
  5
   719
  8
0
  6
CONTINUOUS
 62
     3
 10
-644.670007319587
 20
-77.4254520679749
 30
0.0
 11
-644.670007319587
 21
-59.2954517151154
 31
0.0
  0
LINE
  5
   71A
  8
0
  6
CONTINUOUS
 62
     3
 10
-642.906011771338
 20
-77.4254520679749
 30
0.0
 11
-642.906011771338
 21
-59.2954517151154
 31
0.0
  0
LINE
  5
   71B
  8
0
  6
CONTINUOUS
 62
     3
 10
-641.142008746283
 20
-77.4254520679749
 30
0.0
 11
-641.142008746283
 21
-59.2954517151154
 31
0.0
  0
LINE
  5
   71C
  8
0
  6
CONTINUOUS
 62
     7
 10
-652.313964699759
 20
-6.0814581562321
 30
0.0
 11
-652.534464704051
 21
-6.0814581562321
 31
0.0
  0
LINE
  5
   71D
  8
0
  6
CONTINUOUS
 62
     7
 10
-652.779464708819
 20
-9.85445822966502
 30
0.0
 11
-653.171464716449
 21
-9.85445822966502
 31
0.0
  0
LINE
  5
   71E
  8
0
  6
CONTINUOUS
 62
     7
 10
-656.307464777484
 20
-8.58045820486925
 30
0.0
 11
-656.307464777484
 21
-8.33545820010087
 31
0.0
  0
LINE
  5
   71F
  8
0
  6
CONTINUOUS
 62
     7
 10
-653.759464727893
 20
-8.58045820486925
 30
0.0
 11
-653.759464727893
 21
-8.33545820010088
 31
0.0
  0
ARC
  5
   720
  8
0
  6
CONTINUOUS
 62
     7
 10
-655.033464752688
 20
-8.33545820010112
 30
0.0
 40
1.27400002479553
 50
359.999999948034
 51
539.999999948034
  0
ARC
  5
   721
  8
0
  6
CONTINUOUS
 62
     7
 10
-655.033464752688
 20
-8.58045820486949
 30
0.0
 40
1.27400002479553
 50
179.999999948034
 51
359.999999948034
  0
ARC
  5
   722
  8
0
  6
CONTINUOUS
 62
     7
 10
-655.033464752688
 20
-8.33545820010112
 30
0.0
 40
0.882000017166138
 50
359.999999948034
 51
539.999999948034
  0
ARC
  5
   723
  8
0
  6
CONTINUOUS
 62
     7
 10
-655.033464752688
 20
-8.58045820486949
 30
0.0
 40
0.882000017166137
 50
179.999999948034
 51
359.999999948034
  0
LINE
  5
   724
  8
0
  6
CONTINUOUS
 62
     7
 10
-655.915464769854
 20
-8.58045820486925
 30
0.0
 11
-655.915464769854
 21
-8.33545820010089
 31
0.0
  0
LINE
  5
   725
  8
0
  6
CONTINUOUS
 62
     7
 10
-654.151464735522
 20
-8.58045820486925
 30
0.0
 11
-654.151464735522
 21
-8.33545820010088
 31
0.0
  0
LINE
  5
   726
  8
0
  6
CONTINUOUS
 62
     7
 10
-653.636964725509
 20
-7.64945818674943
 30
0.0
 11
-653.636964725509
 21
-7.25745817912004
 31
0.0
  0
LINE
  5
   727
  8
0
  6
CONTINUOUS
 62
     7
 10
-653.171464716449
 20
-7.64945818674968
 30
0.0
 11
-653.636964725508
 21
-7.64945818674968
 31
0.0
  0
LINE
  5
   728
  8
0
  6
CONTINUOUS
 62
     7
 10
-652.313964699759
 20
-7.64945818674943
 30
0.0
 11
-652.313964699759
 21
-7.25745817912004
 31
0.0
  0
LINE
  5
   729
  8
0
  6
CONTINUOUS
 62
     7
 10
-653.171464716449
 20
-7.25745817912028
 30
0.0
 11
-653.636964725508
 21
-7.25745817912028
 31
0.0
  0
LINE
  5
   72A
  8
0
  6
CONTINUOUS
 62
     7
 10
-653.171464716449
 20
-9.85445822966478
 30
0.0
 11
-653.171464716449
 21
-7.64945818674943
 31
0.0
  0
LINE
  5
   72B
  8
0
  6
CONTINUOUS
 62
     7
 10
-652.779464708819
 20
-9.85445822966477
 30
0.0
 11
-652.779464708819
 21
-7.64945818674943
 31
0.0
  0
LINE
  5
   72C
  8
0
  6
CONTINUOUS
 62
     7
 10
-652.313964699759
 20
-7.64945818674968
 30
0.0
 11
-652.779464708819
 21
-7.64945818674968
 31
0.0
  0
LINE
  5
   72D
  8
0
  6
CONTINUOUS
 62
     7
 10
-652.313964699759
 20
-7.25745817912028
 30
0.0
 11
-652.779464708819
 21
-7.25745817912028
 31
0.0
  0
LINE
  5
   72E
  8
0
  6
CONTINUOUS
 62
     7
 10
-653.171464716449
 20
-7.25745817912005
 30
0.0
 11
-653.171464716449
 21
-6.71845816862962
 31
0.0
  0
LINE
  5
   72F
  8
0
  6
CONTINUOUS
 62
     7
 10
-652.779464708819
 20
-7.25745817912004
 30
0.0
 11
-652.779464708819
 21
-6.71845816862962
 31
0.0
  0
ARC
  5
   730
  8
0
  6
CONTINUOUS
 62
     7
 10
-652.534464704051
 20
-6.71845816862988
 30
0.0
 40
0.637000012397766
 50
449.999999948034
 51
539.999999948034
  0
ARC
  5
   731
  8
0
  6
CONTINUOUS
 62
     7
 10
-652.534464704051
 20
-6.71845816862988
 30
0.0
 40
0.245000004768371
 50
449.999999948034
 51
539.999999948034
  0
LINE
  5
   732
  8
0
  6
CONTINUOUS
 62
     7
 10
-652.313964699759
 20
-6.47345816386125
 30
0.0
 11
-652.313964699759
 21
-6.08145815623185
 31
0.0
  0
LINE
  5
   733
  8
0
  6
CONTINUOUS
 62
     7
 10
-652.313964699759
 20
-6.4734581638615
 30
0.0
 11
-652.534464704051
 21
-6.4734581638615
 31
0.0
  0
LINE
  5
   734
  8
0
  6
CONTINUOUS
 62
     7
 10
-650.745964669242
 20
-6.0814581562321
 30
0.0
 11
-650.966464673533
 21
-6.0814581562321
 31
0.0
  0
LINE
  5
   735
  8
0
  6
CONTINUOUS
 62
     7
 10
-651.211464678302
 20
-9.85445822966502
 30
0.0
 11
-651.603464685931
 21
-9.85445822966502
 31
0.0
  0
LINE
  5
   736
  8
0
  6
CONTINUOUS
 62
     7
 10
-652.068964694991
 20
-7.64945818674943
 30
0.0
 11
-652.068964694991
 21
-7.25745817912004
 31
0.0
  0
LINE
  5
   737
  8
0
  6
CONTINUOUS
 62
     7
 10
-651.603464685931
 20
-7.64945818674968
 30
0.0
 11
-652.068964694991
 21
-7.64945818674968
 31
0.0
  0
LINE
  5
   738
  8
0
  6
CONTINUOUS
 62
     7
 10
-650.745964669242
 20
-7.64945818674943
 30
0.0
 11
-650.745964669242
 21
-7.25745817912004
 31
0.0
  0
LINE
  5
   739
  8
0
  6
CONTINUOUS
 62
     7
 10
-651.603464685931
 20
-7.25745817912028
 30
0.0
 11
-652.068964694991
 21
-7.25745817912028
 31
0.0
  0
LINE
  5
   73A
  8
0
  6
CONTINUOUS
 62
     7
 10
-651.603464685931
 20
-9.85445822966478
 30
0.0
 11
-651.603464685931
 21
-7.64945818674943
 31
0.0
  0
LINE
  5
   73B
  8
0
  6
CONTINUOUS
 62
     7
 10
-651.211464678302
 20
-9.85445822966477
 30
0.0
 11
-651.211464678302
 21
-7.64945818674943
 31
0.0
  0
LINE
  5
   73C
  8
0
  6
CONTINUOUS
 62
     7
 10
-650.745964669242
 20
-7.64945818674968
 30
0.0
 11
-651.211464678302
 21
-7.64945818674968
 31
0.0
  0
LINE
  5
   73D
  8
0
  6
CONTINUOUS
 62
     7
 10
-650.745964669242
 20
-7.25745817912028
 30
0.0
 11
-651.211464678302
 21
-7.25745817912028
 31
0.0
  0
LINE
  5
   73E
  8
0
  6
CONTINUOUS
 62
     7
 10
-651.603464685931
 20
-7.25745817912004
 30
0.0
 11
-651.603464685931
 21
-6.71845816862962
 31
0.0
  0
LINE
  5
   73F
  8
0
  6
CONTINUOUS
 62
     7
 10
-651.211464678302
 20
-7.25745817912004
 30
0.0
 11
-651.211464678302
 21
-6.71845816862962
 31
0.0
  0
ARC
  5
   740
  8
0
  6
CONTINUOUS
 62
     7
 10
-650.966464673533
 20
-6.71845816862989
 30
0.0
 40
0.637000012397766
 50
449.999999948034
 51
539.999999948034
  0
ARC
  5
   741
  8
0
  6
CONTINUOUS
 62
     7
 10
-650.966464673533
 20
-6.71845816862989
 30
0.0
 40
0.245000004768371
 50
449.999999948034
 51
539.999999948034
  0
LINE
  5
   742
  8
0
  6
CONTINUOUS
 62
     7
 10
-650.745964669242
 20
-6.47345816386125
 30
0.0
 11
-650.745964669242
 21
-6.08145815623185
 31
0.0
  0
LINE
  5
   743
  8
0
  6
CONTINUOUS
 62
     7
 10
-650.745964669242
 20
-6.4734581638615
 30
0.0
 11
-650.966464673533
 21
-6.4734581638615
 31
0.0
  0
LINE
  5
   744
  8
0
  6
CONTINUOUS
 62
     7
 10
-652.975464712634
 20
7.05054209935261
 30
0.0
 11
-653.367464720263
 21
7.05054209935261
 31
0.0
  0
ARC
  5
   745
  8
0
  6
CONTINUOUS
 62
     7
 10
-655.033464752688
 20
8.56954212891651
 30
0.0
 40
1.27400002479553
 50
359.999999948034
 51
539.999999948034
  0
ARC
  5
   746
  8
0
  6
CONTINUOUS
 62
     7
 10
-655.033464752688
 20
8.56954212891651
 30
0.0
 40
0.882000017166138
 50
359.999999948034
 51
539.999999948034
  0
ARC
  5
   747
  8
0
  6
CONTINUOUS
 62
     7
 10
-655.033464752688
 20
8.32454212414814
 30
0.0
 40
1.27400002479553
 50
179.999999948034
 51
359.999999948034
  0
ARC
  5
   748
  8
0
  6
CONTINUOUS
 62
     7
 10
-655.033464752688
 20
8.32454212414814
 30
0.0
 40
0.882000017166137
 50
179.999999948034
 51
359.999999948034
  0
LINE
  5
   749
  8
0
  6
CONTINUOUS
 62
     7
 10
-654.151464735522
 20
8.32454212414838
 30
0.0
 11
-654.151464735522
 21
8.56954212891675
 31
0.0
  0
LINE
  5
   74A
  8
0
  6
CONTINUOUS
 62
     7
 10
-653.759464727893
 20
8.32454212414838
 30
0.0
 11
-653.759464727893
 21
8.56954212891675
 31
0.0
  0
LINE
  5
   74B
  8
0
  6
CONTINUOUS
 62
     7
 10
-655.915464769854
 20
8.32454212414837
 30
0.0
 11
-655.915464769854
 21
8.56954212891674
 31
0.0
  0
LINE
  5
   74C
  8
0
  6
CONTINUOUS
 62
     7
 10
-656.307464777484
 20
8.32454212414838
 30
0.0
 11
-656.307464777484
 21
8.56954212891675
 31
0.0
  0
LINE
  5
   74D
  8
0
  6
CONTINUOUS
 62
     7
 10
-653.367464720263
 20
7.05054209935285
 30
0.0
 11
-653.367464720263
 21
9.84354215371228
 31
0.0
  0
LINE
  5
   74E
  8
0
  6
CONTINUOUS
 62
     7
 10
-652.975464712634
 20
7.05054209935285
 30
0.0
 11
-652.975464712634
 21
8.76554213273145
 31
0.0
  0
LINE
  5
   74F
  8
0
  6
CONTINUOUS
 62
     7
 10
-651.603464685931
 20
7.05054209935285
 30
0.0
 11
-651.603464685931
 21
8.76554213273145
 31
0.0
  0
LINE
  5
   750
  8
0
  6
CONTINUOUS
 62
     7
 10
-651.211464678302
 20
7.05054209935285
 30
0.0
 11
-651.211464678302
 21
8.86354213463881
 31
0.0
  0
LINE
  5
   751
  8
0
  6
CONTINUOUS
 62
     7
 10
-652.975464712634
 20
9.84354215371204
 30
0.0
 11
-653.367464720263
 21
9.84354215371204
 31
0.0
  0
ARC
  5
   752
  8
0
  6
CONTINUOUS
 62
     7
 10
-652.289464699282
 20
8.7655421327312
 30
0.0
 40
0.68600001335144
 50
359.999999948034
 51
539.999999948034
  0
LINE
  5
   753
  8
0
  6
CONTINUOUS
 62
     7
 10
-652.975464712634
 20
9.4515421460829
 30
0.0
 11
-652.975464712634
 21
9.84354215371229
 31
0.0
  0
ARC
  5
   754
  8
0
  6
CONTINUOUS
 62
     7
 10
-652.191464697375
 20
8.86354213463854
 30
0.0
 40
0.980000019073486
 50
359.999999948034
 51
503.13010230219
  0
LINE
  5
   755
  8
0
  6
CONTINUOUS
 62
     7
 10
-651.211464678302
 20
7.05054209935261
 30
0.0
 11
-651.603464685931
 21
7.05054209935261
 31
0.0
  0
INSERT
  5
   756
  8
0
  6
CONTINUOUS
 62
     7
  2
*UDIM454
 10
0.0
 20
0.0
 30
0.0
  0
TEXT
  5
   757
  8
0
  6
CONTINUOUS
 62
     7
 10
-625.642936084003
 20
-12.7426152159377
 30
0.0
 40
3.00000008819055
  1
=          =
 50
89.9999999480344
 41
0.916666610307164
 72
     2
 11
-625.642936054612
 21
19.7073837418304
 31
0.0
  0
INSERT
  5
   758
  8
0
  6
CONTINUOUS
 62
     7
  2
*UDIM455
 10
0.0
 20
0.0
 30
0.0
  0
INSERT
  5
   759
  8
0
  6
CONTINUOUS
 62
     7
  2
*UDIM456
 10
0.0
 20
0.0
 30
0.0
  0
INSERT
  5
   75A
  8
0
  6
CONTINUOUS
 62
     7
  2
*UDIM457
 10
0.0
 20
0.0
 30
0.0
  0
INSERT
  5
   75B
  8
0
  6
CONTINUOUS
 62
     7
  2
*UDIM458
 10
0.0
 20
0.0
 30
0.0
  0
INSERT
  5
   75C
  8
0
  6
CONTINUOUS
 62
     7
  2
*UDIM459
 10
0.0
 20
0.0
 30
0.0
  0
INSERT
  5
   75D
  8
0
  6
CONTINUOUS
 62
     7
  2
*UDIM460
 10
0.0
 20
0.0
 30
0.0
  0
INSERT
  5
   75E
  8
0
  6
CONTINUOUS
 62
     7
  2
*UDIM461
 10
0.0
 20
0.0
 30
0.0
  0
TEXT
  5
   75F
  8
0
  6
CONTINUOUS
 62
     7
 10
-626.715693573484
 20
3.64546764741527
 30
0.0
 40
3.00000008819055
  1
X
 50
359.999999948034
 41
0.916666610307164
 72
     1
 11
-625.615693607942
 21
5.1454676905184
 31
0.0
 73
     2
  0
TEXT
  5
   760
  8
0
  6
CONTINUOUS
 62
     7
 10
-735.138947331647
 20
3.44253589602914
 30
0.0
 40
3.00000008819055
  1
X
 50
359.999999948034
 41
0.916666610307164
 72
     1
 11
-734.038947366105
 21
4.94253593913227
 31
0.0
 73
     2
  0
TEXT
  5
   761
  8
0
  6
CONTINUOUS
 62
     7
 10
-665.576501519763
 20
106.825808782174
 30
0.0
 40
3.00000008819055
  1
Y
 50
359.999999948034
 41
0.916666610307164
 72
     1
 11
-664.476501554222
 21
108.325808825278
 31
0.0
 73
     2
  0
INSERT
  5
   762
  8
0
  6
CONTINUOUS
 62
     7
  2
*UDIM462
 10
0.0
 20
0.0
 30
0.0
  0
INSERT
  5
   763
  8
255
  6
CONTINUOUS
 62
     7
  2
MOSTRINA
 10
-721.104251154263
 20
-48.6284755896928
 30
0.0
 41
0.490000009536743
 42
0.490000009536743
 50
359.999999792138
 43
0.490000009536743
  0
LINE
  5
   764
  8
0
  6
CONTINUOUS
 62
     7
 10
-418.345916748047
 20
35.5880317687988
 30
0.0
 11
-390.345916748047
 21
35.5880317687988
 31
0.0
  0
LINE
  5
   765
  8
0
  6
CONTINUOUS
 62
     7
 10
-418.345916748047
 20
63.5880317687988
 30
0.0
 11
-390.345916748047
 21
63.5880317687988
 31
0.0
  0
LINE
  5
   766
  8
0
  6
CONTINUOUS
 62
     7
 10
-418.345916748047
 20
63.5880317687988
 30
0.0
 11
-418.345916748047
 21
35.5880317687988
 31
0.0
  0
LINE
  5
   767
  8
0
  6
CONTINUOUS
 62
     7
 10
-390.345916748047
 20
63.5880317687988
 30
0.0
 11
-390.345916748047
 21
35.5880317687988
 31
0.0
  0
CIRCLE
  5
   768
  8
0
  6
CONTINUOUS
 62
     7
 10
-414.345916748047
 20
67.3380317687988
 30
0.0
 40
0.875
  0
CIRCLE
  5
   769
  8
0
  6
CONTINUOUS
 62
     7
 10
-394.345916748047
 20
67.3380317687988
 30
0.0
 40
0.875
  0
CIRCLE
  5
   76A
  8
0
  6
CONTINUOUS
 62
     7
 10
-414.345916748047
 20
31.8380317687988
 30
0.0
 40
0.875
  0
CIRCLE
  5
   76B
  8
0
  6
CONTINUOUS
 62
     7
 10
-394.345916748047
 20
31.8380317687988
 30
0.0
 40
0.875
  0
LINE
  5
   76C
  8
0
  6
DASHDOT
 62
     7
 10
-414.345916748047
 20
68.9630317687988
 30
0.0
 11
-414.345916748047
 21
65.7130317687988
 31
0.0
  0
LINE
  5
   76D
  8
0
  6
DASHDOT
 62
     7
 10
-415.970916748047
 20
67.3380317687988
 30
0.0
 11
-412.720916748047
 21
67.3380317687988
 31
0.0
  0
LINE
  5
   76E
  8
0
  6
DASHDOT
 62
     7
 10
-394.345916748047
 20
68.9630317687988
 30
0.0
 11
-394.345916748047
 21
65.7130317687988
 31
0.0
  0
LINE
  5
   76F
  8
0
  6
DASHDOT
 62
     7
 10
-395.970916748047
 20
67.3380317687988
 30
0.0
 11
-392.720916748047
 21
67.3380317687988
 31
0.0
  0
LINE
  5
   770
  8
0
  6
DASHDOT
 62
     7
 10
-394.345916748047
 20
33.4630317687988
 30
0.0
 11
-394.345916748047
 21
30.2130317687988
 31
0.0
  0
LINE
  5
   771
  8
0
  6
DASHDOT
 62
     7
 10
-395.970916748047
 20
31.8380317687988
 30
0.0
 11
-392.720916748047
 21
31.8380317687988
 31
0.0
  0
LINE
  5
   772
  8
0
  6
DASHDOT
 62
     7
 10
-414.345916748047
 20
33.4630317687988
 30
0.0
 11
-414.345916748047
 21
30.2130317687988
 31
0.0
  0
LINE
  5
   773
  8
0
  6
DASHDOT
 62
     7
 10
-415.970916748047
 20
31.8380317687988
 30
0.0
 11
-412.720916748047
 21
31.8380317687988
 31
0.0
  0
LINE
  5
   774
  8
0
  6
DASHDOT
 62
     7
 10
-404.345916748047
 20
76.9581440541359
 30
0.0
 11
-404.345916748047
 21
20.4647809239778
 31
0.0
  0
LINE
  5
   775
  8
0
  6
CONTINUOUS
 62
     7
 10
-421.166493291713
 20
69.9892174240049
 30
0.0
 11
-387.211933068405
 21
69.9892174240049
 31
0.0
  0
LINE
  5
   776
  8
0
  6
CONTINUOUS
 62
     7
 10
-421.166493291713
 20
28.4241523230596
 30
0.0
 11
-387.211933068405
 21
28.4241523230596
 31
0.0
  0
LINE
  5
   777
  8
0
  6
CONTINUOUS
 62
     7
 10
-387.211933068405
 20
69.9892174240049
 30
0.0
 11
-387.211933068405
 21
28.4241523230596
 31
0.0
  0
LINE
  5
   778
  8
0
  6
CONTINUOUS
 62
     7
 10
-421.166493291713
 20
69.9892174240049
 30
0.0
 11
-421.166493291713
 21
28.4241523230596
 31
0.0
  0
LINE
  5
   779
  8
0
  6
DASHDOT
 62
     7
 10
-428.076569091638
 20
49.5880317687988
 30
0.0
 11
-382.01967179087
 21
49.5880317687988
 31
0.0
  0
TEXT
  5
   77A
  8
0
  6
CONTINUOUS
 62
     1
 10
-504.237694218491
 20
-149.215343478574
 30
0.0
 40
2.00000008940697
  1
M 3076 95-01-16
 50
359.999999844103
 41
0.749999995529652
 72
     1
 11
-493.137693792582
 21
-148.215343464017
 31
0.0
 73
     2
  0
TEXT
  5
   77B
  8
0
  6
CONTINUOUS
 62
     1
 10
-516.281204214424
 20
-134.525600338283
 30
0.0
 40
2.00000008940697
  1
94-05-03 BARCELLA
 50
359.999999844103
 41
0.749999995529652
 72
     2
 11
-491.081203251809
 21
-134.525600406723
 31
0.0
  0
TEXT
  5
   77C
  8
0
  6
CONTINUOUS
 62
     7
 10
-436.079899725096
 20
39.6709960151762
 30
0.0
 40
3.00000002980232
  1
=     =
 50
449.999999844103
 41
0.916666604744064
 72
     2
 11
-436.079899674332
 21
58.3709949333519
 31
0.0
  0
TEXT
  5
   77D
  8
0
  6
CONTINUOUS
 62
     7
 10
-426.566508230345
 20
39.2179778266997
 30
0.0
 40
3.00000002980232
  1
=     =
 50
449.999999844103
 41
0.916666604744064
 72
     2
 11
-426.566508179581
 21
57.9179767448754
 31
0.0
  0
INSERT
  5
   77E
  8
0
  6
CONTINUOUS
 62
     7
  2
*UDIM463
 10
0.0
 20
0.0
 30
0.0
  0
TEXT
  5
   77F
  8
0
  6
CONTINUOUS
 62
     7
 10
-411.246458741131
 20
82.8123776350759
 30
0.0
 40
3.00000002980232
  1
=   =
 50
359.999999844103
 41
0.916666604744064
 72
     2
 11
-398.046459506058
 21
82.8123775992262
 31
0.0
  0
TEXT
  5
   780
  8
0
  6
CONTINUOUS
 62
     7
 10
-411.305000992718
 20
76.2556359205984
 30
0.0
 40
3.00000002980232
  1
=   =
 50
359.999999844103
 41
0.916666604744064
 72
     2
 11
-398.105001757644
 21
76.2556358847487
 31
0.0
  0
INSERT
  5
   781
  8
0
  6
CONTINUOUS
 62
     7
  2
*UDIM464
 10
0.0
 20
0.0
 30
0.0
  0
INSERT
  5
   782
  8
0
  6
CONTINUOUS
 62
     7
  2
*UDIM465
 10
0.0
 20
0.0
 30
0.0
  0
INSERT
  5
   783
  8
0
  6
CONTINUOUS
 62
     7
  2
*UDIM466
 10
0.0
 20
0.0
 30
0.0
  0
INSERT
  5
   784
  8
0
  6
CONTINUOUS
 62
     7
  2
*UDIM467
 10
0.0
 20
0.0
 30
0.0
  0
TEXT
  5
   785
  8
0
  6
CONTINUOUS
 62
     7
 10
-405.534196744465
 20
13.6129378581098
 30
0.0
 40
3.00000002980232
  1
Y
 50
359.999999844103
 41
0.916666604744064
 72
     2
 11
-403.334196875595
 21
13.6129378521348
 31
0.0
  0
TEXT
  5
   786
  8
0
  6
CONTINUOUS
 62
     7
 10
-404.597519288563
 20
92.3523940348676
 30
0.0
 40
3.00000002980232
  1
Y
 50
359.999999844103
 41
0.916666604744064
 72
     2
 11
-402.397519419693
 21
92.3523940288927
 31
0.0
  0
TEXT
  5
   787
  8
0
  6
CONTINUOUS
 62
     7
 10
-380.994516263508
 20
48.6525719070485
 30
0.0
 40
3.00000002980232
  1
X
 50
359.999999844103
 41
0.916666604744064
 72
     2
 11
-378.794516394638
 21
48.6525719010736
 31
0.0
  0
TEXT
  5
   788
  8
0
  6
CONTINUOUS
 62
     7
 10
-446.513839612507
 20
47.6845838332227
 30
0.0
 40
3.00000002980232
  1
X
 50
359.999999844103
 41
0.916666604744064
 72
     2
 11
-444.313839743637
 21
47.6845838272477
 31
0.0
  0
TEXT
  5
   789
  8
0
  6
CONTINUOUS
 62
     1
 10
-409.308593731582
 20
-160.425838380249
 30
0.0
 40
4.00000017881393
  1
601812/511
 50
359.999999844103
 41
0.937499973922969
 72
     2
 11
-372.55859313181
 21
-160.425838480058
 31
0.0
  0
TEXT
  5
   78A
  8
0
  6
CONTINUOUS
 62
     1
 10
-398.222900376811
 20
-151.4442557419
 30
0.0
 40
3.00000002980232
  1
    S4
 50
359.999999844103
 41
0.916666604744064
 72
     2
 11
-382.272901300187
 21
-151.444255785218
 31
0.0
  0
TEXT
  5
   78B
  8
0
  6
CONTINUOUS
 62
     1
 10
-419.757320135573
 20
-133.133983579521
 30
0.0
 40
2.00000008940697
  1
3POLE LOW VOLTAGE M.C.C.B SERIES ISOMAX
 50
359.999999844103
 41
0.749999861419206
 72
     1
 11
-390.657324212795
 21
-132.133983613849
 31
0.0
 73
     2
  0
TEXT
  5
   78C
  8
0
  6
CONTINUOUS
 62
     1
 10
-413.757320940224
 20
-136.133983595816
 30
0.0
 40
2.00000008940697
  1
PLUG-IN VERSION CABLE TERMINALS
 50
359.999999844103
 41
0.749999861419206
 72
     1
 11
-390.657324177021
 21
-135.133983613849
 31
0.0
 73
     2
  0
TEXT
  5
   78D
  8
0
  6
CONTINUOUS
 62
     1
 10
-416.554928502927
 20
-141.204250321486
 30
0.0
 40
2.00000008940697
  1
INTERR.AUTOMATICO SERIE ISOMAX
 50
359.999999844103
 41
0.749999861419206
 72
     1
 11
-394.204931634671
 21
-140.204250337482
 31
0.0
 73
     2
  0
TEXT
  5
   78E
  8
0
  6
CONTINUOUS
 62
     1
 10
-429.304926681248
 20
-144.204250286858
 30
0.0
 40
2.00000008940697
  1
TRIPOL.ESECUZIONE RIMOVIBILE TERMINALI PER CAVI
 50
359.999999844103
 41
0.749999861419206
 72
     1
 11
-394.204931598896
 21
-143.204250337482
 31
0.0
 73
     2
  0
ENDSEC
  0
EOF
