  0
SECTION
  2
HEADER
  9
$ACADVER
  1
AC1009
  9
$INSBASE
 10
0.0
 20
0.0
 30
0.0
  9
$EXTMIN
 10
-1.064136
 20
0.580166
 30
0.0
  9
$EXTMAX
 10
392.577972
 20
263.080166
 30
0.0
  9
$LIMMIN
 10
0.0
 20
0.0
  9
$LIMMAX
 10
12.0
 20
9.0
  9
$ORTHOMODE
 70
     1
  9
$REGENMODE
 70
     1
  9
$FILLMODE
 70
     1
  9
$QTEXTMODE
 70
     0
  9
$MIRRTEXT
 70
     1
  9
$DRAGMODE
 70
     2
  9
$LTSCALE
 40
5.0
  9
$OSMODE
 70
     0
  9
$ATTMODE
 70
     1
  9
$TEXTSIZE
 40
2.0
  9
$TRACEWID
 40
0.05
  9
$TEXTSTYLE
  7
ROMANS
  9
$CLAYER
  8
0
  9
$CELTYPE
  6
CONTINUOUS
  9
$CECOLOR
 62
   256
  9
$DIMSCALE
 40
1.0
  9
$DIMASZ
 40
0.18
  9
$DIMEXO
 40
0.0625
  9
$DIMDLI
 40
0.38
  9
$DIMRND
 40
0.0
  9
$DIMDLE
 40
0.0
  9
$DIMEXE
 40
0.18
  9
$DIMTP
 40
0.0
  9
$DIMTM
 40
0.0
  9
$DIMTXT
 40
0.18
  9
$DIMCEN
 40
0.09
  9
$DIMTSZ
 40
0.0
  9
$DIMTOL
 70
     0
  9
$DIMLIM
 70
     0
  9
$DIMTIH
 70
     1
  9
$DIMTOH
 70
     1
  9
$DIMSE1
 70
     0
  9
$DIMSE2
 70
     0
  9
$DIMTAD
 70
     0
  9
$DIMZIN
 70
     0
  9
$DIMBLK
  1

  9
$DIMASO
 70
     1
  9
$DIMSHO
 70
     1
  9
$DIMPOST
  1

  9
$DIMAPOST
  1

  9
$DIMALT
 70
     0
  9
$DIMALTD
 70
     2
  9
$DIMALTF
 40
25.4
  9
$DIMLFAC
 40
1.0
  9
$DIMTOFL
 70
     0
  9
$DIMTVP
 40
0.0
  9
$DIMTIX
 70
     0
  9
$DIMSOXD
 70
     0
  9
$DIMSAH
 70
     0
  9
$DIMBLK1
  1

  9
$DIMBLK2
  1

  9
$DIMSTYLE
  2
*UNNAMED
  9
$DIMCLRD
 70
     0
  9
$DIMCLRE
 70
     0
  9
$DIMCLRT
 70
     0
  9
$DIMTFAC
 40
1.0
  9
$DIMGAP
 40
0.09
  9
$LUNITS
 70
     2
  9
$LUPREC
 70
     4
  9
$SKETCHINC
 40
0.1
  9
$FILLETRAD
 40
0.0
  9
$AUNITS
 70
     0
  9
$AUPREC
 70
     0
  9
$MENU
  1
acad
  9
$ELEVATION
 40
0.0
  9
$PELEVATION
 40
0.0
  9
$THICKNESS
 40
0.0
  9
$LIMCHECK
 70
     0
  9
$BLIPMODE
 70
     1
  9
$CHAMFERA
 40
0.0
  9
$CHAMFERB
 40
0.0
  9
$SKPOLY
 70
     0
  9
$TDCREATE
 40
2449479.318501042
  9
$TDUPDATE
 40
2449479.318501042
  9
$TDINDWG
 40
0.0000000000
  9
$TDUSRTIMER
 40
0.0000000000
  9
$USRTIMER
 70
     1
  9
$ANGBASE
 50
0.0
  9
$ANGDIR
 70
     0
  9
$PDMODE
 70
     0
  9
$PDSIZE
 40
0.0
  9
$PLINEWID
 40
0.0
  9
$COORDS
 70
     2
  9
$SPLFRAME
 70
     0
  9
$SPLINETYPE
 70
     6
  9
$SPLINESEGS
 70
     8
  9
$ATTDIA
 70
     0
  9
$ATTREQ
 70
     1
  9
$HANDLING
 70
     0
  9
$HANDSEED
  5
0
  9
$SURFTAB1
 70
   250
  9
$SURFTAB2
 70
   250
  9
$SURFTYPE
 70
     6
  9
$SURFU
 70
     6
  9
$SURFV
 70
     6
  9
$UCSNAME
  2

  9
$UCSORG
 10
0.0
 20
0.0
 30
0.0
  9
$UCSXDIR
 10
1.0
 20
0.0
 30
0.0
  9
$UCSYDIR
 10
0.0
 20
1.0
 30
0.0
  9
$PUCSNAME
  2

  9
$PUCSORG
 10
0.0
 20
0.0
 30
0.0
  9
$PUCSXDIR
 10
1.0
 20
0.0
 30
0.0
  9
$PUCSYDIR
 10
0.0
 20
1.0
 30
0.0
  9
$USERI1
 70
     0
  9
$USERI2
 70
     0
  9
$USERI3
 70
     0
  9
$USERI4
 70
     0
  9
$USERI5
 70
     0
  9
$USERR1
 40
0.0
  9
$USERR2
 40
0.0
  9
$USERR3
 40
0.0
  9
$USERR4
 40
0.0
  9
$USERR5
 40
0.0
  9
$WORLDVIEW
 70
     1
  9
$SHADEDGE
 70
     3
  9
$SHADEDIF
 70
    70
  9
$TILEMODE
 70
     1
  9
$MAXACTVP
 70
    16
  9
$PINSBASE
 10
0.0
 20
0.0
 30
0.0
  9
$PLIMCHECK
 70
     0
  9
$PEXTMIN
 10
1.000000E+20
 20
1.000000E+20
 30
1.000000E+20
  9
$PEXTMAX
 10
-1.000000E+20
 20
-1.000000E+20
 30
-1.000000E+20
  9
$PLIMMIN
 10
0.0
 20
0.0
  9
$PLIMMAX
 10
12.0
 20
9.0
  9
$UNITMODE
 70
     0
  9
$VISRETAIN
 70
     0
  9
$PLINEGEN
 70
     0
  9
$PSLTSCALE
 70
     0
  9
$TREEDEPTH
 70
  3020
  9
$DWGCODEPAGE
  3
undefined
  0
ENDSEC
  0
SECTION
  2
TABLES
  0
TABLE
  2
VPORT
 70
     2
  0
VPORT
  2
*ACTIVE
 70
     0
 10
0.0
 20
0.0
 11
1.0
 21
1.0
 12
222.255793
 22
142.54928
 13
0.0
 23
0.0
 14
2.5
 24
2.5
 15
0.0
 25
0.0
 16
0.0
 26
0.0
 36
1.0
 17
0.0
 27
0.0
 37
0.0
 40
285.098559
 41
1.566616
 42
50.0
 43
0.0
 44
0.0
 50
0.0
 51
0.0
 71
     0
 72
   100
 73
     1
 74
     1
 75
     1
 76
     0
 77
     0
 78
     0
  0
ENDTAB
  0
TABLE
  2
LTYPE
 70
     7
  0
LTYPE
  2
CONTINUOUS
 70
    64
  3
Solid line
 72
    65
 73
     0
 40
0.0
  0
LTYPE
  2
DASHED
 70
    64
  3
__ __ __ __ __ __ __ __ __ __ __ __ __ __ __ __
 72
    65
 73
     2
 40
0.75
 49
0.5
 49
-0.25
  0
LTYPE
  2
CENTER
 70
    64
  3
____ _ ____ _ ____ _ ____ _ ____ _ ____ _ ____ 
 72
    65
 73
     4
 40
2.0
 49
1.25
 49
-0.25
 49
0.25
 49
-0.25
  0
LTYPE
  2
HIDDEN
 70
    64
  3
__ __ __ __ __ __ __ __ __ __ __ __ __ __ __ __
 72
    65
 73
     2
 40
0.375
 49
0.25
 49
-0.125
  0
LTYPE
  2
DOT
 70
     0
  3
. . . . . . . . . . . . . . . . . . . . . . . .
 72
    65
 73
     2
 40
0.25
 49
0.0
 49
-0.25
  0
LTYPE
  2
DASHDOT
 70
     0
  3
__ . __ . __ . __ . __ . __ . __ . __ . __ . __
 72
    65
 73
     4
 40
1.0
 49
0.5
 49
-0.25
 49
0.0
 49
-0.25
  0
LTYPE
  2
PHANTOM
 70
     0
  3
______  __  __  ______  __  __  ______  __  __ 
 72
    65
 73
     6
 40
2.5
 49
1.25
 49
-0.25
 49
0.25
 49
-0.25
 49
0.25
 49
-0.25
  0
ENDTAB
  0
TABLE
  2
LAYER
 70
    13
  0
LAYER
  2
0
 70
    64
 62
     7
  6
CONTINUOUS
  0
LAYER
  2
RAAMI
 70
    64
 62
    -4
  6
CONTINUOUS
  0
LAYER
  2
PAKSU
 70
    64
 62
    -3
  6
CONTINUOUS
  0
LAYER
  2
OHUT
 70
    64
 62
    -6
  6
CONTINUOUS
  0
LAYER
  2
SWEDEN
 70
    64
 62
    -7
  6
CONTINUOUS
  0
LAYER
  2
SWEDEN2
 70
    64
 62
    -5
  6
CONTINUOUS
  0
LAYER
  2
BASE
 70
    64
 62
    -7
  6
CONTINUOUS
  0
LAYER
  2
21
 70
    64
 62
    -2
  6
CONTINUOUS
  0
LAYER
  2
HEL035
 70
    64
 62
    -7
  6
CONTINUOUS
  0
LAYER
  2
MUO
 70
    64
 62
    -7
  6
CONTINUOUS
  0
LAYER
  2
1
 70
    64
 62
    -2
  6
CONTINUOUS
  0
LAYER
  2
BASE1
 70
    64
 62
    -1
  6
CONTINUOUS
  0
LAYER
  2
TEKS
 70
    64
 62
    -5
  6
CONTINUOUS
  0
ENDTAB
  0
TABLE
  2
STYLE
 70
     7
  0
STYLE
  2
STANDARD
 70
    64
 40
0.0
 41
1.0
 50
0.0
 71
     0
 42
2.5
  3
txt
  4

  0
STYLE
  2
ROMANS
 70
    64
 40
0.0
 41
1.0
 50
0.0
 71
     0
 42
2.0
  3
ROMANS
  4

  0
STYLE
  2
GREEKC
 70
    64
 40
0.0
 41
1.0
 50
0.0
 71
     0
 42
1.5
  3
GREEKC
  4

  0
STYLE
  2
GREEKS
 70
    64
 40
0.0
 41
1.0
 50
0.0
 71
     0
 42
2.0
  3
TXT
  4

  0
STYLE
  2
MONOTXT
 70
     0
 40
0.0
 41
1.0
 50
0.0
 71
     0
 42
2.0
  3
monotxt
  4

  0
STYLE
  2
ROMANT
 70
     0
 40
0.0
 41
1.0
 50
0.0
 71
     0
 42
2.5
  3
romant
  4

  0
STYLE
  2
STAND
 70
    64
 40
0.0
 41
1.0
 50
0.0
 71
     0
 42
2.0
  3
TXT
  4

  0
ENDTAB
  0
TABLE
  2
VIEW
 70
     0
  0
ENDTAB
  0
TABLE
  2
UCS
 70
     0
  0
ENDTAB
  0
TABLE
  2
APPID
 70
     1
  0
APPID
  2
ACAD
 70
    64
  0
ENDTAB
  0
TABLE
  2
DIMSTYLE
 70
     0
  0
ENDTAB
  0
ENDSEC
  0
SECTION
  2
BLOCKS
  0
BLOCK
  8
0
  2
1
 70
    64
 10
0.0
 20
0.0
 30
0.0
  3
1
  0
ENDBLK
  8
0
  0
BLOCK
  8
0
  2
BLC27
 70
     0
 10
0.0
 20
0.0
 30
0.0
  3
BLC27
  0
INSERT
  8
SWEDEN2
  6
CENTER
  2
BLC26
 10
0.08063
 20
0.037985
 30
0.0
 41
1.006225
 42
1.006225
 43
1.006225
  0
ENDBLK
  8
0
  0
BLOCK
  8
0
  2
BLC26
 70
    64
 10
0.0
 20
0.0
 30
0.0
  3
BLC26
  0
ARC
  8
0
  6
CONTINUOUS
 10
-0.180576
 20
1.17922
 30
0.0
 40
1.196859
 50
90.0
 51
265.706237
  0
LINE
  8
0
  6
CONTINUOUS
 10
-0.186638
 20
-0.01092
 30
0.0
 11
0.458942
 21
-0.01092
 31
0.0
  0
LINE
  8
0
  6
CONTINUOUS
 10
-0.186638
 20
2.375671
 30
0.0
 11
0.45288
 21
2.375671
 31
0.0
  0
LINE
  8
0
  6
CONTINUOUS
 10
-0.185509
 20
-2.404629
 30
0.0
 11
0.460071
 21
-2.404629
 31
0.0
  0
ARC
  8
0
  6
CONTINUOUS
 10
-0.180576
 20
-1.207779
 30
0.0
 40
1.196859
 50
90.0
 51
270.0
  0
LINE
  8
0
  6
CONTINUOUS
 10
0.451525
 20
-2.404586
 30
0.0
 11
1.401805
 21
-2.404586
 31
0.0
  0
LINE
  8
0
  6
CONTINUOUS
 10
0.446785
 20
2.375674
 30
0.0
 11
1.418544
 21
2.375674
 31
0.0
  0
LINE
  8
0
  6
CONTINUOUS
 10
0.456627
 20
-0.010911
 30
0.0
 11
1.422749
 21
-0.010911
 31
0.0
  0
ENDBLK
  8
0
  0
BLOCK
  8
0
  2
BLC29
 70
    64
 10
0.0
 20
0.0
 30
0.0
  3
BLC29
  0
LINE
  8
0
  6
CONTINUOUS
 10
0.004865
 20
1.206889
 30
0.0
 11
2.350631
 21
-0.128465
 31
0.0
  0
LINE
  8
0
  6
CONTINUOUS
 10
2.350631
 20
-0.128465
 30
0.0
 11
0.004865
 21
-1.318384
 31
0.0
  0
ENDBLK
  8
0
  0
BLOCK
  8
0
  2
BLC15
 70
     0
 10
0.0
 20
0.0
 30
0.0
  3
BLC15
  0
LINE
  8
0
  6
CONTINUOUS
 10
0.142084
 20
3.490022
 30
0.0
 11
0.142084
 21
0.844365
 31
0.0
  0
LINE
  8
0
  6
CONTINUOUS
 10
-0.461611
 20
-0.937188
 30
0.0
 11
0.745779
 21
-0.937188
 31
0.0
  0
LINE
  8
0
  6
CONTINUOUS
 10
-0.894108
 20
-0.049675
 30
0.0
 11
1.169267
 21
-0.049675
 31
0.0
  0
LINE
  8
0
  6
CONTINUOUS
 10
-1.389679
 20
0.844365
 30
0.0
 11
1.673848
 21
0.844365
 31
0.0
  0
ENDBLK
  8
0
  0
BLOCK
  8
0
  2
BLC43
 70
    64
 10
0.0
 20
0.0
 30
0.0
  3
BLC43
  0
TEXT
  8
SWEDEN2
  6
CONTINUOUS
 10
-0.646672
 20
-0.986365
 30
0.0
 40
2.0
  1
+
  0
ENDBLK
  8
0
  0
BLOCK
  8
0
  2
BLC42
 70
    64
 10
0.0
 20
0.0
 30
0.0
  3
BLC42
  0
TEXT
  8
SWEDEN2
  6
CONTINUOUS
 10
-0.655237
 20
-0.99442
 30
0.0
 40
2.0
  1
-
  0
ENDBLK
  8
0
  0
BLOCK
  8
0
  2
B155
 70
     0
 10
0.0
 20
0.0
 30
0.0
  3
B155
  0
LINE
  8
0
  6
CONTINUOUS
 10
0.0
 20
0.0
 30
0.0
 11
0.0
 21
-1.35427
 31
0.0
  0
LINE
  8
0
  6
CONTINUOUS
 10
-1.210228
 20
-1.35427
 30
0.0
 11
-0.015887
 21
-1.35427
 31
0.0
  0
LINE
  8
0
  6
CONTINUOUS
 10
-0.015887
 20
-1.35427
 30
0.0
 11
1.178454
 21
-1.35427
 31
0.0
  0
LINE
  8
0
  6
CONTINUOUS
 10
-0.831823
 20
-1.833881
 30
0.0
 11
0.752749
 21
-1.833881
 31
0.0
  0
LINE
  8
0
  6
CONTINUOUS
 10
-0.500718
 20
-2.322055
 30
0.0
 11
0.386169
 21
-2.322055
 31
0.0
  0
ENDBLK
  8
0
  0
BLOCK
  8
0
  2
ABBA3SX
 70
    64
 10
0.0
 20
0.0
 30
0.0
  3
ABBA3SX
  0
TEXT
  8
RAAMI
  6
DASHED
 10
354.190282
 20
15.793111
 30
0.0
 40
1.4
  1
LEHTI SHEET
  7
STAND
  0
LINE
  8
PAKSU
 10
0.236802
 20
0.237701
 30
0.0
 11
0.236802
 21
262.737701
 31
0.0
  0
LINE
  8
PAKSU
 10
392.236802
 20
262.737701
 30
0.0
 11
392.236802
 21
0.237701
 31
0.0
  0
LINE
  8
PAKSU
 10
0.236802
 20
0.237701
 30
0.0
 11
392.236802
 21
0.237701
 31
0.0
  0
TEXT
  8
RAAMI
 10
42.236802
 20
5.587211
 30
0.0
 40
2.5
  1
C
  7
ROMANS
  0
TEXT
  8
RAAMI
 10
42.236802
 20
1.194994
 30
0.0
 40
2.5
  1
B
  7
ROMANS
  0
TEXT
  8
RAAMI
 10
257.406709
 20
1.741485
 30
0.0
 40
3.0
  1
Power
 41
0.8
  7
ROMANS
  0
TEXT
  8
RAAMI
 10
273.236802
 20
7.237701
 30
0.0
 40
1.4
  1
VAST.OSASTO RESP.DEPT.
  7
ROMANS
  0
TEXT
  8
RAAMI
 10
210.236802
 20
32.237701
 30
0.0
 40
1.4
  1
TEKI  PREPARED
  7
ROMANS
  0
LINE
  8
OHUT
 10
271.236802
 20
9.737701
 30
0.0
 11
271.236802
 21
0.237701
 31
0.0
  0
LINE
  8
OHUT
 10
257.236802
 20
9.737701
 30
0.0
 11
257.236802
 21
35.237701
 31
0.0
  0
LINE
  8
OHUT
 10
40.736802
 20
4.737701
 30
0.0
 11
209.236802
 21
4.737701
 31
0.0
  0
LINE
  8
OHUT
 10
46.736802
 20
0.237701
 30
0.0
 11
46.736802
 21
9.237701
 31
0.0
  0
LINE
  8
OHUT
 10
46.736802
 20
9.237701
 30
0.0
 11
209.236802
 21
9.237701
 31
0.0
  0
TEXT
  8
RAAMI
 10
27.736802
 20
2.471035
 30
0.0
 40
1.4
  1
REVISION
  7
ROMANS
  0
TEXT
  8
RAAMI
 10
27.736802
 20
4.737701
 30
0.0
 40
1.4
  1
MUUTOS
  7
ROMANS
  0
LINE
  8
OHUT
 10
282.236802
 20
9.737701
 30
0.0
 11
282.236802
 21
18.237701
 31
0.0
  0
TEXT
  8
RAAMI
 10
237.736802
 20
1.737701
 30
0.0
 40
3.0
  1
Strömberg
 41
0.8
  7
ROMANS
  0
TEXT
  8
RAAMI
 10
229.736802
 20
1.737701
 30
0.0
 40
3.0
  1
ABB 
 41
0.8
  7
ROMANS
  0
LINE
  8
RAAMI
 10
223.136802
 20
1.737701
 30
0.0
 11
223.136802
 21
5.097701
 31
0.0
  0
LINE
  8
RAAMI
 10
223.136802
 20
8.737701
 30
0.0
 11
225.096802
 21
8.737701
 31
0.0
  0
LINE
  8
RAAMI
 10
225.096802
 20
8.737701
 30
0.0
 11
225.096802
 21
5.377701
 31
0.0
  0
LINE
  8
RAAMI
 10
225.096802
 20
5.377701
 30
0.0
 11
223.136802
 21
5.377701
 31
0.0
  0
LINE
  8
RAAMI
 10
223.136802
 20
5.097701
 30
0.0
 11
225.096802
 21
5.097701
 31
0.0
  0
LINE
  8
RAAMI
 10
225.096802
 20
5.097701
 30
0.0
 11
225.096802
 21
1.737701
 31
0.0
  0
LINE
  8
RAAMI
 10
225.096802
 20
1.737701
 30
0.0
 11
223.136802
 21
1.737701
 31
0.0
  0
LINE
  8
RAAMI
 10
223.136802
 20
5.377701
 30
0.0
 11
223.136802
 21
8.737701
 31
0.0
  0
ARC
  8
RAAMI
 10
225.936802
 20
7.162701
 30
0.0
 40
1.575
 50
298.455859
 51
90.052437
  0
LINE
  8
RAAMI
 10
225.376802
 20
8.737701
 30
0.0
 11
225.935361
 21
8.737701
 31
0.0
  0
LINE
  8
RAAMI
 10
225.376802
 20
8.737701
 30
0.0
 11
225.376802
 21
5.377701
 31
0.0
  0
LINE
  8
RAAMI
 10
225.376802
 20
5.377701
 30
0.0
 11
227.361245
 21
5.377701
 31
0.0
  0
LINE
  8
RAAMI
 10
227.616802
 20
5.097701
 30
0.0
 11
225.376802
 21
5.097701
 31
0.0
  0
LINE
  8
RAAMI
 10
225.376802
 20
5.097701
 30
0.0
 11
225.376802
 21
1.737701
 31
0.0
  0
ARC
  8
RAAMI
 10
225.936802
 20
3.837701
 30
0.0
 40
2.1
 50
269.937724
 51
37.056553
  0
LINE
  8
RAAMI
 10
225.376802
 20
1.737701
 30
0.0
 11
225.93452
 21
1.737703
 31
0.0
  0
ARC
  8
RAAMI
 10
225.936802
 20
3.837701
 30
0.0
 40
2.1
 50
47.28622
 51
68.787999
  0
INSERT
  8
RAAMI
  2
*X13
 10
215.646802
 20
1.737701
 30
0.0
 41
0.7
 42
0.7
 43
0.7
  0
INSERT
  8
RAAMI
  2
*X14
 10
215.646802
 20
1.737701
 30
0.0
 41
0.7
 42
0.7
 43
0.7
  0
INSERT
  8
RAAMI
  2
*X15
 10
215.646802
 20
1.737701
 30
0.0
 41
0.7
 42
0.7
 43
0.7
  0
INSERT
  8
RAAMI
  2
*X16
 10
215.646802
 20
1.737701
 30
0.0
 41
0.7
 42
0.7
 43
0.7
  0
INSERT
  8
RAAMI
  2
*X16
 10
210.186802
 20
1.737701
 30
0.0
 41
0.7
 42
0.7
 43
0.7
  0
INSERT
  8
RAAMI
  2
*X15
 10
210.186802
 20
1.737701
 30
0.0
 41
0.7
 42
0.7
 43
0.7
  0
INSERT
  8
RAAMI
  2
*X14
 10
210.186802
 20
1.737701
 30
0.0
 41
0.7
 42
0.7
 43
0.7
  0
INSERT
  8
RAAMI
  2
*X13
 10
210.186802
 20
1.737701
 30
0.0
 41
0.7
 42
0.7
 43
0.7
  0
ARC
  8
RAAMI
 10
220.476802
 20
3.837701
 30
0.0
 40
2.1
 50
47.28622
 51
68.787999
  0
LINE
  8
RAAMI
 10
219.916802
 20
1.737701
 30
0.0
 11
220.47452
 21
1.737703
 31
0.0
  0
ARC
  8
RAAMI
 10
220.476802
 20
3.837701
 30
0.0
 40
2.1
 50
269.937724
 51
37.056553
  0
LINE
  8
RAAMI
 10
219.916802
 20
5.097701
 30
0.0
 11
219.916802
 21
1.737701
 31
0.0
  0
LINE
  8
RAAMI
 10
222.156802
 20
5.097701
 30
0.0
 11
219.916802
 21
5.097701
 31
0.0
  0
LINE
  8
RAAMI
 10
219.916802
 20
5.377701
 30
0.0
 11
221.901245
 21
5.377701
 31
0.0
  0
LINE
  8
RAAMI
 10
219.916802
 20
8.737701
 30
0.0
 11
219.916802
 21
5.377701
 31
0.0
  0
LINE
  8
RAAMI
 10
219.916802
 20
8.737701
 30
0.0
 11
220.475361
 21
8.737701
 31
0.0
  0
ARC
  8
RAAMI
 10
220.476802
 20
7.162701
 30
0.0
 40
1.575
 50
298.455859
 51
90.052437
  0
LINE
  8
RAAMI
 10
217.676802
 20
5.377701
 30
0.0
 11
217.676802
 21
8.737701
 31
0.0
  0
LINE
  8
RAAMI
 10
219.636802
 20
1.737701
 30
0.0
 11
217.676802
 21
1.737701
 31
0.0
  0
LINE
  8
RAAMI
 10
219.636802
 20
5.097701
 30
0.0
 11
219.636802
 21
1.737701
 31
0.0
  0
LINE
  8
RAAMI
 10
217.676802
 20
5.097701
 30
0.0
 11
219.636802
 21
5.097701
 31
0.0
  0
LINE
  8
RAAMI
 10
219.636802
 20
5.377701
 30
0.0
 11
217.676802
 21
5.377701
 31
0.0
  0
LINE
  8
RAAMI
 10
219.636802
 20
8.737701
 30
0.0
 11
219.636802
 21
5.377701
 31
0.0
  0
LINE
  8
RAAMI
 10
217.676802
 20
8.737701
 30
0.0
 11
219.636802
 21
8.737701
 31
0.0
  0
LINE
  8
RAAMI
 10
217.676802
 20
1.737701
 30
0.0
 11
217.676802
 21
5.097701
 31
0.0
  0
INSERT
  8
RAAMI
  2
*X12
 10
210.186802
 20
1.737701
 30
0.0
 41
0.7
 42
0.7
 43
0.7
  0
INSERT
  8
RAAMI
  2
*X11
 10
210.186802
 20
1.737701
 30
0.0
 41
0.7
 42
0.7
 43
0.7
  0
INSERT
  8
RAAMI
  2
*X10
 10
210.186802
 20
1.737701
 30
0.0
 41
0.7
 42
0.7
 43
0.7
  0
INSERT
  8
RAAMI
  2
*X9
 10
210.186802
 20
1.737701
 30
0.0
 41
0.7
 42
0.7
 43
0.7
  0
LINE
  8
RAAMI
 10
211.356691
 20
5.08024
 30
0.0
 11
210.186802
 21
1.737701
 31
0.0
  0
LINE
  8
RAAMI
 10
213.546802
 20
5.097701
 30
0.0
 11
213.546802
 21
3.137701
 31
0.0
  0
LINE
  8
RAAMI
 10
213.826802
 20
5.097701
 30
0.0
 11
213.826802
 21
3.137701
 31
0.0
  0
LINE
  8
RAAMI
 10
213.826802
 20
5.097701
 30
0.0
 11
216.010059
 21
5.097701
 31
0.0
  0
LINE
  8
RAAMI
 10
213.826802
 20
5.377701
 30
0.0
 11
215.911916
 21
5.377701
 31
0.0
  0
LINE
  8
RAAMI
 10
216.011294
 20
5.096296
 30
0.0
 11
217.186802
 21
1.737701
 31
0.0
  0
LINE
  8
RAAMI
 10
211.359785
 20
5.097701
 30
0.0
 11
213.546802
 21
5.097701
 31
0.0
  0
LINE
  8
RAAMI
 10
211.458743
 20
5.377701
 30
0.0
 11
213.546802
 21
5.377701
 31
0.0
  0
LINE
  8
RAAMI
 10
213.546802
 20
8.737701
 30
0.0
 11
212.636802
 21
8.737701
 31
0.0
  0
LINE
  8
RAAMI
 10
213.826802
 20
3.137701
 30
0.0
 11
214.946696
 21
3.137701
 31
0.0
  0
LINE
  8
RAAMI
 10
213.826802
 20
8.737701
 30
0.0
 11
213.826802
 21
5.377701
 31
0.0
  0
LINE
  8
RAAMI
 10
213.546802
 20
8.737701
 30
0.0
 11
213.546802
 21
5.377701
 31
0.0
  0
LINE
  8
RAAMI
 10
214.736802
 20
8.737701
 30
0.0
 11
213.826802
 21
8.737701
 31
0.0
  0
LINE
  8
RAAMI
 10
214.9479
 20
3.134565
 30
0.0
 11
215.436802
 21
1.737701
 31
0.0
  0
LINE
  8
RAAMI
 10
214.736802
 20
8.737701
 30
0.0
 11
215.913155
 21
5.376693
 31
0.0
  0
LINE
  8
RAAMI
 10
212.425592
 20
3.134244
 30
0.0
 11
211.936802
 21
1.737701
 31
0.0
  0
LINE
  8
RAAMI
 10
212.425589
 20
3.137701
 30
0.0
 11
213.546802
 21
3.137701
 31
0.0
  0
LINE
  8
RAAMI
 10
212.636802
 20
8.737701
 30
0.0
 11
211.459274
 21
5.373336
 31
0.0
  0
LINE
  8
RAAMI
 10
215.436802
 20
1.737701
 30
0.0
 11
217.186802
 21
1.737701
 31
0.0
  0
LINE
  8
RAAMI
 10
210.186802
 20
1.737701
 30
0.0
 11
211.936802
 21
1.737701
 31
0.0
  0
LINE
  8
OHUT
 10
369.736802
 20
9.737701
 30
0.0
 11
369.736802
 21
0.237701
 31
0.0
  0
TEXT
  8
RAAMI
 10
371.236802
 20
7.237701
 30
0.0
 40
1.4
  1
PAINOS  REVISION
  7
ROMANS
  0
LINE
  8
OHUT
 10
349.736802
 20
9.737701
 30
0.0
 11
349.736802
 21
18.237701
 31
0.0
  0
TEXT
  8
RAAMI
 10
309.236802
 20
7.237701
 30
0.0
 40
1.4
  1
PIIRUSTUS NO  DRAWING NR
  7
ROMANS
  0
TEXT
  8
RAAMI
 10
309.236802
 20
15.737701
 30
0.0
 40
1.4
  1
KOODI  CODE
  7
ROMANS
  0
TEXT
  8
RAAMI
 10
309.236802
 20
32.737701
 30
0.0
 40
1.4
  1
NIMITYS  NAME
  7
ROMANS
  0
TEXT
  8
RAAMI
 10
259.236802
 20
15.737701
 30
0.0
 40
1.4
  1
SUHDE  SCALE
  7
ROMANS
  0
TEXT
  8
RAAMI
 10
259.236802
 20
23.737701
 30
0.0
 40
1.4
  1
TOLERANSSIT  TOLERANCES
  7
ROMANS
  0
TEXT
  8
RAAMI
 10
259.236802
 20
32.737701
 30
0.0
 40
1.4
  1
LIITTYY  CONCERNING
  7
ROMANS
  0
LINE
  8
OHUT
 10
307.236802
 20
0.237701
 30
0.0
 11
307.236802
 21
35.237701
 31
0.0
  0
TEXT
  8
RAAMI
 10
209.979637
 20
15.704368
 30
0.0
 40
1.4
  1
HYVÄKSYI  APPROVED
  7
ROMANS
  0
TEXT
  8
RAAMI
 10
210.236802
 20
23.971035
 30
0.0
 40
1.4
  1
TARKASTI  CHECKED
  7
ROMANS
  0
LINE
  8
PAKSU
 10
209.236802
 20
35.237701
 30
0.0
 11
392.236802
 21
35.237701
 31
0.0
  0
LINE
  8
OHUT
 10
209.236802
 20
26.737701
 30
0.0
 11
307.236802
 21
26.737701
 31
0.0
  0
LINE
  8
OHUT
 10
209.236802
 20
9.737701
 30
0.0
 11
392.236802
 21
9.737701
 31
0.0
  0
LINE
  8
OHUT
 10
209.236802
 20
18.237701
 30
0.0
 11
392.236802
 21
18.237701
 31
0.0
  0
LINE
  8
PAKSU
 10
392.236802
 20
0.237701
 30
0.0
 11
392.236802
 21
35.237701
 31
0.0
  0
LINE
  8
PAKSU
 10
209.236802
 20
0.237701
 30
0.0
 11
209.236802
 21
35.237701
 31
0.0
  0
LINE
  8
PAKSU
 10
209.236802
 20
0.237701
 30
0.0
 11
392.236802
 21
0.237701
 31
0.0
  0
LINE
  8
RAAMI
 10
18.236802
 20
0.237701
 30
0.0
 11
0.236802
 21
0.237701
 31
0.0
  0
LINE
  8
PAKSU
 10
0.236802
 20
262.737701
 30
0.0
 11
392.236802
 21
262.737701
 31
0.0
  0
TEXT
  8
RAAMI
  6
DASHED
 10
292.216898
 20
11.813061
 30
0.0
 40
3.0
  1
A3
  7
GREEKS
  0
ENDBLK
  8
0
  0
BLOCK
  8
0
  2
*X9
 70
    65
 10
0.0
 20
0.0
 30
0.0
  3
*X
  0
LINE
  8
0
 62
     0
 10
2.284499
 20
6.52714
 30
0.0
 11
4.8
 21
9.042641
 31
0.0
  0
LINE
  8
0
 62
     0
 10
2.379686
 20
6.799104
 30
0.0
 11
4.8
 21
9.219417
 31
0.0
  0
LINE
  8
0
 62
     0
 10
2.474874
 20
7.071068
 30
0.0
 11
4.8
 21
9.396194
 31
0.0
  0
LINE
  8
0
 62
     0
 10
2.570061
 20
7.343032
 30
0.0
 11
4.8
 21
9.572971
 31
0.0
  0
LINE
  8
0
 62
     0
 10
2.665249
 20
7.614996
 30
0.0
 11
4.8
 21
9.749747
 31
0.0
  0
LINE
  8
0
 62
     0
 10
2.760436
 20
7.88696
 30
0.0
 11
4.8
 21
9.926524
 31
0.0
  0
LINE
  8
0
 62
     0
 10
2.855624
 20
8.158924
 30
0.0
 11
4.696699
 21
10.0
 31
0.0
  0
LINE
  8
0
 62
     0
 10
2.950811
 20
8.430889
 30
0.0
 11
4.519922
 21
10.0
 31
0.0
  0
LINE
  8
0
 62
     0
 10
3.045998
 20
8.702853
 30
0.0
 11
4.343146
 21
10.0
 31
0.0
  0
LINE
  8
0
 62
     0
 10
3.141186
 20
8.974817
 30
0.0
 11
4.166369
 21
10.0
 31
0.0
  0
LINE
  8
0
 62
     0
 10
3.236373
 20
9.246781
 30
0.0
 11
3.989592
 21
10.0
 31
0.0
  0
LINE
  8
0
 62
     0
 10
3.331561
 20
9.518745
 30
0.0
 11
3.812816
 21
10.0
 31
0.0
  0
LINE
  8
0
 62
     0
 10
3.426748
 20
9.790709
 30
0.0
 11
3.636039
 21
10.0
 31
0.0
  0
LINE
  8
0
 62
     0
 10
2.189311
 20
6.255175
 30
0.0
 11
4.8
 21
8.865864
 31
0.0
  0
LINE
  8
0
 62
     0
 10
2.094124
 20
5.983211
 30
0.0
 11
4.8
 21
8.689087
 31
0.0
  0
LINE
  8
0
 62
     0
 10
1.998936
 20
5.711247
 30
0.0
 11
4.8
 21
8.512311
 31
0.0
  0
LINE
  8
0
 62
     0
 10
1.903749
 20
5.439283
 30
0.0
 11
4.8
 21
8.335534
 31
0.0
  0
LINE
  8
0
 62
     0
 10
1.841243
 20
5.2
 30
0.0
 11
4.8
 21
8.158757
 31
0.0
  0
LINE
  8
0
 62
     0
 10
2.018019
 20
5.2
 30
0.0
 11
4.8
 21
7.981981
 31
0.0
  0
LINE
  8
0
 62
     0
 10
2.194796
 20
5.2
 30
0.0
 11
4.8
 21
7.805204
 31
0.0
  0
LINE
  8
0
 62
     0
 10
2.371573
 20
5.2
 30
0.0
 11
4.8
 21
7.628427
 31
0.0
  0
LINE
  8
0
 62
     0
 10
2.54835
 20
5.2
 30
0.0
 11
4.8
 21
7.45165
 31
0.0
  0
LINE
  8
0
 62
     0
 10
2.725126
 20
5.2
 30
0.0
 11
4.8
 21
7.274874
 31
0.0
  0
LINE
  8
0
 62
     0
 10
2.901903
 20
5.2
 30
0.0
 11
4.8
 21
7.098097
 31
0.0
  0
LINE
  8
0
 62
     0
 10
3.07868
 20
5.2
 30
0.0
 11
4.8
 21
6.92132
 31
0.0
  0
LINE
  8
0
 62
     0
 10
3.255456
 20
5.2
 30
0.0
 11
4.8
 21
6.744544
 31
0.0
  0
LINE
  8
0
 62
     0
 10
3.432233
 20
5.2
 30
0.0
 11
4.8
 21
6.567767
 31
0.0
  0
LINE
  8
0
 62
     0
 10
3.60901
 20
5.2
 30
0.0
 11
4.8
 21
6.39099
 31
0.0
  0
LINE
  8
0
 62
     0
 10
3.785786
 20
5.2
 30
0.0
 11
4.8
 21
6.214214
 31
0.0
  0
LINE
  8
0
 62
     0
 10
3.962563
 20
5.2
 30
0.0
 11
4.8
 21
6.037437
 31
0.0
  0
LINE
  8
0
 62
     0
 10
4.13934
 20
5.2
 30
0.0
 11
4.8
 21
5.86066
 31
0.0
  0
LINE
  8
0
 62
     0
 10
4.316117
 20
5.2
 30
0.0
 11
4.8
 21
5.683883
 31
0.0
  0
LINE
  8
0
 62
     0
 10
4.492893
 20
5.2
 30
0.0
 11
4.8
 21
5.507107
 31
0.0
  0
LINE
  8
0
 62
     0
 10
4.66967
 20
5.2
 30
0.0
 11
4.8
 21
5.33033
 31
0.0
  0
ENDBLK
  8
0
  0
BLOCK
  8
0
  2
*X10
 70
    65
 10
0.0
 20
0.0
 30
0.0
  3
*X
  0
LINE
  8
0
 62
     0
 10
5.2
 20
6.083883
 30
0.0
 11
7.178252
 21
8.062136
 31
0.0
  0
LINE
  8
0
 62
     0
 10
5.2
 20
6.26066
 30
0.0
 11
7.132421
 21
8.193082
 31
0.0
  0
LINE
  8
0
 62
     0
 10
5.2
 20
6.437437
 30
0.0
 11
7.08659
 21
8.324027
 31
0.0
  0
LINE
  8
0
 62
     0
 10
5.2
 20
6.614214
 30
0.0
 11
7.040759
 21
8.454973
 31
0.0
  0
LINE
  8
0
 62
     0
 10
5.2
 20
6.79099
 30
0.0
 11
6.994928
 21
8.585919
 31
0.0
  0
LINE
  8
0
 62
     0
 10
5.2
 20
6.967767
 30
0.0
 11
6.949097
 21
8.716864
 31
0.0
  0
LINE
  8
0
 62
     0
 10
5.2
 20
7.144544
 30
0.0
 11
6.903266
 21
8.84781
 31
0.0
  0
LINE
  8
0
 62
     0
 10
5.2
 20
7.32132
 30
0.0
 11
6.857435
 21
8.978756
 31
0.0
  0
LINE
  8
0
 62
     0
 10
5.2
 20
7.498097
 30
0.0
 11
6.811604
 21
9.109702
 31
0.0
  0
LINE
  8
0
 62
     0
 10
5.2
 20
7.674874
 30
0.0
 11
6.765773
 21
9.240647
 31
0.0
  0
LINE
  8
0
 62
     0
 10
5.2
 20
7.85165
 30
0.0
 11
6.719942
 21
9.371593
 31
0.0
  0
LINE
  8
0
 62
     0
 10
5.2
 20
8.028427
 30
0.0
 11
6.674111
 21
9.502539
 31
0.0
  0
LINE
  8
0
 62
     0
 10
5.2
 20
8.205204
 30
0.0
 11
6.62828
 21
9.633484
 31
0.0
  0
LINE
  8
0
 62
     0
 10
5.2
 20
8.381981
 30
0.0
 11
6.582449
 21
9.76443
 31
0.0
  0
LINE
  8
0
 62
     0
 10
5.2
 20
8.558757
 30
0.0
 11
6.536619
 21
9.895376
 31
0.0
  0
LINE
  8
0
 62
     0
 10
5.2
 20
8.735534
 30
0.0
 11
6.464466
 21
10.0
 31
0.0
  0
LINE
  8
0
 62
     0
 10
5.2
 20
8.912311
 30
0.0
 11
6.287689
 21
10.0
 31
0.0
  0
LINE
  8
0
 62
     0
 10
5.2
 20
9.089087
 30
0.0
 11
6.110913
 21
10.0
 31
0.0
  0
LINE
  8
0
 62
     0
 10
5.2
 20
9.265864
 30
0.0
 11
5.934136
 21
10.0
 31
0.0
  0
LINE
  8
0
 62
     0
 10
5.2
 20
9.442641
 30
0.0
 11
5.757359
 21
10.0
 31
0.0
  0
LINE
  8
0
 62
     0
 10
5.2
 20
9.619417
 30
0.0
 11
5.580583
 21
10.0
 31
0.0
  0
LINE
  8
0
 62
     0
 10
5.2
 20
9.796194
 30
0.0
 11
5.403806
 21
10.0
 31
0.0
  0
LINE
  8
0
 62
     0
 10
5.2
 20
9.972971
 30
0.0
 11
5.227029
 21
10.0
 31
0.0
  0
LINE
  8
0
 62
     0
 10
5.2
 20
5.907107
 30
0.0
 11
7.224083
 21
7.93119
 31
0.0
  0
LINE
  8
0
 62
     0
 10
5.2
 20
5.73033
 30
0.0
 11
7.269914
 21
7.800245
 31
0.0
  0
LINE
  8
0
 62
     0
 10
5.2
 20
5.553553
 30
0.0
 11
7.315745
 21
7.669299
 31
0.0
  0
LINE
  8
0
 62
     0
 10
5.2
 20
5.376777
 30
0.0
 11
7.361576
 21
7.538353
 31
0.0
  0
LINE
  8
0
 62
     0
 10
5.2
 20
5.2
 30
0.0
 11
7.407407
 21
7.407407
 31
0.0
  0
LINE
  8
0
 62
     0
 10
5.376777
 20
5.2
 30
0.0
 11
7.453238
 21
7.276462
 31
0.0
  0
LINE
  8
0
 62
     0
 10
5.553553
 20
5.2
 30
0.0
 11
7.499069
 21
7.145516
 31
0.0
  0
LINE
  8
0
 62
     0
 10
5.73033
 20
5.2
 30
0.0
 11
7.5449
 21
7.01457
 31
0.0
  0
LINE
  8
0
 62
     0
 10
5.907107
 20
5.2
 30
0.0
 11
7.590731
 21
6.883625
 31
0.0
  0
LINE
  8
0
 62
     0
 10
6.083883
 20
5.2
 30
0.0
 11
7.636562
 21
6.752679
 31
0.0
  0
LINE
  8
0
 62
     0
 10
6.26066
 20
5.2
 30
0.0
 11
7.682393
 21
6.621733
 31
0.0
  0
LINE
  8
0
 62
     0
 10
6.437437
 20
5.2
 30
0.0
 11
7.728224
 21
6.490788
 31
0.0
  0
LINE
  8
0
 62
     0
 10
6.614214
 20
5.2
 30
0.0
 11
7.774055
 21
6.359842
 31
0.0
  0
LINE
  8
0
 62
     0
 10
6.79099
 20
5.2
 30
0.0
 11
7.819886
 21
6.228896
 31
0.0
  0
LINE
  8
0
 62
     0
 10
6.967767
 20
5.2
 30
0.0
 11
7.865717
 21
6.09795
 31
0.0
  0
LINE
  8
0
 62
     0
 10
7.144544
 20
5.2
 30
0.0
 11
7.911548
 21
5.967005
 31
0.0
  0
LINE
  8
0
 62
     0
 10
7.32132
 20
5.2
 30
0.0
 11
7.957379
 21
5.836059
 31
0.0
  0
LINE
  8
0
 62
     0
 10
7.498097
 20
5.2
 30
0.0
 11
8.00321
 21
5.705113
 31
0.0
  0
LINE
  8
0
 62
     0
 10
7.674874
 20
5.2
 30
0.0
 11
8.049041
 21
5.574168
 31
0.0
  0
LINE
  8
0
 62
     0
 10
7.85165
 20
5.2
 30
0.0
 11
8.094872
 21
5.443222
 31
0.0
  0
LINE
  8
0
 62
     0
 10
8.028427
 20
5.2
 30
0.0
 11
8.140703
 21
5.312276
 31
0.0
  0
ENDBLK
  8
0
  0
BLOCK
  8
0
  2
*X11
 70
    65
 10
0.0
 20
0.0
 30
0.0
  3
*X
  0
LINE
  8
0
 62
     0
 10
0.0
 20
0.0
 30
0.0
 11
4.8
 21
4.8
 31
0.0
  0
LINE
  8
0
 62
     0
 10
0.095187
 20
0.271964
 30
0.0
 11
4.623223
 21
4.8
 31
0.0
  0
LINE
  8
0
 62
     0
 10
0.190375
 20
0.543928
 30
0.0
 11
4.446447
 21
4.8
 31
0.0
  0
LINE
  8
0
 62
     0
 10
0.285562
 20
0.815892
 30
0.0
 11
4.26967
 21
4.8
 31
0.0
  0
LINE
  8
0
 62
     0
 10
0.38075
 20
1.087857
 30
0.0
 11
4.092893
 21
4.8
 31
0.0
  0
LINE
  8
0
 62
     0
 10
0.475937
 20
1.359821
 30
0.0
 11
3.916117
 21
4.8
 31
0.0
  0
LINE
  8
0
 62
     0
 10
0.571125
 20
1.631785
 30
0.0
 11
3.73934
 21
4.8
 31
0.0
  0
LINE
  8
0
 62
     0
 10
0.666312
 20
1.903749
 30
0.0
 11
3.562563
 21
4.8
 31
0.0
  0
LINE
  8
0
 62
     0
 10
0.7615
 20
2.175713
 30
0.0
 11
3.385786
 21
4.8
 31
0.0
  0
LINE
  8
0
 62
     0
 10
0.856687
 20
2.447677
 30
0.0
 11
3.20901
 21
4.8
 31
0.0
  0
LINE
  8
0
 62
     0
 10
0.951875
 20
2.719641
 30
0.0
 11
3.032233
 21
4.8
 31
0.0
  0
LINE
  8
0
 62
     0
 10
1.047062
 20
2.991606
 30
0.0
 11
2.855456
 21
4.8
 31
0.0
  0
LINE
  8
0
 62
     0
 10
1.142249
 20
3.26357
 30
0.0
 11
2.67868
 21
4.8
 31
0.0
  0
LINE
  8
0
 62
     0
 10
1.237437
 20
3.535534
 30
0.0
 11
2.501903
 21
4.8
 31
0.0
  0
LINE
  8
0
 62
     0
 10
1.332624
 20
3.807498
 30
0.0
 11
2.325126
 21
4.8
 31
0.0
  0
LINE
  8
0
 62
     0
 10
1.427812
 20
4.079462
 30
0.0
 11
2.14835
 21
4.8
 31
0.0
  0
LINE
  8
0
 62
     0
 10
1.522999
 20
4.351426
 30
0.0
 11
1.971573
 21
4.8
 31
0.0
  0
LINE
  8
0
 62
     0
 10
1.618187
 20
4.62339
 30
0.0
 11
1.794796
 21
4.8
 31
0.0
  0
LINE
  8
0
 62
     0
 10
0.176777
 20
0.0
 30
0.0
 11
4.8
 21
4.623223
 31
0.0
  0
LINE
  8
0
 62
     0
 10
0.353553
 20
0.0
 30
0.0
 11
4.8
 21
4.446447
 31
0.0
  0
LINE
  8
0
 62
     0
 10
0.53033
 20
0.0
 30
0.0
 11
4.8
 21
4.26967
 31
0.0
  0
LINE
  8
0
 62
     0
 10
0.707107
 20
0.0
 30
0.0
 11
4.8
 21
4.092893
 31
0.0
  0
LINE
  8
0
 62
     0
 10
0.883883
 20
0.0
 30
0.0
 11
4.8
 21
3.916117
 31
0.0
  0
LINE
  8
0
 62
     0
 10
1.06066
 20
0.0
 30
0.0
 11
4.8
 21
3.73934
 31
0.0
  0
LINE
  8
0
 62
     0
 10
1.237437
 20
0.0
 30
0.0
 11
3.179842
 21
1.942405
 31
0.0
  0
LINE
  8
0
 62
     0
 10
3.237437
 20
2.0
 30
0.0
 11
4.8
 21
3.562563
 31
0.0
  0
LINE
  8
0
 62
     0
 10
1.414214
 20
0.0
 30
0.0
 11
3.084654
 21
1.670441
 31
0.0
  0
LINE
  8
0
 62
     0
 10
3.414214
 20
2.0
 30
0.0
 11
4.8
 21
3.385786
 31
0.0
  0
LINE
  8
0
 62
     0
 10
1.59099
 20
0.0
 30
0.0
 11
2.989467
 21
1.398477
 31
0.0
  0
LINE
  8
0
 62
     0
 10
3.59099
 20
2.0
 30
0.0
 11
4.8
 21
3.20901
 31
0.0
  0
LINE
  8
0
 62
     0
 10
1.767767
 20
0.0
 30
0.0
 11
2.894279
 21
1.126512
 31
0.0
  0
LINE
  8
0
 62
     0
 10
3.767767
 20
2.0
 30
0.0
 11
4.8
 21
3.032233
 31
0.0
  0
LINE
  8
0
 62
     0
 10
1.944544
 20
0.0
 30
0.0
 11
2.799092
 21
0.854548
 31
0.0
  0
LINE
  8
0
 62
     0
 10
3.944544
 20
2.0
 30
0.0
 11
4.8
 21
2.855456
 31
0.0
  0
LINE
  8
0
 62
     0
 10
2.12132
 20
0.0
 30
0.0
 11
2.703904
 21
0.582584
 31
0.0
  0
LINE
  8
0
 62
     0
 10
4.12132
 20
2.0
 30
0.0
 11
4.8
 21
2.67868
 31
0.0
  0
LINE
  8
0
 62
     0
 10
2.298097
 20
0.0
 30
0.0
 11
2.608717
 21
0.31062
 31
0.0
  0
LINE
  8
0
 62
     0
 10
4.298097
 20
2.0
 30
0.0
 11
4.8
 21
2.501903
 31
0.0
  0
LINE
  8
0
 62
     0
 10
2.474874
 20
0.0
 30
0.0
 11
2.51353
 21
0.038656
 31
0.0
  0
LINE
  8
0
 62
     0
 10
4.474874
 20
2.0
 30
0.0
 11
4.8
 21
2.325126
 31
0.0
  0
LINE
  8
0
 62
     0
 10
4.65165
 20
2.0
 30
0.0
 11
4.8
 21
2.14835
 31
0.0
  0
ENDBLK
  8
0
  0
BLOCK
  8
0
  2
*X12
 70
    65
 10
0.0
 20
0.0
 30
0.0
  3
*X
  0
LINE
  8
0
 62
     0
 10
6.884654
 20
1.75813
 30
0.0
 11
8.736506
 21
3.609982
 31
0.0
  0
LINE
  8
0
 62
     0
 10
6.838823
 20
1.889076
 30
0.0
 11
8.690675
 21
3.740928
 31
0.0
  0
LINE
  8
0
 62
     0
 10
6.772971
 20
2.0
 30
0.0
 11
8.644844
 21
3.871874
 31
0.0
  0
LINE
  8
0
 62
     0
 10
6.596194
 20
2.0
 30
0.0
 11
8.599013
 21
4.002819
 31
0.0
  0
LINE
  8
0
 62
     0
 10
6.419417
 20
2.0
 30
0.0
 11
8.553182
 21
4.133765
 31
0.0
  0
LINE
  8
0
 62
     0
 10
6.242641
 20
2.0
 30
0.0
 11
8.507351
 21
4.264711
 31
0.0
  0
LINE
  8
0
 62
     0
 10
6.065864
 20
2.0
 30
0.0
 11
8.46152
 21
4.395656
 31
0.0
  0
LINE
  8
0
 62
     0
 10
5.889087
 20
2.0
 30
0.0
 11
8.415689
 21
4.526602
 31
0.0
  0
LINE
  8
0
 62
     0
 10
5.712311
 20
2.0
 30
0.0
 11
8.369858
 21
4.657548
 31
0.0
  0
LINE
  8
0
 62
     0
 10
5.535534
 20
2.0
 30
0.0
 11
8.324027
 21
4.788493
 31
0.0
  0
LINE
  8
0
 62
     0
 10
5.358757
 20
2.0
 30
0.0
 11
8.158757
 21
4.8
 31
0.0
  0
LINE
  8
0
 62
     0
 10
5.2
 20
2.018019
 30
0.0
 11
7.981981
 21
4.8
 31
0.0
  0
LINE
  8
0
 62
     0
 10
5.2
 20
2.194796
 30
0.0
 11
7.805204
 21
4.8
 31
0.0
  0
LINE
  8
0
 62
     0
 10
5.2
 20
2.371573
 30
0.0
 11
7.628427
 21
4.8
 31
0.0
  0
LINE
  8
0
 62
     0
 10
5.2
 20
2.54835
 30
0.0
 11
7.45165
 21
4.8
 31
0.0
  0
LINE
  8
0
 62
     0
 10
5.2
 20
2.725126
 30
0.0
 11
7.274874
 21
4.8
 31
0.0
  0
LINE
  8
0
 62
     0
 10
5.2
 20
2.901903
 30
0.0
 11
7.098097
 21
4.8
 31
0.0
  0
LINE
  8
0
 62
     0
 10
5.2
 20
3.07868
 30
0.0
 11
6.92132
 21
4.8
 31
0.0
  0
LINE
  8
0
 62
     0
 10
5.2
 20
3.255456
 30
0.0
 11
6.744544
 21
4.8
 31
0.0
  0
LINE
  8
0
 62
     0
 10
5.2
 20
3.432233
 30
0.0
 11
6.567767
 21
4.8
 31
0.0
  0
LINE
  8
0
 62
     0
 10
5.2
 20
3.60901
 30
0.0
 11
6.39099
 21
4.8
 31
0.0
  0
LINE
  8
0
 62
     0
 10
5.2
 20
3.785786
 30
0.0
 11
6.214214
 21
4.8
 31
0.0
  0
LINE
  8
0
 62
     0
 10
5.2
 20
3.962563
 30
0.0
 11
6.037437
 21
4.8
 31
0.0
  0
LINE
  8
0
 62
     0
 10
5.2
 20
4.13934
 30
0.0
 11
5.86066
 21
4.8
 31
0.0
  0
LINE
  8
0
 62
     0
 10
5.2
 20
4.316117
 30
0.0
 11
5.683883
 21
4.8
 31
0.0
  0
LINE
  8
0
 62
     0
 10
5.2
 20
4.492893
 30
0.0
 11
5.507107
 21
4.8
 31
0.0
  0
LINE
  8
0
 62
     0
 10
5.2
 20
4.66967
 30
0.0
 11
5.33033
 21
4.8
 31
0.0
  0
LINE
  8
0
 62
     0
 10
6.930485
 20
1.627185
 30
0.0
 11
8.782337
 21
3.479036
 31
0.0
  0
LINE
  8
0
 62
     0
 10
6.976316
 20
1.496239
 30
0.0
 11
8.828168
 21
3.348091
 31
0.0
  0
LINE
  8
0
 62
     0
 10
7.022147
 20
1.365293
 30
0.0
 11
8.873999
 21
3.217145
 31
0.0
  0
LINE
  8
0
 62
     0
 10
7.067978
 20
1.234347
 30
0.0
 11
8.91983
 21
3.086199
 31
0.0
  0
LINE
  8
0
 62
     0
 10
7.113809
 20
1.103402
 30
0.0
 11
8.965661
 21
2.955254
 31
0.0
  0
LINE
  8
0
 62
     0
 10
7.15964
 20
0.972456
 30
0.0
 11
9.011492
 21
2.824308
 31
0.0
  0
LINE
  8
0
 62
     0
 10
7.205471
 20
0.84151
 30
0.0
 11
9.057323
 21
2.693362
 31
0.0
  0
LINE
  8
0
 62
     0
 10
7.251302
 20
0.710565
 30
0.0
 11
9.103154
 21
2.562416
 31
0.0
  0
LINE
  8
0
 62
     0
 10
7.297133
 20
0.579619
 30
0.0
 11
9.148985
 21
2.431471
 31
0.0
  0
LINE
  8
0
 62
     0
 10
7.342964
 20
0.448673
 30
0.0
 11
9.194816
 21
2.300525
 31
0.0
  0
LINE
  8
0
 62
     0
 10
7.388795
 20
0.317728
 30
0.0
 11
9.240647
 21
2.169579
 31
0.0
  0
LINE
  8
0
 62
     0
 10
7.434626
 20
0.186782
 30
0.0
 11
9.286478
 21
2.038634
 31
0.0
  0
LINE
  8
0
 62
     0
 10
7.480457
 20
0.055836
 30
0.0
 11
9.332309
 21
1.907688
 31
0.0
  0
LINE
  8
0
 62
     0
 10
7.601398
 20
0.0
 30
0.0
 11
9.37814
 21
1.776742
 31
0.0
  0
LINE
  8
0
 62
     0
 10
7.778175
 20
0.0
 30
0.0
 11
9.423971
 21
1.645797
 31
0.0
  0
LINE
  8
0
 62
     0
 10
7.954951
 20
0.0
 30
0.0
 11
9.469802
 21
1.514851
 31
0.0
  0
LINE
  8
0
 62
     0
 10
8.131728
 20
0.0
 30
0.0
 11
9.515633
 21
1.383905
 31
0.0
  0
LINE
  8
0
 62
     0
 10
8.308505
 20
0.0
 30
0.0
 11
9.561464
 21
1.252959
 31
0.0
  0
LINE
  8
0
 62
     0
 10
8.485281
 20
0.0
 30
0.0
 11
9.607295
 21
1.122014
 31
0.0
  0
LINE
  8
0
 62
     0
 10
8.662058
 20
0.0
 30
0.0
 11
9.653126
 21
0.991068
 31
0.0
  0
LINE
  8
0
 62
     0
 10
8.838835
 20
0.0
 30
0.0
 11
9.698957
 21
0.860122
 31
0.0
  0
LINE
  8
0
 62
     0
 10
9.015611
 20
0.0
 30
0.0
 11
9.744788
 21
0.729177
 31
0.0
  0
LINE
  8
0
 62
     0
 10
9.192388
 20
0.0
 30
0.0
 11
9.790619
 21
0.598231
 31
0.0
  0
LINE
  8
0
 62
     0
 10
9.369165
 20
0.0
 30
0.0
 11
9.83645
 21
0.467285
 31
0.0
  0
LINE
  8
0
 62
     0
 10
9.545942
 20
0.0
 30
0.0
 11
9.882281
 21
0.33634
 31
0.0
  0
LINE
  8
0
 62
     0
 10
9.722718
 20
0.0
 30
0.0
 11
9.928112
 21
0.205394
 31
0.0
  0
LINE
  8
0
 62
     0
 10
9.899495
 20
0.0
 30
0.0
 11
9.973943
 21
0.074448
 31
0.0
  0
ENDBLK
  8
0
  0
BLOCK
  8
0
  2
*X13
 70
    65
 10
0.0
 20
0.0
 30
0.0
  3
*X
  0
LINE
  8
0
 62
     0
 10
10.7
 20
6.280583
 30
0.0
 11
13.5
 21
9.080583
 31
0.0
  0
LINE
  8
0
 62
     0
 10
10.7
 20
6.457359
 30
0.0
 11
13.5
 21
9.257359
 31
0.0
  0
LINE
  8
0
 62
     0
 10
10.7
 20
6.634136
 30
0.0
 11
13.5
 21
9.434136
 31
0.0
  0
LINE
  8
0
 62
     0
 10
10.7
 20
6.810913
 30
0.0
 11
13.5
 21
9.610913
 31
0.0
  0
LINE
  8
0
 62
     0
 10
10.7
 20
6.987689
 30
0.0
 11
13.5
 21
9.787689
 31
0.0
  0
LINE
  8
0
 62
     0
 10
10.7
 20
7.164466
 30
0.0
 11
13.5
 21
9.964466
 31
0.0
  0
LINE
  8
0
 62
     0
 10
10.7
 20
7.341243
 30
0.0
 11
13.358757
 21
10.0
 31
0.0
  0
LINE
  8
0
 62
     0
 10
10.7
 20
7.518019
 30
0.0
 11
13.181981
 21
10.0
 31
0.0
  0
LINE
  8
0
 62
     0
 10
10.7
 20
7.694796
 30
0.0
 11
13.005204
 21
10.0
 31
0.0
  0
LINE
  8
0
 62
     0
 10
10.7
 20
7.871573
 30
0.0
 11
12.828427
 21
10.0
 31
0.0
  0
LINE
  8
0
 62
     0
 10
10.7
 20
8.04835
 30
0.0
 11
12.65165
 21
10.0
 31
0.0
  0
LINE
  8
0
 62
     0
 10
10.7
 20
8.225126
 30
0.0
 11
12.474874
 21
10.0
 31
0.0
  0
LINE
  8
0
 62
     0
 10
10.7
 20
8.401903
 30
0.0
 11
12.298097
 21
10.0
 31
0.0
  0
LINE
  8
0
 62
     0
 10
10.7
 20
8.57868
 30
0.0
 11
12.12132
 21
10.0
 31
0.0
  0
LINE
  8
0
 62
     0
 10
10.7
 20
8.755456
 30
0.0
 11
11.944544
 21
10.0
 31
0.0
  0
LINE
  8
0
 62
     0
 10
10.7
 20
8.932233
 30
0.0
 11
11.767767
 21
10.0
 31
0.0
  0
LINE
  8
0
 62
     0
 10
10.7
 20
9.10901
 30
0.0
 11
11.59099
 21
10.0
 31
0.0
  0
LINE
  8
0
 62
     0
 10
10.7
 20
9.285786
 30
0.0
 11
11.414214
 21
10.0
 31
0.0
  0
LINE
  8
0
 62
     0
 10
10.7
 20
9.462563
 30
0.0
 11
11.237437
 21
10.0
 31
0.0
  0
LINE
  8
0
 62
     0
 10
10.7
 20
9.63934
 30
0.0
 11
11.06066
 21
10.0
 31
0.0
  0
LINE
  8
0
 62
     0
 10
10.7
 20
9.816117
 30
0.0
 11
10.883883
 21
10.0
 31
0.0
  0
LINE
  8
0
 62
     0
 10
10.7
 20
9.992893
 30
0.0
 11
10.707107
 21
10.0
 31
0.0
  0
LINE
  8
0
 62
     0
 10
10.7
 20
6.103806
 30
0.0
 11
13.5
 21
8.903806
 31
0.0
  0
LINE
  8
0
 62
     0
 10
10.7
 20
5.927029
 30
0.0
 11
13.5
 21
8.727029
 31
0.0
  0
LINE
  8
0
 62
     0
 10
10.7
 20
5.750253
 30
0.0
 11
13.5
 21
8.550253
 31
0.0
  0
LINE
  8
0
 62
     0
 10
10.7
 20
5.573476
 30
0.0
 11
13.5
 21
8.373476
 31
0.0
  0
LINE
  8
0
 62
     0
 10
10.7
 20
5.396699
 30
0.0
 11
13.5
 21
8.196699
 31
0.0
  0
LINE
  8
0
 62
     0
 10
10.7
 20
5.219922
 30
0.0
 11
13.5
 21
8.019922
 31
0.0
  0
LINE
  8
0
 62
     0
 10
10.856854
 20
5.2
 30
0.0
 11
13.5
 21
7.843146
 31
0.0
  0
LINE
  8
0
 62
     0
 10
11.033631
 20
5.2
 30
0.0
 11
13.5
 21
7.666369
 31
0.0
  0
LINE
  8
0
 62
     0
 10
11.210408
 20
5.2
 30
0.0
 11
13.5
 21
7.489592
 31
0.0
  0
LINE
  8
0
 62
     0
 10
11.387184
 20
5.2
 30
0.0
 11
13.5
 21
7.312816
 31
0.0
  0
LINE
  8
0
 62
     0
 10
11.563961
 20
5.2
 30
0.0
 11
13.5
 21
7.136039
 31
0.0
  0
LINE
  8
0
 62
     0
 10
11.740738
 20
5.2
 30
0.0
 11
13.5
 21
6.959262
 31
0.0
  0
LINE
  8
0
 62
     0
 10
11.917514
 20
5.2
 30
0.0
 11
13.5
 21
6.782486
 31
0.0
  0
LINE
  8
0
 62
     0
 10
12.094291
 20
5.2
 30
0.0
 11
13.5
 21
6.605709
 31
0.0
  0
LINE
  8
0
 62
     0
 10
12.271068
 20
5.2
 30
0.0
 11
13.5
 21
6.428932
 31
0.0
  0
LINE
  8
0
 62
     0
 10
12.447845
 20
5.2
 30
0.0
 11
13.5
 21
6.252155
 31
0.0
  0
LINE
  8
0
 62
     0
 10
12.624621
 20
5.2
 30
0.0
 11
13.5
 21
6.075379
 31
0.0
  0
LINE
  8
0
 62
     0
 10
12.801398
 20
5.2
 30
0.0
 11
13.5
 21
5.898602
 31
0.0
  0
LINE
  8
0
 62
     0
 10
12.978175
 20
5.2
 30
0.0
 11
13.5
 21
5.721825
 31
0.0
  0
LINE
  8
0
 62
     0
 10
13.154951
 20
5.2
 30
0.0
 11
13.5
 21
5.545049
 31
0.0
  0
LINE
  8
0
 62
     0
 10
13.331728
 20
5.2
 30
0.0
 11
13.5
 21
5.368272
 31
0.0
  0
ENDBLK
  8
0
  0
BLOCK
  8
0
  2
*X14
 70
    65
 10
0.0
 20
0.0
 30
0.0
  3
*X
  0
LINE
  8
0
 62
     0
 10
10.7
 20
1.154058
 30
0.0
 11
13.5
 21
3.954058
 31
0.0
  0
LINE
  8
0
 62
     0
 10
10.7
 20
1.330835
 30
0.0
 11
13.5
 21
4.130835
 31
0.0
  0
LINE
  8
0
 62
     0
 10
10.7
 20
1.507612
 30
0.0
 11
13.5
 21
4.307612
 31
0.0
  0
LINE
  8
0
 62
     0
 10
10.7
 20
1.684389
 30
0.0
 11
13.5
 21
4.484389
 31
0.0
  0
LINE
  8
0
 62
     0
 10
10.7
 20
1.861165
 30
0.0
 11
13.5
 21
4.661165
 31
0.0
  0
LINE
  8
0
 62
     0
 10
10.7
 20
2.037942
 30
0.0
 11
13.462058
 21
4.8
 31
0.0
  0
LINE
  8
0
 62
     0
 10
10.7
 20
2.214719
 30
0.0
 11
13.285281
 21
4.8
 31
0.0
  0
LINE
  8
0
 62
     0
 10
10.7
 20
2.391495
 30
0.0
 11
13.108505
 21
4.8
 31
0.0
  0
LINE
  8
0
 62
     0
 10
10.7
 20
2.568272
 30
0.0
 11
12.931728
 21
4.8
 31
0.0
  0
LINE
  8
0
 62
     0
 10
10.7
 20
2.745049
 30
0.0
 11
12.754951
 21
4.8
 31
0.0
  0
LINE
  8
0
 62
     0
 10
10.7
 20
2.921825
 30
0.0
 11
12.578175
 21
4.8
 31
0.0
  0
LINE
  8
0
 62
     0
 10
10.7
 20
3.098602
 30
0.0
 11
12.401398
 21
4.8
 31
0.0
  0
LINE
  8
0
 62
     0
 10
10.7
 20
3.275379
 30
0.0
 11
12.224621
 21
4.8
 31
0.0
  0
LINE
  8
0
 62
     0
 10
10.7
 20
3.452155
 30
0.0
 11
12.047845
 21
4.8
 31
0.0
  0
LINE
  8
0
 62
     0
 10
10.7
 20
3.628932
 30
0.0
 11
11.871068
 21
4.8
 31
0.0
  0
LINE
  8
0
 62
     0
 10
10.7
 20
3.805709
 30
0.0
 11
11.694291
 21
4.8
 31
0.0
  0
LINE
  8
0
 62
     0
 10
10.7
 20
3.982486
 30
0.0
 11
11.517514
 21
4.8
 31
0.0
  0
LINE
  8
0
 62
     0
 10
10.7
 20
4.159262
 30
0.0
 11
11.340738
 21
4.8
 31
0.0
  0
LINE
  8
0
 62
     0
 10
10.7
 20
4.336039
 30
0.0
 11
11.163961
 21
4.8
 31
0.0
  0
LINE
  8
0
 62
     0
 10
10.7
 20
4.512816
 30
0.0
 11
10.987184
 21
4.8
 31
0.0
  0
LINE
  8
0
 62
     0
 10
10.7
 20
4.689592
 30
0.0
 11
10.810408
 21
4.8
 31
0.0
  0
LINE
  8
0
 62
     0
 10
10.7
 20
0.977282
 30
0.0
 11
13.5
 21
3.777282
 31
0.0
  0
LINE
  8
0
 62
     0
 10
10.7
 20
0.800505
 30
0.0
 11
13.5
 21
3.600505
 31
0.0
  0
LINE
  8
0
 62
     0
 10
10.7
 20
0.623728
 30
0.0
 11
13.5
 21
3.423728
 31
0.0
  0
LINE
  8
0
 62
     0
 10
10.7
 20
0.446952
 30
0.0
 11
13.5
 21
3.246952
 31
0.0
  0
LINE
  8
0
 62
     0
 10
10.7
 20
0.270175
 30
0.0
 11
13.5
 21
3.070175
 31
0.0
  0
LINE
  8
0
 62
     0
 10
10.7
 20
0.093398
 30
0.0
 11
13.5
 21
2.893398
 31
0.0
  0
LINE
  8
0
 62
     0
 10
10.783378
 20
0.0
 30
0.0
 11
13.5
 21
2.716622
 31
0.0
  0
LINE
  8
0
 62
     0
 10
10.960155
 20
0.0
 30
0.0
 11
13.5
 21
2.539845
 31
0.0
  0
LINE
  8
0
 62
     0
 10
11.136932
 20
0.0
 30
0.0
 11
13.5
 21
2.363068
 31
0.0
  0
LINE
  8
0
 62
     0
 10
11.313708
 20
0.0
 30
0.0
 11
13.5
 21
2.186292
 31
0.0
  0
LINE
  8
0
 62
     0
 10
11.490485
 20
0.0
 30
0.0
 11
13.5
 21
2.009515
 31
0.0
  0
LINE
  8
0
 62
     0
 10
11.667262
 20
0.0
 30
0.0
 11
13.5
 21
1.832738
 31
0.0
  0
LINE
  8
0
 62
     0
 10
11.844039
 20
0.0
 30
0.0
 11
13.5
 21
1.655961
 31
0.0
  0
LINE
  8
0
 62
     0
 10
12.020815
 20
0.0
 30
0.0
 11
13.5
 21
1.479185
 31
0.0
  0
LINE
  8
0
 62
     0
 10
12.197592
 20
0.0
 30
0.0
 11
13.5
 21
1.302408
 31
0.0
  0
LINE
  8
0
 62
     0
 10
12.374369
 20
0.0
 30
0.0
 11
13.5
 21
1.125631
 31
0.0
  0
LINE
  8
0
 62
     0
 10
12.551145
 20
0.0
 30
0.0
 11
13.5
 21
0.948855
 31
0.0
  0
LINE
  8
0
 62
     0
 10
12.727922
 20
0.0
 30
0.0
 11
13.5
 21
0.772078
 31
0.0
  0
LINE
  8
0
 62
     0
 10
12.904699
 20
0.0
 30
0.0
 11
13.5
 21
0.595301
 31
0.0
  0
LINE
  8
0
 62
     0
 10
13.081475
 20
0.0
 30
0.0
 11
13.5
 21
0.418525
 31
0.0
  0
LINE
  8
0
 62
     0
 10
13.258252
 20
0.0
 30
0.0
 11
13.5
 21
0.241748
 31
0.0
  0
LINE
  8
0
 62
     0
 10
13.435029
 20
0.0
 30
0.0
 11
13.5
 21
0.064971
 31
0.0
  0
ENDBLK
  8
0
  0
BLOCK
  8
0
  2
*X15
 70
    65
 10
0.0
 20
0.0
 30
0.0
  3
*X
  0
LINE
  8
0
 62
     0
 10
13.9
 20
6.298602
 30
0.0
 11
16.582995
 21
8.981597
 31
0.0
  0
LINE
  8
0
 62
     0
 10
13.9
 20
6.475379
 30
0.0
 11
16.510503
 21
9.085882
 31
0.0
  0
LINE
  8
0
 62
     0
 10
13.9
 20
6.652155
 30
0.0
 11
16.432927
 21
9.185083
 31
0.0
  0
LINE
  8
0
 62
     0
 10
13.9
 20
6.828932
 30
0.0
 11
16.350372
 21
9.279304
 31
0.0
  0
LINE
  8
0
 62
     0
 10
13.9
 20
7.005709
 30
0.0
 11
16.262892
 21
9.368601
 31
0.0
  0
LINE
  8
0
 62
     0
 10
13.9
 20
7.182486
 30
0.0
 11
16.170495
 21
9.452981
 31
0.0
  0
LINE
  8
0
 62
     0
 10
13.9
 20
7.359262
 30
0.0
 11
16.073145
 21
9.532407
 31
0.0
  0
LINE
  8
0
 62
     0
 10
13.9
 20
7.536039
 30
0.0
 11
15.970755
 21
9.606794
 31
0.0
  0
LINE
  8
0
 62
     0
 10
13.9
 20
7.712816
 30
0.0
 11
15.863189
 21
9.676004
 31
0.0
  0
LINE
  8
0
 62
     0
 10
13.9
 20
7.889592
 30
0.0
 11
15.75025
 21
9.739843
 31
0.0
  0
LINE
  8
0
 62
     0
 10
13.9
 20
8.066369
 30
0.0
 11
15.631675
 21
9.798044
 31
0.0
  0
LINE
  8
0
 62
     0
 10
13.9
 20
8.243146
 30
0.0
 11
15.50711
 21
9.850256
 31
0.0
  0
LINE
  8
0
 62
     0
 10
13.9
 20
8.419922
 30
0.0
 11
15.376096
 21
9.896018
 31
0.0
  0
LINE
  8
0
 62
     0
 10
13.9
 20
8.596699
 30
0.0
 11
15.238027
 21
9.934726
 31
0.0
  0
LINE
  8
0
 62
     0
 10
13.9
 20
8.773476
 30
0.0
 11
15.092096
 21
9.965572
 31
0.0
  0
LINE
  8
0
 62
     0
 10
13.9
 20
8.950253
 30
0.0
 11
14.937209
 21
9.987461
 31
0.0
  0
LINE
  8
0
 62
     0
 10
13.9
 20
9.127029
 30
0.0
 11
14.771824
 21
9.998853
 31
0.0
  0
LINE
  8
0
 62
     0
 10
13.9
 20
9.303806
 30
0.0
 11
14.596193
 21
9.999999
 31
0.0
  0
LINE
  8
0
 62
     0
 10
13.9
 20
9.480583
 30
0.0
 11
14.419417
 21
9.999999
 31
0.0
  0
LINE
  8
0
 62
     0
 10
13.9
 20
9.657359
 30
0.0
 11
14.24264
 21
10.0
 31
0.0
  0
LINE
  8
0
 62
     0
 10
13.9
 20
9.834136
 30
0.0
 11
14.065864
 21
10.0
 31
0.0
  0
LINE
  8
0
 62
     0
 10
13.9
 20
6.121825
 30
0.0
 11
16.650245
 21
8.872071
 31
0.0
  0
LINE
  8
0
 62
     0
 10
13.9
 20
5.945049
 30
0.0
 11
16.712035
 21
8.757083
 31
0.0
  0
LINE
  8
0
 62
     0
 10
13.9
 20
5.768272
 30
0.0
 11
16.768067
 21
8.636339
 31
0.0
  0
LINE
  8
0
 62
     0
 10
13.9
 20
5.591495
 30
0.0
 11
16.817955
 21
8.509451
 31
0.0
  0
LINE
  8
0
 62
     0
 10
13.9
 20
5.414719
 30
0.0
 11
16.861189
 21
8.375908
 31
0.0
  0
LINE
  8
0
 62
     0
 10
13.9
 20
5.237942
 30
0.0
 11
16.897097
 21
8.235039
 31
0.0
  0
LINE
  8
0
 62
     0
 10
14.038835
 20
5.2
 30
0.0
 11
16.924779
 21
8.085944
 31
0.0
  0
LINE
  8
0
 62
     0
 10
14.215611
 20
5.2
 30
0.0
 11
16.942997
 21
7.927385
 31
0.0
  0
LINE
  8
0
 62
     0
 10
14.392388
 20
5.2
 30
0.0
 11
16.949987
 21
7.757599
 31
0.0
  0
LINE
  8
0
 62
     0
 10
14.569165
 20
5.2
 30
0.0
 11
16.943101
 21
7.573936
 31
0.0
  0
LINE
  8
0
 62
     0
 10
14.745942
 20
5.2
 30
0.0
 11
16.918037
 21
7.372095
 31
0.0
  0
LINE
  8
0
 62
     0
 10
14.922718
 20
5.2
 30
0.0
 11
16.866909
 21
7.144191
 31
0.0
  0
LINE
  8
0
 62
     0
 10
15.099495
 20
5.2
 30
0.0
 11
16.771715
 21
6.87222
 31
0.0
  0
LINE
  8
0
 62
     0
 10
15.276272
 20
5.2
 30
0.0
 11
15.847951
 21
5.77168
 31
0.0
  0
LINE
  8
0
 62
     0
 10
15.96673
 20
5.890458
 30
0.0
 11
16.559542
 21
6.48327
 31
0.0
  0
LINE
  8
0
 62
     0
 10
15.453048
 20
5.2
 30
0.0
 11
15.970661
 21
5.717613
 31
0.0
  0
LINE
  8
0
 62
     0
 10
15.629825
 20
5.2
 30
0.0
 11
16.088934
 21
5.659109
 31
0.0
  0
LINE
  8
0
 62
     0
 10
15.806602
 20
5.2
 30
0.0
 11
16.202964
 21
5.596363
 31
0.0
  0
LINE
  8
0
 62
     0
 10
15.983378
 20
5.2
 30
0.0
 11
16.312909
 21
5.529531
 31
0.0
  0
LINE
  8
0
 62
     0
 10
16.160155
 20
5.2
 30
0.0
 11
16.418895
 21
5.45874
 31
0.0
  0
LINE
  8
0
 62
     0
 10
16.336932
 20
5.2
 30
0.0
 11
16.521021
 21
5.384089
 31
0.0
  0
LINE
  8
0
 62
     0
 10
16.513708
 20
5.2
 30
0.0
 11
16.619363
 21
5.305655
 31
0.0
  0
LINE
  8
0
 62
     0
 10
16.690485
 20
5.2
 30
0.0
 11
16.713975
 21
5.22349
 31
0.0
  0
ENDBLK
  8
0
  0
BLOCK
  8
0
  2
*X16
 70
    65
 10
0.0
 20
0.0
 30
0.0
  3
*X
  0
LINE
  8
0
 62
     0
 10
13.9
 20
0.818525
 30
0.0
 11
17.39645
 21
4.314974
 31
0.0
  0
LINE
  8
0
 62
     0
 10
13.9
 20
0.995301
 30
0.0
 11
17.336354
 21
4.431655
 31
0.0
  0
LINE
  8
0
 62
     0
 10
13.9
 20
1.172078
 30
0.0
 11
17.272078
 21
4.544156
 31
0.0
  0
LINE
  8
0
 62
     0
 10
13.9
 20
1.348855
 30
0.0
 11
17.203766
 21
4.652621
 31
0.0
  0
LINE
  8
0
 62
     0
 10
13.9
 20
1.525631
 30
0.0
 11
17.131535
 21
4.757167
 31
0.0
  0
LINE
  8
0
 62
     0
 10
13.9
 20
1.702408
 30
0.0
 11
16.997592
 21
4.8
 31
0.0
  0
LINE
  8
0
 62
     0
 10
13.9
 20
1.879185
 30
0.0
 11
16.820815
 21
4.8
 31
0.0
  0
LINE
  8
0
 62
     0
 10
13.9
 20
2.055961
 30
0.0
 11
16.644039
 21
4.8
 31
0.0
  0
LINE
  8
0
 62
     0
 10
13.9
 20
2.232738
 30
0.0
 11
16.467262
 21
4.8
 31
0.0
  0
LINE
  8
0
 62
     0
 10
13.9
 20
2.409515
 30
0.0
 11
16.290485
 21
4.8
 31
0.0
  0
LINE
  8
0
 62
     0
 10
13.9
 20
2.586292
 30
0.0
 11
16.113708
 21
4.8
 31
0.0
  0
LINE
  8
0
 62
     0
 10
13.9
 20
2.763068
 30
0.0
 11
15.936932
 21
4.8
 31
0.0
  0
LINE
  8
0
 62
     0
 10
13.9
 20
2.939845
 30
0.0
 11
15.760155
 21
4.8
 31
0.0
  0
LINE
  8
0
 62
     0
 10
13.9
 20
3.116622
 30
0.0
 11
15.583378
 21
4.8
 31
0.0
  0
LINE
  8
0
 62
     0
 10
13.9
 20
3.293398
 30
0.0
 11
15.406602
 21
4.8
 31
0.0
  0
LINE
  8
0
 62
     0
 10
13.9
 20
3.470175
 30
0.0
 11
15.229825
 21
4.8
 31
0.0
  0
LINE
  8
0
 62
     0
 10
13.9
 20
3.646952
 30
0.0
 11
15.053048
 21
4.8
 31
0.0
  0
LINE
  8
0
 62
     0
 10
13.9
 20
3.823728
 30
0.0
 11
14.876272
 21
4.8
 31
0.0
  0
LINE
  8
0
 62
     0
 10
13.9
 20
4.000505
 30
0.0
 11
14.699495
 21
4.8
 31
0.0
  0
LINE
  8
0
 62
     0
 10
13.9
 20
4.177282
 30
0.0
 11
14.522718
 21
4.8
 31
0.0
  0
LINE
  8
0
 62
     0
 10
13.9
 20
4.354058
 30
0.0
 11
14.345942
 21
4.8
 31
0.0
  0
LINE
  8
0
 62
     0
 10
13.9
 20
4.530835
 30
0.0
 11
14.169165
 21
4.8
 31
0.0
  0
LINE
  8
0
 62
     0
 10
13.9
 20
4.707612
 30
0.0
 11
13.992388
 21
4.8
 31
0.0
  0
LINE
  8
0
 62
     0
 10
13.9
 20
0.641748
 30
0.0
 11
17.452185
 21
4.193933
 31
0.0
  0
LINE
  8
0
 62
     0
 10
13.9
 20
0.464971
 30
0.0
 11
17.503339
 21
4.068311
 31
0.0
  0
LINE
  8
0
 62
     0
 10
13.9
 20
0.288194
 30
0.0
 11
17.549642
 21
3.937837
 31
0.0
  0
LINE
  8
0
 62
     0
 10
13.9
 20
0.111418
 30
0.0
 11
17.590762
 21
3.80218
 31
0.0
  0
LINE
  8
0
 62
     0
 10
13.965359
 20
0.0
 30
0.0
 11
17.62629
 21
3.660931
 31
0.0
  0
LINE
  8
0
 62
     0
 10
14.142136
 20
0.000001
 30
0.0
 11
17.655713
 21
3.513577
 31
0.0
  0
LINE
  8
0
 62
     0
 10
14.318913
 20
0.000001
 30
0.0
 11
17.678385
 21
3.359473
 31
0.0
  0
LINE
  8
0
 62
     0
 10
14.49569
 20
0.000001
 30
0.0
 11
17.693473
 21
3.197784
 31
0.0
  0
LINE
  8
0
 62
     0
 10
14.672467
 20
0.000002
 30
0.0
 11
17.699875
 21
3.027409
 31
0.0
  0
LINE
  8
0
 62
     0
 10
14.853154
 20
0.003912
 30
0.0
 11
17.696088
 21
2.846846
 31
0.0
  0
LINE
  8
0
 62
     0
 10
15.046044
 20
0.020025
 30
0.0
 11
17.679975
 21
2.653956
 31
0.0
  0
LINE
  8
0
 62
     0
 10
15.254483
 20
0.051687
 30
0.0
 11
17.648313
 21
2.445517
 31
0.0
  0
LINE
  8
0
 62
     0
 10
15.483762
 20
0.10419
 30
0.0
 11
17.59581
 21
2.216238
 31
0.0
  0
LINE
  8
0
 62
     0
 10
15.743786
 20
0.187437
 30
0.0
 11
17.512563
 21
1.956214
 31
0.0
  0
LINE
  8
0
 62
     0
 10
16.058176
 20
0.32505
 30
0.0
 11
17.37495
 21
1.641824
 31
0.0
  0
LINE
  8
0
 62
     0
 10
16.54193
 20
0.632028
 30
0.0
 11
17.067972
 21
1.15807
 31
0.0
  0
ENDBLK
  8
0
  0
BLOCK
  8
0
  2
MAA
 70
    64
 10
0.0
 20
0.0
 30
0.0
  3
MAA
  0
LINE
  8
0
  6
CONTINUOUS
 10
-0.500718
 20
-2.587966
 30
0.0
 11
0.386169
 21
-2.587966
 31
0.0
  0
LINE
  8
0
  6
CONTINUOUS
 10
-0.831823
 20
-1.976333
 30
0.0
 11
0.752749
 21
-1.976333
 31
0.0
  0
LINE
  8
0
  6
CONTINUOUS
 10
-0.015887
 20
-1.35427
 30
0.0
 11
1.178454
 21
-1.35427
 31
0.0
  0
LINE
  8
0
  6
CONTINUOUS
 10
-1.210228
 20
-1.35427
 30
0.0
 11
-0.015887
 21
-1.35427
 31
0.0
  0
LINE
  8
0
  6
CONTINUOUS
 10
0.0
 20
0.0
 30
0.0
 11
0.0
 21
-1.35427
 31
0.0
  0
ENDBLK
  8
0
  0
BLOCK
  8
0
  2
B507
 70
     0
 10
0.0
 20
0.0
 30
0.0
  3
B507
  0
LINE
  8
0
  6
CONTINUOUS
 10
0.079622
 20
0.147754
 30
0.0
 11
0.079622
 21
-9.002074
 31
0.0
  0
INSERT
  8
0
  6
CONTINUOUS
  2
BLC29
 10
0.212369
 20
-6.641509
 30
0.0
 50
270.0
  0
ENDBLK
  8
0
  0
BLOCK
  8
0
  2
538HANSK
 70
     0
 10
0.0
 20
0.0
 30
0.0
  3
538HANSK
  0
INSERT
  8
0
  6
CONTINUOUS
  2
B231
 10
-246.410033
 20
-189.144031
 30
0.0
  0
INSERT
  8
0
  6
CONTINUOUS
  2
B231
 10
-246.242441
 20
-158.512948
 30
0.0
  0
INSERT
  8
0
  6
CONTINUOUS
  2
B231
 10
-246.074849
 20
-138.667335
 30
0.0
  0
POLYLINE
  8
0
  6
CONTINUOUS
 66
     1
 10
0.0
 20
0.0
 30
0.0
 70
     1
 40
0.5
 41
0.5
  0
VERTEX
  8
0
  6
CONTINUOUS
 10
33.901457
 20
-20.0
 30
0.0
 42
1.0
  0
VERTEX
  8
0
  6
CONTINUOUS
 10
34.901457
 20
-20.0
 30
0.0
 42
1.0
  0
SEQEND
  8
0
  6
CONTINUOUS
  0
LINE
  8
0
  6
CONTINUOUS
 10
0.0
 20
-142.5
 30
0.0
 11
5.0
 21
-142.5
 31
0.0
  0
CIRCLE
  8
BASE
  6
CONTINUOUS
 10
-8.241055
 20
-172.5
 30
0.0
 40
0.740939
  0
CIRCLE
  8
BASE
  6
CONTINUOUS
 10
-8.241055
 20
-152.5
 30
0.0
 40
0.740939
  0
CIRCLE
  8
BASE
  6
CONTINUOUS
 10
-8.241055
 20
-132.5
 30
0.0
 40
0.740939
  0
CIRCLE
  8
BASE
  6
CONTINUOUS
 10
-8.241055
 20
-105.0
 30
0.0
 40
0.740939
  0
TEXT
  8
BASE
  6
DASHED
 10
-257.5
 20
1.16032
 30
0.0
 40
2.0
  1
101:
  7
ROMANS
  0
LINE
  8
0
  6
DASHED
 10
-265.0
 20
-107.5
 30
0.0
 11
-270.0
 21
-107.5
 31
0.0
  0
INSERT
  8
0
  6
DASHED
  2
BLC42
 10
-273.3606
 20
-107.501096
 30
0.0
  0
INSERT
  8
0
  6
DASHED
  2
BLC43
 10
-273.478289
 20
-125.009688
 30
0.0
  0
INSERT
  8
0
  6
DASHED
  2
BLC43
 10
-273.478289
 20
-185.018768
 30
0.0
  0
INSERT
  8
0
  6
DASHED
  2
BLC43
 10
-273.478289
 20
-155.045156
 30
0.0
  0
INSERT
  8
0
  6
DASHED
  2
BLC43
 10
-273.478289
 20
-135.07453
 30
0.0
  0
TEXT
  8
BASE
  6
HIDDEN
 10
-20.708566
 20
-170.953204
 30
0.0
 40
2.0
  1
U3
  7
ROMANS
  0
TEXT
  8
BASE
  6
HIDDEN
 10
-20.708566
 20
-150.639412
 30
0.0
 40
2.0
  1
U2
  7
ROMANS
  0
TEXT
  8
BASE
  6
CONTINUOUS
 10
-24.326283
 20
-118.04577
 30
0.0
 40
2.0
  1
NU
  7
ROMANS
  0
TEXT
  8
BASE
  6
CONTINUOUS
 10
-24.326283
 20
-108.04577
 30
0.0
 40
2.0
  1
NU
  7
ROMANS
  0
LINE
  8
0
  6
DASHED
 10
38.798944
 20
-157.746983
 30
0.0
 11
38.798944
 21
-41.893727
 31
0.0
  0
LINE
  8
0
  6
CONTINUOUS
 10
0.0
 20
-182.5
 30
0.0
 11
5.0
 21
-182.5
 31
0.0
  0
LINE
  8
0
  6
CONTINUOUS
 10
0.0
 20
-172.5
 30
0.0
 11
5.0
 21
-172.5
 31
0.0
  0
LINE
  8
0
  6
CONTINUOUS
 10
0.0
 20
-162.5
 30
0.0
 11
5.0
 21
-162.5
 31
0.0
  0
LINE
  8
0
  6
CONTINUOUS
 10
0.0
 20
-152.5
 30
0.0
 11
5.0
 21
-152.5
 31
0.0
  0
LINE
  8
0
  6
CONTINUOUS
 10
0.0
 20
-132.5
 30
0.0
 11
5.0
 21
-132.5
 31
0.0
  0
LINE
  8
0
  6
CONTINUOUS
 10
0.0
 20
-115.0
 30
0.0
 11
5.0
 21
-115.0
 31
0.0
  0
LINE
  8
0
  6
CONTINUOUS
 10
0.0
 20
-105.0
 30
0.0
 11
5.0
 21
-105.0
 31
0.0
  0
LINE
  8
0
  6
CONTINUOUS
 10
0.0
 20
-90.0
 30
0.0
 11
5.0
 21
-90.0
 31
0.0
  0
LINE
  8
0
  6
CONTINUOUS
 10
0.0
 20
-80.0
 30
0.0
 11
5.0
 21
-80.0
 31
0.0
  0
LINE
  8
0
  6
CONTINUOUS
 10
0.0
 20
-70.0
 30
0.0
 11
5.0
 21
-70.0
 31
0.0
  0
LINE
  8
0
  6
CONTINUOUS
 10
0.0
 20
-60.0
 30
0.0
 11
5.0
 21
-60.0
 31
0.0
  0
LINE
  8
0
  6
CONTINUOUS
 10
0.0
 20
-50.0
 30
0.0
 11
5.0
 21
-50.0
 31
0.0
  0
LINE
  8
0
  6
CONTINUOUS
 10
0.0
 20
-40.0
 30
0.0
 11
5.0
 21
-40.0
 31
0.0
  0
LINE
  8
0
  6
CONTINUOUS
 10
0.0
 20
-30.0
 30
0.0
 11
5.0
 21
-30.0
 31
0.0
  0
LINE
  8
0
  6
CONTINUOUS
 10
0.0
 20
-20.0
 30
0.0
 11
5.0
 21
-20.0
 31
0.0
  0
TEXT
  8
BASE
  6
DASHED
 10
-7.474438
 20
-176.286737
 30
0.0
 40
2.0
  1
23A
  7
ROMANS
  0
TEXT
  8
BASE
  6
DASHED
 10
-20.660336
 20
-176.407961
 30
0.0
 40
2.0
  1
23B
  7
ROMANS
  0
LINE
  8
BASE
  6
CONTINUOUS
 10
-7.500117
 20
-172.5
 30
0.0
 11
0.0
 21
-172.5
 31
0.0
  0
LINE
  8
BASE
  6
CONTINUOUS
 10
-8.981965
 20
-172.506589
 30
0.0
 11
-15.662841
 21
-170.065196
 31
0.0
  0
LINE
  8
BASE
  6
CONTINUOUS
 10
-15.662841
 20
-170.065196
 30
0.0
 11
-16.107734
 21
-170.950894
 31
0.0
  0
LINE
  8
BASE
  6
CONTINUOUS
 10
-15.0
 20
-172.5
 30
0.0
 11
-15.0
 21
-169.734339
 31
0.0
  0
TEXT
  8
BASE
  6
DASHED
 10
-20.660336
 20
-156.102839
 30
0.0
 40
2.0
  1
22B
  7
ROMANS
  0
LINE
  8
BASE
  6
DASHED
 10
-26.5
 20
-152.5
 30
0.0
 11
-15.0
 21
-152.5
 31
0.0
  0
LINE
  8
BASE
  6
CONTINUOUS
 10
-15.662841
 20
-150.065196
 30
0.0
 11
-16.107734
 21
-150.950894
 31
0.0
  0
LINE
  8
BASE
  6
CONTINUOUS
 10
-15.0
 20
-152.5
 30
0.0
 11
-15.0
 21
-149.734339
 31
0.0
  0
LINE
  8
BASE
  6
CONTINUOUS
 10
-8.981965
 20
-152.506589
 30
0.0
 11
-15.662841
 21
-150.065196
 31
0.0
  0
TEXT
  8
BASE
  6
DASHED
 10
-7.474438
 20
-155.981615
 30
0.0
 40
2.0
  1
22A
  7
ROMANS
  0
LINE
  8
BASE
  6
CONTINUOUS
 10
-7.500117
 20
-152.5
 30
0.0
 11
0.0
 21
-152.5
 31
0.0
  0
LINE
  8
BASE
  6
DASHED
 10
-26.5
 20
-132.5
 30
0.0
 11
-15.0
 21
-132.5
 31
0.0
  0
TEXT
  8
BASE
  6
DASHED
 10
-20.660336
 20
-136.102839
 30
0.0
 40
2.0
  1
21B
  7
ROMANS
  0
TEXT
  8
BASE
  6
DASHED
 10
-7.474438
 20
-135.981615
 30
0.0
 40
2.0
  1
21A
  7
ROMANS
  0
LINE
  8
BASE
  6
CONTINUOUS
 10
-7.500117
 20
-132.5
 30
0.0
 11
0.0
 21
-132.5
 31
0.0
  0
LINE
  8
BASE
  6
CONTINUOUS
 10
-8.981965
 20
-132.506589
 30
0.0
 11
-15.662841
 21
-130.065196
 31
0.0
  0
LINE
  8
BASE
  6
CONTINUOUS
 10
-15.662841
 20
-130.065196
 30
0.0
 11
-16.107734
 21
-130.950894
 31
0.0
  0
LINE
  8
BASE
  6
CONTINUOUS
 10
-15.0
 20
-132.5
 30
0.0
 11
-15.0
 21
-129.734339
 31
0.0
  0
LINE
  8
BASE
  6
CONTINUOUS
 10
-7.500117
 20
-105.0
 30
0.0
 11
0.0
 21
-105.0
 31
0.0
  0
LINE
  8
BASE
  6
CONTINUOUS
 10
-15.662841
 20
-102.565196
 30
0.0
 11
-16.107734
 21
-103.450894
 31
0.0
  0
LINE
  8
BASE
  6
CONTINUOUS
 10
-15.0
 20
-105.0
 30
0.0
 11
-15.0
 21
-102.234339
 31
0.0
  0
LINE
  8
BASE
  6
CONTINUOUS
 10
-8.981965
 20
-105.006589
 30
0.0
 11
-15.662841
 21
-102.565196
 31
0.0
  0
TEXT
  8
BASE
  6
DASHED
 10
-18.302077
 20
-108.602839
 30
0.0
 40
2.0
  1
24B
  7
ROMANS
  0
TEXT
  8
BASE
  6
DASHED
 10
-7.115313
 20
-108.481615
 30
0.0
 40
2.0
  1
24A
  7
ROMANS
  0
CIRCLE
  8
0
  6
CONTINUOUS
 10
34.401457
 20
-30.530738
 30
0.0
 40
4.398585
  0
CIRCLE
  8
0
  6
CONTINUOUS
 10
30.0
 20
-37.522273
 30
0.0
 40
4.398585
  0
CIRCLE
  8
0
  6
CONTINUOUS
 10
38.821271
 20
-37.495199
 30
0.0
 40
4.398585
  0
LINE
  8
0
  6
CONTINUOUS
 10
32.198859
 20
-28.358465
 30
0.0
 11
34.53226
 21
-30.691867
 31
0.0
  0
LINE
  8
0
  6
CONTINUOUS
 10
34.53226
 20
-30.691867
 30
0.0
 11
36.865662
 21
-28.358465
 31
0.0
  0
LINE
  8
0
  6
CONTINUOUS
 10
34.53226
 20
-30.691867
 30
0.0
 11
34.53226
 21
-33.025268
 31
0.0
  0
LINE
  8
0
  6
CONTINUOUS
 10
30.11994
 20
-35.016096
 30
0.0
 11
27.786539
 21
-39.6829
 31
0.0
  0
LINE
  8
0
  6
CONTINUOUS
 10
27.786539
 20
-39.6829
 30
0.0
 11
32.453342
 21
-39.6829
 31
0.0
  0
LINE
  8
0
  6
CONTINUOUS
 10
32.453342
 20
-39.6829
 30
0.0
 11
30.11994
 21
-35.016096
 31
0.0
  0
LINE
  8
0
  6
CONTINUOUS
 10
38.780668
 20
-37.677235
 30
0.0
 11
38.780668
 21
-40.010636
 31
0.0
  0
LINE
  8
0
  6
CONTINUOUS
 10
36.807621
 20
-35.704188
 30
0.0
 11
38.780668
 21
-37.677235
 31
0.0
  0
LINE
  8
0
  6
CONTINUOUS
 10
38.780668
 20
-37.677235
 30
0.0
 11
41.11407
 21
-35.343833
 31
0.0
  0
LINE
  8
0
  6
DASHED
 10
34.401457
 20
-20.0
 30
0.0
 11
34.401457
 21
-26.132153
 31
0.0
  0
LINE
  8
0
  6
DASHED
 10
30.0
 20
-110.0
 30
0.0
 11
30.0
 21
-41.920858
 31
0.0
  0
LINE
  8
BASE
  6
CENTER
 10
0.0
 20
-35.0
 30
0.0
 11
0.0
 21
0.0
 31
0.0
  0
LINE
  8
BASE
  6
CENTER
 10
0.0
 20
-57.5
 30
0.0
 11
0.0
 21
-202.5
 31
0.0
  0
LINE
  8
BASE
  6
CENTER
 10
0.0
 20
-35.0
 30
0.0
 11
0.0
 21
-57.5
 31
0.0
  0
TEXT
  8
BASE
  6
CONTINUOUS
 10
-7.645559
 20
-92.74244
 30
0.0
 40
2.0
  1
20A
  7
ROMANS
  0
LINE
  8
BASE
  6
CONTINUOUS
 10
-8.050863
 20
-90.0
 30
0.0
 11
0.0
 21
-90.0
 31
0.0
  0
TEXT
  8
BASE
  6
CONTINUOUS
 10
-6.81957
 20
-82.948605
 30
0.0
 40
2.0
  1
19A
  7
ROMANS
  0
LINE
  8
BASE
  6
CONTINUOUS
 10
-8.050863
 20
-80.0
 30
0.0
 11
0.0
 21
-80.0
 31
0.0
  0
TEXT
  8
BASE
  6
DASHED
 10
-6.81957
 20
-72.954121
 30
0.0
 40
2.0
  1
18A
  7
ROMANS
 11
-6.81957
 21
-73.620787
 31
0.0
 73
     1
  0
LINE
  8
BASE
  6
CONTINUOUS
 10
-8.050863
 20
-70.0
 30
0.0
 11
0.0
 21
-70.0
 31
0.0
  0
TEXT
  8
BASE
  6
DASHED
 10
-6.81957
 20
-62.666667
 30
0.0
 40
2.0
  1
17A
  7
ROMANS
 11
-6.81957
 21
-63.333333
 31
0.0
 73
     1
  0
LINE
  8
BASE
  6
CONTINUOUS
 10
-8.050863
 20
-60.0
 30
0.0
 11
0.0
 21
-60.0
 31
0.0
  0
LINE
  8
BASE
  6
CONTINUOUS
 10
-8.050863
 20
-50.0
 30
0.0
 11
0.0
 21
-50.0
 31
0.0
  0
TEXT
  8
BASE
  6
DASHED
 10
-6.81957
 20
-52.713025
 30
0.0
 40
2.0
  1
16A
  7
ROMANS
 11
-6.81957
 21
-53.379691
 31
0.0
 73
     1
  0
TEXT
  8
BASE
  6
DASHED
 10
-6.81957
 20
-42.962785
 30
0.0
 40
2.0
  1
15A
  7
ROMANS
 11
-6.81957
 21
-43.629452
 31
0.0
 73
     1
  0
LINE
  8
BASE
  6
CONTINUOUS
 10
-8.050863
 20
-40.0
 30
0.0
 11
0.0
 21
-40.0
 31
0.0
  0
TEXT
  8
BASE
  6
DASHED
 10
-6.81957
 20
-32.666667
 30
0.0
 40
2.0
  1
14A
  7
ROMANS
 11
-6.81957
 21
-33.333333
 31
0.0
 73
     1
  0
LINE
  8
BASE
  6
CONTINUOUS
 10
-8.050863
 20
-30.0
 30
0.0
 11
0.0
 21
-30.0
 31
0.0
  0
LINE
  8
BASE
  6
CONTINUOUS
 10
-8.050863
 20
-20.0
 30
0.0
 11
0.0
 21
-20.0
 31
0.0
  0
TEXT
  8
BASE
  6
DASHED
 10
-6.81957
 20
-22.734467
 30
0.0
 40
2.0
  1
13A
  7
ROMANS
 11
-6.81957
 21
-23.401134
 31
0.0
 73
     1
  0
LINE
  8
BASE
  6
CONTINUOUS
 10
-32.5
 20
-25.0
 30
0.0
 11
-28.233529
 21
-25.0
 31
0.0
  0
LINE
  8
BASE
  6
CONTINUOUS
 10
-32.5
 20
-30.0
 30
0.0
 11
-28.233529
 21
-30.0
 31
0.0
  0
LINE
  8
BASE
  6
CONTINUOUS
 10
-32.5
 20
-35.0
 30
0.0
 11
-17.5
 21
-35.0
 31
0.0
  0
LINE
  8
BASE
  6
CONTINUOUS
 10
-32.5
 20
-45.0
 30
0.0
 11
-28.233529
 21
-45.0
 31
0.0
  0
LINE
  8
BASE
  6
CONTINUOUS
 10
-32.5
 20
-50.0
 30
0.0
 11
-28.233529
 21
-50.0
 31
0.0
  0
LINE
  8
BASE
  6
CONTINUOUS
 10
-17.5
 20
-55.0
 30
0.0
 11
-32.5
 21
-55.0
 31
0.0
  0
LINE
  8
BASE
  6
CONTINUOUS
 10
-32.5
 20
-65.0
 30
0.0
 11
-28.233529
 21
-65.0
 31
0.0
  0
LINE
  8
BASE
  6
CONTINUOUS
 10
-32.5
 20
-70.0
 30
0.0
 11
-28.233529
 21
-70.0
 31
0.0
  0
LINE
  8
BASE
  6
CONTINUOUS
 10
-17.5
 20
-75.0
 30
0.0
 11
-32.5
 21
-75.0
 31
0.0
  0
LINE
  8
BASE
  6
CONTINUOUS
 10
-32.5
 20
-85.0
 30
0.0
 11
-28.233529
 21
-85.0
 31
0.0
  0
LINE
  8
BASE
  6
CONTINUOUS
 10
-32.5
 20
-90.0
 30
0.0
 11
-28.233529
 21
-90.0
 31
0.0
  0
LINE
  8
BASE
  6
CONTINUOUS
 10
-17.5
 20
-95.0
 30
0.0
 11
-32.5
 21
-95.0
 31
0.0
  0
CIRCLE
  8
BASE
  6
CONTINUOUS
 10
-9.050449
 20
-20.028782
 30
0.0
 40
1.0
  0
LINE
  8
BASE
 10
-20.0
 20
-30.00155
 30
0.0
 11
-20.0
 21
-20.00155
 31
0.0
  0
LINE
  8
BASE
 10
-17.5
 20
-20.0
 30
0.0
 11
-15.0
 21
-20.0
 31
0.0
  0
LINE
  8
BASE
 10
-20.0
 20
-20.00155
 30
0.0
 11
-17.5
 21
-20.00155
 31
0.0
  0
LINE
  8
BASE
 10
-22.5
 20
-25.0
 30
0.0
 11
-17.5
 21
-25.0
 31
0.0
  0
LINE
  8
BASE
 10
-17.5
 20
-25.0
 30
0.0
 11
-15.0
 21
-25.0
 31
0.0
  0
LINE
  8
BASE
 10
-15.0
 20
-25.0
 30
0.0
 11
-15.0
 21
-22.1
 31
0.0
  0
LINE
  8
BASE
 10
-16.11905
 20
-23.055575
 30
0.0
 11
-15.439687
 21
-23.991319
 31
0.0
  0
LINE
  8
BASE
 10
-10.050448
 20
-20.030442
 30
0.0
 11
-15.8
 21
-23.5
 31
0.0
  0
LINE
  8
BASE
 10
-17.5
 20
-30.00155
 30
0.0
 11
-20.0
 21
-30.00155
 31
0.0
  0
LINE
  8
BASE
 10
-17.5
 20
-30.0
 30
0.0
 11
-15.0
 21
-30.0
 31
0.0
  0
LINE
  8
BASE
  6
CONTINUOUS
 10
-22.5
 20
-25.0
 30
0.0
 11
-26.5
 21
-25.0
 31
0.0
  0
LINE
  8
BASE
 10
-10.050448
 20
-30.030442
 30
0.0
 11
-15.8
 21
-33.5
 31
0.0
  0
LINE
  8
BASE
 10
-16.11905
 20
-33.055575
 30
0.0
 11
-15.439687
 21
-33.991319
 31
0.0
  0
LINE
  8
BASE
 10
-17.5
 20
-35.0
 30
0.0
 11
-15.0
 21
-35.0
 31
0.0
  0
LINE
  8
BASE
 10
-15.0
 20
-35.0
 30
0.0
 11
-15.0
 21
-32.1
 31
0.0
  0
CIRCLE
  8
BASE
  6
CONTINUOUS
 10
-9.050449
 20
-30.028782
 30
0.0
 40
1.0
  0
LINE
  8
BASE
 10
-10.050448
 20
-40.030442
 30
0.0
 11
-15.8
 21
-43.5
 31
0.0
  0
LINE
  8
BASE
 10
-16.11905
 20
-43.055575
 30
0.0
 11
-15.439687
 21
-43.991319
 31
0.0
  0
LINE
  8
BASE
 10
-15.0
 20
-45.0
 30
0.0
 11
-15.0
 21
-42.1
 31
0.0
  0
LINE
  8
BASE
 10
-17.5
 20
-45.0
 30
0.0
 11
-15.0
 21
-45.0
 31
0.0
  0
LINE
  8
BASE
 10
-22.5
 20
-45.0
 30
0.0
 11
-17.5
 21
-45.0
 31
0.0
  0
LINE
  8
BASE
 10
-20.0
 20
-40.00155
 30
0.0
 11
-17.5
 21
-40.00155
 31
0.0
  0
LINE
  8
BASE
 10
-17.5
 20
-40.0
 30
0.0
 11
-15.0
 21
-40.0
 31
0.0
  0
CIRCLE
  8
BASE
  6
CONTINUOUS
 10
-9.050449
 20
-40.028782
 30
0.0
 40
1.0
  0
LINE
  8
BASE
 10
-20.0
 20
-50.00155
 30
0.0
 11
-20.0
 21
-40.00155
 31
0.0
  0
LINE
  8
BASE
 10
-17.5
 20
-50.00155
 30
0.0
 11
-20.0
 21
-50.00155
 31
0.0
  0
LINE
  8
BASE
 10
-17.5
 20
-50.0
 30
0.0
 11
-15.0
 21
-50.0
 31
0.0
  0
LINE
  8
BASE
 10
-16.11905
 20
-53.055575
 30
0.0
 11
-15.439687
 21
-53.991319
 31
0.0
  0
LINE
  8
BASE
 10
-10.050448
 20
-50.030442
 30
0.0
 11
-15.8
 21
-53.5
 31
0.0
  0
LINE
  8
BASE
 10
-15.0
 20
-55.0
 30
0.0
 11
-15.0
 21
-52.1
 31
0.0
  0
LINE
  8
BASE
 10
-17.5
 20
-55.0
 30
0.0
 11
-15.0
 21
-55.0
 31
0.0
  0
CIRCLE
  8
BASE
  6
CONTINUOUS
 10
-9.050449
 20
-50.028782
 30
0.0
 40
1.0
  0
LINE
  8
BASE
 10
-17.5
 20
-60.0
 30
0.0
 11
-15.0
 21
-60.0
 31
0.0
  0
LINE
  8
BASE
 10
-20.0
 20
-60.00155
 30
0.0
 11
-17.5
 21
-60.00155
 31
0.0
  0
LINE
  8
BASE
 10
-22.5
 20
-65.0
 30
0.0
 11
-17.5
 21
-65.0
 31
0.0
  0
LINE
  8
BASE
 10
-17.5
 20
-65.0
 30
0.0
 11
-15.0
 21
-65.0
 31
0.0
  0
LINE
  8
BASE
 10
-15.0
 20
-65.0
 30
0.0
 11
-15.0
 21
-62.1
 31
0.0
  0
LINE
  8
BASE
 10
-16.11905
 20
-63.055575
 30
0.0
 11
-15.439687
 21
-63.991319
 31
0.0
  0
LINE
  8
BASE
 10
-10.050448
 20
-60.030442
 30
0.0
 11
-15.8
 21
-63.5
 31
0.0
  0
LINE
  8
BASE
 10
-20.0
 20
-70.00155
 30
0.0
 11
-20.0
 21
-60.00155
 31
0.0
  0
LINE
  8
BASE
 10
-17.5
 20
-70.00155
 30
0.0
 11
-20.0
 21
-70.00155
 31
0.0
  0
LINE
  8
BASE
 10
-17.5
 20
-70.001549
 30
0.0
 11
-15.0
 21
-70.001549
 31
0.0
  0
CIRCLE
  8
BASE
  6
CONTINUOUS
 10
-9.050449
 20
-60.028782
 30
0.0
 40
1.0
  0
LINE
  8
BASE
 10
-10.050448
 20
-70.030442
 30
0.0
 11
-15.8
 21
-73.5
 31
0.0
  0
LINE
  8
BASE
 10
-15.0
 20
-75.0
 30
0.0
 11
-15.0
 21
-72.1
 31
0.0
  0
CIRCLE
  8
BASE
  6
CONTINUOUS
 10
-9.050449
 20
-70.028782
 30
0.0
 40
1.0
  0
LINE
  8
BASE
 10
-17.5
 20
-75.0
 30
0.0
 11
-15.0
 21
-75.0
 31
0.0
  0
LINE
  8
BASE
 10
-16.11905
 20
-73.055575
 30
0.0
 11
-15.439687
 21
-73.991319
 31
0.0
  0
LINE
  8
BASE
  6
CONTINUOUS
 10
-26.5
 20
-23.5
 30
0.0
 11
-26.5
 21
-30.5
 31
0.0
  0
LINE
  8
BASE
  6
CONTINUOUS
 10
-26.5
 20
-30.5
 30
0.0
 11
-27.5
 21
-31.5
 31
0.0
  0
LINE
  8
BASE
  6
CONTINUOUS
 10
-26.5
 20
-23.5
 30
0.0
 11
-27.5
 21
-22.5
 31
0.0
  0
LINE
  8
BASE
  6
CONTINUOUS
 10
-26.5
 20
-43.5
 30
0.0
 11
-27.5
 21
-42.5
 31
0.0
  0
LINE
  8
BASE
  6
CONTINUOUS
 10
-26.5
 20
-43.5
 30
0.0
 11
-26.5
 21
-50.5
 31
0.0
  0
LINE
  8
BASE
  6
CONTINUOUS
 10
-26.5
 20
-50.5
 30
0.0
 11
-27.5
 21
-51.5
 31
0.0
  0
LINE
  8
BASE
  6
CONTINUOUS
 10
-22.5
 20
-65.0
 30
0.0
 11
-26.5
 21
-65.0
 31
0.0
  0
LINE
  8
BASE
  6
CONTINUOUS
 10
-22.5
 20
-45.0
 30
0.0
 11
-26.5
 21
-45.0
 31
0.0
  0
TEXT
  8
BASE
  6
DASHED
 10
-17.961637
 20
-28.365058
 30
0.0
 40
2.0
  1
13B
  7
ROMANS
 11
-17.961637
 21
-29.031725
 31
0.0
 73
     1
  0
TEXT
  8
BASE
  6
DASHED
 10
-17.961637
 20
-38.214285
 30
0.0
 40
2.0
  1
14B
  7
ROMANS
 11
-17.961637
 21
-38.880951
 31
0.0
 73
     1
  0
TEXT
  8
BASE
  6
DASHED
 10
-17.961637
 20
-48.228142
 30
0.0
 40
2.0
  1
15B
  7
ROMANS
 11
-17.961637
 21
-48.894808
 31
0.0
 73
     1
  0
TEXT
  8
BASE
  6
DASHED
 10
-17.961637
 20
-58.068703
 30
0.0
 40
2.0
  1
16B
  7
ROMANS
 11
-17.961637
 21
-58.73537
 31
0.0
 73
     1
  0
TEXT
  8
BASE
  6
DASHED
 10
-17.961637
 20
-68.091225
 30
0.0
 40
2.0
  1
17B
  7
ROMANS
 11
-17.961637
 21
-68.757892
 31
0.0
 73
     1
  0
TEXT
  8
BASE
  6
DASHED
 10
-17.782183
 20
-78.113746
 30
0.0
 40
2.0
  1
18B
  7
ROMANS
 11
-17.782183
 21
-78.780413
 31
0.0
 73
     1
  0
LINE
  8
BASE
  6
CONTINUOUS
 10
-26.5
 20
-70.5
 30
0.0
 11
-27.5
 21
-71.5
 31
0.0
  0
LINE
  8
BASE
  6
CONTINUOUS
 10
-26.5
 20
-63.5
 30
0.0
 11
-26.5
 21
-70.5
 31
0.0
  0
LINE
  8
BASE
  6
CONTINUOUS
 10
-26.5
 20
-63.5
 30
0.0
 11
-27.5
 21
-62.5
 31
0.0
  0
TEXT
  8
BASE
  6
CONTINUOUS
 10
-24.326283
 20
-27.784001
 30
0.0
 40
2.0
  1
RI
  7
ROMANS
  0
TEXT
  8
BASE
  6
CONTINUOUS
 10
-24.326283
 20
-77.926075
 30
0.0
 40
2.0
  1
TI
  7
ROMANS
  0
TEXT
  8
BASE
  6
CONTINUOUS
 10
-24.326283
 20
-67.744992
 30
0.0
 40
2.0
  1
TI
  7
ROMANS
  0
TEXT
  8
BASE
  6
CONTINUOUS
 10
-24.326283
 20
-37.635823
 30
0.0
 40
2.0
  1
RI
  7
ROMANS
  0
TEXT
  8
BASE
  6
CONTINUOUS
 10
-19.612617
 20
-15.913291
 30
0.0
 40
2.0
  1
101
  7
ROMANS
  0
LINE
  8
BASE
  6
CONTINUOUS
 10
-26.5
 20
-83.5
 30
0.0
 11
-27.5
 21
-82.5
 31
0.0
  0
LINE
  8
BASE
  6
CONTINUOUS
 10
-26.5
 20
-83.5
 30
0.0
 11
-26.5
 21
-90.5
 31
0.0
  0
LINE
  8
BASE
  6
CONTINUOUS
 10
-26.5
 20
-90.5
 30
0.0
 11
-27.5
 21
-91.5
 31
0.0
  0
TEXT
  8
BASE
  6
CONTINUOUS
 10
-24.326283
 20
-87.731978
 30
0.0
 40
2.0
  1
NI
  7
ROMANS
  0
LINE
  8
BASE
  6
CONTINUOUS
 10
-22.5
 20
-85.0
 30
0.0
 11
-26.5
 21
-85.0
 31
0.0
  0
LINE
  8
BASE
 10
-22.5
 20
-85.0
 30
0.0
 11
-17.5
 21
-85.0
 31
0.0
  0
LINE
  8
BASE
 10
-20.0
 20
-90.00155
 30
0.0
 11
-20.0
 21
-80.00155
 31
0.0
  0
LINE
  8
BASE
 10
-17.5
 20
-90.001549
 30
0.0
 11
-15.0
 21
-90.001549
 31
0.0
  0
LINE
  8
BASE
 10
-17.5
 20
-90.00155
 30
0.0
 11
-20.0
 21
-90.00155
 31
0.0
  0
LINE
  8
BASE
 10
-20.0
 20
-80.00155
 30
0.0
 11
-17.5
 21
-80.00155
 31
0.0
  0
LINE
  8
BASE
 10
-17.5
 20
-80.0
 30
0.0
 11
-15.0
 21
-80.0
 31
0.0
  0
LINE
  8
BASE
 10
-16.11905
 20
-83.055575
 30
0.0
 11
-15.439687
 21
-83.991319
 31
0.0
  0
LINE
  8
BASE
 10
-17.5
 20
-85.0
 30
0.0
 11
-15.0
 21
-85.0
 31
0.0
  0
LINE
  8
BASE
 10
-10.050448
 20
-80.030442
 30
0.0
 11
-15.8
 21
-83.5
 31
0.0
  0
LINE
  8
BASE
 10
-15.0
 20
-85.0
 30
0.0
 11
-15.0
 21
-82.1
 31
0.0
  0
CIRCLE
  8
BASE
  6
CONTINUOUS
 10
-9.050449
 20
-80.028782
 30
0.0
 40
1.0
  0
LINE
  8
BASE
 10
-16.11905
 20
-93.055575
 30
0.0
 11
-15.439687
 21
-93.991319
 31
0.0
  0
LINE
  8
BASE
 10
-17.5
 20
-95.0
 30
0.0
 11
-15.0
 21
-95.0
 31
0.0
  0
LINE
  8
BASE
 10
-15.0
 20
-95.0
 30
0.0
 11
-15.0
 21
-92.1
 31
0.0
  0
LINE
  8
BASE
 10
-10.050448
 20
-90.030442
 30
0.0
 11
-15.8
 21
-93.5
 31
0.0
  0
CIRCLE
  8
BASE
  6
CONTINUOUS
 10
-9.050449
 20
-90.028782
 30
0.0
 40
1.0
  0
TEXT
  8
BASE
  6
CONTINUOUS
 10
-17.764709
 20
-88.940088
 30
0.0
 40
2.0
  1
19B
  7
ROMANS
  0
TEXT
  8
BASE
  6
CONTINUOUS
 10
-17.764709
 20
-97.870666
 30
0.0
 40
2.0
  1
20B
  7
ROMANS
  0
TEXT
  8
BASE
  6
CONTINUOUS
 10
-24.326283
 20
-97.731978
 30
0.0
 40
2.0
  1
NI
  7
ROMANS
  0
TEXT
  8
BASE
  6
CONTINUOUS
 10
-24.365116
 20
-47.531619
 30
0.0
 40
2.0
  1
SI
  7
ROMANS
  0
TEXT
  8
BASE
  6
CONTINUOUS
 10
-24.365116
 20
-57.687464
 30
0.0
 40
2.0
  1
SI
  7
ROMANS
  0
TEXT
  8
BASE
  6
CONTINUOUS
 10
-25.723646
 20
-23.880245
 30
0.0
 40
2.0
  1
1)
  7
ROMANS
  0
TEXT
  8
BASE
  6
CONTINUOUS
 10
-25.723646
 20
-43.880245
 30
0.0
 40
2.0
  1
1)
  7
ROMANS
  0
TEXT
  8
BASE
  6
CONTINUOUS
 10
-25.723646
 20
-63.880245
 30
0.0
 40
2.0
  1
1)
  7
ROMANS
  0
TEXT
  8
BASE
  6
CONTINUOUS
 10
-25.723646
 20
-83.880245
 30
0.0
 40
2.0
  1
1)
  7
ROMANS
  0
LINE
  8
BASE
  6
DASHED
 10
-242.5
 20
-160.0
 30
0.0
 11
-265.0
 21
-160.0
 31
0.0
  0
LINE
  8
0
  6
DASHED
 10
-265.0
 20
-185.0
 30
0.0
 11
-270.0
 21
-185.0
 31
0.0
  0
LINE
  8
0
  6
DASHED
 10
-265.0
 20
-175.0
 30
0.0
 11
-270.0
 21
-175.0
 31
0.0
  0
LINE
  8
0
  6
DASHED
 10
-265.0
 20
-160.0
 30
0.0
 11
-270.0
 21
-160.0
 31
0.0
  0
LINE
  8
0
  6
DASHED
 10
-265.0
 20
-155.0
 30
0.0
 11
-270.0
 21
-155.0
 31
0.0
  0
LINE
  8
0
  6
DASHED
 10
-265.0
 20
-145.0
 30
0.0
 11
-270.0
 21
-145.0
 31
0.0
  0
LINE
  8
0
  6
DASHED
 10
-265.0
 20
-135.0
 30
0.0
 11
-270.0
 21
-135.0
 31
0.0
  0
LINE
  8
0
  6
DASHED
 10
-265.0
 20
-130.0
 30
0.0
 11
-270.0
 21
-130.0
 31
0.0
  0
LINE
  8
0
  6
DASHED
 10
-265.0
 20
-125.0
 30
0.0
 11
-270.0
 21
-125.0
 31
0.0
  0
LINE
  8
BASE
  6
CONTINUOUS
 10
-242.5
 20
-180.0
 30
0.0
 11
-245.0
 21
-180.0
 31
0.0
  0
LINE
  8
BASE
  6
CONTINUOUS
 10
-242.5
 20
-165.0
 30
0.0
 11
-245.0
 21
-165.0
 31
0.0
  0
LINE
  8
BASE
  6
CONTINUOUS
 10
-242.5
 20
-150.0
 30
0.0
 11
-245.0
 21
-150.0
 31
0.0
  0
LINE
  8
BASE
  6
DASHED
 10
-242.5
 20
-175.0
 30
0.0
 11
-265.0
 21
-175.0
 31
0.0
  0
LINE
  8
BASE
  6
DASHED
 10
-242.5
 20
-145.0
 30
0.0
 11
-265.0
 21
-145.0
 31
0.0
  0
LINE
  8
0
  6
DASHED
 10
-265.0
 20
-120.0
 30
0.0
 11
-270.0
 21
-120.0
 31
0.0
  0
LINE
  8
BASE
  6
DASHED
 10
-242.5
 20
-130.0
 30
0.0
 11
-265.0
 21
-130.0
 31
0.0
  0
LINE
  8
BASE
  6
CONTINUOUS
 10
-72.049385
 20
-195.0
 30
0.0
 11
-72.049385
 21
-202.5
 31
0.0
  0
LINE
  8
BASE
  6
CONTINUOUS
 10
-60.0
 20
-195.0
 30
0.0
 11
-60.0
 21
-202.5
 31
0.0
  0
LINE
  8
BASE
  6
CONTINUOUS
 10
-65.0
 20
-195.0
 30
0.0
 11
-65.0
 21
-202.5
 31
0.0
  0
LINE
  8
BASE
  6
CONTINUOUS
 10
-102.5
 20
-195.0
 30
0.0
 11
-102.5
 21
-202.5
 31
0.0
  0
LINE
  8
BASE
  6
CONTINUOUS
 10
-135.0
 20
-195.0
 30
0.0
 11
-135.0
 21
-202.5
 31
0.0
  0
LINE
  8
BASE
  6
CONTINUOUS
 10
-150.0
 20
-195.0
 30
0.0
 11
-150.0
 21
-202.5
 31
0.0
  0
LINE
  8
BASE
  6
CONTINUOUS
 10
-162.5
 20
-195.0
 30
0.0
 11
-162.5
 21
-202.5
 31
0.0
  0
LINE
  8
BASE
  6
CENTER
 10
-265.0
 20
-202.5
 30
0.0
 11
0.0
 21
-202.5
 31
0.0
  0
LINE
  8
BASE
  6
CENTER
 10
0.0
 20
0.0
 30
0.0
 11
-265.0
 21
0.0
 31
0.0
  0
POLYLINE
  8
BASE
  6
CONTINUOUS
 66
     1
 10
0.0
 20
0.0
 30
0.0
 70
     1
 40
0.5
 41
0.5
  0
VERTEX
  8
BASE
  6
CONTINUOUS
 10
-248.0
 20
-185.0
 30
0.0
 42
1.0
  0
VERTEX
  8
BASE
  6
CONTINUOUS
 10
-247.0
 20
-185.0
 30
0.0
 42
1.0
  0
SEQEND
  8
BASE
  6
CONTINUOUS
  0
CIRCLE
  8
BASE
  6
CONTINUOUS
 10
-244.597708
 20
-121.934976
 30
0.0
 40
1.191865
  0
CIRCLE
  8
BASE
  6
CONTINUOUS
 10
-244.597708
 20
-121.934976
 30
0.0
 40
0.705421
  0
LINE
  8
BASE
  6
CONTINUOUS
 10
-244.246804
 20
-107.5
 30
0.0
 11
-250.000117
 21
-107.5
 31
0.0
  0
LINE
  8
BASE
  6
CONTINUOUS
 10
-258.162841
 20
-122.565196
 30
0.0
 11
-258.607734
 21
-123.450894
 31
0.0
  0
LINE
  8
BASE
  6
CONTINUOUS
 10
-258.162841
 20
-105.065196
 30
0.0
 11
-258.607734
 21
-105.950894
 31
0.0
  0
CIRCLE
  8
BASE
  6
CONTINUOUS
 10
-250.741055
 20
-185.0
 30
0.0
 40
0.740939
  0
LINE
  8
BASE
  6
CONTINUOUS
 10
-258.162841
 20
-182.565196
 30
0.0
 11
-258.607734
 21
-183.450894
 31
0.0
  0
LINE
  8
BASE
  6
CONTINUOUS
 10
-257.5
 20
-185.0
 30
0.0
 11
-257.5
 21
-182.234339
 31
0.0
  0
LINE
  8
BASE
  6
CONTINUOUS
 10
-251.481965
 20
-185.006589
 30
0.0
 11
-258.162841
 21
-182.565196
 31
0.0
  0
TEXT
  8
BASE
  6
DASHED
 10
-263.160336
 20
-111.549496
 30
0.0
 40
2.0
  1
12A
  7
ROMANS
  0
TEXT
  8
BASE
  6
DASHED
 10
-251.304519
 20
-111.428272
 30
0.0
 40
2.0
  1
12B-
  7
ROMANS
  0
TEXT
  8
BASE
  6
DASHED
 10
-250.421207
 20
-122.958045
 30
0.0
 40
2.0
  1
2B
  7
ROMANS
  0
TEXT
  8
BASE
  6
DASHED
 10
-263.160336
 20
-123.079269
 30
0.0
 40
2.0
  1
2A
  7
ROMANS
  0
TEXT
  8
BASE
  6
DASHED
 10
-263.160336
 20
-128.602839
 30
0.0
 40
2.0
  1
1A
  7
ROMANS
  0
TEXT
  8
BASE
  6
DASHED
 10
-250.421207
 20
-128.481615
 30
0.0
 40
2.0
  1
1B+
  7
ROMANS
  0
CIRCLE
  8
BASE
  6
CONTINUOUS
 10
-250.741055
 20
-107.5
 30
0.0
 40
0.740939
  0
LINE
  8
BASE
  6
CONTINUOUS
 10
-257.5
 20
-107.5
 30
0.0
 11
-257.5
 21
-104.734339
 31
0.0
  0
LINE
  8
BASE
  6
CONTINUOUS
 10
-257.5
 20
-107.5
 30
0.0
 11
-265.0
 21
-107.5
 31
0.0
  0
LINE
  8
BASE
  6
CONTINUOUS
 10
-251.481965
 20
-107.506589
 30
0.0
 11
-258.162841
 21
-105.065196
 31
0.0
  0
LINE
  8
BASE
  6
CONTINUOUS
 10
-242.5
 20
-120.0
 30
0.0
 11
-250.000117
 21
-120.0
 31
0.0
  0
CIRCLE
  8
BASE
  6
CONTINUOUS
 10
-250.741055
 20
-120.0
 30
0.0
 40
0.740939
  0
LINE
  8
BASE
  6
CONTINUOUS
 10
-257.5
 20
-120.0
 30
0.0
 11
-265.0
 21
-120.0
 31
0.0
  0
LINE
  8
BASE
  6
CONTINUOUS
 10
-257.5
 20
-120.0
 30
0.0
 11
-257.5
 21
-117.234339
 31
0.0
  0
LINE
  8
BASE
  6
CONTINUOUS
 10
-251.481965
 20
-120.006589
 30
0.0
 11
-258.162841
 21
-117.565196
 31
0.0
  0
LINE
  8
BASE
  6
CONTINUOUS
 10
-242.5
 20
-125.0
 30
0.0
 11
-250.000117
 21
-125.0
 31
0.0
  0
CIRCLE
  8
BASE
  6
CONTINUOUS
 10
-250.741055
 20
-125.0
 30
0.0
 40
0.740939
  0
LINE
  8
BASE
  6
CONTINUOUS
 10
-257.5
 20
-125.0
 30
0.0
 11
-265.0
 21
-125.0
 31
0.0
  0
LINE
  8
BASE
  6
CONTINUOUS
 10
-257.5
 20
-125.0
 30
0.0
 11
-257.5
 21
-122.234339
 31
0.0
  0
LINE
  8
BASE
  6
CONTINUOUS
 10
-251.481965
 20
-125.006589
 30
0.0
 11
-258.162841
 21
-122.565196
 31
0.0
  0
TEXT
  8
BASE
  6
DASHED
 10
-250.923983
 20
-138.819745
 30
0.0
 40
2.0
  1
3B
  7
ROMANS
  0
TEXT
  8
BASE
  6
DASHED
 10
-263.160336
 20
-138.767569
 30
0.0
 40
2.0
  1
3A
  7
ROMANS
  0
LINE
  8
BASE
  6
CONTINUOUS
 10
-257.5
 20
-185.0
 30
0.0
 11
-265.0
 21
-185.0
 31
0.0
  0
LINE
  8
BASE
  6
CONTINUOUS
 10
-257.5
 20
-155.0
 30
0.0
 11
-265.0
 21
-155.0
 31
0.0
  0
LINE
  8
BASE
  6
CONTINUOUS
 10
-257.5
 20
-135.0
 30
0.0
 11
-265.0
 21
-135.0
 31
0.0
  0
CIRCLE
  8
BASE
  6
CONTINUOUS
 10
-250.741055
 20
-135.0
 30
0.0
 40
0.740939
  0
LINE
  8
BASE
  6
CONTINUOUS
 10
-257.5
 20
-135.0
 30
0.0
 11
-257.5
 21
-132.234339
 31
0.0
  0
LINE
  8
BASE
  6
CONTINUOUS
 10
-251.481965
 20
-135.006589
 30
0.0
 11
-258.162841
 21
-132.565196
 31
0.0
  0
CIRCLE
  8
BASE
  6
CONTINUOUS
 10
-250.741055
 20
-155.0
 30
0.0
 40
0.740939
  0
LINE
  8
BASE
  6
CONTINUOUS
 10
-257.5
 20
-155.0
 30
0.0
 11
-257.5
 21
-152.234339
 31
0.0
  0
LINE
  8
BASE
  6
CONTINUOUS
 10
-251.481965
 20
-155.006589
 30
0.0
 11
-258.162841
 21
-152.565196
 31
0.0
  0
LINE
  8
BASE
  6
CONTINUOUS
 10
-242.5
 20
-135.0
 30
0.0
 11
-250.000117
 21
-135.0
 31
0.0
  0
LINE
  8
BASE
  6
CONTINUOUS
 10
-242.5
 20
-155.0
 30
0.0
 11
-250.000117
 21
-155.0
 31
0.0
  0
TEXT
  8
BASE
  6
DASHED
 10
-263.160336
 20
-158.602839
 30
0.0
 40
2.0
  1
6A
  7
ROMANS
  0
TEXT
  8
BASE
  6
DASHED
 10
-251.075757
 20
-158.481615
 30
0.0
 40
2.0
  1
6B
  7
ROMANS
  0
LINE
  8
BASE
  6
CONTINUOUS
 10
-247.5
 20
-170.0
 30
0.0
 11
-247.5
 21
-185.0
 31
0.0
  0
LINE
  8
BASE
  6
CONTINUOUS
 10
-242.5
 20
-170.0
 30
0.0
 11
-247.5
 21
-170.0
 31
0.0
  0
TEXT
  8
BASE
  6
DASHED
 10
-262.825152
 20
-189.287769
 30
0.0
 40
2.0
  1
5A
  7
ROMANS
  0
TEXT
  8
BASE
  6
DASHED
 10
-251.39897
 20
-189.331274
 30
0.0
 40
2.0
  1
5B
  7
ROMANS
  0
LINE
  8
BASE
  6
CONTINUOUS
 10
-242.5
 20
-185.0
 30
0.0
 11
-250.000117
 21
-185.0
 31
0.0
  0
LINE
  8
0
  6
DASHED
 10
-265.0
 20
-15.0
 30
0.0
 11
-270.0
 21
-15.0
 31
0.0
  0
LINE
  8
0
  6
DASHED
 10
-265.0
 20
-20.0
 30
0.0
 11
-270.0
 21
-20.0
 31
0.0
  0
LINE
  8
0
  6
DASHED
 10
-265.0
 20
-32.5
 30
0.0
 11
-270.0
 21
-32.5
 31
0.0
  0
LINE
  8
0
  6
DASHED
 10
-265.0
 20
-40.0
 30
0.0
 11
-270.0
 21
-40.0
 31
0.0
  0
LINE
  8
0
  6
DASHED
 10
-265.0
 20
-45.0
 30
0.0
 11
-270.0
 21
-45.0
 31
0.0
  0
INSERT
  8
BASE
  6
CONTINUOUS
  2
B37
 10
-257.5
 20
-32.5
 30
0.0
 50
90.0
  0
TEXT
  8
BASE
  6
DASHED
 10
-263.160336
 20
-36.102839
 30
0.0
 40
2.0
  1
4A
  7
ROMANS
  0
TEXT
  8
BASE
  6
DASHED
 10
-257.5
 20
-29.097954
 30
0.0
 40
2.0
  1
101
  7
ROMANS
  0
LINE
  8
BASE
  6
CONTINUOUS
 10
-257.5
 20
-32.5
 30
0.0
 11
-265.0
 21
-32.5
 31
0.0
  0
TEXT
  8
BASE
  6
DASHED
 10
-251.279262
 20
-35.981615
 30
0.0
 40
2.0
  1
4B
  7
ROMANS
  0
LINE
  8
BASE
  6
CONTINUOUS
 10
-242.5
 20
-32.5
 30
0.0
 11
-250.000117
 21
-32.5
 31
0.0
  0
LINE
  8
BASE
  6
CONTINUOUS
 10
-243.999131
 20
-34.989829
 30
0.0
 11
-245.065556
 21
-36.056254
 31
0.0
  0
LINE
  8
BASE
  6
CONTINUOUS
 10
-245.065556
 20
-33.923405
 30
0.0
 11
-243.999131
 21
-34.989829
 31
0.0
  0
LINE
  8
BASE
  6
CONTINUOUS
 10
-246.131981
 20
-34.989829
 30
0.0
 11
-245.065556
 21
-33.923405
 31
0.0
  0
LINE
  8
BASE
  6
CONTINUOUS
 10
-245.065556
 20
-36.056254
 30
0.0
 11
-246.131981
 21
-34.989829
 31
0.0
  0
LINE
  8
BASE
  6
CENTER
 10
-265.0
 20
0.0
 30
0.0
 11
-265.0
 21
-202.5
 31
0.0
  0
POLYLINE
  8
0
  6
CONTINUOUS
 66
     1
 10
0.0
 20
0.0
 30
0.0
 70
     1
 40
0.5
 41
0.5
  0
VERTEX
  8
0
  6
CONTINUOUS
 10
17.0
 20
-20.0
 30
0.0
 42
1.0
  0
VERTEX
  8
0
  6
CONTINUOUS
 10
18.0
 20
-20.0
 30
0.0
 42
1.0
  0
SEQEND
  8
0
  6
CONTINUOUS
  0
TEXT
  8
0
  6
CONTINUOUS
 10
-282.125554
 20
-39.355473
 30
0.0
 40
2.0
  1
3)
  7
ROMANS
  0
LINE
  8
BASE
  6
DASHED
 10
-242.5
 20
-20.0
 30
0.0
 11
-265.0
 21
-20.0
 31
0.0
  0
INSERT
  8
0
  6
DASHED
  2
BLC42
 10
-272.635786
 20
-20.0
 30
0.0
  0
INSERT
  8
0
  6
DASHED
  2
BLC43
 10
-272.635786
 20
-15.0
 30
0.0
  0
LINE
  8
BASE
  6
DASHED
 10
-242.5
 20
-15.0
 30
0.0
 11
-265.0
 21
-15.0
 31
0.0
  0
LINE
  8
0
  6
CONTINUOUS
 10
-277.784634
 20
-20.000345
 30
0.0
 11
-276.784634
 21
-21.000345
 31
0.0
  0
LINE
  8
0
  6
CONTINUOUS
 10
-277.784634
 20
-15.0
 30
0.0
 11
-277.784634
 21
-20.000345
 31
0.0
  0
LINE
  8
0
  6
CONTINUOUS
 10
-277.784634
 20
-15.0
 30
0.0
 11
-276.784634
 21
-14.0
 31
0.0
  0
TEXT
  8
0
  6
CONTINUOUS
 10
43.097664
 20
-154.836636
 30
0.0
 40
2.0
  1
1)
  7
ROMANS
  0
LINE
  8
0
  6
CONTINUOUS
 10
45.354145
 20
-110.0
 30
0.0
 11
45.354145
 21
-92.5
 31
0.0
  0
LINE
  8
0
  6
DASHED
 10
38.798944
 20
-157.746983
 30
0.0
 11
7.5
 21
-157.746983
 31
0.0
  0
TEXT
  8
BASE
  6
HIDDEN
 10
-20.708566
 20
-130.880499
 30
0.0
 40
2.0
  1
U1
  7
ROMANS
  0
LINE
  8
BASE
  6
DASHED
 10
-32.5
 20
-132.5
 30
0.0
 11
-28.233529
 21
-132.5
 31
0.0
  0
LINE
  8
BASE
  6
DASHED
 10
-32.5
 20
-137.5
 30
0.0
 11
-28.233529
 21
-137.5
 31
0.0
  0
LINE
  8
BASE
  6
DASHED
 10
-32.5
 20
-142.5
 30
0.0
 11
0.0
 21
-142.5
 31
0.0
  0
LINE
  8
BASE
  6
DASHED
 10
-32.5
 20
-152.5
 30
0.0
 11
-28.233529
 21
-152.5
 31
0.0
  0
LINE
  8
BASE
  6
DASHED
 10
-32.5
 20
-157.5
 30
0.0
 11
-28.233529
 21
-157.5
 31
0.0
  0
LINE
  8
BASE
  6
DASHED
 10
-32.5
 20
-162.5
 30
0.0
 11
0.0
 21
-162.5
 31
0.0
  0
LINE
  8
BASE
  6
DASHED
 10
-32.5
 20
-172.5
 30
0.0
 11
-28.233529
 21
-172.5
 31
0.0
  0
LINE
  8
BASE
  6
DASHED
 10
-32.5
 20
-177.5
 30
0.0
 11
-28.233529
 21
-177.5
 31
0.0
  0
LINE
  8
BASE
  6
DASHED
 10
-32.5
 20
-182.5
 30
0.0
 11
0.0
 21
-182.5
 31
0.0
  0
LINE
  8
BASE
  6
CONTINUOUS
 10
-26.5
 20
-171.0
 30
0.0
 11
-27.5
 21
-170.0
 31
0.0
  0
LINE
  8
BASE
  6
CONTINUOUS
 10
-26.5
 20
-171.0
 30
0.0
 11
-26.5
 21
-178.0
 31
0.0
  0
LINE
  8
BASE
  6
CONTINUOUS
 10
-26.5
 20
-178.0
 30
0.0
 11
-27.5
 21
-179.0
 31
0.0
  0
LINE
  8
BASE
  6
CONTINUOUS
 10
-26.5
 20
-158.0
 30
0.0
 11
-27.5
 21
-159.0
 31
0.0
  0
LINE
  8
BASE
  6
CONTINUOUS
 10
-26.5
 20
-151.0
 30
0.0
 11
-26.5
 21
-158.0
 31
0.0
  0
LINE
  8
BASE
  6
CONTINUOUS
 10
-26.5
 20
-151.0
 30
0.0
 11
-27.5
 21
-150.0
 31
0.0
  0
LINE
  8
BASE
  6
CONTINUOUS
 10
-26.5
 20
-131.0
 30
0.0
 11
-27.5
 21
-130.0
 31
0.0
  0
LINE
  8
BASE
  6
CONTINUOUS
 10
-26.5
 20
-138.0
 30
0.0
 11
-27.5
 21
-139.0
 31
0.0
  0
LINE
  8
BASE
  6
CONTINUOUS
 10
-26.5
 20
-131.0
 30
0.0
 11
-26.5
 21
-138.0
 31
0.0
  0
LINE
  8
BASE
  6
DASHED
 10
-26.5
 20
-172.5
 30
0.0
 11
-15.0
 21
-172.5
 31
0.0
  0
LINE
  8
0
  6
CONTINUOUS
 10
7.5
 20
-182.5
 30
0.0
 11
6.5
 21
-183.5
 31
0.0
  0
LINE
  8
0
  6
CONTINUOUS
 10
7.5
 20
-182.5
 30
0.0
 11
7.5
 21
-152.5
 31
0.0
  0
LINE
  8
0
  6
CONTINUOUS
 10
7.5
 20
-152.5
 30
0.0
 11
7.5
 21
-132.5
 31
0.0
  0
LINE
  8
0
  6
CONTINUOUS
 10
7.5
 20
-132.5
 30
0.0
 11
6.5
 21
-131.5
 31
0.0
  0
TEXT
  8
BASE
  6
HIDDEN
 10
-25.18515
 20
-131.38097
 30
0.0
 40
2.0
  1
1)
  7
ROMANS
  0
TEXT
  8
BASE
  6
HIDDEN
 10
-25.18515
 20
-151.38097
 30
0.0
 40
2.0
  1
1)
  7
ROMANS
  0
TEXT
  8
BASE
  6
HIDDEN
 10
-25.18515
 20
-171.38097
 30
0.0
 40
2.0
  1
1)
  7
ROMANS
  0
TEXT
  8
BASE
  6
HIDDEN
 10
-25.18515
 20
-103.88097
 30
0.0
 40
2.0
  1
1)
  7
ROMANS
  0
LINE
  8
0
  6
CONTINUOUS
 10
-277.165049
 20
-130.0
 30
0.0
 11
-277.165049
 21
-135.0
 31
0.0
  0
LINE
  8
0
  6
CONTINUOUS
 10
-277.165049
 20
-135.000345
 30
0.0
 11
-276.165049
 21
-136.000345
 31
0.0
  0
LINE
  8
0
  6
CONTINUOUS
 10
-277.165049
 20
-130.0
 30
0.0
 11
-276.165049
 21
-129.0
 31
0.0
  0
TEXT
  8
0
  6
HIDDEN
 10
-282.110338
 20
-18.604114
 30
0.0
 40
2.0
  1
2)
  7
ROMANS
  0
LINE
  8
0
  6
DASHED
 10
7.5
 20
-55.0
 30
0.0
 11
15.0
 21
-55.0
 31
0.0
  0
CIRCLE
  8
0
  6
CONTINUOUS
 10
17.5
 20
-55.0
 30
0.0
 40
2.5
  0
LINE
  8
0
  6
DASHED
 10
30.0
 20
-110.0
 30
0.0
 11
7.5
 21
-110.0
 31
0.0
  0
LINE
  8
0
  6
DASHED
 10
17.5
 20
-20.0
 30
0.0
 11
17.5
 21
-80.0
 31
0.0
  0
LINE
  8
0
  6
CONTINUOUS
 10
7.5
 20
-105.0
 30
0.0
 11
7.5
 21
-115.0
 31
0.0
  0
LINE
  8
0
  6
CONTINUOUS
 10
7.5
 20
-105.0
 30
0.0
 11
6.5
 21
-104.0
 31
0.0
  0
LINE
  8
0
  6
CONTINUOUS
 10
7.5
 20
-115.0
 30
0.0
 11
6.5
 21
-116.0
 31
0.0
  0
LINE
  8
0
  6
CONTINUOUS
 10
7.5
 20
-20.0
 30
0.0
 11
6.5
 21
-19.0
 31
0.0
  0
LINE
  8
0
  6
CONTINUOUS
 10
7.5
 20
-40.0
 30
0.0
 11
7.5
 21
-20.0
 31
0.0
  0
LINE
  8
0
  6
CONTINUOUS
 10
7.5
 20
-90.0
 30
0.0
 11
7.5
 21
-40.0
 31
0.0
  0
LINE
  8
0
  6
CONTINUOUS
 10
7.5
 20
-90.0
 30
0.0
 11
6.5
 21
-91.0
 31
0.0
  0
LINE
  8
BASE
  6
DASHED
 10
-32.5
 20
-115.0
 30
0.0
 11
0.0
 21
-115.0
 31
0.0
  0
LINE
  8
BASE
  6
DASHED
 10
-26.5
 20
-105.0
 30
0.0
 11
-15.0
 21
-105.0
 31
0.0
  0
LINE
  8
0
  6
CONTINUOUS
 10
-277.165049
 20
-160.0
 30
0.0
 11
-277.165049
 21
-185.000345
 31
0.0
  0
LINE
  8
0
  6
CONTINUOUS
 10
-277.165049
 20
-185.000345
 30
0.0
 11
-276.165049
 21
-186.000345
 31
0.0
  0
LINE
  8
0
  6
CONTINUOUS
 10
-277.165049
 20
-160.0
 30
0.0
 11
-276.165049
 21
-159.0
 31
0.0
  0
LINE
  8
0
  6
CONTINUOUS
 10
-277.784634
 20
-32.5
 30
0.0
 11
-277.784634
 21
-45.000345
 31
0.0
  0
LINE
  8
0
  6
CONTINUOUS
 10
-277.784634
 20
-32.5
 30
0.0
 11
-276.784634
 21
-31.5
 31
0.0
  0
LINE
  8
0
  6
CONTINUOUS
 10
-277.784634
 20
-45.000345
 30
0.0
 11
-276.784634
 21
-46.000345
 31
0.0
  0
INSERT
  8
0
  6
DASHED
  2
BLC42
 10
-272.635786
 20
-45.0
 30
0.0
  0
INSERT
  8
0
  6
DASHED
  2
BLC43
 10
-272.635786
 20
-40.0
 30
0.0
  0
INSERT
  8
0
  6
DASHED
  2
BLC43
 10
-272.635786
 20
-32.5
 30
0.0
  0
LINE
  8
BASE
  6
DASHED
 10
-242.5
 20
-45.0
 30
0.0
 11
-265.0
 21
-45.0
 31
0.0
  0
LINE
  8
BASE
  6
DASHED
 10
-242.5
 20
-40.0
 30
0.0
 11
-265.0
 21
-40.0
 31
0.0
  0
LINE
  8
BASE
  6
DASHED
 10
-32.5
 20
-105.0
 30
0.0
 11
-28.233529
 21
-105.0
 31
0.0
  0
LINE
  8
BASE
  6
DASHED
 10
-32.5
 20
-110.0
 30
0.0
 11
-28.233529
 21
-110.0
 31
0.0
  0
LINE
  8
BASE
  6
CONTINUOUS
 10
-26.5
 20
-103.5
 30
0.0
 11
-27.5
 21
-102.5
 31
0.0
  0
LINE
  8
BASE
  6
CONTINUOUS
 10
-26.5
 20
-103.5
 30
0.0
 11
-26.5
 21
-110.5
 31
0.0
  0
LINE
  8
BASE
  6
CONTINUOUS
 10
-26.5
 20
-110.5
 30
0.0
 11
-27.5
 21
-111.5
 31
0.0
  0
TEXT
  8
0
  6
CONTINUOUS
 10
-281.827648
 20
-123.410156
 30
0.0
 40
2.0
  1
4)
  7
ROMANS
  0
LINE
  8
0
  6
CONTINUOUS
 10
-277.165049
 20
-155.000345
 30
0.0
 11
-276.165049
 21
-156.000345
 31
0.0
  0
LINE
  8
0
  6
CONTINUOUS
 10
-277.165049
 20
-145.0
 30
0.0
 11
-276.165049
 21
-144.0
 31
0.0
  0
LINE
  8
0
  6
CONTINUOUS
 10
-277.165049
 20
-145.0
 30
0.0
 11
-277.165049
 21
-155.000345
 31
0.0
  0
LINE
  8
0
  6
HIDDEN
 10
-72.049385
 20
-202.5
 30
0.0
 11
-72.049385
 21
-210.0
 31
0.0
  0
LINE
  8
0
  6
HIDDEN
 10
-102.5
 20
-202.5
 30
0.0
 11
-102.5
 21
-210.0
 31
0.0
  0
LINE
  8
0
  6
CONTINUOUS
 10
-60.0
 20
-202.5
 30
0.0
 11
-60.0
 21
-210.0
 31
0.0
  0
LINE
  8
0
  6
CONTINUOUS
 10
-65.0
 20
-202.5
 30
0.0
 11
-65.0
 21
-210.0
 31
0.0
  0
LINE
  8
0
  6
CONTINUOUS
 10
-135.0
 20
-202.5
 30
0.0
 11
-135.0
 21
-210.0
 31
0.0
  0
LINE
  8
0
  6
CONTINUOUS
 10
-150.0
 20
-202.5
 30
0.0
 11
-150.0
 21
-210.0
 31
0.0
  0
LINE
  8
0
  6
CONTINUOUS
 10
-162.5
 20
-202.5
 30
0.0
 11
-162.5
 21
-210.0
 31
0.0
  0
LINE
  8
0
  6
CONTINUOUS
 10
-162.5
 20
-213.144622
 30
0.0
 11
-163.5
 21
-212.144622
 31
0.0
  0
LINE
  8
0
  6
CONTINUOUS
 10
-59.999655
 20
-213.144622
 30
0.0
 11
-58.999655
 21
-212.144622
 31
0.0
  0
LINE
  8
0
  6
CONTINUOUS
 10
-162.5
 20
-213.144622
 30
0.0
 11
-59.999655
 21
-213.144622
 31
0.0
  0
TEXT
  8
0
  6
HIDDEN
 10
-114.015074
 20
-219.476806
 30
0.0
 40
2.0
  1
SHEET 2
  7
ROMANS
  0
LINE
  8
0
  6
DASHED
 10
10.700766
 20
-20.0
 30
0.0
 11
51.576691
 21
-20.0
 31
0.0
  0
TEXT
  8
0
  6
CONTINUOUS
 10
56.0915
 20
-146.455388
 30
0.0
 40
2.0
  1
RK 926 315-AC
  7
ROMANS
  0
TEXT
  8
0
  6
CONTINUOUS
 10
56.0915
 20
-143.412001
 30
0.0
 40
2.0
  1
RTXP 24
  7
ROMANS
  0
LINE
  8
0
  6
CONTINUOUS
 10
62.674162
 20
-165.978981
 30
0.0
 11
48.674162
 21
-165.978981
 31
0.0
  0
TEXT
  8
0
  6
DASHED
 10
75.224714
 20
-164.640816
 30
0.0
 40
2.0
  1
108:
  7
ROMANS
  0
LINE
  8
0
  6
CONTINUOUS
 10
62.674162
 20
-161.448457
 30
0.0
 11
94.431282
 21
-161.448457
 31
0.0
  0
TEXT
  8
0
  6
DASHED
 10
50.90314
 20
-169.438277
 30
0.0
 40
2.0
  1
101:
  7
ROMANS
  0
TEXT
  8
0
  6
CONTINUOUS
 10
50.90314
 20
-188.101807
 30
0.0
 40
2.0
  1
19B
  7
ROMANS
  0
TEXT
  8
0
  6
CONTINUOUS
 10
55.532561
 20
-135.206653
 30
0.0
 40
1.8
  1
(3U)
 50
90.0
  7
ROMANS
  0
LINE
  8
0
  6
CONTINUOUS
 10
56.811944
 20
-119.141775
 30
0.0
 11
68.864646
 21
-119.141775
 31
0.0
  0
LINE
  8
0
  6
CONTINUOUS
 10
68.864646
 20
-119.141775
 30
0.0
 11
68.864646
 21
-136.641775
 31
0.0
  0
LINE
  8
0
  6
CONTINUOUS
 10
68.864646
 20
-136.641775
 30
0.0
 11
56.811944
 21
-136.641775
 31
0.0
  0
LINE
  8
0
  6
CONTINUOUS
 10
56.811944
 20
-136.641775
 30
0.0
 11
56.811944
 21
-119.141775
 31
0.0
  0
TEXT
  8
0
  6
CONTINUOUS
 10
55.686036
 20
-140.083852
 30
0.0
 40
2.0
  1
18 X 5,08 = 91,44 mm
  7
ROMANS
  0
TEXT
  8
0
  6
CONTINUOUS
 10
52.158027
 20
-135.206653
 30
0.0
 40
1.8
  1
132,5 mm
 50
90.0
  7
ROMANS
  0
TEXT
  8
0
  6
CONTINUOUS
 10
60.177889
 20
-115.120528
 30
0.0
 40
2.0
  1
SPAC 531 C1
  7
ROMANS
  0
TEXT
  8
0
  6
CONTINUOUS
 10
84.77278
 20
-188.333517
 30
0.0
 40
2.0
  1
26
  7
ROMANS
  0
TEXT
  8
0
  6
CONTINUOUS
 10
67.462
 20
-188.333517
 30
0.0
 40
2.0
  1
27
  7
ROMANS
  0
TEXT
  8
0
  6
CONTINUOUS
 10
84.376353
 20
-210.472785
 30
0.0
 40
2.0
  1
21
  7
ROMANS
  0
TEXT
  8
0
  6
CONTINUOUS
 10
84.376353
 20
-206.621494
 30
0.0
 40
2.0
  1
18
  7
ROMANS
  0
TEXT
  8
0
  6
CONTINUOUS
 10
84.376353
 20
-202.549796
 30
0.0
 40
2.0
  1
15
  7
ROMANS
  0
TEXT
  8
0
  6
CONTINUOUS
 10
67.447836
 20
-210.483805
 30
0.0
 40
2.0
  1
20
  7
ROMANS
  0
TEXT
  8
0
  6
CONTINUOUS
 10
67.435602
 20
-206.610474
 30
0.0
 40
2.0
  1
17
  7
ROMANS
  0
TEXT
  8
0
  6
CONTINUOUS
 10
67.435602
 20
-202.527755
 30
0.0
 40
2.0
  1
14
  7
ROMANS
  0
LINE
  8
0
  6
CONTINUOUS
 10
62.674162
 20
-189.90978
 30
0.0
 11
94.431282
 21
-189.90978
 31
0.0
  0
TEXT
  8
0
  6
HIDDEN
 10
50.93997
 20
-210.508009
 30
0.0
 40
2.0
  1
23B
  7
ROMANS
  0
TEXT
  8
0
  6
HIDDEN
 10
50.93997
 20
-206.59845
 30
0.0
 40
2.0
  1
22B
  7
ROMANS
  0
TEXT
  8
0
  6
HIDDEN
 10
50.93997
 20
-202.525896
 30
0.0
 40
2.0
  1
21B
  7
ROMANS
  0
TEXT
  8
0
  6
HIDDEN
 10
50.970707
 20
-198.437134
 30
0.0
 40
2.0
  1
24B
  7
ROMANS
  0
LINE
  8
0
 10
94.431282
 20
-152.478981
 30
0.0
 11
48.674162
 21
-152.478981
 31
0.0
  0
TEXT
  8
0
  6
CONTINUOUS
 10
85.826723
 20
-179.82614
 30
0.0
 40
2.0
  1
5
  7
ROMANS
  0
TEXT
  8
0
  6
CONTINUOUS
 10
68.865913
 20
-179.82614
 30
0.0
 40
2.0
  1
6
  7
ROMANS
  0
TEXT
  8
0
  6
CONTINUOUS
 10
50.90314
 20
-179.83716
 30
0.0
 40
2.0
  1
15B
  7
ROMANS
  0
TEXT
  8
0
  6
CONTINUOUS
 10
102.026384
 20
-107.5
 30
0.0
 40
1.8
  1
132,5 mm
 50
90.0
  7
ROMANS
  0
TEXT
  8
0
  6
CONTINUOUS
 10
66.984574
 20
-90.763013
 30
0.0
 40
1.8
  1
482,6 mm
  7
ROMANS
  0
LINE
  8
0
  6
CONTINUOUS
 10
97.854145
 20
-110.0
 30
0.0
 11
45.354145
 21
-110.0
 31
0.0
  0
LINE
  8
0
  6
CONTINUOUS
 10
97.854145
 20
-92.5
 30
0.0
 11
97.854145
 21
-110.0
 31
0.0
  0
LINE
  8
0
  6
CONTINUOUS
 10
45.354145
 20
-92.5
 30
0.0
 11
97.854145
 21
-92.5
 31
0.0
  0
TEXT
  8
0
  6
CONTINUOUS
 10
84.534247
 20
-198.465695
 30
0.0
 40
2.0
  1
30
  7
ROMANS
  0
TEXT
  8
0
  6
CONTINUOUS
 10
67.646481
 20
-198.465695
 30
0.0
 40
2.0
  1
29
  7
ROMANS
  0
TEXT
  8
0
  6
CONTINUOUS
 10
80.078986
 20
-193.37605
 30
0.0
 40
2.0
  1
Un=110V
  7
ROMANS
  0
TEXT
  8
0
  6
CONTINUOUS
 10
64.180606
 20
-193.37605
 30
0.0
 40
2.0
  1
Un=100V
  7
ROMANS
  0
TEXT
  8
0
  6
DASHED
 10
86.025078
 20
-175.781663
 30
0.0
 40
2.0
  1
2
  7
ROMANS
  0
TEXT
  8
0
  6
DASHED
 10
69.003403
 20
-175.781663
 30
0.0
 40
2.0
  1
3
  7
ROMANS
  0
TEXT
  8
0
  6
DASHED
 10
50.90314
 20
-175.781663
 30
0.0
 40
2.0
  1
13B
  7
ROMANS
  0
TEXT
  8
0
  6
DASHED
 10
81.835679
 20
-169.510222
 30
0.0
 40
2.0
  1
In=5A
  7
ROMANS
  0
LINE
  8
0
 10
62.674162
 20
-170.478981
 30
0.0
 11
94.431282
 21
-170.478981
 31
0.0
  0
TEXT
  8
0
  6
CONTINUOUS
 10
85.857156
 20
-184.085184
 30
0.0
 40
2.0
  1
8
  7
ROMANS
  0
TEXT
  8
0
  6
CONTINUOUS
 10
68.850697
 20
-184.085184
 30
0.0
 40
2.0
  1
9
  7
ROMANS
  0
TEXT
  8
0
  6
CONTINUOUS
 10
50.90314
 20
-184.013223
 30
0.0
 40
2.0
  1
17B
  7
ROMANS
  0
TEXT
  8
0
  6
CONTINUOUS
 10
65.23984
 20
-169.830663
 30
0.0
 40
2.0
  1
In=1A
  7
ROMANS
  0
LINE
  8
0
  6
CONTINUOUS
 10
48.674162
 20
-211.451178
 30
0.0
 11
94.431282
 21
-211.451178
 31
0.0
  0
LINE
  8
0
 10
48.674162
 20
-152.478981
 30
0.0
 11
48.674162
 21
-211.451178
 31
0.0
  0
LINE
  8
0
 10
94.431282
 20
-211.451178
 30
0.0
 11
94.431282
 21
-152.478981
 31
0.0
  0
LINE
  8
0
 10
62.674162
 20
-165.978981
 30
0.0
 11
94.431282
 21
-165.978981
 31
0.0
  0
LINE
  8
0
 10
62.674162
 20
-152.478981
 30
0.0
 11
62.674162
 21
-211.451178
 31
0.0
  0
LINE
  8
0
 10
78.7971
 20
-165.978981
 30
0.0
 11
78.7971
 21
-211.451178
 31
0.0
  0
LINE
  8
0
 10
62.674162
 20
-194.4059
 30
0.0
 11
94.431282
 21
-194.4059
 31
0.0
  0
TEXT
  8
0
 10
63.082869
 20
-157.812315
 30
0.0
 40
2.0
  1
TERMINALS / UTTAG
  7
ROMANS
 11
63.082869
 21
-158.478981
 31
0.0
 73
     1
  0
TEXT
  8
0
  6
CONTINUOUS
 10
-283.84985
 20
-173.880491
 30
0.0
 40
2.0
  1
5c)
  7
ROMANS
  0
TEXT
  8
0
  6
CONTINUOUS
 10
-283.84985
 20
-150.611305
 30
0.0
 40
2.0
  1
5b)
  7
ROMANS
  0
TEXT
  8
0
  6
CONTINUOUS
 10
-283.84985
 20
-133.392304
 30
0.0
 40
2.0
  1
5a)
  7
ROMANS
  0
ENDBLK
  8
0
  0
BLOCK
  8
0
  2
B37
 70
    64
 10
0.0
 20
0.0
 30
0.0
  3
B37
  0
LINE
  8
BASE
  6
CONTINUOUS
 10
-0.006589
 20
-6.018035
 30
0.0
 11
2.434804
 21
0.662841
 31
0.0
  0
LINE
  8
BASE
  6
CONTINUOUS
 10
0.0
 20
0.0
 30
0.0
 11
2.765661
 21
0.0
 31
0.0
  0
LINE
  8
BASE
  6
CONTINUOUS
 10
2.434804
 20
0.662841
 30
0.0
 11
1.549106
 21
1.107734
 31
0.0
  0
CIRCLE
  8
BASE
  6
CONTINUOUS
 10
0.0
 20
-6.758945
 30
0.0
 40
0.740939
  0
ENDBLK
  8
0
  0
BLOCK
  8
0
  2
B231
 70
    64
 10
0.0
 20
0.0
 30
0.0
  3
B231
  0
LINE
  8
BASE
  6
CONTINUOUS
 10
1.735546
 20
-0.013541
 30
0.0
 11
0.068173
 21
-0.013541
 31
0.0
  0
LINE
  8
BASE
  6
CONTINUOUS
 10
1.735546
 20
1.673424
 30
0.0
 11
1.735546
 21
-0.013541
 31
0.0
  0
LINE
  8
BASE
  6
CONTINUOUS
 10
0.068173
 20
1.673424
 30
0.0
 11
1.735546
 21
1.673424
 31
0.0
  0
LINE
  8
BASE
  6
CONTINUOUS
 10
0.068173
 20
-0.013541
 30
0.0
 11
0.068173
 21
1.673424
 31
0.0
  0
ENDBLK
  8
0
  0
ENDSEC
  0
SECTION
  2
ENTITIES
  0
INSERT
  8
0
  2
1
 10
65.405438
 20
98.713066
 30
0.0
  0
INSERT
  8
0
  2
1
 10
72.541652
 20
49.71056
 30
0.0
  0
INSERT
  8
0
  2
1
 10
85.390443
 20
73.497234
 30
0.0
  0
LINE
  8
0
  6
CENTER
 62
   249
 10
265.0
 20
200.0
 30
0.0
 11
265.0
 21
92.5
 31
0.0
  0
LINE
  8
0
  6
CENTER
 62
   249
 10
265.0
 20
92.5
 30
0.0
 11
265.0
 21
62.5
 31
0.0
  0
LINE
  8
0
  6
CONTINUOUS
 62
   249
 10
215.450615
 20
192.209828
 30
0.0
 11
215.450615
 21
115.0
 31
0.0
  0
LINE
  8
0
  6
CONTINUOUS
 62
   249
 10
215.450615
 20
220.0
 30
0.0
 11
215.450615
 21
192.18832
 31
0.0
  0
LINE
  8
0
  6
CENTER
 62
   249
 10
265.0
 20
222.5
 30
0.0
 11
265.0
 21
200.0
 31
0.0
  0
LINE
  8
0
  6
CONTINUOUS
 62
   249
 10
205.0
 20
115.0
 30
0.0
 11
205.0
 21
220.0
 31
0.0
  0
LINE
  8
0
  6
CONTINUOUS
 62
   249
 10
185.0
 20
205.0
 30
0.0
 11
185.0
 21
190.0
 31
0.0
  0
LINE
  8
0
  6
CONTINUOUS
 62
   249
 10
185.0
 20
205.0
 30
0.0
 11
185.0
 21
220.0
 31
0.0
  0
LINE
  8
0
  6
CONTINUOUS
 62
   249
 10
185.0
 20
190.0
 30
0.0
 11
185.0
 21
115.0
 31
0.0
  0
LINE
  8
0
  6
CENTER
 62
   249
 10
45.0
 20
247.5
 30
0.0
 11
45.0
 21
62.5
 31
0.0
  0
LINE
  8
0
  6
CONTINUOUS
 62
   249
 10
67.5
 20
137.5
 30
0.0
 11
61.756076
 21
134.285297
 31
0.0
  0
LINE
  8
0
  6
CONTINUOUS
 62
   249
 10
80.0
 20
127.5
 30
0.0
 11
74.256076
 21
124.285297
 31
0.0
  0
LINE
  8
0
  6
CONTINUOUS
 62
   249
 10
80.0
 20
127.5
 30
0.0
 11
82.5
 21
127.5
 31
0.0
  0
LINE
  8
0
  6
CONTINUOUS
 62
   249
 10
75.0
 20
127.5
 30
0.0
 11
45.0
 21
127.5
 31
0.0
  0
LINE
  8
0
  6
DASHED
 62
   249
 10
65.0
 20
142.5
 30
0.0
 11
65.0
 21
136.100824
 31
0.0
  0
LINE
  8
0
  6
DASHED
 62
   249
 10
77.5
 20
140.0
 30
0.0
 11
77.5
 21
126.100824
 31
0.0
  0
LINE
  8
0
  6
DASHED
 62
   249
 10
90.0
 20
140.0
 30
0.0
 11
90.0
 21
111.100824
 31
0.0
  0
LINE
  8
0
  6
DASHED
 62
   249
 10
102.5
 20
140.0
 30
0.0
 11
102.5
 21
96.100824
 31
0.0
  0
LINE
  8
0
  6
DASHED
 62
   249
 10
112.5
 20
117.5
 30
0.0
 11
112.5
 21
81.100824
 31
0.0
  0
TEXT
  8
0
  6
DASHED
 62
   249
 10
60.697373
 20
138.403492
 30
0.0
 40
2.0
  1
A
  7
ROMANS
  0
TEXT
  8
0
  6
DASHED
 62
   249
 10
74.143373
 20
128.774588
 30
0.0
 40
2.0
  1
B
  7
ROMANS
  0
TEXT
  8
0
  6
DASHED
 62
   249
 10
86.055109
 20
113.134364
 30
0.0
 40
2.0
  1
C
  7
ROMANS
  0
TEXT
  8
0
  6
DASHED
 62
   249
 10
98.484014
 20
98.255752
 30
0.0
 40
2.0
  1
D
  7
ROMANS
  0
TEXT
  8
0
  6
DASHED
 62
   249
 10
108.171573
 20
83.364654
 30
0.0
 40
2.0
  1
E
  7
ROMANS
  0
LINE
  8
0
  6
CENTER
 62
   249
 10
45.0
 20
62.5
 30
0.0
 11
265.0
 21
62.5
 31
0.0
  0
LINE
  8
0
  6
CONTINUOUS
 62
   249
 10
245.0
 20
182.5
 30
0.0
 11
246.0
 21
181.5
 31
0.0
  0
LINE
  8
0
  6
CONTINUOUS
 62
   249
 10
245.0
 20
227.5
 30
0.0
 11
246.0
 21
228.5
 31
0.0
  0
LINE
  8
0
  6
CONTINUOUS
 62
   249
 10
245.0
 20
227.5
 30
0.0
 11
245.0
 21
182.5
 31
0.0
  0
LINE
  8
0
  6
CENTER
 62
   249
 10
265.0
 20
222.5
 30
0.0
 11
265.0
 21
247.5
 31
0.0
  0
LINE
  8
0
  6
CENTER
 62
   249
 10
265.0
 20
247.5
 30
0.0
 11
45.0
 21
247.5
 31
0.0
  0
LINE
  8
0
  6
CONTINUOUS
 62
   249
 10
185.0
 20
152.5
 30
0.0
 11
215.450615
 21
152.5
 31
0.0
  0
LINE
  8
0
  6
CONTINUOUS
 62
   249
 10
112.5
 20
180.0
 30
0.0
 11
112.5
 21
117.5
 31
0.0
  0
LINE
  8
0
  6
CONTINUOUS
 62
   249
 10
204.245375
 20
211.710612
 30
0.0
 11
204.245375
 21
209.922481
 31
0.0
  0
LINE
  8
0
  6
CONTINUOUS
 62
   249
 10
198.845856
 20
209.697731
 30
0.0
 11
201.721966
 21
212.526289
 31
0.0
  0
ARC
  8
0
  6
HIDDEN
 62
   249
 10
203.156579
 20
214.793878
 30
0.0
 40
4.998196
 50
206.402922
 51
282.21115
  0
LINE
  8
0
  6
CONTINUOUS
 62
   249
 10
201.291263
 20
213.063496
 30
0.0
 11
202.19194
 21
211.939747
 31
0.0
  0
LINE
  8
0
  6
CONTINUOUS
 62
   249
 10
196.461711
 20
210.865333
 30
0.0
 11
204.249916
 21
210.865333
 31
0.0
  0
LINE
  8
0
  6
CONTINUOUS
 62
   249
 10
196.430679
 20
211.710612
 30
0.0
 11
196.430679
 21
209.922481
 31
0.0
  0
LINE
  8
0
  6
HIDDEN
 62
   249
 10
185.0
 20
167.5
 30
0.0
 11
205.0
 21
167.5
 31
0.0
  0
LINE
  8
0
  6
HIDDEN
 62
   249
 10
185.0
 20
162.5
 30
0.0
 11
205.0
 21
162.5
 31
0.0
  0
LINE
  8
0
  6
HIDDEN
 62
   249
 10
185.0
 20
177.5
 30
0.0
 11
205.0
 21
177.5
 31
0.0
  0
LINE
  8
0
  6
CONTINUOUS
 62
   249
 10
191.941403
 20
181.177597
 30
0.0
 11
194.287169
 21
179.842244
 31
0.0
  0
LINE
  8
0
  6
CONTINUOUS
 62
   249
 10
194.287169
 20
179.842244
 30
0.0
 11
191.941403
 21
178.652325
 31
0.0
  0
LINE
  8
0
  6
HIDDEN
 62
   249
 10
187.5
 20
202.5
 30
0.0
 11
205.0
 21
202.5
 31
0.0
  0
TEXT
  8
0
  6
CONTINUOUS
 62
   249
 10
188.770128
 20
197.3404
 30
0.0
 40
2.5
  1
I
 11
188.770128
 21
196.507066
 31
0.0
 73
     1
  0
LINE
  8
0
  6
CONTINUOUS
 62
   249
 10
194.337442
 20
198.543003
 30
0.0
 11
191.991677
 21
197.353084
 31
0.0
  0
LINE
  8
0
  6
CONTINUOUS
 62
   249
 10
191.991677
 20
199.878357
 30
0.0
 11
194.337442
 21
198.543003
 31
0.0
  0
LINE
  8
0
  6
CONTINUOUS
 62
   249
 10
192.678827
 20
198.543003
 30
0.0
 11
190.333062
 21
197.353084
 31
0.0
  0
LINE
  8
0
  6
CONTINUOUS
 62
   249
 10
190.333062
 20
199.878357
 30
0.0
 11
192.678827
 21
198.543003
 31
0.0
  0
LINE
  8
0
  6
CONTINUOUS
 62
   249
 10
204.245829
 20
199.115882
 30
0.0
 11
204.245829
 21
197.32775
 31
0.0
  0
LINE
  8
0
  6
CONTINUOUS
 62
   249
 10
198.84631
 20
197.103
 30
0.0
 11
201.72242
 21
199.931559
 31
0.0
  0
LINE
  8
0
  6
CONTINUOUS
 62
   249
 10
201.291717
 20
200.468766
 30
0.0
 11
202.192394
 21
199.345017
 31
0.0
  0
LINE
  8
0
  6
CONTINUOUS
 62
   249
 10
196.462165
 20
198.270603
 30
0.0
 11
204.25037
 21
198.270603
 31
0.0
  0
LINE
  8
0
  6
CONTINUOUS
 62
   249
 10
196.431134
 20
199.115882
 30
0.0
 11
196.431134
 21
197.32775
 31
0.0
  0
LINE
  8
0
  6
HIDDEN
 62
   249
 10
187.5
 20
207.5
 30
0.0
 11
205.0
 21
207.5
 31
0.0
  0
LINE
  8
0
  6
CONTINUOUS
 62
   249
 10
190.333062
 20
206.230934
 30
0.0
 11
192.678827
 21
204.895581
 31
0.0
  0
LINE
  8
0
  6
CONTINUOUS
 62
   249
 10
192.678827
 20
204.895581
 30
0.0
 11
190.333062
 21
203.705662
 31
0.0
  0
LINE
  8
0
  6
CONTINUOUS
 62
   249
 10
191.991677
 20
206.230934
 30
0.0
 11
194.337442
 21
204.895581
 31
0.0
  0
LINE
  8
0
  6
CONTINUOUS
 62
   249
 10
194.337442
 20
204.895581
 30
0.0
 11
191.991677
 21
203.705662
 31
0.0
  0
TEXT
  8
0
  6
CONTINUOUS
 62
   249
 10
188.770128
 20
203.692977
 30
0.0
 40
2.5
  1
I
 11
188.770128
 21
202.859644
 31
0.0
 73
     1
  0
LINE
  8
0
  6
HIDDEN
 62
   249
 10
187.5
 20
215.0
 30
0.0
 11
205.0
 21
215.0
 31
0.0
  0
TEXT
  8
0
  6
CONTINUOUS
 62
   249
 10
188.770128
 20
209.752437
 30
0.0
 40
2.5
  1
I
 11
188.770128
 21
208.919104
 31
0.0
 73
     1
  0
LINE
  8
0
  6
CONTINUOUS
 62
   249
 10
193.906117
 20
210.955041
 30
0.0
 11
191.560351
 21
209.765121
 31
0.0
  0
LINE
  8
0
  6
CONTINUOUS
 62
   249
 10
191.560351
 20
212.290394
 30
0.0
 11
193.906117
 21
210.955041
 31
0.0
  0
LINE
  8
0
  6
CONTINUOUS
 62
   249
 10
185.0
 20
220.0
 30
0.0
 11
215.450615
 21
220.0
 31
0.0
  0
LINE
  8
0
  6
CONTINUOUS
 62
   249
 10
191.560351
 20
218.279314
 30
0.0
 11
193.906117
 21
216.94396
 31
0.0
  0
LINE
  8
0
  6
CONTINUOUS
 62
   249
 10
193.906117
 20
216.94396
 30
0.0
 11
191.560351
 21
215.754041
 31
0.0
  0
TEXT
  8
0
  6
CONTINUOUS
 62
   249
 10
188.770128
 20
215.741357
 30
0.0
 40
2.5
  1
I
 11
188.770128
 21
214.908023
 31
0.0
 73
     1
  0
TEXT
  8
0
  6
CONTINUOUS
 62
   249
 10
210.0
 20
215.0
 30
0.0
 40
2.5
  1
U1
  7
ROMANS
  0
LINE
  8
0
  6
CONTINUOUS
 62
   249
 10
213.262126
 20
201.590072
 30
0.0
 11
215.079543
 21
200.555487
 31
0.0
  0
LINE
  8
0
  6
CONTINUOUS
 62
   249
 10
215.079543
 20
200.555487
 30
0.0
 11
213.262126
 21
199.633579
 31
0.0
  0
LINE
  8
0
  6
CONTINUOUS
 62
   249
 10
57.798812
 20
220.0
 30
0.0
 11
52.5
 21
220.0
 31
0.0
  0
LINE
  8
0
  6
CONTINUOUS
 62
   249
 10
57.798812
 20
225.0
 30
0.0
 11
45.0
 21
225.0
 31
0.0
  0
LINE
  8
0
 62
   249
 10
57.798812
 20
226.589925
 30
0.0
 11
57.798812
 21
218.4
 31
0.0
  0
LINE
  8
0
 62
   249
 10
62.004853
 20
226.59384
 30
0.0
 11
60.09105
 21
224.315018
 31
0.0
  0
LINE
  8
0
 62
   249
 10
63.496971
 20
226.59384
 30
0.0
 11
61.642636
 21
224.315018
 31
0.0
  0
LINE
  8
0
 62
   249
 10
65.221556
 20
226.589925
 30
0.0
 11
57.798812
 21
226.589925
 31
0.0
  0
LINE
  8
0
 62
   249
 10
65.221556
 20
218.4
 30
0.0
 11
65.221556
 21
226.589925
 31
0.0
  0
LINE
  8
0
  6
CONTINUOUS
 62
   249
 10
65.221556
 20
222.5
 30
0.0
 11
70.0
 21
222.5
 31
0.0
  0
LINE
  8
0
  6
CONTINUOUS
 62
   249
 10
65.221556
 20
215.0
 30
0.0
 11
172.5
 21
215.0
 31
0.0
  0
LINE
  8
0
 62
   249
 10
65.221556
 20
211.204212
 30
0.0
 11
65.221556
 21
219.089925
 31
0.0
  0
LINE
  8
0
 62
   249
 10
65.221556
 20
218.704212
 30
0.0
 11
57.798812
 21
218.704212
 31
0.0
  0
LINE
  8
0
 62
   249
 10
63.496971
 20
218.708127
 30
0.0
 11
61.642636
 21
216.429305
 31
0.0
  0
LINE
  8
0
 62
   249
 10
62.004853
 20
218.708127
 30
0.0
 11
60.09105
 21
216.429305
 31
0.0
  0
LINE
  8
0
 62
   249
 10
57.798812
 20
219.089925
 30
0.0
 11
57.798812
 21
211.204212
 31
0.0
  0
LINE
  8
0
  6
CONTINUOUS
 62
   249
 10
57.798812
 20
217.5
 30
0.0
 11
45.0
 21
217.5
 31
0.0
  0
LINE
  8
0
  6
CONTINUOUS
 62
   249
 10
57.798812
 20
212.5
 30
0.0
 11
52.5
 21
212.5
 31
0.0
  0
LINE
  8
0
 62
   249
 10
65.221556
 20
211.204212
 30
0.0
 11
57.798812
 21
211.204212
 31
0.0
  0
LINE
  8
0
  6
CONTINUOUS
 62
   249
 10
237.5
 20
105.0
 30
0.0
 11
245.0
 21
105.0
 31
0.0
  0
LINE
  8
0
 62
   249
 10
250.0
 20
142.5
 30
0.0
 11
248.480133
 21
142.5
 31
0.0
  0
ARC
  8
0
 62
   249
 10
250.065849
 20
143.75
 30
0.0
 40
1.251733
 50
266.984476
 51
93.015524
  0
LINE
  8
0
 62
   249
 10
250.0
 20
145.0
 30
0.0
 11
248.480133
 21
145.0
 31
0.0
  0
LINE
  8
0
 62
   249
 10
250.0
 20
147.5
 30
0.0
 11
248.480133
 21
147.5
 31
0.0
  0
ARC
  8
0
 62
   249
 10
250.065849
 20
146.25
 30
0.0
 40
1.251733
 50
266.984476
 51
93.015524
  0
LINE
  8
0
 62
   249
 10
255.0
 20
140.0
 30
0.0
 11
257.5
 21
140.0
 31
0.0
  0
ARC
  8
0
 62
   249
 10
254.934151
 20
141.25
 30
0.0
 40
1.251733
 50
86.984476
 51
273.015524
  0
ARC
  8
0
 62
   249
 10
254.934151
 20
143.75
 30
0.0
 40
1.251733
 50
86.984476
 51
273.015524
  0
LINE
  8
0
 62
   249
 10
255.0
 20
142.5
 30
0.0
 11
257.5
 21
142.5
 31
0.0
  0
LINE
  8
0
 62
   249
 10
255.0
 20
145.0
 30
0.0
 11
257.5
 21
145.0
 31
0.0
  0
LINE
  8
0
 62
   249
 10
257.5
 20
145.0
 30
0.0
 11
260.0
 21
145.0
 31
0.0
  0
LINE
  8
0
 62
   249
 10
257.5
 20
140.0
 30
0.0
 11
265.0
 21
140.0
 31
0.0
  0
LINE
  8
0
 62
   249
 10
257.5
 20
145.0
 30
0.0
 11
265.0
 21
145.0
 31
0.0
  0
LINE
  8
0
 62
   249
 10
257.5
 20
150.0
 30
0.0
 11
265.0
 21
150.0
 31
0.0
  0
LINE
  8
0
 62
   249
 10
255.0
 20
150.0
 30
0.0
 11
257.5
 21
150.0
 31
0.0
  0
LINE
  8
0
 62
   249
 10
255.0
 20
147.5
 30
0.0
 11
257.5
 21
147.5
 31
0.0
  0
ARC
  8
0
 62
   249
 10
254.934151
 20
148.75
 30
0.0
 40
1.251733
 50
86.984476
 51
273.015524
  0
ARC
  8
0
 62
   249
 10
254.934151
 20
146.25
 30
0.0
 40
1.251733
 50
86.984476
 51
273.015524
  0
LINE
  8
0
 62
   249
 10
255.0
 20
145.0
 30
0.0
 11
257.5
 21
145.0
 31
0.0
  0
LINE
  8
0
 62
   249
 10
250.0
 20
182.5
 30
0.0
 11
248.480133
 21
182.5
 31
0.0
  0
ARC
  8
0
 62
   249
 10
250.065849
 20
183.75
 30
0.0
 40
1.251733
 50
266.984476
 51
93.015524
  0
LINE
  8
0
 62
   249
 10
250.0
 20
185.0
 30
0.0
 11
248.480133
 21
185.0
 31
0.0
  0
LINE
  8
0
 62
   249
 10
250.0
 20
187.5
 30
0.0
 11
248.480133
 21
187.5
 31
0.0
  0
ARC
  8
0
 62
   249
 10
250.065849
 20
186.25
 30
0.0
 40
1.251733
 50
266.984476
 51
93.015524
  0
LINE
  8
0
 62
   249
 10
255.0
 20
180.0
 30
0.0
 11
257.5
 21
180.0
 31
0.0
  0
ARC
  8
0
 62
   249
 10
254.934151
 20
181.25
 30
0.0
 40
1.251733
 50
86.984476
 51
273.015524
  0
ARC
  8
0
 62
   249
 10
254.934151
 20
183.75
 30
0.0
 40
1.251733
 50
86.984476
 51
273.015524
  0
LINE
  8
0
 62
   249
 10
255.0
 20
182.5
 30
0.0
 11
257.5
 21
182.5
 31
0.0
  0
LINE
  8
0
 62
   249
 10
255.0
 20
185.0
 30
0.0
 11
257.5
 21
185.0
 31
0.0
  0
LINE
  8
0
 62
   249
 10
257.5
 20
185.0
 30
0.0
 11
260.0
 21
185.0
 31
0.0
  0
LINE
  8
0
 62
   249
 10
257.5
 20
180.0
 30
0.0
 11
265.0
 21
180.0
 31
0.0
  0
LINE
  8
0
 62
   249
 10
257.5
 20
185.0
 30
0.0
 11
265.0
 21
185.0
 31
0.0
  0
LINE
  8
0
 62
   249
 10
257.5
 20
190.0
 30
0.0
 11
265.0
 21
190.0
 31
0.0
  0
LINE
  8
0
 62
   249
 10
255.0
 20
190.0
 30
0.0
 11
257.5
 21
190.0
 31
0.0
  0
LINE
  8
0
 62
   249
 10
255.0
 20
187.5
 30
0.0
 11
257.5
 21
187.5
 31
0.0
  0
ARC
  8
0
 62
   249
 10
254.934151
 20
188.75
 30
0.0
 40
1.251733
 50
86.984476
 51
273.015524
  0
ARC
  8
0
 62
   249
 10
254.934151
 20
186.25
 30
0.0
 40
1.251733
 50
86.984476
 51
273.015524
  0
LINE
  8
0
 62
   249
 10
255.0
 20
185.0
 30
0.0
 11
257.5
 21
185.0
 31
0.0
  0
LINE
  8
0
 62
   249
 10
250.0
 20
202.5
 30
0.0
 11
248.480133
 21
202.5
 31
0.0
  0
ARC
  8
0
 62
   249
 10
250.065849
 20
203.75
 30
0.0
 40
1.251733
 50
266.984476
 51
93.015524
  0
LINE
  8
0
 62
   249
 10
250.0
 20
205.0
 30
0.0
 11
248.480133
 21
205.0
 31
0.0
  0
LINE
  8
0
 62
   249
 10
250.0
 20
207.5
 30
0.0
 11
248.480133
 21
207.5
 31
0.0
  0
ARC
  8
0
 62
   249
 10
250.065849
 20
206.25
 30
0.0
 40
1.251733
 50
266.984476
 51
93.015524
  0
LINE
  8
0
 62
   249
 10
255.0
 20
200.0
 30
0.0
 11
257.5
 21
200.0
 31
0.0
  0
ARC
  8
0
 62
   249
 10
254.934151
 20
201.25
 30
0.0
 40
1.251733
 50
86.984476
 51
273.015524
  0
ARC
  8
0
 62
   249
 10
254.934151
 20
203.75
 30
0.0
 40
1.251733
 50
86.984476
 51
273.015524
  0
LINE
  8
0
 62
   249
 10
255.0
 20
202.5
 30
0.0
 11
257.5
 21
202.5
 31
0.0
  0
LINE
  8
0
 62
   249
 10
255.0
 20
205.0
 30
0.0
 11
257.5
 21
205.0
 31
0.0
  0
LINE
  8
0
 62
   249
 10
257.5
 20
205.0
 30
0.0
 11
260.0
 21
205.0
 31
0.0
  0
LINE
  8
0
 62
   249
 10
257.5
 20
200.0
 30
0.0
 11
265.0
 21
200.0
 31
0.0
  0
LINE
  8
0
 62
   249
 10
257.5
 20
205.0
 30
0.0
 11
265.0
 21
205.0
 31
0.0
  0
LINE
  8
0
 62
   249
 10
257.5
 20
210.0
 30
0.0
 11
265.0
 21
210.0
 31
0.0
  0
LINE
  8
0
 62
   249
 10
255.0
 20
210.0
 30
0.0
 11
257.5
 21
210.0
 31
0.0
  0
LINE
  8
0
 62
   249
 10
255.0
 20
207.5
 30
0.0
 11
257.5
 21
207.5
 31
0.0
  0
ARC
  8
0
 62
   249
 10
254.934151
 20
208.75
 30
0.0
 40
1.251733
 50
86.984476
 51
273.015524
  0
ARC
  8
0
 62
   249
 10
254.934151
 20
206.25
 30
0.0
 40
1.251733
 50
86.984476
 51
273.015524
  0
LINE
  8
0
 62
   249
 10
255.0
 20
205.0
 30
0.0
 11
257.5
 21
205.0
 31
0.0
  0
LINE
  8
0
 62
   249
 10
250.0
 20
222.5
 30
0.0
 11
248.480133
 21
222.5
 31
0.0
  0
ARC
  8
0
 62
   249
 10
250.065849
 20
223.75
 30
0.0
 40
1.251733
 50
266.984476
 51
93.015524
  0
LINE
  8
0
 62
   249
 10
250.0
 20
225.0
 30
0.0
 11
248.480133
 21
225.0
 31
0.0
  0
LINE
  8
0
 62
   249
 10
250.0
 20
227.5
 30
0.0
 11
248.480133
 21
227.5
 31
0.0
  0
ARC
  8
0
 62
   249
 10
250.065849
 20
226.25
 30
0.0
 40
1.251733
 50
266.984476
 51
93.015524
  0
LINE
  8
0
 62
   249
 10
255.0
 20
220.0
 30
0.0
 11
257.5
 21
220.0
 31
0.0
  0
ARC
  8
0
 62
   249
 10
254.934151
 20
221.25
 30
0.0
 40
1.251733
 50
86.984476
 51
273.015524
  0
ARC
  8
0
 62
   249
 10
254.934151
 20
223.75
 30
0.0
 40
1.251733
 50
86.984476
 51
273.015524
  0
LINE
  8
0
 62
   249
 10
255.0
 20
222.5
 30
0.0
 11
257.5
 21
222.5
 31
0.0
  0
LINE
  8
0
 62
   249
 10
255.0
 20
225.0
 30
0.0
 11
257.5
 21
225.0
 31
0.0
  0
LINE
  8
0
 62
   249
 10
257.5
 20
225.0
 30
0.0
 11
260.0
 21
225.0
 31
0.0
  0
LINE
  8
0
 62
   249
 10
257.5
 20
220.0
 30
0.0
 11
265.0
 21
220.0
 31
0.0
  0
LINE
  8
0
 62
   249
 10
257.5
 20
225.0
 30
0.0
 11
260.0
 21
225.0
 31
0.0
  0
LINE
  8
0
 62
   249
 10
257.5
 20
230.0
 30
0.0
 11
260.0
 21
230.0
 31
0.0
  0
LINE
  8
0
 62
   249
 10
255.0
 20
230.0
 30
0.0
 11
265.0
 21
230.0
 31
0.0
  0
LINE
  8
0
 62
   249
 10
255.0
 20
227.5
 30
0.0
 11
257.5
 21
227.5
 31
0.0
  0
ARC
  8
0
 62
   249
 10
254.934151
 20
228.75
 30
0.0
 40
1.251733
 50
86.984476
 51
273.015524
  0
ARC
  8
0
 62
   249
 10
254.934151
 20
226.25
 30
0.0
 40
1.251733
 50
86.984476
 51
273.015524
  0
LINE
  8
0
 62
   249
 10
255.0
 20
225.0
 30
0.0
 11
265.0
 21
225.0
 31
0.0
  0
TEXT
  8
0
  6
CONTINUOUS
 62
   249
 10
261.332442
 20
227.163714
 30
0.0
 40
2.0
  1
3
  7
ROMANS
  0
TEXT
  8
0
  6
CONTINUOUS
 62
   249
 10
261.332442
 20
222.199365
 30
0.0
 40
2.0
  1
2
  7
ROMANS
  0
TEXT
  8
0
  6
CONTINUOUS
 62
   249
 10
261.332442
 20
217.246037
 30
0.0
 40
2.0
  1
1
  7
ROMANS
  0
TEXT
  8
0
  6
CONTINUOUS
 62
   249
 10
261.332442
 20
187.106638
 30
0.0
 40
2.0
  1
9
  7
ROMANS
  0
TEXT
  8
0
  6
CONTINUOUS
 62
   249
 10
261.332442
 20
182.505961
 30
0.0
 40
2.0
  1
8
  7
ROMANS
  0
TEXT
  8
0
  6
CONTINUOUS
 62
   249
 10
261.332442
 20
177.001615
 30
0.0
 40
2.0
  1
7
  7
ROMANS
  0
LINE
  8
0
  6
HIDDEN
 62
   249
 10
265.0
 20
235.0
 30
0.0
 11
260.0
 21
235.0
 31
0.0
  0
LINE
  8
0
  6
HIDDEN
 62
   249
 10
260.0
 20
235.0
 30
0.0
 11
260.0
 21
75.0
 31
0.0
  0
LINE
  8
0
  6
HIDDEN
 62
   249
 10
260.0
 20
75.0
 30
0.0
 11
265.0
 21
75.0
 31
0.0
  0
TEXT
  8
0
  6
HIDDEN
 62
   249
 10
260.929881
 20
231.186149
 30
0.0
 40
2.0
  1
X0
  7
ROMANS
  0
LINE
  8
0
  6
CONTINUOUS
 62
   249
 10
245.0
 20
155.0
 30
0.0
 11
237.5
 21
155.0
 31
0.0
  0
LINE
  8
0
  6
CONTINUOUS
 62
   249
 10
245.0
 20
205.0
 30
0.0
 11
237.5
 21
205.0
 31
0.0
  0
LINE
  8
0
  6
CONTINUOUS
 62
   249
 10
363.185823
 20
161.796181
 30
0.0
 11
367.678973
 21
161.796181
 31
0.0
  0
TEXT
  8
0
  6
CONTINUOUS
 62
   249
 10
361.308659
 20
160.879555
 30
0.0
 40
2.0
  1
O
  0
TEXT
  8
0
  6
CONTINUOUS
 62
   249
 10
367.831775
 20
160.875304
 30
0.0
 40
2.0
  1
I
  0
LINE
  8
0
  6
CONTINUOUS
 62
   249
 10
355.727984
 20
155.0
 30
0.0
 11
355.727984
 21
257.5
 31
0.0
  0
LINE
  8
0
  6
CONTINUOUS
 62
   249
 10
375.727984
 20
197.5
 30
0.0
 11
355.727984
 21
197.5
 31
0.0
  0
LINE
  8
0
  6
CONTINUOUS
 62
   249
 10
375.727984
 20
257.5
 30
0.0
 11
375.727984
 21
155.0
 31
0.0
  0
LINE
  8
0
  6
CONTINUOUS
 62
   249
 10
355.727984
 20
257.5
 30
0.0
 11
375.727984
 21
257.5
 31
0.0
  0
LINE
  8
0
  6
CONTINUOUS
 62
   249
 10
355.727984
 20
225.0
 30
0.0
 11
375.727984
 21
225.0
 31
0.0
  0
LINE
  8
0
  6
CONTINUOUS
 62
   249
 10
361.32826
 20
235.552173
 30
0.0
 11
361.32826
 21
233.764041
 31
0.0
  0
LINE
  8
0
  6
CONTINUOUS
 62
   249
 10
361.359291
 20
234.706894
 30
0.0
 11
369.147496
 21
234.706894
 31
0.0
  0
LINE
  8
0
  6
CONTINUOUS
 62
   249
 10
363.743436
 20
233.539291
 30
0.0
 11
366.619546
 21
236.36785
 31
0.0
  0
LINE
  8
0
  6
CONTINUOUS
 62
   249
 10
366.188843
 20
236.905057
 30
0.0
 11
367.08952
 21
235.781308
 31
0.0
  0
LINE
  8
0
  6
CONTINUOUS
 62
   249
 10
369.142955
 20
235.552173
 30
0.0
 11
369.142955
 21
233.764041
 31
0.0
  0
LINE
  8
0
  6
CONTINUOUS
 62
   249
 10
371.177038
 20
242.00956
 30
0.0
 11
368.831273
 21
240.819641
 31
0.0
  0
LINE
  8
0
  6
CONTINUOUS
 62
   249
 10
368.831273
 20
243.344914
 30
0.0
 11
371.177038
 21
242.00956
 31
0.0
  0
LINE
  8
0
  6
CONTINUOUS
 62
   249
 10
366.821088
 20
243.344914
 30
0.0
 11
369.166854
 21
242.00956
 31
0.0
  0
LINE
  8
0
  6
CONTINUOUS
 62
   249
 10
369.166854
 20
242.00956
 30
0.0
 11
366.821088
 21
240.819641
 31
0.0
  0
LINE
  8
0
  6
CONTINUOUS
 62
   249
 10
369.142955
 20
247.706143
 30
0.0
 11
369.142955
 21
245.918012
 31
0.0
  0
LINE
  8
0
  6
CONTINUOUS
 62
   249
 10
363.743436
 20
245.693262
 30
0.0
 11
366.619546
 21
248.521821
 31
0.0
  0
ARC
  8
0
  6
HIDDEN
 62
   249
 10
368.054159
 20
250.789409
 30
0.0
 40
4.998196
 50
206.402922
 51
282.21115
  0
LINE
  8
0
  6
CONTINUOUS
 62
   249
 10
366.188843
 20
249.059027
 30
0.0
 11
367.08952
 21
247.935278
 31
0.0
  0
LINE
  8
0
  6
CONTINUOUS
 62
   249
 10
361.359291
 20
246.860865
 30
0.0
 11
369.147496
 21
246.860865
 31
0.0
  0
LINE
  8
0
  6
CONTINUOUS
 62
   249
 10
361.32826
 20
247.706143
 30
0.0
 11
361.32826
 21
245.918012
 31
0.0
  0
LINE
  8
0
  6
CONTINUOUS
 62
   249
 10
368.924329
 20
254.4814
 30
0.0
 11
366.578563
 21
253.291481
 31
0.0
  0
LINE
  8
0
  6
CONTINUOUS
 62
   249
 10
366.578563
 20
255.816754
 30
0.0
 11
368.924329
 21
254.4814
 31
0.0
  0
LINE
  8
0
  6
CONTINUOUS
 62
   249
 10
366.430299
 20
162.507003
 30
0.0
 11
367.678973
 21
161.796181
 31
0.0
  0
LINE
  8
0
  6
CONTINUOUS
 62
   249
 10
367.678973
 20
161.796181
 30
0.0
 11
366.430299
 21
161.162776
 31
0.0
  0
TEXT
  8
0
  6
CONTINUOUS
 62
   249
 10
208.537884
 20
172.744195
 30
0.0
 40
2.5
  1
U
  7
GREEKS
  0
TEXT
  8
0
  6
CONTINUOUS
 62
   249
 10
260.345388
 20
147.294439
 30
0.0
 40
2.0
  1
30
  7
ROMANS
  0
TEXT
  8
0
  6
CONTINUOUS
 62
   249
 10
260.345388
 20
142.245957
 30
0.0
 40
2.0
  1
29
  7
ROMANS
  0
TEXT
  8
0
  6
CONTINUOUS
 62
   249
 10
260.345388
 20
137.197475
 30
0.0
 40
2.0
  1
28
  7
ROMANS
  0
LINE
  8
0
  6
CONTINUOUS
 62
   249
 10
52.5
 20
212.5
 30
0.0
 11
45.0
 21
212.5
 31
0.0
  0
LINE
  8
0
  6
CONTINUOUS
 62
   249
 10
52.5
 20
220.0
 30
0.0
 11
52.5
 21
212.5
 31
0.0
  0
LINE
  8
0
  6
CONTINUOUS
 62
   249
 10
185.0
 20
182.5
 30
0.0
 11
215.450615
 21
182.5
 31
0.0
  0
LINE
  8
0
  6
CONTINUOUS
 62
   249
 10
194.900936
 20
172.460055
 30
0.0
 11
197.400936
 21
172.460055
 31
0.0
  0
LINE
  8
0
  6
CONTINUOUS
 62
   249
 10
194.900936
 20
172.460055
 30
0.0
 11
192.676489
 21
171.899413
 31
0.0
  0
LINE
  8
0
  6
CONTINUOUS
 62
   249
 10
189.900936
 20
172.460055
 30
0.0
 11
192.400936
 21
172.460055
 31
0.0
  0
TEXT
  8
0
  6
HIDDEN
 62
   249
 10
186.080478
 20
171.726807
 30
0.0
 40
1.5
  1
EN
  0
TEXT
  8
0
  6
HIDDEN
 62
   249
 10
186.080478
 20
174.667847
 30
0.0
 40
1.5
  1
EN
  0
LINE
  8
0
  6
CONTINUOUS
 62
   249
 10
189.900936
 20
175.401095
 30
0.0
 11
192.400936
 21
175.401095
 31
0.0
  0
LINE
  8
0
  6
CONTINUOUS
 62
   249
 10
194.900936
 20
175.401095
 30
0.0
 11
192.676489
 21
174.840453
 31
0.0
  0
LINE
  8
0
  6
CONTINUOUS
 62
   249
 10
194.900936
 20
175.401095
 30
0.0
 11
197.400936
 21
175.401095
 31
0.0
  0
LINE
  8
0
  6
CONTINUOUS
 62
   249
 10
183.01273
 20
172.471652
 30
0.0
 11
175.0
 21
172.471652
 31
0.0
  0
LINE
  8
0
  6
CONTINUOUS
 62
   249
 10
183.01273
 20
175.500813
 30
0.0
 11
172.5
 21
175.500813
 31
0.0
  0
CIRCLE
  8
0
  6
CONTINUOUS
 62
   249
 10
184.012659
 20
175.494509
 30
0.0
 40
1.0
  0
CIRCLE
  8
0
  6
CONTINUOUS
 62
   249
 10
184.012659
 20
172.465349
 30
0.0
 40
1.0
  0
LINE
  8
0
  6
CONTINUOUS
 62
   249
 10
196.431134
 20
170.090902
 30
0.0
 11
196.431134
 21
168.30277
 31
0.0
  0
LINE
  8
0
  6
CONTINUOUS
 62
   249
 10
196.462165
 20
169.245623
 30
0.0
 11
204.25037
 21
169.245623
 31
0.0
  0
LINE
  8
0
  6
CONTINUOUS
 62
   249
 10
201.291717
 20
171.443786
 30
0.0
 11
202.192394
 21
170.320037
 31
0.0
  0
LINE
  8
0
  6
CONTINUOUS
 62
   249
 10
198.84631
 20
168.078021
 30
0.0
 11
201.72242
 21
170.906579
 31
0.0
  0
LINE
  8
0
  6
CONTINUOUS
 62
   249
 10
204.245829
 20
170.090902
 30
0.0
 11
204.245829
 21
168.30277
 31
0.0
  0
LINE
  8
0
  6
CONTINUOUS
 62
   249
 10
191.955194
 20
166.061795
 30
0.0
 11
194.300959
 21
164.726442
 31
0.0
  0
LINE
  8
0
  6
CONTINUOUS
 62
   249
 10
194.300959
 20
164.726442
 30
0.0
 11
191.955194
 21
163.536523
 31
0.0
  0
LINE
  8
0
  6
CONTINUOUS
 62
   249
 10
193.470034
 20
166.061795
 30
0.0
 11
195.815799
 21
164.726442
 31
0.0
  0
LINE
  8
0
  6
CONTINUOUS
 62
   249
 10
195.815799
 20
164.726442
 30
0.0
 11
193.470034
 21
163.536523
 31
0.0
  0
LINE
  8
0
  6
CONTINUOUS
 62
   249
 10
194.900936
 20
160.401095
 30
0.0
 11
197.400936
 21
160.401095
 31
0.0
  0
LINE
  8
0
  6
CONTINUOUS
 62
   249
 10
194.900936
 20
160.401095
 30
0.0
 11
192.676489
 21
159.840453
 31
0.0
  0
LINE
  8
0
  6
CONTINUOUS
 62
   249
 10
189.900936
 20
160.401095
 30
0.0
 11
192.400936
 21
160.401095
 31
0.0
  0
TEXT
  8
0
  6
HIDDEN
 62
   249
 10
186.080478
 20
159.667847
 30
0.0
 40
1.5
  1
EN
  0
TEXT
  8
0
  6
HIDDEN
 62
   249
 10
186.080478
 20
156.726807
 30
0.0
 40
1.5
  1
EN
  0
LINE
  8
0
  6
CONTINUOUS
 62
   249
 10
189.900936
 20
157.460055
 30
0.0
 11
192.400936
 21
157.460055
 31
0.0
  0
LINE
  8
0
  6
CONTINUOUS
 62
   249
 10
194.900936
 20
157.460055
 30
0.0
 11
192.676489
 21
156.899413
 31
0.0
  0
LINE
  8
0
  6
CONTINUOUS
 62
   249
 10
194.900936
 20
157.460055
 30
0.0
 11
197.400936
 21
157.460055
 31
0.0
  0
LINE
  8
0
  6
CONTINUOUS
 62
   249
 10
183.01273
 20
160.500813
 30
0.0
 11
172.5
 21
160.500813
 31
0.0
  0
CIRCLE
  8
0
  6
CONTINUOUS
 62
   249
 10
184.012659
 20
160.494509
 30
0.0
 40
1.0
  0
LINE
  8
0
  6
CONTINUOUS
 62
   249
 10
204.245829
 20
154.989158
 30
0.0
 11
204.245829
 21
153.201026
 31
0.0
  0
LINE
  8
0
  6
CONTINUOUS
 62
   249
 10
198.84631
 20
152.976276
 30
0.0
 11
201.72242
 21
155.804835
 31
0.0
  0
LINE
  8
0
  6
CONTINUOUS
 62
   249
 10
201.291717
 20
156.342042
 30
0.0
 11
202.192394
 21
155.218293
 31
0.0
  0
LINE
  8
0
  6
CONTINUOUS
 62
   249
 10
196.462165
 20
154.143879
 30
0.0
 11
204.25037
 21
154.143879
 31
0.0
  0
LINE
  8
0
  6
CONTINUOUS
 62
   249
 10
196.431134
 20
154.989158
 30
0.0
 11
196.431134
 21
153.201026
 31
0.0
  0
TEXT
  8
0
  6
CONTINUOUS
 62
   249
 10
210.0
 20
178.275586
 30
0.0
 40
2.5
  1
U2
  7
ROMANS
  0
TEXT
  8
0
  6
CONTINUOUS
 62
   249
 10
210.001359
 20
148.158649
 30
0.0
 40
2.5
  1
U3
  7
ROMANS
  0
ARC
  8
0
 62
   249
 10
254.934151
 20
126.25
 30
0.0
 40
1.251733
 50
86.984476
 51
273.015524
  0
ARC
  8
0
 62
   249
 10
254.934151
 20
128.75
 30
0.0
 40
1.251733
 50
86.984476
 51
273.015524
  0
LINE
  8
0
 62
   249
 10
255.0
 20
127.5
 30
0.0
 11
257.5
 21
127.5
 31
0.0
  0
LINE
  8
0
 62
   249
 10
257.5
 20
130.0
 30
0.0
 11
260.0
 21
130.0
 31
0.0
  0
LINE
  8
0
 62
   249
 10
257.5
 20
125.0
 30
0.0
 11
260.0
 21
125.0
 31
0.0
  0
LINE
  8
0
 62
   249
 10
257.5
 20
125.0
 30
0.0
 11
260.0
 21
125.0
 31
0.0
  0
LINE
  8
0
 62
   249
 10
255.0
 20
125.0
 30
0.0
 11
265.0
 21
125.0
 31
0.0
  0
LINE
  8
0
 62
   249
 10
255.0
 20
122.5
 30
0.0
 11
257.5
 21
122.5
 31
0.0
  0
ARC
  8
0
 62
   249
 10
254.934151
 20
123.75
 30
0.0
 40
1.251733
 50
86.984476
 51
273.015524
  0
ARC
  8
0
 62
   249
 10
254.934151
 20
121.25
 30
0.0
 40
1.251733
 50
86.984476
 51
273.015524
  0
LINE
  8
0
 62
   249
 10
255.0
 20
120.0
 30
0.0
 11
257.5
 21
120.0
 31
0.0
  0
ARC
  8
0
 62
   249
 10
250.065849
 20
126.25
 30
0.0
 40
1.251733
 50
266.984476
 51
93.015524
  0
LINE
  8
0
 62
   249
 10
250.0
 20
127.5
 30
0.0
 11
248.480133
 21
127.5
 31
0.0
  0
LINE
  8
0
 62
   249
 10
250.0
 20
125.0
 30
0.0
 11
248.480133
 21
125.0
 31
0.0
  0
ARC
  8
0
 62
   249
 10
250.065849
 20
123.75
 30
0.0
 40
1.251733
 50
266.984476
 51
93.015524
  0
LINE
  8
0
 62
   249
 10
250.0
 20
122.5
 30
0.0
 11
248.480133
 21
122.5
 31
0.0
  0
LINE
  8
0
 62
   249
 10
255.0
 20
105.0
 30
0.0
 11
257.5
 21
105.0
 31
0.0
  0
ARC
  8
0
 62
   249
 10
254.934151
 20
106.25
 30
0.0
 40
1.251733
 50
86.984476
 51
273.015524
  0
ARC
  8
0
 62
   249
 10
254.934151
 20
108.75
 30
0.0
 40
1.251733
 50
86.984476
 51
273.015524
  0
LINE
  8
0
 62
   249
 10
255.0
 20
107.5
 30
0.0
 11
257.5
 21
107.5
 31
0.0
  0
LINE
  8
0
 62
   249
 10
257.5
 20
105.0
 30
0.0
 11
260.0
 21
105.0
 31
0.0
  0
LINE
  8
0
 62
   249
 10
255.0
 20
105.0
 30
0.0
 11
265.0
 21
105.0
 31
0.0
  0
LINE
  8
0
 62
   249
 10
255.0
 20
102.5
 30
0.0
 11
257.5
 21
102.5
 31
0.0
  0
ARC
  8
0
 62
   249
 10
254.934151
 20
103.75
 30
0.0
 40
1.251733
 50
86.984476
 51
273.015524
  0
ARC
  8
0
 62
   249
 10
254.934151
 20
101.25
 30
0.0
 40
1.251733
 50
86.984476
 51
273.015524
  0
LINE
  8
0
 62
   249
 10
255.0
 20
100.0
 30
0.0
 11
257.5
 21
100.0
 31
0.0
  0
ARC
  8
0
 62
   249
 10
250.065849
 20
106.25
 30
0.0
 40
1.251733
 50
266.984476
 51
93.015524
  0
LINE
  8
0
 62
   249
 10
250.0
 20
107.5
 30
0.0
 11
248.480133
 21
107.5
 31
0.0
  0
LINE
  8
0
 62
   249
 10
250.0
 20
105.0
 30
0.0
 11
248.480133
 21
105.0
 31
0.0
  0
ARC
  8
0
 62
   249
 10
250.065849
 20
103.75
 30
0.0
 40
1.251733
 50
266.984476
 51
93.015524
  0
LINE
  8
0
 62
   249
 10
250.0
 20
102.5
 30
0.0
 11
248.480133
 21
102.5
 31
0.0
  0
LINE
  8
0
 62
   249
 10
255.0
 20
85.0
 30
0.0
 11
257.5
 21
85.0
 31
0.0
  0
ARC
  8
0
 62
   249
 10
254.934151
 20
86.25
 30
0.0
 40
1.251733
 50
86.984476
 51
273.015524
  0
ARC
  8
0
 62
   249
 10
254.934151
 20
88.75
 30
0.0
 40
1.251733
 50
86.984476
 51
273.015524
  0
LINE
  8
0
 62
   249
 10
255.0
 20
87.5
 30
0.0
 11
257.5
 21
87.5
 31
0.0
  0
LINE
  8
0
 62
   249
 10
257.5
 20
85.0
 30
0.0
 11
260.0
 21
85.0
 31
0.0
  0
LINE
  8
0
 62
   249
 10
255.0
 20
85.0
 30
0.0
 11
265.0
 21
85.0
 31
0.0
  0
LINE
  8
0
 62
   249
 10
255.0
 20
82.5
 30
0.0
 11
257.5
 21
82.5
 31
0.0
  0
ARC
  8
0
 62
   249
 10
254.934151
 20
83.75
 30
0.0
 40
1.251733
 50
86.984476
 51
273.015524
  0
ARC
  8
0
 62
   249
 10
254.934151
 20
81.25
 30
0.0
 40
1.251733
 50
86.984476
 51
273.015524
  0
LINE
  8
0
 62
   249
 10
255.0
 20
80.0
 30
0.0
 11
257.5
 21
80.0
 31
0.0
  0
ARC
  8
0
 62
   249
 10
250.065849
 20
86.25
 30
0.0
 40
1.251733
 50
266.984476
 51
93.015524
  0
LINE
  8
0
 62
   249
 10
250.0
 20
87.5
 30
0.0
 11
248.480133
 21
87.5
 31
0.0
  0
LINE
  8
0
 62
   249
 10
250.0
 20
85.0
 30
0.0
 11
248.480133
 21
85.0
 31
0.0
  0
ARC
  8
0
 62
   249
 10
250.065849
 20
83.75
 30
0.0
 40
1.251733
 50
266.984476
 51
93.015524
  0
LINE
  8
0
 62
   249
 10
250.0
 20
82.5
 30
0.0
 11
248.480133
 21
82.5
 31
0.0
  0
LINE
  8
0
 62
   249
 10
255.0
 20
130.0
 30
0.0
 11
265.0
 21
130.0
 31
0.0
  0
LINE
  8
0
 62
   249
 10
257.5
 20
120.0
 30
0.0
 11
265.0
 21
120.0
 31
0.0
  0
LINE
  8
0
 62
   249
 10
255.0
 20
90.0
 30
0.0
 11
265.0
 21
90.0
 31
0.0
  0
LINE
  8
0
 62
   249
 10
257.5
 20
80.0
 30
0.0
 11
265.0
 21
80.0
 31
0.0
  0
LINE
  8
0
 62
   249
 10
257.5
 20
100.0
 30
0.0
 11
265.0
 21
100.0
 31
0.0
  0
LINE
  8
0
 62
   249
 10
255.0
 20
110.0
 30
0.0
 11
265.0
 21
110.0
 31
0.0
  0
LINE
  8
0
  6
CONTINUOUS
 62
   249
 10
245.0
 20
127.5
 30
0.0
 11
245.0
 21
82.5
 31
0.0
  0
LINE
  8
0
  6
CONTINUOUS
 62
   249
 10
245.0
 20
82.5
 30
0.0
 11
246.0
 21
81.5
 31
0.0
  0
LINE
  8
0
  6
CONTINUOUS
 62
   249
 10
245.0
 20
127.5
 30
0.0
 11
246.0
 21
128.5
 31
0.0
  0
TEXT
  8
0
  6
HIDDEN
 62
   249
 10
261.315128
 20
207.505131
 30
0.0
 40
2.0
  1
6
  7
ROMANS
  0
TEXT
  8
0
  6
HIDDEN
 62
   249
 10
261.315128
 20
202.453437
 30
0.0
 40
2.0
  1
5
  7
ROMANS
  0
TEXT
  8
0
  6
HIDDEN
 62
   249
 10
261.315128
 20
197.390728
 30
0.0
 40
2.0
  1
4
  7
ROMANS
  0
TEXT
  8
0
  6
HIDDEN
 62
   249
 10
260.318963
 20
127.459045
 30
0.0
 40
2.0
  1
15
  7
ROMANS
  0
TEXT
  8
0
  6
HIDDEN
 62
   249
 10
260.318963
 20
122.352276
 30
0.0
 40
2.0
  1
14
  7
ROMANS
  0
TEXT
  8
0
  6
HIDDEN
 62
   249
 10
260.318963
 20
117.344643
 30
0.0
 40
2.0
  1
13
  7
ROMANS
  0
TEXT
  8
0
  6
HIDDEN
 62
   249
 10
260.318963
 20
107.325125
 30
0.0
 40
2.0
  1
18
  7
ROMANS
  0
TEXT
  8
0
  6
HIDDEN
 62
   249
 10
260.318963
 20
102.328507
 30
0.0
 40
2.0
  1
17
  7
ROMANS
  0
TEXT
  8
0
  6
HIDDEN
 62
   249
 10
260.318963
 20
97.320874
 30
0.0
 40
2.0
  1
16
  7
ROMANS
  0
TEXT
  8
0
  6
HIDDEN
 62
   249
 10
260.86752
 20
87.455568
 30
0.0
 40
2.0
  1
21
  7
ROMANS
  0
TEXT
  8
0
  6
HIDDEN
 62
   249
 10
260.86752
 20
82.293723
 30
0.0
 40
2.0
  1
20
  7
ROMANS
  0
TEXT
  8
0
  6
HIDDEN
 62
   249
 10
260.306773
 20
77.297105
 30
0.0
 40
2.0
  1
19
  7
ROMANS
  0
LINE
  8
0
  6
CONTINUOUS
 62
   249
 10
245.0
 20
142.5
 30
0.0
 11
246.0
 21
141.5
 31
0.0
  0
LINE
  8
0
  6
CONTINUOUS
 62
   249
 10
245.0
 20
167.5
 30
0.0
 11
246.0
 21
168.5
 31
0.0
  0
LINE
  8
0
  6
CONTINUOUS
 62
   249
 10
245.0
 20
167.5
 30
0.0
 11
245.0
 21
142.5
 31
0.0
  0
TEXT
  8
0
  6
CONTINUOUS
 62
   249
 10
56.636438
 20
159.2654
 30
0.0
 40
2.0
  1
SGR
 50
90.0
  7
ROMANS
  0
LINE
  8
0
  6
CONTINUOUS
 62
   249
 10
60.0
 20
162.5
 30
0.0
 11
60.0
 21
172.5
 31
0.0
  0
LINE
  8
0
  6
CONTINUOUS
 62
   249
 10
60.0
 20
157.5
 30
0.0
 11
58.285914
 21
162.586297
 31
0.0
  0
LINE
  8
0
  6
CONTINUOUS
 62
   249
 10
60.0
 20
152.5
 30
0.0
 11
60.0
 21
157.5
 31
0.0
  0
TEXT
  8
0
  6
CONTINUOUS
 62
   249
 10
65.367753
 20
148.964455
 30
0.0
 40
2.5
  1
1
 11
65.367753
 21
148.131122
 31
0.0
 73
     1
  0
LINE
  8
0
  6
CONTINUOUS
 62
   249
 10
60.933891
 20
151.624549
 30
0.0
 11
63.279656
 21
150.289195
 31
0.0
  0
LINE
  8
0
  6
CONTINUOUS
 62
   249
 10
60.925849
 20
148.299262
 30
0.0
 11
63.30931
 21
149.487454
 31
0.0
  0
LINE
  8
0
  6
CONTINUOUS
 62
   249
 10
63.279656
 20
150.289195
 30
0.0
 11
60.933891
 21
149.099276
 31
0.0
  0
LINE
  8
0
  6
CONTINUOUS
 62
   249
 10
65.0
 20
155.0
 30
0.0
 11
65.0
 21
157.5
 31
0.0
  0
LINE
  8
0
  6
CONTINUOUS
 62
   249
 10
65.0
 20
147.5
 30
0.0
 11
65.0
 21
142.5
 31
0.0
  0
LINE
  8
0
  6
CONTINUOUS
 62
   249
 10
70.0
 20
152.5
 30
0.0
 11
57.5
 21
152.5
 31
0.0
  0
LINE
  8
0
  6
CONTINUOUS
 62
   249
 10
70.0
 20
152.5
 30
0.0
 11
70.0
 21
147.5
 31
0.0
  0
LINE
  8
0
  6
CONTINUOUS
 62
   249
 10
62.5
 20
152.5
 30
0.0
 11
62.5
 21
198.668365
 31
0.0
  0
LINE
  8
0
  6
CONTINUOUS
 62
   249
 10
57.5
 20
147.5
 30
0.0
 11
70.0
 21
147.5
 31
0.0
  0
LINE
  8
0
  6
CONTINUOUS
 62
   249
 10
57.5
 20
152.5
 30
0.0
 11
57.5
 21
147.5
 31
0.0
  0
LINE
  8
0
  6
CONTINUOUS
 62
   249
 10
72.5
 20
152.5
 30
0.0
 11
80.0
 21
152.5
 31
0.0
  0
LINE
  8
0
  6
CONTINUOUS
 62
   249
 10
80.0
 20
152.5
 30
0.0
 11
80.0
 21
147.5
 31
0.0
  0
LINE
  8
0
  6
CONTINUOUS
 62
   249
 10
80.0
 20
147.5
 30
0.0
 11
72.5
 21
147.5
 31
0.0
  0
LINE
  8
0
  6
CONTINUOUS
 62
   249
 10
72.5
 20
147.5
 30
0.0
 11
72.5
 21
152.5
 31
0.0
  0
LINE
  8
0
  6
CONTINUOUS
 62
   249
 10
75.91616
 20
150.289195
 30
0.0
 11
73.570394
 21
149.099276
 31
0.0
  0
LINE
  8
0
  6
CONTINUOUS
 62
   249
 10
73.562352
 20
148.299262
 30
0.0
 11
75.945813
 21
149.487454
 31
0.0
  0
LINE
  8
0
  6
CONTINUOUS
 62
   249
 10
73.570394
 20
151.624549
 30
0.0
 11
75.91616
 21
150.289195
 31
0.0
  0
TEXT
  8
0
  6
CONTINUOUS
 62
   249
 10
78.004256
 20
148.964455
 30
0.0
 40
2.5
  1
1
 11
78.004256
 21
148.131122
 31
0.0
 73
     1
  0
TEXT
  8
0
  6
CONTINUOUS
 62
   249
 10
91.295492
 20
148.964455
 30
0.0
 40
2.5
  1
1
 11
91.295492
 21
148.131122
 31
0.0
 73
     1
  0
LINE
  8
0
  6
CONTINUOUS
 62
   249
 10
86.86163
 20
151.624549
 30
0.0
 11
89.207396
 21
150.289195
 31
0.0
  0
LINE
  8
0
  6
CONTINUOUS
 62
   249
 10
86.853589
 20
148.299262
 30
0.0
 11
89.237049
 21
149.487454
 31
0.0
  0
LINE
  8
0
  6
CONTINUOUS
 62
   249
 10
89.207396
 20
150.289195
 30
0.0
 11
86.86163
 21
149.099276
 31
0.0
  0
LINE
  8
0
  6
CONTINUOUS
 62
   249
 10
85.0
 20
147.5
 30
0.0
 11
85.0
 21
152.5
 31
0.0
  0
LINE
  8
0
  6
CONTINUOUS
 62
   249
 10
95.0
 20
147.5
 30
0.0
 11
85.0
 21
147.5
 31
0.0
  0
LINE
  8
0
  6
CONTINUOUS
 62
   249
 10
95.0
 20
152.5
 30
0.0
 11
95.0
 21
147.5
 31
0.0
  0
LINE
  8
0
  6
CONTINUOUS
 62
   249
 10
85.0
 20
152.5
 30
0.0
 11
95.0
 21
152.5
 31
0.0
  0
LINE
  8
0
  6
CONTINUOUS
 62
   249
 10
97.5
 20
152.5
 30
0.0
 11
110.0
 21
152.5
 31
0.0
  0
LINE
  8
0
  6
CONTINUOUS
 62
   249
 10
110.0
 20
152.5
 30
0.0
 11
110.0
 21
147.5
 31
0.0
  0
LINE
  8
0
  6
CONTINUOUS
 62
   249
 10
110.0
 20
147.5
 30
0.0
 11
97.5
 21
147.5
 31
0.0
  0
LINE
  8
0
  6
CONTINUOUS
 62
   249
 10
97.5
 20
147.5
 30
0.0
 11
97.5
 21
152.5
 31
0.0
  0
LINE
  8
0
  6
CONTINUOUS
 62
   249
 10
101.707396
 20
150.289195
 30
0.0
 11
99.36163
 21
149.099276
 31
0.0
  0
LINE
  8
0
  6
CONTINUOUS
 62
   249
 10
99.353589
 20
148.299262
 30
0.0
 11
101.737049
 21
149.487454
 31
0.0
  0
LINE
  8
0
  6
CONTINUOUS
 62
   249
 10
99.36163
 20
151.624549
 30
0.0
 11
101.707396
 21
150.289195
 31
0.0
  0
TEXT
  8
0
  6
CONTINUOUS
 62
   249
 10
103.795492
 20
148.964455
 30
0.0
 40
2.5
  1
1
 11
103.795492
 21
148.131122
 31
0.0
 73
     1
  0
TEXT
  8
0
  6
CONTINUOUS
 62
   249
 10
102.164066
 20
159.995896
 30
0.0
 40
2.0
  1
5
  7
ROMANS
  0
LINE
  8
0
  6
CONTINUOUS
 62
   249
 10
102.5
 20
162.5
 30
0.0
 11
102.5
 21
165.0
 31
0.0
  0
LINE
  8
0
  6
CONTINUOUS
 62
   249
 10
102.5
 20
157.5
 30
0.0
 11
100.785914
 21
162.586297
 31
0.0
  0
LINE
  8
0
  6
CONTINUOUS
 62
   249
 10
102.5
 20
152.5
 30
0.0
 11
102.5
 21
157.5
 31
0.0
  0
LINE
  8
0
  6
CONTINUOUS
 62
   249
 10
100.0
 20
152.5
 30
0.0
 11
100.0
 21
157.5
 31
0.0
  0
LINE
  8
0
  6
CONTINUOUS
 62
   249
 10
100.0
 20
157.5
 30
0.0
 11
98.285914
 21
162.586297
 31
0.0
  0
LINE
  8
0
  6
CONTINUOUS
 62
   249
 10
100.0
 20
162.5
 30
0.0
 11
100.0
 21
165.0
 31
0.0
  0
LINE
  8
0
  6
CONTINUOUS
 62
   249
 10
92.5
 20
152.5
 30
0.0
 11
92.5
 21
157.5
 31
0.0
  0
LINE
  8
0
  6
CONTINUOUS
 62
   249
 10
92.5
 20
157.5
 30
0.0
 11
90.785914
 21
162.586297
 31
0.0
  0
LINE
  8
0
  6
CONTINUOUS
 62
   249
 10
92.5
 20
162.5
 30
0.0
 11
92.5
 21
175.0
 31
0.0
  0
LINE
  8
0
  6
CONTINUOUS
 62
   249
 10
77.5
 20
162.5
 30
0.0
 11
77.5
 21
175.0
 31
0.0
  0
LINE
  8
0
  6
CONTINUOUS
 62
   249
 10
77.5
 20
157.5
 30
0.0
 11
75.785914
 21
162.586297
 31
0.0
  0
LINE
  8
0
  6
CONTINUOUS
 62
   249
 10
77.5
 20
152.5
 30
0.0
 11
77.5
 21
157.5
 31
0.0
  0
LINE
  8
0
  6
CONTINUOUS
 62
   249
 10
75.0
 20
152.5
 30
0.0
 11
75.0
 21
157.5
 31
0.0
  0
LINE
  8
0
  6
CONTINUOUS
 62
   249
 10
75.0
 20
157.5
 30
0.0
 11
73.285914
 21
162.586297
 31
0.0
  0
TEXT
  8
0
  6
CONTINUOUS
 62
   249
 10
59.411099
 20
160.0
 30
0.0
 40
2.0
  1
3
  7
ROMANS
  0
TEXT
  8
0
  6
CONTINUOUS
 62
   249
 10
74.292202
 20
160.0
 30
0.0
 40
2.0
  1
2
  7
ROMANS
  0
TEXT
  8
0
  6
CONTINUOUS
 62
   249
 10
77.061751
 20
160.0
 30
0.0
 40
2.0
  1
7
  7
ROMANS
  0
TEXT
  8
0
  6
CONTINUOUS
 62
   249
 10
92.11958
 20
160.0
 30
0.0
 40
2.0
  1
8
  7
ROMANS
  0
TEXT
  8
0
  6
CONTINUOUS
 62
   249
 10
99.15804
 20
160.0
 30
0.0
 40
2.0
  1
1
  7
ROMANS
  0
LINE
  8
0
  6
CONTINUOUS
 62
   249
 10
65.0
 20
152.5
 30
0.0
 11
65.0
 21
165.0
 31
0.0
  0
LINE
  8
0
  6
CONTINUOUS
 62
   249
 10
62.5
 20
137.5
 30
0.0
 11
45.0
 21
137.5
 31
0.0
  0
LINE
  8
0
  6
CONTINUOUS
 62
   249
 10
70.0
 20
137.5
 30
0.0
 11
70.0
 21
132.5
 31
0.0
  0
LINE
  8
0
  6
CONTINUOUS
 62
   249
 10
70.0
 20
132.5
 30
0.0
 11
45.0
 21
132.5
 31
0.0
  0
LINE
  8
0
  6
CONTINUOUS
 62
   249
 10
67.5
 20
137.5
 30
0.0
 11
70.0
 21
137.5
 31
0.0
  0
LINE
  8
0
  6
CONTINUOUS
 62
   249
 10
82.5
 20
127.5
 30
0.0
 11
82.5
 21
122.5
 31
0.0
  0
LINE
  8
0
  6
CONTINUOUS
 62
   249
 10
82.5
 20
122.5
 30
0.0
 11
45.0
 21
122.5
 31
0.0
  0
LINE
  8
0
  6
CONTINUOUS
 62
   249
 10
120.0
 20
97.5
 30
0.0
 11
120.0
 21
95.0
 31
0.0
  0
LINE
  8
0
  6
CONTINUOUS
 62
   249
 10
117.5
 20
90.0
 30
0.0
 11
117.5
 21
89.999975
 31
0.0
  0
LINE
  8
0
  6
CONTINUOUS
 62
   249
 10
122.5
 20
95.0
 30
0.0
 11
122.5
 21
90.0
 31
0.0
  0
LINE
  8
0
  6
CONTINUOUS
 62
   249
 10
122.5
 20
90.0
 30
0.0
 11
115.0
 21
90.0
 31
0.0
  0
LINE
  8
0
  6
CONTINUOUS
 62
   249
 10
115.0
 20
90.0
 30
0.0
 11
115.0
 21
95.0
 31
0.0
  0
LINE
  8
0
  6
CONTINUOUS
 62
   249
 10
115.0
 20
95.0
 30
0.0
 11
122.5
 21
95.0
 31
0.0
  0
LINE
  8
0
  6
CONTINUOUS
 62
   249
 10
125.0
 20
95.0
 30
0.0
 11
140.0
 21
95.0
 31
0.0
  0
LINE
  8
0
  6
CONTINUOUS
 62
   249
 10
140.0
 20
95.0
 30
0.0
 11
140.0
 21
90.0
 31
0.0
  0
LINE
  8
0
  6
CONTINUOUS
 62
   249
 10
140.0
 20
90.0
 30
0.0
 11
125.0
 21
90.0
 31
0.0
  0
LINE
  8
0
  6
CONTINUOUS
 62
   249
 10
125.0
 20
90.0
 30
0.0
 11
125.0
 21
95.0
 31
0.0
  0
LINE
  8
0
  6
CONTINUOUS
 62
   249
 10
131.829949
 20
92.789195
 30
0.0
 11
129.484184
 21
91.599276
 31
0.0
  0
LINE
  8
0
  6
CONTINUOUS
 62
   249
 10
129.476142
 20
90.799262
 30
0.0
 11
131.859603
 21
91.987454
 31
0.0
  0
LINE
  8
0
  6
CONTINUOUS
 62
   249
 10
129.484184
 20
94.124549
 30
0.0
 11
131.829949
 21
92.789195
 31
0.0
  0
TEXT
  8
0
  6
CONTINUOUS
 62
   249
 10
133.918046
 20
91.464455
 30
0.0
 40
2.5
  1
1
 11
133.918046
 21
90.631122
 31
0.0
 73
     1
  0
TEXT
  8
0
  6
CONTINUOUS
 62
   249
 10
150.651854
 20
91.464455
 30
0.0
 40
2.5
  1
1
 11
150.651854
 21
90.631122
 31
0.0
 73
     1
  0
LINE
  8
0
  6
CONTINUOUS
 62
   249
 10
146.217992
 20
94.124549
 30
0.0
 11
148.563758
 21
92.789195
 31
0.0
  0
LINE
  8
0
  6
CONTINUOUS
 62
   249
 10
146.20995
 20
90.799262
 30
0.0
 11
148.593411
 21
91.987454
 31
0.0
  0
LINE
  8
0
  6
CONTINUOUS
 62
   249
 10
148.563758
 20
92.789195
 30
0.0
 11
146.217992
 21
91.599276
 31
0.0
  0
LINE
  8
0
  6
CONTINUOUS
 62
   249
 10
142.5
 20
90.0
 30
0.0
 11
142.5
 21
95.0
 31
0.0
  0
LINE
  8
0
  6
CONTINUOUS
 62
   249
 10
155.0
 20
90.0
 30
0.0
 11
142.5
 21
90.0
 31
0.0
  0
LINE
  8
0
  6
CONTINUOUS
 62
   249
 10
155.0
 20
95.0
 30
0.0
 11
155.0
 21
90.0
 31
0.0
  0
LINE
  8
0
  6
CONTINUOUS
 62
   249
 10
142.5
 20
95.0
 30
0.0
 11
155.0
 21
95.0
 31
0.0
  0
LINE
  8
0
  6
CONTINUOUS
 62
   249
 10
150.0
 20
95.0
 30
0.0
 11
150.0
 21
97.5
 31
0.0
  0
LINE
  8
0
  6
CONTINUOUS
 62
   249
 10
157.5
 20
95.0
 30
0.0
 11
172.5
 21
95.0
 31
0.0
  0
LINE
  8
0
  6
CONTINUOUS
 62
   249
 10
172.5
 20
95.0
 30
0.0
 11
172.5
 21
90.0
 31
0.0
  0
LINE
  8
0
  6
CONTINUOUS
 62
   249
 10
172.5
 20
90.0
 30
0.0
 11
157.5
 21
90.0
 31
0.0
  0
LINE
  8
0
  6
CONTINUOUS
 62
   249
 10
157.5
 20
90.0
 30
0.0
 11
157.5
 21
95.0
 31
0.0
  0
LINE
  8
0
  6
CONTINUOUS
 62
   249
 10
164.329949
 20
92.789195
 30
0.0
 11
161.984184
 21
91.599276
 31
0.0
  0
LINE
  8
0
  6
CONTINUOUS
 62
   249
 10
161.976142
 20
90.799262
 30
0.0
 11
164.359603
 21
91.987454
 31
0.0
  0
LINE
  8
0
  6
CONTINUOUS
 62
   249
 10
161.984184
 20
94.124549
 30
0.0
 11
164.329949
 21
92.789195
 31
0.0
  0
TEXT
  8
0
  6
CONTINUOUS
 62
   249
 10
166.418046
 20
91.464455
 30
0.0
 40
2.5
  1
1
 11
166.418046
 21
90.631122
 31
0.0
 73
     1
  0
LINE
  8
0
  6
CONTINUOUS
 62
   249
 10
77.5
 20
140.0
 30
0.0
 11
77.5
 21
147.5
 31
0.0
  0
LINE
  8
0
  6
CONTINUOUS
 62
   249
 10
90.0
 20
140.0
 30
0.0
 11
90.0
 21
147.5
 31
0.0
  0
LINE
  8
0
  6
CONTINUOUS
 62
   249
 10
102.5
 20
140.0
 30
0.0
 11
102.5
 21
147.5
 31
0.0
  0
LINE
  8
0
  6
CONTINUOUS
 62
   249
 10
120.0
 20
90.0
 30
0.0
 11
120.0
 21
62.5
 31
0.0
  0
LINE
  8
0
  6
CONTINUOUS
 62
   249
 10
132.5
 20
90.0
 30
0.0
 11
132.5
 21
62.5
 31
0.0
  0
LINE
  8
0
  6
CONTINUOUS
 62
   249
 10
150.0
 20
90.0
 30
0.0
 11
150.0
 21
62.5
 31
0.0
  0
LINE
  8
0
  6
CONTINUOUS
 62
   249
 10
165.0
 20
90.0
 30
0.0
 11
165.0
 21
62.5
 31
0.0
  0
TEXT
  8
0
  6
CONTINUOUS
 62
   249
 10
118.25176
 20
91.455036
 30
0.0
 40
2.5
  1
&
  7
GREEKS
  0
LINE
  8
0
  6
CONTINUOUS
 62
   249
 10
117.5
 20
132.5
 30
0.0
 11
117.5
 21
96.414794
 31
0.0
  0
CIRCLE
  8
0
  6
CONTINUOUS
 62
   249
 10
117.499507
 20
95.707385
 30
0.0
 40
0.707409
  0
LINE
  8
0
  6
CONTINUOUS
 62
   249
 10
100.0
 20
165.0
 30
0.0
 11
100.0
 21
217.5
 31
0.0
  0
LINE
  8
0
  6
CONTINUOUS
 62
   249
 10
100.0
 20
217.5
 30
0.0
 11
185.0
 21
217.5
 31
0.0
  0
LINE
  8
0
  6
CONTINUOUS
 62
   249
 10
105.0
 20
152.5
 30
0.0
 11
105.0
 21
205.0
 31
0.0
  0
LINE
  8
0
  6
CONTINUOUS
 62
   249
 10
105.0
 20
205.0
 30
0.0
 11
185.0
 21
205.0
 31
0.0
  0
LINE
  8
0
  6
CONTINUOUS
 62
   249
 10
137.5
 20
192.5
 30
0.0
 11
185.0
 21
192.5
 31
0.0
  0
LINE
  8
0
  6
CONTINUOUS
 62
   249
 10
70.0
 20
222.5
 30
0.0
 11
175.0
 21
222.5
 31
0.0
  0
LINE
  8
0
  6
CONTINUOUS
 62
   249
 10
175.0
 20
222.5
 30
0.0
 11
175.0
 21
145.101504
 31
0.0
  0
LINE
  8
0
  6
CONTINUOUS
 62
   249
 10
172.5
 20
215.0
 30
0.0
 11
172.5
 21
160.500813
 31
0.0
  0
LINE
  8
0
  6
CONTINUOUS
 62
   249
 10
150.0
 20
165.0
 30
0.0
 11
150.0
 21
95.0
 31
0.0
  0
LINE
  8
0
  6
CONTINUOUS
 62
   249
 10
117.5
 20
132.5
 30
0.0
 11
117.5
 21
156.055194
 31
0.0
  0
LINE
  8
0
  6
CONTINUOUS
 62
   249
 10
60.0
 20
156.055194
 30
0.0
 11
117.5
 21
156.055194
 31
0.0
  0
LINE
  8
0
  6
CONTINUOUS
 62
   249
 10
45.0
 20
112.5
 30
0.0
 11
87.5
 21
112.5
 31
0.0
  0
LINE
  8
0
  6
CONTINUOUS
 62
   249
 10
87.5
 20
107.5
 30
0.0
 11
45.0
 21
107.5
 31
0.0
  0
LINE
  8
0
  6
CONTINUOUS
 62
   249
 10
87.5
 20
107.5
 30
0.0
 11
87.5
 21
110.0
 31
0.0
  0
LINE
  8
0
  6
CONTINUOUS
 62
   249
 10
92.5
 20
112.5
 30
0.0
 11
95.0
 21
112.5
 31
0.0
  0
LINE
  8
0
  6
CONTINUOUS
 62
   249
 10
92.5
 20
112.5
 30
0.0
 11
86.756076
 21
109.285297
 31
0.0
  0
LINE
  8
0
  6
CONTINUOUS
 62
   249
 10
105.0
 20
97.5
 30
0.0
 11
99.256076
 21
94.285297
 31
0.0
  0
LINE
  8
0
  6
CONTINUOUS
 62
   249
 10
105.0
 20
97.5
 30
0.0
 11
107.5
 21
97.5
 31
0.0
  0
LINE
  8
0
  6
CONTINUOUS
 62
   249
 10
100.0
 20
92.5
 30
0.0
 11
100.0
 21
95.0
 31
0.0
  0
LINE
  8
0
  6
CONTINUOUS
 62
   249
 10
100.0
 20
92.5
 30
0.0
 11
45.0
 21
92.5
 31
0.0
  0
LINE
  8
0
  6
CONTINUOUS
 62
   249
 10
45.0
 20
97.5
 30
0.0
 11
100.0
 21
97.5
 31
0.0
  0
LINE
  8
0
  6
CONTINUOUS
 62
   249
 10
45.0
 20
82.5
 30
0.0
 11
110.0
 21
82.5
 31
0.0
  0
LINE
  8
0
  6
CONTINUOUS
 62
   249
 10
110.0
 20
77.5
 30
0.0
 11
45.0
 21
77.5
 31
0.0
  0
LINE
  8
0
  6
CONTINUOUS
 62
   249
 10
110.0
 20
77.5
 30
0.0
 11
110.0
 21
80.0
 31
0.0
  0
LINE
  8
0
  6
CONTINUOUS
 62
   249
 10
115.0
 20
82.5
 30
0.0
 11
117.5
 21
82.5
 31
0.0
  0
LINE
  8
0
  6
CONTINUOUS
 62
   249
 10
115.0
 20
82.5
 30
0.0
 11
109.256076
 21
79.285297
 31
0.0
  0
LINE
  8
0
  6
CONTINUOUS
 62
   249
 10
95.0
 20
112.5
 30
0.0
 11
95.0
 21
102.5
 31
0.0
  0
LINE
  8
0
  6
CONTINUOUS
 62
   249
 10
95.0
 20
102.5
 30
0.0
 11
45.0
 21
102.5
 31
0.0
  0
LINE
  8
0
  6
CONTINUOUS
 62
   249
 10
107.5
 20
97.5
 30
0.0
 11
107.5
 21
87.5
 31
0.0
  0
LINE
  8
0
  6
CONTINUOUS
 62
   249
 10
107.5
 20
87.5
 30
0.0
 11
45.0
 21
87.5
 31
0.0
  0
LINE
  8
0
  6
CONTINUOUS
 62
   249
 10
117.5
 20
82.5
 30
0.0
 11
117.5
 21
72.5
 31
0.0
  0
LINE
  8
0
  6
CONTINUOUS
 62
   249
 10
117.5
 20
72.5
 30
0.0
 11
45.0
 21
72.5
 31
0.0
  0
LINE
  8
0
  6
CONTINUOUS
 62
   249
 10
185.0
 20
198.668365
 30
0.0
 11
62.5
 21
198.668365
 31
0.0
  0
LINE
  8
0
  6
CONTINUOUS
 62
   249
 10
185.0
 20
209.665835
 30
0.0
 11
73.75
 21
209.665835
 31
0.0
  0
LINE
  8
0
  6
CONTINUOUS
 62
   249
 10
165.0
 20
187.5
 30
0.0
 11
165.0
 21
95.0
 31
0.0
  0
LINE
  8
0
  6
CONTINUOUS
 62
   249
 10
170.0
 20
95.0
 30
0.0
 11
170.0
 21
125.0
 31
0.0
  0
LINE
  8
0
  6
CONTINUOUS
 62
   249
 10
167.5
 20
95.0
 30
0.0
 11
167.5
 21
162.5
 31
0.0
  0
LINE
  8
0
  6
CONTINUOUS
 62
   249
 10
90.0
 20
167.5
 30
0.0
 11
90.0
 21
152.5
 31
0.0
  0
LINE
  8
0
  6
CONTINUOUS
 62
   249
 10
162.5
 20
95.0
 30
0.0
 11
162.5
 21
175.531649
 31
0.0
  0
LINE
  8
0
  6
CONTINUOUS
 62
   249
 10
152.5
 20
95.0
 30
0.0
 11
152.5
 21
167.5
 31
0.0
  0
LINE
  8
0
  6
CONTINUOUS
 62
   249
 10
147.5
 20
95.0
 30
0.0
 11
147.5
 21
172.5
 31
0.0
  0
LINE
  8
0
  6
CONTINUOUS
 62
   249
 10
145.0
 20
95.0
 30
0.0
 11
145.0
 21
180.0
 31
0.0
  0
LINE
  8
0
  6
CONTINUOUS
 62
   249
 10
137.5
 20
95.0
 30
0.0
 11
137.5
 21
192.5
 31
0.0
  0
LINE
  8
0
  6
CONTINUOUS
 62
   249
 10
135.0
 20
95.0
 30
0.0
 11
135.0
 21
198.668365
 31
0.0
  0
LINE
  8
0
  6
CONTINUOUS
 62
   249
 10
132.5
 20
95.0
 30
0.0
 11
132.5
 21
205.0
 31
0.0
  0
LINE
  8
0
  6
CONTINUOUS
 62
   249
 10
130.0
 20
95.0
 30
0.0
 11
130.0
 21
209.665835
 31
0.0
  0
LINE
  8
0
  6
CONTINUOUS
 62
   249
 10
120.0
 20
95.0
 30
0.0
 11
120.0
 21
172.5
 31
0.0
  0
LINE
  8
0
  6
HIDDEN
 62
   249
 10
45.0
 20
230.0
 30
0.0
 11
50.0
 21
230.0
 31
0.0
  0
LINE
  8
0
  6
HIDDEN
 62
   249
 10
50.0
 20
230.0
 30
0.0
 11
50.0
 21
207.5
 31
0.0
  0
LINE
  8
0
  6
HIDDEN
 62
   249
 10
50.0
 20
207.5
 30
0.0
 11
45.0
 21
207.5
 31
0.0
  0
TEXT
  8
0
  6
HIDDEN
 62
   249
 10
45.879157
 20
226.746473
 30
0.0
 40
2.0
  1
X2
  7
ROMANS
  0
TEXT
  8
0
  6
HIDDEN
 62
   249
 10
45.762789
 20
222.333058
 30
0.0
 40
2.0
  1
12
  7
ROMANS
  0
TEXT
  8
0
  6
HIDDEN
 62
   249
 10
45.762789
 20
214.949416
 30
0.0
 40
2.0
  1
10
  7
ROMANS
  0
TEXT
  8
0
  6
HIDDEN
 62
   249
 10
45.762789
 20
209.809022
 30
0.0
 40
2.0
  1
11
  7
ROMANS
  0
LINE
  8
0
  6
HIDDEN
 62
   249
 10
45.0
 20
142.5
 30
0.0
 11
50.0
 21
142.5
 31
0.0
  0
LINE
  8
0
  6
HIDDEN
 62
   249
 10
50.0
 20
142.5
 30
0.0
 11
50.0
 21
118.211798
 31
0.0
  0
LINE
  8
0
  6
HIDDEN
 62
   249
 10
50.0
 20
118.211798
 30
0.0
 11
45.0
 21
118.211798
 31
0.0
  0
LINE
  8
0
  6
HIDDEN
 62
   249
 10
45.0
 20
67.5
 30
0.0
 11
50.0
 21
67.5
 31
0.0
  0
LINE
  8
0
  6
HIDDEN
 62
   249
 10
50.0
 20
67.5
 30
0.0
 11
50.0
 21
116.97351
 31
0.0
  0
LINE
  8
0
  6
HIDDEN
 62
   249
 10
50.0
 20
116.97351
 30
0.0
 11
45.0
 21
116.97351
 31
0.0
  0
TEXT
  8
0
  6
HIDDEN
 62
   249
 10
45.380937
 20
138.629257
 30
0.0
 40
2.0
  1
X1
  7
ROMANS
  0
TEXT
  8
0
  6
HIDDEN
 62
   249
 10
46.1717
 20
134.910394
 30
0.0
 40
2.0
  1
4
  7
ROMANS
  0
TEXT
  8
0
  6
HIDDEN
 62
   249
 10
46.1717
 20
129.902761
 30
0.0
 40
2.0
  1
3
  7
ROMANS
  0
TEXT
  8
0
  6
HIDDEN
 62
   249
 10
46.1717
 20
124.61975
 30
0.0
 40
2.0
  1
7
  7
ROMANS
  0
TEXT
  8
0
  6
HIDDEN
 62
   249
 10
46.1717
 20
119.810389
 30
0.0
 40
2.0
  1
6
  7
ROMANS
  0
TEXT
  8
0
  6
HIDDEN
 62
   249
 10
45.745853
 20
113.976621
 30
0.0
 40
2.0
  1
X2
  7
ROMANS
  0
TEXT
  8
0
  6
HIDDEN
 62
   249
 10
46.1717
 20
109.773092
 30
0.0
 40
2.0
  1
3
  7
ROMANS
  0
TEXT
  8
0
  6
HIDDEN
 62
   249
 10
46.1717
 20
104.842565
 30
0.0
 40
2.0
  1
1
  7
ROMANS
  0
TEXT
  8
0
  6
HIDDEN
 62
   249
 10
46.1717
 20
99.625644
 30
0.0
 40
2.0
  1
2
  7
ROMANS
  0
TEXT
  8
0
  6
HIDDEN
 62
   249
 10
46.1717
 20
94.695117
 30
0.0
 40
2.0
  1
6
  7
ROMANS
  0
TEXT
  8
0
  6
HIDDEN
 62
   249
 10
46.1717
 20
89.918802
 30
0.0
 40
2.0
  1
4
  7
ROMANS
  0
TEXT
  8
0
  6
HIDDEN
 62
   249
 10
46.1717
 20
84.690866
 30
0.0
 40
2.0
  1
5
  7
ROMANS
  0
TEXT
  8
0
  6
HIDDEN
 62
   249
 10
46.1717
 20
79.760338
 30
0.0
 40
2.0
  1
9
  7
ROMANS
  0
TEXT
  8
0
  6
HIDDEN
 62
   249
 10
46.1717
 20
74.686614
 30
0.0
 40
2.0
  1
7
  7
ROMANS
  0
TEXT
  8
0
  6
HIDDEN
 62
   249
 10
46.1717
 20
69.756087
 30
0.0
 40
2.0
  1
8
  7
ROMANS
  0
LINE
  8
0
  6
CONTINUOUS
 62
   249
 10
355.727984
 20
155.0
 30
0.0
 11
375.727984
 21
155.0
 31
0.0
  0
LINE
  8
0
  6
CONTINUOUS
 62
   249
 10
372.519318
 20
158.102225
 30
0.0
 11
372.519318
 21
156.314094
 31
0.0
  0
LINE
  8
0
  6
CONTINUOUS
 62
   249
 10
369.565206
 20
159.45511
 30
0.0
 11
370.465883
 21
158.331361
 31
0.0
  0
LINE
  8
0
  6
CONTINUOUS
 62
   249
 10
367.119799
 20
156.089344
 30
0.0
 11
369.99591
 21
158.917903
 31
0.0
  0
LINE
  8
0
  6
CONTINUOUS
 62
   249
 10
364.735654
 20
157.256947
 30
0.0
 11
372.523859
 21
157.256947
 31
0.0
  0
LINE
  8
0
  6
CONTINUOUS
 62
   249
 10
364.704623
 20
158.102225
 30
0.0
 11
364.704623
 21
156.314094
 31
0.0
  0
TEXT
  8
0
  6
CONTINUOUS
 62
   249
 10
358.595465
 20
156.612471
 30
0.0
 40
2.5
  1
n
  7
GREEKS
  0
TEXT
  8
0
  6
CONTINUOUS
 62
   249
 10
361.987037
 20
156.59044
 30
0.0
 40
2.0
  1
x
  7
GREEKS
  0
LINE
  8
0
 62
   249
 10
65.221556
 20
233.704212
 30
0.0
 11
57.798812
 21
233.704212
 31
0.0
  0
LINE
  8
0
  6
CONTINUOUS
 62
   249
 10
65.221556
 20
237.5
 30
0.0
 11
70.0
 21
237.5
 31
0.0
  0
LINE
  8
0
 62
   249
 10
65.221556
 20
233.704212
 30
0.0
 11
65.221556
 21
241.589925
 31
0.0
  0
LINE
  8
0
 62
   249
 10
65.221556
 20
241.589925
 30
0.0
 11
57.798812
 21
241.589925
 31
0.0
  0
LINE
  8
0
 62
   249
 10
63.496971
 20
241.567786
 30
0.0
 11
61.642636
 21
239.288964
 31
0.0
  0
LINE
  8
0
 62
   249
 10
62.004853
 20
241.567786
 30
0.0
 11
60.09105
 21
239.288964
 31
0.0
  0
LINE
  8
0
 62
   249
 10
57.798812
 20
241.589925
 30
0.0
 11
57.798812
 21
233.704212
 31
0.0
  0
LINE
  8
0
  6
CONTINUOUS
 62
   249
 10
57.798812
 20
235.0
 30
0.0
 11
45.0
 21
235.0
 31
0.0
  0
LINE
  8
0
  6
CONTINUOUS
 62
   249
 10
57.798812
 20
240.0
 30
0.0
 11
45.0
 21
240.0
 31
0.0
  0
LINE
  8
0
  6
HIDDEN
 62
   249
 10
45.0
 20
245.0
 30
0.0
 11
50.0
 21
245.0
 31
0.0
  0
LINE
  8
0
  6
HIDDEN
 62
   249
 10
45.0
 20
231.348482
 30
0.0
 11
50.0
 21
231.348482
 31
0.0
  0
LINE
  8
0
  6
HIDDEN
 62
   249
 10
50.0
 20
245.0
 30
0.0
 11
50.0
 21
231.348482
 31
0.0
  0
TEXT
  8
0
  6
CONTINUOUS
 62
   249
 10
46.09856
 20
241.598074
 30
0.0
 40
2.0
  1
X1
  7
ROMANS
  0
TEXT
  8
0
  6
CONTINUOUS
 62
   249
 10
45.729977
 20
237.252652
 30
0.0
 40
2.0
  1
12
  7
ROMANS
  0
TEXT
  8
0
  6
CONTINUOUS
 62
   249
 10
45.729977
 20
232.401185
 30
0.0
 40
2.0
  1
11
  7
ROMANS
  0
LINE
  8
0
  6
HIDDEN
 62
   249
 10
187.5
 20
195.0
 30
0.0
 11
205.0
 21
195.0
 31
0.0
  0
LINE
  8
0
  6
HIDDEN
 62
   249
 10
187.5
 20
190.0
 30
0.0
 11
205.0
 21
190.0
 31
0.0
  0
LINE
  8
0
  6
CONTINUOUS
 62
   249
 10
190.333062
 20
193.732238
 30
0.0
 11
192.678827
 21
192.396885
 31
0.0
  0
LINE
  8
0
  6
CONTINUOUS
 62
   249
 10
192.678827
 20
192.396885
 30
0.0
 11
190.333062
 21
191.206966
 31
0.0
  0
LINE
  8
0
  6
CONTINUOUS
 62
   249
 10
191.991677
 20
193.732238
 30
0.0
 11
194.337442
 21
192.396885
 31
0.0
  0
LINE
  8
0
  6
CONTINUOUS
 62
   249
 10
194.337442
 20
192.396885
 30
0.0
 11
191.991677
 21
191.206966
 31
0.0
  0
TEXT
  8
0
  6
CONTINUOUS
 62
   249
 10
188.770128
 20
191.194281
 30
0.0
 40
2.5
  1
I
 11
188.770128
 21
190.360948
 31
0.0
 73
     1
  0
LINE
  8
0
  6
CONTINUOUS
 62
   249
 10
195.844928
 20
192.396885
 30
0.0
 11
193.499162
 21
191.206966
 31
0.0
  0
LINE
  8
0
  6
CONTINUOUS
 62
   249
 10
193.499162
 20
193.732238
 30
0.0
 11
195.844928
 21
192.396885
 31
0.0
  0
LINE
  8
0
  6
CONTINUOUS
 62
   249
 10
193.403312
 20
187.257133
 30
0.0
 11
195.749078
 21
185.921779
 31
0.0
  0
LINE
  8
0
  6
CONTINUOUS
 62
   249
 10
195.749078
 20
185.921779
 30
0.0
 11
193.403312
 21
184.73186
 31
0.0
  0
TEXT
  8
0
  6
CONTINUOUS
 62
   249
 10
188.770128
 20
184.719176
 30
0.0
 40
2.5
  1
I
 11
188.770128
 21
183.885842
 31
0.0
 73
     1
  0
LINE
  8
0
  6
CONTINUOUS
 62
   249
 10
194.337442
 20
185.921779
 30
0.0
 11
191.991677
 21
184.73186
 31
0.0
  0
LINE
  8
0
  6
CONTINUOUS
 62
   249
 10
191.991677
 20
187.257133
 30
0.0
 11
194.337442
 21
185.921779
 31
0.0
  0
LINE
  8
0
  6
CONTINUOUS
 62
   249
 10
192.678827
 20
185.921779
 30
0.0
 11
190.333062
 21
184.73186
 31
0.0
  0
LINE
  8
0
  6
CONTINUOUS
 62
   249
 10
190.333062
 20
187.257133
 30
0.0
 11
192.678827
 21
185.921779
 31
0.0
  0
LINE
  8
0
  6
CONTINUOUS
 62
   249
 10
196.431134
 20
186.494658
 30
0.0
 11
196.431134
 21
184.706526
 31
0.0
  0
LINE
  8
0
  6
CONTINUOUS
 62
   249
 10
196.462165
 20
185.649379
 30
0.0
 11
204.25037
 21
185.649379
 31
0.0
  0
LINE
  8
0
  6
CONTINUOUS
 62
   249
 10
201.291717
 20
187.847542
 30
0.0
 11
202.192394
 21
186.723793
 31
0.0
  0
LINE
  8
0
  6
CONTINUOUS
 62
   249
 10
198.84631
 20
184.481776
 30
0.0
 11
201.72242
 21
187.310335
 31
0.0
  0
LINE
  8
0
  6
CONTINUOUS
 62
   249
 10
204.245829
 20
186.494658
 30
0.0
 11
204.245829
 21
184.706526
 31
0.0
  0
LINE
  8
0
  6
CONTINUOUS
 62
   249
 10
187.5
 20
220.0
 30
0.0
 11
187.5
 21
182.5
 31
0.0
  0
TEXT
  8
0
  6
CONTINUOUS
 62
   249
 10
186.991916
 20
183.287092
 30
0.0
 40
1.5
  1
PROGRAMMING: SEE SHEET 3
 50
90.0
  7
ROMANS
  0
TEXT
  8
0
  6
CONTINUOUS
 62
   249
 10
187.005063
 20
163.846592
 30
0.0
 40
2.5
  1
I
 11
187.005063
 21
163.013259
 31
0.0
 73
     1
  0
TEXT
  8
0
  6
CONTINUOUS
 62
   249
 10
187.005063
 20
168.265761
 30
0.0
 40
2.5
  1
I
 11
187.005063
 21
167.432428
 31
0.0
 73
     1
  0
LINE
  8
0
  6
CONTINUOUS
 62
   249
 10
194.287169
 20
169.262687
 30
0.0
 11
191.941403
 21
168.072768
 31
0.0
  0
LINE
  8
0
  6
CONTINUOUS
 62
   249
 10
191.941403
 20
170.598041
 30
0.0
 11
194.287169
 21
169.262687
 31
0.0
  0
TEXT
  8
0
  6
CONTINUOUS
 62
   249
 10
187.005063
 20
178.768175
 30
0.0
 40
2.5
  1
I
 11
187.005063
 21
177.934842
 31
0.0
 73
     1
  0
CIRCLE
  8
0
  6
CONTINUOUS
 62
   249
 10
184.012659
 20
157.521725
 30
0.0
 40
1.0
  0
LINE
  8
0
  6
CONTINUOUS
 62
   249
 10
183.01273
 20
157.519111
 30
0.0
 11
175.0
 21
157.519111
 31
0.0
  0
TEXT
  8
0
  6
CONTINUOUS
 62
   249
 10
187.005063
 20
153.233974
 30
0.0
 40
2.5
  1
I
 11
187.005063
 21
152.400641
 31
0.0
 73
     1
  0
LINE
  8
0
  6
CONTINUOUS
 62
   249
 10
195.831015
 20
154.113824
 30
0.0
 11
193.48525
 21
152.923905
 31
0.0
  0
LINE
  8
0
  6
CONTINUOUS
 62
   249
 10
193.48525
 20
155.449178
 30
0.0
 11
195.831015
 21
154.113824
 31
0.0
  0
LINE
  8
0
  6
CONTINUOUS
 62
   249
 10
194.316175
 20
154.113824
 30
0.0
 11
191.97041
 21
152.923905
 31
0.0
  0
LINE
  8
0
  6
CONTINUOUS
 62
   249
 10
191.97041
 20
155.449178
 30
0.0
 11
194.316175
 21
154.113824
 31
0.0
  0
LINE
  8
0
  6
CONTINUOUS
 62
   249
 10
204.245829
 20
118.994658
 30
0.0
 11
204.245829
 21
117.206526
 31
0.0
  0
LINE
  8
0
  6
CONTINUOUS
 62
   249
 10
198.84631
 20
116.981776
 30
0.0
 11
201.72242
 21
119.810335
 31
0.0
  0
LINE
  8
0
  6
CONTINUOUS
 62
   249
 10
201.291717
 20
120.347542
 30
0.0
 11
202.192394
 21
119.223793
 31
0.0
  0
LINE
  8
0
  6
CONTINUOUS
 62
   249
 10
196.462165
 20
118.149379
 30
0.0
 11
204.25037
 21
118.149379
 31
0.0
  0
LINE
  8
0
  6
CONTINUOUS
 62
   249
 10
196.431134
 20
118.994658
 30
0.0
 11
196.431134
 21
117.206526
 31
0.0
  0
LINE
  8
0
  6
CONTINUOUS
 62
   249
 10
190.333062
 20
119.757133
 30
0.0
 11
192.678827
 21
118.421779
 31
0.0
  0
LINE
  8
0
  6
CONTINUOUS
 62
   249
 10
192.678827
 20
118.421779
 30
0.0
 11
190.333062
 21
117.23186
 31
0.0
  0
LINE
  8
0
  6
CONTINUOUS
 62
   249
 10
191.83592
 20
119.757133
 30
0.0
 11
194.181686
 21
118.421779
 31
0.0
  0
LINE
  8
0
  6
CONTINUOUS
 62
   249
 10
194.181686
 20
118.421779
 30
0.0
 11
191.83592
 21
117.23186
 31
0.0
  0
TEXT
  8
0
  6
CONTINUOUS
 62
   249
 10
188.770128
 20
117.219176
 30
0.0
 40
2.5
  1
I
 11
188.770128
 21
116.385842
 31
0.0
 73
     1
  0
LINE
  8
0
  6
CONTINUOUS
 62
   249
 10
195.77304
 20
118.421779
 30
0.0
 11
193.427275
 21
117.23186
 31
0.0
  0
LINE
  8
0
  6
CONTINUOUS
 62
   249
 10
193.427275
 20
119.757133
 30
0.0
 11
195.77304
 21
118.421779
 31
0.0
  0
LINE
  8
0
  6
CONTINUOUS
 62
   249
 10
193.427275
 20
126.232238
 30
0.0
 11
195.77304
 21
124.896885
 31
0.0
  0
LINE
  8
0
  6
CONTINUOUS
 62
   249
 10
195.77304
 20
124.896885
 30
0.0
 11
193.427275
 21
123.706966
 31
0.0
  0
TEXT
  8
0
  6
CONTINUOUS
 62
   249
 10
188.770128
 20
123.694281
 30
0.0
 40
2.5
  1
I
 11
188.770128
 21
122.860948
 31
0.0
 73
     1
  0
LINE
  8
0
  6
CONTINUOUS
 62
   249
 10
194.181686
 20
124.896885
 30
0.0
 11
191.83592
 21
123.706966
 31
0.0
  0
LINE
  8
0
  6
CONTINUOUS
 62
   249
 10
191.83592
 20
126.232238
 30
0.0
 11
194.181686
 21
124.896885
 31
0.0
  0
LINE
  8
0
  6
CONTINUOUS
 62
   249
 10
192.678827
 20
124.896885
 30
0.0
 11
190.333062
 21
123.706966
 31
0.0
  0
LINE
  8
0
  6
CONTINUOUS
 62
   249
 10
190.333062
 20
126.232238
 30
0.0
 11
192.678827
 21
124.896885
 31
0.0
  0
TEXT
  8
0
  6
CONTINUOUS
 62
   249
 10
188.770128
 20
148.241357
 30
0.0
 40
2.5
  1
I
 11
188.770128
 21
147.408023
 31
0.0
 73
     1
  0
LINE
  8
0
  6
CONTINUOUS
 62
   249
 10
193.906117
 20
149.44396
 30
0.0
 11
191.560351
 21
148.254041
 31
0.0
  0
LINE
  8
0
  6
CONTINUOUS
 62
   249
 10
191.560351
 20
150.779314
 30
0.0
 11
193.906117
 21
149.44396
 31
0.0
  0
LINE
  8
0
  6
CONTINUOUS
 62
   249
 10
191.560351
 20
144.790394
 30
0.0
 11
193.906117
 21
143.455041
 31
0.0
  0
LINE
  8
0
  6
CONTINUOUS
 62
   249
 10
193.906117
 20
143.455041
 30
0.0
 11
191.560351
 21
142.265121
 31
0.0
  0
TEXT
  8
0
  6
CONTINUOUS
 62
   249
 10
188.770128
 20
142.252437
 30
0.0
 40
2.5
  1
I
 11
188.770128
 21
141.419104
 31
0.0
 73
     1
  0
TEXT
  8
0
  6
CONTINUOUS
 62
   249
 10
188.770128
 20
136.192977
 30
0.0
 40
2.5
  1
I
 11
188.770128
 21
135.359644
 31
0.0
 73
     1
  0
LINE
  8
0
  6
CONTINUOUS
 62
   249
 10
194.373386
 20
137.395581
 30
0.0
 11
192.027621
 21
136.205662
 31
0.0
  0
LINE
  8
0
  6
CONTINUOUS
 62
   249
 10
192.027621
 20
138.730934
 30
0.0
 11
194.373386
 21
137.395581
 31
0.0
  0
LINE
  8
0
  6
CONTINUOUS
 62
   249
 10
192.678827
 20
137.395581
 30
0.0
 11
190.333062
 21
136.205662
 31
0.0
  0
LINE
  8
0
  6
CONTINUOUS
 62
   249
 10
190.333062
 20
138.730934
 30
0.0
 11
192.678827
 21
137.395581
 31
0.0
  0
LINE
  8
0
  6
CONTINUOUS
 62
   249
 10
196.431134
 20
131.615882
 30
0.0
 11
196.431134
 21
129.82775
 31
0.0
  0
LINE
  8
0
  6
CONTINUOUS
 62
   249
 10
196.462165
 20
130.770603
 30
0.0
 11
204.25037
 21
130.770603
 31
0.0
  0
LINE
  8
0
  6
CONTINUOUS
 62
   249
 10
201.291717
 20
132.968766
 30
0.0
 11
202.192394
 21
131.845017
 31
0.0
  0
LINE
  8
0
  6
CONTINUOUS
 62
   249
 10
198.84631
 20
129.603
 30
0.0
 11
201.72242
 21
132.431559
 31
0.0
  0
LINE
  8
0
  6
CONTINUOUS
 62
   249
 10
204.245829
 20
131.615882
 30
0.0
 11
204.245829
 21
129.82775
 31
0.0
  0
LINE
  8
0
  6
CONTINUOUS
 62
   249
 10
190.333062
 20
132.378357
 30
0.0
 11
192.678827
 21
131.043003
 31
0.0
  0
LINE
  8
0
  6
CONTINUOUS
 62
   249
 10
192.678827
 20
131.043003
 30
0.0
 11
190.333062
 21
129.853084
 31
0.0
  0
LINE
  8
0
  6
CONTINUOUS
 62
   249
 10
192.027621
 20
132.378357
 30
0.0
 11
194.373386
 21
131.043003
 31
0.0
  0
LINE
  8
0
  6
CONTINUOUS
 62
   249
 10
194.373386
 20
131.043003
 30
0.0
 11
192.027621
 21
129.853084
 31
0.0
  0
TEXT
  8
0
  6
CONTINUOUS
 62
   249
 10
188.770128
 20
129.8404
 30
0.0
 40
2.5
  1
I
 11
188.770128
 21
129.007066
 31
0.0
 73
     1
  0
LINE
  8
0
  6
CONTINUOUS
 62
   249
 10
196.430679
 20
144.210612
 30
0.0
 11
196.430679
 21
142.422481
 31
0.0
  0
LINE
  8
0
  6
CONTINUOUS
 62
   249
 10
196.461711
 20
143.365333
 30
0.0
 11
204.249916
 21
143.365333
 31
0.0
  0
LINE
  8
0
  6
CONTINUOUS
 62
   249
 10
201.291263
 20
145.563496
 30
0.0
 11
202.19194
 21
144.439747
 31
0.0
  0
ARC
  8
0
  6
HIDDEN
 62
   249
 10
203.156579
 20
147.293878
 30
0.0
 40
4.998196
 50
206.402922
 51
282.21115
  0
LINE
  8
0
  6
CONTINUOUS
 62
   249
 10
198.845856
 20
142.197731
 30
0.0
 11
201.721966
 21
145.026289
 31
0.0
  0
LINE
  8
0
  6
CONTINUOUS
 62
   249
 10
204.245375
 20
144.210612
 30
0.0
 11
204.245375
 21
142.422481
 31
0.0
  0
LINE
  8
0
  6
CONTINUOUS
 62
   249
 10
187.5
 20
152.5
 30
0.0
 11
187.5
 21
115.0
 31
0.0
  0
LINE
  8
0
  6
HIDDEN
 62
   249
 10
187.5
 20
122.5
 30
0.0
 11
205.0
 21
122.5
 31
0.0
  0
LINE
  8
0
  6
HIDDEN
 62
   249
 10
187.5
 20
127.5
 30
0.0
 11
205.0
 21
127.5
 31
0.0
  0
LINE
  8
0
  6
HIDDEN
 62
   249
 10
187.5
 20
135.0
 30
0.0
 11
205.0
 21
135.0
 31
0.0
  0
LINE
  8
0
  6
HIDDEN
 62
   249
 10
187.5
 20
140.0
 30
0.0
 11
205.0
 21
140.0
 31
0.0
  0
LINE
  8
0
  6
HIDDEN
 62
   249
 10
187.5
 20
147.5
 30
0.0
 11
205.0
 21
147.5
 31
0.0
  0
LINE
  8
0
  6
CONTINUOUS
 62
   249
 10
185.0
 20
115.0
 30
0.0
 11
215.450615
 21
115.0
 31
0.0
  0
TEXT
  8
0
  6
CONTINUOUS
 62
   249
 10
186.990245
 20
115.788729
 30
0.0
 40
1.5
  1
PROGRAMMING: SEE SHEET 4
 50
90.0
  7
ROMANS
  0
TEXT
  8
0
  6
CONTINUOUS
 62
   249
 10
205.396803
 20
199.59134
 30
0.0
 40
2.0
  1
2
  7
GREEKS
  0
LINE
  8
0
  6
CONTINUOUS
 62
   249
 10
206.724689
 20
165.714764
 30
0.0
 11
214.268276
 21
165.714764
 31
0.0
  0
TEXT
  8
0
  6
CONTINUOUS
 62
   249
 10
209.296619
 20
168.276781
 30
0.0
 40
2.5
  1
I
 11
209.296619
 21
167.443448
 31
0.0
 73
     1
  0
TEXT
  8
0
  6
CONTINUOUS
 62
   249
 10
209.72661
 20
160.525469
 30
0.0
 40
1.5
  1
f
  7
GREEKC
  0
TEXT
  8
0
  6
CONTINUOUS
 62
   249
 10
205.471568
 20
160.010459
 30
0.0
 40
1.5
  1
SIN
  7
GREEKS
  0
TEXT
  8
0
  6
CONTINUOUS
 62
   249
 10
205.471568
 20
155.857643
 30
0.0
 40
1.5
  1
COS
  7
GREEKS
  0
TEXT
  8
0
  6
CONTINUOUS
 62
   249
 10
209.72661
 20
156.364059
 30
0.0
 40
1.5
  1
f
  7
GREEKC
  0
TEXT
  8
0
  6
HIDDEN
 62
   249
 10
212.367691
 20
155.862921
 30
0.0
 40
1.5
  1
EN
  0
TEXT
  8
0
  6
HIDDEN
 62
   249
 10
212.367691
 20
159.999914
 30
0.0
 40
1.5
  1
EN
  0
LINE
  8
0
  6
CONTINUOUS
 62
   249
 10
206.724689
 20
195.086908
 30
0.0
 11
214.268276
 21
195.086908
 31
0.0
  0
LINE
  8
0
  6
CONTINUOUS
 62
   249
 10
206.724689
 20
131.317126
 30
0.0
 11
214.268276
 21
131.317126
 31
0.0
  0
LINE
  8
0
  6
CONTINUOUS
 62
   249
 10
185.0
 20
145.101504
 30
0.0
 11
175.0
 21
145.101504
 31
0.0
  0
LINE
  8
0
  6
CONTINUOUS
 62
   249
 10
185.0
 20
212.5
 30
0.0
 11
175.0
 21
212.5
 31
0.0
  0
LINE
  8
0
  6
CONTINUOUS
 62
   249
 10
75.0
 20
162.5
 30
0.0
 11
75.0
 21
185.377204
 31
0.0
  0
LINE
  8
0
  6
CONTINUOUS
 62
   249
 10
185.0
 20
125.0
 30
0.0
 11
170.0
 21
125.0
 31
0.0
  0
LINE
  8
0
  6
CONTINUOUS
 62
   249
 10
60.0
 20
172.5
 30
0.0
 11
170.0
 21
172.5
 31
0.0
  0
LINE
  8
0
  6
CONTINUOUS
 62
   249
 10
170.0
 20
172.5
 30
0.0
 11
170.0
 21
168.898487
 31
0.0
  0
LINE
  8
0
  6
CONTINUOUS
 62
   249
 10
170.0
 20
168.898487
 30
0.0
 11
185.0
 21
168.898487
 31
0.0
  0
LINE
  8
0
  6
CONTINUOUS
 62
   249
 10
160.0
 20
195.676888
 30
0.0
 11
160.0
 21
95.0
 31
0.0
  0
LINE
  8
0
  6
CONTINUOUS
 62
   249
 10
67.5
 20
152.5
 30
0.0
 11
67.5
 21
167.5
 31
0.0
  0
LINE
  8
0
  6
CONTINUOUS
 62
   249
 10
67.5
 20
167.5
 30
0.0
 11
152.5
 21
167.5
 31
0.0
  0
LINE
  8
0
  6
CONTINUOUS
 62
   249
 10
65.0
 20
165.0
 30
0.0
 11
107.5
 21
165.0
 31
0.0
  0
LINE
  8
0
  6
CONTINUOUS
 62
   249
 10
52.5
 20
143.608096
 30
0.0
 11
52.5
 21
175.0
 31
0.0
  0
LINE
  8
0
  6
CONTINUOUS
 62
   249
 10
52.5
 20
175.0
 30
0.0
 11
92.5
 21
175.0
 31
0.0
  0
LINE
  8
0
  6
CONTINUOUS
 62
   249
 10
65.0
 20
143.608096
 30
0.0
 11
52.5
 21
143.608096
 31
0.0
  0
LINE
  8
0
  6
CONTINUOUS
 62
   249
 10
87.5
 20
152.5
 30
0.0
 11
87.5
 21
172.5
 31
0.0
  0
LINE
  8
0
  6
CONTINUOUS
 62
   249
 10
185.0
 20
131.498058
 30
0.0
 11
167.5
 21
131.498058
 31
0.0
  0
LINE
  8
0
  6
CONTINUOUS
 62
   249
 10
185.0
 20
137.5
 30
0.0
 11
162.5
 21
137.5
 31
0.0
  0
LINE
  8
0
  6
CONTINUOUS
 62
   249
 10
185.0
 20
141.387472
 30
0.0
 11
160.0
 21
141.387472
 31
0.0
  0
LINE
  8
0
  6
CONTINUOUS
 62
   249
 10
185.0
 20
150.0
 30
0.0
 11
165.0
 21
150.0
 31
0.0
  0
LINE
  8
0
  6
CONTINUOUS
 62
   249
 10
185.0
 20
153.668039
 30
0.0
 11
152.5
 21
153.668039
 31
0.0
  0
LINE
  8
0
  6
CONTINUOUS
 62
   249
 10
185.0
 20
165.0
 30
0.0
 11
150.0
 21
165.0
 31
0.0
  0
LINE
  8
0
  6
CONTINUOUS
 62
   249
 10
150.0
 20
165.0
 30
0.0
 11
150.0
 21
162.5
 31
0.0
  0
LINE
  8
0
  6
CONTINUOUS
 62
   249
 10
185.0
 20
180.0
 30
0.0
 11
112.5
 21
180.0
 31
0.0
  0
LINE
  8
0
  6
CONTINUOUS
 62
   249
 10
71.25
 20
185.377204
 30
0.0
 11
78.75
 21
185.377204
 31
0.0
  0
LINE
  8
0
  6
CONTINUOUS
 62
   249
 10
78.75
 20
185.377204
 30
0.0
 11
78.75
 21
190.377204
 31
0.0
  0
LINE
  8
0
  6
CONTINUOUS
 62
   249
 10
78.75
 20
190.377204
 30
0.0
 11
71.25
 21
190.377204
 31
0.0
  0
LINE
  8
0
  6
CONTINUOUS
 62
   249
 10
71.25
 20
190.377204
 30
0.0
 11
71.25
 21
185.377204
 31
0.0
  0
TEXT
  8
0
  6
CONTINUOUS
 62
   249
 10
76.745812
 20
186.932409
 30
0.0
 40
2.5
  1
1
 11
76.745812
 21
186.099076
 31
0.0
 73
     1
  0
LINE
  8
0
  6
CONTINUOUS
 62
   249
 10
72.31195
 20
189.592502
 30
0.0
 11
74.657716
 21
188.257149
 31
0.0
  0
LINE
  8
0
  6
CONTINUOUS
 62
   249
 10
72.303908
 20
186.267216
 30
0.0
 11
74.687369
 21
187.455408
 31
0.0
  0
LINE
  8
0
  6
CONTINUOUS
 62
   249
 10
74.657716
 20
188.257149
 30
0.0
 11
72.31195
 21
187.06723
 31
0.0
  0
LINE
  8
0
  6
CONTINUOUS
 62
   249
 10
102.5
 20
165.0
 30
0.0
 11
102.5
 21
187.5
 31
0.0
  0
LINE
  8
0
  6
CONTINUOUS
 62
   249
 10
107.5
 20
165.0
 30
0.0
 11
125.0
 21
165.0
 31
0.0
  0
LINE
  8
0
  6
CONTINUOUS
 62
   249
 10
125.0
 20
165.0
 30
0.0
 11
125.0
 21
162.5
 31
0.0
  0
LINE
  8
0
  6
CONTINUOUS
 62
   249
 10
125.0
 20
162.5
 30
0.0
 11
167.5
 21
162.5
 31
0.0
  0
LINE
  8
0
  6
CONTINUOUS
 62
   249
 10
127.5
 20
95.0
 30
0.0
 11
127.5
 21
217.5
 31
0.0
  0
LINE
  8
0
  6
CONTINUOUS
 62
   249
 10
105.0
 20
190.377204
 30
0.0
 11
105.0
 21
195.0
 31
0.0
  0
LINE
  8
0
  6
CONTINUOUS
 62
   249
 10
102.5
 20
187.5
 30
0.0
 11
165.0
 21
187.5
 31
0.0
  0
TEXT
  8
0
  6
CONTINUOUS
 62
   249
 10
179.842601
 20
218.021445
 30
0.0
 40
1.5
  1
SS1
  7
ROMANS
  0
TEXT
  8
0
  6
CONTINUOUS
 62
   249
 10
179.842601
 20
210.156162
 30
0.0
 40
1.5
  1
TS1
  7
ROMANS
  0
TEXT
  8
0
  6
CONTINUOUS
 62
   249
 10
179.842601
 20
205.629465
 30
0.0
 40
1.5
  1
SS2
  7
ROMANS
  0
TEXT
  8
0
  6
CONTINUOUS
 62
   249
 10
179.842601
 20
199.168574
 30
0.0
 40
1.5
  1
TS2
  7
ROMANS
  0
TEXT
  8
0
  6
CONTINUOUS
 62
   249
 10
179.842601
 20
193.010427
 30
0.0
 40
1.5
  1
SS3
  7
ROMANS
  0
TEXT
  8
0
  6
CONTINUOUS
 62
   249
 10
179.842601
 20
180.646044
 30
0.0
 40
1.5
  1
SS1
  7
ROMANS
  0
TEXT
  8
0
  6
CONTINUOUS
 62
   249
 10
179.842601
 20
169.568319
 30
0.0
 40
1.5
  1
TS1
  7
ROMANS
  0
TEXT
  8
0
  6
CONTINUOUS
 62
   249
 10
179.842601
 20
165.689156
 30
0.0
 40
1.5
  1
SS2
  7
ROMANS
  0
TEXT
  8
0
  6
CONTINUOUS
 62
   249
 10
179.842601
 20
154.434831
 30
0.0
 40
1.5
  1
TS2
  7
ROMANS
  0
TEXT
  8
0
  6
CONTINUOUS
 62
   249
 10
179.842601
 20
150.740677
 30
0.0
 40
1.5
  1
SS1
  7
ROMANS
  0
TEXT
  8
0
  6
CONTINUOUS
 62
   249
 10
179.842601
 20
142.05967
 30
0.0
 40
1.5
  1
TS1
  7
ROMANS
  0
TEXT
  8
0
  6
CONTINUOUS
 62
   249
 10
179.842601
 20
138.247783
 30
0.0
 40
1.5
  1
SS2
  7
ROMANS
  0
TEXT
  8
0
  6
CONTINUOUS
 62
   249
 10
179.842601
 20
132.19055
 30
0.0
 40
1.5
  1
TS2
  7
ROMANS
  0
TEXT
  8
0
  6
CONTINUOUS
 62
   249
 10
179.842601
 20
125.780117
 30
0.0
 40
1.5
  1
SS3
  7
ROMANS
  0
ARC
  8
0
 62
   249
 10
254.934151
 20
166.25
 30
0.0
 40
1.251733
 50
86.984476
 51
273.015524
  0
LINE
  8
0
 62
   249
 10
255.0
 20
165.0
 30
0.0
 11
257.5
 21
165.0
 31
0.0
  0
ARC
  8
0
 62
   249
 10
254.934151
 20
168.75
 30
0.0
 40
1.251733
 50
86.984476
 51
273.015524
  0
LINE
  8
0
 62
   249
 10
255.0
 20
167.5
 30
0.0
 11
257.5
 21
167.5
 31
0.0
  0
LINE
  8
0
 62
   249
 10
255.0
 20
170.0
 30
0.0
 11
257.5
 21
170.0
 31
0.0
  0
LINE
  8
0
 62
   249
 10
257.5
 20
165.0
 30
0.0
 11
260.0
 21
165.0
 31
0.0
  0
LINE
  8
0
 62
   249
 10
255.0
 20
165.0
 30
0.0
 11
257.5
 21
165.0
 31
0.0
  0
LINE
  8
0
 62
   249
 10
255.0
 20
162.5
 30
0.0
 11
257.5
 21
162.5
 31
0.0
  0
ARC
  8
0
 62
   249
 10
254.934151
 20
163.75
 30
0.0
 40
1.251733
 50
86.984476
 51
273.015524
  0
ARC
  8
0
 62
   249
 10
254.934151
 20
161.25
 30
0.0
 40
1.251733
 50
86.984476
 51
273.015524
  0
LINE
  8
0
 62
   249
 10
255.0
 20
160.0
 30
0.0
 11
257.5
 21
160.0
 31
0.0
  0
ARC
  8
0
 62
   249
 10
250.065849
 20
166.25
 30
0.0
 40
1.251733
 50
266.984476
 51
93.015524
  0
LINE
  8
0
 62
   249
 10
250.0
 20
167.5
 30
0.0
 11
248.480133
 21
167.5
 31
0.0
  0
LINE
  8
0
 62
   249
 10
250.0
 20
165.0
 30
0.0
 11
248.480133
 21
165.0
 31
0.0
  0
ARC
  8
0
 62
   249
 10
250.065849
 20
163.75
 30
0.0
 40
1.251733
 50
266.984476
 51
93.015524
  0
LINE
  8
0
 62
   249
 10
250.0
 20
162.5
 30
0.0
 11
248.480133
 21
162.5
 31
0.0
  0
LINE
  8
0
 62
   249
 10
257.5
 20
160.0
 30
0.0
 11
265.0
 21
160.0
 31
0.0
  0
LINE
  8
0
 62
   249
 10
257.5
 20
165.0
 30
0.0
 11
265.0
 21
165.0
 31
0.0
  0
LINE
  8
0
 62
   249
 10
257.5
 20
170.0
 30
0.0
 11
265.0
 21
170.0
 31
0.0
  0
TEXT
  8
0
  6
CONTINUOUS
 62
   249
 10
260.85973
 20
167.10337
 30
0.0
 40
2.0
  1
27
  7
ROMANS
  0
TEXT
  8
0
  6
CONTINUOUS
 62
   249
 10
260.85973
 20
162.205888
 30
0.0
 40
2.0
  1
26
  7
ROMANS
  0
TEXT
  8
0
  6
CONTINUOUS
 62
   249
 10
260.85973
 20
157.18724
 30
0.0
 40
2.0
  1
25
  7
ROMANS
  0
LINE
  8
0
  6
CONTINUOUS
 62
   249
 10
242.5
 20
227.5
 30
0.0
 11
243.5
 21
228.5
 31
0.0
  0
LINE
  8
0
  6
CONTINUOUS
 62
   249
 10
242.5
 20
202.5
 30
0.0
 11
243.5
 21
201.5
 31
0.0
  0
LINE
  8
0
  6
CONTINUOUS
 62
   249
 10
242.5
 20
227.5
 30
0.0
 11
242.5
 21
205.347904
 31
0.0
  0
LINE
  8
0
  6
CONTINUOUS
 62
   249
 10
240.0
 20
227.5
 30
0.0
 11
241.0
 21
228.5
 31
0.0
  0
LINE
  8
0
  6
CONTINUOUS
 62
   249
 10
240.0
 20
222.5
 30
0.0
 11
241.0
 21
221.5
 31
0.0
  0
LINE
  8
0
  6
CONTINUOUS
 62
   249
 10
240.0
 20
227.5
 30
0.0
 11
240.0
 21
222.5
 31
0.0
  0
LINE
  8
0
  6
CONTINUOUS
 62
   249
 10
242.5
 20
204.642936
 30
0.0
 11
242.5
 21
202.5
 31
0.0
  0
LINE
  8
0
  6
CONTINUOUS
 62
   249
 10
242.5
 20
215.0
 30
0.0
 11
235.0
 21
215.0
 31
0.0
  0
LINE
  8
0
  6
CONTINUOUS
 62
   249
 10
240.0
 20
187.5
 30
0.0
 11
240.0
 21
182.5
 31
0.0
  0
LINE
  8
0
  6
CONTINUOUS
 62
   249
 10
240.0
 20
182.5
 30
0.0
 11
241.0
 21
181.5
 31
0.0
  0
LINE
  8
0
  6
CONTINUOUS
 62
   249
 10
240.0
 20
187.5
 30
0.0
 11
241.0
 21
188.5
 31
0.0
  0
LINE
  8
0
  6
CONTINUOUS
 62
   249
 10
240.0
 20
225.0
 30
0.0
 11
232.5
 21
225.0
 31
0.0
  0
LINE
  8
0
  6
CONTINUOUS
 62
   249
 10
240.0
 20
185.0
 30
0.0
 11
222.5
 21
185.0
 31
0.0
  0
LINE
  8
0
  6
CONTINUOUS
 62
   249
 10
222.5
 20
185.0
 30
0.0
 11
222.5
 21
225.0
 31
0.0
  0
LINE
  8
0
  6
CONTINUOUS
 62
   249
 10
222.5
 20
225.0
 30
0.0
 11
232.5
 21
225.0
 31
0.0
  0
LINE
  8
0
  6
CONTINUOUS
 62
   249
 10
242.5
 20
127.5
 30
0.0
 11
243.5
 21
128.5
 31
0.0
  0
LINE
  8
0
  6
CONTINUOUS
 62
   249
 10
242.5
 20
102.5
 30
0.0
 11
243.5
 21
101.5
 31
0.0
  0
LINE
  8
0
  6
CONTINUOUS
 62
   249
 10
242.5
 20
127.5
 30
0.0
 11
242.5
 21
105.395739
 31
0.0
  0
LINE
  8
0
  6
CONTINUOUS
 62
   249
 10
240.0
 20
107.5
 30
0.0
 11
241.0
 21
108.5
 31
0.0
  0
LINE
  8
0
  6
CONTINUOUS
 62
   249
 10
240.0
 20
82.5
 30
0.0
 11
241.0
 21
81.5
 31
0.0
  0
LINE
  8
0
  6
CONTINUOUS
 62
   249
 10
240.0
 20
107.5
 30
0.0
 11
240.0
 21
105.384723
 31
0.0
  0
LINE
  8
0
  6
CONTINUOUS
 62
   249
 10
242.5
 20
104.679755
 30
0.0
 11
242.5
 21
102.5
 31
0.0
  0
LINE
  8
0
  6
CONTINUOUS
 62
   249
 10
240.0
 20
104.64671
 30
0.0
 11
240.0
 21
82.5
 31
0.0
  0
LINE
  8
0
  6
CONTINUOUS
 62
   249
 10
215.450615
 20
172.060179
 30
0.0
 11
222.5
 21
172.060179
 31
0.0
  0
LINE
  8
0
  6
CONTINUOUS
 62
   249
 10
222.5
 20
172.060179
 30
0.0
 11
222.5
 21
155.0
 31
0.0
  0
LINE
  8
0
  6
CONTINUOUS
 62
   249
 10
222.5
 20
155.0
 30
0.0
 11
237.5
 21
155.0
 31
0.0
  0
CIRCLE
  8
0
  6
CONTINUOUS
 62
   249
 10
216.450323
 20
160.983421
 30
0.0
 40
1.0
  0
LINE
  8
0
  6
CONTINUOUS
 62
   249
 10
70.0
 20
237.5
 30
0.0
 11
220.0
 21
237.5
 31
0.0
  0
LINE
  8
0
  6
CONTINUOUS
 62
   249
 10
220.0
 20
237.5
 30
0.0
 11
220.0
 21
156.543906
 31
0.0
  0
LINE
  8
0
  6
CONTINUOUS
 62
   249
 10
215.450615
 20
156.543906
 30
0.0
 11
220.0
 21
156.543906
 31
0.0
  0
LINE
  8
0
  6
CONTINUOUS
 62
   249
 10
217.450316
 20
160.979447
 30
0.0
 11
220.0
 21
160.979447
 31
0.0
  0
LINE
  8
0
  6
CONTINUOUS
 62
   249
 10
235.0
 20
215.0
 30
0.0
 11
225.0
 21
215.0
 31
0.0
  0
LINE
  8
0
  6
CONTINUOUS
 62
   249
 10
225.0
 20
215.0
 30
0.0
 11
225.0
 21
137.5
 31
0.0
  0
LINE
  8
0
  6
CONTINUOUS
 62
   249
 10
225.0
 20
137.5
 30
0.0
 11
215.450615
 21
137.5
 31
0.0
  0
LINE
  8
0
  6
CONTINUOUS
 62
   249
 10
215.450615
 20
197.5
 30
0.0
 11
227.5
 21
197.5
 31
0.0
  0
LINE
  8
0
  6
CONTINUOUS
 62
   249
 10
227.5
 20
197.5
 30
0.0
 11
227.5
 21
115.0
 31
0.0
  0
LINE
  8
0
  6
CONTINUOUS
 62
   249
 10
227.5
 20
115.0
 30
0.0
 11
242.5
 21
115.0
 31
0.0
  0
LINE
  8
0
  6
CONTINUOUS
 62
   249
 10
237.5
 20
205.0
 30
0.0
 11
230.0
 21
205.0
 31
0.0
  0
LINE
  8
0
  6
CONTINUOUS
 62
   249
 10
230.0
 20
205.0
 30
0.0
 11
230.0
 21
62.5
 31
0.0
  0
LINE
  8
0
  6
CONTINUOUS
 62
   249
 10
215.450615
 20
202.5
 30
0.0
 11
222.5
 21
202.5
 31
0.0
  0
LINE
  8
0
  6
CONTINUOUS
 62
   249
 10
215.450615
 20
132.5
 30
0.0
 11
225.0
 21
132.5
 31
0.0
  0
LINE
  8
0
  6
CONTINUOUS
 62
   249
 10
225.0
 20
132.5
 30
0.0
 11
225.0
 21
95.0
 31
0.0
  0
LINE
  8
0
  6
CONTINUOUS
 62
   249
 10
225.0
 20
95.0
 30
0.0
 11
240.0
 21
95.0
 31
0.0
  0
LINE
  8
0
  6
CONTINUOUS
 62
   249
 10
237.5
 20
105.0
 30
0.0
 11
232.5
 21
105.0
 31
0.0
  0
LINE
  8
0
  6
CONTINUOUS
 62
   249
 10
232.5
 20
105.0
 30
0.0
 11
232.5
 21
62.5
 31
0.0
  0
TEXT
  8
0
  6
CONTINUOUS
 62
   249
 10
70.0
 20
235.0
 30
0.0
 40
1.5
  1
BACTRL
  7
ROMANS
  0
TEXT
  8
0
  6
CONTINUOUS
 62
   249
 10
70.0
 20
220.0
 30
0.0
 40
1.5
  1
BS1
  7
ROMANS
  0
TEXT
  8
0
  6
CONTINUOUS
 62
   249
 10
70.0
 20
212.5
 30
0.0
 40
1.5
  1
BS2
  7
ROMANS
  0
LINE
  8
0
  6
CONTINUOUS
 62
   249
 10
361.221603
 20
250.474187
 30
0.0
 11
368.765189
 21
250.474187
 31
0.0
  0
TEXT
  8
0
  6
DASHED
 62
   249
 10
362.133208
 20
253.289445
 30
0.0
 40
2.0
  1
2
  7
GREEKS
  0
TEXT
  8
0
  6
DASHED
 62
   249
 10
364.383505
 20
253.276511
 30
0.0
 40
2.5
  1
I
  7
GREEKS
  0
TEXT
  8
0
  6
DASHED
 62
   249
 10
364.383505
 20
240.845531
 30
0.0
 40
2.5
  1
I
  7
GREEKS
  0
TEXT
  8
0
  6
DASHED
 62
   249
 10
362.133208
 20
240.858466
 30
0.0
 40
2.0
  1
2
  7
GREEKS
  0
LINE
  8
0
  6
CONTINUOUS
 62
   249
 10
361.221603
 20
238.337859
 30
0.0
 11
368.765189
 21
238.337859
 31
0.0
  0
TEXT
  8
0
  6
DASHED
 62
   249
 10
362.133208
 20
229.878826
 30
0.0
 40
2.0
  1
2
  7
GREEKS
  0
TEXT
  8
0
  6
DASHED
 62
   249
 10
364.383505
 20
229.865891
 30
0.0
 40
2.5
  1
I
  7
GREEKS
  0
LINE
  8
0
  6
CONTINUOUS
 62
   249
 10
369.166854
 20
231.029919
 30
0.0
 11
366.821088
 21
229.84
 31
0.0
  0
LINE
  8
0
  6
CONTINUOUS
 62
   249
 10
366.821088
 20
232.365273
 30
0.0
 11
369.166854
 21
231.029919
 31
0.0
  0
LINE
  8
0
  6
CONTINUOUS
 62
   249
 10
368.831273
 20
232.365273
 30
0.0
 11
371.177038
 21
231.029919
 31
0.0
  0
LINE
  8
0
  6
CONTINUOUS
 62
   249
 10
371.177038
 20
231.029919
 30
0.0
 11
368.831273
 21
229.84
 31
0.0
  0
LINE
  8
0
  6
CONTINUOUS
 62
   249
 10
373.151995
 20
231.029919
 30
0.0
 11
370.806229
 21
229.84
 31
0.0
  0
LINE
  8
0
  6
CONTINUOUS
 62
   249
 10
370.806229
 20
232.365273
 30
0.0
 11
373.151995
 21
231.029919
 31
0.0
  0
LINE
  8
0
  6
CONTINUOUS
 62
   249
 10
369.142955
 20
227.512174
 30
0.0
 11
369.142955
 21
225.724043
 31
0.0
  0
LINE
  8
0
  6
CONTINUOUS
 62
   249
 10
366.188843
 20
228.865059
 30
0.0
 11
367.08952
 21
227.74131
 31
0.0
  0
LINE
  8
0
  6
CONTINUOUS
 62
   249
 10
363.743436
 20
225.499293
 30
0.0
 11
366.619546
 21
228.327852
 31
0.0
  0
LINE
  8
0
  6
CONTINUOUS
 62
   249
 10
361.359291
 20
226.666896
 30
0.0
 11
369.147496
 21
226.666896
 31
0.0
  0
LINE
  8
0
  6
CONTINUOUS
 62
   249
 10
361.32826
 20
227.512174
 30
0.0
 11
361.32826
 21
225.724043
 31
0.0
  0
LINE
  8
0
  6
CONTINUOUS
 62
   249
 10
366.672272
 20
222.103633
 30
0.0
 11
369.018038
 21
220.76828
 31
0.0
  0
LINE
  8
0
  6
CONTINUOUS
 62
   249
 10
369.018038
 20
220.76828
 30
0.0
 11
366.672272
 21
219.578361
 31
0.0
  0
TEXT
  8
0
  6
CONTINUOUS
 62
   249
 10
362.148225
 20
219.88843
 30
0.0
 40
2.5
  1
I
 11
362.148225
 21
219.055097
 31
0.0
 73
     1
  0
LINE
  8
0
  6
CONTINUOUS
 62
   249
 10
361.32826
 20
217.241188
 30
0.0
 11
361.32826
 21
215.453057
 31
0.0
  0
LINE
  8
0
  6
CONTINUOUS
 62
   249
 10
361.359291
 20
216.39591
 30
0.0
 11
369.147496
 21
216.39591
 31
0.0
  0
LINE
  8
0
  6
CONTINUOUS
 62
   249
 10
363.743436
 20
215.228307
 30
0.0
 11
366.619546
 21
218.056866
 31
0.0
  0
LINE
  8
0
  6
CONTINUOUS
 62
   249
 10
366.188843
 20
218.594072
 30
0.0
 11
367.08952
 21
217.470323
 31
0.0
  0
LINE
  8
0
  6
CONTINUOUS
 62
   249
 10
369.142955
 20
217.241188
 30
0.0
 11
369.142955
 21
215.453057
 31
0.0
  0
LINE
  8
0
  6
CONTINUOUS
 62
   249
 10
361.221603
 20
212.594271
 30
0.0
 11
368.765189
 21
212.594271
 31
0.0
  0
TEXT
  8
0
  6
CONTINUOUS
 62
   249
 10
362.148225
 20
207.358267
 30
0.0
 40
2.5
  1
I
 11
362.148225
 21
206.524934
 31
0.0
 73
     1
  0
LINE
  8
0
  6
CONTINUOUS
 62
   249
 10
371.381186
 20
208.238117
 30
0.0
 11
369.03542
 21
207.048198
 31
0.0
  0
LINE
  8
0
  6
CONTINUOUS
 62
   249
 10
369.03542
 20
209.573471
 30
0.0
 11
371.381186
 21
208.238117
 31
0.0
  0
LINE
  8
0
  6
CONTINUOUS
 62
   249
 10
369.002822
 20
208.238117
 30
0.0
 11
366.657057
 21
207.048198
 31
0.0
  0
LINE
  8
0
  6
CONTINUOUS
 62
   249
 10
366.657057
 20
209.573471
 30
0.0
 11
369.002822
 21
208.238117
 31
0.0
  0
LINE
  8
0
  6
CONTINUOUS
 62
   249
 10
369.142955
 20
204.060824
 30
0.0
 11
369.142955
 21
202.272692
 31
0.0
  0
LINE
  8
0
  6
CONTINUOUS
 62
   249
 10
366.188843
 20
205.413708
 30
0.0
 11
367.08952
 21
204.289959
 31
0.0
  0
LINE
  8
0
  6
CONTINUOUS
 62
   249
 10
363.743436
 20
202.047943
 30
0.0
 11
366.619546
 21
204.876501
 31
0.0
  0
LINE
  8
0
  6
CONTINUOUS
 62
   249
 10
361.359291
 20
203.215545
 30
0.0
 11
369.147496
 21
203.215545
 31
0.0
  0
LINE
  8
0
  6
CONTINUOUS
 62
   249
 10
361.32826
 20
204.060824
 30
0.0
 11
361.32826
 21
202.272692
 31
0.0
  0
LINE
  8
0
  6
CONTINUOUS
 62
   249
 10
361.221603
 20
199.435947
 30
0.0
 11
368.765189
 21
199.435947
 31
0.0
  0
LINE
  8
0
  6
CONTINUOUS
 62
   249
 10
361.32826
 20
167.512174
 30
0.0
 11
361.32826
 21
165.724043
 31
0.0
  0
LINE
  8
0
  6
CONTINUOUS
 62
   249
 10
361.359291
 20
166.666896
 30
0.0
 11
369.147496
 21
166.666896
 31
0.0
  0
LINE
  8
0
  6
CONTINUOUS
 62
   249
 10
363.743436
 20
165.499293
 30
0.0
 11
366.619546
 21
168.327852
 31
0.0
  0
LINE
  8
0
  6
CONTINUOUS
 62
   249
 10
366.188843
 20
168.865059
 30
0.0
 11
367.08952
 21
167.74131
 31
0.0
  0
LINE
  8
0
  6
CONTINUOUS
 62
   249
 10
369.142955
 20
167.512174
 30
0.0
 11
369.142955
 21
165.724043
 31
0.0
  0
LINE
  8
0
  6
CONTINUOUS
 62
   249
 10
370.56224
 20
172.365273
 30
0.0
 11
372.908005
 21
171.029919
 31
0.0
  0
LINE
  8
0
  6
CONTINUOUS
 62
   249
 10
372.908005
 20
171.029919
 30
0.0
 11
370.56224
 21
169.84
 31
0.0
  0
LINE
  8
0
  6
CONTINUOUS
 62
   249
 10
371.131634
 20
171.029919
 30
0.0
 11
368.785869
 21
169.84
 31
0.0
  0
LINE
  8
0
  6
CONTINUOUS
 62
   249
 10
368.785869
 20
172.365273
 30
0.0
 11
371.131634
 21
171.029919
 31
0.0
  0
LINE
  8
0
  6
CONTINUOUS
 62
   249
 10
366.821088
 20
172.365273
 30
0.0
 11
369.166854
 21
171.029919
 31
0.0
  0
LINE
  8
0
  6
CONTINUOUS
 62
   249
 10
369.166854
 20
171.029919
 30
0.0
 11
366.821088
 21
169.84
 31
0.0
  0
TEXT
  8
0
  6
DASHED
 62
   249
 10
364.383505
 20
169.865891
 30
0.0
 40
2.5
  1
I
  7
GREEKS
  0
TEXT
  8
0
  6
DASHED
 62
   249
 10
362.133208
 20
169.878826
 30
0.0
 40
2.0
  1
2
  7
GREEKS
  0
LINE
  8
0
  6
CONTINUOUS
 62
   249
 10
361.221603
 20
178.337859
 30
0.0
 11
368.765189
 21
178.337859
 31
0.0
  0
TEXT
  8
0
  6
DASHED
 62
   249
 10
362.133208
 20
180.858466
 30
0.0
 40
2.0
  1
2
  7
GREEKS
  0
TEXT
  8
0
  6
DASHED
 62
   249
 10
364.383505
 20
180.845531
 30
0.0
 40
2.5
  1
I
  7
GREEKS
  0
TEXT
  8
0
  6
DASHED
 62
   249
 10
364.383505
 20
193.276511
 30
0.0
 40
2.5
  1
I
  7
GREEKS
  0
TEXT
  8
0
  6
DASHED
 62
   249
 10
362.133208
 20
193.289445
 30
0.0
 40
2.0
  1
2
  7
GREEKS
  0
LINE
  8
0
  6
CONTINUOUS
 62
   249
 10
361.221603
 20
190.474187
 30
0.0
 11
368.765189
 21
190.474187
 31
0.0
  0
LINE
  8
0
  6
CONTINUOUS
 62
   249
 10
366.578563
 20
195.816754
 30
0.0
 11
368.924329
 21
194.4814
 31
0.0
  0
LINE
  8
0
  6
CONTINUOUS
 62
   249
 10
368.924329
 20
194.4814
 30
0.0
 11
366.578563
 21
193.291481
 31
0.0
  0
LINE
  8
0
  6
CONTINUOUS
 62
   249
 10
361.32826
 20
187.706143
 30
0.0
 11
361.32826
 21
185.918012
 31
0.0
  0
LINE
  8
0
  6
CONTINUOUS
 62
   249
 10
361.359291
 20
186.860865
 30
0.0
 11
369.147496
 21
186.860865
 31
0.0
  0
LINE
  8
0
  6
CONTINUOUS
 62
   249
 10
366.188843
 20
189.059027
 30
0.0
 11
367.08952
 21
187.935278
 31
0.0
  0
ARC
  8
0
  6
HIDDEN
 62
   249
 10
368.054159
 20
190.789409
 30
0.0
 40
4.998196
 50
206.402922
 51
282.21115
  0
LINE
  8
0
  6
CONTINUOUS
 62
   249
 10
363.743436
 20
185.693262
 30
0.0
 11
366.619546
 21
188.521821
 31
0.0
  0
LINE
  8
0
  6
CONTINUOUS
 62
   249
 10
369.142955
 20
187.706143
 30
0.0
 11
369.142955
 21
185.918012
 31
0.0
  0
LINE
  8
0
  6
CONTINUOUS
 62
   249
 10
369.166854
 20
182.00956
 30
0.0
 11
366.821088
 21
180.819641
 31
0.0
  0
LINE
  8
0
  6
CONTINUOUS
 62
   249
 10
366.821088
 20
183.344914
 30
0.0
 11
369.166854
 21
182.00956
 31
0.0
  0
LINE
  8
0
  6
CONTINUOUS
 62
   249
 10
369.014099
 20
183.344914
 30
0.0
 11
371.359864
 21
182.00956
 31
0.0
  0
LINE
  8
0
  6
CONTINUOUS
 62
   249
 10
371.359864
 20
182.00956
 30
0.0
 11
369.014099
 21
180.819641
 31
0.0
  0
LINE
  8
0
  6
CONTINUOUS
 62
   249
 10
369.142955
 20
175.552173
 30
0.0
 11
369.142955
 21
173.764041
 31
0.0
  0
LINE
  8
0
  6
CONTINUOUS
 62
   249
 10
366.188843
 20
176.905057
 30
0.0
 11
367.08952
 21
175.781308
 31
0.0
  0
LINE
  8
0
  6
CONTINUOUS
 62
   249
 10
363.743436
 20
173.539291
 30
0.0
 11
366.619546
 21
176.36785
 31
0.0
  0
LINE
  8
0
  6
CONTINUOUS
 62
   249
 10
361.359291
 20
174.706894
 30
0.0
 11
369.147496
 21
174.706894
 31
0.0
  0
LINE
  8
0
  6
CONTINUOUS
 62
   249
 10
361.32826
 20
175.552173
 30
0.0
 11
361.32826
 21
173.764041
 31
0.0
  0
LINE
  8
0
  6
CONTINUOUS
 62
   249
 10
355.727984
 20
165.0
 30
0.0
 11
375.727984
 21
165.0
 31
0.0
  0
TEXT
  8
0
  6
DASHED
 62
   249
 10
351.620768
 20
148.465966
 30
0.0
 40
2.0
  1
FEEDER TERMINAL
  7
ROMANS
  0
TEXT
  8
0
  6
DASHED
 62
   249
 10
351.620768
 20
145.132633
 30
0.0
 40
2.0
  1
LEDNINGSTERMINAL
  7
ROMANS
  0
TEXT
  8
0
  6
CONTINUOUS
 62
   249
 10
52.713192
 20
29.395962
 30
0.0
 40
2.014518
  1
f
  7
GREEKC
  0
TEXT
  8
0
  6
DASHED
 62
   249
 10
19.98632
 20
38.730372
 30
0.0
 40
2.0
  1
2) OPERATING CHARACTERISTICS
  7
GREEKS
  0
TEXT
  8
0
  6
DASHED
 62
   249
 10
21.313679
 20
35.397039
 30
0.0
 40
2.0
  1
  SIN  OR COS  /
  7
GREEKS
  0
TEXT
  8
0
  6
DASHED
 62
   249
 10
21.313679
 20
32.063705
 30
0.0
 40
2.0
  1
  FUNKTIONSKARAKTERISTIKEN
  7
ROMANS
  0
TEXT
  8
0
  6
DASHED
 62
   249
 10
21.313679
 20
28.730372
 30
0.0
 40
2.0
  1
  SIN  ELLER COS
  7
ROMANS
  0
TEXT
  8
0
  6
CONTINUOUS
 62
   249
 10
30.676688
 20
29.395962
 30
0.0
 40
2.014518
  1
f
  7
GREEKC
  0
TEXT
  8
0
  6
CONTINUOUS
 62
   249
 10
30.676688
 20
36.082878
 30
0.0
 40
2.014518
  1
f
  7
GREEKC
  0
TEXT
  8
0
  6
CONTINUOUS
 62
   249
 10
46.675472
 20
36.082878
 30
0.0
 40
2.014518
  1
f
  7
GREEKC
  0
TEXT
  8
0
  6
DASHED
 62
   249
 10
19.996249
 20
23.987938
 30
0.0
 40
2.0
  1
3) BLOCKING INPUT /
  7
ROMANS
  0
TEXT
  8
0
  6
DASHED
 62
   249
 10
21.323608
 20
20.654605
 30
0.0
 40
2.0
  1
  BLOCKERING IN
  7
ROMANS
  0
TEXT
  8
0
  6
DASHED
 62
   249
 10
20.043235
 20
16.351835
 30
0.0
 40
2.0
  1
4) TRIP 1 /
  7
ROMANS
  0
TEXT
  8
0
  6
DASHED
 62
   249
 10
21.323608
 20
13.018501
 30
0.0
 40
2.0
  1
  UTLÖSNING 1
  7
ROMANS
  0
TEXT
  8
0
  6
DASHED
 62
   249
 10
87.5
 20
35.008677
 30
0.0
 40
2.0
  1
5a) TRIP 2 OR ALARM OUTPUT /
  7
ROMANS
  0
TEXT
  8
0
  6
DASHED
 62
   249
 10
88.839015
 20
31.675344
 30
0.0
 40
2.0
  1
   UTLÖSNING 2 ELLER SIGNALUTGÅNG
  7
ROMANS
  0
TEXT
  8
0
  6
DASHED
 62
   249
 10
87.5
 20
25.842011
 30
0.0
 40
2.0
  1
5b) ALARM OUTPUT /
  7
ROMANS
  0
TEXT
  8
0
  6
DASHED
 62
   249
 10
88.839015
 20
22.508677
 30
0.0
 40
2.0
  1
   SIGNALUTGÅNG
  7
ROMANS
  0
TEXT
  8
0
  6
DASHED
 62
   249
 10
87.5
 20
16.317819
 30
0.0
 40
2.0
  1
5c) START, BLOCKING ETC.
  7
ROMANS
  0
TEXT
  8
0
  6
DASHED
 62
   249
 10
88.839015
 20
12.984486
 30
0.0
 40
2.0
  1
   START, BLOCKERING MM.
  7
ROMANS
  0
TEXT
  8
0
  6
DASHED
 62
   249
 10
370.307098
 20
11.986662
 30
0.0
 40
2.0
  1
1/2
  7
ROMANS
  0
LINE
  8
0
  6
CONTINUOUS
 62
   249
 10
73.75
 20
190.377204
 30
0.0
 11
73.75
 21
209.665835
 31
0.0
  0
LINE
  8
0
  6
CONTINUOUS
 62
   249
 10
107.5
 20
152.5
 30
0.0
 11
107.5
 21
175.531649
 31
0.0
  0
LINE
  8
0
  6
CONTINUOUS
 62
   249
 10
107.5
 20
175.531649
 30
0.0
 11
162.5
 21
175.531649
 31
0.0
  0
LINE
  8
0
  6
CONTINUOUS
 62
   249
 10
76.25
 20
190.377204
 30
0.0
 11
76.25
 21
195.676888
 31
0.0
  0
LINE
  8
0
  6
CONTINUOUS
 62
   249
 10
76.25
 20
195.676888
 30
0.0
 11
160.0
 21
195.676888
 31
0.0
  0
TEXT
  8
0
  6
CONTINUOUS
 62
   249
 10
207.381462
 20
199.578099
 30
0.0
 40
2.0
  1
I
  7
GREEKS
  0
TEXT
  8
0
  6
CONTINUOUS
 62
   249
 10
208.218347
 20
197.969125
 30
0.0
 40
1.3
  1
L1,L3
  7
GREEKS
  0
LINE
  8
0
  6
CONTINUOUS
 62
   249
 10
213.262126
 20
201.590072
 30
0.0
 11
215.079543
 21
200.555487
 31
0.0
  0
TEXT
  8
0
  6
CONTINUOUS
 62
   249
 10
208.218347
 20
197.969125
 30
0.0
 40
1.3
  1
L1,L3
  7
GREEKS
  0
TEXT
  8
0
  6
CONTINUOUS
 62
   249
 10
205.396803
 20
199.59134
 30
0.0
 40
2.0
  1
2
  7
GREEKS
  0
TEXT
  8
0
  6
CONTINUOUS
 62
   249
 10
207.381462
 20
199.578099
 30
0.0
 40
2.0
  1
I
  7
GREEKS
  0
LINE
  8
0
  6
CONTINUOUS
 62
   249
 10
215.079543
 20
200.555487
 30
0.0
 11
213.262126
 21
199.633579
 31
0.0
  0
LINE
  8
0
  6
CONTINUOUS
 62
   249
 10
215.079543
 20
138.257326
 30
0.0
 11
213.262126
 21
137.335419
 31
0.0
  0
TEXT
  8
0
  6
CONTINUOUS
 62
   249
 10
207.381462
 20
137.279939
 30
0.0
 40
2.0
  1
I
  7
GREEKS
  0
TEXT
  8
0
  6
CONTINUOUS
 62
   249
 10
205.396803
 20
137.29318
 30
0.0
 40
2.0
  1
2
  7
GREEKS
  0
LINE
  8
0
  6
CONTINUOUS
 62
   249
 10
213.262126
 20
139.291912
 30
0.0
 11
215.079543
 21
138.257326
 31
0.0
  0
TEXT
  8
0
  6
CONTINUOUS
 62
   249
 10
207.381462
 20
137.279939
 30
0.0
 40
2.0
  1
I
  7
GREEKS
  0
TEXT
  8
0
  6
CONTINUOUS
 62
   249
 10
205.396803
 20
137.29318
 30
0.0
 40
2.0
  1
2
  7
GREEKS
  0
LINE
  8
0
  6
CONTINUOUS
 62
   249
 10
215.079543
 20
138.257326
 30
0.0
 11
213.262126
 21
137.335419
 31
0.0
  0
LINE
  8
0
  6
CONTINUOUS
 62
   249
 10
213.262126
 20
139.291912
 30
0.0
 11
215.079543
 21
138.257326
 31
0.0
  0
TEXT
  8
0
  6
CONTINUOUS
 62
   249
 10
208.142266
 20
135.604843
 30
0.0
 40
1.3
  1
L1,L2
  7
GREEKS
  0
TEXT
  8
0
  6
CONTINUOUS
 62
   249
 10
123.221328
 20
63.945356
 30
0.0
 40
2.0
  1
ARINH
 50
90.0
  7
ROMANS
  0
TEXT
  8
0
  6
CONTINUOUS
 62
   249
 10
131.286862
 20
63.945356
 30
0.0
 40
2.0
  1
CH15
 50
90.0
  7
ROMANS
  0
TEXT
  8
0
  6
CONTINUOUS
 62
   249
 10
148.238586
 20
63.945356
 30
0.0
 40
2.0
  1
CH16
 50
90.0
  7
ROMANS
  0
TEXT
  8
0
  6
CONTINUOUS
 62
   249
 10
163.470893
 20
63.945356
 30
0.0
 40
2.0
  1
CH17
 50
90.0
  7
ROMANS
  0
TEXT
  8
0
  6
CONTINUOUS
 62
   249
 10
212.560522
 20
28.10378
 30
0.0
 40
2.0
  1
94-05-06 JR / AD-ELECT.
  7
ROMANS
  0
TEXT
  8
0
  6
CONTINUOUS
 62
   249
 10
380.0
 20
2.5
 30
0.0
 40
2.5
  1
A
  7
ROMANS
  0
TEXT
  8
0
  6
CONTINUOUS
 62
   249
 10
322.5
 20
2.5
 30
0.0
 40
2.5
  1
1MRS10213-AA
  7
ROMANS
  0
LINE
  8
0
  6
CONTINUOUS
 62
   249
 10
297.5
 20
120.0
 30
0.0
 11
302.5
 21
120.0
 31
0.0
  0
CIRCLE
  8
0
  6
CONTINUOUS
 62
   249
 10
289.258945
 20
90.0
 30
0.0
 40
0.740939
  0
CIRCLE
  8
0
  6
CONTINUOUS
 62
   249
 10
289.258945
 20
110.0
 30
0.0
 40
0.740939
  0
CIRCLE
  8
0
  6
CONTINUOUS
 62
   249
 10
289.258945
 20
130.0
 30
0.0
 40
0.740939
  0
CIRCLE
  8
0
  6
CONTINUOUS
 62
   249
 10
289.258945
 20
150.0
 30
0.0
 40
0.740939
  0
TEXT
  8
0
  6
DASHED
 62
   249
 10
27.5
 20
256.16032
 30
0.0
 40
2.0
  1
101:
  7
ROMANS
  0
LINE
  8
0
  6
DASHED
 62
   249
 10
22.5
 20
150.0
 30
0.0
 11
17.5
 21
150.0
 31
0.0
  0
TEXT
  8
0
  6
HIDDEN
 62
   249
 10
276.791434
 20
91.546796
 30
0.0
 40
2.0
  1
U3
  7
ROMANS
  0
TEXT
  8
0
  6
HIDDEN
 62
   249
 10
276.791434
 20
111.860588
 30
0.0
 40
2.0
  1
U2
  7
ROMANS
  0
TEXT
  8
0
  6
CONTINUOUS
 62
   249
 10
273.173717
 20
136.95423
 30
0.0
 40
2.0
  1
NU
  7
ROMANS
  0
TEXT
  8
0
  6
CONTINUOUS
 62
   249
 10
273.173717
 20
146.95423
 30
0.0
 40
2.0
  1
NU
  7
ROMANS
  0
LINE
  8
0
  6
DASHED
 62
   249
 10
336.298944
 20
104.753017
 30
0.0
 11
336.298944
 21
213.106273
 31
0.0
  0
LINE
  8
0
  6
CONTINUOUS
 62
   249
 10
297.5
 20
80.0
 30
0.0
 11
302.5
 21
80.0
 31
0.0
  0
LINE
  8
0
  6
CONTINUOUS
 62
   249
 10
297.5
 20
90.0
 30
0.0
 11
302.5
 21
90.0
 31
0.0
  0
LINE
  8
0
  6
CONTINUOUS
 62
   249
 10
297.5
 20
100.0
 30
0.0
 11
302.5
 21
100.0
 31
0.0
  0
LINE
  8
0
  6
CONTINUOUS
 62
   249
 10
297.5
 20
110.0
 30
0.0
 11
302.5
 21
110.0
 31
0.0
  0
LINE
  8
0
  6
CONTINUOUS
 62
   249
 10
297.5
 20
130.0
 30
0.0
 11
302.5
 21
130.0
 31
0.0
  0
LINE
  8
0
  6
CONTINUOUS
 62
   249
 10
297.5
 20
140.0
 30
0.0
 11
302.5
 21
140.0
 31
0.0
  0
LINE
  8
0
  6
CONTINUOUS
 62
   249
 10
297.5
 20
150.0
 30
0.0
 11
302.5
 21
150.0
 31
0.0
  0
LINE
  8
0
  6
CONTINUOUS
 62
   249
 10
297.5
 20
165.0
 30
0.0
 11
302.5
 21
165.0
 31
0.0
  0
LINE
  8
0
  6
CONTINUOUS
 62
   249
 10
297.5
 20
175.0
 30
0.0
 11
302.5
 21
175.0
 31
0.0
  0
LINE
  8
0
  6
CONTINUOUS
 62
   249
 10
297.5
 20
185.0
 30
0.0
 11
302.5
 21
185.0
 31
0.0
  0
LINE
  8
0
  6
CONTINUOUS
 62
   249
 10
297.5
 20
195.0
 30
0.0
 11
302.5
 21
195.0
 31
0.0
  0
LINE
  8
0
  6
CONTINUOUS
 62
   249
 10
297.5
 20
205.0
 30
0.0
 11
302.5
 21
205.0
 31
0.0
  0
LINE
  8
0
  6
CONTINUOUS
 62
   249
 10
297.5
 20
215.0
 30
0.0
 11
302.5
 21
215.0
 31
0.0
  0
LINE
  8
0
  6
CONTINUOUS
 62
   249
 10
297.5
 20
225.0
 30
0.0
 11
302.5
 21
225.0
 31
0.0
  0
LINE
  8
0
  6
CONTINUOUS
 62
   249
 10
297.5
 20
235.0
 30
0.0
 11
302.5
 21
235.0
 31
0.0
  0
TEXT
  8
0
  6
DASHED
 62
   249
 10
290.025562
 20
86.213263
 30
0.0
 40
2.0
  1
23A
  7
ROMANS
  0
TEXT
  8
0
  6
DASHED
 62
   249
 10
276.839664
 20
86.092039
 30
0.0
 40
2.0
  1
23B
  7
ROMANS
  0
LINE
  8
0
  6
CONTINUOUS
 62
   249
 10
289.999883
 20
90.0
 30
0.0
 11
297.5
 21
90.0
 31
0.0
  0
LINE
  8
0
  6
CONTINUOUS
 62
   249
 10
288.518035
 20
89.993411
 30
0.0
 11
281.837159
 21
92.434804
 31
0.0
  0
LINE
  8
0
  6
CONTINUOUS
 62
   249
 10
281.837159
 20
92.434804
 30
0.0
 11
281.392266
 21
91.549106
 31
0.0
  0
LINE
  8
0
  6
CONTINUOUS
 62
   249
 10
282.5
 20
90.0
 30
0.0
 11
282.5
 21
92.765661
 31
0.0
  0
TEXT
  8
0
  6
DASHED
 62
   249
 10
276.839664
 20
106.397161
 30
0.0
 40
2.0
  1
22B
  7
ROMANS
  0
LINE
  8
0
  6
DASHED
 62
   249
 10
271.0
 20
110.0
 30
0.0
 11
282.5
 21
110.0
 31
0.0
  0
LINE
  8
0
  6
CONTINUOUS
 62
   249
 10
281.837159
 20
112.434804
 30
0.0
 11
281.392266
 21
111.549106
 31
0.0
  0
LINE
  8
0
  6
CONTINUOUS
 62
   249
 10
282.5
 20
110.0
 30
0.0
 11
282.5
 21
112.765661
 31
0.0
  0
LINE
  8
0
  6
CONTINUOUS
 62
   249
 10
288.518035
 20
109.993411
 30
0.0
 11
281.837159
 21
112.434804
 31
0.0
  0
TEXT
  8
0
  6
DASHED
 62
   249
 10
290.025562
 20
106.518385
 30
0.0
 40
2.0
  1
22A
  7
ROMANS
  0
LINE
  8
0
  6
CONTINUOUS
 62
   249
 10
289.999883
 20
110.0
 30
0.0
 11
297.5
 21
110.0
 31
0.0
  0
LINE
  8
0
  6
DASHED
 62
   249
 10
271.0
 20
130.0
 30
0.0
 11
282.5
 21
130.0
 31
0.0
  0
TEXT
  8
0
  6
DASHED
 62
   249
 10
276.839664
 20
126.397161
 30
0.0
 40
2.0
  1
21B
  7
ROMANS
  0
TEXT
  8
0
  6
DASHED
 62
   249
 10
290.025562
 20
126.518385
 30
0.0
 40
2.0
  1
21A
  7
ROMANS
  0
LINE
  8
0
  6
CONTINUOUS
 62
   249
 10
289.999883
 20
130.0
 30
0.0
 11
297.5
 21
130.0
 31
0.0
  0
LINE
  8
0
  6
CONTINUOUS
 62
   249
 10
288.518035
 20
129.993411
 30
0.0
 11
281.837159
 21
132.434804
 31
0.0
  0
LINE
  8
0
  6
CONTINUOUS
 62
   249
 10
281.837159
 20
132.434804
 30
0.0
 11
281.392266
 21
131.549106
 31
0.0
  0
LINE
  8
0
  6
CONTINUOUS
 62
   249
 10
282.5
 20
130.0
 30
0.0
 11
282.5
 21
132.765661
 31
0.0
  0
LINE
  8
0
  6
CONTINUOUS
 62
   249
 10
289.999883
 20
150.0
 30
0.0
 11
297.5
 21
150.0
 31
0.0
  0
LINE
  8
0
  6
CONTINUOUS
 62
   249
 10
281.837159
 20
152.434804
 30
0.0
 11
281.392266
 21
151.549106
 31
0.0
  0
LINE
  8
0
  6
CONTINUOUS
 62
   249
 10
282.5
 20
150.0
 30
0.0
 11
282.5
 21
152.765661
 31
0.0
  0
LINE
  8
0
  6
CONTINUOUS
 62
   249
 10
288.518035
 20
149.993411
 30
0.0
 11
281.837159
 21
152.434804
 31
0.0
  0
TEXT
  8
0
  6
DASHED
 62
   249
 10
279.197923
 20
146.397161
 30
0.0
 40
2.0
  1
24B
  7
ROMANS
  0
TEXT
  8
0
  6
DASHED
 62
   249
 10
290.384687
 20
146.518385
 30
0.0
 40
2.0
  1
24A
  7
ROMANS
  0
CIRCLE
  8
0
  6
CONTINUOUS
 62
   249
 10
331.901457
 20
224.469262
 30
0.0
 40
4.398585
  0
CIRCLE
  8
0
  6
CONTINUOUS
 62
   249
 10
327.5
 20
217.477727
 30
0.0
 40
4.398585
  0
CIRCLE
  8
0
  6
CONTINUOUS
 62
   249
 10
336.321271
 20
217.504801
 30
0.0
 40
4.398585
  0
LINE
  8
0
  6
CONTINUOUS
 62
   249
 10
329.698859
 20
226.641535
 30
0.0
 11
332.03226
 21
224.308133
 31
0.0
  0
LINE
  8
0
  6
CONTINUOUS
 62
   249
 10
332.03226
 20
224.308133
 30
0.0
 11
334.365662
 21
226.641535
 31
0.0
  0
LINE
  8
0
  6
CONTINUOUS
 62
   249
 10
332.03226
 20
224.308133
 30
0.0
 11
332.03226
 21
221.974732
 31
0.0
  0
LINE
  8
0
  6
CONTINUOUS
 62
   249
 10
327.61994
 20
219.983904
 30
0.0
 11
325.286539
 21
215.3171
 31
0.0
  0
LINE
  8
0
  6
CONTINUOUS
 62
   249
 10
325.286539
 20
215.3171
 30
0.0
 11
329.953342
 21
215.3171
 31
0.0
  0
LINE
  8
0
  6
CONTINUOUS
 62
   249
 10
329.953342
 20
215.3171
 30
0.0
 11
327.61994
 21
219.983904
 31
0.0
  0
LINE
  8
0
  6
CONTINUOUS
 62
   249
 10
336.280668
 20
217.322765
 30
0.0
 11
336.280668
 21
214.989364
 31
0.0
  0
LINE
  8
0
  6
CONTINUOUS
 62
   249
 10
334.307621
 20
219.295812
 30
0.0
 11
336.280668
 21
217.322765
 31
0.0
  0
LINE
  8
0
  6
CONTINUOUS
 62
   249
 10
336.280668
 20
217.322765
 30
0.0
 11
338.61407
 21
219.656167
 31
0.0
  0
LINE
  8
0
  6
DASHED
 62
   249
 10
331.901457
 20
235.0
 30
0.0
 11
331.901457
 21
228.867847
 31
0.0
  0
LINE
  8
0
  6
DASHED
 62
   249
 10
327.5
 20
145.0
 30
0.0
 11
327.5
 21
213.079142
 31
0.0
  0
LINE
  8
0
  6
CENTER
 62
   249
 10
297.5
 20
220.0
 30
0.0
 11
297.5
 21
255.0
 31
0.0
  0
LINE
  8
0
  6
CENTER
 62
   249
 10
297.5
 20
197.5
 30
0.0
 11
297.5
 21
52.5
 31
0.0
  0
LINE
  8
0
  6
CENTER
 62
   249
 10
297.5
 20
220.0
 30
0.0
 11
297.5
 21
197.5
 31
0.0
  0
TEXT
  8
0
  6
CONTINUOUS
 62
   249
 10
289.854441
 20
162.25756
 30
0.0
 40
2.0
  1
20A
  7
ROMANS
  0
LINE
  8
0
  6
CONTINUOUS
 62
   249
 10
289.449137
 20
165.0
 30
0.0
 11
297.5
 21
165.0
 31
0.0
  0
TEXT
  8
0
  6
CONTINUOUS
 62
   249
 10
290.68043
 20
172.051395
 30
0.0
 40
2.0
  1
19A
  7
ROMANS
  0
LINE
  8
0
  6
CONTINUOUS
 62
   249
 10
289.449137
 20
175.0
 30
0.0
 11
297.5
 21
175.0
 31
0.0
  0
TEXT
  8
0
  6
DASHED
 62
   249
 10
290.68043
 20
182.045879
 30
0.0
 40
2.0
  1
18A
  7
ROMANS
 11
290.68043
 21
181.379213
 31
0.0
 73
     1
  0
LINE
  8
0
  6
CONTINUOUS
 62
   249
 10
289.449137
 20
185.0
 30
0.0
 11
297.5
 21
185.0
 31
0.0
  0
TEXT
  8
0
  6
DASHED
 62
   249
 10
290.68043
 20
192.333333
 30
0.0
 40
2.0
  1
17A
  7
ROMANS
 11
290.68043
 21
191.666667
 31
0.0
 73
     1
  0
LINE
  8
0
  6
CONTINUOUS
 62
   249
 10
289.449137
 20
195.0
 30
0.0
 11
297.5
 21
195.0
 31
0.0
  0
LINE
  8
0
  6
CONTINUOUS
 62
   249
 10
289.449137
 20
205.0
 30
0.0
 11
297.5
 21
205.0
 31
0.0
  0
TEXT
  8
0
  6
DASHED
 62
   249
 10
290.68043
 20
202.286975
 30
0.0
 40
2.0
  1
16A
  7
ROMANS
 11
290.68043
 21
201.620309
 31
0.0
 73
     1
  0
TEXT
  8
0
  6
DASHED
 62
   249
 10
290.68043
 20
212.037215
 30
0.0
 40
2.0
  1
15A
  7
ROMANS
 11
290.68043
 21
211.370548
 31
0.0
 73
     1
  0
LINE
  8
0
  6
CONTINUOUS
 62
   249
 10
289.449137
 20
215.0
 30
0.0
 11
297.5
 21
215.0
 31
0.0
  0
TEXT
  8
0
  6
DASHED
 62
   249
 10
290.68043
 20
222.333333
 30
0.0
 40
2.0
  1
14A
  7
ROMANS
 11
290.68043
 21
221.666667
 31
0.0
 73
     1
  0
LINE
  8
0
  6
CONTINUOUS
 62
   249
 10
289.449137
 20
225.0
 30
0.0
 11
297.5
 21
225.0
 31
0.0
  0
LINE
  8
0
  6
CONTINUOUS
 62
   249
 10
289.449137
 20
235.0
 30
0.0
 11
297.5
 21
235.0
 31
0.0
  0
TEXT
  8
0
  6
DASHED
 62
   249
 10
290.68043
 20
232.265533
 30
0.0
 40
2.0
  1
13A
  7
ROMANS
 11
290.68043
 21
231.598866
 31
0.0
 73
     1
  0
LINE
  8
0
  6
CONTINUOUS
 62
   249
 10
265.0
 20
230.0
 30
0.0
 11
269.266471
 21
230.0
 31
0.0
  0
LINE
  8
0
  6
CONTINUOUS
 62
   249
 10
265.0
 20
225.0
 30
0.0
 11
269.266471
 21
225.0
 31
0.0
  0
LINE
  8
0
  6
CONTINUOUS
 62
   249
 10
265.0
 20
220.0
 30
0.0
 11
280.0
 21
220.0
 31
0.0
  0
LINE
  8
0
  6
CONTINUOUS
 62
   249
 10
265.0
 20
210.0
 30
0.0
 11
269.266471
 21
210.0
 31
0.0
  0
LINE
  8
0
  6
CONTINUOUS
 62
   249
 10
265.0
 20
205.0
 30
0.0
 11
269.266471
 21
205.0
 31
0.0
  0
LINE
  8
0
  6
CONTINUOUS
 62
   249
 10
280.0
 20
200.0
 30
0.0
 11
265.0
 21
200.0
 31
0.0
  0
LINE
  8
0
  6
CONTINUOUS
 62
   249
 10
265.0
 20
190.0
 30
0.0
 11
269.266471
 21
190.0
 31
0.0
  0
LINE
  8
0
  6
CONTINUOUS
 62
   249
 10
265.0
 20
185.0
 30
0.0
 11
269.266471
 21
185.0
 31
0.0
  0
LINE
  8
0
  6
CONTINUOUS
 62
   249
 10
280.0
 20
180.0
 30
0.0
 11
265.0
 21
180.0
 31
0.0
  0
LINE
  8
0
  6
CONTINUOUS
 62
   249
 10
265.0
 20
170.0
 30
0.0
 11
269.266471
 21
170.0
 31
0.0
  0
LINE
  8
0
  6
CONTINUOUS
 62
   249
 10
265.0
 20
165.0
 30
0.0
 11
269.266471
 21
165.0
 31
0.0
  0
LINE
  8
0
  6
CONTINUOUS
 62
   249
 10
280.0
 20
160.0
 30
0.0
 11
265.0
 21
160.0
 31
0.0
  0
CIRCLE
  8
0
  6
CONTINUOUS
 62
   249
 10
288.449551
 20
234.971218
 30
0.0
 40
1.0
  0
LINE
  8
0
 62
   249
 10
277.5
 20
224.99845
 30
0.0
 11
277.5
 21
234.99845
 31
0.0
  0
LINE
  8
0
 62
   249
 10
280.0
 20
235.0
 30
0.0
 11
282.5
 21
235.0
 31
0.0
  0
LINE
  8
0
 62
   249
 10
277.5
 20
234.99845
 30
0.0
 11
280.0
 21
234.99845
 31
0.0
  0
LINE
  8
0
 62
   249
 10
275.0
 20
230.0
 30
0.0
 11
280.0
 21
230.0
 31
0.0
  0
LINE
  8
0
 62
   249
 10
280.0
 20
230.0
 30
0.0
 11
282.5
 21
230.0
 31
0.0
  0
LINE
  8
0
 62
   249
 10
282.5
 20
230.0
 30
0.0
 11
282.5
 21
232.9
 31
0.0
  0
LINE
  8
0
 62
   249
 10
281.38095
 20
231.944425
 30
0.0
 11
282.060313
 21
231.008681
 31
0.0
  0
LINE
  8
0
 62
   249
 10
287.449552
 20
234.969558
 30
0.0
 11
281.7
 21
231.5
 31
0.0
  0
LINE
  8
0
 62
   249
 10
280.0
 20
224.99845
 30
0.0
 11
277.5
 21
224.99845
 31
0.0
  0
LINE
  8
0
 62
   249
 10
280.0
 20
225.0
 30
0.0
 11
282.5
 21
225.0
 31
0.0
  0
LINE
  8
0
  6
CONTINUOUS
 62
   249
 10
275.0
 20
230.0
 30
0.0
 11
271.0
 21
230.0
 31
0.0
  0
LINE
  8
0
 62
   249
 10
287.449552
 20
224.969558
 30
0.0
 11
281.7
 21
221.5
 31
0.0
  0
LINE
  8
0
 62
   249
 10
281.38095
 20
221.944425
 30
0.0
 11
282.060313
 21
221.008681
 31
0.0
  0
LINE
  8
0
 62
   249
 10
280.0
 20
220.0
 30
0.0
 11
282.5
 21
220.0
 31
0.0
  0
LINE
  8
0
 62
   249
 10
282.5
 20
220.0
 30
0.0
 11
282.5
 21
222.9
 31
0.0
  0
CIRCLE
  8
0
  6
CONTINUOUS
 62
   249
 10
288.449551
 20
224.971218
 30
0.0
 40
1.0
  0
LINE
  8
0
 62
   249
 10
287.449552
 20
214.969558
 30
0.0
 11
281.7
 21
211.5
 31
0.0
  0
LINE
  8
0
 62
   249
 10
281.38095
 20
211.944425
 30
0.0
 11
282.060313
 21
211.008681
 31
0.0
  0
LINE
  8
0
 62
   249
 10
282.5
 20
210.0
 30
0.0
 11
282.5
 21
212.9
 31
0.0
  0
LINE
  8
0
 62
   249
 10
280.0
 20
210.0
 30
0.0
 11
282.5
 21
210.0
 31
0.0
  0
LINE
  8
0
 62
   249
 10
275.0
 20
210.0
 30
0.0
 11
280.0
 21
210.0
 31
0.0
  0
LINE
  8
0
 62
   249
 10
277.5
 20
214.99845
 30
0.0
 11
280.0
 21
214.99845
 31
0.0
  0
LINE
  8
0
 62
   249
 10
280.0
 20
215.0
 30
0.0
 11
282.5
 21
215.0
 31
0.0
  0
CIRCLE
  8
0
  6
CONTINUOUS
 62
   249
 10
288.449551
 20
214.971218
 30
0.0
 40
1.0
  0
LINE
  8
0
 62
   249
 10
277.5
 20
204.99845
 30
0.0
 11
277.5
 21
214.99845
 31
0.0
  0
LINE
  8
0
 62
   249
 10
280.0
 20
204.99845
 30
0.0
 11
277.5
 21
204.99845
 31
0.0
  0
LINE
  8
0
 62
   249
 10
280.0
 20
205.0
 30
0.0
 11
282.5
 21
205.0
 31
0.0
  0
LINE
  8
0
 62
   249
 10
281.38095
 20
201.944425
 30
0.0
 11
282.060313
 21
201.008681
 31
0.0
  0
LINE
  8
0
 62
   249
 10
287.449552
 20
204.969558
 30
0.0
 11
281.7
 21
201.5
 31
0.0
  0
LINE
  8
0
 62
   249
 10
282.5
 20
200.0
 30
0.0
 11
282.5
 21
202.9
 31
0.0
  0
LINE
  8
0
 62
   249
 10
280.0
 20
200.0
 30
0.0
 11
282.5
 21
200.0
 31
0.0
  0
CIRCLE
  8
0
  6
CONTINUOUS
 62
   249
 10
288.449551
 20
204.971218
 30
0.0
 40
1.0
  0
LINE
  8
0
 62
   249
 10
280.0
 20
195.0
 30
0.0
 11
282.5
 21
195.0
 31
0.0
  0
LINE
  8
0
 62
   249
 10
277.5
 20
194.99845
 30
0.0
 11
280.0
 21
194.99845
 31
0.0
  0
LINE
  8
0
 62
   249
 10
275.0
 20
190.0
 30
0.0
 11
280.0
 21
190.0
 31
0.0
  0
LINE
  8
0
 62
   249
 10
280.0
 20
190.0
 30
0.0
 11
282.5
 21
190.0
 31
0.0
  0
LINE
  8
0
 62
   249
 10
282.5
 20
190.0
 30
0.0
 11
282.5
 21
192.9
 31
0.0
  0
LINE
  8
0
 62
   249
 10
281.38095
 20
191.944425
 30
0.0
 11
282.060313
 21
191.008681
 31
0.0
  0
LINE
  8
0
 62
   249
 10
287.449552
 20
194.969558
 30
0.0
 11
281.7
 21
191.5
 31
0.0
  0
LINE
  8
0
 62
   249
 10
277.5
 20
184.99845
 30
0.0
 11
277.5
 21
194.99845
 31
0.0
  0
LINE
  8
0
 62
   249
 10
280.0
 20
184.99845
 30
0.0
 11
277.5
 21
184.99845
 31
0.0
  0
LINE
  8
0
 62
   249
 10
280.0
 20
184.998451
 30
0.0
 11
282.5
 21
184.998451
 31
0.0
  0
CIRCLE
  8
0
  6
CONTINUOUS
 62
   249
 10
288.449551
 20
194.971218
 30
0.0
 40
1.0
  0
LINE
  8
0
 62
   249
 10
287.449552
 20
184.969558
 30
0.0
 11
281.7
 21
181.5
 31
0.0
  0
LINE
  8
0
 62
   249
 10
282.5
 20
180.0
 30
0.0
 11
282.5
 21
182.9
 31
0.0
  0
CIRCLE
  8
0
  6
CONTINUOUS
 62
   249
 10
288.449551
 20
184.971218
 30
0.0
 40
1.0
  0
LINE
  8
0
 62
   249
 10
280.0
 20
180.0
 30
0.0
 11
282.5
 21
180.0
 31
0.0
  0
LINE
  8
0
 62
   249
 10
281.38095
 20
181.944425
 30
0.0
 11
282.060313
 21
181.008681
 31
0.0
  0
LINE
  8
0
  6
CONTINUOUS
 62
   249
 10
271.0
 20
231.5
 30
0.0
 11
271.0
 21
224.5
 31
0.0
  0
LINE
  8
0
  6
CONTINUOUS
 62
   249
 10
271.0
 20
224.5
 30
0.0
 11
270.0
 21
223.5
 31
0.0
  0
LINE
  8
0
  6
CONTINUOUS
 62
   249
 10
271.0
 20
231.5
 30
0.0
 11
270.0
 21
232.5
 31
0.0
  0
LINE
  8
0
  6
CONTINUOUS
 62
   249
 10
271.0
 20
211.5
 30
0.0
 11
270.0
 21
212.5
 31
0.0
  0
LINE
  8
0
  6
CONTINUOUS
 62
   249
 10
271.0
 20
211.5
 30
0.0
 11
271.0
 21
204.5
 31
0.0
  0
LINE
  8
0
  6
CONTINUOUS
 62
   249
 10
271.0
 20
204.5
 30
0.0
 11
270.0
 21
203.5
 31
0.0
  0
LINE
  8
0
  6
CONTINUOUS
 62
   249
 10
275.0
 20
190.0
 30
0.0
 11
271.0
 21
190.0
 31
0.0
  0
LINE
  8
0
  6
CONTINUOUS
 62
   249
 10
275.0
 20
210.0
 30
0.0
 11
271.0
 21
210.0
 31
0.0
  0
TEXT
  8
0
  6
DASHED
 62
   249
 10
279.538363
 20
226.634942
 30
0.0
 40
2.0
  1
13B
  7
ROMANS
 11
279.538363
 21
225.968275
 31
0.0
 73
     1
  0
TEXT
  8
0
  6
DASHED
 62
   249
 10
279.538363
 20
216.785715
 30
0.0
 40
2.0
  1
14B
  7
ROMANS
 11
279.538363
 21
216.119049
 31
0.0
 73
     1
  0
TEXT
  8
0
  6
DASHED
 62
   249
 10
279.538363
 20
206.771858
 30
0.0
 40
2.0
  1
15B
  7
ROMANS
 11
279.538363
 21
206.105192
 31
0.0
 73
     1
  0
TEXT
  8
0
  6
DASHED
 62
   249
 10
279.538363
 20
196.931297
 30
0.0
 40
2.0
  1
16B
  7
ROMANS
 11
279.538363
 21
196.26463
 31
0.0
 73
     1
  0
TEXT
  8
0
  6
DASHED
 62
   249
 10
279.538363
 20
186.908775
 30
0.0
 40
2.0
  1
17B
  7
ROMANS
 11
279.538363
 21
186.242108
 31
0.0
 73
     1
  0
TEXT
  8
0
  6
DASHED
 62
   249
 10
279.717817
 20
176.886254
 30
0.0
 40
2.0
  1
18B
  7
ROMANS
 11
279.717817
 21
176.219587
 31
0.0
 73
     1
  0
LINE
  8
0
  6
CONTINUOUS
 62
   249
 10
271.0
 20
184.5
 30
0.0
 11
270.0
 21
183.5
 31
0.0
  0
LINE
  8
0
  6
CONTINUOUS
 62
   249
 10
271.0
 20
191.5
 30
0.0
 11
271.0
 21
184.5
 31
0.0
  0
LINE
  8
0
  6
CONTINUOUS
 62
   249
 10
271.0
 20
191.5
 30
0.0
 11
270.0
 21
192.5
 31
0.0
  0
TEXT
  8
0
  6
CONTINUOUS
 62
   249
 10
273.173717
 20
227.215999
 30
0.0
 40
2.0
  1
RI
  7
ROMANS
  0
TEXT
  8
0
  6
CONTINUOUS
 62
   249
 10
273.173717
 20
177.073925
 30
0.0
 40
2.0
  1
TI
  7
ROMANS
  0
TEXT
  8
0
  6
CONTINUOUS
 62
   249
 10
273.173717
 20
187.255008
 30
0.0
 40
2.0
  1
TI
  7
ROMANS
  0
TEXT
  8
0
  6
CONTINUOUS
 62
   249
 10
273.173717
 20
217.364177
 30
0.0
 40
2.0
  1
RI
  7
ROMANS
  0
TEXT
  8
0
  6
CONTINUOUS
 62
   249
 10
277.887383
 20
239.086709
 30
0.0
 40
2.0
  1
101
  7
ROMANS
  0
LINE
  8
0
  6
CONTINUOUS
 62
   249
 10
271.0
 20
171.5
 30
0.0
 11
270.0
 21
172.5
 31
0.0
  0
LINE
  8
0
  6
CONTINUOUS
 62
   249
 10
271.0
 20
171.5
 30
0.0
 11
271.0
 21
164.5
 31
0.0
  0
LINE
  8
0
  6
CONTINUOUS
 62
   249
 10
271.0
 20
164.5
 30
0.0
 11
270.0
 21
163.5
 31
0.0
  0
TEXT
  8
0
  6
CONTINUOUS
 62
   249
 10
273.173717
 20
167.268022
 30
0.0
 40
2.0
  1
NI
  7
ROMANS
  0
LINE
  8
0
  6
CONTINUOUS
 62
   249
 10
275.0
 20
170.0
 30
0.0
 11
271.0
 21
170.0
 31
0.0
  0
LINE
  8
0
 62
   249
 10
275.0
 20
170.0
 30
0.0
 11
280.0
 21
170.0
 31
0.0
  0
LINE
  8
0
 62
   249
 10
277.5
 20
164.99845
 30
0.0
 11
277.5
 21
174.99845
 31
0.0
  0
LINE
  8
0
 62
   249
 10
280.0
 20
164.998451
 30
0.0
 11
282.5
 21
164.998451
 31
0.0
  0
LINE
  8
0
 62
   249
 10
280.0
 20
164.99845
 30
0.0
 11
277.5
 21
164.99845
 31
0.0
  0
LINE
  8
0
 62
   249
 10
277.5
 20
174.99845
 30
0.0
 11
280.0
 21
174.99845
 31
0.0
  0
LINE
  8
0
 62
   249
 10
280.0
 20
175.0
 30
0.0
 11
282.5
 21
175.0
 31
0.0
  0
LINE
  8
0
 62
   249
 10
281.38095
 20
171.944425
 30
0.0
 11
282.060313
 21
171.008681
 31
0.0
  0
LINE
  8
0
 62
   249
 10
280.0
 20
170.0
 30
0.0
 11
282.5
 21
170.0
 31
0.0
  0
LINE
  8
0
 62
   249
 10
287.449552
 20
174.969558
 30
0.0
 11
281.7
 21
171.5
 31
0.0
  0
LINE
  8
0
 62
   249
 10
282.5
 20
170.0
 30
0.0
 11
282.5
 21
172.9
 31
0.0
  0
CIRCLE
  8
0
  6
CONTINUOUS
 62
   249
 10
288.449551
 20
174.971218
 30
0.0
 40
1.0
  0
LINE
  8
0
 62
   249
 10
281.38095
 20
161.944425
 30
0.0
 11
282.060313
 21
161.008681
 31
0.0
  0
LINE
  8
0
 62
   249
 10
280.0
 20
160.0
 30
0.0
 11
282.5
 21
160.0
 31
0.0
  0
LINE
  8
0
 62
   249
 10
282.5
 20
160.0
 30
0.0
 11
282.5
 21
162.9
 31
0.0
  0
LINE
  8
0
 62
   249
 10
287.449552
 20
164.969558
 30
0.0
 11
281.7
 21
161.5
 31
0.0
  0
CIRCLE
  8
0
  6
CONTINUOUS
 62
   249
 10
288.449551
 20
164.971218
 30
0.0
 40
1.0
  0
TEXT
  8
0
  6
CONTINUOUS
 62
   249
 10
279.735291
 20
166.059912
 30
0.0
 40
2.0
  1
19B
  7
ROMANS
  0
TEXT
  8
0
  6
CONTINUOUS
 62
   249
 10
279.735291
 20
157.129334
 30
0.0
 40
2.0
  1
20B
  7
ROMANS
  0
TEXT
  8
0
  6
CONTINUOUS
 62
   249
 10
273.173717
 20
157.268022
 30
0.0
 40
2.0
  1
NI
  7
ROMANS
  0
TEXT
  8
0
  6
CONTINUOUS
 62
   249
 10
273.134884
 20
207.468381
 30
0.0
 40
2.0
  1
SI
  7
ROMANS
  0
TEXT
  8
0
  6
CONTINUOUS
 62
   249
 10
273.134884
 20
197.312536
 30
0.0
 40
2.0
  1
SI
  7
ROMANS
  0
TEXT
  8
0
  6
CONTINUOUS
 62
   249
 10
271.776354
 20
231.119755
 30
0.0
 40
2.0
  1
1)
  7
ROMANS
  0
TEXT
  8
0
  6
CONTINUOUS
 62
   249
 10
271.776354
 20
211.119755
 30
0.0
 40
2.0
  1
1)
  7
ROMANS
  0
TEXT
  8
0
  6
CONTINUOUS
 62
   249
 10
271.776354
 20
191.119755
 30
0.0
 40
2.0
  1
1)
  7
ROMANS
  0
TEXT
  8
0
  6
CONTINUOUS
 62
   249
 10
271.776354
 20
171.119755
 30
0.0
 40
2.0
  1
1)
  7
ROMANS
  0
LINE
  8
0
  6
DASHED
 62
   249
 10
45.0
 20
97.5
 30
0.0
 11
22.5
 21
97.5
 31
0.0
  0
LINE
  8
0
  6
DASHED
 62
   249
 10
22.5
 20
72.5
 30
0.0
 11
17.5
 21
72.5
 31
0.0
  0
LINE
  8
0
  6
DASHED
 62
   249
 10
22.5
 20
82.5
 30
0.0
 11
17.5
 21
82.5
 31
0.0
  0
LINE
  8
0
  6
DASHED
 62
   249
 10
22.5
 20
97.5
 30
0.0
 11
17.5
 21
97.5
 31
0.0
  0
LINE
  8
0
  6
DASHED
 62
   249
 10
22.5
 20
102.5
 30
0.0
 11
17.5
 21
102.5
 31
0.0
  0
LINE
  8
0
  6
DASHED
 62
   249
 10
22.5
 20
112.5
 30
0.0
 11
17.5
 21
112.5
 31
0.0
  0
LINE
  8
0
  6
DASHED
 62
   249
 10
22.5
 20
122.5
 30
0.0
 11
17.5
 21
122.5
 31
0.0
  0
LINE
  8
0
  6
DASHED
 62
   249
 10
22.5
 20
127.5
 30
0.0
 11
17.5
 21
127.5
 31
0.0
  0
LINE
  8
0
  6
DASHED
 62
   249
 10
22.5
 20
132.5
 30
0.0
 11
17.5
 21
132.5
 31
0.0
  0
LINE
  8
0
  6
CONTINUOUS
 62
   249
 10
45.0
 20
77.5
 30
0.0
 11
42.5
 21
77.5
 31
0.0
  0
LINE
  8
0
  6
CONTINUOUS
 62
   249
 10
45.0
 20
92.5
 30
0.0
 11
42.5
 21
92.5
 31
0.0
  0
LINE
  8
0
  6
CONTINUOUS
 62
   249
 10
45.0
 20
107.5
 30
0.0
 11
42.5
 21
107.5
 31
0.0
  0
LINE
  8
0
  6
DASHED
 62
   249
 10
45.0
 20
82.5
 30
0.0
 11
22.5
 21
82.5
 31
0.0
  0
LINE
  8
0
  6
DASHED
 62
   249
 10
45.0
 20
112.5
 30
0.0
 11
22.5
 21
112.5
 31
0.0
  0
LINE
  8
0
  6
DASHED
 62
   249
 10
22.5
 20
137.5
 30
0.0
 11
17.5
 21
137.5
 31
0.0
  0
LINE
  8
0
  6
DASHED
 62
   249
 10
45.0
 20
127.5
 30
0.0
 11
22.5
 21
127.5
 31
0.0
  0
LINE
  8
0
  6
CONTINUOUS
 62
   249
 10
232.5
 20
62.5
 30
0.0
 11
232.5
 21
52.5
 31
0.0
  0
LINE
  8
0
  6
CONTINUOUS
 62
   249
 10
230.0
 20
62.5
 30
0.0
 11
230.0
 21
52.5
 31
0.0
  0
LINE
  8
0
  6
CONTINUOUS
 62
   249
 10
165.0
 20
62.5
 30
0.0
 11
165.0
 21
52.5
 31
0.0
  0
LINE
  8
0
  6
CONTINUOUS
 62
   249
 10
150.0
 20
62.5
 30
0.0
 11
150.0
 21
52.5
 31
0.0
  0
LINE
  8
0
  6
CONTINUOUS
 62
   249
 10
132.5
 20
62.5
 30
0.0
 11
132.5
 21
52.5
 31
0.0
  0
LINE
  8
0
  6
CONTINUOUS
 62
   249
 10
120.0
 20
62.5
 30
0.0
 11
120.0
 21
52.5
 31
0.0
  0
LINE
  8
0
  6
CENTER
 62
   249
 10
22.5
 20
52.5
 30
0.0
 11
297.5
 21
52.5
 31
0.0
  0
LINE
  8
0
  6
CENTER
 62
   249
 10
297.5
 20
255.0
 30
0.0
 11
22.5
 21
255.0
 31
0.0
  0
CIRCLE
  8
0
  6
CONTINUOUS
 62
   249
 10
42.902292
 20
135.565024
 30
0.0
 40
1.270542
  0
CIRCLE
  8
0
  6
CONTINUOUS
 62
   249
 10
42.902292
 20
135.565024
 30
0.0
 40
0.615602
  0
LINE
  8
0
  6
CONTINUOUS
 62
   249
 10
43.253196
 20
150.0
 30
0.0
 11
37.499883
 21
150.0
 31
0.0
  0
LINE
  8
0
  6
CONTINUOUS
 62
   249
 10
29.337159
 20
134.934804
 30
0.0
 11
28.892266
 21
134.049106
 31
0.0
  0
LINE
  8
0
  6
CONTINUOUS
 62
   249
 10
29.337159
 20
152.434804
 30
0.0
 11
28.892266
 21
151.549106
 31
0.0
  0
CIRCLE
  8
0
  6
CONTINUOUS
 62
   249
 10
36.758945
 20
72.5
 30
0.0
 40
0.740939
  0
LINE
  8
0
  6
CONTINUOUS
 62
   249
 10
29.337159
 20
74.934804
 30
0.0
 11
28.892266
 21
74.049106
 31
0.0
  0
LINE
  8
0
  6
CONTINUOUS
 62
   249
 10
30.0
 20
72.5
 30
0.0
 11
30.0
 21
75.265661
 31
0.0
  0
LINE
  8
0
  6
CONTINUOUS
 62
   249
 10
36.018035
 20
72.493411
 30
0.0
 11
29.337159
 21
74.934804
 31
0.0
  0
TEXT
  8
0
  6
DASHED
 62
   249
 10
24.339664
 20
145.950504
 30
0.0
 40
2.0
  1
12A
  7
ROMANS
  0
TEXT
  8
0
  6
DASHED
 62
   249
 10
36.195481
 20
146.071728
 30
0.0
 40
2.0
  1
12B-
  7
ROMANS
  0
TEXT
  8
0
  6
DASHED
 62
   249
 10
37.078793
 20
134.541955
 30
0.0
 40
2.0
  1
2B
  7
ROMANS
  0
TEXT
  8
0
  6
DASHED
 62
   249
 10
24.339664
 20
134.420731
 30
0.0
 40
2.0
  1
2A
  7
ROMANS
  0
TEXT
  8
0
  6
DASHED
 62
   249
 10
24.339664
 20
128.897161
 30
0.0
 40
2.0
  1
1A
  7
ROMANS
  0
TEXT
  8
0
  6
DASHED
 62
   249
 10
37.078793
 20
129.018385
 30
0.0
 40
2.0
  1
1B+
  7
ROMANS
  0
CIRCLE
  8
0
  6
CONTINUOUS
 62
   249
 10
36.758945
 20
150.0
 30
0.0
 40
0.740939
  0
LINE
  8
0
  6
CONTINUOUS
 62
   249
 10
30.0
 20
150.0
 30
0.0
 11
30.0
 21
152.765661
 31
0.0
  0
LINE
  8
0
  6
CONTINUOUS
 62
   249
 10
30.0
 20
150.0
 30
0.0
 11
22.5
 21
150.0
 31
0.0
  0
LINE
  8
0
  6
CONTINUOUS
 62
   249
 10
36.018035
 20
149.993411
 30
0.0
 11
29.337159
 21
152.434804
 31
0.0
  0
LINE
  8
0
  6
CONTINUOUS
 62
   249
 10
45.0
 20
137.5
 30
0.0
 11
37.499883
 21
137.5
 31
0.0
  0
CIRCLE
  8
0
  6
CONTINUOUS
 62
   249
 10
36.758945
 20
137.5
 30
0.0
 40
0.740939
  0
LINE
  8
0
  6
CONTINUOUS
 62
   249
 10
30.0
 20
137.5
 30
0.0
 11
22.5
 21
137.5
 31
0.0
  0
LINE
  8
0
  6
CONTINUOUS
 62
   249
 10
30.0
 20
137.5
 30
0.0
 11
30.0
 21
140.265661
 31
0.0
  0
LINE
  8
0
  6
CONTINUOUS
 62
   249
 10
36.018035
 20
137.493411
 30
0.0
 11
29.337159
 21
139.934804
 31
0.0
  0
LINE
  8
0
  6
CONTINUOUS
 62
   249
 10
45.0
 20
132.5
 30
0.0
 11
37.499883
 21
132.5
 31
0.0
  0
CIRCLE
  8
0
  6
CONTINUOUS
 62
   249
 10
36.758945
 20
132.5
 30
0.0
 40
0.740939
  0
LINE
  8
0
  6
CONTINUOUS
 62
   249
 10
30.0
 20
132.5
 30
0.0
 11
22.5
 21
132.5
 31
0.0
  0
LINE
  8
0
  6
CONTINUOUS
 62
   249
 10
30.0
 20
132.5
 30
0.0
 11
30.0
 21
135.265661
 31
0.0
  0
LINE
  8
0
  6
CONTINUOUS
 62
   249
 10
36.018035
 20
132.493411
 30
0.0
 11
29.337159
 21
134.934804
 31
0.0
  0
TEXT
  8
0
  6
DASHED
 62
   249
 10
36.576017
 20
118.680255
 30
0.0
 40
2.0
  1
3B
  7
ROMANS
  0
TEXT
  8
0
  6
DASHED
 62
   249
 10
24.339664
 20
118.732431
 30
0.0
 40
2.0
  1
3A
  7
ROMANS
  0
LINE
  8
0
  6
CONTINUOUS
 62
   249
 10
30.0
 20
72.5
 30
0.0
 11
22.5
 21
72.5
 31
0.0
  0
LINE
  8
0
  6
CONTINUOUS
 62
   249
 10
30.0
 20
102.5
 30
0.0
 11
22.5
 21
102.5
 31
0.0
  0
LINE
  8
0
  6
CONTINUOUS
 62
   249
 10
30.0
 20
122.5
 30
0.0
 11
22.5
 21
122.5
 31
0.0
  0
CIRCLE
  8
0
  6
CONTINUOUS
 62
   249
 10
36.758945
 20
122.5
 30
0.0
 40
0.740939
  0
LINE
  8
0
  6
CONTINUOUS
 62
   249
 10
30.0
 20
122.5
 30
0.0
 11
30.0
 21
125.265661
 31
0.0
  0
LINE
  8
0
  6
CONTINUOUS
 62
   249
 10
36.018035
 20
122.493411
 30
0.0
 11
29.337159
 21
124.934804
 31
0.0
  0
CIRCLE
  8
0
  6
CONTINUOUS
 62
   249
 10
36.758945
 20
102.5
 30
0.0
 40
0.740939
  0
LINE
  8
0
  6
CONTINUOUS
 62
   249
 10
30.0
 20
102.5
 30
0.0
 11
30.0
 21
105.265661
 31
0.0
  0
LINE
  8
0
  6
CONTINUOUS
 62
   249
 10
36.018035
 20
102.493411
 30
0.0
 11
29.337159
 21
104.934804
 31
0.0
  0
LINE
  8
0
  6
CONTINUOUS
 62
   249
 10
45.0
 20
122.5
 30
0.0
 11
37.499883
 21
122.5
 31
0.0
  0
LINE
  8
0
  6
CONTINUOUS
 62
   249
 10
45.0
 20
102.5
 30
0.0
 11
37.499883
 21
102.5
 31
0.0
  0
TEXT
  8
0
  6
DASHED
 62
   249
 10
24.339664
 20
98.897161
 30
0.0
 40
2.0
  1
6A
  7
ROMANS
  0
TEXT
  8
0
  6
DASHED
 62
   249
 10
36.424243
 20
99.018385
 30
0.0
 40
2.0
  1
6B
  7
ROMANS
  0
LINE
  8
0
  6
CONTINUOUS
 62
   249
 10
40.0
 20
87.5
 30
0.0
 11
40.0
 21
72.5
 31
0.0
  0
LINE
  8
0
  6
CONTINUOUS
 62
   249
 10
45.0
 20
87.5
 30
0.0
 11
40.0
 21
87.5
 31
0.0
  0
TEXT
  8
0
  6
DASHED
 62
   249
 10
24.674848
 20
68.212231
 30
0.0
 40
2.0
  1
5A
  7
ROMANS
  0
TEXT
  8
0
  6
DASHED
 62
   249
 10
36.10103
 20
68.168726
 30
0.0
 40
2.0
  1
5B
  7
ROMANS
  0
LINE
  8
0
  6
CONTINUOUS
 62
   249
 10
45.0
 20
72.5
 30
0.0
 11
37.499883
 21
72.5
 31
0.0
  0
LINE
  8
0
  6
DASHED
 62
   249
 10
22.5
 20
240.0
 30
0.0
 11
17.5
 21
240.0
 31
0.0
  0
LINE
  8
0
  6
DASHED
 62
   249
 10
22.5
 20
235.0
 30
0.0
 11
17.5
 21
235.0
 31
0.0
  0
LINE
  8
0
  6
DASHED
 62
   249
 10
22.5
 20
225.0
 30
0.0
 11
17.5
 21
225.0
 31
0.0
  0
LINE
  8
0
  6
DASHED
 62
   249
 10
22.5
 20
217.5
 30
0.0
 11
17.5
 21
217.5
 31
0.0
  0
LINE
  8
0
  6
DASHED
 62
   249
 10
22.5
 20
212.5
 30
0.0
 11
17.5
 21
212.5
 31
0.0
  0
TEXT
  8
0
  6
DASHED
 62
   249
 10
24.339664
 20
221.397161
 30
0.0
 40
2.0
  1
4A
  7
ROMANS
  0
TEXT
  8
0
  6
DASHED
 62
   249
 10
30.0
 20
228.402046
 30
0.0
 40
2.0
  1
101
  7
ROMANS
  0
LINE
  8
0
  6
CONTINUOUS
 62
   249
 10
30.0
 20
225.0
 30
0.0
 11
22.5
 21
225.0
 31
0.0
  0
TEXT
  8
0
  6
DASHED
 62
   249
 10
36.220738
 20
221.518385
 30
0.0
 40
2.0
  1
4B
  7
ROMANS
  0
LINE
  8
0
  6
CONTINUOUS
 62
   249
 10
45.0
 20
225.0
 30
0.0
 11
37.499883
 21
225.0
 31
0.0
  0
LINE
  8
0
  6
CONTINUOUS
 62
   249
 10
43.500869
 20
222.510171
 30
0.0
 11
42.434444
 21
221.443746
 31
0.0
  0
LINE
  8
0
  6
CONTINUOUS
 62
   249
 10
42.434444
 20
223.576595
 30
0.0
 11
43.500869
 21
222.510171
 31
0.0
  0
LINE
  8
0
  6
CONTINUOUS
 62
   249
 10
41.368019
 20
222.510171
 30
0.0
 11
42.434444
 21
223.576595
 31
0.0
  0
LINE
  8
0
  6
CONTINUOUS
 62
   249
 10
42.434444
 20
221.443746
 30
0.0
 11
41.368019
 21
222.510171
 31
0.0
  0
LINE
  8
0
  6
CENTER
 62
   249
 10
22.5
 20
255.0
 30
0.0
 11
22.5
 21
52.5
 31
0.0
  0
TEXT
  8
0
  6
CONTINUOUS
 62
   249
 10
5.374446
 20
218.144527
 30
0.0
 40
2.0
  1
3)
  7
ROMANS
  0
LINE
  8
0
  6
DASHED
 62
   249
 10
45.0
 20
235.0
 30
0.0
 11
22.5
 21
235.0
 31
0.0
  0
LINE
  8
0
  6
DASHED
 62
   249
 10
45.0
 20
240.0
 30
0.0
 11
22.5
 21
240.0
 31
0.0
  0
LINE
  8
0
  6
CONTINUOUS
 62
   249
 10
9.715366
 20
234.999655
 30
0.0
 11
10.715366
 21
233.999655
 31
0.0
  0
LINE
  8
0
  6
CONTINUOUS
 62
   249
 10
9.715366
 20
240.0
 30
0.0
 11
9.715366
 21
234.999655
 31
0.0
  0
LINE
  8
0
  6
CONTINUOUS
 62
   249
 10
9.715366
 20
240.0
 30
0.0
 11
10.715366
 21
241.0
 31
0.0
  0
TEXT
  8
0
  6
CONTINUOUS
 62
   249
 10
307.533335
 20
95.946137
 30
0.0
 40
2.0
  1
1)
  7
ROMANS
  0
LINE
  8
0
  6
CONTINUOUS
 62
   249
 10
338.59365
 20
117.936052
 30
0.0
 11
338.59365
 21
135.436052
 31
0.0
  0
LINE
  8
0
  6
DASHED
 62
   249
 10
336.298944
 20
104.753017
 30
0.0
 11
305.0
 21
104.753017
 31
0.0
  0
TEXT
  8
0
  6
HIDDEN
 62
   249
 10
276.791434
 20
131.619501
 30
0.0
 40
2.0
  1
U1
  7
ROMANS
  0
LINE
  8
0
  6
DASHED
 62
   249
 10
265.0
 20
130.0
 30
0.0
 11
269.266471
 21
130.0
 31
0.0
  0
LINE
  8
0
  6
DASHED
 62
   249
 10
265.0
 20
125.0
 30
0.0
 11
269.266471
 21
125.0
 31
0.0
  0
LINE
  8
0
  6
DASHED
 62
   249
 10
265.0
 20
120.0
 30
0.0
 11
297.5
 21
120.0
 31
0.0
  0
LINE
  8
0
  6
DASHED
 62
   249
 10
265.0
 20
110.0
 30
0.0
 11
269.266471
 21
110.0
 31
0.0
  0
LINE
  8
0
  6
DASHED
 62
   249
 10
265.0
 20
105.0
 30
0.0
 11
269.266471
 21
105.0
 31
0.0
  0
LINE
  8
0
  6
DASHED
 62
   249
 10
265.0
 20
100.0
 30
0.0
 11
297.5
 21
100.0
 31
0.0
  0
LINE
  8
0
  6
DASHED
 62
   249
 10
265.0
 20
90.0
 30
0.0
 11
269.266471
 21
90.0
 31
0.0
  0
LINE
  8
0
  6
DASHED
 62
   249
 10
265.0
 20
85.0
 30
0.0
 11
269.266471
 21
85.0
 31
0.0
  0
LINE
  8
0
  6
DASHED
 62
   249
 10
265.0
 20
80.0
 30
0.0
 11
297.5
 21
80.0
 31
0.0
  0
LINE
  8
0
  6
CONTINUOUS
 62
   249
 10
271.0
 20
91.5
 30
0.0
 11
270.0
 21
92.5
 31
0.0
  0
LINE
  8
0
  6
CONTINUOUS
 62
   249
 10
271.0
 20
91.5
 30
0.0
 11
271.0
 21
84.5
 31
0.0
  0
LINE
  8
0
  6
CONTINUOUS
 62
   249
 10
271.0
 20
84.5
 30
0.0
 11
270.0
 21
83.5
 31
0.0
  0
LINE
  8
0
  6
CONTINUOUS
 62
   249
 10
271.0
 20
104.5
 30
0.0
 11
270.0
 21
103.5
 31
0.0
  0
LINE
  8
0
  6
CONTINUOUS
 62
   249
 10
271.0
 20
111.5
 30
0.0
 11
271.0
 21
104.5
 31
0.0
  0
LINE
  8
0
  6
CONTINUOUS
 62
   249
 10
271.0
 20
111.5
 30
0.0
 11
270.0
 21
112.5
 31
0.0
  0
LINE
  8
0
  6
CONTINUOUS
 62
   249
 10
271.0
 20
131.5
 30
0.0
 11
270.0
 21
132.5
 31
0.0
  0
LINE
  8
0
  6
CONTINUOUS
 62
   249
 10
271.0
 20
124.5
 30
0.0
 11
270.0
 21
123.5
 31
0.0
  0
LINE
  8
0
  6
CONTINUOUS
 62
   249
 10
271.0
 20
131.5
 30
0.0
 11
271.0
 21
124.5
 31
0.0
  0
LINE
  8
0
  6
DASHED
 62
   249
 10
271.0
 20
90.0
 30
0.0
 11
282.5
 21
90.0
 31
0.0
  0
LINE
  8
0
  6
CONTINUOUS
 62
   249
 10
305.0
 20
80.0
 30
0.0
 11
304.0
 21
79.0
 31
0.0
  0
LINE
  8
0
  6
CONTINUOUS
 62
   249
 10
305.0
 20
80.0
 30
0.0
 11
305.0
 21
110.0
 31
0.0
  0
LINE
  8
0
  6
CONTINUOUS
 62
   249
 10
305.0
 20
110.0
 30
0.0
 11
305.0
 21
130.0
 31
0.0
  0
LINE
  8
0
  6
CONTINUOUS
 62
   249
 10
305.0
 20
130.0
 30
0.0
 11
304.0
 21
131.0
 31
0.0
  0
TEXT
  8
0
  6
HIDDEN
 62
   249
 10
272.31485
 20
131.11903
 30
0.0
 40
2.0
  1
1)
  7
ROMANS
  0
TEXT
  8
0
  6
HIDDEN
 62
   249
 10
272.31485
 20
111.11903
 30
0.0
 40
2.0
  1
1)
  7
ROMANS
  0
TEXT
  8
0
  6
HIDDEN
 62
   249
 10
272.31485
 20
91.11903
 30
0.0
 40
2.0
  1
1)
  7
ROMANS
  0
TEXT
  8
0
  6
HIDDEN
 62
   249
 10
272.31485
 20
151.11903
 30
0.0
 40
2.0
  1
1)
  7
ROMANS
  0
LINE
  8
0
  6
CONTINUOUS
 62
   249
 10
10.334951
 20
127.5
 30
0.0
 11
10.334951
 21
122.5
 31
0.0
  0
LINE
  8
0
  6
CONTINUOUS
 62
   249
 10
10.334951
 20
122.499655
 30
0.0
 11
11.334951
 21
121.499655
 31
0.0
  0
LINE
  8
0
  6
CONTINUOUS
 62
   249
 10
10.334951
 20
127.5
 30
0.0
 11
11.334951
 21
128.5
 31
0.0
  0
TEXT
  8
0
  6
HIDDEN
 62
   249
 10
5.389662
 20
236.395886
 30
0.0
 40
2.0
  1
2)
  7
ROMANS
  0
LINE
  8
0
  6
DASHED
 62
   249
 10
305.0
 20
200.0
 30
0.0
 11
312.5
 21
200.0
 31
0.0
  0
CIRCLE
  8
0
  6
CONTINUOUS
 62
   249
 10
315.0
 20
200.0
 30
0.0
 40
2.5
  0
LINE
  8
0
  6
DASHED
 62
   249
 10
327.5
 20
145.0
 30
0.0
 11
305.0
 21
145.0
 31
0.0
  0
LINE
  8
0
  6
DASHED
 62
   249
 10
315.0
 20
235.0
 30
0.0
 11
315.0
 21
175.0
 31
0.0
  0
LINE
  8
0
  6
CONTINUOUS
 62
   249
 10
305.0
 20
150.0
 30
0.0
 11
305.0
 21
140.0
 31
0.0
  0
LINE
  8
0
  6
CONTINUOUS
 62
   249
 10
305.0
 20
150.0
 30
0.0
 11
304.0
 21
151.0
 31
0.0
  0
LINE
  8
0
  6
CONTINUOUS
 62
   249
 10
305.0
 20
140.0
 30
0.0
 11
304.0
 21
139.0
 31
0.0
  0
LINE
  8
0
  6
CONTINUOUS
 62
   249
 10
305.0
 20
235.0
 30
0.0
 11
304.0
 21
236.0
 31
0.0
  0
LINE
  8
0
  6
CONTINUOUS
 62
   249
 10
305.0
 20
215.0
 30
0.0
 11
305.0
 21
235.0
 31
0.0
  0
LINE
  8
0
  6
CONTINUOUS
 62
   249
 10
305.0
 20
165.0
 30
0.0
 11
305.0
 21
215.0
 31
0.0
  0
LINE
  8
0
  6
CONTINUOUS
 62
   249
 10
305.0
 20
165.0
 30
0.0
 11
304.0
 21
164.0
 31
0.0
  0
LINE
  8
0
  6
DASHED
 62
   249
 10
265.0
 20
140.0
 30
0.0
 11
297.5
 21
140.0
 31
0.0
  0
LINE
  8
0
  6
DASHED
 62
   249
 10
271.0
 20
150.0
 30
0.0
 11
282.5
 21
150.0
 31
0.0
  0
LINE
  8
0
  6
CONTINUOUS
 62
   249
 10
10.334951
 20
97.5
 30
0.0
 11
10.334951
 21
72.499655
 31
0.0
  0
LINE
  8
0
  6
CONTINUOUS
 62
   249
 10
10.334951
 20
72.499655
 30
0.0
 11
11.334951
 21
71.499655
 31
0.0
  0
LINE
  8
0
  6
CONTINUOUS
 62
   249
 10
10.334951
 20
97.5
 30
0.0
 11
11.334951
 21
98.5
 31
0.0
  0
LINE
  8
0
  6
CONTINUOUS
 62
   249
 10
9.715366
 20
225.0
 30
0.0
 11
9.715366
 21
212.499655
 31
0.0
  0
LINE
  8
0
  6
CONTINUOUS
 62
   249
 10
9.715366
 20
225.0
 30
0.0
 11
10.715366
 21
226.0
 31
0.0
  0
LINE
  8
0
  6
CONTINUOUS
 62
   249
 10
9.715366
 20
212.499655
 30
0.0
 11
10.715366
 21
211.499655
 31
0.0
  0
LINE
  8
0
  6
DASHED
 62
   249
 10
45.0
 20
212.5
 30
0.0
 11
22.5
 21
212.5
 31
0.0
  0
LINE
  8
0
  6
DASHED
 62
   249
 10
45.0
 20
217.5
 30
0.0
 11
22.5
 21
217.5
 31
0.0
  0
LINE
  8
0
  6
DASHED
 62
   249
 10
265.0
 20
150.0
 30
0.0
 11
269.266471
 21
150.0
 31
0.0
  0
LINE
  8
0
  6
DASHED
 62
   249
 10
265.0
 20
145.0
 30
0.0
 11
269.266471
 21
145.0
 31
0.0
  0
LINE
  8
0
  6
CONTINUOUS
 62
   249
 10
271.0
 20
151.5
 30
0.0
 11
270.0
 21
152.5
 31
0.0
  0
LINE
  8
0
  6
CONTINUOUS
 62
   249
 10
271.0
 20
151.5
 30
0.0
 11
271.0
 21
144.5
 31
0.0
  0
LINE
  8
0
  6
CONTINUOUS
 62
   249
 10
271.0
 20
144.5
 30
0.0
 11
270.0
 21
143.5
 31
0.0
  0
TEXT
  8
0
  6
CONTINUOUS
 62
   249
 10
5.672352
 20
131.589844
 30
0.0
 40
2.0
  1
4)
  7
ROMANS
  0
LINE
  8
0
  6
CONTINUOUS
 62
   249
 10
10.334951
 20
102.499655
 30
0.0
 11
11.334951
 21
101.499655
 31
0.0
  0
LINE
  8
0
  6
CONTINUOUS
 62
   249
 10
10.334951
 20
112.5
 30
0.0
 11
11.334951
 21
113.5
 31
0.0
  0
LINE
  8
0
  6
CONTINUOUS
 62
   249
 10
10.334951
 20
112.5
 30
0.0
 11
10.334951
 21
102.499655
 31
0.0
  0
LINE
  8
0
  6
HIDDEN
 62
   249
 10
215.450615
 20
52.5
 30
0.0
 11
215.450615
 21
45.0
 31
0.0
  0
LINE
  8
0
  6
HIDDEN
 62
   249
 10
185.0
 20
52.5
 30
0.0
 11
185.0
 21
45.0
 31
0.0
  0
LINE
  8
0
  6
CONTINUOUS
 62
   249
 10
232.5
 20
52.5
 30
0.0
 11
232.5
 21
45.0
 31
0.0
  0
LINE
  8
0
  6
CONTINUOUS
 62
   249
 10
230.0
 20
52.5
 30
0.0
 11
230.0
 21
45.0
 31
0.0
  0
LINE
  8
0
  6
CONTINUOUS
 62
   249
 10
150.0
 20
52.5
 30
0.0
 11
150.0
 21
45.0
 31
0.0
  0
LINE
  8
0
  6
CONTINUOUS
 62
   249
 10
132.5
 20
52.5
 30
0.0
 11
132.5
 21
45.0
 31
0.0
  0
LINE
  8
0
  6
CONTINUOUS
 62
   249
 10
120.0
 20
52.5
 30
0.0
 11
120.0
 21
45.0
 31
0.0
  0
LINE
  8
0
  6
CONTINUOUS
 62
   249
 10
120.0
 20
41.855378
 30
0.0
 11
119.0
 21
42.855378
 31
0.0
  0
LINE
  8
0
  6
CONTINUOUS
 62
   249
 10
232.500345
 20
41.855378
 30
0.0
 11
233.500345
 21
42.855378
 31
0.0
  0
LINE
  8
0
  6
CONTINUOUS
 62
   249
 10
120.0
 20
41.855378
 30
0.0
 11
232.500345
 21
41.855378
 31
0.0
  0
TEXT
  8
0
  6
HIDDEN
 62
   249
 10
168.484926
 20
35.523194
 30
0.0
 40
2.0
  1
SHEET 2
  7
ROMANS
  0
LINE
  8
0
  6
DASHED
 62
   249
 10
308.200766
 20
235.0
 30
0.0
 11
349.076691
 21
235.0
 31
0.0
  0
TEXT
  8
0
  6
CONTINUOUS
 62
   249
 10
363.214352
 20
78.389857
 30
0.0
 40
2.0
  1
RK 926 315-AC
  7
ROMANS
  0
TEXT
  8
0
  6
CONTINUOUS
 62
   249
 10
363.214352
 20
81.433244
 30
0.0
 40
2.0
  1
RTXP 24
  7
ROMANS
  0
LINE
  8
0
  6
CONTINUOUS
 62
   249
 10
327.109834
 20
84.803792
 30
0.0
 11
313.109834
 21
84.803792
 31
0.0
  0
TEXT
  8
0
  6
DASHED
 62
   249
 10
339.660386
 20
86.141957
 30
0.0
 40
2.0
  1
108:
  7
ROMANS
  0
LINE
  8
0
  6
CONTINUOUS
 62
   249
 10
327.109834
 20
89.334317
 30
0.0
 11
358.866954
 21
89.334317
 31
0.0
  0
TEXT
  8
0
  6
DASHED
 62
   249
 10
315.338811
 20
81.344497
 30
0.0
 40
2.0
  1
101:
  7
ROMANS
  0
TEXT
  8
0
  6
CONTINUOUS
 62
   249
 10
315.338811
 20
62.680966
 30
0.0
 40
2.0
  1
19B
  7
ROMANS
  0
TEXT
  8
0
  6
CONTINUOUS
 62
   249
 10
368.345477
 20
89.638592
 30
0.0
 40
1.8
  1
(3U)
 50
90.0
  7
ROMANS
  0
LINE
  8
0
  6
CONTINUOUS
 62
   249
 10
369.624861
 20
105.703471
 30
0.0
 11
381.677562
 21
105.703471
 31
0.0
  0
LINE
  8
0
  6
CONTINUOUS
 62
   249
 10
381.677562
 20
105.703471
 30
0.0
 11
381.677562
 21
88.203471
 31
0.0
  0
LINE
  8
0
  6
CONTINUOUS
 62
   249
 10
381.677562
 20
88.203471
 30
0.0
 11
369.624861
 21
88.203471
 31
0.0
  0
LINE
  8
0
  6
CONTINUOUS
 62
   249
 10
369.624861
 20
88.203471
 30
0.0
 11
369.624861
 21
105.703471
 31
0.0
  0
TEXT
  8
0
  6
CONTINUOUS
 62
   249
 10
364.970943
 20
89.638592
 30
0.0
 40
1.8
  1
132,5 mm
 50
90.0
  7
ROMANS
  0
TEXT
  8
0
  6
CONTINUOUS
 62
   249
 10
350.908871
 20
112.815525
 30
0.0
 40
2.0
  1
SPAC 538 C
  7
ROMANS
  0
TEXT
  8
0
  6
CONTINUOUS
 62
   249
 10
349.208452
 20
62.449257
 30
0.0
 40
2.0
  1
26
  7
ROMANS
  0
TEXT
  8
0
  6
CONTINUOUS
 62
   249
 10
331.897672
 20
62.449257
 30
0.0
 40
2.0
  1
27
  7
ROMANS
  0
TEXT
  8
0
  6
CONTINUOUS
 62
   249
 10
348.812025
 20
40.309988
 30
0.0
 40
2.0
  1
21
  7
ROMANS
  0
TEXT
  8
0
  6
CONTINUOUS
 62
   249
 10
348.812025
 20
44.161279
 30
0.0
 40
2.0
  1
18
  7
ROMANS
  0
TEXT
  8
0
  6
CONTINUOUS
 62
   249
 10
348.812025
 20
48.232977
 30
0.0
 40
2.0
  1
15
  7
ROMANS
  0
TEXT
  8
0
  6
CONTINUOUS
 62
   249
 10
331.883507
 20
40.298968
 30
0.0
 40
2.0
  1
20
  7
ROMANS
  0
TEXT
  8
0
  6
CONTINUOUS
 62
   249
 10
331.871273
 20
44.1723
 30
0.0
 40
2.0
  1
17
  7
ROMANS
  0
TEXT
  8
0
  6
CONTINUOUS
 62
   249
 10
331.871273
 20
48.255018
 30
0.0
 40
2.0
  1
14
  7
ROMANS
  0
LINE
  8
0
  6
CONTINUOUS
 62
   249
 10
327.109834
 20
60.872994
 30
0.0
 11
358.866954
 21
60.872994
 31
0.0
  0
TEXT
  8
0
  6
HIDDEN
 62
   249
 10
315.375641
 20
40.274764
 30
0.0
 40
2.0
  1
23B
  7
ROMANS
  0
TEXT
  8
0
  6
HIDDEN
 62
   249
 10
315.375641
 20
44.184323
 30
0.0
 40
2.0
  1
22B
  7
ROMANS
  0
TEXT
  8
0
  6
HIDDEN
 62
   249
 10
315.375641
 20
48.256877
 30
0.0
 40
2.0
  1
21B
  7
ROMANS
  0
TEXT
  8
0
  6
HIDDEN
 62
   249
 10
315.406379
 20
52.345639
 30
0.0
 40
2.0
  1
24B
  7
ROMANS
  0
LINE
  8
0
 62
   249
 10
358.866954
 20
98.303792
 30
0.0
 11
313.109834
 21
98.303792
 31
0.0
  0
TEXT
  8
0
  6
CONTINUOUS
 62
   249
 10
350.262395
 20
70.956633
 30
0.0
 40
2.0
  1
5
  7
ROMANS
  0
TEXT
  8
0
  6
CONTINUOUS
 62
   249
 10
333.301585
 20
70.956633
 30
0.0
 40
2.0
  1
6
  7
ROMANS
  0
TEXT
  8
0
  6
CONTINUOUS
 62
   249
 10
315.338811
 20
70.945613
 30
0.0
 40
2.0
  1
15B
  7
ROMANS
  0
TEXT
  8
0
  6
CONTINUOUS
 62
   249
 10
390.205367
 20
119.247732
 30
0.0
 40
1.8
  1
132,5 mm
 50
90.0
  7
ROMANS
  0
TEXT
  8
0
  6
CONTINUOUS
 62
   249
 10
356.858987
 20
137.173039
 30
0.0
 40
1.8
  1
482,6 mm
  7
ROMANS
  0
LINE
  8
0
  6
CONTINUOUS
 62
   249
 10
386.902582
 20
117.936052
 30
0.0
 11
338.59365
 21
117.936052
 31
0.0
  0
LINE
  8
0
  6
CONTINUOUS
 62
   249
 10
386.902582
 20
135.436052
 30
0.0
 11
386.902582
 21
117.936052
 31
0.0
  0
LINE
  8
0
  6
CONTINUOUS
 62
   249
 10
338.59365
 20
135.436052
 30
0.0
 11
386.902582
 21
135.436052
 31
0.0
  0
TEXT
  8
0
  6
CONTINUOUS
 62
   249
 10
348.969918
 20
52.317078
 30
0.0
 40
2.0
  1
30
  7
ROMANS
  0
TEXT
  8
0
  6
CONTINUOUS
 62
   249
 10
332.082153
 20
52.317078
 30
0.0
 40
2.0
  1
29
  7
ROMANS
  0
TEXT
  8
0
  6
CONTINUOUS
 62
   249
 10
344.514657
 20
57.406723
 30
0.0
 40
2.0
  1
Un=110V
  7
ROMANS
  0
TEXT
  8
0
  6
CONTINUOUS
 62
   249
 10
328.616278
 20
57.406723
 30
0.0
 40
2.0
  1
Un=100V
  7
ROMANS
  0
TEXT
  8
0
  6
DASHED
 62
   249
 10
350.460749
 20
75.00111
 30
0.0
 40
2.0
  1
2
  7
ROMANS
  0
TEXT
  8
0
  6
DASHED
 62
   249
 10
333.439075
 20
75.00111
 30
0.0
 40
2.0
  1
3
  7
ROMANS
  0
TEXT
  8
0
  6
DASHED
 62
   249
 10
315.338811
 20
75.00111
 30
0.0
 40
2.0
  1
13B
  7
ROMANS
  0
TEXT
  8
0
  6
DASHED
 62
   249
 10
346.27135
 20
81.272552
 30
0.0
 40
2.0
  1
In=5A
  7
ROMANS
  0
LINE
  8
0
 62
   249
 10
327.109834
 20
80.303792
 30
0.0
 11
358.866954
 21
80.303792
 31
0.0
  0
TEXT
  8
0
  6
CONTINUOUS
 62
   249
 10
350.292827
 20
66.697589
 30
0.0
 40
2.0
  1
8
  7
ROMANS
  0
TEXT
  8
0
  6
CONTINUOUS
 62
   249
 10
333.286369
 20
66.697589
 30
0.0
 40
2.0
  1
9
  7
ROMANS
  0
TEXT
  8
0
  6
CONTINUOUS
 62
   249
 10
315.338811
 20
66.76955
 30
0.0
 40
2.0
  1
17B
  7
ROMANS
  0
TEXT
  8
0
  6
CONTINUOUS
 62
   249
 10
329.675511
 20
80.95211
 30
0.0
 40
2.0
  1
In=1A
  7
ROMANS
  0
LINE
  8
0
  6
CONTINUOUS
 62
   249
 10
313.109834
 20
39.331595
 30
0.0
 11
358.866954
 21
39.331595
 31
0.0
  0
LINE
  8
0
 62
   249
 10
313.109834
 20
98.303792
 30
0.0
 11
313.109834
 21
39.331595
 31
0.0
  0
LINE
  8
0
 62
   249
 10
358.866954
 20
39.331595
 30
0.0
 11
358.866954
 21
98.303792
 31
0.0
  0
LINE
  8
0
 62
   249
 10
327.109834
 20
84.803792
 30
0.0
 11
358.866954
 21
84.803792
 31
0.0
  0
LINE
  8
0
 62
   249
 10
327.109834
 20
98.303792
 30
0.0
 11
327.109834
 21
39.331595
 31
0.0
  0
LINE
  8
0
 62
   249
 10
343.232771
 20
84.803792
 30
0.0
 11
343.232771
 21
39.331595
 31
0.0
  0
LINE
  8
0
 62
   249
 10
327.109834
 20
56.376873
 30
0.0
 11
358.866954
 21
56.376873
 31
0.0
  0
TEXT
  8
0
 62
   249
 10
327.518541
 20
92.970458
 30
0.0
 40
2.0
  1
TERMINALS / UTTAG
  7
ROMANS
 11
327.518541
 21
92.303792
 31
0.0
 73
     1
  0
TEXT
  8
0
  6
CONTINUOUS
 62
   249
 10
3.254027
 20
83.619509
 30
0.0
 40
2.0
  1
5c)
  7
ROMANS
  0
TEXT
  8
0
  6
CONTINUOUS
 62
   249
 10
3.254027
 20
106.888695
 30
0.0
 40
2.0
  1
5b)
  7
ROMANS
  0
TEXT
  8
0
  6
CONTINUOUS
 62
   249
 10
3.254027
 20
124.107696
 30
0.0
 40
2.0
  1
5a)
  7
ROMANS
  0
LINE
  8
0
  6
CONTINUOUS
 62
   249
 10
165.0
 20
52.5
 30
0.0
 11
165.0
 21
45.0
 31
0.0
  0
LINE
  8
0
  6
HIDDEN
 62
   249
 10
185.0
 20
62.5
 30
0.0
 11
185.0
 21
52.5
 31
0.0
  0
LINE
  8
0
  6
HIDDEN
 62
   249
 10
215.450615
 20
62.5
 30
0.0
 11
215.450615
 21
52.5
 31
0.0
  0
LINE
  8
0
  6
HIDDEN
 62
   249
 10
185.0
 20
115.0
 30
0.0
 11
185.0
 21
62.5
 31
0.0
  0
LINE
  8
0
  6
HIDDEN
 62
   249
 10
215.450615
 20
115.0
 30
0.0
 11
215.450615
 21
62.5
 31
0.0
  0
TEXT
  8
0
  6
DASHED
 62
   249
 10
52.319848
 20
248.66032
 30
0.0
 40
2.0
  1
108:
  7
ROMANS
  0
TEXT
  8
0
  6
CONTINUOUS
 62
   249
 10
363.214352
 20
84.402926
 30
0.0
 40
2.0
  1
91,44 mm
  7
ROMANS
  0
TEXT
  8
0
  6
CONTINUOUS
 62
   249
 10
317.5
 20
27.5
 30
0.0
 40
2.0
  1
CIRCUIT DIAGRAM / KRETSSCHEMA
  7
ROMANS
  0
TEXT
  8
0
  6
CONTINUOUS
 62
   249
 10
317.5
 20
24.261905
 30
0.0
 40
2.0
  1
SPAC 538 C WITH TEST SWITCH
  7
ROMANS
  0
TEXT
  8
0
  6
CONTINUOUS
 62
   249
 10
317.5
 20
21.02381
 30
0.0
 40
2.0
  1
SPAC 538 C MED PROVDON
  7
ROMANS
  0
TEXT
  8
0
  6
DASHED
 62
   249
 10
354.531451
 20
16.135576
 30
0.0
 40
1.4
  1
LEHTI SHEET
  7
STAND
  0
LINE
  8
0
 62
   249
 10
0.577972
 20
0.580166
 30
0.0
 11
0.577972
 21
263.080166
 31
0.0
  0
LINE
  8
0
 62
   249
 10
392.577972
 20
263.080166
 30
0.0
 11
392.577972
 21
0.580166
 31
0.0
  0
LINE
  8
0
 62
   249
 10
0.577972
 20
0.580166
 30
0.0
 11
392.577972
 21
0.580166
 31
0.0
  0
TEXT
  8
0
 62
   249
 10
42.577972
 20
5.929675
 30
0.0
 40
2.5
  1
C
  7
ROMANS
  0
TEXT
  8
0
 62
   249
 10
42.577972
 20
1.537459
 30
0.0
 40
2.5
  1
B
  7
ROMANS
  0
TEXT
  8
0
 62
   249
 10
257.747879
 20
2.08395
 30
0.0
 40
3.0
  1
Power
 41
0.8
  7
ROMANS
  0
TEXT
  8
0
 62
   249
 10
273.577972
 20
7.580166
 30
0.0
 40
1.4
  1
VAST.OSASTO RESP.DEPT.
  7
ROMANS
  0
TEXT
  8
0
 62
   249
 10
210.577972
 20
32.580166
 30
0.0
 40
1.4
  1
TEKI  PREPARED
  7
ROMANS
  0
LINE
  8
0
 62
   249
 10
271.577972
 20
10.080166
 30
0.0
 11
271.577972
 21
0.580166
 31
0.0
  0
LINE
  8
0
 62
   249
 10
257.577972
 20
10.080166
 30
0.0
 11
257.577972
 21
35.580166
 31
0.0
  0
LINE
  8
0
 62
   249
 10
41.077972
 20
5.080166
 30
0.0
 11
209.577972
 21
5.080166
 31
0.0
  0
LINE
  8
0
 62
   249
 10
47.077972
 20
0.580166
 30
0.0
 11
47.077972
 21
9.580166
 31
0.0
  0
LINE
  8
0
 62
   249
 10
47.077972
 20
9.580166
 30
0.0
 11
209.577972
 21
9.580166
 31
0.0
  0
TEXT
  8
0
 62
   249
 10
28.077972
 20
2.813499
 30
0.0
 40
1.4
  1
REVISION
  7
ROMANS
  0
TEXT
  8
0
 62
   249
 10
28.077972
 20
5.080166
 30
0.0
 40
1.4
  1
MUUTOS
  7
ROMANS
  0
LINE
  8
0
 62
   249
 10
282.577972
 20
10.080166
 30
0.0
 11
282.577972
 21
18.580166
 31
0.0
  0
TEXT
  8
0
 62
   249
 10
238.077972
 20
2.080166
 30
0.0
 40
3.0
  1
Strömberg
 41
0.8
  7
ROMANS
  0
TEXT
  8
0
 62
   249
 10
230.077972
 20
2.080166
 30
0.0
 40
3.0
  1
ABB 
 41
0.8
  7
ROMANS
  0
LINE
  8
0
 62
   249
 10
223.477972
 20
2.080166
 30
0.0
 11
223.477972
 21
5.440166
 31
0.0
  0
LINE
  8
0
 62
   249
 10
223.477972
 20
9.080166
 30
0.0
 11
225.437972
 21
9.080166
 31
0.0
  0
LINE
  8
0
 62
   249
 10
225.437972
 20
9.080166
 30
0.0
 11
225.437972
 21
5.720166
 31
0.0
  0
LINE
  8
0
 62
   249
 10
225.437972
 20
5.720166
 30
0.0
 11
223.477972
 21
5.720166
 31
0.0
  0
LINE
  8
0
 62
   249
 10
223.477972
 20
5.440166
 30
0.0
 11
225.437972
 21
5.440166
 31
0.0
  0
LINE
  8
0
 62
   249
 10
225.437972
 20
5.440166
 30
0.0
 11
225.437972
 21
2.080166
 31
0.0
  0
LINE
  8
0
 62
   249
 10
225.437972
 20
2.080166
 30
0.0
 11
223.477972
 21
2.080166
 31
0.0
  0
LINE
  8
0
 62
   249
 10
223.477972
 20
5.720166
 30
0.0
 11
223.477972
 21
9.080166
 31
0.0
  0
ARC
  8
0
 62
   249
 10
226.277972
 20
7.505166
 30
0.0
 40
1.575
 50
298.455859
 51
90.052437
  0
LINE
  8
0
 62
   249
 10
225.717972
 20
9.080166
 30
0.0
 11
226.27653
 21
9.080165
 31
0.0
  0
LINE
  8
0
 62
   249
 10
225.717972
 20
9.080166
 30
0.0
 11
225.717972
 21
5.720166
 31
0.0
  0
LINE
  8
0
 62
   249
 10
225.717972
 20
5.720166
 30
0.0
 11
227.702415
 21
5.720166
 31
0.0
  0
LINE
  8
0
 62
   249
 10
227.957972
 20
5.440166
 30
0.0
 11
225.717972
 21
5.440166
 31
0.0
  0
LINE
  8
0
 62
   249
 10
225.717972
 20
5.440166
 30
0.0
 11
225.717972
 21
2.080166
 31
0.0
  0
ARC
  8
0
 62
   249
 10
226.277972
 20
4.180166
 30
0.0
 40
2.1
 50
269.937724
 51
37.056553
  0
LINE
  8
0
 62
   249
 10
225.717972
 20
2.080166
 30
0.0
 11
226.275689
 21
2.080167
 31
0.0
  0
ARC
  8
0
 62
   249
 10
226.277972
 20
4.180166
 30
0.0
 40
2.1
 50
47.28622
 51
68.787999
  0
INSERT
  8
0
 62
   249
  2
*X13
 10
215.987972
 20
2.080166
 30
0.0
 41
0.7
 42
0.7
 43
0.7
  0
INSERT
  8
0
 62
   249
  2
*X14
 10
215.987972
 20
2.080166
 30
0.0
 41
0.7
 42
0.7
 43
0.7
  0
INSERT
  8
0
 62
   249
  2
*X15
 10
215.987972
 20
2.080166
 30
0.0
 41
0.7
 42
0.7
 43
0.7
  0
INSERT
  8
0
 62
   249
  2
*X16
 10
215.987972
 20
2.080166
 30
0.0
 41
0.7
 42
0.7
 43
0.7
  0
INSERT
  8
0
 62
   249
  2
*X16
 10
210.527972
 20
2.080166
 30
0.0
 41
0.7
 42
0.7
 43
0.7
  0
INSERT
  8
0
 62
   249
  2
*X15
 10
210.527972
 20
2.080166
 30
0.0
 41
0.7
 42
0.7
 43
0.7
  0
INSERT
  8
0
 62
   249
  2
*X14
 10
210.527972
 20
2.080166
 30
0.0
 41
0.7
 42
0.7
 43
0.7
  0
INSERT
  8
0
 62
   249
  2
*X13
 10
210.527972
 20
2.080166
 30
0.0
 41
0.7
 42
0.7
 43
0.7
  0
ARC
  8
0
 62
   249
 10
220.817972
 20
4.180166
 30
0.0
 40
2.1
 50
47.28622
 51
68.787999
  0
LINE
  8
0
 62
   249
 10
220.257972
 20
2.080166
 30
0.0
 11
220.815689
 21
2.080167
 31
0.0
  0
ARC
  8
0
 62
   249
 10
220.817972
 20
4.180166
 30
0.0
 40
2.1
 50
269.937724
 51
37.056553
  0
LINE
  8
0
 62
   249
 10
220.257972
 20
5.440166
 30
0.0
 11
220.257972
 21
2.080166
 31
0.0
  0
LINE
  8
0
 62
   249
 10
222.497972
 20
5.440166
 30
0.0
 11
220.257972
 21
5.440166
 31
0.0
  0
LINE
  8
0
 62
   249
 10
220.257972
 20
5.720166
 30
0.0
 11
222.242415
 21
5.720166
 31
0.0
  0
LINE
  8
0
 62
   249
 10
220.257972
 20
9.080166
 30
0.0
 11
220.257972
 21
5.720166
 31
0.0
  0
LINE
  8
0
 62
   249
 10
220.257972
 20
9.080166
 30
0.0
 11
220.81653
 21
9.080165
 31
0.0
  0
ARC
  8
0
 62
   249
 10
220.817972
 20
7.505166
 30
0.0
 40
1.575
 50
298.455859
 51
90.052437
  0
LINE
  8
0
 62
   249
 10
218.017972
 20
5.720166
 30
0.0
 11
218.017972
 21
9.080166
 31
0.0
  0
LINE
  8
0
 62
   249
 10
219.977972
 20
2.080166
 30
0.0
 11
218.017972
 21
2.080166
 31
0.0
  0
LINE
  8
0
 62
   249
 10
219.977972
 20
5.440166
 30
0.0
 11
219.977972
 21
2.080166
 31
0.0
  0
LINE
  8
0
 62
   249
 10
218.017972
 20
5.440166
 30
0.0
 11
219.977972
 21
5.440166
 31
0.0
  0
LINE
  8
0
 62
   249
 10
219.977972
 20
5.720166
 30
0.0
 11
218.017972
 21
5.720166
 31
0.0
  0
LINE
  8
0
 62
   249
 10
219.977972
 20
9.080166
 30
0.0
 11
219.977972
 21
5.720166
 31
0.0
  0
LINE
  8
0
 62
   249
 10
218.017972
 20
9.080166
 30
0.0
 11
219.977972
 21
9.080166
 31
0.0
  0
LINE
  8
0
 62
   249
 10
218.017972
 20
2.080166
 30
0.0
 11
218.017972
 21
5.440166
 31
0.0
  0
INSERT
  8
0
 62
   249
  2
*X12
 10
210.527972
 20
2.080166
 30
0.0
 41
0.7
 42
0.7
 43
0.7
  0
INSERT
  8
0
 62
   249
  2
*X11
 10
210.527972
 20
2.080166
 30
0.0
 41
0.7
 42
0.7
 43
0.7
  0
INSERT
  8
0
 62
   249
  2
*X10
 10
210.527972
 20
2.080166
 30
0.0
 41
0.7
 42
0.7
 43
0.7
  0
INSERT
  8
0
 62
   249
  2
*X9
 10
210.527972
 20
2.080166
 30
0.0
 41
0.7
 42
0.7
 43
0.7
  0
LINE
  8
0
 62
   249
 10
211.69786
 20
5.422705
 30
0.0
 11
210.527972
 21
2.080166
 31
0.0
  0
LINE
  8
0
 62
   249
 10
213.887972
 20
5.440166
 30
0.0
 11
213.887972
 21
3.480166
 31
0.0
  0
LINE
  8
0
 62
   249
 10
214.167972
 20
5.440166
 30
0.0
 11
214.167972
 21
3.480166
 31
0.0
  0
LINE
  8
0
 62
   249
 10
214.167972
 20
5.440166
 30
0.0
 11
216.351228
 21
5.440166
 31
0.0
  0
LINE
  8
0
 62
   249
 10
214.167972
 20
5.720166
 30
0.0
 11
216.253085
 21
5.720166
 31
0.0
  0
LINE
  8
0
 62
   249
 10
216.352464
 20
5.438761
 30
0.0
 11
217.527972
 21
2.080166
 31
0.0
  0
LINE
  8
0
 62
   249
 10
211.700954
 20
5.440166
 30
0.0
 11
213.887972
 21
5.440166
 31
0.0
  0
LINE
  8
0
 62
   249
 10
211.799912
 20
5.720166
 30
0.0
 11
213.887972
 21
5.720166
 31
0.0
  0
LINE
  8
0
 62
   249
 10
213.887972
 20
9.080166
 30
0.0
 11
212.977972
 21
9.080166
 31
0.0
  0
LINE
  8
0
 62
   249
 10
214.167972
 20
3.480166
 30
0.0
 11
215.287865
 21
3.480166
 31
0.0
  0
LINE
  8
0
 62
   249
 10
214.167972
 20
9.080166
 30
0.0
 11
214.167972
 21
5.720166
 31
0.0
  0
LINE
  8
0
 62
   249
 10
213.887972
 20
9.080166
 30
0.0
 11
213.887972
 21
5.720166
 31
0.0
  0
LINE
  8
0
 62
   249
 10
215.077972
 20
9.080166
 30
0.0
 11
214.167972
 21
9.080166
 31
0.0
  0
LINE
  8
0
 62
   249
 10
215.289069
 20
3.47703
 30
0.0
 11
215.777972
 21
2.080166
 31
0.0
  0
LINE
  8
0
 62
   249
 10
215.077972
 20
9.080166
 30
0.0
 11
216.254325
 21
5.719158
 31
0.0
  0
LINE
  8
0
 62
   249
 10
212.766762
 20
3.476709
 30
0.0
 11
212.277972
 21
2.080166
 31
0.0
  0
LINE
  8
0
 62
   249
 10
212.766758
 20
3.480166
 30
0.0
 11
213.887972
 21
3.480166
 31
0.0
  0
LINE
  8
0
 62
   249
 10
212.977972
 20
9.080166
 30
0.0
 11
211.800444
 21
5.715801
 31
0.0
  0
LINE
  8
0
 62
   249
 10
215.777972
 20
2.080166
 30
0.0
 11
217.527972
 21
2.080166
 31
0.0
  0
LINE
  8
0
 62
   249
 10
210.527972
 20
2.080166
 30
0.0
 11
212.277972
 21
2.080166
 31
0.0
  0
LINE
  8
0
 62
   249
 10
370.077972
 20
10.080166
 30
0.0
 11
370.077972
 21
0.580166
 31
0.0
  0
TEXT
  8
0
 62
   249
 10
371.577972
 20
7.580166
 30
0.0
 40
1.4
  1
PAINOS  REVISION
  7
ROMANS
  0
LINE
  8
0
 62
   249
 10
350.077972
 20
10.080166
 30
0.0
 11
350.077972
 21
18.580166
 31
0.0
  0
TEXT
  8
0
 62
   249
 10
309.577972
 20
7.580166
 30
0.0
 40
1.4
  1
PIIRUSTUS NO  DRAWING NR
  7
ROMANS
  0
TEXT
  8
0
 62
   249
 10
309.577972
 20
16.080166
 30
0.0
 40
1.4
  1
KOODI  CODE
  7
ROMANS
  0
TEXT
  8
0
 62
   249
 10
309.577972
 20
33.080166
 30
0.0
 40
1.4
  1
NIMITYS  NAME
  7
ROMANS
  0
TEXT
  8
0
 62
   249
 10
259.577972
 20
16.080166
 30
0.0
 40
1.4
  1
SUHDE  SCALE
  7
ROMANS
  0
TEXT
  8
0
 62
   249
 10
259.577972
 20
24.080166
 30
0.0
 40
1.4
  1
TOLERANSSIT  TOLERANCES
  7
ROMANS
  0
TEXT
  8
0
 62
   249
 10
259.577972
 20
33.080166
 30
0.0
 40
1.4
  1
LIITTYY  CONCERNING
  7
ROMANS
  0
LINE
  8
0
 62
   249
 10
307.577972
 20
0.580166
 30
0.0
 11
307.577972
 21
35.580166
 31
0.0
  0
TEXT
  8
0
 62
   249
 10
210.320806
 20
16.046833
 30
0.0
 40
1.4
  1
HYVÄKSYI  APPROVED
  7
ROMANS
  0
TEXT
  8
0
 62
   249
 10
210.577972
 20
24.313499
 30
0.0
 40
1.4
  1
TARKASTI  CHECKED
  7
ROMANS
  0
LINE
  8
0
 62
   249
 10
209.577972
 20
35.580166
 30
0.0
 11
392.577972
 21
35.580166
 31
0.0
  0
LINE
  8
0
 62
   249
 10
209.577972
 20
27.080166
 30
0.0
 11
307.577972
 21
27.080166
 31
0.0
  0
LINE
  8
0
 62
   249
 10
209.577972
 20
10.080166
 30
0.0
 11
392.577972
 21
10.080166
 31
0.0
  0
LINE
  8
0
 62
   249
 10
209.577972
 20
18.580166
 30
0.0
 11
392.577972
 21
18.580166
 31
0.0
  0
LINE
  8
0
 62
   249
 10
392.577972
 20
0.580166
 30
0.0
 11
392.577972
 21
35.580166
 31
0.0
  0
LINE
  8
0
 62
   249
 10
209.577972
 20
0.580166
 30
0.0
 11
209.577972
 21
35.580166
 31
0.0
  0
LINE
  8
0
 62
   249
 10
209.577972
 20
0.580166
 30
0.0
 11
392.577972
 21
0.580166
 31
0.0
  0
LINE
  8
0
 62
   249
 10
18.577972
 20
0.580166
 30
0.0
 11
0.577972
 21
0.580166
 31
0.0
  0
LINE
  8
0
 62
   249
 10
0.577972
 20
263.080166
 30
0.0
 11
392.577972
 21
263.080166
 31
0.0
  0
TEXT
  8
0
  6
DASHED
 62
   249
 10
292.558067
 20
12.155526
 30
0.0
 40
3.0
  1
A3
  7
GREEKS
  0
ARC
  8
0
  6
CONTINUOUS
 62
   249
 10
167.5
 20
131.498058
 30
0.0
 40
0.5
 50
180.0
 51
0.0
  0
ARC
  8
0
  6
CONTINUOUS
 62
   249
 10
167.5
 20
131.498058
 30
0.0
 40
0.5
 50
0.0
 51
180.0
  0
LINE
  8
0
  6
CONTINUOUS
 62
   249
 10
178.924362
 20
130.162693
 30
0.0
 11
176.578597
 21
131.498046
 31
0.0
  0
LINE
  8
0
  6
CONTINUOUS
 62
   249
 10
176.578597
 20
131.498046
 30
0.0
 11
178.924362
 21
132.687966
 31
0.0
  0
LINE
  8
0
  6
CONTINUOUS
 62
   249
 10
42.825513
 20
68.342428
 30
0.0
 11
41.158139
 21
68.342428
 31
0.0
  0
LINE
  8
0
  6
CONTINUOUS
 62
   249
 10
42.825513
 20
70.029393
 30
0.0
 11
42.825513
 21
68.342428
 31
0.0
  0
LINE
  8
0
  6
CONTINUOUS
 62
   249
 10
41.158139
 20
70.029393
 30
0.0
 11
42.825513
 21
70.029393
 31
0.0
  0
LINE
  8
0
  6
CONTINUOUS
 62
   249
 10
41.158139
 20
68.342428
 30
0.0
 11
41.158139
 21
70.029393
 31
0.0
  0
TEXT
  8
0
  6
CONTINUOUS
 62
   249
 10
13.375039
 20
71.494867
 30
0.0
 40
2.0
  1
+
  0
ARC
  8
0
  6
CONTINUOUS
 62
   249
 10
40.0
 20
72.5
 30
0.0
 40
0.5
 50
180.0
 51
0.0
  0
ARC
  8
0
  6
CONTINUOUS
 62
   249
 10
40.0
 20
72.5
 30
0.0
 40
0.5
 50
0.0
 51
180.0
  0
LINE
  8
0
  6
CONTINUOUS
 62
   249
 10
43.160697
 20
118.819124
 30
0.0
 11
41.493323
 21
118.819124
 31
0.0
  0
LINE
  8
0
  6
CONTINUOUS
 62
   249
 10
43.160697
 20
120.506089
 30
0.0
 11
43.160697
 21
118.819124
 31
0.0
  0
LINE
  8
0
  6
CONTINUOUS
 62
   249
 10
41.493323
 20
120.506089
 30
0.0
 11
43.160697
 21
120.506089
 31
0.0
  0
LINE
  8
0
  6
CONTINUOUS
 62
   249
 10
41.493323
 20
118.819124
 30
0.0
 11
41.493323
 21
120.506089
 31
0.0
  0
LINE
  8
0
  6
CONTINUOUS
 62
   249
 10
42.993105
 20
98.973511
 30
0.0
 11
41.325731
 21
98.973511
 31
0.0
  0
LINE
  8
0
  6
CONTINUOUS
 62
   249
 10
42.993105
 20
100.660477
 30
0.0
 11
42.993105
 21
98.973511
 31
0.0
  0
LINE
  8
0
  6
CONTINUOUS
 62
   249
 10
41.325731
 20
100.660477
 30
0.0
 11
42.993105
 21
100.660477
 31
0.0
  0
LINE
  8
0
  6
CONTINUOUS
 62
   249
 10
41.325731
 20
98.973511
 30
0.0
 11
41.325731
 21
100.660477
 31
0.0
  0
TEXT
  8
0
  6
CONTINUOUS
 62
   249
 10
13.375039
 20
101.46848
 30
0.0
 40
2.0
  1
+
  0
TEXT
  8
0
  6
CONTINUOUS
 62
   249
 10
13.375039
 20
121.439106
 30
0.0
 40
2.0
  1
+
  0
LINE
  8
0
  6
CONTINUOUS
 62
   249
 10
178.924362
 20
123.664635
 30
0.0
 11
176.578597
 21
124.999989
 31
0.0
  0
LINE
  8
0
  6
CONTINUOUS
 62
   249
 10
176.578597
 20
124.999989
 30
0.0
 11
178.924362
 21
126.189908
 31
0.0
  0
TEXT
  8
0
  6
CONTINUOUS
 62
   249
 10
13.375039
 20
131.503948
 30
0.0
 40
2.0
  1
+
  0
TEXT
  8
0
  6
CONTINUOUS
 62
   249
 10
13.484163
 20
149.004484
 30
0.0
 40
2.0
  1
-
  0
ARC
  8
0
  6
CONTINUOUS
 62
   249
 10
65.0
 20
143.608096
 30
0.0
 40
0.5
 50
180.0
 51
0.0
  0
ARC
  8
0
  6
CONTINUOUS
 62
   249
 10
65.0
 20
143.608096
 30
0.0
 40
0.5
 50
0.0
 51
180.0
  0
ARC
  8
0
  6
CONTINUOUS
 62
   249
 10
60.0
 20
156.055194
 30
0.0
 40
0.5
 50
180.0
 51
0.0
  0
ARC
  8
0
  6
CONTINUOUS
 62
   249
 10
60.0
 20
156.055194
 30
0.0
 40
0.5
 50
0.0
 51
180.0
  0
TEXT
  8
0
  6
CONTINUOUS
 62
   249
 10
14.208977
 20
211.50558
 30
0.0
 40
2.0
  1
-
  0
ARC
  8
0
  6
CONTINUOUS
 62
   249
 10
52.5
 20
212.5
 30
0.0
 40
0.5
 50
180.0
 51
0.0
  0
ARC
  8
0
  6
CONTINUOUS
 62
   249
 10
52.5
 20
212.5
 30
0.0
 40
0.5
 50
0.0
 51
180.0
  0
TEXT
  8
0
  6
CONTINUOUS
 62
   249
 10
14.217542
 20
216.513635
 30
0.0
 40
2.0
  1
+
  0
TEXT
  8
0
  6
CONTINUOUS
 62
   249
 10
14.217542
 20
224.013635
 30
0.0
 40
2.0
  1
+
  0
LINE
  8
0
  6
CONTINUOUS
 62
   249
 10
36.018035
 20
224.993411
 30
0.0
 11
29.337159
 21
227.434804
 31
0.0
  0
LINE
  8
0
  6
CONTINUOUS
 62
   249
 10
30.0
 20
225.0
 30
0.0
 11
30.0
 21
227.765661
 31
0.0
  0
LINE
  8
0
  6
CONTINUOUS
 62
   249
 10
29.337159
 20
227.434804
 30
0.0
 11
28.892266
 21
226.549106
 31
0.0
  0
CIRCLE
  8
0
  6
CONTINUOUS
 62
   249
 10
36.758945
 20
225.0
 30
0.0
 40
0.740939
  0
TEXT
  8
0
  6
CONTINUOUS
 62
   249
 10
14.217542
 20
239.013635
 30
0.0
 40
2.0
  1
+
  0
TEXT
  8
0
  6
CONTINUOUS
 62
   249
 10
14.208977
 20
234.00558
 30
0.0
 40
2.0
  1
-
  0
ARC
  8
0
  6
CONTINUOUS
 62
   249
 10
135.0
 20
198.668365
 30
0.0
 40
0.5
 50
180.0
 51
0.0
  0
ARC
  8
0
  6
CONTINUOUS
 62
   249
 10
135.0
 20
198.668365
 30
0.0
 40
0.5
 50
0.0
 51
180.0
  0
ARC
  8
0
  6
CONTINUOUS
 62
   249
 10
120.0
 20
172.5
 30
0.0
 40
0.5
 50
180.0
 51
0.0
  0
ARC
  8
0
  6
CONTINUOUS
 62
   249
 10
120.0
 20
172.5
 30
0.0
 40
0.5
 50
0.0
 51
180.0
  0
ARC
  8
0
  6
CONTINUOUS
 62
   249
 10
87.5
 20
172.5
 30
0.0
 40
0.5
 50
180.0
 51
0.0
  0
ARC
  8
0
  6
CONTINUOUS
 62
   249
 10
87.5
 20
172.5
 30
0.0
 40
0.5
 50
0.0
 51
180.0
  0
ARC
  8
0
  6
CONTINUOUS
 62
   249
 10
90.0
 20
167.5
 30
0.0
 40
0.5
 50
180.0
 51
0.0
  0
ARC
  8
0
  6
CONTINUOUS
 62
   249
 10
90.0
 20
167.5
 30
0.0
 40
0.5
 50
0.0
 51
180.0
  0
ARC
  8
0
  6
CONTINUOUS
 62
   249
 10
77.5
 20
175.0
 30
0.0
 40
0.5
 50
180.0
 51
0.0
  0
ARC
  8
0
  6
CONTINUOUS
 62
   249
 10
77.5
 20
175.0
 30
0.0
 40
0.5
 50
0.0
 51
180.0
  0
ARC
  8
0
  6
CONTINUOUS
 62
   249
 10
132.5
 20
205.0
 30
0.0
 40
0.5
 50
180.0
 51
0.0
  0
ARC
  8
0
  6
CONTINUOUS
 62
   249
 10
132.5
 20
205.0
 30
0.0
 40
0.5
 50
0.0
 51
180.0
  0
ARC
  8
0
  6
CONTINUOUS
 62
   249
 10
130.0
 20
209.665835
 30
0.0
 40
0.5
 50
180.0
 51
0.0
  0
ARC
  8
0
  6
CONTINUOUS
 62
   249
 10
130.0
 20
209.665835
 30
0.0
 40
0.5
 50
0.0
 51
180.0
  0
ARC
  8
0
  6
CONTINUOUS
 62
   249
 10
175.0
 20
172.471652
 30
0.0
 40
0.5
 50
180.0
 51
0.0
  0
ARC
  8
0
  6
CONTINUOUS
 62
   249
 10
175.0
 20
172.471652
 30
0.0
 40
0.5
 50
0.0
 51
180.0
  0
ARC
  8
0
  6
CONTINUOUS
 62
   249
 10
147.5
 20
172.5
 30
0.0
 40
0.5
 50
180.0
 51
0.0
  0
ARC
  8
0
  6
CONTINUOUS
 62
   249
 10
147.5
 20
172.5
 30
0.0
 40
0.5
 50
0.0
 51
180.0
  0
ARC
  8
0
  6
CONTINUOUS
 62
   249
 10
165.0
 20
150.0
 30
0.0
 40
0.5
 50
180.0
 51
0.0
  0
ARC
  8
0
  6
CONTINUOUS
 62
   249
 10
165.0
 20
150.0
 30
0.0
 40
0.5
 50
0.0
 51
180.0
  0
ARC
  8
0
  6
CONTINUOUS
 62
   249
 10
160.0
 20
141.387472
 30
0.0
 40
0.5
 50
180.0
 51
0.0
  0
ARC
  8
0
  6
CONTINUOUS
 62
   249
 10
160.0
 20
141.387472
 30
0.0
 40
0.5
 50
0.0
 51
180.0
  0
ARC
  8
0
  6
CONTINUOUS
 62
   249
 10
162.5
 20
137.5
 30
0.0
 40
0.5
 50
180.0
 51
0.0
  0
ARC
  8
0
  6
CONTINUOUS
 62
   249
 10
162.5
 20
137.5
 30
0.0
 40
0.5
 50
0.0
 51
180.0
  0
ARC
  8
0
  6
CONTINUOUS
 62
   249
 10
152.5
 20
153.668039
 30
0.0
 40
0.5
 50
180.0
 51
0.0
  0
ARC
  8
0
  6
CONTINUOUS
 62
   249
 10
152.5
 20
153.668039
 30
0.0
 40
0.5
 50
0.0
 51
180.0
  0
LINE
  8
0
  6
CONTINUOUS
 62
   249
 10
178.924362
 20
140.052107
 30
0.0
 11
176.578597
 21
141.38746
 31
0.0
  0
LINE
  8
0
  6
CONTINUOUS
 62
   249
 10
176.578597
 20
141.38746
 30
0.0
 11
178.924362
 21
142.57738
 31
0.0
  0
LINE
  8
0
  6
CONTINUOUS
 62
   249
 10
178.924362
 20
136.164635
 30
0.0
 11
176.578597
 21
137.499989
 31
0.0
  0
LINE
  8
0
  6
CONTINUOUS
 62
   249
 10
176.578597
 20
137.499989
 30
0.0
 11
178.924362
 21
138.689908
 31
0.0
  0
LINE
  8
0
  6
CONTINUOUS
 62
   249
 10
178.924362
 20
148.664635
 30
0.0
 11
176.578597
 21
149.999989
 31
0.0
  0
LINE
  8
0
  6
CONTINUOUS
 62
   249
 10
176.578597
 20
149.999989
 30
0.0
 11
178.924362
 21
151.189908
 31
0.0
  0
ARC
  8
0
  6
CONTINUOUS
 62
   249
 10
175.0
 20
157.519111
 30
0.0
 40
0.5
 50
180.0
 51
0.0
  0
ARC
  8
0
  6
CONTINUOUS
 62
   249
 10
175.0
 20
157.519111
 30
0.0
 40
0.5
 50
0.0
 51
180.0
  0
LINE
  8
0
  6
CONTINUOUS
 62
   249
 10
178.924362
 20
152.332673
 30
0.0
 11
176.578597
 21
153.668027
 31
0.0
  0
LINE
  8
0
  6
CONTINUOUS
 62
   249
 10
176.578597
 20
153.668027
 30
0.0
 11
178.924362
 21
154.857946
 31
0.0
  0
LINE
  8
0
  6
CONTINUOUS
 62
   249
 10
178.924362
 20
163.664635
 30
0.0
 11
176.578597
 21
164.999989
 31
0.0
  0
LINE
  8
0
  6
CONTINUOUS
 62
   249
 10
176.578597
 20
164.999989
 30
0.0
 11
178.924362
 21
166.189908
 31
0.0
  0
LINE
  8
0
  6
CONTINUOUS
 62
   249
 10
178.924362
 20
167.563601
 30
0.0
 11
176.578597
 21
168.898954
 31
0.0
  0
LINE
  8
0
  6
CONTINUOUS
 62
   249
 10
176.578597
 20
168.898954
 30
0.0
 11
178.924362
 21
170.088874
 31
0.0
  0
LINE
  8
0
  6
CONTINUOUS
 62
   249
 10
188.992717
 20
153.201444
 30
0.0
 11
189.879604
 21
153.201444
 31
0.0
  0
LINE
  8
0
  6
CONTINUOUS
 62
   249
 10
188.661613
 20
153.813077
 30
0.0
 11
190.246184
 21
153.813077
 31
0.0
  0
LINE
  8
0
  6
CONTINUOUS
 62
   249
 10
189.477549
 20
154.435139
 30
0.0
 11
190.67189
 21
154.435139
 31
0.0
  0
LINE
  8
0
  6
CONTINUOUS
 62
   249
 10
188.283208
 20
154.435139
 30
0.0
 11
189.477549
 21
154.435139
 31
0.0
  0
LINE
  8
0
  6
CONTINUOUS
 62
   249
 10
189.493435
 20
155.789409
 30
0.0
 11
189.493435
 21
154.435139
 31
0.0
  0
LINE
  8
0
  6
CONTINUOUS
 62
   249
 10
189.20838
 20
163.137212
 30
0.0
 11
190.095267
 21
163.137212
 31
0.0
  0
LINE
  8
0
  6
CONTINUOUS
 62
   249
 10
188.877275
 20
163.748845
 30
0.0
 11
190.461846
 21
163.748845
 31
0.0
  0
LINE
  8
0
  6
CONTINUOUS
 62
   249
 10
189.693211
 20
164.370907
 30
0.0
 11
190.887552
 21
164.370907
 31
0.0
  0
LINE
  8
0
  6
CONTINUOUS
 62
   249
 10
188.49887
 20
164.370907
 30
0.0
 11
189.693211
 21
164.370907
 31
0.0
  0
LINE
  8
0
  6
CONTINUOUS
 62
   249
 10
189.709098
 20
165.725178
 30
0.0
 11
189.709098
 21
164.370907
 31
0.0
  0
LINE
  8
0
  6
CONTINUOUS
 62
   249
 10
189.20838
 20
168.066047
 30
0.0
 11
190.095267
 21
168.066047
 31
0.0
  0
LINE
  8
0
  6
CONTINUOUS
 62
   249
 10
188.877275
 20
168.677681
 30
0.0
 11
190.461846
 21
168.677681
 31
0.0
  0
LINE
  8
0
  6
CONTINUOUS
 62
   249
 10
189.693211
 20
169.299743
 30
0.0
 11
190.887552
 21
169.299743
 31
0.0
  0
LINE
  8
0
  6
CONTINUOUS
 62
   249
 10
188.49887
 20
169.299743
 30
0.0
 11
189.693211
 21
169.299743
 31
0.0
  0
LINE
  8
0
  6
CONTINUOUS
 62
   249
 10
189.709098
 20
170.654013
 30
0.0
 11
189.709098
 21
169.299743
 31
0.0
  0
ARC
  8
0
  6
CONTINUOUS
 62
   249
 10
145.0
 20
180.0
 30
0.0
 40
0.5
 50
180.0
 51
0.0
  0
ARC
  8
0
  6
CONTINUOUS
 62
   249
 10
145.0
 20
180.0
 30
0.0
 40
0.5
 50
0.0
 51
180.0
  0
LINE
  8
0
  6
CONTINUOUS
 62
   249
 10
178.924362
 20
191.164635
 30
0.0
 11
176.578597
 21
192.499989
 31
0.0
  0
LINE
  8
0
  6
CONTINUOUS
 62
   249
 10
176.578597
 20
192.499989
 30
0.0
 11
178.924362
 21
193.689908
 31
0.0
  0
ARC
  8
0
  6
CONTINUOUS
 62
   249
 10
172.5
 20
175.500813
 30
0.0
 40
0.5
 50
180.0
 51
0.0
  0
ARC
  8
0
  6
CONTINUOUS
 62
   249
 10
172.5
 20
175.500813
 30
0.0
 40
0.5
 50
0.0
 51
180.0
  0
LINE
  8
0
  6
CONTINUOUS
 62
   249
 10
178.924362
 20
178.664635
 30
0.0
 11
176.578597
 21
179.999989
 31
0.0
  0
LINE
  8
0
  6
CONTINUOUS
 62
   249
 10
176.578597
 20
179.999989
 30
0.0
 11
178.924362
 21
181.189908
 31
0.0
  0
LINE
  8
0
  6
CONTINUOUS
 62
   249
 10
189.280267
 20
177.941073
 30
0.0
 11
190.167154
 21
177.941073
 31
0.0
  0
LINE
  8
0
  6
CONTINUOUS
 62
   249
 10
188.949163
 20
178.552706
 30
0.0
 11
190.533734
 21
178.552706
 31
0.0
  0
LINE
  8
0
  6
CONTINUOUS
 62
   249
 10
189.765099
 20
179.174769
 30
0.0
 11
190.95944
 21
179.174769
 31
0.0
  0
LINE
  8
0
  6
CONTINUOUS
 62
   249
 10
188.570758
 20
179.174769
 30
0.0
 11
189.765099
 21
179.174769
 31
0.0
  0
LINE
  8
0
  6
CONTINUOUS
 62
   249
 10
189.780985
 20
180.529039
 30
0.0
 11
189.780985
 21
179.174769
 31
0.0
  0
LINE
  8
0
  6
CONTINUOUS
 62
   249
 10
178.924362
 20
197.333016
 30
0.0
 11
176.578597
 21
198.66837
 31
0.0
  0
LINE
  8
0
  6
CONTINUOUS
 62
   249
 10
176.578597
 20
198.66837
 30
0.0
 11
178.924362
 21
199.858289
 31
0.0
  0
LINE
  8
0
  6
CONTINUOUS
 62
   249
 10
178.924362
 20
208.331255
 30
0.0
 11
176.578597
 21
209.666609
 31
0.0
  0
LINE
  8
0
  6
CONTINUOUS
 62
   249
 10
176.578597
 20
209.666609
 30
0.0
 11
178.924362
 21
210.856528
 31
0.0
  0
LINE
  8
0
  6
CONTINUOUS
 62
   249
 10
178.924362
 20
203.664635
 30
0.0
 11
176.578597
 21
204.999989
 31
0.0
  0
LINE
  8
0
  6
CONTINUOUS
 62
   249
 10
176.578597
 20
204.999989
 30
0.0
 11
178.924362
 21
206.189908
 31
0.0
  0
ARC
  8
0
  6
CONTINUOUS
 62
   249
 10
175.0
 20
212.5
 30
0.0
 40
0.5
 50
180.0
 51
0.0
  0
ARC
  8
0
  6
CONTINUOUS
 62
   249
 10
175.0
 20
212.5
 30
0.0
 40
0.5
 50
0.0
 51
180.0
  0
ARC
  8
0
  6
CONTINUOUS
 62
   249
 10
127.5
 20
217.5
 30
0.0
 40
0.5
 50
180.0
 51
0.0
  0
ARC
  8
0
  6
CONTINUOUS
 62
   249
 10
127.5
 20
217.5
 30
0.0
 40
0.5
 50
0.0
 51
180.0
  0
LINE
  8
0
  6
CONTINUOUS
 62
   249
 10
178.924362
 20
216.164635
 30
0.0
 11
176.578597
 21
217.499989
 31
0.0
  0
LINE
  8
0
  6
CONTINUOUS
 62
   249
 10
176.578597
 20
217.499989
 30
0.0
 11
178.924362
 21
218.689908
 31
0.0
  0
LINE
  8
0
  6
CONTINUOUS
 62
   249
 10
212.347595
 20
132.027947
 30
0.0
 11
213.596268
 21
131.317126
 31
0.0
  0
LINE
  8
0
  6
CONTINUOUS
 62
   249
 10
213.596268
 20
131.317126
 30
0.0
 11
212.347595
 21
130.683721
 31
0.0
  0
LINE
  8
0
  6
CONTINUOUS
 62
   249
 10
208.72323
 20
130.592989
 30
0.0
 11
207.474557
 21
131.303811
 31
0.0
  0
LINE
  8
0
  6
CONTINUOUS
 62
   249
 10
207.474557
 20
131.303811
 30
0.0
 11
208.72323
 21
131.937216
 31
0.0
  0
LINE
  8
0
  6
CONTINUOUS
 62
   249
 10
237.38991
 20
93.666103
 30
0.0
 11
235.044144
 21
95.001457
 31
0.0
  0
LINE
  8
0
  6
CONTINUOUS
 62
   249
 10
235.044144
 20
95.001457
 30
0.0
 11
237.38991
 21
96.191376
 31
0.0
  0
LINE
  8
0
  6
CONTINUOUS
 62
   249
 10
237.38991
 20
103.666103
 30
0.0
 11
235.044144
 21
105.001457
 31
0.0
  0
LINE
  8
0
  6
CONTINUOUS
 62
   249
 10
235.044144
 20
105.001457
 30
0.0
 11
237.38991
 21
106.191376
 31
0.0
  0
LINE
  8
0
  6
CONTINUOUS
 62
   249
 10
236.989729
 20
113.664635
 30
0.0
 11
234.643963
 21
114.999989
 31
0.0
  0
LINE
  8
0
  6
CONTINUOUS
 62
   249
 10
234.643963
 20
114.999989
 30
0.0
 11
236.989729
 21
116.189908
 31
0.0
  0
LINE
  8
0
  6
CONTINUOUS
 62
   249
 10
236.989729
 20
213.664635
 30
0.0
 11
234.643963
 21
214.999989
 31
0.0
  0
LINE
  8
0
  6
CONTINUOUS
 62
   249
 10
234.643963
 20
214.999989
 30
0.0
 11
236.989729
 21
216.189908
 31
0.0
  0
LINE
  8
0
  6
CONTINUOUS
 62
   249
 10
211.613336
 20
172.014322
 30
0.0
 11
212.500223
 21
172.014322
 31
0.0
  0
LINE
  8
0
  6
CONTINUOUS
 62
   249
 10
211.282232
 20
172.625955
 30
0.0
 11
212.866803
 21
172.625955
 31
0.0
  0
LINE
  8
0
  6
CONTINUOUS
 62
   249
 10
212.098168
 20
173.248018
 30
0.0
 11
213.292509
 21
173.248018
 31
0.0
  0
LINE
  8
0
  6
CONTINUOUS
 62
   249
 10
210.903827
 20
173.248018
 30
0.0
 11
212.098168
 21
173.248018
 31
0.0
  0
LINE
  8
0
  6
CONTINUOUS
 62
   249
 10
212.114054
 20
174.602288
 30
0.0
 11
212.114054
 21
173.248018
 31
0.0
  0
LINE
  8
0
  6
CONTINUOUS
 62
   249
 10
211.613336
 20
167.432588
 30
0.0
 11
212.500223
 21
167.432588
 31
0.0
  0
LINE
  8
0
  6
CONTINUOUS
 62
   249
 10
211.282232
 20
168.044221
 30
0.0
 11
212.866803
 21
168.044221
 31
0.0
  0
LINE
  8
0
  6
CONTINUOUS
 62
   249
 10
212.098168
 20
168.666283
 30
0.0
 11
213.292509
 21
168.666283
 31
0.0
  0
LINE
  8
0
  6
CONTINUOUS
 62
   249
 10
210.903827
 20
168.666283
 30
0.0
 11
212.098168
 21
168.666283
 31
0.0
  0
LINE
  8
0
  6
CONTINUOUS
 62
   249
 10
212.114054
 20
170.020554
 30
0.0
 11
212.114054
 21
168.666283
 31
0.0
  0
LINE
  8
0
  6
CONTINUOUS
 62
   249
 10
208.72323
 20
164.990627
 30
0.0
 11
207.474557
 21
165.701449
 31
0.0
  0
LINE
  8
0
  6
CONTINUOUS
 62
   249
 10
207.474557
 20
165.701449
 30
0.0
 11
208.72323
 21
166.334854
 31
0.0
  0
ARC
  8
0
  6
CONTINUOUS
 62
   249
 10
220.0
 20
160.979447
 30
0.0
 40
0.5
 50
180.0
 51
0.0
  0
ARC
  8
0
  6
CONTINUOUS
 62
   249
 10
220.0
 20
160.979447
 30
0.0
 40
0.5
 50
0.0
 51
180.0
  0
LINE
  8
0
  6
CONTINUOUS
 62
   249
 10
212.347595
 20
166.425586
 30
0.0
 11
213.596268
 21
165.714764
 31
0.0
  0
LINE
  8
0
  6
CONTINUOUS
 62
   249
 10
213.596268
 20
165.714764
 30
0.0
 11
212.347595
 21
165.081359
 31
0.0
  0
LINE
  8
0
  6
CONTINUOUS
 62
   249
 10
236.989729
 20
153.664635
 30
0.0
 11
234.643963
 21
154.999989
 31
0.0
  0
LINE
  8
0
  6
CONTINUOUS
 62
   249
 10
234.643963
 20
154.999989
 30
0.0
 11
236.989729
 21
156.189908
 31
0.0
  0
LINE
  8
0
  6
CONTINUOUS
 62
   249
 10
208.72323
 20
194.362772
 30
0.0
 11
207.474557
 21
195.073593
 31
0.0
  0
LINE
  8
0
  6
CONTINUOUS
 62
   249
 10
207.474557
 20
195.073593
 30
0.0
 11
208.72323
 21
195.706998
 31
0.0
  0
LINE
  8
0
  6
CONTINUOUS
 62
   249
 10
212.347595
 20
195.79773
 30
0.0
 11
213.596268
 21
195.086908
 31
0.0
  0
LINE
  8
0
  6
CONTINUOUS
 62
   249
 10
213.596268
 20
195.086908
 30
0.0
 11
212.347595
 21
194.453503
 31
0.0
  0
ARC
  8
0
  6
CONTINUOUS
 62
   249
 10
222.5
 20
202.5
 30
0.0
 40
0.5
 50
180.0
 51
0.0
  0
ARC
  8
0
  6
CONTINUOUS
 62
   249
 10
222.5
 20
202.5
 30
0.0
 40
0.5
 50
0.0
 51
180.0
  0
LINE
  8
0
  6
CONTINUOUS
 62
   249
 10
236.989729
 20
183.664635
 30
0.0
 11
234.643963
 21
184.999989
 31
0.0
  0
LINE
  8
0
  6
CONTINUOUS
 62
   249
 10
234.643963
 20
184.999989
 30
0.0
 11
236.989729
 21
186.189908
 31
0.0
  0
LINE
  8
0
  6
CONTINUOUS
 62
   249
 10
236.989729
 20
203.664635
 30
0.0
 11
234.643963
 21
204.999989
 31
0.0
  0
LINE
  8
0
  6
CONTINUOUS
 62
   249
 10
234.643963
 20
204.999989
 30
0.0
 11
236.989729
 21
206.189908
 31
0.0
  0
LINE
  8
0
  6
CONTINUOUS
 62
   249
 10
236.989729
 20
223.664635
 30
0.0
 11
234.643963
 21
224.999989
 31
0.0
  0
LINE
  8
0
  6
CONTINUOUS
 62
   249
 10
234.643963
 20
224.999989
 30
0.0
 11
236.989729
 21
226.189908
 31
0.0
  0
ARC
  8
0
  6
CONTINUOUS
 62
   249
 10
315.0
 20
235.0
 30
0.0
 40
0.5
 50
180.0
 51
0.0
  0
ARC
  8
0
  6
CONTINUOUS
 62
   249
 10
315.0
 20
235.0
 30
0.0
 40
0.5
 50
0.0
 51
180.0
  0
LINE
  8
0
  6
CONTINUOUS
 62
   249
 10
363.220143
 20
177.613722
 30
0.0
 11
361.97147
 21
178.324544
 31
0.0
  0
LINE
  8
0
  6
CONTINUOUS
 62
   249
 10
361.97147
 20
178.324544
 30
0.0
 11
363.220143
 21
178.957949
 31
0.0
  0
LINE
  8
0
  6
CONTINUOUS
 62
   249
 10
363.220143
 20
189.75005
 30
0.0
 11
361.97147
 21
190.460872
 31
0.0
  0
LINE
  8
0
  6
CONTINUOUS
 62
   249
 10
361.97147
 20
190.460872
 30
0.0
 11
363.220143
 21
191.094277
 31
0.0
  0
LINE
  8
0
  6
CONTINUOUS
 62
   249
 10
366.844508
 20
179.04868
 30
0.0
 11
368.093182
 21
178.337859
 31
0.0
  0
LINE
  8
0
  6
CONTINUOUS
 62
   249
 10
368.093182
 20
178.337859
 30
0.0
 11
366.844508
 21
177.704454
 31
0.0
  0
LINE
  8
0
  6
CONTINUOUS
 62
   249
 10
366.844508
 20
191.185008
 30
0.0
 11
368.093182
 21
190.474187
 31
0.0
  0
LINE
  8
0
  6
CONTINUOUS
 62
   249
 10
368.093182
 20
190.474187
 30
0.0
 11
366.844508
 21
189.840781
 31
0.0
  0
LINE
  8
0
  6
CONTINUOUS
 62
   249
 10
364.286581
 20
206.522253
 30
0.0
 11
365.173467
 21
206.522253
 31
0.0
  0
LINE
  8
0
  6
CONTINUOUS
 62
   249
 10
363.955476
 20
207.133886
 30
0.0
 11
365.540047
 21
207.133886
 31
0.0
  0
LINE
  8
0
  6
CONTINUOUS
 62
   249
 10
364.771412
 20
207.755948
 30
0.0
 11
365.965753
 21
207.755948
 31
0.0
  0
LINE
  8
0
  6
CONTINUOUS
 62
   249
 10
363.577071
 20
207.755948
 30
0.0
 11
364.771412
 21
207.755948
 31
0.0
  0
LINE
  8
0
  6
CONTINUOUS
 62
   249
 10
364.787299
 20
209.110219
 30
0.0
 11
364.787299
 21
207.755948
 31
0.0
  0
LINE
  8
0
  6
CONTINUOUS
 62
   249
 10
364.105614
 20
213.305092
 30
0.0
 11
365.354287
 21
212.594271
 31
0.0
  0
LINE
  8
0
  6
CONTINUOUS
 62
   249
 10
365.354287
 20
212.594271
 30
0.0
 11
364.105614
 21
211.960866
 31
0.0
  0
LINE
  8
0
  6
CONTINUOUS
 62
   249
 10
363.220143
 20
198.711811
 30
0.0
 11
361.97147
 21
199.422632
 31
0.0
  0
LINE
  8
0
  6
CONTINUOUS
 62
   249
 10
361.97147
 20
199.422632
 30
0.0
 11
363.220143
 21
200.056038
 31
0.0
  0
LINE
  8
0
  6
CONTINUOUS
 62
   249
 10
366.844508
 20
200.146769
 30
0.0
 11
368.093182
 21
199.435947
 31
0.0
  0
LINE
  8
0
  6
CONTINUOUS
 62
   249
 10
368.093182
 20
199.435947
 30
0.0
 11
366.844508
 21
198.802542
 31
0.0
  0
ARC
  8
0
  6
CONTINUOUS
 62
   249
 10
331.901457
 20
235.0
 30
0.0
 40
0.5
 50
180.0
 51
0.0
  0
ARC
  8
0
  6
CONTINUOUS
 62
   249
 10
331.901457
 20
235.0
 30
0.0
 40
0.5
 50
0.0
 51
180.0
  0
LINE
  8
0
  6
CONTINUOUS
 62
   249
 10
364.286581
 20
219.175394
 30
0.0
 11
365.173467
 21
219.175394
 31
0.0
  0
LINE
  8
0
  6
CONTINUOUS
 62
   249
 10
363.955476
 20
219.787027
 30
0.0
 11
365.540047
 21
219.787027
 31
0.0
  0
LINE
  8
0
  6
CONTINUOUS
 62
   249
 10
364.771412
 20
220.40909
 30
0.0
 11
365.965753
 21
220.40909
 31
0.0
  0
LINE
  8
0
  6
CONTINUOUS
 62
   249
 10
363.577071
 20
220.40909
 30
0.0
 11
364.771412
 21
220.40909
 31
0.0
  0
LINE
  8
0
  6
CONTINUOUS
 62
   249
 10
364.787299
 20
221.76336
 30
0.0
 11
364.787299
 21
220.40909
 31
0.0
  0
LINE
  8
0
  6
CONTINUOUS
 62
   249
 10
363.220143
 20
237.613722
 30
0.0
 11
361.97147
 21
238.324544
 31
0.0
  0
LINE
  8
0
  6
CONTINUOUS
 62
   249
 10
361.97147
 20
238.324544
 30
0.0
 11
363.220143
 21
238.957949
 31
0.0
  0
LINE
  8
0
  6
CONTINUOUS
 62
   249
 10
363.220143
 20
249.75005
 30
0.0
 11
361.97147
 21
250.460872
 31
0.0
  0
LINE
  8
0
  6
CONTINUOUS
 62
   249
 10
361.97147
 20
250.460872
 30
0.0
 11
363.220143
 21
251.094277
 31
0.0
  0
LINE
  8
0
  6
CONTINUOUS
 62
   249
 10
366.844508
 20
239.04868
 30
0.0
 11
368.093182
 21
238.337859
 31
0.0
  0
LINE
  8
0
  6
CONTINUOUS
 62
   249
 10
368.093182
 20
238.337859
 30
0.0
 11
366.844508
 21
237.704454
 31
0.0
  0
LINE
  8
0
  6
CONTINUOUS
 62
   249
 10
366.844508
 20
251.185008
 30
0.0
 11
368.093182
 21
250.474187
 31
0.0
  0
LINE
  8
0
  6
CONTINUOUS
 62
   249
 10
368.093182
 20
250.474187
 30
0.0
 11
366.844508
 21
249.840781
 31
0.0
  0
ENDSEC
  0
EOF
