  0
SECTION
  2
HEADER
  9
$ACADVER
  1
AC1009
  9
$INSBASE
 10
0.0
 20
0.0
 30
0.0
  9
$EXTMIN
 10
109.0752
 20
168.1605
 30
0.0
  9
$EXTMAX
 10
2176.211
 20
1591.651
 30
0.0
  9
$LIMMIN
 10
0.0
 20
0.0
  9
$LIMMAX
 10
12.0
 20
9.0
  9
$ORTHOMODE
 70
     1
  9
$REGENMODE
 70
     1
  9
$FILLMODE
 70
     1
  9
$QTEXTMODE
 70
     0
  9
$MIRRTEXT
 70
     1
  9
$DRAGMODE
 70
     2
  9
$LTSCALE
 40
20.0
  9
$OSMODE
 70
  1023
  9
$ATTMODE
 70
     1
  9
$TEXTSIZE
 40
0.2
  9
$TRACEWID
 40
0.05
  9
$TEXTSTYLE
  7
STANDARD
  9
$CLAYER
  8
0
  9
$CELTYPE
  6
CONTINUOUS
  9
$CECOLOR
 62
   256
  9
$DIMSCALE
 40
1.0
  9
$DIMASZ
 40
10.0
  9
$DIMEXO
 40
0.0625
  9
$DIMDLI
 40
0.38
  9
$DIMRND
 40
0.0
  9
$DIMDLE
 40
0.0
  9
$DIMEXE
 40
0.18
  9
$DIMTP
 40
0.0
  9
$DIMTM
 40
0.0
  9
$DIMTXT
 40
10.0
  9
$DIMCEN
 40
10.0
  9
$DIMTSZ
 40
0.0
  9
$DIMTOL
 70
     0
  9
$DIMLIM
 70
     0
  9
$DIMTIH
 70
     1
  9
$DIMTOH
 70
     1
  9
$DIMSE1
 70
     0
  9
$DIMSE2
 70
     0
  9
$DIMTAD
 70
     0
  9
$DIMZIN
 70
     0
  9
$DIMBLK
  1

  9
$DIMASO
 70
     1
  9
$DIMSHO
 70
     1
  9
$DIMPOST
  1

  9
$DIMAPOST
  1

  9
$DIMALT
 70
     0
  9
$DIMALTD
 70
     2
  9
$DIMALTF
 40
25.4
  9
$DIMLFAC
 40
1.0
  9
$DIMTOFL
 70
     0
  9
$DIMTVP
 40
0.0
  9
$DIMTIX
 70
     0
  9
$DIMSOXD
 70
     0
  9
$DIMSAH
 70
     0
  9
$DIMBLK1
  1

  9
$DIMBLK2
  1

  9
$DIMSTYLE
  2
STANDARD
  9
$DIMCLRD
 70
     1
  9
$DIMCLRE
 70
     1
  9
$DIMCLRT
 70
     1
  9
$DIMTFAC
 40
1.0
  9
$DIMGAP
 40
10.0
  9
$LUNITS
 70
     2
  9
$LUPREC
 70
     4
  9
$SKETCHINC
 40
0.1
  9
$FILLETRAD
 40
0.0
  9
$AUNITS
 70
     0
  9
$AUPREC
 70
     0
  9
$MENU
  1
acad
  9
$ELEVATION
 40
0.0
  9
$PELEVATION
 40
0.0
  9
$THICKNESS
 40
0.0
  9
$LIMCHECK
 70
     0
  9
$BLIPMODE
 70
     0
  9
$CHAMFERA
 40
0.0
  9
$CHAMFERB
 40
0.0
  9
$SKPOLY
 70
     0
  9
$TDCREATE
 40
2452004.526886
  9
$TDUPDATE
 40
2452038.622962
  9
$TDINDWG
 40
0.014544
  9
$TDUSRTIMER
 40
0.014544
  9
$USRTIMER
 70
     1
  9
$ANGBASE
 50
0.0
  9
$ANGDIR
 70
     0
  9
$PDMODE
 70
     0
  9
$PDSIZE
 40
0.0
  9
$PLINEWID
 40
0.0
  9
$COORDS
 70
     1
  9
$SPLFRAME
 70
     0
  9
$SPLINETYPE
 70
     6
  9
$SPLINESEGS
 70
     8
  9
$ATTDIA
 70
     0
  9
$ATTREQ
 70
     1
  9
$HANDLING
 70
     1
  9
$HANDSEED
  5
670
  9
$SURFTAB1
 70
     6
  9
$SURFTAB2
 70
     6
  9
$SURFTYPE
 70
     6
  9
$SURFU
 70
     6
  9
$SURFV
 70
     6
  9
$UCSNAME
  2

  9
$UCSORG
 10
0.0
 20
0.0
 30
0.0
  9
$UCSXDIR
 10
1.0
 20
0.0
 30
0.0
  9
$UCSYDIR
 10
0.0
 20
1.0
 30
0.0
  9
$PUCSNAME
  2

  9
$PUCSORG
 10
0.0
 20
0.0
 30
0.0
  9
$PUCSXDIR
 10
1.0
 20
0.0
 30
0.0
  9
$PUCSYDIR
 10
0.0
 20
1.0
 30
0.0
  9
$USERI1
 70
     0
  9
$USERI2
 70
     0
  9
$USERI3
 70
     0
  9
$USERI4
 70
     0
  9
$USERI5
 70
     0
  9
$USERR1
 40
0.0
  9
$USERR2
 40
0.0
  9
$USERR3
 40
0.0
  9
$USERR4
 40
0.0
  9
$USERR5
 40
0.0
  9
$WORLDVIEW
 70
     1
  9
$SHADEDGE
 70
     3
  9
$SHADEDIF
 70
    70
  9
$TILEMODE
 70
     1
  9
$MAXACTVP
 70
    48
  9
$PLIMCHECK
 70
     0
  9
$PEXTMIN
 10
1.000000E+020
 20
1.000000E+020
 30
1.000000E+020
  9
$PEXTMAX
 10
-1.000000E+020
 20
-1.000000E+020
 30
-1.000000E+020
  9
$PLIMMIN
 10
0.0
 20
0.0
  9
$PLIMMAX
 10
12.0
 20
9.0
  9
$UNITMODE
 70
     0
  9
$VISRETAIN
 70
     1
  9
$PLINEGEN
 70
     0
  9
$PSLTSCALE
 70
     1
  0
ENDSEC
  0
SECTION
  2
TABLES
  0
TABLE
  2
VPORT
 70
     5
  0
VPORT
  2
*ACTIVE
 70
     0
 10
0.0
 20
0.0
 11
1.0
 21
1.0
 12
1142.631721
 22
879.944943
 13
0.0
 23
0.0
 14
1.0
 24
1.0
 15
0.0
 25
0.0
 16
0.0
 26
0.0
 36
1.0
 17
0.0
 27
0.0
 37
0.0
 40
1432.683618
 41
1.679787
 42
50.0
 43
0.0
 44
0.0
 50
0.0
 51
0.0
 71
     0
 72
   100
 73
     1
 74
     1
 75
     0
 76
     1
 77
     0
 78
     0
  0
ENDTAB
  0
TABLE
  2
LTYPE
 70
     3
  0
LTYPE
  2
CONTINUOUS
 70
     0
  3
Solid line
 72
    65
 73
     0
 40
0.0
  0
LTYPE
  2
CENTER
 70
     0
  3
____ _ ____ _ ____ _ ____ _ ____ _ ____
 72
    65
 73
     4
 40
2.0
 49
1.25
 49
-0.25
 49
0.25
 49
-0.25
  0
LTYPE
  2
DASHED
 70
     0
  3
_ _ _ _ _ _ _ _ _ _ _ _ _ _ _ _ _ _ _ _ _
 72
    65
 73
     2
 40
0.75
 49
0.5
 49
-0.25
  0
ENDTAB
  0
TABLE
  2
LAYER
 70
     6
  0
LAYER
  2
0
 70
     0
 62
     7
  6
CONTINUOUS
  0
LAYER
  2
5
 70
     0
 62
     7
  6
CONTINUOUS
  0
LAYER
  2
6
 70
     0
 62
     5
  6
CENTER
  0
LAYER
  2
7
 70
     0
 62
     3
  6
DASHED
  0
LAYER
  2
BYLAYER
 70
     0
 62
     7
  6
CONTINUOUS
  0
LAYER
  2
DEFPOINTS
 70
     0
 62
     7
  6
CONTINUOUS
  0
ENDTAB
  0
TABLE
  2
STYLE
 70
     1
  0
STYLE
  2
STANDARD
 70
     0
 40
0.0
 41
1.0
 50
0.0
 71
     0
 42
0.2
  3
txt
  4

  0
ENDTAB
  0
TABLE
  2
VIEW
 70
     0
  0
ENDTAB
  0
TABLE
  2
UCS
 70
     0
  0
ENDTAB
  0
TABLE
  2
APPID
 70
     1
  0
APPID
  2
ACAD
 70
     0
  0
ENDTAB
  0
TABLE
  2
DIMSTYLE
 70
     1
  0
DIMSTYLE
  2
STANDARD
 70
     0
  3

  4

  5

  6

  7

 40
1.0
 41
0.18
 42
0.0625
 43
0.38
 44
0.18
 45
0.0
 46
0.0
 47
0.0
 48
0.0
140
0.18
141
0.09
142
0.0
143
25.4
144
1.0
145
0.0
146
1.0
147
0.09
 71
     0
 72
     0
 73
     1
 74
     1
 75
     0
 76
     0
 77
     0
 78
     0
170
     0
171
     2
172
     0
173
     0
174
     0
175
     0
176
     0
177
     0
178
     0
  0
ENDTAB
  0
ENDSEC
  0
SECTION
  2
BLOCKS
  0
BLOCK
  8
0
  2
$MODEL_SPACE
 70
     0
 10
0.0
 20
0.0
 30
0.0
  3
$MODEL_SPACE
  1

  0
ENDBLK
  5
1A
  8
0
  0
BLOCK
 67
     1
  8
0
  2
$PAPER_SPACE
 70
     0
 10
0.0
 20
0.0
 30
0.0
  3
$PAPER_SPACE
  1

  0
ENDBLK
  5
17
 67
     1
  8
0
  0
BLOCK
  8
0
  2
*D0
 70
     1
 10
0.0
 20
0.0
 30
0.0
  3
*D0
  1

  0
LINE
  5
63E
  8
0
  6
BYBLOCK
 62
     1
 10
1522.299
 20
1293.7135
 30
0.0
 11
1522.299
 21
1403.869009
 31
0.0
  0
LINE
  5
63F
  8
0
  6
BYBLOCK
 62
     1
 10
1602.299
 20
1346.4005
 30
0.0
 11
1602.299
 21
1403.869009
 31
0.0
  0
LINE
  5
640
  8
0
  6
BYBLOCK
 62
     1
 10
1512.299
 20
1403.689009
 30
0.0
 11
1502.299
 21
1403.689009
 31
0.0
  0
LINE
  5
641
  8
0
  6
BYBLOCK
 62
     1
 10
1612.299
 20
1403.689009
 30
0.0
 11
1622.299
 21
1403.689009
 31
0.0
  0
SOLID
  5
642
  8
0
  6
BYBLOCK
 62
     1
 10
1512.299
 20
1405.355676
 30
0.0
 11
1512.299
 21
1402.022342
 31
0.0
 12
1522.299
 22
1403.689009
 32
0.0
 13
1522.299
 23
1403.689009
 33
0.0
  0
SOLID
  5
643
  8
0
  6
BYBLOCK
 62
     1
 10
1612.299
 20
1405.355676
 30
0.0
 11
1612.299
 21
1402.022342
 31
0.0
 12
1602.299
 22
1403.689009
 32
0.0
 13
1602.299
 23
1403.689009
 33
0.0
  0
TEXT
  8
0
  40
10
  5
66D
  62
1
  72
0
  71
0
 10
1542.30
 20
1385.99
 30
0.000000
  1
80.0
  0
POINT
  5
646
  8
DEFPOINTS
  6
BYBLOCK
 62
     0
 10
1522.299
 20
1293.651
 30
0.0
  0
POINT
  5
647
  8
DEFPOINTS
  6
BYBLOCK
 62
     0
 10
1602.299
 20
1346.338
 30
0.0
  0
POINT
  5
648
  8
DEFPOINTS
  6
BYBLOCK
 62
     0
 10
1602.299
 20
1403.689009
 30
0.0
  0
ENDBLK
  5
649
  8
0
  0
BLOCK
  8
0
  2
*D1
 70
     1
 10
0.0
 20
0.0
 30
0.0
  3
*D1
  1

  0
LINE
  5
64D
  8
0
  6
BYBLOCK
 62
     1
 10
1602.299
 20
1346.4005
 30
0.0
 11
1602.299
 21
1464.769481
 31
0.0
  0
LINE
  5
64E
  8
0
  6
BYBLOCK
 62
     1
 10
1522.299
 20
1293.7135
 30
0.0
 11
1522.299
 21
1464.769481
 31
0.0
  0
LINE
  5
64F
  8
0
  6
BYBLOCK
 62
     1
 10
1612.299
 20
1464.589481
 30
0.0
 11
1622.299
 21
1464.589481
 31
0.0
  0
LINE
  5
650
  8
0
  6
BYBLOCK
 62
     1
 10
1512.299
 20
1464.589481
 30
0.0
 11
1502.299
 21
1464.589481
 31
0.0
  0
SOLID
  5
651
  8
0
  6
BYBLOCK
 62
     1
 10
1612.299
 20
1466.256148
 30
0.0
 11
1612.299
 21
1462.922814
 31
0.0
 12
1602.299
 22
1464.589481
 32
0.0
 13
1602.299
 23
1464.589481
 33
0.0
  0
SOLID
  5
652
  8
0
  6
BYBLOCK
 62
     1
 10
1512.299
 20
1466.256148
 30
0.0
 11
1512.299
 21
1462.922814
 31
0.0
 12
1522.299
 22
1464.589481
 32
0.0
 13
1522.299
 23
1464.589481
 33
0.0
  0
TEXT
  8
0
  40
10
  5
66E
  62
1
  72
0
  71
0
 10
1542.30
 20
1446.89
 30
0.000000
  1
80.0
  0
POINT
  5
654
  8
DEFPOINTS
  6
BYBLOCK
 62
     0
 10
1602.299
 20
1346.338
 30
0.0
  0
POINT
  5
655
  8
DEFPOINTS
  6
BYBLOCK
 62
     0
 10
1522.299
 20
1293.651
 30
0.0
  0
POINT
  5
656
  8
DEFPOINTS
  6
BYBLOCK
 62
     0
 10
1522.299
 20
1464.589481
 30
0.0
  0
ENDBLK
  5
657
  8
0
  0
BLOCK
  8
0
  2
*D2
 70
     1
 10
0.0
 20
0.0
 30
0.0
  3
*D2
  1

  0
LINE
  5
65B
  8
0
  6
BYBLOCK
 62
     1
 10
681.2989
 20
1126.0885
 30
0.0
 11
681.2989
 21
820.386981
 31
0.0
  0
LINE
  5
65C
  8
0
  6
BYBLOCK
 62
     1
 10
1522.299
 20
1013.5885
 30
0.0
 11
1522.299
 21
820.386981
 31
0.0
  0
LINE
  5
65D
  8
0
  6
BYBLOCK
 62
     1
 10
691.2989
 20
820.566981
 30
0.0
 11
1074.29895
 21
820.566981
 31
0.0
  0
LINE
  5
65E
  8
0
  6
BYBLOCK
 62
     1
 10
1512.299
 20
820.566981
 30
0.0
 11
1129.29895
 21
820.566981
 31
0.0
  0
SOLID
  5
65F
  8
0
  6
BYBLOCK
 62
     1
 10
691.2989
 20
822.233648
 30
0.0
 11
691.2989
 21
818.900315
 31
0.0
 12
681.2989
 22
820.566981
 32
0.0
 13
681.2989
 23
820.566981
 33
0.0
  0
SOLID
  5
660
  8
0
  6
BYBLOCK
 62
     1
 10
1512.299
 20
822.233648
 30
0.0
 11
1512.299
 21
818.900315
 31
0.0
 12
1522.299
 22
820.566981
 32
0.0
 13
1522.299
 23
820.566981
 33
0.0
  0
TEXT
  8
0
  40
10
  5
66F
  62
1
  72
0
  71
0
 10
1081.80
 20
802.867
 30
0.000000
  1
841.0
  0
POINT
  5
662
  8
DEFPOINTS
  6
BYBLOCK
 62
     0
 10
681.2989
 20
1126.151
 30
0.0
  0
POINT
  5
663
  8
DEFPOINTS
  6
BYBLOCK
 62
     0
 10
1522.299
 20
1013.651
 30
0.0
  0
POINT
  5
664
  8
DEFPOINTS
  6
BYBLOCK
 62
     0
 10
1522.299
 20
820.566981
 30
0.0
  0
ENDBLK
  5
665
  8
0
  0
ENDSEC
  0
SECTION
  2
ENTITIES
  0
LINE
  5
25
  8
5
  6
CONTINUOUS
 10
1842.211
 20
938.6512
 30
0.0
 11
1842.211
 21
994.9061
 31
0.0
  0
LINE
  5
26
  8
5
  6
CONTINUOUS
 10
2058.211
 20
994.9061
 30
0.0
 11
2058.211
 21
938.6512
 31
0.0
  0
LINE
  5
27
  8
5
  6
CONTINUOUS
 10
2068.89
 20
1002.723
 30
0.0
 11
2097.222
 21
953.6512
 31
0.0
  0
LINE
  5
28
  8
5
  6
CONTINUOUS
 10
2165.711
 20
953.6512
 30
0.0
 11
2123.782
 21
1020.751
 31
0.0
  0
LINE
  5
29
  8
5
  6
CONTINUOUS
 10
1958.211
 20
1185.151
 30
0.0
 11
1958.211
 21
1179.962
 31
0.0
  0
LINE
  5
2A
  8
5
  6
CONTINUOUS
 10
1942.211
 20
1185.151
 30
0.0
 11
1942.211
 21
1179.962
 31
0.0
  0
LINE
  5
2B
  8
5
  6
CONTINUOUS
 10
2147.011
 20
1020.751
 30
0.0
 11
2088.781
 21
1020.751
 31
0.0
  0
LINE
  5
2C
  8
5
  6
CONTINUOUS
 10
1830.845
 20
1003.266
 30
0.0
 11
1802.2
 21
953.6512
 31
0.0
  0
CIRCLE
  5
2D
  8
5
  6
CONTINUOUS
 10
1950.211
 20
1153.651
 30
0.0
 40
27.5
  0
LINE
  5
2E
  8
5
  6
CONTINUOUS
 10
1942.211
 20
1185.151
 30
0.0
 11
1958.211
 21
1185.151
 31
0.0
  0
LINE
  5
2F
  8
5
  6
CONTINUOUS
 10
1324.245
 20
202.1605
 30
0.0
 11
1332.799
 21
202.1605
 31
0.0
  0
LINE
  5
30
  8
5
  6
CONTINUOUS
 10
1775.64
 20
1020.751
 30
0.0
 11
1733.711
 21
953.6512
 31
0.0
  0
LINE
  5
31
  8
5
  6
CONTINUOUS
 10
2058.211
 20
938.6512
 30
0.0
 11
2040.211
 21
938.6512
 31
0.0
  0
LINE
  5
32
  8
5
  6
CONTINUOUS
 10
1875.211
 20
938.6512
 30
0.0
 11
1860.211
 21
938.6512
 31
0.0
  0
LINE
  5
33
  8
5
  6
CONTINUOUS
 10
1905.211
 20
938.6512
 30
0.0
 11
1890.211
 21
938.6512
 31
0.0
  0
LINE
  5
34
  8
5
  6
CONTINUOUS
 10
1935.211
 20
938.6512
 30
0.0
 11
1920.211
 21
938.6512
 31
0.0
  0
LINE
  5
35
  8
5
  6
CONTINUOUS
 10
1811.641
 20
1020.751
 30
0.0
 11
1754.211
 21
1020.751
 31
0.0
  0
LINE
  5
36
  8
5
  6
CONTINUOUS
 10
2025.211
 20
938.6512
 30
0.0
 11
2010.211
 21
938.6512
 31
0.0
  0
LINE
  5
37
  8
5
  6
CONTINUOUS
 10
1995.211
 20
938.6512
 30
0.0
 11
1980.211
 21
938.6512
 31
0.0
  0
LINE
  5
38
  8
5
  6
CONTINUOUS
 10
1965.211
 20
938.6512
 30
0.0
 11
1950.211
 21
938.6512
 31
0.0
  0
LINE
  5
39
  8
5
  6
CONTINUOUS
 10
2040.211
 20
938.6512
 30
0.0
 11
2025.211
 21
938.6512
 31
0.0
  0
LINE
  5
3A
  8
5
  6
CONTINUOUS
 10
1860.211
 20
938.6512
 30
0.0
 11
1842.211
 21
938.6512
 31
0.0
  0
LINE
  5
3B
  8
5
  6
CONTINUOUS
 10
2165.211
 20
1053.551
 30
0.0
 11
2165.211
 21
1039.751
 31
0.0
  0
LINE
  5
3C
  8
5
  6
CONTINUOUS
 10
1890.211
 20
938.6512
 30
0.0
 11
1875.211
 21
938.6512
 31
0.0
  0
LINE
  5
3D
  8
5
  6
CONTINUOUS
 10
1920.211
 20
938.6512
 30
0.0
 11
1905.211
 21
938.6512
 31
0.0
  0
LINE
  5
3E
  8
5
  6
CONTINUOUS
 10
1950.211
 20
938.6512
 30
0.0
 11
1935.211
 21
938.6512
 31
0.0
  0
LINE
  5
3F
  8
5
  6
CONTINUOUS
 10
2010.211
 20
938.6512
 30
0.0
 11
1995.211
 21
938.6512
 31
0.0
  0
LINE
  5
40
  8
5
  6
CONTINUOUS
 10
2083.111
 20
1318.963
 30
0.0
 11
2130.025
 21
1354.315
 31
0.0
  0
LINE
  5
41
  8
5
  6
CONTINUOUS
 10
2130.025
 20
1354.315
 30
0.0
 11
2142.898
 21
1364.015
 31
0.0
  0
LINE
  5
42
  8
5
  6
CONTINUOUS
 10
2160.575
 20
1346.338
 30
0.0
 11
2152.103
 21
1332.238
 31
0.0
  0
LINE
  5
43
  8
5
  6
CONTINUOUS
 10
2152.103
 20
1332.238
 30
0.0
 11
2124.652
 21
1286.551
 31
0.0
  0
LINE
  5
44
  8
5
  6
CONTINUOUS
 10
2083.111
 20
1368.651
 30
0.0
 11
2083.111
 21
1344.651
 31
0.0
  0
LINE
  5
45
  8
5
  6
CONTINUOUS
 10
2083.111
 20
1344.651
 30
0.0
 11
2083.111
 21
1292.221
 31
0.0
  0
LINE
  5
46
  8
5
  6
CONTINUOUS
 10
1980.211
 20
938.6512
 30
0.0
 11
1965.211
 21
938.6512
 31
0.0
  0
LINE
  5
47
  8
5
  6
CONTINUOUS
 10
2142.898
 20
1364.015
 30
0.0
 11
2160.575
 21
1346.338
 31
0.0
  0
LINE
  5
48
  8
5
  6
CONTINUOUS
 10
1754.211
 20
1286.551
 30
0.0
 11
1811.641
 21
1286.551
 31
0.0
  0
LINE
  5
49
  8
5
  6
CONTINUOUS
 10
1817.311
 20
1344.651
 30
0.0
 11
1817.311
 21
1318.963
 31
0.0
  0
LINE
  5
4A
  8
5
  6
CONTINUOUS
 10
1817.311
 20
1344.651
 30
0.0
 11
1817.311
 21
1368.651
 31
0.0
  0
LINE
  5
4B
  8
5
  6
CONTINUOUS
 10
1966.711
 20
1013.917
 30
0.0
 11
1966.711
 21
1007.58
 31
0.0
  0
LINE
  5
4C
  8
5
  6
CONTINUOUS
 10
2165.211
 20
1089.151
 30
0.0
 11
2165.211
 21
1074.151
 31
0.0
  0
LINE
  5
4D
  8
5
  6
CONTINUOUS
 10
1966.711
 20
1007.58
 30
0.0
 11
1966.711
 21
997.5206
 31
0.0
  0
LINE
  5
4E
  8
5
  6
CONTINUOUS
 10
2165.211
 20
1250.151
 30
0.0
 11
2165.211
 21
1233.151
 31
0.0
  0
LINE
  5
4F
  8
5
  6
CONTINUOUS
 10
1966.711
 20
997.5206
 30
0.0
 11
1966.711
 21
990.499
 31
0.0
  0
LINE
  5
50
  8
5
  6
CONTINUOUS
 10
1966.711
 20
990.499
 30
0.0
 11
1966.711
 21
986.7585
 31
0.0
  0
LINE
  5
51
  8
5
  6
CONTINUOUS
 10
1966.711
 20
1037.351
 30
0.0
 11
1966.711
 21
1013.917
 31
0.0
  0
LINE
  5
52
  8
5
  6
CONTINUOUS
 10
2165.211
 20
1074.151
 30
0.0
 11
2165.211
 21
1057.151
 31
0.0
  0
LINE
  5
53
  8
5
  6
CONTINUOUS
 10
1933.711
 20
1007.58
 30
0.0
 11
1933.711
 21
1013.917
 31
0.0
  0
LINE
  5
54
  8
5
  6
CONTINUOUS
 10
1933.711
 20
1013.917
 30
0.0
 11
1933.711
 21
1037.351
 31
0.0
  0
LINE
  5
55
  8
5
  6
CONTINUOUS
 10
2165.211
 20
1268.351
 30
0.0
 11
2165.211
 21
1250.151
 31
0.0
  0
LINE
  5
56
  8
5
  6
CONTINUOUS
 10
2165.211
 20
1233.151
 30
0.0
 11
2165.211
 21
1218.151
 31
0.0
  0
LINE
  5
57
  8
5
  6
CONTINUOUS
 10
1933.711
 20
986.7585
 30
0.0
 11
1933.711
 21
990.499
 31
0.0
  0
LINE
  5
58
  8
5
  6
CONTINUOUS
 10
1933.711
 20
990.499
 30
0.0
 11
1933.711
 21
997.5206
 31
0.0
  0
LINE
  5
59
  8
5
  6
CONTINUOUS
 10
1933.711
 20
997.5206
 30
0.0
 11
1933.711
 21
1007.58
 31
0.0
  0
LINE
  5
5A
  8
5
  6
CONTINUOUS
 10
1933.711
 20
1037.351
 30
0.0
 11
1966.711
 21
1037.351
 31
0.0
  0
LINE
  5
5B
  8
5
  6
CONTINUOUS
 10
1966.711
 20
1037.351
 30
0.0
 11
2029.408
 21
1037.351
 31
0.0
  0
LINE
  5
5C
  8
5
  6
CONTINUOUS
 10
1735.211
 20
1233.151
 30
0.0
 11
1735.211
 21
1250.151
 31
0.0
  0
LINE
  5
5D
  8
5
  6
CONTINUOUS
 10
1871.014
 20
1037.351
 30
0.0
 11
1933.711
 21
1037.351
 31
0.0
  0
LINE
  5
5E
  8
5
  6
CONTINUOUS
 10
1735.211
 20
1074.151
 30
0.0
 11
1735.211
 21
1089.151
 31
0.0
  0
LINE
  5
5F
  8
5
  6
CONTINUOUS
 10
1735.211
 20
1038.951
 30
0.0
 11
1735.211
 21
1057.151
 31
0.0
  0
ARC
  5
60
  8
5
  6
CONTINUOUS
 10
1950.211
 20
1153.651
 30
0.0
 40
157.0
 50
90.0
 51
263.9673
  0
ARC
  5
61
  8
5
  6
CONTINUOUS
 10
1950.211
 20
1153.651
 30
0.0
 40
157.0
 50
276.0327
 51
90.0
  0
LINE
  5
62
  8
5
  6
CONTINUOUS
 10
1976.211
 20
1057.651
 30
0.0
 11
1924.211
 21
1057.651
 31
0.0
  0
LINE
  5
63
  8
5
  6
CONTINUOUS
 10
1735.211
 20
1218.151
 30
0.0
 11
1735.211
 21
1233.151
 31
0.0
  0
LINE
  5
64
  8
5
  6
CONTINUOUS
 10
1735.211
 20
1250.151
 30
0.0
 11
1735.211
 21
1268.351
 31
0.0
  0
LINE
  5
65
  8
5
  6
CONTINUOUS
 10
1847.343
 20
1057.651
 30
0.0
 11
1924.211
 21
1057.651
 31
0.0
  0
LINE
  5
66
  8
5
  6
CONTINUOUS
 10
1735.211
 20
1057.151
 30
0.0
 11
1735.211
 21
1074.151
 31
0.0
  0
LINE
  5
67
  8
5
  6
CONTINUOUS
 10
2155.915
 20
1277.255
 30
0.0
 11
2146.211
 21
1286.551
 31
0.0
  0
LINE
  5
68
  8
5
  6
CONTINUOUS
 10
2165.211
 20
1268.351
 30
0.0
 11
2155.915
 21
1277.255
 31
0.0
  0
LINE
  5
69
  8
5
  6
CONTINUOUS
 10
2164.445
 20
1038.951
 30
0.0
 11
2165.211
 21
1039.751
 31
0.0
  0
LINE
  5
6A
  8
5
  6
CONTINUOUS
 10
2155.915
 20
1030.047
 30
0.0
 11
2164.445
 21
1038.951
 31
0.0
  0
LINE
  5
6B
  8
5
  6
CONTINUOUS
 10
2147.011
 20
1020.751
 30
0.0
 11
2155.915
 21
1030.047
 31
0.0
  0
LINE
  5
6C
  8
5
  6
CONTINUOUS
 10
1744.507
 20
1277.255
 30
0.0
 11
1735.211
 21
1268.351
 31
0.0
  0
LINE
  5
6D
  8
5
  6
CONTINUOUS
 10
1754.211
 20
1286.551
 30
0.0
 11
1744.507
 21
1277.255
 31
0.0
  0
LINE
  5
6E
  8
5
  6
CONTINUOUS
 10
1744.507
 20
1030.047
 30
0.0
 11
1754.211
 21
1020.751
 31
0.0
  0
LINE
  5
6F
  8
5
  6
CONTINUOUS
 10
1735.211
 20
1038.951
 30
0.0
 11
1744.507
 21
1030.047
 31
0.0
  0
LINE
  5
70
  8
5
  6
CONTINUOUS
 10
2070.211
 20
1368.651
 30
0.0
 11
2083.111
 21
1368.651
 31
0.0
  0
LINE
  5
71
  8
5
  6
CONTINUOUS
 10
1817.311
 20
1368.651
 30
0.0
 11
1830.211
 21
1368.651
 31
0.0
  0
LINE
  5
72
  8
5
  6
CONTINUOUS
 10
1976.211
 20
1057.651
 30
0.0
 11
2053.079
 21
1057.651
 31
0.0
  0
LINE
  5
73
  8
5
  6
CONTINUOUS
 10
1739.847
 20
1346.338
 30
0.0
 11
1757.525
 21
1364.015
 31
0.0
  0
LINE
  5
74
  8
5
  6
CONTINUOUS
 10
1748.319
 20
1332.238
 30
0.0
 11
1775.77
 21
1286.551
 31
0.0
  0
LINE
  5
75
  8
5
  6
CONTINUOUS
 10
1748.319
 20
1332.238
 30
0.0
 11
1739.847
 21
1346.338
 31
0.0
  0
LINE
  5
76
  8
5
  6
CONTINUOUS
 10
1757.525
 20
1364.015
 30
0.0
 11
1770.397
 21
1354.315
 31
0.0
  0
LINE
  5
77
  8
5
  6
CONTINUOUS
 10
1976.211
 20
1099.896
 30
0.0
 11
1976.211
 21
1057.651
 31
0.0
  0
LINE
  5
78
  8
5
  6
CONTINUOUS
 10
2143.994
 20
1286.551
 30
0.0
 11
2131.912
 21
1298.634
 31
0.0
  0
LINE
  5
79
  8
5
  6
CONTINUOUS
 10
2099.348
 20
1331.198
 30
0.0
 11
2083.111
 21
1347.435
 31
0.0
  0
LINE
  5
7A
  8
5
  6
CONTINUOUS
 10
1817.311
 20
1347.435
 30
0.0
 11
1801.075
 21
1331.198
 31
0.0
  0
LINE
  5
7B
  8
5
  6
CONTINUOUS
 10
1768.51
 20
1298.634
 30
0.0
 11
1756.428
 21
1286.551
 31
0.0
  0
LINE
  5
7C
  8
5
  6
CONTINUOUS
 10
1756.428
 20
1020.751
 30
0.0
 11
1768.252
 21
1008.927
 31
0.0
  0
LINE
  5
7D
  8
5
  6
CONTINUOUS
 10
1924.211
 20
1099.896
 30
0.0
 11
1924.211
 21
1057.651
 31
0.0
  0
LINE
  5
7E
  8
5
  6
CONTINUOUS
 10
1991.511
 20
1056.551
 30
0.0
 11
1991.511
 21
1053.551
 31
0.0
  0
LINE
  5
7F
  8
5
  6
CONTINUOUS
 10
2176.211
 20
1053.551
 30
0.0
 11
2176.211
 21
1056.551
 31
0.0
  0
ARC
  5
80
  8
5
  6
CONTINUOUS
 10
1950.211
 20
1153.651
 30
0.0
 40
29.99998
 50
105.466
 51
0.0
  0
LINE
  5
81
  8
5
  6
CONTINUOUS
 10
2131.555
 20
1008.312
 30
0.0
 11
2143.994
 21
1020.751
 31
0.0
  0
ARC
  5
82
  8
5
  6
CONTINUOUS
 10
1950.211
 20
1153.651
 30
0.0
 40
29.99999
 50
0.0
 51
74.534
  0
LINE
  5
83
  8
5
  6
CONTINUOUS
 10
1332.799
 20
586.1605
 30
0.0
 11
1324.245
 21
586.1605
 31
0.0
  0
LINE
  5
84
  8
5
  6
CONTINUOUS
 10
2095.711
 20
1405.651
 30
0.0
 11
1804.711
 21
1405.651
 31
0.0
  0
LINE
  5
85
  8
5
  6
CONTINUOUS
 10
1805.211
 20
1405.651
 30
0.0
 11
1805.211
 21
1396.651
 31
0.0
  0
LINE
  5
86
  8
5
  6
CONTINUOUS
 10
2088.781
 20
1286.551
 30
0.0
 11
2146.211
 21
1286.551
 31
0.0
  0
LINE
  5
87
  8
5
  6
CONTINUOUS
 10
2095.211
 20
1396.651
 30
0.0
 11
2095.211
 21
1405.651
 31
0.0
  0
LINE
  5
88
  8
5
  6
CONTINUOUS
 10
2146.711
 20
1541.651
 30
0.0
 11
2090.888
 21
1541.651
 31
0.0
  0
LINE
  5
89
  8
5
  6
CONTINUOUS
 10
2094.896
 20
1428.651
 30
0.0
 11
2146.711
 21
1428.651
 31
0.0
  0
LINE
  5
8A
  8
5
  6
CONTINUOUS
 10
2146.711
 20
1428.651
 30
0.0
 11
2146.711
 21
1541.651
 31
0.0
  0
LINE
  5
8B
  8
5
  6
CONTINUOUS
 10
1862.211
 20
1588.651
 30
0.0
 11
2038.211
 21
1588.651
 31
0.0
  0
LINE
  5
8C
  8
5
  6
CONTINUOUS
 10
1949.092
 20
1588.651
 30
0.0
 11
1949.092
 21
1591.651
 31
0.0
  0
LINE
  5
8D
  8
5
  6
CONTINUOUS
 10
1931.308
 20
1591.651
 30
0.0
 11
1931.308
 21
1588.651
 31
0.0
  0
LINE
  5
8E
  8
5
  6
CONTINUOUS
 10
1950.592
 20
1588.651
 30
0.0
 11
1950.592
 21
1591.651
 31
0.0
  0
LINE
  5
8F
  8
5
  6
CONTINUOUS
 10
1969.211
 20
1588.651
 30
0.0
 11
1969.211
 21
1591.651
 31
0.0
  0
LINE
  5
90
  8
5
  6
CONTINUOUS
 10
1950.592
 20
1591.651
 30
0.0
 11
1950.592
 21
1591.651
 31
0.0
  0
LINE
  5
91
  8
5
  6
CONTINUOUS
 10
1931.308
 20
1591.651
 30
0.0
 11
1949.092
 21
1591.651
 31
0.0
  0
LINE
  5
92
  8
5
  6
CONTINUOUS
 10
1950.592
 20
1591.651
 30
0.0
 11
1969.211
 21
1591.651
 31
0.0
  0
LINE
  5
93
  8
5
  6
CONTINUOUS
 10
1931.308
 20
1591.651
 30
0.0
 11
1931.308
 21
1591.651
 31
0.0
  0
LINE
  5
94
  8
5
  6
CONTINUOUS
 10
1950.592
 20
1591.651
 30
0.0
 11
1950.592
 21
1591.651
 31
0.0
  0
LINE
  5
95
  8
5
  6
CONTINUOUS
 10
1810.25
 20
1558.651
 30
0.0
 11
1862.211
 21
1588.651
 31
0.0
  0
LINE
  5
96
  8
5
  6
CONTINUOUS
 10
2038.211
 20
1588.651
 30
0.0
 11
2090.173
 21
1558.651
 31
0.0
  0
LINE
  5
97
  8
5
  6
CONTINUOUS
 10
2035.711
 20
1558.651
 30
0.0
 11
2035.711
 21
1558.34
 31
0.0
  0
LINE
  5
98
  8
5
  6
CONTINUOUS
 10
2090.711
 20
1558.651
 30
0.0
 11
2035.711
 21
1558.651
 31
0.0
  0
LINE
  5
99
  8
5
  6
CONTINUOUS
 10
1864.711
 20
1558.34
 30
0.0
 11
1864.711
 21
1558.651
 31
0.0
  0
LINE
  5
9A
  8
5
  6
CONTINUOUS
 10
1864.711
 20
1558.651
 30
0.0
 11
1809.711
 21
1558.651
 31
0.0
  0
LINE
  5
9B
  8
5
  6
CONTINUOUS
 10
2082.211
 20
953.6512
 30
0.0
 11
2082.211
 21
928.6512
 31
0.0
  0
LINE
  5
9C
  8
5
  6
CONTINUOUS
 10
2166.211
 20
928.6512
 30
0.0
 11
2166.211
 21
953.6512
 31
0.0
  0
LINE
  5
9D
  8
5
  6
CONTINUOUS
 10
2166.211
 20
953.6512
 30
0.0
 11
2082.211
 21
953.6512
 31
0.0
  0
LINE
  5
9E
  8
5
  6
CONTINUOUS
 10
2070.211
 20
1368.651
 30
0.0
 11
2072.552
 21
1301.627
 31
0.0
  0
LINE
  5
9F
  8
5
  6
CONTINUOUS
 10
2090.711
 20
1546.651
 30
0.0
 11
2095.711
 21
1405.651
 31
0.0
  0
LINE
  5
A0
  8
5
  6
CONTINUOUS
 10
2166.211
 20
928.6512
 30
0.0
 11
2082.211
 21
928.6512
 31
0.0
  0
LINE
  5
A1
  8
5
  6
CONTINUOUS
 10
1817.211
 20
953.6512
 30
0.0
 11
1817.211
 21
928.6512
 31
0.0
  0
LINE
  5
A2
  8
5
  6
CONTINUOUS
 10
1733.211
 20
928.6512
 30
0.0
 11
1733.211
 21
953.6512
 31
0.0
  0
LINE
  5
A3
  8
5
  6
CONTINUOUS
 10
1804.711
 20
1405.651
 30
0.0
 11
1809.711
 21
1546.651
 31
0.0
  0
LINE
  5
A4
  8
5
  6
CONTINUOUS
 10
2090.711
 20
1558.651
 30
0.0
 11
2090.711
 21
1546.651
 31
0.0
  0
LINE
  5
A5
  8
5
  6
CONTINUOUS
 10
1733.211
 20
953.6512
 30
0.0
 11
1817.211
 21
953.6512
 31
0.0
  0
LINE
  5
A6
  8
5
  6
CONTINUOUS
 10
1733.211
 20
928.6512
 30
0.0
 11
1817.211
 21
928.6512
 31
0.0
  0
LINE
  5
A7
  8
5
  6
CONTINUOUS
 10
2058.211
 20
978.1512
 30
0.0
 11
2058.306
 21
978.0566
 31
0.0
  0
LINE
  5
A8
  8
5
  6
CONTINUOUS
 10
1809.711
 20
1558.651
 30
0.0
 11
1809.711
 21
1546.651
 31
0.0
  0
LINE
  5
A9
  8
5
  6
CONTINUOUS
 10
1842.211
 20
979.1512
 30
0.0
 11
1841.117
 21
978.0566
 31
0.0
  0
LINE
  5
AA
  8
5
  6
CONTINUOUS
 10
2058.211
 20
978.2204
 30
0.0
 11
2082.211
 21
936.6512
 31
0.0
  0
LINE
  5
AB
  8
5
  6
CONTINUOUS
 10
2095.211
 20
1396.651
 30
0.0
 11
2067.211
 21
1368.651
 31
0.0
  0
LINE
  5
AC
  8
5
  6
CONTINUOUS
 10
1805.211
 20
1396.651
 30
0.0
 11
1833.211
 21
1368.651
 31
0.0
  0
LINE
  5
AD
  8
5
  6
CONTINUOUS
 10
1830.211
 20
1368.651
 30
0.0
 11
1833.211
 21
1368.651
 31
0.0
  0
LINE
  5
AE
  8
5
  6
CONTINUOUS
 10
1842.211
 20
979.9525
 30
0.0
 11
1817.211
 21
936.6512
 31
0.0
  0
LINE
  5
AF
  8
5
  6
CONTINUOUS
 10
1841.22
 20
1368.651
 30
0.0
 11
1844.22
 21
1368.651
 31
0.0
  0
LINE
  5
B0
  8
5
  6
CONTINUOUS
 10
1844.22
 20
1368.651
 30
0.0
 11
2056.203
 21
1368.651
 31
0.0
  0
LINE
  5
B1
  8
5
  6
CONTINUOUS
 10
2056.203
 20
1368.651
 30
0.0
 11
2059.203
 21
1368.651
 31
0.0
  0
LINE
  5
B2
  8
5
  6
CONTINUOUS
 10
2067.211
 20
1368.651
 30
0.0
 11
2070.211
 21
1368.651
 31
0.0
  0
LINE
  5
B3
  8
5
  6
CONTINUOUS
 10
2067.211
 20
1368.651
 30
0.0
 11
2059.203
 21
1368.651
 31
0.0
  0
LINE
  5
B4
  8
5
  6
CONTINUOUS
 10
1841.22
 20
1368.651
 30
0.0
 11
1833.211
 21
1368.651
 31
0.0
  0
LINE
  5
B5
  8
5
  6
CONTINUOUS
 10
1805.211
 20
1396.651
 30
0.0
 11
2095.211
 21
1396.651
 31
0.0
  0
LINE
  5
B6
  8
5
  6
CONTINUOUS
 10
2038.211
 20
1558.651
 30
0.0
 11
2038.211
 21
1588.651
 31
0.0
  0
LINE
  5
B7
  8
5
  6
CONTINUOUS
 10
1862.211
 20
1588.651
 30
0.0
 11
1862.211
 21
1558.651
 31
0.0
  0
LINE
  5
B8
  8
5
  6
CONTINUOUS
 10
2035.711
 20
1558.34
 30
0.0
 11
1864.711
 21
1558.34
 31
0.0
  0
LINE
  5
B9
  8
5
  6
CONTINUOUS
 10
2090.711
 20
1546.651
 30
0.0
 11
1809.711
 21
1546.651
 31
0.0
  0
LINE
  5
BA
  8
5
  6
CONTINUOUS
 10
480.5752
 20
1405.651
 30
0.0
 11
189.5752
 21
1405.651
 31
0.0
  0
LINE
  5
BB
  8
5
  6
CONTINUOUS
 10
480.0752
 20
1405.651
 30
0.0
 11
480.0752
 21
1396.651
 31
0.0
  0
LINE
  5
BC
  8
5
  6
CONTINUOUS
 10
190.0752
 20
1405.651
 30
0.0
 11
190.0752
 21
1396.651
 31
0.0
  0
LINE
  5
BD
  8
5
  6
CONTINUOUS
 10
138.5752
 20
1541.651
 30
0.0
 11
194.3979
 21
1541.651
 31
0.0
  0
LINE
  5
BE
  8
5
  6
CONTINUOUS
 10
190.3908
 20
1428.651
 30
0.0
 11
138.5752
 21
1428.651
 31
0.0
  0
LINE
  5
BF
  8
5
  6
CONTINUOUS
 10
138.5752
 20
1428.651
 30
0.0
 11
138.5752
 21
1541.651
 31
0.0
  0
ARC
  5
C0
  8
5
  6
CONTINUOUS
 10
1950.211
 20
1153.651
 30
0.0
 40
192.0
 50
329.6202
 51
0.0
  0
ARC
  5
C1
  8
5
  6
CONTINUOUS
 10
1950.211
 20
1153.651
 30
0.0
 40
192.0
 50
90.0
 51
328.5769
  0
ARC
  5
C2
  8
5
  6
CONTINUOUS
 10
1950.211
 20
1153.651
 30
0.0
 40
192.0
 50
0.0
 51
90.0
  0
LINE
  5
C3
  8
5
  6
CONTINUOUS
 10
247.0752
 20
1588.651
 30
0.0
 11
423.0831
 21
1588.651
 31
0.0
  0
LINE
  5
C4
  8
5
  6
CONTINUOUS
 10
336.1984
 20
1588.651
 30
0.0
 11
336.1984
 21
1591.651
 31
0.0
  0
LINE
  5
C5
  8
5
  6
CONTINUOUS
 10
353.9819
 20
1588.651
 30
0.0
 11
353.9819
 21
1591.651
 31
0.0
  0
LINE
  5
C6
  8
5
  6
CONTINUOUS
 10
316.0793
 20
1588.651
 30
0.0
 11
316.0793
 21
1591.651
 31
0.0
  0
LINE
  5
C7
  8
5
  6
CONTINUOUS
 10
334.6984
 20
1588.651
 30
0.0
 11
334.6984
 21
1591.651
 31
0.0
  0
LINE
  5
C8
  8
5
  6
CONTINUOUS
 10
316.0793
 20
1591.651
 30
0.0
 11
316.0793
 21
1591.651
 31
0.0
  0
LINE
  5
C9
  8
5
  6
CONTINUOUS
 10
336.1984
 20
1591.651
 30
0.0
 11
336.1984
 21
1591.651
 31
0.0
  0
LINE
  5
CA
  8
5
  6
CONTINUOUS
 10
316.0793
 20
1591.651
 30
0.0
 11
316.0793
 21
1591.651
 31
0.0
  0
LINE
  5
CB
  8
5
  6
CONTINUOUS
 10
336.1984
 20
1591.651
 30
0.0
 11
336.1984
 21
1591.651
 31
0.0
  0
LINE
  5
CC
  8
5
  6
CONTINUOUS
 10
336.1984
 20
1591.651
 30
0.0
 11
338.0231
 21
1591.651
 31
0.0
  0
LINE
  5
CD
  8
5
  6
CONTINUOUS
 10
338.0231
 20
1591.651
 30
0.0
 11
346.5255
 21
1591.651
 31
0.0
  0
LINE
  5
CE
  8
5
  6
CONTINUOUS
 10
346.5255
 20
1591.651
 30
0.0
 11
353.9819
 21
1591.651
 31
0.0
  0
LINE
  5
CF
  8
5
  6
CONTINUOUS
 10
316.0793
 20
1591.651
 30
0.0
 11
326.6716
 21
1591.651
 31
0.0
  0
LINE
  5
D0
  8
5
  6
CONTINUOUS
 10
326.6716
 20
1591.651
 30
0.0
 11
334.6984
 21
1591.651
 31
0.0
  0
LINE
  5
D1
  8
5
  6
CONTINUOUS
 10
2165.211
 20
1119.151
 30
0.0
 11
2165.211
 21
1104.151
 31
0.0
  0
LINE
  5
D2
  8
5
  6
CONTINUOUS
 10
2165.211
 20
1218.151
 30
0.0
 11
2165.211
 21
1203.151
 31
0.0
  0
LINE
  5
D3
  8
5
  6
CONTINUOUS
 10
2165.211
 20
1188.151
 30
0.0
 11
2165.211
 21
1170.901
 31
0.0
  0
LINE
  5
D4
  8
5
  6
CONTINUOUS
 10
2165.211
 20
1153.651
 30
0.0
 11
2165.211
 21
1136.401
 31
0.0
  0
LINE
  5
D5
  8
5
  6
CONTINUOUS
 10
2165.211
 20
1104.151
 30
0.0
 11
2165.211
 21
1089.151
 31
0.0
  0
LINE
  5
D6
  8
5
  6
CONTINUOUS
 10
2165.211
 20
1136.401
 30
0.0
 11
2165.211
 21
1119.151
 31
0.0
  0
LINE
  5
D7
  8
5
  6
CONTINUOUS
 10
2165.211
 20
1203.151
 30
0.0
 11
2165.211
 21
1188.151
 31
0.0
  0
LINE
  5
D8
  8
5
  6
CONTINUOUS
 10
423.0831
 20
1588.651
 30
0.0
 11
475.0366
 21
1558.651
 31
0.0
  0
LINE
  5
D9
  8
5
  6
CONTINUOUS
 10
2165.211
 20
1057.151
 30
0.0
 11
2165.211
 21
1056.551
 31
0.0
  0
LINE
  5
DA
  8
5
  6
CONTINUOUS
 10
195.1138
 20
1558.651
 30
0.0
 11
247.0752
 21
1588.651
 31
0.0
  0
LINE
  5
DB
  8
5
  6
CONTINUOUS
 10
249.5752
 20
1558.34
 30
0.0
 11
249.5752
 21
1558.651
 31
0.0
  0
LINE
  5
DC
  8
5
  6
CONTINUOUS
 10
2165.211
 20
1170.901
 30
0.0
 11
2165.211
 21
1153.651
 31
0.0
  0
LINE
  5
DD
  8
5
  6
CONTINUOUS
 10
1735.211
 20
1136.401
 30
0.0
 11
1735.211
 21
1153.651
 31
0.0
  0
LINE
  5
DE
  8
5
  6
CONTINUOUS
 10
1735.211
 20
1170.901
 30
0.0
 11
1735.211
 21
1188.151
 31
0.0
  0
LINE
  5
DF
  8
5
  6
CONTINUOUS
 10
1735.211
 20
1203.151
 30
0.0
 11
1735.211
 21
1218.151
 31
0.0
  0
LINE
  5
E0
  8
5
  6
CONTINUOUS
 10
1735.211
 20
1104.151
 30
0.0
 11
1735.211
 21
1119.151
 31
0.0
  0
LINE
  5
E1
  8
5
  6
CONTINUOUS
 10
1735.211
 20
1119.151
 30
0.0
 11
1735.211
 21
1136.401
 31
0.0
  0
LINE
  5
E2
  8
5
  6
CONTINUOUS
 10
1735.211
 20
1153.651
 30
0.0
 11
1735.211
 21
1170.901
 31
0.0
  0
LINE
  5
E3
  8
5
  6
CONTINUOUS
 10
1735.211
 20
1188.151
 30
0.0
 11
1735.211
 21
1203.151
 31
0.0
  0
LINE
  5
E4
  8
5
  6
CONTINUOUS
 10
1735.211
 20
1089.151
 30
0.0
 11
1735.211
 21
1104.151
 31
0.0
  0
LINE
  5
E5
  8
5
  6
CONTINUOUS
 10
1825.746
 20
951.4334
 30
0.0
 11
1836.028
 21
941.1512
 31
0.0
  0
LINE
  5
E6
  8
5
  6
CONTINUOUS
 10
249.5752
 20
1558.651
 30
0.0
 11
194.5752
 21
1558.651
 31
0.0
  0
LINE
  5
E7
  8
5
  6
CONTINUOUS
 10
420.5752
 20
1558.651
 30
0.0
 11
420.5752
 21
1558.34
 31
0.0
  0
LINE
  5
E8
  8
5
  6
CONTINUOUS
 10
475.5752
 20
1558.651
 30
0.0
 11
420.5752
 21
1558.651
 31
0.0
  0
LINE
  5
E9
  8
5
  6
CONTINUOUS
 10
189.5752
 20
1405.651
 30
0.0
 11
194.5752
 21
1546.651
 31
0.0
  0
LINE
  5
EA
  8
5
  6
CONTINUOUS
 10
1827.871
 20
1301.627
 30
0.0
 11
1830.211
 21
1368.651
 31
0.0
  0
LINE
  5
EB
  8
5
  6
CONTINUOUS
 10
475.5753
 20
1546.651
 30
0.0
 11
480.5752
 21
1405.651
 31
0.0
  0
LINE
  5
EC
  8
5
  6
CONTINUOUS
 10
194.5752
 20
1546.651
 30
0.0
 11
194.5752
 21
1558.651
 31
0.0
  0
LINE
  5
ED
  8
5
  6
CONTINUOUS
 10
1836.028
 20
941.1512
 30
0.0
 11
1842.211
 21
941.1512
 31
0.0
  0
LINE
  5
EE
  8
5
  6
CONTINUOUS
 10
2058.211
 20
941.1512
 30
0.0
 11
2064.394
 21
941.1512
 31
0.0
  0
LINE
  5
EF
  8
5
  6
CONTINUOUS
 10
2064.394
 20
941.1512
 30
0.0
 11
2074.043
 21
950.7994
 31
0.0
  0
LINE
  5
F0
  8
5
  6
CONTINUOUS
 10
2152.103
 20
1332.238
 30
0.0
 11
2130.025
 21
1354.315
 31
0.0
  0
LINE
  5
F2
  8
5
  6
CONTINUOUS
 10
1753.411
 20
1038.951
 30
0.0
 11
1796.237
 21
1038.951
 31
0.0
  0
LINE
  5
F3
  8
5
  6
CONTINUOUS
 10
475.5752
 20
1558.651
 30
0.0
 11
475.5753
 21
1546.651
 31
0.0
  0
LINE
  5
F7
  8
5
  6
CONTINUOUS
 10
218.0752
 20
1368.651
 30
0.0
 11
190.0752
 21
1396.651
 31
0.0
  0
LINE
  5
FA
  8
5
  6
CONTINUOUS
 10
1753.411
 20
1268.351
 30
0.0
 11
1796.237
 21
1268.351
 31
0.0
  0
LINE
  5
FD
  8
5
  6
CONTINUOUS
 10
2083.111
 20
1344.651
 30
0.0
 11
2071.049
 21
1344.651
 31
0.0
  0
LINE
  5
FE
  8
5
  6
CONTINUOUS
 10
1829.373
 20
1344.651
 30
0.0
 11
1817.311
 21
1344.651
 31
0.0
  0
LINE
  5
FF
  8
5
  6
CONTINUOUS
 10
2147.011
 20
1038.951
 30
0.0
 11
2164.445
 21
1038.951
 31
0.0
  0
LINE
  5
100
  8
5
  6
CONTINUOUS
 10
480.0752
 20
1396.651
 30
0.0
 11
452.0752
 21
1368.651
 31
0.0
  0
LINE
  5
101
  8
5
  6
CONTINUOUS
 10
2147.011
 20
1268.351
 30
0.0
 11
2165.211
 21
1268.351
 31
0.0
  0
LINE
  5
102
  8
5
  6
CONTINUOUS
 10
2128.811
 20
1250.151
 30
0.0
 11
2165.211
 21
1250.151
 31
0.0
  0
LINE
  5
103
  8
5
  6
CONTINUOUS
 10
190.0752
 20
1396.651
 30
0.0
 11
480.0752
 21
1396.651
 31
0.0
  0
LINE
  5
104
  8
5
  6
CONTINUOUS
 10
338.0231
 20
1588.651
 30
0.0
 11
338.0231
 21
1591.651
 31
0.0
  0
LINE
  5
105
  8
5
  6
CONTINUOUS
 10
346.5255
 20
1588.651
 30
0.0
 11
346.5255
 21
1591.651
 31
0.0
  0
LINE
  5
106
  8
5
  6
CONTINUOUS
 10
326.6716
 20
1588.651
 30
0.0
 11
326.6716
 21
1591.651
 31
0.0
  0
LINE
  5
107
  8
5
  6
CONTINUOUS
 10
420.5752
 20
1558.34
 30
0.0
 11
249.5752
 21
1558.34
 31
0.0
  0
LINE
  5
108
  8
5
  6
CONTINUOUS
 10
423.0753
 20
1558.651
 30
0.0
 11
423.0831
 21
1588.651
 31
0.0
  0
LINE
  5
109
  8
5
  6
CONTINUOUS
 10
247.0752
 20
1588.651
 30
0.0
 11
247.0754
 21
1558.651
 31
0.0
  0
LINE
  5
10A
  8
5
  6
CONTINUOUS
 10
1735.211
 20
1038.951
 30
0.0
 11
1753.411
 21
1038.951
 31
0.0
  0
LINE
  5
10B
  8
5
  6
CONTINUOUS
 10
1771.611
 20
1057.151
 30
0.0
 11
1735.211
 21
1057.151
 31
0.0
  0
LINE
  5
10C
  8
5
  6
CONTINUOUS
 10
1735.211
 20
1268.351
 30
0.0
 11
1753.411
 21
1268.351
 31
0.0
  0
LINE
  5
10D
  8
5
  6
CONTINUOUS
 10
1735.211
 20
1250.151
 30
0.0
 11
1771.611
 21
1250.151
 31
0.0
  0
LINE
  5
10E
  8
5
  6
CONTINUOUS
 10
475.5753
 20
1546.651
 30
0.0
 11
194.5752
 21
1546.651
 31
0.0
  0
LINE
  5
10F
  8
5
  6
CONTINUOUS
 10
887.8508
 20
961.6513
 30
0.0
 11
887.8508
 21
961.6513
 31
0.0
  0
LINE
  5
110
  8
5
  6
CONTINUOUS
 10
1735.211
 20
1233.151
 30
0.0
 11
1775.443
 21
1233.151
 31
0.0
  0
LINE
  5
111
  8
5
  6
CONTINUOUS
 10
686.2989
 20
1185.151
 30
0.0
 11
694.2989
 21
1185.151
 31
0.0
  0
LINE
  5
112
  8
5
  6
CONTINUOUS
 10
694.2989
 20
1185.151
 30
0.0
 11
776.2989
 21
1185.151
 31
0.0
  0
LINE
  5
113
  8
5
  6
CONTINUOUS
 10
784.2989
 20
1185.151
 30
0.0
 11
776.2989
 21
1185.151
 31
0.0
  0
LINE
  5
114
  8
5
  6
CONTINUOUS
 10
1735.211
 20
1074.151
 30
0.0
 11
1775.443
 21
1074.151
 31
0.0
  0
LINE
  5
115
  8
5
  6
CONTINUOUS
 10
1770.397
 20
1354.315
 30
0.0
 11
1748.319
 21
1332.238
 31
0.0
  0
LINE
  5
116
  8
5
  6
CONTINUOUS
 10
1844.22
 20
1368.651
 30
0.0
 11
1842.256
 21
1312.427
 31
0.0
  0
LINE
  5
117
  8
5
  6
CONTINUOUS
 10
2058.166
 20
1312.427
 30
0.0
 11
2056.203
 21
1368.651
 31
0.0
  0
LINE
  5
118
  8
5
  6
CONTINUOUS
 10
681.2989
 20
1181.151
 30
0.0
 11
681.2989
 21
1126.151
 31
0.0
  0
LINE
  5
119
  8
5
  6
CONTINUOUS
 10
791.2989
 20
1153.651
 30
0.0
 11
791.2989
 21
1123.651
 31
0.0
  0
LINE
  5
11A
  8
5
  6
CONTINUOUS
 10
791.2989
 20
1183.651
 30
0.0
 11
791.2989
 21
1153.651
 31
0.0
  0
LINE
  5
11B
  8
5
  6
CONTINUOUS
 10
1324.245
 20
1345.651
 30
0.0
 11
1324.245
 21
1345.651
 31
0.0
  0
LINE
  5
11C
  8
5
  6
CONTINUOUS
 10
1157.299
 20
1405.651
 30
0.0
 11
866.2989
 21
1405.651
 31
0.0
  0
LINE
  5
11D
  8
5
  6
CONTINUOUS
 10
141.2919
 20
1020.751
 30
0.0
 11
138.2753
 21
1020.751
 31
0.0
  0
LINE
  5
11E
  8
5
  6
CONTINUOUS
 10
531.0753
 20
1020.751
 30
0.0
 11
528.8586
 21
1020.751
 31
0.0
  0
LINE
  5
11F
  8
5
  6
CONTINUOUS
 10
866.799
 20
1396.651
 30
0.0
 11
866.799
 21
1405.651
 31
0.0
  0
LINE
  5
120
  8
5
  6
CONTINUOUS
 10
1156.799
 20
1405.651
 30
0.0
 11
1156.799
 21
1396.651
 31
0.0
  0
LINE
  5
121
  8
5
  6
CONTINUOUS
 10
872.2989
 20
1541.651
 30
0.0
 11
1151.299
 21
1541.651
 31
0.0
  0
LINE
  5
122
  8
5
  6
CONTINUOUS
 10
1155.245
 20
1428.651
 30
0.0
 11
868.3528
 21
1428.651
 31
0.0
  0
LINE
  5
123
  8
5
  6
CONTINUOUS
 10
868.3528
 20
1428.651
 30
0.0
 11
872.2989
 21
1541.651
 31
0.0
  0
LINE
  5
124
  8
5
  6
CONTINUOUS
 10
1155.245
 20
1428.651
 30
0.0
 11
1151.299
 21
1541.651
 31
0.0
  0
LINE
  5
125
  8
5
  6
CONTINUOUS
 10
923.7909
 20
1588.647
 30
0.0
 11
1099.799
 21
1588.651
 31
0.0
  0
LINE
  5
126
  8
5
  6
CONTINUOUS
 10
1099.807
 20
1588.651
 30
0.0
 11
1099.799
 21
1588.651
 31
0.0
  0
LINE
  5
127
  8
5
  6
CONTINUOUS
 10
977.9318
 20
1591.651
 30
0.0
 11
977.9318
 21
1588.651
 31
0.0
  0
LINE
  5
128
  8
5
  6
CONTINUOUS
 10
979.4317
 20
1588.651
 30
0.0
 11
979.4317
 21
1591.651
 31
0.0
  0
LINE
  5
129
  8
5
  6
CONTINUOUS
 10
1004.447
 20
1588.651
 30
0.0
 11
1004.447
 21
1591.651
 31
0.0
  0
LINE
  5
12A
  8
5
  6
CONTINUOUS
 10
1014.289
 20
1588.651
 30
0.0
 11
1014.289
 21
1591.651
 31
0.0
  0
LINE
  5
12B
  8
5
  6
CONTINUOUS
 10
1015.789
 20
1588.651
 30
0.0
 11
1015.789
 21
1591.651
 31
0.0
  0
LINE
  5
12C
  8
5
  6
CONTINUOUS
 10
1048.393
 20
1588.651
 30
0.0
 11
1048.393
 21
1591.651
 31
0.0
  0
LINE
  5
12D
  8
5
  6
CONTINUOUS
 10
1037.051
 20
1588.651
 30
0.0
 11
1037.051
 21
1591.651
 31
0.0
  0
LINE
  5
12E
  8
5
  6
CONTINUOUS
 10
1046.893
 20
1588.651
 30
0.0
 11
1046.893
 21
1591.651
 31
0.0
  0
LINE
  5
12F
  8
5
  6
CONTINUOUS
 10
960.7909
 20
1591.651
 30
0.0
 11
967.1216
 21
1591.651
 31
0.0
  0
LINE
  5
130
  8
5
  6
CONTINUOUS
 10
967.1216
 20
1591.651
 30
0.0
 11
969.7573
 21
1591.651
 31
0.0
  0
LINE
  5
131
  8
5
  6
CONTINUOUS
 10
969.7573
 20
1591.651
 30
0.0
 11
977.9318
 21
1591.651
 31
0.0
  0
LINE
  5
132
  8
5
  6
CONTINUOUS
 10
979.4317
 20
1591.651
 30
0.0
 11
987.5699
 21
1591.651
 31
0.0
  0
LINE
  5
133
  8
5
  6
CONTINUOUS
 10
987.5699
 20
1591.651
 30
0.0
 11
990.3129
 21
1591.651
 31
0.0
  0
LINE
  5
134
  8
5
  6
CONTINUOUS
 10
990.3129
 20
1591.651
 30
0.0
 11
997.0989
 21
1591.651
 31
0.0
  0
LINE
  5
135
  8
5
  6
CONTINUOUS
 10
142.3886
 20
1364.015
 30
0.0
 11
155.261
 21
1354.315
 31
0.0
  0
LINE
  5
136
  8
5
  6
CONTINUOUS
 10
185.9388
 20
1331.198
 30
0.0
 11
155.261
 21
1354.315
 31
0.0
  0
LINE
  5
137
  8
5
  6
CONTINUOUS
 10
133.1832
 20
1332.238
 30
0.0
 11
153.3745
 21
1298.634
 31
0.0
  0
LINE
  5
138
  8
5
  6
CONTINUOUS
 10
133.1832
 20
1332.238
 30
0.0
 11
124.711
 21
1346.338
 31
0.0
  0
LINE
  5
139
  8
5
  6
CONTINUOUS
 10
202.1752
 20
1347.435
 30
0.0
 11
202.1752
 21
1368.651
 31
0.0
  0
LINE
  5
13A
  8
5
  6
CONTINUOUS
 10
124.711
 20
1346.338
 30
0.0
 11
142.3886
 21
1364.015
 31
0.0
  0
LINE
  5
13B
  8
5
  6
CONTINUOUS
 10
139.0753
 20
1286.551
 30
0.0
 11
141.2919
 21
1286.551
 31
0.0
  0
LINE
  5
13C
  8
5
  6
CONTINUOUS
 10
528.8586
 20
1286.551
 30
0.0
 11
531.0753
 21
1286.551
 31
0.0
  0
LINE
  5
13D
  8
5
  6
CONTINUOUS
 10
467.9752
 20
1368.651
 30
0.0
 11
467.9752
 21
1347.435
 31
0.0
  0
LINE
  5
13E
  8
5
  6
CONTINUOUS
 10
120.0753
 20
1039.751
 30
0.0
 11
120.0753
 21
1057.151
 31
0.0
  0
LINE
  5
13F
  8
5
  6
CONTINUOUS
 10
120.0753
 20
1074.151
 30
0.0
 11
120.0753
 21
1089.151
 31
0.0
  0
LINE
  5
140
  8
5
  6
CONTINUOUS
 10
120.0753
 20
1104.151
 30
0.0
 11
120.0753
 21
1119.151
 31
0.0
  0
LINE
  5
141
  8
5
  6
CONTINUOUS
 10
120.0753
 20
1233.151
 30
0.0
 11
120.0753
 21
1250.151
 31
0.0
  0
LINE
  5
142
  8
5
  6
CONTINUOUS
 10
120.0753
 20
1203.151
 30
0.0
 11
120.0753
 21
1218.151
 31
0.0
  0
LINE
  5
143
  8
5
  6
CONTINUOUS
 10
120.0753
 20
1170.901
 30
0.0
 11
120.0753
 21
1188.151
 31
0.0
  0
LINE
  5
144
  8
5
  6
CONTINUOUS
 10
120.0753
 20
1136.401
 30
0.0
 11
120.0753
 21
1153.651
 31
0.0
  0
LINE
  5
145
  8
5
  6
CONTINUOUS
 10
120.0753
 20
1057.151
 30
0.0
 11
120.0753
 21
1074.151
 31
0.0
  0
LINE
  5
146
  8
5
  6
CONTINUOUS
 10
120.0753
 20
1089.151
 30
0.0
 11
120.0753
 21
1104.151
 31
0.0
  0
LINE
  5
147
  8
5
  6
CONTINUOUS
 10
120.0753
 20
1119.151
 30
0.0
 11
120.0753
 21
1136.401
 31
0.0
  0
LINE
  5
148
  8
5
  6
CONTINUOUS
 10
120.0753
 20
1250.151
 30
0.0
 11
120.0753
 21
1268.351
 31
0.0
  0
LINE
  5
149
  8
5
  6
CONTINUOUS
 10
120.0753
 20
1218.151
 30
0.0
 11
120.0753
 21
1233.151
 31
0.0
  0
LINE
  5
14A
  8
5
  6
CONTINUOUS
 10
120.0753
 20
1188.151
 30
0.0
 11
120.0753
 21
1203.151
 31
0.0
  0
LINE
  5
14B
  8
5
  6
CONTINUOUS
 10
120.0753
 20
1153.651
 30
0.0
 11
120.0753
 21
1170.901
 31
0.0
  0
LINE
  5
14C
  8
5
  6
CONTINUOUS
 10
550.0753
 20
1153.651
 30
0.0
 11
550.0753
 21
1136.401
 31
0.0
  0
LINE
  5
14D
  8
5
  6
CONTINUOUS
 10
550.0753
 20
1188.151
 30
0.0
 11
550.0753
 21
1170.901
 31
0.0
  0
LINE
  5
14E
  8
5
  6
CONTINUOUS
 10
550.0753
 20
1218.151
 30
0.0
 11
550.0753
 21
1203.151
 31
0.0
  0
LINE
  5
14F
  8
5
  6
CONTINUOUS
 10
550.0753
 20
1250.151
 30
0.0
 11
550.0753
 21
1233.151
 31
0.0
  0
LINE
  5
150
  8
5
  6
CONTINUOUS
 10
550.0753
 20
1119.151
 30
0.0
 11
550.0753
 21
1104.151
 31
0.0
  0
LINE
  5
151
  8
5
  6
CONTINUOUS
 10
550.0753
 20
1089.151
 30
0.0
 11
550.0753
 21
1074.151
 31
0.0
  0
LINE
  5
152
  8
5
  6
CONTINUOUS
 10
550.0753
 20
1057.151
 30
0.0
 11
550.0753
 21
1038.951
 31
0.0
  0
LINE
  5
153
  8
5
  6
CONTINUOUS
 10
550.0753
 20
1136.401
 30
0.0
 11
550.0753
 21
1119.151
 31
0.0
  0
LINE
  5
154
  8
5
  6
CONTINUOUS
 10
550.0753
 20
1170.901
 30
0.0
 11
550.0753
 21
1153.651
 31
0.0
  0
LINE
  5
155
  8
5
  6
CONTINUOUS
 10
550.0753
 20
1203.151
 30
0.0
 11
550.0753
 21
1188.151
 31
0.0
  0
LINE
  5
156
  8
5
  6
CONTINUOUS
 10
550.0753
 20
1233.151
 30
0.0
 11
550.0753
 21
1218.151
 31
0.0
  0
LINE
  5
157
  8
5
  6
CONTINUOUS
 10
550.0753
 20
1268.351
 30
0.0
 11
550.0753
 21
1250.151
 31
0.0
  0
LINE
  5
158
  8
5
  6
CONTINUOUS
 10
550.0753
 20
1104.151
 30
0.0
 11
550.0753
 21
1089.151
 31
0.0
  0
LINE
  5
159
  8
5
  6
CONTINUOUS
 10
550.0753
 20
1074.151
 30
0.0
 11
550.0753
 21
1057.151
 31
0.0
  0
LINE
  5
15A
  8
5
  6
CONTINUOUS
 10
129.371
 20
1277.255
 30
0.0
 11
120.0753
 21
1268.351
 31
0.0
  0
LINE
  5
15B
  8
5
  6
CONTINUOUS
 10
139.0753
 20
1286.551
 30
0.0
 11
129.371
 21
1277.255
 31
0.0
  0
LINE
  5
15C
  8
5
  6
CONTINUOUS
 10
129.371
 20
1030.047
 30
0.0
 11
138.2753
 21
1020.751
 31
0.0
  0
LINE
  5
15D
  8
5
  6
CONTINUOUS
 10
120.8416
 20
1038.951
 30
0.0
 11
129.371
 21
1030.047
 31
0.0
  0
LINE
  5
15E
  8
5
  6
CONTINUOUS
 10
120.0753
 20
1039.751
 30
0.0
 11
120.8416
 21
1038.951
 31
0.0
  0
LINE
  5
15F
  8
5
  6
CONTINUOUS
 10
540.7796
 20
1277.255
 30
0.0
 11
531.0753
 21
1286.551
 31
0.0
  0
LINE
  5
160
  8
5
  6
CONTINUOUS
 10
550.0753
 20
1268.351
 30
0.0
 11
540.7796
 21
1277.255
 31
0.0
  0
LINE
  5
161
  8
5
  6
CONTINUOUS
 10
540.7796
 20
1030.047
 30
0.0
 11
550.0753
 21
1038.951
 31
0.0
  0
LINE
  5
162
  8
5
  6
CONTINUOUS
 10
531.0753
 20
1020.751
 30
0.0
 11
540.7796
 21
1030.047
 31
0.0
  0
LINE
  5
163
  8
5
  6
CONTINUOUS
 10
202.1752
 20
1368.651
 30
0.0
 11
220.3752
 21
1368.651
 31
0.0
  0
LINE
  5
164
  8
5
  6
CONTINUOUS
 10
431.5752
 20
1368.651
 30
0.0
 11
449.7752
 21
1368.651
 31
0.0
  0
LINE
  5
165
  8
5
  6
CONTINUOUS
 10
399.5752
 20
1368.651
 30
0.0
 11
414.5752
 21
1368.651
 31
0.0
  0
LINE
  5
166
  8
5
  6
CONTINUOUS
 10
369.5752
 20
1368.651
 30
0.0
 11
384.5752
 21
1368.651
 31
0.0
  0
LINE
  5
167
  8
5
  6
CONTINUOUS
 10
335.0752
 20
1368.651
 30
0.0
 11
352.3252
 21
1368.651
 31
0.0
  0
LINE
  5
168
  8
5
  6
CONTINUOUS
 10
300.5752
 20
1368.651
 30
0.0
 11
317.8252
 21
1368.651
 31
0.0
  0
LINE
  5
169
  8
5
  6
CONTINUOUS
 10
270.5752
 20
1368.651
 30
0.0
 11
285.5752
 21
1368.651
 31
0.0
  0
LINE
  5
16A
  8
5
  6
CONTINUOUS
 10
238.5752
 20
1368.651
 30
0.0
 11
255.5752
 21
1368.651
 31
0.0
  0
LINE
  5
16B
  8
5
  6
CONTINUOUS
 10
220.3752
 20
1368.651
 30
0.0
 11
238.5752
 21
1368.651
 31
0.0
  0
LINE
  5
16C
  8
5
  6
CONTINUOUS
 10
449.7752
 20
1368.651
 30
0.0
 11
467.9752
 21
1368.651
 31
0.0
  0
LINE
  5
16D
  8
5
  6
CONTINUOUS
 10
414.5752
 20
1368.651
 30
0.0
 11
431.5752
 21
1368.651
 31
0.0
  0
LINE
  5
16E
  8
5
  6
CONTINUOUS
 10
384.5752
 20
1368.651
 30
0.0
 11
399.5752
 21
1368.651
 31
0.0
  0
LINE
  5
16F
  8
5
  6
CONTINUOUS
 10
352.3252
 20
1368.651
 30
0.0
 11
369.5752
 21
1368.651
 31
0.0
  0
LINE
  5
170
  8
5
  6
CONTINUOUS
 10
317.8252
 20
1368.651
 30
0.0
 11
335.0752
 21
1368.651
 31
0.0
  0
LINE
  5
171
  8
5
  6
CONTINUOUS
 10
285.5752
 20
1368.651
 30
0.0
 11
300.5752
 21
1368.651
 31
0.0
  0
LINE
  5
172
  8
5
  6
CONTINUOUS
 10
255.5752
 20
1368.651
 30
0.0
 11
270.5752
 21
1368.651
 31
0.0
  0
LINE
  5
173
  8
5
  6
CONTINUOUS
 10
1004.447
 20
1591.651
 30
0.0
 11
1014.289
 21
1591.651
 31
0.0
  0
LINE
  5
174
  8
5
  6
CONTINUOUS
 10
527.7618
 20
1364.015
 30
0.0
 11
545.4395
 21
1346.338
 31
0.0
  0
LINE
  5
175
  8
5
  6
CONTINUOUS
 10
545.4395
 20
1346.338
 30
0.0
 11
536.9673
 21
1332.238
 31
0.0
  0
LINE
  5
176
  8
5
  6
CONTINUOUS
 10
536.9673
 20
1332.238
 30
0.0
 11
516.776
 21
1298.634
 31
0.0
  0
LINE
  5
177
  8
5
  6
CONTINUOUS
 10
484.2117
 20
1331.198
 30
0.0
 11
514.8895
 21
1354.315
 31
0.0
  0
LINE
  5
178
  8
5
  6
CONTINUOUS
 10
514.8895
 20
1354.315
 30
0.0
 11
527.7618
 21
1364.015
 31
0.0
  0
LINE
  5
179
  8
5
  6
CONTINUOUS
 10
125.5753
 20
1040.71
 30
0.0
 11
125.5753
 21
1266.592
 31
0.0
  0
LINE
  5
17A
  8
5
  6
CONTINUOUS
 10
125.5753
 20
1040.71
 30
0.0
 11
222.1346
 21
944.1511
 31
0.0
  0
LINE
  5
17B
  8
5
  6
CONTINUOUS
 10
222.1346
 20
944.1511
 30
0.0
 11
448.016
 21
944.1511
 31
0.0
  0
LINE
  5
17C
  8
5
  6
CONTINUOUS
 10
448.016
 20
944.1511
 30
0.0
 11
544.5753
 21
1040.71
 31
0.0
  0
LINE
  5
17D
  8
5
  6
CONTINUOUS
 10
544.5753
 20
1040.71
 30
0.0
 11
544.5753
 21
1266.592
 31
0.0
  0
LINE
  5
17E
  8
5
  6
CONTINUOUS
 10
544.5753
 20
1266.592
 30
0.0
 11
448.016
 21
1363.151
 31
0.0
  0
LINE
  5
17F
  8
5
  6
CONTINUOUS
 10
448.016
 20
1363.151
 30
0.0
 11
222.1346
 21
1363.151
 31
0.0
  0
LINE
  5
180
  8
5
  6
CONTINUOUS
 10
222.1346
 20
1363.151
 30
0.0
 11
125.5753
 21
1266.592
 31
0.0
  0
LINE
  5
181
  8
5
  6
CONTINUOUS
 10
122.5753
 20
1039.468
 30
0.0
 11
122.5753
 21
1267.835
 31
0.0
  0
LINE
  5
182
  8
5
  6
CONTINUOUS
 10
220.8919
 20
1366.151
 30
0.0
 11
122.5753
 21
1267.835
 31
0.0
  0
LINE
  5
183
  8
5
  6
CONTINUOUS
 10
449.2586
 20
1366.151
 30
0.0
 11
220.8919
 21
1366.151
 31
0.0
  0
LINE
  5
184
  8
5
  6
CONTINUOUS
 10
547.5753
 20
1267.835
 30
0.0
 11
449.2586
 21
1366.151
 31
0.0
  0
LINE
  5
185
  8
5
  6
CONTINUOUS
 10
547.5753
 20
1039.468
 30
0.0
 11
547.5753
 21
1267.835
 31
0.0
  0
LINE
  5
186
  8
5
  6
CONTINUOUS
 10
449.2586
 20
941.1512
 30
0.0
 11
547.5753
 21
1039.468
 31
0.0
  0
LINE
  5
187
  8
5
  6
CONTINUOUS
 10
220.8919
 20
941.1512
 30
0.0
 11
449.2586
 21
941.1512
 31
0.0
  0
LINE
  5
188
  8
5
  6
CONTINUOUS
 10
122.5753
 20
1039.468
 30
0.0
 11
220.8919
 21
941.1512
 31
0.0
  0
CIRCLE
  5
189
  8
5
  6
CONTINUOUS
 10
335.0752
 20
1153.651
 30
0.0
 40
140.0
  0
LINE
  5
18A
  8
5
  6
CONTINUOUS
 10
1828.19
 20
1310.765
 30
0.0
 11
1770.397
 21
1354.315
 31
0.0
  0
LINE
  5
18B
  8
5
  6
CONTINUOUS
 10
1015.789
 20
1591.651
 30
0.0
 11
1019.219
 21
1591.651
 31
0.0
  0
LINE
  5
18C
  8
5
  6
CONTINUOUS
 10
1019.219
 20
1591.651
 30
0.0
 11
1029.81
 21
1591.651
 31
0.0
  0
LINE
  5
18D
  8
5
  6
CONTINUOUS
 10
1048.393
 20
1591.651
 30
0.0
 11
1051.823
 21
1591.651
 31
0.0
  0
LINE
  5
18F
  8
5
  6
CONTINUOUS
 10
2025.211
 20
971.6511
 30
0.0
 11
2025.211
 21
976.9057
 31
0.0
  0
LINE
  5
190
  8
5
  6
CONTINUOUS
 10
1051.823
 20
1591.651
 30
0.0
 11
1062.414
 21
1591.651
 31
0.0
  0
LINE
  5
191
  8
5
  6
CONTINUOUS
 10
2040.211
 20
984.0517
 30
0.0
 11
2040.211
 21
956.6511
 31
0.0
  0
LINE
  5
194
  8
5
  6
CONTINUOUS
 10
1860.211
 20
984.0517
 30
0.0
 11
1860.211
 21
956.6511
 31
0.0
  0
LINE
  5
196
  8
5
  6
CONTINUOUS
 10
1875.211
 20
971.6511
 30
0.0
 11
1875.211
 21
976.9057
 31
0.0
  0
ARC
  5
199
  8
5
  6
CONTINUOUS
 10
1950.211
 20
1153.651
 30
0.0
 40
191.6333
 50
329.5559
 51
90.0
  0
LINE
  5
19A
  8
5
  6
CONTINUOUS
 10
1037.051
 20
1591.651
 30
0.0
 11
1046.893
 21
1591.651
 31
0.0
  0
ARC
  5
19B
  8
5
  6
CONTINUOUS
 10
1950.211
 20
1153.651
 30
0.0
 40
191.6333
 50
90.0
 51
328.5099
  0
LINE
  5
19C
  8
5
  6
CONTINUOUS
 10
1860.211
 20
956.6511
 30
0.0
 11
1860.211
 21
938.6512
 31
0.0
  0
LINE
  5
19D
  8
5
  6
CONTINUOUS
 10
1875.211
 20
938.6512
 30
0.0
 11
1875.211
 21
971.6511
 31
0.0
  0
LINE
  5
19E
  8
5
  6
CONTINUOUS
 10
2040.211
 20
956.6511
 30
0.0
 11
2040.211
 21
938.6512
 31
0.0
  0
LINE
  5
19F
  8
5
  6
CONTINUOUS
 10
2025.211
 20
971.6511
 30
0.0
 11
2025.211
 21
938.6512
 31
0.0
  0
LINE
  5
1A0
  8
5
  6
CONTINUOUS
 10
1980.211
 20
964.0095
 30
0.0
 11
1980.211
 21
938.6512
 31
0.0
  0
LINE
  5
1A1
  8
5
  6
CONTINUOUS
 10
1995.211
 20
938.6512
 30
0.0
 11
1995.211
 21
966.9991
 31
0.0
  0
LINE
  5
1A2
  8
5
  6
CONTINUOUS
 10
871.8373
 20
1558.651
 30
0.0
 11
923.7909
 21
1588.647
 31
0.0
  0
LINE
  5
1A3
  8
5
  6
CONTINUOUS
 10
1099.807
 20
1588.651
 30
0.0
 11
1151.76
 21
1558.651
 31
0.0
  0
LINE
  5
1A4
  8
5
  6
CONTINUOUS
 10
926.2989
 20
1558.34
 30
0.0
 11
926.2989
 21
1558.651
 31
0.0
  0
LINE
  5
1A5
  8
5
  6
CONTINUOUS
 10
926.2989
 20
1558.651
 30
0.0
 11
871.2989
 21
1558.651
 31
0.0
  0
LINE
  5
1A6
  8
5
  6
CONTINUOUS
 10
1097.299
 20
1558.651
 30
0.0
 11
1097.299
 21
1558.34
 31
0.0
  0
LINE
  5
1A7
  8
5
  6
CONTINUOUS
 10
1152.299
 20
1558.651
 30
0.0
 11
1097.299
 21
1558.651
 31
0.0
  0
LINE
  5
1A8
  8
5
  6
CONTINUOUS
 10
1157.299
 20
1405.651
 30
0.0
 11
1152.299
 21
1546.651
 31
0.0
  0
LINE
  5
1A9
  8
5
  6
CONTINUOUS
 10
871.2988
 20
1546.651
 30
0.0
 11
866.2989
 21
1405.651
 31
0.0
  0
LINE
  5
1AA
  8
5
  6
CONTINUOUS
 10
871.2989
 20
1558.651
 30
0.0
 11
871.2988
 21
1546.651
 31
0.0
  0
LINE
  5
1AB
  8
5
  6
CONTINUOUS
 10
1152.299
 20
1546.651
 30
0.0
 11
1152.299
 21
1558.651
 31
0.0
  0
LINE
  5
1AC
  8
5
  6
CONTINUOUS
 10
866.799
 20
1396.651
 30
0.0
 11
894.799
 21
1368.651
 31
0.0
  0
LINE
  5
1AD
  8
5
  6
CONTINUOUS
 10
1128.799
 20
1368.651
 30
0.0
 11
1156.799
 21
1396.651
 31
0.0
  0
LINE
  5
1AE
  8
5
  6
CONTINUOUS
 10
1128.799
 20
1368.651
 30
0.0
 11
1131.799
 21
1368.651
 31
0.0
  0
LINE
  5
1AF
  8
5
  6
CONTINUOUS
 10
891.7989
 20
1368.651
 30
0.0
 11
894.799
 21
1368.651
 31
0.0
  0
LINE
  5
1B0
  8
5
  6
CONTINUOUS
 10
902.8074
 20
1368.651
 30
0.0
 11
905.8074
 21
1368.651
 31
0.0
  0
LINE
  5
1B1
  8
5
  6
CONTINUOUS
 10
155.261
 20
1354.315
 30
0.0
 11
133.1832
 21
1332.238
 31
0.0
  0
LINE
  5
1B2
  8
5
  6
CONTINUOUS
 10
129.371
 20
1030.047
 30
0.0
 11
130.6836
 21
1031.36
 31
0.0
  0
LINE
  5
1B3
  8
5
  6
CONTINUOUS
 10
539.4669
 20
1031.36
 30
0.0
 11
540.7796
 21
1030.047
 31
0.0
  0
LINE
  5
1B4
  8
5
  6
CONTINUOUS
 10
129.371
 20
1277.255
 30
0.0
 11
130.6836
 21
1275.943
 31
0.0
  0
LINE
  5
1B5
  8
5
  6
CONTINUOUS
 10
540.7796
 20
1277.255
 30
0.0
 11
539.4669
 21
1275.943
 31
0.0
  0
LINE
  5
1B6
  8
5
  6
CONTINUOUS
 10
212.7836
 20
1358.043
 30
0.0
 11
202.1753
 21
1368.651
 31
0.0
  0
LINE
  5
1B7
  8
5
  6
CONTINUOUS
 10
457.3669
 20
1358.043
 30
0.0
 11
467.9752
 21
1368.651
 31
0.0
  0
LINE
  5
1B8
  8
5
  6
CONTINUOUS
 10
120.8415
 20
1038.951
 30
0.0
 11
123.0919
 21
1038.951
 31
0.0
  0
LINE
  5
1B9
  8
5
  6
CONTINUOUS
 10
122.5753
 20
1057.151
 30
0.0
 11
120.0752
 21
1057.151
 31
0.0
  0
LINE
  5
1BA
  8
5
  6
CONTINUOUS
 10
120.0752
 20
1268.351
 30
0.0
 11
123.0919
 21
1268.351
 31
0.0
  0
LINE
  5
1BB
  8
5
  6
CONTINUOUS
 10
120.0752
 20
1250.151
 30
0.0
 11
122.5753
 21
1250.151
 31
0.0
  0
LINE
  5
1BC
  8
5
  6
CONTINUOUS
 10
122.5753
 20
1153.651
 30
0.0
 11
120.0752
 21
1153.651
 31
0.0
  0
LINE
  5
1BD
  8
5
  6
CONTINUOUS
 10
120.0752
 20
1136.401
 30
0.0
 11
122.5753
 21
1136.401
 31
0.0
  0
LINE
  5
1BE
  8
5
  6
CONTINUOUS
 10
122.5753
 20
1188.151
 30
0.0
 11
120.0752
 21
1188.151
 31
0.0
  0
LINE
  5
1BF
  8
5
  6
CONTINUOUS
 10
120.0752
 20
1170.901
 30
0.0
 11
122.5753
 21
1170.901
 31
0.0
  0
LINE
  5
1C0
  8
5
  6
CONTINUOUS
 10
122.5753
 20
1218.151
 30
0.0
 11
120.0752
 21
1218.151
 31
0.0
  0
LINE
  5
1C1
  8
5
  6
CONTINUOUS
 10
120.0752
 20
1203.151
 30
0.0
 11
122.5753
 21
1203.151
 31
0.0
  0
LINE
  5
1C2
  8
5
  6
CONTINUOUS
 10
120.0752
 20
1233.151
 30
0.0
 11
122.5753
 21
1233.151
 31
0.0
  0
LINE
  5
1C3
  8
5
  6
CONTINUOUS
 10
122.5753
 20
1119.151
 30
0.0
 11
120.0752
 21
1119.151
 31
0.0
  0
LINE
  5
1C4
  8
5
  6
CONTINUOUS
 10
120.0752
 20
1104.151
 30
0.0
 11
122.5753
 21
1104.151
 31
0.0
  0
LINE
  5
1C5
  8
5
  6
CONTINUOUS
 10
122.5753
 20
1089.151
 30
0.0
 11
120.0752
 21
1089.151
 31
0.0
  0
LINE
  5
1C6
  8
5
  6
CONTINUOUS
 10
120.0752
 20
1074.151
 30
0.0
 11
122.5753
 21
1074.151
 31
0.0
  0
LINE
  5
1C7
  8
5
  6
CONTINUOUS
 10
547.0586
 20
1038.951
 30
0.0
 11
550.0753
 21
1038.951
 31
0.0
  0
LINE
  5
1C8
  8
5
  6
CONTINUOUS
 10
550.0753
 20
1057.151
 30
0.0
 11
547.5753
 21
1057.151
 31
0.0
  0
LINE
  5
1C9
  8
5
  6
CONTINUOUS
 10
547.0586
 20
1268.351
 30
0.0
 11
550.0753
 21
1268.351
 31
0.0
  0
LINE
  5
1CA
  8
5
  6
CONTINUOUS
 10
547.5753
 20
1250.151
 30
0.0
 11
550.0753
 21
1250.151
 31
0.0
  0
LINE
  5
1CB
  8
5
  6
CONTINUOUS
 10
547.5753
 20
1136.401
 30
0.0
 11
550.0753
 21
1136.401
 31
0.0
  0
LINE
  5
1CC
  8
5
  6
CONTINUOUS
 10
550.0753
 20
1153.651
 30
0.0
 11
547.5753
 21
1153.651
 31
0.0
  0
LINE
  5
1CD
  8
5
  6
CONTINUOUS
 10
547.5753
 20
1170.901
 30
0.0
 11
550.0753
 21
1170.901
 31
0.0
  0
LINE
  5
1CE
  8
5
  6
CONTINUOUS
 10
550.0753
 20
1188.151
 30
0.0
 11
547.5753
 21
1188.151
 31
0.0
  0
LINE
  5
1CF
  8
5
  6
CONTINUOUS
 10
547.5753
 20
1203.151
 30
0.0
 11
550.0753
 21
1203.151
 31
0.0
  0
LINE
  5
1D0
  8
5
  6
CONTINUOUS
 10
550.0753
 20
1218.151
 30
0.0
 11
547.5753
 21
1218.151
 31
0.0
  0
LINE
  5
1D1
  8
5
  6
CONTINUOUS
 10
547.5753
 20
1233.151
 30
0.0
 11
550.0753
 21
1233.151
 31
0.0
  0
LINE
  5
1D2
  8
5
  6
CONTINUOUS
 10
547.5753
 20
1104.151
 30
0.0
 11
550.0753
 21
1104.151
 31
0.0
  0
LINE
  5
1D3
  8
5
  6
CONTINUOUS
 10
550.0753
 20
1119.151
 30
0.0
 11
547.5753
 21
1119.151
 31
0.0
  0
LINE
  5
1D4
  8
5
  6
CONTINUOUS
 10
547.5753
 20
1074.151
 30
0.0
 11
550.0753
 21
1074.151
 31
0.0
  0
LINE
  5
1D5
  8
5
  6
CONTINUOUS
 10
550.0753
 20
1089.151
 30
0.0
 11
547.5753
 21
1089.151
 31
0.0
  0
LINE
  5
1D6
  8
5
  6
CONTINUOUS
 10
449.7752
 20
1365.635
 30
0.0
 11
449.7752
 21
1368.651
 31
0.0
  0
LINE
  5
1D7
  8
5
  6
CONTINUOUS
 10
431.5752
 20
1368.651
 30
0.0
 11
431.5752
 21
1366.151
 31
0.0
  0
LINE
  5
1D8
  8
5
  6
CONTINUOUS
 10
220.3752
 20
1365.635
 30
0.0
 11
220.3752
 21
1368.651
 31
0.0
  0
LINE
  5
1D9
  8
5
  6
CONTINUOUS
 10
238.5752
 20
1366.151
 30
0.0
 11
238.5753
 21
1368.651
 31
0.0
  0
LINE
  5
1DA
  8
5
  6
CONTINUOUS
 10
255.5752
 20
1366.151
 30
0.0
 11
255.5752
 21
1368.651
 31
0.0
  0
LINE
  5
1DB
  8
5
  6
CONTINUOUS
 10
285.5752
 20
1366.151
 30
0.0
 11
285.5752
 21
1368.651
 31
0.0
  0
LINE
  5
1DC
  8
5
  6
CONTINUOUS
 10
270.5752
 20
1368.651
 30
0.0
 11
270.5752
 21
1366.151
 31
0.0
  0
LINE
  5
1DD
  8
5
  6
CONTINUOUS
 10
317.8252
 20
1366.151
 30
0.0
 11
317.8253
 21
1368.651
 31
0.0
  0
LINE
  5
1DE
  8
5
  6
CONTINUOUS
 10
300.5752
 20
1368.651
 30
0.0
 11
300.5752
 21
1366.151
 31
0.0
  0
LINE
  5
1DF
  8
5
  6
CONTINUOUS
 10
352.3252
 20
1366.151
 30
0.0
 11
352.3252
 21
1368.651
 31
0.0
  0
LINE
  5
1E0
  8
5
  6
CONTINUOUS
 10
335.0752
 20
1368.651
 30
0.0
 11
335.0752
 21
1366.151
 31
0.0
  0
LINE
  5
1E1
  8
5
  6
CONTINUOUS
 10
384.5752
 20
1366.151
 30
0.0
 11
384.5752
 21
1368.651
 31
0.0
  0
LINE
  5
1E2
  8
5
  6
CONTINUOUS
 10
369.5752
 20
1368.651
 30
0.0
 11
369.5752
 21
1366.151
 31
0.0
  0
LINE
  5
1E3
  8
5
  6
CONTINUOUS
 10
414.5752
 20
1366.151
 30
0.0
 11
414.5752
 21
1368.651
 31
0.0
  0
LINE
  5
1E4
  8
5
  6
CONTINUOUS
 10
399.5752
 20
1368.651
 30
0.0
 11
399.5752
 21
1366.151
 31
0.0
  0
LINE
  5
1E5
  8
5
  6
CONTINUOUS
 10
536.9673
 20
1332.238
 30
0.0
 11
514.8895
 21
1354.315
 31
0.0
  0
CIRCLE
  5
1E6
  8
5
  6
CONTINUOUS
 10
335.0752
 20
1153.651
 30
0.0
 40
200.5
  0
LINE
  5
1E7
  8
5
  6
CONTINUOUS
 10
2010.211
 20
971.267
 30
0.0
 11
2010.211
 21
938.6512
 31
0.0
  0
LINE
  5
1E8
  8
5
  6
CONTINUOUS
 10
1890.211
 20
971.267
 30
0.0
 11
1890.211
 21
938.6512
 31
0.0
  0
LINE
  5
1E9
  8
5
  6
CONTINUOUS
 10
1905.211
 20
938.6512
 30
0.0
 11
1905.211
 21
966.9991
 31
0.0
  0
LINE
  5
1EA
  8
5
  6
CONTINUOUS
 10
1920.211
 20
938.6512
 30
0.0
 11
1920.211
 21
964.0095
 31
0.0
  0
LINE
  5
1EB
  8
5
  6
CONTINUOUS
 10
905.8074
 20
1368.651
 30
0.0
 11
1117.79
 21
1368.651
 31
0.0
  0
LINE
  5
1EC
  8
5
  6
CONTINUOUS
 10
1950.211
 20
961.6511
 30
0.0
 11
1950.211
 21
938.6512
 31
0.0
  0
LINE
  5
1ED
  8
5
  6
CONTINUOUS
 10
1965.211
 20
938.6512
 30
0.0
 11
1965.211
 21
962.238
 31
0.0
  0
LINE
  5
1EE
  8
5
  6
CONTINUOUS
 10
1935.211
 20
938.6512
 30
0.0
 11
1935.211
 21
962.238
 31
0.0
  0
LINE
  5
1EF
  8
5
  6
CONTINUOUS
 10
1117.79
 20
1368.651
 30
0.0
 11
1120.79
 21
1368.651
 31
0.0
  0
LINE
  5
1F0
  8
5
  6
CONTINUOUS
 10
1128.799
 20
1368.651
 30
0.0
 11
1120.79
 21
1368.651
 31
0.0
  0
LINE
  5
1F1
  8
5
  6
CONTINUOUS
 10
1321.299
 20
1020.751
 30
0.0
 11
891.2989
 21
1020.751
 31
0.0
  0
LINE
  5
1F2
  8
5
  6
CONTINUOUS
 10
902.8074
 20
1368.651
 30
0.0
 11
894.799
 21
1368.651
 31
0.0
  0
LINE
  5
1F3
  8
5
  6
CONTINUOUS
 10
784.2988
 20
1181.151
 30
0.0
 11
784.2988
 21
1185.151
 31
0.0
  0
LINE
  5
1F4
  8
5
  6
CONTINUOUS
 10
776.2989
 20
1185.151
 30
0.0
 11
776.2989
 21
1179.962
 31
0.0
  0
LINE
  5
1F5
  8
5
  6
CONTINUOUS
 10
776.2989
 20
1179.962
 30
0.0
 11
694.2989
 21
1179.962
 31
0.0
  0
LINE
  5
1F6
  8
5
  6
CONTINUOUS
 10
694.2989
 20
1185.151
 30
0.0
 11
694.2989
 21
1179.962
 31
0.0
  0
LINE
  5
1F7
  8
5
  6
CONTINUOUS
 10
686.2989
 20
1185.151
 30
0.0
 11
686.2989
 21
1181.152
 31
0.0
  0
LINE
  5
1F8
  8
5
  6
CONTINUOUS
 10
686.2991
 20
1181.151
 30
0.0
 11
681.2988
 21
1181.151
 31
0.0
  0
LINE
  5
1F9
  8
5
  6
CONTINUOUS
 10
791.2989
 20
1181.151
 30
0.0
 11
784.2988
 21
1181.151
 31
0.0
  0
LINE
  5
1FA
  8
5
  6
CONTINUOUS
 10
681.2988
 20
1126.151
 30
0.0
 11
791.2989
 21
1126.151
 31
0.0
  0
LINE
  5
1FB
  8
5
  6
CONTINUOUS
 10
800.2989
 20
1183.651
 30
0.0
 11
791.2989
 21
1183.651
 31
0.0
  0
LINE
  5
1FC
  8
5
  6
CONTINUOUS
 10
791.2989
 20
1123.651
 30
0.0
 11
800.2989
 21
1123.651
 31
0.0
  0
LINE
  5
1FD
  8
5
  6
CONTINUOUS
 10
866.799
 20
1396.651
 30
0.0
 11
1156.799
 21
1396.651
 31
0.0
  0
LINE
  5
1FE
  8
5
  6
CONTINUOUS
 10
960.7909
 20
1588.651
 30
0.0
 11
960.7909
 21
1591.651
 31
0.0
  0
LINE
  5
1FF
  8
5
  6
CONTINUOUS
 10
967.1217
 20
1588.651
 30
0.0
 11
967.1216
 21
1591.651
 31
0.0
  0
LINE
  5
200
  8
5
  6
CONTINUOUS
 10
969.7574
 20
1588.651
 30
0.0
 11
969.7573
 21
1591.651
 31
0.0
  0
LINE
  5
201
  8
5
  6
CONTINUOUS
 10
987.5698
 20
1588.651
 30
0.0
 11
987.5699
 21
1591.651
 31
0.0
  0
LINE
  5
202
  8
5
  6
CONTINUOUS
 10
990.313
 20
1588.651
 30
0.0
 11
990.3129
 21
1591.651
 31
0.0
  0
LINE
  5
203
  8
5
  6
CONTINUOUS
 10
997.0988
 20
1588.651
 30
0.0
 11
997.0989
 21
1591.651
 31
0.0
  0
LINE
  5
204
  8
5
  6
CONTINUOUS
 10
1019.219
 20
1588.651
 30
0.0
 11
1019.219
 21
1591.651
 31
0.0
  0
LINE
  5
205
  8
5
  6
CONTINUOUS
 10
1029.81
 20
1588.651
 30
0.0
 11
1029.81
 21
1591.651
 31
0.0
  0
LINE
  5
206
  8
5
  6
CONTINUOUS
 10
1051.823
 20
1588.651
 30
0.0
 11
1051.823
 21
1591.651
 31
0.0
  0
LINE
  5
207
  8
5
  6
CONTINUOUS
 10
1062.414
 20
1588.651
 30
0.0
 11
1062.414
 21
1591.651
 31
0.0
  0
LINE
  5
208
  8
5
  6
CONTINUOUS
 10
1097.299
 20
1558.34
 30
0.0
 11
926.2989
 21
1558.34
 31
0.0
  0
LINE
  5
209
  8
5
  6
CONTINUOUS
 10
1099.799
 20
1558.651
 30
0.0
 11
1099.807
 21
1588.651
 31
0.0
  0
LINE
  5
20A
  8
5
  6
CONTINUOUS
 10
923.7909
 20
1588.647
 30
0.0
 11
923.799
 21
1558.651
 31
0.0
  0
LINE
  5
20B
  8
5
  6
CONTINUOUS
 10
1152.299
 20
1546.651
 30
0.0
 11
871.2988
 21
1546.651
 31
0.0
  0
LINE
  5
20C
  8
5
  6
CONTINUOUS
 10
888.9674
 20
1038.951
 30
0.0
 11
886.6359
 21
1057.151
 31
0.0
  0
LINE
  5
20D
  8
5
  6
CONTINUOUS
 10
886.6359
 20
1057.151
 30
0.0
 11
885.5932
 21
1065.291
 31
0.0
  0
LINE
  5
20E
  8
5
  6
CONTINUOUS
 10
891.2989
 20
1020.751
 30
0.0
 11
890.1081
 21
1030.047
 31
0.0
  0
LINE
  5
20F
  8
5
  6
CONTINUOUS
 10
890.1081
 20
1030.047
 30
0.0
 11
888.9674
 21
1038.951
 31
0.0
  0
LINE
  5
210
  8
5
  6
CONTINUOUS
 10
886.6359
 20
1250.151
 30
0.0
 11
885.5932
 21
1242.011
 31
0.0
  0
LINE
  5
211
  8
5
  6
CONTINUOUS
 10
890.1081
 20
1277.256
 30
0.0
 11
888.9674
 21
1268.351
 31
0.0
  0
LINE
  5
212
  8
5
  6
CONTINUOUS
 10
890.1081
 20
1277.256
 30
0.0
 11
891.2989
 21
1286.551
 31
0.0
  0
LINE
  5
213
  8
5
  6
CONTINUOUS
 10
888.9674
 20
1268.351
 30
0.0
 11
886.6359
 21
1250.151
 31
0.0
  0
LINE
  5
214
  8
5
  6
CONTINUOUS
 10
1323.63
 20
1038.951
 30
0.0
 11
1325.962
 21
1057.151
 31
0.0
  0
LINE
  5
215
  8
5
  6
CONTINUOUS
 10
1325.962
 20
1057.151
 30
0.0
 11
1327.005
 21
1065.291
 31
0.0
  0
LINE
  5
216
  8
5
  6
CONTINUOUS
 10
1322.49
 20
1030.047
 30
0.0
 11
1323.63
 21
1038.951
 31
0.0
  0
LINE
  5
217
  8
5
  6
CONTINUOUS
 10
1322.49
 20
1030.047
 30
0.0
 11
1321.299
 21
1020.751
 31
0.0
  0
LINE
  5
218
  8
5
  6
CONTINUOUS
 10
891.2989
 20
1286.551
 30
0.0
 11
1321.299
 21
1286.551
 31
0.0
  0
LINE
  5
219
  8
5
  6
CONTINUOUS
 10
1325.962
 20
1250.151
 30
0.0
 11
1327.005
 21
1242.011
 31
0.0
  0
LINE
  5
21A
  8
5
  6
CONTINUOUS
 10
1321.299
 20
1286.551
 30
0.0
 11
1322.49
 21
1277.256
 31
0.0
  0
LINE
  5
21B
  8
5
  6
CONTINUOUS
 10
1322.49
 20
1277.256
 30
0.0
 11
1323.63
 21
1268.351
 31
0.0
  0
LINE
  5
21C
  8
5
  6
CONTINUOUS
 10
1323.63
 20
1268.351
 30
0.0
 11
1325.962
 21
1250.151
 31
0.0
  0
LINE
  5
21D
  8
5
  6
CONTINUOUS
 10
1171.299
 20
1344.651
 30
0.0
 11
1171.299
 21
1292.221
 31
0.0
  0
LINE
  5
21E
  8
5
  6
CONTINUOUS
 10
1332.799
 20
1153.651
 30
0.0
 11
1332.799
 21
1345.651
 31
0.0
  0
LINE
  5
21F
  8
5
  6
CONTINUOUS
 10
1332.799
 20
961.6512
 30
0.0
 11
1332.799
 21
1153.651
 31
0.0
  0
LINE
  5
220
  8
5
  6
CONTINUOUS
 10
1321.299
 20
1368.651
 30
0.0
 11
1196.299
 21
1368.651
 31
0.0
  0
LINE
  5
221
  8
5
  6
CONTINUOUS
 10
1196.299
 20
1368.651
 30
0.0
 11
1171.299
 21
1344.651
 31
0.0
  0
LINE
  5
222
  8
5
  6
CONTINUOUS
 10
1323.63
 20
1350.451
 30
0.0
 11
1321.299
 21
1368.651
 31
0.0
  0
LINE
  5
223
  8
5
  6
CONTINUOUS
 10
1325.962
 20
1332.251
 30
0.0
 11
1323.63
 21
1350.451
 31
0.0
  0
LINE
  5
224
  8
5
  6
CONTINUOUS
 10
1327.005
 20
1324.111
 30
0.0
 11
1325.962
 21
1332.251
 31
0.0
  0
ARC
  5
225
  8
5
  6
CONTINUOUS
 10
1950.211
 20
1153.651
 30
0.0
 40
167.7064
 50
264.3538
 51
275.6462
  0
LINE
  5
226
  8
5
  6
CONTINUOUS
 10
1383.799
 20
1039.468
 30
0.0
 11
1383.799
 21
941.1513
 31
0.0
  0
LINE
  5
227
  8
5
  6
CONTINUOUS
 10
1383.799
 20
1366.151
 30
0.0
 11
1383.799
 21
1267.835
 31
0.0
  0
LINE
  5
228
  8
5
  6
CONTINUOUS
 10
1383.799
 20
1039.468
 30
0.0
 11
1383.799
 21
1267.835
 31
0.0
  0
LINE
  5
229
  8
5
  6
CONTINUOUS
 10
1383.799
 20
944.1512
 30
0.0
 11
1455.299
 21
944.1512
 31
0.0
  0
LINE
  5
22A
  8
5
  6
CONTINUOUS
 10
1383.799
 20
1363.151
 30
0.0
 11
1455.299
 21
1363.151
 31
0.0
  0
LINE
  5
22B
  8
5
  6
CONTINUOUS
 10
1334.299
 20
1267.835
 30
0.0
 11
1334.299
 21
1039.468
 31
0.0
  0
LINE
  5
22C
  8
5
  6
CONTINUOUS
 10
1334.299
 20
1267.835
 30
0.0
 11
1334.299
 21
1366.151
 31
0.0
  0
LINE
  5
22D
  8
5
  6
CONTINUOUS
 10
1334.299
 20
941.1513
 30
0.0
 11
1334.299
 21
1039.468
 31
0.0
  0
LINE
  5
22E
  8
5
  6
CONTINUOUS
 10
1383.799
 20
1366.151
 30
0.0
 11
1334.299
 21
1366.151
 31
0.0
  0
LINE
  5
22F
  8
5
  6
CONTINUOUS
 10
1383.799
 20
941.1513
 30
0.0
 11
1334.299
 21
941.1513
 31
0.0
  0
LINE
  5
230
  8
5
  6
CONTINUOUS
 10
1522.299
 20
1293.651
 30
0.0
 11
1522.299
 21
1013.651
 31
0.0
  0
LINE
  5
231
  8
5
  6
CONTINUOUS
 10
1455.299
 20
1040.711
 30
0.0
 11
1455.299
 21
1266.592
 31
0.0
  0
LINE
  5
232
  8
5
  6
CONTINUOUS
 10
1455.299
 20
1040.711
 30
0.0
 11
1455.299
 21
944.1512
 31
0.0
  0
LINE
  5
233
  8
5
  6
CONTINUOUS
 10
1455.299
 20
1363.151
 30
0.0
 11
1455.299
 21
1266.592
 31
0.0
  0
ARC
  5
234
  8
5
  6
CONTINUOUS
 10
776.2989
 20
394.1605
 30
0.0
 40
8.0
 50
270.0
 51
90.0
  0
LINE
  5
235
  8
5
  6
CONTINUOUS
 10
694.2989
 20
386.1605
 30
0.0
 11
776.2989
 21
386.1605
 31
0.0
  0
ARC
  5
236
  8
5
  6
CONTINUOUS
 10
1950.211
 20
1153.651
 30
0.0
 40
163.9844
 50
323.6917
 51
264.2252
  0
ARC
  5
237
  8
5
  6
CONTINUOUS
 10
1950.211
 20
1153.651
 30
0.0
 40
163.9844
 50
275.7748
 51
322.3798
  0
ARC
  5
238
  8
5
  6
CONTINUOUS
 10
694.2989
 20
394.1605
 30
0.0
 40
8.0
 50
90.0
 51
270.0
  0
ARC
  5
239
  8
5
  6
CONTINUOUS
 10
1950.211
 20
1153.651
 30
0.0
 40
147.0
 50
276.4447
 51
263.5553
  0
LINE
  5
23A
  8
5
  6
CONTINUOUS
 10
2165.211
 20
1057.151
 30
0.0
 11
2128.811
 21
1057.151
 31
0.0
  0
LINE
  5
23B
  8
5
  6
CONTINUOUS
 10
2124.979
 20
1233.151
 30
0.0
 11
2165.211
 21
1233.151
 31
0.0
  0
LINE
  5
23C
  8
5
  6
CONTINUOUS
 10
2124.979
 20
1074.151
 30
0.0
 11
2165.211
 21
1074.151
 31
0.0
  0
ARC
  5
23D
  8
5
  6
CONTINUOUS
 10
1950.211
 20
1153.651
 30
0.0
 40
140.7048
 50
235.7463
 51
263.2656
  0
ARC
  5
23E
  8
5
  6
CONTINUOUS
 10
1950.211
 20
1153.651
 30
0.0
 40
140.7048
 50
276.7344
 51
304.2537
  0
LINE
  5
23F
  8
5
  6
CONTINUOUS
 10
776.2989
 20
402.1605
 30
0.0
 11
694.2989
 21
402.1605
 31
0.0
  0
LINE
  5
240
  8
5
  6
CONTINUOUS
 10
681.2989
 20
421.6605
 30
0.0
 11
681.2989
 21
366.6605
 31
0.0
  0
LINE
  5
241
  8
5
  6
CONTINUOUS
 10
791.2989
 20
424.1605
 30
0.0
 11
791.2989
 21
364.1605
 31
0.0
  0
LINE
  5
242
  8
5
  6
CONTINUOUS
 10
1171.299
 20
297.6605
 30
0.0
 11
1171.299
 21
314.6606
 31
0.0
  0
LINE
  5
243
  8
5
  6
CONTINUOUS
 10
1171.299
 20
329.6605
 30
0.0
 11
1171.299
 21
344.6605
 31
0.0
  0
LINE
  5
244
  8
5
  6
CONTINUOUS
 10
1171.299
 20
359.6606
 30
0.0
 11
1171.299
 21
374.5902
 31
0.0
  0
LINE
  5
245
  8
5
  6
CONTINUOUS
 10
1171.299
 20
428.6605
 30
0.0
 11
1171.299
 21
443.6606
 31
0.0
  0
LINE
  5
246
  8
5
  6
CONTINUOUS
 10
2104.185
 20
1038.951
 30
0.0
 11
2147.011
 21
1038.951
 31
0.0
  0
LINE
  5
247
  8
5
  6
CONTINUOUS
 10
2104.185
 20
1268.351
 30
0.0
 11
2147.011
 21
1268.351
 31
0.0
  0
LINE
  5
248
  8
5
  6
CONTINUOUS
 10
1171.299
 20
458.6605
 30
0.0
 11
1171.299
 21
473.6606
 31
0.0
  0
LINE
  5
249
  8
5
  6
CONTINUOUS
 10
1171.299
 20
490.6606
 30
0.0
 11
1171.299
 21
508.8606
 31
0.0
  0
LINE
  5
24A
  8
5
  6
CONTINUOUS
 10
1171.299
 20
261.2605
 30
0.0
 11
1171.299
 21
279.4605
 31
0.0
  0
LINE
  5
24B
  8
5
  6
CONTINUOUS
 10
1171.299
 20
279.4605
 30
0.0
 11
1171.299
 21
297.6605
 31
0.0
  0
LINE
  5
24C
  8
5
  6
CONTINUOUS
 10
1171.299
 20
314.6606
 30
0.0
 11
1171.299
 21
329.6605
 31
0.0
  0
LINE
  5
24D
  8
5
  6
CONTINUOUS
 10
1171.299
 20
344.6605
 30
0.0
 11
1171.299
 21
359.6606
 31
0.0
  0
LINE
  5
24E
  8
5
  6
CONTINUOUS
 10
1171.299
 20
413.7309
 30
0.0
 11
1171.299
 21
428.6605
 31
0.0
  0
LINE
  5
24F
  8
5
  6
CONTINUOUS
 10
1171.299
 20
443.6606
 30
0.0
 11
1171.299
 21
458.6605
 31
0.0
  0
LINE
  5
250
  8
5
  6
CONTINUOUS
 10
1171.299
 20
473.6606
 30
0.0
 11
1171.299
 21
490.6606
 31
0.0
  0
ARC
  5
251
  8
5
  6
CONTINUOUS
 10
1950.211
 20
1153.651
 30
0.0
 40
140.7048
 50
43.02201
 51
136.978
  0
LINE
  5
252
  8
5
  6
CONTINUOUS
 10
1171.299
 20
508.8606
 30
0.0
 11
1171.299
 21
527.0605
 31
0.0
  0
LINE
  5
253
  8
5
  6
CONTINUOUS
 10
888.929
 20
197.6606
 30
0.0
 11
888.929
 21
197.6606
 31
0.0
  0
LINE
  5
254
  8
5
  6
CONTINUOUS
 10
888.9674
 20
197.3605
 30
0.0
 11
888.929
 21
197.6606
 31
0.0
  0
LINE
  5
255
  8
5
  6
CONTINUOUS
 10
1323.63
 20
590.9605
 30
0.0
 11
1323.63
 21
590.9605
 31
0.0
  0
ARC
  5
256
  8
5
  6
CONTINUOUS
 10
1950.211
 20
1153.651
 30
0.0
 40
140.7048
 50
25.01598
 51
43.02201
  0
ARC
  5
257
  8
5
  6
CONTINUOUS
 10
1950.211
 20
1153.651
 30
0.0
 40
140.7048
 50
17.58082
 51
25.01598
  0
LINE
  5
258
  8
5
  6
CONTINUOUS
 10
872.2989
 20
197.6605
 30
0.0
 11
1151.299
 21
197.6605
 31
0.0
  0
ARC
  5
259
  8
5
  6
CONTINUOUS
 10
1950.211
 20
1153.651
 30
0.0
 40
140.7048
 50
10.44144
 51
17.58082
  0
ARC
  5
25A
  8
5
  6
CONTINUOUS
 10
1950.211
 20
1153.651
 30
0.0
 40
140.7048
 50
3.463355
 51
10.44144
  0
ARC
  5
25B
  8
5
  6
CONTINUOUS
 10
1950.211
 20
1153.651
 30
0.0
 40
140.7048
 50
356.5366
 51
3.4634
  0
ARC
  5
25C
  8
5
  6
CONTINUOUS
 10
1950.211
 20
1153.651
 30
0.0
 40
140.7048
 50
349.5586
 51
356.5366
  0
ARC
  5
25D
  8
5
  6
CONTINUOUS
 10
1950.211
 20
1153.651
 30
0.0
 40
140.7048
 50
342.4192
 51
349.5586
  0
ARC
  5
25E
  8
5
  6
CONTINUOUS
 10
1950.211
 20
1153.651
 30
0.0
 40
140.7048
 50
334.984
 51
342.4192
  0
ARC
  5
25F
  8
5
  6
CONTINUOUS
 10
1950.211
 20
1153.651
 30
0.0
 40
140.7048
 50
316.978
 51
334.984
  0
LINE
  5
260
  8
5
  6
CONTINUOUS
 10
868.3528
 20
197.6605
 30
0.0
 11
872.2989
 21
197.6605
 31
0.0
  0
LINE
  5
261
  8
5
  6
CONTINUOUS
 10
1155.245
 20
197.6605
 30
0.0
 11
1151.299
 21
197.6605
 31
0.0
  0
ARC
  5
262
  8
5
  6
CONTINUOUS
 10
1950.211
 20
1153.651
 30
0.0
 40
136.2749
 50
314.5588
 51
315.2142
  0
ARC
  5
263
  8
5
  6
CONTINUOUS
 10
1950.211
 20
1153.651
 30
0.0
 40
136.2749
 50
301.4142
 51
312.7313
  0
LINE
  5
264
  8
5
  6
CONTINUOUS
 10
889.8355
 20
1312.427
 30
0.0
 11
891.7989
 21
1368.651
 31
0.0
  0
LINE
  5
265
  8
5
  6
CONTINUOUS
 10
1131.799
 20
1368.651
 30
0.0
 11
1133.762
 21
1312.427
 31
0.0
  0
LINE
  5
266
  8
5
  6
CONTINUOUS
 10
974.591036
 20
412.914264
 30
0.0
 11
968.490636
 21
395.130264
 31
0.0
  0
LINE
  5
267
  8
5
  6
CONTINUOUS
 10
968.490636
 20
395.130264
 30
0.0
 11
978.729536
 21
395.130764
 31
0.0
  0
ARC
  5
268
  8
5
  6
CONTINUOUS
 10
1950.211
 20
1153.651
 30
0.0
 40
136.2749
 50
224.7858
 51
238.5858
  0
LINE
  5
269
  8
5
  6
CONTINUOUS
 10
978.729536
 20
395.130764
 30
0.0
 11
978.728636
 21
412.914464
 31
0.0
  0
LINE
  5
26A
  8
5
  6
CONTINUOUS
 10
978.728636
 20
412.914464
 30
0.0
 11
974.591036
 21
412.914264
 31
0.0
  0
LINE
  5
26B
  8
5
  6
CONTINUOUS
 10
978.729936
 20
382.695664
 30
0.0
 11
978.729536
 21
393.630864
 31
0.0
  0
LINE
  5
26C
  8
5
  6
CONTINUOUS
 10
978.729536
 20
393.630864
 30
0.0
 11
967.976136
 21
393.630164
 31
0.0
  0
LINE
  5
26D
  8
5
  6
CONTINUOUS
 10
967.976136
 20
393.630164
 30
0.0
 11
961.589236
 21
375.011164
 31
0.0
  0
LINE
  5
26E
  8
5
  6
CONTINUOUS
 10
961.589236
 20
375.011164
 30
0.0
 11
967.919936
 21
375.011464
 31
0.0
  0
LINE
  5
26F
  8
5
  6
CONTINUOUS
 10
967.919936
 20
375.011464
 30
0.0
 11
970.555636
 21
382.695464
 31
0.0
  0
LINE
  5
270
  8
5
  6
CONTINUOUS
 10
970.555636
 20
382.695464
 30
0.0
 11
978.729936
 21
382.695664
 31
0.0
  0
LINE
  5
271
  8
5
  6
CONTINUOUS
 10
980.229436
 20
395.130764
 30
0.0
 11
990.715036
 21
395.131364
 31
0.0
  0
LINE
  5
272
  8
5
  6
CONTINUOUS
 10
990.715036
 20
395.131364
 30
0.0
 11
984.366436
 21
412.914764
 31
0.0
  0
LINE
  5
273
  8
5
  6
CONTINUOUS
 10
984.366436
 20
412.914764
 30
0.0
 11
980.228636
 21
412.914564
 31
0.0
  0
LINE
  5
274
  8
5
  6
CONTINUOUS
 10
980.228636
 20
412.914564
 30
0.0
 11
980.229436
 21
395.130764
 31
0.0
  0
LINE
  5
275
  8
5
  6
CONTINUOUS
 10
991.250536
 20
393.631264
 30
0.0
 11
980.229636
 21
393.630864
 31
0.0
  0
LINE
  5
276
  8
5
  6
CONTINUOUS
 10
980.229636
 20
393.630864
 30
0.0
 11
980.230036
 21
382.695864
 31
0.0
  0
LINE
  5
277
  8
5
  6
CONTINUOUS
 10
980.230036
 20
382.695864
 30
0.0
 11
988.368236
 21
382.696164
 31
0.0
  0
LINE
  5
278
  8
5
  6
CONTINUOUS
 10
988.368236
 20
382.696164
 30
0.0
 11
991.111236
 21
375.012564
 31
0.0
  0
LINE
  5
279
  8
5
  6
CONTINUOUS
 10
991.111236
 20
375.012564
 30
0.0
 11
997.897236
 21
375.012864
 31
0.0
  0
LINE
  5
27A
  8
5
  6
CONTINUOUS
 10
997.897236
 20
375.012864
 30
0.0
 11
991.250536
 21
393.631264
 31
0.0
  0
LINE
  5
27B
  8
5
  6
CONTINUOUS
 10
1015.085336
 20
412.916164
 30
0.0
 11
1005.244336
 21
412.915764
 31
0.0
  0
ARC
  5
27C
  8
5
  6
CONTINUOUS
 10
1950.211
 20
1153.651
 30
0.0
 40
140.7048
 50
205.016
 51
223.022
  0
LINE
  5
27D
  8
5
  6
CONTINUOUS
 10
1005.244336
 20
412.915764
 30
0.0
 11
1005.244336
 21
395.131964
 31
0.0
  0
ARC
  5
27E
  8
5
  6
CONTINUOUS
 10
1950.211
 20
1153.651
 30
0.0
 40
140.7048
 50
197.5808
 51
205.016
  0
ARC
  5
27F
  8
5
  6
CONTINUOUS
 10
1950.211
 20
1153.651
 30
0.0
 40
140.7048
 50
190.4414
 51
197.5808
  0
LINE
  5
280
  8
5
  6
CONTINUOUS
 10
1602.299
 20
1346.338
 30
0.0
 11
1602.299
 21
1256.338
 31
0.0
  0
ARC
  5
281
  8
5
  6
CONTINUOUS
 10
1950.211
 20
1153.651
 30
0.0
 40
140.7048
 50
183.4634
 51
190.4414
  0
ARC
  5
282
  8
5
  6
CONTINUOUS
 10
1950.211
 20
1153.651
 30
0.0
 40
140.7048
 50
176.5366
 51
183.4634
  0
ARC
  5
283
  8
5
  6
CONTINUOUS
 10
1950.211
 20
1153.651
 30
0.0
 40
140.7048
 50
169.5586
 51
176.5366
  0
ARC
  5
284
  8
5
  6
CONTINUOUS
 10
1950.211
 20
1153.651
 30
0.0
 40
140.7048
 50
162.4192
 51
169.5586
  0
ARC
  5
285
  8
5
  6
CONTINUOUS
 10
1950.211
 20
1153.651
 30
0.0
 40
140.7048
 50
154.984
 51
162.4192
  0
ARC
  5
286
  8
5
  6
CONTINUOUS
 10
1950.211
 20
1153.651
 30
0.0
 40
140.7048
 50
136.978
 51
154.984
  0
ARC
  5
287
  8
5
  6
CONTINUOUS
 10
1950.211
 20
1153.651
 30
0.0
 40
59.71259
 50
244.188
 51
295.812
  0
LINE
  5
288
  8
5
  6
CONTINUOUS
 10
1602.299
 20
1331.338
 30
0.0
 11
1619.619
 21
1341.338
 31
0.0
  0
LINE
  5
289
  8
5
  6
CONTINUOUS
 10
1602.299
 20
1316.338
 30
0.0
 11
1619.619
 21
1326.338
 31
0.0
  0
LINE
  5
28A
  8
5
  6
CONTINUOUS
 10
1602.299
 20
1301.338
 30
0.0
 11
1619.619
 21
1311.338
 31
0.0
  0
LINE
  5
28B
  8
5
  6
CONTINUOUS
 10
1602.299
 20
1286.338
 30
0.0
 11
1619.619
 21
1296.338
 31
0.0
  0
LINE
  5
28C
  8
5
  6
CONTINUOUS
 10
1602.299
 20
1271.338
 30
0.0
 11
1619.619
 21
1281.338
 31
0.0
  0
CIRCLE
  5
28D
  8
5
  6
CONTINUOUS
 10
1950.211
 20
1153.651
 30
0.0
 40
54.0
  0
ARC
  5
28E
  8
5
  6
CONTINUOUS
 10
1950.211
 20
1153.651
 30
0.0
 40
69.0
 50
292.1363
 51
247.8637
  0
ARC
  5
28F
  8
5
  6
CONTINUOUS
 10
1950.211
 20
1153.651
 30
0.0
 40
69.38402
 50
59.04217
 51
120.9578
  0
LINE
  5
290
  8
5
  6
CONTINUOUS
 10
1204.615
 20
1318.963
 30
0.0
 11
1208.683
 21
1354.316
 31
0.0
  0
LINE
  5
291
  8
5
  6
CONTINUOUS
 10
1208.683
 20
1354.316
 30
0.0
 11
1225.799
 21
1364.016
 31
0.0
  0
LINE
  5
292
  8
5
  6
CONTINUOUS
 10
1225.799
 20
1364.016
 30
0.0
 11
1284.799
 21
1364.016
 31
0.0
  0
LINE
  5
293
  8
5
  6
CONTINUOUS
 10
1284.799
 20
1364.016
 30
0.0
 11
1301.915
 21
1354.316
 31
0.0
  0
LINE
  5
294
  8
5
  6
CONTINUOUS
 10
1305.983
 20
1318.963
 30
0.0
 11
1301.915
 21
1354.316
 31
0.0
  0
LINE
  5
295
  8
5
  6
CONTINUOUS
 10
1301.915
 20
1332.238
 30
0.0
 11
1305.531
 21
1286.551
 31
0.0
  0
LINE
  5
296
  8
5
  6
CONTINUOUS
 10
1301.915
 20
1332.238
 30
0.0
 11
1284.799
 21
1346.338
 31
0.0
  0
LINE
  5
297
  8
5
  6
CONTINUOUS
 10
1284.799
 20
1346.338
 30
0.0
 11
1225.799
 21
1346.338
 31
0.0
  0
LINE
  5
298
  8
5
  6
CONTINUOUS
 10
1225.799
 20
1346.338
 30
0.0
 11
1208.683
 21
1332.238
 31
0.0
  0
LINE
  5
299
  8
5
  6
CONTINUOUS
 10
1208.683
 20
1332.238
 30
0.0
 11
1205.066
 21
1286.551
 31
0.0
  0
LINE
  5
29A
  8
5
  6
CONTINUOUS
 10
1237.299
 20
1286.551
 30
0.0
 11
1237.299
 21
1312.768
 31
0.0
  0
LINE
  5
29B
  8
5
  6
CONTINUOUS
 10
1237.299
 20
1312.768
 30
0.0
 11
1245.299
 21
1319.836
 31
0.0
  0
LINE
  5
29C
  8
5
  6
CONTINUOUS
 10
1245.299
 20
1319.836
 30
0.0
 11
1265.299
 21
1319.836
 31
0.0
  0
LINE
  5
29D
  8
5
  6
CONTINUOUS
 10
1265.299
 20
1319.836
 30
0.0
 11
1273.299
 21
1312.768
 31
0.0
  0
LINE
  5
29E
  8
5
  6
CONTINUOUS
 10
1273.299
 20
1312.768
 30
0.0
 11
1273.299
 21
1286.551
 31
0.0
  0
LINE
  5
29F
  8
5
  6
CONTINUOUS
 10
1305.983
 20
1318.963
 30
0.0
 11
1307.305
 21
1292.221
 31
0.0
  0
LINE
  5
2A0
  8
5
  6
CONTINUOUS
 10
1301.915
 20
1354.316
 30
0.0
 11
1301.915
 21
1332.238
 31
0.0
  0
LINE
  5
2A1
  8
5
  6
CONTINUOUS
 10
1208.683
 20
1332.238
 30
0.0
 11
1208.683
 21
1354.316
 31
0.0
  0
LINE
  5
2A2
  8
5
  6
CONTINUOUS
 10
1203.293
 20
1292.221
 30
0.0
 11
1204.615
 21
1318.963
 31
0.0
  0
LINE
  5
2A3
  8
5
  6
CONTINUOUS
 10
1237.299
 20
1292.221
 30
0.0
 11
1273.299
 21
1292.221
 31
0.0
  0
LINE
  5
2A4
  8
5
  6
CONTINUOUS
 10
1307.305
 20
1292.221
 30
0.0
 11
1321.299
 21
1292.221
 31
0.0
  0
LINE
  5
2A5
  8
5
  6
CONTINUOUS
 10
1321.299
 20
1292.221
 30
0.0
 11
1321.299
 21
1368.651
 31
0.0
  0
LINE
  5
2A6
  8
5
  6
CONTINUOUS
 10
1171.299
 20
1292.221
 30
0.0
 11
1203.293
 21
1292.221
 31
0.0
  0
ARC
  5
2A7
  8
5
  6
CONTINUOUS
 10
1950.211
 20
1153.651
 30
0.0
 40
69.38402
 50
120.9578
 51
142.2271
  0
ARC
  5
2A8
  8
5
  6
CONTINUOUS
 10
1950.211
 20
1153.651
 30
0.0
 40
69.38402
 50
142.2271
 51
158.4373
  0
ARC
  5
2A9
  8
5
  6
CONTINUOUS
 10
1950.211
 20
1153.651
 30
0.0
 40
69.38402
 50
158.4373
 51
172.9632
  0
LINE
  5
2AA
  8
5
  6
CONTINUOUS
 10
1120.131
 20
1301.627
 30
0.0
 11
903.4669
 21
1301.627
 31
0.0
  0
ARC
  5
2AB
  8
5
  6
CONTINUOUS
 10
1950.211
 20
1153.651
 30
0.0
 40
69.38402
 50
172.9632
 51
187.0368
  0
ARC
  5
2AC
  8
5
  6
CONTINUOUS
 10
1950.211
 20
1153.651
 30
0.0
 40
69.38402
 50
187.0368
 51
201.5627
  0
LINE
  5
2AD
  8
5
  6
CONTINUOUS
 10
1225.799
 20
1364.016
 30
0.0
 11
1225.799
 21
1346.338
 31
0.0
  0
LINE
  5
2AE
  8
5
  6
CONTINUOUS
 10
1284.799
 20
1346.338
 30
0.0
 11
1284.799
 21
1364.016
 31
0.0
  0
LINE
  5
2AF
  8
5
  6
CONTINUOUS
 10
1325.962
 20
1332.251
 30
0.0
 11
1325.962
 21
1319.638
 31
0.0
  0
LINE
  5
2B0
  8
5
  6
CONTINUOUS
 10
1323.63
 20
1307.625
 30
0.0
 11
1323.63
 21
1350.451
 31
0.0
  0
LINE
  5
2B1
  8
5
  6
CONTINUOUS
 10
1321.299
 20
1057.151
 30
0.0
 11
891.2989
 21
1057.151
 31
0.0
  0
LINE
  5
2B2
  8
5
  6
CONTINUOUS
 10
891.2989
 20
1057.151
 30
0.0
 11
891.2989
 21
1039.751
 31
0.0
  0
LINE
  5
2B3
  8
5
  6
CONTINUOUS
 10
891.2989
 20
1039.751
 30
0.0
 11
1321.299
 21
1039.751
 31
0.0
  0
LINE
  5
2B4
  8
5
  6
CONTINUOUS
 10
1321.299
 20
1039.751
 30
0.0
 11
1321.299
 21
1057.151
 31
0.0
  0
LINE
  5
2B5
  8
5
  6
CONTINUOUS
 10
1321.299
 20
1089.151
 30
0.0
 11
891.2989
 21
1089.151
 31
0.0
  0
LINE
  5
2B6
  8
5
  6
CONTINUOUS
 10
891.2989
 20
1089.151
 30
0.0
 11
891.2989
 21
1074.151
 31
0.0
  0
LINE
  5
2B7
  8
5
  6
CONTINUOUS
 10
891.2989
 20
1074.151
 30
0.0
 11
1321.299
 21
1074.151
 31
0.0
  0
LINE
  5
2B8
  8
5
  6
CONTINUOUS
 10
1321.299
 20
1074.151
 30
0.0
 11
1321.299
 21
1089.151
 31
0.0
  0
LINE
  5
2B9
  8
5
  6
CONTINUOUS
 10
1321.299
 20
1119.151
 30
0.0
 11
891.2989
 21
1119.151
 31
0.0
  0
LINE
  5
2BA
  8
5
  6
CONTINUOUS
 10
891.2989
 20
1119.151
 30
0.0
 11
891.2989
 21
1104.151
 31
0.0
  0
LINE
  5
2BB
  8
5
  6
CONTINUOUS
 10
891.2989
 20
1104.151
 30
0.0
 11
1321.299
 21
1104.151
 31
0.0
  0
LINE
  5
2BC
  8
5
  6
CONTINUOUS
 10
1321.299
 20
1104.151
 30
0.0
 11
1321.299
 21
1119.151
 31
0.0
  0
LINE
  5
2BD
  8
5
  6
CONTINUOUS
 10
1321.299
 20
1250.151
 30
0.0
 11
891.2989
 21
1250.151
 31
0.0
  0
LINE
  5
2BE
  8
5
  6
CONTINUOUS
 10
891.2989
 20
1250.151
 30
0.0
 11
891.2989
 21
1233.151
 31
0.0
  0
LINE
  5
2BF
  8
5
  6
CONTINUOUS
 10
891.2989
 20
1233.151
 30
0.0
 11
1321.299
 21
1233.151
 31
0.0
  0
LINE
  5
2C0
  8
5
  6
CONTINUOUS
 10
1321.299
 20
1233.151
 30
0.0
 11
1321.299
 21
1250.151
 31
0.0
  0
LINE
  5
2C1
  8
5
  6
CONTINUOUS
 10
1321.299
 20
1218.151
 30
0.0
 11
891.2989
 21
1218.151
 31
0.0
  0
LINE
  5
2C2
  8
5
  6
CONTINUOUS
 10
891.2989
 20
1218.151
 30
0.0
 11
891.2989
 21
1203.151
 31
0.0
  0
LINE
  5
2C3
  8
5
  6
CONTINUOUS
 10
891.2989
 20
1203.151
 30
0.0
 11
1321.299
 21
1203.151
 31
0.0
  0
LINE
  5
2C4
  8
5
  6
CONTINUOUS
 10
1321.299
 20
1203.151
 30
0.0
 11
1321.299
 21
1218.151
 31
0.0
  0
LINE
  5
2C5
  8
5
  6
CONTINUOUS
 10
1321.299
 20
1188.151
 30
0.0
 11
891.2989
 21
1188.151
 31
0.0
  0
LINE
  5
2C6
  8
5
  6
CONTINUOUS
 10
891.2989
 20
1188.151
 30
0.0
 11
891.2989
 21
1170.901
 31
0.0
  0
LINE
  5
2C7
  8
5
  6
CONTINUOUS
 10
891.2989
 20
1170.901
 30
0.0
 11
1321.299
 21
1170.901
 31
0.0
  0
LINE
  5
2C8
  8
5
  6
CONTINUOUS
 10
1321.299
 20
1170.901
 30
0.0
 11
1321.299
 21
1188.151
 31
0.0
  0
LINE
  5
2C9
  8
5
  6
CONTINUOUS
 10
1321.299
 20
1153.651
 30
0.0
 11
891.2989
 21
1153.651
 31
0.0
  0
LINE
  5
2CA
  8
5
  6
CONTINUOUS
 10
891.2989
 20
1153.651
 30
0.0
 11
891.2989
 21
1136.401
 31
0.0
  0
LINE
  5
2CB
  8
5
  6
CONTINUOUS
 10
891.2989
 20
1136.401
 30
0.0
 11
1321.299
 21
1136.401
 31
0.0
  0
LINE
  5
2CC
  8
5
  6
CONTINUOUS
 10
1321.299
 20
1136.401
 30
0.0
 11
1321.299
 21
1153.651
 31
0.0
  0
LINE
  5
2CD
  8
5
  6
CONTINUOUS
 10
1321.299
 20
1057.151
 30
0.0
 11
1321.299
 21
1074.151
 31
0.0
  0
LINE
  5
2CE
  8
5
  6
CONTINUOUS
 10
891.2989
 20
1074.151
 30
0.0
 11
891.2989
 21
1057.151
 31
0.0
  0
LINE
  5
2CF
  8
5
  6
CONTINUOUS
 10
1321.299
 20
1089.151
 30
0.0
 11
1321.299
 21
1104.151
 31
0.0
  0
LINE
  5
2D0
  8
5
  6
CONTINUOUS
 10
891.2989
 20
1104.151
 30
0.0
 11
891.2989
 21
1089.151
 31
0.0
  0
LINE
  5
2D1
  8
5
  6
CONTINUOUS
 10
1321.299
 20
1119.151
 30
0.0
 11
1321.299
 21
1136.401
 31
0.0
  0
LINE
  5
2D2
  8
5
  6
CONTINUOUS
 10
891.2989
 20
1136.401
 30
0.0
 11
891.2989
 21
1119.151
 31
0.0
  0
LINE
  5
2D3
  8
5
  6
CONTINUOUS
 10
1321.299
 20
1250.151
 30
0.0
 11
1321.299
 21
1268.351
 31
0.0
  0
LINE
  5
2D4
  8
5
  6
CONTINUOUS
 10
1321.299
 20
1268.351
 30
0.0
 11
891.2989
 21
1268.351
 31
0.0
  0
LINE
  5
2D5
  8
5
  6
CONTINUOUS
 10
891.2989
 20
1268.351
 30
0.0
 11
891.2989
 21
1250.151
 31
0.0
  0
LINE
  5
2D6
  8
5
  6
CONTINUOUS
 10
891.2989
 20
1233.151
 30
0.0
 11
891.2989
 21
1218.151
 31
0.0
  0
LINE
  5
2D7
  8
5
  6
CONTINUOUS
 10
1321.299
 20
1218.151
 30
0.0
 11
1321.299
 21
1233.151
 31
0.0
  0
LINE
  5
2D8
  8
5
  6
CONTINUOUS
 10
891.2989
 20
1203.151
 30
0.0
 11
891.2989
 21
1188.151
 31
0.0
  0
LINE
  5
2D9
  8
5
  6
CONTINUOUS
 10
1321.299
 20
1188.151
 30
0.0
 11
1321.299
 21
1203.151
 31
0.0
  0
LINE
  5
2DA
  8
5
  6
CONTINUOUS
 10
891.2989
 20
1170.901
 30
0.0
 11
891.2989
 21
1153.651
 31
0.0
  0
LINE
  5
2DB
  8
5
  6
CONTINUOUS
 10
1321.299
 20
1153.651
 30
0.0
 11
1321.299
 21
1170.901
 31
0.0
  0
LINE
  5
2DC
  8
5
  6
CONTINUOUS
 10
888.9674
 20
1038.951
 30
0.0
 11
891.2007
 21
1038.951
 31
0.0
  0
LINE
  5
2DD
  8
5
  6
CONTINUOUS
 10
891.2007
 20
1038.951
 30
0.0
 11
891.2989
 21
1039.751
 31
0.0
  0
LINE
  5
2DE
  8
5
  6
CONTINUOUS
 10
891.2989
 20
1057.151
 30
0.0
 11
886.636
 21
1057.151
 31
0.0
  0
LINE
  5
2DF
  8
5
  6
CONTINUOUS
 10
888.9674
 20
1268.351
 30
0.0
 11
891.2989
 21
1268.351
 31
0.0
  0
LINE
  5
2E0
  8
5
  6
CONTINUOUS
 10
891.2989
 20
1268.351
 30
0.0
 11
890.1081
 21
1277.256
 31
0.0
  0
LINE
  5
2E1
  8
5
  6
CONTINUOUS
 10
886.6359
 20
1250.151
 30
0.0
 11
891.2989
 21
1250.151
 31
0.0
  0
LINE
  5
2E2
  8
5
  6
CONTINUOUS
 10
890.1081
 20
1030.047
 30
0.0
 11
891.2007
 21
1038.951
 31
0.0
  0
LINE
  5
2E3
  8
5
  6
CONTINUOUS
 10
888.253
 20
1136.401
 30
0.0
 11
891.2989
 21
1136.401
 31
0.0
  0
LINE
  5
2E4
  8
5
  6
CONTINUOUS
 10
891.2989
 20
1153.651
 30
0.0
 11
888.3525
 21
1153.651
 31
0.0
  0
LINE
  5
2E5
  8
5
  6
CONTINUOUS
 10
888.253
 20
1170.901
 30
0.0
 11
891.2989
 21
1170.901
 31
0.0
  0
LINE
  5
2E6
  8
5
  6
CONTINUOUS
 10
891.2989
 20
1188.151
 30
0.0
 11
887.9523
 21
1188.151
 31
0.0
  0
LINE
  5
2E7
  8
5
  6
CONTINUOUS
 10
887.5211
 20
1203.151
 30
0.0
 11
891.2989
 21
1203.151
 31
0.0
  0
LINE
  5
2E8
  8
5
  6
CONTINUOUS
 10
891.2989
 20
1218.151
 30
0.0
 11
886.9231
 21
1218.151
 31
0.0
  0
LINE
  5
2E9
  8
5
  6
CONTINUOUS
 10
886.1451
 20
1233.151
 30
0.0
 11
891.2989
 21
1233.151
 31
0.0
  0
LINE
  5
2EA
  8
5
  6
CONTINUOUS
 10
887.5211
 20
1104.151
 30
0.0
 11
891.2989
 21
1104.151
 31
0.0
  0
LINE
  5
2EB
  8
5
  6
CONTINUOUS
 10
891.2989
 20
1119.151
 30
0.0
 11
887.9523
 21
1119.151
 31
0.0
  0
LINE
  5
2EC
  8
5
  6
CONTINUOUS
 10
886.1451
 20
1074.151
 30
0.0
 11
891.2989
 21
1074.151
 31
0.0
  0
LINE
  5
2ED
  8
5
  6
CONTINUOUS
 10
891.2989
 20
1089.151
 30
0.0
 11
886.9231
 21
1089.151
 31
0.0
  0
LINE
  5
2EE
  8
5
  6
CONTINUOUS
 10
1321.397
 20
1038.951
 30
0.0
 11
1323.63
 21
1038.951
 31
0.0
  0
LINE
  5
2EF
  8
5
  6
CONTINUOUS
 10
1325.962
 20
1057.151
 30
0.0
 11
1321.299
 21
1057.151
 31
0.0
  0
LINE
  5
2F0
  8
5
  6
CONTINUOUS
 10
1321.299
 20
1039.751
 30
0.0
 11
1321.397
 21
1038.951
 31
0.0
  0
LINE
  5
2F1
  8
5
  6
CONTINUOUS
 10
1321.299
 20
1268.351
 30
0.0
 11
1323.63
 21
1268.351
 31
0.0
  0
LINE
  5
2F2
  8
5
  6
CONTINUOUS
 10
1322.49
 20
1277.256
 30
0.0
 11
1321.299
 21
1268.351
 31
0.0
  0
LINE
  5
2F3
  8
5
  6
CONTINUOUS
 10
1321.299
 20
1250.151
 30
0.0
 11
1325.962
 21
1250.151
 31
0.0
  0
LINE
  5
2F4
  8
5
  6
CONTINUOUS
 10
1321.397
 20
1038.951
 30
0.0
 11
1322.49
 21
1030.047
 31
0.0
  0
LINE
  5
2F5
  8
5
  6
CONTINUOUS
 10
1324.245
 20
1153.651
 30
0.0
 11
1321.299
 21
1153.651
 31
0.0
  0
LINE
  5
2F6
  8
5
  6
CONTINUOUS
 10
1321.299
 20
1136.401
 30
0.0
 11
1324.345
 21
1136.401
 31
0.0
  0
LINE
  5
2F7
  8
5
  6
CONTINUOUS
 10
1324.646
 20
1188.151
 30
0.0
 11
1321.299
 21
1188.151
 31
0.0
  0
LINE
  5
2F8
  8
5
  6
CONTINUOUS
 10
1321.299
 20
1170.901
 30
0.0
 11
1324.345
 21
1170.901
 31
0.0
  0
LINE
  5
2F9
  8
5
  6
CONTINUOUS
 10
1325.675
 20
1218.151
 30
0.0
 11
1321.299
 21
1218.151
 31
0.0
  0
LINE
  5
2FA
  8
5
  6
CONTINUOUS
 10
1321.299
 20
1203.151
 30
0.0
 11
1325.077
 21
1203.151
 31
0.0
  0
LINE
  5
2FB
  8
5
  6
CONTINUOUS
 10
1321.299
 20
1233.151
 30
0.0
 11
1326.453
 21
1233.151
 31
0.0
  0
LINE
  5
2FC
  8
5
  6
CONTINUOUS
 10
1324.646
 20
1119.151
 30
0.0
 11
1321.299
 21
1119.151
 31
0.0
  0
LINE
  5
2FD
  8
5
  6
CONTINUOUS
 10
1321.299
 20
1104.151
 30
0.0
 11
1325.077
 21
1104.151
 31
0.0
  0
LINE
  5
2FE
  8
5
  6
CONTINUOUS
 10
1325.675
 20
1089.151
 30
0.0
 11
1321.299
 21
1089.151
 31
0.0
  0
LINE
  5
2FF
  8
5
  6
CONTINUOUS
 10
1321.299
 20
1074.151
 30
0.0
 11
1326.453
 21
1074.151
 31
0.0
  0
LINE
  5
300
  8
5
  6
CONTINUOUS
 10
1455.299
 20
1266.592
 30
0.0
 11
1383.799
 21
1266.592
 31
0.0
  0
LINE
  5
301
  8
5
  6
CONTINUOUS
 10
1383.799
 20
1040.711
 30
0.0
 11
1455.299
 21
1040.711
 31
0.0
  0
LINE
  5
302
  8
5
  6
CONTINUOUS
 10
1334.299
 20
1039.468
 30
0.0
 11
1383.799
 21
1039.468
 31
0.0
  0
LINE
  5
303
  8
5
  6
CONTINUOUS
 10
1383.799
 20
1267.835
 30
0.0
 11
1334.299
 21
1267.835
 31
0.0
  0
LINE
  5
304
  8
5
  6
CONTINUOUS
 10
1522.299
 20
1013.651
 30
0.0
 11
1513.299
 21
1013.651
 31
0.0
  0
LINE
  5
305
  8
5
  6
CONTINUOUS
 10
1513.299
 20
1293.651
 30
0.0
 11
1513.299
 21
1013.651
 31
0.0
  0
LINE
  5
306
  8
5
  6
CONTINUOUS
 10
1522.299
 20
1293.651
 30
0.0
 11
1513.299
 21
1293.651
 31
0.0
  0
LINE
  5
307
  8
5
  6
CONTINUOUS
 10
1513.299
 20
1013.651
 30
0.0
 11
1455.299
 21
953.1513
 31
0.0
  0
LINE
  5
308
  8
5
  6
CONTINUOUS
 10
1513.299
 20
1293.651
 30
0.0
 11
1455.299
 21
1354.151
 31
0.0
  0
ARC
  5
309
  8
5
  6
CONTINUOUS
 10
1950.211
 20
1153.651
 30
0.0
 40
69.38402
 50
201.5627
 51
217.7729
  0
ARC
  5
30A
  8
5
  6
CONTINUOUS
 10
1950.211
 20
1153.651
 30
0.0
 40
69.38402
 50
217.7729
 51
239.0422
  0
ARC
  5
30B
  8
5
  6
CONTINUOUS
 10
1950.211
 20
1153.651
 30
0.0
 40
69.38402
 50
239.0422
 51
247.9926
  0
ARC
  5
30C
  8
5
  6
CONTINUOUS
 10
1950.211
 20
1153.651
 30
0.0
 40
69.38402
 50
292.0074
 51
300.9578
  0
ARC
  5
30D
  8
5
  6
CONTINUOUS
 10
1950.211
 20
1153.651
 30
0.0
 40
69.38402
 50
300.9578
 51
322.2271
  0
LINE
  5
30E
  8
5
  6
CONTINUOUS
 10
1005.244336
 20
395.131964
 30
0.0
 11
1015.086336
 21
395.132464
 31
0.0
  0
ARC
  5
30F
  8
5
  6
CONTINUOUS
 10
1950.211
 20
1153.651
 30
0.0
 40
69.38402
 50
322.2271
 51
338.4373
  0
ARC
  5
310
  8
5
  6
CONTINUOUS
 10
1950.211
 20
1153.651
 30
0.0
 40
69.38402
 50
338.4373
 51
352.9632
  0
LINE
  5
311
  8
5
  6
CONTINUOUS
 10
1015.086336
 20
395.132464
 30
0.0
 11
1015.085336
 21
412.916164
 31
0.0
  0
ARC
  5
312
  8
5
  6
CONTINUOUS
 10
1950.211
 20
1153.651
 30
0.0
 40
69.38402
 50
352.9632
 51
7.0368
  0
ARC
  5
313
  8
5
  6
CONTINUOUS
 10
1950.211
 20
1153.651
 30
0.0
 40
69.38402
 50
7.036787
 51
21.56274
  0
ARC
  5
314
  8
5
  6
CONTINUOUS
 10
1950.211
 20
1153.651
 30
0.0
 40
69.38402
 50
21.56274
 51
37.77288
  0
ARC
  5
315
  8
5
  6
CONTINUOUS
 10
1950.211
 20
1153.651
 30
0.0
 40
69.38402
 50
37.77288
 51
59.04217
  0
LINE
  5
316
  8
5
  6
CONTINUOUS
 10
905.8074
 20
1368.651
 30
0.0
 11
903.4669
 21
1301.627
 31
0.0
  0
LINE
  5
317
  8
5
  6
CONTINUOUS
 10
1120.131
 20
1301.627
 30
0.0
 11
1117.79
 21
1368.651
 31
0.0
  0
LINE
  5
318
  8
5
  6
CONTINUOUS
 10
1847.343
 20
1249.651
 30
0.0
 11
2053.079
 21
1249.651
 31
0.0
  0
LINE
  5
319
  8
5
  6
CONTINUOUS
 10
1914.52
 20
1213.151
 30
0.0
 11
1822.706
 21
1213.151
 31
0.0
  0
LINE
  5
31A
  8
5
  6
CONTINUOUS
 10
1816.078
 20
1196.151
 30
0.0
 11
1895.367
 21
1196.151
 31
0.0
  0
LINE
  5
31B
  8
5
  6
CONTINUOUS
 10
2005.055
 20
1196.151
 30
0.0
 11
2084.344
 21
1196.151
 31
0.0
  0
LINE
  5
31C
  8
5
  6
CONTINUOUS
 10
2077.716
 20
1213.151
 30
0.0
 11
1985.903
 21
1213.151
 31
0.0
  0
LINE
  5
31D
  8
5
  6
CONTINUOUS
 10
1885.683
 20
1179.151
 30
0.0
 11
1811.836
 21
1179.151
 31
0.0
  0
LINE
  5
31E
  8
5
  6
CONTINUOUS
 10
1015.086336
 20
393.632364
 30
0.0
 11
1005.244336
 21
393.631964
 31
0.0
  0
LINE
  5
31F
  8
5
  6
CONTINUOUS
 10
1809.763
 20
1162.151
 30
0.0
 11
1881.35
 21
1162.151
 31
0.0
  0
LINE
  5
320
  8
5
  6
CONTINUOUS
 10
2019.073
 20
1162.151
 30
0.0
 11
2090.659
 21
1162.151
 31
0.0
  0
LINE
  5
321
  8
5
  6
CONTINUOUS
 10
1005.244336
 20
393.631964
 30
0.0
 11
1005.245336
 21
375.013164
 31
0.0
  0
LINE
  5
322
  8
5
  6
CONTINUOUS
 10
2088.586
 20
1179.151
 30
0.0
 11
2014.739
 21
1179.151
 31
0.0
  0
LINE
  5
323
  8
5
  6
CONTINUOUS
 10
1881.35
 20
1145.151
 30
0.0
 11
1809.763
 21
1145.151
 31
0.0
  0
LINE
  5
324
  8
5
  6
CONTINUOUS
 10
1811.836
 20
1128.151
 30
0.0
 11
1885.683
 21
1128.151
 31
0.0
  0
LINE
  5
325
  8
5
  6
CONTINUOUS
 10
2014.739
 20
1128.151
 30
0.0
 11
2088.586
 21
1128.151
 31
0.0
  0
LINE
  5
326
  8
5
  6
CONTINUOUS
 10
2090.659
 20
1145.151
 30
0.0
 11
2019.073
 21
1145.151
 31
0.0
  0
LINE
  5
327
  8
5
  6
CONTINUOUS
 10
1895.367
 20
1111.151
 30
0.0
 11
1816.078
 21
1111.151
 31
0.0
  0
LINE
  5
328
  8
5
  6
CONTINUOUS
 10
1822.706
 20
1094.151
 30
0.0
 11
1914.52
 21
1094.151
 31
0.0
  0
LINE
  5
329
  8
5
  6
CONTINUOUS
 10
1985.903
 20
1094.151
 30
0.0
 11
2077.716
 21
1094.151
 31
0.0
  0
LINE
  5
32A
  8
5
  6
CONTINUOUS
 10
2084.344
 20
1111.151
 30
0.0
 11
2005.055
 21
1111.151
 31
0.0
  0
LINE
  5
32B
  8
5
  6
CONTINUOUS
 10
2071.162
 20
1053.551
 30
0.0
 11
2176.211
 21
1053.551
 31
0.0
  0
LINE
  5
32C
  8
5
  6
CONTINUOUS
 10
2073.583
 20
1056.551
 30
0.0
 11
2176.211
 21
1056.551
 31
0.0
  0
LINE
  5
32D
  8
5
  6
CONTINUOUS
 10
1991.511
 20
1053.551
 30
0.0
 11
2054.98
 21
1053.551
 31
0.0
  0
LINE
  5
32E
  8
5
  6
CONTINUOUS
 10
1991.511
 20
1056.551
 30
0.0
 11
2057.766
 21
1056.551
 31
0.0
  0
LINE
  5
32F
  8
5
  6
CONTINUOUS
 10
1784.224
 20
1057.151
 30
0.0
 11
1771.611
 21
1057.151
 31
0.0
  0
LINE
  5
330
  8
5
  6
CONTINUOUS
 10
2129.411
 20
1056.551
 30
0.0
 11
2128.811
 21
1057.151
 31
0.0
  0
LINE
  5
331
  8
5
  6
CONTINUOUS
 10
2128.811
 20
1057.151
 30
0.0
 11
2116.198
 21
1057.151
 31
0.0
  0
LINE
  5
333
  8
5
  6
CONTINUOUS
 10
1321.299
 20
261.2605
 30
0.0
 11
1196.299
 21
261.2605
 31
0.0
  0
LINE
  5
334
  8
5
  6
CONTINUOUS
 10
1196.299
 20
261.2605
 30
0.0
 11
1171.299
 21
261.2605
 31
0.0
  0
LINE
  5
335
  8
5
  6
CONTINUOUS
 10
1327.005
 20
305.8007
 30
0.0
 11
1325.962
 21
297.6605
 31
0.0
  0
LINE
  5
336
  8
5
  6
CONTINUOUS
 10
1323.63
 20
279.4605
 30
0.0
 11
1321.299
 21
261.2605
 31
0.0
  0
LINE
  5
337
  8
5
  6
CONTINUOUS
 10
1325.962
 20
297.6605
 30
0.0
 11
1323.63
 21
279.4605
 31
0.0
  0
LINE
  5
338
  8
5
  6
CONTINUOUS
 10
1325.962
 20
490.6605
 30
0.0
 11
1323.63
 21
508.8605
 31
0.0
  0
LINE
  5
339
  8
5
  6
CONTINUOUS
 10
1327.005
 20
482.5203
 30
0.0
 11
1325.962
 21
490.6605
 31
0.0
  0
LINE
  5
33A
  8
5
  6
CONTINUOUS
 10
1323.63
 20
508.8605
 30
0.0
 11
1321.299
 21
527.0605
 31
0.0
  0
LINE
  5
33B
  8
5
  6
CONTINUOUS
 10
1171.299
 20
527.0605
 30
0.0
 11
1196.299
 21
527.0605
 31
0.0
  0
LINE
  5
33C
  8
5
  6
CONTINUOUS
 10
1196.299
 20
527.0605
 30
0.0
 11
1321.299
 21
527.0605
 31
0.0
  0
LINE
  5
33D
  8
5
  6
CONTINUOUS
 10
1332.799
 20
202.1605
 30
0.0
 11
1332.799
 21
586.1605
 31
0.0
  0
LINE
  5
33E
  8
5
  6
CONTINUOUS
 10
1321.299
 20
179.1605
 30
0.0
 11
891.2989
 21
179.1605
 31
0.0
  0
LINE
  5
33F
  8
5
  6
CONTINUOUS
 10
891.2989
 20
609.1605
 30
0.0
 11
1321.299
 21
609.1605
 31
0.0
  0
LINE
  5
341
  8
5
  6
CONTINUOUS
 10
891.2989
 20
179.1605
 30
0.0
 11
890.1081
 21
188.4562
 31
0.0
  0
LINE
  5
342
  8
5
  6
CONTINUOUS
 10
890.1081
 20
188.4562
 30
0.0
 11
888.9674
 21
197.3605
 31
0.0
  0
LINE
  5
344
  8
5
  6
CONTINUOUS
 10
2128.811
 20
1250.151
 30
0.0
 11
2116.198
 21
1250.151
 31
0.0
  0
LINE
  5
345
  8
5
  6
CONTINUOUS
 10
890.1081
 20
599.8648
 30
0.0
 11
888.9674
 21
590.9605
 31
0.0
  0
LINE
  5
346
  8
5
  6
CONTINUOUS
 10
890.1081
 20
599.8648
 30
0.0
 11
891.2989
 21
609.1605
 31
0.0
  0
LINE
  5
347
  8
5
  6
CONTINUOUS
 10
888.9674
 20
590.9605
 30
0.0
 11
886.6359
 21
572.7605
 31
0.0
  0
LINE
  5
348
  8
5
  6
CONTINUOUS
 10
886.6359
 20
572.7605
 30
0.0
 11
885.5932
 21
564.6203
 31
0.0
  0
LINE
  5
349
  8
5
  6
CONTINUOUS
 10
1322.49
 20
188.4562
 30
0.0
 11
1323.63
 21
197.3605
 31
0.0
  0
LINE
  5
34A
  8
5
  6
CONTINUOUS
 10
1322.49
 20
188.4562
 30
0.0
 11
1321.299
 21
179.1605
 31
0.0
  0
LINE
  5
34B
  8
5
  6
CONTINUOUS
 10
1323.63
 20
197.3605
 30
0.0
 11
1325.962
 21
215.5605
 31
0.0
  0
LINE
  5
34C
  8
5
  6
CONTINUOUS
 10
1325.962
 20
215.5605
 30
0.0
 11
1327.005
 21
223.7007
 31
0.0
  0
LINE
  5
34D
  8
5
  6
CONTINUOUS
 10
1784.224
 20
1250.151
 30
0.0
 11
1771.611
 21
1250.151
 31
0.0
  0
LINE
  5
34E
  8
5
  6
CONTINUOUS
 10
1321.299
 20
609.1605
 30
0.0
 11
1322.49
 21
599.8648
 31
0.0
  0
LINE
  5
34F
  8
5
  6
CONTINUOUS
 10
1322.49
 20
599.8648
 30
0.0
 11
1323.63
 21
590.9605
 31
0.0
  0
LINE
  5
350
  8
5
  6
CONTINUOUS
 10
1323.63
 20
590.9605
 30
0.0
 11
1325.962
 21
572.7605
 31
0.0
  0
LINE
  5
351
  8
5
  6
CONTINUOUS
 10
1325.962
 20
572.7605
 30
0.0
 11
1327.005
 21
564.6203
 31
0.0
  0
LINE
  5
352
  8
5
  6
CONTINUOUS
 10
1383.799
 20
606.6605
 30
0.0
 11
1383.799
 21
508.3439
 31
0.0
  0
LINE
  5
353
  8
5
  6
CONTINUOUS
 10
1383.799
 20
508.3439
 30
0.0
 11
1383.799
 21
279.9772
 31
0.0
  0
LINE
  5
354
  8
5
  6
CONTINUOUS
 10
1383.799
 20
279.9772
 30
0.0
 11
1383.799
 21
181.6605
 31
0.0
  0
LINE
  5
355
  8
5
  6
CONTINUOUS
 10
1455.299
 20
184.6606
 30
0.0
 11
1383.799
 21
184.6606
 31
0.0
  0
LINE
  5
356
  8
5
  6
CONTINUOUS
 10
1383.799
 20
603.6606
 30
0.0
 11
1455.299
 21
603.6606
 31
0.0
  0
LINE
  5
357
  8
5
  6
CONTINUOUS
 10
1334.299
 20
181.6605
 30
0.0
 11
1334.299
 21
279.9772
 31
0.0
  0
LINE
  5
358
  8
5
  6
CONTINUOUS
 10
1334.299
 20
279.9772
 30
0.0
 11
1334.299
 21
508.3439
 31
0.0
  0
LINE
  5
359
  8
5
  6
CONTINUOUS
 10
1334.299
 20
508.3439
 30
0.0
 11
1334.299
 21
606.6605
 31
0.0
  0
LINE
  5
35A
  8
5
  6
CONTINUOUS
 10
1383.799
 20
181.6605
 30
0.0
 11
1334.299
 21
181.6605
 31
0.0
  0
LINE
  5
35B
  8
5
  6
CONTINUOUS
 10
1383.799
 20
606.6605
 30
0.0
 11
1334.299
 21
606.6605
 31
0.0
  0
LINE
  5
35C
  8
5
  6
CONTINUOUS
 10
1522.299
 20
534.1605
 30
0.0
 11
1522.299
 21
254.1605
 31
0.0
  0
LINE
  5
35D
  8
5
  6
CONTINUOUS
 10
1455.299
 20
603.6606
 30
0.0
 11
1455.299
 21
507.1013
 31
0.0
  0
LINE
  5
35E
  8
5
  6
CONTINUOUS
 10
1455.299
 20
507.1013
 30
0.0
 11
1455.299
 21
281.2199
 31
0.0
  0
LINE
  5
35F
  8
5
  6
CONTINUOUS
 10
1455.299
 20
281.2199
 30
0.0
 11
1455.299
 21
184.6606
 31
0.0
  0
LINE
  5
361
  8
5
  6
CONTINUOUS
 10
2141.435
 20
1136.401
 30
0.0
 11
2165.211
 21
1136.401
 31
0.0
  0
LINE
  5
362
  8
5
  6
CONTINUOUS
 10
2165.211
 20
1153.651
 30
0.0
 11
2142.211
 21
1153.651
 31
0.0
  0
LINE
  5
363
  8
5
  6
CONTINUOUS
 10
2141.435
 20
1170.901
 30
0.0
 11
2165.211
 21
1170.901
 31
0.0
  0
LINE
  5
364
  8
5
  6
CONTINUOUS
 10
2165.211
 20
1188.151
 30
0.0
 11
2139.086
 21
1188.151
 31
0.0
  0
LINE
  5
365
  8
5
  6
CONTINUOUS
 10
2135.721
 20
1203.151
 30
0.0
 11
2165.211
 21
1203.151
 31
0.0
  0
LINE
  5
366
  8
5
  6
CONTINUOUS
 10
2165.211
 20
1218.151
 30
0.0
 11
2131.053
 21
1218.151
 31
0.0
  0
LINE
  5
367
  8
5
  6
CONTINUOUS
 10
2135.721
 20
1104.151
 30
0.0
 11
2165.211
 21
1104.151
 31
0.0
  0
LINE
  5
368
  8
5
  6
CONTINUOUS
 10
2165.211
 20
1119.151
 30
0.0
 11
2139.086
 21
1119.151
 31
0.0
  0
LINE
  5
369
  8
5
  6
CONTINUOUS
 10
2165.211
 20
1089.151
 30
0.0
 11
2131.053
 21
1089.151
 31
0.0
  0
LINE
  5
36A
  8
5
  6
CONTINUOUS
 10
1758.211
 20
1153.651
 30
0.0
 11
1735.211
 21
1153.651
 31
0.0
  0
LINE
  5
36B
  8
5
  6
CONTINUOUS
 10
1735.211
 20
1136.401
 30
0.0
 11
1758.988
 21
1136.401
 31
0.0
  0
LINE
  5
36C
  8
5
  6
CONTINUOUS
 10
1761.336
 20
1188.151
 30
0.0
 11
1735.211
 21
1188.151
 31
0.0
  0
LINE
  5
36D
  8
5
  6
CONTINUOUS
 10
1735.211
 20
1170.901
 30
0.0
 11
1758.988
 21
1170.901
 31
0.0
  0
LINE
  5
36E
  8
5
  6
CONTINUOUS
 10
1769.369
 20
1218.151
 30
0.0
 11
1735.211
 21
1218.151
 31
0.0
  0
LINE
  5
36F
  8
5
  6
CONTINUOUS
 10
1735.211
 20
1203.151
 30
0.0
 11
1764.702
 21
1203.151
 31
0.0
  0
LINE
  5
370
  8
5
  6
CONTINUOUS
 10
1761.336
 20
1119.151
 30
0.0
 11
1735.211
 21
1119.151
 31
0.0
  0
LINE
  5
371
  8
5
  6
CONTINUOUS
 10
1735.211
 20
1104.151
 30
0.0
 11
1764.702
 21
1104.151
 31
0.0
  0
LINE
  5
372
  8
5
  6
CONTINUOUS
 10
1769.369
 20
1089.151
 30
0.0
 11
1735.211
 21
1089.151
 31
0.0
  0
LINE
  5
373
  8
5
  6
CONTINUOUS
 10
443.0752
 20
941.1512
 30
0.0
 11
443.0752
 21
938.6512
 31
0.0
  0
LINE
  5
374
  8
5
  6
CONTINUOUS
 10
227.0752
 20
938.6512
 30
0.0
 11
227.0752
 21
941.1512
 31
0.0
  0
LINE
  5
375
  8
5
  6
CONTINUOUS
 10
188.0641
 20
953.6512
 30
0.0
 11
195.5046
 21
966.5385
 31
0.0
  0
LINE
  5
376
  8
5
  6
CONTINUOUS
 10
153.7311
 20
1008.312
 30
0.0
 11
119.5752
 21
953.6512
 31
0.0
  0
LINE
  5
377
  8
5
  6
CONTINUOUS
 10
483.0864
 20
953.6512
 30
0.0
 11
475.2798
 21
967.1725
 31
0.0
  0
LINE
  5
378
  8
5
  6
CONTINUOUS
 10
551.5752
 20
953.6512
 30
0.0
 11
517.0348
 21
1008.927
 31
0.0
  0
LINE
  5
379
  8
5
  6
CONTINUOUS
 10
245.0752
 20
938.6512
 30
0.0
 11
227.0752
 21
938.6512
 31
0.0
  0
LINE
  5
37A
  8
5
  6
CONTINUOUS
 10
425.0752
 20
938.6512
 30
0.0
 11
410.0752
 21
938.6512
 31
0.0
  0
LINE
  5
37B
  8
5
  6
CONTINUOUS
 10
395.0752
 20
938.6512
 30
0.0
 11
380.0752
 21
938.6512
 31
0.0
  0
LINE
  5
37C
  8
5
  6
CONTINUOUS
 10
365.0752
 20
938.6512
 30
0.0
 11
350.0752
 21
938.6512
 31
0.0
  0
LINE
  5
37D
  8
5
  6
CONTINUOUS
 10
275.0752
 20
938.6512
 30
0.0
 11
260.0752
 21
938.6512
 31
0.0
  0
LINE
  5
37E
  8
5
  6
CONTINUOUS
 10
305.0752
 20
938.6512
 30
0.0
 11
290.0752
 21
938.6512
 31
0.0
  0
LINE
  5
37F
  8
5
  6
CONTINUOUS
 10
335.0752
 20
938.6512
 30
0.0
 11
320.0752
 21
938.6512
 31
0.0
  0
LINE
  5
380
  8
5
  6
CONTINUOUS
 10
260.0752
 20
938.6512
 30
0.0
 11
245.0752
 21
938.6512
 31
0.0
  0
LINE
  5
381
  8
5
  6
CONTINUOUS
 10
443.0752
 20
938.6512
 30
0.0
 11
425.0752
 21
938.6512
 31
0.0
  0
LINE
  5
382
  8
5
  6
CONTINUOUS
 10
410.0752
 20
938.6512
 30
0.0
 11
395.0752
 21
938.6512
 31
0.0
  0
LINE
  5
383
  8
5
  6
CONTINUOUS
 10
380.0752
 20
938.6512
 30
0.0
 11
365.0752
 21
938.6512
 31
0.0
  0
LINE
  5
384
  8
5
  6
CONTINUOUS
 10
350.0752
 20
938.6512
 30
0.0
 11
335.0752
 21
938.6512
 31
0.0
  0
LINE
  5
385
  8
5
  6
CONTINUOUS
 10
290.0752
 20
938.6512
 30
0.0
 11
275.0752
 21
938.6512
 31
0.0
  0
LINE
  5
386
  8
5
  6
CONTINUOUS
 10
320.0752
 20
938.6512
 30
0.0
 11
305.0752
 21
938.6512
 31
0.0
  0
LINE
  5
387
  8
5
  6
CONTINUOUS
 10
109.0752
 20
1056.551
 30
0.0
 11
109.0752
 21
1053.551
 31
0.0
  0
LINE
  5
388
  8
5
  6
CONTINUOUS
 10
203.0752
 20
928.6512
 30
0.0
 11
203.0752
 21
953.6512
 31
0.0
  0
LINE
  5
389
  8
5
  6
CONTINUOUS
 10
119.0752
 20
953.6512
 30
0.0
 11
119.0752
 21
928.6512
 31
0.0
  0
LINE
  5
38A
  8
5
  6
CONTINUOUS
 10
203.0752
 20
953.6512
 30
0.0
 11
119.0752
 21
953.6512
 31
0.0
  0
LINE
  5
38B
  8
5
  6
CONTINUOUS
 10
119.0752
 20
928.6512
 30
0.0
 11
203.0752
 21
928.6512
 31
0.0
  0
LINE
  5
38C
  8
5
  6
CONTINUOUS
 10
468.0752
 20
928.6512
 30
0.0
 11
468.0752
 21
953.6512
 31
0.0
  0
LINE
  5
38D
  8
5
  6
CONTINUOUS
 10
552.0752
 20
953.6512
 30
0.0
 11
552.0752
 21
928.6512
 31
0.0
  0
LINE
  5
38E
  8
5
  6
CONTINUOUS
 10
468.0752
 20
953.6512
 30
0.0
 11
552.0752
 21
953.6512
 31
0.0
  0
LINE
  5
38F
  8
5
  6
CONTINUOUS
 10
552.0752
 20
928.6512
 30
0.0
 11
468.0752
 21
928.6512
 31
0.0
  0
LINE
  5
390
  8
5
  6
CONTINUOUS
 10
203.0752
 20
936.6512
 30
0.0
 11
211.2437
 21
950.7994
 31
0.0
  0
LINE
  5
391
  8
5
  6
CONTINUOUS
 10
468.0752
 20
936.6512
 30
0.0
 11
459.5407
 21
951.4334
 31
0.0
  0
LINE
  5
392
  8
5
  6
CONTINUOUS
 10
1005.245336
 20
375.013164
 30
0.0
 11
1015.087336
 21
375.013664
 31
0.0
  0
LINE
  5
393
  8
5
  6
CONTINUOUS
 10
1015.087336
 20
375.013664
 30
0.0
 11
1015.086336
 21
393.632364
 31
0.0
  0
LINE
  5
394
  8
5
  6
CONTINUOUS
 10
1026.998336
 20
393.632964
 30
0.0
 11
1016.586336
 21
393.632564
 31
0.0
  0
LINE
  5
395
  8
5
  6
CONTINUOUS
 10
1016.586336
 20
393.632564
 30
0.0
 11
1016.587336
 21
375.013664
 31
0.0
  0
LINE
  5
396
  8
5
  6
CONTINUOUS
 10
1016.587336
 20
375.013664
 30
0.0
 11
1020.017336
 21
375.013864
 31
0.0
  0
ARC
  5
397
  8
5
  6
CONTINUOUS
 10
1020.017336
 20
385.605564
 30
0.0
 40
10.5917
 50
270.0029
 51
0.0026
  0
ARC
  5
398
  8
5
  6
CONTINUOUS
 10
1018.598336
 20
385.029964
 30
0.0
 40
12.0238
 50
2.746474
 51
45.68394
  0
LINE
  5
399
  8
5
  6
CONTINUOUS
 10
1016.586336
 20
395.132464
 30
0.0
 11
1025.118336
 21
395.132864
 31
0.0
  0
LINE
  5
39A
  8
5
  6
CONTINUOUS
 10
1273.299
 20
261.2605
 30
0.0
 11
1273.299
 21
232.1203
 31
0.0
  0
LINE
  5
39B
  8
5
  6
CONTINUOUS
 10
1273.299
 20
232.1203
 30
0.0
 11
1265.299
 21
225.6684
 31
0.0
  0
LINE
  5
39C
  8
5
  6
CONTINUOUS
 10
1265.299
 20
225.6684
 30
0.0
 11
1245.299
 21
225.6684
 31
0.0
  0
LINE
  5
39D
  8
5
  6
CONTINUOUS
 10
1245.299
 20
225.6684
 30
0.0
 11
1237.299
 21
232.1204
 31
0.0
  0
LINE
  5
39E
  8
5
  6
CONTINUOUS
 10
1237.299
 20
232.1204
 30
0.0
 11
1237.299
 21
261.2605
 31
0.0
  0
LINE
  5
39F
  8
5
  6
CONTINUOUS
 10
1204.615
 20
261.2606
 30
0.0
 11
1208.683
 21
214.3462
 31
0.0
  0
LINE
  5
3A0
  8
5
  6
CONTINUOUS
 10
1208.683
 20
214.3462
 30
0.0
 11
1225.799
 21
201.4739
 31
0.0
  0
LINE
  5
3A1
  8
5
  6
CONTINUOUS
 10
1225.799
 20
201.4739
 30
0.0
 11
1284.799
 21
201.4739
 31
0.0
  0
LINE
  5
3A2
  8
5
  6
CONTINUOUS
 10
1284.799
 20
201.4739
 30
0.0
 11
1301.915
 21
214.3462
 31
0.0
  0
LINE
  5
3A3
  8
5
  6
CONTINUOUS
 10
1305.983
 20
261.2606
 30
0.0
 11
1301.915
 21
214.3462
 31
0.0
  0
LINE
  5
3A4
  8
5
  6
CONTINUOUS
 10
1301.915
 20
192.2684
 30
0.0
 11
1305.531
 21
219.7196
 31
0.0
  0
LINE
  5
3A5
  8
5
  6
CONTINUOUS
 10
1301.915
 20
192.2684
 30
0.0
 11
1284.799
 21
183.7963
 31
0.0
  0
LINE
  5
3A6
  8
5
  6
CONTINUOUS
 10
1284.799
 20
183.7963
 30
0.0
 11
1225.799
 21
183.7963
 31
0.0
  0
LINE
  5
3A7
  8
5
  6
CONTINUOUS
 10
1225.799
 20
183.7963
 30
0.0
 11
1208.683
 21
192.2684
 31
0.0
  0
LINE
  5
3A8
  8
5
  6
CONTINUOUS
 10
1208.683
 20
192.2684
 30
0.0
 11
1205.066
 21
219.7196
 31
0.0
  0
LINE
  5
3A9
  8
5
  6
CONTINUOUS
 10
1301.915
 20
214.3462
 30
0.0
 11
1301.915
 21
192.2684
 31
0.0
  0
LINE
  5
3AA
  8
5
  6
CONTINUOUS
 10
1307.305
 20
255.5907
 30
0.0
 11
1305.531
 21
219.7196
 31
0.0
  0
LINE
  5
3AB
  8
5
  6
CONTINUOUS
 10
1205.066
 20
219.7196
 30
0.0
 11
1203.293
 21
255.5907
 31
0.0
  0
LINE
  5
3AC
  8
5
  6
CONTINUOUS
 10
1208.683
 20
192.2684
 30
0.0
 11
1208.683
 21
214.3462
 31
0.0
  0
LINE
  5
3AD
  8
5
  6
CONTINUOUS
 10
1273.299
 20
255.5907
 30
0.0
 11
1237.299
 21
255.5907
 31
0.0
  0
ARC
  5
3AE
  8
5
  6
CONTINUOUS
 10
1018.598336
 20
385.029964
 30
0.0
 40
12.02376
 50
57.16597
 51
82.7483
  0
ARC
  5
3AF
  8
5
  6
CONTINUOUS
 10
1017.851336
 20
406.351164
 30
0.0
 40
9.662929
 50
283.5587
 51
354.7079
  0
ARC
  5
3B0
  8
5
  6
CONTINUOUS
 10
1020.016336
 20
405.459564
 30
0.0
 40
7.45678
 50
0.002581
 51
90.00258
  0
LINE
  5
3B1
  8
5
  6
CONTINUOUS
 10
1020.015336
 20
412.916364
 30
0.0
 11
1016.585336
 21
412.916264
 31
0.0
  0
LINE
  5
3B2
  8
5
  6
CONTINUOUS
 10
1203.293
 20
255.5907
 30
0.0
 11
1157.299
 21
255.5907
 31
0.0
  0
LINE
  5
3B3
  8
5
  6
CONTINUOUS
 10
1321.299
 20
255.5907
 30
0.0
 11
1307.305
 21
255.5907
 31
0.0
  0
LINE
  5
3B4
  8
5
  6
CONTINUOUS
 10
1016.585336
 20
412.916164
 30
0.0
 11
1016.586336
 21
395.132464
 31
0.0
  0
LINE
  5
3B5
  8
5
  6
CONTINUOUS
 10
1037.848336
 20
395.133464
 30
0.0
 11
1047.690336
 21
395.133864
 31
0.0
  0
LINE
  5
3B6
  8
5
  6
CONTINUOUS
 10
1157.299
 20
532.7303
 30
0.0
 11
1321.299
 21
532.7304
 31
0.0
  0
LINE
  5
3B7
  8
5
  6
CONTINUOUS
 10
1047.690336
 20
395.133864
 30
0.0
 11
1047.689336
 21
412.917664
 31
0.0
  0
LINE
  5
3B8
  8
5
  6
CONTINUOUS
 10
1225.799
 20
201.4739
 30
0.0
 11
1225.799
 21
183.7963
 31
0.0
  0
LINE
  5
3B9
  8
5
  6
CONTINUOUS
 10
1284.799
 20
183.7963
 30
0.0
 11
1284.799
 21
201.4739
 31
0.0
  0
LINE
  5
3BA
  8
5
  6
CONTINUOUS
 10
1047.689336
 20
412.917664
 30
0.0
 11
1037.848336
 21
412.917164
 31
0.0
  0
LINE
  5
3BC
  8
5
  6
CONTINUOUS
 10
888.9674
 20
197.6605
 30
0.0
 11
888.9675
 21
197.3606
 31
0.0
  0
LINE
  5
3BD
  8
5
  6
CONTINUOUS
 10
890.1081
 20
188.4562
 30
0.0
 11
891.2375
 21
197.6605
 31
0.0
  0
LINE
  5
3BE
  8
5
  6
CONTINUOUS
 10
1037.848336
 20
412.917164
 30
0.0
 11
1037.848336
 21
395.133464
 31
0.0
  0
LINE
  5
3BF
  8
5
  6
CONTINUOUS
 10
891.2989
 20
590.1605
 30
0.0
 11
891.2989
 21
539.6605
 31
0.0
  0
LINE
  5
3C0
  8
5
  6
CONTINUOUS
 10
891.2989
 20
590.1605
 30
0.0
 11
890.1081
 21
599.8648
 31
0.0
  0
LINE
  5
3C2
  8
5
  6
CONTINUOUS
 10
1049.190336
 20
395.133864
 30
0.0
 11
1057.722336
 21
395.134364
 31
0.0
  0
LINE
  5
3C3
  8
5
  6
CONTINUOUS
 10
1302.691
 20
198.1605
 30
0.0
 11
1321.299
 21
198.1606
 31
0.0
  0
LINE
  5
3C4
  8
5
  6
CONTINUOUS
 10
1321.299
 20
198.1606
 30
0.0
 11
1321.299
 21
255.5907
 31
0.0
  0
LINE
  5
3C5
  8
5
  6
CONTINUOUS
 10
1008.531
 20
568.6015
 30
0.0
 11
1009.962
 21
539.6605
 31
0.0
  0
LINE
  5
3C6
  8
5
  6
CONTINUOUS
 10
1321.299
 20
532.7304
 30
0.0
 11
1321.299
 21
590.1605
 31
0.0
  0
LINE
  5
3C7
  8
5
  6
CONTINUOUS
 10
1321.299
 20
590.1605
 30
0.0
 11
1005.691
 21
590.1605
 31
0.0
  0
LINE
  5
3C8
  8
5
  6
CONTINUOUS
 10
910.9066
 20
590.1605
 30
0.0
 11
891.2989
 21
590.1605
 31
0.0
  0
LINE
  5
3C9
  8
5
  6
CONTINUOUS
 10
906.6354
 20
539.6605
 30
0.0
 11
908.0664
 21
568.6015
 31
0.0
  0
LINE
  5
3CF
  8
5
  6
CONTINUOUS
 10
1322.49
 20
599.8648
 30
0.0
 11
1321.299
 21
590.1605
 31
0.0
  0
LINE
  5
3D0
  8
5
  6
CONTINUOUS
 10
1321.299
 20
279.4606
 30
0.0
 11
1196.299
 21
279.4606
 31
0.0
  0
LINE
  5
3D1
  8
5
  6
CONTINUOUS
 10
1196.299
 20
279.4606
 30
0.0
 11
1196.299
 21
261.2606
 31
0.0
  0
LINE
  5
3D2
  8
5
  6
CONTINUOUS
 10
1321.299
 20
261.2606
 30
0.0
 11
1321.299
 21
279.4606
 31
0.0
  0
LINE
  5
3D3
  8
5
  6
CONTINUOUS
 10
1321.299
 20
508.8606
 30
0.0
 11
1196.299
 21
508.8606
 31
0.0
  0
LINE
  5
3D4
  8
5
  6
CONTINUOUS
 10
1196.299
 20
508.8606
 30
0.0
 11
1196.299
 21
490.6606
 31
0.0
  0
LINE
  5
3D5
  8
5
  6
CONTINUOUS
 10
1196.299
 20
490.6606
 30
0.0
 11
1321.299
 21
490.6606
 31
0.0
  0
LINE
  5
3D6
  8
5
  6
CONTINUOUS
 10
1321.299
 20
490.6606
 30
0.0
 11
1321.299
 21
508.8606
 31
0.0
  0
LINE
  5
3D7
  8
5
  6
CONTINUOUS
 10
1196.299
 20
458.6605
 30
0.0
 11
1321.299
 21
458.6605
 31
0.0
  0
LINE
  5
3D8
  8
5
  6
CONTINUOUS
 10
1321.299
 20
458.6605
 30
0.0
 11
1321.299
 21
473.6606
 31
0.0
  0
LINE
  5
3D9
  8
5
  6
CONTINUOUS
 10
1321.299
 20
473.6606
 30
0.0
 11
1196.299
 21
473.6606
 31
0.0
  0
LINE
  5
3DA
  8
5
  6
CONTINUOUS
 10
1196.299
 20
473.6606
 30
0.0
 11
1196.299
 21
458.6605
 31
0.0
  0
LINE
  5
3DB
  8
5
  6
CONTINUOUS
 10
1196.299
 20
428.6605
 30
0.0
 11
1321.299
 21
428.6605
 31
0.0
  0
LINE
  5
3DC
  8
5
  6
CONTINUOUS
 10
1321.299
 20
428.6605
 30
0.0
 11
1321.299
 21
443.6606
 31
0.0
  0
LINE
  5
3DD
  8
5
  6
CONTINUOUS
 10
1321.299
 20
443.6606
 30
0.0
 11
1196.299
 21
443.6606
 31
0.0
  0
LINE
  5
3DE
  8
5
  6
CONTINUOUS
 10
1196.299
 20
443.6606
 30
0.0
 11
1196.299
 21
428.6605
 31
0.0
  0
LINE
  5
3DF
  8
5
  6
CONTINUOUS
 10
1196.299
 20
394.1605
 30
0.0
 11
1321.299
 21
394.1605
 31
0.0
  0
LINE
  5
3E0
  8
5
  6
CONTINUOUS
 10
1321.299
 20
394.1605
 30
0.0
 11
1321.299
 21
411.4105
 31
0.0
  0
LINE
  5
3E1
  8
5
  6
CONTINUOUS
 10
1321.299
 20
411.4105
 30
0.0
 11
1196.299
 21
411.4105
 31
0.0
  0
LINE
  5
3E2
  8
5
  6
CONTINUOUS
 10
1196.299
 20
411.4105
 30
0.0
 11
1196.299
 21
394.1605
 31
0.0
  0
LINE
  5
3E3
  8
5
  6
CONTINUOUS
 10
1321.299
 20
376.9106
 30
0.0
 11
1196.299
 21
376.9106
 31
0.0
  0
LINE
  5
3E4
  8
5
  6
CONTINUOUS
 10
1196.299
 20
376.9106
 30
0.0
 11
1196.299
 21
359.6606
 31
0.0
  0
LINE
  5
3E5
  8
5
  6
CONTINUOUS
 10
1196.299
 20
359.6606
 30
0.0
 11
1321.299
 21
359.6606
 31
0.0
  0
LINE
  5
3E6
  8
5
  6
CONTINUOUS
 10
1321.299
 20
359.6606
 30
0.0
 11
1321.299
 21
376.9106
 31
0.0
  0
LINE
  5
3E7
  8
5
  6
CONTINUOUS
 10
1321.299
 20
344.6605
 30
0.0
 11
1196.299
 21
344.6605
 31
0.0
  0
LINE
  5
3E8
  8
5
  6
CONTINUOUS
 10
1196.299
 20
344.6605
 30
0.0
 11
1196.299
 21
329.6606
 31
0.0
  0
LINE
  5
3E9
  8
5
  6
CONTINUOUS
 10
1196.299
 20
329.6606
 30
0.0
 11
1321.299
 21
329.6606
 31
0.0
  0
LINE
  5
3EA
  8
5
  6
CONTINUOUS
 10
1321.299
 20
329.6606
 30
0.0
 11
1321.299
 21
344.6605
 31
0.0
  0
LINE
  5
3EB
  8
5
  6
CONTINUOUS
 10
1321.299
 20
314.6606
 30
0.0
 11
1196.299
 21
314.6606
 31
0.0
  0
LINE
  5
3EC
  8
5
  6
CONTINUOUS
 10
1196.299
 20
314.6606
 30
0.0
 11
1196.299
 21
297.6604
 31
0.0
  0
LINE
  5
3ED
  8
5
  6
CONTINUOUS
 10
1196.299
 20
297.6604
 30
0.0
 11
1321.299
 21
297.6604
 31
0.0
  0
LINE
  5
3EE
  8
5
  6
CONTINUOUS
 10
1321.299
 20
297.6604
 30
0.0
 11
1321.299
 21
314.6606
 31
0.0
  0
LINE
  5
3EF
  8
5
  6
CONTINUOUS
 10
1321.299
 20
279.4606
 30
0.0
 11
1321.299
 21
297.6604
 31
0.0
  0
LINE
  5
3F0
  8
5
  6
CONTINUOUS
 10
1196.299
 20
297.6604
 30
0.0
 11
1196.299
 21
279.4606
 31
0.0
  0
LINE
  5
3F1
  8
5
  6
CONTINUOUS
 10
1321.299
 20
508.8606
 30
0.0
 11
1321.299
 21
527.0605
 31
0.0
  0
LINE
  5
3F2
  8
5
  6
CONTINUOUS
 10
1196.299
 20
527.0605
 30
0.0
 11
1196.299
 21
508.8606
 31
0.0
  0
LINE
  5
3F3
  8
5
  6
CONTINUOUS
 10
1196.299
 20
490.6606
 30
0.0
 11
1196.299
 21
473.6606
 31
0.0
  0
LINE
  5
3F4
  8
5
  6
CONTINUOUS
 10
1321.299
 20
473.6606
 30
0.0
 11
1321.299
 21
490.6606
 31
0.0
  0
LINE
  5
3F5
  8
5
  6
CONTINUOUS
 10
1196.299
 20
458.6605
 30
0.0
 11
1196.299
 21
443.6606
 31
0.0
  0
LINE
  5
3F6
  8
5
  6
CONTINUOUS
 10
1321.299
 20
443.6606
 30
0.0
 11
1321.299
 21
458.6605
 31
0.0
  0
LINE
  5
3F7
  8
5
  6
CONTINUOUS
 10
1196.299
 20
428.6605
 30
0.0
 11
1196.299
 21
411.4105
 31
0.0
  0
LINE
  5
3F8
  8
5
  6
CONTINUOUS
 10
1321.299
 20
411.4105
 30
0.0
 11
1321.299
 21
428.6605
 31
0.0
  0
LINE
  5
3F9
  8
5
  6
CONTINUOUS
 10
1196.299
 20
394.1605
 30
0.0
 11
1196.299
 21
376.9106
 31
0.0
  0
LINE
  5
3FA
  8
5
  6
CONTINUOUS
 10
1321.299
 20
376.9106
 30
0.0
 11
1321.299
 21
394.1605
 31
0.0
  0
LINE
  5
3FB
  8
5
  6
CONTINUOUS
 10
1196.299
 20
359.6606
 30
0.0
 11
1196.299
 21
344.6605
 31
0.0
  0
LINE
  5
3FC
  8
5
  6
CONTINUOUS
 10
1321.299
 20
344.6605
 30
0.0
 11
1321.299
 21
359.6606
 31
0.0
  0
LINE
  5
3FD
  8
5
  6
CONTINUOUS
 10
1196.299
 20
329.6606
 30
0.0
 11
1196.299
 21
314.6606
 31
0.0
  0
LINE
  5
3FE
  8
5
  6
CONTINUOUS
 10
1321.299
 20
314.6606
 30
0.0
 11
1321.299
 21
329.6606
 31
0.0
  0
LINE
  5
3FF
  8
5
  6
CONTINUOUS
 10
1171.299
 20
297.6604
 30
0.0
 11
1196.299
 21
297.6604
 31
0.0
  0
LINE
  5
400
  8
5
  6
CONTINUOUS
 10
1196.299
 20
314.6606
 30
0.0
 11
1171.299
 21
314.6606
 31
0.0
  0
LINE
  5
401
  8
5
  6
CONTINUOUS
 10
1171.299
 20
329.6606
 30
0.0
 11
1196.299
 21
329.6606
 31
0.0
  0
LINE
  5
402
  8
5
  6
CONTINUOUS
 10
1196.299
 20
344.6605
 30
0.0
 11
1171.299
 21
344.6605
 31
0.0
  0
LINE
  5
403
  8
5
  6
CONTINUOUS
 10
1196.299
 20
443.6606
 30
0.0
 11
1171.299
 21
443.6606
 31
0.0
  0
LINE
  5
404
  8
5
  6
CONTINUOUS
 10
1171.299
 20
428.6605
 30
0.0
 11
1196.299
 21
428.6605
 31
0.0
  0
LINE
  5
405
  8
5
  6
CONTINUOUS
 10
1196.299
 20
473.6606
 30
0.0
 11
1171.299
 21
473.6606
 31
0.0
  0
LINE
  5
406
  8
5
  6
CONTINUOUS
 10
1171.299
 20
458.6605
 30
0.0
 11
1196.299
 21
458.6605
 31
0.0
  0
LINE
  5
407
  8
5
  6
CONTINUOUS
 10
1196.299
 20
508.8606
 30
0.0
 11
1171.299
 21
508.8606
 31
0.0
  0
LINE
  5
408
  8
5
  6
CONTINUOUS
 10
1171.299
 20
490.6606
 30
0.0
 11
1196.299
 21
490.6606
 31
0.0
  0
LINE
  5
409
  8
5
  6
CONTINUOUS
 10
1196.299
 20
279.4606
 30
0.0
 11
1171.299
 21
279.4606
 31
0.0
  0
LINE
  5
40A
  8
5
  6
CONTINUOUS
 10
1196.299
 20
359.6606
 30
0.0
 11
1171.299
 21
359.6606
 31
0.0
  0
LINE
  5
40B
  8
5
  6
CONTINUOUS
 10
1196.299
 20
376.9106
 30
0.0
 11
1171.532
 21
376.9106
 31
0.0
  0
LINE
  5
40C
  8
5
  6
CONTINUOUS
 10
1172.341
 20
394.1605
 30
0.0
 11
1196.299
 21
394.1605
 31
0.0
  0
LINE
  5
40D
  8
5
  6
CONTINUOUS
 10
1196.299
 20
411.4105
 30
0.0
 11
1171.532
 21
411.4105
 31
0.0
  0
LINE
  5
40E
  8
5
  6
CONTINUOUS
 10
1323.63
 20
508.8605
 30
0.0
 11
1321.299
 21
508.8606
 31
0.0
  0
LINE
  5
40F
  8
5
  6
CONTINUOUS
 10
1321.299
 20
490.6606
 30
0.0
 11
1325.962
 21
490.6605
 31
0.0
  0
LINE
  5
410
  8
5
  6
CONTINUOUS
 10
1323.63
 20
279.4606
 30
0.0
 11
1321.299
 21
279.4606
 31
0.0
  0
LINE
  5
411
  8
5
  6
CONTINUOUS
 10
1325.962
 20
297.6604
 30
0.0
 11
1321.299
 21
297.6604
 31
0.0
  0
LINE
  5
412
  8
5
  6
CONTINUOUS
 10
1326.453
 20
314.6606
 30
0.0
 11
1321.299
 21
314.6606
 31
0.0
  0
LINE
  5
413
  8
5
  6
CONTINUOUS
 10
1325.077
 20
344.6605
 30
0.0
 11
1321.299
 21
344.6605
 31
0.0
  0
LINE
  5
414
  8
5
  6
CONTINUOUS
 10
1321.299
 20
329.6606
 30
0.0
 11
1325.675
 21
329.6606
 31
0.0
  0
LINE
  5
415
  8
5
  6
CONTINUOUS
 10
1324.345
 20
376.9106
 30
0.0
 11
1321.299
 21
376.9106
 31
0.0
  0
LINE
  5
416
  8
5
  6
CONTINUOUS
 10
1321.299
 20
359.6606
 30
0.0
 11
1324.646
 21
359.6606
 31
0.0
  0
LINE
  5
417
  8
5
  6
CONTINUOUS
 10
1324.345
 20
411.4105
 30
0.0
 11
1321.299
 21
411.4105
 31
0.0
  0
LINE
  5
418
  8
5
  6
CONTINUOUS
 10
1321.299
 20
394.1605
 30
0.0
 11
1324.245
 21
394.1605
 31
0.0
  0
LINE
  5
419
  8
5
  6
CONTINUOUS
 10
1325.077
 20
443.6606
 30
0.0
 11
1321.299
 21
443.6606
 31
0.0
  0
LINE
  5
41A
  8
5
  6
CONTINUOUS
 10
1321.299
 20
428.6605
 30
0.0
 11
1324.646
 21
428.6605
 31
0.0
  0
LINE
  5
41B
  8
5
  6
CONTINUOUS
 10
1326.453
 20
473.6606
 30
0.0
 11
1321.299
 21
473.6606
 31
0.0
  0
LINE
  5
41C
  8
5
  6
CONTINUOUS
 10
1321.299
 20
458.6605
 30
0.0
 11
1325.675
 21
458.6605
 31
0.0
  0
LINE
  5
41D
  8
5
  6
CONTINUOUS
 10
987.7988
 20
604.5248
 30
0.0
 11
1004.915
 21
596.0527
 31
0.0
  0
LINE
  5
41E
  8
5
  6
CONTINUOUS
 10
987.7988
 20
586.8471
 30
0.0
 11
987.7988
 21
604.5248
 31
0.0
  0
LINE
  5
41F
  8
5
  6
CONTINUOUS
 10
1004.915
 20
573.9749
 30
0.0
 11
987.7988
 21
586.8471
 31
0.0
  0
LINE
  5
420
  8
5
  6
CONTINUOUS
 10
1004.915
 20
596.0527
 30
0.0
 11
1004.915
 21
573.9749
 31
0.0
  0
LINE
  5
421
  8
5
  6
CONTINUOUS
 10
928.7988
 20
586.8471
 30
0.0
 11
911.6828
 21
573.9749
 31
0.0
  0
LINE
  5
422
  8
5
  6
CONTINUOUS
 10
928.7988
 20
604.5248
 30
0.0
 11
928.7988
 21
586.8471
 31
0.0
  0
LINE
  5
423
  8
5
  6
CONTINUOUS
 10
911.6828
 20
596.0527
 30
0.0
 11
928.7988
 21
604.5248
 31
0.0
  0
LINE
  5
424
  8
5
  6
CONTINUOUS
 10
911.6828
 20
573.9749
 30
0.0
 11
911.6828
 21
596.0527
 31
0.0
  0
LINE
  5
425
  8
5
  6
CONTINUOUS
 10
968.299
 20
562.6526
 30
0.0
 11
976.2988
 21
556.2007
 31
0.0
  0
LINE
  5
426
  8
5
  6
CONTINUOUS
 10
940.2988
 20
556.2007
 30
0.0
 11
948.2988
 21
562.6526
 31
0.0
  0
LINE
  5
427
  8
5
  6
CONTINUOUS
 10
948.2988
 20
562.6526
 30
0.0
 11
968.299
 21
562.6526
 31
0.0
  0
LINE
  5
428
  8
5
  6
CONTINUOUS
 10
928.7988
 20
604.5248
 30
0.0
 11
987.7988
 21
604.5248
 31
0.0
  0
LINE
  5
429
  8
5
  6
CONTINUOUS
 10
987.7988
 20
586.8471
 30
0.0
 11
928.7988
 21
586.8471
 31
0.0
  0
LINE
  5
42A
  8
5
  6
CONTINUOUS
 10
1004.915
 20
596.0527
 30
0.0
 11
1008.531
 21
568.6015
 31
0.0
  0
LINE
  5
42B
  8
5
  6
CONTINUOUS
 10
1007.89
 20
539.6605
 30
0.0
 11
1004.915
 21
573.9749
 31
0.0
  0
LINE
  5
42C
  8
5
  6
CONTINUOUS
 10
908.7075
 20
539.6605
 30
0.0
 11
911.6828
 21
573.9749
 31
0.0
  0
LINE
  5
42D
  8
5
  6
CONTINUOUS
 10
911.6828
 20
596.0527
 30
0.0
 11
908.0664
 21
568.6015
 31
0.0
  0
LINE
  5
42E
  8
5
  6
CONTINUOUS
 10
940.2988
 20
539.6605
 30
0.0
 11
940.2988
 21
556.2007
 31
0.0
  0
LINE
  5
42F
  8
5
  6
CONTINUOUS
 10
976.2988
 20
556.2007
 30
0.0
 11
976.2989
 21
539.6605
 31
0.0
  0
LINE
  5
430
  8
5
  6
CONTINUOUS
 10
1383.799
 20
507.1013
 30
0.0
 11
1455.299
 21
507.1013
 31
0.0
  0
LINE
  5
431
  8
5
  6
CONTINUOUS
 10
1383.799
 20
281.2198
 30
0.0
 11
1455.299
 21
281.2199
 31
0.0
  0
LINE
  5
432
  8
5
  6
CONTINUOUS
 10
1383.799
 20
279.9772
 30
0.0
 11
1334.299
 21
279.9772
 31
0.0
  0
LINE
  5
433
  8
5
  6
CONTINUOUS
 10
1383.799
 20
508.3439
 30
0.0
 11
1334.299
 21
508.3439
 31
0.0
  0
LINE
  5
434
  8
5
  6
CONTINUOUS
 10
1513.299
 20
534.1605
 30
0.0
 11
1513.299
 21
254.1605
 31
0.0
  0
LINE
  5
435
  8
5
  6
CONTINUOUS
 10
1522.299
 20
534.1605
 30
0.0
 11
1513.299
 21
534.1605
 31
0.0
  0
LINE
  5
436
  8
5
  6
CONTINUOUS
 10
1513.299
 20
254.1606
 30
0.0
 11
1522.299
 21
254.1606
 31
0.0
  0
LINE
  5
437
  8
5
  6
CONTINUOUS
 10
1513.299
 20
534.1605
 30
0.0
 11
1455.299
 21
594.6606
 31
0.0
  0
LINE
  5
438
  8
5
  6
CONTINUOUS
 10
1455.299
 20
193.6605
 30
0.0
 11
1513.299
 21
254.1605
 31
0.0
  0
ARC
  5
439
  8
5
  6
CONTINUOUS
 10
1051.202336
 20
385.031364
 30
0.0
 40
12.02378
 50
57.16589
 51
82.7483
  0
ARC
  5
43A
  8
5
  6
CONTINUOUS
 10
1050.455336
 20
406.352664
 30
0.0
 40
9.662929
 50
283.5587
 51
354.7079
  0
ARC
  5
43B
  8
5
  6
CONTINUOUS
 10
1052.620336
 20
405.461064
 30
0.0
 40
7.45678
 50
0.002581
 51
90.00258
  0
LINE
  5
43C
  8
5
  6
CONTINUOUS
 10
1052.619336
 20
412.917864
 30
0.0
 11
1049.189336
 21
412.917664
 31
0.0
  0
LINE
  5
43D
  8
5
  6
CONTINUOUS
 10
1049.189336
 20
412.917664
 30
0.0
 11
1049.190336
 21
395.133864
 31
0.0
  0
LINE
  5
43E
  8
5
  6
CONTINUOUS
 10
1049.190336
 20
393.633964
 30
0.0
 11
1049.191336
 21
375.015164
 31
0.0
  0
LINE
  5
43F
  8
5
  6
CONTINUOUS
 10
1049.191336
 20
375.015164
 30
0.0
 11
1052.621336
 21
375.015364
 31
0.0
  0
ARC
  5
440
  8
5
  6
CONTINUOUS
 10
1052.621336
 20
385.607064
 30
0.0
 40
10.59169
 50
270.003
 51
0.0026
  0
ARC
  5
441
  8
5
  6
CONTINUOUS
 10
1051.202336
 20
385.031364
 30
0.0
 40
12.0238
 50
2.746474
 51
45.68383
  0
LINE
  5
442
  8
5
  6
CONTINUOUS
 10
1059.602336
 20
393.634364
 30
0.0
 11
1049.190336
 21
393.633964
 31
0.0
  0
LINE
  5
443
  8
5
  6
CONTINUOUS
 10
1037.848336
 20
393.633364
 30
0.0
 11
1047.690336
 21
393.633764
 31
0.0
  0
LINE
  5
444
  8
5
  6
CONTINUOUS
 10
1037.848336
 20
393.633364
 30
0.0
 11
1037.849336
 21
375.014564
 31
0.0
  0
LINE
  5
445
  8
5
  6
CONTINUOUS
 10
1037.849336
 20
375.014564
 30
0.0
 11
1047.691336
 21
375.015164
 31
0.0
  0
LINE
  5
446
  8
5
  6
CONTINUOUS
 10
1047.691336
 20
375.015164
 30
0.0
 11
1047.690336
 21
393.633764
 31
0.0
  0
LINE
  5
447
  8
5
  6
CONTINUOUS
 10
871.8373
 20
308.6605
 30
0.0
 11
871.2989
 21
308.6605
 31
0.0
  0
LINE
  5
448
  8
5
  6
CONTINUOUS
 10
926.2989
 20
254.199
 30
0.0
 11
926.2989
 21
253.6605
 31
0.0
  0
LINE
  5
449
  8
5
  6
CONTINUOUS
 10
871.2989
 20
479.6605
 30
0.0
 11
871.8373
 21
479.6605
 31
0.0
  0
LINE
  5
44A
  8
5
  6
CONTINUOUS
 10
926.2989
 20
534.6605
 30
0.0
 11
926.2989
 21
534.1221
 31
0.0
  0
LINE
  5
44B
  8
5
  6
CONTINUOUS
 10
1152.299
 20
308.6605
 30
0.0
 11
1151.76
 21
308.6605
 31
0.0
  0
LINE
  5
44C
  8
5
  6
CONTINUOUS
 10
1097.299
 20
254.199
 30
0.0
 11
1097.299
 21
253.6605
 31
0.0
  0
LINE
  5
44D
  8
5
  6
CONTINUOUS
 10
1097.299
 20
534.6605
 30
0.0
 11
1097.299
 21
534.1221
 31
0.0
  0
LINE
  5
44E
  8
5
  6
CONTINUOUS
 10
1151.76
 20
479.6605
 30
0.0
 11
1152.299
 21
479.6605
 31
0.0
  0
LINE
  5
44F
  8
5
  6
CONTINUOUS
 10
926.2989
 20
253.6605
 30
0.0
 11
871.2989
 21
253.6605
 31
0.0
  0
LINE
  5
450
  8
5
  6
CONTINUOUS
 10
1152.299
 20
253.6605
 30
0.0
 11
1097.299
 21
253.6605
 31
0.0
  0
LINE
  5
451
  8
5
  6
CONTINUOUS
 10
1097.299
 20
253.6605
 30
0.0
 11
926.2989
 21
253.6605
 31
0.0
  0
LINE
  5
452
  8
5
  6
CONTINUOUS
 10
871.2989
 20
479.6605
 30
0.0
 11
871.2989
 21
534.6605
 31
0.0
  0
LINE
  5
453
  8
5
  6
CONTINUOUS
 10
871.2989
 20
253.6605
 30
0.0
 11
871.2989
 21
308.6605
 31
0.0
  0
LINE
  5
454
  8
5
  6
CONTINUOUS
 10
871.2989
 20
308.6605
 30
0.0
 11
871.2989
 21
479.6605
 31
0.0
  0
LINE
  5
455
  8
5
  6
CONTINUOUS
 10
871.2989
 20
534.6605
 30
0.0
 11
926.2989
 21
534.6605
 31
0.0
  0
LINE
  5
456
  8
6
  6
CENTER
 10
338.0752
 20
1153.651
 30
0.0
 11
332.0752
 21
1153.651
 31
0.0
  0
LINE
  5
457
  8
6
  6
CENTER
 10
335.0752
 20
1156.651
 30
0.0
 11
335.0752
 21
1150.651
 31
0.0
  0
LINE
  5
458
  8
5
  6
CONTINUOUS
 10
926.2989
 20
534.6605
 30
0.0
 11
1097.299
 21
534.6605
 31
0.0
  0
LINE
  5
459
  8
5
  6
CONTINUOUS
 10
1097.299
 20
534.6605
 30
0.0
 11
1152.299
 21
534.6605
 31
0.0
  0
LINE
  5
45A
  8
5
  6
CONTINUOUS
 10
1152.299
 20
308.6605
 30
0.0
 11
1152.299
 21
253.6605
 31
0.0
  0
LINE
  5
45B
  8
5
  6
CONTINUOUS
 10
1152.299
 20
534.6605
 30
0.0
 11
1152.299
 21
479.6605
 31
0.0
  0
LINE
  5
45C
  8
6
  6
CENTER
 10
338.0752
 20
1153.651
 30
0.0
 11
332.0752
 21
1153.651
 31
0.0
  0
LINE
  5
45D
  8
6
  6
CENTER
 10
335.0752
 20
1156.651
 30
0.0
 11
335.0752
 21
1150.651
 31
0.0
  0
LINE
  5
45E
  8
6
  6
CENTER
 10
339.5752
 20
1153.651
 30
0.0
 11
538.5752
 21
1153.651
 31
0.0
  0
LINE
  5
45F
  8
6
  6
CENTER
 10
335.0752
 20
1158.151
 30
0.0
 11
335.0752
 21
1357.151
 31
0.0
  0
LINE
  5
460
  8
6
  6
CENTER
 10
330.5752
 20
1153.651
 30
0.0
 11
131.5752
 21
1153.651
 31
0.0
  0
LINE
  5
461
  8
6
  6
CENTER
 10
335.0752
 20
1149.151
 30
0.0
 11
335.0752
 21
950.1512
 31
0.0
  0
LINE
  5
462
  8
5
  6
CONTINUOUS
 10
1152.299
 20
479.6605
 30
0.0
 11
1152.299
 21
308.6605
 31
0.0
  0
LINE
  5
463
  8
5
  6
CONTINUOUS
 10
681.2989
 20
366.6605
 30
0.0
 11
791.2989
 21
366.6605
 31
0.0
  0
LINE
  5
464
  8
5
  6
CONTINUOUS
 10
791.2989
 20
421.6606
 30
0.0
 11
681.2989
 21
421.6605
 31
0.0
  0
LINE
  5
465
  8
5
  6
CONTINUOUS
 10
800.2988
 20
424.1606
 30
0.0
 11
791.2989
 21
424.1605
 31
0.0
  0
LINE
  5
466
  8
5
  6
CONTINUOUS
 10
791.2989
 20
364.1605
 30
0.0
 11
800.2988
 21
364.1605
 31
0.0
  0
LINE
  5
467
  8
5
  6
CONTINUOUS
 10
1155.245
 20
198.1605
 30
0.0
 11
1207.907
 21
198.1605
 31
0.0
  0
LINE
  5
468
  8
5
  6
CONTINUOUS
 10
866.2989
 20
248.6606
 30
0.0
 11
866.2989
 21
539.6605
 31
0.0
  0
LINE
  5
469
  8
5
  6
CONTINUOUS
 10
866.2989
 20
539.6605
 30
0.0
 11
1157.299
 21
539.6605
 31
0.0
  0
LINE
  5
46A
  8
5
  6
CONTINUOUS
 10
1157.299
 20
539.6605
 30
0.0
 11
1157.299
 21
248.6606
 31
0.0
  0
LINE
  5
46B
  8
5
  6
CONTINUOUS
 10
1157.299
 20
248.6606
 30
0.0
 11
1155.245
 21
248.6605
 31
0.0
  0
LINE
  5
46C
  8
5
  6
CONTINUOUS
 10
868.3528
 20
248.6605
 30
0.0
 11
866.2989
 21
248.6606
 31
0.0
  0
LINE
  5
46D
  8
5
  6
CONTINUOUS
 10
872.2989
 20
253.4833
 30
0.0
 11
1151.299
 21
253.4833
 31
0.0
  0
LINE
  5
46E
  8
5
  6
CONTINUOUS
 10
872.2989
 20
197.6606
 30
0.0
 11
872.2989
 21
253.4833
 31
0.0
  0
LINE
  5
46F
  8
5
  6
CONTINUOUS
 10
1151.299
 20
197.6606
 30
0.0
 11
1151.299
 21
253.4833
 31
0.0
  0
LINE
  5
470
  8
5
  6
CONTINUOUS
 10
1155.245
 20
249.4762
 30
0.0
 11
1155.245
 21
197.6606
 31
0.0
  0
LINE
  5
471
  8
5
  6
CONTINUOUS
 10
868.3528
 20
249.4762
 30
0.0
 11
868.3528
 21
197.6606
 31
0.0
  0
LINE
  5
472
  8
5
  6
CONTINUOUS
 10
868.3528
 20
249.4762
 30
0.0
 11
872.2989
 21
253.4833
 31
0.0
  0
LINE
  5
473
  8
5
  6
CONTINUOUS
 10
1151.299
 20
253.4833
 30
0.0
 11
1155.245
 21
249.4762
 31
0.0
  0
LINE
  5
474
  8
5
  6
CONTINUOUS
 10
923.7909
 20
482.1604
 30
0.0
 11
923.7909
 21
306.1604
 31
0.0
  0
LINE
  5
475
  8
5
  6
CONTINUOUS
 10
923.7909
 20
306.1604
 30
0.0
 11
1099.807
 21
306.1604
 31
0.0
  0
LINE
  5
476
  8
5
  6
CONTINUOUS
 10
1099.807
 20
306.1604
 30
0.0
 11
1099.799
 21
482.1685
 31
0.0
  0
LINE
  5
477
  8
5
  6
CONTINUOUS
 10
1099.799
 20
482.1685
 30
0.0
 11
923.7909
 21
482.1604
 31
0.0
  0
LINE
  5
478
  8
5
  6
CONTINUOUS
 10
871.8373
 20
308.6605
 30
0.0
 11
871.8374
 21
306.1606
 31
0.0
  0
LINE
  5
479
  8
5
  6
CONTINUOUS
 10
871.8374
 20
306.1606
 30
0.0
 11
923.7909
 21
306.1604
 31
0.0
  0
LINE
  5
47A
  8
5
  6
CONTINUOUS
 10
923.7909
 20
482.1604
 30
0.0
 11
871.8374
 21
482.1604
 31
0.0
  0
LINE
  5
47B
  8
5
  6
CONTINUOUS
 10
871.8374
 20
482.1604
 30
0.0
 11
871.8373
 21
479.6605
 31
0.0
  0
LINE
  5
47C
  8
5
  6
CONTINUOUS
 10
926.2989
 20
534.1221
 30
0.0
 11
923.799
 21
534.122
 31
0.0
  0
LINE
  5
47D
  8
5
  6
CONTINUOUS
 10
923.799
 20
534.122
 30
0.0
 11
923.7909
 21
482.1604
 31
0.0
  0
LINE
  5
47E
  8
5
  6
CONTINUOUS
 10
1099.799
 20
482.1685
 30
0.0
 11
1099.799
 21
534.122
 31
0.0
  0
LINE
  5
47F
  8
5
  6
CONTINUOUS
 10
1099.799
 20
534.122
 30
0.0
 11
1097.299
 21
534.1221
 31
0.0
  0
LINE
  5
480
  8
5
  6
CONTINUOUS
 10
923.799
 20
534.122
 30
0.0
 11
871.8374
 21
482.1604
 31
0.0
  0
LINE
  5
481
  8
5
  6
CONTINUOUS
 10
1151.76
 20
479.6605
 30
0.0
 11
1151.76
 21
482.1604
 31
0.0
  0
LINE
  5
482
  8
5
  6
CONTINUOUS
 10
1151.76
 20
482.1604
 30
0.0
 11
1099.799
 21
482.1685
 31
0.0
  0
LINE
  5
483
  8
5
  6
CONTINUOUS
 10
1099.807
 20
306.1604
 30
0.0
 11
1151.76
 21
306.1606
 31
0.0
  0
LINE
  5
484
  8
5
  6
CONTINUOUS
 10
1151.76
 20
306.1606
 30
0.0
 11
1151.76
 21
308.6605
 31
0.0
  0
LINE
  5
485
  8
5
  6
CONTINUOUS
 10
1151.76
 20
482.1604
 30
0.0
 11
1099.799
 21
534.122
 31
0.0
  0
LINE
  5
486
  8
5
  6
CONTINUOUS
 10
1097.299
 20
254.199
 30
0.0
 11
1099.799
 21
254.199
 31
0.0
  0
LINE
  5
487
  8
5
  6
CONTINUOUS
 10
1099.799
 20
254.199
 30
0.0
 11
1099.807
 21
306.1604
 31
0.0
  0
LINE
  5
488
  8
5
  6
CONTINUOUS
 10
923.7909
 20
306.1604
 30
0.0
 11
923.799
 21
254.199
 31
0.0
  0
LINE
  5
489
  8
5
  6
CONTINUOUS
 10
923.799
 20
254.199
 30
0.0
 11
926.2989
 21
254.199
 31
0.0
  0
LINE
  5
48A
  8
5
  6
CONTINUOUS
 10
871.8374
 20
306.1606
 30
0.0
 11
923.799
 21
254.199
 31
0.0
  0
LINE
  5
48B
  8
5
  6
CONTINUOUS
 10
1099.799
 20
254.199
 30
0.0
 11
1151.76
 21
306.1606
 31
0.0
  0
LINE
  5
48C
  8
5
  6
CONTINUOUS
 10
1157.299
 20
248.6606
 30
0.0
 11
1152.299
 21
253.6606
 31
0.0
  0
LINE
  5
48D
  8
5
  6
CONTINUOUS
 10
871.2989
 20
253.6606
 30
0.0
 11
866.2989
 21
248.6606
 31
0.0
  0
LINE
  5
48E
  8
5
  6
CONTINUOUS
 10
1152.299
 20
534.6605
 30
0.0
 11
1157.299
 21
539.6605
 31
0.0
  0
LINE
  5
48F
  8
5
  6
CONTINUOUS
 10
866.2989
 20
539.6605
 30
0.0
 11
871.2989
 21
534.6605
 31
0.0
  0
LINE
  5
490
  8
5
  6
CONTINUOUS
 10
1046.034
 20
1313.591
 30
0.0
 11
1046.033
 21
1333.14
 31
0.0
  0
LINE
  5
491
  8
5
  6
CONTINUOUS
 10
1035.7
 20
1313.59
 30
0.0
 11
1046.034
 21
1313.591
 31
0.0
  0
LINE
  5
492
  8
5
  6
CONTINUOUS
 10
1035.699
 20
1333.14
 30
0.0
 11
1035.7
 21
1313.59
 31
0.0
  0
LINE
  5
493
  8
5
  6
CONTINUOUS
 10
1035.699
 20
1333.14
 30
0.0
 11
1046.033
 21
1333.14
 31
0.0
  0
LINE
  5
494
  8
5
  6
CONTINUOUS
 10
1058.541
 20
1333.141
 30
0.0
 11
1047.608
 21
1333.14
 31
0.0
  0
ARC
  5
495
  8
5
  6
CONTINUOUS
 10
1049.721
 20
1324.108
 30
0.0
 40
12.62499
 50
2.745839
 51
45.68309
  0
ARC
  5
496
  8
5
  6
CONTINUOUS
 10
1051.21
 20
1324.712
 30
0.0
 40
11.12137
 50
270.0019
 51
0.0019
  0
LINE
  5
497
  8
5
  6
CONTINUOUS
 10
1047.609
 20
1313.591
 30
0.0
 11
1051.21
 21
1313.591
 31
0.0
  0
LINE
  5
498
  8
5
  6
CONTINUOUS
 10
1047.608
 20
1333.14
 30
0.0
 11
1047.609
 21
1313.591
 31
0.0
  0
LINE
  5
499
  8
5
  6
CONTINUOUS
 10
1047.607
 20
1353.388
 30
0.0
 11
1047.608
 21
1334.715
 31
0.0
  0
LINE
  5
49A
  8
5
  6
CONTINUOUS
 10
1051.209
 20
1353.388
 30
0.0
 11
1047.607
 21
1353.388
 31
0.0
  0
ARC
  5
49B
  8
5
  6
CONTINUOUS
 10
1051.209
 20
1345.559
 30
0.0
 40
7.829616
 50
0.001947
 51
90.00195
  0
ARC
  5
49C
  8
5
  6
CONTINUOUS
 10
1048.936
 20
1346.495
 30
0.0
 40
10.14607
 50
283.5581
 51
354.7072
  0
ARC
  5
49D
  8
5
  6
CONTINUOUS
 10
1049.721
 20
1324.108
 30
0.0
 40
12.62499
 50
57.16491
 51
82.74766
  0
LINE
  5
49E
  8
5
  6
CONTINUOUS
 10
1047.608
 20
1334.715
 30
0.0
 11
1056.566
 21
1334.716
 31
0.0
  0
LINE
  5
49F
  8
5
  6
CONTINUOUS
 10
1035.699
 20
1353.388
 30
0.0
 11
1035.699
 21
1334.715
 31
0.0
  0
LINE
  5
4A0
  8
5
  6
CONTINUOUS
 10
1046.032
 20
1353.388
 30
0.0
 11
1035.699
 21
1353.388
 31
0.0
  0
LINE
  5
4A1
  8
5
  6
CONTINUOUS
 10
1046.033
 20
1334.715
 30
0.0
 11
1046.032
 21
1353.388
 31
0.0
  0
LINE
  5
4A2
  8
5
  6
CONTINUOUS
 10
1035.699
 20
1334.715
 30
0.0
 11
1046.033
 21
1334.715
 31
0.0
  0
LINE
  5
4A3
  8
5
  6
CONTINUOUS
 10
1013.373
 20
1353.387
 30
0.0
 11
1013.374
 21
1334.714
 31
0.0
  0
LINE
  5
4A4
  8
5
  6
CONTINUOUS
 10
1016.975
 20
1353.387
 30
0.0
 11
1013.373
 21
1353.387
 31
0.0
  0
ARC
  5
4A5
  8
5
  6
CONTINUOUS
 10
1016.975
 20
1345.558
 30
0.0
 40
7.829616
 50
0.001947
 51
90.00195
  0
ARC
  5
4A6
  8
5
  6
CONTINUOUS
 10
1014.702
 20
1346.494
 30
0.0
 40
10.14607
 50
283.5581
 51
354.7072
  0
ARC
  5
4A7
  8
5
  6
CONTINUOUS
 10
1015.487
 20
1324.106
 30
0.0
 40
12.62499
 50
57.16493
 51
82.74766
  0
LINE
  5
4A8
  8
5
  6
CONTINUOUS
 10
1013.374
 20
1334.714
 30
0.0
 11
1022.332
 21
1334.714
 31
0.0
  0
ARC
  5
4A9
  8
5
  6
CONTINUOUS
 10
1015.487
 20
1324.106
 30
0.0
 40
12.62499
 50
2.745839
 51
45.68318
  0
ARC
  5
4AA
  8
5
  6
CONTINUOUS
 10
1016.976
 20
1324.711
 30
0.0
 40
11.12137
 50
270.0019
 51
0.0019
  0
LINE
  5
4AB
  8
5
  6
CONTINUOUS
 10
1013.375
 20
1313.59
 30
0.0
 11
1016.976
 21
1313.59
 31
0.0
  0
LINE
  5
4AC
  8
5
  6
CONTINUOUS
 10
1013.374
 20
1333.139
 30
0.0
 11
1013.375
 21
1313.59
 31
0.0
  0
LINE
  5
4AD
  8
5
  6
CONTINUOUS
 10
1024.307
 20
1333.14
 30
0.0
 11
1013.374
 21
1333.139
 31
0.0
  0
LINE
  5
4AE
  8
5
  6
CONTINUOUS
 10
1011.8
 20
1313.589
 30
0.0
 11
1011.799
 21
1333.139
 31
0.0
  0
LINE
  5
4AF
  8
5
  6
CONTINUOUS
 10
1001.466
 20
1313.589
 30
0.0
 11
1011.8
 21
1313.589
 31
0.0
  0
LINE
  5
4B0
  8
5
  6
CONTINUOUS
 10
1001.465
 20
1333.139
 30
0.0
 11
1001.466
 21
1313.589
 31
0.0
  0
LINE
  5
4B1
  8
5
  6
CONTINUOUS
 10
1011.799
 20
1333.139
 30
0.0
 11
1001.465
 21
1333.139
 31
0.0
  0
LINE
  5
4B2
  8
5
  6
CONTINUOUS
 10
1011.799
 20
1334.714
 30
0.0
 11
1011.798
 21
1353.387
 31
0.0
  0
LINE
  5
4B3
  8
5
  6
CONTINUOUS
 10
1001.465
 20
1334.714
 30
0.0
 11
1011.799
 21
1334.714
 31
0.0
  0
LINE
  5
4B4
  8
5
  6
CONTINUOUS
 10
1001.464
 20
1353.387
 30
0.0
 11
1001.465
 21
1334.714
 31
0.0
  0
LINE
  5
4B5
  8
5
  6
CONTINUOUS
 10
1011.798
 20
1353.387
 30
0.0
 11
1001.464
 21
1353.387
 31
0.0
  0
LINE
  5
4B6
  8
5
  6
CONTINUOUS
 10
993.7499
 20
1313.589
 30
0.0
 11
986.7711
 21
1333.138
 31
0.0
  0
LINE
  5
4B7
  8
5
  6
CONTINUOUS
 10
986.6247
 20
1313.589
 30
0.0
 11
993.7499
 21
1313.589
 31
0.0
  0
LINE
  5
4B8
  8
5
  6
CONTINUOUS
 10
983.7446
 20
1321.656
 30
0.0
 11
986.6247
 21
1313.589
 31
0.0
  0
LINE
  5
4B9
  8
5
  6
CONTINUOUS
 10
975.1995
 20
1321.656
 30
0.0
 11
983.7446
 21
1321.656
 31
0.0
  0
LINE
  5
4BA
  8
5
  6
CONTINUOUS
 10
975.1991
 20
1333.138
 30
0.0
 11
975.1995
 21
1321.656
 31
0.0
  0
LINE
  5
4BB
  8
5
  6
CONTINUOUS
 10
986.7711
 20
1333.138
 30
0.0
 11
975.1991
 21
1333.138
 31
0.0
  0
LINE
  5
4BC
  8
5
  6
CONTINUOUS
 10
975.1984
 20
1353.386
 30
0.0
 11
975.199
 21
1334.713
 31
0.0
  0
LINE
  5
4BD
  8
5
  6
CONTINUOUS
 10
979.5431
 20
1353.386
 30
0.0
 11
975.1984
 21
1353.386
 31
0.0
  0
LINE
  5
4BE
  8
5
  6
CONTINUOUS
 10
986.2089
 20
1334.713
 30
0.0
 11
979.5431
 21
1353.386
 31
0.0
  0
LINE
  5
4BF
  8
5
  6
CONTINUOUS
 10
975.199
 20
1334.713
 30
0.0
 11
986.2089
 21
1334.713
 31
0.0
  0
LINE
  5
4C0
  8
5
  6
CONTINUOUS
 10
965.0415
 20
1321.656
 30
0.0
 11
973.6244
 21
1321.656
 31
0.0
  0
LINE
  5
4C1
  8
5
  6
CONTINUOUS
 10
962.2738
 20
1313.588
 30
0.0
 11
965.0415
 21
1321.656
 31
0.0
  0
LINE
  5
4C2
  8
5
  6
CONTINUOUS
 10
955.6266
 20
1313.587
 30
0.0
 11
962.2738
 21
1313.588
 31
0.0
  0
LINE
  5
4C3
  8
5
  6
CONTINUOUS
 10
962.333
 20
1333.137
 30
0.0
 11
955.6266
 21
1313.587
 31
0.0
  0
LINE
  5
4C4
  8
5
  6
CONTINUOUS
 10
973.6241
 20
1333.138
 30
0.0
 11
962.333
 21
1333.137
 31
0.0
  0
LINE
  5
4C5
  8
5
  6
CONTINUOUS
 10
973.6244
 20
1321.656
 30
0.0
 11
973.6241
 21
1333.138
 31
0.0
  0
LINE
  5
4C6
  8
5
  6
CONTINUOUS
 10
973.6234
 20
1353.386
 30
0.0
 11
969.2788
 21
1353.386
 31
0.0
  0
LINE
  5
4C7
  8
5
  6
CONTINUOUS
 10
973.6241
 20
1334.713
 30
0.0
 11
973.6234
 21
1353.386
 31
0.0
  0
LINE
  5
4C8
  8
5
  6
CONTINUOUS
 10
962.8733
 20
1334.713
 30
0.0
 11
973.6241
 21
1334.713
 31
0.0
  0
LINE
  5
4C9
  8
5
  6
CONTINUOUS
 10
969.2788
 20
1353.386
 30
0.0
 11
962.8733
 21
1334.713
 31
0.0
  0
LINE
  5
4CA
  8
5
  6
CONTINUOUS
 10
440.4824
 20
1170.904
 30
0.0
 11
440.4816
 21
1190.454
 31
0.0
  0
LINE
  5
4CB
  8
5
  6
CONTINUOUS
 10
430.1484
 20
1170.904
 30
0.0
 11
440.4824
 21
1170.904
 31
0.0
  0
LINE
  5
4CC
  8
5
  6
CONTINUOUS
 10
430.1478
 20
1190.454
 30
0.0
 11
430.1484
 21
1170.904
 31
0.0
  0
LINE
  5
4CD
  8
5
  6
CONTINUOUS
 10
430.1478
 20
1190.454
 30
0.0
 11
440.4816
 21
1190.454
 31
0.0
  0
LINE
  5
4CE
  8
5
  6
CONTINUOUS
 10
452.9895
 20
1190.454
 30
0.0
 11
442.0566
 21
1190.454
 31
0.0
  0
ARC
  5
4CF
  8
5
  6
CONTINUOUS
 10
444.1694
 20
1181.421
 30
0.0
 40
12.62499
 50
2.745839
 51
45.68309
  0
ARC
  5
4D0
  8
5
  6
CONTINUOUS
 10
445.6585
 20
1182.026
 30
0.0
 40
11.12137
 50
270.0019
 51
0.0019
  0
LINE
  5
4D1
  8
5
  6
CONTINUOUS
 10
442.0574
 20
1170.904
 30
0.0
 11
445.6589
 21
1170.904
 31
0.0
  0
LINE
  5
4D2
  8
5
  6
CONTINUOUS
 10
442.0566
 20
1190.454
 30
0.0
 11
442.0574
 21
1170.904
 31
0.0
  0
LINE
  5
4D3
  8
5
  6
CONTINUOUS
 10
442.056
 20
1210.702
 30
0.0
 11
442.0566
 21
1192.029
 31
0.0
  0
LINE
  5
4D4
  8
5
  6
CONTINUOUS
 10
445.6575
 20
1210.702
 30
0.0
 11
442.056
 21
1210.702
 31
0.0
  0
ARC
  5
4D5
  8
5
  6
CONTINUOUS
 10
445.6578
 20
1202.872
 30
0.0
 40
7.829616
 50
0.001947
 51
90.00195
  0
ARC
  5
4D6
  8
5
  6
CONTINUOUS
 10
443.3846
 20
1203.809
 30
0.0
 40
10.14607
 50
283.5581
 51
354.7072
  0
ARC
  5
4D7
  8
5
  6
CONTINUOUS
 10
444.1694
 20
1181.421
 30
0.0
 40
12.62499
 50
57.16491
 51
82.74766
  0
LINE
  5
4D8
  8
5
  6
CONTINUOUS
 10
442.0566
 20
1192.029
 30
0.0
 11
451.0149
 21
1192.029
 31
0.0
  0
LINE
  5
4D9
  8
5
  6
CONTINUOUS
 10
430.1472
 20
1210.702
 30
0.0
 11
430.1478
 21
1192.029
 31
0.0
  0
LINE
  5
4DA
  8
5
  6
CONTINUOUS
 10
440.481
 20
1210.702
 30
0.0
 11
430.1472
 21
1210.702
 31
0.0
  0
LINE
  5
4DB
  8
5
  6
CONTINUOUS
 10
440.4816
 20
1192.029
 30
0.0
 11
440.481
 21
1210.702
 31
0.0
  0
LINE
  5
4DC
  8
5
  6
CONTINUOUS
 10
430.1478
 20
1192.029
 30
0.0
 11
440.4816
 21
1192.029
 31
0.0
  0
LINE
  5
4DD
  8
5
  6
CONTINUOUS
 10
407.8218
 20
1210.701
 30
0.0
 11
407.8225
 21
1192.028
 31
0.0
  0
LINE
  5
4DE
  8
5
  6
CONTINUOUS
 10
411.4233
 20
1210.701
 30
0.0
 11
407.8218
 21
1210.701
 31
0.0
  0
ARC
  5
4DF
  8
5
  6
CONTINUOUS
 10
411.4236
 20
1202.871
 30
0.0
 40
7.829616
 50
0.001947
 51
90.00195
  0
ARC
  5
4E0
  8
5
  6
CONTINUOUS
 10
409.1504
 20
1203.808
 30
0.0
 40
10.14607
 50
283.5581
 51
354.7072
  0
ARC
  5
4E1
  8
5
  6
CONTINUOUS
 10
409.9352
 20
1181.42
 30
0.0
 40
12.62499
 50
57.16493
 51
82.74766
  0
LINE
  5
4E2
  8
5
  6
CONTINUOUS
 10
407.8225
 20
1192.028
 30
0.0
 11
416.7807
 21
1192.028
 31
0.0
  0
ARC
  5
4E3
  8
5
  6
CONTINUOUS
 10
409.9352
 20
1181.42
 30
0.0
 40
12.62499
 50
2.745839
 51
45.68318
  0
ARC
  5
4E4
  8
5
  6
CONTINUOUS
 10
411.4243
 20
1182.025
 30
0.0
 40
11.12137
 50
270.0019
 51
0.0019
  0
LINE
  5
4E5
  8
5
  6
CONTINUOUS
 10
407.8231
 20
1170.903
 30
0.0
 11
411.4247
 21
1170.903
 31
0.0
  0
LINE
  5
4E6
  8
5
  6
CONTINUOUS
 10
407.8225
 20
1190.453
 30
0.0
 11
407.8231
 21
1170.903
 31
0.0
  0
LINE
  5
4E7
  8
5
  6
CONTINUOUS
 10
418.7553
 20
1190.453
 30
0.0
 11
407.8225
 21
1190.453
 31
0.0
  0
LINE
  5
4E8
  8
5
  6
CONTINUOUS
 10
406.2482
 20
1170.903
 30
0.0
 11
406.2474
 21
1190.453
 31
0.0
  0
LINE
  5
4E9
  8
5
  6
CONTINUOUS
 10
395.9143
 20
1170.903
 30
0.0
 11
406.2482
 21
1170.903
 31
0.0
  0
LINE
  5
4EA
  8
5
  6
CONTINUOUS
 10
395.9136
 20
1190.452
 30
0.0
 11
395.9143
 21
1170.903
 31
0.0
  0
LINE
  5
4EB
  8
5
  6
CONTINUOUS
 10
406.2474
 20
1190.453
 30
0.0
 11
395.9136
 21
1190.452
 31
0.0
  0
LINE
  5
4EC
  8
5
  6
CONTINUOUS
 10
406.2474
 20
1192.028
 30
0.0
 11
406.2468
 21
1210.701
 31
0.0
  0
LINE
  5
4ED
  8
5
  6
CONTINUOUS
 10
395.9136
 20
1192.027
 30
0.0
 11
406.2474
 21
1192.028
 31
0.0
  0
LINE
  5
4EE
  8
5
  6
CONTINUOUS
 10
395.9129
 20
1210.7
 30
0.0
 11
395.9136
 21
1192.027
 31
0.0
  0
LINE
  5
4EF
  8
5
  6
CONTINUOUS
 10
406.2468
 20
1210.701
 30
0.0
 11
395.9129
 21
1210.7
 31
0.0
  0
LINE
  5
4F0
  8
5
  6
CONTINUOUS
 10
388.1985
 20
1170.902
 30
0.0
 11
381.2197
 21
1190.452
 31
0.0
  0
LINE
  5
4F1
  8
5
  6
CONTINUOUS
 10
381.0733
 20
1170.902
 30
0.0
 11
388.1985
 21
1170.902
 31
0.0
  0
LINE
  5
4F2
  8
5
  6
CONTINUOUS
 10
378.1932
 20
1178.97
 30
0.0
 11
381.0733
 21
1170.902
 31
0.0
  0
LINE
  5
4F3
  8
5
  6
CONTINUOUS
 10
369.648
 20
1178.97
 30
0.0
 11
378.1932
 21
1178.97
 31
0.0
  0
LINE
  5
4F4
  8
5
  6
CONTINUOUS
 10
369.6477
 20
1190.451
 30
0.0
 11
369.648
 21
1178.97
 31
0.0
  0
LINE
  5
4F5
  8
5
  6
CONTINUOUS
 10
381.2197
 20
1190.452
 30
0.0
 11
369.6477
 21
1190.451
 31
0.0
  0
LINE
  5
4F6
  8
5
  6
CONTINUOUS
 10
369.6469
 20
1210.7
 30
0.0
 11
369.6476
 21
1192.027
 31
0.0
  0
LINE
  5
4F7
  8
5
  6
CONTINUOUS
 10
373.9916
 20
1210.7
 30
0.0
 11
369.6469
 21
1210.7
 31
0.0
  0
LINE
  5
4F8
  8
5
  6
CONTINUOUS
 10
380.6575
 20
1192.027
 30
0.0
 11
373.9916
 21
1210.7
 31
0.0
  0
LINE
  5
4F9
  8
5
  6
CONTINUOUS
 10
369.6476
 20
1192.027
 30
0.0
 11
380.6575
 21
1192.027
 31
0.0
  0
LINE
  5
4FA
  8
5
  6
CONTINUOUS
 10
359.49
 20
1178.97
 30
0.0
 11
368.073
 21
1178.97
 31
0.0
  0
LINE
  5
4FB
  8
5
  6
CONTINUOUS
 10
356.7224
 20
1170.901
 30
0.0
 11
359.49
 21
1178.97
 31
0.0
  0
LINE
  5
4FC
  8
5
  6
CONTINUOUS
 10
350.0752
 20
1170.901
 30
0.0
 11
356.7224
 21
1170.901
 31
0.0
  0
LINE
  5
4FD
  8
5
  6
CONTINUOUS
 10
356.7816
 20
1190.451
 30
0.0
 11
350.0752
 21
1170.901
 31
0.0
  0
LINE
  5
4FE
  8
5
  6
CONTINUOUS
 10
368.0727
 20
1190.451
 30
0.0
 11
356.7816
 21
1190.451
 31
0.0
  0
LINE
  5
4FF
  8
5
  6
CONTINUOUS
 10
368.073
 20
1178.97
 30
0.0
 11
368.0727
 21
1190.451
 31
0.0
  0
LINE
  5
500
  8
5
  6
CONTINUOUS
 10
368.072
 20
1210.699
 30
0.0
 11
363.7274
 21
1210.699
 31
0.0
  0
LINE
  5
501
  8
5
  6
CONTINUOUS
 10
368.0727
 20
1192.027
 30
0.0
 11
368.072
 21
1210.699
 31
0.0
  0
LINE
  5
502
  8
5
  6
CONTINUOUS
 10
357.3218
 20
1192.026
 30
0.0
 11
368.0727
 21
1192.027
 31
0.0
  0
LINE
  5
503
  8
5
  6
CONTINUOUS
 10
363.7274
 20
1210.699
 30
0.0
 11
357.3218
 21
1192.026
 31
0.0
  0
LINE
  5
504
  8
5
  6
CONTINUOUS
 10
1975.728
 20
1468.99
 30
0.0
 11
1975.728
 21
1483.652
 31
0.0
  0
LINE
  5
505
  8
5
  6
CONTINUOUS
 10
1967.978
 20
1468.99
 30
0.0
 11
1975.728
 21
1468.99
 31
0.0
  0
LINE
  5
506
  8
5
  6
CONTINUOUS
 10
1967.977
 20
1483.652
 30
0.0
 11
1967.978
 21
1468.99
 31
0.0
  0
LINE
  5
507
  8
5
  6
CONTINUOUS
 10
1967.977
 20
1483.652
 30
0.0
 11
1975.728
 21
1483.652
 31
0.0
  0
LINE
  5
508
  8
5
  6
CONTINUOUS
 10
1985.109
 20
1483.652
 30
0.0
 11
1976.909
 21
1483.652
 31
0.0
  0
ARC
  5
509
  8
5
  6
CONTINUOUS
 10
1978.493
 20
1476.878
 30
0.0
 40
9.468742
 50
2.745839
 51
45.68309
  0
ARC
  5
50A
  8
5
  6
CONTINUOUS
 10
1979.61
 20
1477.331
 30
0.0
 40
8.341025
 50
270.0019
 51
0.0019
  0
LINE
  5
50B
  8
5
  6
CONTINUOUS
 10
1976.909
 20
1468.99
 30
0.0
 11
1979.611
 21
1468.99
 31
0.0
  0
LINE
  5
50C
  8
5
  6
CONTINUOUS
 10
1976.909
 20
1483.652
 30
0.0
 11
1976.909
 21
1468.99
 31
0.0
  0
LINE
  5
50D
  8
5
  6
CONTINUOUS
 10
1976.908
 20
1498.838
 30
0.0
 11
1976.909
 21
1484.833
 31
0.0
  0
LINE
  5
50E
  8
5
  6
CONTINUOUS
 10
1979.61
 20
1498.838
 30
0.0
 11
1976.908
 21
1498.838
 31
0.0
  0
ARC
  5
50F
  8
5
  6
CONTINUOUS
 10
1979.61
 20
1492.966
 30
0.0
 40
5.872212
 50
0.001947
 51
90.00195
  0
ARC
  5
510
  8
5
  6
CONTINUOUS
 10
1977.905
 20
1493.668
 30
0.0
 40
7.609554
 50
283.5581
 51
354.7072
  0
ARC
  5
511
  8
5
  6
CONTINUOUS
 10
1978.493
 20
1476.878
 30
0.0
 40
9.468742
 50
57.16491
 51
82.74766
  0
LINE
  5
512
  8
5
  6
CONTINUOUS
 10
1976.909
 20
1484.833
 30
0.0
 11
1983.628
 21
1484.834
 31
0.0
  0
LINE
  5
513
  8
5
  6
CONTINUOUS
 10
1967.977
 20
1498.838
 30
0.0
 11
1967.977
 21
1484.833
 31
0.0
  0
LINE
  5
514
  8
5
  6
CONTINUOUS
 10
1975.727
 20
1498.838
 30
0.0
 11
1967.977
 21
1498.838
 31
0.0
  0
LINE
  5
515
  8
5
  6
CONTINUOUS
 10
1975.728
 20
1484.833
 30
0.0
 11
1975.727
 21
1498.838
 31
0.0
  0
LINE
  5
516
  8
5
  6
CONTINUOUS
 10
1967.977
 20
1484.833
 30
0.0
 11
1975.728
 21
1484.833
 31
0.0
  0
LINE
  5
517
  8
5
  6
CONTINUOUS
 10
1951.233
 20
1498.837
 30
0.0
 11
1951.233
 21
1484.832
 31
0.0
  0
LINE
  5
518
  8
5
  6
CONTINUOUS
 10
1953.934
 20
1498.837
 30
0.0
 11
1951.233
 21
1498.837
 31
0.0
  0
ARC
  5
519
  8
5
  6
CONTINUOUS
 10
1953.934
 20
1492.965
 30
0.0
 40
5.872212
 50
0.001947
 51
90.00195
  0
ARC
  5
51A
  8
5
  6
CONTINUOUS
 10
1952.229
 20
1493.667
 30
0.0
 40
7.609554
 50
283.5581
 51
354.7072
  0
ARC
  5
51B
  8
5
  6
CONTINUOUS
 10
1952.818
 20
1476.877
 30
0.0
 40
9.468742
 50
57.16493
 51
82.74766
  0
LINE
  5
51C
  8
5
  6
CONTINUOUS
 10
1951.233
 20
1484.832
 30
0.0
 11
1957.952
 21
1484.833
 31
0.0
  0
ARC
  5
51D
  8
5
  6
CONTINUOUS
 10
1952.818
 20
1476.877
 30
0.0
 40
9.468742
 50
2.745839
 51
45.68318
  0
ARC
  5
51E
  8
5
  6
CONTINUOUS
 10
1953.935
 20
1477.33
 30
0.0
 40
8.341025
 50
270.0019
 51
0.0019
  0
LINE
  5
51F
  8
5
  6
CONTINUOUS
 10
1951.234
 20
1468.989
 30
0.0
 11
1953.935
 21
1468.989
 31
0.0
  0
LINE
  5
520
  8
5
  6
CONTINUOUS
 10
1951.233
 20
1483.651
 30
0.0
 11
1951.234
 21
1468.989
 31
0.0
  0
LINE
  5
521
  8
5
  6
CONTINUOUS
 10
1959.433
 20
1483.652
 30
0.0
 11
1951.233
 21
1483.651
 31
0.0
  0
LINE
  5
522
  8
5
  6
CONTINUOUS
 10
1950.053
 20
1468.989
 30
0.0
 11
1950.052
 21
1483.651
 31
0.0
  0
LINE
  5
523
  8
5
  6
CONTINUOUS
 10
1942.302
 20
1468.989
 30
0.0
 11
1950.053
 21
1468.989
 31
0.0
  0
LINE
  5
524
  8
5
  6
CONTINUOUS
 10
1942.302
 20
1483.651
 30
0.0
 11
1942.302
 21
1468.989
 31
0.0
  0
LINE
  5
525
  8
5
  6
CONTINUOUS
 10
1950.052
 20
1483.651
 30
0.0
 11
1942.302
 21
1483.651
 31
0.0
  0
LINE
  5
526
  8
5
  6
CONTINUOUS
 10
1950.052
 20
1484.832
 30
0.0
 11
1950.052
 21
1498.837
 31
0.0
  0
LINE
  5
527
  8
5
  6
CONTINUOUS
 10
1942.302
 20
1484.832
 30
0.0
 11
1950.052
 21
1484.832
 31
0.0
  0
LINE
  5
528
  8
5
  6
CONTINUOUS
 10
1942.301
 20
1498.837
 30
0.0
 11
1942.302
 21
1484.832
 31
0.0
  0
LINE
  5
529
  8
5
  6
CONTINUOUS
 10
1950.052
 20
1498.837
 30
0.0
 11
1942.301
 21
1498.837
 31
0.0
  0
LINE
  5
52A
  8
5
  6
CONTINUOUS
 10
1936.515
 20
1468.988
 30
0.0
 11
1931.281
 21
1483.651
 31
0.0
  0
LINE
  5
52B
  8
5
  6
CONTINUOUS
 10
1931.171
 20
1468.988
 30
0.0
 11
1936.515
 21
1468.988
 31
0.0
  0
LINE
  5
52C
  8
5
  6
CONTINUOUS
 10
1929.011
 20
1475.039
 30
0.0
 11
1931.171
 21
1468.988
 31
0.0
  0
LINE
  5
52D
  8
5
  6
CONTINUOUS
 10
1922.602
 20
1475.039
 30
0.0
 11
1929.011
 21
1475.039
 31
0.0
  0
LINE
  5
52E
  8
5
  6
CONTINUOUS
 10
1922.602
 20
1483.65
 30
0.0
 11
1922.602
 21
1475.039
 31
0.0
  0
LINE
  5
52F
  8
5
  6
CONTINUOUS
 10
1931.281
 20
1483.651
 30
0.0
 11
1922.602
 21
1483.65
 31
0.0
  0
LINE
  5
530
  8
5
  6
CONTINUOUS
 10
1922.602
 20
1498.836
 30
0.0
 11
1922.602
 21
1484.832
 31
0.0
  0
LINE
  5
531
  8
5
  6
CONTINUOUS
 10
1925.86
 20
1498.836
 30
0.0
 11
1922.602
 21
1498.836
 31
0.0
  0
LINE
  5
532
  8
5
  6
CONTINUOUS
 10
1930.859
 20
1484.832
 30
0.0
 11
1925.86
 21
1498.836
 31
0.0
  0
LINE
  5
533
  8
5
  6
CONTINUOUS
 10
1922.602
 20
1484.832
 30
0.0
 11
1930.859
 21
1484.832
 31
0.0
  0
LINE
  5
534
  8
5
  6
CONTINUOUS
 10
1914.984
 20
1475.039
 30
0.0
 11
1921.421
 21
1475.039
 31
0.0
  0
LINE
  5
535
  8
5
  6
CONTINUOUS
 10
1912.908
 20
1468.988
 30
0.0
 11
1914.984
 21
1475.039
 31
0.0
  0
LINE
  5
536
  8
5
  6
CONTINUOUS
 10
1907.923
 20
1468.988
 30
0.0
 11
1912.908
 21
1468.988
 31
0.0
  0
LINE
  5
537
  8
5
  6
CONTINUOUS
 10
1912.953
 20
1483.65
 30
0.0
 11
1907.923
 21
1468.988
 31
0.0
  0
LINE
  5
538
  8
5
  6
CONTINUOUS
 10
1921.421
 20
1483.65
 30
0.0
 11
1912.953
 21
1483.65
 31
0.0
  0
LINE
  5
539
  8
5
  6
CONTINUOUS
 10
1921.421
 20
1475.039
 30
0.0
 11
1921.421
 21
1483.65
 31
0.0
  0
LINE
  5
53A
  8
5
  6
CONTINUOUS
 10
1921.42
 20
1498.836
 30
0.0
 11
1918.162
 21
1498.836
 31
0.0
  0
LINE
  5
53B
  8
5
  6
CONTINUOUS
 10
1921.421
 20
1484.832
 30
0.0
 11
1921.42
 21
1498.836
 31
0.0
  0
LINE
  5
53C
  8
5
  6
CONTINUOUS
 10
1913.358
 20
1484.831
 30
0.0
 11
1921.421
 21
1484.832
 31
0.0
  0
LINE
  5
53D
  8
5
  6
CONTINUOUS
 10
1918.162
 20
1498.836
 30
0.0
 11
1913.358
 21
1484.831
 31
0.0
  0
LINE
  5
541
  8
6
  6
CENTER
 10
2128.211
 20
958.6512
 30
0.0
 11
2128.211
 21
923.6512
 31
0.0
  0
LINE
  5
545
  8
7
  6
DASHED
 10
166.3252
 20
953.6512
 30
0.0
 11
166.3252
 21
928.6512
 31
0.0
  0
LINE
  5
546
  8
7
  6
DASHED
 10
147.8252
 20
953.6512
 30
0.0
 11
147.8252
 21
928.6512
 31
0.0
  0
LINE
  5
547
  8
6
  6
CENTER
 10
513.0752
 20
958.6512
 30
0.0
 11
513.0752
 21
923.6512
 31
0.0
  0
LINE
  5
548
  8
7
  6
DASHED
 10
503.8252
 20
953.6512
 30
0.0
 11
503.8252
 21
928.6512
 31
0.0
  0
LINE
  5
549
  8
7
  6
DASHED
 10
522.3252
 20
953.6512
 30
0.0
 11
522.3252
 21
928.6512
 31
0.0
  0
LINE
  5
54A
  8
5
  6
CENTER
 10
940.2989
 20
961.6512
 30
0.0
 11
940.2989
 21
920.8643
 31
0.0
  0
LINE
  5
54C
  8
7
  6
DASHED
 10
931.0489
 20
953.6512
 30
0.0
 11
931.0489
 21
928.6512
 31
0.0
  0
LINE
  5
54D
  8
7
  6
DASHED
 10
1235.549
 20
953.6512
 30
0.0
 11
1235.549
 21
928.6512
 31
0.0
  0
LINE
  5
54E
  8
5
  6
CENTER
 10
1226.299
 20
961.6512
 30
0.0
 11
1226.299
 21
920.8643
 31
0.0
  0
LINE
  5
54F
  8
7
  6
DASHED
 10
1217.049
 20
953.6512
 30
0.0
 11
1217.049
 21
928.6512
 31
0.0
  0
LINE
  5
550
  8
5
  6
CENTER
 10
1251.299
 20
961.6512
 30
0.0
 11
1251.299
 21
920.8643
 31
0.0
  0
LINE
  5
551
  8
7
  6
DASHED
 10
1260.549
 20
953.6512
 30
0.0
 11
1260.549
 21
928.6512
 31
0.0
  0
LINE
  5
552
  8
7
  6
DASHED
 10
1242.049
 20
953.6512
 30
0.0
 11
1242.049
 21
928.6512
 31
0.0
  0
LINE
  5
553
  8
6
  6
CENTER
 10
661.2989
 20
1153.651
 30
0.0
 11
1546.799
 21
1153.651
 31
0.0
  0
LINE
  5
554
  8
6
  6
CENTER
 10
661.2989
 20
394.1605
 30
0.0
 11
923.7909
 21
394.1605
 31
0.0
  0
LINE
  5
555
  8
5
  6
CENTER
 10
264.4864
 20
1136.401
 30
0.0
 11
264.4865
 21
1100.899
 31
0.0
  0
LINE
  5
556
  8
5
  6
CONTINUOUS
 10
264.4864
 20
1136.401
 30
0.0
 11
264.4865
 21
1100.899
 31
0.0
  0
LINE
  5
557
  8
5
  6
CENTER
 10
274.4864
 20
1136.401
 30
0.0
 11
274.4865
 21
1078.47
 31
0.0
  0
LINE
  5
558
  8
5
  6
CONTINUOUS
 10
274.4864
 20
1136.401
 30
0.0
 11
274.4865
 21
1078.838
 31
0.0
  0
LINE
  5
559
  8
5
  6
CENTER
 10
284.4864
 20
1136.401
 30
0.0
 11
284.4865
 21
1065.651
 31
0.0
  0
LINE
  5
55A
  8
5
  6
CONTINUOUS
 10
284.4864
 20
1136.401
 30
0.0
 11
284.4865
 21
1065.651
 31
0.0
  0
LINE
  5
55B
  8
5
  6
CENTER
 10
294.4864
 20
1136.401
 30
0.0
 11
294.4865
 21
1065.651
 31
0.0
  0
LINE
  5
55C
  8
5
  6
CONTINUOUS
 10
294.4864
 20
1136.401
 30
0.0
 11
294.4865
 21
1065.651
 31
0.0
  0
LINE
  5
55D
  8
5
  6
CENTER
 10
304.4864
 20
1136.401
 30
0.0
 11
304.4865
 21
1065.651
 31
0.0
  0
LINE
  5
55E
  8
5
  6
CONTINUOUS
 10
304.4864
 20
1136.401
 30
0.0
 11
304.4865
 21
1065.651
 31
0.0
  0
LINE
  5
55F
  8
5
  6
CENTER
 10
314.4864
 20
1136.401
 30
0.0
 11
314.4865
 21
1065.651
 31
0.0
  0
LINE
  5
560
  8
5
  6
CONTINUOUS
 10
314.4864
 20
1136.401
 30
0.0
 11
314.4865
 21
1065.651
 31
0.0
  0
LINE
  5
561
  8
5
  6
CONTINUOUS
 10
276.9898
 20
1076.427
 30
0.0
 11
324.6311
 21
1076.427
 31
0.0
  0
LINE
  5
562
  8
5
  6
CONTINUOUS
 10
277.4812
 20
1076.427
 30
0.0
 11
324.6311
 21
1076.427
 31
0.0
  0
LINE
  5
563
  8
5
  6
CONTINUOUS
 10
264.4865
 20
1086.427
 30
0.0
 11
324.6311
 21
1086.427
 31
0.0
  0
LINE
  5
564
  8
5
  6
CONTINUOUS
 10
264.4865
 20
1086.427
 30
0.0
 11
324.6311
 21
1086.427
 31
0.0
  0
LINE
  5
565
  8
5
  6
CONTINUOUS
 10
260.8635
 20
1096.427
 30
0.0
 11
324.6311
 21
1096.427
 31
0.0
  0
LINE
  5
566
  8
5
  6
CONTINUOUS
 10
264.8535
 20
1096.427
 30
0.0
 11
324.6311
 21
1096.427
 31
0.0
  0
LINE
  5
567
  8
5
  6
CONTINUOUS
 10
253.9947
 20
1106.427
 30
0.0
 11
324.6311
 21
1106.427
 31
0.0
  0
LINE
  5
568
  8
5
  6
CONTINUOUS
 10
254.7483
 20
1106.427
 30
0.0
 11
324.6311
 21
1106.427
 31
0.0
  0
LINE
  5
569
  8
5
  6
CONTINUOUS
 10
254.2459
 20
1116.427
 30
0.0
 11
324.6311
 21
1116.427
 31
0.0
  0
LINE
  5
56A
  8
5
  6
CONTINUOUS
 10
254.2459
 20
1116.427
 30
0.0
 11
324.6311
 21
1116.427
 31
0.0
  0
LINE
  5
56B
  8
5
  6
CONTINUOUS
 10
255.2508
 20
1126.427
 30
0.0
 11
324.6311
 21
1126.427
 31
0.0
  0
LINE
  5
56C
  8
5
  6
CONTINUOUS
 10
255.2508
 20
1126.427
 30
0.0
 11
324.6311
 21
1126.427
 31
0.0
  0
LINE
  5
56D
  8
5
  6
CONTINUOUS
 10
1321.299
 20
1039.751
 30
0.0
 11
1321.299
 21
1020.751
 31
0.0
  0
LINE
  5
56E
  8
5
  6
CONTINUOUS
 10
1321.299
 20
1268.351
 30
0.0
 11
1321.299
 21
1286.551
 31
0.0
  0
LINE
  5
56F
  8
5
  6
CONTINUOUS
 10
1321.299
 20
1039.751
 30
0.0
 11
1323.733
 21
1039.751
 31
0.0
  0
LINE
  5
570
  8
5
  6
CONTINUOUS
 10
891.2989
 20
1039.751
 30
0.0
 11
888.8649
 21
1039.751
 31
0.0
  0
LINE
  5
571
  8
5
  6
CONTINUOUS
 10
891.2989
 20
1039.751
 30
0.0
 11
891.2989
 21
1020.751
 31
0.0
  0
LINE
  5
572
  8
5
  6
CONTINUOUS
 10
891.2989
 20
1268.351
 30
0.0
 11
891.2989
 21
1286.551
 31
0.0
  0
LINE
  5
573
  8
5
  6
CONTINUOUS
 10
1321.299
 20
590.1605
 30
0.0
 11
1321.299
 21
609.1605
 31
0.0
  0
LINE
  5
574
  8
5
  6
CONTINUOUS
 10
1321.299
 20
590.1605
 30
0.0
 11
1323.733
 21
590.1605
 31
0.0
  0
LINE
  5
575
  8
5
  6
CONTINUOUS
 10
1321.299
 20
198.1606
 30
0.0
 11
1321.299
 21
179.1605
 31
0.0
  0
LINE
  5
576
  8
5
  6
CONTINUOUS
 10
1321.299
 20
198.1606
 30
0.0
 11
1323.733
 21
198.1606
 31
0.0
  0
LINE
  5
577
  8
5
  6
CONTINUOUS
 10
891.2988
 20
590.1605
 30
0.0
 11
891.2989
 21
609.1605
 31
0.0
  0
LINE
  5
578
  8
5
  6
CONTINUOUS
 10
891.2988
 20
590.1605
 30
0.0
 11
888.8649
 21
590.1605
 31
0.0
  0
LINE
  5
579
  8
5
  6
CONTINUOUS
 10
891.2988
 20
198.1606
 30
0.0
 11
891.2989
 21
179.1605
 31
0.0
  0
LINE
  5
57A
  8
5
  6
CONTINUOUS
 10
891.2988
 20
198.1606
 30
0.0
 11
888.8649
 21
198.1606
 31
0.0
  0
LINE
  5
57B
  8
5
  6
CONTINUOUS
 10
443.0753
 20
938.6512
 30
0.0
 11
440.5752
 21
941.1512
 31
0.0
  0
LINE
  5
57C
  8
5
  6
CONTINUOUS
 10
227.0752
 20
938.6512
 30
0.0
 11
229.5753
 21
941.1512
 31
0.0
  0
LINE
  5
57D
  8
5
  6
CONTINUOUS
 10
425.0752
 20
938.6512
 30
0.0
 11
425.0752
 21
941.1512
 31
0.0
  0
LINE
  5
57E
  8
5
  6
CONTINUOUS
 10
410.0752
 20
941.1512
 30
0.0
 11
410.0752
 21
938.6512
 31
0.0
  0
LINE
  5
57F
  8
5
  6
CONTINUOUS
 10
245.0753
 20
938.6512
 30
0.0
 11
245.0752
 21
941.1512
 31
0.0
  0
LINE
  5
580
  8
5
  6
CONTINUOUS
 10
260.0753
 20
938.6512
 30
0.0
 11
260.0752
 21
941.1512
 31
0.0
  0
LINE
  5
581
  8
5
  6
CONTINUOUS
 10
320.0752
 20
941.1512
 30
0.0
 11
320.0752
 21
938.6512
 31
0.0
  0
LINE
  5
582
  8
5
  6
CONTINUOUS
 10
335.0752
 20
938.6512
 30
0.0
 11
335.0752
 21
941.1512
 31
0.0
  0
LINE
  5
583
  8
5
  6
CONTINUOUS
 10
290.0752
 20
941.1512
 30
0.0
 11
290.0753
 21
938.6512
 31
0.0
  0
LINE
  5
584
  8
5
  6
CONTINUOUS
 10
305.0753
 20
938.6512
 30
0.0
 11
305.0752
 21
941.1512
 31
0.0
  0
LINE
  5
585
  8
5
  6
CONTINUOUS
 10
275.0753
 20
938.6512
 30
0.0
 11
275.0752
 21
941.1512
 31
0.0
  0
LINE
  5
586
  8
5
  6
CONTINUOUS
 10
350.0752
 20
941.1512
 30
0.0
 11
350.0752
 21
938.6512
 31
0.0
  0
LINE
  5
587
  8
5
  6
CONTINUOUS
 10
365.0752
 20
938.6512
 30
0.0
 11
365.0752
 21
941.1512
 31
0.0
  0
LINE
  5
588
  8
5
  6
CONTINUOUS
 10
380.0752
 20
941.1512
 30
0.0
 11
380.0752
 21
938.6512
 31
0.0
  0
LINE
  5
589
  8
5
  6
CONTINUOUS
 10
395.0752
 20
938.6512
 30
0.0
 11
395.0752
 21
941.1512
 31
0.0
  0
LINE
  5
58A
  8
5
  6
CONTINUOUS
 10
109.0752
 20
1053.551
 30
0.0
 11
120.0753
 21
1053.551
 31
0.0
  0
LINE
  5
58B
  8
5
  6
CONTINUOUS
 10
120.0753
 20
1056.551
 30
0.0
 11
109.0752
 21
1056.551
 31
0.0
  0
LINE
  5
58C
  8
5
  6
CONTINUOUS
 10
1285.799
 20
953.6512
 30
0.0
 11
1285.799
 21
1002.723
 31
0.0
  0
LINE
  5
58D
  8
5
  6
CONTINUOUS
 10
926.7989
 20
1002.723
 30
0.0
 11
926.7989
 21
953.6512
 31
0.0
  0
LINE
  5
58E
  8
5
  6
CONTINUOUS
 10
1320.799
 20
938.6512
 30
0.0
 11
1323.105
 21
956.6512
 31
0.0
  0
LINE
  5
58F
  8
5
  6
CONTINUOUS
 10
1323.105
 20
956.6512
 30
0.0
 11
1325.026
 21
971.6512
 31
0.0
  0
LINE
  5
590
  8
5
  6
CONTINUOUS
 10
1325.026
 20
971.6512
 30
0.0
 11
1325.503
 21
975.3724
 31
0.0
  0
LINE
  5
591
  8
5
  6
CONTINUOUS
 10
890.7989
 20
938.6512
 30
0.0
 11
888.493
 21
956.6512
 31
0.0
  0
LINE
  5
592
  8
5
  6
CONTINUOUS
 10
888.493
 20
956.6512
 30
0.0
 11
886.5715
 21
971.6512
 31
0.0
  0
LINE
  5
593
  8
5
  6
CONTINUOUS
 10
886.5715
 20
971.6512
 30
0.0
 11
886.0948
 21
975.3724
 31
0.0
  0
LINE
  5
594
  8
5
  6
CONTINUOUS
 10
890.7989
 20
938.6512
 30
0.0
 11
901.7988
 21
938.6512
 31
0.0
  0
LINE
  5
595
  8
5
  6
CONTINUOUS
 10
1310.799
 20
938.6512
 30
0.0
 11
1320.799
 21
938.6512
 31
0.0
  0
LINE
  5
597
  8
5
  6
CONTINUOUS
 10
818.2989
 20
1317.636
 30
0.0
 11
818.2989
 21
990.499
 31
0.0
  0
LINE
  5
598
  8
5
  6
CONTINUOUS
 10
808.2989
 20
1310.651
 30
0.0
 11
808.2989
 21
997.5207
 31
0.0
  0
LINE
  5
599
  8
5
  6
CONTINUOUS
 10
808.2989
 20
1057.651
 30
0.0
 11
804.2989
 21
1057.651
 31
0.0
  0
LINE
  5
59A
  8
5
  6
CONTINUOUS
 10
804.2989
 20
1099.896
 30
0.0
 11
804.2989
 21
1057.651
 31
0.0
  0
CIRCLE
  5
59B
  8
5
  6
CONTINUOUS
 10
812.7989
 20
1055.051
 30
0.0
 40
1.5
  0
LINE
  5
59C
  8
5
  6
CONTINUOUS
 10
800.2989
 20
1207.651
 30
0.0
 11
800.2989
 21
1099.651
 31
0.0
  0
LINE
  5
59D
  8
5
  6
CONTINUOUS
 10
1181.799
 20
928.6512
 30
0.0
 11
1181.799
 21
936.6512
 31
0.0
  0
LINE
  5
59E
  8
5
  6
CONTINUOUS
 10
1181.799
 20
936.6512
 30
0.0
 11
1030.799
 21
936.6512
 31
0.0
  0
LINE
  5
59F
  8
5
  6
CONTINUOUS
 10
1030.799
 20
936.6512
 30
0.0
 11
1030.799
 21
928.6512
 31
0.0
  0
LINE
  5
5A0
  8
5
  6
CONTINUOUS
 10
1310.799
 20
953.6512
 30
0.0
 11
1310.799
 21
928.6512
 31
0.0
  0
LINE
  5
5A1
  8
5
  6
CONTINUOUS
 10
901.7989
 20
928.6512
 30
0.0
 11
901.7989
 21
953.6512
 31
0.0
  0
LINE
  5
5A2
  8
5
  6
CONTINUOUS
 10
1310.799
 20
953.6512
 30
0.0
 11
901.7989
 21
953.6512
 31
0.0
  0
LINE
  5
5A3
  8
5
  6
CONTINUOUS
 10
1310.799
 20
928.6512
 30
0.0
 11
1181.799
 21
928.6512
 31
0.0
  0
LINE
  5
5A4
  8
5
  6
CONTINUOUS
 10
1030.799
 20
928.6512
 30
0.0
 11
901.7989
 21
928.6512
 31
0.0
  0
LINE
  5
5A5
  8
5
  6
CONTINUOUS
 10
1188.799
 20
1020.751
 30
0.0
 11
1188.799
 21
953.6512
 31
0.0
  0
LINE
  5
5A6
  8
5
  6
CONTINUOUS
 10
1023.799
 20
953.6512
 30
0.0
 11
1023.799
 21
1020.751
 31
0.0
  0
LINE
  5
5A7
  8
5
  6
CONTINUOUS
 10
1325.026
 20
976.9057
 30
0.0
 11
1325.026
 21
971.6513
 31
0.0
  0
LINE
  5
5A8
  8
5
  6
CONTINUOUS
 10
1320.799
 20
938.6512
 30
0.0
 11
1320.799
 21
994.9061
 31
0.0
  0
LINE
  5
5A9
  8
5
  6
CONTINUOUS
 10
1323.105
 20
956.6513
 30
0.0
 11
1323.105
 21
984.0517
 31
0.0
  0
LINE
  5
5AA
  8
5
  6
CONTINUOUS
 10
886.5714
 20
971.6513
 30
0.0
 11
886.5714
 21
976.9057
 31
0.0
  0
LINE
  5
5AB
  8
5
  6
CONTINUOUS
 10
888.4931
 20
984.0517
 30
0.0
 11
888.4931
 21
956.6513
 31
0.0
  0
LINE
  5
5AC
  8
5
  6
CONTINUOUS
 10
890.799
 20
994.9061
 30
0.0
 11
890.799
 21
938.6512
 31
0.0
  0
LINE
  5
5AD
  8
5
  6
CONTINUOUS
 10
880.7988
 20
1345.651
 30
0.0
 11
870.2989
 21
1345.285
 31
0.0
  0
LINE
  5
5AE
  8
5
  6
CONTINUOUS
 10
870.2989
 20
1345.285
 30
0.0
 11
870.2989
 21
962.0179
 31
0.0
  0
LINE
  5
5AF
  8
5
  6
CONTINUOUS
 10
870.2989
 20
962.0179
 30
0.0
 11
880.7988
 21
961.6513
 31
0.0
  0
LINE
  5
5B0
  8
5
  6
CONTINUOUS
 10
880.7988
 20
1153.651
 30
0.0
 11
880.7988
 21
961.6513
 31
0.0
  0
LINE
  5
5B1
  8
5
  6
CONTINUOUS
 10
880.7988
 20
1345.651
 30
0.0
 11
880.7988
 21
1153.651
 31
0.0
  0
LINE
  5
5B2
  8
5
  6
CONTINUOUS
 10
890.799
 20
994.9061
 30
0.0
 11
926.799
 21
994.9061
 31
0.0
  0
LINE
  5
5B3
  8
5
  6
CONTINUOUS
 10
1285.799
 20
994.9061
 30
0.0
 11
1320.799
 21
994.9061
 31
0.0
  0
LINE
  5
5B4
  8
5
  6
CONTINUOUS
 10
926.7989
 20
1002.723
 30
0.0
 11
1023.799
 21
1002.723
 31
0.0
  0
LINE
  5
5B5
  8
5
  6
CONTINUOUS
 10
1188.799
 20
1002.723
 30
0.0
 11
1285.799
 21
1002.723
 31
0.0
  0
LINE
  5
5B6
  8
5
  6
CONTINUOUS
 10
808.2989
 20
997.5207
 30
0.0
 11
818.2989
 21
997.5207
 31
0.0
  0
LINE
  5
5B7
  8
5
  6
CONTINUOUS
 10
870.2989
 20
1345.285
 30
0.0
 11
818.2989
 21
1317.636
 31
0.0
  0
LINE
  5
5B8
  8
5
  6
CONTINUOUS
 10
818.2989
 20
990.499
 30
0.0
 11
870.2989
 21
962.0179
 31
0.0
  0
LINE
  5
5B9
  8
5
  6
CONTINUOUS
 10
818.2989
 20
1310.651
 30
0.0
 11
808.2989
 21
1310.651
 31
0.0
  0
LINE
  5
5BA
  8
5
  6
CONTINUOUS
 10
800.2989
 20
1099.651
 30
0.0
 11
804.2989
 21
1093.939
 31
0.0
  0
LINE
  5
5BB
  8
5
  6
CONTINUOUS
 10
808.2989
 20
1219.076
 30
0.0
 11
800.2989
 21
1207.651
 31
0.0
  0
LINE
  5
5BC
  8
5
  6
CONTINUOUS
 10
880.7988
 20
961.6513
 30
0.0
 11
887.8508
 21
961.6513
 31
0.0
  0
LINE
  5
5BD
  8
5
  6
CONTINUOUS
 10
1323.747
 20
961.6513
 30
0.0
 11
1332.799
 21
961.6513
 31
0.0
  0
LINE
  5
5BE
  8
5
  6
CONTINUOUS
 10
890.9957
 20
1345.651
 30
0.0
 11
880.7988
 21
1345.651
 31
0.0
  0
LINE
  5
5BF
  8
5
  6
CONTINUOUS
 10
1172.338
 20
1345.651
 30
0.0
 11
1132.604
 21
1345.651
 31
0.0
  0
LINE
  5
5C0
  8
5
  6
CONTINUOUS
 10
1332.799
 20
1345.651
 30
0.0
 11
1324.245
 21
1345.651
 31
0.0
  0
LINE
  5
5C1
  8
5
  6
CONTINUOUS
 10
818.2989
 20
558.145
 30
0.0
 11
818.2989
 21
394.1605
 31
0.0
  0
LINE
  5
5C2
  8
5
  6
CONTINUOUS
 10
818.2989
 20
394.1605
 30
0.0
 11
818.2989
 21
230.1761
 31
0.0
  0
LINE
  5
5C3
  8
5
  6
CONTINUOUS
 10
808.2989
 20
551.1605
 30
0.0
 11
808.2989
 21
394.1605
 31
0.0
  0
LINE
  5
5C4
  8
5
  6
CONTINUOUS
 10
808.2989
 20
394.1605
 30
0.0
 11
808.2988
 21
237.1606
 31
0.0
  0
LINE
  5
5C5
  8
5
  6
CONTINUOUS
 10
812.7989
 20
168.1605
 30
0.0
 11
814.2989
 21
168.1605
 31
0.0
  0
LINE
  5
5C6
  8
5
  6
CONTINUOUS
 10
811.2989
 20
168.1605
 30
0.0
 11
812.7989
 21
168.1605
 31
0.0
  0
LINE
  5
5C7
  8
5
  6
CONTINUOUS
 10
800.2989
 20
394.1605
 30
0.0
 11
800.2989
 21
340.1605
 31
0.0
  0
LINE
  5
5C8
  8
5
  6
CONTINUOUS
 10
800.2989
 20
448.1605
 30
0.0
 11
800.2989
 21
394.1605
 31
0.0
  0
LINE
  5
5C9
  8
5
  6
CONTINUOUS
 10
1310.799
 20
179.1605
 30
0.0
 11
1310.799
 21
178.1605
 31
0.0
  0
LINE
  5
5CA
  8
5
  6
CONTINUOUS
 10
901.7989
 20
178.1605
 30
0.0
 11
901.7989
 21
179.1605
 31
0.0
  0
LINE
  5
5CB
  8
5
  6
CONTINUOUS
 10
1310.799
 20
178.1605
 30
0.0
 11
901.7989
 21
178.1605
 31
0.0
  0
LINE
  5
5CC
  8
5
  6
CONTINUOUS
 10
1310.799
 20
609.1605
 30
0.0
 11
1310.799
 21
611.1605
 31
0.0
  0
LINE
  5
5CD
  8
5
  6
CONTINUOUS
 10
901.7989
 20
611.1605
 30
0.0
 11
901.7989
 21
609.1605
 31
0.0
  0
LINE
  5
5CE
  8
5
  6
CONTINUOUS
 10
1310.799
 20
611.1605
 30
0.0
 11
901.7989
 21
611.1605
 31
0.0
  0
LINE
  5
5CF
  8
5
  6
CONTINUOUS
 10
1188.799
 20
610.6605
 30
0.0
 11
1188.799
 21
609.1605
 31
0.0
  0
LINE
  5
5D0
  8
5
  6
CONTINUOUS
 10
1188.799
 20
179.1605
 30
0.0
 11
1188.799
 21
178.6605
 31
0.0
  0
LINE
  5
5D1
  8
5
  6
CONTINUOUS
 10
1023.799
 20
609.1605
 30
0.0
 11
1023.799
 21
610.6605
 31
0.0
  0
LINE
  5
5D2
  8
5
  6
CONTINUOUS
 10
1023.799
 20
178.6605
 30
0.0
 11
1023.799
 21
179.1605
 31
0.0
  0
LINE
  5
5D3
  8
5
  6
CONTINUOUS
 10
870.2988
 20
585.794
 30
0.0
 11
870.2989
 21
539.6605
 31
0.0
  0
LINE
  5
5D4
  8
5
  6
CONTINUOUS
 10
880.7988
 20
586.1606
 30
0.0
 11
870.2988
 21
585.794
 31
0.0
  0
LINE
  5
5D5
  8
5
  6
CONTINUOUS
 10
880.7988
 20
586.1606
 30
0.0
 11
880.7989
 21
539.6605
 31
0.0
  0
LINE
  5
5D6
  8
5
  6
CONTINUOUS
 10
1023.799
 20
178.6606
 30
0.0
 11
1188.799
 21
178.6606
 31
0.0
  0
LINE
  5
5D7
  8
5
  6
CONTINUOUS
 10
1023.799
 20
610.6605
 30
0.0
 11
1188.799
 21
610.6605
 31
0.0
  0
LINE
  5
5D8
  8
5
  6
CONTINUOUS
 10
870.2988
 20
585.794
 30
0.0
 11
818.2989
 21
558.145
 31
0.0
  0
LINE
  5
5D9
  8
5
  6
CONTINUOUS
 10
818.2989
 20
230.1761
 30
0.0
 11
868.3528
 21
203.5619
 31
0.0
  0
LINE
  5
5DA
  8
5
  6
CONTINUOUS
 10
808.2988
 20
237.1606
 30
0.0
 11
818.2989
 21
237.1606
 31
0.0
  0
LINE
  5
5DB
  8
5
  6
CONTINUOUS
 10
818.2989
 20
551.1605
 30
0.0
 11
808.2989
 21
551.1605
 31
0.0
  0
LINE
  5
5DC
  8
5
  6
CONTINUOUS
 10
800.2989
 20
340.1605
 30
0.0
 11
808.2989
 21
328.7354
 31
0.0
  0
LINE
  5
5DD
  8
5
  6
CONTINUOUS
 10
808.2989
 20
459.5857
 30
0.0
 11
800.2989
 21
448.1605
 31
0.0
  0
LINE
  5
5DE
  8
5
  6
CONTINUOUS
 10
811.2989
 20
237.1605
 30
0.0
 11
811.2988
 21
168.1605
 31
0.0
  0
LINE
  5
5DF
  8
5
  6
CONTINUOUS
 10
814.2988
 20
168.1605
 30
0.0
 11
814.2989
 21
237.1605
 31
0.0
  0
LINE
  5
5E0
  8
5
  6
CONTINUOUS
 10
888.3525
 20
586.1605
 30
0.0
 11
880.7988
 21
586.1606
 31
0.0
  0
LINE
  5
5E1
  8
6
  6
CENTER
 10
1950.211
 20
957.0179
 30
0.0
 11
1950.211
 21
1350.285
 31
0.0
  0
LINE
  5
5E2
  8
6
  6
CENTER
 10
1753.578
 20
1153.651
 30
0.0
 11
2146.844
 21
1153.651
 31
0.0
  0
LINE
  5
5E3
  8
7
  6
DASHED
 10
2137.461
 20
928.6512
 30
0.0
 11
2137.461
 21
953.6512
 31
0.0
  0
LINE
  5
5E4
  8
7
  6
DASHED
 10
2118.961
 20
928.6512
 30
0.0
 11
2118.961
 21
953.6512
 31
0.0
  0
LINE
  5
5E5
  8
7
  6
DASHED
 10
1781.461
 20
928.6512
 30
0.0
 11
1781.461
 21
953.6512
 31
0.0
  0
LINE
  5
5E6
  8
7
  6
DASHED
 10
1762.961
 20
928.6512
 30
0.0
 11
1762.961
 21
953.6512
 31
0.0
  0
LINE
  5
5E7
  8
7
  6
DASHED
 10
1260.549
 20
928.6512
 30
0.0
 11
1260.549
 21
953.6512
 31
0.0
  0
LINE
  5
5E8
  8
7
  6
DASHED
 10
1242.049
 20
928.6512
 30
0.0
 11
1242.049
 21
953.6512
 31
0.0
  0
LINE
  5
5E9
  8
7
  6
DASHED
 10
1235.549
 20
928.6512
 30
0.0
 11
1235.549
 21
953.6512
 31
0.0
  0
LINE
  5
5EA
  8
7
  6
DASHED
 10
1217.049
 20
928.6512
 30
0.0
 11
1217.049
 21
953.6512
 31
0.0
  0
LINE
  5
5EB
  8
7
  6
DASHED
 10
931.0488
 20
928.6512
 30
0.0
 11
931.0488
 21
953.6512
 31
0.0
  0
LINE
  5
5EC
  8
7
  6
DASHED
 10
949.5489
 20
928.6512
 30
0.0
 11
949.5489
 21
953.6512
 31
0.0
  0
LINE
  5
5F2
  8
6
  6
CENTER
 10
1772.211
 20
921.1512
 30
0.0
 11
1772.211
 21
961.1512
 31
0.0
  0
LINE
  5
5F3
  8
6
  6
CENTER
 10
940.2989
 20
921.1512
 30
0.0
 11
940.2989
 21
961.1512
 31
0.0
  0
LINE
  5
5F4
  8
6
  6
CENTER
 10
1226.299
 20
921.1512
 30
0.0
 11
1226.299
 21
961.1512
 31
0.0
  0
LINE
  5
5F5
  8
6
  6
CENTER
 10
1251.299
 20
921.1512
 30
0.0
 11
1251.299
 21
961.1512
 31
0.0
  0
LINE
  5
5F6
  8
6
  6
CENTER
 10
157.0752
 20
921.1512
 30
0.0
 11
157.0752
 21
961.1512
 31
0.0
  0
LINE
  5
603
  8
6
  6
CENTER
 10
1099.803
 20
394.1605
 30
0.0
 11
1546.799
 21
394.1605
 31
0.0
  0
LINE
  5
668
  8
0
  6
CONTINUOUS
 10
686.2991
 20
1181.151
 30
0.0
 11
694.2989
 21
1179.962
 31
0.0
  0
LINE
  5
669
  8
0
  6
CONTINUOUS
 10
784.2988
 20
1181.151
 30
0.0
 11
776.2989
 21
1179.962
 31
0.0
  0
ENDSEC
  0
EOF
