  0
SECTION
  2
HEADER
  9
$ACADVER
  1
AC1009
  9
$DWGCODEPAGE
  3
iso8859-1
  9
$INSBASE
 10
0.0
 20
0.0
 30
0.0
  9
$EXTMIN
 10
1.0E20
 20
1.0E20
  9
$EXTMAX
 10
-1.0E20
 20
-1.0E20
  9
$LIMMIN
 10
0.0
 20
0.0
  9
$LIMMAX
 10
12.0
 20
9.0
  9
$ORTHOMODE
 70
     0
  9
$REGENMODE
 70
     1
  9
$FILLMODE
 70
     1
  9
$QTEXTMODE
 70
     0
  9
$MIRRTEXT
 70
     1
  9
$DRAGMODE
 70
     2
  9
$LTSCALE
 40
15.0
  9
$OSMODE
 70
     0
  9
$ATTMODE
 70
     1
  9
$TEXTSIZE
 40
0.2
  9
$TRACEWID
 40
0.05
  9
$TEXTSTYLE
  7
STANDARD
  9
$CLAYER
  8
0
  9
$CELTYPE
  6
DASHED
  9
$CECOLOR
 62
   256
  9
$DIMSCALE
 40
1.0
  9
$DIMASZ
 40
0.18
  9
$DIMEXO
 40
0.0625
  9
$DIMDLI
 40
0.38
  9
$DIMRND
 40
0.0
  9
$DIMDLE
 40
0.0
  9
$DIMEXE
 40
0.18
  9
$DIMTP
 40
0.0
  9
$DIMTM
 40
0.0
  9
$DIMTXT
 40
0.18
  9
$DIMCEN
 40
0.09
  9
$DIMTSZ
 40
0.0
  9
$DIMTOL
 70
     0
  9
$DIMLIM
 70
     0
  9
$DIMTIH
 70
     1
  9
$DIMTOH
 70
     1
  9
$DIMSE1
 70
     0
  9
$DIMSE2
 70
     0
  9
$DIMTAD
 70
     0
  9
$DIMZIN
 70
     0
  9
$DIMBLK
  1

  9
$DIMASO
 70
     1
  9
$DIMSHO
 70
     1
  9
$DIMPOST
  1

  9
$DIMAPOST
  1

  9
$DIMALT
 70
     0
  9
$DIMALTD
 70
     2
  9
$DIMALTF
 40
25.4
  9
$DIMLFAC
 40
1.0
  9
$DIMTOFL
 70
     0
  9
$DIMTVP
 40
0.0
  9
$DIMTIX
 70
     0
  9
$DIMSOXD
 70
     0
  9
$DIMSAH
 70
     0
  9
$DIMBLK1
  1

  9
$DIMBLK2
  1

  9
$DIMSTYLE
  2
STANDARD
  9
$DIMCLRD
 70
     0
  9
$DIMCLRE
 70
     0
  9
$DIMCLRT
 70
     0
  9
$DIMTFAC
 40
1.0
  9
$DIMGAP
 40
0.09
  9
$LUNITS
 70
     2
  9
$LUPREC
 70
     4
  9
$AXISMODE
 70
     0
  9
$AXISUNIT
 10
0.0
 20
0.0
  9
$SKETCHINC
 40
0.1
  9
$FILLETRAD
 40
0.0
  9
$AUNITS
 70
     0
  9
$AUPREC
 70
     0
  9
$MENU
  1
acad
  9
$ELEVATION
 40
0.0
  9
$PELEVATION
 40
0.0
  9
$THICKNESS
 40
0.0
  9
$LIMCHECK
 70
     0
  9
$BLIPMODE
 70
     1
  9
$CHAMFERA
 40
0.0
  9
$CHAMFERB
 40
0.0
  9
$SKPOLY
 70
     0
  9
$TDCREATE
 40
0.000000000
  9
$TDUPDATE
 40
0.000000000
  9
$TDINDWG
 40
0.0
  9
$TDUSRTIMER
 40
0.0
  9
$USRTIMER
 70
     1
  9
$ANGBASE
 50
0.0
  9
$ANGDIR
 70
     0
  9
$PDMODE
 70
     0
  9
$PDSIZE
 40
0.0
  9
$PLINEWID
 40
0.0
  9
$COORDS
 70
     1
  9
$SPLFRAME
 70
     0
  9
$SPLINETYPE
 70
     6
  9
$SPLINESEGS
 70
     8
  9
$ATTDIA
 70
     0
  9
$ATTREQ
 70
     1
  9
$HANDLING
 70
     1
  9
$HANDSEED
  5
   6D9
  9
$SURFTAB1
 70
     6
  9
$SURFTAB2
 70
     6
  9
$SURFTYPE
 70
     6
  9
$SURFU
 70
     6
  9
$SURFV
 70
     6
  9
$UCSNAME
  2

  9
$UCSORG
 10
0.0
 20
0.0
 30
0.0
  9
$UCSXDIR
 10
1.0
 20
0.0
 30
0.0
  9
$UCSYDIR
 10
0.0
 20
1.0
 30
0.0
  9
$PUCSNAME
  2

  9
$PUCSORG
 10
0.0
 20
0.0
 30
0.0
  9
$PUCSXDIR
 10
1.0
 20
0.0
 30
0.0
  9
$PUCSYDIR
 10
0.0
 20
1.0
 30
0.0
  9
$USERI1
 70
     0
  9
$USERI2
 70
     0
  9
$USERI3
 70
     0
  9
$USERI4
 70
     0
  9
$USERI5
 70
     0
  9
$USERR1
 40
0.0
  9
$USERR2
 40
0.0
  9
$USERR3
 40
0.0
  9
$USERR4
 40
0.0
  9
$USERR5
 40
0.0
  9
$WORLDVIEW
 70
     1
  9
$SHADEDGE
 70
     3
  9
$SHADEDIF
 70
    70
  9
$TILEMODE
 70
     1
  9
$MAXACTVP
 70
    16
  9
$PINSBASE
 10
0.0
 20
0.0
 30
0.0
  9
$PLIMCHECK
 70
     0
  9
$PEXTMIN
 10
1.0E20
 20
1.0E20
 30
1.0E20
  9
$PEXTMAX
 10
-1.0E20
 20
-1.0E20
 30
-1.0E20
  9
$PLIMMIN
 10
0.0
 20
0.0
  9
$PLIMMAX
 10
12.0
 20
9.0
  9
$UNITMODE
 70
     0
  9
$VISRETAIN
 70
     0
  0
ENDSEC
  0
SECTION
  2
TABLES
  0
TABLE
  2
VPORT
 70
     1
  0
VPORT
  2
*ACTIVE
 70
     0
 10
0.0
 20
0.0
 11
1.0
 21
1.0
 12
6.801242
 22
4.5
 13
0.0
 23
0.0
 14
1.0
 24
1.0
 15
0.0
 25
0.0
 16
0.0
 26
0.0
 36
1.0
 17
0.0
 27
0.0
 37
0.0
 40
9.0
 41
1.511387
 42
50.0
 43
0.0
 44
0.0
 50
0.0
 51
0.0
 71
     0
 72
   100
 73
     1
 74
     1
 75
     0
 76
     0
 77
     0
 78
     0
  0
ENDTAB
  0
TABLE
  2
LTYPE
 70
    41
  0
LTYPE
  2
BYBLOCK
 70
     0
  3

 72
    65
 73
     0
 40
0.0
  0
LTYPE
  2
BYLAYER
 70
     0
  3

 72
    65
 73
     0
 40
0.0
  0
LTYPE
  2
CONTINUOUS
 70
     0
  3
Solid line
 72
    65
 73
     0
 40
0.0
  0
LTYPE
  2
BORDER
 70
    64
  3
__ __ . __ __ . __ __ . __ __ . __ __ . __ __ .
 72
    65
 73
     6
 40
1.75
 49
0.5
 49
-0.25
 49
0.5
 49
-0.25
 49
0.0
 49
-0.25
  0
LTYPE
  2
BORDER2
 70
    64
  3
__.__.__.__.__.__.__.__.__.__.__.__.__.__.__.__
 72
    65
 73
     6
 40
0.875
 49
0.25
 49
-0.125
 49
0.25
 49
-0.125
 49
0.0
 49
-0.125
  0
LTYPE
  2
BORDERX2
 70
    64
  3
____  ____  .  ____  ____  .  ____  ____  .  __
 72
    65
 73
     6
 40
3.5
 49
1.0
 49
-0.5
 49
1.0
 49
-0.5
 49
0.0
 49
-0.5
  0
LTYPE
  2
CENTER
 70
    64
  3
____ _ ____ _ ____ _ ____ _ ____ _ ____ _ ____
 72
    65
 73
     4
 40
2.0
 49
1.25
 49
-0.25
 49
0.25
 49
-0.25
  0
LTYPE
  2
CENTER2
 70
    64
  3
___ _ ___ _ ___ _ ___ _ ___ _ ___ _ ___ _ ___ _
 72
    65
 73
     4
 40
1.125
 49
0.75
 49
-0.125
 49
0.125
 49
-0.125
  0
LTYPE
  2
CENTERX2
 70
    64
  3
________  __  ________  __  ________  __  _____
 72
    65
 73
     4
 40
4.0
 49
2.5
 49
-0.5
 49
0.5
 49
-0.5
  0
LTYPE
  2
DASHDOT
 70
    64
  3
__ . __ . __ . __ . __ . __ . __ . __ . __ . __
 72
    65
 73
     4
 40
1.0
 49
0.5
 49
-0.25
 49
0.0
 49
-0.25
  0
LTYPE
  2
DASHDOT2
 70
    64
  3
_._._._._._._._._._._._._._._._._._._._._._._._
 72
    65
 73
     4
 40
0.5
 49
0.25
 49
-0.125
 49
0.0
 49
-0.125
  0
LTYPE
  2
DASHDOTX2
 70
    64
  3
____  .  ____  .  ____  .  ____  .  ____  .  __
 72
    65
 73
     4
 40
2.0
 49
1.0
 49
-0.5
 49
0.0
 49
-0.5
  0
LTYPE
  2
DASHED
 70
    64
  3
__ __ __ __ __ __ __ __ __ __ __ __ __ __ __ __
 72
    65
 73
     2
 40
0.75
 49
0.5
 49
-0.25
  0
LTYPE
  2
DASHED2
 70
    64
  3
_ _ _ _ _ _ _ _ _ _ _ _ _ _ _ _ _ _ _ _ _ _ _ _
 72
    65
 73
     2
 40
0.375
 49
0.25
 49
-0.125
  0
LTYPE
  2
DASHEDX2
 70
    64
  3
____  ____  ____  ____  ____  ____  ____  ____
 72
    65
 73
     2
 40
1.5
 49
1.0
 49
-0.5
  0
LTYPE
  2
DIVIDE
 70
    64
  3
____ . . ____ . . ____ . . ____ . . ____ . . __
 72
    65
 73
     6
 40
1.25
 49
0.5
 49
-0.25
 49
0.0
 49
-0.25
 49
0.0
 49
-0.25
  0
LTYPE
  2
DIVIDE2
 70
    64
  3
__..__..__..__..__..__..__..__..__..__..__..__.
 72
    65
 73
     6
 40
0.625
 49
0.25
 49
-0.125
 49
0.0
 49
-0.125
 49
0.0
 49
-0.125
  0
LTYPE
  2
DIVIDEX2
 70
    64
  3
________  .  .  ________  .  .  ________  .  .
 72
    65
 73
     6
 40
2.5
 49
1.0
 49
-0.5
 49
0.0
 49
-0.5
 49
0.0
 49
-0.5
  0
LTYPE
  2
DOT
 70
    64
  3
. . . . . . . . . . . . . . . . . . . . . . . .
 72
    65
 73
     2
 40
0.25
 49
0.0
 49
-0.25
  0
LTYPE
  2
DOT2
 70
    64
  3
...............................................
 72
    65
 73
     2
 40
0.125
 49
0.0
 49
-0.125
  0
LTYPE
  2
DOTX2
 70
    64
  3
.  .  .  .  .  .  .  .  .  .  .  .  .  .  .  .
 72
    65
 73
     2
 40
0.5
 49
0.0
 49
-0.5
  0
LTYPE
  2
HIDDEN
 70
    64
  3
__ __ __ __ __ __ __ __ __ __ __ __ __ __ __ __
 72
    65
 73
     2
 40
0.375
 49
0.25
 49
-0.125
  0
LTYPE
  2
HIDDEN2
 70
    64
  3
_ _ _ _ _ _ _ _ _ _ _ _ _ _ _ _ _ _ _ _ _ _ _ _
 72
    65
 73
     2
 40
0.1875
 49
0.125
 49
-0.0625
  0
LTYPE
  2
HIDDENX2
 70
    64
  3
____ ____ ____ ____ ____ ____ ____ ____ ____ __
 72
    65
 73
     2
 40
0.75
 49
0.5
 49
-0.25
  0
LTYPE
  2
PHANTOM
 70
    64
  3
______  __  __  ______  __  __  ______  __  __
 72
    65
 73
     6
 40
2.5
 49
1.25
 49
-0.25
 49
0.25
 49
-0.25
 49
0.25
 49
-0.25
  0
LTYPE
  2
PHANTOM2
 70
    64
  3
___ _ _ ___ _ _ ___ _ _ ___ _ _ ___ _ _ ___ _ _
 72
    65
 73
     6
 40
1.25
 49
0.625
 49
-0.125
 49
0.125
 49
-0.125
 49
0.125
 49
-0.125
  0
LTYPE
  2
PHANTOMX2
 70
    64
  3
____________    ____    ____    ____________
 72
    65
 73
     6
 40
5.0
 49
2.5
 49
-0.5
 49
0.5
 49
-0.5
 49
0.5
 49
-0.5
  0
LTYPE
  2
ACAD_ISO02W100
 70
    64
  3
__ __ __ __ __ __ __ __ __ __ __ __ __ __ __ __
 72
    65
 73
     2
 40
15.0
 49
12.0
 49
-3.0
  0
LTYPE
  2
ACAD_ISO03W100
 70
    64
  3
__    __    __    __    __    __    __    __
 72
    65
 73
     2
 40
30.0
 49
12.0
 49
-18.0
  0
LTYPE
  2
ACAD_ISO04W100
 70
    64
  3
____ . ____ . ____ . ____ . ____ . ____ . ____
 72
    65
 73
     4
 40
30.5
 49
24.0
 49
-3.0
 49
0.5
 49
-3.0
  0
LTYPE
  2
ACAD_ISO05W100
 70
    64
  3
____ .. ____ .. ____ .. ____ .. ____ .. ____ ..
 72
    65
 73
     6
 40
34.0
 49
24.0
 49
-3.0
 49
0.5
 49
-3.0
 49
0.5
 49
-3.0
  0
LTYPE
  2
ACAD_ISO06W100
 70
    64
  3
____ ... ____ ... ____ ... ____ ... ____ ... __
 72
    65
 73
     8
 40
37.5
 49
24.0
 49
-3.0
 49
0.5
 49
-3.0
 49
0.5
 49
-3.0
 49
0.5
 49
-3.0
  0
LTYPE
  2
ACAD_ISO07W100
 70
    64
  3
. . . . . . . . . . . . . . . . . . . . . . . .
 72
    65
 73
     2
 40
3.5
 49
0.5
 49
-3.0
  0
LTYPE
  2
ACAD_ISO08W100
 70
    64
  3
____ __ ____ __ ____ __ ____ ____ __ __ ____ __
 72
    65
 73
     4
 40
36.0
 49
24.0
 49
-3.0
 49
6.0
 49
-3.0
  0
LTYPE
  2
ACAD_ISO09W100
 70
    64
  3
____ __ __ ____ __ __ ____ __ __ ____ __ __ ___
 72
    65
 73
     6
 40
45.0
 49
24.0
 49
-3.0
 49
6.0
 49
-3.0
 49
6.0
 49
-3.0
  0
LTYPE
  2
ACAD_ISO10W100
 70
    64
  3
__ . __ . __ . __ . __ . __ . __ . __ . __ . __
 72
    65
 73
     4
 40
18.5
 49
12.0
 49
-3.0
 49
0.5
 49
-3.0
  0
LTYPE
  2
ACAD_ISO11W100
 70
    64
  3
__ __ . __ __ . __ __ . __ __ . __ __ . __ __ .
 72
    65
 73
     6
 40
33.5
 49
12.0
 49
-3.0
 49
12.0
 49
-3.0
 49
0.5
 49
-3.0
  0
LTYPE
  2
ACAD_ISO12W100
 70
    64
  3
__ . . __ . . __ . . __ . . __ . . __ . . __ .
 72
    65
 73
     6
 40
22.0
 49
12.0
 49
-3.0
 49
0.5
 49
-3.0
 49
0.5
 49
-3.0
  0
LTYPE
  2
ACAD_ISO13W100
 70
    64
  3
__ __ . . __ __ . . __ __ . . __ __ . . __ __ .
 72
    65
 73
     8
 40
37.0
 49
12.0
 49
-3.0
 49
12.0
 49
-3.0
 49
0.5
 49
-3.0
 49
0.5
 49
-3.0
  0
LTYPE
  2
ACAD_ISO14W100
 70
    64
  3
__ . . . __ . . . __ . . . __ . . . __ . . . __
 72
    65
 73
     8
 40
25.5
 49
12.0
 49
-3.0
 49
0.5
 49
-3.0
 49
0.5
 49
-3.0
 49
0.5
 49
-3.0
  0
LTYPE
  2
ACAD_ISO15W100
 70
    64
  3
__ __ . . . __ __ . . . __ __ . . . __ __ . . .
 72
    65
 73
    10
 40
40.5
 49
12.0
 49
-3.0
 49
12.0
 49
-3.0
 49
0.5
 49
-3.0
 49
0.5
 49
-3.0
 49
0.5
 49
-3.0
  0
ENDTAB
  0
TABLE
  2
STYLE
 70
     4
  0
STYLE
  2
STANDARD
 70
    64
 40
0.0
 41
1.0
 50
0.0
 71
     0
 42
0.2
  3
txt
  4

  0
STYLE
  2
TOLERANCE
 70
    64
 40
0.0
 41
1.0
 50
0.0
 71
     0
 42
0.2
  3
../igesfont/iges1003.shx
  4

  0
STYLE
  2
ROMANS
 70
    64
 40
0.0
 41
1.0
 50
0.0
 71
     0
 42
0.2
  3
romans.shx
  4

  0
STYLE
  2
ROMANC
 70
    64
 40
0.0
 41
1.0
 50
0.0
 71
     0
 42
0.2
  3
romanc.shx
  4

  0
ENDTAB
  0
TABLE
  2
DIMSTYLE
 70
     2
  0
DIMSTYLE
  2
UNNAMED
 70
     0
  3

  4

  5

  6

  7

 40
1.0
 41
0.18
 42
0.0625
 43
0.38
 44
0.18
 45
0.0
 46
0.0
 47
0.0
 48
0.0
140
0.18
141
0.09
142
0.0
143
25.4
144
1.0
145
0.0
146
1.0
147
0.09
 71
     0
 72
     0
 73
     1
 74
     1
 75
     0
 76
     0
 77
     0
 78
     0
170
     0
171
     2
172
     0
173
     0
174
     0
175
     0
176
     0
177
     0
178
     0
  0
DIMSTYLE
  2
STANDARD
 70
     0
  3

  4

  5

  6

  7

 40
1.0
 41
0.18
 42
0.0625
 43
0.38
 44
0.18
 45
0.0
 46
0.0
 47
0.0
 48
0.0
140
0.18
141
0.09
142
0.0
143
25.4
144
1.0
145
0.0
146
1.0
147
0.09
 71
     0
 72
     0
 73
     1
 74
     1
 75
     0
 76
     0
 77
     0
 78
     0
170
     0
171
     2
172
     0
173
     0
174
     0
175
     0
176
     0
177
     0
178
     0
  0
ENDTAB
  0
TABLE
  2
LAYER
 70
     2
  0
LAYER
  2
0
 70
     0
 62
     7
  6
CONTINUOUS
  0
LAYER
  2
255
 70
     0
 62
     7
  6
CONTINUOUS
  0
ENDTAB
  0
ENDSEC
  0
SECTION
  2
BLOCKS
  0
BLOCK
  5
     B
  8
0
  6
CONTINUOUS
 62
     7
  2
*UDIM2341
 70
    65
 10
0.0
 20
0.0
 30
0.0
  3
*UDIM2341
  0
TEXT
  5
     C
  8
0
  6
CONTINUOUS
 62
     7
 10
-587.482458142173
 20
-48.5018119766789
 30
0.0
 40
3.00000002980232
  1
35
 50
359.999999896069
 41
0.933333333333333
 72
     1
 11
-584.982458114624
 21
-47.0018119663
 31
0.0
 73
     2
  0
LINE
  5
     D
  8
0
  6
CONTINUOUS
 62
     7
 10
-590.457458496094
 20
-52.701815192331
 30
0.0
 11
-590.457458496094
 21
-47.5018119812012
 31
0.0
  0
LINE
  5
     E
  8
0
  6
CONTINUOUS
 62
     7
 10
-582.482458089789
 20
-49.5018119812012
 30
0.0
 11
-599.207458496094
 21
-49.5018119812012
 31
0.0
  0
LINE
  5
     F
  8
0
  6
CONTINUOUS
 62
     7
 10
-587.503035218887
 20
-48.9808675512495
 30
0.0
 11
-590.457458496094
 21
-49.5018119812012
 31
0.0
  0
LINE
  5
    10
  8
0
  6
CONTINUOUS
 62
     7
 10
-590.457458496094
 20
-49.5018119812012
 30
0.0
 11
-587.503035218887
 21
-50.0227564111528
 31
0.0
  0
LINE
  5
    11
  8
0
  6
CONTINUOUS
 62
     7
 10
-602.161881773301
 20
-50.0227564111528
 30
0.0
 11
-599.207458496094
 21
-49.5018119812012
 31
0.0
  0
LINE
  5
    12
  8
0
  6
CONTINUOUS
 62
     7
 10
-599.207458496094
 20
-49.5018119812012
 30
0.0
 11
-602.161881773301
 21
-48.9808675512495
 31
0.0
  0
ENDBLK
  5
    13
  8
0
  6
CONTINUOUS
 62
     7
  0
BLOCK
  5
    14
  8
0
  6
CONTINUOUS
 62
     7
  2
*UDIM2342
 70
    65
 10
0.0
 20
0.0
 30
0.0
  3
*UDIM2342
  0
TEXT
  5
    15
  8
0
  6
CONTINUOUS
 62
     7
 10
-568.994998943996
 20
-80.6237990177964
 30
0.0
 40
3.00000002980232
  1
73,75
 50
449.999999896069
 41
0.933333333333333
 72
     1
 11
-570.494998946786
 21
-73.9237989485264
 31
0.0
 73
     2
  0
LINE
  5
    16
  8
0
  6
CONTINUOUS
 62
     7
 10
-569.656423878422
 20
-64.9695587158203
 30
0.0
 11
-565.994998931885
 21
-64.9695587158203
 31
0.0
  0
LINE
  5
    17
  8
0
  6
CONTINUOUS
 62
     7
 10
-576.826113419058
 20
-83.4070587158203
 30
0.0
 11
-565.994998931885
 21
-83.4070587158203
 31
0.0
  0
LINE
  5
    18
  8
0
  6
CONTINUOUS
 62
     7
 10
-567.994998931885
 20
-64.9695587158203
 30
0.0
 11
-567.994998931885
 21
-83.4070587158203
 31
0.0
  0
LINE
  5
    19
  8
0
  6
CONTINUOUS
 62
     7
 10
-567.474054501933
 20
-67.9239819930273
 30
0.0
 11
-567.994998931885
 21
-64.9695587158203
 31
0.0
  0
LINE
  5
    1A
  8
0
  6
CONTINUOUS
 62
     7
 10
-567.994998931885
 20
-64.9695587158203
 30
0.0
 11
-568.515943361836
 21
-67.9239819930273
 31
0.0
  0
LINE
  5
    1B
  8
0
  6
CONTINUOUS
 62
     7
 10
-568.515943361836
 20
-80.4526354386134
 30
0.0
 11
-567.994998931885
 21
-83.4070587158203
 31
0.0
  0
LINE
  5
    1C
  8
0
  6
CONTINUOUS
 62
     7
 10
-567.994998931885
 20
-83.4070587158203
 30
0.0
 11
-567.474054501933
 21
-80.4526354386134
 31
0.0
  0
ENDBLK
  5
    1D
  8
0
  6
CONTINUOUS
 62
     7
  0
BLOCK
  5
    1E
  8
0
  6
CONTINUOUS
 62
     7
  2
*UDIM2343
 70
    65
 10
0.0
 20
0.0
 30
0.0
  3
*UDIM2343
  0
TEXT
  5
    1F
  8
0
  6
CONTINUOUS
 62
     7
 10
-635.355018622773
 20
-87.0195587632353
 30
0.0
 40
3.00000002980232
  1
100
 50
449.999999896069
 41
0.933333333333333
 72
     1
 11
-636.855018630624
 21
-83.1195587217808
 31
0.0
 73
     2
  0
LINE
  5
    20
  8
0
  6
CONTINUOUS
 62
     7
 10
-619.039134127735
 20
-70.3445587158203
 30
0.0
 11
-636.355018615723
 21
-70.3445587158203
 31
0.0
  0
LINE
  5
    21
  8
0
  6
CONTINUOUS
 62
     7
 10
-619.484118738316
 20
-95.3445587158203
 30
0.0
 11
-636.355018615723
 21
-95.3445587158203
 31
0.0
  0
LINE
  5
    22
  8
0
  6
CONTINUOUS
 62
     7
 10
-634.355018615723
 20
-70.3445587158203
 30
0.0
 11
-634.355018615723
 21
-95.3445587158203
 31
0.0
  0
LINE
  5
    23
  8
0
  6
CONTINUOUS
 62
     7
 10
-633.834074185771
 20
-73.2989819930273
 30
0.0
 11
-634.355018615723
 21
-70.3445587158203
 31
0.0
  0
LINE
  5
    24
  8
0
  6
CONTINUOUS
 62
     7
 10
-634.355018615723
 20
-70.3445587158203
 30
0.0
 11
-634.875963045674
 21
-73.2989819930273
 31
0.0
  0
LINE
  5
    25
  8
0
  6
CONTINUOUS
 62
     7
 10
-634.875963045674
 20
-92.3901354386133
 30
0.0
 11
-634.355018615723
 21
-95.3445587158203
 31
0.0
  0
LINE
  5
    26
  8
0
  6
CONTINUOUS
 62
     7
 10
-634.355018615723
 20
-95.3445587158203
 30
0.0
 11
-633.834074185771
 21
-92.3901354386133
 31
0.0
  0
ENDBLK
  5
    27
  8
0
  6
CONTINUOUS
 62
     7
  0
BLOCK
  5
    28
  8
0
  6
CONTINUOUS
 62
     7
  2
*UDIM2344
 70
    65
 10
0.0
 20
0.0
 30
0.0
  3
*UDIM2344
  0
TEXT
  5
    29
  8
0
  6
CONTINUOUS
 62
     7
 10
-628.596128475856
 20
-67.4445584036206
 30
0.0
 40
3.00000002980232
  1
52,25
 50
449.999999896069
 41
0.933333333333333
 72
     1
 11
-630.096128478646
 21
-60.7445583343506
 31
0.0
 73
     2
  0
LINE
  5
    2A
  8
0
  6
CONTINUOUS
 62
     7
 10
-619.039134127735
 20
-70.3445587158203
 30
0.0
 11
-629.596128463745
 21
-70.3445587158203
 31
0.0
  0
LINE
  5
    2B
  8
0
  6
CONTINUOUS
 62
     7
 10
-627.596128463745
 20
-54.0445582677921
 30
0.0
 11
-627.596128463745
 21
-83.4070587158203
 31
0.0
  0
LINE
  5
    2C
  8
0
  6
CONTINUOUS
 62
     7
 10
-627.075184033793
 20
-73.2989819930273
 30
0.0
 11
-627.596128463745
 21
-70.3445587158203
 31
0.0
  0
LINE
  5
    2D
  8
0
  6
CONTINUOUS
 62
     7
 10
-627.596128463745
 20
-70.3445587158203
 30
0.0
 11
-628.117072893697
 21
-73.2989819930273
 31
0.0
  0
LINE
  5
    2E
  8
0
  6
CONTINUOUS
 62
     7
 10
-628.117072893697
 20
-80.4526354386134
 30
0.0
 11
-627.596128463745
 21
-83.4070587158203
 31
0.0
  0
LINE
  5
    2F
  8
0
  6
CONTINUOUS
 62
     7
 10
-627.596128463745
 20
-83.4070587158203
 30
0.0
 11
-627.075184033793
 21
-80.4526354386134
 31
0.0
  0
ENDBLK
  5
    30
  8
0
  6
CONTINUOUS
 62
     7
  0
BLOCK
  5
    31
  8
0
  6
CONTINUOUS
 62
     7
  2
*UDIM2345
 70
    65
 10
0.0
 20
0.0
 30
0.0
  3
*UDIM2345
  0
TEXT
  5
    32
  8
0
  6
CONTINUOUS
 62
     7
 10
-561.375881202118
 20
-87.0195602023276
 30
0.0
 40
3.00000002980232
  1
143
 50
449.999999896069
 41
0.933333333333333
 72
     1
 11
-562.87588120997
 21
-83.1195601608731
 31
0.0
 73
     2
  0
LINE
  5
    33
  8
0
  6
CONTINUOUS
 62
     7
 10
-569.656423878422
 20
-64.9695590297368
 30
0.0
 11
-558.375881195068
 21
-64.969562570885
 31
0.0
  0
LINE
  5
    34
  8
0
  6
CONTINUOUS
 62
     7
 10
-569.656423878422
 20
-100.719559029737
 30
0.0
 11
-558.375881195068
 21
-100.719562570885
 31
0.0
  0
LINE
  5
    35
  8
0
  6
CONTINUOUS
 62
     7
 10
-560.375881195068
 20
-64.969561943052
 30
0.0
 11
-560.375881195068
 21
-100.719561943052
 31
0.0
  0
LINE
  5
    36
  8
0
  6
CONTINUOUS
 62
     7
 10
-559.854936765117
 20
-67.923985220259
 30
0.0
 11
-560.375881195068
 21
-64.969561943052
 31
0.0
  0
LINE
  5
    37
  8
0
  6
CONTINUOUS
 62
     7
 10
-560.375881195068
 20
-64.969561943052
 30
0.0
 11
-560.89682562502
 21
-67.923985220259
 31
0.0
  0
LINE
  5
    38
  8
0
  6
CONTINUOUS
 62
     7
 10
-560.89682562502
 20
-97.7651386658451
 30
0.0
 11
-560.375881195068
 21
-100.719561943052
 31
0.0
  0
LINE
  5
    39
  8
0
  6
CONTINUOUS
 62
     7
 10
-560.375881195068
 20
-100.719561943052
 30
0.0
 11
-559.854936765117
 21
-97.7651386658451
 31
0.0
  0
ENDBLK
  5
    3A
  8
0
  6
CONTINUOUS
 62
     7
  0
BLOCK
  5
    3B
  8
0
  6
CONTINUOUS
 62
     7
  2
*UDIM2346
 70
    65
 10
0.0
 20
0.0
 30
0.0
  3
*UDIM2346
  0
TEXT
  5
    3C
  8
0
  6
CONTINUOUS
 62
     7
 10
-607.757458543511
 20
-40.0759277273202
 30
0.0
 40
3.00000002980232
  1
105
 50
359.999999896069
 41
0.933333333333333
 72
     1
 11
-603.857458502054
 21
-38.5759277194738
 31
0.0
 73
     2
  0
LINE
  5
    3D
  8
0
  6
CONTINUOUS
 62
     7
 10
-590.457458496094
 20
-52.701815192331
 30
0.0
 11
-590.457458496094
 21
-39.075927734375
 31
0.0
  0
LINE
  5
    3E
  8
0
  6
CONTINUOUS
 62
     7
 10
-616.707458496094
 20
-52.701815192331
 30
0.0
 11
-616.707458496094
 21
-39.075927734375
 31
0.0
  0
LINE
  5
    3F
  8
0
  6
CONTINUOUS
 62
     7
 10
-590.457458496094
 20
-41.075927734375
 30
0.0
 11
-616.707458496094
 21
-41.075927734375
 31
0.0
  0
LINE
  5
    40
  8
0
  6
CONTINUOUS
 62
     7
 10
-593.411881773301
 20
-41.5968721643267
 30
0.0
 11
-590.457458496094
 21
-41.075927734375
 31
0.0
  0
LINE
  5
    41
  8
0
  6
CONTINUOUS
 62
     7
 10
-590.457458496094
 20
-41.075927734375
 30
0.0
 11
-593.411881773301
 21
-40.5549833044233
 31
0.0
  0
LINE
  5
    42
  8
0
  6
CONTINUOUS
 62
     7
 10
-613.753035218887
 20
-40.5549833044233
 30
0.0
 11
-616.707458496094
 21
-41.075927734375
 31
0.0
  0
LINE
  5
    43
  8
0
  6
CONTINUOUS
 62
     7
 10
-616.707458496094
 20
-41.075927734375
 30
0.0
 11
-613.753035218887
 21
-41.5968721643267
 31
0.0
  0
ENDBLK
  5
    44
  8
0
  6
CONTINUOUS
 62
     7
  0
BLOCK
  5
    45
  8
0
  6
CONTINUOUS
 62
     7
  2
*UDIM2347
 70
    65
 10
0.0
 20
0.0
 30
0.0
  3
*UDIM2347
  0
TEXT
  5
    46
  8
0
  6
CONTINUOUS
 62
     7
 10
-576.181943942322
 20
-60.2323443238591
 30
0.0
 40
3.00000002980232
  1
14
 50
374.545888780971
 41
0.933333333333333
 72
     1
 11
-574.138809911793
 21
-58.1525357984957
 31
0.0
 73
     2
  0
TEXT
  5
    47
  8
0
  6
CONTINUOUS
 62
     7
 10
-578.843797667512
 20
-60.9230214781513
 30
0.0
 40
3.00000002980232
  1
R
 50
374.545888780971
 41
0.933333333333334
 72
     1
 11
-578.155789167584
 21
-59.1948304086304
 31
0.0
 73
     2
  0
LINE
  5
    48
  8
0
  6
CONTINUOUS
 62
     7
 10
-571.091054578111
 20
-59.9445144882947
 30
0.0
 11
-601.588846667375
 21
-67.8578449516817
 31
0.0
  0
LINE
  5
    49
  8
0
  6
CONTINUOUS
 62
     7
 10
-589.798531286937
 20
-65.3367807094211
 30
0.0
 11
-587.069644704834
 21
-64.090515078819
 31
0.0
  0
LINE
  5
    4A
  8
0
  6
CONTINUOUS
 62
     7
 10
-587.069644704834
 20
-64.090515078819
 30
0.0
 11
-590.060207222011
 21
-64.328287724124
 31
0.0
  0
ENDBLK
  5
    4B
  8
0
  6
CONTINUOUS
 62
     7
  0
BLOCK
  5
    4C
  8
0
  6
CONTINUOUS
 62
     7
  2
*UDIM2348
 70
    65
 10
0.0
 20
0.0
 30
0.0
  3
*UDIM2348
  0
TEXT
  5
    4D
  8
0
  6
CONTINUOUS
 62
     7
 10
-651.785047287367
 20
-115.073845794212
 30
0.0
 40
3.00000002980232
  1
5
 50
392.704034205866
 41
0.933333333333334
 72
     1
 11
-651.669876625735
 21
-113.217307136537
 31
0.0
 73
     2
  0
TEXT
  5
    4E
  8
0
  6
CONTINUOUS
 62
     7
 10
-654.435686428188
 20
-116.775789450076
 30
0.0
 40
3.00000002980232
  1
Ø
 50
392.704034205866
 41
0.933333333333334
 72
     1
 11
-654.320515766555
 21
-114.919250792401
 31
0.0
 73
     2
  0
TEXT
  5
    4F
  8
0
  6
CONTINUOUS
 62
     7
 10
-649.470997228142
 20
-113.588021945579
 30
0.0
 40
3.00000002980232
  1
 (M4)
 50
392.704034205866
 41
0.933333333333333
 72
     1
 11
-644.643579167629
 21
-108.705805665484
 31
0.0
 73
     2
  0
LINE
  5
    50
  8
0
  6
CONTINUOUS
 62
     7
 10
-618.681538033304
 20
-95.006871483579
 30
0.0
 11
-653.895386853244
 21
-117.617262190748
 31
0.0
  0
LINE
  5
    51
  8
0
  6
CONTINUOUS
 62
     7
 10
-616.476937434066
 20
-92.9722373155186
 30
0.0
 11
-618.681538033304
 21
-95.006871483579
 31
0.0
  0
LINE
  5
    52
  8
0
  6
CONTINUOUS
 62
     7
 10
-618.681538033304
 20
-95.006871483579
 30
0.0
 11
-615.91400532942
 21
-93.8489583897202
 31
0.0
  0
LINE
  5
    53
  8
0
  6
CONTINUOUS
 62
     7
 10
-621.937979558122
 20
-97.716880116122
 30
0.0
 11
-619.733378958884
 21
-95.6822459480617
 31
0.0
  0
LINE
  5
    54
  8
0
  6
CONTINUOUS
 62
     7
 10
-619.733378958884
 20
-95.6822459480617
 30
0.0
 11
-622.500911662768
 21
-96.8401590419205
 31
0.0
  0
ENDBLK
  5
    55
  8
0
  6
CONTINUOUS
 62
     7
  0
BLOCK
  5
    56
  8
0
  6
CONTINUOUS
 62
     7
  2
*UDIM2349
 70
    65
 10
0.0
 20
0.0
 30
0.0
  3
*UDIM2349
  0
TEXT
  5
    57
  8
0
  6
CONTINUOUS
 62
     7
 10
-589.982458142173
 20
-117.378631587275
 30
0.0
 40
3.00000002980232
  1
25
 50
359.999999896069
 41
0.933333333333333
 72
     1
 11
-587.482458114624
 21
-115.878631576896
 31
0.0
 73
     2
  0
LINE
  5
    58
  8
0
  6
CONTINUOUS
 62
     7
 10
-592.957458496094
 20
-101.134264320003
 30
0.0
 11
-592.957458496094
 21
-120.378631591797
 31
0.0
  0
LINE
  5
    59
  8
0
  6
CONTINUOUS
 62
     7
 10
-599.207458496094
 20
-115.422472367589
 30
0.0
 11
-599.207458496094
 21
-120.378631591797
 31
0.0
  0
LINE
  5
    5A
  8
0
  6
CONTINUOUS
 62
     7
 10
-584.982458089789
 20
-118.378631591797
 30
0.0
 11
-599.207458496094
 21
-118.378631591797
 31
0.0
  0
LINE
  5
    5B
  8
0
  6
CONTINUOUS
 62
     7
 10
-595.911881773301
 20
-118.899576021749
 30
0.0
 11
-592.957458496094
 21
-118.378631591797
 31
0.0
  0
LINE
  5
    5C
  8
0
  6
CONTINUOUS
 62
     7
 10
-592.957458496094
 20
-118.378631591797
 30
0.0
 11
-595.911881773301
 21
-117.857687161845
 31
0.0
  0
LINE
  5
    5D
  8
0
  6
CONTINUOUS
 62
     7
 10
-596.253035218887
 20
-117.857687161845
 30
0.0
 11
-599.207458496094
 21
-118.378631591797
 31
0.0
  0
LINE
  5
    5E
  8
0
  6
CONTINUOUS
 62
     7
 10
-599.207458496094
 20
-118.378631591797
 30
0.0
 11
-596.253035218887
 21
-118.899576021749
 31
0.0
  0
ENDBLK
  5
    5F
  8
0
  6
CONTINUOUS
 62
     7
  0
BLOCK
  5
    60
  8
0
  6
CONTINUOUS
 62
     7
  2
*UDIM2350
 70
    65
 10
0.0
 20
0.0
 30
0.0
  3
*UDIM2350
  0
TEXT
  5
    61
  8
0
  6
CONTINUOUS
 62
     7
 10
-611.982458529603
 20
-117.378631587275
 30
0.0
 40
3.00000002980232
  1
80
 50
359.999999896069
 41
0.933333333333333
 72
     1
 11
-609.482458502054
 21
-115.878631576896
 31
0.0
 73
     2
  0
LINE
  5
    62
  8
0
  6
CONTINUOUS
 62
     7
 10
-619.207458496094
 20
-101.28259252353
 30
0.0
 11
-619.207458496094
 21
-120.378631591797
 31
0.0
  0
LINE
  5
    63
  8
0
  6
CONTINUOUS
 62
     7
 10
-599.207458496094
 20
-118.378631591797
 30
0.0
 11
-619.207458496094
 21
-118.378631591797
 31
0.0
  0
LINE
  5
    64
  8
0
  6
CONTINUOUS
 62
     7
 10
-602.161881773301
 20
-118.899576021749
 30
0.0
 11
-599.207458496094
 21
-118.378631591797
 31
0.0
  0
LINE
  5
    65
  8
0
  6
CONTINUOUS
 62
     7
 10
-599.207458496094
 20
-118.378631591797
 30
0.0
 11
-602.161881773301
 21
-117.857687161845
 31
0.0
  0
LINE
  5
    66
  8
0
  6
CONTINUOUS
 62
     7
 10
-616.253035218887
 20
-117.857687161845
 30
0.0
 11
-619.207458496094
 21
-118.378631591797
 31
0.0
  0
LINE
  5
    67
  8
0
  6
CONTINUOUS
 62
     7
 10
-619.207458496094
 20
-118.378631591797
 30
0.0
 11
-616.253035218887
 21
-118.899576021749
 31
0.0
  0
ENDBLK
  5
    68
  8
0
  6
CONTINUOUS
 62
     7
  0
BLOCK
  5
    69
  8
0
  6
CONTINUOUS
 62
     7
  2
*HATCH1312
 70
    65
 10
0.0
 20
0.0
 30
0.0
  3
*HATCH1312
  0
LINE
  5
    6A
  8
0
  6
CONTINUOUS
 62
    52
 10
-16.7279739379883
 20
-4.00005149841309
 30
0.0
 11
-18.7279739379883
 21
-6.00005149841309
 31
0.0
  0
LINE
  5
    6B
  8
0
  6
CONTINUOUS
 62
    52
 10
-12.4853324890137
 20
-4.00005149841309
 30
0.0
 11
-14.4853324890137
 21
-6.00005149841309
 31
0.0
  0
LINE
  5
    6C
  8
0
  6
CONTINUOUS
 62
    52
 10
-8.24269104003906
 20
-4.00005149841309
 30
0.0
 11
-10.2426910400391
 21
-6.00005149841309
 31
0.0
  0
LINE
  5
    6D
  8
0
  6
CONTINUOUS
 62
    52
 10
-4.00004959106445
 20
-4.00005149841309
 30
0.0
 11
-6.00004959106445
 21
-6.00005149841309
 31
0.0
  0
LINE
  5
    6E
  8
0
  6
CONTINUOUS
 62
    52
 10
0.242591381072998
 20
-4.00005149841309
 30
0.0
 11
-1.757408618927
 21
-6.00005149841309
 31
0.0
  0
LINE
  5
    6F
  8
0
  6
CONTINUOUS
 62
    52
 10
4.48523235321045
 20
-4.00005149841309
 30
0.0
 11
2.48523235321045
 21
-6.00005149841309
 31
0.0
  0
LINE
  5
    70
  8
0
  6
CONTINUOUS
 62
    52
 10
8.72787380218506
 20
-4.00005149841309
 30
0.0
 11
6.72787380218506
 21
-6.00005149841309
 31
0.0
  0
LINE
  5
    71
  8
0
  6
CONTINUOUS
 62
    52
 10
12.9705152511597
 20
-4.00005149841309
 30
0.0
 11
10.9705152511597
 21
-6.00005149841309
 31
0.0
  0
LINE
  5
    72
  8
0
  6
CONTINUOUS
 62
    52
 10
17.21315574646
 20
-4.00005149841309
 30
0.0
 11
15.2131567001343
 21
-6.00005149841309
 31
0.0
  0
LINE
  5
    73
  8
0
  6
CONTINUOUS
 62
    52
 10
21.4557971954346
 20
-4.00005149841309
 30
0.0
 11
19.4557971954346
 21
-6.00005149841309
 31
0.0
  0
LINE
  5
    74
  8
0
  6
CONTINUOUS
 62
    52
 10
25.6984386444092
 20
-4.00005149841309
 30
0.0
 11
23.6984386444092
 21
-6.00005149841309
 31
0.0
  0
LINE
  5
    75
  8
0
  6
CONTINUOUS
 62
    52
 10
29.9410800933838
 20
-4.00005149841309
 30
0.0
 11
27.9410800933838
 21
-6.00005149841309
 31
0.0
  0
LINE
  5
    76
  8
0
  6
CONTINUOUS
 62
    52
 10
34.1837196350098
 20
-4.00005149841309
 30
0.0
 11
32.1837196350098
 21
-6.00005149841309
 31
0.0
  0
ENDBLK
  5
    77
  8
0
  6
CONTINUOUS
 62
     7
  0
BLOCK
  5
    78
  8
0
  6
CONTINUOUS
 62
     7
  2
*HATCH1313
 70
    65
 10
0.0
 20
0.0
 30
0.0
  3
*HATCH1313
  0
LINE
  5
    79
  8
0
  6
CONTINUOUS
 62
    52
 10
44.7903175354004
 20
-4.00005149841309
 30
0.0
 11
42.7903175354004
 21
-6.00005149841309
 31
0.0
  0
LINE
  5
    7A
  8
0
  6
CONTINUOUS
 62
    52
 10
49.0329551696777
 20
-4.00005149841309
 30
0.0
 11
47.0329551696777
 21
-6.00005149841309
 31
0.0
  0
LINE
  5
    7B
  8
0
  6
CONTINUOUS
 62
    52
 10
53.2755928039551
 20
-4.00005149841309
 30
0.0
 11
51.2755928039551
 21
-6.00005149841309
 31
0.0
  0
ENDBLK
  5
    7C
  8
0
  6
CONTINUOUS
 62
     7
  0
BLOCK
  5
    7D
  8
0
  6
CONTINUOUS
 62
     7
  2
*HATCH1314
 70
    65
 10
0.0
 20
0.0
 30
0.0
  3
*HATCH1314
  0
LINE
  5
    7E
  8
0
  6
CONTINUOUS
 62
    52
 10
169.948226928711
 20
-4.00005149841309
 30
0.0
 11
167.948226928711
 21
-6.00005149841309
 31
0.0
  0
LINE
  5
    7F
  8
0
  6
CONTINUOUS
 62
    52
 10
174.190872192383
 20
-4.00005149841309
 30
0.0
 11
172.190872192383
 21
-6.00005149841309
 31
0.0
  0
LINE
  5
    80
  8
0
  6
CONTINUOUS
 62
    52
 10
177.480621337891
 20
-4.95293474197388
 30
0.0
 11
176.433502197266
 21
-6.00005149841309
 31
0.0
  0
ENDBLK
  5
    81
  8
0
  6
CONTINUOUS
 62
     7
  0
BLOCK
  5
    82
  8
0
  6
CONTINUOUS
 62
     7
  2
*HATCH1315
 70
    65
 10
0.0
 20
0.0
 30
0.0
  3
*HATCH1315
  0
LINE
  5
    83
  8
0
  6
CONTINUOUS
 62
    52
 10
186.918792724609
 20
-4.00005149841309
 30
0.0
 11
184.918792724609
 21
-6.00005149841309
 31
0.0
  0
LINE
  5
    84
  8
0
  6
CONTINUOUS
 62
    52
 10
191.161437988281
 20
-4.00005149841309
 30
0.0
 11
189.161437988281
 21
-6.00005149841309
 31
0.0
  0
LINE
  5
    85
  8
0
  6
CONTINUOUS
 62
    52
 10
195.404083251953
 20
-4.00005149841309
 30
0.0
 11
193.404083251953
 21
-6.00005149841309
 31
0.0
  0
LINE
  5
    86
  8
0
  6
CONTINUOUS
 62
    52
 10
199.646728515625
 20
-4.00005149841309
 30
0.0
 11
197.646728515625
 21
-6.00005149841309
 31
0.0
  0
LINE
  5
    87
  8
0
  6
CONTINUOUS
 62
    52
 10
203.889373779297
 20
-4.00005149841309
 30
0.0
 11
201.889373779297
 21
-6.00005149841309
 31
0.0
  0
LINE
  5
    88
  8
0
  6
CONTINUOUS
 62
    52
 10
208.132019042969
 20
-4.00005149841309
 30
0.0
 11
206.132019042969
 21
-6.00005149841309
 31
0.0
  0
LINE
  5
    89
  8
0
  6
CONTINUOUS
 62
    52
 10
212.374664306641
 20
-4.00005149841309
 30
0.0
 11
210.374664306641
 21
-6.00005149841309
 31
0.0
  0
LINE
  5
    8A
  8
0
  6
CONTINUOUS
 62
    52
 10
215.235687255859
 20
-5.38163805007935
 30
0.0
 11
214.617279052734
 21
-6.00005149841309
 31
0.0
  0
ENDBLK
  5
    8B
  8
0
  6
CONTINUOUS
 62
     7
  0
BLOCK
  5
    8C
  8
0
  6
CONTINUOUS
 62
     7
  2
*UDIM2351
 70
    65
 10
0.0
 20
0.0
 30
0.0
  3
*UDIM2351
  0
TEXT
  5
    8D
  8
0
  6
CONTINUOUS
 62
     7
 10
-537.412544256557
 20
72.7549136432802
 30
0.0
 40
3.00000002980232
  1
73,75
 50
89.9999999480344
 41
0.933333333333333
 72
     1
 11
-538.91254426539
 21
79.4549137111972
 31
0.0
 73
     2
  0
LINE
  5
    8E
  8
0
  6
CONTINUOUS
 62
     7
 10
-494.032754453043
 20
61.2924213521621
 30
0.0
 11
-538.412544250488
 21
61.2924213521621
 31
0.0
  0
LINE
  5
    8F
  8
0
  6
CONTINUOUS
 62
     7
 10
-536.412544250488
 20
61.2924213521621
 30
0.0
 11
-536.412544250488
 21
98.1674060821533
 31
0.0
  0
LINE
  5
    90
  8
0
  6
CONTINUOUS
 62
     7
 10
-536.93348868044
 20
64.246844629369
 30
0.0
 11
-536.412544250488
 21
61.2924213521621
 31
0.0
  0
LINE
  5
    91
  8
0
  6
CONTINUOUS
 62
     7
 10
-536.412544250488
 20
61.2924213521621
 30
0.0
 11
-535.891599820537
 21
64.246844629369
 31
0.0
  0
LINE
  5
    92
  8
0
  6
CONTINUOUS
 62
     7
 10
-535.891599820537
 20
95.2129828049464
 30
0.0
 11
-536.412544250488
 21
98.1674060821533
 31
0.0
  0
LINE
  5
    93
  8
0
  6
CONTINUOUS
 62
     7
 10
-536.412544250488
 20
98.1674060821533
 30
0.0
 11
-536.93348868044
 21
95.2129828049464
 31
0.0
  0
ENDBLK
  5
    94
  8
0
  6
CONTINUOUS
 62
     7
  0
BLOCK
  5
    95
  8
0
  6
CONTINUOUS
 62
     7
  2
*UDIM2352
 70
    65
 10
0.0
 20
0.0
 30
0.0
  3
*UDIM2352
  0
TEXT
  5
    96
  8
0
  6
CONTINUOUS
 62
     7
 10
-402.625035393598
 20
-0.545261382064501
 30
0.0
 40
3.00000002980232
  1
2
 50
359.999999948034
 41
0.933333333333334
 72
     1
 11
-401.525035381317
 21
0.954738631844521
 31
0.0
 73
     2
  0
LINE
  5
    97
  8
0
  6
CONTINUOUS
 62
     7
 10
-400.42503537039
 20
-1.54526138305664
 30
0.0
 11
-406.62503528595
 21
-1.54526138305664
 31
0.0
  0
LINE
  5
    98
  8
0
  6
CONTINUOUS
 62
     7
 10
-402.670612008743
 20
-1.02431695310498
 30
0.0
 11
-405.62503528595
 21
-1.54526138305664
 31
0.0
  0
LINE
  5
    99
  8
0
  6
CONTINUOUS
 62
     7
 10
-405.62503528595
 20
-1.54526138305664
 30
0.0
 11
-402.670612008743
 21
-2.0662058130083
 31
0.0
  0
LINE
  5
    9A
  8
0
  6
CONTINUOUS
 62
     7
 10
-409.579458563157
 20
-2.0662058130083
 30
0.0
 11
-406.62503528595
 21
-1.54526138305664
 31
0.0
  0
LINE
  5
    9B
  8
0
  6
CONTINUOUS
 62
     7
 10
-406.62503528595
 20
-1.54526138305664
 30
0.0
 11
-409.579458563157
 21
-1.02431695310498
 31
0.0
  0
ENDBLK
  5
    9C
  8
0
  6
CONTINUOUS
 62
     7
  0
BLOCK
  5
    9D
  8
0
  6
CONTINUOUS
 62
     7
  2
*UDIM2353
 70
    65
 10
0.0
 20
0.0
 30
0.0
  3
*UDIM2353
  0
TEXT
  5
    9E
  8
0
  6
CONTINUOUS
 62
     7
 10
-452.725042035542
 20
-0.545261377013606
 30
0.0
 40
3.00000002980232
  1
156,5
 50
359.999999948034
 41
0.933333333333333
 72
     1
 11
-446.02504196763
 21
0.954738631844521
 31
0.0
 73
     2
  0
LINE
  5
    9F
  8
0
  6
CONTINUOUS
 62
     7
 10
-484.875053405762
 20
1.45092421878203
 30
0.0
 11
-484.875053405762
 21
-3.54526138305664
 31
0.0
  0
LINE
  5
    A0
  8
0
  6
CONTINUOUS
 62
     7
 10
-406.62503528595
 20
-1.54526138305664
 30
0.0
 11
-484.875053405762
 21
-1.54526138305664
 31
0.0
  0
LINE
  5
    A1
  8
0
  6
CONTINUOUS
 62
     7
 10
-409.579458563157
 20
-2.0662058130083
 30
0.0
 11
-406.62503528595
 21
-1.54526138305664
 31
0.0
  0
LINE
  5
    A2
  8
0
  6
CONTINUOUS
 62
     7
 10
-406.62503528595
 20
-1.54526138305664
 30
0.0
 11
-409.579458563157
 21
-1.02431695310498
 31
0.0
  0
LINE
  5
    A3
  8
0
  6
CONTINUOUS
 62
     7
 10
-481.920630128555
 20
-1.02431695310498
 30
0.0
 11
-484.875053405762
 21
-1.54526138305664
 31
0.0
  0
LINE
  5
    A4
  8
0
  6
CONTINUOUS
 62
     7
 10
-484.875053405762
 20
-1.54526138305664
 30
0.0
 11
-481.920630128555
 21
-2.0662058130083
 31
0.0
  0
ENDBLK
  5
    A5
  8
0
  6
CONTINUOUS
 62
     7
  0
BLOCK
  5
    A6
  8
0
  6
CONTINUOUS
 62
     7
  2
*UDIM2354
 70
    65
 10
0.0
 20
0.0
 30
0.0
  3
*UDIM2354
  0
TEXT
  5
    A7
  8
0
  6
CONTINUOUS
 62
     7
 10
-546.383438113884
 20
58.2424136654858
 30
0.0
 40
3.00000002980232
  1
143
 50
89.9999999480344
 41
0.933333333333333
 72
     1
 11
-547.883438125253
 21
62.1424137055874
 31
0.0
 73
     2
  0
LINE
  5
    A8
  8
0
  6
CONTINUOUS
 62
     7
 10
-544.285376255261
 20
26.6674213409424
 30
0.0
 11
-547.383438110352
 21
26.6674213409424
 31
0.0
  0
LINE
  5
    A9
  8
0
  6
CONTINUOUS
 62
     7
 10
-544.285376255261
 20
98.1674060821533
 30
0.0
 11
-547.383438110352
 21
98.1674060821533
 31
0.0
  0
LINE
  5
    AA
  8
0
  6
CONTINUOUS
 62
     7
 10
-545.383438110352
 20
26.6674213409424
 30
0.0
 11
-545.383438110352
 21
98.1674060821533
 31
0.0
  0
LINE
  5
    AB
  8
0
  6
CONTINUOUS
 62
     7
 10
-545.904382540303
 20
29.6218446181493
 30
0.0
 11
-545.383438110352
 21
26.6674213409424
 31
0.0
  0
LINE
  5
    AC
  8
0
  6
CONTINUOUS
 62
     7
 10
-545.383438110352
 20
26.6674213409424
 30
0.0
 11
-544.8624936804
 21
29.6218446181493
 31
0.0
  0
LINE
  5
    AD
  8
0
  6
CONTINUOUS
 62
     7
 10
-544.8624936804
 20
95.2129828049464
 30
0.0
 11
-545.383438110352
 21
98.1674060821533
 31
0.0
  0
LINE
  5
    AE
  8
0
  6
CONTINUOUS
 62
     7
 10
-545.383438110352
 20
98.1674060821533
 30
0.0
 11
-545.904382540303
 21
95.2129828049464
 31
0.0
  0
ENDBLK
  5
    AF
  8
0
  6
CONTINUOUS
 62
     7
  0
BLOCK
  5
    B0
  8
0
  6
CONTINUOUS
 62
     7
  2
*UDIM2355
 70
    65
 10
0.0
 20
0.0
 30
0.0
  3
*UDIM2355
  0
TEXT
  5
    B1
  8
0
  6
CONTINUOUS
 62
     7
 10
-493.304748740512
 20
9.62062263587984
 30
0.0
 40
3.00000002980232
  1
3
 50
359.999999948034
 41
0.933333333333334
 72
     1
 11
-492.204748728232
 21
11.1206226497889
 31
0.0
 73
     2
  0
LINE
  5
    B2
  8
0
  6
CONTINUOUS
 62
     7
 10
-484.87506142532
 20
8.6206226348877
 30
0.0
 11
-493.304748739159
 21
8.6206226348877
 31
0.0
  0
LINE
  5
    B3
  8
0
  6
CONTINUOUS
 62
     7
 10
-481.920638148113
 20
9.14156706483936
 30
0.0
 11
-484.87506142532
 21
8.6206226348877
 31
0.0
  0
LINE
  5
    B4
  8
0
  6
CONTINUOUS
 62
     7
 10
-484.87506142532
 20
8.6206226348877
 30
0.0
 11
-481.920638148113
 21
8.09967820493603
 31
0.0
  0
LINE
  5
    B5
  8
0
  6
CONTINUOUS
 62
     7
 10
-489.329474580872
 20
8.09967820493603
 30
0.0
 11
-486.375051303665
 21
8.6206226348877
 31
0.0
  0
LINE
  5
    B6
  8
0
  6
CONTINUOUS
 62
     7
 10
-486.375051303665
 20
8.6206226348877
 30
0.0
 11
-489.329474580872
 21
9.14156706483936
 31
0.0
  0
ENDBLK
  5
    B7
  8
0
  6
CONTINUOUS
 62
     7
  0
BLOCK
  5
    B8
  8
0
  6
CONTINUOUS
 62
     7
  2
*UDIM2356
 70
    65
 10
0.0
 20
0.0
 30
0.0
  3
*UDIM2356
  0
TEXT
  5
    B9
  8
0
  6
CONTINUOUS
 62
     7
 10
-445.713773424003
 20
-11.8852291046747
 30
0.0
 40
3.00000002980232
  1
184,5
 50
359.999999948034
 41
0.933333333333333
 72
     1
 11
-439.013773356092
 21
-10.3852290958166
 31
0.0
 73
     2
  0
LINE
  5
    BA
  8
0
  6
CONTINUOUS
 62
     7
 10
-392.602497100764
 20
55.1674213521621
 30
0.0
 11
-392.602520007057
 21
-14.8852291107177
 31
0.0
  0
LINE
  5
    BB
  8
0
  6
CONTINUOUS
 62
     7
 10
-484.875054368885
 20
1.45092421878249
 30
0.0
 11
-484.875070102607
 21
-14.8852291107168
 31
0.0
  0
LINE
  5
    BC
  8
0
  6
CONTINUOUS
 62
     7
 10
-392.602519353083
 20
-12.8852291107178
 30
0.0
 11
-484.875068176362
 21
-12.8852291107178
 31
0.0
  0
LINE
  5
    BD
  8
0
  6
CONTINUOUS
 62
     7
 10
-395.55694263029
 20
-13.4061735406694
 30
0.0
 11
-392.602519353083
 21
-12.8852291107178
 31
0.0
  0
LINE
  5
    BE
  8
0
  6
CONTINUOUS
 62
     7
 10
-392.602519353083
 20
-12.8852291107178
 30
0.0
 11
-395.55694263029
 21
-12.3642846807661
 31
0.0
  0
LINE
  5
    BF
  8
0
  6
CONTINUOUS
 62
     7
 10
-481.920644899154
 20
-12.3642846807661
 30
0.0
 11
-484.875068176362
 21
-12.8852291107178
 31
0.0
  0
LINE
  5
    C0
  8
0
  6
CONTINUOUS
 62
     7
 10
-484.875068176362
 20
-12.8852291107178
 30
0.0
 11
-481.920644899154
 21
-13.4061735406694
 31
0.0
  0
ENDBLK
  5
    C1
  8
0
  6
CONTINUOUS
 62
     7
  0
BLOCK
  5
    C2
  8
0
  6
CONTINUOUS
 62
     7
  2
*UDIM2357
 70
    65
 10
0.0
 20
0.0
 30
0.0
  3
*UDIM2357
  0
TEXT
  5
    C3
  8
0
  6
CONTINUOUS
 62
     7
 10
-450.799702482536
 20
9.62062263840528
 30
0.0
 40
3.00000002980232
  1
153
 50
359.999999948034
 41
0.933333333333333
 72
     1
 11
-446.899702442441
 21
11.1206226497889
 31
0.0
 73
     2
  0
LINE
  5
    C4
  8
0
  6
CONTINUOUS
 62
     7
 10
-408.374375640849
 20
34.0424213539896
 30
0.0
 11
-408.374384249003
 21
6.62062263488779
 31
0.0
  0
LINE
  5
    C5
  8
0
  6
CONTINUOUS
 62
     7
 10
-408.37438362117
 20
8.6206226348877
 30
0.0
 11
-484.87506142532
 21
8.6206226348877
 31
0.0
  0
LINE
  5
    C6
  8
0
  6
CONTINUOUS
 62
     7
 10
-411.328806898377
 20
8.09967820493603
 30
0.0
 11
-408.37438362117
 21
8.6206226348877
 31
0.0
  0
LINE
  5
    C7
  8
0
  6
CONTINUOUS
 62
     7
 10
-408.37438362117
 20
8.6206226348877
 30
0.0
 11
-411.328806898377
 21
9.14156706483936
 31
0.0
  0
LINE
  5
    C8
  8
0
  6
CONTINUOUS
 62
     7
 10
-481.920638148113
 20
9.14156706483936
 30
0.0
 11
-484.87506142532
 21
8.6206226348877
 31
0.0
  0
LINE
  5
    C9
  8
0
  6
CONTINUOUS
 62
     7
 10
-484.87506142532
 20
8.6206226348877
 30
0.0
 11
-481.920638148113
 21
8.09967820493603
 31
0.0
  0
ENDBLK
  5
    CA
  8
0
  6
CONTINUOUS
 62
     7
  0
BLOCK
  5
    CB
  8
0
  6
CONTINUOUS
 62
     7
  2
*UDIM2358
 70
    65
 10
0.0
 20
0.0
 30
0.0
  3
*UDIM2358
  0
TEXT
  5
    CC
  8
0
  6
CONTINUOUS
 62
     7
 10
-381.9580535924
 20
52.8890276625956
 30
0.0
 40
3.00000002980232
  1
105
 50
89.9999999480344
 41
0.933333333333333
 72
     1
 11
-383.458053603768
 21
56.7890277026971
 31
0.0
 73
     2
  0
LINE
  5
    CD
  8
0
  6
CONTINUOUS
 62
     7
 10
-405.62503528595
 20
35.0424213533421
 30
0.0
 11
-378.958053588867
 21
35.0424213533421
 31
0.0
  0
LINE
  5
    CE
  8
0
  6
CONTINUOUS
 62
     7
 10
-405.62503528595
 20
87.5424213521621
 30
0.0
 11
-378.958053588867
 21
87.5424213521621
 31
0.0
  0
LINE
  5
    CF
  8
0
  6
CONTINUOUS
 62
     7
 10
-380.958053588867
 20
35.0424213533421
 30
0.0
 11
-380.958053588867
 21
87.5424213521621
 31
0.0
  0
LINE
  5
    D0
  8
0
  6
CONTINUOUS
 62
     7
 10
-381.478998018819
 20
37.996844630549
 30
0.0
 11
-380.958053588867
 21
35.0424213533421
 31
0.0
  0
LINE
  5
    D1
  8
0
  6
CONTINUOUS
 62
     7
 10
-380.958053588867
 20
35.0424213533421
 30
0.0
 11
-380.437109158916
 21
37.996844630549
 31
0.0
  0
LINE
  5
    D2
  8
0
  6
CONTINUOUS
 62
     7
 10
-380.437109158916
 20
84.5879980749551
 30
0.0
 11
-380.958053588867
 21
87.5424213521621
 31
0.0
  0
LINE
  5
    D3
  8
0
  6
CONTINUOUS
 62
     7
 10
-380.958053588867
 20
87.5424213521621
 30
0.0
 11
-381.478998018819
 21
84.5879980749551
 31
0.0
  0
ENDBLK
  5
    D4
  8
0
  6
CONTINUOUS
 62
     7
  0
BLOCK
  5
    D5
  8
0
  6
CONTINUOUS
 62
     7
  2
MOSTRINA
 70
    64
 10
0.0
 20
0.0
 30
0.0
  3
MOSTRINA
  0
LINE
  5
    D6
  8
0
  6
CONTINUOUS
 62
     3
 10
173.338256835938
 20
30.7306251525879
 30
0.0
 11
173.338256835938
 21
189.230621337891
 31
0.0
  0
LINE
  5
    D7
  8
0
  6
CONTINUOUS
 62
     3
 10
57.5882568359375
 20
29.4806251525879
 30
0.0
 11
172.088256835938
 21
29.4806251525879
 31
0.0
  0
LINE
  5
    D8
  8
0
  6
CONTINUOUS
 62
     3
 10
56.3382568359375
 20
30.7306251525879
 30
0.0
 11
56.3382568359375
 21
189.230621337891
 31
0.0
  0
LINE
  5
    D9
  8
0
  6
CONTINUOUS
 62
     3
 10
57.5882568359375
 20
190.480621337891
 30
0.0
 11
172.088256835938
 21
190.480621337891
 31
0.0
  0
LINE
  5
    DA
  8
0
  6
CONTINUOUS
 62
     3
 10
167.838256835938
 20
56.9806251525879
 30
0.0
 11
167.838256835938
 21
162.980625152588
 31
0.0
  0
LINE
  5
    DB
  8
0
  6
CONTINUOUS
 62
     3
 10
61.8382568359375
 20
56.9806251525879
 30
0.0
 11
167.838256835938
 21
56.9806251525879
 31
0.0
  0
LINE
  5
    DC
  8
0
  6
CONTINUOUS
 62
     3
 10
61.8382568359375
 20
56.9806251525879
 30
0.0
 11
61.8382568359375
 21
162.980625152588
 31
0.0
  0
LINE
  5
    DD
  8
0
  6
CONTINUOUS
 62
     3
 10
61.8382568359375
 20
162.980621337891
 30
0.0
 11
167.838256835938
 21
162.980621337891
 31
0.0
  0
LINE
  5
    DE
  8
0
  6
CONTINUOUS
 62
     3
 10
168.838256835938
 20
48.4806251525879
 30
0.0
 11
168.838256835938
 21
49.4806251525879
 31
0.0
  0
LINE
  5
    DF
  8
0
  6
CONTINUOUS
 62
     3
 10
61.8382568359375
 20
50.4806251525879
 30
0.0
 11
167.838256835938
 21
50.4806251525879
 31
0.0
  0
LINE
  5
    E0
  8
0
  6
CONTINUOUS
 62
     3
 10
60.8382568359375
 20
48.4806251525879
 30
0.0
 11
60.8382568359375
 21
49.4806251525879
 31
0.0
  0
LINE
  5
    E1
  8
0
  6
CONTINUOUS
 62
     3
 10
61.8382568359375
 20
49.4806251525879
 30
0.0
 11
167.838256835938
 21
49.4806251525879
 31
0.0
  0
LINE
  5
    E2
  8
0
  6
CONTINUOUS
 62
     3
 10
60.8382568359375
 20
29.4806251525879
 30
0.0
 11
60.8382568359375
 21
48.4806251525879
 31
0.0
  0
LINE
  5
    E3
  8
0
  6
CONTINUOUS
 62
     3
 10
60.8382568359375
 20
49.4806213378906
 30
0.0
 11
60.8382568359375
 21
190.480621337891
 31
0.0
  0
LINE
  5
    E4
  8
0
  6
CONTINUOUS
 62
     3
 10
61.8382568359375
 20
29.4806251525879
 30
0.0
 11
61.8382568359375
 21
49.4806251525879
 31
0.0
  0
LINE
  5
    E5
  8
0
  6
CONTINUOUS
 62
     3
 10
61.8382568359375
 20
162.980621337891
 30
0.0
 11
61.8382568359375
 21
169.480621337891
 31
0.0
  0
LINE
  5
    E6
  8
0
  6
CONTINUOUS
 62
     3
 10
61.8382568359375
 20
50.4806251525879
 30
0.0
 11
61.8382568359375
 21
56.9806251525879
 31
0.0
  0
LINE
  5
    E7
  8
0
  6
CONTINUOUS
 62
     3
 10
168.838256835938
 20
29.4806251525879
 30
0.0
 11
168.838256835938
 21
48.4806251525879
 31
0.0
  0
LINE
  5
    E8
  8
0
  6
CONTINUOUS
 62
     3
 10
168.838256835938
 20
49.4806251525879
 30
0.0
 11
168.838256835938
 21
190.480621337891
 31
0.0
  0
LINE
  5
    E9
  8
0
  6
CONTINUOUS
 62
     3
 10
167.838256835938
 20
50.4806251525879
 30
0.0
 11
167.838256835938
 21
56.9806251525879
 31
0.0
  0
LINE
  5
    EA
  8
0
  6
CONTINUOUS
 62
     3
 10
167.838256835938
 20
162.980621337891
 30
0.0
 11
167.838256835938
 21
169.480621337891
 31
0.0
  0
LINE
  5
    EB
  8
0
  6
CONTINUOUS
 62
     3
 10
167.838256835938
 20
29.4806251525879
 30
0.0
 11
167.838256835938
 21
49.4806251525879
 31
0.0
  0
LINE
  5
    EC
  8
0
  6
CONTINUOUS
 62
     3
 10
60.8382568359375
 20
170.480621337891
 30
0.0
 11
168.838256835938
 21
170.480621337891
 31
0.0
  0
LINE
  5
    ED
  8
0
  6
CONTINUOUS
 62
     3
 10
61.8382568359375
 20
169.480621337891
 30
0.0
 11
167.838256835938
 21
169.480621337891
 31
0.0
  0
ARC
  5
    EE
  8
0
  6
CONTINUOUS
 62
     3
 10
57.5882568359375
 20
30.7306251525879
 30
0.0
 40
1.25
 50
180.0
 51
270.0
  0
ARC
  5
    EF
  8
0
  6
CONTINUOUS
 62
     3
 10
172.088256835938
 20
30.7306251525879
 30
0.0
 40
1.25
 50
270.0
 51
360.0
  0
ARC
  5
    F0
  8
0
  6
CONTINUOUS
 62
     3
 10
172.088256835938
 20
189.230621337891
 30
0.0
 40
1.25
 50
0.0
 51
90.0
  0
ARC
  5
    F1
  8
0
  6
CONTINUOUS
 62
     3
 10
57.5882568359375
 20
189.230621337891
 30
0.0
 40
1.25
 50
90.0
 51
180.0
  0
LINE
  5
    F2
  8
0
  6
DOT
 62
     3
 10
60.3382577409677
 20
179.7306252571
 30
0.0
 11
60.8382568359375
 21
179.7306252571
 31
0.0
  0
LINE
  5
    F3
  8
0
  6
DOT
 62
     3
 10
60.3382577409676
 20
181.2306252571
 30
0.0
 11
60.8382568359375
 21
181.2306252571
 31
0.0
  0
LINE
  5
    F4
  8
0
  6
CONTINUOUS
 62
     3
 10
168.338257745313
 20
179.730625257273
 30
0.0
 11
168.838256835938
 21
179.730625257273
 31
0.0
  0
LINE
  5
    F5
  8
0
  6
CONTINUOUS
 62
     3
 10
168.338257745314
 20
181.230625257273
 30
0.0
 11
168.838256835938
 21
181.230625257273
 31
0.0
  0
ARC
  5
    F6
  8
0
  6
DOT
 62
     3
 10
60.3382577401871
 20
180.480625257147
 30
0.0
 40
0.749999999345164
 50
90.0
 51
270.0
  0
ARC
  5
    F7
  8
0
  6
CONTINUOUS
 62
     3
 10
61.338257740822
 20
180.480625256974
 30
0.0
 40
0.750000000009701
 50
270.0
 51
450.0
  0
LINE
  5
    F8
  8
0
  6
CONTINUOUS
 62
     3
 10
60.8382568359375
 20
181.2306252571
 30
0.0
 11
61.3382577409688
 21
181.2306252571
 31
0.0
  0
LINE
  5
    F9
  8
0
  6
CONTINUOUS
 62
     3
 10
60.8382568359375
 20
179.7306252571
 30
0.0
 11
61.3382577409689
 21
179.7306252571
 31
0.0
  0
ARC
  5
    FA
  8
0
  6
CONTINUOUS
 62
     3
 10
168.338257745503
 20
180.480625256952
 30
0.0
 40
0.750000000048506
 50
90.0000000038822
 51
269.999999996024
  0
ARC
  5
    FB
  8
0
  6
DOT
 62
     3
 10
169.338257745421
 20
180.480625256965
 30
0.0
 40
0.750000000029104
 50
270.000000002449
 51
449.999999997486
  0
LINE
  5
    FC
  8
0
  6
DOT
 62
     3
 10
168.838256835938
 20
181.230625257273
 30
0.0
 11
169.338257745315
 21
181.230625257273
 31
0.0
  0
LINE
  5
    FD
  8
0
  6
DOT
 62
     3
 10
168.838256835938
 20
179.730625257273
 30
0.0
 11
169.338257745315
 21
179.730625257273
 31
0.0
  0
POINT
  5
    FE
  8
0
  6
CONTINUOUS
 62
     3
 10
114.838256835938
 20
109.980621337891
 30
0.0
  0
ENDBLK
  5
    FF
  8
0
  6
CONTINUOUS
 62
     7
  0
BLOCK
  5
   100
  8
0
  6
CONTINUOUS
 62
     7
  2
*UDIM2359
 70
    65
 10
0.0
 20
0.0
 30
0.0
  3
*UDIM2359
  0
TEXT
  5
   101
  8
0
  6
CONTINUOUS
 62
     7
 10
-561.74930572863
 20
57.1174289242729
 30
0.0
 40
3.00000002980232
  1
161
 50
89.9999999480344
 41
0.933333333333333
 72
     1
 11
-563.249305739999
 21
61.0174289643745
 31
0.0
 73
     2
  0
LINE
  5
   102
  8
0
  6
CONTINUOUS
 62
     7
 10
-569.582461666898
 20
21.0424270629863
 30
0.0
 11
-558.749305725098
 21
21.0424270629863
 31
0.0
  0
LINE
  5
   103
  8
0
  6
CONTINUOUS
 62
     7
 10
-569.582461666898
 20
101.542425155638
 30
0.0
 11
-558.749305725098
 21
101.542425155638
 31
0.0
  0
LINE
  5
   104
  8
0
  6
CONTINUOUS
 62
     7
 10
-560.749305725098
 20
21.0424270629863
 30
0.0
 11
-560.749305725098
 21
101.542425155638
 31
0.0
  0
LINE
  5
   105
  8
0
  6
CONTINUOUS
 62
     7
 10
-561.270250155049
 20
23.9968503401933
 30
0.0
 11
-560.749305725098
 21
21.0424270629863
 31
0.0
  0
LINE
  5
   106
  8
0
  6
CONTINUOUS
 62
     7
 10
-560.749305725098
 20
21.0424270629863
 30
0.0
 11
-560.228361295146
 21
23.9968503401933
 31
0.0
  0
LINE
  5
   107
  8
0
  6
CONTINUOUS
 62
     7
 10
-560.228361295146
 20
98.5880018784307
 30
0.0
 11
-560.749305725098
 21
101.542425155638
 31
0.0
  0
LINE
  5
   108
  8
0
  6
CONTINUOUS
 62
     7
 10
-560.749305725098
 20
101.542425155638
 30
0.0
 11
-561.270250155049
 21
98.5880018784307
 31
0.0
  0
ENDBLK
  5
   109
  8
0
  6
CONTINUOUS
 62
     7
  0
BLOCK
  5
   10A
  8
0
  6
CONTINUOUS
 62
     7
  2
*UDIM2360
 70
    65
 10
0.0
 20
0.0
 30
0.0
  3
*UDIM2360
  0
TEXT
  5
   10B
  8
0
  6
CONTINUOUS
 62
     7
 10
-603.382458524106
 20
-7.39841651564745
 30
0.0
 40
3.00000002980232
  1
117
 50
359.999999948034
 41
0.933333333333333
 72
     1
 11
-599.48245848401
 21
-5.89841650426388
 31
0.0
 73
     2
  0
LINE
  5
   10C
  8
0
  6
CONTINUOUS
 62
     7
 10
-569.957461666898
 20
20.6674270629864
 30
0.0
 11
-569.957461666898
 21
-10.398416519165
 31
0.0
  0
LINE
  5
   10D
  8
0
  6
CONTINUOUS
 62
     7
 10
-628.457461666898
 20
20.6674270629863
 30
0.0
 11
-628.457461666898
 21
-10.398416519165
 31
0.0
  0
LINE
  5
   10E
  8
0
  6
CONTINUOUS
 62
     7
 10
-569.957461666898
 20
-8.39841651916504
 30
0.0
 11
-628.457461666898
 21
-8.39841651916504
 31
0.0
  0
LINE
  5
   10F
  8
0
  6
CONTINUOUS
 62
     7
 10
-572.911884944105
 20
-8.9193609491167
 30
0.0
 11
-569.957461666898
 21
-8.39841651916504
 31
0.0
  0
LINE
  5
   110
  8
0
  6
CONTINUOUS
 62
     7
 10
-569.957461666898
 20
-8.39841651916504
 30
0.0
 11
-572.911884944105
 21
-7.87747208921338
 31
0.0
  0
LINE
  5
   111
  8
0
  6
CONTINUOUS
 62
     7
 10
-625.503038389691
 20
-7.87747208921338
 30
0.0
 11
-628.457461666898
 21
-8.39841651916504
 31
0.0
  0
LINE
  5
   112
  8
0
  6
CONTINUOUS
 62
     7
 10
-628.457461666898
 20
-8.39841651916504
 30
0.0
 11
-625.503038389691
 21
-8.9193609491167
 31
0.0
  0
ENDBLK
  5
   113
  8
0
  6
CONTINUOUS
 62
     7
  0
BLOCK
  5
   114
  8
0
  6
CONTINUOUS
 62
     7
  2
*UDIM2361
 70
    65
 10
0.0
 20
0.0
 30
0.0
  3
*UDIM2361
  0
TEXT
  5
   115
  8
0
  6
CONTINUOUS
 62
     7
 10
-653.051024919856
 20
76.7549212670663
 30
0.0
 40
3.00000002980232
  1
89,75
 50
89.9999999480344
 41
0.933333333333333
 72
     1
 11
-654.551024928689
 21
83.4549213349834
 31
0.0
 73
     2
  0
LINE
  5
   116
  8
0
  6
CONTINUOUS
 62
     7
 10
-651.822135485453
 20
61.2924251556377
 30
0.0
 11
-654.051024913788
 21
61.2924251556377
 31
0.0
  0
LINE
  5
   117
  8
0
  6
CONTINUOUS
 62
     7
 10
-643.332470294576
 20
106.167421340947
 30
0.0
 11
-654.051024913788
 21
106.167421340947
 31
0.0
  0
LINE
  5
   118
  8
0
  6
CONTINUOUS
 62
     7
 10
-652.051024913788
 20
61.2924251556377
 30
0.0
 11
-652.051024913788
 21
106.167421340947
 31
0.0
  0
LINE
  5
   119
  8
0
  6
CONTINUOUS
 62
     7
 10
-652.57196934374
 20
64.2468484328447
 30
0.0
 11
-652.051024913788
 21
61.2924251556377
 31
0.0
  0
LINE
  5
   11A
  8
0
  6
CONTINUOUS
 62
     7
 10
-652.051024913788
 20
61.2924251556377
 30
0.0
 11
-651.530080483836
 21
64.2468484328447
 31
0.0
  0
LINE
  5
   11B
  8
0
  6
CONTINUOUS
 62
     7
 10
-651.530080483836
 20
103.21299806374
 30
0.0
 11
-652.051024913788
 21
106.167421340947
 31
0.0
  0
LINE
  5
   11C
  8
0
  6
CONTINUOUS
 62
     7
 10
-652.051024913788
 20
106.167421340947
 30
0.0
 11
-652.57196934374
 21
103.21299806374
 31
0.0
  0
ENDBLK
  5
   11D
  8
0
  6
CONTINUOUS
 62
     7
  0
BLOCK
  5
   11E
  8
0
  6
CONTINUOUS
 62
     7
  2
*UDIM2362
 70
    65
 10
0.0
 20
0.0
 30
0.0
  3
*UDIM2362
  0
TEXT
  5
   11F
  8
0
  6
CONTINUOUS
 62
     7
 10
-603.382469990496
 20
1.89412737244459
 30
0.0
 40
3.00000002980232
  1
105
 50
359.999999948034
 41
0.933333333333333
 72
     1
 11
-599.4824699504
 21
3.39412738382816
 31
0.0
 73
     2
  0
LINE
  5
   120
  8
0
  6
CONTINUOUS
 62
     7
 10
-572.957470294577
 20
67.0424175262432
 30
0.0
 11
-572.957470294577
 21
-1.105872631073
 31
0.0
  0
LINE
  5
   121
  8
0
  6
CONTINUOUS
 62
     7
 10
-625.457461666884
 20
67.0424175262432
 30
0.0
 11
-625.457461666884
 21
-1.105872631073
 31
0.0
  0
LINE
  5
   122
  8
0
  6
CONTINUOUS
 62
     7
 10
-572.957470294577
 20
0.894127368927002
 30
0.0
 11
-625.457461666884
 21
0.894127368927002
 31
0.0
  0
LINE
  5
   123
  8
0
  6
CONTINUOUS
 62
     7
 10
-575.911893571784
 20
0.373182938975338
 30
0.0
 11
-572.957470294577
 21
0.894127368927002
 31
0.0
  0
LINE
  5
   124
  8
0
  6
CONTINUOUS
 62
     7
 10
-572.957470294577
 20
0.894127368927002
 30
0.0
 11
-575.911893571784
 21
1.41507179887867
 31
0.0
  0
LINE
  5
   125
  8
0
  6
CONTINUOUS
 62
     7
 10
-622.503038389677
 20
1.41507179887866
 30
0.0
 11
-625.457461666884
 21
0.894127368927002
 31
0.0
  0
LINE
  5
   126
  8
0
  6
CONTINUOUS
 62
     7
 10
-625.457461666884
 20
0.894127368927002
 30
0.0
 11
-622.503038389677
 21
0.373182938975338
 31
0.0
  0
ENDBLK
  5
   127
  8
0
  6
CONTINUOUS
 62
     7
  0
BLOCK
  5
   128
  8
0
  6
CONTINUOUS
 62
     7
  2
*UDIM2363
 70
    65
 10
0.0
 20
0.0
 30
0.0
  3
*UDIM2363
  0
TEXT
  5
   129
  8
0
  6
CONTINUOUS
 62
     7
 10
-591.657458552016
 20
10.4923977899671
 30
0.0
 40
3.00000002980232
  1
52,5
 50
359.999999948034
 41
0.933333333333333
 72
     1
 11
-586.357458498013
 21
11.9923978000879
 31
0.0
 73
     2
  0
LINE
  5
   12A
  8
0
  6
CONTINUOUS
 62
     7
 10
-572.95746209032
 20
34.2924251556378
 30
0.0
 11
-572.957473438042
 21
7.49239778518695
 31
0.0
  0
LINE
  5
   12B
  8
0
  6
CONTINUOUS
 62
     7
 10
-572.957472591198
 20
9.49239778518677
 30
0.0
 11
-599.207455956208
 21
9.49239778518677
 31
0.0
  0
LINE
  5
   12C
  8
0
  6
CONTINUOUS
 62
     7
 10
-575.911895868404
 20
8.9714533552351
 30
0.0
 11
-572.957472591198
 21
9.49239778518677
 31
0.0
  0
LINE
  5
   12D
  8
0
  6
CONTINUOUS
 62
     7
 10
-572.957472591198
 20
9.49239778518677
 30
0.0
 11
-575.911895868404
 21
10.0133422151384
 31
0.0
  0
LINE
  5
   12E
  8
0
  6
CONTINUOUS
 62
     7
 10
-596.253032679001
 20
10.0133422151384
 30
0.0
 11
-599.207455956208
 21
9.49239778518677
 31
0.0
  0
LINE
  5
   12F
  8
0
  6
CONTINUOUS
 62
     7
 10
-599.207455956208
 20
9.49239778518677
 30
0.0
 11
-596.253032679001
 21
8.9714533552351
 31
0.0
  0
ENDBLK
  5
   130
  8
0
  6
CONTINUOUS
 62
     7
  0
BLOCK
  5
   131
  8
0
  6
CONTINUOUS
 62
     7
  2
*UDIM2364
 70
    65
 10
0.0
 20
0.0
 30
0.0
  3
*UDIM2364
  0
TEXT
  5
   132
  8
0
  6
CONTINUOUS
 62
     7
 10
-612.132473809692
 20
116.335809711159
 30
0.0
 40
3.00000002980232
  1
140
 50
359.999999948034
 41
0.933333333333333
 72
     1
 11
-608.232473769596
 21
117.835809722543
 31
0.0
 73
     2
  0
LINE
  5
   133
  8
0
  6
CONTINUOUS
 62
     7
 10
-572.957469980674
 20
106.542421340947
 30
0.0
 11
-572.957466592452
 21
117.335809707642
 31
0.0
  0
LINE
  5
   134
  8
0
  6
CONTINUOUS
 62
     7
 10
-642.957469551939
 20
106.542421340947
 30
0.0
 11
-642.957461536365
 21
117.335809707641
 31
0.0
  0
LINE
  5
   135
  8
0
  6
CONTINUOUS
 62
     7
 10
-572.957467220285
 20
115.335809707642
 30
0.0
 11
-642.95746302164
 21
115.335809707642
 31
0.0
  0
LINE
  5
   136
  8
0
  6
CONTINUOUS
 62
     7
 10
-575.911890497492
 20
114.81486527769
 30
0.0
 11
-572.957467220285
 21
115.335809707642
 31
0.0
  0
LINE
  5
   137
  8
0
  6
CONTINUOUS
 62
     7
 10
-572.957467220285
 20
115.335809707642
 30
0.0
 11
-575.911890497492
 21
115.856754137593
 31
0.0
  0
LINE
  5
   138
  8
0
  6
CONTINUOUS
 62
     7
 10
-640.003039744433
 20
115.856754137593
 30
0.0
 11
-642.95746302164
 21
115.335809707642
 31
0.0
  0
LINE
  5
   139
  8
0
  6
CONTINUOUS
 62
     7
 10
-642.95746302164
 20
115.335809707642
 30
0.0
 11
-640.003039744433
 21
114.81486527769
 31
0.0
  0
ENDBLK
  5
   13A
  8
0
  6
CONTINUOUS
 62
     7
  0
BLOCK
  5
   13B
  8
0
  6
CONTINUOUS
 62
     7
  2
*UDIM2365
 70
    65
 10
0.0
 20
0.0
 30
0.0
  3
*UDIM2365
  0
TEXT
  5
   13C
  8
0
  6
CONTINUOUS
 62
     7
 10
-659.500820640282
 20
58.2424212948803
 30
0.0
 40
3.00000002980232
  1
175
 50
89.9999999480344
 41
0.933333333333333
 72
     1
 11
-661.00082065165
 21
62.1424213349819
 31
0.0
 73
     2
  0
LINE
  5
   13D
  8
0
  6
CONTINUOUS
 62
     7
 10
-643.332470294576
 20
18.6674213409375
 30
0.0
 11
-660.500820636749
 21
18.6674213409375
 31
0.0
  0
LINE
  5
   13E
  8
0
  6
CONTINUOUS
 62
     7
 10
-643.332470294576
 20
106.167421340947
 30
0.0
 11
-660.500820636749
 21
106.167421340947
 31
0.0
  0
LINE
  5
   13F
  8
0
  6
CONTINUOUS
 62
     7
 10
-658.500820636749
 20
18.6674213409375
 30
0.0
 11
-658.500820636749
 21
106.167421340947
 31
0.0
  0
LINE
  5
   140
  8
0
  6
CONTINUOUS
 62
     7
 10
-659.021765066701
 20
21.6218446181444
 30
0.0
 11
-658.500820636749
 21
18.6674213409375
 31
0.0
  0
LINE
  5
   141
  8
0
  6
CONTINUOUS
 62
     7
 10
-658.500820636749
 20
18.6674213409375
 30
0.0
 11
-657.979876206798
 21
21.6218446181444
 31
0.0
  0
LINE
  5
   142
  8
0
  6
CONTINUOUS
 62
     7
 10
-657.979876206798
 20
103.21299806374
 30
0.0
 11
-658.500820636749
 21
106.167421340947
 31
0.0
  0
LINE
  5
   143
  8
0
  6
CONTINUOUS
 62
     7
 10
-658.500820636749
 20
106.167421340947
 30
0.0
 11
-659.021765066701
 21
103.21299806374
 31
0.0
  0
ENDBLK
  5
   144
  8
0
  6
CONTINUOUS
 62
     7
  0
BLOCK
  5
   145
  8
0
  6
CONTINUOUS
 62
     7
  2
*UDIM2366
 70
    65
 10
0.0
 20
0.0
 30
0.0
  3
*UDIM2366
  0
TEXT
  5
   146
  8
0
  6
CONTINUOUS
 62
     7
 10
-508.350141946885
 20
-102.176241870173
 30
0.0
 40
3.00000002980232
  1
83
 50
359.999999896069
 41
0.933333333333333
 72
     1
 11
-505.850141919336
 21
-100.676241859794
 31
0.0
 73
     2
  0
LINE
  5
   147
  8
0
  6
CONTINUOUS
 62
     7
 10
-484.875208808346
 20
-101.099099122092
 30
0.0
 11
-484.875208808346
 21
-105.176241874695
 31
0.0
  0
LINE
  5
   148
  8
0
  6
CONTINUOUS
 62
     7
 10
-526.275039672852
 20
-83.2734069824219
 30
0.0
 11
-526.275039672852
 21
-105.176241874695
 31
0.0
  0
LINE
  5
   149
  8
0
  6
CONTINUOUS
 62
     7
 10
-484.875208808346
 20
-103.176241874695
 30
0.0
 11
-526.275039672852
 21
-103.176241874695
 31
0.0
  0
LINE
  5
   14A
  8
0
  6
CONTINUOUS
 62
     7
 10
-487.829632085553
 20
-103.697186304647
 30
0.0
 11
-484.875208808346
 21
-103.176241874695
 31
0.0
  0
LINE
  5
   14B
  8
0
  6
CONTINUOUS
 62
     7
 10
-484.875208808346
 20
-103.176241874695
 30
0.0
 11
-487.829632085553
 21
-102.655297444743
 31
0.0
  0
LINE
  5
   14C
  8
0
  6
CONTINUOUS
 62
     7
 10
-523.320616395645
 20
-102.655297444743
 30
0.0
 11
-526.275039672852
 21
-103.176241874695
 31
0.0
  0
LINE
  5
   14D
  8
0
  6
CONTINUOUS
 62
     7
 10
-526.275039672852
 20
-103.176241874695
 30
0.0
 11
-523.320616395645
 21
-103.697186304647
 31
0.0
  0
ENDBLK
  5
   14E
  8
0
  6
CONTINUOUS
 62
     7
  0
BLOCK
  5
   14F
  8
0
  6
CONTINUOUS
 62
     7
  2
*UDIM2367
 70
    65
 10
0.0
 20
0.0
 30
0.0
  3
*UDIM2367
  0
TEXT
  5
   150
  8
0
  6
CONTINUOUS
 62
     7
 10
-495.35006565294
 20
-17.762283320673
 30
0.0
 40
3.00000002980232
  1
31
 50
359.999999896069
 41
0.933333333333333
 72
     1
 11
-492.850065625391
 21
-16.2622833102942
 31
0.0
 73
     2
  0
LINE
  5
   151
  8
0
  6
CONTINUOUS
 62
     7
 10
-484.875208808346
 20
-99.0990991220923
 30
0.0
 11
-484.875208808346
 21
-16.7622833251953
 31
0.0
  0
LINE
  5
   152
  8
0
  6
CONTINUOUS
 62
     7
 10
-500.275039672852
 20
-25.7734298706055
 30
0.0
 11
-500.275039672852
 21
-16.7622833251953
 31
0.0
  0
LINE
  5
   153
  8
0
  6
CONTINUOUS
 62
     7
 10
-484.875208808346
 20
-18.7622833251953
 30
0.0
 11
-500.275039672852
 21
-18.7622833251953
 31
0.0
  0
LINE
  5
   154
  8
0
  6
CONTINUOUS
 62
     7
 10
-487.829632085553
 20
-19.283227755147
 30
0.0
 11
-484.875208808346
 21
-18.7622833251953
 31
0.0
  0
LINE
  5
   155
  8
0
  6
CONTINUOUS
 62
     7
 10
-484.875208808346
 20
-18.7622833251953
 30
0.0
 11
-487.829632085553
 21
-18.2413388952436
 31
0.0
  0
LINE
  5
   156
  8
0
  6
CONTINUOUS
 62
     7
 10
-497.320616395645
 20
-18.2413388952436
 30
0.0
 11
-500.275039672852
 21
-18.7622833251953
 31
0.0
  0
LINE
  5
   157
  8
0
  6
CONTINUOUS
 62
     7
 10
-500.275039672852
 20
-18.7622833251953
 30
0.0
 11
-497.320616395645
 21
-19.283227755147
 31
0.0
  0
ENDBLK
  5
   158
  8
0
  6
CONTINUOUS
 62
     7
  0
BLOCK
  5
   159
  8
0
  6
CONTINUOUS
 62
     7
  2
*UDIM2368
 70
    65
 10
0.0
 20
0.0
 30
0.0
  3
*UDIM2368
  0
TEXT
  5
   15A
  8
0
  6
CONTINUOUS
 62
     7
 10
-514.050045823784
 20
-110.704650395014
 30
0.0
 40
3.00000002980232
  1
100
 50
359.999999896069
 41
0.933333333333333
 72
     1
 11
-510.150045782328
 21
-109.204650387168
 31
0.0
 73
     2
  0
LINE
  5
   15B
  8
0
  6
CONTINUOUS
 62
     7
 10
-484.875061035156
 20
-94.0234470367432
 30
0.0
 11
-484.875061035156
 21
-113.704650402069
 31
0.0
  0
LINE
  5
   15C
  8
0
  6
CONTINUOUS
 62
     7
 10
-534.875038146973
 20
-87.7734146118164
 30
0.0
 11
-534.875038146973
 21
-113.704650402069
 31
0.0
  0
LINE
  5
   15D
  8
0
  6
CONTINUOUS
 62
     7
 10
-484.875061035156
 20
-111.704650402069
 30
0.0
 11
-534.875038146973
 21
-111.704650402069
 31
0.0
  0
LINE
  5
   15E
  8
0
  6
CONTINUOUS
 62
     7
 10
-487.829484312363
 20
-112.225594832021
 30
0.0
 11
-484.875061035156
 21
-111.704650402069
 31
0.0
  0
LINE
  5
   15F
  8
0
  6
CONTINUOUS
 62
     7
 10
-484.875061035156
 20
-111.704650402069
 30
0.0
 11
-487.829484312363
 21
-111.183705972117
 31
0.0
  0
LINE
  5
   160
  8
0
  6
CONTINUOUS
 62
     7
 10
-531.920614869766
 20
-111.183705972117
 30
0.0
 11
-534.875038146973
 21
-111.704650402069
 31
0.0
  0
LINE
  5
   161
  8
0
  6
CONTINUOUS
 62
     7
 10
-534.875038146973
 20
-111.704650402069
 30
0.0
 11
-531.920614869766
 21
-112.225594832021
 31
0.0
  0
ENDBLK
  5
   162
  8
0
  6
CONTINUOUS
 62
     7
  0
BLOCK
  5
   163
  8
0
  6
CONTINUOUS
 62
     7
  2
*UDIM2369
 70
    65
 10
0.0
 20
0.0
 30
0.0
  3
*UDIM2369
  0
TEXT
  5
   164
  8
0
  6
CONTINUOUS
 62
     7
 10
-499.650045809876
 20
-95.8075408890324
 30
0.0
 40
3.00000002980232
  1
48
 50
359.999999896069
 41
0.933333333333333
 72
     1
 11
-497.150045782328
 21
-94.3075408786535
 31
0.0
 73
     2
  0
LINE
  5
   165
  8
0
  6
CONTINUOUS
 62
     7
 10
-484.875061035156
 20
-94.0234470367432
 30
0.0
 11
-484.875061035156
 21
-98.8075408935547
 31
0.0
  0
LINE
  5
   166
  8
0
  6
CONTINUOUS
 62
     7
 10
-508.875038146973
 20
-70.2734146118164
 30
0.0
 11
-508.875038146973
 21
-98.8075408935547
 31
0.0
  0
LINE
  5
   167
  8
0
  6
CONTINUOUS
 62
     7
 10
-484.875061035156
 20
-96.8075408935547
 30
0.0
 11
-508.875038146973
 21
-96.8075408935547
 31
0.0
  0
LINE
  5
   168
  8
0
  6
CONTINUOUS
 62
     7
 10
-487.829484312363
 20
-97.3284853235064
 30
0.0
 11
-484.875061035156
 21
-96.8075408935547
 31
0.0
  0
LINE
  5
   169
  8
0
  6
CONTINUOUS
 62
     7
 10
-484.875061035156
 20
-96.8075408935547
 30
0.0
 11
-487.829484312363
 21
-96.286596463603
 31
0.0
  0
LINE
  5
   16A
  8
0
  6
CONTINUOUS
 62
     7
 10
-505.920614869766
 20
-96.286596463603
 30
0.0
 11
-508.875038146973
 21
-96.8075408935547
 31
0.0
  0
LINE
  5
   16B
  8
0
  6
CONTINUOUS
 62
     7
 10
-508.875038146973
 20
-96.8075408935547
 30
0.0
 11
-505.920614869766
 21
-97.3284853235064
 31
0.0
  0
ENDBLK
  5
   16C
  8
0
  6
CONTINUOUS
 62
     7
  0
BLOCK
  5
   16D
  8
0
  6
CONTINUOUS
 62
     7
  2
*UDIM2370
 70
    65
 10
0.0
 20
0.0
 30
0.0
  3
*UDIM2370
  0
TEXT
  5
   16E
  8
0
  6
CONTINUOUS
 62
     7
 10
-542.068298344363
 20
-98.0730425463803
 30
0.0
 40
3.00000002980232
  1
12
 50
449.999999896069
 41
0.933333333333333
 72
     1
 11
-543.568298354745
 21
-95.5730425188336
 31
0.0
 73
     2
  0
TEXT
  5
   16F
  8
0
  6
CONTINUOUS
 62
     7
 10
-542.068298341832
 20
-100.823042580156
 30
0.0
 40
3.00000002980232
  1
M
 50
449.999999896069
 41
0.933333333333334
 72
     1
 11
-543.568298354745
 21
-99.7230425665173
 31
0.0
 73
     2
  0
LINE
  5
   170
  8
0
  6
CONTINUOUS
 62
     7
 10
-534.875038146973
 20
-81.7734142978999
 30
0.0
 11
-543.068298339844
 21
-81.7734117259005
 31
0.0
  0
LINE
  5
   171
  8
0
  6
CONTINUOUS
 62
     7
 10
-534.875038146973
 20
-87.7734142978999
 30
0.0
 11
-543.068298339844
 21
-87.7734117259005
 31
0.0
  0
LINE
  5
   172
  8
0
  6
CONTINUOUS
 62
     7
 10
-541.068298339844
 20
-81.7734123537335
 30
0.0
 11
-541.068298339844
 21
-100.823042577445
 31
0.0
  0
LINE
  5
   173
  8
0
  6
CONTINUOUS
 62
     7
 10
-541.589242769795
 20
-78.8189890765265
 30
0.0
 11
-541.068298339844
 21
-81.7734123537335
 31
0.0
  0
LINE
  5
   174
  8
0
  6
CONTINUOUS
 62
     7
 10
-541.068298339844
 20
-81.7734123537335
 30
0.0
 11
-540.547353909892
 21
-78.8189890765265
 31
0.0
  0
LINE
  5
   175
  8
0
  6
CONTINUOUS
 62
     7
 10
-540.547353909892
 20
-90.7278356309405
 30
0.0
 11
-541.068298339844
 21
-87.7734123537335
 31
0.0
  0
LINE
  5
   176
  8
0
  6
CONTINUOUS
 62
     7
 10
-541.068298339844
 20
-87.7734123537335
 30
0.0
 11
-541.589242769795
 21
-90.7278356309405
 31
0.0
  0
ENDBLK
  5
   177
  8
0
  6
CONTINUOUS
 62
     7
  0
BLOCK
  5
   178
  8
0
  6
CONTINUOUS
 62
     7
  2
*UDIM2371
 70
    65
 10
0.0
 20
0.0
 30
0.0
  3
*UDIM2371
  0
TEXT
  5
   179
  8
0
  6
CONTINUOUS
 62
     7
 10
-442.581390385379
 20
-43.7984375220623
 30
0.0
 40
3.00000002980232
  1
35
 50
449.999999896069
 41
0.933333333333333
 72
     1
 11
-444.081390395761
 21
-41.2984374945155
 31
0.0
 73
     2
  0
LINE
  5
   17A
  8
0
  6
CONTINUOUS
 62
     7
 10
-455.924743367538
 20
-32.2734072963384
 30
0.0
 11
-439.58139038086
 21
-32.2734124267861
 31
0.0
  0
LINE
  5
   17B
  8
0
  6
CONTINUOUS
 62
     7
 10
-455.924743367538
 20
-49.7734072963384
 30
0.0
 11
-439.58139038086
 21
-49.7734124267861
 31
0.0
  0
LINE
  5
   17C
  8
0
  6
CONTINUOUS
 62
     7
 10
-441.581390380859
 20
-32.2734117989531
 30
0.0
 11
-441.581390380859
 21
-49.7734117989531
 31
0.0
  0
LINE
  5
   17D
  8
0
  6
CONTINUOUS
 62
     7
 10
-441.060445950908
 20
-35.2278350761601
 30
0.0
 11
-441.581390380859
 21
-32.2734117989531
 31
0.0
  0
LINE
  5
   17E
  8
0
  6
CONTINUOUS
 62
     7
 10
-441.581390380859
 20
-32.2734117989531
 30
0.0
 11
-442.102334810811
 21
-35.2278350761601
 31
0.0
  0
LINE
  5
   17F
  8
0
  6
CONTINUOUS
 62
     7
 10
-442.102334810811
 20
-46.8189885217462
 30
0.0
 11
-441.581390380859
 21
-49.7734117989531
 31
0.0
  0
LINE
  5
   180
  8
0
  6
CONTINUOUS
 62
     7
 10
-441.581390380859
 20
-49.7734117989531
 30
0.0
 11
-441.060445950908
 21
-46.8189885217462
 31
0.0
  0
ENDBLK
  5
   181
  8
0
  6
CONTINUOUS
 62
     7
  0
BLOCK
  5
   182
  8
0
  6
CONTINUOUS
 62
     7
  2
*UDIM2372
 70
    65
 10
0.0
 20
0.0
 30
0.0
  3
*UDIM2372
  0
TEXT
  5
   183
  8
0
  6
CONTINUOUS
 62
     7
 10
-442.581390385379
 20
-61.2984375335774
 30
0.0
 40
3.00000002980232
  1
35
 50
449.999999896069
 41
0.933333333333333
 72
     1
 11
-444.081390395761
 21
-58.7984375060306
 31
0.0
 73
     2
  0
LINE
  5
   184
  8
0
  6
CONTINUOUS
 62
     7
 10
-455.808233419493
 20
-67.2734072963384
 30
0.0
 11
-439.58139038086
 21
-67.2734123902117
 31
0.0
  0
LINE
  5
   185
  8
0
  6
CONTINUOUS
 62
     7
 10
-441.581390380859
 20
-49.7734117989531
 30
0.0
 11
-441.581390380859
 21
-67.2734117623787
 31
0.0
  0
LINE
  5
   186
  8
0
  6
CONTINUOUS
 62
     7
 10
-441.060445950908
 20
-52.7278350761601
 30
0.0
 11
-441.581390380859
 21
-49.7734117989531
 31
0.0
  0
LINE
  5
   187
  8
0
  6
CONTINUOUS
 62
     7
 10
-441.581390380859
 20
-49.7734117989531
 30
0.0
 11
-442.102334810811
 21
-52.7278350761601
 31
0.0
  0
LINE
  5
   188
  8
0
  6
CONTINUOUS
 62
     7
 10
-442.102334810811
 20
-64.3189884851718
 30
0.0
 11
-441.581390380859
 21
-67.2734117623787
 31
0.0
  0
LINE
  5
   189
  8
0
  6
CONTINUOUS
 62
     7
 10
-441.581390380859
 20
-67.2734117623787
 30
0.0
 11
-441.060445950908
 21
-64.3189884851718
 31
0.0
  0
ENDBLK
  5
   18A
  8
0
  6
CONTINUOUS
 62
     7
  0
BLOCK
  5
   18B
  8
0
  6
CONTINUOUS
 62
     7
  2
*UDIM2373
 70
    65
 10
0.0
 20
0.0
 30
0.0
  3
*UDIM2373
  0
TEXT
  5
   18C
  8
0
  6
CONTINUOUS
 62
     7
 10
-442.581390385379
 20
-78.7984375335774
 30
0.0
 40
3.00000002980232
  1
35
 50
449.999999896069
 41
0.933333333333333
 72
     1
 11
-444.081390395761
 21
-76.2984375060306
 31
0.0
 73
     2
  0
LINE
  5
   18D
  8
0
  6
CONTINUOUS
 62
     7
 10
-455.924743367538
 20
-84.7734072963384
 30
0.0
 11
-439.58139038086
 21
-84.7734124267861
 31
0.0
  0
LINE
  5
   18E
  8
0
  6
CONTINUOUS
 62
     7
 10
-441.581390380859
 20
-67.2734117623787
 30
0.0
 11
-441.581390380859
 21
-84.7734117989531
 31
0.0
  0
LINE
  5
   18F
  8
0
  6
CONTINUOUS
 62
     7
 10
-441.060445950908
 20
-70.2278350395857
 30
0.0
 11
-441.581390380859
 21
-67.2734117623787
 31
0.0
  0
LINE
  5
   190
  8
0
  6
CONTINUOUS
 62
     7
 10
-441.581390380859
 20
-67.2734117623787
 30
0.0
 11
-442.102334810811
 21
-70.2278350395857
 31
0.0
  0
LINE
  5
   191
  8
0
  6
CONTINUOUS
 62
     7
 10
-442.102334810811
 20
-81.8189885217462
 30
0.0
 11
-441.581390380859
 21
-84.7734117989531
 31
0.0
  0
LINE
  5
   192
  8
0
  6
CONTINUOUS
 62
     7
 10
-441.581390380859
 20
-84.7734117989531
 30
0.0
 11
-441.060445950908
 21
-81.8189885217462
 31
0.0
  0
ENDBLK
  5
   193
  8
0
  6
CONTINUOUS
 62
     7
  0
BLOCK
  5
   194
  8
0
  6
CONTINUOUS
 62
     7
  2
*UDIM2374
 70
    65
 10
0.0
 20
0.0
 30
0.0
  3
*UDIM2374
  0
TEXT
  5
   195
  8
0
  6
CONTINUOUS
 62
     7
 10
-353.489883736912
 20
46.0748919399246
 30
0.0
 40
3.00000002980232
  1
7
 50
397.208926617964
 41
0.933333333333334
 72
     1
 11
-353.520889262468
 21
47.9347410537317
 31
0.0
 73
     2
  0
TEXT
  5
   196
  8
0
  6
CONTINUOUS
 62
     7
 10
-355.998656234002
 20
44.1700138282263
 30
0.0
 40
3.00000002980232
  1
Ø
 50
397.208926617964
 41
0.933333333333334
 72
     1
 11
-356.029661759558
 21
46.0298629420334
 31
0.0
 73
     2
  0
LINE
  5
   197
  8
0
  6
CONTINUOUS
 62
     7
 10
-337.165637063553
 20
57.2140845893629
 30
0.0
 11
-355.393933020796
 21
43.3735781174601
 31
0.0
  0
LINE
  5
   198
  8
0
  6
CONTINUOUS
 62
     7
 10
-335.127656047569
 20
59.4155916591879
 30
0.0
 11
-337.165637063553
 21
57.2140845893629
 31
0.0
  0
LINE
  5
   199
  8
0
  6
CONTINUOUS
 62
     7
 10
-337.165637063553
 20
57.2140845893629
 30
0.0
 11
-334.497601673666
 21
58.5857941644238
 31
0.0
  0
LINE
  5
   19A
  8
0
  6
CONTINUOUS
 62
     7
 10
-340.597380573525
 20
53.9543119052652
 30
0.0
 11
-338.559399557541
 21
56.1558189750902
 31
0.0
  0
LINE
  5
   19B
  8
0
  6
CONTINUOUS
 62
     7
 10
-338.559399557541
 20
56.1558189750902
 30
0.0
 11
-341.227434947427
 21
54.7841094000293
 31
0.0
  0
ENDBLK
  5
   19C
  8
0
  6
CONTINUOUS
 62
     7
  0
BLOCK
  5
   19D
  8
0
  6
CONTINUOUS
 62
     7
  2
*UDIM2375
 70
    65
 10
0.0
 20
0.0
 30
0.0
  3
*UDIM2375
  0
TEXT
  5
   19E
  8
0
  6
CONTINUOUS
 62
     7
 10
-332.037518359324
 20
108.408924113375
 30
0.0
 40
3.00000002980232
  1
112
 50
359.999999844103
 41
0.933333333333333
 72
     1
 11
-328.137518316507
 21
109.908924117684
 31
0.0
 73
     2
  0
LINE
  5
   19F
  8
0
  6
CONTINUOUS
 62
     7
 10
-341.862518310547
 20
89.4349517822266
 30
0.0
 11
-341.862518310547
 21
109.408924102783
 31
0.0
  0
LINE
  5
   1A0
  8
0
  6
CONTINUOUS
 62
     7
 10
-313.862518310547
 20
89.4349517822266
 30
0.0
 11
-313.862518310547
 21
109.408924102783
 31
0.0
  0
LINE
  5
   1A1
  8
0
  6
CONTINUOUS
 62
     7
 10
-341.862518310547
 20
107.408924102783
 30
0.0
 11
-313.862518310547
 21
107.408924102783
 31
0.0
  0
LINE
  5
   1A2
  8
0
  6
CONTINUOUS
 62
     7
 10
-338.90809503334
 20
107.929868532735
 30
0.0
 11
-341.862518310547
 21
107.408924102783
 31
0.0
  0
LINE
  5
   1A3
  8
0
  6
CONTINUOUS
 62
     7
 10
-341.862518310547
 20
107.408924102783
 30
0.0
 11
-338.90809503334
 21
106.887979672832
 31
0.0
  0
LINE
  5
   1A4
  8
0
  6
CONTINUOUS
 62
     7
 10
-316.816941587754
 20
106.887979672832
 30
0.0
 11
-313.862518310547
 21
107.408924102783
 31
0.0
  0
LINE
  5
   1A5
  8
0
  6
CONTINUOUS
 62
     7
 10
-313.862518310547
 20
107.408924102783
 30
0.0
 11
-316.816941587754
 21
107.929868532735
 31
0.0
  0
ENDBLK
  5
   1A6
  8
0
  6
CONTINUOUS
 62
     7
  0
BLOCK
  5
   1A7
  8
0
  6
CONTINUOUS
 62
     7
  2
*UDIM2376
 70
    65
 10
0.0
 20
0.0
 30
0.0
  3
*UDIM2376
  0
TEXT
  5
   1A8
  8
0
  6
CONTINUOUS
 62
     7
 10
-330.637518345416
 20
101.7507534095
 30
0.0
 40
3.00000002980232
  1
80
 50
359.999999844103
 41
0.933333333333333
 72
     1
 11
-328.137518316507
 21
103.250753417611
 31
0.0
 73
     2
  0
LINE
  5
   1A9
  8
0
  6
CONTINUOUS
 62
     7
 10
-337.862518310547
 20
94.8099517822266
 30
0.0
 11
-337.862518310547
 21
102.75075340271
 31
0.0
  0
LINE
  5
   1AA
  8
0
  6
CONTINUOUS
 62
     7
 10
-317.862518310547
 20
94.8099517822266
 30
0.0
 11
-317.862518310547
 21
102.75075340271
 31
0.0
  0
LINE
  5
   1AB
  8
0
  6
CONTINUOUS
 62
     7
 10
-337.862518310547
 20
100.75075340271
 30
0.0
 11
-317.862518310547
 21
100.75075340271
 31
0.0
  0
LINE
  5
   1AC
  8
0
  6
CONTINUOUS
 62
     7
 10
-334.90809503334
 20
101.271697832662
 30
0.0
 11
-337.862518310547
 21
100.75075340271
 31
0.0
  0
LINE
  5
   1AD
  8
0
  6
CONTINUOUS
 62
     7
 10
-337.862518310547
 20
100.75075340271
 30
0.0
 11
-334.90809503334
 21
100.229808972758
 31
0.0
  0
LINE
  5
   1AE
  8
0
  6
CONTINUOUS
 62
     7
 10
-320.816941587754
 20
100.229808972758
 30
0.0
 11
-317.862518310547
 21
100.75075340271
 31
0.0
  0
LINE
  5
   1AF
  8
0
  6
CONTINUOUS
 62
     7
 10
-317.862518310547
 20
100.75075340271
 30
0.0
 11
-320.816941587754
 21
101.271697832662
 31
0.0
  0
ENDBLK
  5
   1B0
  8
0
  6
CONTINUOUS
 62
     7
  0
BLOCK
  5
   1B1
  8
0
  6
CONTINUOUS
 62
     7
  2
*UDIM2377
 70
    65
 10
0.0
 20
0.0
 30
0.0
  3
*UDIM2377
  0
TEXT
  5
   1B2
  8
0
  6
CONTINUOUS
 62
     7
 10
-359.535280238248
 20
70.2599517334511
 30
0.0
 40
3.00000002980232
  1
142
 50
449.999999844103
 41
0.933333333333333
 72
     1
 11
-361.035280242562
 21
74.1599517762661
 31
0.0
 73
     2
  0
LINE
  5
   1B3
  8
0
  6
CONTINUOUS
 62
     7
 10
-340.487518310547
 20
92.1849517822266
 30
0.0
 11
-360.535280227661
 21
92.1849517822266
 31
0.0
  0
LINE
  5
   1B4
  8
0
  6
CONTINUOUS
 62
     7
 10
-340.487518310547
 20
56.6849517822266
 30
0.0
 11
-360.535280227661
 21
56.6849517822266
 31
0.0
  0
LINE
  5
   1B5
  8
0
  6
CONTINUOUS
 62
     7
 10
-358.535280227661
 20
92.1849517822266
 30
0.0
 11
-358.535280227661
 21
56.6849517822266
 31
0.0
  0
LINE
  5
   1B6
  8
0
  6
CONTINUOUS
 62
     7
 10
-358.01433579771
 20
89.2305285050196
 30
0.0
 11
-358.535280227661
 21
92.1849517822266
 31
0.0
  0
LINE
  5
   1B7
  8
0
  6
CONTINUOUS
 62
     7
 10
-358.535280227661
 20
92.1849517822266
 30
0.0
 11
-359.056224657613
 21
89.2305285050196
 31
0.0
  0
LINE
  5
   1B8
  8
0
  6
CONTINUOUS
 62
     7
 10
-359.056224657613
 20
59.6393750594335
 30
0.0
 11
-358.535280227661
 21
56.6849517822266
 31
0.0
  0
LINE
  5
   1B9
  8
0
  6
CONTINUOUS
 62
     7
 10
-358.535280227661
 20
56.6849517822266
 30
0.0
 11
-358.01433579771
 21
59.6393750594335
 31
0.0
  0
ENDBLK
  5
   1BA
  8
0
  6
CONTINUOUS
 62
     7
  0
BLOCK
  5
   1BB
  8
0
  6
CONTINUOUS
 62
     7
  2
*UDIM2378
 70
    65
 10
0.0
 20
0.0
 30
0.0
  3
*UDIM2378
  0
TEXT
  5
   1BC
  8
0
  6
CONTINUOUS
 62
     7
 10
-351.727378855802
 20
70.2599517334511
 30
0.0
 40
3.00000002980232
  1
112
 50
449.999999844103
 41
0.933333333333333
 72
     1
 11
-353.227378860116
 21
74.1599517762661
 31
0.0
 73
     2
  0
LINE
  5
   1BD
  8
0
  6
CONTINUOUS
 62
     7
 10
-342.862518310547
 20
88.4349517822266
 30
0.0
 11
-352.727378845215
 21
88.4349517822266
 31
0.0
  0
LINE
  5
   1BE
  8
0
  6
CONTINUOUS
 62
     7
 10
-342.862518310547
 20
60.4349517822266
 30
0.0
 11
-352.727378845215
 21
60.4349517822266
 31
0.0
  0
LINE
  5
   1BF
  8
0
  6
CONTINUOUS
 62
     7
 10
-350.727378845215
 20
88.4349517822266
 30
0.0
 11
-350.727378845215
 21
60.4349517822266
 31
0.0
  0
LINE
  5
   1C0
  8
0
  6
CONTINUOUS
 62
     7
 10
-350.206434415263
 20
85.4805285050196
 30
0.0
 11
-350.727378845215
 21
88.4349517822266
 31
0.0
  0
LINE
  5
   1C1
  8
0
  6
CONTINUOUS
 62
     7
 10
-350.727378845215
 20
88.4349517822266
 30
0.0
 11
-351.248323275167
 21
85.4805285050196
 31
0.0
  0
LINE
  5
   1C2
  8
0
  6
CONTINUOUS
 62
     7
 10
-351.248323275167
 20
63.3893750594335
 30
0.0
 11
-350.727378845215
 21
60.4349517822266
 31
0.0
  0
LINE
  5
   1C3
  8
0
  6
CONTINUOUS
 62
     7
 10
-350.727378845215
 20
60.4349517822266
 30
0.0
 11
-350.206434415263
 21
63.3893750594335
 31
0.0
  0
ENDBLK
  5
   1C4
  8
0
  6
CONTINUOUS
 62
     7
  0
ENDSEC
  0
SECTION
  2
ENTITIES
  0
LINE
  5
   1C5
  8
0
  6
DASHDOT
 62
     7
 10
-599.207458496094
 20
-44.7948431713418
 30
0.0
 11
-599.207458496094
 21
-114.422472367589
 31
0.0
  0
LINE
  5
   1C6
  8
0
  6
CONTINUOUS
 62
     3
 10
-579.832458496094
 20
-56.4518954169919
 30
0.0
 11
-579.832458496094
 21
-107.71955871582
 31
0.0
  0
LINE
  5
   1C7
  8
0
  6
CONTINUOUS
 62
     3
 10
-579.832458496094
 20
-107.71955871582
 30
0.0
 11
-624.207458496094
 21
-107.71955871582
 31
0.0
  0
LINE
  5
   1C8
  8
0
  6
CONTINUOUS
 62
     3
 10
-624.207458496094
 20
-56.4518954169919
 30
0.0
 11
-624.207458496094
 21
-107.71955871582
 31
0.0
  0
LINE
  5
   1C9
  8
0
  6
CONTINUOUS
 62
     3
 10
-579.832458496094
 20
-56.4518954169919
 30
0.0
 11
-624.207458496094
 21
-56.4518954169919
 31
0.0
  0
LINE
  5
   1CA
  8
0
  6
DASHDOT
 62
     7
 10
-592.957458496094
 20
-66.3154339158603
 30
0.0
 11
-592.957458496094
 21
-100.134264320003
 31
0.0
  0
LINE
  5
   1CB
  8
0
  6
DASHDOT
 62
     7
 10
-619.207458496094
 20
-66.0187775088064
 30
0.0
 11
-619.207458496094
 21
-100.28259252353
 31
0.0
  0
LINE
  5
   1CC
  8
0
  6
DASHDOT
 62
     7
 10
-585.555257555335
 20
-70.3445587158203
 30
0.0
 11
-618.039134127735
 21
-70.3445587158203
 31
0.0
  0
LINE
  5
   1CD
  8
0
  6
DASHDOT
 62
     7
 10
-585.110272944754
 20
-95.3445587158203
 30
0.0
 11
-618.484118738316
 21
-95.3445587158203
 31
0.0
  0
CIRCLE
  5
   1CE
  8
0
  6
CONTINUOUS
 62
     7
 10
-619.207458496094
 20
-70.3445587158203
 30
0.0
 40
0.625
  0
CIRCLE
  5
   1CF
  8
0
  6
CONTINUOUS
 62
     7
 10
-592.957458496094
 20
-70.3445587158203
 30
0.0
 40
0.625
  0
CIRCLE
  5
   1D0
  8
0
  6
CONTINUOUS
 62
     7
 10
-619.207458496094
 20
-95.3445587158203
 30
0.0
 40
0.625
  0
CIRCLE
  5
   1D1
  8
0
  6
CONTINUOUS
 62
     7
 10
-592.957458496094
 20
-95.3445587158203
 30
0.0
 40
0.625
  0
LINE
  5
   1D2
  8
0
  6
DASHDOT
 62
     7
 10
-570.656423878422
 20
-64.9695587158203
 30
0.0
 11
-618.502347937537
 21
-64.9695587158203
 31
0.0
  0
LINE
  5
   1D3
  8
0
  6
DASHDOT
 62
     7
 10
-570.656423878422
 20
-100.71955871582
 30
0.0
 11
-626.470516137807
 21
-100.71955871582
 31
0.0
  0
LINE
  5
   1D4
  8
0
  6
DASHDOT
 62
     7
 10
-590.457458496094
 20
-53.701815192331
 30
0.0
 11
-590.457458496094
 21
-114.111993980717
 31
0.0
  0
LINE
  5
   1D5
  8
0
  6
DASHDOT
 62
     7
 10
-616.707458496094
 20
-53.701815192331
 30
0.0
 11
-616.707458496094
 21
-114.111993980717
 31
0.0
  0
ARC
  5
   1D6
  8
0
  6
CONTINUOUS
 62
     7
 10
-590.457458496094
 20
-64.9695587158203
 30
0.0
 40
3.5
 50
269.999999896069
 51
449.999999896069
  0
ARC
  5
   1D7
  8
0
  6
CONTINUOUS
 62
     7
 10
-616.707458496094
 20
-64.9695587158203
 30
0.0
 40
3.5
 50
449.999999896069
 51
629.999999896069
  0
ARC
  5
   1D8
  8
0
  6
CONTINUOUS
 62
     7
 10
-616.707458496094
 20
-100.71955871582
 30
0.0
 40
3.5
 50
449.999999896069
 51
629.999999896069
  0
ARC
  5
   1D9
  8
0
  6
CONTINUOUS
 62
     7
 10
-590.457458496094
 20
-100.71955871582
 30
0.0
 40
3.5
 50
269.999999896069
 51
449.999999896069
  0
LINE
  5
   1DA
  8
0
  6
CONTINUOUS
 62
     7
 10
-590.457458496094
 20
-97.2195587158203
 30
0.0
 11
-616.707458496094
 21
-97.2195587158203
 31
0.0
  0
LINE
  5
   1DB
  8
0
  6
CONTINUOUS
 62
     7
 10
-590.457458496094
 20
-104.21955871582
 30
0.0
 11
-616.707458496094
 21
-104.21955871582
 31
0.0
  0
LINE
  5
   1DC
  8
0
  6
CONTINUOUS
 62
     7
 10
-590.457458496094
 20
-68.4695587158203
 30
0.0
 11
-616.707458496094
 21
-68.4695587158203
 31
0.0
  0
LINE
  5
   1DD
  8
0
  6
CONTINUOUS
 62
     7
 10
-590.457458496094
 20
-61.4695587158203
 30
0.0
 11
-616.707458496094
 21
-61.4695587158203
 31
0.0
  0
LINE
  5
   1DE
  8
0
  6
DASHDOT
 62
     7
 10
-599.207458496094
 20
-28.1265399087226
 30
0.0
 11
-599.207458496094
 21
-36.7480760790429
 31
0.0
  0
CIRCLE
  5
   1DF
  8
0
  6
CONTINUOUS
 62
     7
 10
-616.740807845549
 20
-59.8693149368076
 30
0.0
 40
0.05
  0
LINE
  5
   1E0
  8
0
  6
DASHDOT
 62
     7
 10
-577.826113419058
 20
-83.4070587158203
 30
0.0
 11
-628.210573094516
 21
-83.4070587158203
 31
0.0
  0
INSERT
  5
   1E1
  8
0
  6
CONTINUOUS
 62
     7
  2
*UDIM2341
 10
0.0
 20
0.0
 30
0.0
  0
INSERT
  5
   1E2
  8
0
  6
CONTINUOUS
 62
     7
  2
*UDIM2342
 10
0.0
 20
0.0
 30
0.0
  0
INSERT
  5
   1E3
  8
0
  6
CONTINUOUS
 62
     7
  2
*UDIM2343
 10
0.0
 20
0.0
 30
0.0
  0
INSERT
  5
   1E4
  8
0
  6
CONTINUOUS
 62
     7
  2
*UDIM2344
 10
0.0
 20
0.0
 30
0.0
  0
INSERT
  5
   1E5
  8
0
  6
CONTINUOUS
 62
     7
  2
*UDIM2345
 10
0.0
 20
0.0
 30
0.0
  0
INSERT
  5
   1E6
  8
0
  6
CONTINUOUS
 62
     7
  2
*UDIM2346
 10
0.0
 20
0.0
 30
0.0
  0
INSERT
  5
   1E7
  8
0
  6
CONTINUOUS
 62
     7
  2
*UDIM2347
 10
0.0
 20
0.0
 30
0.0
  0
INSERT
  5
   1E8
  8
0
  6
CONTINUOUS
 62
     7
  2
*UDIM2348
 10
0.0
 20
0.0
 30
0.0
  0
INSERT
  5
   1E9
  8
0
  6
CONTINUOUS
 62
     7
  2
*UDIM2349
 10
0.0
 20
0.0
 30
0.0
  0
INSERT
  5
   1EA
  8
0
  6
CONTINUOUS
 62
     7
  2
*UDIM2350
 10
0.0
 20
0.0
 30
0.0
  0
TEXT
  5
   1EB
  8
0
  6
CONTINUOUS
 62
     7
 10
-600.091421368451
 20
-135.553401974834
 30
0.0
 40
3.00000002980232
  1
Y
 50
359.999999896069
 41
0.916666604744064
 72
     2
 11
-597.891421499582
 21
-135.553401978814
 31
0.0
  0
TEXT
  5
   1EC
  8
0
  6
CONTINUOUS
 62
     7
 10
-597.847016098829
 20
-32.8508453647266
 30
0.0
 40
3.00000002980232
  1
Y
 50
359.999999896069
 41
0.916666604744064
 72
     2
 11
-595.647016229959
 21
-32.8508453687062
 31
0.0
  0
TEXT
  5
   1ED
  8
0
  6
CONTINUOUS
 62
     7
 10
-642.794483187528
 20
-81.6964645663867
 30
0.0
 40
3.00000002980232
  1
X
 50
359.999999896069
 41
0.916666604744064
 72
     2
 11
-640.594483318658
 21
-81.6964645703663
 31
0.0
  0
TEXT
  5
   1EE
  8
0
  6
CONTINUOUS
 62
     7
 10
-557.057884219022
 20
-84.6433590928684
 30
0.0
 40
3.00000002980232
  1
X
 50
359.999999896069
 41
0.916666604744064
 72
     2
 11
-554.857884350152
 21
-84.643359096848
 31
0.0
  0
LINE
  5
   1EF
  8
0
  6
CONTINUOUS
 62
     7
 10
-423.125030517578
 20
21.3174286000869
 30
0.0
 11
-459.125030517578
 21
21.3174286000869
 31
0.0
  0
LINE
  5
   1F0
  8
0
  6
CONTINUOUS
 62
     7
 10
-459.125030517578
 20
18.6674275611887
 30
0.0
 11
-459.125030517578
 21
40.0645375465407
 31
0.0
  0
LINE
  5
   1F1
  8
0
  6
CONTINUOUS
 62
     7
 10
-459.125030517578
 20
40.0645237081191
 30
0.0
 11
-459.125030517578
 21
106.167421352162
 31
0.0
  0
LINE
  5
   1F2
  8
0
  6
CONTINUOUS
 62
     7
 10
-460.125030517578
 20
99.5822239034316
 30
0.0
 11
-460.125030517578
 21
99.667406093373
 31
0.0
  0
LINE
  5
   1F3
  8
0
  6
CONTINUOUS
 62
     7
 10
-424.875032278055
 20
69.4174083266185
 30
0.0
 11
-424.875041961545
 21
73.5424201800409
 31
0.0
  0
LINE
  5
   1F4
  8
0
  6
CONTINUOUS
 62
     7
 10
-423.625060128747
 20
96.6674178681244
 30
0.0
 11
-423.271498736321
 21
96.8138640735376
 31
0.0
  0
LINE
  5
   1F5
  8
0
  6
CONTINUOUS
 62
     7
 10
-423.271492364765
 20
96.8138535104984
 30
0.0
 11
-423.125046147886
 21
97.1674072597233
 31
0.0
  0
LINE
  5
   1F6
  8
0
  6
CONTINUOUS
 62
     7
 10
-424.875038691873
 20
93.1674208096175
 30
0.0
 11
-424.875031062479
 21
96.6674208098975
 31
0.0
  0
LINE
  5
   1F7
  8
0
  6
CONTINUOUS
 62
     7
 10
-423.625045776367
 20
96.6674213521621
 30
0.0
 11
-424.875030517578
 21
96.6674213521621
 31
0.0
  0
LINE
  5
   1F8
  8
0
  6
CONTINUOUS
 62
     7
 10
-424.875038146973
 20
73.5424213521621
 30
0.0
 11
-424.875038146973
 21
93.1674213521621
 31
0.0
  0
LINE
  5
   1F9
  8
0
  6
CONTINUOUS
 62
     7
 10
-427.125030517578
 20
48.1674213521621
 30
0.0
 11
-427.125030517578
 21
68.4174213521621
 31
0.0
  0
LINE
  5
   1FA
  8
0
  6
CONTINUOUS
 62
     7
 10
-427.125015536474
 20
68.4174488907345
 30
0.0
 11
-426.991043379209
 21
68.9174488770407
 31
0.0
  0
LINE
  5
   1FB
  8
0
  6
CONTINUOUS
 62
     7
 10
-426.991026345463
 20
68.917467904578
 30
0.0
 11
-426.625006161456
 21
69.2834957093994
 31
0.0
  0
LINE
  5
   1FC
  8
0
  6
CONTINUOUS
 62
     7
 10
-426.625057910079
 20
69.2834361694131
 30
0.0
 11
-426.125050307499
 21
69.4174083266185
 31
0.0
  0
LINE
  5
   1FD
  8
0
  6
CONTINUOUS
 62
     7
 10
-423.125030517578
 20
48.1674213521621
 30
0.0
 11
-427.125030517578
 21
48.1674213521621
 31
0.0
  0
LINE
  5
   1FE
  8
0
  6
CONTINUOUS
 62
     7
 10
-423.125051861151
 20
40.6674149761812
 30
0.0
 11
-423.625089987662
 21
41.1674149583378
 31
0.0
  0
LINE
  5
   1FF
  8
0
  6
CONTINUOUS
 62
     7
 10
-423.625078226804
 20
46.6674266552816
 30
0.0
 11
-423.125032471394
 21
47.1674266371276
 31
0.0
  0
LINE
  5
   200
  8
0
  6
CONTINUOUS
 62
     7
 10
-423.625084531357
 20
46.6674065795759
 30
0.0
 11
-455.008988034775
 21
46.6674065795759
 31
0.0
  0
LINE
  5
   201
  8
0
  6
CONTINUOUS
 62
     7
 10
-423.62507724762
 20
41.1674213521621
 30
0.0
 11
-455.009011268616
 21
41.1674213521621
 31
0.0
  0
LINE
  5
   202
  8
0
  6
CONTINUOUS
 62
     7
 10
-455.008990269335
 20
46.667399401237
 30
0.0
 11
-456.87503277764
 21
47.1674070298184
 31
0.0
  0
LINE
  5
   203
  8
0
  6
CONTINUOUS
 62
     7
 10
-456.875016605898
 20
47.1674016385089
 30
0.0
 11
-458.625032799713
 21
47.636319430637
 31
0.0
  0
LINE
  5
   204
  8
0
  6
CONTINUOUS
 62
     7
 10
-459.1250299619
 20
40.0645392888281
 30
0.0
 11
-455.009010259906
 21
41.1674216570982
 31
0.0
  0
LINE
  5
   205
  8
0
  6
CONTINUOUS
 62
     7
 10
-459.125024017076
 20
48.8145731492391
 30
0.0
 11
-458.625025474247
 21
48.9485453065078
 31
0.0
  0
LINE
  5
   206
  8
0
  6
CONTINUOUS
 62
     7
 10
-457.125030994415
 20
36.9174137227675
 30
0.0
 11
-459.125030517578
 21
36.9174137227675
 31
0.0
  0
LINE
  5
   207
  8
0
  6
CONTINUOUS
 62
     7
 10
-457.125030994415
 20
21.3174286000869
 30
0.0
 11
-457.125030994415
 21
36.9174137227675
 31
0.0
  0
LINE
  5
   208
  8
0
  6
CONTINUOUS
 62
     7
 10
-458.625030517578
 20
40.1985035054824
 30
0.0
 11
-458.625030517578
 21
62.4174137227675
 31
0.0
  0
LINE
  5
   209
  8
0
  6
CONTINUOUS
 62
     7
 10
-456.875030517578
 20
47.1674213521621
 30
0.0
 11
-456.875030517578
 21
59.6674213521621
 31
0.0
  0
LINE
  5
   20A
  8
0
  6
CONTINUOUS
 62
     7
 10
-457.625031471252
 20
62.4174137227675
 30
0.0
 11
-459.125030994415
 21
62.4174137227675
 31
0.0
  0
LINE
  5
   20B
  8
0
  6
CONTINUOUS
 62
     7
 10
-457.250025386611
 20
62.3169296482615
 30
0.0
 11
-457.625026320107
 21
62.4174087662047
 31
0.0
  0
LINE
  5
   20C
  8
0
  6
CONTINUOUS
 62
     7
 10
-457.250025386611
 20
62.3169296482615
 30
0.0
 11
-457.625026320107
 21
62.4174087662047
 31
0.0
  0
LINE
  5
   20D
  8
0
  6
CONTINUOUS
 62
     7
 10
-456.975509938821
 20
62.0424062635355
 30
0.0
 11
-457.250028900664
 21
62.3169271228832
 31
0.0
  0
LINE
  5
   20E
  8
0
  6
CONTINUOUS
 62
     7
 10
-456.875038013663
 20
61.6673996661026
 30
0.0
 11
-456.975518566303
 21
62.0423996649112
 31
0.0
  0
LINE
  5
   20F
  8
0
  6
CONTINUOUS
 62
     7
 10
-456.875021457672
 20
59.667414497633
 30
0.0
 11
-456.875021457672
 21
61.6674068682385
 31
0.0
  0
LINE
  5
   210
  8
0
  6
CONTINUOUS
 62
     7
 10
-456.975507621402
 20
59.292410549063
 30
0.0
 11
-456.927896391872
 21
59.4700991450055
 31
0.0
  0
LINE
  5
   211
  8
0
  6
CONTINUOUS
 62
     7
 10
-456.927897309031
 20
59.4700943020637
 30
0.0
 11
-456.87502799037
 21
59.6674133295664
 31
0.0
  0
LINE
  5
   212
  8
0
  6
CONTINUOUS
 62
     7
 10
-457.250030672069
 20
59.0178748427598
 30
0.0
 11
-456.975511247016
 21
59.2923957025127
 31
0.0
  0
LINE
  5
   213
  8
0
  6
CONTINUOUS
 62
     7
 10
-457.625036943709
 20
58.9174033341473
 30
0.0
 11
-457.250036948886
 21
59.0178824443814
 31
0.0
  0
LINE
  5
   214
  8
0
  6
CONTINUOUS
 62
     7
 10
-457.625030994415
 20
58.9174137227675
 30
0.0
 11
-458.625030517578
 21
58.9174137227675
 31
0.0
  0
LINE
  5
   215
  8
0
  6
CONTINUOUS
 62
     7
 10
-459.125030517578
 20
25.1674141996047
 30
0.0
 11
-460.125030517578
 21
25.1674141996047
 31
0.0
  0
LINE
  5
   216
  8
0
  6
CONTINUOUS
 62
     7
 10
-459.125030517578
 20
99.667406093373
 30
0.0
 11
-460.125030517578
 21
99.667406093373
 31
0.0
  0
LINE
  5
   217
  8
0
  6
CONTINUOUS
 62
     7
 10
-459.125030517578
 20
94.7332325093886
 30
0.0
 11
-460.125030517578
 21
94.7332325093886
 31
0.0
  0
LINE
  5
   218
  8
0
  6
CONTINUOUS
 62
     7
 10
-455.475523844425
 20
41.0424156845557
 30
0.0
 11
-456.87504228221
 21
41.4174156555367
 31
0.0
  0
LINE
  5
   219
  8
0
  6
CONTINUOUS
 62
     7
 10
-456.875047206879
 20
41.4174204223345
 30
0.0
 11
-456.875047206879
 21
46.4174204223345
 31
0.0
  0
LINE
  5
   21A
  8
0
  6
CONTINUOUS
 62
     7
 10
-456.875047060612
 20
46.4174137352083
 30
0.0
 11
-455.475516705073
 21
46.7924137318596
 31
0.0
  0
LINE
  5
   21B
  8
0
  6
CONTINUOUS
 62
     7
 10
-459.125030517578
 20
30.1674137227675
 30
0.0
 11
-460.125030517578
 21
30.1674137227675
 31
0.0
  0
LINE
  5
   21C
  8
0
  6
CONTINUOUS
 62
     7
 10
-456.975505927691
 20
59.0277644202475
 30
0.0
 11
-456.875025858161
 21
59.4701014416339
 31
0.0
  0
LINE
  5
   21D
  8
0
  6
CONTINUOUS
 62
     7
 10
-456.875031471253
 20
59.4701023214004
 30
0.0
 11
-456.927900314331
 21
59.4701023214004
 31
0.0
  0
LINE
  5
   21E
  8
0
  6
CONTINUOUS
 62
     7
 10
-456.942018905691
 20
52.4174085702272
 30
0.0
 11
-456.875032826587
 21
52.4671369618071
 31
0.0
  0
LINE
  5
   21F
  8
0
  6
CONTINUOUS
 62
     7
 10
-456.942014451559
 20
52.4173910134274
 30
0.0
 11
-456.975508921628
 21
52.4422552083244
 31
0.0
  0
LINE
  5
   220
  8
0
  6
CONTINUOUS
 62
     7
 10
-456.875030994415
 20
57.4174213521621
 30
0.0
 11
-456.975511550903
 21
57.4174213521621
 31
0.0
  0
LINE
  5
   221
  8
0
  6
CONTINUOUS
 62
     7
 10
-456.975514284347
 20
54.392528036851
 30
0.0
 11
-456.942019814279
 21
54.417392231748
 31
0.0
  0
LINE
  5
   222
  8
0
  6
CONTINUOUS
 62
     7
 10
-456.87502889463
 20
54.3676766965638
 30
0.0
 11
-456.942014973734
 21
54.4174050881437
 31
0.0
  0
LINE
  5
   223
  8
0
  6
CONTINUOUS
 62
     7
 10
-456.920927509598
 20
58.2784574180814
 30
0.0
 11
-456.975514379129
 21
58.5833432788525
 31
0.0
  0
LINE
  5
   224
  8
0
  6
CONTINUOUS
 62
     7
 10
-456.875031394555
 20
57.417422776822
 30
0.0
 11
-456.920925062648
 21
58.2784609519921
 31
0.0
  0
LINE
  5
   225
  8
0
  6
CONTINUOUS
 62
     7
 10
-456.97551372599
 20
52.4422699656904
 30
0.0
 11
-457.233193659483
 21
52.4935242325449
 31
0.0
  0
LINE
  5
   226
  8
0
  6
CONTINUOUS
 62
     7
 10
-457.233192276398
 20
52.4935272506111
 30
0.0
 11
-457.250031780535
 21
52.5047806068017
 31
0.0
  0
LINE
  5
   227
  8
0
  6
CONTINUOUS
 62
     7
 10
-457.250039192094
 20
54.3300342257084
 30
0.0
 11
-457.233198734862
 21
54.3412875821312
 31
0.0
  0
LINE
  5
   228
  8
0
  6
CONTINUOUS
 62
     7
 10
-457.233195437737
 20
54.3412851862083
 30
0.0
 11
-456.975516457344
 21
54.3925394450864
 31
0.0
  0
LINE
  5
   229
  8
0
  6
CONTINUOUS
 62
     7
 10
-456.975511550903
 20
57.4174213521621
 30
0.0
 11
-457.250030994415
 21
57.4174213521621
 31
0.0
  0
LINE
  5
   22A
  8
0
  6
CONTINUOUS
 62
     7
 10
-457.250033237484
 20
52.5047737101954
 30
0.0
 11
-457.625033228781
 21
52.5719123666012
 31
0.0
  0
LINE
  5
   22B
  8
0
  6
CONTINUOUS
 62
     7
 10
-457.625033809069
 20
54.2628971903783
 30
0.0
 11
-457.250033817773
 21
54.330035846784
 31
0.0
  0
LINE
  5
   22C
  8
0
  6
CONTINUOUS
 62
     7
 10
-457.250030994415
 20
57.4174213521621
 30
0.0
 11
-457.625030994415
 21
57.4174213521621
 31
0.0
  0
LINE
  5
   22D
  8
0
  6
CONTINUOUS
 62
     7
 10
-457.625030994415
 20
54.2629032247207
 30
0.0
 11
-458.625030517578
 21
54.2629032247207
 31
0.0
  0
LINE
  5
   22E
  8
0
  6
CONTINUOUS
 62
     7
 10
-457.625030994415
 20
57.4174213521621
 30
0.0
 11
-458.625030517578
 21
57.4174213521621
 31
0.0
  0
LINE
  5
   22F
  8
0
  6
CONTINUOUS
 62
     7
 10
-457.625030994415
 20
52.5719242208144
 30
0.0
 11
-458.625030517578
 21
52.5719242208144
 31
0.0
  0
LINE
  5
   230
  8
0
  6
CONTINUOUS
 62
     7
 10
-412.025032042861
 20
103.517427455678
 30
0.0
 11
-459.125030517578
 21
103.517427455678
 31
0.0
  0
LINE
  5
   231
  8
0
  6
CONTINUOUS
 62
     7
 10
-412.025032042861
 20
21.3174286000869
 30
0.0
 11
-423.125030516982
 21
21.3174286000869
 31
0.0
  0
LINE
  5
   232
  8
0
  6
CONTINUOUS
 62
     3
 10
-423.125030516982
 20
21.3174286000869
 30
0.0
 11
-423.125030516982
 21
41.0424213521621
 31
0.0
  0
LINE
  5
   233
  8
0
  6
CONTINUOUS
 62
     3
 10
-423.125030516981
 20
46.7924137227675
 30
0.0
 11
-423.125030516981
 21
48.1674518697402
 31
0.0
  0
LINE
  5
   234
  8
0
  6
CONTINUOUS
 62
     3
 10
-423.125030517578
 20
97.1674449947643
 30
0.0
 11
-423.125030517578
 21
103.517427455678
 31
0.0
  0
LINE
  5
   235
  8
0
  6
CONTINUOUS
 62
     3
 10
-408.375030516982
 20
68.8918552510879
 30
0.0
 11
-408.375030516982
 21
73.6672611348769
 31
0.0
  0
LINE
  5
   236
  8
0
  6
CONTINUOUS
 62
     3
 10
-408.375034693242
 20
40.1672731316321
 30
0.0
 11
-408.375057581425
 21
43.4426327622851
 31
0.0
  0
LINE
  5
   237
  8
0
  6
CONTINUOUS
 62
     7
 10
-412.025032042861
 20
21.3174305074355
 30
0.0
 11
-412.025032042861
 21
32.2924302485814
 31
0.0
  0
LINE
  5
   238
  8
0
  6
CONTINUOUS
 62
     3
 10
-412.025033572268
 20
46.7924213521621
 30
0.0
 11
-423.125032046389
 21
46.7924213521621
 31
0.0
  0
LINE
  5
   239
  8
0
  6
CONTINUOUS
 62
     3
 10
-412.025033227063
 20
41.0424213521621
 30
0.0
 11
-423.125031701184
 21
41.0424213521621
 31
0.0
  0
LINE
  5
   23A
  8
0
  6
CONTINUOUS
 62
     1
 10
-409.375030993819
 20
92.7924213521621
 30
0.0
 11
-412.025032042861
 21
92.7924213521621
 31
0.0
  0
LINE
  5
   23B
  8
0
  6
CONTINUOUS
 62
     1
 10
-407.411641436676
 20
35.0790409236385
 30
0.0
 11
-407.396476585065
 21
35.1156527187968
 31
0.0
  0
LINE
  5
   23C
  8
0
  6
CONTINUOUS
 62
     1
 10
-407.411641436676
 20
35.0790409236385
 30
0.0
 11
-407.396476585065
 21
35.1156527187968
 31
0.0
  0
LINE
  5
   23D
  8
0
  6
CONTINUOUS
 62
     1
 10
-407.411641436676
 20
35.0790409236385
 30
0.0
 11
-407.396476585065
 21
35.1156527187968
 31
0.0
  0
LINE
  5
   23E
  8
0
  6
CONTINUOUS
 62
     1
 10
-410.625030516982
 20
32.2924294583938
 30
0.0
 11
-410.875030516982
 21
32.2924294583938
 31
0.0
  0
LINE
  5
   23F
  8
0
  6
CONTINUOUS
 62
     1
 10
-409.375030993819
 20
32.2924430823164
 30
0.0
 11
-412.025032042861
 21
32.2924430823164
 31
0.0
  0
LINE
  5
   240
  8
0
  6
CONTINUOUS
 62
     2
 10
-403.874375356735
 20
35.2924218289992
 30
0.0
 11
-403.874375356735
 21
36.2924203984878
 31
0.0
  0
LINE
  5
   241
  8
0
  6
CONTINUOUS
 62
     2
 10
-408.374375326932
 20
35.0424213539896
 30
0.0
 11
-408.374375326932
 21
87.5424213539896
 31
0.0
  0
LINE
  5
   242
  8
0
  6
CONTINUOUS
 62
     2
 10
-406.62503528595
 20
87.5424213521621
 30
0.0
 11
-409.375030993819
 21
87.5424213521621
 31
0.0
  0
LINE
  5
   243
  8
0
  6
CONTINUOUS
 62
     2
 10
-406.62503528595
 20
35.0424213533421
 30
0.0
 11
-409.375030993819
 21
35.0424213533421
 31
0.0
  0
LINE
  5
   244
  8
0
  6
CONTINUOUS
 62
     2
 10
-403.874375661357
 20
35.2924209448256
 30
0.0
 11
-403.874403794749
 21
44.2924133153773
 31
0.0
  0
LINE
  5
   245
  8
0
  6
CONTINUOUS
 62
     2
 10
-403.874405456695
 20
44.7924135444859
 30
0.0
 11
-403.874472690734
 21
50.7924135443925
 31
0.0
  0
LINE
  5
   246
  8
0
  6
CONTINUOUS
 62
     2
 10
-403.874376787246
 20
51.2924211198567
 30
0.0
 11
-403.874376787246
 21
61.0424134904622
 31
0.0
  0
LINE
  5
   247
  8
0
  6
CONTINUOUS
 62
     2
 10
-403.874476287287
 20
51.2924083407278
 30
0.0
 11
-403.874449584408
 21
61.0424083413486
 31
0.0
  0
LINE
  5
   248
  8
0
  6
CONTINUOUS
 62
     2
 10
-403.874450616403
 20
61.5424121003482
 30
0.0
 11
-403.874554566845
 21
67.5424121002878
 31
0.0
  0
LINE
  5
   249
  8
0
  6
CONTINUOUS
 62
     2
 10
-403.874782554842
 20
68.0414872392294
 30
0.0
 11
-403.875027338124
 21
87.2924207151038
 31
0.0
  0
LINE
  5
   24A
  8
0
  6
CONTINUOUS
 62
     7
 10
-424.875034332151
 20
69.4174083266185
 30
0.0
 11
-426.125050307499
 21
69.4174083266185
 31
0.0
  0
LINE
  5
   24B
  8
0
  6
CONTINUOUS
 62
     7
 10
-409.375030993819
 20
87.5424213521621
 30
0.0
 11
-409.375030993819
 21
92.7924213521621
 31
0.0
  0
LINE
  5
   24C
  8
0
  6
CONTINUOUS
 62
     7
 10
-409.375030993819
 20
32.2924295265133
 30
0.0
 11
-409.375030993819
 21
35.0424213533421
 31
0.0
  0
LINE
  5
   24D
  8
0
  6
CONTINUOUS
 62
     7
 10
-412.025032042861
 20
92.7924213521621
 30
0.0
 11
-412.025032042861
 21
103.517427455678
 31
0.0
  0
LINE
  5
   24E
  8
0
  6
CONTINUOUS
 62
     3
 10
-412.025032042861
 20
32.2924302485814
 30
0.0
 11
-412.025032042861
 21
92.7924213521621
 31
0.0
  0
ARC
  5
   24F
  8
0
  6
CONTINUOUS
 62
     7
 10
-393.537010612905
 20
50.270480526876
 30
0.0
 40
0.499999897877905
 50
348.623601716676
 51
436.688817054576
  0
ARC
  5
   250
  8
0
  6
CONTINUOUS
 62
     7
 10
-394.135381341453
 20
47.2965712468271
 30
0.0
 40
0.50000037262337
 50
260.594020543651
 51
348.623601716676
  0
LINE
  5
   251
  8
0
  6
DASHDOT
 62
     7
 10
-386.136716775972
 20
47.2161535503453
 30
0.0
 11
-411.195062504962
 21
52.2580613203855
 31
0.0
  0
LINE
  5
   252
  8
0
  6
CONTINUOUS
 62
     7
 10
-393.421890881291
 20
50.7570470535314
 30
0.0
 11
-403.874470980458
 21
53.2300865039772
 31
0.0
  0
LINE
  5
   253
  8
0
  6
CONTINUOUS
 62
     7
 10
-393.645204847776
 20
47.1979444380629
 30
0.0
 11
-393.046834283521
 21
50.1718537511687
 31
0.0
  0
LINE
  5
   254
  8
0
  6
CONTINUOUS
 62
     7
 10
-394.217095835992
 20
46.8032934835266
 30
0.0
 11
-403.874445916788
 21
48.4030929051763
 31
0.0
  0
ARC
  5
   255
  8
0
  6
DASHDOT
 62
     7
 10
-430.624631573531
 20
56.1674213521621
 30
0.0
 40
38.0221347997541
 50
337.492314704898
 51
359.999999948034
  0
LINE
  5
   256
  8
0
  6
DASHDOT
 62
     7
 10
-392.602496773777
 20
56.1674213521621
 30
0.0
 11
-392.602496773777
 21
59.0425211695308
 31
0.0
  0
LINE
  5
   257
  8
0
  6
CONTINUOUS
 62
     7
 10
-460.125030517578
 20
94.7332325093886
 30
0.0
 11
-460.125030517578
 21
99.667406093373
 31
0.0
  0
LINE
  5
   258
  8
0
  6
CONTINUOUS
 62
     7
 10
-460.125030517578
 20
25.1674141996047
 30
0.0
 11
-460.125030517578
 21
30.1674137227675
 31
0.0
  0
LINE
  5
   259
  8
0
  6
CONTINUOUS
 62
   210
 10
-483.875042414846
 20
47.4174013141519
 30
0.0
 11
-481.875042414846
 21
47.4174089435465
 31
0.0
  0
LINE
  5
   25A
  8
0
  6
CONTINUOUS
 62
   210
 10
-483.875044322194
 20
43.9174013141192
 30
0.0
 11
-481.875044322194
 21
43.9174089435137
 31
0.0
  0
LINE
  5
   25B
  8
0
  6
CONTINUOUS
 62
   210
 10
-484.125045776367
 20
20.4174137115479
 30
0.0
 11
-484.125045776367
 21
32.9174137115479
 31
0.0
  0
LINE
  5
   25C
  8
0
  6
CONTINUOUS
 62
   210
 10
-484.125053405762
 20
91.9174137115479
 30
0.0
 11
-484.125053405762
 21
104.417413711548
 31
0.0
  0
LINE
  5
   25D
  8
0
  6
CONTINUOUS
 62
     3
 10
-460.125030517578
 20
21.3174152374268
 30
0.0
 11
-478.625053405762
 21
21.3174152374268
 31
0.0
  0
LINE
  5
   25E
  8
0
  6
CONTINUOUS
 62
   210
 10
-460.125030517578
 20
19.9174137115479
 30
0.0
 11
-478.625053405762
 21
19.9174137115479
 31
0.0
  0
LINE
  5
   25F
  8
0
  6
CONTINUOUS
 62
   210
 10
-460.125030517578
 20
104.917413711548
 30
0.0
 11
-478.625053405762
 21
104.917413711548
 31
0.0
  0
LINE
  5
   260
  8
0
  6
CONTINUOUS
 62
     3
 10
-460.125030517578
 20
103.517419815063
 30
0.0
 11
-478.625053405762
 21
103.517419815063
 31
0.0
  0
LINE
  5
   261
  8
0
  6
CONTINUOUS
 62
   210
 10
-460.125030517578
 20
19.9174137115479
 30
0.0
 11
-460.125030517578
 21
104.917413711548
 31
0.0
  0
LINE
  5
   262
  8
0
  6
CONTINUOUS
 62
   210
 10
-481.875045801478
 20
42.4173905584688
 30
0.0
 11
-481.875046119373
 21
43.9174089435069
 31
0.0
  0
LINE
  5
   263
  8
0
  6
CONTINUOUS
 62
   210
 10
-478.625047937273
 20
19.9174113023501
 30
0.0
 11
-478.625047736498
 21
20.4174137115478
 31
0.0
  0
LINE
  5
   264
  8
0
  6
CONTINUOUS
 62
     3
 10
-478.625053405762
 20
78.4174137115479
 30
0.0
 11
-481.875053405762
 21
78.4174137115479
 31
0.0
  0
LINE
  5
   265
  8
0
  6
CONTINUOUS
 62
     3
 10
-478.625053405762
 20
78.4174137115479
 30
0.0
 11
-478.625053405762
 21
82.4174137115479
 31
0.0
  0
LINE
  5
   266
  8
0
  6
CONTINUOUS
 62
     3
 10
-478.625045776367
 20
38.9173831939697
 30
0.0
 11
-481.875045776367
 21
38.9173831939697
 31
0.0
  0
LINE
  5
   267
  8
0
  6
CONTINUOUS
 62
   210
 10
-481.875045776367
 20
40.6674137115479
 30
0.0
 11
-481.875045776367
 21
42.4173908233643
 31
0.0
  0
LINE
  5
   268
  8
0
  6
CONTINUOUS
 62
     3
 10
-460.625008394692
 20
46.6674018635029
 30
0.0
 11
-481.87503891227
 21
46.6674094928971
 31
0.0
  0
LINE
  5
   269
  8
0
  6
CONTINUOUS
 62
     3
 10
-460.625010745443
 20
46.6674008803882
 30
0.0
 11
-460.125026019629
 21
47.1674084917654
 31
0.0
  0
LINE
  5
   26A
  8
0
  6
CONTINUOUS
 62
     3
 10
-460.625015258789
 20
41.1674213409424
 30
0.0
 11
-481.875045776367
 21
41.1674213409424
 31
0.0
  0
LINE
  5
   26B
  8
0
  6
CONTINUOUS
 62
     3
 10
-460.125021672996
 20
40.6674067853959
 30
0.0
 11
-460.62500639881
 21
41.1674143967731
 31
0.0
  0
LINE
  5
   26C
  8
0
  6
CONTINUOUS
 62
   210
 10
-484.875051212635
 20
34.1674116575016
 30
0.0
 11
-484.87504358324
 21
40.6674116575016
 31
0.0
  0
LINE
  5
   26D
  8
0
  6
CONTINUOUS
 62
   210
 10
-484.875045622086
 20
84.1674081363518
 30
0.0
 11
-484.87505325148
 21
90.6674081363518
 31
0.0
  0
LINE
  5
   26E
  8
0
  6
CONTINUOUS
 62
     3
 10
-481.875045776367
 20
78.4174137115479
 30
0.0
 11
-481.875045776367
 21
80.4174137115479
 31
0.0
  0
LINE
  5
   26F
  8
0
  6
CONTINUOUS
 62
   210
 10
-460.125022888184
 20
90.9174137115479
 30
0.0
 11
-460.125022888184
 21
91.4174137115478
 31
0.0
  0
LINE
  5
   270
  8
0
  6
CONTINUOUS
 62
   210
 10
-460.125022888184
 20
90.9174137115479
 30
0.0
 11
-460.125022888184
 21
91.4174137115478
 31
0.0
  0
LINE
  5
   271
  8
0
  6
CONTINUOUS
 62
   210
 10
-460.125022888184
 20
90.9174137115479
 30
0.0
 11
-460.125022888184
 21
91.4174137115478
 31
0.0
  0
LINE
  5
   272
  8
0
  6
CONTINUOUS
 62
   210
 10
-460.125022888184
 20
33.4174137115479
 30
0.0
 11
-460.125022888184
 21
33.9174137115479
 31
0.0
  0
LINE
  5
   273
  8
0
  6
CONTINUOUS
 62
     2
 10
-483.875045776367
 20
90.9174137115479
 30
0.0
 11
-484.625045776367
 21
90.9174137115479
 31
0.0
  0
LINE
  5
   274
  8
0
  6
CONTINUOUS
 62
     2
 10
-483.875045776367
 20
33.9174137115479
 30
0.0
 11
-484.625045776367
 21
33.9174137115479
 31
0.0
  0
LINE
  5
   275
  8
0
  6
CONTINUOUS
 62
     2
 10
-483.875045776367
 20
90.6674137115479
 30
0.0
 11
-483.875045776367
 21
90.9174137115479
 31
0.0
  0
LINE
  5
   276
  8
0
  6
CONTINUOUS
 62
     2
 10
-483.875045776367
 20
40.6674671173096
 30
0.0
 11
-483.875045776367
 21
84.1674137115479
 31
0.0
  0
LINE
  5
   277
  8
0
  6
CONTINUOUS
 62
     2
 10
-483.875045776367
 20
33.9174137115479
 30
0.0
 11
-483.875045776367
 21
34.1674518585205
 31
0.0
  0
LINE
  5
   278
  8
0
  6
CONTINUOUS
 62
     2
 10
-484.625045776367
 20
33.9174137115479
 30
0.0
 11
-484.625045776367
 21
34.1674060821533
 31
0.0
  0
LINE
  5
   279
  8
0
  6
CONTINUOUS
 62
     2
 10
-484.625045776367
 20
40.6674060821533
 30
0.0
 11
-484.625045776367
 21
84.1673755645752
 31
0.0
  0
LINE
  5
   27A
  8
0
  6
CONTINUOUS
 62
     2
 10
-484.625045776367
 20
90.6673755645752
 30
0.0
 11
-484.625045776367
 21
90.9174137115479
 31
0.0
  0
LINE
  5
   27B
  8
0
  6
CONTINUOUS
 62
   210
 10
-478.625045776367
 20
32.9174137115479
 30
0.0
 11
-479.125030517578
 21
32.9174137115479
 31
0.0
  0
LINE
  5
   27C
  8
0
  6
CONTINUOUS
 62
   210
 10
-479.125030517578
 20
32.9174137115479
 30
0.0
 11
-480.624950349514
 21
32.9174137115479
 31
0.0
  0
LINE
  5
   27D
  8
0
  6
CONTINUOUS
 62
   210
 10
-478.625045776367
 20
20.4174137115479
 30
0.0
 11
-480.624931335449
 21
20.4174137115479
 31
0.0
  0
LINE
  5
   27E
  8
0
  6
CONTINUOUS
 62
   210
 10
-479.125030517578
 20
91.9174137115479
 30
0.0
 11
-480.625038146973
 21
91.9174137115479
 31
0.0
  0
LINE
  5
   27F
  8
0
  6
CONTINUOUS
 62
   210
 10
-478.625053405762
 20
91.9174137115479
 30
0.0
 11
-479.125030517578
 21
91.9174137115479
 31
0.0
  0
LINE
  5
   280
  8
0
  6
CONTINUOUS
 62
   210
 10
-478.625053405762
 20
104.417413711548
 30
0.0
 11
-480.625038146973
 21
104.417413711548
 31
0.0
  0
LINE
  5
   281
  8
0
  6
CONTINUOUS
 62
   210
 10
-478.625053405762
 20
34.1674137115479
 30
0.0
 11
-484.875053405762
 21
34.1674137115479
 31
0.0
  0
LINE
  5
   282
  8
0
  6
CONTINUOUS
 62
   210
 10
-481.875045776367
 20
40.6674137115479
 30
0.0
 11
-484.875045776367
 21
40.6674137115479
 31
0.0
  0
LINE
  5
   283
  8
0
  6
CONTINUOUS
 62
   210
 10
-478.625053405762
 20
90.6674137115479
 30
0.0
 11
-484.875053405762
 21
90.6674137115479
 31
0.0
  0
LINE
  5
   284
  8
0
  6
CONTINUOUS
 62
   210
 10
-478.625045776367
 20
84.1674137115479
 30
0.0
 11
-484.875045776367
 21
84.1674137115479
 31
0.0
  0
LINE
  5
   285
  8
0
  6
CONTINUOUS
 62
   210
 10
-478.625122070313
 20
82.4174137115479
 30
0.0
 11
-483.875045776367
 21
82.4174137115479
 31
0.0
  0
LINE
  5
   286
  8
0
  6
CONTINUOUS
 62
     3
 10
-478.62508392334
 20
80.4174137115479
 30
0.0
 11
-481.875045776367
 21
80.4174137115479
 31
0.0
  0
LINE
  5
   287
  8
0
  6
CONTINUOUS
 62
   210
 10
-481.875045776367
 20
78.4174137115479
 30
0.0
 11
-483.875045776367
 21
78.4174137115479
 31
0.0
  0
LINE
  5
   288
  8
0
  6
DASHDOT
 62
     7
 10
-472.252505515075
 20
87.4174213521621
 30
0.0
 11
-491.485367109832
 21
87.4174213521621
 31
0.0
  0
LINE
  5
   289
  8
0
  6
DASHDOT
 62
     7
 10
-472.252505515075
 20
37.4174213521621
 30
0.0
 11
-491.485367109832
 21
37.4174213521621
 31
0.0
  0
LINE
  5
   28A
  8
0
  6
CONTINUOUS
 62
   210
 10
-480.625038146973
 20
104.417413711548
 30
0.0
 11
-484.125053405762
 21
104.417413711548
 31
0.0
  0
LINE
  5
   28B
  8
0
  6
CONTINUOUS
 62
   210
 10
-480.625038146973
 20
91.9174137115479
 30
0.0
 11
-484.125053405762
 21
91.9174137115479
 31
0.0
  0
LINE
  5
   28C
  8
0
  6
CONTINUOUS
 62
   210
 10
-478.625053405762
 20
104.417413711548
 30
0.0
 11
-478.625053405762
 21
104.917413711548
 31
0.0
  0
LINE
  5
   28D
  8
0
  6
CONTINUOUS
 62
     3
 10
-478.625053405762
 20
91.9174137115479
 30
0.0
 11
-478.625053405762
 21
104.417413711548
 31
0.0
  0
LINE
  5
   28E
  8
0
  6
CONTINUOUS
 62
   210
 10
-478.625053405762
 20
90.6674137115479
 30
0.0
 11
-478.625053405762
 21
91.9174137115479
 31
0.0
  0
LINE
  5
   28F
  8
0
  6
CONTINUOUS
 62
     3
 10
-478.625053405762
 20
84.1674137115479
 30
0.0
 11
-478.625053405762
 21
90.6674137115479
 31
0.0
  0
LINE
  5
   290
  8
0
  6
CONTINUOUS
 62
   210
 10
-478.625053405762
 20
82.4174137115479
 30
0.0
 11
-478.625053405762
 21
84.1674137115479
 31
0.0
  0
LINE
  5
   291
  8
0
  6
CONTINUOUS
 62
   210
 10
-481.875046861119
 20
47.4174089435295
 30
0.0
 11
-481.875053430871
 21
78.4174058172579
 31
0.0
  0
LINE
  5
   292
  8
0
  6
CONTINUOUS
 62
     3
 10
-481.875046119373
 20
43.9174089435069
 30
0.0
 11
-481.875046861119
 21
47.4174089435295
 31
0.0
  0
LINE
  5
   293
  8
0
  6
CONTINUOUS
 62
     3
 10
-478.625042215209
 20
34.1674137115479
 30
0.0
 11
-478.62504030788
 21
38.9173502671938
 31
0.0
  0
LINE
  5
   294
  8
0
  6
CONTINUOUS
 62
   210
 10
-478.625042717144
 20
32.9174137115479
 30
0.0
 11
-478.625042215209
 21
34.1674137115479
 31
0.0
  0
LINE
  5
   295
  8
0
  6
CONTINUOUS
 62
     3
 10
-478.625047736498
 20
20.4174137115478
 30
0.0
 11
-478.625042717144
 21
32.9174137115479
 31
0.0
  0
LINE
  5
   296
  8
0
  6
CONTINUOUS
 62
   210
 10
-480.624931335449
 20
20.4174137115479
 30
0.0
 11
-484.125045776367
 21
20.4174137115479
 31
0.0
  0
LINE
  5
   297
  8
0
  6
CONTINUOUS
 62
   210
 10
-480.624950349514
 20
32.9174137115479
 30
0.0
 11
-484.125045776367
 21
32.9174137115479
 31
0.0
  0
LINE
  5
   298
  8
0
  6
DASHDOT
 62
     7
 10
-484.875045776367
 20
40.6674137115478
 30
0.0
 11
-484.875045776367
 21
84.1674137115478
 31
0.0
  0
LINE
  5
   299
  8
0
  6
DASHDOT
 62
     7
 10
-484.875053405762
 20
2.45092421878203
 30
0.0
 11
-484.875053405762
 21
34.1674137115478
 31
0.0
  0
LINE
  5
   29A
  8
0
  6
DASHDOT
 62
     7
 10
-486.375053405762
 20
1.92426459859094
 30
0.0
 11
-486.375053405762
 21
121.783216493747
 31
0.0
  0
LINE
  5
   29B
  8
0
  6
CONTINUOUS
 62
     3
 10
-489.226753591794
 20
0.870945358208761
 30
0.0
 11
-481.765742305753
 21
3.5920200625294
 31
0.0
  0
LINE
  5
   29C
  8
0
  6
CONTINUOUS
 62
     3
 10
-482.38017852931
 20
117.877157643996
 30
0.0
 11
-489.446195100207
 21
123.407083656003
 31
0.0
  0
LINE
  5
   29D
  8
0
  6
DASHDOT
 62
     7
 10
-484.875045776367
 20
84.1674137115478
 30
0.0
 11
-484.875045776367
 21
90.6674137115479
 31
0.0
  0
LINE
  5
   29E
  8
0
  6
DASHDOT
 62
     7
 10
-484.875045776367
 20
104.167406082153
 30
0.0
 11
-484.875045776367
 21
119.829662446041
 31
0.0
  0
LINE
  5
   29F
  8
0
  6
DASHDOT
 62
     7
 10
-484.875045776367
 20
90.6674137115479
 30
0.0
 11
-484.875045776367
 21
92.1674060821533
 31
0.0
  0
CIRCLE
  5
   2A0
  8
0
  6
CONTINUOUS
 62
     7
 10
-468.345601119746
 20
95.4488037596367
 30
0.0
 40
0.1
  0
CIRCLE
  5
   2A1
  8
0
  6
CONTINUOUS
 62
     7
 10
-447.309052864164
 20
94.6441270504068
 30
0.0
 40
0.1
  0
CIRCLE
  5
   2A2
  8
0
  6
CONTINUOUS
 62
     7
 10
-511.913097233764
 20
23.8325766381761
 30
0.0
 40
0.1
  0
LINE
  5
   2A3
  8
0
  6
CONTINUOUS
 62
     1
 10
-406.62503528595
 20
33.7892036437988
 30
0.0
 11
-406.62503528595
 21
34.7892036437988
 31
0.0
  0
LINE
  5
   2A4
  8
0
  6
CONTINUOUS
 62
     1
 10
-405.62503528595
 20
33.7892036437988
 30
0.0
 11
-406.62503528595
 21
33.7892036437988
 31
0.0
  0
LINE
  5
   2A5
  8
0
  6
CONTINUOUS
 62
     1
 10
-406.62503528595
 20
87.7892017364502
 30
0.0
 11
-406.62503528595
 21
88.7892017364502
 31
0.0
  0
LINE
  5
   2A6
  8
0
  6
CONTINUOUS
 62
     1
 10
-405.62503528595
 20
88.7892017364502
 30
0.0
 11
-406.62503528595
 21
88.7892017364502
 31
0.0
  0
LINE
  5
   2A7
  8
0
  6
CONTINUOUS
 62
     1
 10
-406.62503528595
 20
34.7892036437988
 30
0.0
 11
-406.62503528595
 21
87.7892036437988
 31
0.0
  0
LINE
  5
   2A8
  8
0
  6
CONTINUOUS
 62
     1
 10
-408.875035196543
 20
95.5778751373291
 30
0.0
 11
-408.875035196543
 21
98.0005283355713
 31
0.0
  0
LINE
  5
   2A9
  8
0
  6
CONTINUOUS
 62
     1
 10
-408.875035196543
 20
24.5778789520264
 30
0.0
 11
-408.875035196543
 21
27.0005283355713
 31
0.0
  0
LINE
  5
   2AA
  8
0
  6
CONTINUOUS
 62
     1
 10
-405.62503528595
 20
20.5392036437988
 30
0.0
 11
-405.62503528595
 21
102.039203643799
 31
0.0
  0
LINE
  5
   2AB
  8
0
  6
CONTINUOUS
 62
     1
 10
-403.87503528595
 20
20.5392036437988
 30
0.0
 11
-405.62503528595
 21
20.5392036437988
 31
0.0
  0
LINE
  5
   2AC
  8
0
  6
CONTINUOUS
 62
     1
 10
-403.87503528595
 20
20.5392017364502
 30
0.0
 11
-403.87503528595
 21
102.03920173645
 31
0.0
  0
LINE
  5
   2AD
  8
0
  6
CONTINUOUS
 62
     1
 10
-403.87503528595
 20
102.03920173645
 30
0.0
 11
-404.37503528595
 21
102.03920173645
 31
0.0
  0
LINE
  5
   2AE
  8
0
  6
CONTINUOUS
 62
     1
 10
-404.87503528595
 20
102.03920173645
 30
0.0
 11
-405.62503528595
 21
102.03920173645
 31
0.0
  0
LINE
  5
   2AF
  8
0
  6
CONTINUOUS
 62
     1
 10
-405.62503528595
 20
95.2892017364502
 30
0.0
 11
-408.375036794857
 21
95.2892017364502
 31
0.0
  0
LINE
  5
   2B0
  8
0
  6
CONTINUOUS
 62
     1
 10
-405.62503528595
 20
98.2892017364502
 30
0.0
 11
-408.375033558279
 21
98.2892017364502
 31
0.0
  0
LINE
  5
   2B1
  8
0
  6
CONTINUOUS
 62
     1
 10
-408.375035203393
 20
95.2892017364502
 30
0.0
 11
-408.375035203393
 21
95.4033832550049
 31
0.0
  0
LINE
  5
   2B2
  8
0
  6
CONTINUOUS
 62
     1
 10
-408.375034805531
 20
95.2892005879194
 30
0.0
 11
-408.875034821995
 21
95.5778739924177
 31
0.0
  0
LINE
  5
   2B3
  8
0
  6
CONTINUOUS
 62
     1
 10
-408.375035203393
 20
95.4033832550049
 30
0.0
 11
-408.375035203393
 21
95.7285404205322
 31
0.0
  0
LINE
  5
   2B4
  8
0
  6
CONTINUOUS
 62
     1
 10
-408.375035203393
 20
95.7285404205322
 30
0.0
 11
-408.375035203393
 21
96.215181350708
 31
0.0
  0
LINE
  5
   2B5
  8
0
  6
CONTINUOUS
 62
     1
 10
-408.375035203393
 20
96.215181350708
 30
0.0
 11
-408.375035203393
 21
96.7892017364502
 31
0.0
  0
LINE
  5
   2B6
  8
0
  6
CONTINUOUS
 62
     1
 10
-408.375035203393
 20
96.7892017364502
 30
0.0
 11
-408.375035203393
 21
97.3632297515869
 31
0.0
  0
LINE
  5
   2B7
  8
0
  6
CONTINUOUS
 62
     1
 10
-408.375035203393
 20
97.3632297515869
 30
0.0
 11
-408.375035203393
 21
97.8498630523682
 31
0.0
  0
LINE
  5
   2B8
  8
0
  6
CONTINUOUS
 62
     1
 10
-408.375035203393
 20
97.8498630523682
 30
0.0
 11
-408.375035203393
 21
98.1750202178955
 31
0.0
  0
LINE
  5
   2B9
  8
0
  6
CONTINUOUS
 62
     1
 10
-408.375035203393
 20
98.1750202178955
 30
0.0
 11
-408.375035203393
 21
98.2892017364502
 31
0.0
  0
LINE
  5
   2BA
  8
0
  6
CONTINUOUS
 62
     1
 10
-408.875035631132
 20
98.0005271447023
 30
0.0
 11
-408.375035614668
 21
98.2892005492005
 31
0.0
  0
LINE
  5
   2BB
  8
0
  6
CONTINUOUS
 62
     1
 10
-405.62503528595
 20
27.2892036437988
 30
0.0
 11
-408.375034200837
 21
27.2892036437988
 31
0.0
  0
LINE
  5
   2BC
  8
0
  6
CONTINUOUS
 62
     1
 10
-405.62503528595
 20
24.2892036437988
 30
0.0
 11
-408.375036042618
 21
24.2892036437988
 31
0.0
  0
LINE
  5
   2BD
  8
0
  6
CONTINUOUS
 62
     1
 10
-408.875035457617
 20
27.0005276354454
 30
0.0
 11
-408.375035441153
 21
27.289202927702
 31
0.0
  0
LINE
  5
   2BE
  8
0
  6
CONTINUOUS
 62
     1
 10
-408.375035186735
 20
27.1750221252441
 30
0.0
 11
-408.375035186735
 21
27.2892036437988
 31
0.0
  0
LINE
  5
   2BF
  8
0
  6
CONTINUOUS
 62
     1
 10
-408.375035186748
 20
26.8498630523682
 30
0.0
 11
-408.375035186748
 21
27.1750221252441
 31
0.0
  0
LINE
  5
   2C0
  8
0
  6
CONTINUOUS
 62
     1
 10
-408.375035186733
 20
26.3632297515869
 30
0.0
 11
-408.375035186733
 21
26.8498630523682
 31
0.0
  0
LINE
  5
   2C1
  8
0
  6
CONTINUOUS
 62
     1
 10
-408.375035186768
 20
25.7892036437988
 30
0.0
 11
-408.375035186768
 21
26.3632297515869
 31
0.0
  0
LINE
  5
   2C2
  8
0
  6
CONTINUOUS
 62
     1
 10
-408.375035186706
 20
25.2151794433594
 30
0.0
 11
-408.375035186706
 21
25.7892036437988
 31
0.0
  0
LINE
  5
   2C3
  8
0
  6
CONTINUOUS
 62
     1
 10
-408.375035186734
 20
24.7285442352295
 30
0.0
 11
-408.375035186734
 21
25.2151794433594
 31
0.0
  0
LINE
  5
   2C4
  8
0
  6
CONTINUOUS
 62
     1
 10
-408.375035186746
 20
24.4033851623535
 30
0.0
 11
-408.375035186746
 21
24.7285442352295
 31
0.0
  0
LINE
  5
   2C5
  8
0
  6
CONTINUOUS
 62
     1
 10
-408.375034979573
 20
24.2892030300493
 30
0.0
 11
-408.875034996037
 21
24.5778783223058
 31
0.0
  0
LINE
  5
   2C6
  8
0
  6
CONTINUOUS
 62
     1
 10
-408.375035186735
 20
24.2892036437988
 30
0.0
 11
-408.375035186735
 21
24.4033851623535
 31
0.0
  0
LINE
  5
   2C7
  8
0
  6
CONTINUOUS
 62
     1
 10
-404.37503528595
 20
102.03920173645
 30
0.0
 11
-404.87503528595
 21
102.03920173645
 31
0.0
  0
LINE
  5
   2C8
  8
0
  6
CONTINUOUS
 62
     7
 10
-484.125053405762
 20
91.9174137115479
 30
0.0
 11
-484.125053405762
 21
104.417413711548
 31
0.0
  0
LINE
  5
   2C9
  8
0
  6
CONTINUOUS
 62
     7
 10
-484.125053405762
 20
20.4174218177795
 30
0.0
 11
-484.125053405762
 21
32.917414188385
 31
0.0
  0
LINE
  5
   2CA
  8
0
  6
CONTINUOUS
 62
   253
 10
-484.125061035156
 20
92.1674060821533
 30
0.0
 11
-484.125061035156
 21
104.167406082153
 31
0.0
  0
LINE
  5
   2CB
  8
0
  6
CONTINUOUS
 62
   253
 10
-492.125061035156
 20
20.6674213409424
 30
0.0
 11
-492.125061035156
 21
32.6674213409424
 31
0.0
  0
LINE
  5
   2CC
  8
0
  6
CONTINUOUS
 62
   253
 10
-484.125038146973
 20
20.6674060821533
 30
0.0
 11
-484.125038146973
 21
32.6674060821533
 31
0.0
  0
LINE
  5
   2CD
  8
0
  6
CONTINUOUS
 62
   253
 10
-492.125038146973
 20
92.6674060821533
 30
0.0
 11
-492.125038146973
 21
103.667406082153
 31
0.0
  0
LINE
  5
   2CE
  8
0
  6
CONTINUOUS
 62
     7
 10
-525.025039672852
 20
100.951150894165
 30
0.0
 11
-525.025039672852
 21
103.667406082153
 31
0.0
  0
LINE
  5
   2CF
  8
0
  6
CONTINUOUS
 62
     7
 10
-525.025039672852
 20
95.5241641998291
 30
0.0
 11
-525.025039672852
 21
100.810647964478
 31
0.0
  0
LINE
  5
   2D0
  8
0
  6
CONTINUOUS
 62
     7
 10
-525.025039672852
 20
92.6674060821533
 30
0.0
 11
-525.025039672852
 21
95.3836536407471
 31
0.0
  0
LINE
  5
   2D1
  8
0
  6
CONTINUOUS
 62
     7
 10
-526.275039672852
 20
92.6674060821533
 30
0.0
 11
-526.275039672852
 21
103.667406082153
 31
0.0
  0
LINE
  5
   2D2
  8
0
  6
CONTINUOUS
 62
     7
 10
-529.275039672852
 20
92.6674060821533
 30
0.0
 11
-529.275039672852
 21
103.667406082153
 31
0.0
  0
LINE
  5
   2D3
  8
0
  6
CONTINUOUS
 62
     7
 10
-530.525039672852
 20
92.6674060821533
 30
0.0
 11
-530.525039672852
 21
95.3836536407471
 31
0.0
  0
LINE
  5
   2D4
  8
0
  6
CONTINUOUS
 62
     7
 10
-530.525039672852
 20
95.5241641998291
 30
0.0
 11
-530.525039672852
 21
100.810647964478
 31
0.0
  0
LINE
  5
   2D5
  8
0
  6
CONTINUOUS
 62
     7
 10
-530.525039672852
 20
100.951150894165
 30
0.0
 11
-530.525039672852
 21
103.667406082153
 31
0.0
  0
LINE
  5
   2D6
  8
0
  6
CONTINUOUS
 62
     7
 10
-504.525039672852
 20
92.6674060821533
 30
0.0
 11
-504.525039672852
 21
93.1674060821533
 31
0.0
  0
LINE
  5
   2D7
  8
0
  6
CONTINUOUS
 62
     7
 10
-504.525039672852
 20
103.167406082153
 30
0.0
 11
-504.525039672852
 21
103.667406082153
 31
0.0
  0
LINE
  5
   2D8
  8
0
  6
CONTINUOUS
 62
     7
 10
-499.025039672852
 20
103.167406082153
 30
0.0
 11
-499.025039672852
 21
103.667406082153
 31
0.0
  0
LINE
  5
   2D9
  8
0
  6
CONTINUOUS
 62
     7
 10
-499.025039672852
 20
92.6674060821533
 30
0.0
 11
-499.025039672852
 21
93.1674060821533
 31
0.0
  0
LINE
  5
   2DA
  8
0
  6
CONTINUOUS
 62
     7
 10
-518.125038146973
 20
93.1674060821533
 30
0.0
 11
-518.125038146973
 21
103.167406082153
 31
0.0
  0
LINE
  5
   2DB
  8
0
  6
CONTINUOUS
 62
     7
 10
-518.525039672852
 20
93.3506946563721
 30
0.0
 11
-518.525039672852
 21
94.7304935455322
 31
0.0
  0
LINE
  5
   2DC
  8
0
  6
CONTINUOUS
 62
     7
 10
-518.525039672852
 20
96.6119556427002
 30
0.0
 11
-518.525039672852
 21
99.7228565216064
 31
0.0
  0
LINE
  5
   2DD
  8
0
  6
CONTINUOUS
 62
     7
 10
-518.525039672852
 20
101.604303359985
 30
0.0
 11
-518.525039672852
 21
102.984117507935
 31
0.0
  0
LINE
  5
   2DE
  8
0
  6
CONTINUOUS
 62
     3
 10
-525.025039672852
 20
95.3836536407471
 30
0.0
 11
-525.025039672852
 21
95.5241641998291
 31
0.0
  0
LINE
  5
   2DF
  8
0
  6
CONTINUOUS
 62
     3
 10
-525.025039672852
 20
100.810647964478
 30
0.0
 11
-525.025039672852
 21
100.951150894165
 31
0.0
  0
LINE
  5
   2E0
  8
0
  6
CONTINUOUS
 62
     3
 10
-522.025039672852
 20
92.682580947876
 30
0.0
 11
-522.025039672852
 21
103.652231216431
 31
0.0
  0
LINE
  5
   2E1
  8
0
  6
CONTINUOUS
 62
     3
 10
-530.525039672852
 20
100.810647964478
 30
0.0
 11
-530.525039672852
 21
100.951150894165
 31
0.0
  0
LINE
  5
   2E2
  8
0
  6
CONTINUOUS
 62
     3
 10
-530.525039672852
 20
95.3836536407471
 30
0.0
 11
-530.525039672852
 21
95.5241641998291
 31
0.0
  0
LINE
  5
   2E3
  8
0
  6
CONTINUOUS
 62
     3
 10
-533.525039672852
 20
92.682580947876
 30
0.0
 11
-533.525039672852
 21
103.652231216431
 31
0.0
  0
LINE
  5
   2E4
  8
0
  6
CONTINUOUS
 62
     3
 10
-521.525039672852
 20
92.682580947876
 30
0.0
 11
-521.525039672852
 21
103.652231216431
 31
0.0
  0
LINE
  5
   2E5
  8
0
  6
CONTINUOUS
 62
     3
 10
-518.525039672852
 20
102.984125137329
 30
0.0
 11
-518.525039672852
 21
103.652231216431
 31
0.0
  0
LINE
  5
   2E6
  8
0
  6
CONTINUOUS
 62
     3
 10
-518.525039672852
 20
99.7228565216064
 30
0.0
 11
-518.525039672852
 21
101.60431098938
 31
0.0
  0
LINE
  5
   2E7
  8
0
  6
CONTINUOUS
 62
     3
 10
-518.525039672852
 20
94.7304935455322
 30
0.0
 11
-518.525039672852
 21
96.6119480133057
 31
0.0
  0
LINE
  5
   2E8
  8
0
  6
CONTINUOUS
 62
     3
 10
-518.525039672852
 20
92.682580947876
 30
0.0
 11
-518.525039672852
 21
93.3506946563721
 31
0.0
  0
LINE
  5
   2E9
  8
0
  6
CONTINUOUS
 62
     3
 10
-492.525039672852
 20
103.167406082153
 30
0.0
 11
-492.525039672852
 21
103.652233600616
 31
0.0
  0
LINE
  5
   2EA
  8
0
  6
CONTINUOUS
 62
     3
 10
-492.525039672852
 20
92.6825785636902
 30
0.0
 11
-492.525039672852
 21
93.1674060821533
 31
0.0
  0
LINE
  5
   2EB
  8
0
  6
CONTINUOUS
 62
   212
 10
-534.875038146973
 20
96.1674060821533
 30
0.0
 11
-534.875038146973
 21
100.167406082153
 31
0.0
  0
LINE
  5
   2EC
  8
0
  6
CONTINUOUS
 62
   253
 10
-492.125061035156
 20
92.1674060821533
 30
0.0
 11
-492.125061035156
 21
92.6674060821533
 31
0.0
  0
LINE
  5
   2ED
  8
0
  6
CONTINUOUS
 62
   253
 10
-492.125061035156
 20
103.66740655899
 30
0.0
 11
-492.125061035156
 21
104.167406082153
 31
0.0
  0
LINE
  5
   2EE
  8
0
  6
CONTINUOUS
 62
     7
 10
-525.025039672852
 20
29.4511523246765
 30
0.0
 11
-525.025039672852
 21
32.1674060821533
 31
0.0
  0
LINE
  5
   2EF
  8
0
  6
CONTINUOUS
 62
     7
 10
-525.025039672852
 20
24.0241632461548
 30
0.0
 11
-525.025039672852
 21
29.3106479644775
 31
0.0
  0
LINE
  5
   2F0
  8
0
  6
CONTINUOUS
 62
     7
 10
-525.025039672852
 20
21.1674060821533
 30
0.0
 11
-525.025039672852
 21
23.8836591243744
 31
0.0
  0
LINE
  5
   2F1
  8
0
  6
CONTINUOUS
 62
     7
 10
-526.275039672852
 20
21.1674060821533
 30
0.0
 11
-526.275039672852
 21
32.1674060821533
 31
0.0
  0
LINE
  5
   2F2
  8
0
  6
CONTINUOUS
 62
     7
 10
-529.275039672852
 20
21.1674060821533
 30
0.0
 11
-529.275039672852
 21
32.1674060821533
 31
0.0
  0
LINE
  5
   2F3
  8
0
  6
CONTINUOUS
 62
     7
 10
-530.525039672852
 20
21.1674060821533
 30
0.0
 11
-530.525039672852
 21
23.8836600780487
 31
0.0
  0
LINE
  5
   2F4
  8
0
  6
CONTINUOUS
 62
     7
 10
-530.525039672852
 20
24.0241641998291
 30
0.0
 11
-530.525039672852
 21
29.3106489181519
 31
0.0
  0
LINE
  5
   2F5
  8
0
  6
CONTINUOUS
 62
     7
 10
-530.525039672852
 20
29.4511530399323
 30
0.0
 11
-530.525039672852
 21
32.1674060821533
 31
0.0
  0
LINE
  5
   2F6
  8
0
  6
CONTINUOUS
 62
     7
 10
-518.125038146973
 20
21.6674060821533
 30
0.0
 11
-518.125038146973
 21
31.6674060821533
 31
0.0
  0
LINE
  5
   2F7
  8
0
  6
CONTINUOUS
 62
     7
 10
-518.525039672852
 20
21.8506889343262
 30
0.0
 11
-518.525039672852
 21
23.2305026054382
 31
0.0
  0
LINE
  5
   2F8
  8
0
  6
CONTINUOUS
 62
     7
 10
-518.525039672852
 20
25.1119523048401
 30
0.0
 11
-518.525039672852
 21
28.2228608131409
 31
0.0
  0
LINE
  5
   2F9
  8
0
  6
CONTINUOUS
 62
     7
 10
-518.525039672852
 20
30.1043095588684
 30
0.0
 11
-518.525039672852
 21
31.4841241836548
 31
0.0
  0
LINE
  5
   2FA
  8
0
  6
CONTINUOUS
 62
     3
 10
-530.525039672852
 20
29.310649394989
 30
0.0
 11
-530.525039672852
 21
29.4511518478394
 31
0.0
  0
LINE
  5
   2FB
  8
0
  6
CONTINUOUS
 62
     3
 10
-530.525039672852
 20
23.8836584091187
 30
0.0
 11
-530.525039672852
 21
24.0241651535034
 31
0.0
  0
LINE
  5
   2FC
  8
0
  6
CONTINUOUS
 62
     3
 10
-533.525039672852
 20
21.1825785636902
 30
0.0
 11
-533.525039672852
 21
32.1522336006165
 31
0.0
  0
LINE
  5
   2FD
  8
0
  6
CONTINUOUS
 62
     3
 10
-521.525039672852
 20
21.1825785636902
 30
0.0
 11
-521.525039672852
 21
32.1522336006165
 31
0.0
  0
LINE
  5
   2FE
  8
0
  6
CONTINUOUS
 62
     3
 10
-518.525039672852
 20
31.4841232299805
 30
0.0
 11
-518.525039672852
 21
32.1522336006165
 31
0.0
  0
LINE
  5
   2FF
  8
0
  6
CONTINUOUS
 62
     3
 10
-518.525039672852
 20
28.2228602170944
 30
0.0
 11
-518.525039672852
 21
30.104309797287
 31
0.0
  0
LINE
  5
   300
  8
0
  6
CONTINUOUS
 62
     3
 10
-518.525039672852
 20
23.2305026054382
 30
0.0
 11
-518.525039672852
 21
25.1119515895844
 31
0.0
  0
LINE
  5
   301
  8
0
  6
CONTINUOUS
 62
     3
 10
-518.525039672852
 20
21.1825785636902
 30
0.0
 11
-518.525039672852
 21
21.850688457489
 31
0.0
  0
LINE
  5
   302
  8
0
  6
CONTINUOUS
 62
     3
 10
-525.025039672852
 20
23.8836586475372
 30
0.0
 11
-525.025039672852
 21
24.024165391922
 31
0.0
  0
LINE
  5
   303
  8
0
  6
CONTINUOUS
 62
     3
 10
-525.025039672852
 20
29.3106496334076
 30
0.0
 11
-525.025039672852
 21
29.4511518478394
 31
0.0
  0
LINE
  5
   304
  8
0
  6
CONTINUOUS
 62
     3
 10
-522.025039672852
 20
21.1825785636902
 30
0.0
 11
-522.025039672852
 21
32.1522336006165
 31
0.0
  0
LINE
  5
   305
  8
0
  6
CONTINUOUS
 62
   212
 10
-534.875038146973
 20
24.6674060821533
 30
0.0
 11
-534.875038146973
 21
28.6674060821533
 31
0.0
  0
LINE
  5
   306
  8
0
  6
CONTINUOUS
 62
   253
 10
-484.125061035156
 20
20.6674213409424
 30
0.0
 11
-492.125061035156
 21
20.6674213409424
 31
0.0
  0
LINE
  5
   307
  8
0
  6
CONTINUOUS
 62
   253
 10
-484.125061035156
 20
32.6674213409424
 30
0.0
 11
-492.125061035156
 21
32.6674213409424
 31
0.0
  0
LINE
  5
   308
  8
0
  6
CONTINUOUS
 62
   253
 10
-517.978616568301
 20
103.020960851783
 30
0.0
 11
-517.625062796267
 21
103.167407080066
 31
0.0
  0
LINE
  5
   309
  8
0
  6
CONTINUOUS
 62
   253
 10
-518.125061962925
 20
102.667407949794
 30
0.0
 11
-517.978615734641
 21
103.020961721829
 31
0.0
  0
LINE
  5
   30A
  8
0
  6
CONTINUOUS
 62
   253
 10
-517.625063631899
 20
93.1674077939005
 30
0.0
 11
-517.978617403934
 21
93.3138540221836
 31
0.0
  0
LINE
  5
   30B
  8
0
  6
CONTINUOUS
 62
   253
 10
-517.978616570274
 20
93.3138548234111
 30
0.0
 11
-518.125062798557
 21
93.6674085954458
 31
0.0
  0
LINE
  5
   30C
  8
0
  6
CONTINUOUS
 62
   253
 10
-484.125038146973
 20
104.167406082153
 30
0.0
 11
-491.625038146973
 21
104.167406082153
 31
0.0
  0
LINE
  5
   30D
  8
0
  6
CONTINUOUS
 62
   253
 10
-484.125038146973
 20
92.1674060821533
 30
0.0
 11
-491.625038146973
 21
92.1674060821533
 31
0.0
  0
LINE
  5
   30E
  8
0
  6
CONTINUOUS
 62
   253
 10
-492.125036047211
 20
103.667406665274
 30
0.0
 11
-491.625036064325
 21
104.16740664816
 31
0.0
  0
LINE
  5
   30F
  8
0
  6
CONTINUOUS
 62
   253
 10
-491.625036070854
 20
92.167405535733
 30
0.0
 11
-492.12503605374
 21
92.6674055186187
 31
0.0
  0
LINE
  5
   310
  8
0
  6
CONTINUOUS
 62
     7
 10
-525.025039672852
 20
103.667406082153
 30
0.0
 11
-526.275039672852
 21
103.667406082153
 31
0.0
  0
LINE
  5
   311
  8
0
  6
CONTINUOUS
 62
     7
 10
-525.025039672852
 20
92.6674060821533
 30
0.0
 11
-526.275039672852
 21
92.6674060821533
 31
0.0
  0
LINE
  5
   312
  8
0
  6
CONTINUOUS
 62
     7
 10
-529.275039672852
 20
103.667406082153
 30
0.0
 11
-530.525039672852
 21
103.667406082153
 31
0.0
  0
LINE
  5
   313
  8
0
  6
CONTINUOUS
 62
     7
 10
-529.275039672852
 20
92.6674060821533
 30
0.0
 11
-530.525039672852
 21
92.6674060821533
 31
0.0
  0
LINE
  5
   314
  8
0
  6
CONTINUOUS
 62
     7
 10
-503.275039672852
 20
103.667406082153
 30
0.0
 11
-504.525039672852
 21
103.667406082153
 31
0.0
  0
LINE
  5
   315
  8
0
  6
CONTINUOUS
 62
     7
 10
-503.275039672852
 20
92.6674060821533
 30
0.0
 11
-504.525039672852
 21
92.6674060821533
 31
0.0
  0
LINE
  5
   316
  8
0
  6
CONTINUOUS
 62
     7
 10
-499.025039672852
 20
103.667406082153
 30
0.0
 11
-500.275039672852
 21
103.667406082153
 31
0.0
  0
LINE
  5
   317
  8
0
  6
CONTINUOUS
 62
     7
 10
-499.025039672852
 20
92.6674060821533
 30
0.0
 11
-500.275039672852
 21
92.6674060821533
 31
0.0
  0
LINE
  5
   318
  8
0
  6
CONTINUOUS
 62
     7
 10
-518.125038146973
 20
103.167406082153
 30
0.0
 11
-518.525039672852
 21
103.167406082153
 31
0.0
  0
LINE
  5
   319
  8
0
  6
CONTINUOUS
 62
     7
 10
-518.125038146973
 20
93.1674060821533
 30
0.0
 11
-518.525039672852
 21
93.1674060821533
 31
0.0
  0
LINE
  5
   31A
  8
0
  6
CONTINUOUS
 62
     3
 10
-522.025039672852
 20
103.652231216431
 30
0.0
 11
-525.025039672852
 21
103.652231216431
 31
0.0
  0
LINE
  5
   31B
  8
0
  6
CONTINUOUS
 62
     3
 10
-522.025039672852
 20
100.909822463989
 30
0.0
 11
-525.025039672852
 21
100.909822463989
 31
0.0
  0
LINE
  5
   31C
  8
0
  6
CONTINUOUS
 62
     3
 10
-522.025039672852
 20
95.4249897003174
 30
0.0
 11
-525.025039672852
 21
95.4249897003174
 31
0.0
  0
LINE
  5
   31D
  8
0
  6
CONTINUOUS
 62
     3
 10
-522.025039672852
 20
92.682580947876
 30
0.0
 11
-525.025039672852
 21
92.682580947876
 31
0.0
  0
LINE
  5
   31E
  8
0
  6
CONTINUOUS
 62
     3
 10
-530.525039672852
 20
103.652231216431
 30
0.0
 11
-533.525039672852
 21
103.652231216431
 31
0.0
  0
LINE
  5
   31F
  8
0
  6
CONTINUOUS
 62
     3
 10
-530.525039672852
 20
100.909822463989
 30
0.0
 11
-533.525039672852
 21
100.909822463989
 31
0.0
  0
LINE
  5
   320
  8
0
  6
CONTINUOUS
 62
     3
 10
-530.525039672852
 20
95.4249897003174
 30
0.0
 11
-533.525039672852
 21
95.4249897003174
 31
0.0
  0
LINE
  5
   321
  8
0
  6
CONTINUOUS
 62
     3
 10
-530.525039672852
 20
92.682580947876
 30
0.0
 11
-533.525039672852
 21
92.682580947876
 31
0.0
  0
LINE
  5
   322
  8
0
  6
CONTINUOUS
 62
     3
 10
-518.525039672852
 20
103.652231216431
 30
0.0
 11
-521.525039672852
 21
103.652231216431
 31
0.0
  0
LINE
  5
   323
  8
0
  6
CONTINUOUS
 62
     3
 10
-518.525039672852
 20
100.909822463989
 30
0.0
 11
-521.525039672852
 21
100.909822463989
 31
0.0
  0
LINE
  5
   324
  8
0
  6
CONTINUOUS
 62
     3
 10
-518.525039672852
 20
95.4249897003174
 30
0.0
 11
-521.525039672852
 21
95.4249897003174
 31
0.0
  0
LINE
  5
   325
  8
0
  6
CONTINUOUS
 62
     3
 10
-518.525039672852
 20
92.682580947876
 30
0.0
 11
-521.525039672852
 21
92.682580947876
 31
0.0
  0
LINE
  5
   326
  8
0
  6
CONTINUOUS
 62
     3
 10
-504.525039672852
 20
103.652233600616
 30
0.0
 11
-507.525039672852
 21
103.652233600616
 31
0.0
  0
LINE
  5
   327
  8
0
  6
CONTINUOUS
 62
     3
 10
-504.525039672852
 20
92.6825785636902
 30
0.0
 11
-507.525039672852
 21
92.6825785636902
 31
0.0
  0
LINE
  5
   328
  8
0
  6
CONTINUOUS
 62
     3
 10
-496.025039672852
 20
103.652233600616
 30
0.0
 11
-499.025039672852
 21
103.652233600616
 31
0.0
  0
LINE
  5
   329
  8
0
  6
CONTINUOUS
 62
     3
 10
-496.025039672852
 20
92.6825785636902
 30
0.0
 11
-499.025039672852
 21
92.6825785636902
 31
0.0
  0
LINE
  5
   32A
  8
0
  6
CONTINUOUS
 62
     3
 10
-492.525039672852
 20
103.652233600616
 30
0.0
 11
-495.525039672852
 21
103.652233600616
 31
0.0
  0
LINE
  5
   32B
  8
0
  6
CONTINUOUS
 62
     3
 10
-492.525039672852
 20
92.6825785636902
 30
0.0
 11
-495.525039672852
 21
92.6825785636902
 31
0.0
  0
LINE
  5
   32C
  8
0
  6
CONTINUOUS
 62
   212
 10
-534.875035852536
 20
100.167404322759
 30
0.0
 11
-533.875035886765
 21
101.16740428853
 31
0.0
  0
LINE
  5
   32D
  8
0
  6
CONTINUOUS
 62
   212
 10
-533.875034027838
 20
95.1674022989965
 30
0.0
 11
-534.875033993609
 21
96.167402264768
 31
0.0
  0
LINE
  5
   32E
  8
0
  6
CONTINUOUS
 62
   212
 10
-533.875038146973
 20
95.1674060821533
 30
0.0
 11
-533.875038146973
 21
101.167406082153
 31
0.0
  0
LINE
  5
   32F
  8
0
  6
CONTINUOUS
 62
   212
 10
-533.525039672852
 20
101.167406082153
 30
0.0
 11
-533.875038146973
 21
101.167406082153
 31
0.0
  0
LINE
  5
   330
  8
0
  6
CONTINUOUS
 62
   212
 10
-526.275039672852
 20
101.167406082153
 30
0.0
 11
-529.275039672852
 21
101.167406082153
 31
0.0
  0
LINE
  5
   331
  8
0
  6
CONTINUOUS
 62
   212
 10
-521.525039672852
 20
101.167406082153
 30
0.0
 11
-522.025039672852
 21
101.167406082153
 31
0.0
  0
LINE
  5
   332
  8
0
  6
CONTINUOUS
 62
   212
 10
-533.525039672852
 20
95.1674060821533
 30
0.0
 11
-533.875038146973
 21
95.1674060821533
 31
0.0
  0
LINE
  5
   333
  8
0
  6
CONTINUOUS
 62
   212
 10
-526.275039672852
 20
95.1674060821533
 30
0.0
 11
-529.275039672852
 21
95.1674060821533
 31
0.0
  0
LINE
  5
   334
  8
0
  6
CONTINUOUS
 62
   212
 10
-521.525039672852
 20
95.1674060821533
 30
0.0
 11
-522.025039672852
 21
95.1674060821533
 31
0.0
  0
LINE
  5
   335
  8
0
  6
CONTINUOUS
 62
   253
 10
-491.625038146973
 20
104.167406082153
 30
0.0
 11
-492.125061035156
 21
104.167406082153
 31
0.0
  0
LINE
  5
   336
  8
0
  6
CONTINUOUS
 62
   253
 10
-491.625038146973
 20
92.1674060821533
 30
0.0
 11
-492.125061035156
 21
92.1674060821533
 31
0.0
  0
LINE
  5
   337
  8
0
  6
CONTINUOUS
 62
   253
 10
-492.125038146973
 20
103.167406082153
 30
0.0
 11
-517.625061035156
 21
103.167406082153
 31
0.0
  0
LINE
  5
   338
  8
0
  6
CONTINUOUS
 62
   253
 10
-492.125038146973
 20
93.1674060821533
 30
0.0
 11
-517.625061035156
 21
93.1674060821533
 31
0.0
  0
LINE
  5
   339
  8
0
  6
CONTINUOUS
 62
   253
 10
-517.97860870691
 20
31.5209603884621
 30
0.0
 11
-517.625054924617
 21
31.6674070957493
 31
0.0
  0
LINE
  5
   33A
  8
0
  6
CONTINUOUS
 62
   253
 10
-518.125054880407
 20
31.1674075921926
 30
0.0
 11
-517.978608652124
 21
31.5209608875156
 31
0.0
  0
LINE
  5
   33B
  8
0
  6
CONTINUOUS
 62
   253
 10
-517.625054932842
 20
21.667405095228
 30
0.0
 11
-517.978608715136
 21
21.8138518025152
 31
0.0
  0
LINE
  5
   33C
  8
0
  6
CONTINUOUS
 62
   253
 10
-517.978608665536
 20
21.8138513471091
 30
0.0
 11
-518.12505489382
 21
22.1674046424321
 31
0.0
  0
LINE
  5
   33D
  8
0
  6
CONTINUOUS
 62
     7
 10
-525.025039672852
 20
32.1674060821533
 30
0.0
 11
-526.275039672852
 21
32.1674060821533
 31
0.0
  0
LINE
  5
   33E
  8
0
  6
CONTINUOUS
 62
     7
 10
-525.025039672852
 20
21.1674060821533
 30
0.0
 11
-526.275039672852
 21
21.1674060821533
 31
0.0
  0
LINE
  5
   33F
  8
0
  6
CONTINUOUS
 62
     7
 10
-529.275039672852
 20
32.1674060821533
 30
0.0
 11
-530.525039672852
 21
32.1674060821533
 31
0.0
  0
LINE
  5
   340
  8
0
  6
CONTINUOUS
 62
     7
 10
-529.275039672852
 20
21.1674060821533
 30
0.0
 11
-530.525039672852
 21
21.1674060821533
 31
0.0
  0
LINE
  5
   341
  8
0
  6
CONTINUOUS
 62
     7
 10
-518.125038146973
 20
31.6674060821533
 30
0.0
 11
-518.525039672852
 21
31.6674060821533
 31
0.0
  0
LINE
  5
   342
  8
0
  6
CONTINUOUS
 62
     7
 10
-518.125038146973
 20
21.6674060821533
 30
0.0
 11
-518.525039672852
 21
21.6674060821533
 31
0.0
  0
LINE
  5
   343
  8
0
  6
CONTINUOUS
 62
     3
 10
-530.525039672852
 20
32.1522336006165
 30
0.0
 11
-533.525039672852
 21
32.1522336006165
 31
0.0
  0
LINE
  5
   344
  8
0
  6
CONTINUOUS
 62
     3
 10
-530.525039672852
 20
29.4098198413849
 30
0.0
 11
-533.525039672852
 21
29.4098198413849
 31
0.0
  0
LINE
  5
   345
  8
0
  6
CONTINUOUS
 62
     3
 10
-530.525039672852
 20
23.9249923229218
 30
0.0
 11
-533.525039672852
 21
23.9249923229218
 31
0.0
  0
LINE
  5
   346
  8
0
  6
CONTINUOUS
 62
     3
 10
-530.525039672852
 20
21.1825785636902
 30
0.0
 11
-533.525039672852
 21
21.1825785636902
 31
0.0
  0
LINE
  5
   347
  8
0
  6
CONTINUOUS
 62
     3
 10
-518.525039672852
 20
32.1522336006165
 30
0.0
 11
-521.525039672852
 21
32.1522336006165
 31
0.0
  0
LINE
  5
   348
  8
0
  6
CONTINUOUS
 62
     3
 10
-518.525039672852
 20
29.4098198413849
 30
0.0
 11
-521.525039672852
 21
29.4098198413849
 31
0.0
  0
LINE
  5
   349
  8
0
  6
CONTINUOUS
 62
     3
 10
-518.525039672852
 20
23.9249923229218
 30
0.0
 11
-521.525039672852
 21
23.9249923229218
 31
0.0
  0
LINE
  5
   34A
  8
0
  6
CONTINUOUS
 62
     3
 10
-518.525039672852
 20
21.1825785636902
 30
0.0
 11
-521.525039672852
 21
21.1825785636902
 31
0.0
  0
LINE
  5
   34B
  8
0
  6
CONTINUOUS
 62
     3
 10
-522.025039672852
 20
32.1522336006165
 30
0.0
 11
-525.025039672852
 21
32.1522336006165
 31
0.0
  0
LINE
  5
   34C
  8
0
  6
CONTINUOUS
 62
     3
 10
-522.025039672852
 20
29.4098198413849
 30
0.0
 11
-525.025039672852
 21
29.4098198413849
 31
0.0
  0
LINE
  5
   34D
  8
0
  6
CONTINUOUS
 62
     3
 10
-522.025039672852
 20
23.9249923229218
 30
0.0
 11
-525.025039672852
 21
23.9249923229218
 31
0.0
  0
LINE
  5
   34E
  8
0
  6
CONTINUOUS
 62
     3
 10
-522.025039672852
 20
21.1825785636902
 30
0.0
 11
-525.025039672852
 21
21.1825785636902
 31
0.0
  0
LINE
  5
   34F
  8
0
  6
CONTINUOUS
 62
   212
 10
-534.875034919808
 20
28.6674071209419
 30
0.0
 11
-533.875034954037
 21
29.6674070867134
 31
0.0
  0
LINE
  5
   350
  8
0
  6
CONTINUOUS
 62
   212
 10
-533.875034960566
 20
23.6674050971798
 30
0.0
 11
-534.875034926337
 21
24.6674050629512
 31
0.0
  0
LINE
  5
   351
  8
0
  6
CONTINUOUS
 62
   212
 10
-533.875038146973
 20
23.6674060821533
 30
0.0
 11
-533.875038146973
 21
29.6674060821533
 31
0.0
  0
LINE
  5
   352
  8
0
  6
CONTINUOUS
 62
   212
 10
-533.525039672852
 20
29.6674060821533
 30
0.0
 11
-533.875038146973
 21
29.6674060821533
 31
0.0
  0
LINE
  5
   353
  8
0
  6
CONTINUOUS
 62
   212
 10
-526.275039672852
 20
29.6674060821533
 30
0.0
 11
-529.275039672852
 21
29.6674060821533
 31
0.0
  0
LINE
  5
   354
  8
0
  6
CONTINUOUS
 62
   212
 10
-521.525039672852
 20
29.6674060821533
 30
0.0
 11
-522.025039672852
 21
29.6674060821533
 31
0.0
  0
LINE
  5
   355
  8
0
  6
CONTINUOUS
 62
   212
 10
-533.525039672852
 20
23.6674060821533
 30
0.0
 11
-533.875038146973
 21
23.6674060821533
 31
0.0
  0
LINE
  5
   356
  8
0
  6
CONTINUOUS
 62
   212
 10
-526.275039672852
 20
23.6674060821533
 30
0.0
 11
-529.275039672852
 21
23.6674060821533
 31
0.0
  0
LINE
  5
   357
  8
0
  6
CONTINUOUS
 62
   212
 10
-521.525039672852
 20
23.6674060821533
 30
0.0
 11
-522.025039672852
 21
23.6674060821533
 31
0.0
  0
LINE
  5
   358
  8
0
  6
CONTINUOUS
 62
     7
 10
-526.275039672852
 20
100.667406082153
 30
0.0
 11
-529.275039672852
 21
100.667406082153
 31
0.0
  0
LINE
  5
   359
  8
0
  6
CONTINUOUS
 62
     7
 10
-526.275039672852
 20
95.6674060821533
 30
0.0
 11
-529.275039672852
 21
95.6674060821533
 31
0.0
  0
LINE
  5
   35A
  8
0
  6
CONTINUOUS
 62
     7
 10
-526.275039672852
 20
29.1674060821533
 30
0.0
 11
-529.275039672852
 21
29.1674060821533
 31
0.0
  0
LINE
  5
   35B
  8
0
  6
CONTINUOUS
 62
     7
 10
-526.275039672852
 20
24.1674060821533
 30
0.0
 11
-529.275039672852
 21
24.1674060821533
 31
0.0
  0
LINE
  5
   35C
  8
0
  6
DASHDOT
 62
     7
 10
-477.460689376753
 20
98.1674060821533
 30
0.0
 11
-543.28537625526
 21
98.1674060821533
 31
0.0
  0
LINE
  5
   35D
  8
0
  6
DASHDOT
 62
     7
 10
-477.460689376753
 20
26.6674213409424
 30
0.0
 11
-543.28537625526
 21
26.6674213409424
 31
0.0
  0
LINE
  5
   35E
  8
0
  6
CONTINUOUS
 62
     7
 10
-406.62503528595
 20
88.7892017364502
 30
0.0
 11
-406.62503528595
 21
95.2892017364502
 31
0.0
  0
LINE
  5
   35F
  8
0
  6
CONTINUOUS
 62
     7
 10
-405.62503528595
 20
102.039203643799
 30
0.0
 11
-405.62503528595
 21
113.977561448836
 31
0.0
  0
LINE
  5
   360
  8
0
  6
CONTINUOUS
 62
     7
 10
-406.62503528595
 20
-3.85138675362674
 30
0.0
 11
-406.62503528595
 21
24.2892036437988
 31
0.0
  0
LINE
  5
   361
  8
0
  6
CONTINUOUS
 62
     7
 10
-405.62503528595
 20
-4.11225631884413
 30
0.0
 11
-405.62503528595
 21
20.5392036437988
 31
0.0
  0
LINE
  5
   362
  8
0
  6
CONTINUOUS
 62
     3
 10
-409.311953350753
 20
113.252266091826
 30
0.0
 11
-402.304314949961
 21
114.630817908375
 31
0.0
  0
LINE
  5
   363
  8
0
  6
CONTINUOUS
 62
     3
 10
-401.500159723641
 20
-5.18831081335949
 30
0.0
 11
-409.426832668799
 21
-3.12048308853569
 31
0.0
  0
LINE
  5
   364
  8
0
  6
CONTINUOUS
 62
     7
 10
-405.62503528595
 20
98.5392017364502
 30
0.0
 11
-406.62503528595
 21
98.5392017364502
 31
0.0
  0
LINE
  5
   365
  8
0
  6
CONTINUOUS
 62
     7
 10
-405.62503528595
 20
95.0392017364502
 30
0.0
 11
-406.62503528595
 21
95.0392017364502
 31
0.0
  0
LINE
  5
   366
  8
0
  6
CONTINUOUS
 62
     7
 10
-405.62503528595
 20
89.2892017364502
 30
0.0
 11
-406.62503528595
 21
89.2892017364502
 31
0.0
  0
LINE
  5
   367
  8
0
  6
CONTINUOUS
 62
     7
 10
-405.62503528595
 20
33.2892036437988
 30
0.0
 11
-406.62503528595
 21
33.2892036437988
 31
0.0
  0
LINE
  5
   368
  8
0
  6
CONTINUOUS
 62
     7
 10
-405.62503528595
 20
27.5392036437988
 30
0.0
 11
-406.62503528595
 21
27.5392036437988
 31
0.0
  0
LINE
  5
   369
  8
0
  6
CONTINUOUS
 62
     7
 10
-405.62503528595
 20
24.0392036437988
 30
0.0
 11
-406.62503528595
 21
24.0392036437988
 31
0.0
  0
LINE
  5
   36A
  8
0
  6
CONTINUOUS
 62
     7
 10
-406.62503528595
 20
27.2892036437988
 30
0.0
 11
-406.62503528595
 21
34.7892036437988
 31
0.0
  0
LINE
  5
   36B
  8
0
  6
CONTINUOUS
 62
     7
 10
-406.62503528595
 20
98.2892017364502
 30
0.0
 11
-406.62503528595
 21
113.780840137361
 31
0.0
  0
INSERT
  5
   36C
  8
0
  6
CONTINUOUS
 62
     7
  2
*HATCH1312
 10
-408.625061035156
 20
6.29889106750488
 30
0.0
 41
0.5
 42
0.5
 50
89.9999999480344
 43
0.5
  0
INSERT
  5
   36D
  8
0
  6
CONTINUOUS
 62
     7
  2
*HATCH1313
 10
-408.625061035156
 20
6.29889106750488
 30
0.0
 41
0.5
 42
0.5
 50
89.9999999480344
 43
0.5
  0
INSERT
  5
   36E
  8
0
  6
CONTINUOUS
 62
     7
  2
*HATCH1314
 10
-408.625061035156
 20
6.29889106750488
 30
0.0
 41
0.5
 42
0.5
 50
89.9999999480344
 43
0.5
  0
INSERT
  5
   36F
  8
0
  6
CONTINUOUS
 62
     7
  2
*HATCH1315
 10
-408.625061035156
 20
6.29889106750488
 30
0.0
 41
0.5
 42
0.5
 50
89.9999999480344
 43
0.5
  0
LINE
  5
   370
  8
0
  6
DASHDOT
 62
     7
 10
-395.950502883259
 20
61.2924213521621
 30
0.0
 11
-493.032754453043
 21
61.2924213521621
 31
0.0
  0
LINE
  5
   371
  8
0
  6
CONTINUOUS
 62
     7
 10
-409.875030993819
 20
106.167421352162
 30
0.0
 11
-459.125030517578
 21
106.167421352162
 31
0.0
  0
LINE
  5
   372
  8
0
  6
CONTINUOUS
 62
     7
 10
-409.875030993819
 20
18.6674275611887
 30
0.0
 11
-459.125030517578
 21
18.6674275611887
 31
0.0
  0
LINE
  5
   373
  8
0
  6
CONTINUOUS
 62
     7
 10
-409.375030993819
 20
19.1674275611887
 30
0.0
 11
-409.375030993819
 21
31.7924430823164
 31
0.0
  0
LINE
  5
   374
  8
0
  6
CONTINUOUS
 62
     7
 10
-409.375030993819
 20
93.2924213521621
 30
0.0
 11
-409.375030993819
 21
105.667421352162
 31
0.0
  0
LINE
  5
   375
  8
0
  6
CONTINUOUS
 62
     7
 10
-409.875030993819
 20
92.7924213521621
 30
0.0
 11
-409.875030993819
 21
93.2924213521621
 31
0.0
  0
LINE
  5
   376
  8
0
  6
CONTINUOUS
 62
     7
 10
-409.375030993819
 20
93.2924213521621
 30
0.0
 11
-409.875030993819
 21
93.2924213521621
 31
0.0
  0
LINE
  5
   377
  8
0
  6
CONTINUOUS
 62
     7
 10
-409.375030993819
 20
31.7924430823164
 30
0.0
 11
-409.875030993819
 21
31.7924430823164
 31
0.0
  0
LINE
  5
   378
  8
0
  6
CONTINUOUS
 62
     7
 10
-409.875030993819
 20
31.7924430823164
 30
0.0
 11
-409.875030993819
 21
32.2924430823164
 31
0.0
  0
ARC
  5
   379
  8
0
  6
CONTINUOUS
 62
     7
 10
-409.875030993819
 20
19.1674275611887
 30
0.0
 40
0.5
 50
269.999999948034
 51
359.999999948034
  0
ARC
  5
   37A
  8
0
  6
CONTINUOUS
 62
     7
 10
-409.875030993819
 20
105.667421352162
 30
0.0
 40
0.5
 50
359.999999948034
 51
449.999999948034
  0
LINE
  5
   37B
  8
0
  6
CONTINUOUS
 62
     3
 10
-504.525039672852
 20
32.1522336006165
 30
0.0
 11
-507.525039672852
 21
32.1522336006165
 31
0.0
  0
LINE
  5
   37C
  8
0
  6
CONTINUOUS
 62
     3
 10
-504.525039672852
 20
21.1825785636902
 30
0.0
 11
-507.525039672852
 21
21.1825785636902
 31
0.0
  0
LINE
  5
   37D
  8
0
  6
CONTINUOUS
 62
     7
 10
-503.275039672852
 20
21.1674060821533
 30
0.0
 11
-504.525039672852
 21
21.1674060821533
 31
0.0
  0
LINE
  5
   37E
  8
0
  6
CONTINUOUS
 62
     7
 10
-503.275039672852
 20
32.1674060821533
 30
0.0
 11
-504.525039672852
 21
32.1674060821533
 31
0.0
  0
LINE
  5
   37F
  8
0
  6
CONTINUOUS
 62
     7
 10
-499.025039672852
 20
32.1674060821533
 30
0.0
 11
-500.275039672852
 21
32.1674060821533
 31
0.0
  0
LINE
  5
   380
  8
0
  6
CONTINUOUS
 62
     3
 10
-496.025039672852
 20
32.1522336006165
 30
0.0
 11
-499.025039672852
 21
32.1522336006165
 31
0.0
  0
LINE
  5
   381
  8
0
  6
CONTINUOUS
 62
     7
 10
-500.275039672852
 20
21.1674060821533
 30
0.0
 11
-500.275039672852
 21
21.6674213409424
 31
0.0
  0
LINE
  5
   382
  8
0
  6
CONTINUOUS
 62
     7
 10
-499.025039672852
 20
21.1825785636902
 30
0.0
 11
-499.025039672852
 21
21.6674213409424
 31
0.0
  0
LINE
  5
   383
  8
0
  6
CONTINUOUS
 62
     7
 10
-496.025039672852
 20
21.1825785636902
 30
0.0
 11
-496.025039672852
 21
21.6674213409424
 31
0.0
  0
LINE
  5
   384
  8
0
  6
CONTINUOUS
 62
     3
 10
-496.025039672852
 20
21.1825785636902
 30
0.0
 11
-499.025039672852
 21
21.1825785636902
 31
0.0
  0
LINE
  5
   385
  8
0
  6
CONTINUOUS
 62
     7
 10
-499.025039672852
 20
21.1674060821533
 30
0.0
 11
-500.275039672852
 21
21.1674060821533
 31
0.0
  0
LINE
  5
   386
  8
0
  6
CONTINUOUS
 62
     7
 10
-495.525039672852
 20
21.1825785636902
 30
0.0
 11
-495.525039672852
 21
21.6674213409424
 31
0.0
  0
LINE
  5
   387
  8
0
  6
CONTINUOUS
 62
     3
 10
-492.525039672852
 20
21.1825785636902
 30
0.0
 11
-495.525039672852
 21
21.1825785636902
 31
0.0
  0
LINE
  5
   388
  8
0
  6
CONTINUOUS
 62
     3
 10
-492.525039672852
 20
32.1522336006165
 30
0.0
 11
-495.525039672852
 21
32.1522336006165
 31
0.0
  0
LINE
  5
   389
  8
0
  6
CONTINUOUS
 62
     7
 10
-492.525039672852
 20
21.1825785636902
 30
0.0
 11
-492.525039672852
 21
21.6674213409424
 31
0.0
  0
LINE
  5
   38A
  8
0
  6
CONTINUOUS
 62
     7
 10
-492.125038146973
 20
31.6674060821533
 30
0.0
 11
-492.525039672852
 21
31.6674060821533
 31
0.0
  0
LINE
  5
   38B
  8
0
  6
CONTINUOUS
 62
     7
 10
-492.125038146973
 20
21.6674060821533
 30
0.0
 11
-492.525039672852
 21
21.6674060821533
 31
0.0
  0
LINE
  5
   38C
  8
0
  6
CONTINUOUS
 62
   253
 10
-492.525039672852
 20
31.6674213409424
 30
0.0
 11
-517.625061035156
 21
31.6674213409424
 31
0.0
  0
LINE
  5
   38D
  8
0
  6
CONTINUOUS
 62
   253
 10
-492.525039672852
 20
21.6674213409424
 30
0.0
 11
-517.625061035156
 21
21.6674213409424
 31
0.0
  0
LINE
  5
   38E
  8
0
  6
CONTINUOUS
 62
     7
 10
-495.525039672852
 20
92.6825785636902
 30
0.0
 11
-495.525039672852
 21
93.1674060821533
 31
0.0
  0
LINE
  5
   38F
  8
0
  6
CONTINUOUS
 62
     7
 10
-496.025039672852
 20
92.6825785636902
 30
0.0
 11
-496.025039672852
 21
93.1674060821533
 31
0.0
  0
LINE
  5
   390
  8
0
  6
CONTINUOUS
 62
     7
 10
-500.275039672852
 20
92.6674060821533
 30
0.0
 11
-500.275039672852
 21
93.1674060821533
 31
0.0
  0
LINE
  5
   391
  8
0
  6
CONTINUOUS
 62
     7
 10
-503.275039672852
 20
92.6674060821533
 30
0.0
 11
-503.275039672852
 21
93.1674060821533
 31
0.0
  0
LINE
  5
   392
  8
0
  6
CONTINUOUS
 62
     7
 10
-507.525039672852
 20
92.6825785636902
 30
0.0
 11
-507.525039672852
 21
93.1674060821533
 31
0.0
  0
LINE
  5
   393
  8
0
  6
CONTINUOUS
 62
     7
 10
-507.525039672852
 20
103.167406082153
 30
0.0
 11
-507.525039672852
 21
103.652233600616
 31
0.0
  0
LINE
  5
   394
  8
0
  6
CONTINUOUS
 62
     7
 10
-503.275039672852
 20
103.167406082153
 30
0.0
 11
-503.275039672852
 21
103.667406082153
 31
0.0
  0
LINE
  5
   395
  8
0
  6
CONTINUOUS
 62
     7
 10
-500.275039672852
 20
103.167406082153
 30
0.0
 11
-500.275039672852
 21
103.667406082153
 31
0.0
  0
LINE
  5
   396
  8
0
  6
CONTINUOUS
 62
     7
 10
-496.025039672852
 20
103.167406082153
 30
0.0
 11
-496.025039672852
 21
103.652233600616
 31
0.0
  0
LINE
  5
   397
  8
0
  6
CONTINUOUS
 62
     7
 10
-495.525039672852
 20
103.167406082153
 30
0.0
 11
-495.525039672852
 21
103.652233600616
 31
0.0
  0
LINE
  5
   398
  8
0
  6
CONTINUOUS
 62
     7
 10
-487.975053405762
 20
85.8174213521621
 30
0.0
 11
-487.975053405762
 21
89.0174213521621
 31
0.0
  0
LINE
  5
   399
  8
0
  6
CONTINUOUS
 62
     7
 10
-489.575053405762
 20
86.4174213521621
 30
0.0
 11
-489.575053405762
 21
88.4174213521621
 31
0.0
  0
LINE
  5
   39A
  8
0
  6
CONTINUOUS
 62
     7
 10
-486.375053405762
 20
89.0174213521621
 30
0.0
 11
-487.975053405762
 21
89.0174213521621
 31
0.0
  0
LINE
  5
   39B
  8
0
  6
CONTINUOUS
 62
     7
 10
-486.375053405762
 20
85.8174213521621
 30
0.0
 11
-487.975053405762
 21
85.8174213521621
 31
0.0
  0
LINE
  5
   39C
  8
0
  6
CONTINUOUS
 62
     7
 10
-486.375053405762
 20
88.4174213521621
 30
0.0
 11
-489.575053405762
 21
88.4174213521621
 31
0.0
  0
LINE
  5
   39D
  8
0
  6
CONTINUOUS
 62
     7
 10
-486.375053405762
 20
86.4174213521621
 30
0.0
 11
-489.575053405762
 21
86.4174213521621
 31
0.0
  0
LINE
  5
   39E
  8
0
  6
CONTINUOUS
 62
     7
 10
-486.375053405762
 20
39.0174213521621
 30
0.0
 11
-487.975053405762
 21
39.0174213521621
 31
0.0
  0
LINE
  5
   39F
  8
0
  6
CONTINUOUS
 62
     7
 10
-486.375053405762
 20
38.4174213521621
 30
0.0
 11
-489.575053405762
 21
38.4174213521621
 31
0.0
  0
LINE
  5
   3A0
  8
0
  6
CONTINUOUS
 62
     7
 10
-486.375053405762
 20
36.4174213521621
 30
0.0
 11
-489.575053405762
 21
36.4174213521621
 31
0.0
  0
LINE
  5
   3A1
  8
0
  6
CONTINUOUS
 62
     7
 10
-486.375053405762
 20
35.8174213521621
 30
0.0
 11
-487.975053405762
 21
35.8174213521621
 31
0.0
  0
LINE
  5
   3A2
  8
0
  6
CONTINUOUS
 62
     7
 10
-487.975053405762
 20
35.8174213521621
 30
0.0
 11
-487.975053405762
 21
39.0174213521621
 31
0.0
  0
LINE
  5
   3A3
  8
0
  6
CONTINUOUS
 62
     7
 10
-489.575053405762
 20
36.4174213521621
 30
0.0
 11
-489.575053405762
 21
38.4174213521621
 31
0.0
  0
CIRCLE
  5
   3A4
  8
0
  6
CONTINUOUS
 62
     7
 10
-487.211845765283
 20
87.6583859368632
 30
0.0
 40
0.1
  0
POINT
  5
   3A5
  8
0
  6
CONTINUOUS
 62
     7
 10
-504.525039672852
 20
32.1522336006165
 30
0.0
  0
POINT
  5
   3A6
  8
0
  6
CONTINUOUS
 62
     7
 10
-507.525039672852
 20
32.1522336006165
 30
0.0
  0
POINT
  5
   3A7
  8
0
  6
CONTINUOUS
 62
     7
 10
-503.275039672852
 20
32.1674060821533
 30
0.0
  0
POINT
  5
   3A8
  8
0
  6
CONTINUOUS
 62
     7
 10
-504.525039672852
 20
32.1674060821533
 30
0.0
  0
LINE
  5
   3A9
  8
0
  6
CONTINUOUS
 62
     7
 10
-507.525039672852
 20
21.1825785636902
 30
0.0
 11
-507.525039672852
 21
21.6674213409424
 31
0.0
  0
LINE
  5
   3AA
  8
0
  6
CONTINUOUS
 62
     7
 10
-503.275039672852
 20
21.1674060821533
 30
0.0
 11
-503.275039672852
 21
21.6674213409424
 31
0.0
  0
LINE
  5
   3AB
  8
0
  6
CONTINUOUS
 62
     7
 10
-504.525039672852
 20
21.1825785636902
 30
0.0
 11
-504.525039672852
 21
21.6674213409424
 31
0.0
  0
LINE
  5
   3AC
  8
0
  6
CONTINUOUS
 62
     7
 10
-507.525039672852
 20
31.6674213409424
 30
0.0
 11
-507.525039672852
 21
32.1522336006165
 31
0.0
  0
LINE
  5
   3AD
  8
0
  6
CONTINUOUS
 62
     7
 10
-504.525039672852
 20
31.6674213409424
 30
0.0
 11
-504.525039672852
 21
32.1522336006165
 31
0.0
  0
LINE
  5
   3AE
  8
0
  6
CONTINUOUS
 62
     7
 10
-503.275039672852
 20
31.6674213409424
 30
0.0
 11
-503.275039672852
 21
32.1522336006165
 31
0.0
  0
LINE
  5
   3AF
  8
0
  6
CONTINUOUS
 62
     7
 10
-492.525039672852
 20
31.6674213409424
 30
0.0
 11
-492.525039672852
 21
32.1522336006165
 31
0.0
  0
LINE
  5
   3B0
  8
0
  6
CONTINUOUS
 62
     7
 10
-495.525039672852
 20
31.6674213409424
 30
0.0
 11
-495.525039672852
 21
32.1522336006165
 31
0.0
  0
LINE
  5
   3B1
  8
0
  6
CONTINUOUS
 62
     7
 10
-496.025039672852
 20
31.6674213409424
 30
0.0
 11
-496.025039672852
 21
32.1522336006165
 31
0.0
  0
LINE
  5
   3B2
  8
0
  6
CONTINUOUS
 62
     7
 10
-499.025039672852
 20
31.6674213409424
 30
0.0
 11
-499.025039672852
 21
32.1674060821533
 31
0.0
  0
LINE
  5
   3B3
  8
0
  6
CONTINUOUS
 62
     7
 10
-500.275039672852
 20
31.6674213409424
 30
0.0
 11
-500.275039672852
 21
32.1674060821533
 31
0.0
  0
INSERT
  5
   3B4
  8
0
  6
CONTINUOUS
 62
     7
  2
*UDIM2351
 10
0.0
 20
0.0
 30
0.0
  0
TEXT
  5
   3B5
  8
0
  6
CONTINUOUS
 62
     7
 10
-376.656942382249
 20
44.2520256172939
 30
0.0
 40
3.00000002980232
  1
=          =
 50
89.9999999480344
 41
0.916666604744064
 72
     2
 11
-376.656942352859
 21
76.7020237432246
 31
0.0
  0
INSERT
  5
   3B6
  8
0
  6
CONTINUOUS
 62
     7
  2
*UDIM2352
 10
0.0
 20
0.0
 30
0.0
  0
INSERT
  5
   3B7
  8
0
  6
CONTINUOUS
 62
     7
  2
*UDIM2353
 10
0.0
 20
0.0
 30
0.0
  0
TEXT
  5
   3B8
  8
0
  6
CONTINUOUS
 62
     7
 10
-616.232984464228
 20
-1.88295384958055
 30
0.0
 40
3.00000002980232
  1
=          =
 50
359.999999948034
 41
0.916666604744064
 72
     2
 11
-583.782986338298
 21
-1.88295387884868
 31
0.0
  0
TEXT
  5
   3B9
  8
0
  6
CONTINUOUS
 62
     7
 10
-496.358970935503
 20
9.99096580306775
 30
0.0
 40
3.00000002980232
  1
_
 50
359.999999948034
 41
0.916666604744064
 72
     2
 11
-494.158971066634
 21
9.99096580108347
 31
0.0
  0
TEXT
  5
   3BA
  8
0
  6
CONTINUOUS
 62
     7
 10
-600.693786914507
 20
-13.9191403790306
 30
0.0
 40
3.00000002980232
  1
Y
 50
359.999999948034
 41
0.916666604744064
 72
     2
 11
-598.493787045638
 21
-13.9191403810149
 31
0.0
  0
INSERT
  5
   3BB
  8
0
  6
CONTINUOUS
 62
     7
  2
*UDIM2354
 10
0.0
 20
0.0
 30
0.0
  0
INSERT
  5
   3BC
  8
0
  6
CONTINUOUS
 62
     7
  2
*UDIM2355
 10
0.0
 20
0.0
 30
0.0
  0
INSERT
  5
   3BD
  8
0
  6
CONTINUOUS
 62
     7
  2
*UDIM2356
 10
0.0
 20
0.0
 30
0.0
  0
INSERT
  5
   3BE
  8
0
  6
CONTINUOUS
 62
     7
  2
*UDIM2357
 10
0.0
 20
0.0
 30
0.0
  0
TEXT
  5
   3BF
  8
0
  6
CONTINUOUS
 62
     7
 10
-374.737161953615
 20
60.416240339668
 30
0.0
 40
3.00000002980232
  1
X
 50
359.999999948034
 41
0.916666604744064
 72
     2
 11
-372.537162084746
 21
60.4162403376837
 31
0.0
  0
TEXT
  5
   3C0
  8
0
  6
CONTINUOUS
 62
     7
 10
-557.841657955813
 20
60.2933536819531
 30
0.0
 40
3.00000002980232
  1
X
 50
359.999999948034
 41
0.916666604744064
 72
     2
 11
-555.641658086943
 21
60.2933536799689
 31
0.0
  0
INSERT
  5
   3C1
  8
0
  6
CONTINUOUS
 62
     7
  2
*UDIM2358
 10
0.0
 20
0.0
 30
0.0
  0
LINE
  5
   3C2
  8
0
  6
CONTINUOUS
 62
     7
 10
-642.957481958565
 20
21.3174213171006
 30
0.0
 11
-642.957481958565
 21
103.517419815064
 31
0.0
  0
LINE
  5
   3C3
  8
0
  6
CONTINUOUS
 62
     3
 10
-573.207469296293
 20
87.5424251556377
 30
0.0
 11
-625.207461666898
 21
87.5424251556377
 31
0.0
  0
LINE
  5
   3C4
  8
0
  6
CONTINUOUS
 62
     3
 10
-573.207469296293
 20
35.0424327850325
 30
0.0
 11
-579.95746926649
 21
35.0424327850325
 31
0.0
  0
LINE
  5
   3C5
  8
0
  6
CONTINUOUS
 62
     3
 10
-585.707469296293
 20
35.042432785032
 30
0.0
 11
-597.982822244658
 21
35.042432785032
 31
0.0
  0
LINE
  5
   3C6
  8
0
  6
CONTINUOUS
 62
     3
 10
-618.457461666898
 20
35.0424327850187
 30
0.0
 11
-625.207461666898
 21
35.0424327850187
 31
0.0
  0
LINE
  5
   3C7
  8
0
  6
CONTINUOUS
 62
     3
 10
-612.707461666898
 20
35.0424327850308
 30
0.0
 11
-618.457461666898
 21
35.0424327850308
 31
0.0
  0
LINE
  5
   3C8
  8
0
  6
CONTINUOUS
 62
     3
 10
-579.957469296293
 20
35.0424327850325
 30
0.0
 11
-585.707469296293
 21
35.0424327850325
 31
0.0
  0
LINE
  5
   3C9
  8
0
  6
DASHDOT
 62
     7
 10
-599.207461666898
 20
-8.69935317783251
 30
0.0
 11
-599.207461666898
 21
122.27845795365
 31
0.0
  0
ARC
  5
   3CA
  8
0
  6
CONTINUOUS
 62
     3
 10
-625.207461666898
 20
35.2924327850187
 30
0.0
 40
0.25
 50
179.999999948034
 51
269.999999948034
  0
ARC
  5
   3CB
  8
0
  6
CONTINUOUS
 62
     3
 10
-625.207461666898
 20
87.2924251556377
 30
0.0
 40
0.25
 50
449.999999948034
 51
539.999999948034
  0
ARC
  5
   3CC
  8
0
  6
CONTINUOUS
 62
     3
 10
-573.207469296293
 20
87.2924251556377
 30
0.0
 40
0.25
 50
359.999999948034
 51
449.999999948034
  0
ARC
  5
   3CD
  8
0
  6
CONTINUOUS
 62
     3
 10
-573.207469296293
 20
35.2924327850325
 30
0.0
 40
0.25
 50
269.999999948034
 51
359.999999948034
  0
LINE
  5
   3CE
  8
0
  6
CONTINUOUS
 62
     3
 10
-600.432186792806
 20
35.042432785032
 30
0.0
 11
-612.707461666898
 21
35.042432785032
 31
0.0
  0
LINE
  5
   3CF
  8
0
  6
CONTINUOUS
 62
     7
 10
-612.957469296293
 20
35.0424251556377
 30
0.0
 11
-617.957461666898
 21
35.0424251556377
 31
0.0
  0
LINE
  5
   3D0
  8
0
  6
CONTINUOUS
 62
     7
 10
-580.457476925687
 20
35.0424251556377
 30
0.0
 11
-585.457476925687
 21
35.0424251556377
 31
0.0
  0
LINE
  5
   3D1
  8
0
  6
CONTINUOUS
 62
     7
 10
-625.457461666898
 20
35.2924251556377
 30
0.0
 11
-625.457461666898
 21
44.2924175262432
 31
0.0
  0
LINE
  5
   3D2
  8
0
  6
CONTINUOUS
 62
     7
 10
-573.207461666898
 20
87.5424251556377
 30
0.0
 11
-625.207461666884
 21
87.5424251556377
 31
0.0
  0
LINE
  5
   3D3
  8
0
  6
CONTINUOUS
 62
     7
 10
-617.957461666898
 20
35.0424251556377
 30
0.0
 11
-625.207461666898
 21
35.0424251556377
 31
0.0
  0
LINE
  5
   3D4
  8
0
  6
CONTINUOUS
 62
     7
 10
-585.457476925687
 20
35.0424251556377
 30
0.0
 11
-612.957469296293
 21
35.0424251556377
 31
0.0
  0
LINE
  5
   3D5
  8
0
  6
CONTINUOUS
 62
     7
 10
-573.207461666898
 20
35.0424251556377
 30
0.0
 11
-580.457476925687
 21
35.0424251556377
 31
0.0
  0
LINE
  5
   3D6
  8
0
  6
CONTINUOUS
 62
     7
 10
-593.832461666898
 20
46.1674175262432
 30
0.0
 11
-593.832461666898
 21
66.1674098968487
 31
0.0
  0
LINE
  5
   3D7
  8
0
  6
CONTINUOUS
 62
     7
 10
-604.582461666898
 20
46.1674175262432
 30
0.0
 11
-604.582461666898
 21
66.1674098968487
 31
0.0
  0
LINE
  5
   3D8
  8
0
  6
CONTINUOUS
 62
     7
 10
-572.957461666898
 20
81.5424098968487
 30
0.0
 11
-625.457461666898
 21
81.5424098968487
 31
0.0
  0
LINE
  5
   3D9
  8
0
  6
CONTINUOUS
 62
     7
 10
-572.957461666898
 20
86.5424098968487
 30
0.0
 11
-625.457461666898
 21
86.5424098968487
 31
0.0
  0
LINE
  5
   3DA
  8
0
  6
CONTINUOUS
 62
     7
 10
-593.832461666898
 20
66.035177230833
 30
0.0
 11
-604.582461666898
 21
66.035177230833
 31
0.0
  0
LINE
  5
   3DB
  8
0
  6
CONTINUOUS
 62
     7
 10
-593.832461666898
 20
66.1674098968487
 30
0.0
 11
-604.582461666898
 21
66.1674098968487
 31
0.0
  0
LINE
  5
   3DC
  8
0
  6
CONTINUOUS
 62
     7
 10
-593.832461666898
 20
46.1674175262432
 30
0.0
 11
-604.582461666898
 21
46.1674175262432
 31
0.0
  0
LINE
  5
   3DD
  8
0
  6
CONTINUOUS
 62
     7
 10
-593.832461666898
 20
46.2996654510479
 30
0.0
 11
-604.582461666898
 21
46.2996654510479
 31
0.0
  0
LINE
  5
   3DE
  8
0
  6
CONTINUOUS
 62
     7
 10
-572.957469296293
 20
44.7924175262432
 30
0.0
 11
-572.957469296293
 21
50.7924135496239
 31
0.0
  0
LINE
  5
   3DF
  8
0
  6
CONTINUOUS
 62
     7
 10
-572.957469296293
 20
51.292413549624
 30
0.0
 11
-572.957469296293
 21
61.0424175262432
 31
0.0
  0
LINE
  5
   3E0
  8
0
  6
CONTINUOUS
 62
     7
 10
-572.957469296293
 20
61.5424175262432
 30
0.0
 11
-572.957469296293
 21
67.5424175262432
 31
0.0
  0
LINE
  5
   3E1
  8
0
  6
CONTINUOUS
 62
     7
 10
-625.457461666901
 20
44.7924175262432
 30
0.0
 11
-625.457461666901
 21
50.7924175262443
 31
0.0
  0
LINE
  5
   3E2
  8
0
  6
CONTINUOUS
 62
     7
 10
-625.45746166691
 20
51.2924175262443
 30
0.0
 11
-625.45746166691
 21
61.0424175262432
 31
0.0
  0
LINE
  5
   3E3
  8
0
  6
CONTINUOUS
 62
     7
 10
-625.457461666896
 20
61.5424175262432
 30
0.0
 11
-625.457461666896
 21
67.5424175262432
 31
0.0
  0
LINE
  5
   3E4
  8
0
  6
CONTINUOUS
 62
     7
 10
-625.457461666884
 20
68.0424175262432
 30
0.0
 11
-625.457461666884
 21
87.2924251556377
 31
0.0
  0
LINE
  5
   3E5
  8
0
  6
CONTINUOUS
 62
     7
 10
-604.58246565376
 20
50.7924271439553
 30
0.0
 11
-624.9574616967
 21
50.7924271439553
 31
0.0
  0
LINE
  5
   3E6
  8
0
  6
CONTINUOUS
 62
     7
 10
-572.957469296293
 20
50.7924231673322
 30
0.0
 11
-573.457469296293
 21
50.7924231673322
 31
0.0
  0
LINE
  5
   3E7
  8
0
  6
CONTINUOUS
 62
     7
 10
-604.582475433304
 20
51.2924271439583
 30
0.0
 11
-624.9574616967
 21
51.2924271439583
 31
0.0
  0
LINE
  5
   3E8
  8
0
  6
CONTINUOUS
 62
     7
 10
-572.957469296293
 20
51.2924231673321
 30
0.0
 11
-573.457469296293
 21
51.2924231673321
 31
0.0
  0
LINE
  5
   3E9
  8
0
  6
CONTINUOUS
 62
     7
 10
-624.9574616967
 20
50.7924175262432
 30
0.0
 11
-624.9574616967
 21
51.2924175262432
 31
0.0
  0
LINE
  5
   3EA
  8
0
  6
CONTINUOUS
 62
     7
 10
-573.457469296293
 20
50.7924175262432
 30
0.0
 11
-573.457469296293
 21
51.2924175262432
 31
0.0
  0
LINE
  5
   3EB
  8
0
  6
CONTINUOUS
 62
     7
 10
-572.957461666898
 20
44.2924175262432
 30
0.0
 11
-573.457469296293
 21
44.2924175262432
 31
0.0
  0
LINE
  5
   3EC
  8
0
  6
CONTINUOUS
 62
     7
 10
-572.957469296293
 20
44.7924175262432
 30
0.0
 11
-573.457469296293
 21
44.7924175262432
 31
0.0
  0
LINE
  5
   3ED
  8
0
  6
CONTINUOUS
 62
     7
 10
-624.9574616967
 20
44.2924175262432
 30
0.0
 11
-624.9574616967
 21
44.7924175262432
 31
0.0
  0
LINE
  5
   3EE
  8
0
  6
CONTINUOUS
 62
     7
 10
-573.457469296293
 20
44.2924175262432
 30
0.0
 11
-573.457469296293
 21
44.7924175262432
 31
0.0
  0
LINE
  5
   3EF
  8
0
  6
CONTINUOUS
 62
     7
 10
-572.957469296293
 20
67.5424175262432
 30
0.0
 11
-573.457469296293
 21
67.5424175262432
 31
0.0
  0
LINE
  5
   3F0
  8
0
  6
CONTINUOUS
 62
     7
 10
-572.957469296293
 20
68.0424175262432
 30
0.0
 11
-573.457469296293
 21
68.0424175262432
 31
0.0
  0
LINE
  5
   3F1
  8
0
  6
CONTINUOUS
 62
     7
 10
-624.9574616967
 20
67.5424175262432
 30
0.0
 11
-624.9574616967
 21
68.0424175262432
 31
0.0
  0
LINE
  5
   3F2
  8
0
  6
CONTINUOUS
 62
     7
 10
-573.457469296293
 20
67.5424175262432
 30
0.0
 11
-573.457469296293
 21
68.0424175262432
 31
0.0
  0
LINE
  5
   3F3
  8
0
  6
CONTINUOUS
 62
     7
 10
-604.582465630607
 20
61.0424175262432
 30
0.0
 11
-624.9574616967
 21
61.0424175262432
 31
0.0
  0
LINE
  5
   3F4
  8
0
  6
CONTINUOUS
 62
     7
 10
-572.957469296293
 20
61.0424175262432
 30
0.0
 11
-573.457469296293
 21
61.0424175262432
 31
0.0
  0
LINE
  5
   3F5
  8
0
  6
CONTINUOUS
 62
     7
 10
-604.582461666898
 20
61.5424175262432
 30
0.0
 11
-624.9574616967
 21
61.5424175262432
 31
0.0
  0
LINE
  5
   3F6
  8
0
  6
CONTINUOUS
 62
     7
 10
-572.957469296293
 20
61.5424175262432
 30
0.0
 11
-573.457469296293
 21
61.5424175262432
 31
0.0
  0
LINE
  5
   3F7
  8
0
  6
CONTINUOUS
 62
     7
 10
-624.9574616967
 20
61.0424175262432
 30
0.0
 11
-624.9574616967
 21
61.5424175262432
 31
0.0
  0
LINE
  5
   3F8
  8
0
  6
CONTINUOUS
 62
     7
 10
-573.457469296293
 20
61.0424175262432
 30
0.0
 11
-573.457469296293
 21
61.5424175262432
 31
0.0
  0
ARC
  5
   3F9
  8
0
  6
CONTINUOUS
 62
     7
 10
-625.207461666898
 20
35.2924251556377
 30
0.0
 40
0.25
 50
179.999999948034
 51
269.999999948034
  0
ARC
  5
   3FA
  8
0
  6
CONTINUOUS
 62
     7
 10
-573.207461666898
 20
35.2924251556377
 30
0.0
 40
0.25
 50
269.999999948034
 51
359.999999948034
  0
ARC
  5
   3FB
  8
0
  6
CONTINUOUS
 62
     7
 10
-573.207461666898
 20
87.2924251556377
 30
0.0
 40
0.25
 50
359.999999948034
 51
449.999999948034
  0
ARC
  5
   3FC
  8
0
  6
CONTINUOUS
 62
     7
 10
-625.207461666884
 20
87.2924251556377
 30
0.0
 40
0.25
 50
449.999999948034
 51
539.999999948034
  0
LINE
  5
   3FD
  8
0
  6
CONTINUOUS
 62
     7
 10
-610.457461666898
 20
66.7924175262432
 30
0.0
 11
-611.207461666898
 21
66.7924175262432
 31
0.0
  0
LINE
  5
   3FE
  8
0
  6
CONTINUOUS
 62
     7
 10
-610.457461666898
 20
62.2924175262432
 30
0.0
 11
-611.207461666898
 21
62.2924175262432
 31
0.0
  0
CIRCLE
  5
   3FF
  8
0
  6
CONTINUOUS
 62
     7
 10
-610.832461666898
 20
47.7924175262432
 30
0.0
 40
2.25
  0
CIRCLE
  5
   400
  8
0
  6
CONTINUOUS
 62
     7
 10
-610.832461666898
 20
47.7924175262432
 30
0.0
 40
1.5
  0
LINE
  5
   401
  8
0
  6
CONTINUOUS
 62
     7
 10
-611.207461666898
 20
62.2924175262432
 30
0.0
 11
-611.207461666898
 21
66.7924175262432
 31
0.0
  0
LINE
  5
   402
  8
0
  6
CONTINUOUS
 62
     7
 10
-610.457461666898
 20
62.2924175262432
 30
0.0
 11
-610.457461666898
 21
66.7924175262432
 31
0.0
  0
LINE
  5
   403
  8
0
  6
CONTINUOUS
 62
     7
 10
-605.957461666898
 20
44.7924175262432
 30
0.0
 11
-605.957461666898
 21
50.7924246708259
 31
0.0
  0
LINE
  5
   404
  8
0
  6
CONTINUOUS
 62
     7
 10
-592.457461666898
 20
44.7924175262432
 30
0.0
 11
-592.457461666898
 21
50.7924206942028
 31
0.0
  0
LINE
  5
   405
  8
0
  6
CONTINUOUS
 62
     7
 10
-592.457461666898
 20
61.5424175262432
 30
0.0
 11
-592.457461666898
 21
67.5424175262432
 31
0.0
  0
LINE
  5
   406
  8
0
  6
CONTINUOUS
 62
     7
 10
-605.957461666898
 20
61.5424175262432
 30
0.0
 11
-605.957461666898
 21
67.5424175262432
 31
0.0
  0
LINE
  5
   407
  8
0
  6
CONTINUOUS
 62
     7
 10
-586.432466549711
 20
49.7174175262432
 30
0.0
 11
-586.657466549711
 21
49.7174175262432
 31
0.0
  0
LINE
  5
   408
  8
0
  6
CONTINUOUS
 62
     7
 10
-586.907466549711
 20
45.8674175262432
 30
0.0
 11
-587.307466549711
 21
45.8674175262432
 31
0.0
  0
LINE
  5
   409
  8
0
  6
CONTINUOUS
 62
     7
 10
-590.507466549711
 20
47.1674175262432
 30
0.0
 11
-590.507466549711
 21
47.4174175262432
 31
0.0
  0
LINE
  5
   40A
  8
0
  6
CONTINUOUS
 62
     7
 10
-587.907466549711
 20
47.1674175262432
 30
0.0
 11
-587.907466549711
 21
47.4174175262432
 31
0.0
  0
ARC
  5
   40B
  8
0
  6
CONTINUOUS
 62
     7
 10
-589.207466549711
 20
47.4174175262432
 30
0.0
 40
1.3
 50
359.999999948034
 51
539.999999948034
  0
ARC
  5
   40C
  8
0
  6
CONTINUOUS
 62
     7
 10
-589.207466549711
 20
47.1674175262432
 30
0.0
 40
1.3
 50
179.999999948034
 51
359.999999948034
  0
ARC
  5
   40D
  8
0
  6
CONTINUOUS
 62
     7
 10
-589.207466549711
 20
47.4174175262432
 30
0.0
 40
0.900000000000001
 50
359.999999948034
 51
539.999999948034
  0
ARC
  5
   40E
  8
0
  6
CONTINUOUS
 62
     7
 10
-589.207466549711
 20
47.1674175262432
 30
0.0
 40
0.899999999999999
 50
179.999999948034
 51
359.999999948034
  0
LINE
  5
   40F
  8
0
  6
CONTINUOUS
 62
     7
 10
-590.107466549711
 20
47.1674175262432
 30
0.0
 11
-590.107466549711
 21
47.4174175262432
 31
0.0
  0
LINE
  5
   410
  8
0
  6
CONTINUOUS
 62
     7
 10
-588.307466549711
 20
47.1674175262432
 30
0.0
 11
-588.307466549711
 21
47.4174175262432
 31
0.0
  0
LINE
  5
   411
  8
0
  6
CONTINUOUS
 62
     7
 10
-587.782466549711
 20
48.1174175262432
 30
0.0
 11
-587.782466549711
 21
48.5174175262432
 31
0.0
  0
LINE
  5
   412
  8
0
  6
CONTINUOUS
 62
     7
 10
-587.307466549711
 20
48.1174175262432
 30
0.0
 11
-587.782466549711
 21
48.1174175262432
 31
0.0
  0
LINE
  5
   413
  8
0
  6
CONTINUOUS
 62
     7
 10
-586.432466549711
 20
48.1174175262432
 30
0.0
 11
-586.432466549711
 21
48.5174175262432
 31
0.0
  0
LINE
  5
   414
  8
0
  6
CONTINUOUS
 62
     7
 10
-587.307466549711
 20
48.5174175262432
 30
0.0
 11
-587.782466549711
 21
48.5174175262432
 31
0.0
  0
LINE
  5
   415
  8
0
  6
CONTINUOUS
 62
     7
 10
-587.307466549711
 20
45.8674175262432
 30
0.0
 11
-587.307466549711
 21
48.1174175262432
 31
0.0
  0
LINE
  5
   416
  8
0
  6
CONTINUOUS
 62
     7
 10
-586.907466549711
 20
45.8674175262432
 30
0.0
 11
-586.907466549711
 21
48.1174175262432
 31
0.0
  0
LINE
  5
   417
  8
0
  6
CONTINUOUS
 62
     7
 10
-586.432466549711
 20
48.1174175262432
 30
0.0
 11
-586.907466549711
 21
48.1174175262432
 31
0.0
  0
LINE
  5
   418
  8
0
  6
CONTINUOUS
 62
     7
 10
-586.432466549711
 20
48.5174175262432
 30
0.0
 11
-586.907466549711
 21
48.5174175262432
 31
0.0
  0
LINE
  5
   419
  8
0
  6
CONTINUOUS
 62
     7
 10
-587.307466549711
 20
48.5174175262432
 30
0.0
 11
-587.307466549711
 21
49.0674175262432
 31
0.0
  0
LINE
  5
   41A
  8
0
  6
CONTINUOUS
 62
     7
 10
-586.907466549711
 20
48.5174175262432
 30
0.0
 11
-586.907466549711
 21
49.0674175262432
 31
0.0
  0
ARC
  5
   41B
  8
0
  6
CONTINUOUS
 62
     7
 10
-586.657466549711
 20
49.0674175262432
 30
0.0
 40
0.65
 50
449.999999948034
 51
539.999999948034
  0
ARC
  5
   41C
  8
0
  6
CONTINUOUS
 62
     7
 10
-586.657466549711
 20
49.0674175262432
 30
0.0
 40
0.25
 50
449.999999948034
 51
539.999999948034
  0
LINE
  5
   41D
  8
0
  6
CONTINUOUS
 62
     7
 10
-586.432466549711
 20
49.3174175262432
 30
0.0
 11
-586.432466549711
 21
49.7174175262432
 31
0.0
  0
LINE
  5
   41E
  8
0
  6
CONTINUOUS
 62
     7
 10
-586.432466549711
 20
49.3174175262432
 30
0.0
 11
-586.657466549711
 21
49.3174175262432
 31
0.0
  0
LINE
  5
   41F
  8
0
  6
CONTINUOUS
 62
     7
 10
-584.832466549711
 20
49.7174175262432
 30
0.0
 11
-585.057466549711
 21
49.7174175262432
 31
0.0
  0
LINE
  5
   420
  8
0
  6
CONTINUOUS
 62
     7
 10
-585.307466549711
 20
45.8674175262432
 30
0.0
 11
-585.707466549711
 21
45.8674175262432
 31
0.0
  0
LINE
  5
   421
  8
0
  6
CONTINUOUS
 62
     7
 10
-586.182466549711
 20
48.1174175262432
 30
0.0
 11
-586.182466549711
 21
48.5174175262432
 31
0.0
  0
LINE
  5
   422
  8
0
  6
CONTINUOUS
 62
     7
 10
-585.707466549711
 20
48.1174175262432
 30
0.0
 11
-586.182466549711
 21
48.1174175262432
 31
0.0
  0
LINE
  5
   423
  8
0
  6
CONTINUOUS
 62
     7
 10
-584.832466549711
 20
48.1174175262432
 30
0.0
 11
-584.832466549711
 21
48.5174175262432
 31
0.0
  0
LINE
  5
   424
  8
0
  6
CONTINUOUS
 62
     7
 10
-585.707466549711
 20
48.5174175262432
 30
0.0
 11
-586.182466549711
 21
48.5174175262432
 31
0.0
  0
LINE
  5
   425
  8
0
  6
CONTINUOUS
 62
     7
 10
-585.707466549711
 20
45.8674175262432
 30
0.0
 11
-585.707466549711
 21
48.1174175262432
 31
0.0
  0
LINE
  5
   426
  8
0
  6
CONTINUOUS
 62
     7
 10
-585.307466549711
 20
45.8674175262432
 30
0.0
 11
-585.307466549711
 21
48.1174175262432
 31
0.0
  0
LINE
  5
   427
  8
0
  6
CONTINUOUS
 62
     7
 10
-584.832466549711
 20
48.1174175262432
 30
0.0
 11
-585.307466549711
 21
48.1174175262432
 31
0.0
  0
LINE
  5
   428
  8
0
  6
CONTINUOUS
 62
     7
 10
-584.832466549711
 20
48.5174175262432
 30
0.0
 11
-585.307466549711
 21
48.5174175262432
 31
0.0
  0
LINE
  5
   429
  8
0
  6
CONTINUOUS
 62
     7
 10
-585.707466549711
 20
48.5174175262432
 30
0.0
 11
-585.707466549711
 21
49.0674175262432
 31
0.0
  0
LINE
  5
   42A
  8
0
  6
CONTINUOUS
 62
     7
 10
-585.307466549711
 20
48.5174175262432
 30
0.0
 11
-585.307466549711
 21
49.0674175262432
 31
0.0
  0
ARC
  5
   42B
  8
0
  6
CONTINUOUS
 62
     7
 10
-585.057466549711
 20
49.0674175262432
 30
0.0
 40
0.65
 50
449.999999948034
 51
539.999999948034
  0
ARC
  5
   42C
  8
0
  6
CONTINUOUS
 62
     7
 10
-585.057466549711
 20
49.0674175262432
 30
0.0
 40
0.25
 50
449.999999948034
 51
539.999999948034
  0
LINE
  5
   42D
  8
0
  6
CONTINUOUS
 62
     7
 10
-584.832466549711
 20
49.3174175262432
 30
0.0
 11
-584.832466549711
 21
49.7174175262432
 31
0.0
  0
LINE
  5
   42E
  8
0
  6
CONTINUOUS
 62
     7
 10
-584.832466549711
 20
49.3174175262432
 30
0.0
 11
-585.057466549711
 21
49.3174175262432
 31
0.0
  0
LINE
  5
   42F
  8
0
  6
CONTINUOUS
 62
     7
 10
-587.107466549711
 20
63.1174175262432
 30
0.0
 11
-587.507466549711
 21
63.1174175262432
 31
0.0
  0
ARC
  5
   430
  8
0
  6
CONTINUOUS
 62
     7
 10
-589.207466549711
 20
64.6674175262432
 30
0.0
 40
1.3
 50
359.999999948034
 51
539.999999948034
  0
ARC
  5
   431
  8
0
  6
CONTINUOUS
 62
     7
 10
-589.207466549711
 20
64.6674175262432
 30
0.0
 40
0.900000000000001
 50
359.999999948034
 51
539.999999948034
  0
ARC
  5
   432
  8
0
  6
CONTINUOUS
 62
     7
 10
-589.207466549711
 20
64.4174175262432
 30
0.0
 40
1.3
 50
179.999999948034
 51
359.999999948034
  0
ARC
  5
   433
  8
0
  6
CONTINUOUS
 62
     7
 10
-589.207466549711
 20
64.4174175262432
 30
0.0
 40
0.899999999999999
 50
179.999999948034
 51
359.999999948034
  0
LINE
  5
   434
  8
0
  6
CONTINUOUS
 62
     7
 10
-588.307466549711
 20
64.4174175262432
 30
0.0
 11
-588.307466549711
 21
64.6674175262432
 31
0.0
  0
LINE
  5
   435
  8
0
  6
CONTINUOUS
 62
     7
 10
-587.907466549711
 20
64.4174175262432
 30
0.0
 11
-587.907466549711
 21
64.6674175262432
 31
0.0
  0
LINE
  5
   436
  8
0
  6
CONTINUOUS
 62
     7
 10
-590.107466549711
 20
64.4174175262432
 30
0.0
 11
-590.107466549711
 21
64.6674175262432
 31
0.0
  0
LINE
  5
   437
  8
0
  6
CONTINUOUS
 62
     7
 10
-590.507466549711
 20
64.4174175262432
 30
0.0
 11
-590.507466549711
 21
64.6674175262432
 31
0.0
  0
LINE
  5
   438
  8
0
  6
CONTINUOUS
 62
     7
 10
-587.507466549711
 20
63.1174175262432
 30
0.0
 11
-587.507466549711
 21
65.9674175262432
 31
0.0
  0
LINE
  5
   439
  8
0
  6
CONTINUOUS
 62
     7
 10
-587.107466549711
 20
63.1174175262432
 30
0.0
 11
-587.107466549711
 21
64.8674175262432
 31
0.0
  0
LINE
  5
   43A
  8
0
  6
CONTINUOUS
 62
     7
 10
-585.707466549711
 20
63.1174175262432
 30
0.0
 11
-585.707466549711
 21
64.8674175262432
 31
0.0
  0
LINE
  5
   43B
  8
0
  6
CONTINUOUS
 62
     7
 10
-585.307466549711
 20
63.1174175262432
 30
0.0
 11
-585.307466549711
 21
64.9674175262432
 31
0.0
  0
LINE
  5
   43C
  8
0
  6
CONTINUOUS
 62
     7
 10
-587.107466549711
 20
65.9674175262432
 30
0.0
 11
-587.507466549711
 21
65.9674175262432
 31
0.0
  0
ARC
  5
   43D
  8
0
  6
CONTINUOUS
 62
     7
 10
-586.407466549711
 20
64.8674175262432
 30
0.0
 40
0.699999999999999
 50
359.999999948034
 51
539.999999948034
  0
LINE
  5
   43E
  8
0
  6
CONTINUOUS
 62
     7
 10
-587.107466549711
 20
65.5674175262432
 30
0.0
 11
-587.107466549711
 21
65.9674175262432
 31
0.0
  0
ARC
  5
   43F
  8
0
  6
CONTINUOUS
 62
     7
 10
-586.307466549711
 20
64.9674175262432
 30
0.0
 40
1.0
 50
359.999999948034
 51
503.13010230219
  0
LINE
  5
   440
  8
0
  6
CONTINUOUS
 62
     7
 10
-585.307466549711
 20
63.1174175262432
 30
0.0
 11
-585.707466549711
 21
63.1174175262432
 31
0.0
  0
LINE
  5
   441
  8
0
  6
CONTINUOUS
 62
     7
 10
-624.9574616967
 20
68.0424175262432
 30
0.0
 11
-625.457461666884
 21
68.0424175262432
 31
0.0
  0
LINE
  5
   442
  8
0
  6
CONTINUOUS
 62
     7
 10
-624.9574616967
 20
67.5424175262432
 30
0.0
 11
-625.457461666896
 21
67.5424175262432
 31
0.0
  0
LINE
  5
   443
  8
0
  6
CONTINUOUS
 62
     7
 10
-624.9574616967
 20
61.5424175262432
 30
0.0
 11
-625.457461666896
 21
61.5424175262432
 31
0.0
  0
LINE
  5
   444
  8
0
  6
CONTINUOUS
 62
     7
 10
-624.9574616967
 20
61.0424175262432
 30
0.0
 11
-625.45746166691
 21
61.0424175262432
 31
0.0
  0
LINE
  5
   445
  8
0
  6
CONTINUOUS
 62
     7
 10
-624.9574616967
 20
51.2924271439583
 30
0.0
 11
-625.45746166691
 21
51.2924271439583
 31
0.0
  0
LINE
  5
   446
  8
0
  6
CONTINUOUS
 62
     7
 10
-624.9574616967
 20
50.7924271439553
 30
0.0
 11
-625.457461666901
 21
50.7924271439553
 31
0.0
  0
LINE
  5
   447
  8
0
  6
CONTINUOUS
 62
     7
 10
-624.9574616967
 20
44.7924175262432
 30
0.0
 11
-625.457461666901
 21
44.7924175262432
 31
0.0
  0
LINE
  5
   448
  8
0
  6
CONTINUOUS
 62
     7
 10
-624.9574616967
 20
44.2924175262432
 30
0.0
 11
-625.457461666898
 21
44.2924175262432
 31
0.0
  0
LINE
  5
   449
  8
0
  6
CONTINUOUS
 62
     7
 10
-573.457469296293
 20
68.0424175262432
 30
0.0
 11
-624.9574616967
 21
68.0424175262432
 31
0.0
  0
LINE
  5
   44A
  8
0
  6
CONTINUOUS
 62
     7
 10
-573.457469296293
 20
67.5424175262432
 30
0.0
 11
-624.9574616967
 21
67.5424175262432
 31
0.0
  0
LINE
  5
   44B
  8
0
  6
CONTINUOUS
 62
     7
 10
-573.457469296293
 20
61.5424175262432
 30
0.0
 11
-593.832461666898
 21
61.5424175262432
 31
0.0
  0
LINE
  5
   44C
  8
0
  6
CONTINUOUS
 62
     7
 10
-573.457469296293
 20
61.0424175262432
 30
0.0
 11
-593.832461666898
 21
61.0424175262432
 31
0.0
  0
LINE
  5
   44D
  8
0
  6
CONTINUOUS
 62
     7
 10
-573.457469296293
 20
51.2924231673321
 30
0.0
 11
-593.832463159277
 21
51.2924231673321
 31
0.0
  0
LINE
  5
   44E
  8
0
  6
CONTINUOUS
 62
     7
 10
-573.457469296293
 20
50.7924231673322
 30
0.0
 11
-593.832463342472
 21
50.7924231673322
 31
0.0
  0
LINE
  5
   44F
  8
0
  6
CONTINUOUS
 62
     7
 10
-573.457469296293
 20
44.7924175262432
 30
0.0
 11
-624.9574616967
 21
44.7924175262432
 31
0.0
  0
LINE
  5
   450
  8
0
  6
CONTINUOUS
 62
     7
 10
-573.457469296293
 20
44.2924175262432
 30
0.0
 11
-624.9574616967
 21
44.2924175262432
 31
0.0
  0
LINE
  5
   451
  8
0
  6
CONTINUOUS
 62
     7
 10
-593.832461666898
 20
53.2300778809529
 30
0.0
 11
-604.582461666898
 21
53.2300778809529
 31
0.0
  0
LINE
  5
   452
  8
0
  6
CONTINUOUS
 62
     7
 10
-593.832461666898
 20
50.1718451281444
 30
0.0
 11
-604.582461666898
 21
50.1718451281444
 31
0.0
  0
LINE
  5
   453
  8
0
  6
CONTINUOUS
 62
     7
 10
-593.832461666898
 20
47.1979358150386
 30
0.0
 11
-604.582461666898
 21
47.1979358150386
 31
0.0
  0
LINE
  5
   454
  8
0
  6
CONTINUOUS
 62
     7
 10
-593.832461666898
 20
46.7965622511794
 30
0.0
 11
-604.582461666898
 21
46.7965622511794
 31
0.0
  0
LINE
  5
   455
  8
0
  6
CONTINUOUS
 62
     7
 10
-628.457461666898
 20
87.5424251556377
 30
0.0
 11
-642.957481958565
 21
87.5424251556377
 31
0.0
  0
LINE
  5
   456
  8
0
  6
CONTINUOUS
 62
     7
 10
-628.457461666898
 20
35.0424251556377
 30
0.0
 11
-642.957481958565
 21
35.0424251556377
 31
0.0
  0
LINE
  5
   457
  8
0
  6
CONTINUOUS
 62
     7
 10
-572.957461666898
 20
35.2924251556377
 30
0.0
 11
-572.957461666898
 21
44.2924175262432
 31
0.0
  0
LINE
  5
   458
  8
0
  6
CONTINUOUS
 62
     7
 10
-572.957470294577
 20
68.0424175262432
 30
0.0
 11
-572.957470294577
 21
87.2924251556377
 31
0.0
  0
LINE
  5
   459
  8
0
  6
CONTINUOUS
 62
     7
 10
-573.582478238572
 20
106.167421340947
 30
0.0
 11
-642.332470294576
 21
106.167421340947
 31
0.0
  0
LINE
  5
   45A
  8
0
  6
CONTINUOUS
 62
     7
 10
-628.457461666898
 20
91.6674289703468
 30
0.0
 11
-642.457470294577
 21
91.6674289703468
 31
0.0
  0
LINE
  5
   45B
  8
0
  6
CONTINUOUS
 62
     7
 10
-572.957470294591
 20
101.542425155638
 30
0.0
 11
-572.957470294591
 21
105.542421340947
 31
0.0
  0
LINE
  5
   45C
  8
0
  6
CONTINUOUS
 62
     7
 10
-642.957470294576
 20
92.1674289703419
 30
0.0
 11
-642.957470294576
 21
105.542421340947
 31
0.0
  0
LINE
  5
   45D
  8
0
  6
CONTINUOUS
 62
     7
 10
-642.457470294577
 20
91.6674289703469
 30
0.0
 11
-642.457470294577
 21
92.1674289703469
 31
0.0
  0
LINE
  5
   45E
  8
0
  6
CONTINUOUS
 62
     7
 10
-642.832470324379
 20
92.1674289703418
 30
0.0
 11
-642.957470294576
 21
92.1674289703418
 31
0.0
  0
LINE
  5
   45F
  8
0
  6
CONTINUOUS
 62
     7
 10
-640.932470199209
 20
18.6674213409375
 30
0.0
 11
-640.932470199209
 21
106.167421340947
 31
0.0
  0
LINE
  5
   460
  8
0
  6
CONTINUOUS
 62
     7
 10
-637.332470294577
 20
18.6674213409375
 30
0.0
 11
-637.332470294577
 21
106.167421340947
 31
0.0
  0
LINE
  5
   461
  8
0
  6
CONTINUOUS
 62
     7
 10
-633.732471820456
 20
18.6674213409375
 30
0.0
 11
-633.732471820456
 21
106.167421340947
 31
0.0
  0
LINE
  5
   462
  8
0
  6
CONTINUOUS
 62
     7
 10
-628.332470294577
 20
101.292413651791
 30
0.0
 11
-628.332470294577
 21
106.167421340947
 31
0.0
  0
LINE
  5
   463
  8
0
  6
CONTINUOUS
 62
     7
 10
-626.532474872213
 20
101.542425155638
 30
0.0
 11
-626.532474872213
 21
106.167421340947
 31
0.0
  0
LINE
  5
   464
  8
0
  6
CONTINUOUS
 62
     7
 10
-624.732471820456
 20
101.542425155638
 30
0.0
 11
-624.732471820456
 21
106.167421340947
 31
0.0
  0
LINE
  5
   465
  8
0
  6
CONTINUOUS
 62
     7
 10
-622.932476398092
 20
101.542425155638
 30
0.0
 11
-622.932476398092
 21
106.167421340947
 31
0.0
  0
LINE
  5
   466
  8
0
  6
CONTINUOUS
 62
     7
 10
-621.132473346335
 20
101.542425155638
 30
0.0
 11
-621.132473346335
 21
106.167421340947
 31
0.0
  0
LINE
  5
   467
  8
0
  6
CONTINUOUS
 62
     7
 10
-619.332470294577
 20
101.542425155638
 30
0.0
 11
-619.332470294577
 21
106.167421340947
 31
0.0
  0
LINE
  5
   468
  8
0
  6
CONTINUOUS
 62
     7
 10
-617.532474872213
 20
101.542425155638
 30
0.0
 11
-617.532474872213
 21
106.167421340947
 31
0.0
  0
LINE
  5
   469
  8
0
  6
CONTINUOUS
 62
     7
 10
-615.732471820456
 20
101.542425155638
 30
0.0
 11
-615.732471820456
 21
106.167421340947
 31
0.0
  0
LINE
  5
   46A
  8
0
  6
CONTINUOUS
 62
     7
 10
-613.932476398092
 20
101.542425155638
 30
0.0
 11
-613.932476398092
 21
106.167421340947
 31
0.0
  0
LINE
  5
   46B
  8
0
  6
CONTINUOUS
 62
     7
 10
-612.132473346335
 20
101.542425155638
 30
0.0
 11
-612.132473346335
 21
106.167421340947
 31
0.0
  0
LINE
  5
   46C
  8
0
  6
CONTINUOUS
 62
     7
 10
-610.332470294577
 20
101.542425155638
 30
0.0
 11
-610.332470294577
 21
106.167421340947
 31
0.0
  0
LINE
  5
   46D
  8
0
  6
CONTINUOUS
 62
     7
 10
-608.532474872213
 20
101.542425155638
 30
0.0
 11
-608.532474872213
 21
106.167421340947
 31
0.0
  0
LINE
  5
   46E
  8
0
  6
CONTINUOUS
 62
     7
 10
-606.732471820456
 20
101.542425155638
 30
0.0
 11
-606.732471820456
 21
106.167421340947
 31
0.0
  0
LINE
  5
   46F
  8
0
  6
CONTINUOUS
 62
     7
 10
-604.932476398092
 20
101.542425155638
 30
0.0
 11
-604.932476398092
 21
106.167421340947
 31
0.0
  0
LINE
  5
   470
  8
0
  6
CONTINUOUS
 62
     7
 10
-603.132473346334
 20
101.542425155638
 30
0.0
 11
-603.132473346334
 21
106.167421340947
 31
0.0
  0
LINE
  5
   471
  8
0
  6
CONTINUOUS
 62
     7
 10
-601.332470294577
 20
101.542425155638
 30
0.0
 11
-601.332470294577
 21
106.167421340947
 31
0.0
  0
LINE
  5
   472
  8
0
  6
CONTINUOUS
 62
     7
 10
-599.532474872213
 20
101.542425155638
 30
0.0
 11
-599.532474872213
 21
106.167421340947
 31
0.0
  0
LINE
  5
   473
  8
0
  6
CONTINUOUS
 62
     7
 10
-597.732471820456
 20
101.542425155638
 30
0.0
 11
-597.732471820456
 21
106.167421340947
 31
0.0
  0
LINE
  5
   474
  8
0
  6
CONTINUOUS
 62
     7
 10
-595.932476398092
 20
101.542425155638
 30
0.0
 11
-595.932476398092
 21
106.167421340947
 31
0.0
  0
LINE
  5
   475
  8
0
  6
CONTINUOUS
 62
     7
 10
-594.132473346334
 20
101.542425155638
 30
0.0
 11
-594.132473346334
 21
106.167421340947
 31
0.0
  0
LINE
  5
   476
  8
0
  6
CONTINUOUS
 62
     7
 10
-592.332470294577
 20
101.542425155638
 30
0.0
 11
-592.332470294577
 21
106.167421340947
 31
0.0
  0
LINE
  5
   477
  8
0
  6
CONTINUOUS
 62
     7
 10
-590.532474872213
 20
101.542425155638
 30
0.0
 11
-590.532474872213
 21
106.167421340947
 31
0.0
  0
LINE
  5
   478
  8
0
  6
CONTINUOUS
 62
     7
 10
-588.732471820456
 20
101.542425155638
 30
0.0
 11
-588.732471820456
 21
106.167421340947
 31
0.0
  0
LINE
  5
   479
  8
0
  6
CONTINUOUS
 62
     7
 10
-586.932476398092
 20
101.542425155638
 30
0.0
 11
-586.932476398092
 21
106.167421340947
 31
0.0
  0
LINE
  5
   47A
  8
0
  6
CONTINUOUS
 62
     7
 10
-585.132473346335
 20
101.542425155638
 30
0.0
 11
-585.132473346335
 21
106.167421340947
 31
0.0
  0
LINE
  5
   47B
  8
0
  6
CONTINUOUS
 62
     7
 10
-583.332470294577
 20
101.542425155638
 30
0.0
 11
-583.332470294577
 21
106.167421340947
 31
0.0
  0
LINE
  5
   47C
  8
0
  6
CONTINUOUS
 62
     7
 10
-581.532474872213
 20
101.542425155638
 30
0.0
 11
-581.532474872213
 21
106.167421340947
 31
0.0
  0
LINE
  5
   47D
  8
0
  6
CONTINUOUS
 62
     7
 10
-579.732471820456
 20
101.542425155638
 30
0.0
 11
-579.732471820456
 21
106.167421340947
 31
0.0
  0
LINE
  5
   47E
  8
0
  6
CONTINUOUS
 62
     7
 10
-577.932476398092
 20
101.542425155638
 30
0.0
 11
-577.932476398092
 21
106.167421340947
 31
0.0
  0
LINE
  5
   47F
  8
0
  6
CONTINUOUS
 62
     7
 10
-576.132473346335
 20
101.542425155638
 30
0.0
 11
-576.132473346335
 21
106.167421340947
 31
0.0
  0
LINE
  5
   480
  8
0
  6
CONTINUOUS
 62
     7
 10
-574.332470294577
 20
101.542425155638
 30
0.0
 11
-574.332470294577
 21
106.167421340947
 31
0.0
  0
ARC
  5
   481
  8
0
  6
CONTINUOUS
 62
     7
 10
-642.332470294576
 20
105.542421340947
 30
0.0
 40
0.625
 50
449.999999948034
 51
539.999999948034
  0
ARC
  5
   482
  8
0
  6
CONTINUOUS
 62
     7
 10
-573.582478238572
 20
105.542421340947
 30
0.0
 40
0.625
 50
360.000036000188
 51
449.999999948034
  0
LINE
  5
   483
  8
0
  6
CONTINUOUS
 62
     7
 10
-573.582478238572
 20
18.6674213409375
 30
0.0
 11
-642.332470294576
 21
18.6674213409375
 31
0.0
  0
LINE
  5
   484
  8
0
  6
CONTINUOUS
 62
     7
 10
-628.457461666898
 20
33.1674137115379
 30
0.0
 11
-642.457470294577
 21
33.1674137115379
 31
0.0
  0
LINE
  5
   485
  8
0
  6
CONTINUOUS
 62
     7
 10
-572.95747029459
 20
19.2924213409375
 30
0.0
 11
-572.95747029459
 21
21.0424270629863
 31
0.0
  0
LINE
  5
   486
  8
0
  6
CONTINUOUS
 62
     7
 10
-642.957470294576
 20
19.2924213409375
 30
0.0
 11
-642.957470294576
 21
32.6674137115429
 31
0.0
  0
LINE
  5
   487
  8
0
  6
CONTINUOUS
 62
     7
 10
-628.457461666898
 20
32.6674137115429
 30
0.0
 11
-642.832470294577
 21
32.6674137115429
 31
0.0
  0
LINE
  5
   488
  8
0
  6
CONTINUOUS
 62
     7
 10
-642.457470294577
 20
32.6674137115379
 30
0.0
 11
-642.457470294577
 21
33.1674137115379
 31
0.0
  0
LINE
  5
   489
  8
0
  6
CONTINUOUS
 62
     7
 10
-642.832470324379
 20
32.6674137115429
 30
0.0
 11
-642.957470294576
 21
32.6674137115429
 31
0.0
  0
LINE
  5
   48A
  8
0
  6
CONTINUOUS
 62
     7
 10
-639.132470008474
 20
18.6674213409375
 30
0.0
 11
-639.132470008474
 21
106.167421340947
 31
0.0
  0
LINE
  5
   48B
  8
0
  6
CONTINUOUS
 62
     7
 10
-635.532470103842
 20
18.6674213409375
 30
0.0
 11
-635.532470103842
 21
106.167421340947
 31
0.0
  0
LINE
  5
   48C
  8
0
  6
CONTINUOUS
 62
     7
 10
-631.932476398092
 20
18.6674213409375
 30
0.0
 11
-631.932476398092
 21
106.167421340947
 31
0.0
  0
LINE
  5
   48D
  8
0
  6
CONTINUOUS
 62
     7
 10
-630.132473346334
 20
18.6674213409375
 30
0.0
 11
-630.132473346334
 21
106.167421340947
 31
0.0
  0
LINE
  5
   48E
  8
0
  6
CONTINUOUS
 62
     7
 10
-624.732471820456
 20
18.6674213409375
 30
0.0
 11
-624.732471820456
 21
21.0424270629863
 31
0.0
  0
LINE
  5
   48F
  8
0
  6
CONTINUOUS
 62
     7
 10
-622.932476398092
 20
18.6674213409375
 30
0.0
 11
-622.932476398092
 21
21.0424270629863
 31
0.0
  0
LINE
  5
   490
  8
0
  6
CONTINUOUS
 62
     7
 10
-621.132473346334
 20
18.6674213409375
 30
0.0
 11
-621.132473346334
 21
21.0424270629863
 31
0.0
  0
LINE
  5
   491
  8
0
  6
CONTINUOUS
 62
     7
 10
-619.332470294577
 20
18.6674213409375
 30
0.0
 11
-619.332470294577
 21
21.0424270629863
 31
0.0
  0
LINE
  5
   492
  8
0
  6
CONTINUOUS
 62
     7
 10
-617.532474872213
 20
18.6674213409375
 30
0.0
 11
-617.532474872213
 21
21.0424270629863
 31
0.0
  0
LINE
  5
   493
  8
0
  6
CONTINUOUS
 62
     7
 10
-615.732471820456
 20
18.6674213409375
 30
0.0
 11
-615.732471820456
 21
21.0424270629863
 31
0.0
  0
LINE
  5
   494
  8
0
  6
CONTINUOUS
 62
     7
 10
-613.932476398092
 20
18.6674213409375
 30
0.0
 11
-613.932476398092
 21
21.0424270629863
 31
0.0
  0
LINE
  5
   495
  8
0
  6
CONTINUOUS
 62
     7
 10
-612.132473346334
 20
18.6674213409375
 30
0.0
 11
-612.132473346334
 21
21.0424270629863
 31
0.0
  0
LINE
  5
   496
  8
0
  6
CONTINUOUS
 62
     7
 10
-610.332470294577
 20
18.6674213409375
 30
0.0
 11
-610.332470294577
 21
21.0424270629863
 31
0.0
  0
LINE
  5
   497
  8
0
  6
CONTINUOUS
 62
     7
 10
-608.532474872213
 20
18.6674213409375
 30
0.0
 11
-608.532474872213
 21
21.0424270629863
 31
0.0
  0
LINE
  5
   498
  8
0
  6
CONTINUOUS
 62
     7
 10
-606.732471820455
 20
18.6674213409375
 30
0.0
 11
-606.732471820455
 21
21.0424270629863
 31
0.0
  0
LINE
  5
   499
  8
0
  6
CONTINUOUS
 62
     7
 10
-604.932476398092
 20
18.6674213409375
 30
0.0
 11
-604.932476398092
 21
21.0424270629863
 31
0.0
  0
LINE
  5
   49A
  8
0
  6
CONTINUOUS
 62
     7
 10
-603.132473346334
 20
18.6674213409375
 30
0.0
 11
-603.132473346334
 21
21.0424270629863
 31
0.0
  0
LINE
  5
   49B
  8
0
  6
CONTINUOUS
 62
     7
 10
-601.332470294577
 20
18.6674213409375
 30
0.0
 11
-601.332470294577
 21
21.0424270629863
 31
0.0
  0
LINE
  5
   49C
  8
0
  6
CONTINUOUS
 62
     7
 10
-599.532474872213
 20
18.6674213409375
 30
0.0
 11
-599.532474872213
 21
21.0424270629863
 31
0.0
  0
LINE
  5
   49D
  8
0
  6
CONTINUOUS
 62
     7
 10
-597.732471820455
 20
18.6674213409375
 30
0.0
 11
-597.732471820455
 21
21.0424270629863
 31
0.0
  0
LINE
  5
   49E
  8
0
  6
CONTINUOUS
 62
     7
 10
-595.932476398092
 20
18.6674213409375
 30
0.0
 11
-595.932476398092
 21
21.0424270629863
 31
0.0
  0
LINE
  5
   49F
  8
0
  6
CONTINUOUS
 62
     7
 10
-594.132473346334
 20
18.6674213409375
 30
0.0
 11
-594.132473346334
 21
21.0424270629863
 31
0.0
  0
LINE
  5
   4A0
  8
0
  6
CONTINUOUS
 62
     7
 10
-592.332470294577
 20
18.6674213409375
 30
0.0
 11
-592.332470294577
 21
21.0424270629863
 31
0.0
  0
LINE
  5
   4A1
  8
0
  6
CONTINUOUS
 62
     7
 10
-590.532474872213
 20
18.6674213409375
 30
0.0
 11
-590.532474872213
 21
21.0424270629863
 31
0.0
  0
LINE
  5
   4A2
  8
0
  6
CONTINUOUS
 62
     7
 10
-588.732471820455
 20
18.6674213409375
 30
0.0
 11
-588.732471820455
 21
21.0424270629863
 31
0.0
  0
LINE
  5
   4A3
  8
0
  6
CONTINUOUS
 62
     7
 10
-586.932476398092
 20
18.6674213409375
 30
0.0
 11
-586.932476398092
 21
21.0424270629863
 31
0.0
  0
LINE
  5
   4A4
  8
0
  6
CONTINUOUS
 62
     7
 10
-585.132473346334
 20
18.6674213409375
 30
0.0
 11
-585.132473346334
 21
21.0424270629863
 31
0.0
  0
LINE
  5
   4A5
  8
0
  6
CONTINUOUS
 62
     7
 10
-583.332470294577
 20
18.6674213409375
 30
0.0
 11
-583.332470294577
 21
21.0424270629863
 31
0.0
  0
LINE
  5
   4A6
  8
0
  6
CONTINUOUS
 62
     7
 10
-581.532474872213
 20
18.6674213409375
 30
0.0
 11
-581.532474872213
 21
21.0424270629863
 31
0.0
  0
LINE
  5
   4A7
  8
0
  6
CONTINUOUS
 62
     7
 10
-579.732471820456
 20
18.6674213409375
 30
0.0
 11
-579.732471820456
 21
21.0424270629863
 31
0.0
  0
LINE
  5
   4A8
  8
0
  6
CONTINUOUS
 62
     7
 10
-577.932476398092
 20
18.6674213409375
 30
0.0
 11
-577.932476398092
 21
21.0424270629863
 31
0.0
  0
LINE
  5
   4A9
  8
0
  6
CONTINUOUS
 62
     7
 10
-576.132473346334
 20
18.6674213409375
 30
0.0
 11
-576.132473346334
 21
21.0424270629863
 31
0.0
  0
LINE
  5
   4AA
  8
0
  6
CONTINUOUS
 62
     7
 10
-574.332470294577
 20
18.6674213409375
 30
0.0
 11
-574.332470294577
 21
21.0424270629863
 31
0.0
  0
ARC
  5
   4AB
  8
0
  6
CONTINUOUS
 62
     7
 10
-642.332470294576
 20
19.2924213409375
 30
0.0
 40
0.625
 50
179.999999948034
 51
269.999999948034
  0
ARC
  5
   4AC
  8
0
  6
CONTINUOUS
 62
     7
 10
-573.582478238572
 20
19.2924213409375
 30
0.0
 40
0.625
 50
269.999999948034
 51
359.99996389588
  0
LINE
  5
   4AD
  8
0
  6
DASHDOT
 62
     7
 10
-561.727664108119
 20
61.2924251556377
 30
0.0
 11
-650.822135485453
 21
61.2924251556377
 31
0.0
  0
INSERT
  5
   4AE
  8
255
  6
CONTINUOUS
 62
     7
  2
MOSTRINA
 10
-656.626590084867
 20
6.3021144866924
 30
0.0
 41
0.5
 42
0.5
 50
3.50835464724173E-15
 43
0.5
  0
LINE
  5
   4AF
  8
0
  6
CONTINUOUS
 62
     7
 10
-628.332470294577
 20
18.6674213409375
 30
0.0
 11
-628.332470294577
 21
21.2924385668335
 31
0.0
  0
LINE
  5
   4B0
  8
0
  6
CONTINUOUS
 62
     7
 10
-626.532474872213
 20
18.6674213409375
 30
0.0
 11
-626.532474872213
 21
21.0424270629863
 31
0.0
  0
CIRCLE
  5
   4B1
  8
0
  6
CONTINUOUS
 62
     7
 10
-571.166854642043
 20
94.8375387798334
 30
0.0
 40
0.1
  0
TEXT
  5
   4B2
  8
0
  6
CONTINUOUS
 62
     7
 10
-557.277954116258
 20
43.6230125557705
 30
0.0
 40
3.00000002980232
  1
=          =
 50
89.9999999480344
 41
0.916666604744064
 72
     2
 11
-557.277954086867
 21
76.0730106817011
 31
0.0
  0
INSERT
  5
   4B3
  8
0
  6
CONTINUOUS
 62
     7
  2
*UDIM2359
 10
0.0
 20
0.0
 30
0.0
  0
TEXT
  5
   4B4
  8
0
  6
CONTINUOUS
 62
     7
 10
-617.034063260615
 20
-10.6414425046709
 30
0.0
 40
3.00000002980232
  1
=          =
 50
359.999999948034
 41
0.916666604744064
 72
     2
 11
-584.584065134684
 21
-10.641442533939
 31
0.0
  0
INSERT
  5
   4B5
  8
0
  6
CONTINUOUS
 62
     7
  2
*UDIM2360
 10
0.0
 20
0.0
 30
0.0
  0
INSERT
  5
   4B6
  8
0
  6
CONTINUOUS
 62
     7
  2
*UDIM2361
 10
0.0
 20
0.0
 30
0.0
  0
INSERT
  5
   4B7
  8
0
  6
CONTINUOUS
 62
     7
  2
*UDIM2362
 10
0.0
 20
0.0
 30
0.0
  0
INSERT
  5
   4B8
  8
0
  6
CONTINUOUS
 62
     7
  2
*UDIM2363
 10
0.0
 20
0.0
 30
0.0
  0
INSERT
  5
   4B9
  8
0
  6
CONTINUOUS
 62
     7
  2
*UDIM2364
 10
0.0
 20
0.0
 30
0.0
  0
INSERT
  5
   4BA
  8
0
  6
CONTINUOUS
 62
     7
  2
*UDIM2365
 10
0.0
 20
0.0
 30
0.0
  0
TEXT
  5
   4BB
  8
0
  6
CONTINUOUS
 62
     7
 10
-598.361891110109
 20
119.044582014473
 30
0.0
 40
3.00000002980232
  1
Y
 50
359.999999948034
 41
0.916666604744064
 72
     2
 11
-596.16189124124
 21
119.044582012488
 31
0.0
  0
TEXT
  5
   4BC
  8
0
  6
CONTINUOUS
 62
     7
 10
-668.810360272097
 20
59.4331280044629
 30
0.0
 40
3.00000002980232
  1
X
 50
359.999999948034
 41
0.916666604744064
 72
     2
 11
-666.610360403227
 21
59.4331280024786
 31
0.0
  0
LINE
  5
   4BD
  8
0
  6
CONTINUOUS
 62
     7
 10
-484.125061035156
 20
-26.0234222412109
 30
0.0
 11
-484.125061035156
 21
-26.2734069824219
 31
0.0
  0
LINE
  5
   4BE
  8
0
  6
CONTINUOUS
 62
     7
 10
-484.125061035156
 20
-43.5234069824219
 30
0.0
 11
-484.125061035156
 21
-56.0234069824219
 31
0.0
  0
LINE
  5
   4BF
  8
0
  6
CONTINUOUS
 62
     7
 10
-484.125061035156
 20
-61.0233993530273
 30
0.0
 11
-484.125061035156
 21
-73.5233993530273
 31
0.0
  0
LINE
  5
   4C0
  8
0
  6
CONTINUOUS
 62
   210
 10
-460.125038146973
 20
-93.5233860015869
 30
0.0
 11
-481.875061035156
 21
-93.5233860015869
 31
0.0
  0
LINE
  5
   4C1
  8
0
  6
CONTINUOUS
 62
   210
 10
-478.62506103556
 20
-23.5233917234026
 30
0.0
 11
-481.87506103556
 21
-23.5233840940077
 31
0.0
  0
LINE
  5
   4C2
  8
0
  6
CONTINUOUS
 62
   210
 10
-460.125038146973
 20
-23.5233993530273
 30
0.0
 11
-478.625061035156
 21
-23.5233993530273
 31
0.0
  0
LINE
  5
   4C3
  8
0
  6
CONTINUOUS
 62
   210
 10
-460.125038146973
 20
-23.5233993530273
 30
0.0
 11
-460.125038146973
 21
-26.0233997760575
 31
0.0
  0
LINE
  5
   4C4
  8
0
  6
CONTINUOUS
 62
   210
 10
-460.125038146973
 20
-38.5233996961515
 30
0.0
 11
-460.125038146973
 21
-41.0234069824219
 31
0.0
  0
LINE
  5
   4C5
  8
0
  6
CONTINUOUS
 62
   210
 10
-460.125038146973
 20
-56.0233996066704
 30
0.0
 11
-460.125038146973
 21
-58.5234069824219
 31
0.0
  0
LINE
  5
   4C6
  8
0
  6
CONTINUOUS
 62
   210
 10
-460.125038146973
 20
-91.0233995171892
 30
0.0
 11
-460.125038146973
 21
-93.5233860015869
 31
0.0
  0
LINE
  5
   4C7
  8
0
  6
CONTINUOUS
 62
     7
 10
-478.625061035156
 20
-23.523401260376
 30
0.0
 11
-478.625061035156
 21
-41.0234069824219
 31
0.0
  0
LINE
  5
   4C8
  8
0
  6
CONTINUOUS
 62
   210
 10
-481.875061035156
 20
-91.5233993530273
 30
0.0
 11
-481.875061035156
 21
-93.5233860015869
 31
0.0
  0
LINE
  5
   4C9
  8
0
  6
CONTINUOUS
 62
     7
 10
-481.875061035156
 20
-56.0234069824219
 30
0.0
 11
-481.875061035156
 21
-61.0233993530273
 31
0.0
  0
LINE
  5
   4CA
  8
0
  6
CONTINUOUS
 62
     7
 10
-481.875061035156
 20
-42.2734451293945
 30
0.0
 11
-481.875061035156
 21
-43.5234069824219
 31
0.0
  0
LINE
  5
   4CB
  8
0
  6
CONTINUOUS
 62
   210
 10
-481.875061035156
 20
-23.5233840942383
 30
0.0
 11
-481.875061035156
 21
-26.0234146118164
 31
0.0
  0
LINE
  5
   4CC
  8
0
  6
CONTINUOUS
 62
   210
 10
-484.875061035156
 20
-90.7734069824219
 30
0.0
 11
-484.875061035156
 21
-93.0234470367432
 31
0.0
  0
LINE
  5
   4CD
  8
0
  6
CONTINUOUS
 62
   210
 10
-469.375038146973
 20
-44.6484069824219
 30
0.0
 11
-469.375038146973
 21
-54.8984069824219
 31
0.0
  0
LINE
  5
   4CE
  8
0
  6
CONTINUOUS
 62
   210
 10
-465.625038146973
 20
-54.8984069824219
 30
0.0
 11
-469.375038146973
 21
-54.8984069824219
 31
0.0
  0
LINE
  5
   4CF
  8
0
  6
CONTINUOUS
 62
   210
 10
-465.625038146973
 20
-44.6484069824219
 30
0.0
 11
-469.375038146973
 21
-44.6484069824219
 31
0.0
  0
LINE
  5
   4D0
  8
0
  6
CONTINUOUS
 62
   210
 10
-469.375038146973
 20
-62.1484069824219
 30
0.0
 11
-469.375038146973
 21
-72.3984069824219
 31
0.0
  0
LINE
  5
   4D1
  8
0
  6
CONTINUOUS
 62
   210
 10
-465.625038146973
 20
-72.3984069824219
 30
0.0
 11
-469.375038146973
 21
-72.3984069824219
 31
0.0
  0
LINE
  5
   4D2
  8
0
  6
CONTINUOUS
 62
   210
 10
-465.625038146973
 20
-62.1484069824219
 30
0.0
 11
-469.375038146973
 21
-62.1484069824219
 31
0.0
  0
LINE
  5
   4D3
  8
0
  6
CONTINUOUS
 62
   210
 10
-469.375038146973
 20
-27.1484069824219
 30
0.0
 11
-469.375038146973
 21
-37.3984069824219
 31
0.0
  0
LINE
  5
   4D4
  8
0
  6
CONTINUOUS
 62
   210
 10
-465.625038146973
 20
-37.3984069824219
 30
0.0
 11
-469.375038146973
 21
-37.3984069824219
 31
0.0
  0
LINE
  5
   4D5
  8
0
  6
CONTINUOUS
 62
   210
 10
-465.625038146973
 20
-27.1484069824219
 30
0.0
 11
-469.375038146973
 21
-27.1484069824219
 31
0.0
  0
LINE
  5
   4D6
  8
0
  6
CONTINUOUS
 62
     7
 10
-460.125038146973
 20
-24.7733993530273
 30
0.0
 11
-478.625061035156
 21
-24.7733993530273
 31
0.0
  0
LINE
  5
   4D7
  8
0
  6
CONTINUOUS
 62
     7
 10
-460.125038146973
 20
-92.2733993530274
 30
0.0
 11
-478.625061035156
 21
-92.2733993530274
 31
0.0
  0
LINE
  5
   4D8
  8
0
  6
CONTINUOUS
 62
   253
 10
-492.125061035156
 20
-61.2734069824219
 30
0.0
 11
-492.125061035156
 21
-73.2734069824219
 31
0.0
  0
LINE
  5
   4D9
  8
0
  6
CONTINUOUS
 62
   253
 10
-492.125061035156
 20
-26.2734069824219
 30
0.0
 11
-492.125061035156
 21
-38.2734069824219
 31
0.0
  0
LINE
  5
   4DA
  8
0
  6
CONTINUOUS
 62
   253
 10
-492.125038146973
 20
-44.2734146118164
 30
0.0
 11
-492.125038146973
 21
-55.2734146118164
 31
0.0
  0
LINE
  5
   4DB
  8
0
  6
CONTINUOUS
 62
     7
 10
-503.275039672852
 20
-26.7734298706055
 30
0.0
 11
-503.275039672852
 21
-37.7734298706055
 31
0.0
  0
LINE
  5
   4DC
  8
0
  6
CONTINUOUS
 62
     7
 10
-504.525039672852
 20
-37.0234298706055
 30
0.0
 11
-504.525039672852
 21
-37.7734298706055
 31
0.0
  0
LINE
  5
   4DD
  8
0
  6
CONTINUOUS
 62
     7
 10
-504.525039672852
 20
-27.5950241088867
 30
0.0
 11
-504.525039672852
 21
-36.9518356323242
 31
0.0
  0
LINE
  5
   4DE
  8
0
  6
CONTINUOUS
 62
     7
 10
-504.525039672852
 20
-26.7734298706055
 30
0.0
 11
-504.525039672852
 21
-27.5234298706055
 31
0.0
  0
LINE
  5
   4DF
  8
0
  6
CONTINUOUS
 62
     7
 10
-499.025039672852
 20
-26.7734298706055
 30
0.0
 11
-499.025039672852
 21
-27.5234298706055
 31
0.0
  0
LINE
  5
   4E0
  8
0
  6
CONTINUOUS
 62
     7
 10
-499.025039672852
 20
-27.5950241088867
 30
0.0
 11
-499.025039672852
 21
-36.9518356323242
 31
0.0
  0
LINE
  5
   4E1
  8
0
  6
CONTINUOUS
 62
     7
 10
-499.025039672852
 20
-37.0234298706055
 30
0.0
 11
-499.025039672852
 21
-37.7734298706055
 31
0.0
  0
LINE
  5
   4E2
  8
0
  6
CONTINUOUS
 62
     7
 10
-500.275039672852
 20
-26.7734298706055
 30
0.0
 11
-500.275039672852
 21
-37.7734298706055
 31
0.0
  0
LINE
  5
   4E3
  8
0
  6
CONTINUOUS
 62
     3
 10
-492.525039672852
 20
-27.5234298706055
 30
0.0
 11
-495.525039672852
 21
-27.5234298706055
 31
0.0
  0
LINE
  5
   4E4
  8
0
  6
CONTINUOUS
 62
     3
 10
-492.525039672852
 20
-37.0234298706055
 30
0.0
 11
-495.525039672852
 21
-37.0234298706055
 31
0.0
  0
LINE
  5
   4E5
  8
0
  6
CONTINUOUS
 62
     3
 10
-495.525039672852
 20
-27.5234298706055
 30
0.0
 11
-495.525039672852
 21
-37.0234298706055
 31
0.0
  0
LINE
  5
   4E6
  8
0
  6
CONTINUOUS
 62
     3
 10
-492.525039672852
 20
-27.5234298706055
 30
0.0
 11
-492.525039672852
 21
-28.7263412475586
 31
0.0
  0
LINE
  5
   4E7
  8
0
  6
CONTINUOUS
 62
     3
 10
-492.525039672852
 20
-31.1162338256836
 30
0.0
 11
-492.525039672852
 21
-33.4306335449219
 31
0.0
  0
LINE
  5
   4E8
  8
0
  6
CONTINUOUS
 62
     3
 10
-492.525039672852
 20
-35.8205375671387
 30
0.0
 11
-492.525039672852
 21
-37.0234298706055
 31
0.0
  0
LINE
  5
   4E9
  8
0
  6
CONTINUOUS
 62
     3
 10
-496.025039672852
 20
-27.5234298706055
 30
0.0
 11
-499.025039672852
 21
-27.5234298706055
 31
0.0
  0
LINE
  5
   4EA
  8
0
  6
CONTINUOUS
 62
     3
 10
-496.025039672852
 20
-37.0234298706055
 30
0.0
 11
-499.025039672852
 21
-37.0234298706055
 31
0.0
  0
LINE
  5
   4EB
  8
0
  6
CONTINUOUS
 62
     3
 10
-499.025039672852
 20
-36.9518356323242
 30
0.0
 11
-499.025039672852
 21
-37.0234298706055
 31
0.0
  0
LINE
  5
   4EC
  8
0
  6
CONTINUOUS
 62
     3
 10
-499.025039672852
 20
-27.5234298706055
 30
0.0
 11
-499.025039672852
 21
-27.595027923584
 31
0.0
  0
LINE
  5
   4ED
  8
0
  6
CONTINUOUS
 62
     3
 10
-496.025039672852
 20
-27.5234298706055
 30
0.0
 11
-496.025039672852
 21
-37.0234298706055
 31
0.0
  0
LINE
  5
   4EE
  8
0
  6
CONTINUOUS
 62
     3
 10
-504.525039672852
 20
-27.5234298706055
 30
0.0
 11
-507.525039672852
 21
-27.5234298706055
 31
0.0
  0
LINE
  5
   4EF
  8
0
  6
CONTINUOUS
 62
     3
 10
-504.525039672852
 20
-37.0234298706055
 30
0.0
 11
-507.525039672852
 21
-37.0234298706055
 31
0.0
  0
LINE
  5
   4F0
  8
0
  6
CONTINUOUS
 62
     3
 10
-504.525039672852
 20
-27.5234298706055
 30
0.0
 11
-504.525039672852
 21
-27.595027923584
 31
0.0
  0
LINE
  5
   4F1
  8
0
  6
CONTINUOUS
 62
     3
 10
-504.525039672852
 20
-36.9518356323242
 30
0.0
 11
-504.525039672852
 21
-37.0234298706055
 31
0.0
  0
LINE
  5
   4F2
  8
0
  6
CONTINUOUS
 62
     3
 10
-507.525039672852
 20
-27.5234298706055
 30
0.0
 11
-507.525039672852
 21
-37.0234298706055
 31
0.0
  0
LINE
  5
   4F3
  8
0
  6
CONTINUOUS
 62
     7
 10
-492.525039672852
 20
-37.0234298706055
 30
0.0
 11
-492.525039672852
 21
-37.2734298706055
 31
0.0
  0
LINE
  5
   4F4
  8
0
  6
CONTINUOUS
 62
     7
 10
-492.525039672852
 20
-33.4306411743164
 30
0.0
 11
-492.525039672852
 21
-35.8205261230469
 31
0.0
  0
LINE
  5
   4F5
  8
0
  6
CONTINUOUS
 62
     7
 10
-492.525039672852
 20
-28.7263259887695
 30
0.0
 11
-492.525039672852
 21
-31.1162261962891
 31
0.0
  0
LINE
  5
   4F6
  8
0
  6
CONTINUOUS
 62
     7
 10
-492.525039672852
 20
-27.2734298706055
 30
0.0
 11
-492.525039672852
 21
-27.5234298706055
 31
0.0
  0
LINE
  5
   4F7
  8
0
  6
CONTINUOUS
 62
   212
 10
-508.875038146973
 20
-30.2734146118164
 30
0.0
 11
-508.875038146973
 21
-34.2734146118164
 31
0.0
  0
LINE
  5
   4F8
  8
0
  6
CONTINUOUS
 62
   212
 10
-468.125038146973
 20
-54.0234146118164
 30
0.0
 11
-468.375038146973
 21
-54.0234146118164
 31
0.0
  0
LINE
  5
   4F9
  8
0
  6
CONTINUOUS
 62
   212
 10
-468.125038146973
 20
-45.5234146118164
 30
0.0
 11
-468.375038146973
 21
-45.5234146118164
 31
0.0
  0
LINE
  5
   4FA
  8
0
  6
CONTINUOUS
 62
   212
 10
-468.125038146973
 20
-48.0234146118164
 30
0.0
 11
-468.375038146973
 21
-48.0234146118164
 31
0.0
  0
LINE
  5
   4FB
  8
0
  6
CONTINUOUS
 62
   212
 10
-468.125038146973
 20
-51.5234146118164
 30
0.0
 11
-468.375038146973
 21
-51.5234146118164
 31
0.0
  0
LINE
  5
   4FC
  8
0
  6
CONTINUOUS
 62
   212
 10
-468.125038146973
 20
-36.5234146118164
 30
0.0
 11
-468.375038146973
 21
-36.5234146118164
 31
0.0
  0
LINE
  5
   4FD
  8
0
  6
CONTINUOUS
 62
   212
 10
-468.125038146973
 20
-28.0234146118164
 30
0.0
 11
-468.375038146973
 21
-28.0234146118164
 31
0.0
  0
LINE
  5
   4FE
  8
0
  6
CONTINUOUS
 62
   212
 10
-468.125038146973
 20
-34.0234146118164
 30
0.0
 11
-468.375038146973
 21
-34.0234146118164
 31
0.0
  0
LINE
  5
   4FF
  8
0
  6
CONTINUOUS
 62
   212
 10
-468.125038146973
 20
-30.5234146118164
 30
0.0
 11
-468.375038146973
 21
-30.5234146118164
 31
0.0
  0
LINE
  5
   500
  8
0
  6
CONTINUOUS
 62
   212
 10
-468.125038146973
 20
-71.5234146118164
 30
0.0
 11
-468.375038146973
 21
-71.5234146118164
 31
0.0
  0
LINE
  5
   501
  8
0
  6
CONTINUOUS
 62
   212
 10
-468.125038146973
 20
-63.0234146118164
 30
0.0
 11
-468.375038146973
 21
-63.0234146118164
 31
0.0
  0
LINE
  5
   502
  8
0
  6
CONTINUOUS
 62
   212
 10
-468.125038146973
 20
-69.0234146118164
 30
0.0
 11
-468.375038146973
 21
-69.0234146118164
 31
0.0
  0
LINE
  5
   503
  8
0
  6
CONTINUOUS
 62
   212
 10
-468.125038146973
 20
-65.5234146118164
 30
0.0
 11
-468.375038146973
 21
-65.5234146118164
 31
0.0
  0
LINE
  5
   504
  8
0
  6
CONTINUOUS
 62
   210
 10
-483.875061035156
 20
-56.0234107971191
 30
0.0
 11
-483.875061035156
 21
-61.0234031677246
 31
0.0
  0
LINE
  5
   505
  8
0
  6
CONTINUOUS
 62
     3
 10
-484.625061035156
 20
-55.7734146118164
 30
0.0
 11
-484.625061035156
 21
-61.2734069824219
 31
0.0
  0
LINE
  5
   506
  8
0
  6
CONTINUOUS
 62
     3
 10
-484.625061035156
 20
-38.2734069824219
 30
0.0
 11
-484.625061035156
 21
-43.7734146118164
 31
0.0
  0
LINE
  5
   507
  8
0
  6
CONTINUOUS
 62
   253
 10
-492.125061035156
 20
-55.2734146118164
 30
0.0
 11
-492.125061035156
 21
-55.7734069824219
 31
0.0
  0
LINE
  5
   508
  8
0
  6
CONTINUOUS
 62
   253
 10
-492.125061035156
 20
-43.7734069824219
 30
0.0
 11
-492.125061035156
 21
-44.2734146118164
 31
0.0
  0
LINE
  5
   509
  8
0
  6
CONTINUOUS
 62
     7
 10
-525.025039672852
 20
-44.2734146118164
 30
0.0
 11
-525.025039672852
 21
-45.0234146118164
 31
0.0
  0
LINE
  5
   50A
  8
0
  6
CONTINUOUS
 62
     7
 10
-525.025039672852
 20
-45.0950088500977
 30
0.0
 11
-525.025039672852
 21
-54.4518241882324
 31
0.0
  0
LINE
  5
   50B
  8
0
  6
CONTINUOUS
 62
     7
 10
-525.025039672852
 20
-54.5234146118164
 30
0.0
 11
-525.025039672852
 21
-55.2734146118164
 31
0.0
  0
LINE
  5
   50C
  8
0
  6
CONTINUOUS
 62
     7
 10
-526.275039672852
 20
-44.2734146118164
 30
0.0
 11
-526.275039672852
 21
-55.2734146118164
 31
0.0
  0
LINE
  5
   50D
  8
0
  6
CONTINUOUS
 62
     7
 10
-529.275039672852
 20
-44.2734146118164
 30
0.0
 11
-529.275039672852
 21
-55.2734146118164
 31
0.0
  0
LINE
  5
   50E
  8
0
  6
CONTINUOUS
 62
     7
 10
-530.525039672852
 20
-54.5234146118164
 30
0.0
 11
-530.525039672852
 21
-55.2734146118164
 31
0.0
  0
LINE
  5
   50F
  8
0
  6
CONTINUOUS
 62
     7
 10
-530.525039672852
 20
-45.0950088500977
 30
0.0
 11
-530.525039672852
 21
-54.4518241882324
 31
0.0
  0
LINE
  5
   510
  8
0
  6
CONTINUOUS
 62
     7
 10
-530.525039672852
 20
-44.2734146118164
 30
0.0
 11
-530.525039672852
 21
-45.0234146118164
 31
0.0
  0
LINE
  5
   511
  8
0
  6
CONTINUOUS
 62
     3
 10
-518.525039672852
 20
-54.5234146118164
 30
0.0
 11
-521.525039672852
 21
-54.5234146118164
 31
0.0
  0
LINE
  5
   512
  8
0
  6
CONTINUOUS
 62
     3
 10
-518.525039672852
 20
-45.0234146118164
 30
0.0
 11
-521.525039672852
 21
-45.0234146118164
 31
0.0
  0
LINE
  5
   513
  8
0
  6
CONTINUOUS
 62
     3
 10
-521.525039672852
 20
-45.0234146118164
 30
0.0
 11
-521.525039672852
 21
-54.5234146118164
 31
0.0
  0
LINE
  5
   514
  8
0
  6
CONTINUOUS
 62
     3
 10
-518.525039672852
 20
-45.0234146118164
 30
0.0
 11
-518.525039672852
 21
-46.2263145446777
 31
0.0
  0
LINE
  5
   515
  8
0
  6
CONTINUOUS
 62
     3
 10
-518.525039672852
 20
-48.6162109375
 30
0.0
 11
-518.525039672852
 21
-50.9306144714355
 31
0.0
  0
LINE
  5
   516
  8
0
  6
CONTINUOUS
 62
     3
 10
-518.525039672852
 20
-53.3205223083496
 30
0.0
 11
-518.525039672852
 21
-54.5234146118164
 31
0.0
  0
LINE
  5
   517
  8
0
  6
CONTINUOUS
 62
     3
 10
-522.025039672852
 20
-54.5234146118164
 30
0.0
 11
-525.025039672852
 21
-54.5234146118164
 31
0.0
  0
LINE
  5
   518
  8
0
  6
CONTINUOUS
 62
     3
 10
-522.025039672852
 20
-45.0234146118164
 30
0.0
 11
-525.025039672852
 21
-45.0234146118164
 31
0.0
  0
LINE
  5
   519
  8
0
  6
CONTINUOUS
 62
     3
 10
-525.025039672852
 20
-54.4518241882324
 30
0.0
 11
-525.025039672852
 21
-54.5234146118164
 31
0.0
  0
LINE
  5
   51A
  8
0
  6
CONTINUOUS
 62
     3
 10
-525.025039672852
 20
-45.0234146118164
 30
0.0
 11
-525.025039672852
 21
-45.0950126647949
 31
0.0
  0
LINE
  5
   51B
  8
0
  6
CONTINUOUS
 62
     3
 10
-522.025039672852
 20
-45.0234146118164
 30
0.0
 11
-522.025039672852
 21
-54.5234146118164
 31
0.0
  0
LINE
  5
   51C
  8
0
  6
CONTINUOUS
 62
     3
 10
-530.525039672852
 20
-54.5234146118164
 30
0.0
 11
-533.525039672852
 21
-54.5234146118164
 31
0.0
  0
LINE
  5
   51D
  8
0
  6
CONTINUOUS
 62
     3
 10
-530.525039672852
 20
-45.0234146118164
 30
0.0
 11
-533.525039672852
 21
-45.0234146118164
 31
0.0
  0
LINE
  5
   51E
  8
0
  6
CONTINUOUS
 62
     3
 10
-530.525039672852
 20
-45.0234146118164
 30
0.0
 11
-530.525039672852
 21
-45.0950126647949
 31
0.0
  0
LINE
  5
   51F
  8
0
  6
CONTINUOUS
 62
     3
 10
-530.525039672852
 20
-54.4518241882324
 30
0.0
 11
-530.525039672852
 21
-54.5234146118164
 31
0.0
  0
LINE
  5
   520
  8
0
  6
CONTINUOUS
 62
     3
 10
-533.525039672852
 20
-45.0234146118164
 30
0.0
 11
-533.525039672852
 21
-54.5234146118164
 31
0.0
  0
LINE
  5
   521
  8
0
  6
CONTINUOUS
 62
     7
 10
-518.125038146973
 20
-44.7734146118164
 30
0.0
 11
-518.125038146973
 21
-54.7734146118164
 31
0.0
  0
LINE
  5
   522
  8
0
  6
CONTINUOUS
 62
     7
 10
-518.525039672852
 20
-54.5234146118164
 30
0.0
 11
-518.525039672852
 21
-54.7734146118164
 31
0.0
  0
LINE
  5
   523
  8
0
  6
CONTINUOUS
 62
     7
 10
-518.525039672852
 20
-50.9306182861328
 30
0.0
 11
-518.525039672852
 21
-53.3205261230469
 31
0.0
  0
LINE
  5
   524
  8
0
  6
CONTINUOUS
 62
     7
 10
-518.525039672852
 20
-46.226318359375
 30
0.0
 11
-518.525039672852
 21
-48.6162147521973
 31
0.0
  0
LINE
  5
   525
  8
0
  6
CONTINUOUS
 62
     7
 10
-518.525039672852
 20
-44.7734146118164
 30
0.0
 11
-518.525039672852
 21
-45.0234146118164
 31
0.0
  0
LINE
  5
   526
  8
0
  6
CONTINUOUS
 62
   212
 10
-534.875038146973
 20
-47.7734146118164
 30
0.0
 11
-534.875038146973
 21
-51.7734146118164
 31
0.0
  0
LINE
  5
   527
  8
0
  6
CONTINUOUS
 62
     7
 10
-478.625061035156
 20
-38.5234222412109
 30
0.0
 11
-481.875061035156
 21
-38.5234222412109
 31
0.0
  0
LINE
  5
   528
  8
0
  6
CONTINUOUS
 62
     7
 10
-478.625061035156
 20
-26.0234222412109
 30
0.0
 11
-481.875053405762
 21
-26.0234222412109
 31
0.0
  0
LINE
  5
   529
  8
0
  6
CONTINUOUS
 62
     7
 10
-478.625061035156
 20
-56.0234069824219
 30
0.0
 11
-481.875061035156
 21
-56.0234069824219
 31
0.0
  0
LINE
  5
   52A
  8
0
  6
CONTINUOUS
 62
     7
 10
-478.625061035156
 20
-43.5234069824219
 30
0.0
 11
-481.875061035156
 21
-43.5234069824219
 31
0.0
  0
LINE
  5
   52B
  8
0
  6
CONTINUOUS
 62
     7
 10
-478.625061035156
 20
-91.0233993530274
 30
0.0
 11
-484.125061035156
 21
-91.0233993530274
 31
0.0
  0
LINE
  5
   52C
  8
0
  6
CONTINUOUS
 62
     7
 10
-478.625061035156
 20
-61.0233993530273
 30
0.0
 11
-481.875061035156
 21
-61.0233993530273
 31
0.0
  0
LINE
  5
   52D
  8
0
  6
CONTINUOUS
 62
     7
 10
-478.625061035156
 20
-91.5233993530273
 30
0.0
 11
-481.875061035156
 21
-91.5233993530273
 31
0.0
  0
LINE
  5
   52E
  8
0
  6
CONTINUOUS
 62
     7
 10
-460.125038146973
 20
-25.2733993530273
 30
0.0
 11
-478.625061035156
 21
-25.2733993530273
 31
0.0
  0
LINE
  5
   52F
  8
0
  6
CONTINUOUS
 62
     7
 10
-460.125038146973
 20
-91.7733993530273
 30
0.0
 11
-478.625061035156
 21
-91.7733993530273
 31
0.0
  0
LINE
  5
   530
  8
0
  6
CONTINUOUS
 62
   253
 10
-484.125061035156
 20
-61.2734069824219
 30
0.0
 11
-492.125061035156
 21
-61.2734069824219
 31
0.0
  0
LINE
  5
   531
  8
0
  6
CONTINUOUS
 62
   253
 10
-484.125061035156
 20
-73.2734069824219
 30
0.0
 11
-492.125061035156
 21
-73.2734069824219
 31
0.0
  0
LINE
  5
   532
  8
0
  6
CONTINUOUS
 62
   253
 10
-492.125061035156
 20
-62.2734069824219
 30
0.0
 11
-499.025039672852
 21
-62.2734069824219
 31
0.0
  0
LINE
  5
   533
  8
0
  6
CONTINUOUS
 62
   253
 10
-492.125061035156
 20
-72.2734069824219
 30
0.0
 11
-499.025039672852
 21
-72.2734069824219
 31
0.0
  0
LINE
  5
   534
  8
0
  6
CONTINUOUS
 62
   253
 10
-484.125061035156
 20
-26.2734069824219
 30
0.0
 11
-492.125061035156
 21
-26.2734069824219
 31
0.0
  0
LINE
  5
   535
  8
0
  6
CONTINUOUS
 62
   253
 10
-484.125061035156
 20
-38.2734069824219
 30
0.0
 11
-492.125061035156
 21
-38.2734069824219
 31
0.0
  0
LINE
  5
   536
  8
0
  6
CONTINUOUS
 62
   253
 10
-492.125061035156
 20
-27.2734069824219
 30
0.0
 11
-499.025039672852
 21
-27.2734069824219
 31
0.0
  0
LINE
  5
   537
  8
0
  6
CONTINUOUS
 62
   253
 10
-492.125061035156
 20
-37.2734069824219
 30
0.0
 11
-499.025039672852
 21
-37.2734069824219
 31
0.0
  0
LINE
  5
   538
  8
0
  6
CONTINUOUS
 62
   253
 10
-484.125038146973
 20
-43.7734146118164
 30
0.0
 11
-491.625038146973
 21
-43.7734146118164
 31
0.0
  0
LINE
  5
   539
  8
0
  6
CONTINUOUS
 62
   253
 10
-484.125038146973
 20
-55.7734146118164
 30
0.0
 11
-491.625038146973
 21
-55.7734146118164
 31
0.0
  0
LINE
  5
   53A
  8
0
  6
CONTINUOUS
 62
   253
 10
-491.625036558933
 20
-43.7734155296324
 30
0.0
 11
-492.125036541818
 21
-44.2734155125181
 31
0.0
  0
LINE
  5
   53B
  8
0
  6
CONTINUOUS
 62
   253
 10
-491.625035576246
 20
-55.7734166420596
 30
0.0
 11
-492.125035559132
 21
-55.2734166591739
 31
0.0
  0
LINE
  5
   53C
  8
0
  6
CONTINUOUS
 62
     7
 10
-503.275039672852
 20
-26.7734298706055
 30
0.0
 11
-504.525039672852
 21
-26.7734298706055
 31
0.0
  0
LINE
  5
   53D
  8
0
  6
CONTINUOUS
 62
     7
 10
-503.275039672852
 20
-37.7734298706055
 30
0.0
 11
-504.525039672852
 21
-37.7734298706055
 31
0.0
  0
LINE
  5
   53E
  8
0
  6
CONTINUOUS
 62
     7
 10
-499.025039672852
 20
-26.7734298706055
 30
0.0
 11
-500.275039672852
 21
-26.7734298706055
 31
0.0
  0
LINE
  5
   53F
  8
0
  6
CONTINUOUS
 62
     7
 10
-499.025039672852
 20
-37.7734298706055
 30
0.0
 11
-500.275039672852
 21
-37.7734298706055
 31
0.0
  0
LINE
  5
   540
  8
0
  6
CONTINUOUS
 62
     3
 10
-492.525039672852
 20
-49.7734298706055
 30
0.0
 11
-495.525039672852
 21
-49.7734298706055
 31
0.0
  0
LINE
  5
   541
  8
0
  6
CONTINUOUS
 62
     3
 10
-496.025039672852
 20
-49.7734298706055
 30
0.0
 11
-499.025039672852
 21
-49.7734298706055
 31
0.0
  0
LINE
  5
   542
  8
0
  6
CONTINUOUS
 62
     3
 10
-504.525039672852
 20
-49.7734298706055
 30
0.0
 11
-507.525039672852
 21
-49.7734298706055
 31
0.0
  0
LINE
  5
   543
  8
0
  6
CONTINUOUS
 62
     7
 10
-492.125038146973
 20
-27.2734298706055
 30
0.0
 11
-492.525039672852
 21
-27.2734298706055
 31
0.0
  0
LINE
  5
   544
  8
0
  6
CONTINUOUS
 62
     7
 10
-492.125038146973
 20
-37.2734298706055
 30
0.0
 11
-492.525039672852
 21
-37.2734298706055
 31
0.0
  0
LINE
  5
   545
  8
0
  6
CONTINUOUS
 62
   212
 10
-507.875036116101
 20
-29.2734153135647
 30
0.0
 11
-508.875036081872
 21
-30.2734152793361
 31
0.0
  0
LINE
  5
   546
  8
0
  6
CONTINUOUS
 62
   212
 10
-507.875035133414
 20
-35.2734168581273
 30
0.0
 11
-508.875035099186
 21
-34.2734168923558
 31
0.0
  0
LINE
  5
   547
  8
0
  6
CONTINUOUS
 62
   212
 10
-507.525039672852
 20
-29.2734146118164
 30
0.0
 11
-507.875038146973
 21
-29.2734146118164
 31
0.0
  0
LINE
  5
   548
  8
0
  6
CONTINUOUS
 62
   212
 10
-500.275039672852
 20
-29.2734146118164
 30
0.0
 11
-503.275039672852
 21
-29.2734146118164
 31
0.0
  0
LINE
  5
   549
  8
0
  6
CONTINUOUS
 62
   212
 10
-495.525039672852
 20
-29.2734146118164
 30
0.0
 11
-496.025039672852
 21
-29.2734146118164
 31
0.0
  0
LINE
  5
   54A
  8
0
  6
CONTINUOUS
 62
   212
 10
-507.875038146973
 20
-29.2734146118164
 30
0.0
 11
-507.875038146973
 21
-35.2734146118164
 31
0.0
  0
LINE
  5
   54B
  8
0
  6
CONTINUOUS
 62
   212
 10
-507.525039672852
 20
-35.2734146118164
 30
0.0
 11
-507.875038146973
 21
-35.2734146118164
 31
0.0
  0
LINE
  5
   54C
  8
0
  6
CONTINUOUS
 62
   212
 10
-500.275039672852
 20
-35.2734146118164
 30
0.0
 11
-503.275039672852
 21
-35.2734146118164
 31
0.0
  0
LINE
  5
   54D
  8
0
  6
CONTINUOUS
 62
   212
 10
-495.525039672852
 20
-35.2734146118164
 30
0.0
 11
-496.025039672852
 21
-35.2734146118164
 31
0.0
  0
LINE
  5
   54E
  8
0
  6
CONTINUOUS
 62
   253
 10
-491.625038146973
 20
-43.7734069824219
 30
0.0
 11
-492.125061035156
 21
-43.7734069824219
 31
0.0
  0
LINE
  5
   54F
  8
0
  6
CONTINUOUS
 62
   253
 10
-491.625038146973
 20
-55.7734069824219
 30
0.0
 11
-492.125061035156
 21
-55.7734069824219
 31
0.0
  0
LINE
  5
   550
  8
0
  6
CONTINUOUS
 62
   253
 10
-492.125038146973
 20
-44.7734069824219
 30
0.0
 11
-517.625061035156
 21
-44.7734069824219
 31
0.0
  0
LINE
  5
   551
  8
0
  6
CONTINUOUS
 62
   253
 10
-492.125038146973
 20
-54.7734069824219
 30
0.0
 11
-517.625061035156
 21
-54.7734069824219
 31
0.0
  0
LINE
  5
   552
  8
0
  6
CONTINUOUS
 62
   253
 10
-517.625063250699
 20
-44.7734065758882
 30
0.0
 11
-517.978617026109
 21
-44.9198566134052
 31
0.0
  0
LINE
  5
   553
  8
0
  6
CONTINUOUS
 62
   253
 10
-517.978612736732
 20
-44.9198585629115
 30
0.0
 11
-518.125058965007
 21
-45.2734085157234
 31
0.0
  0
LINE
  5
   554
  8
0
  6
CONTINUOUS
 62
   253
 10
-517.625063434954
 20
-54.7734059092994
 30
0.0
 11
-517.978617206988
 21
-54.6269596810163
 31
0.0
  0
LINE
  5
   555
  8
0
  6
CONTINUOUS
 62
   253
 10
-517.978616373328
 20
-54.6269592736818
 30
0.0
 11
-518.125062601611
 21
-54.2734055016472
 31
0.0
  0
LINE
  5
   556
  8
0
  6
CONTINUOUS
 62
     7
 10
-525.025039672852
 20
-55.2734146118164
 30
0.0
 11
-526.275039672852
 21
-55.2734146118164
 31
0.0
  0
LINE
  5
   557
  8
0
  6
CONTINUOUS
 62
     7
 10
-525.025039672852
 20
-44.2734146118164
 30
0.0
 11
-526.275039672852
 21
-44.2734146118164
 31
0.0
  0
LINE
  5
   558
  8
0
  6
CONTINUOUS
 62
     7
 10
-529.275039672852
 20
-55.2734146118164
 30
0.0
 11
-530.525039672852
 21
-55.2734146118164
 31
0.0
  0
LINE
  5
   559
  8
0
  6
CONTINUOUS
 62
     7
 10
-529.275039672852
 20
-44.2734146118164
 30
0.0
 11
-530.525039672852
 21
-44.2734146118164
 31
0.0
  0
LINE
  5
   55A
  8
0
  6
CONTINUOUS
 62
     3
 10
-518.525039672852
 20
-49.7734146118164
 30
0.0
 11
-521.525039672852
 21
-49.7734146118164
 31
0.0
  0
LINE
  5
   55B
  8
0
  6
CONTINUOUS
 62
     3
 10
-522.025039672852
 20
-49.7734146118164
 30
0.0
 11
-525.025039672852
 21
-49.7734146118164
 31
0.0
  0
LINE
  5
   55C
  8
0
  6
CONTINUOUS
 62
     3
 10
-530.525039672852
 20
-49.7734146118164
 30
0.0
 11
-533.525039672852
 21
-49.7734146118164
 31
0.0
  0
LINE
  5
   55D
  8
0
  6
CONTINUOUS
 62
     7
 10
-518.125038146973
 20
-54.7734146118164
 30
0.0
 11
-518.525039672852
 21
-54.7734146118164
 31
0.0
  0
LINE
  5
   55E
  8
0
  6
CONTINUOUS
 62
     7
 10
-518.125038146973
 20
-44.7734146118164
 30
0.0
 11
-518.525039672852
 21
-44.7734146118164
 31
0.0
  0
LINE
  5
   55F
  8
0
  6
CONTINUOUS
 62
   212
 10
-533.875034465958
 20
-52.7734170806128
 30
0.0
 11
-534.875034431729
 21
-51.7734171148413
 31
0.0
  0
LINE
  5
   560
  8
0
  6
CONTINUOUS
 62
   212
 10
-533.875035448644
 20
-46.7734150910792
 30
0.0
 11
-534.875035414416
 21
-47.7734150568507
 31
0.0
  0
LINE
  5
   561
  8
0
  6
CONTINUOUS
 62
   212
 10
-533.525039672852
 20
-52.7734146118164
 30
0.0
 11
-533.875038146973
 21
-52.7734146118164
 31
0.0
  0
LINE
  5
   562
  8
0
  6
CONTINUOUS
 62
   212
 10
-526.275039672852
 20
-52.7734146118164
 30
0.0
 11
-529.275039672852
 21
-52.7734146118164
 31
0.0
  0
LINE
  5
   563
  8
0
  6
CONTINUOUS
 62
   212
 10
-521.525039672852
 20
-52.7734146118164
 30
0.0
 11
-522.025039672852
 21
-52.7734146118164
 31
0.0
  0
LINE
  5
   564
  8
0
  6
CONTINUOUS
 62
   212
 10
-533.875038146973
 20
-46.7734146118164
 30
0.0
 11
-533.875038146973
 21
-52.7734146118164
 31
0.0
  0
LINE
  5
   565
  8
0
  6
CONTINUOUS
 62
   212
 10
-533.525039672852
 20
-46.7734146118164
 30
0.0
 11
-533.875038146973
 21
-46.7734146118164
 31
0.0
  0
LINE
  5
   566
  8
0
  6
CONTINUOUS
 62
   212
 10
-526.275039672852
 20
-46.7734146118164
 30
0.0
 11
-529.275039672852
 21
-46.7734146118164
 31
0.0
  0
LINE
  5
   567
  8
0
  6
CONTINUOUS
 62
   212
 10
-521.525039672852
 20
-46.7734146118164
 30
0.0
 11
-522.025039672852
 21
-46.7734146118164
 31
0.0
  0
LINE
  5
   568
  8
0
  6
CONTINUOUS
 62
     7
 10
-478.625061035156
 20
-41.0234069824219
 30
0.0
 11
-478.625061035156
 21
-58.5234069824219
 31
0.0
  0
LINE
  5
   569
  8
0
  6
CONTINUOUS
 62
     7
 10
-478.625061035156
 20
-58.5234069824219
 30
0.0
 11
-478.625061035156
 21
-76.0233860015869
 31
0.0
  0
LINE
  5
   56A
  8
0
  6
CONTINUOUS
 62
   210
 10
-460.125038146973
 20
-58.5234069824219
 30
0.0
 11
-460.125038146973
 21
-61.0233995970952
 31
0.0
  0
LINE
  5
   56B
  8
0
  6
CONTINUOUS
 62
   210
 10
-460.125038146973
 20
-41.0234069824219
 30
0.0
 11
-460.125038146973
 21
-43.5233996865764
 31
0.0
  0
LINE
  5
   56C
  8
0
  6
CONTINUOUS
 62
     7
 10
-481.875061035156
 20
-38.5234222412109
 30
0.0
 11
-483.875053405762
 21
-38.5234222412109
 31
0.0
  0
LINE
  5
   56D
  8
0
  6
CONTINUOUS
 62
     7
 10
-481.875061035156
 20
-43.5234069824219
 30
0.0
 11
-483.875053405762
 21
-43.5234069824219
 31
0.0
  0
LINE
  5
   56E
  8
0
  6
CONTINUOUS
 62
     7
 10
-481.875061035156
 20
-56.0234069824219
 30
0.0
 11
-483.875061035156
 21
-56.0234069824219
 31
0.0
  0
LINE
  5
   56F
  8
0
  6
CONTINUOUS
 62
     7
 10
-481.875061035156
 20
-61.0233993530273
 30
0.0
 11
-483.875061035156
 21
-61.0233993530273
 31
0.0
  0
LINE
  5
   570
  8
0
  6
CONTINUOUS
 62
   210
 10
-481.875061035156
 20
-91.5233993530273
 30
0.0
 11
-484.875061035156
 21
-91.5233993530273
 31
0.0
  0
LINE
  5
   571
  8
0
  6
CONTINUOUS
 62
     2
 10
-465.625038146973
 20
-54.3984146118164
 30
0.0
 11
-468.125038146973
 21
-54.3984146118164
 31
0.0
  0
LINE
  5
   572
  8
0
  6
CONTINUOUS
 62
     2
 10
-465.625038146973
 20
-45.1484146118164
 30
0.0
 11
-468.125038146973
 21
-45.1484146118164
 31
0.0
  0
LINE
  5
   573
  8
0
  6
CONTINUOUS
 62
     2
 10
-468.125038146973
 20
-45.1484146118164
 30
0.0
 11
-468.125038146973
 21
-54.3984146118164
 31
0.0
  0
LINE
  5
   574
  8
0
  6
CONTINUOUS
 62
     2
 10
-460.625038147003
 20
-54.3984107971038
 30
0.0
 11
-465.625038147003
 21
-54.3984146118011
 31
0.0
  0
LINE
  5
   575
  8
0
  6
CONTINUOUS
 62
     2
 10
-460.625038147006
 20
-45.148410797101
 30
0.0
 11
-465.625038147006
 21
-45.1484146117983
 31
0.0
  0
LINE
  5
   576
  8
0
  6
CONTINUOUS
 62
     2
 10
-465.625038146973
 20
-54.3984031677246
 30
0.0
 11
-465.625038146973
 21
-56.2733993530273
 31
0.0
  0
LINE
  5
   577
  8
0
  6
CONTINUOUS
 62
     2
 10
-465.625038146973
 20
-43.2733993530273
 30
0.0
 11
-465.625038146973
 21
-45.1483993530273
 31
0.0
  0
LINE
  5
   578
  8
0
  6
CONTINUOUS
 62
     2
 10
-460.125038146973
 20
-43.2733993530273
 30
0.0
 11
-460.125038146973
 21
-44.7733993530273
 31
0.0
  0
LINE
  5
   579
  8
0
  6
CONTINUOUS
 62
     2
 10
-460.125038146973
 20
-54.7733993530273
 30
0.0
 11
-460.125038146973
 21
-56.2733993530273
 31
0.0
  0
LINE
  5
   57A
  8
0
  6
CONTINUOUS
 62
     2
 10
-460.125038146973
 20
-54.7733993530273
 30
0.0
 11
-460.625038146973
 21
-54.7733993530273
 31
0.0
  0
LINE
  5
   57B
  8
0
  6
CONTINUOUS
 62
     2
 10
-460.125038146973
 20
-44.7733993530273
 30
0.0
 11
-460.625038146973
 21
-44.7733993530273
 31
0.0
  0
LINE
  5
   57C
  8
0
  6
CONTINUOUS
 62
     2
 10
-460.125038146973
 20
-44.7733993530273
 30
0.0
 11
-460.125038146973
 21
-54.7733993530273
 31
0.0
  0
LINE
  5
   57D
  8
0
  6
CONTINUOUS
 62
     2
 10
-460.625038146973
 20
-44.7733993530273
 30
0.0
 11
-460.625038146973
 21
-45.1484146118164
 31
0.0
  0
LINE
  5
   57E
  8
0
  6
CONTINUOUS
 62
     2
 10
-460.625038146973
 20
-54.3984146118164
 30
0.0
 11
-460.625038146973
 21
-54.7733993530273
 31
0.0
  0
LINE
  5
   57F
  8
0
  6
CONTINUOUS
 62
     2
 10
-463.759014129639
 20
-54.3984146118164
 30
0.0
 11
-463.759014129639
 21
-54.8983917236328
 31
0.0
  0
LINE
  5
   580
  8
0
  6
CONTINUOUS
 62
     2
 10
-463.759012645774
 20
-54.8983925865609
 30
0.0
 11
-465.625036615363
 21
-54.3984040128106
 31
0.0
  0
LINE
  5
   581
  8
0
  6
CONTINUOUS
 62
     2
 10
-463.759014129639
 20
-44.6483879089355
 30
0.0
 11
-463.759014129639
 21
-45.1483879089356
 31
0.0
  0
LINE
  5
   582
  8
0
  6
CONTINUOUS
 62
     2
 10
-463.759010753849
 20
-44.648389874545
 30
0.0
 11
-465.625034723441
 21
-45.1484012932197
 31
0.0
  0
LINE
  5
   583
  8
0
  6
CONTINUOUS
 62
     2
 10
-465.625038146973
 20
-36.8984146118164
 30
0.0
 11
-468.125038146973
 21
-36.8984146118164
 31
0.0
  0
LINE
  5
   584
  8
0
  6
CONTINUOUS
 62
     2
 10
-465.625038146973
 20
-27.6484146118164
 30
0.0
 11
-468.125038146973
 21
-27.6484146118164
 31
0.0
  0
LINE
  5
   585
  8
0
  6
CONTINUOUS
 62
     2
 10
-468.125038146973
 20
-27.6484146118164
 30
0.0
 11
-468.125038146973
 21
-36.8984146118164
 31
0.0
  0
LINE
  5
   586
  8
0
  6
CONTINUOUS
 62
     2
 10
-460.625038146973
 20
-36.8984146118164
 30
0.0
 11
-465.625038146973
 21
-36.8984146118164
 31
0.0
  0
LINE
  5
   587
  8
0
  6
CONTINUOUS
 62
     2
 10
-460.625038146973
 20
-27.6484146118164
 30
0.0
 11
-465.625038146973
 21
-27.6484146118164
 31
0.0
  0
LINE
  5
   588
  8
0
  6
CONTINUOUS
 62
     2
 10
-465.625038146973
 20
-36.8983993530273
 30
0.0
 11
-465.625038146973
 21
-38.7733993530273
 31
0.0
  0
LINE
  5
   589
  8
0
  6
CONTINUOUS
 62
     2
 10
-465.625038146973
 20
-25.7733993530273
 30
0.0
 11
-465.625038146973
 21
-27.6483993530273
 31
0.0
  0
LINE
  5
   58A
  8
0
  6
CONTINUOUS
 62
     2
 10
-460.125038146973
 20
-25.7733993530273
 30
0.0
 11
-460.125038146973
 21
-27.2733993530273
 31
0.0
  0
LINE
  5
   58B
  8
0
  6
CONTINUOUS
 62
     2
 10
-460.125038146973
 20
-37.2733993530273
 30
0.0
 11
-460.125038146973
 21
-38.7733993530273
 31
0.0
  0
LINE
  5
   58C
  8
0
  6
CONTINUOUS
 62
     2
 10
-460.125038146973
 20
-37.2733993530273
 30
0.0
 11
-460.625038146973
 21
-37.2733993530273
 31
0.0
  0
LINE
  5
   58D
  8
0
  6
CONTINUOUS
 62
     2
 10
-460.125038146973
 20
-27.2733993530273
 30
0.0
 11
-460.625038146973
 21
-27.2733993530273
 31
0.0
  0
LINE
  5
   58E
  8
0
  6
CONTINUOUS
 62
     2
 10
-460.125038146973
 20
-27.2733993530273
 30
0.0
 11
-460.125038146973
 21
-37.2733993530273
 31
0.0
  0
LINE
  5
   58F
  8
0
  6
CONTINUOUS
 62
     2
 10
-460.625038146973
 20
-27.2733993530273
 30
0.0
 11
-460.625038146973
 21
-27.6484146118164
 31
0.0
  0
LINE
  5
   590
  8
0
  6
CONTINUOUS
 62
     2
 10
-460.625038146973
 20
-36.8984146118164
 30
0.0
 11
-460.625038146973
 21
-37.2733993530273
 31
0.0
  0
LINE
  5
   591
  8
0
  6
CONTINUOUS
 62
     2
 10
-463.759014129639
 20
-36.8984146118164
 30
0.0
 11
-463.759014129639
 21
-37.3983917236328
 31
0.0
  0
LINE
  5
   592
  8
0
  6
CONTINUOUS
 62
     2
 10
-463.759014778451
 20
-37.3983912619492
 30
0.0
 11
-465.625038748042
 21
-36.8983988718138
 31
0.0
  0
LINE
  5
   593
  8
0
  6
CONTINUOUS
 62
     2
 10
-463.759014129639
 20
-27.1483917236328
 30
0.0
 11
-463.759014129639
 21
-27.6483917236328
 31
0.0
  0
LINE
  5
   594
  8
0
  6
CONTINUOUS
 62
     2
 10
-463.759009388288
 20
-27.1483956466358
 30
0.0
 11
-465.625033357881
 21
-27.6484032489074
 31
0.0
  0
LINE
  5
   595
  8
0
  6
CONTINUOUS
 62
     2
 10
-465.625038146973
 20
-71.8984146118164
 30
0.0
 11
-468.125038146973
 21
-71.8984146118164
 31
0.0
  0
LINE
  5
   596
  8
0
  6
CONTINUOUS
 62
     2
 10
-465.625038146973
 20
-62.6484146118164
 30
0.0
 11
-468.125038146973
 21
-62.6484146118164
 31
0.0
  0
LINE
  5
   597
  8
0
  6
CONTINUOUS
 62
     2
 10
-468.125038146973
 20
-62.6484146118164
 30
0.0
 11
-468.125038146973
 21
-71.8984146118164
 31
0.0
  0
LINE
  5
   598
  8
0
  6
CONTINUOUS
 62
     2
 10
-460.625034332306
 20
-71.8984107971089
 30
0.0
 11
-465.625038147003
 21
-71.8984146118063
 31
0.0
  0
LINE
  5
   599
  8
0
  6
CONTINUOUS
 62
     2
 10
-460.625041961703
 20
-62.6484107971062
 30
0.0
 11
-465.625038147006
 21
-62.6484146118034
 31
0.0
  0
LINE
  5
   59A
  8
0
  6
CONTINUOUS
 62
     2
 10
-465.625038146973
 20
-71.8984031677246
 30
0.0
 11
-465.625038146973
 21
-73.7733993530273
 31
0.0
  0
LINE
  5
   59B
  8
0
  6
CONTINUOUS
 62
     2
 10
-465.625038146973
 20
-60.7733993530274
 30
0.0
 11
-465.625038146973
 21
-62.6483993530274
 31
0.0
  0
LINE
  5
   59C
  8
0
  6
CONTINUOUS
 62
     2
 10
-460.125038146973
 20
-60.7733993530274
 30
0.0
 11
-460.125038146973
 21
-62.2733993530273
 31
0.0
  0
LINE
  5
   59D
  8
0
  6
CONTINUOUS
 62
     2
 10
-460.125038146973
 20
-72.2733993530273
 30
0.0
 11
-460.125038146973
 21
-73.7733993530273
 31
0.0
  0
LINE
  5
   59E
  8
0
  6
CONTINUOUS
 62
     2
 10
-460.125038146973
 20
-72.2733993530273
 30
0.0
 11
-460.625038146973
 21
-72.2733993530273
 31
0.0
  0
LINE
  5
   59F
  8
0
  6
CONTINUOUS
 62
     2
 10
-460.125038146973
 20
-62.2733993530273
 30
0.0
 11
-460.625038146973
 21
-62.2733993530273
 31
0.0
  0
LINE
  5
   5A0
  8
0
  6
CONTINUOUS
 62
     2
 10
-460.125038146973
 20
-62.2733993530273
 30
0.0
 11
-460.125038146973
 21
-72.2733993530273
 31
0.0
  0
LINE
  5
   5A1
  8
0
  6
CONTINUOUS
 62
     2
 10
-460.625038146973
 20
-62.2733993530273
 30
0.0
 11
-460.625038146973
 21
-62.6484146118164
 31
0.0
  0
LINE
  5
   5A2
  8
0
  6
CONTINUOUS
 62
     2
 10
-460.625038146973
 20
-71.8984146118164
 30
0.0
 11
-460.625038146973
 21
-72.2733993530273
 31
0.0
  0
LINE
  5
   5A3
  8
0
  6
CONTINUOUS
 62
     2
 10
-463.759014129639
 20
-71.8984146118164
 30
0.0
 11
-463.759014129639
 21
-72.3983917236328
 31
0.0
  0
LINE
  5
   5A4
  8
0
  6
CONTINUOUS
 62
     2
 10
-463.759012700032
 20
-72.3983923549896
 30
0.0
 11
-465.62503666962
 21
-71.8984037812393
 31
0.0
  0
LINE
  5
   5A5
  8
0
  6
CONTINUOUS
 62
     2
 10
-463.759014129639
 20
-62.1483879089356
 30
0.0
 11
-463.759014129639
 21
-62.6483879089356
 31
0.0
  0
LINE
  5
   5A6
  8
0
  6
CONTINUOUS
 62
     2
 10
-463.759010591438
 20
-62.1483891813939
 30
0.0
 11
-465.62503456103
 21
-62.6484006000686
 31
0.0
  0
LINE
  5
   5A7
  8
0
  6
CONTINUOUS
 62
     2
 10
-460.125038146973
 20
-56.2733993530273
 30
0.0
 11
-465.625038146973
 21
-56.2733993530273
 31
0.0
  0
LINE
  5
   5A8
  8
0
  6
CONTINUOUS
 62
     2
 10
-460.125038146973
 20
-43.2733993530273
 30
0.0
 11
-465.625038146973
 21
-43.2733993530273
 31
0.0
  0
LINE
  5
   5A9
  8
0
  6
CONTINUOUS
 62
     2
 10
-459.125038146973
 20
-43.5567330176733
 30
0.0
 11
-460.125037788107
 21
-43.5233996985386
 31
0.0
  0
LINE
  5
   5AA
  8
0
  6
CONTINUOUS
 62
     2
 10
-459.125038146973
 20
-55.9900662755735
 30
0.0
 11
-460.125037807659
 21
-56.0233995953599
 31
0.0
  0
LINE
  5
   5AB
  8
0
  6
CONTINUOUS
 62
     2
 10
-460.125038146973
 20
-38.7733993530273
 30
0.0
 11
-465.625038146973
 21
-38.7733993530273
 31
0.0
  0
LINE
  5
   5AC
  8
0
  6
CONTINUOUS
 62
     2
 10
-460.125038146973
 20
-25.7733993530273
 30
0.0
 11
-465.625038146973
 21
-25.7733993530273
 31
0.0
  0
LINE
  5
   5AD
  8
0
  6
CONTINUOUS
 62
     2
 10
-459.125038146973
 20
-26.0567331071545
 30
0.0
 11
-460.125037785128
 21
-26.023399788119
 31
0.0
  0
LINE
  5
   5AE
  8
0
  6
CONTINUOUS
 62
     2
 10
-459.125038146973
 20
-38.4900663650546
 30
0.0
 11
-460.125037810638
 21
-38.5233996849404
 31
0.0
  0
LINE
  5
   5AF
  8
0
  6
CONTINUOUS
 62
     2
 10
-460.125038146973
 20
-73.7733993530273
 30
0.0
 11
-465.625038146973
 21
-73.7733993530273
 31
0.0
  0
LINE
  5
   5B0
  8
0
  6
CONTINUOUS
 62
     2
 10
-460.125038146973
 20
-60.7733993530274
 30
0.0
 11
-465.625038146973
 21
-60.7733993530274
 31
0.0
  0
LINE
  5
   5B1
  8
0
  6
CONTINUOUS
 62
     2
 10
-459.125038146973
 20
-61.0567329281922
 30
0.0
 11
-460.125037791087
 21
-61.0233996089581
 31
0.0
  0
LINE
  5
   5B2
  8
0
  6
CONTINUOUS
 62
     2
 10
-459.125038146973
 20
-73.4900661860923
 30
0.0
 11
-460.125037804679
 21
-73.5233995057795
 31
0.0
  0
LINE
  5
   5B3
  8
0
  6
CONTINUOUS
 62
   210
 10
-469.375038146973
 20
-79.6484069824219
 30
0.0
 11
-469.375038146973
 21
-89.8984069824219
 31
0.0
  0
LINE
  5
   5B4
  8
0
  6
CONTINUOUS
 62
   210
 10
-465.625038146973
 20
-89.8984069824219
 30
0.0
 11
-469.375038146973
 21
-89.8984069824219
 31
0.0
  0
LINE
  5
   5B5
  8
0
  6
CONTINUOUS
 62
   210
 10
-465.625038146973
 20
-79.6484069824219
 30
0.0
 11
-469.375038146973
 21
-79.6484069824219
 31
0.0
  0
LINE
  5
   5B6
  8
0
  6
CONTINUOUS
 62
   212
 10
-468.125038146973
 20
-89.0234146118164
 30
0.0
 11
-468.375038146973
 21
-89.0234146118164
 31
0.0
  0
LINE
  5
   5B7
  8
0
  6
CONTINUOUS
 62
   212
 10
-468.125038146973
 20
-80.5234146118164
 30
0.0
 11
-468.375038146973
 21
-80.5234146118164
 31
0.0
  0
LINE
  5
   5B8
  8
0
  6
CONTINUOUS
 62
   212
 10
-468.125038146973
 20
-86.5234146118164
 30
0.0
 11
-468.375038146973
 21
-86.5234146118164
 31
0.0
  0
LINE
  5
   5B9
  8
0
  6
CONTINUOUS
 62
   212
 10
-468.125038146973
 20
-83.0234146118164
 30
0.0
 11
-468.375038146973
 21
-83.0234146118164
 31
0.0
  0
LINE
  5
   5BA
  8
0
  6
CONTINUOUS
 62
   210
 10
-460.125038146973
 20
-76.0234069824219
 30
0.0
 11
-460.125038146973
 21
-78.5233995970952
 31
0.0
  0
LINE
  5
   5BB
  8
0
  6
CONTINUOUS
 62
     2
 10
-465.625038146973
 20
-89.3984146118164
 30
0.0
 11
-468.125038146973
 21
-89.3984146118164
 31
0.0
  0
LINE
  5
   5BC
  8
0
  6
CONTINUOUS
 62
     2
 10
-465.625038146973
 20
-80.1484146118164
 30
0.0
 11
-468.125038146973
 21
-80.1484146118164
 31
0.0
  0
LINE
  5
   5BD
  8
0
  6
CONTINUOUS
 62
     2
 10
-468.125038146973
 20
-80.1484146118164
 30
0.0
 11
-468.125038146973
 21
-89.3984146118164
 31
0.0
  0
LINE
  5
   5BE
  8
0
  6
CONTINUOUS
 62
     2
 10
-460.625034332306
 20
-89.3984107971089
 30
0.0
 11
-465.625038147003
 21
-89.3984146118063
 31
0.0
  0
LINE
  5
   5BF
  8
0
  6
CONTINUOUS
 62
     2
 10
-460.625041961703
 20
-80.1484107971062
 30
0.0
 11
-465.625038147006
 21
-80.1484146118034
 31
0.0
  0
LINE
  5
   5C0
  8
0
  6
CONTINUOUS
 62
     2
 10
-465.625038146973
 20
-89.3984031677246
 30
0.0
 11
-465.625038146973
 21
-91.2733993530273
 31
0.0
  0
LINE
  5
   5C1
  8
0
  6
CONTINUOUS
 62
     2
 10
-465.625038146973
 20
-78.2733993530274
 30
0.0
 11
-465.625038146973
 21
-80.1483993530274
 31
0.0
  0
LINE
  5
   5C2
  8
0
  6
CONTINUOUS
 62
     2
 10
-460.125038146973
 20
-78.2733993530274
 30
0.0
 11
-460.125038146973
 21
-79.7733993530273
 31
0.0
  0
LINE
  5
   5C3
  8
0
  6
CONTINUOUS
 62
     2
 10
-460.125038146973
 20
-89.7733993530274
 30
0.0
 11
-460.125038146973
 21
-91.2733993530273
 31
0.0
  0
LINE
  5
   5C4
  8
0
  6
CONTINUOUS
 62
     2
 10
-460.125038146973
 20
-89.7733993530274
 30
0.0
 11
-460.625038146973
 21
-89.7733993530274
 31
0.0
  0
LINE
  5
   5C5
  8
0
  6
CONTINUOUS
 62
     2
 10
-460.125038146973
 20
-79.7733993530273
 30
0.0
 11
-460.625038146973
 21
-79.7733993530273
 31
0.0
  0
LINE
  5
   5C6
  8
0
  6
CONTINUOUS
 62
     2
 10
-460.125038146973
 20
-79.7733993530273
 30
0.0
 11
-460.125038146973
 21
-89.7733993530274
 31
0.0
  0
LINE
  5
   5C7
  8
0
  6
CONTINUOUS
 62
     2
 10
-460.625038146973
 20
-79.7733993530273
 30
0.0
 11
-460.625038146973
 21
-80.1484146118164
 31
0.0
  0
LINE
  5
   5C8
  8
0
  6
CONTINUOUS
 62
     2
 10
-460.625038146973
 20
-89.3984146118164
 30
0.0
 11
-460.625038146973
 21
-89.7733993530274
 31
0.0
  0
LINE
  5
   5C9
  8
0
  6
CONTINUOUS
 62
     2
 10
-463.759014129639
 20
-89.3984146118164
 30
0.0
 11
-463.759014129639
 21
-89.8983917236328
 31
0.0
  0
LINE
  5
   5CA
  8
0
  6
CONTINUOUS
 62
     2
 10
-463.759012700032
 20
-89.8983923549896
 30
0.0
 11
-465.62503666962
 21
-89.3984037812393
 31
0.0
  0
LINE
  5
   5CB
  8
0
  6
CONTINUOUS
 62
     2
 10
-463.759014129639
 20
-79.6483879089356
 30
0.0
 11
-463.759014129639
 21
-80.1483879089355
 31
0.0
  0
LINE
  5
   5CC
  8
0
  6
CONTINUOUS
 62
     2
 10
-463.759010591438
 20
-79.6483891813939
 30
0.0
 11
-465.62503456103
 21
-80.1484006000686
 31
0.0
  0
LINE
  5
   5CD
  8
0
  6
CONTINUOUS
 62
     2
 10
-460.125038146973
 20
-91.2733993530273
 30
0.0
 11
-465.625038146973
 21
-91.2733993530273
 31
0.0
  0
LINE
  5
   5CE
  8
0
  6
CONTINUOUS
 62
     2
 10
-460.125038146973
 20
-78.2733993530274
 30
0.0
 11
-465.625038146973
 21
-78.2733993530274
 31
0.0
  0
LINE
  5
   5CF
  8
0
  6
CONTINUOUS
 62
     2
 10
-459.125038146973
 20
-78.5567329281922
 30
0.0
 11
-460.125037791087
 21
-78.5233996089581
 31
0.0
  0
LINE
  5
   5D0
  8
0
  6
CONTINUOUS
 62
     2
 10
-459.125038146973
 20
-90.9900661860923
 30
0.0
 11
-460.125037804679
 21
-91.0233995057794
 31
0.0
  0
LINE
  5
   5D1
  8
0
  6
CONTINUOUS
 62
   210
 10
-460.125038146973
 20
-73.5233996066704
 30
0.0
 11
-460.125038146973
 21
-76.0234069824219
 31
0.0
  0
LINE
  5
   5D2
  8
0
  6
CONTINUOUS
 62
     7
 10
-478.625061035156
 20
-76.0234069824219
 30
0.0
 11
-478.625061035156
 21
-93.5233860015869
 31
0.0
  0
LINE
  5
   5D3
  8
0
  6
CONTINUOUS
 62
   253
 10
-492.125038146973
 20
-79.2734146118164
 30
0.0
 11
-492.125038146973
 21
-90.2734146118164
 31
0.0
  0
LINE
  5
   5D4
  8
0
  6
CONTINUOUS
 62
     7
 10
-503.275039672852
 20
-61.7734298706055
 30
0.0
 11
-503.275039672852
 21
-72.7734298706055
 31
0.0
  0
LINE
  5
   5D5
  8
0
  6
CONTINUOUS
 62
     7
 10
-504.525039672852
 20
-72.0234298706055
 30
0.0
 11
-504.525039672852
 21
-72.7734298706055
 31
0.0
  0
LINE
  5
   5D6
  8
0
  6
CONTINUOUS
 62
     7
 10
-504.525039672852
 20
-62.5950241088867
 30
0.0
 11
-504.525039672852
 21
-71.9518356323242
 31
0.0
  0
LINE
  5
   5D7
  8
0
  6
CONTINUOUS
 62
     7
 10
-504.525039672852
 20
-61.7734298706055
 30
0.0
 11
-504.525039672852
 21
-62.5234298706055
 31
0.0
  0
LINE
  5
   5D8
  8
0
  6
CONTINUOUS
 62
     7
 10
-499.025039672852
 20
-61.7734298706055
 30
0.0
 11
-499.025039672852
 21
-62.5234298706055
 31
0.0
  0
LINE
  5
   5D9
  8
0
  6
CONTINUOUS
 62
     7
 10
-499.025039672852
 20
-62.5950241088867
 30
0.0
 11
-499.025039672852
 21
-71.9518356323242
 31
0.0
  0
LINE
  5
   5DA
  8
0
  6
CONTINUOUS
 62
     7
 10
-499.025039672852
 20
-72.0234298706055
 30
0.0
 11
-499.025039672852
 21
-72.7734298706055
 31
0.0
  0
LINE
  5
   5DB
  8
0
  6
CONTINUOUS
 62
     7
 10
-500.275039672852
 20
-61.7734298706055
 30
0.0
 11
-500.275039672852
 21
-72.7734298706055
 31
0.0
  0
LINE
  5
   5DC
  8
0
  6
CONTINUOUS
 62
     3
 10
-492.525039672852
 20
-62.5234298706055
 30
0.0
 11
-495.525039672852
 21
-62.5234298706055
 31
0.0
  0
LINE
  5
   5DD
  8
0
  6
CONTINUOUS
 62
     3
 10
-492.525039672852
 20
-72.0234298706055
 30
0.0
 11
-495.525039672852
 21
-72.0234298706055
 31
0.0
  0
LINE
  5
   5DE
  8
0
  6
CONTINUOUS
 62
     3
 10
-495.525039672852
 20
-62.5234298706055
 30
0.0
 11
-495.525039672852
 21
-72.0234298706055
 31
0.0
  0
LINE
  5
   5DF
  8
0
  6
CONTINUOUS
 62
     3
 10
-492.525039672852
 20
-62.5234298706055
 30
0.0
 11
-492.525039672852
 21
-63.7263412475586
 31
0.0
  0
LINE
  5
   5E0
  8
0
  6
CONTINUOUS
 62
     3
 10
-492.525039672852
 20
-66.1162338256836
 30
0.0
 11
-492.525039672852
 21
-68.4306335449219
 31
0.0
  0
LINE
  5
   5E1
  8
0
  6
CONTINUOUS
 62
     3
 10
-492.525039672852
 20
-70.8205375671387
 30
0.0
 11
-492.525039672852
 21
-72.0234298706055
 31
0.0
  0
LINE
  5
   5E2
  8
0
  6
CONTINUOUS
 62
     3
 10
-496.025039672852
 20
-62.5234298706055
 30
0.0
 11
-499.025039672852
 21
-62.5234298706055
 31
0.0
  0
LINE
  5
   5E3
  8
0
  6
CONTINUOUS
 62
     3
 10
-496.025039672852
 20
-72.0234298706055
 30
0.0
 11
-499.025039672852
 21
-72.0234298706055
 31
0.0
  0
LINE
  5
   5E4
  8
0
  6
CONTINUOUS
 62
     3
 10
-499.025039672852
 20
-71.9518356323242
 30
0.0
 11
-499.025039672852
 21
-72.0234298706055
 31
0.0
  0
LINE
  5
   5E5
  8
0
  6
CONTINUOUS
 62
     3
 10
-499.025039672852
 20
-62.5234298706055
 30
0.0
 11
-499.025039672852
 21
-62.595027923584
 31
0.0
  0
LINE
  5
   5E6
  8
0
  6
CONTINUOUS
 62
     3
 10
-496.025039672852
 20
-62.5234298706055
 30
0.0
 11
-496.025039672852
 21
-72.0234298706055
 31
0.0
  0
LINE
  5
   5E7
  8
0
  6
CONTINUOUS
 62
     3
 10
-504.525039672852
 20
-62.5234298706055
 30
0.0
 11
-507.525039672852
 21
-62.5234298706055
 31
0.0
  0
LINE
  5
   5E8
  8
0
  6
CONTINUOUS
 62
     3
 10
-504.525039672852
 20
-72.0234298706055
 30
0.0
 11
-507.525039672852
 21
-72.0234298706055
 31
0.0
  0
LINE
  5
   5E9
  8
0
  6
CONTINUOUS
 62
     3
 10
-504.525039672852
 20
-62.5234298706055
 30
0.0
 11
-504.525039672852
 21
-62.595027923584
 31
0.0
  0
LINE
  5
   5EA
  8
0
  6
CONTINUOUS
 62
     3
 10
-504.525039672852
 20
-71.9518356323242
 30
0.0
 11
-504.525039672852
 21
-72.0234298706055
 31
0.0
  0
LINE
  5
   5EB
  8
0
  6
CONTINUOUS
 62
     3
 10
-507.525039672852
 20
-62.5234298706055
 30
0.0
 11
-507.525039672852
 21
-72.0234298706055
 31
0.0
  0
LINE
  5
   5EC
  8
0
  6
CONTINUOUS
 62
     7
 10
-492.525039672852
 20
-72.0234298706055
 30
0.0
 11
-492.525039672852
 21
-72.2734298706055
 31
0.0
  0
LINE
  5
   5ED
  8
0
  6
CONTINUOUS
 62
     7
 10
-492.525039672852
 20
-68.4306411743164
 30
0.0
 11
-492.525039672852
 21
-70.8205261230469
 31
0.0
  0
LINE
  5
   5EE
  8
0
  6
CONTINUOUS
 62
     7
 10
-492.525039672852
 20
-63.7263259887695
 30
0.0
 11
-492.525039672852
 21
-66.1162261962891
 31
0.0
  0
LINE
  5
   5EF
  8
0
  6
CONTINUOUS
 62
     7
 10
-492.525039672852
 20
-62.2734298706055
 30
0.0
 11
-492.525039672852
 21
-62.5234298706055
 31
0.0
  0
LINE
  5
   5F0
  8
0
  6
CONTINUOUS
 62
   212
 10
-508.875038146973
 20
-65.2734146118164
 30
0.0
 11
-508.875038146973
 21
-69.2734146118164
 31
0.0
  0
LINE
  5
   5F1
  8
0
  6
CONTINUOUS
 62
   253
 10
-492.125061035156
 20
-90.2734146118164
 30
0.0
 11
-492.125061035156
 21
-90.7734069824219
 31
0.0
  0
LINE
  5
   5F2
  8
0
  6
CONTINUOUS
 62
   253
 10
-492.125061035156
 20
-78.7734069824219
 30
0.0
 11
-492.125061035156
 21
-79.2734146118164
 31
0.0
  0
LINE
  5
   5F3
  8
0
  6
CONTINUOUS
 62
     7
 10
-525.025039672852
 20
-79.2734146118164
 30
0.0
 11
-525.025039672852
 21
-80.0234146118164
 31
0.0
  0
LINE
  5
   5F4
  8
0
  6
CONTINUOUS
 62
     7
 10
-525.025039672852
 20
-80.0950088500977
 30
0.0
 11
-525.025039672852
 21
-89.4518241882324
 31
0.0
  0
LINE
  5
   5F5
  8
0
  6
CONTINUOUS
 62
     7
 10
-525.025039672852
 20
-89.5234146118164
 30
0.0
 11
-525.025039672852
 21
-90.2734146118164
 31
0.0
  0
LINE
  5
   5F6
  8
0
  6
CONTINUOUS
 62
     7
 10
-526.275039672852
 20
-79.2734146118164
 30
0.0
 11
-526.275039672852
 21
-90.2734146118164
 31
0.0
  0
LINE
  5
   5F7
  8
0
  6
CONTINUOUS
 62
     7
 10
-529.275039672852
 20
-79.2734146118164
 30
0.0
 11
-529.275039672852
 21
-90.2734146118164
 31
0.0
  0
LINE
  5
   5F8
  8
0
  6
CONTINUOUS
 62
     7
 10
-530.525039672852
 20
-89.5234146118164
 30
0.0
 11
-530.525039672852
 21
-90.2734146118164
 31
0.0
  0
LINE
  5
   5F9
  8
0
  6
CONTINUOUS
 62
     7
 10
-530.525039672852
 20
-80.0950088500977
 30
0.0
 11
-530.525039672852
 21
-89.4518241882324
 31
0.0
  0
LINE
  5
   5FA
  8
0
  6
CONTINUOUS
 62
     7
 10
-530.525039672852
 20
-79.2734146118164
 30
0.0
 11
-530.525039672852
 21
-80.0234146118164
 31
0.0
  0
LINE
  5
   5FB
  8
0
  6
CONTINUOUS
 62
     3
 10
-518.525039672852
 20
-89.5234146118164
 30
0.0
 11
-521.525039672852
 21
-89.5234146118164
 31
0.0
  0
LINE
  5
   5FC
  8
0
  6
CONTINUOUS
 62
     3
 10
-518.525039672852
 20
-80.0234146118164
 30
0.0
 11
-521.525039672852
 21
-80.0234146118164
 31
0.0
  0
LINE
  5
   5FD
  8
0
  6
CONTINUOUS
 62
     3
 10
-521.525039672852
 20
-80.0234146118164
 30
0.0
 11
-521.525039672852
 21
-89.5234146118164
 31
0.0
  0
LINE
  5
   5FE
  8
0
  6
CONTINUOUS
 62
     3
 10
-518.525039672852
 20
-80.0234146118164
 30
0.0
 11
-518.525039672852
 21
-81.2263145446777
 31
0.0
  0
LINE
  5
   5FF
  8
0
  6
CONTINUOUS
 62
     3
 10
-518.525039672852
 20
-83.6162109375
 30
0.0
 11
-518.525039672852
 21
-85.9306144714355
 31
0.0
  0
LINE
  5
   600
  8
0
  6
CONTINUOUS
 62
     3
 10
-518.525039672852
 20
-88.3205223083496
 30
0.0
 11
-518.525039672852
 21
-89.5234146118164
 31
0.0
  0
LINE
  5
   601
  8
0
  6
CONTINUOUS
 62
     3
 10
-522.025039672852
 20
-89.5234146118164
 30
0.0
 11
-525.025039672852
 21
-89.5234146118164
 31
0.0
  0
LINE
  5
   602
  8
0
  6
CONTINUOUS
 62
     3
 10
-522.025039672852
 20
-80.0234146118164
 30
0.0
 11
-525.025039672852
 21
-80.0234146118164
 31
0.0
  0
LINE
  5
   603
  8
0
  6
CONTINUOUS
 62
     3
 10
-525.025039672852
 20
-89.4518241882324
 30
0.0
 11
-525.025039672852
 21
-89.5234146118164
 31
0.0
  0
LINE
  5
   604
  8
0
  6
CONTINUOUS
 62
     3
 10
-525.025039672852
 20
-80.0234146118164
 30
0.0
 11
-525.025039672852
 21
-80.0950126647949
 31
0.0
  0
LINE
  5
   605
  8
0
  6
CONTINUOUS
 62
     3
 10
-522.025039672852
 20
-80.0234146118164
 30
0.0
 11
-522.025039672852
 21
-89.5234146118164
 31
0.0
  0
LINE
  5
   606
  8
0
  6
CONTINUOUS
 62
     3
 10
-530.525039672852
 20
-89.5234146118164
 30
0.0
 11
-533.525039672852
 21
-89.5234146118164
 31
0.0
  0
LINE
  5
   607
  8
0
  6
CONTINUOUS
 62
     3
 10
-530.525039672852
 20
-80.0234146118164
 30
0.0
 11
-533.525039672852
 21
-80.0234146118164
 31
0.0
  0
LINE
  5
   608
  8
0
  6
CONTINUOUS
 62
     3
 10
-530.525039672852
 20
-80.0234146118164
 30
0.0
 11
-530.525039672852
 21
-80.0950126647949
 31
0.0
  0
LINE
  5
   609
  8
0
  6
CONTINUOUS
 62
     3
 10
-530.525039672852
 20
-89.4518241882324
 30
0.0
 11
-530.525039672852
 21
-89.5234146118164
 31
0.0
  0
LINE
  5
   60A
  8
0
  6
CONTINUOUS
 62
     3
 10
-533.525039672852
 20
-80.0234146118164
 30
0.0
 11
-533.525039672852
 21
-89.5234146118164
 31
0.0
  0
LINE
  5
   60B
  8
0
  6
CONTINUOUS
 62
     7
 10
-518.125038146973
 20
-79.7734146118164
 30
0.0
 11
-518.125038146973
 21
-89.7734146118164
 31
0.0
  0
LINE
  5
   60C
  8
0
  6
CONTINUOUS
 62
     7
 10
-518.525039672852
 20
-89.5234146118164
 30
0.0
 11
-518.525039672852
 21
-89.7734146118164
 31
0.0
  0
LINE
  5
   60D
  8
0
  6
CONTINUOUS
 62
     7
 10
-518.525039672852
 20
-85.9306182861328
 30
0.0
 11
-518.525039672852
 21
-88.3205261230469
 31
0.0
  0
LINE
  5
   60E
  8
0
  6
CONTINUOUS
 62
     7
 10
-518.525039672852
 20
-81.226318359375
 30
0.0
 11
-518.525039672852
 21
-83.6162147521973
 31
0.0
  0
LINE
  5
   60F
  8
0
  6
CONTINUOUS
 62
     7
 10
-518.525039672852
 20
-79.7734146118164
 30
0.0
 11
-518.525039672852
 21
-80.0234146118164
 31
0.0
  0
LINE
  5
   610
  8
0
  6
CONTINUOUS
 62
   212
 10
-534.875038146973
 20
-82.7734146118164
 30
0.0
 11
-534.875038146973
 21
-86.7734146118164
 31
0.0
  0
LINE
  5
   611
  8
0
  6
CONTINUOUS
 62
   253
 10
-484.125038146973
 20
-78.7734146118164
 30
0.0
 11
-491.625038146973
 21
-78.7734146118164
 31
0.0
  0
LINE
  5
   612
  8
0
  6
CONTINUOUS
 62
   253
 10
-484.125038146973
 20
-90.7734146118164
 30
0.0
 11
-491.625038146973
 21
-90.7734146118164
 31
0.0
  0
LINE
  5
   613
  8
0
  6
CONTINUOUS
 62
   253
 10
-491.625036558933
 20
-78.7734155296324
 30
0.0
 11
-492.125036541818
 21
-79.2734155125181
 31
0.0
  0
LINE
  5
   614
  8
0
  6
CONTINUOUS
 62
   253
 10
-491.625035576246
 20
-90.7734166420596
 30
0.0
 11
-492.125035559132
 21
-90.2734166591739
 31
0.0
  0
LINE
  5
   615
  8
0
  6
CONTINUOUS
 62
     7
 10
-503.275039672852
 20
-61.7734298706055
 30
0.0
 11
-504.525039672852
 21
-61.7734298706055
 31
0.0
  0
LINE
  5
   616
  8
0
  6
CONTINUOUS
 62
     7
 10
-503.275039672852
 20
-72.7734298706055
 30
0.0
 11
-504.525039672852
 21
-72.7734298706055
 31
0.0
  0
LINE
  5
   617
  8
0
  6
CONTINUOUS
 62
     7
 10
-499.025039672852
 20
-61.7734298706055
 30
0.0
 11
-500.275039672852
 21
-61.7734298706055
 31
0.0
  0
LINE
  5
   618
  8
0
  6
CONTINUOUS
 62
     7
 10
-499.025039672852
 20
-72.7734298706055
 30
0.0
 11
-500.275039672852
 21
-72.7734298706055
 31
0.0
  0
LINE
  5
   619
  8
0
  6
CONTINUOUS
 62
     3
 10
-492.525039672852
 20
-84.7734298706055
 30
0.0
 11
-495.525039672852
 21
-84.7734298706055
 31
0.0
  0
LINE
  5
   61A
  8
0
  6
CONTINUOUS
 62
     3
 10
-496.025039672852
 20
-84.7734298706055
 30
0.0
 11
-499.025039672852
 21
-84.7734298706055
 31
0.0
  0
LINE
  5
   61B
  8
0
  6
CONTINUOUS
 62
     3
 10
-504.525039672852
 20
-84.7734298706055
 30
0.0
 11
-507.525039672852
 21
-84.7734298706055
 31
0.0
  0
LINE
  5
   61C
  8
0
  6
CONTINUOUS
 62
     7
 10
-492.125038146973
 20
-62.2734298706055
 30
0.0
 11
-492.525039672852
 21
-62.2734298706055
 31
0.0
  0
LINE
  5
   61D
  8
0
  6
CONTINUOUS
 62
     7
 10
-492.125038146973
 20
-72.2734298706055
 30
0.0
 11
-492.525039672852
 21
-72.2734298706055
 31
0.0
  0
LINE
  5
   61E
  8
0
  6
CONTINUOUS
 62
   212
 10
-507.875036116101
 20
-64.2734153135647
 30
0.0
 11
-508.875036081872
 21
-65.2734152793362
 31
0.0
  0
LINE
  5
   61F
  8
0
  6
CONTINUOUS
 62
   212
 10
-507.875035133414
 20
-70.2734168581273
 30
0.0
 11
-508.875035099186
 21
-69.2734168923558
 31
0.0
  0
LINE
  5
   620
  8
0
  6
CONTINUOUS
 62
   212
 10
-507.525039672852
 20
-64.2734146118164
 30
0.0
 11
-507.875038146973
 21
-64.2734146118164
 31
0.0
  0
LINE
  5
   621
  8
0
  6
CONTINUOUS
 62
   212
 10
-500.275039672852
 20
-64.2734146118164
 30
0.0
 11
-503.275039672852
 21
-64.2734146118164
 31
0.0
  0
LINE
  5
   622
  8
0
  6
CONTINUOUS
 62
   212
 10
-495.525039672852
 20
-64.2734146118164
 30
0.0
 11
-496.025039672852
 21
-64.2734146118164
 31
0.0
  0
LINE
  5
   623
  8
0
  6
CONTINUOUS
 62
   212
 10
-507.875038146973
 20
-64.2734146118164
 30
0.0
 11
-507.875038146973
 21
-70.2734146118164
 31
0.0
  0
LINE
  5
   624
  8
0
  6
CONTINUOUS
 62
   212
 10
-507.525039672852
 20
-70.2734146118164
 30
0.0
 11
-507.875038146973
 21
-70.2734146118164
 31
0.0
  0
LINE
  5
   625
  8
0
  6
CONTINUOUS
 62
   212
 10
-500.275039672852
 20
-70.2734146118164
 30
0.0
 11
-503.275039672852
 21
-70.2734146118164
 31
0.0
  0
LINE
  5
   626
  8
0
  6
CONTINUOUS
 62
   212
 10
-495.525039672852
 20
-70.2734146118164
 30
0.0
 11
-496.025039672852
 21
-70.2734146118164
 31
0.0
  0
LINE
  5
   627
  8
0
  6
CONTINUOUS
 62
   253
 10
-491.625038146973
 20
-78.7734069824219
 30
0.0
 11
-492.125061035156
 21
-78.7734069824219
 31
0.0
  0
LINE
  5
   628
  8
0
  6
CONTINUOUS
 62
   253
 10
-491.625038146973
 20
-90.7734069824219
 30
0.0
 11
-492.125061035156
 21
-90.7734069824219
 31
0.0
  0
LINE
  5
   629
  8
0
  6
CONTINUOUS
 62
   253
 10
-492.125038146973
 20
-79.7734069824219
 30
0.0
 11
-517.625061035156
 21
-79.7734069824219
 31
0.0
  0
LINE
  5
   62A
  8
0
  6
CONTINUOUS
 62
   253
 10
-492.125038146973
 20
-89.7734069824219
 30
0.0
 11
-517.625061035156
 21
-89.7734069824219
 31
0.0
  0
LINE
  5
   62B
  8
0
  6
CONTINUOUS
 62
   253
 10
-517.625063250699
 20
-79.7734065758882
 30
0.0
 11
-517.978617026109
 21
-79.9198566134053
 31
0.0
  0
LINE
  5
   62C
  8
0
  6
CONTINUOUS
 62
   253
 10
-517.978612736732
 20
-79.9198585629115
 30
0.0
 11
-518.125058965007
 21
-80.2734085157233
 31
0.0
  0
LINE
  5
   62D
  8
0
  6
CONTINUOUS
 62
   253
 10
-517.625063434954
 20
-89.7734059092994
 30
0.0
 11
-517.978617206988
 21
-89.6269596810163
 31
0.0
  0
LINE
  5
   62E
  8
0
  6
CONTINUOUS
 62
   253
 10
-517.978616373328
 20
-89.6269592736819
 30
0.0
 11
-518.125062601611
 21
-89.2734055016473
 31
0.0
  0
LINE
  5
   62F
  8
0
  6
CONTINUOUS
 62
     7
 10
-525.025039672852
 20
-90.2734146118164
 30
0.0
 11
-526.275039672852
 21
-90.2734146118164
 31
0.0
  0
LINE
  5
   630
  8
0
  6
CONTINUOUS
 62
     7
 10
-525.025039672852
 20
-79.2734146118164
 30
0.0
 11
-526.275039672852
 21
-79.2734146118164
 31
0.0
  0
LINE
  5
   631
  8
0
  6
CONTINUOUS
 62
     7
 10
-529.275039672852
 20
-90.2734146118164
 30
0.0
 11
-530.525039672852
 21
-90.2734146118164
 31
0.0
  0
LINE
  5
   632
  8
0
  6
CONTINUOUS
 62
     7
 10
-529.275039672852
 20
-79.2734146118164
 30
0.0
 11
-530.525039672852
 21
-79.2734146118164
 31
0.0
  0
LINE
  5
   633
  8
0
  6
CONTINUOUS
 62
     3
 10
-518.525039672852
 20
-84.7734146118164
 30
0.0
 11
-521.525039672852
 21
-84.7734146118164
 31
0.0
  0
LINE
  5
   634
  8
0
  6
CONTINUOUS
 62
     3
 10
-522.025039672852
 20
-84.7734146118164
 30
0.0
 11
-525.025039672852
 21
-84.7734146118164
 31
0.0
  0
LINE
  5
   635
  8
0
  6
CONTINUOUS
 62
     3
 10
-530.525039672852
 20
-84.7734146118164
 30
0.0
 11
-533.525039672852
 21
-84.7734146118164
 31
0.0
  0
LINE
  5
   636
  8
0
  6
CONTINUOUS
 62
     7
 10
-518.125038146973
 20
-89.7734146118164
 30
0.0
 11
-518.525039672852
 21
-89.7734146118164
 31
0.0
  0
LINE
  5
   637
  8
0
  6
CONTINUOUS
 62
     7
 10
-518.125038146973
 20
-79.7734146118164
 30
0.0
 11
-518.525039672852
 21
-79.7734146118164
 31
0.0
  0
LINE
  5
   638
  8
0
  6
CONTINUOUS
 62
   212
 10
-533.875034465958
 20
-87.7734170806128
 30
0.0
 11
-534.875034431729
 21
-86.7734171148413
 31
0.0
  0
LINE
  5
   639
  8
0
  6
CONTINUOUS
 62
   212
 10
-533.875035448644
 20
-81.7734150910792
 30
0.0
 11
-534.875035414416
 21
-82.7734150568507
 31
0.0
  0
LINE
  5
   63A
  8
0
  6
CONTINUOUS
 62
   212
 10
-533.525039672852
 20
-87.7734146118164
 30
0.0
 11
-533.875038146973
 21
-87.7734146118164
 31
0.0
  0
LINE
  5
   63B
  8
0
  6
CONTINUOUS
 62
   212
 10
-526.275039672852
 20
-87.7734146118164
 30
0.0
 11
-529.275039672852
 21
-87.7734146118164
 31
0.0
  0
LINE
  5
   63C
  8
0
  6
CONTINUOUS
 62
   212
 10
-521.525039672852
 20
-87.7734146118164
 30
0.0
 11
-522.025039672852
 21
-87.7734146118164
 31
0.0
  0
LINE
  5
   63D
  8
0
  6
CONTINUOUS
 62
   212
 10
-533.875038146973
 20
-81.7734146118164
 30
0.0
 11
-533.875038146973
 21
-87.7734146118164
 31
0.0
  0
LINE
  5
   63E
  8
0
  6
CONTINUOUS
 62
   212
 10
-533.525039672852
 20
-81.7734146118164
 30
0.0
 11
-533.875038146973
 21
-81.7734146118164
 31
0.0
  0
LINE
  5
   63F
  8
0
  6
CONTINUOUS
 62
   212
 10
-526.275039672852
 20
-81.7734146118164
 30
0.0
 11
-529.275039672852
 21
-81.7734146118164
 31
0.0
  0
LINE
  5
   640
  8
0
  6
CONTINUOUS
 62
   212
 10
-521.525039672852
 20
-81.7734146118164
 30
0.0
 11
-522.025039672852
 21
-81.7734146118164
 31
0.0
  0
LINE
  5
   641
  8
0
  6
CONTINUOUS
 62
     3
 10
-484.625061035156
 20
-73.2734069824219
 30
0.0
 11
-484.625061035156
 21
-78.7734146118164
 31
0.0
  0
LINE
  5
   642
  8
0
  6
CONTINUOUS
 62
   210
 10
-483.875061035156
 20
-73.5234222412109
 30
0.0
 11
-483.875061035156
 21
-78.5234069824219
 31
0.0
  0
LINE
  5
   643
  8
0
  6
CONTINUOUS
 62
     7
 10
-478.625061035156
 20
-78.5234069824219
 30
0.0
 11
-483.875061035156
 21
-78.5234069824219
 31
0.0
  0
LINE
  5
   644
  8
0
  6
CONTINUOUS
 62
     7
 10
-478.625061035156
 20
-73.5234222412109
 30
0.0
 11
-483.875061035156
 21
-73.5234222412109
 31
0.0
  0
LINE
  5
   645
  8
0
  6
CONTINUOUS
 62
     7
 10
-481.875061035156
 20
-73.5234222412109
 30
0.0
 11
-481.875061035156
 21
-78.5234069824219
 31
0.0
  0
LINE
  5
   646
  8
0
  6
CONTINUOUS
 62
   210
 10
-484.125061035156
 20
-78.5234069824219
 30
0.0
 11
-484.125061035156
 21
-90.7734146118164
 31
0.0
  0
LINE
  5
   647
  8
0
  6
DASHDOT
 62
     7
 10
-456.924743367538
 20
-49.7734069824219
 30
0.0
 11
-538.825913866611
 21
-49.7734069824219
 31
0.0
  0
LINE
  5
   648
  8
0
  6
DASHDOT
 62
     7
 10
-456.924743367538
 20
-84.7734069824219
 30
0.0
 11
-538.825913866611
 21
-84.7734069824219
 31
0.0
  0
LINE
  5
   649
  8
0
  6
CONTINUOUS
 62
     7
 10
-526.275039672852
 20
-47.2734069824219
 30
0.0
 11
-529.275039672852
 21
-47.2734069824219
 31
0.0
  0
LINE
  5
   64A
  8
0
  6
CONTINUOUS
 62
     7
 10
-526.275039672852
 20
-52.2734069824219
 30
0.0
 11
-529.275039672852
 21
-52.2734069824219
 31
0.0
  0
LINE
  5
   64B
  8
0
  6
CONTINUOUS
 62
     7
 10
-526.275039672852
 20
-82.2734069824219
 30
0.0
 11
-529.275039672852
 21
-82.2734069824219
 31
0.0
  0
LINE
  5
   64C
  8
0
  6
CONTINUOUS
 62
     7
 10
-526.275039672852
 20
-87.2734069824219
 30
0.0
 11
-529.275039672852
 21
-87.2734069824219
 31
0.0
  0
LINE
  5
   64D
  8
0
  6
CONTINUOUS
 62
     7
 10
-500.275039672852
 20
-64.7734069824219
 30
0.0
 11
-503.275039672852
 21
-64.7734069824219
 31
0.0
  0
LINE
  5
   64E
  8
0
  6
CONTINUOUS
 62
     7
 10
-500.275039672852
 20
-69.7734069824219
 30
0.0
 11
-503.275039672852
 21
-69.7734069824219
 31
0.0
  0
LINE
  5
   64F
  8
0
  6
CONTINUOUS
 62
     7
 10
-500.275039672852
 20
-34.7734069824219
 30
0.0
 11
-503.275039672852
 21
-34.7734069824219
 31
0.0
  0
LINE
  5
   650
  8
0
  6
CONTINUOUS
 62
     7
 10
-500.275039672852
 20
-29.7734069824219
 30
0.0
 11
-503.275039672852
 21
-29.7734069824219
 31
0.0
  0
LINE
  5
   651
  8
0
  6
CONTINUOUS
 62
   210
 10
-484.125053405762
 20
-61.0234107971191
 30
0.0
 11
-484.125053405762
 21
-73.5234107971191
 31
0.0
  0
LINE
  5
   652
  8
0
  6
CONTINUOUS
 62
   210
 10
-484.125053405762
 20
-43.5234107971191
 30
0.0
 11
-484.125053405762
 21
-56.0234107971191
 31
0.0
  0
LINE
  5
   653
  8
0
  6
CONTINUOUS
 62
     7
 10
-460.125030517578
 20
-40.1484451293945
 30
0.0
 11
-478.625053405762
 21
-40.1484451293945
 31
0.0
  0
LINE
  5
   654
  8
0
  6
CONTINUOUS
 62
     7
 10
-460.125030517578
 20
-41.8984451293945
 30
0.0
 11
-478.625053405762
 21
-41.8984451293945
 31
0.0
  0
LINE
  5
   655
  8
0
  6
CONTINUOUS
 62
     7
 10
-460.125030517578
 20
-57.6484451293945
 30
0.0
 11
-478.625053405762
 21
-57.6484451293945
 31
0.0
  0
LINE
  5
   656
  8
0
  6
CONTINUOUS
 62
     7
 10
-460.125030517578
 20
-59.3984451293945
 30
0.0
 11
-478.625053405762
 21
-59.3984451293945
 31
0.0
  0
LINE
  5
   657
  8
0
  6
CONTINUOUS
 62
   210
 10
-484.875053405762
 20
-38.2734069824219
 30
0.0
 11
-484.875053405762
 21
-40.5234451293945
 31
0.0
  0
LINE
  5
   658
  8
0
  6
CONTINUOUS
 62
     3
 10
-483.875053405762
 20
-38.5234222412109
 30
0.0
 11
-483.875053405762
 21
-40.3245315551758
 31
0.0
  0
LINE
  5
   659
  8
0
  6
CONTINUOUS
 62
     7
 10
-465.625038146973
 20
-90.7734107971191
 30
0.0
 11
-469.375030517578
 21
-90.7734107971191
 31
0.0
  0
LINE
  5
   65A
  8
0
  6
CONTINUOUS
 62
     7
 10
-465.625038146973
 20
-61.2734107971191
 30
0.0
 11
-469.375030517578
 21
-61.2734107971191
 31
0.0
  0
LINE
  5
   65B
  8
0
  6
CONTINUOUS
 62
     7
 10
-469.375030517578
 20
-89.8984107971191
 30
0.0
 11
-469.375030517578
 21
-90.7734107971191
 31
0.0
  0
LINE
  5
   65C
  8
0
  6
CONTINUOUS
 62
     7
 10
-469.375030517578
 20
-61.2734107971191
 30
0.0
 11
-469.375030517578
 21
-62.1484107971191
 31
0.0
  0
LINE
  5
   65D
  8
0
  6
CONTINUOUS
 62
     7
 10
-469.375030517578
 20
-90.7734107971191
 30
0.0
 11
-477.125030517578
 21
-90.7734107971191
 31
0.0
  0
LINE
  5
   65E
  8
0
  6
CONTINUOUS
 62
     7
 10
-469.375030517578
 20
-89.8984107971191
 30
0.0
 11
-477.125030517578
 21
-89.8984107971191
 31
0.0
  0
LINE
  5
   65F
  8
0
  6
CONTINUOUS
 62
     7
 10
-469.375030517578
 20
-61.2734107971191
 30
0.0
 11
-472.625030517578
 21
-61.2734107971191
 31
0.0
  0
LINE
  5
   660
  8
0
  6
CONTINUOUS
 62
     7
 10
-469.375030517578
 20
-62.1484107971191
 30
0.0
 11
-472.625030517578
 21
-62.1484107971191
 31
0.0
  0
LINE
  5
   661
  8
0
  6
CONTINUOUS
 62
     7
 10
-465.625038146973
 20
-55.7734107971191
 30
0.0
 11
-469.375030517578
 21
-55.7734107971191
 31
0.0
  0
LINE
  5
   662
  8
0
  6
CONTINUOUS
 62
     7
 10
-465.625038146973
 20
-43.7734107971191
 30
0.0
 11
-469.375030517578
 21
-43.7734107971191
 31
0.0
  0
LINE
  5
   663
  8
0
  6
CONTINUOUS
 62
     7
 10
-469.375030517578
 20
-54.8984107971191
 30
0.0
 11
-469.375030517578
 21
-55.7734107971191
 31
0.0
  0
LINE
  5
   664
  8
0
  6
CONTINUOUS
 62
     7
 10
-469.375030517578
 20
-43.7734107971191
 30
0.0
 11
-469.375030517578
 21
-44.6484107971191
 31
0.0
  0
LINE
  5
   665
  8
0
  6
CONTINUOUS
 62
     7
 10
-469.375030517578
 20
-55.7734107971191
 30
0.0
 11
-472.625030517578
 21
-55.7734107971191
 31
0.0
  0
LINE
  5
   666
  8
0
  6
CONTINUOUS
 62
     7
 10
-469.375030517578
 20
-54.8984107971191
 30
0.0
 11
-472.625030517578
 21
-54.8984107971191
 31
0.0
  0
LINE
  5
   667
  8
0
  6
CONTINUOUS
 62
     7
 10
-469.375030517578
 20
-43.7734107971191
 30
0.0
 11
-472.625030517578
 21
-43.7734107971191
 31
0.0
  0
LINE
  5
   668
  8
0
  6
CONTINUOUS
 62
     7
 10
-469.375030517578
 20
-44.6484107971191
 30
0.0
 11
-472.625030517578
 21
-44.6484107971191
 31
0.0
  0
LINE
  5
   669
  8
0
  6
CONTINUOUS
 62
     7
 10
-465.625038146973
 20
-38.2734069824219
 30
0.0
 11
-469.375030517578
 21
-38.2734069824219
 31
0.0
  0
LINE
  5
   66A
  8
0
  6
CONTINUOUS
 62
     7
 10
-465.625038146973
 20
-26.2734069824219
 30
0.0
 11
-469.375030517578
 21
-26.2734069824219
 31
0.0
  0
LINE
  5
   66B
  8
0
  6
CONTINUOUS
 62
     7
 10
-469.375030517578
 20
-37.3984069824219
 30
0.0
 11
-469.375030517578
 21
-38.2734069824219
 31
0.0
  0
LINE
  5
   66C
  8
0
  6
CONTINUOUS
 62
     7
 10
-469.375030517578
 20
-26.2734069824219
 30
0.0
 11
-469.375030517578
 21
-27.1484069824219
 31
0.0
  0
LINE
  5
   66D
  8
0
  6
CONTINUOUS
 62
     7
 10
-469.375030517578
 20
-38.2734069824219
 30
0.0
 11
-472.625030517578
 21
-38.2734069824219
 31
0.0
  0
LINE
  5
   66E
  8
0
  6
CONTINUOUS
 62
     7
 10
-469.375030517578
 20
-37.3984069824219
 30
0.0
 11
-472.625030517578
 21
-37.3984069824219
 31
0.0
  0
LINE
  5
   66F
  8
0
  6
CONTINUOUS
 62
     7
 10
-469.375030517578
 20
-26.2734069824219
 30
0.0
 11
-477.125030517578
 21
-26.2734069824219
 31
0.0
  0
LINE
  5
   670
  8
0
  6
CONTINUOUS
 62
     7
 10
-469.375030517578
 20
-27.1484069824219
 30
0.0
 11
-477.125030517578
 21
-27.1484069824219
 31
0.0
  0
LINE
  5
   671
  8
0
  6
CONTINUOUS
 62
     7
 10
-469.375030517578
 20
-66.2734107971191
 30
0.0
 11
-470.625030517578
 21
-66.2734107971191
 31
0.0
  0
LINE
  5
   672
  8
0
  6
CONTINUOUS
 62
     7
 10
-469.375030517578
 20
-68.2734107971191
 30
0.0
 11
-470.625030517578
 21
-68.2734107971191
 31
0.0
  0
LINE
  5
   673
  8
0
  6
CONTINUOUS
 62
     7
 10
-470.625030517578
 20
-66.2734107971191
 30
0.0
 11
-470.625030517578
 21
-68.2734107971191
 31
0.0
  0
LINE
  5
   674
  8
0
  6
CONTINUOUS
 62
     7
 10
-469.375030517578
 20
-48.7734107971191
 30
0.0
 11
-470.625030517578
 21
-48.7734107971191
 31
0.0
  0
LINE
  5
   675
  8
0
  6
CONTINUOUS
 62
     7
 10
-469.375030517578
 20
-50.7734107971191
 30
0.0
 11
-470.625030517578
 21
-50.7734107971191
 31
0.0
  0
LINE
  5
   676
  8
0
  6
CONTINUOUS
 62
     7
 10
-470.625030517578
 20
-48.7734107971191
 30
0.0
 11
-470.625030517578
 21
-50.7734107971191
 31
0.0
  0
LINE
  5
   677
  8
0
  6
CONTINUOUS
 62
     7
 10
-469.375030517578
 20
-31.2734069824219
 30
0.0
 11
-470.625030517578
 21
-31.2734069824219
 31
0.0
  0
LINE
  5
   678
  8
0
  6
CONTINUOUS
 62
     7
 10
-469.375030517578
 20
-33.2734069824219
 30
0.0
 11
-470.625030517578
 21
-33.2734069824219
 31
0.0
  0
LINE
  5
   679
  8
0
  6
CONTINUOUS
 62
     7
 10
-470.625030517578
 20
-31.2734069824219
 30
0.0
 11
-470.625030517578
 21
-33.2734069824219
 31
0.0
  0
LINE
  5
   67A
  8
0
  6
CONTINUOUS
 62
     7
 10
-478.625061035156
 20
-93.0234470367432
 30
0.0
 11
-481.875061035156
 21
-93.0234470367432
 31
0.0
  0
LINE
  5
   67B
  8
0
  6
CONTINUOUS
 62
   210
 10
-484.625061035156
 20
-40.5234451293945
 30
0.0
 11
-484.875053405762
 21
-40.5234451293945
 31
0.0
  0
LINE
  5
   67C
  8
0
  6
CONTINUOUS
 62
     7
 10
-478.625045776367
 20
-40.3245315551758
 30
0.0
 11
-483.875053405762
 21
-40.3245315551758
 31
0.0
  0
LINE
  5
   67D
  8
0
  6
CONTINUOUS
 62
     7
 10
-477.125030517578
 20
-89.8984107971191
 30
0.0
 11
-477.125030517578
 21
-90.7734107971191
 31
0.0
  0
LINE
  5
   67E
  8
0
  6
CONTINUOUS
 62
     7
 10
-472.625030517578
 20
-61.2734107971191
 30
0.0
 11
-472.625030517578
 21
-62.1484107971191
 31
0.0
  0
LINE
  5
   67F
  8
0
  6
CONTINUOUS
 62
     7
 10
-472.625030517578
 20
-54.8984107971191
 30
0.0
 11
-472.625030517578
 21
-55.7734107971191
 31
0.0
  0
LINE
  5
   680
  8
0
  6
CONTINUOUS
 62
     7
 10
-472.625030517578
 20
-43.7734107971191
 30
0.0
 11
-472.625030517578
 21
-44.6484107971191
 31
0.0
  0
LINE
  5
   681
  8
0
  6
CONTINUOUS
 62
     7
 10
-472.625030517578
 20
-37.3984069824219
 30
0.0
 11
-472.625030517578
 21
-38.2734069824219
 31
0.0
  0
LINE
  5
   682
  8
0
  6
CONTINUOUS
 62
     7
 10
-477.125030517578
 20
-26.2734069824219
 30
0.0
 11
-477.125030517578
 21
-27.1484069824219
 31
0.0
  0
LINE
  5
   683
  8
0
  6
CONTINUOUS
 62
   210
 10
-483.875053405762
 20
-38.5234222412109
 30
0.0
 11
-484.125061035156
 21
-38.5234222412109
 31
0.0
  0
LINE
  5
   684
  8
0
  6
CONTINUOUS
 62
   210
 10
-483.875053405762
 20
-43.5234069824219
 30
0.0
 11
-484.125061035156
 21
-43.5234069824219
 31
0.0
  0
LINE
  5
   685
  8
0
  6
CONTINUOUS
 62
   210
 10
-483.875061035156
 20
-73.5234222412109
 30
0.0
 11
-484.125061035156
 21
-73.5234222412109
 31
0.0
  0
LINE
  5
   686
  8
0
  6
CONTINUOUS
 62
   210
 10
-483.875061035156
 20
-78.5234069824219
 30
0.0
 11
-484.125061035156
 21
-78.5234069824219
 31
0.0
  0
LINE
  5
   687
  8
0
  6
CONTINUOUS
 62
   210
 10
-483.875061035156
 20
-61.0233993530273
 30
0.0
 11
-484.125061035156
 21
-61.0233993530273
 31
0.0
  0
LINE
  5
   688
  8
0
  6
CONTINUOUS
 62
   210
 10
-483.875061035156
 20
-56.0234069824219
 30
0.0
 11
-484.125061035156
 21
-56.0234069824219
 31
0.0
  0
LINE
  5
   689
  8
0
  6
CONTINUOUS
 62
     7
 10
-460.125030517578
 20
-75.1484451293945
 30
0.0
 11
-478.625053405762
 21
-75.1484451293945
 31
0.0
  0
LINE
  5
   68A
  8
0
  6
CONTINUOUS
 62
     7
 10
-460.125030517578
 20
-76.8984451293945
 30
0.0
 11
-478.625053405762
 21
-76.8984451293945
 31
0.0
  0
LINE
  5
   68B
  8
0
  6
CONTINUOUS
 62
     7
 10
-469.375030517578
 20
-73.2734107971191
 30
0.0
 11
-472.625030517578
 21
-73.2734107971191
 31
0.0
  0
LINE
  5
   68C
  8
0
  6
CONTINUOUS
 62
     7
 10
-465.625038146973
 20
-73.2734107971191
 30
0.0
 11
-469.375030517578
 21
-73.2734107971191
 31
0.0
  0
LINE
  5
   68D
  8
0
  6
CONTINUOUS
 62
     7
 10
-469.375030517578
 20
-72.3984107971191
 30
0.0
 11
-469.375030517578
 21
-73.2734107971191
 31
0.0
  0
LINE
  5
   68E
  8
0
  6
CONTINUOUS
 62
     7
 10
-469.375030517578
 20
-72.3984107971191
 30
0.0
 11
-472.625030517578
 21
-72.3984107971191
 31
0.0
  0
LINE
  5
   68F
  8
0
  6
CONTINUOUS
 62
     7
 10
-472.625030517578
 20
-72.3984107971191
 30
0.0
 11
-472.625030517578
 21
-73.2734107971191
 31
0.0
  0
LINE
  5
   690
  8
0
  6
CONTINUOUS
 62
     7
 10
-469.375030517578
 20
-83.7734107971191
 30
0.0
 11
-470.625030517578
 21
-83.7734107971191
 31
0.0
  0
LINE
  5
   691
  8
0
  6
CONTINUOUS
 62
     7
 10
-469.375030517578
 20
-85.7734107971191
 30
0.0
 11
-470.625030517578
 21
-85.7734107971191
 31
0.0
  0
LINE
  5
   692
  8
0
  6
CONTINUOUS
 62
     7
 10
-470.625030517578
 20
-83.7734107971191
 30
0.0
 11
-470.625030517578
 21
-85.7734107971191
 31
0.0
  0
LINE
  5
   693
  8
0
  6
CONTINUOUS
 62
     7
 10
-469.375030517578
 20
-79.6484107971191
 30
0.0
 11
-472.625030517578
 21
-79.6484107971191
 31
0.0
  0
LINE
  5
   694
  8
0
  6
CONTINUOUS
 62
     7
 10
-472.625030517578
 20
-78.7734107971191
 30
0.0
 11
-472.625030517578
 21
-79.6484107971191
 31
0.0
  0
LINE
  5
   695
  8
0
  6
CONTINUOUS
 62
     7
 10
-469.375030517578
 20
-78.7734107971191
 30
0.0
 11
-472.625030517578
 21
-78.7734107971191
 31
0.0
  0
LINE
  5
   696
  8
0
  6
CONTINUOUS
 62
     7
 10
-465.625038146973
 20
-78.7734107971191
 30
0.0
 11
-469.375030517578
 21
-78.7734107971191
 31
0.0
  0
LINE
  5
   697
  8
0
  6
CONTINUOUS
 62
     7
 10
-469.375030517578
 20
-78.7734107971191
 30
0.0
 11
-469.375030517578
 21
-79.6484107971191
 31
0.0
  0
LINE
  5
   698
  8
0
  6
CONTINUOUS
 62
     7
 10
-484.125061035156
 20
-90.7734146118164
 30
0.0
 11
-484.125061035156
 21
-91.0234069824219
 31
0.0
  0
LINE
  5
   699
  8
0
  6
CONTINUOUS
 62
   210
 10
-484.125061035156
 20
-26.2734069824219
 30
0.0
 11
-484.125061035156
 21
-38.5234222412109
 31
0.0
  0
LINE
  5
   69A
  8
0
  6
CONTINUOUS
 62
   210
 10
-481.875061035156
 20
-93.0234470367432
 30
0.0
 11
-484.875053405762
 21
-93.0234470367432
 31
0.0
  0
LINE
  5
   69B
  8
0
  6
CONTINUOUS
 62
     7
 10
-478.625061035156
 20
-42.2734451293945
 30
0.0
 11
-483.875053405762
 21
-42.2734451293945
 31
0.0
  0
LINE
  5
   69C
  8
0
  6
CONTINUOUS
 62
   210
 10
-483.875053405762
 20
-40.3245315551758
 30
0.0
 11
-483.875053405762
 21
-43.5234107971191
 31
0.0
  0
LINE
  5
   69D
  8
0
  6
CONTINUOUS
 62
   210
 10
-481.875053405762
 20
-26.0234222412109
 30
0.0
 11
-484.125061035156
 21
-26.0234222412109
 31
0.0
  0
LINE
  5
   69E
  8
0
  6
CONTINUOUS
 62
     3
 10
-459.125038146973
 20
-21.2237839399634
 30
0.0
 11
-459.125038146973
 21
-94.9163260786012
 31
0.0
  0
LINE
  5
   69F
  8
0
  6
CONTINUOUS
 62
   253
 10
-500.275039672852
 20
-27.2734069824219
 30
0.0
 11
-503.275039672852
 21
-27.2734069824219
 31
0.0
  0
LINE
  5
   6A0
  8
0
  6
CONTINUOUS
 62
   253
 10
-500.275039672852
 20
-37.2734069824219
 30
0.0
 11
-503.275039672852
 21
-37.2734069824219
 31
0.0
  0
LINE
  5
   6A1
  8
0
  6
CONTINUOUS
 62
   253
 10
-500.275039672852
 20
-62.2734069824219
 30
0.0
 11
-503.275039672852
 21
-62.2734069824219
 31
0.0
  0
LINE
  5
   6A2
  8
0
  6
CONTINUOUS
 62
   253
 10
-500.275039672852
 20
-72.2734069824219
 30
0.0
 11
-503.275039672852
 21
-72.2734069824219
 31
0.0
  0
LINE
  5
   6A3
  8
0
  6
DASHDOT
 62
     7
 10
-484.875114911572
 20
-20.1020481747657
 30
0.0
 11
-484.875208808346
 21
-100.099099122092
 31
0.0
  0
LINE
  5
   6A4
  8
0
  6
DASHDOT
 62
     7
 10
-486.375053405762
 20
-20.2057723847327
 30
0.0
 11
-486.375053405762
 21
-101.003802447649
 31
0.0
  0
INSERT
  5
   6A5
  8
0
  6
CONTINUOUS
 62
     7
  2
*UDIM2366
 10
0.0
 20
0.0
 30
0.0
  0
INSERT
  5
   6A6
  8
0
  6
CONTINUOUS
 62
     7
  2
*UDIM2367
 10
0.0
 20
0.0
 30
0.0
  0
INSERT
  5
   6A7
  8
0
  6
CONTINUOUS
 62
     7
  2
*UDIM2368
 10
0.0
 20
0.0
 30
0.0
  0
INSERT
  5
   6A8
  8
0
  6
CONTINUOUS
 62
     7
  2
*UDIM2369
 10
0.0
 20
0.0
 30
0.0
  0
INSERT
  5
   6A9
  8
0
  6
CONTINUOUS
 62
     7
  2
*UDIM2370
 10
0.0
 20
0.0
 30
0.0
  0
INSERT
  5
   6AA
  8
0
  6
CONTINUOUS
 62
     7
  2
*UDIM2371
 10
0.0
 20
0.0
 30
0.0
  0
INSERT
  5
   6AB
  8
0
  6
CONTINUOUS
 62
     7
  2
*UDIM2372
 10
0.0
 20
0.0
 30
0.0
  0
INSERT
  5
   6AC
  8
0
  6
CONTINUOUS
 62
     7
  2
*UDIM2373
 10
0.0
 20
0.0
 30
0.0
  0
LINE
  5
   6AD
  8
0
  6
CONTINUOUS
 62
     7
 10
-341.862518310547
 20
60.4349517822266
 30
0.0
 11
-313.862518310547
 21
60.4349517822266
 31
0.0
  0
LINE
  5
   6AE
  8
0
  6
CONTINUOUS
 62
     7
 10
-341.862518310547
 20
88.4349517822266
 30
0.0
 11
-313.862518310547
 21
88.4349517822266
 31
0.0
  0
LINE
  5
   6AF
  8
0
  6
CONTINUOUS
 62
     7
 10
-341.862518310547
 20
88.4349517822266
 30
0.0
 11
-341.862518310547
 21
60.4349517822266
 31
0.0
  0
LINE
  5
   6B0
  8
0
  6
CONTINUOUS
 62
     7
 10
-313.862518310547
 20
88.4349517822266
 30
0.0
 11
-313.862518310547
 21
60.4349517822266
 31
0.0
  0
LINE
  5
   6B1
  8
0
  6
DASHDOT
 62
     7
 10
-327.862518310547
 20
106.90641945098
 30
0.0
 11
-327.862518310547
 21
50.0631986704832
 31
0.0
  0
CIRCLE
  5
   6B2
  8
0
  6
CONTINUOUS
 62
     7
 10
-337.862518310547
 20
92.1849517822266
 30
0.0
 40
0.875
  0
CIRCLE
  5
   6B3
  8
0
  6
CONTINUOUS
 62
     7
 10
-317.862518310547
 20
92.1849517822266
 30
0.0
 40
0.875
  0
CIRCLE
  5
   6B4
  8
0
  6
CONTINUOUS
 62
     7
 10
-317.862518310547
 20
56.6849517822266
 30
0.0
 40
0.875
  0
CIRCLE
  5
   6B5
  8
0
  6
CONTINUOUS
 62
     7
 10
-337.862518310547
 20
56.6849517822266
 30
0.0
 40
0.875
  0
LINE
  5
   6B6
  8
0
  6
CONTINUOUS
 62
     3
 10
-345.827013979961
 20
94.5347520795178
 30
0.0
 11
-310.023644709976
 21
94.5347520795178
 31
0.0
  0
LINE
  5
   6B7
  8
0
  6
CONTINUOUS
 62
     3
 10
-345.827013979961
 20
53.3294709547626
 30
0.0
 11
-310.023644709976
 21
53.3294709547626
 31
0.0
  0
LINE
  5
   6B8
  8
0
  6
CONTINUOUS
 62
     3
 10
-310.023644709976
 20
94.5347520795178
 30
0.0
 11
-310.023644709976
 21
53.3294709547626
 31
0.0
  0
LINE
  5
   6B9
  8
0
  6
CONTINUOUS
 62
     3
 10
-345.827013979961
 20
94.5347520795178
 30
0.0
 11
-345.827013979961
 21
53.3294709547626
 31
0.0
  0
LINE
  5
   6BA
  8
0
  6
DASHDOT
 62
     7
 10
-317.862518310547
 20
93.8099517822266
 30
0.0
 11
-317.862518310547
 21
90.5599517822266
 31
0.0
  0
LINE
  5
   6BB
  8
0
  6
DASHDOT
 62
     7
 10
-319.487518310547
 20
92.1849517822266
 30
0.0
 11
-316.237518310547
 21
92.1849517822266
 31
0.0
  0
LINE
  5
   6BC
  8
0
  6
DASHDOT
 62
     7
 10
-337.862518310547
 20
93.8099517822266
 30
0.0
 11
-337.862518310547
 21
90.5599517822266
 31
0.0
  0
LINE
  5
   6BD
  8
0
  6
DASHDOT
 62
     7
 10
-339.487518310547
 20
92.1849517822266
 30
0.0
 11
-336.237518310547
 21
92.1849517822266
 31
0.0
  0
LINE
  5
   6BE
  8
0
  6
DASHDOT
 62
     7
 10
-337.862518310547
 20
58.3099517822266
 30
0.0
 11
-337.862518310547
 21
55.0599517822266
 31
0.0
  0
LINE
  5
   6BF
  8
0
  6
DASHDOT
 62
     7
 10
-339.487518310547
 20
56.6849517822266
 30
0.0
 11
-336.237518310547
 21
56.6849517822266
 31
0.0
  0
LINE
  5
   6C0
  8
0
  6
DASHDOT
 62
     7
 10
-317.862518310547
 20
58.3099517822266
 30
0.0
 11
-317.862518310547
 21
55.0599517822266
 31
0.0
  0
LINE
  5
   6C1
  8
0
  6
DASHDOT
 62
     7
 10
-319.487518310547
 20
56.6849517822266
 30
0.0
 11
-316.237518310547
 21
56.6849517822266
 31
0.0
  0
CIRCLE
  5
   6C2
  8
0
  6
CONTINUOUS
 62
     7
 10
-344.193881500014
 20
93.2132010284242
 30
0.0
 40
0.0625
  0
LINE
  5
   6C3
  8
0
  6
DASHDOT
 62
     7
 10
-348.638266358743
 20
74.4349517822266
 30
0.0
 11
-304.521141911208
 21
74.4349517822266
 31
0.0
  0
TEXT
  5
   6C4
  8
0
  6
CONTINUOUS
 62
     1
 10
-441.209440558884
 20
-138.025375382557
 30
0.0
 40
2.00000008940697
  1
M 3076 95-01-16
 50
359.999999844103
 41
0.749999861419206
 72
     1
 11
-430.10944211483
 21
-137.025375368
 31
0.0
 73
     2
  0
TEXT
  5
   6C5
  8
0
  6
CONTINUOUS
 62
     1
 10
-455.742294302314
 20
-123.55683887223
 30
0.0
 40
2.00000008940697
  1
93-04-05 FERRARI M.
 50
359.999999844103
 41
0.749999861419206
 72
     2
 11
-427.542298260063
 21
-123.556838948818
 31
0.0
  0
TEXT
  5
   6C6
  8
0
  6
CONTINUOUS
 62
     7
 10
-346.794933962081
 20
67.5573577740839
 30
0.0
 40
3.00000002980232
  1
=   =
 50
449.999999844103
 41
0.916666604744064
 72
     2
 11
-346.794933926248
 21
80.7573570091576
 31
0.0
  0
TEXT
  5
   6C7
  8
0
  6
CONTINUOUS
 62
     7
 10
-353.553824361937
 20
65.3753588844389
 30
0.0
 40
3.00000002980232
  1
=     =
 50
449.999999844103
 41
0.916666604744064
 72
     2
 11
-353.553824311173
 21
84.0753578026146
 31
0.0
  0
TEXT
  5
   6C8
  8
0
  6
CONTINUOUS
 62
     7
 10
-334.369590493145
 20
97.405805293157
 30
0.0
 40
3.00000002980232
  1
=   =
 50
359.999999844103
 41
0.916666604744064
 72
     2
 11
-321.169591258072
 21
97.4058052573073
 31
0.0
  0
TEXT
  5
   6C9
  8
0
  6
CONTINUOUS
 62
     7
 10
-337.166033638619
 20
104.533362934936
 30
0.0
 40
3.00000002980232
  1
=     =
 50
359.999999844103
 41
0.916666604744064
 72
     2
 11
-318.466034720444
 21
104.533362884149
 31
0.0
  0
INSERT
  5
   6CA
  8
0
  6
CONTINUOUS
 62
     7
  2
*UDIM2374
 10
0.0
 20
0.0
 30
0.0
  0
INSERT
  5
   6CB
  8
0
  6
CONTINUOUS
 62
     7
  2
*UDIM2375
 10
0.0
 20
0.0
 30
0.0
  0
INSERT
  5
   6CC
  8
0
  6
CONTINUOUS
 62
     7
  2
*UDIM2376
 10
0.0
 20
0.0
 30
0.0
  0
INSERT
  5
   6CD
  8
0
  6
CONTINUOUS
 62
     7
  2
*UDIM2377
 10
0.0
 20
0.0
 30
0.0
  0
INSERT
  5
   6CE
  8
0
  6
CONTINUOUS
 62
     7
  2
*UDIM2378
 10
0.0
 20
0.0
 30
0.0
  0
TEXT
  5
   6CF
  8
0
  6
CONTINUOUS
 62
     7
 10
-328.351254592441
 20
33.4152945780805
 30
0.0
 40
3.00000002980232
  1
Y
 50
359.999999844103
 41
0.916666604744064
 72
     2
 11
-326.151254723572
 21
33.4152945721055
 31
0.0
  0
TEXT
  5
   6D0
  8
0
  6
CONTINUOUS
 62
     7
 10
-329.105009685062
 20
115.448978354936
 30
0.0
 40
3.00000002980232
  1
Y
 50
359.999999844103
 41
0.916666604744064
 72
     2
 11
-326.905009816192
 21
115.448978348961
 31
0.0
  0
TEXT
  5
   6D1
  8
0
  6
CONTINUOUS
 62
     7
 10
-302.478473554157
 20
73.0737987065366
 30
0.0
 40
3.00000002980232
  1
X
 50
359.999999844103
 41
0.916666604744064
 72
     2
 11
-300.278473685287
 21
73.0737987005616
 31
0.0
  0
TEXT
  5
   6D2
  8
0
  6
CONTINUOUS
 62
     7
 10
-367.603645215534
 20
73.3891426825574
 30
0.0
 40
3.00000002980232
  1
X
 50
359.999999844103
 41
0.916666604744064
 72
     2
 11
-365.403645346664
 21
73.3891426765825
 31
0.0
  0
TEXT
  5
   6D3
  8
0
  6
CONTINUOUS
 62
     1
 10
-346.047607403457
 20
-149.360412507446
 30
0.0
 40
4.00000017881393
  1
601812/251
 50
359.999999844103
 41
0.937499973922969
 72
     2
 11
-309.297606803685
 21
-149.360412607255
 31
0.0
  0
TEXT
  5
   6D4
  8
0
  6
CONTINUOUS
 62
     1
 10
-334.961914048686
 20
-140.37882992949
 30
0.0
 40
3.00000002980232
  1
 S3
 50
359.999999844103
 41
0.916666604744064
 72
     2
 11
-327.261914496715
 21
-140.378829950402
 31
0.0
  0
TEXT
  5
   6D5
  8
0
  6
CONTINUOUS
 62
     1
 10
-356.496333807448
 20
-122.068557706718
 30
0.0
 40
2.00000008940697
  1
4POLE LOW VOLTAGE M.C.C.B SERIES ISOMAX
 50
359.999999844103
 41
0.749999861419206
 72
     1
 11
-327.39633788467
 21
-121.068557741047
 31
0.0
 73
     2
  0
TEXT
  5
   6D6
  8
0
  6
CONTINUOUS
 62
     1
 10
-349.746334717152
 20
-125.06855772505
 30
0.0
 40
2.00000008940697
  1
PLUG-IN VERSION REAR TERMINALS
 50
359.999999844103
 41
0.749999861419206
 72
     1
 11
-327.396337848896
 21
-124.068557741047
 31
0.0
 73
     2
  0
TEXT
  5
   6D7
  8
0
  6
CONTINUOUS
 62
     1
 10
-353.293942174802
 20
-130.138824448683
 30
0.0
 40
2.00000008940697
  1
INTERR.AUTOMATICO SERIE ISOMAX
 50
359.999999844103
 41
0.749999861419206
 72
     1
 11
-330.943945306545
 21
-129.138824464679
 31
0.0
 73
     2
  0
TEXT
  5
   6D8
  8
0
  6
CONTINUOUS
 62
     1
 10
-365.293940458176
 20
-133.138824416092
 30
0.0
 40
2.00000008940697
  1
TETRAP.ESECUZIONE RIMOVIBILE TERMIN.POSTERIORI
 50
359.999999844103
 41
0.749999861419206
 72
     1
 11
-330.943945270771
 21
-132.138824464679
 31
0.0
 73
     2
  0
ENDSEC
  0
EOF
